  0
SECTION
  2
HEADER
  9
$ACADVER
  1
AC1024
  9
$DWGCODEPAGE
  3
ANSI_1252
  9
$EXTMAX
 10
558.8
 20
431.8
 30
0.0
  9
$EXTMIN
 10
0.0
 20
0.0
 30
0.0
  9
$LIMMIN
 10
0.0
 20
0.0
  9
$LIMMAX
 10
558.8
 20
431.8
  9
$VIEWCTR
 10
279.4
 20
215.9
  9
$VIEWSIZE
 40
431.8
  9
$CLAYER
  8
0
  9
$LTSCALE
 40
30.734
  9
$CELTYPE
  6
BYLAYER
  9
$DIMSCALE
 40
1.0
  9
$DIMASZ
 40
3.0
  9
$DIMEXO
 40
0.5
  9
$DIMDLI
 40
21.2344
  9
$DIMEXE
 40
1.5
  9
$DIMCEN
 40
5.0292
  9
$DIMLFAC
 40
1.0
  9
$DIMBLK
  1
_FILLED
  9
$DIMALT
 70
0
  9
$DIMALTF
 40
0.0393700787
  9
$DIMTXT
 40
3.0
  9
$DIMTOL
 70
1
  9
$DIMLIM
 70
0
  9
$DIMTFAC
 40
1.0
  9
$DIMTP
 40
0.01
  9
$DIMTM
 40
0.01
  9
$DIMGAP
 40
0.625
  9
$DIMDSEP
 70
44
  9
$AUNITS
 70
0
  9
$PDMODE
 70
3
  9
$PDSIZE
 40
3.0
  9
$HANDSEED
  5
818
  9
$TILEMODE
 70
1
  9
$MEASUREMENT
 70
1
  9
$INSUNITS
 70
4
  0
ENDSEC
  0
SECTION
  2
CLASSES
  0
CLASS
  1
ACDBDICTIONARYWDFLT
  2
AcDbDictionaryWithDefault
  3
AutoCAD 2000
 90
0
 91
1
280
0
281
0
  0
CLASS
  1
ACDBPLACEHOLDER
  2
AcDbPlaceHolder
  3
AutoCAD 2000
 90
0
 91
1
280
0
281
0
  0
CLASS
  1
LAYOUT
  2
AcDbLayout
  3
AutoCAD 2000
 90
0
 91
0
280
0
281
0
  0
ENDSEC
  0
SECTION
  2
TABLES
  0
TABLE
  2
VPORT
  5
8
100
AcDbSymbolTable
 70
2
  0
VPORT
  5
1F4
100
AcDbSymbolTableRecord
100
AcDbViewportTableRecord
  2
*ACTIVE
 70
0
 10
0.0
 20
0.0
 11
1.0
 21
1.0
 12
279.4
 22
215.9
 13
0.0
 23
0.0
 14
1.0
 24
1.0
 15
0.0
 25
0.0
 16
0.0
 26
0.0
 36
1.0
 17
0.0
 27
0.0
 37
0.0
 40
431.8
 41
1.2941176471
 42
50.0
 43
0.0
 44
0.0
 50
0.0
 51
0.0
 71
0
 72
100
 73
1
 74
1
 75
0
 76
0
 77
0
 78
0
  0
ENDTAB
  0
TABLE
  2
LTYPE
  5
5
100
AcDbSymbolTable
 70
6
  0
LTYPE
  5
14
100
AcDbSymbolTableRecord
100
AcDbLinetypeTableRecord
  2
BYBLOCK
 70
0
  3

 72
65
 73
0
 40
0.0
  0
LTYPE
  5
15
100
AcDbSymbolTableRecord
100
AcDbLinetypeTableRecord
  2
BYLAYER
 70
0
  3

 72
65
 73
0
 40
0.0
  0
LTYPE
  5
16
100
AcDbSymbolTableRecord
100
AcDbLinetypeTableRecord
  2
CONTINUOUS
 70
64
  3
Solid line
 72
65
 73
0
 40
0.0
  0
LTYPE
  5
1F5
100
AcDbSymbolTableRecord
100
AcDbLinetypeTableRecord
  2
CENTER
 70
64
  3
____ _ ____ _ ____ _ ____ _ ____ _ ____ _ ____
 72
65
 73
4
 40
0.6
 49
0.375
 74
0
 49
-0.075
 74
0
 49
0.075
 74
0
 49
-0.075
 74
0
  0
LTYPE
  5
1F6
100
AcDbSymbolTableRecord
100
AcDbLinetypeTableRecord
  2
HIDDEN
 70
64
  3
- - - - - - - - - - - - - - - - - - - -
 72
65
 73
2
 40
0.2
 49
0.1
 74
0
 49
-0.1
 74
0
  0
LTYPE
  5
1F7
100
AcDbSymbolTableRecord
100
AcDbLinetypeTableRecord
  2
PHANTOM
 70
64
  3
_____ _ _ _____ _ _ _____ _ _ _____
 72
65
 73
6
 40
0.8
 49
0.45
 74
0
 49
-0.05
 74
0
 49
0.1
 74
0
 49
-0.05
 74
0
 49
0.1
 74
0
 49
-0.05
 74
0
  0
LTYPE
  5
1F8
100
AcDbSymbolTableRecord
100
AcDbLinetypeTableRecord
  2
DOT
 70
64
  3
. . . . . . . . . . . . . . . . . . . .
 72
65
 73
2
 40
0.2
 49
0.1
 74
0
 49
-0.1
 74
0
  0
LTYPE
  5
1F9
100
AcDbSymbolTableRecord
100
AcDbLinetypeTableRecord
  2
DASHED
 70
64
  3
- - - - - - - - - - - - - - - - - - - -
 72
65
 73
2
 40
0.2
 49
0.1
 74
0
 49
-0.1
 74
0
  0
ENDTAB
  0
TABLE
  2
LAYER
  5
2
100
AcDbSymbolTable
 70
36
  0
LAYER
  5
10
100
AcDbSymbolTableRecord
100
AcDbLayerTableRecord
  2
0
 70
0
 62
7
  6
CONTINUOUS
370
-3
390
F
  0
LAYER
  5
1FA
100
AcDbSymbolTableRecord
100
AcDbLayerTableRecord
  2
DEFAULT_1
 70
0
 62
7
  6
CENTER
370
-3
390
F
  0
LAYER
  5
1FB
100
AcDbSymbolTableRecord
100
AcDbLayerTableRecord
  2
DEFAULT_2
 70
0
 62
7
  6
HIDDEN
370
-3
390
F
  0
LAYER
  5
1FC
100
AcDbSymbolTableRecord
100
AcDbLayerTableRecord
  2
DEFAULT_3
 70
0
 62
7
  6
PHANTOM
370
-3
390
F
  0
LAYER
  5
1FD
100
AcDbSymbolTableRecord
100
AcDbLayerTableRecord
  2
ASSI
 70
0
 62
7
  6
CONTINUOUS
370
-3
390
F
  0
LAYER
  5
1FE
100
AcDbSymbolTableRecord
100
AcDbLayerTableRecord
  2
COORDINATE
 70
0
 62
7
  6
CONTINUOUS
370
-3
390
F
  0
LAYER
  5
1FF
100
AcDbSymbolTableRecord
100
AcDbLayerTableRecord
  2
COPY_PUBLISH
 70
0
 62
7
  6
CONTINUOUS
370
-3
390
F
  0
LAYER
  5
200
100
AcDbSymbolTableRecord
100
AcDbLayerTableRecord
  2
COSMETIC
 70
0
 62
7
  6
CONTINUOUS
370
-3
390
F
  0
LAYER
  5
201
100
AcDbSymbolTableRecord
100
AcDbLayerTableRecord
  2
CURVE
 70
0
 62
7
  6
CONTINUOUS
370
-3
390
F
  0
LAYER
  5
202
100
AcDbSymbolTableRecord
100
AcDbLayerTableRecord
  2
DRAFT
 70
0
 62
7
  6
CONTINUOUS
370
-3
390
F
  0
LAYER
  5
203
100
AcDbSymbolTableRecord
100
AcDbLayerTableRecord
  2
IMPORT_IGES
 70
0
 62
7
  6
CONTINUOUS
370
-3
390
F
  0
LAYER
  5
204
100
AcDbSymbolTableRecord
100
AcDbLayerTableRecord
  2
INTF_1
 70
0
 62
7
  6
CONTINUOUS
370
-3
390
F
  0
LAYER
  5
205
100
AcDbSymbolTableRecord
100
AcDbLayerTableRecord
  2
INTF_11
 70
0
 62
7
  6
CONTINUOUS
370
-3
390
F
  0
LAYER
  5
206
100
AcDbSymbolTableRecord
100
AcDbLayerTableRecord
  2
INTF_2
 70
0
 62
7
  6
CONTINUOUS
370
-3
390
F
  0
LAYER
  5
207
100
AcDbSymbolTableRecord
100
AcDbLayerTableRecord
  2
INTF_8
 70
0
 62
7
  6
CONTINUOUS
370
-3
390
F
  0
LAYER
  5
208
100
AcDbSymbolTableRecord
100
AcDbLayerTableRecord
  2
PIANI
 70
0
 62
7
  6
CONTINUOUS
370
-3
390
F
  0
LAYER
  5
209
100
AcDbSymbolTableRecord
100
AcDbLayerTableRecord
  2
PUNTI
 70
0
 62
7
  6
CONTINUOUS
370
-3
390
F
  0
LAYER
  5
20A
100
AcDbSymbolTableRecord
100
AcDbLayerTableRecord
  2
RACCORDO
 70
0
 62
7
  6
CONTINUOUS
370
-3
390
F
  0
LAYER
  5
20B
100
AcDbSymbolTableRecord
100
AcDbLayerTableRecord
  2
SNAPLINE
 70
0
 62
7
  6
CONTINUOUS
370
-3
390
F
  0
LAYER
  5
20C
100
AcDbSymbolTableRecord
100
AcDbLayerTableRecord
  2
SUPERFICI
 70
0
 62
7
  6
CONTINUOUS
370
-3
390
F
  0
LAYER
  5
20D
100
AcDbSymbolTableRecord
100
AcDbLayerTableRecord
  2
TRASH
 70
0
 62
7
  6
CONTINUOUS
370
-3
390
F
  0
LAYER
  5
20E
100
AcDbSymbolTableRecord
100
AcDbLayerTableRecord
  2
___SHELL
 70
0
 62
7
  6
CONTINUOUS
370
-3
390
F
  0
ENDTAB
  0
TABLE
  2
STYLE
  5
3
100
AcDbSymbolTable
 70
1
  0
STYLE
  5
11
100
AcDbSymbolTableRecord
100
AcDbTextStyleTableRecord
  2
STANDARD
 70
0
 40
0.0
 41
0.8
 50
0.0
 71
0
 42
0.2
  3
txt
  4

  0
STYLE
  5
20F
100
AcDbSymbolTableRecord
100
AcDbTextStyleTableRecord
  2
TEXTSTYLE_1
 70
0
 40
0.0
 41
0.8
 50
0.0
 71
0
 42
0.2
  3
gdt
  4

  0
ENDTAB
  0
TABLE
  2
VIEW
  5
6
100
AcDbSymbolTable
 70
0
  0
ENDTAB
  0
TABLE
  2
UCS
  5
7
100
AcDbSymbolTable
 70
0
  0
ENDTAB
  0
TABLE
  2
APPID
  5
9
100
AcDbSymbolTable
 70
1
  0
APPID
  5
210
100
AcDbSymbolTableRecord
100
AcDbRegAppTableRecord
  2
ACAD
 70
0
  0
ENDTAB
  0
TABLE
  2
BLOCK_RECORD
  5
1
100
AcDbSymbolTable
 70
0
  0
BLOCK_RECORD
  5
211
100
AcDbSymbolTableRecord
100
AcDbBlockTableRecord
  2
*Model_Space
  0
BLOCK_RECORD
  5
212
100
AcDbSymbolTableRecord
100
AcDbBlockTableRecord
  2
*Paper_Space
  0
BLOCK_RECORD
  5
213
100
AcDbSymbolTableRecord
100
AcDbBlockTableRecord
  2
_FILLED
  0
ENDTAB
  0
TABLE
  2
DIMSTYLE
  5
A
100
AcDbSymbolTable
 70
1
100
AcDbDimStyleTable
 71
0
  0
DIMSTYLE
105
214
100
AcDbSymbolTableRecord
100
AcDbDimStyleTableRecord
  2
STANDARD
 70
0
  3

  4

 40
1.0
 41
3.0
 42
0.5
 43
0.38
 44
1.5
 45
0.0
 46
0.0
 47
0.01
 48
0.01
140
3.0
141
0.09
142
0.0
143
25.4
144
1.0
145
0.0
146
1.0
147
0.625
 71
1
 72
0
 73
0
 74
0
 75
0
 76
0
 77
1
 78
8
 79
2
170
0
171
1
172
0
173
0
174
0
175
0
176
0
177
0
178
0
270
2
179
2
271
2
272
2
273
2
274
2
275
0
280
0
281
0
282
0
283
1
284
8
285
0
286
0
287
3
288
0
340
11
278
44
341
213
342
213
343
213
344
213
  0
ENDTAB
  0
ENDSEC
  0
SECTION
  2
BLOCKS
  0
BLOCK
  5
20
100
AcDbEntity
  8
0
100
AcDbBlockBegin
  2
*Model_Space
 70
0
 10
0.0
 20
0.0
 30
0.0
  3
*Model_Space
  1

  0
ENDBLK
  5
21
100
AcDbEntity
  8
0
100
AcDbBlockEnd
  0
BLOCK
  5
1C
100
AcDbEntity
  8
0
100
AcDbBlockBegin
  2
*Paper_Space
 70
0
 10
0.0
 20
0.0
 30
0.0
  3
*Paper_Space
  1

  0
ENDBLK
  5
1D
100
AcDbEntity
  8
0
100
AcDbBlockEnd
  0
BLOCK
  5
215
100
AcDbEntity
  8
0
100
AcDbBlockBegin
  2
_FILLED
 70
64
 10
0.0
 20
0.0
  3
_FILLED
  1

  0
SOLID
  5
216
100
AcDbEntity
  8
0
  6
BYBLOCK
 62
0
100
AcDbTrace
 10
0.0
 20
0.0
 11
-1.0
 21
0.3166666667
 12
-1.0
 22
-0.3166666667
 13
-1.0
 23
-0.3166666667
  0
ENDBLK
  5
217
100
AcDbEntity
  8
0
  6
BYBLOCK
 62
0
100
AcDbBlockEnd
  0
ENDSEC
  0
SECTION
  2
ENTITIES
  0
LWPOLYLINE
  5
218
100
AcDbEntity
  8
RACCORDO
100
AcDbPolyline
 62
7
  6
CONTINUOUS
 90
7
 70
0
 10
-22.1662414635
 20
17.0643546451
 10
-22.2286618071
 20
16.9728785988
 10
-22.2799524091
 20
16.8773317212
 10
-22.3201132697
 20
16.7777140123
 10
-22.3491443888
 20
16.6740254721
 10
-22.3670457665
 20
16.5662661007
 10
-22.3738174026
 20
16.4544358981
  0
LWPOLYLINE
  5
219
100
AcDbEntity
  8
ASSI
100
AcDbPolyline
 62
7
  6
CONTINUOUS
 90
7
 70
0
 10
-22.1662414635
 20
17.0643546451
 10
-22.2286618071
 20
16.9728785988
 10
-22.2799524091
 20
16.8773317212
 10
-22.3201132697
 20
16.7777140123
 10
-22.3491443888
 20
16.6740254721
 10
-22.3670457665
 20
16.5662661007
 10
-22.3738174026
 20
16.4544358981
  0
LINE
  5
21A
100
AcDbEntity
  8
DRAFT
100
AcDbLine
 62
7
  6
CONTINUOUS
 10
-18.7726756989
 20
20.7603594806
 11
-18.6330351795
 21
20.9
  0
LINE
  5
21B
100
AcDbEntity
  8
ASSI
100
AcDbLine
 62
7
  6
CONTINUOUS
 10
-18.7726756989
 20
20.7603594806
 11
-18.6330351795
 21
20.9
  0
LINE
  5
21C
100
AcDbEntity
  8
DRAFT
100
AcDbLine
 62
7
  6
CONTINUOUS
 10
-18.7726756989
 20
-20.7603594806
 11
-18.6330351795
 21
-20.9
  0
LINE
  5
21D
100
AcDbEntity
  8
ASSI
100
AcDbLine
 62
7
  6
CONTINUOUS
 10
-18.7726756989
 20
-20.7603594806
 11
-18.6330351795
 21
-20.9
  0
LINE
  5
21E
100
AcDbEntity
  8
RACCORDO
100
AcDbLine
 62
250
  6
CONTINUOUS
 10
-20.9261825974
 20
18.029762091
 11
-20.9
 21
18.1006347748
  0
LINE
  5
21F
100
AcDbEntity
  8
ASSI
100
AcDbLine
 62
250
  6
CONTINUOUS
 10
-20.9261825974
 20
18.029762091
 11
-20.9
 21
18.1006347748
  0
LINE
  5
220
100
AcDbEntity
  8
RACCORDO
100
AcDbLine
 62
250
  6
CONTINUOUS
 10
-21.2782587846
 20
18.1595749722
 11
-21.2517445951
 21
18.2308351883
  0
LINE
  5
221
100
AcDbEntity
  8
DRAFT
100
AcDbLine
 62
7
  6
CONTINUOUS
 10
-17.9830351795
 20
18.8430942654
 11
-17.8109317497
 21
19.0173482781
  0
LINE
  5
222
100
AcDbEntity
  8
ASSI
100
AcDbLine
 62
7
  6
CONTINUOUS
 10
-17.9830351795
 20
18.8430942654
 11
-17.8109317497
 21
19.0173482781
  0
LINE
  5
223
100
AcDbEntity
  8
DRAFT
100
AcDbLine
 62
7
  6
CONTINUOUS
 10
-17.9830351795
 20
18.6327542795
 11
-17.748694703
 21
18.867094756
  0
LINE
  5
224
100
AcDbEntity
  8
ASSI
100
AcDbLine
 62
7
  6
CONTINUOUS
 10
-17.9830351795
 20
18.6327542795
 11
-17.748694703
 21
18.867094756
  0
LWPOLYLINE
  5
225
100
AcDbEntity
  8
RACCORDO
100
AcDbPolyline
 62
7
  6
CONTINUOUS
 90
10
 70
0
 10
-21.251744595
 20
18.2308351884
 10
-21.2066695918
 20
18.2679324175
 10
-21.160223699
 20
18.2910868719
 10
-21.1124069168
 20
18.3002985515
 10
-21.059393969
 20
18.2941650705
 10
-21.0050101317
 20
18.2740888148
 10
-20.9607312333
 20
18.2442769417
 10
-20.9303825499
 20
18.2061318368
 10
-20.9101388055
 20
18.1582511145
 10
-20.9
 20
18.1006347748
  0
LWPOLYLINE
  5
226
100
AcDbEntity
  8
ASSI
100
AcDbPolyline
 62
7
  6
CONTINUOUS
 90
10
 70
0
 10
-21.251744595
 20
18.2308351884
 10
-21.2066695918
 20
18.2679324175
 10
-21.160223699
 20
18.2910868719
 10
-21.1124069168
 20
18.3002985515
 10
-21.059393969
 20
18.2941650705
 10
-21.0050101317
 20
18.2740888148
 10
-20.9607312333
 20
18.2442769417
 10
-20.9303825499
 20
18.2061318368
 10
-20.9101388055
 20
18.1582511145
 10
-20.9
 20
18.1006347748
  0
LWPOLYLINE
  5
227
100
AcDbEntity
  8
RACCORDO
100
AcDbPolyline
 62
7
  6
CONTINUOUS
 90
10
 70
0
 10
-21.2782587845
 20
-18.1595749722
 10
-21.2333444334
 20
-18.1967419377
 10
-21.1870212005
 20
-18.2200108497
 10
-21.1392890856
 20
-18.2293817082
 10
-21.0863379882
 20
-18.2235206482
 10
-21.031978009
 20
-18.2037615347
 10
-20.98763945
 20
-18.1741059627
 10
-20.9571324122
 20
-18.1358877972
 10
-20.9366467946
 20
-18.0877731733
 10
-20.9261825974
 20
-18.029762091
  0
LWPOLYLINE
  5
228
100
AcDbEntity
  8
ASSI
100
AcDbPolyline
 62
7
  6
CONTINUOUS
 90
10
 70
0
 10
-21.2782587845
 20
-18.1595749722
 10
-21.2333444334
 20
-18.1967419377
 10
-21.1870212005
 20
-18.2200108497
 10
-21.1392890856
 20
-18.2293817082
 10
-21.0863379882
 20
-18.2235206482
 10
-21.031978009
 20
-18.2037615347
 10
-20.98763945
 20
-18.1741059627
 10
-20.9571324122
 20
-18.1358877972
 10
-20.9366467946
 20
-18.0877731733
 10
-20.9261825974
 20
-18.029762091
  0
LINE
  5
229
100
AcDbEntity
  8
DRAFT
100
AcDbLine
 62
7
  6
CONTINUOUS
 10
-17.748694703
 20
-18.867094756
 11
-17.9830351795
 21
-18.6327542795
  0
LINE
  5
22A
100
AcDbEntity
  8
ASSI
100
AcDbLine
 62
7
  6
CONTINUOUS
 10
-17.748694703
 20
-18.867094756
 11
-17.9830351795
 21
-18.6327542795
  0
LINE
  5
22B
100
AcDbEntity
  8
DRAFT
100
AcDbLine
 62
7
  6
CONTINUOUS
 10
-17.8109317497
 20
-19.0173482781
 11
-17.9830351795
 21
-18.8430942654
  0
LINE
  5
22C
100
AcDbEntity
  8
ASSI
100
AcDbLine
 62
7
  6
CONTINUOUS
 10
-17.8109317497
 20
-19.0173482781
 11
-17.9830351795
 21
-18.8430942654
  0
LINE
  5
22D
100
AcDbEntity
  8
RACCORDO
100
AcDbLine
 62
250
  6
CONTINUOUS
 10
-21.2782587846
 20
-18.1595749722
 11
-21.2517445951
 21
-18.2308351883
  0
LINE
  5
22E
100
AcDbEntity
  8
ASSI
100
AcDbLine
 62
250
  6
CONTINUOUS
 10
-21.2782587846
 20
-18.1595749722
 11
-21.2517445951
 21
-18.2308351883
  0
LINE
  5
22F
100
AcDbEntity
  8
RACCORDO
100
AcDbLine
 62
250
  6
CONTINUOUS
 10
-20.9261825974
 20
-18.029762091
 11
-20.9
 21
-18.1006347748
  0
LINE
  5
230
100
AcDbEntity
  8
DRAFT
100
AcDbLine
 62
7
  6
CONTINUOUS
 10
-18.2173756559
 20
18.867094756
 11
-18.1551386093
 21
19.0173482781
  0
LINE
  5
231
100
AcDbEntity
  8
ASSI
100
AcDbLine
 62
7
  6
CONTINUOUS
 10
-18.2173756559
 20
18.867094756
 11
-18.1551386093
 21
19.0173482781
  0
LWPOLYLINE
  5
232
100
AcDbEntity
  8
0
100
AcDbPolyline
 62
250
  6
CONTINUOUS
 90
13
 70
0
 10
-18.2982790079
 20
16.5982839239
 10
-18.1550767647
 20
16.7322160238
 10
-18.0034130556
 20
16.8565115957
 10
-17.8439338153
 20
16.9706371656
 10
-17.6773203786
 20
17.0741010729
 10
-17.5042813553
 20
17.1664600131
 10
-17.3255488952
 20
17.2473196236
 10
-17.1418771277
 20
17.3163323609
 10
-16.9540571229
 20
17.3731951573
 10
-16.7629089205
 20
17.4176578763
 10
-16.5692557169
 20
17.4495285314
 10
-16.3739192672
 20
17.468670465
 10
-16.1777346037
 20
17.4750002804
  0
LINE
  5
233
100
AcDbEntity
  8
DRAFT
100
AcDbLine
 62
7
  6
CONTINUOUS
 10
-18.4721457668
 20
19.0173482781
 11
-18.7726756989
 21
18.867094756
  0
LINE
  5
234
100
AcDbEntity
  8
ASSI
100
AcDbLine
 62
7
  6
CONTINUOUS
 10
-18.4721457668
 20
19.0173482781
 11
-18.7726756989
 21
18.867094756
  0
LINE
  5
235
100
AcDbEntity
  8
DRAFT
100
AcDbLine
 62
7
  6
CONTINUOUS
 10
18.6330351795
 20
-20.9
 11
18.4864808301
 21
-20.9320850844
  0
LINE
  5
236
100
AcDbEntity
  8
ASSI
100
AcDbLine
 62
7
  6
CONTINUOUS
 10
18.6330351795
 20
-20.9
 11
18.4864808301
 21
-20.9320850844
  0
LINE
  5
237
100
AcDbEntity
  8
DRAFT
100
AcDbLine
 62
7
  6
CONTINUOUS
 10
-18.4864808301
 20
-20.9320850844
 11
-18.6330351795
 21
-20.9
  0
LINE
  5
238
100
AcDbEntity
  8
ASSI
100
AcDbLine
 62
7
  6
CONTINUOUS
 10
-18.4864808301
 20
-20.9320850844
 11
-18.6330351795
 21
-20.9
  0
LINE
  5
239
100
AcDbEntity
  8
DRAFT
100
AcDbLine
 62
7
  6
CONTINUOUS
 10
-18.7726756989
 20
-18.867094756
 11
-18.4721457668
 21
-19.0173482781
  0
LINE
  5
23A
100
AcDbEntity
  8
ASSI
100
AcDbLine
 62
7
  6
CONTINUOUS
 10
-18.7726756989
 20
-18.867094756
 11
-18.4721457668
 21
-19.0173482781
  0
LWPOLYLINE
  5
23B
100
AcDbEntity
  8
0
100
AcDbPolyline
 62
250
  6
CONTINUOUS
 90
13
 70
0
 10
-18.3024982616
 20
-16.5940607182
 10
-18.4362141828
 20
-16.4509464148
 10
-18.5603177966
 20
-16.2993835149
 10
-18.6742756743
 20
-16.1400146895
 10
-18.7776021979
 20
-15.9735069129
 10
-18.869845603
 20
-15.8005761706
 10
-18.950595983
 20
-15.6219877025
 10
-19.0195040705
 20
-15.4385187019
 10
-19.0762831275
 20
-15.2509376376
 10
-19.1206950195
 20
-15.0600297297
 10
-19.152548399
 20
-14.8666035948
 10
-19.1717028703
 20
-14.671488784
 10
-19.178073767
 20
-14.4755173726
  0
LINE
  5
23C
100
AcDbEntity
  8
DRAFT
100
AcDbLine
 62
7
  6
CONTINUOUS
 10
-18.2173756559
 20
-18.867094756
 11
-18.1551386093
 21
-19.0173482781
  0
LINE
  5
23D
100
AcDbEntity
  8
ASSI
100
AcDbLine
 62
7
  6
CONTINUOUS
 10
-18.2173756559
 20
-18.867094756
 11
-18.1551386093
 21
-19.0173482781
  0
LWPOLYLINE
  5
23E
100
AcDbEntity
  8
RACCORDO
100
AcDbPolyline
 62
7
  6
CONTINUOUS
 90
7
 70
0
 10
-22.3738174026
 20
-16.4544358981
 10
-22.3674773566
 20
-16.5649979628
 10
-22.349834933
 20
-16.6719964515
 10
-22.320890132
 20
-16.775431364
 10
-22.2806429534
 20
-16.8753027005
 10
-22.2290933972
 20
-16.9716104609
 10
-22.1662414635
 20
-17.0643546451
  0
LWPOLYLINE
  5
23F
100
AcDbEntity
  8
ASSI
100
AcDbPolyline
 62
7
  6
CONTINUOUS
 90
7
 70
0
 10
-22.3738174026
 20
-16.4544358981
 10
-22.3674773566
 20
-16.5649979628
 10
-22.349834933
 20
-16.6719964515
 10
-22.320890132
 20
-16.775431364
 10
-22.2806429534
 20
-16.8753027005
 10
-22.2290933972
 20
-16.9716104609
 10
-22.1662414635
 20
-17.0643546451
  0
LINE
  5
240
100
AcDbEntity
  8
RACCORDO
100
AcDbLine
 62
7
  6
CONTINUOUS
 10
-22.4
 20
-21.8997711479
 11
-22.4
 21
-16.4633443086
  0
LINE
  5
241
100
AcDbEntity
  8
ASSI
100
AcDbLine
 62
7
  6
CONTINUOUS
 10
-22.4
 20
-21.8997711479
 11
-22.4
 21
-16.4633443086
  0
LINE
  5
242
100
AcDbEntity
  8
RACCORDO
100
AcDbLine
 62
7
  6
CONTINUOUS
 10
-22.4
 20
16.4633443086
 11
-22.4
 21
21.8997711479
  0
LINE
  5
243
100
AcDbEntity
  8
ASSI
100
AcDbLine
 62
7
  6
CONTINUOUS
 10
-22.4
 20
16.4633443086
 11
-22.4
 21
21.8997711479
  0
LINE
  5
244
100
AcDbEntity
  8
RACCORDO
100
AcDbLine
 62
7
  6
CONTINUOUS
 10
-22.3738174026
 20
16.4544358981
 11
-22.3738174026
 21
-16.4544358981
  0
LINE
  5
245
100
AcDbEntity
  8
ASSI
100
AcDbLine
 62
7
  6
CONTINUOUS
 10
-22.3738174026
 20
16.4544358981
 11
-22.3738174026
 21
-16.4544358981
  0
LINE
  5
246
100
AcDbEntity
  8
DRAFT
100
AcDbLine
 62
7
  6
CONTINUOUS
 10
8.0959942472
 20
-21.1851643248
 11
7.797027879
 21
-21.2
  0
LINE
  5
247
100
AcDbEntity
  8
ASSI
100
AcDbLine
 62
7
  6
CONTINUOUS
 10
8.0959942472
 20
-21.1851643248
 11
7.797027879
 21
-21.2
  0
LINE
  5
248
100
AcDbEntity
  8
DRAFT
100
AcDbLine
 62
7
  6
CONTINUOUS
 10
8.15
 20
-22.1851643248
 11
8.2441170282
 21
-22.1805062352
  0
LINE
  5
249
100
AcDbEntity
  8
ASSI
100
AcDbLine
 62
7
  6
CONTINUOUS
 10
8.15
 20
-22.1851643248
 11
8.2441170282
 21
-22.1805062352
  0
LINE
  5
24A
100
AcDbEntity
  8
DRAFT
100
AcDbLine
 62
7
  6
CONTINUOUS
 10
-14.35
 20
-22.1851643248
 11
-14.2558829718
 21
-22.1805062352
  0
LINE
  5
24B
100
AcDbEntity
  8
ASSI
100
AcDbLine
 62
7
  6
CONTINUOUS
 10
-14.35
 20
-22.1851643248
 11
-14.2558829718
 21
-22.1805062352
  0
LINE
  5
24C
100
AcDbEntity
  8
DRAFT
100
AcDbLine
 62
7
  6
CONTINUOUS
 10
-15.2233373476
 20
-23.5
 11
-14.25
 21
-23.5
  0
LINE
  5
24D
100
AcDbEntity
  8
ASSI
100
AcDbLine
 62
7
  6
CONTINUOUS
 10
-15.2233373476
 20
-23.5
 11
-14.25
 21
-23.5
  0
LINE
  5
24E
100
AcDbEntity
  8
DRAFT
100
AcDbLine
 62
7
  6
CONTINUOUS
 10
-8.25
 20
-23.5
 11
-7.2766626524
 21
-23.5
  0
LINE
  5
24F
100
AcDbEntity
  8
ASSI
100
AcDbLine
 62
7
  6
CONTINUOUS
 10
-8.25
 20
-23.5
 11
-7.2766626524
 21
-23.5
  0
LINE
  5
250
100
AcDbEntity
  8
DRAFT
100
AcDbLine
 62
7
  6
CONTINUOUS
 10
7.2766626524
 20
-23.5
 11
8.25
 21
-23.5
  0
LINE
  5
251
100
AcDbEntity
  8
ASSI
100
AcDbLine
 62
7
  6
CONTINUOUS
 10
7.2766626524
 20
-23.5
 11
8.25
 21
-23.5
  0
LINE
  5
252
100
AcDbEntity
  8
DRAFT
100
AcDbLine
 62
7
  6
CONTINUOUS
 10
14.25
 20
-23.5
 11
15.2233373476
 21
-23.5
  0
LINE
  5
253
100
AcDbEntity
  8
ASSI
100
AcDbLine
 62
7
  6
CONTINUOUS
 10
14.25
 20
-23.5
 11
15.2233373476
 21
-23.5
  0
LINE
  5
254
100
AcDbEntity
  8
DRAFT
100
AcDbLine
 62
7
  6
CONTINUOUS
 10
-15.2130152422
 20
-23.4650925288
 11
-7.2869847578
 21
-23.4650925288
  0
LINE
  5
255
100
AcDbEntity
  8
ASSI
100
AcDbLine
 62
7
  6
CONTINUOUS
 10
-15.2130152422
 20
-23.4650925288
 11
-7.2869847578
 21
-23.4650925288
  0
LINE
  5
256
100
AcDbEntity
  8
DRAFT
100
AcDbLine
 62
7
  6
CONTINUOUS
 10
7.2869847578
 20
-23.4650925288
 11
15.2130152422
 21
-23.4650925288
  0
LINE
  5
257
100
AcDbEntity
  8
ASSI
100
AcDbLine
 62
7
  6
CONTINUOUS
 10
7.2869847578
 20
-23.4650925288
 11
15.2130152422
 21
-23.4650925288
  0
LINE
  5
258
100
AcDbEntity
  8
DRAFT
100
AcDbLine
 62
7
  6
CONTINUOUS
 10
-21.9003805997
 20
-22.4
 11
-16.8
 21
-22.4
  0
LINE
  5
259
100
AcDbEntity
  8
ASSI
100
AcDbLine
 62
7
  6
CONTINUOUS
 10
-21.9003805997
 20
-22.4
 11
-16.8
 21
-22.4
  0
LINE
  5
25A
100
AcDbEntity
  8
DRAFT
100
AcDbLine
 62
7
  6
CONTINUOUS
 10
-5.7
 20
-22.4
 11
5.7
 21
-22.4
  0
LINE
  5
25B
100
AcDbEntity
  8
ASSI
100
AcDbLine
 62
7
  6
CONTINUOUS
 10
-5.7
 20
-22.4
 11
5.7
 21
-22.4
  0
LINE
  5
25C
100
AcDbEntity
  8
DRAFT
100
AcDbLine
 62
7
  6
CONTINUOUS
 10
16.8
 20
-22.4
 11
21.9003805997
 21
-22.4
  0
LINE
  5
25D
100
AcDbEntity
  8
ASSI
100
AcDbLine
 62
7
  6
CONTINUOUS
 10
16.8
 20
-22.4
 11
21.9003805997
 21
-22.4
  0
LINE
  5
25E
100
AcDbEntity
  8
DRAFT
100
AcDbLine
 62
7
  6
CONTINUOUS
 10
7.8502441328
 20
-22.2
 11
14.6497558672
 21
-22.2
  0
LINE
  5
25F
100
AcDbEntity
  8
ASSI
100
AcDbLine
 62
7
  6
CONTINUOUS
 10
7.8502441328
 20
-22.2
 11
14.6497558672
 21
-22.2
  0
LINE
  5
260
100
AcDbEntity
  8
DRAFT
100
AcDbLine
 62
7
  6
CONTINUOUS
 10
-7.8502441328
 20
-22.2
 11
-14.6497558672
 21
-22.2
  0
LINE
  5
261
100
AcDbEntity
  8
ASSI
100
AcDbLine
 62
7
  6
CONTINUOUS
 10
-7.8502441328
 20
-22.2
 11
-14.6497558672
 21
-22.2
  0
LINE
  5
262
100
AcDbEntity
  8
DRAFT
100
AcDbLine
 62
7
  6
CONTINUOUS
 10
14.2558829718
 20
-22.1805062352
 11
8.2441170282
 21
-22.1805062352
  0
LINE
  5
263
100
AcDbEntity
  8
ASSI
100
AcDbLine
 62
7
  6
CONTINUOUS
 10
14.2558829718
 20
-22.1805062352
 11
8.2441170282
 21
-22.1805062352
  0
LINE
  5
264
100
AcDbEntity
  8
DRAFT
100
AcDbLine
 62
7
  6
CONTINUOUS
 10
-8.2441170282
 20
-22.1805062352
 11
-14.2558829718
 21
-22.1805062352
  0
LINE
  5
265
100
AcDbEntity
  8
ASSI
100
AcDbLine
 62
7
  6
CONTINUOUS
 10
-8.2441170282
 20
-22.1805062352
 11
-14.2558829718
 21
-22.1805062352
  0
LINE
  5
266
100
AcDbEntity
  8
DRAFT
100
AcDbLine
 62
7
  6
CONTINUOUS
 10
-8.2441170282
 20
-22.1805062352
 11
-8.15
 21
-22.1851643248
  0
LINE
  5
267
100
AcDbEntity
  8
ASSI
100
AcDbLine
 62
7
  6
CONTINUOUS
 10
-8.2441170282
 20
-22.1805062352
 11
-8.15
 21
-22.1851643248
  0
LINE
  5
268
100
AcDbEntity
  8
DRAFT
100
AcDbLine
 62
7
  6
CONTINUOUS
 10
-7.797027879
 20
-21.2
 11
-8.0959942472
 21
-21.1851643248
  0
LINE
  5
269
100
AcDbEntity
  8
ASSI
100
AcDbLine
 62
7
  6
CONTINUOUS
 10
-7.797027879
 20
-21.2
 11
-8.0959942472
 21
-21.1851643248
  0
LINE
  5
26A
100
AcDbEntity
  8
DRAFT
100
AcDbLine
 62
7
  6
CONTINUOUS
 10
14.2558829718
 20
-22.1805062352
 11
14.35
 21
-22.1851643248
  0
LINE
  5
26B
100
AcDbEntity
  8
ASSI
100
AcDbLine
 62
7
  6
CONTINUOUS
 10
14.2558829718
 20
-22.1805062352
 11
14.35
 21
-22.1851643248
  0
LINE
  5
26C
100
AcDbEntity
  8
RACCORDO
100
AcDbLine
 62
7
  6
CONTINUOUS
 10
-20.9261825974
 20
-18.029762091
 11
-20.9261825974
 21
-0.317094756
  0
LINE
  5
26D
100
AcDbEntity
  8
ASSI
100
AcDbLine
 62
7
  6
CONTINUOUS
 10
-20.9261825974
 20
-18.029762091
 11
-20.9261825974
 21
-0.317094756
  0
LINE
  5
26E
100
AcDbEntity
  8
RACCORDO
100
AcDbLine
 62
7
  6
CONTINUOUS
 10
-20.9261825974
 20
0.317094756
 11
-20.9261825974
 21
18.029762091
  0
LINE
  5
26F
100
AcDbEntity
  8
ASSI
100
AcDbLine
 62
7
  6
CONTINUOUS
 10
-20.9261825974
 20
0.317094756
 11
-20.9261825974
 21
18.029762091
  0
LINE
  5
270
100
AcDbEntity
  8
RACCORDO
100
AcDbLine
 62
7
  6
CONTINUOUS
 10
-20.9
 20
20.9
 11
-20.9
 21
18.1006347748
  0
LINE
  5
271
100
AcDbEntity
  8
ASSI
100
AcDbLine
 62
7
  6
CONTINUOUS
 10
-20.9
 20
20.9
 11
-20.9
 21
18.1006347748
  0
LINE
  5
272
100
AcDbEntity
  8
RACCORDO
100
AcDbLine
 62
7
  6
CONTINUOUS
 10
-20.9
 20
-18.1006347748
 11
-20.9
 21
-20.9
  0
LINE
  5
273
100
AcDbEntity
  8
ASSI
100
AcDbLine
 62
7
  6
CONTINUOUS
 10
-20.9
 20
-18.1006347748
 11
-20.9
 21
-20.9
  0
LINE
  5
274
100
AcDbEntity
  8
DRAFT
100
AcDbLine
 62
7
  6
CONTINUOUS
 10
-20.7603594806
 20
20.7603594806
 11
-20.7603594806
 21
0.4
  0
LINE
  5
275
100
AcDbEntity
  8
ASSI
100
AcDbLine
 62
7
  6
CONTINUOUS
 10
-20.7603594806
 20
20.7603594806
 11
-20.7603594806
 21
0.4
  0
LINE
  5
276
100
AcDbEntity
  8
DRAFT
100
AcDbLine
 62
7
  6
CONTINUOUS
 10
-20.7603594806
 20
-0.4
 11
-20.7603594806
 21
-20.7603594806
  0
LINE
  5
277
100
AcDbEntity
  8
ASSI
100
AcDbLine
 62
7
  6
CONTINUOUS
 10
-20.7603594806
 20
-0.4
 11
-20.7603594806
 21
-20.7603594806
  0
LINE
  5
278
100
AcDbEntity
  8
0
100
AcDbLine
 62
7
  6
CONTINUOUS
 10
-19.2116569859
 20
-14.5230649615
 11
-19.211660285
 21
14.5126344479
  0
LINE
  5
279
100
AcDbEntity
  8
0
100
AcDbLine
 62
7
  6
CONTINUOUS
 10
-19.2116603075
 20
14.5126344479
 11
-19.2116533528
 21
14.5230695177
  0
LWPOLYLINE
  5
27A
100
AcDbEntity
  8
0
100
AcDbPolyline
 62
7
  6
CONTINUOUS
 90
49
 70
0
 10
-19.2116444157
 20
14.523069497
 10
-19.2097002632
 20
14.6212032611
 10
-19.2045498637
 20
14.719193319
 10
-19.1962013051
 20
14.8169351029
 10
-19.1846651156
 20
14.9143326127
 10
-19.1699566179
 20
15.0112739436
 10
-19.1520985285
 20
15.1076317943
 10
-19.1311166971
 20
15.2032960644
 10
-19.1070369261
 20
15.2981743346
 10
-19.079889022
 20
15.3921676374
 10
-19.049706952
 20
15.4851759747
 10
-19.016526999
 20
15.5771035636
 10
-18.9803865381
 20
15.6678594807
 10
-18.9413279615
 20
15.7573487479
 10
-18.8993964609
 20
15.8454787024
 10
-18.8546370028
 20
15.9321637506
 10
-18.8071011507
 20
16.017312082
 10
-18.756841362
 20
16.100837389
 10
-18.7039065303
 20
16.1826640828
 10
-18.6483546837
 20
16.2627068505
 10
-18.5902461321
 20
16.3408828564
 10
-18.5296350511
 20
16.417121739
 10
-18.4665851473
 20
16.4913447745
 10
-18.4011644572
 20
16.5634732837
 10
-18.3334356565
 20
16.6334387656
 10
-18.2634700622
 20
16.7011674762
 10
-18.1913414299
 20
16.7665880838
 10
-18.1171182809
 20
16.8296378935
 10
-18.0408793001
 20
16.8902488655
 10
-17.9627032075
 20
16.9483572985
 10
-17.8826603729
 20
17.0039090137
 10
-17.8008336499
 20
17.0568436929
 10
-17.7173083362
 20
17.1071033209
 10
-17.6321599773
 20
17.1546390295
 10
-17.5454748612
 20
17.1993983681
 10
-17.4573448145
 20
17.2413297601
 10
-17.3678554388
 20
17.2803882308
 10
-17.2770993832
 20
17.3165285912
 10
-17.1851716384
 20
17.3497084421
 10
-17.0921631777
 20
17.3798903913
 10
-16.9981698107
 20
17.407038152
 10
-16.9032915118
 20
17.4311177689
 10
-16.8076272236
 20
17.452099445
 10
-16.7112693644
 20
17.469957379
 10
-16.6143280358
 20
17.4846657213
 10
-16.5169305172
 20
17.4962017597
 10
-16.4191887057
 20
17.5045501707
 10
-16.3211986086
 20
17.5097004231
 10
-16.2230647938
 20
17.5116444275
  0
LWPOLYLINE
  5
27B
100
AcDbEntity
  8
0
100
AcDbPolyline
 62
250
  6
CONTINUOUS
 90
13
 70
0
 10
-19.1780738007
 20
14.4758749843
 10
-19.1716512461
 20
14.6722760048
 10
-19.1523879198
 20
14.8678220051
 10
-19.120367626
 20
15.0616751557
 10
-19.0757299216
 20
15.2530018693
 10
-19.0186666027
 20
15.4409856276
 10
-18.9494187465
 20
15.6248298493
 10
-18.8682764806
 20
15.8037582091
 10
-18.7755911151
 20
15.9769905418
 10
-18.6717749979
 20
16.1437580214
 10
-18.5572830606
 20
16.3033400964
 10
-18.4326051221
 20
16.4550644519
 10
-18.2982790079
 20
16.5982839239
  0
LWPOLYLINE
  5
27C
100
AcDbEntity
  8
0
100
AcDbPolyline
 62
250
  6
CONTINUOUS
 90
25
 70
0
 10
-19.102696923
 20
14.4005391797
 10
-19.0961397376
 20
14.5968185838
 10
-19.076757029
 20
14.792208614
 10
-19.044641356
 20
14.985872759
 10
-18.9999410987
 20
15.176977723
 10
-18.9428562108
 20
15.3647127925
 10
-18.8736338917
 20
15.5482922829
 10
-18.7925761269
 20
15.7269332608
 10
-18.7000354177
 20
15.8998741738
 10
-18.5964043385
 20
16.0663915994
 10
-18.4821289528
 20
16.2257751237
 10
-18.3577000799
 20
16.3773459289
 10
-18.2236399171
 20
16.5204704842
 10
-18.0805212777
 20
16.6545371995
 10
-17.9289556843
 20
16.7789731865
 10
-17.7695766086
 20
16.8932561664
 10
-17.6030628186
 20
16.9968952323
 10
-17.4301246868
 20
17.0894442276
 10
-17.2514856047
 20
17.1705104817
 10
-17.0679071058
 20
17.2397413964
 10
-16.8801721118
 20
17.2968348803
 10
-16.6890663028
 20
17.3415436214
 10
-16.4954004026
 20
17.3736675603
 10
-16.3000077314
 20
17.3930582182
 10
-16.1037248341
 20
17.3996229367
  0
LINE
  5
27D
100
AcDbEntity
  8
RACCORDO
100
AcDbLine
 62
7
  6
CONTINUOUS
 10
-3.9
 20
19.8965739699
 11
-4.0415154698
 21
19.8258216238
  0
LINE
  5
27E
100
AcDbEntity
  8
ASSI
100
AcDbLine
 62
7
  6
CONTINUOUS
 10
-3.9
 20
19.8965739699
 11
-4.0415154698
 21
19.8258216238
  0
LWPOLYLINE
  5
27F
100
AcDbEntity
  8
RACCORDO
100
AcDbPolyline
 62
7
  6
CONTINUOUS
 90
16
 70
0
 10
-3.9
 20
19.8965739699
 10
-3.8863109162
 20
19.9030033947
 10
-3.8729558291
 20
19.9088319996
 10
-3.8599347389
 20
19.9140597845
 10
-3.8472564979
 20
19.9186354324
 10
-3.8349122537
 20
19.9226102604
 10
-3.8228754489
 20
19.9261382194
 10
-3.8111461794
 20
19.929235568
 10
-3.7997243492
 20
19.9318860476
 10
-3.7885831134
 20
19.9341948336
 10
-3.7777227898
 20
19.9361719058
 10
-3.7671430607
 20
19.9378072844
 10
-3.7568161271
 20
19.9391762056
 10
-3.7467327228
 20
19.9403037481
 10
-3.7369021142
 20
19.941164833
 10
-3.7273243011
 20
19.9417594606
  0
LWPOLYLINE
  5
280
100
AcDbEntity
  8
ASSI
100
AcDbPolyline
 62
7
  6
CONTINUOUS
 90
16
 70
0
 10
-3.9
 20
19.8965739699
 10
-3.8863109162
 20
19.9030033947
 10
-3.8729558291
 20
19.9088319996
 10
-3.8599347389
 20
19.9140597845
 10
-3.8472564979
 20
19.9186354324
 10
-3.8349122537
 20
19.9226102604
 10
-3.8228754489
 20
19.9261382194
 10
-3.8111461794
 20
19.929235568
 10
-3.7997243492
 20
19.9318860476
 10
-3.7885831134
 20
19.9341948336
 10
-3.7777227898
 20
19.9361719058
 10
-3.7671430607
 20
19.9378072844
 10
-3.7568161271
 20
19.9391762056
 10
-3.7467327228
 20
19.9403037481
 10
-3.7369021142
 20
19.941164833
 10
-3.7273243011
 20
19.9417594606
  0
LINE
  5
281
100
AcDbEntity
  8
DRAFT
100
AcDbLine
 62
7
  6
CONTINUOUS
 10
-3.8669648205
 20
-20.9
 11
-4.0135191699
 21
-20.9320850844
  0
LINE
  5
282
100
AcDbEntity
  8
ASSI
100
AcDbLine
 62
7
  6
CONTINUOUS
 10
-3.8669648205
 20
-20.9
 11
-4.0135191699
 21
-20.9320850844
  0
LWPOLYLINE
  5
283
100
AcDbEntity
  8
RACCORDO
100
AcDbPolyline
 62
7
  6
CONTINUOUS
 90
19
 70
0
 10
3.9
 20
-19.3704295719
 10
3.8555164246
 20
-19.3761997438
 10
3.8154742925
 20
-19.3876293307
 10
3.7798736039
 20
-19.4047183325
 10
3.7482370871
 20
-19.4284736335
 10
3.7210420136
 20
-19.4578883493
 10
3.6997201985
 20
-19.4899418277
 10
3.684667479
 20
-19.5245413722
 10
3.6754880177
 20
-19.5617796793
 10
3.6724261172
 20
-19.5989141859
 10
3.6756846908
 20
-19.6358764378
 10
3.6850608251
 20
-19.6727348893
 10
3.7001900829
 20
-19.7069523403
 10
3.7213603313
 20
-19.7386505908
 10
3.7482837032
 20
-19.7677078407
 10
3.7797321598
 20
-19.7912214898
 10
3.8152963551
 20
-19.8082240045
 10
3.8553856351
 20
-19.8196829184
 10
3.9
 20
-19.8255982314
  0
LWPOLYLINE
  5
284
100
AcDbEntity
  8
ASSI
100
AcDbPolyline
 62
7
  6
CONTINUOUS
 90
19
 70
0
 10
3.9
 20
-19.3704295719
 10
3.8555164246
 20
-19.3761997438
 10
3.8154742925
 20
-19.3876293307
 10
3.7798736039
 20
-19.4047183325
 10
3.7482370871
 20
-19.4284736335
 10
3.7210420136
 20
-19.4578883493
 10
3.6997201985
 20
-19.4899418277
 10
3.684667479
 20
-19.5245413722
 10
3.6754880177
 20
-19.5617796793
 10
3.6724261172
 20
-19.5989141859
 10
3.6756846908
 20
-19.6358764378
 10
3.6850608251
 20
-19.6727348893
 10
3.7001900829
 20
-19.7069523403
 10
3.7213603313
 20
-19.7386505908
 10
3.7482837032
 20
-19.7677078407
 10
3.7797321598
 20
-19.7912214898
 10
3.8152963551
 20
-19.8082240045
 10
3.8553856351
 20
-19.8196829184
 10
3.9
 20
-19.8255982314
  0
LINE
  5
285
100
AcDbEntity
  8
RACCORDO
100
AcDbLine
 62
7
  6
CONTINUOUS
 10
3.9
 20
-19.8255982314
 11
4.0415154698
 21
-19.8127991157
  0
LINE
  5
286
100
AcDbEntity
  8
ASSI
100
AcDbLine
 62
7
  6
CONTINUOUS
 10
3.9
 20
-19.8255982314
 11
4.0415154698
 21
-19.8127991157
  0
LINE
  5
287
100
AcDbEntity
  8
DRAFT
100
AcDbLine
 62
7
  6
CONTINUOUS
 10
-14.4040057528
 20
-21.1851643248
 11
-14.702972121
 21
-21.2
  0
LINE
  5
288
100
AcDbEntity
  8
ASSI
100
AcDbLine
 62
7
  6
CONTINUOUS
 10
-14.4040057528
 20
-21.1851643248
 11
-14.702972121
 21
-21.2
  0
LINE
  5
289
100
AcDbEntity
  8
DRAFT
100
AcDbLine
 62
7
  6
CONTINUOUS
 10
-18.2374998327
 20
-21.2
 11
-14.702972121
 21
-21.2
  0
LINE
  5
28A
100
AcDbEntity
  8
ASSI
100
AcDbLine
 62
7
  6
CONTINUOUS
 10
-18.2374998327
 20
-21.2
 11
-14.702972121
 21
-21.2
  0
LINE
  5
28B
100
AcDbEntity
  8
DRAFT
100
AcDbLine
 62
7
  6
CONTINUOUS
 10
-7.797027879
 20
-21.2
 11
-4.2625001673
 21
-21.2
  0
LINE
  5
28C
100
AcDbEntity
  8
ASSI
100
AcDbLine
 62
7
  6
CONTINUOUS
 10
-7.797027879
 20
-21.2
 11
-4.2625001673
 21
-21.2
  0
LINE
  5
28D
100
AcDbEntity
  8
DRAFT
100
AcDbLine
 62
7
  6
CONTINUOUS
 10
4.2625001673
 20
-21.2
 11
7.797027879
 21
-21.2
  0
LINE
  5
28E
100
AcDbEntity
  8
ASSI
100
AcDbLine
 62
7
  6
CONTINUOUS
 10
4.2625001673
 20
-21.2
 11
7.797027879
 21
-21.2
  0
LINE
  5
28F
100
AcDbEntity
  8
DRAFT
100
AcDbLine
 62
7
  6
CONTINUOUS
 10
14.702972121
 20
-21.2
 11
18.2374998327
 21
-21.2
  0
LINE
  5
290
100
AcDbEntity
  8
ASSI
100
AcDbLine
 62
7
  6
CONTINUOUS
 10
14.702972121
 20
-21.2
 11
18.2374998327
 21
-21.2
  0
LINE
  5
291
100
AcDbEntity
  8
DRAFT
100
AcDbLine
 62
7
  6
CONTINUOUS
 10
14.4040057528
 20
-21.1851643248
 11
14.35
 21
-21.1851643248
  0
LINE
  5
292
100
AcDbEntity
  8
DRAFT
100
AcDbLine
 62
7
  6
CONTINUOUS
 10
-14.4040057528
 20
-21.1851643248
 11
-14.35
 21
-21.1851643248
  0
LINE
  5
293
100
AcDbEntity
  8
ASSI
100
AcDbLine
 62
7
  6
CONTINUOUS
 10
14.4040057528
 20
-21.1851643248
 11
14.35
 21
-21.1851643248
  0
LINE
  5
294
100
AcDbEntity
  8
ASSI
100
AcDbLine
 62
7
  6
CONTINUOUS
 10
-14.4040057528
 20
-21.1851643248
 11
-14.35
 21
-21.1851643248
  0
LINE
  5
295
100
AcDbEntity
  8
DRAFT
100
AcDbLine
 62
7
  6
CONTINUOUS
 10
-8.0959942472
 20
-21.1851643248
 11
-8.15
 21
-21.1851643248
  0
LINE
  5
296
100
AcDbEntity
  8
DRAFT
100
AcDbLine
 62
7
  6
CONTINUOUS
 10
8.0959942472
 20
-21.1851643248
 11
8.15
 21
-21.1851643248
  0
LINE
  5
297
100
AcDbEntity
  8
ASSI
100
AcDbLine
 62
7
  6
CONTINUOUS
 10
-8.0959942472
 20
-21.1851643248
 11
-8.15
 21
-21.1851643248
  0
LINE
  5
298
100
AcDbEntity
  8
ASSI
100
AcDbLine
 62
7
  6
CONTINUOUS
 10
8.0959942472
 20
-21.1851643248
 11
8.15
 21
-21.1851643248
  0
LINE
  5
299
100
AcDbEntity
  8
DRAFT
100
AcDbLine
 62
7
  6
CONTINUOUS
 10
-18.2245711414
 20
-21.1651588757
 11
-13.945788487
 21
-21.1651588757
  0
LINE
  5
29A
100
AcDbEntity
  8
ASSI
100
AcDbLine
 62
7
  6
CONTINUOUS
 10
-18.2245711414
 20
-21.1651588757
 11
-13.945788487
 21
-21.1651588757
  0
LINE
  5
29B
100
AcDbEntity
  8
DRAFT
100
AcDbLine
 62
7
  6
CONTINUOUS
 10
-8.554211513
 20
-21.1651588757
 11
-4.2754288586
 21
-21.1651588757
  0
LINE
  5
29C
100
AcDbEntity
  8
ASSI
100
AcDbLine
 62
7
  6
CONTINUOUS
 10
-8.554211513
 20
-21.1651588757
 11
-4.2754288586
 21
-21.1651588757
  0
LINE
  5
29D
100
AcDbEntity
  8
DRAFT
100
AcDbLine
 62
7
  6
CONTINUOUS
 10
4.2754288586
 20
-21.1651588757
 11
8.554211513
 21
-21.1651588757
  0
LINE
  5
29E
100
AcDbEntity
  8
ASSI
100
AcDbLine
 62
7
  6
CONTINUOUS
 10
4.2754288586
 20
-21.1651588757
 11
8.554211513
 21
-21.1651588757
  0
LINE
  5
29F
100
AcDbEntity
  8
DRAFT
100
AcDbLine
 62
7
  6
CONTINUOUS
 10
13.945788487
 20
-21.1651588757
 11
18.2245711414
 21
-21.1651588757
  0
LINE
  5
2A0
100
AcDbEntity
  8
ASSI
100
AcDbLine
 62
7
  6
CONTINUOUS
 10
13.945788487
 20
-21.1651588757
 11
18.2245711414
 21
-21.1651588757
  0
LINE
  5
2A1
100
AcDbEntity
  8
DRAFT
100
AcDbLine
 62
7
  6
CONTINUOUS
 10
-20.9
 20
-20.9
 11
-18.6330351795
 21
-20.9
  0
LINE
  5
2A2
100
AcDbEntity
  8
ASSI
100
AcDbLine
 62
7
  6
CONTINUOUS
 10
-20.9
 20
-20.9
 11
-18.6330351795
 21
-20.9
  0
LINE
  5
2A3
100
AcDbEntity
  8
DRAFT
100
AcDbLine
 62
7
  6
CONTINUOUS
 10
-3.8669648205
 20
-20.9
 11
3.8669648205
 21
-20.9
  0
LINE
  5
2A4
100
AcDbEntity
  8
ASSI
100
AcDbLine
 62
7
  6
CONTINUOUS
 10
-3.8669648205
 20
-20.9
 11
3.8669648205
 21
-20.9
  0
LINE
  5
2A5
100
AcDbEntity
  8
DRAFT
100
AcDbLine
 62
7
  6
CONTINUOUS
 10
18.6330351795
 20
-20.9
 11
20.9
 21
-20.9
  0
LINE
  5
2A6
100
AcDbEntity
  8
ASSI
100
AcDbLine
 62
7
  6
CONTINUOUS
 10
18.6330351795
 20
-20.9
 11
20.9
 21
-20.9
  0
LINE
  5
2A7
100
AcDbEntity
  8
DRAFT
100
AcDbLine
 62
7
  6
CONTINUOUS
 10
20.7603594806
 20
-20.7603594806
 11
18.7726756989
 21
-20.7603594806
  0
LINE
  5
2A8
100
AcDbEntity
  8
ASSI
100
AcDbLine
 62
7
  6
CONTINUOUS
 10
20.7603594806
 20
-20.7603594806
 11
18.7726756989
 21
-20.7603594806
  0
LINE
  5
2A9
100
AcDbEntity
  8
DRAFT
100
AcDbLine
 62
7
  6
CONTINUOUS
 10
3.7273243011
 20
-20.7603594806
 11
-3.7273243011
 21
-20.7603594806
  0
LINE
  5
2AA
100
AcDbEntity
  8
ASSI
100
AcDbLine
 62
7
  6
CONTINUOUS
 10
3.7273243011
 20
-20.7603594806
 11
-3.7273243011
 21
-20.7603594806
  0
LINE
  5
2AB
100
AcDbEntity
  8
DRAFT
100
AcDbLine
 62
7
  6
CONTINUOUS
 10
-18.7726756989
 20
-20.7603594806
 11
-20.7603594806
 21
-20.7603594806
  0
LINE
  5
2AC
100
AcDbEntity
  8
ASSI
100
AcDbLine
 62
7
  6
CONTINUOUS
 10
-18.7726756989
 20
-20.7603594806
 11
-20.7603594806
 21
-20.7603594806
  0
LINE
  5
2AD
100
AcDbEntity
  8
DRAFT
100
AcDbLine
 62
7
  6
CONTINUOUS
 10
18.4584845302
 20
-20.0060689771
 11
4.0415154698
 21
-20.0060689771
  0
LINE
  5
2AE
100
AcDbEntity
  8
ASSI
100
AcDbLine
 62
7
  6
CONTINUOUS
 10
18.4584845302
 20
-20.0060689771
 11
4.0415154698
 21
-20.0060689771
  0
LINE
  5
2AF
100
AcDbEntity
  8
DRAFT
100
AcDbLine
 62
7
  6
CONTINUOUS
 10
-4.0415154698
 20
-20.0060689771
 11
-18.4584845302
 21
-20.0060689771
  0
LINE
  5
2B0
100
AcDbEntity
  8
ASSI
100
AcDbLine
 62
7
  6
CONTINUOUS
 10
-4.0415154698
 20
-20.0060689771
 11
-18.4584845302
 21
-20.0060689771
  0
LINE
  5
2B1
100
AcDbEntity
  8
DRAFT
100
AcDbLine
 62
7
  6
CONTINUOUS
 10
18.4584845302
 20
-19.8
 11
4.0415154698
 21
-19.8
  0
LINE
  5
2B2
100
AcDbEntity
  8
ASSI
100
AcDbLine
 62
7
  6
CONTINUOUS
 10
18.4584845302
 20
-19.8
 11
4.0415154698
 21
-19.8
  0
LINE
  5
2B3
100
AcDbEntity
  8
DRAFT
100
AcDbLine
 62
7
  6
CONTINUOUS
 10
-4.0415154698
 20
-19.8
 11
-18.4584845302
 21
-19.8
  0
LINE
  5
2B4
100
AcDbEntity
  8
ASSI
100
AcDbLine
 62
7
  6
CONTINUOUS
 10
-4.0415154698
 20
-19.8
 11
-18.4584845302
 21
-19.8
  0
LINE
  5
2B5
100
AcDbEntity
  8
RACCORDO
100
AcDbLine
 62
7
  6
CONTINUOUS
 10
4.0340172901
 20
-19.3704295719
 11
3.9
 21
-19.3704295719
  0
LINE
  5
2B6
100
AcDbEntity
  8
ASSI
100
AcDbLine
 62
7
  6
CONTINUOUS
 10
4.0340172901
 20
-19.3704295719
 11
3.9
 21
-19.3704295719
  0
LINE
  5
2B7
100
AcDbEntity
  8
RACCORDO
100
AcDbLine
 62
7
  6
CONTINUOUS
 10
-3.9
 20
-19.3704295719
 11
-4.0340172901
 21
-19.3704295719
  0
LINE
  5
2B8
100
AcDbEntity
  8
ASSI
100
AcDbLine
 62
7
  6
CONTINUOUS
 10
-3.9
 20
-19.3704295719
 11
-4.0340172901
 21
-19.3704295719
  0
LINE
  5
2B9
100
AcDbEntity
  8
DRAFT
100
AcDbLine
 62
7
  6
CONTINUOUS
 10
14.702972121
 20
-21.2
 11
14.4040057528
 21
-21.1851643248
  0
LINE
  5
2BA
100
AcDbEntity
  8
ASSI
100
AcDbLine
 62
7
  6
CONTINUOUS
 10
14.702972121
 20
-21.2
 11
14.4040057528
 21
-21.1851643248
  0
LWPOLYLINE
  5
2BB
100
AcDbEntity
  8
RACCORDO
100
AcDbPolyline
 62
7
  6
CONTINUOUS
 90
16
 70
0
 10
-3.7273243011
 20
-19.9417594606
 10
-3.7369494487
 20
-19.9411604913
 10
-3.7468196949
 20
-19.9402946234
 10
-3.7569350396
 20
-19.9391618566
 10
-3.767286019
 20
-19.9377868195
 10
-3.7778820969
 20
-19.9361448837
 10
-3.7887516654
 20
-19.9341621641
 10
-3.799894647
 20
-19.9318487174
 10
-3.8113111192
 20
-19.9291944869
 10
-3.8230297064
 20
-19.9260954178
 10
-3.8350504278
 20
-19.9225678365
 10
-3.8473732643
 20
-19.9185954164
 10
-3.860026783
 20
-19.9140251232
 10
-3.8730205064
 20
-19.9088059453
 10
-3.8863449121
 20
-19.9029888942
 10
-3.9
 20
-19.8965739699
  0
LWPOLYLINE
  5
2BC
100
AcDbEntity
  8
ASSI
100
AcDbPolyline
 62
7
  6
CONTINUOUS
 90
16
 70
0
 10
-3.7273243011
 20
-19.9417594606
 10
-3.7369494487
 20
-19.9411604913
 10
-3.7468196949
 20
-19.9402946234
 10
-3.7569350396
 20
-19.9391618566
 10
-3.767286019
 20
-19.9377868195
 10
-3.7778820969
 20
-19.9361448837
 10
-3.7887516654
 20
-19.9341621641
 10
-3.799894647
 20
-19.9318487174
 10
-3.8113111192
 20
-19.9291944869
 10
-3.8230297064
 20
-19.9260954178
 10
-3.8350504278
 20
-19.9225678365
 10
-3.8473732643
 20
-19.9185954164
 10
-3.860026783
 20
-19.9140251232
 10
-3.8730205064
 20
-19.9088059453
 10
-3.8863449121
 20
-19.9029888942
 10
-3.9
 20
-19.8965739699
  0
LINE
  5
2BD
100
AcDbEntity
  8
RACCORDO
100
AcDbLine
 62
7
  6
CONTINUOUS
 10
-4.0415154698
 20
-19.8127991157
 11
-3.9
 21
-19.8255982314
  0
LINE
  5
2BE
100
AcDbEntity
  8
ASSI
100
AcDbLine
 62
7
  6
CONTINUOUS
 10
-4.0415154698
 20
-19.8127991157
 11
-3.9
 21
-19.8255982314
  0
LINE
  5
2BF
100
AcDbEntity
  8
DRAFT
100
AcDbLine
 62
7
  6
CONTINUOUS
 10
4.0135191699
 20
-20.9320850844
 11
3.8669648205
 21
-20.9
  0
LINE
  5
2C0
100
AcDbEntity
  8
ASSI
100
AcDbLine
 62
7
  6
CONTINUOUS
 10
4.0135191699
 20
-20.9320850844
 11
3.8669648205
 21
-20.9
  0
LINE
  5
2C1
100
AcDbEntity
  8
RACCORDO
100
AcDbLine
 62
7
  6
CONTINUOUS
 10
-3.9
 20
-19.8965739699
 11
-4.0415154698
 21
-19.8258216238
  0
LINE
  5
2C2
100
AcDbEntity
  8
ASSI
100
AcDbLine
 62
7
  6
CONTINUOUS
 10
-3.9
 20
-19.8965739699
 11
-4.0415154698
 21
-19.8258216238
  0
LINE
  5
2C3
100
AcDbEntity
  8
DRAFT
100
AcDbLine
 62
7
  6
CONTINUOUS
 10
-18.4864808301
 20
20.9320850844
 11
-18.4584845302
 21
20.0060689771
  0
LINE
  5
2C4
100
AcDbEntity
  8
ASSI
100
AcDbLine
 62
7
  6
CONTINUOUS
 10
-18.4864808301
 20
20.9320850844
 11
-18.4584845302
 21
20.0060689771
  0
LINE
  5
2C5
100
AcDbEntity
  8
DRAFT
100
AcDbLine
 62
7
  6
CONTINUOUS
 10
-18.4721457668
 20
-19.0173482781
 11
-18.4584845302
 21
-19.8
  0
LINE
  5
2C6
100
AcDbEntity
  8
ASSI
100
AcDbLine
 62
7
  6
CONTINUOUS
 10
-18.4721457668
 20
-19.0173482781
 11
-18.4584845302
 21
-19.8
  0
LINE
  5
2C7
100
AcDbEntity
  8
0
100
AcDbLine
 62
250
  6
CONTINUOUS
 10
-19.1780738102
 20
-14.4755176339
 11
-19.1780738074
 21
14.4758750626
  0
LINE
  5
2C8
100
AcDbEntity
  8
0
100
AcDbLine
 62
250
  6
CONTINUOUS
 10
-19.1026968958
 20
14.400615078
 11
-19.1026969235
 21
-14.4005628861
  0
LINE
  5
2C9
100
AcDbEntity
  8
DRAFT
100
AcDbLine
 62
7
  6
CONTINUOUS
 10
-18.7726756989
 20
-20.7603594806
 11
-18.7726756989
 21
-18.867094756
  0
LINE
  5
2CA
100
AcDbEntity
  8
ASSI
100
AcDbLine
 62
7
  6
CONTINUOUS
 10
-18.7726756989
 20
-20.7603594806
 11
-18.7726756989
 21
-18.867094756
  0
LINE
  5
2CB
100
AcDbEntity
  8
DRAFT
100
AcDbLine
 62
7
  6
CONTINUOUS
 10
-18.7726756989
 20
18.867094756
 11
-18.7726756989
 21
20.7603594806
  0
LINE
  5
2CC
100
AcDbEntity
  8
ASSI
100
AcDbLine
 62
7
  6
CONTINUOUS
 10
-18.7726756989
 20
18.867094756
 11
-18.7726756989
 21
20.7603594806
  0
LINE
  5
2CD
100
AcDbEntity
  8
DRAFT
100
AcDbLine
 62
7
  6
CONTINUOUS
 10
-18.4584845302
 20
20.0060689771
 11
-18.4584845302
 21
19.8
  0
LINE
  5
2CE
100
AcDbEntity
  8
ASSI
100
AcDbLine
 62
7
  6
CONTINUOUS
 10
-18.4584845302
 20
20.0060689771
 11
-18.4584845302
 21
19.8
  0
LINE
  5
2CF
100
AcDbEntity
  8
DRAFT
100
AcDbLine
 62
7
  6
CONTINUOUS
 10
-18.4584845302
 20
-19.8
 11
-18.4584845302
 21
-20.0060689771
  0
LINE
  5
2D0
100
AcDbEntity
  8
ASSI
100
AcDbLine
 62
7
  6
CONTINUOUS
 10
-18.4584845302
 20
-19.8
 11
-18.4584845302
 21
-20.0060689771
  0
LINE
  5
2D1
100
AcDbEntity
  8
DRAFT
100
AcDbLine
 62
7
  6
CONTINUOUS
 10
-17.9830351795
 20
18.8430942654
 11
-17.9830351795
 21
18.6327542795
  0
LINE
  5
2D2
100
AcDbEntity
  8
ASSI
100
AcDbLine
 62
7
  6
CONTINUOUS
 10
-17.9830351795
 20
18.8430942654
 11
-17.9830351795
 21
18.6327542795
  0
LINE
  5
2D3
100
AcDbEntity
  8
DRAFT
100
AcDbLine
 62
7
  6
CONTINUOUS
 10
-17.9830351795
 20
-18.8430942654
 11
-17.9830351795
 21
-18.6327542795
  0
LINE
  5
2D4
100
AcDbEntity
  8
ASSI
100
AcDbLine
 62
7
  6
CONTINUOUS
 10
-17.9830351795
 20
-18.8430942654
 11
-17.9830351795
 21
-18.6327542795
  0
LINE
  5
2D5
100
AcDbEntity
  8
DRAFT
100
AcDbLine
 62
7
  6
CONTINUOUS
 10
-17.3330351795
 20
19.1
 11
-17.3330351795
 21
18.867094756
  0
LINE
  5
2D6
100
AcDbEntity
  8
ASSI
100
AcDbLine
 62
7
  6
CONTINUOUS
 10
-17.3330351795
 20
19.1
 11
-17.3330351795
 21
18.867094756
  0
LINE
  5
2D7
100
AcDbEntity
  8
DRAFT
100
AcDbLine
 62
7
  6
CONTINUOUS
 10
-17.3330351795
 20
-19.1
 11
-17.3330351795
 21
-18.867094756
  0
LINE
  5
2D8
100
AcDbEntity
  8
ASSI
100
AcDbLine
 62
7
  6
CONTINUOUS
 10
-17.3330351795
 20
-19.1
 11
-17.3330351795
 21
-18.867094756
  0
LINE
  5
2D9
100
AcDbEntity
  8
DRAFT
100
AcDbLine
 62
7
  6
CONTINUOUS
 10
-18.4584845302
 20
19.8
 11
-18.4721457668
 21
19.0173482781
  0
LINE
  5
2DA
100
AcDbEntity
  8
ASSI
100
AcDbLine
 62
7
  6
CONTINUOUS
 10
-18.4584845302
 20
19.8
 11
-18.4721457668
 21
19.0173482781
  0
LINE
  5
2DB
100
AcDbEntity
  8
DRAFT
100
AcDbLine
 62
7
  6
CONTINUOUS
 10
-18.4584845302
 20
-20.0060689771
 11
-18.4864808301
 21
-20.9320850844
  0
LINE
  5
2DC
100
AcDbEntity
  8
ASSI
100
AcDbLine
 62
7
  6
CONTINUOUS
 10
-18.4584845302
 20
-20.0060689771
 11
-18.4864808301
 21
-20.9320850844
  0
LWPOLYLINE
  5
2DD
100
AcDbEntity
  8
RACCORDO
100
AcDbPolyline
 62
7
  6
CONTINUOUS
 90
10
 70
0
 10
-20.9
 20
-18.1006347748
 10
-20.9100568645
 20
-18.1581344769
 10
-20.9302299741
 20
-18.2059465491
 10
-20.9605193287
 20
-18.2440709914
 10
-21.0047379656
 20
-18.2739352939
 10
-21.0590728476
 20
-18.2941119665
 10
-21.1120848627
 20
-18.3003185393
 10
-21.1599609736
 20
-18.2911275222
 10
-21.2065142178
 20
-18.2679664052
 10
-21.251744595
 20
-18.2308351884
  0
LWPOLYLINE
  5
2DE
100
AcDbEntity
  8
ASSI
100
AcDbPolyline
 62
7
  6
CONTINUOUS
 90
10
 70
0
 10
-20.9
 20
-18.1006347748
 10
-20.9100568645
 20
-18.1581344769
 10
-20.9302299741
 20
-18.2059465491
 10
-20.9605193287
 20
-18.2440709914
 10
-21.0047379656
 20
-18.2739352939
 10
-21.0590728476
 20
-18.2941119665
 10
-21.1120848627
 20
-18.3003185393
 10
-21.1599609736
 20
-18.2911275222
 10
-21.2065142178
 20
-18.2679664052
 10
-21.251744595
 20
-18.2308351884
  0
LWPOLYLINE
  5
2DF
100
AcDbEntity
  8
RACCORDO
100
AcDbPolyline
 62
7
  6
CONTINUOUS
 90
19
 70
0
 10
-3.9
 20
-19.8255982314
 10
-3.8556331306
 20
-19.8198837047
 10
-3.8156692117
 20
-19.8085026625
 10
-3.7801082435
 20
-19.7914551048
 10
-3.7484605529
 20
-19.7677375754
 10
-3.7212158128
 20
-19.7383535305
 10
-3.6998430421
 20
-19.7063133385
 10
-3.6847474482
 20
-19.6716997074
 10
-3.6755238237
 20
-19.6344299293
 10
-3.6724255647
 20
-19.5972662483
 10
-3.6756639099
 20
-19.560281949
 10
-3.6850276207
 20
-19.5234037469
 10
-3.7001363772
 20
-19.4891740329
 10
-3.7212587484
 20
-19.4574798706
 10
-3.7481261652
 20
-19.4284341963
 10
-3.7795526014
 20
-19.4049182094
 10
-3.8151427149
 20
-19.3878923095
 10
-3.8552918478
 20
-19.376396097
 10
-3.9
 20
-19.3704295719
  0
LWPOLYLINE
  5
2E0
100
AcDbEntity
  8
ASSI
100
AcDbPolyline
 62
7
  6
CONTINUOUS
 90
19
 70
0
 10
-3.9
 20
-19.8255982314
 10
-3.8556331306
 20
-19.8198837047
 10
-3.8156692117
 20
-19.8085026625
 10
-3.7801082435
 20
-19.7914551048
 10
-3.7484605529
 20
-19.7677375754
 10
-3.7212158128
 20
-19.7383535305
 10
-3.6998430421
 20
-19.7063133385
 10
-3.6847474482
 20
-19.6716997074
 10
-3.6755238237
 20
-19.6344299293
 10
-3.6724255647
 20
-19.5972662483
 10
-3.6756639099
 20
-19.560281949
 10
-3.6850276207
 20
-19.5234037469
 10
-3.7001363772
 20
-19.4891740329
 10
-3.7212587484
 20
-19.4574798706
 10
-3.7481261652
 20
-19.4284341963
 10
-3.7795526014
 20
-19.4049182094
 10
-3.8151427149
 20
-19.3878923095
 10
-3.8552918478
 20
-19.376396097
 10
-3.9
 20
-19.3704295719
  0
LINE
  5
2E1
100
AcDbEntity
  8
0
100
AcDbLine
 62
7
  6
CONTINUOUS
 10
17.3330351795
 20
-19.1
 11
5.1669648205
 21
-19.1
  0
LINE
  5
2E2
100
AcDbEntity
  8
ASSI
100
AcDbLine
 62
7
  6
CONTINUOUS
 10
17.3330351795
 20
-19.1
 11
5.1669648205
 21
-19.1
  0
LINE
  5
2E3
100
AcDbEntity
  8
0
100
AcDbLine
 62
7
  6
CONTINUOUS
 10
-5.1669648205
 20
-19.1
 11
-17.3330351795
 21
-19.1
  0
LINE
  5
2E4
100
AcDbEntity
  8
ASSI
100
AcDbLine
 62
7
  6
CONTINUOUS
 10
-5.1669648205
 20
-19.1
 11
-17.3330351795
 21
-19.1
  0
LINE
  5
2E5
100
AcDbEntity
  8
DRAFT
100
AcDbLine
 62
7
  6
CONTINUOUS
 10
18.4721457668
 20
-19.0173482781
 11
18.1551386093
 21
-19.0173482781
  0
LINE
  5
2E6
100
AcDbEntity
  8
ASSI
100
AcDbLine
 62
7
  6
CONTINUOUS
 10
18.4721457668
 20
-19.0173482781
 11
18.1551386093
 21
-19.0173482781
  0
LINE
  5
2E7
100
AcDbEntity
  8
DRAFT
100
AcDbLine
 62
7
  6
CONTINUOUS
 10
17.8109317497
 20
-19.0173482781
 11
17.3330351795
 21
-19.0173482781
  0
LINE
  5
2E8
100
AcDbEntity
  8
ASSI
100
AcDbLine
 62
7
  6
CONTINUOUS
 10
17.8109317497
 20
-19.0173482781
 11
17.3330351795
 21
-19.0173482781
  0
LINE
  5
2E9
100
AcDbEntity
  8
DRAFT
100
AcDbLine
 62
7
  6
CONTINUOUS
 10
5.1669648205
 20
-19.0173482781
 11
4.6890682503
 21
-19.0173482781
  0
LINE
  5
2EA
100
AcDbEntity
  8
ASSI
100
AcDbLine
 62
7
  6
CONTINUOUS
 10
5.1669648205
 20
-19.0173482781
 11
4.6890682503
 21
-19.0173482781
  0
LINE
  5
2EB
100
AcDbEntity
  8
DRAFT
100
AcDbLine
 62
7
  6
CONTINUOUS
 10
4.3448613907
 20
-19.0173482781
 11
4.0278542332
 21
-19.0173482781
  0
LINE
  5
2EC
100
AcDbEntity
  8
ASSI
100
AcDbLine
 62
7
  6
CONTINUOUS
 10
4.3448613907
 20
-19.0173482781
 11
4.0278542332
 21
-19.0173482781
  0
LINE
  5
2ED
100
AcDbEntity
  8
DRAFT
100
AcDbLine
 62
7
  6
CONTINUOUS
 10
-4.0278542332
 20
-19.0173482781
 11
-4.3448613907
 21
-19.0173482781
  0
LINE
  5
2EE
100
AcDbEntity
  8
ASSI
100
AcDbLine
 62
7
  6
CONTINUOUS
 10
-4.0278542332
 20
-19.0173482781
 11
-4.3448613907
 21
-19.0173482781
  0
LINE
  5
2EF
100
AcDbEntity
  8
DRAFT
100
AcDbLine
 62
7
  6
CONTINUOUS
 10
-4.6890682503
 20
-19.0173482781
 11
-5.1669648205
 21
-19.0173482781
  0
LINE
  5
2F0
100
AcDbEntity
  8
ASSI
100
AcDbLine
 62
7
  6
CONTINUOUS
 10
-4.6890682503
 20
-19.0173482781
 11
-5.1669648205
 21
-19.0173482781
  0
LINE
  5
2F1
100
AcDbEntity
  8
DRAFT
100
AcDbLine
 62
7
  6
CONTINUOUS
 10
-17.3330351795
 20
-19.0173482781
 11
-17.8109317497
 21
-19.0173482781
  0
LINE
  5
2F2
100
AcDbEntity
  8
ASSI
100
AcDbLine
 62
7
  6
CONTINUOUS
 10
-17.3330351795
 20
-19.0173482781
 11
-17.8109317497
 21
-19.0173482781
  0
LINE
  5
2F3
100
AcDbEntity
  8
DRAFT
100
AcDbLine
 62
7
  6
CONTINUOUS
 10
-18.1551386093
 20
-19.0173482781
 11
-18.4721457668
 21
-19.0173482781
  0
LINE
  5
2F4
100
AcDbEntity
  8
ASSI
100
AcDbLine
 62
7
  6
CONTINUOUS
 10
-18.1551386093
 20
-19.0173482781
 11
-18.4721457668
 21
-19.0173482781
  0
LINE
  5
2F5
100
AcDbEntity
  8
0
100
AcDbLine
 62
7
  6
CONTINUOUS
 10
-10.0
 20
-18.9
 11
-3.5
 21
-18.9
  0
LINE
  5
2F6
100
AcDbEntity
  8
0
100
AcDbLine
 62
7
  6
CONTINUOUS
 10
-2.5
 20
-18.9
 11
2.5
 21
-18.9
  0
LINE
  5
2F7
100
AcDbEntity
  8
0
100
AcDbLine
 62
7
  6
CONTINUOUS
 10
5.1669648205
 20
-18.9
 11
10.0
 21
-18.9
  0
LINE
  5
2F8
100
AcDbEntity
  8
DRAFT
100
AcDbLine
 62
7
  6
CONTINUOUS
 10
18.7726756989
 20
-18.867094756
 11
18.2173756559
 21
-18.867094756
  0
LINE
  5
2F9
100
AcDbEntity
  8
ASSI
100
AcDbLine
 62
7
  6
CONTINUOUS
 10
18.7726756989
 20
-18.867094756
 11
18.2173756559
 21
-18.867094756
  0
LINE
  5
2FA
100
AcDbEntity
  8
DRAFT
100
AcDbLine
 62
7
  6
CONTINUOUS
 10
17.748694703
 20
-18.867094756
 11
17.3330351795
 21
-18.867094756
  0
LINE
  5
2FB
100
AcDbEntity
  8
ASSI
100
AcDbLine
 62
7
  6
CONTINUOUS
 10
17.748694703
 20
-18.867094756
 11
17.3330351795
 21
-18.867094756
  0
LINE
  5
2FC
100
AcDbEntity
  8
DRAFT
100
AcDbLine
 62
7
  6
CONTINUOUS
 10
-17.3330351795
 20
-18.867094756
 11
-17.748694703
 21
-18.867094756
  0
LINE
  5
2FD
100
AcDbEntity
  8
ASSI
100
AcDbLine
 62
7
  6
CONTINUOUS
 10
-17.3330351795
 20
-18.867094756
 11
-17.748694703
 21
-18.867094756
  0
LINE
  5
2FE
100
AcDbEntity
  8
DRAFT
100
AcDbLine
 62
7
  6
CONTINUOUS
 10
-18.2173756559
 20
-18.867094756
 11
-18.7726756989
 21
-18.867094756
  0
LINE
  5
2FF
100
AcDbEntity
  8
ASSI
100
AcDbLine
 62
7
  6
CONTINUOUS
 10
-18.2173756559
 20
-18.867094756
 11
-18.7726756989
 21
-18.867094756
  0
LINE
  5
300
100
AcDbEntity
  8
0
100
AcDbLine
 62
7
  6
CONTINUOUS
 10
16.2230642949
 20
-17.5116533682
 11
-16.2126883148
 21
-17.5116602902
  0
LINE
  5
301
100
AcDbEntity
  8
0
100
AcDbLine
 62
250
  6
CONTINUOUS
 10
16.1037248735
 20
-17.3996230171
 11
-16.1037248735
 21
-17.3996230171
  0
LINE
  5
302
100
AcDbEntity
  8
0
100
AcDbLine
 62
7
  6
CONTINUOUS
 10
-16.2126883148
 20
-17.5116602902
 11
-16.2230698174
 21
-17.5116533631
  0
LWPOLYLINE
  5
303
100
AcDbEntity
  8
0
100
AcDbPolyline
 62
7
  6
CONTINUOUS
 90
49
 70
0
 10
-16.2230697967
 20
-17.5116444115
 10
-16.321203546
 20
-17.5097002507
 10
-16.4191935907
 20
-17.5045498436
 10
-16.5169353632
 20
-17.4962012779
 10
-16.6143328636
 20
-17.4846650815
 10
-16.7112741869
 20
-17.4699565771
 10
-16.8076320307
 20
-17.452098481
 10
-16.9032962955
 20
-17.4311166428
 10
-16.998174561
 20
-17.407036865
 10
-17.0921678568
 20
-17.379888955
 10
-17.1851761833
 20
-17.3497068807
 10
-17.2771037591
 20
-17.3165269248
 10
-17.3678596626
 20
-17.280386462
 10
-17.4573489156
 20
-17.2413278848
 10
-17.5454788554
 20
-17.1993963848
 10
-17.6321638903
 20
-17.1546369277
 10
-17.7173122104
 20
-17.1071010761
 10
-17.8008375073
 20
-17.0568412881
 10
-17.8826641917
 20
-17.0039064574
 10
-17.9627069504
 20
-16.948354612
 10
-18.040882948
 20
-16.8902460618
 10
-18.1171218219
 20
-16.829634983
 10
-18.1913448483
 20
-16.7665850826
 10
-18.2634733484
 20
-16.7011643966
 10
-18.3334388213
 20
-16.6334356008
 10
-18.4011675232
 20
-16.563470012
 10
-18.4665881224
 20
-16.4913413859
 10
-18.5296379242
 20
-16.4171182435
 10
-18.590248889
 20
-16.3408792695
 10
-18.6483573155
 20
-16.2627031838
 10
-18.7039090247
 20
-16.1826603566
 10
-18.7568436984
 20
-16.1008336411
 10
-18.8071033215
 20
-16.0173083352
 10
-18.8546390257
 20
-15.9321599844
 10
-18.8993983604
 20
-15.8454748768
 10
-18.941329749
 20
-15.7573448388
 10
-18.9803882169
 20
-15.6678554723
 10
-19.0165285749
 20
-15.5770994262
 10
-19.0497084239
 20
-15.4851716912
 10
-19.0798903721
 20
-15.3921632403
 10
-19.1070381324
 20
-15.2981698828
 10
-19.1311177496
 20
-15.2032915931
 10
-19.1520994267
 20
-15.1076273142
 10
-19.1699573622
 20
-15.0112694641
 10
-19.1846657067
 20
-14.9143281445
 10
-19.1962017477
 20
-14.8169306351
 10
-19.2045501619
 20
-14.7191888331
 10
-19.2097004182
 20
-14.6211987458
 10
-19.211644427
 20
-14.5230649409
  0
LWPOLYLINE
  5
304
100
AcDbEntity
  8
0
100
AcDbPolyline
 62
250
  6
CONTINUOUS
 90
13
 70
0
 10
-16.1775651718
 20
-17.4749995398
 10
-16.3742609739
 20
-17.4686473618
 10
-16.5701026758
 20
-17.4494162966
 10
-16.7642487144
 20
-17.4173905643
 10
-16.9558709181
 20
-17.3727082068
 10
-17.1441397652
 20
-17.3155631622
 10
-17.3282290368
 20
-17.2462080954
 10
-17.5073417598
 20
-17.1649491458
 10
-17.6807182301
 20
-17.0721373827
 10
-17.8476210219
 20
-16.9681711457
 10
-18.0073365839
 20
-16.8534981998
 10
-18.1591790198
 20
-16.7286151311
 10
-18.3024982616
 20
-16.5940607182
  0
LWPOLYLINE
  5
305
100
AcDbEntity
  8
0
100
AcDbPolyline
 62
250
  6
CONTINUOUS
 90
25
 70
0
 10
-16.1037248735
 20
-17.3996230171
 10
-16.3000113952
 20
-17.3930580229
 10
-16.4954079651
 20
-17.3736665791
 10
-16.6890779811
 20
-17.3415412893
 10
-16.8801880606
 20
-17.2968305868
 10
-17.0679274077
 20
-17.2397344853
 10
-17.2515102622
 20
-17.1705002501
 10
-17.430153618
 20
-17.0894299404
 10
-17.603095856
 20
-16.9968761377
 10
-17.7696134943
 20
-16.8932315007
 10
-17.9289960655
 20
-16.7789421842
 10
-18.0805647049
 20
-16.6544991036
 10
-18.2236858438
 20
-16.5204245544
 10
-18.3577478607
 20
-16.3772914542
 10
-18.4821778442
 20
-16.2257114327
 10
-18.5964535014
 20
-16.0663180694
 10
-18.7000839192
 20
-15.8997902436
 10
-18.792622944
 20
-15.7268384412
 10
-18.8736779168
 20
-15.5481861651
 10
-18.9428961291
 20
-15.3645954337
 10
-18.9999757003
 20
-15.1768489252
 10
-19.0446696012
 20
-14.9857312686
 10
-19.0767776461
 20
-14.792052864
 10
-19.0961510728
 20
-14.5966475103
 10
-19.1026970531
 20
-14.4003518783
  0
LWPOLYLINE
  5
306
100
AcDbEntity
  8
RACCORDO
100
AcDbPolyline
 62
7
  6
CONTINUOUS
 90
16
 70
0
 10
3.7273243011
 20
-19.2582405394
 10
3.7369493347
 20
-19.2588394995
 10
3.7468194746
 20
-19.2597053547
 10
3.7569347208
 20
-19.2608381048
 10
3.7672856078
 20
-19.262213121
 10
3.7778816011
 20
-19.2638550323
 10
3.7887510973
 20
-19.2658377257
 10
3.7998940145
 20
-19.2681511423
 10
3.8113104346
 20
-19.2708053412
 10
3.8230289999
 20
-19.273904386
 10
3.835049729
 20
-19.277431947
 10
3.8473726032
 20
-19.281404354
 10
3.8600262088
 20
-19.2859746605
 10
3.8730200745
 20
-19.2911938842
 10
3.8863446716
 20
-19.2970110074
 10
3.9
 20
-19.3034260301
  0
LWPOLYLINE
  5
307
100
AcDbEntity
  8
ASSI
100
AcDbPolyline
 62
7
  6
CONTINUOUS
 90
16
 70
0
 10
3.7273243011
 20
-19.2582405394
 10
3.7369493347
 20
-19.2588394995
 10
3.7468194746
 20
-19.2597053547
 10
3.7569347208
 20
-19.2608381048
 10
3.7672856078
 20
-19.262213121
 10
3.7778816011
 20
-19.2638550323
 10
3.7887510973
 20
-19.2658377257
 10
3.7998940145
 20
-19.2681511423
 10
3.8113104346
 20
-19.2708053412
 10
3.8230289999
 20
-19.273904386
 10
3.835049729
 20
-19.277431947
 10
3.8473726032
 20
-19.281404354
 10
3.8600262088
 20
-19.2859746605
 10
3.8730200745
 20
-19.2911938842
 10
3.8863446716
 20
-19.2970110074
 10
3.9
 20
-19.3034260301
  0
LWPOLYLINE
  5
308
100
AcDbEntity
  8
RACCORDO
100
AcDbPolyline
 62
7
  6
CONTINUOUS
 90
10
 70
0
 10
-20.9261825974
 20
18.029762091
 10
-20.9362262421
 20
18.0871988567
 10
-20.9563621063
 20
18.1349750012
 10
-20.9865901898
 20
18.1730905243
 10
-21.030674808
 20
18.2030023019
 10
-21.0848516456
 20
18.2232534581
 10
-21.1378277566
 20
18.2294733659
 10
-21.1858388258
 20
18.2202051497
 10
-21.2326491685
 20
18.1969056852
 10
-21.2782587845
 20
18.1595749722
  0
LWPOLYLINE
  5
309
100
AcDbEntity
  8
ASSI
100
AcDbPolyline
 62
7
  6
CONTINUOUS
 90
10
 70
0
 10
-20.9261825974
 20
18.029762091
 10
-20.9362262421
 20
18.0871988567
 10
-20.9563621063
 20
18.1349750012
 10
-20.9865901898
 20
18.1730905243
 10
-21.030674808
 20
18.2030023019
 10
-21.0848516456
 20
18.2232534581
 10
-21.1378277566
 20
18.2294733659
 10
-21.1858388258
 20
18.2202051497
 10
-21.2326491685
 20
18.1969056852
 10
-21.2782587845
 20
18.1595749722
  0
LINE
  5
30A
100
AcDbEntity
  8
DRAFT
100
AcDbLine
 62
7
  6
CONTINUOUS
 10
-14.702972121
 20
-21.2
 11
-14.6497558672
 21
-22.2
  0
LINE
  5
30B
100
AcDbEntity
  8
ASSI
100
AcDbLine
 62
7
  6
CONTINUOUS
 10
-14.702972121
 20
-21.2
 11
-14.6497558672
 21
-22.2
  0
LINE
  5
30C
100
AcDbEntity
  8
0
100
AcDbLine
 62
250
  6
CONTINUOUS
 10
-16.1037248735
 20
-17.3996230171
 11
-16.103724834
 21
17.399622858
  0
LINE
  5
30D
100
AcDbEntity
  8
DRAFT
100
AcDbLine
 62
7
  6
CONTINUOUS
 10
-14.702972121
 20
21.2
 11
-14.6497558672
 21
22.2
  0
LINE
  5
30E
100
AcDbEntity
  8
ASSI
100
AcDbLine
 62
7
  6
CONTINUOUS
 10
-14.702972121
 20
21.2
 11
-14.6497558672
 21
22.2
  0
LINE
  5
30F
100
AcDbEntity
  8
DRAFT
100
AcDbLine
 62
7
  6
CONTINUOUS
 10
-4.5169648205
 20
18.8430942654
 11
-4.3448613907
 21
19.0173482781
  0
LINE
  5
310
100
AcDbEntity
  8
ASSI
100
AcDbLine
 62
7
  6
CONTINUOUS
 10
-4.5169648205
 20
18.8430942654
 11
-4.3448613907
 21
19.0173482781
  0
LINE
  5
311
100
AcDbEntity
  8
DRAFT
100
AcDbLine
 62
7
  6
CONTINUOUS
 10
-4.5169648205
 20
18.6327542795
 11
-4.2826243441
 21
18.867094756
  0
LINE
  5
312
100
AcDbEntity
  8
ASSI
100
AcDbLine
 62
7
  6
CONTINUOUS
 10
-4.5169648205
 20
18.6327542795
 11
-4.2826243441
 21
18.867094756
  0
LINE
  5
313
100
AcDbEntity
  8
RACCORDO
100
AcDbLine
 62
7
  6
CONTINUOUS
 10
3.9
 20
19.3034260301
 11
4.0340172901
 21
19.3704295719
  0
LINE
  5
314
100
AcDbEntity
  8
ASSI
100
AcDbLine
 62
7
  6
CONTINUOUS
 10
3.9
 20
19.3034260301
 11
4.0340172901
 21
19.3704295719
  0
LINE
  5
315
100
AcDbEntity
  8
DRAFT
100
AcDbLine
 62
7
  6
CONTINUOUS
 10
4.0278542332
 20
19.0173482781
 11
3.7931398015
 21
18.9
  0
LINE
  5
316
100
AcDbEntity
  8
ASSI
100
AcDbLine
 62
7
  6
CONTINUOUS
 10
4.0278542332
 20
19.0173482781
 11
3.7931398015
 21
18.9
  0
LWPOLYLINE
  5
317
100
AcDbEntity
  8
RACCORDO
100
AcDbPolyline
 62
7
  6
CONTINUOUS
 90
16
 70
0
 10
3.9
 20
19.3034260301
 10
3.8862912124
 20
19.2969883573
 10
3.8729192702
 20
19.2911534087
 10
3.8598841735
 20
19.2859211842
 10
3.8471948069
 20
19.2813433328
 10
3.8348422858
 20
19.2773682055
 10
3.8227999563
 20
19.2738408558
 10
3.8110678629
 20
19.2707449119
 10
3.7996459612
 20
19.2680967457
 10
3.7885074634
 20
19.2657905253
 10
3.7776527028
 20
19.2638162278
 10
3.7670813462
 20
19.2621838762
 10
3.7567656064
 20
19.2608177078
 10
3.7466962211
 20
19.2596924684
 10
3.7368824527
 20
19.2588334123
 10
3.7273243011
 20
19.2582405394
  0
LWPOLYLINE
  5
318
100
AcDbEntity
  8
ASSI
100
AcDbPolyline
 62
7
  6
CONTINUOUS
 90
16
 70
0
 10
3.9
 20
19.3034260301
 10
3.8862912124
 20
19.2969883573
 10
3.8729192702
 20
19.2911534087
 10
3.8598841735
 20
19.2859211842
 10
3.8471948069
 20
19.2813433328
 10
3.8348422858
 20
19.2773682055
 10
3.8227999563
 20
19.2738408558
 10
3.8110678629
 20
19.2707449119
 10
3.7996459612
 20
19.2680967457
 10
3.7885074634
 20
19.2657905253
 10
3.7776527028
 20
19.2638162278
 10
3.7670813462
 20
19.2621838762
 10
3.7567656064
 20
19.2608177078
 10
3.7466962211
 20
19.2596924684
 10
3.7368824527
 20
19.2588334123
 10
3.7273243011
 20
19.2582405394
  0
LINE
  5
319
100
AcDbEntity
  8
RACCORDO
100
AcDbLine
 62
7
  6
CONTINUOUS
 10
3.9
 20
-19.3034260301
 11
4.0340172901
 21
-19.3704295719
  0
LINE
  5
31A
100
AcDbEntity
  8
ASSI
100
AcDbLine
 62
7
  6
CONTINUOUS
 10
3.9
 20
-19.3034260301
 11
4.0340172901
 21
-19.3704295719
  0
LINE
  5
31B
100
AcDbEntity
  8
DRAFT
100
AcDbLine
 62
7
  6
CONTINUOUS
 10
3.7931398015
 20
-18.9
 11
4.0278542332
 21
-19.0173482781
  0
LINE
  5
31C
100
AcDbEntity
  8
ASSI
100
AcDbLine
 62
7
  6
CONTINUOUS
 10
3.7931398015
 20
-18.9
 11
4.0278542332
 21
-19.0173482781
  0
LINE
  5
31D
100
AcDbEntity
  8
DRAFT
100
AcDbLine
 62
7
  6
CONTINUOUS
 10
-4.2826243441
 20
-18.867094756
 11
-4.5169648205
 21
-18.6327542795
  0
LINE
  5
31E
100
AcDbEntity
  8
ASSI
100
AcDbLine
 62
7
  6
CONTINUOUS
 10
-4.2826243441
 20
-18.867094756
 11
-4.5169648205
 21
-18.6327542795
  0
LINE
  5
31F
100
AcDbEntity
  8
DRAFT
100
AcDbLine
 62
7
  6
CONTINUOUS
 10
-4.3448613907
 20
-19.0173482781
 11
-4.5169648205
 21
-18.8430942654
  0
LINE
  5
320
100
AcDbEntity
  8
ASSI
100
AcDbLine
 62
7
  6
CONTINUOUS
 10
-4.3448613907
 20
-19.0173482781
 11
-4.5169648205
 21
-18.8430942654
  0
LINE
  5
321
100
AcDbEntity
  8
0
100
AcDbLine
 62
250
  6
CONTINUOUS
 10
-12.8503099979
 20
15.1647541712
 11
-12.8477214055
 21
14.7859643241
  0
LINE
  5
322
100
AcDbEntity
  8
DRAFT
100
AcDbLine
 62
7
  6
CONTINUOUS
 10
-14.35
 20
-21.1851643248
 11
-14.35
 21
-22.1851643248
  0
LINE
  5
323
100
AcDbEntity
  8
ASSI
100
AcDbLine
 62
7
  6
CONTINUOUS
 10
-14.35
 20
-21.1851643248
 11
-14.35
 21
-22.1851643248
  0
LINE
  5
324
100
AcDbEntity
  8
DRAFT
100
AcDbLine
 62
7
  6
CONTINUOUS
 10
-14.35
 20
21.1851643248
 11
-14.35
 21
22.1851643248
  0
LINE
  5
325
100
AcDbEntity
  8
ASSI
100
AcDbLine
 62
7
  6
CONTINUOUS
 10
-14.35
 20
21.1851643248
 11
-14.35
 21
22.1851643248
  0
LINE
  5
326
100
AcDbEntity
  8
0
100
AcDbLine
 62
7
  6
CONTINUOUS
 10
-13.15
 20
-19.1
 11
-13.15
 21
-17.5116602902
  0
LINE
  5
327
100
AcDbEntity
  8
0
100
AcDbLine
 62
7
  6
CONTINUOUS
 10
-13.15
 20
17.5116602902
 11
-13.15
 21
19.1
  0
LINE
  5
328
100
AcDbEntity
  8
0
100
AcDbLine
 62
250
  6
CONTINUOUS
 10
-12.8468421667
 20
-7.8676771772
 11
-12.8477214055
 21
14.7859643241
  0
LINE
  5
329
100
AcDbEntity
  8
DRAFT
100
AcDbLine
 62
7
  6
CONTINUOUS
 10
-8.2441170282
 20
22.1805062352
 11
-8.554211513
 21
21.1651588757
  0
LINE
  5
32A
100
AcDbEntity
  8
ASSI
100
AcDbLine
 62
7
  6
CONTINUOUS
 10
-8.2441170282
 20
22.1805062352
 11
-8.554211513
 21
21.1651588757
  0
LINE
  5
32B
100
AcDbEntity
  8
0
100
AcDbLine
 62
250
  6
CONTINUOUS
 10
-7.0140423495
 20
13.6359512972
 11
-7.0157498771
 21
13.6342293142
  0
LINE
  5
32C
100
AcDbEntity
  8
0
100
AcDbLine
 62
250
  6
CONTINUOUS
 10
19.1026969016
 20
-14.4005226707
 11
19.0319087117
 21
-14.4006510421
  0
LINE
  5
32D
100
AcDbEntity
  8
0
100
AcDbLine
 62
250
  6
CONTINUOUS
 10
3.8923126567
 20
-14.4006510598
 11
-3.8923112678
 21
-14.4006510421
  0
LINE
  5
32E
100
AcDbEntity
  8
0
100
AcDbLine
 62
250
  6
CONTINUOUS
 10
-6.5076873419
 20
-14.4006510594
 11
-19.1026968997
 21
-14.4006510421
  0
LINE
  5
32F
100
AcDbEntity
  8
0
100
AcDbLine
 62
250
  6
CONTINUOUS
 10
19.0319087117
 20
-14.4006510421
 11
6.5076887333
 21
-14.4006510421
  0
LINE
  5
330
100
AcDbEntity
  8
DRAFT
100
AcDbLine
 62
7
  6
CONTINUOUS
 10
-8.554211513
 20
-21.1651588757
 11
-8.2441170282
 21
-22.1805062352
  0
LINE
  5
331
100
AcDbEntity
  8
ASSI
100
AcDbLine
 62
7
  6
CONTINUOUS
 10
-8.554211513
 20
-21.1651588757
 11
-8.2441170282
 21
-22.1805062352
  0
LINE
  5
332
100
AcDbEntity
  8
0
100
AcDbLine
 62
250
  6
CONTINUOUS
 10
-12.876561669
 20
16.4937563077
 11
-12.8678077546
 21
16.2007715941
  0
LINE
  5
333
100
AcDbEntity
  8
0
100
AcDbLine
 62
250
  6
CONTINUOUS
 10
-12.8678077546
 20
16.2007715941
 11
-12.8604491955
 21
15.8780096405
  0
LINE
  5
334
100
AcDbEntity
  8
0
100
AcDbLine
 62
250
  6
CONTINUOUS
 10
-12.8604491955
 20
15.8780096405
 11
-12.8545762274
 21
15.5307715395
  0
LINE
  5
335
100
AcDbEntity
  8
0
100
AcDbLine
 62
250
  6
CONTINUOUS
 10
-12.8545762274
 20
15.5307715395
 11
-12.8503099979
 21
15.1647541712
  0
LWPOLYLINE
  5
336
100
AcDbEntity
  8
0
100
AcDbPolyline
 62
7
  6
CONTINUOUS
 90
16
 70
0
 10
-9.8031705834
 20
16.9297475856
 10
-9.8017760521
 20
16.9559955599
 10
-9.7976380686
 20
16.9819248619
 10
-9.7908112874
 20
17.0072507355
 10
-9.7813810394
 20
17.0316935569
 10
-9.7694586854
 20
17.054991359
 10
-9.7551770293
 20
17.0769010544
 10
-9.7386976803
 20
17.0971856632
 10
-9.7202050668
 20
17.1156276442
 10
-9.699895742
 20
17.1320367329
 10
-9.677995174
 20
17.1462342406
 10
-9.6547411205
 20
17.1580692609
 10
-9.6303685261
 20
17.1674211793
 10
-9.6051350376
 20
17.1741855988
 10
-9.579321373
 20
17.178281912
 10
-9.5532090812
 20
17.1796612754
  0
LWPOLYLINE
  5
337
100
AcDbEntity
  8
0
100
AcDbPolyline
 62
250
  6
CONTINUOUS
 90
16
 70
0
 10
-9.8577457092
 20
17.011619442
 10
-9.8563449333
 20
17.0379261966
 10
-9.852240432
 20
17.0636692671
 10
-9.8455623314
 20
17.0885821357
 10
-9.8365284751
 20
17.112276479
 10
-9.8252773649
 20
17.134693426
 10
-9.8117219313
 20
17.156033055
 10
-9.7958544215
 20
17.1761544806
 10
-9.7778655574
 20
17.1946820613
 10
-9.757871909
 20
17.2113991155
 10
-9.7360162471
 20
17.2260833506
 10
-9.7125224341
 20
17.2384883395
 10
-9.6876729001
 20
17.2483896001
 10
-9.6617485521
 20
17.2556156065
 10
-9.6350174279
 20
17.2600337942
 10
-9.6077839522
 20
17.2615339752
  0
LINE
  5
338
100
AcDbEntity
  8
0
100
AcDbLine
 62
7
  6
CONTINUOUS
 10
-6.7991848591
 20
15.682287734
 11
-6.7992116699
 21
15.6821852121
  0
LINE
  5
339
100
AcDbEntity
  8
0
100
AcDbLine
 62
7
  6
CONTINUOUS
 10
-6.7991282256
 20
15.6824988627
 11
-6.7991570683
 21
15.6823922292
  0
LWPOLYLINE
  5
33A
100
AcDbEntity
  8
0
100
AcDbPolyline
 62
7
  6
CONTINUOUS
 90
11
 70
0
 10
-6.7970863349
 20
15.6999938561
 10
-6.7933948482
 20
15.7117709292
 10
-6.7882484408
 20
15.7230587535
 10
-6.7816621997
 20
15.7337327566
 10
-6.7735507122
 20
15.7437595526
 10
-6.7638191793
 20
15.752991535
 10
-6.7526386705
 20
15.761025951
 10
-6.7403843417
 20
15.7674827017
 10
-6.7273621315
 20
15.7721826765
 10
-6.7137333445
 20
15.7750513747
 10
-6.6997552686
 20
15.7759995032
  0
LINE
  5
33B
100
AcDbEntity
  8
DRAFT
100
AcDbLine
 62
7
  6
CONTINUOUS
 10
-4.2625001673
 20
21.2
 11
-4.2754288586
 21
21.1651588757
  0
LINE
  5
33C
100
AcDbEntity
  8
ASSI
100
AcDbLine
 62
7
  6
CONTINUOUS
 10
-4.2625001673
 20
21.2
 11
-4.2754288586
 21
21.1651588757
  0
LINE
  5
33D
100
AcDbEntity
  8
DRAFT
100
AcDbLine
 62
7
  6
CONTINUOUS
 10
-4.7376754986
 20
18.9
 11
-4.6890682503
 21
19.0173482781
  0
LINE
  5
33E
100
AcDbEntity
  8
ASSI
100
AcDbLine
 62
7
  6
CONTINUOUS
 10
-4.7376754986
 20
18.9
 11
-4.6890682503
 21
19.0173482781
  0
LINE
  5
33F
100
AcDbEntity
  8
DRAFT
100
AcDbLine
 62
7
  6
CONTINUOUS
 10
3.7273243011
 20
20.7603594806
 11
3.8669648205
 21
20.9
  0
LINE
  5
340
100
AcDbEntity
  8
ASSI
100
AcDbLine
 62
7
  6
CONTINUOUS
 10
3.7273243011
 20
20.7603594806
 11
3.8669648205
 21
20.9
  0
LWPOLYLINE
  5
341
100
AcDbEntity
  8
0
100
AcDbPolyline
 62
7
  6
CONTINUOUS
 90
10
 70
0
 10
-12.8468421667
 20
-7.8676771772
 10
-12.6965063257
 20
-7.9127505166
 10
-12.549571319
 20
-7.9535857403
 10
-12.4060371466
 20
-7.9901828481
 10
-12.2658388714
 20
-8.0229740724
 10
-12.1290414305
 20
-8.0515271809
 10
-11.9958396353
 20
-8.0745454772
 10
-11.866298423
 20
-8.0915967292
 10
-11.7403528564
 20
-8.1031131689
 10
-11.6180029355
 20
-8.1090947965
  0
LINE
  5
342
100
AcDbEntity
  8
0
100
AcDbLine
 62
7
  6
CONTINUOUS
 10
-8.2119103609
 20
-7.9995116218
 11
-8.2108838633
 21
-8.0000000028
  0
LINE
  5
343
100
AcDbEntity
  8
DRAFT
100
AcDbLine
 62
7
  6
CONTINUOUS
 10
3.7273243011
 20
-20.7603594806
 11
3.8669648205
 21
-20.9
  0
LINE
  5
344
100
AcDbEntity
  8
ASSI
100
AcDbLine
 62
7
  6
CONTINUOUS
 10
3.7273243011
 20
-20.7603594806
 11
3.8669648205
 21
-20.9
  0
LINE
  5
345
100
AcDbEntity
  8
0
100
AcDbLine
 62
7
  6
CONTINUOUS
 10
-8.2000004839
 20
-8.0217928653
 11
-8.2108838599
 21
-8.0000000032
  0
LWPOLYLINE
  5
346
100
AcDbEntity
  8
0
100
AcDbPolyline
 62
7
  6
CONTINUOUS
 90
16
 70
0
 10
-9.7778957343
 20
-4.3896734507
 10
-9.776071149
 20
-4.3934369144
 10
-9.7715864592
 20
-4.3971205702
 10
-9.7645731256
 20
-4.4006867519
 10
-9.7552502319
 20
-4.4040805223
 10
-9.7437541334
 20
-4.4072934855
 10
-9.7299968084
 20
-4.410353939
 10
-9.713973137
 20
-4.4132420129
 10
-9.6958754695
 20
-4.415904585
 10
-9.6758209841
 20
-4.4183110457
 10
-9.6539527704
 20
-4.4204299448
 10
-9.6304929366
 20
-4.4222264094
 10
-9.6057196668
 20
-4.4236686086
 10
-9.5799094061
 20
-4.4247320724
 10
-9.5533261329
 20
-4.4253977823
 10
-9.5262688561
 20
-4.4256498269
  0
LINE
  5
347
100
AcDbEntity
  8
DRAFT
100
AcDbLine
 62
7
  6
CONTINUOUS
 10
-4.7376754986
 20
-18.9
 11
-4.6890682503
 21
-19.0173482781
  0
LINE
  5
348
100
AcDbEntity
  8
ASSI
100
AcDbLine
 62
7
  6
CONTINUOUS
 10
-4.7376754986
 20
-18.9
 11
-4.6890682503
 21
-19.0173482781
  0
LINE
  5
349
100
AcDbEntity
  8
DRAFT
100
AcDbLine
 62
7
  6
CONTINUOUS
 10
-4.2625001673
 20
-21.2
 11
-4.2754288586
 21
-21.1651588757
  0
LINE
  5
34A
100
AcDbEntity
  8
ASSI
100
AcDbLine
 62
7
  6
CONTINUOUS
 10
-4.2625001673
 20
-21.2
 11
-4.2754288586
 21
-21.1651588757
  0
LWPOLYLINE
  5
34B
100
AcDbEntity
  8
0
100
AcDbPolyline
 62
7
  6
CONTINUOUS
 90
16
 70
0
 10
-9.8442284848
 20
-7.7503587584
 10
-9.8428741582
 20
-7.775957421
 10
-9.8389108392
 20
-7.8012641288
 10
-9.8323858513
 20
-7.8260144558
 10
-9.8233772164
 20
-7.8499419554
 10
-9.8119823966
 20
-7.8728080923
 10
-9.7983081274
 20
-7.8944003062
 10
-9.7824852155
 20
-7.9145021305
 10
-9.7646837128
 20
-7.9328888015
 10
-9.7450978398
 20
-7.9493567691
 10
-9.723943153
 20
-7.9637278802
 10
-9.7014329675
 20
-7.9758605337
 10
-9.6777822922
 20
-7.9856355237
 10
-9.6532294877
 20
-7.9929464853
 10
-9.6280373016
 20
-7.9977077575
 10
-9.6024695317
 20
-7.9998632535
  0
LWPOLYLINE
  5
34C
100
AcDbEntity
  8
0
100
AcDbPolyline
 62
250
  6
CONTINUOUS
 90
16
 70
0
 10
-9.8473093179
 20
-7.7561755009
 10
-9.8460488729
 20
-7.7810691523
 10
-9.8422258269
 20
-7.8061440036
 10
-9.835748164
 20
-7.8311216192
 10
-9.8265172606
 20
-7.855786303
 10
-9.8145249382
 20
-7.8797254265
 10
-9.7999457443
 20
-7.9023771649
 10
-9.7828726672
 20
-7.9234865504
 10
-9.7634905798
 20
-7.9427292971
 10
-9.7423386795
 20
-7.9595931089
 10
-9.7197969138
 20
-7.9739020094
 10
-9.69609913
 20
-7.9856238636
 10
-9.6716901112
 20
-7.9946571414
 10
-9.6469278791
 20
-8.0010140682
 10
-9.6220568667
 20
-8.0047697355
 10
-9.5973474035
 20
-8.0060085182
  0
LWPOLYLINE
  5
34D
100
AcDbEntity
  8
0
100
AcDbPolyline
 62
7
  6
CONTINUOUS
 90
4
 70
0
 10
-8.9297008016
 20
-7.5618212472
 10
-8.9330916786
 20
-7.4926839279
 10
-8.9363771604
 20
-7.4132009038
 10
-8.9395572471
 20
-7.3236087288
  0
LWPOLYLINE
  5
34E
100
AcDbEntity
  8
0
100
AcDbPolyline
 62
7
  6
CONTINUOUS
 90
5
 70
0
 10
-8.8421012176
 20
-7.5114777559
 10
-8.8385008781
 20
-7.6139675089
 10
-8.8348140964
 20
-7.7046476634
 10
-8.8310308801
 20
-7.7838717564
 10
-8.8271512292
 20
-7.8516397879
  0
LWPOLYLINE
  5
34F
100
AcDbEntity
  8
0
100
AcDbPolyline
 62
7
  6
CONTINUOUS
 90
3
 70
0
 10
-9.1894285236
 20
-7.5366043489
 10
-9.1857393482
 20
-7.6436421931
 10
-9.1819245449
 20
-7.7372021168
  0
LWPOLYLINE
  5
350
100
AcDbEntity
  8
0
100
AcDbPolyline
 62
7
  6
CONTINUOUS
 90
8
 70
0
 10
-9.5325234671
 20
16.8459677187
 10
-9.535299191
 20
16.9289997423
 10
-9.5381542348
 20
17.0006673373
 10
-9.5410876194
 20
17.0606680915
 10
-9.5440634276
 20
17.1087510306
 10
-9.5470696868
 20
17.1447086735
 10
-9.5501183695
 20
17.1683812496
 10
-9.5532094756
 20
17.1796612752
  0
LINE
  5
351
100
AcDbEntity
  8
0
100
AcDbLine
 62
7
  6
CONTINUOUS
 10
-8.9395572471
 20
-7.3236087288
 11
-8.945600136
 21
-7.1152003141
  0
LINE
  5
352
100
AcDbEntity
  8
0
100
AcDbLine
 62
250
  6
CONTINUOUS
 10
-9.782394602
 20
16.6238921717
 11
-9.7771047808
 21
16.4416973437
  0
LINE
  5
353
100
AcDbEntity
  8
0
100
AcDbLine
 62
7
  6
CONTINUOUS
 10
-8.8489826153
 20
-7.2731906767
 11
-8.8421012176
 21
-7.5114777559
  0
LINE
  5
354
100
AcDbEntity
  8
0
100
AcDbLine
 62
7
  6
CONTINUOUS
 10
-9.1964414998
 20
-7.2836909329
 11
-9.1894285236
 21
-7.5366043489
  0
LINE
  5
355
100
AcDbEntity
  8
0
100
AcDbLine
 62
7
  6
CONTINUOUS
 10
-9.5272400228
 20
16.6472446212
 11
-9.5325234671
 21
16.8459677187
  0
LINE
  5
356
100
AcDbEntity
  8
0
100
AcDbLine
 62
7
  6
CONTINUOUS
 10
-8.945600136
 20
-7.1152003141
 11
-8.9512343009
 21
-6.8697894005
  0
LINE
  5
357
100
AcDbEntity
  8
0
100
AcDbLine
 62
7
  6
CONTINUOUS
 10
-8.8553562302
 20
-6.9931642307
 11
-8.8489826153
 21
-7.2731906767
  0
LINE
  5
358
100
AcDbEntity
  8
0
100
AcDbLine
 62
250
  6
CONTINUOUS
 10
-9.7771047808
 20
16.4416973437
 11
-9.7722696118
 21
16.2220984973
  0
LINE
  5
359
100
AcDbEntity
  8
0
100
AcDbLine
 62
7
  6
CONTINUOUS
 10
-9.2029289467
 20
-6.9820764498
 11
-9.1964414998
 21
-7.2836909329
  0
LINE
  5
35A
100
AcDbEntity
  8
0
100
AcDbLine
 62
7
  6
CONTINUOUS
 10
-9.5224046049
 20
16.4077913912
 11
-9.5272400228
 21
16.6472446212
  0
LINE
  5
35B
100
AcDbEntity
  8
0
100
AcDbLine
 62
7
  6
CONTINUOUS
 10
-8.9512343009
 20
-6.8697894005
 11
-8.9588520375
 21
-6.4384305537
  0
LINE
  5
35C
100
AcDbEntity
  8
0
100
AcDbLine
 62
7
  6
CONTINUOUS
 10
-8.8638055122
 20
-6.5028036596
 11
-8.8553562302
 21
-6.9931642307
  0
LINE
  5
35D
100
AcDbEntity
  8
0
100
AcDbLine
 62
250
  6
CONTINUOUS
 10
-9.7722696118
 20
16.2220984973
 11
-9.766039063
 21
15.8311638364
  0
LINE
  5
35E
100
AcDbEntity
  8
0
100
AcDbLine
 62
7
  6
CONTINUOUS
 10
-9.21142443
 20
-6.4477679192
 11
-9.2029289467
 21
-6.9820764498
  0
LINE
  5
35F
100
AcDbEntity
  8
0
100
AcDbLine
 62
7
  6
CONTINUOUS
 10
-9.5161630057
 20
15.9810299676
 11
-9.5224046049
 21
16.4077913912
  0
LINE
  5
360
100
AcDbEntity
  8
0
100
AcDbLine
 62
7
  6
CONTINUOUS
 10
-8.9588520375
 20
-6.4384305537
 11
-8.9671282066
 21
-5.7625449465
  0
LINE
  5
361
100
AcDbEntity
  8
0
100
AcDbLine
 62
7
  6
CONTINUOUS
 10
-8.8726700397
 20
-5.7380430698
 11
-8.8638055122
 21
-6.5028036596
  0
LINE
  5
362
100
AcDbEntity
  8
0
100
AcDbLine
 62
250
  6
CONTINUOUS
 10
-9.766039063
 20
15.8311638364
 11
-9.7612297085
 21
15.3789202329
  0
LINE
  5
363
100
AcDbEntity
  8
0
100
AcDbLine
 62
7
  6
CONTINUOUS
 10
-9.2200488855
 20
-5.6093782324
 11
-9.21142443
 21
-6.4477679192
  0
LINE
  5
364
100
AcDbEntity
  8
0
100
AcDbLine
 62
7
  6
CONTINUOUS
 10
-9.5100675979
 20
15.3110273724
 11
-9.5161630057
 21
15.9810299676
  0
LINE
  5
365
100
AcDbEntity
  8
0
100
AcDbLine
 62
7
  6
CONTINUOUS
 10
-8.9671282066
 20
-5.7625449465
 11
-8.9729137228
 21
-4.999268668
  0
LINE
  5
366
100
AcDbEntity
  8
0
100
AcDbLine
 62
250
  6
CONTINUOUS
 10
-9.8494011022
 20
15.592938388
 11
-9.8577462786
 21
17.0116046039
  0
LINE
  5
367
100
AcDbEntity
  8
0
100
AcDbLine
 62
250
  6
CONTINUOUS
 10
-9.7612297085
 20
15.3789202329
 11
-9.757328416
 21
14.709469372
  0
LINE
  5
368
100
AcDbEntity
  8
0
100
AcDbLine
 62
7
  6
CONTINUOUS
 10
-9.2259747218
 20
-4.4256492113
 11
-9.2200488855
 21
-5.6093782324
  0
LWPOLYLINE
  5
369
100
AcDbEntity
  8
0
100
AcDbPolyline
 62
7
  6
CONTINUOUS
 90
3
 70
0
 10
-8.8800135148
 20
-4.4256727089
 10
-8.8793153661
 20
-4.6546025864
 10
-8.8726700397
 20
-5.7380430698
  0
LINE
  5
36A
100
AcDbEntity
  8
0
100
AcDbLine
 62
7
  6
CONTINUOUS
 10
-9.5068821959
 20
14.5661188767
 11
-9.5100675979
 21
15.3110273724
  0
LINE
  5
36B
100
AcDbEntity
  8
0
100
AcDbLine
 62
7
  6
CONTINUOUS
 10
-8.9729137228
 20
-4.999268668
 11
-8.9797224373
 21
-2.6455296091
  0
LINE
  5
36C
100
AcDbEntity
  8
0
100
AcDbLine
 62
7
  6
CONTINUOUS
 10
-8.9797224373
 20
-2.6455296091
 11
-8.9894464409
 21
2.6068406659
  0
LINE
  5
36D
100
AcDbEntity
  8
0
100
AcDbLine
 62
7
  6
CONTINUOUS
 10
-9.2394250742
 20
2.586817043
 11
-9.225974824
 21
-4.4256483789
  0
LINE
  5
36E
100
AcDbEntity
  8
0
100
AcDbLine
 62
7
  6
CONTINUOUS
 10
-8.9894464409
 20
2.6068406659
 11
-8.9946001938
 21
7.879560449
  0
LINE
  5
36F
100
AcDbEntity
  8
0
100
AcDbLine
 62
7
  6
CONTINUOUS
 10
-9.5064646074
 20
14.1806947349
 11
-9.5068821959
 21
14.5661188767
  0
LINE
  5
370
100
AcDbEntity
  8
0
100
AcDbLine
 62
250
  6
CONTINUOUS
 10
-9.8473092999
 20
14.4006205074
 11
-9.8494011022
 21
15.592938388
  0
LWPOLYLINE
  5
371
100
AcDbEntity
  8
0
100
AcDbPolyline
 62
7
  6
CONTINUOUS
 90
3
 70
0
 10
-9.2455742976
 20
11.3999999921
 10
-9.2452959537
 20
9.6355439333
 10
-9.2394250742
 20
2.586817043
  0
LINE
  5
372
100
AcDbEntity
  8
0
100
AcDbLine
 62
7
  6
CONTINUOUS
 10
-10.0
 20
19.1
 11
-10.0
 21
18.9
  0
LINE
  5
373
100
AcDbEntity
  8
0
100
AcDbLine
 62
7
  6
CONTINUOUS
 10
-10.0
 20
-18.9
 11
-10.0
 21
-19.1
  0
LINE
  5
374
100
AcDbEntity
  8
0
100
AcDbLine
 62
250
  6
CONTINUOUS
 10
-9.8473093262
 20
-7.7561754912
 11
-9.8473092999
 21
14.4006205074
  0
LINE
  5
375
100
AcDbEntity
  8
0
100
AcDbLine
 62
250
  6
CONTINUOUS
 10
-9.5064643338
 20
11.3999999921
 11
-9.5064643338
 21
14.1806992587
  0
LINE
  5
376
100
AcDbEntity
  8
0
100
AcDbLine
 62
250
  6
CONTINUOUS
 10
-9.2456107821
 20
11.399999992
 11
-9.2456472666
 21
14.1806947349
  0
LINE
  5
377
100
AcDbEntity
  8
0
100
AcDbLine
 62
250
  6
CONTINUOUS
 10
-9.757328416
 20
14.709469372
 11
-9.7566742224
 21
9.6388662722
  0
LINE
  5
378
100
AcDbEntity
  8
0
100
AcDbLine
 62
7
  6
CONTINUOUS
 10
-9.508865426
 20
6.0948988428
 11
-9.5064773126
 21
11.3999999947
  0
LINE
  5
379
100
AcDbEntity
  8
0
100
AcDbLine
 62
250
  6
CONTINUOUS
 10
-9.7566742224
 20
9.6388662722
 11
-9.7603706125
 21
4.363139162
  0
LINE
  5
37A
100
AcDbEntity
  8
0
100
AcDbLine
 62
7
  6
CONTINUOUS
 10
-9.518549365
 20
-0.9302492989
 11
-9.508865426
 21
6.0948988428
  0
LINE
  5
37B
100
AcDbEntity
  8
0
100
AcDbLine
 62
250
  6
CONTINUOUS
 10
-9.7603706125
 20
4.363139162
 11
-9.7684917301
 21
-0.8967619569
  0
LINE
  5
37C
100
AcDbEntity
  8
0
100
AcDbLine
 62
7
  6
CONTINUOUS
 10
-8.9946001938
 20
7.879560449
 11
-8.9943745963
 21
14.7882173817
  0
LINE
  5
37D
100
AcDbEntity
  8
0
100
AcDbLine
 62
7
  6
CONTINUOUS
 10
-8.8933314535
 20
15.2093312678
 11
-8.8936439298
 21
14.9771023763
  0
LINE
  5
37E
100
AcDbEntity
  8
0
100
AcDbLine
 62
7
  6
CONTINUOUS
 10
-8.8974685804
 20
13.606835216
 11
-8.899988295
 21
11.3999901339
  0
LINE
  5
37F
100
AcDbEntity
  8
0
100
AcDbLine
 62
250
  6
CONTINUOUS
 10
-9.7684917301
 20
-0.8967619569
 11
-9.778013543
 21
-4.8474312042
  0
LINE
  5
380
100
AcDbEntity
  8
0
100
AcDbLine
 62
7
  6
CONTINUOUS
 10
-9.2436624576
 20
15.0634266784
 11
-9.2456500939
 21
14.1806902089
  0
LINE
  5
381
100
AcDbEntity
  8
0
100
AcDbLine
 62
7
  6
CONTINUOUS
 10
-8.8957009673
 20
13.9637400206
 11
-8.8974685804
 21
13.606835216
  0
LINE
  5
382
100
AcDbEntity
  8
0
100
AcDbLine
 62
7
  6
CONTINUOUS
 10
-9.5304713601
 20
-5.3822353552
 11
-9.518549365
 21
-0.9302492989
  0
LINE
  5
383
100
AcDbEntity
  8
0
100
AcDbLine
 62
7
  6
CONTINUOUS
 10
-8.8923687047
 20
15.3600015563
 11
-8.8933314535
 21
15.2093312678
  0
LINE
  5
384
100
AcDbEntity
  8
0
100
AcDbLine
 62
7
  6
CONTINUOUS
 10
-8.9943745963
 20
14.7882173817
 11
-8.9898147859
 21
15.5020064253
  0
LINE
  5
385
100
AcDbEntity
  8
0
100
AcDbLine
 62
250
  6
CONTINUOUS
 10
-9.778013543
 20
-4.8474312042
 11
-9.7840773163
 21
-5.7112467959
  0
LWPOLYLINE
  5
386
100
AcDbEntity
  8
0
100
AcDbPolyline
 62
7
  6
CONTINUOUS
 90
3
 70
0
 10
-9.2370749554
 20
15.8925510379
 10
-9.2387464452
 20
15.7373371118
 10
-9.2436624576
 20
15.0634266784
  0
LINE
  5
387
100
AcDbEntity
  8
0
100
AcDbLine
 62
7
  6
CONTINUOUS
 10
-9.5383198917
 20
-6.2505975066
 11
-9.5304713601
 21
-5.3822353552
  0
LINE
  5
388
100
AcDbEntity
  8
0
100
AcDbLine
 62
7
  6
CONTINUOUS
 10
-8.9898147859
 20
15.5020064253
 11
-8.9855932971
 21
15.8846820137
  0
LINE
  5
389
100
AcDbEntity
  8
0
100
AcDbLine
 62
250
  6
CONTINUOUS
 10
-9.7840773163
 20
-5.7112467959
 11
-9.7908715098
 21
-6.2920723311
  0
LINE
  5
38A
100
AcDbEntity
  8
0
100
AcDbLine
 62
7
  6
CONTINUOUS
 10
-8.8908225261
 20
15.4937764839
 11
-8.8923687047
 21
15.3600015563
  0
LINE
  5
38B
100
AcDbEntity
  8
0
100
AcDbLine
 62
7
  6
CONTINUOUS
 10
-9.5462918868
 20
-6.8145931972
 11
-9.5383198917
 21
-6.2505975066
  0
LINE
  5
38C
100
AcDbEntity
  8
0
100
AcDbLine
 62
250
  6
CONTINUOUS
 10
-9.7908715098
 20
-6.2920723311
 11
-9.7993521751
 21
-6.7944283705
  0
LINE
  5
38D
100
AcDbEntity
  8
0
100
AcDbLine
 62
7
  6
CONTINUOUS
 10
-9.5524583295
 20
-7.138941581
 11
-9.5462918868
 21
-6.8145931972
  0
LWPOLYLINE
  5
38E
100
AcDbEntity
  8
0
100
AcDbPolyline
 62
7
  6
CONTINUOUS
 90
3
 70
0
 10
-8.8887780407
 20
15.6033917873
 10
-8.8895149033
 20
15.5695377555
 10
-8.8908225261
 20
15.4937764839
  0
LINE
  5
38F
100
AcDbEntity
  8
0
100
AcDbLine
 62
250
  6
CONTINUOUS
 10
-9.7993521751
 20
-6.7944283705
 11
-9.805817822
 21
-7.0779900537
  0
LWPOLYLINE
  5
390
100
AcDbEntity
  8
0
100
AcDbPolyline
 62
250
  6
CONTINUOUS
 90
10
 70
0
 10
-9.805817822
 20
-7.0779900537
 10
-9.8128129328
 20
-7.315321706
 10
-9.8164963212
 20
-7.4161018059
 10
-9.8202651346
 20
-7.5039264351
 10
-9.8241202855
 20
-7.5786678049
 10
-9.8280608612
 20
-7.6404537041
 10
-9.8320460738
 20
-7.6885964288
 10
-9.8360623272
 20
-7.7228667444
 10
-9.8401232175
 20
-7.7434938856
 10
-9.8442287446
 20
-7.7504778523
  0
LWPOLYLINE
  5
391
100
AcDbEntity
  8
0
100
AcDbPolyline
 62
7
  6
CONTINUOUS
 90
31
 70
0
 10
-8.9295682804
 20
-7.5618176858
 10
-8.9300512517
 20
-7.574030066
 10
-8.9310068801
 20
-7.585904222
 10
-8.9324351656
 20
-7.5974401538
 10
-8.9343264578
 20
-7.608628325
 10
-8.936690407
 20
-7.6194782719
 10
-8.9395559641
 20
-7.6300186046
 10
-8.9429279132
 20
-7.6402619239
 10
-8.9468014701
 20
-7.6501956288
 10
-8.9511912329
 20
-7.6598105259
 10
-8.9560861711
 20
-7.6691146813
 10
-8.9614973151
 20
-7.6781000289
 10
-8.9674723544
 20
-7.6867331767
 10
-8.9740114306
 20
-7.6950356583
 10
-8.9811144021
 20
-7.7029859402
 10
-8.9888285334
 20
-7.7104860306
 10
-8.9971488995
 20
-7.7175485217
 10
-9.0060804254
 20
-7.7241608213
 10
-9.0156851512
 20
-7.730187161
 10
-9.0259831331
 20
-7.7356494754
 10
-9.0369543149
 20
-7.7405258299
 10
-9.0486005672
 20
-7.7446146516
 10
-9.0609357228
 20
-7.7479220281
 10
-9.0739459489
 20
-7.7504418719
 10
-9.0875916184
 20
-7.7519543473
 10
-9.1018893652
 20
-7.7524670387
 10
-9.1168225554
 20
-7.7519723618
 10
-9.1323016602
 20
-7.7502277286
 10
-9.1482968364
 20
-7.7471522765
 10
-9.1648379272
 20
-7.7428268682
 10
-9.1819249325
 20
-7.7372515035
  0
LWPOLYLINE
  5
392
100
AcDbEntity
  8
0
100
AcDbPolyline
 62
7
  6
CONTINUOUS
 90
5
 70
0
 10
-6.799742519
 20
15.6795769741
 10
-6.7998324715
 20
15.6789021716
 10
-6.799904108
 20
15.67821481
 10
-6.7999543131
 20
15.6775523017
 10
-6.7999869121
 20
15.6768680453
  0
LINE
  5
393
100
AcDbEntity
  8
0
100
AcDbLine
 62
7
  6
CONTINUOUS
 10
-6.7997215997
 20
15.6797157608
 11
-6.7997327093
 21
15.6796427379
  0
LINE
  5
394
100
AcDbEntity
  8
0
100
AcDbLine
 62
7
  6
CONTINUOUS
 10
-6.79969965
 20
15.6798558309
 11
-6.7997102133
 21
15.6797890914
  0
LINE
  5
395
100
AcDbEntity
  8
0
100
AcDbLine
 62
7
  6
CONTINUOUS
 10
-6.7996777649
 20
15.6799904361
 11
-6.7996888444
 21
15.6799228877
  0
LINE
  5
396
100
AcDbEntity
  8
0
100
AcDbLine
 62
7
  6
CONTINUOUS
 10
-6.7996547672
 20
15.6801270073
 11
-6.7996664072
 21
15.680058476
  0
LINE
  5
397
100
AcDbEntity
  8
0
100
AcDbLine
 62
7
  6
CONTINUOUS
 10
-6.7996305309
 20
15.6802660646
 11
-6.7996428104
 21
15.6801962036
  0
LINE
  5
398
100
AcDbEntity
  8
0
100
AcDbLine
 62
7
  6
CONTINUOUS
 10
-6.7996049492
 20
15.680407953
 11
-6.7996179231
 21
15.68033659
  0
LINE
  5
399
100
AcDbEntity
  8
0
100
AcDbLine
 62
7
  6
CONTINUOUS
 10
-6.7995778734
 20
15.6805531901
 11
-6.7995916018
 21
15.6804801532
  0
LINE
  5
39A
100
AcDbEntity
  8
0
100
AcDbLine
 62
7
  6
CONTINUOUS
 10
-6.7995491417
 20
15.6807022887
 11
-6.7995637231
 21
15.6806272359
  0
LINE
  5
39B
100
AcDbEntity
  8
0
100
AcDbLine
 62
7
  6
CONTINUOUS
 10
-6.7995186128
 20
15.6808555809
 11
-6.7995341197
 21
15.6807783468
  0
LINE
  5
39C
100
AcDbEntity
  8
0
100
AcDbLine
 62
7
  6
CONTINUOUS
 10
-6.7994860991
 20
15.6810135681
 11
-6.7995026097
 21
15.6809339888
  0
LINE
  5
39D
100
AcDbEntity
  8
0
100
AcDbLine
 62
7
  6
CONTINUOUS
 10
-6.7994513973
 20
15.6811767491
 11
-6.7994690328
 21
15.6810944892
  0
LINE
  5
39E
100
AcDbEntity
  8
0
100
AcDbLine
 62
7
  6
CONTINUOUS
 10
-6.7994143262
 20
15.6813454466
 11
-6.7994331792
 21
15.6812603451
  0
LINE
  5
39F
100
AcDbEntity
  8
0
100
AcDbLine
 62
7
  6
CONTINUOUS
 10
-6.7993746521
 20
15.6815201527
 11
-6.7993948225
 21
15.6814320502
  0
LINE
  5
3A0
100
AcDbEntity
  8
0
100
AcDbLine
 62
7
  6
CONTINUOUS
 10
-6.7993321231
 20
15.6817013556
 11
-6.7993537584
 21
15.6816099224
  0
LINE
  5
3A1
100
AcDbEntity
  8
0
100
AcDbLine
 62
7
  6
CONTINUOUS
 10
-6.7992865102
 20
15.6818893676
 11
-6.7993097274
 21
15.6817944482
  0
LINE
  5
3A2
100
AcDbEntity
  8
0
100
AcDbLine
 62
7
  6
CONTINUOUS
 10
-6.7992375254
 20
15.6820846687
 11
-6.79926245
 21
15.6819861093
  0
LINE
  5
3A3
100
AcDbEntity
  8
DRAFT
100
AcDbLine
 62
7
  6
CONTINUOUS
 10
-18.2374998327
 20
-21.2
 11
-18.2245711414
 21
-21.1651588757
  0
LINE
  5
3A4
100
AcDbEntity
  8
ASSI
100
AcDbLine
 62
7
  6
CONTINUOUS
 10
-18.2374998327
 20
-21.2
 11
-18.2245711414
 21
-21.1651588757
  0
LINE
  5
3A5
100
AcDbEntity
  8
DRAFT
100
AcDbLine
 62
7
  6
CONTINUOUS
 10
-17.748694703
 20
-18.867094756
 11
-17.8109317497
 21
-19.0173482781
  0
LINE
  5
3A6
100
AcDbEntity
  8
ASSI
100
AcDbLine
 62
7
  6
CONTINUOUS
 10
-17.748694703
 20
-18.867094756
 11
-17.8109317497
 21
-19.0173482781
  0
LINE
  5
3A7
100
AcDbEntity
  8
DRAFT
100
AcDbLine
 62
7
  6
CONTINUOUS
 10
4.5169648205
 20
18.8430942654
 11
4.6890682503
 21
19.0173482781
  0
LINE
  5
3A8
100
AcDbEntity
  8
ASSI
100
AcDbLine
 62
7
  6
CONTINUOUS
 10
4.5169648205
 20
18.8430942654
 11
4.6890682503
 21
19.0173482781
  0
LINE
  5
3A9
100
AcDbEntity
  8
DRAFT
100
AcDbLine
 62
7
  6
CONTINUOUS
 10
4.5169648205
 20
18.6327542795
 11
4.751305297
 21
18.867094756
  0
LINE
  5
3AA
100
AcDbEntity
  8
ASSI
100
AcDbLine
 62
7
  6
CONTINUOUS
 10
4.5169648205
 20
18.6327542795
 11
4.751305297
 21
18.867094756
  0
LINE
  5
3AB
100
AcDbEntity
  8
RACCORDO
100
AcDbLine
 62
7
  6
CONTINUOUS
 10
-19.7405830189
 20
-0.4
 11
-19.5932920569
 21
-0.3248118626
  0
LINE
  5
3AC
100
AcDbEntity
  8
ASSI
100
AcDbLine
 62
7
  6
CONTINUOUS
 10
-19.7405830189
 20
-0.4
 11
-19.5932920569
 21
-0.3248118626
  0
LINE
  5
3AD
100
AcDbEntity
  8
DRAFT
100
AcDbLine
 62
7
  6
CONTINUOUS
 10
-20.7603594806
 20
0.4
 11
-20.9261825974
 21
0.317094756
  0
LINE
  5
3AE
100
AcDbEntity
  8
ASSI
100
AcDbLine
 62
7
  6
CONTINUOUS
 10
-20.7603594806
 20
0.4
 11
-20.9261825974
 21
0.317094756
  0
LWPOLYLINE
  5
3AF
100
AcDbEntity
  8
0
100
AcDbPolyline
 62
250
  6
CONTINUOUS
 90
4
 70
0
 10
9.6772149093
 20
-7.9928628766
 10
9.6512911117
 20
-8.0000882391
 10
9.6245608174
 20
-8.0045068489
 10
9.5973284172
 20
-8.006008529
  0
LWPOLYLINE
  5
3B0
100
AcDbEntity
  8
0
100
AcDbPolyline
 62
7
  6
CONTINUOUS
 90
10
 70
0
 10
11.6180013183
 20
-8.1090947899
 10
11.7430535908
 20
-8.1027547228
 10
11.8709881435
 20
-8.0909305184
 10
12.0018049763
 20
-8.0736221766
 10
12.1355183701
 20
-8.0503456275
 10
12.272114044
 20
-8.021584941
 10
12.4115491558
 20
-7.9887923271
 10
12.5538094247
 20
-7.9524518559
 10
12.6989091315
 20
-7.9120794573
 10
12.8468482761
 20
-7.8676751314
  0
LWPOLYLINE
  5
3B1
100
AcDbEntity
  8
0
100
AcDbPolyline
 62
7
  6
CONTINUOUS
 90
13
 70
0
 10
7.4027164422
 20
-8.0929109719
 10
7.5247716479
 20
-8.0880013498
 10
7.6382982908
 20
-8.0828192565
 10
7.7420350924
 20
-8.0774231336
 10
7.8358805398
 20
-8.0718107605
 10
7.9199361459
 20
-8.0659843577
 10
7.9932451713
 20
-8.0600090282
 10
8.0556972634
 20
-8.053883026
 10
8.1074027748
 20
-8.047608097
 10
8.1477360236
 20
-8.0412545825
 10
8.176488449
 20
-8.0348459294
 10
8.1938686118
 20
-8.0283586906
 10
8.199876512
 20
-8.0217928662
  0
LWPOLYLINE
  5
3B2
100
AcDbEntity
  8
0
100
AcDbPolyline
 62
7
  6
CONTINUOUS
 90
10
 70
0
 10
-8.8271512292
 20
-7.8516397879
 10
-8.8668270741
 20
-7.8405628313
 10
-8.9064403717
 20
-7.8290771398
 10
-8.9459911219
 20
-7.8171827133
 10
-8.9854814432
 20
-7.8048788562
 10
-9.0249092171
 20
-7.7921662642
 10
-9.0642680885
 20
-7.7790470242
 10
-9.103555939
 20
-7.7655218319
 10
-9.142774887
 20
-7.7515899917
 10
-9.1819249325
 20
-7.7372515035
  0
LINE
  5
3B3
100
AcDbEntity
  8
DRAFT
100
AcDbLine
 62
7
  6
CONTINUOUS
 10
-20.9261825974
 20
-0.317094756
 11
-20.7603594806
 21
-0.4
  0
LINE
  5
3B4
100
AcDbEntity
  8
ASSI
100
AcDbLine
 62
7
  6
CONTINUOUS
 10
-20.9261825974
 20
-0.317094756
 11
-20.7603594806
 21
-0.4
  0
LINE
  5
3B5
100
AcDbEntity
  8
RACCORDO
100
AcDbLine
 62
7
  6
CONTINUOUS
 10
-19.5932920569
 20
0.3248118626
 11
-19.7405830189
 21
0.4
  0
LINE
  5
3B6
100
AcDbEntity
  8
ASSI
100
AcDbLine
 62
7
  6
CONTINUOUS
 10
-19.5932920569
 20
0.3248118626
 11
-19.7405830189
 21
0.4
  0
LINE
  5
3B7
100
AcDbEntity
  8
DRAFT
100
AcDbLine
 62
7
  6
CONTINUOUS
 10
4.751305297
 20
-18.867094756
 11
4.5169648205
 21
-18.6327542795
  0
LINE
  5
3B8
100
AcDbEntity
  8
ASSI
100
AcDbLine
 62
7
  6
CONTINUOUS
 10
4.751305297
 20
-18.867094756
 11
4.5169648205
 21
-18.6327542795
  0
LINE
  5
3B9
100
AcDbEntity
  8
DRAFT
100
AcDbLine
 62
7
  6
CONTINUOUS
 10
4.6890682503
 20
-19.0173482781
 11
4.5169648205
 21
-18.8430942654
  0
LINE
  5
3BA
100
AcDbEntity
  8
ASSI
100
AcDbLine
 62
7
  6
CONTINUOUS
 10
4.6890682503
 20
-19.0173482781
 11
4.5169648205
 21
-18.8430942654
  0
LINE
  5
3BB
100
AcDbEntity
  8
DRAFT
100
AcDbLine
 62
7
  6
CONTINUOUS
 10
-17.748694703
 20
18.867094756
 11
-17.8109317497
 21
19.0173482781
  0
LINE
  5
3BC
100
AcDbEntity
  8
ASSI
100
AcDbLine
 62
7
  6
CONTINUOUS
 10
-17.748694703
 20
18.867094756
 11
-17.8109317497
 21
19.0173482781
  0
LINE
  5
3BD
100
AcDbEntity
  8
DRAFT
100
AcDbLine
 62
7
  6
CONTINUOUS
 10
-18.2374998327
 20
21.2
 11
-18.2245711414
 21
21.1651588757
  0
LINE
  5
3BE
100
AcDbEntity
  8
ASSI
100
AcDbLine
 62
7
  6
CONTINUOUS
 10
-18.2374998327
 20
21.2
 11
-18.2245711414
 21
21.1651588757
  0
LWPOLYLINE
  5
3BF
100
AcDbEntity
  8
0
100
AcDbPolyline
 62
7
  6
CONTINUOUS
 90
9
 70
0
 10
-8.2193452275
 20
-7.9725642293
 10
-8.2184919631
 20
-7.9777262577
 10
-8.2176169094
 20
-7.9824156875
 10
-8.2167200666
 20
-7.9866325186
 10
-8.2158013449
 20
-7.9904511558
 10
-8.2148608339
 20
-7.9937971943
 10
-8.213898803
 20
-7.9964474198
 10
-8.2129153419
 20
-7.9983274273
 10
-8.2119103609
 20
-7.9995116218
  0
LINE
  5
3C0
100
AcDbEntity
  8
DRAFT
100
AcDbLine
 62
7
  6
CONTINUOUS
 10
-7.797027879
 20
21.2
 11
-7.8502441328
 21
22.2
  0
LINE
  5
3C1
100
AcDbEntity
  8
ASSI
100
AcDbLine
 62
7
  6
CONTINUOUS
 10
-7.797027879
 20
21.2
 11
-7.8502441328
 21
22.2
  0
LWPOLYLINE
  5
3C2
100
AcDbEntity
  8
0
100
AcDbPolyline
 62
7
  6
CONTINUOUS
 90
10
 70
0
 10
-7.0157498774
 20
13.6342293335
 10
-7.0106904544
 20
13.4666516435
 10
-6.9971817188
 20
13.2967031226
 10
-6.9744718154
 20
13.1255798653
 10
-6.9412052743
 20
12.9549134854
 10
-6.8968620409
 20
12.7853590955
 10
-6.841945292
 20
12.6166632061
 10
-6.7765569834
 20
12.4494845486
 10
-6.7008500536
 20
12.2853101415
 10
-6.6153988223
 20
12.1252351282
  0
LWPOLYLINE
  5
3C3
100
AcDbEntity
  8
0
100
AcDbPolyline
 62
250
  6
CONTINUOUS
 90
109
 70
0
 10
-7.3794496318
 20
-14.4006510421
 10
-7.3784893223
 20
-14.4888673841
 10
-7.3758558934
 20
-14.5761882063
 10
-7.371549345
 20
-14.6625425285
 10
-7.365731827
 20
-14.7468095984
 10
-7.3582411896
 20
-14.8299885433
 10
-7.348590983
 20
-14.9151596397
 10
-7.3364023059
 20
-15.0048241869
 10
-7.3220540596
 20
-15.0962280731
 10
-7.3061964984
 20
-15.184610916
 10
-7.2895089394
 20
-15.2667208056
 10
-7.2713120654
 20
-15.3458246163
 10
-7.2502181784
 20
-15.426918813
 10
-7.2252122476
 20
-15.5134309744
 10
-7.1973093039
 20
-15.601529283
 10
-7.1681667413
 20
-15.6853888816
 10
-7.1402125501
 20
-15.7596798121
 10
-7.1110187401
 20
-15.8299962355
 10
-7.0749587344
 20
-15.9066946524
 10
-7.0282908263
 20
-15.9967362969
 10
-6.9747567225
 20
-16.0918678209
 10
-6.919954967
 20
-16.1799255804
 10
-6.8657507637
 20
-16.2570396366
 10
-6.8102789086
 20
-16.3277957509
 10
-6.7535423341
 20
-16.393526808
 10
-6.6952726749
 20
-16.4548094793
 10
-6.6357382961
 20
-16.5114344416
 10
-6.5757472261
 20
-16.5634890052
 10
-6.515108245
 20
-16.6112249994
 10
-6.4540125727
 20
-16.6547971173
 10
-6.3938418966
 20
-16.6941688438
 10
-6.3354707074
 20
-16.7290839796
 10
-6.2780245144
 20
-16.7602203697
 10
-6.2202615333
 20
-16.7888721385
 10
-6.1621278179
 20
-16.8153641556
 10
-6.1036773143
 20
-16.8395692887
 10
-6.0438300764
 20
-16.8620003982
 10
-5.9817828194
 20
-16.8830104687
 10
-5.918338828
 20
-16.9023723353
 10
-5.8548280096
 20
-16.9197224558
 10
-5.7924879124
 20
-16.9348934292
 10
-5.7300809882
 20
-16.9482121326
 10
-5.6652244996
 20
-16.9600559004
 10
-5.5963091993
 20
-16.9707514263
 10
-5.5249443346
 20
-16.9800558156
 10
-5.45357491
 20
-16.9874877791
 10
-5.3825167724
 20
-16.992881267
 10
-5.3114540748
 20
-16.9964817294
 10
-5.2418842806
 20
-16.9984238911
 10
-5.1748056111
 20
-16.9987168566
 10
-5.109219845
 20
-16.9973642296
 10
-5.0436297814
 20
-16.9944776192
 10
-4.9769291786
 20
-16.9899774467
 10
-4.9102242783
 20
-16.9839040722
 10
-4.8453366049
 20
-16.9765439449
 10
-4.783479776
 20
-16.9680314674
 10
-4.723440174
 20
-16.958170899
 10
-4.66339847
 20
-16.9467471179
 10
-4.6017466634
 20
-16.9333293352
 10
-4.5400927549
 20
-16.9182304365
 10
-4.4814414171
 20
-16.9023783309
 10
-4.4277295586
 20
-16.8863105782
 10
-4.3770202709
 20
-16.869461935
 10
-4.3265075019
 20
-16.8511174014
 10
-4.2750542729
 20
-16.830908352
 10
-4.2237975627
 20
-16.8090801879
 10
-4.1733422558
 20
-16.7858168478
 10
-4.124086574
 20
-16.7612750172
 10
-4.0756322956
 20
-16.7352027284
 10
-4.0273896401
 20
-16.7071611893
 10
-3.9782751884
 20
-16.676269119
 10
-3.9293723597
 20
-16.6432249393
 10
-3.8833416316
 20
-16.6100528862
 10
-3.8419174737
 20
-16.5781047205
 10
-3.8033654163
 20
-16.5461432056
 10
-3.7651425286
 20
-16.5123358736
 10
-3.7265412967
 20
-16.4762441501
 10
-3.6882692344
 20
-16.4381827004
 10
-3.6499059528
 20
-16.3973234841
 10
-3.6111235336
 20
-16.3532502428
 10
-3.5722498952
 20
-16.3061783413
 10
-3.5338484037
 20
-16.2561983584
 10
-3.4954388893
 20
-16.2022238795
 10
-3.4575015217
 20
-16.1451386886
 10
-3.4220401774
 20
-16.0881666476
 10
-3.3903238848
 20
-16.0335286636
 10
-3.3610836153
 20
-15.9792247291
 10
-3.3325161591
 20
-15.9221803216
 10
-3.3034742002
 20
-15.859908523
 10
-3.2751050545
 20
-15.7947310694
 10
-3.24904746
 20
-15.7308300689
 10
-3.2263650512
 20
-15.671043729
 10
-3.2059941936
 20
-15.6128065701
 10
-3.1863827213
 20
-15.5522307987
 10
-3.1668404992
 20
-15.4874602359
 10
-3.1480576625
 20
-15.4202806033
 10
-3.130552451
 20
-15.3521983604
 10
-3.1145689557
 20
-15.284263355
 10
-3.0998630856
 20
-15.2155043144
 10
-3.0862208081
 20
-15.1444056531
 10
-3.0734859665
 20
-15.0705219708
 10
-3.0618147175
 20
-14.9943116595
 10
-3.0514614985
 20
-14.9155884581
 10
-3.042399245
 20
-14.8339937359
 10
-3.0346550215
 20
-14.7499409581
 10
-3.028564459
 20
-14.6644222745
 10
-3.0242394344
 20
-14.5778143607
 10
-3.0215680708
 20
-14.4898669175
 10
-3.0205503682
 20
-14.4006510421
  0
LINE
  5
3C4
100
AcDbEntity
  8
0
100
AcDbLine
 62
7
  6
CONTINUOUS
 10
-6.7990958467
 20
14.588919588
 11
-6.7963504499
 21
14.3672110568
  0
LINE
  5
3C5
100
AcDbEntity
  8
0
100
AcDbLine
 62
7
  6
CONTINUOUS
 10
-6.8
 20
14.6990175052
 11
-6.7990958467
 21
14.588919588
  0
LINE
  5
3C6
100
AcDbEntity
  8
0
100
AcDbLine
 62
7
  6
CONTINUOUS
 10
-6.7963504499
 20
14.3672110568
 11
-6.7950442915
 21
14.200000206
  0
LINE
  5
3C7
100
AcDbEntity
  8
0
100
AcDbLine
 62
250
  6
CONTINUOUS
 10
-6.6993382539
 20
15.7660857429
 11
-6.6992554975
 21
15.7269552878
  0
LINE
  5
3C8
100
AcDbEntity
  8
0
100
AcDbLine
 62
7
  6
CONTINUOUS
 10
-8.2000003442
 20
-7.972564269
 11
-8.2000004839
 21
-8.0217928653
  0
LINE
  5
3C9
100
AcDbEntity
  8
DRAFT
100
AcDbLine
 62
7
  6
CONTINUOUS
 10
-8.15
 20
-21.1851643248
 11
-8.15
 21
-22.1851643248
  0
LINE
  5
3CA
100
AcDbEntity
  8
ASSI
100
AcDbLine
 62
7
  6
CONTINUOUS
 10
-8.15
 20
-21.1851643248
 11
-8.15
 21
-22.1851643248
  0
LINE
  5
3CB
100
AcDbEntity
  8
DRAFT
100
AcDbLine
 62
7
  6
CONTINUOUS
 10
-8.15
 20
21.1851643248
 11
-8.15
 21
22.1851643248
  0
LINE
  5
3CC
100
AcDbEntity
  8
ASSI
100
AcDbLine
 62
7
  6
CONTINUOUS
 10
-8.15
 20
21.1851643248
 11
-8.15
 21
22.1851643248
  0
LINE
  5
3CD
100
AcDbEntity
  8
0
100
AcDbLine
 62
7
  6
CONTINUOUS
 10
-7.925
 20
6.860254706
 11
-7.925
 21
10.1318587994
  0
LINE
  5
3CE
100
AcDbEntity
  8
0
100
AcDbLine
 62
250
  6
CONTINUOUS
 10
-7.3794495785
 20
-14.4006510421
 11
-7.3794495252
 21
-8.1090947965
  0
LINE
  5
3CF
100
AcDbEntity
  8
0
100
AcDbLine
 62
7
  6
CONTINUOUS
 10
-7.2465977891
 20
9.5478052248
 11
-7.2465977891
 21
7.5194801825
  0
LINE
  5
3D0
100
AcDbEntity
  8
0
100
AcDbLine
 62
7
  6
CONTINUOUS
 10
-7.0140423495
 20
13.9637400207
 11
-7.0140423495
 21
13.6359512972
  0
LINE
  5
3D1
100
AcDbEntity
  8
0
100
AcDbLine
 62
7
  6
CONTINUOUS
 10
-6.9674395314
 20
7.7491398461
 11
-6.9674395314
 21
8.4385360929
  0
LINE
  5
3D2
100
AcDbEntity
  8
0
100
AcDbLine
 62
7
  6
CONTINUOUS
 10
-6.9674395314
 20
8.6684740941
 11
-6.9674395314
 21
9.2819830565
  0
LINE
  5
3D3
100
AcDbEntity
  8
0
100
AcDbLine
 62
7
  6
CONTINUOUS
 10
-6.8
 20
14.6990271774
 11
-6.8
 21
15.675938089
  0
LINE
  5
3D4
100
AcDbEntity
  8
0
100
AcDbLine
 62
7
  6
CONTINUOUS
 10
-6.7950442915
 20
14.200000206
 11
-6.7950340003
 21
13.6497928219
  0
LINE
  5
3D5
100
AcDbEntity
  8
0
100
AcDbLine
 62
250
  6
CONTINUOUS
 10
-6.5076953201
 20
-8.116078796
 11
-6.5076873419
 21
-14.4006510594
  0
LINE
  5
3D6
100
AcDbEntity
  8
0
100
AcDbLine
 62
250
  6
CONTINUOUS
 10
-6.5000000069
 20
14.2000001759
 11
-6.5000000069
 21
13.6500003691
  0
LINE
  5
3D7
100
AcDbEntity
  8
0
100
AcDbLine
 62
7
  6
CONTINUOUS
 10
-7.0116733147
 20
15.2093461497
 11
-7.0119849913
 21
14.9771002722
  0
LINE
  5
3D8
100
AcDbEntity
  8
0
100
AcDbLine
 62
7
  6
CONTINUOUS
 10
-7.0157498771
 20
13.6342293142
 11
-7.0140423495
 21
13.9637400207
  0
LWPOLYLINE
  5
3D9
100
AcDbEntity
  8
0
100
AcDbPolyline
 62
7
  6
CONTINUOUS
 90
3
 70
0
 10
-7.007117839
 20
15.6033514761
 10
-7.0077934344
 20
15.5374116021
 10
-7.0119849913
 20
14.9771002722
  0
LINE
  5
3DA
100
AcDbEntity
  8
0
100
AcDbLine
 62
7
  6
CONTINUOUS
 10
-7.0091641601
 20
15.4937835408
 11
-7.0107104953
 21
15.360007935
  0
LINE
  5
3DB
100
AcDbEntity
  8
0
100
AcDbLine
 62
7
  6
CONTINUOUS
 10
-6.7999790744
 20
15.67698499
 11
-6.7999999934
 21
15.6759632572
  0
LWPOLYLINE
  5
3DC
100
AcDbEntity
  8
0
100
AcDbPolyline
 62
7
  6
CONTINUOUS
 90
3
 70
0
 10
-7.007117839
 20
15.6033514761
 10
-7.0078555
 20
15.5695185722
 10
-7.0091641601
 20
15.4937835408
  0
LINE
  5
3DD
100
AcDbEntity
  8
DRAFT
100
AcDbLine
 62
7
  6
CONTINUOUS
 10
-7.797027879
 20
-21.2
 11
-7.8502441328
 21
-22.2
  0
LINE
  5
3DE
100
AcDbEntity
  8
ASSI
100
AcDbLine
 62
7
  6
CONTINUOUS
 10
-7.797027879
 20
-21.2
 11
-7.8502441328
 21
-22.2
  0
LWPOLYLINE
  5
3DF
100
AcDbEntity
  8
0
100
AcDbPolyline
 62
7
  6
CONTINUOUS
 90
3
 70
0
 10
-6.8
 20
15.6760186652
 10
-6.7992822521
 20
15.6879868149
 10
-6.7970863349
 20
15.6999938561
  0
LINE
  5
3E0
100
AcDbEntity
  8
DRAFT
100
AcDbLine
 62
7
  6
CONTINUOUS
 10
-13.945788487
 20
-21.1651588757
 11
-14.2558829718
 21
-22.1805062352
  0
LINE
  5
3E1
100
AcDbEntity
  8
ASSI
100
AcDbLine
 62
7
  6
CONTINUOUS
 10
-13.945788487
 20
-21.1651588757
 11
-14.2558829718
 21
-22.1805062352
  0
LWPOLYLINE
  5
3E2
100
AcDbEntity
  8
0
100
AcDbPolyline
 62
250
  6
CONTINUOUS
 90
3
 70
0
 10
7.0149909336
 20
13.6342250435
 10
7.0148013006
 20
13.6340881676
 10
7.0146116346
 20
13.6339968128
  0
LINE
  5
3E3
100
AcDbEntity
  8
0
100
AcDbLine
 62
7
  6
CONTINUOUS
 10
2.114373585
 20
-7.9890972175
 11
2.315787314
 21
-7.9377225402
  0
LWPOLYLINE
  5
3E4
100
AcDbEntity
  8
0
100
AcDbPolyline
 62
7
  6
CONTINUOUS
 90
3
 70
0
 10
1.7724489525
 20
-8.0545998839
 10
1.797760706
 20
-8.0482633244
 10
1.8243498505
 20
-8.0419929029
  0
LWPOLYLINE
  5
3E5
100
AcDbEntity
  8
0
100
AcDbPolyline
 62
7
  6
CONTINUOUS
 90
6
 70
0
 10
1.8243498505
 20
-8.0419929029
 10
1.8522163858
 20
-8.0357886193
 10
1.881382897
 20
-8.0296486831
 10
1.9118267991
 20
-8.0235748848
 10
1.9434803371
 20
-8.0175725966
 10
1.9763209259
 20
-8.0116436093
  0
LWPOLYLINE
  5
3E6
100
AcDbEntity
  8
0
100
AcDbPolyline
 62
7
  6
CONTINUOUS
 90
3
 70
0
 10
2.114373585
 20
-7.9890972175
 10
2.074694845
 20
-7.9973336845
 10
2.0456310112
 20
-8.0
  0
LWPOLYLINE
  5
3E7
100
AcDbEntity
  8
0
100
AcDbPolyline
 62
7
  6
CONTINUOUS
 90
3
 70
0
 10
1.9763209259
 20
-8.0116436093
 10
2.0103711506
 20
-8.0057861321
 10
2.0456310112
 20
-8.0000001649
  0
LWPOLYLINE
  5
3E8
100
AcDbEntity
  8
0
100
AcDbPolyline
 62
7
  6
CONTINUOUS
 90
13
 70
0
 10
-2.9972835561
 20
-8.0929109718
 10
-2.8752283501
 20
-8.0880013497
 10
-2.761701707
 20
-8.0828192564
 10
-2.6579649053
 20
-8.0774231335
 10
-2.5641194579
 20
-8.0718107603
 10
-2.4800638518
 20
-8.0659843575
 10
-2.4067548265
 20
-8.060009028
 10
-2.3443027345
 20
-8.0538830258
 10
-2.2925972234
 20
-8.0476080968
 10
-2.252263975
 20
-8.0412545822
 10
-2.22351155
 20
-8.0348459291
 10
-2.2061313876
 20
-8.0283586903
 10
-2.2001234881
 20
-8.0217928659
  0
LWPOLYLINE
  5
3E9
100
AcDbEntity
  8
0
100
AcDbPolyline
 62
7
  6
CONTINUOUS
 90
13
 70
0
 10
-10.5681508607
 20
-8.0849446938
 10
-10.4236626211
 20
-8.0796481583
 10
-10.2885783096
 20
-8.0740146188
 10
-10.1646581462
 20
-8.0681147083
 10
-10.0520722065
 20
-8.0619440839
 10
-9.9506504149
 20
-8.0555070887
 10
-9.8616427644
 20
-8.0488873852
 10
-9.7852231938
 20
-8.0420940127
 10
-9.7212177643
 20
-8.035117932
 10
-9.6703546528
 20
-8.0280156877
 10
-9.632876585
 20
-8.0208061281
 10
-9.6085408352
 20
-8.013470405
 10
-9.5973474035
 20
-8.0060085182
  0
LINE
  5
3EA
100
AcDbEntity
  8
0
100
AcDbLine
 62
7
  6
CONTINUOUS
 10
7.1328323719
 20
-8.1019072692
 11
7.4027164422
 21
-8.0929109719
  0
LINE
  5
3EB
100
AcDbEntity
  8
0
100
AcDbLine
 62
7
  6
CONTINUOUS
 10
-3.2671676271
 20
-8.1019072692
 11
-2.9972835561
 21
-8.0929109718
  0
LINE
  5
3EC
100
AcDbEntity
  8
0
100
AcDbLine
 62
250
  6
CONTINUOUS
 10
-10.7444367875
 20
-7.8351445662
 11
-11.0380681932
 21
-7.8447282082
  0
LINE
  5
3ED
100
AcDbEntity
  8
0
100
AcDbLine
 62
7
  6
CONTINUOUS
 10
-10.8849833789
 20
-8.0945100901
 11
-10.5681508607
 21
-8.0849446938
  0
LINE
  5
3EE
100
AcDbEntity
  8
0
100
AcDbLine
 62
7
  6
CONTINUOUS
 10
6.8339781623
 20
-8.1096465446
 11
7.1328323719
 21
-8.1019072692
  0
LINE
  5
3EF
100
AcDbEntity
  8
0
100
AcDbLine
 62
7
  6
CONTINUOUS
 10
-3.5660218375
 20
-8.1096465446
 11
-3.2671676271
 21
-8.1019072692
  0
LINE
  5
3F0
100
AcDbEntity
  8
0
100
AcDbLine
 62
250
  6
CONTINUOUS
 10
-11.0380681932
 20
-7.8447282082
 11
-11.3619554122
 21
-7.8527851255
  0
LINE
  5
3F1
100
AcDbEntity
  8
0
100
AcDbLine
 62
7
  6
CONTINUOUS
 10
-11.2353429377
 20
-8.1025753376
 11
-10.8849833789
 21
-8.0945100901
  0
LINE
  5
3F2
100
AcDbEntity
  8
0
100
AcDbLine
 62
7
  6
CONTINUOUS
 10
6.5076970471
 20
-8.1160786568
 11
6.8339781623
 21
-8.1096465446
  0
LINE
  5
3F3
100
AcDbEntity
  8
0
100
AcDbLine
 62
7
  6
CONTINUOUS
 10
-3.8923029538
 20
-8.1160786568
 11
-3.5660218375
 21
-8.1096465446
  0
LINE
  5
3F4
100
AcDbEntity
  8
0
100
AcDbLine
 62
250
  6
CONTINUOUS
 10
-11.3619554122
 20
-7.8527851255
 11
-11.710717667
 21
-7.8592154603
  0
LINE
  5
3F5
100
AcDbEntity
  8
0
100
AcDbLine
 62
7
  6
CONTINUOUS
 10
-11.6180029355
 20
-8.1090947965
 11
-11.2353429377
 21
-8.1025753376
  0
LINE
  5
3F6
100
AcDbEntity
  8
0
100
AcDbLine
 62
7
  6
CONTINUOUS
 10
6.5076970471
 20
-8.1160786568
 11
6.7871312179
 21
-8.1122279764
  0
LINE
  5
3F7
100
AcDbEntity
  8
0
100
AcDbLine
 62
7
  6
CONTINUOUS
 10
-3.8923029538
 20
-8.1160786568
 11
-3.6128687826
 21
-8.1122279764
  0
LINE
  5
3F8
100
AcDbEntity
  8
0
100
AcDbLine
 62
250
  6
CONTINUOUS
 10
-11.710717667
 20
-7.8592154603
 11
-12.0785666294
 21
-7.8638851572
  0
LINE
  5
3F9
100
AcDbEntity
  8
0
100
AcDbLine
 62
7
  6
CONTINUOUS
 10
6.7871312179
 20
-8.1122279764
 11
7.0799142515
 21
-8.1098825157
  0
LINE
  5
3FA
100
AcDbEntity
  8
0
100
AcDbLine
 62
7
  6
CONTINUOUS
 10
-3.6128687826
 20
-8.1122279764
 11
-3.3200857486
 21
-8.1098825157
  0
LINE
  5
3FB
100
AcDbEntity
  8
0
100
AcDbLine
 62
250
  6
CONTINUOUS
 10
-12.0785666294
 20
-7.8638851572
 11
-12.4593943895
 21
-7.8667159339
  0
LINE
  5
3FC
100
AcDbEntity
  8
0
100
AcDbLine
 62
250
  6
CONTINUOUS
 10
-12.4593943895
 20
-7.8667159339
 11
-12.8468465353
 21
-7.8676810992
  0
LINE
  5
3FD
100
AcDbEntity
  8
0
100
AcDbLine
 62
7
  6
CONTINUOUS
 10
7.0799142515
 20
-8.1098825157
 11
7.379449525
 21
-8.1090947887
  0
LINE
  5
3FE
100
AcDbEntity
  8
0
100
AcDbLine
 62
7
  6
CONTINUOUS
 10
-3.3200857486
 20
-8.1098825157
 11
-3.0205504748
 21
-8.1090947887
  0
LINE
  5
3FF
100
AcDbEntity
  8
0
100
AcDbLine
 62
7
  6
CONTINUOUS
 10
7.379449525
 20
-8.1090947899
 11
11.6180013183
 21
-8.1090947899
  0
LINE
  5
400
100
AcDbEntity
  8
0
100
AcDbLine
 62
7
  6
CONTINUOUS
 10
-1.7724286514
 20
-8.0545987005
 11
1.7724086498
 21
-8.0545987005
  0
LINE
  5
401
100
AcDbEntity
  8
0
100
AcDbLine
 62
7
  6
CONTINUOUS
 10
2.2
 20
-8.021792865
 11
1.9212244204
 21
-8.021792865
  0
LINE
  5
402
100
AcDbEntity
  8
0
100
AcDbLine
 62
7
  6
CONTINUOUS
 10
-1.9212508546
 20
-8.021792865
 11
-2.2
 21
-8.021792865
  0
LINE
  5
403
100
AcDbEntity
  8
0
100
AcDbLine
 62
7
  6
CONTINUOUS
 10
-2.0453751662
 20
-8.0000001649
 11
2.0456310112
 21
-8.0000001649
  0
LINE
  5
404
100
AcDbEntity
  8
0
100
AcDbLine
 62
7
  6
CONTINUOUS
 10
-9.5942551296
 20
-8.0
 11
-8.2159043801
 21
-8.0
  0
LINE
  5
405
100
AcDbEntity
  8
0
100
AcDbLine
 62
7
  6
CONTINUOUS
 10
8.2108931126
 20
-8.0
 11
9.5943194008
 21
-8.0
  0
LINE
  5
406
100
AcDbEntity
  8
0
100
AcDbLine
 62
7
  6
CONTINUOUS
 10
8.8403300859
 20
-7.5618971329
 11
8.9297011297
 21
-7.5618972242
  0
LINE
  5
407
100
AcDbEntity
  8
0
100
AcDbLine
 62
7
  6
CONTINUOUS
 10
-8.9297008012
 20
-7.5618975979
 11
-8.8403300451
 21
-7.5618971752
  0
LINE
  5
408
100
AcDbEntity
  8
0
100
AcDbLine
 62
7
  6
CONTINUOUS
 10
6.964311133
 20
-7.4392304845
 11
3.4362782916
 21
-7.4392304845
  0
LINE
  5
409
100
AcDbEntity
  8
0
100
AcDbLine
 62
7
  6
CONTINUOUS
 10
-3.4188342955
 20
-7.4392304845
 11
-6.9781240919
 21
-7.4392304845
  0
LINE
  5
40A
100
AcDbEntity
  8
0
100
AcDbLine
 62
7
  6
CONTINUOUS
 10
-11.6180029355
 20
-8.1090947965
 11
-7.1790089747
 21
-8.1094469207
  0
LINE
  5
40B
100
AcDbEntity
  8
0
100
AcDbLine
 62
7
  6
CONTINUOUS
 10
3.2209977336
 20
-8.1094471621
 11
-3.0205504748
 21
-8.1090947887
  0
LINE
  5
40C
100
AcDbEntity
  8
0
100
AcDbLine
 62
250
  6
CONTINUOUS
 10
12.8468482288
 20
-7.86767439
 11
12.4594008761
 21
-7.8667025117
  0
LINE
  5
40D
100
AcDbEntity
  8
0
100
AcDbLine
 62
7
  6
CONTINUOUS
 10
-7.1790089747
 20
-8.1094469207
 11
-6.8834887146
 21
-8.1112770809
  0
LINE
  5
40E
100
AcDbEntity
  8
0
100
AcDbLine
 62
7
  6
CONTINUOUS
 10
3.5165375897
 20
-8.1112776274
 11
3.2209977336
 21
-8.1094471621
  0
LINE
  5
40F
100
AcDbEntity
  8
0
100
AcDbLine
 62
250
  6
CONTINUOUS
 10
12.4594008761
 20
-7.8667025117
 11
12.0785775274
 21
-7.8638660272
  0
LINE
  5
410
100
AcDbEntity
  8
0
100
AcDbLine
 62
7
  6
CONTINUOUS
 10
-6.8834887146
 20
-8.1112770809
 11
-6.5993457308
 21
-8.1146268945
  0
LINE
  5
411
100
AcDbEntity
  8
0
100
AcDbLine
 62
7
  6
CONTINUOUS
 10
3.8006691549
 20
-8.1146271658
 11
3.5165375897
 21
-8.1112776274
  0
LINE
  5
412
100
AcDbEntity
  8
0
100
AcDbLine
 62
250
  6
CONTINUOUS
 10
12.0785775274
 20
-7.8638660272
 11
11.7107323019
 21
-7.8591916557
  0
LINE
  5
413
100
AcDbEntity
  8
0
100
AcDbLine
 62
7
  6
CONTINUOUS
 10
-9.6024695317
 20
-7.9998632535
 11
-9.5942551789
 21
-8.0000001686
  0
LINE
  5
414
100
AcDbEntity
  8
0
100
AcDbLine
 62
7
  6
CONTINUOUS
 10
-6.5076735149
 20
-8.1160769397
 11
-6.6740437633
 21
-8.1130310382
  0
LINE
  5
415
100
AcDbEntity
  8
0
100
AcDbLine
 62
7
  6
CONTINUOUS
 10
11.2356748537
 20
-8.1025821762
 11
11.6180013183
 21
-8.1090947887
  0
LINE
  5
416
100
AcDbEntity
  8
0
100
AcDbLine
 62
250
  6
CONTINUOUS
 10
11.7107323019
 20
-7.8591916557
 11
11.3619726975
 21
-7.8527577817
  0
LINE
  5
417
100
AcDbEntity
  8
0
100
AcDbLine
 62
7
  6
CONTINUOUS
 10
3.5660141845
 20
-8.1096458421
 11
3.8923264842
 21
-8.1160769397
  0
LINE
  5
418
100
AcDbEntity
  8
0
100
AcDbLine
 62
7
  6
CONTINUOUS
 10
-6.6740437633
 20
-8.1130310382
 11
-6.9860331406
 21
-8.1059663036
  0
LINE
  5
419
100
AcDbEntity
  8
0
100
AcDbLine
 62
7
  6
CONTINUOUS
 10
10.8855160251
 20
-8.0945240935
 11
11.2356748537
 21
-8.1025821762
  0
LINE
  5
41A
100
AcDbEntity
  8
0
100
AcDbLine
 62
250
  6
CONTINUOUS
 10
11.3619726975
 20
-7.8527577817
 11
11.038086793
 21
-7.8446985024
  0
LINE
  5
41B
100
AcDbEntity
  8
0
100
AcDbLine
 62
7
  6
CONTINUOUS
 10
3.2671451423
 20
-8.10190677
 11
3.5660141845
 21
-8.1096458421
  0
LWPOLYLINE
  5
41C
100
AcDbEntity
  8
0
100
AcDbPolyline
 62
7
  6
CONTINUOUS
 90
15
 70
0
 10
-6.9860331406
 20
-8.1059663036
 10
-7.2714077948
 20
-8.0975708303
 10
-7.4021394076
 20
-8.092936873
 10
-7.5242800375
 20
-8.0880258349
 10
-7.637923473
 20
-8.0828407316
 10
-7.7417709262
 20
-8.0774408544
 10
-7.8357127797
 20
-8.0718238003
 10
-7.9198586509
 20
-8.0659919723
 10
-7.993238603
 20
-8.0600118721
 10
-8.0557374184
 20
-8.0538818775
 10
-8.1074703149
 20
-8.0476036105
 10
-8.1478130087
 20
-8.0412484391
 10
-8.1765574054
 20
-8.0348401526
 10
-8.1939115995
 20
-8.0283549616
 10
-8.1998755909
 20
-8.0217928662
  0
LWPOLYLINE
  5
41D
100
AcDbEntity
  8
0
100
AcDbPolyline
 62
250
  6
CONTINUOUS
 90
14
 70
0
 10
11.038086793
 20
-7.8446985024
 10
10.7444552164
 20
-7.8351136898
 10
10.6105255122
 20
-7.8298111349
 10
10.4859461024
 20
-7.8241712463
 10
10.3712288405
 20
-7.8182636019
 10
10.2668571783
 20
-7.8120848585
 10
10.1732710144
 20
-7.8056383593
 10
10.0908582458
 20
-7.7990037113
 10
10.0199711839
 20
-7.792178513
 10
9.9609136042
 20
-7.785165166
 10
9.913935942
 20
-7.7780504816
 10
9.8792456075
 20
-7.7708633968
 10
9.8570016909
 20
-7.7635749745
 10
9.8473093258
 20
-7.7561852147
  0
LWPOLYLINE
  5
41E
100
AcDbEntity
  8
0
100
AcDbPolyline
 62
7
  6
CONTINUOUS
 90
11
 70
0
 10
9.6704504689
 20
-8.028030793
 10
9.7213696765
 20
-8.0351364975
 10
9.7854407407
 20
-8.0421152706
 10
9.8619286642
 20
-8.0489106796
 10
9.9510101067
 20
-8.0555318434
 10
10.0525084085
 20
-8.0619696432
 10
10.1651585939
 20
-8.0681402893
 10
10.2891312635
 20
-8.0740393488
 10
10.4242558167
 20
-8.0796712546
 10
10.5687554762
 20
-8.0849655157
 10
10.8855160251
 20
-8.0945240935
  0
LWPOLYLINE
  5
41F
100
AcDbEntity
  8
0
100
AcDbPolyline
 62
7
  6
CONTINUOUS
 90
3
 70
0
 10
-1.9755364527
 20
-8.0117728334
 10
-2.0098043634
 20
-8.0058598216
 10
-2.0453751662
 20
-8.0000001649
  0
LWPOLYLINE
  5
420
100
AcDbEntity
  8
0
100
AcDbPolyline
 62
7
  6
CONTINUOUS
 90
6
 70
0
 10
-1.8238039687
 20
-8.0421250723
 10
-1.8514937312
 20
-8.0359584313
 10
-1.8805288442
 20
-8.0298363812
 10
-1.9108986931
 20
-8.0237611132
 10
-1.9425714341
 20
-8.0177392003
 10
-1.9755364527
 20
-8.0117728334
  0
LWPOLYLINE
  5
421
100
AcDbEntity
  8
0
100
AcDbPolyline
 62
7
  6
CONTINUOUS
 90
6
 70
0
 10
-2.1478070671
 20
-7.9849372084
 10
-2.1239071901
 20
-7.9907072126
 10
-2.1017991516
 20
-7.9949632104
 10
-2.0811993179
 20
-7.9978465538
 10
-2.0623913227
 20
-7.9994825404
 10
-2.0453751662
 20
-8.0
  0
LWPOLYLINE
  5
422
100
AcDbEntity
  8
0
100
AcDbPolyline
 62
7
  6
CONTINUOUS
 90
3
 70
0
 10
-1.7724300334
 20
-8.0545983439
 10
-1.7974489421
 20
-8.0483384954
 10
-1.8238039687
 20
-8.0421250723
  0
LINE
  5
423
100
AcDbEntity
  8
0
100
AcDbLine
 62
7
  6
CONTINUOUS
 10
-2.3383080241
 20
-7.9335090087
 11
-2.1478070671
 21
-7.9849372084
  0
LWPOLYLINE
  5
424
100
AcDbEntity
  8
0
100
AcDbPolyline
 62
7
  6
CONTINUOUS
 90
13
 70
0
 10
-2.3383076199
 20
-7.9334922707
 10
-2.3411253865
 20
-7.9327297288
 10
-2.3584418293
 20
-7.9277133722
 10
-2.3774989355
 20
-7.9215184285
 10
-2.3984202694
 20
-7.9141521741
 10
-2.4213188218
 20
-7.9056073327
 10
-2.4464148004
 20
-7.8956072298
 10
-2.4738410852
 20
-7.884154353
 10
-2.5037438139
 20
-7.8712462147
 10
-2.5363991524
 20
-7.8565986773
 10
-2.5719976108
 20
-7.8401811482
 10
-2.6106784639
 20
-7.8220242201
 10
-2.652669277
 20
-7.8019355323
  0
LWPOLYLINE
  5
425
100
AcDbEntity
  8
0
100
AcDbPolyline
 62
7
  6
CONTINUOUS
 90
3
 70
0
 10
-3.498260676
 20
-7.4092581357
 10
-3.4135046893
 20
-7.4412416654
 10
-3.3573647672
 20
-7.4630399519
  0
LWPOLYLINE
  5
426
100
AcDbEntity
  8
0
100
AcDbPolyline
 62
7
  6
CONTINUOUS
 90
9
 70
0
 10
-3.3573647672
 20
-7.4630399519
 10
-3.3305015637
 20
-7.4736398321
 10
-3.2491139384
 20
-7.5064376059
 10
-3.1694791743
 20
-7.5394119292
 10
-3.0925983002
 20
-7.5719640248
 10
-3.0187252203
 20
-7.6039417407
 10
-2.9476060305
 20
-7.6353430741
 10
-2.8794800477
 20
-7.6658668805
 10
-2.8145080479
 20
-7.6953944412
  0
LWPOLYLINE
  5
427
100
AcDbEntity
  8
0
100
AcDbPolyline
 62
7
  6
CONTINUOUS
 90
3
 70
0
 10
-3.2611774375
 20
-7.5101939673
 10
-3.3377037956
 20
-7.4759506436
 10
-3.416008959
 20
-7.4420303102
  0
LWPOLYLINE
  5
428
100
AcDbEntity
  8
0
100
AcDbPolyline
 62
7
  6
CONTINUOUS
 90
9
 70
0
 10
-2.4364003584
 20
-7.8711501703
 10
-2.3919344172
 20
-7.8913340839
 10
-2.3492107751
 20
-7.9103149103
 10
-2.3085636979
 20
-7.9277639973
 10
-2.2706848807
 20
-7.943172669
 10
-2.2358467285
 20
-7.9565729936
 10
-2.2037768363
 20
-7.9680551923
 10
-2.1743496845
 20
-7.9774740209
 10
-2.1519532386
 20
-7.9838353464
  0
LINE
  5
429
100
AcDbEntity
  8
0
100
AcDbLine
 62
7
  6
CONTINUOUS
 10
-2.8145080479
 20
-7.6953944412
 11
-2.6933006587
 21
-7.7514140331
  0
LWPOLYLINE
  5
42A
100
AcDbEntity
  8
0
100
AcDbPolyline
 62
7
  6
CONTINUOUS
 90
3
 70
0
 10
-3.1152341772
 20
-7.5774077919
 10
-3.1870198025
 20
-7.5440137576
 10
-3.2611774375
 20
-7.5101939673
  0
LINE
  5
42B
100
AcDbEntity
  8
0
100
AcDbLine
 62
7
  6
CONTINUOUS
 10
-2.5318730374
 20
-7.8268867197
 11
-2.4364003584
 21
-7.8711501703
  0
LINE
  5
42C
100
AcDbEntity
  8
0
100
AcDbLine
 62
7
  6
CONTINUOUS
 10
-2.6933006587
 20
-7.7514140331
 11
-2.5318730374
 21
-7.8268867197
  0
LWPOLYLINE
  5
42D
100
AcDbEntity
  8
0
100
AcDbPolyline
 62
7
  6
CONTINUOUS
 90
3
 70
0
 10
-2.9166533535
 20
-7.6727744227
 10
-2.9797538754
 20
-7.6421854048
 10
-3.1152341772
 20
-7.5774077919
  0
LWPOLYLINE
  5
42E
100
AcDbEntity
  8
0
100
AcDbPolyline
 62
7
  6
CONTINUOUS
 90
3
 70
0
 10
-2.652669277
 20
-7.8019355323
 10
-2.8002915684
 20
-7.7298865509
 10
-2.9166533535
 20
-7.6727744227
  0
LINE
  5
42F
100
AcDbEntity
  8
DRAFT
100
AcDbLine
 62
7
  6
CONTINUOUS
 10
-14.2558829718
 20
22.1805062352
 11
-13.945788487
 21
21.1651588757
  0
LINE
  5
430
100
AcDbEntity
  8
ASSI
100
AcDbLine
 62
7
  6
CONTINUOUS
 10
-14.2558829718
 20
22.1805062352
 11
-13.945788487
 21
21.1651588757
  0
LWPOLYLINE
  5
431
100
AcDbEntity
  8
0
100
AcDbPolyline
 62
250
  6
CONTINUOUS
 90
13
 70
0
 10
-6.500000011
 20
14.2000001522
 10
-6.5063787373
 20
14.3362978582
 10
-6.5164680897
 20
14.4716413183
 10
-6.5302680682
 20
14.6057600037
 10
-6.5488965312
 20
14.7382844689
 10
-6.5712356202
 20
14.8690733244
 10
-6.5939317607
 20
14.9982037139
 10
-6.6170390957
 20
15.1254821921
 10
-6.6405034821
 20
15.2506212129
 10
-6.6608089158
 20
15.3735508103
 10
-6.6767833957
 20
15.4940921617
 10
-6.6895989229
 20
15.6119663862
 10
-6.6992554975
 20
15.7269552878
  0
LINE
  5
432
100
AcDbEntity
  8
DRAFT
100
AcDbLine
 62
7
  6
CONTINUOUS
 10
-4.0135191699
 20
-20.9320850844
 11
-4.0415154698
 21
-20.0060689771
  0
LINE
  5
433
100
AcDbEntity
  8
ASSI
100
AcDbLine
 62
7
  6
CONTINUOUS
 10
-4.0135191699
 20
-20.9320850844
 11
-4.0415154698
 21
-20.0060689771
  0
LINE
  5
434
100
AcDbEntity
  8
0
100
AcDbLine
 62
7
  6
CONTINUOUS
 10
-5.9269405707
 20
8.4385360929
 11
-5.9269405707
 21
8.7040685346
  0
LINE
  5
435
100
AcDbEntity
  8
0
100
AcDbLine
 62
7
  6
CONTINUOUS
 10
-5.8000504536
 20
7.5194801825
 11
-5.8000504536
 21
7.7846998931
  0
LINE
  5
436
100
AcDbEntity
  8
DRAFT
100
AcDbLine
 62
7
  6
CONTINUOUS
 10
-5.1669648205
 20
19.1
 11
-5.1669648205
 21
18.9
  0
LINE
  5
437
100
AcDbEntity
  8
ASSI
100
AcDbLine
 62
7
  6
CONTINUOUS
 10
-5.1669648205
 20
19.1
 11
-5.1669648205
 21
18.9
  0
LINE
  5
438
100
AcDbEntity
  8
DRAFT
100
AcDbLine
 62
7
  6
CONTINUOUS
 10
-5.1669648205
 20
-19.1
 11
-5.1669648205
 21
-18.9
  0
LINE
  5
439
100
AcDbEntity
  8
ASSI
100
AcDbLine
 62
7
  6
CONTINUOUS
 10
-5.1669648205
 20
-19.1
 11
-5.1669648205
 21
-18.9
  0
LINE
  5
43A
100
AcDbEntity
  8
0
100
AcDbLine
 62
7
  6
CONTINUOUS
 10
-4.9371976569
 20
9.2819830565
 11
-4.9371976569
 21
7.5194801825
  0
LINE
  5
43B
100
AcDbEntity
  8
0
100
AcDbLine
 62
7
  6
CONTINUOUS
 10
-4.6580393992
 20
7.5194801825
 11
-4.6580393992
 21
9.2819830565
  0
LINE
  5
43C
100
AcDbEntity
  8
DRAFT
100
AcDbLine
 62
7
  6
CONTINUOUS
 10
-4.5169648205
 20
18.8430942654
 11
-4.5169648205
 21
18.6327542795
  0
LINE
  5
43D
100
AcDbEntity
  8
ASSI
100
AcDbLine
 62
7
  6
CONTINUOUS
 10
-4.5169648205
 20
18.8430942654
 11
-4.5169648205
 21
18.6327542795
  0
LINE
  5
43E
100
AcDbEntity
  8
DRAFT
100
AcDbLine
 62
7
  6
CONTINUOUS
 10
-4.5169648205
 20
-18.8430942654
 11
-4.5169648205
 21
-18.6327542795
  0
LINE
  5
43F
100
AcDbEntity
  8
ASSI
100
AcDbLine
 62
7
  6
CONTINUOUS
 10
-4.5169648205
 20
-18.8430942654
 11
-4.5169648205
 21
-18.6327542795
  0
LINE
  5
440
100
AcDbEntity
  8
DRAFT
100
AcDbLine
 62
7
  6
CONTINUOUS
 10
-4.0415154698
 20
-20.0060689771
 11
-4.0415154698
 21
-19.8258216238
  0
LINE
  5
441
100
AcDbEntity
  8
ASSI
100
AcDbLine
 62
7
  6
CONTINUOUS
 10
-4.0415154698
 20
-20.0060689771
 11
-4.0415154698
 21
-19.8258216238
  0
LINE
  5
442
100
AcDbEntity
  8
DRAFT
100
AcDbLine
 62
7
  6
CONTINUOUS
 10
-4.0415154698
 20
19.8258216238
 11
-4.0415154698
 21
20.0060689771
  0
LINE
  5
443
100
AcDbEntity
  8
ASSI
100
AcDbLine
 62
7
  6
CONTINUOUS
 10
-4.0415154698
 20
19.8258216238
 11
-4.0415154698
 21
20.0060689771
  0
LINE
  5
444
100
AcDbEntity
  8
DRAFT
100
AcDbLine
 62
7
  6
CONTINUOUS
 10
-4.0415154698
 20
20.0060689771
 11
-4.0135191699
 21
20.9320850844
  0
LINE
  5
445
100
AcDbEntity
  8
ASSI
100
AcDbLine
 62
7
  6
CONTINUOUS
 10
-4.0415154698
 20
20.0060689771
 11
-4.0135191699
 21
20.9320850844
  0
LWPOLYLINE
  5
446
100
AcDbEntity
  8
0
100
AcDbPolyline
 62
7
  6
CONTINUOUS
 90
16
 70
0
 10
-8.9761502693
 20
-4.3896943352
 10
-8.9779571319
 20
-4.3934382049
 10
-8.9823987091
 20
-4.397103306
 10
-8.989346391
 20
-4.400652506
 10
-8.9985855841
 20
-4.4040315745
 10
-9.0099826187
 20
-4.4072321675
 10
-9.0236237318
 20
-4.4102822153
 10
-9.0395141106
 20
-4.4131621785
 10
-9.057464938
 20
-4.4158195634
 10
-9.0773605582
 20
-4.4182240726
 10
-9.0990601185
 20
-4.4203446516
 10
-9.1223457333
 20
-4.4221468938
 10
-9.1469443138
 20
-4.4235993162
 10
-9.1725843227
 20
-4.4246776521
 10
-9.1990063238
 20
-4.4253629925
 10
-9.2259164218
 20
-4.4256394463
  0
LINE
  5
447
100
AcDbEntity
  8
0
100
AcDbLine
 62
250
  6
CONTINUOUS
 10
-9.8442287446
 20
-7.7504778523
 11
-9.8473093262
 21
-7.7561754912
  0
LWPOLYLINE
  5
448
100
AcDbEntity
  8
0
100
AcDbPolyline
 62
7
  6
CONTINUOUS
 90
11
 70
0
 10
-9.5942551291
 20
-8.0
 10
-9.5901445308
 20
-7.9926141999
 10
-9.586078436
 20
-7.9704887316
 10
-9.5820568711
 20
-7.9337108005
 10
-9.5780664837
 20
-7.8824206081
 10
-9.5741206261
 20
-7.8168075383
 10
-9.5702593553
 20
-7.7371062684
 10
-9.5664831642
 20
-7.6436038917
 10
-9.56279156
 20
-7.536636168
 10
-9.5592231204
 20
-7.4165780127
 10
-9.5524583295
 20
-7.138941581
  0
LWPOLYLINE
  5
449
100
AcDbEntity
  8
0
100
AcDbPolyline
 62
7
  6
CONTINUOUS
 90
10
 70
0
 10
6.0321367424
 20
11.4000117265
 10
6.1070703927
 20
11.4703990784
 10
6.179484034
 20
11.5433241054
 10
6.2493776665
 20
11.6187868078
 10
6.316768455
 20
11.6967728149
 10
6.3816392347
 20
11.7772964974
 10
6.4439385107
 20
11.8604009667
 10
6.5036491181
 20
11.9461005934
 10
6.5607882217
 20
12.034381007
 10
6.6153558217
 20
12.1252422075
  0
LWPOLYLINE
  5
44A
100
AcDbEntity
  8
0
100
AcDbPolyline
 62
7
  6
CONTINUOUS
 90
13
 70
0
 10
6.0208559402
 20
11.3999926621
 10
5.8797624165
 20
11.280166388
 10
5.7329217857
 20
11.1699540775
 10
5.5803340478
 20
11.0693557968
 10
5.4215962629
 20
10.978154309
 10
5.2571113708
 20
10.8965668523
 10
5.0880881917
 20
10.8252451437
 10
4.9142282849
 20
10.7641170303
 10
4.735830091
 20
10.7132545234
 10
4.5549977514
 20
10.6735255614
 10
4.3724326466
 20
10.6452194093
 10
4.1874333962
 20
10.6280466731
 10
4.0
 20
10.622007317
  0
LINE
  5
44B
100
AcDbEntity
  8
0
100
AcDbLine
 62
7
  6
CONTINUOUS
 10
-8.0284271247
 20
-7.9233690867
 11
-8.099905469
 21
-7.9431690848
  0
LINE
  5
44C
100
AcDbEntity
  8
0
100
AcDbLine
 62
7
  6
CONTINUOUS
 10
-8.1637399571
 20
-7.9600448541
 11
-8.0999527345
 21
-7.9431690848
  0
LWPOLYLINE
  5
44D
100
AcDbEntity
  8
0
100
AcDbPolyline
 62
7
  6
CONTINUOUS
 90
5
 70
0
 10
-8.2140020742
 20
-7.9725642293
 10
-8.2013976771
 20
-7.9695337183
 10
-8.188811401
 20
-7.966438316
 10
-8.1762432459
 20
-7.9632780223
 10
-8.1637399571
 20
-7.9600448541
  0
LWPOLYLINE
  5
44E
100
AcDbEntity
  8
0
100
AcDbPolyline
 62
7
  6
CONTINUOUS
 90
16
 70
0
 10
9.5262863602
 20
-4.4256160713
 10
9.552435703
 20
-4.4253791146
 10
9.5780495876
 20
-4.4247588076
 10
9.602865575
 20
-4.4237737828
 10
9.6265004755
 20
-4.4224551759
 10
9.6488951855
 20
-4.4208225203
 10
9.6702472039
 20
-4.4188632726
 10
9.6904188467
 20
-4.4165764605
 10
9.7090390599
 20
-4.4139894138
 10
9.7258933315
 20
-4.4111189138
 10
9.7407621164
 20
-4.4079853824
 10
9.7534018533
 20
-4.4046205379
 10
9.7635893683
 20
-4.4010643016
 10
9.7711529954
 20
-4.3973563443
 10
9.7759591871
 20
-4.3935345131
 10
9.7778956545
 20
-4.3896417385
  0
LINE
  5
44F
100
AcDbEntity
  8
0
100
AcDbLine
 62
250
  6
CONTINUOUS
 10
8.8800135201
 20
-4.4256727093
 11
1.4435598846
 21
-4.4256684229
  0
LINE
  5
450
100
AcDbEntity
  8
0
100
AcDbLine
 62
250
  6
CONTINUOUS
 10
-1.4435596215
 20
-4.4256641363
 11
-8.8800135201
 21
-4.4256684226
  0
LINE
  5
451
100
AcDbEntity
  8
0
100
AcDbLine
 62
250
  6
CONTINUOUS
 10
-9.225974824
 20
-4.4256483789
 11
-9.5262071557
 21
-4.4256492114
  0
LINE
  5
452
100
AcDbEntity
  8
0
100
AcDbLine
 62
250
  6
CONTINUOUS
 10
9.526219728
 20
-4.4256528305
 11
9.2259279548
 21
-4.4256489613
  0
LINE
  5
453
100
AcDbEntity
  8
0
100
AcDbLine
 62
250
  6
CONTINUOUS
 10
8.9754599652
 20
-4.3896941919
 11
8.8757713291
 21
-4.389699833
  0
LINE
  5
454
100
AcDbEntity
  8
0
100
AcDbLine
 62
250
  6
CONTINUOUS
 10
-1.4959195731
 20
-4.3896881646
 11
1.4959195731
 21
-4.3896881646
  0
LINE
  5
455
100
AcDbEntity
  8
0
100
AcDbLine
 62
250
  6
CONTINUOUS
 10
-8.9754601758
 20
-4.3896930373
 11
-8.8757707115
 21
-4.3896998129
  0
LINE
  5
456
100
AcDbEntity
  8
0
100
AcDbLine
 62
7
  6
CONTINUOUS
 10
9.6329281167
 20
-8.0208169679
 11
9.6704504689
 21
-8.028030793
  0
LINE
  5
457
100
AcDbEntity
  8
0
100
AcDbLine
 62
7
  6
CONTINUOUS
 10
8.1
 20
-7.9398263992
 11
8.2190620654
 21
-7.9709211052
  0
LINE
  5
458
100
AcDbEntity
  8
0
100
AcDbLine
 62
7
  6
CONTINUOUS
 10
8.0292830739
 20
-7.9202622455
 11
8.2191524751
 21
-7.9711827007
  0
LINE
  5
459
100
AcDbEntity
  8
0
100
AcDbLine
 62
7
  6
CONTINUOUS
 10
8.0292891072
 20
-7.9202404433
 11
8.1
 21
-7.9398263992
  0
LWPOLYLINE
  5
45A
100
AcDbEntity
  8
0
100
AcDbPolyline
 62
7
  6
CONTINUOUS
 90
6
 70
0
 10
8.0286501566
 20
-7.9202404433
 10
7.9997241863
 20
-7.9111118759
 10
7.9681764539
 20
-7.899820291
 10
7.9339402475
 20
-7.8863656888
 10
7.8969248997
 20
-7.8705573003
 10
7.8570929698
 20
-7.8525858943
  0
LINE
  5
45B
100
AcDbEntity
  8
0
100
AcDbLine
 62
7
  6
CONTINUOUS
 10
8.2192248653
 20
-7.970576646
 11
8.1575237858
 21
-7.9487054808
  0
LWPOLYLINE
  5
45C
100
AcDbEntity
  8
0
100
AcDbPolyline
 62
7
  6
CONTINUOUS
 90
3
 70
0
 10
8.1575237858
 20
-7.9487054808
 10
8.0850642763
 20
-7.9207406779
 10
8.0018463367
 20
-7.8866644244
  0
LWPOLYLINE
  5
45D
100
AcDbEntity
  8
0
100
AcDbPolyline
 62
7
  6
CONTINUOUS
 90
21
 70
0
 10
7.0211522602
 20
-7.461551812
 10
6.9232219064
 20
-7.4230948777
 10
6.7435683722
 20
-7.3566817007
 10
6.5608616081
 20
-7.2963941082
 10
6.3744364154
 20
-7.2419043744
 10
6.1893945801
 20
-7.1942984836
 10
6.0085624671
 20
-7.1548283689
 10
5.8291137115
 20
-7.1235594752
 10
5.6476710042
 20
-7.0995414439
 10
5.4612235326
 20
-7.0823030443
 10
5.2727821092
 20
-7.0727726338
 10
5.0880018632
 20
-7.0719073848
 10
4.9094160484
 20
-7.0803086946
 10
4.7344914108
 20
-7.0972798938
 10
4.5612833181
 20
-7.1217026391
 10
4.3887515608
 20
-7.1534314256
 10
4.2179363482
 20
-7.1919569462
 10
4.0500136763
 20
-7.2355777965
 10
3.8856008221
 20
-7.2832633029
 10
3.7240805086
 20
-7.3350910426
 10
3.564776901
 20
-7.3909384887
  0
LWPOLYLINE
  5
45E
100
AcDbEntity
  8
0
100
AcDbPolyline
 62
7
  6
CONTINUOUS
 90
4
 70
0
 10
7.4166517329
 20
-7.627082696
 10
7.2642763062
 20
-7.5613726963
 10
7.099157012
 20
-7.492998666
 10
7.0211522602
 20
-7.461551812
  0
LINE
  5
45F
100
AcDbEntity
  8
0
100
AcDbLine
 62
7
  6
CONTINUOUS
 10
8.0018463367
 20
-7.8866644244
 11
7.9083268323
 21
-7.8463066961
  0
LWPOLYLINE
  5
460
100
AcDbEntity
  8
0
100
AcDbPolyline
 62
7
  6
CONTINUOUS
 90
19
 70
0
 10
-1.4435596215
 20
-4.4256641363
 10
-1.6222224583
 20
-4.3309635884
 10
-1.7936123856
 20
-4.2263103652
 10
-1.9577294036
 20
-4.1117004369
 10
-2.1150999196
 20
-3.9867191901
 10
-2.2651975262
 20
-3.8517720605
 10
-2.4064430015
 20
-3.708085262
 10
-2.5388831072
 20
-3.5553899314
 10
-2.6624710816
 20
-3.3939455252
 10
-2.775487417
 20
-3.2257723147
 10
-2.8777533756
 20
-3.0506991089
 10
-2.9694476951
 20
-2.8688893988
 10
-3.0493870809
 20
-2.6828682656
 10
-3.1173270004
 20
-2.4928503531
 10
-3.1735119862
 20
-2.2986166641
 10
-3.2174923412
 20
-2.102044764
 10
-3.2491181665
 20
-1.903760474
 10
-3.268539361
 20
-1.7031364654
 10
-3.2757559247
 20
-1.5001718858
  0
LWPOLYLINE
  5
461
100
AcDbEntity
  8
0
100
AcDbPolyline
 62
7
  6
CONTINUOUS
 90
19
 70
0
 10
-1.4959195731
 20
-4.3896881646
 10
-1.6693528985
 20
-4.2939159275
 10
-1.8356691671
 20
-4.1884224155
 10
-1.9948683789
 20
-4.0732036567
 10
-2.1475701579
 20
-3.9476158097
 10
-2.2931548801
 20
-3.812293623
 10
-2.4297636734
 20
-3.6691515681
 10
-2.5571724791
 20
-3.5182034269
 10
-2.6756053559
 20
-3.3594271971
 10
-2.7838756084
 20
-3.1946855714
 10
-2.881879656
 20
-3.0241698554
 10
-2.9697210792
 20
-2.8476822622
 10
-3.0465239241
 20
-2.6665037122
 10
-3.1122417753
 20
-2.4804392215
 10
-3.1669210482
 20
-2.2896786508
 10
-3.209825035
 20
-2.0960822495
 10
-3.2407081666
 20
-1.9002698274
 10
-3.2598160122
 20
-1.701619382
 10
-3.2671485718
 20
-1.5001297216
  0
LWPOLYLINE
  5
462
100
AcDbEntity
  8
0
100
AcDbPolyline
 62
250
  6
CONTINUOUS
 90
8
 70
0
 10
-9.8031709147
 20
16.9297459181
 10
-9.8000597985
 20
16.9192643697
 10
-9.7969934975
 20
16.8976571755
 10
-9.7939720116
 20
16.8649243356
 10
-9.7909834681
 20
16.8208136792
 10
-9.7880397397
 20
16.7655773771
 10
-9.7851764449
 20
16.6999719413
 10
-9.782394602
 20
16.6238921717
  0
LINE
  5
463
100
AcDbEntity
  8
DRAFT
100
AcDbLine
 62
7
  6
CONTINUOUS
 10
-4.0278542332
 20
19.0173482781
 11
-4.0340172901
 21
19.3704295719
  0
LINE
  5
464
100
AcDbEntity
  8
ASSI
100
AcDbLine
 62
7
  6
CONTINUOUS
 10
-4.0278542332
 20
19.0173482781
 11
-4.0340172901
 21
19.3704295719
  0
LINE
  5
465
100
AcDbEntity
  8
0
100
AcDbLine
 62
7
  6
CONTINUOUS
 10
-4.0235888134
 20
9.2819830565
 11
-4.0235888134
 21
9.5478052248
  0
LINE
  5
466
100
AcDbEntity
  8
0
100
AcDbLine
 62
250
  6
CONTINUOUS
 10
-3.9999999985
 20
10.9499988813
 11
-3.9999999988
 21
10.85
  0
LINE
  5
467
100
AcDbEntity
  8
0
100
AcDbLine
 62
250
  6
CONTINUOUS
 10
-4.0
 20
10.6134313985
 11
-4.0
 21
10.622007317
  0
LINE
  5
468
100
AcDbEntity
  8
RACCORDO
100
AcDbLine
 62
250
  6
CONTINUOUS
 10
-3.9
 20
19.8965739699
 11
-3.9
 21
19.8255982314
  0
LINE
  5
469
100
AcDbEntity
  8
ASSI
100
AcDbLine
 62
250
  6
CONTINUOUS
 10
-3.9
 20
19.8965739699
 11
-3.9
 21
19.8255982314
  0
LINE
  5
46A
100
AcDbEntity
  8
RACCORDO
100
AcDbLine
 62
250
  6
CONTINUOUS
 10
-3.9
 20
-19.3034260301
 11
-3.9
 21
-19.3704295719
  0
LINE
  5
46B
100
AcDbEntity
  8
RACCORDO
100
AcDbLine
 62
250
  6
CONTINUOUS
 10
-3.9
 20
-19.8965739699
 11
-3.9
 21
-19.8255982314
  0
LINE
  5
46C
100
AcDbEntity
  8
ASSI
100
AcDbLine
 62
250
  6
CONTINUOUS
 10
-3.9
 20
-19.3034260301
 11
-3.9
 21
-19.3704295719
  0
LINE
  5
46D
100
AcDbEntity
  8
ASSI
100
AcDbLine
 62
250
  6
CONTINUOUS
 10
-3.9
 20
-19.8965739699
 11
-3.9
 21
-19.8255982314
  0
LINE
  5
46E
100
AcDbEntity
  8
RACCORDO
100
AcDbLine
 62
250
  6
CONTINUOUS
 10
-3.9
 20
19.3034260301
 11
-3.9
 21
19.3704295719
  0
LINE
  5
46F
100
AcDbEntity
  8
ASSI
100
AcDbLine
 62
250
  6
CONTINUOUS
 10
-3.9
 20
19.3034260301
 11
-3.9
 21
19.3704295719
  0
LINE
  5
470
100
AcDbEntity
  8
0
100
AcDbLine
 62
250
  6
CONTINUOUS
 10
-3.8923112678
 20
-14.4006510421
 11
-3.8923128363
 21
-8.1160785203
  0
LINE
  5
471
100
AcDbEntity
  8
RACCORDO
100
AcDbLine
 62
7
  6
CONTINUOUS
 10
-3.7273243011
 20
-20.7603594806
 11
-3.7273243011
 21
-19.9417594606
  0
LINE
  5
472
100
AcDbEntity
  8
ASSI
100
AcDbLine
 62
7
  6
CONTINUOUS
 10
-3.7273243011
 20
-20.7603594806
 11
-3.7273243011
 21
-19.9417594606
  0
LINE
  5
473
100
AcDbEntity
  8
RACCORDO
100
AcDbLine
 62
7
  6
CONTINUOUS
 10
-3.7273243011
 20
-19.2582405394
 11
-3.7273243011
 21
-18.867094756
  0
LINE
  5
474
100
AcDbEntity
  8
ASSI
100
AcDbLine
 62
7
  6
CONTINUOUS
 10
-3.7273243011
 20
-19.2582405394
 11
-3.7273243011
 21
-18.867094756
  0
LINE
  5
475
100
AcDbEntity
  8
RACCORDO
100
AcDbLine
 62
7
  6
CONTINUOUS
 10
-3.7273243011
 20
18.867094756
 11
-3.7273243011
 21
19.2582405394
  0
LINE
  5
476
100
AcDbEntity
  8
ASSI
100
AcDbLine
 62
7
  6
CONTINUOUS
 10
-3.7273243011
 20
18.867094756
 11
-3.7273243011
 21
19.2582405394
  0
LINE
  5
477
100
AcDbEntity
  8
RACCORDO
100
AcDbLine
 62
7
  6
CONTINUOUS
 10
-3.7273243011
 20
19.9417594606
 11
-3.7273243011
 21
20.7603594806
  0
LINE
  5
478
100
AcDbEntity
  8
ASSI
100
AcDbLine
 62
7
  6
CONTINUOUS
 10
-3.7273243011
 20
19.9417594606
 11
-3.7273243011
 21
20.7603594806
  0
LINE
  5
479
100
AcDbEntity
  8
0
100
AcDbLine
 62
7
  6
CONTINUOUS
 10
-3.5
 20
19.399450985
 11
-3.5
 21
18.9
  0
LINE
  5
47A
100
AcDbEntity
  8
0
100
AcDbLine
 62
7
  6
CONTINUOUS
 10
-3.5
 20
-18.9
 11
-3.5
 21
-19.399450985
  0
LINE
  5
47B
100
AcDbEntity
  8
0
100
AcDbLine
 62
7
  6
CONTINUOUS
 10
-3.425
 20
10.1318587994
 11
-3.425
 21
6.860254706
  0
LINE
  5
47C
100
AcDbEntity
  8
0
100
AcDbLine
 62
250
  6
CONTINUOUS
 10
-3.0205504748
 20
-8.1090947887
 11
-3.0205503682
 21
-14.4006510421
  0
LINE
  5
47D
100
AcDbEntity
  8
0
100
AcDbLine
 62
7
  6
CONTINUOUS
 10
-2.5
 20
-19.399450985
 11
-2.5
 21
-18.9
  0
LINE
  5
47E
100
AcDbEntity
  8
0
100
AcDbLine
 62
7
  6
CONTINUOUS
 10
-2.5
 20
18.9
 11
-2.5
 21
19.399450985
  0
LINE
  5
47F
100
AcDbEntity
  8
0
100
AcDbLine
 62
7
  6
CONTINUOUS
 10
-2.2
 20
-8.021792865
 11
-2.2
 21
-7.970814705
  0
LINE
  5
480
100
AcDbEntity
  8
DRAFT
100
AcDbLine
 62
7
  6
CONTINUOUS
 10
-4.0340172901
 20
-19.3704295719
 11
-4.0278542332
 21
-19.0173482781
  0
LINE
  5
481
100
AcDbEntity
  8
ASSI
100
AcDbLine
 62
7
  6
CONTINUOUS
 10
-4.0340172901
 20
-19.3704295719
 11
-4.0278542332
 21
-19.0173482781
  0
LWPOLYLINE
  5
482
100
AcDbEntity
  8
0
100
AcDbPolyline
 62
7
  6
CONTINUOUS
 90
52
 70
0
 10
-3.2757559247
 20
-1.5001718858
 10
-3.2704160075
 20
-1.29843108
 10
-3.2528382691
 20
-1.0985674739
 10
-3.2230227096
 20
-0.9005829511
 10
-3.1808064972
 20
-0.7037078797
 10
-3.1263524637
 20
-0.5087152088
 10
-3.0601491039
 20
-0.3179219774
 10
-2.9819646212
 20
-0.1312833505
 10
-2.8920308122
 20
0.0511500291
 10
-2.7915315618
 20
0.2269154576
 10
-2.680502003
 20
0.3956871503
 10
-2.5589070027
 20
0.5577834687
 10
-2.4278250463
 20
0.7117063196
 10
-2.2869720643
 20
0.8575723523
 10
-2.1366321262
 20
0.9952578073
 10
-1.9787359267
 20
1.1229030573
 10
-1.8132682688
 20
1.2402831845
 10
-1.6402443494
 20
1.3476164116
 10
-1.4616404532
 20
1.4437073346
 10
-1.2773339344
 20
1.5284344099
 10
-1.0874474387
 20
1.601913969
 10
-0.8943251883
 20
1.6633074907
 10
-0.6979844655
 20
1.7124395498
 10
-0.4984079881
 20
1.7494822712
 10
-0.2978881313
 20
1.774118844
 10
-0.09649008
 20
1.786225534
 10
0.1058513506
 20
1.7859249726
 10
0.3070393394
 20
1.7732704303
 10
0.5071572531
 20
1.7481261794
 10
0.706121725
 20
1.7106290778
 10
0.9015858336
 20
1.6612417903
 10
1.093396907
 20
1.599885393
 10
1.281707617
 20
1.5266420551
 10
1.4646290584
 20
1.4422164588
 10
1.6422092285
 20
1.3464627955
 10
1.8144001299
 20
1.2395320423
 10
1.9791688652
 20
1.1225741615
 10
2.1365305261
 20
0.9953057342
 10
2.286470021
 20
0.8580168518
 10
2.4269091775
 20
0.712717214
 10
2.5574402774
 20
0.5596969582
 10
2.6784710391
 20
0.3986728361
 10
2.7891464446
 20
0.2307936376
 10
2.8896157552
 20
0.0556548969
 10
2.9797297097
 20
-0.1263313393
 10
3.0581855072
 20
-0.3127928991
 10
3.1247639315
 20
-0.5037025019
 10
3.1796841988
 20
-0.6990813158
 10
3.2223011565
 20
-0.8966322125
 10
3.2523997539
 20
-1.095588749
 10
3.2701950417
 20
-1.2967136693
 10
3.27568702
 20
-1.5000048855
  0
LWPOLYLINE
  5
483
100
AcDbEntity
  8
0
100
AcDbPolyline
 62
7
  6
CONTINUOUS
 90
52
 70
0
 10
-3.2671485718
 20
-1.5001297216
 10
-3.2614943759
 20
-1.2961274703
 10
-3.2435572915
 20
-1.0946054148
 10
-3.2133373185
 20
-0.895565861
 10
-3.170607269
 20
-0.6983456954
 10
-3.1155943309
 20
-0.5036121707
 10
-3.0489800681
 20
-0.3133642113
 10
-2.9704913797
 20
-0.1274086747
 10
-2.8804013665
 20
0.0540552271
 10
-2.7802108954
 20
0.2284377258
 10
-2.6702137856
 20
0.3951125003
 10
-2.5501162179
 20
0.5546980144
 10
-2.4205376019
 20
0.7064703833
 10
-2.2811233756
 20
0.8508135163
 10
-2.1322281009
 20
0.9873368178
 10
-1.9755348735
 20
1.1141540309
 10
-1.8108262513
 20
1.2311391035
 10
-1.6383196763
 20
1.338411625
 10
-1.4603505699
 20
1.4344531878
 10
-1.2770794088
 20
1.5190001861
 10
-1.0883457163
 20
1.5923109755
 10
-0.8960034847
 20
1.6536500915
 10
-0.6997622451
 20
1.7029255221
 10
-0.4999124663
 20
1.7402259965
 10
-0.2991795474
 20
1.7650875432
 10
-0.0977090425
 20
1.777310242
 10
0.1046446025
 20
1.7770928887
 10
0.3055926506
 20
1.764570112
 10
0.504985193
 20
1.739672883
 10
0.7029721386
 20
1.7024713493
 10
0.8977144769
 20
1.6533094285
 10
1.0894231332
 20
1.5919711802
 10
1.2778871824
 20
1.5186758318
 10
1.4606348387
 20
1.4344203973
 10
1.6374138213
 20
1.3391661116
 10
1.808476411
 20
1.2329567996
 10
1.9721076646
 20
1.1169133987
 10
2.1283609375
 20
0.9908018993
 10
2.2771828742
 20
0.8548628244
 10
2.4166984656
 20
0.7109284406
 10
2.5465866743
 20
0.5592534193
 10
2.6671685376
 20
0.399589935
 10
2.7775321586
 20
0.2330157764
 10
2.8777834456
 20
0.0591872075
 10
2.9678164902
 20
-0.1215444586
 10
3.0464016706
 20
-0.3070600752
 10
3.1134269924
 20
-0.4972522222
 10
3.1690044501
 20
-0.692221906
 10
3.212240405
 20
-0.8901645476
 10
3.2428369777
 20
-1.0904774146
 10
3.2610920476
 20
-1.29375844
 10
3.2670056149
 20
-1.5000049718
  0
LINE
  5
484
100
AcDbEntity
  8
0
100
AcDbLine
 62
7
  6
CONTINUOUS
 10
-1.9230968033
 20
4.7253494552
 11
-1.9195873234
 21
4.8569502112
  0
LWPOLYLINE
  5
485
100
AcDbEntity
  8
0
100
AcDbPolyline
 62
250
  6
CONTINUOUS
 90
46
 70
0
 10
-3.8923430114
 20
-14.400651065
 10
-3.8953337842
 20
-14.4689122028
 10
-3.9037679878
 20
-14.5355530503
 10
-3.9176699819
 20
-14.6005736076
 10
-3.936914321
 20
-14.664069476
 10
-3.9617183431
 20
-14.7259450541
 10
-3.9926478972
 20
-14.7859135377
 10
-4.0294186411
 20
-14.8440973162
 10
-4.0724953042
 20
-14.9003740002
 10
-4.1236222125
 20
-14.9540896168
 10
-4.1845930879
 20
-15.006006893
 10
-4.253949437
 20
-15.0553631018
 10
-4.3285138977
 20
-15.0992160898
 10
-4.407905951
 20
-15.1363407635
 10
-4.4926135454
 20
-15.1679622163
 10
-4.5806133161
 20
-15.1948135752
 10
-4.671219198
 20
-15.2167939432
 10
-4.765046646
 20
-15.2340042173
 10
-4.8619567873
 20
-15.2474802146
 10
-4.9629618357
 20
-15.2574788445
 10
-5.0668984533
 20
-15.2637431977
 10
-5.1703163052
 20
-15.2665383636
 10
-5.2730187771
 20
-15.2658307248
 10
-5.3749576564
 20
-15.2616538988
 10
-5.4729039839
 20
-15.2543738277
 10
-5.5658057075
 20
-15.2440922632
 10
-5.654590732
 20
-15.2307074536
 10
-5.7390483667
 20
-15.2142800867
 10
-5.818792778
 20
-15.1950813504
 10
-5.8942048699
 20
-15.1728400568
 10
-5.9662336672
 20
-15.1468033297
 10
-6.0357897655
 20
-15.1165399402
 10
-6.1019791888
 20
-15.0824811172
 10
-6.1630771809
 20
-15.0451676713
 10
-6.2188166042
 20
-15.0042485133
 10
-6.2696115303
 20
-14.9600747325
 10
-6.314816875
 20
-14.9142404073
 10
-6.3538588892
 20
-14.86762274
 10
-6.3874891855
 20
-14.8193445282
 10
-6.417039147
 20
-14.7683682435
 10
-6.443201424
 20
-14.7144637796
 10
-6.4653770818
 20
-14.6578612426
 10
-6.4829406438
 20
-14.5982134231
 10
-6.4957105676
 20
-14.5354045845
 10
-6.5039401785
 20
-14.4695504632
 10
-6.5076491928
 20
-14.4006510594
  0
LWPOLYLINE
  5
486
100
AcDbEntity
  8
0
100
AcDbPolyline
 62
7
  6
CONTINUOUS
 90
21
 70
0
 10
-1.9195873234
 20
4.8569502112
 10
-1.9076729529
 20
4.969169999
 10
-1.8873610912
 20
5.080307101
 10
-1.8587137613
 20
5.1898209852
 10
-1.8218788468
 20
5.2970037738
 10
-1.7771323263
 20
5.4010223376
 10
-1.7247852195
 20
5.5012350925
 10
-1.6651245112
 20
5.5971637638
 10
-1.5984967599
 20
5.6882691703
 10
-1.5253869952
 20
5.7739514993
 10
-1.4461411546
 20
5.8538631136
 10
-1.3608790939
 20
5.9278205694
 10
-1.2697275666
 20
5.9955580719
 10
-1.1734284453
 20
6.0563815621
 10
-1.073095136
 20
6.1095690265
 10
-0.969515075
 20
6.1548085095
 10
-0.863136754
 20
6.192011501
 10
-0.754669496
 20
6.2210080819
 10
-0.6447730428
 20
6.2417168935
 10
-0.5340465761
 20
6.2541237561
 10
-0.4231109242
 20
6.258249316
  0
LWPOLYLINE
  5
487
100
AcDbEntity
  8
0
100
AcDbPolyline
 62
7
  6
CONTINUOUS
 90
21
 70
0
 10
-1.9193230384
 20
4.8309553807
 10
-1.9072952724
 20
4.9424455809
 10
-1.8871462061
 20
5.0522588408
 10
-1.8587165541
 20
5.1604415561
 10
-1.8221656018
 20
5.2669465449
 10
-1.7781141819
 20
5.369879849
 10
-1.7264499769
 20
5.4691317466
 10
-1.6672853043
 20
5.5648106964
 10
-1.6015779488
 20
5.6553495413
 10
-1.529360927
 20
5.7405957128
 10
-1.4506012223
 20
5.8207003663
 10
-1.3661575703
 20
5.8945516752
 10
-1.2756654768
 20
5.9622628896
 10
-1.179489436
 20
6.0237194989
 10
-1.0795816658
 20
6.0774678963
 10
-0.9759475623
 20
6.1232385486
 10
-0.8685817295
 20
6.1612999437
 10
-0.7594201973
 20
6.191005488
 10
-0.6491083093
 20
6.2121394538
 10
-0.5370007219
 20
6.2249170123
 10
-0.4230974353
 20
6.2293380263
  0
LINE
  5
488
100
AcDbEntity
  8
DRAFT
100
AcDbLine
 62
7
  6
CONTINUOUS
 10
4.2962541424
 20
18.9
 11
4.3448613907
 21
19.0173482781
  0
LINE
  5
489
100
AcDbEntity
  8
ASSI
100
AcDbLine
 62
7
  6
CONTINUOUS
 10
4.2962541424
 20
18.9
 11
4.3448613907
 21
19.0173482781
  0
LINE
  5
48A
100
AcDbEntity
  8
0
100
AcDbLine
 62
250
  6
CONTINUOUS
 10
-19.1026969235
 20
-14.4005628861
 11
-19.1780738102
 21
-14.4755176339
  0
LINE
  5
48B
100
AcDbEntity
  8
0
100
AcDbLine
 62
250
  6
CONTINUOUS
 10
-19.1750020823
 20
-14.4755176339
 11
-19.2116603123
 21
-14.5118169454
  0
LINE
  5
48C
100
AcDbEntity
  8
0
100
AcDbLine
 62
7
  6
CONTINUOUS
 10
-0.8866073694
 20
-2.5938132256
 11
-0.1476249523
 21
-2.900252432
  0
LINE
  5
48D
100
AcDbEntity
  8
0
100
AcDbLine
 62
7
  6
CONTINUOUS
 10
-0.6561873214
 20
-2.4984769276
 11
-0.2429612503
 21
-2.669832384
  0
LINE
  5
48E
100
AcDbEntity
  8
0
100
AcDbLine
 62
7
  6
CONTINUOUS
 10
7.9083268323
 20
-7.8463066961
 11
7.4166517329
 21
-7.627082696
  0
LINE
  5
48F
100
AcDbEntity
  8
0
100
AcDbLine
 62
7
  6
CONTINUOUS
 10
7.1622544934
 20
-7.5275617433
 11
7.0876857216
 21
-7.4938944488
  0
LINE
  5
490
100
AcDbEntity
  8
0
100
AcDbLine
 62
7
  6
CONTINUOUS
 10
7.8570929698
 20
-7.8525858943
 11
7.7690476034
 21
-7.8120009074
  0
LINE
  5
491
100
AcDbEntity
  8
0
100
AcDbLine
 62
7
  6
CONTINUOUS
 10
7.3721040432
 20
-7.6250668314
 11
7.1622544934
 21
-7.5275617433
  0
LINE
  5
492
100
AcDbEntity
  8
0
100
AcDbLine
 62
7
  6
CONTINUOUS
 10
7.7690476034
 20
-7.8120009074
 11
7.3721040432
 21
-7.6250668314
  0
LINE
  5
493
100
AcDbEntity
  8
0
100
AcDbLine
 62
250
  6
CONTINUOUS
 10
-19.1780738074
 20
14.4758750626
 11
-19.1026968958
 21
14.400615078
  0
LINE
  5
494
100
AcDbEntity
  8
0
100
AcDbLine
 62
250
  6
CONTINUOUS
 10
-19.211660285
 20
14.5126344479
 11
-19.1750020795
 21
14.4758750626
  0
LWPOLYLINE
  5
495
100
AcDbEntity
  8
0
100
AcDbPolyline
 62
7
  6
CONTINUOUS
 90
14
 70
0
 10
2.2001244091
 20
-8.0217928659
 10
2.2061312534
 20
-8.0283584006
 10
2.2235098716
 20
-8.0348453899
 10
2.2522602638
 20
-8.0412538338
 10
2.2925907992
 20
-8.0476071796
 10
2.3442931085
 20
-8.0538819799
 10
2.4067420845
 20
-8.0600078933
 10
2.4800480978
 20
-8.0659831759
 10
2.5641007779
 20
-8.0718095715
 10
2.6579439056
 20
-8.0774219697
 10
2.761679031
 20
-8.082818152
 10
2.875204604
 20
-8.0880003368
 10
2.9972597549
 20
-8.0929100691
 10
3.2671451423
 20
-8.10190677
  0
LWPOLYLINE
  5
496
100
AcDbEntity
  8
0
100
AcDbPolyline
 62
250
  6
CONTINUOUS
 90
13
 70
0
 10
-12.9488256762
 20
17.399622858
 10
-12.9420354768
 20
17.3883368666
 10
-12.9353444207
 20
17.3646517781
 10
-12.9287525078
 20
17.328676834
 10
-12.922234713
 20
17.2805738876
 10
-12.9158160615
 20
17.2205520146
 10
-12.9095716287
 20
17.1488626026
 10
-12.9035024436
 20
17.0658089623
 10
-12.8976074773
 20
16.9717417409
 10
-12.8919587178
 20
16.8670468342
 10
-12.886559217
 20
16.7521609357
 10
-12.8814059232
 20
16.6275622928
 10
-12.876561669
 20
16.4937563077
  0
LINE
  5
497
100
AcDbEntity
  8
DRAFT
100
AcDbLine
 62
7
  6
CONTINUOUS
 10
4.2962541424
 20
-18.9
 11
4.3448613907
 21
-19.0173482781
  0
LINE
  5
498
100
AcDbEntity
  8
ASSI
100
AcDbLine
 62
7
  6
CONTINUOUS
 10
4.2962541424
 20
-18.9
 11
4.3448613907
 21
-19.0173482781
  0
LWPOLYLINE
  5
499
100
AcDbEntity
  8
0
100
AcDbPolyline
 62
250
  6
CONTINUOUS
 90
5
 70
0
 10
-6.699707226
 20
15.776053444
 10
-6.699596871
 20
15.7756603674
 10
-6.6994724526
 20
15.7738434989
 10
-6.6993824306
 20
15.7706166794
 10
-6.6993382539
 20
15.7660857429
  0
LWPOLYLINE
  5
49A
100
AcDbEntity
  8
0
100
AcDbPolyline
 62
7
  6
CONTINUOUS
 90
20
 70
0
 10
-1.6222864499
 20
4.7100265088
 10
-1.6147973296
 20
4.6130903189
 10
-1.5994646503
 20
4.51686795
 10
-1.5763665105
 20
4.4221028968
 10
-1.5456827504
 20
4.329581184
 10
-1.5076494255
 20
4.2399549458
 10
-1.4625096821
 20
4.1537462415
 10
-1.4105577457
 20
4.071510075
 10
-1.3521501213
 20
3.9937923824
 10
-1.2876652138
 20
3.9210773459
 10
-1.2174756763
 20
3.8537965471
 10
-1.1419063288
 20
3.7923019578
 10
-1.0615576461
 20
3.7371162992
 10
-0.9773118694
 20
3.6888029226
 10
-0.8899397918
 20
3.6476766545
 10
-0.7998814258
 20
3.6138218288
 10
-0.7075809579
 20
3.5873378126
 10
-0.6135858523
 20
3.5683422314
 10
-0.5185587651
 20
3.556928837
 10
-0.4231094722
 20
3.5531260592
  0
LWPOLYLINE
  5
49B
100
AcDbEntity
  8
0
100
AcDbPolyline
 62
7
  6
CONTINUOUS
 90
21
 70
0
 10
-1.6230432796
 20
4.725278876
 10
-1.6223096885
 20
4.6830676229
 10
-1.6151847927
 20
4.5876531374
 10
-1.6003609805
 20
4.4930171554
 10
-1.577953568
 20
4.3992030723
 10
-1.5483275292
 20
4.3079679235
 10
-1.5113443364
 20
4.219336335
 10
-1.4671425172
 20
4.1332829843
 10
-1.4165026281
 20
4.0514894436
 10
-1.3594014415
 20
3.974092491
 10
-1.2958621849
 20
3.9009541842
 10
-1.2267350968
 20
3.8333436145
 10
-1.15169061
 20
3.7711821923
 10
-1.0710582917
 20
3.7145472136
 10
-0.9866770827
 20
3.6649413335
 10
-0.8985023176
 20
3.6226285474
 10
-0.8065786618
 20
3.5873436216
 10
-0.712879052
 20
3.5597952891
 10
-0.6180611338
 20
3.5402195376
 10
-0.5214672615
 20
3.5283796656
 10
-0.4230974353
 20
3.5242754945
  0
LINE
  5
49C
100
AcDbEntity
  8
0
100
AcDbLine
 62
7
  6
CONTINUOUS
 10
-0.4230974353
 20
3.2243062056
 11
-0.4230974353
 21
3.5531260592
  0
LINE
  5
49D
100
AcDbEntity
  8
0
100
AcDbLine
 62
7
  6
CONTINUOUS
 10
-0.4230974353
 20
5.9282999703
 11
-0.4230974353
 21
6.2582493161
  0
LWPOLYLINE
  5
49E
100
AcDbEntity
  8
0
100
AcDbPolyline
 62
7
  6
CONTINUOUS
 90
21
 70
0
 10
0.7028910916
 20
4.8569502112
 10
0.714805462
 20
4.969169999
 10
0.7351173237
 20
5.080307101
 10
0.7637646536
 20
5.1898209852
 10
0.8005995681
 20
5.2970037738
 10
0.8453460886
 20
5.4010223376
 10
0.8976931955
 20
5.5012350925
 10
0.9573539038
 20
5.5971637638
 10
1.0239816551
 20
5.6882691703
 10
1.0970914197
 20
5.7739514993
 10
1.1763372603
 20
5.8538631136
 10
1.261599321
 20
5.9278205694
 10
1.3527508484
 20
5.9955580719
 10
1.4490499696
 20
6.0563815621
 10
1.549383279
 20
6.1095690265
 10
1.65296334
 20
6.1548085095
 10
1.7593416609
 20
6.192011501
 10
1.867808919
 20
6.2210080819
 10
1.9777053721
 20
6.2417168935
 10
2.0884318389
 20
6.2541237561
 10
2.1993674908
 20
6.258249316
  0
LWPOLYLINE
  5
49F
100
AcDbEntity
  8
0
100
AcDbPolyline
 62
7
  6
CONTINUOUS
 90
21
 70
0
 10
0.7031553765
 20
4.8309553807
 10
0.7151831425
 20
4.9424455809
 10
0.7353322088
 20
5.0522588408
 10
0.7637618608
 20
5.1604415561
 10
0.8003128131
 20
5.2669465449
 10
0.8443642331
 20
5.3698798491
 10
0.8960284381
 20
5.4691317466
 10
0.9551931107
 20
5.5648106964
 10
1.0209004661
 20
5.6553495414
 10
1.093117488
 20
5.7405957129
 10
1.1718771926
 20
5.8207003664
 10
1.2563208446
 20
5.8945516753
 10
1.3468129382
 20
5.9622628896
 10
1.442988979
 20
6.023719499
 10
1.5428967492
 20
6.0774678964
 10
1.6465308527
 20
6.1232385486
 10
1.7538966855
 20
6.1612999437
 10
1.8630582176
 20
6.191005488
 10
1.9733701057
 20
6.2121394538
 10
2.085477693
 20
6.2249170123
 10
2.1993809797
 20
6.2293380263
  0
LINE
  5
4A0
100
AcDbEntity
  8
0
100
AcDbLine
 62
7
  6
CONTINUOUS
 10
-1.0175441872
 20
-0.797728669
 11
-1.2159163936
 21
-1.2761060093
  0
LINE
  5
4A1
100
AcDbEntity
  8
0
100
AcDbLine
 62
7
  6
CONTINUOUS
 10
-1.169832384
 20
-1.2570387497
 11
-0.9984769276
 21
-0.8438126786
  0
LINE
  5
4A2
100
AcDbEntity
  8
0
100
AcDbLine
 62
7
  6
CONTINUOUS
 10
0.1476249523
 20
-0.099747568
 11
-0.1875429297
 21
-0.9080095866
  0
LINE
  5
4A3
100
AcDbEntity
  8
0
100
AcDbLine
 62
7
  6
CONTINUOUS
 10
-0.5514394874
 20
-1.7855512069
 11
-0.8866073694
 21
-2.5938132256
  0
LWPOLYLINE
  5
4A4
100
AcDbEntity
  8
0
100
AcDbPolyline
 62
7
  6
CONTINUOUS
 90
10
 70
0
 10
6.6153555111
 20
12.1252416701
 10
6.701391654
 20
12.285245287
 10
6.7774218254
 20
12.4494472314
 10
6.8428742186
 20
12.6168200394
 10
6.8975211418
 20
12.7861283724
 10
6.9413479982
 20
12.956520478
 10
6.974182707
 20
13.1276106212
 10
6.9967465032
 20
13.298504504
 10
7.0103365885
 20
13.4677693245
 10
7.0157498709
 20
13.634226337
  0
LINE
  5
4A5
100
AcDbEntity
  8
0
100
AcDbLine
 62
250
  6
CONTINUOUS
 10
9.6077835632
 20
17.2615339754
 11
9.5532094015
 21
17.1796612752
  0
LINE
  5
4A6
100
AcDbEntity
  8
0
100
AcDbLine
 62
250
  6
CONTINUOUS
 10
9.8031702858
 20
16.9301243453
 11
9.8577456975
 21
17.0116155718
  0
LINE
  5
4A7
100
AcDbEntity
  8
0
100
AcDbLine
 62
250
  6
CONTINUOUS
 10
16.1825139447
 20
17.4790515137
 11
16.178734181
 21
17.4750000556
  0
LWPOLYLINE
  5
4A8
100
AcDbEntity
  8
0
100
AcDbPolyline
 62
250
  6
CONTINUOUS
 90
9
 70
0
 10
16.2119068101
 20
17.511660296
 10
16.208024277
 20
17.5075652377
 10
16.2042272405
 20
17.5034755785
 10
16.2005157004
 20
17.4993913184
 10
16.1969380905
 20
17.4953124235
 10
16.1934459771
 20
17.4912389277
 10
16.1898940595
 20
17.4871709328
 10
16.1862339042
 20
17.4831084728
 10
16.1825139447
 20
17.4790515137
  0
LINE
  5
4A9
100
AcDbEntity
  8
DRAFT
100
AcDbLine
 62
7
  6
CONTINUOUS
 10
17.9830351795
 20
18.8430942654
 11
18.1551386093
 21
19.0173482781
  0
LINE
  5
4AA
100
AcDbEntity
  8
ASSI
100
AcDbLine
 62
7
  6
CONTINUOUS
 10
17.9830351795
 20
18.8430942654
 11
18.1551386093
 21
19.0173482781
  0
LINE
  5
4AB
100
AcDbEntity
  8
0
100
AcDbLine
 62
250
  6
CONTINUOUS
 10
16.178734181
 20
17.4750000556
 11
16.1036472697
 21
17.3996231143
  0
LINE
  5
4AC
100
AcDbEntity
  8
DRAFT
100
AcDbLine
 62
7
  6
CONTINUOUS
 10
17.9830351795
 20
18.6327542795
 11
18.2173756559
 21
18.867094756
  0
LINE
  5
4AD
100
AcDbEntity
  8
ASSI
100
AcDbLine
 62
7
  6
CONTINUOUS
 10
17.9830351795
 20
18.6327542795
 11
18.2173756559
 21
18.867094756
  0
LINE
  5
4AE
100
AcDbEntity
  8
DRAFT
100
AcDbLine
 62
7
  6
CONTINUOUS
 10
-20.7603594806
 20
-20.7603594806
 11
-20.9
 21
-20.9
  0
LINE
  5
4AF
100
AcDbEntity
  8
ASSI
100
AcDbLine
 62
7
  6
CONTINUOUS
 10
-20.7603594806
 20
-20.7603594806
 11
-20.9
 21
-20.9
  0
LINE
  5
4B0
100
AcDbEntity
  8
DRAFT
100
AcDbLine
 62
7
  6
CONTINUOUS
 10
20.7603594806
 20
20.7603594806
 11
20.9
 21
20.9
  0
LINE
  5
4B1
100
AcDbEntity
  8
ASSI
100
AcDbLine
 62
7
  6
CONTINUOUS
 10
20.7603594806
 20
20.7603594806
 11
20.9
 21
20.9
  0
LWPOLYLINE
  5
4B2
100
AcDbEntity
  8
0
100
AcDbPolyline
 62
250
  6
CONTINUOUS
 90
13
 70
0
 10
-9.8473093116
 20
-7.7561997185
 10
-9.8570011783
 20
-7.7635922122
 10
-9.8792439952
 20
-7.7708831339
 10
-9.9139327646
 20
-7.7780724837
 10
-9.9609085434
 20
-7.7851892081
 10
-10.0199640556
 20
-7.7922043604
 10
-10.0908489664
 20
-7.7990311011
 10
-10.1732596186
 20
-7.8056670264
 10
-10.2668438144
 20
-7.8121145399
 10
-10.3712137122
 20
-7.8182940135
 10
-10.4859295051
 20
-7.824202101
 10
-10.6105078182
 20
-7.8298421485
 10
-10.7444367875
 20
-7.8351445662
  0
LWPOLYLINE
  5
4B3
100
AcDbEntity
  8
RACCORDO
100
AcDbPolyline
 62
7
  6
CONTINUOUS
 90
4
 70
0
 10
19.5932920569
 20
0.3248118626
 10
19.5748014016
 20
0.3234165913
 10
19.5333351796
 20
0.3221332326
 10
19.4688933912
 20
0.3209617866
  0
LWPOLYLINE
  5
4B4
100
AcDbEntity
  8
ASSI
100
AcDbPolyline
 62
7
  6
CONTINUOUS
 90
4
 70
0
 10
19.5932920569
 20
0.3248118626
 10
19.5748014016
 20
0.3234165913
 10
19.5333351796
 20
0.3221332326
 10
19.4688933912
 20
0.3209617866
  0
LWPOLYLINE
  5
4B5
100
AcDbEntity
  8
RACCORDO
100
AcDbPolyline
 62
7
  6
CONTINUOUS
 90
3
 70
0
 10
-19.4688933912
 20
-0.3209617866
 10
-19.2641762969
 20
-0.3188945225
 10
-19.211660299
 20
-0.3185724381
  0
LWPOLYLINE
  5
4B6
100
AcDbEntity
  8
ASSI
100
AcDbPolyline
 62
7
  6
CONTINUOUS
 90
3
 70
0
 10
-19.4688933912
 20
-0.3209617866
 10
-19.2641762969
 20
-0.3188945225
 10
-19.211660299
 20
-0.3185724381
  0
LWPOLYLINE
  5
4B7
100
AcDbEntity
  8
RACCORDO
100
AcDbPolyline
 62
7
  6
CONTINUOUS
 90
3
 70
0
 10
19.4688933912
 20
0.3209617866
 10
19.2641762969
 20
0.3188945225
 10
19.2116603001
 20
0.3185724381
  0
LWPOLYLINE
  5
4B8
100
AcDbEntity
  8
ASSI
100
AcDbPolyline
 62
7
  6
CONTINUOUS
 90
3
 70
0
 10
19.4688933912
 20
0.3209617866
 10
19.2641762969
 20
0.3188945225
 10
19.2116603001
 20
0.3185724381
  0
LINE
  5
4B9
100
AcDbEntity
  8
0
100
AcDbLine
 62
250
  6
CONTINUOUS
 10
-3.2758744337
 20
-1.5002013472
 11
-3.2672360201
 21
-1.5001799855
  0
LINE
  5
4BA
100
AcDbEntity
  8
0
100
AcDbLine
 62
250
  6
CONTINUOUS
 10
3.2672352246
 20
-1.5000304617
 11
3.2758739711
 21
-1.5000306849
  0
LINE
  5
4BB
100
AcDbEntity
  8
DRAFT
100
AcDbLine
 62
7
  6
CONTINUOUS
 10
20.7603594806
 20
-0.4
 11
19.7405830189
 21
-0.4
  0
LINE
  5
4BC
100
AcDbEntity
  8
ASSI
100
AcDbLine
 62
7
  6
CONTINUOUS
 10
20.7603594806
 20
-0.4
 11
19.7405830189
 21
-0.4
  0
LINE
  5
4BD
100
AcDbEntity
  8
DRAFT
100
AcDbLine
 62
7
  6
CONTINUOUS
 10
-19.7405830189
 20
-0.4
 11
-20.7603594806
 21
-0.4
  0
LINE
  5
4BE
100
AcDbEntity
  8
ASSI
100
AcDbLine
 62
7
  6
CONTINUOUS
 10
-19.7405830189
 20
-0.4
 11
-20.7603594806
 21
-0.4
  0
LINE
  5
4BF
100
AcDbEntity
  8
RACCORDO
100
AcDbLine
 62
7
  6
CONTINUOUS
 10
-20.9261825974
 20
-0.317094756
 11
-19.211660299
 21
-0.317094756
  0
LINE
  5
4C0
100
AcDbEntity
  8
ASSI
100
AcDbLine
 62
7
  6
CONTINUOUS
 10
-20.9261825974
 20
-0.317094756
 11
-19.211660299
 21
-0.317094756
  0
LINE
  5
4C1
100
AcDbEntity
  8
RACCORDO
100
AcDbLine
 62
7
  6
CONTINUOUS
 10
19.2116603005
 20
-0.317094756
 11
20.9261825974
 21
-0.317094756
  0
LINE
  5
4C2
100
AcDbEntity
  8
ASSI
100
AcDbLine
 62
7
  6
CONTINUOUS
 10
19.2116603005
 20
-0.317094756
 11
20.9261825974
 21
-0.317094756
  0
LWPOLYLINE
  5
4C3
100
AcDbEntity
  8
RACCORDO
100
AcDbPolyline
 62
7
  6
CONTINUOUS
 90
6
 70
0
 10
19.2116603005
 20
-0.3185724381
 10
19.3780226273
 20
-0.3198721982
 10
19.4688933912
 20
-0.3209617866
 10
19.5333351796
 20
-0.3221332326
 10
19.5748014016
 20
-0.3234165913
 10
19.5932920569
 20
-0.3248118626
  0
LWPOLYLINE
  5
4C4
100
AcDbEntity
  8
ASSI
100
AcDbPolyline
 62
7
  6
CONTINUOUS
 90
6
 70
0
 10
19.2116603005
 20
-0.3185724381
 10
19.3780226273
 20
-0.3198721982
 10
19.4688933912
 20
-0.3209617866
 10
19.5333351796
 20
-0.3221332326
 10
19.5748014016
 20
-0.3234165913
 10
19.5932920569
 20
-0.3248118626
  0
LWPOLYLINE
  5
4C5
100
AcDbEntity
  8
RACCORDO
100
AcDbPolyline
 62
7
  6
CONTINUOUS
 90
6
 70
0
 10
-19.2116602984
 20
0.3185724381
 10
-19.3780226273
 20
0.3198721982
 10
-19.4688933912
 20
0.3209617866
 10
-19.5333351796
 20
0.3221332326
 10
-19.5748014016
 20
0.3234165913
 10
-19.5932920569
 20
0.3248118626
  0
LWPOLYLINE
  5
4C6
100
AcDbEntity
  8
ASSI
100
AcDbPolyline
 62
7
  6
CONTINUOUS
 90
6
 70
0
 10
-19.2116602984
 20
0.3185724381
 10
-19.3780226273
 20
0.3198721982
 10
-19.4688933912
 20
0.3209617866
 10
-19.5333351796
 20
0.3221332326
 10
-19.5748014016
 20
0.3234165913
 10
-19.5932920569
 20
0.3248118626
  0
LINE
  5
4C7
100
AcDbEntity
  8
0
100
AcDbLine
 62
7
  6
CONTINUOUS
 10
2.2262861431
 20
-2.93741087
 11
0.0572403913
 21
-2.0379569133
  0
LINE
  5
4C8
100
AcDbEntity
  8
0
100
AcDbLine
 62
7
  6
CONTINUOUS
 10
-0.421136949
 20
-1.839584707
 11
-2.5901827007
 21
-0.9401307503
  0
LINE
  5
4C9
100
AcDbEntity
  8
0
100
AcDbLine
 62
7
  6
CONTINUOUS
 10
1.0175441872
 20
-2.202271331
 11
0.140002567
 21
-1.8383747733
  0
LINE
  5
4CA
100
AcDbEntity
  8
0
100
AcDbLine
 62
7
  6
CONTINUOUS
 10
-0.3383747733
 20
-1.640002567
 11
-1.2159163936
 21
-1.2761060093
  0
LINE
  5
4CB
100
AcDbEntity
  8
0
100
AcDbLine
 62
7
  6
CONTINUOUS
 10
-1.169832384
 20
-1.2570387497
 11
-0.2922907637
 21
-1.6209353074
  0
LINE
  5
4CC
100
AcDbEntity
  8
0
100
AcDbLine
 62
7
  6
CONTINUOUS
 10
0.1209353074
 20
-1.7922907637
 11
0.9984769276
 21
-2.1561873214
  0
LINE
  5
4CD
100
AcDbEntity
  8
0
100
AcDbLine
 62
7
  6
CONTINUOUS
 10
-0.8775416203
 20
-1.1361034423
 11
0.8775416203
 21
-1.8638965577
  0
LINE
  5
4CE
100
AcDbEntity
  8
0
100
AcDbLine
 62
7
  6
CONTINUOUS
 10
1.169832384
 20
-1.7429612503
 11
0.2922907637
 21
-1.3790646926
  0
LINE
  5
4CF
100
AcDbEntity
  8
0
100
AcDbLine
 62
7
  6
CONTINUOUS
 10
-0.1209353074
 20
-1.2077092363
 11
-0.9984769276
 21
-0.8438126786
  0
LINE
  5
4D0
100
AcDbEntity
  8
0
100
AcDbLine
 62
7
  6
CONTINUOUS
 10
0.3383747733
 20
-1.359997433
 11
1.2159163936
 21
-1.7238939907
  0
LINE
  5
4D1
100
AcDbEntity
  8
0
100
AcDbLine
 62
7
  6
CONTINUOUS
 10
-0.140002567
 20
-1.1616252267
 11
-1.0175441872
 21
-0.797728669
  0
LINE
  5
4D2
100
AcDbEntity
  8
0
100
AcDbLine
 62
7
  6
CONTINUOUS
 10
2.5901827007
 20
-2.0598692497
 11
0.421136949
 21
-1.160415293
  0
LINE
  5
4D3
100
AcDbEntity
  8
0
100
AcDbLine
 62
7
  6
CONTINUOUS
 10
-0.0572403913
 20
-0.9620430867
 11
-2.2262861431
 21
-0.06258913
  0
LINE
  5
4D4
100
AcDbEntity
  8
0
100
AcDbLine
 62
7
  6
CONTINUOUS
 10
0.6561873214
 20
-0.5015230724
 11
0.2429612503
 21
-0.330167616
  0
LINE
  5
4D5
100
AcDbEntity
  8
0
100
AcDbLine
 62
7
  6
CONTINUOUS
 10
0.8866073694
 20
-0.4061867744
 11
0.1476249523
 21
-0.099747568
  0
LWPOLYLINE
  5
4D6
100
AcDbEntity
  8
0
100
AcDbPolyline
 62
7
  6
CONTINUOUS
 90
3
 70
0
 10
9.5973389821
 20
-8.0060085233
 10
9.6085576212
 20
-8.0134762113
 10
9.6329281167
 20
-8.0208169679
  0
LINE
  5
4D7
100
AcDbEntity
  8
DRAFT
100
AcDbLine
 62
7
  6
CONTINUOUS
 10
18.2173756559
 20
-18.867094756
 11
17.9830351795
 21
-18.6327542795
  0
LINE
  5
4D8
100
AcDbEntity
  8
ASSI
100
AcDbLine
 62
7
  6
CONTINUOUS
 10
18.2173756559
 20
-18.867094756
 11
17.9830351795
 21
-18.6327542795
  0
LINE
  5
4D9
100
AcDbEntity
  8
DRAFT
100
AcDbLine
 62
7
  6
CONTINUOUS
 10
-20.9
 20
20.9
 11
-20.7603594806
 21
20.7603594806
  0
LINE
  5
4DA
100
AcDbEntity
  8
ASSI
100
AcDbLine
 62
7
  6
CONTINUOUS
 10
-20.9
 20
20.9
 11
-20.7603594806
 21
20.7603594806
  0
LINE
  5
4DB
100
AcDbEntity
  8
DRAFT
100
AcDbLine
 62
7
  6
CONTINUOUS
 10
20.9
 20
-20.9
 11
20.7603594806
 21
-20.7603594806
  0
LINE
  5
4DC
100
AcDbEntity
  8
ASSI
100
AcDbLine
 62
7
  6
CONTINUOUS
 10
20.9
 20
-20.9
 11
20.7603594806
 21
-20.7603594806
  0
LINE
  5
4DD
100
AcDbEntity
  8
DRAFT
100
AcDbLine
 62
7
  6
CONTINUOUS
 10
18.1551386093
 20
-19.0173482781
 11
17.9830351795
 21
-18.8430942654
  0
LINE
  5
4DE
100
AcDbEntity
  8
ASSI
100
AcDbLine
 62
7
  6
CONTINUOUS
 10
18.1551386093
 20
-19.0173482781
 11
17.9830351795
 21
-18.8430942654
  0
LINE
  5
4DF
100
AcDbEntity
  8
0
100
AcDbLine
 62
250
  6
CONTINUOUS
 10
16.1037248735
 20
-17.3996230171
 11
16.1777340372
 21
-17.4749995252
  0
LINE
  5
4E0
100
AcDbEntity
  8
0
100
AcDbLine
 62
250
  6
CONTINUOUS
 10
16.1777340372
 20
-17.4749995252
 11
16.2126883141
 21
-17.5116602902
  0
LWPOLYLINE
  5
4E1
100
AcDbEntity
  8
0
100
AcDbPolyline
 62
250
  6
CONTINUOUS
 90
24
 70
0
 10
-9.8577454545
 20
17.0116195157
 10
-9.8609743374
 20
17.0178916534
 10
-9.866859673
 20
17.0241778286
 10
-9.875244985
 20
17.0304780329
 10
-9.8857281431
 20
17.0366653424
 10
-9.898324006
 20
17.0428627783
 10
-9.913954497
 20
17.0494596902
 10
-9.9336339096
 20
17.0567025202
 10
-9.9571803067
 20
17.0643840264
 10
-9.9838200082
 20
17.0722157942
 10
-10.0127201736
 20
17.0799879884
 10
-10.0445445354
 20
17.0879130516
 10
-10.0807630854
 20
17.0963364029
 10
-10.1228133202
 20
17.105514659
 10
-10.170151217
 20
17.115239939
 10
-10.2209828866
 20
17.1251085529
 10
-10.2736484533
 20
17.1348309967
 10
-10.3292785396
 20
17.1446492042
 10
-10.3900996196
 20
17.1549327764
 10
-10.4581006281
 20
17.1659509658
 10
-10.5319176762
 20
17.1774505066
 10
-10.6086871467
 20
17.1890047569
 10
-10.6868123652
 20
17.2003802782
 10
-10.8518031611
 20
17.2233595324
  0
LINE
  5
4E2
100
AcDbEntity
  8
0
100
AcDbLine
 62
7
  6
CONTINUOUS
 10
-1.0175441872
 20
-0.797728669
 11
-0.8775416203
 21
-1.1361034423
  0
LINE
  5
4E3
100
AcDbEntity
  8
0
100
AcDbLine
 62
7
  6
CONTINUOUS
 10
-0.3638965577
 20
-2.3775416203
 11
-0.1476249523
 21
-2.900252432
  0
LINE
  5
4E4
100
AcDbEntity
  8
0
100
AcDbLine
 62
7
  6
CONTINUOUS
 10
0.140002567
 20
-1.8383747733
 11
-0.140002567
 21
-1.1616252267
  0
LINE
  5
4E5
100
AcDbEntity
  8
0
100
AcDbLine
 62
7
  6
CONTINUOUS
 10
0.8775416203
 20
-1.8638965577
 11
1.0175441872
 21
-2.202271331
  0
LINE
  5
4E6
100
AcDbEntity
  8
0
100
AcDbLine
 62
7
  6
CONTINUOUS
 10
0.3638965577
 20
-0.6224583797
 11
0.1476249523
 21
-0.099747568
  0
LINE
  5
4E7
100
AcDbEntity
  8
0
100
AcDbLine
 62
7
  6
CONTINUOUS
 10
2.1993809797
 20
3.2243062056
 11
2.1993809797
 21
3.5531260592
  0
LINE
  5
4E8
100
AcDbEntity
  8
0
100
AcDbLine
 62
7
  6
CONTINUOUS
 10
2.1993809797
 20
4.5751011834
 11
2.1993809797
 21
4.9044827207
  0
LINE
  5
4E9
100
AcDbEntity
  8
0
100
AcDbLine
 62
7
  6
CONTINUOUS
 10
2.1993809797
 20
5.9282999703
 11
2.1993809797
 21
6.2582493161
  0
LINE
  5
4EA
100
AcDbEntity
  8
0
100
AcDbLine
 62
7
  6
CONTINUOUS
 10
2.2
 20
-7.9670941963
 11
2.2
 21
-8.021792865
  0
LINE
  5
4EB
100
AcDbEntity
  8
0
100
AcDbLine
 62
7
  6
CONTINUOUS
 10
0.6993816116
 20
4.7253494552
 11
0.7028910916
 21
4.8569502112
  0
LINE
  5
4EC
100
AcDbEntity
  8
0
100
AcDbLine
 62
7
  6
CONTINUOUS
 10
-0.0572403913
 20
-0.9620430867
 11
-0.140002567
 21
-1.1616252267
  0
LINE
  5
4ED
100
AcDbEntity
  8
0
100
AcDbLine
 62
7
  6
CONTINUOUS
 10
-0.3383747733
 20
-1.640002567
 11
-0.421136949
 21
-1.839584707
  0
LINE
  5
4EE
100
AcDbEntity
  8
0
100
AcDbLine
 62
7
  6
CONTINUOUS
 10
-0.6561873214
 20
-2.4984769276
 11
-0.2922907637
 21
-1.6209353074
  0
LINE
  5
4EF
100
AcDbEntity
  8
0
100
AcDbLine
 62
7
  6
CONTINUOUS
 10
-0.1209353074
 20
-1.2077092363
 11
0.2429612503
 21
-0.330167616
  0
LINE
  5
4F0
100
AcDbEntity
  8
0
100
AcDbLine
 62
7
  6
CONTINUOUS
 10
-0.3638965577
 20
-2.3775416203
 11
0.3638965577
 21
-0.6224583797
  0
LINE
  5
4F1
100
AcDbEntity
  8
0
100
AcDbLine
 62
7
  6
CONTINUOUS
 10
-0.2429612503
 20
-2.669832384
 11
0.1209353074
 21
-1.7922907637
  0
LINE
  5
4F2
100
AcDbEntity
  8
0
100
AcDbLine
 62
7
  6
CONTINUOUS
 10
0.2922907637
 20
-1.3790646926
 11
0.6561873214
 21
-0.5015230724
  0
LINE
  5
4F3
100
AcDbEntity
  8
0
100
AcDbLine
 62
7
  6
CONTINUOUS
 10
0.421136949
 20
-1.160415293
 11
0.3383747733
 21
-1.359997433
  0
LINE
  5
4F4
100
AcDbEntity
  8
0
100
AcDbLine
 62
7
  6
CONTINUOUS
 10
0.140002567
 20
-1.8383747733
 11
0.0572403913
 21
-2.0379569133
  0
LINE
  5
4F5
100
AcDbEntity
  8
0
100
AcDbLine
 62
7
  6
CONTINUOUS
 10
-0.1476249523
 20
-2.900252432
 11
0.1875429297
 21
-2.0919904134
  0
LINE
  5
4F6
100
AcDbEntity
  8
0
100
AcDbLine
 62
7
  6
CONTINUOUS
 10
0.5514394874
 20
-1.2144487931
 11
0.8866073694
 21
-0.4061867744
  0
LINE
  5
4F7
100
AcDbEntity
  8
0
100
AcDbLine
 62
7
  6
CONTINUOUS
 10
0.9984769276
 20
-2.1561873214
 11
1.169832384
 21
-1.7429612503
  0
LINE
  5
4F8
100
AcDbEntity
  8
0
100
AcDbLine
 62
7
  6
CONTINUOUS
 10
1.2159163936
 20
-1.7238939907
 11
1.0175441872
 21
-2.202271331
  0
LINE
  5
4F9
100
AcDbEntity
  8
0
100
AcDbLine
 62
250
  6
CONTINUOUS
 10
-16.2126883148
 20
-17.5116602902
 11
-16.1775650933
 21
-17.4749998976
  0
LINE
  5
4FA
100
AcDbEntity
  8
0
100
AcDbLine
 62
250
  6
CONTINUOUS
 10
-16.1775650933
 20
-17.4749998976
 11
-16.1037248735
 21
-17.3996230171
  0
LINE
  5
4FB
100
AcDbEntity
  8
DRAFT
100
AcDbLine
 62
7
  6
CONTINUOUS
 10
-17.9830351795
 20
-18.8430942654
 11
-18.1551386093
 21
-19.0173482781
  0
LINE
  5
4FC
100
AcDbEntity
  8
ASSI
100
AcDbLine
 62
7
  6
CONTINUOUS
 10
-17.9830351795
 20
-18.8430942654
 11
-18.1551386093
 21
-19.0173482781
  0
LINE
  5
4FD
100
AcDbEntity
  8
DRAFT
100
AcDbLine
 62
7
  6
CONTINUOUS
 10
-17.9830351795
 20
-18.6327542795
 11
-18.2173756559
 21
-18.867094756
  0
LINE
  5
4FE
100
AcDbEntity
  8
ASSI
100
AcDbLine
 62
7
  6
CONTINUOUS
 10
-17.9830351795
 20
-18.6327542795
 11
-18.2173756559
 21
-18.867094756
  0
LINE
  5
4FF
100
AcDbEntity
  8
0
100
AcDbLine
 62
7
  6
CONTINUOUS
 10
-1.2159163936
 20
-1.2761060093
 11
-0.8775416203
 21
-1.1361034423
  0
LINE
  5
500
100
AcDbEntity
  8
0
100
AcDbLine
 62
7
  6
CONTINUOUS
 10
0.3638965577
 20
-0.6224583797
 11
0.8866073694
 21
-0.4061867744
  0
LINE
  5
501
100
AcDbEntity
  8
0
100
AcDbLine
 62
7
  6
CONTINUOUS
 10
-0.3383747733
 20
-1.640002567
 11
0.3383747733
 21
-1.359997433
  0
LINE
  5
502
100
AcDbEntity
  8
0
100
AcDbLine
 62
7
  6
CONTINUOUS
 10
-0.8866073694
 20
-2.5938132256
 11
-0.3638965577
 21
-2.3775416203
  0
LINE
  5
503
100
AcDbEntity
  8
0
100
AcDbLine
 62
7
  6
CONTINUOUS
 10
0.8775416203
 20
-1.8638965577
 11
1.2159163936
 21
-1.7238939907
  0
LWPOLYLINE
  5
504
100
AcDbEntity
  8
RACCORDO
100
AcDbPolyline
 62
7
  6
CONTINUOUS
 90
4
 70
0
 10
-19.5932920569
 20
-0.3248118626
 10
-19.5748014016
 20
-0.3234165913
 10
-19.5333351796
 20
-0.3221332326
 10
-19.4688933912
 20
-0.3209617866
  0
LWPOLYLINE
  5
505
100
AcDbEntity
  8
ASSI
100
AcDbPolyline
 62
7
  6
CONTINUOUS
 90
4
 70
0
 10
-19.5932920569
 20
-0.3248118626
 10
-19.5748014016
 20
-0.3234165913
 10
-19.5333351796
 20
-0.3221332326
 10
-19.4688933912
 20
-0.3209617866
  0
LINE
  5
506
100
AcDbEntity
  8
RACCORDO
100
AcDbLine
 62
7
  6
CONTINUOUS
 10
20.9261825974
 20
0.317094756
 11
19.2116603001
 21
0.317094756
  0
LINE
  5
507
100
AcDbEntity
  8
ASSI
100
AcDbLine
 62
7
  6
CONTINUOUS
 10
20.9261825974
 20
0.317094756
 11
19.2116603001
 21
0.317094756
  0
LINE
  5
508
100
AcDbEntity
  8
RACCORDO
100
AcDbLine
 62
7
  6
CONTINUOUS
 10
-19.2116602984
 20
0.317094756
 11
-20.9261825974
 21
0.317094756
  0
LINE
  5
509
100
AcDbEntity
  8
ASSI
100
AcDbLine
 62
7
  6
CONTINUOUS
 10
-19.2116602984
 20
0.317094756
 11
-20.9261825974
 21
0.317094756
  0
LINE
  5
50A
100
AcDbEntity
  8
DRAFT
100
AcDbLine
 62
7
  6
CONTINUOUS
 10
20.7603594806
 20
0.4
 11
19.7405830189
 21
0.4
  0
LINE
  5
50B
100
AcDbEntity
  8
ASSI
100
AcDbLine
 62
7
  6
CONTINUOUS
 10
20.7603594806
 20
0.4
 11
19.7405830189
 21
0.4
  0
LINE
  5
50C
100
AcDbEntity
  8
DRAFT
100
AcDbLine
 62
7
  6
CONTINUOUS
 10
-19.7405830189
 20
0.4
 11
-20.7603594806
 21
0.4
  0
LINE
  5
50D
100
AcDbEntity
  8
ASSI
100
AcDbLine
 62
7
  6
CONTINUOUS
 10
-19.7405830189
 20
0.4
 11
-20.7603594806
 21
0.4
  0
LINE
  5
50E
100
AcDbEntity
  8
DRAFT
100
AcDbLine
 62
7
  6
CONTINUOUS
 10
-18.2173756559
 20
18.867094756
 11
-17.9830351795
 21
18.6327542795
  0
LINE
  5
50F
100
AcDbEntity
  8
ASSI
100
AcDbLine
 62
7
  6
CONTINUOUS
 10
-18.2173756559
 20
18.867094756
 11
-17.9830351795
 21
18.6327542795
  0
LINE
  5
510
100
AcDbEntity
  8
DRAFT
100
AcDbLine
 62
7
  6
CONTINUOUS
 10
-18.1551386093
 20
19.0173482781
 11
-17.9830351795
 21
18.8430942654
  0
LINE
  5
511
100
AcDbEntity
  8
ASSI
100
AcDbLine
 62
7
  6
CONTINUOUS
 10
-18.1551386093
 20
19.0173482781
 11
-17.9830351795
 21
18.8430942654
  0
LINE
  5
512
100
AcDbEntity
  8
0
100
AcDbLine
 62
250
  6
CONTINUOUS
 10
-16.103724834
 20
17.399622858
 11
-16.1777345242
 21
17.4750000487
  0
LWPOLYLINE
  5
513
100
AcDbEntity
  8
0
100
AcDbPolyline
 62
250
  6
CONTINUOUS
 90
10
 70
0
 10
-16.1777345242
 20
17.4750000487
 10
-16.1816506847
 20
17.4790732903
 10
-16.1855072179
 20
17.4831465848
 10
-16.1893041238
 20
17.487219932
 10
-16.1930016459
 20
17.4912933625
 10
-16.1966395406
 20
17.4953668458
 10
-16.2003370775
 20
17.4994402905
 10
-16.2041340131
 20
17.5035136662
 10
-16.2079905907
 20
17.5075870033
 10
-16.2119068106
 20
17.5116603019
  0
LINE
  5
514
100
AcDbEntity
  8
0
100
AcDbLine
 62
250
  6
CONTINUOUS
 10
-9.8577462786
 20
17.0116046039
 11
-9.8031709147
 21
16.9297459181
  0
LINE
  5
515
100
AcDbEntity
  8
0
100
AcDbLine
 62
250
  6
CONTINUOUS
 10
-9.5532094756
 20
17.1796612752
 11
-9.6077835579
 21
17.2615339754
  0
LWPOLYLINE
  5
516
100
AcDbEntity
  8
0
100
AcDbPolyline
 62
7
  6
CONTINUOUS
 90
10
 70
0
 10
-6.6153975637
 20
12.1252348015
 10
-6.5621048394
 20
12.0358921834
 10
-6.5058781427
 20
11.9486648058
 10
-6.4467174736
 20
11.8635526688
 10
-6.3845439348
 20
11.7804565451
 10
-6.3194364236
 20
11.699475662
 10
-6.2516316316
 20
11.6209077011
 10
-6.1812084559
 20
11.5448518898
 10
-6.1080879995
 20
11.4712090007
 10
-6.0322702623
 20
11.399979034
  0
LWPOLYLINE
  5
517
100
AcDbEntity
  8
0
100
AcDbPolyline
 62
7
  6
CONTINUOUS
 90
10
 70
0
 10
-6.4054369824
 20
12.2167827625
 10
-6.4830358803
 20
12.3548131604
 10
-6.5523921794
 20
12.4983788683
 10
-6.6135058795
 20
12.6474798862
 10
-6.6668236291
 20
12.8024323132
 10
-6.7118987797
 20
12.9629200502
 10
-6.7473913867
 20
13.1279947993
 10
-6.7728548016
 20
13.2973404614
 10
-6.7887356728
 20
13.4712731356
 10
-6.7950340003
 20
13.6497928219
  0
LWPOLYLINE
  5
518
100
AcDbEntity
  8
0
100
AcDbPolyline
 62
7
  6
CONTINUOUS
 90
19
 70
0
 10
1.0087928897
 20
4.5751011834
 10
1.0254345867
 20
4.4776713564
 10
1.0491735107
 20
4.3834187703
 10
1.0800096615
 20
4.2923429777
 10
1.1182260886
 20
4.2040259139
 10
1.1635397426
 20
4.1188848044
 10
1.2151014756
 20
4.0381719529
 10
1.2730453474
 20
3.9618617343
 10
1.3372372982
 20
3.8899785882
 10
1.4064259998
 20
3.8238495821
 10
1.4806311439
 20
3.763597599
 10
1.5598330389
 20
3.7090984225
 10
1.6427212818
 20
3.6613082705
 10
1.7294317483
 20
3.6202886566
 10
1.8198285627
 20
3.5859769352
 10
1.912193696
 20
3.5591430555
 10
2.0059544717
 20
3.5400434234
 10
2.1016835663
 20
3.5284209595
 10
2.1993809797
 20
3.5242754945
  0
LWPOLYLINE
  5
519
100
AcDbEntity
  8
0
100
AcDbPolyline
 62
7
  6
CONTINUOUS
 90
19
 70
0
 10
1.0134736998
 20
4.5758811167
 10
1.0246015791
 20
4.5090965741
 10
1.0479389268
 20
4.4158010103
 10
1.0786583881
 20
4.3246780747
 10
1.1165260608
 20
4.2363846876
 10
1.1613285777
 20
4.1513966171
 10
1.2129401976
 20
4.0700391205
 10
1.2712051778
 20
3.9927241092
 10
1.3357076074
 20
3.9201505086
 10
1.4058690608
 20
3.8530319528
 10
1.4812279374
 20
3.7918110369
 10
1.5612968614
 20
3.7368795181
 10
1.6453212484
 20
3.6887222132
 10
1.7326268681
 20
3.6476394284
 10
1.8227129801
 20
3.6137834396
 10
1.9150319979
 20
3.587304815
 10
2.0089976094
 20
3.5683251759
 10
2.1039836915
 20
3.5569236064
 10
2.1993809797
 20
3.5531260592
  0
LINE
  5
51A
100
AcDbEntity
  8
DRAFT
100
AcDbLine
 62
7
  6
CONTINUOUS
 10
4.0278542332
 20
-19.0173482781
 11
4.0340172901
 21
-19.3704295719
  0
LINE
  5
51B
100
AcDbEntity
  8
ASSI
100
AcDbLine
 62
7
  6
CONTINUOUS
 10
4.0278542332
 20
-19.0173482781
 11
4.0340172901
 21
-19.3704295719
  0
LWPOLYLINE
  5
51C
100
AcDbEntity
  8
0
100
AcDbPolyline
 62
250
  6
CONTINUOUS
 90
109
 70
0
 10
3.020550369
 20
-14.4006510421
 10
3.0215106788
 20
-14.4888673808
 10
3.0241441078
 20
-14.5761881997
 10
3.0284506561
 20
-14.6625425188
 10
3.0342681737
 20
-14.7468095853
 10
3.0417588105
 20
-14.8299885269
 10
3.0514090166
 20
-14.9151596211
 10
3.0635976932
 20
-15.0048241679
 10
3.0779459391
 20
-15.0962280548
 10
3.0938035001
 20
-15.1846108985
 10
3.1104910587
 20
-15.2667207884
 10
3.1286879325
 20
-15.3458245997
 10
3.1497818192
 20
-15.4269187968
 10
3.1747877497
 20
-15.5134309587
 10
3.2026906931
 20
-15.6015292678
 10
3.2318332554
 20
-15.6853888669
 10
3.2597874464
 20
-15.759679798
 10
3.2889812563
 20
-15.829996222
 10
3.3250412615
 20
-15.9066946391
 10
3.3717091686
 20
-15.9967362829
 10
3.4252432709
 20
-16.0918678058
 10
3.4800450249
 20
-16.1799255644
 10
3.5342492266
 20
-16.2570396199
 10
3.58972108
 20
-16.3277957337
 10
3.6464576534
 20
-16.3935267909
 10
3.7047273126
 20
-16.4548094634
 10
3.7642616917
 20
-16.5114344274
 10
3.8242527622
 20
-16.5634889926
 10
3.8848917436
 20
-16.611224988
 10
3.9459874163
 20
-16.654797107
 10
4.0061580926
 20
-16.6941688344
 10
4.0645292819
 20
-16.7290839709
 10
4.1219754748
 20
-16.7602203615
 10
4.1797384559
 20
-16.788872131
 10
4.2378721715
 20
-16.8153641486
 10
4.2963226752
 20
-16.8395692822
 10
4.3561699129
 20
-16.8620003921
 10
4.4182171686
 20
-16.8830104627
 10
4.4816611583
 20
-16.9023723292
 10
4.545171975
 20
-16.9197224497
 10
4.6075120706
 20
-16.9348934232
 10
4.6699189933
 20
-16.9482121268
 10
4.7347754806
 20
-16.9600558949
 10
4.8036907799
 20
-16.9707514213
 10
4.8750556438
 20
-16.9800558112
 10
4.9464250677
 20
-16.9874877751
 10
5.0174832045
 20
-16.9928812636
 10
5.0885459013
 20
-16.9964817266
 10
5.1581156947
 20
-16.9984238888
 10
5.2251943633
 20
-16.9987168549
 10
5.2907801285
 20
-16.9973642285
 10
5.3563701912
 20
-16.9944776187
 10
5.423070793
 20
-16.989977447
 10
5.4897756923
 20
-16.9839040732
 10
5.554663365
 20
-16.9765439468
 10
5.6165201936
 20
-16.96803147
 10
5.6765597957
 20
-16.9581709023
 10
5.7366014998
 20
-16.9467471219
 10
5.7982533064
 20
-16.93332934
 10
5.859907215
 20
-16.9182304422
 10
5.9185585527
 20
-16.9023783375
 10
5.972270411
 20
-16.8863105857
 10
6.0229796983
 20
-16.8694619434
 10
6.0734924668
 20
-16.8511174108
 10
6.1249456953
 20
-16.8309083627
 10
6.1762024051
 20
-16.8090801998
 10
6.2266577119
 20
-16.7858168609
 10
6.2759133943
 20
-16.7612750311
 10
6.3243676738
 20
-16.735202743
 10
6.3726103302
 20
-16.7071612045
 10
6.4217247828
 20
-16.676269135
 10
6.4706276124
 20
-16.643224956
 10
6.5166583413
 20
-16.6100529037
 10
6.5580824999
 20
-16.5781047388
 10
6.5966345579
 20
-16.5461432247
 10
6.6348574461
 20
-16.5123358934
 10
6.6734586787
 20
-16.4762441707
 10
6.7117307417
 20
-16.4381827218
 10
6.7500940239
 20
-16.3973235063
 10
6.7888764439
 20
-16.3532502656
 10
6.8277500833
 20
-16.3061783647
 10
6.8661515757
 20
-16.2561983824
 10
6.904561091
 20
-16.2022239041
 10
6.9424984594
 20
-16.1451387139
 10
6.9779598047
 20
-16.0881666735
 10
7.0096760982
 20
-16.0335286898
 10
7.0389163685
 20
-15.9792247556
 10
7.0674838256
 20
-15.9221803482
 10
7.0965257854
 20
-15.8599085498
 10
7.124894932
 20
-15.7947310961
 10
7.1509525275
 20
-15.7308300956
 10
7.173634937
 20
-15.6710437556
 10
7.1940057954
 20
-15.6128065967
 10
7.2136172684
 20
-15.5522308249
 10
7.2331594913
 20
-15.4874602618
 10
7.2519423288
 20
-15.4202806286
 10
7.269447541
 20
-15.3521983851
 10
7.2854310371
 20
-15.2842633789
 10
7.3001369079
 20
-15.2155043373
 10
7.3137791861
 20
-15.144405675
 10
7.3265140283
 20
-15.0705219915
 10
7.3381852779
 20
-14.994311679
 10
7.3485384975
 20
-14.9155884759
 10
7.3576007516
 20
-14.8339937513
 10
7.3653449756
 20
-14.7499409705
 10
7.3714355387
 20
-14.6644222839
 10
7.3757605638
 20
-14.5778143671
 10
7.3784319279
 20
-14.4898669207
 10
7.379449631
 20
-14.4006510421
  0
LINE
  5
51D
100
AcDbEntity
  8
0
100
AcDbLine
 62
7
  6
CONTINUOUS
 10
2.5
 20
19.399450985
 11
2.5
 21
18.9
  0
LINE
  5
51E
100
AcDbEntity
  8
0
100
AcDbLine
 62
7
  6
CONTINUOUS
 10
2.5
 20
-18.9
 11
2.5
 21
-19.399450985
  0
LINE
  5
51F
100
AcDbEntity
  8
0
100
AcDbLine
 62
250
  6
CONTINUOUS
 10
3.020550475
 20
-8.1090947887
 11
3.020550422
 21
-14.4006510421
  0
LINE
  5
520
100
AcDbEntity
  8
0
100
AcDbLine
 62
7
  6
CONTINUOUS
 10
3.5
 20
-19.399450985
 11
3.5
 21
-18.9
  0
LINE
  5
521
100
AcDbEntity
  8
0
100
AcDbLine
 62
7
  6
CONTINUOUS
 10
3.5
 20
18.9
 11
3.5
 21
19.399450985
  0
LINE
  5
522
100
AcDbEntity
  8
RACCORDO
100
AcDbLine
 62
7
  6
CONTINUOUS
 10
3.7273243011
 20
20.7603594806
 11
3.7273243011
 21
19.9417594606
  0
LINE
  5
523
100
AcDbEntity
  8
ASSI
100
AcDbLine
 62
7
  6
CONTINUOUS
 10
3.7273243011
 20
20.7603594806
 11
3.7273243011
 21
19.9417594606
  0
LINE
  5
524
100
AcDbEntity
  8
RACCORDO
100
AcDbLine
 62
7
  6
CONTINUOUS
 10
3.7273243011
 20
19.2582405394
 11
3.7273243011
 21
18.867094756
  0
LINE
  5
525
100
AcDbEntity
  8
ASSI
100
AcDbLine
 62
7
  6
CONTINUOUS
 10
3.7273243011
 20
19.2582405394
 11
3.7273243011
 21
18.867094756
  0
LINE
  5
526
100
AcDbEntity
  8
RACCORDO
100
AcDbLine
 62
7
  6
CONTINUOUS
 10
3.7273243011
 20
-18.867094756
 11
3.7273243011
 21
-19.2582405394
  0
LINE
  5
527
100
AcDbEntity
  8
ASSI
100
AcDbLine
 62
7
  6
CONTINUOUS
 10
3.7273243011
 20
-18.867094756
 11
3.7273243011
 21
-19.2582405394
  0
LINE
  5
528
100
AcDbEntity
  8
RACCORDO
100
AcDbLine
 62
7
  6
CONTINUOUS
 10
3.7273243011
 20
-19.9417594606
 11
3.7273243011
 21
-20.7603594806
  0
LINE
  5
529
100
AcDbEntity
  8
ASSI
100
AcDbLine
 62
7
  6
CONTINUOUS
 10
3.7273243011
 20
-19.9417594606
 11
3.7273243011
 21
-20.7603594806
  0
LINE
  5
52A
100
AcDbEntity
  8
0
100
AcDbLine
 62
250
  6
CONTINUOUS
 10
3.8923046791
 20
-8.1160787959
 11
3.8923126567
 21
-14.4006510598
  0
LINE
  5
52B
100
AcDbEntity
  8
RACCORDO
100
AcDbLine
 62
250
  6
CONTINUOUS
 10
3.9
 20
19.8965739699
 11
3.9
 21
19.8255982314
  0
LINE
  5
52C
100
AcDbEntity
  8
ASSI
100
AcDbLine
 62
250
  6
CONTINUOUS
 10
3.9
 20
19.8965739699
 11
3.9
 21
19.8255982314
  0
LINE
  5
52D
100
AcDbEntity
  8
RACCORDO
100
AcDbLine
 62
250
  6
CONTINUOUS
 10
3.9
 20
-19.8965739699
 11
3.9
 21
-19.8255982314
  0
LINE
  5
52E
100
AcDbEntity
  8
RACCORDO
100
AcDbLine
 62
250
  6
CONTINUOUS
 10
3.9
 20
-19.3034260301
 11
3.9
 21
-19.3704295719
  0
LINE
  5
52F
100
AcDbEntity
  8
ASSI
100
AcDbLine
 62
250
  6
CONTINUOUS
 10
3.9
 20
-19.8965739699
 11
3.9
 21
-19.8255982314
  0
LINE
  5
530
100
AcDbEntity
  8
ASSI
100
AcDbLine
 62
250
  6
CONTINUOUS
 10
3.9
 20
-19.3034260301
 11
3.9
 21
-19.3704295719
  0
LINE
  5
531
100
AcDbEntity
  8
RACCORDO
100
AcDbLine
 62
250
  6
CONTINUOUS
 10
3.9
 20
19.3034260301
 11
3.9
 21
19.3704295719
  0
LINE
  5
532
100
AcDbEntity
  8
ASSI
100
AcDbLine
 62
250
  6
CONTINUOUS
 10
3.9
 20
19.3034260301
 11
3.9
 21
19.3704295719
  0
LINE
  5
533
100
AcDbEntity
  8
0
100
AcDbLine
 62
250
  6
CONTINUOUS
 10
4.0
 20
10.6134313985
 11
4.0
 21
10.622007317
  0
LINE
  5
534
100
AcDbEntity
  8
0
100
AcDbLine
 62
250
  6
CONTINUOUS
 10
3.9999999995
 20
10.9499988813
 11
4.0
 21
10.85
  0
LINE
  5
535
100
AcDbEntity
  8
DRAFT
100
AcDbLine
 62
7
  6
CONTINUOUS
 10
4.0415154698
 20
20.0060689771
 11
4.0415154698
 21
19.8258216238
  0
LINE
  5
536
100
AcDbEntity
  8
ASSI
100
AcDbLine
 62
7
  6
CONTINUOUS
 10
4.0415154698
 20
20.0060689771
 11
4.0415154698
 21
19.8258216238
  0
LINE
  5
537
100
AcDbEntity
  8
DRAFT
100
AcDbLine
 62
7
  6
CONTINUOUS
 10
4.0415154698
 20
-19.8258216238
 11
4.0415154698
 21
-20.0060689771
  0
LINE
  5
538
100
AcDbEntity
  8
ASSI
100
AcDbLine
 62
7
  6
CONTINUOUS
 10
4.0415154698
 20
-19.8258216238
 11
4.0415154698
 21
-20.0060689771
  0
LINE
  5
539
100
AcDbEntity
  8
DRAFT
100
AcDbLine
 62
7
  6
CONTINUOUS
 10
4.5169648205
 20
18.8430942654
 11
4.5169648205
 21
18.6327542795
  0
LINE
  5
53A
100
AcDbEntity
  8
ASSI
100
AcDbLine
 62
7
  6
CONTINUOUS
 10
4.5169648205
 20
18.8430942654
 11
4.5169648205
 21
18.6327542795
  0
LINE
  5
53B
100
AcDbEntity
  8
DRAFT
100
AcDbLine
 62
7
  6
CONTINUOUS
 10
4.5169648205
 20
-18.8430942654
 11
4.5169648205
 21
-18.6327542795
  0
LINE
  5
53C
100
AcDbEntity
  8
ASSI
100
AcDbLine
 62
7
  6
CONTINUOUS
 10
4.5169648205
 20
-18.8430942654
 11
4.5169648205
 21
-18.6327542795
  0
LINE
  5
53D
100
AcDbEntity
  8
DRAFT
100
AcDbLine
 62
7
  6
CONTINUOUS
 10
4.0340172901
 20
19.3704295719
 11
4.0278542332
 21
19.0173482781
  0
LINE
  5
53E
100
AcDbEntity
  8
ASSI
100
AcDbLine
 62
7
  6
CONTINUOUS
 10
4.0340172901
 20
19.3704295719
 11
4.0278542332
 21
19.0173482781
  0
LWPOLYLINE
  5
53F
100
AcDbEntity
  8
0
100
AcDbPolyline
 62
7
  6
CONTINUOUS
 90
19
 70
0
 10
3.2670056149
 20
-1.5000049718
 10
3.2602032058
 20
-1.6995183658
 10
3.2415094826
 20
-1.8967443336
 10
3.2109244452
 20
-2.0916837049
 10
3.1681862659
 20
-2.2850389421
 10
3.1135567724
 20
-2.4761090102
 10
3.047821448
 20
-2.6627909308
 10
2.9709235778
 20
-2.8450538851
 10
2.8829198767
 20
-3.0229333534
 10
2.7847659725
 20
-3.1944285089
 10
2.6763298826
 20
-3.3593927009
 10
2.5577435897
 20
-3.517979734
 10
2.4303586693
 20
-3.6686415939
 10
2.2941834822
 20
-3.8113703595
 10
2.1492096677
 20
-3.946182275
 10
1.9967637201
 20
-4.0715670616
 10
1.8372878042
 20
-4.1870245106
 10
1.6703397552
 20
-4.293063591
 10
1.4959195731
 20
-4.3896881646
  0
LWPOLYLINE
  5
540
100
AcDbEntity
  8
0
100
AcDbPolyline
 62
7
  6
CONTINUOUS
 90
19
 70
0
 10
3.27568702
 20
-1.5000048855
 10
3.2686903912
 20
-1.702108972
 10
3.249393358
 20
-1.9022597189
 10
3.2177959205
 20
-2.1004577226
 10
3.173703745
 20
-2.2975328121
 10
3.1173111652
 20
-2.4926560543
 10
3.0492011822
 20
-2.6833416226
 10
2.969126543
 20
-2.8695996566
 10
2.8773345006
 20
-3.0514247646
 10
2.7751498158
 20
-3.2263111695
 10
2.662595529
 20
-3.3939250502
 10
2.5396485998
 20
-3.5546082421
 10
2.4075646669
 20
-3.7068708916
 10
2.266100624
 20
-3.8507833102
 10
2.1154995775
 20
-3.9862840918
 10
1.9577464846
 20
-4.1116873284
 10
1.7935029977
 20
-4.2264345071
 10
1.6221074643
 20
-4.3310935104
 10
1.4435598846
 20
-4.4256684229
  0
LINE
  5
541
100
AcDbEntity
  8
DRAFT
100
AcDbLine
 62
7
  6
CONTINUOUS
 10
-4.2962541424
 20
-18.9
 11
-4.3448613907
 21
-19.0173482781
  0
LINE
  5
542
100
AcDbEntity
  8
ASSI
100
AcDbLine
 62
7
  6
CONTINUOUS
 10
-4.2962541424
 20
-18.9
 11
-4.3448613907
 21
-19.0173482781
  0
LINE
  5
543
100
AcDbEntity
  8
0
100
AcDbLine
 62
250
  6
CONTINUOUS
 10
19.1750010483
 20
14.4760280245
 11
19.2116602902
 21
14.512688269
  0
LINE
  5
544
100
AcDbEntity
  8
0
100
AcDbLine
 62
250
  6
CONTINUOUS
 10
19.1026968576
 20
14.4006510467
 11
19.1780727776
 21
14.4760280245
  0
LWPOLYLINE
  5
545
100
AcDbEntity
  8
0
100
AcDbPolyline
 62
7
  6
CONTINUOUS
 90
9
 70
0
 10
-7.6797736441
 20
-7.7696851188
 10
-7.7768225542
 20
-7.8164677635
 10
-7.8210198355
 20
-7.8372712735
 10
-7.862414717
 20
-7.8562606928
 10
-7.9010393711
 20
-7.8734644879
 10
-7.9368837251
 20
-7.8887868096
 10
-7.9700009396
 20
-7.9021957086
 10
-8.0004926701
 20
-7.9137231343
 10
-8.0284385091
 20
-7.9233690867
  0
LWPOLYLINE
  5
546
100
AcDbEntity
  8
0
100
AcDbPolyline
 62
7
  6
CONTINUOUS
 90
16
 70
0
 10
1.4959195731
 20
-4.3896881646
 10
1.3078333455
 20
-4.479097721
 10
1.1160077608
 20
-4.555728203
 10
0.9204428189
 20
-4.6196811136
 10
0.72037306
 20
-4.671260254
 10
0.5165639439
 20
-4.7103610264
 10
0.3113118497
 20
-4.7364669524
 10
0.1044016888
 20
-4.7494553488
 10
-0.1039514503
 20
-4.749541257
 10
-0.3108059222
 20
-4.7366778357
 10
-0.5158722112
 20
-4.710610798
 10
-0.7194398329
 20
-4.6715020064
 10
-0.9194356898
 20
-4.6198917278
 10
-1.1151687491
 20
-4.5558923641
 10
-1.3073300435
 20
-4.4791917798
 10
-1.4959195731
 20
-4.3896881646
  0
LWPOLYLINE
  5
547
100
AcDbEntity
  8
0
100
AcDbPolyline
 62
7
  6
CONTINUOUS
 90
10
 70
0
 10
-7.8734106853
 20
-7.8302821914
 10
-7.5796533645
 20
-7.6942543103
 10
-7.5139138059
 20
-7.6642630419
 10
-7.4458778497
 20
-7.6336640685
 10
-7.3756945145
 20
-7.6026190396
 10
-7.3032147817
 20
-7.5711678741
 10
-7.2280509021
 20
-7.539328659
 10
-7.1499231791
 20
-7.5070689159
 10
-7.0691113093
 20
-7.4745778345
 10
-7.0415622559
 20
-7.4637214632
  0
LWPOLYLINE
  5
548
100
AcDbEntity
  8
0
100
AcDbPolyline
 62
7
  6
CONTINUOUS
 90
7
 70
0
 10
-7.0992823189
 20
-7.4935166205
 10
-7.1744903716
 20
-7.5273530197
 10
-7.2475415734
 20
-7.5611194263
 10
-7.317890049
 20
-7.5941044269
 10
-7.3854268579
 20
-7.626237438
 10
-7.4502176875
 20
-7.6575890432
 10
-7.6797736441
 20
-7.7696851188
  0
LWPOLYLINE
  5
549
100
AcDbEntity
  8
0
100
AcDbPolyline
 62
7
  6
CONTINUOUS
 90
3
 70
0
 10
-7.9753724916
 20
-7.8763892127
 10
-7.9256504816
 20
-7.8541436324
 10
-7.8734106853
 20
-7.8302821914
  0
LWPOLYLINE
  5
54A
100
AcDbEntity
  8
0
100
AcDbPolyline
 62
7
  6
CONTINUOUS
 90
3
 70
0
 10
-6.9483025661
 20
-7.4280108158
 10
-7.0220221014
 20
-7.4596120161
 10
-7.0992823189
 20
-7.4935166205
  0
LINE
  5
54B
100
AcDbEntity
  8
0
100
AcDbLine
 62
7
  6
CONTINUOUS
 10
-7.0415622559
 20
-7.4637214632
 11
-6.9860666333
 21
-7.4422186846
  0
LWPOLYLINE
  5
54C
100
AcDbEntity
  8
0
100
AcDbPolyline
 62
7
  6
CONTINUOUS
 90
41
 70
0
 10
-6.9860666333
 20
-7.4422186846
 10
-6.900433822
 20
-7.4100012929
 10
-6.8125682045
 20
-7.3781036365
 10
-6.723987108
 20
-7.3472000762
 10
-6.6349543506
 20
-7.3175673389
 10
-6.5452061143
 20
-7.2891709554
 10
-6.4554682729
 20
-7.2622544468
 10
-6.3659685815
 20
-7.2370073043
 10
-6.2764792849
 20
-7.2134411309
 10
-6.1870429917
 20
-7.1915221069
 10
-6.0975570571
 20
-7.1713027719
 10
-6.0081241259
 20
-7.152870612
 10
-5.919094741
 20
-7.1362268217
 10
-5.8303384965
 20
-7.1214177102
 10
-5.7419857984
 20
-7.1084932495
 10
-5.6547784066
 20
-7.0974479866
 10
-5.5689360508
 20
-7.0883488477
 10
-5.4842390015
 20
-7.0811873282
 10
-5.4007698304
 20
-7.0758337251
 10
-5.3190388066
 20
-7.0722775462
 10
-5.238535661
 20
-7.070552424
 10
-5.1578121585
 20
-7.0705858947
 10
-5.0767339157
 20
-7.0723128259
 10
-4.9954353159
 20
-7.0757940268
 10
-4.9128712741
 20
-7.0811385987
 10
-4.8286042005
 20
-7.0883236443
 10
-4.743071685
 20
-7.0973385132
 10
-4.6565414118
 20
-7.1083006099
 10
-4.5690043461
 20
-7.1211844957
 10
-4.4804695227
 20
-7.135944803
 10
-4.3912317303
 20
-7.1526553103
 10
-4.301140987
 20
-7.1713094645
 10
-4.2103472748
 20
-7.1917966449
 10
-4.1195953287
 20
-7.2140217962
 10
-4.0288841205
 20
-7.2379410411
 10
-3.9382146783
 20
-7.2634379173
 10
-3.848334821
 20
-7.2903034371
 10
-3.759369045
 20
-7.3184334174
 10
-3.6711928539
 20
-7.3477389614
 10
-3.5841805772
 20
-7.3780334196
 10
-3.498260676
 20
-7.4092581357
  0
LINE
  5
54D
100
AcDbEntity
  8
0
100
AcDbLine
 62
7
  6
CONTINUOUS
 10
2.1993809797
 20
4.5751011834
 11
1.0087928897
 21
4.5751011834
  0
LWPOLYLINE
  5
54E
100
AcDbEntity
  8
0
100
AcDbPolyline
 62
7
  6
CONTINUOUS
 90
22
 70
0
 10
-0.4230974353
 20
3.2243062056
 10
-0.5366408387
 20
3.2287380023
 10
-0.6482596244
 20
3.2413519124
 10
-0.7579537924
 20
3.2621481452
 10
-0.8663043059
 20
3.291341008
 10
-0.9727302017
 20
3.3287170236
 10
-1.0754885905
 20
3.3736348747
 10
-1.1746090127
 20
3.4263279452
 10
-1.2700619278
 20
3.4865643125
 10
-1.3600158252
 20
3.5530046481
 10
-1.4441347692
 20
3.6255109125
 10
-1.5227546955
 20
3.7042227546
 10
-1.5950519008
 20
3.7882171708
 10
-1.6611133816
 20
3.8776981985
 10
-1.7208521414
 20
3.9724634432
 10
-1.773183488
 20
4.0709798951
 10
-1.8179814122
 20
4.1734135616
 10
-1.8553719232
 20
4.2795996556
 10
-1.8846483566
 20
4.3875083346
 10
-1.9056252242
 20
4.4970118803
 10
-1.9184880143
 20
4.6082384312
 10
-1.9230968033
 20
4.7253494552
  0
LWPOLYLINE
  5
54F
100
AcDbEntity
  8
0
100
AcDbPolyline
 62
7
  6
CONTINUOUS
 90
22
 70
0
 10
2.1993809797
 20
3.2243062056
 10
2.0858375763
 20
3.2287380023
 10
1.9742187906
 20
3.2413519124
 10
1.8645246225
 20
3.2621481452
 10
1.756174109
 20
3.291341008
 10
1.6497482133
 20
3.3287170236
 10
1.5469898245
 20
3.3736348746
 10
1.4478694023
 20
3.4263279452
 10
1.3524164872
 20
3.4865643124
 10
1.2624625898
 20
3.5530046481
 10
1.1783436458
 20
3.6255109125
 10
1.0997237195
 20
3.7042227545
 10
1.0274265141
 20
3.7882171708
 10
0.9613650334
 20
3.8776981985
 10
0.9016262736
 20
3.9724634431
 10
0.8492949269
 20
4.070979895
 10
0.8044970028
 20
4.1734135615
 10
0.7671064918
 20
4.2795996556
 10
0.7378300583
 20
4.3875083346
 10
0.7168531907
 20
4.4970118803
 10
0.7039904006
 20
4.6082384312
 10
0.6993816116
 20
4.7253494552
  0
LWPOLYLINE
  5
550
100
AcDbEntity
  8
0
100
AcDbPolyline
 62
7
  6
CONTINUOUS
 90
16
 70
0
 10
-6.0210833958
 20
11.3999980724
 10
-6.1418738344
 20
11.5158966992
 10
-6.2556538513
 20
11.6376955207
 10
-6.3624234465
 20
11.7653945367
 10
-6.4625527575
 20
11.8994957092
 10
-6.5556716467
 20
12.0394970764
 10
-6.6406697019
 20
12.1838927528
 10
-6.7174198648
 20
12.332598295
 10
-6.7860491936
 20
12.4856981464
 10
-6.8458284507
 20
12.641939752
 10
-6.8966312851
 20
12.8011615125
 10
-6.9385840477
 20
12.9635250272
 10
-6.9713365538
 20
13.1282625387
 10
-6.994772075
 20
13.295118128
 10
-7.0090073397
 20
13.4643477142
 10
-7.0140423478
 20
13.6359512972
  0
LINE
  5
551
100
AcDbEntity
  8
0
100
AcDbLine
 62
250
  6
CONTINUOUS
 10
19.1780727734
 20
-14.4751284632
 11
19.1026969456
 21
-14.4005226707
  0
LINE
  5
552
100
AcDbEntity
  8
0
100
AcDbLine
 62
250
  6
CONTINUOUS
 10
19.2116603104
 20
-14.5116599611
 11
19.1750010441
 21
-14.4751284632
  0
LWPOLYLINE
  5
553
100
AcDbEntity
  8
0
100
AcDbPolyline
 62
250
  6
CONTINUOUS
 90
9
 70
0
 10
9.8442287302
 20
-7.7503580778
 10
9.840123096
 20
-7.7434268496
 10
9.8360621057
 20
-7.7228385521
 10
9.8320457593
 20
-7.6885931852
 10
9.8280604578
 20
-7.6404569445
 10
9.8241198001
 20
-7.5786636345
 10
9.8202645831
 20
-7.5039146681
 10
9.8164957226
 20
-7.4160866984
 10
9.8128123027
 20
-7.3153030723
  0
LINE
  5
554
100
AcDbEntity
  8
DRAFT
100
AcDbLine
 62
7
  6
CONTINUOUS
 10
-4.2962541424
 20
18.9
 11
-4.3448613907
 21
19.0173482781
  0
LINE
  5
555
100
AcDbEntity
  8
ASSI
100
AcDbLine
 62
7
  6
CONTINUOUS
 10
-4.2962541424
 20
18.9
 11
-4.3448613907
 21
19.0173482781
  0
LINE
  5
556
100
AcDbEntity
  8
DRAFT
100
AcDbLine
 62
7
  6
CONTINUOUS
 10
7.797027879
 20
-21.2
 11
7.8502441328
 21
-22.2
  0
LINE
  5
557
100
AcDbEntity
  8
ASSI
100
AcDbLine
 62
7
  6
CONTINUOUS
 10
7.797027879
 20
-21.2
 11
7.8502441328
 21
-22.2
  0
LINE
  5
558
100
AcDbEntity
  8
DRAFT
100
AcDbLine
 62
7
  6
CONTINUOUS
 10
4.0135191699
 20
20.9320850844
 11
4.0415154698
 21
20.0060689771
  0
LINE
  5
559
100
AcDbEntity
  8
ASSI
100
AcDbLine
 62
7
  6
CONTINUOUS
 10
4.0135191699
 20
20.9320850844
 11
4.0415154698
 21
20.0060689771
  0
LINE
  5
55A
100
AcDbEntity
  8
DRAFT
100
AcDbLine
 62
7
  6
CONTINUOUS
 10
5.1669648205
 20
19.1
 11
5.1669648205
 21
18.9
  0
LINE
  5
55B
100
AcDbEntity
  8
ASSI
100
AcDbLine
 62
7
  6
CONTINUOUS
 10
5.1669648205
 20
19.1
 11
5.1669648205
 21
18.9
  0
LINE
  5
55C
100
AcDbEntity
  8
DRAFT
100
AcDbLine
 62
7
  6
CONTINUOUS
 10
5.1669648205
 20
-19.1
 11
5.1669648205
 21
-18.9
  0
LINE
  5
55D
100
AcDbEntity
  8
ASSI
100
AcDbLine
 62
7
  6
CONTINUOUS
 10
5.1669648205
 20
-19.1
 11
5.1669648205
 21
-18.9
  0
LINE
  5
55E
100
AcDbEntity
  8
0
100
AcDbLine
 62
250
  6
CONTINUOUS
 10
6.500000003
 20
13.6500000831
 11
6.500000005
 21
14.2000001522
  0
LINE
  5
55F
100
AcDbEntity
  8
0
100
AcDbLine
 62
250
  6
CONTINUOUS
 10
6.5076887333
 20
-14.4006510421
 11
6.5076871651
 21
-8.1160785203
  0
LINE
  5
560
100
AcDbEntity
  8
0
100
AcDbLine
 62
7
  6
CONTINUOUS
 10
6.8000108378
 20
14.6986166313
 11
6.7994761581
 21
14.6015186891
  0
LINE
  5
561
100
AcDbEntity
  8
0
100
AcDbLine
 62
7
  6
CONTINUOUS
 10
6.6990881275
 20
15.7269520542
 11
6.6992739933
 21
15.7541088614
  0
LINE
  5
562
100
AcDbEntity
  8
0
100
AcDbLine
 62
7
  6
CONTINUOUS
 10
6.7965023914
 20
14.3836281981
 11
6.7950372702
 21
14.2000029757
  0
LINE
  5
563
100
AcDbEntity
  8
0
100
AcDbLine
 62
7
  6
CONTINUOUS
 10
6.6992739933
 20
15.7541088614
 11
6.6994368414
 21
15.7669928714
  0
LINE
  5
564
100
AcDbEntity
  8
0
100
AcDbLine
 62
7
  6
CONTINUOUS
 10
6.7994761581
 20
14.6015186891
 11
6.7965023914
 21
14.3836281981
  0
LWPOLYLINE
  5
565
100
AcDbEntity
  8
0
100
AcDbPolyline
 62
7
  6
CONTINUOUS
 90
4
 70
0
 10
6.6994368414
 20
15.7669928714
 10
6.699566735
 20
15.774229626
 10
6.6996124161
 20
15.7757569256
 10
6.6996377759
 20
15.7760533959
  0
LINE
  5
566
100
AcDbEntity
  8
0
100
AcDbLine
 62
7
  6
CONTINUOUS
 10
7.0140422153
 20
13.6340869143
 11
7.0091568829
 21
13.4654974043
  0
LINE
  5
567
100
AcDbEntity
  8
DRAFT
100
AcDbLine
 62
7
  6
CONTINUOUS
 10
4.0415154698
 20
-20.0060689771
 11
4.0135191699
 21
-20.9320850844
  0
LINE
  5
568
100
AcDbEntity
  8
ASSI
100
AcDbLine
 62
7
  6
CONTINUOUS
 10
4.0415154698
 20
-20.0060689771
 11
4.0135191699
 21
-20.9320850844
  0
LWPOLYLINE
  5
569
100
AcDbEntity
  8
0
100
AcDbPolyline
 62
250
  6
CONTINUOUS
 90
25
 70
0
 10
6.500000003
 20
13.6500000831
 10
6.4924815493
 20
13.4519873154
 10
6.4737568012
 20
13.2594701533
 10
6.4438257585
 20
13.0724485967
 10
6.4024279087
 20
12.8907151918
 10
6.3498237644
 20
12.7144773925
 10
6.2867948635
 20
12.5443575604
 10
6.2130296658
 20
12.3799567816
 10
6.1288397114
 20
12.2216739699
 10
6.0359411587
 20
12.0713282292
 10
5.9336987487
 20
11.9287573721
 10
5.8227477404
 20
11.7941235859
 10
5.7067100689
 20
11.6697325359
 10
5.5867163623
 20
11.55660307
 10
5.4616359926
 20
11.4537163403
 10
5.3316990109
 20
11.360321468
 10
5.1965123251
 20
11.2761977412
 10
5.0564690275
 20
11.2015658719
 10
4.9129784454
 20
11.1363371171
 10
4.7658607486
 20
11.0801949517
 10
4.6152957673
 20
11.0334559007
 10
4.46323232
 20
10.9969807969
 10
4.3103200126
 20
10.9710565842
 10
4.1559092391
 20
10.9553963186
 10
3.9999999995
 20
10.95
  0
LWPOLYLINE
  5
56A
100
AcDbEntity
  8
0
100
AcDbPolyline
 62
7
  6
CONTINUOUS
 90
10
 70
0
 10
6.7950333089
 20
13.6500014429
 10
6.7879798636
 20
13.4676222719
 10
6.7714136336
 20
13.2907816315
 10
6.7453346189
 20
13.1194795218
 10
6.7091198167
 20
12.9533570716
 10
6.6633922299
 20
12.792773152
 10
6.6100208664
 20
12.6388043766
 10
6.5496287289
 20
12.4918096163
 10
6.4815928148
 20
12.3514300002
 10
6.4059131241
 20
12.2176655281
  0
LINE
  5
56B
100
AcDbEntity
  8
DRAFT
100
AcDbLine
 62
7
  6
CONTINUOUS
 10
7.797027879
 20
21.2
 11
7.8502441328
 21
22.2
  0
LINE
  5
56C
100
AcDbEntity
  8
ASSI
100
AcDbLine
 62
7
  6
CONTINUOUS
 10
7.797027879
 20
21.2
 11
7.8502441328
 21
22.2
  0
LWPOLYLINE
  5
56D
100
AcDbEntity
  8
0
100
AcDbPolyline
 62
250
  6
CONTINUOUS
 90
10
 70
0
 10
6.6990881275
 20
15.7269552878
 10
6.6831449749
 20
15.5672431092
 10
6.6634627065
 20
15.4037142011
 10
6.6400413222
 20
15.2370683714
 10
6.6099545842
 20
15.0683171299
 10
6.5761287304
 20
14.8978210287
 10
6.5473424743
 20
14.7252351797
 10
6.5265220535
 20
14.5508319713
 10
6.5107412305
 20
14.3755508995
 10
6.500000005
 20
14.2000001286
  0
LWPOLYLINE
  5
56E
100
AcDbEntity
  8
0
100
AcDbPolyline
 62
7
  6
CONTINUOUS
 90
14
 70
0
 10
6.995072245
 20
13.2984612997
 10
6.9717883016
 20
13.1329786007
 10
6.9391745485
 20
12.9685460689
 10
6.8973614899
 20
12.8056669426
 10
6.8467406387
 20
12.6458509363
 10
6.7872314547
 20
12.4891265984
 10
6.7189144781
 20
12.3354653805
 10
6.6424228427
 20
12.1862913519
 10
6.5576792793
 20
12.0416471148
 10
6.4647610572
 20
11.901490067
 10
6.364533118
 20
11.7671164716
 10
6.2572837758
 20
11.6389584161
 10
6.1427247165
 20
11.516583813
 10
6.0208559402
 20
11.3999926621
  0
LWPOLYLINE
  5
56F
100
AcDbEntity
  8
0
100
AcDbPolyline
 62
7
  6
CONTINUOUS
 90
16
 70
0
 10
1.4435598846
 20
-4.4256641365
 10
1.260757807
 20
-4.5083988649
 10
1.0748612933
 20
-4.5793199718
 10
0.8858703434
 20
-4.6385100501
 10
0.6931990884
 20
-4.6862140205
 10
0.4974333973
 20
-4.7223437917
 10
0.3003308767
 20
-4.7464756764
 10
0.1016732824
 20
-4.7585164429
 10
-0.0983211414
 20
-4.7586296423
 10
-0.2972400553
 20
-4.74674797
 10
-0.4950120698
 20
-4.7226456847
 10
-0.6917085744
 20
-4.6864780348
 10
-0.8851313989
 20
-4.6387203194
 10
-1.0745478199
 20
-4.5794778319
 10
-1.2606905607
 20
-4.5084881301
 10
-1.4435596215
 20
-4.4256684226
  0
LWPOLYLINE
  5
570
100
AcDbEntity
  8
0
100
AcDbPolyline
 62
7
  6
CONTINUOUS
 90
7
 70
0
 10
-8.2159043801
 20
-7.9713939076
 10
-8.1832886349
 20
-7.9604152837
 10
-8.1476837285
 20
-7.9475483796
 10
-8.109089661
 20
-7.9327522057
 10
-8.0673493074
 20
-7.9158919488
 10
-8.0226197926
 20
-7.8970027667
 10
-7.9753724916
 20
-7.8763892127
  0
LWPOLYLINE
  5
571
100
AcDbEntity
  8
0
100
AcDbPolyline
 62
7
  6
CONTINUOUS
 90
19
 70
0
 10
2.1993809797
 20
5.9282999703
 10
2.1012037358
 20
5.9240105225
 10
2.0051756226
 20
5.9122685234
 10
1.9112966403
 20
5.8930740921
 10
1.8190631829
 20
5.8661770386
 10
1.7289788564
 20
5.8318280295
 10
1.6425544778
 20
5.79077855
 10
1.5598625088
 20
5.7429674913
 10
1.4808304878
 20
5.6884568078
 10
1.4067518472
 20
5.628182576
 10
1.3376457633
 20
5.5620410238
 10
1.2734930599
 20
5.4901370148
 10
1.215529641
 20
5.4137194654
 10
1.1638490679
 20
5.332736568
 10
1.1183577792
 20
5.2472412701
 10
1.0800109951
 20
5.1586393767
 10
1.0491271222
 20
5.067399736
 10
1.0253877537
 20
4.973054442
 10
1.0087928897
 20
4.8756040284
  0
LWPOLYLINE
  5
572
100
AcDbEntity
  8
0
100
AcDbPolyline
 62
7
  6
CONTINUOUS
 90
21
 70
0
 10
-0.4230974353
 20
5.9282999703
 10
-0.5211114602
 20
5.9241286027
 10
-0.6171899095
 20
5.9123796819
 10
-0.711332783
 20
5.8930533289
 10
-0.8041140225
 20
5.8659127669
 10
-0.8949596864
 20
5.8311952608
 10
-0.9821479492
 20
5.7896120822
 10
-1.0656691407
 20
5.7409476055
 10
-1.1455329311
 20
5.6854183428
 10
-1.2200465052
 20
5.624383742
 10
-1.2889202914
 20
5.5579543818
 10
-1.3524438614
 20
5.4860207248
 10
-1.4097931152
 20
5.4096119128
 10
-1.4610189141
 20
5.3284984154
 10
-1.5060703968
 20
5.2429109094
 10
-1.5439708804
 20
5.1545685833
 10
-1.5745453462
 20
5.0633953411
 10
-1.5979688129
 20
4.9694681723
 10
-1.6137896535
 20
4.8747354163
 10
-1.621850984
 20
4.779304123
 10
-1.6230432796
 20
4.725278876
  0
LINE
  5
573
100
AcDbEntity
  8
0
100
AcDbLine
 62
7
  6
CONTINUOUS
 10
1.0087928897
 20
4.8756040284
 11
2.1993809797
 21
4.8756040284
  0
LINE
  5
574
100
AcDbEntity
  8
0
100
AcDbLine
 62
7
  6
CONTINUOUS
 10
1.0087928897
 20
4.9044827207
 11
2.1993809797
 21
4.9044827207
  0
LWPOLYLINE
  5
575
100
AcDbEntity
  8
0
100
AcDbPolyline
 62
7
  6
CONTINUOUS
 90
13
 70
0
 10
-6.0322732007
 20
11.3999829639
 10
-5.8905189575
 20
11.2787438135
 10
-5.7426607604
 20
11.1671420658
 10
-5.5886986096
 20
11.0651777899
 10
-5.4279057769
 20
10.9725084786
 10
-5.2610089904
 20
10.8894766429
 10
-5.090188434
 20
10.8171098113
 10
-4.9156977356
 20
10.7555835259
 10
-4.7372832674
 20
10.7047220914
 10
-4.5563643296
 20
10.6650261535
 10
-4.3734140226
 20
10.6366625472
 10
-4.187959246
 20
10.6194643075
 10
-4.0
 20
10.6134313985
  0
LINE
  5
576
100
AcDbEntity
  8
0
100
AcDbLine
 62
250
  6
CONTINUOUS
 10
9.8473092998
 20
-7.756185338
 11
9.8442287302
 21
-7.7503580778
  0
LWPOLYLINE
  5
577
100
AcDbEntity
  8
0
100
AcDbPolyline
 62
7
  6
CONTINUOUS
 90
16
 70
0
 10
8.9747699264
 20
-4.3896876305
 10
8.9766071017
 20
-4.3934428164
 10
8.9810942817
 20
-4.397118316
 10
8.9881007947
 20
-4.4006766864
 10
8.9974087997
 20
-4.4040632851
 10
9.0088828871
 20
-4.4072697707
 10
9.0226108489
 20
-4.4103243169
 10
9.0385980487
 20
-4.4132071949
 10
9.0566531165
 20
-4.4158655169
 10
9.0766590561
 20
-4.4182687647
 10
9.0984733967
 20
-4.4203856547
 10
9.1218755035
 20
-4.4221815288
 10
9.1465887995
 20
-4.4236247167
 10
9.1723385126
 20
-4.4246908673
 10
9.1988623555
 20
-4.4253610501
 10
9.2258632079
 20
-4.4256194072
  0
LWPOLYLINE
  5
578
100
AcDbEntity
  8
0
100
AcDbPolyline
 62
7
  6
CONTINUOUS
 90
25
 70
0
 10
8.9405460012
 20
-7.6328325904
 10
8.9439399907
 20
-7.6428653466
 10
8.9478500845
 20
-7.6525837918
 10
8.9522762826
 20
-7.6619879259
 10
8.9572055636
 20
-7.6710869436
 10
8.9626509489
 20
-7.6798716503
 10
8.9686515028
 20
-7.6883144621
 10
8.9752034193
 20
-7.6964388248
 10
8.9823105043
 20
-7.7042212927
 10
8.9900232402
 20
-7.7115639441
 10
8.9983417233
 20
-7.7184813323
 10
9.0072658572
 20
-7.724958904
 10
9.0168458344
 20
-7.7308550781
 10
9.0270979375
 20
-7.7361870978
 10
9.0380058839
 20
-7.7409377198
 10
9.0495710189
 20
-7.7449136336
 10
9.0618056945
 20
-7.7481210237
 10
9.0746975586
 20
-7.7505537056
 10
9.0882108998
 20
-7.7519998156
 10
9.1023622591
 20
-7.7524674706
 10
9.1171350955
 20
-7.7519485536
 10
9.1324440747
 20
-7.7502068501
 10
9.148260752
 20
-7.747163622
 10
9.1646135722
 20
-7.7428976073
 10
9.1815025352
 20
-7.7374088061
  0
LWPOLYLINE
  5
579
100
AcDbEntity
  8
0
100
AcDbPolyline
 62
7
  6
CONTINUOUS
 90
10
 70
0
 10
8.9295733942
 20
-7.5618557622
 10
8.9298446402
 20
-7.5697242115
 10
8.9303385575
 20
-7.5776104913
 10
8.9310551461
 20
-7.5855146017
 10
8.9319753238
 20
-7.5934543618
 10
8.9331181727
 20
-7.6014119524
 10
8.9345409403
 20
-7.6093339163
 10
8.9362627087
 20
-7.6172024344
 10
8.9382643957
 20
-7.6250353258
 10
8.9405460012
 20
-7.6328325904
  0
LINE
  5
57A
100
AcDbEntity
  8
0
100
AcDbLine
 62
7
  6
CONTINUOUS
 10
7.0085377175
 20
15.5330053574
 11
7.007118368
 21
15.6033917881
  0
LINE
  5
57B
100
AcDbEntity
  8
0
100
AcDbLine
 62
7
  6
CONTINUOUS
 10
7.009738202
 20
15.4516083046
 11
7.0085377175
 21
15.5330053574
  0
LINE
  5
57C
100
AcDbEntity
  8
0
100
AcDbLine
 62
7
  6
CONTINUOUS
 10
7.0101626209
 20
15.2640079155
 11
7.007118368
 21
15.6033917881
  0
LINE
  5
57D
100
AcDbEntity
  8
0
100
AcDbLine
 62
7
  6
CONTINUOUS
 10
7.0119849992
 20
14.9771023276
 11
7.0110981983
 21
15.3113620077
  0
LINE
  5
57E
100
AcDbEntity
  8
0
100
AcDbLine
 62
7
  6
CONTINUOUS
 10
7.0157498708
 20
13.6342263181
 11
7.014042361
 21
13.9637400207
  0
LINE
  5
57F
100
AcDbEntity
  8
0
100
AcDbLine
 62
7
  6
CONTINUOUS
 10
8.8999885756
 20
12.1252412604
 11
8.8982209471
 21
13.4150443793
  0
LINE
  5
580
100
AcDbEntity
  8
0
100
AcDbLine
 62
7
  6
CONTINUOUS
 10
6.8
 20
15.6760312296
 11
6.8
 21
14.698618013
  0
LINE
  5
581
100
AcDbEntity
  8
0
100
AcDbLine
 62
7
  6
CONTINUOUS
 10
7.0140423725
 20
13.6340869143
 11
7.014042361
 21
13.9637400207
  0
LINE
  5
582
100
AcDbEntity
  8
0
100
AcDbLine
 62
250
  6
CONTINUOUS
 10
7.379449525
 20
-8.1090947899
 11
7.379449631
 21
-14.4006510421
  0
LINE
  5
583
100
AcDbEntity
  8
DRAFT
100
AcDbLine
 62
7
  6
CONTINUOUS
 10
8.15
 20
-21.1851643248
 11
8.15
 21
-22.1851643248
  0
LINE
  5
584
100
AcDbEntity
  8
ASSI
100
AcDbLine
 62
7
  6
CONTINUOUS
 10
8.15
 20
-21.1851643248
 11
8.15
 21
-22.1851643248
  0
LINE
  5
585
100
AcDbEntity
  8
DRAFT
100
AcDbLine
 62
7
  6
CONTINUOUS
 10
8.15
 20
21.1851643248
 11
8.15
 21
22.1851643248
  0
LINE
  5
586
100
AcDbEntity
  8
ASSI
100
AcDbLine
 62
7
  6
CONTINUOUS
 10
8.15
 20
21.1851643248
 11
8.15
 21
22.1851643248
  0
LINE
  5
587
100
AcDbEntity
  8
0
100
AcDbLine
 62
7
  6
CONTINUOUS
 10
8.1999999998
 20
-7.9709211052
 11
8.1999999998
 21
-8.0217928653
  0
LINE
  5
588
100
AcDbEntity
  8
0
100
AcDbLine
 62
7
  6
CONTINUOUS
 10
7.0118529267
 20
15.1571980866
 11
7.0119849992
 21
14.9771023276
  0
LINE
  5
589
100
AcDbEntity
  8
0
100
AcDbLine
 62
7
  6
CONTINUOUS
 10
8.8936439221
 20
14.9771003207
 11
8.8933314684
 21
15.2093284578
  0
LINE
  5
58A
100
AcDbEntity
  8
0
100
AcDbLine
 62
7
  6
CONTINUOUS
 10
8.8999891714
 20
12.1252412603
 11
8.8990000551
 21
7.8709388436
  0
LINE
  5
58B
100
AcDbEntity
  8
0
100
AcDbLine
 62
7
  6
CONTINUOUS
 10
6.7950457103
 20
14.2000029762
 11
6.7950333089
 21
13.6500014429
  0
LINE
  5
58C
100
AcDbEntity
  8
0
100
AcDbLine
 62
7
  6
CONTINUOUS
 10
8.8990000551
 20
7.8709388436
 11
8.8938156594
 21
2.5866562849
  0
LINE
  5
58D
100
AcDbEntity
  8
0
100
AcDbLine
 62
7
  6
CONTINUOUS
 10
8.8938156594
 20
2.5866562849
 11
8.8842012481
 21
-2.676778135
  0
LINE
  5
58E
100
AcDbEntity
  8
0
100
AcDbLine
 62
7
  6
CONTINUOUS
 10
8.8759542074
 20
-5.3175188818
 11
8.8842012481
 21
-2.676778135
  0
LWPOLYLINE
  5
58F
100
AcDbEntity
  8
0
100
AcDbPolyline
 62
7
  6
CONTINUOUS
 90
3
 70
0
 10
8.8662918935
 20
-6.3226278506
 10
8.8686006796
 20
-6.1348009322
 10
8.8759542074
 20
-5.3175188818
  0
LWPOLYLINE
  5
590
100
AcDbEntity
  8
0
100
AcDbPolyline
 62
250
  6
CONTINUOUS
 90
46
 70
0
 10
6.50765699
 20
-14.4006510656
 10
6.5046662199
 20
-14.4689121934
 10
6.4962320192
 20
-14.535553033
 10
6.4823300284
 20
-14.6005735842
 10
6.463085693
 20
-14.6640694489
 10
6.4382816751
 20
-14.7259450253
 10
6.4073521251
 20
-14.7859135083
 10
6.370581385
 20
-14.8440972874
 10
6.3275047258
 20
-14.900373973
 10
6.2763778228
 20
-14.9540895911
 10
6.2154069541
 20
-15.0060068682
 10
6.1460506132
 20
-15.0553630778
 10
6.0714861634
 20
-15.0992160665
 10
5.9920941252
 20
-15.1363407406
 10
5.9073865487
 20
-15.1679621937
 10
5.819386796
 20
-15.1948135539
 10
5.7287809326
 20
-15.2167939247
 10
5.6349535031
 20
-15.2340042026
 10
5.538043377
 20
-15.2474802045
 10
5.437038339
 20
-15.2574788398
 10
5.3331017284
 20
-15.2637431992
 10
5.2296838807
 20
-15.2665383715
 10
5.1269814104
 20
-15.2658307388
 10
5.02504253
 20
-15.261653919
 10
4.9270962001
 20
-15.2543738543
 10
4.8341944725
 20
-15.2440922959
 10
4.745409443
 20
-15.2307074925
 10
4.6609518048
 20
-15.214280133
 10
4.5812073932
 20
-15.1950814054
 10
4.5057953024
 20
-15.1728401217
 10
4.4337665062
 20
-15.1468034064
 10
4.36421041
 20
-15.1165400325
 10
4.2980209885
 20
-15.082481227
 10
4.2369229925
 20
-15.0451677959
 10
4.1811835566
 20
-15.0042486485
 10
4.1303886125
 20
-14.9600748755
 10
4.0851832487
 20
-14.9142405538
 10
4.0461412148
 20
-14.8676228843
 10
4.0125108977
 20
-14.8193446661
 10
3.9829609175
 20
-14.7683683744
 10
3.956798625
 20
-14.714463907
 10
3.9346229538
 20
-14.6578613661
 10
3.9170593799
 20
-14.5982135328
 10
3.9042894459
 20
-14.5354046676
 10
3.8960598264
 20
-14.4695505099
 10
3.8923508051
 20
-14.4006510599
  0
LINE
  5
591
100
AcDbEntity
  8
DRAFT
100
AcDbLine
 62
7
  6
CONTINUOUS
 10
14.2558829718
 20
22.1805062352
 11
13.945788487
 21
21.1651588757
  0
LINE
  5
592
100
AcDbEntity
  8
ASSI
100
AcDbLine
 62
7
  6
CONTINUOUS
 10
14.2558829718
 20
22.1805062352
 11
13.945788487
 21
21.1651588757
  0
LINE
  5
593
100
AcDbEntity
  8
RACCORDO
100
AcDbLine
 62
7
  6
CONTINUOUS
 10
19.7405830189
 20
0.4
 11
19.5932920569
 21
0.3248118626
  0
LINE
  5
594
100
AcDbEntity
  8
ASSI
100
AcDbLine
 62
7
  6
CONTINUOUS
 10
19.7405830189
 20
0.4
 11
19.5932920569
 21
0.3248118626
  0
LWPOLYLINE
  5
595
100
AcDbEntity
  8
0
100
AcDbPolyline
 62
7
  6
CONTINUOUS
 90
14
 70
0
 10
2.988482043
 20
-7.6420949912
 10
2.7548748997
 20
-7.7534126016
 10
2.7035275355
 20
-7.77761046
 10
2.6547730199
 20
-7.8002111773
 10
2.6086429118
 20
-7.8211273544
 10
2.5650956117
 20
-7.8404463904
 10
2.5238883743
 20
-7.8582990966
 10
2.4850559464
 20
-7.8747209178
 10
2.448619572
 20
-7.8896764094
 10
2.4143978185
 20
-7.903190049
 10
2.3824767845
 20
-7.9156272331
 10
2.3529041788
 20
-7.9266225652
 10
2.3255442265
 20
-7.935104334
 10
2.315783738
 20
-7.9375199503
  0
LWPOLYLINE
  5
596
100
AcDbEntity
  8
0
100
AcDbPolyline
 62
7
  6
CONTINUOUS
 90
4
 70
0
 10
3.2677341489
 20
-7.5127053879
 10
3.1940315401
 20
-7.5460143124
 10
3.1228577659
 20
-7.5787722171
 10
2.988482043
 20
-7.6420949912
  0
LWPOLYLINE
  5
597
100
AcDbEntity
  8
0
100
AcDbPolyline
 62
7
  6
CONTINUOUS
 90
3
 70
0
 10
2.956317813
 20
-7.6373167324
 10
2.4731569305
 20
-7.8531511758
 10
2.3792376075
 20
-7.8933582881
  0
LWPOLYLINE
  5
598
100
AcDbEntity
  8
0
100
AcDbPolyline
 62
7
  6
CONTINUOUS
 90
3
 70
0
 10
3.4218824588
 20
-7.4452783162
 10
3.343881412
 20
-7.478879206
 10
3.2677341489
 20
-7.5127053879
  0
LWPOLYLINE
  5
599
100
AcDbEntity
  8
0
100
AcDbPolyline
 62
7
  6
CONTINUOUS
 90
5
 70
0
 10
2.3792376075
 20
-7.8933582881
 10
2.2968030035
 20
-7.9270591702
 10
2.2254276642
 20
-7.9543495844
 10
2.1646672313
 20
-7.9749341911
 10
2.1260403909
 20
-7.9861024894
  0
LWPOLYLINE
  5
59A
100
AcDbEntity
  8
0
100
AcDbPolyline
 62
7
  6
CONTINUOUS
 90
4
 70
0
 10
3.3416974792
 20
-7.4757174725
 10
3.2494665093
 20
-7.512633964
 10
3.0994904787
 20
-7.57501559
 10
2.956317813
 20
-7.6373167324
  0
LWPOLYLINE
  5
59B
100
AcDbEntity
  8
0
100
AcDbPolyline
 62
7
  6
CONTINUOUS
 90
3
 70
0
 10
3.564776901
 20
-7.3909384887
 10
3.4060133522
 20
-7.4506045712
 10
3.3416974792
 20
-7.4757174725
  0
LINE
  5
59C
100
AcDbEntity
  8
0
100
AcDbLine
 62
7
  6
CONTINUOUS
 10
-3.425
 20
6.860254706
 11
-7.925
 21
6.860254706
  0
LINE
  5
59D
100
AcDbEntity
  8
0
100
AcDbLine
 62
7
  6
CONTINUOUS
 10
-7.925
 20
6.8957839611
 11
-3.425
 21
6.8957839611
  0
LINE
  5
59E
100
AcDbEntity
  8
0
100
AcDbLine
 62
7
  6
CONTINUOUS
 10
-4.6580393992
 20
7.5194801825
 11
-4.9371976569
 21
7.5194801825
  0
LINE
  5
59F
100
AcDbEntity
  8
0
100
AcDbLine
 62
7
  6
CONTINUOUS
 10
-5.8000504536
 20
7.5194801825
 11
-7.2465977891
 21
7.5194801825
  0
LINE
  5
5A0
100
AcDbEntity
  8
0
100
AcDbLine
 62
7
  6
CONTINUOUS
 10
-6.9674395314
 20
7.7491398461
 11
-5.8000504536
 21
7.7491398461
  0
LINE
  5
5A1
100
AcDbEntity
  8
0
100
AcDbLine
 62
7
  6
CONTINUOUS
 10
-6.9674395314
 20
7.7846998931
 11
-5.8000504536
 21
7.7846998931
  0
LINE
  5
5A2
100
AcDbEntity
  8
0
100
AcDbLine
 62
7
  6
CONTINUOUS
 10
-5.9269405707
 20
8.4385360929
 11
-6.9674395314
 21
8.4385360929
  0
LINE
  5
5A3
100
AcDbEntity
  8
0
100
AcDbLine
 62
7
  6
CONTINUOUS
 10
-6.9674395314
 20
8.6684740941
 11
-5.9269405707
 21
8.6684740941
  0
LINE
  5
5A4
100
AcDbEntity
  8
0
100
AcDbLine
 62
7
  6
CONTINUOUS
 10
-6.9674395314
 20
8.7040685346
 11
-5.9269405707
 21
8.7040685346
  0
LINE
  5
5A5
100
AcDbEntity
  8
RACCORDO
100
AcDbLine
 62
7
  6
CONTINUOUS
 10
19.5932920569
 20
-0.3248118626
 11
19.7405830189
 21
-0.4
  0
LINE
  5
5A6
100
AcDbEntity
  8
ASSI
100
AcDbLine
 62
7
  6
CONTINUOUS
 10
19.5932920569
 20
-0.3248118626
 11
19.7405830189
 21
-0.4
  0
LINE
  5
5A7
100
AcDbEntity
  8
DRAFT
100
AcDbLine
 62
7
  6
CONTINUOUS
 10
13.945788487
 20
-21.1651588757
 11
14.2558829718
 21
-22.1805062352
  0
LINE
  5
5A8
100
AcDbEntity
  8
ASSI
100
AcDbLine
 62
7
  6
CONTINUOUS
 10
13.945788487
 20
-21.1651588757
 11
14.2558829718
 21
-22.1805062352
  0
LWPOLYLINE
  5
5A9
100
AcDbEntity
  8
0
100
AcDbPolyline
 62
250
  6
CONTINUOUS
 90
16
 70
0
 10
9.8577456979
 20
17.0116144316
 10
9.8563902427
 20
17.0374964477
 10
9.8523914738
 20
17.0629564946
 10
9.8458366428
 20
17.0877308425
 10
9.8368972527
 20
17.1114352622
 10
9.825676345
 20
17.1339863373
 10
9.8120725934
 20
17.1555369266
 10
9.7960223646
 20
17.1759624128
 10
9.7777226194
 20
17.1948147186
 10
9.7574246529
 20
17.2117343057
 10
9.7353323394
 20
17.2264908433
 10
9.7116619278
 20
17.2388837941
 10
9.6867730938
 20
17.2486915546
 10
9.6609852419
 20
17.2557834456
 10
9.6345549973
 20
17.260084245
 10
9.6077839178
 20
17.2615339752
  0
LWPOLYLINE
  5
5AA
100
AcDbEntity
  8
0
100
AcDbPolyline
 62
7
  6
CONTINUOUS
 90
9
 70
0
 10
9.5628625327
 20
-7.5366285123
 10
9.5665552964
 20
-7.6435977802
 10
9.5703324769
 20
-7.7371016027
 10
9.5741949756
 20
-7.8168041681
 10
9.5781418911
 20
-7.8824183709
 10
9.582131927
 20
-7.9337095315
 10
9.5861513177
 20
-7.9704882079
 10
9.5902138288
 20
-7.99261412
 10
9.5943193998
 20
-8.0
  0
LINE
  5
5AB
100
AcDbEntity
  8
0
100
AcDbLine
 62
250
  6
CONTINUOUS
 10
9.8128123027
 20
-7.3153030723
 11
9.805817173
 21
-7.077964981
  0
LINE
  5
5AC
100
AcDbEntity
  8
0
100
AcDbLine
 62
7
  6
CONTINUOUS
 10
9.5558473291
 20
-7.2838452867
 11
9.5628625327
 21
-7.5366285123
  0
LINE
  5
5AD
100
AcDbEntity
  8
0
100
AcDbLine
 62
250
  6
CONTINUOUS
 10
9.805817173
 20
-7.077964981
 11
9.7993515621
 21
-6.7943980001
  0
LINE
  5
5AE
100
AcDbEntity
  8
0
100
AcDbLine
 62
7
  6
CONTINUOUS
 10
9.5493601665
 20
-6.9823222998
 11
9.5558473291
 21
-7.2838452867
  0
LINE
  5
5AF
100
AcDbEntity
  8
0
100
AcDbLine
 62
7
  6
CONTINUOUS
 10
8.8901962855
 20
15.5329896527
 11
8.8887775003
 21
15.6033505801
  0
LINE
  5
5B0
100
AcDbEntity
  8
0
100
AcDbLine
 62
250
  6
CONTINUOUS
 10
9.7993515621
 20
-6.7943980001
 11
9.7908710299
 21
-6.2920383014
  0
LINE
  5
5B1
100
AcDbEntity
  8
0
100
AcDbLine
 62
7
  6
CONTINUOUS
 10
9.5408470106
 20
-6.4480673751
 11
9.5493601665
 21
-6.9823222998
  0
LINE
  5
5B2
100
AcDbEntity
  8
0
100
AcDbLine
 62
7
  6
CONTINUOUS
 10
8.8913964913
 20
15.4516021417
 11
8.8901962855
 21
15.5329896527
  0
LINE
  5
5B3
100
AcDbEntity
  8
0
100
AcDbLine
 62
250
  6
CONTINUOUS
 10
9.7908710299
 20
-6.2920383014
 11
9.7840770223
 21
-5.711216045
  0
LINE
  5
5B4
100
AcDbEntity
  8
0
100
AcDbLine
 62
7
  6
CONTINUOUS
 10
8.9855932735
 20
15.8846820113
 11
8.9909926441
 21
15.3657169729
  0
LINE
  5
5B5
100
AcDbEntity
  8
0
100
AcDbLine
 62
7
  6
CONTINUOUS
 10
9.5321647918
 20
-5.609577329
 11
9.5408470106
 21
-6.4480673751
  0
LINE
  5
5B6
100
AcDbEntity
  8
0
100
AcDbLine
 62
7
  6
CONTINUOUS
 10
8.892756406
 20
15.3113482771
 11
8.8913964913
 21
15.4516021417
  0
LINE
  5
5B7
100
AcDbEntity
  8
0
100
AcDbLine
 62
7
  6
CONTINUOUS
 10
9.2427109213
 20
15.2365546949
 11
9.237083979
 21
15.8925510368
  0
LINE
  5
5B8
100
AcDbEntity
  8
0
100
AcDbLine
 62
250
  6
CONTINUOUS
 10
9.7840770223
 20
-5.711216045
 11
9.7780132987
 21
-4.8471954061
  0
LINE
  5
5B9
100
AcDbEntity
  8
0
100
AcDbLine
 62
7
  6
CONTINUOUS
 10
8.8933314684
 20
15.2093284578
 11
8.892756406
 21
15.3113482771
  0
LINE
  5
5BA
100
AcDbEntity
  8
0
100
AcDbLine
 62
7
  6
CONTINUOUS
 10
8.8982209471
 20
13.4150443793
 11
8.8957009677
 21
13.9637400207
  0
LINE
  5
5BB
100
AcDbEntity
  8
0
100
AcDbLine
 62
7
  6
CONTINUOUS
 10
8.9909926441
 20
15.3657169729
 11
8.9948986151
 21
14.6379931382
  0
LINE
  5
5BC
100
AcDbEntity
  8
0
100
AcDbLine
 62
7
  6
CONTINUOUS
 10
9.5262198771
 20
-4.4256489612
 11
9.5321647918
 21
-5.609577329
  0
LINE
  5
5BD
100
AcDbEntity
  8
0
100
AcDbLine
 62
250
  6
CONTINUOUS
 10
9.7780132987
 20
-4.8471954061
 11
9.7684915283
 21
-0.8965374195
  0
LINE
  5
5BE
100
AcDbEntity
  8
0
100
AcDbLine
 62
7
  6
CONTINUOUS
 10
9.5127488744
 20
2.5868145058
 11
9.526219728
 21
-4.4256528305
  0
LINE
  5
5BF
100
AcDbEntity
  8
0
100
AcDbLine
 62
7
  6
CONTINUOUS
 10
9.2456651752
 20
14.3309841932
 11
9.2427109213
 21
15.2365546949
  0
LINE
  5
5C0
100
AcDbEntity
  8
0
100
AcDbLine
 62
250
  6
CONTINUOUS
 10
9.7684915283
 20
-0.8965374195
 11
9.7603706132
 21
4.3631042809
  0
LINE
  5
5C1
100
AcDbEntity
  8
0
100
AcDbLine
 62
250
  6
CONTINUOUS
 10
9.7603706132
 20
4.3631042809
 11
9.7566738767
 21
9.6388667911
  0
LWPOLYLINE
  5
5C2
100
AcDbEntity
  8
0
100
AcDbPolyline
 62
7
  6
CONTINUOUS
 90
3
 70
0
 10
9.5065523212
 20
11.3999999917
 10
9.5068435254
 20
9.6355433707
 10
9.5127488744
 20
2.5868145058
  0
LINE
  5
5C3
100
AcDbEntity
  8
0
100
AcDbLine
 62
250
  6
CONTINUOUS
 10
9.2456722125
 20
14.1806944911
 11
9.2456744765
 21
11.3999999921
  0
LINE
  5
5C4
100
AcDbEntity
  8
0
100
AcDbLine
 62
7
  6
CONTINUOUS
 10
9.2456651752
 20
14.3309841932
 11
9.2456699485
 21
14.1806989902
  0
LINE
  5
5C5
100
AcDbEntity
  8
0
100
AcDbLine
 62
250
  6
CONTINUOUS
 10
9.5065173327
 20
14.1807034889
 11
9.5065173327
 21
11.399999992
  0
LINE
  5
5C6
100
AcDbEntity
  8
0
100
AcDbLine
 62
7
  6
CONTINUOUS
 10
10.0
 20
-19.1
 11
10.0
 21
-18.9
  0
LINE
  5
5C7
100
AcDbEntity
  8
0
100
AcDbLine
 62
7
  6
CONTINUOUS
 10
10.0
 20
18.9
 11
10.0
 21
19.1
  0
LINE
  5
5C8
100
AcDbEntity
  8
0
100
AcDbLine
 62
7
  6
CONTINUOUS
 10
8.9948986151
 20
14.6379931382
 11
8.9952766786
 21
9.6395528422
  0
LINE
  5
5C9
100
AcDbEntity
  8
0
100
AcDbLine
 62
7
  6
CONTINUOUS
 10
8.9952766786
 20
9.6395528422
 11
8.9915687873
 21
4.3627513389
  0
LINE
  5
5CA
100
AcDbEntity
  8
0
100
AcDbLine
 62
7
  6
CONTINUOUS
 10
9.2415606303
 20
4.3377398101
 11
9.2455821216
 21
11.3837874054
  0
LINE
  5
5CB
100
AcDbEntity
  8
0
100
AcDbLine
 62
7
  6
CONTINUOUS
 10
8.9915687873
 20
4.3627513389
 11
8.983407017
 21
-0.8977510341
  0
LINE
  5
5CC
100
AcDbEntity
  8
0
100
AcDbLine
 62
7
  6
CONTINUOUS
 10
9.2299936291
 20
-2.6792970379
 11
9.2415606303
 21
4.3377398101
  0
LINE
  5
5CD
100
AcDbEntity
  8
0
100
AcDbLine
 62
7
  6
CONTINUOUS
 10
9.2456283504
 20
11.3999999921
 11
9.2455821216
 21
11.3837874054
  0
LINE
  5
5CE
100
AcDbEntity
  8
0
100
AcDbLine
 62
250
  6
CONTINUOUS
 10
9.7566738767
 20
9.6388667911
 11
9.757328213
 21
14.7094090424
  0
LINE
  5
5CF
100
AcDbEntity
  8
0
100
AcDbLine
 62
7
  6
CONTINUOUS
 10
9.5064700819
 20
14.1807034934
 11
9.5080345814
 21
14.9451462006
  0
LINE
  5
5D0
100
AcDbEntity
  8
0
100
AcDbLine
 62
250
  6
CONTINUOUS
 10
9.8505725321
 20
15.8859806627
 11
9.8473092998
 21
-7.756185338
  0
LINE
  5
5D1
100
AcDbEntity
  8
0
100
AcDbLine
 62
7
  6
CONTINUOUS
 10
8.983407017
 20
-0.8977510341
 11
8.9737141117
 21
-4.7986859183
  0
LINE
  5
5D2
100
AcDbEntity
  8
0
100
AcDbLine
 62
7
  6
CONTINUOUS
 10
9.2217707063
 20
-5.3821508074
 11
9.2299936291
 21
-2.6792970379
  0
LINE
  5
5D3
100
AcDbEntity
  8
0
100
AcDbLine
 62
250
  6
CONTINUOUS
 10
9.757328213
 20
14.7094090424
 11
9.7612293928
 21
15.3788825007
  0
LINE
  5
5D4
100
AcDbEntity
  8
0
100
AcDbLine
 62
250
  6
CONTINUOUS
 10
9.8577456975
 20
17.0116155718
 11
9.8505725321
 21
15.8859806627
  0
LINE
  5
5D5
100
AcDbEntity
  8
0
100
AcDbLine
 62
7
  6
CONTINUOUS
 10
8.9737141117
 20
-4.7986859183
 11
8.9685235993
 21
-5.5786511295
  0
LINE
  5
5D6
100
AcDbEntity
  8
0
100
AcDbLine
 62
7
  6
CONTINUOUS
 10
9.5080345814
 20
14.9451462006
 11
9.5126613391
 21
15.65852462
  0
LINE
  5
5D7
100
AcDbEntity
  8
0
100
AcDbLine
 62
7
  6
CONTINUOUS
 10
9.2139344647
 20
-6.2504281975
 11
9.2217707063
 21
-5.3821508074
  0
LINE
  5
5D8
100
AcDbEntity
  8
0
100
AcDbLine
 62
250
  6
CONTINUOUS
 10
9.7612293928
 20
15.3788825007
 11
9.7660387164
 21
15.8311371067
  0
LINE
  5
5D9
100
AcDbEntity
  8
0
100
AcDbLine
 62
7
  6
CONTINUOUS
 10
8.9685235993
 20
-5.5786511295
 11
8.9608412268
 21
-6.2793645958
  0
LINE
  5
5DA
100
AcDbEntity
  8
0
100
AcDbLine
 62
7
  6
CONTINUOUS
 10
9.5126613391
 20
15.65852462
 11
9.5179592396
 21
16.1317912054
  0
LINE
  5
5DB
100
AcDbEntity
  8
0
100
AcDbLine
 62
7
  6
CONTINUOUS
 10
9.2059073763
 20
-6.8144722094
 11
9.2139344647
 21
-6.2504281975
  0
LINE
  5
5DC
100
AcDbEntity
  8
0
100
AcDbLine
 62
7
  6
CONTINUOUS
 10
9.5179592396
 20
16.1317912054
 11
9.5222519812
 21
16.4080089699
  0
LINE
  5
5DD
100
AcDbEntity
  8
0
100
AcDbLine
 62
7
  6
CONTINUOUS
 10
8.8583265523
 20
-6.8388500507
 11
8.8662918935
 21
-6.3226278506
  0
LINE
  5
5DE
100
AcDbEntity
  8
0
100
AcDbLine
 62
7
  6
CONTINUOUS
 10
8.9608412268
 20
-6.2793645958
 11
8.9536091373
 21
-6.7340485829
  0
LINE
  5
5DF
100
AcDbEntity
  8
0
100
AcDbLine
 62
250
  6
CONTINUOUS
 10
9.7660387164
 20
15.8311371067
 11
9.772269224
 21
16.2220782268
  0
LINE
  5
5E0
100
AcDbEntity
  8
0
100
AcDbLine
 62
7
  6
CONTINUOUS
 10
9.1996774895
 20
-7.1389068467
 11
9.2059073763
 21
-6.8144722094
  0
LINE
  5
5E1
100
AcDbEntity
  8
0
100
AcDbLine
 62
7
  6
CONTINUOUS
 10
8.8522325561
 20
-7.1383715488
 11
8.8583265523
 21
-6.8388500507
  0
LINE
  5
5E2
100
AcDbEntity
  8
0
100
AcDbLine
 62
7
  6
CONTINUOUS
 10
9.5222519812
 20
16.4080089699
 11
9.527085871
 21
16.6474237191
  0
LINE
  5
5E3
100
AcDbEntity
  8
0
100
AcDbLine
 62
7
  6
CONTINUOUS
 10
8.9536091373
 20
-6.7340485829
 11
8.9481834294
 21
-6.9969498606
  0
LINE
  5
5E4
100
AcDbEntity
  8
0
100
AcDbLine
 62
250
  6
CONTINUOUS
 10
9.772269224
 20
16.2220782268
 11
9.7771043396
 21
16.4416796046
  0
LINE
  5
5E5
100
AcDbEntity
  8
0
100
AcDbLine
 62
7
  6
CONTINUOUS
 10
8.9481834294
 20
-6.9969498606
 11
8.9423442012
 21
-7.2241802608
  0
LWPOLYLINE
  5
5E6
100
AcDbEntity
  8
0
100
AcDbPolyline
 62
7
  6
CONTINUOUS
 90
9
 70
0
 10
9.527085871
 20
16.6474237191
 10
9.5323752644
 20
16.8460940032
 10
9.5351567777
 20
16.9290989283
 10
9.538016968
 20
17.0007406766
 10
9.5409573779
 20
17.0607178751
 10
9.5439496609
 20
17.1087809701
 10
9.546984368
 20
17.1447233074
 10
9.5500709483
 20
17.1683856769
 10
9.5532094015
 20
17.1796612752
  0
LWPOLYLINE
  5
5E7
100
AcDbEntity
  8
0
100
AcDbPolyline
 62
250
  6
CONTINUOUS
 90
9
 70
0
 10
9.7771043396
 20
16.4416796046
 10
9.782394075
 20
16.6238763101
 10
9.7851758617
 20
16.6999570968
 10
9.7880390722
 20
16.7655496101
 10
9.7909827069
 20
16.8207731443
 10
9.793971202
 20
16.8649137772
 10
9.7969927028
 20
16.8977335346
 10
9.8000590641
 20
16.9194703906
 10
9.8031702858
 20
16.9301243453
  0
LWPOLYLINE
  5
5E8
100
AcDbEntity
  8
0
100
AcDbPolyline
 62
7
  6
CONTINUOUS
 90
4
 70
0
 10
8.9423442012
 20
-7.2241802608
 10
8.9361751878
 20
-7.4131718825
 10
8.9329772652
 20
-7.492629756
 10
8.9297009977
 20
-7.5617419173
  0
LWPOLYLINE
  5
5E9
100
AcDbEntity
  8
0
100
AcDbPolyline
 62
7
  6
CONTINUOUS
 90
4
 70
0
 10
8.8385008704
 20
-7.61396966
 10
8.8421011953
 20
-7.5114787208
 10
8.8456050806
 20
-7.3975309475
 10
8.8522325561
 20
-7.1383715488
  0
LWPOLYLINE
  5
5EA
100
AcDbEntity
  8
0
100
AcDbPolyline
 62
7
  6
CONTINUOUS
 90
5
 70
0
 10
9.1815022267
 20
-7.7373594477
 10
9.1854141778
 20
-7.6438115044
 10
9.1891860905
 20
-7.5367819444
 10
9.1928179648
 20
-7.4166571875
 10
9.1996774895
 20
-7.1389068467
  0
LWPOLYLINE
  5
5EB
100
AcDbEntity
  8
0
100
AcDbPolyline
 62
250
  6
CONTINUOUS
 90
4
 70
0
 10
9.8473093232
 20
-7.756185338
 10
9.8459033477
 20
-7.7824725295
 10
9.8417957647
 20
-7.8081991101
 10
9.8351157792
 20
-7.8330988059
  0
LWPOLYLINE
  5
5EC
100
AcDbEntity
  8
0
100
AcDbPolyline
 62
7
  6
CONTINUOUS
 90
16
 70
0
 10
9.8442284693
 20
-7.7503588138
 10
9.8428080617
 20
-7.7765823789
 10
9.838652809
 20
-7.802480504
 10
9.8318184364
 20
-7.8277700922
 10
9.8223948288
 20
-7.8521655093
 10
9.8104918025
 20
-7.8754154389
 10
9.7962262829
 20
-7.897299856
 10
9.7797400478
 20
-7.9175935322
 10
9.7612218937
 20
-7.9360571707
 10
9.7408898208
 20
-7.9524748335
 10
9.7189797294
 20
-7.9666648307
 10
9.6957242028
 20
-7.9784851553
 10
9.6713633205
 20
-7.987816305
 10
9.646157055
 20
-7.9945577111
 10
9.6203849124
 20
-7.9986338298
 10
9.594327601
 20
-8.0000002021
  0
LWPOLYLINE
  5
5ED
100
AcDbEntity
  8
0
100
AcDbPolyline
 62
7
  6
CONTINUOUS
 90
4
 70
0
 10
8.8271512292
 20
-7.8516397879
 10
8.8310308824
 20
-7.783873246
 10
8.8348140962
 20
-7.70464987
 10
8.8385008704
 20
-7.61396966
  0
LWPOLYLINE
  5
5EE
100
AcDbEntity
  8
0
100
AcDbPolyline
 62
7
  6
CONTINUOUS
 90
10
 70
0
 10
8.2195303662
 20
-7.9709211052
 10
8.2185906237
 20
-7.9768591378
 10
8.217645819
 20
-7.9821363707
 10
8.216695952
 20
-7.9867528037
 10
8.2157409249
 20
-7.9907297176
 10
8.2147808357
 20
-7.9940458316
 10
8.2138159775
 20
-7.996637304
 10
8.2128464482
 20
-7.9984828542
 10
8.21187215
 20
-7.9996037628
 10
8.2108931128
 20
-8.0000000287
  0
LINE
  5
5EF
100
AcDbEntity
  8
DRAFT
100
AcDbLine
 62
7
  6
CONTINUOUS
 10
18.2374998327
 20
21.2
 11
18.2245711414
 21
21.1651588757
  0
LINE
  5
5F0
100
AcDbEntity
  8
ASSI
100
AcDbLine
 62
7
  6
CONTINUOUS
 10
18.2374998327
 20
21.2
 11
18.2245711414
 21
21.1651588757
  0
LINE
  5
5F1
100
AcDbEntity
  8
DRAFT
100
AcDbLine
 62
7
  6
CONTINUOUS
 10
17.748694703
 20
18.867094756
 11
17.8109317497
 21
19.0173482781
  0
LINE
  5
5F2
100
AcDbEntity
  8
ASSI
100
AcDbLine
 62
7
  6
CONTINUOUS
 10
17.748694703
 20
18.867094756
 11
17.8109317497
 21
19.0173482781
  0
LINE
  5
5F3
100
AcDbEntity
  8
0
100
AcDbLine
 62
7
  6
CONTINUOUS
 10
8.199876512
 20
-8.0217928662
 11
8.2108930829
 21
-8.0000000594
  0
LINE
  5
5F4
100
AcDbEntity
  8
DRAFT
100
AcDbLine
 62
7
  6
CONTINUOUS
 10
-4.5169648205
 20
-18.8430942654
 11
-4.6890682503
 21
-19.0173482781
  0
LINE
  5
5F5
100
AcDbEntity
  8
ASSI
100
AcDbLine
 62
7
  6
CONTINUOUS
 10
-4.5169648205
 20
-18.8430942654
 11
-4.6890682503
 21
-19.0173482781
  0
LINE
  5
5F6
100
AcDbEntity
  8
DRAFT
100
AcDbLine
 62
7
  6
CONTINUOUS
 10
-4.5169648205
 20
-18.6327542795
 11
-4.751305297
 21
-18.867094756
  0
LINE
  5
5F7
100
AcDbEntity
  8
ASSI
100
AcDbLine
 62
7
  6
CONTINUOUS
 10
-4.5169648205
 20
-18.6327542795
 11
-4.751305297
 21
-18.867094756
  0
LINE
  5
5F8
100
AcDbEntity
  8
DRAFT
100
AcDbLine
 62
7
  6
CONTINUOUS
 10
20.7603594806
 20
-0.4
 11
20.9261825974
 21
-0.317094756
  0
LINE
  5
5F9
100
AcDbEntity
  8
ASSI
100
AcDbLine
 62
7
  6
CONTINUOUS
 10
20.7603594806
 20
-0.4
 11
20.9261825974
 21
-0.317094756
  0
LWPOLYLINE
  5
5FA
100
AcDbEntity
  8
0
100
AcDbPolyline
 62
7
  6
CONTINUOUS
 90
10
 70
0
 10
9.1815025352
 20
-7.7374088061
 10
9.1423986741
 20
-7.7517256315
 10
9.1032261037
 20
-7.7656368532
 10
9.0639848241
 20
-7.7791424714
 10
9.0246727249
 20
-7.7922431791
 10
8.9852919165
 20
-7.8049382832
 10
8.9458487296
 20
-7.8172257041
 10
8.9063452746
 20
-7.8291047486
 10
8.8667794411
 20
-7.8405761099
 10
8.8271512292
 20
-7.8516397879
  0
LWPOLYLINE
  5
5FB
100
AcDbEntity
  8
0
100
AcDbPolyline
 62
7
  6
CONTINUOUS
 90
13
 70
0
 10
4.0
 20
10.6134313985
 10
4.1900744905
 20
10.6195165657
 10
4.3772542416
 20
10.6369294956
 10
4.5615392534
 20
10.665670225
 10
4.7433963009
 20
10.7059789349
 10
4.9223586091
 20
10.7576155782
 10
5.0970258526
 20
10.8198598668
 10
5.2676681291
 20
10.8930136633
 10
5.434015341
 20
10.9767752577
 10
5.5938568701
 20
11.0695189676
 10
5.7464558437
 20
11.1707028912
 10
5.8925491345
 20
11.2808689149
 10
6.0321367424
 20
11.40001697
  0
LINE
  5
5FC
100
AcDbEntity
  8
0
100
AcDbLine
 62
7
  6
CONTINUOUS
 10
-4.0235888134
 20
9.2819830565
 11
-4.6580393992
 21
9.2819830565
  0
LINE
  5
5FD
100
AcDbEntity
  8
0
100
AcDbLine
 62
7
  6
CONTINUOUS
 10
-4.9371976569
 20
9.2819830565
 11
-6.9674395314
 21
9.2819830565
  0
LINE
  5
5FE
100
AcDbEntity
  8
0
100
AcDbLine
 62
7
  6
CONTINUOUS
 10
-7.2465977891
 20
9.5121769306
 11
-4.0235888134
 21
9.5121769306
  0
LINE
  5
5FF
100
AcDbEntity
  8
0
100
AcDbLine
 62
7
  6
CONTINUOUS
 10
-7.2465977891
 20
9.5478052248
 11
-4.0235888134
 21
9.5478052248
  0
LINE
  5
600
100
AcDbEntity
  8
0
100
AcDbLine
 62
7
  6
CONTINUOUS
 10
-7.925
 20
10.1318587994
 11
-3.425
 21
10.1318587994
  0
LINE
  5
601
100
AcDbEntity
  8
0
100
AcDbLine
 62
7
  6
CONTINUOUS
 10
-4.0
 20
10.6134313985
 11
4.0
 21
10.6134313985
  0
LINE
  5
602
100
AcDbEntity
  8
0
100
AcDbLine
 62
7
  6
CONTINUOUS
 10
-4.0
 20
10.622007317
 11
4.0
 21
10.622007317
  0
LINE
  5
603
100
AcDbEntity
  8
0
100
AcDbLine
 62
7
  6
CONTINUOUS
 10
4.0000005234
 20
10.85
 11
-3.9999999989
 21
10.85
  0
LINE
  5
604
100
AcDbEntity
  8
0
100
AcDbLine
 62
250
  6
CONTINUOUS
 10
3.9999999995
 20
10.95
 11
-3.9999999985
 21
10.95
  0
LWPOLYLINE
  5
605
100
AcDbEntity
  8
0
100
AcDbPolyline
 62
7
  6
CONTINUOUS
 90
13
 70
0
 10
-4.0
 20
10.622007317
 10
-4.1883218356
 20
10.6281473446
 10
-4.3740317371
 20
10.6454490877
 10
-4.5571297045
 20
10.6739125823
 10
-4.7383083825
 20
10.7138546729
 10
-4.9168751264
 20
10.7649586449
 10
-5.0907520024
 20
10.8262742098
 10
-5.2596273573
 20
10.8977333825
 10
-5.4238128443
 20
10.9794042885
 10
-5.5821654891
 20
11.0705407766
 10
-5.7343043002
 20
11.1708941294
 10
-5.8806102691
 20
11.2807130607
 10
-6.0210833958
 20
11.3999975046
  0
LWPOLYLINE
  5
606
100
AcDbEntity
  8
0
100
AcDbPolyline
 62
250
  6
CONTINUOUS
 90
25
 70
0
 10
-3.9999999985
 20
10.95
 10
-4.1656415887
 20
10.9566989278
 10
-4.3279731416
 20
10.9740130149
 10
-4.4869946573
 20
11.0019422612
 10
-4.643139911
 20
11.0409659069
 10
-4.7959751275
 20
11.090604712
 10
-4.9441989813
 20
11.1494209559
 10
-5.0875352123
 20
11.2169028697
 10
-5.2262600806
 20
11.2935622225
 10
-5.3599010421
 20
11.3794966013
 10
-5.488438605
 20
11.4746306799
 10
-5.611892261
 20
11.5790397846
 10
-5.7298479416
 20
11.6930474802
 10
-5.8432552749
 20
11.8175863812
 10
-5.9511646327
 20
11.9517238731
 10
-6.0503130623
 20
12.0929856783
 10
-6.1399960832
 20
12.2409132081
 10
-6.2209181758
 20
12.3959650511
 10
-6.2919298288
 20
12.5570426953
 10
-6.3529286678
 20
12.723700451
 10
-6.4040170673
 20
12.8963840079
 10
-6.4443526396
 20
13.0753319224
 10
-6.4736545891
 20
13.2606237136
 10
-6.4922037115
 20
13.4521798625
 10
-6.5000000069
 20
13.6500003691
  0
LINE
  5
607
100
AcDbEntity
  8
DRAFT
100
AcDbLine
 62
7
  6
CONTINUOUS
 10
20.9261825974
 20
0.317094756
 11
20.7603594806
 21
0.4
  0
LINE
  5
608
100
AcDbEntity
  8
ASSI
100
AcDbLine
 62
7
  6
CONTINUOUS
 10
20.9261825974
 20
0.317094756
 11
20.7603594806
 21
0.4
  0
LWPOLYLINE
  5
609
100
AcDbEntity
  8
0
100
AcDbPolyline
 62
7
  6
CONTINUOUS
 90
12
 70
0
 10
-8.9855932971
 20
15.8846819787
 10
-8.9865469794
 20
15.885219261
 10
-8.9884634191
 20
15.8857432658
 10
-8.9913426164
 20
15.8862539931
 10
-8.9952292286
 20
15.88675281
 10
-9.0000785983
 20
15.8872383493
 10
-9.0057567537
 20
15.8877065095
 10
-9.0122789837
 20
15.8881573184
 10
-9.0196299994
 20
15.8885907482
 10
-9.0276299623
 20
15.8890026143
 10
-9.036270782
 20
15.8893918898
 10
-9.0553436952
 20
15.8901046452
  0
LWPOLYLINE
  5
60A
100
AcDbEntity
  8
0
100
AcDbPolyline
 62
250
  6
CONTINUOUS
 90
13
 70
0
 10
-9.6077835579
 20
17.2615339754
 10
-9.6170515213
 20
17.2675754964
 10
-9.6410222035
 20
17.2737437299
 10
-9.6796956046
 20
17.2800386761
 10
-9.7325442054
 20
17.2864776104
 10
-9.8000955251
 20
17.2930432573
 10
-9.8839321212
 20
17.2996837901
 10
-9.9847249618
 20
17.3064124062
 10
-10.1018030788
 20
17.3132159081
 10
-10.2347361249
 20
17.3200028777
 10
-10.3834920064
 20
17.3267448192
 10
-10.5481028171
 20
17.3334702283
 10
-10.9246610921
 20
17.3468568172
  0
LINE
  5
60B
100
AcDbEntity
  8
DRAFT
100
AcDbLine
 62
7
  6
CONTINUOUS
 10
-4.751305297
 20
18.867094756
 11
-4.5169648205
 21
18.6327542795
  0
LINE
  5
60C
100
AcDbEntity
  8
ASSI
100
AcDbLine
 62
7
  6
CONTINUOUS
 10
-4.751305297
 20
18.867094756
 11
-4.5169648205
 21
18.6327542795
  0
LINE
  5
60D
100
AcDbEntity
  8
DRAFT
100
AcDbLine
 62
7
  6
CONTINUOUS
 10
-4.6890682503
 20
19.0173482781
 11
-4.5169648205
 21
18.8430942654
  0
LINE
  5
60E
100
AcDbEntity
  8
ASSI
100
AcDbLine
 62
7
  6
CONTINUOUS
 10
-4.6890682503
 20
19.0173482781
 11
-4.5169648205
 21
18.8430942654
  0
LINE
  5
60F
100
AcDbEntity
  8
DRAFT
100
AcDbLine
 62
7
  6
CONTINUOUS
 10
17.748694703
 20
-18.867094756
 11
17.8109317497
 21
-19.0173482781
  0
LINE
  5
610
100
AcDbEntity
  8
ASSI
100
AcDbLine
 62
7
  6
CONTINUOUS
 10
17.748694703
 20
-18.867094756
 11
17.8109317497
 21
-19.0173482781
  0
LINE
  5
611
100
AcDbEntity
  8
DRAFT
100
AcDbLine
 62
7
  6
CONTINUOUS
 10
18.2374998327
 20
-21.2
 11
18.2245711414
 21
-21.1651588757
  0
LINE
  5
612
100
AcDbEntity
  8
ASSI
100
AcDbLine
 62
7
  6
CONTINUOUS
 10
18.2374998327
 20
-21.2
 11
18.2245711414
 21
-21.1651588757
  0
LWPOLYLINE
  5
613
100
AcDbEntity
  8
0
100
AcDbPolyline
 62
250
  6
CONTINUOUS
 90
14
 70
0
 10
6.8
 20
15.6760312296
 10
6.7992873255
 20
15.6806721795
 10
6.7972847188
 20
15.6859342045
 10
6.7941903695
 20
15.6913557369
 10
6.7902258566
 20
15.6965516924
 10
6.7855584147
 20
15.7013164241
 10
6.7802348756
 20
15.7055912376
 10
6.774375525
 20
15.7092544569
 10
6.7680862232
 20
15.712224868
 10
6.761304491
 20
15.7145589074
 10
6.7542927743
 20
15.7163555164
 10
6.7471686651
 20
15.7177731337
 10
6.7396344914
 20
15.7189944869
 10
6.7232932136
 20
15.7212779521
  0
LINE
  5
614
100
AcDbEntity
  8
0
100
AcDbLine
 62
7
  6
CONTINUOUS
 10
13.15
 20
19.1
 11
13.15
 21
17.5116602902
  0
LINE
  5
615
100
AcDbEntity
  8
0
100
AcDbLine
 62
7
  6
CONTINUOUS
 10
13.15
 20
-17.5116602902
 11
13.15
 21
-19.1
  0
LINE
  5
616
100
AcDbEntity
  8
0
100
AcDbLine
 62
250
  6
CONTINUOUS
 10
12.8468482761
 20
-7.8676751314
 11
12.8477346218
 21
14.7859525299
  0
LINE
  5
617
100
AcDbEntity
  8
0
100
AcDbLine
 62
250
  6
CONTINUOUS
 10
12.8477346218
 20
14.7859525299
 11
12.8503226022
 21
15.164733741
  0
LINE
  5
618
100
AcDbEntity
  8
0
100
AcDbLine
 62
250
  6
CONTINUOUS
 10
12.8503226022
 20
15.164733741
 11
12.8545899602
 21
15.5307458028
  0
LINE
  5
619
100
AcDbEntity
  8
0
100
AcDbLine
 62
250
  6
CONTINUOUS
 10
12.8545899602
 20
15.5307458028
 11
12.8604641122
 21
15.8779817897
  0
LINE
  5
61A
100
AcDbEntity
  8
0
100
AcDbLine
 62
250
  6
CONTINUOUS
 10
12.8604641122
 20
15.8779817897
 11
12.8678242032
 21
16.2007444634
  0
LWPOLYLINE
  5
61B
100
AcDbEntity
  8
0
100
AcDbPolyline
 62
250
  6
CONTINUOUS
 90
14
 70
0
 10
12.8678242032
 20
16.2007444634
 10
12.8765799964
 20
16.4937322248
 10
12.8814253178
 20
16.627540389
 10
12.8865797625
 20
16.7521415359
 10
12.8919804882
 20
16.867030144
 10
12.8976305487
 20
16.9717278709
 10
12.9035268902
 20
17.0657979242
 10
12.9095975085
 20
17.1488542884
 10
12.915844601
 20
17.2205462416
 10
12.9222659704
 20
17.2805703403
 10
12.9287830212
 20
17.3286750418
 10
12.935369555
 20
17.3646512067
 10
12.9420517702
 20
17.3883369584
 10
12.9488296668
 20
17.3996230128
  0
LINE
  5
61C
100
AcDbEntity
  8
DRAFT
100
AcDbLine
 62
7
  6
CONTINUOUS
 10
4.2625001673
 20
-21.2
 11
4.2754288586
 21
-21.1651588757
  0
LINE
  5
61D
100
AcDbEntity
  8
ASSI
100
AcDbLine
 62
7
  6
CONTINUOUS
 10
4.2625001673
 20
-21.2
 11
4.2754288586
 21
-21.1651588757
  0
LWPOLYLINE
  5
61E
100
AcDbEntity
  8
0
100
AcDbPolyline
 62
250
  6
CONTINUOUS
 90
10
 70
0
 10
9.8351157792
 20
-7.8330988059
 10
9.8260799498
 20
-7.8567842461
 10
9.8148261328
 20
-7.8791954091
 10
9.8012681644
 20
-7.9005296012
 10
9.7853989595
 20
-7.9206452691
 10
9.7674087861
 20
-7.9391677293
 10
9.7474142283
 20
-7.9558803832
 10
9.72555808
 20
-7.9705610164
 10
9.7020641858
 20
-7.9829633089
 10
9.6772149093
 20
-7.9928628766
  0
LINE
  5
61F
100
AcDbEntity
  8
DRAFT
100
AcDbLine
 62
7
  6
CONTINUOUS
 10
4.7376754986
 20
-18.9
 11
4.6890682503
 21
-19.0173482781
  0
LINE
  5
620
100
AcDbEntity
  8
ASSI
100
AcDbLine
 62
7
  6
CONTINUOUS
 10
4.7376754986
 20
-18.9
 11
4.6890682503
 21
-19.0173482781
  0
LINE
  5
621
100
AcDbEntity
  8
DRAFT
100
AcDbLine
 62
7
  6
CONTINUOUS
 10
-3.7273243011
 20
-20.7603594806
 11
-3.8669648205
 21
-20.9
  0
LINE
  5
622
100
AcDbEntity
  8
ASSI
100
AcDbLine
 62
7
  6
CONTINUOUS
 10
-3.7273243011
 20
-20.7603594806
 11
-3.8669648205
 21
-20.9
  0
LINE
  5
623
100
AcDbEntity
  8
0
100
AcDbLine
 62
250
  6
CONTINUOUS
 10
-5.6665799634
 20
11.3999975054
 11
-6.0210833958
 21
11.3999980724
  0
LINE
  5
624
100
AcDbEntity
  8
0
100
AcDbLine
 62
250
  6
CONTINUOUS
 10
5.6665894874
 20
11.3999926621
 11
6.0208559402
 21
11.3999926621
  0
LINE
  5
625
100
AcDbEntity
  8
0
100
AcDbLine
 62
250
  6
CONTINUOUS
 10
-6.0322702623
 20
11.399979034
 11
-9.7564256949
 21
11.4000000002
  0
LINE
  5
626
100
AcDbEntity
  8
0
100
AcDbLine
 62
250
  6
CONTINUOUS
 10
6.0321367424
 20
11.4000117265
 11
9.7564260187
 21
11.4000000141
  0
LINE
  5
627
100
AcDbEntity
  8
0
100
AcDbLine
 62
250
  6
CONTINUOUS
 10
-8.899988295
 20
12.1252366627
 11
-6.6153975637
 21
12.1252348015
  0
LINE
  5
628
100
AcDbEntity
  8
0
100
AcDbLine
 62
250
  6
CONTINUOUS
 10
6.6153558217
 20
12.1252422075
 11
8.8999891714
 21
12.1252412603
  0
LINE
  5
629
100
AcDbEntity
  8
DRAFT
100
AcDbLine
 62
7
  6
CONTINUOUS
 10
-3.7273243011
 20
20.7603594806
 11
-3.8669648205
 21
20.9
  0
LINE
  5
62A
100
AcDbEntity
  8
ASSI
100
AcDbLine
 62
7
  6
CONTINUOUS
 10
-3.7273243011
 20
20.7603594806
 11
-3.8669648205
 21
20.9
  0
LINE
  5
62B
100
AcDbEntity
  8
DRAFT
100
AcDbLine
 62
7
  6
CONTINUOUS
 10
4.7376754986
 20
18.9
 11
4.6890682503
 21
19.0173482781
  0
LINE
  5
62C
100
AcDbEntity
  8
ASSI
100
AcDbLine
 62
7
  6
CONTINUOUS
 10
4.7376754986
 20
18.9
 11
4.6890682503
 21
19.0173482781
  0
LINE
  5
62D
100
AcDbEntity
  8
DRAFT
100
AcDbLine
 62
7
  6
CONTINUOUS
 10
4.2625001673
 20
21.2
 11
4.2754288586
 21
21.1651588757
  0
LINE
  5
62E
100
AcDbEntity
  8
ASSI
100
AcDbLine
 62
7
  6
CONTINUOUS
 10
4.2625001673
 20
21.2
 11
4.2754288586
 21
21.1651588757
  0
LINE
  5
62F
100
AcDbEntity
  8
DRAFT
100
AcDbLine
 62
7
  6
CONTINUOUS
 10
14.35
 20
-21.1851643248
 11
14.35
 21
-22.1851643248
  0
LINE
  5
630
100
AcDbEntity
  8
ASSI
100
AcDbLine
 62
7
  6
CONTINUOUS
 10
14.35
 20
-21.1851643248
 11
14.35
 21
-22.1851643248
  0
LINE
  5
631
100
AcDbEntity
  8
DRAFT
100
AcDbLine
 62
7
  6
CONTINUOUS
 10
14.35
 20
21.1851643248
 11
14.35
 21
22.1851643248
  0
LINE
  5
632
100
AcDbEntity
  8
ASSI
100
AcDbLine
 62
7
  6
CONTINUOUS
 10
14.35
 20
21.1851643248
 11
14.35
 21
22.1851643248
  0
LINE
  5
633
100
AcDbEntity
  8
DRAFT
100
AcDbLine
 62
7
  6
CONTINUOUS
 10
8.554211513
 20
-21.1651588757
 11
8.2441170282
 21
-22.1805062352
  0
LINE
  5
634
100
AcDbEntity
  8
ASSI
100
AcDbLine
 62
7
  6
CONTINUOUS
 10
8.554211513
 20
-21.1651588757
 11
8.2441170282
 21
-22.1805062352
  0
LINE
  5
635
100
AcDbEntity
  8
DRAFT
100
AcDbLine
 62
7
  6
CONTINUOUS
 10
-4.0278542332
 20
-19.0173482781
 11
-3.7931398015
 21
-18.9
  0
LINE
  5
636
100
AcDbEntity
  8
ASSI
100
AcDbLine
 62
7
  6
CONTINUOUS
 10
-4.0278542332
 20
-19.0173482781
 11
-3.7931398015
 21
-18.9
  0
LWPOLYLINE
  5
637
100
AcDbEntity
  8
0
100
AcDbPolyline
 62
250
  6
CONTINUOUS
 90
22
 70
0
 10
10.6108721873
 20
17.1893188701
 10
10.5340246675
 20
17.1777668188
 10
10.4601256869
 20
17.1662719649
 10
10.3920223021
 20
17.1552540819
 10
10.331073702
 20
17.1449632689
 10
10.2753027659
 20
17.1351333301
 10
10.2224926209
 20
17.1253967379
 10
10.1715180675
 20
17.1155119135
 10
10.1240255974
 20
17.1057657837
 10
10.0818162218
 20
17.0965651764
 10
10.0454314725
 20
17.0881177701
 10
10.0134453517
 20
17.0801679317
 10
9.9844042016
 20
17.0723734344
 10
9.9576488176
 20
17.0645238103
 10
9.9340031914
 20
17.056826684
 10
9.9142353616
 20
17.0495672129
 10
9.8985269793
 20
17.0429508963
 10
9.88586525
 20
17.0367329249
 10
9.8753279119
 20
17.0305258465
 10
9.8669008313
 20
17.0242073091
 10
9.860987474
 20
17.0179036059
 10
9.8577454566
 20
17.0116147524
  0
LINE
  5
638
100
AcDbEntity
  8
0
100
AcDbLine
 62
250
  6
CONTINUOUS
 10
-6.7950333439
 20
13.6497928219
 11
-6.5000000069
 21
13.6500003691
  0
LINE
  5
639
100
AcDbEntity
  8
0
100
AcDbLine
 62
250
  6
CONTINUOUS
 10
6.7950333298
 20
13.6500014429
 11
6.5000000011
 21
13.65
  0
LINE
  5
63A
100
AcDbEntity
  8
0
100
AcDbLine
 62
7
  6
CONTINUOUS
 10
-8.8957005072
 20
13.9637400207
 11
-7.0140423487
 21
13.9637400207
  0
LINE
  5
63B
100
AcDbEntity
  8
0
100
AcDbLine
 62
7
  6
CONTINUOUS
 10
7.0140423495
 20
13.9637400207
 11
8.8957014577
 21
13.9637400207
  0
LINE
  5
63C
100
AcDbEntity
  8
0
100
AcDbLine
 62
250
  6
CONTINUOUS
 10
-6.7950344651
 20
14.1806883944
 11
-9.5064643338
 21
14.1806992587
  0
LINE
  5
63D
100
AcDbEntity
  8
0
100
AcDbLine
 62
250
  6
CONTINUOUS
 10
9.5065173327
 20
14.1807034889
 11
6.7950339536
 21
14.1806891488
  0
LINE
  5
63E
100
AcDbEntity
  8
0
100
AcDbLine
 62
7
  6
CONTINUOUS
 10
9.7564260187
 20
14.1807012094
 11
9.506517339
 21
14.1807034889
  0
LINE
  5
63F
100
AcDbEntity
  8
0
100
AcDbLine
 62
250
  6
CONTINUOUS
 10
6.7950457103
 20
14.2000029762
 11
-6.7950457557
 21
14.2000002056
  0
LINE
  5
640
100
AcDbEntity
  8
0
100
AcDbLine
 62
250
  6
CONTINUOUS
 10
9.8473092998
 20
14.4006258255
 11
19.1026968667
 21
14.4006510421
  0
LINE
  5
641
100
AcDbEntity
  8
0
100
AcDbLine
 62
250
  6
CONTINUOUS
 10
-9.847309334
 20
14.4006510421
 11
-19.1026969097
 21
14.400615078
  0
LINE
  5
642
100
AcDbEntity
  8
0
100
AcDbLine
 62
7
  6
CONTINUOUS
 10
8.8936439387
 20
14.9771014877
 11
7.0119849975
 21
14.9771014896
  0
LINE
  5
643
100
AcDbEntity
  8
0
100
AcDbLine
 62
7
  6
CONTINUOUS
 10
-7.0119850077
 20
14.977101489
 11
-8.8936439284
 21
14.977101489
  0
LINE
  5
644
100
AcDbEntity
  8
0
100
AcDbLine
 62
7
  6
CONTINUOUS
 10
-8.893654328
 20
15.0500004676
 11
-7.0120002112
 21
15.0499985016
  0
LINE
  5
645
100
AcDbEntity
  8
0
100
AcDbLine
 62
7
  6
CONTINUOUS
 10
8.8936582974
 20
15.0499966458
 11
7.0119987667
 21
15.049998502
  0
LINE
  5
646
100
AcDbEntity
  8
0
100
AcDbLine
 62
7
  6
CONTINUOUS
 10
-9.7564261111
 20
14.1807287087
 11
-9.5064643339
 21
14.1806992587
  0
LWPOLYLINE
  5
647
100
AcDbEntity
  8
0
100
AcDbPolyline
 62
250
  6
CONTINUOUS
 90
3
 70
0
 10
7.0155600802
 20
13.6343018645
 10
7.0153703234
 20
13.634331892
 10
7.0151806005
 20
13.6343164005
  0
LINE
  5
648
100
AcDbEntity
  8
0
100
AcDbLine
 62
250
  6
CONTINUOUS
 10
7.0142321595
 20
13.6340113594
 11
7.0140423725
 21
13.6340869143
  0
LINE
  5
649
100
AcDbEntity
  8
DRAFT
100
AcDbLine
 62
7
  6
CONTINUOUS
 10
-3.7931398015
 20
18.9
 11
-4.0278542332
 21
19.0173482781
  0
LINE
  5
64A
100
AcDbEntity
  8
ASSI
100
AcDbLine
 62
7
  6
CONTINUOUS
 10
-3.7931398015
 20
18.9
 11
-4.0278542332
 21
19.0173482781
  0
LINE
  5
64B
100
AcDbEntity
  8
DRAFT
100
AcDbLine
 62
7
  6
CONTINUOUS
 10
8.2441170282
 20
22.1805062352
 11
8.554211513
 21
21.1651588757
  0
LINE
  5
64C
100
AcDbEntity
  8
ASSI
100
AcDbLine
 62
7
  6
CONTINUOUS
 10
8.2441170282
 20
22.1805062352
 11
8.554211513
 21
21.1651588757
  0
LINE
  5
64D
100
AcDbEntity
  8
DRAFT
100
AcDbLine
 62
7
  6
CONTINUOUS
 10
14.702972121
 20
21.2
 11
14.6497558672
 21
22.2
  0
LINE
  5
64E
100
AcDbEntity
  8
ASSI
100
AcDbLine
 62
7
  6
CONTINUOUS
 10
14.702972121
 20
21.2
 11
14.6497558672
 21
22.2
  0
LINE
  5
64F
100
AcDbEntity
  8
DRAFT
100
AcDbLine
 62
7
  6
CONTINUOUS
 10
17.3330351795
 20
19.1
 11
17.3330351795
 21
18.867094756
  0
LINE
  5
650
100
AcDbEntity
  8
ASSI
100
AcDbLine
 62
7
  6
CONTINUOUS
 10
17.3330351795
 20
19.1
 11
17.3330351795
 21
18.867094756
  0
LINE
  5
651
100
AcDbEntity
  8
DRAFT
100
AcDbLine
 62
7
  6
CONTINUOUS
 10
17.3330351795
 20
-19.1
 11
17.3330351795
 21
-18.867094756
  0
LINE
  5
652
100
AcDbEntity
  8
ASSI
100
AcDbLine
 62
7
  6
CONTINUOUS
 10
17.3330351795
 20
-19.1
 11
17.3330351795
 21
-18.867094756
  0
LINE
  5
653
100
AcDbEntity
  8
0
100
AcDbLine
 62
250
  6
CONTINUOUS
 10
16.1037248735
 20
-17.3996230171
 11
16.1036472697
 21
17.3996230636
  0
LINE
  5
654
100
AcDbEntity
  8
DRAFT
100
AcDbLine
 62
7
  6
CONTINUOUS
 10
14.702972121
 20
-21.2
 11
14.6497558672
 21
-22.2
  0
LINE
  5
655
100
AcDbEntity
  8
ASSI
100
AcDbLine
 62
7
  6
CONTINUOUS
 10
14.702972121
 20
-21.2
 11
14.6497558672
 21
-22.2
  0
LWPOLYLINE
  5
656
100
AcDbEntity
  8
RACCORDO
100
AcDbPolyline
 62
7
  6
CONTINUOUS
 90
10
 70
0
 10
20.9
 20
18.1006347748
 10
20.9100568645
 20
18.1581344769
 10
20.9302299741
 20
18.2059465491
 10
20.9605193287
 20
18.2440709914
 10
21.0047379656
 20
18.2739352939
 10
21.0590728476
 20
18.2941119665
 10
21.1120848627
 20
18.3003185393
 10
21.1599609736
 20
18.2911275222
 10
21.2065142178
 20
18.2679664052
 10
21.251744595
 20
18.2308351884
  0
LWPOLYLINE
  5
657
100
AcDbEntity
  8
ASSI
100
AcDbPolyline
 62
7
  6
CONTINUOUS
 90
10
 70
0
 10
20.9
 20
18.1006347748
 10
20.9100568645
 20
18.1581344769
 10
20.9302299741
 20
18.2059465491
 10
20.9605193287
 20
18.2440709914
 10
21.0047379656
 20
18.2739352939
 10
21.0590728476
 20
18.2941119665
 10
21.1120848627
 20
18.3003185393
 10
21.1599609736
 20
18.2911275222
 10
21.2065142178
 20
18.2679664052
 10
21.251744595
 20
18.2308351884
  0
LINE
  5
658
100
AcDbEntity
  8
DRAFT
100
AcDbLine
 62
7
  6
CONTINUOUS
 10
4.5169648205
 20
-18.8430942654
 11
4.3448613907
 21
-19.0173482781
  0
LINE
  5
659
100
AcDbEntity
  8
ASSI
100
AcDbLine
 62
7
  6
CONTINUOUS
 10
4.5169648205
 20
-18.8430942654
 11
4.3448613907
 21
-19.0173482781
  0
LINE
  5
65A
100
AcDbEntity
  8
DRAFT
100
AcDbLine
 62
7
  6
CONTINUOUS
 10
4.5169648205
 20
-18.6327542795
 11
4.2826243441
 21
-18.867094756
  0
LINE
  5
65B
100
AcDbEntity
  8
ASSI
100
AcDbLine
 62
7
  6
CONTINUOUS
 10
4.5169648205
 20
-18.6327542795
 11
4.2826243441
 21
-18.867094756
  0
LINE
  5
65C
100
AcDbEntity
  8
RACCORDO
100
AcDbLine
 62
7
  6
CONTINUOUS
 10
-3.9
 20
-19.3034260301
 11
-4.0340172901
 21
-19.3704295719
  0
LINE
  5
65D
100
AcDbEntity
  8
ASSI
100
AcDbLine
 62
7
  6
CONTINUOUS
 10
-3.9
 20
-19.3034260301
 11
-4.0340172901
 21
-19.3704295719
  0
LWPOLYLINE
  5
65E
100
AcDbEntity
  8
RACCORDO
100
AcDbPolyline
 62
7
  6
CONTINUOUS
 90
16
 70
0
 10
-3.9
 20
-19.3034260301
 10
-3.8862979462
 20
-19.2969912034
 10
-3.8729319313
 20
-19.2911584854
 10
-3.8599019553
 20
-19.2859278759
 10
-3.8472169546
 20
-19.2813509358
 10
-3.8348679928
 20
-19.2773761042
 10
-3.8228282604
 20
-19.2738486993
 10
-3.8110978224
 20
-19.2707523668
 10
-3.7996766137
 20
-19.268103461
 10
-3.78853763
 20
-19.2657963621
 10
-3.7776812083
 20
-19.2638210464
 10
-3.7671070115
 20
-19.2621875376
 10
-3.7567870239
 20
-19.2608202874
 10
-3.7467119071
 20
-19.2596941129
 10
-3.7368909995
 20
-19.2588341969
 10
-3.7273243011
 20
-19.2582405394
  0
LWPOLYLINE
  5
65F
100
AcDbEntity
  8
ASSI
100
AcDbPolyline
 62
7
  6
CONTINUOUS
 90
16
 70
0
 10
-3.9
 20
-19.3034260301
 10
-3.8862979462
 20
-19.2969912034
 10
-3.8729319313
 20
-19.2911584854
 10
-3.8599019553
 20
-19.2859278759
 10
-3.8472169546
 20
-19.2813509358
 10
-3.8348679928
 20
-19.2773761042
 10
-3.8228282604
 20
-19.2738486993
 10
-3.8110978224
 20
-19.2707523668
 10
-3.7996766137
 20
-19.268103461
 10
-3.78853763
 20
-19.2657963621
 10
-3.7776812083
 20
-19.2638210464
 10
-3.7671070115
 20
-19.2621875376
 10
-3.7567870239
 20
-19.2608202874
 10
-3.7467119071
 20
-19.2596941129
 10
-3.7368909995
 20
-19.2588341969
 10
-3.7273243011
 20
-19.2582405394
  0
LINE
  5
660
100
AcDbEntity
  8
0
100
AcDbLine
 62
250
  6
CONTINUOUS
 10
10.7698528751
 20
17.212091366
 11
10.6108721873
 21
17.1893188701
  0
LWPOLYLINE
  5
661
100
AcDbEntity
  8
0
100
AcDbPolyline
 62
250
  6
CONTINUOUS
 90
11
 70
0
 10
10.3683248525
 20
17.3260874729
 10
10.2209996722
 20
17.3193398623
 10
10.0897643042
 20
17.3125599888
 10
9.9746338558
 20
17.3057768303
 10
9.8757845599
 20
17.2990864258
 10
9.7939107865
 20
17.2925041193
 10
9.7283181656
 20
17.2860145667
 10
9.6770998205
 20
17.2796677753
 10
9.6396201256
 20
17.2734804141
 10
9.6165147065
 20
17.2674358142
 10
9.6077835632
 20
17.2615339754
  0
LWPOLYLINE
  5
662
100
AcDbEntity
  8
0
100
AcDbPolyline
 62
7
  6
CONTINUOUS
 90
11
 70
0
 10
9.0362544545
 20
15.8893911726
 10
9.0276143489
 20
15.8890018649
 10
9.0196174131
 20
15.8885900853
 10
9.0122702925
 20
15.8881567959
 10
9.0057511228
 20
15.8877060862
 10
9.000074322
 20
15.8872379196
 10
8.9952254721
 20
15.8867523328
 10
8.9913394542
 20
15.8862535253
 10
8.9884612287
 20
15.8857428971
 10
8.9865458351
 20
15.8852190482
 10
8.9855932735
 20
15.8846819787
  0
LINE
  5
663
100
AcDbEntity
  8
0
100
AcDbLine
 62
250
  6
CONTINUOUS
 10
10.7111590603
 20
17.3395637345
 11
10.3683248525
 21
17.3260874729
  0
LINE
  5
664
100
AcDbEntity
  8
0
100
AcDbLine
 62
7
  6
CONTINUOUS
 10
9.0553259116
 20
15.8901040549
 11
9.0362544545
 21
15.8893911726
  0
LINE
  5
665
100
AcDbEntity
  8
0
100
AcDbLine
 62
250
  6
CONTINUOUS
 10
11.1195012104
 20
17.3529967851
 11
10.7111590603
 21
17.3395637345
  0
LWPOLYLINE
  5
666
100
AcDbEntity
  8
0
100
AcDbPolyline
 62
250
  6
CONTINUOUS
 90
19
 70
0
 10
12.9488412803
 20
17.3996230171
 10
12.8120201193
 20
17.3953121441
 10
12.674848276
 20
17.3898791506
 10
12.5375874462
 20
17.3833283047
 10
12.3988968222
 20
17.3755881171
 10
12.2605702492
 20
17.3667654793
 10
12.1274061393
 20
17.3572932999
 10
12.0019838341
 20
17.3475913683
 10
11.8817843698
 20
17.337635541
 10
11.7639226637
 20
17.3272140546
 10
11.6466786807
 20
17.3161811555
 10
11.5320906745
 20
17.3047886674
 10
11.422907628
 20
17.2933425223
 10
11.3212698172
 20
17.2821105036
 10
11.2248939596
 20
17.2709363114
 10
11.1300038174
 20
17.2594889195
 10
11.0353922413
 20
17.2476297574
 10
10.9430063418
 20
17.2355986927
 10
10.7698528751
 20
17.212091366
  0
LWPOLYLINE
  5
667
100
AcDbEntity
  8
0
100
AcDbPolyline
 62
7
  6
CONTINUOUS
 90
120
 70
0
 10
-6.6992554975
 20
15.7269585076
 10
-6.7035582822
 20
15.7268288134
 10
-6.7076828188
 20
15.7266195448
 10
-6.7116381044
 20
15.7263396375
 10
-6.7154314555
 20
15.7259975569
 10
-6.7190719747
 20
15.7256008562
 10
-6.7225716259
 20
15.7251547297
 10
-6.7259392165
 20
15.7246628625
 10
-6.7291771304
 20
15.7241311702
 10
-6.7322790651
 20
15.7235683963
 10
-6.7352364591
 20
15.7229822935
 10
-6.7380520029
 20
15.7223767071
 10
-6.7407371301
 20
15.7217535987
 10
-6.7432994433
 20
15.7211155593
 10
-6.7457459713
 20
15.7204653037
 10
-6.7480861267
 20
15.7198045748
 10
-6.750324425
 20
15.719136036
 10
-6.7524631192
 20
15.7184625628
 10
-6.7545075304
 20
15.7177857671
 10
-6.75643942
 20
15.7171152406
 10
-6.7582810641
 20
15.7164466588
 10
-6.7600946166
 20
15.7157587814
 10
-6.7619174551
 20
15.7150362026
 10
-6.7637075761
 20
15.7142942445
 10
-6.7654087901
 20
15.7135574896
 10
-6.7670062159
 20
15.7128358348
 10
-6.7685241863
 20
15.7121216796
 10
-6.7699690395
 20
15.7114147564
 10
-6.7713442214
 20
15.7107159713
 10
-6.7726529261
 20
15.7100262386
 10
-6.7738998306
 20
15.7093454503
 10
-6.7750864722
 20
15.7086749387
 10
-6.7762144104
 20
15.7080159433
 10
-6.7772874565
 20
15.7073682488
 10
-6.7783071004
 20
15.7067328649
 10
-6.7792748578
 20
15.7061107226
 10
-6.7801943413
 20
15.7055012795
 10
-6.7810669665
 20
15.7049052873
 10
-6.7818941747
 20
15.7043234272
 10
-6.7826795804
 20
15.7037547356
 10
-6.783424858
 20
15.7031995046
 10
-6.784131617
 20
15.7026580274
 10
-6.7848032282
 20
15.7021291402
 10
-6.7854410572
 20
15.7016131129
 10
-6.7860464125
 20
15.7011102176
 10
-6.7866222736
 20
15.7006192375
 10
-6.7871697434
 20
15.7001404177
 10
-6.7876898795
 20
15.6996740041
 10
-6.7881853288
 20
15.6992187232
 10
-6.7886569758
 20
15.6987747922
 10
-6.7891056697
 20
15.6983424275
 10
-6.7895337481
 20
15.6979203056
 10
-6.7899418227
 20
15.6975086383
 10
-6.7903304838
 20
15.6971076344
 10
-6.7907017852
 20
15.6967159261
 10
-6.7910562246
 20
15.6963336867
 10
-6.7913942926
 20
15.6959610844
 10
-6.7917178718
 20
15.6955966896
 10
-6.7920273672
 20
15.6952406394
 10
-6.792323178
 20
15.6948930685
 10
-6.7926070205
 20
15.6945525133
 10
-6.7928792012
 20
15.6942191181
 10
-6.7931400241
 20
15.6938930196
 10
-6.7933910572
 20
15.6935727146
 10
-6.7936335654
 20
15.6932569544
 10
-6.7938667199
 20
15.6929471832
 10
-6.7940889746
 20
15.6926459332
 10
-6.7942991274
 20
15.6923554416
 10
-6.7944990706
 20
15.6920736929
 10
-6.7946918448
 20
15.6917968207
 10
-6.794878295
 20
15.6915238873
 10
-6.7950578953
 20
15.6912559387
 10
-6.7952314609
 20
15.6909920365
 10
-6.7953993106
 20
15.690731939
 10
-6.7955614059
 20
15.6904759503
 10
-6.795717986
 20
15.6902239404
 10
-6.7958691846
 20
15.6899759384
 10
-6.796015134
 20
15.6897319725
 10
-6.7961560584
 20
15.6894919089
 10
-6.7962920817
 20
15.6892557738
 10
-6.7964233262
 20
15.6890235926
 10
-6.7965500017
 20
15.6887952279
 10
-6.7966722225
 20
15.6885707032
 10
-6.7967901014
 20
15.6883500415
 10
-6.7969038344
 20
15.6881331019
 10
-6.7970135266
 20
15.6879199054
 10
-6.7971192824
 20
15.6877104715
 10
-6.7972212862
 20
15.6875046534
 10
-6.7973196357
 20
15.6873024672
 10
-6.7974144274
 20
15.6871039292
 10
-6.7975058322
 20
15.6869088907
 10
-6.7975939393
 20
15.6867173668
 10
-6.7976788361
 20
15.6865293725
 10
-6.7977606816
 20
15.6863447573
 10
-6.7978395563
 20
15.6861635351
 10
-6.7979155396
 20
15.68598572
 10
-6.7979887787
 20
15.6858111594
 10
-6.7980593464
 20
15.6856398664
 10
-6.7981273146
 20
15.6854718538
 10
-6.7981928192
 20
15.6853069673
 10
-6.798255926
 20
15.685145219
 10
-6.7983166997
 20
15.6849866204
 10
-6.7983752659
 20
15.6848310157
 10
-6.7984316838
 20
15.6846784159
 10
-6.7984860113
 20
15.6845288315
 10
-6.7985383646
 20
15.684382105
 10
-6.7985887964
 20
15.6842382464
 10
-6.7986373576
 20
15.6840972651
 10
-6.7986841536
 20
15.6839590019
 10
-6.79872923
 20
15.6838234654
 10
-6.7987726314
 20
15.6836906642
 10
-6.7988144557
 20
15.6835604377
 10
-6.7988547438
 20
15.6834327936
 10
-6.7988935356
 20
15.6833077397
 10
-6.7989309218
 20
15.6831851139
 10
-6.7989669388
 20
15.6830649235
 10
-6.7990016222
 20
15.6829471751
 10
-6.7990350561
 20
15.6828317057
 10
-6.7990672725
 20
15.6827185215
 10
-6.7990983031
 20
15.6826076286
  0
LINE
  5
668
100
AcDbEntity
  8
0
100
AcDbLine
 62
7
  6
CONTINUOUS
 10
9.0763630158
 20
15.8907256352
 11
9.0553259116
 21
15.8901040549
  0
LINE
  5
669
100
AcDbEntity
  8
0
100
AcDbLine
 62
250
  6
CONTINUOUS
 10
11.83679707
 20
17.3728878065
 11
11.1195012104
 21
17.3529967851
  0
LINE
  5
66A
100
AcDbEntity
  8
0
100
AcDbLine
 62
250
  6
CONTINUOUS
 10
12.948829634
 20
17.3996230637
 11
11.83679707
 21
17.3728878065
  0
LINE
  5
66B
100
AcDbEntity
  8
0
100
AcDbLine
 62
7
  6
CONTINUOUS
 10
9.0988775169
 20
15.891254337
 11
9.0763630158
 21
15.8907256352
  0
LINE
  5
66C
100
AcDbEntity
  8
0
100
AcDbLine
 62
7
  6
CONTINUOUS
 10
9.1226098623
 20
15.8916903964
 11
9.0988775169
 21
15.891254337
  0
LINE
  5
66D
100
AcDbEntity
  8
0
100
AcDbLine
 62
7
  6
CONTINUOUS
 10
9.1598462785
 20
15.8921766745
 11
9.1226098623
 21
15.8916903964
  0
LINE
  5
66E
100
AcDbEntity
  8
0
100
AcDbLine
 62
7
  6
CONTINUOUS
 10
9.1982144485
 20
15.8924648792
 11
9.1598462785
 21
15.8921766745
  0
LINE
  5
66F
100
AcDbEntity
  8
0
100
AcDbLine
 62
7
  6
CONTINUOUS
 10
-8.8887780215
 20
15.6033911211
 11
-7.0071183488
 21
15.6033911211
  0
LINE
  5
670
100
AcDbEntity
  8
0
100
AcDbLine
 62
7
  6
CONTINUOUS
 10
7.0071183488
 20
15.6033911211
 11
8.8887780215
 21
15.6033911211
  0
LINE
  5
671
100
AcDbEntity
  8
0
100
AcDbLine
 62
250
  6
CONTINUOUS
 10
6.6990881275
 20
15.7269520542
 11
-6.6992554975
 21
15.7269552878
  0
LINE
  5
672
100
AcDbEntity
  8
0
100
AcDbLine
 62
7
  6
CONTINUOUS
 10
-6.6997204563
 20
15.7760534563
 11
6.6996332914
 21
15.7760534563
  0
LINE
  5
673
100
AcDbEntity
  8
0
100
AcDbLine
 62
7
  6
CONTINUOUS
 10
8.9855932735
 20
15.8846819787
 11
-8.9855932971
 21
15.8846819787
  0
LINE
  5
674
100
AcDbEntity
  8
0
100
AcDbLine
 62
7
  6
CONTINUOUS
 10
-9.2370749554
 20
15.8925597609
 11
9.2370840759
 21
15.8925597609
  0
LINE
  5
675
100
AcDbEntity
  8
0
100
AcDbLine
 62
250
  6
CONTINUOUS
 10
-9.5532094756
 20
17.1796612752
 11
9.5532094015
 21
17.1796612752
  0
LINE
  5
676
100
AcDbEntity
  8
0
100
AcDbLine
 62
250
  6
CONTINUOUS
 10
-16.103724834
 20
17.399622858
 11
-12.9488256762
 21
17.3996227794
  0
LINE
  5
677
100
AcDbEntity
  8
0
100
AcDbLine
 62
250
  6
CONTINUOUS
 10
12.948829634
 20
17.3996230637
 11
16.1036472697
 21
17.3996231143
  0
LINE
  5
678
100
AcDbEntity
  8
0
100
AcDbLine
 62
7
  6
CONTINUOUS
 10
-16.2230648144
 20
17.5116533674
 11
16.2230701098
 21
17.5116533627
  0
LINE
  5
679
100
AcDbEntity
  8
0
100
AcDbLine
 62
7
  6
CONTINUOUS
 10
-9.1599211142
 20
15.892177436
 11
-9.1982515072
 21
15.8924650622
  0
LINE
  5
67A
100
AcDbEntity
  8
0
100
AcDbLine
 62
7
  6
CONTINUOUS
 10
-9.1226518588
 20
15.8916910741
 11
-9.1599211142
 21
15.892177436
  0
LINE
  5
67B
100
AcDbEntity
  8
0
100
AcDbLine
 62
7
  6
CONTINUOUS
 10
-9.0989152951
 20
15.8912551435
 11
-9.1226518588
 21
15.8916910741
  0
LINE
  5
67C
100
AcDbEntity
  8
0
100
AcDbLine
 62
7
  6
CONTINUOUS
 10
-9.076393123
 20
15.8907264066
 11
-9.0989152951
 21
15.8912551435
  0
LINE
  5
67D
100
AcDbEntity
  8
0
100
AcDbLine
 62
250
  6
CONTINUOUS
 10
-11.599186386
 20
17.3667005343
 11
-12.9488256762
 21
17.3996227794
  0
LINE
  5
67E
100
AcDbEntity
  8
0
100
AcDbLine
 62
7
  6
CONTINUOUS
 10
-9.0553436952
 20
15.8901046452
 11
-9.076393123
 21
15.8907264066
  0
LINE
  5
67F
100
AcDbEntity
  8
0
100
AcDbLine
 62
250
  6
CONTINUOUS
 10
-10.9246610921
 20
17.3468568172
 11
-11.599186386
 21
17.3667005343
  0
LWPOLYLINE
  5
680
100
AcDbEntity
  8
0
100
AcDbPolyline
 62
7
  6
CONTINUOUS
 90
7
 70
0
 10
6.7125044444
 20
15.7752065325
 10
6.7085073052
 20
15.77556987
 10
6.7067843863
 20
15.7757403686
 10
6.7049873817
 20
15.7758805161
 10
6.7031586358
 20
15.7759828219
 10
6.701301775
 20
15.7760444015
 10
6.6995849355
 20
15.7760629785
  0
LWPOLYLINE
  5
681
100
AcDbEntity
  8
0
100
AcDbPolyline
 62
250
  6
CONTINUOUS
 90
17
 70
0
 10
-11.0329847884
 20
17.2473002004
 10
-11.1276156207
 20
17.2591711342
 10
-11.2225029627
 20
17.270646655
 10
-11.3188763474
 20
17.2818551047
 10
-11.4205367382
 20
17.2931150022
 10
-11.5297820287
 20
17.3045826526
 10
-11.644459765
 20
17.3159937639
 10
-11.7618135596
 20
17.3270410043
 10
-11.879794624
 20
17.3374698242
 10
-12.0001289415
 20
17.3474344021
 10
-12.1257224211
 20
17.357156708
 10
-12.2591141184
 20
17.3666608042
 10
-12.3977120127
 20
17.3755159735
 10
-12.5366896566
 20
17.3832823004
 10
-12.6742403565
 20
17.3898529528
 10
-12.8117122887
 20
17.3953012851
 10
-12.9488412803
 20
17.3996230171
  0
LINE
  5
682
100
AcDbEntity
  8
0
100
AcDbLine
 62
250
  6
CONTINUOUS
 10
-10.8518031611
 20
17.2233595324
 11
-11.0329847884
 21
17.2473002004
  0
LWPOLYLINE
  5
683
100
AcDbEntity
  8
0
100
AcDbPolyline
 62
250
  6
CONTINUOUS
 90
5
 70
0
 10
6.7232932136
 20
15.7212779521
 10
6.7158027826
 20
15.7224598345
 10
6.7093175637
 20
15.7237502988
 10
6.703731645
 20
15.7252349162
 10
6.699088127
 20
15.726952047
  0
LWPOLYLINE
  5
684
100
AcDbEntity
  8
0
100
AcDbPolyline
 62
7
  6
CONTINUOUS
 90
5
 70
0
 10
6.7149246658
 20
15.7746362487
 10
6.7142214638
 20
15.7747618288
 10
6.7132003402
 20
15.7749329302
 10
6.7118852748
 20
15.7751361123
 10
6.7102323555
 20
15.7753645396
  0
LWPOLYLINE
  5
685
100
AcDbEntity
  8
0
100
AcDbPolyline
 62
7
  6
CONTINUOUS
 90
3
 70
0
 10
6.7125044444
 20
15.7752065325
 10
6.7254181827
 20
15.7727058581
 10
6.7381440257
 20
15.7684306417
  0
LWPOLYLINE
  5
686
100
AcDbEntity
  8
0
100
AcDbPolyline
 62
7
  6
CONTINUOUS
 90
3
 70
0
 10
6.7381440257
 20
15.7684306417
 10
6.7505369958
 20
15.7622870911
 10
6.7621762151
 20
15.7543252456
  0
LINE
  5
687
100
AcDbEntity
  8
RACCORDO
100
AcDbLine
 62
7
  6
CONTINUOUS
 10
-3.9
 20
19.3034260301
 11
-4.0340172901
 21
19.3704295719
  0
LINE
  5
688
100
AcDbEntity
  8
ASSI
100
AcDbLine
 62
7
  6
CONTINUOUS
 10
-3.9
 20
19.3034260301
 11
-4.0340172901
 21
19.3704295719
  0
LWPOLYLINE
  5
689
100
AcDbEntity
  8
0
100
AcDbPolyline
 62
7
  6
CONTINUOUS
 90
8
 70
0
 10
6.7621762151
 20
15.7543252456
 10
6.7724803764
 20
15.744903793
 10
6.7812950583
 20
15.7342347348
 10
6.7884877868
 20
15.7225726297
 10
6.7938187319
 20
15.710599423
 10
6.797373041
 20
15.6987646485
 10
6.7993745269
 20
15.6871762114
 10
6.8
 20
15.6760308237
  0
LINE
  5
68A
100
AcDbEntity
  8
DRAFT
100
AcDbLine
 62
7
  6
CONTINUOUS
 10
4.2826243441
 20
18.867094756
 11
4.5169648205
 21
18.6327542795
  0
LINE
  5
68B
100
AcDbEntity
  8
ASSI
100
AcDbLine
 62
7
  6
CONTINUOUS
 10
4.2826243441
 20
18.867094756
 11
4.5169648205
 21
18.6327542795
  0
LINE
  5
68C
100
AcDbEntity
  8
DRAFT
100
AcDbLine
 62
7
  6
CONTINUOUS
 10
4.3448613907
 20
19.0173482781
 11
4.5169648205
 21
18.8430942654
  0
LINE
  5
68D
100
AcDbEntity
  8
ASSI
100
AcDbLine
 62
7
  6
CONTINUOUS
 10
4.3448613907
 20
19.0173482781
 11
4.5169648205
 21
18.8430942654
  0
LWPOLYLINE
  5
68E
100
AcDbEntity
  8
RACCORDO
100
AcDbPolyline
 62
7
  6
CONTINUOUS
 90
10
 70
0
 10
20.9261825974
 20
-18.029762091
 10
20.9362262421
 20
-18.0871988567
 10
20.9563621063
 20
-18.1349750012
 10
20.9865901898
 20
-18.1730905243
 10
21.030674808
 20
-18.2030023019
 10
21.0848516456
 20
-18.2232534581
 10
21.1378277566
 20
-18.2294733659
 10
21.1858388258
 20
-18.2202051497
 10
21.2326491685
 20
-18.1969056852
 10
21.2782587845
 20
-18.1595749722
  0
LWPOLYLINE
  5
68F
100
AcDbEntity
  8
ASSI
100
AcDbPolyline
 62
7
  6
CONTINUOUS
 90
10
 70
0
 10
20.9261825974
 20
-18.029762091
 10
20.9362262421
 20
-18.0871988567
 10
20.9563621063
 20
-18.1349750012
 10
20.9865901898
 20
-18.1730905243
 10
21.030674808
 20
-18.2030023019
 10
21.0848516456
 20
-18.2232534581
 10
21.1378277566
 20
-18.2294733659
 10
21.1858388258
 20
-18.2202051497
 10
21.2326491685
 20
-18.1969056852
 10
21.2782587845
 20
-18.1595749722
  0
LINE
  5
690
100
AcDbEntity
  8
DRAFT
100
AcDbLine
 62
7
  6
CONTINUOUS
 10
18.4864808301
 20
-20.9320850844
 11
18.4584845302
 21
-20.0060689771
  0
LINE
  5
691
100
AcDbEntity
  8
ASSI
100
AcDbLine
 62
7
  6
CONTINUOUS
 10
18.4864808301
 20
-20.9320850844
 11
18.4584845302
 21
-20.0060689771
  0
LINE
  5
692
100
AcDbEntity
  8
DRAFT
100
AcDbLine
 62
7
  6
CONTINUOUS
 10
18.4721457668
 20
19.0173482781
 11
18.4584845302
 21
19.8
  0
LINE
  5
693
100
AcDbEntity
  8
ASSI
100
AcDbLine
 62
7
  6
CONTINUOUS
 10
18.4721457668
 20
19.0173482781
 11
18.4584845302
 21
19.8
  0
LINE
  5
694
100
AcDbEntity
  8
DRAFT
100
AcDbLine
 62
7
  6
CONTINUOUS
 10
17.9830351795
 20
18.8430942654
 11
17.9830351795
 21
18.6327542795
  0
LINE
  5
695
100
AcDbEntity
  8
ASSI
100
AcDbLine
 62
7
  6
CONTINUOUS
 10
17.9830351795
 20
18.8430942654
 11
17.9830351795
 21
18.6327542795
  0
LINE
  5
696
100
AcDbEntity
  8
DRAFT
100
AcDbLine
 62
7
  6
CONTINUOUS
 10
17.9830351795
 20
-18.8430942654
 11
17.9830351795
 21
-18.6327542795
  0
LINE
  5
697
100
AcDbEntity
  8
ASSI
100
AcDbLine
 62
7
  6
CONTINUOUS
 10
17.9830351795
 20
-18.8430942654
 11
17.9830351795
 21
-18.6327542795
  0
LINE
  5
698
100
AcDbEntity
  8
DRAFT
100
AcDbLine
 62
7
  6
CONTINUOUS
 10
18.4584845302
 20
-20.0060689771
 11
18.4584845302
 21
-19.8
  0
LINE
  5
699
100
AcDbEntity
  8
ASSI
100
AcDbLine
 62
7
  6
CONTINUOUS
 10
18.4584845302
 20
-20.0060689771
 11
18.4584845302
 21
-19.8
  0
LINE
  5
69A
100
AcDbEntity
  8
DRAFT
100
AcDbLine
 62
7
  6
CONTINUOUS
 10
18.4584845302
 20
19.8
 11
18.4584845302
 21
20.0060689771
  0
LINE
  5
69B
100
AcDbEntity
  8
ASSI
100
AcDbLine
 62
7
  6
CONTINUOUS
 10
18.4584845302
 20
19.8
 11
18.4584845302
 21
20.0060689771
  0
LINE
  5
69C
100
AcDbEntity
  8
DRAFT
100
AcDbLine
 62
7
  6
CONTINUOUS
 10
18.7726756989
 20
20.7603594806
 11
18.7726756989
 21
18.867094756
  0
LINE
  5
69D
100
AcDbEntity
  8
ASSI
100
AcDbLine
 62
7
  6
CONTINUOUS
 10
18.7726756989
 20
20.7603594806
 11
18.7726756989
 21
18.867094756
  0
LINE
  5
69E
100
AcDbEntity
  8
DRAFT
100
AcDbLine
 62
7
  6
CONTINUOUS
 10
18.7726756989
 20
-18.867094756
 11
18.7726756989
 21
-20.7603594806
  0
LINE
  5
69F
100
AcDbEntity
  8
ASSI
100
AcDbLine
 62
7
  6
CONTINUOUS
 10
18.7726756989
 20
-18.867094756
 11
18.7726756989
 21
-20.7603594806
  0
LINE
  5
6A0
100
AcDbEntity
  8
0
100
AcDbLine
 62
250
  6
CONTINUOUS
 10
19.1026968576
 20
14.4006510467
 11
19.1026969456
 21
-14.4005226707
  0
LINE
  5
6A1
100
AcDbEntity
  8
0
100
AcDbLine
 62
250
  6
CONTINUOUS
 10
19.1780727776
 20
14.4760280245
 11
19.1780727734
 21
-14.4751284632
  0
LINE
  5
6A2
100
AcDbEntity
  8
0
100
AcDbLine
 62
7
  6
CONTINUOUS
 10
19.2116564607
 20
14.5230644554
 11
19.2116603104
 21
-14.5116599611
  0
LINE
  5
6A3
100
AcDbEntity
  8
0
100
AcDbLine
 62
7
  6
CONTINUOUS
 10
19.2116570275
 20
-14.5116599611
 11
19.2116533627
 21
-14.5230698993
  0
LINE
  5
6A4
100
AcDbEntity
  8
DRAFT
100
AcDbLine
 62
7
  6
CONTINUOUS
 10
18.4584845302
 20
-19.8
 11
18.4721457668
 21
-19.0173482781
  0
LINE
  5
6A5
100
AcDbEntity
  8
ASSI
100
AcDbLine
 62
7
  6
CONTINUOUS
 10
18.4584845302
 20
-19.8
 11
18.4721457668
 21
-19.0173482781
  0
LWPOLYLINE
  5
6A6
100
AcDbEntity
  8
0
100
AcDbPolyline
 62
7
  6
CONTINUOUS
 90
49
 70
0
 10
19.2116444114
 20
-14.5230698786
 10
19.2097002474
 20
-14.6212036404
 10
19.2045498363
 20
-14.7191936975
 10
19.1962012658
 20
-14.816935482
 10
19.1846650639
 20
-14.9143329943
 10
19.1699565531
 20
-15.0112743291
 10
19.1520984499
 20
-15.1076321842
 10
19.131116604
 20
-15.2032964598
 10
19.1070368176
 20
-15.2981747359
 10
19.0798888983
 20
-15.3921680417
 10
19.0497068141
 20
-15.4851763777
 10
19.0165268476
 20
-15.5771039626
 10
18.9803863736
 20
-15.6678598746
 10
18.9413277845
 20
-15.7573491356
 10
18.899396272
 20
-15.8454790828
 10
18.8546368018
 20
-15.9321641246
 10
18.8071009366
 20
-16.017312451
 10
18.7568411344
 20
-16.1008377536
 10
18.7039062889
 20
-16.182664443
 10
18.6483544284
 20
-16.2627072061
 10
18.5902458624
 20
-16.3408832073
 10
18.5296347675
 20
-16.4171220842
 10
18.4665848505
 20
-16.4913451128
 10
18.4011641475
 20
-16.5634736142
 10
18.3334353345
 20
-16.6334390876
 10
18.2634697282
 20
-16.7011677891
 10
18.1913410843
 20
-16.7665883871
 10
18.117117924
 20
-16.8296381868
 10
18.040878932
 20
-16.8902491484
 10
17.9627028284
 20
-16.9483575708
 10
17.882659983
 20
-17.003909275
 10
17.8008332492
 20
-17.056843943
 10
17.7173079249
 20
-17.1071035594
 10
17.6321595556
 20
-17.154639256
 10
17.5454744294
 20
-17.1993985822
 10
17.4573443729
 20
-17.2413299615
 10
17.3678549876
 20
-17.2803884191
 10
17.2770989226
 20
-17.316528766
 10
17.1851711685
 20
-17.349708603
 10
17.0921626996
 20
-17.3798905379
 10
16.9981693256
 20
-17.4070382835
 10
16.9032910207
 20
-17.431117885
 10
16.8076267272
 20
-17.4520995453
 10
16.7112688635
 20
-17.4699574633
 10
16.614327531
 20
-17.4846657894
 10
16.5169300087
 20
-17.4962018114
 10
16.4191881934
 20
-17.5045502059
 10
16.3211980926
 20
-17.5097004416
 10
16.2230642742
 20
-17.5116444291
  0
LINE
  5
6A7
100
AcDbEntity
  8
DRAFT
100
AcDbLine
 62
7
  6
CONTINUOUS
 10
18.4584845302
 20
20.0060689771
 11
18.4864808301
 21
20.9320850844
  0
LINE
  5
6A8
100
AcDbEntity
  8
ASSI
100
AcDbLine
 62
7
  6
CONTINUOUS
 10
18.4584845302
 20
20.0060689771
 11
18.4864808301
 21
20.9320850844
  0
LWPOLYLINE
  5
6A9
100
AcDbEntity
  8
0
100
AcDbPolyline
 62
250
  6
CONTINUOUS
 90
13
 70
0
 10
19.1780726349
 20
-14.4751280031
 10
19.1716921339
 20
-14.6716418509
 10
19.1524565099
 20
-14.8672991437
 10
19.120450172
 20
-15.0612607197
 10
19.0758120331
 20
-15.2526967351
 10
19.0187354089
 20
-15.440784339
 10
18.9494682933
 20
-15.624711533
 10
18.8683076536
 20
-15.8036960468
 10
18.7756062157
 20
-15.9769650906
 10
18.6717769608
 20
-16.1437555104
 10
18.5572762117
 20
-16.3033492665
 10
18.4325969065
 20
-16.4550739141
 10
18.2982789332
 20
-16.5982839658
  0
LWPOLYLINE
  5
6AA
100
AcDbEntity
  8
0
100
AcDbPolyline
 62
250
  6
CONTINUOUS
 90
25
 70
0
 10
19.1026971563
 20
-14.4001375745
 10
19.0961651455
 20
-14.5964346203
 10
19.076805302
 20
-14.7918437776
 10
19.0447101049
 20
-14.9855283088
 10
19.0000278742
 20
-15.1766546868
 10
18.9429585239
 20
-15.3644119682
 10
18.8737492323
 20
-15.5480142422
 10
18.7927019823
 20
-15.7266783442
 10
18.7001692923
 20
-15.8996424931
 10
18.5965437709
 20
-16.0661830467
 10
18.4822715348
 20
-16.2255893717
 10
18.3578434744
 20
-16.3771824373
 10
18.2237818726
 20
-16.5203285127
 10
18.0806596466
 20
-16.6544158121
 10
17.9290884384
 20
-16.7788712617
 10
17.7697018506
 20
-16.893172413
 10
17.6031787982
 20
-16.9968281974
 10
17.4302298138
 20
-17.0893923107
 10
17.2515784567
 20
-17.1704719517
 10
17.0679864401
 20
-17.2397144004
 10
16.880236878
 20
-17.2968174674
 10
16.6891156486
 20
-17.3415337669
 10
16.4954336801
 20
-17.3736631738
 10
16.3000245022
 20
-17.3930571542
 10
16.1037248735
 20
-17.3996230171
  0
LINE
  5
6AB
100
AcDbEntity
  8
RACCORDO
100
AcDbLine
 62
7
  6
CONTINUOUS
 10
3.9
 20
-19.8965739699
 11
4.0415154698
 21
-19.8258216238
  0
LINE
  5
6AC
100
AcDbEntity
  8
ASSI
100
AcDbLine
 62
7
  6
CONTINUOUS
 10
3.9
 20
-19.8965739699
 11
4.0415154698
 21
-19.8258216238
  0
LWPOLYLINE
  5
6AD
100
AcDbEntity
  8
RACCORDO
100
AcDbPolyline
 62
7
  6
CONTINUOUS
 90
16
 70
0
 10
3.9
 20
-19.8965739699
 10
3.8862948869
 20
-19.9030100645
 10
3.8729263311
 20
-19.9088437389
 10
3.8598943324
 20
-19.9140749929
 10
3.8472078559
 20
-19.9186522039
 10
3.8348579365
 20
-19.9226269945
 10
3.8228176795
 20
-19.9261542331
 10
3.8110871586
 20
-19.9292502974
 10
3.7996663001
 20
-19.9318988096
 10
3.7885279878
 20
-19.9342055038
 10
3.7776725554
 20
-19.936180421
 10
3.7670996693
 20
-19.9378135202
 10
3.7567812125
 20
-19.9391804126
 10
3.7467078127
 20
-19.9403063021
 10
3.7368888422
 20
-19.9411659847
 10
3.7273243011
 20
-19.9417594606
  0
LWPOLYLINE
  5
6AE
100
AcDbEntity
  8
ASSI
100
AcDbPolyline
 62
7
  6
CONTINUOUS
 90
16
 70
0
 10
3.9
 20
-19.8965739699
 10
3.8862948869
 20
-19.9030100645
 10
3.8729263311
 20
-19.9088437389
 10
3.8598943324
 20
-19.9140749929
 10
3.8472078559
 20
-19.9186522039
 10
3.8348579365
 20
-19.9226269945
 10
3.8228176795
 20
-19.9261542331
 10
3.8110871586
 20
-19.9292502974
 10
3.7996663001
 20
-19.9318988096
 10
3.7885279878
 20
-19.9342055038
 10
3.7776725554
 20
-19.936180421
 10
3.7670996693
 20
-19.9378135202
 10
3.7567812125
 20
-19.9391804126
 10
3.7467078127
 20
-19.9403063021
 10
3.7368888422
 20
-19.9411659847
 10
3.7273243011
 20
-19.9417594606
  0
LINE
  5
6AF
100
AcDbEntity
  8
DRAFT
100
AcDbLine
 62
7
  6
CONTINUOUS
 10
3.8669648205
 20
20.9
 11
4.0135191699
 21
20.9320850844
  0
LINE
  5
6B0
100
AcDbEntity
  8
ASSI
100
AcDbLine
 62
7
  6
CONTINUOUS
 10
3.8669648205
 20
20.9
 11
4.0135191699
 21
20.9320850844
  0
LWPOLYLINE
  5
6B1
100
AcDbEntity
  8
RACCORDO
100
AcDbPolyline
 62
7
  6
CONTINUOUS
 90
19
 70
0
 10
-3.9
 20
19.3704295719
 10
-3.8555164246
 20
19.3761997438
 10
-3.8154742925
 20
19.3876293307
 10
-3.7798736039
 20
19.4047183325
 10
-3.7482370871
 20
19.4284736335
 10
-3.7210420136
 20
19.4578883493
 10
-3.6997201985
 20
19.4899418277
 10
-3.684667479
 20
19.5245413722
 10
-3.6754880177
 20
19.5617796793
 10
-3.6724261172
 20
19.5989141859
 10
-3.6756846908
 20
19.6358764378
 10
-3.6850608251
 20
19.6727348893
 10
-3.7001900829
 20
19.7069523403
 10
-3.7213603313
 20
19.7386505908
 10
-3.7482837032
 20
19.7677078407
 10
-3.7797321598
 20
19.7912214898
 10
-3.8152963551
 20
19.8082240045
 10
-3.8553856351
 20
19.8196829184
 10
-3.9
 20
19.8255982314
  0
LWPOLYLINE
  5
6B2
100
AcDbEntity
  8
ASSI
100
AcDbPolyline
 62
7
  6
CONTINUOUS
 90
19
 70
0
 10
-3.9
 20
19.3704295719
 10
-3.8555164246
 20
19.3761997438
 10
-3.8154742925
 20
19.3876293307
 10
-3.7798736039
 20
19.4047183325
 10
-3.7482370871
 20
19.4284736335
 10
-3.7210420136
 20
19.4578883493
 10
-3.6997201985
 20
19.4899418277
 10
-3.684667479
 20
19.5245413722
 10
-3.6754880177
 20
19.5617796793
 10
-3.6724261172
 20
19.5989141859
 10
-3.6756846908
 20
19.6358764378
 10
-3.6850608251
 20
19.6727348893
 10
-3.7001900829
 20
19.7069523403
 10
-3.7213603313
 20
19.7386505908
 10
-3.7482837032
 20
19.7677078407
 10
-3.7797321598
 20
19.7912214898
 10
-3.8152963551
 20
19.8082240045
 10
-3.8553856351
 20
19.8196829184
 10
-3.9
 20
19.8255982314
  0
LWPOLYLINE
  5
6B3
100
AcDbEntity
  8
RACCORDO
100
AcDbPolyline
 62
7
  6
CONTINUOUS
 90
19
 70
0
 10
3.9
 20
19.8255982314
 10
3.8556331306
 20
19.8198837047
 10
3.8156692117
 20
19.8085026625
 10
3.7801082435
 20
19.7914551048
 10
3.7484605529
 20
19.7677375754
 10
3.7212158128
 20
19.7383535305
 10
3.6998430421
 20
19.7063133385
 10
3.6847474482
 20
19.6716997074
 10
3.6755238237
 20
19.6344299293
 10
3.6724255647
 20
19.5972662483
 10
3.6756639099
 20
19.560281949
 10
3.6850276207
 20
19.5234037469
 10
3.7001363772
 20
19.4891740329
 10
3.7212587484
 20
19.4574798706
 10
3.7481261652
 20
19.4284341963
 10
3.7795526014
 20
19.4049182094
 10
3.8151427149
 20
19.3878923095
 10
3.8552918478
 20
19.376396097
 10
3.9
 20
19.3704295719
  0
LWPOLYLINE
  5
6B4
100
AcDbEntity
  8
ASSI
100
AcDbPolyline
 62
7
  6
CONTINUOUS
 90
19
 70
0
 10
3.9
 20
19.8255982314
 10
3.8556331306
 20
19.8198837047
 10
3.8156692117
 20
19.8085026625
 10
3.7801082435
 20
19.7914551048
 10
3.7484605529
 20
19.7677375754
 10
3.7212158128
 20
19.7383535305
 10
3.6998430421
 20
19.7063133385
 10
3.6847474482
 20
19.6716997074
 10
3.6755238237
 20
19.6344299293
 10
3.6724255647
 20
19.5972662483
 10
3.6756639099
 20
19.560281949
 10
3.6850276207
 20
19.5234037469
 10
3.7001363772
 20
19.4891740329
 10
3.7212587484
 20
19.4574798706
 10
3.7481261652
 20
19.4284341963
 10
3.7795526014
 20
19.4049182094
 10
3.8151427149
 20
19.3878923095
 10
3.8552918478
 20
19.376396097
 10
3.9
 20
19.3704295719
  0
LINE
  5
6B5
100
AcDbEntity
  8
DRAFT
100
AcDbLine
 62
7
  6
CONTINUOUS
 10
-18.7726756989
 20
18.867094756
 11
-18.2173756559
 21
18.867094756
  0
LINE
  5
6B6
100
AcDbEntity
  8
ASSI
100
AcDbLine
 62
7
  6
CONTINUOUS
 10
-18.7726756989
 20
18.867094756
 11
-18.2173756559
 21
18.867094756
  0
LINE
  5
6B7
100
AcDbEntity
  8
DRAFT
100
AcDbLine
 62
7
  6
CONTINUOUS
 10
-17.748694703
 20
18.867094756
 11
-17.3330351795
 21
18.867094756
  0
LINE
  5
6B8
100
AcDbEntity
  8
ASSI
100
AcDbLine
 62
7
  6
CONTINUOUS
 10
-17.748694703
 20
18.867094756
 11
-17.3330351795
 21
18.867094756
  0
LINE
  5
6B9
100
AcDbEntity
  8
DRAFT
100
AcDbLine
 62
7
  6
CONTINUOUS
 10
17.3330351795
 20
18.867094756
 11
17.748694703
 21
18.867094756
  0
LINE
  5
6BA
100
AcDbEntity
  8
ASSI
100
AcDbLine
 62
7
  6
CONTINUOUS
 10
17.3330351795
 20
18.867094756
 11
17.748694703
 21
18.867094756
  0
LINE
  5
6BB
100
AcDbEntity
  8
DRAFT
100
AcDbLine
 62
7
  6
CONTINUOUS
 10
18.2173756559
 20
18.867094756
 11
18.7726756989
 21
18.867094756
  0
LINE
  5
6BC
100
AcDbEntity
  8
ASSI
100
AcDbLine
 62
7
  6
CONTINUOUS
 10
18.2173756559
 20
18.867094756
 11
18.7726756989
 21
18.867094756
  0
LINE
  5
6BD
100
AcDbEntity
  8
0
100
AcDbLine
 62
7
  6
CONTINUOUS
 10
10.0
 20
18.9
 11
3.5
 21
18.9
  0
LINE
  5
6BE
100
AcDbEntity
  8
0
100
AcDbLine
 62
7
  6
CONTINUOUS
 10
2.5
 20
18.9
 11
-2.5
 21
18.9
  0
LINE
  5
6BF
100
AcDbEntity
  8
0
100
AcDbLine
 62
7
  6
CONTINUOUS
 10
-5.1669648205
 20
18.9
 11
-10.0
 21
18.9
  0
LINE
  5
6C0
100
AcDbEntity
  8
DRAFT
100
AcDbLine
 62
7
  6
CONTINUOUS
 10
-18.4721457668
 20
19.0173482781
 11
-18.1551386093
 21
19.0173482781
  0
LINE
  5
6C1
100
AcDbEntity
  8
ASSI
100
AcDbLine
 62
7
  6
CONTINUOUS
 10
-18.4721457668
 20
19.0173482781
 11
-18.1551386093
 21
19.0173482781
  0
LINE
  5
6C2
100
AcDbEntity
  8
DRAFT
100
AcDbLine
 62
7
  6
CONTINUOUS
 10
-17.8109317497
 20
19.0173482781
 11
-17.3330351795
 21
19.0173482781
  0
LINE
  5
6C3
100
AcDbEntity
  8
ASSI
100
AcDbLine
 62
7
  6
CONTINUOUS
 10
-17.8109317497
 20
19.0173482781
 11
-17.3330351795
 21
19.0173482781
  0
LINE
  5
6C4
100
AcDbEntity
  8
DRAFT
100
AcDbLine
 62
7
  6
CONTINUOUS
 10
-5.1669648205
 20
19.0173482781
 11
-4.6890682503
 21
19.0173482781
  0
LINE
  5
6C5
100
AcDbEntity
  8
ASSI
100
AcDbLine
 62
7
  6
CONTINUOUS
 10
-5.1669648205
 20
19.0173482781
 11
-4.6890682503
 21
19.0173482781
  0
LINE
  5
6C6
100
AcDbEntity
  8
DRAFT
100
AcDbLine
 62
7
  6
CONTINUOUS
 10
-4.3448613907
 20
19.0173482781
 11
-4.0278542332
 21
19.0173482781
  0
LINE
  5
6C7
100
AcDbEntity
  8
ASSI
100
AcDbLine
 62
7
  6
CONTINUOUS
 10
-4.3448613907
 20
19.0173482781
 11
-4.0278542332
 21
19.0173482781
  0
LINE
  5
6C8
100
AcDbEntity
  8
DRAFT
100
AcDbLine
 62
7
  6
CONTINUOUS
 10
4.0278542332
 20
19.0173482781
 11
4.3448613907
 21
19.0173482781
  0
LINE
  5
6C9
100
AcDbEntity
  8
ASSI
100
AcDbLine
 62
7
  6
CONTINUOUS
 10
4.0278542332
 20
19.0173482781
 11
4.3448613907
 21
19.0173482781
  0
LINE
  5
6CA
100
AcDbEntity
  8
DRAFT
100
AcDbLine
 62
7
  6
CONTINUOUS
 10
4.6890682503
 20
19.0173482781
 11
5.1669648205
 21
19.0173482781
  0
LINE
  5
6CB
100
AcDbEntity
  8
ASSI
100
AcDbLine
 62
7
  6
CONTINUOUS
 10
4.6890682503
 20
19.0173482781
 11
5.1669648205
 21
19.0173482781
  0
LINE
  5
6CC
100
AcDbEntity
  8
DRAFT
100
AcDbLine
 62
7
  6
CONTINUOUS
 10
17.3330351795
 20
19.0173482781
 11
17.8109317497
 21
19.0173482781
  0
LINE
  5
6CD
100
AcDbEntity
  8
ASSI
100
AcDbLine
 62
7
  6
CONTINUOUS
 10
17.3330351795
 20
19.0173482781
 11
17.8109317497
 21
19.0173482781
  0
LINE
  5
6CE
100
AcDbEntity
  8
DRAFT
100
AcDbLine
 62
7
  6
CONTINUOUS
 10
18.1551386093
 20
19.0173482781
 11
18.4721457668
 21
19.0173482781
  0
LINE
  5
6CF
100
AcDbEntity
  8
ASSI
100
AcDbLine
 62
7
  6
CONTINUOUS
 10
18.1551386093
 20
19.0173482781
 11
18.4721457668
 21
19.0173482781
  0
LINE
  5
6D0
100
AcDbEntity
  8
0
100
AcDbLine
 62
7
  6
CONTINUOUS
 10
17.3330351795
 20
19.1
 11
5.1669648205
 21
19.1
  0
LINE
  5
6D1
100
AcDbEntity
  8
ASSI
100
AcDbLine
 62
7
  6
CONTINUOUS
 10
17.3330351795
 20
19.1
 11
5.1669648205
 21
19.1
  0
LINE
  5
6D2
100
AcDbEntity
  8
0
100
AcDbLine
 62
7
  6
CONTINUOUS
 10
-5.1669648205
 20
19.1
 11
-17.3330351795
 21
19.1
  0
LINE
  5
6D3
100
AcDbEntity
  8
ASSI
100
AcDbLine
 62
7
  6
CONTINUOUS
 10
-5.1669648205
 20
19.1
 11
-17.3330351795
 21
19.1
  0
LINE
  5
6D4
100
AcDbEntity
  8
RACCORDO
100
AcDbLine
 62
7
  6
CONTINUOUS
 10
-4.0340172901
 20
19.3704295719
 11
-3.9
 21
19.3704295719
  0
LINE
  5
6D5
100
AcDbEntity
  8
ASSI
100
AcDbLine
 62
7
  6
CONTINUOUS
 10
-4.0340172901
 20
19.3704295719
 11
-3.9
 21
19.3704295719
  0
LINE
  5
6D6
100
AcDbEntity
  8
RACCORDO
100
AcDbLine
 62
7
  6
CONTINUOUS
 10
3.9
 20
19.3704295719
 11
4.0340172901
 21
19.3704295719
  0
LINE
  5
6D7
100
AcDbEntity
  8
ASSI
100
AcDbLine
 62
7
  6
CONTINUOUS
 10
3.9
 20
19.3704295719
 11
4.0340172901
 21
19.3704295719
  0
LWPOLYLINE
  5
6D8
100
AcDbEntity
  8
0
100
AcDbPolyline
 62
7
  6
CONTINUOUS
 90
49
 70
0
 10
16.2230700891
 20
17.5116444106
 10
16.3212038431
 20
17.50970024
 10
16.4191938922
 20
17.5045498229
 10
16.5169356684
 20
17.4962012468
 10
16.6143331721
 20
17.4846650398
 10
16.7112744982
 20
17.4699565246
 10
16.8076323444
 20
17.4520984175
 10
16.9032966111
 20
17.4311165682
 10
16.9981748781
 20
17.407036779
 10
17.0921681751
 20
17.3798888574
 10
17.1851765024
 20
17.3497067713
 10
17.2771040787
 20
17.3165268035
 10
17.3678599823
 20
17.2803863287
 10
17.457349235
 20
17.2413277392
 10
17.545479174
 20
17.1993962268
 10
17.6321642075
 20
17.1546367573
 10
17.7173125257
 20
17.1071008933
 10
17.8008378202
 20
17.0568410928
 10
17.8826645015
 20
17.0039062497
 10
17.9627072569
 20
16.9483543919
 10
18.0408832504
 20
16.8902458292
 10
18.1171221201
 20
16.829634738
 10
18.1913451418
 20
16.766584825
 10
18.2634736367
 20
16.7011641265
 10
18.3334391039
 20
16.6334353181
 10
18.4011677997
 20
16.5634697169
 10
18.4665883922
 20
16.4913410785
 10
18.5296381869
 20
16.4171179239
 10
18.5902491438
 20
16.340878938
 10
18.648357562
 20
16.2627028407
 10
18.7039092623
 20
16.1826600019
 10
18.7568439268
 20
16.1008332751
 10
18.8071035402
 20
16.0173079581
 10
18.8546392341
 20
15.9321595963
 10
18.8993985582
 20
15.8454744779
 10
18.9413299357
 20
15.7573444293
 10
18.9803883921
 20
15.6678550523
 10
19.0165287383
 20
15.5770989958
 10
19.049708575
 20
15.4851712504
 10
19.0798905102
 20
15.39216279
 10
19.1070382568
 20
15.298169424
 10
19.1311178599
 20
15.2032911268
 10
19.1520995224
 20
15.107626841
 10
19.1699574429
 20
15.0112689847
 10
19.1846657721
 20
14.9143276596
 10
19.1962017976
 20
14.8169301449
 10
19.204550196
 20
14.7191883375
 10
19.2097004361
 20
14.6211982448
 10
19.2116444286
 20
14.5230644348
  0
LWPOLYLINE
  5
6D9
100
AcDbEntity
  8
0
100
AcDbPolyline
 62
250
  6
CONTINUOUS
 90
13
 70
0
 10
16.1787342271
 20
17.4750008955
 10
16.3750474572
 20
17.4685973048
 10
16.570492243
 20
17.4493667182
 10
16.7642323748
 20
17.4173958209
 10
16.9554395661
 20
17.3728261772
 10
17.1432962398
 20
17.3158523559
 10
17.326998993
 20
17.2467209747
 10
17.505758751
 20
17.1657337479
 10
17.6788172899
 20
17.0732394569
 10
17.8454481618
 20
16.969628225
 10
18.0049429472
 20
16.8553408168
 10
18.1566158483
 20
16.730869633
 10
18.2998186678
 20
16.5967477833
  0
LWPOLYLINE
  5
6DA
100
AcDbEntity
  8
0
100
AcDbPolyline
 62
250
  6
CONTINUOUS
 90
25
 70
0
 10
16.1034786986
 20
17.3996231756
 10
16.299764003
 20
17.3930744091
 10
16.4951604304
 20
17.373699347
 10
16.6888313935
 20
17.3415905214
 10
16.8799435195
 20
17.2968962925
 10
17.0676860176
 20
17.2398166005
 10
17.2512731278
 20
17.1705986379
 10
17.4299218394
 20
17.0895443892
 10
17.6028705234
 20
16.9970063616
 10
17.7693956838
 20
16.8933771407
 10
17.9287868336
 20
16.7791028081
 10
18.0803650834
 20
16.6546742066
 10
18.2234968358
 20
16.5206135623
 10
18.3575704351
 20
16.3774937232
 10
18.482012931
 20
16.2259262517
 10
18.5963019881
 20
16.0665446636
 10
18.6999466451
 20
15.9000277757
 10
18.7925006964
 20
15.7270860142
 10
18.8735714275
 20
15.5484428268
 10
18.9428062031
 20
15.3648597873
 10
18.9999028932
 20
15.1771199006
 10
19.0446141571
 20
14.9860089746
 10
19.0767399241
 20
14.7923378239
 10
19.0961317103
 20
14.596939819
 10
19.1026968572
 20
14.4006515754
  0
LWPOLYLINE
  5
6DB
100
AcDbEntity
  8
0
100
AcDbPolyline
 62
7
  6
CONTINUOUS
 90
16
 70
0
 10
9.5532087082
 20
17.1796612759
 10
9.5792999657
 20
17.1782841692
 10
9.6051010197
 20
17.174192835
 10
9.6303303583
 20
17.1674335778
 10
9.6547084822
 20
17.1580837784
 10
9.6779748929
 20
17.1462459313
 10
9.699888639
 20
17.1320418828
 10
9.7202111691
 20
17.1156221633
 10
9.7387161113
 20
17.0971652526
 10
9.755202649
 20
17.0768659087
 10
9.7694868902
 20
17.0549426962
 10
9.7814078602
 20
17.0316335898
 10
9.7908317758
 20
17.0071879986
 10
9.7976496064
 20
16.9818708579
 10
9.801779749
 20
16.9559604389
 10
9.8031705449
 20
16.9297413085
  0
LWPOLYLINE
  5
6DC
100
AcDbEntity
  8
RACCORDO
100
AcDbPolyline
 62
7
  6
CONTINUOUS
 90
16
 70
0
 10
-3.7273243011
 20
19.2582405394
 10
-3.736921285
 20
19.25883685
 10
-3.7467685557
 20
19.2596999442
 10
-3.7568661131
 20
19.2608298222
 10
-3.7672049389
 20
19.2622016254
 10
-3.7777940515
 20
19.2638402124
 10
-3.7886605059
 20
19.2658201586
 10
-3.7998042443
 20
19.2681314823
 10
-3.8112253246
 20
19.2707841654
 10
-3.822950975
 20
19.2738827292
 10
-3.8349812089
 20
19.277410926
 10
-3.847316013
 20
19.2813850036
 10
-3.8599825754
 20
19.2859582264
 10
-3.8729899587
 20
19.2911816825
 10
-3.8863291002
 20
19.2970042837
 10
-3.9
 20
19.3034260301
  0
LWPOLYLINE
  5
6DD
100
AcDbEntity
  8
ASSI
100
AcDbPolyline
 62
7
  6
CONTINUOUS
 90
16
 70
0
 10
-3.7273243011
 20
19.2582405394
 10
-3.736921285
 20
19.25883685
 10
-3.7467685557
 20
19.2596999442
 10
-3.7568661131
 20
19.2608298222
 10
-3.7672049389
 20
19.2622016254
 10
-3.7777940515
 20
19.2638402124
 10
-3.7886605059
 20
19.2658201586
 10
-3.7998042443
 20
19.2681314823
 10
-3.8112253246
 20
19.2707841654
 10
-3.822950975
 20
19.2738827292
 10
-3.8349812089
 20
19.277410926
 10
-3.847316013
 20
19.2813850036
 10
-3.8599825754
 20
19.2859582264
 10
-3.8729899587
 20
19.2911816825
 10
-3.8863291002
 20
19.2970042837
 10
-3.9
 20
19.3034260301
  0
LINE
  5
6DE
100
AcDbEntity
  8
DRAFT
100
AcDbLine
 62
7
  6
CONTINUOUS
 10
-4.0135191699
 20
20.9320850844
 11
-3.8669648205
 21
20.9
  0
LINE
  5
6DF
100
AcDbEntity
  8
ASSI
100
AcDbLine
 62
7
  6
CONTINUOUS
 10
-4.0135191699
 20
20.9320850844
 11
-3.8669648205
 21
20.9
  0
LINE
  5
6E0
100
AcDbEntity
  8
RACCORDO
100
AcDbLine
 62
7
  6
CONTINUOUS
 10
3.9
 20
19.8965739699
 11
4.0415154698
 21
19.8258216238
  0
LINE
  5
6E1
100
AcDbEntity
  8
ASSI
100
AcDbLine
 62
7
  6
CONTINUOUS
 10
3.9
 20
19.8965739699
 11
4.0415154698
 21
19.8258216238
  0
LINE
  5
6E2
100
AcDbEntity
  8
DRAFT
100
AcDbLine
 62
7
  6
CONTINUOUS
 10
20.7603594806
 20
-20.7603594806
 11
20.7603594806
 21
-0.4
  0
LINE
  5
6E3
100
AcDbEntity
  8
ASSI
100
AcDbLine
 62
7
  6
CONTINUOUS
 10
20.7603594806
 20
-20.7603594806
 11
20.7603594806
 21
-0.4
  0
LINE
  5
6E4
100
AcDbEntity
  8
DRAFT
100
AcDbLine
 62
7
  6
CONTINUOUS
 10
20.7603594806
 20
0.4
 11
20.7603594806
 21
20.7603594806
  0
LINE
  5
6E5
100
AcDbEntity
  8
ASSI
100
AcDbLine
 62
7
  6
CONTINUOUS
 10
20.7603594806
 20
0.4
 11
20.7603594806
 21
20.7603594806
  0
LINE
  5
6E6
100
AcDbEntity
  8
RACCORDO
100
AcDbLine
 62
7
  6
CONTINUOUS
 10
20.9
 20
-20.9
 11
20.9
 21
-18.1006347748
  0
LINE
  5
6E7
100
AcDbEntity
  8
ASSI
100
AcDbLine
 62
7
  6
CONTINUOUS
 10
20.9
 20
-20.9
 11
20.9
 21
-18.1006347748
  0
LINE
  5
6E8
100
AcDbEntity
  8
RACCORDO
100
AcDbLine
 62
7
  6
CONTINUOUS
 10
20.9
 20
18.1006347748
 11
20.9
 21
20.9
  0
LINE
  5
6E9
100
AcDbEntity
  8
ASSI
100
AcDbLine
 62
7
  6
CONTINUOUS
 10
20.9
 20
18.1006347748
 11
20.9
 21
20.9
  0
LINE
  5
6EA
100
AcDbEntity
  8
RACCORDO
100
AcDbLine
 62
7
  6
CONTINUOUS
 10
20.9261825974
 20
18.029762091
 11
20.9261825974
 21
0.317094756
  0
LINE
  5
6EB
100
AcDbEntity
  8
ASSI
100
AcDbLine
 62
7
  6
CONTINUOUS
 10
20.9261825974
 20
18.029762091
 11
20.9261825974
 21
0.317094756
  0
LINE
  5
6EC
100
AcDbEntity
  8
RACCORDO
100
AcDbLine
 62
7
  6
CONTINUOUS
 10
20.9261825974
 20
-0.317094756
 11
20.9261825974
 21
-18.029762091
  0
LINE
  5
6ED
100
AcDbEntity
  8
ASSI
100
AcDbLine
 62
7
  6
CONTINUOUS
 10
20.9261825974
 20
-0.317094756
 11
20.9261825974
 21
-18.029762091
  0
LINE
  5
6EE
100
AcDbEntity
  8
RACCORDO
100
AcDbLine
 62
7
  6
CONTINUOUS
 10
-3.9
 20
19.8255982314
 11
-4.0415154698
 21
19.8127991157
  0
LINE
  5
6EF
100
AcDbEntity
  8
ASSI
100
AcDbLine
 62
7
  6
CONTINUOUS
 10
-3.9
 20
19.8255982314
 11
-4.0415154698
 21
19.8127991157
  0
LINE
  5
6F0
100
AcDbEntity
  8
DRAFT
100
AcDbLine
 62
7
  6
CONTINUOUS
 10
14.702972121
 20
21.2
 11
14.4040057528
 21
21.1851643248
  0
LINE
  5
6F1
100
AcDbEntity
  8
ASSI
100
AcDbLine
 62
7
  6
CONTINUOUS
 10
14.702972121
 20
21.2
 11
14.4040057528
 21
21.1851643248
  0
LINE
  5
6F2
100
AcDbEntity
  8
DRAFT
100
AcDbLine
 62
7
  6
CONTINUOUS
 10
-7.797027879
 20
21.2
 11
-8.0959942472
 21
21.1851643248
  0
LINE
  5
6F3
100
AcDbEntity
  8
ASSI
100
AcDbLine
 62
7
  6
CONTINUOUS
 10
-7.797027879
 20
21.2
 11
-8.0959942472
 21
21.1851643248
  0
LINE
  5
6F4
100
AcDbEntity
  8
DRAFT
100
AcDbLine
 62
7
  6
CONTINUOUS
 10
14.35
 20
22.1851643248
 11
14.2558829718
 21
22.1805062352
  0
LINE
  5
6F5
100
AcDbEntity
  8
ASSI
100
AcDbLine
 62
7
  6
CONTINUOUS
 10
14.35
 20
22.1851643248
 11
14.2558829718
 21
22.1805062352
  0
LINE
  5
6F6
100
AcDbEntity
  8
DRAFT
100
AcDbLine
 62
7
  6
CONTINUOUS
 10
18.4584845302
 20
19.8
 11
4.0415154698
 21
19.8
  0
LINE
  5
6F7
100
AcDbEntity
  8
ASSI
100
AcDbLine
 62
7
  6
CONTINUOUS
 10
18.4584845302
 20
19.8
 11
4.0415154698
 21
19.8
  0
LINE
  5
6F8
100
AcDbEntity
  8
DRAFT
100
AcDbLine
 62
7
  6
CONTINUOUS
 10
-4.0415154698
 20
19.8
 11
-18.4584845302
 21
19.8
  0
LINE
  5
6F9
100
AcDbEntity
  8
ASSI
100
AcDbLine
 62
7
  6
CONTINUOUS
 10
-4.0415154698
 20
19.8
 11
-18.4584845302
 21
19.8
  0
LINE
  5
6FA
100
AcDbEntity
  8
DRAFT
100
AcDbLine
 62
7
  6
CONTINUOUS
 10
18.4584845302
 20
20.0060689771
 11
4.0415154698
 21
20.0060689771
  0
LINE
  5
6FB
100
AcDbEntity
  8
ASSI
100
AcDbLine
 62
7
  6
CONTINUOUS
 10
18.4584845302
 20
20.0060689771
 11
4.0415154698
 21
20.0060689771
  0
LINE
  5
6FC
100
AcDbEntity
  8
DRAFT
100
AcDbLine
 62
7
  6
CONTINUOUS
 10
-4.0415154698
 20
20.0060689771
 11
-18.4584845302
 21
20.0060689771
  0
LINE
  5
6FD
100
AcDbEntity
  8
ASSI
100
AcDbLine
 62
7
  6
CONTINUOUS
 10
-4.0415154698
 20
20.0060689771
 11
-18.4584845302
 21
20.0060689771
  0
LINE
  5
6FE
100
AcDbEntity
  8
DRAFT
100
AcDbLine
 62
7
  6
CONTINUOUS
 10
20.7603594806
 20
20.7603594806
 11
18.7726756989
 21
20.7603594806
  0
LINE
  5
6FF
100
AcDbEntity
  8
ASSI
100
AcDbLine
 62
7
  6
CONTINUOUS
 10
20.7603594806
 20
20.7603594806
 11
18.7726756989
 21
20.7603594806
  0
LINE
  5
700
100
AcDbEntity
  8
DRAFT
100
AcDbLine
 62
7
  6
CONTINUOUS
 10
3.7273243011
 20
20.7603594806
 11
-3.7273243011
 21
20.7603594806
  0
LINE
  5
701
100
AcDbEntity
  8
ASSI
100
AcDbLine
 62
7
  6
CONTINUOUS
 10
3.7273243011
 20
20.7603594806
 11
-3.7273243011
 21
20.7603594806
  0
LINE
  5
702
100
AcDbEntity
  8
DRAFT
100
AcDbLine
 62
7
  6
CONTINUOUS
 10
-18.7726756989
 20
20.7603594806
 11
-20.7603594806
 21
20.7603594806
  0
LINE
  5
703
100
AcDbEntity
  8
ASSI
100
AcDbLine
 62
7
  6
CONTINUOUS
 10
-18.7726756989
 20
20.7603594806
 11
-20.7603594806
 21
20.7603594806
  0
LINE
  5
704
100
AcDbEntity
  8
DRAFT
100
AcDbLine
 62
7
  6
CONTINUOUS
 10
20.9
 20
20.9
 11
18.6330351795
 21
20.9
  0
LINE
  5
705
100
AcDbEntity
  8
ASSI
100
AcDbLine
 62
7
  6
CONTINUOUS
 10
20.9
 20
20.9
 11
18.6330351795
 21
20.9
  0
LINE
  5
706
100
AcDbEntity
  8
DRAFT
100
AcDbLine
 62
7
  6
CONTINUOUS
 10
3.8669648205
 20
20.9
 11
-3.8669648205
 21
20.9
  0
LINE
  5
707
100
AcDbEntity
  8
ASSI
100
AcDbLine
 62
7
  6
CONTINUOUS
 10
3.8669648205
 20
20.9
 11
-3.8669648205
 21
20.9
  0
LINE
  5
708
100
AcDbEntity
  8
DRAFT
100
AcDbLine
 62
7
  6
CONTINUOUS
 10
-18.6330351795
 20
20.9
 11
-20.9
 21
20.9
  0
LINE
  5
709
100
AcDbEntity
  8
ASSI
100
AcDbLine
 62
7
  6
CONTINUOUS
 10
-18.6330351795
 20
20.9
 11
-20.9
 21
20.9
  0
LINE
  5
70A
100
AcDbEntity
  8
DRAFT
100
AcDbLine
 62
7
  6
CONTINUOUS
 10
18.2245711414
 20
21.1651588757
 11
13.945788487
 21
21.1651588757
  0
LINE
  5
70B
100
AcDbEntity
  8
ASSI
100
AcDbLine
 62
7
  6
CONTINUOUS
 10
18.2245711414
 20
21.1651588757
 11
13.945788487
 21
21.1651588757
  0
LINE
  5
70C
100
AcDbEntity
  8
DRAFT
100
AcDbLine
 62
7
  6
CONTINUOUS
 10
8.554211513
 20
21.1651588757
 11
4.2754288586
 21
21.1651588757
  0
LINE
  5
70D
100
AcDbEntity
  8
ASSI
100
AcDbLine
 62
7
  6
CONTINUOUS
 10
8.554211513
 20
21.1651588757
 11
4.2754288586
 21
21.1651588757
  0
LINE
  5
70E
100
AcDbEntity
  8
DRAFT
100
AcDbLine
 62
7
  6
CONTINUOUS
 10
-4.2754288586
 20
21.1651588757
 11
-8.554211513
 21
21.1651588757
  0
LINE
  5
70F
100
AcDbEntity
  8
ASSI
100
AcDbLine
 62
7
  6
CONTINUOUS
 10
-4.2754288586
 20
21.1651588757
 11
-8.554211513
 21
21.1651588757
  0
LINE
  5
710
100
AcDbEntity
  8
DRAFT
100
AcDbLine
 62
7
  6
CONTINUOUS
 10
-13.945788487
 20
21.1651588757
 11
-18.2245711414
 21
21.1651588757
  0
LINE
  5
711
100
AcDbEntity
  8
ASSI
100
AcDbLine
 62
7
  6
CONTINUOUS
 10
-13.945788487
 20
21.1651588757
 11
-18.2245711414
 21
21.1651588757
  0
LINE
  5
712
100
AcDbEntity
  8
DRAFT
100
AcDbLine
 62
7
  6
CONTINUOUS
 10
-14.4040057528
 20
21.1851643248
 11
-14.35
 21
21.1851643248
  0
LINE
  5
713
100
AcDbEntity
  8
DRAFT
100
AcDbLine
 62
7
  6
CONTINUOUS
 10
14.4040057528
 20
21.1851643248
 11
14.35
 21
21.1851643248
  0
LINE
  5
714
100
AcDbEntity
  8
ASSI
100
AcDbLine
 62
7
  6
CONTINUOUS
 10
-14.4040057528
 20
21.1851643248
 11
-14.35
 21
21.1851643248
  0
LINE
  5
715
100
AcDbEntity
  8
ASSI
100
AcDbLine
 62
7
  6
CONTINUOUS
 10
14.4040057528
 20
21.1851643248
 11
14.35
 21
21.1851643248
  0
LINE
  5
716
100
AcDbEntity
  8
DRAFT
100
AcDbLine
 62
7
  6
CONTINUOUS
 10
8.0959942472
 20
21.1851643248
 11
8.15
 21
21.1851643248
  0
LINE
  5
717
100
AcDbEntity
  8
DRAFT
100
AcDbLine
 62
7
  6
CONTINUOUS
 10
-8.0959942472
 20
21.1851643248
 11
-8.15
 21
21.1851643248
  0
LINE
  5
718
100
AcDbEntity
  8
ASSI
100
AcDbLine
 62
7
  6
CONTINUOUS
 10
8.0959942472
 20
21.1851643248
 11
8.15
 21
21.1851643248
  0
LINE
  5
719
100
AcDbEntity
  8
ASSI
100
AcDbLine
 62
7
  6
CONTINUOUS
 10
-8.0959942472
 20
21.1851643248
 11
-8.15
 21
21.1851643248
  0
LINE
  5
71A
100
AcDbEntity
  8
DRAFT
100
AcDbLine
 62
7
  6
CONTINUOUS
 10
18.2374998327
 20
21.2
 11
14.702972121
 21
21.2
  0
LINE
  5
71B
100
AcDbEntity
  8
ASSI
100
AcDbLine
 62
7
  6
CONTINUOUS
 10
18.2374998327
 20
21.2
 11
14.702972121
 21
21.2
  0
LINE
  5
71C
100
AcDbEntity
  8
DRAFT
100
AcDbLine
 62
7
  6
CONTINUOUS
 10
7.797027879
 20
21.2
 11
4.2625001673
 21
21.2
  0
LINE
  5
71D
100
AcDbEntity
  8
ASSI
100
AcDbLine
 62
7
  6
CONTINUOUS
 10
7.797027879
 20
21.2
 11
4.2625001673
 21
21.2
  0
LINE
  5
71E
100
AcDbEntity
  8
DRAFT
100
AcDbLine
 62
7
  6
CONTINUOUS
 10
-4.2625001673
 20
21.2
 11
-7.797027879
 21
21.2
  0
LINE
  5
71F
100
AcDbEntity
  8
ASSI
100
AcDbLine
 62
7
  6
CONTINUOUS
 10
-4.2625001673
 20
21.2
 11
-7.797027879
 21
21.2
  0
LINE
  5
720
100
AcDbEntity
  8
DRAFT
100
AcDbLine
 62
7
  6
CONTINUOUS
 10
-14.702972121
 20
21.2
 11
-18.2374998327
 21
21.2
  0
LINE
  5
721
100
AcDbEntity
  8
ASSI
100
AcDbLine
 62
7
  6
CONTINUOUS
 10
-14.702972121
 20
21.2
 11
-18.2374998327
 21
21.2
  0
LINE
  5
722
100
AcDbEntity
  8
DRAFT
100
AcDbLine
 62
7
  6
CONTINUOUS
 10
-14.4040057528
 20
21.1851643248
 11
-14.702972121
 21
21.2
  0
LINE
  5
723
100
AcDbEntity
  8
ASSI
100
AcDbLine
 62
7
  6
CONTINUOUS
 10
-14.4040057528
 20
21.1851643248
 11
-14.702972121
 21
21.2
  0
LINE
  5
724
100
AcDbEntity
  8
DRAFT
100
AcDbLine
 62
7
  6
CONTINUOUS
 10
-14.2558829718
 20
22.1805062352
 11
-14.35
 21
22.1851643248
  0
LINE
  5
725
100
AcDbEntity
  8
ASSI
100
AcDbLine
 62
7
  6
CONTINUOUS
 10
-14.2558829718
 20
22.1805062352
 11
-14.35
 21
22.1851643248
  0
LINE
  5
726
100
AcDbEntity
  8
DRAFT
100
AcDbLine
 62
7
  6
CONTINUOUS
 10
8.0959942472
 20
21.1851643248
 11
7.797027879
 21
21.2
  0
LINE
  5
727
100
AcDbEntity
  8
ASSI
100
AcDbLine
 62
7
  6
CONTINUOUS
 10
8.0959942472
 20
21.1851643248
 11
7.797027879
 21
21.2
  0
LWPOLYLINE
  5
728
100
AcDbEntity
  8
RACCORDO
100
AcDbPolyline
 62
7
  6
CONTINUOUS
 90
16
 70
0
 10
3.7273243011
 20
19.9417594606
 10
3.7369460137
 20
19.9411607881
 10
3.7468132302
 20
19.940295286
 10
3.7569259507
 20
19.9391629545
 10
3.7672746763
 20
19.9377884549
 10
3.7778689059
 20
19.9361471257
 10
3.7887371361
 20
19.9341649829
 10
3.7998792935
 20
19.931852101
 10
3.8112954516
 20
19.9291984054
 10
3.823014327
 20
19.9260996878
 10
3.8350359391
 20
19.922572306
 10
3.8473602685
 20
19.9185999023
 10
3.8600159735
 20
19.914029195
 10
3.8730126067
 20
19.9088090903
 10
3.8863406156
 20
19.9029906819
 10
3.9
 20
19.8965739699
  0
LWPOLYLINE
  5
729
100
AcDbEntity
  8
ASSI
100
AcDbPolyline
 62
7
  6
CONTINUOUS
 90
16
 70
0
 10
3.7273243011
 20
19.9417594606
 10
3.7369460137
 20
19.9411607881
 10
3.7468132302
 20
19.940295286
 10
3.7569259507
 20
19.9391629545
 10
3.7672746763
 20
19.9377884549
 10
3.7778689059
 20
19.9361471257
 10
3.7887371361
 20
19.9341649829
 10
3.7998792935
 20
19.931852101
 10
3.8112954516
 20
19.9291984054
 10
3.823014327
 20
19.9260996878
 10
3.8350359391
 20
19.922572306
 10
3.8473602685
 20
19.9185999023
 10
3.8600159735
 20
19.914029195
 10
3.8730126067
 20
19.9088090903
 10
3.8863406156
 20
19.9029906819
 10
3.9
 20
19.8965739699
  0
LINE
  5
72A
100
AcDbEntity
  8
RACCORDO
100
AcDbLine
 62
7
  6
CONTINUOUS
 10
4.0415154698
 20
19.8127991157
 11
3.9
 21
19.8255982314
  0
LINE
  5
72B
100
AcDbEntity
  8
ASSI
100
AcDbLine
 62
7
  6
CONTINUOUS
 10
4.0415154698
 20
19.8127991157
 11
3.9
 21
19.8255982314
  0
LWPOLYLINE
  5
72C
100
AcDbEntity
  8
RACCORDO
100
AcDbPolyline
 62
7
  6
CONTINUOUS
 90
7
 70
0
 10
22.3738174026
 20
16.4544358981
 10
22.3674773566
 20
16.5649979628
 10
22.349834933
 20
16.6719964515
 10
22.320890132
 20
16.775431364
 10
22.2806429534
 20
16.8753027005
 10
22.2290933972
 20
16.9716104609
 10
22.1662414635
 20
17.0643546451
  0
LWPOLYLINE
  5
72D
100
AcDbEntity
  8
ASSI
100
AcDbPolyline
 62
7
  6
CONTINUOUS
 90
7
 70
0
 10
22.3738174026
 20
16.4544358981
 10
22.3674773566
 20
16.5649979628
 10
22.349834933
 20
16.6719964515
 10
22.320890132
 20
16.775431364
 10
22.2806429534
 20
16.8753027005
 10
22.2290933972
 20
16.9716104609
 10
22.1662414635
 20
17.0643546451
  0
LINE
  5
72E
100
AcDbEntity
  8
RACCORDO
100
AcDbLine
 62
7
  6
CONTINUOUS
 10
22.3738174026
 20
-16.4544358981
 11
22.3738174026
 21
16.4544358981
  0
LINE
  5
72F
100
AcDbEntity
  8
ASSI
100
AcDbLine
 62
7
  6
CONTINUOUS
 10
22.3738174026
 20
-16.4544358981
 11
22.3738174026
 21
16.4544358981
  0
LINE
  5
730
100
AcDbEntity
  8
RACCORDO
100
AcDbLine
 62
7
  6
CONTINUOUS
 10
22.4
 20
21.8997711479
 11
22.4
 21
16.4633443086
  0
LINE
  5
731
100
AcDbEntity
  8
ASSI
100
AcDbLine
 62
7
  6
CONTINUOUS
 10
22.4
 20
21.8997711479
 11
22.4
 21
16.4633443086
  0
LINE
  5
732
100
AcDbEntity
  8
RACCORDO
100
AcDbLine
 62
7
  6
CONTINUOUS
 10
22.4
 20
-16.4633443086
 11
22.4
 21
-21.8997711479
  0
LINE
  5
733
100
AcDbEntity
  8
ASSI
100
AcDbLine
 62
7
  6
CONTINUOUS
 10
22.4
 20
-16.4633443086
 11
22.4
 21
-21.8997711479
  0
LINE
  5
734
100
AcDbEntity
  8
DRAFT
100
AcDbLine
 62
7
  6
CONTINUOUS
 10
18.2173756559
 20
-18.867094756
 11
18.1551386093
 21
-19.0173482781
  0
LINE
  5
735
100
AcDbEntity
  8
ASSI
100
AcDbLine
 62
7
  6
CONTINUOUS
 10
18.2173756559
 20
-18.867094756
 11
18.1551386093
 21
-19.0173482781
  0
LINE
  5
736
100
AcDbEntity
  8
DRAFT
100
AcDbLine
 62
7
  6
CONTINUOUS
 10
-8.15
 20
22.1851643248
 11
-8.2441170282
 21
22.1805062352
  0
LINE
  5
737
100
AcDbEntity
  8
ASSI
100
AcDbLine
 62
7
  6
CONTINUOUS
 10
-8.15
 20
22.1851643248
 11
-8.2441170282
 21
22.1805062352
  0
LINE
  5
738
100
AcDbEntity
  8
DRAFT
100
AcDbLine
 62
7
  6
CONTINUOUS
 10
-14.2558829718
 20
22.1805062352
 11
-8.2441170282
 21
22.1805062352
  0
LINE
  5
739
100
AcDbEntity
  8
ASSI
100
AcDbLine
 62
7
  6
CONTINUOUS
 10
-14.2558829718
 20
22.1805062352
 11
-8.2441170282
 21
22.1805062352
  0
LINE
  5
73A
100
AcDbEntity
  8
DRAFT
100
AcDbLine
 62
7
  6
CONTINUOUS
 10
8.2441170282
 20
22.1805062352
 11
14.2558829718
 21
22.1805062352
  0
LINE
  5
73B
100
AcDbEntity
  8
ASSI
100
AcDbLine
 62
7
  6
CONTINUOUS
 10
8.2441170282
 20
22.1805062352
 11
14.2558829718
 21
22.1805062352
  0
LINE
  5
73C
100
AcDbEntity
  8
DRAFT
100
AcDbLine
 62
7
  6
CONTINUOUS
 10
7.8502441328
 20
22.2
 11
14.6497558672
 21
22.2
  0
LINE
  5
73D
100
AcDbEntity
  8
ASSI
100
AcDbLine
 62
7
  6
CONTINUOUS
 10
7.8502441328
 20
22.2
 11
14.6497558672
 21
22.2
  0
LINE
  5
73E
100
AcDbEntity
  8
DRAFT
100
AcDbLine
 62
7
  6
CONTINUOUS
 10
-7.8502441328
 20
22.2
 11
-14.6497558672
 21
22.2
  0
LINE
  5
73F
100
AcDbEntity
  8
ASSI
100
AcDbLine
 62
7
  6
CONTINUOUS
 10
-7.8502441328
 20
22.2
 11
-14.6497558672
 21
22.2
  0
LINE
  5
740
100
AcDbEntity
  8
DRAFT
100
AcDbLine
 62
7
  6
CONTINUOUS
 10
21.9003805997
 20
22.4
 11
16.8
 21
22.4
  0
LINE
  5
741
100
AcDbEntity
  8
ASSI
100
AcDbLine
 62
7
  6
CONTINUOUS
 10
21.9003805997
 20
22.4
 11
16.8
 21
22.4
  0
LINE
  5
742
100
AcDbEntity
  8
DRAFT
100
AcDbLine
 62
7
  6
CONTINUOUS
 10
5.7
 20
22.4
 11
-5.7
 21
22.4
  0
LINE
  5
743
100
AcDbEntity
  8
ASSI
100
AcDbLine
 62
7
  6
CONTINUOUS
 10
5.7
 20
22.4
 11
-5.7
 21
22.4
  0
LINE
  5
744
100
AcDbEntity
  8
DRAFT
100
AcDbLine
 62
7
  6
CONTINUOUS
 10
-16.8
 20
22.4
 11
-21.9003805997
 21
22.4
  0
LINE
  5
745
100
AcDbEntity
  8
ASSI
100
AcDbLine
 62
7
  6
CONTINUOUS
 10
-16.8
 20
22.4
 11
-21.9003805997
 21
22.4
  0
LINE
  5
746
100
AcDbEntity
  8
DRAFT
100
AcDbLine
 62
7
  6
CONTINUOUS
 10
15.2130152422
 20
23.4650925288
 11
7.2869847578
 21
23.4650925288
  0
LINE
  5
747
100
AcDbEntity
  8
ASSI
100
AcDbLine
 62
7
  6
CONTINUOUS
 10
15.2130152422
 20
23.4650925288
 11
7.2869847578
 21
23.4650925288
  0
LINE
  5
748
100
AcDbEntity
  8
DRAFT
100
AcDbLine
 62
7
  6
CONTINUOUS
 10
-7.2869847578
 20
23.4650925288
 11
-15.2130152422
 21
23.4650925288
  0
LINE
  5
749
100
AcDbEntity
  8
ASSI
100
AcDbLine
 62
7
  6
CONTINUOUS
 10
-7.2869847578
 20
23.4650925288
 11
-15.2130152422
 21
23.4650925288
  0
LINE
  5
74A
100
AcDbEntity
  8
DRAFT
100
AcDbLine
 62
7
  6
CONTINUOUS
 10
15.2233373476
 20
23.5
 11
14.25
 21
23.5
  0
LINE
  5
74B
100
AcDbEntity
  8
ASSI
100
AcDbLine
 62
7
  6
CONTINUOUS
 10
15.2233373476
 20
23.5
 11
14.25
 21
23.5
  0
LINE
  5
74C
100
AcDbEntity
  8
DRAFT
100
AcDbLine
 62
7
  6
CONTINUOUS
 10
8.25
 20
23.5
 11
7.2766626524
 21
23.5
  0
LINE
  5
74D
100
AcDbEntity
  8
ASSI
100
AcDbLine
 62
7
  6
CONTINUOUS
 10
8.25
 20
23.5
 11
7.2766626524
 21
23.5
  0
LINE
  5
74E
100
AcDbEntity
  8
DRAFT
100
AcDbLine
 62
7
  6
CONTINUOUS
 10
-7.2766626524
 20
23.5
 11
-8.25
 21
23.5
  0
LINE
  5
74F
100
AcDbEntity
  8
ASSI
100
AcDbLine
 62
7
  6
CONTINUOUS
 10
-7.2766626524
 20
23.5
 11
-8.25
 21
23.5
  0
LINE
  5
750
100
AcDbEntity
  8
DRAFT
100
AcDbLine
 62
7
  6
CONTINUOUS
 10
-14.25
 20
23.5
 11
-15.2233373476
 21
23.5
  0
LINE
  5
751
100
AcDbEntity
  8
ASSI
100
AcDbLine
 62
7
  6
CONTINUOUS
 10
-14.25
 20
23.5
 11
-15.2233373476
 21
23.5
  0
LINE
  5
752
100
AcDbEntity
  8
DRAFT
100
AcDbLine
 62
7
  6
CONTINUOUS
 10
8.2441170282
 20
22.1805062352
 11
8.15
 21
22.1851643248
  0
LINE
  5
753
100
AcDbEntity
  8
ASSI
100
AcDbLine
 62
7
  6
CONTINUOUS
 10
8.2441170282
 20
22.1805062352
 11
8.15
 21
22.1851643248
  0
LINE
  5
754
100
AcDbEntity
  8
DRAFT
100
AcDbLine
 62
7
  6
CONTINUOUS
 10
18.2173756559
 20
18.867094756
 11
18.1551386093
 21
19.0173482781
  0
LINE
  5
755
100
AcDbEntity
  8
ASSI
100
AcDbLine
 62
7
  6
CONTINUOUS
 10
18.2173756559
 20
18.867094756
 11
18.1551386093
 21
19.0173482781
  0
LINE
  5
756
100
AcDbEntity
  8
RACCORDO
100
AcDbLine
 62
250
  6
CONTINUOUS
 10
20.9261825974
 20
-18.029762091
 11
20.9
 21
-18.1006347748
  0
LINE
  5
757
100
AcDbEntity
  8
ASSI
100
AcDbLine
 62
250
  6
CONTINUOUS
 10
20.9261825974
 20
-18.029762091
 11
20.9
 21
-18.1006347748
  0
LINE
  5
758
100
AcDbEntity
  8
DRAFT
100
AcDbLine
 62
7
  6
CONTINUOUS
 10
17.9830351795
 20
-18.8430942654
 11
17.8109317497
 21
-19.0173482781
  0
LINE
  5
759
100
AcDbEntity
  8
ASSI
100
AcDbLine
 62
7
  6
CONTINUOUS
 10
17.9830351795
 20
-18.8430942654
 11
17.8109317497
 21
-19.0173482781
  0
LINE
  5
75A
100
AcDbEntity
  8
DRAFT
100
AcDbLine
 62
7
  6
CONTINUOUS
 10
17.9830351795
 20
-18.6327542795
 11
17.748694703
 21
-18.867094756
  0
LINE
  5
75B
100
AcDbEntity
  8
ASSI
100
AcDbLine
 62
7
  6
CONTINUOUS
 10
17.9830351795
 20
-18.6327542795
 11
17.748694703
 21
-18.867094756
  0
LWPOLYLINE
  5
75C
100
AcDbEntity
  8
0
100
AcDbPolyline
 62
250
  6
CONTINUOUS
 90
13
 70
0
 10
18.2982789332
 20
-16.5982839658
 10
18.1550766685
 20
-16.7322160016
 10
18.0034129371
 20
-16.8565115152
 10
17.8439336729
 20
-16.9706370321
 10
17.6773202096
 20
-17.0741008911
 10
17.5042811567
 20
-17.166459787
 10
17.325548664
 20
-17.2473193568
 10
17.1418768607
 20
-17.3163320565
 10
16.9540568163
 20
-17.3731948172
 10
16.762908572
 20
-17.4176575022
 10
16.5692553245
 20
-17.4495281242
 10
16.3739188285
 20
-17.4686700249
 10
16.1777341164
 20
-17.4749998071
  0
LINE
  5
75D
100
AcDbEntity
  8
DRAFT
100
AcDbLine
 62
7
  6
CONTINUOUS
 10
18.4721457668
 20
-19.0173482781
 11
18.7726756989
 21
-18.867094756
  0
LINE
  5
75E
100
AcDbEntity
  8
ASSI
100
AcDbLine
 62
7
  6
CONTINUOUS
 10
18.4721457668
 20
-19.0173482781
 11
18.7726756989
 21
-18.867094756
  0
LINE
  5
75F
100
AcDbEntity
  8
DRAFT
100
AcDbLine
 62
7
  6
CONTINUOUS
 10
-18.6330351795
 20
20.9
 11
-18.4864808301
 21
20.9320850844
  0
LINE
  5
760
100
AcDbEntity
  8
ASSI
100
AcDbLine
 62
7
  6
CONTINUOUS
 10
-18.6330351795
 20
20.9
 11
-18.4864808301
 21
20.9320850844
  0
LINE
  5
761
100
AcDbEntity
  8
DRAFT
100
AcDbLine
 62
7
  6
CONTINUOUS
 10
18.4864808301
 20
20.9320850844
 11
18.6330351795
 21
20.9
  0
LINE
  5
762
100
AcDbEntity
  8
ASSI
100
AcDbLine
 62
7
  6
CONTINUOUS
 10
18.4864808301
 20
20.9320850844
 11
18.6330351795
 21
20.9
  0
LINE
  5
763
100
AcDbEntity
  8
DRAFT
100
AcDbLine
 62
7
  6
CONTINUOUS
 10
18.7726756989
 20
18.867094756
 11
18.4721457668
 21
19.0173482781
  0
LINE
  5
764
100
AcDbEntity
  8
ASSI
100
AcDbLine
 62
7
  6
CONTINUOUS
 10
18.7726756989
 20
18.867094756
 11
18.4721457668
 21
19.0173482781
  0
LINE
  5
765
100
AcDbEntity
  8
DRAFT
100
AcDbLine
 62
7
  6
CONTINUOUS
 10
17.748694703
 20
18.867094756
 11
17.9830351795
 21
18.6327542795
  0
LINE
  5
766
100
AcDbEntity
  8
ASSI
100
AcDbLine
 62
7
  6
CONTINUOUS
 10
17.748694703
 20
18.867094756
 11
17.9830351795
 21
18.6327542795
  0
LINE
  5
767
100
AcDbEntity
  8
DRAFT
100
AcDbLine
 62
7
  6
CONTINUOUS
 10
17.8109317497
 20
19.0173482781
 11
17.9830351795
 21
18.8430942654
  0
LINE
  5
768
100
AcDbEntity
  8
ASSI
100
AcDbLine
 62
7
  6
CONTINUOUS
 10
17.8109317497
 20
19.0173482781
 11
17.9830351795
 21
18.8430942654
  0
LWPOLYLINE
  5
769
100
AcDbEntity
  8
0
100
AcDbPolyline
 62
250
  6
CONTINUOUS
 90
13
 70
0
 10
18.2998186678
 20
16.5967477833
 10
18.4339221206
 20
16.4535653477
 10
18.5583878432
 20
16.3019021891
 10
18.6726803195
 20
16.1424043464
 10
18.7763123088
 20
15.9757422545
 10
18.8688305281
 20
15.80263544
 10
18.9498237144
 20
15.6238527702
 10
19.0189418132
 20
15.4401753138
 10
19.0758979836
 20
15.2523748688
 10
19.1204541909
 20
15.061239406
 10
19.1524193171
 20
14.8675806837
 10
19.171653461
 20
14.6722318056
 10
19.1780727776
 20
14.476028025
  0
LINE
  5
76A
100
AcDbEntity
  8
RACCORDO
100
AcDbLine
 62
250
  6
CONTINUOUS
 10
20.9261825974
 20
18.029762091
 11
20.9
 21
18.1006347748
  0
LINE
  5
76B
100
AcDbEntity
  8
ASSI
100
AcDbLine
 62
250
  6
CONTINUOUS
 10
20.9261825974
 20
18.029762091
 11
20.9
 21
18.1006347748
  0
LINE
  5
76C
100
AcDbEntity
  8
RACCORDO
100
AcDbLine
 62
250
  6
CONTINUOUS
 10
21.2782587846
 20
-18.1595749722
 11
21.2517445951
 21
-18.2308351883
  0
LINE
  5
76D
100
AcDbEntity
  8
ASSI
100
AcDbLine
 62
250
  6
CONTINUOUS
 10
21.2782587846
 20
-18.1595749722
 11
21.2517445951
 21
-18.2308351883
  0
LWPOLYLINE
  5
76E
100
AcDbEntity
  8
RACCORDO
100
AcDbPolyline
 62
7
  6
CONTINUOUS
 90
7
 70
0
 10
22.1662414635
 20
-17.0643546451
 10
22.2286618071
 20
-16.9728785988
 10
22.2799524091
 20
-16.8773317212
 10
22.3201132697
 20
-16.7777140123
 10
22.3491443888
 20
-16.6740254721
 10
22.3670457665
 20
-16.5662661007
 10
22.3738174026
 20
-16.4544358981
  0
LWPOLYLINE
  5
76F
100
AcDbEntity
  8
ASSI
100
AcDbPolyline
 62
7
  6
CONTINUOUS
 90
7
 70
0
 10
22.1662414635
 20
-17.0643546451
 10
22.2286618071
 20
-16.9728785988
 10
22.2799524091
 20
-16.8773317212
 10
22.3201132697
 20
-16.7777140123
 10
22.3491443888
 20
-16.6740254721
 10
22.3670457665
 20
-16.5662661007
 10
22.3738174026
 20
-16.4544358981
  0
LINE
  5
770
100
AcDbEntity
  8
DRAFT
100
AcDbLine
 62
7
  6
CONTINUOUS
 10
18.7726756989
 20
-20.7603594806
 11
18.6330351795
 21
-20.9
  0
LINE
  5
771
100
AcDbEntity
  8
ASSI
100
AcDbLine
 62
7
  6
CONTINUOUS
 10
18.7726756989
 20
-20.7603594806
 11
18.6330351795
 21
-20.9
  0
LWPOLYLINE
  5
772
100
AcDbEntity
  8
RACCORDO
100
AcDbPolyline
 62
7
  6
CONTINUOUS
 90
10
 70
0
 10
21.251744595
 20
-18.2308351884
 10
21.2066695918
 20
-18.2679324175
 10
21.160223699
 20
-18.2910868719
 10
21.1124069168
 20
-18.3002985515
 10
21.059393969
 20
-18.2941650705
 10
21.0050101317
 20
-18.2740888148
 10
20.9607312333
 20
-18.2442769417
 10
20.9303825499
 20
-18.2061318368
 10
20.9101388055
 20
-18.1582511145
 10
20.9
 20
-18.1006347748
  0
LWPOLYLINE
  5
773
100
AcDbEntity
  8
ASSI
100
AcDbPolyline
 62
7
  6
CONTINUOUS
 90
10
 70
0
 10
21.251744595
 20
-18.2308351884
 10
21.2066695918
 20
-18.2679324175
 10
21.160223699
 20
-18.2910868719
 10
21.1124069168
 20
-18.3002985515
 10
21.059393969
 20
-18.2941650705
 10
21.0050101317
 20
-18.2740888148
 10
20.9607312333
 20
-18.2442769417
 10
20.9303825499
 20
-18.2061318368
 10
20.9101388055
 20
-18.1582511145
 10
20.9
 20
-18.1006347748
  0
LWPOLYLINE
  5
774
100
AcDbEntity
  8
RACCORDO
100
AcDbPolyline
 62
7
  6
CONTINUOUS
 90
10
 70
0
 10
21.2782587845
 20
18.1595749722
 10
21.2333444334
 20
18.1967419377
 10
21.1870212005
 20
18.2200108497
 10
21.1392890856
 20
18.2293817082
 10
21.0863379882
 20
18.2235206482
 10
21.031978009
 20
18.2037615347
 10
20.98763945
 20
18.1741059627
 10
20.9571324122
 20
18.1358877972
 10
20.9366467946
 20
18.0877731733
 10
20.9261825974
 20
18.029762091
  0
LWPOLYLINE
  5
775
100
AcDbEntity
  8
ASSI
100
AcDbPolyline
 62
7
  6
CONTINUOUS
 90
10
 70
0
 10
21.2782587845
 20
18.1595749722
 10
21.2333444334
 20
18.1967419377
 10
21.1870212005
 20
18.2200108497
 10
21.1392890856
 20
18.2293817082
 10
21.0863379882
 20
18.2235206482
 10
21.031978009
 20
18.2037615347
 10
20.98763945
 20
18.1741059627
 10
20.9571324122
 20
18.1358877972
 10
20.9366467946
 20
18.0877731733
 10
20.9261825974
 20
18.029762091
  0
LINE
  5
776
100
AcDbEntity
  8
DRAFT
100
AcDbLine
 62
7
  6
CONTINUOUS
 10
18.7726756989
 20
20.7603594806
 11
18.6330351795
 21
20.9
  0
LINE
  5
777
100
AcDbEntity
  8
ASSI
100
AcDbLine
 62
7
  6
CONTINUOUS
 10
18.7726756989
 20
20.7603594806
 11
18.6330351795
 21
20.9
  0
LINE
  5
778
100
AcDbEntity
  8
RACCORDO
100
AcDbLine
 62
250
  6
CONTINUOUS
 10
21.2782587846
 20
18.1595749722
 11
21.2517445951
 21
18.2308351883
  0
LINE
  5
779
100
AcDbEntity
  8
ASSI
100
AcDbLine
 62
250
  6
CONTINUOUS
 10
21.2782587846
 20
18.1595749722
 11
21.2517445951
 21
18.2308351883
  0
ARC
  5
77A
100
AcDbEntity
  8
DRAFT
100
AcDbCircle
 62
7
  6
CONTINUOUS
 10
-6.3
 20
-23.1
 40
0.5
100
AcDbArc
 50
65.3858676962
 51
184.6979911069
  0
ARC
  5
77B
100
AcDbEntity
  8
DRAFT
100
AcDbCircle
 62
7
  6
CONTINUOUS
 10
-16.2
 20
-23.1
 40
0.5
100
AcDbArc
 50
355.3020088931
 51
114.6141323038
  0
ARC
  5
77C
100
AcDbEntity
  8
ASSI
100
AcDbCircle
 62
7
  6
CONTINUOUS
 10
-6.3
 20
-23.1
 40
0.5
100
AcDbArc
 50
65.3858676962
 51
184.6979911069
  0
ARC
  5
77D
100
AcDbEntity
  8
ASSI
100
AcDbCircle
 62
7
  6
CONTINUOUS
 10
-16.2
 20
-23.1
 40
0.5
100
AcDbArc
 50
355.3020088931
 51
114.6141323038
  0
ARC
  5
77E
100
AcDbEntity
  8
RACCORDO
100
AcDbCircle
 62
7
  6
CONTINUOUS
 10
-3.9
 20
-19.6
 40
0.382905244
100
AcDbArc
 50
296.8054190002
 51
63.1945809998
  0
ARC
  5
77F
100
AcDbEntity
  8
ASSI
100
AcDbCircle
 62
7
  6
CONTINUOUS
 10
-3.9
 20
-19.6
 40
0.382905244
100
AcDbArc
 50
26.8461550941
 51
63.1945809998
  0
ARC
  5
780
100
AcDbEntity
  8
ASSI
100
AcDbCircle
 62
7
  6
CONTINUOUS
 10
-3.9
 20
-19.6
 40
0.382905244
100
AcDbArc
 50
296.8054190002
 51
338.5605006257
  0
ARC
  5
781
100
AcDbEntity
  8
DRAFT
100
AcDbCircle
 62
7
  6
CONTINUOUS
 10
-22.5
 20
0.0
 40
28.0
100
AcDbArc
 50
302.9352304972
 51
304.1210936517
  0
ARC
  5
782
100
AcDbEntity
  8
DRAFT
100
AcDbCircle
 62
7
  6
CONTINUOUS
 10
-22.5
 20
-0.0
 40
28.0
100
AcDbArc
 50
55.8789063483
 51
57.0647695028
  0
ARC
  5
783
100
AcDbEntity
  8
DRAFT
100
AcDbCircle
 62
7
  6
CONTINUOUS
 10
-22.5
 20
-0.0
 40
28.0
100
AcDbArc
 50
48.2819495688
 51
54.0372348486
  0
ARC
  5
784
100
AcDbEntity
  8
DRAFT
100
AcDbCircle
 62
7
  6
CONTINUOUS
 10
-22.5
 20
0.0
 40
28.0
100
AcDbArc
 50
305.9627651514
 51
311.7180504312
  0
ARC
  5
785
100
AcDbEntity
  8
ASSI
100
AcDbCircle
 62
7
  6
CONTINUOUS
 10
-22.5
 20
0.0
 40
28.0
100
AcDbArc
 50
302.9352304972
 51
304.1210936517
  0
ARC
  5
786
100
AcDbEntity
  8
ASSI
100
AcDbCircle
 62
7
  6
CONTINUOUS
 10
-22.5
 20
-0.0
 40
28.0
100
AcDbArc
 50
55.8789063483
 51
57.0647695028
  0
ARC
  5
787
100
AcDbEntity
  8
ASSI
100
AcDbCircle
 62
7
  6
CONTINUOUS
 10
-22.5
 20
0.0
 40
28.0
100
AcDbArc
 50
305.9627651514
 51
311.7180504312
  0
ARC
  5
788
100
AcDbEntity
  8
ASSI
100
AcDbCircle
 62
7
  6
CONTINUOUS
 10
-22.5
 20
-0.0
 40
28.0
100
AcDbArc
 50
48.2819495688
 51
54.0372348486
  0
ARC
  5
789
100
AcDbEntity
  8
DRAFT
100
AcDbCircle
 62
7
  6
CONTINUOUS
 10
-22.5
 20
-0.0
 40
27.9650925288
100
AcDbArc
 50
49.2959255525
 51
54.0739558625
  0
ARC
  5
78A
100
AcDbEntity
  8
DRAFT
100
AcDbCircle
 62
7
  6
CONTINUOUS
 10
-22.5
 20
-0.0
 40
27.9650925288
100
AcDbArc
 50
55.8421853344
 51
57.0436344285
  0
ARC
  5
78B
100
AcDbEntity
  8
DRAFT
100
AcDbCircle
 62
7
  6
CONTINUOUS
 10
-22.5
 20
0.0
 40
27.9650925288
100
AcDbArc
 50
302.9563655715
 51
304.1578146656
  0
ARC
  5
78C
100
AcDbEntity
  8
DRAFT
100
AcDbCircle
 62
7
  6
CONTINUOUS
 10
-22.5
 20
0.0
 40
27.9650925288
100
AcDbArc
 50
305.9260441375
 51
310.7040744475
  0
ARC
  5
78D
100
AcDbEntity
  8
ASSI
100
AcDbCircle
 62
7
  6
CONTINUOUS
 10
-22.5
 20
-0.0
 40
27.9650925288
100
AcDbArc
 50
49.2959255525
 51
54.0739558625
  0
ARC
  5
78E
100
AcDbEntity
  8
ASSI
100
AcDbCircle
 62
7
  6
CONTINUOUS
 10
-22.5
 20
-0.0
 40
27.9650925288
100
AcDbArc
 50
55.8421853344
 51
57.0436344285
  0
ARC
  5
78F
100
AcDbEntity
  8
ASSI
100
AcDbCircle
 62
7
  6
CONTINUOUS
 10
-22.5
 20
0.0
 40
27.9650925288
100
AcDbArc
 50
302.9563655715
 51
304.1578146656
  0
ARC
  5
790
100
AcDbEntity
  8
ASSI
100
AcDbCircle
 62
7
  6
CONTINUOUS
 10
-22.5
 20
0.0
 40
27.9650925288
100
AcDbArc
 50
305.9260441375
 51
310.7040744475
  0
ARC
  5
791
100
AcDbEntity
  8
DRAFT
100
AcDbCircle
 62
7
  6
CONTINUOUS
 10
-16.2
 20
23.1
 40
0.5
100
AcDbArc
 50
245.3858676962
 51
4.6979911069
  0
ARC
  5
792
100
AcDbEntity
  8
ASSI
100
AcDbCircle
 62
7
  6
CONTINUOUS
 10
-16.2
 20
23.1
 40
0.5
100
AcDbArc
 50
245.3858676962
 51
4.6979911069
  0
ARC
  5
793
100
AcDbEntity
  8
DRAFT
100
AcDbCircle
 62
7
  6
CONTINUOUS
 10
-11.25
 20
0.0
 40
8.5
100
AcDbArc
 50
159.699772959
 51
177.3027318661
  0
ARC
  5
794
100
AcDbEntity
  8
DRAFT
100
AcDbCircle
 62
7
  6
CONTINUOUS
 10
-11.25
 20
0.0
 40
8.5
100
AcDbArc
 50
182.6972681339
 51
200.3002220318
  0
ARC
  5
795
100
AcDbEntity
  8
ASSI
100
AcDbCircle
 62
7
  6
CONTINUOUS
 10
-11.25
 20
0.0
 40
8.5
100
AcDbArc
 50
159.699772959
 51
177.3027318661
  0
ARC
  5
796
100
AcDbEntity
  8
ASSI
100
AcDbCircle
 62
7
  6
CONTINUOUS
 10
-11.25
 20
0.0
 40
8.5
100
AcDbArc
 50
182.6972681339
 51
200.3002220318
  0
ARC
  5
797
100
AcDbEntity
  8
RACCORDO
100
AcDbCircle
 62
250
  6
CONTINUOUS
 10
-11.25
 20
0.0
 40
8.349612272
100
AcDbArc
 50
182.2294503462
 51
197.301211491
  0
ARC
  5
798
100
AcDbEntity
  8
RACCORDO
100
AcDbCircle
 62
250
  6
CONTINUOUS
 10
-11.25
 20
0.0
 40
8.349612272
100
AcDbArc
 50
162.6987959109
 51
177.7705496538
  0
ARC
  5
799
100
AcDbEntity
  8
ASSI
100
AcDbCircle
 62
250
  6
CONTINUOUS
 10
-11.25
 20
0.0
 40
8.349612272
100
AcDbArc
 50
182.2294503462
 51
197.301211491
  0
ARC
  5
79A
100
AcDbEntity
  8
ASSI
100
AcDbCircle
 62
250
  6
CONTINUOUS
 10
-11.25
 20
0.0
 40
8.349612272
100
AcDbArc
 50
162.6987959109
 51
177.7705496538
  0
ARC
  5
79B
100
AcDbEntity
  8
0
100
AcDbCircle
 62
7
  6
CONTINUOUS
 10
-4.0
 20
13.65
 40
2.8
100
AcDbArc
 50
210.7740681139
 51
270.0000000234
  0
ARC
  5
79C
100
AcDbEntity
  8
DRAFT
100
AcDbCircle
 62
7
  6
CONTINUOUS
 10
-6.3
 20
23.1
 40
0.5
100
AcDbArc
 50
175.3020088931
 51
294.6141323038
  0
ARC
  5
79D
100
AcDbEntity
  8
ASSI
100
AcDbCircle
 62
7
  6
CONTINUOUS
 10
-6.3
 20
23.1
 40
0.5
100
AcDbArc
 50
175.3020088931
 51
294.6141323038
  0
ARC
  5
79E
100
AcDbEntity
  8
RACCORDO
100
AcDbCircle
 62
7
  6
CONTINUOUS
 10
-3.9
 20
19.6
 40
0.382905244
100
AcDbArc
 50
296.8054190002
 51
63.1945809998
  0
ARC
  5
79F
100
AcDbEntity
  8
ASSI
100
AcDbCircle
 62
7
  6
CONTINUOUS
 10
-3.9
 20
19.6
 40
0.382905244
100
AcDbArc
 50
296.8054190002
 51
63.1945809998
  0
CIRCLE
  5
7A0
100
AcDbEntity
  8
0
100
AcDbCircle
 62
7
  6
CONTINUOUS
 10
0.0
 20
-1.5
 40
2.65
  0
ARC
  5
7A1
100
AcDbEntity
  8
0
100
AcDbCircle
 62
250
  6
CONTINUOUS
 10
0.0
 20
-1.5
 40
1.85
100
AcDbArc
 50
172.3550326256
 51
322.5996202025
  0
ARC
  5
7A2
100
AcDbEntity
  8
0
100
AcDbCircle
 62
250
  6
CONTINUOUS
 10
0.0
 20
-1.5
 40
1.85
100
AcDbArc
 50
352.3550326256
 51
142.5996202025
  0
ARC
  5
7A3
100
AcDbEntity
  8
DRAFT
100
AcDbCircle
 62
7
  6
CONTINUOUS
 10
6.3
 20
-23.1
 40
0.5
100
AcDbArc
 50
355.3020088931
 51
114.6141323038
  0
ARC
  5
7A4
100
AcDbEntity
  8
DRAFT
100
AcDbCircle
 62
7
  6
CONTINUOUS
 10
16.2
 20
-23.1
 40
0.5
100
AcDbArc
 50
65.3858676962
 51
184.6979911069
  0
ARC
  5
7A5
100
AcDbEntity
  8
ASSI
100
AcDbCircle
 62
7
  6
CONTINUOUS
 10
6.3
 20
-23.1
 40
0.5
100
AcDbArc
 50
355.3020088931
 51
114.6141323038
  0
ARC
  5
7A6
100
AcDbEntity
  8
ASSI
100
AcDbCircle
 62
7
  6
CONTINUOUS
 10
16.2
 20
-23.1
 40
0.5
100
AcDbArc
 50
65.3858676962
 51
184.6979911069
  0
ARC
  5
7A7
100
AcDbEntity
  8
RACCORDO
100
AcDbCircle
 62
7
  6
CONTINUOUS
 10
3.9
 20
-19.6
 40
0.382905244
100
AcDbArc
 50
116.8054190002
 51
243.1945809998
  0
ARC
  5
7A8
100
AcDbEntity
  8
ASSI
100
AcDbCircle
 62
7
  6
CONTINUOUS
 10
3.9
 20
-19.6
 40
0.382905244
100
AcDbArc
 50
116.8054190002
 51
243.1945809998
  0
ARC
  5
7A9
100
AcDbEntity
  8
DRAFT
100
AcDbCircle
 62
7
  6
CONTINUOUS
 10
-0.0
 20
0.0
 40
28.0
100
AcDbArc
 50
235.8789063483
 51
237.0647695028
  0
ARC
  5
7AA
100
AcDbEntity
  8
DRAFT
100
AcDbCircle
 62
7
  6
CONTINUOUS
 10
-0.0
 20
0.0
 40
28.0
100
AcDbArc
 50
122.9352304972
 51
124.1210936517
  0
ARC
  5
7AB
100
AcDbEntity
  8
DRAFT
100
AcDbCircle
 62
7
  6
CONTINUOUS
 10
-0.0
 20
0.0
 40
28.0
100
AcDbArc
 50
302.9352304972
 51
304.1210936517
  0
ARC
  5
7AC
100
AcDbEntity
  8
DRAFT
100
AcDbCircle
 62
7
  6
CONTINUOUS
 10
-0.0
 20
0.0
 40
28.0
100
AcDbArc
 50
55.8789063483
 51
57.0647695028
  0
ARC
  5
7AD
100
AcDbEntity
  8
DRAFT
100
AcDbCircle
 62
7
  6
CONTINUOUS
 10
-0.0
 20
0.0
 40
28.0
100
AcDbArc
 50
125.9627651514
 51
131.7180504312
  0
ARC
  5
7AE
100
AcDbEntity
  8
RACCORDO
100
AcDbCircle
 62
7
  6
CONTINUOUS
 10
-0.0
 20
0.0
 40
28.0
100
AcDbArc
 50
37.5714323886
 51
40.6246834582
  0
ARC
  5
7AF
100
AcDbEntity
  8
DRAFT
100
AcDbCircle
 62
7
  6
CONTINUOUS
 10
-0.0
 20
0.0
 40
28.0
100
AcDbArc
 50
48.2819495688
 51
54.0372348486
  0
ARC
  5
7B0
100
AcDbEntity
  8
RACCORDO
100
AcDbCircle
 62
7
  6
CONTINUOUS
 10
-0.0
 20
0.0
 40
28.0
100
AcDbArc
 50
319.3753165418
 51
322.4285676114
  0
ARC
  5
7B1
100
AcDbEntity
  8
DRAFT
100
AcDbCircle
 62
7
  6
CONTINUOUS
 10
-0.0
 20
0.0
 40
28.0
100
AcDbArc
 50
305.9627651514
 51
311.7180504312
  0
ARC
  5
7B2
100
AcDbEntity
  8
RACCORDO
100
AcDbCircle
 62
7
  6
CONTINUOUS
 10
-0.0
 20
0.0
 40
28.0
100
AcDbArc
 50
217.5714323886
 51
220.6246834582
  0
ARC
  5
7B3
100
AcDbEntity
  8
DRAFT
100
AcDbCircle
 62
7
  6
CONTINUOUS
 10
-0.0
 20
0.0
 40
28.0
100
AcDbArc
 50
228.2819495688
 51
234.0372348486
  0
ARC
  5
7B4
100
AcDbEntity
  8
RACCORDO
100
AcDbCircle
 62
7
  6
CONTINUOUS
 10
-0.0
 20
0.0
 40
28.0
100
AcDbArc
 50
139.3753165418
 51
142.4285676114
  0
ARC
  5
7B5
100
AcDbEntity
  8
ASSI
100
AcDbCircle
 62
7
  6
CONTINUOUS
 10
-0.0
 20
0.0
 40
28.0
100
AcDbArc
 50
235.8789063483
 51
237.0647695028
  0
ARC
  5
7B6
100
AcDbEntity
  8
ASSI
100
AcDbCircle
 62
7
  6
CONTINUOUS
 10
-0.0
 20
0.0
 40
28.0
100
AcDbArc
 50
122.9352304972
 51
124.1210936517
  0
ARC
  5
7B7
100
AcDbEntity
  8
ASSI
100
AcDbCircle
 62
7
  6
CONTINUOUS
 10
-0.0
 20
0.0
 40
28.0
100
AcDbArc
 50
302.9352304972
 51
304.1210936517
  0
ARC
  5
7B8
100
AcDbEntity
  8
ASSI
100
AcDbCircle
 62
7
  6
CONTINUOUS
 10
-0.0
 20
0.0
 40
28.0
100
AcDbArc
 50
55.8789063483
 51
57.0647695028
  0
ARC
  5
7B9
100
AcDbEntity
  8
ASSI
100
AcDbCircle
 62
7
  6
CONTINUOUS
 10
-0.0
 20
0.0
 40
28.0
100
AcDbArc
 50
319.3753165418
 51
322.4285676114
  0
ARC
  5
7BA
100
AcDbEntity
  8
ASSI
100
AcDbCircle
 62
7
  6
CONTINUOUS
 10
-0.0
 20
0.0
 40
28.0
100
AcDbArc
 50
305.9627651514
 51
311.7180504312
  0
ARC
  5
7BB
100
AcDbEntity
  8
ASSI
100
AcDbCircle
 62
7
  6
CONTINUOUS
 10
-0.0
 20
0.0
 40
28.0
100
AcDbArc
 50
217.5714323886
 51
220.6246834582
  0
ARC
  5
7BC
100
AcDbEntity
  8
ASSI
100
AcDbCircle
 62
7
  6
CONTINUOUS
 10
-0.0
 20
0.0
 40
28.0
100
AcDbArc
 50
228.2819495688
 51
234.0372348486
  0
ARC
  5
7BD
100
AcDbEntity
  8
ASSI
100
AcDbCircle
 62
7
  6
CONTINUOUS
 10
-0.0
 20
0.0
 40
28.0
100
AcDbArc
 50
139.3753165418
 51
142.4285676114
  0
ARC
  5
7BE
100
AcDbEntity
  8
ASSI
100
AcDbCircle
 62
7
  6
CONTINUOUS
 10
-0.0
 20
0.0
 40
28.0
100
AcDbArc
 50
125.9627651514
 51
131.7180504312
  0
ARC
  5
7BF
100
AcDbEntity
  8
ASSI
100
AcDbCircle
 62
7
  6
CONTINUOUS
 10
-0.0
 20
0.0
 40
28.0
100
AcDbArc
 50
37.5714323886
 51
40.6246834582
  0
ARC
  5
7C0
100
AcDbEntity
  8
ASSI
100
AcDbCircle
 62
7
  6
CONTINUOUS
 10
-0.0
 20
0.0
 40
28.0
100
AcDbArc
 50
48.2819495688
 51
54.0372348486
  0
ARC
  5
7C1
100
AcDbEntity
  8
RACCORDO
100
AcDbCircle
 62
7
  6
CONTINUOUS
 10
-0.0
 20
0.0
 40
27.9738174026
100
AcDbArc
 50
319.5214537946
 51
322.4096543117
  0
ARC
  5
7C2
100
AcDbEntity
  8
RACCORDO
100
AcDbCircle
 62
7
  6
CONTINUOUS
 10
-0.0
 20
0.0
 40
27.9738174026
100
AcDbArc
 50
37.5903456883
 51
40.4785462054
  0
ARC
  5
7C3
100
AcDbEntity
  8
RACCORDO
100
AcDbCircle
 62
7
  6
CONTINUOUS
 10
-0.0
 20
0.0
 40
27.9738174026
100
AcDbArc
 50
139.5214537946
 51
142.4096543117
  0
ARC
  5
7C4
100
AcDbEntity
  8
RACCORDO
100
AcDbCircle
 62
7
  6
CONTINUOUS
 10
-0.0
 20
0.0
 40
27.9738174026
100
AcDbArc
 50
217.5903456883
 51
220.4785462054
  0
ARC
  5
7C5
100
AcDbEntity
  8
ASSI
100
AcDbCircle
 62
7
  6
CONTINUOUS
 10
-0.0
 20
0.0
 40
27.9738174026
100
AcDbArc
 50
319.5214537946
 51
322.4096543117
  0
ARC
  5
7C6
100
AcDbEntity
  8
ASSI
100
AcDbCircle
 62
7
  6
CONTINUOUS
 10
-0.0
 20
0.0
 40
27.9738174026
100
AcDbArc
 50
37.5903456883
 51
40.4785462054
  0
ARC
  5
7C7
100
AcDbEntity
  8
ASSI
100
AcDbCircle
 62
7
  6
CONTINUOUS
 10
-0.0
 20
0.0
 40
27.9738174026
100
AcDbArc
 50
139.5214537946
 51
142.4096543117
  0
ARC
  5
7C8
100
AcDbEntity
  8
ASSI
100
AcDbCircle
 62
7
  6
CONTINUOUS
 10
-0.0
 20
0.0
 40
27.9738174026
100
AcDbArc
 50
217.5903456883
 51
220.4785462054
  0
ARC
  5
7C9
100
AcDbEntity
  8
DRAFT
100
AcDbCircle
 62
7
  6
CONTINUOUS
 10
-0.0
 20
0.0
 40
27.9650925288
100
AcDbArc
 50
125.9260441375
 51
130.7040744475
  0
ARC
  5
7CA
100
AcDbEntity
  8
DRAFT
100
AcDbCircle
 62
7
  6
CONTINUOUS
 10
-0.0
 20
0.0
 40
27.9650925288
100
AcDbArc
 50
122.9563655715
 51
124.1578146656
  0
ARC
  5
7CB
100
AcDbEntity
  8
DRAFT
100
AcDbCircle
 62
7
  6
CONTINUOUS
 10
-0.0
 20
0.0
 40
27.9650925288
100
AcDbArc
 50
235.8421853344
 51
237.0436344285
  0
ARC
  5
7CC
100
AcDbEntity
  8
DRAFT
100
AcDbCircle
 62
7
  6
CONTINUOUS
 10
-0.0
 20
0.0
 40
27.9650925288
100
AcDbArc
 50
229.2959255525
 51
234.0739558625
  0
ARC
  5
7CD
100
AcDbEntity
  8
DRAFT
100
AcDbCircle
 62
7
  6
CONTINUOUS
 10
-0.0
 20
0.0
 40
27.9650925288
100
AcDbArc
 50
49.2959255525
 51
54.0739558625
  0
ARC
  5
7CE
100
AcDbEntity
  8
DRAFT
100
AcDbCircle
 62
7
  6
CONTINUOUS
 10
-0.0
 20
0.0
 40
27.9650925288
100
AcDbArc
 50
55.8421853344
 51
57.0436344285
  0
ARC
  5
7CF
100
AcDbEntity
  8
DRAFT
100
AcDbCircle
 62
7
  6
CONTINUOUS
 10
-0.0
 20
0.0
 40
27.9650925288
100
AcDbArc
 50
302.9563655715
 51
304.1578146656
  0
ARC
  5
7D0
100
AcDbEntity
  8
DRAFT
100
AcDbCircle
 62
7
  6
CONTINUOUS
 10
-0.0
 20
0.0
 40
27.9650925288
100
AcDbArc
 50
305.9260441375
 51
310.7040744475
  0
ARC
  5
7D1
100
AcDbEntity
  8
ASSI
100
AcDbCircle
 62
7
  6
CONTINUOUS
 10
-0.0
 20
0.0
 40
27.9650925288
100
AcDbArc
 50
229.2959255525
 51
234.0739558625
  0
ARC
  5
7D2
100
AcDbEntity
  8
ASSI
100
AcDbCircle
 62
7
  6
CONTINUOUS
 10
-0.0
 20
0.0
 40
27.9650925288
100
AcDbArc
 50
49.2959255525
 51
54.0739558625
  0
ARC
  5
7D3
100
AcDbEntity
  8
ASSI
100
AcDbCircle
 62
7
  6
CONTINUOUS
 10
-0.0
 20
0.0
 40
27.9650925288
100
AcDbArc
 50
55.8421853344
 51
57.0436344285
  0
ARC
  5
7D4
100
AcDbEntity
  8
ASSI
100
AcDbCircle
 62
7
  6
CONTINUOUS
 10
-0.0
 20
0.0
 40
27.9650925288
100
AcDbArc
 50
302.9563655715
 51
304.1578146656
  0
ARC
  5
7D5
100
AcDbEntity
  8
ASSI
100
AcDbCircle
 62
7
  6
CONTINUOUS
 10
-0.0
 20
0.0
 40
27.9650925288
100
AcDbArc
 50
305.9260441375
 51
310.7040744475
  0
ARC
  5
7D6
100
AcDbEntity
  8
ASSI
100
AcDbCircle
 62
7
  6
CONTINUOUS
 10
-0.0
 20
0.0
 40
27.9650925288
100
AcDbArc
 50
125.9260441375
 51
130.7040744475
  0
ARC
  5
7D7
100
AcDbEntity
  8
ASSI
100
AcDbCircle
 62
7
  6
CONTINUOUS
 10
-0.0
 20
0.0
 40
27.9650925288
100
AcDbArc
 50
122.9563655715
 51
124.1578146656
  0
ARC
  5
7D8
100
AcDbEntity
  8
ASSI
100
AcDbCircle
 62
7
  6
CONTINUOUS
 10
-0.0
 20
0.0
 40
27.9650925288
100
AcDbArc
 50
235.8421853344
 51
237.0436344285
  0
ARC
  5
7D9
100
AcDbEntity
  8
0
100
AcDbCircle
 62
7
  6
CONTINUOUS
 10
4.0
 20
13.65
 40
2.8
100
AcDbArc
 50
270.00001071
 51
329.2330019269
  0
ARC
  5
7DA
100
AcDbEntity
  8
DRAFT
100
AcDbCircle
 62
7
  6
CONTINUOUS
 10
6.3
 20
23.1
 40
0.5
100
AcDbArc
 50
245.3858676962
 51
4.6979911069
  0
ARC
  5
7DB
100
AcDbEntity
  8
ASSI
100
AcDbCircle
 62
7
  6
CONTINUOUS
 10
6.3
 20
23.1
 40
0.5
100
AcDbArc
 50
245.3858676962
 51
4.6979911069
  0
ARC
  5
7DC
100
AcDbEntity
  8
RACCORDO
100
AcDbCircle
 62
7
  6
CONTINUOUS
 10
3.9
 20
19.6
 40
0.382905244
100
AcDbArc
 50
116.8054190002
 51
243.1945809998
  0
ARC
  5
7DD
100
AcDbEntity
  8
ASSI
100
AcDbCircle
 62
7
  6
CONTINUOUS
 10
3.9
 20
19.6
 40
0.382905244
100
AcDbArc
 50
206.8422471703
 51
243.1945809998
  0
ARC
  5
7DE
100
AcDbEntity
  8
ASSI
100
AcDbCircle
 62
7
  6
CONTINUOUS
 10
3.9
 20
19.6
 40
0.382905244
100
AcDbArc
 50
116.8054190002
 51
158.5914420661
  0
ARC
  5
7DF
100
AcDbEntity
  8
DRAFT
100
AcDbCircle
 62
7
  6
CONTINUOUS
 10
22.5
 20
0.0
 40
28.0
100
AcDbArc
 50
235.8789063483
 51
237.0647695028
  0
ARC
  5
7E0
100
AcDbEntity
  8
DRAFT
100
AcDbCircle
 62
7
  6
CONTINUOUS
 10
22.5
 20
-0.0
 40
28.0
100
AcDbArc
 50
122.9352304972
 51
124.1210936517
  0
ARC
  5
7E1
100
AcDbEntity
  8
DRAFT
100
AcDbCircle
 62
7
  6
CONTINUOUS
 10
22.5
 20
0.0
 40
28.0
100
AcDbArc
 50
228.2819495688
 51
234.0372348486
  0
ARC
  5
7E2
100
AcDbEntity
  8
DRAFT
100
AcDbCircle
 62
7
  6
CONTINUOUS
 10
22.5
 20
-0.0
 40
28.0
100
AcDbArc
 50
125.9627651514
 51
131.7180504312
  0
ARC
  5
7E3
100
AcDbEntity
  8
ASSI
100
AcDbCircle
 62
7
  6
CONTINUOUS
 10
22.5
 20
0.0
 40
28.0
100
AcDbArc
 50
235.8789063483
 51
237.0647695028
  0
ARC
  5
7E4
100
AcDbEntity
  8
ASSI
100
AcDbCircle
 62
7
  6
CONTINUOUS
 10
22.5
 20
-0.0
 40
28.0
100
AcDbArc
 50
122.9352304972
 51
124.1210936517
  0
ARC
  5
7E5
100
AcDbEntity
  8
ASSI
100
AcDbCircle
 62
7
  6
CONTINUOUS
 10
22.5
 20
0.0
 40
28.0
100
AcDbArc
 50
228.2819495688
 51
234.0372348486
  0
ARC
  5
7E6
100
AcDbEntity
  8
ASSI
100
AcDbCircle
 62
7
  6
CONTINUOUS
 10
22.5
 20
-0.0
 40
28.0
100
AcDbArc
 50
125.9627651514
 51
131.7180504312
  0
ARC
  5
7E7
100
AcDbEntity
  8
DRAFT
100
AcDbCircle
 62
7
  6
CONTINUOUS
 10
22.5
 20
-0.0
 40
27.9650925288
100
AcDbArc
 50
125.9260441375
 51
130.7040744475
  0
ARC
  5
7E8
100
AcDbEntity
  8
DRAFT
100
AcDbCircle
 62
7
  6
CONTINUOUS
 10
22.5
 20
-0.0
 40
27.9650925288
100
AcDbArc
 50
122.9563655715
 51
124.1578146656
  0
ARC
  5
7E9
100
AcDbEntity
  8
DRAFT
100
AcDbCircle
 62
7
  6
CONTINUOUS
 10
22.5
 20
0.0
 40
27.9650925288
100
AcDbArc
 50
235.8421853344
 51
237.0436344285
  0
ARC
  5
7EA
100
AcDbEntity
  8
DRAFT
100
AcDbCircle
 62
7
  6
CONTINUOUS
 10
22.5
 20
0.0
 40
27.9650925288
100
AcDbArc
 50
229.2959255525
 51
234.0739558625
  0
ARC
  5
7EB
100
AcDbEntity
  8
ASSI
100
AcDbCircle
 62
7
  6
CONTINUOUS
 10
22.5
 20
-0.0
 40
27.9650925288
100
AcDbArc
 50
125.9260441375
 51
130.7040744475
  0
ARC
  5
7EC
100
AcDbEntity
  8
ASSI
100
AcDbCircle
 62
7
  6
CONTINUOUS
 10
22.5
 20
-0.0
 40
27.9650925288
100
AcDbArc
 50
122.9563655715
 51
124.1578146656
  0
ARC
  5
7ED
100
AcDbEntity
  8
ASSI
100
AcDbCircle
 62
7
  6
CONTINUOUS
 10
22.5
 20
0.0
 40
27.9650925288
100
AcDbArc
 50
235.8421853344
 51
237.0436344285
  0
ARC
  5
7EE
100
AcDbEntity
  8
ASSI
100
AcDbCircle
 62
7
  6
CONTINUOUS
 10
22.5
 20
0.0
 40
27.9650925288
100
AcDbArc
 50
229.2959255525
 51
234.0739558625
  0
ARC
  5
7EF
100
AcDbEntity
  8
DRAFT
100
AcDbCircle
 62
7
  6
CONTINUOUS
 10
11.25
 20
-0.0
 40
8.5
100
AcDbArc
 50
2.6972681339
 51
20.3002220979
  0
ARC
  5
7F0
100
AcDbEntity
  8
DRAFT
100
AcDbCircle
 62
7
  6
CONTINUOUS
 10
11.25
 20
-0.0
 40
8.5
100
AcDbArc
 50
339.6997730943
 51
357.3027318661
  0
ARC
  5
7F1
100
AcDbEntity
  8
ASSI
100
AcDbCircle
 62
7
  6
CONTINUOUS
 10
11.25
 20
-0.0
 40
8.5
100
AcDbArc
 50
2.6972681339
 51
20.3002220979
  0
ARC
  5
7F2
100
AcDbEntity
  8
ASSI
100
AcDbCircle
 62
7
  6
CONTINUOUS
 10
11.25
 20
-0.0
 40
8.5
100
AcDbArc
 50
339.6997730943
 51
357.3027318661
  0
ARC
  5
7F3
100
AcDbEntity
  8
RACCORDO
100
AcDbCircle
 62
250
  6
CONTINUOUS
 10
11.25
 20
-0.0
 40
8.349612272
100
AcDbArc
 50
342.6987960464
 51
357.7705496538
  0
ARC
  5
7F4
100
AcDbEntity
  8
RACCORDO
100
AcDbCircle
 62
250
  6
CONTINUOUS
 10
11.25
 20
-0.0
 40
8.349612272
100
AcDbArc
 50
2.2294503462
 51
17.3012115481
  0
ARC
  5
7F5
100
AcDbEntity
  8
ASSI
100
AcDbCircle
 62
250
  6
CONTINUOUS
 10
11.25
 20
-0.0
 40
8.349612272
100
AcDbArc
 50
342.6987960464
 51
357.7705496538
  0
ARC
  5
7F6
100
AcDbEntity
  8
ASSI
100
AcDbCircle
 62
250
  6
CONTINUOUS
 10
11.25
 20
-0.0
 40
8.349612272
100
AcDbArc
 50
2.2294503462
 51
17.3012115481
  0
ARC
  5
7F7
100
AcDbEntity
  8
DRAFT
100
AcDbCircle
 62
7
  6
CONTINUOUS
 10
16.2
 20
23.1
 40
0.5
100
AcDbArc
 50
175.3020088931
 51
294.6141323038
  0
ARC
  5
7F8
100
AcDbEntity
  8
ASSI
100
AcDbCircle
 62
7
  6
CONTINUOUS
 10
16.2
 20
23.1
 40
0.5
100
AcDbArc
 50
175.3020088931
 51
294.6141323038
  0
ELLIPSE
  5
7F9
100
AcDbEntity
  8
0
100
AcDbEllipse
 62
7
  6
CONTINUOUS
 10
3.0
 20
-19.399450985
 30
0.0
 11
-0.0
 21
-0.500549015
 31
0.0
 40
0.9989031744
 41
-1.5707963268
 42
1.5707963268
  0
ELLIPSE
  5
7FA
100
AcDbEntity
  8
0
100
AcDbEllipse
 62
7
  6
CONTINUOUS
 10
-3.0
 20
-19.399450985
 30
0.0
 11
0.0
 21
0.500549015
 31
0.0
 40
0.9989031744
 41
1.5707963268
 42
4.7123889804
  0
ELLIPSE
  5
7FB
100
AcDbEntity
  8
0
100
AcDbEllipse
 62
7
  6
CONTINUOUS
 10
-3.0
 20
19.399450985
 30
0.0
 11
0.0
 21
0.500549015
 31
0.0
 40
0.9989031744
 41
-1.5707963268
 42
1.5707963268
  0
ELLIPSE
  5
7FC
100
AcDbEntity
  8
0
100
AcDbEllipse
 62
7
  6
CONTINUOUS
 10
3.0
 20
19.399450985
 30
0.0
 11
0.0
 21
0.500549015
 31
0.0
 40
0.9989031744
 41
-1.5707963268
 42
1.5707963268
  0
ELLIPSE
  5
7FD
100
AcDbEntity
  8
0
100
AcDbEllipse
 62
7
  6
CONTINUOUS
 10
-6.9799314333
 20
11.4
 30
0.0
 11
0.0
 21
110.0
 31
0.0
 40
0.0174550649
 41
-4.7123888907
 42
-4.5680182331
  0
ELLIPSE
  5
7FE
100
AcDbEntity
  8
0
100
AcDbEllipse
 62
7
  6
CONTINUOUS
 10
-21.899923836
 20
-21.899313827
 30
0.0
 11
-0.1582391023
 21
-0.4751033573
 31
0.0
 40
0.9984778551
 41
-1.2488325878
 42
0.3210503505
  0
ELLIPSE
  5
7FF
100
AcDbEntity
  8
0
100
AcDbEllipse
 62
7
  6
CONTINUOUS
 10
-21.899923836
 20
21.899313827
 30
0.0
 11
0.1582391023
 21
-0.4751033573
 31
0.0
 40
0.9984778551
 41
2.8205423031
 42
4.3904252414
  0
ELLIPSE
  5
800
100
AcDbEntity
  8
0
100
AcDbEllipse
 62
7
  6
CONTINUOUS
 10
21.899923836
 20
-21.899313827
 30
0.0
 11
0.1582391023
 21
-0.4751033573
 31
0.0
 40
0.9984778551
 41
-0.3210503505
 42
1.2488325878
  0
ELLIPSE
  5
801
100
AcDbEntity
  8
0
100
AcDbEllipse
 62
7
  6
CONTINUOUS
 10
21.899923836
 20
21.899313827
 30
0.0
 11
-0.1582391023
 21
-0.4751033573
 31
0.0
 40
0.9984778551
 41
1.8927600658
 42
3.4626430041
  0
ELLIPSE
  5
802
100
AcDbEntity
  8
DRAFT
100
AcDbEllipse
 62
7
  6
CONTINUOUS
 10
-0.0
 20
0.4174359899
 30
0.0
 11
0.0
 21
27.6166417221
 31
0.0
 40
0.9998857561
 41
0.72080285
 42
0.733498974
  0
ELLIPSE
  5
803
100
AcDbEntity
  8
DRAFT
100
AcDbEllipse
 62
7
  6
CONTINUOUS
 10
-22.5
 20
0.4174359899
 30
0.0
 11
0.0
 21
27.6166417221
 31
0.0
 40
0.9998857561
 41
-0.733498974
 42
-0.72080285
  0
ELLIPSE
  5
804
100
AcDbEntity
  8
DRAFT
100
AcDbEllipse
 62
7
  6
CONTINUOUS
 10
-22.5
 20
-0.4174359899
 30
0.0
 11
0.0
 21
27.6166417221
 31
0.0
 40
0.9998857561
 41
-2.4207898036
 42
-2.4080936796
  0
ELLIPSE
  5
805
100
AcDbEntity
  8
DRAFT
100
AcDbEllipse
 62
7
  6
CONTINUOUS
 10
-0.0
 20
-0.4174359899
 30
0.0
 11
0.0
 21
27.6166417221
 31
0.0
 40
0.9998857561
 41
-3.8750916276
 42
-3.8623955036
  0
ELLIPSE
  5
806
100
AcDbEntity
  8
DRAFT
100
AcDbEllipse
 62
7
  6
CONTINUOUS
 10
22.5
 20
0.4174359899
 30
0.0
 11
0.0
 21
27.6166417221
 31
0.0
 40
0.9998857561
 41
0.72080285
 42
0.733498974
  0
ELLIPSE
  5
807
100
AcDbEntity
  8
DRAFT
100
AcDbEllipse
 62
7
  6
CONTINUOUS
 10
-0.0
 20
0.4174359899
 30
0.0
 11
0.0
 21
27.6166417221
 31
0.0
 40
0.9998857561
 41
-0.733498974
 42
-0.72080285
  0
ELLIPSE
  5
808
100
AcDbEntity
  8
DRAFT
100
AcDbEllipse
 62
7
  6
CONTINUOUS
 10
0.0
 20
-0.4174359899
 30
0.0
 11
0.0
 21
27.6166417221
 31
0.0
 40
0.9998857561
 41
-2.4207898036
 42
-2.4080936796
  0
ELLIPSE
  5
809
100
AcDbEntity
  8
DRAFT
100
AcDbEllipse
 62
7
  6
CONTINUOUS
 10
22.5
 20
-0.4174359899
 30
0.0
 11
-0.0
 21
27.6166417221
 31
0.0
 40
0.9998857561
 41
-3.8750916276
 42
-3.8623955036
  0
ELLIPSE
  5
80A
100
AcDbEntity
  8
ASSI
100
AcDbEllipse
 62
7
  6
CONTINUOUS
 10
-21.899923836
 20
-21.899313827
 30
0.0
 11
-0.1582391023
 21
-0.4751033573
 31
0.0
 40
0.9984778551
 41
-1.2488325878
 42
0.3210503505
  0
ELLIPSE
  5
80B
100
AcDbEntity
  8
ASSI
100
AcDbEllipse
 62
7
  6
CONTINUOUS
 10
-21.899923836
 20
21.899313827
 30
0.0
 11
0.1582391023
 21
-0.4751033573
 31
0.0
 40
0.9984778551
 41
2.8205423031
 42
4.3904252414
  0
ELLIPSE
  5
80C
100
AcDbEntity
  8
ASSI
100
AcDbEllipse
 62
7
  6
CONTINUOUS
 10
21.899923836
 20
-21.899313827
 30
0.0
 11
0.1582391023
 21
-0.4751033573
 31
0.0
 40
0.9984778551
 41
-0.3210503505
 42
1.2488325878
  0
ELLIPSE
  5
80D
100
AcDbEntity
  8
ASSI
100
AcDbEllipse
 62
7
  6
CONTINUOUS
 10
21.899923836
 20
21.899313827
 30
0.0
 11
-0.1582391023
 21
-0.4751033573
 31
0.0
 40
0.9984778551
 41
1.8927600658
 42
3.4626430041
  0
ELLIPSE
  5
80E
100
AcDbEntity
  8
ASSI
100
AcDbEllipse
 62
7
  6
CONTINUOUS
 10
22.5
 20
0.4174359899
 30
0.0
 11
0.0
 21
27.6166417221
 31
0.0
 40
0.9998857561
 41
0.72080285
 42
0.733498974
  0
ELLIPSE
  5
80F
100
AcDbEntity
  8
ASSI
100
AcDbEllipse
 62
7
  6
CONTINUOUS
 10
-0.0
 20
0.4174359899
 30
0.0
 11
0.0
 21
27.6166417221
 31
0.0
 40
0.9998857561
 41
-0.733498974
 42
-0.72080285
  0
ELLIPSE
  5
810
100
AcDbEntity
  8
ASSI
100
AcDbEllipse
 62
7
  6
CONTINUOUS
 10
0.0
 20
-0.4174359899
 30
0.0
 11
0.0
 21
27.6166417221
 31
0.0
 40
0.9998857561
 41
-2.4207898036
 42
-2.4080936796
  0
ELLIPSE
  5
811
100
AcDbEntity
  8
ASSI
100
AcDbEllipse
 62
7
  6
CONTINUOUS
 10
22.5
 20
-0.4174359899
 30
0.0
 11
-0.0
 21
27.6166417221
 31
0.0
 40
0.9998857561
 41
-3.8750916276
 42
-3.8623955036
  0
ELLIPSE
  5
812
100
AcDbEntity
  8
ASSI
100
AcDbEllipse
 62
7
  6
CONTINUOUS
 10
-0.0
 20
0.4174359899
 30
0.0
 11
0.0
 21
27.6166417221
 31
0.0
 40
0.9998857561
 41
0.72080285
 42
0.733498974
  0
ELLIPSE
  5
813
100
AcDbEntity
  8
ASSI
100
AcDbEllipse
 62
7
  6
CONTINUOUS
 10
-22.5
 20
0.4174359899
 30
0.0
 11
0.0
 21
27.6166417221
 31
0.0
 40
0.9998857561
 41
-0.733498974
 42
-0.72080285
  0
ELLIPSE
  5
814
100
AcDbEntity
  8
ASSI
100
AcDbEllipse
 62
7
  6
CONTINUOUS
 10
-22.5
 20
-0.4174359899
 30
0.0
 11
0.0
 21
27.6166417221
 31
0.0
 40
0.9998857561
 41
-2.4207898036
 42
-2.4080936796
  0
ELLIPSE
  5
815
100
AcDbEntity
  8
ASSI
100
AcDbEllipse
 62
7
  6
CONTINUOUS
 10
-0.0
 20
-0.4174359899
 30
0.0
 11
0.0
 21
27.6166417221
 31
0.0
 40
0.9998857561
 41
-3.8750916276
 42
-3.8623955036
  0
ENDSEC
  0
SECTION
  2
OBJECTS
  0
DICTIONARY
  5
C
100
AcDbDictionary
280
0
281
1
  3
ACAD_GROUP
350
D
  3
ACAD_MLINESTYLE
350
17
  3
ACAD_LAYOUT
350
1A
  3
ACAD_PLOTSETTINGS
350
19
  3
ACAD_PLOTSTYLENAME
350
E
  0
DICTIONARY
  5
D
102
{ACAD_REACTORS
330
C
102
}
100
AcDbDictionary
280
0
281
1
  0
ACDBDICTIONARYWDFLT
  5
E
102
{ACAD_REACTORS
330
C
102
}
100
AcDbDictionary
281
1
  3
Normal
350
F
100
AcDbDictionaryWithDefault
340
F
  0
DICTIONARY
  5
17
102
{ACAD_REACTORS
330
C
102
}
100
AcDbDictionary
280
0
281
1
  3
Standard
350
18
  0
DICTIONARY
  5
19
102
{ACAD_REACTORS
330
C
102
}
100
AcDbDictionary
281
1
  0
DICTIONARY
  5
1A
102
{ACAD_REACTORS
330
C
102
}
100
AcDbDictionary
281
1
  3
Model
350
816
  3
Layout1
350
817
  0
ACDBPLACEHOLDER
  5
F
102
{ACAD_REACTORS
330
E
102
}
  0
MLINESTYLE
  5
18
102
{ACAD_REACTORS
330
17
102
}
100
AcDbMlineStyle
  2
STANDARD
 70
0
  3

 62
256
 51
90.0
 52
90.0
 71
2
 49
0.5
 62
256
  6
BYLAYER
 49
-0.5
 62
256
  6
BYLAYER
  0
LAYOUT
  5
816
102
{ACAD_REACTORS
330
1A
102
}
100
AcDbPlotSettings
  1

  2
none_device
  4
ANSI_C_(22.00_x_17.00_Inches)
  6

 40
0.0
 41
0.0
 42
0.0
 43
0.0
 44
558.8
 45
431.8
 46
0.0
 47
0.0
 48
0.0
 49
0.0
140
0.0
141
0.0
142
1.0
143
1.0
 70
1024
 72
1
 73
0
 74
0
  7

 75
0
147
1.0
148
0.0
149
0.0
100
AcDbLayout
  1
Model
 70
0
 71
0
 10
0.0
 20
0.0
 11
558.8
 21
431.8
 12
0.0
 22
0.0
 32
0.0
 14
0.0
 24
0.0
 34
0.0
 15
0.0
 25
0.0
 35
0.0
146
0.0
 13
0.0
 23
0.0
 33
0.0
 16
1.0
 26
0.0
 36
0.0
 17
0.0
 27
1.0
 37
0.0
 76
0
330
211
345
0
346
0
  0
LAYOUT
  5
817
102
{ACAD_REACTORS
330
1A
102
}
100
AcDbPlotSettings
  1

  2
none_device
  4
ANSI_C_(22.00_x_17.00_Inches)
  6

 40
0.0
 41
0.0
 42
0.0
 43
0.0
 44
558.8
 45
431.8
 46
0.0
 47
0.0
 48
0.0
 49
0.0
140
0.0
141
0.0
142
1.0
143
1.0
 70
0
 72
1
 73
0
 74
0
  7

 75
0
147
1.0
148
0.0
149
0.0
100
AcDbLayout
  1
Layout1
 70
0
 71
1
 10
0.0
 20
0.0
 11
558.8
 21
431.8
 12
0.0
 22
0.0
 32
0.0
 14
0.0
 24
0.0
 34
0.0
 15
0.0
 25
0.0
 35
0.0
146
0.0
 13
0.0
 23
0.0
 33
0.0
 16
1.0
 26
0.0
 36
0.0
 17
0.0
 27
1.0
 37
0.0
 76
0
330
212
345
0
346
0
  0
ENDSEC
  0
EOF
