0
SECTION
2
HEADER
9
$ACADVER
1
AC1015
9
$DWGCODEPAGE
3
ANSI_1252
9
$EXTMAX
10
297.0000000000
20
210.0000000000
30
0.0000000000
9
$EXTMIN
10
0.0000000000
20
0.0000000000
30
0.0000000000
9
$LIMMIN
10
0.0000000000
20
0.0000000000
9
$LIMMAX
10
297.0000000000
20
210.0000000000
9
$VIEWCTR
10
148.5000000000
20
105.0000000000
9
$VIEWSIZE
40
210.0000000000
9
$CLAYER
8
0
9
$LTSCALE
40
16.3350000000
9
$CELTYPE
6
BYLAYER
9
$DIMSCALE
40
1
9
$DIMASZ
40
3.0000000000
9
$DIMEXO
40
1.8562500000
9
$DIMDLI
40
11.2860000000
9
$DIMEXE
40
5.3460000000
9
$DIMCEN
40
2.6730000000
9
$DIMLFAC
40
1.0000000000
9
$DIMBLK
1
_FILLED
9
$DIMTXT
40
3.0000000000
9
$DIMTOL
70
1
9
$DIMLIM
70
0
9
$DIMTFAC
40
1.0000000000
9
$DIMTP
40
0.0100000000
9
$DIMTM
40
0.0100000000
9
$PDMODE
70
3
9
$PDSIZE
40
3.0000000000
9
$HANDSEED
5
3FE
9
$MEASUREMENT
70
1
9
$INSUNITS
70
4
0
ENDSEC
0
SECTION
2
CLASSES
0
CLASS
1
ACDBDICTIONARYWDFLT
2
AcDbDictionaryWithDefault
3
AutoCAD 2000
90
0
280
0
281
0
0
CLASS
1
ACDBPLACEHOLDER
2
AcDbPlaceHolder
3
AutoCAD 2000
90
0
280
0
281
0
0
CLASS
1
LAYOUT
2
AcDbLayout
3
AutoCAD 2000
90
0
280
0
281
0
0
ENDSEC
0
SECTION
2
TABLES
0
TABLE
2
VPORT
5
8
100
AcDbSymbolTable
70
2
0
VPORT
5
1F4
100
AcDbSymbolTableRecord
100
AcDbViewportTableRecord
2
*ACTIVE
70
0
10
0.0
20
0.0
11
1.0
21
1.0
12
148.5000000000
22
105.0000000000
13
0.0
23
0.0
14
1.0
24
1.0
15
0.0
25
0.0
16
0.0
26
0.0
36
1.0
17
0.0
27
0.0
37
0.0
40
210.0000000000
41
1.4142857143
42
50.0
43
0.0
44
0.0
50
0.0
51
0.0
71
0
72
100
73
1
74
1
75
0
76
0
77
0
78
0
0
ENDTAB
0
TABLE
2
LTYPE
5
5
100
AcDbSymbolTable
70
6
0
LTYPE
5
14
100
AcDbSymbolTableRecord
100
AcDbLinetypeTableRecord
2
BYBLOCK
70
0
3

72
65
73
0
40
0.0
0
LTYPE
5
15
100
AcDbSymbolTableRecord
100
AcDbLinetypeTableRecord
2
BYLAYER
70
0
3

72
65
73
0
40
0.0
0
LTYPE
5
16
100
AcDbSymbolTableRecord
100
AcDbLinetypeTableRecord
2
CONTINUOUS
70
64
3
Solid line
72
65
73
0
40
0
0
LTYPE
5
1F5
100
AcDbSymbolTableRecord
100
AcDbLinetypeTableRecord
2
CENTER
70
64
3
____ _ ____ _ ____ _ ____ _ ____ _ ____ _ ____
72
65
73
4
40
0.6
49
0.375
74
0
49
-0.075
74
0
49
0.075
74
0
49
-0.075
74
0
0
LTYPE
5
1F6
100
AcDbSymbolTableRecord
100
AcDbLinetypeTableRecord
2
HIDDEN
70
64
3
- - - - - - - - - - - - - - - - - - - -
72
65
73
2
40
0.2
49
0.1
74
0
49
-0.1
74
0
0
LTYPE
5
1F7
100
AcDbSymbolTableRecord
100
AcDbLinetypeTableRecord
2
PHANTOM
70
64
3
_____ _ _ _____ _ _ _____ _ _ _____
72
65
73
6
40
0.8
49
0.45
74
0
49
-0.05
74
0
49
0.1
74
0
49
-0.05
74
0
49
0.1
74
0
49
-0.05
74
0
0
LTYPE
5
1F8
100
AcDbSymbolTableRecord
100
AcDbLinetypeTableRecord
2
DOT
70
64
3
. . . . . . . . . . . . . . . . . . . .
72
65
73
2
40
0.2
49
0.1
74
0
49
-0.1
74
0
0
LTYPE
5
1F9
100
AcDbSymbolTableRecord
100
AcDbLinetypeTableRecord
2
DASHED
70
64
3
- - - - - - - - - - - - - - - - - - - -
72
65
73
2
40
0.2
49
0.1
74
0
49
-0.1
74
0
0
ENDTAB
0
TABLE
2
LAYER
5
2
100
AcDbSymbolTable
70
36
0
LAYER
5
10
100
AcDbSymbolTableRecord
100
AcDbLayerTableRecord
2
0
70
0
62
7
6
CONTINUOUS
370
-3
390
F
0
LAYER
5
1FA
100
AcDbSymbolTableRecord
100
AcDbLayerTableRecord
2
DEFAULT_1
70
0
62
7
6
CENTER
370
-3
390
F
0
LAYER
5
1FB
100
AcDbSymbolTableRecord
100
AcDbLayerTableRecord
2
DEFAULT_2
70
0
62
9
6
HIDDEN
370
-3
390
F
0
LAYER
5
1FC
100
AcDbSymbolTableRecord
100
AcDbLayerTableRecord
2
DEFAULT_3
70
0
62
7
6
PHANTOM
370
-3
390
F
0
LAYER
5
1FD
100
AcDbSymbolTableRecord
100
AcDbLayerTableRecord
2
_BLACK_HOLE
70
0
62
7
6
CONTINUOUS
370
-3
390
F
0
LAYER
5
1FE
100
AcDbSymbolTableRecord
100
AcDbLayerTableRecord
2
ASSI
70
0
62
7
6
CONTINUOUS
370
-3
390
F
0
LAYER
5
1FF
100
AcDbSymbolTableRecord
100
AcDbLayerTableRecord
2
COORDINATE
70
0
62
7
6
CONTINUOUS
370
-3
390
F
0
LAYER
5
200
100
AcDbSymbolTableRecord
100
AcDbLayerTableRecord
2
COORD_ORIGINE
70
0
62
7
6
CONTINUOUS
370
-3
390
F
0
LAYER
5
201
100
AcDbSymbolTableRecord
100
AcDbLayerTableRecord
2
COPY_PUBLISH
70
0
62
7
6
CONTINUOUS
370
-3
390
F
0
LAYER
5
202
100
AcDbSymbolTableRecord
100
AcDbLayerTableRecord
2
COSMETIC
70
0
62
7
6
CONTINUOUS
370
-3
390
F
0
LAYER
5
203
100
AcDbSymbolTableRecord
100
AcDbLayerTableRecord
2
CURVE
70
0
62
7
6
CONTINUOUS
370
-3
390
F
0
LAYER
5
204
100
AcDbSymbolTableRecord
100
AcDbLayerTableRecord
2
DRAFT
70
0
62
7
6
CONTINUOUS
370
-3
390
F
0
LAYER
5
205
100
AcDbSymbolTableRecord
100
AcDbLayerTableRecord
2
IMPORTATE
70
0
62
7
6
CONTINUOUS
370
-3
390
F
0
LAYER
5
206
100
AcDbSymbolTableRecord
100
AcDbLayerTableRecord
2
IMPORT_IGES
70
0
62
7
6
CONTINUOUS
370
-3
390
F
0
LAYER
5
207
100
AcDbSymbolTableRecord
100
AcDbLayerTableRecord
2
PIANI
70
0
62
7
6
CONTINUOUS
370
-3
390
F
0
LAYER
5
208
100
AcDbSymbolTableRecord
100
AcDbLayerTableRecord
2
PIANI_ORIGINE
70
0
62
7
6
CONTINUOUS
370
-3
390
F
0
LAYER
5
209
100
AcDbSymbolTableRecord
100
AcDbLayerTableRecord
2
PUNTI
70
0
62
7
6
CONTINUOUS
370
-3
390
F
0
LAYER
5
20A
100
AcDbSymbolTableRecord
100
AcDbLayerTableRecord
2
RACCORDO
70
0
62
7
6
CONTINUOUS
370
-3
390
F
0
LAYER
5
20B
100
AcDbSymbolTableRecord
100
AcDbLayerTableRecord
2
SMUSSO
70
0
62
7
6
CONTINUOUS
370
-3
390
F
0
LAYER
5
20C
100
AcDbSymbolTableRecord
100
AcDbLayerTableRecord
2
TRASH
70
0
62
7
6
CONTINUOUS
370
-3
390
F
0
ENDTAB
0
TABLE
2
STYLE
5
3
100
AcDbSymbolTable
70
1
0
STYLE
5
11
100
AcDbSymbolTableRecord
100
AcDbTextStyleTableRecord
2
STANDARD
70
0
40
0.0
41
0.8000000000
50
0.0
71
0
42
0.2
3
txt
4

0
ENDTAB
0
TABLE
2
VIEW
5
6
100
AcDbSymbolTable
70
0
0
ENDTAB
0
TABLE
2
UCS
5
7
100
AcDbSymbolTable
70
0
0
ENDTAB
0
TABLE
2
APPID
5
9
100
AcDbSymbolTable
70
1
0
APPID
5
20D
100
AcDbSymbolTableRecord
100
AcDbRegAppTableRecord
2
ACAD
70
0
0
ENDTAB
0
TABLE
2
BLOCK_RECORD
5
1
100
AcDbSymbolTable
70
0
0
BLOCK_RECORD
5
1F
100
AcDbSymbolTableRecord
100
AcDbBlockTableRecord
2
*MODEL_SPACE
0
BLOCK_RECORD
5
1B
100
AcDbSymbolTableRecord
100
AcDbBlockTableRecord
2
*PAPER_SPACE
0
ENDTAB
0
TABLE
2
DIMSTYLE
5
A
100
AcDbSymbolTable
70
1
100
AcDbDimStyleTable
71
0
0
DIMSTYLE
105
20E
100
AcDbSymbolTableRecord
100
AcDbDimStyleTableRecord
2
STANDARD
70
0
3

4

40
1.0
41
3.0000000000
42
0.0625
43
0.38
44
0.18
45
0.0
46
0.0
47
0.0100000000
48
0.0100000000
140
3.0000000000
141
0.09
142
0.0
143
25.4
144
1.0000000000
145
0.0
146
1.0000000000
147
0.09
71
1
72
0
73
0
74
0
75
0
76
0
77
1
78
8
170
0
171
2
172
0
173
0
174
0
175
0
176
0
177
0
178
0
270
2
271
2
272
2
273
2
274
2
275
0
280
0
281
0
282
0
283
1
284
8
285
0
286
0
287
3
288
0
340
11
0
ENDTAB
0
ENDSEC
0
SECTION
2
BLOCKS
0
BLOCK
5
20
100
AcDbEntity
8
0
100
AcDbBlockBegin
2
*MODEL_SPACE
70
0
10
0.0
20
0.0
30
0.0
3
*MODEL_SPACE
1

0
ENDBLK
5
21
100
AcDbEntity
8
0
100
AcDbBlockEnd
0
BLOCK
5
1C
100
AcDbEntity
8
0
100
AcDbBlockBegin
2
*PAPER_SPACE
70
0
10
0.0
20
0.0
30
0.0
3
*PAPER_SPACE
1

0
ENDBLK
5
1D
100
AcDbEntity
8
0
100
AcDbBlockEnd
0
ENDSEC
0
SECTION
2
ENTITIES
0
LINE
5
20F
100
AcDbEntity
8
0
100
AcDbLine
62
9
6
CONTINUOUS
10
-18.7726756989
20
20.7603594806
11
-18.6330351795
21
20.9000000000
0
LINE
5
210
100
AcDbEntity
8
0
100
AcDbLine
62
9
6
CONTINUOUS
10
-18.7726756989
20
-20.7603594806
11
-18.6330351795
21
-20.9000000000
0
LINE
5
211
100
AcDbEntity
8
0
100
AcDbLine
62
9
6
CONTINUOUS
10
-17.9268317559
20
18.9000000000
11
-17.8109317497
21
19.0173482781
0
LINE
5
212
100
AcDbEntity
8
0
100
AcDbLine
62
9
6
CONTINUOUS
10
-19.9000000000
20
18.9000000000
11
-21.3142135624
21
17.4857864376
0
LINE
5
213
100
AcDbEntity
8
0
100
AcDbLine
62
9
6
CONTINUOUS
10
-21.3142135624
20
-17.4857864376
11
-19.9000000000
21
-18.9000000000
0
LINE
5
214
100
AcDbEntity
8
0
100
AcDbLine
62
9
6
CONTINUOUS
10
-17.8109317497
20
-19.0173482781
11
-17.9268317559
21
-18.9000000000
0
LINE
5
215
100
AcDbEntity
8
0
100
AcDbLine
62
9
6
CONTINUOUS
10
-18.2037458576
20
18.9000000000
11
-18.1551386093
21
19.0173482781
0
LINE
5
216
100
AcDbEntity
8
0
100
AcDbLine
62
9
6
CONTINUOUS
10
-18.4721457668
20
19.0173482781
11
-18.7068601985
21
18.9000000000
0
LINE
5
217
100
AcDbEntity
8
0
100
AcDbLine
62
9
6
CONTINUOUS
10
18.6330351795
20
-20.9000000000
11
18.4882150030
21
-20.9317102097
0
LINE
5
218
100
AcDbEntity
8
0
100
AcDbLine
62
9
6
CONTINUOUS
10
-18.4882150030
20
-20.9317102097
11
-18.6330351795
21
-20.9000000000
0
LINE
5
219
100
AcDbEntity
8
0
100
AcDbLine
62
9
6
CONTINUOUS
10
-18.7068601985
20
-18.9000000000
11
-18.4721457668
21
-19.0173482781
0
LINE
5
21A
100
AcDbEntity
8
0
100
AcDbLine
62
9
6
CONTINUOUS
10
-18.2037458576
20
-18.9000000000
11
-18.1551386093
21
-19.0173482781
0
LINE
5
21B
100
AcDbEntity
8
0
100
AcDbLine
62
9
6
CONTINUOUS
10
-22.4000000000
20
-21.8997711479
11
-22.4000000000
21
-16.4633443086
0
LINE
5
21C
100
AcDbEntity
8
0
100
AcDbLine
62
9
6
CONTINUOUS
10
-22.4000000000
20
16.4633443086
11
-22.4000000000
21
21.8997711479
0
LINE
5
21D
100
AcDbEntity
8
0
100
AcDbLine
62
9
6
CONTINUOUS
10
-22.3738174026
20
16.4544358981
11
-22.3738174026
21
-16.4544358981
0
LINE
5
21E
100
AcDbEntity
8
0
100
AcDbLine
62
9
6
CONTINUOUS
10
-21.9000000000
20
16.0715728753
11
-21.9000000000
21
-16.0715728753
0
LINE
5
21F
100
AcDbEntity
8
0
100
AcDbLine
62
9
6
CONTINUOUS
10
8.0960406883
20
-21.1860370115
11
7.8146605771
21
-21.2000000000
0
LINE
5
220
100
AcDbEntity
8
0
100
AcDbLine
62
9
6
CONTINUOUS
10
8.1500000000
20
-22.1860370115
11
8.2438464129
21
-22.1813923154
0
LINE
5
221
100
AcDbEntity
8
0
100
AcDbLine
62
9
6
CONTINUOUS
10
-14.3500000000
20
-22.1860370115
11
-14.2561535871
21
-22.1813923154
0
LINE
5
222
100
AcDbEntity
8
0
100
AcDbLine
62
9
6
CONTINUOUS
10
-15.2233373476
20
-23.5000000000
11
-14.2500000000
21
-23.5000000000
0
LINE
5
223
100
AcDbEntity
8
0
100
AcDbLine
62
9
6
CONTINUOUS
10
-8.2500000000
20
-23.5000000000
11
-7.2766626524
21
-23.5000000000
0
LINE
5
224
100
AcDbEntity
8
0
100
AcDbLine
62
9
6
CONTINUOUS
10
7.2766626524
20
-23.5000000000
11
8.2500000000
21
-23.5000000000
0
LINE
5
225
100
AcDbEntity
8
0
100
AcDbLine
62
9
6
CONTINUOUS
10
14.2500000000
20
-23.5000000000
11
15.2233373476
21
-23.5000000000
0
LINE
5
226
100
AcDbEntity
8
0
100
AcDbLine
62
9
6
CONTINUOUS
10
-15.2130152422
20
-23.4650925288
11
-7.2869847578
21
-23.4650925288
0
LINE
5
227
100
AcDbEntity
8
0
100
AcDbLine
62
9
6
CONTINUOUS
10
7.2869847578
20
-23.4650925288
11
15.2130152422
21
-23.4650925288
0
LINE
5
228
100
AcDbEntity
8
0
100
AcDbLine
62
9
6
CONTINUOUS
10
-21.9003805997
20
-22.4000000000
11
-16.8000000000
21
-22.4000000000
0
LINE
5
229
100
AcDbEntity
8
0
100
AcDbLine
62
9
6
CONTINUOUS
10
-5.7000000000
20
-22.4000000000
11
5.7000000000
21
-22.4000000000
0
LINE
5
22A
100
AcDbEntity
8
0
100
AcDbLine
62
9
6
CONTINUOUS
10
16.8000000000
20
-22.4000000000
11
21.9003805997
21
-22.4000000000
0
LINE
5
22B
100
AcDbEntity
8
0
100
AcDbLine
62
9
6
CONTINUOUS
10
7.8678768309
20
-22.2000000000
11
14.6321231691
21
-22.2000000000
0
LINE
5
22C
100
AcDbEntity
8
0
100
AcDbLine
62
9
6
CONTINUOUS
10
-7.8678768309
20
-22.2000000000
11
-14.6321231691
21
-22.2000000000
0
LINE
5
22D
100
AcDbEntity
8
0
100
AcDbLine
62
9
6
CONTINUOUS
10
14.2561535871
20
-22.1813923154
11
8.2438464129
21
-22.1813923154
0
LINE
5
22E
100
AcDbEntity
8
0
100
AcDbLine
62
9
6
CONTINUOUS
10
-8.2438464129
20
-22.1813923154
11
-14.2561535871
21
-22.1813923154
0
LINE
5
22F
100
AcDbEntity
8
0
100
AcDbLine
62
9
6
CONTINUOUS
10
-8.2438464129
20
-22.1813923154
11
-8.1500000000
21
-22.1860370115
0
LINE
5
230
100
AcDbEntity
8
0
100
AcDbLine
62
9
6
CONTINUOUS
10
-7.8146605771
20
-21.2000000000
11
-8.0960406883
21
-21.1860370115
0
LINE
5
231
100
AcDbEntity
8
0
100
AcDbLine
62
9
6
CONTINUOUS
10
14.2561535871
20
-22.1813923154
11
14.3500000000
21
-22.1860370115
0
LINE
5
232
100
AcDbEntity
8
0
100
AcDbLine
62
9
6
CONTINUOUS
10
-20.9261825974
20
-18.0297620910
11
-20.9261825974
21
-17.8738174026
0
LINE
5
233
100
AcDbEntity
8
0
100
AcDbLine
62
9
6
CONTINUOUS
10
-20.9261825974
20
17.8738174026
11
-20.9261825974
21
18.0297620910
0
LINE
5
234
100
AcDbEntity
8
0
100
AcDbLine
62
9
6
CONTINUOUS
10
-20.9000000000
20
20.9000000000
11
-20.9000000000
21
18.1006347748
0
LINE
5
235
100
AcDbEntity
8
0
100
AcDbLine
62
9
6
CONTINUOUS
10
-20.9000000000
20
-18.1006347748
11
-20.9000000000
21
-20.9000000000
0
LINE
5
236
100
AcDbEntity
8
0
100
AcDbLine
62
9
6
CONTINUOUS
10
-20.7603594806
20
20.7603594806
11
-20.7603594806
21
18.0396405194
0
LINE
5
237
100
AcDbEntity
8
0
100
AcDbLine
62
9
6
CONTINUOUS
10
-20.7603594806
20
-18.0396405194
11
-20.7603594806
21
-20.7603594806
0
LINE
5
238
100
AcDbEntity
8
0
100
AcDbLine
62
9
6
CONTINUOUS
10
-3.9000000000
20
19.8965739699
11
-4.0415154698
21
19.8258216238
0
LINE
5
239
100
AcDbEntity
8
0
100
AcDbLine
62
9
6
CONTINUOUS
10
-3.8669648205
20
-20.9000000000
11
-4.0117849970
21
-20.9317102097
0
LINE
5
23A
100
AcDbEntity
8
0
100
AcDbLine
62
9
6
CONTINUOUS
10
3.9000000000
20
-19.8255982314
11
4.0415154698
21
-19.8127991157
0
LINE
5
23B
100
AcDbEntity
8
0
100
AcDbLine
62
9
6
CONTINUOUS
10
-14.4039593117
20
-21.1860370115
11
-14.6853394229
21
-21.2000000000
0
LINE
5
23C
100
AcDbEntity
8
0
100
AcDbLine
62
9
6
CONTINUOUS
10
-18.2374998327
20
-21.2000000000
11
-14.6853394229
21
-21.2000000000
0
LINE
5
23D
100
AcDbEntity
8
0
100
AcDbLine
62
9
6
CONTINUOUS
10
-7.8146605771
20
-21.2000000000
11
-4.2625001673
21
-21.2000000000
0
LINE
5
23E
100
AcDbEntity
8
0
100
AcDbLine
62
9
6
CONTINUOUS
10
4.2625001673
20
-21.2000000000
11
7.8146605771
21
-21.2000000000
0
LINE
5
23F
100
AcDbEntity
8
0
100
AcDbLine
62
9
6
CONTINUOUS
10
14.6853394229
20
-21.2000000000
11
18.2374998327
21
-21.2000000000
0
LINE
5
240
100
AcDbEntity
8
0
100
AcDbLine
62
9
6
CONTINUOUS
10
-14.4039593117
20
-21.1860370115
11
-14.3500000000
21
-21.1860370115
0
LINE
5
241
100
AcDbEntity
8
0
100
AcDbLine
62
9
6
CONTINUOUS
10
14.4039593117
20
-21.1860370115
11
14.3500000000
21
-21.1860370115
0
LINE
5
242
100
AcDbEntity
8
0
100
AcDbLine
62
9
6
CONTINUOUS
10
8.0960406883
20
-21.1860370115
11
8.1500000000
21
-21.1860370115
0
LINE
5
243
100
AcDbEntity
8
0
100
AcDbLine
62
9
6
CONTINUOUS
10
-8.0960406883
20
-21.1860370115
11
-8.1500000000
21
-21.1860370115
0
LINE
5
244
100
AcDbEntity
8
0
100
AcDbLine
62
9
6
CONTINUOUS
10
-18.2249000578
20
-21.1660449559
11
-13.9460591023
21
-21.1660449559
0
LINE
5
245
100
AcDbEntity
8
0
100
AcDbLine
62
9
6
CONTINUOUS
10
-8.5539408977
20
-21.1660449559
11
-4.2750999422
21
-21.1660449559
0
LINE
5
246
100
AcDbEntity
8
0
100
AcDbLine
62
9
6
CONTINUOUS
10
4.2750999422
20
-21.1660449559
11
8.5539408977
21
-21.1660449559
0
LINE
5
247
100
AcDbEntity
8
0
100
AcDbLine
62
9
6
CONTINUOUS
10
13.9460591023
20
-21.1660449559
11
18.2249000578
21
-21.1660449559
0
LINE
5
248
100
AcDbEntity
8
0
100
AcDbLine
62
9
6
CONTINUOUS
10
-20.9000000000
20
-20.9000000000
11
-18.6330351795
21
-20.9000000000
0
LINE
5
249
100
AcDbEntity
8
0
100
AcDbLine
62
9
6
CONTINUOUS
10
-3.8669648205
20
-20.9000000000
11
3.8669648205
21
-20.9000000000
0
LINE
5
24A
100
AcDbEntity
8
0
100
AcDbLine
62
9
6
CONTINUOUS
10
18.6330351795
20
-20.9000000000
11
20.9000000000
21
-20.9000000000
0
LINE
5
24B
100
AcDbEntity
8
0
100
AcDbLine
62
9
6
CONTINUOUS
10
20.7603594806
20
-20.7603594806
11
18.7726756989
21
-20.7603594806
0
LINE
5
24C
100
AcDbEntity
8
0
100
AcDbLine
62
9
6
CONTINUOUS
10
3.7273243011
20
-20.7603594806
11
-3.7273243011
21
-20.7603594806
0
LINE
5
24D
100
AcDbEntity
8
0
100
AcDbLine
62
9
6
CONTINUOUS
10
-18.7726756989
20
-20.7603594806
11
-20.7603594806
21
-20.7603594806
0
LINE
5
24E
100
AcDbEntity
8
0
100
AcDbLine
62
9
6
CONTINUOUS
10
18.4584845302
20
-19.9483339502
11
4.0415154698
21
-19.9483339502
0
LINE
5
24F
100
AcDbEntity
8
0
100
AcDbLine
62
9
6
CONTINUOUS
10
-4.0415154698
20
-19.9483339502
11
-18.4584845302
21
-19.9483339502
0
LINE
5
250
100
AcDbEntity
8
0
100
AcDbLine
62
9
6
CONTINUOUS
10
-3.5000000000
20
-19.9000000000
11
-2.5000000000
21
-19.9000000000
0
LINE
5
251
100
AcDbEntity
8
0
100
AcDbLine
62
9
6
CONTINUOUS
10
2.5000000000
20
-19.9000000000
11
3.5000000000
21
-19.9000000000
0
LINE
5
252
100
AcDbEntity
8
0
100
AcDbLine
62
9
6
CONTINUOUS
10
18.4584845302
20
-19.8000000000
11
4.0415154698
21
-19.8000000000
0
LINE
5
253
100
AcDbEntity
8
0
100
AcDbLine
62
9
6
CONTINUOUS
10
-4.0415154698
20
-19.8000000000
11
-18.4584845302
21
-19.8000000000
0
LINE
5
254
100
AcDbEntity
8
0
100
AcDbLine
62
9
6
CONTINUOUS
10
4.0340172901
20
-19.3704295719
11
3.9000000000
21
-19.3704295719
0
LINE
5
255
100
AcDbEntity
8
0
100
AcDbLine
62
9
6
CONTINUOUS
10
-3.9000000000
20
-19.3704295719
11
-4.0340172901
21
-19.3704295719
0
LINE
5
256
100
AcDbEntity
8
0
100
AcDbLine
62
9
6
CONTINUOUS
10
14.6853394229
20
-21.2000000000
11
14.4039593117
21
-21.1860370115
0
LINE
5
257
100
AcDbEntity
8
0
100
AcDbLine
62
9
6
CONTINUOUS
10
-4.0415154698
20
-19.8127991157
11
-3.9000000000
21
-19.8255982314
0
LINE
5
258
100
AcDbEntity
8
0
100
AcDbLine
62
9
6
CONTINUOUS
10
4.0117849970
20
-20.9317102097
11
3.8669648205
21
-20.9000000000
0
LINE
5
259
100
AcDbEntity
8
0
100
AcDbLine
62
9
6
CONTINUOUS
10
-3.9000000000
20
-19.8965739699
11
-4.0415154698
21
-19.8258216238
0
LINE
5
25A
100
AcDbEntity
8
0
100
AcDbLine
62
9
6
CONTINUOUS
10
-18.4882150030
20
20.9317102097
11
-18.4584845302
21
19.9483339502
0
LINE
5
25B
100
AcDbEntity
8
0
100
AcDbLine
62
9
6
CONTINUOUS
10
-18.4721457668
20
-19.0173482781
11
-18.4584845302
21
-19.8000000000
0
LINE
5
25C
100
AcDbEntity
8
0
100
AcDbLine
62
9
6
CONTINUOUS
10
-18.7726756989
20
-20.7603594806
11
-18.7726756989
21
-18.8670947560
0
LINE
5
25D
100
AcDbEntity
8
0
100
AcDbLine
62
9
6
CONTINUOUS
10
-18.7726756989
20
18.8670947560
11
-18.7726756989
21
20.7603594806
0
LINE
5
25E
100
AcDbEntity
8
0
100
AcDbLine
62
9
6
CONTINUOUS
10
-18.4584845302
20
19.9483339502
11
-18.4584845302
21
19.8000000000
0
LINE
5
25F
100
AcDbEntity
8
0
100
AcDbLine
62
9
6
CONTINUOUS
10
-18.4584845302
20
-19.8000000000
11
-18.4584845302
21
-19.9483339502
0
LINE
5
260
100
AcDbEntity
8
0
100
AcDbLine
62
9
6
CONTINUOUS
10
-17.3330351795
20
19.1000000000
11
-17.3330351795
21
18.9000000000
0
LINE
5
261
100
AcDbEntity
8
0
100
AcDbLine
62
9
6
CONTINUOUS
10
-17.3330351795
20
-19.1000000000
11
-17.3330351795
21
-18.9000000000
0
LINE
5
262
100
AcDbEntity
8
0
100
AcDbLine
62
9
6
CONTINUOUS
10
-18.4584845302
20
19.8000000000
11
-18.4721457668
21
19.0173482781
0
LINE
5
263
100
AcDbEntity
8
0
100
AcDbLine
62
9
6
CONTINUOUS
10
-18.4584845302
20
-19.9483339502
11
-18.4882150030
21
-20.9317102097
0
LINE
5
264
100
AcDbEntity
8
0
100
AcDbLine
62
9
6
CONTINUOUS
10
17.3330351795
20
-19.1000000000
11
5.1669648205
21
-19.1000000000
0
LINE
5
265
100
AcDbEntity
8
0
100
AcDbLine
62
9
6
CONTINUOUS
10
3.5000000000
20
-19.1000000000
11
2.5000000000
21
-19.1000000000
0
LINE
5
266
100
AcDbEntity
8
0
100
AcDbLine
62
9
6
CONTINUOUS
10
-2.5000000000
20
-19.1000000000
11
-3.5000000000
21
-19.1000000000
0
LINE
5
267
100
AcDbEntity
8
0
100
AcDbLine
62
9
6
CONTINUOUS
10
-5.1669648205
20
-19.1000000000
11
-17.3330351795
21
-19.1000000000
0
LINE
5
268
100
AcDbEntity
8
0
100
AcDbLine
62
9
6
CONTINUOUS
10
18.4721457668
20
-19.0173482781
11
18.1551386093
21
-19.0173482781
0
LINE
5
269
100
AcDbEntity
8
0
100
AcDbLine
62
9
6
CONTINUOUS
10
17.8109317497
20
-19.0173482781
11
17.3330351795
21
-19.0173482781
0
LINE
5
26A
100
AcDbEntity
8
0
100
AcDbLine
62
9
6
CONTINUOUS
10
5.1669648205
20
-19.0173482781
11
4.6890682503
21
-19.0173482781
0
LINE
5
26B
100
AcDbEntity
8
0
100
AcDbLine
62
9
6
CONTINUOUS
10
4.3448613907
20
-19.0173482781
11
4.0278542332
21
-19.0173482781
0
LINE
5
26C
100
AcDbEntity
8
0
100
AcDbLine
62
9
6
CONTINUOUS
10
-4.0278542332
20
-19.0173482781
11
-4.3448613907
21
-19.0173482781
0
LINE
5
26D
100
AcDbEntity
8
0
100
AcDbLine
62
9
6
CONTINUOUS
10
-4.6890682503
20
-19.0173482781
11
-5.1669648205
21
-19.0173482781
0
LINE
5
26E
100
AcDbEntity
8
0
100
AcDbLine
62
9
6
CONTINUOUS
10
-17.3330351795
20
-19.0173482781
11
-17.8109317497
21
-19.0173482781
0
LINE
5
26F
100
AcDbEntity
8
0
100
AcDbLine
62
9
6
CONTINUOUS
10
-18.1551386093
20
-19.0173482781
11
-18.4721457668
21
-19.0173482781
0
LINE
5
270
100
AcDbEntity
8
0
100
AcDbLine
62
9
6
CONTINUOUS
10
-19.9000000000
20
-18.9000000000
11
19.9000000000
21
-18.9000000000
0
LINE
5
271
100
AcDbEntity
8
0
100
AcDbLine
62
9
6
CONTINUOUS
10
-14.6853394229
20
-21.2000000000
11
-14.6321231691
21
-22.2000000000
0
LINE
5
272
100
AcDbEntity
8
0
100
AcDbLine
62
9
6
CONTINUOUS
10
-14.6853394229
20
21.2000000000
11
-14.6321231691
21
22.2000000000
0
LINE
5
273
100
AcDbEntity
8
0
100
AcDbLine
62
9
6
CONTINUOUS
10
-4.4607613969
20
18.9000000000
11
-4.3448613907
21
19.0173482781
0
LINE
5
274
100
AcDbEntity
8
0
100
AcDbLine
62
9
6
CONTINUOUS
10
3.9000000000
20
19.3034260301
11
4.0340172901
21
19.3704295719
0
LINE
5
275
100
AcDbEntity
8
0
100
AcDbLine
62
9
6
CONTINUOUS
10
4.0278542332
20
19.0173482781
11
3.7931398015
21
18.9000000000
0
LINE
5
276
100
AcDbEntity
8
0
100
AcDbLine
62
9
6
CONTINUOUS
10
-11.0000000000
20
-16.5000000000
11
-9.4500000000
21
-16.5000000000
0
LINE
5
277
100
AcDbEntity
8
0
100
AcDbLine
62
9
6
CONTINUOUS
10
9.4500000000
20
-16.5000000000
11
11.0000000000
21
-16.5000000000
0
LINE
5
278
100
AcDbEntity
8
0
100
AcDbLine
62
9
6
CONTINUOUS
10
-11.0000000000
20
-15.0824068966
11
-9.4500000000
21
-15.0824068966
0
LINE
5
279
100
AcDbEntity
8
0
100
AcDbLine
62
9
6
CONTINUOUS
10
9.4500000000
20
-15.0824068966
11
11.0000000000
21
-15.0824068966
0
LINE
5
27A
100
AcDbEntity
8
0
100
AcDbLine
62
9
6
CONTINUOUS
10
3.9000000000
20
-19.3034260301
11
4.0340172901
21
-19.3704295719
0
LINE
5
27B
100
AcDbEntity
8
0
100
AcDbLine
62
9
6
CONTINUOUS
10
3.7931398015
20
-18.9000000000
11
4.0278542332
21
-19.0173482781
0
LINE
5
27C
100
AcDbEntity
8
0
100
AcDbLine
62
9
6
CONTINUOUS
10
-4.3448613907
20
-19.0173482781
11
-4.4607613969
21
-18.9000000000
0
LINE
5
27D
100
AcDbEntity
8
0
100
AcDbLine
62
9
6
CONTINUOUS
10
-14.3500000000
20
-21.1860370115
11
-14.3500000000
21
-22.1860370115
0
LINE
5
27E
100
AcDbEntity
8
0
100
AcDbLine
62
9
6
CONTINUOUS
10
-14.3500000000
20
21.1860370115
11
-14.3500000000
21
22.1860370115
0
LINE
5
27F
100
AcDbEntity
8
0
100
AcDbLine
62
9
6
CONTINUOUS
10
-13.1500000000
20
19.1000000000
11
-13.1500000000
21
18.9000000000
0
LINE
5
280
100
AcDbEntity
8
0
100
AcDbLine
62
9
6
CONTINUOUS
10
-13.1500000000
20
-18.9000000000
11
-13.1500000000
21
-19.1000000000
0
LINE
5
281
100
AcDbEntity
8
0
100
AcDbLine
62
9
6
CONTINUOUS
10
-7.2766626524
20
23.5000000000
11
-7.2869847578
21
23.4650925288
0
LINE
5
282
100
AcDbEntity
8
0
100
AcDbLine
62
9
6
CONTINUOUS
10
-8.2438464129
20
22.1813923154
11
-8.5539408977
21
21.1660449559
0
LINE
5
283
100
AcDbEntity
8
0
100
AcDbLine
62
9
6
CONTINUOUS
10
-8.5539408977
20
-21.1660449559
11
-8.2438464129
21
-22.1813923154
0
LINE
5
284
100
AcDbEntity
8
0
100
AcDbLine
62
9
6
CONTINUOUS
10
-7.2766626524
20
-23.5000000000
11
-7.2869847578
21
-23.4650925288
0
LINE
5
285
100
AcDbEntity
8
0
100
AcDbLine
62
9
6
CONTINUOUS
10
-11.0000000000
20
-16.5000000000
11
-11.0000000000
21
16.9000000000
0
LINE
5
286
100
AcDbEntity
8
0
100
AcDbLine
62
9
6
CONTINUOUS
10
-10.7500000000
20
14.9000000000
11
-10.7500000000
21
16.9000000000
0
LINE
5
287
100
AcDbEntity
8
0
100
AcDbLine
62
9
6
CONTINUOUS
10
-4.2625001673
20
21.2000000000
11
-4.2750999422
21
21.1660449559
0
LINE
5
288
100
AcDbEntity
8
0
100
AcDbLine
62
9
6
CONTINUOUS
10
-4.7376754986
20
18.9000000000
11
-4.6890682503
21
19.0173482781
0
LINE
5
289
100
AcDbEntity
8
0
100
AcDbLine
62
9
6
CONTINUOUS
10
3.7273243011
20
20.7603594806
11
3.8669648205
21
20.9000000000
0
LINE
5
28A
100
AcDbEntity
8
0
100
AcDbLine
62
9
6
CONTINUOUS
10
3.7273243011
20
-20.7603594806
11
3.8669648205
21
-20.9000000000
0
LINE
5
28B
100
AcDbEntity
8
0
100
AcDbLine
62
9
6
CONTINUOUS
10
-4.7376754986
20
-18.9000000000
11
-4.6890682503
21
-19.0173482781
0
LINE
5
28C
100
AcDbEntity
8
0
100
AcDbLine
62
9
6
CONTINUOUS
10
-4.2625001673
20
-21.2000000000
11
-4.2750999422
21
-21.1660449559
0
LINE
5
28D
100
AcDbEntity
8
0
100
AcDbLine
62
9
6
CONTINUOUS
10
-10.0000000000
20
19.1000000000
11
-10.0000000000
21
18.9000000000
0
LINE
5
28E
100
AcDbEntity
8
0
100
AcDbLine
62
9
6
CONTINUOUS
10
-10.0000000000
20
-18.9000000000
11
-10.0000000000
21
-19.1000000000
0
LINE
5
28F
100
AcDbEntity
8
0
100
AcDbLine
62
9
6
CONTINUOUS
10
-9.4500000000
20
-16.5000000000
11
-9.4500000000
21
14.9000000000
0
LINE
5
290
100
AcDbEntity
8
0
100
AcDbLine
62
9
6
CONTINUOUS
10
-9.4500000000
20
16.9000000000
11
-9.4500000000
21
17.6000000000
0
LINE
5
291
100
AcDbEntity
8
0
100
AcDbLine
62
9
6
CONTINUOUS
10
-8.6000000000
20
-10.1000000000
11
-8.6000000000
21
15.9000000000
0
LINE
5
292
100
AcDbEntity
8
0
100
AcDbLine
62
9
6
CONTINUOUS
10
-18.2374998327
20
-21.2000000000
11
-18.2249000578
21
-21.1660449559
0
LINE
5
293
100
AcDbEntity
8
0
100
AcDbLine
62
9
6
CONTINUOUS
10
-17.7623245014
20
-18.9000000000
11
-17.8109317497
21
-19.0173482781
0
LINE
5
294
100
AcDbEntity
8
0
100
AcDbLine
62
9
6
CONTINUOUS
10
4.5731682441
20
18.9000000000
11
4.6890682503
21
19.0173482781
0
LINE
5
295
100
AcDbEntity
8
0
100
AcDbLine
62
9
6
CONTINUOUS
10
8.6000000000
20
-10.1000000000
11
-8.6000000000
21
-10.1000000000
0
LINE
5
296
100
AcDbEntity
8
0
100
AcDbLine
62
9
6
CONTINUOUS
10
-7.1000000000
20
-8.6000000000
11
-3.9000000000
21
-8.6000000000
0
LINE
5
297
100
AcDbEntity
8
0
100
AcDbLine
62
9
6
CONTINUOUS
10
7.1000000000
20
-8.6000000000
11
3.9000000000
21
-8.6000000000
0
LINE
5
298
100
AcDbEntity
8
0
100
AcDbLine
62
9
6
CONTINUOUS
10
4.6890682503
20
-19.0173482781
11
4.5731682441
21
-18.9000000000
0
LINE
5
299
100
AcDbEntity
8
0
100
AcDbLine
62
9
6
CONTINUOUS
10
-17.7623245014
20
18.9000000000
11
-17.8109317497
21
19.0173482781
0
LINE
5
29A
100
AcDbEntity
8
0
100
AcDbLine
62
9
6
CONTINUOUS
10
-18.2374998327
20
21.2000000000
11
-18.2249000578
21
21.1660449559
0
LINE
5
29B
100
AcDbEntity
8
0
100
AcDbLine
62
9
6
CONTINUOUS
10
-7.8146605771
20
21.2000000000
11
-7.8678768309
21
22.2000000000
0
LINE
5
29C
100
AcDbEntity
8
0
100
AcDbLine
62
9
6
CONTINUOUS
10
-8.1500000000
20
-21.1860370115
11
-8.1500000000
21
-22.1860370115
0
LINE
5
29D
100
AcDbEntity
8
0
100
AcDbLine
62
9
6
CONTINUOUS
10
-8.1500000000
20
21.1860370115
11
-8.1500000000
21
22.1860370115
0
LINE
5
29E
100
AcDbEntity
8
0
100
AcDbLine
62
9
6
CONTINUOUS
10
-7.1000000000
20
0.6498081888
11
-7.1000000000
21
-8.6000000000
0
LINE
5
29F
100
AcDbEntity
8
0
100
AcDbLine
62
9
6
CONTINUOUS
10
-6.6591825482
20
5.9501918112
11
-6.6591825482
21
0.1880180587
0
LINE
5
2A0
100
AcDbEntity
8
0
100
AcDbLine
62
9
6
CONTINUOUS
10
-7.1000000000
20
-8.6000000000
11
-6.6735124651
21
-0.3763145893
0
LINE
5
2A1
100
AcDbEntity
8
0
100
AcDbLine
62
9
6
CONTINUOUS
10
-7.8146605771
20
-21.2000000000
11
-7.8678768309
21
-22.2000000000
0
LINE
5
2A2
100
AcDbEntity
8
0
100
AcDbLine
62
9
6
CONTINUOUS
10
-7.0503790783
20
1.6727759084
11
-6.7088034699
21
4.9272240916
0
LINE
5
2A3
100
AcDbEntity
8
0
100
AcDbLine
62
9
6
CONTINUOUS
10
-15.2233373476
20
-23.5000000000
11
-15.2130152422
21
-23.4650925288
0
LINE
5
2A4
100
AcDbEntity
8
0
100
AcDbLine
62
9
6
CONTINUOUS
10
-13.9460591023
20
-21.1660449559
11
-14.2561535871
21
-22.1813923154
0
LINE
5
2A5
100
AcDbEntity
8
0
100
AcDbLine
62
9
6
CONTINUOUS
10
-14.2561535871
20
22.1813923154
11
-13.9460591023
21
21.1660449559
0
LINE
5
2A6
100
AcDbEntity
8
0
100
AcDbLine
62
9
6
CONTINUOUS
10
-15.2233373476
20
23.5000000000
11
-15.2130152422
21
23.4650925288
0
LINE
5
2A7
100
AcDbEntity
8
0
100
AcDbLine
62
9
6
CONTINUOUS
10
-3.9000000000
20
-8.6000000000
11
-4.3264875349
21
-0.3763145893
0
LINE
5
2A8
100
AcDbEntity
8
0
100
AcDbLine
62
9
6
CONTINUOUS
10
-4.0117849970
20
-20.9317102097
11
-4.0415154698
21
-19.9483339502
0
LINE
5
2A9
100
AcDbEntity
8
0
100
AcDbLine
62
9
6
CONTINUOUS
10
-5.1669648205
20
19.1000000000
11
-5.1669648205
21
18.9000000000
0
LINE
5
2AA
100
AcDbEntity
8
0
100
AcDbLine
62
9
6
CONTINUOUS
10
-5.1669648205
20
-19.1000000000
11
-5.1669648205
21
-18.9000000000
0
LINE
5
2AB
100
AcDbEntity
8
0
100
AcDbLine
62
9
6
CONTINUOUS
10
-4.3408174518
20
0.1880180587
11
-4.3408174518
21
5.9501918112
0
LINE
5
2AC
100
AcDbEntity
8
0
100
AcDbLine
62
9
6
CONTINUOUS
10
-4.0415154698
20
-19.9483339502
11
-4.0415154698
21
-19.8258216238
0
LINE
5
2AD
100
AcDbEntity
8
0
100
AcDbLine
62
9
6
CONTINUOUS
10
-4.0415154698
20
19.8258216238
11
-4.0415154698
21
19.9483339502
0
LINE
5
2AE
100
AcDbEntity
8
0
100
AcDbLine
62
9
6
CONTINUOUS
10
-4.0415154698
20
19.9483339502
11
-4.0117849970
21
20.9317102097
0
LINE
5
2AF
100
AcDbEntity
8
0
100
AcDbLine
62
9
6
CONTINUOUS
10
-3.9496209217
20
1.6727759084
11
-4.2911965301
21
4.9272240916
0
LINE
5
2B0
100
AcDbEntity
8
0
100
AcDbLine
62
9
6
CONTINUOUS
10
-4.0278542332
20
19.0173482781
11
-4.0340172901
21
19.3704295719
0
LINE
5
2B1
100
AcDbEntity
8
0
100
AcDbLine
62
9
6
CONTINUOUS
10
-3.9000000000
20
19.8965739699
11
-3.9000000000
21
19.8255982314
0
LINE
5
2B2
100
AcDbEntity
8
0
100
AcDbLine
62
9
6
CONTINUOUS
10
-3.9000000000
20
0.6498081888
11
-3.9000000000
21
-8.6000000000
0
LINE
5
2B3
100
AcDbEntity
8
0
100
AcDbLine
62
9
6
CONTINUOUS
10
-3.9000000000
20
-19.3034260301
11
-3.9000000000
21
-19.3704295719
0
LINE
5
2B4
100
AcDbEntity
8
0
100
AcDbLine
62
9
6
CONTINUOUS
10
-3.9000000000
20
-19.8965739699
11
-3.9000000000
21
-19.8255982314
0
LINE
5
2B5
100
AcDbEntity
8
0
100
AcDbLine
62
9
6
CONTINUOUS
10
-3.9000000000
20
19.3034260301
11
-3.9000000000
21
19.3704295719
0
LINE
5
2B6
100
AcDbEntity
8
0
100
AcDbLine
62
9
6
CONTINUOUS
10
-3.7273243011
20
-20.7603594806
11
-3.7273243011
21
-19.9417594606
0
LINE
5
2B7
100
AcDbEntity
8
0
100
AcDbLine
62
9
6
CONTINUOUS
10
-3.7273243011
20
-19.2582405394
11
-3.7273243011
21
-18.8670947560
0
LINE
5
2B8
100
AcDbEntity
8
0
100
AcDbLine
62
9
6
CONTINUOUS
10
-3.7273243011
20
18.8670947560
11
-3.7273243011
21
19.2582405394
0
LINE
5
2B9
100
AcDbEntity
8
0
100
AcDbLine
62
9
6
CONTINUOUS
10
-3.7273243011
20
19.9417594606
11
-3.7273243011
21
20.7603594806
0
LINE
5
2BA
100
AcDbEntity
8
0
100
AcDbLine
62
9
6
CONTINUOUS
10
-3.5000000000
20
19.9000000000
11
-3.5000000000
21
19.1000000000
0
LINE
5
2BB
100
AcDbEntity
8
0
100
AcDbLine
62
9
6
CONTINUOUS
10
-3.5000000000
20
-19.1000000000
11
-3.5000000000
21
-19.9000000000
0
LINE
5
2BC
100
AcDbEntity
8
0
100
AcDbLine
62
9
6
CONTINUOUS
10
-2.5000000000
20
-19.9000000000
11
-2.5000000000
21
-19.1000000000
0
LINE
5
2BD
100
AcDbEntity
8
0
100
AcDbLine
62
9
6
CONTINUOUS
10
-2.5000000000
20
19.1000000000
11
-2.5000000000
21
19.9000000000
0
LINE
5
2BE
100
AcDbEntity
8
0
100
AcDbLine
62
9
6
CONTINUOUS
10
-4.0340172901
20
-19.3704295719
11
-4.0278542332
21
-19.0173482781
0
LINE
5
2BF
100
AcDbEntity
8
0
100
AcDbLine
62
9
6
CONTINUOUS
10
4.2962541424
20
18.9000000000
11
4.3448613907
21
19.0173482781
0
LINE
5
2C0
100
AcDbEntity
8
0
100
AcDbLine
62
9
6
CONTINUOUS
10
4.2962541424
20
-18.9000000000
11
4.3448613907
21
-19.0173482781
0
LINE
5
2C1
100
AcDbEntity
8
0
100
AcDbLine
62
9
6
CONTINUOUS
10
-0.4500000000
20
-4.2351265298
11
-0.4500000000
21
-9.9648734702
0
LINE
5
2C2
100
AcDbEntity
8
0
100
AcDbLine
62
9
6
CONTINUOUS
10
18.0392386031
20
18.9000000000
11
18.1551386093
21
19.0173482781
0
LINE
5
2C3
100
AcDbEntity
8
0
100
AcDbLine
62
9
6
CONTINUOUS
10
-20.7603594806
20
-20.7603594806
11
-20.9000000000
21
-20.9000000000
0
LINE
5
2C4
100
AcDbEntity
8
0
100
AcDbLine
62
9
6
CONTINUOUS
10
20.7603594806
20
20.7603594806
11
20.9000000000
21
20.9000000000
0
LINE
5
2C5
100
AcDbEntity
8
0
100
AcDbLine
62
9
6
CONTINUOUS
10
-6.6735124651
20
-0.3763145893
11
-4.3264875349
21
-0.3763145893
0
LINE
5
2C6
100
AcDbEntity
8
0
100
AcDbLine
62
9
6
CONTINUOUS
10
4.3264875349
20
-0.3763145893
11
6.6735124651
21
-0.3763145893
0
LINE
5
2C7
100
AcDbEntity
8
0
100
AcDbLine
62
9
6
CONTINUOUS
10
-6.6591825482
20
0.1880180587
11
-4.3408174518
21
0.1880180587
0
LINE
5
2C8
100
AcDbEntity
8
0
100
AcDbLine
62
9
6
CONTINUOUS
10
4.3408174518
20
0.1880180587
11
6.6591825482
21
0.1880180587
0
LINE
5
2C9
100
AcDbEntity
8
0
100
AcDbLine
62
9
6
CONTINUOUS
10
-20.9000000000
20
20.9000000000
11
-20.7603594806
21
20.7603594806
0
LINE
5
2CA
100
AcDbEntity
8
0
100
AcDbLine
62
9
6
CONTINUOUS
10
20.9000000000
20
-20.9000000000
11
20.7603594806
21
-20.7603594806
0
LINE
5
2CB
100
AcDbEntity
8
0
100
AcDbLine
62
9
6
CONTINUOUS
10
18.1551386093
20
-19.0173482781
11
18.0392386031
21
-18.9000000000
0
LINE
5
2CC
100
AcDbEntity
8
0
100
AcDbLine
62
9
6
CONTINUOUS
10
0.4500000000
20
-9.9648734702
11
0.4500000000
21
-4.2351265298
0
LINE
5
2CD
100
AcDbEntity
8
0
100
AcDbLine
62
9
6
CONTINUOUS
10
-18.0392386031
20
-18.9000000000
11
-18.1551386093
21
-19.0173482781
0
LINE
5
2CE
100
AcDbEntity
8
0
100
AcDbLine
62
9
6
CONTINUOUS
10
8.6000000000
20
0.6498081888
11
7.1000000000
21
0.6498081888
0
LINE
5
2CF
100
AcDbEntity
8
0
100
AcDbLine
62
9
6
CONTINUOUS
10
3.9000000000
20
0.6498081888
11
-3.9000000000
21
0.6498081888
0
LINE
5
2D0
100
AcDbEntity
8
0
100
AcDbLine
62
9
6
CONTINUOUS
10
-7.1000000000
20
0.6498081888
11
-8.6000000000
21
0.6498081888
0
LINE
5
2D1
100
AcDbEntity
8
0
100
AcDbLine
62
9
6
CONTINUOUS
10
8.6000000000
20
1.6727759084
11
7.0503790783
21
1.6727759084
0
LINE
5
2D2
100
AcDbEntity
8
0
100
AcDbLine
62
9
6
CONTINUOUS
10
3.9496209217
20
1.6727759084
11
-3.9496209217
21
1.6727759084
0
LINE
5
2D3
100
AcDbEntity
8
0
100
AcDbLine
62
9
6
CONTINUOUS
10
-7.0503790783
20
1.6727759084
11
-8.6000000000
21
1.6727759084
0
LINE
5
2D4
100
AcDbEntity
8
0
100
AcDbLine
62
9
6
CONTINUOUS
10
11.0000000000
20
1.7000000000
11
9.4500000000
21
1.7000000000
0
LINE
5
2D5
100
AcDbEntity
8
0
100
AcDbLine
62
9
6
CONTINUOUS
10
-9.4500000000
20
1.7000000000
11
-11.0000000000
21
1.7000000000
0
LINE
5
2D6
100
AcDbEntity
8
0
100
AcDbLine
62
9
6
CONTINUOUS
10
-18.1551386093
20
19.0173482781
11
-18.0392386031
21
18.9000000000
0
LINE
5
2D7
100
AcDbEntity
8
0
100
AcDbLine
62
9
6
CONTINUOUS
10
4.0278542332
20
-19.0173482781
11
4.0340172901
21
-19.3704295719
0
LINE
5
2D8
100
AcDbEntity
8
0
100
AcDbLine
62
9
6
CONTINUOUS
10
2.5000000000
20
19.9000000000
11
2.5000000000
21
19.1000000000
0
LINE
5
2D9
100
AcDbEntity
8
0
100
AcDbLine
62
9
6
CONTINUOUS
10
2.5000000000
20
-19.1000000000
11
2.5000000000
21
-19.9000000000
0
LINE
5
2DA
100
AcDbEntity
8
0
100
AcDbLine
62
9
6
CONTINUOUS
10
3.5000000000
20
-19.9000000000
11
3.5000000000
21
-19.1000000000
0
LINE
5
2DB
100
AcDbEntity
8
0
100
AcDbLine
62
9
6
CONTINUOUS
10
3.5000000000
20
19.1000000000
11
3.5000000000
21
19.9000000000
0
LINE
5
2DC
100
AcDbEntity
8
0
100
AcDbLine
62
9
6
CONTINUOUS
10
3.7273243011
20
20.7603594806
11
3.7273243011
21
19.9417594606
0
LINE
5
2DD
100
AcDbEntity
8
0
100
AcDbLine
62
9
6
CONTINUOUS
10
3.7273243011
20
19.2582405394
11
3.7273243011
21
18.8670947560
0
LINE
5
2DE
100
AcDbEntity
8
0
100
AcDbLine
62
9
6
CONTINUOUS
10
3.7273243011
20
-18.8670947560
11
3.7273243011
21
-19.2582405394
0
LINE
5
2DF
100
AcDbEntity
8
0
100
AcDbLine
62
9
6
CONTINUOUS
10
3.7273243011
20
-19.9417594606
11
3.7273243011
21
-20.7603594806
0
LINE
5
2E0
100
AcDbEntity
8
0
100
AcDbLine
62
9
6
CONTINUOUS
10
3.9000000000
20
19.8965739699
11
3.9000000000
21
19.8255982314
0
LINE
5
2E1
100
AcDbEntity
8
0
100
AcDbLine
62
9
6
CONTINUOUS
10
3.9000000000
20
0.6498081888
11
3.9000000000
21
-8.6000000000
0
LINE
5
2E2
100
AcDbEntity
8
0
100
AcDbLine
62
9
6
CONTINUOUS
10
3.9000000000
20
-19.3034260301
11
3.9000000000
21
-19.3704295719
0
LINE
5
2E3
100
AcDbEntity
8
0
100
AcDbLine
62
9
6
CONTINUOUS
10
3.9000000000
20
-19.8965739699
11
3.9000000000
21
-19.8255982314
0
LINE
5
2E4
100
AcDbEntity
8
0
100
AcDbLine
62
9
6
CONTINUOUS
10
3.9000000000
20
19.3034260301
11
3.9000000000
21
19.3704295719
0
LINE
5
2E5
100
AcDbEntity
8
0
100
AcDbLine
62
9
6
CONTINUOUS
10
4.0415154698
20
19.9483339502
11
4.0415154698
21
19.8258216238
0
LINE
5
2E6
100
AcDbEntity
8
0
100
AcDbLine
62
9
6
CONTINUOUS
10
4.0415154698
20
-19.8258216238
11
4.0415154698
21
-19.9483339502
0
LINE
5
2E7
100
AcDbEntity
8
0
100
AcDbLine
62
9
6
CONTINUOUS
10
4.3408174518
20
5.9501918112
11
4.3408174518
21
0.1880180587
0
LINE
5
2E8
100
AcDbEntity
8
0
100
AcDbLine
62
9
6
CONTINUOUS
10
4.0340172901
20
19.3704295719
11
4.0278542332
21
19.0173482781
0
LINE
5
2E9
100
AcDbEntity
8
0
100
AcDbLine
62
9
6
CONTINUOUS
10
3.9000000000
20
-8.6000000000
11
4.3264875349
21
-0.3763145893
0
LINE
5
2EA
100
AcDbEntity
8
0
100
AcDbLine
62
9
6
CONTINUOUS
10
3.9496209217
20
1.6727759084
11
4.2911965301
21
4.9272240916
0
LINE
5
2EB
100
AcDbEntity
8
0
100
AcDbLine
62
9
6
CONTINUOUS
10
-4.2962541424
20
-18.9000000000
11
-4.3448613907
21
-19.0173482781
0
LINE
5
2EC
100
AcDbEntity
8
0
100
AcDbLine
62
9
6
CONTINUOUS
10
-4.2962541424
20
18.9000000000
11
-4.3448613907
21
19.0173482781
0
LINE
5
2ED
100
AcDbEntity
8
0
100
AcDbLine
62
9
6
CONTINUOUS
10
7.8146605771
20
-21.2000000000
11
7.8678768309
21
-22.2000000000
0
LINE
5
2EE
100
AcDbEntity
8
0
100
AcDbLine
62
9
6
CONTINUOUS
10
7.1000000000
20
-8.6000000000
11
6.6735124651
21
-0.3763145893
0
LINE
5
2EF
100
AcDbEntity
8
0
100
AcDbLine
62
9
6
CONTINUOUS
10
4.0117849970
20
20.9317102097
11
4.0415154698
21
19.9483339502
0
LINE
5
2F0
100
AcDbEntity
8
0
100
AcDbLine
62
9
6
CONTINUOUS
10
5.1669648205
20
19.1000000000
11
5.1669648205
21
18.9000000000
0
LINE
5
2F1
100
AcDbEntity
8
0
100
AcDbLine
62
9
6
CONTINUOUS
10
5.1669648205
20
-19.1000000000
11
5.1669648205
21
-18.9000000000
0
LINE
5
2F2
100
AcDbEntity
8
0
100
AcDbLine
62
9
6
CONTINUOUS
10
6.6591825482
20
0.1880180587
11
6.6591825482
21
5.9501918112
0
LINE
5
2F3
100
AcDbEntity
8
0
100
AcDbLine
62
9
6
CONTINUOUS
10
4.0415154698
20
-19.9483339502
11
4.0117849970
21
-20.9317102097
0
LINE
5
2F4
100
AcDbEntity
8
0
100
AcDbLine
62
9
6
CONTINUOUS
10
7.8146605771
20
21.2000000000
11
7.8678768309
21
22.2000000000
0
LINE
5
2F5
100
AcDbEntity
8
0
100
AcDbLine
62
9
6
CONTINUOUS
10
-8.6000000000
20
4.9272240916
11
-6.7088034699
21
4.9272240916
0
LINE
5
2F6
100
AcDbEntity
8
0
100
AcDbLine
62
9
6
CONTINUOUS
10
-4.2911965301
20
4.9272240916
11
4.2911965301
21
4.9272240916
0
LINE
5
2F7
100
AcDbEntity
8
0
100
AcDbLine
62
9
6
CONTINUOUS
10
6.7088034699
20
4.9272240916
11
8.6000000000
21
4.9272240916
0
LINE
5
2F8
100
AcDbEntity
8
0
100
AcDbLine
62
9
6
CONTINUOUS
10
-8.6000000000
20
5.9501918112
11
-6.6591825482
21
5.9501918112
0
LINE
5
2F9
100
AcDbEntity
8
0
100
AcDbLine
62
9
6
CONTINUOUS
10
-4.3408174518
20
5.9501918112
11
4.3408174518
21
5.9501918112
0
LINE
5
2FA
100
AcDbEntity
8
0
100
AcDbLine
62
9
6
CONTINUOUS
10
6.6591825482
20
5.9501918112
11
8.6000000000
21
5.9501918112
0
LINE
5
2FB
100
AcDbEntity
8
0
100
AcDbLine
62
9
6
CONTINUOUS
10
7.0503790783
20
1.6727759084
11
6.7088034699
21
4.9272240916
0
LINE
5
2FC
100
AcDbEntity
8
0
100
AcDbLine
62
9
6
CONTINUOUS
10
7.1000000000
20
0.6498081888
11
7.1000000000
21
-8.6000000000
0
LINE
5
2FD
100
AcDbEntity
8
0
100
AcDbLine
62
9
6
CONTINUOUS
10
8.1500000000
20
-21.1860370115
11
8.1500000000
21
-22.1860370115
0
LINE
5
2FE
100
AcDbEntity
8
0
100
AcDbLine
62
9
6
CONTINUOUS
10
8.1500000000
20
21.1860370115
11
8.1500000000
21
22.1860370115
0
LINE
5
2FF
100
AcDbEntity
8
0
100
AcDbLine
62
9
6
CONTINUOUS
10
8.6000000000
20
-10.1000000000
11
8.6000000000
21
15.9000000000
0
LINE
5
300
100
AcDbEntity
8
0
100
AcDbLine
62
9
6
CONTINUOUS
10
15.2233373476
20
23.5000000000
11
15.2130152422
21
23.4650925288
0
LINE
5
301
100
AcDbEntity
8
0
100
AcDbLine
62
9
6
CONTINUOUS
10
14.2561535871
20
22.1813923154
11
13.9460591023
21
21.1660449559
0
LINE
5
302
100
AcDbEntity
8
0
100
AcDbLine
62
9
6
CONTINUOUS
10
-9.4500000000
20
7.1000000000
11
-8.6000000000
21
7.1000000000
0
LINE
5
303
100
AcDbEntity
8
0
100
AcDbLine
62
9
6
CONTINUOUS
10
8.6000000000
20
7.1000000000
11
9.4500000000
21
7.1000000000
0
LINE
5
304
100
AcDbEntity
8
0
100
AcDbLine
62
9
6
CONTINUOUS
10
13.9460591023
20
-21.1660449559
11
14.2561535871
21
-22.1813923154
0
LINE
5
305
100
AcDbEntity
8
0
100
AcDbLine
62
9
6
CONTINUOUS
10
15.2233373476
20
-23.5000000000
11
15.2130152422
21
-23.4650925288
0
LINE
5
306
100
AcDbEntity
8
0
100
AcDbLine
62
9
6
CONTINUOUS
10
9.4500000000
20
-16.5000000000
11
9.4500000000
21
14.9000000000
0
LINE
5
307
100
AcDbEntity
8
0
100
AcDbLine
62
9
6
CONTINUOUS
10
9.4500000000
20
16.9000000000
11
9.4500000000
21
17.6000000000
0
LINE
5
308
100
AcDbEntity
8
0
100
AcDbLine
62
9
6
CONTINUOUS
10
10.0000000000
20
19.1000000000
11
10.0000000000
21
18.9000000000
0
LINE
5
309
100
AcDbEntity
8
0
100
AcDbLine
62
9
6
CONTINUOUS
10
10.0000000000
20
-18.9000000000
11
10.0000000000
21
-19.1000000000
0
LINE
5
30A
100
AcDbEntity
8
0
100
AcDbLine
62
9
6
CONTINUOUS
10
10.7500000000
20
14.9000000000
11
10.7500000000
21
16.9000000000
0
LINE
5
30B
100
AcDbEntity
8
0
100
AcDbLine
62
9
6
CONTINUOUS
10
11.0000000000
20
-16.5000000000
11
11.0000000000
21
16.9000000000
0
LINE
5
30C
100
AcDbEntity
8
0
100
AcDbLine
62
9
6
CONTINUOUS
10
18.2374998327
20
21.2000000000
11
18.2249000578
21
21.1660449559
0
LINE
5
30D
100
AcDbEntity
8
0
100
AcDbLine
62
9
6
CONTINUOUS
10
17.7623245014
20
18.9000000000
11
17.8109317497
21
19.0173482781
0
LINE
5
30E
100
AcDbEntity
8
0
100
AcDbLine
62
9
6
CONTINUOUS
10
-4.5731682441
20
-18.9000000000
11
-4.6890682503
21
-19.0173482781
0
LINE
5
30F
100
AcDbEntity
8
0
100
AcDbLine
62
9
6
CONTINUOUS
10
-4.6890682503
20
19.0173482781
11
-4.5731682441
21
18.9000000000
0
LINE
5
310
100
AcDbEntity
8
0
100
AcDbLine
62
9
6
CONTINUOUS
10
17.7623245014
20
-18.9000000000
11
17.8109317497
21
-19.0173482781
0
LINE
5
311
100
AcDbEntity
8
0
100
AcDbLine
62
9
6
CONTINUOUS
10
18.2374998327
20
-21.2000000000
11
18.2249000578
21
-21.1660449559
0
LINE
5
312
100
AcDbEntity
8
0
100
AcDbLine
62
9
6
CONTINUOUS
10
13.1500000000
20
19.1000000000
11
13.1500000000
21
18.9000000000
0
LINE
5
313
100
AcDbEntity
8
0
100
AcDbLine
62
9
6
CONTINUOUS
10
13.1500000000
20
-18.9000000000
11
13.1500000000
21
-19.1000000000
0
LINE
5
314
100
AcDbEntity
8
0
100
AcDbLine
62
9
6
CONTINUOUS
10
4.2625001673
20
-21.2000000000
11
4.2750999422
21
-21.1660449559
0
LINE
5
315
100
AcDbEntity
8
0
100
AcDbLine
62
9
6
CONTINUOUS
10
4.7376754986
20
-18.9000000000
11
4.6890682503
21
-19.0173482781
0
LINE
5
316
100
AcDbEntity
8
0
100
AcDbLine
62
9
6
CONTINUOUS
10
-3.7273243011
20
-20.7603594806
11
-3.8669648205
21
-20.9000000000
0
LINE
5
317
100
AcDbEntity
8
0
100
AcDbLine
62
9
6
CONTINUOUS
10
-3.7273243011
20
20.7603594806
11
-3.8669648205
21
20.9000000000
0
LINE
5
318
100
AcDbEntity
8
0
100
AcDbLine
62
9
6
CONTINUOUS
10
4.7376754986
20
18.9000000000
11
4.6890682503
21
19.0173482781
0
LINE
5
319
100
AcDbEntity
8
0
100
AcDbLine
62
9
6
CONTINUOUS
10
4.2625001673
20
21.2000000000
11
4.2750999422
21
21.1660449559
0
LINE
5
31A
100
AcDbEntity
8
0
100
AcDbLine
62
9
6
CONTINUOUS
10
14.3500000000
20
-21.1860370115
11
14.3500000000
21
-22.1860370115
0
LINE
5
31B
100
AcDbEntity
8
0
100
AcDbLine
62
9
6
CONTINUOUS
10
14.3500000000
20
21.1860370115
11
14.3500000000
21
22.1860370115
0
LINE
5
31C
100
AcDbEntity
8
0
100
AcDbLine
62
9
6
CONTINUOUS
10
7.2766626524
20
-23.5000000000
11
7.2869847578
21
-23.4650925288
0
LINE
5
31D
100
AcDbEntity
8
0
100
AcDbLine
62
9
6
CONTINUOUS
10
8.5539408977
20
-21.1660449559
11
8.2438464129
21
-22.1813923154
0
LINE
5
31E
100
AcDbEntity
8
0
100
AcDbLine
62
9
6
CONTINUOUS
10
-4.0278542332
20
-19.0173482781
11
-3.7931398015
21
-18.9000000000
0
LINE
5
31F
100
AcDbEntity
8
0
100
AcDbLine
62
9
6
CONTINUOUS
10
11.0000000000
20
14.9000000000
11
8.6000000000
21
14.9000000000
0
LINE
5
320
100
AcDbEntity
8
0
100
AcDbLine
62
9
6
CONTINUOUS
10
-8.6000000000
20
14.9000000000
11
-11.0000000000
21
14.9000000000
0
LINE
5
321
100
AcDbEntity
8
0
100
AcDbLine
62
9
6
CONTINUOUS
10
-3.7931398015
20
18.9000000000
11
-4.0278542332
21
19.0173482781
0
LINE
5
322
100
AcDbEntity
8
0
100
AcDbLine
62
9
6
CONTINUOUS
10
8.2438464129
20
22.1813923154
11
8.5539408977
21
21.1660449559
0
LINE
5
323
100
AcDbEntity
8
0
100
AcDbLine
62
9
6
CONTINUOUS
10
7.2766626524
20
23.5000000000
11
7.2869847578
21
23.4650925288
0
LINE
5
324
100
AcDbEntity
8
0
100
AcDbLine
62
9
6
CONTINUOUS
10
14.6853394229
20
21.2000000000
11
14.6321231691
21
22.2000000000
0
LINE
5
325
100
AcDbEntity
8
0
100
AcDbLine
62
9
6
CONTINUOUS
10
17.3330351795
20
19.1000000000
11
17.3330351795
21
18.9000000000
0
LINE
5
326
100
AcDbEntity
8
0
100
AcDbLine
62
9
6
CONTINUOUS
10
17.3330351795
20
-19.1000000000
11
17.3330351795
21
-18.9000000000
0
LINE
5
327
100
AcDbEntity
8
0
100
AcDbLine
62
9
6
CONTINUOUS
10
14.6853394229
20
-21.2000000000
11
14.6321231691
21
-22.2000000000
0
LINE
5
328
100
AcDbEntity
8
0
100
AcDbLine
62
9
6
CONTINUOUS
10
4.4607613969
20
-18.9000000000
11
4.3448613907
21
-19.0173482781
0
LINE
5
329
100
AcDbEntity
8
0
100
AcDbLine
62
9
6
CONTINUOUS
10
-3.9000000000
20
-19.3034260301
11
-4.0340172901
21
-19.3704295719
0
LINE
5
32A
100
AcDbEntity
8
0
100
AcDbLine
62
9
6
CONTINUOUS
10
8.6000000000
20
15.9000000000
11
-8.6000000000
21
15.9000000000
0
LINE
5
32B
100
AcDbEntity
8
0
100
AcDbLine
62
9
6
CONTINUOUS
10
11.0000000000
20
16.9000000000
11
-11.0000000000
21
16.9000000000
0
LINE
5
32C
100
AcDbEntity
8
0
100
AcDbLine
62
9
6
CONTINUOUS
10
-9.4500000000
20
17.6000000000
11
9.4500000000
21
17.6000000000
0
LINE
5
32D
100
AcDbEntity
8
0
100
AcDbLine
62
9
6
CONTINUOUS
10
-3.9000000000
20
19.3034260301
11
-4.0340172901
21
19.3704295719
0
LINE
5
32E
100
AcDbEntity
8
0
100
AcDbLine
62
9
6
CONTINUOUS
10
4.3448613907
20
19.0173482781
11
4.4607613969
21
18.9000000000
0
LINE
5
32F
100
AcDbEntity
8
0
100
AcDbLine
62
9
6
CONTINUOUS
10
18.4882150030
20
-20.9317102097
11
18.4584845302
21
-19.9483339502
0
LINE
5
330
100
AcDbEntity
8
0
100
AcDbLine
62
9
6
CONTINUOUS
10
18.4721457668
20
19.0173482781
11
18.4584845302
21
19.8000000000
0
LINE
5
331
100
AcDbEntity
8
0
100
AcDbLine
62
9
6
CONTINUOUS
10
18.4584845302
20
-19.9483339502
11
18.4584845302
21
-19.8000000000
0
LINE
5
332
100
AcDbEntity
8
0
100
AcDbLine
62
9
6
CONTINUOUS
10
18.4584845302
20
19.8000000000
11
18.4584845302
21
19.9483339502
0
LINE
5
333
100
AcDbEntity
8
0
100
AcDbLine
62
9
6
CONTINUOUS
10
18.7726756989
20
20.7603594806
11
18.7726756989
21
18.8670947560
0
LINE
5
334
100
AcDbEntity
8
0
100
AcDbLine
62
9
6
CONTINUOUS
10
18.7726756989
20
-18.8670947560
11
18.7726756989
21
-20.7603594806
0
LINE
5
335
100
AcDbEntity
8
0
100
AcDbLine
62
9
6
CONTINUOUS
10
18.4584845302
20
-19.8000000000
11
18.4721457668
21
-19.0173482781
0
LINE
5
336
100
AcDbEntity
8
0
100
AcDbLine
62
9
6
CONTINUOUS
10
18.4584845302
20
19.9483339502
11
18.4882150030
21
20.9317102097
0
LINE
5
337
100
AcDbEntity
8
0
100
AcDbLine
62
9
6
CONTINUOUS
10
3.9000000000
20
-19.8965739699
11
4.0415154698
21
-19.8258216238
0
LINE
5
338
100
AcDbEntity
8
0
100
AcDbLine
62
9
6
CONTINUOUS
10
3.8669648205
20
20.9000000000
11
4.0117849970
21
20.9317102097
0
LINE
5
339
100
AcDbEntity
8
0
100
AcDbLine
62
9
6
CONTINUOUS
10
19.9000000000
20
18.9000000000
11
-19.9000000000
21
18.9000000000
0
LINE
5
33A
100
AcDbEntity
8
0
100
AcDbLine
62
9
6
CONTINUOUS
10
-18.4721457668
20
19.0173482781
11
-18.1551386093
21
19.0173482781
0
LINE
5
33B
100
AcDbEntity
8
0
100
AcDbLine
62
9
6
CONTINUOUS
10
-17.8109317497
20
19.0173482781
11
-17.3330351795
21
19.0173482781
0
LINE
5
33C
100
AcDbEntity
8
0
100
AcDbLine
62
9
6
CONTINUOUS
10
-5.1669648205
20
19.0173482781
11
-4.6890682503
21
19.0173482781
0
LINE
5
33D
100
AcDbEntity
8
0
100
AcDbLine
62
9
6
CONTINUOUS
10
-4.3448613907
20
19.0173482781
11
-4.0278542332
21
19.0173482781
0
LINE
5
33E
100
AcDbEntity
8
0
100
AcDbLine
62
9
6
CONTINUOUS
10
4.0278542332
20
19.0173482781
11
4.3448613907
21
19.0173482781
0
LINE
5
33F
100
AcDbEntity
8
0
100
AcDbLine
62
9
6
CONTINUOUS
10
4.6890682503
20
19.0173482781
11
5.1669648205
21
19.0173482781
0
LINE
5
340
100
AcDbEntity
8
0
100
AcDbLine
62
9
6
CONTINUOUS
10
17.3330351795
20
19.0173482781
11
17.8109317497
21
19.0173482781
0
LINE
5
341
100
AcDbEntity
8
0
100
AcDbLine
62
9
6
CONTINUOUS
10
18.1551386093
20
19.0173482781
11
18.4721457668
21
19.0173482781
0
LINE
5
342
100
AcDbEntity
8
0
100
AcDbLine
62
9
6
CONTINUOUS
10
17.3330351795
20
19.1000000000
11
5.1669648205
21
19.1000000000
0
LINE
5
343
100
AcDbEntity
8
0
100
AcDbLine
62
9
6
CONTINUOUS
10
-3.5000000000
20
19.1000000000
11
-2.5000000000
21
19.1000000000
0
LINE
5
344
100
AcDbEntity
8
0
100
AcDbLine
62
9
6
CONTINUOUS
10
2.5000000000
20
19.1000000000
11
3.5000000000
21
19.1000000000
0
LINE
5
345
100
AcDbEntity
8
0
100
AcDbLine
62
9
6
CONTINUOUS
10
-5.1669648205
20
19.1000000000
11
-17.3330351795
21
19.1000000000
0
LINE
5
346
100
AcDbEntity
8
0
100
AcDbLine
62
9
6
CONTINUOUS
10
-4.0340172901
20
19.3704295719
11
-3.9000000000
21
19.3704295719
0
LINE
5
347
100
AcDbEntity
8
0
100
AcDbLine
62
9
6
CONTINUOUS
10
3.9000000000
20
19.3704295719
11
4.0340172901
21
19.3704295719
0
LINE
5
348
100
AcDbEntity
8
0
100
AcDbLine
62
9
6
CONTINUOUS
10
-4.0117849970
20
20.9317102097
11
-3.8669648205
21
20.9000000000
0
LINE
5
349
100
AcDbEntity
8
0
100
AcDbLine
62
9
6
CONTINUOUS
10
3.9000000000
20
19.8965739699
11
4.0415154698
21
19.8258216238
0
LINE
5
34A
100
AcDbEntity
8
0
100
AcDbLine
62
9
6
CONTINUOUS
10
20.7603594806
20
-20.7603594806
11
20.7603594806
21
-18.0396405194
0
LINE
5
34B
100
AcDbEntity
8
0
100
AcDbLine
62
9
6
CONTINUOUS
10
20.7603594806
20
18.0396405194
11
20.7603594806
21
20.7603594806
0
LINE
5
34C
100
AcDbEntity
8
0
100
AcDbLine
62
9
6
CONTINUOUS
10
20.9000000000
20
-20.9000000000
11
20.9000000000
21
-18.1006347748
0
LINE
5
34D
100
AcDbEntity
8
0
100
AcDbLine
62
9
6
CONTINUOUS
10
20.9000000000
20
18.1006347748
11
20.9000000000
21
20.9000000000
0
LINE
5
34E
100
AcDbEntity
8
0
100
AcDbLine
62
9
6
CONTINUOUS
10
20.9261825974
20
18.0297620910
11
20.9261825974
21
17.8738174026
0
LINE
5
34F
100
AcDbEntity
8
0
100
AcDbLine
62
9
6
CONTINUOUS
10
20.9261825974
20
-17.8738174026
11
20.9261825974
21
-18.0297620910
0
LINE
5
350
100
AcDbEntity
8
0
100
AcDbLine
62
9
6
CONTINUOUS
10
21.9000000000
20
-16.0715728753
11
21.9000000000
21
16.0715728753
0
LINE
5
351
100
AcDbEntity
8
0
100
AcDbLine
62
9
6
CONTINUOUS
10
-3.9000000000
20
19.8255982314
11
-4.0415154698
21
19.8127991157
0
LINE
5
352
100
AcDbEntity
8
0
100
AcDbLine
62
9
6
CONTINUOUS
10
14.6853394229
20
21.2000000000
11
14.4039593117
21
21.1860370115
0
LINE
5
353
100
AcDbEntity
8
0
100
AcDbLine
62
9
6
CONTINUOUS
10
-7.8146605771
20
21.2000000000
11
-8.0960406883
21
21.1860370115
0
LINE
5
354
100
AcDbEntity
8
0
100
AcDbLine
62
9
6
CONTINUOUS
10
14.3500000000
20
22.1860370115
11
14.2561535871
21
22.1813923154
0
LINE
5
355
100
AcDbEntity
8
0
100
AcDbLine
62
9
6
CONTINUOUS
10
18.4584845302
20
19.8000000000
11
4.0415154698
21
19.8000000000
0
LINE
5
356
100
AcDbEntity
8
0
100
AcDbLine
62
9
6
CONTINUOUS
10
-4.0415154698
20
19.8000000000
11
-18.4584845302
21
19.8000000000
0
LINE
5
357
100
AcDbEntity
8
0
100
AcDbLine
62
9
6
CONTINUOUS
10
3.5000000000
20
19.9000000000
11
2.5000000000
21
19.9000000000
0
LINE
5
358
100
AcDbEntity
8
0
100
AcDbLine
62
9
6
CONTINUOUS
10
-2.5000000000
20
19.9000000000
11
-3.5000000000
21
19.9000000000
0
LINE
5
359
100
AcDbEntity
8
0
100
AcDbLine
62
9
6
CONTINUOUS
10
18.4584845302
20
19.9483339502
11
4.0415154698
21
19.9483339502
0
LINE
5
35A
100
AcDbEntity
8
0
100
AcDbLine
62
9
6
CONTINUOUS
10
-4.0415154698
20
19.9483339502
11
-18.4584845302
21
19.9483339502
0
LINE
5
35B
100
AcDbEntity
8
0
100
AcDbLine
62
9
6
CONTINUOUS
10
20.7603594806
20
20.7603594806
11
18.7726756989
21
20.7603594806
0
LINE
5
35C
100
AcDbEntity
8
0
100
AcDbLine
62
9
6
CONTINUOUS
10
3.7273243011
20
20.7603594806
11
-3.7273243011
21
20.7603594806
0
LINE
5
35D
100
AcDbEntity
8
0
100
AcDbLine
62
9
6
CONTINUOUS
10
-18.7726756989
20
20.7603594806
11
-20.7603594806
21
20.7603594806
0
LINE
5
35E
100
AcDbEntity
8
0
100
AcDbLine
62
9
6
CONTINUOUS
10
20.9000000000
20
20.9000000000
11
18.6330351795
21
20.9000000000
0
LINE
5
35F
100
AcDbEntity
8
0
100
AcDbLine
62
9
6
CONTINUOUS
10
3.8669648205
20
20.9000000000
11
-3.8669648205
21
20.9000000000
0
LINE
5
360
100
AcDbEntity
8
0
100
AcDbLine
62
9
6
CONTINUOUS
10
-18.6330351795
20
20.9000000000
11
-20.9000000000
21
20.9000000000
0
LINE
5
361
100
AcDbEntity
8
0
100
AcDbLine
62
9
6
CONTINUOUS
10
18.2249000578
20
21.1660449559
11
13.9460591023
21
21.1660449559
0
LINE
5
362
100
AcDbEntity
8
0
100
AcDbLine
62
9
6
CONTINUOUS
10
8.5539408977
20
21.1660449559
11
4.2750999422
21
21.1660449559
0
LINE
5
363
100
AcDbEntity
8
0
100
AcDbLine
62
9
6
CONTINUOUS
10
-4.2750999422
20
21.1660449559
11
-8.5539408977
21
21.1660449559
0
LINE
5
364
100
AcDbEntity
8
0
100
AcDbLine
62
9
6
CONTINUOUS
10
-13.9460591023
20
21.1660449559
11
-18.2249000578
21
21.1660449559
0
LINE
5
365
100
AcDbEntity
8
0
100
AcDbLine
62
9
6
CONTINUOUS
10
-14.4039593117
20
21.1860370115
11
-14.3500000000
21
21.1860370115
0
LINE
5
366
100
AcDbEntity
8
0
100
AcDbLine
62
9
6
CONTINUOUS
10
14.4039593117
20
21.1860370115
11
14.3500000000
21
21.1860370115
0
LINE
5
367
100
AcDbEntity
8
0
100
AcDbLine
62
9
6
CONTINUOUS
10
8.0960406883
20
21.1860370115
11
8.1500000000
21
21.1860370115
0
LINE
5
368
100
AcDbEntity
8
0
100
AcDbLine
62
9
6
CONTINUOUS
10
-8.0960406883
20
21.1860370115
11
-8.1500000000
21
21.1860370115
0
LINE
5
369
100
AcDbEntity
8
0
100
AcDbLine
62
9
6
CONTINUOUS
10
18.2374998327
20
21.2000000000
11
14.6853394229
21
21.2000000000
0
LINE
5
36A
100
AcDbEntity
8
0
100
AcDbLine
62
9
6
CONTINUOUS
10
7.8146605771
20
21.2000000000
11
4.2625001673
21
21.2000000000
0
LINE
5
36B
100
AcDbEntity
8
0
100
AcDbLine
62
9
6
CONTINUOUS
10
-4.2625001673
20
21.2000000000
11
-7.8146605771
21
21.2000000000
0
LINE
5
36C
100
AcDbEntity
8
0
100
AcDbLine
62
9
6
CONTINUOUS
10
-14.6853394229
20
21.2000000000
11
-18.2374998327
21
21.2000000000
0
LINE
5
36D
100
AcDbEntity
8
0
100
AcDbLine
62
9
6
CONTINUOUS
10
-14.4039593117
20
21.1860370115
11
-14.6853394229
21
21.2000000000
0
LINE
5
36E
100
AcDbEntity
8
0
100
AcDbLine
62
9
6
CONTINUOUS
10
-14.2561535871
20
22.1813923154
11
-14.3500000000
21
22.1860370115
0
LINE
5
36F
100
AcDbEntity
8
0
100
AcDbLine
62
9
6
CONTINUOUS
10
8.0960406883
20
21.1860370115
11
7.8146605771
21
21.2000000000
0
LINE
5
370
100
AcDbEntity
8
0
100
AcDbLine
62
9
6
CONTINUOUS
10
4.0415154698
20
19.8127991157
11
3.9000000000
21
19.8255982314
0
LINE
5
371
100
AcDbEntity
8
0
100
AcDbLine
62
9
6
CONTINUOUS
10
22.3738174026
20
-16.4544358981
11
22.3738174026
21
16.4544358981
0
LINE
5
372
100
AcDbEntity
8
0
100
AcDbLine
62
9
6
CONTINUOUS
10
22.4000000000
20
21.8997711479
11
22.4000000000
21
16.4633443086
0
LINE
5
373
100
AcDbEntity
8
0
100
AcDbLine
62
9
6
CONTINUOUS
10
22.4000000000
20
-16.4633443086
11
22.4000000000
21
-21.8997711479
0
LINE
5
374
100
AcDbEntity
8
0
100
AcDbLine
62
9
6
CONTINUOUS
10
18.2037458576
20
-18.9000000000
11
18.1551386093
21
-19.0173482781
0
LINE
5
375
100
AcDbEntity
8
0
100
AcDbLine
62
9
6
CONTINUOUS
10
-8.1500000000
20
22.1860370115
11
-8.2438464129
21
22.1813923154
0
LINE
5
376
100
AcDbEntity
8
0
100
AcDbLine
62
9
6
CONTINUOUS
10
-14.2561535871
20
22.1813923154
11
-8.2438464129
21
22.1813923154
0
LINE
5
377
100
AcDbEntity
8
0
100
AcDbLine
62
9
6
CONTINUOUS
10
8.2438464129
20
22.1813923154
11
14.2561535871
21
22.1813923154
0
LINE
5
378
100
AcDbEntity
8
0
100
AcDbLine
62
9
6
CONTINUOUS
10
7.8678768309
20
22.2000000000
11
14.6321231691
21
22.2000000000
0
LINE
5
379
100
AcDbEntity
8
0
100
AcDbLine
62
9
6
CONTINUOUS
10
-7.8678768309
20
22.2000000000
11
-14.6321231691
21
22.2000000000
0
LINE
5
37A
100
AcDbEntity
8
0
100
AcDbLine
62
9
6
CONTINUOUS
10
21.9003805997
20
22.4000000000
11
16.8000000000
21
22.4000000000
0
LINE
5
37B
100
AcDbEntity
8
0
100
AcDbLine
62
9
6
CONTINUOUS
10
5.7000000000
20
22.4000000000
11
-5.7000000000
21
22.4000000000
0
LINE
5
37C
100
AcDbEntity
8
0
100
AcDbLine
62
9
6
CONTINUOUS
10
-16.8000000000
20
22.4000000000
11
-21.9003805997
21
22.4000000000
0
LINE
5
37D
100
AcDbEntity
8
0
100
AcDbLine
62
9
6
CONTINUOUS
10
15.2130152422
20
23.4650925288
11
7.2869847578
21
23.4650925288
0
LINE
5
37E
100
AcDbEntity
8
0
100
AcDbLine
62
9
6
CONTINUOUS
10
-7.2869847578
20
23.4650925288
11
-15.2130152422
21
23.4650925288
0
LINE
5
37F
100
AcDbEntity
8
0
100
AcDbLine
62
9
6
CONTINUOUS
10
15.2233373476
20
23.5000000000
11
14.2500000000
21
23.5000000000
0
LINE
5
380
100
AcDbEntity
8
0
100
AcDbLine
62
9
6
CONTINUOUS
10
8.2500000000
20
23.5000000000
11
7.2766626524
21
23.5000000000
0
LINE
5
381
100
AcDbEntity
8
0
100
AcDbLine
62
9
6
CONTINUOUS
10
-7.2766626524
20
23.5000000000
11
-8.2500000000
21
23.5000000000
0
LINE
5
382
100
AcDbEntity
8
0
100
AcDbLine
62
9
6
CONTINUOUS
10
-14.2500000000
20
23.5000000000
11
-15.2233373476
21
23.5000000000
0
LINE
5
383
100
AcDbEntity
8
0
100
AcDbLine
62
9
6
CONTINUOUS
10
8.2438464129
20
22.1813923154
11
8.1500000000
21
22.1860370115
0
LINE
5
384
100
AcDbEntity
8
0
100
AcDbLine
62
9
6
CONTINUOUS
10
18.2037458576
20
18.9000000000
11
18.1551386093
21
19.0173482781
0
LINE
5
385
100
AcDbEntity
8
0
100
AcDbLine
62
9
6
CONTINUOUS
10
17.9268317559
20
-18.9000000000
11
17.8109317497
21
-19.0173482781
0
LINE
5
386
100
AcDbEntity
8
0
100
AcDbLine
62
9
6
CONTINUOUS
10
18.4721457668
20
-19.0173482781
11
18.7068601985
21
-18.9000000000
0
LINE
5
387
100
AcDbEntity
8
0
100
AcDbLine
62
9
6
CONTINUOUS
10
-18.6330351795
20
20.9000000000
11
-18.4882150030
21
20.9317102097
0
LINE
5
388
100
AcDbEntity
8
0
100
AcDbLine
62
9
6
CONTINUOUS
10
18.4882150030
20
20.9317102097
11
18.6330351795
21
20.9000000000
0
LINE
5
389
100
AcDbEntity
8
0
100
AcDbLine
62
9
6
CONTINUOUS
10
18.7068601985
20
18.9000000000
11
18.4721457668
21
19.0173482781
0
LINE
5
38A
100
AcDbEntity
8
0
100
AcDbLine
62
9
6
CONTINUOUS
10
17.8109317497
20
19.0173482781
11
17.9268317559
21
18.9000000000
0
LINE
5
38B
100
AcDbEntity
8
0
100
AcDbLine
62
9
6
CONTINUOUS
10
19.9000000000
20
-18.9000000000
11
21.3142135624
21
-17.4857864376
0
LINE
5
38C
100
AcDbEntity
8
0
100
AcDbLine
62
9
6
CONTINUOUS
10
18.7726756989
20
-20.7603594806
11
18.6330351795
21
-20.9000000000
0
LINE
5
38D
100
AcDbEntity
8
0
100
AcDbLine
62
9
6
CONTINUOUS
10
21.3142135624
20
17.4857864376
11
19.9000000000
21
18.9000000000
0
LINE
5
38E
100
AcDbEntity
8
0
100
AcDbLine
62
9
6
CONTINUOUS
10
18.7726756989
20
20.7603594806
11
18.6330351795
21
20.9000000000
0
ARC
5
38F
100
AcDbEntity
8
0
100
AcDbCircle
62
9
6
CONTINUOUS
10
0.0000000000
20
0.0000000000
40
28.0000000000
100
AcDbArc
50
235.8789063483
51
237.0647695028
0
ARC
5
390
100
AcDbEntity
8
0
100
AcDbCircle
62
9
6
CONTINUOUS
10
-22.5000000000
20
0.0000000000
40
28.0000000000
100
AcDbArc
50
302.9352304972
51
304.1210936517
0
ARC
5
391
100
AcDbEntity
8
0
100
AcDbCircle
62
9
6
CONTINUOUS
10
0.0000000000
20
0.0000000000
40
28.0000000000
100
AcDbArc
50
122.9352304972
51
124.1210936517
0
ARC
5
392
100
AcDbEntity
8
0
100
AcDbCircle
62
9
6
CONTINUOUS
10
-22.5000000000
20
0.0000000000
40
28.0000000000
100
AcDbArc
50
55.8789063483
51
57.0647695028
0
ARC
5
393
100
AcDbEntity
8
0
100
AcDbCircle
62
9
6
CONTINUOUS
10
0.0000000000
20
0.0000000000
40
28.0000000000
100
AcDbArc
50
302.9352304972
51
304.1210936517
0
ARC
5
394
100
AcDbEntity
8
0
100
AcDbCircle
62
9
6
CONTINUOUS
10
22.5000000000
20
0.0000000000
40
28.0000000000
100
AcDbArc
50
235.8789063483
51
237.0647695028
0
ARC
5
395
100
AcDbEntity
8
0
100
AcDbCircle
62
9
6
CONTINUOUS
10
0.0000000000
20
0.0000000000
40
28.0000000000
100
AcDbArc
50
55.8789063483
51
57.0647695028
0
ARC
5
396
100
AcDbEntity
8
0
100
AcDbCircle
62
9
6
CONTINUOUS
10
22.5000000000
20
0.0000000000
40
28.0000000000
100
AcDbArc
50
122.9352304972
51
124.1210936517
0
ARC
5
397
100
AcDbEntity
8
0
100
AcDbCircle
62
9
6
CONTINUOUS
10
6.3000000000
20
23.1000000000
40
0.5000000000
100
AcDbArc
50
245.3858676962
51
4.6979911069
0
ARC
5
398
100
AcDbEntity
8
0
100
AcDbCircle
62
9
6
CONTINUOUS
10
16.2000000000
20
23.1000000000
40
0.5000000000
100
AcDbArc
50
175.3020088931
51
294.6141323038
0
ARC
5
399
100
AcDbEntity
8
0
100
AcDbCircle
62
9
6
CONTINUOUS
10
6.3000000000
20
-23.1000000000
40
0.5000000000
100
AcDbArc
50
355.3020088931
51
114.6141323038
0
ARC
5
39A
100
AcDbEntity
8
0
100
AcDbCircle
62
9
6
CONTINUOUS
10
16.2000000000
20
-23.1000000000
40
0.5000000000
100
AcDbArc
50
65.3858676962
51
184.6979911069
0
ARC
5
39B
100
AcDbEntity
8
0
100
AcDbCircle
62
9
6
CONTINUOUS
10
-6.3000000000
20
23.1000000000
40
0.5000000000
100
AcDbArc
50
175.3020088931
51
294.6141323038
0
ARC
5
39C
100
AcDbEntity
8
0
100
AcDbCircle
62
9
6
CONTINUOUS
10
-16.2000000000
20
23.1000000000
40
0.5000000000
100
AcDbArc
50
245.3858676962
51
4.6979911069
0
ARC
5
39D
100
AcDbEntity
8
0
100
AcDbCircle
62
9
6
CONTINUOUS
10
-6.3000000000
20
-23.1000000000
40
0.5000000000
100
AcDbArc
50
65.3858676962
51
184.6979911069
0
ARC
5
39E
100
AcDbEntity
8
0
100
AcDbCircle
62
9
6
CONTINUOUS
10
-16.2000000000
20
-23.1000000000
40
0.5000000000
100
AcDbArc
50
355.3020088931
51
114.6141323038
0
ARC
5
39F
100
AcDbEntity
8
0
100
AcDbCircle
62
9
6
CONTINUOUS
10
-22.5000000000
20
0.0000000000
40
28.0000000000
100
AcDbArc
50
48.2819495688
51
54.0372348486
0
ARC
5
3A0
100
AcDbEntity
8
0
100
AcDbCircle
62
9
6
CONTINUOUS
10
0.0000000000
20
0.0000000000
40
28.0000000000
100
AcDbArc
50
125.9627651514
51
131.7180504312
0
ARC
5
3A1
100
AcDbEntity
8
0
100
AcDbCircle
62
9
6
CONTINUOUS
10
0.0000000000
20
0.0000000000
40
28.0000000000
100
AcDbArc
50
48.2819495688
51
54.0372348486
0
ARC
5
3A2
100
AcDbEntity
8
0
100
AcDbCircle
62
9
6
CONTINUOUS
10
22.5000000000
20
0.0000000000
40
28.0000000000
100
AcDbArc
50
125.9627651514
51
131.7180504312
0
ARC
5
3A3
100
AcDbEntity
8
0
100
AcDbCircle
62
9
6
CONTINUOUS
10
0.0000000000
20
0.0000000000
40
28.0000000000
100
AcDbArc
50
305.9627651514
51
311.7180504312
0
ARC
5
3A4
100
AcDbEntity
8
0
100
AcDbCircle
62
9
6
CONTINUOUS
10
0.0000000000
20
0.0000000000
40
28.0000000000
100
AcDbArc
50
228.2819495688
51
234.0372348486
0
ARC
5
3A5
100
AcDbEntity
8
0
100
AcDbCircle
62
9
6
CONTINUOUS
10
-22.5000000000
20
0.0000000000
40
28.0000000000
100
AcDbArc
50
305.9627651514
51
311.7180504312
0
ARC
5
3A6
100
AcDbEntity
8
0
100
AcDbCircle
62
9
6
CONTINUOUS
10
-3.9000000000
20
-19.6000000000
40
0.3829052440
100
AcDbArc
50
296.8054190002
51
63.1945809998
0
ARC
5
3A7
100
AcDbEntity
8
0
100
AcDbCircle
62
9
6
CONTINUOUS
10
22.5000000000
20
0.0000000000
40
28.0000000000
100
AcDbArc
50
228.2819495688
51
234.0372348486
0
ARC
5
3A8
100
AcDbEntity
8
0
100
AcDbCircle
62
9
6
CONTINUOUS
10
3.9000000000
20
-19.6000000000
40
0.3829052440
100
AcDbArc
50
116.8054190002
51
243.1945809998
0
ARC
5
3A9
100
AcDbEntity
8
0
100
AcDbCircle
62
9
6
CONTINUOUS
10
22.5000000000
20
0.0000000000
40
27.9650925288
100
AcDbArc
50
229.2959255525
51
234.0739558625
0
ARC
5
3AA
100
AcDbEntity
8
0
100
AcDbCircle
62
9
6
CONTINUOUS
10
3.9000000000
20
19.6000000000
40
0.3829052440
100
AcDbArc
50
116.8054190002
51
243.1945809998
0
ARC
5
3AB
100
AcDbEntity
8
0
100
AcDbCircle
62
9
6
CONTINUOUS
10
22.5000000000
20
0.0000000000
40
27.9650925288
100
AcDbArc
50
235.8421853344
51
237.0436344285
0
ARC
5
3AC
100
AcDbEntity
8
0
100
AcDbCircle
62
9
6
CONTINUOUS
10
-3.9000000000
20
19.6000000000
40
0.3829052440
100
AcDbArc
50
296.8054190002
51
63.1945809998
0
ARC
5
3AD
100
AcDbEntity
8
0
100
AcDbCircle
62
9
6
CONTINUOUS
10
0.0000000000
20
0.0000000000
40
27.9650925288
100
AcDbArc
50
305.9260441375
51
310.7040744475
0
ARC
5
3AE
100
AcDbEntity
8
0
100
AcDbCircle
62
9
6
CONTINUOUS
10
0.0000000000
20
0.0000000000
40
27.9650925288
100
AcDbArc
50
302.9563655715
51
304.1578146656
0
ARC
5
3AF
100
AcDbEntity
8
0
100
AcDbCircle
62
9
6
CONTINUOUS
10
0.0000000000
20
0.0000000000
40
27.9650925288
100
AcDbArc
50
55.8421853344
51
57.0436344285
0
ARC
5
3B0
100
AcDbEntity
8
0
100
AcDbCircle
62
9
6
CONTINUOUS
10
0.0000000000
20
0.0000000000
40
27.9650925288
100
AcDbArc
50
49.2959255525
51
54.0739558625
0
ARC
5
3B1
100
AcDbEntity
8
0
100
AcDbCircle
62
9
6
CONTINUOUS
10
22.5000000000
20
0.0000000000
40
27.9650925288
100
AcDbArc
50
122.9563655715
51
124.1578146656
0
ARC
5
3B2
100
AcDbEntity
8
0
100
AcDbCircle
62
9
6
CONTINUOUS
10
22.5000000000
20
0.0000000000
40
27.9650925288
100
AcDbArc
50
125.9260441375
51
130.7040744475
0
ARC
5
3B3
100
AcDbEntity
8
0
100
AcDbCircle
62
9
6
CONTINUOUS
10
0.0000000000
20
0.0000000000
40
27.9650925288
100
AcDbArc
50
229.2959255525
51
234.0739558625
0
ARC
5
3B4
100
AcDbEntity
8
0
100
AcDbCircle
62
9
6
CONTINUOUS
10
0.0000000000
20
0.0000000000
40
27.9650925288
100
AcDbArc
50
235.8421853344
51
237.0436344285
0
ARC
5
3B5
100
AcDbEntity
8
0
100
AcDbCircle
62
9
6
CONTINUOUS
10
-22.5000000000
20
0.0000000000
40
27.9650925288
100
AcDbArc
50
305.9260441375
51
310.7040744475
0
ARC
5
3B6
100
AcDbEntity
8
0
100
AcDbCircle
62
9
6
CONTINUOUS
10
-22.5000000000
20
0.0000000000
40
27.9650925288
100
AcDbArc
50
302.9563655715
51
304.1578146656
0
ARC
5
3B7
100
AcDbEntity
8
0
100
AcDbCircle
62
9
6
CONTINUOUS
10
-22.5000000000
20
0.0000000000
40
27.9650925288
100
AcDbArc
50
55.8421853344
51
57.0436344285
0
ARC
5
3B8
100
AcDbEntity
8
0
100
AcDbCircle
62
9
6
CONTINUOUS
10
-22.5000000000
20
0.0000000000
40
27.9650925288
100
AcDbArc
50
49.2959255525
51
54.0739558625
0
ARC
5
3B9
100
AcDbEntity
8
0
100
AcDbCircle
62
9
6
CONTINUOUS
10
0.0000000000
20
0.0000000000
40
27.9650925288
100
AcDbArc
50
122.9563655715
51
124.1578146656
0
ARC
5
3BA
100
AcDbEntity
8
0
100
AcDbCircle
62
9
6
CONTINUOUS
10
0.0000000000
20
0.0000000000
40
27.9650925288
100
AcDbArc
50
125.9260441375
51
130.7040744475
0
ARC
5
3BB
100
AcDbEntity
8
0
100
AcDbCircle
62
9
6
CONTINUOUS
10
0.0000000000
20
0.0000000000
40
27.9738174026
100
AcDbArc
50
319.5214537946
51
322.4096543117
0
ARC
5
3BC
100
AcDbEntity
8
0
100
AcDbCircle
62
9
6
CONTINUOUS
10
0.0000000000
20
0.0000000000
40
27.9738174026
100
AcDbArc
50
37.5903456883
51
40.4785462054
0
ARC
5
3BD
100
AcDbEntity
8
0
100
AcDbCircle
62
9
6
CONTINUOUS
10
0.0000000000
20
0.0000000000
40
27.9738174026
100
AcDbArc
50
139.5214537946
51
142.4096543117
0
ARC
5
3BE
100
AcDbEntity
8
0
100
AcDbCircle
62
9
6
CONTINUOUS
10
0.0000000000
20
0.0000000000
40
27.9738174026
100
AcDbArc
50
217.5903456883
51
220.4785462054
0
ARC
5
3BF
100
AcDbEntity
8
0
100
AcDbCircle
62
9
6
CONTINUOUS
10
-3.7000000000
20
-19.1000000000
40
0.2000000000
100
AcDbArc
50
0.0000000000
51
90.0000000000
0
ARC
5
3C0
100
AcDbEntity
8
0
100
AcDbCircle
62
9
6
CONTINUOUS
10
-2.3000000000
20
-19.1000000000
40
0.2000000000
100
AcDbArc
50
90.0000000000
51
180.0000000000
0
ARC
5
3C1
100
AcDbEntity
8
0
100
AcDbCircle
62
9
6
CONTINUOUS
10
2.3000000000
20
-19.1000000000
40
0.2000000000
100
AcDbArc
50
0.0000000000
51
90.0000000000
0
ARC
5
3C2
100
AcDbEntity
8
0
100
AcDbCircle
62
9
6
CONTINUOUS
10
3.7000000000
20
-19.1000000000
40
0.2000000000
100
AcDbArc
50
90.0000000000
51
180.0000000000
0
ARC
5
3C3
100
AcDbEntity
8
0
100
AcDbCircle
62
9
6
CONTINUOUS
10
-2.3000000000
20
19.1000000000
40
0.2000000000
100
AcDbArc
50
180.0000000000
51
270.0000000000
0
ARC
5
3C4
100
AcDbEntity
8
0
100
AcDbCircle
62
9
6
CONTINUOUS
10
-3.7000000000
20
19.1000000000
40
0.2000000000
100
AcDbArc
50
270.0000000000
51
360.0000000000
0
ARC
5
3C5
100
AcDbEntity
8
0
100
AcDbCircle
62
9
6
CONTINUOUS
10
3.7000000000
20
19.1000000000
40
0.2000000000
100
AcDbArc
50
180.0000000000
51
270.0000000000
0
ARC
5
3C6
100
AcDbEntity
8
0
100
AcDbCircle
62
9
6
CONTINUOUS
10
2.3000000000
20
19.1000000000
40
0.2000000000
100
AcDbArc
50
270.0000000000
51
360.0000000000
0
ARC
5
3C7
100
AcDbEntity
8
0
100
AcDbCircle
62
9
6
CONTINUOUS
10
9.0000000000
20
16.9000000000
40
2.0000000000
100
AcDbArc
50
0.0000000000
51
90.0000000000
0
ARC
5
3C8
100
AcDbEntity
8
0
100
AcDbCircle
62
9
6
CONTINUOUS
10
-9.0000000000
20
16.9000000000
40
2.0000000000
100
AcDbArc
50
90.0000000000
51
180.0000000000
0
ARC
5
3C9
100
AcDbEntity
8
0
100
AcDbCircle
62
9
6
CONTINUOUS
10
19.9000000000
20
16.0715728753
40
2.0000000000
100
AcDbArc
50
0.0000000000
51
45.0000000000
0
ARC
5
3CA
100
AcDbEntity
8
0
100
AcDbCircle
62
9
6
CONTINUOUS
10
19.9000000000
20
-16.0715728753
40
2.0000000000
100
AcDbArc
50
315.0000000000
51
360.0000000000
0
ARC
5
3CB
100
AcDbEntity
8
0
100
AcDbCircle
62
9
6
CONTINUOUS
10
-19.9000000000
20
-16.0715728753
40
2.0000000000
100
AcDbArc
50
180.0000000000
51
225.0000000000
0
ARC
5
3CC
100
AcDbEntity
8
0
100
AcDbCircle
62
9
6
CONTINUOUS
10
-19.9000000000
20
16.0715728753
40
2.0000000000
100
AcDbArc
50
135.0000000000
51
180.0000000000
0
CIRCLE
5
3CD
100
AcDbEntity
8
0
100
AcDbCircle
62
9
6
CONTINUOUS
10
0.0000000000
20
-7.1000000000
40
2.9000000000
0
SPLINE
5
3CE
100
AcDbEntity
8
0
100
AcDbSpline
62
9
6
CONTINUOUS
70
0
71
3
72
15
73
11
74
9
42
0.0000001000
43
0.0000001000
44
0.0000000001
12
0.0000000000
22
-0.7840504605
32
0.0000000000
13
0.7840504605
23
0.0000000000
33
0.0000000000
40
0.0000000000
40
0.0000000000
40
0.0000000000
40
0.0000000000
40
0.1250036937
40
0.2500007026
40
0.3749978065
40
0.4999939082
40
0.6249948383
40
0.7499966729
40
0.8749989499
40
1.0000000000
40
1.0000000000
40
1.0000000000
40
1.0000000000
10
-22.4000000000
20
-21.8997711479
30
0.0000000000
10
-22.4000000000
20
-21.9324408825
30
0.0000000000
10
-22.3935720475
20
-21.9979589582
30
0.0000000000
10
-22.3650027896
20
-22.0923356488
30
0.0000000000
10
-22.3185861373
20
-22.1793740081
30
0.0000000000
10
-22.2560854667
20
-22.2556799356
30
0.0000000000
10
-22.1798936307
20
-22.3183231330
30
0.0000000000
10
-22.0929220860
20
-22.3648788990
30
0.0000000000
10
-21.9985696610
20
-22.3935479534
30
0.0000000000
10
-21.9330496434
20
-22.4000000000
30
0.0000000000
10
-21.9003805997
20
-22.4000000000
30
0.0000000000
11
-22.4000000000
21
-21.8997711479
31
0.0000000000
11
-22.3904171108
21
-21.9973107411
31
0.0000000000
11
-22.3620281294
21
-22.0911128859
31
0.0000000000
11
-22.3159054339
21
-22.1775853567
31
0.0000000000
11
-22.2538046503
21
-22.2534017791
31
0.0000000000
11
-22.1780974227
21
-22.3156415972
31
0.0000000000
11
-22.0916920476
21
-22.3618977256
31
0.0000000000
11
-21.9979147385
21
-22.3903828542
31
0.0000000000
11
-21.9003805997
21
-22.4000000000
31
0.0000000000
0
SPLINE
5
3CF
100
AcDbEntity
8
0
100
AcDbSpline
62
9
6
CONTINUOUS
70
0
71
3
72
15
73
11
74
9
42
0.0000001000
43
0.0000001000
44
0.0000000001
12
-0.7840504604
22
0.0000000000
32
0.0000000000
13
0.0000000000
23
-0.7840504604
33
0.0000000000
40
0.0000000000
40
0.0000000000
40
0.0000000000
40
0.0000000000
40
0.1250024959
40
0.2500079087
40
0.3750129683
40
0.5000152546
40
0.6250099998
40
0.7500038789
40
0.8749977521
40
1.0000000000
40
1.0000000000
40
1.0000000000
40
1.0000000000
10
-21.9003805997
20
22.4000000000
30
0.0000000000
10
-21.9330500212
20
22.4000000000
30
0.0000000000
10
-21.9985712424
20
22.3935477601
30
0.0000000000
10
-22.0929255264
20
22.3648776510
30
0.0000000000
10
-22.1798984354
20
22.3183200605
30
0.0000000000
10
-22.2560900985
20
22.2556752949
30
0.0000000000
10
-22.3185892013
20
22.1793691983
30
0.0000000000
10
-22.3650040333
20
22.0923322072
30
0.0000000000
10
-22.3935722401
20
21.9979573768
30
0.0000000000
10
-22.4000000000
20
21.9324405046
30
0.0000000000
10
-22.4000000000
20
21.8997711479
30
0.0000000000
11
-21.9003805997
21
22.4000000000
31
0.0000000000
11
-21.9979158556
21
22.3903826318
31
0.0000000000
11
-22.0916953817
21
22.3618963425
31
0.0000000000
11
-22.1781025340
21
22.3156381763
31
0.0000000000
11
-22.2538097500
21
22.2533966698
31
0.0000000000
11
-22.3159088458
21
22.1775802398
31
0.0000000000
11
-22.3620295080
21
22.0911095501
31
0.0000000000
11
-22.3904173325
21
21.9973096238
31
0.0000000000
11
-22.4000000000
21
21.8997711479
31
0.0000000000
0
SPLINE
5
3D0
100
AcDbEntity
8
0
100
AcDbSpline
62
9
6
CONTINUOUS
70
0
71
3
72
15
73
11
74
9
42
0.0000001000
43
0.0000001000
44
0.0000000001
12
0.7840504604
22
0.0000000000
32
0.0000000000
13
0.0000000000
23
0.7840504604
33
0.0000000000
40
0.0000000000
40
0.0000000000
40
0.0000000000
40
0.0000000000
40
0.1250024959
40
0.2500079087
40
0.3750129683
40
0.5000152546
40
0.6250099998
40
0.7500038789
40
0.8749977521
40
1.0000000000
40
1.0000000000
40
1.0000000000
40
1.0000000000
10
21.9003805997
20
-22.4000000000
30
0.0000000000
10
21.9330500212
20
-22.4000000000
30
0.0000000000
10
21.9985712424
20
-22.3935477601
30
0.0000000000
10
22.0929255264
20
-22.3648776510
30
0.0000000000
10
22.1798984354
20
-22.3183200605
30
0.0000000000
10
22.2560900985
20
-22.2556752949
30
0.0000000000
10
22.3185892013
20
-22.1793691983
30
0.0000000000
10
22.3650040333
20
-22.0923322072
30
0.0000000000
10
22.3935722401
20
-21.9979573768
30
0.0000000000
10
22.4000000000
20
-21.9324405046
30
0.0000000000
10
22.4000000000
20
-21.8997711479
30
0.0000000000
11
21.9003805997
21
-22.4000000000
31
0.0000000000
11
21.9979158556
21
-22.3903826318
31
0.0000000000
11
22.0916953817
21
-22.3618963425
31
0.0000000000
11
22.1781025340
21
-22.3156381763
31
0.0000000000
11
22.2538097500
21
-22.2533966698
31
0.0000000000
11
22.3159088458
21
-22.1775802398
31
0.0000000000
11
22.3620295080
21
-22.0911095501
31
0.0000000000
11
22.3904173325
21
-21.9973096238
31
0.0000000000
11
22.4000000000
21
-21.8997711479
31
0.0000000000
0
SPLINE
5
3D1
100
AcDbEntity
8
0
100
AcDbSpline
62
9
6
CONTINUOUS
70
0
71
3
72
15
73
11
74
9
42
0.0000001000
43
0.0000001000
44
0.0000000001
12
0.0000000000
22
0.7840504605
32
0.0000000000
13
-0.7840504605
23
0.0000000000
33
0.0000000000
40
0.0000000000
40
0.0000000000
40
0.0000000000
40
0.0000000000
40
0.1250036937
40
0.2500007026
40
0.3749978065
40
0.4999939082
40
0.6249948383
40
0.7499966729
40
0.8749989499
40
1.0000000000
40
1.0000000000
40
1.0000000000
40
1.0000000000
10
22.4000000000
20
21.8997711479
30
0.0000000000
10
22.4000000000
20
21.9324408825
30
0.0000000000
10
22.3935720475
20
21.9979589583
30
0.0000000000
10
22.3650027896
20
22.0923356488
30
0.0000000000
10
22.3185861373
20
22.1793740081
30
0.0000000000
10
22.2560854667
20
22.2556799356
30
0.0000000000
10
22.1798936307
20
22.3183231330
30
0.0000000000
10
22.0929220860
20
22.3648788990
30
0.0000000000
10
21.9985696610
20
22.3935479534
30
0.0000000000
10
21.9330496434
20
22.4000000000
30
0.0000000000
10
21.9003805997
20
22.4000000000
30
0.0000000000
11
22.4000000000
21
21.8997711479
31
0.0000000000
11
22.3904171108
21
21.9973107411
31
0.0000000000
11
22.3620281294
21
22.0911128859
31
0.0000000000
11
22.3159054339
21
22.1775853567
31
0.0000000000
11
22.2538046503
21
22.2534017791
31
0.0000000000
11
22.1780974227
21
22.3156415972
31
0.0000000000
11
22.0916920476
21
22.3618977256
31
0.0000000000
11
21.9979147385
21
22.3903828542
31
0.0000000000
11
21.9003805997
21
22.4000000000
31
0.0000000000
0
SPLINE
5
3D2
100
AcDbEntity
8
0
100
AcDbSpline
62
9
6
CONTINUOUS
70
0
71
3
72
12
73
8
74
6
42
0.0000001000
43
0.0000001000
44
0.0000000001
12
-0.1794085780
22
0.0098493987
32
0.0000000000
13
-0.1607119958
23
0.0803498781
33
0.0000000000
40
0.0000000000
40
0.0000000000
40
0.0000000000
40
0.0000000000
40
0.1654311366
40
0.3446791589
40
0.5406647073
40
0.7572527453
40
1.0000000000
40
1.0000000000
40
1.0000000000
40
1.0000000000
10
-3.7273243011
20
-19.9417594606
30
0.0000000000
10
-3.7372175561
20
-19.9412163282
30
0.0000000000
10
-3.7577996234
20
-19.9394121312
30
0.0000000000
10
-3.7898155619
20
-19.9343853655
30
0.0000000000
10
-3.8243578449
20
-19.9262647148
30
0.0000000000
10
-3.8617218638
20
-19.9140912101
30
0.0000000000
10
-3.8869958681
20
-19.9030755407
30
0.0000000000
10
-3.9000000000
20
-19.8965739699
30
0.0000000000
11
-3.7273243011
21
-19.9417594606
31
0.0000000000
11
-3.7569350396
21
-19.9391618566
31
0.0000000000
11
-3.7887516654
21
-19.9341621641
31
0.0000000000
11
-3.8230297064
21
-19.9260954178
31
0.0000000000
11
-3.8600267830
21
-19.9140251232
31
0.0000000000
11
-3.9000000000
21
-19.8965739699
31
0.0000000000
0
SPLINE
5
3D3
100
AcDbEntity
8
0
100
AcDbSpline
62
9
6
CONTINUOUS
70
0
71
3
72
12
73
8
74
6
42
0.0000001000
43
0.0000001000
44
0.0000000001
12
0.1607118793
22
0.0803498199
32
0.0000000000
13
0.1794084479
23
0.0098493915
33
0.0000000000
40
0.0000000000
40
0.0000000000
40
0.0000000000
40
0.0000000000
40
0.2434887911
40
0.4604977244
40
0.6565332702
40
0.8353980545
40
1.0000000000
40
1.0000000000
40
1.0000000000
40
1.0000000000
10
-3.9000000000
20
-19.3034260301
30
0.0000000000
10
-3.8869561529
20
-19.2969046033
30
0.0000000000
10
-3.8616160974
20
-19.2858649838
30
0.0000000000
10
-3.8241780155
20
-19.2736836685
30
0.0000000000
10
-3.7896267371
20
-19.2655783910
30
0.0000000000
10
-3.7576777283
20
-19.2605754337
30
0.0000000000
10
-3.7371679609
20
-19.2587809491
30
0.0000000000
10
-3.7273243011
20
-19.2582405394
30
0.0000000000
11
-3.9000000000
21
-19.3034260301
31
0.0000000000
11
-3.8599019553
21
-19.2859278759
31
0.0000000000
11
-3.8228282604
21
-19.2738486993
31
0.0000000000
11
-3.7885376300
21
-19.2657963621
31
0.0000000000
11
-3.7567870239
21
-19.2608202874
31
0.0000000000
11
-3.7273243011
21
-19.2582405394
31
0.0000000000
0
SPLINE
5
3D4
100
AcDbEntity
8
0
100
AcDbSpline
62
9
6
CONTINUOUS
70
0
71
3
72
12
73
8
74
6
42
0.0000001000
43
0.0000001000
44
0.0000000001
12
0.1794085776
22
-0.0098493986
32
0.0000000000
13
0.1607119954
23
-0.0803498779
33
0.0000000000
40
0.0000000000
40
0.0000000000
40
0.0000000000
40
0.0000000000
40
0.1654293507
40
0.3446759407
40
0.5406606305
40
0.7572493343
40
1.0000000000
40
1.0000000000
40
1.0000000000
40
1.0000000000
10
3.7273243011
20
-19.2582405394
30
0.0000000000
10
3.7372174493
20
-19.2587836660
30
0.0000000000
10
3.7577993246
20
-19.2605878388
30
0.0000000000
10
3.7898150262
20
-19.2656145346
30
0.0000000000
10
3.8243572259
20
-19.2737351121
30
0.0000000000
10
3.8617214471
20
-19.2859086187
30
0.0000000000
10
3.8869956854
20
-19.2969243680
30
0.0000000000
10
3.9000000000
20
-19.3034260301
30
0.0000000000
11
3.7273243011
21
-19.2582405394
31
0.0000000000
11
3.7569347208
21
-19.2608381048
31
0.0000000000
11
3.7887510973
21
-19.2658377257
31
0.0000000000
11
3.8230289999
21
-19.2739043860
31
0.0000000000
11
3.8600262088
21
-19.2859746605
31
0.0000000000
11
3.9000000000
21
-19.3034260301
31
0.0000000000
0
SPLINE
5
3D5
100
AcDbEntity
8
0
100
AcDbSpline
62
9
6
CONTINUOUS
70
0
71
3
72
12
73
8
74
6
42
0.0000001000
43
0.0000001000
44
0.0000000001
12
-0.1607118732
22
-0.0803498168
32
0.0000000000
13
-0.1794084411
23
-0.0098493911
33
0.0000000000
40
0.0000000000
40
0.0000000000
40
0.0000000000
40
0.0000000000
40
0.2435340703
40
0.4605587741
40
0.6565878849
40
0.8354306084
40
1.0000000000
40
1.0000000000
40
1.0000000000
40
1.0000000000
10
3.9000000000
20
-19.8965739699
30
0.0000000000
10
3.8869537278
20
-19.9030966092
30
0.0000000000
10
3.8616101845
20
-19.9141374526
30
0.0000000000
10
3.8241687170
20
-19.9263189590
30
0.0000000000
10
3.7896179962
20
-19.9344232546
30
0.0000000000
10
3.7576725237
20
-19.9394250907
30
0.0000000000
10
3.7371660138
20
-19.9412191578
30
0.0000000000
10
3.7273243011
20
-19.9417594606
30
0.0000000000
11
3.9000000000
21
-19.8965739699
31
0.0000000000
11
3.8598943324
21
-19.9140749929
31
0.0000000000
11
3.8228176795
21
-19.9261542331
31
0.0000000000
11
3.7885279878
21
-19.9342055038
31
0.0000000000
11
3.7567812125
21
-19.9391804126
31
0.0000000000
11
3.7273243011
21
-19.9417594606
31
0.0000000000
0
SPLINE
5
3D6
100
AcDbEntity
8
0
100
AcDbSpline
62
9
6
CONTINUOUS
70
0
71
3
72
12
73
8
74
6
42
0.0000001000
43
0.0000001000
44
0.0000000001
12
0.1794085682
22
-0.0098493981
32
0.0000000000
13
0.1607119870
23
-0.0803498738
33
0.0000000000
40
0.0000000000
40
0.0000000000
40
0.0000000000
40
0.0000000000
40
0.1653802210
40
0.3445968545
40
0.5405759587
40
0.7571885297
40
1.0000000000
40
1.0000000000
40
1.0000000000
40
1.0000000000
10
3.7273243011
20
19.9417594606
30
0.0000000000
10
3.7372145106
20
19.9412164954
30
0.0000000000
10
3.7577916693
20
19.9394129365
30
0.0000000000
10
3.7898024748
20
19.9343878462
30
0.0000000000
10
3.8243442573
20
19.9262685720
30
0.0000000000
10
3.8617133598
20
19.9140947190
30
0.0000000000
10
3.8869924287
20
19.9030772602
30
0.0000000000
10
3.9000000000
20
19.8965739699
30
0.0000000000
11
3.7273243011
21
19.9417594606
31
0.0000000000
11
3.7569259507
21
19.9391629545
31
0.0000000000
11
3.7887371361
21
19.9341649829
31
0.0000000000
11
3.8230143270
21
19.9260996878
31
0.0000000000
11
3.8600159735
21
19.9140291950
31
0.0000000000
11
3.9000000000
21
19.8965739699
31
0.0000000000
0
SPLINE
5
3D7
100
AcDbEntity
8
0
100
AcDbSpline
62
9
6
CONTINUOUS
70
0
71
3
72
10
73
6
74
4
42
0.0000001000
43
0.0000001000
44
0.0000000001
12
0.2618156187
22
-0.2360118958
32
0.0000000000
13
0.2648067264
23
-0.2326508775
33
0.0000000000
40
0.0000000000
40
0.0000000000
40
0.0000000000
40
0.0000000000
40
0.3332766315
40
0.6666087754
40
1.0000000000
40
1.0000000000
40
1.0000000000
40
1.0000000000
10
4.0117849970
20
-20.9317102097
30
0.0000000000
10
4.0408706728
20
-20.9579292929
30
0.0000000000
10
4.0991584942
20
-21.0102481560
30
0.0000000000
10
4.1869308532
20
-21.0883604860
30
0.0000000000
10
4.2456718626
20
-21.1401903689
30
0.0000000000
10
4.2750999422
20
-21.1660449559
30
0.0000000000
11
4.0117849970
21
-20.9317102097
31
0.0000000000
11
4.0992091319
21
-21.0101816848
31
0.0000000000
11
4.1869809394
21
-21.0882935239
31
0.0000000000
11
4.2750999422
21
-21.1660449559
31
0.0000000000
0
SPLINE
5
3D8
100
AcDbEntity
8
0
100
AcDbSpline
62
9
6
CONTINUOUS
70
0
71
3
72
12
73
8
74
6
42
0.0000001000
43
0.0000001000
44
0.0000000001
12
-0.1607118626
22
-0.0803498115
32
0.0000000000
13
-0.1794084293
23
-0.0098493905
33
0.0000000000
40
0.0000000000
40
0.0000000000
40
0.0000000000
40
0.0000000000
40
0.2435944160
40
0.4606610392
40
0.6567041440
40
0.8355180344
40
1.0000000000
40
1.0000000000
40
1.0000000000
40
1.0000000000
10
3.9000000000
20
19.3034260301
30
0.0000000000
10
3.8869504959
20
19.2969017750
30
0.0000000000
10
3.8616011554
20
19.2858587998
30
0.0000000000
10
3.8241526340
20
19.2736763930
30
0.0000000000
10
3.7895999724
20
19.2655732515
30
0.0000000000
10
3.7576603628
20
19.2605736602
30
0.0000000000
10
3.7371607848
20
19.2587805551
30
0.0000000000
10
3.7273243011
20
19.2582405394
30
0.0000000000
11
3.9000000000
21
19.3034260301
31
0.0000000000
11
3.8598841735
21
19.2859211842
31
0.0000000000
11
3.8227999563
21
19.2738408558
31
0.0000000000
11
3.7885074634
21
19.2657905253
31
0.0000000000
11
3.7567656064
21
19.2608177078
31
0.0000000000
11
3.7273243011
21
19.2582405394
31
0.0000000000
0
SPLINE
5
3D9
100
AcDbEntity
8
0
100
AcDbSpline
62
9
6
CONTINUOUS
70
0
71
3
72
10
73
6
74
4
42
0.0000001000
43
0.0000001000
44
0.0000000001
12
0.2648067264
22
0.2326508775
32
0.0000000000
13
0.2618156187
23
0.2360118958
33
0.0000000000
40
0.0000000000
40
0.0000000000
40
0.0000000000
40
0.0000000000
40
0.3333912246
40
0.6667233685
40
1.0000000000
40
1.0000000000
40
1.0000000000
40
1.0000000000
10
18.2249000578
20
-21.1660449559
30
0.0000000000
10
18.2543281374
20
-21.1401903689
30
0.0000000000
10
18.3130691468
20
-21.0883604860
30
0.0000000000
10
18.4008415058
20
-21.0102481560
30
0.0000000000
10
18.4591293272
20
-20.9579292929
30
0.0000000000
10
18.4882150030
20
-20.9317102097
30
0.0000000000
11
18.2249000578
21
-21.1660449559
31
0.0000000000
11
18.3130190606
21
-21.0882935239
31
0.0000000000
11
18.4007908681
21
-21.0101816848
31
0.0000000000
11
18.4882150030
21
-20.9317102097
31
0.0000000000
0
SPLINE
5
3DA
100
AcDbEntity
8
0
100
AcDbSpline
62
9
6
CONTINUOUS
70
0
71
3
72
12
73
8
74
6
42
0.0000001000
43
0.0000001000
44
0.0000000001
12
-0.1794085268
22
0.0098493958
32
0.0000000000
13
-0.1607119499
23
0.0803498552
33
0.0000000000
40
0.0000000000
40
0.0000000000
40
0.0000000000
40
0.0000000000
40
0.1650449950
40
0.3441627504
40
0.5402103641
40
0.7569901133
40
1.0000000000
40
1.0000000000
40
1.0000000000
40
1.0000000000
10
-3.7273243011
20
19.2582405394
30
0.0000000000
10
-3.7371944609
20
19.2587824039
30
0.0000000000
10
-3.7577457374
20
19.2605823271
30
0.0000000000
10
-3.7897356302
20
19.2655991146
30
0.0000000000
10
-3.8242867248
20
19.2737146852
30
0.0000000000
10
-3.8616820623
20
19.2858922514
30
0.0000000000
10
-3.8869818024
20
19.2969174270
30
0.0000000000
10
-3.9000000000
20
19.3034260301
30
0.0000000000
11
-3.7273243011
21
19.2582405394
31
0.0000000000
11
-3.7568661131
21
19.2608298222
31
0.0000000000
11
-3.7886605059
21
19.2658201586
31
0.0000000000
11
-3.8229509750
21
19.2738827292
31
0.0000000000
11
-3.8599825754
21
19.2859582264
31
0.0000000000
11
-3.9000000000
21
19.3034260301
31
0.0000000000
0
SPLINE
5
3DB
100
AcDbEntity
8
0
100
AcDbSpline
62
9
6
CONTINUOUS
70
0
71
3
72
12
73
8
74
6
42
0.0000001000
43
0.0000001000
44
0.0000000001
12
0.1607119067
22
0.0803498336
32
0.0000000000
13
0.1794084785
23
0.0098493932
33
0.0000000000
40
0.0000000000
40
0.0000000000
40
0.0000000000
40
0.0000000000
40
0.2432940545
40
0.4602254464
40
0.6562756403
40
0.8352350242
40
1.0000000000
40
1.0000000000
40
1.0000000000
40
1.0000000000
10
-3.9000000000
20
19.8965739699
30
0.0000000000
10
-3.8869665829
20
19.9030901822
30
0.0000000000
10
-3.8616420610
20
19.9141243042
30
0.0000000000
10
-3.8242198655
20
19.9263044488
30
0.0000000000
10
-3.7896675911
20
19.9344138600
30
0.0000000000
10
-3.7577028445
20
19.9394220226
30
0.0000000000
10
-3.7371777123
20
19.9412185156
30
0.0000000000
10
-3.7273243011
20
19.9417594606
30
0.0000000000
11
-3.9000000000
21
19.8965739699
31
0.0000000000
11
-3.8599347389
21
19.9140597845
31
0.0000000000
11
-3.8228754489
21
19.9261382194
31
0.0000000000
11
-3.7885831134
21
19.9341948336
31
0.0000000000
11
-3.7568161271
21
19.9391762056
31
0.0000000000
11
-3.7273243011
21
19.9417594606
31
0.0000000000
0
SPLINE
5
3DC
100
AcDbEntity
8
0
100
AcDbSpline
62
9
6
CONTINUOUS
70
0
71
3
72
10
73
6
74
4
42
0.0000001000
43
0.0000001000
44
0.0000000001
12
-0.2618156187
22
0.2360118958
32
0.0000000000
13
-0.2648067264
23
0.2326508775
33
0.0000000000
40
0.0000000000
40
0.0000000000
40
0.0000000000
40
0.0000000000
40
0.3332766315
40
0.6666087754
40
1.0000000000
40
1.0000000000
40
1.0000000000
40
1.0000000000
10
18.4882150030
20
20.9317102097
30
0.0000000000
10
18.4591293272
20
20.9579292929
30
0.0000000000
10
18.4008415058
20
21.0102481560
30
0.0000000000
10
18.3130691468
20
21.0883604860
30
0.0000000000
10
18.2543281374
20
21.1401903689
30
0.0000000000
10
18.2249000578
20
21.1660449559
30
0.0000000000
11
18.4882150030
21
20.9317102097
31
0.0000000000
11
18.4007908681
21
21.0101816848
31
0.0000000000
11
18.3130190606
21
21.0882935239
31
0.0000000000
11
18.2249000578
21
21.1660449559
31
0.0000000000
0
SPLINE
5
3DD
100
AcDbEntity
8
0
100
AcDbSpline
62
9
6
CONTINUOUS
70
0
71
3
72
10
73
6
74
4
42
0.0000001000
43
0.0000001000
44
0.0000000001
12
0.0000000000
22
0.4733365591
32
0.0000000000
13
0.3081900222
23
-0.3592581362
33
0.0000000000
40
0.0000000000
40
0.0000000000
40
0.0000000000
40
0.0000000000
40
0.3289010328
40
0.6704466067
40
1.0000000000
40
1.0000000000
40
1.0000000000
40
1.0000000000
10
20.9000000000
20
18.1006347748
30
0.0000000000
10
20.9000000000
20
18.1525284025
30
0.0000000000
10
20.9456375053
20
18.2627574825
30
0.0000000000
10
21.1112760707
20
18.3242393288
30
0.0000000000
10
21.2178895725
20
18.2703001010
30
0.0000000000
10
21.2517445950
20
18.2308351884
30
0.0000000000
11
20.9000000000
21
18.1006347748
31
0.0000000000
11
20.9605193287
21
18.2440709914
31
0.0000000000
11
21.1120848627
21
18.3003185393
31
0.0000000000
11
21.2517445950
21
18.2308351884
31
0.0000000000
0
SPLINE
5
3DE
100
AcDbEntity
8
0
100
AcDbSpline
62
9
6
CONTINUOUS
70
0
71
3
72
10
73
6
74
4
42
0.0000001000
43
0.0000001000
44
0.0000000001
12
0.3081899113
22
0.3592580068
32
0.0000000000
13
0.0000000000
23
-0.4733363887
33
0.0000000000
40
0.0000000000
40
0.0000000000
40
0.0000000000
40
0.0000000000
40
0.3289256450
40
0.6705238453
40
1.0000000000
40
1.0000000000
40
1.0000000000
40
1.0000000000
10
-21.2517445950
20
18.2308351884
30
0.0000000000
10
-21.2179540733
20
18.2702249122
30
0.0000000000
10
-21.1115297368
20
18.3241778153
30
0.0000000000
10
-20.9457823907
20
18.2629686423
30
0.0000000000
10
-20.9000000000
20
18.1526191258
30
0.0000000000
10
-20.9000000000
20
18.1006347748
30
0.0000000000
11
-21.2517445950
21
18.2308351884
31
0.0000000000
11
-21.1124069168
21
18.3002985515
31
0.0000000000
11
-20.9607312333
21
18.2442769417
31
0.0000000000
11
-20.9000000000
21
18.1006347748
31
0.0000000000
0
SPLINE
5
3DF
100
AcDbEntity
8
0
100
AcDbSpline
62
9
6
CONTINUOUS
70
0
71
3
72
10
73
6
74
4
42
0.0000001000
43
0.0000001000
44
0.0000000001
12
0.0000000000
22
-0.4733365591
32
0.0000000000
13
-0.3081900222
23
0.3592581362
33
0.0000000000
40
0.0000000000
40
0.0000000000
40
0.0000000000
40
0.0000000000
40
0.3289010328
40
0.6704466067
40
1.0000000000
40
1.0000000000
40
1.0000000000
40
1.0000000000
10
-20.9000000000
20
-18.1006347748
30
0.0000000000
10
-20.9000000000
20
-18.1525284025
30
0.0000000000
10
-20.9456375053
20
-18.2627574825
30
0.0000000000
10
-21.1112760707
20
-18.3242393288
30
0.0000000000
10
-21.2178895725
20
-18.2703001010
30
0.0000000000
10
-21.2517445950
20
-18.2308351884
30
0.0000000000
11
-20.9000000000
21
-18.1006347748
31
0.0000000000
11
-20.9605193287
21
-18.2440709914
31
0.0000000000
11
-21.1120848627
21
-18.3003185393
31
0.0000000000
11
-21.2517445950
21
-18.2308351884
31
0.0000000000
0
SPLINE
5
3E0
100
AcDbEntity
8
0
100
AcDbSpline
62
9
6
CONTINUOUS
70
0
71
3
72
10
73
6
74
4
42
0.0000001000
43
0.0000001000
44
0.0000000001
12
-0.2648067264
22
-0.2326508775
32
0.0000000000
13
-0.2618156187
23
-0.2360118958
33
0.0000000000
40
0.0000000000
40
0.0000000000
40
0.0000000000
40
0.0000000000
40
0.3333912246
40
0.6667233685
40
1.0000000000
40
1.0000000000
40
1.0000000000
40
1.0000000000
10
4.2750999422
20
21.1660449559
30
0.0000000000
10
4.2456718626
20
21.1401903689
30
0.0000000000
10
4.1869308532
20
21.0883604860
30
0.0000000000
10
4.0991584942
20
21.0102481560
30
0.0000000000
10
4.0408706728
20
20.9579292929
30
0.0000000000
10
4.0117849970
20
20.9317102097
30
0.0000000000
11
4.2750999422
21
21.1660449559
31
0.0000000000
11
4.1869809394
21
21.0882935239
31
0.0000000000
11
4.0992091319
21
21.0101816848
31
0.0000000000
11
4.0117849970
21
20.9317102097
31
0.0000000000
0
SPLINE
5
3E1
100
AcDbEntity
8
0
100
AcDbSpline
62
9
6
CONTINUOUS
70
0
71
3
72
10
73
6
74
4
42
0.0000001000
43
0.0000001000
44
0.0000000001
12
0.2618156187
22
-0.2360118958
32
0.0000000000
13
0.2648067264
23
-0.2326508775
33
0.0000000000
40
0.0000000000
40
0.0000000000
40
0.0000000000
40
0.0000000000
40
0.3332766315
40
0.6666087754
40
1.0000000000
40
1.0000000000
40
1.0000000000
40
1.0000000000
10
-18.4882150030
20
-20.9317102097
30
0.0000000000
10
-18.4591293272
20
-20.9579292929
30
0.0000000000
10
-18.4008415058
20
-21.0102481560
30
0.0000000000
10
-18.3130691468
20
-21.0883604860
30
0.0000000000
10
-18.2543281374
20
-21.1401903689
30
0.0000000000
10
-18.2249000578
20
-21.1660449559
30
0.0000000000
11
-18.4882150030
21
-20.9317102097
31
0.0000000000
11
-18.4007908681
21
-21.0101816848
31
0.0000000000
11
-18.3130190606
21
-21.0882935239
31
0.0000000000
11
-18.2249000578
21
-21.1660449559
31
0.0000000000
0
SPLINE
5
3E2
100
AcDbEntity
8
0
100
AcDbSpline
62
9
6
CONTINUOUS
70
0
71
3
72
10
73
6
74
4
42
0.0000001000
43
0.0000001000
44
0.0000000001
12
0.2648067264
22
0.2326508775
32
0.0000000000
13
0.2618156187
23
0.2360118958
33
0.0000000000
40
0.0000000000
40
0.0000000000
40
0.0000000000
40
0.0000000000
40
0.3333912246
40
0.6667233685
40
1.0000000000
40
1.0000000000
40
1.0000000000
40
1.0000000000
10
-4.2750999422
20
-21.1660449559
30
0.0000000000
10
-4.2456718626
20
-21.1401903689
30
0.0000000000
10
-4.1869308532
20
-21.0883604860
30
0.0000000000
10
-4.0991584942
20
-21.0102481560
30
0.0000000000
10
-4.0408706728
20
-20.9579292929
30
0.0000000000
10
-4.0117849970
20
-20.9317102097
30
0.0000000000
11
-4.2750999422
21
-21.1660449559
31
0.0000000000
11
-4.1869809394
21
-21.0882935239
31
0.0000000000
11
-4.0992091319
21
-21.0101816848
31
0.0000000000
11
-4.0117849970
21
-20.9317102097
31
0.0000000000
0
SPLINE
5
3E3
100
AcDbEntity
8
0
100
AcDbSpline
62
9
6
CONTINUOUS
70
0
71
3
72
10
73
6
74
4
42
0.0000001000
43
0.0000001000
44
0.0000000001
12
-0.3081899113
22
-0.3592580068
32
0.0000000000
13
0.0000000000
23
0.4733363887
33
0.0000000000
40
0.0000000000
40
0.0000000000
40
0.0000000000
40
0.0000000000
40
0.3289256450
40
0.6705238453
40
1.0000000000
40
1.0000000000
40
1.0000000000
40
1.0000000000
10
21.2517445950
20
-18.2308351884
30
0.0000000000
10
21.2179540733
20
-18.2702249122
30
0.0000000000
10
21.1115297368
20
-18.3241778153
30
0.0000000000
10
20.9457823907
20
-18.2629686423
30
0.0000000000
10
20.9000000000
20
-18.1526191258
30
0.0000000000
10
20.9000000000
20
-18.1006347748
30
0.0000000000
11
21.2517445950
21
-18.2308351884
31
0.0000000000
11
21.1124069168
21
-18.3002985515
31
0.0000000000
11
20.9607312333
21
-18.2442769417
31
0.0000000000
11
20.9000000000
21
-18.1006347748
31
0.0000000000
0
SPLINE
5
3E4
100
AcDbEntity
8
0
100
AcDbSpline
62
9
6
CONTINUOUS
70
0
71
3
72
10
73
6
74
4
42
0.0000001000
43
0.0000001000
44
0.0000000001
12
-0.2618156187
22
0.2360118958
32
0.0000000000
13
-0.2648067264
23
0.2326508775
33
0.0000000000
40
0.0000000000
40
0.0000000000
40
0.0000000000
40
0.0000000000
40
0.3332766315
40
0.6666087754
40
1.0000000000
40
1.0000000000
40
1.0000000000
40
1.0000000000
10
-4.0117849970
20
20.9317102097
30
0.0000000000
10
-4.0408706728
20
20.9579292929
30
0.0000000000
10
-4.0991584942
20
21.0102481560
30
0.0000000000
10
-4.1869308532
20
21.0883604860
30
0.0000000000
10
-4.2456718626
20
21.1401903689
30
0.0000000000
10
-4.2750999422
20
21.1660449559
30
0.0000000000
11
-4.0117849970
21
20.9317102097
31
0.0000000000
11
-4.0992091319
21
21.0101816848
31
0.0000000000
11
-4.1869809394
21
21.0882935239
31
0.0000000000
11
-4.2750999422
21
21.1660449559
31
0.0000000000
0
SPLINE
5
3E5
100
AcDbEntity
8
0
100
AcDbSpline
62
9
6
CONTINUOUS
70
0
71
3
72
10
73
6
74
4
42
0.0000001000
43
0.0000001000
44
0.0000000001
12
-0.2648067264
22
-0.2326508775
32
0.0000000000
13
-0.2618156187
23
-0.2360118958
33
0.0000000000
40
0.0000000000
40
0.0000000000
40
0.0000000000
40
0.0000000000
40
0.3333912246
40
0.6667233685
40
1.0000000000
40
1.0000000000
40
1.0000000000
40
1.0000000000
10
-18.2249000578
20
21.1660449559
30
0.0000000000
10
-18.2543281374
20
21.1401903689
30
0.0000000000
10
-18.3130691468
20
21.0883604860
30
0.0000000000
10
-18.4008415058
20
21.0102481560
30
0.0000000000
10
-18.4591293272
20
20.9579292929
30
0.0000000000
10
-18.4882150030
20
20.9317102097
30
0.0000000000
11
-18.2249000578
21
21.1660449559
31
0.0000000000
11
-18.3130190606
21
21.0882935239
31
0.0000000000
11
-18.4007908681
21
21.0101816848
31
0.0000000000
11
-18.4882150030
21
20.9317102097
31
0.0000000000
0
SPLINE
5
3E6
100
AcDbEntity
8
0
100
AcDbSpline
62
9
6
CONTINUOUS
70
0
71
3
72
13
73
9
74
7
42
0.0000001000
43
0.0000001000
44
0.0000000001
12
0.7067706616
22
0.0000000000
32
0.0000000000
13
-0.7067706616
23
0.0000000000
33
0.0000000000
40
0.0000000000
40
0.0000000000
40
0.0000000000
40
0.0000000000
40
0.1763778356
40
0.3419353705
40
0.5010266279
40
0.6589105247
40
0.8227319792
40
1.0000000000
40
1.0000000000
40
1.0000000000
40
1.0000000000
10
-3.9000000000
20
-19.8255982314
30
0.0000000000
10
-3.8584471068
20
-19.8255982314
30
0.0000000000
10
-3.7761235759
20
-19.8023204607
30
0.0000000000
10
-3.6917874462
20
-19.7124330745
30
0.0000000000
10
-3.6628257194
20
-19.5975175290
30
0.0000000000
10
-3.6922085799
20
-19.4832337255
30
0.0000000000
10
-3.7760909330
20
-19.3937941861
30
0.0000000000
10
-3.8582373879
20
-19.3704295719
30
0.0000000000
10
-3.9000000000
20
-19.3704295719
30
0.0000000000
11
-3.9000000000
21
-19.8255982314
31
0.0000000000
11
-3.7801082435
21
-19.7914551048
31
0.0000000000
11
-3.6998430421
21
-19.7063133385
31
0.0000000000
11
-3.6724255647
21
-19.5972662483
31
0.0000000000
11
-3.7001363772
21
-19.4891740329
31
0.0000000000
11
-3.7795526014
21
-19.4049182094
31
0.0000000000
11
-3.9000000000
21
-19.3704295719
31
0.0000000000
0
SPLINE
5
3E7
100
AcDbEntity
8
0
100
AcDbSpline
62
9
6
CONTINUOUS
70
0
71
3
72
13
73
9
74
7
42
0.0000001000
43
0.0000001000
44
0.0000000001
12
-0.7067700723
22
0.0000000000
32
0.0000000000
13
0.7067700723
23
0.0000000000
33
0.0000000000
40
0.0000000000
40
0.0000000000
40
0.0000000000
40
0.0000000000
40
0.1767537457
40
0.3422871704
40
0.5012335072
40
0.6590621441
40
0.8230196334
40
1.0000000000
40
1.0000000000
40
1.0000000000
40
1.0000000000
10
3.9000000000
20
-19.3704295719
30
0.0000000000
10
3.8583585808
20
-19.3704295719
30
0.0000000000
10
3.7759417670
20
-19.3937882740
30
0.0000000000
10
3.6916814811
20
-19.4838117980
30
0.0000000000
10
3.6628391554
20
-19.5986902799
30
0.0000000000
10
3.6922815072
20
-19.7129383471
30
0.0000000000
10
3.7762023435
20
-19.8022886430
30
0.0000000000
10
3.8583051912
20
-19.8255982314
30
0.0000000000
10
3.9000000000
20
-19.8255982314
30
0.0000000000
11
3.9000000000
21
-19.3704295719
31
0.0000000000
11
3.7798736039
21
-19.4047183325
31
0.0000000000
11
3.6997201985
21
-19.4899418277
31
0.0000000000
11
3.6724261172
21
-19.5989141859
31
0.0000000000
11
3.7001900829
21
-19.7069523403
31
0.0000000000
11
3.7797321598
21
-19.7912214898
31
0.0000000000
11
3.9000000000
21
-19.8255982314
31
0.0000000000
0
SPLINE
5
3E8
100
AcDbEntity
8
0
100
AcDbSpline
62
9
6
CONTINUOUS
70
0
71
3
72
13
73
9
74
7
42
0.0000001000
43
0.0000001000
44
0.0000000001
12
-0.7067706616
22
0.0000000000
32
0.0000000000
13
0.7067706616
23
0.0000000000
33
0.0000000000
40
0.0000000000
40
0.0000000000
40
0.0000000000
40
0.0000000000
40
0.1763778356
40
0.3419353705
40
0.5010266279
40
0.6589105247
40
0.8227319792
40
1.0000000000
40
1.0000000000
40
1.0000000000
40
1.0000000000
10
3.9000000000
20
19.8255982314
30
0.0000000000
10
3.8584471068
20
19.8255982314
30
0.0000000000
10
3.7761235759
20
19.8023204607
30
0.0000000000
10
3.6917874462
20
19.7124330745
30
0.0000000000
10
3.6628257194
20
19.5975175290
30
0.0000000000
10
3.6922085799
20
19.4832337255
30
0.0000000000
10
3.7760909330
20
19.3937941861
30
0.0000000000
10
3.8582373879
20
19.3704295719
30
0.0000000000
10
3.9000000000
20
19.3704295719
30
0.0000000000
11
3.9000000000
21
19.8255982314
31
0.0000000000
11
3.7801082435
21
19.7914551048
31
0.0000000000
11
3.6998430421
21
19.7063133385
31
0.0000000000
11
3.6724255647
21
19.5972662483
31
0.0000000000
11
3.7001363772
21
19.4891740329
31
0.0000000000
11
3.7795526014
21
19.4049182094
31
0.0000000000
11
3.9000000000
21
19.3704295719
31
0.0000000000
0
SPLINE
5
3E9
100
AcDbEntity
8
0
100
AcDbSpline
62
9
6
CONTINUOUS
70
0
71
3
72
13
73
9
74
7
42
0.0000001000
43
0.0000001000
44
0.0000000001
12
0.7067700723
22
0.0000000000
32
0.0000000000
13
-0.7067700723
23
0.0000000000
33
0.0000000000
40
0.0000000000
40
0.0000000000
40
0.0000000000
40
0.0000000000
40
0.1767537457
40
0.3422871704
40
0.5012335072
40
0.6590621441
40
0.8230196334
40
1.0000000000
40
1.0000000000
40
1.0000000000
40
1.0000000000
10
-3.9000000000
20
19.3704295719
30
0.0000000000
10
-3.8583585808
20
19.3704295719
30
0.0000000000
10
-3.7759417670
20
19.3937882740
30
0.0000000000
10
-3.6916814811
20
19.4838117980
30
0.0000000000
10
-3.6628391554
20
19.5986902799
30
0.0000000000
10
-3.6922815072
20
19.7129383471
30
0.0000000000
10
-3.7762023435
20
19.8022886430
30
0.0000000000
10
-3.8583051912
20
19.8255982314
30
0.0000000000
10
-3.9000000000
20
19.8255982314
30
0.0000000000
11
-3.9000000000
21
19.3704295719
31
0.0000000000
11
-3.7798736039
21
19.4047183325
31
0.0000000000
11
-3.6997201985
21
19.4899418277
31
0.0000000000
11
-3.6724261172
21
19.5989141859
31
0.0000000000
11
-3.7001900829
21
19.7069523403
31
0.0000000000
11
-3.7797321598
21
19.7912214898
31
0.0000000000
11
-3.9000000000
21
19.8255982314
31
0.0000000000
0
SPLINE
5
3EA
100
AcDbEntity
8
0
100
AcDbSpline
62
9
6
CONTINUOUS
70
0
71
3
72
9
73
5
74
3
42
0.0000001000
43
0.0000001000
44
0.0000000001
12
0.3983608975
22
0.5174625133
32
0.0000000000
13
-0.0000000000
23
0.6530381745
33
0.0000000000
40
0.0000000000
40
0.0000000000
40
0.0000000000
40
0.0000000000
40
0.4981786193
40
1.0000000000
40
1.0000000000
40
1.0000000000
40
1.0000000000
10
22.1662414635
20
-17.0643546451
30
0.0000000000
10
22.2323930908
20
-16.9784250583
30
0.0000000000
10
22.3376369260
20
-16.7828687706
30
0.0000000000
10
22.3738174026
20
-16.5636720709
30
0.0000000000
10
22.3738174026
20
-16.4544358981
30
0.0000000000
11
22.1662414635
21
-17.0643546451
31
0.0000000000
11
22.3201132697
21
-16.7777140123
31
0.0000000000
11
22.3738174026
21
-16.4544358981
31
0.0000000000
0
SPLINE
5
3EB
100
AcDbEntity
8
0
100
AcDbSpline
62
9
6
CONTINUOUS
70
0
71
3
72
9
73
5
74
3
42
0.0000001000
43
0.0000001000
44
0.0000000001
12
0.0000000000
22
0.6530381745
32
0.0000000000
13
-0.3983608975
23
0.5174625133
33
0.0000000000
40
0.0000000000
40
0.0000000000
40
0.0000000000
40
0.0000000000
40
0.4981786193
40
1.0000000000
40
1.0000000000
40
1.0000000000
40
1.0000000000
10
22.3738174026
20
16.4544358981
30
0.0000000000
10
22.3738174026
20
16.5628791168
30
0.0000000000
10
22.3379202074
20
16.7820364070
30
0.0000000000
10
22.2328768021
20
16.9777967275
30
0.0000000000
10
22.1662414635
20
17.0643546451
30
0.0000000000
11
22.3738174026
21
16.4544358981
31
0.0000000000
11
22.3208901320
21
16.7754313640
31
0.0000000000
11
22.1662414635
21
17.0643546451
31
0.0000000000
0
SPLINE
5
3EC
100
AcDbEntity
8
0
100
AcDbSpline
62
9
6
CONTINUOUS
70
0
71
3
72
10
73
6
74
4
42
0.0000001000
43
0.0000001000
44
0.0000000001
12
-0.3075793877
22
0.3604023700
32
0.0000000000
13
0.0000000023
23
-0.4738089784
33
0.0000000000
40
0.0000000000
40
0.0000000000
40
0.0000000000
40
0.0000000000
40
0.3282273498
40
0.6688909647
40
1.0000000000
40
1.0000000000
40
1.0000000000
40
1.0000000000
10
21.2782587845
20
18.1595749722
30
0.0000000000
10
21.2446067955
20
18.1990062772
30
0.0000000000
10
21.1385271131
20
18.2531753899
30
0.0000000000
10
20.9724222421
20
18.1926823418
30
0.0000000000
10
20.9261825971
20
18.0820562356
30
0.0000000000
10
20.9261825974
20
18.0297620910
30
0.0000000000
11
21.2782587845
21
18.1595749722
31
0.0000000000
11
21.1392890856
21
18.2293817082
31
0.0000000000
11
20.9876394500
21
18.1741059627
31
0.0000000000
11
20.9261825974
21
18.0297620910
31
0.0000000000
0
SPLINE
5
3ED
100
AcDbEntity
8
0
100
AcDbSpline
62
9
6
CONTINUOUS
70
0
71
3
72
10
73
6
74
4
42
0.0000001000
43
0.0000001000
44
0.0000000001
12
0.0000000045
22
0.4738090331
32
0.0000000000
13
-0.3075794219
23
-0.3604024127
33
0.0000000000
40
0.0000000000
40
0.0000000000
40
0.0000000000
40
0.0000000000
40
0.3282718185
40
0.6689275906
40
1.0000000000
40
1.0000000000
40
1.0000000000
40
1.0000000000
10
-20.9261825974
20
18.0297620910
30
0.0000000000
10
-20.9261825969
20
18.0816081420
30
0.0000000000
10
-20.9717179839
20
18.1916821656
30
0.0000000000
10
-21.1373412829
20
18.2534784111
30
0.0000000000
10
-21.2443150978
20
18.1993480706
30
0.0000000000
10
-21.2782587845
20
18.1595749722
30
0.0000000000
11
-20.9261825974
21
18.0297620910
31
0.0000000000
11
-20.9865901898
21
18.1730905243
31
0.0000000000
11
-21.1378277566
21
18.2294733659
31
0.0000000000
11
-21.2782587845
21
18.1595749722
31
0.0000000000
0
SPLINE
5
3EE
100
AcDbEntity
8
0
100
AcDbSpline
62
9
6
CONTINUOUS
70
0
71
3
72
9
73
5
74
3
42
0.0000001000
43
0.0000001000
44
0.0000000001
12
-0.3983608975
22
-0.5174625133
32
0.0000000000
13
0.0000000000
23
-0.6530381745
33
0.0000000000
40
0.0000000000
40
0.0000000000
40
0.0000000000
40
0.0000000000
40
0.4981786193
40
1.0000000000
40
1.0000000000
40
1.0000000000
40
1.0000000000
10
-22.1662414635
20
17.0643546451
30
0.0000000000
10
-22.2323930908
20
16.9784250583
30
0.0000000000
10
-22.3376369260
20
16.7828687706
30
0.0000000000
10
-22.3738174026
20
16.5636720709
30
0.0000000000
10
-22.3738174026
20
16.4544358981
30
0.0000000000
11
-22.1662414635
21
17.0643546451
31
0.0000000000
11
-22.3201132697
21
16.7777140123
31
0.0000000000
11
-22.3738174026
21
16.4544358981
31
0.0000000000
0
SPLINE
5
3EF
100
AcDbEntity
8
0
100
AcDbSpline
62
9
6
CONTINUOUS
70
0
71
3
72
9
73
5
74
3
42
0.0000001000
43
0.0000001000
44
0.0000000001
12
-0.0000000000
22
-0.6530381745
32
0.0000000000
13
0.3983608975
23
-0.5174625133
33
0.0000000000
40
0.0000000000
40
0.0000000000
40
0.0000000000
40
0.0000000000
40
0.4981786193
40
1.0000000000
40
1.0000000000
40
1.0000000000
40
1.0000000000
10
-22.3738174026
20
-16.4544358981
30
0.0000000000
10
-22.3738174026
20
-16.5628791168
30
0.0000000000
10
-22.3379202074
20
-16.7820364070
30
0.0000000000
10
-22.2328768021
20
-16.9777967275
30
0.0000000000
10
-22.1662414635
20
-17.0643546451
30
0.0000000000
11
-22.3738174026
21
-16.4544358981
31
0.0000000000
11
-22.3208901320
21
-16.7754313640
31
0.0000000000
11
-22.1662414635
21
-17.0643546451
31
0.0000000000
0
SPLINE
5
3F0
100
AcDbEntity
8
0
100
AcDbSpline
62
9
6
CONTINUOUS
70
0
71
3
72
10
73
6
74
4
42
0.0000001000
43
0.0000001000
44
0.0000000001
12
0.3075793877
22
-0.3604023700
32
0.0000000000
13
-0.0000000023
23
0.4738089784
33
0.0000000000
40
0.0000000000
40
0.0000000000
40
0.0000000000
40
0.0000000000
40
0.3282273498
40
0.6688909647
40
1.0000000000
40
1.0000000000
40
1.0000000000
40
1.0000000000
10
-21.2782587845
20
-18.1595749722
30
0.0000000000
10
-21.2446067955
20
-18.1990062772
30
0.0000000000
10
-21.1385271131
20
-18.2531753899
30
0.0000000000
10
-20.9724222421
20
-18.1926823418
30
0.0000000000
10
-20.9261825971
20
-18.0820562356
30
0.0000000000
10
-20.9261825974
20
-18.0297620910
30
0.0000000000
11
-21.2782587845
21
-18.1595749722
31
0.0000000000
11
-21.1392890856
21
-18.2293817082
31
0.0000000000
11
-20.9876394500
21
-18.1741059627
31
0.0000000000
11
-20.9261825974
21
-18.0297620910
31
0.0000000000
0
SPLINE
5
3F1
100
AcDbEntity
8
0
100
AcDbSpline
62
9
6
CONTINUOUS
70
0
71
3
72
10
73
6
74
4
42
0.0000001000
43
0.0000001000
44
0.0000000001
12
-0.0000000045
22
-0.4738090331
32
0.0000000000
13
0.3075794219
23
0.3604024127
33
0.0000000000
40
0.0000000000
40
0.0000000000
40
0.0000000000
40
0.0000000000
40
0.3282718185
40
0.6689275906
40
1.0000000000
40
1.0000000000
40
1.0000000000
40
1.0000000000
10
20.9261825974
20
-18.0297620910
30
0.0000000000
10
20.9261825969
20
-18.0816081420
30
0.0000000000
10
20.9717179839
20
-18.1916821656
30
0.0000000000
10
21.1373412829
20
-18.2534784111
30
0.0000000000
10
21.2443150978
20
-18.1993480706
30
0.0000000000
10
21.2782587845
20
-18.1595749722
30
0.0000000000
11
20.9261825974
21
-18.0297620910
31
0.0000000000
11
20.9865901898
21
-18.1730905243
31
0.0000000000
11
21.1378277566
21
-18.2294733659
31
0.0000000000
11
21.2782587845
21
-18.1595749722
31
0.0000000000
0
SPLINE
5
3F2
100
AcDbEntity
8
0
100
AcDbSpline
62
9
6
CONTINUOUS
70
0
71
3
72
10
73
6
74
4
42
0.0000001000
43
0.0000001000
44
0.0000000001
12
0.0000000000
22
1.0245691760
32
0.0000000000
13
-0.1069477834
23
1.0189721135
33
0.0000000000
40
0.0000000000
40
0.0000000000
40
0.0000000000
40
0.0000000000
40
0.3470213473
40
0.6837239092
40
1.0000000000
40
1.0000000000
40
1.0000000000
40
1.0000000000
10
-3.9000000000
20
0.6498081888
30
0.0000000000
10
-3.9000000000
20
0.7683239808
30
0.0000000000
10
-3.9036320412
20
1.0018503564
30
0.0000000000
10
-3.9198964581
20
1.3430403261
30
0.0000000000
10
-3.9383459128
20
1.5653504028
30
0.0000000000
10
-3.9496209217
20
1.6727759084
30
0.0000000000
11
-3.9000000000
21
0.6498081888
31
0.0000000000
11
-3.9056158719
21
1.0053112106
31
0.0000000000
11
-3.9223103380
21
1.3498820904
31
0.0000000000
11
-3.9496209217
21
1.6727759084
31
0.0000000000
0
SPLINE
5
3F3
100
AcDbEntity
8
0
100
AcDbSpline
62
9
6
CONTINUOUS
70
0
71
3
72
10
73
6
74
4
42
0.0000001000
43
0.0000001000
44
0.0000000001
12
0.0000000000
22
-1.0245691760
32
0.0000000000
13
-0.1069477834
23
-1.0189721135
33
0.0000000000
40
0.0000000000
40
0.0000000000
40
0.0000000000
40
0.0000000000
40
0.3470213473
40
0.6837239092
40
1.0000000000
40
1.0000000000
40
1.0000000000
40
1.0000000000
10
-6.6591825482
20
5.9501918112
30
0.0000000000
10
-6.6591825482
20
5.8316760192
30
0.0000000000
10
-6.6628145894
20
5.5981496436
30
0.0000000000
10
-6.6790790063
20
5.2569596739
30
0.0000000000
10
-6.6975284610
20
5.0346495972
30
0.0000000000
10
-6.7088034699
20
4.9272240916
30
0.0000000000
11
-6.6591825482
21
5.9501918112
31
0.0000000000
11
-6.6647984202
21
5.5946887894
31
0.0000000000
11
-6.6814928862
21
5.2501179096
31
0.0000000000
11
-6.7088034699
21
4.9272240916
31
0.0000000000
0
SPLINE
5
3F4
100
AcDbEntity
8
0
100
AcDbSpline
62
9
6
CONTINUOUS
70
0
71
3
72
10
73
6
74
4
42
0.0000001000
43
0.0000001000
44
0.0000000001
12
-0.1069477834
22
-1.0189721135
32
0.0000000000
13
0.0000000000
23
-1.0245691760
33
0.0000000000
40
0.0000000000
40
0.0000000000
40
0.0000000000
40
0.0000000000
40
0.3162760908
40
0.6529786527
40
1.0000000000
40
1.0000000000
40
1.0000000000
40
1.0000000000
10
3.9496209217
20
1.6727759084
30
0.0000000000
10
3.9383459128
20
1.5653504028
30
0.0000000000
10
3.9198964581
20
1.3430403261
30
0.0000000000
10
3.9036320412
20
1.0018503564
30
0.0000000000
10
3.9000000000
20
0.7683239808
30
0.0000000000
10
3.9000000000
20
0.6498081888
30
0.0000000000
11
3.9496209217
21
1.6727759084
31
0.0000000000
11
3.9223103380
21
1.3498820904
31
0.0000000000
11
3.9056158719
21
1.0053112106
31
0.0000000000
11
3.9000000000
21
0.6498081888
31
0.0000000000
0
SPLINE
5
3F5
100
AcDbEntity
8
0
100
AcDbSpline
62
9
6
CONTINUOUS
70
0
71
3
72
10
73
6
74
4
42
0.0000001000
43
0.0000001000
44
0.0000000001
12
-0.1069477834
22
1.0189721135
32
0.0000000000
13
0.0000000000
23
1.0245691760
33
0.0000000000
40
0.0000000000
40
0.0000000000
40
0.0000000000
40
0.0000000000
40
0.3162760908
40
0.6529786527
40
1.0000000000
40
1.0000000000
40
1.0000000000
40
1.0000000000
10
-4.2911965301
20
4.9272240916
30
0.0000000000
10
-4.3024715390
20
5.0346495972
30
0.0000000000
10
-4.3209209937
20
5.2569596739
30
0.0000000000
10
-4.3371854106
20
5.5981496436
30
0.0000000000
10
-4.3408174518
20
5.8316760192
30
0.0000000000
10
-4.3408174518
20
5.9501918112
30
0.0000000000
11
-4.2911965301
21
4.9272240916
31
0.0000000000
11
-4.3185071138
21
5.2501179096
31
0.0000000000
11
-4.3352015798
21
5.5946887894
31
0.0000000000
11
-4.3408174518
21
5.9501918112
31
0.0000000000
0
SPLINE
5
3F6
100
AcDbEntity
8
0
100
AcDbSpline
62
9
6
CONTINUOUS
70
0
71
3
72
10
73
6
74
4
42
0.0000001000
43
0.0000001000
44
0.0000000001
12
0.0000000000
22
-1.0245691760
32
0.0000000000
13
-0.1069477834
23
-1.0189721135
33
0.0000000000
40
0.0000000000
40
0.0000000000
40
0.0000000000
40
0.0000000000
40
0.3470213473
40
0.6837239092
40
1.0000000000
40
1.0000000000
40
1.0000000000
40
1.0000000000
10
4.3408174518
20
5.9501918112
30
0.0000000000
10
4.3408174518
20
5.8316760192
30
0.0000000000
10
4.3371854106
20
5.5981496436
30
0.0000000000
10
4.3209209937
20
5.2569596739
30
0.0000000000
10
4.3024715390
20
5.0346495972
30
0.0000000000
10
4.2911965301
20
4.9272240916
30
0.0000000000
11
4.3408174518
21
5.9501918112
31
0.0000000000
11
4.3352015798
21
5.5946887894
31
0.0000000000
11
4.3185071138
21
5.2501179096
31
0.0000000000
11
4.2911965301
21
4.9272240916
31
0.0000000000
0
SPLINE
5
3F7
100
AcDbEntity
8
0
100
AcDbSpline
62
9
6
CONTINUOUS
70
0
71
3
72
10
73
6
74
4
42
0.0000001000
43
0.0000001000
44
0.0000000001
12
-0.1069477834
22
1.0189721135
32
0.0000000000
13
0.0000000000
23
1.0245691760
33
0.0000000000
40
0.0000000000
40
0.0000000000
40
0.0000000000
40
0.0000000000
40
0.3162760908
40
0.6529786527
40
1.0000000000
40
1.0000000000
40
1.0000000000
40
1.0000000000
10
6.7088034699
20
4.9272240916
30
0.0000000000
10
6.6975284610
20
5.0346495972
30
0.0000000000
10
6.6790790063
20
5.2569596739
30
0.0000000000
10
6.6628145894
20
5.5981496436
30
0.0000000000
10
6.6591825482
20
5.8316760192
30
0.0000000000
10
6.6591825482
20
5.9501918112
30
0.0000000000
11
6.7088034699
21
4.9272240916
31
0.0000000000
11
6.6814928862
21
5.2501179096
31
0.0000000000
11
6.6647984202
21
5.5946887894
31
0.0000000000
11
6.6591825482
21
5.9501918112
31
0.0000000000
0
SPLINE
5
3F8
100
AcDbEntity
8
0
100
AcDbSpline
62
9
6
CONTINUOUS
70
0
71
3
72
10
73
6
74
4
42
0.0000001000
43
0.0000001000
44
0.0000000001
12
0.0292398090
22
0.5638124710
32
0.0000000000
13
0.0000000000
23
0.5645701629
33
0.0000000000
40
0.0000000000
40
0.0000000000
40
0.0000000000
40
0.0000000000
40
0.3285949723
40
0.6628729192
40
1.0000000000
40
1.0000000000
40
1.0000000000
40
1.0000000000
10
-6.6735124651
20
-0.3763145893
30
0.0000000000
10
-6.6703097803
20
-0.3145592749
30
0.0000000000
10
-6.6649947695
20
-0.1899185501
30
0.0000000000
10
-6.6602403851
20
-0.0017803859
30
0.0000000000
10
-6.6591825482
20
0.1245740950
30
0.0000000000
10
-6.6591825482
20
0.1880180587
30
0.0000000000
11
-6.6735124651
21
-0.3763145893
31
0.0000000000
11
-6.6655719668
21
-0.1909696867
31
0.0000000000
11
-6.6607829823
21
-0.0023071034
31
0.0000000000
11
-6.6591825482
21
0.1880180587
31
0.0000000000
0
SPLINE
5
3F9
100
AcDbEntity
8
0
100
AcDbSpline
62
9
6
CONTINUOUS
70
0
71
3
72
10
73
6
74
4
42
0.0000001000
43
0.0000001000
44
0.0000000001
12
0.0000000000
22
-0.5645701629
32
0.0000000000
13
0.0292398090
23
-0.5638124710
33
0.0000000000
40
0.0000000000
40
0.0000000000
40
0.0000000000
40
0.0000000000
40
0.3371270808
40
0.6714050277
40
1.0000000000
40
1.0000000000
40
1.0000000000
40
1.0000000000
10
-4.3408174518
20
0.1880180587
30
0.0000000000
10
-4.3408174518
20
0.1245740950
30
0.0000000000
10
-4.3397596149
20
-0.0017803859
30
0.0000000000
10
-4.3350052305
20
-0.1899185501
30
0.0000000000
10
-4.3296902197
20
-0.3145592749
30
0.0000000000
10
-4.3264875349
20
-0.3763145893
30
0.0000000000
11
-4.3408174518
21
0.1880180587
31
0.0000000000
11
-4.3392170177
21
-0.0023071034
31
0.0000000000
11
-4.3344280332
21
-0.1909696867
31
0.0000000000
11
-4.3264875349
21
-0.3763145893
31
0.0000000000
0
SPLINE
5
3FA
100
AcDbEntity
8
0
100
AcDbSpline
62
9
6
CONTINUOUS
70
0
71
3
72
10
73
6
74
4
42
0.0000001000
43
0.0000001000
44
0.0000000001
12
0.0292398090
22
0.5638124710
32
0.0000000000
13
-0.0000000000
23
0.5645701629
33
0.0000000000
40
0.0000000000
40
0.0000000000
40
0.0000000000
40
0.0000000000
40
0.3285949723
40
0.6628729192
40
1.0000000000
40
1.0000000000
40
1.0000000000
40
1.0000000000
10
4.3264875349
20
-0.3763145893
30
0.0000000000
10
4.3296902197
20
-0.3145592749
30
0.0000000000
10
4.3350052305
20
-0.1899185501
30
0.0000000000
10
4.3397596149
20
-0.0017803859
30
0.0000000000
10
4.3408174518
20
0.1245740950
30
0.0000000000
10
4.3408174518
20
0.1880180587
30
0.0000000000
11
4.3264875349
21
-0.3763145893
31
0.0000000000
11
4.3344280332
21
-0.1909696867
31
0.0000000000
11
4.3392170177
21
-0.0023071034
31
0.0000000000
11
4.3408174518
21
0.1880180587
31
0.0000000000
0
SPLINE
5
3FB
100
AcDbEntity
8
0
100
AcDbSpline
62
9
6
CONTINUOUS
70
0
71
3
72
10
73
6
74
4
42
0.0000001000
43
0.0000001000
44
0.0000000001
12
0.0000000000
22
-0.5645701629
32
0.0000000000
13
0.0292398090
23
-0.5638124710
33
0.0000000000
40
0.0000000000
40
0.0000000000
40
0.0000000000
40
0.0000000000
40
0.3371270808
40
0.6714050277
40
1.0000000000
40
1.0000000000
40
1.0000000000
40
1.0000000000
10
6.6591825482
20
0.1880180587
30
0.0000000000
10
6.6591825482
20
0.1245740950
30
0.0000000000
10
6.6602403851
20
-0.0017803859
30
0.0000000000
10
6.6649947695
20
-0.1899185501
30
0.0000000000
10
6.6703097803
20
-0.3145592749
30
0.0000000000
10
6.6735124651
20
-0.3763145893
30
0.0000000000
11
6.6591825482
21
0.1880180587
31
0.0000000000
11
6.6607829823
21
-0.0023071034
31
0.0000000000
11
6.6655719668
21
-0.1909696867
31
0.0000000000
11
6.6735124651
21
-0.3763145893
31
0.0000000000
0
SPLINE
5
3FC
100
AcDbEntity
8
0
100
AcDbSpline
62
9
6
CONTINUOUS
70
0
71
3
72
10
73
6
74
4
42
0.0000001000
43
0.0000001000
44
0.0000000001
12
0.0000000000
22
1.0245691760
32
0.0000000000
13
-0.1069477834
23
1.0189721135
33
0.0000000000
40
0.0000000000
40
0.0000000000
40
0.0000000000
40
0.0000000000
40
0.3470213473
40
0.6837239092
40
1.0000000000
40
1.0000000000
40
1.0000000000
40
1.0000000000
10
7.1000000000
20
0.6498081888
30
0.0000000000
10
7.1000000000
20
0.7683239808
30
0.0000000000
10
7.0963679588
20
1.0018503564
30
0.0000000000
10
7.0801035419
20
1.3430403261
30
0.0000000000
10
7.0616540872
20
1.5653504028
30
0.0000000000
10
7.0503790783
20
1.6727759084
30
0.0000000000
11
7.1000000000
21
0.6498081888
31
0.0000000000
11
7.0943841281
21
1.0053112106
31
0.0000000000
11
7.0776896620
21
1.3498820904
31
0.0000000000
11
7.0503790783
21
1.6727759084
31
0.0000000000
0
SPLINE
5
3FD
100
AcDbEntity
8
0
100
AcDbSpline
62
9
6
CONTINUOUS
70
0
71
3
72
10
73
6
74
4
42
0.0000001000
43
0.0000001000
44
0.0000000001
12
-0.1069477834
22
-1.0189721135
32
0.0000000000
13
0.0000000000
23
-1.0245691760
33
0.0000000000
40
0.0000000000
40
0.0000000000
40
0.0000000000
40
0.0000000000
40
0.3162760908
40
0.6529786527
40
1.0000000000
40
1.0000000000
40
1.0000000000
40
1.0000000000
10
-7.0503790783
20
1.6727759084
30
0.0000000000
10
-7.0616540872
20
1.5653504028
30
0.0000000000
10
-7.0801035419
20
1.3430403261
30
0.0000000000
10
-7.0963679588
20
1.0018503564
30
0.0000000000
10
-7.1000000000
20
0.7683239808
30
0.0000000000
10
-7.1000000000
20
0.6498081888
30
0.0000000000
11
-7.0503790783
21
1.6727759084
31
0.0000000000
11
-7.0776896620
21
1.3498820904
31
0.0000000000
11
-7.0943841281
21
1.0053112106
31
0.0000000000
11
-7.1000000000
21
0.6498081888
31
0.0000000000
0
ENDSEC
0
SECTION
2
OBJECTS
0
DICTIONARY
5
C
100
AcDbDictionary
280
0
281
1
3
ACAD_GROUP
350
D
3
ACAD_MLINESTYLE
350
17
3
ACAD_LAYOUT
350
1A
3
ACAD_PLOTSETTINGS
350
19
3
ACAD_PLOTSTYLENAME
350
E
0
DICTIONARY
5
D
102
{ACAD_REACTORS
330
C
102
}
100
AcDbDictionary
280
0
281
1
0
ACDBDICTIONARYWDFLT
5
E
102
{ACAD_REACTORS
330
C
102
}
100
AcDbDictionary
281
1
3
Normal
350
F
100
AcDbDictionaryWithDefault
340
F
0
DICTIONARY
5
17
102
{ACAD_REACTORS
330
C
102
}
100
AcDbDictionary
280
0
281
1
3
Standard
350
18
0
DICTIONARY
5
19
102
{ACAD_REACTORS
330
C
102
}
100
AcDbDictionary
281
1
0
DICTIONARY
5
1A
102
{ACAD_REACTORS
330
C
102
}
100
AcDbDictionary
281
1
3
Layout1
350
1E
3
Model
350
22
0
ACDBPLACEHOLDER
5
F
102
{ACAD_REACTORS
330
E
102
}
0
MLINESTYLE
5
18
102
{ACAD_REACTORS
330
17
102
}
100
AcDbMlineStyle
2
STANDARD
70
0
3

62
256
51
90.0
52
90.0
71
2
49
0.5
62
256
6
BYLAYER
49
-0.5
62
256
6
BYLAYER
0
LAYOUT
5
1E
102
{ACAD_REACTORS
330
1A
102
}
100
AcDbPlotSettings
1

2

4

6

40
0.0
41
0.0
42
0.0
43
0.0
44
0.0
45
0.0
46
0.0
47
0.0
48
0.0
49
0.0
140
0.0
141
0.0
142
1.0
143
1.0
70
0
72
0
73
0
74
0
7

75
0
147
1.0
148
0.0
149
0.0
100
AcDbLayout
1
Layout1
70
0
71
0
10
0.0
20
0.0
11
0.0
21
0.0
12
0.0
22
0.0
32
0.0
14
0.0
24
0.0
34
0.0
15
0.0
25
0.0
35
0.0
146
0.0
13
0.0
23
0.0
33
0.0
16
0.0
26
0.0
36
0.0
17
0.0
27
0.0
37
0.0
76
0
330
1B
331
0
345
0
346
0
0
LAYOUT
5
22
102
{ACAD_REACTORS
330
1A
102
}
100
AcDbPlotSettings
1

2

4

6

40
0.0
41
0.0
42
0.0
43
0.0
44
0.0
45
0.0
46
0.0
47
0.0
48
0.0
49
0.0
140
0.0
141
0.0
142
1.0
143
1.0
70
0
72
0
73
0
74
0
7

75
0
147
1.0
148
0.0
149
0.0
100
AcDbLayout
1
Model
70
0
71
0
10
0.0
20
0.0
11
0.0
21
0.0
12
0.0
22
0.0
32
0.0
14
0.0
24
0.0
34
0.0
15
0.0
25
0.0
35
0.0
146
0.0
13
0.0
23
0.0
33
0.0
16
0.0
26
0.0
36
0.0
17
0.0
27
0.0
37
0.0
76
0
330
1F
331
0
345
0
346
0
0
ENDSEC
0
EOF
