  0
SECTION
  2
HEADER
  9
$ACADVER
  1
AC1024
  9
$DWGCODEPAGE
  3
ANSI_1252
  9
$EXTMAX
 10
297.0
 20
210.0
 30
0.0
  9
$EXTMIN
 10
0.0
 20
0.0
 30
0.0
  9
$LIMMIN
 10
0.0
 20
0.0
  9
$LIMMAX
 10
297.0
 20
210.0
  9
$VIEWCTR
 10
148.5
 20
105.0
  9
$VIEWSIZE
 40
210.0
  9
$CLAYER
  8
0
  9
$LTSCALE
 40
16.335
  9
$CELTYPE
  6
BYLAYER
  9
$DIMSCALE
 40
1.0
  9
$DIMASZ
 40
3.0
  9
$DIMEXO
 40
0.5
  9
$DIMDLI
 40
11.286
  9
$DIMEXE
 40
1.5
  9
$DIMCEN
 40
2.673
  9
$DIMLFAC
 40
1.0
  9
$DIMBLK
  1
_FILLED
  9
$DIMALT
 70
0
  9
$DIMALTF
 40
0.0393700787
  9
$DIMTXT
 40
3.0
  9
$DIMTOL
 70
1
  9
$DIMLIM
 70
0
  9
$DIMTFAC
 40
1.0
  9
$DIMTP
 40
0.01
  9
$DIMTM
 40
0.01
  9
$DIMGAP
 40
0.625
  9
$DIMDSEP
 70
44
  9
$AUNITS
 70
0
  9
$PDMODE
 70
3
  9
$PDSIZE
 40
3.0
  9
$HANDSEED
  5
8C9
  9
$TILEMODE
 70
1
  9
$MEASUREMENT
 70
1
  9
$INSUNITS
 70
4
  0
ENDSEC
  0
SECTION
  2
CLASSES
  0
CLASS
  1
ACDBDICTIONARYWDFLT
  2
AcDbDictionaryWithDefault
  3
AutoCAD 2000
 90
0
 91
1
280
0
281
0
  0
CLASS
  1
ACDBPLACEHOLDER
  2
AcDbPlaceHolder
  3
AutoCAD 2000
 90
0
 91
1
280
0
281
0
  0
CLASS
  1
LAYOUT
  2
AcDbLayout
  3
AutoCAD 2000
 90
0
 91
0
280
0
281
0
  0
ENDSEC
  0
SECTION
  2
TABLES
  0
TABLE
  2
VPORT
  5
8
100
AcDbSymbolTable
 70
2
  0
VPORT
  5
1F4
100
AcDbSymbolTableRecord
100
AcDbViewportTableRecord
  2
*ACTIVE
 70
0
 10
0.0
 20
0.0
 11
1.0
 21
1.0
 12
148.5
 22
105.0
 13
0.0
 23
0.0
 14
1.0
 24
1.0
 15
0.0
 25
0.0
 16
0.0
 26
0.0
 36
1.0
 17
0.0
 27
0.0
 37
0.0
 40
210.0
 41
1.4142857143
 42
50.0
 43
0.0
 44
0.0
 50
0.0
 51
0.0
 71
0
 72
100
 73
1
 74
1
 75
0
 76
0
 77
0
 78
0
  0
ENDTAB
  0
TABLE
  2
LTYPE
  5
5
100
AcDbSymbolTable
 70
6
  0
LTYPE
  5
14
100
AcDbSymbolTableRecord
100
AcDbLinetypeTableRecord
  2
BYBLOCK
 70
0
  3

 72
65
 73
0
 40
0.0
  0
LTYPE
  5
15
100
AcDbSymbolTableRecord
100
AcDbLinetypeTableRecord
  2
BYLAYER
 70
0
  3

 72
65
 73
0
 40
0.0
  0
LTYPE
  5
16
100
AcDbSymbolTableRecord
100
AcDbLinetypeTableRecord
  2
CONTINUOUS
 70
64
  3
Solid line
 72
65
 73
0
 40
0.0
  0
LTYPE
  5
1F5
100
AcDbSymbolTableRecord
100
AcDbLinetypeTableRecord
  2
CENTER
 70
64
  3
____ _ ____ _ ____ _ ____ _ ____ _ ____ _ ____
 72
65
 73
4
 40
0.6
 49
0.375
 74
0
 49
-0.075
 74
0
 49
0.075
 74
0
 49
-0.075
 74
0
  0
LTYPE
  5
1F6
100
AcDbSymbolTableRecord
100
AcDbLinetypeTableRecord
  2
HIDDEN
 70
64
  3
- - - - - - - - - - - - - - - - - - - -
 72
65
 73
2
 40
0.2
 49
0.1
 74
0
 49
-0.1
 74
0
  0
LTYPE
  5
1F7
100
AcDbSymbolTableRecord
100
AcDbLinetypeTableRecord
  2
PHANTOM
 70
64
  3
_____ _ _ _____ _ _ _____ _ _ _____
 72
65
 73
6
 40
0.8
 49
0.45
 74
0
 49
-0.05
 74
0
 49
0.1
 74
0
 49
-0.05
 74
0
 49
0.1
 74
0
 49
-0.05
 74
0
  0
LTYPE
  5
1F8
100
AcDbSymbolTableRecord
100
AcDbLinetypeTableRecord
  2
DOT
 70
64
  3
. . . . . . . . . . . . . . . . . . . .
 72
65
 73
2
 40
0.2
 49
0.1
 74
0
 49
-0.1
 74
0
  0
LTYPE
  5
1F9
100
AcDbSymbolTableRecord
100
AcDbLinetypeTableRecord
  2
DASHED
 70
64
  3
- - - - - - - - - - - - - - - - - - - -
 72
65
 73
2
 40
0.2
 49
0.1
 74
0
 49
-0.1
 74
0
  0
ENDTAB
  0
TABLE
  2
LAYER
  5
2
100
AcDbSymbolTable
 70
36
  0
LAYER
  5
10
100
AcDbSymbolTableRecord
100
AcDbLayerTableRecord
  2
0
 70
0
 62
7
  6
CONTINUOUS
370
-3
390
F
  0
LAYER
  5
1FA
100
AcDbSymbolTableRecord
100
AcDbLayerTableRecord
  2
DEFAULT_1
 70
0
 62
7
  6
CENTER
370
-3
390
F
  0
LAYER
  5
1FB
100
AcDbSymbolTableRecord
100
AcDbLayerTableRecord
  2
DEFAULT_2
 70
0
 62
7
  6
HIDDEN
370
-3
390
F
  0
LAYER
  5
1FC
100
AcDbSymbolTableRecord
100
AcDbLayerTableRecord
  2
DEFAULT_3
 70
0
 62
7
  6
PHANTOM
370
-3
390
F
  0
LAYER
  5
1FD
100
AcDbSymbolTableRecord
100
AcDbLayerTableRecord
  2
ASSI
 70
0
 62
7
  6
CONTINUOUS
370
-3
390
F
  0
LAYER
  5
1FE
100
AcDbSymbolTableRecord
100
AcDbLayerTableRecord
  2
COORDINATE
 70
0
 62
7
  6
CONTINUOUS
370
-3
390
F
  0
LAYER
  5
1FF
100
AcDbSymbolTableRecord
100
AcDbLayerTableRecord
  2
COORD_ORIGINE
 70
0
 62
7
  6
CONTINUOUS
370
-3
390
F
  0
LAYER
  5
200
100
AcDbSymbolTableRecord
100
AcDbLayerTableRecord
  2
COPY_PUBLISH
 70
0
 62
7
  6
CONTINUOUS
370
-3
390
F
  0
LAYER
  5
201
100
AcDbSymbolTableRecord
100
AcDbLayerTableRecord
  2
COSMETIC
 70
0
 62
7
  6
CONTINUOUS
370
-3
390
F
  0
LAYER
  5
202
100
AcDbSymbolTableRecord
100
AcDbLayerTableRecord
  2
COSMETICHE
 70
0
 62
7
  6
CONTINUOUS
370
-3
390
F
  0
LAYER
  5
203
100
AcDbSymbolTableRecord
100
AcDbLayerTableRecord
  2
CURVE
 70
0
 62
7
  6
CONTINUOUS
370
-3
390
F
  0
LAYER
  5
204
100
AcDbSymbolTableRecord
100
AcDbLayerTableRecord
  2
DRAFT
 70
0
 62
7
  6
CONTINUOUS
370
-3
390
F
  0
LAYER
  5
205
100
AcDbSymbolTableRecord
100
AcDbLayerTableRecord
  2
IGES
 70
0
 62
7
  6
CONTINUOUS
370
-3
390
F
  0
LAYER
  5
206
100
AcDbSymbolTableRecord
100
AcDbLayerTableRecord
  2
IMPORT_FEATURES
 70
0
 62
7
  6
CONTINUOUS
370
-3
390
F
  0
LAYER
  5
207
100
AcDbSymbolTableRecord
100
AcDbLayerTableRecord
  2
IMPORT_IGES
 70
0
 62
7
  6
CONTINUOUS
370
-3
390
F
  0
LAYER
  5
208
100
AcDbSymbolTableRecord
100
AcDbLayerTableRecord
  2
INTF_1
 70
0
 62
7
  6
CONTINUOUS
370
-3
390
F
  0
LAYER
  5
209
100
AcDbSymbolTableRecord
100
AcDbLayerTableRecord
  2
INTF_11
 70
0
 62
7
  6
CONTINUOUS
370
-3
390
F
  0
LAYER
  5
20A
100
AcDbSymbolTableRecord
100
AcDbLayerTableRecord
  2
INTF_2
 70
0
 62
7
  6
CONTINUOUS
370
-3
390
F
  0
LAYER
  5
20B
100
AcDbSymbolTableRecord
100
AcDbLayerTableRecord
  2
INTF_8
 70
0
 62
7
  6
CONTINUOUS
370
-3
390
F
  0
LAYER
  5
20C
100
AcDbSymbolTableRecord
100
AcDbLayerTableRecord
  2
NOTE
 70
0
 62
7
  6
CONTINUOUS
370
-3
390
F
  0
LAYER
  5
20D
100
AcDbSymbolTableRecord
100
AcDbLayerTableRecord
  2
PIANI
 70
0
 62
7
  6
CONTINUOUS
370
-3
390
F
  0
LAYER
  5
20E
100
AcDbSymbolTableRecord
100
AcDbLayerTableRecord
  2
PIANI_ORIGINE
 70
0
 62
7
  6
CONTINUOUS
370
-3
390
F
  0
LAYER
  5
20F
100
AcDbSymbolTableRecord
100
AcDbLayerTableRecord
  2
PUNTI
 70
0
 62
7
  6
CONTINUOUS
370
-3
390
F
  0
LAYER
  5
210
100
AcDbSymbolTableRecord
100
AcDbLayerTableRecord
  2
RACCORDO
 70
0
 62
7
  6
CONTINUOUS
370
-3
390
F
  0
LAYER
  5
211
100
AcDbSymbolTableRecord
100
AcDbLayerTableRecord
  2
RGB____0____0____0__
 70
0
 62
7
  6
CONTINUOUS
370
-3
390
F
  0
LAYER
  5
212
100
AcDbSymbolTableRecord
100
AcDbLayerTableRecord
  2
SMUSSO
 70
0
 62
7
  6
CONTINUOUS
370
-3
390
F
  0
LAYER
  5
213
100
AcDbSymbolTableRecord
100
AcDbLayerTableRecord
  2
SNAPLINE
 70
0
 62
7
  6
CONTINUOUS
370
-3
390
F
  0
LAYER
  5
214
100
AcDbSymbolTableRecord
100
AcDbLayerTableRecord
  2
SUPERFICI
 70
0
 62
7
  6
CONTINUOUS
370
-3
390
F
  0
LAYER
  5
215
100
AcDbSymbolTableRecord
100
AcDbLayerTableRecord
  2
TRASH
 70
0
 62
7
  6
CONTINUOUS
370
-3
390
F
  0
LAYER
  5
216
100
AcDbSymbolTableRecord
100
AcDbLayerTableRecord
  2
VARIANTE_COLORE
 70
0
 62
7
  6
CONTINUOUS
370
-3
390
F
  0
LAYER
  5
217
100
AcDbSymbolTableRecord
100
AcDbLayerTableRecord
  2
XSEC_DATUMS
 70
0
 62
7
  6
CONTINUOUS
370
-3
390
F
  0
ENDTAB
  0
TABLE
  2
STYLE
  5
3
100
AcDbSymbolTable
 70
1
  0
STYLE
  5
11
100
AcDbSymbolTableRecord
100
AcDbTextStyleTableRecord
  2
STANDARD
 70
0
 40
0.0
 41
0.8
 50
0.0
 71
0
 42
0.2
  3
txt
  4

  0
STYLE
  5
218
100
AcDbSymbolTableRecord
100
AcDbTextStyleTableRecord
  2
TEXTSTYLE_1
 70
0
 40
0.0
 41
0.8
 50
0.0
 71
0
 42
0.2
  3
gdt
  4

  0
ENDTAB
  0
TABLE
  2
VIEW
  5
6
100
AcDbSymbolTable
 70
0
  0
ENDTAB
  0
TABLE
  2
UCS
  5
7
100
AcDbSymbolTable
 70
0
  0
ENDTAB
  0
TABLE
  2
APPID
  5
9
100
AcDbSymbolTable
 70
1
  0
APPID
  5
219
100
AcDbSymbolTableRecord
100
AcDbRegAppTableRecord
  2
ACAD
 70
0
  0
ENDTAB
  0
TABLE
  2
BLOCK_RECORD
  5
1
100
AcDbSymbolTable
 70
0
  0
BLOCK_RECORD
  5
21A
100
AcDbSymbolTableRecord
100
AcDbBlockTableRecord
  2
*Model_Space
  0
BLOCK_RECORD
  5
21B
100
AcDbSymbolTableRecord
100
AcDbBlockTableRecord
  2
*Paper_Space
  0
BLOCK_RECORD
  5
21C
100
AcDbSymbolTableRecord
100
AcDbBlockTableRecord
  2
_FILLED
  0
ENDTAB
  0
TABLE
  2
DIMSTYLE
  5
A
100
AcDbSymbolTable
 70
1
100
AcDbDimStyleTable
 71
0
  0
DIMSTYLE
105
21D
100
AcDbSymbolTableRecord
100
AcDbDimStyleTableRecord
  2
STANDARD
 70
0
  3

  4

 40
1.0
 41
3.0
 42
0.5
 43
0.38
 44
1.5
 45
0.0
 46
0.0
 47
0.01
 48
0.01
140
3.0
141
0.09
142
0.0
143
25.4
144
1.0
145
0.0
146
1.0
147
0.625
 71
1
 72
0
 73
0
 74
0
 75
0
 76
0
 77
1
 78
8
 79
2
170
0
171
1
172
0
173
0
174
0
175
0
176
0
177
0
178
0
270
2
179
2
271
2
272
2
273
2
274
2
275
0
280
0
281
0
282
0
283
1
284
8
285
0
286
0
287
3
288
0
340
11
278
44
341
21C
342
21C
343
21C
344
21C
  0
ENDTAB
  0
ENDSEC
  0
SECTION
  2
BLOCKS
  0
BLOCK
  5
20
100
AcDbEntity
  8
0
100
AcDbBlockBegin
  2
*Model_Space
 70
0
 10
0.0
 20
0.0
 30
0.0
  3
*Model_Space
  1

  0
ENDBLK
  5
21
100
AcDbEntity
  8
0
100
AcDbBlockEnd
  0
BLOCK
  5
1C
100
AcDbEntity
  8
0
100
AcDbBlockBegin
  2
*Paper_Space
 70
0
 10
0.0
 20
0.0
 30
0.0
  3
*Paper_Space
  1

  0
ENDBLK
  5
1D
100
AcDbEntity
  8
0
100
AcDbBlockEnd
  0
BLOCK
  5
21E
100
AcDbEntity
  8
0
100
AcDbBlockBegin
  2
_FILLED
 70
64
 10
0.0
 20
0.0
  3
_FILLED
  1

  0
SOLID
  5
21F
100
AcDbEntity
  8
0
  6
BYBLOCK
 62
0
100
AcDbTrace
 10
0.0
 20
0.0
 11
-1.0
 21
0.3166666667
 12
-1.0
 22
-0.3166666667
 13
-1.0
 23
-0.3166666667
  0
ENDBLK
  5
220
100
AcDbEntity
  8
0
  6
BYBLOCK
 62
0
100
AcDbBlockEnd
  0
ENDSEC
  0
SECTION
  2
ENTITIES
  0
LINE
  5
221
100
AcDbEntity
  8
DRAFT
100
AcDbLine
 62
7
  6
CONTINUOUS
 10
-3.0
 20
-23.5
 11
-2.7812783412
 21
-23.4563623377
  0
LINE
  5
222
100
AcDbEntity
  8
DRAFT
100
AcDbLine
 62
7
  6
CONTINUOUS
 10
-3.9733373476
 20
-23.5
 11
-3.0
 21
-23.5
  0
LINE
  5
223
100
AcDbEntity
  8
DRAFT
100
AcDbLine
 62
7
  6
CONTINUOUS
 10
3.0
 20
-23.5
 11
3.9733373476
 21
-23.5
  0
LINE
  5
224
100
AcDbEntity
  8
DRAFT
100
AcDbLine
 62
7
  6
CONTINUOUS
 10
-2.7812783412
 20
-23.4563623377
 11
2.7812783412
 21
-23.4563623377
  0
LINE
  5
225
100
AcDbEntity
  8
DRAFT
100
AcDbLine
 62
7
  6
CONTINUOUS
 10
-4.0167310674
 20
-23.4301797403
 11
4.0167310674
 21
-23.4301797403
  0
LINE
  5
226
100
AcDbEntity
  8
DRAFT
100
AcDbLine
 62
7
  6
CONTINUOUS
 10
-10.6503805997
 20
-22.4
 11
-5.55
 21
-22.4
  0
LINE
  5
227
100
AcDbEntity
  8
DRAFT
100
AcDbLine
 62
7
  6
CONTINUOUS
 10
5.55
 20
-22.4
 11
10.6503805997
 21
-22.4
  0
LINE
  5
228
100
AcDbEntity
  8
DRAFT
100
AcDbLine
 62
7
  6
CONTINUOUS
 10
3.0
 20
-23.5
 11
2.7812783412
 21
-23.4563623377
  0
LINE
  5
229
100
AcDbEntity
  8
DRAFT
100
AcDbLine
 62
7
  6
CONTINUOUS
 10
-3.434596365
 20
-21.2139629885
 11
-3.1516814075
 21
-21.199923836
  0
LINE
  5
22A
100
AcDbEntity
  8
DRAFT
100
AcDbLine
 62
7
  6
CONTINUOUS
 10
-3.1
 20
-22.2
 11
-3.0104834329
 21
-22.1955695989
  0
LINE
  5
22B
100
AcDbEntity
  8
DRAFT
100
AcDbLine
 62
7
  6
CONTINUOUS
 10
-2.700388948
 20
-21.1802222394
 11
-3.0984611006
 21
-21.199923836
  0
LINE
  5
22C
100
AcDbEntity
  8
DRAFT
100
AcDbLine
 62
7
  6
CONTINUOUS
 10
3.3821231691
 20
-22.2
 11
-3.3821231691
 21
-22.2
  0
LINE
  5
22D
100
AcDbEntity
  8
DRAFT
100
AcDbLine
 62
7
  6
CONTINUOUS
 10
3.0104834329
 20
-22.1955695989
 11
-3.0104834329
 21
-22.1955695989
  0
LINE
  5
22E
100
AcDbEntity
  8
DRAFT
100
AcDbLine
 62
7
  6
CONTINUOUS
 10
6.9712561167
 20
-21.2139629885
 11
3.434596365
 21
-21.2139629885
  0
LINE
  5
22F
100
AcDbEntity
  8
DRAFT
100
AcDbLine
 62
7
  6
CONTINUOUS
 10
-3.434596365
 20
-21.2139629885
 11
-6.9712561167
 21
-21.2139629885
  0
LINE
  5
230
100
AcDbEntity
  8
DRAFT
100
AcDbLine
 62
7
  6
CONTINUOUS
 10
3.1516814075
 20
-21.199923836
 11
3.0984611006
 21
-21.199923836
  0
LINE
  5
231
100
AcDbEntity
  8
DRAFT
100
AcDbLine
 62
7
  6
CONTINUOUS
 10
-3.0984611006
 20
-21.199923836
 11
-3.1516814075
 21
-21.199923836
  0
LINE
  5
232
100
AcDbEntity
  8
DRAFT
100
AcDbLine
 62
7
  6
CONTINUOUS
 10
6.9587505924
 20
-21.1802222394
 11
2.700388948
 21
-21.1802222394
  0
LINE
  5
233
100
AcDbEntity
  8
DRAFT
100
AcDbLine
 62
7
  6
CONTINUOUS
 10
-2.700388948
 20
-21.1802222394
 11
-6.9587505924
 21
-21.1802222394
  0
LINE
  5
234
100
AcDbEntity
  8
DRAFT
100
AcDbLine
 62
7
  6
CONTINUOUS
 10
-9.65
 20
-20.9
 11
-7.3830351795
 21
-20.9
  0
LINE
  5
235
100
AcDbEntity
  8
DRAFT
100
AcDbLine
 62
7
  6
CONTINUOUS
 10
7.3830351795
 20
-20.9
 11
9.65
 21
-20.9
  0
LINE
  5
236
100
AcDbEntity
  8
DRAFT
100
AcDbLine
 62
7
  6
CONTINUOUS
 10
9.5103594806
 20
-20.7603594806
 11
7.5226756989
 21
-20.7603594806
  0
LINE
  5
237
100
AcDbEntity
  8
DRAFT
100
AcDbLine
 62
7
  6
CONTINUOUS
 10
-7.5226756989
 20
-20.7603594806
 11
-9.5103594806
 21
-20.7603594806
  0
LINE
  5
238
100
AcDbEntity
  8
DRAFT
100
AcDbLine
 62
7
  6
CONTINUOUS
 10
3.0104834329
 20
-22.1955695989
 11
3.1
 21
-22.2
  0
LINE
  5
239
100
AcDbEntity
  8
DRAFT
100
AcDbLine
 62
7
  6
CONTINUOUS
 10
3.0984611006
 20
-21.199923836
 11
2.700388948
 21
-21.1802222394
  0
LINE
  5
23A
100
AcDbEntity
  8
DRAFT
100
AcDbLine
 62
7
  6
CONTINUOUS
 10
3.434596365
 20
-21.2139629885
 11
3.1516814075
 21
-21.199923836
  0
LINE
  5
23B
100
AcDbEntity
  8
DRAFT
100
AcDbLine
 62
7
  6
CONTINUOUS
 10
-7.3830351795
 20
20.9
 11
-7.5226756989
 21
20.7603594806
  0
LWPOLYLINE
  5
23C
100
AcDbEntity
  8
RACCORDO
100
AcDbPolyline
 62
7
  6
CONTINUOUS
 90
18
 70
0
 10
-10.0017927407
 20
18.2307790647
 10
-9.9819535666
 20
18.250575499
 10
-9.9605837291
 20
18.2670930656
 10
-9.937683228
 20
18.2803317644
 10
-9.91279976
 20
18.2903946445
 10
-9.8863856284
 20
18.2971786568
 10
-9.8597977437
 20
18.3003746549
 10
-9.8330135152
 20
18.2998059669
 10
-9.8060555336
 20
18.2956492647
 10
-9.7803484811
 20
18.2881254173
 10
-9.7559583667
 20
18.2770509588
 10
-9.7328191815
 20
18.2626093552
 10
-9.7121575814
 20
18.2455718735
 10
-9.6941109919
 20
18.2258160842
 10
-9.6785419876
 20
18.2034644168
 10
-9.6662649482
 20
18.1796554267
 10
-9.6575513338
 20
18.1547686321
 10
-9.6575274152
 20
18.1546524101
  0
LWPOLYLINE
  5
23D
100
AcDbEntity
  8
RACCORDO
100
AcDbPolyline
 62
250
  6
CONTINUOUS
 90
25
 70
0
 10
7.2687951175
 20
-18.6686618482
 10
7.4977454219
 20
-18.6611606927
 10
7.7256952743
 20
-18.6387015658
 10
7.9516688262
 20
-18.6013844103
 10
8.1746892497
 20
-18.5493754219
 10
8.3938127854
 20
-18.4828995468
 10
8.6081308762
 20
-18.4022330747
 10
8.8167389702
 20
-18.3077124507
 10
9.0187285282
 20
-18.1997452406
 10
9.2132209628
 20
-18.0788000761
 10
9.3993789482
 20
-17.9453991378
 10
9.5764111288
 20
-17.8001111097
 10
9.743562279
 20
-17.6435562057
 10
9.9001166601
 20
-17.4764047996
 10
10.0454040795
 20
-17.2993725077
 10
10.1788045238
 20
-17.1132143059
 10
10.2997493658
 20
-16.9187213824
 10
10.4077162912
 20
-16.7167311812
 10
10.5022365638
 20
-16.508122451
 10
10.5829027331
 20
-16.2938033974
 10
10.6493781936
 20
-16.0746789045
 10
10.7013864085
 20
-15.8516587799
 10
10.738702622
 20
-15.6256872517
 10
10.7611609986
 20
-15.3977407545
 10
10.7686618482
 20
-15.1687951175
  0
LWPOLYLINE
  5
23E
100
AcDbEntity
  8
ASSI
100
AcDbPolyline
 62
250
  6
CONTINUOUS
 90
25
 70
0
 10
7.2687951175
 20
-18.6686618482
 10
7.4977454219
 20
-18.6611606927
 10
7.7256952743
 20
-18.6387015658
 10
7.9516688262
 20
-18.6013844103
 10
8.1746892497
 20
-18.5493754219
 10
8.3938127854
 20
-18.4828995468
 10
8.6081308762
 20
-18.4022330747
 10
8.8167389702
 20
-18.3077124507
 10
9.0187285282
 20
-18.1997452406
 10
9.2132209628
 20
-18.0788000761
 10
9.3993789482
 20
-17.9453991378
 10
9.5764111288
 20
-17.8001111097
 10
9.743562279
 20
-17.6435562057
 10
9.9001166601
 20
-17.4764047996
 10
10.0454040795
 20
-17.2993725077
 10
10.1788045238
 20
-17.1132143059
 10
10.2997493658
 20
-16.9187213824
 10
10.4077162912
 20
-16.7167311812
 10
10.5022365638
 20
-16.508122451
 10
10.5829027331
 20
-16.2938033974
 10
10.6493781936
 20
-16.0746789045
 10
10.7013864085
 20
-15.8516587799
 10
10.738702622
 20
-15.6256872517
 10
10.7611609986
 20
-15.3977407545
 10
10.7686618482
 20
-15.1687951175
  0
LWPOLYLINE
  5
23F
100
AcDbEntity
  8
RACCORDO
100
AcDbPolyline
 62
250
  6
CONTINUOUS
 90
7
 70
0
 10
2.9123401845
 20
-18.81100244
 10
3.0145674512
 20
-18.8084664754
 10
3.0991778797
 20
-18.8058695597
 10
3.1651304508
 20
-18.8032450677
 10
3.212078158
 20
-18.8006041244
 10
3.2403680077
 20
-18.7979356047
 10
3.25
 20
-18.7952395089
  0
LWPOLYLINE
  5
240
100
AcDbEntity
  8
ASSI
100
AcDbPolyline
 62
250
  6
CONTINUOUS
 90
7
 70
0
 10
2.9123401845
 20
-18.81100244
 10
3.0145674512
 20
-18.8084664754
 10
3.0991778797
 20
-18.8058695597
 10
3.1651304508
 20
-18.8032450677
 10
3.212078158
 20
-18.8006041244
 10
3.2403680077
 20
-18.7979356047
 10
3.25
 20
-18.7952395089
  0
LWPOLYLINE
  5
241
100
AcDbEntity
  8
RACCORDO
100
AcDbPolyline
 62
250
  6
CONTINUOUS
 90
3
 70
0
 10
2.5009983742
 20
-18.8182112523
 10
2.6546973352
 20
-18.8158867213
 10
2.9123401845
 20
-18.81100244
  0
LWPOLYLINE
  5
242
100
AcDbEntity
  8
ASSI
100
AcDbPolyline
 62
250
  6
CONTINUOUS
 90
3
 70
0
 10
2.5009983742
 20
-18.8182112523
 10
2.6546973352
 20
-18.8158867213
 10
2.9123401845
 20
-18.81100244
  0
LINE
  5
243
100
AcDbEntity
  8
DRAFT
100
AcDbLine
 62
7
  6
CONTINUOUS
 10
-7.2084845302
 20
-19.9483339502
 11
7.2084845302
 21
-19.9483339502
  0
LINE
  5
244
100
AcDbEntity
  8
DRAFT
100
AcDbLine
 62
7
  6
CONTINUOUS
 10
-7.2084845302
 20
-19.8
 11
7.2084845302
 21
-19.8
  0
LINE
  5
245
100
AcDbEntity
  8
RACCORDO
100
AcDbLine
 62
250
  6
CONTINUOUS
 10
7.2189575692
 20
-19.2
 11
7.5226756989
 21
-19.2
  0
LINE
  5
246
100
AcDbEntity
  8
RACCORDO
100
AcDbLine
 62
250
  6
CONTINUOUS
 10
-7.2189575692
 20
-19.2
 11
-7.5226756989
 21
-19.2
  0
LINE
  5
247
100
AcDbEntity
  8
RACCORDO
100
AcDbLine
 62
7
  6
CONTINUOUS
 10
6.0984926589
 20
-19.1
 11
-6.0984926589
 21
-19.1
  0
LINE
  5
248
100
AcDbEntity
  8
ASSI
100
AcDbLine
 62
7
  6
CONTINUOUS
 10
-7.5001332693
 20
-18.9
 11
-7.0568068837
 21
-18.9
  0
LINE
  5
249
100
AcDbEntity
  8
ASSI
100
AcDbLine
 62
7
  6
CONTINUOUS
 10
7.5001332693
 20
-18.9
 11
7.0568068837
 21
-18.9
  0
LINE
  5
24A
100
AcDbEntity
  8
ASSI
100
AcDbLine
 62
7
  6
CONTINUOUS
 10
-6.3813353714
 20
-18.9
 11
-4.5
 21
-18.9
  0
LINE
  5
24B
100
AcDbEntity
  8
ASSI
100
AcDbLine
 62
7
  6
CONTINUOUS
 10
6.3813353714
 20
-18.9
 11
4.5
 21
-18.9
  0
LINE
  5
24C
100
AcDbEntity
  8
RACCORDO
100
AcDbLine
 62
7
  6
CONTINUOUS
 10
4.5
 20
-18.9
 11
7.5001332693
 21
-18.9
  0
LINE
  5
24D
100
AcDbEntity
  8
RACCORDO
100
AcDbLine
 62
7
  6
CONTINUOUS
 10
-4.5
 20
-18.9
 11
-7.5001332693
 21
-18.9
  0
LINE
  5
24E
100
AcDbEntity
  8
DRAFT
100
AcDbLine
 62
7
  6
CONTINUOUS
 10
-4.5
 20
-18.8834189512
 11
-2.5
 21
-18.8834189512
  0
LINE
  5
24F
100
AcDbEntity
  8
ASSI
100
AcDbLine
 62
7
  6
CONTINUOUS
 10
-4.5
 20
-18.8834189512
 11
-2.5
 21
-18.8834189512
  0
LINE
  5
250
100
AcDbEntity
  8
DRAFT
100
AcDbLine
 62
7
  6
CONTINUOUS
 10
2.5
 20
-18.8834189512
 11
4.5
 21
-18.8834189512
  0
LINE
  5
251
100
AcDbEntity
  8
ASSI
100
AcDbLine
 62
7
  6
CONTINUOUS
 10
2.5
 20
-18.8834189512
 11
4.5
 21
-18.8834189512
  0
LINE
  5
252
100
AcDbEntity
  8
RACCORDO
100
AcDbLine
 62
7
  6
CONTINUOUS
 10
-1.5
 20
-18.8590446123
 11
1.5
 21
-18.8590446123
  0
LINE
  5
253
100
AcDbEntity
  8
ASSI
100
AcDbLine
 62
7
  6
CONTINUOUS
 10
-1.5
 20
-18.8590446123
 11
1.5
 21
-18.8590446123
  0
LINE
  5
254
100
AcDbEntity
  8
RACCORDO
100
AcDbLine
 62
250
  6
CONTINUOUS
 10
-4.7631240238
 20
-18.8300607839
 11
-3.9786292824
 21
-18.8342996373
  0
LINE
  5
255
100
AcDbEntity
  8
ASSI
100
AcDbLine
 62
250
  6
CONTINUOUS
 10
-4.7631240238
 20
-18.8300607839
 11
-3.9786292824
 21
-18.8342996373
  0
LINE
  5
256
100
AcDbEntity
  8
RACCORDO
100
AcDbLine
 62
250
  6
CONTINUOUS
 10
-5.2308434255
 20
-18.8265622987
 11
-4.7631240238
 21
-18.8300607839
  0
LINE
  5
257
100
AcDbEntity
  8
ASSI
100
AcDbLine
 62
250
  6
CONTINUOUS
 10
-5.2308434255
 20
-18.8265622987
 11
-4.7631240238
 21
-18.8300607839
  0
LINE
  5
258
100
AcDbEntity
  8
RACCORDO
100
AcDbLine
 62
250
  6
CONTINUOUS
 10
-5.6450189007
 20
-18.8225976574
 11
-5.2308434255
 21
-18.8265622987
  0
LINE
  5
259
100
AcDbEntity
  8
ASSI
100
AcDbLine
 62
250
  6
CONTINUOUS
 10
-5.6450189007
 20
-18.8225976574
 11
-5.2308434255
 21
-18.8265622987
  0
LINE
  5
25A
100
AcDbEntity
  8
RACCORDO
100
AcDbLine
 62
250
  6
CONTINUOUS
 10
-6.000982313
 20
-18.8182114812
 11
-5.6450189007
 21
-18.8225976574
  0
LINE
  5
25B
100
AcDbEntity
  8
ASSI
100
AcDbLine
 62
250
  6
CONTINUOUS
 10
-6.000982313
 20
-18.8182114812
 11
-5.6450189007
 21
-18.8225976574
  0
LWPOLYLINE
  5
25C
100
AcDbEntity
  8
RACCORDO
100
AcDbPolyline
 62
250
  6
CONTINUOUS
 90
9
 70
0
 10
-6.75
 20
-18.7952395089
 10
-6.7403669614
 20
-18.7979356695
 10
-6.7120759806
 20
-18.80060424
 10
-6.6651270575
 20
-18.8032452204
 10
-6.5991733189
 20
-18.8058697303
 10
-6.514561638
 20
-18.8084666502
 10
-6.4123326349
 20
-18.8110026211
 10
-6.2923170415
 20
-18.8134752539
 10
-6.000982313
 20
-18.8182114812
  0
LWPOLYLINE
  5
25D
100
AcDbEntity
  8
ASSI
100
AcDbPolyline
 62
250
  6
CONTINUOUS
 90
9
 70
0
 10
-6.75
 20
-18.7952395089
 10
-6.7403669614
 20
-18.7979356695
 10
-6.7120759806
 20
-18.80060424
 10
-6.6651270575
 20
-18.8032452204
 10
-6.5991733189
 20
-18.8058697303
 10
-6.514561638
 20
-18.8084666502
 10
-6.4123326349
 20
-18.8110026211
 10
-6.2923170415
 20
-18.8134752539
 10
-6.000982313
 20
-18.8182114812
  0
LWPOLYLINE
  5
25E
100
AcDbEntity
  8
RACCORDO
100
AcDbPolyline
 62
250
  6
CONTINUOUS
 90
9
 70
0
 10
-6.2499999948
 20
-18.2952564655
 10
-6.2415073127
 20
-18.2979549348
 10
-6.2160070576
 20
-18.300625197
 10
-6.1735542153
 20
-18.3032672523
 10
-6.114239053
 20
-18.3058920158
 10
-6.0382610581
 20
-18.3084885723
 10
-5.9460003145
 20
-18.3110241758
 10
-5.8378972062
 20
-18.3134966417
 10
-5.5757558666
 20
-18.3182325228
  0
LWPOLYLINE
  5
25F
100
AcDbEntity
  8
ASSI
100
AcDbPolyline
 62
250
  6
CONTINUOUS
 90
9
 70
0
 10
-6.2499999948
 20
-18.2952564655
 10
-6.2415073127
 20
-18.2979549348
 10
-6.2160070576
 20
-18.300625197
 10
-6.1735542153
 20
-18.3032672523
 10
-6.114239053
 20
-18.3058920158
 10
-6.0382610581
 20
-18.3084885723
 10
-5.9460003145
 20
-18.3110241758
 10
-5.8378972062
 20
-18.3134966417
 10
-5.5757558666
 20
-18.3182325228
  0
LINE
  5
260
100
AcDbEntity
  8
DRAFT
100
AcDbLine
 62
7
  6
CONTINUOUS
 10
-7.3830351795
 20
-20.9
 11
-7.5226756989
 21
-20.7603594806
  0
LWPOLYLINE
  5
261
100
AcDbEntity
  8
RACCORDO
100
AcDbPolyline
 62
7
  6
CONTINUOUS
 90
17
 70
0
 10
-10.0282352926
 20
-18.1797639505
 10
-10.0084115562
 20
-18.1996191174
 10
-9.9870503938
 20
-18.2161913638
 10
-9.9641518054
 20
-18.2294806897
 10
-9.939262672
 20
-18.2395906111
 10
-9.9128361126
 20
-18.2464176121
 10
-9.886231484
 20
-18.2496511448
 10
-9.8594260199
 20
-18.2491143678
 10
-9.8324424866
 20
-18.2449841225
 10
-9.8067085406
 20
-18.2374803858
 10
-9.7822900256
 20
-18.2264191439
 10
-9.7591210978
 20
-18.2119844105
 10
-9.7384318821
 20
-18.1949482035
 10
-9.720360131
 20
-18.1751875753
 10
-9.704768092
 20
-18.1528254734
 10
-9.6924726323
 20
-18.1290027592
 10
-9.6916482577
 20
-18.1266502444
  0
LWPOLYLINE
  5
262
100
AcDbEntity
  8
RACCORDO
100
AcDbPolyline
 62
7
  6
CONTINUOUS
 90
4
 70
0
 10
-11.0542647023
 20
16.8900846806
 10
-11.0224820238
 20
16.9518892587
 10
-10.9847228377
 20
17.0139210044
 10
-10.942245362
 20
17.0734954182
  0
LWPOLYLINE
  5
263
100
AcDbEntity
  8
RACCORDO
100
AcDbPolyline
 62
7
  6
CONTINUOUS
 90
4
 70
0
 10
-10.9697825522
 20
17.0161211149
 10
-11.0119830846
 20
16.9566764582
 10
-11.0494962663
 20
16.8947926683
 10
-11.081095101
 20
16.8330979443
  0
LWPOLYLINE
  5
264
100
AcDbEntity
  8
RACCORDO
100
AcDbPolyline
 62
250
  6
CONTINUOUS
 90
25
 70
0
 10
7.2687951175
 20
-17.6686999252
 10
7.4331475493
 20
-17.6632099343
 10
7.5955118974
 20
-17.6472406956
 10
7.7558881618
 20
-17.620792209
 10
7.9149729791
 20
-17.5836635766
 10
8.0720697128
 20
-17.5360556963
 10
8.2250884532
 20
-17.4785712624
 10
8.3739527448
 20
-17.4110811092
 10
8.5187390432
 20
-17.3337144022
 10
8.6575868052
 20
-17.2474613325
 10
8.7904161069
 20
-17.1522080697
 10
8.9173068721
 20
-17.0480684442
 10
9.0366383295
 20
-16.9363741371
 10
9.1483127501
 20
-16.8170294389
 10
9.2524278627
 20
-16.6901300592
 10
9.3476560821
 20
-16.5572948086
 10
9.433884376
 20
-16.4184434472
 10
9.5112257766
 20
-16.273656215
 10
9.5786917954
 20
-16.124792642
 10
9.6361539725
 20
-15.9717663491
 10
9.6837407678
 20
-15.8146637154
 10
9.7208490716
 20
-15.6556034086
 10
9.7472778475
 20
-15.4952916513
 10
9.763228132
 20
-15.3330222209
 10
9.7686999252
 20
-15.1687951175
  0
LWPOLYLINE
  5
265
100
AcDbEntity
  8
ASSI
100
AcDbPolyline
 62
250
  6
CONTINUOUS
 90
25
 70
0
 10
7.2687951175
 20
-17.6686999252
 10
7.4331475493
 20
-17.6632099343
 10
7.5955118974
 20
-17.6472406956
 10
7.7558881618
 20
-17.620792209
 10
7.9149729791
 20
-17.5836635766
 10
8.0720697128
 20
-17.5360556963
 10
8.2250884532
 20
-17.4785712624
 10
8.3739527448
 20
-17.4110811092
 10
8.5187390432
 20
-17.3337144022
 10
8.6575868052
 20
-17.2474613325
 10
8.7904161069
 20
-17.1522080697
 10
8.9173068721
 20
-17.0480684442
 10
9.0366383295
 20
-16.9363741371
 10
9.1483127501
 20
-16.8170294389
 10
9.2524278627
 20
-16.6901300592
 10
9.3476560821
 20
-16.5572948086
 10
9.433884376
 20
-16.4184434472
 10
9.5112257766
 20
-16.273656215
 10
9.5786917954
 20
-16.124792642
 10
9.6361539725
 20
-15.9717663491
 10
9.6837407678
 20
-15.8146637154
 10
9.7208490716
 20
-15.6556034086
 10
9.7472778475
 20
-15.4952916513
 10
9.763228132
 20
-15.3330222209
 10
9.7686999252
 20
-15.1687951175
  0
LWPOLYLINE
  5
266
100
AcDbEntity
  8
RACCORDO
100
AcDbPolyline
 62
250
  6
CONTINUOUS
 90
7
 70
0
 10
2.4459986103
 20
-18.3110242161
 10
2.5382592546
 20
-18.308488625
 10
2.6142374141
 20
-18.3058920772
 10
2.6735531221
 20
-18.3032673075
 10
2.7160066541
 20
-18.3006252274
 10
2.741507369
 20
-18.2979549253
 10
2.7499999945
 20
-18.2952564013
  0
LWPOLYLINE
  5
267
100
AcDbEntity
  8
ASSI
100
AcDbPolyline
 62
250
  6
CONTINUOUS
 90
7
 70
0
 10
2.4459986103
 20
-18.3110242161
 10
2.5382592546
 20
-18.308488625
 10
2.6142374141
 20
-18.3058920772
 10
2.6735531221
 20
-18.3032673075
 10
2.7160066541
 20
-18.3006252274
 10
2.741507369
 20
-18.2979549253
 10
2.7499999945
 20
-18.2952564013
  0
LINE
  5
268
100
AcDbEntity
  8
RACCORDO
100
AcDbLine
 62
250
  6
CONTINUOUS
 10
2.2143372896
 20
-18.3159081607
 11
2.4459986103
 21
-18.3110242161
  0
LINE
  5
269
100
AcDbEntity
  8
ASSI
100
AcDbLine
 62
250
  6
CONTINUOUS
 10
2.2143372896
 20
-18.3159081607
 11
2.4459986103
 21
-18.3110242161
  0
LINE
  5
26A
100
AcDbEntity
  8
RACCORDO
100
AcDbLine
 62
250
  6
CONTINUOUS
 10
1.9226697229
 20
-18.3204689879
 11
2.2143372896
 21
-18.3159081607
  0
LINE
  5
26B
100
AcDbEntity
  8
ASSI
100
AcDbLine
 62
250
  6
CONTINUOUS
 10
1.9226697229
 20
-18.3204689879
 11
2.2143372896
 21
-18.3159081607
  0
LINE
  5
26C
100
AcDbEntity
  8
RACCORDO
100
AcDbLine
 62
250
  6
CONTINUOUS
 10
2.1450394157
 20
-18.8225974315
 11
2.5009983742
 21
-18.8182112523
  0
LINE
  5
26D
100
AcDbEntity
  8
ASSI
100
AcDbLine
 62
250
  6
CONTINUOUS
 10
2.1450394157
 20
-18.8225974315
 11
2.5009983742
 21
-18.8182112523
  0
LINE
  5
26E
100
AcDbEntity
  8
RACCORDO
100
AcDbLine
 62
250
  6
CONTINUOUS
 10
1.5753742812
 20
-18.3246565596
 11
1.9226697229
 21
-18.3204689879
  0
LINE
  5
26F
100
AcDbEntity
  8
ASSI
100
AcDbLine
 62
250
  6
CONTINUOUS
 10
1.5753742812
 20
-18.3246565596
 11
1.9226697229
 21
-18.3204689879
  0
LINE
  5
270
100
AcDbEntity
  8
RACCORDO
100
AcDbLine
 62
250
  6
CONTINUOUS
 10
1.730868102
 20
-18.8265620871
 11
2.1450394157
 21
-18.8225974315
  0
LINE
  5
271
100
AcDbEntity
  8
ASSI
100
AcDbLine
 62
250
  6
CONTINUOUS
 10
1.730868102
 20
-18.8265620871
 11
2.1450394157
 21
-18.8225974315
  0
LINE
  5
272
100
AcDbEntity
  8
RACCORDO
100
AcDbLine
 62
250
  6
CONTINUOUS
 10
1.1776143763
 20
-18.3283975557
 11
1.5753742812
 21
-18.3246565596
  0
LINE
  5
273
100
AcDbEntity
  8
ASSI
100
AcDbLine
 62
250
  6
CONTINUOUS
 10
1.1776143763
 20
-18.3283975557
 11
1.5753742812
 21
-18.3246565596
  0
LINE
  5
274
100
AcDbEntity
  8
RACCORDO
100
AcDbLine
 62
250
  6
CONTINUOUS
 10
1.2631528191
 20
-18.8300605925
 11
1.730868102
 21
-18.8265620871
  0
LINE
  5
275
100
AcDbEntity
  8
ASSI
100
AcDbLine
 62
250
  6
CONTINUOUS
 10
1.2631528191
 20
-18.8300605925
 11
1.730868102
 21
-18.8265620871
  0
LINE
  5
276
100
AcDbEntity
  8
RACCORDO
100
AcDbLine
 62
250
  6
CONTINUOUS
 10
0.7354718649
 20
-18.3316306555
 11
1.1776143763
 21
-18.3283975557
  0
LINE
  5
277
100
AcDbEntity
  8
ASSI
100
AcDbLine
 62
250
  6
CONTINUOUS
 10
0.7354718649
 20
-18.3316306555
 11
1.1776143763
 21
-18.3283975557
  0
LINE
  5
278
100
AcDbEntity
  8
RACCORDO
100
AcDbLine
 62
250
  6
CONTINUOUS
 10
0.7495797656
 20
-18.8330289771
 11
1.2631528191
 21
-18.8300605925
  0
LINE
  5
279
100
AcDbEntity
  8
ASSI
100
AcDbLine
 62
250
  6
CONTINUOUS
 10
0.7495797656
 20
-18.8330289771
 11
1.2631528191
 21
-18.8300605925
  0
LINE
  5
27A
100
AcDbEntity
  8
RACCORDO
100
AcDbLine
 62
250
  6
CONTINUOUS
 10
0.2556652745
 20
-18.3343191596
 11
0.7354718649
 21
-18.3316306555
  0
LINE
  5
27B
100
AcDbEntity
  8
ASSI
100
AcDbLine
 62
250
  6
CONTINUOUS
 10
0.2556652745
 20
-18.3343191596
 11
0.7354718649
 21
-18.3316306555
  0
LINE
  5
27C
100
AcDbEntity
  8
RACCORDO
100
AcDbLine
 62
250
  6
CONTINUOUS
 10
-0.0886344153
 20
-18.8363936973
 11
0.7495797656
 21
-18.8330289771
  0
LINE
  5
27D
100
AcDbEntity
  8
ASSI
100
AcDbLine
 62
250
  6
CONTINUOUS
 10
-0.0886344153
 20
-18.8363936973
 11
0.7495797656
 21
-18.8330289771
  0
LINE
  5
27E
100
AcDbEntity
  8
RACCORDO
100
AcDbLine
 62
250
  6
CONTINUOUS
 10
-0.5186072468
 20
-18.3372274213
 11
0.2556652745
 21
-18.3343191596
  0
LINE
  5
27F
100
AcDbEntity
  8
ASSI
100
AcDbLine
 62
250
  6
CONTINUOUS
 10
-0.5186072468
 20
-18.3372274213
 11
0.2556652745
 21
-18.3343191596
  0
LINE
  5
280
100
AcDbEntity
  8
RACCORDO
100
AcDbLine
 62
250
  6
CONTINUOUS
 10
-0.9834350175
 20
-18.8383570313
 11
-0.0886344153
 21
-18.8363936973
  0
LINE
  5
281
100
AcDbEntity
  8
ASSI
100
AcDbLine
 62
250
  6
CONTINUOUS
 10
-0.9834350175
 20
-18.8383570313
 11
-0.0886344153
 21
-18.8363936973
  0
LINE
  5
282
100
AcDbEntity
  8
RACCORDO
100
AcDbLine
 62
250
  6
CONTINUOUS
 10
-1.3348304556
 20
-18.3387067836
 11
-0.5186072468
 21
-18.3372274213
  0
LINE
  5
283
100
AcDbEntity
  8
ASSI
100
AcDbLine
 62
250
  6
CONTINUOUS
 10
-1.3348304556
 20
-18.3387067836
 11
-0.5186072468
 21
-18.3372274213
  0
LINE
  5
284
100
AcDbEntity
  8
RACCORDO
100
AcDbLine
 62
250
  6
CONTINUOUS
 10
-1.9043347875
 20
-18.8388521216
 11
-0.9834350175
 21
-18.8383570313
  0
LINE
  5
285
100
AcDbEntity
  8
ASSI
100
AcDbLine
 62
250
  6
CONTINUOUS
 10
-1.9043347875
 20
-18.8388521216
 11
-0.9834350175
 21
-18.8383570313
  0
LINE
  5
286
100
AcDbEntity
  8
RACCORDO
100
AcDbLine
 62
250
  6
CONTINUOUS
 10
-7.2687951175
 20
-18.6686618482
 11
-6.75
 21
-18.6686618482
  0
LINE
  5
287
100
AcDbEntity
  8
ASSI
100
AcDbLine
 62
250
  6
CONTINUOUS
 10
-7.2687951175
 20
-18.6686618482
 11
-6.75
 21
-18.6686618482
  0
LINE
  5
288
100
AcDbEntity
  8
RACCORDO
100
AcDbLine
 62
250
  6
CONTINUOUS
 10
3.25
 20
-18.6686618482
 11
7.2687951175
 21
-18.6686618482
  0
LINE
  5
289
100
AcDbEntity
  8
ASSI
100
AcDbLine
 62
250
  6
CONTINUOUS
 10
3.25
 20
-18.6686618482
 11
7.2687951175
 21
-18.6686618482
  0
LINE
  5
28A
100
AcDbEntity
  8
ASSI
100
AcDbLine
 62
7
  6
CONTINUOUS
 10
2.75
 20
-17.8
 11
-6.25
 21
-17.8
  0
LINE
  5
28B
100
AcDbEntity
  8
RACCORDO
100
AcDbLine
 62
7
  6
CONTINUOUS
 10
-4.25
 20
-17.6778145455
 11
0.75
 21
-17.6778145455
  0
LINE
  5
28C
100
AcDbEntity
  8
ASSI
100
AcDbLine
 62
7
  6
CONTINUOUS
 10
-4.25
 20
-17.6778145455
 11
0.75
 21
-17.6778145455
  0
LINE
  5
28D
100
AcDbEntity
  8
RACCORDO
100
AcDbLine
 62
250
  6
CONTINUOUS
 10
2.75
 20
-17.6686999252
 11
7.2687951175
 21
-17.6686999252
  0
LINE
  5
28E
100
AcDbEntity
  8
ASSI
100
AcDbLine
 62
250
  6
CONTINUOUS
 10
2.75
 20
-17.6686999252
 11
7.2687951175
 21
-17.6686999252
  0
LINE
  5
28F
100
AcDbEntity
  8
RACCORDO
100
AcDbLine
 62
250
  6
CONTINUOUS
 10
-6.25
 20
-17.6686999252
 11
-7.2687951175
 21
-17.6686999252
  0
LINE
  5
290
100
AcDbEntity
  8
ASSI
100
AcDbLine
 62
250
  6
CONTINUOUS
 10
-6.25
 20
-17.6686999252
 11
-7.2687951175
 21
-17.6686999252
  0
LINE
  5
291
100
AcDbEntity
  8
RACCORDO
100
AcDbLine
 62
250
  6
CONTINUOUS
 10
2.75
 20
-17.5065416662
 11
-6.25
 21
-17.5065416662
  0
LINE
  5
292
100
AcDbEntity
  8
ASSI
100
AcDbLine
 62
250
  6
CONTINUOUS
 10
2.75
 20
-17.5065416662
 11
-6.25
 21
-17.5065416662
  0
LINE
  5
293
100
AcDbEntity
  8
RACCORDO
100
AcDbLine
 62
250
  6
CONTINUOUS
 10
-2.1651691409
 20
-18.3387067844
 11
-1.3348304556
 21
-18.3387067836
  0
LINE
  5
294
100
AcDbEntity
  8
ASSI
100
AcDbLine
 62
250
  6
CONTINUOUS
 10
-2.1651691409
 20
-18.3387067844
 11
-1.3348304556
 21
-18.3387067836
  0
LINE
  5
295
100
AcDbEntity
  8
RACCORDO
100
AcDbLine
 62
250
  6
CONTINUOUS
 10
-2.8199907373
 20
-18.8378620482
 11
-1.9043347875
 21
-18.8388521216
  0
LINE
  5
296
100
AcDbEntity
  8
ASSI
100
AcDbLine
 62
250
  6
CONTINUOUS
 10
-2.8199907373
 20
-18.8378620482
 11
-1.9043347875
 21
-18.8388521216
  0
LINE
  5
297
100
AcDbEntity
  8
RACCORDO
100
AcDbLine
 62
250
  6
CONTINUOUS
 10
-2.9813923359
 20
-18.3372274236
 11
-2.1651691409
 21
-18.3387067844
  0
LINE
  5
298
100
AcDbEntity
  8
ASSI
100
AcDbLine
 62
250
  6
CONTINUOUS
 10
-2.9813923359
 20
-18.3372274236
 11
-2.1651691409
 21
-18.3387067844
  0
LWPOLYLINE
  5
299
100
AcDbEntity
  8
RACCORDO
100
AcDbPolyline
 62
250
  6
CONTINUOUS
 90
3
 70
0
 10
-3.9786292824
 20
-18.8342996373
 10
-3.6991919748
 20
-18.8354206319
 10
-2.8199907373
 20
-18.8378620482
  0
LWPOLYLINE
  5
29A
100
AcDbEntity
  8
ASSI
100
AcDbPolyline
 62
250
  6
CONTINUOUS
 90
3
 70
0
 10
-3.9786292824
 20
-18.8342996373
 10
-3.6991919748
 20
-18.8354206319
 10
-2.8199907373
 20
-18.8378620482
  0
LINE
  5
29B
100
AcDbEntity
  8
RACCORDO
100
AcDbLine
 62
250
  6
CONTINUOUS
 10
-3.7556648807
 20
-18.3343191633
 11
-2.9813923359
 21
-18.3372274236
  0
LINE
  5
29C
100
AcDbEntity
  8
ASSI
100
AcDbLine
 62
250
  6
CONTINUOUS
 10
-3.7556648807
 20
-18.3343191633
 11
-2.9813923359
 21
-18.3372274236
  0
LINE
  5
29D
100
AcDbEntity
  8
RACCORDO
100
AcDbLine
 62
250
  6
CONTINUOUS
 10
-4.4616836033
 20
-18.330080756
 11
-3.7556648807
 21
-18.3343191633
  0
LINE
  5
29E
100
AcDbEntity
  8
ASSI
100
AcDbLine
 62
250
  6
CONTINUOUS
 10
-4.4616836033
 20
-18.330080756
 11
-3.7556648807
 21
-18.3343191633
  0
LINE
  5
29F
100
AcDbEntity
  8
RACCORDO
100
AcDbLine
 62
250
  6
CONTINUOUS
 10
-4.882440243
 20
-18.3265826116
 11
-4.4616836033
 21
-18.330080756
  0
LINE
  5
2A0
100
AcDbEntity
  8
ASSI
100
AcDbLine
 62
250
  6
CONTINUOUS
 10
-4.882440243
 20
-18.3265826116
 11
-4.4616836033
 21
-18.330080756
  0
LINE
  5
2A1
100
AcDbEntity
  8
RACCORDO
100
AcDbLine
 62
250
  6
CONTINUOUS
 10
-5.2556723866
 20
-18.322618331
 11
-4.882440243
 21
-18.3265826116
  0
LINE
  5
2A2
100
AcDbEntity
  8
ASSI
100
AcDbLine
 62
250
  6
CONTINUOUS
 10
-5.2556723866
 20
-18.322618331
 11
-4.882440243
 21
-18.3265826116
  0
LINE
  5
2A3
100
AcDbEntity
  8
RACCORDO
100
AcDbLine
 62
250
  6
CONTINUOUS
 10
-5.5757558666
 20
-18.3182325228
 11
-5.2556723866
 21
-18.322618331
  0
LINE
  5
2A4
100
AcDbEntity
  8
ASSI
100
AcDbLine
 62
250
  6
CONTINUOUS
 10
-5.5757558666
 20
-18.3182325228
 11
-5.2556723866
 21
-18.322618331
  0
LWPOLYLINE
  5
2A5
100
AcDbEntity
  8
RACCORDO
100
AcDbPolyline
 62
7
  6
CONTINUOUS
 90
4
 70
0
 10
-10.942245362
 20
-17.0734954182
 10
-10.9847228377
 20
-17.0139210044
 10
-11.0224820238
 20
-16.9518892587
 10
-11.0542647023
 20
-16.8900846805
  0
LWPOLYLINE
  5
2A6
100
AcDbEntity
  8
RACCORDO
100
AcDbPolyline
 62
7
  6
CONTINUOUS
 90
4
 70
0
 10
-11.0810951008
 20
-16.8330979441
 10
-11.0494962188
 20
-16.8947927468
 10
-11.0119829656
 20
-16.9566766545
 10
-10.969782338
 20
-17.0161214681
  0
LWPOLYLINE
  5
2A7
100
AcDbEntity
  8
RACCORDO
100
AcDbPolyline
 62
7
  6
CONTINUOUS
 90
7
 70
0
 10
-11.081095101
 20
16.8330979443
 10
-11.1106331752
 20
16.7631944107
 10
-11.1342569023
 20
16.6934799429
 10
-11.1526754872
 20
16.6228661767
 10
-11.1657163328
 20
16.5518663904
 10
-11.1735520362
 20
16.4799673056
 10
-11.1761825974
 20
16.4071689224
  0
LWPOLYLINE
  5
2A8
100
AcDbEntity
  8
RACCORDO
100
AcDbPolyline
 62
7
  6
CONTINUOUS
 90
14
 70
0
 10
-6.5249623027
 20
17.0750410873
 10
-6.4865061398
 20
17.1220122515
 10
-6.4507686235
 20
17.1663251324
 10
-6.4176281562
 20
17.2079217154
 10
-6.3872834775
 20
17.2469944247
 10
-6.3597227863
 20
17.2834563923
 10
-6.3349578837
 20
17.3171997291
 10
-6.3132229119
 20
17.3483390026
 10
-6.2944814705
 20
17.3768174722
 10
-6.27876996
 20
17.402535797
 10
-6.2664317233
 20
17.4255075317
 10
-6.2575812083
 20
17.4456927549
 10
-6.2521039672
 20
17.4630231705
 10
-6.25
 20
17.4774686728
  0
LWPOLYLINE
  5
2A9
100
AcDbEntity
  8
ASSI
100
AcDbPolyline
 62
7
  6
CONTINUOUS
 90
14
 70
0
 10
-6.5249623027
 20
17.0750410873
 10
-6.4865061398
 20
17.1220122515
 10
-6.4507686235
 20
17.1663251324
 10
-6.4176281562
 20
17.2079217154
 10
-6.3872834775
 20
17.2469944247
 10
-6.3597227863
 20
17.2834563923
 10
-6.3349578837
 20
17.3171997291
 10
-6.3132229119
 20
17.3483390026
 10
-6.2944814705
 20
17.3768174722
 10
-6.27876996
 20
17.402535797
 10
-6.2664317233
 20
17.4255075317
 10
-6.2575812083
 20
17.4456927549
 10
-6.2521039672
 20
17.4630231705
 10
-6.25
 20
17.4774686728
  0
LWPOLYLINE
  5
2AA
100
AcDbEntity
  8
RACCORDO
100
AcDbPolyline
 62
7
  6
CONTINUOUS
 90
4
 70
0
 10
-6.75
 20
16.8066482796
 10
-6.7010005642
 20
16.86403264
 10
-6.6540346454
 20
16.9198763003
 10
-6.5249623027
 20
17.0750410873
  0
LWPOLYLINE
  5
2AB
100
AcDbEntity
  8
ASSI
100
AcDbPolyline
 62
7
  6
CONTINUOUS
 90
4
 70
0
 10
-6.75
 20
16.8066482796
 10
-6.7010005642
 20
16.86403264
 10
-6.6540346454
 20
16.9198763003
 10
-6.5249623027
 20
17.0750410873
  0
LWPOLYLINE
  5
2AC
100
AcDbEntity
  8
0
100
AcDbPolyline
 62
7
  6
CONTINUOUS
 90
19
 70
0
 10
-7.9406705667
 20
-15.798679726
 10
-7.8821105783
 20
-15.7978733124
 10
-7.8252925739
 20
-15.79337187
 10
-7.7702165532
 20
-15.7851753989
 10
-7.7165954667
 20
-15.773358203
 10
-7.664716364
 20
-15.7578459784
 10
-7.6154403941
 20
-15.7384158133
 10
-7.5685620406
 20
-15.7146861604
 10
-7.5242868199
 20
-15.6870385669
 10
-7.4840924304
 20
-15.6563947633
 10
-7.4483708901
 20
-15.6226559066
 10
-7.416730181
 20
-15.5859208398
 10
-7.3894719479
 20
-15.5474078229
 10
-7.3668340295
 20
-15.5078601078
 10
-7.348578587
 20
-15.4665344427
 10
-7.33429375
 20
-15.4224193322
 10
-7.323842228
 20
-15.3751776113
 10
-7.3173613113
 20
-15.325146445
 10
-7.314851
 20
-15.2723258333
  0
LWPOLYLINE
  5
2AD
100
AcDbEntity
  8
ASSI
100
AcDbPolyline
 62
7
  6
CONTINUOUS
 90
19
 70
0
 10
-7.9406705667
 20
-15.798679726
 10
-7.8821105783
 20
-15.7978733124
 10
-7.8252925739
 20
-15.79337187
 10
-7.7702165532
 20
-15.7851753989
 10
-7.7165954667
 20
-15.773358203
 10
-7.664716364
 20
-15.7578459784
 10
-7.6154403941
 20
-15.7384158133
 10
-7.5685620406
 20
-15.7146861604
 10
-7.5242868199
 20
-15.6870385669
 10
-7.4840924304
 20
-15.6563947633
 10
-7.4483708901
 20
-15.6226559066
 10
-7.416730181
 20
-15.5859208398
 10
-7.3894719479
 20
-15.5474078229
 10
-7.3668340295
 20
-15.5078601078
 10
-7.348578587
 20
-15.4665344427
 10
-7.33429375
 20
-15.4224193322
 10
-7.323842228
 20
-15.3751776113
 10
-7.3173613113
 20
-15.325146445
 10
-7.314851
 20
-15.2723258333
  0
LINE
  5
2AE
100
AcDbEntity
  8
RACCORDO
100
AcDbLine
 62
250
  6
CONTINUOUS
 10
3.25
 20
-16.8066482796
 11
-6.75
 21
-16.8066482796
  0
LINE
  5
2AF
100
AcDbEntity
  8
ASSI
100
AcDbLine
 62
250
  6
CONTINUOUS
 10
3.25
 20
-16.8066482796
 11
-6.75
 21
-16.8066482796
  0
LINE
  5
2B0
100
AcDbEntity
  8
0
100
AcDbLine
 62
7
  6
CONTINUOUS
 10
-8.56649
 20
-16.21535
 11
-8.381675
 21
-16.21535
  0
LINE
  5
2B1
100
AcDbEntity
  8
ASSI
100
AcDbLine
 62
7
  6
CONTINUOUS
 10
-8.56649
 20
-16.21535
 11
-8.381675
 21
-16.21535
  0
LINE
  5
2B2
100
AcDbEntity
  8
0
100
AcDbLine
 62
7
  6
CONTINUOUS
 10
-6.685149
 20
-16.135032
 11
-6.500336
 21
-16.135032
  0
LINE
  5
2B3
100
AcDbEntity
  8
ASSI
100
AcDbLine
 62
7
  6
CONTINUOUS
 10
-6.685149
 20
-16.135032
 11
-6.500336
 21
-16.135032
  0
LINE
  5
2B4
100
AcDbEntity
  8
0
100
AcDbLine
 62
7
  6
CONTINUOUS
 10
-8.381675
 20
-16.034031
 11
-8.56649
 21
-16.034031
  0
LINE
  5
2B5
100
AcDbEntity
  8
ASSI
100
AcDbLine
 62
7
  6
CONTINUOUS
 10
-8.381675
 20
-16.034031
 11
-8.56649
 21
-16.034031
  0
LINE
  5
2B6
100
AcDbEntity
  8
0
100
AcDbLine
 62
7
  6
CONTINUOUS
 10
-6.500336
 20
-15.953614
 11
-6.685149
 21
-15.953614
  0
LINE
  5
2B7
100
AcDbEntity
  8
ASSI
100
AcDbLine
 62
7
  6
CONTINUOUS
 10
-6.500336
 20
-15.953614
 11
-6.685149
 21
-15.953614
  0
LWPOLYLINE
  5
2B8
100
AcDbEntity
  8
0
100
AcDbPolyline
 62
7
  6
CONTINUOUS
 90
19
 70
0
 10
-7.9406705667
 20
-15.6242832751
 10
-7.98783709
 20
-15.6231363734
 10
-8.0329625128
 20
-15.6198202588
 10
-8.0760468349
 20
-15.6143349315
 10
-8.1170751574
 20
-15.6068236837
 10
-8.1560623793
 20
-15.5971432231
 10
-8.1930531973
 20
-15.584863673
 10
-8.2284249866
 20
-15.5697727079
 10
-8.261800372
 20
-15.5520826533
 10
-8.2920919248
 20
-15.5320006088
 10
-8.3189759893
 20
-15.5095208053
 10
-8.3427762211
 20
-15.484649012
 10
-8.3633761578
 20
-15.4576096364
 10
-8.3806543362
 20
-15.4285082572
 10
-8.3947322194
 20
-15.3972392958
 10
-8.4058577347
 20
-15.3637104234
 10
-8.4141135244
 20
-15.3278908637
 10
-8.4194169462
 20
-15.289811393
 10
-8.421768
 20
-15.2494720112
  0
LWPOLYLINE
  5
2B9
100
AcDbEntity
  8
ASSI
100
AcDbPolyline
 62
7
  6
CONTINUOUS
 90
19
 70
0
 10
-7.9406705667
 20
-15.6242832751
 10
-7.98783709
 20
-15.6231363734
 10
-8.0329625128
 20
-15.6198202588
 10
-8.0760468349
 20
-15.6143349315
 10
-8.1170751574
 20
-15.6068236837
 10
-8.1560623793
 20
-15.5971432231
 10
-8.1930531973
 20
-15.584863673
 10
-8.2284249866
 20
-15.5697727079
 10
-8.261800372
 20
-15.5520826533
 10
-8.2920919248
 20
-15.5320006088
 10
-8.3189759893
 20
-15.5095208053
 10
-8.3427762211
 20
-15.484649012
 10
-8.3633761578
 20
-15.4576096364
 10
-8.3806543362
 20
-15.4285082572
 10
-8.3947322194
 20
-15.3972392958
 10
-8.4058577347
 20
-15.3637104234
 10
-8.4141135244
 20
-15.3278908637
 10
-8.4194169462
 20
-15.289811393
 10
-8.421768
 20
-15.2494720112
  0
LINE
  5
2BA
100
AcDbEntity
  8
0
100
AcDbLine
 62
7
  6
CONTINUOUS
 10
-5.43351
 20
-15.577104
 11
-6.505387
 21
-15.221542
  0
LINE
  5
2BB
100
AcDbEntity
  8
ASSI
100
AcDbLine
 62
7
  6
CONTINUOUS
 10
-5.43351
 20
-15.577104
 11
-6.505387
 21
-15.221542
  0
LINE
  5
2BC
100
AcDbEntity
  8
0
100
AcDbLine
 62
7
  6
CONTINUOUS
 10
-6.685149
 20
-15.310575
 11
-5.43351
 21
-15.767274
  0
LINE
  5
2BD
100
AcDbEntity
  8
ASSI
100
AcDbLine
 62
7
  6
CONTINUOUS
 10
-6.685149
 20
-15.310575
 11
-5.43351
 21
-15.767274
  0
LWPOLYLINE
  5
2BE
100
AcDbEntity
  8
RACCORDO
100
AcDbPolyline
 62
7
  6
CONTINUOUS
 90
3
 70
0
 10
-6.6535142876
 20
-16.9204908982
 10
-6.7007188051
 20
-16.8643609376
 10
-6.75
 20
-16.8066482796
  0
LWPOLYLINE
  5
2BF
100
AcDbEntity
  8
ASSI
100
AcDbPolyline
 62
7
  6
CONTINUOUS
 90
3
 70
0
 10
-6.6535142876
 20
-16.9204908982
 10
-6.7007188051
 20
-16.8643609376
 10
-6.75
 20
-16.8066482796
  0
LINE
  5
2C0
100
AcDbEntity
  8
CURVE
100
AcDbLine
 62
250
  6
CONTINUOUS
 10
10.9221912685
 20
-15.2714287043
 11
10.918139817
 21
-15.2714287043
  0
LINE
  5
2C1
100
AcDbEntity
  8
CURVE
100
AcDbLine
 62
250
  6
CONTINUOUS
 10
10.9270530104
 20
-15.2404761314
 11
10.9246221393
 21
-15.2404761314
  0
LINE
  5
2C2
100
AcDbEntity
  8
RACCORDO
100
AcDbLine
 62
250
  6
CONTINUOUS
 10
9.7686999252
 20
-15.1687951175
 11
10.7686618482
 21
-15.1687951175
  0
LINE
  5
2C3
100
AcDbEntity
  8
ASSI
100
AcDbLine
 62
250
  6
CONTINUOUS
 10
9.7686999252
 20
-15.1687951175
 11
10.7686618482
 21
-15.1687951175
  0
LINE
  5
2C4
100
AcDbEntity
  8
RACCORDO
100
AcDbLine
 62
250
  6
CONTINUOUS
 10
-9.7686999252
 20
-15.1687951175
 11
-10.7686618482
 21
-15.1687951167
  0
LINE
  5
2C5
100
AcDbEntity
  8
ASSI
100
AcDbLine
 62
250
  6
CONTINUOUS
 10
-9.7686999252
 20
-15.1687951175
 11
-10.7686618482
 21
-15.1687951167
  0
LINE
  5
2C6
100
AcDbEntity
  8
0
100
AcDbLine
 62
7
  6
CONTINUOUS
 10
-8.421768
 20
-14.934126
 11
-7.459572
 21
-14.934126
  0
LINE
  5
2C7
100
AcDbEntity
  8
ASSI
100
AcDbLine
 62
7
  6
CONTINUOUS
 10
-8.421768
 20
-14.934126
 11
-7.459572
 21
-14.934126
  0
LINE
  5
2C8
100
AcDbEntity
  8
0
100
AcDbLine
 62
7
  6
CONTINUOUS
 10
-1.4
 20
-14.8414183919
 11
-2.1
 21
-14.8414183919
  0
LINE
  5
2C9
100
AcDbEntity
  8
0
100
AcDbLine
 62
7
  6
CONTINUOUS
 10
-7.314851
 20
-14.765027
 11
-8.56649
 21
-14.765027
  0
LINE
  5
2CA
100
AcDbEntity
  8
ASSI
100
AcDbLine
 62
7
  6
CONTINUOUS
 10
-7.314851
 20
-14.765027
 11
-8.56649
 21
-14.765027
  0
LINE
  5
2CB
100
AcDbEntity
  8
0
100
AcDbLine
 62
7
  6
CONTINUOUS
 10
-6.685149
 20
-14.550419
 11
-6.535149
 21
-14.550419
  0
LINE
  5
2CC
100
AcDbEntity
  8
ASSI
100
AcDbLine
 62
7
  6
CONTINUOUS
 10
-6.685149
 20
-14.550419
 11
-6.535149
 21
-14.550419
  0
LINE
  5
2CD
100
AcDbEntity
  8
0
100
AcDbLine
 62
7
  6
CONTINUOUS
 10
-5.583464
 20
-14.538298
 11
-5.43351
 21
-14.538298
  0
LINE
  5
2CE
100
AcDbEntity
  8
ASSI
100
AcDbLine
 62
7
  6
CONTINUOUS
 10
-5.583464
 20
-14.538298
 11
-5.43351
 21
-14.538298
  0
LINE
  5
2CF
100
AcDbEntity
  8
0
100
AcDbLine
 62
7
  6
CONTINUOUS
 10
-8.56649
 20
-14.491331
 11
-7.314851
 21
-14.491331
  0
LINE
  5
2D0
100
AcDbEntity
  8
ASSI
100
AcDbLine
 62
7
  6
CONTINUOUS
 10
-8.56649
 20
-14.491331
 11
-7.314851
 21
-14.491331
  0
LINE
  5
2D1
100
AcDbEntity
  8
0
100
AcDbLine
 62
7
  6
CONTINUOUS
 10
-6.1169
 20
-14.480733
 11
-5.966947
 21
-14.480733
  0
LINE
  5
2D2
100
AcDbEntity
  8
ASSI
100
AcDbLine
 62
7
  6
CONTINUOUS
 10
-6.1169
 20
-14.480733
 11
-5.966947
 21
-14.480733
  0
LINE
  5
2D3
100
AcDbEntity
  8
0
100
AcDbLine
 62
7
  6
CONTINUOUS
 10
-2.1
 20
-14.3926949447
 11
-1.8226172387
 21
-14.3926949447
  0
LINE
  5
2D4
100
AcDbEntity
  8
0
100
AcDbLine
 62
7
  6
CONTINUOUS
 10
-1.6773827613
 20
-14.3926949447
 11
-1.4
 21
-14.3926949447
  0
LINE
  5
2D5
100
AcDbEntity
  8
CURVE
100
AcDbLine
 62
250
  6
CONTINUOUS
 10
10.9173295267
 20
-14.3428570986
 11
10.9286735909
 21
-14.3428570986
  0
LINE
  5
2D6
100
AcDbEntity
  8
0
100
AcDbLine
 62
7
  6
CONTINUOUS
 10
-7.314851
 20
-14.327614
 11
-8.331766
 21
-14.327614
  0
LINE
  5
2D7
100
AcDbEntity
  8
ASSI
100
AcDbLine
 62
7
  6
CONTINUOUS
 10
-7.314851
 20
-14.327614
 11
-8.331766
 21
-14.327614
  0
LINE
  5
2D8
100
AcDbEntity
  8
CURVE
100
AcDbLine
 62
250
  6
CONTINUOUS
 10
10.8966229866
 20
-13.9214283943
 11
10.9079670508
 21
-13.9214283943
  0
LINE
  5
2D9
100
AcDbEntity
  8
0
100
AcDbLine
 62
250
  6
CONTINUOUS
 10
10.9590000508
 20
-13.8167794885
 11
10.9519917471
 21
-13.8167794885
  0
LINE
  5
2DA
100
AcDbEntity
  8
0
100
AcDbLine
 62
250
  6
CONTINUOUS
 10
10.9668901573
 20
-13.8167794885
 11
10.9598376342
 21
-13.8167794885
  0
LINE
  5
2DB
100
AcDbEntity
  8
0
100
AcDbLine
 62
7
  6
CONTINUOUS
 10
-6.535149
 20
-13.795781
 11
-6.1169
 21
-13.795781
  0
LINE
  5
2DC
100
AcDbEntity
  8
ASSI
100
AcDbLine
 62
7
  6
CONTINUOUS
 10
-6.535149
 20
-13.795781
 11
-6.1169
 21
-13.795781
  0
LINE
  5
2DD
100
AcDbEntity
  8
0
100
AcDbLine
 62
7
  6
CONTINUOUS
 10
-5.966947
 20
-13.795781
 11
-5.583464
 21
-13.795781
  0
LINE
  5
2DE
100
AcDbEntity
  8
ASSI
100
AcDbLine
 62
7
  6
CONTINUOUS
 10
-5.966947
 20
-13.795781
 11
-5.583464
 21
-13.795781
  0
LINE
  5
2DF
100
AcDbEntity
  8
0
100
AcDbLine
 62
250
  6
CONTINUOUS
 10
10.9519917471
 20
-13.7055897345
 11
10.9677277407
 21
-13.7055897345
  0
LINE
  5
2E0
100
AcDbEntity
  8
0
100
AcDbLine
 62
7
  6
CONTINUOUS
 10
-8.56649
 20
-13.661686
 11
-7.550091
 21
-13.661686
  0
LINE
  5
2E1
100
AcDbEntity
  8
ASSI
100
AcDbLine
 62
7
  6
CONTINUOUS
 10
-8.56649
 20
-13.661686
 11
-7.550091
 21
-13.661686
  0
LINE
  5
2E2
100
AcDbEntity
  8
0
100
AcDbLine
 62
7
  6
CONTINUOUS
 10
-2.8401949367
 20
-13.6
 11
-2.2697234842
 21
-13.7697234842
  0
LWPOLYLINE
  5
2E3
100
AcDbEntity
  8
RACCORDO
100
AcDbPolyline
 62
250
  6
CONTINUOUS
 90
7
 70
0
 10
-10.800951259
 20
10.0
 10
-10.8019122348
 20
9.9961349098
 10
-10.8028642399
 20
9.9840886462
 10
-10.8038072743
 20
9.9638612092
 10
-10.8047479026
 20
9.9353328863
 10
-10.8056795603
 20
9.89862339
 10
-10.8074560855
 20
9.8015136801
  0
LWPOLYLINE
  5
2E4
100
AcDbEntity
  8
ASSI
100
AcDbPolyline
 62
250
  6
CONTINUOUS
 90
7
 70
0
 10
-10.800951259
 20
10.0
 10
-10.8019122348
 20
9.9961349098
 10
-10.8028642399
 20
9.9840886462
 10
-10.8038072743
 20
9.9638612092
 10
-10.8047479026
 20
9.9353328863
 10
-10.8056795603
 20
9.89862339
 10
-10.8074560855
 20
9.8015136801
  0
LWPOLYLINE
  5
2E5
100
AcDbEntity
  8
RACCORDO
100
AcDbPolyline
 62
250
  6
CONTINUOUS
 90
7
 70
0
 10
-9.800989336
 20
9.0
 10
-9.8019513882
 20
8.9986738943
 10
-9.8029041527
 20
8.9946655743
 10
-9.8038476293
 20
8.9879410047
 10
-9.8047883245
 20
8.9784702239
 10
-9.805719732
 20
8.9662564652
 10
-9.8066223326
 20
8.9513643919
  0
LWPOLYLINE
  5
2E6
100
AcDbEntity
  8
ASSI
100
AcDbPolyline
 62
250
  6
CONTINUOUS
 90
7
 70
0
 10
-9.800989336
 20
9.0
 10
-9.8019513882
 20
8.9986738943
 10
-9.8029041527
 20
8.9946655743
 10
-9.8038476293
 20
8.9879410047
 10
-9.8047883245
 20
8.9784702239
 10
-9.805719732
 20
8.9662564652
 10
-9.8066223326
 20
8.9513643919
  0
LWPOLYLINE
  5
2E7
100
AcDbEntity
  8
0
100
AcDbPolyline
 62
7
  6
CONTINUOUS
 90
12
 70
0
 10
-6.3035104848
 20
-13.3373829799
 10
-6.2779296788
 20
-13.335432751
 10
-6.2532176255
 20
-13.3324035197
 10
-6.2296981759
 20
-13.3282351047
 10
-6.2070474789
 20
-13.3229876874
 10
-6.185822379
 20
-13.3161248633
 10
-6.1662150609
 20
-13.3077816935
 10
-6.1480333399
 20
-13.2978231169
 10
-6.1312575058
 20
-13.2853075468
 10
-6.1158809886
 20
-13.2699211208
 10
-6.1019103584
 20
-13.2519777012
 10
-6.0893456151
 20
-13.2314772881
  0
LWPOLYLINE
  5
2E8
100
AcDbEntity
  8
ASSI
100
AcDbPolyline
 62
7
  6
CONTINUOUS
 90
12
 70
0
 10
-6.3035104848
 20
-13.3373829799
 10
-6.2779296788
 20
-13.335432751
 10
-6.2532176255
 20
-13.3324035197
 10
-6.2296981759
 20
-13.3282351047
 10
-6.2070474789
 20
-13.3229876874
 10
-6.185822379
 20
-13.3161248633
 10
-6.1662150609
 20
-13.3077816935
 10
-6.1480333399
 20
-13.2978231169
 10
-6.1312575058
 20
-13.2853075468
 10
-6.1158809886
 20
-13.2699211208
 10
-6.1019103584
 20
-13.2519777012
 10
-6.0893456151
 20
-13.2314772881
  0
LWPOLYLINE
  5
2E9
100
AcDbEntity
  8
0
100
AcDbPolyline
 62
7
  6
CONTINUOUS
 90
10
 70
0
 10
-6.3537973943
 20
-13.1729754668
 10
-6.4108079029
 20
-13.1747447659
 10
-6.4407937254
 20
-13.1753452249
 10
-6.4719629711
 20
-13.1764785169
 10
-6.5043236393
 20
-13.1781577452
 10
-6.5378677307
 20
-13.1803698066
 10
-6.572710761
 20
-13.1838960236
 10
-6.6088912352
 20
-13.188996837
 10
-6.6463706482
 20
-13.195411806
 10
-6.685149
 20
-13.2031409307
  0
LWPOLYLINE
  5
2EA
100
AcDbEntity
  8
ASSI
100
AcDbPolyline
 62
7
  6
CONTINUOUS
 90
10
 70
0
 10
-6.3537973943
 20
-13.1729754668
 10
-6.4108079029
 20
-13.1747447659
 10
-6.4407937254
 20
-13.1753452249
 10
-6.4719629711
 20
-13.1764785169
 10
-6.5043236393
 20
-13.1781577452
 10
-6.5378677307
 20
-13.1803698066
 10
-6.572710761
 20
-13.1838960236
 10
-6.6088912352
 20
-13.188996837
 10
-6.6463706482
 20
-13.195411806
 10
-6.685149
 20
-13.2031409307
  0
LWPOLYLINE
  5
2EB
100
AcDbEntity
  8
0
100
AcDbPolyline
 62
7
  6
CONTINUOUS
 90
16
 70
0
 10
-5.7708460465
 20
-12.088667858
 10
-5.7302768139
 20
-12.087777571
 10
-5.6921494186
 20
-12.0834579707
 10
-5.6564638605
 20
-12.0757090573
 10
-5.6232021396
 20
-12.064495234
 10
-5.592382256
 20
-12.0498520975
 10
-5.56405821
 20
-12.0318864374
 10
-5.5381509219
 20
-12.0104957844
 10
-5.5147394714
 20
-11.9857826078
 10
-5.4941150986
 20
-11.9581611052
 10
-5.4762256234
 20
-11.9276512563
 10
-5.461123226
 20
-11.8942330814
 10
-5.4492556869
 20
-11.8582608399
 10
-5.4407722663
 20
-11.8198526181
 10
-5.435523704
 20
-11.7788903297
 10
-5.43351
 20
-11.7353739747
  0
LWPOLYLINE
  5
2EC
100
AcDbEntity
  8
ASSI
100
AcDbPolyline
 62
7
  6
CONTINUOUS
 90
16
 70
0
 10
-5.7708460465
 20
-12.088667858
 10
-5.7302768139
 20
-12.087777571
 10
-5.6921494186
 20
-12.0834579707
 10
-5.6564638605
 20
-12.0757090573
 10
-5.6232021396
 20
-12.064495234
 10
-5.592382256
 20
-12.0498520975
 10
-5.56405821
 20
-12.0318864374
 10
-5.5381509219
 20
-12.0104957844
 10
-5.5147394714
 20
-11.9857826078
 10
-5.4941150986
 20
-11.9581611052
 10
-5.4762256234
 20
-11.9276512563
 10
-5.461123226
 20
-11.8942330814
 10
-5.4492556869
 20
-11.8582608399
 10
-5.4407722663
 20
-11.8198526181
 10
-5.435523704
 20
-11.7788903297
 10
-5.43351
 20
-11.7353739747
  0
LINE
  5
2ED
100
AcDbEntity
  8
0
100
AcDbLine
 62
7
  6
CONTINUOUS
 10
-5.43351
 20
-13.626715
 11
-6.685149
 21
-13.626715
  0
LINE
  5
2EE
100
AcDbEntity
  8
ASSI
100
AcDbLine
 62
7
  6
CONTINUOUS
 10
-5.43351
 20
-13.626715
 11
-6.685149
 21
-13.626715
  0
LINE
  5
2EF
100
AcDbEntity
  8
CURVE
100
AcDbLine
 62
250
  6
CONTINUOUS
 10
10.9221912685
 20
-13.6
 11
10.918139817
 21
-13.6
  0
LINE
  5
2F0
100
AcDbEntity
  8
0
100
AcDbLine
 62
7
  6
CONTINUOUS
 10
0.34
 20
-13.6
 11
-0.6598050633
 21
-13.6
  0
LINE
  5
2F1
100
AcDbEntity
  8
0
100
AcDbLine
 62
7
  6
CONTINUOUS
 10
-2.8401949367
 20
-13.6
 11
-3.84
 21
-13.6
  0
LINE
  5
2F2
100
AcDbEntity
  8
CURVE
100
AcDbLine
 62
250
  6
CONTINUOUS
 10
10.9270530104
 20
-13.5690475821
 11
10.9246221393
 21
-13.5690475821
  0
LINE
  5
2F3
100
AcDbEntity
  8
0
100
AcDbLine
 62
7
  6
CONTINUOUS
 10
-7.314851
 20
-13.497739
 11
-8.56649
 21
-13.497739
  0
LINE
  5
2F4
100
AcDbEntity
  8
ASSI
100
AcDbLine
 62
7
  6
CONTINUOUS
 10
-7.314851
 20
-13.497739
 11
-8.56649
 21
-13.497739
  0
LINE
  5
2F5
100
AcDbEntity
  8
0
100
AcDbLine
 62
7
  6
CONTINUOUS
 10
-6.685149
 20
-13.410552
 11
-6.6579134135
 21
-13.410552
  0
LINE
  5
2F6
100
AcDbEntity
  8
ASSI
100
AcDbLine
 62
7
  6
CONTINUOUS
 10
-6.685149
 20
-13.410552
 11
-6.6579134135
 21
-13.410552
  0
LINE
  5
2F7
100
AcDbEntity
  8
0
100
AcDbLine
 62
250
  6
CONTINUOUS
 10
10.9677277861
 20
-13.3875180284
 11
10.9582947348
 21
-13.3875180284
  0
LINE
  5
2F8
100
AcDbEntity
  8
0
100
AcDbLine
 62
7
  6
CONTINUOUS
 10
-8.56649
 20
-13.276425
 11
-8.416489
 21
-13.276425
  0
LINE
  5
2F9
100
AcDbEntity
  8
ASSI
100
AcDbLine
 62
7
  6
CONTINUOUS
 10
-8.56649
 20
-13.276425
 11
-8.416489
 21
-13.276425
  0
LINE
  5
2FA
100
AcDbEntity
  8
0
100
AcDbLine
 62
250
  6
CONTINUOUS
 10
10.9582947348
 20
-13.2763980551
 11
10.9677277861
 21
-13.2763980551
  0
LINE
  5
2FB
100
AcDbEntity
  8
CURVE
100
AcDbLine
 62
250
  6
CONTINUOUS
 10
10.9079670508
 20
-13.2714283943
 11
10.8966229866
 21
-13.2714283943
  0
LINE
  5
2FC
100
AcDbEntity
  8
0
100
AcDbLine
 62
7
  6
CONTINUOUS
 10
-7.464805
 20
-13.264138
 11
-7.314851
 21
-13.264138
  0
LINE
  5
2FD
100
AcDbEntity
  8
ASSI
100
AcDbLine
 62
7
  6
CONTINUOUS
 10
-7.464805
 20
-13.264138
 11
-7.314851
 21
-13.264138
  0
LINE
  5
2FE
100
AcDbEntity
  8
0
100
AcDbLine
 62
7
  6
CONTINUOUS
 10
-7.99824
 20
-13.206803
 11
-7.848287
 21
-13.206803
  0
LINE
  5
2FF
100
AcDbEntity
  8
ASSI
100
AcDbLine
 62
7
  6
CONTINUOUS
 10
-7.99824
 20
-13.206803
 11
-7.848287
 21
-13.206803
  0
LINE
  5
300
100
AcDbEntity
  8
0
100
AcDbLine
 62
7
  6
CONTINUOUS
 10
0.34
 20
-12.9
 11
-0.6598050633
 21
-12.9
  0
LINE
  5
301
100
AcDbEntity
  8
0
100
AcDbLine
 62
7
  6
CONTINUOUS
 10
-2.8401949367
 20
-12.9
 11
-3.84
 21
-12.9
  0
LINE
  5
302
100
AcDbEntity
  8
CURVE
100
AcDbLine
 62
250
  6
CONTINUOUS
 10
10.8966229866
 20
-12.9
 11
10.9079670508
 21
-12.9
  0
LINE
  5
303
100
AcDbEntity
  8
CURVE
100
AcDbLine
 62
250
  6
CONTINUOUS
 10
10.9270530104
 20
-12.6714285493
 11
10.9238118494
 21
-12.6714285493
  0
LINE
  5
304
100
AcDbEntity
  8
0
100
AcDbLine
 62
7
  6
CONTINUOUS
 10
-6.685149
 20
-12.540616
 11
-6.148229
 21
-12.540616
  0
LINE
  5
305
100
AcDbEntity
  8
ASSI
100
AcDbLine
 62
7
  6
CONTINUOUS
 10
-6.685149
 20
-12.540616
 11
-6.148229
 21
-12.540616
  0
LINE
  5
306
100
AcDbEntity
  8
0
100
AcDbLine
 62
7
  6
CONTINUOUS
 10
-6.00355
 20
-12.540616
 11
-5.578232
 21
-12.540616
  0
LINE
  5
307
100
AcDbEntity
  8
ASSI
100
AcDbLine
 62
7
  6
CONTINUOUS
 10
-6.00355
 20
-12.540616
 11
-5.578232
 21
-12.540616
  0
LINE
  5
308
100
AcDbEntity
  8
0
100
AcDbLine
 62
7
  6
CONTINUOUS
 10
-8.416489
 20
-12.52162
 11
-7.99824
 21
-12.52162
  0
LINE
  5
309
100
AcDbEntity
  8
ASSI
100
AcDbLine
 62
7
  6
CONTINUOUS
 10
-8.416489
 20
-12.52162
 11
-7.99824
 21
-12.52162
  0
LINE
  5
30A
100
AcDbEntity
  8
0
100
AcDbLine
 62
7
  6
CONTINUOUS
 10
-7.848287
 20
-12.52162
 11
-7.464805
 21
-12.52162
  0
LINE
  5
30B
100
AcDbEntity
  8
ASSI
100
AcDbLine
 62
7
  6
CONTINUOUS
 10
-7.848287
 20
-12.52162
 11
-7.464805
 21
-12.52162
  0
LINE
  5
30C
100
AcDbEntity
  8
0
100
AcDbLine
 62
7
  6
CONTINUOUS
 10
2.675
 20
-12.4277568136
 11
2.15
 21
-12.4277568136
  0
LINE
  5
30D
100
AcDbEntity
  8
ASSI
100
AcDbLine
 62
7
  6
CONTINUOUS
 10
2.675
 20
-12.4277568136
 11
2.15
 21
-12.4277568136
  0
LINE
  5
30E
100
AcDbEntity
  8
0
100
AcDbLine
 62
7
  6
CONTINUOUS
 10
1.5
 20
-12.4277568136
 11
0.975
 21
-12.4277568136
  0
LINE
  5
30F
100
AcDbEntity
  8
ASSI
100
AcDbLine
 62
7
  6
CONTINUOUS
 10
1.5
 20
-12.4277568136
 11
0.975
 21
-12.4277568136
  0
LINE
  5
310
100
AcDbEntity
  8
0
100
AcDbLine
 62
7
  6
CONTINUOUS
 10
-5.43351
 20
-12.371714
 11
-6.685149
 21
-12.371714
  0
LINE
  5
311
100
AcDbEntity
  8
ASSI
100
AcDbLine
 62
7
  6
CONTINUOUS
 10
-5.43351
 20
-12.371714
 11
-6.685149
 21
-12.371714
  0
LINE
  5
312
100
AcDbEntity
  8
0
100
AcDbLine
 62
7
  6
CONTINUOUS
 10
-7.314851
 20
-12.352521
 11
-8.56649
 21
-12.352521
  0
LINE
  5
313
100
AcDbEntity
  8
ASSI
100
AcDbLine
 62
7
  6
CONTINUOUS
 10
-7.314851
 20
-12.352521
 11
-8.56649
 21
-12.352521
  0
LINE
  5
314
100
AcDbEntity
  8
CURVE
100
AcDbLine
 62
250
  6
CONTINUOUS
 10
10.9079670508
 20
-12.1571425915
 11
10.8966229866
 21
-12.1571425915
  0
LINE
  5
315
100
AcDbEntity
  8
0
100
AcDbLine
 62
250
  6
CONTINUOUS
 10
10.9677277861
 20
-12.1196482155
 11
10.9582947348
 21
-12.1196482155
  0
LINE
  5
316
100
AcDbEntity
  8
0
100
AcDbLine
 62
7
  6
CONTINUOUS
 10
-2.1
 20
-12.1073050553
 11
-1.8226172387
 21
-12.1073050553
  0
LINE
  5
317
100
AcDbEntity
  8
0
100
AcDbLine
 62
7
  6
CONTINUOUS
 10
-1.6773827613
 20
-12.1073050553
 11
-1.4
 21
-12.1073050553
  0
LINE
  5
318
100
AcDbEntity
  8
CURVE
100
AcDbLine
 62
250
  6
CONTINUOUS
 10
10.9238118494
 20
-12.0214285493
 11
10.9270530104
 21
-12.0214285493
  0
LINE
  5
319
100
AcDbEntity
  8
0
100
AcDbLine
 62
250
  6
CONTINUOUS
 10
10.9582947348
 20
-12.0085272007
 11
10.9677277861
 21
-12.0085272007
  0
LWPOLYLINE
  5
31A
100
AcDbEntity
  8
0
100
AcDbPolyline
 62
7
  6
CONTINUOUS
 90
19
 70
0
 10
-7.6766131675
 20
-12.1226543823
 10
-7.6423743932
 20
-12.1229036163
 10
-7.6090051443
 20
-12.1201152598
 10
-7.5765054208
 20
-12.114289313
 10
-7.5443266433
 20
-12.1050767157
 10
-7.5130173913
 20
-12.0928265279
 10
-7.4842234026
 20
-12.07858593
 10
-7.458676944
 20
-12.0626577083
 10
-7.4356457488
 20
-12.0447390763
 10
-7.4145787542
 20
-12.024968856
 10
-7.3953274266
 20
-12.0035720934
 10
-7.3780402996
 20
-11.9803237424
 10
-7.3626119115
 20
-11.954687486
 10
-7.3487853741
 20
-11.9263625123
 10
-7.3368175756
 20
-11.8956496331
 10
-7.3273737186
 20
-11.8629149673
 10
-7.3206755375
 20
-11.8282805545
 10
-7.316501298
 20
-11.7916243549
 10
-7.314851
 20
-11.7529463686
  0
LWPOLYLINE
  5
31B
100
AcDbEntity
  8
ASSI
100
AcDbPolyline
 62
7
  6
CONTINUOUS
 90
19
 70
0
 10
-7.6766131675
 20
-12.1226543823
 10
-7.6423743932
 20
-12.1229036163
 10
-7.6090051443
 20
-12.1201152598
 10
-7.5765054208
 20
-12.114289313
 10
-7.5443266433
 20
-12.1050767157
 10
-7.5130173913
 20
-12.0928265279
 10
-7.4842234026
 20
-12.07858593
 10
-7.458676944
 20
-12.0626577083
 10
-7.4356457488
 20
-12.0447390763
 10
-7.4145787542
 20
-12.024968856
 10
-7.3953274266
 20
-12.0035720934
 10
-7.3780402996
 20
-11.9803237424
 10
-7.3626119115
 20
-11.954687486
 10
-7.3487853741
 20
-11.9263625123
 10
-7.3368175756
 20
-11.8956496331
 10
-7.3273737186
 20
-11.8629149673
 10
-7.3206755375
 20
-11.8282805545
 10
-7.316501298
 20
-11.7916243549
 10
-7.314851
 20
-11.7529463686
  0
LWPOLYLINE
  5
31C
100
AcDbEntity
  8
0
100
AcDbPolyline
 62
7
  6
CONTINUOUS
 90
13
 70
0
 10
-5.7952729165
 20
-13.1867447556
 10
-5.8216736324
 20
-13.1864804046
 10
-5.8466508148
 20
-13.184222841
 10
-5.8702044636
 20
-13.179972065
 10
-5.89241403
 20
-13.1739119251
 10
-5.9132000629
 20
-13.1658585727
 10
-5.9323242088
 20
-13.1552604623
 10
-5.9500085997
 20
-13.1416542635
 10
-5.9660311036
 20
-13.1255033067
 10
-5.9794869706
 20
-13.1076460375
 10
-5.9900746173
 20
-13.0883619377
 10
-5.9980956271
 20
-13.0673715254
 10
-6.00355
 20
-13.0446748007
  0
LWPOLYLINE
  5
31D
100
AcDbEntity
  8
ASSI
100
AcDbPolyline
 62
7
  6
CONTINUOUS
 90
13
 70
0
 10
-5.7952729165
 20
-13.1867447556
 10
-5.8216736324
 20
-13.1864804046
 10
-5.8466508148
 20
-13.184222841
 10
-5.8702044636
 20
-13.179972065
 10
-5.89241403
 20
-13.1739119251
 10
-5.9132000629
 20
-13.1658585727
 10
-5.9323242088
 20
-13.1552604623
 10
-5.9500085997
 20
-13.1416542635
 10
-5.9660311036
 20
-13.1255033067
 10
-5.9794869706
 20
-13.1076460375
 10
-5.9900746173
 20
-13.0883619377
 10
-5.9980956271
 20
-13.0673715254
 10
-6.00355
 20
-13.0446748007
  0
LWPOLYLINE
  5
31E
100
AcDbEntity
  8
0
100
AcDbPolyline
 62
7
  6
CONTINUOUS
 90
19
 70
0
 10
-5.7952729165
 20
-13.3608490734
 10
-5.7566766898
 20
-13.3613500118
 10
-5.7196069973
 20
-13.3585518232
 10
-5.6840638389
 20
-13.3524545077
 10
-5.6495764094
 20
-13.3429259035
 10
-5.616615514
 20
-13.3300981723
 10
-5.5865935687
 20
-13.3143677994
 10
-5.5600520834
 20
-13.2955574491
 10
-5.5364495482
 20
-13.2738444571
 10
-5.5155738495
 20
-13.2501573153
 10
-5.4975292243
 20
-13.2248560031
 10
-5.4822114355
 20
-13.197580541
 10
-5.4690956584
 20
-13.1681794826
 10
-5.4580841213
 20
-13.1364747912
 10
-5.4492745958
 20
-13.1026445036
 10
-5.442435572
 20
-13.0670712828
 10
-5.4374898797
 20
-13.0298826834
 10
-5.4345146891
 20
-12.9909511508
 10
-5.43351
 20
-12.9502766852
  0
LWPOLYLINE
  5
31F
100
AcDbEntity
  8
ASSI
100
AcDbPolyline
 62
7
  6
CONTINUOUS
 90
19
 70
0
 10
-5.7952729165
 20
-13.3608490734
 10
-5.7566766898
 20
-13.3613500118
 10
-5.7196069973
 20
-13.3585518232
 10
-5.6840638389
 20
-13.3524545077
 10
-5.6495764094
 20
-13.3429259035
 10
-5.616615514
 20
-13.3300981723
 10
-5.5865935687
 20
-13.3143677994
 10
-5.5600520834
 20
-13.2955574491
 10
-5.5364495482
 20
-13.2738444571
 10
-5.5155738495
 20
-13.2501573153
 10
-5.4975292243
 20
-13.2248560031
 10
-5.4822114355
 20
-13.197580541
 10
-5.4690956584
 20
-13.1681794826
 10
-5.4580841213
 20
-13.1364747912
 10
-5.4492745958
 20
-13.1026445036
 10
-5.442435572
 20
-13.0670712828
 10
-5.4374898797
 20
-13.0298826834
 10
-5.4345146891
 20
-12.9909511508
 10
-5.43351
 20
-12.9502766852
  0
LINE
  5
320
100
AcDbEntity
  8
0
100
AcDbLine
 62
7
  6
CONTINUOUS
 10
-0.6598050633
 20
-12.9
 11
-1.2302765158
 21
-12.7302765158
  0
LWPOLYLINE
  5
321
100
AcDbEntity
  8
0
100
AcDbPolyline
 62
7
  6
CONTINUOUS
 90
10
 70
0
 10
-6.0356002437
 20
-11.9744271529
 10
-6.0159812397
 20
-11.9981928038
 10
-5.9938071486
 20
-12.0193109648
 10
-5.9690779702
 20
-12.0377816361
 10
-5.9416529647
 20
-12.0537655777
 10
-5.911672872
 20
-12.0671020294
 10
-5.8795599119
 20
-12.0773087113
 10
-5.8454548242
 20
-12.0842248634
 10
-5.8092168691
 20
-12.0880112456
 10
-5.7708460465
 20
-12.088667858
  0
LWPOLYLINE
  5
322
100
AcDbEntity
  8
ASSI
100
AcDbPolyline
 62
7
  6
CONTINUOUS
 90
10
 70
0
 10
-6.0356002437
 20
-11.9744271529
 10
-6.0159812397
 20
-11.9981928038
 10
-5.9938071486
 20
-12.0193109648
 10
-5.9690779702
 20
-12.0377816361
 10
-5.9416529647
 20
-12.0537655777
 10
-5.911672872
 20
-12.0671020294
 10
-5.8795599119
 20
-12.0773087113
 10
-5.8454548242
 20
-12.0842248634
 10
-5.8092168691
 20
-12.0880112456
 10
-5.7708460465
 20
-12.088667858
  0
LWPOLYLINE
  5
323
100
AcDbEntity
  8
0
100
AcDbPolyline
 62
7
  6
CONTINUOUS
 90
13
 70
0
 10
-6.0893456151
 20
-13.2314772881
 10
-6.0761529248
 20
-13.2501678592
 10
-6.0607960722
 20
-13.267866391
 10
-6.0432750572
 20
-13.2845728834
 10
-6.0236046093
 20
-13.3005933828
 10
-6.001769999
 20
-13.3156218429
 10
-5.977727038
 20
-13.3287401243
 10
-5.9511547975
 20
-13.3398144288
 10
-5.9223742063
 20
-13.3489785547
 10
-5.8923038628
 20
-13.3557157566
 10
-5.8612499663
 20
-13.3598537861
 10
-5.8289063176
 20
-13.3615648917
 10
-5.7952729165
 20
-13.3608490734
  0
LWPOLYLINE
  5
324
100
AcDbEntity
  8
ASSI
100
AcDbPolyline
 62
7
  6
CONTINUOUS
 90
13
 70
0
 10
-6.0893456151
 20
-13.2314772881
 10
-6.0761529248
 20
-13.2501678592
 10
-6.0607960722
 20
-13.267866391
 10
-6.0432750572
 20
-13.2845728834
 10
-6.0236046093
 20
-13.3005933828
 10
-6.001769999
 20
-13.3156218429
 10
-5.977727038
 20
-13.3287401243
 10
-5.9511547975
 20
-13.3398144288
 10
-5.9223742063
 20
-13.3489785547
 10
-5.8923038628
 20
-13.3557157566
 10
-5.8612499663
 20
-13.3598537861
 10
-5.8289063176
 20
-13.3615648917
 10
-5.7952729165
 20
-13.3608490734
  0
LWPOLYLINE
  5
325
100
AcDbEntity
  8
RACCORDO
100
AcDbPolyline
 62
7
  6
CONTINUOUS
 90
7
 70
0
 10
-11.1761825974
 20
-16.4071689224
 10
-11.1735520362
 20
-16.4799673056
 10
-11.1657163328
 20
-16.5518663904
 10
-11.1526754872
 20
-16.6228661767
 10
-11.1342569102
 20
-16.6934799298
 10
-11.1106331911
 20
-16.7631943845
 10
-11.0810951008
 20
-16.8330979441
  0
LWPOLYLINE
  5
326
100
AcDbEntity
  8
RACCORDO
100
AcDbPolyline
 62
250
  6
CONTINUOUS
 90
25
 70
0
 10
-9.7686999252
 20
-15.1687951175
 10
-9.7632099343
 20
-15.3331475493
 10
-9.7472406956
 20
-15.4955118974
 10
-9.720792209
 20
-15.6558881618
 10
-9.6836635766
 20
-15.8149729791
 10
-9.6360556963
 20
-15.9720697128
 10
-9.5785712624
 20
-16.1250884532
 10
-9.5110811092
 20
-16.2739527448
 10
-9.4337144022
 20
-16.4187390432
 10
-9.3474613325
 20
-16.5575868052
 10
-9.2522080697
 20
-16.6904161069
 10
-9.1480684442
 20
-16.8173068721
 10
-9.0363741371
 20
-16.9366383295
 10
-8.9170294389
 20
-17.0483127501
 10
-8.7901300592
 20
-17.1524278627
 10
-8.6572948086
 20
-17.2476560821
 10
-8.5184434472
 20
-17.333884376
 10
-8.373656215
 20
-17.4112257766
 10
-8.224792642
 20
-17.4786917954
 10
-8.0717663491
 20
-17.5361539725
 10
-7.9146637154
 20
-17.5837407678
 10
-7.7556034086
 20
-17.6208490716
 10
-7.5952916513
 20
-17.6472778475
 10
-7.4330222209
 20
-17.663228132
 10
-7.2687951175
 20
-17.6686999252
  0
LWPOLYLINE
  5
327
100
AcDbEntity
  8
ASSI
100
AcDbPolyline
 62
250
  6
CONTINUOUS
 90
25
 70
0
 10
-9.7686999252
 20
-15.1687951175
 10
-9.7632099343
 20
-15.3331475493
 10
-9.7472406956
 20
-15.4955118974
 10
-9.720792209
 20
-15.6558881618
 10
-9.6836635766
 20
-15.8149729791
 10
-9.6360556963
 20
-15.9720697128
 10
-9.5785712624
 20
-16.1250884532
 10
-9.5110811092
 20
-16.2739527448
 10
-9.4337144022
 20
-16.4187390432
 10
-9.3474613325
 20
-16.5575868052
 10
-9.2522080697
 20
-16.6904161069
 10
-9.1480684442
 20
-16.8173068721
 10
-9.0363741371
 20
-16.9366383295
 10
-8.9170294389
 20
-17.0483127501
 10
-8.7901300592
 20
-17.1524278627
 10
-8.6572948086
 20
-17.2476560821
 10
-8.5184434472
 20
-17.333884376
 10
-8.373656215
 20
-17.4112257766
 10
-8.224792642
 20
-17.4786917954
 10
-8.0717663491
 20
-17.5361539725
 10
-7.9146637154
 20
-17.5837407678
 10
-7.7556034086
 20
-17.6208490716
 10
-7.5952916513
 20
-17.6472778475
 10
-7.4330222209
 20
-17.663228132
 10
-7.2687951175
 20
-17.6686999252
  0
LWPOLYLINE
  5
328
100
AcDbEntity
  8
RACCORDO
100
AcDbPolyline
 62
250
  6
CONTINUOUS
 90
25
 70
0
 10
-10.7686618482
 20
-15.1687951175
 10
-10.7611606927
 20
-15.3977454219
 10
-10.7387015658
 20
-15.6256952743
 10
-10.7013844103
 20
-15.8516688262
 10
-10.6493754219
 20
-16.0746892497
 10
-10.5828995468
 20
-16.2938127854
 10
-10.5022330747
 20
-16.5081308762
 10
-10.4077124507
 20
-16.7167389702
 10
-10.2997452406
 20
-16.9187285282
 10
-10.1788000761
 20
-17.1132209628
 10
-10.0453991378
 20
-17.2993789482
 10
-9.9001111097
 20
-17.4764111288
 10
-9.7435562057
 20
-17.643562279
 10
-9.5764047996
 20
-17.8001166601
 10
-9.3993725077
 20
-17.9454040795
 10
-9.2132143059
 20
-18.0788045238
 10
-9.0187213824
 20
-18.1997493658
 10
-8.8167311812
 20
-18.3077162912
 10
-8.608122451
 20
-18.4022365638
 10
-8.3938033974
 20
-18.4829027331
 10
-8.1746789045
 20
-18.5493781936
 10
-7.9516587799
 20
-18.6013864085
 10
-7.7256872517
 20
-18.638702622
 10
-7.4977407545
 20
-18.6611609986
 10
-7.2687951175
 20
-18.6686618482
  0
LWPOLYLINE
  5
329
100
AcDbEntity
  8
ASSI
100
AcDbPolyline
 62
250
  6
CONTINUOUS
 90
25
 70
0
 10
-10.7686618482
 20
-15.1687951175
 10
-10.7611606927
 20
-15.3977454219
 10
-10.7387015658
 20
-15.6256952743
 10
-10.7013844103
 20
-15.8516688262
 10
-10.6493754219
 20
-16.0746892497
 10
-10.5828995468
 20
-16.2938127854
 10
-10.5022330747
 20
-16.5081308762
 10
-10.4077124507
 20
-16.7167389702
 10
-10.2997452406
 20
-16.9187285282
 10
-10.1788000761
 20
-17.1132209628
 10
-10.0453991378
 20
-17.2993789482
 10
-9.9001111097
 20
-17.4764111288
 10
-9.7435562057
 20
-17.643562279
 10
-9.5764047996
 20
-17.8001166601
 10
-9.3993725077
 20
-17.9454040795
 10
-9.2132143059
 20
-18.0788045238
 10
-9.0187213824
 20
-18.1997493658
 10
-8.8167311812
 20
-18.3077162912
 10
-8.608122451
 20
-18.4022365638
 10
-8.3938033974
 20
-18.4829027331
 10
-8.1746789045
 20
-18.5493781936
 10
-7.9516587799
 20
-18.6013864085
 10
-7.7256872517
 20
-18.638702622
 10
-7.4977407545
 20
-18.6611609986
 10
-7.2687951175
 20
-18.6686618482
  0
LWPOLYLINE
  5
32A
100
AcDbEntity
  8
RACCORDO
100
AcDbPolyline
 62
250
  6
CONTINUOUS
 90
6
 70
0
 10
-10.8056795604
 20
-9.8986233953
 10
-10.8047479026
 20
-9.9353328643
 10
-10.8038072742
 20
-9.9638611709
 10
-10.8028642398
 20
-9.9840886097
 10
-10.8019122347
 20
-9.9961348861
 10
-10.800951259
 20
-10.0
  0
LWPOLYLINE
  5
32B
100
AcDbEntity
  8
ASSI
100
AcDbPolyline
 62
250
  6
CONTINUOUS
 90
6
 70
0
 10
-10.8056795604
 20
-9.8986233953
 10
-10.8047479026
 20
-9.9353328643
 10
-10.8038072742
 20
-9.9638611709
 10
-10.8028642398
 20
-9.9840886097
 10
-10.8019122347
 20
-9.9961348861
 10
-10.800951259
 20
-10.0
  0
LINE
  5
32C
100
AcDbEntity
  8
RACCORDO
100
AcDbLine
 62
250
  6
CONTINUOUS
 10
-10.8074560855
 20
-9.8015136961
 11
-10.8056795604
 21
-9.8986233953
  0
LINE
  5
32D
100
AcDbEntity
  8
ASSI
100
AcDbLine
 62
250
  6
CONTINUOUS
 10
-10.8074560855
 20
-9.8015136961
 11
-10.8056795604
 21
-9.8986233953
  0
LINE
  5
32E
100
AcDbEntity
  8
RACCORDO
100
AcDbLine
 62
250
  6
CONTINUOUS
 10
-10.8098514773
 20
-9.5997756215
 11
-10.8074560855
 21
-9.8015136961
  0
LINE
  5
32F
100
AcDbEntity
  8
ASSI
100
AcDbLine
 62
250
  6
CONTINUOUS
 10
-10.8098514773
 20
-9.5997756215
 11
-10.8074560855
 21
-9.8015136961
  0
LINE
  5
330
100
AcDbEntity
  8
RACCORDO
100
AcDbLine
 62
250
  6
CONTINUOUS
 10
-10.8123149995
 20
-9.2442459299
 11
-10.8098514773
 21
-9.5997756215
  0
LINE
  5
331
100
AcDbEntity
  8
ASSI
100
AcDbLine
 62
250
  6
CONTINUOUS
 10
-10.8123149995
 20
-9.2442459299
 11
-10.8098514773
 21
-9.5997756215
  0
LINE
  5
332
100
AcDbEntity
  8
RACCORDO
100
AcDbLine
 62
250
  6
CONTINUOUS
 10
-10.8139034981
 20
-8.7186570849
 11
-10.8123149995
 21
-9.2442459299
  0
LINE
  5
333
100
AcDbEntity
  8
ASSI
100
AcDbLine
 62
250
  6
CONTINUOUS
 10
-10.8139034981
 20
-8.7186570849
 11
-10.8123149995
 21
-9.2442459299
  0
LINE
  5
334
100
AcDbEntity
  8
RACCORDO
100
AcDbLine
 62
7
  6
CONTINUOUS
 10
-11.1761825974
 20
16.4071689224
 11
-11.1761825974
 21
-16.4071689224
  0
LINE
  5
335
100
AcDbEntity
  8
RACCORDO
100
AcDbLine
 62
7
  6
CONTINUOUS
 10
-11.15
 20
-21.8997711479
 11
-11.15
 21
-16.6331235486
  0
LINE
  5
336
100
AcDbEntity
  8
RACCORDO
100
AcDbLine
 62
7
  6
CONTINUOUS
 10
-11.15
 20
16.6331235461
 11
-11.15
 21
21.8997711479
  0
LINE
  5
337
100
AcDbEntity
  8
RACCORDO
100
AcDbLine
 62
7
  6
CONTINUOUS
 10
-11.0
 20
-15.4001332693
 11
-11.0
 21
15.4001332693
  0
LINE
  5
338
100
AcDbEntity
  8
ASSI
100
AcDbLine
 62
7
  6
CONTINUOUS
 10
-11.0
 20
-15.4001332693
 11
-11.0
 21
15.4001332693
  0
LINE
  5
339
100
AcDbEntity
  8
RACCORDO
100
AcDbLine
 62
250
  6
CONTINUOUS
 10
-10.7686618482
 20
15.1687951175
 11
-10.7686618482
 21
10.0
  0
LINE
  5
33A
100
AcDbEntity
  8
ASSI
100
AcDbLine
 62
250
  6
CONTINUOUS
 10
-10.7686618482
 20
15.1687951175
 11
-10.7686618482
 21
10.0
  0
LINE
  5
33B
100
AcDbEntity
  8
RACCORDO
100
AcDbLine
 62
250
  6
CONTINUOUS
 10
-10.7686618482
 20
-10.0
 11
-10.7686618482
 21
-15.1687951175
  0
LINE
  5
33C
100
AcDbEntity
  8
ASSI
100
AcDbLine
 62
250
  6
CONTINUOUS
 10
-10.7686618482
 20
-10.0
 11
-10.7686618482
 21
-15.1687951175
  0
LINE
  5
33D
100
AcDbEntity
  8
RACCORDO
100
AcDbLine
 62
250
  6
CONTINUOUS
 10
-10.8134796079
 20
8.9341356643
 11
-10.8139034981
 21
-8.7186570849
  0
LINE
  5
33E
100
AcDbEntity
  8
ASSI
100
AcDbLine
 62
250
  6
CONTINUOUS
 10
-10.8134796079
 20
8.9341356643
 11
-10.8139034981
 21
-8.7186570849
  0
LINE
  5
33F
100
AcDbEntity
  8
RACCORDO
100
AcDbLine
 62
250
  6
CONTINUOUS
 10
-10.8112034355
 20
9.4326548593
 11
-10.8134796079
 21
8.9341356643
  0
LINE
  5
340
100
AcDbEntity
  8
ASSI
100
AcDbLine
 62
250
  6
CONTINUOUS
 10
-10.8112034355
 20
9.4326548593
 11
-10.8134796079
 21
8.9341356643
  0
LINE
  5
341
100
AcDbEntity
  8
RACCORDO
100
AcDbLine
 62
250
  6
CONTINUOUS
 10
-10.8090998521
 20
9.6739241812
 11
-10.8112034355
 21
9.4326548593
  0
LINE
  5
342
100
AcDbEntity
  8
ASSI
100
AcDbLine
 62
250
  6
CONTINUOUS
 10
-10.8090998521
 20
9.6739241812
 11
-10.8112034355
 21
9.4326548593
  0
LINE
  5
343
100
AcDbEntity
  8
RACCORDO
100
AcDbLine
 62
250
  6
CONTINUOUS
 10
-10.8074560855
 20
9.8015136801
 11
-10.8090998521
 21
9.6739241812
  0
LINE
  5
344
100
AcDbEntity
  8
ASSI
100
AcDbLine
 62
250
  6
CONTINUOUS
 10
-10.8074560855
 20
9.8015136801
 11
-10.8090998521
 21
9.6739241812
  0
LWPOLYLINE
  5
345
100
AcDbEntity
  8
RACCORDO
100
AcDbPolyline
 62
250
  6
CONTINUOUS
 90
6
 70
0
 10
-9.8066223326
 20
8.9513643919
 10
-9.8074953034
 20
8.9338520066
 10
-9.8083394673
 20
8.9137897207
 10
-9.809137775
 20
8.8913297712
 10
-9.8098890305
 20
8.8666004615
 10
-9.8112405112
 20
8.8109379098
  0
LWPOLYLINE
  5
346
100
AcDbEntity
  8
ASSI
100
AcDbPolyline
 62
250
  6
CONTINUOUS
 90
6
 70
0
 10
-9.8066223326
 20
8.9513643919
 10
-9.8074953034
 20
8.9338520066
 10
-9.8083394673
 20
8.9137897207
 10
-9.809137775
 20
8.8913297712
 10
-9.8098890305
 20
8.8666004615
 10
-9.8112405112
 20
8.8109379098
  0
LWPOLYLINE
  5
347
100
AcDbEntity
  8
0
100
AcDbPolyline
 62
7
  6
CONTINUOUS
 90
16
 70
0
 10
-7.6766131675
 20
-11.9488745917
 10
-7.7016026541
 20
-11.9495693108
 10
-7.7258862334
 20
-11.9474680671
 10
-7.7494639053
 20
-11.9425708605
 10
-7.772888502
 20
-11.9347266383
 10
-7.7956071913
 20
-11.9240864532
 10
-7.8159614772
 20
-11.911103464
 10
-7.8333628862
 20
-11.8958454211
 10
-7.8483998917
 20
-11.8782445742
 10
-7.8611794183
 20
-11.8585508309
 10
-7.8716263806
 20
-11.8366481678
 10
-7.8798158639
 20
-11.8126526084
 10
-7.8860800495
 20
-11.7871621308
 10
-7.8905296641
 20
-11.7603760611
 10
-7.893053981
 20
-11.7320950731
 10
-7.893653
 20
-11.702319167
  0
LWPOLYLINE
  5
348
100
AcDbEntity
  8
ASSI
100
AcDbPolyline
 62
7
  6
CONTINUOUS
 90
16
 70
0
 10
-7.6766131675
 20
-11.9488745917
 10
-7.7016026541
 20
-11.9495693108
 10
-7.7258862334
 20
-11.9474680671
 10
-7.7494639053
 20
-11.9425708605
 10
-7.772888502
 20
-11.9347266383
 10
-7.7956071913
 20
-11.9240864532
 10
-7.8159614772
 20
-11.911103464
 10
-7.8333628862
 20
-11.8958454211
 10
-7.8483998917
 20
-11.8782445742
 10
-7.8611794183
 20
-11.8585508309
 10
-7.8716263806
 20
-11.8366481678
 10
-7.8798158639
 20
-11.8126526084
 10
-7.8860800495
 20
-11.7871621308
 10
-7.8905296641
 20
-11.7603760611
 10
-7.893053981
 20
-11.7320950731
 10
-7.893653
 20
-11.702319167
  0
LWPOLYLINE
  5
349
100
AcDbEntity
  8
0
100
AcDbPolyline
 62
7
  6
CONTINUOUS
 90
16
 70
0
 10
-5.7708460465
 20
-11.9195491645
 10
-5.7960468931
 20
-11.9197055243
 10
-5.8195686026
 20
-11.9172536132
 10
-5.8414111748
 20
-11.9121934313
 10
-5.8615954046
 20
-11.9046127734
 10
-5.8801004973
 20
-11.8944238447
 10
-5.8968640686
 20
-11.8813632602
 10
-5.9119855357
 20
-11.8651080391
 10
-5.9253654816
 20
-11.8459811623
 10
-5.9366432709
 20
-11.824688188
 10
-5.9455499678
 20
-11.8011842703
 10
-5.9523545083
 20
-11.7755142552
 10
-5.9575030645
 20
-11.7485182385
 10
-5.9611443605
 20
-11.7204762522
 10
-5.9631296724
 20
-11.6911082643
 10
-5.963459
 20
-11.6604142748
  0
LWPOLYLINE
  5
34A
100
AcDbEntity
  8
ASSI
100
AcDbPolyline
 62
7
  6
CONTINUOUS
 90
16
 70
0
 10
-5.7708460465
 20
-11.9195491645
 10
-5.7960468931
 20
-11.9197055243
 10
-5.8195686026
 20
-11.9172536132
 10
-5.8414111748
 20
-11.9121934313
 10
-5.8615954046
 20
-11.9046127734
 10
-5.8801004973
 20
-11.8944238447
 10
-5.8968640686
 20
-11.8813632602
 10
-5.9119855357
 20
-11.8651080391
 10
-5.9253654816
 20
-11.8459811623
 10
-5.9366432709
 20
-11.824688188
 10
-5.9455499678
 20
-11.8011842703
 10
-5.9523545083
 20
-11.7755142552
 10
-5.9575030645
 20
-11.7485182385
 10
-5.9611443605
 20
-11.7204762522
 10
-5.9631296724
 20
-11.6911082643
 10
-5.963459
 20
-11.6604142748
  0
LINE
  5
34B
100
AcDbEntity
  8
0
100
AcDbLine
 62
7
  6
CONTINUOUS
 10
-1.4
 20
-11.6585816081
 11
-2.1
 21
-11.6585816081
  0
LINE
  5
34C
100
AcDbEntity
  8
CURVE
100
AcDbLine
 62
250
  6
CONTINUOUS
 10
10.920570688
 20
-11.65
 11
10.9254324299
 21
-11.65
  0
LINE
  5
34D
100
AcDbEntity
  8
0
100
AcDbLine
 62
250
  6
CONTINUOUS
 10
10.953765723
 20
-11.392007
 11
10.9520058311
 21
-11.392007
  0
LINE
  5
34E
100
AcDbEntity
  8
0
100
AcDbLine
 62
250
  6
CONTINUOUS
 10
10.9677130929
 20
-11.384415
 11
10.9659532009
 21
-11.384415
  0
LINE
  5
34F
100
AcDbEntity
  8
0
100
AcDbLine
 62
7
  6
CONTINUOUS
 10
-8.56649
 20
-11.358964
 11
-8.038329
 21
-11.358964
  0
LINE
  5
350
100
AcDbEntity
  8
ASSI
100
AcDbLine
 62
7
  6
CONTINUOUS
 10
-8.56649
 20
-11.358964
 11
-8.038329
 21
-11.358964
  0
LINE
  5
351
100
AcDbEntity
  8
0
100
AcDbLine
 62
7
  6
CONTINUOUS
 10
-7.893653
 20
-11.358964
 11
-7.459572
 21
-11.358964
  0
LINE
  5
352
100
AcDbEntity
  8
ASSI
100
AcDbLine
 62
7
  6
CONTINUOUS
 10
-7.893653
 20
-11.358964
 11
-7.459572
 21
-11.358964
  0
LINE
  5
353
100
AcDbEntity
  8
0
100
AcDbLine
 62
7
  6
CONTINUOUS
 10
-6.539699
 20
-11.353749
 11
-6.101212
 21
-11.353749
  0
LINE
  5
354
100
AcDbEntity
  8
ASSI
100
AcDbLine
 62
7
  6
CONTINUOUS
 10
-6.539699
 20
-11.353749
 11
-6.101212
 21
-11.353749
  0
LINE
  5
355
100
AcDbEntity
  8
0
100
AcDbLine
 62
7
  6
CONTINUOUS
 10
-5.963459
 20
-11.353749
 11
-5.578232
 21
-11.353749
  0
LINE
  5
356
100
AcDbEntity
  8
ASSI
100
AcDbLine
 62
7
  6
CONTINUOUS
 10
-5.963459
 20
-11.353749
 11
-5.578232
 21
-11.353749
  0
LINE
  5
357
100
AcDbEntity
  8
0
100
AcDbLine
 62
250
  6
CONTINUOUS
 10
10.960959413
 20
-11.316398
 11
10.9591993727
 21
-11.316398
  0
LINE
  5
358
100
AcDbEntity
  8
0
100
AcDbLine
 62
7
  6
CONTINUOUS
 10
-7.314851
 20
-11.189832
 11
-8.56649
 21
-11.189832
  0
LINE
  5
359
100
AcDbEntity
  8
ASSI
100
AcDbLine
 62
7
  6
CONTINUOUS
 10
-7.314851
 20
-11.189832
 11
-8.56649
 21
-11.189832
  0
LINE
  5
35A
100
AcDbEntity
  8
0
100
AcDbLine
 62
7
  6
CONTINUOUS
 10
-5.43351
 20
-11.18465
 11
-6.685149
 21
-11.18465
  0
LINE
  5
35B
100
AcDbEntity
  8
ASSI
100
AcDbLine
 62
7
  6
CONTINUOUS
 10
-5.43351
 20
-11.18465
 11
-6.685149
 21
-11.18465
  0
LINE
  5
35C
100
AcDbEntity
  8
CURVE
100
AcDbLine
 62
250
  6
CONTINUOUS
 10
10.9254324299
 20
-11.0
 11
10.920570688
 21
-11.0
  0
LINE
  5
35D
100
AcDbEntity
  8
CURVE
100
AcDbLine
 62
250
  6
CONTINUOUS
 10
10.9063464703
 20
-10.7642858028
 11
10.9047258898
 21
-10.7642858028
  0
LINE
  5
35E
100
AcDbEntity
  8
0
100
AcDbLine
 62
250
  6
CONTINUOUS
 10
10.9659532009
 20
-10.381053
 11
10.960959413
 21
-10.381053
  0
LINE
  5
35F
100
AcDbEntity
  8
0
100
AcDbLine
 62
250
  6
CONTINUOUS
 10
10.9591993727
 20
-10.381053
 11
10.953765723
 21
-10.381053
  0
LWPOLYLINE
  5
360
100
AcDbEntity
  8
0
100
AcDbPolyline
 62
7
  6
CONTINUOUS
 90
19
 70
0
 10
-8.56649
 20
-15.272326861
 10
-8.5639759731
 20
-15.3251933075
 10
-8.557483593
 20
-15.3752663027
 10
-8.5470128596
 20
-15.4225458465
 10
-8.5326999818
 20
-15.4666958135
 10
-8.5144087508
 20
-15.5080523291
 10
-8.49173054
 20
-15.54762377
 10
-8.4644297506
 20
-15.5861514371
 10
-8.4327419814
 20
-15.6228940295
 10
-8.396965402
 20
-15.6566360207
 10
-8.3567024059
 20
-15.6872821917
 10
-8.3123505996
 20
-15.7149277616
 10
-8.265400972
 20
-15.7386428607
 10
-8.2160342372
 20
-15.7580380548
 10
-8.1640696812
 20
-15.7735027781
 10
-8.1104561514
 20
-15.7852754635
 10
-8.0555099303
 20
-15.7934355889
 10
-7.9989147354
 20
-15.7979036764
 10
-7.9406705667
 20
-15.798679726
  0
LWPOLYLINE
  5
361
100
AcDbEntity
  8
ASSI
100
AcDbPolyline
 62
7
  6
CONTINUOUS
 90
19
 70
0
 10
-8.56649
 20
-15.272326861
 10
-8.5639759731
 20
-15.3251933075
 10
-8.557483593
 20
-15.3752663027
 10
-8.5470128596
 20
-15.4225458465
 10
-8.5326999818
 20
-15.4666958135
 10
-8.5144087508
 20
-15.5080523291
 10
-8.49173054
 20
-15.54762377
 10
-8.4644297506
 20
-15.5861514371
 10
-8.4327419814
 20
-15.6228940295
 10
-8.396965402
 20
-15.6566360207
 10
-8.3567024059
 20
-15.6872821917
 10
-8.3123505996
 20
-15.7149277616
 10
-8.265400972
 20
-15.7386428607
 10
-8.2160342372
 20
-15.7580380548
 10
-8.1640696812
 20
-15.7735027781
 10
-8.1104561514
 20
-15.7852754635
 10
-8.0555099303
 20
-15.7934355889
 10
-7.9989147354
 20
-15.7979036764
 10
-7.9406705667
 20
-15.798679726
  0
LWPOLYLINE
  5
362
100
AcDbEntity
  8
0
100
AcDbPolyline
 62
7
  6
CONTINUOUS
 90
19
 70
0
 10
-8.038329
 20
-11.7493432124
 10
-8.036875043
 20
-11.7892103719
 10
-8.0327437231
 20
-11.8269550121
 10
-8.0259350404
 20
-11.8625771328
 10
-8.0161893923
 20
-11.8962180143
 10
-8.0037663814
 20
-11.9277363763
 10
-7.9894448153
 20
-11.9567083788
 10
-7.9734249391
 20
-11.9828590476
 10
-7.9555065078
 20
-12.0064633567
 10
-7.9358675937
 20
-12.0279223879
 10
-7.9147988438
 20
-12.0472947019
 10
-7.8920096111
 20
-12.0645217378
 10
-7.8668060274
 20
-12.0798288954
 10
-7.8384709607
 20
-12.0936302265
 10
-7.807721543
 20
-12.1055116792
 10
-7.7760153021
 20
-12.1144564968
 10
-7.7438380805
 20
-12.1201257604
 10
-7.7107040356
 20
-12.1228583889
 10
-7.6766131675
 20
-12.1226543823
  0
LWPOLYLINE
  5
363
100
AcDbEntity
  8
ASSI
100
AcDbPolyline
 62
7
  6
CONTINUOUS
 90
19
 70
0
 10
-8.038329
 20
-11.7493432124
 10
-8.036875043
 20
-11.7892103719
 10
-8.0327437231
 20
-11.8269550121
 10
-8.0259350404
 20
-11.8625771328
 10
-8.0161893923
 20
-11.8962180143
 10
-8.0037663814
 20
-11.9277363763
 10
-7.9894448153
 20
-11.9567083788
 10
-7.9734249391
 20
-11.9828590476
 10
-7.9555065078
 20
-12.0064633567
 10
-7.9358675937
 20
-12.0279223879
 10
-7.9147988438
 20
-12.0472947019
 10
-7.8920096111
 20
-12.0645217378
 10
-7.8668060274
 20
-12.0798288954
 10
-7.8384709607
 20
-12.0936302265
 10
-7.807721543
 20
-12.1055116792
 10
-7.7760153021
 20
-12.1144564968
 10
-7.7438380805
 20
-12.1201257604
 10
-7.7107040356
 20
-12.1228583889
 10
-7.6766131675
 20
-12.1226543823
  0
LWPOLYLINE
  5
364
100
AcDbEntity
  8
RACCORDO
100
AcDbPolyline
 62
250
  6
CONTINUOUS
 90
10
 70
0
 10
-9.8091377755
 20
-8.8913297712
 10
-9.8083394668
 20
-8.9137897207
 10
-9.8074953017
 20
-8.9338520065
 10
-9.8066223307
 20
-8.9513643918
 10
-9.8057197319
 20
-8.9662564652
 10
-9.8047883273
 20
-8.9784702239
 10
-9.8038476337
 20
-8.9879410048
 10
-9.8029041567
 20
-8.9946655744
 10
-9.8019513908
 20
-8.9986738943
 10
-9.800989336
 20
-9.0
  0
LWPOLYLINE
  5
365
100
AcDbEntity
  8
ASSI
100
AcDbPolyline
 62
250
  6
CONTINUOUS
 90
10
 70
0
 10
-9.8091377755
 20
-8.8913297712
 10
-9.8083394668
 20
-8.9137897207
 10
-9.8074953017
 20
-8.9338520065
 10
-9.8066223307
 20
-8.9513643918
 10
-9.8057197319
 20
-8.9662564652
 10
-9.8047883273
 20
-8.9784702239
 10
-9.8038476337
 20
-8.9879410048
 10
-9.8029041567
 20
-8.9946655744
 10
-9.8019513908
 20
-8.9986738943
 10
-9.800989336
 20
-9.0
  0
LINE
  5
366
100
AcDbEntity
  8
RACCORDO
100
AcDbLine
 62
250
  6
CONTINUOUS
 10
-9.8105944302
 20
-8.839733302
 11
-9.8091377755
 21
-8.8913297712
  0
LINE
  5
367
100
AcDbEntity
  8
ASSI
100
AcDbLine
 62
250
  6
CONTINUOUS
 10
-9.8105944302
 20
-8.839733302
 11
-9.8091377755
 21
-8.8913297712
  0
LINE
  5
368
100
AcDbEntity
  8
RACCORDO
100
AcDbLine
 62
250
  6
CONTINUOUS
 10
-9.8118257347
 20
-8.7803777868
 11
-9.8105944302
 21
-8.839733302
  0
LINE
  5
369
100
AcDbEntity
  8
ASSI
100
AcDbLine
 62
250
  6
CONTINUOUS
 10
-9.8118257347
 20
-8.7803777868
 11
-9.8105944302
 21
-8.839733302
  0
LINE
  5
36A
100
AcDbEntity
  8
RACCORDO
100
AcDbLine
 62
250
  6
CONTINUOUS
 10
-9.8128093868
 20
-8.7148155307
 11
-9.8118257347
 21
-8.7803777868
  0
LINE
  5
36B
100
AcDbEntity
  8
ASSI
100
AcDbLine
 62
250
  6
CONTINUOUS
 10
-9.8128093868
 20
-8.7148155307
 11
-9.8118257347
 21
-8.7803777868
  0
LINE
  5
36C
100
AcDbEntity
  8
RACCORDO
100
AcDbLine
 62
250
  6
CONTINUOUS
 10
-9.8137648353
 20
-8.6089715626
 11
-9.8128093868
 21
-8.7148155307
  0
LINE
  5
36D
100
AcDbEntity
  8
ASSI
100
AcDbLine
 62
250
  6
CONTINUOUS
 10
-9.8137648353
 20
-8.6089715626
 11
-9.8128093868
 21
-8.7148155307
  0
LINE
  5
36E
100
AcDbEntity
  8
RACCORDO
100
AcDbLine
 62
250
  6
CONTINUOUS
 10
-9.8140796377
 20
-8.5
 11
-9.8137648353
 21
-8.6089715626
  0
LINE
  5
36F
100
AcDbEntity
  8
ASSI
100
AcDbLine
 62
250
  6
CONTINUOUS
 10
-9.8140796377
 20
-8.5
 11
-9.8137648353
 21
-8.6089715626
  0
LINE
  5
370
100
AcDbEntity
  8
RACCORDO
100
AcDbLine
 62
250
  6
CONTINUOUS
 10
-9.7686999252
 20
15.1687951175
 11
-9.7686999252
 21
9.0
  0
LINE
  5
371
100
AcDbEntity
  8
ASSI
100
AcDbLine
 62
250
  6
CONTINUOUS
 10
-9.7686999252
 20
15.1687951175
 11
-9.7686999252
 21
9.0
  0
LINE
  5
372
100
AcDbEntity
  8
RACCORDO
100
AcDbLine
 62
250
  6
CONTINUOUS
 10
-9.7686999252
 20
-9.0
 11
-9.7686999252
 21
-15.1687951175
  0
LINE
  5
373
100
AcDbEntity
  8
ASSI
100
AcDbLine
 62
250
  6
CONTINUOUS
 10
-9.7686999252
 20
-9.0
 11
-9.7686999252
 21
-15.1687951175
  0
LINE
  5
374
100
AcDbEntity
  8
RACCORDO
100
AcDbLine
 62
7
  6
CONTINUOUS
 10
-9.65
 20
20.9
 11
-9.65
 21
18.1608299811
  0
LINE
  5
375
100
AcDbEntity
  8
RACCORDO
100
AcDbLine
 62
7
  6
CONTINUOUS
 10
-9.65
 20
-18.1608299811
 11
-9.65
 21
-20.9
  0
LINE
  5
376
100
AcDbEntity
  8
DRAFT
100
AcDbLine
 62
7
  6
CONTINUOUS
 10
-9.5103594806
 20
20.7603594806
 11
-9.5103594806
 21
18.262999781
  0
LINE
  5
377
100
AcDbEntity
  8
DRAFT
100
AcDbLine
 62
7
  6
CONTINUOUS
 10
-9.5103594806
 20
-18.262999781
 11
-9.5103594806
 21
-20.7603594806
  0
LINE
  5
378
100
AcDbEntity
  8
ASSI
100
AcDbLine
 62
7
  6
CONTINUOUS
 10
-9.225046
 20
-3.907643
 11
-9.225041
 21
-4.369462
  0
LINE
  5
379
100
AcDbEntity
  8
ASSI
100
AcDbLine
 62
7
  6
CONTINUOUS
 10
-9.225051
 20
-0.729031
 11
-9.225046
 21
-1.139047
  0
LINE
  5
37A
100
AcDbEntity
  8
ASSI
100
AcDbLine
 62
7
  6
CONTINUOUS
 10
-9.225051
 20
1.549641
 11
-9.225051
 21
1.139626
  0
LINE
  5
37B
100
AcDbEntity
  8
ASSI
100
AcDbLine
 62
7
  6
CONTINUOUS
 10
-9.225051
 20
-0.045674
 11
-9.225051
 21
-0.455689
  0
LINE
  5
37C
100
AcDbEntity
  8
ASSI
100
AcDbLine
 62
7
  6
CONTINUOUS
 10
-9.225046
 20
-2.728837
 11
-9.225046
 21
-3.138858
  0
LINE
  5
37D
100
AcDbEntity
  8
ASSI
100
AcDbLine
 62
7
  6
CONTINUOUS
 10
-9.225051
 20
0.751981
 11
-9.225046
 21
0.341976
  0
LINE
  5
37E
100
AcDbEntity
  8
ASSI
100
AcDbLine
 62
7
  6
CONTINUOUS
 10
-9.225056
 20
2.369662
 11
-9.225051
 21
1.959646
  0
LINE
  5
37F
100
AcDbEntity
  8
ASSI
100
AcDbLine
 62
7
  6
CONTINUOUS
 10
-9.225046
 20
-2.045475
 11
-9.225051
 21
-2.455495
  0
LINE
  5
380
100
AcDbEntity
  8
ASSI
100
AcDbLine
 62
7
  6
CONTINUOUS
 10
-9.225056
 20
3.711248
 11
-9.225051
 21
3.301218
  0
LINE
  5
381
100
AcDbEntity
  8
ASSI
100
AcDbLine
 62
7
  6
CONTINUOUS
 10
-8.821883
 20
-1.268489
 11
-8.821883
 21
-1.916038
  0
LINE
  5
382
100
AcDbEntity
  8
0
100
AcDbLine
 62
7
  6
CONTINUOUS
 10
-8.56649
 20
-11.189832
 11
-8.56649
 21
-11.358964
  0
LINE
  5
383
100
AcDbEntity
  8
ASSI
100
AcDbLine
 62
7
  6
CONTINUOUS
 10
-8.56649
 20
-11.189832
 11
-8.56649
 21
-11.358964
  0
LINE
  5
384
100
AcDbEntity
  8
0
100
AcDbLine
 62
7
  6
CONTINUOUS
 10
-8.56649
 20
-12.352521
 11
-8.56649
 21
-13.276425
  0
LINE
  5
385
100
AcDbEntity
  8
ASSI
100
AcDbLine
 62
7
  6
CONTINUOUS
 10
-8.56649
 20
-12.352521
 11
-8.56649
 21
-13.276425
  0
LINE
  5
386
100
AcDbEntity
  8
0
100
AcDbLine
 62
7
  6
CONTINUOUS
 10
-8.56649
 20
-13.497739
 11
-8.56649
 21
-13.661686
  0
LINE
  5
387
100
AcDbEntity
  8
ASSI
100
AcDbLine
 62
7
  6
CONTINUOUS
 10
-8.56649
 20
-13.497739
 11
-8.56649
 21
-13.661686
  0
LINE
  5
388
100
AcDbEntity
  8
0
100
AcDbLine
 62
7
  6
CONTINUOUS
 10
-8.56649
 20
-14.301357
 11
-8.56649
 21
-14.491331
  0
LINE
  5
389
100
AcDbEntity
  8
ASSI
100
AcDbLine
 62
7
  6
CONTINUOUS
 10
-8.56649
 20
-14.301357
 11
-8.56649
 21
-14.491331
  0
LINE
  5
38A
100
AcDbEntity
  8
0
100
AcDbLine
 62
7
  6
CONTINUOUS
 10
-8.56649
 20
-14.765027
 11
-8.56649
 21
-15.272326861
  0
LINE
  5
38B
100
AcDbEntity
  8
ASSI
100
AcDbLine
 62
7
  6
CONTINUOUS
 10
-8.56649
 20
-14.765027
 11
-8.56649
 21
-15.272326861
  0
LINE
  5
38C
100
AcDbEntity
  8
0
100
AcDbLine
 62
7
  6
CONTINUOUS
 10
-8.56649
 20
-16.034031
 11
-8.56649
 21
-16.21535
  0
LINE
  5
38D
100
AcDbEntity
  8
ASSI
100
AcDbLine
 62
7
  6
CONTINUOUS
 10
-8.56649
 20
-16.034031
 11
-8.56649
 21
-16.21535
  0
LINE
  5
38E
100
AcDbEntity
  8
RACCORDO
100
AcDbLine
 62
250
  6
CONTINUOUS
 10
-9.8139409513
 20
8.5727171494
 11
-9.8140796377
 21
-8.5
  0
LINE
  5
38F
100
AcDbEntity
  8
ASSI
100
AcDbLine
 62
250
  6
CONTINUOUS
 10
-9.8139409513
 20
8.5727171494
 11
-9.8140796377
 21
-8.5
  0
LINE
  5
390
100
AcDbEntity
  8
RACCORDO
100
AcDbLine
 62
250
  6
CONTINUOUS
 10
-9.8131970366
 20
8.680304395
 11
-9.8139409513
 21
8.5727171494
  0
LINE
  5
391
100
AcDbEntity
  8
ASSI
100
AcDbLine
 62
250
  6
CONTINUOUS
 10
-9.8131970366
 20
8.680304395
 11
-9.8139409513
 21
8.5727171494
  0
LINE
  5
392
100
AcDbEntity
  8
RACCORDO
100
AcDbLine
 62
250
  6
CONTINUOUS
 10
-9.8123516407
 20
8.74824156
 11
-9.8131970366
 21
8.680304395
  0
LINE
  5
393
100
AcDbEntity
  8
ASSI
100
AcDbLine
 62
250
  6
CONTINUOUS
 10
-9.8123516407
 20
8.74824156
 11
-9.8131970366
 21
8.680304395
  0
LINE
  5
394
100
AcDbEntity
  8
RACCORDO
100
AcDbLine
 62
250
  6
CONTINUOUS
 10
-9.8112405112
 20
8.8109379098
 11
-9.8123516407
 21
8.74824156
  0
LINE
  5
395
100
AcDbEntity
  8
ASSI
100
AcDbLine
 62
250
  6
CONTINUOUS
 10
-9.8112405112
 20
8.8109379098
 11
-9.8123516407
 21
8.74824156
  0
LWPOLYLINE
  5
396
100
AcDbEntity
  8
RACCORDO
100
AcDbPolyline
 62
7
  6
CONTINUOUS
 90
7
 70
0
 10
-9.800989336
 20
-9.0
 10
-9.9055138192
 20
-9.0054781046
 10
-10.0088931102
 20
-9.0218523993
 10
-10.109994564
 20
-9.0489434837
 10
-10.2077104918
 20
-9.0864545424
 10
-10.3009702975
 20
-9.1339745962
 10
-10.3861084088
 20
-9.1890686855
  0
LWPOLYLINE
  5
397
100
AcDbEntity
  8
ASSI
100
AcDbPolyline
 62
7
  6
CONTINUOUS
 90
6
 70
0
 10
-9.800989336
 20
-9.0
 10
-9.9055138192
 20
-9.0054781046
 10
-10.0088931102
 20
-9.0218523993
 10
-10.109994564
 20
-9.0489434837
 10
-10.2077104918
 20
-9.0864545424
 10
-10.3009702975
 20
-9.1339745962
  0
LWPOLYLINE
  5
398
100
AcDbEntity
  8
RACCORDO
100
AcDbPolyline
 62
250
  6
CONTINUOUS
 90
19
 70
0
 10
-9.7686999252
 20
-9.0
 10
-9.8560057457
 20
-9.0038187348
 10
-9.9426456882
 20
-9.0152459357
 10
-10.0279579966
 20
-9.0341945675
 10
-10.111291466
 20
-9.0605203049
 10
-10.1920090514
 20
-9.0940222206
 10
-10.2694928902
 20
-9.1344439324
 10
-10.3431560194
 20
-9.1814799553
 10
-10.4124304694
 20
-9.2347683833
 10
-10.4767736848
 20
-9.2938885586
 10
-10.5356893147
 20
-9.3583751295
 10
-10.5887417629
 20
-9.4277411685
 10
-10.6355408271
 20
-9.501472544
 10
-10.6757683689
 20
-9.5790912482
 10
-10.70906356
 20
-9.6599281124
 10
-10.7351054996
 20
-9.7431164883
 10
-10.753745344
 20
-9.8279197121
 10
-10.7649368031
 20
-9.9137648737
 10
-10.7686618482
 20
-10.0
  0
LWPOLYLINE
  5
399
100
AcDbEntity
  8
ASSI
100
AcDbPolyline
 62
250
  6
CONTINUOUS
 90
19
 70
0
 10
-9.7686999252
 20
-9.0
 10
-9.8560057457
 20
-9.0038187348
 10
-9.9426456882
 20
-9.0152459357
 10
-10.0279579966
 20
-9.0341945675
 10
-10.111291466
 20
-9.0605203049
 10
-10.1920090514
 20
-9.0940222206
 10
-10.2694928902
 20
-9.1344439324
 10
-10.3431560194
 20
-9.1814799553
 10
-10.4124304694
 20
-9.2347683833
 10
-10.4767736848
 20
-9.2938885586
 10
-10.5356893147
 20
-9.3583751295
 10
-10.5887417629
 20
-9.4277411685
 10
-10.6355408271
 20
-9.501472544
 10
-10.6757683689
 20
-9.5790912482
 10
-10.70906356
 20
-9.6599281124
 10
-10.7351054996
 20
-9.7431164883
 10
-10.753745344
 20
-9.8279197121
 10
-10.7649368031
 20
-9.9137648737
 10
-10.7686618482
 20
-10.0
  0
LINE
  5
39A
100
AcDbEntity
  8
0
100
AcDbLine
 62
250
  6
CONTINUOUS
 10
10.9520058311
 20
-10.14156
 11
10.9677130929
 21
-10.14156
  0
LINE
  5
39B
100
AcDbEntity
  8
RACCORDO
100
AcDbLine
 62
250
  6
CONTINUOUS
 10
-1.0
 20
-10.0
 11
-10.800951259
 21
-10.0
  0
LINE
  5
39C
100
AcDbEntity
  8
ASSI
100
AcDbLine
 62
250
  6
CONTINUOUS
 10
-1.0
 20
-10.0
 11
-10.800951259
 21
-10.0
  0
LINE
  5
39D
100
AcDbEntity
  8
0
100
AcDbLine
 62
7
  6
CONTINUOUS
 10
2.15
 20
-9.8
 11
1.5
 21
-9.8
  0
LINE
  5
39E
100
AcDbEntity
  8
ASSI
100
AcDbLine
 62
7
  6
CONTINUOUS
 10
2.15
 20
-9.8
 11
1.5
 21
-9.8
  0
LINE
  5
39F
100
AcDbEntity
  8
CURVE
100
AcDbLine
 62
250
  6
CONTINUOUS
 10
10.9014847285
 20
-9.7428570986
 11
10.8982435673
 21
-9.7428570986
  0
LINE
  5
3A0
100
AcDbEntity
  8
CURVE
100
AcDbLine
 62
250
  6
CONTINUOUS
 10
10.8982435673
 20
-9.0928570986
 11
10.9022950187
 21
-9.0928570986
  0
LINE
  5
3A1
100
AcDbEntity
  8
RACCORDO
100
AcDbLine
 62
7
  6
CONTINUOUS
 10
-1.0
 20
-9.0
 11
-9.800989336
 21
-9.0
  0
LINE
  5
3A2
100
AcDbEntity
  8
ASSI
100
AcDbLine
 62
7
  6
CONTINUOUS
 10
-1.0
 20
-9.0
 11
-9.800989336
 21
-9.0
  0
LINE
  5
3A3
100
AcDbEntity
  8
CURVE
100
AcDbLine
 62
250
  6
CONTINUOUS
 10
10.8982435673
 20
-8.7214287043
 11
10.9014847285
 21
-8.7214287043
  0
LINE
  5
3A4
100
AcDbEntity
  8
CURVE
100
AcDbLine
 62
250
  6
CONTINUOUS
 10
10.9039155992
 20
-8.6595238686
 11
10.9063464703
 21
-8.6595238686
  0
LINE
  5
3A5
100
AcDbEntity
  8
RACCORDO
100
AcDbLine
 62
250
  6
CONTINUOUS
 10
0.5
 20
-8.5
 11
-0.5
 21
-8.5
  0
LINE
  5
3A6
100
AcDbEntity
  8
ASSI
100
AcDbLine
 62
250
  6
CONTINUOUS
 10
0.5
 20
-8.5
 11
-0.5
 21
-8.5
  0
LINE
  5
3A7
100
AcDbEntity
  8
RACCORDO
100
AcDbLine
 62
250
  6
CONTINUOUS
 10
-1.0
 20
-8.5
 11
-10.8140415607
 21
-8.5000000046
  0
LINE
  5
3A8
100
AcDbEntity
  8
ASSI
100
AcDbLine
 62
250
  6
CONTINUOUS
 10
-1.0
 20
-8.5
 11
-10.8140415607
 21
-8.5000000046
  0
LWPOLYLINE
  5
3A9
100
AcDbEntity
  8
0
100
AcDbPolyline
 62
7
  6
CONTINUOUS
 90
25
 70
0
 10
-6.685149
 20
-11.7115862033
 10
-6.6836211619
 20
-11.7681830494
 10
-6.6775278547
 20
-11.8213238106
 10
-6.6668690786
 20
-11.8710084869
 10
-6.6513581034
 20
-11.9174475917
 10
-6.6312816592
 20
-11.9604306117
 10
-6.6074999363
 20
-11.9993260068
 10
-6.5797016011
 20
-12.034216795
 10
-6.5481979873
 20
-12.0650199583
 10
-6.5147832855
 20
-12.0908549025
 10
-6.4800377728
 20
-12.1111507487
 10
-6.4433811722
 20
-12.1264783759
 10
-6.4048668432
 20
-12.1376698263
 10
-6.3632386743
 20
-12.145029896
 10
-6.3197527771
 20
-12.1482537889
 10
-6.2782308452
 20
-12.1472591595
 10
-6.2397013792
 20
-12.1419165423
 10
-6.2031358785
 20
-12.1323554028
 10
-6.1692705356
 20
-12.1188817917
 10
-6.1379305233
 20
-12.1009333991
 10
-6.1092906689
 20
-12.079072535
 10
-6.0846116463
 20
-12.0552921802
 10
-6.0643136803
 20
-12.0302566618
 10
-6.047976546
 20
-12.0033016527
 10
-6.0356002437
 20
-11.9744271529
  0
LWPOLYLINE
  5
3AA
100
AcDbEntity
  8
ASSI
100
AcDbPolyline
 62
7
  6
CONTINUOUS
 90
25
 70
0
 10
-6.685149
 20
-11.7115862033
 10
-6.6836211619
 20
-11.7681830494
 10
-6.6775278547
 20
-11.8213238106
 10
-6.6668690786
 20
-11.8710084869
 10
-6.6513581034
 20
-11.9174475917
 10
-6.6312816592
 20
-11.9604306117
 10
-6.6074999363
 20
-11.9993260068
 10
-6.5797016011
 20
-12.034216795
 10
-6.5481979873
 20
-12.0650199583
 10
-6.5147832855
 20
-12.0908549025
 10
-6.4800377728
 20
-12.1111507487
 10
-6.4433811722
 20
-12.1264783759
 10
-6.4048668432
 20
-12.1376698263
 10
-6.3632386743
 20
-12.145029896
 10
-6.3197527771
 20
-12.1482537889
 10
-6.2782308452
 20
-12.1472591595
 10
-6.2397013792
 20
-12.1419165423
 10
-6.2031358785
 20
-12.1323554028
 10
-6.1692705356
 20
-12.1188817917
 10
-6.1379305233
 20
-12.1009333991
 10
-6.1092906689
 20
-12.079072535
 10
-6.0846116463
 20
-12.0552921802
 10
-6.0643136803
 20
-12.0302566618
 10
-6.047976546
 20
-12.0033016527
 10
-6.0356002437
 20
-11.9744271529
  0
LINE
  5
3AB
100
AcDbEntity
  8
RACCORDO
100
AcDbLine
 62
7
  6
CONTINUOUS
 10
-7.2084845302
 20
-19.8
 11
-7.2189575692
 21
-19.2
  0
LINE
  5
3AC
100
AcDbEntity
  8
ASSI
100
AcDbLine
 62
7
  6
CONTINUOUS
 10
-8.432368
 20
-1.790967
 11
-8.432368
 21
-1.393554
  0
LINE
  5
3AD
100
AcDbEntity
  8
ASSI
100
AcDbLine
 62
7
  6
CONTINUOUS
 10
-8.432362
 20
-3.138904
 11
-8.432368
 21
-3.496757
  0
LINE
  5
3AE
100
AcDbEntity
  8
0
100
AcDbLine
 62
7
  6
CONTINUOUS
 10
-8.421768
 20
-15.2494720112
 11
-8.421768
 21
-14.934126
  0
LINE
  5
3AF
100
AcDbEntity
  8
ASSI
100
AcDbLine
 62
7
  6
CONTINUOUS
 10
-8.421768
 20
-15.2494720112
 11
-8.421768
 21
-14.934126
  0
LINE
  5
3B0
100
AcDbEntity
  8
0
100
AcDbLine
 62
7
  6
CONTINUOUS
 10
-8.416489
 20
-13.276425
 11
-8.416489
 21
-12.52162
  0
LINE
  5
3B1
100
AcDbEntity
  8
ASSI
100
AcDbLine
 62
7
  6
CONTINUOUS
 10
-8.416489
 20
-13.276425
 11
-8.416489
 21
-12.52162
  0
LINE
  5
3B2
100
AcDbEntity
  8
0
100
AcDbLine
 62
7
  6
CONTINUOUS
 10
-8.381675
 20
-16.21535
 11
-8.381675
 21
-16.034031
  0
LINE
  5
3B3
100
AcDbEntity
  8
ASSI
100
AcDbLine
 62
7
  6
CONTINUOUS
 10
-8.381675
 20
-16.21535
 11
-8.381675
 21
-16.034031
  0
LINE
  5
3B4
100
AcDbEntity
  8
ASSI
100
AcDbLine
 62
7
  6
CONTINUOUS
 10
-8.053097
 20
-3.6320493813
 11
-8.053097
 21
-3.133205
  0
LINE
  5
3B5
100
AcDbEntity
  8
0
100
AcDbLine
 62
7
  6
CONTINUOUS
 10
-8.038329
 20
-11.358964
 11
-8.038329
 21
-11.7493432124
  0
LINE
  5
3B6
100
AcDbEntity
  8
ASSI
100
AcDbLine
 62
7
  6
CONTINUOUS
 10
-8.038329
 20
-11.358964
 11
-8.038329
 21
-11.7493432124
  0
LINE
  5
3B7
100
AcDbEntity
  8
0
100
AcDbLine
 62
7
  6
CONTINUOUS
 10
-7.99824
 20
-12.52162
 11
-7.99824
 21
-13.206803
  0
LINE
  5
3B8
100
AcDbEntity
  8
ASSI
100
AcDbLine
 62
7
  6
CONTINUOUS
 10
-7.99824
 20
-12.52162
 11
-7.99824
 21
-13.206803
  0
LINE
  5
3B9
100
AcDbEntity
  8
0
100
AcDbLine
 62
7
  6
CONTINUOUS
 10
-7.893653
 20
-11.702319167
 11
-7.893653
 21
-11.358964
  0
LINE
  5
3BA
100
AcDbEntity
  8
ASSI
100
AcDbLine
 62
7
  6
CONTINUOUS
 10
-7.893653
 20
-11.702319167
 11
-7.893653
 21
-11.358964
  0
LINE
  5
3BB
100
AcDbEntity
  8
0
100
AcDbLine
 62
7
  6
CONTINUOUS
 10
-7.848287
 20
-13.206803
 11
-7.848287
 21
-12.52162
  0
LINE
  5
3BC
100
AcDbEntity
  8
ASSI
100
AcDbLine
 62
7
  6
CONTINUOUS
 10
-7.848287
 20
-13.206803
 11
-7.848287
 21
-12.52162
  0
LINE
  5
3BD
100
AcDbEntity
  8
ASSI
100
AcDbLine
 62
7
  6
CONTINUOUS
 10
-7.554219
 20
-3.1332
 11
-7.554219
 21
-3.6320406187
  0
LINE
  5
3BE
100
AcDbEntity
  8
RACCORDO
100
AcDbLine
 62
7
  6
CONTINUOUS
 10
-7.5226756989
 20
-20.7603594806
 11
-7.5226756989
 21
-19.2
  0
LINE
  5
3BF
100
AcDbEntity
  8
RACCORDO
100
AcDbLine
 62
7
  6
CONTINUOUS
 10
-7.5226756989
 20
19.2
 11
-7.5226756989
 21
20.7603594806
  0
LINE
  5
3C0
100
AcDbEntity
  8
0
100
AcDbLine
 62
7
  6
CONTINUOUS
 10
-7.464805
 20
-12.52162
 11
-7.464805
 21
-13.264138
  0
LINE
  5
3C1
100
AcDbEntity
  8
ASSI
100
AcDbLine
 62
7
  6
CONTINUOUS
 10
-7.464805
 20
-12.52162
 11
-7.464805
 21
-13.264138
  0
LINE
  5
3C2
100
AcDbEntity
  8
0
100
AcDbLine
 62
7
  6
CONTINUOUS
 10
-7.459572
 20
-11.358964
 11
-7.459572
 21
-11.702304214
  0
LINE
  5
3C3
100
AcDbEntity
  8
ASSI
100
AcDbLine
 62
7
  6
CONTINUOUS
 10
-7.459572
 20
-11.358964
 11
-7.459572
 21
-11.702304214
  0
LINE
  5
3C4
100
AcDbEntity
  8
0
100
AcDbLine
 62
7
  6
CONTINUOUS
 10
-7.459572
 20
-14.934126
 11
-7.459572
 21
-15.2494639056
  0
LINE
  5
3C5
100
AcDbEntity
  8
ASSI
100
AcDbLine
 62
7
  6
CONTINUOUS
 10
-7.459572
 20
-14.934126
 11
-7.459572
 21
-15.2494639056
  0
LINE
  5
3C6
100
AcDbEntity
  8
0
100
AcDbLine
 62
7
  6
CONTINUOUS
 10
-7.314851
 20
-15.2723258333
 11
-7.314851
 21
-14.765027
  0
LINE
  5
3C7
100
AcDbEntity
  8
ASSI
100
AcDbLine
 62
7
  6
CONTINUOUS
 10
-7.314851
 20
-15.2723258333
 11
-7.314851
 21
-14.765027
  0
LINE
  5
3C8
100
AcDbEntity
  8
0
100
AcDbLine
 62
7
  6
CONTINUOUS
 10
-7.314851
 20
-14.491331
 11
-7.314851
 21
-14.327614
  0
LINE
  5
3C9
100
AcDbEntity
  8
ASSI
100
AcDbLine
 62
7
  6
CONTINUOUS
 10
-7.314851
 20
-14.491331
 11
-7.314851
 21
-14.327614
  0
LINE
  5
3CA
100
AcDbEntity
  8
0
100
AcDbLine
 62
7
  6
CONTINUOUS
 10
-7.314851
 20
-13.698215
 11
-7.314851
 21
-13.497739
  0
LINE
  5
3CB
100
AcDbEntity
  8
ASSI
100
AcDbLine
 62
7
  6
CONTINUOUS
 10
-7.314851
 20
-13.698215
 11
-7.314851
 21
-13.497739
  0
LINE
  5
3CC
100
AcDbEntity
  8
0
100
AcDbLine
 62
7
  6
CONTINUOUS
 10
-7.314851
 20
-13.264138
 11
-7.314851
 21
-12.352521
  0
LINE
  5
3CD
100
AcDbEntity
  8
ASSI
100
AcDbLine
 62
7
  6
CONTINUOUS
 10
-7.314851
 20
-13.264138
 11
-7.314851
 21
-12.352521
  0
LINE
  5
3CE
100
AcDbEntity
  8
0
100
AcDbLine
 62
7
  6
CONTINUOUS
 10
-7.314851
 20
-11.7529463686
 11
-7.314851
 21
-11.189832
  0
LINE
  5
3CF
100
AcDbEntity
  8
ASSI
100
AcDbLine
 62
7
  6
CONTINUOUS
 10
-7.314851
 20
-11.7529463686
 11
-7.314851
 21
-11.189832
  0
LINE
  5
3D0
100
AcDbEntity
  8
RACCORDO
100
AcDbLine
 62
250
  6
CONTINUOUS
 10
-7.2687951175
 20
-17.6686999252
 11
-7.2687951175
 21
-18.6686618482
  0
LINE
  5
3D1
100
AcDbEntity
  8
ASSI
100
AcDbLine
 62
250
  6
CONTINUOUS
 10
-7.2687951175
 20
-17.6686999252
 11
-7.2687951175
 21
-18.6686618482
  0
LINE
  5
3D2
100
AcDbEntity
  8
RACCORDO
100
AcDbLine
 62
250
  6
CONTINUOUS
 10
-7.2687951175
 20
17.6686999252
 11
-7.2687951167
 21
18.6686618482
  0
LINE
  5
3D3
100
AcDbEntity
  8
ASSI
100
AcDbLine
 62
250
  6
CONTINUOUS
 10
-7.2687951175
 20
17.6686999252
 11
-7.2687951167
 21
18.6686618482
  0
LINE
  5
3D4
100
AcDbEntity
  8
DRAFT
100
AcDbLine
 62
7
  6
CONTINUOUS
 10
-7.2084845302
 20
-19.9483339502
 11
-7.2084845302
 21
-19.8
  0
LINE
  5
3D5
100
AcDbEntity
  8
DRAFT
100
AcDbLine
 62
7
  6
CONTINUOUS
 10
-7.2084845302
 20
19.8
 11
-7.2084845302
 21
19.9483339502
  0
LINE
  5
3D6
100
AcDbEntity
  8
ASSI
100
AcDbLine
 62
7
  6
CONTINUOUS
 10
-7.174959
 20
-0.455689
 11
-7.174959
 21
0.164144
  0
LINE
  5
3D7
100
AcDbEntity
  8
ASSI
100
AcDbLine
 62
7
  6
CONTINUOUS
 10
-7.174959
 20
0.929808
 11
-7.174959
 21
1.549641
  0
LINE
  5
3D8
100
AcDbEntity
  8
ASSI
100
AcDbLine
 62
7
  6
CONTINUOUS
 10
-7.174959
 20
1.959641
 11
-7.174959
 21
2.369657
  0
LINE
  5
3D9
100
AcDbEntity
  8
ASSI
100
AcDbLine
 62
7
  6
CONTINUOUS
 10
-7.174959
 20
2.642998
 11
-7.174959
 21
3.053019
  0
LINE
  5
3DA
100
AcDbEntity
  8
ASSI
100
AcDbLine
 62
7
  6
CONTINUOUS
 10
-7.174959
 20
3.959442
 11
-7.174959
 21
4.369462
  0
LINE
  5
3DB
100
AcDbEntity
  8
ASSI
100
AcDbLine
 62
7
  6
CONTINUOUS
 10
-7.174954
 20
-3.688968164
 11
-7.174954
 21
-2.728837
  0
LINE
  5
3DC
100
AcDbEntity
  8
ASSI
100
AcDbLine
 62
7
  6
CONTINUOUS
 10
-7.174954
 20
-1.797276
 11
-7.174954
 21
-1.38724
  0
LINE
  5
3DD
100
AcDbEntity
  8
RACCORDO
100
AcDbLine
 62
250
  6
CONTINUOUS
 10
-6.75
 20
-18.7952395089
 11
-6.75
 21
-16.8066482796
  0
LINE
  5
3DE
100
AcDbEntity
  8
ASSI
100
AcDbLine
 62
250
  6
CONTINUOUS
 10
-6.75
 20
-18.7952395089
 11
-6.75
 21
-16.8066482796
  0
LINE
  5
3DF
100
AcDbEntity
  8
RACCORDO
100
AcDbLine
 62
250
  6
CONTINUOUS
 10
-6.75
 20
16.8066482796
 11
-6.75
 21
18.7952395089
  0
LINE
  5
3E0
100
AcDbEntity
  8
ASSI
100
AcDbLine
 62
250
  6
CONTINUOUS
 10
-6.75
 20
16.8066482796
 11
-6.75
 21
18.7952395089
  0
LINE
  5
3E1
100
AcDbEntity
  8
RACCORDO
100
AcDbLine
 62
7
  6
CONTINUOUS
 10
-7.2189575692
 20
19.2
 11
-7.2084845302
 21
19.8
  0
LWPOLYLINE
  5
3E2
100
AcDbEntity
  8
0
100
AcDbPolyline
 62
7
  6
CONTINUOUS
 90
16
 70
0
 10
-7.459572
 20
-11.702304214
 10
-7.4601718561
 20
-11.7320928832
 10
-7.4626976873
 20
-11.76038422
 10
-7.4671494935
 20
-11.7871782245
 10
-7.4734164032
 20
-11.8126737296
 10
-7.481609288
 20
-11.8366719023
 10
-7.4920607622
 20
-11.8585762435
 10
-7.5048497126
 20
-11.8782722533
 10
-7.5198972524
 20
-11.8958744316
 10
-7.5372993358
 20
-11.9111297795
 10
-7.5576337251
 20
-11.9241020321
 10
-7.580322658
 20
-11.9347274543
 10
-7.603728802
 20
-11.9425618418
 10
-7.6273063795
 20
-11.9474571265
 10
-7.651601168
 20
-11.9495613764
 10
-7.6766131675
 20
-11.9488745917
  0
LWPOLYLINE
  5
3E3
100
AcDbEntity
  8
ASSI
100
AcDbPolyline
 62
7
  6
CONTINUOUS
 90
16
 70
0
 10
-7.459572
 20
-11.702304214
 10
-7.4601718561
 20
-11.7320928832
 10
-7.4626976873
 20
-11.76038422
 10
-7.4671494935
 20
-11.7871782245
 10
-7.4734164032
 20
-11.8126737296
 10
-7.481609288
 20
-11.8366719023
 10
-7.4920607622
 20
-11.8585762435
 10
-7.5048497126
 20
-11.8782722533
 10
-7.5198972524
 20
-11.8958744316
 10
-7.5372993358
 20
-11.9111297795
 10
-7.5576337251
 20
-11.9241020321
 10
-7.580322658
 20
-11.9347274543
 10
-7.603728802
 20
-11.9425618418
 10
-7.6273063795
 20
-11.9474571265
 10
-7.651601168
 20
-11.9495613764
 10
-7.6766131675
 20
-11.9488745917
  0
LINE
  5
3E4
100
AcDbEntity
  8
RACCORDO
100
AcDbLine
 62
250
  6
CONTINUOUS
 10
7.5001332693
 20
18.9
 11
7.2687951175
 21
18.6686618482
  0
LINE
  5
3E5
100
AcDbEntity
  8
ASSI
100
AcDbLine
 62
250
  6
CONTINUOUS
 10
7.5001332693
 20
18.9
 11
7.2687951175
 21
18.6686618482
  0
LINE
  5
3E6
100
AcDbEntity
  8
DRAFT
100
AcDbLine
 62
7
  6
CONTINUOUS
 10
9.65
 20
20.9
 11
9.5103594806
 21
20.7603594806
  0
LWPOLYLINE
  5
3E7
100
AcDbEntity
  8
RACCORDO
100
AcDbPolyline
 62
7
  6
CONTINUOUS
 90
8
 70
0
 10
-0.958753325
 20
8.5417748854
 10
-0.8760576577
 20
8.6239423423
 10
-0.8353918094
 20
8.6645509439
 10
-0.7954979242
 20
8.7046987743
 10
-0.7562622569
 20
8.7437377431
 10
-0.7179599513
 20
8.7814518204
 10
-0.6811971935
 20
8.8180570362
 10
-0.6464466094
 20
8.8535533906
  0
LWPOLYLINE
  5
3E8
100
AcDbEntity
  8
ASSI
100
AcDbPolyline
 62
7
  6
CONTINUOUS
 90
8
 70
0
 10
-0.958753325
 20
8.5417748854
 10
-0.8760576577
 20
8.6239423423
 10
-0.8353918094
 20
8.6645509439
 10
-0.7954979242
 20
8.7046987743
 10
-0.7562622569
 20
8.7437377431
 10
-0.7179599513
 20
8.7814518204
 10
-0.6811971935
 20
8.8180570362
 10
-0.6464466094
 20
8.8535533906
  0
LINE
  5
3E9
100
AcDbEntity
  8
CURVE
100
AcDbLine
 62
250
  6
CONTINUOUS
 10
10.9063464703
 20
-8.13333323
 11
10.9039155992
 21
-8.13333323
  0
LINE
  5
3EA
100
AcDbEntity
  8
0
100
AcDbLine
 62
250
  6
CONTINUOUS
 10
10.953765723
 20
-8.084446
 11
10.9520058311
 21
-8.084446
  0
LINE
  5
3EB
100
AcDbEntity
  8
0
100
AcDbLine
 62
250
  6
CONTINUOUS
 10
10.9677130929
 20
-8.076887
 11
10.9659532009
 21
-8.076887
  0
LINE
  5
3EC
100
AcDbEntity
  8
CURVE
100
AcDbLine
 62
250
  6
CONTINUOUS
 10
10.9014847285
 20
-8.0714287043
 11
10.8982435673
 21
-8.0714287043
  0
LINE
  5
3ED
100
AcDbEntity
  8
0
100
AcDbLine
 62
250
  6
CONTINUOUS
 10
10.960959413
 20
-8.008818
 11
10.9591993727
 21
-8.008818
  0
LINE
  5
3EE
100
AcDbEntity
  8
0
100
AcDbLine
 62
250
  6
CONTINUOUS
 10
10.9591993727
 20
-7.073526
 11
10.953765723
 21
-7.073526
  0
LINE
  5
3EF
100
AcDbEntity
  8
0
100
AcDbLine
 62
250
  6
CONTINUOUS
 10
10.9659532009
 20
-7.073526
 11
10.960959413
 21
-7.073526
  0
LINE
  5
3F0
100
AcDbEntity
  8
0
100
AcDbLine
 62
250
  6
CONTINUOUS
 10
10.9520058311
 20
-6.834015
 11
10.9677130929
 21
-6.834015
  0
LINE
  5
3F1
100
AcDbEntity
  8
CURVE
100
AcDbLine
 62
250
  6
CONTINUOUS
 10
10.899864148
 20
-6.7714285493
 11
10.9047258898
 21
-6.7714285493
  0
LWPOLYLINE
  5
3F2
100
AcDbEntity
  8
RACCORDO
100
AcDbPolyline
 62
7
  6
CONTINUOUS
 90
3
 70
0
 10
-0.8760576577
 20
-8.6239423423
 10
-0.958753325
 20
-8.5417748854
 10
-1.0
 20
-8.5
  0
LWPOLYLINE
  5
3F3
100
AcDbEntity
  8
ASSI
100
AcDbPolyline
 62
7
  6
CONTINUOUS
 90
3
 70
0
 10
-0.8760576577
 20
-8.6239423423
 10
-0.958753325
 20
-8.5417748854
 10
-1.0
 20
-8.5
  0
LINE
  5
3F4
100
AcDbEntity
  8
RACCORDO
100
AcDbLine
 62
250
  6
CONTINUOUS
 10
7.5001332693
 20
-18.9
 11
7.2687951175
 21
-18.6686618482
  0
LINE
  5
3F5
100
AcDbEntity
  8
ASSI
100
AcDbLine
 62
250
  6
CONTINUOUS
 10
7.5001332693
 20
-18.9
 11
7.2687951175
 21
-18.6686618482
  0
LINE
  5
3F6
100
AcDbEntity
  8
DRAFT
100
AcDbLine
 62
7
  6
CONTINUOUS
 10
9.5103594806
 20
-20.7603594806
 11
9.65
 21
-20.9
  0
LWPOLYLINE
  5
3F7
100
AcDbEntity
  8
RACCORDO
100
AcDbPolyline
 62
7
  6
CONTINUOUS
 90
15
 70
0
 10
-6.25
 20
-17.4774686728
 10
-6.2516679663
 20
-17.4638259698
 10
-6.2567623743
 20
-17.4473132028
 10
-6.265283224
 20
-17.4278403206
 10
-6.277323807
 20
-17.4052658076
 10
-6.2927908318
 20
-17.37958736
 10
-6.3114044233
 20
-17.3510174717
 10
-6.333187628
 20
-17.3197109753
 10
-6.3581173994
 20
-17.2856491908
 10
-6.3858447228
 20
-17.2488695186
 10
-6.4163226222
 20
-17.2095675494
 10
-6.4495980736
 20
-17.1677827071
 10
-6.4854629905
 20
-17.1232942865
 10
-6.52401894
 20
-17.0761785077
 10
-6.6535142876
 20
-16.9204908982
  0
LWPOLYLINE
  5
3F8
100
AcDbEntity
  8
ASSI
100
AcDbPolyline
 62
7
  6
CONTINUOUS
 90
15
 70
0
 10
-6.25
 20
-17.4774686728
 10
-6.2516679663
 20
-17.4638259698
 10
-6.2567623743
 20
-17.4473132028
 10
-6.265283224
 20
-17.4278403206
 10
-6.277323807
 20
-17.4052658076
 10
-6.2927908318
 20
-17.37958736
 10
-6.3114044233
 20
-17.3510174717
 10
-6.333187628
 20
-17.3197109753
 10
-6.3581173994
 20
-17.2856491908
 10
-6.3858447228
 20
-17.2488695186
 10
-6.4163226222
 20
-17.2095675494
 10
-6.4495980736
 20
-17.1677827071
 10
-6.4854629905
 20
-17.1232942865
 10
-6.52401894
 20
-17.0761785077
 10
-6.6535142876
 20
-16.9204908982
  0
LWPOLYLINE
  5
3F9
100
AcDbEntity
  8
RACCORDO
100
AcDbPolyline
 62
250
  6
CONTINUOUS
 90
4
 70
0
 10
-6.25
 20
18.1686808867
 10
-6.2527390422
 20
18.2209430324
 10
-6.260926165
 20
18.2726326108
 10
-6.2744716767
 20
18.3231833001
  0
LWPOLYLINE
  5
3FA
100
AcDbEntity
  8
ASSI
100
AcDbPolyline
 62
250
  6
CONTINUOUS
 90
4
 70
0
 10
-6.25
 20
18.1686808867
 10
-6.2527390422
 20
18.2209430324
 10
-6.260926165
 20
18.2726326108
 10
-6.2744716767
 20
18.3231833001
  0
LWPOLYLINE
  5
3FB
100
AcDbEntity
  8
RACCORDO
100
AcDbPolyline
 62
250
  6
CONTINUOUS
 90
16
 70
0
 10
-6.25
 20
18.2952585473
 10
-6.2527390523
 20
18.3475207889
 10
-6.2609261996
 20
18.3992104344
 10
-6.2744717419
 20
18.4497611613
 10
-6.2932272712
 20
18.4986191252
 10
-6.3169872981
 20
18.5452490281
 10
-6.3454915028
 20
18.5891399829
 10
-6.3784275873
 20
18.6298111113
 10
-6.4154346968
 20
18.6668168117
 10
-6.4561073739
 20
18.6997516421
 10
-6.5
 20
18.7282547614
 10
-6.5466316785
 20
18.7520138836
 10
-6.5954915028
 20
18.7707686988
 10
-6.6460441546
 20
18.7843137253
 10
-6.6977357684
 20
18.7925005608
 10
-6.75
 20
18.7952395089
  0
LWPOLYLINE
  5
3FC
100
AcDbEntity
  8
ASSI
100
AcDbPolyline
 62
250
  6
CONTINUOUS
 90
16
 70
0
 10
-6.25
 20
18.2952585473
 10
-6.2527390523
 20
18.3475207889
 10
-6.2609261996
 20
18.3992104344
 10
-6.2744717419
 20
18.4497611613
 10
-6.2932272712
 20
18.4986191252
 10
-6.3169872981
 20
18.5452490281
 10
-6.3454915028
 20
18.5891399829
 10
-6.3784275873
 20
18.6298111113
 10
-6.4154346968
 20
18.6668168117
 10
-6.4561073739
 20
18.6997516421
 10
-6.5
 20
18.7282547614
 10
-6.5466316785
 20
18.7520138836
 10
-6.5954915028
 20
18.7707686988
 10
-6.6460441546
 20
18.7843137253
 10
-6.6977357684
 20
18.7925005608
 10
-6.75
 20
18.7952395089
  0
LINE
  5
3FD
100
AcDbEntity
  8
DRAFT
100
AcDbLine
 62
7
  6
CONTINUOUS
 10
-7.238215003
 20
20.9317102097
 11
-7.2084845302
 21
19.9483339502
  0
LINE
  5
3FE
100
AcDbEntity
  8
0
100
AcDbLine
 62
7
  6
CONTINUOUS
 10
-6.685149
 20
-11.18465
 11
-6.685149
 21
-11.7115862033
  0
LINE
  5
3FF
100
AcDbEntity
  8
ASSI
100
AcDbLine
 62
7
  6
CONTINUOUS
 10
-6.685149
 20
-11.18465
 11
-6.685149
 21
-11.7115862033
  0
LINE
  5
400
100
AcDbEntity
  8
0
100
AcDbLine
 62
7
  6
CONTINUOUS
 10
-6.685149
 20
-12.371714
 11
-6.685149
 21
-12.540616
  0
LINE
  5
401
100
AcDbEntity
  8
ASSI
100
AcDbLine
 62
7
  6
CONTINUOUS
 10
-6.685149
 20
-12.371714
 11
-6.685149
 21
-12.540616
  0
LINE
  5
402
100
AcDbEntity
  8
0
100
AcDbLine
 62
7
  6
CONTINUOUS
 10
-6.685149
 20
-13.2031409307
 11
-6.685149
 21
-13.410552
  0
LINE
  5
403
100
AcDbEntity
  8
ASSI
100
AcDbLine
 62
7
  6
CONTINUOUS
 10
-6.685149
 20
-13.2031409307
 11
-6.685149
 21
-13.410552
  0
LINE
  5
404
100
AcDbEntity
  8
0
100
AcDbLine
 62
7
  6
CONTINUOUS
 10
-6.685149
 20
-13.626715
 11
-6.685149
 21
-14.550419
  0
LINE
  5
405
100
AcDbEntity
  8
ASSI
100
AcDbLine
 62
7
  6
CONTINUOUS
 10
-6.685149
 20
-13.626715
 11
-6.685149
 21
-14.550419
  0
LINE
  5
406
100
AcDbEntity
  8
0
100
AcDbLine
 62
7
  6
CONTINUOUS
 10
-6.685149
 20
-15.130971
 11
-6.685149
 21
-15.310575
  0
LINE
  5
407
100
AcDbEntity
  8
ASSI
100
AcDbLine
 62
7
  6
CONTINUOUS
 10
-6.685149
 20
-15.130971
 11
-6.685149
 21
-15.310575
  0
LINE
  5
408
100
AcDbEntity
  8
0
100
AcDbLine
 62
7
  6
CONTINUOUS
 10
-6.685149
 20
-15.953614
 11
-6.685149
 21
-16.135032
  0
LINE
  5
409
100
AcDbEntity
  8
ASSI
100
AcDbLine
 62
7
  6
CONTINUOUS
 10
-6.685149
 20
-15.953614
 11
-6.685149
 21
-16.135032
  0
LINE
  5
40A
100
AcDbEntity
  8
0
100
AcDbLine
 62
7
  6
CONTINUOUS
 10
-6.539699
 20
-11.7606269818
 11
-6.539699
 21
-11.353749
  0
LINE
  5
40B
100
AcDbEntity
  8
ASSI
100
AcDbLine
 62
7
  6
CONTINUOUS
 10
-6.539699
 20
-11.7606269818
 11
-6.539699
 21
-11.353749
  0
LINE
  5
40C
100
AcDbEntity
  8
0
100
AcDbLine
 62
7
  6
CONTINUOUS
 10
-6.535149
 20
-14.550419
 11
-6.535149
 21
-13.795781
  0
LINE
  5
40D
100
AcDbEntity
  8
ASSI
100
AcDbLine
 62
7
  6
CONTINUOUS
 10
-6.535149
 20
-14.550419
 11
-6.535149
 21
-13.795781
  0
LINE
  5
40E
100
AcDbEntity
  8
0
100
AcDbLine
 62
7
  6
CONTINUOUS
 10
-6.500336
 20
-16.135032
 11
-6.500336
 21
-15.953614
  0
LINE
  5
40F
100
AcDbEntity
  8
ASSI
100
AcDbLine
 62
7
  6
CONTINUOUS
 10
-6.500336
 20
-16.135032
 11
-6.500336
 21
-15.953614
  0
LINE
  5
410
100
AcDbEntity
  8
RACCORDO
100
AcDbLine
 62
7
  6
CONTINUOUS
 10
-6.25
 20
-18.295256663
 11
-6.25
 21
-17.4774686728
  0
LINE
  5
411
100
AcDbEntity
  8
ASSI
100
AcDbLine
 62
7
  6
CONTINUOUS
 10
-6.25
 20
-18.295256663
 11
-6.25
 21
-17.4774686728
  0
LINE
  5
412
100
AcDbEntity
  8
RACCORDO
100
AcDbLine
 62
7
  6
CONTINUOUS
 10
-6.25
 20
17.4774686728
 11
-6.25
 21
18.295256661
  0
LINE
  5
413
100
AcDbEntity
  8
ASSI
100
AcDbLine
 62
7
  6
CONTINUOUS
 10
-6.25
 20
17.4774686728
 11
-6.25
 21
18.295256661
  0
LINE
  5
414
100
AcDbEntity
  8
0
100
AcDbLine
 62
7
  6
CONTINUOUS
 10
-6.148229
 20
-12.540616
 11
-6.148229
 21
-12.9502775093
  0
LINE
  5
415
100
AcDbEntity
  8
ASSI
100
AcDbLine
 62
7
  6
CONTINUOUS
 10
-6.148229
 20
-12.540616
 11
-6.148229
 21
-12.9502775093
  0
LINE
  5
416
100
AcDbEntity
  8
0
100
AcDbLine
 62
7
  6
CONTINUOUS
 10
-6.1169
 20
-13.795781
 11
-6.1169
 21
-14.480733
  0
LINE
  5
417
100
AcDbEntity
  8
ASSI
100
AcDbLine
 62
7
  6
CONTINUOUS
 10
-6.1169
 20
-13.795781
 11
-6.1169
 21
-14.480733
  0
LINE
  5
418
100
AcDbEntity
  8
0
100
AcDbLine
 62
7
  6
CONTINUOUS
 10
-6.101212
 20
-11.353749
 11
-6.101212
 21
-11.7466350445
  0
LINE
  5
419
100
AcDbEntity
  8
ASSI
100
AcDbLine
 62
7
  6
CONTINUOUS
 10
-6.101212
 20
-11.353749
 11
-6.101212
 21
-11.7466350445
  0
LINE
  5
41A
100
AcDbEntity
  8
0
100
AcDbLine
 62
7
  6
CONTINUOUS
 10
-6.00355
 20
-13.0446748007
 11
-6.00355
 21
-12.540616
  0
LINE
  5
41B
100
AcDbEntity
  8
ASSI
100
AcDbLine
 62
7
  6
CONTINUOUS
 10
-6.00355
 20
-13.0446748007
 11
-6.00355
 21
-12.540616
  0
LINE
  5
41C
100
AcDbEntity
  8
0
100
AcDbLine
 62
7
  6
CONTINUOUS
 10
-5.966947
 20
-14.480733
 11
-5.966947
 21
-13.795781
  0
LINE
  5
41D
100
AcDbEntity
  8
ASSI
100
AcDbLine
 62
7
  6
CONTINUOUS
 10
-5.966947
 20
-14.480733
 11
-5.966947
 21
-13.795781
  0
LINE
  5
41E
100
AcDbEntity
  8
0
100
AcDbLine
 62
7
  6
CONTINUOUS
 10
-5.963459
 20
-11.6604142748
 11
-5.963459
 21
-11.353749
  0
LINE
  5
41F
100
AcDbEntity
  8
ASSI
100
AcDbLine
 62
7
  6
CONTINUOUS
 10
-5.963459
 20
-11.6604142748
 11
-5.963459
 21
-11.353749
  0
LINE
  5
420
100
AcDbEntity
  8
0
100
AcDbLine
 62
7
  6
CONTINUOUS
 10
-5.583464
 20
-13.795781
 11
-5.583464
 21
-14.538298
  0
LINE
  5
421
100
AcDbEntity
  8
ASSI
100
AcDbLine
 62
7
  6
CONTINUOUS
 10
-5.583464
 20
-13.795781
 11
-5.583464
 21
-14.538298
  0
LINE
  5
422
100
AcDbEntity
  8
0
100
AcDbLine
 62
7
  6
CONTINUOUS
 10
-5.578232
 20
-11.353749
 11
-5.578232
 21
-11.6603981075
  0
LINE
  5
423
100
AcDbEntity
  8
ASSI
100
AcDbLine
 62
7
  6
CONTINUOUS
 10
-5.578232
 20
-11.353749
 11
-5.578232
 21
-11.6603981075
  0
LINE
  5
424
100
AcDbEntity
  8
0
100
AcDbLine
 62
7
  6
CONTINUOUS
 10
-5.578232
 20
-12.540616
 11
-5.578232
 21
-12.9802471011
  0
LINE
  5
425
100
AcDbEntity
  8
ASSI
100
AcDbLine
 62
7
  6
CONTINUOUS
 10
-5.578232
 20
-12.540616
 11
-5.578232
 21
-12.9802471011
  0
LINE
  5
426
100
AcDbEntity
  8
0
100
AcDbLine
 62
7
  6
CONTINUOUS
 10
-5.43351
 20
-15.767274
 11
-5.43351
 21
-15.577104
  0
LINE
  5
427
100
AcDbEntity
  8
ASSI
100
AcDbLine
 62
7
  6
CONTINUOUS
 10
-5.43351
 20
-15.767274
 11
-5.43351
 21
-15.577104
  0
LINE
  5
428
100
AcDbEntity
  8
0
100
AcDbLine
 62
7
  6
CONTINUOUS
 10
-5.43351
 20
-14.862395
 11
-5.43351
 21
-14.674272
  0
LINE
  5
429
100
AcDbEntity
  8
ASSI
100
AcDbLine
 62
7
  6
CONTINUOUS
 10
-5.43351
 20
-14.862395
 11
-5.43351
 21
-14.674272
  0
LINE
  5
42A
100
AcDbEntity
  8
0
100
AcDbLine
 62
7
  6
CONTINUOUS
 10
-5.43351
 20
-14.538298
 11
-5.43351
 21
-13.626715
  0
LINE
  5
42B
100
AcDbEntity
  8
ASSI
100
AcDbLine
 62
7
  6
CONTINUOUS
 10
-5.43351
 20
-14.538298
 11
-5.43351
 21
-13.626715
  0
LINE
  5
42C
100
AcDbEntity
  8
0
100
AcDbLine
 62
7
  6
CONTINUOUS
 10
-5.43351
 20
-12.9502766852
 11
-5.43351
 21
-12.371714
  0
LINE
  5
42D
100
AcDbEntity
  8
ASSI
100
AcDbLine
 62
7
  6
CONTINUOUS
 10
-5.43351
 20
-12.9502766852
 11
-5.43351
 21
-12.371714
  0
LINE
  5
42E
100
AcDbEntity
  8
0
100
AcDbLine
 62
7
  6
CONTINUOUS
 10
-5.43351
 20
-11.7353739747
 11
-5.43351
 21
-11.18465
  0
LINE
  5
42F
100
AcDbEntity
  8
ASSI
100
AcDbLine
 62
7
  6
CONTINUOUS
 10
-5.43351
 20
-11.7353739747
 11
-5.43351
 21
-11.18465
  0
LWPOLYLINE
  5
430
100
AcDbEntity
  8
0
100
AcDbPolyline
 62
7
  6
CONTINUOUS
 90
16
 70
0
 10
-5.578232
 20
-11.6603981075
 10
-5.5785618134
 20
-11.6910992824
 10
-5.5805474895
 20
-11.7204726594
 10
-5.5841890285
 20
-11.7485182385
 10
-5.5893376656
 20
-11.7755154528
 10
-5.5961421656
 20
-11.8011848691
 10
-5.605048822
 20
-11.824688188
 10
-5.6163266114
 20
-11.8459811623
 10
-5.6297065572
 20
-11.8651080391
 10
-5.6448280243
 20
-11.8813632602
 10
-5.6615915957
 20
-11.8944238447
 10
-5.6800966883
 20
-11.9046127734
 10
-5.7002809181
 20
-11.9121934313
 10
-5.7221234904
 20
-11.9172536132
 10
-5.7456451998
 20
-11.9197055243
 10
-5.7708460465
 20
-11.9195491645
  0
LWPOLYLINE
  5
431
100
AcDbEntity
  8
ASSI
100
AcDbPolyline
 62
7
  6
CONTINUOUS
 90
16
 70
0
 10
-5.578232
 20
-11.6603981075
 10
-5.5785618134
 20
-11.6910992824
 10
-5.5805474895
 20
-11.7204726594
 10
-5.5841890285
 20
-11.7485182385
 10
-5.5893376656
 20
-11.7755154528
 10
-5.5961421656
 20
-11.8011848691
 10
-5.605048822
 20
-11.824688188
 10
-5.6163266114
 20
-11.8459811623
 10
-5.6297065572
 20
-11.8651080391
 10
-5.6448280243
 20
-11.8813632602
 10
-5.6615915957
 20
-11.8944238447
 10
-5.6800966883
 20
-11.9046127734
 10
-5.7002809181
 20
-11.9121934313
 10
-5.7221234904
 20
-11.9172536132
 10
-5.7456451998
 20
-11.9197055243
 10
-5.7708460465
 20
-11.9195491645
  0
LWPOLYLINE
  5
432
100
AcDbEntity
  8
0
100
AcDbPolyline
 62
7
  6
CONTINUOUS
 90
15
 70
0
 10
-6.148229
 20
-12.9502775093
 10
-6.1488306414
 20
-12.9794575107
 10
-6.1516432783
 20
-13.0069950421
 10
-6.1566669109
 20
-13.0328901036
 10
-6.1639027123
 20
-13.0574492801
 10
-6.1733495093
 20
-13.0803659868
 10
-6.1850037821
 20
-13.1007204682
 10
-6.1988686235
 20
-13.1181526877
 10
-6.2149409407
 20
-13.133022682
 10
-6.233207936
 20
-13.1454908058
 10
-6.2539248459
 20
-13.1554743797
 10
-6.2768364339
 20
-13.1630560831
 10
-6.301164193
 20
-13.1686443083
 10
-6.3267727081
 20
-13.1718066266
 10
-6.3537973943
 20
-13.1729754668
  0
LWPOLYLINE
  5
433
100
AcDbEntity
  8
ASSI
100
AcDbPolyline
 62
7
  6
CONTINUOUS
 90
15
 70
0
 10
-6.148229
 20
-12.9502775093
 10
-6.1488306414
 20
-12.9794575107
 10
-6.1516432783
 20
-13.0069950421
 10
-6.1566669109
 20
-13.0328901036
 10
-6.1639027123
 20
-13.0574492801
 10
-6.1733495093
 20
-13.0803659868
 10
-6.1850037821
 20
-13.1007204682
 10
-6.1988686235
 20
-13.1181526877
 10
-6.2149409407
 20
-13.133022682
 10
-6.233207936
 20
-13.1454908058
 10
-6.2539248459
 20
-13.1554743797
 10
-6.2768364339
 20
-13.1630560831
 10
-6.301164193
 20
-13.1686443083
 10
-6.3267727081
 20
-13.1718066266
 10
-6.3537973943
 20
-13.1729754668
  0
LINE
  5
434
100
AcDbEntity
  8
DRAFT
100
AcDbLine
 62
7
  6
CONTINUOUS
 10
-7.238215003
 20
-20.9317102097
 11
-7.2084845302
 21
-19.9483339502
  0
LWPOLYLINE
  5
435
100
AcDbEntity
  8
RACCORDO
100
AcDbPolyline
 62
250
  6
CONTINUOUS
 90
4
 70
0
 10
-6.25
 20
-18.1686808867
 10
-6.2527390523
 20
-18.2209431283
 10
-6.2609261996
 20
-18.2726327738
 10
-6.2744717419
 20
-18.3231835007
  0
LWPOLYLINE
  5
436
100
AcDbEntity
  8
ASSI
100
AcDbPolyline
 62
250
  6
CONTINUOUS
 90
4
 70
0
 10
-6.25
 20
-18.1686808867
 10
-6.2527390523
 20
-18.2209431283
 10
-6.2609261996
 20
-18.2726327738
 10
-6.2744717419
 20
-18.3231835007
  0
LWPOLYLINE
  5
437
100
AcDbEntity
  8
RACCORDO
100
AcDbPolyline
 62
250
  6
CONTINUOUS
 90
16
 70
0
 10
-6.25
 20
-18.2952585473
 10
-6.2527390241
 20
-18.3475205208
 10
-6.2609260924
 20
-18.39920993
 10
-6.2744715137
 20
-18.449760459
 10
-6.293226887
 20
-18.4986182625
 10
-6.3169867346
 20
-18.5452480521
 10
-6.3454907585
 20
-18.5891389585
 10
-6.3784266767
 20
-18.6298101
 10
-6.4154336474
 20
-18.6668158669
 10
-6.4561062377
 20
-18.6997508166
 10
-6.4999988431
 20
-18.7282540935
 10
-6.5466305746
 20
-18.7520133922
 10
-6.5954905404
 20
-18.7707683861
 10
-6.6460434273
 20
-18.7843135707
 10
-6.6977353644
 20
-18.7925005184
 10
-6.75
 20
-18.7952395088
  0
LWPOLYLINE
  5
438
100
AcDbEntity
  8
ASSI
100
AcDbPolyline
 62
250
  6
CONTINUOUS
 90
16
 70
0
 10
-6.25
 20
-18.2952585473
 10
-6.2527390241
 20
-18.3475205208
 10
-6.2609260924
 20
-18.39920993
 10
-6.2744715137
 20
-18.449760459
 10
-6.293226887
 20
-18.4986182625
 10
-6.3169867346
 20
-18.5452480521
 10
-6.3454907585
 20
-18.5891389585
 10
-6.3784266767
 20
-18.6298101
 10
-6.4154336474
 20
-18.6668158669
 10
-6.4561062377
 20
-18.6997508166
 10
-6.4999988431
 20
-18.7282540935
 10
-6.5466305746
 20
-18.7520133922
 10
-6.5954905404
 20
-18.7707683861
 10
-6.6460434273
 20
-18.7843135707
 10
-6.6977353644
 20
-18.7925005184
 10
-6.75
 20
-18.7952395088
  0
LWPOLYLINE
  5
439
100
AcDbEntity
  8
0
100
AcDbPolyline
 62
7
  6
CONTINUOUS
 90
19
 70
0
 10
-7.459572
 20
-15.2494639056
 10
-7.4619493255
 20
-15.2900012215
 10
-7.4673020332
 20
-15.3282493497
 10
-7.4756301231
 20
-15.3642082902
 10
-7.4868466652
 20
-15.3978405567
 10
-7.5010385896
 20
-15.4291836356
 10
-7.5184666858
 20
-15.4583499859
 10
-7.5392681206
 20
-15.4854644582
 10
-7.5633057272
 20
-15.5104022018
 10
-7.5904287958
 20
-15.5329011249
 10
-7.6209834233
 20
-15.5529317815
 10
-7.6546235127
 20
-15.5705236175
 10
-7.6901600626
 20
-15.5855028782
 10
-7.7272025345
 20
-15.5976591852
 10
-7.7661414669
 20
-15.6072029168
 10
-7.8069594749
 20
-15.6145914536
 10
-7.8496507633
 20
-15.6199772557
 10
-7.8942211272
 20
-15.6232078628
 10
-7.9406705667
 20
-15.6242832751
  0
LWPOLYLINE
  5
43A
100
AcDbEntity
  8
ASSI
100
AcDbPolyline
 62
7
  6
CONTINUOUS
 90
19
 70
0
 10
-7.459572
 20
-15.2494639056
 10
-7.4619493255
 20
-15.2900012215
 10
-7.4673020332
 20
-15.3282493497
 10
-7.4756301231
 20
-15.3642082902
 10
-7.4868466652
 20
-15.3978405567
 10
-7.5010385896
 20
-15.4291836356
 10
-7.5184666858
 20
-15.4583499859
 10
-7.5392681206
 20
-15.4854644582
 10
-7.5633057272
 20
-15.5104022018
 10
-7.5904287958
 20
-15.5329011249
 10
-7.6209834233
 20
-15.5529317815
 10
-7.6546235127
 20
-15.5705236175
 10
-7.6901600626
 20
-15.5855028782
 10
-7.7272025345
 20
-15.5976591852
 10
-7.7661414669
 20
-15.6072029168
 10
-7.8069594749
 20
-15.6145914536
 10
-7.8496507633
 20
-15.6199772557
 10
-7.8942211272
 20
-15.6232078628
 10
-7.9406705667
 20
-15.6242832751
  0
LWPOLYLINE
  5
43B
100
AcDbEntity
  8
RACCORDO
100
AcDbPolyline
 62
7
  6
CONTINUOUS
 90
18
 70
0
 10
-9.6575274152
 20
-18.1546524101
 10
-9.6575513338
 20
-18.1547686321
 10
-9.6662649482
 20
-18.1796554267
 10
-9.6785419876
 20
-18.2034644168
 10
-9.6941109919
 20
-18.2258160842
 10
-9.7121575814
 20
-18.2455718735
 10
-9.7328191815
 20
-18.2626093552
 10
-9.7559583667
 20
-18.2770509588
 10
-9.7803484811
 20
-18.2881254173
 10
-9.8060555336
 20
-18.2956492647
 10
-9.8330135152
 20
-18.2998059669
 10
-9.8597977437
 20
-18.3003746549
 10
-9.8863856284
 20
-18.2971786568
 10
-9.91279976
 20
-18.2903946445
 10
-9.937683228
 20
-18.2803317644
 10
-9.9605837291
 20
-18.2670930656
 10
-9.9819535666
 20
-18.250575499
 10
-10.0017927407
 20
-18.2307790647
  0
LINE
  5
43C
100
AcDbEntity
  8
RACCORDO
100
AcDbLine
 62
7
  6
CONTINUOUS
 10
-1.0
 20
8.5
 11
-0.958753325
 21
8.5417748854
  0
LINE
  5
43D
100
AcDbEntity
  8
ASSI
100
AcDbLine
 62
7
  6
CONTINUOUS
 10
-1.0
 20
8.5
 11
-0.958753325
 21
8.5417748854
  0
LINE
  5
43E
100
AcDbEntity
  8
ASSI
100
AcDbLine
 62
7
  6
CONTINUOUS
 10
-7.174959
 20
4.369462
 11
-9.225056
 21
3.711248
  0
LINE
  5
43F
100
AcDbEntity
  8
ASSI
100
AcDbLine
 62
7
  6
CONTINUOUS
 10
-8.586558
 20
3.506228
 11
-7.174959
 21
3.959442
  0
LINE
  5
440
100
AcDbEntity
  8
0
100
AcDbLine
 62
250
  6
CONTINUOUS
 10
10.9677130929
 20
-6.332387
 11
10.9520058311
 21
-6.332387
  0
LINE
  5
441
100
AcDbEntity
  8
CURVE
100
AcDbLine
 62
250
  6
CONTINUOUS
 10
10.9047258898
 20
-6.1214285493
 11
10.899864148
 21
-6.1214285493
  0
LINE
  5
442
100
AcDbEntity
  8
0
100
AcDbLine
 62
250
  6
CONTINUOUS
 10
10.9549079375
 20
-6.105488
 11
10.9677130929
 21
-6.105488
  0
LINE
  5
443
100
AcDbEntity
  8
CURVE
100
AcDbLine
 62
250
  6
CONTINUOUS
 10
10.9286735909
 20
-5.8190477371
 11
10.9173295267
 21
-5.8190477371
  0
LINE
  5
444
100
AcDbEntity
  8
CURVE
100
AcDbLine
 62
250
  6
CONTINUOUS
 10
10.9022950187
 20
-5.5333333462
 11
10.8966229866
 21
-5.5333333462
  0
LINE
  5
445
100
AcDbEntity
  8
0
100
AcDbLine
 62
250
  6
CONTINUOUS
 10
10.9646790647
 20
-5.124786
 11
10.9520058311
 21
-5.124786
  0
LINE
  5
446
100
AcDbEntity
  8
CURVE
100
AcDbLine
 62
250
  6
CONTINUOUS
 10
10.9173295267
 20
-4.98333323
 11
10.9286735909
 21
-4.98333323
  0
LINE
  5
447
100
AcDbEntity
  8
0
100
AcDbLine
 62
7
  6
CONTINUOUS
 10
-5.3335253517
 20
-4.3174244696
 11
-4.2233086861
 21
-4.675020533
  0
LINE
  5
448
100
AcDbEntity
  8
0
100
AcDbLine
 62
7
  6
CONTINUOUS
 10
-4.1303300859
 20
-4.5303300859
 11
-4.6901949367
 21
-4.35
  0
LWPOLYLINE
  5
449
100
AcDbEntity
  8
RACCORDO
100
AcDbPolyline
 62
7
  6
CONTINUOUS
 90
7
 70
0
 10
-0.6464466094
 20
-8.8535533906
 10
-0.6811971935
 20
-8.8180570362
 10
-0.7179599513
 20
-8.7814518204
 10
-0.7562622569
 20
-8.7437377431
 10
-0.7954979242
 20
-8.7046987743
 10
-0.8353918094
 20
-8.6645509439
 10
-0.8760576577
 20
-8.6239423423
  0
LWPOLYLINE
  5
44A
100
AcDbEntity
  8
ASSI
100
AcDbPolyline
 62
7
  6
CONTINUOUS
 90
7
 70
0
 10
-0.6464466094
 20
-8.8535533906
 10
-0.6811971935
 20
-8.8180570362
 10
-0.7179599513
 20
-8.7814518204
 10
-0.7562622569
 20
-8.7437377431
 10
-0.7954979242
 20
-8.7046987743
 10
-0.8353918094
 20
-8.6645509439
 10
-0.8760576577
 20
-8.6239423423
  0
LINE
  5
44B
100
AcDbEntity
  8
0
100
AcDbLine
 62
7
  6
CONTINUOUS
 10
-4.1303300859
 20
-3.4696699141
 11
-4.2233086861
 21
-3.324979467
  0
LINE
  5
44C
100
AcDbEntity
  8
0
100
AcDbLine
 62
7
  6
CONTINUOUS
 10
-3.0696699141
 20
-4.5303300859
 11
-2.9766913139
 21
-4.675020533
  0
LINE
  5
44D
100
AcDbEntity
  8
0
100
AcDbLine
 62
7
  6
CONTINUOUS
 10
-4.2233086861
 20
-4.675020533
 11
-4.1
 21
-5.0578529305
  0
LINE
  5
44E
100
AcDbEntity
  8
0
100
AcDbLine
 62
7
  6
CONTINUOUS
 10
-4.1
 20
-4.7841531217
 11
-3.922924983
 21
-5.3339120679
  0
LINE
  5
44F
100
AcDbEntity
  8
0
100
AcDbLine
 62
7
  6
CONTINUOUS
 10
-4.1303300859
 20
-4.5303300859
 11
-3.95
 21
-5.0901949367
  0
LINE
  5
450
100
AcDbEntity
  8
0
100
AcDbLine
 62
7
  6
CONTINUOUS
 10
-2.2697234842
 20
-13.7697234842
 11
-2.1
 21
-14.3401949367
  0
LINE
  5
451
100
AcDbEntity
  8
0
100
AcDbLine
 62
7
  6
CONTINUOUS
 10
-3.922924983
 20
-5.3339120679
 11
-3.9319838504
 21
-5.25079274
  0
LINE
  5
452
100
AcDbEntity
  8
0
100
AcDbLine
 62
7
  6
CONTINUOUS
 10
-3.277075017
 20
-2.6660879321
 11
-3.2680161496
 21
-2.74920726
  0
LINE
  5
453
100
AcDbEntity
  8
DRAFT
100
AcDbLine
 62
7
  6
CONTINUOUS
 10
-3.434596365
 20
-21.2139629885
 11
-3.3821231691
 21
-22.2
  0
LINE
  5
454
100
AcDbEntity
  8
DRAFT
100
AcDbLine
 62
7
  6
CONTINUOUS
 10
-4.5
 20
18.9
 11
-4.5
 21
18.8834189512
  0
LINE
  5
455
100
AcDbEntity
  8
ASSI
100
AcDbLine
 62
7
  6
CONTINUOUS
 10
-4.5
 20
18.9
 11
-4.5
 21
18.8834189512
  0
LINE
  5
456
100
AcDbEntity
  8
DRAFT
100
AcDbLine
 62
7
  6
CONTINUOUS
 10
-4.5
 20
-18.9
 11
-4.5
 21
-18.8834189512
  0
LINE
  5
457
100
AcDbEntity
  8
ASSI
100
AcDbLine
 62
7
  6
CONTINUOUS
 10
-4.5
 20
-18.9
 11
-4.5
 21
-18.8834189512
  0
LINE
  5
458
100
AcDbEntity
  8
0
100
AcDbLine
 62
7
  6
CONTINUOUS
 10
-4.1
 20
-4.7841531217
 11
-4.1
 21
-5.9681479131
  0
LINE
  5
459
100
AcDbEntity
  8
0
100
AcDbLine
 62
7
  6
CONTINUOUS
 10
-4.1
 20
-3.2158468783
 11
-4.1
 21
-2.0318520869
  0
LINE
  5
45A
100
AcDbEntity
  8
0
100
AcDbLine
 62
7
  6
CONTINUOUS
 10
-3.84
 20
-13.6
 11
-3.84
 21
-12.9
  0
LINE
  5
45B
100
AcDbEntity
  8
DRAFT
100
AcDbLine
 62
7
  6
CONTINUOUS
 10
-3.434596365
 20
21.2139629885
 11
-3.3821231691
 21
22.2
  0
LWPOLYLINE
  5
45C
100
AcDbEntity
  8
0
100
AcDbPolyline
 62
7
  6
CONTINUOUS
 90
16
 70
0
 10
-5.578232
 20
-12.9802471011
 10
-5.5800354422
 20
-13.0054281393
 10
-5.5834945674
 20
-13.0293111456
 10
-5.5886093757
 20
-13.05189612
 10
-5.5950819108
 20
-13.0732694446
 10
-5.6032101291
 20
-13.0933447373
 10
-5.6138878986
 20
-13.1118628521
 10
-5.6277952246
 20
-13.1290795175
 10
-5.6442521019
 20
-13.1447390048
 10
-5.6621123836
 20
-13.1578149827
 10
-5.6810377378
 20
-13.1677142195
 10
-5.7013664964
 20
-13.1750299467
 10
-5.7229675086
 20
-13.1805155276
 10
-5.7457970576
 20
-13.1844220833
 10
-5.7698988602
 20
-13.1864984926
 10
-5.7952729165
 20
-13.1867447556
  0
LWPOLYLINE
  5
45D
100
AcDbEntity
  8
ASSI
100
AcDbPolyline
 62
7
  6
CONTINUOUS
 90
16
 70
0
 10
-5.578232
 20
-12.9802471011
 10
-5.5800354422
 20
-13.0054281393
 10
-5.5834945674
 20
-13.0293111456
 10
-5.5886093757
 20
-13.05189612
 10
-5.5950819108
 20
-13.0732694446
 10
-5.6032101291
 20
-13.0933447373
 10
-5.6138878986
 20
-13.1118628521
 10
-5.6277952246
 20
-13.1290795175
 10
-5.6442521019
 20
-13.1447390048
 10
-5.6621123836
 20
-13.1578149827
 10
-5.6810377378
 20
-13.1677142195
 10
-5.7013664964
 20
-13.1750299467
 10
-5.7229675086
 20
-13.1805155276
 10
-5.7457970576
 20
-13.1844220833
 10
-5.7698988602
 20
-13.1864984926
 10
-5.7952729165
 20
-13.1867447556
  0
LINE
  5
45E
100
AcDbEntity
  8
0
100
AcDbLine
 62
7
  6
CONTINUOUS
 10
-3.922924983
 20
-2.6660879321
 11
-3.9439996244
 21
-2.8570793133
  0
LINE
  5
45F
100
AcDbEntity
  8
0
100
AcDbLine
 62
7
  6
CONTINUOUS
 10
-3.9439996244
 20
-2.8570793133
 11
-3.95
 21
-2.9098050633
  0
LWPOLYLINE
  5
460
100
AcDbEntity
  8
0
100
AcDbPolyline
 62
7
  6
CONTINUOUS
 90
28
 70
0
 10
-6.101212
 20
-11.7466350445
 10
-6.1046196614
 20
-11.7750325592
 10
-6.109552384
 20
-11.8020032952
 10
-6.1160101678
 20
-11.8275472527
 10
-6.1239361727
 20
-11.851890349
 10
-6.1333872388
 20
-11.8748066667
 10
-6.1445338861
 20
-11.8956184532
 10
-6.1573604902
 20
-11.9141592407
 10
-6.1718826755
 20
-11.930595497
 10
-6.1883178353
 20
-11.9447488726
 10
-6.2068294991
 20
-11.9565468172
 10
-6.2272541373
 20
-11.9660618811
 10
-6.2493185542
 20
-11.9733333661
 10
-6.2733150097
 20
-11.9785847289
 10
-6.2989512439
 20
-11.9815925127
 10
-6.3250772814
 20
-11.9817256493
 10
-6.3520663803
 20
-11.9787864982
 10
-6.3795452825
 20
-11.9729727
 10
-6.4052442388
 20
-11.9642461071
 10
-6.4283819271
 20
-11.9526605597
 10
-6.4497396695
 20
-11.9381622178
 10
-6.4693916826
 20
-11.9205514142
 10
-6.4878046637
 20
-11.8993356147
 10
-6.5045119155
 20
-11.8750073535
 10
-6.5181875625
 20
-11.8488445661
 10
-6.5283896464
 20
-11.8212732309
 10
-6.5355601256
 20
-11.7918673695
 10
-6.539699
 20
-11.7606269818
  0
LWPOLYLINE
  5
461
100
AcDbEntity
  8
ASSI
100
AcDbPolyline
 62
7
  6
CONTINUOUS
 90
28
 70
0
 10
-6.101212
 20
-11.7466350445
 10
-6.1046196614
 20
-11.7750325592
 10
-6.109552384
 20
-11.8020032952
 10
-6.1160101678
 20
-11.8275472527
 10
-6.1239361727
 20
-11.851890349
 10
-6.1333872388
 20
-11.8748066667
 10
-6.1445338861
 20
-11.8956184532
 10
-6.1573604902
 20
-11.9141592407
 10
-6.1718826755
 20
-11.930595497
 10
-6.1883178353
 20
-11.9447488726
 10
-6.2068294991
 20
-11.9565468172
 10
-6.2272541373
 20
-11.9660618811
 10
-6.2493185542
 20
-11.9733333661
 10
-6.2733150097
 20
-11.9785847289
 10
-6.2989512439
 20
-11.9815925127
 10
-6.3250772814
 20
-11.9817256493
 10
-6.3520663803
 20
-11.9787864982
 10
-6.3795452825
 20
-11.9729727
 10
-6.4052442388
 20
-11.9642461071
 10
-6.4283819271
 20
-11.9526605597
 10
-6.4497396695
 20
-11.9381622178
 10
-6.4693916826
 20
-11.9205514142
 10
-6.4878046637
 20
-11.8993356147
 10
-6.5045119155
 20
-11.8750073535
 10
-6.5181875625
 20
-11.8488445661
 10
-6.5283896464
 20
-11.8212732309
 10
-6.5355601256
 20
-11.7918673695
 10
-6.539699
 20
-11.7606269818
  0
LINE
  5
462
100
AcDbEntity
  8
DRAFT
100
AcDbLine
 62
7
  6
CONTINUOUS
 10
3.0104834329
 20
22.1955695989
 11
2.700388948
 21
21.1802222394
  0
LWPOLYLINE
  5
463
100
AcDbEntity
  8
RACCORDO
100
AcDbPolyline
 62
250
  6
CONTINUOUS
 90
13
 70
0
 10
2.7744717419
 20
18.3231835007
 10
2.7932272712
 20
18.3720414646
 10
2.8169872981
 20
18.4186713675
 10
2.8454915028
 20
18.4625623223
 10
2.8784275873
 20
18.5032334507
 10
2.9154346968
 20
18.5402391511
 10
2.9561073739
 20
18.5731739815
 10
3.0000000001
 20
18.6016771008
 10
3.0466316785
 20
18.625436223
 10
3.0954915029
 20
18.6441910382
 10
3.1460441547
 20
18.6577360646
 10
3.1977357684
 20
18.6659229002
 10
3.25
 20
18.6686618482
  0
LWPOLYLINE
  5
464
100
AcDbEntity
  8
ASSI
100
AcDbPolyline
 62
250
  6
CONTINUOUS
 90
13
 70
0
 10
2.7744717419
 20
18.3231835007
 10
2.7932272712
 20
18.3720414646
 10
2.8169872981
 20
18.4186713675
 10
2.8454915028
 20
18.4625623223
 10
2.8784275873
 20
18.5032334507
 10
2.9154346968
 20
18.5402391511
 10
2.9561073739
 20
18.5731739815
 10
3.0000000001
 20
18.6016771008
 10
3.0466316785
 20
18.625436223
 10
3.0954915029
 20
18.6441910382
 10
3.1460441547
 20
18.6577360646
 10
3.1977357684
 20
18.6659229002
 10
3.25
 20
18.6686618482
  0
LINE
  5
465
100
AcDbEntity
  8
ASSI
100
AcDbLine
 62
7
  6
CONTINUOUS
 10
-7.873153
 20
1.139626
 11
-9.225051
 21
0.751981
  0
LINE
  5
466
100
AcDbEntity
  8
0
100
AcDbLine
 62
7
  6
CONTINUOUS
 10
-2.3078180202
 20
-4.3389422788
 11
-2.5098050633
 21
-4.35
  0
LINE
  5
467
100
AcDbEntity
  8
0
100
AcDbLine
 62
7
  6
CONTINUOUS
 10
-4.8921819798
 20
-3.6610577212
 11
-4.6901949367
 21
-3.65
  0
LWPOLYLINE
  5
468
100
AcDbEntity
  8
0
100
AcDbPolyline
 62
7
  6
CONTINUOUS
 90
3
 70
0
 10
-1.8664746483
 20
-4.3174244696
 10
-1.9436548784
 20
-4.3210061409
 10
-2.3078180202
 20
-4.3389422788
  0
LWPOLYLINE
  5
469
100
AcDbEntity
  8
0
100
AcDbPolyline
 62
7
  6
CONTINUOUS
 90
3
 70
0
 10
-5.3335253517
 20
-3.6825755304
 10
-5.2563451216
 20
-3.6789938591
 10
-4.8921819798
 20
-3.6610577212
  0
LINE
  5
46A
100
AcDbEntity
  8
0
100
AcDbLine
 62
250
  6
CONTINUOUS
 10
10.9520058311
 20
-4.897904
 11
10.9677130929
 21
-4.897904
  0
LINE
  5
46B
100
AcDbEntity
  8
RACCORDO
100
AcDbLine
 62
250
  6
CONTINUOUS
 10
-1.0
 20
-4.6493203631
 11
-0.5
 21
-4.6493203631
  0
LINE
  5
46C
100
AcDbEntity
  8
ASSI
100
AcDbLine
 62
250
  6
CONTINUOUS
 10
-1.0
 20
-4.6493203631
 11
-0.5
 21
-4.6493203631
  0
LINE
  5
46D
100
AcDbEntity
  8
CURVE
100
AcDbLine
 62
250
  6
CONTINUOUS
 10
10.9189501074
 20
-4.6119048357
 11
10.9213809783
 21
-4.6119048357
  0
LINE
  5
46E
100
AcDbEntity
  8
CURVE
100
AcDbLine
 62
250
  6
CONTINUOUS
 10
10.9246221393
 20
-4.5190477371
 11
10.9270530104
 21
-4.5190477371
  0
LINE
  5
46F
100
AcDbEntity
  8
0
100
AcDbLine
 62
250
  6
CONTINUOUS
 10
10.826335331
 20
-3.9999999992
 11
10.8350622019
 21
-3.9999999992
  0
LINE
  5
470
100
AcDbEntity
  8
0
100
AcDbLine
 62
250
  6
CONTINUOUS
 10
10.8699696762
 20
-3.9999999992
 11
10.8786965377
 21
-3.9999999992
  0
LINE
  5
471
100
AcDbEntity
  8
CURVE
100
AcDbLine
 62
250
  6
CONTINUOUS
 10
10.9286735909
 20
-3.9619048357
 11
10.9173295267
 21
-3.9619048357
  0
LINE
  5
472
100
AcDbEntity
  8
RACCORDO
100
AcDbLine
 62
250
  6
CONTINUOUS
 10
-1.0
 20
-3.3506796369
 11
-0.5
 21
-3.3506796369
  0
LINE
  5
473
100
AcDbEntity
  8
ASSI
100
AcDbLine
 62
250
  6
CONTINUOUS
 10
-1.0
 20
-3.3506796369
 11
-0.5
 21
-3.3506796369
  0
LINE
  5
474
100
AcDbEntity
  8
0
100
AcDbLine
 62
7
  6
CONTINUOUS
 10
-5.3335253517
 20
-4.3174244696
 11
-5.1063322632
 21
-4.3281750397
  0
LINE
  5
475
100
AcDbEntity
  8
0
100
AcDbLine
 62
7
  6
CONTINUOUS
 10
-1.8664746483
 20
-3.6825755304
 11
-2.0936677368
 21
-3.6718249603
  0
LINE
  5
476
100
AcDbEntity
  8
0
100
AcDbLine
 62
7
  6
CONTINUOUS
 10
-5.1063322632
 20
-4.3281750397
 11
-4.8921819798
 21
-4.3389422788
  0
LINE
  5
477
100
AcDbEntity
  8
0
100
AcDbLine
 62
7
  6
CONTINUOUS
 10
-2.0936677368
 20
-3.6718249603
 11
-2.3078180202
 21
-3.6610577212
  0
LINE
  5
478
100
AcDbEntity
  8
0
100
AcDbLine
 62
7
  6
CONTINUOUS
 10
-4.8921819798
 20
-4.3389422788
 11
-4.6901949367
 21
-4.35
  0
LINE
  5
479
100
AcDbEntity
  8
0
100
AcDbLine
 62
7
  6
CONTINUOUS
 10
-2.3078180202
 20
-3.6610577212
 11
-2.5098050633
 21
-3.65
  0
LINE
  5
47A
100
AcDbEntity
  8
ASSI
100
AcDbLine
 62
7
  6
CONTINUOUS
 10
-9.225046
 20
-1.139047
 11
-8.821883
 21
-1.268489
  0
LINE
  5
47B
100
AcDbEntity
  8
ASSI
100
AcDbLine
 62
7
  6
CONTINUOUS
 10
-8.432368
 20
-1.393554
 11
-7.813452
 21
-1.592256
  0
LINE
  5
47C
100
AcDbEntity
  8
ASSI
100
AcDbLine
 62
7
  6
CONTINUOUS
 10
-7.174954
 20
-1.38724
 11
-9.225051
 21
-0.729031
  0
LINE
  5
47D
100
AcDbEntity
  8
0
100
AcDbLine
 62
7
  6
CONTINUOUS
 10
-3.0696699141
 20
-3.4696699141
 11
-2.5098050633
 21
-3.65
  0
LINE
  5
47E
100
AcDbEntity
  8
0
100
AcDbLine
 62
7
  6
CONTINUOUS
 10
-1.8664746483
 20
-3.6825755304
 11
-2.9766913139
 21
-3.324979467
  0
LWPOLYLINE
  5
47F
100
AcDbEntity
  8
0
100
AcDbPolyline
 62
250
  6
CONTINUOUS
 90
11
 70
0
 10
10.9582947348
 20
-13.2763980551
 10
10.9580921929
 20
-13.2762491111
 10
10.9578896968
 20
-13.2757804178
 10
10.9576872938
 20
-13.2749591833
 10
10.9574850311
 20
-13.273752616
 10
10.957282956
 20
-13.272127924
 10
10.9570811158
 20
-13.2700523155
 10
10.9568795576
 20
-13.2674929988
 10
10.9566783288
 20
-13.2644171819
 10
10.9564774766
 20
-13.2607920732
 10
10.9562770482
 20
-13.2565848808
  0
LWPOLYLINE
  5
480
100
AcDbEntity
  8
RACCORDO
100
AcDbPolyline
 62
250
  6
CONTINUOUS
 90
13
 70
0
 10
2.7744716767
 20
-18.3231833001
 10
2.793227178
 20
-18.3720412554
 10
2.8169871876
 20
-18.418671176
 10
2.8454913928
 20
-18.4625621709
 10
2.8784275122
 20
-18.5032333673
 10
2.9154346885
 20
-18.5402391436
 10
2.9561074308
 20
-18.5731740228
 10
3.0000001034
 20
-18.6016771605
 10
3.0466318146
 20
-18.6254362836
 10
3.0954916478
 20
-18.6441910853
 10
3.1460442795
 20
-18.6577360912
 10
3.1977358448
 20
-18.6659229082
 10
3.25
 20
-18.6686618482
  0
LWPOLYLINE
  5
481
100
AcDbEntity
  8
ASSI
100
AcDbPolyline
 62
250
  6
CONTINUOUS
 90
13
 70
0
 10
2.7744716767
 20
-18.3231833001
 10
2.793227178
 20
-18.3720412554
 10
2.8169871876
 20
-18.418671176
 10
2.8454913928
 20
-18.4625621709
 10
2.8784275122
 20
-18.5032333673
 10
2.9154346885
 20
-18.5402391436
 10
2.9561074308
 20
-18.5731740228
 10
3.0000001034
 20
-18.6016771605
 10
3.0466318146
 20
-18.6254362836
 10
3.0954916478
 20
-18.6441910853
 10
3.1460442795
 20
-18.6577360912
 10
3.1977358448
 20
-18.6659229082
 10
3.25
 20
-18.6686618482
  0
LINE
  5
482
100
AcDbEntity
  8
0
100
AcDbLine
 62
7
  6
CONTINUOUS
 10
-3.0696699141
 20
-3.4696699141
 11
-3.25
 21
-2.9098050633
  0
LINE
  5
483
100
AcDbEntity
  8
0
100
AcDbLine
 62
7
  6
CONTINUOUS
 10
-3.1
 20
-3.2158468783
 11
-3.277075017
 21
-2.6660879321
  0
LINE
  5
484
100
AcDbEntity
  8
0
100
AcDbLine
 62
7
  6
CONTINUOUS
 10
-2.9766913139
 20
-3.324979467
 11
-3.1
 21
-2.9421470695
  0
LINE
  5
485
100
AcDbEntity
  8
DRAFT
100
AcDbLine
 62
7
  6
CONTINUOUS
 10
2.700388948
 20
-21.1802222394
 11
3.0104834329
 21
-22.1955695989
  0
LINE
  5
486
100
AcDbEntity
  8
0
100
AcDbLine
 62
7
  6
CONTINUOUS
 10
-1.2302765158
 20
-12.7302765158
 11
-1.4
 21
-12.1598050633
  0
LINE
  5
487
100
AcDbEntity
  8
0
100
AcDbLine
 62
7
  6
CONTINUOUS
 10
-3.9319838504
 20
-5.25079274
 11
-3.95
 21
-5.0901949367
  0
LINE
  5
488
100
AcDbEntity
  8
0
100
AcDbLine
 62
7
  6
CONTINUOUS
 10
-3.2680161496
 20
-2.74920726
 11
-3.25
 21
-2.9098050633
  0
LINE
  5
489
100
AcDbEntity
  8
DRAFT
100
AcDbLine
 62
7
  6
CONTINUOUS
 10
-3.0984611006
 20
21.199923836
 11
-3.1
 21
22.2
  0
LINE
  5
48A
100
AcDbEntity
  8
0
100
AcDbLine
 62
7
  6
CONTINUOUS
 10
-3.1
 20
-4.7841531217
 11
-3.1
 21
-5.8905355369
  0
LINE
  5
48B
100
AcDbEntity
  8
0
100
AcDbLine
 62
7
  6
CONTINUOUS
 10
-3.1
 20
-3.2158468783
 11
-3.1
 21
-2.1094644631
  0
LINE
  5
48C
100
AcDbEntity
  8
0
100
AcDbLine
 62
7
  6
CONTINUOUS
 10
-2.8926949447
 20
-12.9
 11
-2.8926949447
 21
-13.1773827613
  0
LINE
  5
48D
100
AcDbEntity
  8
0
100
AcDbLine
 62
7
  6
CONTINUOUS
 10
-2.8926949447
 20
-13.3226172387
 11
-2.8926949447
 21
-13.6
  0
LINE
  5
48E
100
AcDbEntity
  8
RACCORDO
100
AcDbLine
 62
7
  6
CONTINUOUS
 10
-2.5
 20
-19.1
 11
-2.5
 21
-18.8678924911
  0
LINE
  5
48F
100
AcDbEntity
  8
ASSI
100
AcDbLine
 62
7
  6
CONTINUOUS
 10
-2.5
 20
-19.1
 11
-2.5
 21
-18.8678924911
  0
LINE
  5
490
100
AcDbEntity
  8
RACCORDO
100
AcDbLine
 62
7
  6
CONTINUOUS
 10
-2.5
 20
18.8678924911
 11
-2.5
 21
19.1
  0
LINE
  5
491
100
AcDbEntity
  8
ASSI
100
AcDbLine
 62
7
  6
CONTINUOUS
 10
-2.5
 20
18.8678924911
 11
-2.5
 21
19.1
  0
LINE
  5
492
100
AcDbEntity
  8
RACCORDO
100
AcDbLine
 62
7
  6
CONTINUOUS
 10
-2.25
 20
-11.1224974245
 11
-2.25
 21
-12.6639823037
  0
LINE
  5
493
100
AcDbEntity
  8
RACCORDO
100
AcDbLine
 62
7
  6
CONTINUOUS
 10
-2.25
 20
-13.8360176963
 11
-2.25
 21
-15.6548267937
  0
LINE
  5
494
100
AcDbEntity
  8
0
100
AcDbLine
 62
7
  6
CONTINUOUS
 10
-2.1
 20
-11.6585816081
 11
-2.1
 21
-12.1598050633
  0
LINE
  5
495
100
AcDbEntity
  8
0
100
AcDbLine
 62
7
  6
CONTINUOUS
 10
-2.1
 20
-14.3401949367
 11
-2.1
 21
-14.8414183919
  0
LINE
  5
496
100
AcDbEntity
  8
DRAFT
100
AcDbLine
 62
7
  6
CONTINUOUS
 10
-3.0984611006
 20
-21.199923836
 11
-3.1
 21
-22.2
  0
LINE
  5
497
100
AcDbEntity
  8
0
100
AcDbLine
 62
7
  6
CONTINUOUS
 10
-3.277075017
 20
-5.3339120679
 11
-3.2560003756
 21
-5.1429206867
  0
LINE
  5
498
100
AcDbEntity
  8
0
100
AcDbLine
 62
7
  6
CONTINUOUS
 10
-3.2560003756
 20
-5.1429206867
 11
-3.25
 21
-5.0901949367
  0
LINE
  5
499
100
AcDbEntity
  8
0
100
AcDbLine
 62
7
  6
CONTINUOUS
 10
-4.1
 20
-2.9421470695
 11
-4.2233086861
 21
-3.324979467
  0
LINE
  5
49A
100
AcDbEntity
  8
0
100
AcDbLine
 62
7
  6
CONTINUOUS
 10
-3.922924983
 20
-2.6660879321
 11
-4.1
 21
-3.2158468783
  0
LINE
  5
49B
100
AcDbEntity
  8
0
100
AcDbLine
 62
7
  6
CONTINUOUS
 10
-4.1303300859
 20
-3.4696699141
 11
-3.95
 21
-2.9098050633
  0
LINE
  5
49C
100
AcDbEntity
  8
0
100
AcDbLine
 62
7
  6
CONTINUOUS
 10
-3.0696699141
 20
-4.5303300859
 11
-3.25
 21
-5.0901949367
  0
LINE
  5
49D
100
AcDbEntity
  8
RACCORDO
100
AcDbLine
 62
250
  6
CONTINUOUS
 10
11.0
 20
15.4001332693
 11
10.7686618482
 21
15.1687951175
  0
LINE
  5
49E
100
AcDbEntity
  8
ASSI
100
AcDbLine
 62
250
  6
CONTINUOUS
 10
11.0
 20
15.4001332693
 11
10.7686618482
 21
15.1687951175
  0
LINE
  5
49F
100
AcDbEntity
  8
0
100
AcDbLine
 62
7
  6
CONTINUOUS
 10
10.8380216576
 20
14.2900049305
 11
10.8579358221
 21
14.309919095
  0
LINE
  5
4A0
100
AcDbEntity
  8
0
100
AcDbLine
 62
7
  6
CONTINUOUS
 10
10.8327930319
 20
13.8647548768
 11
10.8632284142
 21
13.8951902591
  0
LINE
  5
4A1
100
AcDbEntity
  8
0
100
AcDbLine
 62
7
  6
CONTINUOUS
 10
10.85724186
 20
13.4691822768
 11
10.866404284
 21
13.4783447009
  0
LINE
  5
4A2
100
AcDbEntity
  8
0
100
AcDbLine
 62
7
  6
CONTINUOUS
 10
10.8296811286
 20
13.4416215454
 11
10.8388435526
 21
13.4507839694
  0
LINE
  5
4A3
100
AcDbEntity
  8
0
100
AcDbLine
 62
7
  6
CONTINUOUS
 10
10.860854698
 20
13.0527736868
 11
10.8684671324
 21
13.0603861212
  0
LINE
  5
4A4
100
AcDbEntity
  8
0
100
AcDbLine
 62
7
  6
CONTINUOUS
 10
10.8276822466
 20
13.0196012354
 11
10.835294681
 21
13.0272136698
  0
LINE
  5
4A5
100
AcDbEntity
  8
ASSI
100
AcDbLine
 62
7
  6
CONTINUOUS
 10
-8.510052
 20
0.546976
 11
-7.174959
 21
0.929808
  0
LINE
  5
4A6
100
AcDbEntity
  8
ASSI
100
AcDbLine
 62
7
  6
CONTINUOUS
 10
-8.053097
 20
-3.133205
 11
-7.554219
 21
-3.1332
  0
LINE
  5
4A7
100
AcDbEntity
  8
ASSI
100
AcDbLine
 62
7
  6
CONTINUOUS
 10
-7.174954
 20
-2.728837
 11
-9.225046
 21
-2.728837
  0
LINE
  5
4A8
100
AcDbEntity
  8
CURVE
100
AcDbLine
 62
250
  6
CONTINUOUS
 10
10.9270530104
 20
-1.7642856479
 11
10.9189501074
 21
-1.7642856479
  0
LINE
  5
4A9
100
AcDbEntity
  8
ASSI
100
AcDbLine
 62
7
  6
CONTINUOUS
 10
-9.225046
 20
-3.138858
 11
-8.432362
 21
-3.138904
  0
LINE
  5
4AA
100
AcDbEntity
  8
ASSI
100
AcDbLine
 62
7
  6
CONTINUOUS
 10
-9.225046
 20
0.341976
 11
-7.873153
 21
-0.045669
  0
LINE
  5
4AB
100
AcDbEntity
  8
ASSI
100
AcDbLine
 62
7
  6
CONTINUOUS
 10
-7.174959
 20
0.164144
 11
-8.510052
 21
0.546976
  0
LINE
  5
4AC
100
AcDbEntity
  8
RACCORDO
100
AcDbLine
 62
250
  6
CONTINUOUS
 10
11.0
 20
-15.4001332693
 11
10.7686618482
 21
-15.1687951175
  0
LINE
  5
4AD
100
AcDbEntity
  8
ASSI
100
AcDbLine
 62
250
  6
CONTINUOUS
 10
11.0
 20
-15.4001332693
 11
10.7686618482
 21
-15.1687951175
  0
LWPOLYLINE
  5
4AE
100
AcDbEntity
  8
RACCORDO
100
AcDbPolyline
 62
7
  6
CONTINUOUS
 90
17
 70
0
 10
-9.6916482577
 20
18.1266502444
 10
-9.6924726323
 20
18.1290027592
 10
-9.704768092
 20
18.1528254734
 10
-9.720360131
 20
18.1751875753
 10
-9.7384318821
 20
18.1949482035
 10
-9.7591210978
 20
18.2119844105
 10
-9.7822900256
 20
18.2264191439
 10
-9.8067085406
 20
18.2374803858
 10
-9.8324424866
 20
18.2449841225
 10
-9.8594260199
 20
18.2491143678
 10
-9.886231484
 20
18.2496511448
 10
-9.9128361126
 20
18.2464176121
 10
-9.939262672
 20
18.2395906111
 10
-9.9641518054
 20
18.2294806897
 10
-9.9870503938
 20
18.2161913638
 10
-10.0084115562
 20
18.1996191174
 10
-10.0282352926
 20
18.1797639505
  0
LINE
  5
4AF
100
AcDbEntity
  8
0
100
AcDbLine
 62
7
  6
CONTINUOUS
 10
0.975
 20
-12.4277568136
 11
1.825
 21
-15.6
  0
LINE
  5
4B0
100
AcDbEntity
  8
ASSI
100
AcDbLine
 62
7
  6
CONTINUOUS
 10
0.975
 20
-12.4277568136
 11
1.825
 21
-15.6
  0
LWPOLYLINE
  5
4B1
100
AcDbEntity
  8
RACCORDO
100
AcDbPolyline
 62
250
  6
CONTINUOUS
 90
13
 70
0
 10
-1.0
 20
-3.3506796369
 10
-0.9880992871
 20
-3.46178311
 10
-0.9786376393
 20
-3.571607675
 10
-0.9714533214
 20
-3.6802241234
 10
-0.9663699679
 20
-3.7874084783
 10
-0.9632665875
 20
-3.89355297
 10
-0.9621910243
 20
-3.9996471755
 10
-0.9632525143
 20
-4.1057657829
 10
-0.966346946
 20
-4.2119776497
 10
-0.971423814
 20
-4.3192642531
 10
-0.9786056655
 20
-4.428015661
 10
-0.9880756416
 20
-4.5380107733
 10
-1.0
 20
-4.6493203631
  0
LWPOLYLINE
  5
4B2
100
AcDbEntity
  8
ASSI
100
AcDbPolyline
 62
250
  6
CONTINUOUS
 90
13
 70
0
 10
-1.0
 20
-3.3506796369
 10
-0.9880992871
 20
-3.46178311
 10
-0.9786376393
 20
-3.571607675
 10
-0.9714533214
 20
-3.6802241234
 10
-0.9663699679
 20
-3.7874084783
 10
-0.9632665875
 20
-3.89355297
 10
-0.9621910243
 20
-3.9996471755
 10
-0.9632525143
 20
-4.1057657829
 10
-0.966346946
 20
-4.2119776497
 10
-0.971423814
 20
-4.3192642531
 10
-0.9786056655
 20
-4.428015661
 10
-0.9880756416
 20
-4.5380107733
 10
-1.0
 20
-4.6493203631
  0
LWPOLYLINE
  5
4B3
100
AcDbEntity
  8
RACCORDO
100
AcDbPolyline
 62
250
  6
CONTINUOUS
 90
13
 70
0
 10
-1.0
 20
4.6493203631
 10
-0.9880992871
 20
4.53821689
 10
-0.9786376393
 20
4.428392325
 10
-0.9714533214
 20
4.3197758766
 10
-0.9663699679
 20
4.2125915217
 10
-0.9632665875
 20
4.10644703
 10
-0.9621910243
 20
4.0003528245
 10
-0.9632525143
 20
3.8942342171
 10
-0.966346946
 20
3.7880223503
 10
-0.971423814
 20
3.6807357469
 10
-0.9786056655
 20
3.571984339
 10
-0.9880756416
 20
3.4619892267
 10
-1.0
 20
3.3506796369
  0
LWPOLYLINE
  5
4B4
100
AcDbEntity
  8
ASSI
100
AcDbPolyline
 62
250
  6
CONTINUOUS
 90
13
 70
0
 10
-1.0
 20
4.6493203631
 10
-0.9880992871
 20
4.53821689
 10
-0.9786376393
 20
4.428392325
 10
-0.9714533214
 20
4.3197758766
 10
-0.9663699679
 20
4.2125915217
 10
-0.9632665875
 20
4.10644703
 10
-0.9621910243
 20
4.0003528245
 10
-0.9632525143
 20
3.8942342171
 10
-0.966346946
 20
3.7880223503
 10
-0.971423814
 20
3.6807357469
 10
-0.9786056655
 20
3.571984339
 10
-0.9880756416
 20
3.4619892267
 10
-1.0
 20
3.3506796369
  0
LINE
  5
4B5
100
AcDbEntity
  8
RACCORDO
100
AcDbLine
 62
250
  6
CONTINUOUS
 10
-1.5
 20
-19.1
 11
-1.5
 21
-18.8590446123
  0
LINE
  5
4B6
100
AcDbEntity
  8
ASSI
100
AcDbLine
 62
250
  6
CONTINUOUS
 10
-1.5
 20
-19.1
 11
-1.5
 21
-18.8590446123
  0
LINE
  5
4B7
100
AcDbEntity
  8
RACCORDO
100
AcDbLine
 62
250
  6
CONTINUOUS
 10
-1.5
 20
18.8590446123
 11
-1.5
 21
19.1
  0
LINE
  5
4B8
100
AcDbEntity
  8
ASSI
100
AcDbLine
 62
250
  6
CONTINUOUS
 10
-1.5
 20
18.8590446123
 11
-1.5
 21
19.1
  0
LINE
  5
4B9
100
AcDbEntity
  8
0
100
AcDbLine
 62
7
  6
CONTINUOUS
 10
-1.4
 20
-11.6585816081
 11
-1.4
 21
-12.1598050633
  0
LINE
  5
4BA
100
AcDbEntity
  8
0
100
AcDbLine
 62
7
  6
CONTINUOUS
 10
-1.4
 20
-14.3401949367
 11
-1.4
 21
-14.8414183919
  0
LINE
  5
4BB
100
AcDbEntity
  8
RACCORDO
100
AcDbLine
 62
7
  6
CONTINUOUS
 10
-1.25
 20
-11.1224976879
 11
-1.25
 21
-12.6639823037
  0
LINE
  5
4BC
100
AcDbEntity
  8
RACCORDO
100
AcDbLine
 62
7
  6
CONTINUOUS
 10
-1.25
 20
-15.6548267937
 11
-1.25
 21
-13.8360176963
  0
LINE
  5
4BD
100
AcDbEntity
  8
RACCORDO
100
AcDbLine
 62
250
  6
CONTINUOUS
 10
-1.0
 20
10.0
 11
-0.9999999989
 21
9.0
  0
LINE
  5
4BE
100
AcDbEntity
  8
ASSI
100
AcDbLine
 62
250
  6
CONTINUOUS
 10
-1.0
 20
10.0
 11
-0.9999999989
 21
9.0
  0
LINE
  5
4BF
100
AcDbEntity
  8
RACCORDO
100
AcDbLine
 62
250
  6
CONTINUOUS
 10
-1.0
 20
8.5
 11
-1.0
 21
4.6493203631
  0
LINE
  5
4C0
100
AcDbEntity
  8
ASSI
100
AcDbLine
 62
250
  6
CONTINUOUS
 10
-1.0
 20
8.5
 11
-1.0
 21
4.6493203631
  0
LINE
  5
4C1
100
AcDbEntity
  8
RACCORDO
100
AcDbLine
 62
250
  6
CONTINUOUS
 10
-1.0
 20
3.3506796369
 11
-1.0
 21
-3.3506796369
  0
LINE
  5
4C2
100
AcDbEntity
  8
ASSI
100
AcDbLine
 62
250
  6
CONTINUOUS
 10
-1.0
 20
3.3506796369
 11
-1.0
 21
-3.3506796369
  0
LINE
  5
4C3
100
AcDbEntity
  8
RACCORDO
100
AcDbLine
 62
250
  6
CONTINUOUS
 10
-1.0
 20
-4.6493203631
 11
-1.0
 21
-8.5
  0
LINE
  5
4C4
100
AcDbEntity
  8
ASSI
100
AcDbLine
 62
250
  6
CONTINUOUS
 10
-1.0
 20
-4.6493203631
 11
-1.0
 21
-8.5
  0
LINE
  5
4C5
100
AcDbEntity
  8
RACCORDO
100
AcDbLine
 62
250
  6
CONTINUOUS
 10
-1.0
 20
-10.0
 11
-1.0
 21
-9.0
  0
LINE
  5
4C6
100
AcDbEntity
  8
ASSI
100
AcDbLine
 62
250
  6
CONTINUOUS
 10
-1.0
 20
-10.0
 11
-1.0
 21
-9.0
  0
LINE
  5
4C7
100
AcDbEntity
  8
0
100
AcDbLine
 62
7
  6
CONTINUOUS
 10
-0.6073050553
 20
-12.9
 11
-0.6073050553
 21
-13.1773827613
  0
LINE
  5
4C8
100
AcDbEntity
  8
0
100
AcDbLine
 62
7
  6
CONTINUOUS
 10
-0.6073050553
 20
-13.3226172387
 11
-0.6073050553
 21
-13.6
  0
LINE
  5
4C9
100
AcDbEntity
  8
RACCORDO
100
AcDbLine
 62
7
  6
CONTINUOUS
 10
-0.5
 20
8.5
 11
-0.5
 21
-8.5
  0
LINE
  5
4CA
100
AcDbEntity
  8
ASSI
100
AcDbLine
 62
7
  6
CONTINUOUS
 10
-0.5
 20
8.5
 11
-0.5
 21
-8.5
  0
LINE
  5
4CB
100
AcDbEntity
  8
0
100
AcDbLine
 62
7
  6
CONTINUOUS
 10
1.825
 20
10.3
 11
2.675
 21
13.4722431864
  0
LINE
  5
4CC
100
AcDbEntity
  8
ASSI
100
AcDbLine
 62
7
  6
CONTINUOUS
 10
1.825
 20
10.3
 11
2.675
 21
13.4722431864
  0
LINE
  5
4CD
100
AcDbEntity
  8
0
100
AcDbLine
 62
7
  6
CONTINUOUS
 10
-3.277075017
 20
-5.3339120679
 11
-3.1
 21
-4.7841531217
  0
LINE
  5
4CE
100
AcDbEntity
  8
0
100
AcDbLine
 62
7
  6
CONTINUOUS
 10
-3.1
 20
-5.0578529305
 11
-2.9766913139
 21
-4.675020533
  0
LINE
  5
4CF
100
AcDbEntity
  8
DRAFT
100
AcDbLine
 62
7
  6
CONTINUOUS
 10
6.9712561167
 20
21.2139629885
 11
6.9587505924
 21
21.1802222394
  0
LINE
  5
4D0
100
AcDbEntity
  8
0
100
AcDbLine
 62
7
  6
CONTINUOUS
 10
-4.1303300859
 20
-4.5303300859
 11
-4.2233086861
 21
-4.675020533
  0
LINE
  5
4D1
100
AcDbEntity
  8
0
100
AcDbLine
 62
7
  6
CONTINUOUS
 10
-3.0696699141
 20
-3.4696699141
 11
-2.9766913139
 21
-3.324979467
  0
LINE
  5
4D2
100
AcDbEntity
  8
0
100
AcDbLine
 62
7
  6
CONTINUOUS
 10
10.8627752644
 20
12.6346728252
 11
10.8697328303
 21
12.6416303911
  0
LINE
  5
4D3
100
AcDbEntity
  8
0
100
AcDbLine
 62
7
  6
CONTINUOUS
 10
10.8264805152
 20
12.5983780759
 11
10.833438081
 21
12.6053356418
  0
LINE
  5
4D4
100
AcDbEntity
  8
0
100
AcDbLine
 62
7
  6
CONTINUOUS
 10
10.8636351499
 20
12.2155112826
 11
10.8703347014
 21
12.2222108341
  0
LINE
  5
4D5
100
AcDbEntity
  8
0
100
AcDbLine
 62
7
  6
CONTINUOUS
 10
10.8259426105
 20
12.1778187433
 11
10.832642162
 21
12.1845182948
  0
LINE
  5
4D6
100
AcDbEntity
  8
0
100
AcDbLine
 62
7
  6
CONTINUOUS
 10
10.863605983
 20
11.7954606878
 11
10.870324035
 21
11.8021787398
  0
LINE
  5
4D7
100
AcDbEntity
  8
ASSI
100
AcDbLine
 62
7
  6
CONTINUOUS
 10
-8.432368
 20
-3.496757
 11
-9.225046
 21
-3.907643
  0
LINE
  5
4D8
100
AcDbEntity
  8
ASSI
100
AcDbLine
 62
7
  6
CONTINUOUS
 10
-9.225041
 20
-4.369462
 11
-8.3830587682
 21
-3.9330213615
  0
LINE
  5
4D9
100
AcDbEntity
  8
ASSI
100
AcDbLine
 62
7
  6
CONTINUOUS
 10
-7.813452
 20
-1.592256
 11
-8.432368
 21
-1.790967
  0
LINE
  5
4DA
100
AcDbEntity
  8
ASSI
100
AcDbLine
 62
7
  6
CONTINUOUS
 10
-8.821883
 20
-1.916038
 11
-9.225046
 21
-2.045475
  0
LINE
  5
4DB
100
AcDbEntity
  8
ASSI
100
AcDbLine
 62
7
  6
CONTINUOUS
 10
-9.225051
 20
-2.455495
 11
-7.174954
 21
-1.797276
  0
LINE
  5
4DC
100
AcDbEntity
  8
ASSI
100
AcDbLine
 62
7
  6
CONTINUOUS
 10
-9.225051
 20
-0.455689
 11
-7.174959
 21
-0.455689
  0
LINE
  5
4DD
100
AcDbEntity
  8
CURVE
100
AcDbLine
 62
250
  6
CONTINUOUS
 10
10.9173295267
 20
-0.371428588
 11
10.9286735909
 21
-0.371428588
  0
LINE
  5
4DE
100
AcDbEntity
  8
CURVE
100
AcDbLine
 62
250
  6
CONTINUOUS
 10
10.9012483808
 20
-0.1
 11
10.8980072196
 21
-0.1
  0
LINE
  5
4DF
100
AcDbEntity
  8
ASSI
100
AcDbLine
 62
7
  6
CONTINUOUS
 10
-7.873153
 20
-0.045669
 11
-9.225051
 21
-0.045674
  0
LINE
  5
4E0
100
AcDbEntity
  8
DRAFT
100
AcDbLine
 62
7
  6
CONTINUOUS
 10
6.9587505924
 20
-21.1802222394
 11
6.9712561167
 21
-21.2139629885
  0
LWPOLYLINE
  5
4E1
100
AcDbEntity
  8
RACCORDO
100
AcDbPolyline
 62
250
  6
CONTINUOUS
 90
16
 70
0
 10
2.75
 20
-18.2952585473
 10
2.7527390523
 20
-18.3475207889
 10
2.7609261996
 20
-18.3992104344
 10
2.7744717419
 20
-18.4497611613
 10
2.7932272712
 20
-18.4986191252
 10
2.8169872981
 20
-18.5452490281
 10
2.8454915028
 20
-18.589139983
 10
2.8784275873
 20
-18.6298111113
 10
2.9154346968
 20
-18.6668168117
 10
2.9561073739
 20
-18.6997516421
 10
3.0
 20
-18.7282547614
 10
3.0466316785
 20
-18.7520138836
 10
3.0954915028
 20
-18.7707686988
 10
3.1460441546
 20
-18.7843137253
 10
3.1977357684
 20
-18.7925005608
 10
3.25
 20
-18.7952395089
  0
LWPOLYLINE
  5
4E2
100
AcDbEntity
  8
ASSI
100
AcDbPolyline
 62
250
  6
CONTINUOUS
 90
16
 70
0
 10
2.75
 20
-18.2952585473
 10
2.7527390523
 20
-18.3475207889
 10
2.7609261996
 20
-18.3992104344
 10
2.7744717419
 20
-18.4497611613
 10
2.7932272712
 20
-18.4986191252
 10
2.8169872981
 20
-18.5452490281
 10
2.8454915028
 20
-18.589139983
 10
2.8784275873
 20
-18.6298111113
 10
2.9154346968
 20
-18.6668168117
 10
2.9561073739
 20
-18.6997516421
 10
3.0
 20
-18.7282547614
 10
3.0466316785
 20
-18.7520138836
 10
3.0954915028
 20
-18.7707686988
 10
3.1460441546
 20
-18.7843137253
 10
3.1977357684
 20
-18.7925005608
 10
3.25
 20
-18.7952395089
  0
LWPOLYLINE
  5
4E3
100
AcDbEntity
  8
RACCORDO
100
AcDbPolyline
 62
250
  6
CONTINUOUS
 90
4
 70
0
 10
2.75
 20
-18.1686808867
 10
2.7527390422
 20
-18.2209430324
 10
2.760926165
 20
-18.2726326108
 10
2.7744716767
 20
-18.3231833001
  0
LWPOLYLINE
  5
4E4
100
AcDbEntity
  8
ASSI
100
AcDbPolyline
 62
250
  6
CONTINUOUS
 90
4
 70
0
 10
2.75
 20
-18.1686808867
 10
2.7527390422
 20
-18.2209430324
 10
2.760926165
 20
-18.2726326108
 10
2.7744716767
 20
-18.3231833001
  0
LINE
  5
4E5
100
AcDbEntity
  8
0
100
AcDbLine
 62
7
  6
CONTINUOUS
 10
0.34
 20
-13.6
 11
0.34
 21
-12.9
  0
LINE
  5
4E6
100
AcDbEntity
  8
RACCORDO
100
AcDbLine
 62
250
  6
CONTINUOUS
 10
0.5
 20
8.5
 11
0.5
 21
-8.5
  0
LINE
  5
4E7
100
AcDbEntity
  8
ASSI
100
AcDbLine
 62
250
  6
CONTINUOUS
 10
0.5
 20
8.5
 11
0.5
 21
-8.5
  0
LINE
  5
4E8
100
AcDbEntity
  8
RACCORDO
100
AcDbLine
 62
250
  6
CONTINUOUS
 10
1.5
 20
19.1
 11
1.5
 21
18.8590446123
  0
LINE
  5
4E9
100
AcDbEntity
  8
ASSI
100
AcDbLine
 62
250
  6
CONTINUOUS
 10
1.5
 20
19.1
 11
1.5
 21
18.8590446123
  0
LINE
  5
4EA
100
AcDbEntity
  8
0
100
AcDbLine
 62
7
  6
CONTINUOUS
 10
1.5
 20
16.1
 11
1.5
 21
13.4722431864
  0
LINE
  5
4EB
100
AcDbEntity
  8
ASSI
100
AcDbLine
 62
7
  6
CONTINUOUS
 10
1.5
 20
16.1
 11
1.5
 21
13.4722431864
  0
LINE
  5
4EC
100
AcDbEntity
  8
0
100
AcDbLine
 62
7
  6
CONTINUOUS
 10
1.5
 20
-9.8
 11
1.5
 21
-12.4277568136
  0
LINE
  5
4ED
100
AcDbEntity
  8
ASSI
100
AcDbLine
 62
7
  6
CONTINUOUS
 10
1.5
 20
-9.8
 11
1.5
 21
-12.4277568136
  0
LINE
  5
4EE
100
AcDbEntity
  8
RACCORDO
100
AcDbLine
 62
250
  6
CONTINUOUS
 10
1.5
 20
-18.8590446123
 11
1.5
 21
-19.1
  0
LINE
  5
4EF
100
AcDbEntity
  8
ASSI
100
AcDbLine
 62
250
  6
CONTINUOUS
 10
1.5
 20
-18.8590446123
 11
1.5
 21
-19.1
  0
LWPOLYLINE
  5
4F0
100
AcDbEntity
  8
RACCORDO
100
AcDbPolyline
 62
250
  6
CONTINUOUS
 90
16
 70
0
 10
2.75
 20
18.2952585473
 10
2.7527390206
 20
18.3475204873
 10
2.760926079
 20
18.399209867
 10
2.7744714852
 20
18.4497603714
 10
2.7932268392
 20
18.498618155
 10
2.8169866645
 20
18.5452479307
 10
2.845490666
 20
18.5891388312
 10
2.8784265636
 20
18.6298099744
 10
2.9154335172
 20
18.6668157497
 10
2.9561060968
 20
18.6997507143
 10
2.9999986998
 20
18.7282540108
 10
3.046630438
 20
18.7520133313
 10
3.0954904213
 20
18.7707683474
 10
3.1460433374
 20
18.7843135516
 10
3.1977353145
 20
18.7925005131
 10
3.25
 20
18.7952395088
  0
LWPOLYLINE
  5
4F1
100
AcDbEntity
  8
ASSI
100
AcDbPolyline
 62
250
  6
CONTINUOUS
 90
16
 70
0
 10
2.75
 20
18.2952585473
 10
2.7527390206
 20
18.3475204873
 10
2.760926079
 20
18.399209867
 10
2.7744714852
 20
18.4497603714
 10
2.7932268392
 20
18.498618155
 10
2.8169866645
 20
18.5452479307
 10
2.845490666
 20
18.5891388312
 10
2.8784265636
 20
18.6298099744
 10
2.9154335172
 20
18.6668157497
 10
2.9561060968
 20
18.6997507143
 10
2.9999986998
 20
18.7282540108
 10
3.046630438
 20
18.7520133313
 10
3.0954904213
 20
18.7707683474
 10
3.1460433374
 20
18.7843135516
 10
3.1977353145
 20
18.7925005131
 10
3.25
 20
18.7952395088
  0
LWPOLYLINE
  5
4F2
100
AcDbEntity
  8
RACCORDO
100
AcDbPolyline
 62
250
  6
CONTINUOUS
 90
4
 70
0
 10
2.75
 20
18.1686808867
 10
2.7527390523
 20
18.2209431283
 10
2.7609261996
 20
18.2726327738
 10
2.7744717419
 20
18.3231835007
  0
LWPOLYLINE
  5
4F3
100
AcDbEntity
  8
ASSI
100
AcDbPolyline
 62
250
  6
CONTINUOUS
 90
4
 70
0
 10
2.75
 20
18.1686808867
 10
2.7527390523
 20
18.2209431283
 10
2.7609261996
 20
18.2726327738
 10
2.7744717419
 20
18.3231835007
  0
LINE
  5
4F4
100
AcDbEntity
  8
0
100
AcDbLine
 62
7
  6
CONTINUOUS
 10
-2.1
 20
-12.1598050633
 11
-2.2697234842
 21
-12.7302765158
  0
LINE
  5
4F5
100
AcDbEntity
  8
DRAFT
100
AcDbLine
 62
7
  6
CONTINUOUS
 10
-6.9712561167
 20
-21.2139629885
 11
-6.9587505924
 21
-21.1802222394
  0
LWPOLYLINE
  5
4F6
100
AcDbEntity
  8
RACCORDO
100
AcDbPolyline
 62
250
  6
CONTINUOUS
 90
13
 70
0
 10
-6.2744717419
 20
-18.3231835007
 10
-6.2932272712
 20
-18.3720414646
 10
-6.3169872981
 20
-18.4186713675
 10
-6.3454915028
 20
-18.4625623223
 10
-6.3784275873
 20
-18.5032334507
 10
-6.4154346968
 20
-18.5402391511
 10
-6.4561073739
 20
-18.5731739815
 10
-6.5000000001
 20
-18.6016771008
 10
-6.5466316785
 20
-18.625436223
 10
-6.5954915029
 20
-18.6441910382
 10
-6.6460441547
 20
-18.6577360646
 10
-6.6977357684
 20
-18.6659229002
 10
-6.75
 20
-18.6686618482
  0
LWPOLYLINE
  5
4F7
100
AcDbEntity
  8
ASSI
100
AcDbPolyline
 62
250
  6
CONTINUOUS
 90
13
 70
0
 10
-6.2744717419
 20
-18.3231835007
 10
-6.2932272712
 20
-18.3720414646
 10
-6.3169872981
 20
-18.4186713675
 10
-6.3454915028
 20
-18.4625623223
 10
-6.3784275873
 20
-18.5032334507
 10
-6.4154346968
 20
-18.5402391511
 10
-6.4561073739
 20
-18.5731739815
 10
-6.5000000001
 20
-18.6016771008
 10
-6.5466316785
 20
-18.625436223
 10
-6.5954915029
 20
-18.6441910382
 10
-6.6460441547
 20
-18.6577360646
 10
-6.6977357684
 20
-18.6659229002
 10
-6.75
 20
-18.6686618482
  0
LWPOLYLINE
  5
4F8
100
AcDbEntity
  8
0
100
AcDbPolyline
 62
7
  6
CONTINUOUS
 90
4
 70
0
 10
-6.6579134135
 20
-13.410552
 10
-6.6524433225
 20
-13.4001790908
 10
-6.6456435761
 20
-13.3904421684
 10
-6.6375141742
 20
-13.381341233
  0
LWPOLYLINE
  5
4F9
100
AcDbEntity
  8
ASSI
100
AcDbPolyline
 62
7
  6
CONTINUOUS
 90
4
 70
0
 10
-6.6579134135
 20
-13.410552
 10
-6.6524433225
 20
-13.4001790908
 10
-6.6456435761
 20
-13.3904421684
 10
-6.6375141742
 20
-13.381341233
  0
LINE
  5
4FA
100
AcDbEntity
  8
0
100
AcDbLine
 62
7
  6
CONTINUOUS
 10
10.8408304705
 20
10.0925994631
 11
10.8551064823
 21
10.106875475
  0
LINE
  5
4FB
100
AcDbEntity
  8
0
100
AcDbLine
 62
7
  6
CONTINUOUS
 10
10.8341438052
 20
9.6658913698
 11
10.861857114
 21
9.6936046786
  0
LINE
  5
4FC
100
AcDbEntity
  8
0
100
AcDbLine
 62
7
  6
CONTINUOUS
 10
10.855358716
 20
9.2670848526
 11
10.8655309395
 21
9.2772570761
  0
LINE
  5
4FD
100
AcDbEntity
  8
0
100
AcDbLine
 62
7
  6
CONTINUOUS
 10
10.8448144959
 20
9.2565406325
 11
10.8514902963
 21
9.2632164329
  0
LINE
  5
4FE
100
AcDbEntity
  8
0
100
AcDbLine
 62
7
  6
CONTINUOUS
 10
10.8305339461
 20
9.2422600827
 11
10.8407061779
 21
9.2524323145
  0
LINE
  5
4FF
100
AcDbEntity
  8
0
100
AcDbLine
 62
7
  6
CONTINUOUS
 10
10.8599387501
 20
8.8516434587
 11
10.8679018321
 21
8.8596065407
  0
LINE
  5
500
100
AcDbEntity
  8
0
100
AcDbLine
 62
7
  6
CONTINUOUS
 10
10.8448144959
 20
8.8365192045
 11
10.8514902961
 21
8.8431950046
  0
LINE
  5
501
100
AcDbEntity
  8
0
100
AcDbLine
 62
7
  6
CONTINUOUS
 10
10.8282270199
 20
8.8199317285
 11
10.836190107
 21
8.8278948156
  0
LINE
  5
502
100
AcDbEntity
  8
0
100
AcDbLine
 62
7
  6
CONTINUOUS
 10
10.8622900572
 20
8.4339733377
 11
10.8694032802
 21
8.4410865608
  0
LINE
  5
503
100
AcDbEntity
  8
0
100
AcDbLine
 62
7
  6
CONTINUOUS
 10
10.8448144959
 20
8.4164977764
 11
10.8514902958
 21
8.4231735764
  0
LINE
  5
504
100
AcDbEntity
  8
0
100
AcDbLine
 62
7
  6
CONTINUOUS
 10
10.8267895383
 20
8.3984728188
 11
10.8339027656
 21
8.4055860461
  0
LWPOLYLINE
  5
505
100
AcDbEntity
  8
ASSI
100
AcDbPolyline
 62
250
  6
CONTINUOUS
 90
10
 70
0
 10
-10.388184627
 20
-9.1905709228
 10
-10.4700944638
 20
-9.2568551745
 10
-10.5441058647
 20
-9.3308693935
 10
-10.6099755254
 20
-9.4122147475
 10
-10.6669817641
 20
-9.4999999998
 10
-10.7145000085
 20
-9.5932633566
 10
-10.7520096389
 20
-9.6909830053
 10
-10.7790996918
 20
-9.7920883089
 10
-10.795473363
 20
-9.8954715365
 10
-10.800951259
 20
-10.0
  0
LWPOLYLINE
  5
506
100
AcDbEntity
  8
RACCORDO
100
AcDbPolyline
 62
250
  6
CONTINUOUS
 90
10
 70
0
 10
-10.3861084088
 20
-9.1890686855
 10
-10.4700944638
 20
-9.2568551745
 10
-10.5441058647
 20
-9.3308693935
 10
-10.6099755254
 20
-9.4122147475
 10
-10.6669817641
 20
-9.4999999998
 10
-10.7145000085
 20
-9.5932633566
 10
-10.7520096389
 20
-9.6909830053
 10
-10.7790996918
 20
-9.7920883089
 10
-10.795473363
 20
-9.8954715365
 10
-10.800951259
 20
-10.0
  0
LINE
  5
507
100
AcDbEntity
  8
0
100
AcDbLine
 62
7
  6
CONTINUOUS
 10
-4.2233086861
 20
-3.324979467
 11
-5.3335253517
 21
-3.6825755304
  0
LINE
  5
508
100
AcDbEntity
  8
CURVE
100
AcDbLine
 62
250
  6
CONTINUOUS
 10
10.9077307031
 20
0.4571429014
 11
10.9028689616
 21
0.4571429014
  0
LINE
  5
509
100
AcDbEntity
  8
0
100
AcDbLine
 62
250
  6
CONTINUOUS
 10
10.8045181615
 20
1.0047613144
 11
10.8158630896
 21
1.0047613144
  0
LINE
  5
50A
100
AcDbEntity
  8
ASSI
100
AcDbLine
 62
7
  6
CONTINUOUS
 10
-9.225051
 20
1.139626
 11
-7.873153
 21
1.139626
  0
LINE
  5
50B
100
AcDbEntity
  8
0
100
AcDbLine
 62
250
  6
CONTINUOUS
 10
10.8352277754
 20
1.407638
 11
10.826335331
 21
1.407638
  0
LINE
  5
50C
100
AcDbEntity
  8
CURVE
100
AcDbLine
 62
250
  6
CONTINUOUS
 10
10.9077307031
 20
1.4785714507
 11
10.9052998321
 21
1.4785714507
  0
LINE
  5
50D
100
AcDbEntity
  8
ASSI
100
AcDbLine
 62
7
  6
CONTINUOUS
 10
-7.174959
 20
1.549641
 11
-9.225051
 21
1.549641
  0
LINE
  5
50E
100
AcDbEntity
  8
0
100
AcDbLine
 62
250
  6
CONTINUOUS
 10
10.8061388656
 20
1.6238090515
 11
10.8077595697
 21
1.6238090515
  0
LINE
  5
50F
100
AcDbEntity
  8
ASSI
100
AcDbLine
 62
7
  6
CONTINUOUS
 10
-9.225051
 20
1.959646
 11
-7.174959
 21
1.959641
  0
LINE
  5
510
100
AcDbEntity
  8
ASSI
100
AcDbLine
 62
7
  6
CONTINUOUS
 10
-9.225051
 20
3.301218
 11
-7.174959
 21
2.642998
  0
LINE
  5
511
100
AcDbEntity
  8
ASSI
100
AcDbLine
 62
7
  6
CONTINUOUS
 10
-7.174959
 20
3.053019
 11
-8.586558
 21
3.506228
  0
LWPOLYLINE
  5
512
100
AcDbEntity
  8
RACCORDO
100
AcDbPolyline
 62
250
  6
CONTINUOUS
 90
13
 70
0
 10
-6.2744716767
 20
18.3231833001
 10
-6.293227178
 20
18.3720412554
 10
-6.3169871876
 20
18.418671176
 10
-6.3454913928
 20
18.4625621709
 10
-6.3784275122
 20
18.5032333673
 10
-6.4154346885
 20
18.5402391436
 10
-6.4561074308
 20
18.5731740228
 10
-6.5000001034
 20
18.6016771605
 10
-6.5466318146
 20
18.6254362836
 10
-6.5954916478
 20
18.6441910853
 10
-6.6460442795
 20
18.6577360912
 10
-6.6977358448
 20
18.6659229082
 10
-6.75
 20
18.6686618482
  0
LWPOLYLINE
  5
513
100
AcDbEntity
  8
ASSI
100
AcDbPolyline
 62
250
  6
CONTINUOUS
 90
13
 70
0
 10
-6.2744716767
 20
18.3231833001
 10
-6.293227178
 20
18.3720412554
 10
-6.3169871876
 20
18.418671176
 10
-6.3454913928
 20
18.4625621709
 10
-6.3784275122
 20
18.5032333673
 10
-6.4154346885
 20
18.5402391436
 10
-6.4561074308
 20
18.5731740228
 10
-6.5000001034
 20
18.6016771605
 10
-6.5466318146
 20
18.6254362836
 10
-6.5954916478
 20
18.6441910853
 10
-6.6460442795
 20
18.6577360912
 10
-6.6977358448
 20
18.6659229082
 10
-6.75
 20
18.6686618482
  0
LINE
  5
514
100
AcDbEntity
  8
DRAFT
100
AcDbLine
 62
7
  6
CONTINUOUS
 10
-6.9587505924
 20
21.1802222394
 11
-6.9712561167
 21
21.2139629885
  0
LINE
  5
515
100
AcDbEntity
  8
DRAFT
100
AcDbLine
 62
7
  6
CONTINUOUS
 10
3.0984611006
 20
-21.199923836
 11
3.1
 21
-22.2
  0
LINE
  5
516
100
AcDbEntity
  8
0
100
AcDbLine
 62
7
  6
CONTINUOUS
 10
2.15
 20
-12.4277568136
 11
2.15
 21
-9.8
  0
LINE
  5
517
100
AcDbEntity
  8
ASSI
100
AcDbLine
 62
7
  6
CONTINUOUS
 10
2.15
 20
-12.4277568136
 11
2.15
 21
-9.8
  0
LINE
  5
518
100
AcDbEntity
  8
0
100
AcDbLine
 62
7
  6
CONTINUOUS
 10
2.15
 20
13.4722431864
 11
2.15
 21
16.1
  0
LINE
  5
519
100
AcDbEntity
  8
ASSI
100
AcDbLine
 62
7
  6
CONTINUOUS
 10
2.15
 20
13.4722431864
 11
2.15
 21
16.1
  0
LINE
  5
51A
100
AcDbEntity
  8
RACCORDO
100
AcDbLine
 62
7
  6
CONTINUOUS
 10
2.5
 20
19.1
 11
2.5
 21
18.8678924911
  0
LINE
  5
51B
100
AcDbEntity
  8
ASSI
100
AcDbLine
 62
7
  6
CONTINUOUS
 10
2.5
 20
19.1
 11
2.5
 21
18.8678924911
  0
LINE
  5
51C
100
AcDbEntity
  8
RACCORDO
100
AcDbLine
 62
7
  6
CONTINUOUS
 10
2.5
 20
-18.8678924911
 11
2.5
 21
-19.1
  0
LINE
  5
51D
100
AcDbEntity
  8
ASSI
100
AcDbLine
 62
7
  6
CONTINUOUS
 10
2.5
 20
-18.8678924911
 11
2.5
 21
-19.1
  0
LINE
  5
51E
100
AcDbEntity
  8
RACCORDO
100
AcDbLine
 62
7
  6
CONTINUOUS
 10
2.75
 20
-18.2952566049
 11
2.75
 21
-17.4774686728
  0
LINE
  5
51F
100
AcDbEntity
  8
ASSI
100
AcDbLine
 62
7
  6
CONTINUOUS
 10
2.75
 20
-18.2952566049
 11
2.75
 21
-17.4774686728
  0
LINE
  5
520
100
AcDbEntity
  8
RACCORDO
100
AcDbLine
 62
7
  6
CONTINUOUS
 10
2.75
 20
17.4774686728
 11
2.75
 21
18.2952566068
  0
LINE
  5
521
100
AcDbEntity
  8
ASSI
100
AcDbLine
 62
7
  6
CONTINUOUS
 10
2.75
 20
17.4774686728
 11
2.75
 21
18.2952566068
  0
LINE
  5
522
100
AcDbEntity
  8
RACCORDO
100
AcDbLine
 62
250
  6
CONTINUOUS
 10
3.25
 20
-18.7952395089
 11
3.25
 21
-16.8066482796
  0
LINE
  5
523
100
AcDbEntity
  8
ASSI
100
AcDbLine
 62
250
  6
CONTINUOUS
 10
3.25
 20
-18.7952395089
 11
3.25
 21
-16.8066482796
  0
LINE
  5
524
100
AcDbEntity
  8
RACCORDO
100
AcDbLine
 62
250
  6
CONTINUOUS
 10
3.25
 20
16.8066482796
 11
3.25
 21
18.7952395089
  0
LINE
  5
525
100
AcDbEntity
  8
ASSI
100
AcDbLine
 62
250
  6
CONTINUOUS
 10
3.25
 20
16.8066482796
 11
3.25
 21
18.7952395089
  0
LINE
  5
526
100
AcDbEntity
  8
DRAFT
100
AcDbLine
 62
7
  6
CONTINUOUS
 10
3.0984611006
 20
21.199923836
 11
3.1
 21
22.2
  0
LINE
  5
527
100
AcDbEntity
  8
0
100
AcDbLine
 62
7
  6
CONTINUOUS
 10
-1.4
 20
-14.3401949367
 11
-1.2302765158
 21
-13.7697234842
  0
LINE
  5
528
100
AcDbEntity
  8
DRAFT
100
AcDbLine
 62
7
  6
CONTINUOUS
 10
-2.700388948
 20
-21.1802222394
 11
-3.0104834329
 21
-22.1955695989
  0
LINE
  5
529
100
AcDbEntity
  8
0
100
AcDbLine
 62
7
  6
CONTINUOUS
 10
10.8634598793
 20
8.0151217318
 11
10.8702095518
 21
8.0218714043
  0
LINE
  5
52A
100
AcDbEntity
  8
0
100
AcDbLine
 62
7
  6
CONTINUOUS
 10
10.8448144959
 20
7.9964763484
 11
10.8514902956
 21
8.0031521481
  0
LINE
  5
52B
100
AcDbEntity
  8
0
100
AcDbLine
 62
7
  6
CONTINUOUS
 10
10.8260472332
 20
7.9777090857
 11
10.8327969096
 21
7.9844587621
  0
LINE
  5
52C
100
AcDbEntity
  8
0
100
AcDbLine
 62
7
  6
CONTINUOUS
 10
10.8637097843
 20
7.5953502088
 11
10.8703933966
 21
7.602033821
  0
LINE
  5
52D
100
AcDbEntity
  8
0
100
AcDbLine
 62
7
  6
CONTINUOUS
 10
10.8259273548
 20
7.5575677793
 11
10.8326109709
 21
7.5642513954
  0
LINE
  5
52E
100
AcDbEntity
  8
RACCORDO
100
AcDbLine
 62
250
  6
CONTINUOUS
 10
-11.0
 20
-15.4001332693
 11
-10.7686618482
 21
-15.1687951175
  0
LINE
  5
52F
100
AcDbEntity
  8
ASSI
100
AcDbLine
 62
250
  6
CONTINUOUS
 10
-11.0
 20
-15.4001332693
 11
-10.7686618482
 21
-15.1687951175
  0
LINE
  5
530
100
AcDbEntity
  8
ASSI
100
AcDbLine
 62
7
  6
CONTINUOUS
 10
-10.3009702975
 20
-9.1339745962
 11
-10.388184627
 21
-9.1905709228
  0
LINE
  5
531
100
AcDbEntity
  8
0
100
AcDbLine
 62
7
  6
CONTINUOUS
 10
-4.1303300859
 20
-3.4696699141
 11
-4.6901949367
 21
-3.65
  0
LINE
  5
532
100
AcDbEntity
  8
0
100
AcDbLine
 62
7
  6
CONTINUOUS
 10
-3.0696699141
 20
-4.5303300859
 11
-2.5098050633
 21
-4.35
  0
LINE
  5
533
100
AcDbEntity
  8
0
100
AcDbLine
 62
7
  6
CONTINUOUS
 10
-2.9766913139
 20
-4.675020533
 11
-1.8664746483
 21
-4.3174244696
  0
LINE
  5
534
100
AcDbEntity
  8
0
100
AcDbLine
 62
250
  6
CONTINUOUS
 10
10.8772005174
 20
2.082053
 11
10.8739501971
 21
2.082053
  0
LINE
  5
535
100
AcDbEntity
  8
0
100
AcDbLine
 62
250
  6
CONTINUOUS
 10
10.8126216818
 20
2.2738090515
 11
10.8142423857
 21
2.2738090515
  0
LINE
  5
536
100
AcDbEntity
  8
ASSI
100
AcDbLine
 62
7
  6
CONTINUOUS
 10
-7.174959
 20
2.369657
 11
-9.225056
 21
2.369662
  0
LINE
  5
537
100
AcDbEntity
  8
0
100
AcDbLine
 62
250
  6
CONTINUOUS
 10
10.8739501971
 20
2.432113
 11
10.8772005174
 21
2.432113
  0
LINE
  5
538
100
AcDbEntity
  8
0
100
AcDbLine
 62
250
  6
CONTINUOUS
 10
10.8045181615
 20
2.8619045258
 11
10.8158630896
 21
2.8619045258
  0
LINE
  5
539
100
AcDbEntity
  8
0
100
AcDbLine
 62
250
  6
CONTINUOUS
 10
10.8731437256
 20
2.88859
 11
10.8712619704
 21
2.88859
  0
LINE
  5
53A
100
AcDbEntity
  8
0
100
AcDbLine
 62
250
  6
CONTINUOUS
 10
10.8846175839
 20
3.083924
 11
10.8827196148
 21
3.083924
  0
LINE
  5
53B
100
AcDbEntity
  8
RACCORDO
100
AcDbLine
 62
250
  6
CONTINUOUS
 10
-1.0
 20
3.3506796369
 11
-0.5
 21
3.3506796369
  0
LINE
  5
53C
100
AcDbEntity
  8
ASSI
100
AcDbLine
 62
250
  6
CONTINUOUS
 10
-1.0
 20
3.3506796369
 11
-0.5
 21
3.3506796369
  0
LINE
  5
53D
100
AcDbEntity
  8
0
100
AcDbLine
 62
250
  6
CONTINUOUS
 10
10.8045181615
 20
3.4809522629
 11
10.8158630896
 21
3.4809522629
  0
LINE
  5
53E
100
AcDbEntity
  8
0
100
AcDbLine
 62
250
  6
CONTINUOUS
 10
10.8827244842
 20
3.656927
 11
10.8846224533
 21
3.656927
  0
LINE
  5
53F
100
AcDbEntity
  8
RACCORDO
100
AcDbLine
 62
250
  6
CONTINUOUS
 10
-11.0
 20
15.4001332693
 11
-10.7686618482
 21
15.1687951175
  0
LINE
  5
540
100
AcDbEntity
  8
ASSI
100
AcDbLine
 62
250
  6
CONTINUOUS
 10
-11.0
 20
15.4001332693
 11
-10.7686618482
 21
15.1687951175
  0
LWPOLYLINE
  5
541
100
AcDbEntity
  8
RACCORDO
100
AcDbPolyline
 62
7
  6
CONTINUOUS
 90
17
 70
0
 10
9.6916482577
 20
-18.1266502444
 10
9.6924726323
 20
-18.1290027592
 10
9.704768092
 20
-18.1528254734
 10
9.720360131
 20
-18.1751875753
 10
9.7384318821
 20
-18.1949482035
 10
9.7591210978
 20
-18.2119844105
 10
9.7822900256
 20
-18.2264191439
 10
9.8067085406
 20
-18.2374803858
 10
9.8324424866
 20
-18.2449841225
 10
9.8594260199
 20
-18.2491143678
 10
9.886231484
 20
-18.2496511448
 10
9.9128361126
 20
-18.2464176121
 10
9.939262672
 20
-18.2395906111
 10
9.9641518054
 20
-18.2294806897
 10
9.9870503938
 20
-18.2161913638
 10
10.0084115562
 20
-18.1996191174
 10
10.0282352926
 20
-18.1797639505
  0
LINE
  5
542
100
AcDbEntity
  8
DRAFT
100
AcDbLine
 62
7
  6
CONTINUOUS
 10
-3.0104834329
 20
22.1955695989
 11
-2.700388948
 21
21.1802222394
  0
LINE
  5
543
100
AcDbEntity
  8
DRAFT
100
AcDbLine
 62
7
  6
CONTINUOUS
 10
3.434596365
 20
21.2139629885
 11
3.3821231691
 21
22.2
  0
LINE
  5
544
100
AcDbEntity
  8
DRAFT
100
AcDbLine
 62
7
  6
CONTINUOUS
 10
4.5
 20
18.9
 11
4.5
 21
18.8834189512
  0
LINE
  5
545
100
AcDbEntity
  8
ASSI
100
AcDbLine
 62
7
  6
CONTINUOUS
 10
4.5
 20
18.9
 11
4.5
 21
18.8834189512
  0
LINE
  5
546
100
AcDbEntity
  8
DRAFT
100
AcDbLine
 62
7
  6
CONTINUOUS
 10
4.5
 20
-18.9
 11
4.5
 21
-18.8834189512
  0
LINE
  5
547
100
AcDbEntity
  8
ASSI
100
AcDbLine
 62
7
  6
CONTINUOUS
 10
4.5
 20
-18.9
 11
4.5
 21
-18.8834189512
  0
LINE
  5
548
100
AcDbEntity
  8
DRAFT
100
AcDbLine
 62
7
  6
CONTINUOUS
 10
3.434596365
 20
-21.2139629885
 11
3.3821231691
 21
-22.2
  0
LINE
  5
549
100
AcDbEntity
  8
0
100
AcDbLine
 62
7
  6
CONTINUOUS
 10
10.826335331
 20
5.3978415662
 11
10.8352277754
 21
5.4067340106
  0
LINE
  5
54A
100
AcDbEntity
  8
0
100
AcDbLine
 62
7
  6
CONTINUOUS
 10
10.826335331
 20
5.1878308522
 11
10.8352277754
 21
5.1967232966
  0
LINE
  5
54B
100
AcDbEntity
  8
0
100
AcDbLine
 62
7
  6
CONTINUOUS
 10
10.826335331
 20
4.9778201382
 11
10.8352277754
 21
4.9867125826
  0
LINE
  5
54C
100
AcDbEntity
  8
0
100
AcDbLine
 62
7
  6
CONTINUOUS
 10
10.826335331
 20
4.7678094242
 11
10.8352277754
 21
4.7767018686
  0
LINE
  5
54D
100
AcDbEntity
  8
0
100
AcDbLine
 62
7
  6
CONTINUOUS
 10
10.826335331
 20
4.5577987102
 11
10.8352277754
 21
4.5666911546
  0
LINE
  5
54E
100
AcDbEntity
  8
0
100
AcDbLine
 62
7
  6
CONTINUOUS
 10
10.826335331
 20
4.3477879962
 11
10.8352277754
 21
4.3566804406
  0
LINE
  5
54F
100
AcDbEntity
  8
0
100
AcDbLine
 62
7
  6
CONTINUOUS
 10
10.826335331
 20
4.1377772822
 11
10.8352277754
 21
4.1466697266
  0
LINE
  5
550
100
AcDbEntity
  8
0
100
AcDbLine
 62
7
  6
CONTINUOUS
 10
10.826335331
 20
3.9277665681
 11
10.8352277754
 21
3.9366590125
  0
LINE
  5
551
100
AcDbEntity
  8
0
100
AcDbLine
 62
7
  6
CONTINUOUS
 10
10.826335331
 20
3.7177558541
 11
10.8352277754
 21
3.7266482985
  0
LINE
  5
552
100
AcDbEntity
  8
0
100
AcDbLine
 62
7
  6
CONTINUOUS
 10
10.826335331
 20
3.5077451401
 11
10.8352277754
 21
3.5166375845
  0
LINE
  5
553
100
AcDbEntity
  8
0
100
AcDbLine
 62
7
  6
CONTINUOUS
 10
10.826335331
 20
3.2977344261
 11
10.8352277754
 21
3.3066268705
  0
LWPOLYLINE
  5
554
100
AcDbEntity
  8
0
100
AcDbPolyline
 62
7
  6
CONTINUOUS
 90
4
 70
0
 10
-6.6375141742
 20
-13.381341233
 10
-6.6280021909
 20
-13.3725427346
 10
-6.6171605522
 20
-13.3643802232
 10
-6.6051480361
 20
-13.3578543477
  0
LWPOLYLINE
  5
555
100
AcDbEntity
  8
ASSI
100
AcDbPolyline
 62
7
  6
CONTINUOUS
 90
4
 70
0
 10
-6.6375141742
 20
-13.381341233
 10
-6.6280021909
 20
-13.3725427346
 10
-6.6171605522
 20
-13.3643802232
 10
-6.6051480361
 20
-13.3578543477
  0
LINE
  5
556
100
AcDbEntity
  8
0
100
AcDbLine
 62
250
  6
CONTINUOUS
 10
10.8712619704
 20
3.71193
 11
10.8731437256
 21
3.71193
  0
LINE
  5
557
100
AcDbEntity
  8
0
100
AcDbLine
 62
250
  6
CONTINUOUS
 10
10.8510269235
 20
4.100497
 11
10.8493126131
 21
4.100497
  0
LINE
  5
558
100
AcDbEntity
  8
0
100
AcDbLine
 62
250
  6
CONTINUOUS
 10
10.8045181615
 20
4.1309522629
 11
10.8158630896
 21
4.1309522629
  0
LINE
  5
559
100
AcDbEntity
  8
0
100
AcDbLine
 62
250
  6
CONTINUOUS
 10
10.8838111124
 20
4.18241
 11
10.8803674644
 21
4.18241
  0
LINE
  5
55A
100
AcDbEntity
  8
CURVE
100
AcDbLine
 62
250
  6
CONTINUOUS
 10
10.9189501074
 20
4.1976193428
 11
10.9213809783
 21
4.1976193428
  0
LINE
  5
55B
100
AcDbEntity
  8
0
100
AcDbLine
 62
250
  6
CONTINUOUS
 10
10.8493126131
 20
4.218117
 11
10.8510269235
 21
4.218117
  0
LINE
  5
55C
100
AcDbEntity
  8
0
100
AcDbLine
 62
250
  6
CONTINUOUS
 10
10.8803674644
 20
4.281784
 11
10.8838111124
 21
4.281784
  0
LINE
  5
55D
100
AcDbEntity
  8
CURVE
100
AcDbLine
 62
250
  6
CONTINUOUS
 10
10.9246221393
 20
4.2904761314
 11
10.9270530104
 21
4.2904761314
  0
LINE
  5
55E
100
AcDbEntity
  8
0
100
AcDbLine
 62
250
  6
CONTINUOUS
 10
10.8061388656
 20
4.5023806572
 11
10.8158630896
 21
4.5023806572
  0
LINE
  5
55F
100
AcDbEntity
  8
RACCORDO
100
AcDbLine
 62
250
  6
CONTINUOUS
 10
-1.0
 20
4.6493203631
 11
-0.5
 21
4.6493203631
  0
LINE
  5
560
100
AcDbEntity
  8
ASSI
100
AcDbLine
 62
250
  6
CONTINUOUS
 10
-1.0
 20
4.6493203631
 11
-0.5
 21
4.6493203631
  0
LINE
  5
561
100
AcDbEntity
  8
CURVE
100
AcDbLine
 62
250
  6
CONTINUOUS
 10
10.9286735909
 20
4.8476193428
 11
10.9173295267
 21
4.8476193428
  0
LINE
  5
562
100
AcDbEntity
  8
0
100
AcDbLine
 62
250
  6
CONTINUOUS
 10
10.8158630896
 20
5.1523806572
 11
10.8061388656
 21
5.1523806572
  0
LINE
  5
563
100
AcDbEntity
  8
CURVE
100
AcDbLine
 62
250
  6
CONTINUOUS
 10
10.9173295267
 20
5.2190477371
 11
10.9286735909
 21
5.2190477371
  0
LINE
  5
564
100
AcDbEntity
  8
RACCORDO
100
AcDbLine
 62
7
  6
CONTINUOUS
 10
-10.1099905988
 20
9.0489421953
 11
-10.1770015364
 21
9.0733910979
  0
LWPOLYLINE
  5
565
100
AcDbEntity
  8
RACCORDO
100
AcDbPolyline
 62
250
  6
CONTINUOUS
 90
13
 70
0
 10
-10.1770015364
 20
9.0733910979
 10
-10.2077056666
 20
9.086452394
 10
-10.3009648959
 20
9.1339714775
 10
-10.388746606
 20
9.190978936
 10
-10.4700890274
 20
9.2568502793
 10
-10.5441008876
 20
9.3308638657
 10
-10.6099712615
 20
9.4122088786
 10
-10.6669783954
 20
9.4999941648
 10
-10.7144976031
 20
9.5932579539
 10
-10.7520081481
 20
9.6909784171
 10
-10.7790989679
 20
9.7920849027
 10
-10.7954731671
 20
9.8954696727
 10
-10.8009512591
 20
10.0
  0
LWPOLYLINE
  5
566
100
AcDbEntity
  8
ASSI
100
AcDbPolyline
 62
250
  6
CONTINUOUS
 90
13
 70
0
 10
-10.178687821
 20
9.0740772224
 10
-10.2077056666
 20
9.086452394
 10
-10.3009648959
 20
9.1339714775
 10
-10.388746606
 20
9.190978936
 10
-10.4700890274
 20
9.2568502793
 10
-10.5441008876
 20
9.3308638657
 10
-10.6099712615
 20
9.4122088786
 10
-10.6669783954
 20
9.4999941648
 10
-10.7144976031
 20
9.5932579539
 10
-10.7520081481
 20
9.6909784171
 10
-10.7790989679
 20
9.7920849027
 10
-10.7954731671
 20
9.8954696727
 10
-10.8009512591
 20
10.0
  0
LINE
  5
567
100
AcDbEntity
  8
0
100
AcDbLine
 62
7
  6
CONTINUOUS
 10
0.975
 20
13.4722431864
 11
1.825
 21
10.3
  0
LINE
  5
568
100
AcDbEntity
  8
ASSI
100
AcDbLine
 62
7
  6
CONTINUOUS
 10
0.975
 20
13.4722431864
 11
1.825
 21
10.3
  0
LWPOLYLINE
  5
569
100
AcDbEntity
  8
RACCORDO
100
AcDbPolyline
 62
7
  6
CONTINUOUS
 90
15
 70
0
 10
2.75
 20
17.4774686728
 10
2.7516679663
 20
17.4638259698
 10
2.7567623743
 20
17.4473132028
 10
2.765283224
 20
17.4278403206
 10
2.777323807
 20
17.4052658076
 10
2.7927908318
 20
17.37958736
 10
2.8114044233
 20
17.3510174717
 10
2.833187628
 20
17.3197109753
 10
2.8581173994
 20
17.2856491908
 10
2.8858447228
 20
17.2488695186
 10
2.9163226222
 20
17.2095675494
 10
2.9495980736
 20
17.1677827071
 10
2.9854629905
 20
17.1232942865
 10
3.02401894
 20
17.0761785077
 10
3.1535142876
 20
16.9204908982
  0
LWPOLYLINE
  5
56A
100
AcDbEntity
  8
ASSI
100
AcDbPolyline
 62
7
  6
CONTINUOUS
 90
15
 70
0
 10
2.75
 20
17.4774686728
 10
2.7516679663
 20
17.4638259698
 10
2.7567623743
 20
17.4473132028
 10
2.765283224
 20
17.4278403206
 10
2.777323807
 20
17.4052658076
 10
2.7927908318
 20
17.37958736
 10
2.8114044233
 20
17.3510174717
 10
2.833187628
 20
17.3197109753
 10
2.8581173994
 20
17.2856491908
 10
2.8858447228
 20
17.2488695186
 10
2.9163226222
 20
17.2095675494
 10
2.9495980736
 20
17.1677827071
 10
2.9854629905
 20
17.1232942865
 10
3.02401894
 20
17.0761785077
 10
3.1535142876
 20
16.9204908982
  0
LINE
  5
56B
100
AcDbEntity
  8
DRAFT
100
AcDbLine
 62
7
  6
CONTINUOUS
 10
7.238215003
 20
-20.9317102097
 11
7.2084845302
 21
-19.9483339502
  0
LINE
  5
56C
100
AcDbEntity
  8
DRAFT
100
AcDbLine
 62
7
  6
CONTINUOUS
 10
7.238215003
 20
20.9317102097
 11
7.2084845302
 21
19.9483339502
  0
LWPOLYLINE
  5
56D
100
AcDbEntity
  8
RACCORDO
100
AcDbPolyline
 62
7
  6
CONTINUOUS
 90
18
 70
0
 10
9.6575274152
 20
18.1546524101
 10
9.6575513338
 20
18.1547686321
 10
9.6662649482
 20
18.1796554267
 10
9.6785419876
 20
18.2034644168
 10
9.6941109919
 20
18.2258160842
 10
9.7121575814
 20
18.2455718735
 10
9.7328191815
 20
18.2626093552
 10
9.7559583667
 20
18.2770509588
 10
9.7803484811
 20
18.2881254173
 10
9.8060555336
 20
18.2956492647
 10
9.8330135152
 20
18.2998059669
 10
9.8597977437
 20
18.3003746549
 10
9.8863856284
 20
18.2971786568
 10
9.91279976
 20
18.2903946445
 10
9.937683228
 20
18.2803317644
 10
9.9605837291
 20
18.2670930656
 10
9.9819535666
 20
18.250575499
 10
10.0017927407
 20
18.2307790647
  0
LINE
  5
56E
100
AcDbEntity
  8
0
100
AcDbLine
 62
7
  6
CONTINUOUS
 10
1.825
 20
-15.6
 11
2.675
 21
-12.4277568136
  0
LINE
  5
56F
100
AcDbEntity
  8
ASSI
100
AcDbLine
 62
7
  6
CONTINUOUS
 10
1.825
 20
-15.6
 11
2.675
 21
-12.4277568136
  0
LINE
  5
570
100
AcDbEntity
  8
0
100
AcDbLine
 62
7
  6
CONTINUOUS
 10
10.826335331
 20
3.0877237121
 11
10.8352277754
 21
3.0966161565
  0
LINE
  5
571
100
AcDbEntity
  8
0
100
AcDbLine
 62
7
  6
CONTINUOUS
 10
10.826335331
 20
2.8777129981
 11
10.8352277754
 21
2.8866054425
  0
LINE
  5
572
100
AcDbEntity
  8
0
100
AcDbLine
 62
7
  6
CONTINUOUS
 10
10.826335331
 20
2.6677022841
 11
10.8352277754
 21
2.6765947285
  0
LINE
  5
573
100
AcDbEntity
  8
0
100
AcDbLine
 62
7
  6
CONTINUOUS
 10
10.826335331
 20
2.4576915701
 11
10.8352277754
 21
2.4665840145
  0
LINE
  5
574
100
AcDbEntity
  8
0
100
AcDbLine
 62
7
  6
CONTINUOUS
 10
10.826335331
 20
2.247680856
 11
10.8352277754
 21
2.2565733004
  0
LINE
  5
575
100
AcDbEntity
  8
0
100
AcDbLine
 62
7
  6
CONTINUOUS
 10
10.826335331
 20
2.037670142
 11
10.8352277754
 21
2.0465625864
  0
LINE
  5
576
100
AcDbEntity
  8
0
100
AcDbLine
 62
7
  6
CONTINUOUS
 10
10.826335331
 20
1.827659428
 11
10.8352277754
 21
1.8365518724
  0
LINE
  5
577
100
AcDbEntity
  8
0
100
AcDbLine
 62
7
  6
CONTINUOUS
 10
10.826335331
 20
1.617648714
 11
10.8352277754
 21
1.6265411584
  0
LINE
  5
578
100
AcDbEntity
  8
0
100
AcDbLine
 62
7
  6
CONTINUOUS
 10
10.826335331
 20
1.407638
 11
10.8352277754
 21
1.4165304444
  0
LINE
  5
579
100
AcDbEntity
  8
0
100
AcDbLine
 62
250
  6
CONTINUOUS
 10
10.826335331
 20
5.592362
 11
10.8352277754
 21
5.592362
  0
LINE
  5
57A
100
AcDbEntity
  8
CURVE
100
AcDbLine
 62
250
  6
CONTINUOUS
 10
10.9246221393
 20
5.7761903286
 11
10.918139817
 21
5.7761903286
  0
LINE
  5
57B
100
AcDbEntity
  8
0
100
AcDbLine
 62
250
  6
CONTINUOUS
 10
10.8045181615
 20
5.8952380657
 11
10.8158630896
 21
5.8952380657
  0
LINE
  5
57C
100
AcDbEntity
  8
CURVE
100
AcDbLine
 62
250
  6
CONTINUOUS
 10
10.9061101226
 20
6.76666646
 11
10.9044895421
 21
6.76666646
  0
LINE
  5
57D
100
AcDbEntity
  8
CURVE
100
AcDbLine
 62
250
  6
CONTINUOUS
 10
10.920570688
 20
7.1690477371
 11
10.9254324299
 21
7.1690477371
  0
LINE
  5
57E
100
AcDbEntity
  8
RACCORDO
100
AcDbLine
 62
7
  6
CONTINUOUS
 10
7.2189575692
 20
19.2
 11
7.2084845302
 21
19.8
  0
LINE
  5
57F
100
AcDbEntity
  8
DRAFT
100
AcDbLine
 62
7
  6
CONTINUOUS
 10
7.2084845302
 20
19.9483339502
 11
7.2084845302
 21
19.8
  0
LINE
  5
580
100
AcDbEntity
  8
DRAFT
100
AcDbLine
 62
7
  6
CONTINUOUS
 10
7.2084845302
 20
-19.8
 11
7.2084845302
 21
-19.9483339502
  0
LINE
  5
581
100
AcDbEntity
  8
RACCORDO
100
AcDbLine
 62
250
  6
CONTINUOUS
 10
7.2687951175
 20
-17.6686999252
 11
7.2687951167
 21
-18.6686618482
  0
LINE
  5
582
100
AcDbEntity
  8
ASSI
100
AcDbLine
 62
250
  6
CONTINUOUS
 10
7.2687951175
 20
-17.6686999252
 11
7.2687951167
 21
-18.6686618482
  0
LINE
  5
583
100
AcDbEntity
  8
RACCORDO
100
AcDbLine
 62
250
  6
CONTINUOUS
 10
7.2687951175
 20
17.6686999252
 11
7.2687951175
 21
18.6686618482
  0
LINE
  5
584
100
AcDbEntity
  8
ASSI
100
AcDbLine
 62
250
  6
CONTINUOUS
 10
7.2687951175
 20
17.6686999252
 11
7.2687951175
 21
18.6686618482
  0
LINE
  5
585
100
AcDbEntity
  8
RACCORDO
100
AcDbLine
 62
7
  6
CONTINUOUS
 10
7.5226756989
 20
20.7603594806
 11
7.5226756989
 21
19.2
  0
LINE
  5
586
100
AcDbEntity
  8
RACCORDO
100
AcDbLine
 62
7
  6
CONTINUOUS
 10
7.5226756989
 20
-19.2
 11
7.5226756989
 21
-20.7603594806
  0
LINE
  5
587
100
AcDbEntity
  8
RACCORDO
100
AcDbLine
 62
7
  6
CONTINUOUS
 10
7.2084845302
 20
-19.8
 11
7.2189575692
 21
-19.2
  0
LINE
  5
588
100
AcDbEntity
  8
DRAFT
100
AcDbLine
 62
7
  6
CONTINUOUS
 10
-9.5103594806
 20
-20.7603594806
 11
-9.65
 21
-20.9
  0
LINE
  5
589
100
AcDbEntity
  8
RACCORDO
100
AcDbLine
 62
250
  6
CONTINUOUS
 10
-7.5001332693
 20
-18.9
 11
-7.2687951175
 21
-18.6686618482
  0
LINE
  5
58A
100
AcDbEntity
  8
ASSI
100
AcDbLine
 62
250
  6
CONTINUOUS
 10
-7.5001332693
 20
-18.9
 11
-7.2687951175
 21
-18.6686618482
  0
LINE
  5
58B
100
AcDbEntity
  8
0
100
AcDbLine
 62
7
  6
CONTINUOUS
 10
-7.550091
 20
-13.661686
 11
-8.56649
 21
-14.301357
  0
LINE
  5
58C
100
AcDbEntity
  8
ASSI
100
AcDbLine
 62
7
  6
CONTINUOUS
 10
-7.550091
 20
-13.661686
 11
-8.56649
 21
-14.301357
  0
LINE
  5
58D
100
AcDbEntity
  8
0
100
AcDbLine
 62
7
  6
CONTINUOUS
 10
-8.331766
 20
-14.327614
 11
-7.314851
 21
-13.698215
  0
LINE
  5
58E
100
AcDbEntity
  8
ASSI
100
AcDbLine
 62
7
  6
CONTINUOUS
 10
-8.331766
 20
-14.327614
 11
-7.314851
 21
-13.698215
  0
LINE
  5
58F
100
AcDbEntity
  8
0
100
AcDbLine
 62
250
  6
CONTINUOUS
 10
10.8327352953
 20
7.42959
 11
10.8260112728
 21
7.42959
  0
LINE
  5
590
100
AcDbEntity
  8
0
100
AcDbLine
 62
250
  6
CONTINUOUS
 10
10.8702935187
 20
7.42959
 11
10.8635694962
 21
7.42959
  0
LINE
  5
591
100
AcDbEntity
  8
0
100
AcDbLine
 62
250
  6
CONTINUOUS
 10
10.8045181615
 20
7.6595238686
 11
10.8158630896
 21
7.6595238686
  0
LINE
  5
592
100
AcDbEntity
  8
CURVE
100
AcDbLine
 62
250
  6
CONTINUOUS
 10
10.9254324299
 20
7.8190477371
 11
10.920570688
 21
7.8190477371
  0
LINE
  5
593
100
AcDbEntity
  8
0
100
AcDbLine
 62
250
  6
CONTINUOUS
 10
10.8514902956
 20
7.93959
 11
10.8448144959
 21
7.93959
  0
LINE
  5
594
100
AcDbEntity
  8
0
100
AcDbLine
 62
250
  6
CONTINUOUS
 10
10.8045181615
 20
8.3095238686
 11
10.8158630896
 21
8.3095238686
  0
LINE
  5
595
100
AcDbEntity
  8
RACCORDO
100
AcDbLine
 62
250
  6
CONTINUOUS
 10
0.5
 20
8.5
 11
-0.5
 21
8.5
  0
LINE
  5
596
100
AcDbEntity
  8
ASSI
100
AcDbLine
 62
250
  6
CONTINUOUS
 10
0.5
 20
8.5
 11
-0.5
 21
8.5
  0
LINE
  5
597
100
AcDbEntity
  8
RACCORDO
100
AcDbLine
 62
250
  6
CONTINUOUS
 10
-1.0
 20
8.5
 11
-10.8140415607
 21
8.5
  0
LINE
  5
598
100
AcDbEntity
  8
ASSI
100
AcDbLine
 62
250
  6
CONTINUOUS
 10
-1.0
 20
8.5
 11
-10.8140415607
 21
8.5
  0
LINE
  5
599
100
AcDbEntity
  8
CURVE
100
AcDbLine
 62
250
  6
CONTINUOUS
 10
10.9061101226
 20
8.71666646
 11
10.9028689616
 21
8.71666646
  0
LINE
  5
59A
100
AcDbEntity
  8
0
100
AcDbLine
 62
250
  6
CONTINUOUS
 10
10.8045181615
 20
8.8976193428
 11
10.8158630896
 21
8.8976193428
  0
LWPOLYLINE
  5
59B
100
AcDbEntity
  8
RACCORDO
100
AcDbPolyline
 62
250
  6
CONTINUOUS
 90
19
 70
0
 10
-9.7686999252
 20
9.0
 10
-9.8558523493
 20
9.0038053019
 10
-9.9423414908
 20
9.015192247
 10
-10.0275091152
 20
9.0340741737
 10
-10.1107070454
 20
9.0603073792
 10
-10.1913020949
 20
9.093692213
 10
-10.2686808867
 20
9.1339745962
 10
-10.3422545215
 20
9.1808479557
 10
-10.4114630595
 20
9.2339555569
 10
-10.4757797819
 20
9.2928932188
 10
-10.5347151997
 20
9.3572123903
 10
-10.5878207786
 20
9.4264235636
 10
-10.6346923533
 20
9.5
 10
-10.6749732028
 20
9.5773817383
 10
-10.7083567653
 20
9.6579798567
 10
-10.734588972
 20
9.7411809549
 10
-10.7534701797
 20
9.8263518223
 10
-10.7648566912
 20
9.9128442573
 10
-10.7686618482
 20
10.0
  0
LWPOLYLINE
  5
59C
100
AcDbEntity
  8
ASSI
100
AcDbPolyline
 62
250
  6
CONTINUOUS
 90
19
 70
0
 10
-9.7686999252
 20
9.0
 10
-9.8558523493
 20
9.0038053019
 10
-9.9423414908
 20
9.015192247
 10
-10.0275091152
 20
9.0340741737
 10
-10.1107070454
 20
9.0603073792
 10
-10.1913020949
 20
9.093692213
 10
-10.2686808867
 20
9.1339745962
 10
-10.3422545215
 20
9.1808479557
 10
-10.4114630595
 20
9.2339555569
 10
-10.4757797819
 20
9.2928932188
 10
-10.5347151997
 20
9.3572123903
 10
-10.5878207786
 20
9.4264235636
 10
-10.6346923533
 20
9.5
 10
-10.6749732028
 20
9.5773817383
 10
-10.7083567653
 20
9.6579798567
 10
-10.734588972
 20
9.7411809549
 10
-10.7534701797
 20
9.8263518223
 10
-10.7648566912
 20
9.9128442573
 10
-10.7686618482
 20
10.0
  0
LWPOLYLINE
  5
59D
100
AcDbEntity
  8
RACCORDO
100
AcDbPolyline
 62
7
  6
CONTINUOUS
 90
4
 70
0
 10
-9.800989336
 20
9.0
 10
-9.9055122807
 20
9.0054779429
 10
-10.0088902377
 20
9.0218517887
 10
-10.1099905988
 20
9.0489421953
  0
LWPOLYLINE
  5
59E
100
AcDbEntity
  8
ASSI
100
AcDbPolyline
 62
7
  6
CONTINUOUS
 90
5
 70
0
 10
-9.800989336
 20
9.0
 10
-9.9055122807
 20
9.0054779429
 10
-10.0088902377
 20
9.0218517887
 10
-10.1099905988
 20
9.0489421953
 10
-10.178687821
 20
9.0740772224
  0
LINE
  5
59F
100
AcDbEntity
  8
DRAFT
100
AcDbLine
 62
7
  6
CONTINUOUS
 10
-9.5103594806
 20
20.7603594806
 11
-9.65
 21
20.9
  0
LINE
  5
5A0
100
AcDbEntity
  8
RACCORDO
100
AcDbLine
 62
250
  6
CONTINUOUS
 10
-7.5001332693
 20
18.9
 11
-7.2687951175
 21
18.6686618482
  0
LINE
  5
5A1
100
AcDbEntity
  8
ASSI
100
AcDbLine
 62
250
  6
CONTINUOUS
 10
-7.5001332693
 20
18.9
 11
-7.2687951175
 21
18.6686618482
  0
LWPOLYLINE
  5
5A2
100
AcDbEntity
  8
0
100
AcDbPolyline
 62
250
  6
CONTINUOUS
 90
10
 70
0
 10
10.9621418715
 20
-14.9845902406
 10
10.9622710792
 20
-14.9877134517
 10
10.9624010376
 20
-14.9904147869
 10
10.9625316071
 20
-14.9927087823
 10
10.9626626482
 20
-14.9946099742
 10
10.9627940213
 20
-14.9961328986
 10
10.962925587
 20
-14.9972920916
 10
10.9630572058
 20
-14.9981020896
 10
10.9631887381
 20
-14.9985774285
 10
10.9633200444
 20
-14.9987326445
  0
LWPOLYLINE
  5
5A3
100
AcDbEntity
  8
0
100
AcDbPolyline
 62
250
  6
CONTINUOUS
 90
10
 70
0
 10
10.9557350601
 20
-13.355678355
 10
10.9560158121
 20
-13.3631620286
 10
10.9562979532
 20
-13.3694839406
 10
10.9565812797
 20
-13.3747192106
 10
10.9568655882
 20
-13.3789429577
 10
10.957150675
 20
-13.3822303014
 10
10.9574363366
 20
-13.384656361
 10
10.9577223695
 20
-13.3862962558
 10
10.9580085701
 20
-13.3872251051
 10
10.9582947348
 20
-13.3875180284
  0
LINE
  5
5A4
100
AcDbEntity
  8
0
100
AcDbLine
 62
250
  6
CONTINUOUS
 10
10.9562770482
 20
-13.2565848808
 11
10.9559400763
 21
-13.2480771956
  0
LINE
  5
5A5
100
AcDbEntity
  8
CURVE
100
AcDbLine
 62
250
  6
CONTINUOUS
 10
10.9238118494
 20
-12.6714285493
 11
10.920570688
 21
-12.5785714507
  0
LWPOLYLINE
  5
5A6
100
AcDbEntity
  8
RACCORDO
100
AcDbPolyline
 62
250
  6
CONTINUOUS
 90
25
 70
0
 10
9.7686999252
 20
15.1687951175
 10
9.7632099343
 20
15.3331475493
 10
9.7472406956
 20
15.4955118974
 10
9.720792209
 20
15.6558881618
 10
9.6836635766
 20
15.8149729791
 10
9.6360556963
 20
15.9720697128
 10
9.5785712624
 20
16.1250884532
 10
9.5110811092
 20
16.2739527448
 10
9.4337144022
 20
16.4187390432
 10
9.3474613325
 20
16.5575868052
 10
9.2522080697
 20
16.6904161069
 10
9.1480684442
 20
16.8173068721
 10
9.0363741371
 20
16.9366383295
 10
8.9170294389
 20
17.0483127501
 10
8.7901300592
 20
17.1524278627
 10
8.6572948086
 20
17.2476560821
 10
8.5184434472
 20
17.333884376
 10
8.373656215
 20
17.4112257766
 10
8.224792642
 20
17.4786917954
 10
8.0717663491
 20
17.5361539725
 10
7.9146637154
 20
17.5837407678
 10
7.7556034086
 20
17.6208490716
 10
7.5952916513
 20
17.6472778475
 10
7.4330222209
 20
17.663228132
 10
7.2687951175
 20
17.6686999252
  0
LWPOLYLINE
  5
5A7
100
AcDbEntity
  8
ASSI
100
AcDbPolyline
 62
250
  6
CONTINUOUS
 90
25
 70
0
 10
9.7686999252
 20
15.1687951175
 10
9.7632099343
 20
15.3331475493
 10
9.7472406956
 20
15.4955118974
 10
9.720792209
 20
15.6558881618
 10
9.6836635766
 20
15.8149729791
 10
9.6360556963
 20
15.9720697128
 10
9.5785712624
 20
16.1250884532
 10
9.5110811092
 20
16.2739527448
 10
9.4337144022
 20
16.4187390432
 10
9.3474613325
 20
16.5575868052
 10
9.2522080697
 20
16.6904161069
 10
9.1480684442
 20
16.8173068721
 10
9.0363741371
 20
16.9366383295
 10
8.9170294389
 20
17.0483127501
 10
8.7901300592
 20
17.1524278627
 10
8.6572948086
 20
17.2476560821
 10
8.5184434472
 20
17.333884376
 10
8.373656215
 20
17.4112257766
 10
8.224792642
 20
17.4786917954
 10
8.0717663491
 20
17.5361539725
 10
7.9146637154
 20
17.5837407678
 10
7.7556034086
 20
17.6208490716
 10
7.5952916513
 20
17.6472778475
 10
7.4330222209
 20
17.663228132
 10
7.2687951175
 20
17.6686999252
  0
LINE
  5
5A8
100
AcDbEntity
  8
0
100
AcDbLine
 62
250
  6
CONTINUOUS
 10
10.9618862659
 20
-14.9770200461
 11
10.9621418715
 21
-14.9845902406
  0
LINE
  5
5A9
100
AcDbEntity
  8
0
100
AcDbLine
 62
250
  6
CONTINUOUS
 10
10.9559400763
 20
-13.2480771956
 11
10.9556675529
 21
-13.2397387418
  0
LINE
  5
5AA
100
AcDbEntity
  8
0
100
AcDbLine
 62
250
  6
CONTINUOUS
 10
10.9553204501
 20
-13.3422311487
 11
10.9557350601
 21
-13.355678355
  0
LWPOLYLINE
  5
5AB
100
AcDbEntity
  8
0
100
AcDbPolyline
 62
250
  6
CONTINUOUS
 90
3
 70
0
 10
10.9623048127
 20
-14.8721303763
 10
10.962029012
 20
-14.8621324545
 10
10.9618939562
 20
-14.8561374708
  0
LINE
  5
5AC
100
AcDbEntity
  8
0
100
AcDbLine
 62
250
  6
CONTINUOUS
 10
10.9556675529
 20
-13.2397387418
 11
10.9552654277
 21
-13.2246233784
  0
LINE
  5
5AD
100
AcDbEntity
  8
0
100
AcDbLine
 62
250
  6
CONTINUOUS
 10
10.9549131723
 20
-13.3258787385
 11
10.9553204501
 21
-13.3422311487
  0
LWPOLYLINE
  5
5AE
100
AcDbEntity
  8
0
100
AcDbPolyline
 62
250
  6
CONTINUOUS
 90
3
 70
0
 10
10.9615119751
 20
-14.9621372813
 10
10.961635337
 20
-14.9675879142
 10
10.9618862659
 20
-14.9770200461
  0
LINE
  5
5AF
100
AcDbEntity
  8
DRAFT
100
AcDbLine
 62
7
  6
CONTINUOUS
 10
9.5103594806
 20
-20.7603594806
 11
9.5103594806
 21
-18.262999781
  0
LINE
  5
5B0
100
AcDbEntity
  8
DRAFT
100
AcDbLine
 62
7
  6
CONTINUOUS
 10
9.5103594806
 20
18.262999781
 11
9.5103594806
 21
20.7603594806
  0
LINE
  5
5B1
100
AcDbEntity
  8
RACCORDO
100
AcDbLine
 62
7
  6
CONTINUOUS
 10
9.65
 20
-20.9
 11
9.65
 21
-18.1608299811
  0
LINE
  5
5B2
100
AcDbEntity
  8
RACCORDO
100
AcDbLine
 62
7
  6
CONTINUOUS
 10
9.65
 20
18.1608299811
 11
9.65
 21
20.9
  0
LINE
  5
5B3
100
AcDbEntity
  8
RACCORDO
100
AcDbLine
 62
250
  6
CONTINUOUS
 10
9.7686999252
 20
-15.1687951175
 11
9.7686999252
 21
15.1687951175
  0
LINE
  5
5B4
100
AcDbEntity
  8
ASSI
100
AcDbLine
 62
250
  6
CONTINUOUS
 10
9.7686999252
 20
-15.1687951175
 11
9.7686999252
 21
15.1687951175
  0
LINE
  5
5B5
100
AcDbEntity
  8
0
100
AcDbLine
 62
250
  6
CONTINUOUS
 10
10.8158630896
 20
14.5
 11
10.8093802736
 21
14.128571412
  0
LWPOLYLINE
  5
5B6
100
AcDbEntity
  8
0
100
AcDbPolyline
 62
250
  6
CONTINUOUS
 90
8
 70
0
 10
10.8448144959
 20
9.428126
 10
10.8416745665
 20
9.307918064
 10
10.8388272291
 20
9.1143873028
 10
10.8364010928
 20
8.8562751548
 10
10.8344796084
 20
8.5397761207
 10
10.8332113188
 20
8.1893575688
 10
10.832617891
 20
7.8161395686
 10
10.8327352992
 20
7.4295900283
  0
LINE
  5
5B7
100
AcDbEntity
  8
0
100
AcDbLine
 62
250
  6
CONTINUOUS
 10
10.8158630896
 20
13.0142856479
 11
10.8045181615
 21
12.6428570986
  0
LWPOLYLINE
  5
5B8
100
AcDbEntity
  8
0
100
AcDbPolyline
 62
250
  6
CONTINUOUS
 90
5
 70
0
 10
10.8520840909
 20
2.952892
 10
10.8515457747
 20
2.9468435097
 10
10.8510279628
 20
2.9289284239
 10
10.8505503785
 20
2.8998291227
 10
10.8497810359
 20
2.8119750371
  0
LWPOLYLINE
  5
5B9
100
AcDbEntity
  8
0
100
AcDbPolyline
 62
250
  6
CONTINUOUS
 90
5
 70
0
 10
10.8520840909
 20
2.77581
 10
10.8518459275
 20
2.7731340089
 10
10.8516168356
 20
2.7652079632
 10
10.8514055413
 20
2.7523337635
 10
10.8510651665
 20
2.7134650969
  0
LWPOLYLINE
  5
5BA
100
AcDbEntity
  8
0
100
AcDbPolyline
 62
250
  6
CONTINUOUS
 90
5
 70
0
 10
10.8520840909
 20
2.49479
 10
10.8523222544
 20
2.4974659911
 10
10.8525513463
 20
2.5053920368
 10
10.8527626406
 20
2.5182662365
 10
10.8531030154
 20
2.5571349031
  0
LWPOLYLINE
  5
5BB
100
AcDbEntity
  8
0
100
AcDbPolyline
 62
250
  6
CONTINUOUS
 90
5
 70
0
 10
10.8520840909
 20
2.317708
 10
10.8526224072
 20
2.3237564903
 10
10.8531402191
 20
2.3416715761
 10
10.8536178034
 20
2.3707708773
 10
10.854387146
 20
2.4586249629
  0
LWPOLYLINE
  5
5BC
100
AcDbEntity
  8
0
100
AcDbPolyline
 62
250
  6
CONTINUOUS
 90
5
 70
0
 10
10.8812791867
 20
2.402669
 10
10.8809527616
 20
2.3990013057
 10
10.8806387699
 20
2.3881379242
 10
10.8803491714
 20
2.3704926384
 10
10.8798826561
 20
2.3172195222
  0
LINE
  5
5BD
100
AcDbEntity
  8
0
100
AcDbLine
 62
250
  6
CONTINUOUS
 10
10.8803674644
 20
4.568876
 11
10.8510269235
 21
4.274826
  0
LINE
  5
5BE
100
AcDbEntity
  8
RACCORDO
100
AcDbLine
 62
7
  6
CONTINUOUS
 10
-1.0
 20
9.0
 11
-9.800989336
 21
9.0
  0
LINE
  5
5BF
100
AcDbEntity
  8
ASSI
100
AcDbLine
 62
7
  6
CONTINUOUS
 10
-1.0
 20
9.0
 11
-9.800989336
 21
9.0
  0
LINE
  5
5C0
100
AcDbEntity
  8
CURVE
100
AcDbLine
 62
250
  6
CONTINUOUS
 10
10.9028689616
 20
9.36666646
 11
10.9061101226
 21
9.36666646
  0
LINE
  5
5C1
100
AcDbEntity
  8
CURVE
100
AcDbLine
 62
250
  6
CONTINUOUS
 10
10.9286735909
 20
9.58333354
 11
10.9173295267
 21
9.58333354
  0
LINE
  5
5C2
100
AcDbEntity
  8
CURVE
100
AcDbLine
 62
250
  6
CONTINUOUS
 10
10.9012483808
 20
9.7380954742
 11
10.8980072196
 21
9.7380954742
  0
LINE
  5
5C3
100
AcDbEntity
  8
RACCORDO
100
AcDbLine
 62
250
  6
CONTINUOUS
 10
-1.0
 20
10.0
 11
-10.800951259
 21
10.0
  0
LINE
  5
5C4
100
AcDbEntity
  8
ASSI
100
AcDbLine
 62
250
  6
CONTINUOUS
 10
-1.0
 20
10.0
 11
-10.800951259
 21
10.0
  0
LINE
  5
5C5
100
AcDbEntity
  8
CURVE
100
AcDbLine
 62
250
  6
CONTINUOUS
 10
10.8980072196
 20
10.3880951643
 11
10.9020586711
 21
10.3880951643
  0
LINE
  5
5C6
100
AcDbEntity
  8
0
100
AcDbLine
 62
250
  6
CONTINUOUS
 10
10.8548504027
 20
2.619407
 11
10.8801270309
 21
2.350161
  0
LINE
  5
5C7
100
AcDbEntity
  8
CURVE
100
AcDbLine
 62
250
  6
CONTINUOUS
 10
10.9051855607
 20
-0.4833333388
 11
10.9027858548
 21
-0.4375
  0
LINE
  5
5C8
100
AcDbEntity
  8
CURVE
100
AcDbLine
 62
250
  6
CONTINUOUS
 10
10.9007860998
 20
-1.5833332896
 11
10.9027858548
 21
-1.6291667104
  0
LWPOLYLINE
  5
5C9
100
AcDbEntity
  8
0
100
AcDbPolyline
 62
250
  6
CONTINUOUS
 90
17
 70
0
 10
10.8591590153
 20
-1.0974497292
 10
10.8582255477
 20
-1.0715940091
 10
10.8572848795
 20
-1.0497240552
 10
10.8563382584
 20
-1.0318337482
 10
10.855386932
 20
-1.0179169691
 10
10.8544321481
 20
-1.0079675988
 10
10.8534751542
 20
-1.001979518
 10
10.852517176
 20
-0.9999496611
 10
10.8515593514
 20
-1.0018871767
 10
10.8506027961
 20
-1.0078042665
 10
10.8496486259
 20
-1.0177131325
 10
10.8486979566
 20
-1.0316259766
 10
10.8477519039
 20
-1.0495550007
 10
10.8468116655
 20
-1.0714991404
 10
10.845878765
 20
-1.0974042654
 10
10.844954808
 20
-1.1272029791
 10
10.8431401467
 20
-1.1982115866
  0
LWPOLYLINE
  5
5CA
100
AcDbEntity
  8
RACCORDO
100
AcDbPolyline
 62
7
  6
CONTINUOUS
 90
7
 70
0
 10
11.1761825974
 20
16.4071689224
 10
11.1735520362
 20
16.4799673056
 10
11.1657163328
 20
16.5518663904
 10
11.1526754872
 20
16.6228661767
 10
11.1342569102
 20
16.6934799298
 10
11.1106331911
 20
16.7631943845
 10
11.0810951008
 20
16.8330979441
  0
LWPOLYLINE
  5
5CB
100
AcDbEntity
  8
0
100
AcDbPolyline
 62
250
  6
CONTINUOUS
 90
14
 70
0
 10
10.8491183685
 20
-5.4489953545
 10
10.8496765952
 20
-5.4646261624
 10
10.8502380971
 20
-5.4773630937
 10
10.8508028287
 20
-5.4872516398
 10
10.8513707136
 20
-5.494326852
 10
10.8519415517
 20
-5.4985820212
 10
10.8525151121
 20
-5.4999999976
 10
10.8530908585
 20
-5.4985636324
 10
10.8536670328
 20
-5.4942557779
 10
10.8542415716
 20
-5.4870592873
 10
10.8548124263
 20
-5.4769707227
 10
10.855377608
 20
-5.4640414837
 10
10.8559351425
 20
-5.4483366789
 10
10.85702204
 20
-5.4088023975
  0
LINE
  5
5CC
100
AcDbEntity
  8
CURVE
100
AcDbLine
 62
250
  6
CONTINUOUS
 10
10.9028689616
 20
8.71666646
 11
10.8996278003
 21
8.8095238686
  0
LWPOLYLINE
  5
5CD
100
AcDbEntity
  8
RACCORDO
100
AcDbPolyline
 62
250
  6
CONTINUOUS
 90
25
 70
0
 10
10.7686618482
 20
15.1687951175
 10
10.7611606927
 20
15.3977454219
 10
10.7387015658
 20
15.6256952743
 10
10.7013844103
 20
15.8516688262
 10
10.6493754219
 20
16.0746892497
 10
10.5828995468
 20
16.2938127854
 10
10.5022330747
 20
16.5081308762
 10
10.4077124507
 20
16.7167389702
 10
10.2997452406
 20
16.9187285282
 10
10.1788000761
 20
17.1132209628
 10
10.0453991378
 20
17.2993789482
 10
9.9001111097
 20
17.4764111288
 10
9.7435562057
 20
17.643562279
 10
9.5764047996
 20
17.8001166601
 10
9.3993725077
 20
17.9454040795
 10
9.2132143059
 20
18.0788045238
 10
9.0187213824
 20
18.1997493658
 10
8.8167311812
 20
18.3077162912
 10
8.608122451
 20
18.4022365638
 10
8.3938033974
 20
18.4829027331
 10
8.1746789045
 20
18.5493781936
 10
7.9516587799
 20
18.6013864085
 10
7.7256872517
 20
18.638702622
 10
7.4977407545
 20
18.6611609986
 10
7.2687951175
 20
18.6686618482
  0
LWPOLYLINE
  5
5CE
100
AcDbEntity
  8
ASSI
100
AcDbPolyline
 62
250
  6
CONTINUOUS
 90
25
 70
0
 10
10.7686618482
 20
15.1687951175
 10
10.7611606927
 20
15.3977454219
 10
10.7387015658
 20
15.6256952743
 10
10.7013844103
 20
15.8516688262
 10
10.6493754219
 20
16.0746892497
 10
10.5828995468
 20
16.2938127854
 10
10.5022330747
 20
16.5081308762
 10
10.4077124507
 20
16.7167389702
 10
10.2997452406
 20
16.9187285282
 10
10.1788000761
 20
17.1132209628
 10
10.0453991378
 20
17.2993789482
 10
9.9001111097
 20
17.4764111288
 10
9.7435562057
 20
17.643562279
 10
9.5764047996
 20
17.8001166601
 10
9.3993725077
 20
17.9454040795
 10
9.2132143059
 20
18.0788045238
 10
9.0187213824
 20
18.1997493658
 10
8.8167311812
 20
18.3077162912
 10
8.608122451
 20
18.4022365638
 10
8.3938033974
 20
18.4829027331
 10
8.1746789045
 20
18.5493781936
 10
7.9516587799
 20
18.6013864085
 10
7.7256872517
 20
18.638702622
 10
7.4977407545
 20
18.6611609986
 10
7.2687951175
 20
18.6686618482
  0
LINE
  5
5CF
100
AcDbEntity
  8
CURVE
100
AcDbLine
 62
250
  6
CONTINUOUS
 10
10.9079670508
 20
-5.3785714313
 11
10.8990538576
 21
-5.1
  0
LINE
  5
5D0
100
AcDbEntity
  8
0
100
AcDbLine
 62
250
  6
CONTINUOUS
 10
10.8045181615
 20
0.4166670799
 11
10.8158630896
 21
0.0452386856
  0
LINE
  5
5D1
100
AcDbEntity
  8
CURVE
100
AcDbLine
 62
250
  6
CONTINUOUS
 10
10.9286735909
 20
-3.2190477371
 11
10.9173295267
 21
-2.8476190329
  0
LINE
  5
5D2
100
AcDbEntity
  8
CURVE
100
AcDbLine
 62
250
  6
CONTINUOUS
 10
10.896386639
 20
1.2
 11
10.9077307031
 21
0.8285714507
  0
LWPOLYLINE
  5
5D3
100
AcDbEntity
  8
0
100
AcDbPolyline
 62
250
  6
CONTINUOUS
 90
6
 70
0
 10
10.8808732184
 20
4.5851473992
 10
10.8807753588
 20
4.5883442673
 10
10.8806758506
 20
4.5908740201
 10
10.8805746966
 20
4.5927117832
 10
10.8804718998
 20
4.5938326824
 10
10.8803674631
 20
4.594211843
  0
LINE
  5
5D4
100
AcDbEntity
  8
0
100
AcDbLine
 62
250
  6
CONTINUOUS
 10
10.8045181615
 20
13.3857142746
 11
10.8158630896
 21
13.0142856479
  0
LINE
  5
5D5
100
AcDbEntity
  8
0
100
AcDbLine
 62
250
  6
CONTINUOUS
 10
10.8565851921
 20
-2.0546265694
 11
10.8577168452
 21
-2.0902570426
  0
LINE
  5
5D6
100
AcDbEntity
  8
0
100
AcDbLine
 62
250
  6
CONTINUOUS
 10
10.8609992319
 20
-1.1610513047
 11
10.8591590153
 21
-1.0974497292
  0
LINE
  5
5D7
100
AcDbEntity
  8
0
100
AcDbLine
 62
250
  6
CONTINUOUS
 10
10.9540291085
 20
-9.0650863225
 11
10.9677130492
 21
-9.586932
  0
LINE
  5
5D8
100
AcDbEntity
  8
0
100
AcDbLine
 62
250
  6
CONTINUOUS
 10
10.8480148507
 20
-5.408987979
 11
10.8491183685
 21
-5.4489953545
  0
LINE
  5
5D9
100
AcDbEntity
  8
0
100
AcDbLine
 62
250
  6
CONTINUOUS
 10
10.9677130492
 20
-9.836527
 11
10.9520057874
 21
-9.196167
  0
LINE
  5
5DA
100
AcDbEntity
  8
0
100
AcDbLine
 62
250
  6
CONTINUOUS
 10
10.8577168452
 20
-2.0902570426
 11
10.8588252646
 21
-2.1346404903
  0
LINE
  5
5DB
100
AcDbEntity
  8
CURVE
100
AcDbLine
 62
250
  6
CONTINUOUS
 10
10.8987863448
 20
-1.4916667104
 11
10.9007860998
 21
-1.5833332896
  0
LINE
  5
5DC
100
AcDbEntity
  8
0
100
AcDbLine
 62
250
  6
CONTINUOUS
 10
10.8627949156
 20
-1.2401195373
 11
10.8609992319
 21
-1.1610513047
  0
LINE
  5
5DD
100
AcDbEntity
  8
0
100
AcDbLine
 62
250
  6
CONTINUOUS
 10
10.8810639799
 20
4.5768518148
 11
10.8808732184
 21
4.5851473992
  0
LINE
  5
5DE
100
AcDbEntity
  8
0
100
AcDbLine
 62
250
  6
CONTINUOUS
 10
10.8469424977
 20
-5.3575884185
 11
10.8480148507
 21
-5.408987979
  0
LINE
  5
5DF
100
AcDbEntity
  8
0
100
AcDbLine
 62
250
  6
CONTINUOUS
 10
10.9552654277
 20
-13.2246233784
 11
10.9548759272
 21
-13.206075381
  0
LINE
  5
5E0
100
AcDbEntity
  8
0
100
AcDbLine
 62
250
  6
CONTINUOUS
 10
10.8372356776
 20
-1.5637037647
 11
10.826335331
 21
-1.0
  0
LINE
  5
5E1
100
AcDbEntity
  8
0
100
AcDbLine
 62
250
  6
CONTINUOUS
 10
10.826335331
 20
-1.999999282
 11
10.8311492936
 21
-2.2659542014
  0
LINE
  5
5E2
100
AcDbEntity
  8
0
100
AcDbLine
 62
250
  6
CONTINUOUS
 10
10.83918027
 20
-2.7096376218
 11
10.8432842832
 21
-2.9363708784
  0
LINE
  5
5E3
100
AcDbEntity
  8
0
100
AcDbLine
 62
250
  6
CONTINUOUS
 10
10.8588252646
 20
-2.1346404903
 11
10.8604335571
 21
-2.2172982805
  0
LINE
  5
5E4
100
AcDbEntity
  8
0
100
AcDbLine
 62
250
  6
CONTINUOUS
 10
10.9543243147
 20
-13.2955495679
 11
10.9549131723
 21
-13.3258787385
  0
LINE
  5
5E5
100
AcDbEntity
  8
CURVE
100
AcDbLine
 62
250
  6
CONTINUOUS
 10
10.9079670508
 20
-12.9
 11
10.9014847285
 21
-12.5285716057
  0
LINE
  5
5E6
100
AcDbEntity
  8
CURVE
100
AcDbLine
 62
250
  6
CONTINUOUS
 10
10.9189501074
 20
-11.5571428627
 11
10.920570688
 21
-11.65
  0
LINE
  5
5E7
100
AcDbEntity
  8
CURVE
100
AcDbLine
 62
250
  6
CONTINUOUS
 10
10.9270530104
 20
-11.092857147
 11
10.9254324299
 21
-11.0
  0
LINE
  5
5E8
100
AcDbEntity
  8
CURVE
100
AcDbLine
 62
250
  6
CONTINUOUS
 10
10.9022950187
 20
-9.0928570986
 11
10.9055361797
 21
-9.2785712957
  0
LINE
  5
5E9
100
AcDbEntity
  8
CURVE
100
AcDbLine
 62
250
  6
CONTINUOUS
 10
10.8982435673
 20
-6.6785714507
 11
10.899864148
 21
-6.7714285493
  0
LINE
  5
5EA
100
AcDbEntity
  8
CURVE
100
AcDbLine
 62
250
  6
CONTINUOUS
 10
10.9063464703
 20
-6.2142857254
 11
10.9047258898
 21
-6.1214285493
  0
LINE
  5
5EB
100
AcDbEntity
  8
CURVE
100
AcDbLine
 62
250
  6
CONTINUOUS
 10
10.896386639
 20
2.5
 11
10.9077307031
 21
1.85
  0
LINE
  5
5EC
100
AcDbEntity
  8
CURVE
100
AcDbLine
 62
250
  6
CONTINUOUS
 10
10.9189501074
 20
7.2619045258
 11
10.920570688
 21
7.1690477371
  0
LINE
  5
5ED
100
AcDbEntity
  8
0
100
AcDbLine
 62
250
  6
CONTINUOUS
 10
10.8093802736
 20
14.128571412
 11
10.8158630896
 21
13.7571428239
  0
LINE
  5
5EE
100
AcDbEntity
  8
CURVE
100
AcDbLine
 62
250
  6
CONTINUOUS
 10
10.9270530104
 20
7.7261903286
 11
10.9254324299
 21
7.8190477371
  0
LINE
  5
5EF
100
AcDbEntity
  8
CURVE
100
AcDbLine
 62
250
  6
CONTINUOUS
 10
10.9020586711
 20
10.3880951643
 11
10.9052998321
 21
10.2023809671
  0
LINE
  5
5F0
100
AcDbEntity
  8
0
100
AcDbLine
 62
250
  6
CONTINUOUS
 10
10.9611530888
 20
-14.9428461094
 11
10.9615119751
 21
-14.9621372813
  0
LINE
  5
5F1
100
AcDbEntity
  8
0
100
AcDbLine
 62
250
  6
CONTINUOUS
 10
10.9618939562
 20
-14.8561374708
 11
10.9615383429
 21
-14.8364136368
  0
LWPOLYLINE
  5
5F2
100
AcDbEntity
  8
0
100
AcDbPolyline
 62
250
  6
CONTINUOUS
 90
4
 70
0
 10
10.85054233
 20
2.3713859804
 10
10.851019025
 20
2.3420958207
 10
10.851536288
 20
2.3239737171
 10
10.8520840912
 20
2.317708
  0
LWPOLYLINE
  5
5F3
100
AcDbEntity
  8
0
100
AcDbPolyline
 62
250
  6
CONTINUOUS
 90
4
 70
0
 10
10.8514019805
 20
2.5185383722
 10
10.8516128813
 20
2.5055797324
 10
10.8518417303
 20
2.4975620973
 10
10.8520840911
 20
2.49479
  0
LWPOLYLINE
  5
5F4
100
AcDbEntity
  8
0
100
AcDbPolyline
 62
250
  6
CONTINUOUS
 90
4
 70
0
 10
10.8527662014
 20
2.7520616278
 10
10.8525553006
 20
2.7650202676
 10
10.8523264516
 20
2.7730379027
 10
10.8520840908
 20
2.77581
  0
LWPOLYLINE
  5
5F5
100
AcDbEntity
  8
0
100
AcDbPolyline
 62
250
  6
CONTINUOUS
 90
4
 70
0
 10
10.8536258519
 20
2.8992140196
 10
10.8531491569
 20
2.9285041793
 10
10.8526318939
 20
2.9466262829
 10
10.8520840907
 20
2.952892
  0
LWPOLYLINE
  5
5F6
100
AcDbEntity
  8
0
100
AcDbPolyline
 62
250
  6
CONTINUOUS
 90
4
 70
0
 10
10.8803442909
 20
2.0500543489
 10
10.8806333501
 20
2.03229333
 10
10.880947009
 20
2.0213044166
 10
10.8812791868
 20
2.017505
  0
LWPOLYLINE
  5
5F7
100
AcDbEntity
  8
0
100
AcDbPolyline
 62
250
  6
CONTINUOUS
 90
4
 70
0
 10
10.8822140824
 20
2.3701196511
 10
10.8819250233
 20
2.38788067
 10
10.8816113644
 20
2.3988695834
 10
10.8812791865
 20
2.402669
  0
LINE
  5
5F8
100
AcDbEntity
  8
0
100
AcDbLine
 62
250
  6
CONTINUOUS
 10
10.8653814858
 20
-1.3866209522
 11
10.8627949156
 21
-1.2401195373
  0
LINE
  5
5F9
100
AcDbEntity
  8
0
100
AcDbLine
 62
250
  6
CONTINUOUS
 10
10.8592254885
 20
-2.7118002244
 11
10.8473776185
 21
-2.0881872694
  0
LINE
  5
5FA
100
AcDbEntity
  8
CURVE
100
AcDbLine
 62
250
  6
CONTINUOUS
 10
10.8966229866
 20
-14.2928574085
 11
10.9047258898
 21
-14.85
  0
LINE
  5
5FB
100
AcDbEntity
  8
0
100
AcDbLine
 62
250
  6
CONTINUOUS
 10
10.8813376844
 20
4.5600269335
 11
10.8810639799
 21
4.5768518148
  0
LINE
  5
5FC
100
AcDbEntity
  8
0
100
AcDbLine
 62
250
  6
CONTINUOUS
 10
10.9548759272
 20
-13.206075381
 11
10.9543852401
 21
-13.1754150909
  0
LINE
  5
5FD
100
AcDbEntity
  8
0
100
AcDbLine
 62
250
  6
CONTINUOUS
 10
10.8454283349
 20
-5.2611779305
 11
10.8469424977
 21
-5.3575884185
  0
LINE
  5
5FE
100
AcDbEntity
  8
CURVE
100
AcDbLine
 62
250
  6
CONTINUOUS
 10
10.9055361797
 20
-10.1142858028
 11
10.9079670508
 21
-10.3
  0
LINE
  5
5FF
100
AcDbEntity
  8
CURVE
100
AcDbLine
 62
250
  6
CONTINUOUS
 10
10.9079670508
 20
-8.2571429014
 11
10.9063464703
 21
-8.13333323
  0
LINE
  5
600
100
AcDbEntity
  8
CURVE
100
AcDbLine
 62
250
  6
CONTINUOUS
 10
10.9063854131
 20
-0.575
 11
10.9051855607
 21
-0.4833333388
  0
LINE
  5
601
100
AcDbEntity
  8
CURVE
100
AcDbLine
 62
250
  6
CONTINUOUS
 10
10.9052998321
 20
7.41666646
 11
10.9077307031
 21
7.2309522629
  0
LINE
  5
602
100
AcDbEntity
  8
CURVE
100
AcDbLine
 62
250
  6
CONTINUOUS
 10
10.9047258898
 20
-10.7642858028
 11
10.8966229866
 21
-10.1142858028
  0
LINE
  5
603
100
AcDbEntity
  8
CURVE
100
AcDbLine
 62
250
  6
CONTINUOUS
 10
10.9044895421
 20
6.76666646
 11
10.896386639
 21
7.41666646
  0
LINE
  5
604
100
AcDbEntity
  8
0
100
AcDbLine
 62
250
  6
CONTINUOUS
 10
10.9536002953
 20
-13.2434350557
 11
10.9543243147
 21
-13.2955495679
  0
LINE
  5
605
100
AcDbEntity
  8
0
100
AcDbLine
 62
250
  6
CONTINUOUS
 10
10.8604335571
 20
-2.2172982805
 11
10.8629275725
 21
-2.3950182396
  0
LINE
  5
606
100
AcDbEntity
  8
0
100
AcDbLine
 62
250
  6
CONTINUOUS
 10
10.9605994931
 20
-14.9013799543
 11
10.9611530888
 21
-14.9428461094
  0
LINE
  5
607
100
AcDbEntity
  8
0
100
AcDbLine
 62
250
  6
CONTINUOUS
 10
10.9615383429
 20
-14.8364136368
 11
10.9611008877
 21
-14.8027492315
  0
LINE
  5
608
100
AcDbEntity
  8
0
100
AcDbLine
 62
250
  6
CONTINUOUS
 10
10.8693255762
 20
-1.6999111428
 11
10.8653814858
 21
-1.3866209522
  0
LINE
  5
609
100
AcDbEntity
  8
CURVE
100
AcDbLine
 62
250
  6
CONTINUOUS
 10
10.896386639
 20
-1.2625
 11
10.8987863448
 21
-1.4916667104
  0
LINE
  5
60A
100
AcDbEntity
  8
0
100
AcDbLine
 62
250
  6
CONTINUOUS
 10
10.8613299049
 20
-2.8909437143
 11
10.8592254885
 21
-2.7118002244
  0
LINE
  5
60B
100
AcDbEntity
  8
0
100
AcDbLine
 62
250
  6
CONTINUOUS
 10
10.8432125002
 20
-5.0552241767
 11
10.8454283349
 21
-5.2611779305
  0
LINE
  5
60C
100
AcDbEntity
  8
0
100
AcDbLine
 62
250
  6
CONTINUOUS
 10
10.9543852401
 20
-13.1754150909
 11
10.9537356766
 21
-13.1153050763
  0
LINE
  5
60D
100
AcDbEntity
  8
0
100
AcDbLine
 62
250
  6
CONTINUOUS
 10
10.8445713642
 20
5.875622
 11
10.888293733
 21
0.93899
  0
LINE
  5
60E
100
AcDbEntity
  8
0
100
AcDbLine
 62
250
  6
CONTINUOUS
 10
10.8818400293
 20
4.5130663181
 11
10.8813376844
 21
4.5600269335
  0
LINE
  5
60F
100
AcDbEntity
  8
CURVE
100
AcDbLine
 62
250
  6
CONTINUOUS
 10
10.918139817
 20
-15.2714287043
 11
10.9173295267
 21
-15.1785712957
  0
LINE
  5
610
100
AcDbEntity
  8
CURVE
100
AcDbLine
 62
250
  6
CONTINUOUS
 10
10.918139817
 20
-13.6
 11
10.9173295267
 21
-13.5071429014
  0
LINE
  5
611
100
AcDbEntity
  8
CURVE
100
AcDbLine
 62
250
  6
CONTINUOUS
 10
10.9286735909
 20
-14.3428570986
 11
10.9254324299
 21
-13.9714287043
  0
LINE
  5
612
100
AcDbEntity
  8
CURVE
100
AcDbLine
 62
250
  6
CONTINUOUS
 10
10.920570688
 20
-12.5785714507
 11
10.9173295267
 21
-12.2071428239
  0
LINE
  5
613
100
AcDbEntity
  8
CURVE
100
AcDbLine
 62
250
  6
CONTINUOUS
 10
10.8982435673
 20
-9.7428570986
 11
10.8966229866
 21
-9.5571429014
  0
LINE
  5
614
100
AcDbEntity
  8
CURVE
100
AcDbLine
 62
250
  6
CONTINUOUS
 10
10.9173295267
 20
-11.371428588
 11
10.9189501074
 21
-11.5571428627
  0
LINE
  5
615
100
AcDbEntity
  8
0
100
AcDbLine
 62
250
  6
CONTINUOUS
 10
10.8045181615
 20
1.8095238686
 11
10.8061388656
 21
1.6238090515
  0
LINE
  5
616
100
AcDbEntity
  8
CURVE
100
AcDbLine
 62
250
  6
CONTINUOUS
 10
10.8966229866
 20
-8.5357141972
 11
10.8982435673
 21
-8.7214287043
  0
LINE
  5
617
100
AcDbEntity
  8
CURVE
100
AcDbLine
 62
250
  6
CONTINUOUS
 10
10.9270530104
 20
-12.0214285493
 11
10.9286735909
 21
-12.2071428239
  0
LINE
  5
618
100
AcDbEntity
  8
CURVE
100
AcDbLine
 62
250
  6
CONTINUOUS
 10
10.9055361797
 20
-9.2785712957
 11
10.9079670508
 21
-9.5571429014
  0
LINE
  5
619
100
AcDbEntity
  8
CURVE
100
AcDbLine
 62
250
  6
CONTINUOUS
 10
10.9286735909
 20
-11.2785714313
 11
10.9270530104
 21
-11.092857147
  0
LINE
  5
61A
100
AcDbEntity
  8
CURVE
100
AcDbLine
 62
250
  6
CONTINUOUS
 10
10.9031053093
 20
-8.2571429014
 11
10.9014847285
 21
-8.0714287043
  0
LINE
  5
61B
100
AcDbEntity
  8
0
100
AcDbLine
 62
250
  6
CONTINUOUS
 10
10.8142423857
 20
2.2738090515
 11
10.8158630896
 21
2.0880954742
  0
LINE
  5
61C
100
AcDbEntity
  8
CURVE
100
AcDbLine
 62
250
  6
CONTINUOUS
 10
10.8966229866
 20
-6.4928570986
 11
10.8982435673
 21
-6.6785714507
  0
LINE
  5
61D
100
AcDbEntity
  8
0
100
AcDbLine
 62
250
  6
CONTINUOUS
 10
10.8045181615
 20
4.6880954742
 11
10.8061388656
 21
4.5023806572
  0
LINE
  5
61E
100
AcDbEntity
  8
CURVE
100
AcDbLine
 62
250
  6
CONTINUOUS
 10
10.9079670508
 20
-6.4
 11
10.9063464703
 21
-6.2142857254
  0
LINE
  5
61F
100
AcDbEntity
  8
CURVE
100
AcDbLine
 62
250
  6
CONTINUOUS
 10
10.9173295267
 20
-4.4261903286
 11
10.9189501074
 21
-4.6119048357
  0
LINE
  5
620
100
AcDbEntity
  8
CURVE
100
AcDbLine
 62
250
  6
CONTINUOUS
 10
10.9230015588
 20
-4.33333323
 11
10.9246221393
 21
-4.5190477371
  0
LINE
  5
621
100
AcDbEntity
  8
CURVE
100
AcDbLine
 62
250
  6
CONTINUOUS
 10
10.8980072196
 20
-0.1
 11
10.896386639
 21
0.0857143521
  0
LINE
  5
622
100
AcDbEntity
  8
CURVE
100
AcDbLine
 62
250
  6
CONTINUOUS
 10
10.9071853154
 20
-0.6666666776
 11
10.9063854131
 21
-0.575
  0
LINE
  5
623
100
AcDbEntity
  8
0
100
AcDbLine
 62
250
  6
CONTINUOUS
 10
10.8061388656
 20
11.6214287043
 11
10.8045181615
 21
11.8071429014
  0
LINE
  5
624
100
AcDbEntity
  8
CURVE
100
AcDbLine
 62
250
  6
CONTINUOUS
 10
10.9286735909
 20
-1.95
 11
10.9270530104
 21
-1.7642856479
  0
LINE
  5
625
100
AcDbEntity
  8
CURVE
100
AcDbLine
 62
250
  6
CONTINUOUS
 10
10.9286735909
 20
-0.371428588
 11
10.9254324299
 21
0.0
  0
LINE
  5
626
100
AcDbEntity
  8
CURVE
100
AcDbLine
 62
250
  6
CONTINUOUS
 10
10.9173295267
 20
4.3833329201
 11
10.9189501074
 21
4.1976193428
  0
LINE
  5
627
100
AcDbEntity
  8
CURVE
100
AcDbLine
 62
250
  6
CONTINUOUS
 10
10.9230015588
 20
4.4761909485
 11
10.9246221393
 21
4.2904761314
  0
LINE
  5
628
100
AcDbEntity
  8
CURVE
100
AcDbLine
 62
250
  6
CONTINUOUS
 10
10.8996278003
 20
8.8095238686
 11
10.896386639
 21
9.1809522629
  0
LINE
  5
629
100
AcDbEntity
  8
CURVE
100
AcDbLine
 62
250
  6
CONTINUOUS
 10
10.9173295267
 20
7.4476193428
 11
10.9189501074
 21
7.2619045258
  0
LINE
  5
62A
100
AcDbEntity
  8
CURVE
100
AcDbLine
 62
250
  6
CONTINUOUS
 10
10.8980072196
 20
9.7380954742
 11
10.896386639
 21
9.9238096714
  0
LINE
  5
62B
100
AcDbEntity
  8
CURVE
100
AcDbLine
 62
250
  6
CONTINUOUS
 10
10.9061101226
 20
9.36666646
 11
10.9077307031
 21
9.1809522629
  0
LINE
  5
62C
100
AcDbEntity
  8
CURVE
100
AcDbLine
 62
250
  6
CONTINUOUS
 10
10.9052998321
 20
10.2023809671
 11
10.9077307031
 21
9.9238096714
  0
LINE
  5
62D
100
AcDbEntity
  8
CURVE
100
AcDbLine
 62
250
  6
CONTINUOUS
 10
10.9286735909
 20
7.5404761314
 11
10.9270530104
 21
7.7261903286
  0
LINE
  5
62E
100
AcDbEntity
  8
CURVE
100
AcDbLine
 62
250
  6
CONTINUOUS
 10
10.9077307031
 20
10.7595238686
 11
10.9044895421
 21
11.1309522629
  0
LINE
  5
62F
100
AcDbEntity
  8
CURVE
100
AcDbLine
 62
250
  6
CONTINUOUS
 10
10.9077307031
 20
13.05
 11
10.9061101226
 21
13.2357143521
  0
LINE
  5
630
100
AcDbEntity
  8
CURVE
100
AcDbLine
 62
250
  6
CONTINUOUS
 10
10.9286735909
 20
10.8523809671
 11
10.9270530104
 21
11.0380951643
  0
LINE
  5
631
100
AcDbEntity
  8
CURVE
100
AcDbLine
 62
250
  6
CONTINUOUS
 10
10.9221912685
 20
12.5238095164
 11
10.9238118494
 21
12.3380951643
  0
LINE
  5
632
100
AcDbEntity
  8
CURVE
100
AcDbLine
 62
250
  6
CONTINUOUS
 10
10.9173295267
 20
14.5357142746
 11
10.9189501074
 21
14.35
  0
LINE
  5
633
100
AcDbEntity
  8
0
100
AcDbLine
 62
250
  6
CONTINUOUS
 10
10.8629275725
 20
-2.3950182396
 11
10.8651239613
 21
-2.6170013213
  0
LINE
  5
634
100
AcDbEntity
  8
0
100
AcDbLine
 62
250
  6
CONTINUOUS
 10
10.8497756682
 20
2.4595472711
 11
10.85054233
 21
2.3713859804
  0
LINE
  5
635
100
AcDbEntity
  8
0
100
AcDbLine
 62
250
  6
CONTINUOUS
 10
10.8510627917
 20
2.5575429534
 11
10.8514019805
 21
2.5185383722
  0
LINE
  5
636
100
AcDbEntity
  8
0
100
AcDbLine
 62
250
  6
CONTINUOUS
 10
10.8531053902
 20
2.7130570466
 11
10.8527662014
 21
2.7520616278
  0
LINE
  5
637
100
AcDbEntity
  8
0
100
AcDbLine
 62
250
  6
CONTINUOUS
 10
10.8543925137
 20
2.8110527289
 11
10.8536258519
 21
2.8992140196
  0
LINE
  5
638
100
AcDbEntity
  8
0
100
AcDbLine
 62
250
  6
CONTINUOUS
 10
10.8798794012
 20
2.1035137487
 11
10.8803442909
 21
2.0500543489
  0
LINE
  5
639
100
AcDbEntity
  8
0
100
AcDbLine
 62
250
  6
CONTINUOUS
 10
10.8826789722
 20
2.3166602513
 11
10.8822140824
 21
2.3701196511
  0
LINE
  5
63A
100
AcDbEntity
  8
0
100
AcDbLine
 62
250
  6
CONTINUOUS
 10
10.9599542331
 20
-14.8259668006
 11
10.9605994931
 21
-14.9013799543
  0
LINE
  5
63B
100
AcDbEntity
  8
0
100
AcDbLine
 62
250
  6
CONTINUOUS
 10
10.9526995195
 20
-13.138485883
 11
10.9536002953
 21
-13.2434350557
  0
LINE
  5
63C
100
AcDbEntity
  8
CURVE
100
AcDbLine
 62
250
  6
CONTINUOUS
 10
10.9031053093
 20
-8.5357141972
 11
10.9039155992
 21
-8.6595238686
  0
LINE
  5
63D
100
AcDbEntity
  8
0
100
AcDbLine
 62
250
  6
CONTINUOUS
 10
10.9611008877
 20
-14.8027492315
 11
10.9604772683
 21
-14.725266924
  0
LINE
  5
63E
100
AcDbEntity
  8
0
100
AcDbLine
 62
250
  6
CONTINUOUS
 10
10.8744017662
 20
-2.3530330164
 11
10.8693255762
 21
-1.6999111428
  0
LINE
  5
63F
100
AcDbEntity
  8
0
100
AcDbLine
 62
250
  6
CONTINUOUS
 10
10.8651239613
 20
-2.6170013213
 11
10.8672812722
 21
-2.9327332799
  0
LINE
  5
640
100
AcDbEntity
  8
CURVE
100
AcDbLine
 62
250
  6
CONTINUOUS
 10
10.9246221393
 20
-15.2404761314
 11
10.9238118494
 21
-15.0857141972
  0
LINE
  5
641
100
AcDbEntity
  8
CURVE
100
AcDbLine
 62
250
  6
CONTINUOUS
 10
10.9246221393
 20
-13.5690475821
 11
10.9238118494
 21
-13.4142856479
  0
LINE
  5
642
100
AcDbEntity
  8
0
100
AcDbLine
 62
250
  6
CONTINUOUS
 10
10.8638989858
 20
-3.2588053351
 11
10.8613299049
 21
-2.8909437143
  0
LINE
  5
643
100
AcDbEntity
  8
CURVE
100
AcDbLine
 62
250
  6
CONTINUOUS
 10
10.9079852178
 20
-0.85
 11
10.9071853154
 21
-0.6666666776
  0
LINE
  5
644
100
AcDbEntity
  8
CURVE
100
AcDbLine
 62
250
  6
CONTINUOUS
 10
10.9254324299
 20
5.5904761314
 11
10.9246221393
 21
5.7761903286
  0
LINE
  5
645
100
AcDbEntity
  8
0
100
AcDbLine
 62
250
  6
CONTINUOUS
 10
10.8406120196
 20
-4.624795716
 11
10.8432125002
 21
-5.0552241767
  0
LINE
  5
646
100
AcDbEntity
  8
0
100
AcDbLine
 62
250
  6
CONTINUOUS
 10
10.8830276806
 20
4.3024537617
 11
10.8818400293
 21
4.5130663181
  0
LINE
  5
647
100
AcDbEntity
  8
0
100
AcDbLine
 62
250
  6
CONTINUOUS
 10
10.9537356766
 20
-13.1153050763
 11
10.952881829
 21
-12.9683760666
  0
LINE
  5
648
100
AcDbEntity
  8
0
100
AcDbLine
 62
250
  6
CONTINUOUS
 10
10.8672812722
 20
-2.9327332799
 11
10.8689354701
 21
-3.3206987649
  0
LINE
  5
649
100
AcDbEntity
  8
0
100
AcDbLine
 62
250
  6
CONTINUOUS
 10
10.8780808389
 20
-3.3529756902
 11
10.8744017662
 21
-2.3530330164
  0
LINE
  5
64A
100
AcDbEntity
  8
CURVE
100
AcDbLine
 62
250
  6
CONTINUOUS
 10
10.9083851684
 20
-1.0333333552
 11
10.9079852178
 21
-0.85
  0
LINE
  5
64B
100
AcDbEntity
  8
0
100
AcDbLine
 62
250
  6
CONTINUOUS
 10
10.951784293
 20
-12.891065285
 11
10.9526995195
 21
-13.138485883
  0
LINE
  5
64C
100
AcDbEntity
  8
0
100
AcDbLine
 62
250
  6
CONTINUOUS
 10
10.9591493978
 20
-14.6086612621
 11
10.9599542331
 21
-14.8259668006
  0
LINE
  5
64D
100
AcDbEntity
  8
0
100
AcDbLine
 62
250
  6
CONTINUOUS
 10
10.8689354701
 20
-3.3206987649
 11
10.8697878501
 21
-3.7129378143
  0
LINE
  5
64E
100
AcDbEntity
  8
0
100
AcDbLine
 62
250
  6
CONTINUOUS
 10
10.9604772683
 20
-14.725266924
 11
10.9599009786
 21
-14.5503155653
  0
LINE
  5
64F
100
AcDbEntity
  8
0
100
AcDbLine
 62
250
  6
CONTINUOUS
 10
10.8493126131
 20
2.6353
 11
10.8497756682
 21
2.4595472711
  0
LINE
  5
650
100
AcDbEntity
  8
0
100
AcDbLine
 62
250
  6
CONTINUOUS
 10
10.8508579254
 20
2.6353
 11
10.8510627917
 21
2.5575429534
  0
LINE
  5
651
100
AcDbEntity
  8
0
100
AcDbLine
 62
250
  6
CONTINUOUS
 10
10.8533102565
 20
2.6353
 11
10.8531053902
 21
2.7130570466
  0
LINE
  5
652
100
AcDbEntity
  8
0
100
AcDbLine
 62
250
  6
CONTINUOUS
 10
10.8548555688
 20
2.6353
 11
10.8543925137
 21
2.8110527289
  0
LINE
  5
653
100
AcDbEntity
  8
0
100
AcDbLine
 62
250
  6
CONTINUOUS
 10
10.879598613
 20
2.210087
 11
10.8798794012
 21
2.1035137487
  0
LINE
  5
654
100
AcDbEntity
  8
0
100
AcDbLine
 62
250
  6
CONTINUOUS
 10
10.8829597604
 20
2.210087
 11
10.8826789722
 21
2.3166602513
  0
LINE
  5
655
100
AcDbEntity
  8
0
100
AcDbLine
 62
250
  6
CONTINUOUS
 10
10.8655847229
 20
-3.9136301953
 11
10.8638989858
 21
-3.2588053351
  0
LINE
  5
656
100
AcDbEntity
  8
0
100
AcDbLine
 62
250
  6
CONTINUOUS
 10
10.8841670969
 20
3.6569273296
 11
10.8830276806
 21
4.3024537617
  0
LINE
  5
657
100
AcDbEntity
  8
0
100
AcDbLine
 62
250
  6
CONTINUOUS
 10
10.8786965377
 20
-3.9999999992
 11
10.8780808389
 21
-3.3529756902
  0
LINE
  5
658
100
AcDbEntity
  8
0
100
AcDbLine
 62
250
  6
CONTINUOUS
 10
10.952881829
 20
-12.9683760666
 11
10.9524555417
 21
-12.7037057928
  0
LINE
  5
659
100
AcDbEntity
  8
RACCORDO
100
AcDbLine
 62
250
  6
CONTINUOUS
 10
10.7686618482
 20
-15.1687951175
 11
10.7686618482
 21
15.1687951175
  0
LINE
  5
65A
100
AcDbEntity
  8
ASSI
100
AcDbLine
 62
250
  6
CONTINUOUS
 10
10.7686618482
 20
-15.1687951175
 11
10.7686618482
 21
15.1687951175
  0
LINE
  5
65B
100
AcDbEntity
  8
0
100
AcDbLine
 62
250
  6
CONTINUOUS
 10
10.8045181615
 20
4.96666646
 11
10.8045181615
 21
4.6880954742
  0
LINE
  5
65C
100
AcDbEntity
  8
0
100
AcDbLine
 62
250
  6
CONTINUOUS
 10
10.8045181615
 20
2.1809522629
 11
10.8045181615
 21
1.8095238686
  0
LINE
  5
65D
100
AcDbEntity
  8
0
100
AcDbLine
 62
250
  6
CONTINUOUS
 10
10.8045181615
 20
10.5380951643
 11
10.8045181615
 21
11.0952380657
  0
LINE
  5
65E
100
AcDbEntity
  8
0
100
AcDbLine
 62
250
  6
CONTINUOUS
 10
10.8045181615
 20
11.8071429014
 11
10.8045181615
 21
12.2714285493
  0
LINE
  5
65F
100
AcDbEntity
  8
0
100
AcDbLine
 62
250
  6
CONTINUOUS
 10
10.8077595697
 20
13.2619047582
 11
10.8077595697
 21
12.766666615
  0
LINE
  5
660
100
AcDbEntity
  8
0
100
AcDbLine
 62
250
  6
CONTINUOUS
 10
10.8077595697
 20
0.2928567886
 11
10.8077595697
 21
-0.2023806572
  0
LINE
  5
661
100
AcDbEntity
  8
0
100
AcDbLine
 62
250
  6
CONTINUOUS
 10
10.8110009778
 20
10.7238096714
 11
10.8110009778
 21
11.0952380657
  0
LINE
  5
662
100
AcDbEntity
  8
0
100
AcDbLine
 62
250
  6
CONTINUOUS
 10
10.8158630896
 20
12.2714285493
 11
10.8158630896
 21
11.8071429014
  0
LINE
  5
663
100
AcDbEntity
  8
0
100
AcDbLine
 62
250
  6
CONTINUOUS
 10
10.8158630896
 20
11.0952380657
 11
10.8158630896
 21
10.5380951643
  0
LINE
  5
664
100
AcDbEntity
  8
0
100
AcDbLine
 62
250
  6
CONTINUOUS
 10
10.8158630896
 20
6.26666646
 11
10.8158630896
 21
5.5238096714
  0
LINE
  5
665
100
AcDbEntity
  8
0
100
AcDbLine
 62
250
  6
CONTINUOUS
 10
10.8158630896
 20
2.0880954742
 11
10.8158630896
 21
1.7166670799
  0
LINE
  5
666
100
AcDbEntity
  8
0
100
AcDbLine
 62
250
  6
CONTINUOUS
 10
10.826335331
 20
-1.0
 11
10.826335331
 21
-1.999999282
  0
LINE
  5
667
100
AcDbEntity
  8
0
100
AcDbLine
 62
250
  6
CONTINUOUS
 10
10.826335331
 20
1.407638
 11
10.826335331
 21
5.592362
  0
LINE
  5
668
100
AcDbEntity
  8
0
100
AcDbLine
 62
250
  6
CONTINUOUS
 10
10.8352277754
 20
5.592362
 11
10.8352277754
 21
1.407638
  0
LINE
  5
669
100
AcDbEntity
  8
0
100
AcDbLine
 62
250
  6
CONTINUOUS
 10
10.8448144959
 20
7.93959
 11
10.8448144959
 21
9.428126
  0
LINE
  5
66A
100
AcDbEntity
  8
0
100
AcDbLine
 62
250
  6
CONTINUOUS
 10
10.8493126131
 20
4.100497
 11
10.8493126131
 21
4.218117
  0
LINE
  5
66B
100
AcDbEntity
  8
0
100
AcDbLine
 62
250
  6
CONTINUOUS
 10
10.8510269235
 20
4.274826
 11
10.8510269235
 21
2.928959
  0
LINE
  5
66C
100
AcDbEntity
  8
0
100
AcDbLine
 62
250
  6
CONTINUOUS
 10
10.8514902956
 20
7.93959
 11
10.8514902956
 21
9.428126
  0
LINE
  5
66D
100
AcDbEntity
  8
0
100
AcDbLine
 62
250
  6
CONTINUOUS
 10
10.8697878501
 20
-3.7129378143
 11
10.8699696762
 21
-3.9999999992
  0
LWPOLYLINE
  5
66E
100
AcDbEntity
  8
0
100
AcDbPolyline
 62
250
  6
CONTINUOUS
 90
18
 70
0
 10
10.8702935187
 20
11.76459
 10
10.8703040676
 20
12.2622613275
 10
10.8694708663
 20
12.7506893796
 10
10.867825651
 20
13.2112700834
 10
10.865382035
 20
13.6333618239
 10
10.8623185673
 20
13.9861233712
 10
10.8587155145
 20
14.2639802734
 10
10.8546358491
 20
14.4589573178
 10
10.8503776623
 20
14.556808
 10
10.8460347158
 20
14.5580168369
 10
10.8416980546
 20
14.4599708879
 10
10.8376845481
 20
14.2698341351
 10
10.8340697586
 20
13.9939862824
 10
10.8309420278
 20
13.6360599162
 10
10.8285298915
 20
13.2222078567
 10
10.8268651702
 20
12.7625484567
 10
10.82600364
 20
12.2657319029
 10
10.8260112729
 20
11.7645899106
  0
LWPOLYLINE
  5
66F
100
AcDbEntity
  8
0
100
AcDbPolyline
 62
250
  6
CONTINUOUS
 90
18
 70
0
 10
10.8702935187
 20
7.42959
 10
10.8703040676
 20
7.9272613275
 10
10.8694708663
 20
8.4156893796
 10
10.867825651
 20
8.8762700834
 10
10.865382035
 20
9.2983618239
 10
10.8623185673
 20
9.6511233712
 10
10.8587155145
 20
9.9289802734
 10
10.8546358491
 20
10.1239573178
 10
10.8503776623
 20
10.221808
 10
10.8460347158
 20
10.2230168369
 10
10.8416980546
 20
10.1249708879
 10
10.8376845481
 20
9.9348341351
 10
10.8340697586
 20
9.6589862824
 10
10.8309420278
 20
9.3010599162
 10
10.8285298915
 20
8.8872078567
 10
10.8268651702
 20
8.4275484567
 10
10.82600364
 20
7.9307319029
 10
10.8260112729
 20
7.4295899106
  0
LINE
  5
670
100
AcDbEntity
  8
0
100
AcDbLine
 62
250
  6
CONTINUOUS
 10
10.8712619704
 20
2.88859
 11
10.8712619704
 21
3.71193
  0
LINE
  5
671
100
AcDbEntity
  8
0
100
AcDbLine
 62
250
  6
CONTINUOUS
 10
10.8731437256
 20
3.71193
 11
10.8731437256
 21
2.88859
  0
LINE
  5
672
100
AcDbEntity
  8
0
100
AcDbLine
 62
250
  6
CONTINUOUS
 10
10.8739501971
 20
2.082053
 11
10.8739501971
 21
2.432113
  0
LINE
  5
673
100
AcDbEntity
  8
0
100
AcDbLine
 62
250
  6
CONTINUOUS
 10
10.8772005174
 20
2.432113
 11
10.8772005174
 21
2.082053
  0
LINE
  5
674
100
AcDbEntity
  8
0
100
AcDbLine
 62
250
  6
CONTINUOUS
 10
10.8803674644
 20
4.809973
 11
10.8803674644
 21
2.372066
  0
LINE
  5
675
100
AcDbEntity
  8
0
100
AcDbLine
 62
250
  6
CONTINUOUS
 10
10.8827196148
 20
3.083924
 11
10.8827244842
 21
3.656927
  0
LINE
  5
676
100
AcDbEntity
  8
0
100
AcDbLine
 62
250
  6
CONTINUOUS
 10
10.8846224533
 20
3.656927
 11
10.8846175839
 21
3.083924
  0
LINE
  5
677
100
AcDbEntity
  8
CURVE
100
AcDbLine
 62
250
  6
CONTINUOUS
 10
10.896386639
 20
13.05
 11
10.896386639
 21
12.6785714507
  0
LINE
  5
678
100
AcDbEntity
  8
CURVE
100
AcDbLine
 62
250
  6
CONTINUOUS
 10
10.896386639
 20
7.41666646
 11
10.896386639
 21
6.76666646
  0
LINE
  5
679
100
AcDbEntity
  8
CURVE
100
AcDbLine
 62
250
  6
CONTINUOUS
 10
10.896386639
 20
-1.7666667104
 11
10.896386639
 21
-1.2625
  0
LINE
  5
67A
100
AcDbEntity
  8
CURVE
100
AcDbLine
 62
250
  6
CONTINUOUS
 10
10.896386639
 20
-0.8041666776
 11
10.896386639
 21
-0.3
  0
LINE
  5
67B
100
AcDbEntity
  8
CURVE
100
AcDbLine
 62
250
  6
CONTINUOUS
 10
10.896386639
 20
0.0857143521
 11
10.896386639
 21
0.4571429014
  0
LINE
  5
67C
100
AcDbEntity
  8
CURVE
100
AcDbLine
 62
250
  6
CONTINUOUS
 10
10.896386639
 20
1.85
 11
10.896386639
 21
2.5
  0
LINE
  5
67D
100
AcDbEntity
  8
CURVE
100
AcDbLine
 62
250
  6
CONTINUOUS
 10
10.896386639
 20
9.9238096714
 11
10.896386639
 21
10.2023809671
  0
LINE
  5
67E
100
AcDbEntity
  8
CURVE
100
AcDbLine
 62
250
  6
CONTINUOUS
 10
10.896386639
 20
13.6071429014
 11
10.896386639
 21
14.1642857254
  0
LINE
  5
67F
100
AcDbEntity
  8
CURVE
100
AcDbLine
 62
250
  6
CONTINUOUS
 10
10.8966229866
 20
-6.4
 11
10.8966229866
 21
-6.4928570986
  0
LINE
  5
680
100
AcDbEntity
  8
CURVE
100
AcDbLine
 62
250
  6
CONTINUOUS
 10
10.8966229866
 20
-8.2571429014
 11
10.8966229866
 21
-8.5357141972
  0
LINE
  5
681
100
AcDbEntity
  8
CURVE
100
AcDbLine
 62
250
  6
CONTINUOUS
 10
10.8966229866
 20
-10.1142858028
 11
10.8966229866
 21
-10.7642858028
  0
LINE
  5
682
100
AcDbEntity
  8
CURVE
100
AcDbLine
 62
250
  6
CONTINUOUS
 10
10.8966229866
 20
-14.85
 11
10.8966229866
 21
-14.2928574085
  0
LINE
  5
683
100
AcDbEntity
  8
CURVE
100
AcDbLine
 62
250
  6
CONTINUOUS
 10
10.8966229866
 20
-9.5571429014
 11
10.8966229866
 21
-9.2785712957
  0
LINE
  5
684
100
AcDbEntity
  8
CURVE
100
AcDbLine
 62
250
  6
CONTINUOUS
 10
10.8990538576
 20
-5.1
 11
10.8990538576
 21
-5.75
  0
LINE
  5
685
100
AcDbEntity
  8
CURVE
100
AcDbLine
 62
250
  6
CONTINUOUS
 10
10.9004380906
 20
7.7880954742
 11
10.9004380906
 21
8.3452380657
  0
LINE
  5
686
100
AcDbEntity
  8
CURVE
100
AcDbLine
 62
250
  6
CONTINUOUS
 10
10.9006744382
 20
-7.7
 11
10.9006744382
 21
-7.1428570986
  0
LINE
  5
687
100
AcDbEntity
  8
CURVE
100
AcDbLine
 62
250
  6
CONTINUOUS
 10
10.9012483808
 20
8.7785716057
 11
10.9012483808
 21
9.1809522629
  0
LINE
  5
688
100
AcDbEntity
  8
CURVE
100
AcDbLine
 62
250
  6
CONTINUOUS
 10
10.9028689616
 20
14.1642857254
 11
10.9028689616
 21
13.7928571761
  0
LINE
  5
689
100
AcDbEntity
  8
CURVE
100
AcDbLine
 62
250
  6
CONTINUOUS
 10
10.9028689616
 20
10.3261903286
 11
10.9028689616
 21
9.9238096714
  0
LINE
  5
68A
100
AcDbEntity
  8
CURVE
100
AcDbLine
 62
250
  6
CONTINUOUS
 10
10.9028689616
 20
0.4571429014
 11
10.9028689616
 21
0.0857143521
  0
LINE
  5
68B
100
AcDbEntity
  8
CURVE
100
AcDbLine
 62
250
  6
CONTINUOUS
 10
10.9031053093
 20
-9.1547619343
 11
10.9031053093
 21
-9.5571429014
  0
LINE
  5
68C
100
AcDbEntity
  8
CURVE
100
AcDbLine
 62
250
  6
CONTINUOUS
 10
10.9031053093
 20
-13.9214283943
 11
10.9031053093
 21
-13.2714283943
  0
LINE
  5
68D
100
AcDbEntity
  8
CURVE
100
AcDbLine
 62
250
  6
CONTINUOUS
 10
10.9031053093
 20
-8.5357141972
 11
10.9031053093
 21
-8.2571429014
  0
LINE
  5
68E
100
AcDbEntity
  8
CURVE
100
AcDbLine
 62
250
  6
CONTINUOUS
 10
10.9047258898
 20
-14.85
 11
10.9047258898
 21
-14.2928574085
  0
LINE
  5
68F
100
AcDbEntity
  8
CURVE
100
AcDbLine
 62
250
  6
CONTINUOUS
 10
10.9077307031
 20
9.1809522629
 11
10.9077307031
 21
8.9023806572
  0
LINE
  5
690
100
AcDbEntity
  8
CURVE
100
AcDbLine
 62
250
  6
CONTINUOUS
 10
10.9077307031
 20
7.2309522629
 11
10.9077307031
 21
6.9523806572
  0
LINE
  5
691
100
AcDbEntity
  8
CURVE
100
AcDbLine
 62
250
  6
CONTINUOUS
 10
10.9077307031
 20
-0.1
 11
10.9077307031
 21
0.4571429014
  0
LINE
  5
692
100
AcDbEntity
  8
CURVE
100
AcDbLine
 62
250
  6
CONTINUOUS
 10
10.9077307031
 20
0.8285714507
 11
10.9077307031
 21
1.4785714507
  0
LINE
  5
693
100
AcDbEntity
  8
CURVE
100
AcDbLine
 62
250
  6
CONTINUOUS
 10
10.9077307031
 20
1.85
 11
10.9077307031
 21
2.5
  0
LINE
  5
694
100
AcDbEntity
  8
CURVE
100
AcDbLine
 62
250
  6
CONTINUOUS
 10
10.9077307031
 20
12.6785714507
 11
10.9077307031
 21
13.05
  0
LINE
  5
695
100
AcDbEntity
  8
CURVE
100
AcDbLine
 62
250
  6
CONTINUOUS
 10
10.9077307031
 20
13.6071429014
 11
10.9077307031
 21
14.1642857254
  0
LINE
  5
696
100
AcDbEntity
  8
CURVE
100
AcDbLine
 62
250
  6
CONTINUOUS
 10
10.9079670508
 20
-10.3
 11
10.9079670508
 21
-10.5785716057
  0
LINE
  5
697
100
AcDbEntity
  8
CURVE
100
AcDbLine
 62
250
  6
CONTINUOUS
 10
10.9079670508
 20
-8.5357141972
 11
10.9079670508
 21
-8.2571429014
  0
LINE
  5
698
100
AcDbEntity
  8
CURVE
100
AcDbLine
 62
250
  6
CONTINUOUS
 10
10.9079670508
 20
-6.4928570986
 11
10.9079670508
 21
-6.4
  0
LINE
  5
699
100
AcDbEntity
  8
CURVE
100
AcDbLine
 62
250
  6
CONTINUOUS
 10
10.9173295267
 20
15.0
 11
10.9173295267
 21
14.5357142746
  0
LINE
  5
69A
100
AcDbEntity
  8
CURVE
100
AcDbLine
 62
250
  6
CONTINUOUS
 10
10.9173295267
 20
10.8523809671
 11
10.9173295267
 21
10.4809522629
  0
LINE
  5
69B
100
AcDbEntity
  8
CURVE
100
AcDbLine
 62
250
  6
CONTINUOUS
 10
10.9173295267
 20
7.5404761314
 11
10.9173295267
 21
7.4476193428
  0
LINE
  5
69C
100
AcDbEntity
  8
CURVE
100
AcDbLine
 62
250
  6
CONTINUOUS
 10
10.9173295267
 20
5.5904761314
 11
10.9173295267
 21
5.2190477371
  0
LINE
  5
69D
100
AcDbEntity
  8
CURVE
100
AcDbLine
 62
250
  6
CONTINUOUS
 10
10.9173295267
 20
4.8476193428
 11
10.9173295267
 21
4.3833329201
  0
LINE
  5
69E
100
AcDbEntity
  8
CURVE
100
AcDbLine
 62
250
  6
CONTINUOUS
 10
10.9173295267
 20
-1.95
 11
10.9173295267
 21
-2.3214285493
  0
LINE
  5
69F
100
AcDbEntity
  8
CURVE
100
AcDbLine
 62
250
  6
CONTINUOUS
 10
10.9173295267
 20
-3.9619048357
 11
10.9173295267
 21
-4.4261903286
  0
LINE
  5
6A0
100
AcDbEntity
  8
CURVE
100
AcDbLine
 62
250
  6
CONTINUOUS
 10
10.9173295267
 20
-11.2785714313
 11
10.9173295267
 21
-11.371428588
  0
LINE
  5
6A1
100
AcDbEntity
  8
CURVE
100
AcDbLine
 62
250
  6
CONTINUOUS
 10
10.9173295267
 20
-15.1785712957
 11
10.9173295267
 21
-14.7142858028
  0
LINE
  5
6A2
100
AcDbEntity
  8
CURVE
100
AcDbLine
 62
250
  6
CONTINUOUS
 10
10.9173295267
 20
-13.5071429014
 11
10.9173295267
 21
-13.0428570986
  0
LINE
  5
6A3
100
AcDbEntity
  8
CURVE
100
AcDbLine
 62
250
  6
CONTINUOUS
 10
10.9173295267
 20
-6.3761903286
 11
10.9173295267
 21
-5.8190477371
  0
LINE
  5
6A4
100
AcDbEntity
  8
CURVE
100
AcDbLine
 62
250
  6
CONTINUOUS
 10
10.9173295267
 20
-5.4476193428
 11
10.9173295267
 21
-4.98333323
  0
LINE
  5
6A5
100
AcDbEntity
  8
CURVE
100
AcDbLine
 62
250
  6
CONTINUOUS
 10
10.9173295267
 20
11.4095238686
 11
10.9173295267
 21
11.96666677
  0
LINE
  5
6A6
100
AcDbEntity
  8
CURVE
100
AcDbLine
 62
250
  6
CONTINUOUS
 10
10.920570688
 20
-3.46666677
 11
10.920570688
 21
-2.9714287043
  0
LINE
  5
6A7
100
AcDbEntity
  8
CURVE
100
AcDbLine
 62
250
  6
CONTINUOUS
 10
10.9221912685
 20
12.9880951643
 11
10.9221912685
 21
12.5238095164
  0
LINE
  5
6A8
100
AcDbEntity
  8
CURVE
100
AcDbLine
 62
250
  6
CONTINUOUS
 10
10.9221912685
 20
-12.6095238686
 11
10.9221912685
 21
-12.2071428239
  0
LINE
  5
6A9
100
AcDbEntity
  8
CURVE
100
AcDbLine
 62
250
  6
CONTINUOUS
 10
10.9230015588
 20
-4.4261903286
 11
10.9230015588
 21
-3.9619048357
  0
LINE
  5
6AA
100
AcDbEntity
  8
CURVE
100
AcDbLine
 62
250
  6
CONTINUOUS
 10
10.9230015588
 20
4.3833329201
 11
10.9230015588
 21
4.8476193428
  0
LINE
  5
6AB
100
AcDbEntity
  8
CURVE
100
AcDbLine
 62
250
  6
CONTINUOUS
 10
10.9238118494
 20
11.96666677
 11
10.9238118494
 21
11.5952380657
  0
LINE
  5
6AC
100
AcDbEntity
  8
CURVE
100
AcDbLine
 62
250
  6
CONTINUOUS
 10
10.9238118494
 20
-5.8190477371
 11
10.9238118494
 21
-6.1904761314
  0
LINE
  5
6AD
100
AcDbEntity
  8
CURVE
100
AcDbLine
 62
250
  6
CONTINUOUS
 10
10.9238118494
 20
-13.2285714507
 11
10.9238118494
 21
-13.4142856479
  0
LINE
  5
6AE
100
AcDbEntity
  8
CURVE
100
AcDbLine
 62
250
  6
CONTINUOUS
 10
10.9238118494
 20
-14.9
 11
10.9238118494
 21
-15.0857141972
  0
LINE
  5
6AF
100
AcDbEntity
  8
CURVE
100
AcDbLine
 62
250
  6
CONTINUOUS
 10
10.9254324299
 20
5.2190477371
 11
10.9254324299
 21
5.5904761314
  0
LINE
  5
6B0
100
AcDbEntity
  8
CURVE
100
AcDbLine
 62
250
  6
CONTINUOUS
 10
10.9286735909
 20
-12.2071428239
 11
10.9286735909
 21
-12.4857143521
  0
LINE
  5
6B1
100
AcDbEntity
  8
CURVE
100
AcDbLine
 62
250
  6
CONTINUOUS
 10
10.9286735909
 20
-13.0428570986
 11
10.9286735909
 21
-13.4142856479
  0
LINE
  5
6B2
100
AcDbEntity
  8
CURVE
100
AcDbLine
 62
250
  6
CONTINUOUS
 10
10.9286735909
 20
-14.7142858028
 11
10.9286735909
 21
-15.0857141972
  0
LINE
  5
6B3
100
AcDbEntity
  8
CURVE
100
AcDbLine
 62
250
  6
CONTINUOUS
 10
10.9286735909
 20
-11.371428588
 11
10.9286735909
 21
-11.2785714313
  0
LINE
  5
6B4
100
AcDbEntity
  8
CURVE
100
AcDbLine
 62
250
  6
CONTINUOUS
 10
10.9286735909
 20
-6.3761903286
 11
10.9286735909
 21
-5.8190477371
  0
LINE
  5
6B5
100
AcDbEntity
  8
CURVE
100
AcDbLine
 62
250
  6
CONTINUOUS
 10
10.9286735909
 20
-2.3214285493
 11
10.9286735909
 21
-1.95
  0
LINE
  5
6B6
100
AcDbEntity
  8
CURVE
100
AcDbLine
 62
250
  6
CONTINUOUS
 10
10.9286735909
 20
7.4476193428
 11
10.9286735909
 21
7.5404761314
  0
LINE
  5
6B7
100
AcDbEntity
  8
CURVE
100
AcDbLine
 62
250
  6
CONTINUOUS
 10
10.9286735909
 20
9.2119045258
 11
10.9286735909
 21
9.9547619343
  0
LINE
  5
6B8
100
AcDbEntity
  8
CURVE
100
AcDbLine
 62
250
  6
CONTINUOUS
 10
10.9286735909
 20
10.4809522629
 11
10.9286735909
 21
10.8523809671
  0
LINE
  5
6B9
100
AcDbEntity
  8
CURVE
100
AcDbLine
 62
250
  6
CONTINUOUS
 10
10.9286735909
 20
11.4095238686
 11
10.9286735909
 21
11.96666677
  0
LINE
  5
6BA
100
AcDbEntity
  8
CURVE
100
AcDbLine
 62
250
  6
CONTINUOUS
 10
10.9286735909
 20
12.5238095164
 11
10.9286735909
 21
12.9880951643
  0
LINE
  5
6BB
100
AcDbEntity
  8
CURVE
100
AcDbLine
 62
250
  6
CONTINUOUS
 10
10.9286735909
 20
14.5357142746
 11
10.9286735909
 21
15.0
  0
LINE
  5
6BC
100
AcDbEntity
  8
0
100
AcDbLine
 62
250
  6
CONTINUOUS
 10
10.9519917471
 20
-13.8167794885
 11
10.9519917471
 21
-13.7055897345
  0
LINE
  5
6BD
100
AcDbEntity
  8
0
100
AcDbLine
 62
250
  6
CONTINUOUS
 10
10.9520058311
 20
-11.392007
 11
10.9520058311
 21
-10.14156
  0
LINE
  5
6BE
100
AcDbEntity
  8
0
100
AcDbLine
 62
250
  6
CONTINUOUS
 10
10.9520057874
 20
-9.196167
 11
10.9520057874
 21
-8.923912
  0
LINE
  5
6BF
100
AcDbEntity
  8
0
100
AcDbLine
 62
250
  6
CONTINUOUS
 10
10.9520058311
 20
-8.084446
 11
10.9520058311
 21
-6.834015
  0
LINE
  5
6C0
100
AcDbEntity
  8
0
100
AcDbLine
 62
250
  6
CONTINUOUS
 10
10.9520058311
 20
-6.332387
 11
10.9520058311
 21
-6.070199
  0
LINE
  5
6C1
100
AcDbEntity
  8
0
100
AcDbLine
 62
250
  6
CONTINUOUS
 10
10.9520058311
 20
-5.124786
 11
10.9520058311
 21
-4.897904
  0
LINE
  5
6C2
100
AcDbEntity
  8
0
100
AcDbLine
 62
250
  6
CONTINUOUS
 10
10.953765723
 20
-7.073526
 11
10.953765723
 21
-8.084446
  0
LINE
  5
6C3
100
AcDbEntity
  8
0
100
AcDbLine
 62
250
  6
CONTINUOUS
 10
10.953765723
 20
-10.381053
 11
10.953765723
 21
-11.392007
  0
LINE
  5
6C4
100
AcDbEntity
  8
0
100
AcDbLine
 62
250
  6
CONTINUOUS
 10
10.9590000508
 20
-14.4330104165
 11
10.9591493978
 21
-14.6086612621
  0
LINE
  5
6C5
100
AcDbEntity
  8
0
100
AcDbLine
 62
250
  6
CONTINUOUS
 10
10.9599009786
 20
-14.5503155653
 11
10.9598376342
 21
-14.4506711726
  0
LINE
  5
6C6
100
AcDbEntity
  8
0
100
AcDbLine
 62
250
  6
CONTINUOUS
 10
10.9590000508
 20
-14.4330104165
 11
10.9590000508
 21
-13.8167794885
  0
LINE
  5
6C7
100
AcDbEntity
  8
0
100
AcDbLine
 62
250
  6
CONTINUOUS
 10
10.9591993727
 20
-11.316398
 11
10.9591993727
 21
-10.381053
  0
LINE
  5
6C8
100
AcDbEntity
  8
0
100
AcDbLine
 62
250
  6
CONTINUOUS
 10
10.9591993727
 20
-8.008818
 11
10.9591993727
 21
-7.073526
  0
LINE
  5
6C9
100
AcDbEntity
  8
0
100
AcDbLine
 62
250
  6
CONTINUOUS
 10
10.9598376342
 20
-13.8167794885
 11
10.9598376342
 21
-14.4506711726
  0
LINE
  5
6CA
100
AcDbEntity
  8
0
100
AcDbLine
 62
250
  6
CONTINUOUS
 10
10.960959413
 20
-7.073526
 11
10.960959413
 21
-8.008818
  0
LINE
  5
6CB
100
AcDbEntity
  8
0
100
AcDbLine
 62
250
  6
CONTINUOUS
 10
10.960959413
 20
-10.381053
 11
10.960959413
 21
-11.316398
  0
LINE
  5
6CC
100
AcDbEntity
  8
0
100
AcDbLine
 62
250
  6
CONTINUOUS
 10
10.9659532009
 20
-11.384415
 11
10.9659532009
 21
-10.381053
  0
LINE
  5
6CD
100
AcDbEntity
  8
0
100
AcDbLine
 62
250
  6
CONTINUOUS
 10
10.9659532009
 20
-8.076887
 11
10.9659532009
 21
-7.073526
  0
LINE
  5
6CE
100
AcDbEntity
  8
0
100
AcDbLine
 62
250
  6
CONTINUOUS
 10
10.9677130929
 20
-4.897904
 11
10.9677130929
 21
-5.152533
  0
LINE
  5
6CF
100
AcDbEntity
  8
0
100
AcDbLine
 62
250
  6
CONTINUOUS
 10
10.9677130929
 20
-6.105488
 11
10.9677130929
 21
-6.332387
  0
LINE
  5
6D0
100
AcDbEntity
  8
0
100
AcDbLine
 62
250
  6
CONTINUOUS
 10
10.9677130929
 20
-6.834015
 11
10.9677130929
 21
-8.076887
  0
LINE
  5
6D1
100
AcDbEntity
  8
0
100
AcDbLine
 62
250
  6
CONTINUOUS
 10
10.9677130492
 20
-8.28862
 11
10.9677130492
 21
-8.548249
  0
LINE
  5
6D2
100
AcDbEntity
  8
0
100
AcDbLine
 62
250
  6
CONTINUOUS
 10
10.9677130492
 20
-9.586932
 11
10.9677130492
 21
-9.836527
  0
LINE
  5
6D3
100
AcDbEntity
  8
0
100
AcDbLine
 62
250
  6
CONTINUOUS
 10
10.9677130929
 20
-10.14156
 11
10.9677130929
 21
-11.384415
  0
LINE
  5
6D4
100
AcDbEntity
  8
0
100
AcDbLine
 62
250
  6
CONTINUOUS
 10
10.9677277861
 20
-12.0085272007
 11
10.9677277861
 21
-12.1196482155
  0
LINE
  5
6D5
100
AcDbEntity
  8
0
100
AcDbLine
 62
250
  6
CONTINUOUS
 10
10.9677277861
 20
-13.2763980551
 11
10.9677277861
 21
-13.3875180284
  0
LINE
  5
6D6
100
AcDbEntity
  8
RACCORDO
100
AcDbLine
 62
7
  6
CONTINUOUS
 10
11.0
 20
15.4001332693
 11
11.0
 21
-15.4001332693
  0
LINE
  5
6D7
100
AcDbEntity
  8
ASSI
100
AcDbLine
 62
7
  6
CONTINUOUS
 10
11.0
 20
15.4001332693
 11
11.0
 21
-15.4001332693
  0
LINE
  5
6D8
100
AcDbEntity
  8
RACCORDO
100
AcDbLine
 62
7
  6
CONTINUOUS
 10
11.15
 20
21.8997711479
 11
11.15
 21
16.6331235486
  0
LINE
  5
6D9
100
AcDbEntity
  8
RACCORDO
100
AcDbLine
 62
7
  6
CONTINUOUS
 10
11.15
 20
-16.6331235461
 11
11.15
 21
-21.8997711479
  0
LINE
  5
6DA
100
AcDbEntity
  8
RACCORDO
100
AcDbLine
 62
7
  6
CONTINUOUS
 10
11.1761825974
 20
-16.4071689224
 11
11.1761825974
 21
16.4071689224
  0
LINE
  5
6DB
100
AcDbEntity
  8
0
100
AcDbLine
 62
250
  6
CONTINUOUS
 10
10.8394419252
 20
-3.9251641985
 11
10.8406120196
 21
-4.624795716
  0
LWPOLYLINE
  5
6DC
100
AcDbEntity
  8
0
100
AcDbPolyline
 62
250
  6
CONTINUOUS
 90
18
 70
0
 10
10.8635694962
 20
11.76459
 10
10.8637051752
 20
12.1188204925
 10
10.8632133924
 20
12.4751628212
 10
10.8621063755
 20
12.8128952277
 10
10.8604293455
 20
13.1182215116
 10
10.8582921459
 20
13.3746215586
 10
10.8557073517
 20
13.5805867685
 10
10.8528139414
 20
13.7227860396
 10
10.8497301092
 20
13.7954106027
 10
10.8466359341
 20
13.7961111949
 10
10.8435496215
 20
13.7248836942
 10
10.8406513299
 20
13.5839957974
 10
10.8380594532
 20
13.3792027047
 10
10.8358798681
 20
13.1188701118
 10
10.8342258822
 20
12.8192080114
 10
10.8331072271
 20
12.4819795481
 10
10.8326031597
 20
12.1258627027
 10
10.8327352952
 20
11.764590033
  0
LWPOLYLINE
  5
6DD
100
AcDbEntity
  8
0
100
AcDbPolyline
 62
250
  6
CONTINUOUS
 90
8
 70
0
 10
10.8635694962
 20
7.42959
 10
10.8636915687
 20
7.8086947743
 10
10.8631117647
 20
8.1821939578
 10
10.8618562727
 20
8.5332172606
 10
10.8599463537
 20
8.8506343253
 10
10.8575296565
 20
9.1099068143
 10
10.8546894052
 20
9.304800292
 10
10.8514902961
 20
9.4281264426
  0
LINE
  5
6DE
100
AcDbEntity
  8
0
100
AcDbLine
 62
250
  6
CONTINUOUS
 10
10.8350622019
 20
-3.9999999992
 11
10.8354454974
 21
-3.5822360932
  0
LINE
  5
6DF
100
AcDbEntity
  8
CURVE
100
AcDbLine
 62
250
  6
CONTINUOUS
 10
10.9079852178
 20
-1.2166666448
 11
10.9083851684
 21
-1.0333333552
  0
LINE
  5
6E0
100
AcDbEntity
  8
0
100
AcDbLine
 62
250
  6
CONTINUOUS
 10
10.9519162347
 20
-12.4304573297
 11
10.951784293
 21
-12.891065285
  0
LINE
  5
6E1
100
AcDbEntity
  8
CURVE
100
AcDbLine
 62
250
  6
CONTINUOUS
 10
10.9284034938
 20
4.4761909485
 11
10.9286735909
 21
4.8476193428
  0
LINE
  5
6E2
100
AcDbEntity
  8
CURVE
100
AcDbLine
 62
250
  6
CONTINUOUS
 10
10.9284034938
 20
-4.33333323
 11
10.9286735909
 21
-3.9619048357
  0
LINE
  5
6E3
100
AcDbEntity
  8
0
100
AcDbLine
 62
250
  6
CONTINUOUS
 10
10.9524555417
 20
-12.7037057928
 11
10.9527754789
 21
-12.4560040115
  0
LINE
  5
6E4
100
AcDbEntity
  8
0
100
AcDbLine
 62
250
  6
CONTINUOUS
 10
10.8354454974
 20
-3.5822360932
 11
10.8365012506
 21
-3.2035041683
  0
LINE
  5
6E5
100
AcDbEntity
  8
0
100
AcDbLine
 62
250
  6
CONTINUOUS
 10
10.864393336
 20
-4.6315664335
 11
10.8655847229
 21
-3.9136301953
  0
LINE
  5
6E6
100
AcDbEntity
  8
0
100
AcDbLine
 62
250
  6
CONTINUOUS
 10
10.9668901573
 20
-13.8167794885
 11
10.9665424002
 21
-14.6733442
  0
LINE
  5
6E7
100
AcDbEntity
  8
0
100
AcDbLine
 62
250
  6
CONTINUOUS
 10
10.9672067097
 20
-14.7603233349
 11
10.9677277407
 21
-13.7055897345
  0
LINE
  5
6E8
100
AcDbEntity
  8
0
100
AcDbLine
 62
250
  6
CONTINUOUS
 10
10.8292036778
 20
-2.6334982545
 11
10.826335331
 21
-3.9999999992
  0
LINE
  5
6E9
100
AcDbEntity
  8
CURVE
100
AcDbLine
 62
250
  6
CONTINUOUS
 10
10.918139817
 20
5.7761903286
 11
10.9173295267
 21
5.5904761314
  0
LINE
  5
6EA
100
AcDbEntity
  8
CURVE
100
AcDbLine
 62
250
  6
CONTINUOUS
 10
10.9071853154
 20
-1.4
 11
10.9079852178
 21
-1.2166666448
  0
LINE
  5
6EB
100
AcDbEntity
  8
0
100
AcDbLine
 62
250
  6
CONTINUOUS
 10
10.8497810359
 20
2.8119750371
 11
10.8493126131
 21
2.6353
  0
LINE
  5
6EC
100
AcDbEntity
  8
0
100
AcDbLine
 62
250
  6
CONTINUOUS
 10
10.8510651665
 20
2.7134650969
 11
10.8508579254
 21
2.6353
  0
LINE
  5
6ED
100
AcDbEntity
  8
0
100
AcDbLine
 62
250
  6
CONTINUOUS
 10
10.8531030154
 20
2.5571349031
 11
10.8533102565
 21
2.6353
  0
LINE
  5
6EE
100
AcDbEntity
  8
0
100
AcDbLine
 62
250
  6
CONTINUOUS
 10
10.854387146
 20
2.4586249629
 11
10.8548555688
 21
2.6353
  0
LINE
  5
6EF
100
AcDbEntity
  8
0
100
AcDbLine
 62
250
  6
CONTINUOUS
 10
10.8798826561
 20
2.3172195222
 11
10.879598613
 21
2.210087
  0
LINE
  5
6F0
100
AcDbEntity
  8
0
100
AcDbLine
 62
250
  6
CONTINUOUS
 10
10.8826757173
 20
2.1029544778
 11
10.8829597604
 21
2.210087
  0
LINE
  5
6F1
100
AcDbEntity
  8
0
100
AcDbLine
 62
250
  6
CONTINUOUS
 10
10.8412117689
 20
-3.2448728745
 11
10.8394419252
 21
-3.9251641985
  0
LINE
  5
6F2
100
AcDbEntity
  8
0
100
AcDbLine
 62
250
  6
CONTINUOUS
 10
10.8365012506
 20
-3.2035041683
 11
10.8381465614
 21
-2.864502446
  0
LINE
  5
6F3
100
AcDbEntity
  8
0
100
AcDbLine
 62
250
  6
CONTINUOUS
 10
10.8311492936
 20
-2.2659542014
 11
10.8292036778
 21
-2.6334982545
  0
LINE
  5
6F4
100
AcDbEntity
  8
CURVE
100
AcDbLine
 62
250
  6
CONTINUOUS
 10
10.9039155992
 20
-8.13333323
 11
10.9031053093
 21
-8.2571429014
  0
LINE
  5
6F5
100
AcDbEntity
  8
0
100
AcDbLine
 62
250
  6
CONTINUOUS
 10
10.882142195
 20
2.4523955398
 11
10.8840787734
 21
3.0839235619
  0
LINE
  5
6F6
100
AcDbEntity
  8
0
100
AcDbLine
 62
250
  6
CONTINUOUS
 10
10.9528186231
 20
-12.2336517994
 11
10.9519162347
 21
-12.4304573297
  0
LINE
  5
6F7
100
AcDbEntity
  8
0
100
AcDbLine
 62
250
  6
CONTINUOUS
 10
10.8381465614
 20
-2.864502446
 11
10.83918027
 21
-2.7096376218
  0
LINE
  5
6F8
100
AcDbEntity
  8
CURVE
100
AcDbLine
 62
250
  6
CONTINUOUS
 10
10.9270530104
 20
4.2904761314
 11
10.9284034938
 21
4.4761909485
  0
LINE
  5
6F9
100
AcDbEntity
  8
CURVE
100
AcDbLine
 62
250
  6
CONTINUOUS
 10
10.9270530104
 20
-4.5190477371
 11
10.9284034938
 21
-4.33333323
  0
LINE
  5
6FA
100
AcDbEntity
  8
0
100
AcDbLine
 62
250
  6
CONTINUOUS
 10
10.8077595697
 20
1.6238090515
 11
10.8126216818
 21
2.2738090515
  0
LINE
  5
6FB
100
AcDbEntity
  8
0
100
AcDbLine
 62
250
  6
CONTINUOUS
 10
10.9527754789
 20
-12.4560040115
 11
10.9535536421
 21
-12.3077296247
  0
LINE
  5
6FC
100
AcDbEntity
  8
0
100
AcDbLine
 62
250
  6
CONTINUOUS
 10
10.9665424002
 20
-14.6733442
 11
10.9659472462
 21
-14.7733492068
  0
LINE
  5
6FD
100
AcDbEntity
  8
0
100
AcDbLine
 62
250
  6
CONTINUOUS
 10
10.8618001318
 20
-5.0574526837
 11
10.864393336
 21
-4.6315664335
  0
LINE
  5
6FE
100
AcDbEntity
  8
0
100
AcDbLine
 62
250
  6
CONTINUOUS
 10
10.8817042178
 20
2.396457109
 11
10.882142195
 21
2.4523955398
  0
LINE
  5
6FF
100
AcDbEntity
  8
0
100
AcDbLine
 62
250
  6
CONTINUOUS
 10
10.8432842832
 20
-2.9363708784
 11
10.8412117689
 21
-3.2448728745
  0
LINE
  5
700
100
AcDbEntity
  8
0
100
AcDbLine
 62
250
  6
CONTINUOUS
 10
10.9665318597
 20
-14.8681480923
 11
10.9672067097
 21
-14.7603233349
  0
LINE
  5
701
100
AcDbEntity
  8
0
100
AcDbLine
 62
250
  6
CONTINUOUS
 10
10.8158630896
 20
11.8071429014
 11
10.8142423857
 21
11.6214287043
  0
LINE
  5
702
100
AcDbEntity
  8
0
100
AcDbLine
 62
250
  6
CONTINUOUS
 10
10.8061388656
 20
5.1523806572
 11
10.8045181615
 21
4.96666646
  0
LINE
  5
703
100
AcDbEntity
  8
CURVE
100
AcDbLine
 62
250
  6
CONTINUOUS
 10
10.8980072196
 20
13.2357143521
 11
10.896386639
 21
13.05
  0
LINE
  5
704
100
AcDbEntity
  8
0
100
AcDbLine
 62
250
  6
CONTINUOUS
 10
10.8053285135
 20
2.2738090515
 11
10.8045181615
 21
2.1809522629
  0
LINE
  5
705
100
AcDbEntity
  8
0
100
AcDbLine
 62
250
  6
CONTINUOUS
 10
10.8158630896
 20
1.7166670799
 11
10.8150527373
 21
1.6238090515
  0
LINE
  5
706
100
AcDbEntity
  8
CURVE
100
AcDbLine
 62
250
  6
CONTINUOUS
 10
10.9270530104
 20
14.35
 11
10.9286735909
 21
14.5357142746
  0
LINE
  5
707
100
AcDbEntity
  8
CURVE
100
AcDbLine
 62
250
  6
CONTINUOUS
 10
10.896386639
 20
10.2023809671
 11
10.8980072196
 21
10.3880951643
  0
LINE
  5
708
100
AcDbEntity
  8
CURVE
100
AcDbLine
 62
250
  6
CONTINUOUS
 10
10.9028689616
 20
9.9238096714
 11
10.9012483808
 21
9.7380954742
  0
LINE
  5
709
100
AcDbEntity
  8
CURVE
100
AcDbLine
 62
250
  6
CONTINUOUS
 10
10.9270530104
 20
12.3380951643
 11
10.9286735909
 21
12.5238095164
  0
LINE
  5
70A
100
AcDbEntity
  8
CURVE
100
AcDbLine
 62
250
  6
CONTINUOUS
 10
10.9012483808
 20
9.1809522629
 11
10.9028689616
 21
9.36666646
  0
LINE
  5
70B
100
AcDbEntity
  8
CURVE
100
AcDbLine
 62
250
  6
CONTINUOUS
 10
10.9189501074
 20
11.0380951643
 11
10.9173295267
 21
10.8523809671
  0
LINE
  5
70C
100
AcDbEntity
  8
CURVE
100
AcDbLine
 62
250
  6
CONTINUOUS
 10
10.9077307031
 20
8.9023806572
 11
10.9061101226
 21
8.71666646
  0
LINE
  5
70D
100
AcDbEntity
  8
CURVE
100
AcDbLine
 62
250
  6
CONTINUOUS
 10
10.9077307031
 20
6.9523806572
 11
10.9061101226
 21
6.76666646
  0
LINE
  5
70E
100
AcDbEntity
  8
CURVE
100
AcDbLine
 62
250
  6
CONTINUOUS
 10
10.9189501074
 20
7.7261903286
 11
10.9173295267
 21
7.5404761314
  0
LINE
  5
70F
100
AcDbEntity
  8
CURVE
100
AcDbLine
 62
250
  6
CONTINUOUS
 10
10.9270530104
 20
7.2619045258
 11
10.9286735909
 21
7.4476193428
  0
LINE
  5
710
100
AcDbEntity
  8
CURVE
100
AcDbLine
 62
250
  6
CONTINUOUS
 10
10.9213809783
 20
4.1976193428
 11
10.9230015588
 21
4.3833329201
  0
LINE
  5
711
100
AcDbEntity
  8
CURVE
100
AcDbLine
 62
250
  6
CONTINUOUS
 10
10.9028689616
 20
0.0857143521
 11
10.9012483808
 21
-0.1
  0
LINE
  5
712
100
AcDbEntity
  8
CURVE
100
AcDbLine
 62
250
  6
CONTINUOUS
 10
10.9063854131
 20
-1.4916667104
 11
10.9071853154
 21
-1.4
  0
LINE
  5
713
100
AcDbEntity
  8
CURVE
100
AcDbLine
 62
250
  6
CONTINUOUS
 10
10.9189501074
 20
-1.7642856479
 11
10.9173295267
 21
-1.95
  0
LINE
  5
714
100
AcDbEntity
  8
CURVE
100
AcDbLine
 62
250
  6
CONTINUOUS
 10
10.8982435673
 20
-6.2142857254
 11
10.8966229866
 21
-6.4
  0
LINE
  5
715
100
AcDbEntity
  8
CURVE
100
AcDbLine
 62
250
  6
CONTINUOUS
 10
10.9213809783
 20
-4.6119048357
 11
10.9230015588
 21
-4.4261903286
  0
LINE
  5
716
100
AcDbEntity
  8
CURVE
100
AcDbLine
 62
250
  6
CONTINUOUS
 10
10.9063464703
 20
-6.6785714507
 11
10.9079670508
 21
-6.4928570986
  0
LINE
  5
717
100
AcDbEntity
  8
CURVE
100
AcDbLine
 62
250
  6
CONTINUOUS
 10
10.8982435673
 20
-8.0714287043
 11
10.8966229866
 21
-8.2571429014
  0
LINE
  5
718
100
AcDbEntity
  8
CURVE
100
AcDbLine
 62
250
  6
CONTINUOUS
 10
10.8966229866
 20
-9.2785712957
 11
10.8982435673
 21
-9.0928570986
  0
LINE
  5
719
100
AcDbEntity
  8
CURVE
100
AcDbLine
 62
250
  6
CONTINUOUS
 10
10.9014847285
 20
-8.7214287043
 11
10.9031053093
 21
-8.5357141972
  0
LINE
  5
71A
100
AcDbEntity
  8
CURVE
100
AcDbLine
 62
250
  6
CONTINUOUS
 10
10.9031053093
 20
-9.5571429014
 11
10.9014847285
 21
-9.7428570986
  0
LINE
  5
71B
100
AcDbEntity
  8
CURVE
100
AcDbLine
 62
250
  6
CONTINUOUS
 10
10.9079670508
 20
-10.5785716057
 11
10.9063464703
 21
-10.7642858028
  0
LINE
  5
71C
100
AcDbEntity
  8
CURVE
100
AcDbLine
 62
250
  6
CONTINUOUS
 10
10.9189501074
 20
-11.092857147
 11
10.9173295267
 21
-11.2785714313
  0
LINE
  5
71D
100
AcDbEntity
  8
CURVE
100
AcDbLine
 62
250
  6
CONTINUOUS
 10
10.9270530104
 20
-11.5571428627
 11
10.9286735909
 21
-11.371428588
  0
LINE
  5
71E
100
AcDbEntity
  8
CURVE
100
AcDbLine
 62
250
  6
CONTINUOUS
 10
10.9221912685
 20
-12.2071428239
 11
10.9238118494
 21
-12.0214285493
  0
LINE
  5
71F
100
AcDbEntity
  8
CURVE
100
AcDbLine
 62
250
  6
CONTINUOUS
 10
10.9286735909
 20
-12.4857143521
 11
10.9270530104
 21
-12.6714285493
  0
LINE
  5
720
100
AcDbEntity
  8
CURVE
100
AcDbLine
 62
250
  6
CONTINUOUS
 10
10.9238118494
 20
-13.4142856479
 11
10.9221912685
 21
-13.6
  0
LINE
  5
721
100
AcDbEntity
  8
CURVE
100
AcDbLine
 62
250
  6
CONTINUOUS
 10
10.9238118494
 20
-15.0857141972
 11
10.9221912685
 21
-15.2714287043
  0
LINE
  5
722
100
AcDbEntity
  8
0
100
AcDbLine
 62
250
  6
CONTINUOUS
 10
10.8880871323
 20
6.00013
 11
10.8446526693
 21
1.268444
  0
LINE
  5
723
100
AcDbEntity
  8
CURVE
100
AcDbLine
 62
250
  6
CONTINUOUS
 10
10.8987863448
 20
-0.575
 11
10.896386639
 21
-0.8041666776
  0
LINE
  5
724
100
AcDbEntity
  8
CURVE
100
AcDbLine
 62
250
  6
CONTINUOUS
 10
10.9286735909
 20
-13.4142856479
 11
10.9270530104
 21
-13.5690475821
  0
LINE
  5
725
100
AcDbEntity
  8
CURVE
100
AcDbLine
 62
250
  6
CONTINUOUS
 10
10.9286735909
 20
-15.0857141972
 11
10.9270530104
 21
-15.2404761314
  0
LINE
  5
726
100
AcDbEntity
  8
0
100
AcDbLine
 62
250
  6
CONTINUOUS
 10
10.9535950789
 20
-12.1489331325
 11
10.9528186231
 21
-12.2336517994
  0
LINE
  5
727
100
AcDbEntity
  8
0
100
AcDbLine
 62
250
  6
CONTINUOUS
 10
10.9535536421
 20
-12.3077296247
 11
10.9542894206
 21
-12.2342135645
  0
LINE
  5
728
100
AcDbEntity
  8
0
100
AcDbLine
 62
250
  6
CONTINUOUS
 10
10.9659472462
 20
-14.7733492068
 11
10.965436896
 21
-14.8206927659
  0
LINE
  5
729
100
AcDbEntity
  8
CURVE
100
AcDbLine
 62
250
  6
CONTINUOUS
 10
10.9173295267
 20
12.3380951643
 11
10.9221912685
 21
12.7095238686
  0
LINE
  5
72A
100
AcDbEntity
  8
CURVE
100
AcDbLine
 62
250
  6
CONTINUOUS
 10
10.9051855607
 20
-1.5833332896
 11
10.9063854131
 21
-1.4916667104
  0
LINE
  5
72B
100
AcDbEntity
  8
0
100
AcDbLine
 62
250
  6
CONTINUOUS
 10
10.8595686758
 20
-5.2636240138
 11
10.8618001318
 21
-5.0574526837
  0
LINE
  5
72C
100
AcDbEntity
  8
CURVE
100
AcDbLine
 62
250
  6
CONTINUOUS
 10
10.9063464703
 20
-8.6595238686
 11
10.9079670508
 21
-8.5357141972
  0
LINE
  5
72D
100
AcDbEntity
  8
0
100
AcDbLine
 62
250
  6
CONTINUOUS
 10
10.9659250635
 20
-14.9235350509
 11
10.9665318597
 21
-14.8681480923
  0
LINE
  5
72E
100
AcDbEntity
  8
0
100
AcDbLine
 62
250
  6
CONTINUOUS
 10
10.9520058311
 20
-6.070199
 11
10.9646790647
 21
-5.124786
  0
LINE
  5
72F
100
AcDbEntity
  8
0
100
AcDbLine
 62
250
  6
CONTINUOUS
 10
10.9677130929
 20
-5.152533
 11
10.9549079375
 21
-6.105488
  0
LINE
  5
730
100
AcDbEntity
  8
0
100
AcDbLine
 62
250
  6
CONTINUOUS
 10
10.8405227437
 20
-1.3323978436
 11
10.8372356776
 21
-1.5637037647
  0
LINE
  5
731
100
AcDbEntity
  8
0
100
AcDbLine
 62
250
  6
CONTINUOUS
 10
10.9543228806
 20
-12.0974156002
 11
10.9535950789
 21
-12.1489331325
  0
LINE
  5
732
100
AcDbEntity
  8
0
100
AcDbLine
 62
250
  6
CONTINUOUS
 10
10.9542894206
 20
-12.2342135645
 11
10.9548252404
 21
-12.1976754016
  0
LINE
  5
733
100
AcDbEntity
  8
0
100
AcDbLine
 62
250
  6
CONTINUOUS
 10
10.965436896
 20
-14.8206927659
 11
10.9650920691
 21
-14.8430037801
  0
LINE
  5
734
100
AcDbEntity
  8
0
100
AcDbLine
 62
250
  6
CONTINUOUS
 10
10.8158630896
 20
8.3095238686
 11
10.8045181615
 21
7.6595238686
  0
LINE
  5
735
100
AcDbEntity
  8
0
100
AcDbLine
 62
250
  6
CONTINUOUS
 10
10.8158630896
 20
4.1309522629
 11
10.8045181615
 21
3.4809522629
  0
LINE
  5
736
100
AcDbEntity
  8
CURVE
100
AcDbLine
 62
250
  6
CONTINUOUS
 10
10.920570688
 20
7.8190477371
 11
10.9189501074
 21
7.7261903286
  0
LINE
  5
737
100
AcDbEntity
  8
CURVE
100
AcDbLine
 62
250
  6
CONTINUOUS
 10
10.9254324299
 20
7.1690477371
 11
10.9270530104
 21
7.2619045258
  0
LINE
  5
738
100
AcDbEntity
  8
CURVE
100
AcDbLine
 62
250
  6
CONTINUOUS
 10
10.899864148
 20
-6.1214285493
 11
10.8982435673
 21
-6.2142857254
  0
LINE
  5
739
100
AcDbEntity
  8
CURVE
100
AcDbLine
 62
250
  6
CONTINUOUS
 10
10.9047258898
 20
-6.7714285493
 11
10.9063464703
 21
-6.6785714507
  0
LINE
  5
73A
100
AcDbEntity
  8
CURVE
100
AcDbLine
 62
250
  6
CONTINUOUS
 10
10.920570688
 20
-11.0
 11
10.9189501074
 21
-11.092857147
  0
LINE
  5
73B
100
AcDbEntity
  8
CURVE
100
AcDbLine
 62
250
  6
CONTINUOUS
 10
10.9014847285
 20
-12.5285716057
 11
10.9079670508
 21
-12.1571425915
  0
LINE
  5
73C
100
AcDbEntity
  8
CURVE
100
AcDbLine
 62
250
  6
CONTINUOUS
 10
10.9254324299
 20
-11.65
 11
10.9270530104
 21
-11.5571428627
  0
LINE
  5
73D
100
AcDbEntity
  8
0
100
AcDbLine
 62
250
  6
CONTINUOUS
 10
10.8580706061
 20
-5.3585960193
 11
10.8595686758
 21
-5.2636240138
  0
LINE
  5
73E
100
AcDbEntity
  8
0
100
AcDbLine
 62
250
  6
CONTINUOUS
 10
10.9654693542
 20
-14.9520622863
 11
10.9659250635
 21
-14.9235350509
  0
LINE
  5
73F
100
AcDbEntity
  8
0
100
AcDbLine
 62
250
  6
CONTINUOUS
 10
10.9548252404
 20
-12.1976754016
 11
10.9552510084
 21
-12.1757531516
  0
LINE
  5
740
100
AcDbEntity
  8
0
100
AcDbLine
 62
250
  6
CONTINUOUS
 10
10.8431401467
 20
-1.1982115866
 11
10.8405227437
 21
-1.3323978436
  0
LINE
  5
741
100
AcDbEntity
  8
CURVE
100
AcDbLine
 62
250
  6
CONTINUOUS
 10
10.9007860998
 20
-0.4833333388
 11
10.8987863448
 21
-0.575
  0
LINE
  5
742
100
AcDbEntity
  8
0
100
AcDbLine
 62
250
  6
CONTINUOUS
 10
10.9549136743
 20
-12.0675539463
 11
10.9543228806
 21
-12.0974156002
  0
LINE
  5
743
100
AcDbEntity
  8
0
100
AcDbLine
 62
250
  6
CONTINUOUS
 10
10.85702204
 20
-5.4088023975
 11
10.8580706061
 21
-5.3585960193
  0
LINE
  5
744
100
AcDbEntity
  8
0
100
AcDbLine
 62
250
  6
CONTINUOUS
 10
10.9650920691
 20
-14.8430037801
 11
10.964727471
 21
-14.8607323834
  0
LINE
  5
745
100
AcDbEntity
  8
0
100
AcDbLine
 62
250
  6
CONTINUOUS
 10
10.9651088865
 20
-14.9687357983
 11
10.9654693542
 21
-14.9520622863
  0
LINE
  5
746
100
AcDbEntity
  8
0
100
AcDbLine
 62
250
  6
CONTINUOUS
 10
10.9520057874
 20
-8.923912
 11
10.9677130492
 21
-8.28862
  0
LINE
  5
747
100
AcDbEntity
  8
0
100
AcDbLine
 62
250
  6
CONTINUOUS
 10
10.9552510084
 20
-12.1757531516
 11
10.9555429872
 21
-12.1636860877
  0
LINE
  5
748
100
AcDbEntity
  8
0
100
AcDbLine
 62
250
  6
CONTINUOUS
 10
10.9677130492
 20
-8.548249
 11
10.9540291085
 21
-9.0650863225
  0
LINE
  5
749
100
AcDbEntity
  8
0
100
AcDbLine
 62
250
  6
CONTINUOUS
 10
10.9553219246
 20
-12.0515419945
 11
10.9549136743
 21
-12.0675539463
  0
LWPOLYLINE
  5
74A
100
AcDbEntity
  8
0
100
AcDbPolyline
 62
250
  6
CONTINUOUS
 90
17
 70
0
 10
10.964727471
 20
-14.8607323834
 10
10.9644512967
 20
-14.8708353914
 10
10.9643111393
 20
-14.8749759933
 10
10.9641698182
 20
-14.8785184594
 10
10.9640274958
 20
-14.8814696387
 10
10.9638843344
 20
-14.8838363803
 10
10.9637404963
 20
-14.8856255333
 10
10.963596144
 20
-14.8868439468
 10
10.9634514397
 20
-14.88749847
 10
10.963306546
 20
-14.8875959519
 10
10.9631617471
 20
-14.887140459
 10
10.9630171431
 20
-14.886122394
 10
10.9628729558
 20
-14.884528525
 10
10.9627294072
 20
-14.8823456205
 10
10.9625867192
 20
-14.8795604486
 10
10.9624451137
 20
-14.8761597778
 10
10.9623048127
 20
-14.8721303763
  0
LINE
  5
74B
100
AcDbEntity
  8
0
100
AcDbLine
 62
250
  6
CONTINUOUS
 10
10.9555429872
 20
-12.1636860877
 11
10.9558403891
 21
-12.1534255618
  0
LINE
  5
74C
100
AcDbEntity
  8
0
100
AcDbLine
 62
250
  6
CONTINUOUS
 10
10.8158630896
 20
0.0452386856
 11
10.8045181615
 21
-0.3261909485
  0
LINE
  5
74D
100
AcDbEntity
  8
CURVE
100
AcDbLine
 62
250
  6
CONTINUOUS
 10
10.9173295267
 20
-3.5904761314
 11
10.9286735909
 21
-3.2190477371
  0
LWPOLYLINE
  5
74E
100
AcDbEntity
  8
0
100
AcDbPolyline
 62
250
  6
CONTINUOUS
 90
16
 70
0
 10
10.8473776185
 20
-2.0881872694
 10
10.8485033145
 20
-2.0531325749
 10
10.8490690101
 20
-2.038966549
 10
10.8496369971
 20
-2.0270204758
 10
10.8502075707
 20
-2.0172786592
 10
10.8507810256
 20
-2.0097254031
 10
10.8513576569
 20
-2.0043450112
 10
10.8519375478
 20
-2.0011266646
 10
10.8525199355
 20
-2.0000790528
 10
10.8531038457
 20
-2.0012157428
 10
10.8536883039
 20
-2.0045503012
 10
10.8542723358
 20
-2.0100962947
 10
10.854854967
 20
-2.0178672902
 10
10.8554352231
 20
-2.0278768543
 10
10.8560121897
 20
-2.0401336306
 10
10.8565851921
 20
-2.0546265694
  0
LWPOLYLINE
  5
74F
100
AcDbEntity
  8
0
100
AcDbPolyline
 62
250
  6
CONTINUOUS
 90
13
 70
0
 10
10.9558403891
 20
-12.1534255618
 10
10.9561418543
 20
-12.1447829178
 10
10.9563345965
 20
-12.1400580363
 10
10.9565283031
 20
-12.1358864154
 10
10.9567228509
 20
-12.1322462955
 10
10.9569181168
 20
-12.1291159169
 10
10.9571139775
 20
-12.12647352
 10
10.9573103099
 20
-12.1242973452
 10
10.9575069907
 20
-12.1225656328
 10
10.9577038968
 20
-12.1212566233
 10
10.957900905
 20
-12.120348557
 10
10.9580978921
 20
-12.1198196742
 10
10.9582947348
 20
-12.1196482155
  0
LINE
  5
750
100
AcDbEntity
  8
CURVE
100
AcDbLine
 62
250
  6
CONTINUOUS
 10
10.9027858548
 20
-0.4375
 11
10.9007860998
 21
-0.4833333388
  0
LINE
  5
751
100
AcDbEntity
  8
CURVE
100
AcDbLine
 62
250
  6
CONTINUOUS
 10
10.9027858548
 20
-1.6291667104
 11
10.9051855607
 21
-1.5833332896
  0
LWPOLYLINE
  5
752
100
AcDbEntity
  8
0
100
AcDbPolyline
 62
250
  6
CONTINUOUS
 90
5
 70
0
 10
10.8812791867
 20
2.017505
 10
10.8816056118
 20
2.0211726943
 10
10.8819196035
 20
2.0320360758
 10
10.882209202
 20
2.0496813616
 10
10.8826757173
 20
2.1029544778
  0
LINE
  5
753
100
AcDbEntity
  8
0
100
AcDbLine
 62
7
  6
CONTINUOUS
 10
10.9520058311
 20
-5.0583365363
 11
10.9677130929
 21
-5.0426292745
  0
LINE
  5
754
100
AcDbEntity
  8
0
100
AcDbLine
 62
7
  6
CONTINUOUS
 10
10.9629006754
 20
-5.257452406
 11
10.9663496022
 21
-5.2540034792
  0
LINE
  5
755
100
AcDbEntity
  8
0
100
AcDbLine
 62
7
  6
CONTINUOUS
 10
10.9600472377
 20
-5.4703165577
 11
10.963489186
 21
-5.4668746094
  0
LINE
  5
756
100
AcDbEntity
  8
0
100
AcDbLine
 62
7
  6
CONTINUOUS
 10
10.9571937999
 20
-5.6831807095
 11
10.9606287698
 21
-5.6797457396
  0
LINE
  5
757
100
AcDbEntity
  8
0
100
AcDbLine
 62
7
  6
CONTINUOUS
 10
10.9543403622
 20
-5.8960448612
 11
10.9577683536
 21
-5.8926168698
  0
LINE
  5
758
100
AcDbEntity
  8
0
100
AcDbLine
 62
7
  6
CONTINUOUS
 10
10.9520058311
 20
-6.1083901064
 11
10.9549079375
 21
-6.105488
  0
LINE
  5
759
100
AcDbEntity
  8
0
100
AcDbLine
 62
7
  6
CONTINUOUS
 10
10.9520058311
 20
-6.3184008204
 11
10.9677130929
 21
-6.3026935586
  0
LINE
  5
75A
100
AcDbEntity
  8
0
100
AcDbLine
 62
7
  6
CONTINUOUS
 10
-5.43351
 20
-14.674272
 11
-6.685149
 21
-15.130971
  0
LINE
  5
75B
100
AcDbEntity
  8
ASSI
100
AcDbLine
 62
7
  6
CONTINUOUS
 10
-5.43351
 20
-14.674272
 11
-6.685149
 21
-15.130971
  0
LINE
  5
75C
100
AcDbEntity
  8
0
100
AcDbLine
 62
7
  6
CONTINUOUS
 10
-6.505387
 20
-15.221542
 11
-5.43351
 21
-14.862395
  0
LINE
  5
75D
100
AcDbEntity
  8
ASSI
100
AcDbLine
 62
7
  6
CONTINUOUS
 10
-6.505387
 20
-15.221542
 11
-5.43351
 21
-14.862395
  0
LWPOLYLINE
  5
75E
100
AcDbEntity
  8
0
100
AcDbPolyline
 62
7
  6
CONTINUOUS
 90
16
 70
0
 10
-6.6051480361
 20
-13.3578543477
 10
-6.5918495273
 20
-13.3535899209
 10
-6.5773801411
 20
-13.3509621302
 10
-6.562244001
 20
-13.3490971869
 10
-6.5465906596
 20
-13.3480360715
 10
-6.5302705643
 20
-13.3477378036
 10
-6.5133391814
 20
-13.3472056531
 10
-6.4958637373
 20
-13.3459158008
 10
-6.4777770055
 20
-13.344392066
 10
-6.4589327732
 20
-13.3432091768
 10
-6.4393280728
 20
-13.3427604833
 10
-6.4189658719
 20
-13.3426526354
 10
-6.3977088597
 20
-13.3422803109
 10
-6.3754328775
 20
-13.3414742613
 10
-6.3522620841
 20
-13.3404037351
 10
-6.3035104848
 20
-13.3373829799
  0
LWPOLYLINE
  5
75F
100
AcDbEntity
  8
ASSI
100
AcDbPolyline
 62
7
  6
CONTINUOUS
 90
16
 70
0
 10
-6.6051480361
 20
-13.3578543477
 10
-6.5918495273
 20
-13.3535899209
 10
-6.5773801411
 20
-13.3509621302
 10
-6.562244001
 20
-13.3490971869
 10
-6.5465906596
 20
-13.3480360715
 10
-6.5302705643
 20
-13.3477378036
 10
-6.5133391814
 20
-13.3472056531
 10
-6.4958637373
 20
-13.3459158008
 10
-6.4777770055
 20
-13.344392066
 10
-6.4589327732
 20
-13.3432091768
 10
-6.4393280728
 20
-13.3427604833
 10
-6.4189658719
 20
-13.3426526354
 10
-6.3977088597
 20
-13.3422803109
 10
-6.3754328775
 20
-13.3414742613
 10
-6.3522620841
 20
-13.3404037351
 10
-6.3035104848
 20
-13.3373829799
  0
LINE
  5
760
100
AcDbEntity
  8
0
100
AcDbLine
 62
7
  6
CONTINUOUS
 10
-2.2697234842
 20
-12.7302765158
 11
-2.8401949367
 21
-12.9
  0
LINE
  5
761
100
AcDbEntity
  8
CURVE
100
AcDbLine
 62
250
  6
CONTINUOUS
 10
10.896386639
 20
10.7595238686
 11
10.9077307031
 21
10.7595238686
  0
LINE
  5
762
100
AcDbEntity
  8
CURVE
100
AcDbLine
 62
250
  6
CONTINUOUS
 10
10.9270530104
 20
11.0380951643
 11
10.9189501074
 21
11.0380951643
  0
LINE
  5
763
100
AcDbEntity
  8
0
100
AcDbLine
 62
250
  6
CONTINUOUS
 10
10.8045181615
 20
11.0952380657
 11
10.8158630896
 21
11.0952380657
  0
LINE
  5
764
100
AcDbEntity
  8
0
100
AcDbLine
 62
250
  6
CONTINUOUS
 10
10.8142423857
 20
11.6214287043
 11
10.8061388656
 21
11.6214287043
  0
LINE
  5
765
100
AcDbEntity
  8
0
100
AcDbLine
 62
250
  6
CONTINUOUS
 10
10.8327352953
 20
11.76459
 11
10.8260112728
 21
11.76459
  0
LINE
  5
766
100
AcDbEntity
  8
0
100
AcDbLine
 62
250
  6
CONTINUOUS
 10
10.8702935187
 20
11.76459
 11
10.8635694962
 21
11.76459
  0
LINE
  5
767
100
AcDbEntity
  8
CURVE
100
AcDbLine
 62
250
  6
CONTINUOUS
 10
10.9286735909
 20
11.96666677
 11
10.9173295267
 21
11.96666677
  0
LINE
  5
768
100
AcDbEntity
  8
0
100
AcDbLine
 62
250
  6
CONTINUOUS
 10
10.8045181615
 20
12.2714285493
 11
10.8158630896
 21
12.2714285493
  0
LINE
  5
769
100
AcDbEntity
  8
CURVE
100
AcDbLine
 62
250
  6
CONTINUOUS
 10
10.9238118494
 20
12.3380951643
 11
10.9270530104
 21
12.3380951643
  0
LWPOLYLINE
  5
76A
100
AcDbEntity
  8
RACCORDO
100
AcDbPolyline
 62
7
  6
CONTINUOUS
 90
14
 70
0
 10
3.0249623027
 20
-17.0750410873
 10
2.9865061398
 20
-17.1220122515
 10
2.9507686235
 20
-17.1663251324
 10
2.9176281562
 20
-17.2079217154
 10
2.8872834775
 20
-17.2469944247
 10
2.8597227863
 20
-17.2834563923
 10
2.8349578837
 20
-17.3171997291
 10
2.8132229119
 20
-17.3483390026
 10
2.7944814705
 20
-17.3768174722
 10
2.77876996
 20
-17.402535797
 10
2.7664317233
 20
-17.4255075317
 10
2.7575812083
 20
-17.4456927549
 10
2.7521039672
 20
-17.4630231705
 10
2.75
 20
-17.4774686728
  0
LWPOLYLINE
  5
76B
100
AcDbEntity
  8
ASSI
100
AcDbPolyline
 62
7
  6
CONTINUOUS
 90
14
 70
0
 10
3.0249623027
 20
-17.0750410873
 10
2.9865061398
 20
-17.1220122515
 10
2.9507686235
 20
-17.1663251324
 10
2.9176281562
 20
-17.2079217154
 10
2.8872834775
 20
-17.2469944247
 10
2.8597227863
 20
-17.2834563923
 10
2.8349578837
 20
-17.3171997291
 10
2.8132229119
 20
-17.3483390026
 10
2.7944814705
 20
-17.3768174722
 10
2.77876996
 20
-17.402535797
 10
2.7664317233
 20
-17.4255075317
 10
2.7575812083
 20
-17.4456927549
 10
2.7521039672
 20
-17.4630231705
 10
2.75
 20
-17.4774686728
  0
LWPOLYLINE
  5
76C
100
AcDbEntity
  8
RACCORDO
100
AcDbPolyline
 62
7
  6
CONTINUOUS
 90
4
 70
0
 10
3.25
 20
-16.8066482796
 10
3.2010005642
 20
-16.86403264
 10
3.1540346454
 20
-16.9198763003
 10
3.0249623027
 20
-17.0750410873
  0
LWPOLYLINE
  5
76D
100
AcDbEntity
  8
ASSI
100
AcDbPolyline
 62
7
  6
CONTINUOUS
 90
4
 70
0
 10
3.25
 20
-16.8066482796
 10
3.2010005642
 20
-16.86403264
 10
3.1540346454
 20
-16.9198763003
 10
3.0249623027
 20
-17.0750410873
  0
LINE
  5
76E
100
AcDbEntity
  8
0
100
AcDbLine
 62
7
  6
CONTINUOUS
 10
10.9520058311
 20
-6.9484329624
 11
10.9677130929
 21
-6.9327257007
  0
LINE
  5
76F
100
AcDbEntity
  8
0
100
AcDbLine
 62
7
  6
CONTINUOUS
 10
10.9659532009
 20
-7.1444963066
 11
10.9677130929
 21
-7.1427364147
  0
LINE
  5
770
100
AcDbEntity
  8
0
100
AcDbLine
 62
7
  6
CONTINUOUS
 10
10.9591993727
 20
-7.1512501348
 11
10.960959413
 21
-7.1494900945
  0
LINE
  5
771
100
AcDbEntity
  8
0
100
AcDbLine
 62
7
  6
CONTINUOUS
 10
10.9520058311
 20
-7.1584436764
 11
10.953765723
 21
-7.1566837845
  0
LINE
  5
772
100
AcDbEntity
  8
0
100
AcDbLine
 62
7
  6
CONTINUOUS
 10
10.9659532009
 20
-7.3545070206
 11
10.9677130929
 21
-7.3527471287
  0
LINE
  5
773
100
AcDbEntity
  8
0
100
AcDbLine
 62
7
  6
CONTINUOUS
 10
10.9591993727
 20
-7.3612608488
 11
10.960959413
 21
-7.3595008086
  0
LINE
  5
774
100
AcDbEntity
  8
0
100
AcDbLine
 62
7
  6
CONTINUOUS
 10
10.9520058311
 20
-7.3684543905
 11
10.953765723
 21
-7.3666944985
  0
LINE
  5
775
100
AcDbEntity
  8
0
100
AcDbLine
 62
7
  6
CONTINUOUS
 10
10.9659532009
 20
-7.5645177346
 11
10.9677130929
 21
-7.5627578427
  0
LINE
  5
776
100
AcDbEntity
  8
0
100
AcDbLine
 62
7
  6
CONTINUOUS
 10
10.9591993727
 20
-7.5712715629
 11
10.960959413
 21
-7.5695115226
  0
LINE
  5
777
100
AcDbEntity
  8
0
100
AcDbLine
 62
7
  6
CONTINUOUS
 10
10.9520058311
 20
-7.5784651045
 11
10.953765723
 21
-7.5767052125
  0
LINE
  5
778
100
AcDbEntity
  8
0
100
AcDbLine
 62
7
  6
CONTINUOUS
 10
10.9591993727
 20
-7.7812822769
 11
10.960959413
 21
-7.7795222366
  0
LINE
  5
779
100
AcDbEntity
  8
0
100
AcDbLine
 62
7
  6
CONTINUOUS
 10
10.9520058311
 20
-7.7884758185
 11
10.953765723
 21
-7.7867159265
  0
LINE
  5
77A
100
AcDbEntity
  8
0
100
AcDbLine
 62
7
  6
CONTINUOUS
 10
10.9659532009
 20
-7.7745284486
 11
10.9677130929
 21
-7.7727685567
  0
LINE
  5
77B
100
AcDbEntity
  8
0
100
AcDbLine
 62
7
  6
CONTINUOUS
 10
10.9659532009
 20
-7.9845391627
 11
10.9677130929
 21
-7.9827792707
  0
LINE
  5
77C
100
AcDbEntity
  8
0
100
AcDbLine
 62
7
  6
CONTINUOUS
 10
10.9591993727
 20
-7.9912929909
 11
10.960959413
 21
-7.9895329506
  0
LINE
  5
77D
100
AcDbEntity
  8
0
100
AcDbLine
 62
7
  6
CONTINUOUS
 10
10.9520058311
 20
-7.9984865325
 11
10.953765723
 21
-7.9967266406
  0
LINE
  5
77E
100
AcDbEntity
  8
0
100
AcDbLine
 62
7
  6
CONTINUOUS
 10
10.9648184221
 20
-8.4056953695
 11
10.9677130492
 21
-8.4028007424
  0
LINE
  5
77F
100
AcDbEntity
  8
0
100
AcDbLine
 62
7
  6
CONTINUOUS
 10
10.9594943831
 20
-8.6210301225
 11
10.9659571854
 21
-8.6145673202
  0
LINE
  5
780
100
AcDbEntity
  8
0
100
AcDbLine
 62
7
  6
CONTINUOUS
 10
10.9541703442
 20
-8.8363648754
 11
10.9602456583
 21
-8.8302895613
  0
LINE
  5
781
100
AcDbEntity
  8
0
100
AcDbLine
 62
7
  6
CONTINUOUS
 10
-1.2302765158
 20
-13.7697234842
 11
-0.6598050633
 21
-13.6
  0
LINE
  5
782
100
AcDbEntity
  8
CURVE
100
AcDbLine
 62
250
  6
CONTINUOUS
 10
10.9286735909
 20
12.9880951643
 11
10.9173295267
 21
12.9880951643
  0
LINE
  5
783
100
AcDbEntity
  8
CURVE
100
AcDbLine
 62
250
  6
CONTINUOUS
 10
10.9061101226
 20
13.2357143521
 11
10.8980072196
 21
13.2357143521
  0
LINE
  5
784
100
AcDbEntity
  8
0
100
AcDbLine
 62
7
  6
CONTINUOUS
 10
2.675
 20
13.4722431864
 11
2.15
 21
13.4722431864
  0
LINE
  5
785
100
AcDbEntity
  8
ASSI
100
AcDbLine
 62
7
  6
CONTINUOUS
 10
2.675
 20
13.4722431864
 11
2.15
 21
13.4722431864
  0
LINE
  5
786
100
AcDbEntity
  8
0
100
AcDbLine
 62
7
  6
CONTINUOUS
 10
1.5
 20
13.4722431864
 11
0.975
 21
13.4722431864
  0
LINE
  5
787
100
AcDbEntity
  8
ASSI
100
AcDbLine
 62
7
  6
CONTINUOUS
 10
1.5
 20
13.4722431864
 11
0.975
 21
13.4722431864
  0
LINE
  5
788
100
AcDbEntity
  8
CURVE
100
AcDbLine
 62
250
  6
CONTINUOUS
 10
10.9286735909
 20
13.5761904836
 11
10.9173295267
 21
13.5761904836
  0
LINE
  5
789
100
AcDbEntity
  8
0
100
AcDbLine
 62
250
  6
CONTINUOUS
 10
10.8158630896
 20
13.7571428239
 11
10.8045181615
 21
13.7571428239
  0
LWPOLYLINE
  5
78A
100
AcDbEntity
  8
RACCORDO
100
AcDbPolyline
 62
7
  6
CONTINUOUS
 90
3
 70
0
 10
3.1535142876
 20
16.9204908982
 10
3.2007188051
 20
16.8643609376
 10
3.25
 20
16.8066482796
  0
LWPOLYLINE
  5
78B
100
AcDbEntity
  8
ASSI
100
AcDbPolyline
 62
7
  6
CONTINUOUS
 90
3
 70
0
 10
3.1535142876
 20
16.9204908982
 10
3.2007188051
 20
16.8643609376
 10
3.25
 20
16.8066482796
  0
LINE
  5
78C
100
AcDbEntity
  8
0
100
AcDbLine
 62
7
  6
CONTINUOUS
 10
10.9520057874
 20
-9.0485401462
 11
10.9545341313
 21
-9.0460118023
  0
LINE
  5
78D
100
AcDbEntity
  8
0
100
AcDbLine
 62
7
  6
CONTINUOUS
 10
10.9534993532
 20
-9.2570572944
 11
10.9589208459
 21
-9.2516358017
  0
LINE
  5
78E
100
AcDbEntity
  8
0
100
AcDbLine
 62
7
  6
CONTINUOUS
 10
10.9585273335
 20
-9.4620400281
 11
10.9642870742
 21
-9.4562802875
  0
LINE
  5
78F
100
AcDbEntity
  8
0
100
AcDbLine
 62
7
  6
CONTINUOUS
 10
10.9635553138
 20
-9.6670227618
 11
10.9677130492
 21
-9.6628650264
  0
LINE
  5
790
100
AcDbEntity
  8
0
100
AcDbLine
 62
7
  6
CONTINUOUS
 10
10.9520058311
 20
-10.3086043866
 11
10.9677130929
 21
-10.2928971248
  0
LINE
  5
791
100
AcDbEntity
  8
0
100
AcDbLine
 62
7
  6
CONTINUOUS
 10
10.9659532009
 20
-10.5046677308
 11
10.9677130929
 21
-10.5029078389
  0
LINE
  5
792
100
AcDbEntity
  8
0
100
AcDbLine
 62
7
  6
CONTINUOUS
 10
10.9591993727
 20
-10.511421559
 11
10.960959413
 21
-10.5096615187
  0
LINE
  5
793
100
AcDbEntity
  8
0
100
AcDbLine
 62
7
  6
CONTINUOUS
 10
10.9520058311
 20
-10.5186151006
 11
10.953765723
 21
-10.5168552087
  0
LINE
  5
794
100
AcDbEntity
  8
0
100
AcDbLine
 62
7
  6
CONTINUOUS
 10
10.9659532009
 20
-10.7146784448
 11
10.9677130929
 21
-10.7129185529
  0
LINE
  5
795
100
AcDbEntity
  8
0
100
AcDbLine
 62
7
  6
CONTINUOUS
 10
10.9591993727
 20
-10.721432273
 11
10.960959413
 21
-10.7196722328
  0
LINE
  5
796
100
AcDbEntity
  8
0
100
AcDbLine
 62
7
  6
CONTINUOUS
 10
10.9520058311
 20
-10.7286258147
 11
10.953765723
 21
-10.7268659227
  0
LINE
  5
797
100
AcDbEntity
  8
0
100
AcDbLine
 62
7
  6
CONTINUOUS
 10
10.9659532009
 20
-10.9246891588
 11
10.9677130929
 21
-10.9229292669
  0
LINE
  5
798
100
AcDbEntity
  8
0
100
AcDbLine
 62
7
  6
CONTINUOUS
 10
10.9591993727
 20
-10.9314429871
 11
10.960959413
 21
-10.9296829468
  0
LINE
  5
799
100
AcDbEntity
  8
0
100
AcDbLine
 62
7
  6
CONTINUOUS
 10
10.9520058311
 20
-10.9386365287
 11
10.953765723
 21
-10.9368766367
  0
LINE
  5
79A
100
AcDbEntity
  8
0
100
AcDbLine
 62
7
  6
CONTINUOUS
 10
10.9659532009
 20
-11.1346998728
 11
10.9677130929
 21
-11.1329399809
  0
LINE
  5
79B
100
AcDbEntity
  8
0
100
AcDbLine
 62
7
  6
CONTINUOUS
 10
10.9591993727
 20
-11.1414537011
 11
10.960959413
 21
-11.1396936608
  0
LINE
  5
79C
100
AcDbEntity
  8
0
100
AcDbLine
 62
7
  6
CONTINUOUS
 10
10.9520058311
 20
-11.1486472427
 11
10.953765723
 21
-11.1468873507
  0
LINE
  5
79D
100
AcDbEntity
  8
0
100
AcDbLine
 62
7
  6
CONTINUOUS
 10
10.9659532009
 20
-11.3447105869
 11
10.9677130929
 21
-11.3429506949
  0
LINE
  5
79E
100
AcDbEntity
  8
0
100
AcDbLine
 62
7
  6
CONTINUOUS
 10
10.9520058311
 20
-11.3586579567
 11
10.953765723
 21
-11.3568980648
  0
LINE
  5
79F
100
AcDbEntity
  8
CURVE
100
AcDbLine
 62
250
  6
CONTINUOUS
 10
10.9077307031
 20
14.1642857254
 11
10.896386639
 21
14.1642857254
  0
LINE
  5
7A0
100
AcDbEntity
  8
CURVE
100
AcDbLine
 62
250
  6
CONTINUOUS
 10
10.9189501074
 20
14.35
 11
10.9270530104
 21
14.35
  0
LINE
  5
7A1
100
AcDbEntity
  8
0
100
AcDbLine
 62
250
  6
CONTINUOUS
 10
10.8045181615
 20
14.5
 11
10.8158630896
 21
14.5
  0
LINE
  5
7A2
100
AcDbEntity
  8
CURVE
100
AcDbLine
 62
250
  6
CONTINUOUS
 10
10.9077307031
 20
14.7523809478
 11
10.896386639
 21
14.7523809478
  0
LINE
  5
7A3
100
AcDbEntity
  8
CURVE
100
AcDbLine
 62
250
  6
CONTINUOUS
 10
10.9286735909
 20
15.0
 11
10.9173295267
 21
15.0
  0
LINE
  5
7A4
100
AcDbEntity
  8
RACCORDO
100
AcDbLine
 62
250
  6
CONTINUOUS
 10
9.7686999252
 20
15.1687951175
 11
10.7686618482
 21
15.1687951167
  0
LINE
  5
7A5
100
AcDbEntity
  8
ASSI
100
AcDbLine
 62
250
  6
CONTINUOUS
 10
9.7686999252
 20
15.1687951175
 11
10.7686618482
 21
15.1687951167
  0
LINE
  5
7A6
100
AcDbEntity
  8
RACCORDO
100
AcDbLine
 62
250
  6
CONTINUOUS
 10
-9.7686999252
 20
15.1687951175
 11
-10.7686618482
 21
15.1687951175
  0
LINE
  5
7A7
100
AcDbEntity
  8
ASSI
100
AcDbLine
 62
250
  6
CONTINUOUS
 10
-9.7686999252
 20
15.1687951175
 11
-10.7686618482
 21
15.1687951175
  0
LWPOLYLINE
  5
7A8
100
AcDbEntity
  8
RACCORDO
100
AcDbPolyline
 62
7
  6
CONTINUOUS
 90
7
 70
0
 10
11.081095101
 20
-16.8330979443
 10
11.1106331752
 20
-16.7631944107
 10
11.1342569023
 20
-16.6934799429
 10
11.1526754872
 20
-16.6228661767
 10
11.1657163328
 20
-16.5518663904
 10
11.1735520362
 20
-16.4799673056
 10
11.1761825974
 20
-16.4071689224
  0
LWPOLYLINE
  5
7A9
100
AcDbEntity
  8
RACCORDO
100
AcDbPolyline
 62
7
  6
CONTINUOUS
 90
4
 70
0
 10
11.0542647023
 20
-16.8900846806
 10
11.0224820238
 20
-16.9518892587
 10
10.9847228377
 20
-17.0139210044
 10
10.942245362
 20
-17.0734954182
  0
LINE
  5
7AA
100
AcDbEntity
  8
0
100
AcDbLine
 62
7
  6
CONTINUOUS
 10
10.9531193446
 20
-12.1975872992
 11
10.9548627999
 21
-12.1958438439
  0
LINE
  5
7AB
100
AcDbEntity
  8
0
100
AcDbLine
 62
7
  6
CONTINUOUS
 10
10.9519794216
 20
-12.4087379362
 11
10.9529604256
 21
-12.4077569322
  0
LINE
  5
7AC
100
AcDbEntity
  8
0
100
AcDbLine
 62
7
  6
CONTINUOUS
 10
10.9516354214
 20
-12.6190926504
 11
10.9524807151
 21
-12.6182473568
  0
LINE
  5
7AD
100
AcDbEntity
  8
0
100
AcDbLine
 62
7
  6
CONTINUOUS
 10
10.9516979164
 20
-12.8290408695
 11
10.9525420471
 21
-12.8281967387
  0
LINE
  5
7AE
100
AcDbEntity
  8
0
100
AcDbLine
 62
7
  6
CONTINUOUS
 10
10.9521999154
 20
-13.0385495845
 11
10.9532036931
 21
-13.0375458067
  0
LINE
  5
7AF
100
AcDbEntity
  8
0
100
AcDbLine
 62
7
  6
CONTINUOUS
 10
10.9536612525
 20
-13.2470989614
 11
10.955845857
 21
-13.2449143568
  0
LINE
  5
7B0
100
AcDbEntity
  8
0
100
AcDbLine
 62
7
  6
CONTINUOUS
 10
10.9668901573
 20
-13.8639021986
 11
10.9677277407
 21
-13.8630646152
  0
LINE
  5
7B1
100
AcDbEntity
  8
0
100
AcDbLine
 62
7
  6
CONTINUOUS
 10
10.9590000508
 20
-13.8717923051
 11
10.9598376342
 21
-13.8709547217
  0
LWPOLYLINE
  5
7B2
100
AcDbEntity
  8
0
100
AcDbPolyline
 62
250
  6
CONTINUOUS
 90
12
 70
0
 10
10.9582947348
 20
-12.0085272007
 10
10.9580375763
 20
-12.0087330309
 10
10.9577803434
 20
-12.0093921219
 10
10.9575231822
 20
-12.0105668744
 10
10.9572662387
 20
-12.0123196891
 10
10.9570096587
 20
-12.0147129665
 10
10.9567535883
 20
-12.0178091073
 10
10.9564981734
 20
-12.0216705122
 10
10.95624356
 20
-12.0263595819
 10
10.9559898939
 20
-12.0319387169
 10
10.9557373213
 20
-12.038470318
 10
10.9553219246
 20
-12.0515419945
  0
LINE
  5
7B3
100
AcDbEntity
  8
0
100
AcDbLine
 62
7
  6
CONTINUOUS
 10
2.15
 20
16.1
 11
1.5
 21
16.1
  0
LINE
  5
7B4
100
AcDbEntity
  8
ASSI
100
AcDbLine
 62
7
  6
CONTINUOUS
 10
2.15
 20
16.1
 11
1.5
 21
16.1
  0
LINE
  5
7B5
100
AcDbEntity
  8
RACCORDO
100
AcDbLine
 62
250
  6
CONTINUOUS
 10
-6.75
 20
16.8066482796
 11
3.25
 21
16.8066482796
  0
LINE
  5
7B6
100
AcDbEntity
  8
ASSI
100
AcDbLine
 62
250
  6
CONTINUOUS
 10
-6.75
 20
16.8066482796
 11
3.25
 21
16.8066482796
  0
LINE
  5
7B7
100
AcDbEntity
  8
RACCORDO
100
AcDbLine
 62
250
  6
CONTINUOUS
 10
-6.25
 20
17.5065416662
 11
2.75
 21
17.5065416662
  0
LINE
  5
7B8
100
AcDbEntity
  8
ASSI
100
AcDbLine
 62
250
  6
CONTINUOUS
 10
-6.25
 20
17.5065416662
 11
2.75
 21
17.5065416662
  0
LWPOLYLINE
  5
7B9
100
AcDbEntity
  8
RACCORDO
100
AcDbPolyline
 62
7
  6
CONTINUOUS
 90
4
 70
0
 10
11.0810951008
 20
16.8330979441
 10
11.0494962188
 20
16.8947927468
 10
11.0119829656
 20
16.9566766545
 10
10.969782338
 20
17.0161214681
  0
LWPOLYLINE
  5
7BA
100
AcDbEntity
  8
RACCORDO
100
AcDbPolyline
 62
7
  6
CONTINUOUS
 90
4
 70
0
 10
10.9697825522
 20
-17.0161211149
 10
11.0119830846
 20
-16.9566764582
 10
11.0494962663
 20
-16.8947926683
 10
11.081095101
 20
-16.8330979443
  0
LINE
  5
7BB
100
AcDbEntity
  8
0
100
AcDbLine
 62
7
  6
CONTINUOUS
 10
10.9668901573
 20
-14.0739129127
 11
10.9677277407
 21
-14.0730753293
  0
LINE
  5
7BC
100
AcDbEntity
  8
0
100
AcDbLine
 62
7
  6
CONTINUOUS
 10
10.9590000508
 20
-14.0818030192
 11
10.9598376342
 21
-14.0809654358
  0
LINE
  5
7BD
100
AcDbEntity
  8
0
100
AcDbLine
 62
7
  6
CONTINUOUS
 10
10.9668901573
 20
-14.2839236267
 11
10.9677277407
 21
-14.2830860433
  0
LINE
  5
7BE
100
AcDbEntity
  8
0
100
AcDbLine
 62
7
  6
CONTINUOUS
 10
10.9590000508
 20
-14.2918137332
 11
10.9598376342
 21
-14.2909761498
  0
LINE
  5
7BF
100
AcDbEntity
  8
0
100
AcDbLine
 62
7
  6
CONTINUOUS
 10
10.9668831621
 20
-14.4939413358
 11
10.9677225256
 21
-14.4931019724
  0
LINE
  5
7C0
100
AcDbEntity
  8
0
100
AcDbLine
 62
7
  6
CONTINUOUS
 10
10.9590240168
 20
-14.5018004811
 11
10.9598543305
 21
-14.5009701674
  0
LINE
  5
7C1
100
AcDbEntity
  8
0
100
AcDbLine
 62
7
  6
CONTINUOUS
 10
10.9664004355
 20
-14.7044347765
 11
10.9674128568
 21
-14.7034223551
  0
LINE
  5
7C2
100
AcDbEntity
  8
0
100
AcDbLine
 62
7
  6
CONTINUOUS
 10
10.9594145525
 20
-14.7114206595
 11
10.9604004613
 21
-14.7104347507
  0
LINE
  5
7C3
100
AcDbEntity
  8
0
100
AcDbLine
 62
7
  6
CONTINUOUS
 10
10.9608256139
 20
-14.9200203121
 11
10.9660364244
 21
-14.9148095016
  0
LWPOLYLINE
  5
7C4
100
AcDbEntity
  8
0
100
AcDbPolyline
 62
250
  6
CONTINUOUS
 90
13
 70
0
 10
10.9633200444
 20
-14.9987326445
 10
10.9634592679
 20
-14.9986012211
 10
10.9635987119
 20
-14.9981915932
 10
10.9637382426
 20
-14.9974807245
 10
10.9638777261
 20
-14.9964455786
 10
10.9640170288
 20
-14.9950631193
 10
10.9641560169
 20
-14.9933103101
 10
10.9642945565
 20
-14.9911641148
 10
10.9644325139
 20
-14.988601497
 10
10.9645697554
 20
-14.9855994203
 10
10.9647061472
 20
-14.9821348484
 10
10.9648415555
 20
-14.978184745
 10
10.9651088865
 20
-14.9687357983
  0
LWPOLYLINE
  5
7C5
100
AcDbEntity
  8
RACCORDO
100
AcDbPolyline
 62
250
  6
CONTINUOUS
 90
25
 70
0
 10
-7.2687951175
 20
17.6686999252
 10
-7.4331475493
 20
17.6632099343
 10
-7.5955118974
 20
17.6472406956
 10
-7.7558881618
 20
17.620792209
 10
-7.9149729791
 20
17.5836635766
 10
-8.0720697128
 20
17.5360556963
 10
-8.2250884532
 20
17.4785712624
 10
-8.3739527448
 20
17.4110811092
 10
-8.5187390432
 20
17.3337144022
 10
-8.6575868052
 20
17.2474613325
 10
-8.7904161069
 20
17.1522080697
 10
-8.9173068721
 20
17.0480684442
 10
-9.0366383295
 20
16.9363741371
 10
-9.1483127501
 20
16.8170294389
 10
-9.2524278627
 20
16.6901300592
 10
-9.3476560821
 20
16.5572948086
 10
-9.433884376
 20
16.4184434472
 10
-9.5112257766
 20
16.273656215
 10
-9.5786917954
 20
16.124792642
 10
-9.6361539725
 20
15.9717663491
 10
-9.6837407678
 20
15.8146637154
 10
-9.7208490716
 20
15.6556034086
 10
-9.7472778475
 20
15.4952916513
 10
-9.763228132
 20
15.3330222209
 10
-9.7686999252
 20
15.1687951175
  0
LWPOLYLINE
  5
7C6
100
AcDbEntity
  8
ASSI
100
AcDbPolyline
 62
250
  6
CONTINUOUS
 90
25
 70
0
 10
-7.2687951175
 20
17.6686999252
 10
-7.4331475493
 20
17.6632099343
 10
-7.5955118974
 20
17.6472406956
 10
-7.7558881618
 20
17.620792209
 10
-7.9149729791
 20
17.5836635766
 10
-8.0720697128
 20
17.5360556963
 10
-8.2250884532
 20
17.4785712624
 10
-8.3739527448
 20
17.4110811092
 10
-8.5187390432
 20
17.3337144022
 10
-8.6575868052
 20
17.2474613325
 10
-8.7904161069
 20
17.1522080697
 10
-8.9173068721
 20
17.0480684442
 10
-9.0366383295
 20
16.9363741371
 10
-9.1483127501
 20
16.8170294389
 10
-9.2524278627
 20
16.6901300592
 10
-9.3476560821
 20
16.5572948086
 10
-9.433884376
 20
16.4184434472
 10
-9.5112257766
 20
16.273656215
 10
-9.5786917954
 20
16.124792642
 10
-9.6361539725
 20
15.9717663491
 10
-9.6837407678
 20
15.8146637154
 10
-9.7208490716
 20
15.6556034086
 10
-9.7472778475
 20
15.4952916513
 10
-9.763228132
 20
15.3330222209
 10
-9.7686999252
 20
15.1687951175
  0
LWPOLYLINE
  5
7C7
100
AcDbEntity
  8
RACCORDO
100
AcDbPolyline
 62
250
  6
CONTINUOUS
 90
25
 70
0
 10
-7.2687951175
 20
18.6686618482
 10
-7.4977454219
 20
18.6611606927
 10
-7.7256952743
 20
18.6387015658
 10
-7.9516688262
 20
18.6013844103
 10
-8.1746892497
 20
18.5493754219
 10
-8.3938127854
 20
18.4828995468
 10
-8.6081308762
 20
18.4022330747
 10
-8.8167389702
 20
18.3077124507
 10
-9.0187285282
 20
18.1997452406
 10
-9.2132209628
 20
18.0788000761
 10
-9.3993789482
 20
17.9453991378
 10
-9.5764111288
 20
17.8001111097
 10
-9.743562279
 20
17.6435562057
 10
-9.9001166601
 20
17.4764047996
 10
-10.0454040795
 20
17.2993725077
 10
-10.1788045238
 20
17.1132143059
 10
-10.2997493658
 20
16.9187213824
 10
-10.4077162912
 20
16.7167311812
 10
-10.5022365638
 20
16.508122451
 10
-10.5829027331
 20
16.2938033974
 10
-10.6493781936
 20
16.0746789045
 10
-10.7013864085
 20
15.8516587799
 10
-10.738702622
 20
15.6256872517
 10
-10.7611609986
 20
15.3977407545
 10
-10.7686618482
 20
15.1687951175
  0
LWPOLYLINE
  5
7C8
100
AcDbEntity
  8
ASSI
100
AcDbPolyline
 62
250
  6
CONTINUOUS
 90
25
 70
0
 10
-7.2687951175
 20
18.6686618482
 10
-7.4977454219
 20
18.6611606927
 10
-7.7256952743
 20
18.6387015658
 10
-7.9516688262
 20
18.6013844103
 10
-8.1746892497
 20
18.5493754219
 10
-8.3938127854
 20
18.4828995468
 10
-8.6081308762
 20
18.4022330747
 10
-8.8167389702
 20
18.3077124507
 10
-9.0187285282
 20
18.1997452406
 10
-9.2132209628
 20
18.0788000761
 10
-9.3993789482
 20
17.9453991378
 10
-9.5764111288
 20
17.8001111097
 10
-9.743562279
 20
17.6435562057
 10
-9.9001166601
 20
17.4764047996
 10
-10.0454040795
 20
17.2993725077
 10
-10.1788045238
 20
17.1132143059
 10
-10.2997493658
 20
16.9187213824
 10
-10.4077162912
 20
16.7167311812
 10
-10.5022365638
 20
16.508122451
 10
-10.5829027331
 20
16.2938033974
 10
-10.6493781936
 20
16.0746789045
 10
-10.7013864085
 20
15.8516587799
 10
-10.738702622
 20
15.6256872517
 10
-10.7611609986
 20
15.3977407545
 10
-10.7686618482
 20
15.1687951175
  0
LWPOLYLINE
  5
7C9
100
AcDbEntity
  8
RACCORDO
100
AcDbPolyline
 62
250
  6
CONTINUOUS
 90
7
 70
0
 10
-5.946000485
 20
18.3110241716
 10
-6.038261204
 20
18.3084885678
 10
-6.1142391726
 20
18.3058920112
 10
-6.1735543022
 20
18.3032672477
 10
-6.2160071093
 20
18.300625193
 10
-6.2415073337
 20
18.2979549315
 10
-6.2499999948
 20
18.2952564632
  0
LWPOLYLINE
  5
7CA
100
AcDbEntity
  8
ASSI
100
AcDbPolyline
 62
250
  6
CONTINUOUS
 90
7
 70
0
 10
-5.946000485
 20
18.3110241716
 10
-6.038261204
 20
18.3084885678
 10
-6.1142391726
 20
18.3058920112
 10
-6.1735543022
 20
18.3032672477
 10
-6.2160071093
 20
18.300625193
 10
-6.2415073337
 20
18.2979549315
 10
-6.2499999948
 20
18.2952564632
  0
LWPOLYLINE
  5
7CB
100
AcDbEntity
  8
RACCORDO
100
AcDbPolyline
 62
250
  6
CONTINUOUS
 90
7
 70
0
 10
-6.4123328246
 20
18.8110026168
 10
-6.5145617972
 20
18.8084666457
 10
-6.5991734464
 20
18.8058697256
 10
-6.6651271532
 20
18.8032452159
 10
-6.7120760446
 20
18.8006042365
 10
-6.7403669935
 20
18.7979356674
 10
-6.75
 20
18.7952395089
  0
LWPOLYLINE
  5
7CC
100
AcDbEntity
  8
ASSI
100
AcDbPolyline
 62
250
  6
CONTINUOUS
 90
7
 70
0
 10
-6.4123328246
 20
18.8110026168
 10
-6.5145617972
 20
18.8084666457
 10
-6.5991734464
 20
18.8058697256
 10
-6.6651271532
 20
18.8032452159
 10
-6.7120760446
 20
18.8006042365
 10
-6.7403669935
 20
18.7979356674
 10
-6.75
 20
18.7952395089
  0
LINE
  5
7CD
100
AcDbEntity
  8
RACCORDO
100
AcDbLine
 62
250
  6
CONTINUOUS
 10
-5.7143379361
 20
18.3159081506
 11
-5.946000485
 21
18.3110241716
  0
LINE
  5
7CE
100
AcDbEntity
  8
ASSI
100
AcDbLine
 62
250
  6
CONTINUOUS
 10
-5.7143379361
 20
18.3159081506
 11
-5.946000485
 21
18.3110241716
  0
LINE
  5
7CF
100
AcDbEntity
  8
RACCORDO
100
AcDbLine
 62
250
  6
CONTINUOUS
 10
-6.1546843724
 20
18.8158869338
 11
-6.4123328246
 21
18.8110026168
  0
LINE
  5
7D0
100
AcDbEntity
  8
ASSI
100
AcDbLine
 62
250
  6
CONTINUOUS
 10
-6.1546843724
 20
18.8158869338
 11
-6.4123328246
 21
18.8110026168
  0
LINE
  5
7D1
100
AcDbEntity
  8
RACCORDO
100
AcDbLine
 62
250
  6
CONTINUOUS
 10
-5.4226693513
 20
18.3204689955
 11
-5.7143379361
 21
18.3159081506
  0
LINE
  5
7D2
100
AcDbEntity
  8
ASSI
100
AcDbLine
 62
250
  6
CONTINUOUS
 10
-5.4226693513
 20
18.3204689955
 11
-5.7143379361
 21
18.3159081506
  0
LINE
  5
7D3
100
AcDbEntity
  8
RACCORDO
100
AcDbLine
 62
250
  6
CONTINUOUS
 10
-5.8310353551
 20
18.8204481359
 11
-6.1546843724
 21
18.8158869338
  0
LINE
  5
7D4
100
AcDbEntity
  8
ASSI
100
AcDbLine
 62
250
  6
CONTINUOUS
 10
-5.8310353551
 20
18.8204481359
 11
-6.1546843724
 21
18.8158869338
  0
LINE
  5
7D5
100
AcDbEntity
  8
RACCORDO
100
AcDbLine
 62
250
  6
CONTINUOUS
 10
-5.0753740732
 20
18.3246565642
 11
-5.4226693513
 21
18.3204689955
  0
LINE
  5
7D6
100
AcDbEntity
  8
ASSI
100
AcDbLine
 62
250
  6
CONTINUOUS
 10
-5.0753740732
 20
18.3246565642
 11
-5.4226693513
 21
18.3204689955
  0
LINE
  5
7D7
100
AcDbEntity
  8
RACCORDO
100
AcDbLine
 62
250
  6
CONTINUOUS
 10
-5.4450122623
 20
18.8246360733
 11
-5.8310353551
 21
18.8204481359
  0
LINE
  5
7D8
100
AcDbEntity
  8
ASSI
100
AcDbLine
 62
250
  6
CONTINUOUS
 10
-5.4450122623
 20
18.8246360733
 11
-5.8310353551
 21
18.8204481359
  0
LINE
  5
7D9
100
AcDbEntity
  8
RACCORDO
100
AcDbLine
 62
250
  6
CONTINUOUS
 10
-4.6776144272
 20
18.3283975576
 11
-5.0753740732
 21
18.3246565642
  0
LINE
  5
7DA
100
AcDbEntity
  8
ASSI
100
AcDbLine
 62
250
  6
CONTINUOUS
 10
-4.6776144272
 20
18.3283975576
 11
-5.0753740732
 21
18.3246565642
  0
LINE
  5
7DB
100
AcDbEntity
  8
RACCORDO
100
AcDbLine
 62
250
  6
CONTINUOUS
 10
-5.0026844972
 20
18.8283774191
 11
-5.4450122623
 21
18.8246360733
  0
LINE
  5
7DC
100
AcDbEntity
  8
ASSI
100
AcDbLine
 62
250
  6
CONTINUOUS
 10
-5.0026844972
 20
18.8283774191
 11
-5.4450122623
 21
18.8246360733
  0
LINE
  5
7DD
100
AcDbEntity
  8
RACCORDO
100
AcDbLine
 62
250
  6
CONTINUOUS
 10
-4.2354720271
 20
18.3316306563
 11
-4.6776144272
 21
18.3283975576
  0
LINE
  5
7DE
100
AcDbEntity
  8
ASSI
100
AcDbLine
 62
250
  6
CONTINUOUS
 10
-4.2354720271
 20
18.3316306563
 11
-4.6776144272
 21
18.3283975576
  0
LINE
  5
7DF
100
AcDbEntity
  8
RACCORDO
100
AcDbLine
 62
250
  6
CONTINUOUS
 10
-4.5120361247
 20
18.8316108429
 11
-5.0026844972
 21
18.8283774191
  0
LINE
  5
7E0
100
AcDbEntity
  8
ASSI
100
AcDbLine
 62
250
  6
CONTINUOUS
 10
-4.5120361247
 20
18.8316108429
 11
-5.0026844972
 21
18.8283774191
  0
LINE
  5
7E1
100
AcDbEntity
  8
RACCORDO
100
AcDbLine
 62
250
  6
CONTINUOUS
 10
-3.755665296
 20
18.3343191613
 11
-4.2354720271
 21
18.3316306563
  0
LINE
  5
7E2
100
AcDbEntity
  8
ASSI
100
AcDbLine
 62
250
  6
CONTINUOUS
 10
-3.755665296
 20
18.3343191613
 11
-4.2354720271
 21
18.3316306563
  0
LINE
  5
7E3
100
AcDbEntity
  8
RACCORDO
100
AcDbLine
 62
250
  6
CONTINUOUS
 10
-3.9786297417
 20
18.8342996354
 11
-4.5120361247
 21
18.8316108429
  0
LINE
  5
7E4
100
AcDbEntity
  8
ASSI
100
AcDbLine
 62
250
  6
CONTINUOUS
 10
-3.9786297417
 20
18.8342996354
 11
-4.5120361247
 21
18.8316108429
  0
LINE
  5
7E5
100
AcDbEntity
  8
RACCORDO
100
AcDbLine
 62
250
  6
CONTINUOUS
 10
-2.9813927804
 20
18.3372274223
 11
-3.755665296
 21
18.3343191613
  0
LINE
  5
7E6
100
AcDbEntity
  8
ASSI
100
AcDbLine
 62
250
  6
CONTINUOUS
 10
-2.9813927804
 20
18.3372274223
 11
-3.755665296
 21
18.3343191613
  0
LINE
  5
7E7
100
AcDbEntity
  8
RACCORDO
100
AcDbLine
 62
250
  6
CONTINUOUS
 10
-3.1182809171
 20
18.8372082191
 11
-3.9786297417
 21
18.8342996354
  0
LINE
  5
7E8
100
AcDbEntity
  8
ASSI
100
AcDbLine
 62
250
  6
CONTINUOUS
 10
-3.1182809171
 20
18.8372082191
 11
-3.9786297417
 21
18.8342996354
  0
LINE
  5
7E9
100
AcDbEntity
  8
RACCORDO
100
AcDbLine
 62
250
  6
CONTINUOUS
 10
-2.1651695991
 20
18.338706784
 11
-2.9813927804
 21
18.3372274223
  0
LINE
  5
7EA
100
AcDbEntity
  8
ASSI
100
AcDbLine
 62
250
  6
CONTINUOUS
 10
-2.1651695991
 20
18.338706784
 11
-2.9813927804
 21
18.3372274223
  0
LINE
  5
7EB
100
AcDbEntity
  8
RACCORDO
100
AcDbLine
 62
250
  6
CONTINUOUS
 10
-2.2113079035
 20
18.8386877388
 11
-3.1182809171
 21
18.8372082191
  0
LINE
  5
7EC
100
AcDbEntity
  8
ASSI
100
AcDbLine
 62
250
  6
CONTINUOUS
 10
-2.2113079035
 20
18.8386877388
 11
-3.1182809171
 21
18.8372082191
  0
LINE
  5
7ED
100
AcDbEntity
  8
RACCORDO
100
AcDbLine
 62
250
  6
CONTINUOUS
 10
2.75
 20
17.6686999252
 11
7.2687951175
 21
17.6686999252
  0
LINE
  5
7EE
100
AcDbEntity
  8
ASSI
100
AcDbLine
 62
250
  6
CONTINUOUS
 10
2.75
 20
17.6686999252
 11
7.2687951175
 21
17.6686999252
  0
LINE
  5
7EF
100
AcDbEntity
  8
RACCORDO
100
AcDbLine
 62
250
  6
CONTINUOUS
 10
-6.25
 20
17.6686999252
 11
-7.2687951175
 21
17.6686999252
  0
LINE
  5
7F0
100
AcDbEntity
  8
ASSI
100
AcDbLine
 62
250
  6
CONTINUOUS
 10
-6.25
 20
17.6686999252
 11
-7.2687951175
 21
17.6686999252
  0
LINE
  5
7F1
100
AcDbEntity
  8
RACCORDO
100
AcDbLine
 62
7
  6
CONTINUOUS
 10
-4.25
 20
17.6778145455
 11
0.75
 21
17.6778145455
  0
LINE
  5
7F2
100
AcDbEntity
  8
ASSI
100
AcDbLine
 62
7
  6
CONTINUOUS
 10
-4.25
 20
17.6778145455
 11
0.75
 21
17.6778145455
  0
LINE
  5
7F3
100
AcDbEntity
  8
ASSI
100
AcDbLine
 62
7
  6
CONTINUOUS
 10
2.75
 20
17.8
 11
-6.25
 21
17.8
  0
LINE
  5
7F4
100
AcDbEntity
  8
RACCORDO
100
AcDbLine
 62
250
  6
CONTINUOUS
 10
7.2687951175
 20
18.6686618482
 11
3.25
 21
18.6686618482
  0
LINE
  5
7F5
100
AcDbEntity
  8
ASSI
100
AcDbLine
 62
250
  6
CONTINUOUS
 10
7.2687951175
 20
18.6686618482
 11
3.25
 21
18.6686618482
  0
LINE
  5
7F6
100
AcDbEntity
  8
RACCORDO
100
AcDbLine
 62
250
  6
CONTINUOUS
 10
-6.75
 20
18.6686618482
 11
-7.2687951175
 21
18.6686618482
  0
LINE
  5
7F7
100
AcDbEntity
  8
ASSI
100
AcDbLine
 62
250
  6
CONTINUOUS
 10
-6.75
 20
18.6686618482
 11
-7.2687951175
 21
18.6686618482
  0
LINE
  5
7F8
100
AcDbEntity
  8
RACCORDO
100
AcDbLine
 62
7
  6
CONTINUOUS
 10
-1.5
 20
18.8590446123
 11
1.5
 21
18.8590446123
  0
LINE
  5
7F9
100
AcDbEntity
  8
ASSI
100
AcDbLine
 62
7
  6
CONTINUOUS
 10
-1.5
 20
18.8590446123
 11
1.5
 21
18.8590446123
  0
LINE
  5
7FA
100
AcDbEntity
  8
DRAFT
100
AcDbLine
 62
7
  6
CONTINUOUS
 10
-4.5
 20
18.8834189512
 11
-2.5
 21
18.8834189512
  0
LINE
  5
7FB
100
AcDbEntity
  8
ASSI
100
AcDbLine
 62
7
  6
CONTINUOUS
 10
-4.5
 20
18.8834189512
 11
-2.5
 21
18.8834189512
  0
LINE
  5
7FC
100
AcDbEntity
  8
DRAFT
100
AcDbLine
 62
7
  6
CONTINUOUS
 10
2.5
 20
18.8834189512
 11
4.5
 21
18.8834189512
  0
LINE
  5
7FD
100
AcDbEntity
  8
ASSI
100
AcDbLine
 62
7
  6
CONTINUOUS
 10
2.5
 20
18.8834189512
 11
4.5
 21
18.8834189512
  0
LINE
  5
7FE
100
AcDbEntity
  8
ASSI
100
AcDbLine
 62
7
  6
CONTINUOUS
 10
-7.5001332693
 20
18.9
 11
-7.0568068837
 21
18.9
  0
LINE
  5
7FF
100
AcDbEntity
  8
ASSI
100
AcDbLine
 62
7
  6
CONTINUOUS
 10
7.5001332693
 20
18.9
 11
7.0568068837
 21
18.9
  0
LINE
  5
800
100
AcDbEntity
  8
ASSI
100
AcDbLine
 62
7
  6
CONTINUOUS
 10
-6.3813353714
 20
18.9
 11
-4.5
 21
18.9
  0
LINE
  5
801
100
AcDbEntity
  8
ASSI
100
AcDbLine
 62
7
  6
CONTINUOUS
 10
6.3813353714
 20
18.9
 11
4.5
 21
18.9
  0
LINE
  5
802
100
AcDbEntity
  8
RACCORDO
100
AcDbLine
 62
7
  6
CONTINUOUS
 10
4.5
 20
18.9
 11
7.5001332693
 21
18.9
  0
LINE
  5
803
100
AcDbEntity
  8
RACCORDO
100
AcDbLine
 62
7
  6
CONTINUOUS
 10
-4.5
 20
18.9
 11
-7.5001332693
 21
18.9
  0
LINE
  5
804
100
AcDbEntity
  8
RACCORDO
100
AcDbLine
 62
7
  6
CONTINUOUS
 10
-6.0984926589
 20
19.1
 11
6.0984926589
 21
19.1
  0
LINE
  5
805
100
AcDbEntity
  8
RACCORDO
100
AcDbLine
 62
250
  6
CONTINUOUS
 10
7.2189575692
 20
19.2
 11
7.5226756989
 21
19.2
  0
LINE
  5
806
100
AcDbEntity
  8
RACCORDO
100
AcDbLine
 62
250
  6
CONTINUOUS
 10
-7.2189575692
 20
19.2
 11
-7.5226756989
 21
19.2
  0
LINE
  5
807
100
AcDbEntity
  8
RACCORDO
100
AcDbLine
 62
250
  6
CONTINUOUS
 10
-1.2886475503
 20
18.8386877026
 11
-2.2113079035
 21
18.8386877388
  0
LINE
  5
808
100
AcDbEntity
  8
ASSI
100
AcDbLine
 62
250
  6
CONTINUOUS
 10
-1.2886475503
 20
18.8386877026
 11
-2.2113079035
 21
18.8386877388
  0
LINE
  5
809
100
AcDbEntity
  8
RACCORDO
100
AcDbLine
 62
250
  6
CONTINUOUS
 10
-1.334830912
 20
18.338706784
 11
-2.1651695991
 21
18.338706784
  0
LINE
  5
80A
100
AcDbEntity
  8
ASSI
100
AcDbLine
 62
250
  6
CONTINUOUS
 10
-1.334830912
 20
18.338706784
 11
-2.1651695991
 21
18.338706784
  0
LINE
  5
80B
100
AcDbEntity
  8
RACCORDO
100
AcDbLine
 62
250
  6
CONTINUOUS
 10
-0.3816791248
 20
18.8372081192
 11
-1.2886475503
 21
18.8386877026
  0
LINE
  5
80C
100
AcDbEntity
  8
ASSI
100
AcDbLine
 62
250
  6
CONTINUOUS
 10
-0.3816791248
 20
18.8372081192
 11
-1.2886475503
 21
18.8386877026
  0
LINE
  5
80D
100
AcDbEntity
  8
RACCORDO
100
AcDbLine
 62
250
  6
CONTINUOUS
 10
-0.5186076859
 20
18.3372274225
 11
-1.334830912
 21
18.338706784
  0
LINE
  5
80E
100
AcDbEntity
  8
ASSI
100
AcDbLine
 62
250
  6
CONTINUOUS
 10
-0.5186076859
 20
18.3372274225
 11
-1.334830912
 21
18.338706784
  0
LINE
  5
80F
100
AcDbEntity
  8
RACCORDO
100
AcDbLine
 62
250
  6
CONTINUOUS
 10
0.4786640989
 20
18.8342994849
 11
-0.3816791248
 21
18.8372081192
  0
LINE
  5
810
100
AcDbEntity
  8
ASSI
100
AcDbLine
 62
250
  6
CONTINUOUS
 10
0.4786640989
 20
18.8342994849
 11
-0.3816791248
 21
18.8372081192
  0
LINE
  5
811
100
AcDbEntity
  8
RACCORDO
100
AcDbLine
 62
250
  6
CONTINUOUS
 10
0.2556648675
 20
18.3343191616
 11
-0.5186076859
 21
18.3372274225
  0
LINE
  5
812
100
AcDbEntity
  8
ASSI
100
AcDbLine
 62
250
  6
CONTINUOUS
 10
0.2556648675
 20
18.3343191616
 11
-0.5186076859
 21
18.3372274225
  0
LINE
  5
813
100
AcDbEntity
  8
RACCORDO
100
AcDbLine
 62
250
  6
CONTINUOUS
 10
1.2631524193
 20
18.8300605952
 11
0.4786640989
 21
18.8342994849
  0
LINE
  5
814
100
AcDbEntity
  8
ASSI
100
AcDbLine
 62
250
  6
CONTINUOUS
 10
1.2631524193
 20
18.8300605952
 11
0.4786640989
 21
18.8342994849
  0
LINE
  5
815
100
AcDbEntity
  8
RACCORDO
100
AcDbLine
 62
250
  6
CONTINUOUS
 10
0.9616834447
 20
18.3300807551
 11
0.2556648675
 21
18.3343191616
  0
LINE
  5
816
100
AcDbEntity
  8
ASSI
100
AcDbLine
 62
250
  6
CONTINUOUS
 10
0.9616834447
 20
18.3300807551
 11
0.2556648675
 21
18.3343191616
  0
LINE
  5
817
100
AcDbEntity
  8
RACCORDO
100
AcDbLine
 62
250
  6
CONTINUOUS
 10
1.7308677432
 20
18.8265620901
 11
1.2631524193
 21
18.8300605952
  0
LINE
  5
818
100
AcDbEntity
  8
ASSI
100
AcDbLine
 62
250
  6
CONTINUOUS
 10
1.7308677432
 20
18.8265620901
 11
1.2631524193
 21
18.8300605952
  0
LINE
  5
819
100
AcDbEntity
  8
RACCORDO
100
AcDbLine
 62
250
  6
CONTINUOUS
 10
1.3824403665
 20
18.3265826079
 11
0.9616834447
 21
18.3300807551
  0
LINE
  5
81A
100
AcDbEntity
  8
ASSI
100
AcDbLine
 62
250
  6
CONTINUOUS
 10
1.3824403665
 20
18.3265826079
 11
0.9616834447
 21
18.3300807551
  0
LINE
  5
81B
100
AcDbEntity
  8
RACCORDO
100
AcDbLine
 62
250
  6
CONTINUOUS
 10
2.1450391034
 20
18.8225974349
 11
1.7308677432
 21
18.8265620901
  0
LINE
  5
81C
100
AcDbEntity
  8
ASSI
100
AcDbLine
 62
250
  6
CONTINUOUS
 10
2.1450391034
 20
18.8225974349
 11
1.7308677432
 21
18.8265620901
  0
LINE
  5
81D
100
AcDbEntity
  8
RACCORDO
100
AcDbLine
 62
250
  6
CONTINUOUS
 10
1.7556727186
 20
18.3226183244
 11
1.3824403665
 21
18.3265826079
  0
LINE
  5
81E
100
AcDbEntity
  8
ASSI
100
AcDbLine
 62
250
  6
CONTINUOUS
 10
1.7556727186
 20
18.3226183244
 11
1.3824403665
 21
18.3265826079
  0
LINE
  5
81F
100
AcDbEntity
  8
RACCORDO
100
AcDbLine
 62
250
  6
CONTINUOUS
 10
2.5009981129
 20
18.8182112559
 11
2.1450391034
 21
18.8225974349
  0
LINE
  5
820
100
AcDbEntity
  8
ASSI
100
AcDbLine
 62
250
  6
CONTINUOUS
 10
2.5009981129
 20
18.8182112559
 11
2.1450391034
 21
18.8225974349
  0
LINE
  5
821
100
AcDbEntity
  8
RACCORDO
100
AcDbLine
 62
250
  6
CONTINUOUS
 10
2.0757559776
 20
18.318232519
 11
1.7556727186
 21
18.3226183244
  0
LINE
  5
822
100
AcDbEntity
  8
ASSI
100
AcDbLine
 62
250
  6
CONTINUOUS
 10
2.0757559776
 20
18.318232519
 11
1.7556727186
 21
18.3226183244
  0
LWPOLYLINE
  5
823
100
AcDbEntity
  8
RACCORDO
100
AcDbPolyline
 62
250
  6
CONTINUOUS
 90
9
 70
0
 10
3.25
 20
18.7952395089
 10
3.2403679778
 20
18.7979356067
 10
3.212078098
 20
18.8006041277
 10
3.1651303609
 20
18.8032450719
 10
3.0991777594
 20
18.8058695642
 10
3.0145673005
 20
18.8084664797
 10
2.9123400044
 20
18.8110024441
 10
2.7923269709
 20
18.8134750602
 10
2.5009981129
 20
18.8182112559
  0
LWPOLYLINE
  5
824
100
AcDbEntity
  8
ASSI
100
AcDbPolyline
 62
250
  6
CONTINUOUS
 90
9
 70
0
 10
3.25
 20
18.7952395089
 10
3.2403679778
 20
18.7979356067
 10
3.212078098
 20
18.8006041277
 10
3.1651303609
 20
18.8032450719
 10
3.0991777594
 20
18.8058695642
 10
3.0145673005
 20
18.8084664797
 10
2.9123400044
 20
18.8110024441
 10
2.7923269709
 20
18.8134750602
 10
2.5009981129
 20
18.8182112559
  0
LWPOLYLINE
  5
825
100
AcDbEntity
  8
RACCORDO
100
AcDbPolyline
 62
250
  6
CONTINUOUS
 90
9
 70
0
 10
2.7499999945
 20
18.2952564034
 10
2.7415073493
 20
18.2979549284
 10
2.7160066055
 20
18.3006252312
 10
2.6735530403
 20
18.3032673118
 10
2.6142373013
 20
18.3058920816
 10
2.5382591166
 20
18.3084886292
 10
2.4459984486
 20
18.3110242201
 10
2.3378957496
 20
18.3134966707
 10
2.0757559776
 20
18.318232519
  0
LWPOLYLINE
  5
826
100
AcDbEntity
  8
ASSI
100
AcDbPolyline
 62
250
  6
CONTINUOUS
 90
9
 70
0
 10
2.7499999945
 20
18.2952564034
 10
2.7415073493
 20
18.2979549284
 10
2.7160066055
 20
18.3006252312
 10
2.6735530403
 20
18.3032673118
 10
2.6142373013
 20
18.3058920816
 10
2.5382591166
 20
18.3084886292
 10
2.4459984486
 20
18.3110242201
 10
2.3378957496
 20
18.3134966707
 10
2.0757559776
 20
18.318232519
  0
LWPOLYLINE
  5
827
100
AcDbEntity
  8
RACCORDO
100
AcDbPolyline
 62
7
  6
CONTINUOUS
 90
4
 70
0
 10
10.942245362
 20
17.0734954182
 10
10.9847228377
 20
17.0139210044
 10
11.0224820238
 20
16.9518892587
 10
11.0542647023
 20
16.8900846805
  0
LINE
  5
828
100
AcDbEntity
  8
DRAFT
100
AcDbLine
 62
7
  6
CONTINUOUS
 10
7.3830351795
 20
-20.9
 11
7.5226756989
 21
-20.7603594806
  0
LWPOLYLINE
  5
829
100
AcDbEntity
  8
RACCORDO
100
AcDbPolyline
 62
7
  6
CONTINUOUS
 90
18
 70
0
 10
10.0017927407
 20
-18.2307790647
 10
9.9819535666
 20
-18.250575499
 10
9.9605837291
 20
-18.2670930656
 10
9.937683228
 20
-18.2803317644
 10
9.91279976
 20
-18.2903946445
 10
9.8863856284
 20
-18.2971786568
 10
9.8597977437
 20
-18.3003746549
 10
9.8330135152
 20
-18.2998059669
 10
9.8060555336
 20
-18.2956492647
 10
9.7803484811
 20
-18.2881254173
 10
9.7559583667
 20
-18.2770509588
 10
9.7328191815
 20
-18.2626093552
 10
9.7121575814
 20
-18.2455718735
 10
9.6941109919
 20
-18.2258160842
 10
9.6785419876
 20
-18.2034644168
 10
9.6662649482
 20
-18.1796554267
 10
9.6575513338
 20
-18.1547686321
 10
9.6575274152
 20
-18.1546524101
  0
LINE
  5
82A
100
AcDbEntity
  8
DRAFT
100
AcDbLine
 62
7
  6
CONTINUOUS
 10
3.434596365
 20
21.2139629885
 11
3.1516814075
 21
21.199923836
  0
LINE
  5
82B
100
AcDbEntity
  8
DRAFT
100
AcDbLine
 62
7
  6
CONTINUOUS
 10
2.700388948
 20
21.1802222394
 11
3.0984611006
 21
21.199923836
  0
LINE
  5
82C
100
AcDbEntity
  8
DRAFT
100
AcDbLine
 62
7
  6
CONTINUOUS
 10
-7.2084845302
 20
19.8
 11
7.2084845302
 21
19.8
  0
LINE
  5
82D
100
AcDbEntity
  8
DRAFT
100
AcDbLine
 62
7
  6
CONTINUOUS
 10
7.2084845302
 20
19.9483339502
 11
-7.2084845302
 21
19.9483339502
  0
LINE
  5
82E
100
AcDbEntity
  8
DRAFT
100
AcDbLine
 62
7
  6
CONTINUOUS
 10
9.5103594806
 20
20.7603594806
 11
7.5226756989
 21
20.7603594806
  0
LINE
  5
82F
100
AcDbEntity
  8
DRAFT
100
AcDbLine
 62
7
  6
CONTINUOUS
 10
-7.5226756989
 20
20.7603594806
 11
-9.5103594806
 21
20.7603594806
  0
LINE
  5
830
100
AcDbEntity
  8
DRAFT
100
AcDbLine
 62
7
  6
CONTINUOUS
 10
9.65
 20
20.9
 11
7.3830351795
 21
20.9
  0
LINE
  5
831
100
AcDbEntity
  8
DRAFT
100
AcDbLine
 62
7
  6
CONTINUOUS
 10
-7.3830351795
 20
20.9
 11
-9.65
 21
20.9
  0
LINE
  5
832
100
AcDbEntity
  8
DRAFT
100
AcDbLine
 62
7
  6
CONTINUOUS
 10
-3.434596365
 20
21.2139629885
 11
-3.1516814075
 21
21.199923836
  0
LINE
  5
833
100
AcDbEntity
  8
DRAFT
100
AcDbLine
 62
7
  6
CONTINUOUS
 10
-3.0984611006
 20
21.199923836
 11
-2.700388948
 21
21.1802222394
  0
LINE
  5
834
100
AcDbEntity
  8
DRAFT
100
AcDbLine
 62
7
  6
CONTINUOUS
 10
7.5226756989
 20
20.7603594806
 11
7.3830351795
 21
20.9
  0
LWPOLYLINE
  5
835
100
AcDbEntity
  8
RACCORDO
100
AcDbPolyline
 62
7
  6
CONTINUOUS
 90
17
 70
0
 10
10.0282352926
 20
18.1797639505
 10
10.0084115562
 20
18.1996191174
 10
9.9870503938
 20
18.2161913638
 10
9.9641518054
 20
18.2294806897
 10
9.939262672
 20
18.2395906111
 10
9.9128361126
 20
18.2464176121
 10
9.886231484
 20
18.2496511448
 10
9.8594260199
 20
18.2491143678
 10
9.8324424866
 20
18.2449841225
 10
9.8067085406
 20
18.2374803858
 10
9.7822900256
 20
18.2264191439
 10
9.7591210978
 20
18.2119844105
 10
9.7384318821
 20
18.1949482035
 10
9.720360131
 20
18.1751875753
 10
9.704768092
 20
18.1528254734
 10
9.6924726323
 20
18.1290027592
 10
9.6916482577
 20
18.1266502444
  0
LINE
  5
836
100
AcDbEntity
  8
DRAFT
100
AcDbLine
 62
7
  6
CONTINUOUS
 10
3.0
 20
23.5
 11
2.7812783412
 21
23.4563623377
  0
LINE
  5
837
100
AcDbEntity
  8
DRAFT
100
AcDbLine
 62
7
  6
CONTINUOUS
 10
3.0104834329
 20
22.1955695989
 11
3.1
 21
22.2
  0
LINE
  5
838
100
AcDbEntity
  8
DRAFT
100
AcDbLine
 62
7
  6
CONTINUOUS
 10
-6.9587505924
 20
21.1802222394
 11
-2.700388948
 21
21.1802222394
  0
LINE
  5
839
100
AcDbEntity
  8
DRAFT
100
AcDbLine
 62
7
  6
CONTINUOUS
 10
2.700388948
 20
21.1802222394
 11
6.9587505924
 21
21.1802222394
  0
LINE
  5
83A
100
AcDbEntity
  8
DRAFT
100
AcDbLine
 62
7
  6
CONTINUOUS
 10
3.1516814075
 20
21.199923836
 11
3.0984611006
 21
21.199923836
  0
LINE
  5
83B
100
AcDbEntity
  8
DRAFT
100
AcDbLine
 62
7
  6
CONTINUOUS
 10
-3.0984611006
 20
21.199923836
 11
-3.1516814075
 21
21.199923836
  0
LINE
  5
83C
100
AcDbEntity
  8
DRAFT
100
AcDbLine
 62
7
  6
CONTINUOUS
 10
-6.9712561167
 20
21.2139629885
 11
-3.434596365
 21
21.2139629885
  0
LINE
  5
83D
100
AcDbEntity
  8
DRAFT
100
AcDbLine
 62
7
  6
CONTINUOUS
 10
3.434596365
 20
21.2139629885
 11
6.9712561167
 21
21.2139629885
  0
LINE
  5
83E
100
AcDbEntity
  8
DRAFT
100
AcDbLine
 62
7
  6
CONTINUOUS
 10
3.0104834329
 20
22.1955695989
 11
-3.0104834329
 21
22.1955695989
  0
LINE
  5
83F
100
AcDbEntity
  8
DRAFT
100
AcDbLine
 62
7
  6
CONTINUOUS
 10
3.3821231691
 20
22.2
 11
-3.3821231691
 21
22.2
  0
LINE
  5
840
100
AcDbEntity
  8
DRAFT
100
AcDbLine
 62
7
  6
CONTINUOUS
 10
10.6503805997
 20
22.4
 11
5.55
 21
22.4
  0
LINE
  5
841
100
AcDbEntity
  8
DRAFT
100
AcDbLine
 62
7
  6
CONTINUOUS
 10
-5.55
 20
22.4
 11
-10.6503805997
 21
22.4
  0
LINE
  5
842
100
AcDbEntity
  8
DRAFT
100
AcDbLine
 62
7
  6
CONTINUOUS
 10
-3.1
 20
22.2
 11
-3.0104834329
 21
22.1955695989
  0
LINE
  5
843
100
AcDbEntity
  8
DRAFT
100
AcDbLine
 62
7
  6
CONTINUOUS
 10
-3.0
 20
23.5
 11
-2.7812783412
 21
23.4563623377
  0
LINE
  5
844
100
AcDbEntity
  8
DRAFT
100
AcDbLine
 62
7
  6
CONTINUOUS
 10
4.0167310674
 20
23.4301797403
 11
-4.0167310674
 21
23.4301797403
  0
LINE
  5
845
100
AcDbEntity
  8
DRAFT
100
AcDbLine
 62
7
  6
CONTINUOUS
 10
-2.7812783412
 20
23.4563623377
 11
2.7812783412
 21
23.4563623377
  0
LINE
  5
846
100
AcDbEntity
  8
DRAFT
100
AcDbLine
 62
7
  6
CONTINUOUS
 10
3.9733373476
 20
23.5
 11
3.0
 21
23.5
  0
LINE
  5
847
100
AcDbEntity
  8
DRAFT
100
AcDbLine
 62
7
  6
CONTINUOUS
 10
-3.0
 20
23.5
 11
-3.9733373476
 21
23.5
  0
ARC
  5
848
100
AcDbEntity
  8
DRAFT
100
AcDbCircle
 62
7
  6
CONTINUOUS
 10
-4.95
 20
-23.1
 40
0.5
100
AcDbArc
 50
350.803718421
 51
119.112422776
  0
ARC
  5
849
100
AcDbEntity
  8
RACCORDO
100
AcDbCircle
 62
7
  6
CONTINUOUS
 10
-6.3813353714
 20
-19.2
 40
0.3
100
AcDbArc
 50
19.4712206345
 51
90.0
  0
ARC
  5
84A
100
AcDbEntity
  8
ASSI
100
AcDbCircle
 62
7
  6
CONTINUOUS
 10
-7.803659
 20
-3.688954
 40
0.6287074522
100
AcDbArc
 50
202.8428566081
 51
359.9987091929
  0
ARC
  5
84B
100
AcDbEntity
  8
ASSI
100
AcDbCircle
 62
7
  6
CONTINUOUS
 10
-7.803659
 20
-3.632045
 40
0.249439
100
AcDbArc
 50
180.0010063792
 51
0.0010063711
  0
CIRCLE
  5
84C
100
AcDbEntity
  8
ASSI
100
AcDbCircle
 62
7
  6
CONTINUOUS
 10
-1.75
 20
-14.0
 40
2.7
  0
ARC
  5
84D
100
AcDbEntity
  8
RACCORDO
100
AcDbCircle
 62
250
  6
CONTINUOUS
 10
-3.75
 20
-4.0
 40
2.8256163068
100
AcDbArc
 50
13.2851587067
 51
346.7148412933
  0
ARC
  5
84E
100
AcDbEntity
  8
ASSI
100
AcDbCircle
 62
250
  6
CONTINUOUS
 10
-3.75
 20
-4.0
 40
2.8256163068
100
AcDbArc
 50
13.2851587067
 51
346.7148412933
  0
CIRCLE
  5
84F
100
AcDbEntity
  8
RACCORDO
100
AcDbCircle
 62
250
  6
CONTINUOUS
 10
-3.75
 20
-4.0
 40
2.3275206122
  0
CIRCLE
  5
850
100
AcDbEntity
  8
ASSI
100
AcDbCircle
 62
250
  6
CONTINUOUS
 10
-3.75
 20
-4.0
 40
2.3275206122
  0
CIRCLE
  5
851
100
AcDbEntity
  8
DRAFT
100
AcDbCircle
 62
7
  6
CONTINUOUS
 10
-3.75
 20
-4.0
 40
2.0
  0
CIRCLE
  5
852
100
AcDbEntity
  8
ASSI
100
AcDbCircle
 62
7
  6
CONTINUOUS
 10
-3.75
 20
-4.0
 40
2.0
  0
ARC
  5
853
100
AcDbEntity
  8
0
100
AcDbCircle
 62
7
  6
CONTINUOUS
 10
-3.6
 20
-4.0
 40
1.7623474228
100
AcDbArc
 50
349.6235660404
 51
10.3764339596
  0
ARC
  5
854
100
AcDbEntity
  8
0
100
AcDbCircle
 62
7
  6
CONTINUOUS
 10
-3.6
 20
-4.0
 40
1.7623474228
100
AcDbArc
 50
169.6235660404
 51
190.3764339596
  0
ARC
  5
855
100
AcDbEntity
  8
0
100
AcDbCircle
 62
7
  6
CONTINUOUS
 10
-3.6
 20
-4.0
 40
1.3724437874
100
AcDbArc
 50
76.39116681
 51
103.60883319
  0
ARC
  5
856
100
AcDbEntity
  8
0
100
AcDbCircle
 62
7
  6
CONTINUOUS
 10
-3.6
 20
-4.0
 40
1.3724437874
100
AcDbArc
 50
256.39116681
 51
283.60883319
  0
ARC
  5
857
100
AcDbEntity
  8
0
100
AcDbCircle
 62
7
  6
CONTINUOUS
 10
-3.6
 20
-4.0
 40
1.145
100
AcDbArc
 50
162.2011101962
 51
197.7988898038
  0
ARC
  5
858
100
AcDbEntity
  8
0
100
AcDbCircle
 62
7
  6
CONTINUOUS
 10
-3.6
 20
-4.0
 40
1.145
100
AcDbArc
 50
72.2011101962
 51
107.7988898038
  0
ARC
  5
859
100
AcDbEntity
  8
0
100
AcDbCircle
 62
7
  6
CONTINUOUS
 10
-3.6
 20
-4.0
 40
1.145
100
AcDbArc
 50
342.2011101962
 51
17.7988898038
  0
ARC
  5
85A
100
AcDbEntity
  8
0
100
AcDbCircle
 62
7
  6
CONTINUOUS
 10
-3.6
 20
-4.0
 40
1.145
100
AcDbArc
 50
252.2011101962
 51
287.7988898038
  0
ARC
  5
85B
100
AcDbEntity
  8
0
100
AcDbCircle
 62
7
  6
CONTINUOUS
 10
-1.75
 20
-13.25
 40
3.0
100
AcDbArc
 50
210.4019822434
 51
329.5980177566
  0
ARC
  5
85C
100
AcDbEntity
  8
0
100
AcDbCircle
 62
7
  6
CONTINUOUS
 10
-1.75
 20
-13.25
 40
2.5
100
AcDbArc
 50
172.7488000359
 51
7.2511999641
  0
ARC
  5
85D
100
AcDbEntity
  8
0
100
AcDbCircle
 62
7
  6
CONTINUOUS
 10
-1.75
 20
-13.25
 40
2.4562556682
100
AcDbArc
 50
258.2546747001
 51
281.7453252999
  0
ARC
  5
85E
100
AcDbEntity
  8
RACCORDO
100
AcDbCircle
 62
250
  6
CONTINUOUS
 10
-1.75
 20
-13.25
 40
2.3847397095
100
AcDbArc
 50
282.1028083194
 51
16.7821238122
  0
ARC
  5
85F
100
AcDbEntity
  8
RACCORDO
100
AcDbCircle
 62
250
  6
CONTINUOUS
 10
-1.75
 20
-13.25
 40
2.3847397095
100
AcDbArc
 50
163.2188602534
 51
257.8971916806
  0
ARC
  5
860
100
AcDbEntity
  8
RACCORDO
100
AcDbCircle
 62
250
  6
CONTINUOUS
 10
-1.75
 20
-13.25
 40
2.1855007699
100
AcDbArc
 50
103.2254928009
 51
256.7745056191
  0
ARC
  5
861
100
AcDbEntity
  8
RACCORDO
100
AcDbCircle
 62
250
  6
CONTINUOUS
 10
-1.75
 20
-13.25
 40
2.1855007699
100
AcDbArc
 50
283.2254928009
 51
76.7745056191
  0
ARC
  5
862
100
AcDbEntity
  8
0
100
AcDbCircle
 62
7
  6
CONTINUOUS
 10
-1.75
 20
-13.25
 40
1.145
100
AcDbArc
 50
356.3637942714
 51
3.6362057286
  0
ARC
  5
863
100
AcDbEntity
  8
0
100
AcDbCircle
 62
7
  6
CONTINUOUS
 10
-1.75
 20
-13.25
 40
1.145
100
AcDbArc
 50
176.3637942714
 51
183.6362057286
  0
ARC
  5
864
100
AcDbEntity
  8
0
100
AcDbCircle
 62
7
  6
CONTINUOUS
 10
-1.75
 20
-13.25
 40
1.145
100
AcDbArc
 50
86.3637942714
 51
93.6362057286
  0
ARC
  5
865
100
AcDbEntity
  8
0
100
AcDbCircle
 62
7
  6
CONTINUOUS
 10
-1.75
 20
-13.25
 40
1.145
100
AcDbArc
 50
266.3637942714
 51
273.6362057286
  0
ARC
  5
866
100
AcDbEntity
  8
RACCORDO
100
AcDbCircle
 62
250
  6
CONTINUOUS
 10
-1.0
 20
-8.5
 40
1.4999901081
100
AcDbArc
 50
270.0
 51
360.0
  0
ARC
  5
867
100
AcDbEntity
  8
ASSI
100
AcDbCircle
 62
250
  6
CONTINUOUS
 10
-1.0
 20
-8.5
 40
1.4999901081
100
AcDbArc
 50
270.0
 51
360.0
  0
ARC
  5
868
100
AcDbEntity
  8
RACCORDO
100
AcDbCircle
 62
7
  6
CONTINUOUS
 10
-1.0
 20
-8.5
 40
0.5
100
AcDbArc
 50
270.0
 51
360.0
  0
ARC
  5
869
100
AcDbEntity
  8
ASSI
100
AcDbCircle
 62
7
  6
CONTINUOUS
 10
-1.0
 20
-8.5
 40
0.5
100
AcDbArc
 50
270.0
 51
360.0
  0
ARC
  5
86A
100
AcDbEntity
  8
DRAFT
100
AcDbCircle
 62
7
  6
CONTINUOUS
 10
-11.25
 20
0.0
 40
28.0
100
AcDbArc
 50
302.9352304972
 51
304.1210936517
  0
ARC
  5
86B
100
AcDbEntity
  8
DRAFT
100
AcDbCircle
 62
7
  6
CONTINUOUS
 10
-11.25
 20
0.0
 40
28.0
100
AcDbArc
 50
55.8789063483
 51
57.0647695028
  0
ARC
  5
86C
100
AcDbEntity
  8
RACCORDO
100
AcDbCircle
 62
7
  6
CONTINUOUS
 10
-11.25
 20
0.0
 40
28.0
100
AcDbArc
 50
37.5727075882
 51
40.6245321462
  0
ARC
  5
86D
100
AcDbEntity
  8
DRAFT
100
AcDbCircle
 62
7
  6
CONTINUOUS
 10
-11.25
 20
0.0
 40
28.0
100
AcDbArc
 50
48.2819495688
 51
54.0372348486
  0
ARC
  5
86E
100
AcDbEntity
  8
RACCORDO
100
AcDbCircle
 62
7
  6
CONTINUOUS
 10
-11.25
 20
0.0
 40
28.0
100
AcDbArc
 50
319.3754678538
 51
322.4272924118
  0
ARC
  5
86F
100
AcDbEntity
  8
DRAFT
100
AcDbCircle
 62
7
  6
CONTINUOUS
 10
-11.25
 20
0.0
 40
28.0
100
AcDbArc
 50
305.9627651514
 51
311.7180504312
  0
ARC
  5
870
100
AcDbEntity
  8
RACCORDO
100
AcDbCircle
 62
7
  6
CONTINUOUS
 10
-11.25
 20
0.0
 40
27.9869096983
100
AcDbArc
 50
37.4452371882
 51
40.5100162577
  0
ARC
  5
871
100
AcDbEntity
  8
RACCORDO
100
AcDbCircle
 62
7
  6
CONTINUOUS
 10
-11.25
 20
0.0
 40
27.9869096983
100
AcDbArc
 50
319.4899837423
 51
322.5547636525
  0
ARC
  5
872
100
AcDbEntity
  8
DRAFT
100
AcDbCircle
 62
7
  6
CONTINUOUS
 10
-11.25
 20
0.0
 40
27.9650925288
100
AcDbArc
 50
305.9260441375
 51
310.6601881301
  0
ARC
  5
873
100
AcDbEntity
  8
DRAFT
100
AcDbCircle
 62
7
  6
CONTINUOUS
 10
-11.25
 20
0.0
 40
27.9650925288
100
AcDbArc
 50
303.0876235249
 51
304.1578146656
  0
ARC
  5
874
100
AcDbEntity
  8
DRAFT
100
AcDbCircle
 62
7
  6
CONTINUOUS
 10
-11.25
 20
0.0
 40
27.9650925288
100
AcDbArc
 50
49.3398118699
 51
54.0739558625
  0
ARC
  5
875
100
AcDbEntity
  8
DRAFT
100
AcDbCircle
 62
7
  6
CONTINUOUS
 10
-11.25
 20
0.0
 40
27.9650925288
100
AcDbArc
 50
55.8421853344
 51
56.9123764751
  0
ARC
  5
876
100
AcDbEntity
  8
RACCORDO
100
AcDbCircle
 62
7
  6
CONTINUOUS
 10
-6.3813353714
 20
19.2
 40
0.3
100
AcDbArc
 50
270.0
 51
340.5287793655
  0
ARC
  5
877
100
AcDbEntity
  8
RACCORDO
100
AcDbCircle
 62
250
  6
CONTINUOUS
 10
-3.75
 20
4.0
 40
2.8256163068
100
AcDbArc
 50
13.2851587067
 51
346.7148412933
  0
ARC
  5
878
100
AcDbEntity
  8
ASSI
100
AcDbCircle
 62
250
  6
CONTINUOUS
 10
-3.75
 20
4.0
 40
2.8256163068
100
AcDbArc
 50
13.2851587067
 51
346.7148412933
  0
CIRCLE
  5
879
100
AcDbEntity
  8
RACCORDO
100
AcDbCircle
 62
250
  6
CONTINUOUS
 10
-3.75
 20
4.0
 40
2.3275206122
  0
CIRCLE
  5
87A
100
AcDbEntity
  8
ASSI
100
AcDbCircle
 62
250
  6
CONTINUOUS
 10
-3.75
 20
4.0
 40
2.3275206122
  0
CIRCLE
  5
87B
100
AcDbEntity
  8
DRAFT
100
AcDbCircle
 62
7
  6
CONTINUOUS
 10
-3.75
 20
4.0
 40
2.0
  0
CIRCLE
  5
87C
100
AcDbEntity
  8
ASSI
100
AcDbCircle
 62
7
  6
CONTINUOUS
 10
-3.75
 20
4.0
 40
2.0
  0
CIRCLE
  5
87D
100
AcDbEntity
  8
RACCORDO
100
AcDbCircle
 62
250
  6
CONTINUOUS
 10
-3.6
 20
4.0
 40
1.7499997962
  0
ARC
  5
87E
100
AcDbEntity
  8
RACCORDO
100
AcDbCircle
 62
250
  6
CONTINUOUS
 10
-1.0
 20
8.5
 40
1.4999901153
100
AcDbArc
 50
0.0
 51
90.0
  0
ARC
  5
87F
100
AcDbEntity
  8
ASSI
100
AcDbCircle
 62
250
  6
CONTINUOUS
 10
-1.0
 20
8.5
 40
1.4999901153
100
AcDbArc
 50
0.0
 51
90.0
  0
ARC
  5
880
100
AcDbEntity
  8
RACCORDO
100
AcDbCircle
 62
7
  6
CONTINUOUS
 10
-1.0
 20
8.5
 40
0.5
100
AcDbArc
 50
0.0
 51
90.0
  0
ARC
  5
881
100
AcDbEntity
  8
ASSI
100
AcDbCircle
 62
7
  6
CONTINUOUS
 10
-1.0
 20
8.5
 40
0.5
100
AcDbArc
 50
0.0
 51
90.0
  0
CIRCLE
  5
882
100
AcDbEntity
  8
ASSI
100
AcDbCircle
 62
7
  6
CONTINUOUS
 10
-1.75
 20
14.0
 40
2.7
  0
CIRCLE
  5
883
100
AcDbEntity
  8
0
100
AcDbCircle
 62
250
  6
CONTINUOUS
 10
-1.75
 20
14.0
 40
2.2583179581
  0
CIRCLE
  5
884
100
AcDbEntity
  8
0
100
AcDbCircle
 62
250
  6
CONTINUOUS
 10
-1.75
 20
14.0
 40
1.7939908568
  0
ARC
  5
885
100
AcDbEntity
  8
DRAFT
100
AcDbCircle
 62
7
  6
CONTINUOUS
 10
-4.95
 20
23.1
 40
0.5
100
AcDbArc
 50
240.887577224
 51
9.1962815791
  0
ARC
  5
886
100
AcDbEntity
  8
DRAFT
100
AcDbCircle
 62
7
  6
CONTINUOUS
 10
4.95
 20
-23.1
 40
0.5
100
AcDbArc
 50
60.887577224
 51
189.196281579
  0
ARC
  5
887
100
AcDbEntity
  8
RACCORDO
100
AcDbCircle
 62
7
  6
CONTINUOUS
 10
6.3813353714
 20
-19.2
 40
0.3
100
AcDbArc
 50
90.0
 51
160.5287793655
  0
ARC
  5
888
100
AcDbEntity
  8
DRAFT
100
AcDbCircle
 62
7
  6
CONTINUOUS
 10
11.25
 20
0.0
 40
28.0
100
AcDbArc
 50
235.8789063483
 51
237.0647695028
  0
ARC
  5
889
100
AcDbEntity
  8
DRAFT
100
AcDbCircle
 62
7
  6
CONTINUOUS
 10
11.25
 20
0.0
 40
28.0
100
AcDbArc
 50
122.9352304972
 51
124.1210936517
  0
ARC
  5
88A
100
AcDbEntity
  8
RACCORDO
100
AcDbCircle
 62
7
  6
CONTINUOUS
 10
11.25
 20
0.0
 40
28.0
100
AcDbArc
 50
139.3754678538
 51
142.4272924118
  0
ARC
  5
88B
100
AcDbEntity
  8
RACCORDO
100
AcDbCircle
 62
7
  6
CONTINUOUS
 10
11.25
 20
0.0
 40
28.0
100
AcDbArc
 50
217.5727075882
 51
220.6245321462
  0
ARC
  5
88C
100
AcDbEntity
  8
DRAFT
100
AcDbCircle
 62
7
  6
CONTINUOUS
 10
11.25
 20
0.0
 40
28.0
100
AcDbArc
 50
125.9627651514
 51
131.7180504312
  0
ARC
  5
88D
100
AcDbEntity
  8
DRAFT
100
AcDbCircle
 62
7
  6
CONTINUOUS
 10
11.25
 20
0.0
 40
28.0
100
AcDbArc
 50
228.2819495688
 51
234.0372348486
  0
ARC
  5
88E
100
AcDbEntity
  8
RACCORDO
100
AcDbCircle
 62
7
  6
CONTINUOUS
 10
11.25
 20
0.0
 40
27.9869096983
100
AcDbArc
 50
217.4452371882
 51
220.5100162577
  0
ARC
  5
88F
100
AcDbEntity
  8
RACCORDO
100
AcDbCircle
 62
7
  6
CONTINUOUS
 10
11.25
 20
0.0
 40
27.9869096983
100
AcDbArc
 50
139.4899837423
 51
142.5547636525
  0
ARC
  5
890
100
AcDbEntity
  8
DRAFT
100
AcDbCircle
 62
7
  6
CONTINUOUS
 10
11.25
 20
0.0
 40
27.9650925288
100
AcDbArc
 50
229.3398118699
 51
234.0739558625
  0
ARC
  5
891
100
AcDbEntity
  8
DRAFT
100
AcDbCircle
 62
7
  6
CONTINUOUS
 10
11.25
 20
0.0
 40
27.9650925288
100
AcDbArc
 50
235.8421853344
 51
236.9123764751
  0
ARC
  5
892
100
AcDbEntity
  8
DRAFT
100
AcDbCircle
 62
7
  6
CONTINUOUS
 10
11.25
 20
0.0
 40
27.9650925288
100
AcDbArc
 50
125.9260441375
 51
130.6601881301
  0
ARC
  5
893
100
AcDbEntity
  8
DRAFT
100
AcDbCircle
 62
7
  6
CONTINUOUS
 10
11.25
 20
0.0
 40
27.9650925288
100
AcDbArc
 50
123.0876235249
 51
124.1578146656
  0
ARC
  5
894
100
AcDbEntity
  8
DRAFT
100
AcDbCircle
 62
7
  6
CONTINUOUS
 10
4.95
 20
23.1
 40
0.5
100
AcDbArc
 50
170.8037184209
 51
299.112422776
  0
ARC
  5
895
100
AcDbEntity
  8
RACCORDO
100
AcDbCircle
 62
7
  6
CONTINUOUS
 10
6.3813353714
 20
19.2
 40
0.3
100
AcDbArc
 50
199.4712206345
 51
270.0
  0
ELLIPSE
  5
896
100
AcDbEntity
  8
0
100
AcDbEllipse
 62
7
  6
CONTINUOUS
 10
10.649923836
 20
21.899313827
 30
0.0
 11
0.1582391023
 21
0.4751033573
 31
0.0
 40
0.9984778551
 41
-1.2488325878
 42
0.3210503505
  0
ELLIPSE
  5
897
100
AcDbEntity
  8
0
100
AcDbEllipse
 62
7
  6
CONTINUOUS
 10
10.649923836
 20
-21.899313827
 30
0.0
 11
-0.1582391023
 21
0.4751033573
 31
0.0
 40
0.9984778551
 41
2.8205423031
 42
4.3904252414
  0
ELLIPSE
  5
898
100
AcDbEntity
  8
0
100
AcDbEllipse
 62
7
  6
CONTINUOUS
 10
-10.649923836
 20
21.899313827
 30
0.0
 11
-0.1582391023
 21
0.4751033573
 31
0.0
 40
0.9984778551
 41
-0.3210503505
 42
1.2488325878
  0
ELLIPSE
  5
899
100
AcDbEntity
  8
0
100
AcDbEllipse
 62
7
  6
CONTINUOUS
 10
-10.649923836
 20
-21.899313827
 30
0.0
 11
0.1582391023
 21
0.4751033573
 31
0.0
 40
0.9984778551
 41
1.8927600658
 42
3.4626430041
  0
ELLIPSE
  5
89A
100
AcDbEntity
  8
DRAFT
100
AcDbEllipse
 62
7
  6
CONTINUOUS
 10
-1.2045470032
 20
0.0
 30
0.0
 11
24.9109911832
 21
0.0
 31
0.0
 40
0.8660473877
 41
1.8154383985
 42
1.8214348428
  0
ELLIPSE
  5
89B
100
AcDbEntity
  8
DRAFT
100
AcDbEllipse
 62
7
  6
CONTINUOUS
 10
-1.2045470032
 20
0.0
 30
0.0
 11
24.9109911832
 21
0.0
 31
0.0
 40
0.8660473877
 41
-1.8214348428
 42
-1.8154383985
  0
ELLIPSE
  5
89C
100
AcDbEntity
  8
DRAFT
100
AcDbEllipse
 62
7
  6
CONTINUOUS
 10
1.2045470032
 20
-0.0
 30
0.0
 11
24.9109911832
 21
0.0
 31
0.0
 40
0.8660473877
 41
1.3201578108
 42
1.326154255
  0
ELLIPSE
  5
89D
100
AcDbEntity
  8
DRAFT
100
AcDbEllipse
 62
7
  6
CONTINUOUS
 10
1.2045470032
 20
0.0
 30
0.0
 11
24.9109911832
 21
0.0
 31
0.0
 40
0.8660473877
 41
-1.326154255
 42
-1.3201578108
  0
ELLIPSE
  5
89E
100
AcDbEntity
  8
DRAFT
100
AcDbEllipse
 62
7
  6
CONTINUOUS
 10
11.25
 20
-0.4174491839
 30
0.0
 11
-0.0
 21
27.6175146083
 31
0.0
 40
0.9998857561
 41
-3.8751476846
 42
-3.8616054291
  0
ELLIPSE
  5
89F
100
AcDbEntity
  8
DRAFT
100
AcDbEllipse
 62
7
  6
CONTINUOUS
 10
-11.25
 20
-0.4174491839
 30
0.0
 11
-0.0
 21
27.6175146083
 31
0.0
 40
0.9998857561
 41
-2.421579878
 42
-2.4080376226
  0
ELLIPSE
  5
8A0
100
AcDbEntity
  8
DRAFT
100
AcDbEllipse
 62
7
  6
CONTINUOUS
 10
-11.25
 20
0.4174491839
 30
0.0
 11
0.0
 21
27.6175146083
 31
0.0
 40
0.9998857561
 41
-0.733555031
 42
-0.7200127755
  0
ELLIPSE
  5
8A1
100
AcDbEntity
  8
DRAFT
100
AcDbEllipse
 62
7
  6
CONTINUOUS
 10
11.25
 20
0.4174491839
 30
0.0
 11
-0.0
 21
27.6175146083
 31
0.0
 40
0.9998857561
 41
0.7200127755
 42
0.733555031
  0
ELLIPSE
  5
8A2
100
AcDbEntity
  8
RACCORDO
100
AcDbEllipse
 62
7
  6
CONTINUOUS
 10
-6.9189118707
 20
19.2
 30
0.0
 11
0.2158671264
 21
0.2121320344
 31
0.0
 40
0.9826972631
 41
-3.926990817
 42
-2.3561944902
  0
ELLIPSE
  5
8A3
100
AcDbEntity
  8
RACCORDO
100
AcDbEllipse
 62
7
  6
CONTINUOUS
 10
6.9189118707
 20
19.2
 30
0.0
 11
-0.2158671264
 21
0.2121320344
 31
0.0
 40
0.9826972631
 41
-3.926990817
 42
-2.3561944902
  0
ELLIPSE
  5
8A4
100
AcDbEntity
  8
RACCORDO
100
AcDbEllipse
 62
7
  6
CONTINUOUS
 10
-6.9189118707
 20
-19.2
 30
0.0
 11
-0.2158671264
 21
0.2121320344
 31
0.0
 40
0.9826972631
 41
-0.7853981634
 42
0.7853981634
  0
ELLIPSE
  5
8A5
100
AcDbEntity
  8
RACCORDO
100
AcDbEllipse
 62
7
  6
CONTINUOUS
 10
6.9189118707
 20
-19.2
 30
0.0
 11
0.2158671264
 21
0.2121320344
 31
0.0
 40
0.9826972631
 41
-0.7853981634
 42
0.7853981634
  0
ELLIPSE
  5
8A6
100
AcDbEntity
  8
DRAFT
100
AcDbEllipse
 62
7
  6
CONTINUOUS
 10
11.25
 20
-10.8325548421
 30
0.0
 11
-0.0
 21
21.6667597861
 31
0.0
 40
0.8660473877
 41
-4.0919082585
 42
-4.0879418801
  0
ELLIPSE
  5
8A7
100
AcDbEntity
  8
DRAFT
100
AcDbEllipse
 62
7
  6
CONTINUOUS
 10
-11.25
 20
-10.8325548421
 30
0.0
 11
-0.0
 21
21.6667597861
 31
0.0
 40
0.8660473877
 41
-2.1952434271
 42
-2.1912770487
  0
ELLIPSE
  5
8A8
100
AcDbEntity
  8
DRAFT
100
AcDbEllipse
 62
7
  6
CONTINUOUS
 10
-11.25
 20
10.8325548421
 30
0.0
 11
-0.0
 21
21.6667597861
 31
0.0
 40
0.8660473877
 41
-0.9503156049
 42
-0.9463492265
  0
ELLIPSE
  5
8A9
100
AcDbEntity
  8
DRAFT
100
AcDbEllipse
 62
7
  6
CONTINUOUS
 10
11.25
 20
10.8325548421
 30
0.0
 11
0.0
 21
21.6667597861
 31
0.0
 40
0.8660473877
 41
0.9463492265
 42
0.9503156049
  0
ELLIPSE
  5
8AA
100
AcDbEntity
  8
RACCORDO
100
AcDbEllipse
 62
7
  6
CONTINUOUS
 10
7.2226300005
 20
19.2
 30
0.0
 11
0.3000456984
 21
-0.0
 31
0.0
 40
0.9998476952
 41
-1.5707963268
 42
-0.0
  0
ELLIPSE
  5
8AB
100
AcDbEntity
  8
RACCORDO
100
AcDbEllipse
 62
7
  6
CONTINUOUS
 10
-7.2226300005
 20
19.2
 30
0.0
 11
0.3000456984
 21
0.0
 31
0.0
 40
0.9998476952
 41
3.1415926536
 42
4.7123889804
  0
ELLIPSE
  5
8AC
100
AcDbEntity
  8
RACCORDO
100
AcDbEllipse
 62
7
  6
CONTINUOUS
 10
7.2226300005
 20
-19.2
 30
0.0
 11
0.3000456984
 21
0.0
 31
0.0
 40
0.9998476952
 41
0.0
 42
1.5707963268
  0
ELLIPSE
  5
8AD
100
AcDbEntity
  8
RACCORDO
100
AcDbEllipse
 62
7
  6
CONTINUOUS
 10
-7.2226300005
 20
-19.2
 30
0.0
 11
0.3000456984
 21
-0.0
 31
0.0
 40
0.9998476952
 41
1.5707963268
 42
3.1415926536
  0
ELLIPSE
  5
8AE
100
AcDbEntity
  8
RACCORDO
100
AcDbEllipse
 62
7
  6
CONTINUOUS
 10
0.75
 20
-17.7127246754
 30
0.0
 11
2.0
 21
-0.0
 31
0.0
 40
0.0174550649
 41
0.0
 42
1.5707963268
  0
ELLIPSE
  5
8AF
100
AcDbEntity
  8
RACCORDO
100
AcDbEllipse
 62
7
  6
CONTINUOUS
 10
-4.25
 20
-17.7127246754
 30
0.0
 11
2.0
 21
-0.0
 31
0.0
 40
0.0174550649
 41
1.5707963268
 42
3.1415926536
  0
ELLIPSE
  5
8B0
100
AcDbEntity
  8
RACCORDO
100
AcDbEllipse
 62
7
  6
CONTINUOUS
 10
0.75
 20
17.7127246754
 30
0.0
 11
2.0
 21
-0.0
 31
0.0
 40
0.0174550649
 41
-1.5707963268
 42
0.0
  0
ELLIPSE
  5
8B1
100
AcDbEntity
  8
RACCORDO
100
AcDbEllipse
 62
7
  6
CONTINUOUS
 10
-4.25
 20
17.7127246754
 30
0.0
 11
2.0
 21
-0.0
 31
0.0
 40
0.0174550649
 41
-3.1415926536
 42
-1.5707963268
  0
ELLIPSE
  5
8B2
100
AcDbEntity
  8
RACCORDO
100
AcDbEllipse
 62
7
  6
CONTINUOUS
 10
-7.4998667256
 20
-15.3998667256
 30
0.0
 11
2.475062209
 21
2.475062209
 31
0.0
 40
0.9999238505
 41
-3.9269527408
 42
-2.3562325664
  0
ELLIPSE
  5
8B3
100
AcDbEntity
  8
RACCORDO
100
AcDbEllipse
 62
7
  6
CONTINUOUS
 10
7.4998667256
 20
-15.3998667256
 30
0.0
 11
2.475062209
 21
-2.475062209
 31
0.0
 40
0.9999238505
 41
-0.7853600872
 42
0.7853600872
  0
ELLIPSE
  5
8B4
100
AcDbEntity
  8
RACCORDO
100
AcDbEllipse
 62
7
  6
CONTINUOUS
 10
7.4998667256
 20
15.3998667256
 30
0.0
 11
2.475062209
 21
2.475062209
 31
0.0
 40
0.9999238505
 41
-0.7853600872
 42
0.7853600872
  0
ELLIPSE
  5
8B5
100
AcDbEntity
  8
RACCORDO
100
AcDbEllipse
 62
7
  6
CONTINUOUS
 10
-7.4998667256
 20
15.3998667256
 30
0.0
 11
2.475062209
 21
-2.475062209
 31
0.0
 40
0.9999238505
 41
2.3562325664
 42
3.9269527408
  0
ELLIPSE
  5
8B6
100
AcDbEntity
  8
RACCORDO
100
AcDbEllipse
 62
7
  6
CONTINUOUS
 10
1.5
 20
18.8678924911
 30
0.0
 11
1.0
 21
-0.0
 31
0.0
 40
0.0088478788
 41
-1.5707963268
 42
-0.0
  0
ELLIPSE
  5
8B7
100
AcDbEntity
  8
RACCORDO
100
AcDbEllipse
 62
7
  6
CONTINUOUS
 10
-1.5
 20
18.8678924911
 30
0.0
 11
1.0
 21
-0.0
 31
0.0
 40
0.0088478788
 41
3.1415926536
 42
4.7123889804
  0
ELLIPSE
  5
8B8
100
AcDbEntity
  8
RACCORDO
100
AcDbEllipse
 62
7
  6
CONTINUOUS
 10
1.5
 20
-18.8678924911
 30
0.0
 11
1.0
 21
0.0
 31
0.0
 40
0.0088478788
 41
-0.0
 42
1.5707963268
  0
ELLIPSE
  5
8B9
100
AcDbEntity
  8
RACCORDO
100
AcDbEllipse
 62
7
  6
CONTINUOUS
 10
-1.5
 20
-18.8678924911
 30
0.0
 11
1.0
 21
0.0
 31
0.0
 40
0.0088478788
 41
1.5707963268
 42
3.1415926536
  0
ELLIPSE
  5
8BA
100
AcDbEntity
  8
ASSI
100
AcDbEllipse
 62
7
  6
CONTINUOUS
 10
-7.4998667256
 20
15.3998667256
 30
0.0
 11
2.475062209
 21
-2.475062209
 31
0.0
 40
0.9999238505
 41
2.3562325664
 42
3.9269527408
  0
ELLIPSE
  5
8BB
100
AcDbEntity
  8
ASSI
100
AcDbEllipse
 62
7
  6
CONTINUOUS
 10
7.4998667256
 20
15.3998667256
 30
0.0
 11
2.475062209
 21
2.475062209
 31
0.0
 40
0.9999238505
 41
-0.7853600872
 42
0.7853600872
  0
ELLIPSE
  5
8BC
100
AcDbEntity
  8
ASSI
100
AcDbEllipse
 62
7
  6
CONTINUOUS
 10
7.4998667256
 20
-15.3998667256
 30
0.0
 11
2.475062209
 21
-2.475062209
 31
0.0
 40
0.9999238505
 41
-0.7853600872
 42
0.7853600872
  0
ELLIPSE
  5
8BD
100
AcDbEntity
  8
ASSI
100
AcDbEllipse
 62
7
  6
CONTINUOUS
 10
-7.4998667256
 20
-15.3998667256
 30
0.0
 11
2.475062209
 21
2.475062209
 31
0.0
 40
0.9999238505
 41
-3.9269527408
 42
-2.3562325664
  0
ELLIPSE
  5
8BE
100
AcDbEntity
  8
ASSI
100
AcDbEllipse
 62
7
  6
CONTINUOUS
 10
-4.25
 20
17.7127246754
 30
0.0
 11
2.0
 21
-0.0
 31
0.0
 40
0.0174550649
 41
-3.1415926536
 42
-1.5707963268
  0
ELLIPSE
  5
8BF
100
AcDbEntity
  8
ASSI
100
AcDbEllipse
 62
7
  6
CONTINUOUS
 10
0.75
 20
17.7127246754
 30
0.0
 11
2.0
 21
-0.0
 31
0.0
 40
0.0174550649
 41
-1.5707963268
 42
0.0
  0
ELLIPSE
  5
8C0
100
AcDbEntity
  8
ASSI
100
AcDbEllipse
 62
7
  6
CONTINUOUS
 10
-4.25
 20
-17.7127246754
 30
0.0
 11
2.0
 21
-0.0
 31
0.0
 40
0.0174550649
 41
1.5707963268
 42
3.1415926536
  0
ELLIPSE
  5
8C1
100
AcDbEntity
  8
ASSI
100
AcDbEllipse
 62
7
  6
CONTINUOUS
 10
0.75
 20
-17.7127246754
 30
0.0
 11
2.0
 21
-0.0
 31
0.0
 40
0.0174550649
 41
0.0
 42
1.5707963268
  0
ELLIPSE
  5
8C2
100
AcDbEntity
  8
ASSI
100
AcDbEllipse
 62
7
  6
CONTINUOUS
 10
1.5
 20
-18.8678924911
 30
0.0
 11
1.0
 21
0.0
 31
0.0
 40
0.0088478788
 41
-0.0
 42
1.5707963268
  0
ELLIPSE
  5
8C3
100
AcDbEntity
  8
ASSI
100
AcDbEllipse
 62
7
  6
CONTINUOUS
 10
-1.5
 20
18.8678924911
 30
0.0
 11
1.0
 21
-0.0
 31
0.0
 40
0.0088478788
 41
3.1415926536
 42
4.7123889804
  0
ELLIPSE
  5
8C4
100
AcDbEntity
  8
ASSI
100
AcDbEllipse
 62
7
  6
CONTINUOUS
 10
1.5
 20
18.8678924911
 30
0.0
 11
1.0
 21
-0.0
 31
0.0
 40
0.0088478788
 41
-1.5707963268
 42
-0.0
  0
ELLIPSE
  5
8C5
100
AcDbEntity
  8
ASSI
100
AcDbEllipse
 62
7
  6
CONTINUOUS
 10
-1.5
 20
-18.8678924911
 30
0.0
 11
1.0
 21
0.0
 31
0.0
 40
0.0088478788
 41
1.5707963268
 42
3.1415926536
  0
ELLIPSE
  5
8C6
100
AcDbEntity
  8
0
100
AcDbEllipse
 62
250
  6
CONTINUOUS
 10
10.852515882
 20
-3.999994
 30
0.0
 11
-0.0
 21
0.499999
 31
0.0
 40
0.0087268678
 41
0.0
 42
6.2831853072
  0
ENDSEC
  0
SECTION
  2
OBJECTS
  0
DICTIONARY
  5
C
100
AcDbDictionary
280
0
281
1
  3
ACAD_GROUP
350
D
  3
ACAD_MLINESTYLE
350
17
  3
ACAD_LAYOUT
350
1A
  3
ACAD_PLOTSETTINGS
350
19
  3
ACAD_PLOTSTYLENAME
350
E
  0
DICTIONARY
  5
D
102
{ACAD_REACTORS
330
C
102
}
100
AcDbDictionary
280
0
281
1
  0
ACDBDICTIONARYWDFLT
  5
E
102
{ACAD_REACTORS
330
C
102
}
100
AcDbDictionary
281
1
  3
Normal
350
F
100
AcDbDictionaryWithDefault
340
F
  0
DICTIONARY
  5
17
102
{ACAD_REACTORS
330
C
102
}
100
AcDbDictionary
280
0
281
1
  3
Standard
350
18
  0
DICTIONARY
  5
19
102
{ACAD_REACTORS
330
C
102
}
100
AcDbDictionary
281
1
  0
DICTIONARY
  5
1A
102
{ACAD_REACTORS
330
C
102
}
100
AcDbDictionary
281
1
  3
Model
350
8C7
  3
Layout1
350
8C8
  0
ACDBPLACEHOLDER
  5
F
102
{ACAD_REACTORS
330
E
102
}
  0
MLINESTYLE
  5
18
102
{ACAD_REACTORS
330
17
102
}
100
AcDbMlineStyle
  2
STANDARD
 70
0
  3

 62
256
 51
90.0
 52
90.0
 71
2
 49
0.5
 62
256
  6
BYLAYER
 49
-0.5
 62
256
  6
BYLAYER
  0
LAYOUT
  5
8C7
102
{ACAD_REACTORS
330
1A
102
}
100
AcDbPlotSettings
  1

  2
none_device
  4
ISO_A4_(297.00_x_210.00_MM)
  6

 40
0.0
 41
0.0
 42
0.0
 43
0.0
 44
297.0
 45
210.0
 46
0.0
 47
0.0
 48
0.0
 49
0.0
140
0.0
141
0.0
142
1.0
143
1.0
 70
1024
 72
1
 73
0
 74
0
  7

 75
0
147
1.0
148
0.0
149
0.0
100
AcDbLayout
  1
Model
 70
0
 71
0
 10
0.0
 20
0.0
 11
297.0
 21
210.0
 12
0.0
 22
0.0
 32
0.0
 14
0.0
 24
0.0
 34
0.0
 15
0.0
 25
0.0
 35
0.0
146
0.0
 13
0.0
 23
0.0
 33
0.0
 16
1.0
 26
0.0
 36
0.0
 17
0.0
 27
1.0
 37
0.0
 76
0
330
21A
345
0
346
0
  0
LAYOUT
  5
8C8
102
{ACAD_REACTORS
330
1A
102
}
100
AcDbPlotSettings
  1

  2
none_device
  4
ISO_A4_(297.00_x_210.00_MM)
  6

 40
0.0
 41
0.0
 42
0.0
 43
0.0
 44
297.0
 45
210.0
 46
0.0
 47
0.0
 48
0.0
 49
0.0
140
0.0
141
0.0
142
1.0
143
1.0
 70
0
 72
1
 73
0
 74
0
  7

 75
0
147
1.0
148
0.0
149
0.0
100
AcDbLayout
  1
Layout1
 70
0
 71
1
 10
0.0
 20
0.0
 11
297.0
 21
210.0
 12
0.0
 22
0.0
 32
0.0
 14
0.0
 24
0.0
 34
0.0
 15
0.0
 25
0.0
 35
0.0
146
0.0
 13
0.0
 23
0.0
 33
0.0
 16
1.0
 26
0.0
 36
0.0
 17
0.0
 27
1.0
 37
0.0
 76
0
330
21B
345
0
346
0
  0
ENDSEC
  0
EOF
