0
SECTION
2
HEADER
9
$ACADVER
1
AC1015
9
$DWGCODEPAGE
3
ANSI_1252
9
$EXTMAX
10
431.8000000000
20
558.8000000000
30
0.0000000000
9
$EXTMIN
10
0.0000000000
20
0.0000000000
30
0.0000000000
9
$LIMMIN
10
0.0000000000
20
0.0000000000
9
$LIMMAX
10
431.8000000000
20
558.8000000000
9
$VIEWCTR
10
215.9000000000
20
279.4000000000
9
$VIEWSIZE
40
558.8000000000
9
$CLAYER
8
0
9
$LTSCALE
40
36.4254814815
9
$CELTYPE
6
BYLAYER
9
$DIMSCALE
40
1
9
$DIMASZ
40
3.0000000000
9
$DIMEXO
40
4.1392592593
9
$DIMDLI
40
25.1666962963
9
$DIMEXE
40
11.9210666667
9
$DIMCEN
40
5.9605333333
9
$DIMLFAC
40
1.0000000000
9
$DIMBLK
1
_FILLED
9
$DIMTXT
40
3.0000000000
9
$DIMTOL
70
1
9
$DIMLIM
70
0
9
$DIMTFAC
40
1.0000000000
9
$DIMTP
40
0.0100000000
9
$DIMTM
40
0.0100000000
9
$PDMODE
70
3
9
$PDSIZE
40
3.0000000000
9
$HANDSEED
5
44B
9
$MEASUREMENT
70
1
9
$INSUNITS
70
4
0
ENDSEC
0
SECTION
2
CLASSES
0
CLASS
1
ACDBDICTIONARYWDFLT
2
AcDbDictionaryWithDefault
3
AutoCAD 2000
90
0
280
0
281
0
0
CLASS
1
ACDBPLACEHOLDER
2
AcDbPlaceHolder
3
AutoCAD 2000
90
0
280
0
281
0
0
CLASS
1
LAYOUT
2
AcDbLayout
3
AutoCAD 2000
90
0
280
0
281
0
0
ENDSEC
0
SECTION
2
TABLES
0
TABLE
2
VPORT
5
8
100
AcDbSymbolTable
70
2
0
VPORT
5
1F4
100
AcDbSymbolTableRecord
100
AcDbViewportTableRecord
2
*ACTIVE
70
0
10
0.0
20
0.0
11
1.0
21
1.0
12
215.9000000000
22
279.4000000000
13
0.0
23
0.0
14
1.0
24
1.0
15
0.0
25
0.0
16
0.0
26
0.0
36
1.0
17
0.0
27
0.0
37
0.0
40
558.8000000000
41
0.7727272727
42
50.0
43
0.0
44
0.0
50
0.0
51
0.0
71
0
72
100
73
1
74
1
75
0
76
0
77
0
78
0
0
ENDTAB
0
TABLE
2
LTYPE
5
5
100
AcDbSymbolTable
70
6
0
LTYPE
5
14
100
AcDbSymbolTableRecord
100
AcDbLinetypeTableRecord
2
BYBLOCK
70
0
3

72
65
73
0
40
0.0
0
LTYPE
5
15
100
AcDbSymbolTableRecord
100
AcDbLinetypeTableRecord
2
BYLAYER
70
0
3

72
65
73
0
40
0.0
0
LTYPE
5
16
100
AcDbSymbolTableRecord
100
AcDbLinetypeTableRecord
2
CONTINUOUS
70
64
3
Solid line
72
65
73
0
40
0
0
LTYPE
5
1F5
100
AcDbSymbolTableRecord
100
AcDbLinetypeTableRecord
2
CENTER
70
64
3
____ _ ____ _ ____ _ ____ _ ____ _ ____ _ ____
72
65
73
4
40
0.6
49
0.375
74
0
49
-0.075
74
0
49
0.075
74
0
49
-0.075
74
0
0
LTYPE
5
1F6
100
AcDbSymbolTableRecord
100
AcDbLinetypeTableRecord
2
HIDDEN
70
64
3
- - - - - - - - - - - - - - - - - - - -
72
65
73
2
40
0.2
49
0.1
74
0
49
-0.1
74
0
0
LTYPE
5
1F7
100
AcDbSymbolTableRecord
100
AcDbLinetypeTableRecord
2
PHANTOM
70
64
3
_____ _ _ _____ _ _ _____ _ _ _____
72
65
73
6
40
0.8
49
0.45
74
0
49
-0.05
74
0
49
0.1
74
0
49
-0.05
74
0
49
0.1
74
0
49
-0.05
74
0
0
LTYPE
5
1F8
100
AcDbSymbolTableRecord
100
AcDbLinetypeTableRecord
2
DOT
70
64
3
. . . . . . . . . . . . . . . . . . . .
72
65
73
2
40
0.2
49
0.1
74
0
49
-0.1
74
0
0
LTYPE
5
1F9
100
AcDbSymbolTableRecord
100
AcDbLinetypeTableRecord
2
DASHED
70
64
3
- - - - - - - - - - - - - - - - - - - -
72
65
73
2
40
0.2
49
0.1
74
0
49
-0.1
74
0
0
ENDTAB
0
TABLE
2
LAYER
5
2
100
AcDbSymbolTable
70
36
0
LAYER
5
10
100
AcDbSymbolTableRecord
100
AcDbLayerTableRecord
2
0
70
0
62
7
6
CONTINUOUS
370
-3
390
F
0
LAYER
5
1FA
100
AcDbSymbolTableRecord
100
AcDbLayerTableRecord
2
DEFAULT_1
70
0
62
7
6
CENTER
370
-3
390
F
0
LAYER
5
1FB
100
AcDbSymbolTableRecord
100
AcDbLayerTableRecord
2
DEFAULT_2
70
0
62
8
6
HIDDEN
370
-3
390
F
0
LAYER
5
1FC
100
AcDbSymbolTableRecord
100
AcDbLayerTableRecord
2
DEFAULT_3
70
0
62
7
6
PHANTOM
370
-3
390
F
0
LAYER
5
1FD
100
AcDbSymbolTableRecord
100
AcDbLayerTableRecord
2
_BLACK_HOLE
70
0
62
7
6
CONTINUOUS
370
-3
390
F
0
LAYER
5
1FE
100
AcDbSymbolTableRecord
100
AcDbLayerTableRecord
2
ASSI
70
0
62
7
6
CONTINUOUS
370
-3
390
F
0
LAYER
5
1FF
100
AcDbSymbolTableRecord
100
AcDbLayerTableRecord
2
COORDINATE
70
0
62
7
6
CONTINUOUS
370
-3
390
F
0
LAYER
5
200
100
AcDbSymbolTableRecord
100
AcDbLayerTableRecord
2
COORD_ORIGINE
70
0
62
7
6
CONTINUOUS
370
-3
390
F
0
LAYER
5
201
100
AcDbSymbolTableRecord
100
AcDbLayerTableRecord
2
COPY_PUBLISH
70
0
62
7
6
CONTINUOUS
370
-3
390
F
0
LAYER
5
202
100
AcDbSymbolTableRecord
100
AcDbLayerTableRecord
2
COSMETIC
70
0
62
7
6
CONTINUOUS
370
-3
390
F
0
LAYER
5
203
100
AcDbSymbolTableRecord
100
AcDbLayerTableRecord
2
COSMETICHE
70
0
62
7
6
CONTINUOUS
370
-3
390
F
0
LAYER
5
204
100
AcDbSymbolTableRecord
100
AcDbLayerTableRecord
2
CURVE
70
0
62
7
6
CONTINUOUS
370
-3
390
F
0
LAYER
5
205
100
AcDbSymbolTableRecord
100
AcDbLayerTableRecord
2
DRAFT
70
0
62
7
6
CONTINUOUS
370
-3
390
F
0
LAYER
5
206
100
AcDbSymbolTableRecord
100
AcDbLayerTableRecord
2
IGES
70
0
62
7
6
CONTINUOUS
370
-3
390
F
0
LAYER
5
207
100
AcDbSymbolTableRecord
100
AcDbLayerTableRecord
2
IMPORT_FEATURES
70
0
62
7
6
CONTINUOUS
370
-3
390
F
0
LAYER
5
208
100
AcDbSymbolTableRecord
100
AcDbLayerTableRecord
2
IMPORT_IGES
70
0
62
7
6
CONTINUOUS
370
-3
390
F
0
LAYER
5
209
100
AcDbSymbolTableRecord
100
AcDbLayerTableRecord
2
INTF_1
70
0
62
7
6
CONTINUOUS
370
-3
390
F
0
LAYER
5
20A
100
AcDbSymbolTableRecord
100
AcDbLayerTableRecord
2
NOTE
70
0
62
7
6
CONTINUOUS
370
-3
390
F
0
LAYER
5
20B
100
AcDbSymbolTableRecord
100
AcDbLayerTableRecord
2
PIANI
70
0
62
7
6
CONTINUOUS
370
-3
390
F
0
LAYER
5
20C
100
AcDbSymbolTableRecord
100
AcDbLayerTableRecord
2
PIANI_ORIGINE
70
0
62
7
6
CONTINUOUS
370
-3
390
F
0
LAYER
5
20D
100
AcDbSymbolTableRecord
100
AcDbLayerTableRecord
2
PUNTI
70
0
62
7
6
CONTINUOUS
370
-3
390
F
0
LAYER
5
20E
100
AcDbSymbolTableRecord
100
AcDbLayerTableRecord
2
RACCORDO
70
0
62
7
6
CONTINUOUS
370
-3
390
F
0
LAYER
5
20F
100
AcDbSymbolTableRecord
100
AcDbLayerTableRecord
2
RGB____0____0____0__
70
0
62
7
6
CONTINUOUS
370
-3
390
F
0
LAYER
5
210
100
AcDbSymbolTableRecord
100
AcDbLayerTableRecord
2
SMUSSO
70
0
62
7
6
CONTINUOUS
370
-3
390
F
0
LAYER
5
211
100
AcDbSymbolTableRecord
100
AcDbLayerTableRecord
2
SUPERFICI
70
0
62
7
6
CONTINUOUS
370
-3
390
F
0
LAYER
5
212
100
AcDbSymbolTableRecord
100
AcDbLayerTableRecord
2
TRASH
70
0
62
7
6
CONTINUOUS
370
-3
390
F
0
LAYER
5
213
100
AcDbSymbolTableRecord
100
AcDbLayerTableRecord
2
XSEC_DATUMS
70
0
62
7
6
CONTINUOUS
370
-3
390
F
0
ENDTAB
0
TABLE
2
STYLE
5
3
100
AcDbSymbolTable
70
1
0
STYLE
5
11
100
AcDbSymbolTableRecord
100
AcDbTextStyleTableRecord
2
STANDARD
70
0
40
0.0
41
0.8000000000
50
0.0
71
0
42
0.2
3
txt
4

0
ENDTAB
0
TABLE
2
VIEW
5
6
100
AcDbSymbolTable
70
0
0
ENDTAB
0
TABLE
2
UCS
5
7
100
AcDbSymbolTable
70
0
0
ENDTAB
0
TABLE
2
APPID
5
9
100
AcDbSymbolTable
70
1
0
APPID
5
214
100
AcDbSymbolTableRecord
100
AcDbRegAppTableRecord
2
ACAD
70
0
0
ENDTAB
0
TABLE
2
BLOCK_RECORD
5
1
100
AcDbSymbolTable
70
0
0
BLOCK_RECORD
5
1F
100
AcDbSymbolTableRecord
100
AcDbBlockTableRecord
2
*MODEL_SPACE
0
BLOCK_RECORD
5
1B
100
AcDbSymbolTableRecord
100
AcDbBlockTableRecord
2
*PAPER_SPACE
0
ENDTAB
0
TABLE
2
DIMSTYLE
5
A
100
AcDbSymbolTable
70
1
100
AcDbDimStyleTable
71
0
0
DIMSTYLE
105
215
100
AcDbSymbolTableRecord
100
AcDbDimStyleTableRecord
2
STANDARD
70
0
3

4

40
1.0
41
3.0000000000
42
0.0625
43
0.38
44
0.18
45
0.0
46
0.0
47
0.0100000000
48
0.0100000000
140
3.0000000000
141
0.09
142
0.0
143
25.4
144
1.0000000000
145
0.0
146
1.0000000000
147
0.09
71
1
72
0
73
0
74
0
75
0
76
0
77
1
78
8
170
0
171
2
172
0
173
0
174
0
175
0
176
0
177
0
178
0
270
2
271
2
272
2
273
2
274
2
275
0
280
0
281
0
282
0
283
1
284
8
285
0
286
0
287
3
288
0
340
11
0
ENDTAB
0
ENDSEC
0
SECTION
2
BLOCKS
0
BLOCK
5
20
100
AcDbEntity
8
0
100
AcDbBlockBegin
2
*MODEL_SPACE
70
0
10
0.0
20
0.0
30
0.0
3
*MODEL_SPACE
1

0
ENDBLK
5
21
100
AcDbEntity
8
0
100
AcDbBlockEnd
0
BLOCK
5
1C
100
AcDbEntity
8
0
100
AcDbBlockBegin
2
*PAPER_SPACE
70
0
10
0.0
20
0.0
30
0.0
3
*PAPER_SPACE
1

0
ENDBLK
5
1D
100
AcDbEntity
8
0
100
AcDbBlockEnd
0
ENDSEC
0
SECTION
2
ENTITIES
0
LINE
5
216
100
AcDbEntity
8
0
100
AcDbLine
62
7
6
CONTINUOUS
10
-3.0000000000
20
-23.5000000000
11
-2.7812783412
21
-23.4563623377
0
LINE
5
217
100
AcDbEntity
8
0
100
AcDbLine
62
7
6
CONTINUOUS
10
-3.9733373476
20
-23.5000000000
11
-3.0000000000
21
-23.5000000000
0
LINE
5
218
100
AcDbEntity
8
0
100
AcDbLine
62
7
6
CONTINUOUS
10
3.0000000000
20
-23.5000000000
11
3.9733373476
21
-23.5000000000
0
LINE
5
219
100
AcDbEntity
8
0
100
AcDbLine
62
7
6
CONTINUOUS
10
2.7812783412
20
-23.4563623377
11
-2.7812783412
21
-23.4563623377
0
LINE
5
21A
100
AcDbEntity
8
0
100
AcDbLine
62
7
6
CONTINUOUS
10
-4.0167310674
20
-23.4301797403
11
4.0167310674
21
-23.4301797403
0
LINE
5
21B
100
AcDbEntity
8
0
100
AcDbLine
62
7
6
CONTINUOUS
10
-10.6503805997
20
-22.4000000000
11
-5.5500000000
21
-22.4000000000
0
LINE
5
21C
100
AcDbEntity
8
0
100
AcDbLine
62
7
6
CONTINUOUS
10
5.5500000000
20
-22.4000000000
11
10.6503805997
21
-22.4000000000
0
LINE
5
21D
100
AcDbEntity
8
0
100
AcDbLine
62
7
6
CONTINUOUS
10
3.0000000000
20
-23.5000000000
11
2.7812783412
21
-23.4563623377
0
LINE
5
21E
100
AcDbEntity
8
0
100
AcDbLine
62
7
6
CONTINUOUS
10
-3.4345963650
20
-21.2139629885
11
-3.1516814075
21
-21.1999238360
0
LINE
5
21F
100
AcDbEntity
8
0
100
AcDbLine
62
7
6
CONTINUOUS
10
-3.0104834329
20
-22.1955695989
11
-3.1000000000
21
-22.2000000000
0
LINE
5
220
100
AcDbEntity
8
0
100
AcDbLine
62
7
6
CONTINUOUS
10
-2.7003889480
20
-21.1802222394
11
-3.0984611006
21
-21.1999238360
0
LINE
5
221
100
AcDbEntity
8
0
100
AcDbLine
62
7
6
CONTINUOUS
10
-3.3821231691
20
-22.2000000000
11
3.3821231691
21
-22.2000000000
0
LINE
5
222
100
AcDbEntity
8
0
100
AcDbLine
62
7
6
CONTINUOUS
10
-3.0104834329
20
-22.1955695989
11
3.0104834329
21
-22.1955695989
0
LINE
5
223
100
AcDbEntity
8
0
100
AcDbLine
62
7
6
CONTINUOUS
10
6.9712561167
20
-21.2139629885
11
3.4345963650
21
-21.2139629885
0
LINE
5
224
100
AcDbEntity
8
0
100
AcDbLine
62
7
6
CONTINUOUS
10
-3.4345963650
20
-21.2139629885
11
-6.9712561167
21
-21.2139629885
0
LINE
5
225
100
AcDbEntity
8
0
100
AcDbLine
62
7
6
CONTINUOUS
10
-3.1516814075
20
-21.1999238360
11
-3.0984611006
21
-21.1999238360
0
LINE
5
226
100
AcDbEntity
8
0
100
AcDbLine
62
7
6
CONTINUOUS
10
3.0984611006
20
-21.1999238360
11
3.1516814075
21
-21.1999238360
0
LINE
5
227
100
AcDbEntity
8
0
100
AcDbLine
62
7
6
CONTINUOUS
10
6.9587505924
20
-21.1802222394
11
2.7003889480
21
-21.1802222394
0
LINE
5
228
100
AcDbEntity
8
0
100
AcDbLine
62
7
6
CONTINUOUS
10
-2.7003889480
20
-21.1802222394
11
-6.9587505924
21
-21.1802222394
0
LINE
5
229
100
AcDbEntity
8
0
100
AcDbLine
62
7
6
CONTINUOUS
10
-9.6500000000
20
-20.9000000000
11
-7.3830351795
21
-20.9000000000
0
LINE
5
22A
100
AcDbEntity
8
0
100
AcDbLine
62
7
6
CONTINUOUS
10
7.3830351795
20
-20.9000000000
11
9.6500000000
21
-20.9000000000
0
LINE
5
22B
100
AcDbEntity
8
0
100
AcDbLine
62
7
6
CONTINUOUS
10
-9.5103594806
20
-20.7603594806
11
-7.5226756989
21
-20.7603594806
0
LINE
5
22C
100
AcDbEntity
8
0
100
AcDbLine
62
7
6
CONTINUOUS
10
7.5226756989
20
-20.7603594806
11
9.5103594806
21
-20.7603594806
0
LINE
5
22D
100
AcDbEntity
8
0
100
AcDbLine
62
7
6
CONTINUOUS
10
3.1000000000
20
-22.2000000000
11
3.0104834329
21
-22.1955695989
0
LINE
5
22E
100
AcDbEntity
8
0
100
AcDbLine
62
7
6
CONTINUOUS
10
3.0984611006
20
-21.1999238360
11
2.7003889480
21
-21.1802222394
0
LINE
5
22F
100
AcDbEntity
8
0
100
AcDbLine
62
7
6
CONTINUOUS
10
3.4345963650
20
-21.2139629885
11
3.1516814075
21
-21.1999238360
0
LINE
5
230
100
AcDbEntity
8
0
100
AcDbLine
62
7
6
CONTINUOUS
10
-7.3830351795
20
20.9000000000
11
-7.5226756989
21
20.7603594806
0
LINE
5
231
100
AcDbEntity
8
0
100
AcDbLine
62
7
6
CONTINUOUS
10
-7.2084845302
20
-19.9483339502
11
7.2084845302
21
-19.9483339502
0
LINE
5
232
100
AcDbEntity
8
0
100
AcDbLine
62
7
6
CONTINUOUS
10
7.2084845302
20
-19.8000000000
11
-7.2084845302
21
-19.8000000000
0
LINE
5
233
100
AcDbEntity
8
0
100
AcDbLine
62
9
6
CONTINUOUS
10
-7.2189575692
20
-19.2000000000
11
-7.5226756989
21
-19.2000000000
0
LINE
5
234
100
AcDbEntity
8
0
100
AcDbLine
62
9
6
CONTINUOUS
10
7.2189575692
20
-19.2000000000
11
7.5226756989
21
-19.2000000000
0
LINE
5
235
100
AcDbEntity
8
0
100
AcDbLine
62
7
6
CONTINUOUS
10
6.0984926589
20
-19.1000000000
11
-6.0984926589
21
-19.1000000000
0
LINE
5
236
100
AcDbEntity
8
0
100
AcDbLine
62
7
6
CONTINUOUS
10
-7.5001332693
20
-18.9000000000
11
-4.5000000000
21
-18.9000000000
0
LINE
5
237
100
AcDbEntity
8
0
100
AcDbLine
62
7
6
CONTINUOUS
10
4.5000000000
20
-18.9000000000
11
7.5001332693
21
-18.9000000000
0
LINE
5
238
100
AcDbEntity
8
0
100
AcDbLine
62
7
6
CONTINUOUS
10
4.5000000000
20
-18.8834189512
11
2.5000000000
21
-18.8834189512
0
LINE
5
239
100
AcDbEntity
8
0
100
AcDbLine
62
7
6
CONTINUOUS
10
-2.5000000000
20
-18.8834189512
11
-4.5000000000
21
-18.8834189512
0
LINE
5
23A
100
AcDbEntity
8
0
100
AcDbLine
62
7
6
CONTINUOUS
10
1.5000000000
20
-18.8590446123
11
-1.5000000000
21
-18.8590446123
0
LINE
5
23B
100
AcDbEntity
8
0
100
AcDbLine
62
7
6
CONTINUOUS
10
-7.5226756989
20
-20.7603594806
11
-7.3830351795
21
-20.9000000000
0
LINE
5
23C
100
AcDbEntity
8
0
100
AcDbLine
62
9
6
CONTINUOUS
10
-7.2687951175
20
-18.6686618482
11
-3.2500000000
21
-18.6686618482
0
LINE
5
23D
100
AcDbEntity
8
0
100
AcDbLine
62
9
6
CONTINUOUS
10
6.7500000000
20
-18.6686618482
11
7.2687951175
21
-18.6686618482
0
LINE
5
23E
100
AcDbEntity
8
0
100
AcDbLine
62
7
6
CONTINUOUS
10
-2.7500000000
20
-17.8000000000
11
6.2500000000
21
-17.8000000000
0
LINE
5
23F
100
AcDbEntity
8
0
100
AcDbLine
62
7
6
CONTINUOUS
10
4.2500000000
20
-17.6778145455
11
-0.7500000000
21
-17.6778145455
0
LINE
5
240
100
AcDbEntity
8
0
100
AcDbLine
62
9
6
CONTINUOUS
10
-7.2687951175
20
-17.6686999252
11
-2.7500000000
21
-17.6686999252
0
LINE
5
241
100
AcDbEntity
8
0
100
AcDbLine
62
9
6
CONTINUOUS
10
6.2500000000
20
-17.6686999252
11
7.2687951175
21
-17.6686999252
0
LINE
5
242
100
AcDbEntity
8
0
100
AcDbLine
62
9
6
CONTINUOUS
10
6.2500000000
20
-17.5065416662
11
-2.7500000000
21
-17.5065416662
0
LINE
5
243
100
AcDbEntity
8
0
100
AcDbLine
62
9
6
CONTINUOUS
10
6.7500000000
20
-16.8066482796
11
-3.2500000000
21
-16.8066482796
0
LINE
5
244
100
AcDbEntity
8
0
100
AcDbLine
62
7
6
CONTINUOUS
10
-2.1500000000
20
-16.1000000000
11
-1.5000000000
21
-16.1000000000
0
LINE
5
245
100
AcDbEntity
8
0
100
AcDbLine
62
9
6
CONTINUOUS
10
-9.7686999252
20
-15.1687951175
11
-10.7686618482
21
-15.1687951167
0
LINE
5
246
100
AcDbEntity
8
0
100
AcDbLine
62
9
6
CONTINUOUS
10
9.7686999252
20
-15.1687951175
11
10.7686618482
21
-15.1687951175
0
LINE
5
247
100
AcDbEntity
8
0
100
AcDbLine
62
7
6
CONTINUOUS
10
5.4335100000
20
14.6742720000
11
6.6851490000
21
15.1309710000
0
LINE
5
248
100
AcDbEntity
8
0
100
AcDbLine
62
7
6
CONTINUOUS
10
6.5053870000
20
15.2215420000
11
5.4335100000
21
14.8623950000
0
LINE
5
249
100
AcDbEntity
8
0
100
AcDbLine
62
7
6
CONTINUOUS
10
-2.6750000000
20
-13.4722431864
11
-2.1500000000
21
-13.4722431864
0
LINE
5
24A
100
AcDbEntity
8
0
100
AcDbLine
62
7
6
CONTINUOUS
10
-1.5000000000
20
-13.4722431864
11
-0.9750000000
21
-13.4722431864
0
LINE
5
24B
100
AcDbEntity
8
0
100
AcDbLine
62
7
6
CONTINUOUS
10
-11.1761825974
20
16.4071689224
11
-11.1761825974
21
-16.4071689224
0
LINE
5
24C
100
AcDbEntity
8
0
100
AcDbLine
62
7
6
CONTINUOUS
10
-11.1500000000
20
21.8997711479
11
-11.1500000000
21
16.6331235461
0
LINE
5
24D
100
AcDbEntity
8
0
100
AcDbLine
62
7
6
CONTINUOUS
10
-11.1500000000
20
-21.8997711479
11
-11.1500000000
21
-16.6331235486
0
LINE
5
24E
100
AcDbEntity
8
0
100
AcDbLine
62
7
6
CONTINUOUS
10
-11.0000000000
20
-15.4001332693
11
-11.0000000000
21
15.4001332693
0
LINE
5
24F
100
AcDbEntity
8
0
100
AcDbLine
62
9
6
CONTINUOUS
10
-10.7686618482
20
15.1687951175
11
-10.7686618482
21
-15.1687951175
0
LINE
5
250
100
AcDbEntity
8
0
100
AcDbLine
62
9
6
CONTINUOUS
10
-9.7686999252
20
15.1687951175
11
-9.7686999252
21
-15.1687951175
0
LINE
5
251
100
AcDbEntity
8
0
100
AcDbLine
62
7
6
CONTINUOUS
10
-9.6500000000
20
20.9000000000
11
-9.6500000000
21
18.1608299811
0
LINE
5
252
100
AcDbEntity
8
0
100
AcDbLine
62
7
6
CONTINUOUS
10
-9.6500000000
20
-18.1608299811
11
-9.6500000000
21
-20.9000000000
0
LINE
5
253
100
AcDbEntity
8
0
100
AcDbLine
62
7
6
CONTINUOUS
10
-9.5103594806
20
20.7603594806
11
-9.5103594806
21
18.2629997810
0
LINE
5
254
100
AcDbEntity
8
0
100
AcDbLine
62
7
6
CONTINUOUS
10
-9.5103594806
20
-18.2629997810
11
-9.5103594806
21
-20.7603594806
0
LINE
5
255
100
AcDbEntity
8
0
100
AcDbLine
62
9
6
CONTINUOUS
10
1.0000000000
20
-10.0000000000
11
10.8009512590
21
-10.0000000000
0
LINE
5
256
100
AcDbEntity
8
0
100
AcDbLine
62
7
6
CONTINUOUS
10
1.0000000000
20
-9.0000000000
11
9.8009893360
21
-9.0000000000
0
LINE
5
257
100
AcDbEntity
8
0
100
AcDbLine
62
9
6
CONTINUOUS
10
-0.5000000000
20
-8.5000000000
11
0.5000000000
21
-8.5000000000
0
LINE
5
258
100
AcDbEntity
8
0
100
AcDbLine
62
9
6
CONTINUOUS
10
1.0000000000
20
-8.5000000000
11
10.8140415607
21
-8.5000000000
0
LINE
5
259
100
AcDbEntity
8
0
100
AcDbLine
62
7
6
CONTINUOUS
10
-7.2189575692
20
-19.2000000000
11
-7.2084845302
21
-19.8000000000
0
LINE
5
25A
100
AcDbEntity
8
0
100
AcDbLine
62
7
6
CONTINUOUS
10
-7.5226756989
20
-20.7603594806
11
-7.5226756989
21
-19.2000000000
0
LINE
5
25B
100
AcDbEntity
8
0
100
AcDbLine
62
7
6
CONTINUOUS
10
-7.5226756989
20
19.2000000000
11
-7.5226756989
21
20.7603594806
0
LINE
5
25C
100
AcDbEntity
8
0
100
AcDbLine
62
9
6
CONTINUOUS
10
-7.2687951175
20
-17.6686999252
11
-7.2687951175
21
-18.6686618482
0
LINE
5
25D
100
AcDbEntity
8
0
100
AcDbLine
62
9
6
CONTINUOUS
10
-7.2687951175
20
17.6686999252
11
-7.2687951167
21
18.6686618482
0
LINE
5
25E
100
AcDbEntity
8
0
100
AcDbLine
62
7
6
CONTINUOUS
10
-7.2084845302
20
-19.9483339502
11
-7.2084845302
21
-19.8000000000
0
LINE
5
25F
100
AcDbEntity
8
0
100
AcDbLine
62
7
6
CONTINUOUS
10
-7.2084845302
20
19.8000000000
11
-7.2084845302
21
19.9483339502
0
LINE
5
260
100
AcDbEntity
8
0
100
AcDbLine
62
7
6
CONTINUOUS
10
-7.2084845302
20
19.8000000000
11
-7.2189575692
21
19.2000000000
0
LINE
5
261
100
AcDbEntity
8
0
100
AcDbLine
62
9
6
CONTINUOUS
10
7.5001332693
20
18.9000000000
11
7.2687951175
21
18.6686618482
0
LINE
5
262
100
AcDbEntity
8
0
100
AcDbLine
62
7
6
CONTINUOUS
10
9.5103594806
20
20.7603594806
11
9.6500000000
21
20.9000000000
0
LINE
5
263
100
AcDbEntity
8
0
100
AcDbLine
62
7
6
CONTINUOUS
10
7.5500910000
20
13.6616860000
11
8.5664900000
21
14.3013570000
0
LINE
5
264
100
AcDbEntity
8
0
100
AcDbLine
62
7
6
CONTINUOUS
10
8.3317660000
20
14.3276140000
11
7.3148510000
21
13.6982150000
0
LINE
5
265
100
AcDbEntity
8
0
100
AcDbLine
62
9
6
CONTINUOUS
10
7.5001332693
20
-18.9000000000
11
7.2687951175
21
-18.6686618482
0
LINE
5
266
100
AcDbEntity
8
0
100
AcDbLine
62
7
6
CONTINUOUS
10
9.5103594806
20
-20.7603594806
11
9.6500000000
21
-20.9000000000
0
LINE
5
267
100
AcDbEntity
8
0
100
AcDbLine
62
7
6
CONTINUOUS
10
-7.2382150030
20
20.9317102097
11
-7.2084845302
21
19.9483339502
0
LINE
5
268
100
AcDbEntity
8
0
100
AcDbLine
62
7
6
CONTINUOUS
10
-7.2382150030
20
-20.9317102097
11
-7.2084845302
21
-19.9483339502
0
LINE
5
269
100
AcDbEntity
8
0
100
AcDbLine
62
7
6
CONTINUOUS
10
-1.8250000000
20
15.6000000000
11
-2.6750000000
21
12.4277568136
0
LINE
5
26A
100
AcDbEntity
8
0
100
AcDbLine
62
7
6
CONTINUOUS
10
-3.4345963650
20
-21.2139629885
11
-3.3821231691
21
-22.2000000000
0
LINE
5
26B
100
AcDbEntity
8
0
100
AcDbLine
62
7
6
CONTINUOUS
10
-4.5000000000
20
-18.9000000000
11
-4.5000000000
21
-18.8834189512
0
LINE
5
26C
100
AcDbEntity
8
0
100
AcDbLine
62
7
6
CONTINUOUS
10
-4.5000000000
20
18.9000000000
11
-4.5000000000
21
18.8834189512
0
LINE
5
26D
100
AcDbEntity
8
0
100
AcDbLine
62
9
6
CONTINUOUS
10
-3.2500000000
20
16.8066482796
11
-3.2500000000
21
18.7952395089
0
LINE
5
26E
100
AcDbEntity
8
0
100
AcDbLine
62
9
6
CONTINUOUS
10
-3.2500000000
20
-16.8066482796
11
-3.2500000000
21
-18.7952395089
0
LINE
5
26F
100
AcDbEntity
8
0
100
AcDbLine
62
7
6
CONTINUOUS
10
-3.4345963650
20
21.2139629885
11
-3.3821231691
21
22.2000000000
0
LINE
5
270
100
AcDbEntity
8
0
100
AcDbLine
62
7
6
CONTINUOUS
10
2.7003889480
20
21.1802222394
11
3.0104834329
21
22.1955695989
0
LINE
5
271
100
AcDbEntity
8
0
100
AcDbLine
62
7
6
CONTINUOUS
10
3.0802765158
20
4.5197234842
11
2.5098050633
21
4.3500000000
0
LINE
5
272
100
AcDbEntity
8
0
100
AcDbLine
62
9
6
CONTINUOUS
10
1.0000000000
20
-4.6493203631
11
0.5000000000
21
-4.6493203631
0
LINE
5
273
100
AcDbEntity
8
0
100
AcDbLine
62
9
6
CONTINUOUS
10
1.0000000000
20
-3.3506796369
11
0.5000000000
21
-3.3506796369
0
LINE
5
274
100
AcDbEntity
8
0
100
AcDbLine
62
7
6
CONTINUOUS
10
3.0104834329
20
-22.1955695989
11
2.7003889480
21
-21.1802222394
0
LINE
5
275
100
AcDbEntity
8
0
100
AcDbLine
62
7
6
CONTINUOUS
10
-0.9750000000
20
-13.4722431864
11
-1.8250000000
21
-10.3000000000
0
LINE
5
276
100
AcDbEntity
8
0
100
AcDbLine
62
7
6
CONTINUOUS
10
-3.0984611006
20
21.1999238360
11
-3.1000000000
21
22.2000000000
0
LINE
5
277
100
AcDbEntity
8
0
100
AcDbLine
62
7
6
CONTINUOUS
10
-2.7500000000
20
18.2952585473
11
-2.7500000000
21
17.4774686728
0
LINE
5
278
100
AcDbEntity
8
0
100
AcDbLine
62
7
6
CONTINUOUS
10
-2.7500000000
20
-17.4774686728
11
-2.7500000000
21
-18.2952585473
0
LINE
5
279
100
AcDbEntity
8
0
100
AcDbLine
62
7
6
CONTINUOUS
10
-2.5000000000
20
-19.1000000000
11
-2.5000000000
21
-18.8678924911
0
LINE
5
27A
100
AcDbEntity
8
0
100
AcDbLine
62
7
6
CONTINUOUS
10
-2.5000000000
20
18.8678924911
11
-2.5000000000
21
19.1000000000
0
LINE
5
27B
100
AcDbEntity
8
0
100
AcDbLine
62
7
6
CONTINUOUS
10
-2.1500000000
20
12.4277568136
11
-2.1500000000
21
9.8000000000
0
LINE
5
27C
100
AcDbEntity
8
0
100
AcDbLine
62
7
6
CONTINUOUS
10
-2.1500000000
20
-13.4722431864
11
-2.1500000000
21
-16.1000000000
0
LINE
5
27D
100
AcDbEntity
8
0
100
AcDbLine
62
7
6
CONTINUOUS
10
-3.0984611006
20
-21.1999238360
11
-3.1000000000
21
-22.2000000000
0
LINE
5
27E
100
AcDbEntity
8
0
100
AcDbLine
62
9
6
CONTINUOUS
10
11.0000000000
20
15.4001332693
11
10.7686618482
21
15.1687951175
0
LINE
5
27F
100
AcDbEntity
8
0
100
AcDbLine
62
7
6
CONTINUOUS
10
4.1197234842
20
3.4802765158
11
4.6901949367
21
3.6500000000
0
LINE
5
280
100
AcDbEntity
8
0
100
AcDbLine
62
7
6
CONTINUOUS
10
7.1749590000
20
-2.3696570000
11
9.2250560000
21
-2.3696620000
0
LINE
5
281
100
AcDbEntity
8
0
100
AcDbLine
62
7
6
CONTINUOUS
10
9.2250510000
20
-1.9596460000
11
7.1749590000
21
-1.9596410000
0
LINE
5
282
100
AcDbEntity
8
0
100
AcDbLine
62
7
6
CONTINUOUS
10
7.1749590000
20
-1.5496410000
11
9.2250510000
21
-1.5496410000
0
LINE
5
283
100
AcDbEntity
8
0
100
AcDbLine
62
9
6
CONTINUOUS
10
11.0000000000
20
-15.4001332693
11
10.7686618482
21
-15.1687951175
0
LINE
5
284
100
AcDbEntity
8
0
100
AcDbLine
62
9
6
CONTINUOUS
10
-1.5000000000
20
-19.1000000000
11
-1.5000000000
21
-18.8590446123
0
LINE
5
285
100
AcDbEntity
8
0
100
AcDbLine
62
7
6
CONTINUOUS
10
-1.5000000000
20
-16.1000000000
11
-1.5000000000
21
-13.4722431864
0
LINE
5
286
100
AcDbEntity
8
0
100
AcDbLine
62
7
6
CONTINUOUS
10
-1.5000000000
20
9.8000000000
11
-1.5000000000
21
12.4277568136
0
LINE
5
287
100
AcDbEntity
8
0
100
AcDbLine
62
9
6
CONTINUOUS
10
-1.5000000000
20
18.8590446123
11
-1.5000000000
21
19.1000000000
0
LINE
5
288
100
AcDbEntity
8
0
100
AcDbLine
62
9
6
CONTINUOUS
10
-0.5000000000
20
-8.5000000000
11
-0.5000000000
21
8.5000000000
0
LINE
5
289
100
AcDbEntity
8
0
100
AcDbLine
62
7
6
CONTINUOUS
10
6.9712561167
20
21.2139629885
11
6.9587505924
21
21.1802222394
0
LINE
5
28A
100
AcDbEntity
8
0
100
AcDbLine
62
7
6
CONTINUOUS
10
9.2250510000
20
-1.1396260000
11
7.8731530000
21
-1.1396260000
0
LINE
5
28B
100
AcDbEntity
8
0
100
AcDbLine
62
7
6
CONTINUOUS
10
7.8731530000
20
0.0456690000
11
9.2250510000
21
0.0456740000
0
LINE
5
28C
100
AcDbEntity
8
0
100
AcDbLine
62
7
6
CONTINUOUS
10
7.1749590000
20
-3.0530190000
11
8.5865580000
21
-3.5062280000
0
LINE
5
28D
100
AcDbEntity
8
0
100
AcDbLine
62
7
6
CONTINUOUS
10
9.2250510000
20
-3.3012180000
11
7.1749590000
21
-2.6429980000
0
LINE
5
28E
100
AcDbEntity
8
0
100
AcDbLine
62
7
6
CONTINUOUS
10
6.9587505924
20
-21.1802222394
11
6.9712561167
21
-21.2139629885
0
LINE
5
28F
100
AcDbEntity
8
0
100
AcDbLine
62
7
6
CONTINUOUS
10
0.5000000000
20
-8.5000000000
11
0.5000000000
21
8.5000000000
0
LINE
5
290
100
AcDbEntity
8
0
100
AcDbLine
62
9
6
CONTINUOUS
10
1.0000000000
20
-10.0000000000
11
0.9999999989
21
-9.0000000000
0
LINE
5
291
100
AcDbEntity
8
0
100
AcDbLine
62
9
6
CONTINUOUS
10
1.0000000000
20
10.0000000000
11
1.0000000000
21
9.0000000000
0
LINE
5
292
100
AcDbEntity
8
0
100
AcDbLine
62
9
6
CONTINUOUS
10
1.0000000000
20
-8.5000000000
11
1.0000000000
21
-4.6493203631
0
LINE
5
293
100
AcDbEntity
8
0
100
AcDbLine
62
9
6
CONTINUOUS
10
1.0000000000
20
-3.3506796369
11
1.0000000000
21
3.3506796369
0
LINE
5
294
100
AcDbEntity
8
0
100
AcDbLine
62
9
6
CONTINUOUS
10
1.0000000000
20
4.6493203631
11
1.0000000000
21
8.5000000000
0
LINE
5
295
100
AcDbEntity
8
0
100
AcDbLine
62
9
6
CONTINUOUS
10
1.5000000000
20
19.1000000000
11
1.5000000000
21
18.8590446123
0
LINE
5
296
100
AcDbEntity
8
0
100
AcDbLine
62
9
6
CONTINUOUS
10
1.5000000000
20
-18.8590446123
11
1.5000000000
21
-19.1000000000
0
LINE
5
297
100
AcDbEntity
8
0
100
AcDbLine
62
7
6
CONTINUOUS
10
-1.8250000000
20
-10.3000000000
11
-2.6750000000
21
-13.4722431864
0
LINE
5
298
100
AcDbEntity
8
0
100
AcDbLine
62
7
6
CONTINUOUS
10
3.2500000000
20
5.0901949367
11
3.0802765158
21
4.5197234842
0
LINE
5
299
100
AcDbEntity
8
0
100
AcDbLine
62
7
6
CONTINUOUS
10
-6.9712561167
20
-21.2139629885
11
-6.9587505924
21
-21.1802222394
0
LINE
5
29A
100
AcDbEntity
8
0
100
AcDbLine
62
7
6
CONTINUOUS
10
9.2250410000
20
4.3694620000
11
8.3830587682
21
3.9330213615
0
LINE
5
29B
100
AcDbEntity
8
0
100
AcDbLine
62
7
6
CONTINUOUS
10
8.4323680000
20
3.4967570000
11
9.2250460000
21
3.9076430000
0
LINE
5
29C
100
AcDbEntity
8
0
100
AcDbLine
62
7
6
CONTINUOUS
10
9.2250510000
20
2.4554950000
11
7.1749540000
21
1.7972760000
0
LINE
5
29D
100
AcDbEntity
8
0
100
AcDbLine
62
7
6
CONTINUOUS
10
8.8218830000
20
1.9160380000
11
9.2250460000
21
2.0454750000
0
LINE
5
29E
100
AcDbEntity
8
0
100
AcDbLine
62
7
6
CONTINUOUS
10
7.8134520000
20
1.5922560000
11
8.4323680000
21
1.7909670000
0
LINE
5
29F
100
AcDbEntity
8
0
100
AcDbLine
62
7
6
CONTINUOUS
10
9.2250510000
20
0.4556890000
11
7.1749590000
21
0.4556890000
0
LINE
5
2A0
100
AcDbEntity
8
0
100
AcDbLine
62
7
6
CONTINUOUS
10
7.1749590000
20
-0.1641440000
11
8.5100520000
21
-0.5469760000
0
LINE
5
2A1
100
AcDbEntity
8
0
100
AcDbLine
62
7
6
CONTINUOUS
10
-6.9587505924
20
21.1802222394
11
-6.9712561167
21
21.2139629885
0
LINE
5
2A2
100
AcDbEntity
8
0
100
AcDbLine
62
7
6
CONTINUOUS
10
3.0984611006
20
-21.1999238360
11
3.1000000000
21
-22.2000000000
0
LINE
5
2A3
100
AcDbEntity
8
0
100
AcDbLine
62
7
6
CONTINUOUS
10
2.4573050553
20
3.6500000000
11
2.4573050553
21
3.9273827613
0
LINE
5
2A4
100
AcDbEntity
8
0
100
AcDbLine
62
7
6
CONTINUOUS
10
2.4573050553
20
4.0726172387
11
2.4573050553
21
4.3500000000
0
LINE
5
2A5
100
AcDbEntity
8
0
100
AcDbLine
62
7
6
CONTINUOUS
10
2.5000000000
20
19.1000000000
11
2.5000000000
21
18.8678924911
0
LINE
5
2A6
100
AcDbEntity
8
0
100
AcDbLine
62
7
6
CONTINUOUS
10
2.5000000000
20
-18.8678924911
11
2.5000000000
21
-19.1000000000
0
LINE
5
2A7
100
AcDbEntity
8
0
100
AcDbLine
62
7
6
CONTINUOUS
10
3.1000000000
20
2.1094644631
11
3.1000000000
21
3.4139823037
0
LINE
5
2A8
100
AcDbEntity
8
0
100
AcDbLine
62
7
6
CONTINUOUS
10
3.1000000000
20
4.5860176963
11
3.1000000000
21
5.8905355369
0
LINE
5
2A9
100
AcDbEntity
8
0
100
AcDbLine
62
7
6
CONTINUOUS
10
3.2500000000
20
2.5082979297
11
3.2500000000
21
2.9098050633
0
LINE
5
2AA
100
AcDbEntity
8
0
100
AcDbLine
62
7
6
CONTINUOUS
10
3.2500000000
20
5.0901949367
11
3.2500000000
21
5.4917020703
0
LINE
5
2AB
100
AcDbEntity
8
0
100
AcDbLine
62
7
6
CONTINUOUS
10
3.0984611006
20
21.1999238360
11
3.1000000000
21
22.2000000000
0
LINE
5
2AC
100
AcDbEntity
8
0
100
AcDbLine
62
7
6
CONTINUOUS
10
3.9500000000
20
2.9098050633
11
4.1197234842
21
3.4802765158
0
LINE
5
2AD
100
AcDbEntity
8
0
100
AcDbLine
62
7
6
CONTINUOUS
10
-3.0104834329
20
-22.1955695989
11
-2.7003889480
21
-21.1802222394
0
LINE
5
2AE
100
AcDbEntity
8
0
100
AcDbLine
62
9
6
CONTINUOUS
10
-11.0000000000
20
-15.4001332693
11
-10.7686618482
21
-15.1687951175
0
LINE
5
2AF
100
AcDbEntity
8
0
100
AcDbLine
62
7
6
CONTINUOUS
10
8.5100520000
20
-0.5469760000
11
7.1749590000
21
-0.9298080000
0
LINE
5
2B0
100
AcDbEntity
8
0
100
AcDbLine
62
7
6
CONTINUOUS
10
7.8731530000
20
-1.1396260000
11
9.2250510000
21
-0.7519810000
0
LINE
5
2B1
100
AcDbEntity
8
0
100
AcDbLine
62
7
6
CONTINUOUS
10
3.2500000000
20
2.5082979297
11
3.9500000000
21
2.5082979297
0
LINE
5
2B2
100
AcDbEntity
8
0
100
AcDbLine
62
7
6
CONTINUOUS
10
7.1749540000
20
2.7288370000
11
9.2250460000
21
2.7288370000
0
LINE
5
2B3
100
AcDbEntity
8
0
100
AcDbLine
62
7
6
CONTINUOUS
10
3.9500000000
20
2.8573050553
11
3.6726172387
21
2.8573050553
0
LINE
5
2B4
100
AcDbEntity
8
0
100
AcDbLine
62
7
6
CONTINUOUS
10
3.5273827613
20
2.8573050553
11
3.2500000000
21
2.8573050553
0
LINE
5
2B5
100
AcDbEntity
8
0
100
AcDbLine
62
7
6
CONTINUOUS
10
8.0530970000
20
3.1332050000
11
7.5542190000
21
3.1332000000
0
LINE
5
2B6
100
AcDbEntity
8
0
100
AcDbLine
62
9
6
CONTINUOUS
10
1.0000000000
20
3.3506796369
11
0.5000000000
21
3.3506796369
0
LINE
5
2B7
100
AcDbEntity
8
0
100
AcDbLine
62
7
6
CONTINUOUS
10
1.7824788659
20
3.6500000000
11
2.5098050633
21
3.6500000000
0
LINE
5
2B8
100
AcDbEntity
8
0
100
AcDbLine
62
7
6
CONTINUOUS
10
4.6901949367
20
3.6500000000
11
5.6900000000
21
3.6500000000
0
LINE
5
2B9
100
AcDbEntity
8
0
100
AcDbLine
62
7
6
CONTINUOUS
10
9.2250460000
20
3.1388580000
11
8.4323620000
21
3.1389040000
0
LINE
5
2BA
100
AcDbEntity
8
0
100
AcDbLine
62
7
6
CONTINUOUS
10
9.2250460000
20
-0.3419760000
11
7.8731530000
21
0.0456690000
0
LINE
5
2BB
100
AcDbEntity
8
0
100
AcDbLine
62
7
6
CONTINUOUS
10
7.1749540000
20
1.3872400000
11
9.2250510000
21
0.7290310000
0
LINE
5
2BC
100
AcDbEntity
8
0
100
AcDbLine
62
9
6
CONTINUOUS
10
-11.0000000000
20
15.4001332693
11
-10.7686618482
21
15.1687951175
0
LINE
5
2BD
100
AcDbEntity
8
0
100
AcDbLine
62
7
6
CONTINUOUS
10
-2.7003889480
20
21.1802222394
11
-3.0104834329
21
22.1955695989
0
LINE
5
2BE
100
AcDbEntity
8
0
100
AcDbLine
62
7
6
CONTINUOUS
10
-0.9750000000
20
12.4277568136
11
-1.8250000000
21
15.6000000000
0
LINE
5
2BF
100
AcDbEntity
8
0
100
AcDbLine
62
7
6
CONTINUOUS
10
3.4345963649
20
21.2139629885
11
3.3821231691
21
22.2000000000
0
LINE
5
2C0
100
AcDbEntity
8
0
100
AcDbLine
62
7
6
CONTINUOUS
10
3.9500000000
20
2.5082979297
11
3.9500000000
21
2.9098050633
0
LINE
5
2C1
100
AcDbEntity
8
0
100
AcDbLine
62
7
6
CONTINUOUS
10
3.9500000000
20
5.0901949367
11
3.9500000000
21
5.4917020703
0
LINE
5
2C2
100
AcDbEntity
8
0
100
AcDbLine
62
7
6
CONTINUOUS
10
4.1000000000
20
2.0318520869
11
4.1000000000
21
3.4139823037
0
LINE
5
2C3
100
AcDbEntity
8
0
100
AcDbLine
62
7
6
CONTINUOUS
10
4.1000000000
20
4.5860176963
11
4.1000000000
21
5.9681479131
0
LINE
5
2C4
100
AcDbEntity
8
0
100
AcDbLine
62
7
6
CONTINUOUS
10
4.5000000000
20
-18.9000000000
11
4.5000000000
21
-18.8834189512
0
LINE
5
2C5
100
AcDbEntity
8
0
100
AcDbLine
62
7
6
CONTINUOUS
10
4.5000000000
20
18.9000000000
11
4.5000000000
21
18.8834189512
0
LINE
5
2C6
100
AcDbEntity
8
0
100
AcDbLine
62
7
6
CONTINUOUS
10
4.7426949447
20
3.6500000000
11
4.7426949447
21
3.9273827613
0
LINE
5
2C7
100
AcDbEntity
8
0
100
AcDbLine
62
7
6
CONTINUOUS
10
4.7426949447
20
4.0726172387
11
4.7426949447
21
4.3500000000
0
LINE
5
2C8
100
AcDbEntity
8
0
100
AcDbLine
62
7
6
CONTINUOUS
10
5.4335100000
20
15.7672740000
11
5.4335100000
21
15.5771040000
0
LINE
5
2C9
100
AcDbEntity
8
0
100
AcDbLine
62
7
6
CONTINUOUS
10
5.4335100000
20
14.8623950000
11
5.4335100000
21
14.6742720000
0
LINE
5
2CA
100
AcDbEntity
8
0
100
AcDbLine
62
7
6
CONTINUOUS
10
5.4335100000
20
14.5382980000
11
5.4335100000
21
13.6267150000
0
LINE
5
2CB
100
AcDbEntity
8
0
100
AcDbLine
62
7
6
CONTINUOUS
10
5.4335100000
20
12.9502766852
11
5.4335100000
21
12.3717140000
0
LINE
5
2CC
100
AcDbEntity
8
0
100
AcDbLine
62
7
6
CONTINUOUS
10
5.4335100000
20
11.7353739747
11
5.4335100000
21
11.1846500000
0
LINE
5
2CD
100
AcDbEntity
8
0
100
AcDbLine
62
7
6
CONTINUOUS
10
3.4345963650
20
-21.2139629885
11
3.3821231691
21
-22.2000000000
0
LINE
5
2CE
100
AcDbEntity
8
0
100
AcDbLine
62
7
6
CONTINUOUS
10
1.7824788659
20
4.3500000000
11
2.5098050633
21
4.3500000000
0
LINE
5
2CF
100
AcDbEntity
8
0
100
AcDbLine
62
7
6
CONTINUOUS
10
4.6901949367
20
4.3500000000
11
5.6900000000
21
4.3500000000
0
LINE
5
2D0
100
AcDbEntity
8
0
100
AcDbLine
62
9
6
CONTINUOUS
10
1.0000000000
20
4.6493203631
11
0.5000000000
21
4.6493203631
0
LINE
5
2D1
100
AcDbEntity
8
0
100
AcDbLine
62
7
6
CONTINUOUS
10
3.9500000000
20
5.1426949447
11
3.6726172387
21
5.1426949447
0
LINE
5
2D2
100
AcDbEntity
8
0
100
AcDbLine
62
7
6
CONTINUOUS
10
3.5273827613
20
5.1426949447
11
3.2500000000
21
5.1426949447
0
LINE
5
2D3
100
AcDbEntity
8
0
100
AcDbLine
62
7
6
CONTINUOUS
10
2.5098050633
20
3.6500000000
11
3.0802765158
21
3.4802765158
0
LINE
5
2D4
100
AcDbEntity
8
0
100
AcDbLine
62
7
6
CONTINUOUS
10
8.4323680000
20
1.3935540000
11
7.8134520000
21
1.5922560000
0
LINE
5
2D5
100
AcDbEntity
8
0
100
AcDbLine
62
7
6
CONTINUOUS
10
9.2250460000
20
1.1390470000
11
8.8218830000
21
1.2684890000
0
LINE
5
2D6
100
AcDbEntity
8
0
100
AcDbLine
62
7
6
CONTINUOUS
10
3.0802765158
20
3.4802765158
11
3.2500000000
21
2.9098050633
0
LINE
5
2D7
100
AcDbEntity
8
0
100
AcDbLine
62
7
6
CONTINUOUS
10
4.1197234842
20
4.5197234842
11
3.9500000000
21
5.0901949367
0
LINE
5
2D8
100
AcDbEntity
8
0
100
AcDbLine
62
7
6
CONTINUOUS
10
7.2382150030
20
-20.9317102097
11
7.2084845302
21
-19.9483339502
0
LINE
5
2D9
100
AcDbEntity
8
0
100
AcDbLine
62
7
6
CONTINUOUS
10
5.5782320000
20
11.3537490000
11
5.5782320000
21
11.6603981075
0
LINE
5
2DA
100
AcDbEntity
8
0
100
AcDbLine
62
7
6
CONTINUOUS
10
5.5782320000
20
12.5406160000
11
5.5782320000
21
12.9802471011
0
LINE
5
2DB
100
AcDbEntity
8
0
100
AcDbLine
62
7
6
CONTINUOUS
10
5.5834640000
20
13.7957810000
11
5.5834640000
21
14.5382980000
0
LINE
5
2DC
100
AcDbEntity
8
0
100
AcDbLine
62
7
6
CONTINUOUS
10
5.6900000000
20
4.3500000000
11
5.6900000000
21
3.6500000000
0
LINE
5
2DD
100
AcDbEntity
8
0
100
AcDbLine
62
7
6
CONTINUOUS
10
5.9634590000
20
11.6604142748
11
5.9634590000
21
11.3537490000
0
LINE
5
2DE
100
AcDbEntity
8
0
100
AcDbLine
62
7
6
CONTINUOUS
10
5.9669470000
20
14.4807330000
11
5.9669470000
21
13.7957810000
0
LINE
5
2DF
100
AcDbEntity
8
0
100
AcDbLine
62
7
6
CONTINUOUS
10
6.0035500000
20
13.0446748007
11
6.0035500000
21
12.5406160000
0
LINE
5
2E0
100
AcDbEntity
8
0
100
AcDbLine
62
7
6
CONTINUOUS
10
6.1012120000
20
11.3537490000
11
6.1012120000
21
11.7466350445
0
LINE
5
2E1
100
AcDbEntity
8
0
100
AcDbLine
62
7
6
CONTINUOUS
10
6.1169000000
20
13.7957810000
11
6.1169000000
21
14.4807330000
0
LINE
5
2E2
100
AcDbEntity
8
0
100
AcDbLine
62
7
6
CONTINUOUS
10
6.1482290000
20
12.5406160000
11
6.1482290000
21
12.9502775093
0
LINE
5
2E3
100
AcDbEntity
8
0
100
AcDbLine
62
7
6
CONTINUOUS
10
6.2500000000
20
-18.2952585473
11
6.2500000000
21
-17.4774686728
0
LINE
5
2E4
100
AcDbEntity
8
0
100
AcDbLine
62
7
6
CONTINUOUS
10
6.2500000000
20
17.4774686728
11
6.2500000000
21
18.2952585473
0
LINE
5
2E5
100
AcDbEntity
8
0
100
AcDbLine
62
7
6
CONTINUOUS
10
6.5003360000
20
16.1350320000
11
6.5003360000
21
15.9536140000
0
LINE
5
2E6
100
AcDbEntity
8
0
100
AcDbLine
62
7
6
CONTINUOUS
10
6.5351490000
20
14.5504190000
11
6.5351490000
21
13.7957810000
0
LINE
5
2E7
100
AcDbEntity
8
0
100
AcDbLine
62
7
6
CONTINUOUS
10
6.5396990000
20
11.7606269818
11
6.5396990000
21
11.3537490000
0
LINE
5
2E8
100
AcDbEntity
8
0
100
AcDbLine
62
7
6
CONTINUOUS
10
6.6851490000
20
11.1846500000
11
6.6851490000
21
11.7115862033
0
LINE
5
2E9
100
AcDbEntity
8
0
100
AcDbLine
62
7
6
CONTINUOUS
10
6.6851490000
20
12.3717140000
11
6.6851490000
21
12.5406160000
0
LINE
5
2EA
100
AcDbEntity
8
0
100
AcDbLine
62
7
6
CONTINUOUS
10
6.6851490000
20
13.2031409307
11
6.6851490000
21
13.4105520000
0
LINE
5
2EB
100
AcDbEntity
8
0
100
AcDbLine
62
7
6
CONTINUOUS
10
6.6851490000
20
13.6267150000
11
6.6851490000
21
14.5504190000
0
LINE
5
2EC
100
AcDbEntity
8
0
100
AcDbLine
62
7
6
CONTINUOUS
10
6.6851490000
20
15.1309710000
11
6.6851490000
21
15.3105750000
0
LINE
5
2ED
100
AcDbEntity
8
0
100
AcDbLine
62
7
6
CONTINUOUS
10
6.6851490000
20
15.9536140000
11
6.6851490000
21
16.1350320000
0
LINE
5
2EE
100
AcDbEntity
8
0
100
AcDbLine
62
9
6
CONTINUOUS
10
6.7500000000
20
-16.8066482796
11
6.7500000000
21
-18.7952395089
0
LINE
5
2EF
100
AcDbEntity
8
0
100
AcDbLine
62
9
6
CONTINUOUS
10
6.7500000000
20
16.8066482796
11
6.7500000000
21
18.7952395089
0
LINE
5
2F0
100
AcDbEntity
8
0
100
AcDbLine
62
7
6
CONTINUOUS
10
7.2382150030
20
20.9317102097
11
7.2084845302
21
19.9483339502
0
LINE
5
2F1
100
AcDbEntity
8
0
100
AcDbLine
62
7
6
CONTINUOUS
10
8.5865580000
20
-3.5062280000
11
7.1749590000
21
-3.9594420000
0
LINE
5
2F2
100
AcDbEntity
8
0
100
AcDbLine
62
7
6
CONTINUOUS
10
7.1749590000
20
-4.3694620000
11
9.2250560000
21
-3.7112480000
0
LINE
5
2F3
100
AcDbEntity
8
0
100
AcDbLine
62
7
6
CONTINUOUS
10
3.2500000000
20
5.4917020703
11
3.9500000000
21
5.4917020703
0
LINE
5
2F4
100
AcDbEntity
8
0
100
AcDbLine
62
7
6
CONTINUOUS
10
4.6901949367
20
4.3500000000
11
4.1197234842
21
4.5197234842
0
LINE
5
2F5
100
AcDbEntity
8
0
100
AcDbLine
62
7
6
CONTINUOUS
10
7.2084845302
20
19.8000000000
11
7.2189575692
21
19.2000000000
0
LINE
5
2F6
100
AcDbEntity
8
0
100
AcDbLine
62
7
6
CONTINUOUS
10
7.1749540000
20
3.6889681640
11
7.1749540000
21
2.7288370000
0
LINE
5
2F7
100
AcDbEntity
8
0
100
AcDbLine
62
7
6
CONTINUOUS
10
7.1749540000
20
1.7972760000
11
7.1749540000
21
1.3872400000
0
LINE
5
2F8
100
AcDbEntity
8
0
100
AcDbLine
62
7
6
CONTINUOUS
10
7.1749590000
20
0.4556890000
11
7.1749590000
21
-0.1641440000
0
LINE
5
2F9
100
AcDbEntity
8
0
100
AcDbLine
62
7
6
CONTINUOUS
10
7.1749590000
20
-0.9298080000
11
7.1749590000
21
-1.5496410000
0
LINE
5
2FA
100
AcDbEntity
8
0
100
AcDbLine
62
7
6
CONTINUOUS
10
7.1749590000
20
-1.9596410000
11
7.1749590000
21
-2.3696570000
0
LINE
5
2FB
100
AcDbEntity
8
0
100
AcDbLine
62
7
6
CONTINUOUS
10
7.1749590000
20
-2.6429980000
11
7.1749590000
21
-3.0530190000
0
LINE
5
2FC
100
AcDbEntity
8
0
100
AcDbLine
62
7
6
CONTINUOUS
10
7.1749590000
20
-3.9594420000
11
7.1749590000
21
-4.3694620000
0
LINE
5
2FD
100
AcDbEntity
8
0
100
AcDbLine
62
7
6
CONTINUOUS
10
7.2084845302
20
19.9483339502
11
7.2084845302
21
19.8000000000
0
LINE
5
2FE
100
AcDbEntity
8
0
100
AcDbLine
62
7
6
CONTINUOUS
10
7.2084845302
20
-19.8000000000
11
7.2084845302
21
-19.9483339502
0
LINE
5
2FF
100
AcDbEntity
8
0
100
AcDbLine
62
9
6
CONTINUOUS
10
7.2687951175
20
-17.6686999252
11
7.2687951167
21
-18.6686618482
0
LINE
5
300
100
AcDbEntity
8
0
100
AcDbLine
62
9
6
CONTINUOUS
10
7.2687951175
20
17.6686999252
11
7.2687951175
21
18.6686618482
0
LINE
5
301
100
AcDbEntity
8
0
100
AcDbLine
62
7
6
CONTINUOUS
10
7.3148510000
20
15.2723258333
11
7.3148510000
21
14.7650270000
0
LINE
5
302
100
AcDbEntity
8
0
100
AcDbLine
62
7
6
CONTINUOUS
10
7.3148510000
20
14.4913310000
11
7.3148510000
21
14.3276140000
0
LINE
5
303
100
AcDbEntity
8
0
100
AcDbLine
62
7
6
CONTINUOUS
10
7.3148510000
20
13.2641380000
11
7.3148510000
21
12.3525210000
0
LINE
5
304
100
AcDbEntity
8
0
100
AcDbLine
62
7
6
CONTINUOUS
10
7.3148510000
20
13.6982150000
11
7.3148510000
21
13.4977390000
0
LINE
5
305
100
AcDbEntity
8
0
100
AcDbLine
62
7
6
CONTINUOUS
10
7.3148510000
20
11.7529463686
11
7.3148510000
21
11.1898320000
0
LINE
5
306
100
AcDbEntity
8
0
100
AcDbLine
62
7
6
CONTINUOUS
10
7.4595720000
20
11.3589640000
11
7.4595720000
21
11.7023042140
0
LINE
5
307
100
AcDbEntity
8
0
100
AcDbLine
62
7
6
CONTINUOUS
10
7.4595720000
20
14.9341260000
11
7.4595720000
21
15.2494639056
0
LINE
5
308
100
AcDbEntity
8
0
100
AcDbLine
62
7
6
CONTINUOUS
10
7.4648050000
20
12.5216200000
11
7.4648050000
21
13.2641380000
0
LINE
5
309
100
AcDbEntity
8
0
100
AcDbLine
62
7
6
CONTINUOUS
10
7.5226756989
20
20.7603594806
11
7.5226756989
21
19.2000000000
0
LINE
5
30A
100
AcDbEntity
8
0
100
AcDbLine
62
7
6
CONTINUOUS
10
7.5226756989
20
-19.2000000000
11
7.5226756989
21
-20.7603594806
0
LINE
5
30B
100
AcDbEntity
8
0
100
AcDbLine
62
7
6
CONTINUOUS
10
7.5542190000
20
3.1332000000
11
7.5542190000
21
3.6320406187
0
LINE
5
30C
100
AcDbEntity
8
0
100
AcDbLine
62
7
6
CONTINUOUS
10
7.8482870000
20
13.2068030000
11
7.8482870000
21
12.5216200000
0
LINE
5
30D
100
AcDbEntity
8
0
100
AcDbLine
62
7
6
CONTINUOUS
10
7.8936530000
20
11.7023191670
11
7.8936530000
21
11.3589640000
0
LINE
5
30E
100
AcDbEntity
8
0
100
AcDbLine
62
7
6
CONTINUOUS
10
7.9982400000
20
12.5216200000
11
7.9982400000
21
13.2068030000
0
LINE
5
30F
100
AcDbEntity
8
0
100
AcDbLine
62
7
6
CONTINUOUS
10
8.0383290000
20
11.3589640000
11
8.0383290000
21
11.7493432124
0
LINE
5
310
100
AcDbEntity
8
0
100
AcDbLine
62
7
6
CONTINUOUS
10
8.0530970000
20
3.6320493813
11
8.0530970000
21
3.1332050000
0
LINE
5
311
100
AcDbEntity
8
0
100
AcDbLine
62
7
6
CONTINUOUS
10
8.3816750000
20
16.2153500000
11
8.3816750000
21
16.0340310000
0
LINE
5
312
100
AcDbEntity
8
0
100
AcDbLine
62
7
6
CONTINUOUS
10
8.4164890000
20
13.2764250000
11
8.4164890000
21
12.5216200000
0
LINE
5
313
100
AcDbEntity
8
0
100
AcDbLine
62
7
6
CONTINUOUS
10
8.4217680000
20
15.2494720112
11
8.4217680000
21
14.9341260000
0
LINE
5
314
100
AcDbEntity
8
0
100
AcDbLine
62
7
6
CONTINUOUS
10
8.4323620000
20
3.1389040000
11
8.4323680000
21
3.4967570000
0
LINE
5
315
100
AcDbEntity
8
0
100
AcDbLine
62
7
6
CONTINUOUS
10
8.4323680000
20
1.7909670000
11
8.4323680000
21
1.3935540000
0
LINE
5
316
100
AcDbEntity
8
0
100
AcDbLine
62
7
6
CONTINUOUS
10
8.5664900000
20
11.1898320000
11
8.5664900000
21
11.3589640000
0
LINE
5
317
100
AcDbEntity
8
0
100
AcDbLine
62
7
6
CONTINUOUS
10
8.5664900000
20
12.3525210000
11
8.5664900000
21
13.2764250000
0
LINE
5
318
100
AcDbEntity
8
0
100
AcDbLine
62
7
6
CONTINUOUS
10
8.5664900000
20
13.4977390000
11
8.5664900000
21
13.6616860000
0
LINE
5
319
100
AcDbEntity
8
0
100
AcDbLine
62
7
6
CONTINUOUS
10
8.5664900000
20
14.3013570000
11
8.5664900000
21
14.4913310000
0
LINE
5
31A
100
AcDbEntity
8
0
100
AcDbLine
62
7
6
CONTINUOUS
10
8.5664900000
20
14.7650270000
11
8.5664900000
21
15.2723268610
0
LINE
5
31B
100
AcDbEntity
8
0
100
AcDbLine
62
7
6
CONTINUOUS
10
8.5664900000
20
16.0340310000
11
8.5664900000
21
16.2153500000
0
LINE
5
31C
100
AcDbEntity
8
0
100
AcDbLine
62
7
6
CONTINUOUS
10
8.8218830000
20
1.2684890000
11
8.8218830000
21
1.9160380000
0
LINE
5
31D
100
AcDbEntity
8
0
100
AcDbLine
62
7
6
CONTINUOUS
10
7.2189575692
20
-19.2000000000
11
7.2084845302
21
-19.8000000000
0
LINE
5
31E
100
AcDbEntity
8
0
100
AcDbLine
62
7
6
CONTINUOUS
10
-9.6500000000
20
-20.9000000000
11
-9.5103594806
21
-20.7603594806
0
LINE
5
31F
100
AcDbEntity
8
0
100
AcDbLine
62
9
6
CONTINUOUS
10
-7.5001332693
20
-18.9000000000
11
-7.2687951175
21
-18.6686618482
0
LINE
5
320
100
AcDbEntity
8
0
100
AcDbLine
62
9
6
CONTINUOUS
10
-0.5000000000
20
8.5000000000
11
0.5000000000
21
8.5000000000
0
LINE
5
321
100
AcDbEntity
8
0
100
AcDbLine
62
9
6
CONTINUOUS
10
1.0000000000
20
8.5000000000
11
10.8140415607
21
8.5000000046
0
LINE
5
322
100
AcDbEntity
8
0
100
AcDbLine
62
7
6
CONTINUOUS
10
-9.5103594806
20
20.7603594806
11
-9.6500000000
21
20.9000000000
0
LINE
5
323
100
AcDbEntity
8
0
100
AcDbLine
62
9
6
CONTINUOUS
10
-7.5001332693
20
18.9000000000
11
-7.2687951175
21
18.6686618482
0
LINE
5
324
100
AcDbEntity
8
0
100
AcDbLine
62
7
6
CONTINUOUS
10
9.2250560000
20
-3.7112480000
11
9.2250510000
21
-3.3012180000
0
LINE
5
325
100
AcDbEntity
8
0
100
AcDbLine
62
7
6
CONTINUOUS
10
9.2250460000
20
2.0454750000
11
9.2250510000
21
2.4554950000
0
LINE
5
326
100
AcDbEntity
8
0
100
AcDbLine
62
7
6
CONTINUOUS
10
9.2250560000
20
-2.3696620000
11
9.2250510000
21
-1.9596460000
0
LINE
5
327
100
AcDbEntity
8
0
100
AcDbLine
62
7
6
CONTINUOUS
10
9.2250510000
20
-0.7519810000
11
9.2250460000
21
-0.3419760000
0
LINE
5
328
100
AcDbEntity
8
0
100
AcDbLine
62
7
6
CONTINUOUS
10
9.2250460000
20
2.7288370000
11
9.2250460000
21
3.1388580000
0
LINE
5
329
100
AcDbEntity
8
0
100
AcDbLine
62
7
6
CONTINUOUS
10
9.2250510000
20
-1.5496410000
11
9.2250510000
21
-1.1396260000
0
LINE
5
32A
100
AcDbEntity
8
0
100
AcDbLine
62
7
6
CONTINUOUS
10
9.2250510000
20
0.0456740000
11
9.2250510000
21
0.4556890000
0
LINE
5
32B
100
AcDbEntity
8
0
100
AcDbLine
62
7
6
CONTINUOUS
10
9.2250510000
20
0.7290310000
11
9.2250460000
21
1.1390470000
0
LINE
5
32C
100
AcDbEntity
8
0
100
AcDbLine
62
7
6
CONTINUOUS
10
9.2250460000
20
3.9076430000
11
9.2250410000
21
4.3694620000
0
LINE
5
32D
100
AcDbEntity
8
0
100
AcDbLine
62
7
6
CONTINUOUS
10
9.5103594806
20
-20.7603594806
11
9.5103594806
21
-18.2629997810
0
LINE
5
32E
100
AcDbEntity
8
0
100
AcDbLine
62
7
6
CONTINUOUS
10
9.5103594806
20
18.2629997810
11
9.5103594806
21
20.7603594806
0
LINE
5
32F
100
AcDbEntity
8
0
100
AcDbLine
62
7
6
CONTINUOUS
10
9.6500000000
20
-20.9000000000
11
9.6500000000
21
-18.1608299811
0
LINE
5
330
100
AcDbEntity
8
0
100
AcDbLine
62
7
6
CONTINUOUS
10
9.6500000000
20
18.1608299811
11
9.6500000000
21
20.9000000000
0
LINE
5
331
100
AcDbEntity
8
0
100
AcDbLine
62
9
6
CONTINUOUS
10
9.7686999252
20
-15.1687951175
11
9.7686999252
21
-9.0000000000
0
LINE
5
332
100
AcDbEntity
8
0
100
AcDbLine
62
9
6
CONTINUOUS
10
9.7686999252
20
9.0000000000
11
9.7686999252
21
15.1687951175
0
LINE
5
333
100
AcDbEntity
8
0
100
AcDbLine
62
9
6
CONTINUOUS
10
9.8140796377
20
-8.5000000000
11
9.8140796377
21
8.5000000000
0
LINE
5
334
100
AcDbEntity
8
0
100
AcDbLine
62
7
6
CONTINUOUS
10
1.0000000000
20
9.0000000000
11
9.8009893360
21
9.0000000000
0
LINE
5
335
100
AcDbEntity
8
0
100
AcDbLine
62
7
6
CONTINUOUS
10
-2.1500000000
20
9.8000000000
11
-1.5000000000
21
9.8000000000
0
LINE
5
336
100
AcDbEntity
8
0
100
AcDbLine
62
9
6
CONTINUOUS
10
1.0000000000
20
10.0000000000
11
10.8009512590
21
10.0000000000
0
LINE
5
337
100
AcDbEntity
8
0
100
AcDbLine
62
9
6
CONTINUOUS
10
10.7686618482
20
-15.1687951175
11
10.7686618482
21
-10.0000000000
0
LINE
5
338
100
AcDbEntity
8
0
100
AcDbLine
62
9
6
CONTINUOUS
10
10.7686618482
20
10.0000000000
11
10.7686618482
21
15.1687951175
0
LINE
5
339
100
AcDbEntity
8
0
100
AcDbLine
62
9
6
CONTINUOUS
10
10.8140415607
20
-8.5000000000
11
10.8140415607
21
8.5000000000
0
LINE
5
33A
100
AcDbEntity
8
0
100
AcDbLine
62
7
6
CONTINUOUS
10
11.0000000000
20
15.4001332693
11
11.0000000000
21
-15.4001332693
0
LINE
5
33B
100
AcDbEntity
8
0
100
AcDbLine
62
7
6
CONTINUOUS
10
11.1500000000
20
21.8997711479
11
11.1500000000
21
16.6331235486
0
LINE
5
33C
100
AcDbEntity
8
0
100
AcDbLine
62
7
6
CONTINUOUS
10
11.1500000000
20
-21.8997711479
11
11.1500000000
21
-16.6331235461
0
LINE
5
33D
100
AcDbEntity
8
0
100
AcDbLine
62
7
6
CONTINUOUS
10
11.1761825974
20
-16.4071689224
11
11.1761825974
21
16.4071689224
0
LINE
5
33E
100
AcDbEntity
8
0
100
AcDbLine
62
7
6
CONTINUOUS
10
5.4335100000
20
11.1846500000
11
6.6851490000
21
11.1846500000
0
LINE
5
33F
100
AcDbEntity
8
0
100
AcDbLine
62
7
6
CONTINUOUS
10
7.3148510000
20
11.1898320000
11
8.5664900000
21
11.1898320000
0
LINE
5
340
100
AcDbEntity
8
0
100
AcDbLine
62
7
6
CONTINUOUS
10
6.5396990000
20
11.3537490000
11
6.1012120000
21
11.3537490000
0
LINE
5
341
100
AcDbEntity
8
0
100
AcDbLine
62
7
6
CONTINUOUS
10
5.9634590000
20
11.3537490000
11
5.5782320000
21
11.3537490000
0
LINE
5
342
100
AcDbEntity
8
0
100
AcDbLine
62
7
6
CONTINUOUS
10
8.5664900000
20
11.3589640000
11
8.0383290000
21
11.3589640000
0
LINE
5
343
100
AcDbEntity
8
0
100
AcDbLine
62
7
6
CONTINUOUS
10
7.8936530000
20
11.3589640000
11
7.4595720000
21
11.3589640000
0
LINE
5
344
100
AcDbEntity
8
0
100
AcDbLine
62
7
6
CONTINUOUS
10
7.3148510000
20
12.3525210000
11
8.5664900000
21
12.3525210000
0
LINE
5
345
100
AcDbEntity
8
0
100
AcDbLine
62
7
6
CONTINUOUS
10
5.4335100000
20
12.3717140000
11
6.6851490000
21
12.3717140000
0
LINE
5
346
100
AcDbEntity
8
0
100
AcDbLine
62
7
6
CONTINUOUS
10
-2.6750000000
20
12.4277568136
11
-2.1500000000
21
12.4277568136
0
LINE
5
347
100
AcDbEntity
8
0
100
AcDbLine
62
7
6
CONTINUOUS
10
-1.5000000000
20
12.4277568136
11
-0.9750000000
21
12.4277568136
0
LINE
5
348
100
AcDbEntity
8
0
100
AcDbLine
62
7
6
CONTINUOUS
10
8.4164890000
20
12.5216200000
11
7.9982400000
21
12.5216200000
0
LINE
5
349
100
AcDbEntity
8
0
100
AcDbLine
62
7
6
CONTINUOUS
10
7.8482870000
20
12.5216200000
11
7.4648050000
21
12.5216200000
0
LINE
5
34A
100
AcDbEntity
8
0
100
AcDbLine
62
7
6
CONTINUOUS
10
6.6851490000
20
12.5406160000
11
6.1482290000
21
12.5406160000
0
LINE
5
34B
100
AcDbEntity
8
0
100
AcDbLine
62
7
6
CONTINUOUS
10
6.0035500000
20
12.5406160000
11
5.5782320000
21
12.5406160000
0
LINE
5
34C
100
AcDbEntity
8
0
100
AcDbLine
62
7
6
CONTINUOUS
10
7.9982400000
20
13.2068030000
11
7.8482870000
21
13.2068030000
0
LINE
5
34D
100
AcDbEntity
8
0
100
AcDbLine
62
7
6
CONTINUOUS
10
7.4648050000
20
13.2641380000
11
7.3148510000
21
13.2641380000
0
LINE
5
34E
100
AcDbEntity
8
0
100
AcDbLine
62
7
6
CONTINUOUS
10
8.5664900000
20
13.2764250000
11
8.4164890000
21
13.2764250000
0
LINE
5
34F
100
AcDbEntity
8
0
100
AcDbLine
62
7
6
CONTINUOUS
10
6.6851490000
20
13.4105520000
11
6.6579134135
21
13.4105520000
0
LINE
5
350
100
AcDbEntity
8
0
100
AcDbLine
62
7
6
CONTINUOUS
10
7.3148510000
20
13.4977390000
11
8.5664900000
21
13.4977390000
0
LINE
5
351
100
AcDbEntity
8
0
100
AcDbLine
62
7
6
CONTINUOUS
10
5.4335100000
20
13.6267150000
11
6.6851490000
21
13.6267150000
0
LINE
5
352
100
AcDbEntity
8
0
100
AcDbLine
62
7
6
CONTINUOUS
10
8.5664900000
20
13.6616860000
11
7.5500910000
21
13.6616860000
0
LINE
5
353
100
AcDbEntity
8
0
100
AcDbLine
62
7
6
CONTINUOUS
10
6.5351490000
20
13.7957810000
11
6.1169000000
21
13.7957810000
0
LINE
5
354
100
AcDbEntity
8
0
100
AcDbLine
62
7
6
CONTINUOUS
10
5.9669470000
20
13.7957810000
11
5.5834640000
21
13.7957810000
0
LINE
5
355
100
AcDbEntity
8
0
100
AcDbLine
62
7
6
CONTINUOUS
10
7.3148510000
20
14.3276140000
11
8.3317660000
21
14.3276140000
0
LINE
5
356
100
AcDbEntity
8
0
100
AcDbLine
62
7
6
CONTINUOUS
10
6.1169000000
20
14.4807330000
11
5.9669470000
21
14.4807330000
0
LINE
5
357
100
AcDbEntity
8
0
100
AcDbLine
62
7
6
CONTINUOUS
10
8.5664900000
20
14.4913310000
11
7.3148510000
21
14.4913310000
0
LINE
5
358
100
AcDbEntity
8
0
100
AcDbLine
62
7
6
CONTINUOUS
10
5.5834640000
20
14.5382980000
11
5.4335100000
21
14.5382980000
0
LINE
5
359
100
AcDbEntity
8
0
100
AcDbLine
62
7
6
CONTINUOUS
10
6.6851490000
20
14.5504190000
11
6.5351490000
21
14.5504190000
0
LINE
5
35A
100
AcDbEntity
8
0
100
AcDbLine
62
7
6
CONTINUOUS
10
7.3148510000
20
14.7650270000
11
8.5664900000
21
14.7650270000
0
LINE
5
35B
100
AcDbEntity
8
0
100
AcDbLine
62
7
6
CONTINUOUS
10
8.4217680000
20
14.9341260000
11
7.4595720000
21
14.9341260000
0
LINE
5
35C
100
AcDbEntity
8
0
100
AcDbLine
62
9
6
CONTINUOUS
10
-9.7686999252
20
15.1687951175
11
-10.7686618482
21
15.1687951175
0
LINE
5
35D
100
AcDbEntity
8
0
100
AcDbLine
62
9
6
CONTINUOUS
10
9.7686999252
20
15.1687951175
11
10.7686618482
21
15.1687951167
0
LINE
5
35E
100
AcDbEntity
8
0
100
AcDbLine
62
7
6
CONTINUOUS
10
6.5003360000
20
15.9536140000
11
6.6851490000
21
15.9536140000
0
LINE
5
35F
100
AcDbEntity
8
0
100
AcDbLine
62
7
6
CONTINUOUS
10
8.3816750000
20
16.0340310000
11
8.5664900000
21
16.0340310000
0
LINE
5
360
100
AcDbEntity
8
0
100
AcDbLine
62
7
6
CONTINUOUS
10
6.6851490000
20
16.1350320000
11
6.5003360000
21
16.1350320000
0
LINE
5
361
100
AcDbEntity
8
0
100
AcDbLine
62
7
6
CONTINUOUS
10
8.5664900000
20
16.2153500000
11
8.3816750000
21
16.2153500000
0
LINE
5
362
100
AcDbEntity
8
0
100
AcDbLine
62
9
6
CONTINUOUS
10
-3.2500000000
20
16.8066482796
11
6.7500000000
21
16.8066482796
0
LINE
5
363
100
AcDbEntity
8
0
100
AcDbLine
62
9
6
CONTINUOUS
10
-2.7500000000
20
17.5065416662
11
6.2500000000
21
17.5065416662
0
LINE
5
364
100
AcDbEntity
8
0
100
AcDbLine
62
7
6
CONTINUOUS
10
5.4335100000
20
15.5771040000
11
6.5053870000
21
15.2215420000
0
LINE
5
365
100
AcDbEntity
8
0
100
AcDbLine
62
7
6
CONTINUOUS
10
6.6851490000
20
15.3105750000
11
5.4335100000
21
15.7672740000
0
LINE
5
366
100
AcDbEntity
8
0
100
AcDbLine
62
9
6
CONTINUOUS
10
-2.7500000000
20
17.6686999252
11
-7.2687951175
21
17.6686999252
0
LINE
5
367
100
AcDbEntity
8
0
100
AcDbLine
62
9
6
CONTINUOUS
10
6.2500000000
20
17.6686999252
11
7.2687951175
21
17.6686999252
0
LINE
5
368
100
AcDbEntity
8
0
100
AcDbLine
62
7
6
CONTINUOUS
10
4.2500000000
20
17.6778145455
11
-0.7500000000
21
17.6778145455
0
LINE
5
369
100
AcDbEntity
8
0
100
AcDbLine
62
7
6
CONTINUOUS
10
-2.7500000000
20
17.8000000000
11
6.2500000000
21
17.8000000000
0
LINE
5
36A
100
AcDbEntity
8
0
100
AcDbLine
62
9
6
CONTINUOUS
10
7.2687951175
20
18.6686618482
11
6.7500000000
21
18.6686618482
0
LINE
5
36B
100
AcDbEntity
8
0
100
AcDbLine
62
9
6
CONTINUOUS
10
-3.2500000000
20
18.6686618482
11
-7.2687951175
21
18.6686618482
0
LINE
5
36C
100
AcDbEntity
8
0
100
AcDbLine
62
7
6
CONTINUOUS
10
1.5000000000
20
18.8590446123
11
-1.5000000000
21
18.8590446123
0
LINE
5
36D
100
AcDbEntity
8
0
100
AcDbLine
62
7
6
CONTINUOUS
10
4.5000000000
20
18.8834189512
11
2.5000000000
21
18.8834189512
0
LINE
5
36E
100
AcDbEntity
8
0
100
AcDbLine
62
7
6
CONTINUOUS
10
-2.5000000000
20
18.8834189512
11
-4.5000000000
21
18.8834189512
0
LINE
5
36F
100
AcDbEntity
8
0
100
AcDbLine
62
7
6
CONTINUOUS
10
-7.5001332693
20
18.9000000000
11
-4.5000000000
21
18.9000000000
0
LINE
5
370
100
AcDbEntity
8
0
100
AcDbLine
62
7
6
CONTINUOUS
10
4.5000000000
20
18.9000000000
11
7.5001332693
21
18.9000000000
0
LINE
5
371
100
AcDbEntity
8
0
100
AcDbLine
62
7
6
CONTINUOUS
10
-6.0984926589
20
19.1000000000
11
6.0984926589
21
19.1000000000
0
LINE
5
372
100
AcDbEntity
8
0
100
AcDbLine
62
9
6
CONTINUOUS
10
-7.2189575692
20
19.2000000000
11
-7.5226756989
21
19.2000000000
0
LINE
5
373
100
AcDbEntity
8
0
100
AcDbLine
62
9
6
CONTINUOUS
10
7.2189575692
20
19.2000000000
11
7.5226756989
21
19.2000000000
0
LINE
5
374
100
AcDbEntity
8
0
100
AcDbLine
62
7
6
CONTINUOUS
10
7.3830351795
20
-20.9000000000
11
7.5226756989
21
-20.7603594806
0
LINE
5
375
100
AcDbEntity
8
0
100
AcDbLine
62
7
6
CONTINUOUS
10
3.4345963649
20
21.2139629885
11
3.1516814075
21
21.1999238360
0
LINE
5
376
100
AcDbEntity
8
0
100
AcDbLine
62
7
6
CONTINUOUS
10
2.7003889480
20
21.1802222394
11
3.0984611006
21
21.1999238360
0
LINE
5
377
100
AcDbEntity
8
0
100
AcDbLine
62
7
6
CONTINUOUS
10
7.2084845302
20
19.8000000000
11
-7.2084845302
21
19.8000000000
0
LINE
5
378
100
AcDbEntity
8
0
100
AcDbLine
62
7
6
CONTINUOUS
10
7.2084845302
20
19.9483339502
11
-7.2084845302
21
19.9483339502
0
LINE
5
379
100
AcDbEntity
8
0
100
AcDbLine
62
7
6
CONTINUOUS
10
-9.5103594806
20
20.7603594806
11
-7.5226756989
21
20.7603594806
0
LINE
5
37A
100
AcDbEntity
8
0
100
AcDbLine
62
7
6
CONTINUOUS
10
7.5226756989
20
20.7603594806
11
9.5103594806
21
20.7603594806
0
LINE
5
37B
100
AcDbEntity
8
0
100
AcDbLine
62
7
6
CONTINUOUS
10
9.6500000000
20
20.9000000000
11
7.3830351795
21
20.9000000000
0
LINE
5
37C
100
AcDbEntity
8
0
100
AcDbLine
62
7
6
CONTINUOUS
10
-7.3830351795
20
20.9000000000
11
-9.6500000000
21
20.9000000000
0
LINE
5
37D
100
AcDbEntity
8
0
100
AcDbLine
62
7
6
CONTINUOUS
10
-3.4345963650
20
21.2139629885
11
-3.1516814075
21
21.1999238360
0
LINE
5
37E
100
AcDbEntity
8
0
100
AcDbLine
62
7
6
CONTINUOUS
10
-3.0984611006
20
21.1999238360
11
-2.7003889480
21
21.1802222394
0
LINE
5
37F
100
AcDbEntity
8
0
100
AcDbLine
62
7
6
CONTINUOUS
10
7.3830351795
20
20.9000000000
11
7.5226756989
21
20.7603594806
0
LINE
5
380
100
AcDbEntity
8
0
100
AcDbLine
62
7
6
CONTINUOUS
10
3.0000000000
20
23.5000000000
11
2.7812783412
21
23.4563623377
0
LINE
5
381
100
AcDbEntity
8
0
100
AcDbLine
62
7
6
CONTINUOUS
10
3.1000000000
20
22.2000000000
11
3.0104834329
21
22.1955695989
0
LINE
5
382
100
AcDbEntity
8
0
100
AcDbLine
62
7
6
CONTINUOUS
10
-6.9587505924
20
21.1802222394
11
-2.7003889480
21
21.1802222394
0
LINE
5
383
100
AcDbEntity
8
0
100
AcDbLine
62
7
6
CONTINUOUS
10
2.7003889480
20
21.1802222394
11
6.9587505924
21
21.1802222394
0
LINE
5
384
100
AcDbEntity
8
0
100
AcDbLine
62
7
6
CONTINUOUS
10
-3.1516814075
20
21.1999238360
11
-3.0984611006
21
21.1999238360
0
LINE
5
385
100
AcDbEntity
8
0
100
AcDbLine
62
7
6
CONTINUOUS
10
3.0984611006
20
21.1999238360
11
3.1516814075
21
21.1999238360
0
LINE
5
386
100
AcDbEntity
8
0
100
AcDbLine
62
7
6
CONTINUOUS
10
-6.9712561167
20
21.2139629885
11
-3.4345963650
21
21.2139629885
0
LINE
5
387
100
AcDbEntity
8
0
100
AcDbLine
62
7
6
CONTINUOUS
10
3.4345963649
20
21.2139629885
11
6.9712561167
21
21.2139629885
0
LINE
5
388
100
AcDbEntity
8
0
100
AcDbLine
62
7
6
CONTINUOUS
10
-3.0104834329
20
22.1955695989
11
3.0104834329
21
22.1955695989
0
LINE
5
389
100
AcDbEntity
8
0
100
AcDbLine
62
7
6
CONTINUOUS
10
-3.3821231691
20
22.2000000000
11
3.3821231691
21
22.2000000000
0
LINE
5
38A
100
AcDbEntity
8
0
100
AcDbLine
62
7
6
CONTINUOUS
10
10.6503805997
20
22.4000000000
11
5.5500000000
21
22.4000000000
0
LINE
5
38B
100
AcDbEntity
8
0
100
AcDbLine
62
7
6
CONTINUOUS
10
-5.5500000000
20
22.4000000000
11
-10.6503805997
21
22.4000000000
0
LINE
5
38C
100
AcDbEntity
8
0
100
AcDbLine
62
7
6
CONTINUOUS
10
-3.0104834329
20
22.1955695989
11
-3.1000000000
21
22.2000000000
0
LINE
5
38D
100
AcDbEntity
8
0
100
AcDbLine
62
7
6
CONTINUOUS
10
-3.0000000000
20
23.5000000000
11
-2.7812783412
21
23.4563623377
0
LINE
5
38E
100
AcDbEntity
8
0
100
AcDbLine
62
7
6
CONTINUOUS
10
4.0167310674
20
23.4301797403
11
-4.0167310674
21
23.4301797403
0
LINE
5
38F
100
AcDbEntity
8
0
100
AcDbLine
62
7
6
CONTINUOUS
10
2.7812783412
20
23.4563623377
11
-2.7812783412
21
23.4563623377
0
LINE
5
390
100
AcDbEntity
8
0
100
AcDbLine
62
7
6
CONTINUOUS
10
3.9733373476
20
23.5000000000
11
3.0000000000
21
23.5000000000
0
LINE
5
391
100
AcDbEntity
8
0
100
AcDbLine
62
7
6
CONTINUOUS
10
-3.0000000000
20
23.5000000000
11
-3.9733373476
21
23.5000000000
0
ARC
5
392
100
AcDbEntity
8
0
100
AcDbCircle
62
7
6
CONTINUOUS
10
3.6000000000
20
4.0000000000
40
1.1450000000
100
AcDbArc
50
176.3637942714
51
183.6362057286
0
ARC
5
393
100
AcDbEntity
8
0
100
AcDbCircle
62
7
6
CONTINUOUS
10
3.6000000000
20
4.0000000000
40
1.1450000000
100
AcDbArc
50
356.3637942714
51
3.6362057286
0
ARC
5
394
100
AcDbEntity
8
0
100
AcDbCircle
62
7
6
CONTINUOUS
10
3.6000000000
20
4.0000000000
40
1.1450000000
100
AcDbArc
50
266.3637942714
51
273.6362057286
0
ARC
5
395
100
AcDbEntity
8
0
100
AcDbCircle
62
7
6
CONTINUOUS
10
3.6000000000
20
4.0000000000
40
1.1450000000
100
AcDbArc
50
86.3637942714
51
93.6362057286
0
CIRCLE
5
396
100
AcDbEntity
8
0
100
AcDbCircle
62
9
6
CONTINUOUS
10
3.6000000000
20
-4.0000000000
40
1.7499997962
0
ARC
5
397
100
AcDbEntity
8
0
100
AcDbCircle
62
7
6
CONTINUOUS
10
11.2500000000
20
-0.0000000000
40
28.0000000000
100
AcDbArc
50
122.9352304972
51
124.1210936517
0
ARC
5
398
100
AcDbEntity
8
0
100
AcDbCircle
62
7
6
CONTINUOUS
10
-11.2500000000
20
-0.0000000000
40
28.0000000000
100
AcDbArc
50
55.8789063483
51
57.0647695028
0
ARC
5
399
100
AcDbEntity
8
0
100
AcDbCircle
62
7
6
CONTINUOUS
10
-11.2500000000
20
-0.0000000000
40
28.0000000000
100
AcDbArc
50
302.9352304972
51
304.1210936517
0
ARC
5
39A
100
AcDbEntity
8
0
100
AcDbCircle
62
7
6
CONTINUOUS
10
11.2500000000
20
-0.0000000000
40
28.0000000000
100
AcDbArc
50
235.8789063483
51
237.0647695028
0
ARC
5
39B
100
AcDbEntity
8
0
100
AcDbCircle
62
7
6
CONTINUOUS
10
-6.3813353714
20
-19.2000000000
40
0.3000000000
100
AcDbArc
50
19.4712206345
51
90.0000000000
0
ARC
5
39C
100
AcDbEntity
8
0
100
AcDbCircle
62
7
6
CONTINUOUS
10
6.3813353714
20
-19.2000000000
40
0.3000000000
100
AcDbArc
50
90.0000000000
51
160.5287793655
0
ARC
5
39D
100
AcDbEntity
8
0
100
AcDbCircle
62
7
6
CONTINUOUS
10
6.3813353714
20
19.2000000000
40
0.3000000000
100
AcDbArc
50
199.4712206345
51
270.0000000000
0
ARC
5
39E
100
AcDbEntity
8
0
100
AcDbCircle
62
7
6
CONTINUOUS
10
-6.3813353714
20
19.2000000000
40
0.3000000000
100
AcDbArc
50
270.0000000000
51
340.5287793655
0
ARC
5
39F
100
AcDbEntity
8
0
100
AcDbCircle
62
7
6
CONTINUOUS
10
4.9500000000
20
-23.1000000000
40
0.5000000000
100
AcDbArc
50
60.8875772240
51
189.1962815790
0
ARC
5
3A0
100
AcDbEntity
8
0
100
AcDbCircle
62
7
6
CONTINUOUS
10
4.9500000000
20
23.1000000000
40
0.5000000000
100
AcDbArc
50
170.8037184210
51
299.1124227760
0
ARC
5
3A1
100
AcDbEntity
8
0
100
AcDbCircle
62
7
6
CONTINUOUS
10
-4.9500000000
20
-23.1000000000
40
0.5000000000
100
AcDbArc
50
350.8037184210
51
119.1124227760
0
ARC
5
3A2
100
AcDbEntity
8
0
100
AcDbCircle
62
7
6
CONTINUOUS
10
-4.9500000000
20
23.1000000000
40
0.5000000000
100
AcDbArc
50
240.8875772240
51
9.1962815790
0
ARC
5
3A3
100
AcDbEntity
8
0
100
AcDbCircle
62
7
6
CONTINUOUS
10
-11.2500000000
20
-0.0000000000
40
28.0000000000
100
AcDbArc
50
48.2819495688
51
54.0372348486
0
ARC
5
3A4
100
AcDbEntity
8
0
100
AcDbCircle
62
7
6
CONTINUOUS
10
-11.2500000000
20
-0.0000000000
40
27.9650925288
100
AcDbArc
50
49.3398118699
51
54.0739558625
0
ARC
5
3A5
100
AcDbEntity
8
0
100
AcDbCircle
62
7
6
CONTINUOUS
10
11.2500000000
20
-0.0000000000
40
27.9650925288
100
AcDbArc
50
125.9260441375
51
130.6601881301
0
ARC
5
3A6
100
AcDbEntity
8
0
100
AcDbCircle
62
7
6
CONTINUOUS
10
11.2500000000
20
-0.0000000000
40
27.9650925288
100
AcDbArc
50
123.0876235249
51
124.1578146656
0
ARC
5
3A7
100
AcDbEntity
8
0
100
AcDbCircle
62
7
6
CONTINUOUS
10
-11.2500000000
20
-0.0000000000
40
27.9650925288
100
AcDbArc
50
55.8421853344
51
56.9123764751
0
ARC
5
3A8
100
AcDbEntity
8
0
100
AcDbCircle
62
7
6
CONTINUOUS
10
11.2500000000
20
-0.0000000000
40
27.9650925288
100
AcDbArc
50
229.3398118699
51
234.0739558625
0
ARC
5
3A9
100
AcDbEntity
8
0
100
AcDbCircle
62
7
6
CONTINUOUS
10
-11.2500000000
20
-0.0000000000
40
28.0000000000
100
AcDbArc
50
305.9627651514
51
311.7180504312
0
ARC
5
3AA
100
AcDbEntity
8
0
100
AcDbCircle
62
7
6
CONTINUOUS
10
-11.2500000000
20
-0.0000000000
40
27.9650925288
100
AcDbArc
50
305.9260441375
51
310.6601881301
0
ARC
5
3AB
100
AcDbEntity
8
0
100
AcDbCircle
62
7
6
CONTINUOUS
10
-11.2500000000
20
-0.0000000000
40
27.9650925288
100
AcDbArc
50
303.0876235249
51
304.1578146656
0
ARC
5
3AC
100
AcDbEntity
8
0
100
AcDbCircle
62
7
6
CONTINUOUS
10
11.2500000000
20
-0.0000000000
40
27.9650925288
100
AcDbArc
50
235.8421853344
51
236.9123764751
0
ARC
5
3AD
100
AcDbEntity
8
0
100
AcDbCircle
62
7
6
CONTINUOUS
10
11.2500000000
20
-0.0000000000
40
27.9869096983
100
AcDbArc
50
217.4452371882
51
220.5100162577
0
ARC
5
3AE
100
AcDbEntity
8
0
100
AcDbCircle
62
7
6
CONTINUOUS
10
11.2500000000
20
-0.0000000000
40
28.0000000000
100
AcDbArc
50
217.5727075882
51
220.6245321462
0
ARC
5
3AF
100
AcDbEntity
8
0
100
AcDbCircle
62
7
6
CONTINUOUS
10
11.2500000000
20
-0.0000000000
40
27.9869096983
100
AcDbArc
50
139.4899837423
51
142.5547636525
0
ARC
5
3B0
100
AcDbEntity
8
0
100
AcDbCircle
62
7
6
CONTINUOUS
10
-11.2500000000
20
-0.0000000000
40
27.9869096983
100
AcDbArc
50
37.4452371882
51
40.5100162577
0
ARC
5
3B1
100
AcDbEntity
8
0
100
AcDbCircle
62
7
6
CONTINUOUS
10
-11.2500000000
20
-0.0000000000
40
27.9869096983
100
AcDbArc
50
319.4899837423
51
322.5547636525
0
ARC
5
3B2
100
AcDbEntity
8
0
100
AcDbCircle
62
7
6
CONTINUOUS
10
11.2500000000
20
-0.0000000000
40
28.0000000000
100
AcDbArc
50
228.2819495688
51
234.0372348486
0
ARC
5
3B3
100
AcDbEntity
8
0
100
AcDbCircle
62
7
6
CONTINUOUS
10
-11.2500000000
20
-0.0000000000
40
28.0000000000
100
AcDbArc
50
37.5727075882
51
40.6245321462
0
ARC
5
3B4
100
AcDbEntity
8
0
100
AcDbCircle
62
7
6
CONTINUOUS
10
11.2500000000
20
-0.0000000000
40
28.0000000000
100
AcDbArc
50
139.3754678538
51
142.4272924118
0
ARC
5
3B5
100
AcDbEntity
8
0
100
AcDbCircle
62
7
6
CONTINUOUS
10
11.2500000000
20
-0.0000000000
40
28.0000000000
100
AcDbArc
50
125.9627651514
51
131.7180504312
0
ARC
5
3B6
100
AcDbEntity
8
0
100
AcDbCircle
62
7
6
CONTINUOUS
10
-11.2500000000
20
-0.0000000000
40
28.0000000000
100
AcDbArc
50
319.3754678538
51
322.4272924118
0
CIRCLE
5
3B7
100
AcDbEntity
8
0
100
AcDbCircle
62
7
6
CONTINUOUS
10
1.7500000000
20
14.0000000000
40
2.7000000000
0
CIRCLE
5
3B8
100
AcDbEntity
8
0
100
AcDbCircle
62
7
6
CONTINUOUS
10
1.7500000000
20
-14.0000000000
40
2.7000000000
0
ARC
5
3B9
100
AcDbEntity
8
0
100
AcDbCircle
62
7
6
CONTINUOUS
10
7.8036590000
20
3.6320450000
40
0.2494390000
100
AcDbArc
50
0.0010063792
51
180.0010063711
0
ARC
5
3BA
100
AcDbEntity
8
0
100
AcDbCircle
62
7
6
CONTINUOUS
10
7.8036590000
20
3.6889540000
40
0.6287074522
100
AcDbArc
50
22.8428566081
51
179.9987091929
0
CIRCLE
5
3BB
100
AcDbEntity
8
0
100
AcDbCircle
62
7
6
CONTINUOUS
10
3.7500000000
20
-4.0000000000
40
2.0000000000
0
CIRCLE
5
3BC
100
AcDbEntity
8
0
100
AcDbCircle
62
7
6
CONTINUOUS
10
3.7500000000
20
4.0000000000
40
2.0000000000
0
ARC
5
3BD
100
AcDbEntity
8
0
100
AcDbCircle
62
7
6
CONTINUOUS
10
1.0000000000
20
-8.5000000000
40
0.5000000000
100
AcDbArc
50
180.0000000000
51
270.0000000000
0
ARC
5
3BE
100
AcDbEntity
8
0
100
AcDbCircle
62
7
6
CONTINUOUS
10
1.0000000000
20
8.5000000000
40
0.5000000000
100
AcDbArc
50
90.0000000000
51
180.0000000000
0
ARC
5
3BF
100
AcDbEntity
8
0
100
AcDbCircle
62
9
6
CONTINUOUS
10
1.0000000000
20
-8.5000000000
40
1.4999901153
100
AcDbArc
50
180.0000000000
51
270.0000000000
0
ARC
5
3C0
100
AcDbEntity
8
0
100
AcDbCircle
62
9
6
CONTINUOUS
10
1.0000000000
20
8.5000000000
40
1.4999901081
100
AcDbArc
50
90.0000000000
51
180.0000000000
0
CIRCLE
5
3C1
100
AcDbEntity
8
0
100
AcDbCircle
62
9
6
CONTINUOUS
10
3.7500000000
20
-4.0000000000
40
2.3275206122
0
ARC
5
3C2
100
AcDbEntity
8
0
100
AcDbCircle
62
9
6
CONTINUOUS
10
3.7500000000
20
-4.0000000000
40
2.8256163068
100
AcDbArc
50
193.2851587067
51
166.7148412933
0
CIRCLE
5
3C3
100
AcDbEntity
8
0
100
AcDbCircle
62
9
6
CONTINUOUS
10
3.7500000000
20
4.0000000000
40
2.3275206122
0
ARC
5
3C4
100
AcDbEntity
8
0
100
AcDbCircle
62
9
6
CONTINUOUS
10
3.7500000000
20
4.0000000000
40
2.8256163068
100
AcDbArc
50
193.2851587067
51
166.7148412933
0
CIRCLE
5
3C5
100
AcDbEntity
8
0
100
AcDbCircle
62
9
6
CONTINUOUS
10
1.7500000000
20
14.0000000000
40
2.0402205763
0
CIRCLE
5
3C6
100
AcDbEntity
8
0
100
AcDbCircle
62
9
6
CONTINUOUS
10
1.7500000000
20
-14.0000000000
40
2.2583179581
0
CIRCLE
5
3C7
100
AcDbEntity
8
0
100
AcDbCircle
62
9
6
CONTINUOUS
10
1.7500000000
20
-14.0000000000
40
1.7939908568
0
CIRCLE
5
3C8
100
AcDbEntity
8
0
100
AcDbCircle
62
9
6
CONTINUOUS
10
1.7500000000
20
14.0000000000
40
1.5316102954
0
SPLINE
5
3C9
100
AcDbEntity
8
0
100
AcDbSpline
62
7
6
CONTINUOUS
70
0
71
3
72
15
73
11
74
9
42
0.0000001000
43
0.0000001000
44
0.0000000001
12
0.0000000000
22
-0.7840504605
32
0.0000000000
13
0.7840504605
23
-0.0000000000
33
0.0000000000
40
0.0000000000
40
0.0000000000
40
0.0000000000
40
0.0000000000
40
0.1250035856
40
0.2500003382
40
0.3749971738
40
0.4999931596
40
0.6249941993
40
0.7499962985
40
0.8749988330
40
1.0000000000
40
1.0000000000
40
1.0000000000
40
1.0000000000
10
-11.1500000000
20
-21.8997711479
30
0.0000000000
10
-11.1500000000
20
-21.9324408542
30
0.0000000000
10
-11.1435720625
20
-21.9979588343
30
0.0000000000
10
-11.1150028885
20
-22.0923353736
30
0.0000000000
10
-11.0685863853
20
-22.1793736183
30
0.0000000000
10
-11.0060858443
20
-22.2556795571
30
0.0000000000
10
-10.9298940235
20
-22.3183228818
30
0.0000000000
10
-10.8429223671
20
-22.3648787971
30
0.0000000000
10
-10.7485697898
20
-22.3935479377
30
0.0000000000
10
-10.6830496739
20
-22.4000000000
30
0.0000000000
10
-10.6503805997
20
-22.4000000000
30
0.0000000000
11
-11.1500000000
21
-21.8997711479
31
0.0000000000
11
-11.1404171274
21
-21.9973106575
31
0.0000000000
11
-11.1120282390
21
-22.0911126206
31
0.0000000000
11
-11.0659057104
21
-22.1775849419
31
0.0000000000
11
-11.0038050670
21
-22.2534013617
31
0.0000000000
11
-10.9280978412
21
-22.3156413172
31
0.0000000000
11
-10.8416923200
21
-22.3618976126
31
0.0000000000
11
-10.7479148288
21
-22.3903828363
31
0.0000000000
11
-10.6503805997
21
-22.4000000000
31
0.0000000000
0
SPLINE
5
3CA
100
AcDbEntity
8
0
100
AcDbSpline
62
7
6
CONTINUOUS
70
0
71
3
72
10
73
6
74
4
42
0.0000001000
43
0.0000001000
44
0.0000000001
12
0.1872432965
22
0.3983057645
32
0.0000000000
13
0.0000000000
23
0.4390684565
33
0.0000000000
40
0.0000000000
40
0.0000000000
40
0.0000000000
40
0.0000000000
40
0.0065903138
40
0.5058301373
40
1.0000000000
40
1.0000000000
40
1.0000000000
40
1.0000000000
10
11.0810919389
20
-16.8330964578
30
0.0000000000
10
11.0815032696
20
-16.8322214711
30
0.0000000000
10
11.1129763568
20
-16.7650181753
30
0.0000000000
10
11.1602949928
20
-16.6253891030
30
0.0000000000
10
11.1761825974
20
-16.4794937220
30
0.0000000000
10
11.1761825974
20
-16.4071689224
30
0.0000000000
11
11.0810919389
21
-16.8330964578
31
0.0000000000
11
11.0823220975
21
-16.8304697452
31
0.0000000000
11
11.1526754872
21
-16.6228661767
31
0.0000000000
11
11.1761825974
21
-16.4071689224
31
0.0000000000
0
SPLINE
5
3CB
100
AcDbEntity
8
0
100
AcDbSpline
62
7
6
CONTINUOUS
70
0
71
3
72
15
73
11
74
9
42
0.0000001000
43
0.0000001000
44
0.0000000001
12
-0.7840504604
22
0.0000000000
32
0.0000000000
13
-0.0000000000
23
-0.7840504604
33
0.0000000000
40
0.0000000000
40
0.0000000000
40
0.0000000000
40
0.0000000000
40
0.1250026133
40
0.2500082844
40
0.3750136098
40
0.5000160060
40
0.6250106349
40
0.7500042447
40
0.8749978606
40
1.0000000000
40
1.0000000000
40
1.0000000000
40
1.0000000000
10
-10.6503805997
20
22.4000000000
30
0.0000000000
10
-10.6830500519
20
22.4000000000
30
0.0000000000
10
-10.7485713718
20
22.3935477443
30
0.0000000000
10
-10.8429258085
20
22.3648775487
30
0.0000000000
10
-10.9298988298
20
22.3183198083
30
0.0000000000
10
-11.0060904776
20
22.2556749149
30
0.0000000000
10
-11.0685894502
20
22.1793688070
30
0.0000000000
10
-11.1150041327
20
22.0923319310
30
0.0000000000
10
-11.1435722551
20
21.9979572524
30
0.0000000000
10
-11.1500000000
20
21.9324404763
30
0.0000000000
10
-11.1500000000
20
21.8997711479
30
0.0000000000
11
-10.6503805997
21
22.4000000000
31
0.0000000000
11
-10.7479159463
21
22.3903826137
31
0.0000000000
11
-10.8416956551
21
22.3618962291
31
0.0000000000
11
-10.9281029540
21
22.3156378952
31
0.0000000000
11
-11.0038101683
21
22.2533962508
31
0.0000000000
11
-11.0659091235
21
22.1775798235
31
0.0000000000
11
-11.1120296181
21
22.0911092838
31
0.0000000000
11
-11.1404173492
21
21.9973095399
31
0.0000000000
11
-11.1500000000
21
21.8997711479
31
0.0000000000
0
SPLINE
5
3CC
100
AcDbEntity
8
0
100
AcDbSpline
62
7
6
CONTINUOUS
70
0
71
3
72
10
73
6
74
4
42
0.0000001000
43
0.0000001000
44
0.0000000001
12
-0.1872432965
22
-0.3983057645
32
0.0000000000
13
-0.0000000000
23
-0.4390684565
33
0.0000000000
40
0.0000000000
40
0.0000000000
40
0.0000000000
40
0.0000000000
40
0.0065903138
40
0.5058301373
40
1.0000000000
40
1.0000000000
40
1.0000000000
40
1.0000000000
10
-11.0810919389
20
16.8330964578
30
0.0000000000
10
-11.0815032696
20
16.8322214711
30
0.0000000000
10
-11.1129763568
20
16.7650181753
30
0.0000000000
10
-11.1602949928
20
16.6253891030
30
0.0000000000
10
-11.1761825974
20
16.4794937220
30
0.0000000000
10
-11.1761825974
20
16.4071689224
30
0.0000000000
11
-11.0810919389
21
16.8330964578
31
0.0000000000
11
-11.0823220975
21
16.8304697452
31
0.0000000000
11
-11.1526754872
21
16.6228661767
31
0.0000000000
11
-11.1761825974
21
16.4071689224
31
0.0000000000
0
SPLINE
5
3CD
100
AcDbEntity
8
0
100
AcDbSpline
62
7
6
CONTINUOUS
70
0
71
3
72
15
73
11
74
9
42
0.0000001000
43
0.0000001000
44
0.0000000001
12
0.7840504604
22
0.0000000000
32
0.0000000000
13
-0.0000000000
23
0.7840504604
33
0.0000000000
40
0.0000000000
40
0.0000000000
40
0.0000000000
40
0.0000000000
40
0.1250026133
40
0.2500082844
40
0.3750136098
40
0.5000160060
40
0.6250106349
40
0.7500042447
40
0.8749978606
40
1.0000000000
40
1.0000000000
40
1.0000000000
40
1.0000000000
10
10.6503805997
20
-22.4000000000
30
0.0000000000
10
10.6830500519
20
-22.4000000000
30
0.0000000000
10
10.7485713718
20
-22.3935477443
30
0.0000000000
10
10.8429258085
20
-22.3648775487
30
0.0000000000
10
10.9298988298
20
-22.3183198083
30
0.0000000000
10
11.0060904776
20
-22.2556749149
30
0.0000000000
10
11.0685894502
20
-22.1793688070
30
0.0000000000
10
11.1150041327
20
-22.0923319310
30
0.0000000000
10
11.1435722551
20
-21.9979572524
30
0.0000000000
10
11.1500000000
20
-21.9324404763
30
0.0000000000
10
11.1500000000
20
-21.8997711479
30
0.0000000000
11
10.6503805997
21
-22.4000000000
31
0.0000000000
11
10.7479159463
21
-22.3903826137
31
0.0000000000
11
10.8416956551
21
-22.3618962291
31
0.0000000000
11
10.9281029540
21
-22.3156378952
31
0.0000000000
11
11.0038101683
21
-22.2533962508
31
0.0000000000
11
11.0659091235
21
-22.1775798235
31
0.0000000000
11
11.1120296181
21
-22.0911092838
31
0.0000000000
11
11.1404173492
21
-21.9973095399
31
0.0000000000
11
11.1500000000
21
-21.8997711479
31
0.0000000000
0
SPLINE
5
3CE
100
AcDbEntity
8
0
100
AcDbSpline
62
7
6
CONTINUOUS
70
0
71
3
72
15
73
11
74
9
42
0.0000001000
43
0.0000001000
44
0.0000000001
12
0.0000000000
22
0.7840504605
32
0.0000000000
13
-0.7840504605
23
0.0000000000
33
0.0000000000
40
0.0000000000
40
0.0000000000
40
0.0000000000
40
0.0000000000
40
0.1250035856
40
0.2500003382
40
0.3749971738
40
0.4999931596
40
0.6249941993
40
0.7499962985
40
0.8749988330
40
1.0000000000
40
1.0000000000
40
1.0000000000
40
1.0000000000
10
11.1500000000
20
21.8997711479
30
0.0000000000
10
11.1500000000
20
21.9324408542
30
0.0000000000
10
11.1435720625
20
21.9979588343
30
0.0000000000
10
11.1150028885
20
22.0923353736
30
0.0000000000
10
11.0685863853
20
22.1793736183
30
0.0000000000
10
11.0060858443
20
22.2556795571
30
0.0000000000
10
10.9298940235
20
22.3183228818
30
0.0000000000
10
10.8429223671
20
22.3648787971
30
0.0000000000
10
10.7485697898
20
22.3935479377
30
0.0000000000
10
10.6830496739
20
22.4000000000
30
0.0000000000
10
10.6503805997
20
22.4000000000
30
0.0000000000
11
11.1500000000
21
21.8997711479
31
0.0000000000
11
11.1404171274
21
21.9973106575
31
0.0000000000
11
11.1120282390
21
22.0911126206
31
0.0000000000
11
11.0659057104
21
22.1775849419
31
0.0000000000
11
11.0038050670
21
22.2534013617
31
0.0000000000
11
10.9280978412
21
22.3156413172
31
0.0000000000
11
10.8416923200
21
22.3618976126
31
0.0000000000
11
10.7479148288
21
22.3903828363
31
0.0000000000
11
10.6503805997
21
22.4000000000
31
0.0000000000
0
SPLINE
5
3CF
100
AcDbEntity
8
0
100
AcDbSpline
62
7
6
CONTINUOUS
70
0
71
3
72
10
73
6
74
4
42
0.0000001000
43
0.0000001000
44
0.0000000001
12
0.0000000000
22
-0.4390684565
32
0.0000000000
13
0.1872432714
23
-0.3983057764
33
0.0000000000
40
0.0000000000
40
0.0000000000
40
0.0000000000
40
0.0000000000
40
0.4941698627
40
0.9934096863
40
1.0000000000
40
1.0000000000
40
1.0000000000
40
1.0000000000
10
-11.1761825974
20
-16.4071689224
30
0.0000000000
10
-11.1761825974
20
-16.4794937220
30
0.0000000000
10
-11.1602949947
20
-16.6253891039
30
0.0000000000
10
-11.1129763528
20
-16.7650181734
30
0.0000000000
10
-11.0815032697
20
-16.8322214711
30
0.0000000000
10
-11.0810919391
20
-16.8330964578
30
0.0000000000
11
-11.1761825974
21
-16.4071689224
31
0.0000000000
11
-11.1526754872
21
-16.6228661767
31
0.0000000000
11
-11.0823220975
21
-16.8304697452
31
0.0000000000
11
-11.0810919391
21
-16.8330964578
31
0.0000000000
0
SPLINE
5
3D0
100
AcDbEntity
8
0
100
AcDbSpline
62
7
6
CONTINUOUS
70
0
71
3
72
10
73
6
74
4
42
0.0000001000
43
0.0000001000
44
0.0000000001
12
0.0000000000
22
0.4390684565
32
0.0000000000
13
-0.1872432714
23
0.3983057764
33
0.0000000000
40
0.0000000000
40
0.0000000000
40
0.0000000000
40
0.0000000000
40
0.4941698627
40
0.9934096863
40
1.0000000000
40
1.0000000000
40
1.0000000000
40
1.0000000000
10
11.1761825974
20
16.4071689224
30
0.0000000000
10
11.1761825974
20
16.4794937220
30
0.0000000000
10
11.1602949947
20
16.6253891039
30
0.0000000000
10
11.1129763528
20
16.7650181734
30
0.0000000000
10
11.0815032697
20
16.8322214711
30
0.0000000000
10
11.0810919391
20
16.8330964578
30
0.0000000000
11
11.1761825974
21
16.4071689224
31
0.0000000000
11
11.1526754872
21
16.6228661767
31
0.0000000000
11
11.0823220975
21
16.8304697452
31
0.0000000000
11
11.0810919391
21
16.8330964578
31
0.0000000000
0
SPLINE
5
3D1
100
AcDbEntity
8
0
100
AcDbSpline
62
7
6
CONTINUOUS
70
0
71
3
72
13
73
9
74
7
42
0.0000001000
43
0.0000001000
44
0.0000000001
12
0.2791981576
22
0.3254639536
32
0.0000000000
13
0.1165473343
23
-0.4167223111
33
0.0000000000
40
0.0000000000
40
0.0000000000
40
0.0000000000
40
0.0000000000
40
0.1889594160
40
0.3765085908
40
0.5639760196
40
0.7514227598
40
0.9387288630
40
1.0000000000
40
1.0000000000
40
1.0000000000
40
1.0000000000
10
-10.0017927407
20
18.2307790647
30
0.0000000000
10
-9.9842070337
20
18.2512788909
30
0.0000000000
10
-9.9402563215
20
18.2853203907
30
0.0000000000
10
-9.8600989011
20
18.3058858285
30
0.0000000000
10
-9.7784201894
20
18.2933292180
30
0.0000000000
10
-9.7083601624
20
18.2495698272
30
0.0000000000
10
-9.6717672432
20
18.1970911219
30
0.0000000000
10
-9.6598440559
20
18.1631812389
30
0.0000000000
10
-9.6574637266
20
18.1546702223
30
0.0000000000
11
-10.0017927407
21
18.2307790647
31
0.0000000000
11
-9.9376832280
21
18.2803317644
31
0.0000000000
11
-9.8597977437
21
18.3003746549
31
0.0000000000
11
-9.7803484811
21
18.2881254173
31
0.0000000000
11
-9.7121575814
21
18.2455718735
31
0.0000000000
11
-9.6662649482
21
18.1796554267
31
0.0000000000
11
-9.6574637266
21
18.1546702223
31
0.0000000000
0
SPLINE
5
3D2
100
AcDbEntity
8
0
100
AcDbSpline
62
7
6
CONTINUOUS
70
0
71
3
72
8
73
4
74
2
42
0.0000001000
43
0.0000001000
44
0.0000000001
12
0.1310408814
22
-0.1703278561
32
0.0000000000
13
0.0919449671
23
-0.1948151098
33
0.0000000000
40
0.0000000000
40
0.0000000000
40
0.0000000000
40
0.0000000000
40
1.0000000000
40
1.0000000000
40
1.0000000000
40
1.0000000000
10
10.9422453620
20
17.0734954182
30
0.0000000000
10
10.9859256558
20
17.0167194662
30
0.0000000000
10
11.0236131992
20
16.9550215493
30
0.0000000000
10
11.0542615215
20
16.8900831793
30
0.0000000000
11
10.9422453620
21
17.0734954182
31
0.0000000000
11
11.0542615215
21
16.8900831793
31
0.0000000000
0
SPLINE
5
3D3
100
AcDbEntity
8
0
100
AcDbSpline
62
7
6
CONTINUOUS
70
0
71
3
72
13
73
9
74
7
42
0.0000001000
43
0.0000001000
44
0.0000000001
12
-0.1165473343
22
-0.4167223111
32
0.0000000000
13
-0.2791981576
23
0.3254639536
33
0.0000000000
40
0.0000000000
40
0.0000000000
40
0.0000000000
40
0.0000000000
40
0.0612711370
40
0.2485772401
40
0.4360239804
40
0.6234914092
40
0.8110405840
40
1.0000000000
40
1.0000000000
40
1.0000000000
40
1.0000000000
10
-9.6574637266
20
-18.1546702223
30
0.0000000000
10
-9.6598440559
20
-18.1631812389
30
0.0000000000
10
-9.6717672432
20
-18.1970911219
30
0.0000000000
10
-9.7083601624
20
-18.2495698272
30
0.0000000000
10
-9.7784201894
20
-18.2933292180
30
0.0000000000
10
-9.8600989011
20
-18.3058858285
30
0.0000000000
10
-9.9402563215
20
-18.2853203907
30
0.0000000000
10
-9.9842070337
20
-18.2512788909
30
0.0000000000
10
-10.0017927407
20
-18.2307790647
30
0.0000000000
11
-9.6574637266
21
-18.1546702223
31
0.0000000000
11
-9.6662649482
21
-18.1796554267
31
0.0000000000
11
-9.7121575814
21
-18.2455718735
31
0.0000000000
11
-9.7803484811
21
-18.2881254173
31
0.0000000000
11
-9.8597977437
21
-18.3003746549
31
0.0000000000
11
-9.9376832280
21
-18.2803317644
31
0.0000000000
11
-10.0017927407
21
-18.2307790647
31
0.0000000000
0
SPLINE
5
3D4
100
AcDbEntity
8
0
100
AcDbSpline
62
7
6
CONTINUOUS
70
0
71
3
72
10
73
6
74
4
42
0.0000001000
43
0.0000001000
44
0.0000000001
12
0.0000000000
22
0.3124311621
32
0.0000000000
13
0.2724671100
23
0.1571116407
33
0.0000000000
40
0.0000000000
40
0.0000000000
40
0.0000000000
40
0.0000000000
40
0.3745137022
40
0.7492897524
40
1.0000000000
40
1.0000000000
40
1.0000000000
40
1.0000000000
10
-7.5226756989
20
-19.2000000000
30
0.0000000000
10
-7.5226756989
20
-19.1609967496
30
0.0000000000
10
-7.5070682814
20
-19.0821095401
30
0.0000000000
10
-7.4476681647
20
-18.9933891614
30
0.0000000000
10
-7.3952087030
20
-18.9532028593
30
0.0000000000
10
-7.3724386041
20
-18.9400730266
30
0.0000000000
11
-7.5226756989
21
-19.2000000000
31
0.0000000000
11
-7.4998536843
21
-19.0852374733
31
0.0000000000
11
-7.4348037939
21
-18.9878774100
31
0.0000000000
11
-7.3724386041
21
-18.9400730266
31
0.0000000000
0
SPLINE
5
3D5
100
AcDbEntity
8
0
100
AcDbSpline
62
7
6
CONTINUOUS
70
0
71
3
72
8
73
4
74
2
42
0.0000001000
43
0.0000001000
44
0.0000000001
12
-0.1310408814
22
0.1703278561
32
0.0000000000
13
-0.0919449671
23
0.1948151098
33
0.0000000000
40
0.0000000000
40
0.0000000000
40
0.0000000000
40
0.0000000000
40
1.0000000000
40
1.0000000000
40
1.0000000000
40
1.0000000000
10
-10.9422453620
20
-17.0734954182
30
0.0000000000
10
-10.9859256558
20
-17.0167194662
30
0.0000000000
10
-11.0236131992
20
-16.9550215493
30
0.0000000000
10
-11.0542615215
20
-16.8900831793
30
0.0000000000
11
-10.9422453620
21
-17.0734954182
31
0.0000000000
11
-11.0542615215
21
-16.8900831793
31
0.0000000000
0
SPLINE
5
3D6
100
AcDbEntity
8
0
100
AcDbSpline
62
9
6
CONTINUOUS
70
0
71
3
72
9
73
5
74
3
42
0.0000001000
43
0.0000001000
44
0.0000000001
12
-0.0275803590
22
0.0573509977
32
0.0000000000
13
-0.0274919939
23
0.0573934091
33
0.0000000000
40
0.0000000000
40
0.0000000000
40
0.0000000000
40
0.0000000000
40
0.4995481271
40
1.0000000000
40
1.0000000000
40
1.0000000000
40
1.0000000000
10
-10.9422467290
20
-17.0734936413
30
0.0000000000
10
-10.9468393012
20
-17.0639437802
30
0.0000000000
10
-10.9560247880
20
-17.0448229494
30
0.0000000000
10
-10.9651963351
20
-17.0256954285
30
0.0000000000
10
-10.9697824751
20
-17.0161212155
30
0.0000000000
11
-10.9422467290
21
-17.0734936413
31
0.0000000000
11
-10.9560130080
21
-17.0448385603
31
0.0000000000
11
-10.9697824751
21
-17.0161212155
31
0.0000000000
0
SPLINE
5
3D7
100
AcDbEntity
8
0
100
AcDbSpline
62
9
6
CONTINUOUS
70
0
71
3
72
9
73
5
74
3
42
0.0000001000
43
0.0000001000
44
0.0000000001
12
0.0264074565
22
-0.0510332936
32
0.0000000000
13
0.0264776326
23
-0.0509969194
33
0.0000000000
40
0.0000000000
40
0.0000000000
40
0.0000000000
40
0.0000000000
40
0.5003615803
40
1.0000000000
40
1.0000000000
40
1.0000000000
40
1.0000000000
10
-10.0282352926
20
-18.1797639505
30
0.0000000000
10
-10.0238308670
20
-18.1882756503
30
0.0000000000
10
-10.0150225254
20
-18.2052837185
30
0.0000000000
10
-10.0062024882
20
-18.2222857246
30
0.0000000000
10
-10.0017927407
20
-18.2307790647
30
0.0000000000
11
-10.0282352926
21
-18.1797639505
31
0.0000000000
11
-10.0150132274
21
-18.2052945004
31
0.0000000000
11
-10.0017927407
21
-18.2307790647
31
0.0000000000
0
SPLINE
5
3D8
100
AcDbEntity
8
0
100
AcDbSpline
62
9
6
CONTINUOUS
70
0
71
3
72
9
73
5
74
3
42
0.0000001000
43
0.0000001000
44
0.0000000001
12
0.0275803590
22
-0.0573509977
32
0.0000000000
13
0.0274919939
23
-0.0573934091
33
0.0000000000
40
0.0000000000
40
0.0000000000
40
0.0000000000
40
0.0000000000
40
0.4995481271
40
1.0000000000
40
1.0000000000
40
1.0000000000
40
1.0000000000
10
10.9422467290
20
17.0734936413
30
0.0000000000
10
10.9468393012
20
17.0639437802
30
0.0000000000
10
10.9560247880
20
17.0448229494
30
0.0000000000
10
10.9651963351
20
17.0256954285
30
0.0000000000
10
10.9697824751
20
17.0161212155
30
0.0000000000
11
10.9422467290
21
17.0734936413
31
0.0000000000
11
10.9560130080
21
17.0448385603
31
0.0000000000
11
10.9697824751
21
17.0161212155
31
0.0000000000
0
SPLINE
5
3D9
100
AcDbEntity
8
0
100
AcDbSpline
62
9
6
CONTINUOUS
70
0
71
3
72
9
73
5
74
3
42
0.0000001000
43
0.0000001000
44
0.0000000001
12
-0.0264074565
22
0.0510332936
32
0.0000000000
13
-0.0264776326
23
0.0509969194
33
0.0000000000
40
0.0000000000
40
0.0000000000
40
0.0000000000
40
0.0000000000
40
0.5003615803
40
1.0000000000
40
1.0000000000
40
1.0000000000
40
1.0000000000
10
10.0282352926
20
18.1797639505
30
0.0000000000
10
10.0238308670
20
18.1882756503
30
0.0000000000
10
10.0150225254
20
18.2052837185
30
0.0000000000
10
10.0062024882
20
18.2222857246
30
0.0000000000
10
10.0017927407
20
18.2307790647
30
0.0000000000
11
10.0282352926
21
18.1797639505
31
0.0000000000
11
10.0150132274
21
18.2052945004
31
0.0000000000
11
10.0017927407
21
18.2307790647
31
0.0000000000
0
SPLINE
5
3DA
100
AcDbEntity
8
0
100
AcDbSpline
62
9
6
CONTINUOUS
70
0
71
3
72
9
73
5
74
3
42
0.0000001000
43
0.0000001000
44
0.0000000001
12
0.0274921634
22
0.0573937642
32
0.0000000000
13
0.0275805295
23
0.0573513523
33
0.0000000000
40
0.0000000000
40
0.0000000000
40
0.0000000000
40
0.0000000000
40
0.5004565666
40
1.0000000000
40
1.0000000000
40
1.0000000000
40
1.0000000000
10
-10.9697827830
20
17.0161208135
30
0.0000000000
10
-10.9651965717
20
17.0256951756
30
0.0000000000
10
-10.9560248178
20
17.0448227427
30
0.0000000000
10
-10.9468393501
20
17.0639437281
30
0.0000000000
10
-10.9422467926
20
17.0734935586
30
0.0000000000
11
-10.9697827830
21
17.0161208135
31
0.0000000000
11
-10.9560130080
21
17.0448385603
31
0.0000000000
11
-10.9422467926
21
17.0734935586
31
0.0000000000
0
SPLINE
5
3DB
100
AcDbEntity
8
0
100
AcDbSpline
62
9
6
CONTINUOUS
70
0
71
3
72
9
73
5
74
3
42
0.0000001000
43
0.0000001000
44
0.0000000001
12
-0.0264776326
22
-0.0509969194
32
0.0000000000
13
-0.0264074565
23
-0.0510332936
33
0.0000000000
40
0.0000000000
40
0.0000000000
40
0.0000000000
40
0.0000000000
40
0.4996384196
40
1.0000000000
40
1.0000000000
40
1.0000000000
40
1.0000000000
10
-10.0017927407
20
18.2307790647
30
0.0000000000
10
-10.0062024882
20
18.2222857246
30
0.0000000000
10
-10.0150225254
20
18.2052837185
30
0.0000000000
10
-10.0238308670
20
18.1882756503
30
0.0000000000
10
-10.0282352926
20
18.1797639505
30
0.0000000000
11
-10.0017927407
21
18.2307790647
31
0.0000000000
11
-10.0150132274
21
18.2052945004
31
0.0000000000
11
-10.0282352926
21
18.1797639505
31
0.0000000000
0
SPLINE
5
3DC
100
AcDbEntity
8
0
100
AcDbSpline
62
7
6
CONTINUOUS
70
0
71
3
72
10
73
6
74
4
42
0.0000001000
43
0.0000001000
44
0.0000000001
12
0.1449034018
22
0.0313284270
32
0.0000000000
13
0.1447362128
23
0.0320919754
33
0.0000000000
40
0.0000000000
40
0.0000000000
40
0.0000000000
40
0.0000000000
40
0.3334575460
40
0.6667911918
40
1.0000000000
40
1.0000000000
40
1.0000000000
40
1.0000000000
10
7.2382150030
20
-20.9317102097
30
0.0000000000
10
7.2543213806
20
-20.9282279762
30
0.0000000000
10
7.2865220409
20
-20.9212365052
30
0.0000000000
10
7.3347955016
20
-20.9106664032
30
0.0000000000
10
7.3669593858
20
-20.9035644430
30
0.0000000000
10
7.3830351795
20
-20.9000000000
30
0.0000000000
11
7.2382150030
21
-20.9317102097
31
0.0000000000
11
7.2865249377
21
-20.9212210558
31
0.0000000000
11
7.3347984201
21
-20.9106509437
31
0.0000000000
11
7.3830351795
21
-20.9000000000
31
0.0000000000
0
SPLINE
5
3DD
100
AcDbEntity
8
0
100
AcDbSpline
62
7
6
CONTINUOUS
70
0
71
3
72
10
73
6
74
4
42
0.0000001000
43
0.0000001000
44
0.0000000001
12
0.2724671219
22
-0.1571116374
32
0.0000000000
13
-0.0000000000
23
-0.3124311703
33
0.0000000000
40
0.0000000000
40
0.0000000000
40
0.0000000000
40
0.0000000000
40
0.2507102674
40
0.6254863407
40
1.0000000000
40
1.0000000000
40
1.0000000000
40
1.0000000000
10
7.3724385968
20
-18.9400730224
30
0.0000000000
10
7.3952086985
20
-18.9532028559
30
0.0000000000
10
7.4476681660
20
-18.9933891612
30
0.0000000000
10
7.5070682829
20
-19.0821095437
30
0.0000000000
10
7.5226756989
20
-19.1609967530
30
0.0000000000
10
7.5226756989
20
-19.2000000000
30
0.0000000000
11
7.3724385968
21
-18.9400730224
31
0.0000000000
11
7.4348037939
21
-18.9878774100
31
0.0000000000
11
7.4998536883
21
-19.0852374831
31
0.0000000000
11
7.5226756989
21
-19.2000000000
31
0.0000000000
0
SPLINE
5
3DE
100
AcDbEntity
8
0
100
AcDbSpline
62
7
6
CONTINUOUS
70
0
71
3
72
10
73
6
74
4
42
0.0000001000
43
0.0000001000
44
0.0000000001
12
-0.1447362128
22
0.0320919754
32
0.0000000000
13
-0.1449034018
23
0.0313284270
33
0.0000000000
40
0.0000000000
40
0.0000000000
40
0.0000000000
40
0.0000000000
40
0.3332088082
40
0.6665424540
40
1.0000000000
40
1.0000000000
40
1.0000000000
40
1.0000000000
10
7.3830351795
20
20.9000000000
30
0.0000000000
10
7.3669593858
20
20.9035644430
30
0.0000000000
10
7.3347955016
20
20.9106664032
30
0.0000000000
10
7.2865220409
20
20.9212365052
30
0.0000000000
10
7.2543213806
20
20.9282279762
30
0.0000000000
10
7.2382150030
20
20.9317102097
30
0.0000000000
11
7.3830351795
21
20.9000000000
31
0.0000000000
11
7.3347984201
21
20.9106509437
31
0.0000000000
11
7.2865249377
21
20.9212210558
31
0.0000000000
11
7.2382150030
21
20.9317102097
31
0.0000000000
0
SPLINE
5
3DF
100
AcDbEntity
8
0
100
AcDbSpline
62
7
6
CONTINUOUS
70
0
71
3
72
10
73
6
74
4
42
0.0000001000
43
0.0000001000
44
0.0000000001
12
0.1447362128
22
-0.0320919754
32
0.0000000000
13
0.1449034018
23
-0.0313284270
33
0.0000000000
40
0.0000000000
40
0.0000000000
40
0.0000000000
40
0.0000000000
40
0.3332088082
40
0.6665424540
40
1.0000000000
40
1.0000000000
40
1.0000000000
40
1.0000000000
10
-7.3830351795
20
-20.9000000000
30
0.0000000000
10
-7.3669593858
20
-20.9035644430
30
0.0000000000
10
-7.3347955016
20
-20.9106664032
30
0.0000000000
10
-7.2865220409
20
-20.9212365052
30
0.0000000000
10
-7.2543213806
20
-20.9282279762
30
0.0000000000
10
-7.2382150030
20
-20.9317102097
30
0.0000000000
11
-7.3830351795
21
-20.9000000000
31
0.0000000000
11
-7.3347984201
21
-20.9106509437
31
0.0000000000
11
-7.2865249377
21
-20.9212210558
31
0.0000000000
11
-7.2382150030
21
-20.9317102097
31
0.0000000000
0
SPLINE
5
3E0
100
AcDbEntity
8
0
100
AcDbSpline
62
7
6
CONTINUOUS
70
0
71
3
72
10
73
6
74
4
42
0.0000001000
43
0.0000001000
44
0.0000000001
12
0.0000000000
22
-0.3124311621
32
0.0000000000
13
-0.2724671100
23
-0.1571116407
33
0.0000000000
40
0.0000000000
40
0.0000000000
40
0.0000000000
40
0.0000000000
40
0.3745137022
40
0.7492897524
40
1.0000000000
40
1.0000000000
40
1.0000000000
40
1.0000000000
10
7.5226756989
20
19.2000000000
30
0.0000000000
10
7.5226756989
20
19.1609967496
30
0.0000000000
10
7.5070682814
20
19.0821095401
30
0.0000000000
10
7.4476681647
20
18.9933891614
30
0.0000000000
10
7.3952087030
20
18.9532028593
30
0.0000000000
10
7.3724386041
20
18.9400730266
30
0.0000000000
11
7.5226756989
21
19.2000000000
31
0.0000000000
11
7.4998536843
21
19.0852374733
31
0.0000000000
11
7.4348037939
21
18.9878774100
31
0.0000000000
11
7.3724386041
21
18.9400730266
31
0.0000000000
0
SPLINE
5
3E1
100
AcDbEntity
8
0
100
AcDbSpline
62
7
6
CONTINUOUS
70
0
71
3
72
10
73
6
74
4
42
0.0000001000
43
0.0000001000
44
0.0000000001
12
-0.1449034018
22
-0.0313284270
32
0.0000000000
13
-0.1447362128
23
-0.0320919754
33
0.0000000000
40
0.0000000000
40
0.0000000000
40
0.0000000000
40
0.0000000000
40
0.3334575460
40
0.6667911918
40
1.0000000000
40
1.0000000000
40
1.0000000000
40
1.0000000000
10
-7.2382150030
20
20.9317102097
30
0.0000000000
10
-7.2543213806
20
20.9282279762
30
0.0000000000
10
-7.2865220409
20
20.9212365052
30
0.0000000000
10
-7.3347955016
20
20.9106664032
30
0.0000000000
10
-7.3669593858
20
20.9035644430
30
0.0000000000
10
-7.3830351795
20
20.9000000000
30
0.0000000000
11
-7.2382150030
21
20.9317102097
31
0.0000000000
11
-7.2865249377
21
20.9212210558
31
0.0000000000
11
-7.3347984201
21
20.9106509437
31
0.0000000000
11
-7.3830351795
21
20.9000000000
31
0.0000000000
0
SPLINE
5
3E2
100
AcDbEntity
8
0
100
AcDbSpline
62
7
6
CONTINUOUS
70
0
71
3
72
10
73
6
74
4
42
0.0000001000
43
0.0000001000
44
0.0000000001
12
-0.2777771758
22
0.2504003321
32
0.0000000000
13
-0.2811426313
23
0.2466157063
33
0.0000000000
40
0.0000000000
40
0.0000000000
40
0.0000000000
40
0.0000000000
40
0.3338155601
40
0.6671491872
40
1.0000000000
40
1.0000000000
40
1.0000000000
40
1.0000000000
10
7.2382150030
20
20.9317102097
30
0.0000000000
10
7.2073062218
20
20.9595727187
30
0.0000000000
10
7.1454073215
20
21.0151179690
30
0.0000000000
10
7.0522510596
20
21.0979555199
30
0.0000000000
10
6.9899434435
20
21.1528601599
30
0.0000000000
10
6.9587505924
20
21.1802222394
30
0.0000000000
11
7.2382150030
21
20.9317102097
31
0.0000000000
11
7.1452999608
21
21.0150879309
31
0.0000000000
11
7.0521439014
21
21.0979253015
31
0.0000000000
11
6.9587505924
21
21.1802222394
31
0.0000000000
0
SPLINE
5
3E3
100
AcDbEntity
8
0
100
AcDbSpline
62
7
6
CONTINUOUS
70
0
71
3
72
10
73
6
74
4
42
0.0000001000
43
0.0000001000
44
0.0000000001
12
-0.2811426313
22
-0.2466157063
32
0.0000000000
13
-0.2777771758
23
-0.2504003321
33
0.0000000000
40
0.0000000000
40
0.0000000000
40
0.0000000000
40
0.0000000000
40
0.3328508128
40
0.6661844399
40
1.0000000000
40
1.0000000000
40
1.0000000000
40
1.0000000000
10
-6.9587505924
20
21.1802222394
30
0.0000000000
10
-6.9899434435
20
21.1528601599
30
0.0000000000
10
-7.0522510596
20
21.0979555199
30
0.0000000000
10
-7.1454073215
20
21.0151179690
30
0.0000000000
10
-7.2073062218
20
20.9595727187
30
0.0000000000
10
-7.2382150030
20
20.9317102097
30
0.0000000000
11
-6.9587505924
21
21.1802222394
31
0.0000000000
11
-7.0521439014
21
21.0979253015
31
0.0000000000
11
-7.1452999608
21
21.0150879309
31
0.0000000000
11
-7.2382150030
21
20.9317102097
31
0.0000000000
0
SPLINE
5
3E4
100
AcDbEntity
8
0
100
AcDbSpline
62
7
6
CONTINUOUS
70
0
71
3
72
10
73
6
74
4
42
0.0000001000
43
0.0000001000
44
0.0000000001
12
0.2777771758
22
-0.2504003321
32
0.0000000000
13
0.2811426313
23
-0.2466157063
33
0.0000000000
40
0.0000000000
40
0.0000000000
40
0.0000000000
40
0.0000000000
40
0.3338155601
40
0.6671491872
40
1.0000000000
40
1.0000000000
40
1.0000000000
40
1.0000000000
10
-7.2382150030
20
-20.9317102097
30
0.0000000000
10
-7.2073062218
20
-20.9595727187
30
0.0000000000
10
-7.1454073215
20
-21.0151179690
30
0.0000000000
10
-7.0522510596
20
-21.0979555199
30
0.0000000000
10
-6.9899434435
20
-21.1528601599
30
0.0000000000
10
-6.9587505924
20
-21.1802222394
30
0.0000000000
11
-7.2382150030
21
-20.9317102097
31
0.0000000000
11
-7.1452999608
21
-21.0150879309
31
0.0000000000
11
-7.0521439014
21
-21.0979253015
31
0.0000000000
11
-6.9587505924
21
-21.1802222394
31
0.0000000000
0
SPLINE
5
3E5
100
AcDbEntity
8
0
100
AcDbSpline
62
7
6
CONTINUOUS
70
0
71
3
72
10
73
6
74
4
42
0.0000001000
43
0.0000001000
44
0.0000000001
12
0.2811426313
22
0.2466157063
32
0.0000000000
13
0.2777771758
23
0.2504003321
33
0.0000000000
40
0.0000000000
40
0.0000000000
40
0.0000000000
40
0.0000000000
40
0.3328508128
40
0.6661844399
40
1.0000000000
40
1.0000000000
40
1.0000000000
40
1.0000000000
10
6.9587505924
20
-21.1802222394
30
0.0000000000
10
6.9899434435
20
-21.1528601599
30
0.0000000000
10
7.0522510596
20
-21.0979555199
30
0.0000000000
10
7.1454073215
20
-21.0151179690
30
0.0000000000
10
7.2073062218
20
-20.9595727187
30
0.0000000000
10
7.2382150030
20
-20.9317102097
30
0.0000000000
11
6.9587505924
21
-21.1802222394
31
0.0000000000
11
7.0521439014
21
-21.0979253015
31
0.0000000000
11
7.1452999608
21
-21.0150879309
31
0.0000000000
11
7.2382150030
21
-20.9317102097
31
0.0000000000
0
SPLINE
5
3E6
100
AcDbEntity
8
0
100
AcDbSpline
62
7
6
CONTINUOUS
70
0
71
3
72
12
73
8
74
6
42
0.0000001000
43
0.0000001000
44
0.0000000001
12
0.0081450674
22
0.4666306013
32
0.0000000000
13
-0.4667016822
23
0.0000000000
33
0.0000000000
40
0.0000000000
40
0.0000000000
40
0.0000000000
40
0.0000000000
40
0.2169853120
40
0.4196914692
40
0.6169427421
40
0.8110308260
40
1.0000000000
40
1.0000000000
40
1.0000000000
40
1.0000000000
10
7.2189575692
20
-19.2000000000
30
0.0000000000
10
7.2195466892
20
-19.1662493378
30
0.0000000000
10
7.2094502332
20
-19.1001959253
30
0.0000000000
10
7.1638587736
20
-19.0139226038
30
0.0000000000
10
7.0960159844
20
-18.9488594300
30
0.0000000000
10
7.0135166723
20
-18.9088847646
30
0.0000000000
10
6.9535458007
20
-18.9000000000
30
0.0000000000
10
6.9241483902
20
-18.9000000000
30
0.0000000000
11
7.2189575692
21
-19.2000000000
31
0.0000000000
11
7.2035152338
21
-19.0999169214
31
0.0000000000
11
7.1593148423
21
-19.0162741654
31
0.0000000000
11
7.0928748841
21
-18.9525535610
31
0.0000000000
11
7.0113734324
21
-18.9130254247
31
0.0000000000
11
6.9241483902
21
-18.9000000000
31
0.0000000000
0
SPLINE
5
3E7
100
AcDbEntity
8
0
100
AcDbSpline
62
7
6
CONTINUOUS
70
0
71
3
72
12
73
8
74
6
42
0.0000001000
43
0.0000001000
44
0.0000000001
12
-0.4667016457
22
0.0000000000
32
0.0000000000
13
0.0081450668
23
-0.4666305648
33
0.0000000000
40
0.0000000000
40
0.0000000000
40
0.0000000000
40
0.0000000000
40
0.1889246438
40
0.3830348081
40
0.5802947908
40
0.7830019254
40
1.0000000000
40
1.0000000000
40
1.0000000000
40
1.0000000000
10
-6.9241483902
20
-18.9000000000
30
0.0000000000
10
-6.9535388709
20
-18.9000000000
30
0.0000000000
10
-7.0135059659
20
-18.9088820353
30
0.0000000000
10
-7.0960058982
20
-18.9488514524
30
0.0000000000
10
-7.1638542671
20
-19.0139162243
30
0.0000000000
10
-7.2094492411
20
-19.1001916887
30
0.0000000000
10
-7.2195467238
20
-19.1662473553
30
0.0000000000
10
-7.2189575692
20
-19.2000000000
30
0.0000000000
11
-6.9241483902
21
-18.9000000000
31
0.0000000000
11
-7.0113533318
21
-18.9130192692
31
0.0000000000
11
-7.0928661734
21
-18.9525475190
31
0.0000000000
11
-7.1593109226
21
-19.0162689901
31
0.0000000000
11
-7.2035133085
21
-19.0999111996
31
0.0000000000
11
-7.2189575692
21
-19.2000000000
31
0.0000000000
0
SPLINE
5
3E8
100
AcDbEntity
8
0
100
AcDbSpline
62
7
6
CONTINUOUS
70
0
71
3
72
12
73
8
74
6
42
0.0000001000
43
0.0000001000
44
0.0000000001
12
0.4667016457
22
0.0000000000
32
0.0000000000
13
-0.0081450668
23
0.4666305648
33
0.0000000000
40
0.0000000000
40
0.0000000000
40
0.0000000000
40
0.0000000000
40
0.1889246438
40
0.3830348081
40
0.5802947908
40
0.7830019254
40
1.0000000000
40
1.0000000000
40
1.0000000000
40
1.0000000000
10
6.9241483902
20
18.9000000000
30
0.0000000000
10
6.9535388709
20
18.9000000000
30
0.0000000000
10
7.0135059659
20
18.9088820353
30
0.0000000000
10
7.0960058982
20
18.9488514524
30
0.0000000000
10
7.1638542671
20
19.0139162243
30
0.0000000000
10
7.2094492411
20
19.1001916887
30
0.0000000000
10
7.2195467238
20
19.1662473553
30
0.0000000000
10
7.2189575692
20
19.2000000000
30
0.0000000000
11
6.9241483902
21
18.9000000000
31
0.0000000000
11
7.0113533318
21
18.9130192692
31
0.0000000000
11
7.0928661734
21
18.9525475190
31
0.0000000000
11
7.1593109226
21
19.0162689901
31
0.0000000000
11
7.2035133085
21
19.0999111996
31
0.0000000000
11
7.2189575692
21
19.2000000000
31
0.0000000000
0
SPLINE
5
3E9
100
AcDbEntity
8
0
100
AcDbSpline
62
7
6
CONTINUOUS
70
0
71
3
72
10
73
6
74
4
42
0.0000001000
43
0.0000001000
44
0.0000000001
12
-0.0050250402
22
-0.2878843627
32
0.0000000000
13
0.2374568817
23
-0.1647998445
33
0.0000000000
40
0.0000000000
40
0.0000000000
40
0.0000000000
40
0.0000000000
40
0.3517106162
40
0.6802762081
40
1.0000000000
40
1.0000000000
40
1.0000000000
40
1.0000000000
10
-7.2189575692
20
19.2000000000
30
0.0000000000
10
-7.2195466892
20
19.1662493378
30
0.0000000000
10
-7.2094502332
20
19.1001959253
30
0.0000000000
10
-7.1638587736
20
19.0139226038
30
0.0000000000
10
-7.1181817556
20
18.9701170381
30
0.0000000000
10
-7.0928748841
20
18.9525535610
30
0.0000000000
11
-7.2189575692
21
19.2000000000
31
0.0000000000
11
-7.2035152338
21
19.0999169214
31
0.0000000000
11
-7.1593148423
21
19.0162741654
31
0.0000000000
11
-7.0928748841
21
18.9525535610
31
0.0000000000
0
SPLINE
5
3EA
100
AcDbEntity
8
0
100
AcDbSpline
62
7
6
CONTINUOUS
70
0
71
3
72
9
73
5
74
3
42
0.0000001000
43
0.0000001000
44
0.0000000001
12
0.1474360192
22
-0.1023235582
32
0.0000000000
13
0.1787734666
23
0.0000000000
33
0.0000000000
40
0.0000000000
40
0.0000000000
40
0.0000000000
40
0.0000000000
40
0.5066816510
40
1.0000000000
40
1.0000000000
40
1.0000000000
40
1.0000000000
10
-7.0928748841
20
18.9525535610
30
0.0000000000
10
-7.0679738422
20
18.9352717379
30
0.0000000000
10
-7.0135166723
20
18.9088847646
30
0.0000000000
10
-6.9535458007
20
18.9000000000
30
0.0000000000
10
-6.9241483902
20
18.9000000000
30
0.0000000000
11
-7.0928748841
21
18.9525535610
31
0.0000000000
11
-7.0113734324
21
18.9130254247
31
0.0000000000
11
-6.9241483902
21
18.9000000000
31
0.0000000000
0
SPLINE
5
3EB
100
AcDbEntity
8
0
100
AcDbSpline
62
7
6
CONTINUOUS
70
0
71
3
72
8
73
4
74
2
42
0.0000001000
43
0.0000001000
44
0.0000000001
12
0.0913489144
22
-0.1943183325
32
0.0000000000
13
0.1302371944
23
-0.1700647341
33
0.0000000000
40
0.0000000000
40
0.0000000000
40
0.0000000000
40
0.0000000000
40
1.0000000000
40
1.0000000000
40
1.0000000000
40
1.0000000000
10
-11.0810919391
20
-16.8330964578
30
0.0000000000
10
-11.0506423010
20
-16.8978692353
30
0.0000000000
10
-11.0131947362
20
-16.9594332234
30
0.0000000000
10
-10.9697823380
20
-17.0161214681
30
0.0000000000
11
-11.0810919391
21
-16.8330964578
31
0.0000000000
11
-10.9697823380
21
-17.0161214681
31
0.0000000000
0
SPLINE
5
3EC
100
AcDbEntity
8
0
100
AcDbSpline
62
7
6
CONTINUOUS
70
0
71
3
72
13
73
9
74
7
42
0.0000001000
43
0.0000001000
44
0.0000000001
12
0.2632975648
22
-0.3081727327
32
0.0000000000
13
0.1565458214
23
0.3776457571
33
0.0000000000
40
0.0000000000
40
0.0000000000
40
0.0000000000
40
0.0000000000
40
0.2001004922
40
0.3986739171
40
0.5971492663
40
0.7956041092
40
0.9939111553
40
1.0000000000
40
1.0000000000
40
1.0000000000
40
1.0000000000
10
-10.0282352926
20
-18.1797639505
30
0.0000000000
10
-10.0106733018
20
-18.2003191223
30
0.0000000000
10
-9.9667415060
20
-18.2344725852
30
0.0000000000
10
-9.8865416393
20
-18.2551707368
30
0.0000000000
10
-9.8047819793
20
-18.2426941314
30
0.0000000000
10
-9.7346308832
20
-18.1989547451
30
0.0000000000
10
-9.7026498256
20
-18.1531364392
30
0.0000000000
10
-9.6918227769
20
-18.1274760842
30
0.0000000000
10
-9.6915050492
20
-18.1267096087
30
0.0000000000
11
-10.0282352926
21
-18.1797639505
31
0.0000000000
11
-9.9641518054
21
-18.2294806897
31
0.0000000000
11
-9.8862314840
21
-18.2496511448
31
0.0000000000
11
-9.8067085406
21
-18.2374803858
31
0.0000000000
11
-9.7384318821
21
-18.1949482035
31
0.0000000000
11
-9.6924726323
21
-18.1290027592
31
0.0000000000
11
-9.6915050492
21
-18.1267096087
31
0.0000000000
0
SPLINE
5
3ED
100
AcDbEntity
8
0
100
AcDbSpline
62
7
6
CONTINUOUS
70
0
71
3
72
8
73
4
74
2
42
0.0000001000
43
0.0000001000
44
0.0000000001
12
-0.1302369402
22
-0.1700644085
32
0.0000000000
13
-0.0913487505
23
-0.1943179519
33
0.0000000000
40
0.0000000000
40
0.0000000000
40
0.0000000000
40
0.0000000000
40
1.0000000000
40
1.0000000000
40
1.0000000000
40
1.0000000000
10
-10.9697825522
20
17.0161211149
30
0.0000000000
10
-11.0131948656
20
16.9594329787
30
0.0000000000
10
-11.0506423554
20
16.8978691084
30
0.0000000000
10
-11.0810919389
20
16.8330964578
30
0.0000000000
11
-10.9697825522
21
17.0161211149
31
0.0000000000
11
-11.0810919389
21
16.8330964578
31
0.0000000000
0
SPLINE
5
3EE
100
AcDbEntity
8
0
100
AcDbSpline
62
7
6
CONTINUOUS
70
0
71
3
72
13
73
9
74
7
42
0.0000001000
43
0.0000001000
44
0.0000000001
12
-0.1565458214
22
0.3776457571
32
0.0000000000
13
-0.2632975648
23
-0.3081727327
33
0.0000000000
40
0.0000000000
40
0.0000000000
40
0.0000000000
40
0.0000000000
40
0.0060888447
40
0.2043958908
40
0.4028507337
40
0.6013260829
40
0.7998995078
40
1.0000000000
40
1.0000000000
40
1.0000000000
40
1.0000000000
10
-9.6915050492
20
18.1267096087
30
0.0000000000
10
-9.6918227769
20
18.1274760842
30
0.0000000000
10
-9.7026498256
20
18.1531364392
30
0.0000000000
10
-9.7346308832
20
18.1989547451
30
0.0000000000
10
-9.8047819793
20
18.2426941314
30
0.0000000000
10
-9.8865416393
20
18.2551707368
30
0.0000000000
10
-9.9667415060
20
18.2344725852
30
0.0000000000
10
-10.0106733018
20
18.2003191223
30
0.0000000000
10
-10.0282352926
20
18.1797639505
30
0.0000000000
11
-9.6915050492
21
18.1267096087
31
0.0000000000
11
-9.6924726323
21
18.1290027592
31
0.0000000000
11
-9.7384318821
21
18.1949482035
31
0.0000000000
11
-9.8067085406
21
18.2374803858
31
0.0000000000
11
-9.8862314840
21
18.2496511448
31
0.0000000000
11
-9.9641518054
21
18.2294806897
31
0.0000000000
11
-10.0282352926
21
18.1797639505
31
0.0000000000
0
SPLINE
5
3EF
100
AcDbEntity
8
0
100
AcDbSpline
62
7
6
CONTINUOUS
70
0
71
3
72
13
73
9
74
7
42
0.0000001000
43
0.0000001000
44
0.0000000001
12
-0.2632975648
22
0.3081727327
32
0.0000000000
13
-0.1565458214
23
-0.3776457571
33
0.0000000000
40
0.0000000000
40
0.0000000000
40
0.0000000000
40
0.0000000000
40
0.2001004922
40
0.3986739171
40
0.5971492663
40
0.7956041092
40
0.9939111553
40
1.0000000000
40
1.0000000000
40
1.0000000000
40
1.0000000000
10
10.0282352926
20
18.1797639505
30
0.0000000000
10
10.0106733018
20
18.2003191223
30
0.0000000000
10
9.9667415060
20
18.2344725852
30
0.0000000000
10
9.8865416393
20
18.2551707368
30
0.0000000000
10
9.8047819793
20
18.2426941314
30
0.0000000000
10
9.7346308832
20
18.1989547451
30
0.0000000000
10
9.7026498256
20
18.1531364392
30
0.0000000000
10
9.6918227769
20
18.1274760842
30
0.0000000000
10
9.6915050492
20
18.1267096087
30
0.0000000000
11
10.0282352926
21
18.1797639505
31
0.0000000000
11
9.9641518054
21
18.2294806897
31
0.0000000000
11
9.8862314840
21
18.2496511448
31
0.0000000000
11
9.8067085406
21
18.2374803858
31
0.0000000000
11
9.7384318821
21
18.1949482035
31
0.0000000000
11
9.6924726323
21
18.1290027592
31
0.0000000000
11
9.6915050492
21
18.1267096087
31
0.0000000000
0
SPLINE
5
3F0
100
AcDbEntity
8
0
100
AcDbSpline
62
7
6
CONTINUOUS
70
0
71
3
72
8
73
4
74
2
42
0.0000001000
43
0.0000001000
44
0.0000000001
12
0.1302369402
22
0.1700644085
32
0.0000000000
13
0.0913487505
23
0.1943179519
33
0.0000000000
40
0.0000000000
40
0.0000000000
40
0.0000000000
40
0.0000000000
40
1.0000000000
40
1.0000000000
40
1.0000000000
40
1.0000000000
10
10.9697825522
20
-17.0161211149
30
0.0000000000
10
11.0131948656
20
-16.9594329787
30
0.0000000000
10
11.0506423554
20
-16.8978691084
30
0.0000000000
10
11.0810919389
20
-16.8330964578
30
0.0000000000
11
10.9697825522
21
-17.0161211149
31
0.0000000000
11
11.0810919389
21
-16.8330964578
31
0.0000000000
0
SPLINE
5
3F1
100
AcDbEntity
8
0
100
AcDbSpline
62
7
6
CONTINUOUS
70
0
71
3
72
13
73
9
74
7
42
0.0000001000
43
0.0000001000
44
0.0000000001
12
0.1565458214
22
-0.3776457571
32
0.0000000000
13
0.2632975648
23
0.3081727327
33
0.0000000000
40
0.0000000000
40
0.0000000000
40
0.0000000000
40
0.0000000000
40
0.0060888447
40
0.2043958908
40
0.4028507337
40
0.6013260829
40
0.7998995078
40
1.0000000000
40
1.0000000000
40
1.0000000000
40
1.0000000000
10
9.6915050492
20
-18.1267096087
30
0.0000000000
10
9.6918227769
20
-18.1274760842
30
0.0000000000
10
9.7026498256
20
-18.1531364392
30
0.0000000000
10
9.7346308832
20
-18.1989547451
30
0.0000000000
10
9.8047819793
20
-18.2426941314
30
0.0000000000
10
9.8865416393
20
-18.2551707368
30
0.0000000000
10
9.9667415060
20
-18.2344725852
30
0.0000000000
10
10.0106733018
20
-18.2003191223
30
0.0000000000
10
10.0282352926
20
-18.1797639505
30
0.0000000000
11
9.6915050492
21
-18.1267096087
31
0.0000000000
11
9.6924726323
21
-18.1290027592
31
0.0000000000
11
9.7384318821
21
-18.1949482035
31
0.0000000000
11
9.8067085406
21
-18.2374803858
31
0.0000000000
11
9.8862314840
21
-18.2496511448
31
0.0000000000
11
9.9641518054
21
-18.2294806897
31
0.0000000000
11
10.0282352926
21
-18.1797639505
31
0.0000000000
0
SPLINE
5
3F2
100
AcDbEntity
8
0
100
AcDbSpline
62
7
6
CONTINUOUS
70
0
71
3
72
10
73
6
74
4
42
0.0000001000
43
0.0000001000
44
0.0000000001
12
-0.0432626450
22
0.0699016036
32
0.0000000000
13
-0.0435247542
23
0.0697387010
33
0.0000000000
40
0.0000000000
40
0.0000000000
40
0.0000000000
40
0.0000000000
40
0.3335483346
40
0.6668817670
40
1.0000000000
40
1.0000000000
40
1.0000000000
40
1.0000000000
10
4.0167310674
20
23.4301797403
30
0.0000000000
10
4.0119210063
20
23.4379515948
30
0.0000000000
10
4.0022942612
20
23.4534842818
30
0.0000000000
10
3.9878296656
20
23.4767577123
30
0.0000000000
10
3.9781703107
20
23.4922562557
30
0.0000000000
10
3.9733373476
20
23.5000000000
30
0.0000000000
11
4.0167310674
21
23.4301797403
31
0.0000000000
11
4.0022862984
21
23.4534862701
31
0.0000000000
11
3.9878216994
21
23.4767597005
31
0.0000000000
11
3.9733373476
21
23.5000000000
31
0.0000000000
0
SPLINE
5
3F3
100
AcDbEntity
8
0
100
AcDbSpline
62
7
6
CONTINUOUS
70
0
71
3
72
10
73
6
74
4
42
0.0000001000
43
0.0000001000
44
0.0000000001
12
-0.0435247542
22
-0.0697387010
32
0.0000000000
13
-0.0432626450
23
-0.0699016036
33
0.0000000000
40
0.0000000000
40
0.0000000000
40
0.0000000000
40
0.0000000000
40
0.3331182329
40
0.6664516654
40
1.0000000000
40
1.0000000000
40
1.0000000000
40
1.0000000000
10
-3.9733373476
20
23.5000000000
30
0.0000000000
10
-3.9781703107
20
23.4922562557
30
0.0000000000
10
-3.9878296656
20
23.4767577123
30
0.0000000000
10
-4.0022942612
20
23.4534842818
30
0.0000000000
10
-4.0119210063
20
23.4379515948
30
0.0000000000
10
-4.0167310674
20
23.4301797403
30
0.0000000000
11
-3.9733373476
21
23.5000000000
31
0.0000000000
11
-3.9878216994
21
23.4767597005
31
0.0000000000
11
-4.0022862984
21
23.4534862701
31
0.0000000000
11
-4.0167310674
21
23.4301797403
31
0.0000000000
0
SPLINE
5
3F4
100
AcDbEntity
8
0
100
AcDbSpline
62
7
6
CONTINUOUS
70
0
71
3
72
10
73
6
74
4
42
0.0000001000
43
0.0000001000
44
0.0000000001
12
0.0432626450
22
-0.0699016036
32
0.0000000000
13
0.0435247542
23
-0.0697387010
33
0.0000000000
40
0.0000000000
40
0.0000000000
40
0.0000000000
40
0.0000000000
40
0.3335483346
40
0.6668817670
40
1.0000000000
40
1.0000000000
40
1.0000000000
40
1.0000000000
10
-4.0167310674
20
-23.4301797403
30
0.0000000000
10
-4.0119210063
20
-23.4379515948
30
0.0000000000
10
-4.0022942612
20
-23.4534842818
30
0.0000000000
10
-3.9878296656
20
-23.4767577123
30
0.0000000000
10
-3.9781703107
20
-23.4922562557
30
0.0000000000
10
-3.9733373476
20
-23.5000000000
30
0.0000000000
11
-4.0167310674
21
-23.4301797403
31
0.0000000000
11
-4.0022862984
21
-23.4534862701
31
0.0000000000
11
-3.9878216994
21
-23.4767597005
31
0.0000000000
11
-3.9733373476
21
-23.5000000000
31
0.0000000000
0
SPLINE
5
3F5
100
AcDbEntity
8
0
100
AcDbSpline
62
7
6
CONTINUOUS
70
0
71
3
72
10
73
6
74
4
42
0.0000001000
43
0.0000001000
44
0.0000000001
12
0.0435247542
22
0.0697387010
32
0.0000000000
13
0.0432626450
23
0.0699016036
33
0.0000000000
40
0.0000000000
40
0.0000000000
40
0.0000000000
40
0.0000000000
40
0.3331182329
40
0.6664516654
40
1.0000000000
40
1.0000000000
40
1.0000000000
40
1.0000000000
10
3.9733373476
20
-23.5000000000
30
0.0000000000
10
3.9781703107
20
-23.4922562557
30
0.0000000000
10
3.9878296656
20
-23.4767577123
30
0.0000000000
10
4.0022942612
20
-23.4534842818
30
0.0000000000
10
4.0119210063
20
-23.4379515948
30
0.0000000000
10
4.0167310674
20
-23.4301797403
30
0.0000000000
11
3.9733373476
21
-23.5000000000
31
0.0000000000
11
3.9878216994
21
-23.4767597005
31
0.0000000000
11
4.0022862984
21
-23.4534862701
31
0.0000000000
11
4.0167310674
21
-23.4301797403
31
0.0000000000
0
SPLINE
5
3F6
100
AcDbEntity
8
0
100
AcDbSpline
62
7
6
CONTINUOUS
70
0
71
3
72
8
73
4
74
2
42
0.0000001000
43
0.0000001000
44
0.0000000001
12
-0.0919449673
22
-0.1948151096
32
0.0000000000
13
-0.1310408807
23
-0.1703278565
33
0.0000000000
40
0.0000000000
40
0.0000000000
40
0.0000000000
40
0.0000000000
40
1.0000000000
40
1.0000000000
40
1.0000000000
40
1.0000000000
10
11.0542615215
20
-16.8900831794
30
0.0000000000
10
11.0236131991
20
-16.9550215492
30
0.0000000000
10
10.9859256556
20
-17.0167194660
30
0.0000000000
10
10.9422453620
20
-17.0734954182
30
0.0000000000
11
11.0542615215
21
-16.8900831794
31
0.0000000000
11
10.9422453620
21
-17.0734954182
31
0.0000000000
0
SPLINE
5
3F7
100
AcDbEntity
8
0
100
AcDbSpline
62
7
6
CONTINUOUS
70
0
71
3
72
10
73
6
74
4
42
0.0000001000
43
0.0000001000
44
0.0000000001
12
-0.2724671219
22
0.1571116374
32
0.0000000000
13
-0.0000000000
23
0.3124311703
33
0.0000000000
40
0.0000000000
40
0.0000000000
40
0.0000000000
40
0.0000000000
40
0.2507102674
40
0.6254863407
40
1.0000000000
40
1.0000000000
40
1.0000000000
40
1.0000000000
10
-7.3724385968
20
18.9400730224
30
0.0000000000
10
-7.3952086985
20
18.9532028559
30
0.0000000000
10
-7.4476681660
20
18.9933891612
30
0.0000000000
10
-7.5070682829
20
19.0821095437
30
0.0000000000
10
-7.5226756989
20
19.1609967530
30
0.0000000000
10
-7.5226756989
20
19.2000000000
30
0.0000000000
11
-7.3724385968
21
18.9400730224
31
0.0000000000
11
-7.4348037939
21
18.9878774100
31
0.0000000000
11
-7.4998536883
21
19.0852374831
31
0.0000000000
11
-7.5226756989
21
19.2000000000
31
0.0000000000
0
SPLINE
5
3F8
100
AcDbEntity
8
0
100
AcDbSpline
62
7
6
CONTINUOUS
70
0
71
3
72
8
73
4
74
2
42
0.0000001000
43
0.0000001000
44
0.0000000001
12
-0.0913489144
22
0.1943183325
32
0.0000000000
13
-0.1302371944
23
0.1700647341
33
0.0000000000
40
0.0000000000
40
0.0000000000
40
0.0000000000
40
0.0000000000
40
1.0000000000
40
1.0000000000
40
1.0000000000
40
1.0000000000
10
11.0810919391
20
16.8330964578
30
0.0000000000
10
11.0506423010
20
16.8978692353
30
0.0000000000
10
11.0131947362
20
16.9594332234
30
0.0000000000
10
10.9697823380
20
17.0161214681
30
0.0000000000
11
11.0810919391
21
16.8330964578
31
0.0000000000
11
10.9697823380
21
17.0161214681
31
0.0000000000
0
SPLINE
5
3F9
100
AcDbEntity
8
0
100
AcDbSpline
62
7
6
CONTINUOUS
70
0
71
3
72
13
73
9
74
7
42
0.0000001000
43
0.0000001000
44
0.0000000001
12
-0.2791981576
22
-0.3254639536
32
0.0000000000
13
-0.1165473343
23
0.4167223111
33
0.0000000000
40
0.0000000000
40
0.0000000000
40
0.0000000000
40
0.0000000000
40
0.1889594160
40
0.3765085908
40
0.5639760196
40
0.7514227598
40
0.9387288630
40
1.0000000000
40
1.0000000000
40
1.0000000000
40
1.0000000000
10
10.0017927407
20
-18.2307790647
30
0.0000000000
10
9.9842070337
20
-18.2512788909
30
0.0000000000
10
9.9402563215
20
-18.2853203907
30
0.0000000000
10
9.8600989011
20
-18.3058858285
30
0.0000000000
10
9.7784201894
20
-18.2933292180
30
0.0000000000
10
9.7083601624
20
-18.2495698272
30
0.0000000000
10
9.6717672432
20
-18.1970911219
30
0.0000000000
10
9.6598440559
20
-18.1631812389
30
0.0000000000
10
9.6574637266
20
-18.1546702223
30
0.0000000000
11
10.0017927407
21
-18.2307790647
31
0.0000000000
11
9.9376832280
21
-18.2803317644
31
0.0000000000
11
9.8597977437
21
-18.3003746549
31
0.0000000000
11
9.7803484811
21
-18.2881254173
31
0.0000000000
11
9.7121575814
21
-18.2455718735
31
0.0000000000
11
9.6662649482
21
-18.1796554267
31
0.0000000000
11
9.6574637266
21
-18.1546702223
31
0.0000000000
0
SPLINE
5
3FA
100
AcDbEntity
8
0
100
AcDbSpline
62
7
6
CONTINUOUS
70
0
71
3
72
8
73
4
74
2
42
0.0000001000
43
0.0000001000
44
0.0000000001
12
0.0919449673
22
0.1948151096
32
0.0000000000
13
0.1310408807
23
0.1703278565
33
0.0000000000
40
0.0000000000
40
0.0000000000
40
0.0000000000
40
0.0000000000
40
1.0000000000
40
1.0000000000
40
1.0000000000
40
1.0000000000
10
-11.0542615215
20
16.8900831794
30
0.0000000000
10
-11.0236131991
20
16.9550215492
30
0.0000000000
10
-10.9859256556
20
17.0167194660
30
0.0000000000
10
-10.9422453620
20
17.0734954182
30
0.0000000000
11
-11.0542615215
21
16.8900831794
31
0.0000000000
11
-10.9422453620
21
17.0734954182
31
0.0000000000
0
SPLINE
5
3FB
100
AcDbEntity
8
0
100
AcDbSpline
62
7
6
CONTINUOUS
70
0
71
3
72
13
73
9
74
7
42
0.0000001000
43
0.0000001000
44
0.0000000001
12
0.1165473343
22
0.4167223111
32
0.0000000000
13
0.2791981576
23
-0.3254639536
33
0.0000000000
40
0.0000000000
40
0.0000000000
40
0.0000000000
40
0.0000000000
40
0.0612711370
40
0.2485772402
40
0.4360239804
40
0.6234914092
40
0.8110405840
40
1.0000000000
40
1.0000000000
40
1.0000000000
40
1.0000000000
10
9.6574637266
20
18.1546702223
30
0.0000000000
10
9.6598440559
20
18.1631812389
30
0.0000000000
10
9.6717672432
20
18.1970911219
30
0.0000000000
10
9.7083601624
20
18.2495698272
30
0.0000000000
10
9.7784201894
20
18.2933292180
30
0.0000000000
10
9.8600989011
20
18.3058858285
30
0.0000000000
10
9.9402563215
20
18.2853203907
30
0.0000000000
10
9.9842070337
20
18.2512788909
30
0.0000000000
10
10.0017927407
20
18.2307790647
30
0.0000000000
11
9.6574637266
21
18.1546702223
31
0.0000000000
11
9.6662649482
21
18.1796554267
31
0.0000000000
11
9.7121575814
21
18.2455718735
31
0.0000000000
11
9.7803484811
21
18.2881254173
31
0.0000000000
11
9.8597977437
21
18.3003746549
31
0.0000000000
11
9.9376832280
21
18.2803317644
31
0.0000000000
11
10.0017927407
21
18.2307790647
31
0.0000000000
0
SPLINE
5
3FC
100
AcDbEntity
8
0
100
AcDbSpline
62
7
6
CONTINUOUS
70
0
71
3
72
9
73
5
74
3
42
0.0000001000
43
0.0000001000
44
0.0000000001
12
0.0000000000
22
-0.0336995732
32
0.0000000000
13
-0.0382604184
23
-0.0005350335
33
0.0000000000
40
0.0000000000
40
0.0000000000
40
0.0000000000
40
0.0000000000
40
0.6217918394
40
1.0000000000
40
1.0000000000
40
1.0000000000
40
1.0000000000
10
6.2500000000
20
17.7127246754
30
0.0000000000
10
6.2500000000
20
17.7057399688
30
0.0000000000
10
6.2324738016
20
17.7079402120
30
0.0000000000
10
6.2186686853
20
17.7082790900
30
0.0000000000
10
6.2138452178
20
17.7082116387
30
0.0000000000
11
6.2500000000
21
17.7127246754
31
0.0000000000
11
6.2296433694
21
17.7077565048
31
0.0000000000
11
6.2138452178
21
17.7082116387
31
0.0000000000
0
SPLINE
5
3FD
100
AcDbEntity
8
0
100
AcDbSpline
62
7
6
CONTINUOUS
70
0
71
3
72
17
73
13
74
11
42
0.0000001000
43
0.0000001000
44
0.0000000001
12
-2.2336509344
22
-0.0312353654
32
0.0000000000
13
-1.9673878719
23
0.0000000000
33
0.0000000000
40
0.0000000000
40
0.0000000000
40
0.0000000000
40
0.0000000000
40
0.0244230174
40
0.0751822385
40
0.1446576181
40
0.2316934149
40
0.3341932212
40
0.4504536406
40
0.5776637782
40
0.7136510231
40
0.8553041994
40
1.0000000000
40
1.0000000000
40
1.0000000000
40
1.0000000000
10
6.2138452178
20
17.7082116387
30
0.0000000000
10
6.1956610526
20
17.7079573514
30
0.0000000000
10
6.1570854614
20
17.6986161753
30
0.0000000000
10
6.0545067317
20
17.6989558976
30
0.0000000000
10
5.9221411776
20
17.6927832759
30
0.0000000000
10
5.7510114223
20
17.6896817391
30
0.0000000000
10
5.5509520983
20
17.6859913191
30
0.0000000000
10
5.3239380414
20
17.6831566234
30
0.0000000000
10
5.0751468308
20
17.6807898909
30
0.0000000000
10
4.8096392313
20
17.6790888985
30
0.0000000000
10
4.5326784028
20
17.6780461329
30
0.0000000000
10
4.3448909211
20
17.6778145455
30
0.0000000000
10
4.2500000000
20
17.6778145455
30
0.0000000000
11
6.2138452178
21
17.7082116387
31
0.0000000000
11
6.1690432353
21
17.7028927614
31
0.0000000000
11
6.0692893807
21
17.6982234538
31
0.0000000000
11
5.9326741754
21
17.6938553738
31
0.0000000000
11
5.7614875487
21
17.6898631684
31
0.0000000000
11
5.5598613913
21
17.6863434761
31
0.0000000000
11
5.3311515768
21
17.6833549465
31
0.0000000000
11
5.0808912608
21
17.6809697924
31
0.0000000000
11
4.8133572737
21
17.6792280984
31
0.0000000000
11
4.5346725413
21
17.6781699879
31
0.0000000000
11
4.2500000000
21
17.6778145455
31
0.0000000000
0
SPLINE
5
3FE
100
AcDbEntity
8
0
100
AcDbSpline
62
7
6
CONTINUOUS
70
0
71
3
72
9
73
5
74
3
42
0.0000001000
43
0.0000001000
44
0.0000000001
12
0.0000000000
22
0.0336995732
32
0.0000000000
13
0.0382604184
23
0.0005350335
33
0.0000000000
40
0.0000000000
40
0.0000000000
40
0.0000000000
40
0.0000000000
40
0.6217918394
40
1.0000000000
40
1.0000000000
40
1.0000000000
40
1.0000000000
10
-2.7500000000
20
-17.7127246754
30
0.0000000000
10
-2.7500000000
20
-17.7057399688
30
0.0000000000
10
-2.7324738016
20
-17.7079402120
30
0.0000000000
10
-2.7186686853
20
-17.7082790900
30
0.0000000000
10
-2.7138452178
20
-17.7082116387
30
0.0000000000
11
-2.7500000000
21
-17.7127246754
31
0.0000000000
11
-2.7296433694
21
-17.7077565048
31
0.0000000000
11
-2.7138452178
21
-17.7082116387
31
0.0000000000
0
SPLINE
5
3FF
100
AcDbEntity
8
0
100
AcDbSpline
62
7
6
CONTINUOUS
70
0
71
3
72
17
73
13
74
11
42
0.0000001000
43
0.0000001000
44
0.0000000001
12
2.2336509344
22
0.0312353654
32
0.0000000000
13
1.9673878719
23
-0.0000000000
33
0.0000000000
40
0.0000000000
40
0.0000000000
40
0.0000000000
40
0.0000000000
40
0.0244230174
40
0.0751822385
40
0.1446576181
40
0.2316934149
40
0.3341932212
40
0.4504536406
40
0.5776637782
40
0.7136510231
40
0.8553041994
40
1.0000000000
40
1.0000000000
40
1.0000000000
40
1.0000000000
10
-2.7138452178
20
-17.7082116387
30
0.0000000000
10
-2.6956610526
20
-17.7079573514
30
0.0000000000
10
-2.6570854614
20
-17.6986161753
30
0.0000000000
10
-2.5545067317
20
-17.6989558976
30
0.0000000000
10
-2.4221411776
20
-17.6927832759
30
0.0000000000
10
-2.2510114223
20
-17.6896817391
30
0.0000000000
10
-2.0509520983
20
-17.6859913191
30
0.0000000000
10
-1.8239380414
20
-17.6831566234
30
0.0000000000
10
-1.5751468308
20
-17.6807898909
30
0.0000000000
10
-1.3096392313
20
-17.6790888985
30
0.0000000000
10
-1.0326784028
20
-17.6780461329
30
0.0000000000
10
-0.8448909211
20
-17.6778145455
30
0.0000000000
10
-0.7500000000
20
-17.6778145455
30
0.0000000000
11
-2.7138452178
21
-17.7082116387
31
0.0000000000
11
-2.6690432353
21
-17.7028927614
31
0.0000000000
11
-2.5692893807
21
-17.6982234538
31
0.0000000000
11
-2.4326741754
21
-17.6938553738
31
0.0000000000
11
-2.2614875487
21
-17.6898631684
31
0.0000000000
11
-2.0598613913
21
-17.6863434761
31
0.0000000000
11
-1.8311515768
21
-17.6833549465
31
0.0000000000
11
-1.5808912608
21
-17.6809697924
31
0.0000000000
11
-1.3133572737
21
-17.6792280984
31
0.0000000000
11
-1.0346725413
21
-17.6781699879
31
0.0000000000
11
-0.7500000000
21
-17.6778145455
31
0.0000000000
0
SPLINE
5
400
100
AcDbEntity
8
0
100
AcDbSpline
62
7
6
CONTINUOUS
70
0
71
3
72
12
73
8
74
6
42
0.0000001000
43
0.0000001000
44
0.0000000001
12
1.5643148679
22
0.0000000000
32
0.0000000000
13
-0.0000000001
23
-1.5643148679
33
0.0000000000
40
0.0000000000
40
0.0000000000
40
0.0000000000
40
0.0000000000
40
0.1999937462
40
0.3999897690
40
0.5999895600
40
0.7999933324
40
1.0000000000
40
1.0000000000
40
1.0000000000
40
1.0000000000
10
9.8009893360
20
-9.0000000000
30
0.0000000000
10
9.9052737329
20
-9.0000000000
30
0.0000000000
10
10.1153137906
20
-9.0331736731
30
0.0000000000
10
10.3984438511
20
-9.1775487067
30
0.0000000000
10
10.6234041769
20
-9.4025152753
30
0.0000000000
10
10.7677776971
20
-9.6856580431
30
0.0000000000
10
10.8009512591
20
-9.8957088654
30
0.0000000000
10
10.8009512591
20
-10.0000000000
30
0.0000000000
11
9.8009893360
21
-9.0000000000
31
0.0000000000
11
10.1099905988
21
-9.0489421953
31
0.0000000000
11
10.3887466060
21
-9.1909789360
31
0.0000000000
11
10.6099712615
21
-9.4122088786
31
0.0000000000
11
10.7520081481
21
-9.6909784171
31
0.0000000000
11
10.8009512591
21
-10.0000000000
31
0.0000000000
0
SPLINE
5
401
100
AcDbEntity
8
0
100
AcDbSpline
62
7
6
CONTINUOUS
70
0
71
3
72
23
73
19
74
17
42
0.0000001000
43
0.0000001000
44
0.0000000001
12
0.3783083816
22
0.0016110181
32
0.0000000000
13
0.0022125252
23
-0.3783054094
33
0.0000000000
40
0.0000000000
40
0.0000000000
40
0.0000000000
40
0.0000000000
40
0.0625414728
40
0.1249796253
40
0.1874571444
40
0.2501210911
40
0.3126146448
40
0.3438114069
40
0.3750497050
40
0.4063456226
40
0.4376734193
40
0.5002089064
40
0.5314426612
40
0.5626887160
40
0.6252033931
40
0.7502238492
40
0.8750480329
40
1.0000000000
40
1.0000000000
40
1.0000000000
40
1.0000000000
10
7.6766131675
20
11.9488745917
30
0.0000000000
10
7.6844998219
20
11.9489081768
30
0.0000000000
10
7.7002532684
20
11.9492101971
30
0.0000000000
10
7.7239232060
20
11.9481653569
30
0.0000000000
10
7.7472237820
20
11.9436307348
30
0.0000000000
10
7.7697992017
20
11.9364470148
30
0.0000000000
10
7.7879965877
20
11.9287259612
30
0.0000000000
10
7.8017600040
20
11.9210288997
30
0.0000000000
10
7.8116146683
20
11.9144837584
30
0.0000000000
10
7.8210097778
20
11.9072691197
30
0.0000000000
10
7.8328853932
20
11.8968626749
30
0.0000000000
10
7.8436657387
20
11.8852500915
30
0.0000000000
10
7.8529446860
20
11.8724875534
30
0.0000000000
10
7.8612276879
20
11.8590623153
30
0.0000000000
10
7.8734771974
20
11.8342744510
30
0.0000000000
10
7.8853429316
20
11.7964621584
30
0.0000000000
10
7.8923480674
20
11.7495957184
30
0.0000000000
10
7.8935612333
20
11.7180758376
30
0.0000000000
10
7.8936533864
20
11.7023191693
30
0.0000000000
11
7.6766131675
21
11.9488745917
31
0.0000000000
11
7.7002731898
21
11.9489603773
31
0.0000000000
11
7.7238542084
21
11.9475850648
31
0.0000000000
11
7.7470789314
21
11.9431950813
31
0.0000000000
11
7.7696964006
21
11.9360923524
31
0.0000000000
11
7.7913799990
21
11.9266706715
31
0.0000000000
11
7.8016769814
21
11.9209033670
31
0.0000000000
11
7.8115299180
21
11.9143779978
31
0.0000000000
11
7.8209250895
21
11.9071733297
31
0.0000000000
11
7.8298332275
21
11.8993562145
31
0.0000000000
11
7.8458646720
21
11.8819582361
31
0.0000000000
11
7.8528195566
21
11.8724057620
31
0.0000000000
11
7.8590485976
21
11.8623594085
31
0.0000000000
11
7.8696023586
21
11.8411947551
31
0.0000000000
11
7.8841431831
21
11.7961887144
31
0.0000000000
11
7.8914827439
21
11.7495401146
31
0.0000000000
11
7.8936533864
21
11.7023191693
31
0.0000000000
0
SPLINE
5
402
100
AcDbEntity
8
0
100
AcDbSpline
62
7
6
CONTINUOUS
70
0
71
3
72
23
73
19
74
17
42
0.0000001000
43
0.0000001000
44
0.0000000001
12
0.0022047907
22
0.3783201973
32
0.0000000000
13
0.3783233420
23
-0.0016110818
33
0.0000000000
40
0.0000000000
40
0.0000000000
40
0.0000000000
40
0.0000000000
40
0.1249865701
40
0.2498058177
40
0.3748213300
40
0.4373335350
40
0.4685783542
40
0.4998108739
40
0.5623438881
40
0.5936704459
40
0.6249651260
40
0.6562021888
40
0.6873977172
40
0.7498887997
40
0.8125502684
40
0.8750253169
40
0.9374610003
40
1.0000000000
40
1.0000000000
40
1.0000000000
40
1.0000000000
10
7.4595728611
20
11.7023042090
30
0.0000000000
10
7.4596647175
20
11.7180658569
30
0.0000000000
10
7.4608775284
20
11.7495907734
30
0.0000000000
10
7.4678834033
20
11.7964621584
30
0.0000000000
10
7.4797491375
20
11.8342744510
30
0.0000000000
10
7.4919986470
20
11.8590623153
30
0.0000000000
10
7.5002816489
20
11.8724875534
30
0.0000000000
10
7.5095605962
20
11.8852500915
30
0.0000000000
10
7.5203409417
20
11.8968626749
30
0.0000000000
10
7.5322165571
20
11.9072691197
30
0.0000000000
10
7.5416116666
20
11.9144837584
30
0.0000000000
10
7.5514663309
20
11.9210288997
30
0.0000000000
10
7.5652297472
20
11.9287259612
30
0.0000000000
10
7.5834271332
20
11.9364470148
30
0.0000000000
10
7.6060025529
20
11.9436307348
30
0.0000000000
10
7.6293031289
20
11.9481653569
30
0.0000000000
10
7.6529730665
20
11.9492101971
30
0.0000000000
10
7.6687265130
20
11.9489081768
30
0.0000000000
10
7.6766131675
20
11.9488745917
30
0.0000000000
11
7.4595728611
21
11.7023042090
31
0.0000000000
11
7.4617435910
21
11.7495401146
31
0.0000000000
11
7.4690831518
21
11.7961887144
31
0.0000000000
11
7.4836239763
21
11.8411947551
31
0.0000000000
11
7.4941777373
21
11.8623594085
31
0.0000000000
11
7.5004067783
21
11.8724057620
31
0.0000000000
11
7.5073616629
21
11.8819582361
31
0.0000000000
11
7.5233931074
21
11.8993562145
31
0.0000000000
11
7.5323012454
21
11.9071733297
31
0.0000000000
11
7.5416964169
21
11.9143779978
31
0.0000000000
11
7.5515493535
21
11.9209033670
31
0.0000000000
11
7.5618463359
21
11.9266706715
31
0.0000000000
11
7.5835299343
21
11.9360923524
31
0.0000000000
11
7.6061474035
21
11.9431950813
31
0.0000000000
11
7.6293721265
21
11.9475850648
31
0.0000000000
11
7.6529531451
21
11.9489603773
31
0.0000000000
11
7.6766131675
21
11.9488745917
31
0.0000000000
0
SPLINE
5
403
100
AcDbEntity
8
0
100
AcDbSpline
62
7
6
CONTINUOUS
70
0
71
3
72
35
73
31
74
29
42
0.0000001000
43
0.0000001000
44
0.0000000001
12
-0.5851685451
22
0.0126684393
32
0.0000000000
13
0.0052204393
23
-0.5852823891
33
0.0000000000
40
0.0000000000
40
0.0000000000
40
0.0000000000
40
0.0000000000
40
0.0312916483
40
0.0625666812
40
0.0937877756
40
0.1249967629
40
0.1562424505
40
0.1875067579
40
0.2499544669
40
0.2811910371
40
0.3124357940
40
0.3436632427
40
0.3748780306
40
0.4061248928
40
0.4374203086
40
0.4686799656
40
0.4842824231
40
0.4998750725
40
0.5311089556
40
0.5624052546
40
0.5936845203
40
0.6249073395
40
0.6560983445
40
0.6873246506
40
0.7185909731
40
0.7498484830
40
0.8122888268
40
0.8747501590
40
0.9373095672
40
1.0000000000
40
1.0000000000
40
1.0000000000
40
1.0000000000
10
7.6766131675
20
12.1226543823
30
0.0000000000
10
7.6705095380
20
12.1227865211
30
0.0000000000
10
7.6583044006
20
12.1230203764
30
0.0000000000
10
7.6400034985
20
12.1229090299
30
0.0000000000
10
7.6217345366
20
12.1219795053
30
0.0000000000
10
7.6035727698
20
12.1198103565
30
0.0000000000
10
7.5855812529
20
12.1164898491
30
0.0000000000
10
7.5618607992
20
12.1108363693
30
0.0000000000
10
7.5385304276
20
12.1036112245
30
0.0000000000
10
7.5158848482
20
12.0945685476
30
0.0000000000
10
7.4992977373
20
12.0868552782
30
0.0000000000
10
7.4831868373
20
12.0781991444
30
0.0000000000
10
7.4676160111
20
12.0686052247
30
0.0000000000
10
7.4525808036
20
12.0581736877
30
0.0000000000
10
7.4380435420
20
12.0470447143
30
0.0000000000
10
7.4265116359
20
12.0370451909
30
0.0000000000
10
7.4178167466
20
12.0285028525
30
0.0000000000
10
7.4095533204
20
12.0195478669
30
0.0000000000
10
7.3999178617
20
12.0077285769
30
0.0000000000
10
7.3885837167
20
11.9933585775
30
0.0000000000
10
7.3777328690
20
11.9786156546
30
0.0000000000
10
7.3675904105
20
11.9633971312
30
0.0000000000
10
7.3584323271
20
11.9475715166
30
0.0000000000
10
7.3504177964
20
11.9311296134
30
0.0000000000
10
7.3433697585
20
11.9142422666
30
0.0000000000
10
7.3350628963
20
11.8913128791
30
0.0000000000
10
7.3266068679
20
11.8619983392
30
0.0000000000
10
7.3195402439
20
11.8260693309
30
0.0000000000
10
7.3154817766
20
11.7896324771
30
0.0000000000
10
7.3147418223
20
11.7651769033
30
0.0000000000
10
7.3148509129
20
11.7529463679
30
0.0000000000
11
7.6766131675
21
12.1226543823
31
0.0000000000
11
7.6583002686
21
12.1229433637
31
0.0000000000
11
7.6399956141
21
12.1227722940
31
0.0000000000
11
7.6217490895
21
12.1217727201
31
0.0000000000
11
7.6036096099
21
12.1196197808
31
0.0000000000
11
7.5856183311
21
12.1163372525
31
0.0000000000
11
7.5678126964
21
12.1121159709
31
0.0000000000
11
7.5329296462
21
12.1012004667
31
0.0000000000
11
7.5159528656
21
12.0944140934
31
0.0000000000
11
7.4993734611
21
12.0866962876
31
0.0000000000
11
7.4832747445
21
12.0780416890
31
0.0000000000
11
7.4677123378
21
12.0684703037
31
0.0000000000
11
7.4526726596
21
12.0580638475
31
0.0000000000
11
7.4381543495
21
12.0468949071
31
0.0000000000
11
7.4243751181
21
12.0348577557
31
0.0000000000
11
7.4178688659
21
12.0284494890
31
0.0000000000
11
7.4116705499
21
12.0217507384
31
0.0000000000
11
7.3999648185
21
12.0077085060
31
0.0000000000
11
7.3886620849
21
11.9932934547
31
0.0000000000
11
7.3778426580
21
11.9785245566
31
0.0000000000
11
7.3677502061
21
11.9632892647
31
0.0000000000
11
7.3586267468
21
11.9474761704
31
0.0000000000
11
7.3505830234
21
11.9310644424
31
0.0000000000
11
7.3435052020
21
11.9141882029
31
0.0000000000
11
7.3372642495
21
11.8969903902
31
0.0000000000
11
7.3271216014
21
11.8618793237
31
0.0000000000
11
7.3200456013
21
11.8260116697
31
0.0000000000
11
7.3159755928
21
11.7896221932
31
0.0000000000
11
7.3148509129
21
11.7529463679
31
0.0000000000
0
SPLINE
5
404
100
AcDbEntity
8
0
100
AcDbSpline
62
7
6
CONTINUOUS
70
0
71
3
72
37
73
33
74
31
42
0.0000001000
43
0.0000001000
44
0.0000000001
12
0.0097798852
22
0.5888383512
32
0.0000000000
13
-0.5887815492
23
-0.0127466579
33
0.0000000000
40
0.0000000000
40
0.0000000000
40
0.0000000000
40
0.0000000000
40
0.0626960792
40
0.1252637880
40
0.1877282225
40
0.2501636122
40
0.2814153474
40
0.3126826467
40
0.3439141610
40
0.3751050839
40
0.4063200372
40
0.4375925423
40
0.4688890722
40
0.4845225821
40
0.5001327917
40
0.5157255334
40
0.5313243200
40
0.5625754920
40
0.5938708532
40
0.6251203320
40
0.6563346565
40
0.6875591478
40
0.7188021647
40
0.7500384391
40
0.7812618902
40
0.8125009427
40
0.8437636591
40
0.8750090179
40
0.9062172367
40
0.9374363186
40
0.9687096096
40
1.0000000000
40
1.0000000000
40
1.0000000000
40
1.0000000000
10
8.0383294254
20
11.7493432054
30
0.0000000000
10
8.0385338123
20
11.7616491573
30
0.0000000000
10
8.0379747126
20
11.7862635776
30
0.0000000000
10
8.0341581540
20
11.8229578210
30
0.0000000000
10
8.0273008774
20
11.8591589565
30
0.0000000000
10
8.0189939623
20
11.8887107598
30
0.0000000000
10
8.0107832515
20
11.9118324872
30
0.0000000000
10
8.0038149975
20
11.9288747749
30
0.0000000000
10
7.9958892747
20
11.9454855625
30
0.0000000000
10
7.9868217956
20
11.9614929834
30
0.0000000000
10
7.9767173164
20
11.9768699867
30
0.0000000000
10
7.9658698126
20
11.9917516330
30
0.0000000000
10
7.9563956977
20
12.0038334214
30
0.0000000000
10
7.9486909433
20
12.0133919197
30
0.0000000000
10
7.9427845441
20
12.0204397016
30
0.0000000000
10
7.9366149407
20
12.0272520870
30
0.0000000000
10
7.9279407952
20
12.0359194128
30
0.0000000000
10
7.9164047149
20
12.0460554378
30
0.0000000000
10
7.9018237685
20
12.0573118534
30
0.0000000000
10
7.8867361695
20
12.0678664001
30
0.0000000000
10
7.8711082493
20
12.0775822868
30
0.0000000000
10
7.8549322359
20
12.0863538805
30
0.0000000000
10
7.8382692325
20
12.0941689729
30
0.0000000000
10
7.8211970393
20
12.1010416229
30
0.0000000000
10
7.8037840287
20
12.1069929674
30
0.0000000000
10
7.7860950531
20
12.1120778144
30
0.0000000000
10
7.7681938078
20
12.1163744666
30
0.0000000000
10
7.7500976728
20
12.1197437470
30
0.0000000000
10
7.7318274219
20
12.1219543967
30
0.0000000000
10
7.7134471164
20
12.1229050795
30
0.0000000000
10
7.6950341531
20
12.1230224093
30
0.0000000000
10
7.6827542356
20
12.1227873316
30
0.0000000000
10
7.6766131675
20
12.1226543823
30
0.0000000000
11
8.0383294254
21
11.7493432054
31
0.0000000000
11
8.0374762351
21
11.7862562935
31
0.0000000000
11
8.0336473269
21
11.8229041619
31
0.0000000000
11
8.0267806368
21
11.8590441249
31
0.0000000000
11
8.0168144615
21
11.8944371403
31
0.0000000000
11
8.0106496446
21
11.9117787116
31
0.0000000000
11
8.0036517223
21
11.9288110817
31
0.0000000000
11
7.9956945692
21
11.9453936200
31
0.0000000000
11
7.9866522112
21
11.9613827985
31
0.0000000000
11
7.9766018783
21
11.9767752964
31
0.0000000000
11
7.9657868807
21
11.9916823849
31
0.0000000000
11
7.9544553974
21
12.0062186947
31
0.0000000000
11
7.9486653080
21
12.0133770105
31
0.0000000000
11
7.9427376916
21
12.0204039230
31
0.0000000000
11
7.9365604763
21
12.0271985613
31
0.0000000000
11
7.9300698904
21
12.0336995447
31
0.0000000000
11
7.9162889706
21
12.0458982786
31
0.0000000000
11
7.9017310608
21
12.0572008759
31
0.0000000000
11
7.8866384475
21
12.0677317436
31
0.0000000000
11
7.8710184696
21
12.0774240528
31
0.0000000000
11
7.8548549513
21
12.0861924855
31
0.0000000000
11
7.8381997779
21
12.0940124149
31
0.0000000000
11
7.8211377619
21
12.1008890130
31
0.0000000000
11
7.8037417906
21
12.1068474011
31
0.0000000000
11
7.7860648543
21
12.1119450585
31
0.0000000000
11
7.7681569954
21
12.1162207745
31
0.0000000000
11
7.7500600389
21
12.1195519933
31
0.0000000000
11
7.7318121234
21
12.1217442428
31
0.0000000000
11
7.7134549996
21
12.1227658049
31
0.0000000000
11
7.6950384113
21
12.1229440933
31
0.0000000000
11
7.6766131675
21
12.1226543823
31
0.0000000000
0
SPLINE
5
405
100
AcDbEntity
8
0
100
AcDbSpline
62
7
6
CONTINUOUS
70
0
71
3
72
33
73
29
74
27
42
0.0000001000
43
0.0000001000
44
0.0000000001
12
0.0026503241
22
0.9222667950
32
0.0000000000
13
-0.9222672083
23
0.0024892362
33
0.0000000000
40
0.0000000000
40
0.0000000000
40
0.0000000000
40
0.0000000000
40
0.0624806434
40
0.1249612947
40
0.1562125045
40
0.1874747414
40
0.2499497048
40
0.3124784719
40
0.3437915399
40
0.3750823559
40
0.4063326668
40
0.4375678199
40
0.5000485598
40
0.5625189488
40
0.5937750855
40
0.6250376604
40
0.6563057632
40
0.6875789077
40
0.7188559957
40
0.7501252180
40
0.7813690900
40
0.7969835172
40
0.8125967692
40
0.8438348425
40
0.8750756427
40
0.9063096534
40
0.9375373026
40
1.0000000000
40
1.0000000000
40
1.0000000000
40
1.0000000000
10
8.5664902189
20
15.2723268604
30
0.0000000000
10
8.5665454169
20
15.2915348013
30
0.0000000000
10
8.5648074760
20
15.3299818173
30
0.0000000000
10
8.5578346975
20
15.3775862788
30
0.0000000000
10
8.5492640356
20
15.4150622976
30
0.0000000000
10
8.5386912607
20
15.4520174142
30
0.0000000000
10
8.5213836927
20
15.4969939968
30
0.0000000000
10
8.4978791074
20
15.5390860138
30
0.0000000000
10
8.4761768643
20
15.5708651480
30
0.0000000000
10
8.4586042697
20
15.5937690566
30
0.0000000000
10
8.4398077553
20
15.6156491519
30
0.0000000000
10
8.4130587909
20
15.6432534593
30
0.0000000000
10
8.3764729583
20
15.6745501074
30
0.0000000000
10
8.3364920311
20
15.7013291451
30
0.0000000000
10
8.3030480955
20
15.7202698312
30
0.0000000000
10
8.2773283355
20
15.7333238906
30
0.0000000000
10
8.2510329838
20
15.7451868558
30
0.0000000000
10
8.2242195014
20
15.7558390541
30
0.0000000000
10
8.1969505533
20
15.7652655855
30
0.0000000000
10
8.1692794085
20
15.7734085224
30
0.0000000000
10
8.1459044339
20
15.7789869747
30
0.0000000000
10
8.1270478865
20
15.7826428269
30
0.0000000000
10
8.1080939886
20
15.7857432691
30
0.0000000000
10
8.0842868036
20
15.7888649867
30
0.0000000000
10
8.0556661203
20
15.7921629352
30
0.0000000000
10
8.0269858234
20
15.7948851847
30
0.0000000000
10
7.9886794450
20
15.7976524430
30
0.0000000000
10
7.9598729992
20
15.7986278979
30
0.0000000000
10
7.9406705667
20
15.7986797260
30
0.0000000000
11
8.5664902189
21
15.2723268604
31
0.0000000000
11
8.5638475029
21
15.3298902897
31
0.0000000000
11
8.5554439809
21
15.3868983046
31
0.0000000000
11
8.5490144901
21
15.4149940948
31
0.0000000000
11
8.5410587221
21
15.4427069776
31
0.0000000000
11
8.5201529318
21
15.4963994012
31
0.0000000000
11
8.4922242120
21
15.5468536948
31
0.0000000000
11
8.4759568834
21
15.5707153304
31
0.0000000000
11
8.4583899223
21
15.5936111945
31
0.0000000000
11
8.4395920130
21
15.6154584505
31
0.0000000000
11
8.4195366519
21
15.6361379296
31
0.0000000000
11
8.3757924652
21
15.6736477749
31
0.0000000000
11
8.3280186921
21
15.7058519496
31
0.0000000000
11
8.3029457210
21
15.7200758679
31
0.0000000000
11
8.2772347216
21
15.7331242626
31
0.0000000000
11
8.2509487397
21
15.7449841643
31
0.0000000000
11
8.2241447757
21
15.7556343202
31
0.0000000000
11
8.1968797777
21
15.7650528132
31
0.0000000000
11
8.1692069006
21
15.7731695571
31
0.0000000000
11
8.1411730092
21
15.7798345893
31
0.0000000000
11
8.1270351453
21
15.7825735182
31
0.0000000000
11
8.1128275578
21
15.7849174830
31
0.0000000000
11
8.0842790769
21
15.7887901789
31
0.0000000000
11
8.0556535772
21
15.7920672546
31
0.0000000000
11
8.0269751579
21
15.7947775920
31
0.0000000000
11
7.9982486373
21
15.7968383462
31
0.0000000000
11
7.9406705667
21
15.7986797260
31
0.0000000000
0
SPLINE
5
406
100
AcDbEntity
8
0
100
AcDbSpline
62
7
6
CONTINUOUS
70
0
71
3
72
33
73
29
74
27
42
0.0000001000
43
0.0000001000
44
0.0000000001
12
-0.9222682357
22
-0.0024892390
32
0.0000000000
13
0.0026519093
23
-0.9222677957
33
0.0000000000
40
0.0000000000
40
0.0000000000
40
0.0000000000
40
0.0000000000
40
0.0624626278
40
0.0936902423
40
0.1249242182
40
0.1561649836
40
0.1874030220
40
0.2030162567
40
0.2186306664
40
0.2498745037
40
0.2811436911
40
0.3124207443
40
0.3436938539
40
0.3749619220
40
0.4062244620
40
0.4374805639
40
0.4999508833
40
0.5624315536
40
0.5936666719
40
0.6249169480
40
0.6562077291
40
0.6875207623
40
0.7500494597
40
0.8125243535
40
0.8437865556
40
0.8750377306
40
0.9375183123
40
1.0000000000
40
1.0000000000
40
1.0000000000
40
1.0000000000
10
7.9406705667
20
15.7986797260
30
0.0000000000
10
7.9214681342
20
15.7986278979
30
0.0000000000
10
7.8926616883
20
15.7976524430
30
0.0000000000
10
7.8543553100
20
15.7948851847
30
0.0000000000
10
7.8256750130
20
15.7921629352
30
0.0000000000
10
7.7970543297
20
15.7888649867
30
0.0000000000
10
7.7732471448
20
15.7857432691
30
0.0000000000
10
7.7542932468
20
15.7826428269
30
0.0000000000
10
7.7354366995
20
15.7789869747
30
0.0000000000
10
7.7120617248
20
15.7734085224
30
0.0000000000
10
7.6843905800
20
15.7652655855
30
0.0000000000
10
7.6571216319
20
15.7558390541
30
0.0000000000
10
7.6303081496
20
15.7451868558
30
0.0000000000
10
7.6040127978
20
15.7333238906
30
0.0000000000
10
7.5782930378
20
15.7202698312
30
0.0000000000
10
7.5448491022
20
15.7013291451
30
0.0000000000
10
7.5048681750
20
15.6745501074
30
0.0000000000
10
7.4682823424
20
15.6432534593
30
0.0000000000
10
7.4415333780
20
15.6156491519
30
0.0000000000
10
7.4227368637
20
15.5937690566
30
0.0000000000
10
7.4051642691
20
15.5708651480
30
0.0000000000
10
7.3834620260
20
15.5390860138
30
0.0000000000
10
7.3599574406
20
15.4969939968
30
0.0000000000
10
7.3426498726
20
15.4520174142
30
0.0000000000
10
7.3320770977
20
15.4150622976
30
0.0000000000
10
7.3235064359
20
15.3775862788
30
0.0000000000
10
7.3165336076
20
15.3299814778
30
0.0000000000
10
7.3147956855
20
15.2915341158
30
0.0000000000
10
7.3148509174
20
15.2723258330
30
0.0000000000
11
7.9406705667
21
15.7986797260
31
0.0000000000
11
7.8830924960
21
15.7968383462
31
0.0000000000
11
7.8543659755
21
15.7947775920
31
0.0000000000
11
7.8256875561
21
15.7920672546
31
0.0000000000
11
7.7970620565
21
15.7887901789
31
0.0000000000
11
7.7685135755
21
15.7849174830
31
0.0000000000
11
7.7543059880
21
15.7825735182
31
0.0000000000
11
7.7401681241
21
15.7798345893
31
0.0000000000
11
7.7121342327
21
15.7731695571
31
0.0000000000
11
7.6844613556
21
15.7650528132
31
0.0000000000
11
7.6571963576
21
15.7556343202
31
0.0000000000
11
7.6303923936
21
15.7449841643
31
0.0000000000
11
7.6041064117
21
15.7331242626
31
0.0000000000
11
7.5783954124
21
15.7200758679
31
0.0000000000
11
7.5533224413
21
15.7058519496
31
0.0000000000
11
7.5055486682
21
15.6736477749
31
0.0000000000
11
7.4618044814
21
15.6361379296
31
0.0000000000
11
7.4417491203
21
15.6154584505
31
0.0000000000
11
7.4229512110
21
15.5936111945
31
0.0000000000
11
7.4053842500
21
15.5707153304
31
0.0000000000
11
7.3891169214
21
15.5468536948
31
0.0000000000
11
7.3611882015
21
15.4963994012
31
0.0000000000
11
7.3402824112
21
15.4427069776
31
0.0000000000
11
7.3323266432
21
15.4149940948
31
0.0000000000
11
7.3258971524
21
15.3868983046
31
0.0000000000
11
7.3174936304
21
15.3298902897
31
0.0000000000
11
7.3148509174
21
15.2723258330
31
0.0000000000
0
SPLINE
5
407
100
AcDbEntity
8
0
100
AcDbSpline
62
7
6
CONTINUOUS
70
0
71
3
72
32
73
28
74
26
42
0.0000001000
43
0.0000001000
44
0.0000000001
12
0.6918905885
22
0.0173760383
32
0.0000000000
13
-0.0134938253
23
-0.6919772343
33
0.0000000000
40
0.0000000000
40
0.0000000000
40
0.0000000000
40
0.0000000000
40
0.0624540528
40
0.0936678652
40
0.1248636045
40
0.1560617877
40
0.1872841395
40
0.2497023632
40
0.2808856424
40
0.3120873981
40
0.3433123514
40
0.3589253450
40
0.3745317664
40
0.3901307053
40
0.4057299944
40
0.4369575930
40
0.4682431504
40
0.4995894852
40
0.5623922945
40
0.6251672651
40
0.6876496161
40
0.7188458218
40
0.7500788524
40
0.8126614014
40
0.8751713868
40
0.9375573621
40
1.0000000000
40
1.0000000000
40
1.0000000000
40
1.0000000000
10
7.9406705667
20
15.6242832751
30
0.0000000000
10
7.9550743571
20
15.6246450098
30
0.0000000000
10
7.9767011583
20
15.6246199941
30
0.0000000000
10
8.0054740711
20
15.6231323082
30
0.0000000000
10
8.0269889834
20
15.6211946598
30
0.0000000000
10
8.0484091337
20
15.6184064460
30
0.0000000000
10
8.0769144233
20
15.6143114435
30
0.0000000000
10
8.1053550342
20
15.6096659131
30
0.0000000000
10
8.1334213241
20
15.6031899139
30
0.0000000000
10
8.1542306805
20
15.5973943170
30
0.0000000000
10
8.1714204630
20
15.5920356971
30
0.0000000000
10
8.1851123050
20
15.5875556684
30
0.0000000000
10
8.1953487221
20
15.5841080460
30
0.0000000000
10
8.2055138848
20
15.5804622460
30
0.0000000000
10
8.2189194877
20
15.5751926544
30
0.0000000000
10
8.2353380398
20
15.5677280413
30
0.0000000000
10
8.2544329368
20
15.5574848135
30
0.0000000000
10
8.2790210241
20
15.5421947098
30
0.0000000000
10
8.3079440087
20
15.5202625290
30
0.0000000000
10
8.3392127666
20
15.4900312315
30
0.0000000000
10
8.3615450146
20
15.4614798525
30
0.0000000000
10
8.3764317991
20
15.4367727702
30
0.0000000000
10
8.3893906707
20
15.4109805770
30
0.0000000000
10
8.4023841473
20
15.3772484314
30
0.0000000000
10
8.4138943415
20
15.3354842223
30
0.0000000000
10
8.4208022962
20
15.2927300327
30
0.0000000000
10
8.4220491049
20
15.2638749678
30
0.0000000000
10
8.4217682415
20
15.2494720065
30
0.0000000000
11
7.9406705667
21
15.6242832751
31
0.0000000000
11
7.9838952788
21
15.6241266300
31
0.0000000000
11
8.0054689694
21
15.6229949438
31
0.0000000000
11
8.0269723065
21
15.6210530285
31
0.0000000000
11
8.0483962576
21
15.6183600920
31
0.0000000000
11
8.0697861456
21
15.6152887857
31
0.0000000000
11
8.1123485139
21
15.6078927094
31
0.0000000000
11
8.1333768639
21
15.6030346517
31
0.0000000000
11
8.1541938851
21
15.5972904374
31
0.0000000000
11
8.1748383829
21
15.5908996031
31
0.0000000000
11
8.1851088775
21
15.5875404087
31
0.0000000000
11
8.1953389755
21
15.5840742789
31
0.0000000000
11
8.2054947919
21
15.5804114239
31
0.0000000000
11
8.2155397330
21
15.5764539620
31
0.0000000000
11
8.2352205628
21
15.5675218779
31
0.0000000000
11
8.2543046421
21
15.5572919869
31
0.0000000000
11
8.2727326080
21
15.5458426971
31
0.0000000000
11
8.3073824725
21
15.5195993645
31
0.0000000000
11
8.3385211619
21
15.4893003044
31
0.0000000000
11
8.3650288742
21
15.4551325561
31
0.0000000000
11
8.3761855116
21
15.4366472127
31
0.0000000000
11
8.3859273327
21
15.4173501499
31
0.0000000000
11
8.4017100342
21
15.3770140270
31
0.0000000000
11
8.4131348038
21
15.3352860624
31
0.0000000000
11
8.4199619328
21
15.2926513402
31
0.0000000000
11
8.4217682415
21
15.2494720065
31
0.0000000000
0
SPLINE
5
408
100
AcDbEntity
8
0
100
AcDbSpline
62
7
6
CONTINUOUS
70
0
71
3
72
32
73
28
74
26
42
0.0000001000
43
0.0000001000
44
0.0000000001
12
-0.0135102373
22
0.6919847553
32
0.0000000000
13
0.6918986679
23
-0.0173762412
33
0.0000000000
40
0.0000000000
40
0.0000000000
40
0.0000000000
40
0.0000000000
40
0.0624535859
40
0.1248388327
40
0.1873480882
40
0.2499299064
40
0.2811625723
40
0.3123584136
40
0.3748400351
40
0.4376142726
40
0.5004163486
40
0.5317623173
40
0.5630475095
40
0.5942747434
40
0.6098738503
40
0.6254726070
40
0.6410788462
40
0.6566916575
40
0.6879162462
40
0.7191176376
40
0.7503005527
40
0.8127180475
40
0.8439400346
40
0.8751378536
40
0.9063332286
40
0.9375466765
40
1.0000000000
40
1.0000000000
40
1.0000000000
40
1.0000000000
10
7.4595730495
20
15.2494639261
30
0.0000000000
10
7.4592917952
20
15.2638695692
30
0.0000000000
10
7.4605384065
20
15.2927273677
30
0.0000000000
10
7.4674467918
20
15.3354842223
30
0.0000000000
10
7.4789569860
20
15.3772484314
30
0.0000000000
10
7.4919504626
20
15.4109805770
30
0.0000000000
10
7.5049093342
20
15.4367727702
30
0.0000000000
10
7.5197961187
20
15.4614798525
30
0.0000000000
10
7.5421283668
20
15.4900312315
30
0.0000000000
10
7.5733971246
20
15.5202625290
30
0.0000000000
10
7.6023201092
20
15.5421947098
30
0.0000000000
10
7.6269081965
20
15.5574848135
30
0.0000000000
10
7.6460030935
20
15.5677280413
30
0.0000000000
10
7.6624216456
20
15.5751926544
30
0.0000000000
10
7.6758272485
20
15.5804622460
30
0.0000000000
10
7.6859924112
20
15.5841080460
30
0.0000000000
10
7.6962288283
20
15.5875556684
30
0.0000000000
10
7.7099206703
20
15.5920356971
30
0.0000000000
10
7.7271104529
20
15.5973943170
30
0.0000000000
10
7.7479198093
20
15.6031899139
30
0.0000000000
10
7.7759860991
20
15.6096659131
30
0.0000000000
10
7.8044267100
20
15.6143114435
30
0.0000000000
10
7.8329319996
20
15.6184064460
30
0.0000000000
10
7.8543521500
20
15.6211946598
30
0.0000000000
10
7.8758670622
20
15.6231323082
30
0.0000000000
10
7.9046399750
20
15.6246199941
30
0.0000000000
10
7.9262667762
20
15.6246450098
30
0.0000000000
10
7.9406705667
20
15.6242832751
30
0.0000000000
11
7.4595730495
21
15.2494639261
31
0.0000000000
11
7.4613792006
21
15.2926513402
31
0.0000000000
11
7.4682063295
21
15.3352860624
31
0.0000000000
11
7.4796310992
21
15.3770140270
31
0.0000000000
11
7.4954138006
21
15.4173501499
31
0.0000000000
11
7.5051556217
21
15.4366472127
31
0.0000000000
11
7.5163122592
21
15.4551325561
31
0.0000000000
11
7.5428199714
21
15.4893003044
31
0.0000000000
11
7.5739586608
21
15.5195993645
31
0.0000000000
11
7.6086085253
21
15.5458426971
31
0.0000000000
11
7.6270364913
21
15.5572919869
31
0.0000000000
11
7.6461205705
21
15.5675218779
31
0.0000000000
11
7.6658014003
21
15.5764539620
31
0.0000000000
11
7.6758463415
21
15.5804114239
31
0.0000000000
11
7.6860021579
21
15.5840742789
31
0.0000000000
11
7.6962322559
21
15.5875404087
31
0.0000000000
11
7.7065027504
21
15.5908996031
31
0.0000000000
11
7.7271472482
21
15.5972904374
31
0.0000000000
11
7.7479642694
21
15.6030346517
31
0.0000000000
11
7.7689926194
21
15.6078927094
31
0.0000000000
11
7.8115549877
21
15.6152887857
31
0.0000000000
11
7.8329448758
21
15.6183600920
31
0.0000000000
11
7.8543688268
21
15.6210530285
31
0.0000000000
11
7.8758721639
21
15.6229949438
31
0.0000000000
11
7.8974458545
21
15.6241266300
31
0.0000000000
11
7.9406705667
21
15.6242832751
31
0.0000000000
0
SPLINE
5
409
100
AcDbEntity
8
0
100
AcDbSpline
62
7
6
CONTINUOUS
70
0
71
3
72
41
73
37
74
35
42
0.0000001000
43
0.0000001000
44
0.0000000001
12
-0.2398151715
22
-0.5833046018
32
0.0000000000
13
-0.2836888107
23
-0.5632727873
33
0.0000000000
40
0.0000000000
40
0.0000000000
40
0.0000000000
40
0.0000000000
40
0.0302090296
40
0.0623657491
40
0.0784562215
40
0.0942671626
40
0.1252336160
40
0.1563540684
40
0.1879056711
40
0.2192150040
40
0.2503433590
40
0.2659064644
40
0.2814934083
40
0.3127225927
40
0.3439709388
40
0.3595863180
40
0.3751971170
40
0.4064187995
40
0.4376361617
40
0.4688346771
40
0.5000251384
40
0.5624386562
40
0.5936815844
40
0.6249554539
40
0.6562547925
40
0.6875098538
40
0.7186780762
40
0.7498510814
40
0.7811434208
40
0.8124747258
40
0.8436616960
40
0.8748781137
40
0.9061228918
40
0.9373251371
40
0.9685793330
40
1.0000000000
40
1.0000000000
40
1.0000000000
40
1.0000000000
10
6.6579133541
20
13.4105520244
30
0.0000000000
10
6.6554984929
20
13.4046783358
30
0.0000000000
10
6.6486325161
20
13.3933258431
30
0.0000000000
10
6.6375804802
20
13.3810098616
30
0.0000000000
10
6.6275681673
20
13.3719852366
30
0.0000000000
10
6.6170905879
20
13.3639178925
30
0.0000000000
10
6.6026278609
20
13.3558711994
30
0.0000000000
10
6.5833973409
20
13.3509862241
30
0.0000000000
10
6.5637206492
20
13.3489821906
30
0.0000000000
10
6.5439703316
20
13.3482527234
30
0.0000000000
10
6.5275753499
20
13.3479334444
30
0.0000000000
10
6.5144964630
20
13.3473081962
30
0.0000000000
10
6.5014127598
20
13.3464117740
30
0.0000000000
10
6.4850613584
20
13.3450127911
30
0.0000000000
10
6.4686947127
20
13.3437068001
30
0.0000000000
10
6.4555776418
20
13.3430228635
30
0.0000000000
10
6.4424547504
20
13.3426232845
30
0.0000000000
10
6.4260462309
20
13.3424808959
30
0.0000000000
10
6.4063611979
20
13.3424590643
30
0.0000000000
10
6.3866846905
20
13.3420883452
30
0.0000000000
10
6.3604661673
20
13.3410758498
30
0.0000000000
10
6.3342671384
20
13.3394508919
30
0.0000000000
10
6.3080795478
20
13.3374533205
30
0.0000000000
10
6.2884250984
20
13.3358146005
30
0.0000000000
10
6.2687693410
20
13.3341581550
30
0.0000000000
10
6.2491753997
20
13.3320582254
30
0.0000000000
10
6.2297311579
20
13.3289293548
30
0.0000000000
10
6.2106079135
20
13.3241803099
30
0.0000000000
10
6.1917801873
20
13.3183035015
30
0.0000000000
10
6.1731947430
20
13.3116788643
30
0.0000000000
10
6.1553144905
20
13.3032475722
30
0.0000000000
10
6.1389767078
20
13.2921384390
30
0.0000000000
10
6.1240871005
20
13.2791995320
30
0.0000000000
10
6.1106652419
20
13.2647260205
30
0.0000000000
10
6.0989195772
20
13.2488173999
30
0.0000000000
10
6.0923168456
20
13.2373767570
30
0.0000000000
10
6.0893456151
20
13.2314772881
30
0.0000000000
11
6.6579133541
21
13.4105520244
31
0.0000000000
11
6.6483965919
21
13.3940469616
31
0.0000000000
11
6.6349865103
21
13.3788328005
31
0.0000000000
11
6.6274403982
21
13.3720477860
31
0.0000000000
11
6.6195148587
21
13.3659964148
31
0.0000000000
11
6.6023520809
21
13.3566767944
31
0.0000000000
11
6.5834241015
21
13.3514853655
31
0.0000000000
11
6.5636577989
21
13.3491918093
31
0.0000000000
11
6.5439314192
21
13.3483089049
31
0.0000000000
11
6.5243074921
21
13.3477463299
31
0.0000000000
11
6.5145035083
21
13.3472747597
31
0.0000000000
11
6.5046951097
21
13.3466181366
31
0.0000000000
11
6.4850635154
21
13.3450318243
31
0.0000000000
11
6.4654104601
21
13.3435657131
31
0.0000000000
11
6.4555752523
21
13.3430583345
31
0.0000000000
11
6.4457347791
21
13.3427469750
31
0.0000000000
11
6.4260454080
21
13.3425057294
31
0.0000000000
11
6.4063575631
21
13.3424008648
31
0.0000000000
11
6.3866849436
21
13.3420235309
31
0.0000000000
11
6.3670279104
21
13.3412781996
31
0.0000000000
11
6.3277356493
21
13.3389214954
31
0.0000000000
11
6.3080878747
21
13.3374307401
31
0.0000000000
11
6.2884306398
21
13.3358121278
31
0.0000000000
11
6.2687666966
21
13.3340829569
31
0.0000000000
11
6.2491778586
21
13.3318837678
31
0.0000000000
11
6.2297868622
21
13.3286600855
31
0.0000000000
11
6.2106868233
21
13.3240006881
31
0.0000000000
11
6.1918288598
21
13.3181814399
31
0.0000000000
11
6.1732817573
21
13.3113651347
31
0.0000000000
11
6.1555740782
21
13.3028032450
31
0.0000000000
11
6.1392233158
21
13.2918373274
31
0.0000000000
11
6.1243262190
21
13.2789384950
31
0.0000000000
11
6.1109551962
21
13.2645002587
31
0.0000000000
11
6.0992485093
21
13.2486417917
31
0.0000000000
11
6.0893456151
21
13.2314772881
31
0.0000000000
0
SPLINE
5
40A
100
AcDbEntity
8
0
100
AcDbSpline
62
7
6
CONTINUOUS
70
0
71
3
72
25
73
21
74
19
42
0.0000001000
43
0.0000001000
44
0.0000000001
12
-0.1912241564
22
0.2773767122
32
0.0000000000
13
-0.3364979014
23
-0.0165433015
33
0.0000000000
40
0.0000000000
40
0.0000000000
40
0.0000000000
40
0.0000000000
40
0.0624158583
40
0.0936888255
40
0.1249606640
40
0.1874156900
40
0.2498268942
40
0.3123469685
40
0.3749370359
40
0.4374834221
40
0.4999310596
40
0.5623423523
40
0.6248546865
40
0.6561325817
40
0.6873918122
40
0.7186111507
40
0.7497962285
40
0.8121886074
40
0.8747482218
40
1.0000000000
40
1.0000000000
40
1.0000000000
40
1.0000000000
10
6.0893456151
20
13.2314772881
30
0.0000000000
10
6.0853671418
20
13.2372481900
30
0.0000000000
10
6.0788553163
20
13.2455329002
30
0.0000000000
10
6.0698590407
20
13.2563004688
30
0.0000000000
10
6.0606858260
20
13.2669271914
30
0.0000000000
10
6.0487237481
20
13.2797672493
30
0.0000000000
10
6.0331055409
20
13.2939152351
30
0.0000000000
10
6.0162688829
20
13.3066057678
30
0.0000000000
10
5.9984979779
20
13.3179683771
30
0.0000000000
10
5.9799405129
20
13.3279805575
30
0.0000000000
10
5.9606581126
20
13.3364770225
30
0.0000000000
10
5.9407416103
20
13.3433254017
30
0.0000000000
10
5.9238477488
20
13.3480676351
30
0.0000000000
10
5.9102398605
20
13.3515372785
30
0.0000000000
10
5.9000121288
20
13.3540393370
30
0.0000000000
10
5.8897402259
20
13.3563111810
30
0.0000000000
10
5.8759503188
20
13.3588335871
30
0.0000000000
10
5.8585117241
20
13.3608502852
30
0.0000000000
10
5.8304297974
20
13.3621745405
30
0.0000000000
10
5.8093219034
20
13.3615397660
30
0.0000000000
10
5.7952729165
20
13.3608490734
30
0.0000000000
11
6.0893456151
21
13.2314772881
31
0.0000000000
11
6.0765872784
21
13.2481928158
31
0.0000000000
11
6.0698371781
21
13.2562825248
31
0.0000000000
11
6.0629405664
21
13.2642471956
31
0.0000000000
11
6.0485099852
21
13.2795605064
31
0.0000000000
11
6.0329138995
21
13.2936629952
31
0.0000000000
11
6.0161216471
21
13.3063784246
31
0.0000000000
11
5.9983614273
21
13.3177463806
31
0.0000000000
11
5.9798067213
21
13.3277342874
31
0.0000000000
11
5.9605480906
21
13.3362042083
31
0.0000000000
11
5.9406943567
21
13.3431286997
31
0.0000000000
11
5.9204418710
21
13.3489070097
31
0.0000000000
11
5.9102336332
21
13.3515212238
31
0.0000000000
11
5.8999987108
21
13.3540023749
31
0.0000000000
11
5.8897234913
21
13.3562488638
31
0.0000000000
11
5.8793863358
21
13.3581269987
31
0.0000000000
11
5.8585133141
21
13.3606106194
31
0.0000000000
11
5.8374629500
21
13.3616620063
31
0.0000000000
11
5.7952729165
21
13.3608490734
31
0.0000000000
0
SPLINE
5
40B
100
AcDbEntity
8
0
100
AcDbSpline
62
7
6
CONTINUOUS
70
0
71
3
72
34
73
30
74
28
42
0.0000001000
43
0.0000001000
44
0.0000000001
12
-0.6292237701
22
0.0309346314
32
0.0000000000
13
-0.0143027574
23
-0.6298212068
33
0.0000000000
40
0.0000000000
40
0.0000000000
40
0.0000000000
40
0.0000000000
40
0.0626399552
40
0.0939408133
40
0.1251599345
40
0.1407538221
40
0.1563546940
40
0.1876099823
40
0.2188888039
40
0.2501235310
40
0.2813334503
40
0.3125848606
40
0.3438774035
40
0.3751767453
40
0.4064334555
40
0.4376431034
40
0.4688813984
40
0.5001598917
40
0.5313815626
40
0.5625894923
40
0.5938853841
40
0.6251774574
40
0.6564111879
40
0.6876293588
40
0.7188656936
40
0.7501120155
40
0.8125716896
40
0.8750757691
40
1.0000000000
40
1.0000000000
40
1.0000000000
40
1.0000000000
10
5.7952729165
20
13.3608490734
30
0.0000000000
10
5.7821347336
20
13.3614949880
30
0.0000000000
10
5.7623976473
20
13.3621117052
30
0.0000000000
10
5.7361221314
20
13.3611173428
30
0.0000000000
10
5.7197841064
20
13.3594993270
30
0.0000000000
10
5.7068330935
20
13.3574640960
30
0.0000000000
10
5.6939698621
20
13.3548951547
30
0.0000000000
10
5.6780253858
20
13.3510072884
30
0.0000000000
10
5.6589793765
20
13.3460034406
30
0.0000000000
10
5.6401682276
20
13.3401804156
30
0.0000000000
10
5.6217877628
20
13.3331066569
30
0.0000000000
10
5.6040135620
20
13.3245943407
30
0.0000000000
10
5.5868863009
20
13.3148156107
30
0.0000000000
10
5.5704724623
20
13.3038790063
30
0.0000000000
10
5.5549242855
20
13.2917623242
30
0.0000000000
10
5.5404780469
20
13.2783663973
30
0.0000000000
10
5.5271098361
20
13.2639028636
30
0.0000000000
10
5.5143911540
20
13.2488809829
30
0.0000000000
10
5.5021382067
20
13.2334562979
30
0.0000000000
10
5.4916562803
20
13.2167528665
30
0.0000000000
10
5.4825699786
20
13.1992647727
30
0.0000000000
10
5.4743803998
20
13.1813384612
30
0.0000000000
10
5.4669643293
20
13.1630962536
30
0.0000000000
10
5.4604092017
20
13.1445385264
30
0.0000000000
10
5.4547275264
20
13.1256928499
30
0.0000000000
10
5.4482530840
20
13.1002597273
30
0.0000000000
10
5.4421328148
20
13.0679970588
30
0.0000000000
10
5.4358281000
20
13.0158740621
30
0.0000000000
10
5.4341060564
20
12.9765033178
30
0.0000000000
10
5.4335104694
20
12.9502766745
30
0.0000000000
11
5.7952729165
21
13.3608490734
31
0.0000000000
11
5.7558201865
21
13.3617113975
31
0.0000000000
11
5.7361171795
21
13.3609165947
31
0.0000000000
11
5.7165504310
21
13.3589280209
31
0.0000000000
11
5.7068464366
21
13.3573978517
31
0.0000000000
11
5.6972042386
21
13.3554943261
31
0.0000000000
11
5.6780449757
21
13.3509521379
31
0.0000000000
11
5.6590080996
21
13.3458638927
31
0.0000000000
11
5.6402341465
21
13.3399700338
31
0.0000000000
11
5.6218986319
21
13.3328712322
31
0.0000000000
11
5.6041318311
21
13.3243886963
31
0.0000000000
11
5.5870066306
21
13.3146233935
31
0.0000000000
11
5.5706071638
21
13.3036753335
31
0.0000000000
11
5.5550987152
21
13.2915414088
31
0.0000000000
11
5.5406624243
21
13.2781933431
31
0.0000000000
11
5.5272240131
21
13.2638164012
31
0.0000000000
11
5.5144605546
21
13.2488037777
31
0.0000000000
11
5.5024318336
21
13.2332414794
31
0.0000000000
11
5.4918992762
21
13.2166402738
31
0.0000000000
11
5.4827195936
21
13.1991917710
31
0.0000000000
11
5.4745033942
21
13.1812720602
31
0.0000000000
11
5.4671059092
21
13.1630388104
31
0.0000000000
11
5.4605560804
21
13.1444945858
31
0.0000000000
11
5.4548658137
21
13.1256568679
31
0.0000000000
11
5.4500022372
21
13.1065824863
31
0.0000000000
11
5.4425700426
21
13.0679421818
31
0.0000000000
11
5.4377373592
21
13.0288633113
31
0.0000000000
11
5.4335104694
21
12.9502766745
31
0.0000000000
0
SPLINE
5
40C
100
AcDbEntity
8
0
100
AcDbSpline
62
7
6
CONTINUOUS
70
0
71
3
72
31
73
27
74
25
42
0.0000001000
43
0.0000001000
44
0.0000000001
12
0.0332037504
22
0.6809530202
32
0.0000000000
13
0.6551070353
23
0.1887702800
33
0.0000000000
40
0.0000000000
40
0.0000000000
40
0.0000000000
40
0.0000000000
40
0.0624721340
40
0.1249094954
40
0.1562572202
40
0.1876230857
40
0.2189630354
40
0.2503390919
40
0.2817149536
40
0.3130144836
40
0.3443011481
40
0.3756445960
40
0.4381219554
40
0.4693470519
40
0.5005400209
40
0.5317564907
40
0.5630000245
40
0.5942421228
40
0.6254646683
40
0.6566744508
40
0.6878783336
40
0.7502829412
40
0.8127110468
40
0.8751738781
40
0.9375688522
40
1.0000000000
40
1.0000000000
40
1.0000000000
40
1.0000000000
10
6.1482294218
20
12.9502774887
30
0.0000000000
10
6.1489208582
20
12.9644576848
30
0.0000000000
10
6.1502080833
20
12.9928088264
30
0.0000000000
10
6.1549105536
20
13.0281381738
30
0.0000000000
10
6.1624888294
20
13.0555995507
30
0.0000000000
10
6.1702713822
20
13.0755512134
30
0.0000000000
10
6.1803426369
20
13.0944757648
30
0.0000000000
10
6.1928476736
20
13.1119026501
30
0.0000000000
10
6.2076215264
20
13.1274449276
30
0.0000000000
10
6.2244777099
20
13.1406848784
30
0.0000000000
10
6.2431068948
20
13.1512498895
30
0.0000000000
10
6.2694509071
20
13.1620952765
30
0.0000000000
10
6.2973096181
20
13.1685940821
30
0.0000000000
10
6.3254999013
20
13.1719388177
30
0.0000000000
10
6.3467491494
20
13.1732468857
30
0.0000000000
10
6.3680274542
20
13.1737666806
30
0.0000000000
10
6.3893213516
20
13.1739053130
30
0.0000000000
10
6.4106164593
20
13.1740977176
30
0.0000000000
10
6.4318979608
20
13.1746606406
30
0.0000000000
10
6.4531607509
20
13.1755077430
30
0.0000000000
10
6.4814903146
20
13.1769404918
30
0.0000000000
10
6.5168826624
20
13.1791591759
30
0.0000000000
10
6.5593141278
20
13.1825243349
30
0.0000000000
10
6.6016781178
20
13.1866918516
30
0.0000000000
10
6.6438143991
20
13.1928611745
30
0.0000000000
10
6.6715160019
20
13.1992124449
30
0.0000000000
10
6.6851490300
20
13.2031408266
30
0.0000000000
11
6.1482294218
21
12.9502774887
31
0.0000000000
11
6.1508267492
21
12.9927893455
31
0.0000000000
11
6.1571122727
21
13.0348901471
31
0.0000000000
11
6.1628354788
21
13.0554812605
31
0.0000000000
11
6.1706548074
21
13.0753844241
31
0.0000000000
11
6.1807436802
21
13.0942188909
31
0.0000000000
11
6.1932270412
21
13.1115895763
31
0.0000000000
11
6.2079839540
21
13.1270751458
31
0.0000000000
11
6.2247764502
21
13.1402416849
31
0.0000000000
11
6.2432869304
21
13.1508404369
31
0.0000000000
11
6.2630229306
21
13.1590327934
31
0.0000000000
11
6.3043940177
21
13.1691689049
31
0.0000000000
11
6.3255263201
21
13.1717395728
31
0.0000000000
11
6.3467479568
21
13.1731152890
31
0.0000000000
11
6.3680220428
21
13.1737030211
31
0.0000000000
11
6.3893216494
21
13.1739142780
31
0.0000000000
11
6.4106199124
21
13.1741595759
31
0.0000000000
11
6.4318991879
21
13.1747081444
31
0.0000000000
11
6.4531603390
21
13.1755457501
31
0.0000000000
11
6.4744072809
21
13.1766108525
31
0.0000000000
11
6.5168688274
21
13.1792757694
31
0.0000000000
11
6.5592953817
21
13.1826574278
31
0.0000000000
11
6.6016553600
21
13.1870273434
31
0.0000000000
11
6.6437108695
21
13.1934195288
31
0.0000000000
11
6.6851490300
21
13.2031408266
31
0.0000000000
0
SPLINE
5
40D
100
AcDbEntity
8
0
100
AcDbSpline
62
7
6
CONTINUOUS
70
0
71
3
72
21
73
17
74
15
42
0.0000001000
43
0.0000001000
44
0.0000000001
12
0.0330695305
22
0.3412168986
32
0.0000000000
13
0.3427268915
23
-0.0077997664
33
0.0000000000
40
0.0000000000
40
0.0000000000
40
0.0000000000
40
0.0000000000
40
0.1225474981
40
0.2492495139
40
0.3121945558
40
0.3745732023
40
0.4369271151
40
0.4996467215
40
0.5624277653
40
0.6248980311
40
0.6872559413
40
0.7499450101
40
0.8127152018
40
0.8752097321
40
0.9375787739
40
1.0000000000
40
1.0000000000
40
1.0000000000
40
1.0000000000
10
5.5782322198
20
12.9802470798
30
0.0000000000
10
5.5795830825
20
12.9941855056
30
0.0000000000
10
5.5824140534
20
13.0225228667
30
0.0000000000
10
5.5892303235
20
13.0576877056
30
0.0000000000
10
5.5987053818
20
13.0849423528
30
0.0000000000
10
5.6082623870
20
13.1042289166
30
0.0000000000
10
5.6207621443
20
13.1217309402
30
0.0000000000
10
5.6355394148
20
13.1373688105
30
0.0000000000
10
5.6519178866
20
13.1513319094
30
0.0000000000
10
5.6699420121
20
13.1630877313
30
0.0000000000
10
5.6895980075
20
13.1718247584
30
0.0000000000
10
5.7102047081
20
13.1779618333
30
0.0000000000
10
5.7312592777
20
13.1822933771
30
0.0000000000
10
5.7525103817
20
13.1852524302
30
0.0000000000
10
5.7738713336
20
13.1867905700
30
0.0000000000
10
5.7881417723
20
13.1869070460
30
0.0000000000
10
5.7952729165
20
13.1867447556
30
0.0000000000
11
5.5782322198
21
12.9802470798
31
0.0000000000
11
5.5829980363
21
13.0219870811
31
0.0000000000
11
5.5919566069
21
13.0644886193
31
0.0000000000
11
5.5991480012
21
13.0848335800
31
0.0000000000
11
5.6087552853
21
13.1039383332
31
0.0000000000
11
5.6211101971
21
13.1213821026
31
0.0000000000
11
5.6358000586
21
13.1370828102
31
0.0000000000
11
5.6522262836
21
13.1509892667
31
0.0000000000
11
5.6702263482
21
13.1625924330
31
0.0000000000
11
5.6897154951
21
13.1713765479
31
0.0000000000
11
5.7102679510
21
13.1776575299
31
0.0000000000
11
5.7313291131
21
13.1820708876
31
0.0000000000
11
5.7525495410
21
13.1850180198
31
0.0000000000
11
5.7738747143
21
13.1865632297
31
0.0000000000
11
5.7952729165
21
13.1867447556
31
0.0000000000
0
SPLINE
5
40E
100
AcDbEntity
8
0
100
AcDbSpline
62
7
6
CONTINUOUS
70
0
71
3
72
20
73
16
74
14
42
0.0000001000
43
0.0000001000
44
0.0000000001
12
0.2776851951
22
0.0063195498
32
0.0000000000
13
0.0573270671
23
-0.2717769609
33
0.0000000000
40
0.0000000000
40
0.0000000000
40
0.0000000000
40
0.0000000000
40
0.1245309368
40
0.1868269417
40
0.2492904720
40
0.3119832503
40
0.3745870180
40
0.4369014845
40
0.4991526465
40
0.5616533266
40
0.6243642978
40
0.7491302742
40
0.8113025657
40
0.8737813005
40
1.0000000000
40
1.0000000000
40
1.0000000000
40
1.0000000000
10
5.7952729165
20
13.1867447556
30
0.0000000000
10
5.8067997157
20
13.1870070821
30
0.0000000000
10
5.8241308692
20
13.1865346657
30
0.0000000000
10
5.8470897088
20
13.1840884321
30
0.0000000000
10
5.8642311368
20
13.1813189760
30
0.0000000000
10
5.8812311074
20
13.1776350576
30
0.0000000000
10
5.8979122792
20
13.1727217990
30
0.0000000000
10
5.9140180729
20
13.1662226224
30
0.0000000000
10
5.9291729473
20
13.1577438830
30
0.0000000000
10
5.9432490740
20
13.1475265310
30
0.0000000000
10
5.9605727454
20
13.1321614821
30
0.0000000000
10
5.9758418258
20
13.1145178688
30
0.0000000000
10
5.9873649395
20
13.0944378545
30
0.0000000000
10
5.9965382356
20
13.0730569738
30
0.0000000000
10
6.0011386081
20
13.0561093561
30
0.0000000000
10
6.0035505241
20
13.0446749112
30
0.0000000000
11
5.7952729165
21
13.1867447556
31
0.0000000000
11
5.8298486054
21
13.1857726604
31
0.0000000000
11
5.8470539824
21
13.1839357456
31
0.0000000000
11
5.8641820139
21
13.1811712861
31
0.0000000000
11
5.8811881197
21
13.1774272758
31
0.0000000000
11
5.8978481358
21
13.1724464436
31
0.0000000000
11
5.9138665355
21
13.1658899498
31
0.0000000000
11
5.9289686575
21
13.1574700753
31
0.0000000000
11
5.9430527517
21
13.1473207824
31
0.0000000000
11
5.9561015535
21
13.1357825837
31
0.0000000000
11
5.9784242924
21
13.1092752436
31
0.0000000000
11
5.9870520273
21
13.0943161837
31
0.0000000000
11
5.9939554221
21
13.0783944564
31
0.0000000000
11
6.0035505241
21
13.0446749112
31
0.0000000000
0
SPLINE
5
40F
100
AcDbEntity
8
0
100
AcDbSpline
62
7
6
CONTINUOUS
70
0
71
3
72
23
73
19
74
17
42
0.0000001000
43
0.0000001000
44
0.0000000001
12
-0.5533309778
22
0.0351214781
32
0.0000000000
13
-0.0178736572
23
-0.5541561764
33
0.0000000000
40
0.0000000000
40
0.0000000000
40
0.0000000000
40
0.0000000000
40
0.1247968781
40
0.1873299719
40
0.2498802974
40
0.3124855866
40
0.3750546212
40
0.4062774344
40
0.4374871850
40
0.5000328610
40
0.5313686388
40
0.5626736651
40
0.6251353683
40
0.6875833725
40
0.7500449487
40
0.8125355447
40
0.8751477757
40
1.0000000000
40
1.0000000000
40
1.0000000000
40
1.0000000000
10
5.7708460465
20
12.0886678580
30
0.0000000000
10
5.7478280536
20
12.0901288749
30
0.0000000000
10
5.7129060131
20
12.0884817318
30
0.0000000000
10
5.6675892216
20
12.0793486593
30
0.0000000000
10
5.6343836042
20
12.0690877229
30
0.0000000000
10
5.6024132704
20
12.0554657576
30
0.0000000000
10
5.5771523254
20
12.0412494292
30
0.0000000000
10
5.5582933694
20
12.0278704668
30
0.0000000000
10
5.5405248061
20
12.0130813146
30
0.0000000000
10
5.5243220416
20
11.9965020218
30
0.0000000000
10
5.5094054744
20
11.9788112934
30
0.0000000000
10
5.4953094732
20
11.9604763409
30
0.0000000000
10
5.4794730290
20
11.9362538717
30
0.0000000000
10
5.4642433017
20
11.9050574993
30
0.0000000000
10
5.4526324073
20
11.8723612654
30
0.0000000000
10
5.4442152004
20
11.8386872692
30
0.0000000000
10
5.4366313060
20
11.7930814158
30
0.0000000000
10
5.4342543548
20
11.7584365023
30
0.0000000000
10
5.4335104995
20
11.7353739586
30
0.0000000000
11
5.7708460465
21
12.0886678580
31
0.0000000000
11
5.7017199747
21
12.0856265936
31
0.0000000000
11
5.6677310082
21
12.0787828116
31
0.0000000000
11
5.6346000966
21
12.0685313493
31
0.0000000000
11
5.6026822148
21
12.0548890153
31
0.0000000000
11
5.5725338066
21
12.0377267642
31
0.0000000000
11
5.5584271911
21
12.0276925684
31
0.0000000000
11
5.5451113154
21
12.0166418472
31
0.0000000000
11
5.5207117253
21
11.9919997899
31
0.0000000000
11
5.5095033750
21
11.9787247384
31
0.0000000000
11
5.4989381675
21
11.9649538145
31
0.0000000000
11
5.4800992966
21
11.9358945477
31
0.0000000000
11
5.4648476887
21
11.9048106856
31
0.0000000000
11
5.4531675470
21
11.8722083320
31
0.0000000000
11
5.4446743778
21
11.8386178580
31
0.0000000000
11
5.4388890734
21
11.8043883107
31
0.0000000000
11
5.4335104995
21
11.7353739586
31
0.0000000000
0
SPLINE
5
410
100
AcDbEntity
8
0
100
AcDbSpline
62
7
6
CONTINUOUS
70
0
71
3
72
38
73
34
74
32
42
0.0000001000
43
0.0000001000
44
0.0000000001
12
-0.0335487839
22
0.9954305056
32
0.0000000000
13
-0.3298685659
23
-0.9397840939
33
0.0000000000
40
0.0000000000
40
0.0000000000
40
0.0000000000
40
0.0000000000
40
0.0160520333
40
0.0318798930
40
0.0474960663
40
0.0629743731
40
0.0938308839
40
0.1249299414
40
0.1561773409
40
0.1874000261
40
0.2185610834
40
0.2497035012
40
0.2808777322
40
0.3121279155
40
0.3435038164
40
0.3749892777
40
0.4378382642
40
0.4691426456
40
0.5003426467
40
0.5627537226
40
0.5941185518
40
0.6254935797
40
0.6567918052
40
0.6879987069
40
0.7191723805
40
0.7504044515
40
0.7816400658
40
0.8128382701
40
0.8440415473
40
0.8752770244
40
0.9065064103
40
0.9376817429
40
1.0000000000
40
1.0000000000
40
1.0000000000
40
1.0000000000
10
6.6851496793
20
11.7115862262
30
0.0000000000
10
6.6849701706
20
11.7169124541
30
0.0000000000
10
6.6845904886
20
11.7274897375
30
0.0000000000
10
6.6840081246
20
11.7432476000
30
0.0000000000
10
6.6833085657
20
11.7588104742
30
0.0000000000
10
6.6821021484
20
11.7793429345
30
0.0000000000
10
6.6798107086
20
11.8049610937
30
0.0000000000
10
6.6751583041
20
11.8355738151
30
0.0000000000
10
6.6685512287
20
11.8659504828
30
0.0000000000
10
6.6598725624
20
11.8958269908
30
0.0000000000
10
6.6490444367
20
11.9249600789
30
0.0000000000
10
6.6359779059
20
11.9531461057
30
0.0000000000
10
6.6206708395
20
11.9802160827
30
0.0000000000
10
6.6031822700
20
12.0060237785
30
0.0000000000
10
6.5835713524
20
12.0303972395
30
0.0000000000
10
6.5547822505
20
12.0606594562
30
0.0000000000
10
6.5221934329
20
12.0871246187
30
0.0000000000
10
6.4864399038
20
12.1085386704
30
0.0000000000
10
6.4487885493
20
12.1260937337
30
0.0000000000
10
6.4086890175
20
12.1377616463
30
0.0000000000
10
6.3676949647
20
12.1446318413
30
0.0000000000
10
6.3366037511
20
12.1477339923
30
0.0000000000
10
6.3054276848
20
12.1487738035
30
0.0000000000
10
6.2743214573
20
12.1473901265
30
0.0000000000
10
6.2434682355
20
12.1432933892
30
0.0000000000
10
6.2131452408
20
12.1362008266
30
0.0000000000
10
6.1837062790
20
12.1259922182
30
0.0000000000
10
6.1556254736
20
12.1124866928
30
0.0000000000
10
6.1293294785
20
12.0957776944
30
0.0000000000
10
6.1050160768
20
12.0762986131
30
0.0000000000
10
6.0829280902
20
12.0543185466
30
0.0000000000
10
6.0571022872
20
12.0218822112
30
0.0000000000
10
6.0424525217
20
11.9939490552
30
0.0000000000
10
6.0356002437
20
11.9744271529
30
0.0000000000
11
6.6851496793
21
11.7115862262
31
0.0000000000
11
6.6845849774
21
11.7275640062
31
0.0000000000
11
6.6839844354
21
11.7433170434
31
0.0000000000
11
6.6832707094
21
11.7588543003
31
0.0000000000
11
6.6823493011
21
11.7742430670
31
0.0000000000
11
6.6795055391
21
11.8048441674
31
0.0000000000
11
6.6748446805
21
11.8354660179
31
0.0000000000
11
6.6682044030
21
11.8658716544
31
0.0000000000
11
6.6595060830
21
11.8957280386
31
0.0000000000
11
6.6486681424
21
11.9248105015
31
0.0000000000
11
6.6356117498
21
11.9529464071
31
0.0000000000
11
6.6203275378
21
11.9799733953
31
0.0000000000
11
6.6028636637
21
12.0057373566
31
0.0000000000
11
6.5832710747
21
12.0300829791
31
0.0000000000
11
6.5616456682
21
12.0527931694
31
0.0000000000
11
6.5129273040
21
12.0920989632
31
0.0000000000
11
6.4861562567
21
12.1080815434
31
0.0000000000
11
6.4579938383
21
12.1212169137
31
0.0000000000
11
6.3984493313
21
12.1390624123
31
0.0000000000
11
6.3676502194
21
12.1442877821
31
0.0000000000
11
6.3365554262
21
12.1473923551
31
0.0000000000
11
6.3053978549
21
12.1483697511
31
0.0000000000
11
6.2743489542
21
12.1469370162
31
0.0000000000
11
6.2435772311
21
12.1427979579
31
0.0000000000
11
6.2132950907
21
12.1356819251
31
0.0000000000
11
6.1839196745
21
12.1254373922
31
0.0000000000
11
6.1559242978
21
12.1119537939
31
0.0000000000
11
6.1296700352
21
12.0953232115
31
0.0000000000
11
6.1053844869
21
12.0758792107
31
0.0000000000
11
6.0833656850
21
12.0539098698
31
0.0000000000
11
6.0640745491
21
12.0295791191
31
0.0000000000
11
6.0356002437
21
11.9744271529
31
0.0000000000
0
SPLINE
5
411
100
AcDbEntity
8
0
100
AcDbSpline
62
7
6
CONTINUOUS
70
0
71
3
72
16
73
12
74
10
42
0.0000001000
43
0.0000001000
44
0.0000000001
12
-0.1847934681
22
0.2363917747
32
0.0000000000
13
-0.2994468916
23
-0.0190067390
33
0.0000000000
40
0.0000000000
40
0.0000000000
40
0.0000000000
40
0.0000000000
40
0.0626546879
40
0.1252950752
40
0.2501462717
40
0.3750637755
40
0.4377118789
40
0.5003402639
40
0.6254409621
40
0.7504930959
40
1.0000000000
40
1.0000000000
40
1.0000000000
40
1.0000000000
10
6.0356002437
20
11.9744271529
30
0.0000000000
10
6.0317408513
20
11.9793641705
30
0.0000000000
10
6.0237746356
20
11.9890469582
30
0.0000000000
10
6.0069235993
20
12.0075465695
30
0.0000000000
10
5.9837194182
20
12.0286638279
30
0.0000000000
10
5.9573194565
20
12.0456295809
30
0.0000000000
10
5.9350263358
20
12.0570163869
30
0.0000000000
10
5.9120894403
20
12.0670959421
30
0.0000000000
10
5.8824119360
20
12.0772311388
30
0.0000000000
10
5.8335809875
20
12.0881228018
30
0.0000000000
10
5.7957507354
20
12.0902486288
30
0.0000000000
10
5.7708460465
20
12.0886678580
30
0.0000000000
11
6.0356002437
21
11.9744271529
31
0.0000000000
11
6.0236551359
21
11.9889438975
31
0.0000000000
11
6.0109697961
21
12.0028126504
31
0.0000000000
11
5.9830860619
21
12.0278299284
31
0.0000000000
11
5.9516747703
21
12.0482795887
31
0.0000000000
11
5.9349460676
21
12.0568526686
31
0.0000000000
11
5.9177440995
21
12.0644168664
31
0.0000000000
11
5.8822292893
21
12.0765692179
31
0.0000000000
11
5.8456071862
21
12.0847367892
31
0.0000000000
11
5.7708460465
21
12.0886678580
31
0.0000000000
0
SPLINE
5
412
100
AcDbEntity
8
0
100
AcDbSpline
62
7
6
CONTINUOUS
70
0
71
3
72
21
73
17
74
15
42
0.0000001000
43
0.0000001000
44
0.0000000001
12
0.3722337369
22
0.0104210168
32
0.0000000000
13
0.0040008551
23
-0.3723581108
33
0.0000000000
40
0.0000000000
40
0.0000000000
40
0.0000000000
40
0.0000000000
40
0.0625273180
40
0.1249330017
40
0.1872964778
40
0.2498553672
40
0.3123899590
40
0.3751034091
40
0.4381291972
40
0.5010994682
40
0.5635152598
40
0.6257280316
40
0.6880478487
40
0.7505763685
40
0.8758969285
40
1.0000000000
40
1.0000000000
40
1.0000000000
40
1.0000000000
10
5.7708460465
20
11.9195491645
30
0.0000000000
10
5.7786043056
20
11.9197663639
30
0.0000000000
10
5.7941250270
20
11.9197822934
30
0.0000000000
10
5.8173311150
20
11.9178378426
30
0.0000000000
10
5.8401763697
20
11.9131415867
30
0.0000000000
10
5.8621269312
20
11.9051493365
30
0.0000000000
10
5.8825558483
20
11.8936715983
30
0.0000000000
10
5.9006227370
20
11.8786635503
30
0.0000000000
10
5.9161267817
20
11.8609951692
30
0.0000000000
10
5.9289627228
20
11.8413523186
30
0.0000000000
10
5.9389625419
20
11.8202592275
30
0.0000000000
10
5.9467048589
20
11.7983524017
30
0.0000000000
10
5.9526650703
20
11.7758885028
30
0.0000000000
10
5.9584940733
20
11.7453665755
30
0.0000000000
10
5.9624235988
20
11.7067774296
30
0.0000000000
10
5.9632938492
20
11.6758178737
30
0.0000000000
10
5.9634593553
20
11.6604142787
30
0.0000000000
11
5.7708460465
21
11.9195491645
31
0.0000000000
11
5.7941297462
21
11.9194534337
31
0.0000000000
11
5.8172755691
21
11.9173789415
31
0.0000000000
11
5.8400013364
21
11.9125996217
31
0.0000000000
11
5.8618694689
21
11.9045701617
31
0.0000000000
11
5.8821362602
21
11.8931018075
31
0.0000000000
11
5.9001610405
21
11.8782532510
31
0.0000000000
11
5.9156889837
21
11.8606549218
31
0.0000000000
11
5.9285317372
21
11.8410357494
31
0.0000000000
11
5.9386016950
21
11.8200881113
31
0.0000000000
11
5.9464035585
21
11.7982745841
31
0.0000000000
11
5.9523920721
21
11.7758539405
31
0.0000000000
11
5.9568082191
21
11.7529922187
31
0.0000000000
11
5.9618654697
21
11.7066002358
31
0.0000000000
11
5.9634593553
21
11.6604142787
31
0.0000000000
0
SPLINE
5
413
100
AcDbEntity
8
0
100
AcDbSpline
62
7
6
CONTINUOUS
70
0
71
3
72
21
73
17
74
15
42
0.0000001000
43
0.0000001000
44
0.0000000001
12
0.0039965022
22
0.3723742774
32
0.0000000000
13
0.3722499087
23
-0.0104214696
33
0.0000000000
40
0.0000000000
40
0.0000000000
40
0.0000000000
40
0.0000000000
40
0.1241411236
40
0.2494562392
40
0.3119820425
40
0.3742991522
40
0.4365092213
40
0.4989223013
40
0.5618898367
40
0.6249128868
40
0.6876236123
40
0.7501554874
40
0.8127116590
40
0.8750724258
40
0.9374753984
40
1.0000000000
40
1.0000000000
40
1.0000000000
40
1.0000000000
10
5.5782325639
20
11.6603981014
30
0.0000000000
10
5.5783979407
20
11.6758070885
30
0.0000000000
10
5.5792679468
20
11.7067720553
30
0.0000000000
10
5.5831980196
20
11.7453665755
30
0.0000000000
10
5.5890270226
20
11.7758885028
30
0.0000000000
10
5.5949872340
20
11.7983524017
30
0.0000000000
10
5.6027295510
20
11.8202592275
30
0.0000000000
10
5.6127293701
20
11.8413523186
30
0.0000000000
10
5.6255653112
20
11.8609951692
30
0.0000000000
10
5.6410693559
20
11.8786635503
30
0.0000000000
10
5.6591362446
20
11.8936715983
30
0.0000000000
10
5.6795651618
20
11.9051493365
30
0.0000000000
10
5.7015157232
20
11.9131415867
30
0.0000000000
10
5.7243609780
20
11.9178378426
30
0.0000000000
10
5.7475670659
20
11.9197822934
30
0.0000000000
10
5.7630877874
20
11.9197663639
30
0.0000000000
10
5.7708460465
20
11.9195491645
30
0.0000000000
11
5.5782325639
21
11.6603981014
31
0.0000000000
11
5.5798266233
21
11.7066002358
31
0.0000000000
11
5.5848838738
21
11.7529922187
31
0.0000000000
11
5.5893000208
21
11.7758539405
31
0.0000000000
11
5.5952885344
21
11.7982745841
31
0.0000000000
11
5.6030903979
21
11.8200881113
31
0.0000000000
11
5.6131603557
21
11.8410357494
31
0.0000000000
11
5.6260031092
21
11.8606549218
31
0.0000000000
11
5.6415310524
21
11.8782532510
31
0.0000000000
11
5.6595558327
21
11.8931018075
31
0.0000000000
11
5.6798226240
21
11.9045701617
31
0.0000000000
11
5.7016907566
21
11.9125996217
31
0.0000000000
11
5.7244165238
21
11.9173789415
31
0.0000000000
11
5.7475623468
21
11.9194534337
31
0.0000000000
11
5.7708460465
21
11.9195491645
31
0.0000000000
0
SPLINE
5
414
100
AcDbEntity
8
0
100
AcDbSpline
62
7
6
CONTINUOUS
70
0
71
3
72
29
73
25
74
23
42
0.0000001000
43
0.0000001000
44
0.0000000001
12
0.0684491367
22
0.7020220029
32
0.0000000000
13
0.0375641895
23
-0.7043500698
33
0.0000000000
40
0.0000000000
40
0.0000000000
40
0.0000000000
40
0.0000000000
40
0.0600738619
40
0.1235936210
40
0.1876108249
40
0.2191817287
40
0.2502903689
40
0.2809969989
40
0.3115468323
40
0.3422831619
40
0.3733967501
40
0.4049247969
40
0.4367864152
40
0.4688129669
40
0.5007930489
40
0.5641709308
40
0.6266538774
40
0.6576488092
40
0.6885692010
40
0.7505625063
40
0.8130475566
40
0.8756182349
40
0.9379974579
40
1.0000000000
40
1.0000000000
40
1.0000000000
40
1.0000000000
10
6.1012123033
20
11.7466350149
30
0.0000000000
10
6.1025829713
20
11.7606927392
30
0.0000000000
10
6.1065160880
20
11.7895233968
30
0.0000000000
10
6.1165003380
20
11.8325624050
30
0.0000000000
10
6.1294472770
20
11.8678268578
30
0.0000000000
10
6.1432787225
20
11.8942571016
30
0.0000000000
10
6.1554334538
20
11.9125967312
30
0.0000000000
10
6.1695555424
20
11.9291772596
30
0.0000000000
10
6.1858298745
20
11.9435428333
30
0.0000000000
10
6.2040779882
20
11.9554557198
30
0.0000000000
10
6.2238739267
20
11.9650678211
30
0.0000000000
10
6.2448722984
20
11.9724621777
30
0.0000000000
10
6.2667141253
20
11.9777330873
30
0.0000000000
10
6.2890535959
20
11.9809627161
30
0.0000000000
10
6.3189858217
20
11.9826601336
30
0.0000000000
10
6.3562047879
20
11.9798940795
30
0.0000000000
10
6.3920746660
20
11.9702605058
30
0.0000000000
10
6.4188369148
20
11.9583321630
30
0.0000000000
10
6.4440139099
20
11.9435596047
30
0.0000000000
10
6.4721644462
20
11.9197944710
30
0.0000000000
10
6.4997268716
20
11.8852157946
30
0.0000000000
10
6.5207407109
20
11.8462172689
30
0.0000000000
10
6.5346595993
20
11.8043039186
30
0.0000000000
10
6.5389222684
20
11.7751841268
30
0.0000000000
10
6.5396986268
20
11.7606269619
30
0.0000000000
11
6.1012123033
21
11.7466350149
31
0.0000000000
11
6.1070311492
21
11.7886067462
31
0.0000000000
11
6.1173645516
21
11.8322025673
31
0.0000000000
11
6.1332792826
21
11.8744596392
31
0.0000000000
11
6.1436629024
21
11.8941591273
31
0.0000000000
11
6.1558417616
21
11.9124115078
31
0.0000000000
11
6.1699491628
21
11.9288459738
31
0.0000000000
11
6.1861103159
21
11.9430990081
31
0.0000000000
11
6.2042250695
21
11.9550100967
31
0.0000000000
11
6.2239436821
21
11.9646435537
31
0.0000000000
11
6.2449034579
21
11.9720753623
31
0.0000000000
11
6.2667417016
21
11.9773815053
31
0.0000000000
11
6.2890957173
21
11.9806379657
31
0.0000000000
11
6.3116169610
21
11.9819108890
31
0.0000000000
11
6.3561885894
21
11.9784776010
31
0.0000000000
11
6.3987095713
21
11.9668869032
31
0.0000000000
11
6.4186676325
21
11.9579629770
31
0.0000000000
11
6.4374734189
21
11.9469173027
31
0.0000000000
11
6.4710319317
21
11.9188837302
31
0.0000000000
11
6.4986139804
21
11.8845072912
31
0.0000000000
11
6.5195821263
21
11.8456720827
31
0.0000000000
11
6.5334306299
21
11.8039090169
31
0.0000000000
11
6.5396986268
21
11.7606269619
31
0.0000000000
0
SPLINE
5
415
100
AcDbEntity
8
0
100
AcDbSpline
62
7
6
CONTINUOUS
70
0
71
3
72
18
73
14
74
12
42
0.0000001000
43
0.0000001000
44
0.0000000001
12
-1.9977623984
22
0.0000000000
32
0.0000000000
13
-0.9003603700
23
1.3048978622
33
0.0000000000
40
0.0000000000
40
0.0000000000
40
0.0000000000
40
0.0000000000
40
0.1424957782
40
0.2819951358
40
0.4159147287
40
0.5411907491
40
0.6556836138
40
0.7566250903
40
0.8423376230
40
0.9107566601
40
0.9607440762
40
0.9911755948
40
1.0000000000
40
1.0000000000
40
1.0000000000
40
1.0000000000
10
-0.7500000000
20
17.6778145455
30
0.0000000000
10
-0.8448909025
20
17.6778145455
30
0.0000000000
10
-1.0326783091
20
17.6780461327
30
0.0000000000
10
-1.3096390193
20
17.6790888976
30
0.0000000000
10
-1.5751465328
20
17.6807898886
30
0.0000000000
10
-1.8239377810
20
17.6831566205
30
0.0000000000
10
-2.0509519889
20
17.6859913171
30
0.0000000000
10
-2.2510114838
20
17.6896817403
30
0.0000000000
10
-2.4221413320
20
17.6927832794
30
0.0000000000
10
-2.5545068759
20
17.6989559021
30
0.0000000000
10
-2.6616794314
20
17.6986009696
30
0.0000000000
10
-2.7066459942
20
17.7108489369
30
0.0000000000
10
-2.7465776994
20
17.7061560347
30
0.0000000000
10
-2.7492260810
20
17.7099943506
30
0.0000000000
11
-0.7500000000
21
17.6778145455
31
0.0000000000
11
-1.0346724857
21
17.6781699877
31
0.0000000000
11
-1.3133570483
21
17.6792280972
31
0.0000000000
11
-1.5808909060
21
17.6809697896
31
0.0000000000
11
-1.8311512632
21
17.6833549429
31
0.0000000000
11
-2.0598612787
21
17.6863434744
31
0.0000000000
11
-2.2614876462
21
17.6898631704
31
0.0000000000
11
-2.4326743768
21
17.6938553793
31
0.0000000000
11
-2.5692895426
21
17.6982234600
31
0.0000000000
11
-2.6690433015
21
17.7028927654
31
0.0000000000
11
-2.7296433774
21
17.7077565058
31
0.0000000000
11
-2.7492260810
21
17.7099943506
31
0.0000000000
0
SPLINE
5
416
100
AcDbEntity
8
0
100
AcDbSpline
62
7
6
CONTINUOUS
70
0
71
3
72
8
73
4
74
2
42
0.0000001000
43
0.0000001000
44
0.0000000001
12
-0.0014985467
22
0.0021718530
32
0.0000000000
13
0.0000000000
23
0.0033250467
33
0.0000000000
40
0.0000000000
40
0.0000000000
40
0.0000000000
40
0.0000000000
40
1.0000000000
40
1.0000000000
40
1.0000000000
40
1.0000000000
10
-2.7492260810
20
17.7099943506
30
0.0000000000
10
-2.7497255965
20
17.7107183016
30
0.0000000000
10
-2.7500000000
20
17.7116163265
30
0.0000000000
10
-2.7500000000
20
17.7127246754
30
0.0000000000
11
-2.7492260810
21
17.7099943506
31
0.0000000000
11
-2.7500000000
21
17.7127246754
31
0.0000000000
0
SPLINE
5
417
100
AcDbEntity
8
0
100
AcDbSpline
62
7
6
CONTINUOUS
70
0
71
3
72
18
73
14
74
12
42
0.0000001000
43
0.0000001000
44
0.0000000001
12
1.9977623984
22
0.0000000000
32
0.0000000000
13
0.9003603700
23
-1.3048978622
33
0.0000000000
40
0.0000000000
40
0.0000000000
40
0.0000000000
40
0.0000000000
40
0.1424957782
40
0.2819951358
40
0.4159147287
40
0.5411907491
40
0.6556836138
40
0.7566250903
40
0.8423376230
40
0.9107566601
40
0.9607440762
40
0.9911755948
40
1.0000000000
40
1.0000000000
40
1.0000000000
40
1.0000000000
10
4.2500000000
20
-17.6778145455
30
0.0000000000
10
4.3448909025
20
-17.6778145455
30
0.0000000000
10
4.5326783091
20
-17.6780461327
30
0.0000000000
10
4.8096390193
20
-17.6790888976
30
0.0000000000
10
5.0751465328
20
-17.6807898886
30
0.0000000000
10
5.3239377810
20
-17.6831566205
30
0.0000000000
10
5.5509519889
20
-17.6859913171
30
0.0000000000
10
5.7510114838
20
-17.6896817403
30
0.0000000000
10
5.9221413320
20
-17.6927832794
30
0.0000000000
10
6.0545068759
20
-17.6989559021
30
0.0000000000
10
6.1616794314
20
-17.6986009696
30
0.0000000000
10
6.2066459942
20
-17.7108489369
30
0.0000000000
10
6.2465776994
20
-17.7061560347
30
0.0000000000
10
6.2492260810
20
-17.7099943506
30
0.0000000000
11
4.2500000000
21
-17.6778145455
31
0.0000000000
11
4.5346724857
21
-17.6781699877
31
0.0000000000
11
4.8133570483
21
-17.6792280972
31
0.0000000000
11
5.0808909060
21
-17.6809697896
31
0.0000000000
11
5.3311512632
21
-17.6833549429
31
0.0000000000
11
5.5598612787
21
-17.6863434744
31
0.0000000000
11
5.7614876462
21
-17.6898631704
31
0.0000000000
11
5.9326743768
21
-17.6938553793
31
0.0000000000
11
6.0692895426
21
-17.6982234600
31
0.0000000000
11
6.1690433015
21
-17.7028927654
31
0.0000000000
11
6.2296433774
21
-17.7077565058
31
0.0000000000
11
6.2492260810
21
-17.7099943506
31
0.0000000000
0
SPLINE
5
418
100
AcDbEntity
8
0
100
AcDbSpline
62
7
6
CONTINUOUS
70
0
71
3
72
8
73
4
74
2
42
0.0000001000
43
0.0000001000
44
0.0000000001
12
0.0014985467
22
-0.0021718530
32
0.0000000000
13
0.0000000000
23
-0.0033250467
33
0.0000000000
40
0.0000000000
40
0.0000000000
40
0.0000000000
40
0.0000000000
40
1.0000000000
40
1.0000000000
40
1.0000000000
40
1.0000000000
10
6.2492260810
20
-17.7099943506
30
0.0000000000
10
6.2497255965
20
-17.7107183016
30
0.0000000000
10
6.2500000000
20
-17.7116163265
30
0.0000000000
10
6.2500000000
20
-17.7127246754
30
0.0000000000
11
6.2492260810
21
-17.7099943506
31
0.0000000000
11
6.2500000000
21
-17.7127246754
31
0.0000000000
0
SPLINE
5
419
100
AcDbEntity
8
0
100
AcDbSpline
62
7
6
CONTINUOUS
70
0
71
3
72
12
73
8
74
6
42
0.0000001000
43
0.0000001000
44
0.0000000001
12
1.4598112622
22
0.0000000000
32
0.0000000000
13
0.1538215255
23
1.4572256134
33
0.0000000000
40
0.0000000000
40
0.0000000000
40
0.0000000000
40
0.0000000000
40
0.2143135326
40
0.4286285475
40
0.6429459607
40
0.8572657722
40
1.0000000000
40
1.0000000000
40
1.0000000000
40
1.0000000000
10
9.8009893360
20
9.0000000000
30
0.0000000000
10
9.9052751055
20
9.0000000000
30
0.0000000000
10
10.1153175000
20
9.0331744879
30
0.0000000000
10
10.3984489953
20
9.1775522423
30
0.0000000000
10
10.6234078873
20
9.4025205707
30
0.0000000000
10
10.7517043516
20
9.6541370812
30
0.0000000000
10
10.7881116780
20
9.8261441008
30
0.0000000000
10
10.7954302102
20
9.8954760917
30
0.0000000000
11
9.8009893360
21
9.0000000000
31
0.0000000000
11
10.1099945640
21
9.0489434837
31
0.0000000000
11
10.3887522072
21
9.1909830056
31
0.0000000000
11
10.6099755254
21
9.4122147475
31
0.0000000000
11
10.7520096389
21
9.6909830053
31
0.0000000000
11
10.7954302102
21
9.8954760917
31
0.0000000000
0
SPLINE
5
41A
100
AcDbEntity
8
0
100
AcDbSpline
62
7
6
CONTINUOUS
70
0
71
3
72
8
73
4
74
2
42
0.0000001000
43
0.0000001000
44
0.0000000001
12
0.0110116317
22
0.1043185067
32
0.0000000000
13
-0.0000000000
23
0.1045036057
33
0.0000000000
40
0.0000000000
40
0.0000000000
40
0.0000000000
40
0.0000000000
40
1.0000000000
40
1.0000000000
40
1.0000000000
40
1.0000000000
10
10.7954302102
20
9.8954760917
30
0.0000000000
10
10.7991007541
20
9.9302489272
30
0.0000000000
10
10.8009512591
20
9.9651654648
30
0.0000000000
10
10.8009512590
20
10.0000000000
30
0.0000000000
11
10.7954302102
21
9.8954760917
31
0.0000000000
11
10.8009512590
21
10.0000000000
31
0.0000000000
0
SPLINE
5
41B
100
AcDbEntity
8
0
100
AcDbSpline
62
7
6
CONTINUOUS
70
0
71
3
72
15
73
11
74
9
42
0.0000001000
43
0.0000001000
44
0.0000000001
12
5.4887696904
22
0.0000000000
32
0.0000000000
13
0.0000000000
23
-5.4887696904
33
0.0000000000
40
0.0000000000
40
0.0000000000
40
0.0000000000
40
0.0000000000
40
0.1250033682
40
0.2500000664
40
0.3750020219
40
0.5000000000
40
0.6249979781
40
0.7499999336
40
0.8749966318
40
1.0000000000
40
1.0000000000
40
1.0000000000
40
1.0000000000
10
7.5001332693
20
18.9000000000
30
0.0000000000
10
7.7288381688
20
18.9000000000
30
0.0000000000
10
8.1875033116
20
18.8548803175
30
0.0000000000
10
8.8480786397
20
18.6544386390
30
0.0000000000
10
9.4571175887
20
18.3289397999
30
0.0000000000
10
9.9908788010
20
17.8908788010
30
0.0000000000
10
10.4289397999
20
17.3571175887
30
0.0000000000
10
10.7544386390
20
16.7480786397
30
0.0000000000
10
10.9548803175
20
16.0875033116
30
0.0000000000
10
11.0000000000
20
15.6288381688
30
0.0000000000
10
11.0000000000
20
15.4001332693
30
0.0000000000
11
7.5001332693
21
18.9000000000
31
0.0000000000
11
8.1829443428
21
18.8327510785
31
0.0000000000
11
8.8394818951
21
18.6335989104
31
0.0000000000
11
9.4445769468
21
18.3101754762
31
0.0000000000
11
9.9749289346
21
17.8749289346
31
0.0000000000
11
10.4101754762
21
17.3445769468
31
0.0000000000
11
10.7335989104
21
16.7394818951
31
0.0000000000
11
10.9327510785
21
16.0829443428
31
0.0000000000
11
11.0000000000
21
15.4001332693
31
0.0000000000
0
SPLINE
5
41C
100
AcDbEntity
8
0
100
AcDbSpline
62
7
6
CONTINUOUS
70
0
71
3
72
15
73
11
74
9
42
0.0000001000
43
0.0000001000
44
0.0000000001
12
0.0000000000
22
5.4887696904
32
0.0000000000
13
5.4887696904
23
0.0000000000
33
0.0000000000
40
0.0000000000
40
0.0000000000
40
0.0000000000
40
0.0000000000
40
0.1250033682
40
0.2500000664
40
0.3750020219
40
0.5000000000
40
0.6249979781
40
0.7499999336
40
0.8749966318
40
1.0000000000
40
1.0000000000
40
1.0000000000
40
1.0000000000
10
-11.0000000000
20
15.4001332693
30
0.0000000000
10
-11.0000000000
20
15.6288381688
30
0.0000000000
10
-10.9548803175
20
16.0875033116
30
0.0000000000
10
-10.7544386390
20
16.7480786397
30
0.0000000000
10
-10.4289397999
20
17.3571175887
30
0.0000000000
10
-9.9908788010
20
17.8908788010
30
0.0000000000
10
-9.4571175887
20
18.3289397999
30
0.0000000000
10
-8.8480786397
20
18.6544386390
30
0.0000000000
10
-8.1875033116
20
18.8548803175
30
0.0000000000
10
-7.7288381688
20
18.9000000000
30
0.0000000000
10
-7.5001332693
20
18.9000000000
30
0.0000000000
11
-11.0000000000
21
15.4001332693
31
0.0000000000
11
-10.9327510785
21
16.0829443428
31
0.0000000000
11
-10.7335989104
21
16.7394818951
31
0.0000000000
11
-10.4101754762
21
17.3445769468
31
0.0000000000
11
-9.9749289346
21
17.8749289346
31
0.0000000000
11
-9.4445769468
21
18.3101754762
31
0.0000000000
11
-8.8394818951
21
18.6335989104
31
0.0000000000
11
-8.1829443428
21
18.8327510785
31
0.0000000000
11
-7.5001332693
21
18.9000000000
31
0.0000000000
0
SPLINE
5
41D
100
AcDbEntity
8
0
100
AcDbSpline
62
7
6
CONTINUOUS
70
0
71
3
72
15
73
11
74
9
42
0.0000001000
43
0.0000001000
44
0.0000000001
12
-5.4887696904
22
0.0000000000
32
0.0000000000
13
0.0000000000
23
5.4887696904
33
0.0000000000
40
0.0000000000
40
0.0000000000
40
0.0000000000
40
0.0000000000
40
0.1250033682
40
0.2500000664
40
0.3750020219
40
0.5000000000
40
0.6249979781
40
0.7499999336
40
0.8749966318
40
1.0000000000
40
1.0000000000
40
1.0000000000
40
1.0000000000
10
-7.5001332693
20
-18.9000000000
30
0.0000000000
10
-7.7288381688
20
-18.9000000000
30
0.0000000000
10
-8.1875033116
20
-18.8548803175
30
0.0000000000
10
-8.8480786397
20
-18.6544386390
30
0.0000000000
10
-9.4571175887
20
-18.3289397999
30
0.0000000000
10
-9.9908788010
20
-17.8908788010
30
0.0000000000
10
-10.4289397999
20
-17.3571175887
30
0.0000000000
10
-10.7544386390
20
-16.7480786397
30
0.0000000000
10
-10.9548803175
20
-16.0875033116
30
0.0000000000
10
-11.0000000000
20
-15.6288381688
30
0.0000000000
10
-11.0000000000
20
-15.4001332693
30
0.0000000000
11
-7.5001332693
21
-18.9000000000
31
0.0000000000
11
-8.1829443428
21
-18.8327510785
31
0.0000000000
11
-8.8394818951
21
-18.6335989104
31
0.0000000000
11
-9.4445769468
21
-18.3101754762
31
0.0000000000
11
-9.9749289346
21
-17.8749289346
31
0.0000000000
11
-10.4101754762
21
-17.3445769468
31
0.0000000000
11
-10.7335989104
21
-16.7394818951
31
0.0000000000
11
-10.9327510785
21
-16.0829443428
31
0.0000000000
11
-11.0000000000
21
-15.4001332693
31
0.0000000000
0
SPLINE
5
41E
100
AcDbEntity
8
0
100
AcDbSpline
62
7
6
CONTINUOUS
70
0
71
3
72
15
73
11
74
9
42
0.0000001000
43
0.0000001000
44
0.0000000001
12
0.0000000000
22
-5.4887696904
32
0.0000000000
13
-5.4887696904
23
0.0000000000
33
0.0000000000
40
0.0000000000
40
0.0000000000
40
0.0000000000
40
0.0000000000
40
0.1250033682
40
0.2500000664
40
0.3750020219
40
0.5000000000
40
0.6249979781
40
0.7499999336
40
0.8749966318
40
1.0000000000
40
1.0000000000
40
1.0000000000
40
1.0000000000
10
11.0000000000
20
-15.4001332693
30
0.0000000000
10
11.0000000000
20
-15.6288381688
30
0.0000000000
10
10.9548803175
20
-16.0875033116
30
0.0000000000
10
10.7544386390
20
-16.7480786397
30
0.0000000000
10
10.4289397999
20
-17.3571175887
30
0.0000000000
10
9.9908788010
20
-17.8908788010
30
0.0000000000
10
9.4571175887
20
-18.3289397999
30
0.0000000000
10
8.8480786397
20
-18.6544386390
30
0.0000000000
10
8.1875033116
20
-18.8548803175
30
0.0000000000
10
7.7288381688
20
-18.9000000000
30
0.0000000000
10
7.5001332693
20
-18.9000000000
30
0.0000000000
11
11.0000000000
21
-15.4001332693
31
0.0000000000
11
10.9327510785
21
-16.0829443428
31
0.0000000000
11
10.7335989104
21
-16.7394818951
31
0.0000000000
11
10.4101754762
21
-17.3445769468
31
0.0000000000
11
9.9749289346
21
-17.8749289346
31
0.0000000000
11
9.4445769468
21
-18.3101754762
31
0.0000000000
11
8.8394818951
21
-18.6335989104
31
0.0000000000
11
8.1829443428
21
-18.8327510785
31
0.0000000000
11
7.5001332693
21
-18.9000000000
31
0.0000000000
0
SPLINE
5
41F
100
AcDbEntity
8
0
100
AcDbSpline
62
9
6
CONTINUOUS
70
0
71
3
72
12
73
8
74
6
42
0.0000001000
43
0.0000001000
44
0.0000000001
12
0.0000000000
22
0.7821574339
32
0.0000000000
13
-0.7821574339
23
-0.0000000000
33
0.0000000000
40
0.0000000000
40
0.0000000000
40
0.0000000000
40
0.0000000000
40
0.1999963786
40
0.3999941405
40
0.5999941405
40
0.7999963786
40
1.0000000000
40
1.0000000000
40
1.0000000000
40
1.0000000000
10
-2.7500000000
20
18.2952585473
30
0.0000000000
10
-2.7500000000
20
18.3474014321
30
0.0000000000
10
-2.7665872440
20
18.4524226293
30
0.0000000000
10
-2.8387761212
20
18.5939883770
30
0.0000000000
10
-2.9512602854
20
18.7064678231
30
0.0000000000
10
-3.0928310432
20
18.7786531801
30
0.0000000000
10
-3.1978552269
20
18.7952395089
30
0.0000000000
10
-3.2500000000
20
18.7952395089
30
0.0000000000
11
-2.7500000000
21
18.2952585473
31
0.0000000000
11
-2.7744717419
21
18.4497611613
31
0.0000000000
11
-2.8454915028
21
18.5891399830
31
0.0000000000
11
-2.9561073739
21
18.6997516421
31
0.0000000000
11
-3.0954915028
21
18.7707686988
31
0.0000000000
11
-3.2500000000
21
18.7952395089
31
0.0000000000
0
SPLINE
5
420
100
AcDbEntity
8
0
100
AcDbSpline
62
7
6
CONTINUOUS
70
0
71
3
72
13
73
9
74
7
42
0.0000001000
43
0.0000001000
44
0.0000000001
12
0.0000000000
22
-0.8408283632
32
0.0000000000
13
0.5427523746
23
-0.6421932701
33
0.0000000000
40
0.0000000000
40
0.0000000000
40
0.0000000000
40
0.0000000000
40
0.0617585240
40
0.1683251169
40
0.3186464873
40
0.5092801240
40
0.7386285052
40
1.0000000000
40
1.0000000000
40
1.0000000000
40
1.0000000000
10
6.2500000000
20
17.4774686728
30
0.0000000000
10
6.2500000000
20
17.4601592333
30
0.0000000000
10
6.2699249599
20
17.4150870566
30
0.0000000000
10
6.3169570810
20
17.3403817718
30
0.0000000000
10
6.3921779797
20
17.2392845987
30
0.0000000000
10
6.4918447758
20
17.1145654273
30
0.0000000000
10
6.6139428150
20
16.9676266930
30
0.0000000000
10
6.7027133335
20
16.8625986179
30
0.0000000000
10
6.7500000000
20
16.8066482796
30
0.0000000000
11
6.2500000000
21
17.4774686728
31
0.0000000000
11
6.2652832240
21
17.4278403206
31
0.0000000000
11
6.3114044233
21
17.3510174717
31
0.0000000000
11
6.3858447228
21
17.2488695186
31
0.0000000000
11
6.4854629905
21
17.1232942865
31
0.0000000000
11
6.6083864473
21
16.9747072703
31
0.0000000000
11
6.7500000000
21
16.8066482796
31
0.0000000000
0
SPLINE
5
421
100
AcDbEntity
8
0
100
AcDbSpline
62
9
6
CONTINUOUS
70
0
71
3
72
8
73
4
74
2
42
0.0000001000
43
0.0000001000
44
0.0000000001
12
0.0322437285
22
0.0000000000
32
0.0000000000
13
0.0322629715
23
-0.0010494472
33
0.0000000000
40
0.0000000000
40
0.0000000000
40
0.0000000000
40
0.0000000000
40
1.0000000000
40
1.0000000000
40
1.0000000000
40
1.0000000000
10
9.7686999252
20
-9.0000000000
30
0.0000000000
10
9.7794478347
20
-9.0000000000
30
0.0000000000
10
9.7902022637
20
-9.0001752759
30
0.0000000000
10
9.8009565876
20
-9.0005250917
30
0.0000000000
11
9.7686999252
21
-9.0000000000
31
0.0000000000
11
9.8009565876
21
-9.0005250917
31
0.0000000000
0
SPLINE
5
422
100
AcDbEntity
8
0
100
AcDbSpline
62
9
6
CONTINUOUS
70
0
71
3
72
13
73
9
74
7
42
0.0000001000
43
0.0000001000
44
0.0000000001
12
1.5349562702
22
-0.0499289266
32
0.0000000000
13
0.0000000000
23
-1.5340407580
33
0.0000000000
40
0.0000000000
40
0.0000000000
40
0.0000000000
40
0.0000000000
40
0.1491478528
40
0.3193153655
40
0.4894843305
40
0.6596549726
40
0.8298270670
40
1.0000000000
40
1.0000000000
40
1.0000000000
40
1.0000000000
10
9.8009565876
20
-9.0005250917
30
0.0000000000
10
9.8772683982
20
-9.0030073557
30
0.0000000000
10
10.0406354273
20
-9.0271371606
30
0.0000000000
10
10.2743952636
20
-9.1240279942
30
0.0000000000
10
10.4839122623
20
-9.2847623050
30
0.0000000000
10
10.6446396890
20
-9.4942874090
30
0.0000000000
10
10.7456864025
20
-9.7380936616
30
0.0000000000
10
10.7686618482
20
-9.9129825950
30
0.0000000000
10
10.7686618482
20
-10.0000000000
30
0.0000000000
11
9.8009565876
21
-9.0005250917
31
0.0000000000
11
10.0275091152
21
-9.0340741737
31
0.0000000000
11
10.2686808867
21
-9.1339745962
31
0.0000000000
11
10.4757797819
21
-9.2928932188
31
0.0000000000
11
10.6346923533
21
-9.5000000000
31
0.0000000000
11
10.7345889720
21
-9.7411809549
31
0.0000000000
11
10.7686618482
21
-10.0000000000
31
0.0000000000
0
SPLINE
5
423
100
AcDbEntity
8
0
100
AcDbSpline
62
7
6
CONTINUOUS
70
0
71
3
72
13
73
9
74
7
42
0.0000001000
43
0.0000001000
44
0.0000000001
12
0.0000000000
22
0.8408283632
32
0.0000000000
13
-0.5427523746
23
0.6421932701
33
0.0000000000
40
0.0000000000
40
0.0000000000
40
0.0000000000
40
0.0000000000
40
0.0617585240
40
0.1683251169
40
0.3186464873
40
0.5092801240
40
0.7386285052
40
1.0000000000
40
1.0000000000
40
1.0000000000
40
1.0000000000
10
-2.7500000000
20
-17.4774686728
30
0.0000000000
10
-2.7500000000
20
-17.4601592333
30
0.0000000000
10
-2.7699249599
20
-17.4150870566
30
0.0000000000
10
-2.8169570810
20
-17.3403817718
30
0.0000000000
10
-2.8921779797
20
-17.2392845987
30
0.0000000000
10
-2.9918447758
20
-17.1145654273
30
0.0000000000
10
-3.1139428150
20
-16.9676266930
30
0.0000000000
10
-3.2027133335
20
-16.8625986179
30
0.0000000000
10
-3.2500000000
20
-16.8066482796
30
0.0000000000
11
-2.7500000000
21
-17.4774686728
31
0.0000000000
11
-2.7652832240
21
-17.4278403206
31
0.0000000000
11
-2.8114044233
21
-17.3510174717
31
0.0000000000
11
-2.8858447228
21
-17.2488695186
31
0.0000000000
11
-2.9854629905
21
-17.1232942865
31
0.0000000000
11
-3.1083864473
21
-16.9747072703
31
0.0000000000
11
-3.2500000000
21
-16.8066482796
31
0.0000000000
0
SPLINE
5
424
100
AcDbEntity
8
0
100
AcDbSpline
62
7
6
CONTINUOUS
70
0
71
3
72
13
73
9
74
7
42
0.0000001000
43
0.0000001000
44
0.0000000001
12
0.0000000000
22
1.0001164997
32
0.0000000000
13
1.0001164997
23
-0.0000000000
33
0.0000000000
40
0.0000000000
40
0.0000000000
40
0.0000000000
40
0.0000000000
40
0.0346690805
40
0.1354705628
40
0.2952724521
40
0.5025163697
40
0.7431515719
40
1.0000000000
40
1.0000000000
40
1.0000000000
40
1.0000000000
10
-2.5000000000
20
-18.8678924911
30
0.0000000000
10
-2.5000000000
20
-18.8563347846
30
0.0000000000
10
-2.4273894488
20
-18.8786815570
30
0.0000000000
10
-2.3545942466
20
-18.8545968528
30
0.0000000000
10
-2.1849357844
20
-18.8648833296
30
0.0000000000
10
-1.9878297049
20
-18.8588151137
30
0.0000000000
10
-1.7510106637
20
-18.8596331413
30
0.0000000000
10
-1.5856261170
20
-18.8590446123
30
0.0000000000
10
-1.5000000000
20
-18.8590446123
30
0.0000000000
11
-2.5000000000
21
-18.8678924911
31
0.0000000000
11
-2.4654037260
21
-18.8655853205
31
0.0000000000
11
-2.3646131810
21
-18.8634469797
31
0.0000000000
11
-2.2048031660
21
-18.8616157801
31
0.0000000000
11
-1.9975398212
21
-18.8602174771
31
0.0000000000
11
-1.7568781793
21
-18.8593415136
31
0.0000000000
11
-1.5000000000
21
-18.8590446123
31
0.0000000000
0
SPLINE
5
425
100
AcDbEntity
8
0
100
AcDbSpline
62
9
6
CONTINUOUS
70
0
71
3
72
24
73
20
74
18
42
0.0000001000
43
0.0000001000
44
0.0000000001
12
-0.1093999701
22
10.0006719774
32
0.0000000000
13
-0.1127442365
23
-10.0006348343
33
0.0000000000
40
0.0000000000
40
0.0000000000
40
0.0000000000
40
0.0000000000
40
0.0085238851
40
0.0338120145
40
0.0749481373
40
0.1305418268
40
0.1987241121
40
0.2771647668
40
0.3631892161
40
0.4538751195
40
0.5461294352
40
0.6368148765
40
0.7228387590
40
0.8012787667
40
0.8694604321
40
0.9250534684
40
0.9661887402
40
0.9914764541
40
1.0000000000
40
1.0000000000
40
1.0000000000
40
1.0000000000
10
6.7500000000
20
18.7952395089
30
0.0000000000
10
6.7496891624
20
18.8236543684
30
0.0000000000
10
6.5698722821
20
18.7734595820
30
0.0000000000
10
6.3840549502
20
18.8330559219
30
0.0000000000
10
5.9419471059
20
18.8102915944
30
0.0000000000
10
5.4071194272
20
18.8287573637
30
0.0000000000
10
4.7275508244
20
18.8294396721
30
0.0000000000
10
3.9537804387
20
18.8350361396
30
0.0000000000
10
3.1026112006
20
18.8373951524
30
0.0000000000
10
2.2061238974
20
18.8389580843
30
0.0000000000
10
1.2938320951
20
18.8389580483
30
0.0000000000
10
0.3973481710
20
18.8373950518
30
0.0000000000
10
-0.4538152909
20
18.8350359844
30
0.0000000000
10
-1.2275801813
20
18.8294394958
30
0.0000000000
10
-1.9071405105
20
18.8287571080
30
0.0000000000
10
-2.4419663059
20
18.8102915495
30
0.0000000000
10
-2.8840551552
20
18.8330551791
30
0.0000000000
10
-3.0698900491
20
18.7734602875
30
0.0000000000
10
-3.2496796731
20
18.8236531321
30
0.0000000000
10
-3.2500000000
20
18.7952395089
30
0.0000000000
11
6.7500000000
21
18.7952395089
31
0.0000000000
11
6.6651270575
21
18.8032452204
31
0.0000000000
11
6.4123326349
21
18.8110026211
31
0.0000000000
11
6.0009823130
21
18.8182114812
31
0.0000000000
11
5.4450119135
21
18.8246360766
31
0.0000000000
11
4.7631240238
21
18.8300607839
31
0.0000000000
11
3.9786292824
21
18.8342996373
31
0.0000000000
11
3.1182804259
21
18.8372082203
31
0.0000000000
11
2.2113073972
21
18.8386877392
31
0.0000000000
11
1.2886470459
21
18.8386877022
31
0.0000000000
11
0.3816786394
21
18.8372081180
31
0.0000000000
11
-0.4786645490
21
18.8342994829
31
0.0000000000
11
-1.2631528191
21
18.8300605925
31
0.0000000000
11
-1.9450345086
21
18.8246358574
31
0.0000000000
11
-2.5009983742
21
18.8182112523
31
0.0000000000
11
-2.9123401845
21
18.8110024400
31
0.0000000000
11
-3.1651304508
21
18.8032450677
31
0.0000000000
11
-3.2500000000
21
18.7952395089
31
0.0000000000
0
SPLINE
5
426
100
AcDbEntity
8
0
100
AcDbSpline
62
7
6
CONTINUOUS
70
0
71
3
72
10
73
6
74
4
42
0.0000001000
43
0.0000001000
44
0.0000000001
12
0.3464688260
22
-0.3604987553
32
0.0000000000
13
0.3495322647
23
-0.3575292938
33
0.0000000000
40
0.0000000000
40
0.0000000000
40
0.0000000000
40
0.0000000000
40
0.3106055560
40
0.6494381171
40
1.0000000000
40
1.0000000000
40
1.0000000000
40
1.0000000000
10
0.6464466094
20
8.8535533906
30
0.0000000000
10
0.6823183235
20
8.8162290851
30
0.0000000000
10
0.7600174889
20
8.7408318416
30
0.0000000000
10
0.8771126202
20
8.6222373246
30
0.0000000000
10
0.9591557704
20
8.5417787141
30
0.0000000000
10
1.0000000000
20
8.5000000000
30
0.0000000000
11
0.6464466094
21
8.8535533906
31
0.0000000000
11
0.7562622569
21
8.7437377431
31
0.0000000000
11
0.8760576577
21
8.6239423423
31
0.0000000000
11
1.0000000000
21
8.5000000000
31
0.0000000000
0
SPLINE
5
427
100
AcDbEntity
8
0
100
AcDbSpline
62
9
6
CONTINUOUS
70
0
71
3
72
12
73
8
74
6
42
0.0000001000
43
0.0000001000
44
0.0000000001
12
0.0000000000
22
0.7821574339
32
0.0000000000
13
0.7821574339
23
0.0000000000
33
0.0000000000
40
0.0000000000
40
0.0000000000
40
0.0000000000
40
0.0000000000
40
0.1999954461
40
0.3999925415
40
0.5999923670
40
0.7999951007
40
1.0000000000
40
1.0000000000
40
1.0000000000
40
1.0000000000
10
6.2500000000
20
18.2952585473
30
0.0000000000
10
6.2500000000
20
18.3474011890
30
0.0000000000
10
6.2665870976
20
18.4524219592
30
0.0000000000
10
6.3387754686
20
18.5939874188
30
0.0000000000
10
6.4512592641
20
18.7064670974
30
0.0000000000
10
6.5928302337
20
18.7786529963
30
0.0000000000
10
6.6978548937
20
18.7952395088
30
0.0000000000
10
6.7500000000
20
18.7952395088
30
0.0000000000
11
6.2500000000
21
18.2952585473
31
0.0000000000
11
6.2744715137
21
18.4497604590
31
0.0000000000
11
6.3454907585
21
18.5891389585
31
0.0000000000
11
6.4561062377
21
18.6997508166
31
0.0000000000
11
6.5954905404
21
18.7707683861
31
0.0000000000
11
6.7500000000
21
18.7952395088
31
0.0000000000
0
SPLINE
5
428
100
AcDbEntity
8
0
100
AcDbSpline
62
9
6
CONTINUOUS
70
0
71
3
72
8
73
4
74
2
42
0.0000001000
43
0.0000001000
44
0.0000000001
12
0.0000000000
22
-0.1564286543
32
0.0000000000
13
-0.0485344457
23
-0.1495479366
33
0.0000000000
40
0.0000000000
40
0.0000000000
40
0.0000000000
40
0.0000000000
40
1.0000000000
40
1.0000000000
40
1.0000000000
40
1.0000000000
10
-2.7500000000
20
-18.1686808867
30
0.0000000000
10
-2.7500000000
20
-18.2208237715
30
0.0000000000
10
-2.7582935933
20
-18.2733341885
30
0.0000000000
10
-2.7744717419
20
-18.3231835007
30
0.0000000000
11
-2.7500000000
21
-18.1686808867
31
0.0000000000
11
-2.7744717419
21
-18.3231835007
31
0.0000000000
0
SPLINE
5
429
100
AcDbEntity
8
0
100
AcDbSpline
62
9
6
CONTINUOUS
70
0
71
3
72
11
73
7
74
5
42
0.0000001000
43
0.0000001000
44
0.0000000001
12
-0.1941421769
22
-0.5982052859
32
0.0000000000
13
-0.6257287796
23
0.0000000000
33
0.0000000000
40
0.0000000000
40
0.0000000000
40
0.0000000000
40
0.0000000000
40
0.2499960706
40
0.4999949390
40
0.7499966051
40
1.0000000000
40
1.0000000000
40
1.0000000000
40
1.0000000000
10
-2.7744717419
20
-18.3231835007
30
0.0000000000
10
-2.7906500023
20
-18.3730331577
30
0.0000000000
10
-2.8387761212
20
-18.4674107164
30
0.0000000000
10
-2.9512602854
20
-18.5798901625
30
0.0000000000
10
-3.0928310432
20
-18.6520755195
30
0.0000000000
10
-3.1978552269
20
-18.6686618482
30
0.0000000000
10
-3.2500000000
20
-18.6686618482
30
0.0000000000
11
-2.7744717419
21
-18.3231835007
31
0.0000000000
11
-2.8454915028
21
-18.4625623223
31
0.0000000000
11
-2.9561073739
21
-18.5731739815
31
0.0000000000
11
-3.0954915029
21
-18.6441910382
31
0.0000000000
11
-3.2500000000
21
-18.6686618482
31
0.0000000000
0
SPLINE
5
42A
100
AcDbEntity
8
0
100
AcDbSpline
62
7
6
CONTINUOUS
70
0
71
3
72
13
73
9
74
7
42
0.0000001000
43
0.0000001000
44
0.0000000001
12
0.0000000000
22
-1.0001164997
32
0.0000000000
13
-1.0001164997
23
0.0000000000
33
0.0000000000
40
0.0000000000
40
0.0000000000
40
0.0000000000
40
0.0000000000
40
0.0346690805
40
0.1354705628
40
0.2952724521
40
0.5025163697
40
0.7431515719
40
1.0000000000
40
1.0000000000
40
1.0000000000
40
1.0000000000
10
2.5000000000
20
18.8678924911
30
0.0000000000
10
2.5000000000
20
18.8563347846
30
0.0000000000
10
2.4273894488
20
18.8786815570
30
0.0000000000
10
2.3545942466
20
18.8545968528
30
0.0000000000
10
2.1849357844
20
18.8648833296
30
0.0000000000
10
1.9878297049
20
18.8588151137
30
0.0000000000
10
1.7510106637
20
18.8596331413
30
0.0000000000
10
1.5856261170
20
18.8590446123
30
0.0000000000
10
1.5000000000
20
18.8590446123
30
0.0000000000
11
2.5000000000
21
18.8678924911
31
0.0000000000
11
2.4654037260
21
18.8655853205
31
0.0000000000
11
2.3646131810
21
18.8634469797
31
0.0000000000
11
2.2048031660
21
18.8616157801
31
0.0000000000
11
1.9975398212
21
18.8602174770
31
0.0000000000
11
1.7568781793
21
18.8593415136
31
0.0000000000
11
1.5000000000
21
18.8590446123
31
0.0000000000
0
SPLINE
5
42B
100
AcDbEntity
8
0
100
AcDbSpline
62
9
6
CONTINUOUS
70
0
71
3
72
11
73
7
74
5
42
0.0000001000
43
0.0000001000
44
0.0000000001
12
-0.1484576394
22
1.2928816201
32
0.0000000000
13
0.1484580830
23
1.2928815692
33
0.0000000000
40
0.0000000000
40
0.0000000000
40
0.0000000000
40
0.0000000000
40
0.2541758108
40
0.4997289978
40
0.7454305589
40
1.0000000000
40
1.0000000000
40
1.0000000000
40
1.0000000000
10
1.0000000000
20
3.3506796369
30
0.0000000000
10
0.9874218864
20
3.4602193816
30
0.0000000000
10
0.9685301379
20
3.6763113161
30
0.0000000000
10
0.9590844499
20
3.9997113400
30
0.0000000000
10
0.9684993873
20
4.3232833928
30
0.0000000000
10
0.9874023696
20
4.5396109836
30
0.0000000000
10
1.0000000000
20
4.6493203631
30
0.0000000000
11
1.0000000000
21
3.3506796369
31
0.0000000000
11
0.9714533214
21
3.6802241234
31
0.0000000000
11
0.9621910243
21
3.9996471755
31
0.0000000000
11
0.9714238140
21
4.3192642531
31
0.0000000000
11
1.0000000000
21
4.6493203631
31
0.0000000000
0
SPLINE
5
42C
100
AcDbEntity
8
0
100
AcDbSpline
62
9
6
CONTINUOUS
70
0
71
3
72
11
73
7
74
5
42
0.0000001000
43
0.0000001000
44
0.0000000001
12
-0.1484576394
22
1.2928816201
32
0.0000000000
13
0.1484580830
23
1.2928815692
33
0.0000000000
40
0.0000000000
40
0.0000000000
40
0.0000000000
40
0.0000000000
40
0.2541758108
40
0.4997289978
40
0.7454305589
40
1.0000000000
40
1.0000000000
40
1.0000000000
40
1.0000000000
10
1.0000000000
20
-4.6493203631
30
0.0000000000
10
0.9874218864
20
-4.5397806184
30
0.0000000000
10
0.9685301379
20
-4.3236886839
30
0.0000000000
10
0.9590844499
20
-4.0002886600
30
0.0000000000
10
0.9684993873
20
-3.6767166072
30
0.0000000000
10
0.9874023696
20
-3.4603890164
30
0.0000000000
10
1.0000000000
20
-3.3506796369
30
0.0000000000
11
1.0000000000
21
-4.6493203631
31
0.0000000000
11
0.9714533214
21
-4.3197758766
31
0.0000000000
11
0.9621910243
21
-4.0003528245
31
0.0000000000
11
0.9714238140
21
-3.6807357469
31
0.0000000000
11
1.0000000000
21
-3.3506796369
31
0.0000000000
0
SPLINE
5
42D
100
AcDbEntity
8
0
100
AcDbSpline
62
9
6
CONTINUOUS
70
0
71
3
72
8
73
4
74
2
42
0.0000001000
43
0.0000001000
44
0.0000000001
12
0.0000000000
22
0.1564286543
32
0.0000000000
13
0.0485344457
23
0.1495479366
33
0.0000000000
40
0.0000000000
40
0.0000000000
40
0.0000000000
40
0.0000000000
40
1.0000000000
40
1.0000000000
40
1.0000000000
40
1.0000000000
10
6.2500000000
20
18.1686808867
30
0.0000000000
10
6.2500000000
20
18.2208237715
30
0.0000000000
10
6.2582935933
20
18.2733341885
30
0.0000000000
10
6.2744717419
20
18.3231835007
30
0.0000000000
11
6.2500000000
21
18.1686808867
31
0.0000000000
11
6.2744717419
21
18.3231835007
31
0.0000000000
0
SPLINE
5
42E
100
AcDbEntity
8
0
100
AcDbSpline
62
9
6
CONTINUOUS
70
0
71
3
72
11
73
7
74
5
42
0.0000001000
43
0.0000001000
44
0.0000000001
12
0.1941421769
22
0.5982052859
32
0.0000000000
13
0.6257287796
23
0.0000000000
33
0.0000000000
40
0.0000000000
40
0.0000000000
40
0.0000000000
40
0.0000000000
40
0.2499960706
40
0.4999949390
40
0.7499966051
40
1.0000000000
40
1.0000000000
40
1.0000000000
40
1.0000000000
10
6.2744717419
20
18.3231835007
30
0.0000000000
10
6.2906500023
20
18.3730331577
30
0.0000000000
10
6.3387761212
20
18.4674107164
30
0.0000000000
10
6.4512602854
20
18.5798901625
30
0.0000000000
10
6.5928310432
20
18.6520755195
30
0.0000000000
10
6.6978552269
20
18.6686618482
30
0.0000000000
10
6.7500000000
20
18.6686618482
30
0.0000000000
11
6.2744717419
21
18.3231835007
31
0.0000000000
11
6.3454915028
21
18.4625623223
31
0.0000000000
11
6.4561073739
21
18.5731739815
31
0.0000000000
11
6.5954915029
21
18.6441910382
31
0.0000000000
11
6.7500000000
21
18.6686618482
31
0.0000000000
0
SPLINE
5
42F
100
AcDbEntity
8
0
100
AcDbSpline
62
7
6
CONTINUOUS
70
0
71
3
72
10
73
6
74
4
42
0.0000001000
43
0.0000001000
44
0.0000000001
12
-0.3495322647
22
-0.3575292938
32
0.0000000000
13
-0.3464688260
23
-0.3604987553
33
0.0000000000
40
0.0000000000
40
0.0000000000
40
0.0000000000
40
0.0000000000
40
0.3505618829
40
0.6893944440
40
1.0000000000
40
1.0000000000
40
1.0000000000
40
1.0000000000
10
1.0000000000
20
-8.5000000000
30
0.0000000000
10
0.9591557704
20
-8.5417787141
30
0.0000000000
10
0.8771126202
20
-8.6222373246
30
0.0000000000
10
0.7600174889
20
-8.7408318416
30
0.0000000000
10
0.6823183235
20
-8.8162290851
30
0.0000000000
10
0.6464466094
20
-8.8535533906
30
0.0000000000
11
1.0000000000
21
-8.5000000000
31
0.0000000000
11
0.8760576577
21
-8.6239423423
31
0.0000000000
11
0.7562622569
21
-8.7437377431
31
0.0000000000
11
0.6464466094
21
-8.8535533906
31
0.0000000000
0
SPLINE
5
430
100
AcDbEntity
8
0
100
AcDbSpline
62
9
6
CONTINUOUS
70
0
71
3
72
15
73
11
74
9
42
0.0000001000
43
0.0000001000
44
0.0000000001
12
-3.9205497581
22
-0.0005228712
32
0.0000000000
13
-0.0005647281
23
-3.9205497523
33
0.0000000000
40
0.0000000000
40
0.0000000000
40
0.0000000000
40
0.0000000000
40
0.1248404856
40
0.2498946956
40
0.3749725519
40
0.5000474634
40
0.6251166214
40
0.7501864153
40
0.8752332160
40
1.0000000000
40
1.0000000000
40
1.0000000000
40
1.0000000000
10
-7.2687951175
20
17.6686999252
30
0.0000000000
10
-7.4319428960
20
17.6686781667
30
0.0000000000
10
-7.7594202737
20
17.6365426043
30
0.0000000000
10
-8.2312549366
20
17.4934600466
30
0.0000000000
10
-8.6665563743
20
17.2608821749
30
0.0000000000
10
-9.0480395447
20
16.9477843816
30
0.0000000000
10
-9.3610756873
20
16.5662642108
30
0.0000000000
10
-9.5935783861
20
16.1309553089
30
0.0000000000
10
-9.7365745570
20
15.6592166714
30
0.0000000000
10
-9.7686764387
20
15.3318465789
30
0.0000000000
10
-9.7686999252
20
15.1687951175
30
0.0000000000
11
-7.2687951175
21
17.6686999252
31
0.0000000000
11
-7.7558881618
21
17.6207922090
31
0.0000000000
11
-8.2250884532
21
17.4785712624
31
0.0000000000
11
-8.6575868052
21
17.2474613325
31
0.0000000000
11
-9.0366383295
21
16.9363741371
31
0.0000000000
11
-9.3476560821
21
16.5572948086
31
0.0000000000
11
-9.5786917954
21
16.1247926420
31
0.0000000000
11
-9.7208490716
21
15.6556034086
31
0.0000000000
11
-9.7686999252
21
15.1687951175
31
0.0000000000
0
SPLINE
5
431
100
AcDbEntity
8
0
100
AcDbSpline
62
9
6
CONTINUOUS
70
0
71
3
72
15
73
11
74
9
42
0.0000001000
43
0.0000001000
44
0.0000000001
12
-5.4887267685
22
-0.0004497213
32
0.0000000000
13
-0.0004870449
23
-5.4887267653
33
0.0000000000
40
0.0000000000
40
0.0000000000
40
0.0000000000
40
0.0000000000
40
0.1250162113
40
0.2500006790
40
0.3750036352
40
0.5000007787
40
0.6249978164
40
0.7500009745
40
0.8749856460
40
1.0000000000
40
1.0000000000
40
1.0000000000
40
1.0000000000
10
-7.2687951175
20
18.6686618482
30
0.0000000000
10
-7.4975217259
20
18.6686431074
30
0.0000000000
10
-7.9561838099
20
18.6235284484
30
0.0000000000
10
-8.6167491813
20
18.4230589279
30
0.0000000000
10
-9.2257584465
20
18.0975655420
30
0.0000000000
10
-9.7595106870
20
17.6595048613
30
0.0000000000
10
-10.1975703966
20
17.1257512845
30
0.0000000000
10
-10.5230623159
20
16.5167407313
30
0.0000000000
10
-10.7235301518
20
15.8561773288
30
0.0000000000
10
-10.7686415524
20
15.3975183278
30
0.0000000000
10
-10.7686618482
20
15.1687951175
30
0.0000000000
11
-7.2687951175
21
18.6686618482
31
0.0000000000
11
-7.9516688262
21
18.6013844103
31
0.0000000000
11
-8.6081308762
21
18.4022330747
31
0.0000000000
11
-9.2132209628
21
18.0788000761
31
0.0000000000
11
-9.7435622790
21
17.6435562057
31
0.0000000000
11
-10.1788045238
21
17.1132143059
31
0.0000000000
11
-10.5022365638
21
16.5081224510
31
0.0000000000
11
-10.7013864085
21
15.8516587799
31
0.0000000000
11
-10.7686618482
21
15.1687951175
31
0.0000000000
0
SPLINE
5
432
100
AcDbEntity
8
0
100
AcDbSpline
62
9
6
CONTINUOUS
70
0
71
3
72
24
73
20
74
18
42
0.0000001000
43
0.0000001000
44
0.0000000001
12
-0.0223546615
22
9.0013813491
32
0.0000000000
13
-0.0238505972
23
-9.0006508103
33
0.0000000000
40
0.0000000000
40
0.0000000000
40
0.0000000000
40
0.0000000000
40
0.0085391475
40
0.0338336398
40
0.0749732666
40
0.1305671561
40
0.1987469398
40
0.2771825976
40
0.3632000197
40
0.4538774376
40
0.5461228489
40
0.6368002684
40
0.7228176878
40
0.8012533244
40
0.8694331437
40
0.9250270137
40
0.9661664125
40
0.9914609725
40
1.0000000000
40
1.0000000000
40
1.0000000000
40
1.0000000000
10
6.2499999948
20
18.2952564655
30
0.0000000000
10
6.2499363649
20
18.3208778400
30
0.0000000000
10
6.0876440386
20
18.2774918294
30
0.0000000000
10
5.9206886335
20
18.3305724701
30
0.0000000000
10
5.5225803749
20
18.3114207284
30
0.0000000000
10
5.0412987495
20
18.3283616112
30
0.0000000000
10
4.4296680724
20
18.3296003234
30
0.0000000000
10
3.7333087439
20
18.3350114911
30
0.0000000000
10
2.9672934998
20
18.3374270954
30
0.0000000000
10
2.1605053712
20
18.3389744227
30
0.0000000000
10
1.3394942225
20
18.3389744217
30
0.0000000000
10
0.5327060863
20
18.3374270937
30
0.0000000000
10
-0.2333090506
20
18.3350114861
30
0.0000000000
10
-0.9296685457
20
18.3296003235
30
0.0000000000
10
-1.5412988137
20
18.3283615928
30
0.0000000000
10
-2.0225809066
20
18.3114207834
30
0.0000000000
10
-2.4206859136
20
18.3305723021
30
0.0000000000
10
-2.5876452310
20
18.2774920016
30
0.0000000000
10
-2.7499321018
20
18.3208775162
30
0.0000000000
10
-2.7499999888
20
18.2952585813
30
0.0000000000
11
6.2499999948
21
18.2952564655
31
0.0000000000
11
6.1735542153
21
18.3032672523
31
0.0000000000
11
5.9460003145
21
18.3110241758
31
0.0000000000
11
5.5757558666
21
18.3182325228
31
0.0000000000
11
5.0753737581
21
18.3246565676
31
0.0000000000
11
4.4616836033
21
18.3300807560
31
0.0000000000
11
3.7556648807
21
18.3343191633
31
0.0000000000
11
2.9813923359
21
18.3372274236
31
0.0000000000
11
2.1651691409
21
18.3387067844
31
0.0000000000
11
1.3348304556
21
18.3387067836
31
0.0000000000
11
0.5186072468
21
18.3372274213
31
0.0000000000
11
-0.2556652745
21
18.3343191596
31
0.0000000000
11
-0.9616838061
21
18.3300807524
31
0.0000000000
11
-1.5753742812
21
18.3246565596
31
0.0000000000
11
-2.0757562140
21
18.3182325153
31
0.0000000000
11
-2.4459986103
21
18.3110242161
31
0.0000000000
11
-2.6735531221
21
18.3032673075
31
0.0000000000
11
-2.7499999888
21
18.2952585813
31
0.0000000000
0
SPLINE
5
433
100
AcDbEntity
8
0
100
AcDbSpline
62
9
6
CONTINUOUS
70
0
71
3
72
9
73
5
74
3
42
0.0000001000
43
0.0000001000
44
0.0000000001
12
0.0490744731
22
-0.0001839247
32
0.0000000000
13
0.0060742264
23
0.0431110670
33
0.0000000000
40
0.0000000000
40
0.0000000000
40
0.0000000000
40
0.0000000000
40
0.2525350449
40
1.0000000000
40
1.0000000000
40
1.0000000000
40
1.0000000000
10
9.8009893360
20
-9.0000000000
30
0.0000000000
10
9.8051203441
20
-9.0000154825
30
0.0000000000
10
9.8017510442
20
-8.9744359979
30
0.0000000000
10
9.8051089088
20
-8.9621057291
30
0.0000000000
10
9.8066223326
20
-8.9513643919
30
0.0000000000
11
9.8009893360
21
-9.0000000000
31
0.0000000000
11
9.8038476293
21
-8.9879410047
31
0.0000000000
11
9.8066223326
21
-8.9513643919
31
0.0000000000
0
SPLINE
5
434
100
AcDbEntity
8
0
100
AcDbSpline
62
9
6
CONTINUOUS
70
0
71
3
72
12
73
8
74
6
42
0.0000001000
43
0.0000001000
44
0.0000000001
12
0.0558796411
22
0.3965988071
32
0.0000000000
13
-0.0000026036
23
0.4514621315
33
0.0000000000
40
0.0000000000
40
0.0000000000
40
0.0000000000
40
0.0000000000
40
0.1330948749
40
0.3112257761
40
0.5241676262
40
0.7586242351
40
1.0000000000
40
1.0000000000
40
1.0000000000
40
1.0000000000
10
9.8066223326
20
-8.9513643919
30
0.0000000000
10
9.8091014306
20
-8.9337693023
30
0.0000000000
10
9.8086461694
20
-8.8830574048
30
0.0000000000
10
9.8118000320
20
-8.8062504335
30
0.0000000000
10
9.8128649340
20
-8.7114035457
30
0.0000000000
10
9.8139089281
20
-8.6079849185
30
0.0000000000
10
9.8140798472
20
-8.5363240058
30
0.0000000000
10
9.8140796377
20
-8.5000000000
30
0.0000000000
11
9.8066223326
21
-8.9513643919
31
0.0000000000
11
9.8091377750
21
-8.8913297712
31
0.0000000000
11
9.8112405112
21
-8.8109379098
31
0.0000000000
11
9.8128093877
21
-8.7148155307
31
0.0000000000
11
9.8137648342
21
-8.6089715626
31
0.0000000000
11
9.8140796377
21
-8.5000000000
31
0.0000000000
0
SPLINE
5
435
100
AcDbEntity
8
0
100
AcDbSpline
62
9
6
CONTINUOUS
70
0
71
3
72
15
73
11
74
9
42
0.0000001000
43
0.0000001000
44
0.0000000001
12
0.0004497213
22
-5.4887267685
32
0.0000000000
13
5.4887267653
23
-0.0004870449
33
0.0000000000
40
0.0000000000
40
0.0000000000
40
0.0000000000
40
0.0000000000
40
0.1250162113
40
0.2500006790
40
0.3750036352
40
0.5000007787
40
0.6249978164
40
0.7500009745
40
0.8749856460
40
1.0000000000
40
1.0000000000
40
1.0000000000
40
1.0000000000
10
-10.7686618482
20
-15.1687951175
30
0.0000000000
10
-10.7686431074
20
-15.3975217259
30
0.0000000000
10
-10.7235284484
20
-15.8561838099
30
0.0000000000
10
-10.5230589279
20
-16.5167491813
30
0.0000000000
10
-10.1975655420
20
-17.1257584465
30
0.0000000000
10
-9.7595048613
20
-17.6595106870
30
0.0000000000
10
-9.2257512845
20
-18.0975703966
30
0.0000000000
10
-8.6167407313
20
-18.4230623159
30
0.0000000000
10
-7.9561773288
20
-18.6235301518
30
0.0000000000
10
-7.4975183278
20
-18.6686415524
30
0.0000000000
10
-7.2687951175
20
-18.6686618482
30
0.0000000000
11
-10.7686618482
21
-15.1687951175
31
0.0000000000
11
-10.7013844103
21
-15.8516688262
31
0.0000000000
11
-10.5022330747
21
-16.5081308762
31
0.0000000000
11
-10.1788000761
21
-17.1132209628
31
0.0000000000
11
-9.7435562057
21
-17.6435622790
31
0.0000000000
11
-9.2132143059
21
-18.0788045238
31
0.0000000000
11
-8.6081224510
21
-18.4022365638
31
0.0000000000
11
-7.9516587799
21
-18.6013864085
31
0.0000000000
11
-7.2687951175
21
-18.6686618482
31
0.0000000000
0
SPLINE
5
436
100
AcDbEntity
8
0
100
AcDbSpline
62
9
6
CONTINUOUS
70
0
71
3
72
15
73
11
74
9
42
0.0000001000
43
0.0000001000
44
0.0000000001
12
0.0005228712
22
-3.9205497581
32
0.0000000000
13
3.9205497523
23
-0.0005647281
33
0.0000000000
40
0.0000000000
40
0.0000000000
40
0.0000000000
40
0.0000000000
40
0.1248404856
40
0.2498946956
40
0.3749725519
40
0.5000474634
40
0.6251166214
40
0.7501864153
40
0.8752332160
40
1.0000000000
40
1.0000000000
40
1.0000000000
40
1.0000000000
10
-9.7686999252
20
-15.1687951175
30
0.0000000000
10
-9.7686781667
20
-15.3319428960
30
0.0000000000
10
-9.7365426043
20
-15.6594202737
30
0.0000000000
10
-9.5934600466
20
-16.1312549366
30
0.0000000000
10
-9.3608821749
20
-16.5665563743
30
0.0000000000
10
-9.0477843816
20
-16.9480395447
30
0.0000000000
10
-8.6662642108
20
-17.2610756873
30
0.0000000000
10
-8.2309553089
20
-17.4935783861
30
0.0000000000
10
-7.7592166714
20
-17.6365745570
30
0.0000000000
10
-7.4318465789
20
-17.6686764387
30
0.0000000000
10
-7.2687951175
20
-17.6686999252
30
0.0000000000
11
-9.7686999252
21
-15.1687951175
31
0.0000000000
11
-9.7207922090
21
-15.6558881618
31
0.0000000000
11
-9.5785712624
21
-16.1250884532
31
0.0000000000
11
-9.3474613325
21
-16.5575868052
31
0.0000000000
11
-9.0363741371
21
-16.9366383295
31
0.0000000000
11
-8.6572948086
21
-17.2476560821
31
0.0000000000
11
-8.2247926420
21
-17.4786917954
31
0.0000000000
11
-7.7556034086
21
-17.6208490716
31
0.0000000000
11
-7.2687951175
21
-17.6686999252
31
0.0000000000
0
SPLINE
5
437
100
AcDbEntity
8
0
100
AcDbSpline
62
9
6
CONTINUOUS
70
0
71
3
72
15
73
11
74
9
42
0.0000001000
43
0.0000001000
44
0.0000000001
12
3.9205497581
22
0.0005228712
32
0.0000000000
13
0.0005647281
23
3.9205497523
33
0.0000000000
40
0.0000000000
40
0.0000000000
40
0.0000000000
40
0.0000000000
40
0.1248404856
40
0.2498946956
40
0.3749725519
40
0.5000474634
40
0.6251166214
40
0.7501864153
40
0.8752332160
40
1.0000000000
40
1.0000000000
40
1.0000000000
40
1.0000000000
10
7.2687951175
20
-17.6686999252
30
0.0000000000
10
7.4319428960
20
-17.6686781667
30
0.0000000000
10
7.7594202737
20
-17.6365426043
30
0.0000000000
10
8.2312549366
20
-17.4934600466
30
0.0000000000
10
8.6665563743
20
-17.2608821749
30
0.0000000000
10
9.0480395447
20
-16.9477843816
30
0.0000000000
10
9.3610756873
20
-16.5662642108
30
0.0000000000
10
9.5935783861
20
-16.1309553089
30
0.0000000000
10
9.7365745570
20
-15.6592166714
30
0.0000000000
10
9.7686764387
20
-15.3318465789
30
0.0000000000
10
9.7686999252
20
-15.1687951175
30
0.0000000000
11
7.2687951175
21
-17.6686999252
31
0.0000000000
11
7.7558881618
21
-17.6207922090
31
0.0000000000
11
8.2250884532
21
-17.4785712624
31
0.0000000000
11
8.6575868052
21
-17.2474613325
31
0.0000000000
11
9.0366383295
21
-16.9363741371
31
0.0000000000
11
9.3476560821
21
-16.5572948086
31
0.0000000000
11
9.5786917954
21
-16.1247926420
31
0.0000000000
11
9.7208490716
21
-15.6556034086
31
0.0000000000
11
9.7686999252
21
-15.1687951175
31
0.0000000000
0
SPLINE
5
438
100
AcDbEntity
8
0
100
AcDbSpline
62
9
6
CONTINUOUS
70
0
71
3
72
15
73
11
74
9
42
0.0000001000
43
0.0000001000
44
0.0000000001
12
5.4887267685
22
0.0004497213
32
0.0000000000
13
0.0004870449
23
5.4887267653
33
0.0000000000
40
0.0000000000
40
0.0000000000
40
0.0000000000
40
0.0000000000
40
0.1250162113
40
0.2500006790
40
0.3750036352
40
0.5000007787
40
0.6249978164
40
0.7500009745
40
0.8749856460
40
1.0000000000
40
1.0000000000
40
1.0000000000
40
1.0000000000
10
7.2687951175
20
-18.6686618482
30
0.0000000000
10
7.4975217259
20
-18.6686431074
30
0.0000000000
10
7.9561838099
20
-18.6235284484
30
0.0000000000
10
8.6167491813
20
-18.4230589279
30
0.0000000000
10
9.2257584465
20
-18.0975655420
30
0.0000000000
10
9.7595106870
20
-17.6595048613
30
0.0000000000
10
10.1975703966
20
-17.1257512845
30
0.0000000000
10
10.5230623159
20
-16.5167407313
30
0.0000000000
10
10.7235301518
20
-15.8561773288
30
0.0000000000
10
10.7686415524
20
-15.3975183278
30
0.0000000000
10
10.7686618482
20
-15.1687951175
30
0.0000000000
11
7.2687951175
21
-18.6686618482
31
0.0000000000
11
7.9516688262
21
-18.6013844103
31
0.0000000000
11
8.6081308762
21
-18.4022330747
31
0.0000000000
11
9.2132209628
21
-18.0788000761
31
0.0000000000
11
9.7435622790
21
-17.6435562057
31
0.0000000000
11
10.1788045238
21
-17.1132143059
31
0.0000000000
11
10.5022365638
21
-16.5081224510
31
0.0000000000
11
10.7013864085
21
-15.8516587799
31
0.0000000000
11
10.7686618482
21
-15.1687951175
31
0.0000000000
0
SPLINE
5
439
100
AcDbEntity
8
0
100
AcDbSpline
62
9
6
CONTINUOUS
70
0
71
3
72
24
73
20
74
18
42
0.0000001000
43
0.0000001000
44
0.0000000001
12
0.0238270823
22
-9.0006515958
32
0.0000000000
13
0.0223790201
23
9.0013812908
33
0.0000000000
40
0.0000000000
40
0.0000000000
40
0.0000000000
40
0.0000000000
40
0.0085390368
40
0.0338336056
40
0.0749730128
40
0.1305668902
40
0.1987467159
40
0.2771823575
40
0.3631997805
40
0.4538772019
40
0.5461226134
40
0.6368000298
40
0.7228174486
40
0.8012531016
40
0.8694328789
40
0.9250267609
40
0.9661663792
40
0.9914608621
40
1.0000000000
40
1.0000000000
40
1.0000000000
40
1.0000000000
10
-2.7499999888
20
-18.2952585813
30
0.0000000000
10
-2.7499321687
20
-18.3208775463
30
0.0000000000
10
-2.5876450461
20
-18.2774919877
30
0.0000000000
10
-2.4206858120
20
-18.3305723111
30
0.0000000000
10
-2.0225806480
20
-18.3114207854
30
0.0000000000
10
-1.5412985222
20
-18.3283615962
30
0.0000000000
10
-0.9296681853
20
-18.3296003260
30
0.0000000000
10
-0.2333086490
20
-18.3350114880
30
0.0000000000
10
0.5327065207
20
-18.3374270948
30
0.0000000000
10
1.3394946737
20
-18.3389744221
30
0.0000000000
10
2.1605058242
20
-18.3389744223
30
0.0000000000
10
2.9672939394
20
-18.3374270943
30
0.0000000000
10
3.7333091535
20
-18.3350114892
30
0.0000000000
10
4.4296684430
20
-18.3296003208
30
0.0000000000
10
5.0412990513
20
-18.3283616077
30
0.0000000000
10
5.5225806456
20
-18.3114207263
30
0.0000000000
10
5.9206887393
20
-18.3305724607
30
0.0000000000
10
6.0876442360
20
-18.2774918439
30
0.0000000000
10
6.2499362956
20
-18.3208778087
30
0.0000000000
10
6.2499999948
20
-18.2952564632
30
0.0000000000
11
-2.7499999888
21
-18.2952585813
31
0.0000000000
11
-2.6735530403
21
-18.3032673118
31
0.0000000000
11
-2.4459984486
21
-18.3110242201
31
0.0000000000
11
-2.0757559776
21
-18.3182325190
31
0.0000000000
11
-1.5753739774
21
-18.3246565628
31
0.0000000000
11
-0.9616834447
21
-18.3300807551
31
0.0000000000
11
-0.2556648675
21
-18.3343191616
31
0.0000000000
11
0.5186076859
21
-18.3372274225
31
0.0000000000
11
1.3348309120
21
-18.3387067840
31
0.0000000000
11
2.1651695991
21
-18.3387067840
31
0.0000000000
11
2.9813927804
21
-18.3372274223
31
0.0000000000
11
3.7556652960
21
-18.3343191613
31
0.0000000000
11
4.4616839751
21
-18.3300807533
31
0.0000000000
11
5.0753740732
21
-18.3246565642
31
0.0000000000
11
5.5757561138
21
-18.3182325190
31
0.0000000000
11
5.9460004850
21
-18.3110241716
31
0.0000000000
11
6.1735543022
21
-18.3032672477
31
0.0000000000
11
6.2499999948
21
-18.2952564632
31
0.0000000000
0
SPLINE
5
43A
100
AcDbEntity
8
0
100
AcDbSpline
62
9
6
CONTINUOUS
70
0
71
3
72
14
73
10
74
8
42
0.0000001000
43
0.0000001000
44
0.0000000001
12
1.5000478545
22
-0.0199390396
32
0.0000000000
13
-0.0001468609
23
1.5001803590
33
0.0000000000
40
0.0000000000
40
0.0000000000
40
0.0000000000
40
0.0000000000
40
0.0241647405
40
0.0973588923
40
0.2174679575
40
0.3783009463
40
0.5706000006
40
0.7823519422
40
1.0000000000
40
1.0000000000
40
1.0000000000
40
1.0000000000
10
10.8009512590
20
-10.0000000000
30
0.0000000000
10
10.8130340148
20
-10.0001606072
30
0.0000000000
10
10.7901417943
20
-9.9217503279
30
0.0000000000
10
10.8164948550
20
-9.8417449560
30
0.0000000000
10
10.8053965907
20
-9.6486843970
30
0.0000000000
10
10.8129333428
20
-9.4186983460
30
0.0000000000
10
10.8124536528
20
-9.1338776105
30
0.0000000000
10
10.8139816064
20
-8.8237379276
30
0.0000000000
10
10.8140522154
20
-8.6088371138
30
0.0000000000
10
10.8140415607
20
-8.5000000000
30
0.0000000000
11
10.8009512590
21
-10.0000000000
31
0.0000000000
11
10.8038072743
21
-9.9638612092
31
0.0000000000
11
10.8065825535
21
-9.8540918575
31
0.0000000000
11
10.8090998521
21
-9.6739241812
31
0.0000000000
11
10.8112034355
21
-9.4326548593
31
0.0000000000
11
10.8127728199
21
-9.1441758624
31
0.0000000000
11
10.8137276472
21
-8.8265111921
31
0.0000000000
11
10.8140415607
21
-8.5000000000
31
0.0000000000
0
SPLINE
5
43B
100
AcDbEntity
8
0
100
AcDbSpline
62
9
6
CONTINUOUS
70
0
71
3
72
14
73
10
74
8
42
0.0000001000
43
0.0000001000
44
0.0000000001
12
0.0001470336
22
1.5001803589
32
0.0000000000
13
-1.5000473285
23
-0.0199785675
33
0.0000000000
40
0.0000000000
40
0.0000000000
40
0.0000000000
40
0.0000000000
40
0.2176480643
40
0.4293999916
40
0.6216990598
40
0.7825320353
40
0.9026411225
40
0.9758352341
40
1.0000000000
40
1.0000000000
40
1.0000000000
40
1.0000000000
10
10.8140415607
20
8.5000000000
30
0.0000000000
10
10.8140522279
20
8.6088371171
30
0.0000000000
10
10.8139816016
20
8.8237379315
30
0.0000000000
10
10.8124536535
20
9.1338775980
30
0.0000000000
10
10.8129333431
20
9.4186983880
30
0.0000000000
10
10.8053965907
20
9.6486842767
30
0.0000000000
10
10.8164948550
20
9.8417452371
30
0.0000000000
10
10.7901418037
20
9.9217498714
30
0.0000000000
10
10.8130340232
20
10.0001609258
30
0.0000000000
10
10.8009512590
20
10.0000000000
30
0.0000000000
11
10.8140415607
21
8.5000000000
31
0.0000000000
11
10.8137276476
21
8.8265112019
31
0.0000000000
11
10.8127728197
21
9.1441758507
31
0.0000000000
11
10.8112034356
21
9.4326548684
31
0.0000000000
11
10.8090998520
21
9.6739241702
31
0.0000000000
11
10.8065825536
21
9.8540918797
31
0.0000000000
11
10.8038072742
21
9.9638611709
31
0.0000000000
11
10.8009512590
21
10.0000000000
31
0.0000000000
0
SPLINE
5
43C
100
AcDbEntity
8
0
100
AcDbSpline
62
9
6
CONTINUOUS
70
0
71
3
72
14
73
10
74
8
42
0.0000001000
43
0.0000001000
44
0.0000000001
12
0.0000028826
22
0.5005369499
32
0.0000000000
13
-0.5005334319
23
-0.0018766324
33
0.0000000000
40
0.0000000000
40
0.0000000000
40
0.0000000000
40
0.0000000000
40
0.2177102357
40
0.4291796995
40
0.6212438050
40
0.7819099782
40
0.9019556532
40
0.9752403648
40
1.0000000000
40
1.0000000000
40
1.0000000000
40
1.0000000000
10
9.8140796377
20
8.5000000000
30
0.0000000000
10
9.8140798469
20
8.5363240058
30
0.0000000000
10
9.8139089305
20
8.6079849186
30
0.0000000000
10
9.8128649324
20
8.7114035455
30
0.0000000000
10
9.8118000309
20
8.8062504341
30
0.0000000000
10
9.8086461745
20
8.8830574032
30
0.0000000000
10
9.8092202739
20
8.9470085292
30
0.0000000000
10
9.8017510552
20
8.9744359918
30
0.0000000000
10
9.8051203444
20
9.0000154882
30
0.0000000000
10
9.8009893360
20
9.0000000000
30
0.0000000000
11
9.8140796377
21
8.5000000000
31
0.0000000000
11
9.8137648353
21
8.6089715626
31
0.0000000000
11
9.8128093868
21
8.7148155307
31
0.0000000000
11
9.8112405115
21
8.8109379098
31
0.0000000000
11
9.8091377755
21
8.8913297712
31
0.0000000000
11
9.8066223307
21
8.9513643918
31
0.0000000000
11
9.8038476337
21
8.9879410048
31
0.0000000000
11
9.8009893360
21
9.0000000000
31
0.0000000000
0
SPLINE
5
43D
100
AcDbEntity
8
0
100
AcDbSpline
62
9
6
CONTINUOUS
70
0
71
3
72
12
73
8
74
6
42
0.0000001000
43
0.0000001000
44
0.0000000001
12
0.0000000000
22
-0.7821574339
32
0.0000000000
13
-0.7821574339
23
-0.0000000000
33
0.0000000000
40
0.0000000000
40
0.0000000000
40
0.0000000000
40
0.0000000000
40
0.1999953299
40
0.3999923428
40
0.5999921472
40
0.7999949427
40
1.0000000000
40
1.0000000000
40
1.0000000000
40
1.0000000000
10
-2.7500000000
20
-18.2952585473
30
0.0000000000
10
-2.7500000000
20
-18.3474011586
30
0.0000000000
10
-2.7665870794
20
-18.4524218758
30
0.0000000000
10
-2.8387753874
20
-18.5939872997
30
0.0000000000
10
-2.9512591374
20
-18.7064670074
30
0.0000000000
10
-3.0928301334
20
-18.7786529736
30
0.0000000000
10
-3.1978548525
20
-18.7952395088
30
0.0000000000
10
-3.2500000000
20
-18.7952395089
30
0.0000000000
11
-2.7500000000
21
-18.2952585473
31
0.0000000000
11
-2.7744714852
21
-18.4497603714
31
0.0000000000
11
-2.8454906660
21
-18.5891388312
31
0.0000000000
11
-2.9561060968
21
-18.6997507143
31
0.0000000000
11
-3.0954904213
21
-18.7707683474
31
0.0000000000
11
-3.2500000000
21
-18.7952395089
31
0.0000000000
0
SPLINE
5
43E
100
AcDbEntity
8
0
100
AcDbSpline
62
9
6
CONTINUOUS
70
0
71
3
72
13
73
9
74
7
42
0.0000001000
43
0.0000001000
44
0.0000000001
12
1.5662843278
22
0.0000000000
32
0.0000000000
13
-0.0000000000
23
1.5662843278
33
0.0000000000
40
0.0000000000
40
0.0000000000
40
0.0000000000
40
0.0000000000
40
0.1669577944
40
0.3339217216
40
0.5008842775
40
0.6677371781
40
0.8345983889
40
1.0000000000
40
1.0000000000
40
1.0000000000
40
1.0000000000
10
9.7686999252
20
9.0000000000
30
0.0000000000
10
9.8558677174
20
9.0000000000
30
0.0000000000
10
10.0310656789
20
9.0230591239
30
0.0000000000
10
10.2752359754
20
9.1244658098
30
0.0000000000
10
10.4849004912
20
9.2857046496
30
0.0000000000
10
10.6455224556
20
9.4957653891
30
0.0000000000
10
10.7459409923
20
9.7393371542
30
0.0000000000
10
10.7686618482
20
9.9136446829
30
0.0000000000
10
10.7686618482
20
10.0000000000
30
0.0000000000
11
9.7686999252
21
9.0000000000
31
0.0000000000
11
10.0279579966
21
9.0341945675
31
0.0000000000
11
10.2694928902
21
9.1344439324
31
0.0000000000
11
10.4767736848
21
9.2938885586
31
0.0000000000
11
10.6355408271
21
9.5014725440
31
0.0000000000
11
10.7351054996
21
9.7431164883
31
0.0000000000
11
10.7686618482
21
10.0000000000
31
0.0000000000
0
SPLINE
5
43F
100
AcDbEntity
8
0
100
AcDbSpline
62
9
6
CONTINUOUS
70
0
71
3
72
15
73
11
74
9
42
0.0000001000
43
0.0000001000
44
0.0000000001
12
-0.0004497213
22
5.4887267685
32
0.0000000000
13
-5.4887267653
23
0.0004870449
33
0.0000000000
40
0.0000000000
40
0.0000000000
40
0.0000000000
40
0.0000000000
40
0.1250162113
40
0.2500006790
40
0.3750036352
40
0.5000007787
40
0.6249978164
40
0.7500009745
40
0.8749856460
40
1.0000000000
40
1.0000000000
40
1.0000000000
40
1.0000000000
10
10.7686618482
20
15.1687951175
30
0.0000000000
10
10.7686431074
20
15.3975217259
30
0.0000000000
10
10.7235284484
20
15.8561838099
30
0.0000000000
10
10.5230589279
20
16.5167491813
30
0.0000000000
10
10.1975655420
20
17.1257584465
30
0.0000000000
10
9.7595048613
20
17.6595106870
30
0.0000000000
10
9.2257512845
20
18.0975703966
30
0.0000000000
10
8.6167407313
20
18.4230623159
30
0.0000000000
10
7.9561773288
20
18.6235301518
30
0.0000000000
10
7.4975183278
20
18.6686415524
30
0.0000000000
10
7.2687951175
20
18.6686618482
30
0.0000000000
11
10.7686618482
21
15.1687951175
31
0.0000000000
11
10.7013844103
21
15.8516688262
31
0.0000000000
11
10.5022330747
21
16.5081308762
31
0.0000000000
11
10.1788000761
21
17.1132209628
31
0.0000000000
11
9.7435562057
21
17.6435622790
31
0.0000000000
11
9.2132143059
21
18.0788045238
31
0.0000000000
11
8.6081224510
21
18.4022365638
31
0.0000000000
11
7.9516587799
21
18.6013864085
31
0.0000000000
11
7.2687951175
21
18.6686618482
31
0.0000000000
0
SPLINE
5
440
100
AcDbEntity
8
0
100
AcDbSpline
62
9
6
CONTINUOUS
70
0
71
3
72
15
73
11
74
9
42
0.0000001000
43
0.0000001000
44
0.0000000001
12
-0.0005228712
22
3.9205497581
32
0.0000000000
13
-3.9205497523
23
0.0005647281
33
0.0000000000
40
0.0000000000
40
0.0000000000
40
0.0000000000
40
0.0000000000
40
0.1248404856
40
0.2498946956
40
0.3749725519
40
0.5000474634
40
0.6251166214
40
0.7501864153
40
0.8752332160
40
1.0000000000
40
1.0000000000
40
1.0000000000
40
1.0000000000
10
9.7686999252
20
15.1687951175
30
0.0000000000
10
9.7686781667
20
15.3319428960
30
0.0000000000
10
9.7365426043
20
15.6594202737
30
0.0000000000
10
9.5934600466
20
16.1312549366
30
0.0000000000
10
9.3608821749
20
16.5665563743
30
0.0000000000
10
9.0477843816
20
16.9480395447
30
0.0000000000
10
8.6662642108
20
17.2610756873
30
0.0000000000
10
8.2309553089
20
17.4935783861
30
0.0000000000
10
7.7592166714
20
17.6365745570
30
0.0000000000
10
7.4318465789
20
17.6686764387
30
0.0000000000
10
7.2687951175
20
17.6686999252
30
0.0000000000
11
9.7686999252
21
15.1687951175
31
0.0000000000
11
9.7207922090
21
15.6558881618
31
0.0000000000
11
9.5785712624
21
16.1250884532
31
0.0000000000
11
9.3474613325
21
16.5575868052
31
0.0000000000
11
9.0363741371
21
16.9366383295
31
0.0000000000
11
8.6572948086
21
17.2476560821
31
0.0000000000
11
8.2247926420
21
17.4786917954
31
0.0000000000
11
7.7556034086
21
17.6208490716
31
0.0000000000
11
7.2687951175
21
17.6686999252
31
0.0000000000
0
SPLINE
5
441
100
AcDbEntity
8
0
100
AcDbSpline
62
7
6
CONTINUOUS
70
0
71
3
72
13
73
9
74
7
42
0.0000001000
43
0.0000001000
44
0.0000000001
12
0.5427363034
22
0.6421742544
32
0.0000000000
13
0.0000000000
23
0.8408034658
33
0.0000000000
40
0.0000000000
40
0.0000000000
40
0.0000000000
40
0.0000000000
40
0.2600533297
40
0.4887687069
40
0.6785629995
40
0.8278507699
40
0.9351841930
40
1.0000000000
40
1.0000000000
40
1.0000000000
40
1.0000000000
10
-3.2500000000
20
16.8066482796
30
0.0000000000
10
-3.2029532057
20
16.8623147973
30
0.0000000000
10
-3.1145406087
20
16.9669223341
30
0.0000000000
10
-2.9929258978
20
17.1132448717
30
0.0000000000
10
-2.8936879613
20
17.2373840380
30
0.0000000000
10
-2.8185018157
20
17.3381549797
30
0.0000000000
10
-2.7709792596
20
17.4133549519
30
0.0000000000
10
-2.7500000000
20
17.4593028878
30
0.0000000000
10
-2.7500000000
20
17.4774686728
30
0.0000000000
11
-3.2500000000
21
16.8066482796
31
0.0000000000
11
-3.1091022435
21
16.9738525876
31
0.0000000000
11
-2.9865061398
21
17.1220122515
31
0.0000000000
11
-2.8872834775
21
17.2469944247
31
0.0000000000
11
-2.8132229119
21
17.3483390026
31
0.0000000000
11
-2.7664317233
21
17.4255075317
31
0.0000000000
11
-2.7500000000
21
17.4774686728
31
0.0000000000
0
SPLINE
5
442
100
AcDbEntity
8
0
100
AcDbSpline
62
7
6
CONTINUOUS
70
0
71
3
72
13
73
9
74
7
42
0.0000001000
43
0.0000001000
44
0.0000000001
12
1.0001164997
22
0.0000000000
32
0.0000000000
13
0.0000000000
23
-1.0001164997
33
0.0000000000
40
0.0000000000
40
0.0000000000
40
0.0000000000
40
0.0000000000
40
0.2568484281
40
0.4974836303
40
0.7047275479
40
0.8645294372
40
0.9653309195
40
1.0000000000
40
1.0000000000
40
1.0000000000
40
1.0000000000
10
1.5000000000
20
-18.8590446123
30
0.0000000000
10
1.5856261170
20
-18.8590446123
30
0.0000000000
10
1.7510106637
20
-18.8596331413
30
0.0000000000
10
1.9878297049
20
-18.8588151137
30
0.0000000000
10
2.1849357844
20
-18.8648833296
30
0.0000000000
10
2.3545942466
20
-18.8545968528
30
0.0000000000
10
2.4273894488
20
-18.8786815570
30
0.0000000000
10
2.5000000000
20
-18.8563347846
30
0.0000000000
10
2.5000000000
20
-18.8678924911
30
0.0000000000
11
1.5000000000
21
-18.8590446123
31
0.0000000000
11
1.7568781793
21
-18.8593415136
31
0.0000000000
11
1.9975398212
21
-18.8602174771
31
0.0000000000
11
2.2048031660
21
-18.8616157801
31
0.0000000000
11
2.3646131810
21
-18.8634469797
31
0.0000000000
11
2.4654037260
21
-18.8655853205
31
0.0000000000
11
2.5000000000
21
-18.8678924911
31
0.0000000000
0
SPLINE
5
443
100
AcDbEntity
8
0
100
AcDbSpline
62
7
6
CONTINUOUS
70
0
71
3
72
13
73
9
74
7
42
0.0000001000
43
0.0000001000
44
0.0000000001
12
-0.5427363034
22
-0.6421742544
32
0.0000000000
13
0.0000000000
23
-0.8408034658
33
0.0000000000
40
0.0000000000
40
0.0000000000
40
0.0000000000
40
0.0000000000
40
0.2600533297
40
0.4887687069
40
0.6785629995
40
0.8278507699
40
0.9351841930
40
1.0000000000
40
1.0000000000
40
1.0000000000
40
1.0000000000
10
6.7500000000
20
-16.8066482796
30
0.0000000000
10
6.7029532057
20
-16.8623147973
30
0.0000000000
10
6.6145406087
20
-16.9669223341
30
0.0000000000
10
6.4929258978
20
-17.1132448717
30
0.0000000000
10
6.3936879613
20
-17.2373840380
30
0.0000000000
10
6.3185018157
20
-17.3381549797
30
0.0000000000
10
6.2709792596
20
-17.4133549519
30
0.0000000000
10
6.2500000000
20
-17.4593028878
30
0.0000000000
10
6.2500000000
20
-17.4774686728
30
0.0000000000
11
6.7500000000
21
-16.8066482796
31
0.0000000000
11
6.6091022435
21
-16.9738525876
31
0.0000000000
11
6.4865061398
21
-17.1220122515
31
0.0000000000
11
6.3872834775
21
-17.2469944247
31
0.0000000000
11
6.3132229119
21
-17.3483390026
31
0.0000000000
11
6.2664317233
21
-17.4255075317
31
0.0000000000
11
6.2500000000
21
-17.4774686728
31
0.0000000000
0
SPLINE
5
444
100
AcDbEntity
8
0
100
AcDbSpline
62
7
6
CONTINUOUS
70
0
71
3
72
13
73
9
74
7
42
0.0000001000
43
0.0000001000
44
0.0000000001
12
-1.0001164997
22
0.0000000000
32
0.0000000000
13
0.0000000000
23
1.0001164997
33
0.0000000000
40
0.0000000000
40
0.0000000000
40
0.0000000000
40
0.0000000000
40
0.2568484281
40
0.4974836303
40
0.7047275479
40
0.8645294372
40
0.9653309195
40
1.0000000000
40
1.0000000000
40
1.0000000000
40
1.0000000000
10
-1.5000000000
20
18.8590446123
30
0.0000000000
10
-1.5856261170
20
18.8590446123
30
0.0000000000
10
-1.7510106637
20
18.8596331413
30
0.0000000000
10
-1.9878297049
20
18.8588151137
30
0.0000000000
10
-2.1849357844
20
18.8648833296
30
0.0000000000
10
-2.3545942466
20
18.8545968528
30
0.0000000000
10
-2.4273894488
20
18.8786815570
30
0.0000000000
10
-2.5000000000
20
18.8563347846
30
0.0000000000
10
-2.5000000000
20
18.8678924911
30
0.0000000000
11
-1.5000000000
21
18.8590446123
31
0.0000000000
11
-1.7568781793
21
18.8593415136
31
0.0000000000
11
-1.9975398212
21
18.8602174770
31
0.0000000000
11
-2.2048031660
21
18.8616157801
31
0.0000000000
11
-2.3646131810
21
18.8634469797
31
0.0000000000
11
-2.4654037260
21
18.8655853205
31
0.0000000000
11
-2.5000000000
21
18.8678924911
31
0.0000000000
0
SPLINE
5
445
100
AcDbEntity
8
0
100
AcDbSpline
62
9
6
CONTINUOUS
70
0
71
3
72
8
73
4
74
2
42
0.0000001000
43
0.0000001000
44
0.0000000001
12
0.0000000000
22
0.1564284460
32
0.0000000000
13
-0.0485343179
23
0.1495477566
33
0.0000000000
40
0.0000000000
40
0.0000000000
40
0.0000000000
40
0.0000000000
40
1.0000000000
40
1.0000000000
40
1.0000000000
40
1.0000000000
10
-2.7500000000
20
18.1686808867
30
0.0000000000
10
-2.7500000000
20
18.2208237020
30
0.0000000000
10
-2.7582935707
20
18.2733340479
30
0.0000000000
10
-2.7744716767
20
18.3231833001
30
0.0000000000
11
-2.7500000000
21
18.1686808867
31
0.0000000000
11
-2.7744716767
21
18.3231833001
31
0.0000000000
0
SPLINE
5
446
100
AcDbEntity
8
0
100
AcDbSpline
62
9
6
CONTINUOUS
70
0
71
3
72
11
73
7
74
5
42
0.0000001000
43
0.0000001000
44
0.0000000001
12
-0.1941419888
22
0.5982055615
32
0.0000000000
13
-0.6257289879
23
0.0000000000
33
0.0000000000
40
0.0000000000
40
0.0000000000
40
0.0000000000
40
0.0000000000
40
0.2499960249
40
0.4999952165
40
0.7499969289
40
1.0000000000
40
1.0000000000
40
1.0000000000
40
1.0000000000
10
-2.7744716767
20
18.3231833001
30
0.0000000000
10
-2.7906499185
20
18.3730329709
30
0.0000000000
10
-2.8387760423
20
18.4674106335
30
0.0000000000
10
-2.9512602860
20
18.5798901854
30
0.0000000000
10
-3.0928311186
20
18.6520755399
30
0.0000000000
10
-3.1978552771
20
18.6686618482
30
0.0000000000
10
-3.2500000000
20
18.6686618482
30
0.0000000000
11
-2.7744716767
21
18.3231833001
31
0.0000000000
11
-2.8454913928
21
18.4625621709
31
0.0000000000
11
-2.9561074308
21
18.5731740228
31
0.0000000000
11
-3.0954916478
21
18.6441910853
31
0.0000000000
11
-3.2500000000
21
18.6686618482
31
0.0000000000
0
SPLINE
5
447
100
AcDbEntity
8
0
100
AcDbSpline
62
9
6
CONTINUOUS
70
0
71
3
72
8
73
4
74
2
42
0.0000001000
43
0.0000001000
44
0.0000000001
12
0.0000000000
22
-0.1564284460
32
0.0000000000
13
0.0485343179
23
-0.1495477566
33
0.0000000000
40
0.0000000000
40
0.0000000000
40
0.0000000000
40
0.0000000000
40
1.0000000000
40
1.0000000000
40
1.0000000000
40
1.0000000000
10
6.2500000000
20
-18.1686808867
30
0.0000000000
10
6.2500000000
20
-18.2208237020
30
0.0000000000
10
6.2582935707
20
-18.2733340479
30
0.0000000000
10
6.2744716767
20
-18.3231833001
30
0.0000000000
11
6.2500000000
21
-18.1686808867
31
0.0000000000
11
6.2744716767
21
-18.3231833001
31
0.0000000000
0
SPLINE
5
448
100
AcDbEntity
8
0
100
AcDbSpline
62
9
6
CONTINUOUS
70
0
71
3
72
11
73
7
74
5
42
0.0000001000
43
0.0000001000
44
0.0000000001
12
0.1941419888
22
-0.5982055615
32
0.0000000000
13
0.6257289879
23
-0.0000000000
33
0.0000000000
40
0.0000000000
40
0.0000000000
40
0.0000000000
40
0.0000000000
40
0.2499960249
40
0.4999952165
40
0.7499969289
40
1.0000000000
40
1.0000000000
40
1.0000000000
40
1.0000000000
10
6.2744716767
20
-18.3231833001
30
0.0000000000
10
6.2906499185
20
-18.3730329709
30
0.0000000000
10
6.3387760423
20
-18.4674106335
30
0.0000000000
10
6.4512602860
20
-18.5798901854
30
0.0000000000
10
6.5928311186
20
-18.6520755399
30
0.0000000000
10
6.6978552771
20
-18.6686618482
30
0.0000000000
10
6.7500000000
20
-18.6686618482
30
0.0000000000
11
6.2744716767
21
-18.3231833001
31
0.0000000000
11
6.3454913928
21
-18.4625621709
31
0.0000000000
11
6.4561074308
21
-18.5731740228
31
0.0000000000
11
6.5954916478
21
-18.6441910853
31
0.0000000000
11
6.7500000000
21
-18.6686618482
31
0.0000000000
0
SPLINE
5
449
100
AcDbEntity
8
0
100
AcDbSpline
62
9
6
CONTINUOUS
70
0
71
3
72
12
73
8
74
6
42
0.0000001000
43
0.0000001000
44
0.0000000001
12
0.0000000000
22
-0.7821574339
32
0.0000000000
13
0.7821574339
23
0.0000000000
33
0.0000000000
40
0.0000000000
40
0.0000000000
40
0.0000000000
40
0.0000000000
40
0.1999963786
40
0.3999941405
40
0.5999941405
40
0.7999963786
40
1.0000000000
40
1.0000000000
40
1.0000000000
40
1.0000000000
10
6.2500000000
20
-18.2952585473
30
0.0000000000
10
6.2500000000
20
-18.3474014321
30
0.0000000000
10
6.2665872440
20
-18.4524226293
30
0.0000000000
10
6.3387761212
20
-18.5939883770
30
0.0000000000
10
6.4512602854
20
-18.7064678231
30
0.0000000000
10
6.5928310432
20
-18.7786531801
30
0.0000000000
10
6.6978552269
20
-18.7952395089
30
0.0000000000
10
6.7500000000
20
-18.7952395089
30
0.0000000000
11
6.2500000000
21
-18.2952585473
31
0.0000000000
11
6.2744717419
21
-18.4497611613
31
0.0000000000
11
6.3454915028
21
-18.5891399829
31
0.0000000000
11
6.4561073739
21
-18.6997516421
31
0.0000000000
11
6.5954915028
21
-18.7707686988
31
0.0000000000
11
6.7500000000
21
-18.7952395089
31
0.0000000000
0
SPLINE
5
44A
100
AcDbEntity
8
0
100
AcDbSpline
62
9
6
CONTINUOUS
70
0
71
3
72
24
73
20
74
18
42
0.0000001000
43
0.0000001000
44
0.0000000001
12
0.1126320266
22
-10.0006360987
32
0.0000000000
13
0.1095202607
23
10.0006706608
33
0.0000000000
40
0.0000000000
40
0.0000000000
40
0.0000000000
40
0.0000000000
40
0.0085235549
40
0.0338112778
40
0.0749465577
40
0.1305396015
40
0.1987212732
40
0.2771612860
40
0.3631851721
40
0.4538706152
40
0.5461249311
40
0.6368108330
40
0.7228352791
40
0.8012759290
40
0.8694582080
40
0.9250518901
40
0.9661880045
40
0.9914761245
40
1.0000000000
40
1.0000000000
40
1.0000000000
40
1.0000000000
10
-3.2500000000
20
-18.7952395089
30
0.0000000000
10
-3.2496799916
20
-18.8236531657
30
0.0000000000
10
-3.0698894929
20
-18.7734602704
30
0.0000000000
10
-2.8840552608
20
-18.8330551892
30
0.0000000000
10
-2.4419659229
20
-18.8102915512
30
0.0000000000
10
-1.9071402242
20
-18.8287571115
30
0.0000000000
10
-1.2275797704
20
-18.8294394982
30
0.0000000000
10
-0.4538148507
20
-18.8350359863
30
0.0000000000
10
0.3973486523
20
-18.8373950530
30
0.0000000000
10
1.2938325935
20
-18.8389580487
30
0.0000000000
10
2.2061243977
20
-18.8389580839
30
0.0000000000
10
3.1026116877
20
-18.8373951512
30
0.0000000000
10
3.9537808874
20
-18.8350361377
30
0.0000000000
10
4.7275512474
20
-18.8294396696
30
0.0000000000
10
5.4071197221
20
-18.8287573601
30
0.0000000000
10
5.9419475091
20
-18.8102915926
30
0.0000000000
10
6.3840548336
20
-18.8330559114
30
0.0000000000
10
6.5698728765
20
-18.7734595999
30
0.0000000000
10
6.7496888210
20
-18.8236543328
30
0.0000000000
10
6.7500000000
20
-18.7952395089
30
0.0000000000
11
-3.2500000000
21
-18.7952395089
31
0.0000000000
11
-3.1651303609
21
-18.8032450719
31
0.0000000000
11
-2.9123400044
21
-18.8110024441
31
0.0000000000
11
-2.5009981129
21
-18.8182112559
31
0.0000000000
11
-1.9450341723
21
-18.8246358606
31
0.0000000000
11
-1.2631524193
21
-18.8300605952
31
0.0000000000
11
-0.4786640989
21
-18.8342994849
31
0.0000000000
11
0.3816791248
21
-18.8372081192
31
0.0000000000
11
1.2886475503
21
-18.8386877026
31
0.0000000000
11
2.2113079035
21
-18.8386877388
31
0.0000000000
11
3.1182809171
21
-18.8372082191
31
0.0000000000
11
3.9786297417
21
-18.8342996354
31
0.0000000000
11
4.7631244350
21
-18.8300607812
31
0.0000000000
11
5.4450122623
21
-18.8246360733
31
0.0000000000
11
6.0009825863
21
-18.8182114774
31
0.0000000000
11
6.4123328246
21
-18.8110026168
31
0.0000000000
11
6.6651271532
21
-18.8032452159
31
0.0000000000
11
6.7500000000
21
-18.7952395089
31
0.0000000000
0
ENDSEC
0
SECTION
2
OBJECTS
0
DICTIONARY
5
C
100
AcDbDictionary
280
0
281
1
3
ACAD_GROUP
350
D
3
ACAD_MLINESTYLE
350
17
3
ACAD_LAYOUT
350
1A
3
ACAD_PLOTSETTINGS
350
19
3
ACAD_PLOTSTYLENAME
350
E
0
DICTIONARY
5
D
102
{ACAD_REACTORS
330
C
102
}
100
AcDbDictionary
280
0
281
1
0
ACDBDICTIONARYWDFLT
5
E
102
{ACAD_REACTORS
330
C
102
}
100
AcDbDictionary
281
1
3
Normal
350
F
100
AcDbDictionaryWithDefault
340
F
0
DICTIONARY
5
17
102
{ACAD_REACTORS
330
C
102
}
100
AcDbDictionary
280
0
281
1
3
Standard
350
18
0
DICTIONARY
5
19
102
{ACAD_REACTORS
330
C
102
}
100
AcDbDictionary
281
1
0
DICTIONARY
5
1A
102
{ACAD_REACTORS
330
C
102
}
100
AcDbDictionary
281
1
3
Layout1
350
1E
3
Model
350
22
0
ACDBPLACEHOLDER
5
F
102
{ACAD_REACTORS
330
E
102
}
0
MLINESTYLE
5
18
102
{ACAD_REACTORS
330
17
102
}
100
AcDbMlineStyle
2
STANDARD
70
0
3

62
256
51
90.0
52
90.0
71
2
49
0.5
62
256
6
BYLAYER
49
-0.5
62
256
6
BYLAYER
0
LAYOUT
5
1E
102
{ACAD_REACTORS
330
1A
102
}
100
AcDbPlotSettings
1

2

4

6

40
0.0
41
0.0
42
0.0
43
0.0
44
0.0
45
0.0
46
0.0
47
0.0
48
0.0
49
0.0
140
0.0
141
0.0
142
1.0
143
1.0
70
0
72
0
73
0
74
0
7

75
0
147
1.0
148
0.0
149
0.0
100
AcDbLayout
1
Layout1
70
0
71
0
10
0.0
20
0.0
11
0.0
21
0.0
12
0.0
22
0.0
32
0.0
14
0.0
24
0.0
34
0.0
15
0.0
25
0.0
35
0.0
146
0.0
13
0.0
23
0.0
33
0.0
16
0.0
26
0.0
36
0.0
17
0.0
27
0.0
37
0.0
76
0
330
1B
331
0
345
0
346
0
0
LAYOUT
5
22
102
{ACAD_REACTORS
330
1A
102
}
100
AcDbPlotSettings
1

2

4

6

40
0.0
41
0.0
42
0.0
43
0.0
44
0.0
45
0.0
46
0.0
47
0.0
48
0.0
49
0.0
140
0.0
141
0.0
142
1.0
143
1.0
70
0
72
0
73
0
74
0
7

75
0
147
1.0
148
0.0
149
0.0
100
AcDbLayout
1
Model
70
0
71
0
10
0.0
20
0.0
11
0.0
21
0.0
12
0.0
22
0.0
32
0.0
14
0.0
24
0.0
34
0.0
15
0.0
25
0.0
35
0.0
146
0.0
13
0.0
23
0.0
33
0.0
16
0.0
26
0.0
36
0.0
17
0.0
27
0.0
37
0.0
76
0
330
1F
331
0
345
0
346
0
0
ENDSEC
0
EOF
