  0
SECTION
  2
HEADER
  9
$ACADVER
  1
AC1024
  9
$DWGCODEPAGE
  3
ANSI_1252
  9
$EXTMAX
 10
297.0
 20
210.0
 30
0.0
  9
$EXTMIN
 10
0.0
 20
0.0
 30
0.0
  9
$LIMMIN
 10
0.0
 20
0.0
  9
$LIMMAX
 10
297.0
 20
210.0
  9
$VIEWCTR
 10
148.5
 20
105.0
  9
$VIEWSIZE
 40
210.0
  9
$CLAYER
  8
0
  9
$LTSCALE
 40
16.335
  9
$CELTYPE
  6
BYLAYER
  9
$DIMSCALE
 40
1.0
  9
$DIMASZ
 40
3.0
  9
$DIMEXO
 40
0.5
  9
$DIMDLI
 40
11.286
  9
$DIMEXE
 40
1.5
  9
$DIMCEN
 40
2.673
  9
$DIMLFAC
 40
1.0
  9
$DIMBLK
  1
_FILLED
  9
$DIMALT
 70
0
  9
$DIMALTF
 40
0.0393700787
  9
$DIMTXT
 40
3.0
  9
$DIMTOL
 70
1
  9
$DIMLIM
 70
0
  9
$DIMTFAC
 40
1.0
  9
$DIMTP
 40
0.01
  9
$DIMTM
 40
0.01
  9
$DIMGAP
 40
0.625
  9
$DIMDSEP
 70
44
  9
$AUNITS
 70
0
  9
$PDMODE
 70
3
  9
$PDSIZE
 40
3.0
  9
$HANDSEED
  5
6BE
  9
$TILEMODE
 70
1
  9
$MEASUREMENT
 70
1
  9
$INSUNITS
 70
4
  0
ENDSEC
  0
SECTION
  2
CLASSES
  0
CLASS
  1
ACDBDICTIONARYWDFLT
  2
AcDbDictionaryWithDefault
  3
AutoCAD 2000
 90
0
 91
1
280
0
281
0
  0
CLASS
  1
ACDBPLACEHOLDER
  2
AcDbPlaceHolder
  3
AutoCAD 2000
 90
0
 91
1
280
0
281
0
  0
CLASS
  1
LAYOUT
  2
AcDbLayout
  3
AutoCAD 2000
 90
0
 91
0
280
0
281
0
  0
ENDSEC
  0
SECTION
  2
TABLES
  0
TABLE
  2
VPORT
  5
8
100
AcDbSymbolTable
 70
2
  0
VPORT
  5
1F4
100
AcDbSymbolTableRecord
100
AcDbViewportTableRecord
  2
*ACTIVE
 70
0
 10
0.0
 20
0.0
 11
1.0
 21
1.0
 12
148.5
 22
105.0
 13
0.0
 23
0.0
 14
1.0
 24
1.0
 15
0.0
 25
0.0
 16
0.0
 26
0.0
 36
1.0
 17
0.0
 27
0.0
 37
0.0
 40
210.0
 41
1.4142857143
 42
50.0
 43
0.0
 44
0.0
 50
0.0
 51
0.0
 71
0
 72
100
 73
1
 74
1
 75
0
 76
0
 77
0
 78
0
  0
ENDTAB
  0
TABLE
  2
LTYPE
  5
5
100
AcDbSymbolTable
 70
6
  0
LTYPE
  5
14
100
AcDbSymbolTableRecord
100
AcDbLinetypeTableRecord
  2
BYBLOCK
 70
0
  3

 72
65
 73
0
 40
0.0
  0
LTYPE
  5
15
100
AcDbSymbolTableRecord
100
AcDbLinetypeTableRecord
  2
BYLAYER
 70
0
  3

 72
65
 73
0
 40
0.0
  0
LTYPE
  5
16
100
AcDbSymbolTableRecord
100
AcDbLinetypeTableRecord
  2
CONTINUOUS
 70
64
  3
Solid line
 72
65
 73
0
 40
0.0
  0
LTYPE
  5
1F5
100
AcDbSymbolTableRecord
100
AcDbLinetypeTableRecord
  2
CENTER
 70
64
  3
____ _ ____ _ ____ _ ____ _ ____ _ ____ _ ____
 72
65
 73
4
 40
0.6
 49
0.375
 74
0
 49
-0.075
 74
0
 49
0.075
 74
0
 49
-0.075
 74
0
  0
LTYPE
  5
1F6
100
AcDbSymbolTableRecord
100
AcDbLinetypeTableRecord
  2
HIDDEN
 70
64
  3
- - - - - - - - - - - - - - - - - - - -
 72
65
 73
2
 40
0.2
 49
0.1
 74
0
 49
-0.1
 74
0
  0
LTYPE
  5
1F7
100
AcDbSymbolTableRecord
100
AcDbLinetypeTableRecord
  2
PHANTOM
 70
64
  3
_____ _ _ _____ _ _ _____ _ _ _____
 72
65
 73
6
 40
0.8
 49
0.45
 74
0
 49
-0.05
 74
0
 49
0.1
 74
0
 49
-0.05
 74
0
 49
0.1
 74
0
 49
-0.05
 74
0
  0
LTYPE
  5
1F8
100
AcDbSymbolTableRecord
100
AcDbLinetypeTableRecord
  2
DOT
 70
64
  3
. . . . . . . . . . . . . . . . . . . .
 72
65
 73
2
 40
0.2
 49
0.1
 74
0
 49
-0.1
 74
0
  0
LTYPE
  5
1F9
100
AcDbSymbolTableRecord
100
AcDbLinetypeTableRecord
  2
DASHED
 70
64
  3
- - - - - - - - - - - - - - - - - - - -
 72
65
 73
2
 40
0.2
 49
0.1
 74
0
 49
-0.1
 74
0
  0
ENDTAB
  0
TABLE
  2
LAYER
  5
2
100
AcDbSymbolTable
 70
36
  0
LAYER
  5
10
100
AcDbSymbolTableRecord
100
AcDbLayerTableRecord
  2
0
 70
0
 62
7
  6
CONTINUOUS
370
-3
390
F
  0
LAYER
  5
1FA
100
AcDbSymbolTableRecord
100
AcDbLayerTableRecord
  2
DEFAULT_1
 70
0
 62
7
  6
CENTER
370
-3
390
F
  0
LAYER
  5
1FB
100
AcDbSymbolTableRecord
100
AcDbLayerTableRecord
  2
DEFAULT_2
 70
0
 62
7
  6
HIDDEN
370
-3
390
F
  0
LAYER
  5
1FC
100
AcDbSymbolTableRecord
100
AcDbLayerTableRecord
  2
DEFAULT_3
 70
0
 62
7
  6
PHANTOM
370
-3
390
F
  0
LAYER
  5
1FD
100
AcDbSymbolTableRecord
100
AcDbLayerTableRecord
  2
ASSI
 70
0
 62
7
  6
CONTINUOUS
370
-3
390
F
  0
LAYER
  5
1FE
100
AcDbSymbolTableRecord
100
AcDbLayerTableRecord
  2
COORDINATE
 70
0
 62
7
  6
CONTINUOUS
370
-3
390
F
  0
LAYER
  5
1FF
100
AcDbSymbolTableRecord
100
AcDbLayerTableRecord
  2
COORD_ORIGINE
 70
0
 62
7
  6
CONTINUOUS
370
-3
390
F
  0
LAYER
  5
200
100
AcDbSymbolTableRecord
100
AcDbLayerTableRecord
  2
CURVE
 70
0
 62
7
  6
CONTINUOUS
370
-3
390
F
  0
LAYER
  5
201
100
AcDbSymbolTableRecord
100
AcDbLayerTableRecord
  2
DRAFT
 70
0
 62
7
  6
CONTINUOUS
370
-3
390
F
  0
LAYER
  5
202
100
AcDbSymbolTableRecord
100
AcDbLayerTableRecord
  2
IMPORT_FEATURES
 70
0
 62
7
  6
CONTINUOUS
370
-3
390
F
  0
LAYER
  5
203
100
AcDbSymbolTableRecord
100
AcDbLayerTableRecord
  2
INTF_1
 70
0
 62
7
  6
CONTINUOUS
370
-3
390
F
  0
LAYER
  5
204
100
AcDbSymbolTableRecord
100
AcDbLayerTableRecord
  2
INTF_12
 70
0
 62
7
  6
CONTINUOUS
370
-3
390
F
  0
LAYER
  5
205
100
AcDbSymbolTableRecord
100
AcDbLayerTableRecord
  2
NOTE
 70
0
 62
7
  6
CONTINUOUS
370
-3
390
F
  0
LAYER
  5
206
100
AcDbSymbolTableRecord
100
AcDbLayerTableRecord
  2
PIANI
 70
0
 62
7
  6
CONTINUOUS
370
-3
390
F
  0
LAYER
  5
207
100
AcDbSymbolTableRecord
100
AcDbLayerTableRecord
  2
PIANI_ORIGINE
 70
0
 62
7
  6
CONTINUOUS
370
-3
390
F
  0
LAYER
  5
208
100
AcDbSymbolTableRecord
100
AcDbLayerTableRecord
  2
PUNTI
 70
0
 62
7
  6
CONTINUOUS
370
-3
390
F
  0
LAYER
  5
209
100
AcDbSymbolTableRecord
100
AcDbLayerTableRecord
  2
RACCORDO
 70
0
 62
7
  6
CONTINUOUS
370
-3
390
F
  0
LAYER
  5
20A
100
AcDbSymbolTableRecord
100
AcDbLayerTableRecord
  2
RGB____0____0____0__
 70
0
 62
7
  6
CONTINUOUS
370
-3
390
F
  0
LAYER
  5
20B
100
AcDbSymbolTableRecord
100
AcDbLayerTableRecord
  2
SMUSSO
 70
0
 62
7
  6
CONTINUOUS
370
-3
390
F
  0
LAYER
  5
20C
100
AcDbSymbolTableRecord
100
AcDbLayerTableRecord
  2
SNAPLINE
 70
0
 62
7
  6
CONTINUOUS
370
-3
390
F
  0
LAYER
  5
20D
100
AcDbSymbolTableRecord
100
AcDbLayerTableRecord
  2
SUPERFICI
 70
0
 62
7
  6
CONTINUOUS
370
-3
390
F
  0
LAYER
  5
20E
100
AcDbSymbolTableRecord
100
AcDbLayerTableRecord
  2
TRASH
 70
0
 62
7
  6
CONTINUOUS
370
-3
390
F
  0
LAYER
  5
20F
100
AcDbSymbolTableRecord
100
AcDbLayerTableRecord
  2
XSEC_DATUMS
 70
0
 62
7
  6
CONTINUOUS
370
-3
390
F
  0
ENDTAB
  0
TABLE
  2
STYLE
  5
3
100
AcDbSymbolTable
 70
1
  0
STYLE
  5
11
100
AcDbSymbolTableRecord
100
AcDbTextStyleTableRecord
  2
STANDARD
 70
0
 40
0.0
 41
0.8
 50
0.0
 71
0
 42
0.2
  3
txt
  4

  0
STYLE
  5
210
100
AcDbSymbolTableRecord
100
AcDbTextStyleTableRecord
  2
TEXTSTYLE_1
 70
0
 40
0.0
 41
0.8
 50
0.0
 71
0
 42
0.2
  3
gdt
  4

  0
ENDTAB
  0
TABLE
  2
VIEW
  5
6
100
AcDbSymbolTable
 70
0
  0
ENDTAB
  0
TABLE
  2
UCS
  5
7
100
AcDbSymbolTable
 70
0
  0
ENDTAB
  0
TABLE
  2
APPID
  5
9
100
AcDbSymbolTable
 70
1
  0
APPID
  5
211
100
AcDbSymbolTableRecord
100
AcDbRegAppTableRecord
  2
ACAD
 70
0
  0
ENDTAB
  0
TABLE
  2
BLOCK_RECORD
  5
1
100
AcDbSymbolTable
 70
0
  0
BLOCK_RECORD
  5
212
100
AcDbSymbolTableRecord
100
AcDbBlockTableRecord
  2
*Model_Space
  0
BLOCK_RECORD
  5
213
100
AcDbSymbolTableRecord
100
AcDbBlockTableRecord
  2
*Paper_Space
  0
BLOCK_RECORD
  5
214
100
AcDbSymbolTableRecord
100
AcDbBlockTableRecord
  2
_FILLED
  0
ENDTAB
  0
TABLE
  2
DIMSTYLE
  5
A
100
AcDbSymbolTable
 70
1
100
AcDbDimStyleTable
 71
0
  0
DIMSTYLE
105
215
100
AcDbSymbolTableRecord
100
AcDbDimStyleTableRecord
  2
STANDARD
 70
0
  3

  4

 40
1.0
 41
3.0
 42
0.5
 43
0.38
 44
1.5
 45
0.0
 46
0.0
 47
0.01
 48
0.01
140
3.0
141
0.09
142
0.0
143
25.4
144
1.0
145
0.0
146
1.0
147
0.625
 71
1
 72
0
 73
0
 74
0
 75
0
 76
0
 77
1
 78
8
 79
2
170
0
171
1
172
0
173
0
174
0
175
0
176
0
177
0
178
0
270
2
179
2
271
2
272
2
273
2
274
2
275
0
280
0
281
0
282
0
283
1
284
8
285
0
286
0
287
3
288
0
340
11
278
44
341
214
342
214
343
214
344
214
  0
ENDTAB
  0
ENDSEC
  0
SECTION
  2
BLOCKS
  0
BLOCK
  5
20
100
AcDbEntity
  8
0
100
AcDbBlockBegin
  2
*Model_Space
 70
0
 10
0.0
 20
0.0
 30
0.0
  3
*Model_Space
  1

  0
ENDBLK
  5
21
100
AcDbEntity
  8
0
100
AcDbBlockEnd
  0
BLOCK
  5
1C
100
AcDbEntity
  8
0
100
AcDbBlockBegin
  2
*Paper_Space
 70
0
 10
0.0
 20
0.0
 30
0.0
  3
*Paper_Space
  1

  0
ENDBLK
  5
1D
100
AcDbEntity
  8
0
100
AcDbBlockEnd
  0
BLOCK
  5
216
100
AcDbEntity
  8
0
100
AcDbBlockBegin
  2
_FILLED
 70
64
 10
0.0
 20
0.0
  3
_FILLED
  1

  0
SOLID
  5
217
100
AcDbEntity
  8
0
  6
BYBLOCK
 62
0
100
AcDbTrace
 10
0.0
 20
0.0
 11
-1.0
 21
0.3166666667
 12
-1.0
 22
-0.3166666667
 13
-1.0
 23
-0.3166666667
  0
ENDBLK
  5
218
100
AcDbEntity
  8
0
  6
BYBLOCK
 62
0
100
AcDbBlockEnd
  0
ENDSEC
  0
SECTION
  2
ENTITIES
  0
LINE
  5
219
100
AcDbEntity
  8
DRAFT
100
AcDbLine
 62
7
  6
CONTINUOUS
 10
-3.0
 20
-23.5
 11
-2.7812783412
 21
-23.4563623377
  0
LINE
  5
21A
100
AcDbEntity
  8
DRAFT
100
AcDbLine
 62
7
  6
CONTINUOUS
 10
-3.9733373476
 20
-23.5
 11
-3.0
 21
-23.5
  0
LINE
  5
21B
100
AcDbEntity
  8
DRAFT
100
AcDbLine
 62
7
  6
CONTINUOUS
 10
3.0
 20
-23.5
 11
3.9733373476
 21
-23.5
  0
LINE
  5
21C
100
AcDbEntity
  8
DRAFT
100
AcDbLine
 62
7
  6
CONTINUOUS
 10
-2.7812783412
 20
-23.4563623377
 11
2.7812783412
 21
-23.4563623377
  0
LINE
  5
21D
100
AcDbEntity
  8
DRAFT
100
AcDbLine
 62
7
  6
CONTINUOUS
 10
-3.9526845545
 20
-23.4301797403
 11
3.9526845545
 21
-23.4301797403
  0
LINE
  5
21E
100
AcDbEntity
  8
DRAFT
100
AcDbLine
 62
7
  6
CONTINUOUS
 10
-10.6503805997
 20
-22.4
 11
-5.55
 21
-22.4
  0
LINE
  5
21F
100
AcDbEntity
  8
0
100
AcDbLine
 62
7
  6
CONTINUOUS
 10
3.1
 20
-22.4
 11
-3.1
 21
-22.4
  0
LINE
  5
220
100
AcDbEntity
  8
DRAFT
100
AcDbLine
 62
7
  6
CONTINUOUS
 10
5.55
 20
-22.4
 11
10.6503805997
 21
-22.4
  0
LINE
  5
221
100
AcDbEntity
  8
DRAFT
100
AcDbLine
 62
7
  6
CONTINUOUS
 10
3.0
 20
-23.5
 11
2.7812783412
 21
-23.4563623377
  0
LINE
  5
222
100
AcDbEntity
  8
RACCORDO
100
AcDbLine
 62
7
  6
CONTINUOUS
 10
-7.2269247241
 20
20.8478512965
 11
-7.2205806983
 21
20.8531402181
  0
LWPOLYLINE
  5
223
100
AcDbEntity
  8
RACCORDO
100
AcDbPolyline
 62
250
  6
CONTINUOUS
 90
12
 70
0
 10
-9.5862974704
 20
20.0354120872
 10
-9.5834198433
 20
20.0369782113
 10
-9.5755147697
 20
20.038517835
 10
-9.5627160121
 20
20.040004906
 10
-9.5452401397
 20
20.0414142615
 10
-9.5233828638
 20
20.0427220537
 10
-9.4975140335
 20
20.0439061531
 10
-9.4680713781
 20
20.0449465237
 10
-9.4355531001
 20
20.0458255611
 10
-9.4005094447
 20
20.0465283905
 10
-9.3635333893
 20
20.0470431191
 10
-9.3252506099
 20
20.0473610372
  0
LWPOLYLINE
  5
224
100
AcDbEntity
  8
RACCORDO
100
AcDbPolyline
 62
7
  6
CONTINUOUS
 90
5
 70
0
 10
7.2419286989
 20
-20.8366629075
 10
7.2410711055
 20
-20.8368010859
 10
7.2391819589
 20
-20.8380636212
 10
7.2362200437
 20
-20.8403931378
 10
7.2269247241
 20
-20.8478512965
  0
LWPOLYLINE
  5
225
100
AcDbEntity
  8
RACCORDO
100
AcDbPolyline
 62
250
  6
CONTINUOUS
 90
13
 70
0
 10
7.0294001425
 20
-20.2585786438
 10
7.0553235464
 20
-20.257159202
 10
7.0808217567
 20
-20.2533749129
 10
7.1054631376
 20
-20.2472862956
 10
7.128834401
 20
-20.2389909837
 10
7.1505322297
 20
-20.2286273937
 10
7.170174151
 20
-20.2163768226
 10
7.1874402364
 20
-20.2024368699
 10
7.2020236077
 20
-20.1870530906
 10
7.2136494171
 20
-20.1705357589
 10
7.2221423768
 20
-20.1531896548
 10
7.2274017151
 20
-20.1352963416
 10
7.2293696815
 20
-20.1171572875
  0
LINE
  5
226
100
AcDbEntity
  8
DRAFT
100
AcDbLine
 62
7
  6
CONTINUOUS
 10
-6.9339198284
 20
-21.2
 11
6.9339198284
 21
-21.2
  0
LINE
  5
227
100
AcDbEntity
  8
DRAFT
100
AcDbLine
 62
7
  6
CONTINUOUS
 10
6.8667670239
 20
-21.1647852141
 11
3.75
 21
-21.1647852141
  0
LINE
  5
228
100
AcDbEntity
  8
DRAFT
100
AcDbLine
 62
7
  6
CONTINUOUS
 10
-3.75
 20
-21.1647852141
 11
-6.8667670239
 21
-21.1647852141
  0
LINE
  5
229
100
AcDbEntity
  8
RACCORDO
100
AcDbLine
 62
7
  6
CONTINUOUS
 10
-9.3501255952
 20
-20.9
 11
-7.3830351795
 21
-20.9
  0
LINE
  5
22A
100
AcDbEntity
  8
RACCORDO
100
AcDbLine
 62
7
  6
CONTINUOUS
 10
7.3830351795
 20
-20.9
 11
9.3501255952
 21
-20.9
  0
LWPOLYLINE
  5
22B
100
AcDbEntity
  8
RACCORDO
100
AcDbPolyline
 62
250
  6
CONTINUOUS
 90
13
 70
0
 10
-9.2879615093
 20
-20.5266837345
 10
-9.3271077807
 20
-20.5241041843
 10
-9.3655844083
 20
-20.5164454049
 10
-9.4027334084
 20
-20.5038384451
 10
-9.4379195362
 20
-20.4864989584
 10
-9.4705410889
 20
-20.4647235392
 10
-9.5000402096
 20
-20.4388846722
 10
-9.525912506
 20
-20.4094243018
 10
-9.5477156404
 20
-20.3768462676
 10
-9.5650768517
 20
-20.3417077355
 10
-9.5776993635
 20
-20.3046096252
 10
-9.5853674451
 20
-20.2661863267
 10
-9.5879500862
 20
-20.2270948741
  0
LWPOLYLINE
  5
22C
100
AcDbEntity
  8
RACCORDO
100
AcDbPolyline
 62
7
  6
CONTINUOUS
 90
4
 70
0
 10
-7.2359625226
 20
-20.8405916279
 10
-7.2390584773
 20
-20.8381523097
 10
-7.2410348192
 20
-20.8368223095
 10
-7.2419286989
 20
-20.8366629075
  0
LWPOLYLINE
  5
22D
100
AcDbEntity
  8
RACCORDO
100
AcDbPolyline
 62
7
  6
CONTINUOUS
 90
3
 70
0
 10
-7.2196903264
 20
-20.8538879832
 10
-7.2262675206
 20
-20.8484063534
 10
-7.2359625226
 20
-20.8405916279
  0
LINE
  5
22E
100
AcDbEntity
  8
RACCORDO
100
AcDbLine
 62
7
  6
CONTINUOUS
 10
-7.055874803
 20
20.9974535593
 11
-7.0425072881
 21
21.0094865114
  0
LINE
  5
22F
100
AcDbEntity
  8
RACCORDO
100
AcDbLine
 62
7
  6
CONTINUOUS
 10
-7.1094912525
 20
20.9499376582
 11
-7.055874803
 21
20.9974535593
  0
LWPOLYLINE
  5
230
100
AcDbEntity
  8
RACCORDO
100
AcDbPolyline
 62
7
  6
CONTINUOUS
 90
3
 70
0
 10
-7.1948944831
 20
20.8750755778
 10
-7.1610166114
 20
20.904584292
 10
-7.1094912525
 20
20.9499376582
  0
LINE
  5
231
100
AcDbEntity
  8
RACCORDO
100
AcDbLine
 62
7
  6
CONTINUOUS
 10
-7.2205806983
 20
20.8531402181
 11
-7.1948944831
 21
20.8750755778
  0
LWPOLYLINE
  5
232
100
AcDbEntity
  8
RACCORDO
100
AcDbPolyline
 62
250
  6
CONTINUOUS
 90
3
 70
0
 10
-6.7354735215
 20
18.5413293319
 10
-6.7572249791
 20
18.5267949192
 10
-6.7810436205
 20
18.5150769382
  0
LWPOLYLINE
  5
233
100
AcDbEntity
  8
RACCORDO
100
AcDbPolyline
 62
7
  6
CONTINUOUS
 90
4
 70
0
 10
-6.7432991968
 20
18.5154061091
 10
-6.7681744471
 20
18.5069073744
 10
-6.7939855153
 20
18.5017370046
 10
-6.8202886235
 20
18.5
  0
LWPOLYLINE
  5
234
100
AcDbEntity
  8
RACCORDO
100
AcDbPolyline
 62
7
  6
CONTINUOUS
 90
4
 70
0
 10
-6.7810436205
 20
18.5150769382
 10
-6.8054593334
 20
18.5068148347
 10
-6.8311169269
 20
18.5017110277
 10
-6.8572211714
 20
18.5
  0
LWPOLYLINE
  5
235
100
AcDbEntity
  8
RACCORDO
100
AcDbPolyline
 62
250
  6
CONTINUOUS
 90
4
 70
0
 10
-6.8598392317
 20
-20.2585786438
 10
-6.8338112531
 20
-20.2572623286
 10
-6.8082132153
 20
-20.2535604456
 10
-6.7834819673
 20
-20.2475324589
  0
LWPOLYLINE
  5
236
100
AcDbEntity
  8
0
100
AcDbPolyline
 62
7
  6
CONTINUOUS
 90
37
 70
0
 10
-4.286961065
 20
-19.06
 10
-4.2114628996
 20
-19.058929959
 10
-4.1390588972
 20
-19.055030087
 10
-4.0697490577
 20
-19.0483003815
 10
-4.0034521438
 20
-19.0389631762
 10
-3.9402493929
 20
-19.0267961271
 10
-3.8803845173
 20
-19.0111322111
 10
-3.8235448076
 20
-18.9921062827
 10
-3.7700429733
 20
-18.9695834598
 10
-3.7210608545
 20
-18.942492103
 10
-3.676391277
 20
-18.9097242235
 10
-3.6362414149
 20
-18.8723877427
 10
-3.6024146314
 20
-18.8327348926
 10
-3.5759130789
 20
-18.7910167264
 10
-3.555734605
 20
-18.7469821502
 10
-3.5406761153
 20
-18.7021302075
 10
-3.5306976567
 20
-18.6566246089
 10
-3.5258391823
 20
-18.6103016288
 10
-3.5250174573
 20
-18.564169182
 10
-3.527500468
 20
-18.5182176427
 10
-3.5340202281
 20
-18.4724566413
 10
-3.5456895434
 20
-18.4279229976
 10
-3.5626394752
 20
-18.3845254771
 10
-3.5847389621
 20
-18.3423553386
 10
-3.6127076265
 20
-18.3027231642
 10
-3.6473918472
 20
-18.2656001616
 10
-3.6879452454
 20
-18.2310151665
 10
-3.7325483068
 20
-18.2003652246
 10
-3.7808707567
 20
-18.1742465054
 10
-3.8332428699
 20
-18.1520628911
 10
-3.8888359555
 20
-18.1334229997
 10
-3.9474572386
 20
-18.1184705027
 10
-4.0092994942
 20
-18.1070617549
 10
-4.0741123568
 20
-18.0983743912
 10
-4.1418123713
 20
-18.092134292
 10
-4.2124829929
 20
-18.0886155854
 10
-4.2861242215
 20
-18.0878182736
  0
LINE
  5
237
100
AcDbEntity
  8
RACCORDO
100
AcDbLine
 62
250
  6
CONTINUOUS
 10
-9.2879615093
 20
-20.5266837345
 11
-7.5073728206
 21
-20.5266837345
  0
LINE
  5
238
100
AcDbEntity
  8
RACCORDO
100
AcDbLine
 62
250
  6
CONTINUOUS
 10
7.5073728206
 20
-20.5266837345
 11
9.2879615093
 21
-20.5266837345
  0
LINE
  5
239
100
AcDbEntity
  8
RACCORDO
100
AcDbLine
 62
250
  6
CONTINUOUS
 10
-6.8580061777
 20
-20.4686258279
 11
6.8580061777
 21
-20.4686258279
  0
LINE
  5
23A
100
AcDbEntity
  8
RACCORDO
100
AcDbLine
 62
7
  6
CONTINUOUS
 10
-6.6606915742
 20
-20.2979189575
 11
6.6606915742
 21
-20.2979189575
  0
LINE
  5
23B
100
AcDbEntity
  8
RACCORDO
100
AcDbLine
 62
250
  6
CONTINUOUS
 10
-7.0294001425
 20
-20.2585786438
 11
-6.8598392317
 21
-20.2585786438
  0
LINE
  5
23C
100
AcDbEntity
  8
RACCORDO
100
AcDbLine
 62
250
  6
CONTINUOUS
 10
6.8598392317
 20
-20.2585786438
 11
7.0294001425
 21
-20.2585786438
  0
LINE
  5
23D
100
AcDbEntity
  8
ASSI
100
AcDbLine
 62
7
  6
CONTINUOUS
 10
-6.5167778011
 20
-20.1560734983
 11
-0.3973151228
 21
-20.1560734983
  0
LINE
  5
23E
100
AcDbEntity
  8
ASSI
100
AcDbLine
 62
7
  6
CONTINUOUS
 10
0.3973151228
 20
-20.1560734983
 11
6.5167778011
 21
-20.1560734983
  0
LINE
  5
23F
100
AcDbEntity
  8
RACCORDO
100
AcDbLine
 62
250
  6
CONTINUOUS
 10
-7.2293696815
 20
-20.1171572875
 11
-6.6598468471
 21
-20.1171572875
  0
LINE
  5
240
100
AcDbEntity
  8
RACCORDO
100
AcDbLine
 62
250
  6
CONTINUOUS
 10
6.6598468471
 20
-20.1171572875
 11
7.2293696815
 21
-20.1171572875
  0
LINE
  5
241
100
AcDbEntity
  8
RACCORDO
100
AcDbLine
 62
250
  6
CONTINUOUS
 10
7.515636529
 20
-20.0474767673
 11
9.3252506128
 21
-20.0473610386
  0
LINE
  5
242
100
AcDbEntity
  8
RACCORDO
100
AcDbLine
 62
250
  6
CONTINUOUS
 10
-0.2629729446
 20
-19.883663494
 11
0.2629729446
 21
-19.883663494
  0
LINE
  5
243
100
AcDbEntity
  8
0
100
AcDbLine
 62
7
  6
CONTINUOUS
 10
1.850359
 20
-19.706303
 11
3.350368
 21
-19.706303
  0
LINE
  5
244
100
AcDbEntity
  8
0
100
AcDbLine
 62
7
  6
CONTINUOUS
 10
3.350368
 20
-19.517235
 11
2.14659
 21
-19.517235
  0
LINE
  5
245
100
AcDbEntity
  8
RACCORDO
100
AcDbLine
 62
250
  6
CONTINUOUS
 10
-0.0649210165
 20
-19.4007005808
 11
0.0649210165
 21
-19.4007005808
  0
LINE
  5
246
100
AcDbEntity
  8
0
100
AcDbLine
 62
7
  6
CONTINUOUS
 10
-5.3
 20
-19.2
 11
-1.3
 21
-19.2
  0
LINE
  5
247
100
AcDbEntity
  8
0
100
AcDbLine
 62
7
  6
CONTINUOUS
 10
-3.2
 20
-19.019162
 11
-3.059218
 21
-19.019162
  0
LINE
  5
248
100
AcDbEntity
  8
RACCORDO
100
AcDbLine
 62
250
  6
CONTINUOUS
 10
6.6598468471
 20
-19.0
 11
7.2293696815
 21
-19.0
  0
LINE
  5
249
100
AcDbEntity
  8
RACCORDO
100
AcDbLine
 62
250
  6
CONTINUOUS
 10
-6.6598468471
 20
-19.0
 11
-7.2293696815
 21
-19.0
  0
LWPOLYLINE
  5
24A
100
AcDbEntity
  8
RACCORDO
100
AcDbPolyline
 62
250
  6
CONTINUOUS
 90
13
 70
0
 10
-7.515636529
 20
-20.0474767673
 10
-9.3252506129
 20
-20.0473610373
 10
-9.3635333951
 20
-20.0470431182
 10
-9.4005094529
 20
-20.0465283891
 10
-9.4355531104
 20
-20.0458255597
 10
-9.4680713898
 20
-20.0449465228
 10
-9.497514046
 20
-20.0439061526
 10
-9.5233828763
 20
-20.0427220535
 10
-9.5452401514
 20
-20.0414142615
 10
-9.5627160221
 20
-20.0400049061
 10
-9.5755147772
 20
-20.0385178351
 10
-9.5834198475
 20
-20.0369782115
 10
-9.5862974704
 20
-20.0354120872
  0
LWPOLYLINE
  5
24B
100
AcDbEntity
  8
0
100
AcDbPolyline
 62
7
  6
CONTINUOUS
 90
40
 70
0
 10
-4.2864394993
 20
-18.8722392211
 10
-4.3340742318
 20
-18.87201261
 10
-4.3803444183
 20
-18.8707976449
 10
-4.4252500588
 20
-18.8685943255
 10
-4.4687170487
 20
-18.8654246407
 10
-4.5108194927
 20
-18.8612666004
 10
-4.5517797044
 20
-18.8560542355
 10
-4.5918950328
 20
-18.8500968086
 10
-4.630868129
 20
-18.8430850546
 10
-4.6680292599
 20
-18.8340252106
 10
-4.7035345148
 20
-18.8228546189
 10
-4.7372278043
 20
-18.8096359277
 10
-4.7679711273
 20
-18.7935633274
 10
-4.7954631201
 20
-18.7740928251
 10
-4.8200051464
 20
-18.7517683891
 10
-4.8413632967
 20
-18.7274161515
 10
-4.8596570502
 20
-18.7008849388
 10
-4.8747669276
 20
-18.6723259005
 10
-4.8861005827
 20
-18.6430186641
 10
-4.893678299
 20
-18.6132237762
 10
-4.8974797929
 20
-18.5826806816
 10
-4.8968518666
 20
-18.5518873658
 10
-4.8915234738
 20
-18.5204215466
 10
-4.8817656608
 20
-18.4887055012
 10
-4.8677383695
 20
-18.45850407
 10
-4.8493545748
 20
-18.4300158432
 10
-4.8267013018
 20
-18.4030422516
 10
-4.8001995664
 20
-18.3787524154
 10
-4.769566948
 20
-18.3574653645
 10
-4.7350858673
 20
-18.3388620973
 10
-4.6980246027
 20
-18.3231546923
 10
-4.6584142067
 20
-18.3108044284
 10
-4.6162236267
 20
-18.3013500457
 10
-4.572627984
 20
-18.2936198098
 10
-4.528027508
 20
-18.2874277149
 10
-4.4820219691
 20
-18.2829597719
 10
-4.4345858
 20
-18.2796022668
 10
-4.385710478
 20
-18.2771506287
 10
-4.3354045258
 20
-18.2758094299
 10
-4.2836679432
 20
-18.2755786708
  0
LWPOLYLINE
  5
24C
100
AcDbEntity
  8
RACCORDO
100
AcDbPolyline
 62
7
  6
CONTINUOUS
 90
5
 70
0
 10
-6.8572211714
 20
-18.5
 10
-6.8311169269
 20
-18.5017110277
 10
-6.8054593333
 20
-18.5068148348
 10
-6.7806873991
 20
-18.5152240935
 10
-6.776710767
 20
-18.5169219261
  0
LWPOLYLINE
  5
24D
100
AcDbEntity
  8
RACCORDO
100
AcDbPolyline
 62
7
  6
CONTINUOUS
 90
4
 70
0
 10
-6.7432134297
 20
-18.5154418811
 10
-6.7679982835
 20
-18.5069623748
 10
-6.7936861374
 20
-18.5017851593
 10
-6.8198368876
 20
-18.5
  0
LWPOLYLINE
  5
24E
100
AcDbEntity
  8
RACCORDO
100
AcDbPolyline
 62
250
  6
CONTINUOUS
 90
3
 70
0
 10
-6.776710767
 20
-18.5169219261
 10
-6.757224979
 20
-18.5267949193
 10
-6.7354735214
 20
-18.541329332
  0
LINE
  5
24F
100
AcDbEntity
  8
RACCORDO
100
AcDbLine
 62
7
  6
CONTINUOUS
 10
-7.1933978089
 20
-20.8763693993
 11
-7.2196903264
 21
-20.8538879832
  0
LWPOLYLINE
  5
250
100
AcDbEntity
  8
RACCORDO
100
AcDbPolyline
 62
7
  6
CONTINUOUS
 90
3
 70
0
 10
-7.0684513859
 20
-20.9862689466
 10
-7.0949472853
 20
-20.9628966864
 10
-7.1082227362
 20
-20.9510743423
  0
LWPOLYLINE
  5
251
100
AcDbEntity
  8
RACCORDO
100
AcDbPolyline
 62
7
  6
CONTINUOUS
 90
3
 70
0
 10
-7.1082227362
 20
-20.9510743423
 10
-7.1472234187
 20
-20.9166738744
 10
-7.1933978089
 20
-20.8763693993
  0
LWPOLYLINE
  5
252
100
AcDbEntity
  8
RACCORDO
100
AcDbPolyline
 62
7
  6
CONTINUOUS
 90
3
 70
0
 10
-7.0425072881
 20
-21.0094865114
 10
-7.0553773717
 20
-20.9978705966
 10
-7.0684513859
 20
-20.9862689466
  0
LWPOLYLINE
  5
253
100
AcDbEntity
  8
RACCORDO
100
AcDbPolyline
 62
7
  6
CONTINUOUS
 90
5
 70
0
 10
-6.6611858003
 20
18.5787024009
 10
-6.678390465
 20
18.5589942732
 10
-6.6980324725
 20
18.5416836961
 10
-6.7197873722
 20
18.5270694334
 10
-6.7432991968
 20
18.5154061091
  0
LWPOLYLINE
  5
254
100
AcDbEntity
  8
RACCORDO
100
AcDbPolyline
 62
250
  6
CONTINUOUS
 90
3
 70
0
 10
-6.698556545
 20
18.5782477142
 10
-6.7158052
 20
18.5585786438
 10
-6.7354735215
 20
18.5413293319
  0
LINE
  5
255
100
AcDbEntity
  8
0
100
AcDbLine
 62
7
  6
CONTINUOUS
 10
-2.2348011665
 20
19.0493123953
 11
-1.474963
 21
19.443173
  0
LINE
  5
256
100
AcDbEntity
  8
0
100
AcDbLine
 62
7
  6
CONTINUOUS
 10
-2.190302
 20
18.65561
 11
-1.474958
 21
19.02641
  0
LINE
  5
257
100
AcDbEntity
  8
0
100
AcDbLine
 62
7
  6
CONTINUOUS
 10
-3.325042
 20
17.121932
 11
-1.474954
 21
17.715935
  0
LINE
  5
258
100
AcDbEntity
  8
0
100
AcDbLine
 62
7
  6
CONTINUOUS
 10
-1.8019203385
 20
-17.9465360417
 11
-1.6657473936
 21
-17.9297770484
  0
LWPOLYLINE
  5
259
100
AcDbEntity
  8
0
100
AcDbPolyline
 62
7
  6
CONTINUOUS
 90
37
 70
0
 10
-4.2861242215
 20
-18.0878182736
 10
-4.3601323687
 20
-18.0880607865
 10
-4.4312125422
 20
-18.0913012397
 10
-4.4993647419
 20
-18.0975396311
 10
-4.5646868415
 20
-18.1066181934
 10
-4.6270809674
 20
-18.118694684
 10
-4.6862534986
 20
-18.1342423841
 10
-4.7423792406
 20
-18.1531742461
 10
-4.7952833879
 20
-18.1755772915
 10
-4.8441479041
 20
-18.2021858965
 10
-4.8894253911
 20
-18.2337967941
 10
-4.9306632469
 20
-18.2696131936
 10
-4.9656856288
 20
-18.3079791897
 10
-4.9934316364
 20
-18.3488322224
 10
-5.01496217
 20
-18.3922348068
 10
-5.0312840884
 20
-18.4367186741
 10
-5.0423821041
 20
-18.4821822942
 10
-5.0482715047
 20
-18.5287271756
 10
-5.0500050109
 20
-18.5751896331
 10
-5.0482781665
 20
-18.621546397
 10
-5.0423954278
 20
-18.6678207382
 10
-5.0313228841
 20
-18.7129188057
 10
-5.0149852022
 20
-18.7569217156
 10
-4.9934577153
 20
-18.7997483741
 10
-4.9659325119
 20
-18.8400616402
 10
-4.9315554003
 20
-18.8778993432
 10
-4.8911805722
 20
-18.9132236977
 10
-4.8465626914
 20
-18.9445841627
 10
-4.797960173
 20
-18.9714042872
 10
-4.745114602
 20
-18.9942605774
 10
-4.689005397
 20
-19.0134319325
 10
-4.6299150172
 20
-19.0287015079
 10
-4.5675610034
 20
-19.040286178
 10
-4.5020753972
 20
-19.0491154117
 10
-4.4335022122
 20
-19.0554990341
 10
-4.3617974348
 20
-19.0591272295
 10
-4.286961065
 20
-19.06
  0
LINE
  5
25A
100
AcDbEntity
  8
RACCORDO
100
AcDbLine
 62
250
  6
CONTINUOUS
 10
6.6572287868
 20
-18.7
 11
6.6200664561
 21
-18.7
  0
LINE
  5
25B
100
AcDbEntity
  8
RACCORDO
100
AcDbLine
 62
250
  6
CONTINUOUS
 10
-6.6572287868
 20
-18.7
 11
-6.6200664561
 21
-18.7
  0
LINE
  5
25C
100
AcDbEntity
  8
RACCORDO
100
AcDbLine
 62
250
  6
CONTINUOUS
 10
7.234606201
 20
-18.7
 11
7.3089365232
 21
-18.7
  0
LINE
  5
25D
100
AcDbEntity
  8
RACCORDO
100
AcDbLine
 62
250
  6
CONTINUOUS
 10
-7.234606201
 20
-18.7
 11
-7.3089365232
 21
-18.7
  0
LINE
  5
25E
100
AcDbEntity
  8
0
100
AcDbLine
 62
7
  6
CONTINUOUS
 10
1.850359
 20
-18.699984
 11
3.066765
 21
-18.699984
  0
LINE
  5
25F
100
AcDbEntity
  8
0
100
AcDbLine
 62
7
  6
CONTINUOUS
 10
-3.059218
 20
-18.623631
 11
-2.0
 21
-18.623631
  0
LINE
  5
260
100
AcDbEntity
  8
0
100
AcDbLine
 62
7
  6
CONTINUOUS
 10
3.350368
 20
-18.510901
 11
1.850359
 21
-18.510901
  0
LINE
  5
261
100
AcDbEntity
  8
RACCORDO
100
AcDbLine
 62
7
  6
CONTINUOUS
 10
6.8202886235
 20
-18.5
 11
7.1085073836
 21
-18.5
  0
LINE
  5
262
100
AcDbEntity
  8
RACCORDO
100
AcDbLine
 62
7
  6
CONTINUOUS
 10
-6.8202886235
 20
-18.5
 11
-7.1085073836
 21
-18.5
  0
LINE
  5
263
100
AcDbEntity
  8
0
100
AcDbLine
 62
7
  6
CONTINUOUS
 10
-2.0
 20
-18.464413
 11
-3.059218
 21
-18.464413
  0
LINE
  5
264
100
AcDbEntity
  8
0
100
AcDbLine
 62
7
  6
CONTINUOUS
 10
1.850359
 20
-18.092878
 11
3.350368
 21
-18.092878
  0
LINE
  5
265
100
AcDbEntity
  8
0
100
AcDbLine
 62
7
  6
CONTINUOUS
 10
-3.059218
 20
-18.068883
 11
-3.2
 21
-18.068883
  0
LINE
  5
266
100
AcDbEntity
  8
0
100
AcDbLine
 62
7
  6
CONTINUOUS
 10
3.182302
 20
-17.893286
 11
2.663401
 21
-17.893286
  0
LINE
  5
267
100
AcDbEntity
  8
0
100
AcDbLine
 62
7
  6
CONTINUOUS
 10
2.49532
 20
-17.893286
 11
2.018425
 21
-17.893286
  0
LINE
  5
268
100
AcDbEntity
  8
0
100
AcDbLine
 62
7
  6
CONTINUOUS
 10
2.663401
 20
-17.113875
 11
2.49532
 21
-17.113875
  0
LWPOLYLINE
  5
269
100
AcDbEntity
  8
0
100
AcDbPolyline
 62
7
  6
CONTINUOUS
 90
40
 70
0
 10
-4.2836679432
 20
-18.2755786708
 10
-4.2334808953
 20
-18.2759467435
 10
-4.184973127
 20
-18.2773034835
 10
-4.1381446383
 20
-18.2796488904
 10
-4.0930334106
 20
-18.2828497319
 10
-4.0496014626
 20
-18.2870392392
 10
-4.0077348501
 20
-18.2926171063
 10
-3.9673694616
 20
-18.2993343314
 10
-3.9285694086
 20
-18.3074399128
 10
-3.8914130814
 20
-18.3180805421
 10
-3.8554053812
 20
-18.3315854471
 10
-3.8210414068
 20
-18.3476253857
 10
-3.7898848455
 20
-18.3663593398
 10
-3.7622124336
 20
-18.3881716727
 10
-3.7377474348
 20
-18.4126779956
 10
-3.7172233276
 20
-18.4388841645
 10
-3.7008062247
 20
-18.4667058608
 10
-3.6883300133
 20
-18.4962273828
 10
-3.6800298345
 20
-18.5267075208
 10
-3.6759875635
 20
-18.5585464782
 10
-3.6761213249
 20
-18.5913440359
 10
-3.6804206339
 20
-18.6231583698
 10
-3.688960548
 20
-18.6535855894
 10
-3.7016660096
 20
-18.6830296005
 10
-3.7183013609
 20
-18.7107602911
 10
-3.7390317304
 20
-18.7368715439
 10
-3.7636919896
 20
-18.7612694965
 10
-3.7915510939
 20
-18.7829424287
 10
-3.8228931674
 20
-18.8014807687
 10
-3.8574340862
 20
-18.8172941144
 10
-3.8935904341
 20
-18.8305995019
 10
-3.9308540053
 20
-18.8410892663
 10
-3.9697330057
 20
-18.8490710867
 10
-4.0101686372
 20
-18.8556850103
 10
-4.0521011
 20
-18.8611882262
 10
-4.095590194
 20
-18.8653235488
 10
-4.1407565207
 20
-18.868459461
 10
-4.1876402808
 20
-18.8707187903
 10
-4.2362012737
 20
-18.8719787103
 10
-4.2864394993
 20
-18.8722392211
  0
LWPOLYLINE
  5
26A
100
AcDbEntity
  8
0
100
AcDbPolyline
 62
7
  6
CONTINUOUS
 90
6
 70
0
 10
-4.5551395421
 20
-17.1239777469
 10
-4.5148984115
 20
-17.1249595976
 10
-4.4762549143
 20
-17.1294621414
 10
-4.4392090505
 20
-17.137485375
 10
-4.403240459
 20
-17.1490434209
 10
-4.3688695009
 20
-17.1641221423
  0
LINE
  5
26B
100
AcDbEntity
  8
0
100
AcDbLine
 62
7
  6
CONTINUOUS
 10
-4.2169093573
 20
-17.1020723068
 11
-4.1562070787
 21
-17.1050107591
  0
LWPOLYLINE
  5
26C
100
AcDbEntity
  8
RACCORDO
100
AcDbPolyline
 62
7
  6
CONTINUOUS
 90
7
 70
0
 10
7.034636662
 20
-18.5
 10
7.0607379245
 20
-18.5017110277
 10
7.0863925872
 20
-18.5068148348
 10
7.1111616916
 20
-18.5152240935
 10
7.1346214316
 20
-18.5267949193
 10
7.1563704044
 20
-18.541329332
 10
7.1645043191
 20
-18.5479169535
  0
LWPOLYLINE
  5
26D
100
AcDbEntity
  8
0
100
AcDbPolyline
 62
7
  6
CONTINUOUS
 90
28
 70
0
 10
-4.5558757854
 20
-17.712315797
 10
-4.6048923615
 20
-17.7079495883
 10
-4.6503566852
 20
-17.6994191893
 10
-4.6922687563
 20
-17.6867245926
 10
-4.7308074436
 20
-17.6693434154
 10
-4.7657938784
 20
-17.6477980125
 10
-4.7966914545
 20
-17.623655484
 10
-4.8232950341
 20
-17.5969818763
 10
-4.8458097551
 20
-17.5677111152
 10
-4.8643144253
 20
-17.537212134
 10
-4.8789269072
 20
-17.5054626543
 10
-4.8895293382
 20
-17.4724849385
 10
-4.8958469394
 20
-17.4397147489
 10
-4.8976427139
 20
-17.4074592182
 10
-4.8951536585
 20
-17.3754112184
 10
-4.888815984
 20
-17.3440851334
 10
-4.8785828762
 20
-17.3132023563
 10
-4.8645011494
 20
-17.2830415026
 10
-4.8471474573
 20
-17.2549528017
 10
-4.8266792141
 20
-17.2291311657
 10
-4.8029390057
 20
-17.2053817067
 10
-4.7760312435
 20
-17.1844699655
 10
-4.745736484
 20
-17.1665083723
 10
-4.7122741707
 20
-17.1513845202
 10
-4.6764070456
 20
-17.1395266967
 10
-4.6383893562
 20
-17.1310776696
 10
-4.597966855
 20
-17.1258946851
 10
-4.5551395421
 20
-17.1239777469
  0
LWPOLYLINE
  5
26E
100
AcDbEntity
  8
0
100
AcDbPolyline
 62
7
  6
CONTINUOUS
 90
27
 70
0
 10
-4.1562070787
 20
-17.1050107591
 10
-4.0980350698
 20
-17.1106647451
 10
-4.0423933306
 20
-17.1190342617
 10
-3.9889958528
 20
-17.1298265895
 10
-3.9381286446
 20
-17.1433344375
 10
-3.8906497309
 20
-17.1604359398
 10
-3.8461824858
 20
-17.1815574178
 10
-3.8051035351
 20
-17.2062725204
 10
-3.7694007811
 20
-17.2341803688
 10
-3.7396204247
 20
-17.2661129061
 10
-3.715216265
 20
-17.3012381456
 10
-3.6965376021
 20
-17.3366593343
 10
-3.6842808527
 20
-17.3718045401
 10
-3.6777496
 20
-17.4072456931
 10
-3.6752038934
 20
-17.4418018628
 10
-3.6762504642
 20
-17.4755099105
 10
-3.6812825811
 20
-17.5083329871
 10
-3.6897400996
 20
-17.5389796151
 10
-3.7014080837
 20
-17.5672408112
 10
-3.7165014694
 20
-17.5933255865
 10
-3.7351049204
 20
-17.6165694654
 10
-3.7576054868
 20
-17.6366529797
 10
-3.7836161185
 20
-17.6538956247
 10
-3.8120603286
 20
-17.6685913699
 10
-3.8425792879
 20
-17.6808382095
 10
-3.8755318256
 20
-17.6905381637
 10
-3.9109179416
 20
-17.6976912378
  0
LWPOLYLINE
  5
26F
100
AcDbEntity
  8
RACCORDO
100
AcDbPolyline
 62
250
  6
CONTINUOUS
 90
4
 70
0
 10
6.7834819673
 20
-20.2475324589
 10
6.8082132153
 20
-20.2535604456
 10
6.8338112531
 20
-20.2572623286
 10
6.8598392317
 20
-20.2585786438
  0
LWPOLYLINE
  5
270
100
AcDbEntity
  8
0
100
AcDbPolyline
 62
7
  6
CONTINUOUS
 90
6
 70
0
 10
-1.9610597263
 20
-17.6898236688
 10
-1.9421465061
 20
-17.6954971975
 10
-1.923513734
 20
-17.7018817033
 10
-1.9051614102
 20
-17.7089771852
 10
-1.8867335237
 20
-17.7164901589
 10
-1.8685860853
 20
-17.7247141068
  0
LWPOLYLINE
  5
271
100
AcDbEntity
  8
0
100
AcDbPolyline
 62
7
  6
CONTINUOUS
 90
5
 70
0
 10
-2.4680708361
 20
-17.5066797022
 10
-2.3913646046
 20
-17.5336183873
 10
-2.3155483368
 20
-17.5587497154
 10
-2.240723711
 20
-17.5823527075
 10
-2.1668907271
 20
-17.6044273711
  0
LINE
  5
272
100
AcDbEntity
  8
0
100
AcDbLine
 62
7
  6
CONTINUOUS
 10
-1.947917801
 20
-17.5529245438
 11
-1.9848638516
 21
-17.5397712809
  0
LWPOLYLINE
  5
273
100
AcDbEntity
  8
0
100
AcDbPolyline
 62
7
  6
CONTINUOUS
 90
5
 70
0
 10
-1.9770554446
 20
-17.6842323201
 10
-1.9730514621
 20
-17.6856777135
 10
-1.9690506037
 20
-17.6870892535
 10
-1.9650533585
 20
-17.6884712386
 10
-1.9610597263
 20
-17.6898236688
  0
LINE
  5
274
100
AcDbEntity
  8
0
100
AcDbLine
 62
7
  6
CONTINUOUS
 10
-1.9848638516
 20
-17.5397712809
 11
-2.869832
 21
-17.2110441222
  0
LINE
  5
275
100
AcDbEntity
  8
0
100
AcDbLine
 62
7
  6
CONTINUOUS
 10
-1.9850757155
 20
-17.681265764
 11
-1.9770554446
 21
-17.6842323201
  0
LWPOLYLINE
  5
276
100
AcDbEntity
  8
0
100
AcDbPolyline
 62
7
  6
CONTINUOUS
 90
3
 70
0
 10
-2.869832
 20
-17.3582683034
 10
-2.7868457435
 20
-17.3892216344
 10
-2.4680708361
 20
-17.5066797022
  0
LWPOLYLINE
  5
277
100
AcDbEntity
  8
0
100
AcDbPolyline
 62
7
  6
CONTINUOUS
 90
3
 70
0
 10
-1.9971456858
 20
-17.6767038811
 10
-1.9931172827
 20
-17.678241168
 10
-1.9850757155
 20
-17.681265764
  0
LWPOLYLINE
  5
278
100
AcDbEntity
  8
RACCORDO
100
AcDbPolyline
 62
250
  6
CONTINUOUS
 90
3
 70
0
 10
-6.7354735214
 20
-18.541329332
 10
-6.7158052
 20
-18.5585786439
 10
-6.698556545
 20
-18.5782477143
  0
LINE
  5
279
100
AcDbEntity
  8
DRAFT
100
AcDbLine
 62
7
  6
CONTINUOUS
 10
6.9339198284
 20
21.2
 11
6.8667670239
 21
21.1647852141
  0
LINE
  5
27A
100
AcDbEntity
  8
RACCORDO
100
AcDbLine
 62
7
  6
CONTINUOUS
 10
7.3830351795
 20
20.9
 11
7.2419286989
 21
20.8366629075
  0
LINE
  5
27B
100
AcDbEntity
  8
0
100
AcDbLine
 62
7
  6
CONTINUOUS
 10
-1.838789
 20
17.229107
 11
-1.474958
 21
17.345916
  0
LINE
  5
27C
100
AcDbEntity
  8
0
100
AcDbLine
 62
7
  6
CONTINUOUS
 10
-2.748836
 20
16.936914
 11
-2.190302
 21
17.116239
  0
LINE
  5
27D
100
AcDbEntity
  8
0
100
AcDbLine
 62
7
  6
CONTINUOUS
 10
-2.3189965292
 20
-16.1931673505
 11
-2.2683099367
 21
-16.1826295828
  0
LWPOLYLINE
  5
27E
100
AcDbEntity
  8
RACCORDO
100
AcDbPolyline
 62
7
  6
CONTINUOUS
 90
3
 70
0
 10
-7.1607168843
 20
-18.5069324742
 10
-7.1348648826
 20
-18.5017443099
 10
-7.1085073836
 20
-18.5
  0
LWPOLYLINE
  5
27F
100
AcDbEntity
  8
0
100
AcDbPolyline
 62
7
  6
CONTINUOUS
 90
36
 70
0
 10
-3.8963143255
 20
-17.8729346314
 10
-3.8428050263
 20
-17.8625098791
 10
-3.7934838103
 20
-17.8484693621
 10
-3.7483506776
 20
-17.8308130695
 10
-3.7073770348
 20
-17.8094342095
 10
-3.6705914751
 20
-17.7844395433
 10
-3.6380797784
 20
-17.756149387
 10
-3.6100106518
 20
-17.7247156813
 10
-3.5862153882
 20
-17.6899864441
 10
-3.566273645
 20
-17.6518261052
 10
-3.5498234013
 20
-17.6098858047
 10
-3.5372266781
 20
-17.5645143423
 10
-3.5291491965
 20
-17.5166226407
 10
-3.525406806
 20
-17.4654812815
 10
-3.526183657
 20
-17.4118196261
 10
-3.5326979218
 20
-17.3587368084
 10
-3.5454068115
 20
-17.3064220141
 10
-3.5638531149
 20
-17.2546860729
 10
-3.5878833711
 20
-17.2060606464
 10
-3.6175136612
 20
-17.161155403
 10
-3.6527279039
 20
-17.1193607396
 10
-3.6933243948
 20
-17.0813794408
 10
-3.7395187932
 20
-17.0472863115
 10
-3.7910954398
 20
-17.0170066043
 10
-3.8472056521
 20
-16.9910187792
 10
-3.9081298312
 20
-16.9696990238
 10
-3.973587576
 20
-16.9526711935
 10
-4.0418890007
 20
-16.9392852445
 10
-4.113348311
 20
-16.9296525329
 10
-4.1876513012
 20
-16.92366172
 10
-4.2621654686
 20
-16.9203287118
 10
-4.336934183
 20
-16.9191315361
 10
-4.4119140745
 20
-16.9205921674
 10
-4.4843425312
 20
-16.9252924285
 10
-4.5538611702
 20
-16.932969276
 10
-4.6208283744
 20
-16.9438857453
  0
LWPOLYLINE
  5
280
100
AcDbEntity
  8
0
100
AcDbPolyline
 62
7
  6
CONTINUOUS
 90
17
 70
0
 10
-3.9463838665
 20
-16.7401112656
 10
-3.8972027148
 20
-16.7328540252
 10
-3.8493817915
 20
-16.720542984
 10
-3.8029210967
 20
-16.7031781296
 10
-3.7569762224
 20
-16.6806976634
 10
-3.7123915765
 20
-16.6531633431
 10
-3.6717003828
 20
-16.620760484
 10
-3.6352217226
 20
-16.5831761269
 10
-3.6026365145
 20
-16.5407231613
 10
-3.5755207386
 20
-16.4945256788
 10
-3.5542705092
 20
-16.4440382929
 10
-3.5384897119
 20
-16.3898063152
 10
-3.5285659836
 20
-16.3345899203
 10
-3.5247336505
 20
-16.2787394596
 10
-3.5267583865
 20
-16.2219045639
 10
-3.5343248489
 20
-16.1657943747
 10
-3.5474808003
 20
-16.1099497275
  0
LWPOLYLINE
  5
281
100
AcDbEntity
  8
0
100
AcDbPolyline
 62
7
  6
CONTINUOUS
 90
7
 70
0
 10
-2.5122106077
 20
-16.3345641367
 10
-2.5646374533
 20
-16.3421841951
 10
-2.6140576365
 20
-16.3539745129
 10
-2.6600787443
 20
-16.3702574661
 10
-2.7030931896
 20
-16.390710655
 10
-2.7418859558
 20
-16.4143694026
 10
-2.7762488775
 20
-16.4412688042
  0
LWPOLYLINE
  5
282
100
AcDbEntity
  8
0
100
AcDbPolyline
 62
7
  6
CONTINUOUS
 90
3
 70
0
 10
-2.4209073691
 20
-16.202616294
 10
-2.3700162686
 20
-16.1996678426
 10
-2.3189965292
 20
-16.1931673505
  0
LINE
  5
283
100
AcDbEntity
  8
0
100
AcDbLine
 62
7
  6
CONTINUOUS
 10
-4.253581371
 20
-17.1031154381
 11
-4.2453599177
 21
-17.1027648116
  0
LWPOLYLINE
  5
284
100
AcDbEntity
  8
0
100
AcDbPolyline
 62
7
  6
CONTINUOUS
 90
7
 70
0
 10
-4.2453599177
 20
-17.1027648116
 10
-4.2371759386
 20
-17.1024636431
 10
-4.2330978965
 20
-17.1023310851
 10
-4.2290319643
 20
-17.1022244233
 10
-4.2249789854
 20
-17.1021478215
 10
-4.2209381164
 20
-17.102097116
 10
-4.2169093573
 20
-17.1020723068
  0
LINE
  5
285
100
AcDbEntity
  8
0
100
AcDbLine
 62
7
  6
CONTINUOUS
 10
-2.869832
 20
-17.085084
 11
-1.66648
 21
-17.085084
  0
LINE
  5
286
100
AcDbEntity
  8
0
100
AcDbLine
 62
7
  6
CONTINUOUS
 10
2.018425
 20
-17.057151
 11
1.850359
 21
-17.057151
  0
LINE
  5
287
100
AcDbEntity
  8
0
100
AcDbLine
 62
7
  6
CONTINUOUS
 10
3.350368
 20
-17.050852
 11
3.182302
 21
-17.050852
  0
LINE
  5
288
100
AcDbEntity
  8
0
100
AcDbLine
 62
7
  6
CONTINUOUS
 10
-2.7554725555
 20
-16.951006
 11
-2.869832
 21
-16.951006
  0
LINE
  5
289
100
AcDbEntity
  8
0
100
AcDbLine
 62
7
  6
CONTINUOUS
 10
-1.66648
 20
-16.937598
 11
-2.090817339
 21
-16.937598
  0
LINE
  5
28A
100
AcDbEntity
  8
0
100
AcDbLine
 62
7
  6
CONTINUOUS
 10
-4.675000008
 20
-15.4424756606
 11
-4.4977029813
 21
-15.4424756606
  0
LWPOLYLINE
  5
28B
100
AcDbEntity
  8
0
100
AcDbPolyline
 62
7
  6
CONTINUOUS
 90
3
 70
0
 10
-2.4054376317
 20
-16.331619323
 10
-2.4591693547
 20
-16.3311118503
 10
-2.5122106077
 20
-16.3345641367
  0
LWPOLYLINE
  5
28C
100
AcDbEntity
  8
0
100
AcDbPolyline
 62
7
  6
CONTINUOUS
 90
20
 70
0
 10
-2.4422021601
 20
-16.4817326579
 10
-2.4036216767
 20
-16.4822186797
 10
-2.3668341866
 20
-16.484969297
 10
-2.3318396899
 20
-16.4899845085
 10
-2.2984238593
 20
-16.4971777656
 10
-2.2668010221
 20
-16.5066356115
 10
-2.2376141602
 20
-16.518617681
 10
-2.2109509679
 20
-16.5332964253
 10
-2.1867237509
 20
-16.5504993794
 10
-2.1653124088
 20
-16.5699688019
 10
-2.1466399471
 20
-16.5921407102
 10
-2.1307833603
 20
-16.6165790667
 10
-2.1183535315
 20
-16.6417180547
 10
-2.1094913285
 20
-16.6672823076
 10
-2.1040558835
 20
-16.6935471856
 10
-2.1022354761
 20
-16.7197729736
 10
-2.1042002498
 20
-16.7459990573
 10
-2.1097800611
 20
-16.7721860511
 10
-2.1186527587
 20
-16.7974760906
 10
-2.1309218332
 20
-16.8220749526
  0
LWPOLYLINE
  5
28D
100
AcDbEntity
  8
0
100
AcDbPolyline
 62
7
  6
CONTINUOUS
 90
5
 70
0
 10
-2.419096416
 20
-15.4026039809
 10
-2.4234474896
 20
-15.4025209066
 10
-2.4277872514
 20
-15.4024612169
 10
-2.4321164436
 20
-15.4024216596
 10
-2.4364350663
 20
-15.4024022346
  0
LINE
  5
28E
100
AcDbEntity
  8
0
100
AcDbLine
 62
7
  6
CONTINUOUS
 10
-2.4059872006
 20
-15.4029414757
 11
-2.419096416
 21
-15.4026039809
  0
LINE
  5
28F
100
AcDbEntity
  8
0
100
AcDbLine
 62
7
  6
CONTINUOUS
 10
-2.397207
 20
-15.4032140139
 11
-2.4059872006
 21
-15.4029414757
  0
LWPOLYLINE
  5
290
100
AcDbEntity
  8
0
100
AcDbPolyline
 62
7
  6
CONTINUOUS
 90
7
 70
0
 10
-2.4296787805
 20
-16.9510055866
 10
-2.4705017438
 20
-16.9494852366
 10
-2.5090101742
 20
-16.9456752971
 10
-2.5452040715
 20
-16.9395757662
 10
-2.5792173383
 20
-16.9311659982
 10
-2.6109160721
 20
-16.9204666321
 10
-2.6398985658
 20
-16.9075395916
  0
LWPOLYLINE
  5
291
100
AcDbEntity
  8
RACCORDO
100
AcDbPolyline
 62
7
  6
CONTINUOUS
 90
13
 70
0
 10
-6.7148190698
 20
-15.2755396155
 10
-6.689215249
 20
-15.2772689045
 10
-6.663934752
 20
-15.2824239732
 10
-6.6394055689
 20
-15.2909646938
 10
-6.6160314746
 20
-15.3028251149
 10
-6.5942500331
 20
-15.3178327493
 10
-6.5745074607
 20
-15.3356839056
 10
-6.5571737496
 20
-15.3560877534
 10
-6.54252822
 20
-15.3787409917
 10
-6.5308192401
 20
-15.4032420839
 10
-6.5222705553
 20
-15.4291951871
 10
-6.5170642143
 20
-15.4562082553
 10
-6.5153193024
 20
-15.4838500694
  0
LWPOLYLINE
  5
292
100
AcDbEntity
  8
0
100
AcDbPolyline
 62
7
  6
CONTINUOUS
 90
25
 70
0
 10
-2.517877
 20
-16.0426257045
 10
-2.55445012
 20
-16.0380586561
 10
-2.5887534363
 20
-16.0299792713
 10
-2.6207869489
 20
-16.0183875446
 10
-2.6509873691
 20
-16.0030994293
 10
-2.6789179856
 20
-15.9842989534
 10
-2.7032686645
 20
-15.9625382221
 10
-2.7237594647
 20
-15.9373937102
 10
-2.7406703272
 20
-15.9092889149
 10
-2.7535309415
 20
-15.8800464831
 10
-2.7621406526
 20
-15.8497898544
 10
-2.7667001154
 20
-15.8183955771
 10
-2.7673409836
 20
-15.7873159787
 10
-2.7639720428
 20
-15.7565806843
 10
-2.7566845074
 20
-15.726160073
 10
-2.7458836745
 20
-15.6974176204
 10
-2.731528506
 20
-15.6702823996
 10
-2.7136600399
 20
-15.6448253553
 10
-2.6928066875
 20
-15.6226227857
 10
-2.6687069481
 20
-15.6042977796
 10
-2.6416223222
 20
-15.5892272749
 10
-2.6128657232
 20
-15.5771183468
 10
-2.5828747887
 20
-15.5678733576
 10
-2.5512118809
 20
-15.5615899568
 10
-2.517877
 20
-15.5582681479
  0
LINE
  5
293
100
AcDbEntity
  8
0
100
AcDbLine
 62
7
  6
CONTINUOUS
 10
-4.4199582754
 20
-16.3576138625
 11
-4.2593184979
 21
-16.3780198013
  0
LWPOLYLINE
  5
294
100
AcDbEntity
  8
0
100
AcDbPolyline
 62
7
  6
CONTINUOUS
 90
9
 70
0
 10
-4.628581363
 20
-16.5377468707
 10
-4.6632137973
 20
-16.5319693464
 10
-4.6964775175
 20
-16.5234060859
 10
-4.7283725236
 20
-16.5120570843
 10
-4.7594753539
 20
-16.4981037783
 10
-4.7892094701
 20
-16.4813647174
 10
-4.8158452571
 20
-16.4612955623
 10
-4.8390943437
 20
-16.4372844238
 10
-4.8592451009
 20
-16.4099431602
  0
LWPOLYLINE
  5
295
100
AcDbEntity
  8
0
100
AcDbPolyline
 62
7
  6
CONTINUOUS
 90
4
 70
0
 10
-2.5731555764
 20
-16.1867662839
 10
-2.5227218781
 20
-16.1961798711
 10
-2.4721316165
 20
-16.201527477
 10
-2.4209073691
 20
-16.202616294
  0
LWPOLYLINE
  5
296
100
AcDbEntity
  8
RACCORDO
100
AcDbPolyline
 62
7
  6
CONTINUOUS
 90
3
 70
0
 10
7.1610692283
 20
-18.5070349419
 10
7.1354636732
 20
-18.5018319132
 10
7.1094109243
 20
-18.5
  0
LINE
  5
297
100
AcDbEntity
  8
0
100
AcDbLine
 62
7
  6
CONTINUOUS
 10
-2.6229552888
 20
-16.1730938957
 11
-2.5731555764
 21
-16.1867662839
  0
LWPOLYLINE
  5
298
100
AcDbEntity
  8
0
100
AcDbPolyline
 62
7
  6
CONTINUOUS
 90
5
 70
0
 10
-4.6072316108
 20
-16.0272466503
 10
-4.5755858098
 20
-16.0371674094
 10
-4.5448738553
 20
-16.0538586223
 10
-4.5153374363
 20
-16.076203309
 10
-4.4894619896
 20
-16.1025432135
  0
LINE
  5
299
100
AcDbEntity
  8
0
100
AcDbLine
 62
7
  6
CONTINUOUS
 10
-1.9139134535
 20
-17.5658568625
 11
-1.947917801
 21
-17.5529245438
  0
LINE
  5
29A
100
AcDbEntity
  8
0
100
AcDbLine
 62
7
  6
CONTINUOUS
 10
-1.8791798592
 20
-17.5799643487
 11
-1.9139134535
 21
-17.5658568625
  0
LINE
  5
29B
100
AcDbEntity
  8
0
100
AcDbLine
 62
7
  6
CONTINUOUS
 10
-1.8474351106
 20
-17.5935082196
 11
-1.8791798592
 21
-17.5799643487
  0
LINE
  5
29C
100
AcDbEntity
  8
RACCORDO
100
AcDbLine
 62
7
  6
CONTINUOUS
 10
7.2419286989
 20
-20.8366629075
 11
7.3830351795
 21
-20.9
  0
LWPOLYLINE
  5
29D
100
AcDbEntity
  8
0
100
AcDbPolyline
 62
7
  6
CONTINUOUS
 90
23
 70
0
 10
-4.5006263426
 20
-15.8785901041
 10
-4.5363953323
 20
-15.8602660155
 10
-4.5741110349
 20
-15.846960594
 10
-4.613675798
 20
-15.8385405233
 10
-4.6537537198
 20
-15.8348799813
 10
-4.6942723852
 20
-15.8358129111
 10
-4.7353042093
 20
-15.8415053719
 10
-4.7757305361
 20
-15.8523297083
 10
-4.8158039695
 20
-15.8683853637
 10
-4.8552719056
 20
-15.8895728679
 10
-4.8922578761
 20
-15.9159661865
 10
-4.9267682525
 20
-15.9479681999
 10
-4.9587966634
 20
-15.9851759674
 10
-4.9864475251
 20
-16.0264547221
 10
-5.0094681165
 20
-16.0724083386
 10
-5.0281111587
 20
-16.1224328693
 10
-5.0412392322
 20
-16.173581845
 10
-5.0482895515
 20
-16.2257061272
 10
-5.049824902
 20
-16.2789548315
 10
-5.0463962193
 20
-16.3308289236
 10
-5.0380984634
 20
-16.3810490409
 10
-5.0248366743
 20
-16.4298945744
 10
-5.0068769079
 20
-16.4757046626
  0
LINE
  5
29E
100
AcDbEntity
  8
DRAFT
100
AcDbLine
 62
7
  6
CONTINUOUS
 10
6.9339198284
 20
-21.2
 11
6.8667670239
 21
-21.1647852141
  0
LWPOLYLINE
  5
29F
100
AcDbEntity
  8
0
100
AcDbPolyline
 62
7
  6
CONTINUOUS
 90
7
 70
0
 10
-1.8685860853
 20
-17.7247141068
 10
-1.8517871274
 20
-17.7345294764
 10
-1.8363372352
 20
-17.7462575562
 10
-1.8222358234
 20
-17.7595770497
 10
-1.8105491688
 20
-17.7744045248
 10
-1.8017353479
 20
-17.790938366
 10
-1.7953362842
 20
-17.808980178
  0
LWPOLYLINE
  5
2A0
100
AcDbEntity
  8
0
100
AcDbPolyline
 62
7
  6
CONTINUOUS
 90
5
 70
0
 10
-2.6398985658
 20
-16.9075395916
 10
-2.6660280246
 20
-16.892273078
 10
-2.6894412433
 20
-16.874778877
 10
-2.7101468984
 20
-16.8554542891
 10
-2.7283299276
 20
-16.8340206708
  0
LWPOLYLINE
  5
2A1
100
AcDbEntity
  8
0
100
AcDbPolyline
 62
7
  6
CONTINUOUS
 90
5
 70
0
 10
-5.05
 20
-15.0100391079
 10
-5.0023235809
 20
-15.0380548715
 10
-4.9560540174
 20
-15.0712154268
 10
-4.9111913097
 20
-15.1095207428
 10
-4.8676080142
 20
-15.1531528075
  0
LINE
  5
2A2
100
AcDbEntity
  8
0
100
AcDbLine
 62
7
  6
CONTINUOUS
 10
-4.3688695009
 20
-17.1641221423
 11
-4.3376572589
 21
-17.1826791435
  0
LWPOLYLINE
  5
2A3
100
AcDbEntity
  8
0
100
AcDbPolyline
 62
7
  6
CONTINUOUS
 90
3
 70
0
 10
-4.3376572589
 20
-17.1826791435
 10
-4.3099215688
 20
-17.2050149918
 10
-4.2853445948
 20
-17.2308290894
  0
LWPOLYLINE
  5
2A4
100
AcDbEntity
  8
RACCORDO
100
AcDbPolyline
 62
250
  6
CONTINUOUS
 90
6
 70
0
 10
-6.698556545
 20
-18.5782477143
 10
-6.6840226857
 20
-18.6000000001
 10
-6.6724523006
 20
-18.6234633136
 10
-6.664043362
 20
-18.648236191
 10
-6.6589397493
 20
-18.6738947616
 10
-6.6572287868
 20
-18.7
  0
LWPOLYLINE
  5
2A5
100
AcDbEntity
  8
RACCORDO
100
AcDbPolyline
 62
7
  6
CONTINUOUS
 90
6
 70
0
 10
-6.6467477188
 20
-18.6004004561
 10
-6.6612085203
 20
-18.5786699409
 10
-6.6783904723
 20
-18.5589942658
 10
-6.6980161506
 20
-18.5417022105
 10
-6.7197508472
 20
-18.5270906564
 10
-6.7432134297
 20
-18.5154418811
  0
LINE
  5
2A6
100
AcDbEntity
  8
RACCORDO
100
AcDbLine
 62
7
  6
CONTINUOUS
 10
-0.3930628585
 20
20.437994886
 11
-0.2629729446
 21
20.5680847998
  0
LWPOLYLINE
  5
2A7
100
AcDbEntity
  8
RACCORDO
100
AcDbPolyline
 62
7
  6
CONTINUOUS
 90
22
 70
0
 10
6.8556039598
 20
20.7438927334
 10
6.8439789161
 20
20.7378805693
 10
6.8321363454
 20
20.7312003699
 10
6.8200762477
 20
20.7238550254
 10
6.8076750791
 20
20.715833352
 10
6.7950563834
 20
20.707188436
 10
6.7825907924
 20
20.6980495277
 10
6.7702734169
 20
20.6884737471
 10
6.758109146
 20
20.6785497693
 10
6.7464832792
 20
20.6684860309
 10
6.7355401445
 20
20.6585352325
 10
6.7251354139
 20
20.6486470512
 10
6.7152214031
 20
20.6386064448
 10
6.7056971984
 20
20.6285495836
 10
6.6966637136
 20
20.6186690987
 10
6.6883760053
 20
20.6089416221
 10
6.6807906414
 20
20.59955129
 10
6.6739510539
 20
20.5909907663
 10
6.6682425964
 20
20.5837458779
 10
6.6637937198
 20
20.5781702503
 10
6.6604759731
 20
20.5745483306
 10
6.6582893563
 20
20.5731858629
  0
LINE
  5
2A8
100
AcDbEntity
  8
0
100
AcDbLine
 62
7
  6
CONTINUOUS
 10
-3.325037
 20
14.660905
 11
-2.120197
 21
15.006388
  0
LINE
  5
2A9
100
AcDbEntity
  8
0
100
AcDbLine
 62
7
  6
CONTINUOUS
 10
-2.694959
 20
14.471557
 11
-1.474954
 21
14.821383
  0
LINE
  5
2AA
100
AcDbEntity
  8
0
100
AcDbLine
 62
7
  6
CONTINUOUS
 10
-2.5758929714
 20
-15.4172644287
 11
-2.6201896354
 21
-15.4291885196
  0
LWPOLYLINE
  5
2AB
100
AcDbEntity
  8
0
100
AcDbPolyline
 62
7
  6
CONTINUOUS
 90
30
 70
0
 10
-4.6208283744
 20
-16.9438857453
 10
-4.6835566811
 20
-16.959412771
 10
-4.7417052537
 20
-16.9800674687
 10
-4.7956149287
 20
-17.0053326873
 10
-4.8446207523
 20
-17.0350279519
 10
-4.8886143636
 20
-17.0694704919
 10
-4.9277041235
 20
-17.1083430178
 10
-4.9615501604
 20
-17.1505132801
 10
-4.9902188248
 20
-17.1960389516
 10
-5.0136437663
 20
-17.2448622986
 10
-5.0312860621
 20
-17.2956779809
 10
-5.0431056926
 20
-17.3488418933
 10
-5.0491426774
 20
-17.4039980939
 10
-5.0489781522
 20
-17.4587735264
 10
-5.0421447707
 20
-17.5132332705
 10
-5.0291098791
 20
-17.5673122535
 10
-5.0108566529
 20
-17.6184422469
 10
-4.9874950866
 20
-17.6662336259
 10
-4.9589151855
 20
-17.7110760792
 10
-4.925770141
 20
-17.7515703888
 10
-4.8881373912
 20
-17.7874753532
 10
-4.8459394979
 20
-17.8190322462
 10
-4.7995973379
 20
-17.8455655746
 10
-4.7484842412
 20
-17.8669872908
 10
-4.6932268779
 20
-17.8833854946
 10
-4.6361261354
 20
-17.8943489117
 10
-4.5765706755
 20
-17.8997009689
 10
-4.5151718365
 20
-17.8996182588
 10
-4.4560645204
 20
-17.8942192478
 10
-4.4000525085
 20
-17.8834338287
  0
LWPOLYLINE
  5
2AC
100
AcDbEntity
  8
0
100
AcDbPolyline
 62
7
  6
CONTINUOUS
 90
11
 70
0
 10
-4.0633893508
 20
-15.7658188902
 10
-4.1077959146
 20
-15.7744960666
 10
-4.1497293098
 20
-15.7878725972
 10
-4.1893882692
 20
-15.8059316967
 10
-4.2255661193
 20
-15.8284542144
 10
-4.258087558
 20
-15.8559747725
 10
-4.2871278876
 20
-15.8879587042
 10
-4.3120063411
 20
-15.922582932
 10
-4.3324959965
 20
-15.9592397563
 10
-4.3488237758
 20
-15.9985368429
 10
-4.3609896791
 20
-16.0404741715
  0
LWPOLYLINE
  5
2AD
100
AcDbEntity
  8
0
100
AcDbPolyline
 62
7
  6
CONTINUOUS
 90
3
 70
0
 10
-2.4842893123
 20
-15.4037740882
 10
-2.5307752807
 20
-15.408728154
 10
-2.5758929714
 20
-15.4172644287
  0
LWPOLYLINE
  5
2AE
100
AcDbEntity
  8
0
100
AcDbPolyline
 62
7
  6
CONTINUOUS
 90
21
 70
0
 10
2.8571303748
 20
-13.7768645005
 10
2.8928185086
 20
-13.7733770501
 10
2.9284273062
 20
-13.7687252125
 10
2.9637553666
 20
-13.7624655043
 10
2.9989133542
 20
-13.7545729272
 10
3.0337906046
 20
-13.7450724756
 10
3.0678537236
 20
-13.7335956529
 10
3.1010676405
 20
-13.7201706994
 10
3.133467426
 20
-13.7047693667
 10
3.164624897
 20
-13.6869384225
 10
3.1945983691
 20
-13.6666538454
 10
3.2233295268
 20
-13.6439396416
 10
3.2502152412
 20
-13.6184146164
 10
3.2753131817
 20
-13.589814663
 10
3.2985656789
 20
-13.5584038627
 10
3.3191965955
 20
-13.5245933016
 10
3.3369768611
 20
-13.4883671066
 10
3.3521355461
 20
-13.4497411237
 10
3.3645837247
 20
-13.4091740217
 10
3.3742142908
 20
-13.3664439598
 10
3.3811343505
 20
-13.3217727522
  0
LWPOLYLINE
  5
2AF
100
AcDbEntity
  8
0
100
AcDbPolyline
 62
7
  6
CONTINUOUS
 90
4
 70
0
 10
2.864467135
 20
-13.6822274931
 10
2.8265413922
 20
-13.6857864526
 10
2.788316133
 20
-13.6877716786
 10
2.7497913572
 20
-13.6881831718
  0
LWPOLYLINE
  5
2B0
100
AcDbEntity
  8
0
100
AcDbPolyline
 62
7
  6
CONTINUOUS
 90
3
 70
0
 10
2.7856503659
 20
-13.7806418976
 10
2.8214300385
 20
-13.779335392
 10
2.8571303748
 20
-13.7768645005
  0
LINE
  5
2B1
100
AcDbEntity
  8
0
100
AcDbLine
 62
7
  6
CONTINUOUS
 10
-2.4364350663
 20
-15.4024022346
 11
-2.4842893123
 21
-15.4037740882
  0
LINE
  5
2B2
100
AcDbEntity
  8
0
100
AcDbLine
 62
7
  6
CONTINUOUS
 10
1.850359
 20
-15.336591
 11
3.350368
 21
-15.336591
  0
LINE
  5
2B3
100
AcDbEntity
  8
RACCORDO
100
AcDbLine
 62
7
  6
CONTINUOUS
 10
-7.319462557
 20
-15.2755396155
 11
-6.7148190698
 21
-15.2755396155
  0
LINE
  5
2B4
100
AcDbEntity
  8
RACCORDO
100
AcDbLine
 62
7
  6
CONTINUOUS
 10
-0.1992738542
 20
-15.2755396155
 11
0.1992738542
 21
-15.2755396155
  0
LINE
  5
2B5
100
AcDbEntity
  8
RACCORDO
100
AcDbLine
 62
7
  6
CONTINUOUS
 10
6.7148190698
 20
-15.2755396155
 11
7.319462557
 21
-15.2755396155
  0
LINE
  5
2B6
100
AcDbEntity
  8
0
100
AcDbLine
 62
7
  6
CONTINUOUS
 10
3.182302
 20
-15.137013
 11
2.663401
 21
-15.137013
  0
LINE
  5
2B7
100
AcDbEntity
  8
0
100
AcDbLine
 62
7
  6
CONTINUOUS
 10
2.49532
 20
-15.137013
 11
2.018425
 21
-15.137013
  0
LINE
  5
2B8
100
AcDbEntity
  8
0
100
AcDbLine
 62
7
  6
CONTINUOUS
 10
-4.7188108564
 20
-15.0752990264
 11
-3.55
 21
-15.0752990264
  0
LINE
  5
2B9
100
AcDbEntity
  8
0
100
AcDbLine
 62
7
  6
CONTINUOUS
 10
-3.55
 20
-14.8917107093
 11
-5.05
 21
-14.8917107093
  0
LINE
  5
2BA
100
AcDbEntity
  8
0
100
AcDbLine
 62
7
  6
CONTINUOUS
 10
-3.2
 20
-14.728659
 11
-2.0
 21
-14.728659
  0
LINE
  5
2BB
100
AcDbEntity
  8
0
100
AcDbLine
 62
7
  6
CONTINUOUS
 10
-2.0
 20
-14.569441
 11
-2.544693
 21
-14.569441
  0
LINE
  5
2BC
100
AcDbEntity
  8
0
100
AcDbLine
 62
7
  6
CONTINUOUS
 10
-2.685475
 20
-14.569441
 11
-3.059218
 21
-14.569441
  0
LINE
  5
2BD
100
AcDbEntity
  8
0
100
AcDbLine
 62
7
  6
CONTINUOUS
 10
2.663401
 20
-14.357559
 11
2.49532
 21
-14.357559
  0
LINE
  5
2BE
100
AcDbEntity
  8
0
100
AcDbLine
 62
7
  6
CONTINUOUS
 10
2.018425
 20
-14.300878
 11
1.850359
 21
-14.300878
  0
LINE
  5
2BF
100
AcDbEntity
  8
0
100
AcDbLine
 62
7
  6
CONTINUOUS
 10
3.350368
 20
-14.29455
 11
3.182302
 21
-14.29455
  0
LINE
  5
2C0
100
AcDbEntity
  8
0
100
AcDbLine
 62
7
  6
CONTINUOUS
 10
-2.544693
 20
-14.006313
 11
-2.685475
 21
-14.006313
  0
LINE
  5
2C1
100
AcDbEntity
  8
0
100
AcDbLine
 62
7
  6
CONTINUOUS
 10
-3.059218
 20
-13.919162
 11
-3.2
 21
-13.919162
  0
LINE
  5
2C2
100
AcDbEntity
  8
0
100
AcDbLine
 62
7
  6
CONTINUOUS
 10
1.8489555797
 20
-13.7807840174
 11
2.7856503659
 21
-13.7806418976
  0
LINE
  5
2C3
100
AcDbEntity
  8
0
100
AcDbLine
 62
7
  6
CONTINUOUS
 10
2.7497913572
 20
-13.6881831718
 11
1.8489555797
 21
-13.6881831718
  0
LWPOLYLINE
  5
2C4
100
AcDbEntity
  8
RACCORDO
100
AcDbPolyline
 62
7
  6
CONTINUOUS
 90
13
 70
0
 10
7.319462557
 20
-15.2755396155
 10
7.3450382139
 20
-15.2772639035
 10
7.3702803715
 20
-15.2824077141
 10
7.3947628176
 20
-15.2909290282
 10
7.4180826208
 20
-15.3027590431
 10
7.4398058361
 20
-15.3177252699
 10
7.4594919121
 20
-15.3355278816
 10
7.4767719554
 20
-15.3558765062
 10
7.4913687432
 20
-15.3784690173
 10
7.5030389781
 20
-15.4029109815
 10
7.5115595482
 20
-15.4288106788
 10
7.5167459172
 20
-15.4557762904
 10
7.5184775044
 20
-15.483378525
  0
LWPOLYLINE
  5
2C5
100
AcDbEntity
  8
RACCORDO
100
AcDbPolyline
 62
7
  6
CONTINUOUS
 90
13
 70
0
 10
0.1992738542
 20
-15.2755396155
 10
0.224877675
 20
-15.2772689045
 10
0.2501581719
 20
-15.2824239732
 10
0.274687355
 20
-15.2909646938
 10
0.2980614494
 20
-15.3028251149
 10
0.3198428908
 20
-15.3178327493
 10
0.3395854632
 20
-15.3356839056
 10
0.3569191744
 20
-15.3560877534
 10
0.371564704
 20
-15.3787409917
 10
0.3832736838
 20
-15.4032420839
 10
0.3918223686
 20
-15.4291951871
 10
0.3970287097
 20
-15.4562082553
 10
0.3987736215
 20
-15.4838500694
  0
LWPOLYLINE
  5
2C6
100
AcDbEntity
  8
0
100
AcDbPolyline
 62
7
  6
CONTINUOUS
 90
10
 70
0
 10
-3.9807414961
 20
-14.2345479833
 10
-4.0171132976
 20
-14.2320869146
 10
-4.0520785773
 20
-14.2259917061
 10
-4.0856373351
 20
-14.216262354
 10
-4.1183254267
 20
-14.2027719778
 10
-4.1496069964
 20
-14.1856474433
 10
-4.177874478
 20
-14.1652693636
 10
-4.2027629066
 20
-14.1414465792
 10
-4.224637247
 20
-14.1143702245
 10
-4.2429848271
 20
-14.0849943563
  0
LWPOLYLINE
  5
2C7
100
AcDbEntity
  8
0
100
AcDbPolyline
 62
7
  6
CONTINUOUS
 90
11
 70
0
 10
-3.9705049017
 20
-13.6274774297
 10
-3.9309704325
 20
-13.6304125956
 10
-3.8934217505
 20
-13.6376089436
 10
-3.8578588558
 20
-13.6490664687
 10
-3.823735689
 20
-13.6649711562
 10
-3.7915983095
 20
-13.6851370012
 10
-3.763084895
 20
-13.7090060104
 10
-3.738587885
 20
-13.7368424219
 10
-3.7177148401
 20
-13.7683819649
 10
-3.7009266191
 20
-13.8022738885
 10
-3.6881783744
 20
-13.8386383846
  0
LWPOLYLINE
  5
2C8
100
AcDbEntity
  8
0
100
AcDbPolyline
 62
7
  6
CONTINUOUS
 90
8
 70
0
 10
-4.6555009554
 20
-13.6880524196
 10
-4.6255936763
 20
-13.6906098244
 10
-4.596844923
 20
-13.6968749718
 10
-4.5692546957
 20
-13.706847858
 10
-4.5421847969
 20
-13.7206843311
 10
-4.516273424
 20
-13.7382285282
 10
-4.4934351688
 20
-13.7590128765
 10
-4.474097343
 20
-13.7834173067
  0
LWPOLYLINE
  5
2C9
100
AcDbEntity
  8
0
100
AcDbPolyline
 62
7
  6
CONTINUOUS
 90
10
 70
0
 10
-4.6712187205
 20
-14.1740472879
 10
-4.7020915773
 20
-14.171020475
 10
-4.7315979529
 20
-14.1643865035
 10
-4.7597378473
 20
-14.1541453693
 10
-4.7870800664
 20
-14.1401364046
 10
-4.8130558042
 20
-14.122520262
 10
-4.8359586433
 20
-14.1017789164
 10
-4.8554313319
 20
-14.0775707637
 10
-4.8718311217
 20
-14.0502373831
 10
-4.8845233499
 20
-14.0212855302
  0
LINE
  5
2CA
100
AcDbEntity
  8
0
100
AcDbLine
 62
7
  6
CONTINUOUS
 10
-2.2177466745
 20
-15.4213518699
 11
-2.2614530364
 21
-15.4073252763
  0
LINE
  5
2CB
100
AcDbEntity
  8
0
100
AcDbLine
 62
7
  6
CONTINUOUS
 10
1.850364
 20
-15.79878
 11
3.150795
 21
-16.2336415
  0
LINE
  5
2CC
100
AcDbEntity
  8
0
100
AcDbLine
 62
7
  6
CONTINUOUS
 10
3.350372
 20
-16.124417
 11
1.850364
 21
-15.590784
  0
LWPOLYLINE
  5
2CD
100
AcDbEntity
  8
0
100
AcDbPolyline
 62
7
  6
CONTINUOUS
 90
22
 70
0
 10
-2.2815639807
 20
-15.5598918537
 10
-2.243100009
 20
-15.57512944
 10
-2.2091556515
 20
-15.5934799414
 10
-2.1797309082
 20
-15.6149433471
 10
-2.1546681314
 20
-15.6400640291
 10
-2.1341249688
 20
-15.6682975864
 10
-2.1185743634
 20
-15.6980108542
 10
-2.1084276679
 20
-15.7291225826
 10
-2.1032735297
 20
-15.7617140045
 10
-2.102350834
 20
-15.7943956969
 10
-2.1055156443
 20
-15.8273235885
 10
-2.1129118971
 20
-15.8603417484
 10
-2.1242102871
 20
-15.8915929839
 10
-2.1392118645
 20
-15.9208487695
 10
-2.1581155791
 20
-15.948337652
 10
-2.181188975
 20
-15.9728880641
 10
-2.2089108909
 20
-15.9942996646
 10
-2.240802488
 20
-16.0127728213
 10
-2.2756947947
 20
-16.0277370354
 10
-2.3131981536
 20
-16.0390021475
 10
-2.3537022221
 20
-16.0467583351
 10
-2.397207
 20
-16.0510056035
  0
LINE
  5
2CE
100
AcDbEntity
  8
0
100
AcDbLine
 62
7
  6
CONTINUOUS
 10
-2.1769559787
 20
-15.4397757272
 11
-2.2177466745
 21
-15.4213518699
  0
LWPOLYLINE
  5
2CF
100
AcDbEntity
  8
RACCORDO
100
AcDbPolyline
 62
7
  6
CONTINUOUS
 90
22
 70
0
 10
6.6606915742
 20
-20.2979189575
 10
6.6628862666
 20
-20.2992892113
 10
6.6662196823
 20
-20.3029321636
 10
6.6706918214
 20
-20.3085395443
 10
6.6764340304
 20
-20.3158254269
 10
6.6833149627
 20
-20.3244326196
 10
6.6909405791
 20
-20.3338675304
 10
6.699266706
 20
-20.3436314744
 10
6.7083375169
 20
-20.3535396439
 10
6.7178914927
 20
-20.363615079
 10
6.7278293987
 20
-20.3736663644
 10
6.7382504697
 20
-20.3835548809
 10
6.7491908907
 20
-20.3934900802
 10
6.7607854605
 20
-20.4035156115
 10
6.7728993803
 20
-20.4133867721
 10
6.7851644387
 20
-20.4229116363
 10
6.7975759019
 20
-20.4320045545
 10
6.8101385037
 20
-20.4406075985
 10
6.8224982332
 20
-20.4486004689
 10
6.8345370869
 20
-20.4559317792
 10
6.8463730684
 20
-20.462608445
 10
6.8580061777
 20
-20.4686258279
  0
LINE
  5
2D0
100
AcDbEntity
  8
RACCORDO
100
AcDbLine
 62
7
  6
CONTINUOUS
 10
-0.2629729446
 20
-20.2904156765
 11
-0.3973151228
 21
-20.1560734983
  0
LWPOLYLINE
  5
2D1
100
AcDbEntity
  8
0
100
AcDbPolyline
 62
7
  6
CONTINUOUS
 90
4
 70
0
 10
-4.1469750498
 20
-17.1998943687
 10
-4.1783955985
 20
-17.1639107023
 10
-4.2139310389
 20
-17.1316510504
 10
-4.253581371
 20
-17.1031154381
  0
LWPOLYLINE
  5
2D2
100
AcDbEntity
  8
0
100
AcDbPolyline
 62
7
  6
CONTINUOUS
 90
20
 70
0
 10
-4.2853445948
 20
-17.2308290894
 10
-4.2645339129
 20
-17.2591772941
 10
-4.2475592259
 20
-17.2904091026
 10
-4.234350831
 20
-17.3241749851
 10
-4.2253071961
 20
-17.3584822767
 10
-4.220540666
 20
-17.3929313459
 10
-4.2199388958
 20
-17.4279218181
 10
-4.2235633184
 20
-17.4626599337
 10
-4.2315314015
 20
-17.497540746
 10
-4.2437256774
 20
-17.5321692031
 10
-4.2598551762
 20
-17.5645664076
 10
-4.2799658815
 20
-17.5944920723
 10
-4.3040118096
 20
-17.6221865147
 10
-4.3315640399
 20
-17.6463917641
 10
-4.3629898258
 20
-17.666818855
 10
-4.3979219139
 20
-17.6837567869
 10
-4.434829622
 20
-17.696814541
 10
-4.473202723
 20
-17.7058617842
 10
-4.5135514441
 20
-17.7110288681
 10
-4.5558757854
 20
-17.712315797
  0
LINE
  5
2D3
100
AcDbEntity
  8
RACCORDO
100
AcDbLine
 62
7
  6
CONTINUOUS
 10
-7.5073728206
 20
20.5266837345
 11
-7.3830351795
 21
20.9
  0
LINE
  5
2D4
100
AcDbEntity
  8
0
100
AcDbLine
 62
7
  6
CONTINUOUS
 10
-3.325037
 20
11.926845
 11
-2.051155
 21
12.335843
  0
LINE
  5
2D5
100
AcDbEntity
  8
0
100
AcDbLine
 62
7
  6
CONTINUOUS
 10
-3.325037
 20
11.556827
 11
-1.474949
 21
12.150825
  0
LINE
  5
2D6
100
AcDbEntity
  8
0
100
AcDbLine
 62
7
  6
CONTINUOUS
 10
-5.3
 20
-13.2
 11
-1.3
 21
-13.2
  0
LINE
  5
2D7
100
AcDbEntity
  8
0
100
AcDbLine
 62
7
  6
CONTINUOUS
 10
1.8489555797
 20
-12.7242249721
 11
2.7497913572
 21
-12.7242249721
  0
LINE
  5
2D8
100
AcDbEntity
  8
0
100
AcDbLine
 62
7
  6
CONTINUOUS
 10
2.7497913572
 20
-12.6316249944
 11
1.8489555797
 21
-12.6316249944
  0
LINE
  5
2D9
100
AcDbEntity
  8
0
100
AcDbLine
 62
7
  6
CONTINUOUS
 10
1.8489599193
 20
-12.3665652392
 11
3.3517129103
 21
-12.3665652392
  0
LINE
  5
2DA
100
AcDbEntity
  8
0
100
AcDbLine
 62
7
  6
CONTINUOUS
 10
3.3517129103
 20
-12.273907111
 11
2.6824352277
 21
-12.273907111
  0
LINE
  5
2DB
100
AcDbEntity
  8
0
100
AcDbLine
 62
7
  6
CONTINUOUS
 10
2.6024478439
 20
-12.273907111
 11
1.9289473031
 21
-12.273907111
  0
LWPOLYLINE
  5
2DC
100
AcDbEntity
  8
0
100
AcDbPolyline
 62
7
  6
CONTINUOUS
 90
4
 70
0
 10
2.7497913572
 20
-12.7242249721
 10
2.7856511204
 20
-12.7243942422
 10
2.8212880927
 20
-12.7258649804
 10
2.8567022739
 20
-12.7286371864
  0
LWPOLYLINE
  5
2DD
100
AcDbEntity
  8
0
100
AcDbPolyline
 62
7
  6
CONTINUOUS
 90
4
 70
0
 10
2.8566338908
 20
-12.6359464823
 10
2.8211004733
 20
-12.6333101236
 10
2.7854862955
 20
-12.6318696275
 10
2.7497913572
 20
-12.6316249944
  0
LWPOLYLINE
  5
2DE
100
AcDbEntity
  8
0
100
AcDbPolyline
 62
7
  6
CONTINUOUS
 90
22
 70
0
 10
2.8567022739
 20
-12.7286371864
 10
2.8919376194
 20
-12.7325419576
 10
2.9269501739
 20
-12.7377481953
 10
2.961608072
 20
-12.7447626046
 10
2.9961239711
 20
-12.7535598947
 10
3.0302852138
 20
-12.764165352
 10
3.0633219619
 20
-12.7771615451
 10
3.0952978753
 20
-12.7926192418
 10
3.126149294
 20
-12.8104676637
 10
3.1549153999
 20
-12.8310770566
 10
3.1814685204
 20
-12.8548506716
 10
3.205936328
 20
-12.8813852376
 10
3.2277410216
 20
-12.9098412175
 10
3.2467084987
 20
-12.9402842186
 10
3.2630128618
 20
-12.9726486155
 10
3.2765986169
 20
-13.0058980303
 10
3.2872022292
 20
-13.0398796192
 10
3.2950872336
 20
-13.074746217
 10
3.3009887406
 20
-13.1099199723
 10
3.3051517872
 20
-13.1452082682
 10
3.3073313364
 20
-13.1808037187
 10
3.3075273882
 20
-13.2167063217
  0
LWPOLYLINE
  5
2DF
100
AcDbEntity
  8
RACCORDO
100
AcDbPolyline
 62
7
  6
CONTINUOUS
 90
8
 70
0
 10
-9.5837337608
 20
-10.4333017676
 10
-9.581710388
 20
-10.4338543528
 10
-9.5766078967
 20
-10.4343896844
 10
-9.5684262867
 20
-10.4349077622
 10
-9.5569960673
 20
-10.4354141991
 10
-9.5424867292
 20
-10.4359033824
 10
-9.5254067451
 20
-10.4363584734
 10
-9.4834296129
 20
-10.4371626393
  0
LINE
  5
2E0
100
AcDbEntity
  8
0
100
AcDbLine
 62
7
  6
CONTINUOUS
 10
-4.8676080142
 20
-15.1531528075
 11
-4.8254315744
 21
-15.2019295542
  0
LWPOLYLINE
  5
2E1
100
AcDbEntity
  8
0
100
AcDbPolyline
 62
7
  6
CONTINUOUS
 90
5
 70
0
 10
-4.8254315744
 20
-15.2019295542
 10
-4.7850443208
 20
-15.2553048671
 10
-4.746573697
 20
-15.313096678
 10
-4.7098922594
 20
-15.3754869606
 10
-4.675000008
 20
-15.4424756606
  0
LWPOLYLINE
  5
2E2
100
AcDbEntity
  8
0
100
AcDbPolyline
 62
7
  6
CONTINUOUS
 90
3
 70
0
 10
-4.4894619896
 20
-16.1025432135
 10
-4.468006489
 20
-16.1328137852
 10
-4.4502119605
 20
-16.1670795308
  0
LWPOLYLINE
  5
2E3
100
AcDbEntity
  8
0
100
AcDbPolyline
 62
7
  6
CONTINUOUS
 90
4
 70
0
 10
-2.8518387956
 20
-16.849613423
 10
-2.8265192297
 20
-16.8853270941
 10
-2.7943971497
 20
-16.9191246154
 10
-2.7554725555
 20
-16.951006
  0
LWPOLYLINE
  5
2E4
100
AcDbEntity
  8
0
100
AcDbPolyline
 62
7
  6
CONTINUOUS
 90
3
 70
0
 10
-4.8592451009
 20
-16.4099431602
 10
-4.8754330275
 20
-16.3805630544
 10
-4.8873840503
 20
-16.3488985561
  0
LWPOLYLINE
  5
2E5
100
AcDbEntity
  8
0
100
AcDbPolyline
 62
7
  6
CONTINUOUS
 90
10
 70
0
 10
-5.0068769079
 20
-16.4757046626
 10
-4.9841224661
 20
-16.5182440487
 10
-4.956670047
 20
-16.5577480435
 10
-4.9250758001
 20
-16.5932616576
 10
-4.8890689301
 20
-16.624440712
 10
-4.8489202324
 20
-16.6516294403
 10
-4.8059982426
 20
-16.6749054743
 10
-4.7607591394
 20
-16.6942947022
 10
-4.7127467442
 20
-16.7097712693
 10
-4.661961057
 20
-16.7213351878
  0
LINE
  5
2E6
100
AcDbEntity
  8
RACCORDO
100
AcDbLine
 62
7
  6
CONTINUOUS
 10
-9.5837337608
 20
-10.4333017676
 11
-9.65
 21
-10.3007591949
  0
LINE
  5
2E7
100
AcDbEntity
  8
DRAFT
100
AcDbLine
 62
7
  6
CONTINUOUS
 10
-8.7585989
 20
-9.5612009164
 11
-8.6937231785
 21
-9.6992408051
  0
LINE
  5
2E8
100
AcDbEntity
  8
RACCORDO
100
AcDbLine
 62
7
  6
CONTINUOUS
 10
-7.5073728206
 20
-20.5266837345
 11
-7.3830351795
 21
-20.9
  0
LINE
  5
2E9
100
AcDbEntity
  8
0
100
AcDbLine
 62
7
  6
CONTINUOUS
 10
-11.15
 20
21.8997711479
 11
-11.15
 21
-21.8997711479
  0
LWPOLYLINE
  5
2EA
100
AcDbEntity
  8
RACCORDO
100
AcDbPolyline
 62
250
  6
CONTINUOUS
 90
13
 70
0
 10
-9.5879500862
 20
20.2270948741
 10
-9.5853674824
 20
20.2661860451
 10
-9.5776994966
 20
20.3046091301
 10
-9.5650771148
 20
20.3417071021
 10
-9.5477160418
 20
20.3768455738
 10
-9.5259130313
 20
20.4094236186
 10
-9.5000408266
 20
20.4388840564
 10
-9.4705417469
 20
20.4647230353
 10
-9.4379201734
 20
20.4864985912
 10
-9.4027339671
 20
20.5038382142
 10
-9.3655848338
 20
20.5164452911
 10
-9.3271080177
 20
20.5241041531
 10
-9.2879615093
 20
20.5266837345
  0
LINE
  5
2EB
100
AcDbEntity
  8
0
100
AcDbLine
 62
7
  6
CONTINUOUS
 10
1.2845086039
 20
13.0399406522
 11
1.3103208469
 21
13.0534751492
  0
LWPOLYLINE
  5
2EC
100
AcDbEntity
  8
0
100
AcDbPolyline
 62
7
  6
CONTINUOUS
 90
6
 70
0
 10
2.17074555
 20
-11.3934802509
 10
2.2112320095
 20
-11.385588714
 10
2.2515375568
 20
-11.3817254364
 10
2.2921686645
 20
-11.3820733507
 10
2.3322561622
 20
-11.3869244566
 10
2.3723585778
 20
-11.3964089079
  0
LWPOLYLINE
  5
2ED
100
AcDbEntity
  8
RACCORDO
100
AcDbPolyline
 62
7
  6
CONTINUOUS
 90
13
 70
0
 10
-2.9963855172
 20
-10.4384918414
 10
-3.0303422382
 20
-10.4405637901
 10
-3.0630522715
 20
-10.4460633733
 10
-3.0945156171
 20
-10.4549905886
 10
-3.1250608335
 20
-10.4675335533
 10
-3.1543593622
 20
-10.4835041406
 10
-3.1814255276
 20
-10.5023379813
 10
-3.2061996011
 20
-10.5241268341
 10
-3.2287413113
 20
-10.5487789252
 10
-3.2482441688
 20
-10.5754545893
 10
-3.2644393437
 20
-10.6038739341
 10
-3.2775956658
 20
-10.634316838
 10
-3.2877131351
 20
-10.666783293
  0
LWPOLYLINE
  5
2EE
100
AcDbEntity
  8
RACCORDO
100
AcDbPolyline
 62
7
  6
CONTINUOUS
 90
7
 70
0
 10
9.5255086069
 20
-10.4363560551
 10
9.5425488
 20
-10.4359019897
 10
9.5570089287
 20
-10.4354142939
 10
9.5684058076
 20
-10.4349088368
 10
9.5765783751
 20
-10.4343909083
 10
9.5816876928
 20
-10.4338552185
 10
9.5837337608
 20
-10.4333017676
  0
LINE
  5
2EF
100
AcDbEntity
  8
RACCORDO
100
AcDbLine
 62
7
  6
CONTINUOUS
 10
9.4835773503
 20
-10.4371604013
 11
9.5255086069
 21
-10.4363560551
  0
LINE
  5
2F0
100
AcDbEntity
  8
RACCORDO
100
AcDbLine
 62
7
  6
CONTINUOUS
 10
9.4331667646
 20
-10.4377947002
 11
9.4835773503
 21
-10.4371604013
  0
LWPOLYLINE
  5
2F1
100
AcDbEntity
  8
0
100
AcDbPolyline
 62
7
  6
CONTINUOUS
 90
14
 70
0
 10
2.269885281
 20
-11.2889461476
 10
2.2230972629
 20
-11.2893923974
 10
2.1775240297
 20
-11.2944253155
 10
2.1331655816
 20
-11.304044899
 10
2.0891982214
 20
-11.3182276229
 10
2.0464456463
 20
-11.3369969972
 10
2.0073789468
 20
-11.3604235662
 10
1.972513232
 20
-11.3889195599
 10
1.9413333928
 20
-11.4220727139
 10
1.9147651931
 20
-11.4587168315
 10
1.8933058145
 20
-11.499308948
 10
1.8764580753
 20
-11.5433919887
 10
1.8636561943
 20
-11.5884286097
 10
1.8547115777
 20
-11.6335730323
  0
LINE
  5
2F2
100
AcDbEntity
  8
RACCORDO
100
AcDbLine
 62
7
  6
CONTINUOUS
 10
9.3461401504
 20
-10.4383769632
 11
9.4331667646
 21
-10.4377947002
  0
LINE
  5
2F3
100
AcDbEntity
  8
RACCORDO
100
AcDbLine
 62
7
  6
CONTINUOUS
 10
9.2837449843
 20
-10.4384918414
 11
9.3461401504
 21
-10.4383769632
  0
LINE
  5
2F4
100
AcDbEntity
  8
DRAFT
100
AcDbLine
 62
7
  6
CONTINUOUS
 10
9.2837449843
 20
-10.4384918414
 11
8.7584611066
 21
-10.4384918414
  0
LINE
  5
2F5
100
AcDbEntity
  8
RACCORDO
100
AcDbLine
 62
7
  6
CONTINUOUS
 10
2.9963855172
 20
-10.4384918414
 11
-2.9963855172
 21
-10.4384918414
  0
LINE
  5
2F6
100
AcDbEntity
  8
DRAFT
100
AcDbLine
 62
7
  6
CONTINUOUS
 10
-8.7584611066
 20
-10.4384918414
 11
-9.2837449843
 21
-10.4384918414
  0
LINE
  5
2F7
100
AcDbEntity
  8
DRAFT
100
AcDbLine
 62
7
  6
CONTINUOUS
 10
-9.65
 20
-10.3007591949
 11
-8.6937231785
 21
-10.3007591949
  0
LINE
  5
2F8
100
AcDbEntity
  8
DRAFT
100
AcDbLine
 62
7
  6
CONTINUOUS
 10
8.6937231785
 20
-10.3007591949
 11
9.65
 21
-10.3007591949
  0
LINE
  5
2F9
100
AcDbEntity
  8
RACCORDO
100
AcDbLine
 62
7
  6
CONTINUOUS
 10
-3.0793247973
 20
-10.2309389352
 11
3.0793247973
 21
-10.2309389352
  0
LINE
  5
2FA
100
AcDbEntity
  8
RACCORDO
100
AcDbLine
 62
7
  6
CONTINUOUS
 10
-9.3759570174
 20
-10.4382383504
 11
-9.2837449843
 21
-10.4384918414
  0
LINE
  5
2FB
100
AcDbEntity
  8
RACCORDO
100
AcDbLine
 62
7
  6
CONTINUOUS
 10
-9.4330864388
 20
-10.4377957714
 11
-9.3759570174
 21
-10.4382383504
  0
LINE
  5
2FC
100
AcDbEntity
  8
RACCORDO
100
AcDbLine
 62
7
  6
CONTINUOUS
 10
-9.4834296129
 20
-10.4371626393
 11
-9.4330864388
 21
-10.4377957714
  0
LWPOLYLINE
  5
2FD
100
AcDbEntity
  8
0
100
AcDbPolyline
 62
7
  6
CONTINUOUS
 90
12
 70
0
 10
-2.7283299276
 20
-16.8340206708
 10
-2.7438053933
 20
-16.8107566497
 10
-2.7560271589
 20
-16.7868954391
 10
-2.7649215255
 20
-16.7626578507
 10
-2.7705621919
 20
-16.7378230678
 10
-2.7726241184
 20
-16.7129618694
 10
-2.7708797803
 20
-16.6880292103
 10
-2.7655567022
 20
-16.6630701355
 10
-2.7570124183
 20
-16.6387905656
 10
-2.7451703017
 20
-16.614997588
 10
-2.7301069793
 20
-16.5918841213
 10
-2.7124098661
 20
-16.5707348416
  0
LWPOLYLINE
  5
2FE
100
AcDbEntity
  8
0
100
AcDbPolyline
 62
7
  6
CONTINUOUS
 90
3
 70
0
 10
-4.474097343
 20
-13.7834173067
 10
-4.4578326348
 20
-13.8110618627
 10
-4.4452737006
 20
-13.8403391487
  0
LWPOLYLINE
  5
2FF
100
AcDbEntity
  8
0
100
AcDbPolyline
 62
7
  6
CONTINUOUS
 90
6
 70
0
 10
-4.3609896791
 20
-16.0404741715
 10
-4.3829939448
 20
-15.9989117347
 10
-4.4078902145
 20
-15.9619603556
 10
-4.435678488
 20
-15.9296200673
 10
-4.4667064134
 20
-15.9017995136
 10
-4.5006263426
 20
-15.8785901041
  0
LWPOLYLINE
  5
300
100
AcDbEntity
  8
0
100
AcDbPolyline
 62
7
  6
CONTINUOUS
 90
8
 70
0
 10
-4.5399548698
 20
-15.3465934325
 10
-4.5626107052
 20
-15.3016618634
 10
-4.5863291844
 20
-15.2586962393
 10
-4.611067591
 20
-15.2177370175
 10
-4.6366977764
 20
-15.1789055379
 10
-4.6631770243
 20
-15.1422422573
 10
-4.6905480509
 20
-15.1077067489
 10
-4.7188108564
 20
-15.0752990264
  0
LWPOLYLINE
  5
301
100
AcDbEntity
  8
0
100
AcDbPolyline
 62
7
  6
CONTINUOUS
 90
20
 70
0
 10
-5.0214546247
 20
-14.1106796728
 10
-5.0015831006
 20
-14.1561982076
 10
-4.9747297932
 20
-14.199435887
 10
-4.9420970394
 20
-14.2399886635
 10
-4.9062190651
 20
-14.2748657402
 10
-4.8671025472
 20
-14.3029710208
 10
-4.8247408089
 20
-14.325400667
 10
-4.7816480453
 20
-14.3424522789
 10
-4.7380963606
 20
-14.3541397041
 10
-4.6938136505
 20
-14.3604491217
 10
-4.6504977982
 20
-14.3616366203
 10
-4.608236709
 20
-14.3579424071
 10
-4.5669424775
 20
-14.3491262726
 10
-4.5280492707
 20
-14.3347236729
 10
-4.4915943491
 20
-14.3143064781
 10
-4.4575404523
 20
-14.2883027835
 10
-4.4272099656
 20
-14.2575323774
 10
-4.4010436842
 20
-14.2222685062
 10
-4.3786008131
 20
-14.1822378706
 10
-4.3598813521
 20
-14.1374404381
  0
LWPOLYLINE
  5
302
100
AcDbEntity
  8
RACCORDO
100
AcDbPolyline
 62
250
  6
CONTINUOUS
 90
13
 70
0
 10
-7.2293696815
 20
-20.1171572875
 10
-7.2274017151
 20
-20.1352963416
 10
-7.2221423768
 20
-20.1531896548
 10
-7.2136494171
 20
-20.1705357589
 10
-7.2020236077
 20
-20.1870530906
 10
-7.1874402364
 20
-20.2024368699
 10
-7.170174151
 20
-20.2163768226
 10
-7.1505322297
 20
-20.2286273937
 10
-7.128834401
 20
-20.2389909837
 10
-7.1054631376
 20
-20.2472862956
 10
-7.0808217567
 20
-20.2533749129
 10
-7.0553235464
 20
-20.257159202
 10
-7.0294001425
 20
-20.2585786438
  0
LINE
  5
303
100
AcDbEntity
  8
RACCORDO
100
AcDbLine
 62
250
  6
CONTINUOUS
 10
-7.3089365232
 20
-18.7
 11
-7.5184775044
 21
-15.483378525
  0
LWPOLYLINE
  5
304
100
AcDbEntity
  8
RACCORDO
100
AcDbPolyline
 62
250
  6
CONTINUOUS
 90
3
 70
0
 10
-9.2879615093
 20
20.5266837345
 10
-9.2877878755
 20
20.5216877301
 10
-9.2876199879
 20
20.5118970808
  0
LINE
  5
305
100
AcDbEntity
  8
RACCORDO
100
AcDbLine
 62
250
  6
CONTINUOUS
 10
-9.5872886078
 20
20.2077750951
 11
-9.5869945607
 21
20.1873915688
  0
LINE
  5
306
100
AcDbEntity
  8
RACCORDO
100
AcDbLine
 62
250
  6
CONTINUOUS
 10
-9.2876199879
 20
20.5118970808
 11
-9.2873000053
 21
20.4783599802
  0
LINE
  5
307
100
AcDbEntity
  8
RACCORDO
100
AcDbLine
 62
250
  6
CONTINUOUS
 10
-9.5869945607
 20
20.1873915688
 11
-9.5866333375
 21
20.1455366434
  0
LINE
  5
308
100
AcDbEntity
  8
RACCORDO
100
AcDbLine
 62
250
  6
CONTINUOUS
 10
-9.2873000053
 20
20.4783599802
 11
-9.2865505933
 21
20.2815454635
  0
LINE
  5
309
100
AcDbEntity
  8
RACCORDO
100
AcDbLine
 62
250
  6
CONTINUOUS
 10
-9.5866333375
 20
20.1455366434
 11
-9.586313809
 21
20.0554130014
  0
LINE
  5
30A
100
AcDbEntity
  8
RACCORDO
100
AcDbLine
 62
250
  6
CONTINUOUS
 10
-9.586313809
 20
20.0554130014
 11
-9.5843671525
 21
13.4590698893
  0
LINE
  5
30B
100
AcDbEntity
  8
RACCORDO
100
AcDbLine
 62
250
  6
CONTINUOUS
 10
-9.2865505933
 20
20.2815454635
 11
-9.284379225
 21
13.4702064456
  0
LINE
  5
30C
100
AcDbEntity
  8
RACCORDO
100
AcDbLine
 62
7
  6
CONTINUOUS
 10
-9.65
 20
-20.5997254977
 11
-9.65
 21
-10.3007591949
  0
LINE
  5
30D
100
AcDbEntity
  8
RACCORDO
100
AcDbLine
 62
7
  6
CONTINUOUS
 10
-9.65
 20
-9.6992408051
 11
-9.65
 21
20.5997254977
  0
LINE
  5
30E
100
AcDbEntity
  8
RACCORDO
100
AcDbLine
 62
250
  6
CONTINUOUS
 10
-9.5843671525
 20
13.4590698893
 11
-9.582893259
 21
3.5916718207
  0
LINE
  5
30F
100
AcDbEntity
  8
RACCORDO
100
AcDbLine
 62
250
  6
CONTINUOUS
 10
-9.284379225
 20
13.4702064456
 11
-9.2829050942
 21
3.6002576925
  0
LINE
  5
310
100
AcDbEntity
  8
0
100
AcDbLine
 62
7
  6
CONTINUOUS
 10
-8.8
 20
-6.81
 11
-8.8
 21
-6.6225
  0
LINE
  5
311
100
AcDbEntity
  8
0
100
AcDbLine
 62
7
  6
CONTINUOUS
 10
-8.8
 20
-5.9975
 11
-8.8
 21
-5.81
  0
LINE
  5
312
100
AcDbEntity
  8
0
100
AcDbLine
 62
7
  6
CONTINUOUS
 10
-8.8
 20
-5.31
 11
-8.8
 21
-5.1433333731
  0
LINE
  5
313
100
AcDbEntity
  8
0
100
AcDbLine
 62
7
  6
CONTINUOUS
 10
-8.8
 20
-4.6433332539
 11
-8.8
 21
-4.1433332539
  0
LINE
  5
314
100
AcDbEntity
  8
0
100
AcDbLine
 62
7
  6
CONTINUOUS
 10
-8.8
 20
-3.6433332539
 11
-8.8
 21
-2.8933332539
  0
LINE
  5
315
100
AcDbEntity
  8
0
100
AcDbLine
 62
7
  6
CONTINUOUS
 10
-8.8
 20
-1.7266665077
 11
-8.8
 21
-1.6016665077
  0
LINE
  5
316
100
AcDbEntity
  8
0
100
AcDbLine
 62
7
  6
CONTINUOUS
 10
-8.8
 20
-1.435
 11
-8.8
 21
-1.2475
  0
LINE
  5
317
100
AcDbEntity
  8
0
100
AcDbLine
 62
7
  6
CONTINUOUS
 10
-8.8
 20
-0.7266665077
 11
-8.8
 21
-0.6016665077
  0
LINE
  5
318
100
AcDbEntity
  8
0
100
AcDbLine
 62
7
  6
CONTINUOUS
 10
-8.8
 20
0.565
 11
-8.8
 21
1.3566669846
  0
LINE
  5
319
100
AcDbEntity
  8
0
100
AcDbLine
 62
7
  6
CONTINUOUS
 10
-8.8
 20
1.5233330154
 11
-8.8
 21
1.6483330154
  0
LINE
  5
31A
100
AcDbEntity
  8
0
100
AcDbLine
 62
7
  6
CONTINUOUS
 10
-8.8
 20
2.1483330154
 11
-8.8
 21
2.2733330154
  0
LINE
  5
31B
100
AcDbEntity
  8
0
100
AcDbLine
 62
7
  6
CONTINUOUS
 10
-8.8
 20
2.44
 11
-8.8
 21
2.6275
  0
LINE
  5
31C
100
AcDbEntity
  8
0
100
AcDbLine
 62
7
  6
CONTINUOUS
 10
-8.8
 20
3.1483330154
 11
-8.8
 21
3.2733330154
  0
LINE
  5
31D
100
AcDbEntity
  8
0
100
AcDbLine
 62
7
  6
CONTINUOUS
 10
-8.8
 20
3.44
 11
-8.8
 21
3.565
  0
LINE
  5
31E
100
AcDbEntity
  8
0
100
AcDbLine
 62
7
  6
CONTINUOUS
 10
-8.8
 20
4.065
 11
-8.8
 21
4.1691669846
  0
LINE
  5
31F
100
AcDbEntity
  8
0
100
AcDbLine
 62
7
  6
CONTINUOUS
 10
-8.8
 20
4.6691669846
 11
-8.8
 21
4.7941669846
  0
LINE
  5
320
100
AcDbEntity
  8
0
100
AcDbLine
 62
7
  6
CONTINUOUS
 10
-8.8
 20
5.2941669846
 11
-8.8
 21
5.4608330154
  0
LINE
  5
321
100
AcDbEntity
  8
0
100
AcDbLine
 62
7
  6
CONTINUOUS
 10
-8.693617034
 20
0.565
 11
-8.693617034
 21
0.8983334923
  0
LINE
  5
322
100
AcDbEntity
  8
0
100
AcDbLine
 62
7
  6
CONTINUOUS
 10
-8.693617034
 20
1.0233334923
 11
-8.693617034
 21
1.3566669846
  0
LINE
  5
323
100
AcDbEntity
  8
0
100
AcDbLine
 62
7
  6
CONTINUOUS
 10
-8.6723404408
 20
-4.5183332539
 11
-8.6723404408
 21
-4.1433332539
  0
LINE
  5
324
100
AcDbEntity
  8
0
100
AcDbLine
 62
7
  6
CONTINUOUS
 10
-8.6723404408
 20
-3.5183332539
 11
-8.6723404408
 21
-2.8933332539
  0
LINE
  5
325
100
AcDbEntity
  8
0
100
AcDbLine
 62
7
  6
CONTINUOUS
 10
-8.6723404408
 20
4.065
 11
-8.6723404408
 21
4.19
  0
LINE
  5
326
100
AcDbEntity
  8
0
100
AcDbLine
 62
7
  6
CONTINUOUS
 10
-8.5659574747
 20
4.315
 11
-8.5659574747
 21
4.44
  0
LINE
  5
327
100
AcDbEntity
  8
RACCORDO
100
AcDbLine
 62
250
  6
CONTINUOUS
 10
-9.582893259
 20
3.5916718207
 11
-9.583581878
 21
-9.5663944438
  0
LINE
  5
328
100
AcDbEntity
  8
RACCORDO
100
AcDbLine
 62
250
  6
CONTINUOUS
 10
-9.2829050942
 20
3.6002576925
 11
-9.2835914673
 21
-9.5612009259
  0
LINE
  5
329
100
AcDbEntity
  8
RACCORDO
100
AcDbLine
 62
250
  6
CONTINUOUS
 10
-9.5864581677
 20
-20.1114734554
 11
-9.5837337608
 21
-10.4333017676
  0
LINE
  5
32A
100
AcDbEntity
  8
RACCORDO
100
AcDbLine
 62
250
  6
CONTINUOUS
 10
-9.2870053681
 20
-20.427308795
 11
-9.2837449843
 21
-10.4384918425
  0
LINE
  5
32B
100
AcDbEntity
  8
RACCORDO
100
AcDbLine
 62
250
  6
CONTINUOUS
 10
-9.5868621716
 20
-20.1747673026
 11
-9.5864581677
 21
-20.1114734554
  0
LWPOLYLINE
  5
32C
100
AcDbEntity
  8
RACCORDO
100
AcDbPolyline
 62
250
  6
CONTINUOUS
 90
5
 70
0
 10
-9.2879615093
 20
-20.5266837345
 10
-9.2877877837
 20
-20.5216851553
 10
-9.2876198055
 20
-20.5118885272
 10
-9.2874575749
 20
-20.4973894322
 10
-9.2870053681
 20
-20.427308795
  0
LINE
  5
32D
100
AcDbEntity
  8
RACCORDO
100
AcDbLine
 62
250
  6
CONTINUOUS
 10
-7.5184775044
 20
15.483378525
 11
-7.3089365232
 21
18.7
  0
LINE
  5
32E
100
AcDbEntity
  8
0
100
AcDbLine
 62
7
  6
CONTINUOUS
 10
-8.8
 20
4.1691669846
 11
-8.7787234068
 21
4.2733330154
  0
LINE
  5
32F
100
AcDbEntity
  8
0
100
AcDbLine
 62
7
  6
CONTINUOUS
 10
-8.3744680762
 20
4.19
 11
-8.353191483
 21
4.2941669846
  0
LINE
  5
330
100
AcDbEntity
  8
0
100
AcDbLine
 62
7
  6
CONTINUOUS
 10
-7.8212765951
 20
3.9191669846
 11
-7.8
 21
4.0233330154
  0
LINE
  5
331
100
AcDbEntity
  8
0
100
AcDbLine
 62
7
  6
CONTINUOUS
 10
-8.246808517
 20
4.19
 11
-8.2255319238
 21
4.2733330154
  0
LINE
  5
332
100
AcDbEntity
  8
0
100
AcDbLine
 62
7
  6
CONTINUOUS
 10
-8.2680851102
 20
3.9816669846
 11
-8.246808517
 21
4.065
  0
LINE
  5
333
100
AcDbEntity
  8
0
100
AcDbLine
 62
7
  6
CONTINUOUS
 10
-7.9489361674
 20
3.94
 11
-7.9276595742
 21
4.0233330154
  0
LINE
  5
334
100
AcDbEntity
  8
0
100
AcDbLine
 62
7
  6
CONTINUOUS
 10
-8.6723404408
 20
4.19
 11
-8.6510638475
 21
4.2525
  0
LINE
  5
335
100
AcDbEntity
  8
0
100
AcDbLine
 62
7
  6
CONTINUOUS
 10
-8.3957446694
 20
4.0025
 11
-8.3744680762
 21
4.065
  0
LINE
  5
336
100
AcDbEntity
  8
0
100
AcDbLine
 62
7
  6
CONTINUOUS
 10
-8.353191483
 20
4.2941669846
 11
-8.3106382966
 21
4.3775
  0
LINE
  5
337
100
AcDbEntity
  8
0
100
AcDbLine
 62
7
  6
CONTINUOUS
 10
-8.3106382966
 20
3.8983330154
 11
-8.2680851102
 21
3.9816669846
  0
LINE
  5
338
100
AcDbEntity
  8
0
100
AcDbLine
 62
7
  6
CONTINUOUS
 10
-7.8851063803
 20
3.815
 11
-7.8212765951
 21
3.9191669846
  0
LINE
  5
339
100
AcDbEntity
  8
0
100
AcDbLine
 62
7
  6
CONTINUOUS
 10
-8.2255319238
 20
4.2733330154
 11
-8.1829787374
 21
4.3358330154
  0
LINE
  5
33A
100
AcDbEntity
  8
0
100
AcDbLine
 62
7
  6
CONTINUOUS
 10
-8.4382978559
 20
3.94
 11
-8.3957446694
 21
4.0025
  0
LINE
  5
33B
100
AcDbEntity
  8
0
100
AcDbLine
 62
7
  6
CONTINUOUS
 10
-8.7787234068
 20
4.2733330154
 11
-8.7148936272
 21
4.3566669846
  0
LINE
  5
33C
100
AcDbEntity
  8
RACCORDO
100
AcDbLine
 62
7
  6
CONTINUOUS
 10
6.6558702077
 20
20.5728350282
 11
6.5210300654
 21
20.437994886
  0
LINE
  5
33D
100
AcDbEntity
  8
0
100
AcDbLine
 62
7
  6
CONTINUOUS
 10
-8.6510638475
 20
4.2525
 11
-8.6085106611
 21
4.2941669846
  0
LINE
  5
33E
100
AcDbEntity
  8
0
100
AcDbLine
 62
7
  6
CONTINUOUS
 10
-8.3106382966
 20
4.3775
 11
-8.2255319238
 21
4.4608330154
  0
LINE
  5
33F
100
AcDbEntity
  8
0
100
AcDbLine
 62
7
  6
CONTINUOUS
 10
-8.3957446694
 20
3.815
 11
-8.3106382966
 21
3.8983330154
  0
LWPOLYLINE
  5
340
100
AcDbEntity
  8
0
100
AcDbPolyline
 62
7
  6
CONTINUOUS
 90
3
 70
0
 10
1.2379297158
 20
13.0046029441
 10
1.2603782269
 20
13.0236499196
 10
1.2845086039
 20
13.0399406522
  0
LWPOLYLINE
  5
341
100
AcDbEntity
  8
RACCORDO
100
AcDbPolyline
 62
7
  6
CONTINUOUS
 90
7
 70
0
 10
7.1634252964
 20
18.5470018494
 10
7.1563704043
 20
18.5413293319
 10
7.1346214315
 20
18.5267949192
 10
7.1111616916
 20
18.5152240935
 10
7.0863925871
 20
18.5068148347
 10
7.0607379245
 20
18.5017110277
 10
7.034636662
 20
18.5
  0
LINE
  5
342
100
AcDbEntity
  8
0
100
AcDbLine
 62
7
  6
CONTINUOUS
 10
-8.7148936272
 20
4.3566669846
 11
-8.6297872543
 21
4.4191669846
  0
LWPOLYLINE
  5
343
100
AcDbEntity
  8
0
100
AcDbPolyline
 62
7
  6
CONTINUOUS
 90
37
 70
0
 10
5.2301263923
 20
15.7855004023
 10
5.0760451858
 20
15.681553266
 10
4.9170459468
 20
15.5877220552
 10
4.7531286755
 20
15.5040069526
 10
4.5836294081
 20
15.4301450481
 10
4.4092121083
 20
15.3663995523
 10
4.2318686667
 20
15.3135598082
 10
4.0516029283
 20
15.2718129265
 10
3.868411048
 20
15.2409719897
 10
3.6842733819
 20
15.2212652735
 10
3.4991815428
 20
15.2127488509
 10
3.3131439178
 20
15.2153667071
 10
3.128166024
 20
15.2291789539
 10
2.9442170219
 20
15.254285995
 10
2.761327751
 20
15.290587346
 10
2.5815962465
 20
15.3378417531
 10
2.4050417877
 20
15.3962473583
 10
2.2316450954
 20
15.4656058022
 10
2.0634463662
 20
15.5450810557
 10
1.9005559344
 20
15.6347830646
 10
1.7428634658
 20
15.734601555
 10
1.5920781542
 20
15.8433701705
 10
1.4482861136
 20
15.9611658666
 10
1.31140123
 20
16.087911286
 10
1.1828743549
 20
16.2222086328
 10
1.0627551146
 20
16.3641287782
 10
0.9509938827
 20
16.5136004187
 10
0.8488926318
 20
16.6690125556
 10
0.7565406328
 20
16.8304240909
 10
0.6738486147
 20
16.9977757096
 10
0.6018507369
 20
17.1692791798
 10
0.5408027527
 20
17.3450606722
 10
0.4904489089
 20
17.5249936712
 10
0.4510561049
 20
17.7069110493
 10
0.4227133074
 20
17.8900903993
 10
0.4053315499
 20
18.0752539427
 10
0.3989108323
 20
18.262401574
  0
LWPOLYLINE
  5
344
100
AcDbEntity
  8
RACCORDO
100
AcDbPolyline
 62
7
  6
CONTINUOUS
 90
13
 70
0
 10
2.9962712433
 20
-9.5612009164
 10
3.0302175571
 20
-9.5591291232
 10
3.0629177733
 20
-9.5536285911
 10
3.0943718917
 20
-9.5446993182
 10
3.1249081072
 20
-9.5321537471
 10
3.154198225
 20
-9.5161794264
 10
3.1812576611
 20
-9.4973390119
 10
3.2060275157
 20
-9.4755402437
 10
3.2285666886
 20
-9.4508753683
 10
3.2480672951
 20
-9.4241838035
 10
3.2642600402
 20
-9.3957453524
 10
3.2774142189
 20
-9.3652802
 10
3.2875298311
 20
-9.3327883395
  0
LWPOLYLINE
  5
345
100
AcDbEntity
  8
RACCORDO
100
AcDbPolyline
 62
7
  6
CONTINUOUS
 90
7
 70
0
 10
-9.5253383008
 20
-9.5633377042
 10
-9.5423821027
 20
-9.5637920704
 10
-9.5568462898
 20
-9.5642801088
 10
-9.56824677
 20
-9.5647859522
 10
-9.5764221795
 20
-9.5653043112
 10
-9.5815338822
 20
-9.5658404751
 10
-9.583581878
 20
-9.5663944438
  0
LINE
  5
346
100
AcDbEntity
  8
RACCORDO
100
AcDbLine
 62
7
  6
CONTINUOUS
 10
-9.483401257
 20
-9.5625328821
 11
-9.5253383008
 21
-9.5633377042
  0
LINE
  5
347
100
AcDbEntity
  8
RACCORDO
100
AcDbLine
 62
7
  6
CONTINUOUS
 10
-9.4329891053
 20
-9.5618982706
 11
-9.483401257
 21
-9.5625328821
  0
LINE
  5
348
100
AcDbEntity
  8
RACCORDO
100
AcDbLine
 62
7
  6
CONTINUOUS
 10
-9.3459714076
 20
-9.5613158
 11
-9.4329891053
 21
-9.5618982706
  0
LINE
  5
349
100
AcDbEntity
  8
RACCORDO
100
AcDbLine
 62
7
  6
CONTINUOUS
 10
-9.2835914695
 20
-9.5612009164
 11
-9.3459714076
 21
-9.5613158
  0
LINE
  5
34A
100
AcDbEntity
  8
RACCORDO
100
AcDbLine
 62
7
  6
CONTINUOUS
 10
3.0793247973
 20
-9.7690610648
 11
-3.0793247973
 21
-9.7690610648
  0
LINE
  5
34B
100
AcDbEntity
  8
DRAFT
100
AcDbLine
 62
7
  6
CONTINUOUS
 10
9.65
 20
-9.6992408051
 11
8.6937231785
 21
-9.6992408051
  0
LINE
  5
34C
100
AcDbEntity
  8
DRAFT
100
AcDbLine
 62
7
  6
CONTINUOUS
 10
-8.6937231785
 20
-9.6992408051
 11
-9.65
 21
-9.6992408051
  0
LINE
  5
34D
100
AcDbEntity
  8
DRAFT
100
AcDbLine
 62
7
  6
CONTINUOUS
 10
-9.2835914695
 20
-9.5612009164
 11
-8.7585989
 21
-9.5612009164
  0
LINE
  5
34E
100
AcDbEntity
  8
RACCORDO
100
AcDbLine
 62
7
  6
CONTINUOUS
 10
-2.9962712433
 20
-9.5612009164
 11
2.9962712433
 21
-9.5612009164
  0
LINE
  5
34F
100
AcDbEntity
  8
DRAFT
100
AcDbLine
 62
7
  6
CONTINUOUS
 10
8.7585989
 20
-9.5612009164
 11
9.2835914695
 21
-9.5612009164
  0
LINE
  5
350
100
AcDbEntity
  8
RACCORDO
100
AcDbLine
 62
7
  6
CONTINUOUS
 10
9.3757834728
 20
-9.5614544578
 11
9.2835914695
 21
-9.5612009164
  0
LINE
  5
351
100
AcDbEntity
  8
RACCORDO
100
AcDbLine
 62
7
  6
CONTINUOUS
 10
9.4329091439
 20
-9.5618972036
 11
9.3757834728
 21
-9.5614544578
  0
LINE
  5
352
100
AcDbEntity
  8
RACCORDO
100
AcDbLine
 62
7
  6
CONTINUOUS
 10
9.4832537126
 20
-9.5625306444
 11
9.4329091439
 21
-9.5618972036
  0
LWPOLYLINE
  5
353
100
AcDbEntity
  8
RACCORDO
100
AcDbPolyline
 62
7
  6
CONTINUOUS
 90
13
 70
0
 10
3.0793247973
 20
-10.2309389352
 10
3.1148025046
 20
-10.2331765126
 10
3.1489181806
 20
-10.2391767237
 10
3.1816718251
 20
-10.2489395686
 10
3.2134767157
 20
-10.2627152397
 10
3.2439195749
 20
-10.2802535446
 10
3.2717605703
 20
-10.3008039057
 10
3.2968542739
 20
-10.3244339353
 10
3.3193461137
 20
-10.3510760211
 10
3.3384325416
 20
-10.3797767486
 10
3.3538457082
 20
-10.4102183131
 10
3.3658534629
 20
-10.4427185193
 10
3.3744558057
 20
-10.4772773673
  0
LWPOLYLINE
  5
354
100
AcDbEntity
  8
RACCORDO
100
AcDbPolyline
 62
7
  6
CONTINUOUS
 90
13
 70
0
 10
-3.0793247973
 20
-9.7690610648
 10
-3.1148025046
 20
-9.7668234874
 10
-3.1489181806
 20
-9.7608232763
 10
-3.1816718251
 20
-9.7510604314
 10
-3.2134767157
 20
-9.7372847602
 10
-3.2439195748
 20
-9.7197464553
 10
-3.2717605702
 20
-9.6991960942
 10
-3.2968542738
 20
-9.6755660646
 10
-3.3193461135
 20
-9.6489239788
 10
-3.3384325414
 20
-9.6202232513
 10
-3.3538457081
 20
-9.5897816868
 10
-3.3658534628
 20
-9.5572814807
 10
-3.3744558057
 20
-9.5227226327
  0
LINE
  5
355
100
AcDbEntity
  8
0
100
AcDbLine
 62
7
  6
CONTINUOUS
 10
-7.9063829809
 20
-6.31
 11
-8.8
 21
-5.9975
  0
LWPOLYLINE
  5
356
100
AcDbEntity
  8
0
100
AcDbPolyline
 62
7
  6
CONTINUOUS
 90
10
 70
0
 10
2.3723585778
 20
-11.3964089079
 10
2.4119173834
 20
-11.4103965418
 10
2.4483878236
 20
-11.4287888787
 10
2.4812633894
 20
-11.4518941844
 10
2.5110505898
 20
-11.4794041671
 10
2.5367241973
 20
-11.510295511
 10
2.5579381021
 20
-11.5449286135
 10
2.5750384139
 20
-11.582943045
 10
2.5880382339
 20
-11.6222342622
 10
2.5969419291
 20
-11.6621007507
  0
LINE
  5
357
100
AcDbEntity
  8
0
100
AcDbLine
 62
7
  6
CONTINUOUS
 10
-7.8
 20
-6.2266666865
 11
-8.5872340679
 21
-5.935
  0
LWPOLYLINE
  5
358
100
AcDbEntity
  8
RACCORDO
100
AcDbPolyline
 62
250
  6
CONTINUOUS
 90
5
 70
0
 10
7.1645043191
 20
-18.5479169535
 10
7.1760364792
 20
-18.5585786439
 10
7.1932831638
 20
-18.5782477143
 10
7.2078153628
 20
-18.6000000001
 10
7.2193844262
 20
-18.6234633136
  0
LINE
  5
359
100
AcDbEntity
  8
RACCORDO
100
AcDbLine
 62
7
  6
CONTINUOUS
 10
6.5167778011
 20
-20.1560734983
 11
6.6582724256
 21
-20.2975681228
  0
LINE
  5
35A
100
AcDbEntity
  8
0
100
AcDbLine
 62
7
  6
CONTINUOUS
 10
-7.9489361674
 20
-4.06
 11
-7.9914893687
 21
-3.9975
  0
LINE
  5
35B
100
AcDbEntity
  8
0
100
AcDbLine
 62
7
  6
CONTINUOUS
 10
-7.8212765951
 20
-4.0391667461
 11
-7.8638297871
 21
-3.9558332539
  0
LWPOLYLINE
  5
35C
100
AcDbEntity
  8
0
100
AcDbPolyline
 62
7
  6
CONTINUOUS
 90
13
 70
0
 10
-3.5661784782
 20
-16.0548298008
 10
-3.5899592531
 20
-16.0035213018
 10
-3.6190924744
 20
-15.9565849141
 10
-3.6533087927
 20
-15.9134600311
 10
-3.6913415302
 20
-15.8755514648
 10
-3.7337904468
 20
-15.8432450312
 10
-3.7800557826
 20
-15.8161549867
 10
-3.8270715803
 20
-15.7945288087
 10
-3.8742231961
 20
-15.778653175
 10
-3.9221252738
 20
-15.7682414477
 10
-3.9695557871
 20
-15.7626811218
 10
-4.0167083511
 20
-15.7618243024
 10
-4.0633893508
 20
-15.7658188902
  0
LWPOLYLINE
  5
35D
100
AcDbEntity
  8
0
100
AcDbPolyline
 62
7
  6
CONTINUOUS
 90
3
 70
0
 10
-4.2429848271
 20
-14.0849943563
 10
-4.2577277385
 20
-14.053034561
 10
-4.2689438896
 20
-14.0187752274
  0
LWPOLYLINE
  5
35E
100
AcDbEntity
  8
0
100
AcDbPolyline
 62
7
  6
CONTINUOUS
 90
27
 70
0
 10
-4.3598813521
 20
-13.71947711
 10
-4.379355215
 20
-13.6746310825
 10
-4.402569335
 20
-13.6347238573
 10
-4.4295237123
 20
-13.5997554672
 10
-4.4606932405
 20
-13.5694838644
 10
-4.495603026
 20
-13.5441511491
 10
-4.5328283871
 20
-13.524483573
 10
-4.5723877096
 20
-13.5108420185
 10
-4.6142626078
 20
-13.5028656347
 10
-4.6569732435
 20
-13.5001980668
 10
-4.7006060801
 20
-13.5026717093
 10
-4.7450746542
 20
-13.5104541678
 10
-4.7886397369
 20
-13.5236918967
 10
-4.8315567341
 20
-13.5424264382
 10
-4.87357024
 20
-13.5666162215
 10
-4.9121748078
 20
-13.5962830246
 10
-4.9473235275
 20
-13.6324328115
 10
-4.9790633093
 20
-13.674059555
 10
-5.0050294362
 20
-13.7181670583
 10
-5.0240602585
 20
-13.764332457
 10
-5.0373174259
 20
-13.8129785797
 10
-5.0459211722
 20
-13.8623778023
 10
-5.0502626556
 20
-13.9125073891
 10
-5.0499507178
 20
-13.9633900622
 10
-5.0449321175
 20
-14.0133664124
 10
-5.0355467023
 20
-14.0624761971
 10
-5.0214546247
 20
-14.1106796728
  0
LWPOLYLINE
  5
35F
100
AcDbEntity
  8
0
100
AcDbPolyline
 62
7
  6
CONTINUOUS
 90
3
 70
0
 10
-4.4977029813
 20
-15.4424756606
 10
-4.5183189618
 20
-15.3935313709
 10
-4.5399548698
 20
-15.3465934325
  0
LWPOLYLINE
  5
360
100
AcDbEntity
  8
0
100
AcDbPolyline
 62
7
  6
CONTINUOUS
 90
3
 70
0
 10
-4.4502119605
 20
-16.1670795308
 10
-4.4362869199
 20
-16.2038757919
 10
-4.4263008722
 20
-16.2427143409
  0
LINE
  5
361
100
AcDbEntity
  8
0
100
AcDbLine
 62
7
  6
CONTINUOUS
 10
-3.5474808003
 20
-16.1099497275
 11
-3.5661784782
 21
-16.0548298008
  0
LINE
  5
362
100
AcDbEntity
  8
0
100
AcDbLine
 62
7
  6
CONTINUOUS
 10
-4.8845233499
 20
-14.0212855302
 11
-4.893366423
 21
-13.9906771606
  0
LINE
  5
363
100
AcDbEntity
  8
0
100
AcDbLine
 62
7
  6
CONTINUOUS
 10
-7.9276595742
 20
-4.1433332539
 11
-7.9489361674
 21
-4.06
  0
LWPOLYLINE
  5
364
100
AcDbEntity
  8
0
100
AcDbPolyline
 62
7
  6
CONTINUOUS
 90
17
 70
0
 10
-4.8873840503
 20
-16.3488985561
 10
-4.8953722424
 20
-16.3151951903
 10
-4.8993553211
 20
-16.2814808724
 10
-4.8993106848
 20
-16.2479247138
 10
-4.8952609352
 20
-16.2143576041
 10
-4.8872315943
 20
-16.1823001495
 10
-4.8749276729
 20
-16.1515508486
 10
-4.8586441603
 20
-16.1223112207
 10
-4.8392915465
 20
-16.0967064254
 10
-4.8167383749
 20
-16.0754814311
 10
-4.7911161021
 20
-16.0578913047
 10
-4.7637295873
 20
-16.0438263605
 10
-4.7346206475
 20
-16.0331048225
 10
-4.7037474657
 20
-16.0259084833
 10
-4.6722894502
 20
-16.0226730057
 10
-4.6400529473
 20
-16.0229793961
 10
-4.6072316108
 20
-16.0272466503
  0
LINE
  5
365
100
AcDbEntity
  8
0
100
AcDbLine
 62
7
  6
CONTINUOUS
 10
-7.8
 20
-4.1433332539
 11
-7.8212765951
 21
-4.0391667461
  0
LWPOLYLINE
  5
366
100
AcDbEntity
  8
RACCORDO
100
AcDbPolyline
 62
250
  6
CONTINUOUS
 90
5
 70
0
 10
-9.5879500862
 20
20.2270948741
 10
-9.5877764426
 20
20.2250020531
 10
-9.5876085547
 20
20.2210994734
 10
-9.5874464226
 20
20.2153871352
 10
-9.5872886078
 20
20.2077750951
  0
LWPOLYLINE
  5
367
100
AcDbEntity
  8
RACCORDO
100
AcDbPolyline
 62
7
  6
CONTINUOUS
 90
5
 70
0
 10
-6.6200664561
 20
-18.7
 10
-6.621788861
 20
-18.6740052246
 10
-6.6268735856
 20
-18.6484644063
 10
-6.6352396652
 20
-18.6237969742
 10
-6.6467477188
 20
-18.6004004561
  0
LINE
  5
368
100
AcDbEntity
  8
RACCORDO
100
AcDbLine
 62
250
  6
CONTINUOUS
 10
-7.1094109243
 20
-18.5
 11
-7.319462557
 21
-15.2755396155
  0
LWPOLYLINE
  5
369
100
AcDbEntity
  8
RACCORDO
100
AcDbPolyline
 62
250
  6
CONTINUOUS
 90
8
 70
0
 10
-7.2316159776
 20
-18.7539032017
 10
-7.2320259031
 20
-18.7389509382
 10
-7.2324517745
 20
-18.7266130291
 10
-7.2328932409
 20
-18.7166600608
 10
-7.2333313154
 20
-18.7090286155
 10
-7.2337596691
 20
-18.703697554
 10
-7.234184631
 20
-18.7006880155
 10
-7.234606201
 20
-18.7
  0
LWPOLYLINE
  5
36A
100
AcDbEntity
  8
RACCORDO
100
AcDbPolyline
 62
250
  6
CONTINUOUS
 90
6
 70
0
 10
-7.032481887
 20
-18.5442382846
 10
-7.0329234369
 20
-18.5275687847
 10
-7.0333615908
 20
-18.5150549444
 10
-7.0337900106
 20
-18.5064996115
 10
-7.0342150343
 20
-18.501575651
 10
-7.034636662
 20
-18.5
  0
LINE
  5
36B
100
AcDbEntity
  8
RACCORDO
100
AcDbLine
 62
250
  6
CONTINUOUS
 10
-7.2308608451
 20
-18.7903377281
 11
-7.2316159776
 21
-18.7539032017
  0
LINE
  5
36C
100
AcDbEntity
  8
RACCORDO
100
AcDbLine
 62
250
  6
CONTINUOUS
 10
-7.2419286989
 20
20.8366629075
 11
-7.2293696815
 21
20.1171572875
  0
LINE
  5
36D
100
AcDbEntity
  8
RACCORDO
100
AcDbLine
 62
250
  6
CONTINUOUS
 10
-7.0316459995
 20
-18.5897453031
 11
-7.032481887
 21
-18.5442382846
  0
LINE
  5
36E
100
AcDbEntity
  8
RACCORDO
100
AcDbLine
 62
250
  6
CONTINUOUS
 10
-7.2302463083
 20
-18.8341069331
 11
-7.2308608451
 21
-18.7903377281
  0
LINE
  5
36F
100
AcDbEntity
  8
RACCORDO
100
AcDbLine
 62
250
  6
CONTINUOUS
 10
-7.0308908793
 20
-18.6506224102
 11
-7.0316459995
 21
-18.5897453031
  0
LINE
  5
370
100
AcDbEntity
  8
RACCORDO
100
AcDbLine
 62
250
  6
CONTINUOUS
 10
-6.8580061777
 20
-20.4686258279
 11
-6.8598392317
 21
-20.2585786438
  0
LINE
  5
371
100
AcDbEntity
  8
RACCORDO
100
AcDbLine
 62
250
  6
CONTINUOUS
 10
-6.6582724256
 20
-20.2975681228
 11
-6.6598468471
 21
-20.1171572875
  0
LINE
  5
372
100
AcDbEntity
  8
RACCORDO
100
AcDbLine
 62
250
  6
CONTINUOUS
 10
-7.2296328074
 20
-18.9066510222
 11
-7.2302463083
 21
-18.8341069331
  0
LINE
  5
373
100
AcDbEntity
  8
RACCORDO
100
AcDbLine
 62
250
  6
CONTINUOUS
 10
-7.0298246198
 20
-18.8031472331
 11
-7.0308908793
 21
-18.6506224102
  0
LINE
  5
374
100
AcDbEntity
  8
RACCORDO
100
AcDbLine
 62
250
  6
CONTINUOUS
 10
-6.8592547017
 20
18.6853912434
 11
-6.8585099766
 21
18.5647948201
  0
LINE
  5
375
100
AcDbEntity
  8
RACCORDO
100
AcDbLine
 62
250
  6
CONTINUOUS
 10
-7.2293778235
 20
-18.9775145419
 11
-7.2296328074
 21
-18.9066510222
  0
LINE
  5
376
100
AcDbEntity
  8
0
100
AcDbLine
 62
7
  6
CONTINUOUS
 10
-8.3957446694
 20
-3.5183332539
 11
-8.3957446694
 21
-2.9766667461
  0
LINE
  5
377
100
AcDbEntity
  8
0
100
AcDbLine
 62
7
  6
CONTINUOUS
 10
-8.3744680762
 20
4.065
 11
-8.3744680762
 21
4.19
  0
LINE
  5
378
100
AcDbEntity
  8
0
100
AcDbLine
 62
7
  6
CONTINUOUS
 10
-8.2680851102
 20
-3.5183332539
 11
-8.2680851102
 21
-2.9766667461
  0
LINE
  5
379
100
AcDbEntity
  8
0
100
AcDbLine
 62
7
  6
CONTINUOUS
 10
-8.246808517
 20
4.065
 11
-8.246808517
 21
4.19
  0
LINE
  5
37A
100
AcDbEntity
  8
0
100
AcDbLine
 62
7
  6
CONTINUOUS
 10
-8.1404255211
 20
-5.4141666269
 11
-8.1404255211
 21
-5.0391666269
  0
LINE
  5
37B
100
AcDbEntity
  8
0
100
AcDbLine
 62
7
  6
CONTINUOUS
 10
-8.1404255211
 20
5.19
 11
-8.1404255211
 21
5.565
  0
LINE
  5
37C
100
AcDbEntity
  8
0
100
AcDbLine
 62
7
  6
CONTINUOUS
 10
-8.0765957415
 20
3.7316669846
 11
-8.0765957415
 21
3.8566669846
  0
LINE
  5
37D
100
AcDbEntity
  8
0
100
AcDbLine
 62
7
  6
CONTINUOUS
 10
-8.0553191483
 20
-5.435
 11
-8.0553191483
 21
-5.0183333731
  0
LINE
  5
37E
100
AcDbEntity
  8
0
100
AcDbLine
 62
7
  6
CONTINUOUS
 10
-8.0553191483
 20
5.1691669846
 11
-8.0553191483
 21
5.5858330154
  0
LINE
  5
37F
100
AcDbEntity
  8
0
100
AcDbLine
 62
7
  6
CONTINUOUS
 10
-7.9276595742
 20
-4.5183332539
 11
-7.9276595742
 21
-4.1433332539
  0
LINE
  5
380
100
AcDbEntity
  8
0
100
AcDbLine
 62
7
  6
CONTINUOUS
 10
-7.9276595742
 20
-3.5183332539
 11
-7.9276595742
 21
-2.8933332539
  0
LINE
  5
381
100
AcDbEntity
  8
0
100
AcDbLine
 62
7
  6
CONTINUOUS
 10
-7.9276595742
 20
1.8566669846
 11
-7.9276595742
 21
1.94
  0
LINE
  5
382
100
AcDbEntity
  8
0
100
AcDbLine
 62
7
  6
CONTINUOUS
 10
-7.9276595742
 20
4.0233330154
 11
-7.9276595742
 21
4.19
  0
LINE
  5
383
100
AcDbEntity
  8
0
100
AcDbLine
 62
7
  6
CONTINUOUS
 10
-7.8
 20
-6.81
 11
-7.8
 21
-6.685
  0
LINE
  5
384
100
AcDbEntity
  8
0
100
AcDbLine
 62
7
  6
CONTINUOUS
 10
-7.8
 20
-6.3933333433
 11
-7.8
 21
-6.2266666865
  0
LINE
  5
385
100
AcDbEntity
  8
0
100
AcDbLine
 62
7
  6
CONTINUOUS
 10
-7.8
 20
-5.935
 11
-7.8
 21
-5.81
  0
LINE
  5
386
100
AcDbEntity
  8
0
100
AcDbLine
 62
7
  6
CONTINUOUS
 10
-7.8
 20
-5.6433333731
 11
-7.8
 21
-5.5183333731
  0
LINE
  5
387
100
AcDbEntity
  8
0
100
AcDbLine
 62
7
  6
CONTINUOUS
 10
-7.8
 20
-4.935
 11
-7.8
 21
-4.81
  0
LINE
  5
388
100
AcDbEntity
  8
0
100
AcDbLine
 62
7
  6
CONTINUOUS
 10
-7.8
 20
-4.6433332539
 11
-7.8
 21
-4.1433332539
  0
LINE
  5
389
100
AcDbEntity
  8
0
100
AcDbLine
 62
7
  6
CONTINUOUS
 10
-7.8
 20
-3.6433332539
 11
-7.8
 21
-2.8933332539
  0
LINE
  5
38A
100
AcDbEntity
  8
0
100
AcDbLine
 62
7
  6
CONTINUOUS
 10
-7.8
 20
-1.7266665077
 11
-7.8
 21
-1.6016665077
  0
LINE
  5
38B
100
AcDbEntity
  8
0
100
AcDbLine
 62
7
  6
CONTINUOUS
 10
-7.8
 20
-1.435
 11
-7.8
 21
-1.31
  0
LINE
  5
38C
100
AcDbEntity
  8
0
100
AcDbLine
 62
7
  6
CONTINUOUS
 10
-7.8
 20
-0.7891665077
 11
-7.8
 21
-0.6016665077
  0
LINE
  5
38D
100
AcDbEntity
  8
0
100
AcDbLine
 62
7
  6
CONTINUOUS
 10
-7.8
 20
0.8983334923
 11
-7.8
 21
1.0233334923
  0
LINE
  5
38E
100
AcDbEntity
  8
0
100
AcDbLine
 62
7
  6
CONTINUOUS
 10
-7.8
 20
1.8566669846
 11
-7.8
 21
1.94
  0
LINE
  5
38F
100
AcDbEntity
  8
0
100
AcDbLine
 62
7
  6
CONTINUOUS
 10
-7.8
 20
2.44
 11
-7.8
 21
2.565
  0
LINE
  5
390
100
AcDbEntity
  8
0
100
AcDbLine
 62
7
  6
CONTINUOUS
 10
-7.8
 20
3.0858330154
 11
-7.8
 21
3.2733330154
  0
LINE
  5
391
100
AcDbEntity
  8
0
100
AcDbLine
 62
7
  6
CONTINUOUS
 10
-7.8
 20
3.44
 11
-7.8
 21
3.565
  0
LINE
  5
392
100
AcDbEntity
  8
0
100
AcDbLine
 62
7
  6
CONTINUOUS
 10
-7.8
 20
4.0233330154
 11
-7.8
 21
4.19
  0
LINE
  5
393
100
AcDbEntity
  8
0
100
AcDbLine
 62
7
  6
CONTINUOUS
 10
-7.8
 20
4.6691669846
 11
-7.8
 21
4.7941669846
  0
LINE
  5
394
100
AcDbEntity
  8
0
100
AcDbLine
 62
7
  6
CONTINUOUS
 10
-7.8
 20
4.9608330154
 11
-7.8
 21
5.0858330154
  0
LINE
  5
395
100
AcDbEntity
  8
0
100
AcDbLine
 62
7
  6
CONTINUOUS
 10
-7.8
 20
5.6691669846
 11
-7.8
 21
5.7941669846
  0
LINE
  5
396
100
AcDbEntity
  8
RACCORDO
100
AcDbLine
 62
250
  6
CONTINUOUS
 10
-7.2293696815
 20
-20.1171572875
 11
-7.2293778235
 21
-18.9775145419
  0
LINE
  5
397
100
AcDbEntity
  8
RACCORDO
100
AcDbLine
 62
250
  6
CONTINUOUS
 10
-7.0294001425
 20
-20.2585786438
 11
-7.0298246198
 21
-18.8031472331
  0
LINE
  5
398
100
AcDbEntity
  8
RACCORDO
100
AcDbLine
 62
250
  6
CONTINUOUS
 10
-6.8598392317
 20
20.2585786438
 11
-6.8592547017
 21
18.6853912434
  0
LINE
  5
399
100
AcDbEntity
  8
RACCORDO
100
AcDbLine
 62
250
  6
CONTINUOUS
 10
-7.2293696815
 20
20.1171572875
 11
-7.2295241191
 21
18.9276857274
  0
LINE
  5
39A
100
AcDbEntity
  8
RACCORDO
100
AcDbLine
 62
250
  6
CONTINUOUS
 10
-6.8598392317
 20
-20.2585786438
 11
-6.8592321097
 21
-18.6801191672
  0
LINE
  5
39B
100
AcDbEntity
  8
RACCORDO
100
AcDbLine
 62
250
  6
CONTINUOUS
 10
-7.0294001425
 20
20.2585786438
 11
-7.0298548336
 21
18.7965852034
  0
LINE
  5
39C
100
AcDbEntity
  8
RACCORDO
100
AcDbLine
 62
250
  6
CONTINUOUS
 10
-6.8592321097
 20
-18.6801191672
 11
-6.858694955
 21
-18.5868922589
  0
LINE
  5
39D
100
AcDbEntity
  8
RACCORDO
100
AcDbLine
 62
250
  6
CONTINUOUS
 10
-7.2295241191
 20
18.9276857274
 11
-7.2300346566
 21
18.8537040678
  0
LINE
  5
39E
100
AcDbEntity
  8
RACCORDO
100
AcDbLine
 62
250
  6
CONTINUOUS
 10
-6.8598392317
 20
20.2585786438
 11
-6.8556039598
 21
20.7438927334
  0
LINE
  5
39F
100
AcDbEntity
  8
RACCORDO
100
AcDbLine
 62
250
  6
CONTINUOUS
 10
-6.6558702077
 20
20.5728350282
 11
-6.6598468471
 21
20.1171572875
  0
LINE
  5
3A0
100
AcDbEntity
  8
RACCORDO
100
AcDbLine
 62
250
  6
CONTINUOUS
 10
-7.0298548336
 20
18.7965852034
 11
-7.0309370361
 21
18.6461659184
  0
LINE
  5
3A1
100
AcDbEntity
  8
RACCORDO
100
AcDbLine
 62
250
  6
CONTINUOUS
 10
-7.2300346566
 20
18.8537040678
 11
-7.2305820071
 21
18.8081854909
  0
LINE
  5
3A2
100
AcDbEntity
  8
RACCORDO
100
AcDbLine
 62
250
  6
CONTINUOUS
 10
-7.0309370361
 20
18.6461659184
 11
-7.0316859465
 21
18.5870834706
  0
LINE
  5
3A3
100
AcDbEntity
  8
RACCORDO
100
AcDbLine
 62
250
  6
CONTINUOUS
 10
-7.2419286989
 20
-20.8366629075
 11
-7.2293696815
 21
-20.1171572875
  0
LWPOLYLINE
  5
3A4
100
AcDbEntity
  8
RACCORDO
100
AcDbPolyline
 62
250
  6
CONTINUOUS
 90
10
 70
0
 10
-7.2305820071
 20
18.8081854909
 10
-7.2312659314
 20
18.7690824571
 10
-7.2316560751
 20
18.752297366
 10
-7.2320612451
 20
18.737820952
 10
-7.2324822778
 20
18.7258402601
 10
-7.2329183368
 20
18.7161682454
 10
-7.2333506371
 20
18.7087533662
 10
-7.2337729171
 20
18.7035784419
 10
-7.2341914384
 20
18.7006606532
 10
-7.234606201
 20
18.7
  0
LWPOLYLINE
  5
3A5
100
AcDbEntity
  8
RACCORDO
100
AcDbPolyline
 62
250
  6
CONTINUOUS
 90
7
 70
0
 10
-7.0316859465
 20
18.5870834706
 10
-7.0325118958
 20
18.54294942
 10
-7.0329477295
 20
18.5267597118
 10
-7.0333799802
 20
18.5146097851
 10
-7.033802457
 20
18.5063070286
 10
-7.034221351
 20
18.5015289258
 10
-7.034636662
 20
18.5
  0
LWPOLYLINE
  5
3A6
100
AcDbEntity
  8
RACCORDO
100
AcDbPolyline
 62
7
  6
CONTINUOUS
 90
13
 70
0
 10
-6.5153193024
 20
15.4838500694
 10
-6.5170644077
 20
15.4562067423
 10
-6.5222712162
 20
15.4291926456
 10
-6.5308204698
 20
15.4032390193
 10
-6.5425299039
 20
15.3787379782
 10
-6.5571756465
 20
15.3560852012
 10
-6.5745094037
 20
15.3356819
 10
-6.5942518661
 20
15.3178312955
 10
-6.6160329961
 20
15.3028242084
 10
-6.6394067095
 20
15.2909642084
 10
-6.6639355173
 20
15.2824237631
 10
-6.6892156266
 20
15.277268854
 10
-6.7148190698
 20
15.2755396155
  0
LINE
  5
3A7
100
AcDbEntity
  8
RACCORDO
100
AcDbLine
 62
250
  6
CONTINUOUS
 10
-7.319462557
 20
15.2755396155
 11
-7.1094109243
 21
18.5
  0
LWPOLYLINE
  5
3A8
100
AcDbEntity
  8
RACCORDO
100
AcDbPolyline
 62
250
  6
CONTINUOUS
 90
6
 70
0
 10
-6.6572287868
 20
18.7
 10
-6.6589397493
 20
18.6738947616
 10
-6.664043362
 20
18.648236191
 10
-6.6724523006
 20
18.6234633135
 10
-6.6840226857
 20
18.6
 10
-6.698556545
 20
18.5782477142
  0
LWPOLYLINE
  5
3A9
100
AcDbEntity
  8
RACCORDO
100
AcDbPolyline
 62
7
  6
CONTINUOUS
 90
6
 70
0
 10
-6.6200664561
 20
18.7
 10
-6.6217837243
 20
18.6740798342
 10
-6.6268536167
 20
18.6485625367
 10
-6.6352044001
 20
18.6238823695
 10
-6.6467097823
 20
18.60045995
 10
-6.6611858003
 20
18.5787024009
  0
LWPOLYLINE
  5
3AA
100
AcDbEntity
  8
RACCORDO
100
AcDbPolyline
 62
250
  6
CONTINUOUS
 90
7
 70
0
 10
-9.5879500862
 20
-20.2270948741
 10
-9.5877762434
 20
-20.2249972825
 10
-9.5876081876
 20
-20.2210877512
 10
-9.587445919
 20
-20.2153662803
 10
-9.587288001
 20
-20.2077426378
 10
-9.5871358702
 20
-20.1983070557
 10
-9.5868621716
 20
-20.1747673026
  0
LWPOLYLINE
  5
3AB
100
AcDbEntity
  8
RACCORDO
100
AcDbPolyline
 62
7
  6
CONTINUOUS
 90
40
 70
0
 10
-8.7585989
 20
-9.5612009164
 10
-8.7205195241
 20
-9.3669900456
 10
-8.6695252136
 20
-9.177631477
 10
-8.6056159684
 20
-8.9931253409
 10
-8.5282778112
 20
-8.8125019471
 10
-8.4380247193
 20
-8.6367312146
 10
-8.3363986247
 20
-8.4687227315
 10
-8.2234338305
 20
-8.3088472825
 10
-8.0990960335
 20
-8.1567343833
 10
-7.9648242559
 20
-8.0141817827
 10
-7.8201450693
 20
-7.8810360914
 10
-7.6655319021
 20
-7.7574509739
 10
-7.5038440618
 20
-7.645684794
 10
-7.3354162479
 20
-7.5461796586
 10
-7.1599137609
 20
-7.4584937043
 10
-6.9791918091
 20
-7.3835593484
 10
-6.792660711
 20
-7.3213761883
 10
-6.600910148
 20
-7.2719447855
 10
-6.4075643732
 20
-7.2361989913
 10
-6.2131342878
 20
-7.2144250804
 10
-6.0171089905
 20
-7.2063368478
 10
-5.8215800299
 20
-7.2120094043
 10
-5.6260544386
 20
-7.2316660627
 10
-5.431025184
 20
-7.2650834796
 10
-5.2400627168
 20
-7.3116667583
 10
-5.0536468805
 20
-7.3715098782
 10
-4.8712978316
 20
-7.4445187344
 10
-4.6951464909
 20
-7.5298162866
 10
-4.5249743839
 20
-7.6277232187
 10
-4.360999985
 20
-7.7379186337
 10
-4.2060096379
 20
-7.8585631203
 10
-4.060329025
 20
-7.9896804133
 10
-3.923632464
 20
-8.1312465116
 10
-3.7977292519
 20
-8.2813504232
 10
-3.68266912
 20
-8.4402680331
 10
-3.5784023371
 20
-8.6077231596
 10
-3.4865890065
 20
-8.7809767655
 10
-3.4077824958
 20
-8.9591157731
 10
-3.3414294373
 20
-9.1430530117
 10
-3.2875298311
 20
-9.3327883395
  0
LINE
  5
3AC
100
AcDbEntity
  8
0
100
AcDbLine
 62
7
  6
CONTINUOUS
 10
-7.8212765951
 20
1.7525
 11
-7.8
 21
1.8566669846
  0
LINE
  5
3AD
100
AcDbEntity
  8
0
100
AcDbLine
 62
7
  6
CONTINUOUS
 10
-8.8
 20
-4.1433332539
 11
-8.7787234068
 21
-4.0391667461
  0
LINE
  5
3AE
100
AcDbEntity
  8
0
100
AcDbLine
 62
7
  6
CONTINUOUS
 10
-7.9489361674
 20
1.7733330154
 11
-7.9276595742
 21
1.8566669846
  0
LINE
  5
3AF
100
AcDbEntity
  8
0
100
AcDbLine
 62
7
  6
CONTINUOUS
 10
-8.6723404408
 20
-4.1433332539
 11
-8.6510638475
 21
-4.06
  0
LINE
  5
3B0
100
AcDbEntity
  8
0
100
AcDbLine
 62
7
  6
CONTINUOUS
 10
-7.8638297871
 20
1.6691669846
 11
-7.8212765951
 21
1.7525
  0
LWPOLYLINE
  5
3B1
100
AcDbEntity
  8
RACCORDO
100
AcDbPolyline
 62
7
  6
CONTINUOUS
 90
7
 70
0
 10
-6.2821219647
 20
4.3654832059
 10
-6.2875415277
 20
4.3566858783
 10
-6.2919851346
 20
4.3476037186
 10
-6.2954527852
 20
4.3382367266
 10
-6.2979444797
 20
4.3285849024
 10
-6.2994602179
 20
4.3186482459
 10
-6.3
 20
4.3084267572
  0
LINE
  5
3B2
100
AcDbEntity
  8
0
100
AcDbLine
 62
7
  6
CONTINUOUS
 10
-7.9914893687
 20
1.7108330154
 11
-7.9489361674
 21
1.7733330154
  0
LWPOLYLINE
  5
3B3
100
AcDbEntity
  8
0
100
AcDbPolyline
 62
7
  6
CONTINUOUS
 90
11
 70
0
 10
1.1619081928
 20
13.1268752152
 10
1.1233133433
 20
13.0875409174
 10
1.0885137117
 20
13.0452645948
 10
1.057509298
 20
13.0000462281
 10
1.0307685027
 20
12.9516340865
 10
1.0078229252
 20
12.900279857
 10
0.9872673643
 20
12.8467386514
 10
0.9687943935
 20
12.7911740101
 10
0.9527114393
 20
12.7334223578
 10
0.9385355786
 20
12.6737481404
 10
0.9261058372
 20
12.6122394962
  0
LWPOLYLINE
  5
3B4
100
AcDbEntity
  8
RACCORDO
100
AcDbPolyline
 62
7
  6
CONTINUOUS
 90
31
 70
0
 10
-5.6100769122
 20
5.2175903741
 10
-5.3144046932
 20
5.5175613825
 10
-5.0047201117
 20
5.799567682
 10
-4.6810231679
 20
6.0636095279
 10
-4.3422661573
 20
6.3104356783
 10
-3.9894967842
 20
6.539297901
 10
-3.625858162
 20
6.7479510126
 10
-3.2512409612
 20
6.9361512892
 10
-2.8657545112
 20
7.1041430454
 10
-2.4728699136
 20
7.2504131956
 10
-2.0725278653
 20
7.3747626746
 10
-1.6647876694
 20
7.477391042
 10
-1.2532983371
 20
7.5573831324
 10
-0.8380276298
 20
7.6145368081
 10
-0.419007786
 20
7.6490544874
 10
0.0000154674
 20
7.660627783
 10
0.4190466222
 20
7.6490507323
 10
0.8380811866
 20
7.6145292979
 10
1.2533599596
 20
7.55737291
 10
1.6648416402
 20
7.4773807332
 10
2.0725675293
 20
7.3747533224
 10
2.4729023277
 20
7.2504021373
 10
2.8657968298
 20
7.1041236864
 10
3.2513002411
 20
6.9361209668
 10
3.6259248789
 20
6.7479151537
 10
3.9895513745
 20
6.5392668914
 10
4.3422990965
 20
6.3104149451
 10
4.681038469
 20
6.0635977124
 10
5.0047262997
 20
5.7995611638
 10
5.3144057808
 20
5.5175588028
 10
5.6100769122
 20
5.2175903741
  0
LINE
  5
3B5
100
AcDbEntity
  8
0
100
AcDbLine
 62
7
  6
CONTINUOUS
 10
-8.0127659619
 20
3.8775
 11
-7.9489361674
 21
3.94
  0
LWPOLYLINE
  5
3B6
100
AcDbEntity
  8
RACCORDO
100
AcDbPolyline
 62
7
  6
CONTINUOUS
 90
16
 70
0
 10
-5.7855183748
 20
5.0243379499
 10
-5.7734109541
 20
5.0358966808
 10
-5.7603793672
 20
5.045088465
 10
-5.746423614
 20
5.0519133039
 10
-5.731138914
 20
5.0564221354
 10
-5.7149300477
 20
5.0585640232
 10
-5.6990113568
 20
5.0581861564
 10
-5.6834242077
 20
5.055117509
 10
-5.668127234
 20
5.0495291064
 10
-5.6542106783
 20
5.0417812147
 10
-5.6417360955
 20
5.0316922799
 10
-5.6306419306
 20
5.0194438535
 10
-5.6218337613
 20
5.00594086
 10
-5.6156134468
 20
4.9914849403
 10
-5.6116791278
 20
4.9757744515
 10
-5.6100308043
 20
4.9588093923
  0
LINE
  5
3B7
100
AcDbEntity
  8
0
100
AcDbLine
 62
7
  6
CONTINUOUS
 10
-8.1829787374
 20
4.3358330154
 11
-8.1191489279
 21
4.3775
  0
LINE
  5
3B8
100
AcDbEntity
  8
0
100
AcDbLine
 62
7
  6
CONTINUOUS
 10
-8.8
 20
2.6275
 11
-7.9489361674
 21
3.1483330154
  0
LWPOLYLINE
  5
3B9
100
AcDbEntity
  8
0
100
AcDbPolyline
 62
7
  6
CONTINUOUS
 90
28
 70
0
 10
4.7768149081
 20
12.4907062385
 10
4.8128877425
 20
12.5123999808
 10
4.8462467645
 20
12.5374174031
 10
4.876891974
 20
12.5657584927
 10
4.905281458
 20
12.5978622882
 10
4.9309571296
 20
12.633289719
 10
4.952544728
 20
12.6707236125
 10
4.9697120284
 20
12.7101868631
 10
4.9827912556
 20
12.7516565523
 10
4.9914048227
 20
12.793746803
 10
4.9954088486
 20
12.8364470704
 10
4.9949472144
 20
12.8797678906
 10
4.9900739765
 20
12.9223550257
 10
4.9806779139
 20
12.9641849506
 10
4.9668702476
 20
13.0052811995
 10
4.9490386981
 20
13.0443601402
 10
4.9270543458
 20
13.0813931885
 10
4.9010461102
 20
13.1164089525
 10
4.8717884707
 20
13.1482096025
 10
4.8391065734
 20
13.1767134876
 10
4.8031752721
 20
13.2020022895
 10
4.7652936082
 20
13.2231231857
 10
4.7252800224
 20
13.2397999091
 10
4.6833160739
 20
13.2523087525
 10
4.6412454811
 20
13.2605257328
 10
4.5996828165
 20
13.2644095252
 10
4.5580135075
 20
13.2640014628
 10
4.5162375541
 20
13.2593015455
  0
LINE
  5
3BA
100
AcDbEntity
  8
0
100
AcDbLine
 62
7
  6
CONTINUOUS
 10
-7.9914893687
 20
3.7525
 11
-7.8851063803
 21
3.815
  0
LINE
  5
3BB
100
AcDbEntity
  8
0
100
AcDbLine
 62
7
  6
CONTINUOUS
 10
-8.6085106611
 20
4.2941669846
 11
-8.5659574747
 21
4.315
  0
LINE
  5
3BC
100
AcDbEntity
  8
0
100
AcDbLine
 62
7
  6
CONTINUOUS
 10
-8.2255319238
 20
4.4608330154
 11
-8.1404255211
 21
4.5025
  0
LWPOLYLINE
  5
3BD
100
AcDbEntity
  8
0
100
AcDbPolyline
 62
7
  6
CONTINUOUS
 90
8
 70
0
 10
4.7271859962
 20
11.1621033059
 10
4.7344833534
 20
11.1653618326
 10
4.7415351328
 20
11.1696171472
 10
4.7482551938
 20
11.1747485191
 10
4.7543851143
 20
11.1803937576
 10
4.7599123536
 20
11.1865362663
 10
4.7648494524
 20
11.1931926408
 10
4.7689756098
 20
11.2000504795
  0
LINE
  5
3BE
100
AcDbEntity
  8
0
100
AcDbLine
 62
7
  6
CONTINUOUS
 10
-8.8
 20
5.4608330154
 11
-7.8
 21
5.7941669846
  0
LINE
  5
3BF
100
AcDbEntity
  8
0
100
AcDbLine
 62
7
  6
CONTINUOUS
 10
-8.7148936272
 20
5.3775
 11
-8.1404255211
 21
5.565
  0
LINE
  5
3C0
100
AcDbEntity
  8
0
100
AcDbLine
 62
7
  6
CONTINUOUS
 10
-8.0553191483
 20
5.5858330154
 11
-7.8
 21
5.6691669846
  0
LINE
  5
3C1
100
AcDbEntity
  8
0
100
AcDbLine
 62
7
  6
CONTINUOUS
 10
-8.6297872543
 20
4.4191669846
 11
-8.5659574747
 21
4.44
  0
LINE
  5
3C2
100
AcDbEntity
  8
0
100
AcDbLine
 62
7
  6
CONTINUOUS
 10
-8.8
 20
-6.81
 11
-7.8
 21
-6.81
  0
LWPOLYLINE
  5
3C3
100
AcDbEntity
  8
RACCORDO
100
AcDbPolyline
 62
7
  6
CONTINUOUS
 90
8
 70
0
 10
9.583581878
 20
-9.5663944438
 10
9.5815565958
 20
-9.5658413411
 10
9.5764517092
 20
-9.565305535
 10
9.5682672182
 20
-9.5647870256
 10
9.556833283
 20
-9.5642801996
 10
9.5423197433
 20
-9.5637906703
 10
9.5252361187
 20
-9.5633352772
 10
9.4832537126
 20
-9.5625306444
  0
LINE
  5
3C4
100
AcDbEntity
  8
0
100
AcDbLine
 62
7
  6
CONTINUOUS
 10
-8.1404255211
 20
-5.4141666269
 11
-8.7148936272
 21
-5.2266666269
  0
LINE
  5
3C5
100
AcDbEntity
  8
0
100
AcDbLine
 62
7
  6
CONTINUOUS
 10
-7.8
 20
-5.5183333731
 11
-8.0553191483
 21
-5.435
  0
LINE
  5
3C6
100
AcDbEntity
  8
0
100
AcDbLine
 62
7
  6
CONTINUOUS
 10
-7.8
 20
-5.6433333731
 11
-8.8
 21
-5.31
  0
LINE
  5
3C7
100
AcDbEntity
  8
0
100
AcDbLine
 62
7
  6
CONTINUOUS
 10
-7.9489361674
 20
-3.8725
 11
-8.0340425551
 21
-3.8308332539
  0
LINE
  5
3C8
100
AcDbEntity
  8
0
100
AcDbLine
 62
7
  6
CONTINUOUS
 10
-7.9914893687
 20
-3.9975
 11
-8.0553191483
 21
-3.9558332539
  0
LWPOLYLINE
  5
3C9
100
AcDbEntity
  8
RACCORDO
100
AcDbPolyline
 62
7
  6
CONTINUOUS
 90
16
 70
0
 10
-5.7984616946
 20
-4.9900242461
 10
-5.7862215519
 20
-5.0017626866
 10
-5.773063094
 20
-5.0110830365
 10
-5.758986321
 20
-5.0179852957
 10
-5.743584835
 20
-5.0225153374
 10
-5.7272650339
 20
-5.0246272884
 10
-5.7112461114
 20
-5.0241835297
 10
-5.6955511414
 20
-5.0209930967
 10
-5.68015705
 20
-5.0152469539
 10
-5.66621381
 20
-5.0073803757
 10
-5.6538318053
 20
-4.9972316837
 10
-5.6429006519
 20
-4.9849625563
 10
-5.634239171
 20
-4.9714933038
 10
-5.6281203029
 20
-4.9571306962
 10
-5.6242711074
 20
-4.9415679635
 10
-5.6226915844
 20
-4.9248051057
  0
LINE
  5
3CA
100
AcDbEntity
  8
0
100
AcDbLine
 62
7
  6
CONTINUOUS
 10
-7.8638297871
 20
-3.9558332539
 11
-7.9489361674
 21
-3.8725
  0
LWPOLYLINE
  5
3CB
100
AcDbEntity
  8
RACCORDO
100
AcDbPolyline
 62
250
  6
CONTINUOUS
 90
10
 70
0
 10
-3.3744558057
 20
-10.4772773673
 10
-3.364389017
 20
-10.4980301477
 10
-3.3544298794
 20
-10.5188611498
 10
-3.344578136
 20
-10.5397688578
 10
-3.3348332825
 20
-10.5607502532
 10
-3.3251952121
 20
-10.5818053279
 10
-3.3156643348
 20
-10.6029371441
 10
-3.306240663
 20
-10.6241457888
 10
-3.2969236935
 20
-10.6454283143
 10
-3.287713135
 20
-10.6667832927
  0
LWPOLYLINE
  5
3CC
100
AcDbEntity
  8
RACCORDO
100
AcDbPolyline
 62
250
  6
CONTINUOUS
 90
10
 70
0
 10
-3.0793247973
 20
-10.2309389352
 10
-3.0696342674
 20
-10.2537508351
 10
-3.0600626776
 20
-10.2766250028
 10
-3.0506100277
 20
-10.2995614382
 10
-3.041276553
 20
-10.3225599868
 10
-3.0320620182
 20
-10.3456208031
 10
-3.0229657179
 20
-10.3687443503
 10
-3.0139874166
 20
-10.391930783
 10
-3.0051273498
 20
-10.4151799467
 10
-2.9963855172
 20
-10.4384918414
  0
LWPOLYLINE
  5
3CD
100
AcDbEntity
  8
0
100
AcDbPolyline
 62
7
  6
CONTINUOUS
 90
23
 70
0
 10
-3.5471352497
 20
-13.7644556423
 10
-3.5650877948
 20
-13.7124308628
 10
-3.5890501735
 20
-13.6639390865
 10
-3.6184981273
 20
-13.6185824507
 10
-3.6523831121
 20
-13.5779950142
 10
-3.6913027429
 20
-13.5424995864
 10
-3.7346594046
 20
-13.5117734193
 10
-3.7796117077
 20
-13.4864822458
 10
-3.8256727228
 20
-13.4669565511
 10
-3.8733293793
 20
-13.4528658906
 10
-3.9212010764
 20
-13.4438845976
 10
-3.9694359922
 20
-13.4399055087
 10
-4.0178859485
 20
-13.4410357979
 10
-4.0647258107
 20
-13.4472712978
 10
-4.1098427042
 20
-13.4586074065
 10
-4.1533495034
 20
-13.4750487112
 10
-4.1937596969
 20
-13.4966048216
 10
-4.2308865869
 20
-13.5237934969
 10
-4.2649168711
 20
-13.5560969356
 10
-4.2949241315
 20
-13.5919714078
 10
-4.3205995621
 20
-13.6309023258
 10
-4.342251969
 20
-13.673404235
 10
-4.3598813521
 20
-13.71947711
  0
LINE
  5
3CE
100
AcDbEntity
  8
0
100
AcDbLine
 62
7
  6
CONTINUOUS
 10
-8.6510638475
 20
4.0025
 11
-8.6723404408
 21
4.065
  0
LWPOLYLINE
  5
3CF
100
AcDbEntity
  8
0
100
AcDbPolyline
 62
7
  6
CONTINUOUS
 90
30
 70
0
 10
-4.3598813521
 20
-14.1374404381
 10
-4.3462397929
 20
-14.1806957058
 10
-4.3285799282
 20
-14.2211137031
 10
-4.3069017581
 20
-14.2586944492
 10
-4.2809757511
 20
-14.2940185381
 10
-4.2510314387
 20
-14.3265054086
 10
-4.2177574152
 20
-14.3544133561
 10
-4.1809577419
 20
-14.3771873728
 10
-4.1408283575
 20
-14.3953825081
 10
-4.0986456728
 20
-14.4089221474
 10
-4.0542491998
 20
-14.4177841204
 10
-4.0077994265
 20
-14.4219906154
 10
-3.9610542281
 20
-14.4215315507
 10
-3.9142303898
 20
-14.4165660813
 10
-3.8671111264
 20
-14.4069350478
 10
-3.8208039579
 20
-14.392150889
 10
-3.7747297449
 20
-14.3719904423
 10
-3.7294676269
 20
-14.3466768387
 10
-3.6878625423
 20
-14.31639195
 10
-3.6503750269
 20
-14.2808314428
 10
-3.616544545
 20
-14.240299593
 10
-3.5878344284
 20
-14.1958911899
 10
-3.5646904327
 20
-14.1470503567
 10
-3.5466668023
 20
-14.094332906
 10
-3.5338896026
 20
-14.0405011896
 10
-3.5264958845
 20
-13.9860021064
 10
-3.5243485972
 20
-13.930388741
 10
-3.5271626532
 20
-13.8750827613
 10
-3.5346682798
 20
-13.8196155069
 10
-3.5471352497
 20
-13.7644556423
  0
LWPOLYLINE
  5
3D0
100
AcDbEntity
  8
0
100
AcDbPolyline
 62
7
  6
CONTINUOUS
 90
7
 70
0
 10
-4.4452737006
 20
-13.8403391487
 10
-4.4365986863
 20
-13.8712713772
 10
-4.4316294461
 20
-13.9038363188
 10
-4.4304641984
 20
-13.9363599301
 10
-4.4331518756
 20
-13.9688596765
 10
-4.4396435454
 20
-14.0013180927
 10
-4.4498906295
 20
-14.0320087586
  0
LWPOLYLINE
  5
3D1
100
AcDbEntity
  8
0
100
AcDbPolyline
 62
7
  6
CONTINUOUS
 90
6
 70
0
 10
-4.2593184979
 20
-16.3780198013
 10
-4.2706895027
 20
-16.3346312219
 10
-4.2774719811
 20
-16.2921283499
 10
-4.2796659333
 20
-16.2505111932
 10
-4.2774157084
 20
-16.2092595527
 10
-4.2705769572
 20
-16.1688936397
  0
LINE
  5
3D2
100
AcDbEntity
  8
0
100
AcDbLine
 62
7
  6
CONTINUOUS
 10
-8.7787234068
 20
3.9816669846
 11
-8.8
 21
4.065
  0
LINE
  5
3D3
100
AcDbEntity
  8
0
100
AcDbLine
 62
7
  6
CONTINUOUS
 10
-7.9276595742
 20
1.94
 11
-7.9489361674
 21
2.0233330154
  0
LWPOLYLINE
  5
3D4
100
AcDbEntity
  8
0
100
AcDbPolyline
 62
7
  6
CONTINUOUS
 90
16
 70
0
 10
-3.6911923658
 20
-16.170490067
 10
-3.6818593213
 20
-16.2081574812
 10
-3.6776617023
 20
-16.2463848207
 10
-3.6780882655
 20
-16.2838698014
 10
-3.6831920491
 20
-16.3208400452
 10
-3.6929200147
 20
-16.3570679395
 10
-3.7066018042
 20
-16.3905683721
 10
-3.7242950996
 20
-16.4208615158
 10
-3.7459422188
 20
-16.448427234
 10
-3.7706997564
 20
-16.4727199651
 10
-3.7987109598
 20
-16.4932663933
 10
-3.8298325817
 20
-16.5105398649
 10
-3.8627914751
 20
-16.5254148082
 10
-3.8971632576
 20
-16.5381827023
 10
-3.9333723116
 20
-16.5485520807
 10
-3.971418637
 20
-16.5565229485
  0
LWPOLYLINE
  5
3D5
100
AcDbEntity
  8
0
100
AcDbPolyline
 62
7
  6
CONTINUOUS
 90
6
 70
0
 10
-4.2689438896
 20
-14.0187752274
 10
-4.2763543339
 20
-13.9840236291
 10
-4.2798965426
 20
-13.9491128315
 10
-4.2796330445
 20
-13.9137097652
 10
-4.2754724799
 20
-13.8786225165
 10
-4.2672962276
 20
-13.8434479567
  0
LINE
  5
3D6
100
AcDbEntity
  8
0
100
AcDbLine
 62
7
  6
CONTINUOUS
 10
-7.8
 20
1.94
 11
-7.8212765951
 21
2.0441669846
  0
LINE
  5
3D7
100
AcDbEntity
  8
0
100
AcDbLine
 62
7
  6
CONTINUOUS
 10
-7.8
 20
4.19
 11
-7.8212765951
 21
4.2941669846
  0
LWPOLYLINE
  5
3D8
100
AcDbEntity
  8
0
100
AcDbPolyline
 62
7
  6
CONTINUOUS
 90
15
 70
0
 10
-4.893366423
 20
-13.9906771606
 10
-4.8985019344
 20
-13.9584503024
 10
-4.899720002
 20
-13.9262258345
 10
-4.8969108295
 20
-13.8939677559
 10
-4.8901842132
 20
-13.8617120678
 10
-4.879659659
 20
-13.8311876705
 10
-4.8650841591
 20
-13.8024239259
 10
-4.8467107212
 20
-13.7753914896
 10
-4.8254178755
 20
-13.7517312184
 10
-4.8008543666
 20
-13.7318350748
 10
-4.7733714497
 20
-13.7153111218
 10
-4.7449014206
 20
-13.7026243725
 10
-4.7160883778
 20
-13.6939298363
 10
-4.6862882227
 20
-13.6890725177
 10
-4.6555009554
 20
-13.6880524196
  0
LWPOLYLINE
  5
3D9
100
AcDbEntity
  8
0
100
AcDbPolyline
 62
7
  6
CONTINUOUS
 90
3
 70
0
 10
-4.4263008722
 20
-16.2427143409
 10
-4.4201843123
 20
-16.2840833699
 10
-4.4179372402
 20
-16.3279828581
  0
LWPOLYLINE
  5
3DA
100
AcDbEntity
  8
0
100
AcDbPolyline
 62
7
  6
CONTINUOUS
 90
14
 70
0
 10
-3.6795149537
 20
-13.8773552329
 10
-3.6755317589
 20
-13.9167130811
 10
-3.6761720919
 20
-13.956850087
 10
-3.6814926509
 20
-13.9976280831
 10
-3.6922589328
 20
-14.0369212546
 10
-3.7091402074
 20
-14.0749115944
 10
-3.731467205
 20
-14.1114171277
 10
-3.7579976124
 20
-14.1437661186
 10
-3.7891404938
 20
-14.1714636521
 10
-3.824486785
 20
-14.1950046874
 10
-3.8615669814
 20
-14.2132023163
 10
-3.8995579145
 20
-14.2256609141
 10
-3.9392827528
 20
-14.2327761342
 10
-3.9807414961
 20
-14.2345479833
  0
LWPOLYLINE
  5
3DB
100
AcDbEntity
  8
RACCORDO
100
AcDbPolyline
 62
7
  6
CONTINUOUS
 90
16
 70
0
 10
-5.6226915844
 20
4.9248051057
 10
-5.6243296094
 20
4.9417286954
 10
-5.6282388782
 20
4.9574048732
 10
-5.6344193906
 20
4.9718336391
 10
-5.643150933
 20
4.9853106306
 10
-5.654153719
 20
4.9975402101
 10
-5.6665883903
 20
5.0076354655
 10
-5.6805572872
 20
5.0154392143
 10
-5.6959580693
 20
5.0211086389
 10
-5.7116443572
 20
5.0242283749
 10
-5.7276415522
 20
5.0246062025
 10
-5.7439242531
 20
5.0224343414
 10
-5.7592698762
 20
5.0178740858
 10
-5.7732708935
 20
5.0109792004
 10
-5.786334833
 20
5.0016959205
 10
-5.7984616946
 20
4.9900242461
  0
LINE
  5
3DC
100
AcDbEntity
  8
0
100
AcDbLine
 62
7
  6
CONTINUOUS
 10
-3.9109179416
 20
-17.6976912378
 11
-3.8963143255
 21
-17.8729346314
  0
LWPOLYLINE
  5
3DD
100
AcDbEntity
  8
RACCORDO
100
AcDbPolyline
 62
7
  6
CONTINUOUS
 90
4
 70
0
 10
-7.3089365232
 20
18.7
 10
-7.3071842988
 20
18.6739981974
 10
-7.3020705504
 20
18.6484605873
 10
-7.2936811322
 20
18.6238056948
  0
LWPOLYLINE
  5
3DE
100
AcDbEntity
  8
RACCORDO
100
AcDbPolyline
 62
7
  6
CONTINUOUS
 90
7
 70
0
 10
-6.3
 20
-4.3084267572
 10
-6.2994302968
 20
-4.3187437371
 10
-6.2978966059
 20
-4.3287376882
 10
-6.2953989272
 20
-4.3384086107
 10
-6.2919372608
 20
-4.3477565045
 10
-6.2875116066
 20
-4.3567813695
 10
-6.2821219647
 20
-4.3654832059
  0
LINE
  5
3DF
100
AcDbEntity
  8
RACCORDO
100
AcDbLine
 62
250
  6
CONTINUOUS
 10
-6.8198368876
 20
18.5
 11
-6.7148190698
 21
15.2755396155
  0
LINE
  5
3E0
100
AcDbEntity
  8
RACCORDO
100
AcDbLine
 62
250
  6
CONTINUOUS
 10
-6.6200664561
 20
18.7
 11
-6.5153193024
 21
15.4838500694
  0
LWPOLYLINE
  5
3E1
100
AcDbEntity
  8
RACCORDO
100
AcDbPolyline
 62
250
  6
CONTINUOUS
 90
4
 70
0
 10
-6.8578578064
 20
18.5150141001
 10
-6.8576438686
 20
18.5064813311
 10
-6.8574316569
 20
18.5015710627
 10
-6.8572211714
 20
18.5
  0
LWPOLYLINE
  5
3E2
100
AcDbEntity
  8
RACCORDO
100
AcDbPolyline
 62
250
  6
CONTINUOUS
 90
6
 70
0
 10
-6.6583046098
 20
18.7265437312
 10
-6.6580841085
 20
18.7166156985
 10
-6.657865331
 20
18.7090041923
 10
-6.6576514257
 20
18.7036862684
 10
-6.6574392443
 20
18.700684871
 10
-6.6572287868
 20
18.7
  0
LINE
  5
3E3
100
AcDbEntity
  8
RACCORDO
100
AcDbLine
 62
250
  6
CONTINUOUS
 10
-7.0425072881
 20
21.0094865114
 11
-7.0294001425
 21
20.2585786438
  0
LINE
  5
3E4
100
AcDbEntity
  8
RACCORDO
100
AcDbLine
 62
250
  6
CONTINUOUS
 10
-6.6587222959
 20
18.7537847545
 11
-6.6583046098
 21
18.7265437312
  0
LWPOLYLINE
  5
3E5
100
AcDbEntity
  8
RACCORDO
100
AcDbPolyline
 62
250
  6
CONTINUOUS
 90
3
 70
0
 10
-6.8585099766
 20
18.5647948201
 10
-6.8582971659
 20
18.544124914
 10
-6.8578578064
 20
18.5150141001
  0
LINE
  5
3E6
100
AcDbEntity
  8
RACCORDO
100
AcDbLine
 62
250
  6
CONTINUOUS
 10
-6.6592621331
 20
18.8111757553
 11
-6.6587222959
 21
18.7537847545
  0
LINE
  5
3E7
100
AcDbEntity
  8
RACCORDO
100
AcDbLine
 62
250
  6
CONTINUOUS
 10
-6.6597765552
 20
18.9309505512
 11
-6.6592621331
 21
18.8111757553
  0
LINE
  5
3E8
100
AcDbEntity
  8
RACCORDO
100
AcDbLine
 62
250
  6
CONTINUOUS
 10
-6.6598468471
 20
19.0
 11
-6.6597765552
 21
18.9309505512
  0
LINE
  5
3E9
100
AcDbEntity
  8
0
100
AcDbLine
 62
7
  6
CONTINUOUS
 10
-6.675
 20
12.657051888
 11
-6.675
 21
14.117556
  0
LINE
  5
3EA
100
AcDbEntity
  8
RACCORDO
100
AcDbLine
 62
7
  6
CONTINUOUS
 10
-6.6598468471
 20
20.1171572875
 11
-6.6598468471
 21
19.0
  0
LINE
  5
3EB
100
AcDbEntity
  8
RACCORDO
100
AcDbLine
 62
7
  6
CONTINUOUS
 10
-6.6598468471
 20
-20.1171572875
 11
-6.6598468471
 21
-19.0
  0
LINE
  5
3EC
100
AcDbEntity
  8
RACCORDO
100
AcDbLine
 62
7
  6
CONTINUOUS
 10
-6.3
 20
4.3084267572
 11
-6.3
 21
-4.3084267572
  0
LINE
  5
3ED
100
AcDbEntity
  8
0
100
AcDbLine
 62
7
  6
CONTINUOUS
 10
-5.925
 20
12.657055
 11
-5.925
 21
14.117556
  0
LINE
  5
3EE
100
AcDbEntity
  8
RACCORDO
100
AcDbLine
 62
7
  6
CONTINUOUS
 10
-5.6226915844
 20
-4.9248051057
 11
-5.6226915844
 21
4.9248051057
  0
LINE
  5
3EF
100
AcDbEntity
  8
DRAFT
100
AcDbLine
 62
7
  6
CONTINUOUS
 10
-5.6
 20
-5.2117655358
 11
-5.6
 21
5.2117655358
  0
LINE
  5
3F0
100
AcDbEntity
  8
0
100
AcDbLine
 62
7
  6
CONTINUOUS
 10
-5.4377115186
 20
-3.0812
 11
-5.4377115186
 21
3.0812
  0
LINE
  5
3F1
100
AcDbEntity
  8
0
100
AcDbLine
 62
7
  6
CONTINUOUS
 10
-5.3
 20
-19.2
 11
-5.3
 21
-13.2
  0
LINE
  5
3F2
100
AcDbEntity
  8
0
100
AcDbLine
 62
7
  6
CONTINUOUS
 10
-5.05
 20
-14.8917107093
 11
-5.05
 21
-15.0100391079
  0
LINE
  5
3F3
100
AcDbEntity
  8
RACCORDO
100
AcDbLine
 62
250
  6
CONTINUOUS
 10
-6.6598468471
 20
-19.0
 11
-6.6595136004
 21
-18.8535433406
  0
LINE
  5
3F4
100
AcDbEntity
  8
RACCORDO
100
AcDbLine
 62
250
  6
CONTINUOUS
 10
-6.6595136004
 20
-18.8535433406
 11
-6.6588973716
 21
-18.7689459364
  0
LINE
  5
3F5
100
AcDbEntity
  8
RACCORDO
100
AcDbLine
 62
250
  6
CONTINUOUS
 10
-6.858694955
 20
-18.5868922589
 11
-6.8582822013
 21
-18.5428412449
  0
LWPOLYLINE
  5
3F6
100
AcDbEntity
  8
RACCORDO
100
AcDbPolyline
 62
250
  6
CONTINUOUS
 90
8
 70
0
 10
-6.6588973716
 20
-18.7689459364
 10
-6.6584997794
 20
-18.7377325012
 10
-6.6582894159
 20
-18.7257751862
 10
-6.658071608
 20
-18.7161265276
 10
-6.6578557061
 20
-18.708730302
 10
-6.657644827
 20
-18.7035677683
 10
-6.6574358539
 20
-18.7006576676
 10
-6.6572287868
 20
-18.7
  0
LINE
  5
3F7
100
AcDbEntity
  8
RACCORDO
100
AcDbLine
 62
250
  6
CONTINUOUS
 10
-7.0425072881
 20
-21.0094865114
 11
-7.0294001425
 21
-20.2585786438
  0
LWPOLYLINE
  5
3F8
100
AcDbEntity
  8
RACCORDO
100
AcDbPolyline
 62
250
  6
CONTINUOUS
 90
5
 70
0
 10
-6.8582822013
 20
-18.5428412449
 10
-6.8578486339
 20
-18.5145705904
 10
-6.8576376605
 20
-18.5062894625
 10
-6.8574285064
 20
-18.5015245106
 10
-6.8572211714
 20
-18.5
  0
LINE
  5
3F9
100
AcDbEntity
  8
RACCORDO
100
AcDbLine
 62
250
  6
CONTINUOUS
 10
-6.7148190698
 20
-15.2755396155
 11
-6.8198368876
 21
-18.5
  0
LINE
  5
3FA
100
AcDbEntity
  8
RACCORDO
100
AcDbLine
 62
250
  6
CONTINUOUS
 10
-6.5153193024
 20
-15.4838500694
 11
-6.6200664561
 21
-18.7
  0
LWPOLYLINE
  5
3FB
100
AcDbEntity
  8
RACCORDO
100
AcDbPolyline
 62
7
  6
CONTINUOUS
 90
13
 70
0
 10
-7.5184775044
 20
-15.483378525
 10
-7.5167459172
 20
-15.4557762904
 10
-7.5115595482
 20
-15.4288106788
 10
-7.5030389781
 20
-15.4029109815
 10
-7.4913687432
 20
-15.3784690173
 10
-7.4767719554
 20
-15.3558765062
 10
-7.4594919121
 20
-15.3355278816
 10
-7.4398058361
 20
-15.3177252699
 10
-7.4180826208
 20
-15.3027590431
 10
-7.3947628176
 20
-15.2909290282
 10
-7.3702803715
 20
-15.2824077141
 10
-7.3450382139
 20
-15.2772639035
 10
-7.319462557
 20
-15.2755396155
  0
LWPOLYLINE
  5
3FC
100
AcDbEntity
  8
RACCORDO
100
AcDbPolyline
 62
250
  6
CONTINUOUS
 90
4
 70
0
 10
-7.234606201
 20
-18.7
 10
-7.2328954339
 20
-18.6738947616
 10
-7.2277924042
 20
-18.648236191
 10
-7.2193844262
 20
-18.6234633135
  0
LWPOLYLINE
  5
3FD
100
AcDbEntity
  8
RACCORDO
100
AcDbPolyline
 62
7
  6
CONTINUOUS
 90
4
 70
0
 10
-7.3089365232
 20
-18.7
 10
-7.3071946849
 20
-18.6741235681
 10
-7.3021106415
 20
-18.6486379494
 10
-7.293751803
 20
-18.6239765047
  0
LWPOLYLINE
  5
3FE
100
AcDbEntity
  8
RACCORDO
100
AcDbPolyline
 62
7
  6
CONTINUOUS
 90
16
 70
0
 10
-5.6100308043
 20
-4.9588093923
 10
-5.6116049835
 20
-4.9755285587
 10
-5.6154420595
 20
-4.991055662
 10
-5.6215420323
 20
-5.0053907034
 10
-5.6301757288
 20
-5.01883949
 10
-5.6410723221
 20
-5.0310962166
 10
-5.6534193318
 20
-5.0412434658
 10
-5.667327762
 20
-5.0491208091
 10
-5.6826866086
 20
-5.0548886774
 10
-5.6983503785
 20
-5.0581109441
 10
-5.7143419456
 20
-5.0585969266
 10
-5.7306384361
 20
-5.0565373081
 10
-5.7460257356
 20
-5.0520680098
 10
-5.7600991396
 20
-5.0452343384
 10
-5.7732633526
 20
-5.0359909855
 10
-5.7855183748
 20
-5.0243379499
  0
LINE
  5
3FF
100
AcDbEntity
  8
RACCORDO
100
AcDbLine
 62
250
  6
CONTINUOUS
 10
-9.65
 20
-20.5997254977
 11
-9.5879500862
 21
-20.2270948741
  0
LINE
  5
400
100
AcDbEntity
  8
RACCORDO
100
AcDbLine
 62
250
  6
CONTINUOUS
 10
-9.3501255952
 20
-20.9
 11
-9.2879615093
 21
-20.5266837345
  0
LINE
  5
401
100
AcDbEntity
  8
0
100
AcDbLine
 62
7
  6
CONTINUOUS
 10
-8.7787234068
 20
-4.0391667461
 11
-8.7361702204
 21
-3.9558332539
  0
LWPOLYLINE
  5
402
100
AcDbEntity
  8
0
100
AcDbPolyline
 62
7
  6
CONTINUOUS
 90
13
 70
0
 10
5.0035843673
 20
16.950533157
 10
5.0782933486
 20
17.0445568691
 10
5.1469291754
 20
17.1419658382
 10
5.209491848
 20
17.2427599922
 10
5.2661659333
 20
17.3473264378
 10
5.3167668642
 20
17.455277909
 10
5.3607409396
 20
17.5654527968
 10
5.3979399278
 20
17.6777774416
 10
5.4285120604
 20
17.7923253879
 10
5.4523483314
 20
17.9081558801
 10
5.4694124054
 20
18.0249553175
 10
5.4797406179
 20
18.1430372288
 10
5.4833329687
 20
18.262401574
  0
LINE
  5
403
100
AcDbEntity
  8
0
100
AcDbLine
 62
7
  6
CONTINUOUS
 10
-7.9489361674
 20
1.5858330154
 11
-7.8638297871
 21
1.6691669846
  0
LINE
  5
404
100
AcDbEntity
  8
0
100
AcDbLine
 62
7
  6
CONTINUOUS
 10
4.0344925161
 20
12.9624207547
 11
5.3865535485
 21
14.2458490803
  0
LINE
  5
405
100
AcDbEntity
  8
0
100
AcDbLine
 62
7
  6
CONTINUOUS
 10
3.081348
 20
12.0576422917
 11
3.897045
 21
12.8319318547
  0
LINE
  5
406
100
AcDbEntity
  8
0
100
AcDbLine
 62
7
  6
CONTINUOUS
 10
2.042892
 20
11.0718910233
 11
2.997344
 21
11.9778934079
  0
LINE
  5
407
100
AcDbEntity
  8
0
100
AcDbLine
 62
7
  6
CONTINUOUS
 10
0.4191575609
 20
9.5305752919
 11
1.8770221184
 21
10.9144388241
  0
LINE
  5
408
100
AcDbEntity
  8
0
100
AcDbLine
 62
7
  6
CONTINUOUS
 10
4.5162375541
 20
13.2593015455
 11
5.4673834379
 21
14.1607034074
  0
LINE
  5
409
100
AcDbEntity
  8
0
100
AcDbLine
 62
7
  6
CONTINUOUS
 10
2.224637
 20
11.0875244918
 11
3.079244
 21
11.8974437271
  0
LINE
  5
40A
100
AcDbEntity
  8
0
100
AcDbLine
 62
7
  6
CONTINUOUS
 10
0.5817812422
 20
9.5305752919
 11
2.0584702029
 21
10.9300483562
  0
LINE
  5
40B
100
AcDbEntity
  8
0
100
AcDbLine
 62
7
  6
CONTINUOUS
 10
3.1633556078
 20
11.9771568412
 11
4.0502372222
 21
12.8176654192
  0
LINE
  5
40C
100
AcDbEntity
  8
0
100
AcDbLine
 62
7
  6
CONTINUOUS
 10
-8.0553191483
 20
1.6691669846
 11
-7.9914893687
 21
1.7108330154
  0
LINE
  5
40D
100
AcDbEntity
  8
0
100
AcDbLine
 62
7
  6
CONTINUOUS
 10
-8.6723404408
 20
2.565
 11
-7.8
 21
3.0858330154
  0
LINE
  5
40E
100
AcDbEntity
  8
0
100
AcDbLine
 62
7
  6
CONTINUOUS
 10
-5.4377115186
 20
3.0812
 11
0.0
 21
6.25
  0
LINE
  5
40F
100
AcDbEntity
  8
0
100
AcDbLine
 62
7
  6
CONTINUOUS
 10
-8.5021276355
 20
3.9191669846
 11
-8.4382978559
 21
3.94
  0
LINE
  5
410
100
AcDbEntity
  8
0
100
AcDbLine
 62
7
  6
CONTINUOUS
 10
-8.0765957415
 20
3.8566669846
 11
-8.0127659619
 21
3.8775
  0
LINE
  5
411
100
AcDbEntity
  8
0
100
AcDbLine
 62
7
  6
CONTINUOUS
 10
-8.5872340679
 20
-6.685
 11
-7.8
 21
-6.685
  0
LINE
  5
412
100
AcDbEntity
  8
0
100
AcDbLine
 62
7
  6
CONTINUOUS
 10
-8.5872340679
 20
-5.935
 11
-7.8
 21
-5.935
  0
LINE
  5
413
100
AcDbEntity
  8
0
100
AcDbLine
 62
7
  6
CONTINUOUS
 10
-8.8
 20
-5.81
 11
-7.8
 21
-5.81
  0
LINE
  5
414
100
AcDbEntity
  8
0
100
AcDbLine
 62
7
  6
CONTINUOUS
 10
-8.0340425551
 20
-3.8308332539
 11
-8.1404255211
 21
-3.81
  0
LINE
  5
415
100
AcDbEntity
  8
0
100
AcDbLine
 62
7
  6
CONTINUOUS
 10
-8.0553191483
 20
-3.9558332539
 11
-8.1404255211
 21
-3.935
  0
LINE
  5
416
100
AcDbEntity
  8
0
100
AcDbLine
 62
7
  6
CONTINUOUS
 10
0.0
 20
-6.25
 11
-5.4377115186
 21
-3.0812
  0
LWPOLYLINE
  5
417
100
AcDbEntity
  8
RACCORDO
100
AcDbPolyline
 62
250
  6
CONTINUOUS
 90
7
 70
0
 10
6.67521242
 20
-20.1707191451
 10
6.6867803067
 20
-20.1872875146
 10
6.7013382517
 20
-20.2027109185
 10
6.7186088814
 20
-20.2166740213
 10
6.7382822012
 20
-20.2289285414
 10
6.7600355757
 20
-20.2392755665
 10
6.7834819673
 20
-20.2475324589
  0
LINE
  5
418
100
AcDbEntity
  8
0
100
AcDbLine
 62
7
  6
CONTINUOUS
 10
-7.9489361674
 20
2.0233330154
 11
-7.9914893687
 21
2.0858330154
  0
LINE
  5
419
100
AcDbEntity
  8
0
100
AcDbLine
 62
7
  6
CONTINUOUS
 10
-7.8212765951
 20
2.0441669846
 11
-7.8638297871
 21
2.1275
  0
LINE
  5
41A
100
AcDbEntity
  8
0
100
AcDbLine
 62
7
  6
CONTINUOUS
 10
-8.7361702204
 20
3.8983330154
 11
-8.7787234068
 21
3.9816669846
  0
LINE
  5
41B
100
AcDbEntity
  8
0
100
AcDbLine
 62
7
  6
CONTINUOUS
 10
-7.8212765951
 20
4.2941669846
 11
-7.8638297871
 21
4.3775
  0
LWPOLYLINE
  5
41C
100
AcDbEntity
  8
RACCORDO
100
AcDbPolyline
 62
7
  6
CONTINUOUS
 90
13
 70
0
 10
-3.2875298311
 20
-9.3327883395
 10
-3.2774142189
 20
-9.3652802
 10
-3.2642600402
 20
-9.3957453524
 10
-3.2480672951
 20
-9.4241838035
 10
-3.2285666886
 20
-9.4508753683
 10
-3.2060275157
 20
-9.4755402437
 10
-3.1812576611
 20
-9.4973390119
 10
-3.154198225
 20
-9.5161794264
 10
-3.1249081072
 20
-9.5321537471
 10
-3.0943718917
 20
-9.5446993182
 10
-3.0629177733
 20
-9.5536285911
 10
-3.0302175571
 20
-9.5591291232
 10
-2.9962712433
 20
-9.5612009164
  0
LINE
  5
41D
100
AcDbEntity
  8
0
100
AcDbLine
 62
7
  6
CONTINUOUS
 10
-7.9276595742
 20
4.19
 11
-7.9489361674
 21
4.2733330154
  0
LWPOLYLINE
  5
41E
100
AcDbEntity
  8
0
100
AcDbPolyline
 62
7
  6
CONTINUOUS
 90
7
 70
0
 10
-1.7953362842
 20
-17.808980178
 10
-1.7910440241
 20
-17.8278513608
 10
-1.7890150684
 20
-17.8477183763
 10
-1.7890929164
 20
-17.8684147552
 10
-1.790500113
 20
-17.8887625077
 10
-1.7929775063
 20
-17.9083689741
 10
-1.7967842481
 20
-17.9276268183
  0
LINE
  5
41F
100
AcDbEntity
  8
0
100
AcDbLine
 62
7
  6
CONTINUOUS
 10
-3.6881783744
 20
-13.8386383846
 11
-3.6795149537
 21
-13.8773552329
  0
LINE
  5
420
100
AcDbEntity
  8
RACCORDO
100
AcDbLine
 62
250
  6
CONTINUOUS
 10
-9.65
 20
20.5997254977
 11
-9.5879500862
 21
20.2270948741
  0
LINE
  5
421
100
AcDbEntity
  8
RACCORDO
100
AcDbLine
 62
250
  6
CONTINUOUS
 10
-9.3501255952
 20
20.9
 11
-9.2879615093
 21
20.5266837345
  0
LINE
  5
422
100
AcDbEntity
  8
0
100
AcDbLine
 62
7
  6
CONTINUOUS
 10
-3.971418637
 20
-16.5565229485
 11
-3.9463838665
 21
-16.7401112656
  0
LWPOLYLINE
  5
423
100
AcDbEntity
  8
RACCORDO
100
AcDbPolyline
 62
250
  6
CONTINUOUS
 90
13
 70
0
 10
-6.6598468471
 20
20.1171572875
 10
-6.66166905
 20
20.1353593577
 10
-6.6668092065
 20
20.1533149498
 10
-6.67521242
 20
20.1707191451
 10
-6.6867803067
 20
20.1872875146
 10
-6.7013382517
 20
20.2027109185
 10
-6.7186088814
 20
20.2166740213
 10
-6.7382822012
 20
20.2289285414
 10
-6.7600355757
 20
20.2392755665
 10
-6.7834819673
 20
20.2475324589
 10
-6.8082132153
 20
20.2535604456
 10
-6.8338112531
 20
20.2572623286
 10
-6.8598392317
 20
20.2585786438
  0
LINE
  5
424
100
AcDbEntity
  8
0
100
AcDbLine
 62
7
  6
CONTINUOUS
 10
-4.5002221437
 20
10.0041723992
 11
-4.50278
 21
10.132446
  0
LINE
  5
425
100
AcDbEntity
  8
DRAFT
100
AcDbLine
 62
7
  6
CONTINUOUS
 10
-3.75
 20
21.2
 11
-3.75
 21
21.1647852141
  0
LINE
  5
426
100
AcDbEntity
  8
DRAFT
100
AcDbLine
 62
7
  6
CONTINUOUS
 10
-3.75
 20
-21.2
 11
-3.75
 21
-21.1647852141
  0
LINE
  5
427
100
AcDbEntity
  8
0
100
AcDbLine
 62
7
  6
CONTINUOUS
 10
-3.55
 20
-15.0752990264
 11
-3.55
 21
-14.8917107093
  0
LINE
  5
428
100
AcDbEntity
  8
0
100
AcDbLine
 62
7
  6
CONTINUOUS
 10
-3.325042
 20
16.7519
 11
-3.325042
 21
17.121932
  0
LINE
  5
429
100
AcDbEntity
  8
0
100
AcDbLine
 62
7
  6
CONTINUOUS
 10
-3.325042
 20
17.962609
 11
-3.325042
 21
18.829056
  0
LINE
  5
42A
100
AcDbEntity
  8
0
100
AcDbLine
 62
7
  6
CONTINUOUS
 10
-3.325037
 20
11.556827
 11
-3.325037
 21
11.926845
  0
LINE
  5
42B
100
AcDbEntity
  8
0
100
AcDbLine
 62
7
  6
CONTINUOUS
 10
-3.325037
 20
12.744837
 11
-3.325037
 21
13.114855
  0
LINE
  5
42C
100
AcDbEntity
  8
0
100
AcDbLine
 62
7
  6
CONTINUOUS
 10
-3.325037
 20
13.361529
 11
-3.325037
 21
13.731543
  0
LINE
  5
42D
100
AcDbEntity
  8
0
100
AcDbLine
 62
7
  6
CONTINUOUS
 10
-3.325037
 20
14.101543
 11
-3.325037
 21
14.660905
  0
LINE
  5
42E
100
AcDbEntity
  8
0
100
AcDbLine
 62
7
  6
CONTINUOUS
 10
-3.325037
 20
15.35187
 11
-3.325037
 21
15.911232
  0
LWPOLYLINE
  5
42F
100
AcDbEntity
  8
0
100
AcDbPolyline
 62
7
  6
CONTINUOUS
 90
10
 70
0
 10
-4.4179372402
 20
-16.3279828581
 10
-4.4179787921
 20
-16.3312150906
 10
-4.4180705928
 20
-16.3344630661
 10
-4.4182126422
 20
-16.3377267848
 10
-4.4184109361
 20
-16.3410072036
 10
-4.4186594788
 20
-16.3443033655
 10
-4.4189402828
 20
-16.3476123994
 10
-4.4192473523
 20
-16.3509333484
 10
-4.4195866832
 20
-16.3542671694
 10
-4.4199582754
 20
-16.3576138625
  0
LWPOLYLINE
  5
430
100
AcDbEntity
  8
0
100
AcDbPolyline
 62
7
  6
CONTINUOUS
 90
55
 70
0
 10
-4.2517879942
 20
1.882763621
 10
-4.3384498052
 20
1.6477019251
 10
-4.4120417717
 20
1.4105799527
 10
-4.4725638937
 20
1.1713977039
 10
-4.5200161297
 20
0.9295673456
 10
-4.5543985212
 20
0.6856767107
 10
-4.5757111921
 20
0.4414892988
 10
-4.5839502512
 20
0.1971374083
 10
-4.5791195896
 20
-0.0475112593
 10
-4.5612310052
 20
-0.2910901003
 10
-4.5301090637
 20
-0.5341083667
 10
-4.4859291994
 20
-0.7760568067
 10
-4.4292295128
 20
-1.0140410608
 10
-4.3598569095
 20
-1.2477805141
 10
-4.2779644839
 20
-1.4775557817
 10
-4.1845496198
 20
-1.70131435
 10
-4.0796658279
 20
-1.9187791369
 10
-3.9632595976
 20
-2.1302272246
 10
-3.8361677801
 20
-2.3344373455
 10
-3.6980456182
 20
-2.531703682
 10
-3.5492378691
 20
-2.7217320517
 10
-3.3916156557
 20
-2.9024186398
 10
-3.2254257202
 20
-3.0733241561
 10
-3.0504213204
 20
-3.2348878908
 10
-2.867733353
 20
-3.3863238996
 10
-2.677264362
 20
-3.527704889
 10
-2.4791118034
 20
-3.6589581525
 10
-2.2746989423
 20
-3.7790796265
 10
-2.0639551841
 20
-3.8880457443
 10
-1.8469511233
 20
-3.9858800726
 10
-1.6253218084
 20
-4.0716492488
 10
-1.3986777764
 20
-4.1453037787
 10
-1.1674084902
 20
-4.2068931566
 10
-0.934317387
 20
-4.2556325021
 10
-0.6983919023
 20
-4.2910936373
 10
-0.4606446005
 20
-4.3137047401
 10
-0.2269166124
 20
-4.3239654643
 10
0.0023133781
 20
-4.3211050617
 10
0.2275240549
 20
-4.3058942804
 10
0.4443103394
 20
-4.2811450183
 10
0.6511833704
 20
-4.2468557661
 10
0.8496320091
 20
-4.203028033
 10
1.0397177605
 20
-4.1524782443
 10
1.2209186141
 20
-4.0956422743
 10
1.3937565803
 20
-4.0320842487
 10
1.5598591956
 20
-3.9633129703
 10
1.7192084341
 20
-3.8897206831
 10
1.8718223217
 20
-3.810915143
 10
2.0193824728
 20
-3.7272284205
 10
2.1621394103
 20
-3.6388474696
 10
2.2998426113
 20
-3.5455853363
 10
2.4334221209
 20
-3.4472132285
 10
2.5631879542
 20
-3.3436548824
 10
2.6888300961
 20
-3.2349865619
 10
2.8103485467
 20
-3.121208267
  0
LINE
  5
431
100
AcDbEntity
  8
DRAFT
100
AcDbLine
 62
7
  6
CONTINUOUS
 10
-8.7584611066
 20
-10.4384918414
 11
-8.6937231785
 21
-10.3007591949
  0
LINE
  5
432
100
AcDbEntity
  8
RACCORDO
100
AcDbLine
 62
7
  6
CONTINUOUS
 10
-9.583581878
 20
-9.5663944438
 11
-9.65
 21
-9.6992408051
  0
LINE
  5
433
100
AcDbEntity
  8
0
100
AcDbLine
 62
7
  6
CONTINUOUS
 10
-8.6510638475
 20
-4.06
 11
-8.6085106611
 21
-3.9975
  0
LINE
  5
434
100
AcDbEntity
  8
0
100
AcDbLine
 62
7
  6
CONTINUOUS
 10
-8.7361702204
 20
-3.9558332539
 11
-8.6510638475
 21
-3.8725
  0
LINE
  5
435
100
AcDbEntity
  8
0
100
AcDbLine
 62
7
  6
CONTINUOUS
 10
-8.8
 20
-1.2475
 11
-7.9489361674
 21
-0.7266665077
  0
LINE
  5
436
100
AcDbEntity
  8
0
100
AcDbLine
 62
7
  6
CONTINUOUS
 10
-8.6723404408
 20
-1.31
 11
-7.8
 21
-0.7891665077
  0
LINE
  5
437
100
AcDbEntity
  8
0
100
AcDbLine
 62
7
  6
CONTINUOUS
 10
-8.0340425551
 20
1.5441669846
 11
-7.9489361674
 21
1.5858330154
  0
LINE
  5
438
100
AcDbEntity
  8
0
100
AcDbLine
 62
7
  6
CONTINUOUS
 10
-8.8
 20
-4.6433332539
 11
-7.8
 21
-4.6433332539
  0
LINE
  5
439
100
AcDbEntity
  8
0
100
AcDbLine
 62
7
  6
CONTINUOUS
 10
-8.6723404408
 20
-4.5183332539
 11
-7.9276595742
 21
-4.5183332539
  0
LINE
  5
43A
100
AcDbEntity
  8
0
100
AcDbLine
 62
7
  6
CONTINUOUS
 10
-8.4595744491
 20
-3.935
 11
-8.1404255211
 21
-3.935
  0
LINE
  5
43B
100
AcDbEntity
  8
0
100
AcDbLine
 62
7
  6
CONTINUOUS
 10
-8.4595744491
 20
-3.81
 11
-8.1404255211
 21
-3.81
  0
LINE
  5
43C
100
AcDbEntity
  8
0
100
AcDbLine
 62
7
  6
CONTINUOUS
 10
-8.8
 20
-3.6433332539
 11
-7.8
 21
-3.6433332539
  0
LINE
  5
43D
100
AcDbEntity
  8
0
100
AcDbLine
 62
7
  6
CONTINUOUS
 10
-8.6723404408
 20
-3.5183332539
 11
-8.3957446694
 21
-3.5183332539
  0
LINE
  5
43E
100
AcDbEntity
  8
0
100
AcDbLine
 62
7
  6
CONTINUOUS
 10
-8.2680851102
 20
-3.5183332539
 11
-7.9276595742
 21
-3.5183332539
  0
LINE
  5
43F
100
AcDbEntity
  8
0
100
AcDbLine
 62
7
  6
CONTINUOUS
 10
-7.8638297871
 20
2.1275
 11
-7.9489361674
 21
2.2108330154
  0
LINE
  5
440
100
AcDbEntity
  8
0
100
AcDbLine
 62
7
  6
CONTINUOUS
 10
-8.6510638475
 20
3.815
 11
-8.7361702204
 21
3.8983330154
  0
LINE
  5
441
100
AcDbEntity
  8
0
100
AcDbLine
 62
7
  6
CONTINUOUS
 10
-8.6085106611
 20
3.94
 11
-8.6510638475
 21
4.0025
  0
LINE
  5
442
100
AcDbEntity
  8
0
100
AcDbLine
 62
7
  6
CONTINUOUS
 10
-7.9489361674
 20
4.2733330154
 11
-7.9914893687
 21
4.3358330154
  0
LINE
  5
443
100
AcDbEntity
  8
0
100
AcDbLine
 62
7
  6
CONTINUOUS
 10
-3.2
 20
-13.919162
 11
-3.2
 21
-14.728659
  0
LINE
  5
444
100
AcDbEntity
  8
0
100
AcDbLine
 62
7
  6
CONTINUOUS
 10
-3.2
 20
-18.068883
 11
-3.2
 21
-19.019162
  0
LINE
  5
445
100
AcDbEntity
  8
DRAFT
100
AcDbLine
 62
7
  6
CONTINUOUS
 10
-3.1
 20
-21.2
 11
-3.1
 21
-22.4
  0
LINE
  5
446
100
AcDbEntity
  8
DRAFT
100
AcDbLine
 62
7
  6
CONTINUOUS
 10
-3.1
 20
21.2
 11
-3.1
 21
22.4
  0
LINE
  5
447
100
AcDbEntity
  8
0
100
AcDbLine
 62
7
  6
CONTINUOUS
 10
-3.059218
 20
-19.019162
 11
-3.059218
 21
-18.623631
  0
LINE
  5
448
100
AcDbEntity
  8
0
100
AcDbLine
 62
7
  6
CONTINUOUS
 10
-3.059218
 20
-18.464413
 11
-3.059218
 21
-18.068883
  0
LINE
  5
449
100
AcDbEntity
  8
0
100
AcDbLine
 62
7
  6
CONTINUOUS
 10
-3.059218
 20
-14.569441
 11
-3.059218
 21
-13.919162
  0
LINE
  5
44A
100
AcDbEntity
  8
0
100
AcDbLine
 62
7
  6
CONTINUOUS
 10
-2.982778
 20
18.327522
 11
-2.982778
 21
18.777699
  0
LINE
  5
44B
100
AcDbEntity
  8
0
100
AcDbLine
 62
7
  6
CONTINUOUS
 10
-2.869832
 20
-16.951006
 11
-2.869832
 21
-17.085084
  0
LINE
  5
44C
100
AcDbEntity
  8
0
100
AcDbLine
 62
7
  6
CONTINUOUS
 10
-2.869832
 20
-17.2110441222
 11
-2.869832
 21
-17.3582683034
  0
LINE
  5
44D
100
AcDbEntity
  8
0
100
AcDbLine
 62
7
  6
CONTINUOUS
 10
-2.869832
 20
-17.8493032759
 11
-2.869832
 21
-18.006872
  0
LINE
  5
44E
100
AcDbEntity
  8
0
100
AcDbLine
 62
7
  6
CONTINUOUS
 10
-2.685475
 20
-14.006313
 11
-2.685475
 21
-14.569441
  0
LINE
  5
44F
100
AcDbEntity
  8
0
100
AcDbLine
 62
7
  6
CONTINUOUS
 10
-2.544693
 20
-14.569441
 11
-2.544693
 21
-14.006313
  0
LINE
  5
450
100
AcDbEntity
  8
0
100
AcDbLine
 62
7
  6
CONTINUOUS
 10
-2.532571
 20
18.327526
 11
-2.532571
 21
18.777699
  0
LINE
  5
451
100
AcDbEntity
  8
0
100
AcDbLine
 62
7
  6
CONTINUOUS
 10
-2.517877
 20
-15.5582681479
 11
-2.517877
 21
-16.0426257045
  0
LINE
  5
452
100
AcDbEntity
  8
0
100
AcDbLine
 62
7
  6
CONTINUOUS
 10
-2.397207
 20
-16.0510056035
 11
-2.397207
 21
-15.4032140139
  0
LINE
  5
453
100
AcDbEntity
  8
0
100
AcDbLine
 62
7
  6
CONTINUOUS
 10
-2.190307
 20
18.332669
 11
-2.190302
 21
18.65561
  0
LINE
  5
454
100
AcDbEntity
  8
0
100
AcDbLine
 62
7
  6
CONTINUOUS
 10
-2.190302
 20
16.757598
 11
-2.190302
 21
17.116239
  0
LINE
  5
455
100
AcDbEntity
  8
0
100
AcDbLine
 62
7
  6
CONTINUOUS
 10
-2.0
 20
-18.623631
 11
-2.0
 21
-18.464413
  0
LINE
  5
456
100
AcDbEntity
  8
0
100
AcDbLine
 62
7
  6
CONTINUOUS
 10
-2.0
 20
-14.728659
 11
-2.0
 21
-14.569441
  0
LINE
  5
457
100
AcDbEntity
  8
0
100
AcDbLine
 62
7
  6
CONTINUOUS
 10
-1.838789
 20
16.644734
 11
-1.838789
 21
17.229107
  0
LINE
  5
458
100
AcDbEntity
  8
0
100
AcDbLine
 62
7
  6
CONTINUOUS
 10
-1.66648
 20
-17.085084
 11
-1.66648
 21
-16.937598
  0
LINE
  5
459
100
AcDbEntity
  8
0
100
AcDbLine
 62
7
  6
CONTINUOUS
 10
-4.661961057
 20
-16.7213351878
 11
-4.628581363
 21
-16.5377468707
  0
LINE
  5
45A
100
AcDbEntity
  8
DRAFT
100
AcDbLine
 62
7
  6
CONTINUOUS
 10
3.0118365096
 20
22.4
 11
2.6768152463
 21
21.2
  0
LINE
  5
45B
100
AcDbEntity
  8
DRAFT
100
AcDbLine
 62
7
  6
CONTINUOUS
 10
3.9733373476
 20
23.5
 11
3.9526845545
 21
23.4301797403
  0
LWPOLYLINE
  5
45C
100
AcDbEntity
  8
0
100
AcDbPolyline
 62
7
  6
CONTINUOUS
 90
25
 70
0
 10
1.4547726463
 20
13.2027837486
 10
1.4623465467
 20
13.2257878379
 10
1.4668382543
 20
13.249325508
 10
1.4682477693
 20
13.2733967567
 10
1.4666415982
 20
13.2985306758
 10
1.4619532344
 20
13.3241981679
 10
1.4539831576
 20
13.3488119539
 10
1.4424710374
 20
13.3724260404
 10
1.4276772042
 20
13.3949864287
 10
1.4101831289
 20
13.4147438451
 10
1.3895572619
 20
13.4312932823
 10
1.3662311529
 20
13.4450397649
 10
1.3420809208
 20
13.4554490717
 10
1.3173250365
 20
13.462350063
 10
1.2917450291
 20
13.465913888
 10
1.2665616055
 20
13.4661197576
 10
1.241883526
 20
13.4628896428
 10
1.2176020303
 20
13.4563015709
 10
1.1946115437
 20
13.4465688344
 10
1.1728150741
 20
13.4335387561
 10
1.1523096136
 20
13.4173640014
 10
1.1342805647
 20
13.3987158764
 10
1.1186872962
 20
13.3772863816
 10
1.1055704394
 20
13.3533835
 10
1.0962372907
 20
13.3286025176
  0
LWPOLYLINE
  5
45D
100
AcDbEntity
  8
RACCORDO
100
AcDbPolyline
 62
7
  6
CONTINUOUS
 90
8
 70
0
 10
7.293751803
 20
18.6239765047
 10
7.2822380187
 20
18.6005570772
 10
7.2677505446
 20
18.5787914426
 10
7.2505363116
 20
18.5590737083
 10
7.2308931205
 20
18.5417572449
 10
7.2091397129
 20
18.5271341059
 10
7.1856187697
 20
18.5154532061
 10
7.1607168843
 20
18.5069324742
  0
LWPOLYLINE
  5
45E
100
AcDbEntity
  8
RACCORDO
100
AcDbPolyline
 62
250
  6
CONTINUOUS
 90
5
 70
0
 10
7.2193844262
 20
18.6234633135
 10
7.2078153628
 20
18.6
 10
7.1932831637
 20
18.5782477142
 10
7.1760364791
 20
18.5585786438
 10
7.1634252964
 20
18.5470018494
  0
LINE
  5
45F
100
AcDbEntity
  8
0
100
AcDbLine
 62
7
  6
CONTINUOUS
 10
5.3999676142
 20
9.6175640389
 11
5.4822600513
 21
9.7012831434
  0
LINE
  5
460
100
AcDbEntity
  8
0
100
AcDbLine
 62
7
  6
CONTINUOUS
 10
-8.5446808219
 20
-3.9558332539
 11
-8.4595744491
 21
-3.935
  0
LINE
  5
461
100
AcDbEntity
  8
0
100
AcDbLine
 62
7
  6
CONTINUOUS
 10
-8.5659574747
 20
-3.8308332539
 11
-8.4595744491
 21
-3.81
  0
LINE
  5
462
100
AcDbEntity
  8
0
100
AcDbLine
 62
7
  6
CONTINUOUS
 10
-8.3957446694
 20
-2.9766667461
 11
-8.2680851102
 21
-2.9766667461
  0
LINE
  5
463
100
AcDbEntity
  8
0
100
AcDbLine
 62
7
  6
CONTINUOUS
 10
-8.8
 20
-2.8933332539
 11
-8.6723404408
 21
-2.8933332539
  0
LINE
  5
464
100
AcDbEntity
  8
0
100
AcDbLine
 62
7
  6
CONTINUOUS
 10
-7.9276595742
 20
-2.8933332539
 11
-7.8
 21
-2.8933332539
  0
LINE
  5
465
100
AcDbEntity
  8
0
100
AcDbLine
 62
7
  6
CONTINUOUS
 10
-8.8
 20
-1.7266665077
 11
-7.8
 21
-1.7266665077
  0
LINE
  5
466
100
AcDbEntity
  8
0
100
AcDbLine
 62
7
  6
CONTINUOUS
 10
-8.8
 20
-1.6016665077
 11
-7.8
 21
-1.6016665077
  0
LINE
  5
467
100
AcDbEntity
  8
0
100
AcDbLine
 62
7
  6
CONTINUOUS
 10
-7.9489361674
 20
2.2108330154
 11
-8.0340425551
 21
2.2525
  0
LINE
  5
468
100
AcDbEntity
  8
0
100
AcDbLine
 62
7
  6
CONTINUOUS
 10
-7.9914893687
 20
2.0858330154
 11
-8.0553191483
 21
2.1275
  0
LINE
  5
469
100
AcDbEntity
  8
0
100
AcDbLine
 62
7
  6
CONTINUOUS
 10
-7.8638297871
 20
4.3775
 11
-7.9489361674
 21
4.4608330154
  0
LWPOLYLINE
  5
46A
100
AcDbEntity
  8
RACCORDO
100
AcDbPolyline
 62
7
  6
CONTINUOUS
 90
8
 70
0
 10
7.2936811322
 20
-18.6238056948
 10
7.2821620547
 20
-18.6004322166
 10
7.2677050687
 20
-18.5787289921
 10
7.250536297
 20
-18.5590736936
 10
7.2309257685
 20
-18.5417887896
 10
7.209212759
 20
-18.5271768639
 10
7.1857903053
 20
-18.5155248943
 10
7.1610692283
 20
-18.5070349419
  0
LINE
  5
46B
100
AcDbEntity
  8
DRAFT
100
AcDbLine
 62
7
  6
CONTINUOUS
 10
3.9733373476
 20
-23.5
 11
3.9526845545
 21
-23.4301797403
  0
LINE
  5
46C
100
AcDbEntity
  8
DRAFT
100
AcDbLine
 62
7
  6
CONTINUOUS
 10
2.6768152463
 20
-21.2
 11
3.0118365096
 21
-22.4
  0
LWPOLYLINE
  5
46D
100
AcDbEntity
  8
RACCORDO
100
AcDbPolyline
 62
250
  6
CONTINUOUS
 90
13
 70
0
 10
0.2649134011
 20
-19.5938857461
 10
0.2631488246
 20
-19.5687085423
 10
0.2580027931
 20
-19.5439603064
 10
0.249562886
 20
-19.5200632434
 10
0.2379728705
 20
-19.4974250586
 10
0.223430291
 20
-19.4764320693
 10
0.2061831349
 20
-19.4574425926
 10
0.1865255069
 20
-19.4407807098
 10
0.1647926978
 20
-19.4267308484
 10
0.1413555591
 20
-19.4155329292
 10
0.1166139877
 20
-19.4073781356
 10
0.0909900701
 20
-19.4024056991
 10
0.0649210165
 20
-19.4007005801
  0
LINE
  5
46E
100
AcDbEntity
  8
RACCORDO
100
AcDbLine
 62
250
  6
CONTINUOUS
 10
-0.2649134011
 20
-19.5938857461
 11
-0.3987736215
 21
-15.4838500694
  0
LINE
  5
46F
100
AcDbEntity
  8
RACCORDO
100
AcDbLine
 62
250
  6
CONTINUOUS
 10
-0.0649210165
 20
-19.4007005808
 11
-0.1992738542
 21
-15.2755396155
  0
LWPOLYLINE
  5
470
100
AcDbEntity
  8
RACCORDO
100
AcDbPolyline
 62
250
  6
CONTINUOUS
 90
3
 70
0
 10
-0.2643828219
 20
-19.6175022913
 10
-0.264640027
 20
-19.6041911109
 10
-0.2649134011
 20
-19.5938857461
  0
LINE
  5
471
100
AcDbEntity
  8
RACCORDO
100
AcDbLine
 62
250
  6
CONTINUOUS
 10
-0.0646458243
 20
-19.4175833679
 11
-0.0649210165
 21
-19.4007005808
  0
LINE
  5
472
100
AcDbEntity
  8
RACCORDO
100
AcDbLine
 62
250
  6
CONTINUOUS
 10
-0.2639141051
 20
-19.6534136762
 11
-0.2643828219
 21
-19.6175022913
  0
LINE
  5
473
100
AcDbEntity
  8
RACCORDO
100
AcDbLine
 62
250
  6
CONTINUOUS
 10
-0.0641459597
 20
-19.4677006562
 11
-0.0646458243
 21
-19.4175833679
  0
LINE
  5
474
100
AcDbEntity
  8
RACCORDO
100
AcDbLine
 62
250
  6
CONTINUOUS
 10
-0.2633545401
 20
-19.7278964334
 11
-0.2639141051
 21
-19.6534136762
  0
LINE
  5
475
100
AcDbEntity
  8
RACCORDO
100
AcDbLine
 62
250
  6
CONTINUOUS
 10
-0.0632256648
 20
-19.6725733934
 11
-0.0641459597
 21
-19.4677006562
  0
LINE
  5
476
100
AcDbEntity
  8
RACCORDO
100
AcDbLine
 62
250
  6
CONTINUOUS
 10
0.0632251651
 20
19.6727093348
 11
0.064145624
 21
19.4677300809
  0
LINE
  5
477
100
AcDbEntity
  8
RACCORDO
100
AcDbLine
 62
250
  6
CONTINUOUS
 10
-0.2629729446
 20
-19.883663494
 11
-0.2633545401
 21
-19.7278964334
  0
LINE
  5
478
100
AcDbEntity
  8
0
100
AcDbLine
 62
7
  6
CONTINUOUS
 10
-1.474958
 20
17.345916
 11
-1.474954
 21
17.715935
  0
LINE
  5
479
100
AcDbEntity
  8
0
100
AcDbLine
 62
7
  6
CONTINUOUS
 10
-1.474958
 20
17.962609
 11
-1.474958
 21
18.332628
  0
LINE
  5
47A
100
AcDbEntity
  8
0
100
AcDbLine
 62
7
  6
CONTINUOUS
 10
-1.474954
 20
14.101543
 11
-1.474954
 21
14.471557
  0
LINE
  5
47B
100
AcDbEntity
  8
0
100
AcDbLine
 62
7
  6
CONTINUOUS
 10
-1.474954
 20
15.541218
 11
-1.474954
 21
15.911232
  0
LINE
  5
47C
100
AcDbEntity
  8
0
100
AcDbLine
 62
7
  6
CONTINUOUS
 10
-1.474954
 20
14.821383
 11
-1.474958
 21
15.191388
  0
LINE
  5
47D
100
AcDbEntity
  8
0
100
AcDbLine
 62
7
  6
CONTINUOUS
 10
-1.474949
 20
12.150825
 11
-1.474954
 21
12.520852
  0
LINE
  5
47E
100
AcDbEntity
  8
0
100
AcDbLine
 62
7
  6
CONTINUOUS
 10
-1.474954
 20
16.157906
 11
-1.474958
 21
16.52792
  0
LINE
  5
47F
100
AcDbEntity
  8
0
100
AcDbLine
 62
7
  6
CONTINUOUS
 10
-1.474949
 20
13.361525
 11
-1.474954
 21
13.731539
  0
LINE
  5
480
100
AcDbEntity
  8
0
100
AcDbLine
 62
7
  6
CONTINUOUS
 10
-1.474958
 20
19.02641
 11
-1.474963
 21
19.443173
  0
LINE
  5
481
100
AcDbEntity
  8
0
100
AcDbLine
 62
7
  6
CONTINUOUS
 10
-1.3
 20
-19.2
 11
-1.3
 21
-13.2
  0
LINE
  5
482
100
AcDbEntity
  8
RACCORDO
100
AcDbLine
 62
7
  6
CONTINUOUS
 10
-0.2629729446
 20
-20.2904156765
 11
-0.2629729446
 21
-19.883663494
  0
LINE
  5
483
100
AcDbEntity
  8
RACCORDO
100
AcDbLine
 62
7
  6
CONTINUOUS
 10
-0.2629729446
 20
19.883663494
 11
-0.2629729446
 21
20.5680847998
  0
LINE
  5
484
100
AcDbEntity
  8
RACCORDO
100
AcDbLine
 62
250
  6
CONTINUOUS
 10
-0.06298056
 20
-20.292145819
 11
-0.0632256648
 21
-19.6725733934
  0
LINE
  5
485
100
AcDbEntity
  8
RACCORDO
100
AcDbLine
 62
250
  6
CONTINUOUS
 10
0.06298056
 20
20.5698149423
 11
0.0632251651
 21
19.6727093348
  0
LINE
  5
486
100
AcDbEntity
  8
RACCORDO
100
AcDbLine
 62
250
  6
CONTINUOUS
 10
-0.0635212212
 20
19.5794139545
 11
-0.06298056
 21
20.5698149423
  0
LINE
  5
487
100
AcDbEntity
  8
RACCORDO
100
AcDbLine
 62
250
  6
CONTINUOUS
 10
0.0635224622
 20
-19.5791554642
 11
0.06298056
 21
-20.292145819
  0
LINE
  5
488
100
AcDbEntity
  8
RACCORDO
100
AcDbLine
 62
250
  6
CONTINUOUS
 10
-0.2633518506
 20
19.7283925666
 11
-0.2629729446
 21
19.883663494
  0
LINE
  5
489
100
AcDbEntity
  8
RACCORDO
100
AcDbLine
 62
250
  6
CONTINUOUS
 10
0.0641459596
 20
-19.4677006562
 11
0.0635224622
 21
-19.5791554642
  0
LINE
  5
48A
100
AcDbEntity
  8
RACCORDO
100
AcDbLine
 62
250
  6
CONTINUOUS
 10
-0.2639106098
 20
19.6537471979
 11
-0.2633518506
 21
19.7283925666
  0
LWPOLYLINE
  5
48B
100
AcDbEntity
  8
RACCORDO
100
AcDbPolyline
 62
250
  6
CONTINUOUS
 90
4
 70
0
 10
-0.0649210165
 20
19.4007005808
 10
-0.0646457757
 20
19.4175809263
 10
-0.0643873115
 20
19.4400028908
 10
-0.0635212212
 20
19.5794139545
  0
LWPOLYLINE
  5
48C
100
AcDbEntity
  8
RACCORDO
100
AcDbPolyline
 62
250
  6
CONTINUOUS
 90
4
 70
0
 10
-0.2649134011
 20
19.5938857461
 10
-0.2646386284
 20
19.6042715122
 10
-0.2643803683
 20
19.6176631564
 10
-0.2639106098
 20
19.6537471979
  0
LINE
  5
48D
100
AcDbEntity
  8
RACCORDO
100
AcDbLine
 62
250
  6
CONTINUOUS
 10
-0.3987736215
 20
15.4838500694
 11
-0.2649134011
 21
19.5938857461
  0
LINE
  5
48E
100
AcDbEntity
  8
RACCORDO
100
AcDbLine
 62
250
  6
CONTINUOUS
 10
-0.1992738542
 20
15.2755396155
 11
-0.0649210165
 21
19.4007005808
  0
LWPOLYLINE
  5
48F
100
AcDbEntity
  8
RACCORDO
100
AcDbPolyline
 62
7
  6
CONTINUOUS
 90
13
 70
0
 10
0.3987736215
 20
15.4838500694
 10
0.3970285162
 20
15.4562067423
 10
0.3918217078
 20
15.4291926456
 10
0.3832724541
 20
15.4032390193
 10
0.37156302
 20
15.3787379782
 10
0.3569172775
 20
15.3560852012
 10
0.3395835202
 20
15.3356819
 10
0.3198410579
 20
15.3178312955
 10
0.2980599278
 20
15.3028242084
 10
0.2746862145
 20
15.2909642084
 10
0.2501574067
 20
15.2824237631
 10
0.2248772973
 20
15.277268854
 10
0.1992738542
 20
15.2755396155
  0
LWPOLYLINE
  5
490
100
AcDbEntity
  8
RACCORDO
100
AcDbPolyline
 62
250
  6
CONTINUOUS
 90
13
 70
0
 10
0.2649134011
 20
19.5938857461
 10
0.2631484735
 20
19.568706008
 10
0.2580015521
 20
19.543955866
 10
0.2495604493
 20
19.5200575866
 10
0.2379691803
 20
19.4974189027
 10
0.2234255058
 20
19.4764260567
 10
0.206177558
 20
19.4574372114
 10
0.1865196071
 20
19.4407763388
 10
0.164787041
 20
19.4267276931
 10
0.1413506427
 20
19.4155309604
 10
0.1166102649
 20
19.4073771702
 10
0.0909880075
 20
19.4024054358
 10
0.0649210165
 20
19.4007005808
  0
LINE
  5
491
100
AcDbEntity
  8
0
100
AcDbLine
 62
7
  6
CONTINUOUS
 10
0.9155831894
 20
12.5488082535
 11
0.9069676351
 21
12.4834543947
  0
LINE
  5
492
100
AcDbEntity
  8
0
100
AcDbLine
 62
7
  6
CONTINUOUS
 10
-2.2614530364
 20
-15.4073252763
 11
-2.2815639807
 21
-15.5598918537
  0
LWPOLYLINE
  5
493
100
AcDbEntity
  8
0
100
AcDbPolyline
 62
7
  6
CONTINUOUS
 90
4
 70
0
 10
1.052275914
 20
12.4834543947
 10
1.0581785172
 20
12.5282123457
 10
1.0649047837
 20
12.5716645864
 10
1.0724547137
 20
12.613811125
  0
LINE
  5
494
100
AcDbEntity
  8
0
100
AcDbLine
 62
7
  6
CONTINUOUS
 10
0.9261058372
 20
12.6122394962
 11
0.9155831894
 21
12.5488082535
  0
LWPOLYLINE
  5
495
100
AcDbEntity
  8
0
100
AcDbPolyline
 62
7
  6
CONTINUOUS
 90
10
 70
0
 10
1.0962372907
 20
13.3286025176
 10
1.0913223669
 20
13.3029040309
 10
1.0901911512
 20
13.2763274364
 10
1.0922473903
 20
13.2505862338
 10
1.0976042098
 20
13.2258899031
 10
1.1061484841
 20
13.2020289717
 10
1.1169445825
 20
13.1800885226
 10
1.1296806284
 20
13.1604302558
 10
1.1446684985
 20
13.1426924849
 10
1.1619081928
 20
13.1268752152
  0
LWPOLYLINE
  5
496
100
AcDbEntity
  8
0
100
AcDbPolyline
 62
7
  6
CONTINUOUS
 90
13
 70
0
 10
1.0724547137
 20
12.613811125
 10
1.0807943708
 20
12.6546578989
 10
1.0899576914
 20
12.6941989867
 10
1.1000464842
 20
12.7324166084
 10
1.1110777375
 20
12.7694148401
 10
1.1230344632
 20
12.8050896201
 10
1.1359675056
 20
12.8391109641
 10
1.149754568
 20
12.8714894178
 10
1.1645179472
 20
12.9022144522
 10
1.180675378
 20
12.9309244734
 10
1.1982701675
 20
12.9577460481
 10
1.2172590087
 20
12.9825526266
 10
1.2379297158
 20
13.0046029441
  0
LWPOLYLINE
  5
497
100
AcDbEntity
  8
RACCORDO
100
AcDbPolyline
 62
7
  6
CONTINUOUS
 90
13
 70
0
 10
-3.3744558057
 20
-10.4772773673
 10
-3.3658534629
 20
-10.4427185193
 10
-3.3538457082
 20
-10.4102183131
 10
-3.3384325416
 20
-10.3797767486
 10
-3.3193461137
 20
-10.3510760211
 10
-3.2968542739
 20
-10.3244339353
 10
-3.2717605703
 20
-10.3008039057
 10
-3.2439195749
 20
-10.2802535446
 10
-3.2134767157
 20
-10.2627152397
 10
-3.1816718251
 20
-10.2489395686
 10
-3.1489181806
 20
-10.2391767237
 10
-3.1148025046
 20
-10.2331765126
 10
-3.0793247973
 20
-10.2309389352
  0
LWPOLYLINE
  5
498
100
AcDbEntity
  8
RACCORDO
100
AcDbPolyline
 62
7
  6
CONTINUOUS
 90
40
 70
0
 10
-3.2877131351
 20
-10.666783293
 10
-3.3416566596
 20
-10.8564783675
 10
-3.4080484864
 20
-11.0403730002
 10
-3.4868886155
 20
-11.218467307
 10
-3.5787308285
 20
-11.3916743846
 10
-3.6830213438
 20
-11.5590813541
 10
-3.7980988163
 20
-11.7179494309
 10
-3.9240128924
 20
-11.8680025014
 10
-4.0607139256
 20
-12.0095170265
 10
-4.2063916323
 20
-12.1405831768
 10
-4.361371634
 20
-12.2611770127
 10
-4.5253283091
 20
-12.3713228432
 10
-4.6954745095
 20
-12.4691832627
 10
-4.8715907267
 20
-12.5544373132
 10
-5.0538964692
 20
-12.6274062877
 10
-5.2402631134
 20
-12.6872161661
 10
-5.4311696237
 20
-12.7337734145
 10
-5.6261370358
 20
-12.7671717803
 10
-5.8215998325
 20
-12.7868181397
 10
-6.0170653523
 20
-12.7924898888
 10
-6.2130262567
 20
-12.7844096855
 10
-6.4073950135
 20
-12.7626522582
 10
-6.600682339
 20
-12.7269320656
 10
-6.7923775169
 20
-12.6775345273
 10
-6.9788608651
 20
-12.6153907773
 10
-7.1595439351
 20
-12.5405011955
 10
-7.3350151754
 20
-12.4528651387
 10
-7.5034202495
 20
-12.3534121905
 10
-7.6650945725
 20
-12.2416998235
 10
-7.8197027294
 20
-12.1181701981
 10
-7.9643841389
 20
-11.9850799567
 10
-8.0986653066
 20
-11.8425821644
 10
-8.223019727
 20
-11.6905233982
 10
-8.3360073022
 20
-11.5307006349
 10
-8.4376623593
 20
-11.3627429575
 10
-8.5279505713
 20
-11.1870209587
 10
-8.6053288598
 20
-11.006443983
 10
-8.6692828655
 20
-10.8219817807
 10
-8.7203269478
 20
-10.6326644307
 10
-8.7584611066
 20
-10.4384918414
  0
LWPOLYLINE
  5
499
100
AcDbEntity
  8
0
100
AcDbPolyline
 62
7
  6
CONTINUOUS
 90
4
 70
0
 10
4.7689756098
 20
11.2000504795
 10
4.7722172254
 20
11.2070056484
 10
4.7746478995
 20
11.2141622811
 10
4.7762676322
 20
11.2215203774
  0
LINE
  5
49A
100
AcDbEntity
  8
0
100
AcDbLine
 62
7
  6
CONTINUOUS
 10
-8.6085106611
 20
-3.9975
 11
-8.5446808219
 21
-3.9558332539
  0
LINE
  5
49B
100
AcDbEntity
  8
0
100
AcDbLine
 62
7
  6
CONTINUOUS
 10
-8.6510638475
 20
-3.8725
 11
-8.5659574747
 21
-3.8308332539
  0
LINE
  5
49C
100
AcDbEntity
  8
0
100
AcDbLine
 62
7
  6
CONTINUOUS
 10
-8.8
 20
-1.435
 11
-7.8
 21
-1.435
  0
LINE
  5
49D
100
AcDbEntity
  8
0
100
AcDbLine
 62
7
  6
CONTINUOUS
 10
-8.6723404408
 20
-1.31
 11
-7.8
 21
-1.31
  0
LINE
  5
49E
100
AcDbEntity
  8
0
100
AcDbLine
 62
7
  6
CONTINUOUS
 10
-8.8
 20
-0.7266665077
 11
-7.9489361674
 21
-0.7266665077
  0
LINE
  5
49F
100
AcDbEntity
  8
0
100
AcDbLine
 62
7
  6
CONTINUOUS
 10
-8.8
 20
-0.6016665077
 11
-7.8
 21
-0.6016665077
  0
LINE
  5
4A0
100
AcDbEntity
  8
0
100
AcDbLine
 62
7
  6
CONTINUOUS
 10
-8.0553191483
 20
2.1275
 11
-8.1404255211
 21
2.1483330154
  0
LINE
  5
4A1
100
AcDbEntity
  8
0
100
AcDbLine
 62
7
  6
CONTINUOUS
 10
-7.9914893687
 20
4.3358330154
 11
-8.0553191483
 21
4.3775
  0
LWPOLYLINE
  5
4A2
100
AcDbEntity
  8
RACCORDO
100
AcDbPolyline
 62
250
  6
CONTINUOUS
 90
10
 70
0
 10
3.3744558057
 20
-9.5227226327
 10
3.3643667296
 20
-9.5019235909
 10
3.3543857891
 20
-9.4810459802
 10
3.3445127253
 20
-9.4600913267
 10
3.334747032
 20
-9.4390626719
 10
3.3250886001
 20
-9.4179600213
 10
3.3155378379
 20
-9.3967802827
 10
3.3060947571
 20
-9.375523365
 10
3.2967588525
 20
-9.3541922383
 10
3.287529831
 20
-9.3327883398
  0
LWPOLYLINE
  5
4A3
100
AcDbEntity
  8
RACCORDO
100
AcDbPolyline
 62
250
  6
CONTINUOUS
 90
10
 70
0
 10
3.0793247973
 20
-9.7690610648
 10
3.0696201746
 20
-9.7462157354
 10
3.0600348427
 20
-9.7233079643
 10
3.0505688015
 20
-9.7003377517
 10
3.0412222887
 20
-9.6773052564
 10
3.0319950666
 20
-9.6542103195
 10
3.0228864223
 20
-9.6310524646
 10
3.0138961182
 20
-9.6078315331
 10
3.0050243918
 20
-9.5845476837
 10
2.9962712433
 20
-9.5612009164
  0
LWPOLYLINE
  5
4A4
100
AcDbEntity
  8
RACCORDO
100
AcDbPolyline
 62
250
  6
CONTINUOUS
 90
4
 70
0
 10
-7.2193844262
 20
18.6234633136
 10
-7.2277924042
 20
18.648236191
 10
-7.2328954339
 20
18.6738947616
 10
-7.234606201
 20
18.7
  0
LWPOLYLINE
  5
4A5
100
AcDbEntity
  8
RACCORDO
100
AcDbPolyline
 62
7
  6
CONTINUOUS
 90
13
 70
0
 10
3.2877131351
 20
-10.666783293
 10
3.2775956658
 20
-10.634316838
 10
3.2644393437
 20
-10.6038739341
 10
3.2482441688
 20
-10.5754545893
 10
3.2287413113
 20
-10.5487789252
 10
3.2061996011
 20
-10.5241268341
 10
3.1814255276
 20
-10.5023379813
 10
3.1543593622
 20
-10.4835041406
 10
3.1250608335
 20
-10.4675335533
 10
3.0945156171
 20
-10.4549905886
 10
3.0630522715
 20
-10.4460633733
 10
3.0303422382
 20
-10.4405637901
 10
2.9963855172
 20
-10.4384918414
  0
LWPOLYLINE
  5
4A6
100
AcDbEntity
  8
0
100
AcDbPolyline
 62
7
  6
CONTINUOUS
 90
13
 70
0
 10
2.6691784935
 20
-11.6192178686
 10
2.657937706
 20
-11.5730612365
 10
2.6431288597
 20
-11.527693243
 10
2.6238092299
 20
-11.4851521229
 10
2.5996611614
 20
-11.445558159
 10
2.5710023094
 20
-11.4087911019
 10
2.5378429145
 20
-11.3765284073
 10
2.4992423287
 20
-11.3490312267
 10
2.4561411999
 20
-11.3260384466
 10
2.4113717124
 20
-11.3084441324
 10
2.3658779274
 20
-11.2965463144
 10
2.3187157836
 20
-11.2900469845
 10
2.269885281
 20
-11.2889461476
  0
LWPOLYLINE
  5
4A7
100
AcDbEntity
  8
0
100
AcDbPolyline
 62
7
  6
CONTINUOUS
 90
3
 70
0
 10
0.8911510718
 20
11.7820536536
 10
0.8950518183
 20
11.7270964954
 10
0.899961753
 20
11.6729933325
  0
LWPOLYLINE
  5
4A8
100
AcDbEntity
  8
RACCORDO
100
AcDbPolyline
 62
250
  6
CONTINUOUS
 90
13
 70
0
 10
-0.2649134011
 20
19.5938857461
 10
-0.2631487481
 20
19.5687079866
 10
-0.2580025227
 20
19.5439593332
 10
-0.2495623553
 20
19.5200620045
 10
-0.2379720678
 20
19.4974237119
 10
-0.223429252
 20
19.4764307557
 10
-0.2061819258
 20
19.4574414183
 10
-0.1865242297
 20
19.4407797572
 10
-0.1647914758
 20
19.4267301621
 10
-0.141354499
 20
19.415532502
 10
-0.1166131859
 20
19.4073779272
 10
-0.0909896263
 20
19.4024056443
 10
-0.0649210163
 20
19.4007005848
  0
LINE
  5
4A9
100
AcDbEntity
  8
RACCORDO
100
AcDbLine
 62
250
  6
CONTINUOUS
 10
0.0649210165
 20
19.4007005808
 11
0.1992738542
 21
15.2755396155
  0
LINE
  5
4AA
100
AcDbEntity
  8
RACCORDO
100
AcDbLine
 62
250
  6
CONTINUOUS
 10
0.2649134011
 20
19.5938857461
 11
0.3987736215
 21
15.4838500694
  0
LWPOLYLINE
  5
4AB
100
AcDbEntity
  8
RACCORDO
100
AcDbPolyline
 62
250
  6
CONTINUOUS
 90
3
 70
0
 10
0.2643803683
 20
19.6176631592
 10
0.2646386284
 20
19.6042715139
 10
0.2649134011
 20
19.5938857461
  0
LINE
  5
4AC
100
AcDbEntity
  8
RACCORDO
100
AcDbLine
 62
250
  6
CONTINUOUS
 10
0.0646457757
 20
19.4175809263
 11
0.0649210165
 21
19.4007005808
  0
LINE
  5
4AD
100
AcDbEntity
  8
RACCORDO
100
AcDbLine
 62
250
  6
CONTINUOUS
 10
0.2639106098
 20
19.6537472005
 11
0.2643803683
 21
19.6176631592
  0
LINE
  5
4AE
100
AcDbEntity
  8
RACCORDO
100
AcDbLine
 62
250
  6
CONTINUOUS
 10
0.064145624
 20
19.4677300809
 11
0.0646457757
 21
19.4175809263
  0
LINE
  5
4AF
100
AcDbEntity
  8
RACCORDO
100
AcDbLine
 62
250
  6
CONTINUOUS
 10
0.2633518505
 20
19.728392566
 11
0.2639106098
 21
19.6537472005
  0
LINE
  5
4B0
100
AcDbEntity
  8
RACCORDO
100
AcDbLine
 62
250
  6
CONTINUOUS
 10
0.2629729446
 20
19.883663494
 11
0.2633518505
 21
19.728392566
  0
LINE
  5
4B1
100
AcDbEntity
  8
0
100
AcDbLine
 62
7
  6
CONTINUOUS
 10
0.3987736215
 20
15.4838500694
 11
0.3973847163
 21
19.9580320107
  0
LINE
  5
4B2
100
AcDbEntity
  8
RACCORDO
100
AcDbLine
 62
7
  6
CONTINUOUS
 10
0.2629729446
 20
20.5680847998
 11
0.2629729446
 21
19.883663494
  0
LINE
  5
4B3
100
AcDbEntity
  8
RACCORDO
100
AcDbLine
 62
7
  6
CONTINUOUS
 10
0.2629729446
 20
-19.883663494
 11
0.2629729446
 21
-20.2904156765
  0
LINE
  5
4B4
100
AcDbEntity
  8
0
100
AcDbLine
 62
7
  6
CONTINUOUS
 10
0.834640845
 20
11.7820536536
 11
0.834640845
 21
12.4834660046
  0
LINE
  5
4B5
100
AcDbEntity
  8
0
100
AcDbLine
 62
7
  6
CONTINUOUS
 10
0.929693375
 20
11.1519124002
 11
0.929693375
 21
11.4651207748
  0
LINE
  5
4B6
100
AcDbEntity
  8
0
100
AcDbLine
 62
7
  6
CONTINUOUS
 10
0.977332
 20
11.924691829
 11
0.977332
 21
12.3407802208
  0
LINE
  5
4B7
100
AcDbEntity
  8
0
100
AcDbLine
 62
7
  6
CONTINUOUS
 10
1.042762
 20
11.924691829
 11
1.042762
 21
12.3407802208
  0
LINE
  5
4B8
100
AcDbEntity
  8
0
100
AcDbLine
 62
7
  6
CONTINUOUS
 10
1.1854664597
 20
11.7820536536
 11
1.1854664597
 21
12.4834660046
  0
LINE
  5
4B9
100
AcDbEntity
  8
0
100
AcDbLine
 62
7
  6
CONTINUOUS
 10
1.3103085078
 20
11.0098563702
 11
1.3103085078
 21
11.1519007903
  0
LINE
  5
4BA
100
AcDbEntity
  8
0
100
AcDbLine
 62
7
  6
CONTINUOUS
 10
1.3103208469
 20
10.7061155703
 11
1.3103208469
 21
10.8573260191
  0
LINE
  5
4BB
100
AcDbEntity
  8
0
100
AcDbLine
 62
7
  6
CONTINUOUS
 10
1.3103208469
 20
11.3956872582
 11
1.3103208469
 21
13.0534751492
  0
LINE
  5
4BC
100
AcDbEntity
  8
0
100
AcDbLine
 62
7
  6
CONTINUOUS
 10
1.4530248475
 20
10.7061155703
 11
1.4530248475
 21
10.8779764316
  0
LINE
  5
4BD
100
AcDbEntity
  8
0
100
AcDbLine
 62
7
  6
CONTINUOUS
 10
1.458935
 20
11.0216725797
 11
1.458935
 21
13.0590750146
  0
LINE
  5
4BE
100
AcDbEntity
  8
0
100
AcDbLine
 62
7
  6
CONTINUOUS
 10
1.6747746472
 20
13.1822755576
 11
1.6747746472
 21
13.2772178227
  0
LINE
  5
4BF
100
AcDbEntity
  8
0
100
AcDbLine
 62
7
  6
CONTINUOUS
 10
1.674787
 20
12.9767708714
 11
1.674787
 21
13.0389708421
  0
LINE
  5
4C0
100
AcDbEntity
  8
0
100
AcDbLine
 62
7
  6
CONTINUOUS
 10
1.8489555797
 20
-12.6316249944
 11
1.8489555797
 21
-12.7242249721
  0
LINE
  5
4C1
100
AcDbEntity
  8
0
100
AcDbLine
 62
7
  6
CONTINUOUS
 10
1.8489555797
 20
-13.6881831718
 11
1.8489555797
 21
-13.7807840174
  0
LINE
  5
4C2
100
AcDbEntity
  8
0
100
AcDbLine
 62
7
  6
CONTINUOUS
 10
1.8489599193
 20
-11.726722584
 11
1.8489599193
 21
-12.3665652392
  0
LINE
  5
4C3
100
AcDbEntity
  8
0
100
AcDbLine
 62
7
  6
CONTINUOUS
 10
1.850359
 20
-14.300878
 11
1.850359
 21
-15.336591
  0
LINE
  5
4C4
100
AcDbEntity
  8
0
100
AcDbLine
 62
7
  6
CONTINUOUS
 10
1.850359
 20
-17.057151
 11
1.850359
 21
-18.092878
  0
LINE
  5
4C5
100
AcDbEntity
  8
0
100
AcDbLine
 62
7
  6
CONTINUOUS
 10
1.850359
 20
-18.510901
 11
1.850359
 21
-18.699984
  0
LINE
  5
4C6
100
AcDbEntity
  8
0
100
AcDbLine
 62
7
  6
CONTINUOUS
 10
1.850359
 20
-19.494112
 11
1.850359
 21
-19.706303
  0
LINE
  5
4C7
100
AcDbEntity
  8
0
100
AcDbLine
 62
7
  6
CONTINUOUS
 10
1.850364
 20
-15.590784
 11
1.850364
 21
-15.79878
  0
LINE
  5
4C8
100
AcDbEntity
  8
0
100
AcDbLine
 62
7
  6
CONTINUOUS
 10
1.850364
 20
-16.66435
 11
1.850364
 21
-16.880707
  0
LINE
  5
4C9
100
AcDbEntity
  8
0
100
AcDbLine
 62
7
  6
CONTINUOUS
 10
1.9289473031
 20
-12.273907111
 11
1.9289473031
 21
-11.733050579
  0
LINE
  5
4CA
100
AcDbEntity
  8
RACCORDO
100
AcDbLine
 62
250
  6
CONTINUOUS
 10
0.2633545402
 20
-19.7278964343
 11
0.2629729446
 21
-19.883663494
  0
LINE
  5
4CB
100
AcDbEntity
  8
RACCORDO
100
AcDbLine
 62
250
  6
CONTINUOUS
 10
0.263914105
 20
-19.6534136727
 11
0.2633545402
 21
-19.7278964343
  0
LWPOLYLINE
  5
4CC
100
AcDbEntity
  8
RACCORDO
100
AcDbPolyline
 62
250
  6
CONTINUOUS
 90
3
 70
0
 10
0.0649210165
 20
-19.4007005808
 10
0.0646458243
 20
-19.4175833679
 10
0.0641459596
 20
-19.4677006562
  0
LWPOLYLINE
  5
4CD
100
AcDbEntity
  8
RACCORDO
100
AcDbPolyline
 62
250
  6
CONTINUOUS
 90
4
 70
0
 10
0.2649134011
 20
-19.5938857461
 10
0.264640027
 20
-19.6041911084
 10
0.2643828219
 20
-19.6175022873
 10
0.263914105
 20
-19.6534136727
  0
LINE
  5
4CE
100
AcDbEntity
  8
RACCORDO
100
AcDbLine
 62
250
  6
CONTINUOUS
 10
0.1992738542
 20
-15.2755396155
 11
0.0649210165
 21
-19.4007005808
  0
LINE
  5
4CF
100
AcDbEntity
  8
RACCORDO
100
AcDbLine
 62
250
  6
CONTINUOUS
 10
0.3987736215
 20
-15.4838500694
 11
0.2649134011
 21
-19.5938857461
  0
LWPOLYLINE
  5
4D0
100
AcDbEntity
  8
0
100
AcDbPolyline
 62
7
  6
CONTINUOUS
 90
40
 70
0
 10
1.9250000011
 20
18.262401574
 10
1.9295859551
 20
18.3831118729
 10
1.943808371
 20
18.5025105416
 10
1.967667249
 20
18.6205976084
 10
2.0012220553
 20
18.7382753779
 10
2.0444133235
 20
18.8546415857
 10
2.0970626545
 20
18.9669894778
 10
2.1597249678
 20
19.0753966838
 10
2.2318453438
 20
19.1797857653
 10
2.3115806243
 20
19.2772175041
 10
2.3990899535
 20
19.3672698288
 10
2.4942141871
 20
19.4503651145
 10
2.5946327346
 20
19.5248309016
 10
2.7000722628
 20
19.5904048373
 10
2.8108061048
 20
19.64734956
 10
2.925333669
 20
19.6947801165
 10
3.0439322747
 20
19.7326203059
 10
3.1663246026
 20
19.7609465224
 10
3.2901781032
 20
19.7791026903
 10
3.41583459
 20
19.78685329
 10
3.5429522497
 20
19.7844339048
 10
3.6681730929
 20
19.7718950813
 10
3.7910753902
 20
19.7490233569
 10
3.9120808712
 20
19.716032108
 10
4.0290967354
 20
19.6736121092
 10
4.1420197359
 20
19.6216466855
 10
4.2509531198
 20
19.5602523001
 10
4.3541138273
 20
19.490469424
 10
4.4516145805
 20
19.4120453575
 10
4.5433426573
 20
19.3252325076
 10
4.6271768328
 20
19.2318290333
 10
4.7028858723
 20
19.1318225081
 10
4.7707010103
 20
19.0252250691
 10
4.8291947251
 20
18.9138717894
 10
4.8782263532
 20
18.7974287557
 10
4.917936558
 20
18.6762296395
 10
4.9473198081
 20
18.5531110084
 10
4.9660766414
 20
18.4281842418
 10
4.97450652
 20
18.301337871
 10
4.9725022988
 20
18.1750743383
  0
LWPOLYLINE
  5
4D1
100
AcDbEntity
  8
RACCORDO
100
AcDbPolyline
 62
7
  6
CONTINUOUS
 90
13
 70
0
 10
-0.3987736215
 20
-15.4838500694
 10
-0.3970285162
 20
-15.4562067423
 10
-0.3918217078
 20
-15.4291926456
 10
-0.3832724541
 20
-15.4032390193
 10
-0.37156302
 20
-15.3787379782
 10
-0.3569172775
 20
-15.3560852012
 10
-0.3395835202
 20
-15.3356819
 10
-0.3198410579
 20
-15.3178312955
 10
-0.2980599278
 20
-15.3028242084
 10
-0.2746862145
 20
-15.2909642084
 10
-0.2501574067
 20
-15.2824237631
 10
-0.2248772973
 20
-15.277268854
 10
-0.1992738542
 20
-15.2755396155
  0
LWPOLYLINE
  5
4D2
100
AcDbEntity
  8
RACCORDO
100
AcDbPolyline
 62
250
  6
CONTINUOUS
 90
13
 70
0
 10
-0.2649134011
 20
-19.5938857461
 10
-0.2631484735
 20
-19.5687060081
 10
-0.2580015521
 20
-19.5439558661
 10
-0.2495604494
 20
-19.5200575867
 10
-0.2379691805
 20
-19.4974189026
 10
-0.2234255062
 20
-19.4764260564
 10
-0.2061775585
 20
-19.4574372108
 10
-0.1865196078
 20
-19.4407763378
 10
-0.1647870417
 20
-19.4267276916
 10
-0.1413506434
 20
-19.4155309587
 10
-0.1166102654
 20
-19.4073771687
 10
-0.0909880078
 20
-19.4024054348
 10
-0.0649210165
 20
-19.4007005808
  0
LWPOLYLINE
  5
4D3
100
AcDbEntity
  8
0
100
AcDbPolyline
 62
7
  6
CONTINUOUS
 90
3
 70
0
 10
-4.2705769572
 20
-16.1688936397
 10
-4.2587166321
 20
-16.1309740888
 10
-4.2414039386
 20
-16.0954809503
  0
LWPOLYLINE
  5
4D4
100
AcDbEntity
  8
0
100
AcDbPolyline
 62
7
  6
CONTINUOUS
 90
3
 70
0
 10
-4.2672962276
 20
-13.8434479567
 10
-4.2552229088
 20
-13.808589217
 10
-4.2395170273
 20
-13.7760637904
  0
LWPOLYLINE
  5
4D5
100
AcDbEntity
  8
RACCORDO
100
AcDbPolyline
 62
250
  6
CONTINUOUS
 90
10
 70
0
 10
-2.9962712433
 20
-9.5612009164
 10
-3.005024396
 20
-9.5845476948
 10
-3.0138961261
 20
-9.6078315536
 10
-3.0228864333
 20
-9.6310524929
 10
-3.0319950809
 20
-9.6542103555
 10
-3.0412223058
 20
-9.6773052986
 10
-3.0505688188
 20
-9.700337794
 10
-3.0600348568
 20
-9.7233079987
 10
-3.069620183
 20
-9.7462157557
 10
-3.0793247973
 20
-9.7690610648
  0
LWPOLYLINE
  5
4D6
100
AcDbEntity
  8
RACCORDO
100
AcDbPolyline
 62
250
  6
CONTINUOUS
 90
10
 70
0
 10
-3.287529831
 20
-9.3327883398
 10
-3.2967588568
 20
-9.3541922483
 10
-3.3060947652
 20
-9.3755233834
 10
-3.3155378493
 20
-9.3967803082
 10
-3.3250886148
 20
-9.4179600538
 10
-3.3347470495
 20
-9.4390627101
 10
-3.344512743
 20
-9.4600913646
 10
-3.3543858038
 20
-9.481046011
 10
-3.3643667385
 20
-9.501923609
 10
-3.3744558057
 20
-9.5227226327
  0
LWPOLYLINE
  5
4D7
100
AcDbEntity
  8
RACCORDO
100
AcDbPolyline
 62
7
  6
CONTINUOUS
 90
8
 70
0
 10
-7.293751803
 20
-18.6239765047
 10
-7.2822380187
 20
-18.6005570772
 10
-7.2677505446
 20
-18.5787914426
 10
-7.2505363116
 20
-18.5590737083
 10
-7.2308931205
 20
-18.5417572449
 10
-7.2091397129
 20
-18.5271341059
 10
-7.1856187697
 20
-18.5154532061
 10
-7.1607168843
 20
-18.5069324742
  0
LWPOLYLINE
  5
4D8
100
AcDbEntity
  8
RACCORDO
100
AcDbPolyline
 62
250
  6
CONTINUOUS
 90
5
 70
0
 10
-7.2193844262
 20
-18.6234633135
 10
-7.2078153628
 20
-18.6
 10
-7.1932831637
 20
-18.5782477142
 10
-7.1760364791
 20
-18.5585786438
 10
-7.1634252964
 20
-18.5470018494
  0
LINE
  5
4D9
100
AcDbEntity
  8
0
100
AcDbLine
 62
7
  6
CONTINUOUS
 10
-8.8
 20
0.565
 11
-8.693617034
 21
0.565
  0
LINE
  5
4DA
100
AcDbEntity
  8
0
100
AcDbLine
 62
7
  6
CONTINUOUS
 10
-8.693617034
 20
0.8983334923
 11
-7.8
 21
0.8983334923
  0
LINE
  5
4DB
100
AcDbEntity
  8
0
100
AcDbLine
 62
7
  6
CONTINUOUS
 10
-8.693617034
 20
1.0233334923
 11
-7.8
 21
1.0233334923
  0
LINE
  5
4DC
100
AcDbEntity
  8
0
100
AcDbLine
 62
7
  6
CONTINUOUS
 10
-8.8
 20
1.3566669846
 11
-8.693617034
 21
1.3566669846
  0
LINE
  5
4DD
100
AcDbEntity
  8
0
100
AcDbLine
 62
7
  6
CONTINUOUS
 10
-8.8
 20
1.5233330154
 11
-8.1404255211
 21
1.5233330154
  0
LINE
  5
4DE
100
AcDbEntity
  8
0
100
AcDbLine
 62
7
  6
CONTINUOUS
 10
-8.8
 20
1.6483330154
 11
-8.1404255211
 21
1.6483330154
  0
LINE
  5
4DF
100
AcDbEntity
  8
0
100
AcDbLine
 62
7
  6
CONTINUOUS
 10
-8.0340425551
 20
2.2525
 11
-8.1404255211
 21
2.2733330154
  0
LINE
  5
4E0
100
AcDbEntity
  8
0
100
AcDbLine
 62
7
  6
CONTINUOUS
 10
-8.5659574747
 20
3.7941669846
 11
-8.6510638475
 21
3.815
  0
LINE
  5
4E1
100
AcDbEntity
  8
0
100
AcDbLine
 62
7
  6
CONTINUOUS
 10
-8.5446808219
 20
3.9191669846
 11
-8.6085106611
 21
3.94
  0
LINE
  5
4E2
100
AcDbEntity
  8
0
100
AcDbLine
 62
7
  6
CONTINUOUS
 10
-7.9489361674
 20
4.4608330154
 11
-8.0340425551
 21
4.5025
  0
LWPOLYLINE
  5
4E3
100
AcDbEntity
  8
RACCORDO
100
AcDbPolyline
 62
7
  6
CONTINUOUS
 90
8
 70
0
 10
-7.2936811322
 20
18.6238056948
 10
-7.2821620547
 20
18.6004322166
 10
-7.2677050687
 20
18.5787289921
 10
-7.250536297
 20
18.5590736936
 10
-7.2309257685
 20
18.5417887896
 10
-7.209212759
 20
18.5271768639
 10
-7.1857903053
 20
18.5155248943
 10
-7.1610692283
 20
18.5070349419
  0
LWPOLYLINE
  5
4E4
100
AcDbEntity
  8
RACCORDO
100
AcDbPolyline
 62
250
  6
CONTINUOUS
 90
4
 70
0
 10
7.2193844262
 20
-18.6234633136
 10
7.2277924042
 20
-18.648236191
 10
7.2328954339
 20
-18.6738947616
 10
7.234606201
 20
-18.7
  0
LWPOLYLINE
  5
4E5
100
AcDbEntity
  8
0
100
AcDbPolyline
 62
7
  6
CONTINUOUS
 90
21
 70
0
 10
3.3791346774
 20
-13.0906173828
 10
3.3716242508
 20
-13.0460420598
 10
3.3615419942
 20
-13.0034453202
 10
3.3488016512
 20
-12.9630654441
 10
3.3334894781
 20
-12.9246641789
 10
3.315671679
 20
-12.8886558176
 10
3.2951413074
 20
-12.8550541646
 10
3.2721053098
 20
-12.8238454419
 10
3.2472507294
 20
-12.7954025715
 10
3.2206216581
 20
-12.7699726644
 10
3.192174004
 20
-12.7473086336
 10
3.1624625343
 20
-12.7270421028
 10
3.1315245249
 20
-12.7091992941
 10
3.0993226999
 20
-12.6937539996
 10
3.066299999
 20
-12.6802591951
 10
3.0324254534
 20
-12.6686921816
 10
2.9977300319
 20
-12.6590756656
 10
2.9627495803
 20
-12.6510307281
 10
2.927594624
 20
-12.6445563043
 10
2.8921546376
 20
-12.6396534625
 10
2.8566338908
 20
-12.6359464823
  0
LWPOLYLINE
  5
4E6
100
AcDbEntity
  8
0
100
AcDbPolyline
 62
7
  6
CONTINUOUS
 90
3
 70
0
 10
2.5969419291
 20
-11.6621007507
 10
2.6017451324
 20
-11.7032440128
 10
2.6024478439
 20
-11.7456640409
  0
LWPOLYLINE
  5
4E7
100
AcDbEntity
  8
0
100
AcDbPolyline
 62
7
  6
CONTINUOUS
 90
31
 70
0
 10
1.4166659382
 20
18.262401574
 10
1.4207832927
 20
18.1352710508
 10
1.4325973597
 20
18.009452551
 10
1.4521081394
 20
17.884946119
 10
1.4794085983
 20
17.7612185704
 10
1.5144057698
 20
17.6388031658
 10
1.5568207544
 20
17.5192996579
 10
1.6067849449
 20
17.4028129006
 10
1.6641669484
 20
17.2892382006
 10
1.7282936863
 20
17.1798610578
 10
1.7992659317
 20
17.074710475
 10
1.8769829116
 20
16.973757647
 10
1.9604692279
 20
16.8782014099
 10
2.0497958894
 20
16.7881304303
 10
2.1448918874
 20
16.7034562539
 10
2.2445687972
 20
16.6251120656
 10
2.3488231897
 20
16.5531356295
 10
2.4576584941
 20
16.4874893768
 10
2.5698965733
 20
16.4289935062
 10
2.6856311103
 20
16.377744201
 10
2.804768422
 20
16.333645436
 10
2.9258493226
 20
16.2972290961
 10
3.0488269453
 20
16.2686483528
 10
3.1737481569
 20
16.2477501341
 10
3.299294372
 20
16.2346069465
 10
3.4255613835
 20
16.2292438359
 10
3.5524533984
 20
16.2316357847
 10
3.6783644525
 20
16.241780187
 10
3.8027592243
 20
16.2596761599
 10
3.9261730352
 20
16.2853245435
 10
4.0486058853
 20
16.3187252987
  0
LWPOLYLINE
  5
4E8
100
AcDbEntity
  8
0
100
AcDbPolyline
 62
7
  6
CONTINUOUS
 90
4
 70
0
 10
2.6824352277
 20
-11.7603813376
 10
2.6815843751
 20
-11.7125382212
 10
2.6771654638
 20
-11.6654837297
 10
2.6691784935
 20
-11.6192178686
  0
LINE
  5
4E9
100
AcDbEntity
  8
0
100
AcDbLine
 62
7
  6
CONTINUOUS
 10
2.018425
 20
-17.893286
 11
2.018425
 21
-17.057151
  0
LINE
  5
4EA
100
AcDbEntity
  8
0
100
AcDbLine
 62
7
  6
CONTINUOUS
 10
2.018425
 20
-15.137013
 11
2.018425
 21
-14.300878
  0
LINE
  5
4EB
100
AcDbEntity
  8
0
100
AcDbLine
 62
7
  6
CONTINUOUS
 10
2.044033
 20
13.1478592795
 11
2.044033
 21
13.3359957459
  0
LINE
  5
4EC
100
AcDbEntity
  8
0
100
AcDbLine
 62
7
  6
CONTINUOUS
 10
2.16645
 20
11.7582520735
 11
2.16645
 21
12.632073786
  0
LINE
  5
4ED
100
AcDbEntity
  8
0
100
AcDbLine
 62
7
  6
CONTINUOUS
 10
2.1723478618
 20
13.1359222422
 11
2.1723478618
 21
13.4608482364
  0
LINE
  5
4EE
100
AcDbEntity
  8
0
100
AcDbLine
 62
7
  6
CONTINUOUS
 10
2.451858
 20
11.7582520735
 11
2.451858
 21
12.5137940707
  0
LINE
  5
4EF
100
AcDbEntity
  8
0
100
AcDbLine
 62
7
  6
CONTINUOUS
 10
2.49532
 20
-14.357559
 11
2.49532
 21
-15.137013
  0
LINE
  5
4F0
100
AcDbEntity
  8
0
100
AcDbLine
 62
7
  6
CONTINUOUS
 10
2.49532
 20
-17.113875
 11
2.49532
 21
-17.893286
  0
LINE
  5
4F1
100
AcDbEntity
  8
0
100
AcDbLine
 62
7
  6
CONTINUOUS
 10
2.6024478439
 20
-11.7456640409
 11
2.6024478439
 21
-12.273907111
  0
LINE
  5
4F2
100
AcDbEntity
  8
0
100
AcDbLine
 62
7
  6
CONTINUOUS
 10
2.663401
 20
-17.893286
 11
2.663401
 21
-17.113875
  0
LINE
  5
4F3
100
AcDbEntity
  8
0
100
AcDbLine
 62
7
  6
CONTINUOUS
 10
2.663401
 20
-15.137013
 11
2.663401
 21
-14.357559
  0
LINE
  5
4F4
100
AcDbEntity
  8
0
100
AcDbLine
 62
7
  6
CONTINUOUS
 10
2.6824352277
 20
-12.273907111
 11
2.6824352277
 21
-11.7603813376
  0
LINE
  5
4F5
100
AcDbEntity
  8
DRAFT
100
AcDbLine
 62
7
  6
CONTINUOUS
 10
3.1
 20
-21.2
 11
3.1
 21
-22.4
  0
LINE
  5
4F6
100
AcDbEntity
  8
DRAFT
100
AcDbLine
 62
7
  6
CONTINUOUS
 10
3.1
 20
21.2
 11
3.1
 21
22.4
  0
LINE
  5
4F7
100
AcDbEntity
  8
0
100
AcDbLine
 62
7
  6
CONTINUOUS
 10
3.182302
 20
-14.29455
 11
3.182302
 21
-15.137013
  0
LINE
  5
4F8
100
AcDbEntity
  8
0
100
AcDbLine
 62
7
  6
CONTINUOUS
 10
3.182302
 20
-17.050852
 11
3.182302
 21
-17.893286
  0
LINE
  5
4F9
100
AcDbEntity
  8
0
100
AcDbLine
 62
7
  6
CONTINUOUS
 10
3.350368
 20
-19.706303
 11
3.350368
 21
-19.517235
  0
LINE
  5
4FA
100
AcDbEntity
  8
0
100
AcDbLine
 62
7
  6
CONTINUOUS
 10
3.350368
 20
-18.729391
 11
3.350368
 21
-18.510901
  0
LINE
  5
4FB
100
AcDbEntity
  8
0
100
AcDbLine
 62
7
  6
CONTINUOUS
 10
3.350368
 20
-18.092878
 11
3.350368
 21
-17.050852
  0
LINE
  5
4FC
100
AcDbEntity
  8
0
100
AcDbLine
 62
7
  6
CONTINUOUS
 10
3.350368
 20
-15.336591
 11
3.350368
 21
-14.29455
  0
LINE
  5
4FD
100
AcDbEntity
  8
0
100
AcDbLine
 62
7
  6
CONTINUOUS
 10
3.350372
 20
-16.351297
 11
3.350372
 21
-16.124417
  0
LINE
  5
4FE
100
AcDbEntity
  8
0
100
AcDbLine
 62
7
  6
CONTINUOUS
 10
3.3517129103
 20
-12.3665652392
 11
3.3517129103
 21
-12.273907111
  0
LWPOLYLINE
  5
4FF
100
AcDbEntity
  8
0
100
AcDbPolyline
 62
7
  6
CONTINUOUS
 90
4
 70
0
 10
1.9289473031
 20
-11.733050579
 10
1.929599077
 20
-11.6902726534
 10
1.9346917304
 20
-11.648997863
 10
1.944225263
 20
-11.609226217
  0
LWPOLYLINE
  5
500
100
AcDbEntity
  8
0
100
AcDbPolyline
 62
7
  6
CONTINUOUS
 90
19
 70
0
 10
3.3075273882
 20
-13.2167063217
 10
3.3066637504
 20
-13.2602849696
 10
3.3024512943
 20
-13.3028110807
 10
3.2948900199
 20
-13.3442846618
 10
3.2840134863
 20
-13.3852684936
 10
3.2697881344
 20
-13.4251998065
 10
3.2521132869
 20
-13.4623902917
 10
3.2305725626
 20
-13.4963778589
 10
3.2055823426
 20
-13.5276246317
 10
3.1782910931
 20
-13.555828633
 10
3.1487879932
 20
-13.5808315443
 10
3.1169838637
 20
-13.602791711
 10
3.0837596332
 20
-13.6218821512
 10
3.0491084575
 20
-13.6379486709
 10
3.0130371809
 20
-13.6511454809
 10
2.9764472642
 20
-13.6621082031
 10
2.9395661533
 20
-13.6708285987
 10
2.9021664024
 20
-13.6773149136
 10
2.864467135
 20
-13.6822274931
  0
LWPOLYLINE
  5
501
100
AcDbEntity
  8
0
100
AcDbPolyline
 62
7
  6
CONTINUOUS
 90
10
 70
0
 10
4.9725022988
 20
18.1750743383
 10
4.9597294432
 20
18.0491024241
 10
4.9365224877
 20
17.9237133912
 10
4.9037778918
 20
17.8022835676
 10
4.8611774248
 20
17.6852926625
 10
4.8090393174
 20
17.5722611918
 10
4.7492147206
 20
17.4651268252
 10
4.6823206847
 20
17.3645355622
 10
4.6077401595
 20
17.2698416807
 10
4.5254731449
 20
17.1810453012
  0
LWPOLYLINE
  5
502
100
AcDbEntity
  8
0
100
AcDbPolyline
 62
7
  6
CONTINUOUS
 90
3
 70
0
 10
1.8547115777
 20
-11.6335730323
 10
1.8498128194
 20
-11.6796710259
 10
1.8489599193
 20
-11.726722584
  0
LINE
  5
503
100
AcDbEntity
  8
0
100
AcDbLine
 62
7
  6
CONTINUOUS
 10
-1.7967842481
 20
-17.9276268183
 11
-1.8019203385
 21
-17.9465360417
  0
LINE
  5
504
100
AcDbEntity
  8
DRAFT
100
AcDbLine
 62
7
  6
CONTINUOUS
 10
-2.6768152463
 20
-21.2
 11
-3.0118365096
 21
-22.4
  0
LINE
  5
505
100
AcDbEntity
  8
DRAFT
100
AcDbLine
 62
7
  6
CONTINUOUS
 10
-3.9733373476
 20
-23.5
 11
-3.9526845545
 21
-23.4301797403
  0
LWPOLYLINE
  5
506
100
AcDbEntity
  8
0
100
AcDbPolyline
 62
7
  6
CONTINUOUS
 90
15
 70
0
 10
-1.6657473936
 20
-17.9297770484
 10
-1.6561755686
 20
-17.8981557582
 10
-1.6502844273
 20
-17.8671138323
 10
-1.6480739696
 20
-17.8366512747
 10
-1.649513793
 20
-17.8063918303
 10
-1.6546343
 20
-17.7767117604
 10
-1.6635266986
 20
-17.7487398511
 10
-1.6764923133
 20
-17.7227294359
 10
-1.6932298196
 20
-17.6984272022
 10
-1.7129264523
 20
-17.6762019748
 10
-1.7357721238
 20
-17.6564449059
 10
-1.7615769217
 20
-17.6387648632
 10
-1.7889583444
 20
-17.6223572433
 10
-1.8174084151
 20
-17.6072965157
 10
-1.8474351106
 20
-17.5935082196
  0
LWPOLYLINE
  5
507
100
AcDbEntity
  8
RACCORDO
100
AcDbPolyline
 62
250
  6
CONTINUOUS
 90
4
 70
0
 10
-6.67521242
 20
-20.1707191451
 10
-6.6668092065
 20
-20.1533149498
 10
-6.66166905
 20
-20.1353593577
 10
-6.6598468471
 20
-20.1171572875
  0
LWPOLYLINE
  5
508
100
AcDbEntity
  8
0
100
AcDbPolyline
 62
7
  6
CONTINUOUS
 90
3
 70
0
 10
-4.4498906295
 20
-14.0320087586
 10
-4.464139879
 20
-14.0609165008
 10
-4.4821445428
 20
-14.0880565103
  0
LINE
  5
509
100
AcDbEntity
  8
0
100
AcDbLine
 62
7
  6
CONTINUOUS
 10
-8.5872340679
 20
-6.685
 11
-7.8
 21
-6.3933333433
  0
LINE
  5
50A
100
AcDbEntity
  8
0
100
AcDbLine
 62
7
  6
CONTINUOUS
 10
-8.8
 20
-6.6225
 11
-7.9063829809
 21
-6.31
  0
LINE
  5
50B
100
AcDbEntity
  8
0
100
AcDbLine
 62
7
  6
CONTINUOUS
 10
-8.8
 20
-5.1433333731
 11
-7.8
 21
-4.81
  0
LINE
  5
50C
100
AcDbEntity
  8
0
100
AcDbLine
 62
7
  6
CONTINUOUS
 10
-8.7148936272
 20
-5.2266666269
 11
-8.1404255211
 21
-5.0391666269
  0
LINE
  5
50D
100
AcDbEntity
  8
0
100
AcDbLine
 62
7
  6
CONTINUOUS
 10
-8.0553191483
 20
-5.0183333731
 11
-7.8
 21
-4.935
  0
LINE
  5
50E
100
AcDbEntity
  8
0
100
AcDbLine
 62
7
  6
CONTINUOUS
 10
-8.1404255211
 20
1.6483330154
 11
-8.0553191483
 21
1.6691669846
  0
LINE
  5
50F
100
AcDbEntity
  8
0
100
AcDbLine
 62
7
  6
CONTINUOUS
 10
-8.1404255211
 20
1.5233330154
 11
-8.0340425551
 21
1.5441669846
  0
LINE
  5
510
100
AcDbEntity
  8
0
100
AcDbLine
 62
7
  6
CONTINUOUS
 10
-8.8
 20
2.1483330154
 11
-8.1404255211
 21
2.1483330154
  0
LINE
  5
511
100
AcDbEntity
  8
0
100
AcDbLine
 62
7
  6
CONTINUOUS
 10
-8.8
 20
2.2733330154
 11
-8.1404255211
 21
2.2733330154
  0
LINE
  5
512
100
AcDbEntity
  8
0
100
AcDbLine
 62
7
  6
CONTINUOUS
 10
-8.8
 20
2.44
 11
-7.8
 21
2.44
  0
LINE
  5
513
100
AcDbEntity
  8
0
100
AcDbLine
 62
7
  6
CONTINUOUS
 10
-8.6723404408
 20
2.565
 11
-7.8
 21
2.565
  0
LINE
  5
514
100
AcDbEntity
  8
0
100
AcDbLine
 62
7
  6
CONTINUOUS
 10
-8.8
 20
3.1483330154
 11
-7.9489361674
 21
3.1483330154
  0
LINE
  5
515
100
AcDbEntity
  8
0
100
AcDbLine
 62
7
  6
CONTINUOUS
 10
-8.8
 20
3.2733330154
 11
-7.8
 21
3.2733330154
  0
LINE
  5
516
100
AcDbEntity
  8
0
100
AcDbLine
 62
7
  6
CONTINUOUS
 10
-8.8
 20
3.44
 11
-7.8
 21
3.44
  0
LINE
  5
517
100
AcDbEntity
  8
0
100
AcDbLine
 62
7
  6
CONTINUOUS
 10
-8.8
 20
3.565
 11
-7.8
 21
3.565
  0
LINE
  5
518
100
AcDbEntity
  8
0
100
AcDbLine
 62
7
  6
CONTINUOUS
 10
-8.1404255211
 20
5.19
 11
-8.7148936272
 21
5.3775
  0
LINE
  5
519
100
AcDbEntity
  8
0
100
AcDbLine
 62
7
  6
CONTINUOUS
 10
-7.8
 20
5.0858330154
 11
-8.0553191483
 21
5.1691669846
  0
LINE
  5
51A
100
AcDbEntity
  8
0
100
AcDbLine
 62
7
  6
CONTINUOUS
 10
-7.8
 20
4.9608330154
 11
-8.8
 21
5.2941669846
  0
LINE
  5
51B
100
AcDbEntity
  8
DRAFT
100
AcDbLine
 62
7
  6
CONTINUOUS
 10
8.7584611066
 20
-10.4384918414
 11
8.6937231785
 21
-10.3007591949
  0
LINE
  5
51C
100
AcDbEntity
  8
DRAFT
100
AcDbLine
 62
7
  6
CONTINUOUS
 10
-3.9733373476
 20
23.5
 11
-3.9526845545
 21
23.4301797403
  0
LINE
  5
51D
100
AcDbEntity
  8
DRAFT
100
AcDbLine
 62
7
  6
CONTINUOUS
 10
-3.0118365096
 20
22.4
 11
-2.6768152463
 21
21.2
  0
LWPOLYLINE
  5
51E
100
AcDbEntity
  8
0
100
AcDbPolyline
 62
7
  6
CONTINUOUS
 90
3
 70
0
 10
1.0932678937
 20
11.3956872582
 10
1.08006388
 20
11.4566838022
 10
1.0684081889
 20
11.5190395057
  0
LINE
  5
51F
100
AcDbEntity
  8
0
100
AcDbLine
 62
7
  6
CONTINUOUS
 10
1.0684081889
 20
11.5190395057
 11
1.0583008205
 21
11.5827543559
  0
LWPOLYLINE
  5
520
100
AcDbEntity
  8
0
100
AcDbPolyline
 62
7
  6
CONTINUOUS
 90
4
 70
0
 10
1.0583008205
 20
11.5827543559
 10
1.0497417748
 20
11.6478283397
 10
1.0427310517
 20
11.7142614436
 10
1.0372686513
 20
11.7820536536
  0
LWPOLYLINE
  5
521
100
AcDbEntity
  8
0
100
AcDbPolyline
 62
7
  6
CONTINUOUS
 90
5
 70
0
 10
0.899961753
 20
11.6729933325
 10
0.905880876
 20
11.6197441721
 10
0.9128091874
 20
11.5673490211
 10
0.920746687
 20
11.5158078864
 10
0.929693375
 20
11.4651207748
  0
LWPOLYLINE
  5
522
100
AcDbEntity
  8
RACCORDO
100
AcDbPolyline
 62
250
  6
CONTINUOUS
 90
4
 70
0
 10
6.6598468471
 20
-20.1171572875
 10
6.66166905
 20
-20.1353593577
 10
6.6668092065
 20
-20.1533149498
 10
6.67521242
 20
-20.1707191451
  0
LWPOLYLINE
  5
523
100
AcDbEntity
  8
RACCORDO
100
AcDbPolyline
 62
7
  6
CONTINUOUS
 90
16
 70
0
 10
5.6226915844
 20
-4.9248051057
 10
5.6243296094
 20
-4.9417286954
 10
5.6282388782
 20
-4.9574048732
 10
5.6344193906
 20
-4.9718336391
 10
5.643150933
 20
-4.9853106306
 10
5.654153719
 20
-4.9975402101
 10
5.6665883903
 20
-5.0076354655
 10
5.6805572872
 20
-5.0154392143
 10
5.6959580693
 20
-5.0211086389
 10
5.7116443572
 20
-5.0242283749
 10
5.7276415522
 20
-5.0246062025
 10
5.7439242531
 20
-5.0224343414
 10
5.7592698762
 20
-5.0178740858
 10
5.7732708935
 20
-5.0109792004
 10
5.786334833
 20
-5.0016959205
 10
5.7984616946
 20
-4.9900242461
  0
LINE
  5
524
100
AcDbEntity
  8
DRAFT
100
AcDbLine
 62
7
  6
CONTINUOUS
 10
3.75
 20
21.2
 11
3.75
 21
21.1647852141
  0
LINE
  5
525
100
AcDbEntity
  8
DRAFT
100
AcDbLine
 62
7
  6
CONTINUOUS
 10
3.75
 20
-21.2
 11
3.75
 21
-21.1647852141
  0
LINE
  5
526
100
AcDbEntity
  8
0
100
AcDbLine
 62
7
  6
CONTINUOUS
 10
4.6341225209
 20
11.2947179954
 11
4.6341225209
 21
12.4461009411
  0
LINE
  5
527
100
AcDbEntity
  8
0
100
AcDbLine
 62
7
  6
CONTINUOUS
 10
4.7768149081
 20
11.4858861471
 11
4.7768149081
 21
12.4907062385
  0
LINE
  5
528
100
AcDbEntity
  8
0
100
AcDbLine
 62
7
  6
CONTINUOUS
 10
4.9915248819
 20
11.2215203774
 11
4.9915248819
 21
11.4858861471
  0
LWPOLYLINE
  5
529
100
AcDbEntity
  8
RACCORDO
100
AcDbPolyline
 62
7
  6
CONTINUOUS
 90
16
 70
0
 10
5.6100308043
 20
4.9588093923
 10
5.6116049835
 20
4.9755285587
 10
5.6154420595
 20
4.991055662
 10
5.6215420323
 20
5.0053907034
 10
5.6301757288
 20
5.01883949
 10
5.6410723221
 20
5.0310962166
 10
5.6534193318
 20
5.0412434658
 10
5.667327762
 20
5.0491208091
 10
5.6826866086
 20
5.0548886774
 10
5.6983503785
 20
5.0581109441
 10
5.7143419456
 20
5.0585969266
 10
5.7306384361
 20
5.0565373081
 10
5.7460257356
 20
5.0520680098
 10
5.7600991396
 20
5.0452343384
 10
5.7732633526
 20
5.0359909855
 10
5.7855183748
 20
5.0243379499
  0
LWPOLYLINE
  5
52A
100
AcDbEntity
  8
0
100
AcDbPolyline
 62
7
  6
CONTINUOUS
 90
6
 70
0
 10
3.3811343505
 20
-13.3217727522
 10
3.3855762959
 20
-13.2762845604
 10
3.3875846414
 20
-13.2297986112
 10
3.3871148727
 20
-13.1824956655
 10
3.3842658387
 20
-13.1360422069
 10
3.3791346774
 20
-13.0906173828
  0
LWPOLYLINE
  5
52B
100
AcDbEntity
  8
0
100
AcDbPolyline
 62
7
  6
CONTINUOUS
 90
10
 70
0
 10
-4.2395170273
 20
-13.7760637904
 10
-4.2200391184
 20
-13.7461869586
 10
-4.1969286469
 20
-13.7186434655
 10
-4.1708685109
 20
-13.6945050117
 10
-4.1414724779
 20
-13.6739750158
 10
-4.1091267804
 20
-13.6568500851
 10
-4.0756730144
 20
-13.6435917061
 10
-4.0417250453
 20
-13.6343537131
 10
-4.0066690078
 20
-13.6289822865
 10
-3.9705049017
 20
-13.6274774297
  0
LWPOLYLINE
  5
52C
100
AcDbEntity
  8
0
100
AcDbPolyline
 62
7
  6
CONTINUOUS
 90
58
 70
0
 10
2.8103485467
 20
-3.121208267
 10
2.9323782213
 20
-3.0154508878
 10
3.0495148424
 20
-2.9061318768
 10
3.1617584102
 20
-2.7932512338
 10
3.2691552761
 20
-2.6766124849
 10
3.3716590887
 20
-2.556412104
 10
3.469130793
 20
-2.4332395137
 10
3.5612257085
 20
-2.3078276158
 10
3.6482885158
 20
-2.1794435083
 10
3.7312142023
 20
-2.0464779078
 10
3.8102119303
 20
-1.9094495816
 10
3.8850725374
 20
-1.7678397622
 10
3.9560635235
 20
-1.6184828641
 10
4.0238529812
 20
-1.4612073705
 10
4.0877728177
 20
-1.2961847981
 10
4.1460862552
 20
-1.1207641115
 10
4.199442499
 20
-0.9332654292
 10
4.2471923436
 20
-0.7353686328
 10
4.2856513946
 20
-0.5294623319
 10
4.3143508118
 20
-0.314201959
 10
4.3337594354
 20
-0.0909320816
 10
4.3415993916
 20
0.1339249882
 10
4.3372007528
 20
0.3591040256
 10
4.3212334466
 20
0.5858702553
 10
4.293429383
 20
0.81159704
 10
4.2535217725
 20
1.0362886632
 10
4.2017774047
 20
1.2599408413
 10
4.1387285574
 20
1.4799140866
 10
4.0642511448
 20
1.6959324326
 10
3.9784692528
 20
1.9082718458
 10
3.8822874168
 20
2.1151207378
 10
3.7759791051
 20
2.3160083809
 10
3.6592708493
 20
2.5114055029
 10
3.5322467807
 20
2.7009126982
 10
3.3944938741
 20
2.8850970472
 10
3.2464251546
 20
3.0633914696
 10
3.0893638279
 20
3.2336953185
 10
2.9230391416
 20
3.3959177215
 10
2.7477218481
 20
3.5501495509
 10
2.5655474103
 20
3.6945627771
 10
2.3767216041
 20
3.8287840473
 10
2.1810386536
 20
3.9531867142
 10
1.980016694
 20
4.0670628072
 10
1.7737433493
 20
4.1703340705
 10
1.5621309955
 20
4.2630787599
 10
1.3464348952
 20
4.3448236716
 10
1.1270470692
 20
4.4155588706
 10
0.9035754967
 20
4.475294292
 10
0.676099378
 20
4.5235865371
 10
0.4436613848
 20
4.560567641
 10
0.2072188454
 20
4.5861055687
 10
-0.0302770549
 20
4.599360816
 10
-0.2694519907
 20
4.5998305248
 10
-0.5096802874
 20
4.5880175531
 10
-0.7461337355
 20
4.564590972
 10
-0.977202932
 20
4.5297738051
 10
-1.2044972801
 20
4.4833430286
 10
-1.4280167796
 20
4.4252986427
  0
LINE
  5
52D
100
AcDbEntity
  8
0
100
AcDbLine
 62
7
  6
CONTINUOUS
 10
5.4377115186
 20
-3.0812
 11
0.0
 21
-6.25
  0
LINE
  5
52E
100
AcDbEntity
  8
0
100
AcDbLine
 62
7
  6
CONTINUOUS
 10
-8.5659574747
 20
3.7941669846
 11
-8.4808510423
 21
3.7941669846
  0
LINE
  5
52F
100
AcDbEntity
  8
0
100
AcDbLine
 62
7
  6
CONTINUOUS
 10
-8.5446808219
 20
3.9191669846
 11
-8.5021276355
 21
3.9191669846
  0
LINE
  5
530
100
AcDbEntity
  8
0
100
AcDbLine
 62
7
  6
CONTINUOUS
 10
-8.1191489279
 20
4.3775
 11
-8.0553191483
 21
4.3775
  0
LINE
  5
531
100
AcDbEntity
  8
0
100
AcDbLine
 62
7
  6
CONTINUOUS
 10
-8.1404255211
 20
4.5025
 11
-8.0340425551
 21
4.5025
  0
LINE
  5
532
100
AcDbEntity
  8
0
100
AcDbLine
 62
7
  6
CONTINUOUS
 10
-8.8
 20
4.6691669846
 11
-7.8
 21
4.6691669846
  0
LINE
  5
533
100
AcDbEntity
  8
0
100
AcDbLine
 62
7
  6
CONTINUOUS
 10
-8.8
 20
4.7941669846
 11
-7.8
 21
4.7941669846
  0
LINE
  5
534
100
AcDbEntity
  8
0
100
AcDbLine
 62
7
  6
CONTINUOUS
 10
0.0
 20
6.25
 11
5.4377115186
 21
3.0812
  0
LINE
  5
535
100
AcDbEntity
  8
RACCORDO
100
AcDbLine
 62
7
  6
CONTINUOUS
 10
9.583581878
 20
-9.5663944438
 11
9.65
 21
-9.6992408051
  0
LWPOLYLINE
  5
536
100
AcDbEntity
  8
RACCORDO
100
AcDbPolyline
 62
7
  6
CONTINUOUS
 90
4
 70
0
 10
7.3089365232
 20
-18.7
 10
7.3071842988
 20
-18.6739981974
 10
7.3020705504
 20
-18.6484605873
 10
7.2936811322
 20
-18.6238056948
  0
LWPOLYLINE
  5
537
100
AcDbEntity
  8
RACCORDO
100
AcDbPolyline
 62
7
  6
CONTINUOUS
 90
7
 70
0
 10
6.3
 20
4.3084267572
 10
6.2994302968
 20
4.3187437371
 10
6.2978966059
 20
4.3287376882
 10
6.2953989272
 20
4.3384086107
 10
6.2919372608
 20
4.3477565045
 10
6.2875116066
 20
4.3567813695
 10
6.2821219647
 20
4.3654832059
  0
LINE
  5
538
100
AcDbEntity
  8
RACCORDO
100
AcDbLine
 62
250
  6
CONTINUOUS
 10
6.6200664561
 20
-18.7
 11
6.5153193024
 21
-15.4838500694
  0
LINE
  5
539
100
AcDbEntity
  8
RACCORDO
100
AcDbLine
 62
250
  6
CONTINUOUS
 10
6.8198368876
 20
-18.5
 11
6.7148190698
 21
-15.2755396155
  0
LWPOLYLINE
  5
53A
100
AcDbEntity
  8
RACCORDO
100
AcDbPolyline
 62
250
  6
CONTINUOUS
 90
4
 70
0
 10
6.8578578064
 20
-18.5150141001
 10
6.8576438686
 20
-18.5064813311
 10
6.8574316569
 20
-18.5015710627
 10
6.8572211714
 20
-18.5
  0
LWPOLYLINE
  5
53B
100
AcDbEntity
  8
RACCORDO
100
AcDbPolyline
 62
250
  6
CONTINUOUS
 90
6
 70
0
 10
6.6583046098
 20
-18.7265437312
 10
6.6580841085
 20
-18.7166156985
 10
6.657865331
 20
-18.7090041923
 10
6.6576514257
 20
-18.7036862684
 10
6.6574392443
 20
-18.700684871
 10
6.6572287868
 20
-18.7
  0
LINE
  5
53C
100
AcDbEntity
  8
RACCORDO
100
AcDbLine
 62
250
  6
CONTINUOUS
 10
7.0425072881
 20
-21.0094865114
 11
7.0294001425
 21
-20.2585786438
  0
LINE
  5
53D
100
AcDbEntity
  8
RACCORDO
100
AcDbLine
 62
250
  6
CONTINUOUS
 10
7.2419286989
 20
-20.8366629075
 11
7.2293696815
 21
-20.1171572875
  0
LINE
  5
53E
100
AcDbEntity
  8
RACCORDO
100
AcDbLine
 62
250
  6
CONTINUOUS
 10
6.6587222959
 20
-18.7537847545
 11
6.6583046098
 21
-18.7265437312
  0
LINE
  5
53F
100
AcDbEntity
  8
RACCORDO
100
AcDbLine
 62
250
  6
CONTINUOUS
 10
6.8582971659
 20
-18.544124914
 11
6.8578578064
 21
-18.5150141001
  0
LINE
  5
540
100
AcDbEntity
  8
RACCORDO
100
AcDbLine
 62
250
  6
CONTINUOUS
 10
6.6558702077
 20
20.5728350282
 11
6.6598468471
 21
20.1171572875
  0
LINE
  5
541
100
AcDbEntity
  8
RACCORDO
100
AcDbLine
 62
250
  6
CONTINUOUS
 10
6.8556039598
 20
20.7438927334
 11
6.8598392317
 21
20.2585786438
  0
LINE
  5
542
100
AcDbEntity
  8
RACCORDO
100
AcDbLine
 62
250
  6
CONTINUOUS
 10
6.6592621331
 20
-18.8111757553
 11
6.6587222959
 21
-18.7537847545
  0
LINE
  5
543
100
AcDbEntity
  8
RACCORDO
100
AcDbLine
 62
250
  6
CONTINUOUS
 10
6.8589120864
 20
-18.6182987462
 11
6.8582971659
 21
-18.544124914
  0
LINE
  5
544
100
AcDbEntity
  8
RACCORDO
100
AcDbLine
 62
250
  6
CONTINUOUS
 10
6.6597765552
 20
-18.9309505512
 11
6.6592621331
 21
-18.8111757553
  0
LINE
  5
545
100
AcDbEntity
  8
RACCORDO
100
AcDbLine
 62
250
  6
CONTINUOUS
 10
7.0294550094
 20
18.9247049643
 11
7.0302764825
 21
18.7233617108
  0
LINE
  5
546
100
AcDbEntity
  8
RACCORDO
100
AcDbLine
 62
250
  6
CONTINUOUS
 10
6.8597689629
 20
-18.8849468293
 11
6.8589120864
 21
-18.6182987462
  0
LINE
  5
547
100
AcDbEntity
  8
RACCORDO
100
AcDbLine
 62
250
  6
CONTINUOUS
 10
6.6598468471
 20
-19.0
 11
6.6597765552
 21
-18.9309505512
  0
LINE
  5
548
100
AcDbEntity
  8
0
100
AcDbLine
 62
7
  6
CONTINUOUS
 10
5.4377115186
 20
3.0812
 11
5.4377115186
 21
-3.0812
  0
LINE
  5
549
100
AcDbEntity
  8
DRAFT
100
AcDbLine
 62
7
  6
CONTINUOUS
 10
5.6
 20
5.2117655358
 11
5.6
 21
-5.2117655358
  0
LINE
  5
54A
100
AcDbEntity
  8
RACCORDO
100
AcDbLine
 62
7
  6
CONTINUOUS
 10
5.6226915844
 20
4.9248051057
 11
5.6226915844
 21
-4.9248051057
  0
LINE
  5
54B
100
AcDbEntity
  8
RACCORDO
100
AcDbLine
 62
7
  6
CONTINUOUS
 10
6.3
 20
-4.3084267572
 11
6.3
 21
4.3084267572
  0
LINE
  5
54C
100
AcDbEntity
  8
0
100
AcDbLine
 62
7
  6
CONTINUOUS
 10
6.493211
 20
9.9333350472
 11
6.493211
 21
14.0666649528
  0
LINE
  5
54D
100
AcDbEntity
  8
0
100
AcDbLine
 62
7
  6
CONTINUOUS
 10
6.5
 20
15.2124015748
 11
6.5
 21
16.2290675115
  0
LINE
  5
54E
100
AcDbEntity
  8
RACCORDO
100
AcDbLine
 62
7
  6
CONTINUOUS
 10
6.6598468471
 20
20.1171572875
 11
6.6598468471
 21
19.0
  0
LINE
  5
54F
100
AcDbEntity
  8
RACCORDO
100
AcDbLine
 62
7
  6
CONTINUOUS
 10
6.6598468471
 20
-20.1171572875
 11
6.6598468471
 21
-19.0
  0
LINE
  5
550
100
AcDbEntity
  8
RACCORDO
100
AcDbLine
 62
250
  6
CONTINUOUS
 10
6.8598392317
 20
-20.2585786438
 11
6.8597689629
 21
-18.8849468293
  0
LINE
  5
551
100
AcDbEntity
  8
RACCORDO
100
AcDbLine
 62
250
  6
CONTINUOUS
 10
7.0294550094
 20
18.9247049643
 11
7.0294001425
 21
20.2585786438
  0
LINE
  5
552
100
AcDbEntity
  8
0
100
AcDbLine
 62
7
  6
CONTINUOUS
 10
6.5155248515
 20
16.2271963497
 11
6.5167082077
 21
19.9580320107
  0
LINE
  5
553
100
AcDbEntity
  8
RACCORDO
100
AcDbLine
 62
250
  6
CONTINUOUS
 10
6.8598392317
 20
20.2585786438
 11
6.8592321097
 21
18.6801191672
  0
LINE
  5
554
100
AcDbEntity
  8
RACCORDO
100
AcDbLine
 62
250
  6
CONTINUOUS
 10
7.0294001425
 20
-20.2585786438
 11
7.0298548336
 21
-18.7965852034
  0
LINE
  5
555
100
AcDbEntity
  8
RACCORDO
100
AcDbLine
 62
250
  6
CONTINUOUS
 10
6.6598468471
 20
19.0
 11
6.6595136004
 21
18.8535433406
  0
LINE
  5
556
100
AcDbEntity
  8
RACCORDO
100
AcDbLine
 62
250
  6
CONTINUOUS
 10
7.0298548336
 20
-18.7965852034
 11
7.0303183743
 21
-18.7173757397
  0
LINE
  5
557
100
AcDbEntity
  8
RACCORDO
100
AcDbLine
 62
250
  6
CONTINUOUS
 10
6.8592321097
 20
18.6801191672
 11
6.8584924692
 21
18.5629094278
  0
LINE
  5
558
100
AcDbEntity
  8
RACCORDO
100
AcDbLine
 62
250
  6
CONTINUOUS
 10
6.6582724256
 20
-20.2975681228
 11
6.6598468471
 21
-20.1171572875
  0
LINE
  5
559
100
AcDbEntity
  8
RACCORDO
100
AcDbLine
 62
250
  6
CONTINUOUS
 10
6.8598392317
 20
-20.2585786438
 11
6.8580061777
 21
-20.4686258279
  0
LINE
  5
55A
100
AcDbEntity
  8
RACCORDO
100
AcDbLine
 62
250
  6
CONTINUOUS
 10
6.6595136004
 20
18.8535433406
 11
6.6588973716
 21
18.7689459364
  0
LWPOLYLINE
  5
55B
100
AcDbEntity
  8
RACCORDO
100
AcDbPolyline
 62
250
  6
CONTINUOUS
 90
6
 70
0
 10
6.8584924692
 20
18.5629094278
 10
6.858064508
 20
18.5266899686
 10
6.8578486339
 20
18.5145705904
 10
6.8576376605
 20
18.5062894625
 10
6.8574285064
 20
18.5015245106
 10
6.8572211714
 20
18.5
  0
LWPOLYLINE
  5
55C
100
AcDbEntity
  8
RACCORDO
100
AcDbPolyline
 62
250
  6
CONTINUOUS
 90
8
 70
0
 10
6.6588973716
 20
18.7689459364
 10
6.6584997794
 20
18.7377325012
 10
6.6582894159
 20
18.7257751862
 10
6.658071608
 20
18.7161265276
 10
6.6578557061
 20
18.708730302
 10
6.657644827
 20
18.7035677683
 10
6.6574358539
 20
18.7006576676
 10
6.6572287868
 20
18.7
  0
LINE
  5
55D
100
AcDbEntity
  8
RACCORDO
100
AcDbLine
 62
250
  6
CONTINUOUS
 10
7.0425072881
 20
21.0094865114
 11
7.0294001425
 21
20.2585786438
  0
LINE
  5
55E
100
AcDbEntity
  8
RACCORDO
100
AcDbLine
 62
250
  6
CONTINUOUS
 10
7.2419286989
 20
20.8366629075
 11
7.2293696815
 21
20.1171572875
  0
LWPOLYLINE
  5
55F
100
AcDbEntity
  8
0
100
AcDbPolyline
 62
7
  6
CONTINUOUS
 90
13
 70
0
 10
6.5
 20
18.262401574
 10
6.4959804971
 20
18.1053160065
 10
6.4840125371
 20
17.9492826251
 10
6.4640961198
 20
17.7943014811
 10
6.4361631174
 20
17.639868501
 10
6.4002816577
 20
17.4864878472
 10
6.356656125
 20
17.3356719727
 10
6.3051141063
 20
17.1874885486
 10
6.2458280145
 20
17.0418700932
 10
6.1795194724
 20
16.9001264147
 10
6.1064290209
 20
16.7626942143
 10
6.0263161192
 20
16.6291370423
 10
5.9391807672
 20
16.4994550129
  0
LINE
  5
560
100
AcDbEntity
  8
0
100
AcDbLine
 62
250
  6
CONTINUOUS
 10
6.5153181259
 20
15.4838139458
 11
6.6200664561
 21
18.7
  0
LINE
  5
561
100
AcDbEntity
  8
RACCORDO
100
AcDbLine
 62
250
  6
CONTINUOUS
 10
6.7148190698
 20
15.2755396155
 11
6.8198368876
 21
18.5
  0
LWPOLYLINE
  5
562
100
AcDbEntity
  8
RACCORDO
100
AcDbPolyline
 62
7
  6
CONTINUOUS
 90
13
 70
0
 10
7.5184775044
 20
15.483378525
 10
7.5167459172
 20
15.4557762904
 10
7.5115595482
 20
15.4288106788
 10
7.5030389781
 20
15.4029109815
 10
7.4913687432
 20
15.3784690173
 10
7.4767719554
 20
15.3558765062
 10
7.4594919121
 20
15.3355278816
 10
7.4398058361
 20
15.3177252699
 10
7.4180826208
 20
15.3027590431
 10
7.3947628176
 20
15.2909290282
 10
7.3702803715
 20
15.2824077141
 10
7.3450382139
 20
15.2772639035
 10
7.319462557
 20
15.2755396155
  0
LWPOLYLINE
  5
563
100
AcDbEntity
  8
RACCORDO
100
AcDbPolyline
 62
250
  6
CONTINUOUS
 90
4
 70
0
 10
7.234606201
 20
18.7
 10
7.2328954339
 20
18.6738947616
 10
7.2277924042
 20
18.648236191
 10
7.2193844262
 20
18.6234633135
  0
LWPOLYLINE
  5
564
100
AcDbEntity
  8
RACCORDO
100
AcDbPolyline
 62
7
  6
CONTINUOUS
 90
4
 70
0
 10
7.3089365232
 20
18.7
 10
7.3071946849
 20
18.6741235681
 10
7.3021106415
 20
18.6486379494
 10
7.293751803
 20
18.6239765047
  0
LINE
  5
565
100
AcDbEntity
  8
RACCORDO
100
AcDbLine
 62
250
  6
CONTINUOUS
 10
9.3501255952
 20
20.9
 11
9.2879615093
 21
20.5266837345
  0
LINE
  5
566
100
AcDbEntity
  8
RACCORDO
100
AcDbLine
 62
250
  6
CONTINUOUS
 10
9.65
 20
20.5997254977
 11
9.5879500862
 21
20.2270948741
  0
LWPOLYLINE
  5
567
100
AcDbEntity
  8
RACCORDO
100
AcDbPolyline
 62
7
  6
CONTINUOUS
 90
13
 70
0
 10
3.3744558057
 20
-9.5227226327
 10
3.3658534628
 20
-9.5572814807
 10
3.3538457081
 20
-9.5897816868
 10
3.3384325414
 20
-9.6202232513
 10
3.3193461135
 20
-9.6489239788
 10
3.2968542738
 20
-9.6755660646
 10
3.2717605702
 20
-9.6991960942
 10
3.2439195748
 20
-9.7197464553
 10
3.2134767157
 20
-9.7372847602
 10
3.1816718251
 20
-9.7510604314
 10
3.1489181806
 20
-9.7608232763
 10
3.1148025046
 20
-9.7668234874
 10
3.0793247973
 20
-9.7690610648
  0
LWPOLYLINE
  5
568
100
AcDbEntity
  8
RACCORDO
100
AcDbPolyline
 62
7
  6
CONTINUOUS
 90
40
 70
0
 10
3.2875298311
 20
-9.3327883395
 10
3.3414294373
 20
-9.1430530117
 10
3.4077824958
 20
-8.9591157732
 10
3.4865890065
 20
-8.7809767655
 10
3.5784023371
 20
-8.6077231596
 10
3.68266912
 20
-8.4402680331
 10
3.7977292519
 20
-8.2813504232
 10
3.923632464
 20
-8.1312465116
 10
4.060329025
 20
-7.9896804133
 10
4.2060096379
 20
-7.8585631203
 10
4.3609999849
 20
-7.7379186337
 10
4.5249743838
 20
-7.6277232187
 10
4.6951464908
 20
-7.5298162867
 10
4.8712978316
 20
-7.4445187345
 10
5.0536468804
 20
-7.3715098783
 10
5.2400627167
 20
-7.3116667583
 10
5.4310251839
 20
-7.2650834796
 10
5.6260544386
 20
-7.2316660627
 10
5.8215800299
 20
-7.2120094043
 10
6.0171089905
 20
-7.2063368478
 10
6.2131342878
 20
-7.2144250804
 10
6.4075643731
 20
-7.2361989913
 10
6.600910148
 20
-7.2719447855
 10
6.7926607109
 20
-7.3213761882
 10
6.9791918091
 20
-7.3835593483
 10
7.1599137609
 20
-7.4584937042
 10
7.3354162479
 20
-7.5461796586
 10
7.5038440617
 20
-7.645684794
 10
7.6655319021
 20
-7.7574509739
 10
7.8201450693
 20
-7.8810360914
 10
7.9648242559
 20
-8.0141817827
 10
8.0990960335
 20
-8.1567343833
 10
8.2234338305
 20
-8.3088472825
 10
8.3363986247
 20
-8.4687227315
 10
8.4380247193
 20
-8.6367312145
 10
8.5282778112
 20
-8.8125019471
 10
8.6056159684
 20
-8.9931253409
 10
8.6695252136
 20
-9.177631477
 10
8.7205195241
 20
-9.3669900456
 10
8.7585989
 20
-9.5612009164
  0
LWPOLYLINE
  5
569
100
AcDbEntity
  8
0
100
AcDbPolyline
 62
7
  6
CONTINUOUS
 90
9
 70
0
 10
1.944225263
 20
-11.609226217
 10
1.9582569722
 20
-11.5702173281
 10
1.9767295608
 20
-11.5327115979
 10
1.9994711371
 20
-11.4989302295
 10
2.0269426835
 20
-11.4693657951
 10
2.0586832177
 20
-11.443525757
 10
2.0931379012
 20
-11.4221536643
 10
2.1305846509
 20
-11.4055829729
 10
2.17074555
 20
-11.3934802509
  0
LWPOLYLINE
  5
56A
100
AcDbEntity
  8
RACCORDO
100
AcDbPolyline
 62
250
  6
CONTINUOUS
 90
10
 70
0
 10
2.9963855172
 20
-10.4384918414
 10
3.0051273534
 20
-10.4151799372
 10
3.0139874234
 20
-10.3919307654
 10
3.0229657274
 20
-10.3687443259
 10
3.0320620307
 20
-10.3456207718
 10
3.0412765678
 20
-10.32255995
 10
3.0506100427
 20
-10.2995614014
 10
3.0600626899
 20
-10.2766249729
 10
3.0696342747
 20
-10.2537508174
 10
3.0793247973
 20
-10.2309389352
  0
LWPOLYLINE
  5
56B
100
AcDbEntity
  8
0
100
AcDbPolyline
 62
7
  6
CONTINUOUS
 90
18
 70
0
 10
-4.2414039386
 20
-16.0954809503
 10
-4.2190696712
 20
-16.0624342093
 10
-4.1925731655
 20
-16.0334544235
 10
-4.1614004469
 20
-16.0087873717
 10
-4.1260654899
 20
-15.9881873184
 10
-4.0889695546
 20
-15.9725375588
 10
-4.0503915633
 20
-15.962019507
 10
-4.0100525935
 20
-15.9564517743
 10
-3.9695171375
 20
-15.9561734476
 10
-3.9283730583
 20
-15.961449744
 10
-3.8870324928
 20
-15.9720154412
 10
-3.8482963436
 20
-15.9874139605
 10
-3.812542009
 20
-16.0078593994
 10
-3.7793920907
 20
-16.0331376263
 10
-3.7505152964
 20
-16.0621497182
 10
-3.7261804283
 20
-16.0955873131
 10
-3.7061186842
 20
-16.1327587246
 10
-3.6911923658
 20
-16.170490067
  0
LWPOLYLINE
  5
56C
100
AcDbEntity
  8
0
100
AcDbPolyline
 62
7
  6
CONTINUOUS
 90
8
 70
0
 10
-4.4821445428
 20
-14.0880565103
 10
-4.5031157887
 20
-14.1117479296
 10
-4.5274738244
 20
-14.1315811396
 10
-4.5547984423
 20
-14.147965786
 10
-4.5830401864
 20
-14.1604499134
 10
-4.6115159048
 20
-14.1688828753
 10
-4.6409087495
 20
-14.1734153325
 10
-4.6712187205
 20
-14.1740472879
  0
LINE
  5
56D
100
AcDbEntity
  8
0
100
AcDbLine
 62
7
  6
CONTINUOUS
 10
-8.0765957415
 20
3.7316669846
 11
-7.9914893687
 21
3.7525
  0
LINE
  5
56E
100
AcDbEntity
  8
0
100
AcDbLine
 62
7
  6
CONTINUOUS
 10
-8.4808510423
 20
3.7941669846
 11
-8.3957446694
 21
3.815
  0
LWPOLYLINE
  5
56F
100
AcDbEntity
  8
0
100
AcDbPolyline
 62
7
  6
CONTINUOUS
 90
3
 70
0
 10
1.0417945088
 20
11.1151552301
 10
1.0607539799
 20
11.0804836176
 10
1.080886875
 20
11.0478975728
  0
LINE
  5
570
100
AcDbEntity
  8
0
100
AcDbLine
 62
7
  6
CONTINUOUS
 10
1.0240084615
 20
11.1519124002
 11
1.0417945088
 21
11.1151552301
  0
LWPOLYLINE
  5
571
100
AcDbEntity
  8
0
100
AcDbPolyline
 62
7
  6
CONTINUOUS
 90
14
 70
0
 10
4.1765425437
 20
12.8058958668
 10
4.1830520236
 20
12.7673482136
 10
4.1931543453
 20
12.7298745136
 10
4.2068495089
 20
12.6934747733
 10
4.2242904544
 20
12.657687529
 10
4.2453242419
 20
12.622974255
 10
4.2694920509
 20
12.5907193713
 10
4.2970036612
 20
12.5610681766
 10
4.3276492931
 20
12.5338753962
 10
4.3603407871
 20
12.5100895995
 10
4.3951785856
 20
12.4899396966
 10
4.4320622461
 20
12.4731968005
 10
4.4696022822
 20
12.4601227867
 10
4.5073355314
 20
12.4508049514
  0
LINE
  5
572
100
AcDbEntity
  8
RACCORDO
100
AcDbLine
 62
250
  6
CONTINUOUS
 10
9.3501255952
 20
-20.9
 11
9.2879615093
 21
-20.5266837345
  0
LINE
  5
573
100
AcDbEntity
  8
RACCORDO
100
AcDbLine
 62
250
  6
CONTINUOUS
 10
9.65
 20
-20.5997254977
 11
9.5879500862
 21
-20.2270948741
  0
LWPOLYLINE
  5
574
100
AcDbEntity
  8
RACCORDO
100
AcDbPolyline
 62
250
  6
CONTINUOUS
 90
5
 70
0
 10
9.5879500862
 20
-20.2270948741
 10
9.5877764426
 20
-20.2250020531
 10
9.5876085547
 20
-20.2210994734
 10
9.5874464226
 20
-20.2153871352
 10
9.5872886078
 20
-20.2077750951
  0
LINE
  5
575
100
AcDbEntity
  8
RACCORDO
100
AcDbLine
 62
250
  6
CONTINUOUS
 10
7.1094109243
 20
18.5
 11
7.319462557
 21
15.2755396155
  0
LINE
  5
576
100
AcDbEntity
  8
RACCORDO
100
AcDbLine
 62
250
  6
CONTINUOUS
 10
7.3089365232
 20
18.7
 11
7.5184775044
 21
15.483378525
  0
LWPOLYLINE
  5
577
100
AcDbEntity
  8
RACCORDO
100
AcDbPolyline
 62
250
  6
CONTINUOUS
 90
3
 70
0
 10
9.2879615093
 20
-20.5266837345
 10
9.2877878755
 20
-20.5216877301
 10
9.2876199879
 20
-20.5118970808
  0
LWPOLYLINE
  5
578
100
AcDbEntity
  8
RACCORDO
100
AcDbPolyline
 62
250
  6
CONTINUOUS
 90
8
 70
0
 10
7.2316159776
 20
18.7539032017
 10
7.2320259031
 20
18.7389509382
 10
7.2324517745
 20
18.7266130291
 10
7.2328932409
 20
18.7166600608
 10
7.2333313154
 20
18.7090286155
 10
7.2337596691
 20
18.703697554
 10
7.234184631
 20
18.7006880155
 10
7.234606201
 20
18.7
  0
LWPOLYLINE
  5
579
100
AcDbEntity
  8
RACCORDO
100
AcDbPolyline
 62
250
  6
CONTINUOUS
 90
6
 70
0
 10
7.032481887
 20
18.5442382846
 10
7.0329234369
 20
18.5275687847
 10
7.0333615908
 20
18.5150549444
 10
7.0337900106
 20
18.5064996115
 10
7.0342150343
 20
18.501575651
 10
7.034636662
 20
18.5
  0
LINE
  5
57A
100
AcDbEntity
  8
RACCORDO
100
AcDbLine
 62
250
  6
CONTINUOUS
 10
7.2308608451
 20
18.7903377281
 11
7.2316159776
 21
18.7539032017
  0
LINE
  5
57B
100
AcDbEntity
  8
RACCORDO
100
AcDbLine
 62
250
  6
CONTINUOUS
 10
7.0316459995
 20
18.5897453031
 11
7.032481887
 21
18.5442382846
  0
LINE
  5
57C
100
AcDbEntity
  8
RACCORDO
100
AcDbLine
 62
250
  6
CONTINUOUS
 10
7.2302463083
 20
18.8341069331
 11
7.2308608451
 21
18.7903377281
  0
LINE
  5
57D
100
AcDbEntity
  8
RACCORDO
100
AcDbLine
 62
250
  6
CONTINUOUS
 10
7.0308908793
 20
18.6506224102
 11
7.0316459995
 21
18.5897453031
  0
LINE
  5
57E
100
AcDbEntity
  8
RACCORDO
100
AcDbLine
 62
250
  6
CONTINUOUS
 10
7.0302764825
 20
18.7233617108
 11
7.0308908793
 21
18.6506224102
  0
LINE
  5
57F
100
AcDbEntity
  8
RACCORDO
100
AcDbLine
 62
250
  6
CONTINUOUS
 10
7.2296328074
 20
18.9066510222
 11
7.2302463083
 21
18.8341069331
  0
LINE
  5
580
100
AcDbEntity
  8
RACCORDO
100
AcDbLine
 62
250
  6
CONTINUOUS
 10
7.2293778235
 20
18.9775145419
 11
7.2296328074
 21
18.9066510222
  0
LINE
  5
581
100
AcDbEntity
  8
RACCORDO
100
AcDbLine
 62
250
  6
CONTINUOUS
 10
7.2293696815
 20
20.1171572875
 11
7.2293778235
 21
18.9775145419
  0
LINE
  5
582
100
AcDbEntity
  8
0
100
AcDbLine
 62
7
  6
CONTINUOUS
 10
7.5
 20
9.9333350472
 11
7.5
 21
14.0666649528
  0
LINE
  5
583
100
AcDbEntity
  8
RACCORDO
100
AcDbLine
 62
250
  6
CONTINUOUS
 10
7.2293696815
 20
-20.1171572875
 11
7.2295241191
 21
-18.9276857274
  0
LINE
  5
584
100
AcDbEntity
  8
RACCORDO
100
AcDbLine
 62
250
  6
CONTINUOUS
 10
7.2295241191
 20
-18.9276857274
 11
7.2300346566
 21
-18.8537040678
  0
LINE
  5
585
100
AcDbEntity
  8
RACCORDO
100
AcDbLine
 62
250
  6
CONTINUOUS
 10
7.0303183743
 20
-18.7173757397
 11
7.0312958308
 21
-18.6149697892
  0
LINE
  5
586
100
AcDbEntity
  8
RACCORDO
100
AcDbLine
 62
250
  6
CONTINUOUS
 10
7.2300346566
 20
-18.8537040678
 11
7.2305820071
 21
-18.8081854909
  0
LWPOLYLINE
  5
587
100
AcDbEntity
  8
RACCORDO
100
AcDbPolyline
 62
250
  6
CONTINUOUS
 90
8
 70
0
 10
7.0312958308
 20
-18.6149697892
 10
7.0320910524
 20
-18.5630592344
 10
7.0325118958
 20
-18.54294942
 10
7.0329477295
 20
-18.5267597118
 10
7.0333799802
 20
-18.5146097851
 10
7.033802457
 20
-18.5063070286
 10
7.034221351
 20
-18.5015289258
 10
7.034636662
 20
-18.5
  0
LWPOLYLINE
  5
588
100
AcDbEntity
  8
RACCORDO
100
AcDbPolyline
 62
250
  6
CONTINUOUS
 90
10
 70
0
 10
7.2305820071
 20
-18.8081854909
 10
7.2312659314
 20
-18.7690824571
 10
7.2316560751
 20
-18.752297366
 10
7.2320612451
 20
-18.737820952
 10
7.2324822778
 20
-18.7258402601
 10
7.2329183368
 20
-18.7161682454
 10
7.2333506371
 20
-18.7087533662
 10
7.2337729171
 20
-18.7035784419
 10
7.2341914384
 20
-18.7006606532
 10
7.234606201
 20
-18.7
  0
LWPOLYLINE
  5
589
100
AcDbEntity
  8
RACCORDO
100
AcDbPolyline
 62
250
  6
CONTINUOUS
 90
5
 70
0
 10
9.2879615093
 20
20.5266837345
 10
9.2877877837
 20
20.5216851553
 10
9.2876198055
 20
20.5118885272
 10
9.2874575749
 20
20.4973894322
 10
9.2870053681
 20
20.427308795
  0
LWPOLYLINE
  5
58A
100
AcDbEntity
  8
RACCORDO
100
AcDbPolyline
 62
7
  6
CONTINUOUS
 90
13
 70
0
 10
6.5153193024
 20
-15.4838500694
 10
6.5170644077
 20
-15.4562067423
 10
6.5222712162
 20
-15.4291926456
 10
6.5308204698
 20
-15.4032390193
 10
6.5425299039
 20
-15.3787379782
 10
6.5571756465
 20
-15.3560852012
 10
6.5745094037
 20
-15.3356819
 10
6.5942518661
 20
-15.3178312955
 10
6.6160329961
 20
-15.3028242084
 10
6.6394067095
 20
-15.2909642084
 10
6.6639355173
 20
-15.2824237631
 10
6.6892156266
 20
-15.277268854
 10
6.7148190698
 20
-15.2755396155
  0
LINE
  5
58B
100
AcDbEntity
  8
RACCORDO
100
AcDbLine
 62
250
  6
CONTINUOUS
 10
7.319462557
 20
-15.2755396155
 11
7.1094109243
 21
-18.5
  0
LINE
  5
58C
100
AcDbEntity
  8
RACCORDO
100
AcDbLine
 62
250
  6
CONTINUOUS
 10
7.5184775044
 20
-15.483378525
 11
7.3089365232
 21
-18.7
  0
LWPOLYLINE
  5
58D
100
AcDbEntity
  8
RACCORDO
100
AcDbPolyline
 62
250
  6
CONTINUOUS
 90
6
 70
0
 10
6.6572287868
 20
-18.7
 10
6.6589397493
 20
-18.6738947616
 10
6.664043362
 20
-18.648236191
 10
6.6724523006
 20
-18.6234633135
 10
6.6840226857
 20
-18.6
 10
6.698556545
 20
-18.5782477142
  0
LWPOLYLINE
  5
58E
100
AcDbEntity
  8
RACCORDO
100
AcDbPolyline
 62
7
  6
CONTINUOUS
 90
6
 70
0
 10
6.6200664561
 20
-18.7
 10
6.6217837243
 20
-18.6740798342
 10
6.6268536167
 20
-18.6485625367
 10
6.6352044001
 20
-18.6238823695
 10
6.6467097823
 20
-18.60045995
 10
6.6611858003
 20
-18.5787024009
  0
LWPOLYLINE
  5
58F
100
AcDbEntity
  8
RACCORDO
100
AcDbPolyline
 62
250
  6
CONTINUOUS
 90
7
 70
0
 10
9.5879500862
 20
20.2270948741
 10
9.5877762434
 20
20.2249972825
 10
9.5876081876
 20
20.2210877512
 10
9.587445919
 20
20.2153662803
 10
9.587288001
 20
20.2077426378
 10
9.5871358702
 20
20.1983070557
 10
9.5868621716
 20
20.1747673026
  0
LWPOLYLINE
  5
590
100
AcDbEntity
  8
RACCORDO
100
AcDbPolyline
 62
250
  6
CONTINUOUS
 90
10
 70
0
 10
3.287713135
 20
-10.6667832927
 10
3.2969236974
 20
-10.6454283054
 10
3.3062406702
 20
-10.6241457724
 10
3.3156643449
 20
-10.6029371214
 10
3.3251952253
 20
-10.581805299
 10
3.3348332981
 20
-10.5607502192
 10
3.3445781518
 20
-10.5397688239
 10
3.3544298926
 20
-10.5188611224
 10
3.3643890249
 20
-10.4980301316
 10
3.3744558057
 20
-10.4772773673
  0
LWPOLYLINE
  5
591
100
AcDbEntity
  8
RACCORDO
100
AcDbPolyline
 62
7
  6
CONTINUOUS
 90
7
 70
0
 10
6.2821219647
 20
-4.3654832059
 10
6.2875467728
 20
-4.3566690767
 10
6.2919935267
 20
-4.3475768359
 10
6.2954622264
 20
-4.3382064836
 10
6.2979528718
 20
-4.3285580197
 10
6.299465463
 20
-4.3186314442
 10
6.3
 20
-4.3084267572
  0
LWPOLYLINE
  5
592
100
AcDbEntity
  8
0
100
AcDbPolyline
 62
7
  6
CONTINUOUS
 90
5
 70
0
 10
-2.1309218332
 20
-16.8220749526
 10
-2.146483794
 20
-16.8457768685
 10
-2.1647060179
 20
-16.8671066672
 10
-2.1855200695
 20
-16.8855681675
 10
-2.2089943843
 20
-16.9016575711
  0
LWPOLYLINE
  5
593
100
AcDbEntity
  8
RACCORDO
100
AcDbPolyline
 62
7
  6
CONTINUOUS
 90
31
 70
0
 10
5.6100769122
 20
-5.2175903741
 10
5.3144048441
 20
-5.5175610274
 10
5.004720963
 20
-5.7995667862
 10
4.6810252688
 20
-6.0636079055
 10
4.3422707299
 20
-6.3104328154
 10
3.9895043779
 20
-6.539293612
 10
3.6258673083
 20
-6.7479460967
 10
3.2512488308
 20
-6.9361472609
 10
2.8657596357
 20
-7.104140704
 10
2.4728728892
 20
-7.2504121805
 10
2.0725302222
 20
-7.3747621292
 10
1.6647900037
 20
-7.4773906056
 10
1.2533005073
 20
-7.5573827723
 10
0.8380291972
 20
-7.6145366147
 10
0.4190086091
 20
-7.6490544279
 10
-0.0000153754
 20
-7.660627783
 10
-0.41904723
 20
-7.6490506911
 10
-0.8380824811
 20
-7.6145291412
 10
-1.2533618268
 20
-7.5573726003
 10
-1.6648437046
 20
-7.4773803504
 10
-2.0725696771
 20
-7.3747528291
 10
-2.4729051305
 20
-7.2504011811
 10
-2.865801756
 20
-7.1041214331
 10
-3.2513078625
 20
-6.9361170639
 10
-3.6259337617
 20
-6.7479103794
 10
-3.989558762
 20
-6.5392627188
 10
-4.3423035551
 20
-6.3104121524
 10
-4.6810405279
 20
-6.0635961225
 10
-5.0047271429
 20
-5.799560281
 10
-5.3144059377
 20
-5.51755845
 10
-5.6100769122
 20
-5.2175903741
  0
LWPOLYLINE
  5
594
100
AcDbEntity
  8
RACCORDO
100
AcDbPolyline
 62
7
  6
CONTINUOUS
 90
16
 70
0
 10
5.7855183748
 20
-5.0243379499
 10
5.7734109541
 20
-5.0358966808
 10
5.7603793672
 20
-5.045088465
 10
5.746423614
 20
-5.0519133039
 10
5.731138914
 20
-5.0564221354
 10
5.7149300477
 20
-5.0585640232
 10
5.6990113568
 20
-5.0581861564
 10
5.6834242077
 20
-5.055117509
 10
5.668127234
 20
-5.0495291064
 10
5.6542106783
 20
-5.0417812147
 10
5.6417360955
 20
-5.0316922799
 10
5.6306419306
 20
-5.0194438535
 10
5.6218337613
 20
-5.00594086
 10
5.6156134468
 20
-4.9914849403
 10
5.6116791278
 20
-4.9757744515
 10
5.6100308043
 20
-4.9588093923
  0
LWPOLYLINE
  5
595
100
AcDbEntity
  8
RACCORDO
100
AcDbPolyline
 62
250
  6
CONTINUOUS
 90
5
 70
0
 10
-7.1645043191
 20
18.5479169535
 10
-7.1760364792
 20
18.5585786439
 10
-7.1932831638
 20
18.5782477143
 10
-7.2078153628
 20
18.6000000001
 10
-7.2193844262
 20
18.6234633136
  0
LWPOLYLINE
  5
596
100
AcDbEntity
  8
RACCORDO
100
AcDbPolyline
 62
7
  6
CONTINUOUS
 90
16
 70
0
 10
5.7984616946
 20
4.9900242461
 10
5.7862215519
 20
5.0017626866
 10
5.773063094
 20
5.0110830365
 10
5.758986321
 20
5.0179852957
 10
5.743584835
 20
5.0225153374
 10
5.7272650339
 20
5.0246272884
 10
5.7112461114
 20
5.0241835297
 10
5.6955511414
 20
5.0209930967
 10
5.68015705
 20
5.0152469539
 10
5.66621381
 20
5.0073803757
 10
5.6538318053
 20
4.9972316837
 10
5.6429006519
 20
4.9849625563
 10
5.634239171
 20
4.9714933038
 10
5.6281203029
 20
4.9571306962
 10
5.6242711074
 20
4.9415679635
 10
5.6226915844
 20
4.9248051057
  0
LWPOLYLINE
  5
597
100
AcDbEntity
  8
0
100
AcDbPolyline
 62
7
  6
CONTINUOUS
 90
6
 70
0
 10
1.080886875
 20
11.0478975728
 10
1.1022181424
 20
11.0173209496
 10
1.1247228338
 20
10.9888299116
 10
1.1483261038
 20
10.9626529329
 10
1.1730972758
 20
10.93876683
 10
1.1989670266
 20
10.9171948018
  0
LWPOLYLINE
  5
598
100
AcDbEntity
  8
RACCORDO
100
AcDbPolyline
 62
250
  6
CONTINUOUS
 90
13
 70
0
 10
7.2293696815
 20
20.1171572875
 10
7.2274017151
 20
20.1352963416
 10
7.2221423768
 20
20.1531896548
 10
7.2136494171
 20
20.1705357589
 10
7.2020236077
 20
20.1870530906
 10
7.1874402364
 20
20.2024368699
 10
7.170174151
 20
20.2163768226
 10
7.1505322297
 20
20.2286273937
 10
7.128834401
 20
20.2389909837
 10
7.1054631376
 20
20.2472862956
 10
7.0808217567
 20
20.2533749129
 10
7.0553235464
 20
20.257159202
 10
7.0294001425
 20
20.2585786438
  0
LINE
  5
599
100
AcDbEntity
  8
RACCORDO
100
AcDbLine
 62
250
  6
CONTINUOUS
 10
9.5872886078
 20
-20.2077750951
 11
9.5869945607
 21
-20.1873915688
  0
LINE
  5
59A
100
AcDbEntity
  8
RACCORDO
100
AcDbLine
 62
250
  6
CONTINUOUS
 10
9.2876199879
 20
-20.5118970808
 11
9.2873000053
 21
-20.4783599802
  0
LINE
  5
59B
100
AcDbEntity
  8
RACCORDO
100
AcDbLine
 62
250
  6
CONTINUOUS
 10
9.5869945607
 20
-20.1873915688
 11
9.5866333375
 21
-20.1455366434
  0
LINE
  5
59C
100
AcDbEntity
  8
RACCORDO
100
AcDbLine
 62
250
  6
CONTINUOUS
 10
9.2873000053
 20
-20.4783599802
 11
9.2865505933
 21
-20.281545463
  0
LINE
  5
59D
100
AcDbEntity
  8
RACCORDO
100
AcDbLine
 62
250
  6
CONTINUOUS
 10
9.5866333375
 20
-20.1455366434
 11
9.586313809
 21
-20.0554130014
  0
LINE
  5
59E
100
AcDbEntity
  8
RACCORDO
100
AcDbLine
 62
250
  6
CONTINUOUS
 10
9.2865505933
 20
-20.281545463
 11
9.2837449843
 21
-10.4384918426
  0
LINE
  5
59F
100
AcDbEntity
  8
RACCORDO
100
AcDbLine
 62
250
  6
CONTINUOUS
 10
9.586313809
 20
-20.0554130014
 11
9.5837337608
 21
-10.4333017676
  0
LINE
  5
5A0
100
AcDbEntity
  8
RACCORDO
100
AcDbLine
 62
7
  6
CONTINUOUS
 10
9.65
 20
20.5997254977
 11
9.65
 21
-9.6992408051
  0
LINE
  5
5A1
100
AcDbEntity
  8
RACCORDO
100
AcDbLine
 62
7
  6
CONTINUOUS
 10
9.65
 20
-10.3007591949
 11
9.65
 21
-20.5997254977
  0
LINE
  5
5A2
100
AcDbEntity
  8
RACCORDO
100
AcDbLine
 62
250
  6
CONTINUOUS
 10
9.2832070893
 20
6.8905886095
 11
9.2835914673
 21
-9.5612009259
  0
LINE
  5
5A3
100
AcDbEntity
  8
RACCORDO
100
AcDbLine
 62
250
  6
CONTINUOUS
 10
9.5831950125
 20
6.8811942407
 11
9.583581878
 21
-9.5663944438
  0
LINE
  5
5A4
100
AcDbEntity
  8
RACCORDO
100
AcDbLine
 62
250
  6
CONTINUOUS
 10
9.2870053681
 20
20.427308795
 11
9.2832070893
 21
6.8905886095
  0
LINE
  5
5A5
100
AcDbEntity
  8
RACCORDO
100
AcDbLine
 62
250
  6
CONTINUOUS
 10
9.5865386019
 20
20.1290162081
 11
9.5831950125
 21
6.8811942407
  0
LINE
  5
5A6
100
AcDbEntity
  8
RACCORDO
100
AcDbLine
 62
250
  6
CONTINUOUS
 10
9.5868621716
 20
20.1747673026
 11
9.5865386019
 21
20.1290162081
  0
LWPOLYLINE
  5
5A7
100
AcDbEntity
  8
RACCORDO
100
AcDbPolyline
 62
7
  6
CONTINUOUS
 90
40
 70
0
 10
8.7584611066
 20
-10.4384918414
 10
8.7203269478
 20
-10.6326644307
 10
8.6692828655
 20
-10.8219817807
 10
8.6053288598
 20
-11.006443983
 10
8.5279505713
 20
-11.1870209587
 10
8.4376623593
 20
-11.3627429575
 10
8.3360073023
 20
-11.5307006349
 10
8.223019727
 20
-11.6905233982
 10
8.0986653066
 20
-11.8425821644
 10
7.964384139
 20
-11.9850799567
 10
7.8197027294
 20
-12.1181701981
 10
7.6650945725
 20
-12.2416998235
 10
7.5034202496
 20
-12.3534121905
 10
7.3350151754
 20
-12.4528651386
 10
7.1595439352
 20
-12.5405011955
 10
6.9788608652
 20
-12.6153907773
 10
6.792377517
 20
-12.6775345273
 10
6.6006823391
 20
-12.7269320656
 10
6.4073950135
 20
-12.7626522582
 10
6.2130262568
 20
-12.7844096855
 10
6.0170653524
 20
-12.7924898888
 10
5.8215998326
 20
-12.7868181397
 10
5.6261370359
 20
-12.7671717803
 10
5.4311696238
 20
-12.7337734145
 10
5.2402631134
 20
-12.6872161661
 10
5.0538964692
 20
-12.6274062877
 10
4.8715907268
 20
-12.5544373132
 10
4.6954745095
 20
-12.4691832627
 10
4.5253283092
 20
-12.3713228433
 10
4.361371634
 20
-12.2611770127
 10
4.2063916324
 20
-12.1405831768
 10
4.0607139256
 20
-12.0095170265
 10
3.9240128924
 20
-11.8680025014
 10
3.7980988163
 20
-11.7179494309
 10
3.6830213438
 20
-11.5590813541
 10
3.5787308285
 20
-11.3916743846
 10
3.4868886155
 20
-11.218467307
 10
3.4080484864
 20
-11.0403730002
 10
3.3416566596
 20
-10.8564783675
 10
3.2877131351
 20
-10.666783293
  0
LINE
  5
5A8
100
AcDbEntity
  8
RACCORDO
100
AcDbLine
 62
7
  6
CONTINUOUS
 10
-6.5167778011
 20
-20.1560734983
 11
-6.6582724256
 21
-20.2975681228
  0
LWPOLYLINE
  5
5A9
100
AcDbEntity
  8
0
100
AcDbPolyline
 62
7
  6
CONTINUOUS
 90
12
 70
0
 10
-2.7762488775
 20
-16.4412688042
 10
-2.80639012
 20
-16.471373732
 10
-2.8317191621
 20
-16.5036141808
 10
-2.8518344876
 20
-16.537958912
 10
-2.8671376127
 20
-16.5744391356
 10
-2.8782425646
 20
-16.612078532
 10
-2.885579941
 20
-16.6509476274
 10
-2.8887191442
 20
-16.6909758769
 10
-2.8869824079
 20
-16.7309753704
 10
-2.8807860015
 20
-16.7711792866
 10
-2.8697136556
 20
-16.8113544455
 10
-2.8518387956
 20
-16.849613423
  0
LWPOLYLINE
  5
5AA
100
AcDbEntity
  8
0
100
AcDbPolyline
 62
7
  6
CONTINUOUS
 90
4
 70
0
 10
-2.7124098661
 20
-16.5707348416
 10
-2.6922588565
 20
-16.5518589353
 10
-2.6694740562
 20
-16.5349472326
 10
-2.6441031973
 20
-16.5203568819
  0
LWPOLYLINE
  5
5AB
100
AcDbEntity
  8
RACCORDO
100
AcDbPolyline
 62
7
  6
CONTINUOUS
 90
7
 70
0
 10
-7.1634252964
 20
-18.5470018494
 10
-7.1563704043
 20
-18.5413293319
 10
-7.1346214315
 20
-18.5267949192
 10
-7.1111616916
 20
-18.5152240935
 10
-7.0863925871
 20
-18.5068148347
 10
-7.0607379245
 20
-18.5017110277
 10
-7.034636662
 20
-18.5
  0
LWPOLYLINE
  5
5AC
100
AcDbEntity
  8
0
100
AcDbPolyline
 62
7
  6
CONTINUOUS
 90
3
 70
0
 10
4.7115961264
 20
11.1582144274
 10
4.7195569205
 20
11.1597208374
 10
4.7271859962
 20
11.1621033059
  0
LINE
  5
5AD
100
AcDbEntity
  8
0
100
AcDbLine
 62
7
  6
CONTINUOUS
 10
0.4191575609
 20
9.5305752919
 11
0.5817812422
 21
9.5305752919
  0
LINE
  5
5AE
100
AcDbEntity
  8
0
100
AcDbLine
 62
7
  6
CONTINUOUS
 10
6.493211
 20
9.9333350472
 11
7.5
 21
9.9333350472
  0
LINE
  5
5AF
100
AcDbEntity
  8
0
100
AcDbLine
 62
7
  6
CONTINUOUS
 10
-8.848037
 20
10.132446
 11
-8.09722
 21
10.132446
  0
LINE
  5
5B0
100
AcDbEntity
  8
0
100
AcDbLine
 62
7
  6
CONTINUOUS
 10
-4.50278
 20
10.132446
 11
-3.751963
 21
10.132446
  0
LWPOLYLINE
  5
5B1
100
AcDbEntity
  8
0
100
AcDbPolyline
 62
7
  6
CONTINUOUS
 90
3
 70
0
 10
1.2530595461
 20
10.8819864673
 10
1.2812823148
 20
10.8683501734
 10
1.3103208469
 20
10.8573260191
  0
LWPOLYLINE
  5
5B2
100
AcDbEntity
  8
0
100
AcDbPolyline
 62
7
  6
CONTINUOUS
 90
10
 70
0
 10
1.3103085078
 20
11.0098563702
 10
1.2929298987
 20
11.0203451205
 10
1.2763125439
 20
11.0322189114
 10
1.2604564434
 20
11.0454777409
 10
1.2453929488
 20
11.0602036654
 10
1.2310907084
 20
11.0763146231
 10
1.2174556672
 20
11.0935644348
 10
1.2044564736
 20
11.1118710391
 10
1.1921244791
 20
11.1313164919
 10
1.1804596838
 20
11.1519007903
  0
LWPOLYLINE
  5
5B3
100
AcDbEntity
  8
0
100
AcDbPolyline
 62
7
  6
CONTINUOUS
 90
3
 70
0
 10
1.1989670266
 20
10.9171948018
 10
1.2256525406
 20
10.8982348963
 10
1.2530595461
 20
10.8819864673
  0
LINE
  5
5B4
100
AcDbEntity
  8
RACCORDO
100
AcDbLine
 62
7
  6
CONTINUOUS
 10
-6.5210300654
 20
20.437994886
 11
-6.6558702077
 21
20.5728350282
  0
LINE
  5
5B5
100
AcDbEntity
  8
0
100
AcDbLine
 62
7
  6
CONTINUOUS
 10
11.15
 20
-21.8997711479
 11
11.15
 21
21.8997711479
  0
LWPOLYLINE
  5
5B6
100
AcDbEntity
  8
RACCORDO
100
AcDbPolyline
 62
250
  6
CONTINUOUS
 90
13
 70
0
 10
9.5879500862
 20
-20.2270948741
 10
9.5853674824
 20
-20.2661860451
 10
9.5776994966
 20
-20.3046091301
 10
9.5650771148
 20
-20.3417071021
 10
9.5477160418
 20
-20.3768455738
 10
9.5259130313
 20
-20.4094236186
 10
9.5000408266
 20
-20.4388840564
 10
9.4705417469
 20
-20.4647230353
 10
9.4379201734
 20
-20.4864985912
 10
9.4027339671
 20
-20.5038382142
 10
9.3655848338
 20
-20.5164452911
 10
9.3271080177
 20
-20.5241041531
 10
9.2879615093
 20
-20.5266837345
  0
LINE
  5
5B7
100
AcDbEntity
  8
DRAFT
100
AcDbLine
 62
7
  6
CONTINUOUS
 10
8.7585989
 20
-9.5612009164
 11
8.6937231785
 21
-9.6992408051
  0
LWPOLYLINE
  5
5B8
100
AcDbEntity
  8
0
100
AcDbPolyline
 62
7
  6
CONTINUOUS
 90
21
 70
0
 10
-2.090817339
 20
-16.937598
 10
-2.061419629
 20
-16.9105515927
 10
-2.0365940395
 20
-16.8809600037
 10
-2.0163405704
 20
-16.8488232178
 10
-2.0005410478
 20
-16.813645934
 10
-1.9893136456
 20
-16.7759234164
 10
-1.9830128862
 20
-16.7371415068
 10
-1.9816785705
 20
-16.6972843606
 10
-1.9852708976
 20
-16.6563678059
 10
-1.9940249863
 20
-16.6159252177
 10
-2.0079832459
 20
-16.5758299518
 10
-2.0271032671
 20
-16.5362086598
 10
-2.0514929417
 20
-16.4989746879
 10
-2.0815570517
 20
-16.4641648446
 10
-2.116890815
 20
-16.4317423563
 10
-2.1563877775
 20
-16.4035102209
 10
-2.2003981758
 20
-16.3798698291
 10
-2.2485717733
 20
-16.3604198348
 10
-2.2987514064
 20
-16.3457591396
 10
-2.3510915013
 20
-16.33629457
 10
-2.4054376317
 20
-16.331619323
  0
LINE
  5
5B9
100
AcDbEntity
  8
0
100
AcDbLine
 62
7
  6
CONTINUOUS
 10
4.0553035161
 20
11.1017669961
 11
4.7115961229
 21
11.1582144271
  0
LINE
  5
5BA
100
AcDbEntity
  8
0
100
AcDbLine
 62
7
  6
CONTINUOUS
 10
1.4530248475
 20
10.8779764316
 11
1.8770221184
 21
10.9144388241
  0
LINE
  5
5BB
100
AcDbEntity
  8
0
100
AcDbLine
 62
7
  6
CONTINUOUS
 10
2.0584702029
 20
10.9300483562
 11
3.9025503981
 21
11.0886296505
  0
LINE
  5
5BC
100
AcDbEntity
  8
0
100
AcDbLine
 62
7
  6
CONTINUOUS
 10
1.458935
 20
11.0216725797
 11
2.042892
 21
11.0718910233
  0
LINE
  5
5BD
100
AcDbEntity
  8
0
100
AcDbLine
 62
7
  6
CONTINUOUS
 10
2.224637
 20
11.0875244918
 11
3.768528
 21
11.2202950067
  0
LINE
  5
5BE
100
AcDbEntity
  8
0
100
AcDbLine
 62
7
  6
CONTINUOUS
 10
3.9211614072
 20
11.2334089314
 11
4.6341225209
 21
11.2947179954
  0
LINE
  5
5BF
100
AcDbEntity
  8
0
100
AcDbLine
 62
7
  6
CONTINUOUS
 10
1.3103208469
 20
10.7061155703
 11
1.4530248475
 21
10.7061155703
  0
LINE
  5
5C0
100
AcDbEntity
  8
0
100
AcDbLine
 62
7
  6
CONTINUOUS
 10
1.1804596838
 20
11.1519007903
 11
1.3103085078
 21
11.1519007903
  0
LINE
  5
5C1
100
AcDbEntity
  8
0
100
AcDbLine
 62
7
  6
CONTINUOUS
 10
0.929693375
 20
11.1519124002
 11
1.0240084615
 21
11.1519124002
  0
LINE
  5
5C2
100
AcDbEntity
  8
0
100
AcDbLine
 62
7
  6
CONTINUOUS
 10
4.7762676322
 20
11.2215203774
 11
4.9915248819
 21
11.2215203774
  0
LINE
  5
5C3
100
AcDbEntity
  8
0
100
AcDbLine
 62
7
  6
CONTINUOUS
 10
1.0932678937
 20
11.3956872582
 11
1.3103208469
 21
11.3956872582
  0
LINE
  5
5C4
100
AcDbEntity
  8
0
100
AcDbLine
 62
7
  6
CONTINUOUS
 10
4.7768149081
 20
11.4858861471
 11
4.9915248819
 21
11.4858861471
  0
LINE
  5
5C5
100
AcDbEntity
  8
0
100
AcDbLine
 62
7
  6
CONTINUOUS
 10
2.16645
 20
11.7582520735
 11
2.451858
 21
11.7582520735
  0
LINE
  5
5C6
100
AcDbEntity
  8
0
100
AcDbLine
 62
7
  6
CONTINUOUS
 10
0.834640845
 20
11.7820536536
 11
0.8911510718
 21
11.7820536536
  0
LINE
  5
5C7
100
AcDbEntity
  8
0
100
AcDbLine
 62
7
  6
CONTINUOUS
 10
1.0372686513
 20
11.7820536536
 11
1.1854664597
 21
11.7820536536
  0
LINE
  5
5C8
100
AcDbEntity
  8
0
100
AcDbLine
 62
7
  6
CONTINUOUS
 10
0.977332
 20
11.924691829
 11
1.042762
 21
11.924691829
  0
LINE
  5
5C9
100
AcDbEntity
  8
0
100
AcDbLine
 62
7
  6
CONTINUOUS
 10
0.977332
 20
12.3407802208
 11
1.042762
 21
12.3407802208
  0
LINE
  5
5CA
100
AcDbEntity
  8
0
100
AcDbLine
 62
7
  6
CONTINUOUS
 10
-2.051155
 20
12.335843
 11
-3.325037
 21
12.744837
  0
LINE
  5
5CB
100
AcDbEntity
  8
0
100
AcDbLine
 62
7
  6
CONTINUOUS
 10
-1.474954
 20
12.520852
 11
-3.325037
 21
13.114855
  0
LINE
  5
5CC
100
AcDbEntity
  8
0
100
AcDbLine
 62
7
  6
CONTINUOUS
 10
1.962811
 20
13.1554320844
 11
1.7788383135
 21
13.3359957459
  0
LINE
  5
5CD
100
AcDbEntity
  8
0
100
AcDbLine
 62
7
  6
CONTINUOUS
 10
1.6516144876
 20
13.4608482364
 11
0.5627064277
 21
14.5295576957
  0
LINE
  5
5CE
100
AcDbEntity
  8
0
100
AcDbLine
 62
7
  6
CONTINUOUS
 10
3.9211614072
 20
11.2334089314
 11
3.1633556078
 21
11.9771568412
  0
LINE
  5
5CF
100
AcDbEntity
  8
0
100
AcDbLine
 62
7
  6
CONTINUOUS
 10
5.4822600513
 20
9.7012831434
 11
4.0553035161
 21
11.1017669961
  0
LINE
  5
5D0
100
AcDbEntity
  8
0
100
AcDbLine
 62
7
  6
CONTINUOUS
 10
3.081348
 20
12.0576422917
 11
2.1241028257
 21
12.9971131802
  0
LINE
  5
5D1
100
AcDbEntity
  8
0
100
AcDbLine
 62
7
  6
CONTINUOUS
 10
2.331451
 20
12.632073786
 11
1.980589
 21
12.9767708714
  0
LINE
  5
5D2
100
AcDbEntity
  8
0
100
AcDbLine
 62
7
  6
CONTINUOUS
 10
2.997344
 20
11.9778934079
 11
2.451858
 21
12.5137940707
  0
LINE
  5
5D3
100
AcDbEntity
  8
0
100
AcDbLine
 62
7
  6
CONTINUOUS
 10
5.3999676142
 20
9.6175640389
 11
3.9025503981
 21
11.0886296505
  0
LINE
  5
5D4
100
AcDbEntity
  8
0
100
AcDbLine
 62
7
  6
CONTINUOUS
 10
1.6747746472
 20
13.2772178227
 11
0.4000000018
 21
14.5295576957
  0
LINE
  5
5D5
100
AcDbEntity
  8
0
100
AcDbLine
 62
7
  6
CONTINUOUS
 10
3.768528
 20
11.2202950067
 11
3.079244
 21
11.8974437271
  0
LINE
  5
5D6
100
AcDbEntity
  8
RACCORDO
100
AcDbLine
 62
7
  6
CONTINUOUS
 10
7.5073728206
 20
-20.5266837345
 11
7.3830351795
 21
-20.9
  0
LINE
  5
5D7
100
AcDbEntity
  8
RACCORDO
100
AcDbLine
 62
7
  6
CONTINUOUS
 10
9.5837337608
 20
-10.4333017676
 11
9.65
 21
-10.3007591949
  0
LWPOLYLINE
  5
5D8
100
AcDbEntity
  8
0
100
AcDbPolyline
 62
7
  6
CONTINUOUS
 90
8
 70
0
 10
-2.2089943843
 20
-16.9016575711
 10
-2.2347016459
 20
-16.9153882858
 10
-2.2626958487
 20
-16.9266633632
 10
-2.2929229984
 20
-16.935579764
 10
-2.3247937963
 20
-16.9424417578
 10
-2.3581118095
 20
-16.9473507691
 10
-2.3930734709
 20
-16.9502053783
 10
-2.4296787805
 20
-16.9510055866
  0
LWPOLYLINE
  5
5D9
100
AcDbEntity
  8
0
100
AcDbPolyline
 62
7
  6
CONTINUOUS
 90
22
 70
0
 10
-2.6201896354
 20
-15.4291885196
 10
-2.6631180217
 20
-15.444694806
 10
-2.7030363776
 20
-15.4643664367
 10
-2.7397600374
 20
-15.4884850772
 10
-2.7734736669
 20
-15.5167690272
 10
-2.8030895098
 20
-15.5489563821
 10
-2.8284003408
 20
-15.5857157249
 10
-2.8496133854
 20
-15.6263784188
 10
-2.8662625635
 20
-15.6686767435
 10
-2.8783691837
 20
-15.7121967202
 10
-2.8859119375
 20
-15.7573523027
 10
-2.8883608198
 20
-15.8031176941
 10
-2.885746641
 20
-15.8499453341
 10
-2.8780385907
 20
-15.8973827688
 10
-2.8646142333
 20
-15.943046892
 10
-2.8450090217
 20
-15.986908698
 10
-2.819687503
 20
-16.0289972225
 10
-2.7894208826
 20
-16.067016461
 10
-2.75382899
 20
-16.1005309765
 10
-2.7132919956
 20
-16.1299762641
 10
-2.6697216156
 20
-16.1543627366
 10
-2.6229552888
 20
-16.1730938957
  0
LWPOLYLINE
  5
5DA
100
AcDbEntity
  8
0
100
AcDbPolyline
 62
7
  6
CONTINUOUS
 90
7
 70
0
 10
4.5847711562
 20
12.4431759679
 10
4.5930160186
 20
12.4432573975
 10
4.601253027
 20
12.4435012535
 10
4.6094821815
 20
12.4439075358
 10
4.6177034819
 20
12.4444762446
 10
4.6259169284
 20
12.4452073797
 10
4.6341225209
 20
12.4461009411
  0
LINE
  5
5DB
100
AcDbEntity
  8
0
100
AcDbLine
 62
7
  6
CONTINUOUS
 10
1.052275914
 20
12.4834543947
 11
1.1854664597
 21
12.4834660046
  0
LINE
  5
5DC
100
AcDbEntity
  8
0
100
AcDbLine
 62
7
  6
CONTINUOUS
 10
2.16645
 20
12.632073786
 11
2.331451
 21
12.632073786
  0
LINE
  5
5DD
100
AcDbEntity
  8
0
100
AcDbLine
 62
7
  6
CONTINUOUS
 10
1.674787
 20
12.9767708714
 11
1.980589
 21
12.9767708714
  0
LINE
  5
5DE
100
AcDbEntity
  8
0
100
AcDbLine
 62
7
  6
CONTINUOUS
 10
1.7788383135
 20
13.3359957459
 11
2.044033
 21
13.3359957459
  0
LINE
  5
5DF
100
AcDbEntity
  8
0
100
AcDbLine
 62
7
  6
CONTINUOUS
 10
-3.325037
 20
13.361529
 11
-1.474949
 21
13.361525
  0
LINE
  5
5E0
100
AcDbEntity
  8
0
100
AcDbLine
 62
7
  6
CONTINUOUS
 10
1.6516144876
 20
13.4608482364
 11
2.1723478618
 21
13.4608482364
  0
LINE
  5
5E1
100
AcDbEntity
  8
0
100
AcDbLine
 62
7
  6
CONTINUOUS
 10
-3.325037
 20
13.731543
 11
-1.474954
 21
13.731539
  0
LINE
  5
5E2
100
AcDbEntity
  8
0
100
AcDbLine
 62
7
  6
CONTINUOUS
 10
6.493211
 20
14.0666649528
 11
7.5
 21
14.0666649528
  0
LINE
  5
5E3
100
AcDbEntity
  8
0
100
AcDbLine
 62
7
  6
CONTINUOUS
 10
-3.325037
 20
14.101543
 11
-1.474954
 21
14.101543
  0
LINE
  5
5E4
100
AcDbEntity
  8
0
100
AcDbLine
 62
7
  6
CONTINUOUS
 10
0.834640845
 20
12.4834660046
 11
0.9069676351
 21
12.4834543947
  0
LINE
  5
5E5
100
AcDbEntity
  8
0
100
AcDbLine
 62
7
  6
CONTINUOUS
 10
1.674787
 20
13.0389708421
 11
1.458935
 21
13.0590750146
  0
LINE
  5
5E6
100
AcDbEntity
  8
0
100
AcDbLine
 62
7
  6
CONTINUOUS
 10
3.897045
 20
12.8319318547
 11
2.1241028257
 21
12.9971131802
  0
LINE
  5
5E7
100
AcDbEntity
  8
0
100
AcDbLine
 62
7
  6
CONTINUOUS
 10
4.1765425437
 20
12.8058958668
 11
4.0502372222
 21
12.8176654192
  0
LINE
  5
5E8
100
AcDbEntity
  8
0
100
AcDbLine
 62
7
  6
CONTINUOUS
 10
4.0344925161
 20
12.9624207547
 11
2.1723478618
 21
13.1359222422
  0
LINE
  5
5E9
100
AcDbEntity
  8
0
100
AcDbLine
 62
7
  6
CONTINUOUS
 10
1.6747746472
 20
13.1822755576
 11
1.4547726463
 21
13.2027837486
  0
LINE
  5
5EA
100
AcDbEntity
  8
0
100
AcDbLine
 62
7
  6
CONTINUOUS
 10
2.044033
 20
13.1478592795
 11
1.962811
 21
13.1554320844
  0
LWPOLYLINE
  5
5EB
100
AcDbEntity
  8
0
100
AcDbPolyline
 62
7
  6
CONTINUOUS
 90
3
 70
0
 10
4.5073355314
 20
12.4508049514
 10
4.545725156
 20
12.4451560107
 10
4.5847711562
 20
12.4431759679
  0
LINE
  5
5EC
100
AcDbEntity
  8
0
100
AcDbLine
 62
7
  6
CONTINUOUS
 10
-2.120197
 20
15.006388
 11
-3.325037
 21
15.35187
  0
LWPOLYLINE
  5
5ED
100
AcDbEntity
  8
RACCORDO
100
AcDbPolyline
 62
7
  6
CONTINUOUS
 90
22
 70
0
 10
-6.6582893563
 20
20.5731858629
 10
-6.6604840487
 20
20.5745561168
 10
-6.6638174644
 20
20.578199069
 10
-6.6682896036
 20
20.5838064498
 10
-6.6740318125
 20
20.5910923324
 10
-6.6809127448
 20
20.5996995251
 10
-6.6885383612
 20
20.6091344359
 10
-6.6968644881
 20
20.6188983798
 10
-6.705935299
 20
20.6288065493
 10
-6.7154892748
 20
20.6388819844
 10
-6.7254271808
 20
20.6489332698
 10
-6.7358482518
 20
20.6588217863
 10
-6.7467886728
 20
20.6687569856
 10
-6.7583832426
 20
20.6787825169
 10
-6.7704971624
 20
20.6886536776
 10
-6.7827622208
 20
20.6981785418
 10
-6.795173684
 20
20.7072714599
 10
-6.8077362858
 20
20.7158745039
 10
-6.8200960153
 20
20.7238673744
 10
-6.832134869
 20
20.7311986846
 10
-6.8439708505
 20
20.7378753505
 10
-6.8556039598
 20
20.7438927334
  0
LINE
  5
5EE
100
AcDbEntity
  8
0
100
AcDbLine
 62
7
  6
CONTINUOUS
 10
5.4673834379
 20
14.1607034074
 11
5.3865535485
 21
14.2458490803
  0
LINE
  5
5EF
100
AcDbEntity
  8
RACCORDO
100
AcDbLine
 62
7
  6
CONTINUOUS
 10
7.5073728206
 20
20.5266837345
 11
7.3830351795
 21
20.9
  0
LINE
  5
5F0
100
AcDbEntity
  8
RACCORDO
100
AcDbLine
 62
7
  6
CONTINUOUS
 10
0.2629729446
 20
-20.2904156765
 11
0.3973151228
 21
-20.1560734983
  0
LINE
  5
5F1
100
AcDbEntity
  8
DRAFT
100
AcDbLine
 62
7
  6
CONTINUOUS
 10
-6.8667670239
 20
-21.1647852141
 11
-6.9339198284
 21
-21.2
  0
LWPOLYLINE
  5
5F2
100
AcDbEntity
  8
RACCORDO
100
AcDbPolyline
 62
7
  6
CONTINUOUS
 90
22
 70
0
 10
-6.8580061777
 20
-20.4686258279
 10
-6.846381134
 20
-20.4626136638
 10
-6.8345385633
 20
-20.4559334645
 10
-6.8224784656
 20
-20.44858812
 10
-6.8100772969
 20
-20.4405664465
 10
-6.7974586013
 20
-20.4319215305
 10
-6.7849930103
 20
-20.4227826222
 10
-6.7726756348
 20
-20.4132068417
 10
-6.7605113639
 20
-20.4032828639
 10
-6.7488854971
 20
-20.3932191254
 10
-6.7379423624
 20
-20.3832683271
 10
-6.7275376318
 20
-20.3733801457
 10
-6.717623621
 20
-20.3633395394
 10
-6.7080994163
 20
-20.3532826782
 10
-6.6990659315
 20
-20.3434021932
 10
-6.6907782232
 20
-20.3336747166
 10
-6.6831928593
 20
-20.3242843846
 10
-6.6763532718
 20
-20.3157238609
 10
-6.6706448143
 20
-20.3084789724
 10
-6.6661959377
 20
-20.3029033449
 10
-6.662878191
 20
-20.2992814252
 10
-6.6606915742
 20
-20.2979189575
  0
LWPOLYLINE
  5
5F3
100
AcDbEntity
  8
0
100
AcDbPolyline
 62
7
  6
CONTINUOUS
 90
7
 70
0
 10
-2.6441031973
 20
-16.5203568819
 10
-2.6159941947
 20
-16.508227126
 10
-2.5852991336
 20
-16.4984187347
 10
-2.5525220008
 20
-16.490871146
 10
-2.5178307922
 20
-16.4855641745
 10
-2.4810575119
 20
-16.4825180113
 10
-2.4422021601
 20
-16.4817326579
  0
LINE
  5
5F4
100
AcDbEntity
  8
0
100
AcDbLine
 62
7
  6
CONTINUOUS
 10
-2.869832
 20
-18.006872
 11
-1.9971456858
 21
-17.6767038811
  0
LWPOLYLINE
  5
5F5
100
AcDbEntity
  8
0
100
AcDbPolyline
 62
7
  6
CONTINUOUS
 90
21
 70
0
 10
-2.2683099367
 20
-16.1826295828
 10
-2.2203089812
 20
-16.1668203587
 10
-2.1750950647
 20
-16.1452215509
 10
-2.1325667852
 20
-16.1183512469
 10
-2.0947724263
 20
-16.0865295796
 10
-2.0619871084
 20
-16.0487540687
 10
-2.0339357111
 20
-16.0060271232
 10
-2.0118411574
 20
-15.9616762314
 10
-1.9966599541
 20
-15.9162866605
 10
-1.9874355943
 20
-15.8692731193
 10
-1.9825214797
 20
-15.8222072994
 10
-1.9812690738
 20
-15.7750358738
 10
-1.9843269131
 20
-15.7278121691
 10
-1.9919940099
 20
-15.6822678868
 10
-2.0042332969
 20
-15.6384298196
 10
-2.0210818415
 20
-15.5962712042
 10
-2.0429498576
 20
-15.5574434351
 10
-2.0706753517
 20
-15.5221415696
 10
-2.1034203173
 20
-15.4901705984
 10
-2.1390809491
 20
-15.462596833
 10
-2.1769559787
 20
-15.4397757272
  0
LINE
  5
5F6
100
AcDbEntity
  8
0
100
AcDbLine
 62
7
  6
CONTINUOUS
 10
-6.675
 20
14.117556
 11
-5.925
 21
14.117556
  0
LINE
  5
5F7
100
AcDbEntity
  8
0
100
AcDbLine
 62
7
  6
CONTINUOUS
 10
-2.694959
 20
14.471557
 11
-1.474954
 21
14.471557
  0
LINE
  5
5F8
100
AcDbEntity
  8
0
100
AcDbLine
 62
7
  6
CONTINUOUS
 10
-8.8480371177
 20
14.517556
 11
-8.09722
 21
14.517556
  0
LINE
  5
5F9
100
AcDbEntity
  8
0
100
AcDbLine
 62
7
  6
CONTINUOUS
 10
-4.5027830484
 20
14.517556
 11
-3.7519628823
 21
14.517556
  0
LINE
  5
5FA
100
AcDbEntity
  8
0
100
AcDbLine
 62
7
  6
CONTINUOUS
 10
0.4000000018
 20
14.5295576957
 11
0.5627064277
 21
14.5295576957
  0
LINE
  5
5FB
100
AcDbEntity
  8
RACCORDO
100
AcDbLine
 62
7
  6
CONTINUOUS
 10
-7.319462557
 20
15.2755396155
 11
-6.7148190698
 21
15.2755396155
  0
LINE
  5
5FC
100
AcDbEntity
  8
RACCORDO
100
AcDbLine
 62
7
  6
CONTINUOUS
 10
-0.1992738542
 20
15.2755396155
 11
0.1992738542
 21
15.2755396155
  0
LINE
  5
5FD
100
AcDbEntity
  8
RACCORDO
100
AcDbLine
 62
7
  6
CONTINUOUS
 10
6.7148190698
 20
15.2755396155
 11
7.319462557
 21
15.2755396155
  0
LINE
  5
5FE
100
AcDbEntity
  8
0
100
AcDbLine
 62
7
  6
CONTINUOUS
 10
-2.694959
 20
15.541213
 11
-1.474954
 21
15.541218
  0
LWPOLYLINE
  5
5FF
100
AcDbEntity
  8
0
100
AcDbPolyline
 62
7
  6
CONTINUOUS
 90
6
 70
0
 10
6.7148190698
 20
15.2755396155
 10
6.6943007571
 20
15.2766449626
 10
6.6739297808
 20
15.2799548161
 10
6.6539264323
 20
15.2854585211
 10
6.6344990839
 20
15.2931348068
 10
6.6158790695
 20
15.3029185759
  0
LWPOLYLINE
  5
600
100
AcDbEntity
  8
RACCORDO
100
AcDbPolyline
 62
7
  6
CONTINUOUS
 90
13
 70
0
 10
-7.319462557
 20
15.2755396155
 10
-7.3450382139
 20
15.2772639035
 10
-7.3702803715
 20
15.2824077141
 10
-7.3947628176
 20
15.2909290282
 10
-7.4180826208
 20
15.3027590431
 10
-7.4398058361
 20
15.3177252699
 10
-7.4594919121
 20
15.3355278816
 10
-7.4767719554
 20
15.3558765062
 10
-7.4913687432
 20
15.3784690173
 10
-7.5030389781
 20
15.4029109815
 10
-7.5115595482
 20
15.4288106788
 10
-7.5167459172
 20
15.4557762904
 10
-7.5184775044
 20
15.483378525
  0
LWPOLYLINE
  5
601
100
AcDbEntity
  8
RACCORDO
100
AcDbPolyline
 62
7
  6
CONTINUOUS
 90
13
 70
0
 10
-0.1992738542
 20
15.2755396155
 10
-0.224877675
 20
15.2772689045
 10
-0.2501581719
 20
15.2824239732
 10
-0.274687355
 20
15.2909646938
 10
-0.2980614494
 20
15.3028251149
 10
-0.3198428908
 20
15.3178327493
 10
-0.3395854632
 20
15.3356839056
 10
-0.3569191744
 20
15.3560877534
 10
-0.371564704
 20
15.3787409917
 10
-0.3832736838
 20
15.4032420839
 10
-0.3918223686
 20
15.4291951871
 10
-0.3970287097
 20
15.4562082553
 10
-0.3987736215
 20
15.4838500694
  0
LINE
  5
602
100
AcDbEntity
  8
0
100
AcDbLine
 62
7
  6
CONTINUOUS
 10
-1.474958
 20
15.191388
 11
-2.694959
 21
15.541213
  0
LINE
  5
603
100
AcDbEntity
  8
0
100
AcDbLine
 62
7
  6
CONTINUOUS
 10
-1.474954
 20
16.157906
 11
-3.325042
 21
16.7519
  0
LINE
  5
604
100
AcDbEntity
  8
0
100
AcDbLine
 62
7
  6
CONTINUOUS
 10
-1.474958
 20
16.52792
 11
-1.838789
 21
16.644734
  0
LINE
  5
605
100
AcDbEntity
  8
0
100
AcDbLine
 62
7
  6
CONTINUOUS
 10
-2.190302
 20
16.757598
 11
-2.748836
 21
16.936914
  0
LINE
  5
606
100
AcDbEntity
  8
DRAFT
100
AcDbLine
 62
7
  6
CONTINUOUS
 10
-6.9339198284
 20
21.2
 11
-6.8667670239
 21
21.1647852141
  0
LINE
  5
607
100
AcDbEntity
  8
RACCORDO
100
AcDbLine
 62
7
  6
CONTINUOUS
 10
0.3930628585
 20
20.437994886
 11
0.2629729446
 21
20.5680847998
  0
LWPOLYLINE
  5
608
100
AcDbEntity
  8
0
100
AcDbPolyline
 62
7
  6
CONTINUOUS
 90
8
 70
0
 10
6.5671304662
 20
15.3437244138
 10
6.5538704213
 20
15.3606663567
 10
6.5423744149
 20
15.3789992534
 10
6.5327783048
 20
15.3985328172
 10
6.5252003763
 20
15.4190029513
 10
6.5197276049
 20
15.4401776092
 10
6.5164207454
 20
15.4618621112
 10
6.5153187866
 20
15.4838342317
  0
LWPOLYLINE
  5
609
100
AcDbEntity
  8
RACCORDO
100
AcDbPolyline
 62
7
  6
CONTINUOUS
 90
5
 70
0
 10
6.6467097823
 20
18.60045995
 10
6.6352044001
 20
18.6238823695
 10
6.6268536167
 20
18.6485625367
 10
6.6217837243
 20
18.6740798342
 10
6.6200664561
 20
18.7
  0
LWPOLYLINE
  5
60A
100
AcDbEntity
  8
RACCORDO
100
AcDbPolyline
 62
7
  6
CONTINUOUS
 90
5
 70
0
 10
6.6611858003
 20
-18.5787024009
 10
6.678390465
 20
-18.5589942732
 10
6.6980324725
 20
-18.5416836961
 10
6.7197873722
 20
-18.5270694334
 10
6.7432991968
 20
-18.5154061091
  0
LWPOLYLINE
  5
60B
100
AcDbEntity
  8
RACCORDO
100
AcDbPolyline
 62
250
  6
CONTINUOUS
 90
3
 70
0
 10
6.698556545
 20
-18.5782477142
 10
6.7158052
 20
-18.5585786438
 10
6.7354735215
 20
-18.5413293319
  0
LINE
  5
60C
100
AcDbEntity
  8
0
100
AcDbLine
 62
7
  6
CONTINUOUS
 10
2.14659
 20
-19.517235
 11
3.350368
 21
-18.729391
  0
LINE
  5
60D
100
AcDbEntity
  8
0
100
AcDbLine
 62
7
  6
CONTINUOUS
 10
3.066765
 20
-18.699984
 11
1.850359
 21
-19.494112
  0
LINE
  5
60E
100
AcDbEntity
  8
RACCORDO
100
AcDbLine
 62
7
  6
CONTINUOUS
 10
-7.2419286989
 20
-20.8366629075
 11
-7.3830351795
 21
-20.9
  0
LINE
  5
60F
100
AcDbEntity
  8
0
100
AcDbLine
 62
7
  6
CONTINUOUS
 10
1.850364
 20
-16.880707
 11
3.350372
 21
-16.351297
  0
LWPOLYLINE
  5
610
100
AcDbEntity
  8
RACCORDO
100
AcDbPolyline
 62
250
  6
CONTINUOUS
 90
7
 70
0
 10
-6.7834819673
 20
-20.2475324589
 10
-6.7600355757
 20
-20.2392755665
 10
-6.7382822012
 20
-20.2289285414
 10
-6.7186088814
 20
-20.2166740213
 10
-6.7013382517
 20
-20.2027109185
 10
-6.6867803067
 20
-20.1872875146
 10
-6.67521242
 20
-20.1707191451
  0
LINE
  5
611
100
AcDbEntity
  8
0
100
AcDbLine
 62
7
  6
CONTINUOUS
 10
3.150795
 20
-16.2336415
 11
1.850364
 21
-16.66435
  0
LWPOLYLINE
  5
612
100
AcDbEntity
  8
0
100
AcDbPolyline
 62
7
  6
CONTINUOUS
 90
6
 70
0
 10
-2.1668907271
 20
-17.6044273711
 10
-2.2410867413
 20
-17.6270148604
 10
-2.316193497
 20
-17.6509438719
 10
-2.3922109944
 20
-17.6762143986
 10
-2.4690506983
 20
-17.7030747939
 10
-2.869832
 20
-17.8493032759
  0
LWPOLYLINE
  5
613
100
AcDbEntity
  8
0
100
AcDbPolyline
 62
7
  6
CONTINUOUS
 90
18
 70
0
 10
-4.4000525085
 20
-17.8834338287
 10
-4.3463320195
 20
-17.86733209
 10
-4.296626612
 20
-17.8462427841
 10
-4.2513189956
 20
-17.8199618315
 10
-4.2100264606
 20
-17.7886932601
 10
-4.1733244366
 20
-17.7533779834
 10
-4.1411540986
 20
-17.7136508155
 10
-4.1135742715
 20
-17.6698768754
 10
-4.0913368594
 20
-17.6240925544
 10
-4.074477836
 20
-17.5762748534
 10
-4.0629612276
 20
-17.526446732
 10
-4.0574310169
 20
-17.4767135592
 10
-4.0582602728
 20
-17.4272077014
 10
-4.0650759264
 20
-17.377796796
 10
-4.0774027533
 20
-17.3301891591
 10
-4.0955477727
 20
-17.2843140424
 10
-4.1192039654
 20
-17.2402422298
 10
-4.1469750498
 20
-17.1998943687
  0
LWPOLYLINE
  5
614
100
AcDbEntity
  8
RACCORDO
100
AcDbPolyline
 62
7
  6
CONTINUOUS
 90
3
 70
0
 10
7.1607168843
 20
18.5069324742
 10
7.1348648826
 20
18.5017443099
 10
7.1085073836
 20
18.5
  0
LINE
  5
615
100
AcDbEntity
  8
0
100
AcDbLine
 62
7
  6
CONTINUOUS
 10
-3.325037
 20
15.911232
 11
-1.474954
 21
15.911232
  0
LWPOLYLINE
  5
616
100
AcDbEntity
  8
RACCORDO
100
AcDbPolyline
 62
7
  6
CONTINUOUS
 90
3
 70
0
 10
-7.1610692283
 20
18.5070349419
 10
-7.1354636732
 20
18.5018319132
 10
-7.1094109243
 20
18.5
  0
LINE
  5
617
100
AcDbEntity
  8
RACCORDO
100
AcDbLine
 62
7
  6
CONTINUOUS
 10
-7.2419286989
 20
20.8366629075
 11
-7.3830351795
 21
20.9
  0
LINE
  5
618
100
AcDbEntity
  8
0
100
AcDbLine
 62
7
  6
CONTINUOUS
 10
6.5
 20
15.2124015748
 11
5.2301263923
 21
15.7855004023
  0
LINE
  5
619
100
AcDbEntity
  8
0
100
AcDbLine
 62
7
  6
CONTINUOUS
 10
4.0486058853
 20
16.3187252987
 11
2.8233519924
 21
16.8716872892
  0
LINE
  5
61A
100
AcDbEntity
  8
0
100
AcDbLine
 62
7
  6
CONTINUOUS
 10
5.0035843673
 20
16.950533157
 11
4.5254731449
 21
17.1810453012
  0
LINE
  5
61B
100
AcDbEntity
  8
0
100
AcDbLine
 62
7
  6
CONTINUOUS
 10
6.5
 20
16.2290675115
 11
5.9391807672
 21
16.4994550129
  0
LWPOLYLINE
  5
61C
100
AcDbEntity
  8
0
100
AcDbPolyline
 62
7
  6
CONTINUOUS
 90
22
 70
0
 10
2.8233593003
 20
16.8716839914
 10
2.7479765475
 20
16.9083404792
 10
2.6751224959
 20
16.9487529248
 10
2.6047971456
 20
16.9929212969
 10
2.5368099146
 20
17.0409987657
 10
2.4713513848
 20
17.092832088
 10
2.4089933017
 20
17.1479616124
 10
2.3497645239
 20
17.2064138898
 10
2.2936361928
 20
17.26816229
 10
2.2410934778
 20
17.3326673982
 10
2.1921587047
 20
17.3999507276
 10
2.1468095477
 20
17.4699906864
 10
2.1054641991
 20
17.5421832152
 10
2.068149995
 20
17.6165483866
 10
2.0348395994
 20
17.6930660576
 10
2.0058691963
 20
17.771071863
 10
1.9813085873
 20
17.8505897413
 10
1.9610879709
 20
17.9315956993
 10
1.9453341262
 20
18.0133534972
 10
1.9340893128
 20
18.0956177168
 10
1.9273112712
 20
18.1786337477
 10
1.9250000011
 20
18.262401574
  0
LWPOLYLINE
  5
61D
100
AcDbEntity
  8
0
100
AcDbPolyline
 62
7
  6
CONTINUOUS
 90
4
 70
0
 10
6.6158790695
 20
15.3029185759
 10
6.5983119011
 20
15.3146889282
 10
6.5820032772
 20
15.328334412
 10
6.5671304662
 20
15.3437244138
  0
LWPOLYLINE
  5
61E
100
AcDbEntity
  8
RACCORDO
100
AcDbPolyline
 62
250
  6
CONTINUOUS
 90
6
 70
0
 10
6.698556545
 20
18.5782477143
 10
6.6840226857
 20
18.6000000001
 10
6.6724523006
 20
18.6234633136
 10
6.664043362
 20
18.648236191
 10
6.6589397493
 20
18.6738947616
 10
6.6572287868
 20
18.7
  0
LWPOLYLINE
  5
61F
100
AcDbEntity
  8
RACCORDO
100
AcDbPolyline
 62
250
  6
CONTINUOUS
 90
3
 70
0
 10
6.7354735215
 20
-18.5413293319
 10
6.7572249791
 20
-18.5267949192
 10
6.7810436205
 20
-18.5150769382
  0
LINE
  5
620
100
AcDbEntity
  8
0
100
AcDbLine
 62
7
  6
CONTINUOUS
 10
-3.325042
 20
17.962609
 11
-1.474958
 21
17.962609
  0
LINE
  5
621
100
AcDbEntity
  8
0
100
AcDbLine
 62
7
  6
CONTINUOUS
 10
0.4000000015
 20
18.262401574
 11
1.4166659382
 21
18.262401574
  0
LINE
  5
622
100
AcDbEntity
  8
0
100
AcDbLine
 62
7
  6
CONTINUOUS
 10
5.4833329687
 20
18.262401574
 11
6.5
 21
18.262401574
  0
LINE
  5
623
100
AcDbEntity
  8
0
100
AcDbLine
 62
7
  6
CONTINUOUS
 10
-2.982778
 20
18.327522
 11
-2.532571
 21
18.327526
  0
LINE
  5
624
100
AcDbEntity
  8
RACCORDO
100
AcDbLine
 62
7
  6
CONTINUOUS
 10
6.8202886235
 20
18.5
 11
7.1085073836
 21
18.5
  0
LINE
  5
625
100
AcDbEntity
  8
RACCORDO
100
AcDbLine
 62
7
  6
CONTINUOUS
 10
-6.8202886235
 20
18.5
 11
-7.1085073836
 21
18.5
  0
LINE
  5
626
100
AcDbEntity
  8
RACCORDO
100
AcDbLine
 62
250
  6
CONTINUOUS
 10
6.6572287868
 20
18.7
 11
6.6200664561
 21
18.7
  0
LINE
  5
627
100
AcDbEntity
  8
RACCORDO
100
AcDbLine
 62
250
  6
CONTINUOUS
 10
-6.6572287868
 20
18.7
 11
-6.6200664561
 21
18.7
  0
LINE
  5
628
100
AcDbEntity
  8
RACCORDO
100
AcDbLine
 62
250
  6
CONTINUOUS
 10
7.234606201
 20
18.7
 11
7.3089365232
 21
18.7
  0
LINE
  5
629
100
AcDbEntity
  8
RACCORDO
100
AcDbLine
 62
250
  6
CONTINUOUS
 10
-7.234606201
 20
18.7
 11
-7.3089365232
 21
18.7
  0
LINE
  5
62A
100
AcDbEntity
  8
RACCORDO
100
AcDbLine
 62
250
  6
CONTINUOUS
 10
6.6598468471
 20
19.0
 11
7.2293696815
 21
19.0
  0
LINE
  5
62B
100
AcDbEntity
  8
RACCORDO
100
AcDbLine
 62
250
  6
CONTINUOUS
 10
-6.6598468471
 20
19.0
 11
-7.2293696815
 21
19.0
  0
LINE
  5
62C
100
AcDbEntity
  8
0
100
AcDbLine
 62
7
  6
CONTINUOUS
 10
-2.190307
 20
18.332669
 11
-1.474958
 21
18.332628
  0
LWPOLYLINE
  5
62D
100
AcDbEntity
  8
RACCORDO
100
AcDbPolyline
 62
7
  6
CONTINUOUS
 90
7
 70
0
 10
-7.034636662
 20
18.5
 10
-7.0607379245
 20
18.5017110277
 10
-7.0863925872
 20
18.5068148348
 10
-7.1111616916
 20
18.5152240935
 10
-7.1346214316
 20
18.5267949193
 10
-7.1563704044
 20
18.541329332
 10
-7.1645043191
 20
18.5479169535
  0
LWPOLYLINE
  5
62E
100
AcDbEntity
  8
RACCORDO
100
AcDbPolyline
 62
7
  6
CONTINUOUS
 90
5
 70
0
 10
6.8572211714
 20
18.5
 10
6.8311169269
 20
18.5017110277
 10
6.8054593333
 20
18.5068148348
 10
6.7806873991
 20
18.5152240935
 10
6.776710767
 20
18.5169219261
  0
LWPOLYLINE
  5
62F
100
AcDbEntity
  8
RACCORDO
100
AcDbPolyline
 62
7
  6
CONTINUOUS
 90
4
 70
0
 10
6.8202886235
 20
18.5
 10
6.7939855153
 20
18.5017370046
 10
6.7681744471
 20
18.5069073744
 10
6.7432991968
 20
18.5154061091
  0
LWPOLYLINE
  5
630
100
AcDbEntity
  8
RACCORDO
100
AcDbPolyline
 62
250
  6
CONTINUOUS
 90
3
 70
0
 10
6.7354735214
 20
18.541329332
 10
6.7158052
 20
18.5585786439
 10
6.698556545
 20
18.5782477143
  0
LINE
  5
631
100
AcDbEntity
  8
RACCORDO
100
AcDbLine
 62
7
  6
CONTINUOUS
 10
7.055874803
 20
-20.9974535593
 11
7.0425072881
 21
-21.0094865114
  0
LINE
  5
632
100
AcDbEntity
  8
RACCORDO
100
AcDbLine
 62
7
  6
CONTINUOUS
 10
7.1094912525
 20
-20.9499376582
 11
7.055874803
 21
-20.9974535593
  0
LWPOLYLINE
  5
633
100
AcDbEntity
  8
RACCORDO
100
AcDbPolyline
 62
7
  6
CONTINUOUS
 90
3
 70
0
 10
7.1948944831
 20
-20.8750755778
 10
7.1610166114
 20
-20.904584292
 10
7.1094912525
 20
-20.9499376582
  0
LINE
  5
634
100
AcDbEntity
  8
RACCORDO
100
AcDbLine
 62
7
  6
CONTINUOUS
 10
7.2205806983
 20
-20.8531402181
 11
7.1948944831
 21
-20.8750755778
  0
LINE
  5
635
100
AcDbEntity
  8
RACCORDO
100
AcDbLine
 62
7
  6
CONTINUOUS
 10
7.2269247241
 20
-20.8478512965
 11
7.2205806983
 21
-20.8531402181
  0
LWPOLYLINE
  5
636
100
AcDbEntity
  8
RACCORDO
100
AcDbPolyline
 62
7
  6
CONTINUOUS
 90
4
 70
0
 10
6.7432991968
 20
-18.5154061091
 10
6.7681744471
 20
-18.5069073744
 10
6.7939855153
 20
-18.5017370046
 10
6.8202886235
 20
-18.5
  0
LWPOLYLINE
  5
637
100
AcDbEntity
  8
RACCORDO
100
AcDbPolyline
 62
7
  6
CONTINUOUS
 90
4
 70
0
 10
6.7810436205
 20
-18.5150769382
 10
6.8054593334
 20
-18.5068148347
 10
6.8311169269
 20
-18.5017110277
 10
6.8572211714
 20
-18.5
  0
LWPOLYLINE
  5
638
100
AcDbEntity
  8
RACCORDO
100
AcDbPolyline
 62
250
  6
CONTINUOUS
 90
13
 70
0
 10
-7.0294001425
 20
20.2585786438
 10
-7.0553235464
 20
20.257159202
 10
-7.0808217567
 20
20.2533749129
 10
-7.1054631376
 20
20.2472862956
 10
-7.128834401
 20
20.2389909837
 10
-7.1505322297
 20
20.2286273937
 10
-7.170174151
 20
20.2163768226
 10
-7.1874402364
 20
20.2024368699
 10
-7.2020236077
 20
20.1870530906
 10
-7.2136494171
 20
20.1705357589
 10
-7.2221423768
 20
20.1531896548
 10
-7.2274017151
 20
20.1352963416
 10
-7.2293696815
 20
20.1171572875
  0
LWPOLYLINE
  5
639
100
AcDbEntity
  8
RACCORDO
100
AcDbPolyline
 62
250
  6
CONTINUOUS
 90
13
 70
0
 10
6.8598392317
 20
20.2585786438
 10
6.8338112531
 20
20.2572623286
 10
6.8082132153
 20
20.2535604456
 10
6.7834819673
 20
20.2475324589
 10
6.7600355757
 20
20.2392755665
 10
6.7382822012
 20
20.2289285414
 10
6.7186088814
 20
20.2166740213
 10
6.7013382517
 20
20.2027109185
 10
6.6867803067
 20
20.1872875146
 10
6.67521242
 20
20.1707191451
 10
6.6668092065
 20
20.1533149498
 10
6.66166905
 20
20.1353593577
 10
6.6598468471
 20
20.1171572875
  0
LINE
  5
63A
100
AcDbEntity
  8
RACCORDO
100
AcDbLine
 62
250
  6
CONTINUOUS
 10
-0.0649210165
 20
19.4007005808
 11
0.0649210165
 21
19.4007005808
  0
LINE
  5
63B
100
AcDbEntity
  8
RACCORDO
100
AcDbLine
 62
250
  6
CONTINUOUS
 10
-0.2629729446
 20
19.883663494
 11
0.2629729446
 21
19.883663494
  0
LINE
  5
63C
100
AcDbEntity
  8
RACCORDO
100
AcDbLine
 62
250
  6
CONTINUOUS
 10
-6.5167082077
 20
19.9580320107
 11
-0.3973847163
 21
19.9580320107
  0
LINE
  5
63D
100
AcDbEntity
  8
RACCORDO
100
AcDbLine
 62
250
  6
CONTINUOUS
 10
0.3973847163
 20
19.9580320107
 11
6.5167082077
 21
19.9580320107
  0
LINE
  5
63E
100
AcDbEntity
  8
RACCORDO
100
AcDbLine
 62
250
  6
CONTINUOUS
 10
-7.515636529
 20
20.0474767673
 11
-9.3252506099
 21
20.0473610372
  0
LINE
  5
63F
100
AcDbEntity
  8
RACCORDO
100
AcDbLine
 62
250
  6
CONTINUOUS
 10
7.2293696815
 20
20.1171572875
 11
6.6598468471
 21
20.1171572875
  0
LINE
  5
640
100
AcDbEntity
  8
RACCORDO
100
AcDbLine
 62
250
  6
CONTINUOUS
 10
-6.6598468471
 20
20.1171572875
 11
-7.2293696815
 21
20.1171572875
  0
LINE
  5
641
100
AcDbEntity
  8
RACCORDO
100
AcDbLine
 62
250
  6
CONTINUOUS
 10
7.0294001425
 20
20.2585786438
 11
6.8598392317
 21
20.2585786438
  0
LINE
  5
642
100
AcDbEntity
  8
RACCORDO
100
AcDbLine
 62
250
  6
CONTINUOUS
 10
-6.8598392317
 20
20.2585786438
 11
-7.0294001425
 21
20.2585786438
  0
LINE
  5
643
100
AcDbEntity
  8
RACCORDO
100
AcDbLine
 62
7
  6
CONTINUOUS
 10
-6.5210300654
 20
20.437994886
 11
-0.3930628585
 21
20.437994886
  0
LINE
  5
644
100
AcDbEntity
  8
RACCORDO
100
AcDbLine
 62
7
  6
CONTINUOUS
 10
0.3930628585
 20
20.437994886
 11
6.5210300654
 21
20.437994886
  0
LINE
  5
645
100
AcDbEntity
  8
RACCORDO
100
AcDbLine
 62
250
  6
CONTINUOUS
 10
9.2879615093
 20
20.5266837345
 11
7.5073728206
 21
20.5266837345
  0
LINE
  5
646
100
AcDbEntity
  8
RACCORDO
100
AcDbLine
 62
250
  6
CONTINUOUS
 10
-7.5073728206
 20
20.5266837345
 11
-9.2879615093
 21
20.5266837345
  0
LINE
  5
647
100
AcDbEntity
  8
RACCORDO
100
AcDbLine
 62
7
  6
CONTINUOUS
 10
6.6582893563
 20
20.5731858629
 11
-6.6582893563
 21
20.5731858629
  0
LINE
  5
648
100
AcDbEntity
  8
RACCORDO
100
AcDbLine
 62
250
  6
CONTINUOUS
 10
6.8556039598
 20
20.7438927334
 11
-6.8556039598
 21
20.7438927334
  0
LINE
  5
649
100
AcDbEntity
  8
RACCORDO
100
AcDbLine
 62
7
  6
CONTINUOUS
 10
9.3501255952
 20
20.9
 11
7.3830351795
 21
20.9
  0
LINE
  5
64A
100
AcDbEntity
  8
RACCORDO
100
AcDbLine
 62
7
  6
CONTINUOUS
 10
-7.3830351795
 20
20.9
 11
-9.3501255952
 21
20.9
  0
LWPOLYLINE
  5
64B
100
AcDbEntity
  8
RACCORDO
100
AcDbPolyline
 62
250
  6
CONTINUOUS
 90
13
 70
0
 10
7.515636529
 20
20.0474767673
 10
9.3252506105
 20
20.0473610361
 10
9.3635333904
 20
20.0470431171
 10
9.4005094461
 20
20.046528388
 10
9.4355531019
 20
20.0458255588
 10
9.4680713801
 20
20.0449465219
 10
9.4975140356
 20
20.0439061519
 10
9.5233828658
 20
20.0427220528
 10
9.5452401416
 20
20.041414261
 10
9.5627160137
 20
20.0400049058
 10
9.5755147709
 20
20.0385178349
 10
9.583419844
 20
20.0369782113
 10
9.5862974704
 20
20.0354120872
  0
LWPOLYLINE
  5
64C
100
AcDbEntity
  8
RACCORDO
100
AcDbPolyline
 62
7
  6
CONTINUOUS
 90
6
 70
0
 10
6.7432991968
 20
18.5154061091
 10
6.7197873722
 20
18.5270694334
 10
6.6980324725
 20
18.5416836961
 10
6.678390465
 20
18.5589942732
 10
6.6611858003
 20
18.5787024009
 10
6.6467097823
 20
18.60045995
  0
LWPOLYLINE
  5
64D
100
AcDbEntity
  8
RACCORDO
100
AcDbPolyline
 62
250
  6
CONTINUOUS
 90
3
 70
0
 10
6.776710767
 20
18.5169219261
 10
6.757224979
 20
18.5267949193
 10
6.7354735214
 20
18.541329332
  0
LWPOLYLINE
  5
64E
100
AcDbEntity
  8
RACCORDO
100
AcDbPolyline
 62
7
  6
CONTINUOUS
 90
4
 70
0
 10
7.2359625226
 20
20.8405916279
 10
7.2390584773
 20
20.8381523097
 10
7.2410348192
 20
20.8368223095
 10
7.2419286989
 20
20.8366629075
  0
LWPOLYLINE
  5
64F
100
AcDbEntity
  8
RACCORDO
100
AcDbPolyline
 62
7
  6
CONTINUOUS
 90
3
 70
0
 10
7.2196903264
 20
20.8538879832
 10
7.2262675206
 20
20.8484063534
 10
7.2359625226
 20
20.8405916279
  0
LINE
  5
650
100
AcDbEntity
  8
RACCORDO
100
AcDbLine
 62
7
  6
CONTINUOUS
 10
7.1933978089
 20
20.8763693993
 11
7.2196903264
 21
20.8538879832
  0
LWPOLYLINE
  5
651
100
AcDbEntity
  8
RACCORDO
100
AcDbPolyline
 62
7
  6
CONTINUOUS
 90
3
 70
0
 10
7.1082227362
 20
20.9510743423
 10
7.1472234187
 20
20.9166738744
 10
7.1933978089
 20
20.8763693993
  0
LWPOLYLINE
  5
652
100
AcDbEntity
  8
RACCORDO
100
AcDbPolyline
 62
7
  6
CONTINUOUS
 90
3
 70
0
 10
7.0684513859
 20
20.9862689466
 10
7.0949472853
 20
20.9628966864
 10
7.1082227362
 20
20.9510743423
  0
LWPOLYLINE
  5
653
100
AcDbEntity
  8
RACCORDO
100
AcDbPolyline
 62
7
  6
CONTINUOUS
 90
3
 70
0
 10
7.0425072881
 20
21.0094865114
 10
7.0553773717
 20
20.9978705966
 10
7.0684513859
 20
20.9862689466
  0
LWPOLYLINE
  5
654
100
AcDbEntity
  8
RACCORDO
100
AcDbPolyline
 62
250
  6
CONTINUOUS
 90
12
 70
0
 10
9.5862974704
 20
-20.0354120872
 10
9.5834198475
 20
-20.0369782115
 10
9.5755147772
 20
-20.0385178353
 10
9.5627160222
 20
-20.0400049065
 10
9.5452401515
 20
-20.0414142621
 10
9.5233828763
 20
-20.0427220544
 10
9.4975140459
 20
-20.043906154
 10
9.4680713898
 20
-20.0449465248
 10
9.4355531103
 20
-20.0458255623
 10
9.4005094528
 20
-20.0465283918
 10
9.363533395
 20
-20.0470431204
 10
9.3252506128
 20
-20.0473610386
  0
LINE
  5
655
100
AcDbEntity
  8
DRAFT
100
AcDbLine
 62
7
  6
CONTINUOUS
 10
3.0
 20
23.5
 11
2.7812783412
 21
23.4563623377
  0
LWPOLYLINE
  5
656
100
AcDbEntity
  8
RACCORDO
100
AcDbPolyline
 62
7
  6
CONTINUOUS
 90
5
 70
0
 10
-7.2419286989
 20
20.8366629075
 10
-7.2410711055
 20
20.8368010859
 10
-7.2391819589
 20
20.8380636212
 10
-7.2362200437
 20
20.8403931378
 10
-7.2269247241
 20
20.8478512965
  0
LINE
  5
657
100
AcDbEntity
  8
DRAFT
100
AcDbLine
 62
7
  6
CONTINUOUS
 10
-6.8667670239
 20
21.1647852141
 11
-3.75
 21
21.1647852141
  0
LINE
  5
658
100
AcDbEntity
  8
DRAFT
100
AcDbLine
 62
7
  6
CONTINUOUS
 10
3.75
 20
21.1647852141
 11
6.8667670239
 21
21.1647852141
  0
LINE
  5
659
100
AcDbEntity
  8
DRAFT
100
AcDbLine
 62
7
  6
CONTINUOUS
 10
-6.9339198284
 20
21.2
 11
6.9339198284
 21
21.2
  0
LINE
  5
65A
100
AcDbEntity
  8
DRAFT
100
AcDbLine
 62
7
  6
CONTINUOUS
 10
10.6503805997
 20
22.4
 11
5.55
 21
22.4
  0
LINE
  5
65B
100
AcDbEntity
  8
0
100
AcDbLine
 62
7
  6
CONTINUOUS
 10
3.1
 20
22.4
 11
-3.1
 21
22.4
  0
LINE
  5
65C
100
AcDbEntity
  8
DRAFT
100
AcDbLine
 62
7
  6
CONTINUOUS
 10
-5.55
 20
22.4
 11
-10.6503805997
 21
22.4
  0
LWPOLYLINE
  5
65D
100
AcDbEntity
  8
RACCORDO
100
AcDbPolyline
 62
250
  6
CONTINUOUS
 90
13
 70
0
 10
9.2879615093
 20
20.5266837345
 10
9.3271077807
 20
20.5241041843
 10
9.3655844083
 20
20.5164454049
 10
9.4027334084
 20
20.5038384451
 10
9.4379195362
 20
20.4864989584
 10
9.4705410889
 20
20.4647235392
 10
9.5000402096
 20
20.4388846722
 10
9.525912506
 20
20.4094243018
 10
9.5477156404
 20
20.3768462676
 10
9.5650768517
 20
20.3417077355
 10
9.5776993635
 20
20.3046096252
 10
9.5853674451
 20
20.2661863267
 10
9.5879500862
 20
20.2270948741
  0
LINE
  5
65E
100
AcDbEntity
  8
DRAFT
100
AcDbLine
 62
7
  6
CONTINUOUS
 10
-3.0
 20
23.5
 11
-2.7812783412
 21
23.4563623377
  0
LINE
  5
65F
100
AcDbEntity
  8
DRAFT
100
AcDbLine
 62
7
  6
CONTINUOUS
 10
3.9526845545
 20
23.4301797403
 11
-3.9526845545
 21
23.4301797403
  0
LINE
  5
660
100
AcDbEntity
  8
DRAFT
100
AcDbLine
 62
7
  6
CONTINUOUS
 10
-2.7812783412
 20
23.4563623377
 11
2.7812783412
 21
23.4563623377
  0
LINE
  5
661
100
AcDbEntity
  8
DRAFT
100
AcDbLine
 62
7
  6
CONTINUOUS
 10
3.9733373476
 20
23.5
 11
3.0
 21
23.5
  0
LINE
  5
662
100
AcDbEntity
  8
DRAFT
100
AcDbLine
 62
7
  6
CONTINUOUS
 10
-3.0
 20
23.5
 11
-3.9733373476
 21
23.5
  0
ARC
  5
663
100
AcDbEntity
  8
DRAFT
100
AcDbCircle
 62
7
  6
CONTINUOUS
 10
-6.0
 20
-10.0
 40
2.7104613363
100
AcDbArc
 50
173.6292054564
 51
186.3707945436
  0
ARC
  5
664
100
AcDbEntity
  8
RACCORDO
100
AcDbCircle
 62
7
  6
CONTINUOUS
 10
-6.0
 20
-10.0
 40
2.6685719031
100
AcDbArc
 50
349.6971456412
 51
10.3028543578
  0
CIRCLE
  5
665
100
AcDbEntity
  8
DRAFT
100
AcDbCircle
 62
7
  6
CONTINUOUS
 10
-6.0
 20
-10.0
 40
2.6476271864
  0
CIRCLE
  5
666
100
AcDbEntity
  8
RACCORDO
100
AcDbCircle
 62
250
  6
CONTINUOUS
 10
-6.0
 20
-10.0
 40
2.0663575577
  0
CIRCLE
  5
667
100
AcDbEntity
  8
RACCORDO
100
AcDbCircle
 62
250
  6
CONTINUOUS
 10
-6.0
 20
-10.0
 40
1.8663901726
  0
CIRCLE
  5
668
100
AcDbEntity
  8
DRAFT
100
AcDbCircle
 62
7
  6
CONTINUOUS
 10
-6.0
 20
-10.0
 40
1.8
  0
CIRCLE
  5
669
100
AcDbEntity
  8
DRAFT
100
AcDbCircle
 62
7
  6
CONTINUOUS
 10
-6.0
 20
-10.0
 40
1.6390140515
  0
CIRCLE
  5
66A
100
AcDbEntity
  8
RACCORDO
100
AcDbCircle
 62
7
  6
CONTINUOUS
 10
-6.0
 20
-10.0
 40
1.5586507121
  0
CIRCLE
  5
66B
100
AcDbEntity
  8
RACCORDO
100
AcDbCircle
 62
250
  6
CONTINUOUS
 10
-6.0
 20
-10.0
 40
0.5586879562
  0
ARC
  5
66C
100
AcDbEntity
  8
DRAFT
100
AcDbCircle
 62
7
  6
CONTINUOUS
 10
-4.95
 20
-23.1
 40
0.5
100
AcDbArc
 50
350.803718421
 51
119.112422776
  0
ARC
  5
66D
100
AcDbEntity
  8
DRAFT
100
AcDbCircle
 62
7
  6
CONTINUOUS
 10
-11.25
 20
0.0
 40
28.0
100
AcDbArc
 50
55.8789063483
 51
57.0647695028
  0
ARC
  5
66E
100
AcDbEntity
  8
DRAFT
100
AcDbCircle
 62
7
  6
CONTINUOUS
 10
-11.25
 20
0.0
 40
28.0
100
AcDbArc
 50
302.9352304972
 51
304.1210936517
  0
ARC
  5
66F
100
AcDbEntity
  8
DRAFT
100
AcDbCircle
 62
7
  6
CONTINUOUS
 10
-11.25
 20
0.0
 40
28.0
100
AcDbArc
 50
48.2819495688
 51
54.0372348486
  0
ARC
  5
670
100
AcDbEntity
  8
DRAFT
100
AcDbCircle
 62
7
  6
CONTINUOUS
 10
-11.25
 20
0.0
 40
28.0
100
AcDbArc
 50
305.9627651514
 51
311.7180504312
  0
ARC
  5
671
100
AcDbEntity
  8
DRAFT
100
AcDbCircle
 62
7
  6
CONTINUOUS
 10
-11.25
 20
0.0
 40
27.9301797403
100
AcDbArc
 50
305.881601122
 51
310.6207502002
  0
ARC
  5
672
100
AcDbEntity
  8
DRAFT
100
AcDbCircle
 62
7
  6
CONTINUOUS
 10
-11.25
 20
0.0
 40
27.9301797403
100
AcDbArc
 50
302.9775446409
 51
304.2022576811
  0
ARC
  5
673
100
AcDbEntity
  8
DRAFT
100
AcDbCircle
 62
7
  6
CONTINUOUS
 10
-11.25
 20
0.0
 40
27.9301797403
100
AcDbArc
 50
55.7977423189
 51
57.0224553591
  0
ARC
  5
674
100
AcDbEntity
  8
DRAFT
100
AcDbCircle
 62
7
  6
CONTINUOUS
 10
-11.25
 20
0.0
 40
27.9301797403
100
AcDbArc
 50
49.3792497998
 51
54.118398878
  0
ARC
  5
675
100
AcDbEntity
  8
0
100
AcDbCircle
 62
7
  6
CONTINUOUS
 10
-6.3
 20
14.417556
 40
2.5499986575
100
AcDbArc
 50
177.752529198
 51
2.247470802
  0
ARC
  5
676
100
AcDbEntity
  8
0
100
AcDbCircle
 62
7
  6
CONTINUOUS
 10
-6.3
 20
10.032446
 40
2.5499985399
100
AcDbArc
 50
177.7525290943
 51
2.2474709057
  0
ARC
  5
677
100
AcDbEntity
  8
0
100
AcDbCircle
 62
7
  6
CONTINUOUS
 10
-6.3
 20
14.417556
 40
1.7999999246
100
AcDbArc
 50
176.8152613297
 51
257.9753003079
  0
ARC
  5
678
100
AcDbEntity
  8
0
100
AcDbCircle
 62
7
  6
CONTINUOUS
 10
-6.3
 20
10.032446
 40
1.7999999246
100
AcDbArc
 50
176.8152613297
 51
359.0999862851
  0
ARC
  5
679
100
AcDbEntity
  8
0
100
AcDbCircle
 62
7
  6
CONTINUOUS
 10
-6.3
 20
14.417556
 40
1.7999968808
100
AcDbArc
 50
282.0247203293
 51
3.1847440612
  0
ARC
  5
67A
100
AcDbEntity
  8
0
100
AcDbCircle
 62
7
  6
CONTINUOUS
 10
-2.757674
 20
18.829056
 40
0.5673701434
100
AcDbArc
 50
22.8429066477
 51
180.0
  0
ARC
  5
67B
100
AcDbEntity
  8
DRAFT
100
AcDbCircle
 62
7
  6
CONTINUOUS
 10
-4.95
 20
23.1
 40
0.5
100
AcDbArc
 50
240.887577224
 51
9.1962815791
  0
ARC
  5
67C
100
AcDbEntity
  8
0
100
AcDbCircle
 62
7
  6
CONTINUOUS
 10
-2.757674
 20
18.777699
 40
0.225104
100
AcDbArc
 50
0.0
 51
180.0
  0
ARC
  5
67D
100
AcDbEntity
  8
DRAFT
100
AcDbCircle
 62
7
  6
CONTINUOUS
 10
6.0
 20
-10.0
 40
2.7104613363
100
AcDbArc
 50
353.6292054564
 51
6.3707945436
  0
ARC
  5
67E
100
AcDbEntity
  8
RACCORDO
100
AcDbCircle
 62
7
  6
CONTINUOUS
 10
6.0
 20
-10.0
 40
2.6685719031
100
AcDbArc
 50
169.6971456422
 51
190.3028543588
  0
CIRCLE
  5
67F
100
AcDbEntity
  8
DRAFT
100
AcDbCircle
 62
7
  6
CONTINUOUS
 10
6.0
 20
-10.0
 40
2.6476271864
  0
CIRCLE
  5
680
100
AcDbEntity
  8
RACCORDO
100
AcDbCircle
 62
250
  6
CONTINUOUS
 10
6.0
 20
-10.0
 40
2.0663575577
  0
CIRCLE
  5
681
100
AcDbEntity
  8
RACCORDO
100
AcDbCircle
 62
250
  6
CONTINUOUS
 10
6.0
 20
-10.0
 40
1.8663901726
  0
CIRCLE
  5
682
100
AcDbEntity
  8
DRAFT
100
AcDbCircle
 62
7
  6
CONTINUOUS
 10
6.0
 20
-10.0
 40
1.8
  0
CIRCLE
  5
683
100
AcDbEntity
  8
DRAFT
100
AcDbCircle
 62
7
  6
CONTINUOUS
 10
6.0
 20
-10.0
 40
1.6390140515
  0
CIRCLE
  5
684
100
AcDbEntity
  8
RACCORDO
100
AcDbCircle
 62
7
  6
CONTINUOUS
 10
6.0
 20
-10.0
 40
1.5586507121
  0
CIRCLE
  5
685
100
AcDbEntity
  8
RACCORDO
100
AcDbCircle
 62
250
  6
CONTINUOUS
 10
6.0
 20
-10.0
 40
0.5586879562
  0
ARC
  5
686
100
AcDbEntity
  8
DRAFT
100
AcDbCircle
 62
7
  6
CONTINUOUS
 10
4.95
 20
-23.1
 40
0.5
100
AcDbArc
 50
60.887577224
 51
189.196281579
  0
ARC
  5
687
100
AcDbEntity
  8
RACCORDO
100
AcDbCircle
 62
7
  6
CONTINUOUS
 10
0.0
 20
0.0
 40
7.65
100
AcDbArc
 50
214.7956623192
 51
220.7145381766
  0
ARC
  5
688
100
AcDbEntity
  8
RACCORDO
100
AcDbCircle
 62
7
  6
CONTINUOUS
 10
0.0
 20
0.0
 40
7.65
100
AcDbArc
 50
319.2854618234
 51
325.2043376808
  0
ARC
  5
689
100
AcDbEntity
  8
RACCORDO
100
AcDbCircle
 62
7
  6
CONTINUOUS
 10
0.0
 20
0.0
 40
7.65
100
AcDbArc
 50
34.7956623192
 51
40.7145381766
  0
ARC
  5
68A
100
AcDbEntity
  8
RACCORDO
100
AcDbCircle
 62
7
  6
CONTINUOUS
 10
0.0
 20
0.0
 40
7.65
100
AcDbArc
 50
139.2854618234
 51
145.2043376808
  0
ARC
  5
68B
100
AcDbEntity
  8
0
100
AcDbCircle
 62
7
  6
CONTINUOUS
 10
0.0
 20
-0.0
 40
4.65
100
AcDbArc
 50
156.1979505538
 51
156.1154273186
  0
CIRCLE
  5
68C
100
AcDbEntity
  8
0
100
AcDbCircle
 62
7
  6
CONTINUOUS
 10
3.449999
 20
18.262401
 40
0.508333
  0
ARC
  5
68D
100
AcDbEntity
  8
DRAFT
100
AcDbCircle
 62
7
  6
CONTINUOUS
 10
4.95
 20
23.1
 40
0.5
100
AcDbArc
 50
170.803718421
 51
299.112422776
  0
CIRCLE
  5
68E
100
AcDbEntity
  8
0
100
AcDbCircle
 62
7
  6
CONTINUOUS
 10
4.584765
 20
12.8540804347
 40
0.213753
  0
CIRCLE
  5
68F
100
AcDbEntity
  8
0
100
AcDbCircle
 62
7
  6
CONTINUOUS
 10
4.584765
 20
12.8540804347
 40
0.138824
  0
ARC
  5
690
100
AcDbEntity
  8
DRAFT
100
AcDbCircle
 62
7
  6
CONTINUOUS
 10
11.25
 20
0.0
 40
28.0
100
AcDbArc
 50
122.9352304972
 51
124.1210936517
  0
ARC
  5
691
100
AcDbEntity
  8
DRAFT
100
AcDbCircle
 62
7
  6
CONTINUOUS
 10
11.25
 20
0.0
 40
28.0
100
AcDbArc
 50
235.8789063483
 51
237.0647695028
  0
ARC
  5
692
100
AcDbEntity
  8
DRAFT
100
AcDbCircle
 62
7
  6
CONTINUOUS
 10
11.25
 20
0.0
 40
28.0
100
AcDbArc
 50
228.2819495688
 51
234.0372348486
  0
ARC
  5
693
100
AcDbEntity
  8
DRAFT
100
AcDbCircle
 62
7
  6
CONTINUOUS
 10
11.25
 20
0.0
 40
28.0
100
AcDbArc
 50
125.9627651514
 51
131.7180504312
  0
ARC
  5
694
100
AcDbEntity
  8
DRAFT
100
AcDbCircle
 62
7
  6
CONTINUOUS
 10
11.25
 20
0.0
 40
27.9301797403
100
AcDbArc
 50
235.7977423189
 51
237.0224553591
  0
ARC
  5
695
100
AcDbEntity
  8
DRAFT
100
AcDbCircle
 62
7
  6
CONTINUOUS
 10
11.25
 20
0.0
 40
27.9301797403
100
AcDbArc
 50
229.3792497998
 51
234.118398878
  0
ARC
  5
696
100
AcDbEntity
  8
DRAFT
100
AcDbCircle
 62
7
  6
CONTINUOUS
 10
11.25
 20
0.0
 40
27.9301797403
100
AcDbArc
 50
122.9775446409
 51
124.2022576811
  0
ARC
  5
697
100
AcDbEntity
  8
DRAFT
100
AcDbCircle
 62
7
  6
CONTINUOUS
 10
11.25
 20
0.0
 40
27.9301797403
100
AcDbArc
 50
125.881601122
 51
130.6207502002
  0
ELLIPSE
  5
698
100
AcDbEntity
  8
0
100
AcDbEllipse
 62
7
  6
CONTINUOUS
 10
10.649923836
 20
21.899313827
 30
0.0
 11
0.1582391023
 21
0.4751033573
 31
0.0
 40
0.9984778551
 41
-1.2488325878
 42
0.3210503505
  0
ELLIPSE
  5
699
100
AcDbEntity
  8
0
100
AcDbEllipse
 62
7
  6
CONTINUOUS
 10
10.649923836
 20
-21.899313827
 30
0.0
 11
-0.1582391023
 21
0.4751033573
 31
0.0
 40
0.9984778551
 41
2.8205423031
 42
4.3904252414
  0
ELLIPSE
  5
69A
100
AcDbEntity
  8
0
100
AcDbEllipse
 62
7
  6
CONTINUOUS
 10
-10.649923836
 20
21.899313827
 30
0.0
 11
-0.1582391023
 21
0.4751033573
 31
0.0
 40
0.9984778551
 41
-0.3210503505
 42
1.2488325878
  0
ELLIPSE
  5
69B
100
AcDbEntity
  8
0
100
AcDbEllipse
 62
7
  6
CONTINUOUS
 10
-10.649923836
 20
-21.899313827
 30
0.0
 11
0.1582391023
 21
0.4751033573
 31
0.0
 40
0.9984778551
 41
1.8927600658
 42
3.4626430041
  0
ELLIPSE
  5
69C
100
AcDbEntity
  8
RACCORDO
100
AcDbEllipse
 62
7
  6
CONTINUOUS
 10
-9.3499885765
 20
20.5995882962
 30
0.0
 11
-0.0493465499
 21
0.2963426463
 31
0.0
 40
0.9985916141
 41
-0.1647763639
 42
1.4055632513
  0
ELLIPSE
  5
69D
100
AcDbEntity
  8
RACCORDO
100
AcDbEllipse
 62
7
  6
CONTINUOUS
 10
9.3499885765
 20
20.5995882962
 30
0.0
 11
0.0493465499
 21
0.2963426463
 31
0.0
 40
0.9985916141
 41
-1.4055632513
 42
0.1647763639
  0
ELLIPSE
  5
69E
100
AcDbEntity
  8
RACCORDO
100
AcDbEllipse
 62
7
  6
CONTINUOUS
 10
-9.3499885765
 20
-20.5995882962
 30
0.0
 11
0.0493465499
 21
0.2963426463
 31
0.0
 40
0.9985916141
 41
-4.5471559049
 42
-2.9768162897
  0
ELLIPSE
  5
69F
100
AcDbEntity
  8
RACCORDO
100
AcDbEllipse
 62
7
  6
CONTINUOUS
 10
9.3499885765
 20
-20.5995882962
 30
0.0
 11
-0.0493465499
 21
0.2963426463
 31
0.0
 40
0.9985916141
 41
-3.3063690174
 42
-1.7360294022
  0
ELLIPSE
  5
6A0
100
AcDbEntity
  8
RACCORDO
100
AcDbEllipse
 62
7
  6
CONTINUOUS
 10
-14.3109501524
 20
-0.0
 30
0.0
 11
-0.0
 21
498.5
 31
0.0
 40
0.0174550649
 41
-1.5608487016
 42
-1.5603332922
  0
ELLIPSE
  5
6A1
100
AcDbEntity
  8
RACCORDO
100
AcDbEllipse
 62
7
  6
CONTINUOUS
 10
-14.3109501524
 20
-0.0
 30
0.0
 11
0.0
 21
498.5
 31
0.0
 40
0.0174550649
 41
-1.5812593614
 42
-1.580743952
  0
ELLIPSE
  5
6A2
100
AcDbEntity
  8
RACCORDO
100
AcDbEllipse
 62
7
  6
CONTINUOUS
 10
14.3109501524
 20
-0.0
 30
0.0
 11
-0.0
 21
498.5
 31
0.0
 40
0.0174550649
 41
-4.7024413552
 42
-4.7019259458
  0
ELLIPSE
  5
6A3
100
AcDbEntity
  8
RACCORDO
100
AcDbEllipse
 62
7
  6
CONTINUOUS
 10
14.3109501524
 20
0.0
 30
0.0
 11
-0.0
 21
498.5
 31
0.0
 40
0.0174550649
 41
1.5603332922
 42
1.5608487016
  0
ELLIPSE
  5
6A4
100
AcDbEntity
  8
RACCORDO
100
AcDbEllipse
 62
7
  6
CONTINUOUS
 10
-3.9494709069
 20
0.0
 30
0.0
 11
0.0
 21
498.5
 31
0.0
 40
0.0087268678
 41
-1.6112407994
 42
-1.6018622062
  0
ELLIPSE
  5
6A5
100
AcDbEntity
  8
RACCORDO
100
AcDbEllipse
 62
7
  6
CONTINUOUS
 10
0.3930247808
 20
19.9380139244
 30
0.0
 11
-0.0
 21
0.5
 31
0.0
 40
0.0087268678
 41
-1.5307494509
 42
-0.0087266463
  0
ELLIPSE
  5
6A6
100
AcDbEntity
  8
RACCORDO
100
AcDbEllipse
 62
7
  6
CONTINUOUS
 10
3.9494709069
 20
0.0
 30
0.0
 11
0.0
 21
498.5
 31
0.0
 40
0.0087268678
 41
-4.6813231009
 42
-4.6719445077
  0
ELLIPSE
  5
6A7
100
AcDbEntity
  8
RACCORDO
100
AcDbEllipse
 62
7
  6
CONTINUOUS
 10
-0.3930247808
 20
19.9380139244
 30
0.0
 11
-0.0
 21
0.5
 31
0.0
 40
0.0087268678
 41
0.0087266463
 42
1.5307494509
  0
ELLIPSE
  5
6A8
100
AcDbEntity
  8
RACCORDO
100
AcDbEllipse
 62
7
  6
CONTINUOUS
 10
3.9494709069
 20
0.0
 30
0.0
 11
-0.0
 21
498.5
 31
0.0
 40
0.0087268678
 41
1.5307494509
 42
1.5397304474
  0
ELLIPSE
  5
6A9
100
AcDbEntity
  8
RACCORDO
100
AcDbEllipse
 62
7
  6
CONTINUOUS
 10
6.5210681431
 20
19.9380139244
 30
0.0
 11
0.0
 21
0.5
 31
0.0
 40
0.0087268678
 41
0.0087266463
 42
1.5307494509
  0
ELLIPSE
  5
6AA
100
AcDbEntity
  8
RACCORDO
100
AcDbEllipse
 62
7
  6
CONTINUOUS
 10
-6.5210681431
 20
19.9380139244
 30
0.0
 11
0.0
 21
0.5
 31
0.0
 40
0.0087268678
 41
-1.5307494509
 42
-0.0087266463
  0
ELLIPSE
  5
6AB
100
AcDbEntity
  8
RACCORDO
100
AcDbEllipse
 62
7
  6
CONTINUOUS
 10
-11.25
 20
-0.4799914261
 30
0.0
 11
0.0
 21
27.4986903856
 31
0.0
 40
0.9998476487
 41
-2.4222061861
 42
-2.4136768153
  0
ELLIPSE
  5
6AC
100
AcDbEntity
  8
RACCORDO
100
AcDbEllipse
 62
7
  6
CONTINUOUS
 10
11.25
 20
-0.4799914261
 30
0.0
 11
0.0
 21
27.4986903856
 31
0.0
 40
0.9998476487
 41
-3.8695084919
 42
-3.8609791211
  0
ELLIPSE
  5
6AD
100
AcDbEntity
  8
RACCORDO
100
AcDbEllipse
 62
7
  6
CONTINUOUS
 10
7.5069160569
 20
-20.0273689671
 30
0.0
 11
0.0
 21
0.5
 31
0.0
 40
0.0174550649
 41
-3.089232776
 42
-1.6110227751
  0
ELLIPSE
  5
6AE
100
AcDbEntity
  8
RACCORDO
100
AcDbEllipse
 62
7
  6
CONTINUOUS
 10
-1.1786741678
 20
-0.0
 30
0.0
 11
-0.0
 21
498.5
 31
0.0
 40
0.0174550649
 41
-1.6110227751
 42
-1.6018612598
  0
ELLIPSE
  5
6AF
100
AcDbEntity
  8
RACCORDO
100
AcDbEllipse
 62
7
  6
CONTINUOUS
 10
7.5069160569
 20
20.0273689671
 30
0.0
 11
-0.0
 21
0.5
 31
0.0
 40
0.0174550649
 41
-1.5305698785
 42
-0.0523598776
  0
ELLIPSE
  5
6B0
100
AcDbEntity
  8
RACCORDO
100
AcDbEllipse
 62
7
  6
CONTINUOUS
 10
-1.1786741678
 20
-0.0
 30
0.0
 11
-0.0
 21
498.5
 31
0.0
 40
0.0174550649
 41
-1.5397313937
 42
-1.5305698785
  0
ELLIPSE
  5
6B1
100
AcDbEntity
  8
RACCORDO
100
AcDbEllipse
 62
7
  6
CONTINUOUS
 10
-7.5069160569
 20
-20.0273689671
 30
0.0
 11
-0.0
 21
0.5
 31
0.0
 40
0.0174550649
 41
-4.6721625321
 42
-3.1939525311
  0
ELLIPSE
  5
6B2
100
AcDbEntity
  8
RACCORDO
100
AcDbEllipse
 62
7
  6
CONTINUOUS
 10
1.1786741678
 20
0.0
 30
0.0
 11
-0.0
 21
498.5
 31
0.0
 40
0.0174550649
 41
-4.6813240473
 42
-4.6721625321
  0
ELLIPSE
  5
6B3
100
AcDbEntity
  8
RACCORDO
100
AcDbEllipse
 62
7
  6
CONTINUOUS
 10
-7.5069160569
 20
20.0273689671
 30
0.0
 11
0.0
 21
0.5
 31
0.0
 40
0.0174550649
 41
0.0523598776
 42
1.5305698785
  0
ELLIPSE
  5
6B4
100
AcDbEntity
  8
RACCORDO
100
AcDbEllipse
 62
7
  6
CONTINUOUS
 10
1.1786741678
 20
-0.0
 30
0.0
 11
-0.0
 21
498.5
 31
0.0
 40
0.0174550649
 41
1.5305698785
 42
1.5397313937
  0
ELLIPSE
  5
6B5
100
AcDbEntity
  8
RACCORDO
100
AcDbEllipse
 62
7
  6
CONTINUOUS
 10
11.25
 20
0.4799914261
 30
0.0
 11
0.0
 21
27.4986903856
 31
0.0
 40
0.9998476487
 41
0.7193864675
 42
0.7279158383
  0
ELLIPSE
  5
6B6
100
AcDbEntity
  8
RACCORDO
100
AcDbEllipse
 62
7
  6
CONTINUOUS
 10
-11.25
 20
0.4799914261
 30
0.0
 11
-0.0
 21
27.4986903856
 31
0.0
 40
0.9998476487
 41
-0.7279158383
 42
-0.7193864675
  0
ELLIPSE
  5
6B7
100
AcDbEntity
  8
RACCORDO
100
AcDbEllipse
 62
7
  6
CONTINUOUS
 10
-6.8558627241
 20
20.5728199289
 30
0.0
 11
0.200007485
 21
-0.0000148403
 31
0.0
 40
0.0122341997
 41
0.0122354048
 42
0.1561732272
  0
ELLIPSE
  5
6B8
100
AcDbEntity
  8
RACCORDO
100
AcDbEllipse
 62
7
  6
CONTINUOUS
 10
6.858264942
 20
-20.2975530235
 30
0.0
 11
0.200007485
 21
-0.0000148403
 31
0.0
 40
0.0122341997
 41
-3.1293572488
 42
-2.9854194263
  0
ELLIPSE
  5
6B9
100
AcDbEntity
  8
RACCORDO
100
AcDbEllipse
 62
7
  6
CONTINUOUS
 10
10.8635638309
 20
-0.0
 30
0.0
 11
-0.0
 21
498.5
 31
0.0
 40
0.0087268678
 41
-4.6813231009
 42
-4.6719445077
  0
ELLIPSE
  5
6BA
100
AcDbEntity
  8
RACCORDO
100
AcDbEllipse
 62
7
  6
CONTINUOUS
 10
-10.8635638309
 20
0.0
 30
0.0
 11
-0.0
 21
498.5
 31
0.0
 40
0.0087268678
 41
-1.6112407994
 42
-1.6018622062
  0
ELLIPSE
  5
6BB
100
AcDbEntity
  8
RACCORDO
100
AcDbEllipse
 62
7
  6
CONTINUOUS
 10
-10.8635638309
 20
0.0
 30
0.0
 11
0.0
 21
498.5
 31
0.0
 40
0.0087268678
 41
-1.5397304474
 42
-1.5307494509
  0
ENDSEC
  0
SECTION
  2
OBJECTS
  0
DICTIONARY
  5
C
100
AcDbDictionary
280
0
281
1
  3
ACAD_GROUP
350
D
  3
ACAD_MLINESTYLE
350
17
  3
ACAD_LAYOUT
350
1A
  3
ACAD_PLOTSETTINGS
350
19
  3
ACAD_PLOTSTYLENAME
350
E
  0
DICTIONARY
  5
D
102
{ACAD_REACTORS
330
C
102
}
100
AcDbDictionary
280
0
281
1
  0
ACDBDICTIONARYWDFLT
  5
E
102
{ACAD_REACTORS
330
C
102
}
100
AcDbDictionary
281
1
  3
Normal
350
F
100
AcDbDictionaryWithDefault
340
F
  0
DICTIONARY
  5
17
102
{ACAD_REACTORS
330
C
102
}
100
AcDbDictionary
280
0
281
1
  3
Standard
350
18
  0
DICTIONARY
  5
19
102
{ACAD_REACTORS
330
C
102
}
100
AcDbDictionary
281
1
  0
DICTIONARY
  5
1A
102
{ACAD_REACTORS
330
C
102
}
100
AcDbDictionary
281
1
  3
Model
350
6BC
  3
Layout1
350
6BD
  0
ACDBPLACEHOLDER
  5
F
102
{ACAD_REACTORS
330
E
102
}
  0
MLINESTYLE
  5
18
102
{ACAD_REACTORS
330
17
102
}
100
AcDbMlineStyle
  2
STANDARD
 70
0
  3

 62
256
 51
90.0
 52
90.0
 71
2
 49
0.5
 62
256
  6
BYLAYER
 49
-0.5
 62
256
  6
BYLAYER
  0
LAYOUT
  5
6BC
102
{ACAD_REACTORS
330
1A
102
}
100
AcDbPlotSettings
  1

  2
none_device
  4
ISO_A4_(297.00_x_210.00_MM)
  6

 40
0.0
 41
0.0
 42
0.0
 43
0.0
 44
297.0
 45
210.0
 46
0.0
 47
0.0
 48
0.0
 49
0.0
140
0.0
141
0.0
142
1.0
143
1.0
 70
1024
 72
1
 73
0
 74
0
  7

 75
0
147
1.0
148
0.0
149
0.0
100
AcDbLayout
  1
Model
 70
0
 71
0
 10
0.0
 20
0.0
 11
297.0
 21
210.0
 12
0.0
 22
0.0
 32
0.0
 14
0.0
 24
0.0
 34
0.0
 15
0.0
 25
0.0
 35
0.0
146
0.0
 13
0.0
 23
0.0
 33
0.0
 16
1.0
 26
0.0
 36
0.0
 17
0.0
 27
1.0
 37
0.0
 76
0
330
212
345
0
346
0
  0
LAYOUT
  5
6BD
102
{ACAD_REACTORS
330
1A
102
}
100
AcDbPlotSettings
  1

  2
none_device
  4
ISO_A4_(297.00_x_210.00_MM)
  6

 40
0.0
 41
0.0
 42
0.0
 43
0.0
 44
297.0
 45
210.0
 46
0.0
 47
0.0
 48
0.0
 49
0.0
140
0.0
141
0.0
142
1.0
143
1.0
 70
0
 72
1
 73
0
 74
0
  7

 75
0
147
1.0
148
0.0
149
0.0
100
AcDbLayout
  1
Layout1
 70
0
 71
1
 10
0.0
 20
0.0
 11
297.0
 21
210.0
 12
0.0
 22
0.0
 32
0.0
 14
0.0
 24
0.0
 34
0.0
 15
0.0
 25
0.0
 35
0.0
146
0.0
 13
0.0
 23
0.0
 33
0.0
 16
1.0
 26
0.0
 36
0.0
 17
0.0
 27
1.0
 37
0.0
 76
0
330
213
345
0
346
0
  0
ENDSEC
  0
EOF
