  0
SECTION
  2
HEADER
  9
$ACADVER
  1
AC1024
  9
$DWGCODEPAGE
  3
ANSI_1252
  9
$EXTMAX
 10
297.0
 20
210.0
 30
0.0
  9
$EXTMIN
 10
0.0
 20
0.0
 30
0.0
  9
$LIMMIN
 10
0.0
 20
0.0
  9
$LIMMAX
 10
297.0
 20
210.0
  9
$VIEWCTR
 10
148.5
 20
105.0
  9
$VIEWSIZE
 40
210.0
  9
$CLAYER
  8
0
  9
$LTSCALE
 40
16.335
  9
$CELTYPE
  6
BYLAYER
  9
$DIMSCALE
 40
1.0
  9
$DIMASZ
 40
3.0
  9
$DIMEXO
 40
0.5
  9
$DIMDLI
 40
11.286
  9
$DIMEXE
 40
1.5
  9
$DIMCEN
 40
2.673
  9
$DIMLFAC
 40
1.0
  9
$DIMBLK
  1
_FILLED
  9
$DIMALT
 70
0
  9
$DIMALTF
 40
0.0393700787
  9
$DIMTXT
 40
3.0
  9
$DIMTOL
 70
1
  9
$DIMLIM
 70
0
  9
$DIMTFAC
 40
1.0
  9
$DIMTP
 40
0.01
  9
$DIMTM
 40
0.01
  9
$DIMGAP
 40
0.625
  9
$DIMDSEP
 70
44
  9
$AUNITS
 70
0
  9
$PDMODE
 70
3
  9
$PDSIZE
 40
3.0
  9
$HANDSEED
  5
54C
  9
$TILEMODE
 70
1
  9
$MEASUREMENT
 70
1
  9
$INSUNITS
 70
4
  0
ENDSEC
  0
SECTION
  2
CLASSES
  0
CLASS
  1
ACDBDICTIONARYWDFLT
  2
AcDbDictionaryWithDefault
  3
AutoCAD 2000
 90
0
 91
1
280
0
281
0
  0
CLASS
  1
ACDBPLACEHOLDER
  2
AcDbPlaceHolder
  3
AutoCAD 2000
 90
0
 91
1
280
0
281
0
  0
CLASS
  1
LAYOUT
  2
AcDbLayout
  3
AutoCAD 2000
 90
0
 91
0
280
0
281
0
  0
ENDSEC
  0
SECTION
  2
TABLES
  0
TABLE
  2
VPORT
  5
8
100
AcDbSymbolTable
 70
2
  0
VPORT
  5
1F4
100
AcDbSymbolTableRecord
100
AcDbViewportTableRecord
  2
*ACTIVE
 70
0
 10
0.0
 20
0.0
 11
1.0
 21
1.0
 12
148.5
 22
105.0
 13
0.0
 23
0.0
 14
1.0
 24
1.0
 15
0.0
 25
0.0
 16
0.0
 26
0.0
 36
1.0
 17
0.0
 27
0.0
 37
0.0
 40
210.0
 41
1.4142857143
 42
50.0
 43
0.0
 44
0.0
 50
0.0
 51
0.0
 71
0
 72
100
 73
1
 74
1
 75
0
 76
0
 77
0
 78
0
  0
ENDTAB
  0
TABLE
  2
LTYPE
  5
5
100
AcDbSymbolTable
 70
6
  0
LTYPE
  5
14
100
AcDbSymbolTableRecord
100
AcDbLinetypeTableRecord
  2
BYBLOCK
 70
0
  3

 72
65
 73
0
 40
0.0
  0
LTYPE
  5
15
100
AcDbSymbolTableRecord
100
AcDbLinetypeTableRecord
  2
BYLAYER
 70
0
  3

 72
65
 73
0
 40
0.0
  0
LTYPE
  5
16
100
AcDbSymbolTableRecord
100
AcDbLinetypeTableRecord
  2
CONTINUOUS
 70
64
  3
Solid line
 72
65
 73
0
 40
0.0
  0
LTYPE
  5
1F5
100
AcDbSymbolTableRecord
100
AcDbLinetypeTableRecord
  2
CENTER
 70
64
  3
____ _ ____ _ ____ _ ____ _ ____ _ ____ _ ____
 72
65
 73
4
 40
0.6
 49
0.375
 74
0
 49
-0.075
 74
0
 49
0.075
 74
0
 49
-0.075
 74
0
  0
LTYPE
  5
1F6
100
AcDbSymbolTableRecord
100
AcDbLinetypeTableRecord
  2
HIDDEN
 70
64
  3
- - - - - - - - - - - - - - - - - - - -
 72
65
 73
2
 40
0.2
 49
0.1
 74
0
 49
-0.1
 74
0
  0
LTYPE
  5
1F7
100
AcDbSymbolTableRecord
100
AcDbLinetypeTableRecord
  2
PHANTOM
 70
64
  3
_____ _ _ _____ _ _ _____ _ _ _____
 72
65
 73
6
 40
0.8
 49
0.45
 74
0
 49
-0.05
 74
0
 49
0.1
 74
0
 49
-0.05
 74
0
 49
0.1
 74
0
 49
-0.05
 74
0
  0
LTYPE
  5
1F8
100
AcDbSymbolTableRecord
100
AcDbLinetypeTableRecord
  2
DOT
 70
64
  3
. . . . . . . . . . . . . . . . . . . .
 72
65
 73
2
 40
0.2
 49
0.1
 74
0
 49
-0.1
 74
0
  0
LTYPE
  5
1F9
100
AcDbSymbolTableRecord
100
AcDbLinetypeTableRecord
  2
DASHED
 70
64
  3
- - - - - - - - - - - - - - - - - - - -
 72
65
 73
2
 40
0.2
 49
0.1
 74
0
 49
-0.1
 74
0
  0
ENDTAB
  0
TABLE
  2
LAYER
  5
2
100
AcDbSymbolTable
 70
36
  0
LAYER
  5
10
100
AcDbSymbolTableRecord
100
AcDbLayerTableRecord
  2
0
 70
0
 62
7
  6
CONTINUOUS
370
-3
390
F
  0
LAYER
  5
1FA
100
AcDbSymbolTableRecord
100
AcDbLayerTableRecord
  2
DEFAULT_1
 70
0
 62
7
  6
CENTER
370
-3
390
F
  0
LAYER
  5
1FB
100
AcDbSymbolTableRecord
100
AcDbLayerTableRecord
  2
DEFAULT_2
 70
0
 62
7
  6
HIDDEN
370
-3
390
F
  0
LAYER
  5
1FC
100
AcDbSymbolTableRecord
100
AcDbLayerTableRecord
  2
DEFAULT_3
 70
0
 62
7
  6
PHANTOM
370
-3
390
F
  0
LAYER
  5
1FD
100
AcDbSymbolTableRecord
100
AcDbLayerTableRecord
  2
ASSI
 70
0
 62
7
  6
CONTINUOUS
370
-3
390
F
  0
LAYER
  5
1FE
100
AcDbSymbolTableRecord
100
AcDbLayerTableRecord
  2
COORDINATE
 70
0
 62
7
  6
CONTINUOUS
370
-3
390
F
  0
LAYER
  5
1FF
100
AcDbSymbolTableRecord
100
AcDbLayerTableRecord
  2
COORD_ORIGINE
 70
0
 62
7
  6
CONTINUOUS
370
-3
390
F
  0
LAYER
  5
200
100
AcDbSymbolTableRecord
100
AcDbLayerTableRecord
  2
CURVE
 70
0
 62
7
  6
CONTINUOUS
370
-3
390
F
  0
LAYER
  5
201
100
AcDbSymbolTableRecord
100
AcDbLayerTableRecord
  2
DRAFT
 70
0
 62
7
  6
CONTINUOUS
370
-3
390
F
  0
LAYER
  5
202
100
AcDbSymbolTableRecord
100
AcDbLayerTableRecord
  2
IMPORT_FEATURES
 70
0
 62
7
  6
CONTINUOUS
370
-3
390
F
  0
LAYER
  5
203
100
AcDbSymbolTableRecord
100
AcDbLayerTableRecord
  2
INTF_1
 70
0
 62
7
  6
CONTINUOUS
370
-3
390
F
  0
LAYER
  5
204
100
AcDbSymbolTableRecord
100
AcDbLayerTableRecord
  2
INTF_11
 70
0
 62
7
  6
CONTINUOUS
370
-3
390
F
  0
LAYER
  5
205
100
AcDbSymbolTableRecord
100
AcDbLayerTableRecord
  2
INTF_8
 70
0
 62
7
  6
CONTINUOUS
370
-3
390
F
  0
LAYER
  5
206
100
AcDbSymbolTableRecord
100
AcDbLayerTableRecord
  2
NOTE
 70
0
 62
7
  6
CONTINUOUS
370
-3
390
F
  0
LAYER
  5
207
100
AcDbSymbolTableRecord
100
AcDbLayerTableRecord
  2
PIANI
 70
0
 62
7
  6
CONTINUOUS
370
-3
390
F
  0
LAYER
  5
208
100
AcDbSymbolTableRecord
100
AcDbLayerTableRecord
  2
PIANI_ORIGINE
 70
0
 62
7
  6
CONTINUOUS
370
-3
390
F
  0
LAYER
  5
209
100
AcDbSymbolTableRecord
100
AcDbLayerTableRecord
  2
PUNTI
 70
0
 62
7
  6
CONTINUOUS
370
-3
390
F
  0
LAYER
  5
20A
100
AcDbSymbolTableRecord
100
AcDbLayerTableRecord
  2
RACCORDO
 70
0
 62
7
  6
CONTINUOUS
370
-3
390
F
  0
LAYER
  5
20B
100
AcDbSymbolTableRecord
100
AcDbLayerTableRecord
  2
RGB____0____0____0__
 70
0
 62
7
  6
CONTINUOUS
370
-3
390
F
  0
LAYER
  5
20C
100
AcDbSymbolTableRecord
100
AcDbLayerTableRecord
  2
SMUSSO
 70
0
 62
7
  6
CONTINUOUS
370
-3
390
F
  0
LAYER
  5
20D
100
AcDbSymbolTableRecord
100
AcDbLayerTableRecord
  2
SNAPLINE
 70
0
 62
7
  6
CONTINUOUS
370
-3
390
F
  0
LAYER
  5
20E
100
AcDbSymbolTableRecord
100
AcDbLayerTableRecord
  2
SUPERFICI
 70
0
 62
7
  6
CONTINUOUS
370
-3
390
F
  0
LAYER
  5
20F
100
AcDbSymbolTableRecord
100
AcDbLayerTableRecord
  2
TRASH
 70
0
 62
7
  6
CONTINUOUS
370
-3
390
F
  0
ENDTAB
  0
TABLE
  2
STYLE
  5
3
100
AcDbSymbolTable
 70
1
  0
STYLE
  5
11
100
AcDbSymbolTableRecord
100
AcDbTextStyleTableRecord
  2
STANDARD
 70
0
 40
0.0
 41
0.8
 50
0.0
 71
0
 42
0.2
  3
txt
  4

  0
STYLE
  5
210
100
AcDbSymbolTableRecord
100
AcDbTextStyleTableRecord
  2
TEXTSTYLE_1
 70
0
 40
0.0
 41
0.8
 50
0.0
 71
0
 42
0.2
  3
gdt
  4

  0
ENDTAB
  0
TABLE
  2
VIEW
  5
6
100
AcDbSymbolTable
 70
0
  0
ENDTAB
  0
TABLE
  2
UCS
  5
7
100
AcDbSymbolTable
 70
0
  0
ENDTAB
  0
TABLE
  2
APPID
  5
9
100
AcDbSymbolTable
 70
1
  0
APPID
  5
211
100
AcDbSymbolTableRecord
100
AcDbRegAppTableRecord
  2
ACAD
 70
0
  0
ENDTAB
  0
TABLE
  2
BLOCK_RECORD
  5
1
100
AcDbSymbolTable
 70
0
  0
BLOCK_RECORD
  5
212
100
AcDbSymbolTableRecord
100
AcDbBlockTableRecord
  2
*Model_Space
  0
BLOCK_RECORD
  5
213
100
AcDbSymbolTableRecord
100
AcDbBlockTableRecord
  2
*Paper_Space
  0
BLOCK_RECORD
  5
214
100
AcDbSymbolTableRecord
100
AcDbBlockTableRecord
  2
_FILLED
  0
ENDTAB
  0
TABLE
  2
DIMSTYLE
  5
A
100
AcDbSymbolTable
 70
1
100
AcDbDimStyleTable
 71
0
  0
DIMSTYLE
105
215
100
AcDbSymbolTableRecord
100
AcDbDimStyleTableRecord
  2
STANDARD
 70
0
  3

  4

 40
1.0
 41
3.0
 42
0.5
 43
0.38
 44
1.5
 45
0.0
 46
0.0
 47
0.01
 48
0.01
140
3.0
141
0.09
142
0.0
143
25.4
144
1.0
145
0.0
146
1.0
147
0.625
 71
1
 72
0
 73
0
 74
0
 75
0
 76
0
 77
1
 78
8
 79
2
170
0
171
1
172
0
173
0
174
0
175
0
176
0
177
0
178
0
270
2
179
2
271
2
272
2
273
2
274
2
275
0
280
0
281
0
282
0
283
1
284
8
285
0
286
0
287
3
288
0
340
11
278
44
341
214
342
214
343
214
344
214
  0
ENDTAB
  0
ENDSEC
  0
SECTION
  2
BLOCKS
  0
BLOCK
  5
20
100
AcDbEntity
  8
0
100
AcDbBlockBegin
  2
*Model_Space
 70
0
 10
0.0
 20
0.0
 30
0.0
  3
*Model_Space
  1

  0
ENDBLK
  5
21
100
AcDbEntity
  8
0
100
AcDbBlockEnd
  0
BLOCK
  5
1C
100
AcDbEntity
  8
0
100
AcDbBlockBegin
  2
*Paper_Space
 70
0
 10
0.0
 20
0.0
 30
0.0
  3
*Paper_Space
  1

  0
ENDBLK
  5
1D
100
AcDbEntity
  8
0
100
AcDbBlockEnd
  0
BLOCK
  5
216
100
AcDbEntity
  8
0
100
AcDbBlockBegin
  2
_FILLED
 70
64
 10
0.0
 20
0.0
  3
_FILLED
  1

  0
SOLID
  5
217
100
AcDbEntity
  8
0
  6
BYBLOCK
 62
0
100
AcDbTrace
 10
0.0
 20
0.0
 11
-1.0
 21
0.3166666667
 12
-1.0
 22
-0.3166666667
 13
-1.0
 23
-0.3166666667
  0
ENDBLK
  5
218
100
AcDbEntity
  8
0
  6
BYBLOCK
 62
0
100
AcDbBlockEnd
  0
ENDSEC
  0
SECTION
  2
ENTITIES
  0
LWPOLYLINE
  5
219
100
AcDbEntity
  8
RACCORDO
100
AcDbPolyline
 62
250
  6
CONTINUOUS
 90
13
 70
0
 10
3.0154690987
 20
-23.3164213562
 10
3.041191556
 20
-23.3147970021
 10
3.0664969318
 20
-23.3108470551
 10
3.0909634941
 20
-23.3046343515
 10
3.1141870624
 20
-23.2962576898
 10
3.1357737634
 20
-23.2858550957
 10
3.15535021
 20
-23.2736054925
 10
3.1726038427
 20
-23.2597023994
 10
3.1872314124
 20
-23.2443878382
 10
3.1989595485
 20
-23.2279688039
 10
3.2076146032
 20
-23.2107448987
 10
3.2130968775
 20
-23.1929905064
 10
3.2153472641
 20
-23.175
  0
LINE
  5
21A
100
AcDbEntity
  8
0
100
AcDbLine
 62
7
  6
CONTINUOUS
 10
-3.6748577666
 20
-23.5
 11
3.6748577666
 21
-23.5
  0
LINE
  5
21B
100
AcDbEntity
  8
0
100
AcDbLine
 62
7
  6
CONTINUOUS
 10
3.3633443637
 20
-23.4668353766
 11
-3.3633443637
 21
-23.4668353766
  0
LINE
  5
21C
100
AcDbEntity
  8
0
100
AcDbLine
 62
7
  6
CONTINUOUS
 10
3.653791075
 20
-23.4301797403
 11
3.4
 21
-23.4301797403
  0
LINE
  5
21D
100
AcDbEntity
  8
0
100
AcDbLine
 62
7
  6
CONTINUOUS
 10
-3.4
 20
-23.4301797403
 11
-3.653791075
 21
-23.4301797403
  0
LINE
  5
21E
100
AcDbEntity
  8
RACCORDO
100
AcDbLine
 62
7
  6
CONTINUOUS
 10
-3.0300365522
 20
-23.375
 11
3.0300365522
 21
-23.375
  0
LINE
  5
21F
100
AcDbEntity
  8
RACCORDO
100
AcDbLine
 62
250
  6
CONTINUOUS
 10
-3.0154690987
 20
-23.3164213562
 11
3.0154690987
 21
-23.3164213562
  0
LINE
  5
220
100
AcDbEntity
  8
RACCORDO
100
AcDbLine
 62
250
  6
CONTINUOUS
 10
-3.230158461
 20
-23.175
 11
-3.2153472641
 21
-23.175
  0
LINE
  5
221
100
AcDbEntity
  8
RACCORDO
100
AcDbLine
 62
250
  6
CONTINUOUS
 10
3.2153472641
 20
-23.175
 11
3.230158461
 21
-23.175
  0
LINE
  5
222
100
AcDbEntity
  8
0
100
AcDbLine
 62
7
  6
CONTINUOUS
 10
3.3633443637
 20
-22.5
 11
3.230158461
 21
-22.5
  0
LINE
  5
223
100
AcDbEntity
  8
0
100
AcDbLine
 62
7
  6
CONTINUOUS
 10
-3.230158461
 20
-22.5
 11
-3.3633443637
 21
-22.5
  0
LINE
  5
224
100
AcDbEntity
  8
0
100
AcDbLine
 62
7
  6
CONTINUOUS
 10
-10.6503805997
 20
-22.4
 11
-5.5445583437
 21
-22.4
  0
LINE
  5
225
100
AcDbEntity
  8
0
100
AcDbLine
 62
7
  6
CONTINUOUS
 10
-3.3848722771
 20
-22.4
 11
-3.3
 21
-22.4
  0
LINE
  5
226
100
AcDbEntity
  8
0
100
AcDbLine
 62
7
  6
CONTINUOUS
 10
3.3
 20
-22.4
 11
3.3848722771
 21
-22.4
  0
LINE
  5
227
100
AcDbEntity
  8
0
100
AcDbLine
 62
7
  6
CONTINUOUS
 10
5.5445583437
 20
-22.4
 11
10.6503805997
 21
-22.4
  0
LWPOLYLINE
  5
228
100
AcDbEntity
  8
0
100
AcDbPolyline
 62
7
  6
CONTINUOUS
 90
10
 70
0
 10
-3.6748577666
 20
-23.5
 10
-3.7398775726
 20
-23.4979109651
 10
-3.804293566
 20
-23.4916266999
 10
-3.8681057469
 20
-23.4811472046
 10
-3.9317124949
 20
-23.4663543545
 10
-3.9947154302
 20
-23.4473662742
 10
-4.0559194138
 20
-23.4245373373
 10
-4.1149260659
 20
-23.3979856684
 10
-4.1721337662
 20
-23.3675931429
 10
-4.2275425147
 20
-23.3333597609
  0
LWPOLYLINE
  5
229
100
AcDbEntity
  8
0
100
AcDbPolyline
 62
7
  6
CONTINUOUS
 90
10
 70
0
 10
-3.653791075
 20
-23.4301797403
 10
-3.7193523994
 20
-23.4279830849
 10
-3.7840913835
 20
-23.4216350472
 10
-3.8480080272
 20
-23.4111356272
 10
-3.9113657272
 20
-23.3964052957
 10
-3.9739010869
 20
-23.3775235818
 10
-4.0348239165
 20
-23.3547290728
 10
-4.0938708196
 20
-23.3281012976
 10
-4.1513051927
 20
-23.2975607273
 10
-4.2071270357
 20
-23.2631073618
  0
LWPOLYLINE
  5
22A
100
AcDbEntity
  8
RACCORDO
100
AcDbPolyline
 62
250
  6
CONTINUOUS
 90
13
 70
0
 10
-3.0154690987
 20
-23.3164213562
 10
-3.041191556
 20
-23.3147970021
 10
-3.0664969318
 20
-23.3108470551
 10
-3.0909634941
 20
-23.3046343515
 10
-3.1141870624
 20
-23.2962576898
 10
-3.1357737634
 20
-23.2858550957
 10
-3.15535021
 20
-23.2736054925
 10
-3.1726038427
 20
-23.2597023994
 10
-3.1872314124
 20
-23.2443878382
 10
-3.1989595485
 20
-23.2279688039
 10
-3.2076146032
 20
-23.2107448987
 10
-3.2130968775
 20
-23.1929905064
 10
-3.2153472641
 20
-23.175
  0
LINE
  5
22B
100
AcDbEntity
  8
RACCORDO
100
AcDbLine
 62
7
  6
CONTINUOUS
 10
-6.8543212234
 20
21.2671091982
 11
-6.789671828
 21
21.3225661145
  0
LINE
  5
22C
100
AcDbEntity
  8
RACCORDO
100
AcDbLine
 62
7
  6
CONTINUOUS
 10
-6.789671828
 20
21.3225661145
 11
-6.7022433077
 21
21.3965394526
  0
LWPOLYLINE
  5
22D
100
AcDbEntity
  8
RACCORDO
100
AcDbPolyline
 62
250
  6
CONTINUOUS
 90
16
 70
0
 10
-7.0746867545
 20
21.0738911231
 10
-7.0517679963
 20
21.0926618574
 10
-7.0285331582
 20
21.1095285418
 10
-7.0051548145
 20
21.124554915
 10
-6.9818180773
 20
21.1378112686
 10
-6.9586299527
 20
21.1494101404
 10
-6.9356131881
 20
21.1594878576
 10
-6.9128697291
 20
21.168133116
 10
-6.8905010763
 20
21.1754325464
 10
-6.8685037634
 20
21.1814977159
 10
-6.8469528523
 20
21.1864089856
 10
-6.8259080108
 20
21.19025101
 10
-6.8053231115
 20
21.1931180213
 10
-6.7852102259
 20
21.19508226
 10
-6.7656429621
 20
21.196209594
 10
-6.7466556734
 20
21.1965698468
  0
LWPOLYLINE
  5
22E
100
AcDbEntity
  8
RACCORDO
100
AcDbPolyline
 62
250
  6
CONTINUOUS
 90
7
 70
0
 10
-8.0343814154
 20
19.8498818807
 10
-8.0501661568
 20
19.8398893904
 10
-8.0627664025
 20
19.8316941695
 10
-8.0724102671
 20
19.8252517429
 10
-8.0791737888
 20
19.8205279432
 10
-8.0829809296
 20
19.8174902779
 10
-8.0838316893
 20
19.8160983575
  0
LWPOLYLINE
  5
22F
100
AcDbEntity
  8
0
100
AcDbPolyline
 62
7
  6
CONTINUOUS
 90
10
 70
0
 10
-4.227542437
 20
23.3333598127
 10
-4.1722027306
 20
23.3675604312
 10
-4.1150484085
 20
23.3979309403
 10
-4.0560794707
 20
23.4244713402
 10
-3.9948996673
 20
23.4473031655
 10
-3.9319052482
 20
23.4663048816
 10
-3.8682849634
 20
23.4811118836
 10
-3.8044350627
 20
23.4916026365
 10
-3.7399592962
 20
23.4978986753
 10
-3.674857664
 20
23.5
  0
LWPOLYLINE
  5
230
100
AcDbEntity
  8
RACCORDO
100
AcDbPolyline
 62
250
  6
CONTINUOUS
 90
3
 70
0
 10
-7.9676921023
 20
19.8909423833
 10
-7.9931520607
 20
19.8754208872
 10
-8.0343814154
 20
19.8498818807
  0
LINE
  5
231
100
AcDbEntity
  8
RACCORDO
100
AcDbLine
 62
250
  6
CONTINUOUS
 10
-7.9069166997
 20
19.9274149796
 11
-7.9676921023
 21
19.8909423833
  0
LINE
  5
232
100
AcDbEntity
  8
RACCORDO
100
AcDbLine
 62
250
  6
CONTINUOUS
 10
-7.8333826366
 20
19.970883754
 11
-7.9069166997
 21
19.9274149796
  0
LINE
  5
233
100
AcDbEntity
  8
RACCORDO
100
AcDbLine
 62
250
  6
CONTINUOUS
 10
-7.7471659548
 20
20.0210169973
 11
-7.8333826366
 21
19.970883754
  0
LWPOLYLINE
  5
234
100
AcDbEntity
  8
RACCORDO
100
AcDbPolyline
 62
250
  6
CONTINUOUS
 90
13
 70
0
 10
-9.522351825
 20
19.7664007784
 10
-9.5191669329
 20
19.7679374715
 10
-9.5110162034
 20
19.7694484517
 10
-9.4980360226
 20
19.7709084355
 10
-9.4804435875
 20
19.7722929934
 10
-9.4585332721
 20
19.7735789573
 10
-9.4326717013
 20
19.7747448088
 10
-9.4032916165
 20
19.7757710396
 10
-9.3708846339
 20
19.7766404778
 10
-9.335993019
 20
19.7773385753
 10
-9.2992006127
 20
19.7778536507
 10
-9.2611230615
 20
19.7781770852
 10
-9.2223975165
 20
19.7783034669
  0
LINE
  5
235
100
AcDbEntity
  8
RACCORDO
100
AcDbLine
 62
7
  6
CONTINUOUS
 10
-2.6554647254
 20
-21.1306884717
 11
-3.1
 21
-21.1720718961
  0
LINE
  5
236
100
AcDbEntity
  8
RACCORDO
100
AcDbLine
 62
7
  6
CONTINUOUS
 10
-3.298652529
 20
-21.190565191
 11
-3.3631544652
 21
-21.1965699136
  0
LWPOLYLINE
  5
237
100
AcDbEntity
  8
RACCORDO
100
AcDbPolyline
 62
250
  6
CONTINUOUS
 90
19
 70
0
 10
8.7730563203
 20
-20.2297306704
 10
8.8123873845
 20
-20.227985515
 10
8.8509436014
 20
-20.2229245879
 10
8.8887249712
 20
-20.2145478849
 10
8.9260388006
 20
-20.2027451176
 10
8.9625777829
 20
-20.1876265579
 10
8.9974199971
 20
-20.1695230395
 10
9.0305008322
 20
-20.1483613887
 10
9.0618848992
 20
-20.1242147506
 10
9.0908441114
 20
-20.0976334389
 10
9.117317718
 20
-20.0685603775
 10
9.1413664698
 20
-20.0370526095
 10
9.1624445324
 20
-20.0038316349
 10
9.180482526
 20
-19.9688293306
 10
9.1955498305
 20
-19.9321137913
 10
9.2073087513
 20
-19.8946108562
 10
9.2156467234
 20
-19.8566291372
 10
9.2206763118
 20
-19.8178600103
 10
9.2223975165
 20
-19.7783034685
  0
LWPOLYLINE
  5
238
100
AcDbEntity
  8
RACCORDO
100
AcDbPolyline
 62
250
  6
CONTINUOUS
 90
19
 70
0
 10
8.7730563203
 20
-20.5171451693
 10
8.8383408539
 20
-20.5142699713
 10
8.9031267626
 20
-20.5057136512
 10
8.9669221181
 20
-20.4915405902
 10
9.0292420414
 20
-20.4718574754
 10
9.0896134013
 20
-20.4468132238
 10
9.1475783318
 20
-20.4165976677
 10
9.2026950652
 20
-20.3814393538
 10
9.2545454328
 20
-20.3416039525
 10
9.3027383169
 20
-20.2973919252
 10
9.3469056096
 20
-20.2491370579
 10
9.3867104635
 20
-20.1972039025
 10
9.4218522064
 20
-20.1419833662
 10
9.452061657
 20
-20.0838895847
 10
9.4771040569
 20
-20.0233644735
 10
9.4967856836
 20
-19.9608731665
 10
9.5109541906
 20
-19.8968917269
 10
9.5194988821
 20
-19.8319031698
 10
9.522351825
 20
-19.7664007784
  0
LWPOLYLINE
  5
239
100
AcDbEntity
  8
RACCORDO
100
AcDbPolyline
 62
250
  6
CONTINUOUS
 90
10
 70
0
 10
6.7220012112
 20
-21.1306884717
 10
6.7618583514
 20
-21.1290921506
 10
6.8013283055
 20
-21.1243465294
 10
6.8402373038
 20
-21.1164956603
 10
6.8784678162
 20
-21.1055608527
 10
6.9157842849
 20
-21.0915909028
 10
6.9518333337
 20
-21.074714627
 10
6.9863765813
 20
-21.055056476
 10
7.0192861017
 20
-21.0326888837
 10
7.0503755493
 20
-21.0077183978
  0
LINE
  5
23A
100
AcDbEntity
  8
0
100
AcDbLine
 62
7
  6
CONTINUOUS
 10
3.1
 20
-22.2
 11
-3.1
 21
-22.2
  0
LINE
  5
23B
100
AcDbEntity
  8
RACCORDO
100
AcDbLine
 62
250
  6
CONTINUOUS
 10
3.1705494094
 20
-21.8921572875
 11
3.1
 21
-21.8921572875
  0
LINE
  5
23C
100
AcDbEntity
  8
RACCORDO
100
AcDbLine
 62
250
  6
CONTINUOUS
 10
-3.1705494094
 20
-21.8921572875
 11
-3.1
 21
-21.8921572875
  0
LINE
  5
23D
100
AcDbEntity
  8
0
100
AcDbLine
 62
7
  6
CONTINUOUS
 10
2.7167632191
 20
-21.6560705017
 11
-2.7167632191
 21
-21.6560705017
  0
LINE
  5
23E
100
AcDbEntity
  8
RACCORDO
100
AcDbLine
 62
250
  6
CONTINUOUS
 10
6.7022433077
 20
-21.3965394526
 11
3.4
 21
-21.3965394526
  0
LINE
  5
23F
100
AcDbEntity
  8
RACCORDO
100
AcDbLine
 62
250
  6
CONTINUOUS
 10
-3.4
 20
-21.3965394526
 11
-6.7022433077
 21
-21.3965394526
  0
LINE
  5
240
100
AcDbEntity
  8
RACCORDO
100
AcDbLine
 62
250
  6
CONTINUOUS
 10
3.1705494094
 20
-21.2941832525
 11
3.1
 21
-21.2941832525
  0
LINE
  5
241
100
AcDbEntity
  8
RACCORDO
100
AcDbLine
 62
250
  6
CONTINUOUS
 10
-3.1705494094
 20
-21.2941832525
 11
-3.1
 21
-21.2941832525
  0
LINE
  5
242
100
AcDbEntity
  8
RACCORDO
100
AcDbLine
 62
250
  6
CONTINUOUS
 10
6.7466556736
 20
-21.1965699136
 11
3.3631544652
 21
-21.1965699136
  0
LINE
  5
243
100
AcDbEntity
  8
RACCORDO
100
AcDbLine
 62
250
  6
CONTINUOUS
 10
-3.3631544652
 20
-21.1965699136
 11
-6.7466556736
 21
-21.1965699136
  0
LINE
  5
244
100
AcDbEntity
  8
0
100
AcDbLine
 62
7
  6
CONTINUOUS
 10
3.298652529
 20
-21.190565191
 11
3.1
 21
-21.190565191
  0
LINE
  5
245
100
AcDbEntity
  8
0
100
AcDbLine
 62
7
  6
CONTINUOUS
 10
-3.1
 20
-21.190565191
 11
-3.298652529
 21
-21.190565191
  0
LINE
  5
246
100
AcDbEntity
  8
RACCORDO
100
AcDbLine
 62
250
  6
CONTINUOUS
 10
6.7220015127
 20
-21.1306884717
 11
2.6554647254
 21
-21.1306884717
  0
LINE
  5
247
100
AcDbEntity
  8
RACCORDO
100
AcDbLine
 62
250
  6
CONTINUOUS
 10
-2.6554647254
 20
-21.1306884717
 11
-6.7220015127
 21
-21.1306884717
  0
LINE
  5
248
100
AcDbEntity
  8
RACCORDO
100
AcDbLine
 62
250
  6
CONTINUOUS
 10
6.7219620243
 20
-20.9843180147
 11
2.5908096278
 21
-20.9843180147
  0
LINE
  5
249
100
AcDbEntity
  8
RACCORDO
100
AcDbLine
 62
250
  6
CONTINUOUS
 10
-2.5908096278
 20
-20.9843180147
 11
-6.7219621303
 21
-20.9843180147
  0
LINE
  5
24A
100
AcDbEntity
  8
RACCORDO
100
AcDbLine
 62
7
  6
CONTINUOUS
 10
8.9005708996
 20
-20.9
 11
7.3789613615
 21
-20.9
  0
LINE
  5
24B
100
AcDbEntity
  8
RACCORDO
100
AcDbLine
 62
7
  6
CONTINUOUS
 10
-7.3789613615
 20
-20.9
 11
-8.9005708996
 21
-20.9
  0
LWPOLYLINE
  5
24C
100
AcDbEntity
  8
RACCORDO
100
AcDbPolyline
 62
250
  6
CONTINUOUS
 90
16
 70
0
 10
-6.7466556736
 20
-21.1965698523
 10
-6.7657148215
 20
-21.1962068578
 10
-6.785348144
 20
-21.1950715649
 10
-6.8055209814
 20
-21.1930946018
 10
-6.8261612821
 20
-21.1902102918
 10
-6.8472548418
 20
-21.186347048
 10
-6.8688421093
 20
-21.1814125623
 10
-6.8908633295
 20
-21.1753235824
 10
-6.9132436596
 20
-21.16800113
 10
-6.9359818911
 20
-21.159337139
 10
-6.958977409
 20
-21.1492472929
 10
-6.9821291535
 20
-21.1376453082
 10
-7.0054108333
 20
-21.1244001332
 10
-7.0287161708
 20
-21.1094035379
 10
-7.0518646129
 20
-21.092587516
 10
-7.0746868407
 20
-21.0738912139
  0
LWPOLYLINE
  5
24D
100
AcDbEntity
  8
RACCORDO
100
AcDbPolyline
 62
250
  6
CONTINUOUS
 90
10
 70
0
 10
-6.7220012112
 20
-21.1306884717
 10
-6.7618583514
 20
-21.1290921506
 10
-6.8013283055
 20
-21.1243465294
 10
-6.8402373038
 20
-21.1164956603
 10
-6.8784678162
 20
-21.1055608527
 10
-6.9157842849
 20
-21.0915909028
 10
-6.9518333337
 20
-21.074714627
 10
-6.9863765813
 20
-21.055056476
 10
-7.0192861017
 20
-21.0326888837
 10
-7.0503755493
 20
-21.0077183978
  0
LINE
  5
24E
100
AcDbEntity
  8
RACCORDO
100
AcDbLine
 62
7
  6
CONTINUOUS
 10
3.3631544652
 20
-21.1965699136
 11
3.298652529
 21
-21.190565191
  0
LINE
  5
24F
100
AcDbEntity
  8
RACCORDO
100
AcDbLine
 62
7
  6
CONTINUOUS
 10
3.1
 20
-21.1720718961
 11
2.6554647254
 21
-21.1306884717
  0
LWPOLYLINE
  5
250
100
AcDbEntity
  8
RACCORDO
100
AcDbPolyline
 62
250
  6
CONTINUOUS
 90
13
 70
0
 10
-9.5223255552
 20
-19.7664007707
 10
-9.5191410245
 20
-19.7679374172
 10
-9.5109911626
 20
-19.7694483522
 10
-9.4980123306
 20
-19.7709082952
 10
-9.4804216869
 20
-19.772292819
 10
-9.4585135529
 20
-19.7735787577
 10
-9.4326544893
 20
-19.7747445951
 10
-9.4032771627
 20
-19.7757708244
 10
-9.3708731062
 20
-19.7766402753
 10
-9.335984495
 20
-19.7773384003
 10
-9.2991950755
 20
-19.7778535187
 10
-9.2611203978
 20
-19.7781770118
 10
-9.2223975165
 20
-19.778303467
  0
LINE
  5
251
100
AcDbEntity
  8
RACCORDO
100
AcDbLine
 62
250
  6
CONTINUOUS
 10
-7.8333826387
 20
-19.9708837552
 11
-7.7471659548
 21
-20.0210169973
  0
LINE
  5
252
100
AcDbEntity
  8
RACCORDO
100
AcDbLine
 62
250
  6
CONTINUOUS
 10
-7.9069166985
 20
-19.9274149793
 11
-7.8333826387
 21
-19.9708837552
  0
LWPOLYLINE
  5
253
100
AcDbEntity
  8
RACCORDO
100
AcDbPolyline
 62
250
  6
CONTINUOUS
 90
3
 70
0
 10
-7.993152054
 20
-19.8754208853
 10
-7.9676920952
 20
-19.8909423809
 10
-7.9069166985
 20
-19.9274149793
  0
LINE
  5
254
100
AcDbEntity
  8
RACCORDO
100
AcDbLine
 62
7
  6
CONTINUOUS
 10
-6.7022433077
 20
-21.3965394526
 11
-6.7886235989
 21
-21.3234611519
  0
LINE
  5
255
100
AcDbEntity
  8
RACCORDO
100
AcDbLine
 62
7
  6
CONTINUOUS
 10
-6.7886235989
 20
-21.3234611519
 11
-6.8529191159
 21
-21.2683183166
  0
LWPOLYLINE
  5
256
100
AcDbEntity
  8
RACCORDO
100
AcDbPolyline
 62
250
  6
CONTINUOUS
 90
10
 70
0
 10
-8.319075994
 20
19.8000766569
 10
-8.3449973496
 20
19.773041096
 10
-8.3676196859
 20
19.7491862737
 10
-8.3869976744
 20
19.7284981611
 10
-8.4030882801
 20
19.7110417088
 10
-8.4159532187
 20
19.6967694439
 10
-8.425801465
 20
19.6854957688
 10
-8.432705497
 20
19.6771612103
 10
-8.4366017581
 20
19.6718328655
 10
-8.4374926906
 20
19.6695125202
  0
LINE
  5
257
100
AcDbEntity
  8
RACCORDO
100
AcDbLine
 62
250
  6
CONTINUOUS
 10
-8.2571684034
 20
19.8637472852
 11
-8.319075994
 21
19.8000766569
  0
LINE
  5
258
100
AcDbEntity
  8
RACCORDO
100
AcDbLine
 62
250
  6
CONTINUOUS
 10
-8.1823095247
 20
19.9394957433
 11
-8.2571684034
 21
19.8637472852
  0
LINE
  5
259
100
AcDbEntity
  8
0
100
AcDbLine
 62
7
  6
CONTINUOUS
 10
-3.4
 20
23.4301797403
 11
-3.3633443637
 21
23.4668353766
  0
LINE
  5
25A
100
AcDbEntity
  8
RACCORDO
100
AcDbLine
 62
250
  6
CONTINUOUS
 10
-8.0944849713
 20
20.0270374575
 11
-8.1823095247
 21
19.9394957433
  0
LWPOLYLINE
  5
25B
100
AcDbEntity
  8
RACCORDO
100
AcDbPolyline
 62
250
  6
CONTINUOUS
 90
7
 70
0
 10
-7.0503754363
 20
21.007718023
 10
-7.2216600792
 20
20.853746017
 10
-7.3941345411
 20
20.6960514991
 10
-7.5677279072
 20
20.5345837397
 10
-7.7423674507
 20
20.369292238
 10
-7.9179786106
 20
20.2001267732
 10
-8.0944849713
 20
20.0270374575
  0
LWPOLYLINE
  5
25C
100
AcDbEntity
  8
RACCORDO
100
AcDbPolyline
 62
250
  6
CONTINUOUS
 90
7
 70
0
 10
-6.7219619987
 20
20.9843180147
 10
-6.890273673
 20
20.8331600565
 10
-7.059607608
 20
20.6782452138
 10
-7.2299638037
 20
20.5195734865
 10
-7.40134226
 20
20.3571448746
 10
-7.5737429771
 20
20.1909593782
 10
-7.7471659548
 20
20.0210169973
  0
LINE
  5
25D
100
AcDbEntity
  8
RACCORDO
100
AcDbLine
 62
7
  6
CONTINUOUS
 10
-7.0746906194
 20
21.0738952212
 11
-6.9847624593
 21
21.1534385764
  0
LINE
  5
25E
100
AcDbEntity
  8
RACCORDO
100
AcDbLine
 62
7
  6
CONTINUOUS
 10
-6.9847624593
 20
21.1534385764
 11
-6.9192242086
 21
21.210830867
  0
LINE
  5
25F
100
AcDbEntity
  8
RACCORDO
100
AcDbLine
 62
7
  6
CONTINUOUS
 10
-6.9192242086
 20
21.210830867
 11
-6.8543212234
 21
21.2671091982
  0
LWPOLYLINE
  5
260
100
AcDbEntity
  8
RACCORDO
100
AcDbPolyline
 62
250
  6
CONTINUOUS
 90
8
 70
0
 10
-3.1
 20
21.9973667597
 10
-3.1102941654
 20
21.9909457813
 10
-3.1275248778
 20
21.9771167279
 10
-3.1421553382
 20
21.9618792534
 10
-3.1539430091
 20
21.9454859581
 10
-3.1626924795
 20
21.9282086031
 10
-3.1682587044
 20
21.9103336049
 10
-3.1705494094
 20
21.8921572875
  0
LWPOLYLINE
  5
261
100
AcDbEntity
  8
RACCORDO
100
AcDbPolyline
 62
250
  6
CONTINUOUS
 90
10
 70
0
 10
7.9141766428
 20
-19.408575216
 10
7.9584997712
 20
-19.406610637
 10
8.002282223
 20
-19.400748618
 10
8.0452573819
 20
-19.3910722243
 10
8.0875202374
 20
-19.377542096
 10
8.1284811651
 20
-19.3602960502
 10
8.1671536879
 20
-19.3398297574
 10
8.2034226331
 20
-19.3163870398
 10
8.2376981359
 20
-19.2897657565
 10
8.2700406783
 20
-19.2597704959
  0
LWPOLYLINE
  5
262
100
AcDbEntity
  8
RACCORDO
100
AcDbPolyline
 62
250
  6
CONTINUOUS
 90
10
 70
0
 10
8.0838316893
 20
-19.8160983575
 10
8.1274267165
 20
-19.8141888918
 10
8.1706896801
 20
-19.8084860466
 10
8.2132910457
 20
-19.7990332604
 10
8.2549063182
 20
-19.7859025351
 10
8.295218514
 20
-19.7691938877
 10
8.3339205746
 20
-19.7490345881
 10
8.3707177061
 20
-19.7255781897
 10
8.4053296246
 20
-19.6990033601
 10
8.4374926906
 20
-19.6695125202
  0
LINE
  5
263
100
AcDbEntity
  8
RACCORDO
100
AcDbLine
 62
250
  6
CONTINUOUS
 10
-8.7730563203
 20
-20.5171451693
 11
-7.8030257335
 21
-20.5171451693
  0
LINE
  5
264
100
AcDbEntity
  8
RACCORDO
100
AcDbLine
 62
250
  6
CONTINUOUS
 10
7.8030257335
 20
-20.5171451693
 11
8.7730563203
 21
-20.5171451693
  0
LINE
  5
265
100
AcDbEntity
  8
RACCORDO
100
AcDbLine
 62
250
  6
CONTINUOUS
 10
-8.7730563203
 20
-20.2297306704
 11
-8.1039313083
 21
-20.2297306704
  0
LINE
  5
266
100
AcDbEntity
  8
RACCORDO
100
AcDbLine
 62
250
  6
CONTINUOUS
 10
8.1039313083
 20
-20.2297306704
 11
8.7730563203
 21
-20.2297306704
  0
LINE
  5
267
100
AcDbEntity
  8
RACCORDO
100
AcDbLine
 62
250
  6
CONTINUOUS
 10
7.7471659548
 20
-20.0210169973
 11
-7.7471659548
 21
-20.0210169973
  0
LINE
  5
268
100
AcDbEntity
  8
RACCORDO
100
AcDbLine
 62
250
  6
CONTINUOUS
 10
8.0838316893
 20
-19.8160983575
 11
-8.0838316893
 21
-19.8160983575
  0
LINE
  5
269
100
AcDbEntity
  8
RACCORDO
100
AcDbLine
 62
250
  6
CONTINUOUS
 10
-7.9141765766
 20
-19.408575216
 11
7.9141765766
 21
-19.408575216
  0
LINE
  5
26A
100
AcDbEntity
  8
RACCORDO
100
AcDbLine
 62
250
  6
CONTINUOUS
 10
-7.914174972
 20
-18.9086513684
 11
7.9141748818
 21
-18.9086513684
  0
LWPOLYLINE
  5
26B
100
AcDbEntity
  8
RACCORDO
100
AcDbPolyline
 62
250
  6
CONTINUOUS
 90
10
 70
0
 10
-8.0838316893
 20
-19.8160983137
 10
-8.1274267056
 20
-19.8141888537
 10
-8.1706896589
 20
-19.8084860111
 10
-8.2132910145
 20
-19.7990332247
 10
-8.2549062774
 20
-19.7859024965
 10
-8.2952184635
 20
-19.7691938434
 10
-8.3339205145
 20
-19.7490345355
 10
-8.3707176362
 20
-19.7255781265
 10
-8.4053295444
 20
-19.6990032842
 10
-8.4374925999
 20
-19.6695124295
  0
LWPOLYLINE
  5
26C
100
AcDbEntity
  8
RACCORDO
100
AcDbPolyline
 62
250
  6
CONTINUOUS
 90
10
 70
0
 10
-7.9141766428
 20
-19.408575216
 10
-7.9584997712
 20
-19.406610637
 10
-8.002282223
 20
-19.400748618
 10
-8.0452573819
 20
-19.3910722243
 10
-8.0875202374
 20
-19.377542096
 10
-8.1284811651
 20
-19.3602960502
 10
-8.1671536879
 20
-19.3398297574
 10
-8.2034226331
 20
-19.3163870398
 10
-8.2376981359
 20
-19.2897657565
 10
-8.2700406783
 20
-19.2597704959
  0
LWPOLYLINE
  5
26D
100
AcDbEntity
  8
RACCORDO
100
AcDbPolyline
 62
250
  6
CONTINUOUS
 90
8
 70
0
 10
-3.1
 20
-21.9973667597
 10
-3.1102941654
 20
-21.9909457813
 10
-3.1275248778
 20
-21.9771167279
 10
-3.1421553382
 20
-21.9618792534
 10
-3.1539430091
 20
-21.9454859581
 10
-3.1626924795
 20
-21.9282086031
 10
-3.1682587044
 20
-21.9103336049
 10
-3.1705494094
 20
-21.8921572875
  0
LINE
  5
26E
100
AcDbEntity
  8
RACCORDO
100
AcDbLine
 62
7
  6
CONTINUOUS
 10
-6.8529191159
 20
-21.2683183166
 11
-6.9183951164
 21
-21.21155319
  0
LINE
  5
26F
100
AcDbEntity
  8
RACCORDO
100
AcDbLine
 62
7
  6
CONTINUOUS
 10
-6.9183951164
 20
-21.21155319
 11
-6.984651877
 21
-21.1535357513
  0
LINE
  5
270
100
AcDbEntity
  8
RACCORDO
100
AcDbLine
 62
7
  6
CONTINUOUS
 10
-6.984651877
 20
-21.1535357513
 11
-7.0746906195
 21
-21.0738952211
  0
LWPOLYLINE
  5
271
100
AcDbEntity
  8
RACCORDO
100
AcDbPolyline
 62
250
  6
CONTINUOUS
 90
7
 70
0
 10
-7.7471659548
 20
-20.0210169973
 10
-7.5735597487
 20
-20.1911313426
 10
-7.4010491033
 20
-20.3574200177
 10
-7.2296340188
 20
-20.5198830224
 10
-7.0593144952
 20
-20.6785203568
 10
-6.8900905323
 20
-20.8333320209
 10
-6.7219621303
 20
-20.9843180147
  0
LWPOLYLINE
  5
272
100
AcDbEntity
  8
RACCORDO
100
AcDbPolyline
 62
250
  6
CONTINUOUS
 90
7
 70
0
 10
-8.0944849713
 20
-20.0270374575
 10
-7.9177953428
 20
-20.2003048087
 10
-7.7420716535
 20
-20.369574596
 10
-7.5673922687
 20
-20.5348986343
 10
-7.3938336114
 20
-20.6963290512
 10
-7.2214701859
 20
-20.8539182316
 10
-7.0503746007
 20
-21.0077187636
  0
LINE
  5
273
100
AcDbEntity
  8
0
100
AcDbLine
 62
7
  6
CONTINUOUS
 10
-3.4
 20
-23.4301797403
 11
-3.3633443637
 21
-23.4668353766
  0
LINE
  5
274
100
AcDbEntity
  8
RACCORDO
100
AcDbLine
 62
250
  6
CONTINUOUS
 10
-8.1823095666
 20
-19.9394957038
 11
-8.0944849713
 21
-20.0270374575
  0
LINE
  5
275
100
AcDbEntity
  8
RACCORDO
100
AcDbLine
 62
250
  6
CONTINUOUS
 10
-8.2571684293
 20
-19.8637472607
 11
-8.1823095666
 21
-19.9394957038
  0
LWPOLYLINE
  5
276
100
AcDbEntity
  8
0
100
AcDbPolyline
 62
7
  6
CONTINUOUS
 90
22
 70
0
 10
-10.7193014235
 20
-17.3594295691
 10
-10.7580206793
 20
-17.3087832478
 10
-10.7950429083
 20
-17.2570309083
 10
-10.8303681105
 20
-17.2041725506
 10
-10.8640305023
 20
-17.150150027
 10
-10.8959958673
 20
-17.0950214852
 10
-10.926161556
 20
-17.0389613686
 10
-10.9545202282
 20
-16.9819692266
 10
-10.9810792241
 20
-16.9240455098
 10
-11.0057579145
 20
-16.8653660139
 10
-11.0285505932
 20
-16.8059284444
 10
-11.0494629666
 20
-16.7457350958
 10
-11.0684315244
 20
-16.6849686464
 10
-11.0854503682
 20
-16.6236273548
 10
-11.1005253966
 20
-16.5617129626
 10
-11.1136107948
 20
-16.499413373
 10
-11.1247005251
 20
-16.4367261588
 10
-11.1338006253
 20
-16.3736537472
 10
-11.140883393
 20
-16.3103913236
 10
-11.1459395944
 20
-16.2470039498
 10
-11.1489784634
 20
-16.1834265639
 10
-11.15
 20
-16.1196591661
  0
LWPOLYLINE
  5
277
100
AcDbEntity
  8
RACCORDO
100
AcDbPolyline
 62
7
  6
CONTINUOUS
 90
3
 70
0
 10
3.3631544652
 20
21.1965699136
 10
3.3680934936
 20
21.1988747187
 10
3.3727979205
 20
21.2042516758
  0
LWPOLYLINE
  5
278
100
AcDbEntity
  8
RACCORDO
100
AcDbPolyline
 62
250
  6
CONTINUOUS
 90
8
 70
0
 10
-8.0838316893
 20
-19.8160983575
 10
-8.0829809366
 20
-19.817490278
 10
-8.0791738
 20
-19.8205279435
 10
-8.0724102793
 20
-19.8252517434
 10
-8.0627664116
 20
-19.8316941699
 10
-8.0501661599
 20
-19.8398893906
 10
-8.0343814135
 20
-19.8498818804
 10
-7.993152054
 20
-19.8754208853
  0
LWPOLYLINE
  5
279
100
AcDbEntity
  8
RACCORDO
100
AcDbPolyline
 62
250
  6
CONTINUOUS
 90
10
 70
0
 10
6.7220012112
 20
20.9843180147
 10
6.7643998642
 20
21.006744372
 10
6.8072048059
 20
21.0241692244
 10
6.8494179826
 20
21.0365356798
 10
6.8896291241
 20
21.0441861609
 10
6.9273562458
 20
21.047083405
 10
6.9630060362
 20
21.0446354771
 10
6.9961255891
 20
21.0368190309
 10
7.0254853756
 20
21.0243354756
 10
7.0503755493
 20
21.0077183978
  0
LWPOLYLINE
  5
27A
100
AcDbEntity
  8
0
100
AcDbPolyline
 62
7
  6
CONTINUOUS
 90
16
 70
0
 10
3.4376442264
 20
-16.574012
 10
3.4972003715
 20
-16.5695862879
 10
3.5531752696
 20
-16.5599535564
 10
3.6055689207
 20
-16.5451138057
 10
3.6546002655
 20
-16.5248613856
 10
3.7000503634
 20
-16.4994019463
 10
3.7412623926
 20
-16.4693524376
 10
3.7778960255
 20
-16.4349638282
 10
3.8102915896
 20
-16.3959851495
 10
3.838813246
 20
-16.3522804451
 10
3.8638991279
 20
-16.3034903843
 10
3.8851111019
 20
-16.2499742979
 10
3.9014989292
 20
-16.1926742224
 10
3.9127458636
 20
-16.13190417
 10
3.9191686512
 20
-16.0673501286
 10
3.9207672922
 20
-15.999012098
  0
LWPOLYLINE
  5
27B
100
AcDbEntity
  8
0
100
AcDbPolyline
 62
7
  6
CONTINUOUS
 90
16
 70
0
 10
0.203929121
 20
-16.088679
 10
0.2450165139
 20
-16.0861848371
 10
0.2837378477
 20
-16.0807030404
 10
0.3200931224
 20
-16.0722336098
 10
0.3542346277
 20
-16.0606585362
 10
0.3860100739
 20
-16.0460958288
 10
0.414962592
 20
-16.0288995148
 10
0.4409127976
 20
-16.009228588
 10
0.4640400751
 20
-15.9869240547
 10
0.4844257083
 20
-15.9618629608
 10
0.5022697403
 20
-15.9338938553
 10
0.5173721281
 20
-15.9031681892
 10
0.529214026
 20
-15.8700173607
 10
0.5376224857
 20
-15.8345518361
 10
0.5427704556
 20
-15.7966611491
 10
0.5446579357
 20
-15.7563452998
  0
LWPOLYLINE
  5
27C
100
AcDbEntity
  8
0
100
AcDbPolyline
 62
7
  6
CONTINUOUS
 90
16
 70
0
 10
-3.8016847756
 20
-16.088679
 10
-3.7605973827
 20
-16.0861848371
 10
-3.7218760489
 20
-16.0807030404
 10
-3.6855207742
 20
-16.0722336098
 10
-3.6513792689
 20
-16.0606585362
 10
-3.6196038227
 20
-16.0460958288
 10
-3.5906513046
 20
-16.0288995148
 10
-3.564701099
 20
-16.009228588
 10
-3.5415738215
 20
-15.9869240547
 10
-3.5211881883
 20
-15.9618629608
 10
-3.5033441562
 20
-15.9338938553
 10
-3.4882417685
 20
-15.9031681892
 10
-3.4763998705
 20
-15.8700173608
 10
-3.4679914108
 20
-15.8345518361
 10
-3.4628434409
 20
-15.7966611491
 10
-3.4609559608
 20
-15.7563452998
  0
LINE
  5
27D
100
AcDbEntity
  8
0
100
AcDbLine
 62
7
  6
CONTINUOUS
 10
-4.318977
 20
-16.574012
 11
-4.163616
 21
-16.574012
  0
LINE
  5
27E
100
AcDbEntity
  8
0
100
AcDbLine
 62
7
  6
CONTINUOUS
 10
-3.366016
 20
-16.574012
 11
-3.205842
 21
-16.574012
  0
LINE
  5
27F
100
AcDbEntity
  8
0
100
AcDbLine
 62
7
  6
CONTINUOUS
 10
-2.510667
 20
-16.574012
 11
-2.340959
 21
-16.574012
  0
LINE
  5
280
100
AcDbEntity
  8
0
100
AcDbLine
 62
7
  6
CONTINUOUS
 10
-1.908562
 20
-16.574012
 11
-1.753201
 21
-16.574012
  0
LINE
  5
281
100
AcDbEntity
  8
0
100
AcDbLine
 62
7
  6
CONTINUOUS
 10
-1.202218
 20
-16.574012
 11
-1.035688
 21
-16.574012
  0
LINE
  5
282
100
AcDbEntity
  8
0
100
AcDbLine
 62
7
  6
CONTINUOUS
 10
-0.313363
 20
-16.574012
 11
-0.158002
 21
-16.574012
  0
LINE
  5
283
100
AcDbEntity
  8
0
100
AcDbLine
 62
7
  6
CONTINUOUS
 10
0.754916
 20
-16.574012
 11
1.603818
 21
-16.574012
  0
LINE
  5
284
100
AcDbEntity
  8
0
100
AcDbLine
 62
7
  6
CONTINUOUS
 10
1.807213
 20
-16.574012
 11
1.957762
 21
-16.574012
  0
LINE
  5
285
100
AcDbEntity
  8
0
100
AcDbLine
 62
7
  6
CONTINUOUS
 10
2.545611
 20
-16.574012
 11
2.720131
 21
-16.574012
  0
LINE
  5
286
100
AcDbEntity
  8
0
100
AcDbLine
 62
7
  6
CONTINUOUS
 10
2.97156
 20
-16.574012
 11
3.4376442264
 21
-16.574012
  0
LINE
  5
287
100
AcDbEntity
  8
0
100
AcDbLine
 62
7
  6
CONTINUOUS
 10
4.137541
 20
-16.574012
 11
4.304162
 21
-16.574012
  0
LINE
  5
288
100
AcDbEntity
  8
0
100
AcDbLine
 62
7
  6
CONTINUOUS
 10
3.4168489984
 20
-16.441079
 11
3.126921
 21
-16.441079
  0
LINE
  5
289
100
AcDbEntity
  8
0
100
AcDbLine
 62
7
  6
CONTINUOUS
 10
1.603818
 20
-16.436266
 11
0.910277
 21
-16.436266
  0
LINE
  5
28A
100
AcDbEntity
  8
0
100
AcDbLine
 62
7
  6
CONTINUOUS
 10
4.304162
 20
-16.404213
 11
4.137541
 21
-16.404213
  0
LINE
  5
28B
100
AcDbEntity
  8
0
100
AcDbLine
 62
7
  6
CONTINUOUS
 10
-1.035688
 20
-16.404213
 11
-1.202218
 21
-16.404213
  0
LINE
  5
28C
100
AcDbEntity
  8
0
100
AcDbLine
 62
7
  6
CONTINUOUS
 10
-3.085712
 20
-16.239227
 11
-2.624441
 21
-16.239227
  0
LINE
  5
28D
100
AcDbEntity
  8
0
100
AcDbLine
 62
7
  6
CONTINUOUS
 10
-2.680556
 20
-16.101482
 11
-3.037678
 21
-16.101482
  0
LINE
  5
28E
100
AcDbEntity
  8
0
100
AcDbLine
 62
7
  6
CONTINUOUS
 10
-4.163616
 20
-16.088679
 11
-3.8016847756
 21
-16.088679
  0
LINE
  5
28F
100
AcDbEntity
  8
0
100
AcDbLine
 62
7
  6
CONTINUOUS
 10
-0.158002
 20
-16.088679
 11
0.203929121
 21
-16.088679
  0
LINE
  5
290
100
AcDbEntity
  8
0
100
AcDbLine
 62
7
  6
CONTINUOUS
 10
0.910277
 20
-16.051904
 11
1.539803
 21
-16.051904
  0
LINE
  5
291
100
AcDbEntity
  8
0
100
AcDbLine
 62
7
  6
CONTINUOUS
 10
0.1575355104
 20
-15.955745
 11
-0.158002
 21
-15.955745
  0
LINE
  5
292
100
AcDbEntity
  8
0
100
AcDbLine
 62
7
  6
CONTINUOUS
 10
-3.8480783861
 20
-15.955745
 11
-4.163616
 21
-15.955745
  0
LINE
  5
293
100
AcDbEntity
  8
RACCORDO
100
AcDbLine
 62
250
  6
CONTINUOUS
 10
10.0721611869
 20
-15.9176243207
 11
10.5720850344
 21
-15.9176243207
  0
LINE
  5
294
100
AcDbEntity
  8
RACCORDO
100
AcDbLine
 62
250
  6
CONTINUOUS
 10
-10.0721611869
 20
-15.9176243207
 11
-10.5720850344
 21
-15.9176243194
  0
LINE
  5
295
100
AcDbEntity
  8
0
100
AcDbLine
 62
7
  6
CONTINUOUS
 10
1.539803
 20
-15.914158
 11
0.910277
 21
-15.914158
  0
LINE
  5
296
100
AcDbEntity
  8
0
100
AcDbLine
 62
7
  6
CONTINUOUS
 10
-2.297737
 20
-15.561758
 11
-1.908562
 21
-15.561758
  0
LINE
  5
297
100
AcDbEntity
  8
0
100
AcDbLine
 62
7
  6
CONTINUOUS
 10
-1.753201
 20
-15.561758
 11
-1.364026
 21
-15.561758
  0
LINE
  5
298
100
AcDbEntity
  8
0
100
AcDbLine
 62
7
  6
CONTINUOUS
 10
0.910277
 20
-15.561758
 11
1.59265
 21
-15.561758
  0
LINE
  5
299
100
AcDbEntity
  8
0
100
AcDbLine
 62
7
  6
CONTINUOUS
 10
-4.163616
 20
-15.556945
 11
-3.848084896
 21
-15.556945
  0
LINE
  5
29A
100
AcDbEntity
  8
0
100
AcDbLine
 62
7
  6
CONTINUOUS
 10
-0.158002
 20
-15.556945
 11
0.1575290006
 21
-15.556945
  0
LINE
  5
29B
100
AcDbEntity
  8
0
100
AcDbLine
 62
7
  6
CONTINUOUS
 10
3.126921
 20
-15.556945
 11
3.4168477804
 21
-15.556945
  0
LINE
  5
29C
100
AcDbEntity
  8
0
100
AcDbLine
 62
7
  6
CONTINUOUS
 10
3.4376430872
 20
-15.424012
 11
2.97156
 21
-15.424012
  0
LINE
  5
29D
100
AcDbEntity
  8
0
100
AcDbLine
 62
7
  6
CONTINUOUS
 10
2.720131
 20
-15.424012
 11
2.569582
 21
-15.424012
  0
LINE
  5
29E
100
AcDbEntity
  8
0
100
AcDbLine
 62
7
  6
CONTINUOUS
 10
1.991449
 20
-15.424012
 11
1.807213
 21
-15.424012
  0
LINE
  5
29F
100
AcDbEntity
  8
0
100
AcDbLine
 62
7
  6
CONTINUOUS
 10
1.59265
 20
-15.424012
 11
0.754916
 21
-15.424012
  0
LINE
  5
2A0
100
AcDbEntity
  8
0
100
AcDbLine
 62
7
  6
CONTINUOUS
 10
0.2039319498
 20
-15.424012
 11
-0.313363
 21
-15.424012
  0
LINE
  5
2A1
100
AcDbEntity
  8
0
100
AcDbLine
 62
7
  6
CONTINUOUS
 10
-1.364026
 20
-15.424012
 11
-2.297737
 21
-15.424012
  0
LINE
  5
2A2
100
AcDbEntity
  8
0
100
AcDbLine
 62
7
  6
CONTINUOUS
 10
-2.757374
 20
-15.424012
 11
-2.933529
 21
-15.424012
  0
LINE
  5
2A3
100
AcDbEntity
  8
0
100
AcDbLine
 62
7
  6
CONTINUOUS
 10
-3.8016819468
 20
-15.424012
 11
-4.318977
 21
-15.424012
  0
LWPOLYLINE
  5
2A4
100
AcDbEntity
  8
0
100
AcDbPolyline
 62
7
  6
CONTINUOUS
 90
15
 70
0
 10
-3.848084896
 20
-15.556945
 10
-3.8207880705
 20
-15.5575033611
 10
-3.7947517628
 20
-15.5598993841
 10
-3.7699759729
 20
-15.5641330689
 10
-3.7461743217
 20
-15.5701463065
 10
-3.7236331883
 20
-15.577997206
 10
-3.70321171
 20
-15.5878600945
 10
-3.6851572491
 20
-15.5998988565
 10
-3.6692224434
 20
-15.6139496076
 10
-3.6555243435
 20
-15.6296950216
 10
-3.6440844414
 20
-15.6471321186
 10
-3.6348812451
 20
-15.6662638785
 10
-3.62796733
 20
-15.6867819152
 10
-3.623360221
 20
-15.7085834333
 10
-3.6210423931
 20
-15.7317712282
  0
LWPOLYLINE
  5
2A5
100
AcDbEntity
  8
0
100
AcDbPolyline
 62
7
  6
CONTINUOUS
 90
15
 70
0
 10
0.1575290006
 20
-15.556945
 10
0.1848258261
 20
-15.5575033611
 10
0.2108621338
 20
-15.5598993841
 10
0.2356379237
 20
-15.5641330689
 10
0.2594395749
 20
-15.5701463065
 10
0.2819807083
 20
-15.577997206
 10
0.3024021866
 20
-15.5878600945
 10
0.3204566475
 20
-15.5998988565
 10
0.3363914532
 20
-15.6139496076
 10
0.350089553
 20
-15.6296950216
 10
0.3615294552
 20
-15.6471321186
 10
0.3707326514
 20
-15.6662638785
 10
0.3776465666
 20
-15.6867819152
 10
0.3822536756
 20
-15.7085834333
 10
0.3845715035
 20
-15.7317712282
  0
LWPOLYLINE
  5
2A6
100
AcDbEntity
  8
RACCORDO
100
AcDbPolyline
 62
250
  6
CONTINUOUS
 90
10
 70
0
 10
6.7220012112
 20
-20.9843180147
 10
6.7643998625
 20
-21.0067443735
 10
6.8072048028
 20
-21.024169227
 10
6.8494179787
 20
-21.0365356833
 10
6.8896291198
 20
-21.0441861647
 10
6.9273562414
 20
-21.0470834089
 10
6.9630060323
 20
-21.0446354805
 10
6.9961255861
 20
-21.0368190335
 10
7.0254853738
 20
-21.0243354771
 10
7.0503755493
 20
-21.0077183978
  0
LINE
  5
2A7
100
AcDbEntity
  8
0
100
AcDbLine
 62
7
  6
CONTINUOUS
 10
-3.230158461
 20
22.5048155586
 11
-3.3
 21
22.4
  0
LINE
  5
2A8
100
AcDbEntity
  8
RACCORDO
100
AcDbLine
 62
250
  6
CONTINUOUS
 10
-3.2395930226
 20
21.190565191
 11
-3.1705494094
 21
21.2941832525
  0
LWPOLYLINE
  5
2A9
100
AcDbEntity
  8
RACCORDO
100
AcDbPolyline
 62
250
  6
CONTINUOUS
 90
10
 70
0
 10
7.7471659548
 20
20.0210169973
 10
7.7933110012
 20
20.04204266
 10
7.8388605549
 20
20.0582344553
 10
7.8832268081
 20
20.0693834312
 10
7.9258372232
 20
20.0753457126
 10
7.9661419214
 20
20.0760443573
 10
8.0036207786
 20
20.0714703496
 10
8.0377901378
 20
20.061682716
 10
8.0682090502
 20
20.0468077639
 10
8.0944849658
 20
20.0270374518
  0
LWPOLYLINE
  5
2AA
100
AcDbEntity
  8
0
100
AcDbPolyline
 62
7
  6
CONTINUOUS
 90
16
 70
0
 10
3.4168477804
 20
-15.556945
 10
3.4587806106
 20
-15.5593292197
 10
3.4983332894
 20
-15.5657007984
 10
3.5355058169
 20
-15.5760597361
 10
3.5703700114
 20
-15.590317316
 10
3.6028540545
 20
-15.6085622549
 10
3.6327424911
 20
-15.631060703
 10
3.6602962236
 20
-15.658121174
 10
3.6852543497
 20
-15.6894351543
 10
3.7066187068
 20
-15.7243432533
 10
3.7239236962
 20
-15.7629566912
 10
3.7376349166
 20
-15.8051642478
 10
3.7481510021
 20
-15.8499728719
 10
3.7556048305
 20
-15.8970515465
 10
3.7598635239
 20
-15.9467312885
 10
3.7609270822
 20
-15.999012098
  0
LWPOLYLINE
  5
2AB
100
AcDbEntity
  8
RACCORDO
100
AcDbPolyline
 62
250
  6
CONTINUOUS
 90
10
 70
0
 10
7.7471659549
 20
-20.0210158313
 10
7.7933112009
 20
-20.0420417837
 10
7.8388609785
 20
-20.0582339375
 10
7.883227489
 20
-20.0693833377
 10
7.9258382031
 20
-20.075346104
 10
7.9661432494
 20
-20.0760452874
 10
8.0036225099
 20
-20.0714718635
 10
8.0377923321
 20
-20.0616848487
 10
8.0682117705
 20
-20.0468105386
 10
8.0944882765
 20
-20.0270408784
  0
LINE
  5
2AC
100
AcDbEntity
  8
0
100
AcDbLine
 62
7
  6
CONTINUOUS
 10
-3.3
 20
-22.4
 11
-3.230158461
 21
-22.5048155586
  0
LINE
  5
2AD
100
AcDbEntity
  8
RACCORDO
100
AcDbLine
 62
250
  6
CONTINUOUS
 10
-3.1705494094
 20
-21.2941832525
 11
-3.2395930226
 21
-21.190565191
  0
LWPOLYLINE
  5
2AE
100
AcDbEntity
  8
RACCORDO
100
AcDbPolyline
 62
250
  6
CONTINUOUS
 90
11
 70
0
 10
-8.4374926906
 20
-19.6695125202
 10
-8.4366017603
 20
-19.6718328633
 10
-8.4327055008
 20
-19.6771612065
 10
-8.4258014696
 20
-19.6854957642
 10
-8.4159532242
 20
-19.6967694384
 10
-8.4030882859
 20
-19.711041703
 10
-8.3869976776
 20
-19.7284981579
 10
-8.3676196784
 20
-19.7491862811
 10
-8.3449973283
 20
-19.7730411166
 10
-8.3190759695
 20
-19.8000766805
 10
-8.2571684293
 20
-19.8637472607
  0
LINE
  5
2AF
100
AcDbEntity
  8
RACCORDO
100
AcDbLine
 62
250
  6
CONTINUOUS
 10
10.7193014234
 20
17.3594295692
 11
10.5328107846
 21
17.2994419902
  0
LINE
  5
2B0
100
AcDbEntity
  8
RACCORDO
100
AcDbLine
 62
250
  6
CONTINUOUS
 10
10.7193014234
 20
-17.3594295692
 11
10.1315955941
 21
-17.1696860043
  0
LWPOLYLINE
  5
2B1
100
AcDbEntity
  8
RACCORDO
100
AcDbPolyline
 62
250
  6
CONTINUOUS
 90
19
 70
0
 10
-9.522351825
 20
-19.7664007784
 10
-9.519498862
 20
-19.8319034105
 10
-9.5109541045
 20
-19.8968922292
 10
-9.4967854795
 20
-19.9608739444
 10
-9.4771036538
 20
-20.0233655996
 10
-9.4520609827
 20
-20.0838910516
 10
-9.4218512933
 20
-20.1419849719
 10
-9.3867094538
 20
-20.1972053752
 10
-9.3469046395
 20
-20.2491382511
 10
-9.3027374738
 20
-20.2973928046
 10
-9.2545448085
 20
-20.3416044989
 10
-9.2026947615
 20
-20.3814395697
 10
-9.1475783646
 20
-20.416597639
 10
-9.0896137934
 20
-20.4468130288
 10
-9.0292427847
 20
-20.4718571951
 10
-8.9669230297
 20
-20.4915403388
 10
-8.9031275846
 20
-20.5057135009
 10
-8.838341372
 20
-20.5142699229
 10
-8.7730563203
 20
-20.5171451693
  0
LWPOLYLINE
  5
2B2
100
AcDbEntity
  8
SMUSSO
100
AcDbPolyline
 62
7
  6
CONTINUOUS
 90
8
 70
0
 10
-10.9407731087
 20
-4.6089998383
 10
-10.9387385865
 20
-4.6673126159
 10
-10.9366401763
 20
-4.7173115062
 10
-10.9344769631
 20
-4.7591184642
 10
-10.9322745199
 20
-4.7921609084
 10
-10.9300413708
 20
-4.8162479783
 10
-10.9277689917
 20
-4.8315705344
 10
-10.9254573825
 20
-4.8381285768
  0
LWPOLYLINE
  5
2B3
100
AcDbEntity
  8
SMUSSO
100
AcDbPolyline
 62
7
  6
CONTINUOUS
 90
8
 70
0
 10
-10.4364816441
 20
-4.1669596678
 10
-10.4349877466
 20
-4.2101260054
 10
-10.4334466347
 20
-4.2472689622
 10
-10.4318576491
 20
-4.2782477662
 10
-10.430239511
 20
-4.3029645024
 10
-10.4285984606
 20
-4.3212666637
 10
-10.4269282576
 20
-4.3329974049
 10
-10.425228902
 20
-4.3380523895
  0
LINE
  5
2B4
100
AcDbEntity
  8
RACCORDO
100
AcDbLine
 62
250
  6
CONTINUOUS
 10
-10.4614614012
 20
6.2302238538
 11
-10.4630837095
 21
6.2831654995
  0
LWPOLYLINE
  5
2B5
100
AcDbEntity
  8
RACCORDO
100
AcDbPolyline
 62
250
  6
CONTINUOUS
 90
13
 70
0
 10
-10.0721611869
 20
-15.9176243207
 10
-10.0697673008
 20
-16.0022607293
 10
-10.062667553
 20
-16.086215521
 10
-10.0508619435
 20
-16.1694886957
 10
-10.0342859506
 20
-16.2523755221
 10
-10.0130040959
 20
-16.3345807315
 10
-9.9872099449
 20
-16.4152185181
 10
-9.9568302357
 20
-16.494278323
 10
-9.9219382301
 20
-16.571770705
 10
-9.8829472793
 20
-16.6468415349
 10
-9.8399951669
 20
-16.7192061031
 10
-9.7929441094
 20
-16.7891491193
 10
-9.7417941066
 20
-16.8566705834
  0
LWPOLYLINE
  5
2B6
100
AcDbEntity
  8
RACCORDO
100
AcDbPolyline
 62
250
  6
CONTINUOUS
 90
13
 70
0
 10
-10.5720666579
 20
-15.9176243194
 10
-10.5688871898
 20
-16.0303366247
 10
-10.5593708141
 20
-16.1427052707
 10
-10.5435269405
 20
-16.2543316509
 10
-10.5214186931
 20
-16.3648574116
 10
-10.4931303358
 20
-16.4739445951
 10
-10.4587447856
 20
-16.581258468
 10
-10.4183621765
 20
-16.6864648141
 10
-10.3721176448
 20
-16.7892414537
 10
-10.3201483117
 20
-16.8892722519
 10
-10.2625958358
 20
-16.9862374388
 10
-10.1996602061
 20
-17.0798133904
 10
-10.131584923
 20
-17.1696774373
  0
LINE
  5
2B7
100
AcDbEntity
  8
SMUSSO
100
AcDbLine
 62
7
  6
CONTINUOUS
 10
-10.9446194268
 20
-4.4687369329
 11
-10.9407731087
 21
-4.6089998383
  0
LINE
  5
2B8
100
AcDbEntity
  8
SMUSSO
100
AcDbLine
 62
7
  6
CONTINUOUS
 10
-10.43930512
 20
-4.0634949735
 11
-10.4364816441
 21
-4.1669596678
  0
LINE
  5
2B9
100
AcDbEntity
  8
RACCORDO
100
AcDbLine
 62
250
  6
CONTINUOUS
 10
-10.957508695
 20
5.709131993
 11
-10.9595252908
 21
5.7833954528
  0
LINE
  5
2BA
100
AcDbEntity
  8
RACCORDO
100
AcDbLine
 62
250
  6
CONTINUOUS
 10
-10.4630837095
 20
6.2831654995
 11
-10.4644184218
 21
6.3415547533
  0
LINE
  5
2BB
100
AcDbEntity
  8
SMUSSO
100
AcDbLine
 62
7
  6
CONTINUOUS
 10
-10.9480901886
 20
-4.2992854421
 11
-10.9446194268
 21
-4.4687369329
  0
LINE
  5
2BC
100
AcDbEntity
  8
RACCORDO
100
AcDbLine
 62
250
  6
CONTINUOUS
 10
-10.9595252908
 20
5.7833954528
 11
-10.9613864253
 21
5.8747105944
  0
LINE
  5
2BD
100
AcDbEntity
  8
SMUSSO
100
AcDbLine
 62
7
  6
CONTINUOUS
 10
-10.4418520351
 20
-3.9389122055
 11
-10.43930512
 21
-4.0634949735
  0
LINE
  5
2BE
100
AcDbEntity
  8
RACCORDO
100
AcDbLine
 62
250
  6
CONTINUOUS
 10
-10.4644184218
 20
6.3415547533
 11
-10.4654431489
 21
6.4034561337
  0
LINE
  5
2BF
100
AcDbEntity
  8
SMUSSO
100
AcDbLine
 62
7
  6
CONTINUOUS
 10
-10.9524534086
 20
-3.9976526211
 11
-10.9480901886
 21
-4.2992854421
  0
LINE
  5
2C0
100
AcDbEntity
  8
SMUSSO
100
AcDbLine
 62
7
  6
CONTINUOUS
 10
-10.4450527048
 20
-3.7174242932
 11
-10.4418520351
 21
-3.9389122055
  0
LINE
  5
2C1
100
AcDbEntity
  8
RACCORDO
100
AcDbLine
 62
250
  6
CONTINUOUS
 10
-10.9613864253
 20
5.8747105944
 11
-10.9637151637
 21
6.0378370418
  0
LINE
  5
2C2
100
AcDbEntity
  8
RACCORDO
100
AcDbLine
 62
250
  6
CONTINUOUS
 10
-10.4654431489
 20
6.4034561337
 11
-10.4661366501
 21
6.4663895367
  0
LINE
  5
2C3
100
AcDbEntity
  8
SMUSSO
100
AcDbLine
 62
7
  6
CONTINUOUS
 10
-10.9556376537
 20
-3.6507919871
 11
-10.9524534086
 21
-3.9976526211
  0
LINE
  5
2C4
100
AcDbEntity
  8
SMUSSO
100
AcDbLine
 62
7
  6
CONTINUOUS
 10
-10.4473877048
 20
-3.4631684729
 11
-10.4450527048
 21
-3.7174242932
  0
LINE
  5
2C5
100
AcDbEntity
  8
RACCORDO
100
AcDbLine
 62
250
  6
CONTINUOUS
 10
-10.9637151637
 20
6.0378370418
 11
-10.9653672674
 21
6.2211434384
  0
LINE
  5
2C6
100
AcDbEntity
  8
RACCORDO
100
AcDbLine
 62
250
  6
CONTINUOUS
 10
-10.4661366501
 20
6.4663895367
 11
-10.466534795
 21
6.5277087557
  0
LINE
  5
2C7
100
AcDbEntity
  8
RACCORDO
100
AcDbLine
 62
250
  6
CONTINUOUS
 10
-10.9653672674
 20
6.2211434384
 11
-10.9664586399
 21
6.4692096392
  0
LINE
  5
2C8
100
AcDbEntity
  8
SMUSSO
100
AcDbLine
 62
7
  6
CONTINUOUS
 10
-10.9578160704
 20
-3.1453720456
 11
-10.9556376537
 21
-3.6507919871
  0
LINE
  5
2C9
100
AcDbEntity
  8
SMUSSO
100
AcDbLine
 62
7
  6
CONTINUOUS
 10
-10.4489847279
 20
-3.0929755742
 11
-10.4473877048
 21
-3.4631684729
  0
LINE
  5
2CA
100
AcDbEntity
  8
0
100
AcDbLine
 62
7
  6
CONTINUOUS
 10
-11.15
 20
21.8997711479
 11
-11.15
 21
-21.8997711479
  0
LINE
  5
2CB
100
AcDbEntity
  8
RACCORDO
100
AcDbLine
 62
250
  6
CONTINUOUS
 10
-10.9664586399
 20
6.4692096392
 11
-10.9665695018
 21
16.0558086086
  0
LINE
  5
2CC
100
AcDbEntity
  8
RACCORDO
100
AcDbLine
 62
250
  6
CONTINUOUS
 10
-10.5720850344
 20
5.2086513684
 11
-10.5720850344
 21
-0.7084990752
  0
LINE
  5
2CD
100
AcDbEntity
  8
RACCORDO
100
AcDbLine
 62
250
  6
CONTINUOUS
 10
-10.5720850344
 20
-5.1915009248
 11
-10.5720850344
 21
-15.9176243207
  0
LINE
  5
2CE
100
AcDbEntity
  8
RACCORDO
100
AcDbLine
 62
250
  6
CONTINUOUS
 10
-10.466534795
 20
6.5277087557
 11
-10.4666456542
 21
16.0558086086
  0
LINE
  5
2CF
100
AcDbEntity
  8
SMUSSO
100
AcDbLine
 62
7
  6
CONTINUOUS
 10
-10.9575018597
 20
-2.625591427
 11
-10.9578160704
 21
-3.1453720456
  0
LINE
  5
2D0
100
AcDbEntity
  8
SMUSSO
100
AcDbLine
 62
7
  6
CONTINUOUS
 10
-10.4487544
 20
-2.7124264551
 11
-10.4489847279
 21
-3.0929755742
  0
LINE
  5
2D1
100
AcDbEntity
  8
SMUSSO
100
AcDbLine
 62
7
  6
CONTINUOUS
 10
-10.9547141362
 20
-2.1290984029
 11
-10.9575018597
 21
-2.625591427
  0
LINE
  5
2D2
100
AcDbEntity
  8
SMUSSO
100
AcDbLine
 62
7
  6
CONTINUOUS
 10
-10.4467105832
 20
-2.3491099521
 11
-10.4487544
 21
-2.7124264551
  0
LINE
  5
2D3
100
AcDbEntity
  8
SMUSSO
100
AcDbLine
 62
7
  6
CONTINUOUS
 10
-10.9511162146
 20
-1.7957076336
 11
-10.9547141362
 21
-2.1290984029
  0
LINE
  5
2D4
100
AcDbEntity
  8
SMUSSO
100
AcDbLine
 62
7
  6
CONTINUOUS
 10
-10.4440719599
 20
-2.1045637732
 11
-10.4467105832
 21
-2.3491099521
  0
LWPOLYLINE
  5
2D5
100
AcDbEntity
  8
0
100
AcDbPolyline
 62
7
  6
CONTINUOUS
 90
22
 70
0
 10
-11.15
 20
16.1196591663
 10
-11.1489814945
 20
16.1833828974
 10
-11.1459458134
 20
16.2469270034
 10
-11.1408929566
 20
16.3102914845
 10
-11.1338137453
 20
16.3735446468
 10
-11.1247173583
 20
16.4366181842
 10
-11.1136313324
 20
16.4993071779
 10
-11.1005496281
 20
16.5616059677
 10
-11.0854782849
 20
16.6235202138
 10
-11.0684629583
 20
16.684861978
 10
-11.0494977474
 20
16.7456295264
 10
-11.028588553
 20
16.8058245929
 10
-11.0057987334
 20
16.8652644413
 10
-10.9811225795
 20
16.9239467844
 10
-10.9545658004
 20
16.9818739096
 10
-10.9262088814
 20
17.0388699427
 10
-10.8960462058
 20
17.0949322553
 10
-10.8640833903
 20
17.1500634759
 10
-10.8304177708
 20
17.2040956164
 10
-10.7950817924
 20
17.2569726807
 10
-10.75804301
 20
17.308750665
 10
-10.7193014234
 20
17.3594295692
  0
LINE
  5
2D6
100
AcDbEntity
  8
SMUSSO
100
AcDbLine
 62
7
  6
CONTINUOUS
 10
-10.4418520389
 20
-1.9610880077
 11
-10.4440719599
 21
-2.1045637732
  0
LINE
  5
2D7
100
AcDbEntity
  8
SMUSSO
100
AcDbLine
 62
7
  6
CONTINUOUS
 10
-10.9480901938
 20
-1.6007148484
 11
-10.9511162146
 21
-1.7957076336
  0
LINE
  5
2D8
100
AcDbEntity
  8
SMUSSO
100
AcDbLine
 62
7
  6
CONTINUOUS
 10
-10.944619431
 20
-1.4312632441
 11
-10.9480901938
 21
-1.6007148484
  0
LINE
  5
2D9
100
AcDbEntity
  8
SMUSSO
100
AcDbLine
 62
7
  6
CONTINUOUS
 10
-10.4393051231
 20
-1.8365051569
 11
-10.4418520389
 21
-1.9610880077
  0
LWPOLYLINE
  5
2DA
100
AcDbEntity
  8
RACCORDO
100
AcDbPolyline
 62
250
  6
CONTINUOUS
 90
13
 70
0
 10
-10.9665566637
 20
16.0558086073
 10
-10.9634229895
 20
16.1676041101
 10
-10.9540564124
 20
16.2790792993
 10
-10.9384676154
 20
16.3898408872
 10
-10.9167074413
 20
16.4995278802
 10
-10.8888602597
 20
16.6078097614
 10
-10.8550105395
 20
16.7143589693
 10
-10.8152532539
 20
16.8188481654
 10
-10.7697183487
 20
16.9209621327
 10
-10.718541845
 20
17.0203911747
 10
-10.6618627015
 20
17.1168232859
 10
-10.5998706469
 20
17.2099430528
 10
-10.5328015446
 20
17.2994346536
  0
LWPOLYLINE
  5
2DB
100
AcDbEntity
  8
RACCORDO
100
AcDbPolyline
 62
250
  6
CONTINUOUS
 90
13
 70
0
 10
-10.4666456542
 20
16.0558086086
 10
-10.46428585
 20
16.1398074831
 10
-10.45729323
 20
16.2231323014
 10
-10.4456677941
 20
16.3057830635
 10
-10.4293446291
 20
16.3880497237
 10
-10.4083886483
 20
16.4696423277
 10
-10.3829945913
 20
16.5496910129
 10
-10.3530975015
 20
16.6281757309
 10
-10.3187623356
 20
16.7051165302
 10
-10.2803787032
 20
16.779703693
 10
-10.2380764741
 20
16.8516673134
 10
-10.1917257785
 20
16.9212772974
 10
-10.1413266164
 20
16.9885336449
  0
LWPOLYLINE
  5
2DC
100
AcDbEntity
  8
RACCORDO
100
AcDbPolyline
 62
250
  6
CONTINUOUS
 90
16
 70
0
 10
-10.5720850344
 20
5.2086513684
 10
-10.5693142389
 20
5.2610615172
 10
-10.5610639593
 20
5.3128957243
 10
-10.5474245985
 20
5.3635826034
 10
-10.5285430738
 20
5.4125698181
 10
-10.5046285609
 20
5.4593100774
 10
-10.4759568686
 20
5.5032704954
 10
-10.4428587002
 20
5.5439594179
 10
-10.405695863
 20
5.5809453791
 10
-10.3648637766
 20
5.6138387322
 10
-10.3207378035
 20
5.6423192718
 10
-10.2738673538
 20
5.6660158592
 10
-10.2249899182
 20
5.6845956112
 10
-10.1747412067
 20
5.6979065369
 10
-10.1236120217
 20
5.7059049052
 10
-10.0721611869
 20
5.708575216
  0
LWPOLYLINE
  5
2DD
100
AcDbEntity
  8
RACCORDO
100
AcDbPolyline
 62
250
  6
CONTINUOUS
 90
13
 70
0
 10
-10.9494190698
 20
5.5859854038
 10
-10.94512393
 20
5.6512260328
 10
-10.9323517189
 20
5.7153507972
 10
-10.9113208921
 20
5.7772629287
 10
-10.882391158
 20
5.8359035036
 10
-10.8460573243
 20
5.8902695558
 10
-10.8029408347
 20
5.93943123
 10
-10.7537791417
 20
5.9825476843
 10
-10.6994130914
 20
6.0188814728
 10
-10.6407725405
 20
6.0478111593
 10
-10.578860456
 20
6.0688419433
 10
-10.5147357613
 20
6.0816141235
 10
-10.4494952222
 20
6.0859092514
  0
LINE
  5
2DE
100
AcDbEntity
  8
RACCORDO
100
AcDbLine
 62
250
  6
CONTINUOUS
 10
11.15
 20
16.119659166
 11
10.9665695018
 21
16.0558086086
  0
LINE
  5
2DF
100
AcDbEntity
  8
0
100
AcDbLine
 62
7
  6
CONTINUOUS
 10
-7.5
 20
-11.0
 11
7.5
 21
-11.0
  0
LINE
  5
2E0
100
AcDbEntity
  8
RACCORDO
100
AcDbLine
 62
250
  6
CONTINUOUS
 10
11.15
 20
-16.119659166
 11
10.5720850344
 21
-15.9176243207
  0
LINE
  5
2E1
100
AcDbEntity
  8
RACCORDO
100
AcDbLine
 62
7
  6
CONTINUOUS
 10
-10.5720850344
 20
-5.1915009248
 11
-10.9254573825
 21
-4.8381285768
  0
LINE
  5
2E2
100
AcDbEntity
  8
SMUSSO
100
AcDbLine
 62
7
  6
CONTINUOUS
 10
-10.0632812915
 20
-4.7
 11
-10.425228902
 21
-4.3380523895
  0
LWPOLYLINE
  5
2E3
100
AcDbEntity
  8
RACCORDO
100
AcDbPolyline
 62
7
  6
CONTINUOUS
 90
9
 70
0
 10
-3.2353965764
 20
-21.3624110142
 10
-3.2346018786
 20
-21.3643042414
 10
-3.2338596062
 20
-21.3690338304
 10
-3.2331697594
 20
-21.3765997812
 10
-3.2325211059
 20
-21.3874679
 10
-3.231924878
 20
-21.4011723806
 10
-3.2314147721
 20
-21.4163158048
 10
-3.2310046733
 20
-21.4328540352
 10
-3.2306806965
 20
-21.4508312093
  0
LWPOLYLINE
  5
2E4
100
AcDbEntity
  8
RACCORDO
100
AcDbPolyline
 62
250
  6
CONTINUOUS
 90
19
 70
0
 10
-9.2223975165
 20
-19.7783034685
 10
-9.220677346
 20
-19.8178609069
 10
-9.2156471575
 20
-19.8566328397
 10
-9.2073069508
 20
-19.894619274
 10
-9.1955442855
 20
-19.9321297116
 10
-9.1804716021
 20
-19.9688546627
 10
-9.1624262223
 20
-20.0038656548
 10
-9.1413359395
 20
-20.0370954963
 10
-9.1172729603
 20
-20.0686114072
 10
-9.0907912273
 20
-20.0976865459
 10
-9.0618345328
 20
-20.1242593516
 10
-9.0304590844
 20
-20.1483914182
 10
-8.9973874478
 20
-20.1695406419
 10
-8.9625540516
 20
-20.1876367802
 10
-8.9260244671
 20
-20.2027501042
 10
-8.8887179738
 20
-20.2145492814
 10
-8.8509409981
 20
-20.2229238734
 10
-8.8123871136
 20
-20.227984335
 10
-8.7730563203
 20
-20.2297306704
  0
LINE
  5
2E5
100
AcDbEntity
  8
RACCORDO
100
AcDbLine
 62
250
  6
CONTINUOUS
 10
-9.522351825
 20
19.7664007784
 11
-9.521706189
 21
18.7731883034
  0
LINE
  5
2E6
100
AcDbEntity
  8
RACCORDO
100
AcDbLine
 62
250
  6
CONTINUOUS
 10
-9.2223975165
 20
19.7783034685
 11
-9.2219556557
 21
19.0982164442
  0
LINE
  5
2E7
100
AcDbEntity
  8
RACCORDO
100
AcDbLine
 62
250
  6
CONTINUOUS
 10
-10.0721611869
 20
-4.7088771902
 11
-10.0721611869
 21
-15.9176243207
  0
LINE
  5
2E8
100
AcDbEntity
  8
RACCORDO
100
AcDbLine
 62
250
  6
CONTINUOUS
 10
-10.0721611869
 20
-1.1911228098
 11
-10.0721611869
 21
5.708575216
  0
LINE
  5
2E9
100
AcDbEntity
  8
RACCORDO
100
AcDbLine
 62
7
  6
CONTINUOUS
 10
-9.65
 20
20.1496567219
 11
-9.65
 21
18.6319562297
  0
LINE
  5
2EA
100
AcDbEntity
  8
RACCORDO
100
AcDbLine
 62
7
  6
CONTINUOUS
 10
-9.65
 20
-18.6319562297
 11
-9.65
 21
-20.1496567219
  0
LINE
  5
2EB
100
AcDbEntity
  8
DRAFT
100
AcDbLine
 62
7
  6
CONTINUOUS
 10
-9.15
 20
-4.6755629091
 11
-9.15
 21
-1.2244370909
  0
LINE
  5
2EC
100
AcDbEntity
  8
DRAFT
100
AcDbLine
 62
7
  6
CONTINUOUS
 10
-9.1255629091
 20
-4.7
 11
-9.1255629091
 21
-1.2
  0
LINE
  5
2ED
100
AcDbEntity
  8
RACCORDO
100
AcDbLine
 62
250
  6
CONTINUOUS
 10
-8.7730563203
 20
20.5171451693
 11
-8.7730563203
 21
20.2297306704
  0
LINE
  5
2EE
100
AcDbEntity
  8
RACCORDO
100
AcDbLine
 62
250
  6
CONTINUOUS
 10
-8.7730563203
 20
-20.5171451693
 11
-8.7730563203
 21
-20.2297306704
  0
LINE
  5
2EF
100
AcDbEntity
  8
RACCORDO
100
AcDbLine
 62
250
  6
CONTINUOUS
 10
-9.215589606
 20
-1.2900266969
 11
-9.2159313381
 21
-4.609631571
  0
LINE
  5
2F0
100
AcDbEntity
  8
RACCORDO
100
AcDbLine
 62
250
  6
CONTINUOUS
 10
-9.5216954435
 20
-18.7731999551
 11
-9.522351825
 21
-19.7664007784
  0
LINE
  5
2F1
100
AcDbEntity
  8
RACCORDO
100
AcDbLine
 62
250
  6
CONTINUOUS
 10
-9.2219483227
 20
-19.0982243956
 11
-9.2223975165
 21
-19.7783034685
  0
LWPOLYLINE
  5
2F2
100
AcDbEntity
  8
SMUSSO
100
AcDbPolyline
 62
7
  6
CONTINUOUS
 90
9
 70
0
 10
-10.425228902
 20
-1.5619476105
 10
-10.4269282576
 20
-1.5670025954
 10
-10.4285984608
 20
-1.5787333382
 10
-10.4302395114
 20
-1.5970355036
 10
-10.4318576499
 20
-1.6217522477
 10
-10.4334466359
 20
-1.6527310644
 10
-10.4349877483
 20
-1.6898740388
 10
-10.4364816463
 20
-1.7330403995
 10
-10.4393051231
 20
-1.8365051569
  0
LWPOLYLINE
  5
2F3
100
AcDbEntity
  8
SMUSSO
100
AcDbPolyline
 62
7
  6
CONTINUOUS
 90
9
 70
0
 10
-10.9254573825
 20
-1.0618714232
 10
-10.9277689918
 20
-1.0684294634
 10
-10.9300413711
 20
-1.0837520222
 10
-10.9322745205
 20
-1.1078390996
 10
-10.9344769642
 20
-1.1408815554
 10
-10.9366401779
 20
-1.1826885298
 10
-10.9387385888
 20
-1.2326874437
 10
-10.9407731116
 20
-1.2910002534
 10
-10.944619431
 20
-1.4312632441
  0
LINE
  5
2F4
100
AcDbEntity
  8
RACCORDO
100
AcDbLine
 62
7
  6
CONTINUOUS
 10
-6.1513715273
 20
6.0487046135
 11
-6.4915009248
 21
5.708575216
  0
LINE
  5
2F5
100
AcDbEntity
  8
SMUSSO
100
AcDbLine
 62
250
  6
CONTINUOUS
 10
-10.9254573825
 20
-1.0618714232
 11
-10.425228902
 21
-1.5619476105
  0
LINE
  5
2F6
100
AcDbEntity
  8
DRAFT
100
AcDbLine
 62
7
  6
CONTINUOUS
 10
-9.1255629091
 20
-4.7
 11
-9.4875105196
 21
-4.3380523895
  0
LINE
  5
2F7
100
AcDbEntity
  8
RACCORDO
100
AcDbLine
 62
250
  6
CONTINUOUS
 10
-8.0784266484
 20
19.8030596834
 11
-8.0784266484
 21
19.3031358358
  0
LINE
  5
2F8
100
AcDbEntity
  8
RACCORDO
100
AcDbLine
 62
250
  6
CONTINUOUS
 10
-7.9141766428
 20
-18.9086513684
 11
-7.9141766428
 21
-19.408575216
  0
LINE
  5
2F9
100
AcDbEntity
  8
0
100
AcDbLine
 62
7
  6
CONTINUOUS
 10
-7.5
 20
-1.0
 11
-7.5
 21
-11.0
  0
LINE
  5
2FA
100
AcDbEntity
  8
RACCORDO
100
AcDbLine
 62
250
  6
CONTINUOUS
 10
-6.7466556736
 20
-21.1965699136
 11
-6.7466556736
 21
-21.3591170406
  0
LINE
  5
2FB
100
AcDbEntity
  8
RACCORDO
100
AcDbLine
 62
250
  6
CONTINUOUS
 10
-6.7466556734
 20
21.1965699136
 11
-6.7466556734
 21
21.3591170407
  0
LINE
  5
2FC
100
AcDbEntity
  8
RACCORDO
100
AcDbLine
 62
250
  6
CONTINUOUS
 10
-6.7220012112
 20
21.1306884717
 11
-6.7220012112
 21
20.9843180147
  0
LINE
  5
2FD
100
AcDbEntity
  8
RACCORDO
100
AcDbLine
 62
250
  6
CONTINUOUS
 10
-6.7220012112
 20
-21.1306884717
 11
-6.7220012112
 21
-20.9843180147
  0
LINE
  5
2FE
100
AcDbEntity
  8
0
100
AcDbLine
 62
7
  6
CONTINUOUS
 10
-3.4
 20
22.3297297297
 11
-3.3633443637
 21
22.5
  0
LINE
  5
2FF
100
AcDbEntity
  8
0
100
AcDbLine
 62
7
  6
CONTINUOUS
 10
2.7167632191
 20
21.6560705017
 11
2.9969695968
 21
22.2
  0
LWPOLYLINE
  5
300
100
AcDbEntity
  8
RACCORDO
100
AcDbPolyline
 62
7
  6
CONTINUOUS
 90
11
 70
0
 10
3.3727979205
 20
21.2042516758
 10
3.3772677461
 20
21.2127007851
 10
3.3815735009
 20
21.2244617684
 10
3.3856446542
 20
21.2392949037
 10
3.3892696141
 20
21.2564810255
 10
3.3924232617
 20
21.276189031
 10
3.3951307158
 20
21.2982500229
 10
3.3972557403
 20
21.3214381435
 10
3.3987529232
 20
21.3453447736
 10
3.3996676764
 20
21.3703785324
 10
3.4
 20
21.3965394199
  0
LINE
  5
301
100
AcDbEntity
  8
SMUSSO
100
AcDbLine
 62
7
  6
CONTINUOUS
 10
-5.6512953401
 20
5.5484761331
 11
-6.0
 21
5.1997714731
  0
LINE
  5
302
100
AcDbEntity
  8
DRAFT
100
AcDbLine
 62
7
  6
CONTINUOUS
 10
-6.0
 20
4.2755629091
 11
-5.6512953401
 21
4.624267569
  0
LINE
  5
303
100
AcDbEntity
  8
RACCORDO
100
AcDbLine
 62
7
  6
CONTINUOUS
 10
-10.5720850344
 20
-0.7084990752
 11
-10.9254573825
 21
-1.0618714232
  0
LINE
  5
304
100
AcDbEntity
  8
RACCORDO
100
AcDbLine
 62
250
  6
CONTINUOUS
 10
8.4321575398
 20
19.6564038783
 11
8.0784266484
 21
19.3031358358
  0
LINE
  5
305
100
AcDbEntity
  8
RACCORDO
100
AcDbLine
 62
250
  6
CONTINUOUS
 10
10.5328107846
 20
17.2994419902
 11
10.1413266164
 21
16.9885336449
  0
LINE
  5
306
100
AcDbEntity
  8
RACCORDO
100
AcDbLine
 62
250
  6
CONTINUOUS
 10
9.7417941066
 20
-16.8566705834
 11
10.1315955931
 21
-17.1696860056
  0
LINE
  5
307
100
AcDbEntity
  8
RACCORDO
100
AcDbLine
 62
250
  6
CONTINUOUS
 10
7.9141766428
 20
-18.9086513684
 11
8.2700406783
 21
-19.2597704959
  0
LINE
  5
308
100
AcDbEntity
  8
RACCORDO
100
AcDbLine
 62
7
  6
CONTINUOUS
 10
-10.0721611869
 20
-1.1911228098
 11
-10.0632812915
 21
-1.2
  0
LWPOLYLINE
  5
309
100
AcDbEntity
  8
RACCORDO
100
AcDbPolyline
 62
250
  6
CONTINUOUS
 90
9
 70
0
 10
-10.9494190698
 20
5.5859854038
 10
-10.950337801
 20
5.587616826
 10
-10.9512874993
 20
5.5930521523
 10
-10.9522681647
 20
5.6022913825
 10
-10.9532897435
 20
5.6150999483
 10
-10.9543422894
 20
5.6317124182
 10
-10.955395963
 20
5.6528324969
 10
-10.9564517652
 20
5.6787284405
 10
-10.957508695
 20
5.709131993
  0
LINE
  5
30A
100
AcDbEntity
  8
0
100
AcDbLine
 62
7
  6
CONTINUOUS
 10
2.7167632191
 20
-21.6560705017
 11
2.9969695968
 21
-22.2
  0
LINE
  5
30B
100
AcDbEntity
  8
0
100
AcDbLine
 62
7
  6
CONTINUOUS
 10
-2.340959
 20
-16.574012
 11
-2.757374
 21
-15.424012
  0
LINE
  5
30C
100
AcDbEntity
  8
0
100
AcDbLine
 62
7
  6
CONTINUOUS
 10
-2.624441
 20
-16.239227
 11
-2.510667
 21
-16.574012
  0
LINE
  5
30D
100
AcDbEntity
  8
0
100
AcDbLine
 62
7
  6
CONTINUOUS
 10
-2.851879
 20
-15.59081
 11
-2.680556
 21
-16.101482
  0
LINE
  5
30E
100
AcDbEntity
  8
0
100
AcDbLine
 62
7
  6
CONTINUOUS
 10
-3.4
 20
-22.3297297297
 11
-3.3633443637
 21
-22.5
  0
LINE
  5
30F
100
AcDbEntity
  8
SMUSSO
100
AcDbLine
 62
7
  6
CONTINUOUS
 10
-6.0
 20
5.1997714731
 11
-6.0
 21
4.2755629091
  0
LINE
  5
310
100
AcDbEntity
  8
SMUSSO
100
AcDbLine
 62
250
  6
CONTINUOUS
 10
-5.6512953401
 20
4.624267569
 11
-5.6512953401
 21
5.5484761331
  0
LINE
  5
311
100
AcDbEntity
  8
SMUSSO
100
AcDbLine
 62
250
  6
CONTINUOUS
 10
-1.8486284727
 20
6.0487046135
 11
-2.3487046599
 21
5.5484761331
  0
LINE
  5
312
100
AcDbEntity
  8
RACCORDO
100
AcDbLine
 62
7
  6
CONTINUOUS
 10
-1.9911228098
 20
5.2086513684
 11
-2.0
 21
5.1997714731
  0
LINE
  5
313
100
AcDbEntity
  8
SMUSSO
100
AcDbLine
 62
7
  6
CONTINUOUS
 10
-10.0632812915
 20
-1.2
 11
-10.425228902
 21
-1.5619476105
  0
LINE
  5
314
100
AcDbEntity
  8
DRAFT
100
AcDbLine
 62
7
  6
CONTINUOUS
 10
-9.1255629091
 20
-1.2
 11
-9.4875105196
 21
-1.5619476105
  0
LINE
  5
315
100
AcDbEntity
  8
0
100
AcDbLine
 62
7
  6
CONTINUOUS
 10
1.957762
 20
-15.639973
 11
2.545611
 21
-16.574012
  0
LINE
  5
316
100
AcDbEntity
  8
0
100
AcDbLine
 62
7
  6
CONTINUOUS
 10
2.569582
 20
-16.358136
 11
1.991449
 21
-15.424012
  0
LWPOLYLINE
  5
317
100
AcDbEntity
  8
RACCORDO
100
AcDbPolyline
 62
7
  6
CONTINUOUS
 90
9
 70
0
 10
3.2353965764
 20
-21.9375889858
 10
3.2346018786
 20
-21.9356957586
 10
3.2338596062
 20
-21.9309661696
 10
3.2331697594
 20
-21.9234002188
 10
3.2325211059
 20
-21.9125321
 10
3.231924878
 20
-21.8988276194
 10
3.2314147721
 20
-21.8836841952
 10
3.2310046733
 20
-21.8671459648
 10
3.2306806965
 20
-21.8491687907
  0
LWPOLYLINE
  5
318
100
AcDbEntity
  8
RACCORDO
100
AcDbPolyline
 62
250
  6
CONTINUOUS
 90
13
 70
0
 10
-3.2153472641
 20
-23.175
 10
-3.2136372787
 20
-23.2011052384
 10
-3.2085365808
 20
-23.226763809
 10
-3.2001324447
 20
-23.2515366865
 10
-3.1885686676
 20
-23.275
 10
-3.1740431089
 20
-23.2967522858
 10
-3.1568043048
 20
-23.3164213562
 10
-3.1371472163
 20
-23.3336706681
 10
-3.1154081814
 20
-23.3482050808
 10
-3.0919591611
 20
-23.3597759065
 10
-3.0672013746
 20
-23.3681851653
 10
-3.0415584345
 20
-23.3732889723
 10
-3.0154690987
 20
-23.375
  0
LWPOLYLINE
  5
319
100
AcDbEntity
  8
0
100
AcDbPolyline
 62
7
  6
CONTINUOUS
 90
16
 70
0
 10
-3.4609559608
 20
-15.7563452998
 10
-3.4628434409
 20
-15.7160294504
 10
-3.4679914108
 20
-15.6781387634
 10
-3.4763998705
 20
-15.6426732388
 10
-3.4882417685
 20
-15.6095224103
 10
-3.5033441562
 20
-15.5787967442
 10
-3.5211881883
 20
-15.5508276387
 10
-3.5415738215
 20
-15.5257665448
 10
-3.564701099
 20
-15.5034620115
 10
-3.5906513046
 20
-15.4837910847
 10
-3.6196039274
 20
-15.4665947559
 10
-3.6513794784
 20
-15.4520320336
 10
-3.6855207742
 20
-15.4404569897
 10
-3.7218754203
 20
-15.4319876481
 10
-3.7605958111
 20
-15.4265059849
 10
-3.8016819468
 20
-15.424012
  0
LINE
  5
31A
100
AcDbEntity
  8
RACCORDO
100
AcDbLine
 62
7
  6
CONTINUOUS
 10
-3.2306806965
 20
-21.4508312093
 11
-3.2302645791
 21
-21.4868857001
  0
LINE
  5
31B
100
AcDbEntity
  8
RACCORDO
100
AcDbLine
 62
7
  6
CONTINUOUS
 10
-3.2302645791
 20
-21.4868857001
 11
-3.230158461
 21
-21.5232142708
  0
LINE
  5
31C
100
AcDbEntity
  8
0
100
AcDbLine
 62
7
  6
CONTINUOUS
 10
-4.318977
 20
-15.424012
 11
-4.318977
 21
-16.574012
  0
LINE
  5
31D
100
AcDbEntity
  8
0
100
AcDbLine
 62
7
  6
CONTINUOUS
 10
-4.163616
 20
-16.574012
 11
-4.163616
 21
-16.088679
  0
LINE
  5
31E
100
AcDbEntity
  8
0
100
AcDbLine
 62
7
  6
CONTINUOUS
 10
-4.163616
 20
-15.955745
 11
-4.163616
 21
-15.556945
  0
LINE
  5
31F
100
AcDbEntity
  8
RACCORDO
100
AcDbLine
 62
7
  6
CONTINUOUS
 10
-3.4
 20
-21.3965394362
 11
-3.4
 21
-22.3297297297
  0
LINE
  5
320
100
AcDbEntity
  8
0
100
AcDbLine
 62
7
  6
CONTINUOUS
 10
-3.4
 20
-22.3297297297
 11
-3.4
 21
-23.4301797403
  0
LINE
  5
321
100
AcDbEntity
  8
RACCORDO
100
AcDbLine
 62
7
  6
CONTINUOUS
 10
-3.4
 20
21.3965394362
 11
-3.4
 21
22.3297297297
  0
LINE
  5
322
100
AcDbEntity
  8
0
100
AcDbLine
 62
7
  6
CONTINUOUS
 10
-3.4
 20
22.3297297297
 11
-3.4
 21
23.4301797403
  0
LINE
  5
323
100
AcDbEntity
  8
0
100
AcDbLine
 62
7
  6
CONTINUOUS
 10
-3.3633443637
 20
23.4668353766
 11
-3.3633443637
 21
22.5
  0
LINE
  5
324
100
AcDbEntity
  8
0
100
AcDbLine
 62
7
  6
CONTINUOUS
 10
-3.3633443637
 20
-23.4668353766
 11
-3.3633443637
 21
-22.5
  0
LINE
  5
325
100
AcDbEntity
  8
ASSI
100
AcDbLine
 62
7
  6
CONTINUOUS
 10
-3.3
 20
22.4
 11
-3.3
 21
21.9098076211
  0
LINE
  5
326
100
AcDbEntity
  8
RACCORDO
100
AcDbLine
 62
7
  6
CONTINUOUS
 10
-3.3
 20
21.3901923789
 11
-3.3
 21
21.190565191
  0
LINE
  5
327
100
AcDbEntity
  8
RACCORDO
100
AcDbLine
 62
7
  6
CONTINUOUS
 10
-3.3
 20
-21.190565191
 11
-3.3
 21
-21.3901923789
  0
LINE
  5
328
100
AcDbEntity
  8
ASSI
100
AcDbLine
 62
7
  6
CONTINUOUS
 10
-3.3
 20
-21.9098076211
 11
-3.3
 21
-22.4
  0
LWPOLYLINE
  5
329
100
AcDbEntity
  8
0
100
AcDbPolyline
 62
7
  6
CONTINUOUS
 90
16
 70
0
 10
-3.6210423931
 20
-15.7317712282
 10
-3.6210419587
 20
-15.7809053507
 10
-3.623356658
 20
-15.8040809299
 10
-3.6279579443
 20
-15.8258720374
 10
-3.6348632948
 20
-15.8463813244
 10
-3.6440552322
 20
-15.8655061396
 10
-3.6554813254
 20
-15.8829385298
 10
-3.669161946
 20
-15.8986812812
 10
-3.6850767224
 20
-15.9127316075
 10
-3.7031121087
 20
-15.9247731968
 10
-3.723509951
 20
-15.934643635
 10
-3.7460284032
 20
-15.9425053361
 10
-3.7698283813
 20
-15.9485292302
 10
-3.7946301904
 20
-15.9527722939
 10
-3.8207135254
 20
-15.9551775505
 10
-3.8480783861
 20
-15.955745
  0
LINE
  5
32A
100
AcDbEntity
  8
RACCORDO
100
AcDbLine
 62
7
  6
CONTINUOUS
 10
-3.230158461
 20
21.5232142708
 11
-3.2302252008
 21
21.4957465159
  0
LINE
  5
32B
100
AcDbEntity
  8
RACCORDO
100
AcDbLine
 62
7
  6
CONTINUOUS
 10
-3.2302252008
 20
21.4957465159
 11
-3.2304481735
 21
21.4677738575
  0
LINE
  5
32C
100
AcDbEntity
  8
RACCORDO
100
AcDbLine
 62
7
  6
CONTINUOUS
 10
-3.2304481735
 20
21.4677738575
 11
-3.2307021722
 21
21.4489912997
  0
LWPOLYLINE
  5
32D
100
AcDbEntity
  8
RACCORDO
100
AcDbPolyline
 62
7
  6
CONTINUOUS
 90
13
 70
0
 10
-3.2307021722
 20
21.4489912997
 10
-3.2310560285
 20
21.4305336941
 10
-3.2312720413
 20
21.4214724105
 10
-3.2315214703
 20
21.4126860029
 10
-3.2318042699
 20
21.4041041548
 10
-3.2321204858
 20
21.3957971827
 10
-3.232477343
 20
21.3881354669
 10
-3.2328805767
 20
21.3810219229
 10
-3.2333244517
 20
21.3745536352
 10
-3.2337989873
 20
21.3693922371
 10
-3.2343008565
 20
21.3657582732
 10
-3.2348333862
 20
21.3634311989
 10
-3.2353965764
 20
21.3624110142
  0
LWPOLYLINE
  5
32E
100
AcDbEntity
  8
RACCORDO
100
AcDbPolyline
 62
250
  6
CONTINUOUS
 90
13
 70
0
 10
-3.2153472641
 20
23.175
 10
-3.2136698887
 20
23.2008561815
 10
-3.2086457251
 20
23.2263544948
 10
-3.200329685
 20
23.2510584675
 10
-3.1888216787
 20
23.2745602172
 10
-3.1742975618
 20
23.2964197538
 10
-3.1570345296
 20
23.3161906153
 10
-3.1373436107
 20
23.333519684
 10
-3.1155513531
 20
23.3481222911
 10
-3.0920492995
 20
23.3597385214
 10
-3.0672501787
 20
23.3681720737
 10
-3.0415762829
 20
23.3732866202
 10
-3.0154690987
 20
23.375
  0
LINE
  5
32F
100
AcDbEntity
  8
0
100
AcDbLine
 62
250
  6
CONTINUOUS
 10
3.653791075
 20
23.4301797403
 11
3.6748574782
 21
23.5
  0
LINE
  5
330
100
AcDbEntity
  8
ASSI
100
AcDbLine
 62
7
  6
CONTINUOUS
 10
-3.053019
 20
2.055041
 11
-3.506228
 21
0.643442
  0
LINE
  5
331
100
AcDbEntity
  8
SMUSSO
100
AcDbLine
 62
250
  6
CONTINUOUS
 10
-10.9254573825
 20
-4.8381285768
 11
-10.425228902
 21
-4.3380523895
  0
LINE
  5
332
100
AcDbEntity
  8
RACCORDO
100
AcDbLine
 62
7
  6
CONTINUOUS
 10
-10.0721611869
 20
-4.7088771902
 11
-10.0632812915
 21
-4.7
  0
LINE
  5
333
100
AcDbEntity
  8
SMUSSO
100
AcDbLine
 62
7
  6
CONTINUOUS
 10
10.0632812915
 20
-4.7
 11
9.1255629091
 21
-4.7
  0
LINE
  5
334
100
AcDbEntity
  8
SMUSSO
100
AcDbLine
 62
7
  6
CONTINUOUS
 10
-9.1255629091
 20
-4.7
 11
-10.0632812915
 21
-4.7
  0
LINE
  5
335
100
AcDbEntity
  8
SMUSSO
100
AcDbLine
 62
250
  6
CONTINUOUS
 10
-10.425228902
 20
-4.3380523895
 11
-9.4875105196
 21
-4.3380523895
  0
LINE
  5
336
100
AcDbEntity
  8
SMUSSO
100
AcDbLine
 62
250
  6
CONTINUOUS
 10
9.4875105196
 20
-4.3380523895
 11
10.425228902
 21
-4.3380523895
  0
LINE
  5
337
100
AcDbEntity
  8
RACCORDO
100
AcDbLine
 62
250
  6
CONTINUOUS
 10
-10.5720850344
 20
5.2086513684
 11
-10.9494190698
 21
5.5859854038
  0
LWPOLYLINE
  5
338
100
AcDbEntity
  8
RACCORDO
100
AcDbPolyline
 62
250
  6
CONTINUOUS
 90
13
 70
0
 10
-10.4494952222
 20
6.0859092514
 10
-10.450413761
 20
6.087047331
 10
-10.4513632604
 20
6.0896987051
 10
-10.4523437204
 20
6.0940569764
 10
-10.4533650678
 20
6.1003469733
 10
-10.4544173757
 20
6.108747266
 10
-10.455470864
 20
6.1193119876
 10
-10.4565265544
 20
6.1321602041
 10
-10.4575834251
 20
6.1473873411
 10
-10.4586086297
 20
6.16484995
 10
-10.459600056
 20
6.1845287906
 10
-10.4605598163
 20
6.2064150322
 10
-10.4614614012
 20
6.2302238538
  0
LINE
  5
339
100
AcDbEntity
  8
ASSI
100
AcDbLine
 62
7
  6
CONTINUOUS
 10
-4.369462
 20
2.055041
 11
-3.711248
 21
0.004944
  0
LINE
  5
33A
100
AcDbEntity
  8
0
100
AcDbLine
 62
250
  6
CONTINUOUS
 10
3.653791075
 20
-23.4301797403
 11
3.6748574782
 21
-23.5
  0
LWPOLYLINE
  5
33B
100
AcDbEntity
  8
RACCORDO
100
AcDbPolyline
 62
250
  6
CONTINUOUS
 90
6
 70
0
 10
-3.1705494094
 20
21.2941832525
 10
-3.1688620379
 20
21.2686452013
 10
-3.1638808499
 20
21.2433747486
 10
-3.1556294169
 20
21.2188034191
 10
-3.1441629703
 20
21.1953182501
 10
-3.1410130045
 20
21.190565191
  0
LINE
  5
33C
100
AcDbEntity
  8
RACCORDO
100
AcDbLine
 62
250
  6
CONTINUOUS
 10
-3.2153472641
 20
23.175
 11
-3.1705494094
 21
21.8921572875
  0
LINE
  5
33D
100
AcDbEntity
  8
RACCORDO
100
AcDbLine
 62
250
  6
CONTINUOUS
 10
-3.0154690987
 20
23.3164213562
 11
-2.9765077582
 21
22.2007145431
  0
LWPOLYLINE
  5
33E
100
AcDbEntity
  8
RACCORDO
100
AcDbPolyline
 62
7
  6
CONTINUOUS
 90
13
 70
0
 10
-3.4
 20
21.3965394199
 10
-3.3996676764
 20
21.3703785324
 10
-3.3987529232
 20
21.3453447736
 10
-3.3972557403
 20
21.3214381435
 10
-3.3951307158
 20
21.2982500229
 10
-3.3924232617
 20
21.276189031
 10
-3.3892696141
 20
21.2564810255
 10
-3.3856446542
 20
21.2392949037
 10
-3.3815735009
 20
21.2244617684
 10
-3.3772677461
 20
21.2127007851
 10
-3.3727979205
 20
21.2042516758
 10
-3.3680934936
 20
21.1988747187
 10
-3.3631544652
 20
21.1965699136
  0
LINE
  5
33F
100
AcDbEntity
  8
RACCORDO
100
AcDbLine
 62
7
  6
CONTINUOUS
 10
-3.2306806965
 20
21.8491687907
 11
-3.2302645791
 21
21.8131142999
  0
LINE
  5
340
100
AcDbEntity
  8
RACCORDO
100
AcDbLine
 62
7
  6
CONTINUOUS
 10
-3.2302645791
 20
21.8131142999
 11
-3.230158461
 21
21.7767857292
  0
LINE
  5
341
100
AcDbEntity
  8
RACCORDO
100
AcDbLine
 62
7
  6
CONTINUOUS
 10
-3.230158461
 20
23.175
 11
-3.230158461
 21
22.5048155586
  0
LINE
  5
342
100
AcDbEntity
  8
RACCORDO
100
AcDbLine
 62
7
  6
CONTINUOUS
 10
-3.230158461
 20
21.7767857292
 11
-3.230158461
 21
21.5232142708
  0
LINE
  5
343
100
AcDbEntity
  8
RACCORDO
100
AcDbLine
 62
7
  6
CONTINUOUS
 10
-3.230158461
 20
-22.5048155586
 11
-3.230158461
 21
-23.175
  0
LINE
  5
344
100
AcDbEntity
  8
RACCORDO
100
AcDbLine
 62
250
  6
CONTINUOUS
 10
-3.1705494094
 20
-21.8921572875
 11
-3.1705494094
 21
-21.2941832525
  0
LINE
  5
345
100
AcDbEntity
  8
RACCORDO
100
AcDbLine
 62
250
  6
CONTINUOUS
 10
-3.1705494094
 20
21.2941832525
 11
-3.1705494094
 21
21.8921572875
  0
LINE
  5
346
100
AcDbEntity
  8
0
100
AcDbLine
 62
7
  6
CONTINUOUS
 10
-3.1
 20
22.2
 11
-3.1
 21
21.1720718961
  0
LINE
  5
347
100
AcDbEntity
  8
0
100
AcDbLine
 62
7
  6
CONTINUOUS
 10
-3.1
 20
-22.2
 11
-3.1
 21
-21.1720718961
  0
LINE
  5
348
100
AcDbEntity
  8
RACCORDO
100
AcDbLine
 62
250
  6
CONTINUOUS
 10
-3.0154690987
 20
-23.3164213562
 11
-3.0154690987
 21
-23.375
  0
LINE
  5
349
100
AcDbEntity
  8
RACCORDO
100
AcDbLine
 62
250
  6
CONTINUOUS
 10
-3.0154690987
 20
23.3164213562
 11
-3.0154690987
 21
23.375
  0
LINE
  5
34A
100
AcDbEntity
  8
ASSI
100
AcDbLine
 62
7
  6
CONTINUOUS
 10
-2.369657
 20
2.055041
 11
-2.369662
 21
0.004944
  0
LINE
  5
34B
100
AcDbEntity
  8
SMUSSO
100
AcDbLine
 62
250
  6
CONTINUOUS
 10
-2.3487046599
 20
4.624267569
 11
-2.3487046599
 21
5.5484761331
  0
LINE
  5
34C
100
AcDbEntity
  8
0
100
AcDbLine
 62
7
  6
CONTINUOUS
 10
-2.297737
 20
-15.424012
 11
-2.297737
 21
-15.561758
  0
LINE
  5
34D
100
AcDbEntity
  8
SMUSSO
100
AcDbLine
 62
7
  6
CONTINUOUS
 10
-2.0
 20
5.1997714731
 11
-2.0
 21
4.2755629091
  0
LINE
  5
34E
100
AcDbEntity
  8
ASSI
100
AcDbLine
 62
7
  6
CONTINUOUS
 10
-1.959646
 20
0.004949
 11
-1.959641
 21
2.055041
  0
LINE
  5
34F
100
AcDbEntity
  8
0
100
AcDbLine
 62
7
  6
CONTINUOUS
 10
-1.908562
 20
-15.561758
 11
-1.908562
 21
-16.574012
  0
LINE
  5
350
100
AcDbEntity
  8
0
100
AcDbLine
 62
7
  6
CONTINUOUS
 10
-1.753201
 20
-16.574012
 11
-1.753201
 21
-15.561758
  0
LINE
  5
351
100
AcDbEntity
  8
ASSI
100
AcDbLine
 62
7
  6
CONTINUOUS
 10
-1.549641
 20
2.055041
 11
-1.549641
 21
0.004949
  0
LINE
  5
352
100
AcDbEntity
  8
RACCORDO
100
AcDbLine
 62
7
  6
CONTINUOUS
 10
-3.230158461
 20
-21.5232142708
 11
-3.2302252008
 21
-21.8042534841
  0
LINE
  5
353
100
AcDbEntity
  8
RACCORDO
100
AcDbLine
 62
7
  6
CONTINUOUS
 10
-3.2302252008
 20
-21.8042534841
 11
-3.2304481735
 21
-21.8322261425
  0
LINE
  5
354
100
AcDbEntity
  8
RACCORDO
100
AcDbLine
 62
7
  6
CONTINUOUS
 10
-3.2304481735
 20
-21.8322261425
 11
-3.2307021722
 21
-21.8510087003
  0
LWPOLYLINE
  5
355
100
AcDbEntity
  8
RACCORDO
100
AcDbPolyline
 62
7
  6
CONTINUOUS
 90
13
 70
0
 10
-3.2307021722
 20
-21.8510087003
 10
-3.2310560285
 20
-21.8694663059
 10
-3.2312720413
 20
-21.8785275895
 10
-3.2315214703
 20
-21.8873139971
 10
-3.2318042699
 20
-21.8958958452
 10
-3.2321204858
 20
-21.9042028173
 10
-3.232477343
 20
-21.9118645331
 10
-3.2328805767
 20
-21.9189780771
 10
-3.2333244517
 20
-21.9254463648
 10
-3.2337989873
 20
-21.9306077629
 10
-3.2343008565
 20
-21.9342417268
 10
-3.2348333862
 20
-21.9365688011
 10
-3.2353965764
 20
-21.9375889858
  0
LINE
  5
356
100
AcDbEntity
  8
RACCORDO
100
AcDbLine
 62
250
  6
CONTINUOUS
 10
-3.1705494094
 20
-21.8921572875
 11
-3.2153472641
 21
-23.175
  0
LINE
  5
357
100
AcDbEntity
  8
RACCORDO
100
AcDbLine
 62
250
  6
CONTINUOUS
 10
-2.9765077582
 20
-22.2007145431
 11
-3.0154690987
 21
-23.3164213562
  0
LWPOLYLINE
  5
358
100
AcDbEntity
  8
RACCORDO
100
AcDbPolyline
 62
250
  6
CONTINUOUS
 90
6
 70
0
 10
-3.1705494094
 20
-21.2941832525
 10
-3.1688620379
 20
-21.2686452013
 10
-3.1638808499
 20
-21.2433747485
 10
-3.1556294169
 20
-21.2188034191
 10
-3.1441629703
 20
-21.1953182501
 10
-3.1410130045
 20
-21.190565191
  0
LINE
  5
359
100
AcDbEntity
  8
0
100
AcDbLine
 62
250
  6
CONTINUOUS
 10
4.2071270357
 20
23.2631073618
 11
4.2275426698
 21
23.3333596575
  0
LINE
  5
35A
100
AcDbEntity
  8
ASSI
100
AcDbLine
 62
7
  6
CONTINUOUS
 10
-3.301218
 20
0.004949
 11
-2.642998
 21
2.055041
  0
LINE
  5
35B
100
AcDbEntity
  8
RACCORDO
100
AcDbLine
 62
250
  6
CONTINUOUS
 10
-9.65
 20
-20.1496567219
 11
-9.522351825
 21
-19.7664007784
  0
LINE
  5
35C
100
AcDbEntity
  8
RACCORDO
100
AcDbLine
 62
250
  6
CONTINUOUS
 10
-8.9005708996
 20
-20.9
 11
-8.7730563203
 21
-20.5171451693
  0
LINE
  5
35D
100
AcDbEntity
  8
RACCORDO
100
AcDbLine
 62
7
  6
CONTINUOUS
 10
1.8486284727
 20
6.0487046135
 11
1.5084990752
 21
5.708575216
  0
LINE
  5
35E
100
AcDbEntity
  8
SMUSSO
100
AcDbLine
 62
7
  6
CONTINUOUS
 10
2.3487046599
 20
5.5484761331
 11
2.0
 21
5.1997714731
  0
LINE
  5
35F
100
AcDbEntity
  8
DRAFT
100
AcDbLine
 62
7
  6
CONTINUOUS
 10
2.0
 20
4.2755629091
 11
2.3487046599
 21
4.624267569
  0
LINE
  5
360
100
AcDbEntity
  8
SMUSSO
100
AcDbLine
 62
250
  6
CONTINUOUS
 10
-10.425228902
 20
-1.5619476105
 11
-9.4875105196
 21
-1.5619476105
  0
LINE
  5
361
100
AcDbEntity
  8
SMUSSO
100
AcDbLine
 62
250
  6
CONTINUOUS
 10
9.4875105196
 20
-1.5619476105
 11
10.425228902
 21
-1.5619476105
  0
LINE
  5
362
100
AcDbEntity
  8
RACCORDO
100
AcDbLine
 62
250
  6
CONTINUOUS
 10
-10.0721611869
 20
5.708575216
 11
-10.4494952222
 21
6.0859092514
  0
LINE
  5
363
100
AcDbEntity
  8
RACCORDO
100
AcDbLine
 62
250
  6
CONTINUOUS
 10
-9.65
 20
20.1496567219
 11
-9.522351825
 21
19.7664007784
  0
LINE
  5
364
100
AcDbEntity
  8
RACCORDO
100
AcDbLine
 62
250
  6
CONTINUOUS
 10
-8.9005708996
 20
20.9
 11
-8.7730563203
 21
20.5171451693
  0
LINE
  5
365
100
AcDbEntity
  8
ASSI
100
AcDbLine
 62
7
  6
CONTINUOUS
 10
-3.506228
 20
0.643442
 11
-3.959442
 21
2.055041
  0
LINE
  5
366
100
AcDbEntity
  8
0
100
AcDbLine
 62
250
  6
CONTINUOUS
 10
4.2071270357
 20
-23.2631073618
 11
4.2275426698
 21
-23.3333596575
  0
LWPOLYLINE
  5
367
100
AcDbEntity
  8
0
100
AcDbPolyline
 62
7
  6
CONTINUOUS
 90
16
 70
0
 10
0.5446579357
 20
-15.7563452998
 10
0.5427704556
 20
-15.7160294504
 10
0.5376224857
 20
-15.6781387634
 10
0.529214026
 20
-15.6426732388
 10
0.5173721281
 20
-15.6095224103
 10
0.5022697403
 20
-15.5787967442
 10
0.4844257083
 20
-15.5508276388
 10
0.4640400751
 20
-15.5257665448
 10
0.4409127976
 20
-15.5034620115
 10
0.414962592
 20
-15.4837910847
 10
0.3860099691
 20
-15.4665947559
 10
0.3542344182
 20
-15.4520320336
 10
0.3200931224
 20
-15.4404569897
 10
0.2837384763
 20
-15.4319876481
 10
0.2450180854
 20
-15.4265059849
 10
0.2039319498
 20
-15.424012
  0
LINE
  5
368
100
AcDbEntity
  8
0
100
AcDbLine
 62
7
  6
CONTINUOUS
 10
-1.364026
 20
-15.561758
 11
-1.364026
 21
-15.424012
  0
LINE
  5
369
100
AcDbEntity
  8
0
100
AcDbLine
 62
7
  6
CONTINUOUS
 10
-1.202218
 20
-16.404213
 11
-1.202218
 21
-16.574012
  0
LINE
  5
36A
100
AcDbEntity
  8
ASSI
100
AcDbLine
 62
7
  6
CONTINUOUS
 10
-1.139626
 20
0.004949
 11
-1.139626
 21
1.356847
  0
LINE
  5
36B
100
AcDbEntity
  8
0
100
AcDbLine
 62
7
  6
CONTINUOUS
 10
-1.035688
 20
-16.574012
 11
-1.035688
 21
-16.404213
  0
LINE
  5
36C
100
AcDbEntity
  8
0
100
AcDbLine
 62
7
  6
CONTINUOUS
 10
-0.313363
 20
-15.424012
 11
-0.313363
 21
-16.574012
  0
LINE
  5
36D
100
AcDbEntity
  8
0
100
AcDbLine
 62
7
  6
CONTINUOUS
 10
-0.158002
 20
-16.574012
 11
-0.158002
 21
-16.088679
  0
LINE
  5
36E
100
AcDbEntity
  8
0
100
AcDbLine
 62
7
  6
CONTINUOUS
 10
-0.158002
 20
-15.955745
 11
-0.158002
 21
-15.556945
  0
LINE
  5
36F
100
AcDbEntity
  8
ASSI
100
AcDbLine
 62
7
  6
CONTINUOUS
 10
0.045669
 20
1.356847
 11
0.045674
 21
0.004949
  0
LINE
  5
370
100
AcDbEntity
  8
RACCORDO
100
AcDbLine
 62
7
  6
CONTINUOUS
 10
2.5908096278
 20
20.9843180147
 11
2.7167632191
 21
21.6560705017
  0
LINE
  5
371
100
AcDbEntity
  8
ASSI
100
AcDbLine
 62
7
  6
CONTINUOUS
 10
-0.164144
 20
2.055041
 11
-0.546976
 21
0.719948
  0
LINE
  5
372
100
AcDbEntity
  8
ASSI
100
AcDbLine
 62
7
  6
CONTINUOUS
 10
-0.341976
 20
0.004954
 11
0.045669
 21
1.356847
  0
LINE
  5
373
100
AcDbEntity
  8
RACCORDO
100
AcDbLine
 62
250
  6
CONTINUOUS
 10
7.0503754349
 20
21.0077180193
 11
7.0746906201
 21
21.0738952231
  0
LINE
  5
374
100
AcDbEntity
  8
RACCORDO
100
AcDbLine
 62
250
  6
CONTINUOUS
 10
6.7220012043
 20
21.1306884717
 11
6.7466556734
 21
21.1965699136
  0
LINE
  5
375
100
AcDbEntity
  8
RACCORDO
100
AcDbLine
 62
250
  6
CONTINUOUS
 10
-8.2700408412
 20
-19.2597703307
 11
-8.4374926906
 21
-19.6695125202
  0
LINE
  5
376
100
AcDbEntity
  8
RACCORDO
100
AcDbLine
 62
250
  6
CONTINUOUS
 10
8.0784260498
 20
19.8030596834
 11
8.0838316893
 21
19.8160983575
  0
LINE
  5
377
100
AcDbEntity
  8
RACCORDO
100
AcDbLine
 62
250
  6
CONTINUOUS
 10
-7.9141765766
 20
-19.408575216
 11
-8.0838316893
 21
-19.8160983575
  0
LINE
  5
378
100
AcDbEntity
  8
SMUSSO
100
AcDbLine
 62
250
  6
CONTINUOUS
 10
6.1513715273
 20
6.0487046135
 11
5.6512953401
 21
5.5484761331
  0
LINE
  5
379
100
AcDbEntity
  8
SMUSSO
100
AcDbLine
 62
7
  6
CONTINUOUS
 10
10.0632812915
 20
-1.2
 11
9.1255629091
 21
-1.2
  0
LINE
  5
37A
100
AcDbEntity
  8
SMUSSO
100
AcDbLine
 62
7
  6
CONTINUOUS
 10
-9.1255629091
 20
-1.2
 11
-10.0632812915
 21
-1.2
  0
LINE
  5
37B
100
AcDbEntity
  8
0
100
AcDbLine
 62
7
  6
CONTINUOUS
 10
7.5
 20
-1.0
 11
-7.5
 21
-1.0
  0
LINE
  5
37C
100
AcDbEntity
  8
ASSI
100
AcDbLine
 62
7
  6
CONTINUOUS
 10
3.907643
 20
0.004954
 11
4.369462
 21
0.004959
  0
LINE
  5
37D
100
AcDbEntity
  8
ASSI
100
AcDbLine
 62
7
  6
CONTINUOUS
 10
0.729031
 20
0.004949
 11
1.139047
 21
0.004954
  0
LINE
  5
37E
100
AcDbEntity
  8
ASSI
100
AcDbLine
 62
7
  6
CONTINUOUS
 10
-1.549641
 20
0.004949
 11
-1.139626
 21
0.004949
  0
LINE
  5
37F
100
AcDbEntity
  8
ASSI
100
AcDbLine
 62
7
  6
CONTINUOUS
 10
0.045674
 20
0.004949
 11
0.455689
 21
0.004949
  0
LINE
  5
380
100
AcDbEntity
  8
ASSI
100
AcDbLine
 62
7
  6
CONTINUOUS
 10
2.728837
 20
0.004954
 11
3.138858
 21
0.004954
  0
LINE
  5
381
100
AcDbEntity
  8
ASSI
100
AcDbLine
 62
7
  6
CONTINUOUS
 10
-0.751981
 20
0.004949
 11
-0.341976
 21
0.004954
  0
LINE
  5
382
100
AcDbEntity
  8
ASSI
100
AcDbLine
 62
7
  6
CONTINUOUS
 10
-2.369662
 20
0.004944
 11
-1.959646
 21
0.004949
  0
LINE
  5
383
100
AcDbEntity
  8
ASSI
100
AcDbLine
 62
7
  6
CONTINUOUS
 10
2.045475
 20
0.004954
 11
2.455495
 21
0.004949
  0
LINE
  5
384
100
AcDbEntity
  8
ASSI
100
AcDbLine
 62
7
  6
CONTINUOUS
 10
-3.711248
 20
0.004944
 11
-3.301218
 21
0.004949
  0
LINE
  5
385
100
AcDbEntity
  8
RACCORDO
100
AcDbLine
 62
7
  6
CONTINUOUS
 10
-6.0088771902
 20
5.2086513684
 11
-6.0
 21
5.1997714731
  0
LINE
  5
386
100
AcDbEntity
  8
SMUSSO
100
AcDbLine
 62
250
  6
CONTINUOUS
 10
-6.1513715273
 20
6.0487046135
 11
-5.6512953401
 21
5.5484761331
  0
LINE
  5
387
100
AcDbEntity
  8
RACCORDO
100
AcDbLine
 62
250
  6
CONTINUOUS
 10
8.0838316893
 20
-19.8160983575
 11
7.9141765766
 21
-19.408575216
  0
LINE
  5
388
100
AcDbEntity
  8
RACCORDO
100
AcDbLine
 62
250
  6
CONTINUOUS
 10
-8.0838316893
 20
19.8160983575
 11
-8.0784260498
 21
19.8030596834
  0
LINE
  5
389
100
AcDbEntity
  8
RACCORDO
100
AcDbLine
 62
250
  6
CONTINUOUS
 10
-8.4374926906
 20
19.6695125202
 11
-8.4321587056
 21
19.656402711
  0
LINE
  5
38A
100
AcDbEntity
  8
RACCORDO
100
AcDbLine
 62
250
  6
CONTINUOUS
 10
6.7466556736
 20
-21.1965699136
 11
6.7220015127
 21
-21.1306884717
  0
LINE
  5
38B
100
AcDbEntity
  8
RACCORDO
100
AcDbLine
 62
250
  6
CONTINUOUS
 10
7.0746906202
 20
-21.073895223
 11
7.0503746013
 21
-21.0077187651
  0
LINE
  5
38C
100
AcDbEntity
  8
ASSI
100
AcDbLine
 62
7
  6
CONTINUOUS
 10
-1.139626
 20
1.356847
 11
-0.751981
 21
0.004949
  0
LINE
  5
38D
100
AcDbEntity
  8
ASSI
100
AcDbLine
 62
7
  6
CONTINUOUS
 10
-0.546976
 20
0.719948
 11
-0.929808
 21
2.055041
  0
LINE
  5
38E
100
AcDbEntity
  8
RACCORDO
100
AcDbLine
 62
7
  6
CONTINUOUS
 10
2.7167632191
 20
-21.6560705017
 11
2.5908096278
 21
-20.9843180147
  0
LWPOLYLINE
  5
38F
100
AcDbEntity
  8
RACCORDO
100
AcDbPolyline
 62
250
  6
CONTINUOUS
 90
6
 70
0
 10
3.1705494094
 20
-21.2941832525
 10
3.1688620379
 20
-21.2686452013
 10
3.1638808499
 20
-21.2433747485
 10
3.1556294169
 20
-21.2188034191
 10
3.1441629703
 20
-21.1953182501
 10
3.1410130045
 20
-21.190565191
  0
LINE
  5
390
100
AcDbEntity
  8
ASSI
100
AcDbLine
 62
7
  6
CONTINUOUS
 10
0.455689
 20
0.004949
 11
0.455689
 21
2.055041
  0
LINE
  5
391
100
AcDbEntity
  8
0
100
AcDbLine
 62
7
  6
CONTINUOUS
 10
0.754916
 20
-15.424012
 11
0.754916
 21
-16.574012
  0
LINE
  5
392
100
AcDbEntity
  8
0
100
AcDbLine
 62
7
  6
CONTINUOUS
 10
0.910277
 20
-16.436266
 11
0.910277
 21
-16.051904
  0
LINE
  5
393
100
AcDbEntity
  8
0
100
AcDbLine
 62
7
  6
CONTINUOUS
 10
0.910277
 20
-15.914158
 11
0.910277
 21
-15.561758
  0
LINE
  5
394
100
AcDbEntity
  8
0
100
AcDbLine
 62
7
  6
CONTINUOUS
 10
1.539803
 20
-16.051904
 11
1.539803
 21
-15.914158
  0
LINE
  5
395
100
AcDbEntity
  8
0
100
AcDbLine
 62
7
  6
CONTINUOUS
 10
1.59265
 20
-15.561758
 11
1.59265
 21
-15.424012
  0
LINE
  5
396
100
AcDbEntity
  8
0
100
AcDbLine
 62
7
  6
CONTINUOUS
 10
1.603818
 20
-16.574012
 11
1.603818
 21
-16.436266
  0
LINE
  5
397
100
AcDbEntity
  8
0
100
AcDbLine
 62
7
  6
CONTINUOUS
 10
1.807213
 20
-15.424012
 11
1.807213
 21
-16.574012
  0
LINE
  5
398
100
AcDbEntity
  8
0
100
AcDbLine
 62
7
  6
CONTINUOUS
 10
1.957762
 20
-16.574012
 11
1.957762
 21
-15.639973
  0
LWPOLYLINE
  5
399
100
AcDbEntity
  8
0
100
AcDbPolyline
 62
7
  6
CONTINUOUS
 90
16
 70
0
 10
0.3845715035
 20
-15.7317712282
 10
0.3845719379
 20
-15.7809053507
 10
0.3822572386
 20
-15.8040809299
 10
0.3776559522
 20
-15.8258720374
 10
0.3707506018
 20
-15.8463813244
 10
0.3615586644
 20
-15.8655061396
 10
0.3501325711
 20
-15.8829385298
 10
0.3364519505
 20
-15.8986812812
 10
0.3205371742
 20
-15.9127316075
 10
0.3025017878
 20
-15.9247731968
 10
0.2821039456
 20
-15.934643635
 10
0.2595854933
 20
-15.9425053361
 10
0.2357855153
 20
-15.9485292302
 10
0.2109837062
 20
-15.9527722939
 10
0.1849003712
 20
-15.9551775505
 10
0.1575355104
 20
-15.955745
  0
LWPOLYLINE
  5
39A
100
AcDbEntity
  8
RACCORDO
100
AcDbPolyline
 62
250
  6
CONTINUOUS
 90
6
 70
0
 10
3.1705494094
 20
21.2941832525
 10
3.1687817966
 20
21.2680391786
 10
3.1636040549
 20
21.2423416921
 10
3.1551039905
 20
21.2175333929
 10
3.1434261546
 20
21.1940409509
 10
3.1410863363
 20
21.190565191
  0
LINE
  5
39B
100
AcDbEntity
  8
RACCORDO
100
AcDbLine
 62
7
  6
CONTINUOUS
 10
-2.5908096278
 20
-20.9843180147
 11
-2.7167632191
 21
-21.6560705017
  0
LINE
  5
39C
100
AcDbEntity
  8
ASSI
100
AcDbLine
 62
7
  6
CONTINUOUS
 10
1.38724
 20
2.055046
 11
0.729031
 21
0.004949
  0
LINE
  5
39D
100
AcDbEntity
  8
ASSI
100
AcDbLine
 62
7
  6
CONTINUOUS
 10
1.139047
 20
0.004954
 11
1.268489
 21
0.408117
  0
LINE
  5
39E
100
AcDbEntity
  8
ASSI
100
AcDbLine
 62
7
  6
CONTINUOUS
 10
1.393554
 20
0.797632
 11
1.592256
 21
1.416548
  0
LINE
  5
39F
100
AcDbEntity
  8
RACCORDO
100
AcDbLine
 62
250
  6
CONTINUOUS
 10
8.9005708996
 20
20.9
 11
8.7730563203
 21
20.5171451693
  0
LINE
  5
3A0
100
AcDbEntity
  8
RACCORDO
100
AcDbLine
 62
250
  6
CONTINUOUS
 10
-7.0503746007
 20
-21.0077187636
 11
-7.0746906195
 21
-21.0738952211
  0
LINE
  5
3A1
100
AcDbEntity
  8
RACCORDO
100
AcDbLine
 62
250
  6
CONTINUOUS
 10
-6.7220015127
 20
-21.1306884717
 11
-6.7466556736
 21
-21.1965699136
  0
LINE
  5
3A2
100
AcDbEntity
  8
RACCORDO
100
AcDbLine
 62
250
  6
CONTINUOUS
 10
8.4321587056
 20
19.656402711
 11
8.4374926906
 21
19.6695125202
  0
LINE
  5
3A3
100
AcDbEntity
  8
RACCORDO
100
AcDbLine
 62
7
  6
CONTINUOUS
 10
6.0088771902
 20
5.2086513684
 11
6.0
 21
5.1997714731
  0
LINE
  5
3A4
100
AcDbEntity
  8
ASSI
100
AcDbLine
 62
7
  6
CONTINUOUS
 10
1.268489
 20
0.408117
 11
1.916038
 21
0.408117
  0
LINE
  5
3A5
100
AcDbEntity
  8
ASSI
100
AcDbLine
 62
7
  6
CONTINUOUS
 10
1.790967
 20
0.797632
 11
1.393554
 21
0.797632
  0
LINE
  5
3A6
100
AcDbEntity
  8
ASSI
100
AcDbLine
 62
7
  6
CONTINUOUS
 10
3.138904
 20
0.797638
 11
3.496757
 21
0.797632
  0
LINE
  5
3A7
100
AcDbEntity
  8
ASSI
100
AcDbLine
 62
7
  6
CONTINUOUS
 10
3.6320493813
 20
1.176903
 11
3.133205
 21
1.176903
  0
LINE
  5
3A8
100
AcDbEntity
  8
ASSI
100
AcDbLine
 62
7
  6
CONTINUOUS
 10
3.1332
 20
1.675781
 11
3.6320406187
 21
1.675781
  0
LINE
  5
3A9
100
AcDbEntity
  8
DRAFT
100
AcDbLine
 62
7
  6
CONTINUOUS
 10
-2.0
 20
4.2755629091
 11
-2.3487046599
 21
4.624267569
  0
LINE
  5
3AA
100
AcDbEntity
  8
RACCORDO
100
AcDbLine
 62
250
  6
CONTINUOUS
 10
8.4374926906
 20
-19.6695125202
 11
8.2700408412
 21
-19.2597703307
  0
LINE
  5
3AB
100
AcDbEntity
  8
RACCORDO
100
AcDbLine
 62
250
  6
CONTINUOUS
 10
-6.7466556734
 20
21.1965699136
 11
-6.7220012043
 21
21.1306884717
  0
LINE
  5
3AC
100
AcDbEntity
  8
RACCORDO
100
AcDbLine
 62
250
  6
CONTINUOUS
 10
-7.0746906194
 20
21.0738952212
 11
-7.0503754363
 21
21.007718023
  0
LINE
  5
3AD
100
AcDbEntity
  8
RACCORDO
100
AcDbLine
 62
250
  6
CONTINUOUS
 10
8.9005708996
 20
-20.9
 11
8.7730563203
 21
-20.5171451693
  0
LINE
  5
3AE
100
AcDbEntity
  8
ASSI
100
AcDbLine
 62
7
  6
CONTINUOUS
 10
1.592256
 20
1.416548
 11
1.790967
 21
0.797632
  0
LINE
  5
3AF
100
AcDbEntity
  8
ASSI
100
AcDbLine
 62
7
  6
CONTINUOUS
 10
1.916038
 20
0.408117
 11
2.045475
 21
0.004954
  0
LINE
  5
3B0
100
AcDbEntity
  8
RACCORDO
100
AcDbLine
 62
7
  6
CONTINUOUS
 10
-2.7167632191
 20
21.6560705017
 11
-2.5908096278
 21
20.9843180147
  0
LINE
  5
3B1
100
AcDbEntity
  8
RACCORDO
100
AcDbLine
 62
250
  6
CONTINUOUS
 10
3.0154690987
 20
-23.3164213562
 11
2.9765077582
 21
-22.2007145431
  0
LINE
  5
3B2
100
AcDbEntity
  8
RACCORDO
100
AcDbLine
 62
250
  6
CONTINUOUS
 10
3.2153472641
 20
-23.175
 11
3.1705494094
 21
-21.8921572875
  0
LWPOLYLINE
  5
3B3
100
AcDbEntity
  8
0
100
AcDbPolyline
 62
7
  6
CONTINUOUS
 90
16
 70
0
 10
3.9207672922
 20
-15.999012098
 10
3.9191686512
 20
-15.9306740675
 10
3.9127458636
 20
-15.866120026
 10
3.9014989292
 20
-15.8053499736
 10
3.8851111019
 20
-15.7480498981
 10
3.8638991279
 20
-15.6945338117
 10
3.838813246
 20
-15.6457437509
 10
3.8102915896
 20
-15.6020390466
 10
3.7778960255
 20
-15.5630603678
 10
3.7412623926
 20
-15.5286717585
 10
3.7000504056
 20
-15.498622257
 10
3.6546003499
 20
-15.473162825
 10
3.6055689207
 20
-15.4529103904
 10
3.5531750164
 20
-15.4380705961
 10
3.4971997386
 20
-15.4284377993
 10
3.4376430872
 20
-15.424012
  0
LWPOLYLINE
  5
3B4
100
AcDbEntity
  8
RACCORDO
100
AcDbPolyline
 62
7
  6
CONTINUOUS
 90
13
 70
0
 10
3.4
 20
-21.3965394199
 10
3.3996676764
 20
-21.3703785324
 10
3.3987529232
 20
-21.3453447736
 10
3.3972557403
 20
-21.3214381435
 10
3.3951307158
 20
-21.2982500229
 10
3.3924232617
 20
-21.276189031
 10
3.3892696141
 20
-21.2564810255
 10
3.3856446542
 20
-21.2392949037
 10
3.3815735009
 20
-21.2244617684
 10
3.3772677461
 20
-21.2127007851
 10
3.3727979205
 20
-21.2042516758
 10
3.3680934936
 20
-21.1988747187
 10
3.3631544652
 20
-21.1965699136
  0
LINE
  5
3B5
100
AcDbEntity
  8
RACCORDO
100
AcDbLine
 62
7
  6
CONTINUOUS
 10
3.2306806965
 20
-21.8491687907
 11
3.2302645791
 21
-21.8131142999
  0
LINE
  5
3B6
100
AcDbEntity
  8
RACCORDO
100
AcDbLine
 62
7
  6
CONTINUOUS
 10
3.2306806965
 20
21.4508312093
 11
3.2302645791
 21
21.4868857001
  0
LINE
  5
3B7
100
AcDbEntity
  8
RACCORDO
100
AcDbLine
 62
7
  6
CONTINUOUS
 10
3.2302645791
 20
-21.8131142999
 11
3.230158461
 21
-21.7767857292
  0
LINE
  5
3B8
100
AcDbEntity
  8
RACCORDO
100
AcDbLine
 62
7
  6
CONTINUOUS
 10
3.2302645791
 20
21.4868857001
 11
3.230158461
 21
21.5232142708
  0
LINE
  5
3B9
100
AcDbEntity
  8
SMUSSO
100
AcDbLine
 62
7
  6
CONTINUOUS
 10
2.0
 20
5.1997714731
 11
2.0
 21
4.2755629091
  0
LINE
  5
3BA
100
AcDbEntity
  8
SMUSSO
100
AcDbLine
 62
250
  6
CONTINUOUS
 10
2.3487046599
 20
4.624267569
 11
2.3487046599
 21
5.5484761331
  0
LINE
  5
3BB
100
AcDbEntity
  8
0
100
AcDbLine
 62
7
  6
CONTINUOUS
 10
2.569582
 20
-15.424012
 11
2.569582
 21
-16.358136
  0
LINE
  5
3BC
100
AcDbEntity
  8
0
100
AcDbLine
 62
7
  6
CONTINUOUS
 10
2.720131
 20
-16.574012
 11
2.720131
 21
-15.424012
  0
LINE
  5
3BD
100
AcDbEntity
  8
ASSI
100
AcDbLine
 62
7
  6
CONTINUOUS
 10
2.728837
 20
2.055046
 11
2.728837
 21
0.004954
  0
LINE
  5
3BE
100
AcDbEntity
  8
0
100
AcDbLine
 62
7
  6
CONTINUOUS
 10
2.97156
 20
-15.424012
 11
2.97156
 21
-16.574012
  0
LINE
  5
3BF
100
AcDbEntity
  8
RACCORDO
100
AcDbLine
 62
250
  6
CONTINUOUS
 10
3.0154690987
 20
-23.3164213562
 11
3.0154690987
 21
-23.375
  0
LINE
  5
3C0
100
AcDbEntity
  8
RACCORDO
100
AcDbLine
 62
250
  6
CONTINUOUS
 10
3.0154690987
 20
23.3164213562
 11
3.0154690987
 21
23.375
  0
LINE
  5
3C1
100
AcDbEntity
  8
0
100
AcDbLine
 62
7
  6
CONTINUOUS
 10
3.1
 20
22.2
 11
3.1
 21
21.1720718961
  0
LINE
  5
3C2
100
AcDbEntity
  8
0
100
AcDbLine
 62
7
  6
CONTINUOUS
 10
3.1
 20
-22.2
 11
3.1
 21
-21.1720718961
  0
LINE
  5
3C3
100
AcDbEntity
  8
0
100
AcDbLine
 62
7
  6
CONTINUOUS
 10
3.126921
 20
-16.441079
 11
3.126921
 21
-15.556945
  0
LINE
  5
3C4
100
AcDbEntity
  8
ASSI
100
AcDbLine
 62
7
  6
CONTINUOUS
 10
3.133205
 20
1.176903
 11
3.1332
 21
1.675781
  0
LINE
  5
3C5
100
AcDbEntity
  8
RACCORDO
100
AcDbLine
 62
250
  6
CONTINUOUS
 10
3.1705494094
 20
21.8921572875
 11
3.1705494094
 21
21.2941832525
  0
LINE
  5
3C6
100
AcDbEntity
  8
RACCORDO
100
AcDbLine
 62
250
  6
CONTINUOUS
 10
3.1705494094
 20
-21.2941832525
 11
3.1705494094
 21
-21.8921572875
  0
LINE
  5
3C7
100
AcDbEntity
  8
RACCORDO
100
AcDbLine
 62
7
  6
CONTINUOUS
 10
3.230158461
 20
23.175
 11
3.230158461
 21
22.5048155586
  0
LINE
  5
3C8
100
AcDbEntity
  8
RACCORDO
100
AcDbLine
 62
7
  6
CONTINUOUS
 10
3.230158461
 20
-22.5048155586
 11
3.230158461
 21
-23.175
  0
LINE
  5
3C9
100
AcDbEntity
  8
ASSI
100
AcDbLine
 62
7
  6
CONTINUOUS
 10
3.3
 20
22.4
 11
3.3
 21
21.9098076211
  0
LINE
  5
3CA
100
AcDbEntity
  8
RACCORDO
100
AcDbLine
 62
7
  6
CONTINUOUS
 10
3.3
 20
21.3901923789
 11
3.3
 21
21.190565191
  0
LINE
  5
3CB
100
AcDbEntity
  8
RACCORDO
100
AcDbLine
 62
7
  6
CONTINUOUS
 10
3.3
 20
-21.190565191
 11
3.3
 21
-21.3901923789
  0
LINE
  5
3CC
100
AcDbEntity
  8
ASSI
100
AcDbLine
 62
7
  6
CONTINUOUS
 10
3.3
 20
-21.9098076211
 11
3.3
 21
-22.4
  0
LINE
  5
3CD
100
AcDbEntity
  8
0
100
AcDbLine
 62
7
  6
CONTINUOUS
 10
3.3633443637
 20
-22.5
 11
3.3633443637
 21
-23.4668353766
  0
LINE
  5
3CE
100
AcDbEntity
  8
0
100
AcDbLine
 62
7
  6
CONTINUOUS
 10
3.3633443637
 20
22.5
 11
3.3633443637
 21
23.4668353766
  0
LINE
  5
3CF
100
AcDbEntity
  8
0
100
AcDbLine
 62
7
  6
CONTINUOUS
 10
3.4
 20
23.4301797403
 11
3.4
 21
22.3297297297
  0
LINE
  5
3D0
100
AcDbEntity
  8
RACCORDO
100
AcDbLine
 62
7
  6
CONTINUOUS
 10
3.4
 20
22.3297297297
 11
3.4
 21
21.3965394362
  0
LINE
  5
3D1
100
AcDbEntity
  8
0
100
AcDbLine
 62
7
  6
CONTINUOUS
 10
3.4
 20
-23.4301797403
 11
3.4
 21
-22.3297297297
  0
LINE
  5
3D2
100
AcDbEntity
  8
RACCORDO
100
AcDbLine
 62
7
  6
CONTINUOUS
 10
3.4
 20
-22.3297297297
 11
3.4
 21
-21.3965394362
  0
LINE
  5
3D3
100
AcDbEntity
  8
ASSI
100
AcDbLine
 62
7
  6
CONTINUOUS
 10
3.138858
 20
0.004954
 11
3.138904
 21
0.797638
  0
LINE
  5
3D4
100
AcDbEntity
  8
RACCORDO
100
AcDbLine
 62
7
  6
CONTINUOUS
 10
3.230158461
 20
21.5232142708
 11
3.2302252008
 21
21.8042534841
  0
LINE
  5
3D5
100
AcDbEntity
  8
RACCORDO
100
AcDbLine
 62
7
  6
CONTINUOUS
 10
3.230158461
 20
-21.7767857292
 11
3.2302252008
 21
-21.4957465159
  0
LINE
  5
3D6
100
AcDbEntity
  8
RACCORDO
100
AcDbLine
 62
7
  6
CONTINUOUS
 10
3.2302252008
 20
21.8042534841
 11
3.2304481735
 21
21.8322261425
  0
LINE
  5
3D7
100
AcDbEntity
  8
RACCORDO
100
AcDbLine
 62
7
  6
CONTINUOUS
 10
3.2302252008
 20
-21.4957465159
 11
3.2304481735
 21
-21.4677738575
  0
LINE
  5
3D8
100
AcDbEntity
  8
RACCORDO
100
AcDbLine
 62
7
  6
CONTINUOUS
 10
3.2304481735
 20
21.8322261425
 11
3.2307021722
 21
21.8510087003
  0
LINE
  5
3D9
100
AcDbEntity
  8
RACCORDO
100
AcDbLine
 62
7
  6
CONTINUOUS
 10
3.2304481735
 20
-21.4677738575
 11
3.2307021722
 21
-21.4489912997
  0
LWPOLYLINE
  5
3DA
100
AcDbEntity
  8
RACCORDO
100
AcDbPolyline
 62
7
  6
CONTINUOUS
 90
13
 70
0
 10
3.2307021722
 20
21.8510087003
 10
3.2310560285
 20
21.8694663059
 10
3.2312720413
 20
21.8785275895
 10
3.2315214703
 20
21.8873139971
 10
3.2318042699
 20
21.8958958452
 10
3.2321204858
 20
21.9042028173
 10
3.232477343
 20
21.9118645331
 10
3.2328805767
 20
21.9189780771
 10
3.2333244517
 20
21.9254463648
 10
3.2337989873
 20
21.9306077629
 10
3.2343008565
 20
21.9342417268
 10
3.2348333862
 20
21.9365688011
 10
3.2353965764
 20
21.9375889858
  0
LWPOLYLINE
  5
3DB
100
AcDbEntity
  8
RACCORDO
100
AcDbPolyline
 62
7
  6
CONTINUOUS
 90
13
 70
0
 10
3.2307021722
 20
-21.4489912997
 10
3.2310560285
 20
-21.4305336941
 10
3.2312720413
 20
-21.4214724105
 10
3.2315214703
 20
-21.4126860029
 10
3.2318042699
 20
-21.4041041548
 10
3.2321204858
 20
-21.3957971827
 10
3.232477343
 20
-21.3881354669
 10
3.2328805767
 20
-21.3810219229
 10
3.2333244517
 20
-21.3745536352
 10
3.2337989873
 20
-21.3693922371
 10
3.2343008565
 20
-21.3657582732
 10
3.2348333862
 20
-21.3634311989
 10
3.2353965764
 20
-21.3624110142
  0
LINE
  5
3DC
100
AcDbEntity
  8
RACCORDO
100
AcDbLine
 62
250
  6
CONTINUOUS
 10
2.9765077582
 20
22.2007145431
 11
3.0154690987
 21
23.3164213562
  0
LINE
  5
3DD
100
AcDbEntity
  8
RACCORDO
100
AcDbLine
 62
250
  6
CONTINUOUS
 10
3.1705494094
 20
21.8921572875
 11
3.2153472641
 21
23.175
  0
LINE
  5
3DE
100
AcDbEntity
  8
0
100
AcDbLine
 62
250
  6
CONTINUOUS
 10
-4.2275426698
 20
-23.3333596575
 11
-4.2071270357
 21
-23.2631073618
  0
LINE
  5
3DF
100
AcDbEntity
  8
0
100
AcDbLine
 62
250
  6
CONTINUOUS
 10
-3.6748574782
 20
-23.5
 11
-3.653791075
 21
-23.4301797403
  0
LINE
  5
3E0
100
AcDbEntity
  8
RACCORDO
100
AcDbLine
 62
250
  6
CONTINUOUS
 10
9.65
 20
20.1496567219
 11
9.522351825
 21
19.7664007784
  0
LINE
  5
3E1
100
AcDbEntity
  8
0
100
AcDbLine
 62
7
  6
CONTINUOUS
 10
-3.205842
 20
-16.574012
 11
-3.085712
 21
-16.239227
  0
LINE
  5
3E2
100
AcDbEntity
  8
0
100
AcDbLine
 62
7
  6
CONTINUOUS
 10
-3.037678
 20
-16.101482
 11
-2.851879
 21
-15.59081
  0
LINE
  5
3E3
100
AcDbEntity
  8
0
100
AcDbLine
 62
7
  6
CONTINUOUS
 10
-2.933529
 20
-15.424012
 11
-3.366016
 21
-16.574012
  0
LINE
  5
3E4
100
AcDbEntity
  8
RACCORDO
100
AcDbLine
 62
250
  6
CONTINUOUS
 10
10.4494952222
 20
6.0859092514
 11
10.0721611869
 21
5.708575216
  0
LINE
  5
3E5
100
AcDbEntity
  8
ASSI
100
AcDbLine
 62
7
  6
CONTINUOUS
 10
0.455689
 20
2.055041
 11
-0.164144
 21
2.055041
  0
LINE
  5
3E6
100
AcDbEntity
  8
ASSI
100
AcDbLine
 62
7
  6
CONTINUOUS
 10
-0.929808
 20
2.055041
 11
-1.549641
 21
2.055041
  0
LINE
  5
3E7
100
AcDbEntity
  8
ASSI
100
AcDbLine
 62
7
  6
CONTINUOUS
 10
-1.959641
 20
2.055041
 11
-2.369657
 21
2.055041
  0
LINE
  5
3E8
100
AcDbEntity
  8
ASSI
100
AcDbLine
 62
7
  6
CONTINUOUS
 10
-2.642998
 20
2.055041
 11
-3.053019
 21
2.055041
  0
LINE
  5
3E9
100
AcDbEntity
  8
ASSI
100
AcDbLine
 62
7
  6
CONTINUOUS
 10
-3.959442
 20
2.055041
 11
-4.369462
 21
2.055041
  0
LINE
  5
3EA
100
AcDbEntity
  8
ASSI
100
AcDbLine
 62
7
  6
CONTINUOUS
 10
3.688968164
 20
2.055046
 11
2.728837
 21
2.055046
  0
LINE
  5
3EB
100
AcDbEntity
  8
ASSI
100
AcDbLine
 62
7
  6
CONTINUOUS
 10
1.797276
 20
2.055046
 11
1.38724
 21
2.055046
  0
LINE
  5
3EC
100
AcDbEntity
  8
SMUSSO
100
AcDbLine
 62
7
  6
CONTINUOUS
 10
-2.0
 20
5.1997714731
 11
-2.3487046599
 21
5.5484761331
  0
LINE
  5
3ED
100
AcDbEntity
  8
RACCORDO
100
AcDbLine
 62
7
  6
CONTINUOUS
 10
-1.5084990752
 20
5.708575216
 11
-1.8486284727
 21
6.0487046135
  0
LINE
  5
3EE
100
AcDbEntity
  8
ASSI
100
AcDbLine
 62
7
  6
CONTINUOUS
 10
3.496757
 20
0.797632
 11
3.907643
 21
0.004954
  0
LINE
  5
3EF
100
AcDbEntity
  8
RACCORDO
100
AcDbLine
 62
250
  6
CONTINUOUS
 10
9.65
 20
-20.1496567219
 11
9.522351825
 21
-19.7664007784
  0
LINE
  5
3F0
100
AcDbEntity
  8
ASSI
100
AcDbLine
 62
7
  6
CONTINUOUS
 10
2.455495
 20
0.004949
 11
1.797276
 21
2.055046
  0
LINE
  5
3F1
100
AcDbEntity
  8
0
100
AcDbLine
 62
250
  6
CONTINUOUS
 10
-3.6748574782
 20
23.5
 11
-3.653791075
 21
23.4301797403
  0
LINE
  5
3F2
100
AcDbEntity
  8
0
100
AcDbLine
 62
250
  6
CONTINUOUS
 10
-4.2275426698
 20
23.3333596575
 11
-4.2071270357
 21
23.2631073618
  0
LWPOLYLINE
  5
3F3
100
AcDbEntity
  8
RACCORDO
100
AcDbPolyline
 62
250
  6
CONTINUOUS
 90
13
 70
0
 10
3.2153472641
 20
23.175
 10
3.2136698887
 20
23.2008561815
 10
3.2086457251
 20
23.2263544948
 10
3.200329685
 20
23.2510584675
 10
3.1888216787
 20
23.2745602172
 10
3.1742975618
 20
23.2964197538
 10
3.1570345296
 20
23.3161906153
 10
3.1373436107
 20
23.333519684
 10
3.1155513531
 20
23.3481222911
 10
3.0920492995
 20
23.3597385214
 10
3.0672501787
 20
23.3681720737
 10
3.0415762829
 20
23.3732866202
 10
3.0154690987
 20
23.375
  0
LINE
  5
3F4
100
AcDbEntity
  8
0
100
AcDbLine
 62
7
  6
CONTINUOUS
 10
4.137541
 20
-16.404213
 11
4.137541
 21
-16.574012
  0
LINE
  5
3F5
100
AcDbEntity
  8
0
100
AcDbLine
 62
7
  6
CONTINUOUS
 10
4.304162
 20
-16.574012
 11
4.304162
 21
-16.404213
  0
LWPOLYLINE
  5
3F6
100
AcDbEntity
  8
0
100
AcDbPolyline
 62
7
  6
CONTINUOUS
 90
16
 70
0
 10
3.7609270822
 20
-15.999012098
 10
3.7598928957
 20
-16.0510785916
 10
3.7556611862
 20
-16.100611878
 10
3.7482319534
 20
-16.1476119573
 10
3.7377392703
 20
-16.1924335479
 10
3.7240490641
 20
-16.2347219314
 10
3.7067591164
 20
-16.2734129521
 10
3.6854027709
 20
-16.3083723779
 10
3.6604466839
 20
-16.339734441
 10
3.6328886067
 20
-16.3668376823
 10
3.6029887099
 20
-16.3893734654
 10
3.5704868228
 20
-16.4076504267
 10
3.5356001842
 20
-16.4219330158
 10
3.4984012071
 20
-16.4323093827
 10
3.4588174785
 20
-16.4386913774
 10
3.4168489984
 20
-16.441079
  0
LWPOLYLINE
  5
3F7
100
AcDbEntity
  8
RACCORDO
100
AcDbPolyline
 62
250
  6
CONTINUOUS
 90
13
 70
0
 10
3.2153472641
 20
-23.175
 10
3.2136372787
 20
-23.2011052384
 10
3.2085365808
 20
-23.226763809
 10
3.2001324447
 20
-23.2515366865
 10
3.1885686676
 20
-23.275
 10
3.1740431089
 20
-23.2967522858
 10
3.1568043048
 20
-23.3164213562
 10
3.1371472163
 20
-23.3336706681
 10
3.1154081814
 20
-23.3482050808
 10
3.0919591611
 20
-23.3597759065
 10
3.0672013746
 20
-23.3681851653
 10
3.0415584345
 20
-23.3732889723
 10
3.0154690987
 20
-23.375
  0
LINE
  5
3F8
100
AcDbEntity
  8
RACCORDO
100
AcDbLine
 62
250
  6
CONTINUOUS
 10
10.9494190698
 20
5.5859854038
 11
10.5720850344
 21
5.2086513684
  0
LINE
  5
3F9
100
AcDbEntity
  8
DRAFT
100
AcDbLine
 62
7
  6
CONTINUOUS
 10
-6.0
 20
4.2755629091
 11
-2.0
 21
4.2755629091
  0
LINE
  5
3FA
100
AcDbEntity
  8
DRAFT
100
AcDbLine
 62
7
  6
CONTINUOUS
 10
2.0
 20
4.2755629091
 11
6.0
 21
4.2755629091
  0
LINE
  5
3FB
100
AcDbEntity
  8
DRAFT
100
AcDbLine
 62
7
  6
CONTINUOUS
 10
-5.9755629091
 20
4.3
 11
-2.0244370909
 21
4.3
  0
LINE
  5
3FC
100
AcDbEntity
  8
DRAFT
100
AcDbLine
 62
7
  6
CONTINUOUS
 10
2.0244370909
 20
4.3
 11
5.9755629091
 21
4.3
  0
LINE
  5
3FD
100
AcDbEntity
  8
RACCORDO
100
AcDbLine
 62
250
  6
CONTINUOUS
 10
10.5720850344
 20
5.2086513684
 11
6.0088771902
 21
5.2086513684
  0
LINE
  5
3FE
100
AcDbEntity
  8
RACCORDO
100
AcDbLine
 62
250
  6
CONTINUOUS
 10
1.9911228098
 20
5.2086513684
 11
-1.9911228098
 21
5.2086513684
  0
LINE
  5
3FF
100
AcDbEntity
  8
RACCORDO
100
AcDbLine
 62
250
  6
CONTINUOUS
 10
-6.0088771902
 20
5.2086513684
 11
-10.5720850344
 21
5.2086513684
  0
LWPOLYLINE
  5
400
100
AcDbEntity
  8
SMUSSO
100
AcDbPolyline
 62
7
  6
CONTINUOUS
 90
9
 70
0
 10
-2.3487046599
 20
5.5484761331
 10
-2.3547104761
 20
5.5504960752
 10
-2.3686479523
 20
5.5524815046
 10
-2.3903962012
 20
5.5544324213
 10
-2.4197727972
 20
5.5563562912
 10
-2.4565990005
 20
5.5582456484
 10
-2.500757446
 20
5.560078095
 10
-2.5520801688
 20
5.5618543589
 10
-2.675111805
 20
5.5652115736
  0
LWPOLYLINE
  5
401
100
AcDbEntity
  8
SMUSSO
100
AcDbPolyline
 62
7
  6
CONTINUOUS
 90
9
 70
0
 10
-1.8486284727
 20
6.0487046135
 10
-1.8561709769
 20
6.0513363313
 10
-1.8736899917
 20
6.0539235467
 10
-1.901185517
 20
6.0564662596
 10
-1.9388746468
 20
6.058974236
 10
-1.9865402872
 20
6.06143771
 10
-2.0435311563
 20
6.0638273835
 10
-2.109985447
 20
6.0661442247
 10
-2.2698038544
 20
6.0705243037
  0
LINE
  5
402
100
AcDbEntity
  8
RACCORDO
100
AcDbLine
 62
7
  6
CONTINUOUS
 10
10.0721611869
 20
-4.7088771902
 11
10.0632812915
 21
-4.7
  0
LINE
  5
403
100
AcDbEntity
  8
SMUSSO
100
AcDbLine
 62
250
  6
CONTINUOUS
 10
10.9254573825
 20
-4.8381285768
 11
10.425228902
 21
-4.3380523895
  0
LINE
  5
404
100
AcDbEntity
  8
RACCORDO
100
AcDbLine
 62
7
  6
CONTINUOUS
 10
1.9911228098
 20
5.2086513684
 11
2.0
 21
5.1997714731
  0
LINE
  5
405
100
AcDbEntity
  8
ASSI
100
AcDbLine
 62
7
  6
CONTINUOUS
 10
4.369462
 20
0.004959
 11
3.9330213615
 21
0.8469412318
  0
LINE
  5
406
100
AcDbEntity
  8
SMUSSO
100
AcDbLine
 62
250
  6
CONTINUOUS
 10
5.6512953401
 20
4.624267569
 11
5.6512953401
 21
5.5484761331
  0
LINE
  5
407
100
AcDbEntity
  8
SMUSSO
100
AcDbLine
 62
7
  6
CONTINUOUS
 10
6.0
 20
5.1997714731
 11
6.0
 21
4.2755629091
  0
LINE
  5
408
100
AcDbEntity
  8
RACCORDO
100
AcDbLine
 62
250
  6
CONTINUOUS
 10
6.7220012112
 20
21.1306884717
 11
6.7220012112
 21
20.9843180147
  0
LINE
  5
409
100
AcDbEntity
  8
RACCORDO
100
AcDbLine
 62
250
  6
CONTINUOUS
 10
6.7220012112
 20
-21.1306884717
 11
6.7220012112
 21
-20.9843180147
  0
LINE
  5
40A
100
AcDbEntity
  8
RACCORDO
100
AcDbLine
 62
250
  6
CONTINUOUS
 10
6.7466556736
 20
-21.1965699136
 11
6.7466556736
 21
-21.3591170406
  0
LINE
  5
40B
100
AcDbEntity
  8
RACCORDO
100
AcDbLine
 62
250
  6
CONTINUOUS
 10
6.7466556734
 20
21.1965699136
 11
6.7466556734
 21
21.3591170407
  0
LWPOLYLINE
  5
40C
100
AcDbEntity
  8
RACCORDO
100
AcDbPolyline
 62
7
  6
CONTINUOUS
 90
11
 70
0
 10
-3.3727979205
 20
-21.2042516758
 10
-3.3772677461
 20
-21.2127007851
 10
-3.3815735009
 20
-21.2244617684
 10
-3.3856446542
 20
-21.2392949037
 10
-3.3892696141
 20
-21.2564810255
 10
-3.3924232617
 20
-21.276189031
 10
-3.3951307158
 20
-21.2982500229
 10
-3.3972557403
 20
-21.3214381435
 10
-3.3987529232
 20
-21.3453447736
 10
-3.3996676764
 20
-21.3703785324
 10
-3.4
 20
-21.3965394199
  0
LINE
  5
40D
100
AcDbEntity
  8
RACCORDO
100
AcDbLine
 62
250
  6
CONTINUOUS
 10
-9.7417941066
 20
-16.8566705834
 11
-10.1315955941
 21
-17.1696860043
  0
LWPOLYLINE
  5
40E
100
AcDbEntity
  8
SMUSSO
100
AcDbPolyline
 62
7
  6
CONTINUOUS
 90
8
 70
0
 10
2.109985447
 20
6.0661442247
 10
2.0435311563
 20
6.0638273835
 10
1.9865402872
 20
6.06143771
 10
1.9388746468
 20
6.058974236
 10
1.901185517
 20
6.0564662596
 10
1.8736899917
 20
6.0539235467
 10
1.8561709769
 20
6.0513363313
 10
1.8486284727
 20
6.0487046135
  0
LWPOLYLINE
  5
40F
100
AcDbEntity
  8
SMUSSO
100
AcDbPolyline
 62
7
  6
CONTINUOUS
 90
8
 70
0
 10
-5.890014553
 20
6.0661442247
 10
-5.9564688437
 20
6.0638273835
 10
-6.0134597128
 20
6.06143771
 10
-6.0611253532
 20
6.058974236
 10
-6.098814483
 20
6.0564662596
 10
-6.1263100083
 20
6.0539235467
 10
-6.1438290231
 20
6.0513363313
 10
-6.1513715273
 20
6.0487046135
  0
LWPOLYLINE
  5
410
100
AcDbEntity
  8
SMUSSO
100
AcDbPolyline
 62
7
  6
CONTINUOUS
 90
8
 70
0
 10
2.5520801688
 20
5.5618543589
 10
2.500757446
 20
5.560078095
 10
2.4565990005
 20
5.5582456484
 10
2.4197727972
 20
5.5563562912
 10
2.3903962012
 20
5.5544324213
 10
2.3686479523
 20
5.5524815046
 10
2.3547104761
 20
5.5504960752
 10
2.3487046599
 20
5.5484761331
  0
LWPOLYLINE
  5
411
100
AcDbEntity
  8
SMUSSO
100
AcDbPolyline
 62
7
  6
CONTINUOUS
 90
8
 70
0
 10
-5.4479198312
 20
5.5618543589
 10
-5.499242554
 20
5.560078095
 10
-5.5434009995
 20
5.5582456484
 10
-5.5802272028
 20
5.5563562912
 10
-5.6096037988
 20
5.5544324213
 10
-5.6313520477
 20
5.5524815046
 10
-5.6452895239
 20
5.5504960752
 10
-5.6512953401
 20
5.5484761331
  0
LINE
  5
412
100
AcDbEntity
  8
SMUSSO
100
AcDbLine
 62
7
  6
CONTINUOUS
 10
2.675111805
 20
5.5652115736
 11
2.5520801688
 21
5.5618543589
  0
LINE
  5
413
100
AcDbEntity
  8
SMUSSO
100
AcDbLine
 62
7
  6
CONTINUOUS
 10
-5.324888195
 20
5.5652115736
 11
-5.4479198312
 21
5.5618543589
  0
LINE
  5
414
100
AcDbEntity
  8
SMUSSO
100
AcDbLine
 62
7
  6
CONTINUOUS
 10
2.2698038544
 20
6.0705243037
 11
2.109985447
 21
6.0661442247
  0
LINE
  5
415
100
AcDbEntity
  8
SMUSSO
100
AcDbLine
 62
7
  6
CONTINUOUS
 10
-5.7301961456
 20
6.0705243037
 11
-5.890014553
 21
6.0661442247
  0
LINE
  5
416
100
AcDbEntity
  8
SMUSSO
100
AcDbLine
 62
7
  6
CONTINUOUS
 10
2.8232849016
 20
5.5682401535
 11
2.675111805
 21
5.5652115736
  0
LINE
  5
417
100
AcDbEntity
  8
SMUSSO
100
AcDbLine
 62
7
  6
CONTINUOUS
 10
-5.1767150984
 20
5.5682401535
 11
-5.324888195
 21
5.5652115736
  0
LINE
  5
418
100
AcDbEntity
  8
SMUSSO
100
AcDbLine
 62
7
  6
CONTINUOUS
 10
2.4628598019
 20
6.0744769159
 11
2.2698038544
 21
6.0705243037
  0
LINE
  5
419
100
AcDbEntity
  8
SMUSSO
100
AcDbLine
 62
7
  6
CONTINUOUS
 10
-5.5371401981
 20
6.0744769159
 11
-5.7301961456
 21
6.0705243037
  0
LINE
  5
41A
100
AcDbEntity
  8
SMUSSO
100
AcDbLine
 62
7
  6
CONTINUOUS
 10
3.0867647537
 20
5.5720463448
 11
2.8232849016
 21
5.5682401535
  0
LINE
  5
41B
100
AcDbEntity
  8
SMUSSO
100
AcDbLine
 62
7
  6
CONTINUOUS
 10
-4.9132352463
 20
5.5720463448
 11
-5.1767150984
 21
5.5682401535
  0
LINE
  5
41C
100
AcDbEntity
  8
SMUSSO
100
AcDbLine
 62
7
  6
CONTINUOUS
 10
2.8064842206
 20
6.0794460929
 11
2.4628598019
 21
6.0744769159
  0
LINE
  5
41D
100
AcDbEntity
  8
SMUSSO
100
AcDbLine
 62
7
  6
CONTINUOUS
 10
-5.1935157794
 20
6.0794460929
 11
-5.5371401981
 21
6.0744769159
  0
LINE
  5
41E
100
AcDbEntity
  8
SMUSSO
100
AcDbLine
 62
7
  6
CONTINUOUS
 10
3.3892974493
 20
5.5748233772
 11
3.0867647537
 21
5.5720463448
  0
LINE
  5
41F
100
AcDbEntity
  8
SMUSSO
100
AcDbLine
 62
7
  6
CONTINUOUS
 10
-4.6107025507
 20
5.5748233772
 11
-4.9132352463
 21
5.5720463448
  0
LINE
  5
420
100
AcDbEntity
  8
SMUSSO
100
AcDbLine
 62
7
  6
CONTINUOUS
 10
3.2016399389
 20
6.0830728713
 11
2.8064842206
 21
6.0794460929
  0
LINE
  5
421
100
AcDbEntity
  8
SMUSSO
100
AcDbLine
 62
7
  6
CONTINUOUS
 10
-4.7983600611
 20
6.0830728713
 11
-5.1935157794
 21
6.0794460929
  0
LINE
  5
422
100
AcDbEntity
  8
SMUSSO
100
AcDbLine
 62
7
  6
CONTINUOUS
 10
3.8298455555
 20
5.5767228242
 11
3.3892974493
 21
5.5748233772
  0
LINE
  5
423
100
AcDbEntity
  8
SMUSSO
100
AcDbLine
 62
7
  6
CONTINUOUS
 10
-4.1701544445
 20
5.5767228242
 11
-4.6107025507
 21
5.5748233772
  0
LINE
  5
424
100
AcDbEntity
  8
SMUSSO
100
AcDbLine
 62
7
  6
CONTINUOUS
 10
3.7774294728
 20
6.0855541312
 11
3.2016399389
 21
6.0830728713
  0
LINE
  5
425
100
AcDbEntity
  8
SMUSSO
100
AcDbLine
 62
7
  6
CONTINUOUS
 10
-4.2225705272
 20
6.0855541312
 11
-4.7983600611
 21
6.0830728713
  0
LINE
  5
426
100
AcDbEntity
  8
RACCORDO
100
AcDbLine
 62
250
  6
CONTINUOUS
 10
10.0721611869
 20
5.708575216
 11
6.4915009248
 21
5.708575216
  0
LINE
  5
427
100
AcDbEntity
  8
RACCORDO
100
AcDbLine
 62
250
  6
CONTINUOUS
 10
1.5084990752
 20
5.708575216
 11
-1.5084990752
 21
5.708575216
  0
LINE
  5
428
100
AcDbEntity
  8
RACCORDO
100
AcDbLine
 62
250
  6
CONTINUOUS
 10
-6.4915009248
 20
5.708575216
 11
-10.0721611869
 21
5.708575216
  0
LINE
  5
429
100
AcDbEntity
  8
RACCORDO
100
AcDbLine
 62
250
  6
CONTINUOUS
 10
-10.4494952222
 20
6.0859092514
 11
10.4494952222
 21
6.0859092514
  0
LINE
  5
42A
100
AcDbEntity
  8
RACCORDO
100
AcDbLine
 62
250
  6
CONTINUOUS
 10
-10.9665695018
 20
6.5858330989
 11
10.9665695018
 21
6.5858330989
  0
LINE
  5
42B
100
AcDbEntity
  8
SMUSSO
100
AcDbLine
 62
7
  6
CONTINUOUS
 10
-3.717265354
 20
5.5764488783
 11
-4.1701544445
 21
5.5767228242
  0
LINE
  5
42C
100
AcDbEntity
  8
SMUSSO
100
AcDbLine
 62
7
  6
CONTINUOUS
 10
4.282734646
 20
5.5764488783
 11
3.8298455555
 21
5.5767228242
  0
LINE
  5
42D
100
AcDbEntity
  8
SMUSSO
100
AcDbLine
 62
7
  6
CONTINUOUS
 10
-3.6304275067
 20
6.0851962389
 11
-4.2225705272
 21
6.0855541312
  0
LINE
  5
42E
100
AcDbEntity
  8
SMUSSO
100
AcDbLine
 62
7
  6
CONTINUOUS
 10
4.3695724933
 20
6.0851962389
 11
3.7774294728
 21
6.0855541312
  0
LINE
  5
42F
100
AcDbEntity
  8
SMUSSO
100
AcDbLine
 62
7
  6
CONTINUOUS
 10
-3.2849108396
 20
5.5740180228
 11
-3.717265354
 21
5.5764488783
  0
LINE
  5
430
100
AcDbEntity
  8
SMUSSO
100
AcDbLine
 62
7
  6
CONTINUOUS
 10
4.7150891604
 20
5.5740180228
 11
4.282734646
 21
5.5764488783
  0
LINE
  5
431
100
AcDbEntity
  8
SMUSSO
100
AcDbLine
 62
7
  6
CONTINUOUS
 10
-3.0648037699
 20
6.0820209501
 11
-3.6304275067
 21
6.0851962389
  0
LINE
  5
432
100
AcDbEntity
  8
SMUSSO
100
AcDbLine
 62
7
  6
CONTINUOUS
 10
4.9351962301
 20
6.0820209501
 11
4.3695724933
 21
6.0851962389
  0
LINE
  5
433
100
AcDbEntity
  8
SMUSSO
100
AcDbLine
 62
7
  6
CONTINUOUS
 10
-2.9939557022
 20
5.5708800212
 11
-3.2849108396
 21
5.5740180228
  0
LINE
  5
434
100
AcDbEntity
  8
SMUSSO
100
AcDbLine
 62
7
  6
CONTINUOUS
 10
5.0060442978
 20
5.5708800212
 11
4.7150891604
 21
5.5740180228
  0
LINE
  5
435
100
AcDbEntity
  8
SMUSSO
100
AcDbLine
 62
7
  6
CONTINUOUS
 10
-2.6850008402
 20
6.0779231568
 11
-3.0648037699
 21
6.0820209501
  0
LINE
  5
436
100
AcDbEntity
  8
SMUSSO
100
AcDbLine
 62
7
  6
CONTINUOUS
 10
5.3149991598
 20
6.0779231568
 11
4.9351962301
 21
6.0820209501
  0
LINE
  5
437
100
AcDbEntity
  8
SMUSSO
100
AcDbLine
 62
7
  6
CONTINUOUS
 10
-2.8232849016
 20
5.5682401535
 11
-2.9939557022
 21
5.5708800212
  0
LINE
  5
438
100
AcDbEntity
  8
SMUSSO
100
AcDbLine
 62
7
  6
CONTINUOUS
 10
5.1767150984
 20
5.5682401535
 11
5.0060442978
 21
5.5708800212
  0
LINE
  5
439
100
AcDbEntity
  8
SMUSSO
100
AcDbLine
 62
7
  6
CONTINUOUS
 10
-2.4628598019
 20
6.0744769159
 11
-2.6850008402
 21
6.0779231568
  0
LINE
  5
43A
100
AcDbEntity
  8
SMUSSO
100
AcDbLine
 62
7
  6
CONTINUOUS
 10
5.5371401981
 20
6.0744769159
 11
5.3149991598
 21
6.0779231568
  0
LINE
  5
43B
100
AcDbEntity
  8
SMUSSO
100
AcDbLine
 62
7
  6
CONTINUOUS
 10
-2.675111805
 20
5.5652115736
 11
-2.8232849016
 21
5.5682401535
  0
LINE
  5
43C
100
AcDbEntity
  8
SMUSSO
100
AcDbLine
 62
7
  6
CONTINUOUS
 10
5.324888195
 20
5.5652115736
 11
5.1767150984
 21
5.5682401535
  0
LINE
  5
43D
100
AcDbEntity
  8
SMUSSO
100
AcDbLine
 62
7
  6
CONTINUOUS
 10
-2.2698038544
 20
6.0705243037
 11
-2.4628598019
 21
6.0744769159
  0
LINE
  5
43E
100
AcDbEntity
  8
SMUSSO
100
AcDbLine
 62
7
  6
CONTINUOUS
 10
5.7301961456
 20
6.0705243037
 11
5.5371401981
 21
6.0744769159
  0
LWPOLYLINE
  5
43F
100
AcDbEntity
  8
SMUSSO
100
AcDbPolyline
 62
7
  6
CONTINUOUS
 90
9
 70
0
 10
5.6512953401
 20
5.5484761331
 10
5.6452895239
 20
5.5504960752
 10
5.6313520477
 20
5.5524815046
 10
5.6096037988
 20
5.5544324213
 10
5.5802272028
 20
5.5563562912
 10
5.5434009995
 20
5.5582456484
 10
5.499242554
 20
5.560078095
 10
5.4479198312
 20
5.5618543589
 10
5.324888195
 20
5.5652115736
  0
LINE
  5
440
100
AcDbEntity
  8
RACCORDO
100
AcDbLine
 62
250
  6
CONTINUOUS
 10
-10.5328107846
 20
17.2994419902
 11
-10.1413266164
 21
16.9885336449
  0
LINE
  5
441
100
AcDbEntity
  8
DRAFT
100
AcDbLine
 62
7
  6
CONTINUOUS
 10
9.1255629091
 20
-1.2
 11
9.4875105196
 21
-1.5619476105
  0
LINE
  5
442
100
AcDbEntity
  8
SMUSSO
100
AcDbLine
 62
7
  6
CONTINUOUS
 10
10.0632812915
 20
-1.2
 11
10.425228902
 21
-1.5619476105
  0
LINE
  5
443
100
AcDbEntity
  8
RACCORDO
100
AcDbLine
 62
7
  6
CONTINUOUS
 10
10.5720850344
 20
-0.7084990752
 11
10.9254573825
 21
-1.0618714232
  0
LINE
  5
444
100
AcDbEntity
  8
SMUSSO
100
AcDbLine
 62
250
  6
CONTINUOUS
 10
1.8486284727
 20
6.0487046135
 11
2.3487046599
 21
5.5484761331
  0
LWPOLYLINE
  5
445
100
AcDbEntity
  8
RACCORDO
100
AcDbPolyline
 62
7
  6
CONTINUOUS
 90
9
 70
0
 10
-3.2353965764
 20
21.9375889858
 10
-3.2346018786
 20
21.9356957586
 10
-3.2338596062
 20
21.9309661696
 10
-3.2331697594
 20
21.9234002188
 10
-3.2325211059
 20
21.9125321
 10
-3.231924878
 20
21.8988276194
 10
-3.2314147721
 20
21.8836841952
 10
-3.2310046733
 20
21.8671459648
 10
-3.2306806965
 20
21.8491687907
  0
LINE
  5
446
100
AcDbEntity
  8
0
100
AcDbLine
 62
7
  6
CONTINUOUS
 10
7.5
 20
-11.0
 11
7.5
 21
-1.0
  0
LINE
  5
447
100
AcDbEntity
  8
RACCORDO
100
AcDbLine
 62
250
  6
CONTINUOUS
 10
7.9141766428
 20
-18.9086513684
 11
7.9141766428
 21
-19.408575216
  0
LINE
  5
448
100
AcDbEntity
  8
RACCORDO
100
AcDbLine
 62
250
  6
CONTINUOUS
 10
8.0784266484
 20
19.8030596834
 11
8.0784266484
 21
19.3031358358
  0
LINE
  5
449
100
AcDbEntity
  8
RACCORDO
100
AcDbLine
 62
250
  6
CONTINUOUS
 10
8.7730563203
 20
20.5171451693
 11
8.7730563203
 21
20.2297306704
  0
LINE
  5
44A
100
AcDbEntity
  8
RACCORDO
100
AcDbLine
 62
250
  6
CONTINUOUS
 10
8.7730563203
 20
-20.5171451693
 11
8.7730563203
 21
-20.2297306704
  0
LINE
  5
44B
100
AcDbEntity
  8
0
100
AcDbLine
 62
7
  6
CONTINUOUS
 10
3.4
 20
-22.3297297297
 11
3.3633443637
 21
-22.5
  0
LINE
  5
44C
100
AcDbEntity
  8
0
100
AcDbLine
 62
7
  6
CONTINUOUS
 10
-2.7167632191
 20
-21.6560705017
 11
-2.9969695968
 21
-22.2
  0
LINE
  5
44D
100
AcDbEntity
  8
RACCORDO
100
AcDbLine
 62
7
  6
CONTINUOUS
 10
10.0721611869
 20
-1.1911228098
 11
10.0632812915
 21
-1.2
  0
LINE
  5
44E
100
AcDbEntity
  8
SMUSSO
100
AcDbLine
 62
250
  6
CONTINUOUS
 10
10.9254573825
 20
-1.0618714232
 11
10.425228902
 21
-1.5619476105
  0
LINE
  5
44F
100
AcDbEntity
  8
RACCORDO
100
AcDbLine
 62
250
  6
CONTINUOUS
 10
-7.9141766428
 20
-18.9086513684
 11
-8.2700406783
 21
-19.2597704959
  0
LWPOLYLINE
  5
450
100
AcDbEntity
  8
SMUSSO
100
AcDbPolyline
 62
7
  6
CONTINUOUS
 90
9
 70
0
 10
6.1513715273
 20
6.0487046135
 10
6.1438290231
 20
6.0513363313
 10
6.1263100083
 20
6.0539235467
 10
6.098814483
 20
6.0564662596
 10
6.0611253532
 20
6.058974236
 10
6.0134597128
 20
6.06143771
 10
5.9564688437
 20
6.0638273835
 10
5.890014553
 20
6.0661442247
 10
5.7301961456
 20
6.0705243037
  0
LINE
  5
451
100
AcDbEntity
  8
RACCORDO
100
AcDbLine
 62
250
  6
CONTINUOUS
 10
-8.4321575398
 20
19.6564038783
 11
-8.0784266484
 21
19.3031358358
  0
LINE
  5
452
100
AcDbEntity
  8
DRAFT
100
AcDbLine
 62
7
  6
CONTINUOUS
 10
6.0
 20
4.2755629091
 11
5.6512953401
 21
4.624267569
  0
LINE
  5
453
100
AcDbEntity
  8
SMUSSO
100
AcDbLine
 62
7
  6
CONTINUOUS
 10
6.0
 20
5.1997714731
 11
5.6512953401
 21
5.5484761331
  0
LINE
  5
454
100
AcDbEntity
  8
RACCORDO
100
AcDbLine
 62
7
  6
CONTINUOUS
 10
6.4915009248
 20
5.708575216
 11
6.1513715273
 21
6.0487046135
  0
LINE
  5
455
100
AcDbEntity
  8
0
100
AcDbLine
 62
7
  6
CONTINUOUS
 10
-2.7167632191
 20
21.6560705017
 11
-2.9969695968
 21
22.2
  0
LINE
  5
456
100
AcDbEntity
  8
0
100
AcDbLine
 62
7
  6
CONTINUOUS
 10
3.4
 20
22.3297297297
 11
3.3633443637
 21
22.5
  0
LWPOLYLINE
  5
457
100
AcDbEntity
  8
RACCORDO
100
AcDbPolyline
 62
250
  6
CONTINUOUS
 90
19
 70
0
 10
9.2223975165
 20
19.7783034685
 10
9.220677346
 20
19.8178609069
 10
9.2156471575
 20
19.8566328397
 10
9.2073069508
 20
19.894619274
 10
9.1955442855
 20
19.9321297116
 10
9.1804716021
 20
19.9688546627
 10
9.1624262223
 20
20.0038656548
 10
9.1413359395
 20
20.0370954963
 10
9.1172729603
 20
20.0686114072
 10
9.0907912273
 20
20.0976865459
 10
9.0618345328
 20
20.1242593517
 10
9.0304590844
 20
20.1483914183
 10
8.9973874478
 20
20.1695406419
 10
8.9625540516
 20
20.1876367802
 10
8.9260244671
 20
20.2027501042
 10
8.8887179738
 20
20.2145492814
 10
8.8509409981
 20
20.2229238734
 10
8.8123871136
 20
20.227984335
 10
8.7730563203
 20
20.2297306704
  0
LWPOLYLINE
  5
458
100
AcDbEntity
  8
RACCORDO
100
AcDbPolyline
 62
250
  6
CONTINUOUS
 90
19
 70
0
 10
9.522351825
 20
19.7664007784
 10
9.519498862
 20
19.8319034105
 10
9.5109541045
 20
19.8968922292
 10
9.4967854795
 20
19.9608739444
 10
9.4771036538
 20
20.0233655996
 10
9.4520609827
 20
20.0838910517
 10
9.4218512933
 20
20.1419849719
 10
9.3867094538
 20
20.1972053752
 10
9.3469046395
 20
20.2491382511
 10
9.3027374738
 20
20.2973928046
 10
9.2545448085
 20
20.3416044989
 10
9.2026947615
 20
20.3814395697
 10
9.1475783646
 20
20.416597639
 10
9.0896137934
 20
20.4468130288
 10
9.0292427847
 20
20.4718571951
 10
8.9669230297
 20
20.4915403388
 10
8.9031275846
 20
20.5057135009
 10
8.838341372
 20
20.5142699229
 10
8.7730563203
 20
20.5171451693
  0
LINE
  5
459
100
AcDbEntity
  8
SMUSSO
100
AcDbLine
 62
7
  6
CONTINUOUS
 10
10.4364816463
 20
-1.7330403995
 11
10.4393051231
 21
-1.8365051569
  0
LINE
  5
45A
100
AcDbEntity
  8
SMUSSO
100
AcDbLine
 62
7
  6
CONTINUOUS
 10
10.4393051231
 20
-1.8365051569
 11
10.4418520389
 21
-1.9610880077
  0
LINE
  5
45B
100
AcDbEntity
  8
SMUSSO
100
AcDbLine
 62
7
  6
CONTINUOUS
 10
10.4418520389
 20
-1.9610880077
 11
10.445052709
 21
-2.182576067
  0
LINE
  5
45C
100
AcDbEntity
  8
SMUSSO
100
AcDbLine
 62
7
  6
CONTINUOUS
 10
10.445052709
 20
-2.182576067
 11
10.4473877083
 21
-2.4368320291
  0
LINE
  5
45D
100
AcDbEntity
  8
SMUSSO
100
AcDbLine
 62
7
  6
CONTINUOUS
 10
10.4473877083
 20
-2.4368320291
 11
10.448984729
 21
-2.807025042
  0
LINE
  5
45E
100
AcDbEntity
  8
RACCORDO
100
AcDbLine
 62
250
  6
CONTINUOUS
 10
9.2223975165
 20
-19.7783034685
 11
9.2219483227
 21
-19.0982243956
  0
LINE
  5
45F
100
AcDbEntity
  8
RACCORDO
100
AcDbLine
 62
250
  6
CONTINUOUS
 10
9.522351825
 20
-19.7664007784
 11
9.5216954435
 21
-18.7731999551
  0
LINE
  5
460
100
AcDbEntity
  8
DRAFT
100
AcDbLine
 62
7
  6
CONTINUOUS
 10
9.1255629091
 20
-4.7
 11
9.1255629091
 21
-1.2
  0
LINE
  5
461
100
AcDbEntity
  8
DRAFT
100
AcDbLine
 62
7
  6
CONTINUOUS
 10
9.15
 20
-4.6755629091
 11
9.15
 21
-1.2244370909
  0
LINE
  5
462
100
AcDbEntity
  8
RACCORDO
100
AcDbLine
 62
250
  6
CONTINUOUS
 10
9.2159312983
 20
-4.6096316108
 11
9.2155895996
 21
-1.2900266905
  0
LINE
  5
463
100
AcDbEntity
  8
RACCORDO
100
AcDbLine
 62
7
  6
CONTINUOUS
 10
9.65
 20
-20.1496567219
 11
9.65
 21
-18.6319562297
  0
LINE
  5
464
100
AcDbEntity
  8
RACCORDO
100
AcDbLine
 62
7
  6
CONTINUOUS
 10
9.65
 20
18.6319562297
 11
9.65
 21
20.1496567219
  0
LINE
  5
465
100
AcDbEntity
  8
RACCORDO
100
AcDbLine
 62
250
  6
CONTINUOUS
 10
10.0721611869
 20
-15.9176243207
 11
10.0721611869
 21
-4.7088771902
  0
LINE
  5
466
100
AcDbEntity
  8
RACCORDO
100
AcDbLine
 62
250
  6
CONTINUOUS
 10
10.0721611869
 20
-1.1911228098
 11
10.0721611869
 21
5.708575216
  0
LINE
  5
467
100
AcDbEntity
  8
RACCORDO
100
AcDbLine
 62
250
  6
CONTINUOUS
 10
10.5720850344
 20
-15.9176243207
 11
10.5720850344
 21
-5.1915009248
  0
LINE
  5
468
100
AcDbEntity
  8
RACCORDO
100
AcDbLine
 62
250
  6
CONTINUOUS
 10
10.5720850344
 20
-0.7084990752
 11
10.5720850344
 21
5.2086513684
  0
LINE
  5
469
100
AcDbEntity
  8
RACCORDO
100
AcDbLine
 62
250
  6
CONTINUOUS
 10
9.2219556557
 20
19.0982164442
 11
9.2223975165
 21
19.7783034685
  0
LINE
  5
46A
100
AcDbEntity
  8
RACCORDO
100
AcDbLine
 62
250
  6
CONTINUOUS
 10
9.521706189
 20
18.7731883035
 11
9.522351825
 21
19.7664007784
  0
LINE
  5
46B
100
AcDbEntity
  8
SMUSSO
100
AcDbLine
 62
7
  6
CONTINUOUS
 10
10.448984729
 20
-2.807025042
 11
10.4487543982
 21
-3.1875741437
  0
LINE
  5
46C
100
AcDbEntity
  8
RACCORDO
100
AcDbLine
 62
250
  6
CONTINUOUS
 10
10.4666456542
 20
16.0558086086
 11
10.466534671
 21
6.5276855471
  0
LINE
  5
46D
100
AcDbEntity
  8
SMUSSO
100
AcDbLine
 62
7
  6
CONTINUOUS
 10
10.4487543982
 20
-3.1875741437
 11
10.4467105794
 21
-3.5508905054
  0
LINE
  5
46E
100
AcDbEntity
  8
RACCORDO
100
AcDbLine
 62
250
  6
CONTINUOUS
 10
10.466534671
 20
6.5276855471
 11
10.4658298696
 21
6.4348580121
  0
LINE
  5
46F
100
AcDbEntity
  8
SMUSSO
100
AcDbLine
 62
7
  6
CONTINUOUS
 10
10.4467105794
 20
-3.5508905054
 11
10.4440719558
 21
-3.7954365359
  0
LINE
  5
470
100
AcDbEntity
  8
RACCORDO
100
AcDbLine
 62
250
  6
CONTINUOUS
 10
10.4658298696
 20
6.4348580121
 11
10.4649707927
 21
6.3722644789
  0
LINE
  5
471
100
AcDbEntity
  8
SMUSSO
100
AcDbLine
 62
7
  6
CONTINUOUS
 10
10.4440719558
 20
-3.7954365359
 11
10.4418520351
 21
-3.9389122055
  0
LINE
  5
472
100
AcDbEntity
  8
RACCORDO
100
AcDbLine
 62
250
  6
CONTINUOUS
 10
10.4649707927
 20
6.3722644789
 11
10.4637905801
 21
6.3117880129
  0
LINE
  5
473
100
AcDbEntity
  8
SMUSSO
100
AcDbLine
 62
7
  6
CONTINUOUS
 10
10.4418520351
 20
-3.9389122055
 11
10.43930512
 21
-4.0634949735
  0
LWPOLYLINE
  5
474
100
AcDbEntity
  8
RACCORDO
100
AcDbPolyline
 62
250
  6
CONTINUOUS
 90
15
 70
0
 10
10.4637905801
 20
6.3117880129
 10
10.4623021529
 20
6.2558603559
 10
10.461462223
 20
6.2302471715
 10
10.4605609812
 20
6.2064437235
 10
10.4596015849
 20
6.1845612859
 10
10.4586104759
 20
6.1648839166
 10
10.4575855365
 20
6.1474206275
 10
10.4565288844
 20
6.1321911427
 10
10.4554733142
 20
6.1193390617
 10
10.4544198682
 20
6.1087697053
 10
10.4533675042
 20
6.1003642002
 10
10.4523458908
 20
6.0940684181
 10
10.4513649174
 20
6.0897046555
 10
10.4504146945
 20
6.0870491997
 10
10.4494952222
 20
6.0859092514
  0
LWPOLYLINE
  5
475
100
AcDbEntity
  8
SMUSSO
100
AcDbPolyline
 62
7
  6
CONTINUOUS
 90
9
 70
0
 10
10.43930512
 20
-4.0634949735
 10
10.4364816441
 20
-4.1669596678
 10
10.4349877466
 20
-4.2101260054
 10
10.4334466347
 20
-4.2472689622
 10
10.4318576491
 20
-4.2782477662
 10
10.430239511
 20
-4.3029645024
 10
10.4285984606
 20
-4.3212666637
 10
10.4269282576
 20
-4.3329974049
 10
10.425228902
 20
-4.3380523895
  0
LINE
  5
476
100
AcDbEntity
  8
DRAFT
100
AcDbLine
 62
7
  6
CONTINUOUS
 10
9.1255629091
 20
-4.7
 11
9.4875105196
 21
-4.3380523895
  0
LINE
  5
477
100
AcDbEntity
  8
SMUSSO
100
AcDbLine
 62
7
  6
CONTINUOUS
 10
10.0632812915
 20
-4.7
 11
10.425228902
 21
-4.3380523895
  0
LWPOLYLINE
  5
478
100
AcDbEntity
  8
SMUSSO
100
AcDbPolyline
 62
7
  6
CONTINUOUS
 90
8
 70
0
 10
10.9254573825
 20
-1.0618714232
 10
10.9277689918
 20
-1.0684294634
 10
10.9300413711
 20
-1.0837520222
 10
10.9322745205
 20
-1.1078390996
 10
10.9344769642
 20
-1.1408815554
 10
10.9366401779
 20
-1.1826885298
 10
10.9387385888
 20
-1.2326874437
 10
10.9407731116
 20
-1.2910002534
  0
LWPOLYLINE
  5
479
100
AcDbEntity
  8
SMUSSO
100
AcDbPolyline
 62
7
  6
CONTINUOUS
 90
8
 70
0
 10
10.425228902
 20
-1.5619476105
 10
10.4269282576
 20
-1.5670025954
 10
10.4285984608
 20
-1.5787333382
 10
10.4302395114
 20
-1.5970355036
 10
10.4318576499
 20
-1.6217522477
 10
10.4334466359
 20
-1.6527310644
 10
10.4349877483
 20
-1.6898740388
 10
10.4364816463
 20
-1.7330403995
  0
LWPOLYLINE
  5
47A
100
AcDbEntity
  8
RACCORDO
100
AcDbPolyline
 62
250
  6
CONTINUOUS
 90
13
 70
0
 10
10.9494190698
 20
5.5859854038
 10
10.9451239367
 20
5.6512259824
 10
10.9323517426
 20
5.7153507089
 10
10.9113209387
 20
5.7772628162
 10
10.8823912286
 20
5.8359033813
 10
10.8460574159
 20
5.8902694363
 10
10.8029409416
 20
5.9394311232
 10
10.7537792547
 20
5.9825475975
 10
10.6994131997
 20
6.0188814102
 10
10.6407726346
 20
6.0478111203
 10
10.5788605273
 20
6.0688419242
 10
10.5147358008
 20
6.0816141183
 10
10.4494952222
 20
6.0859092514
  0
LWPOLYLINE
  5
47B
100
AcDbEntity
  8
RACCORDO
100
AcDbPolyline
 62
250
  6
CONTINUOUS
 90
16
 70
0
 10
10.5720850344
 20
5.2086513684
 10
10.5693142389
 20
5.2610615172
 10
10.5610639593
 20
5.3128957243
 10
10.5474245985
 20
5.3635826034
 10
10.5285430738
 20
5.4125698181
 10
10.5046285609
 20
5.4593100774
 10
10.4759568686
 20
5.5032704954
 10
10.4428587002
 20
5.5439594179
 10
10.405695863
 20
5.5809453791
 10
10.3648637766
 20
5.6138387322
 10
10.3207378035
 20
5.6423192718
 10
10.2738673538
 20
5.6660158592
 10
10.2249899182
 20
5.6845956112
 10
10.1747412067
 20
5.6979065369
 10
10.1236120217
 20
5.7059049052
 10
10.0721611869
 20
5.708575216
  0
LINE
  5
47C
100
AcDbEntity
  8
SMUSSO
100
AcDbLine
 62
7
  6
CONTINUOUS
 10
10.9407731116
 20
-1.2910002534
 11
10.944619431
 21
-1.4312632441
  0
LINE
  5
47D
100
AcDbEntity
  8
SMUSSO
100
AcDbLine
 62
7
  6
CONTINUOUS
 10
10.944619431
 20
-1.4312632441
 11
10.9480901938
 21
-1.6007148484
  0
LINE
  5
47E
100
AcDbEntity
  8
SMUSSO
100
AcDbLine
 62
7
  6
CONTINUOUS
 10
10.9480901938
 20
-1.6007148484
 11
10.9524534143
 21
-1.9023478705
  0
LINE
  5
47F
100
AcDbEntity
  8
SMUSSO
100
AcDbLine
 62
7
  6
CONTINUOUS
 10
10.9524534143
 20
-1.9023478705
 11
10.9556376585
 21
-2.2492086984
  0
LINE
  5
480
100
AcDbEntity
  8
SMUSSO
100
AcDbLine
 62
7
  6
CONTINUOUS
 10
10.9556376585
 20
-2.2492086984
 11
10.9578160719
 21
-2.7546287963
  0
LINE
  5
481
100
AcDbEntity
  8
0
100
AcDbLine
 62
7
  6
CONTINUOUS
 10
11.15
 20
-21.8997711479
 11
11.15
 21
21.8997711479
  0
LINE
  5
482
100
AcDbEntity
  8
SMUSSO
100
AcDbLine
 62
7
  6
CONTINUOUS
 10
10.9578160719
 20
-2.7546287963
 11
10.9575018572
 21
-3.274409391
  0
LINE
  5
483
100
AcDbEntity
  8
RACCORDO
100
AcDbLine
 62
250
  6
CONTINUOUS
 10
10.9665695018
 20
16.0558086086
 11
10.966060333
 21
6.347002876
  0
LINE
  5
484
100
AcDbEntity
  8
SMUSSO
100
AcDbLine
 62
7
  6
CONTINUOUS
 10
10.9575018572
 20
-3.274409391
 11
10.9547141309
 21
-3.7709022209
  0
LINE
  5
485
100
AcDbEntity
  8
RACCORDO
100
AcDbLine
 62
250
  6
CONTINUOUS
 10
10.966060333
 20
6.347002876
 11
10.9643426403
 21
6.0972539928
  0
LINE
  5
486
100
AcDbEntity
  8
SMUSSO
100
AcDbLine
 62
7
  6
CONTINUOUS
 10
10.9547141309
 20
-3.7709022209
 11
10.951116209
 21
-4.1042927875
  0
LINE
  5
487
100
AcDbEntity
  8
RACCORDO
100
AcDbLine
 62
250
  6
CONTINUOUS
 10
10.9643426403
 20
6.0972539928
 11
10.9622270048
 21
5.9259719978
  0
LWPOLYLINE
  5
488
100
AcDbEntity
  8
0
100
AcDbPolyline
 62
7
  6
CONTINUOUS
 90
22
 70
0
 10
11.15
 20
-16.1196591661
 10
11.148978463
 20
-16.1834265815
 10
11.1459395922
 20
-16.2470039857
 10
11.1408833877
 20
-16.3103913787
 10
11.1338006153
 20
-16.3736538234
 10
11.1247005091
 20
-16.436726257
 10
11.113610772
 20
-16.4994134904
 10
11.1005253663
 20
-16.5617130962
 10
11.0854503296
 20
-16.623627502
 10
11.0684314785
 20
-16.684968802
 10
11.0494629148
 20
-16.7457352534
 10
11.0285505366
 20
-16.805928599
 10
11.0057578553
 20
-16.8653661611
 10
10.9810791652
 20
-16.9240456445
 10
10.954520172
 20
-16.9819693445
 10
10.9261615043
 20
-17.0389614684
 10
10.8959958226
 20
-17.0950215657
 10
10.8640304665
 20
-17.1501500869
 10
10.8303680838
 20
-17.2041725919
 10
10.7950428904
 20
-17.2570309339
 10
10.7580206702
 20
-17.3087832596
 10
10.7193014235
 20
-17.3594295691
  0
LINE
  5
489
100
AcDbEntity
  8
SMUSSO
100
AcDbLine
 62
7
  6
CONTINUOUS
 10
10.951116209
 20
-4.1042927875
 11
10.9480901886
 21
-4.2992854421
  0
LINE
  5
48A
100
AcDbEntity
  8
RACCORDO
100
AcDbLine
 62
250
  6
CONTINUOUS
 10
10.9622270048
 20
5.9259719978
 11
10.9604860785
 21
5.8273101008
  0
LINE
  5
48B
100
AcDbEntity
  8
SMUSSO
100
AcDbLine
 62
7
  6
CONTINUOUS
 10
10.9480901886
 20
-4.2992854421
 11
10.9446194268
 21
-4.4687369329
  0
LWPOLYLINE
  5
48C
100
AcDbEntity
  8
RACCORDO
100
AcDbPolyline
 62
250
  6
CONTINUOUS
 90
11
 70
0
 10
10.9604860785
 20
5.8273101008
 10
10.9585357102
 20
5.7440081944
 10
10.9575107606
 20
5.7091970549
 10
10.9564540509
 20
5.6787886116
 10
10.9553983727
 20
5.6528857967
 10
10.9543447481
 20
5.6317565343
 10
10.9532921549
 20
5.6151329003
 10
10.952270318
 20
5.6023140542
 10
10.9512891456
 20
5.5930663827
 10
10.9503387296
 20
5.5876234993
 10
10.9494190698
 20
5.5859854038
  0
LWPOLYLINE
  5
48D
100
AcDbEntity
  8
SMUSSO
100
AcDbPolyline
 62
7
  6
CONTINUOUS
 90
9
 70
0
 10
10.9446194268
 20
-4.4687369329
 10
10.9407731087
 20
-4.6089998383
 10
10.9387385865
 20
-4.6673126159
 10
10.9366401763
 20
-4.7173115062
 10
10.9344769631
 20
-4.7591184642
 10
10.9322745199
 20
-4.7921609084
 10
10.9300413708
 20
-4.8162479783
 10
10.9277689917
 20
-4.8315705344
 10
10.9254573825
 20
-4.8381285768
  0
LINE
  5
48E
100
AcDbEntity
  8
RACCORDO
100
AcDbLine
 62
7
  6
CONTINUOUS
 10
10.5720850344
 20
-5.1915009248
 11
10.9254573825
 21
-4.8381285768
  0
LINE
  5
48F
100
AcDbEntity
  8
RACCORDO
100
AcDbLine
 62
250
  6
CONTINUOUS
 10
-10.5720850344
 20
-15.9176243207
 11
-11.15
 21
-16.119659166
  0
LINE
  5
490
100
AcDbEntity
  8
RACCORDO
100
AcDbLine
 62
250
  6
CONTINUOUS
 10
-10.9665695018
 20
16.0558086086
 11
-11.15
 21
16.119659166
  0
LWPOLYLINE
  5
491
100
AcDbEntity
  8
RACCORDO
100
AcDbPolyline
 62
7
  6
CONTINUOUS
 90
9
 70
0
 10
3.2353965764
 20
21.3624110142
 10
3.2346018786
 20
21.3643042414
 10
3.2338596062
 20
21.3690338304
 10
3.2331697594
 20
21.3765997812
 10
3.2325211059
 20
21.3874679
 10
3.231924878
 20
21.4011723806
 10
3.2314147721
 20
21.4163158048
 10
3.2310046733
 20
21.4328540352
 10
3.2306806965
 20
21.4508312093
  0
LINE
  5
492
100
AcDbEntity
  8
RACCORDO
100
AcDbLine
 62
250
  6
CONTINUOUS
 10
-10.1315955941
 20
-17.1696860043
 11
-10.7193014234
 21
-17.3594295692
  0
LINE
  5
493
100
AcDbEntity
  8
RACCORDO
100
AcDbLine
 62
250
  6
CONTINUOUS
 10
-10.5328107846
 20
17.2994419902
 11
-10.7193014234
 21
17.3594295692
  0
LINE
  5
494
100
AcDbEntity
  8
RACCORDO
100
AcDbLine
 62
250
  6
CONTINUOUS
 10
3.2395930226
 20
-21.190565191
 11
3.1705494094
 21
-21.2941832525
  0
LINE
  5
495
100
AcDbEntity
  8
0
100
AcDbLine
 62
7
  6
CONTINUOUS
 10
3.3
 20
-22.4
 11
3.230158461
 21
-22.5048155586
  0
LWPOLYLINE
  5
496
100
AcDbEntity
  8
RACCORDO
100
AcDbPolyline
 62
250
  6
CONTINUOUS
 90
10
 70
0
 10
-6.7220012112
 20
-20.9843180147
 10
-6.7643998641
 20
-21.0067443721
 10
-6.8072048057
 20
-21.0241692246
 10
-6.8494179823
 20
-21.0365356801
 10
-6.8896291238
 20
-21.0441861612
 10
-6.9273562455
 20
-21.0470834053
 10
-6.9630060359
 20
-21.0446354773
 10
-6.9961255889
 20
-21.036819031
 10
-7.0254853755
 20
-21.0243354757
 10
-7.0503755493
 20
-21.0077183978
  0
LWPOLYLINE
  5
497
100
AcDbEntity
  8
RACCORDO
100
AcDbPolyline
 62
250
  6
CONTINUOUS
 90
10
 70
0
 10
-7.7471659548
 20
-20.0210169973
 10
-7.7933110012
 20
-20.04204266
 10
-7.8388605549
 20
-20.0582344553
 10
-7.8832268081
 20
-20.0693834312
 10
-7.9258372232
 20
-20.0753457126
 10
-7.9661419214
 20
-20.0760443573
 10
-8.0036207786
 20
-20.0714703496
 10
-8.0377901378
 20
-20.061682716
 10
-8.0682090502
 20
-20.0468077639
 10
-8.0944849658
 20
-20.0270374518
  0
LWPOLYLINE
  5
498
100
AcDbEntity
  8
RACCORDO
100
AcDbPolyline
 62
250
  6
CONTINUOUS
 90
10
 70
0
 10
-7.7471659549
 20
20.0210158313
 10
-7.7933112009
 20
20.0420417837
 10
-7.8388609785
 20
20.0582339375
 10
-7.883227489
 20
20.0693833377
 10
-7.9258382031
 20
20.075346104
 10
-7.9661432494
 20
20.0760452874
 10
-8.0036225099
 20
20.0714718635
 10
-8.0377923321
 20
20.0616848487
 10
-8.0682117705
 20
20.0468105386
 10
-8.0944882765
 20
20.0270408784
  0
LWPOLYLINE
  5
499
100
AcDbEntity
  8
RACCORDO
100
AcDbPolyline
 62
250
  6
CONTINUOUS
 90
10
 70
0
 10
-6.7220012112
 20
20.9843180147
 10
-6.7643998613
 20
21.0067443744
 10
-6.8072048008
 20
21.0241692288
 10
-6.8494179761
 20
21.0365356855
 10
-6.8896291169
 20
21.0441861673
 10
-6.9273562386
 20
21.0470834114
 10
-6.9630060298
 20
21.0446354828
 10
-6.9961255841
 20
21.0368190353
 10
-7.0254853727
 20
21.0243354781
 10
-7.0503755493
 20
21.0077183978
  0
LINE
  5
49A
100
AcDbEntity
  8
RACCORDO
100
AcDbLine
 62
250
  6
CONTINUOUS
 10
3.1705494094
 20
21.2941832525
 11
3.2395930226
 21
21.190565191
  0
LINE
  5
49B
100
AcDbEntity
  8
0
100
AcDbLine
 62
7
  6
CONTINUOUS
 10
3.230158461
 20
22.5048155586
 11
3.3
 21
22.4
  0
LWPOLYLINE
  5
49C
100
AcDbEntity
  8
RACCORDO
100
AcDbPolyline
 62
250
  6
CONTINUOUS
 90
11
 70
0
 10
8.4374926906
 20
19.6695125202
 10
8.4366017603
 20
19.6718328633
 10
8.4327055008
 20
19.6771612066
 10
8.4258014696
 20
19.6854957642
 10
8.4159532242
 20
19.6967694384
 10
8.4030882859
 20
19.711041703
 10
8.3869976776
 20
19.7284981579
 10
8.3676196784
 20
19.7491862811
 10
8.3449973283
 20
19.7730411166
 10
8.3190759695
 20
19.8000766805
 10
8.2571684293
 20
19.8637472607
  0
LINE
  5
49D
100
AcDbEntity
  8
RACCORDO
100
AcDbLine
 62
250
  6
CONTINUOUS
 10
-10.9665695018
 20
16.0558086086
 11
-10.4666456542
 21
16.0558086086
  0
LINE
  5
49E
100
AcDbEntity
  8
RACCORDO
100
AcDbLine
 62
250
  6
CONTINUOUS
 10
10.9665695018
 20
16.0558086086
 11
10.4666456542
 21
16.0558086086
  0
LWPOLYLINE
  5
49F
100
AcDbEntity
  8
RACCORDO
100
AcDbPolyline
 62
250
  6
CONTINUOUS
 90
8
 70
0
 10
8.0838316893
 20
19.8160983575
 10
8.0829809366
 20
19.817490278
 10
8.0791738
 20
19.8205279435
 10
8.0724102793
 20
19.8252517434
 10
8.0627664116
 20
19.8316941699
 10
8.0501661599
 20
19.8398893906
 10
8.0343814135
 20
19.8498818804
 10
7.993152054
 20
19.8754208853
  0
LWPOLYLINE
  5
4A0
100
AcDbEntity
  8
RACCORDO
100
AcDbPolyline
 62
250
  6
CONTINUOUS
 90
13
 70
0
 10
9.7417941066
 20
-16.8566705834
 10
9.7929441094
 20
-16.7891491193
 10
9.8399951669
 20
-16.7192061031
 10
9.8829472792
 20
-16.6468415349
 10
9.92193823
 20
-16.5717707049
 10
9.9568302356
 20
-16.494278323
 10
9.9872099449
 20
-16.4152185181
 10
10.013004096
 20
-16.3345807315
 10
10.0342859507
 20
-16.2523755221
 10
10.0508619437
 20
-16.1694886957
 10
10.0626675532
 20
-16.086215521
 10
10.0697673009
 20
-16.0022607293
 10
10.0721611869
 20
-15.9176243207
  0
LWPOLYLINE
  5
4A1
100
AcDbEntity
  8
RACCORDO
100
AcDbPolyline
 62
250
  6
CONTINUOUS
 90
13
 70
0
 10
10.1315849227
 20
-17.1696774372
 10
10.1996602058
 20
-17.079813391
 10
10.2625958339
 20
-16.9862374421
 10
10.3201483085
 20
-16.8892722573
 10
10.3721176415
 20
-16.7892414597
 10
10.4183621737
 20
-16.6864648197
 10
10.4587447837
 20
-16.5812584733
 10
10.4931303344
 20
-16.4739446009
 10
10.521418692
 20
-16.3648574182
 10
10.5435269396
 20
-16.2543316577
 10
10.5593708134
 20
-16.142705276
 10
10.5688871895
 20
-16.0303366268
 10
10.572066658
 20
-15.9176243194
  0
LINE
  5
4A2
100
AcDbEntity
  8
0
100
AcDbLine
 62
7
  6
CONTINUOUS
 10
3.4
 20
-23.4301797403
 11
3.3633443637
 21
-23.4668353766
  0
LWPOLYLINE
  5
4A3
100
AcDbEntity
  8
RACCORDO
100
AcDbPolyline
 62
7
  6
CONTINUOUS
 90
3
 70
0
 10
-3.3631544652
 20
-21.1965699136
 10
-3.3680934936
 20
-21.1988747187
 10
-3.3727979205
 20
-21.2042516758
  0
LINE
  5
4A4
100
AcDbEntity
  8
RACCORDO
100
AcDbLine
 62
250
  6
CONTINUOUS
 10
-8.0784238083
 20
19.3031358358
 11
8.0784238211
 21
19.3031358358
  0
LINE
  5
4A5
100
AcDbEntity
  8
0
100
AcDbLine
 62
7
  6
CONTINUOUS
 10
3.4
 20
23.4301797403
 11
3.3633443637
 21
23.4668353766
  0
LWPOLYLINE
  5
4A6
100
AcDbEntity
  8
0
100
AcDbPolyline
 62
7
  6
CONTINUOUS
 90
22
 70
0
 10
10.7193014234
 20
17.3594295692
 10
10.7580430381
 20
17.3087506273
 10
10.7950818466
 20
17.2569726027
 10
10.830417849
 20
17.2040954952
 10
10.8640834917
 20
17.1500633063
 10
10.8960463284
 20
17.0949320345
 10
10.9262090195
 20
17.0388696759
 10
10.9545659472
 20
16.9818736022
 10
10.9811227293
 20
16.9239464416
 10
11.0057988806
 20
16.865264075
 10
11.0285886906
 20
16.8058242178
 10
11.0494978697
 20
16.7456291546
 10
11.0684630637
 20
16.6848616204
 10
11.0854783717
 20
16.6235198833
 10
11.1005496946
 20
16.5616056753
 10
11.1136313808
 20
16.4993069278
 10
11.1247173914
 20
16.4366179812
 10
11.1338137653
 20
16.3735444951
 10
11.1408929667
 20
16.3102913796
 10
11.1459458169
 20
16.2469269379
 10
11.1489814947
 20
16.1833828669
 10
11.15
 20
16.1196591663
  0
LWPOLYLINE
  5
4A7
100
AcDbEntity
  8
RACCORDO
100
AcDbPolyline
 62
250
  6
CONTINUOUS
 90
13
 70
0
 10
10.5328015445
 20
17.2994346536
 10
10.5998706468
 20
17.2099430531
 10
10.6618627004
 20
17.1168232878
 10
10.7185418432
 20
17.0203911777
 10
10.7697183469
 20
16.9209621359
 10
10.8152532524
 20
16.8188481684
 10
10.8550105384
 20
16.7143589722
 10
10.8888602589
 20
16.6078097647
 10
10.9167074407
 20
16.4995278839
 10
10.9384676149
 20
16.3898408908
 10
10.954056412
 20
16.2790793016
 10
10.9634229894
 20
16.1676041106
 10
10.9665566638
 20
16.0558086073
  0
LWPOLYLINE
  5
4A8
100
AcDbEntity
  8
RACCORDO
100
AcDbPolyline
 62
250
  6
CONTINUOUS
 90
13
 70
0
 10
10.1413266164
 20
16.9885336449
 10
10.1917257785
 20
16.9212772973
 10
10.238076474
 20
16.8516673134
 10
10.2803787031
 20
16.7797036929
 10
10.3187623356
 20
16.7051165302
 10
10.3530975015
 20
16.6281757309
 10
10.3829945913
 20
16.5496910129
 10
10.4083886483
 20
16.4696423277
 10
10.4293446292
 20
16.3880497237
 10
10.4456677942
 20
16.3057830635
 10
10.4572932301
 20
16.2231323014
 10
10.4642858501
 20
16.1398074831
 10
10.4666456542
 20
16.0558086086
  0
LWPOLYLINE
  5
4A9
100
AcDbEntity
  8
RACCORDO
100
AcDbPolyline
 62
250
  6
CONTINUOUS
 90
10
 70
0
 10
8.319075994
 20
-19.8000766569
 10
8.3449973496
 20
-19.773041096
 10
8.3676196859
 20
-19.7491862737
 10
8.3869976744
 20
-19.7284981611
 10
8.4030882801
 20
-19.7110417088
 10
8.4159532187
 20
-19.6967694439
 10
8.425801465
 20
-19.6854957688
 10
8.432705497
 20
-19.6771612103
 10
8.4366017581
 20
-19.6718328655
 10
8.4374926906
 20
-19.6695125202
  0
LINE
  5
4AA
100
AcDbEntity
  8
RACCORDO
100
AcDbLine
 62
250
  6
CONTINUOUS
 10
8.2571684034
 20
-19.8637472852
 11
8.319075994
 21
-19.8000766569
  0
LINE
  5
4AB
100
AcDbEntity
  8
RACCORDO
100
AcDbLine
 62
250
  6
CONTINUOUS
 10
8.1823095247
 20
-19.9394957433
 11
8.2571684034
 21
-19.8637472852
  0
LINE
  5
4AC
100
AcDbEntity
  8
RACCORDO
100
AcDbLine
 62
250
  6
CONTINUOUS
 10
8.0944849713
 20
-20.0270374575
 11
8.1823095247
 21
-19.9394957433
  0
LWPOLYLINE
  5
4AD
100
AcDbEntity
  8
RACCORDO
100
AcDbPolyline
 62
250
  6
CONTINUOUS
 90
7
 70
0
 10
7.0503746013
 20
-21.0077187651
 10
7.2215713493
 20
-20.8538264864
 10
7.3939942202
 20
-20.6961809201
 10
7.5675715107
 20
-20.5347304715
 10
7.7422296669
 20
-20.3694237629
 10
7.9178932613
 20
-20.2002096863
 10
8.0944849713
 20
-20.0270374575
  0
LWPOLYLINE
  5
4AE
100
AcDbEntity
  8
RACCORDO
100
AcDbPolyline
 62
250
  6
CONTINUOUS
 90
7
 70
0
 10
6.7219620243
 20
-20.9843180147
 10
6.8901883154
 20
-20.833240187
 10
7.0594710187
 20
-20.6783734225
 10
7.2298101344
 20
-20.5197177213
 10
7.4012056622
 20
-20.3572730833
 10
7.5736576024
 20
-20.1910395087
 10
7.7471659548
 20
-20.0210169973
  0
LINE
  5
4AF
100
AcDbEntity
  8
RACCORDO
100
AcDbLine
 62
7
  6
CONTINUOUS
 10
7.0746906202
 20
-21.073895223
 11
6.9846315324
 21
-21.1535537929
  0
LINE
  5
4B0
100
AcDbEntity
  8
RACCORDO
100
AcDbLine
 62
7
  6
CONTINUOUS
 10
6.9846315324
 20
-21.1535537929
 11
6.9190788709
 21
-21.2109575041
  0
LINE
  5
4B1
100
AcDbEntity
  8
RACCORDO
100
AcDbLine
 62
7
  6
CONTINUOUS
 10
6.9190788709
 20
-21.2109575041
 11
6.8542198838
 21
-21.267196639
  0
LINE
  5
4B2
100
AcDbEntity
  8
RACCORDO
100
AcDbLine
 62
7
  6
CONTINUOUS
 10
6.8542198838
 20
-21.267196639
 11
6.7896346583
 21
-21.3225978194
  0
LINE
  5
4B3
100
AcDbEntity
  8
RACCORDO
100
AcDbLine
 62
7
  6
CONTINUOUS
 10
6.7896346583
 20
-21.3225978194
 11
6.7022433077
 21
-21.3965394526
  0
LWPOLYLINE
  5
4B4
100
AcDbEntity
  8
RACCORDO
100
AcDbPolyline
 62
250
  6
CONTINUOUS
 90
16
 70
0
 10
7.0746896336
 20
-21.0738941725
 10
7.0520945447
 20
-21.0924064021
 10
7.0291314568
 20
-21.1091116998
 10
7.005969177
 20
-21.1240597242
 10
6.982782783
 20
-21.1372965022
 10
6.9596840395
 20
-21.1489156073
 10
6.9367176521
 20
-21.1590368261
 10
6.9139831699
 20
-21.1677406689
 10
6.8915725559
 20
-21.1751085435
 10
6.8694967001
 20
-21.1812454397
 10
6.8478295526
 20
-21.1862282838
 10
6.8266325958
 20
-21.1901344016
 10
6.8058808665
 20
-21.1930514164
 10
6.7855945643
 20
-21.1950522275
 10
6.7658411826
 20
-21.1962023151
 10
6.7466556736
 20
-21.1965698999
  0
LWPOLYLINE
  5
4B5
100
AcDbEntity
  8
RACCORDO
100
AcDbPolyline
 62
250
  6
CONTINUOUS
 90
8
 70
0
 10
3.1
 20
-21.9973667597
 10
3.1102941654
 20
-21.9909457813
 10
3.1275248778
 20
-21.9771167279
 10
3.1421553382
 20
-21.9618792534
 10
3.1539430091
 20
-21.9454859581
 10
3.1626924795
 20
-21.9282086031
 10
3.1682587044
 20
-21.9103336049
 10
3.1705494094
 20
-21.8921572875
  0
LINE
  5
4B6
100
AcDbEntity
  8
RACCORDO
100
AcDbLine
 62
7
  6
CONTINUOUS
 10
3.3631544652
 20
21.1965699136
 11
3.298652529
 21
21.190565191
  0
LINE
  5
4B7
100
AcDbEntity
  8
RACCORDO
100
AcDbLine
 62
7
  6
CONTINUOUS
 10
3.1
 20
21.1720718961
 11
2.6554647254
 21
21.1306884717
  0
LWPOLYLINE
  5
4B8
100
AcDbEntity
  8
RACCORDO
100
AcDbPolyline
 62
250
  6
CONTINUOUS
 90
19
 70
0
 10
-8.7730563203
 20
20.2297306704
 10
-8.8123873845
 20
20.227985515
 10
-8.8509436014
 20
20.2229245879
 10
-8.8887249712
 20
20.2145478849
 10
-8.9260388006
 20
20.2027451176
 10
-8.9625777829
 20
20.1876265579
 10
-8.9974199971
 20
20.1695230396
 10
-9.0305008322
 20
20.1483613887
 10
-9.0618848992
 20
20.1242147506
 10
-9.0908441114
 20
20.0976334389
 10
-9.117317718
 20
20.0685603775
 10
-9.1413664698
 20
20.0370526095
 10
-9.1624445324
 20
20.0038316349
 10
-9.180482526
 20
19.9688293306
 10
-9.1955498305
 20
19.9321137913
 10
-9.2073087513
 20
19.8946108562
 10
-9.2156467234
 20
19.8566291372
 10
-9.2206763118
 20
19.8178600103
 10
-9.2223975165
 20
19.7783034685
  0
LWPOLYLINE
  5
4B9
100
AcDbEntity
  8
RACCORDO
100
AcDbPolyline
 62
250
  6
CONTINUOUS
 90
19
 70
0
 10
-8.7730563203
 20
20.5171451693
 10
-8.8383408539
 20
20.5142699713
 10
-8.9031267626
 20
20.5057136512
 10
-8.9669221181
 20
20.4915405902
 10
-9.0292420414
 20
20.4718574754
 10
-9.0896134013
 20
20.4468132238
 10
-9.1475783318
 20
20.4165976677
 10
-9.2026950652
 20
20.3814393538
 10
-9.2545454328
 20
20.3416039525
 10
-9.3027383169
 20
20.2973919252
 10
-9.3469056096
 20
20.2491370579
 10
-9.3867104635
 20
20.1972039025
 10
-9.4218522064
 20
20.1419833662
 10
-9.452061657
 20
20.0838895847
 10
-9.4771040569
 20
20.0233644735
 10
-9.4967856836
 20
19.9608731665
 10
-9.5109541906
 20
19.8968917269
 10
-9.5194988821
 20
19.8319031698
 10
-9.522351825
 20
19.7664007784
  0
LWPOLYLINE
  5
4BA
100
AcDbEntity
  8
RACCORDO
100
AcDbPolyline
 62
250
  6
CONTINUOUS
 90
10
 70
0
 10
-8.0784266484
 20
19.8030596834
 10
-8.1220326209
 20
19.8011492568
 10
-8.1653062791
 20
19.7954435491
 10
-8.2079178416
 20
19.7859860427
 10
-8.2495425722
 20
19.7728488117
 10
-8.2898632557
 20
19.7561319729
 10
-8.3285726144
 20
19.7359629227
 10
-8.3653756505
 20
19.7124953661
 10
-8.3999918939
 20
19.6859081456
 10
-8.4321575398
 20
19.6564038783
  0
LWPOLYLINE
  5
4BB
100
AcDbEntity
  8
RACCORDO
100
AcDbPolyline
 62
250
  6
CONTINUOUS
 90
10
 70
0
 10
-8.0838316893
 20
19.8160983575
 10
-8.1274267165
 20
19.8141888918
 10
-8.1706896801
 20
19.8084860466
 10
-8.2132910457
 20
19.7990332604
 10
-8.2549063182
 20
19.7859025351
 10
-8.295218514
 20
19.7691938877
 10
-8.3339205746
 20
19.7490345881
 10
-8.3707177061
 20
19.7255781897
 10
-8.4053296246
 20
19.6990033601
 10
-8.4374926906
 20
19.6695125202
  0
LINE
  5
4BC
100
AcDbEntity
  8
RACCORDO
100
AcDbLine
 62
250
  6
CONTINUOUS
 10
-8.0784260498
 20
19.8030596834
 11
8.0784260498
 21
19.8030596834
  0
LINE
  5
4BD
100
AcDbEntity
  8
RACCORDO
100
AcDbLine
 62
250
  6
CONTINUOUS
 10
-8.0838316893
 20
19.8160983575
 11
8.0838316893
 21
19.8160983575
  0
LINE
  5
4BE
100
AcDbEntity
  8
RACCORDO
100
AcDbLine
 62
250
  6
CONTINUOUS
 10
-7.7471659548
 20
20.0210169973
 11
7.7471659548
 21
20.0210169973
  0
LINE
  5
4BF
100
AcDbEntity
  8
RACCORDO
100
AcDbLine
 62
250
  6
CONTINUOUS
 10
8.7730563203
 20
20.2297306704
 11
8.1039313083
 21
20.2297306704
  0
LINE
  5
4C0
100
AcDbEntity
  8
RACCORDO
100
AcDbLine
 62
250
  6
CONTINUOUS
 10
-8.1039313083
 20
20.2297306704
 11
-8.7730563203
 21
20.2297306704
  0
LINE
  5
4C1
100
AcDbEntity
  8
RACCORDO
100
AcDbLine
 62
250
  6
CONTINUOUS
 10
8.7730563203
 20
20.5171451693
 11
7.8030257335
 21
20.5171451693
  0
LINE
  5
4C2
100
AcDbEntity
  8
RACCORDO
100
AcDbLine
 62
250
  6
CONTINUOUS
 10
-7.8030257335
 20
20.5171451693
 11
-8.7730563203
 21
20.5171451693
  0
LINE
  5
4C3
100
AcDbEntity
  8
RACCORDO
100
AcDbLine
 62
7
  6
CONTINUOUS
 10
-8.9005708996
 20
20.9
 11
-7.3789613615
 21
20.9
  0
LINE
  5
4C4
100
AcDbEntity
  8
RACCORDO
100
AcDbLine
 62
7
  6
CONTINUOUS
 10
7.3789613615
 20
20.9
 11
8.9005708996
 21
20.9
  0
LINE
  5
4C5
100
AcDbEntity
  8
RACCORDO
100
AcDbLine
 62
250
  6
CONTINUOUS
 10
-6.7219619987
 20
20.9843180147
 11
-2.5908096278
 21
20.9843180147
  0
LINE
  5
4C6
100
AcDbEntity
  8
RACCORDO
100
AcDbLine
 62
250
  6
CONTINUOUS
 10
2.5908096278
 20
20.9843180147
 11
6.7219621157
 21
20.9843180147
  0
LWPOLYLINE
  5
4C7
100
AcDbEntity
  8
RACCORDO
100
AcDbPolyline
 62
250
  6
CONTINUOUS
 90
10
 70
0
 10
8.0784266484
 20
19.8030596834
 10
8.1220326209
 20
19.8011492568
 10
8.1653062791
 20
19.7954435491
 10
8.2079178416
 20
19.7859860427
 10
8.2495425722
 20
19.7728488117
 10
8.2898632557
 20
19.7561319729
 10
8.3285726144
 20
19.7359629227
 10
8.3653756505
 20
19.7124953661
 10
8.3999918939
 20
19.6859081456
 10
8.4321575398
 20
19.6564038783
  0
LWPOLYLINE
  5
4C8
100
AcDbEntity
  8
RACCORDO
100
AcDbPolyline
 62
250
  6
CONTINUOUS
 90
10
 70
0
 10
8.0838316893
 20
19.8160983137
 10
8.1274267056
 20
19.8141888537
 10
8.1706896589
 20
19.8084860111
 10
8.2132910145
 20
19.7990332247
 10
8.2549062774
 20
19.7859024965
 10
8.2952184635
 20
19.7691938434
 10
8.3339205145
 20
19.7490345355
 10
8.3707176362
 20
19.7255781265
 10
8.4053295444
 20
19.6990032842
 10
8.4374925999
 20
19.6695124295
  0
LINE
  5
4C9
100
AcDbEntity
  8
RACCORDO
100
AcDbLine
 62
7
  6
CONTINUOUS
 10
-2.6554647254
 20
21.1306884717
 11
-3.1
 21
21.1720718961
  0
LINE
  5
4CA
100
AcDbEntity
  8
RACCORDO
100
AcDbLine
 62
7
  6
CONTINUOUS
 10
-3.298652529
 20
21.190565191
 11
-3.3631544652
 21
21.1965699136
  0
LWPOLYLINE
  5
4CB
100
AcDbEntity
  8
RACCORDO
100
AcDbPolyline
 62
250
  6
CONTINUOUS
 90
8
 70
0
 10
3.1
 20
21.9973667597
 10
3.1102941654
 20
21.9909457813
 10
3.1275248778
 20
21.9771167279
 10
3.1421553382
 20
21.9618792534
 10
3.1539430091
 20
21.9454859581
 10
3.1626924795
 20
21.9282086031
 10
3.1682587044
 20
21.9103336049
 10
3.1705494094
 20
21.8921572875
  0
LINE
  5
4CC
100
AcDbEntity
  8
RACCORDO
100
AcDbLine
 62
7
  6
CONTINUOUS
 10
6.7022433077
 20
21.3965394526
 11
6.7466556734
 21
21.3591170407
  0
LINE
  5
4CD
100
AcDbEntity
  8
RACCORDO
100
AcDbLine
 62
7
  6
CONTINUOUS
 10
6.7466556734
 20
21.3591170407
 11
6.8097867063
 21
21.3053796786
  0
LINE
  5
4CE
100
AcDbEntity
  8
RACCORDO
100
AcDbLine
 62
7
  6
CONTINUOUS
 10
6.8097867063
 20
21.3053796786
 11
6.8744064975
 21
21.249756107
  0
LINE
  5
4CF
100
AcDbEntity
  8
RACCORDO
100
AcDbLine
 62
7
  6
CONTINUOUS
 10
6.8744064975
 20
21.249756107
 11
6.9400205379
 21
21.1926789224
  0
LINE
  5
4D0
100
AcDbEntity
  8
RACCORDO
100
AcDbLine
 62
7
  6
CONTINUOUS
 10
6.9400205379
 20
21.1926789224
 11
7.0291005379
 21
21.1143298307
  0
LINE
  5
4D1
100
AcDbEntity
  8
RACCORDO
100
AcDbLine
 62
7
  6
CONTINUOUS
 10
7.0291005379
 20
21.1143298307
 11
7.0746906201
 21
21.0738952231
  0
LWPOLYLINE
  5
4D2
100
AcDbEntity
  8
RACCORDO
100
AcDbPolyline
 62
250
  6
CONTINUOUS
 90
7
 70
0
 10
7.7471659548
 20
20.0210169973
 10
7.5735515012
 20
20.191139085
 10
7.4010359065
 20
20.3574324055
 10
7.2296191705
 20
20.5198969587
 10
7.0593012934
 20
20.6785327447
 10
6.8900822752
 20
20.8333397633
 10
6.7219621157
 20
20.9843180147
  0
LWPOLYLINE
  5
4D3
100
AcDbEntity
  8
RACCORDO
100
AcDbPolyline
 62
250
  6
CONTINUOUS
 90
7
 70
0
 10
8.0944849713
 20
20.0270374575
 10
7.9177869986
 20
20.2003129146
 10
7.7420582421
 20
20.3695873979
 10
7.5673771574
 20
20.5349128114
 10
7.3938202537
 20
20.6963413711
 10
7.2214621172
 20
20.8539255491
 10
7.0503754349
 20
21.0077180193
  0
LINE
  5
4D4
100
AcDbEntity
  8
RACCORDO
100
AcDbLine
 62
250
  6
CONTINUOUS
 10
8.1823095666
 20
19.9394957038
 11
8.0944849713
 21
20.0270374575
  0
LINE
  5
4D5
100
AcDbEntity
  8
RACCORDO
100
AcDbLine
 62
250
  6
CONTINUOUS
 10
8.2571684293
 20
19.8637472607
 11
8.1823095666
 21
19.9394957038
  0
LWPOLYLINE
  5
4D6
100
AcDbEntity
  8
RACCORDO
100
AcDbPolyline
 62
250
  6
CONTINUOUS
 90
7
 70
0
 10
8.0343814154
 20
-19.8498818807
 10
8.0501661568
 20
-19.8398893904
 10
8.0627664025
 20
-19.8316941695
 10
8.0724102671
 20
-19.8252517429
 10
8.0791737888
 20
-19.8205279432
 10
8.0829809296
 20
-19.8174902779
 10
8.0838316893
 20
-19.8160983575
  0
LWPOLYLINE
  5
4D7
100
AcDbEntity
  8
0
100
AcDbPolyline
 62
7
  6
CONTINUOUS
 90
10
 70
0
 10
4.2275425147
 20
-23.3333597609
 10
4.1721337662
 20
-23.3675931429
 10
4.1149260659
 20
-23.3979856684
 10
4.0559194138
 20
-23.4245373373
 10
3.9947154302
 20
-23.4473662742
 10
3.9317124949
 20
-23.4663543545
 10
3.8681057469
 20
-23.4811472046
 10
3.804293566
 20
-23.4916266999
 10
3.7398775726
 20
-23.4979109651
 10
3.6748577666
 20
-23.5
  0
LWPOLYLINE
  5
4D8
100
AcDbEntity
  8
0
100
AcDbPolyline
 62
7
  6
CONTINUOUS
 90
10
 70
0
 10
4.2071270357
 20
-23.2631073618
 10
4.1513051927
 20
-23.2975607273
 10
4.0938708196
 20
-23.3281012976
 10
4.0348239165
 20
-23.3547290728
 10
3.9739010869
 20
-23.3775235818
 10
3.9113657272
 20
-23.3964052957
 10
3.8480080272
 20
-23.4111356272
 10
3.7840913835
 20
-23.4216350472
 10
3.7193523994
 20
-23.4279830849
 10
3.653791075
 20
-23.4301797403
  0
LWPOLYLINE
  5
4D9
100
AcDbEntity
  8
RACCORDO
100
AcDbPolyline
 62
250
  6
CONTINUOUS
 90
3
 70
0
 10
7.9676921023
 20
-19.8909423833
 10
7.9931520607
 20
-19.8754208872
 10
8.0343814154
 20
-19.8498818807
  0
LINE
  5
4DA
100
AcDbEntity
  8
RACCORDO
100
AcDbLine
 62
250
  6
CONTINUOUS
 10
7.9069166997
 20
-19.9274149796
 11
7.9676921023
 21
-19.8909423833
  0
LINE
  5
4DB
100
AcDbEntity
  8
RACCORDO
100
AcDbLine
 62
250
  6
CONTINUOUS
 10
7.8333826366
 20
-19.970883754
 11
7.9069166997
 21
-19.9274149796
  0
LINE
  5
4DC
100
AcDbEntity
  8
RACCORDO
100
AcDbLine
 62
250
  6
CONTINUOUS
 10
7.7471659548
 20
-20.0210169973
 11
7.8333826366
 21
-19.970883754
  0
LWPOLYLINE
  5
4DD
100
AcDbEntity
  8
RACCORDO
100
AcDbPolyline
 62
250
  6
CONTINUOUS
 90
13
 70
0
 10
9.522351825
 20
-19.7664007784
 10
9.5191669329
 20
-19.7679374715
 10
9.5110162034
 20
-19.7694484517
 10
9.4980360226
 20
-19.7709084355
 10
9.4804435875
 20
-19.7722929934
 10
9.4585332721
 20
-19.7735789573
 10
9.4326717013
 20
-19.7747448088
 10
9.4032916165
 20
-19.7757710395
 10
9.3708846339
 20
-19.7766404778
 10
9.335993019
 20
-19.7773385753
 10
9.2992006127
 20
-19.7778536507
 10
9.2611230615
 20
-19.7781770852
 10
9.2223975165
 20
-19.7783034669
  0
LWPOLYLINE
  5
4DE
100
AcDbEntity
  8
RACCORDO
100
AcDbPolyline
 62
250
  6
CONTINUOUS
 90
10
 70
0
 10
-6.7220012112
 20
21.1306884717
 10
-6.7618583514
 20
21.1290921506
 10
-6.8013283055
 20
21.1243465294
 10
-6.8402373038
 20
21.1164956603
 10
-6.8784678162
 20
21.1055608527
 10
-6.9157842849
 20
21.0915909028
 10
-6.9518333337
 20
21.074714627
 10
-6.9863765813
 20
21.055056476
 10
-7.0192861017
 20
21.0326888837
 10
-7.0503755493
 20
21.0077183978
  0
LINE
  5
4DF
100
AcDbEntity
  8
RACCORDO
100
AcDbLine
 62
250
  6
CONTINUOUS
 10
-6.7220012043
 20
21.1306884717
 11
-2.6554647254
 21
21.1306884717
  0
LINE
  5
4E0
100
AcDbEntity
  8
RACCORDO
100
AcDbLine
 62
250
  6
CONTINUOUS
 10
2.6554647254
 20
21.1306884717
 11
6.7220012043
 21
21.1306884717
  0
LINE
  5
4E1
100
AcDbEntity
  8
0
100
AcDbLine
 62
7
  6
CONTINUOUS
 10
3.298652529
 20
21.190565191
 11
3.1
 21
21.190565191
  0
LINE
  5
4E2
100
AcDbEntity
  8
0
100
AcDbLine
 62
7
  6
CONTINUOUS
 10
-3.1
 20
21.190565191
 11
-3.298652529
 21
21.190565191
  0
LINE
  5
4E3
100
AcDbEntity
  8
RACCORDO
100
AcDbLine
 62
250
  6
CONTINUOUS
 10
-6.7466556734
 20
21.1965699136
 11
-3.3631544652
 21
21.1965699136
  0
LINE
  5
4E4
100
AcDbEntity
  8
RACCORDO
100
AcDbLine
 62
250
  6
CONTINUOUS
 10
3.3631544652
 20
21.1965699136
 11
6.7466556734
 21
21.1965699136
  0
LINE
  5
4E5
100
AcDbEntity
  8
RACCORDO
100
AcDbLine
 62
250
  6
CONTINUOUS
 10
3.1705494094
 20
21.2941832525
 11
3.1
 21
21.2941832525
  0
LINE
  5
4E6
100
AcDbEntity
  8
RACCORDO
100
AcDbLine
 62
250
  6
CONTINUOUS
 10
-3.1705494094
 20
21.2941832525
 11
-3.1
 21
21.2941832525
  0
LINE
  5
4E7
100
AcDbEntity
  8
RACCORDO
100
AcDbLine
 62
250
  6
CONTINUOUS
 10
-6.7022433077
 20
21.3965394526
 11
-3.4
 21
21.3965394526
  0
LINE
  5
4E8
100
AcDbEntity
  8
RACCORDO
100
AcDbLine
 62
250
  6
CONTINUOUS
 10
3.4
 20
21.3965394526
 11
6.7022433077
 21
21.3965394526
  0
LINE
  5
4E9
100
AcDbEntity
  8
0
100
AcDbLine
 62
7
  6
CONTINUOUS
 10
2.7167632191
 20
21.6560705017
 11
-2.7167632191
 21
21.6560705017
  0
LINE
  5
4EA
100
AcDbEntity
  8
RACCORDO
100
AcDbLine
 62
250
  6
CONTINUOUS
 10
3.1705494094
 20
21.8921572875
 11
3.1
 21
21.8921572875
  0
LINE
  5
4EB
100
AcDbEntity
  8
RACCORDO
100
AcDbLine
 62
250
  6
CONTINUOUS
 10
-3.1705494094
 20
21.8921572875
 11
-3.1
 21
21.8921572875
  0
LINE
  5
4EC
100
AcDbEntity
  8
0
100
AcDbLine
 62
7
  6
CONTINUOUS
 10
3.1
 20
22.2
 11
-3.1
 21
22.2
  0
LINE
  5
4ED
100
AcDbEntity
  8
0
100
AcDbLine
 62
7
  6
CONTINUOUS
 10
10.6503805997
 20
22.4
 11
5.5445583437
 21
22.4
  0
LINE
  5
4EE
100
AcDbEntity
  8
0
100
AcDbLine
 62
7
  6
CONTINUOUS
 10
3.3848722771
 20
22.4
 11
3.3
 21
22.4
  0
LINE
  5
4EF
100
AcDbEntity
  8
0
100
AcDbLine
 62
7
  6
CONTINUOUS
 10
-3.3
 20
22.4
 11
-3.3848722771
 21
22.4
  0
LINE
  5
4F0
100
AcDbEntity
  8
0
100
AcDbLine
 62
7
  6
CONTINUOUS
 10
-5.5445583437
 20
22.4
 11
-10.6503805997
 21
22.4
  0
LINE
  5
4F1
100
AcDbEntity
  8
0
100
AcDbLine
 62
7
  6
CONTINUOUS
 10
3.3633443637
 20
22.5
 11
3.230158461
 21
22.5
  0
LINE
  5
4F2
100
AcDbEntity
  8
0
100
AcDbLine
 62
7
  6
CONTINUOUS
 10
-3.230158461
 20
22.5
 11
-3.3633443637
 21
22.5
  0
LWPOLYLINE
  5
4F3
100
AcDbEntity
  8
RACCORDO
100
AcDbPolyline
 62
250
  6
CONTINUOUS
 90
16
 70
0
 10
6.7466556734
 20
21.196569901
 10
6.7658411389
 20
21.1962023164
 10
6.7855944892
 20
21.1950522338
 10
6.8058807716
 20
21.1930514296
 10
6.8266324911
 20
21.1901344196
 10
6.8478294451
 20
21.1862283008
 10
6.8694965865
 20
21.1812454563
 10
6.8915724172
 20
21.1751085734
 10
6.9139829688
 20
21.167740741
 10
6.9367173456
 20
21.1590369755
 10
6.9596836404
 20
21.1489158298
 10
6.9827823859
 20
21.1372967358
 10
7.0059689721
 20
21.1240598391
 10
7.0291315997
 20
21.1091115909
 10
7.0520948928
 20
21.0924061763
 10
7.0746896651
 20
21.0738942062
  0
LWPOLYLINE
  5
4F4
100
AcDbEntity
  8
RACCORDO
100
AcDbPolyline
 62
250
  6
CONTINUOUS
 90
10
 70
0
 10
6.7220012112
 20
21.1306884717
 10
6.7618583514
 20
21.1290921506
 10
6.8013283055
 20
21.1243465294
 10
6.8402373038
 20
21.1164956603
 10
6.8784678161
 20
21.1055608527
 10
6.9157842849
 20
21.0915909028
 10
6.9518333337
 20
21.074714627
 10
6.9863765813
 20
21.055056476
 10
7.0192861017
 20
21.0326888837
 10
7.0503755493
 20
21.0077183978
  0
LWPOLYLINE
  5
4F5
100
AcDbEntity
  8
RACCORDO
100
AcDbPolyline
 62
250
  6
CONTINUOUS
 90
13
 70
0
 10
9.5223255552
 20
19.7664007707
 10
9.5191410245
 20
19.7679374172
 10
9.5109911626
 20
19.7694483522
 10
9.4980123306
 20
19.7709082952
 10
9.4804216869
 20
19.772292819
 10
9.4585135529
 20
19.7735787577
 10
9.4326544893
 20
19.7747445951
 10
9.4032771627
 20
19.7757708244
 10
9.3708731062
 20
19.7766402753
 10
9.335984495
 20
19.7773384004
 10
9.2991950755
 20
19.7778535187
 10
9.2611203978
 20
19.7781770118
 10
9.2223975165
 20
19.778303467
  0
LINE
  5
4F6
100
AcDbEntity
  8
RACCORDO
100
AcDbLine
 62
250
  6
CONTINUOUS
 10
7.8333826387
 20
19.9708837552
 11
7.7471659548
 21
20.0210169973
  0
LINE
  5
4F7
100
AcDbEntity
  8
RACCORDO
100
AcDbLine
 62
250
  6
CONTINUOUS
 10
7.9069166985
 20
19.9274149793
 11
7.8333826387
 21
19.9708837552
  0
LWPOLYLINE
  5
4F8
100
AcDbEntity
  8
RACCORDO
100
AcDbPolyline
 62
250
  6
CONTINUOUS
 90
3
 70
0
 10
7.993152054
 20
19.8754208853
 10
7.9676920952
 20
19.8909423809
 10
7.9069166985
 20
19.9274149793
  0
LWPOLYLINE
  5
4F9
100
AcDbEntity
  8
0
100
AcDbPolyline
 62
7
  6
CONTINUOUS
 90
10
 70
0
 10
4.2071270357
 20
23.2631073618
 10
4.1513051927
 20
23.2975607273
 10
4.0938708196
 20
23.3281012976
 10
4.0348239165
 20
23.3547290728
 10
3.9739010869
 20
23.3775235818
 10
3.9113657272
 20
23.3964052957
 10
3.8480080272
 20
23.4111356272
 10
3.7840913835
 20
23.4216350472
 10
3.7193523994
 20
23.4279830849
 10
3.653791075
 20
23.4301797403
  0
LWPOLYLINE
  5
4FA
100
AcDbEntity
  8
RACCORDO
100
AcDbPolyline
 62
250
  6
CONTINUOUS
 90
13
 70
0
 10
-3.0154690987
 20
23.3164213562
 10
-3.0411586343
 20
23.3148005959
 10
-3.0664222999
 20
23.3108622813
 10
-3.0908412852
 20
23.3046717004
 10
-3.1140107828
 20
23.2963314777
 10
-3.1355466988
 20
23.2859798741
 10
-3.15509202
 20
23.2737884938
 10
-3.1723227325
 20
23.2599594403
 10
-3.1869531929
 20
23.2447219658
 10
-3.1987408637
 20
23.2283286706
 10
-3.2074903341
 20
23.2110513156
 10
-3.2130565591
 20
23.1931763174
 10
-3.2153472641
 20
23.175
  0
LWPOLYLINE
  5
4FB
100
AcDbEntity
  8
0
100
AcDbPolyline
 62
7
  6
CONTINUOUS
 90
10
 70
0
 10
-3.653791075
 20
23.4301797403
 10
-3.7193523994
 20
23.4279830849
 10
-3.7840913835
 20
23.4216350472
 10
-3.8480080272
 20
23.4111356272
 10
-3.9113657272
 20
23.3964052957
 10
-3.9739010869
 20
23.3775235818
 10
-4.0348239165
 20
23.3547290728
 10
-4.0938708196
 20
23.3281012976
 10
-4.1513051927
 20
23.2975607273
 10
-4.2071270357
 20
23.2631073618
  0
LINE
  5
4FC
100
AcDbEntity
  8
RACCORDO
100
AcDbLine
 62
250
  6
CONTINUOUS
 10
3.230158461
 20
23.175
 11
3.2153472641
 21
23.175
  0
LINE
  5
4FD
100
AcDbEntity
  8
RACCORDO
100
AcDbLine
 62
250
  6
CONTINUOUS
 10
-3.2153472641
 20
23.175
 11
-3.230158461
 21
23.175
  0
LINE
  5
4FE
100
AcDbEntity
  8
RACCORDO
100
AcDbLine
 62
250
  6
CONTINUOUS
 10
3.0154690987
 20
23.3164213562
 11
-3.0154690987
 21
23.3164213562
  0
LINE
  5
4FF
100
AcDbEntity
  8
RACCORDO
100
AcDbLine
 62
7
  6
CONTINUOUS
 10
3.0300365522
 20
23.375
 11
-3.0300365522
 21
23.375
  0
LINE
  5
500
100
AcDbEntity
  8
0
100
AcDbLine
 62
7
  6
CONTINUOUS
 10
3.653791075
 20
23.4301797403
 11
3.4
 21
23.4301797403
  0
LINE
  5
501
100
AcDbEntity
  8
0
100
AcDbLine
 62
7
  6
CONTINUOUS
 10
-3.4
 20
23.4301797403
 11
-3.653791075
 21
23.4301797403
  0
LINE
  5
502
100
AcDbEntity
  8
0
100
AcDbLine
 62
7
  6
CONTINUOUS
 10
3.3633443637
 20
23.4668353766
 11
-3.3633443637
 21
23.4668353766
  0
LINE
  5
503
100
AcDbEntity
  8
0
100
AcDbLine
 62
7
  6
CONTINUOUS
 10
-3.674857664
 20
23.5
 11
3.674857664
 21
23.5
  0
LWPOLYLINE
  5
504
100
AcDbEntity
  8
0
100
AcDbPolyline
 62
7
  6
CONTINUOUS
 90
10
 70
0
 10
3.674857664
 20
23.5
 10
3.7399592962
 20
23.4978986753
 10
3.8044350627
 20
23.4916026365
 10
3.8682849634
 20
23.4811118836
 10
3.9319052482
 20
23.4663048816
 10
3.9948996673
 20
23.4473031655
 10
4.0560794707
 20
23.4244713402
 10
4.1150484085
 20
23.3979309403
 10
4.1722027306
 20
23.3675604312
 10
4.227542437
 20
23.3333598127
  0
LWPOLYLINE
  5
505
100
AcDbEntity
  8
RACCORDO
100
AcDbPolyline
 62
250
  6
CONTINUOUS
 90
13
 70
0
 10
3.0154690987
 20
23.3164213562
 10
3.0411586343
 20
23.3148005959
 10
3.0664222999
 20
23.3108622813
 10
3.0908412852
 20
23.3046717004
 10
3.1140107828
 20
23.2963314777
 10
3.1355466988
 20
23.2859798741
 10
3.15509202
 20
23.2737884938
 10
3.1723227325
 20
23.2599594403
 10
3.1869531929
 20
23.2447219658
 10
3.1987408637
 20
23.2283286706
 10
3.2074903341
 20
23.2110513156
 10
3.2130565591
 20
23.1931763174
 10
3.2153472641
 20
23.175
  0
ARC
  5
506
100
AcDbEntity
  8
0
100
AcDbCircle
 62
7
  6
CONTINUOUS
 10
-4.95
 20
-23.1
 40
0.5
100
AcDbArc
 50
350.803718421
 51
119.112422776
  0
ARC
  5
507
100
AcDbEntity
  8
RACCORDO
100
AcDbCircle
 62
7
  6
CONTINUOUS
 10
-3.15
 20
-21.65
 40
0.3
100
AcDbArc
 50
106.5382426164
 51
141.244636777
  0
ARC
  5
508
100
AcDbEntity
  8
RACCORDO
100
AcDbCircle
 62
7
  6
CONTINUOUS
 10
-3.15
 20
-21.65
 40
0.3
100
AcDbArc
 50
213.5105152343
 51
253.4617573836
  0
ARC
  5
509
100
AcDbEntity
  8
RACCORDO
100
AcDbCircle
 62
250
  6
CONTINUOUS
 10
-3.15
 20
-21.65
 40
0.15
100
AcDbArc
 50
122.2994342645
 51
237.6920792956
  0
ARC
  5
50A
100
AcDbEntity
  8
0
100
AcDbCircle
 62
7
  6
CONTINUOUS
 10
-11.25
 20
0.0
 40
28.0
100
AcDbArc
 50
38.3146467789
 51
54.0372348486
  0
ARC
  5
50B
100
AcDbEntity
  8
0
100
AcDbCircle
 62
7
  6
CONTINUOUS
 10
-11.25
 20
0.0
 40
28.0
100
AcDbArc
 50
55.8789063483
 51
56.442788259
  0
ARC
  5
50C
100
AcDbEntity
  8
0
100
AcDbCircle
 62
7
  6
CONTINUOUS
 10
-11.25
 20
0.0
 40
28.0
100
AcDbArc
 50
303.5572119323
 51
304.1210936517
  0
ARC
  5
50D
100
AcDbEntity
  8
0
100
AcDbCircle
 62
7
  6
CONTINUOUS
 10
-11.25
 20
0.0
 40
28.0
100
AcDbArc
 50
305.9627651514
 51
321.6853532213
  0
ARC
  5
50E
100
AcDbEntity
  8
RACCORDO
100
AcDbCircle
 62
7
  6
CONTINUOUS
 10
-11.25
 20
0.0
 40
27.9301797403
100
AcDbArc
 50
305.881601122
 51
309.9975091513
  0
ARC
  5
50F
100
AcDbEntity
  8
0
100
AcDbCircle
 62
7
  6
CONTINUOUS
 10
-11.25
 20
0.0
 40
27.9301797403
100
AcDbArc
 50
303.6019742715
 51
304.2022576811
  0
ARC
  5
510
100
AcDbEntity
  8
0
100
AcDbCircle
 62
7
  6
CONTINUOUS
 10
-11.25
 20
0.0
 40
27.9301797403
100
AcDbArc
 50
55.7977423189
 51
56.3980257285
  0
ARC
  5
511
100
AcDbEntity
  8
RACCORDO
100
AcDbCircle
 62
7
  6
CONTINUOUS
 10
-11.25
 20
0.0
 40
27.9301797403
100
AcDbArc
 50
50.0024908487
 51
54.118398878
  0
ARC
  5
512
100
AcDbEntity
  8
RACCORDO
100
AcDbCircle
 62
250
  6
CONTINUOUS
 10
-11.25
 20
0.0
 40
27.8165695018
100
AcDbArc
 50
38.4558505836
 51
44.9624869459
  0
ARC
  5
513
100
AcDbEntity
  8
RACCORDO
100
AcDbCircle
 62
250
  6
CONTINUOUS
 10
-11.25
 20
0.0
 40
27.4220850344
100
AcDbArc
 50
315.3845345667
 51
321.2351043569
  0
ARC
  5
514
100
AcDbEntity
  8
RACCORDO
100
AcDbCircle
 62
250
  6
CONTINUOUS
 10
-11.25
 20
0.0
 40
27.3166456542
100
AcDbArc
 50
38.4558505836
 51
44.9624945347
  0
ARC
  5
515
100
AcDbEntity
  8
RACCORDO
100
AcDbCircle
 62
250
  6
CONTINUOUS
 10
-11.25
 20
0.0
 40
26.9221611869
100
AcDbArc
 50
315.3845314496
 51
321.2351043569
  0
ARC
  5
516
100
AcDbEntity
  8
0
100
AcDbCircle
 62
7
  6
CONTINUOUS
 10
-4.95
 20
23.1
 40
0.5
100
AcDbArc
 50
240.887577224
 51
9.196281579
  0
ARC
  5
517
100
AcDbEntity
  8
RACCORDO
100
AcDbCircle
 62
7
  6
CONTINUOUS
 10
-3.15
 20
21.65
 40
0.3
100
AcDbArc
 50
106.5382426164
 51
146.4763392935
  0
ARC
  5
518
100
AcDbEntity
  8
RACCORDO
100
AcDbCircle
 62
7
  6
CONTINUOUS
 10
-3.15
 20
21.65
 40
0.3
100
AcDbArc
 50
213.5105152343
 51
253.4617573836
  0
ARC
  5
519
100
AcDbEntity
  8
RACCORDO
100
AcDbCircle
 62
250
  6
CONTINUOUS
 10
-3.15
 20
21.65
 40
0.15
100
AcDbArc
 50
122.2994342645
 51
237.6920792956
  0
ARC
  5
51A
100
AcDbEntity
  8
0
100
AcDbCircle
 62
7
  6
CONTINUOUS
 10
4.95
 20
-23.1
 40
0.5
100
AcDbArc
 50
60.887577224
 51
189.196281579
  0
ARC
  5
51B
100
AcDbEntity
  8
RACCORDO
100
AcDbCircle
 62
7
  6
CONTINUOUS
 10
3.15
 20
-21.65
 40
0.3
100
AcDbArc
 50
286.5382426164
 51
326.4763392935
  0
ARC
  5
51C
100
AcDbEntity
  8
RACCORDO
100
AcDbCircle
 62
7
  6
CONTINUOUS
 10
3.15
 20
-21.65
 40
0.3
100
AcDbArc
 50
33.5105152343
 51
73.4617573836
  0
ARC
  5
51D
100
AcDbEntity
  8
RACCORDO
100
AcDbCircle
 62
250
  6
CONTINUOUS
 10
3.15
 20
-21.65
 40
0.15
100
AcDbArc
 50
302.2994342645
 51
57.6920792956
  0
ARC
  5
51E
100
AcDbEntity
  8
0
100
AcDbCircle
 62
7
  6
CONTINUOUS
 10
11.25
 20
0.0
 40
28.0
100
AcDbArc
 50
123.557211741
 51
124.1210936517
  0
ARC
  5
51F
100
AcDbEntity
  8
0
100
AcDbCircle
 62
7
  6
CONTINUOUS
 10
11.25
 20
0.0
 40
28.0
100
AcDbArc
 50
125.9627651514
 51
141.6853532211
  0
ARC
  5
520
100
AcDbEntity
  8
0
100
AcDbCircle
 62
7
  6
CONTINUOUS
 10
11.25
 20
0.0
 40
28.0
100
AcDbArc
 50
218.3146467787
 51
234.0372348486
  0
ARC
  5
521
100
AcDbEntity
  8
0
100
AcDbCircle
 62
7
  6
CONTINUOUS
 10
11.25
 20
0.0
 40
28.0
100
AcDbArc
 50
235.8789063483
 51
236.4427880677
  0
ARC
  5
522
100
AcDbEntity
  8
0
100
AcDbCircle
 62
7
  6
CONTINUOUS
 10
11.25
 20
0.0
 40
27.9301797403
100
AcDbArc
 50
235.7977423189
 51
236.3980257285
  0
ARC
  5
523
100
AcDbEntity
  8
RACCORDO
100
AcDbCircle
 62
7
  6
CONTINUOUS
 10
11.25
 20
0.0
 40
27.9301797403
100
AcDbArc
 50
230.0024908487
 51
234.118398878
  0
ARC
  5
524
100
AcDbEntity
  8
RACCORDO
100
AcDbCircle
 62
7
  6
CONTINUOUS
 10
11.25
 20
0.0
 40
27.9301797403
100
AcDbArc
 50
125.881601122
 51
129.9975091513
  0
ARC
  5
525
100
AcDbEntity
  8
0
100
AcDbCircle
 62
7
  6
CONTINUOUS
 10
11.25
 20
0.0
 40
27.9301797403
100
AcDbArc
 50
123.6019742715
 51
124.2022576811
  0
ARC
  5
526
100
AcDbEntity
  8
RACCORDO
100
AcDbCircle
 62
250
  6
CONTINUOUS
 10
11.25
 20
0.0
 40
27.8165695018
100
AcDbArc
 50
135.0375130541
 51
141.5441494164
  0
ARC
  5
527
100
AcDbEntity
  8
RACCORDO
100
AcDbCircle
 62
250
  6
CONTINUOUS
 10
11.25
 20
0.0
 40
27.4220850344
100
AcDbArc
 50
218.7648956431
 51
224.6154654333
  0
ARC
  5
528
100
AcDbEntity
  8
RACCORDO
100
AcDbCircle
 62
250
  6
CONTINUOUS
 10
11.25
 20
0.0
 40
27.3166456542
100
AcDbArc
 50
135.0375054464
 51
141.5441494164
  0
ARC
  5
529
100
AcDbEntity
  8
RACCORDO
100
AcDbCircle
 62
250
  6
CONTINUOUS
 10
11.25
 20
0.0
 40
26.9221611869
100
AcDbArc
 50
218.7648956431
 51
224.6154684155
  0
ARC
  5
52A
100
AcDbEntity
  8
ASSI
100
AcDbCircle
 62
7
  6
CONTINUOUS
 10
3.688954
 20
1.426341
 40
0.6287074522
100
AcDbArc
 50
292.8428566081
 51
89.9987091929
  0
ARC
  5
52B
100
AcDbEntity
  8
0
100
AcDbCircle
 62
7
  6
CONTINUOUS
 10
4.95
 20
23.1
 40
0.5
100
AcDbArc
 50
170.8037184209
 51
299.112422776
  0
ARC
  5
52C
100
AcDbEntity
  8
RACCORDO
100
AcDbCircle
 62
7
  6
CONTINUOUS
 10
3.15
 20
21.65
 40
0.3
100
AcDbArc
 50
286.5382426164
 51
321.244636777
  0
ARC
  5
52D
100
AcDbEntity
  8
RACCORDO
100
AcDbCircle
 62
7
  6
CONTINUOUS
 10
3.15
 20
21.65
 40
0.3
100
AcDbArc
 50
33.5105152343
 51
73.4617573836
  0
ARC
  5
52E
100
AcDbEntity
  8
ASSI
100
AcDbCircle
 62
7
  6
CONTINUOUS
 10
3.632045
 20
1.426341
 40
0.249439
100
AcDbArc
 50
270.0010063792
 51
90.0010063711
  0
ARC
  5
52F
100
AcDbEntity
  8
RACCORDO
100
AcDbCircle
 62
250
  6
CONTINUOUS
 10
3.15
 20
21.65
 40
0.15
100
AcDbArc
 50
302.2994342645
 51
57.6920792956
  0
ELLIPSE
  5
530
100
AcDbEntity
  8
0
100
AcDbEllipse
 62
7
  6
CONTINUOUS
 10
-10.649923836
 20
-21.899313827
 30
0.0
 11
-0.1582391023
 21
-0.4751033573
 31
0.0
 40
0.9984778551
 41
-1.2488325878
 42
0.3210503505
  0
ELLIPSE
  5
531
100
AcDbEntity
  8
0
100
AcDbEllipse
 62
7
  6
CONTINUOUS
 10
-10.649923836
 20
21.899313827
 30
0.0
 11
0.1582391023
 21
-0.4751033573
 31
0.0
 40
0.9984778551
 41
2.8205423031
 42
4.3904252414
  0
ELLIPSE
  5
532
100
AcDbEntity
  8
0
100
AcDbEllipse
 62
7
  6
CONTINUOUS
 10
10.649923836
 20
-21.899313827
 30
0.0
 11
0.1582391023
 21
-0.4751033573
 31
0.0
 40
0.9984778551
 41
-0.3210503505
 42
1.2488325878
  0
ELLIPSE
  5
533
100
AcDbEntity
  8
0
100
AcDbEllipse
 62
7
  6
CONTINUOUS
 10
10.649923836
 20
21.899313827
 30
0.0
 11
-0.1582391023
 21
-0.4751033573
 31
0.0
 40
0.9984778551
 41
1.8927600658
 42
3.4626430041
  0
ELLIPSE
  5
534
100
AcDbEntity
  8
RACCORDO
100
AcDbEllipse
 62
7
  6
CONTINUOUS
 10
3.0300365522
 20
23.175
 30
0.0
 11
0.2001219089
 21
0.0
 31
0.0
 40
0.999390827
 41
-0.0
 42
1.5707963268
  0
ELLIPSE
  5
535
100
AcDbEntity
  8
RACCORDO
100
AcDbEllipse
 62
7
  6
CONTINUOUS
 10
-3.0300365522
 20
23.175
 30
0.0
 11
0.2001219089
 21
0.0
 31
0.0
 40
0.999390827
 41
1.5707963268
 42
3.1415926536
  0
ELLIPSE
  5
536
100
AcDbEntity
  8
RACCORDO
100
AcDbEllipse
 62
7
  6
CONTINUOUS
 10
3.0300365522
 20
-23.175
 30
0.0
 11
0.2001219089
 21
-0.0
 31
0.0
 40
0.999390827
 41
-1.5707963268
 42
0.0
  0
ELLIPSE
  5
537
100
AcDbEntity
  8
RACCORDO
100
AcDbEllipse
 62
7
  6
CONTINUOUS
 10
-3.0300365522
 20
-23.175
 30
0.0
 11
0.2001219089
 21
-0.0
 31
0.0
 40
0.999390827
 41
-3.1415926536
 42
-1.5707963268
  0
ELLIPSE
  5
538
100
AcDbEntity
  8
RACCORDO
100
AcDbEllipse
 62
7
  6
CONTINUOUS
 10
8.899885754
 20
-20.1489707405
 30
0.0
 11
-0.2373586535
 21
0.712655036
 31
0.0
 40
0.9984778551
 41
-3.4626430041
 42
-1.8927600658
  0
ELLIPSE
  5
539
100
AcDbEntity
  8
RACCORDO
100
AcDbEllipse
 62
7
  6
CONTINUOUS
 10
8.899885754
 20
20.1489707405
 30
0.0
 11
0.2373586535
 21
0.712655036
 31
0.0
 40
0.9984778551
 41
-1.2488325878
 42
0.3210503505
  0
ELLIPSE
  5
53A
100
AcDbEntity
  8
RACCORDO
100
AcDbEllipse
 62
7
  6
CONTINUOUS
 10
-8.899885754
 20
-20.1489707405
 30
0.0
 11
0.2373586535
 21
0.712655036
 31
0.0
 40
0.9984778551
 41
-4.3904252414
 42
-2.8205423031
  0
ELLIPSE
  5
53B
100
AcDbEntity
  8
RACCORDO
100
AcDbEllipse
 62
7
  6
CONTINUOUS
 10
-8.899885754
 20
20.1489707405
 30
0.0
 11
-0.2373586535
 21
0.712655036
 31
0.0
 40
0.9984778551
 41
-0.3210503505
 42
1.2488325878
  0
ELLIPSE
  5
53C
100
AcDbEntity
  8
DRAFT
100
AcDbEllipse
 62
7
  6
CONTINUOUS
 10
-9.4870876087
 20
-2.95
 30
0.0
 11
-0.0
 21
1.3882638288
 31
0.0
 40
0.0174550649
 41
0.0174532925
 42
3.1241393611
  0
ELLIPSE
  5
53D
100
AcDbEntity
  8
DRAFT
100
AcDbEllipse
 62
7
  6
CONTINUOUS
 10
9.4870876087
 20
-2.95
 30
0.0
 11
0.0
 21
1.3882638288
 31
0.0
 40
0.0174550649
 41
-3.1241393611
 42
-0.0174532925
  0
ELLIPSE
  5
53E
100
AcDbEntity
  8
DRAFT
100
AcDbEllipse
 62
7
  6
CONTINUOUS
 10
-4.0
 20
4.6237644536
 30
0.0
 11
1.6515468786
 21
0.0
 31
0.0
 40
0.0174550649
 41
0.0174532925
 42
3.1241393611
  0
ELLIPSE
  5
53F
100
AcDbEntity
  8
DRAFT
100
AcDbEllipse
 62
7
  6
CONTINUOUS
 10
4.0
 20
4.6237644536
 30
0.0
 11
1.6515468786
 21
0.0
 31
0.0
 40
0.0174550649
 41
0.0174532925
 42
3.1241393611
  0
ELLIPSE
  5
540
100
AcDbEntity
  8
RACCORDO
100
AcDbEllipse
 62
7
  6
CONTINUOUS
 10
10.0721611869
 20
-1.208575216
 30
0.0
 11
0.4999238244
 21
0.500076164
 31
0.0
 40
0.0174524062
 41
-0.0000026587
 42
1.5533403756
  0
ELLIPSE
  5
541
100
AcDbEntity
  8
RACCORDO
100
AcDbEllipse
 62
7
  6
CONTINUOUS
 10
5.991424784
 20
5.2086513684
 30
0.0
 11
0.500076164
 21
0.4999238244
 31
0.0
 40
0.0174524062
 41
-1.5533403756
 42
0.0000026587
  0
ELLIPSE
  5
542
100
AcDbEntity
  8
RACCORDO
100
AcDbEllipse
 62
7
  6
CONTINUOUS
 10
-2.6571008885
 20
20.6307646241
 30
0.0
 11
0.0
 21
0.5
 31
0.0
 40
0.1875
 41
-0.7853981634
 42
-0.0174532925
  0
ELLIPSE
  5
543
100
AcDbEntity
  8
RACCORDO
100
AcDbEllipse
 62
7
  6
CONTINUOUS
 10
-2.008575216
 20
5.2086513684
 30
0.0
 11
0.500076164
 21
0.4999238244
 31
0.0
 40
0.0174524062
 41
-1.5533403756
 42
0.0000026587
  0
ELLIPSE
  5
544
100
AcDbEntity
  8
RACCORDO
100
AcDbEllipse
 62
7
  6
CONTINUOUS
 10
-10.0721611869
 20
-4.691424784
 30
0.0
 11
0.4999238244
 21
0.500076164
 31
0.0
 40
0.0174524062
 41
-3.1415953123
 42
-1.588252278
  0
ELLIPSE
  5
545
100
AcDbEntity
  8
RACCORDO
100
AcDbEllipse
 62
7
  6
CONTINUOUS
 10
2.008575216
 20
5.2086513684
 30
0.0
 11
0.500076164
 21
-0.4999238244
 31
0.0
 40
0.0174524062
 41
3.1415899949
 42
4.6949330292
  0
ELLIPSE
  5
546
100
AcDbEntity
  8
RACCORDO
100
AcDbEllipse
 62
7
  6
CONTINUOUS
 10
-10.0721611869
 20
-1.208575216
 30
0.0
 11
-0.4999238244
 21
0.500076164
 31
0.0
 40
0.0174524062
 41
-1.5533403756
 42
0.0000026587
  0
ELLIPSE
  5
547
100
AcDbEntity
  8
RACCORDO
100
AcDbEllipse
 62
7
  6
CONTINUOUS
 10
-5.991424784
 20
5.2086513684
 30
0.0
 11
0.500076164
 21
-0.4999238244
 31
0.0
 40
0.0174524062
 41
3.1415899949
 42
4.6949330292
  0
ELLIPSE
  5
548
100
AcDbEntity
  8
RACCORDO
100
AcDbEllipse
 62
7
  6
CONTINUOUS
 10
10.0721611869
 20
-4.691424784
 30
0.0
 11
-0.4999238244
 21
0.500076164
 31
0.0
 40
0.0174524062
 41
-4.6949330292
 42
-3.1415899949
  0
ELLIPSE
  5
549
100
AcDbEntity
  8
RACCORDO
100
AcDbEllipse
 62
7
  6
CONTINUOUS
 10
2.6571008885
 20
-20.6307646241
 30
0.0
 11
0.0
 21
0.5
 31
0.0
 40
0.1875
 41
-3.926990817
 42
-3.1590459461
  0
ENDSEC
  0
SECTION
  2
OBJECTS
  0
DICTIONARY
  5
C
100
AcDbDictionary
280
0
281
1
  3
ACAD_GROUP
350
D
  3
ACAD_MLINESTYLE
350
17
  3
ACAD_LAYOUT
350
1A
  3
ACAD_PLOTSETTINGS
350
19
  3
ACAD_PLOTSTYLENAME
350
E
  0
DICTIONARY
  5
D
102
{ACAD_REACTORS
330
C
102
}
100
AcDbDictionary
280
0
281
1
  0
ACDBDICTIONARYWDFLT
  5
E
102
{ACAD_REACTORS
330
C
102
}
100
AcDbDictionary
281
1
  3
Normal
350
F
100
AcDbDictionaryWithDefault
340
F
  0
DICTIONARY
  5
17
102
{ACAD_REACTORS
330
C
102
}
100
AcDbDictionary
280
0
281
1
  3
Standard
350
18
  0
DICTIONARY
  5
19
102
{ACAD_REACTORS
330
C
102
}
100
AcDbDictionary
281
1
  0
DICTIONARY
  5
1A
102
{ACAD_REACTORS
330
C
102
}
100
AcDbDictionary
281
1
  3
Model
350
54A
  3
Layout1
350
54B
  0
ACDBPLACEHOLDER
  5
F
102
{ACAD_REACTORS
330
E
102
}
  0
MLINESTYLE
  5
18
102
{ACAD_REACTORS
330
17
102
}
100
AcDbMlineStyle
  2
STANDARD
 70
0
  3

 62
256
 51
90.0
 52
90.0
 71
2
 49
0.5
 62
256
  6
BYLAYER
 49
-0.5
 62
256
  6
BYLAYER
  0
LAYOUT
  5
54A
102
{ACAD_REACTORS
330
1A
102
}
100
AcDbPlotSettings
  1

  2
none_device
  4
ISO_A4_(297.00_x_210.00_MM)
  6

 40
0.0
 41
0.0
 42
0.0
 43
0.0
 44
297.0
 45
210.0
 46
0.0
 47
0.0
 48
0.0
 49
0.0
140
0.0
141
0.0
142
1.0
143
1.0
 70
1024
 72
1
 73
0
 74
0
  7

 75
0
147
1.0
148
0.0
149
0.0
100
AcDbLayout
  1
Model
 70
0
 71
0
 10
0.0
 20
0.0
 11
297.0
 21
210.0
 12
0.0
 22
0.0
 32
0.0
 14
0.0
 24
0.0
 34
0.0
 15
0.0
 25
0.0
 35
0.0
146
0.0
 13
0.0
 23
0.0
 33
0.0
 16
1.0
 26
0.0
 36
0.0
 17
0.0
 27
1.0
 37
0.0
 76
0
330
212
345
0
346
0
  0
LAYOUT
  5
54B
102
{ACAD_REACTORS
330
1A
102
}
100
AcDbPlotSettings
  1

  2
none_device
  4
ISO_A4_(297.00_x_210.00_MM)
  6

 40
0.0
 41
0.0
 42
0.0
 43
0.0
 44
297.0
 45
210.0
 46
0.0
 47
0.0
 48
0.0
 49
0.0
140
0.0
141
0.0
142
1.0
143
1.0
 70
0
 72
1
 73
0
 74
0
  7

 75
0
147
1.0
148
0.0
149
0.0
100
AcDbLayout
  1
Layout1
 70
0
 71
1
 10
0.0
 20
0.0
 11
297.0
 21
210.0
 12
0.0
 22
0.0
 32
0.0
 14
0.0
 24
0.0
 34
0.0
 15
0.0
 25
0.0
 35
0.0
146
0.0
 13
0.0
 23
0.0
 33
0.0
 16
1.0
 26
0.0
 36
0.0
 17
0.0
 27
1.0
 37
0.0
 76
0
330
213
345
0
346
0
  0
ENDSEC
  0
EOF
