0
SECTION
2
HEADER
9
$ACADVER
1
AC1015
9
$DWGCODEPAGE
3
ANSI_1252
9
$EXTMAX
10
297.0000000000
20
210.0000000000
30
0.0000000000
9
$EXTMIN
10
0.0000000000
20
0.0000000000
30
0.0000000000
9
$LIMMIN
10
0.0000000000
20
0.0000000000
9
$LIMMAX
10
297.0000000000
20
210.0000000000
9
$VIEWCTR
10
148.5000000000
20
105.0000000000
9
$VIEWSIZE
40
210.0000000000
9
$CLAYER
8
0
9
$LTSCALE
40
16.3350000000
9
$CELTYPE
6
BYLAYER
9
$DIMSCALE
40
1
9
$DIMASZ
40
3.0000000000
9
$DIMEXO
40
1.8562500000
9
$DIMDLI
40
11.2860000000
9
$DIMEXE
40
5.3460000000
9
$DIMCEN
40
2.6730000000
9
$DIMLFAC
40
1.0000000000
9
$DIMBLK
1
_FILLED
9
$DIMTXT
40
3.0000000000
9
$DIMTOL
70
1
9
$DIMLIM
70
0
9
$DIMTFAC
40
1.0000000000
9
$DIMTP
40
0.0100000000
9
$DIMTM
40
0.0100000000
9
$PDMODE
70
3
9
$PDSIZE
40
3.0000000000
9
$HANDSEED
5
4D1
9
$MEASUREMENT
70
1
9
$INSUNITS
70
4
0
ENDSEC
0
SECTION
2
CLASSES
0
CLASS
1
ACDBDICTIONARYWDFLT
2
AcDbDictionaryWithDefault
3
AutoCAD 2000
90
0
280
0
281
0
0
CLASS
1
ACDBPLACEHOLDER
2
AcDbPlaceHolder
3
AutoCAD 2000
90
0
280
0
281
0
0
CLASS
1
LAYOUT
2
AcDbLayout
3
AutoCAD 2000
90
0
280
0
281
0
0
ENDSEC
0
SECTION
2
TABLES
0
TABLE
2
VPORT
5
8
100
AcDbSymbolTable
70
2
0
VPORT
5
1F4
100
AcDbSymbolTableRecord
100
AcDbViewportTableRecord
2
*ACTIVE
70
0
10
0.0
20
0.0
11
1.0
21
1.0
12
148.5000000000
22
105.0000000000
13
0.0
23
0.0
14
1.0
24
1.0
15
0.0
25
0.0
16
0.0
26
0.0
36
1.0
17
0.0
27
0.0
37
0.0
40
210.0000000000
41
1.4142857143
42
50.0
43
0.0
44
0.0
50
0.0
51
0.0
71
0
72
100
73
1
74
1
75
0
76
0
77
0
78
0
0
ENDTAB
0
TABLE
2
LTYPE
5
5
100
AcDbSymbolTable
70
6
0
LTYPE
5
14
100
AcDbSymbolTableRecord
100
AcDbLinetypeTableRecord
2
BYBLOCK
70
0
3

72
65
73
0
40
0.0
0
LTYPE
5
15
100
AcDbSymbolTableRecord
100
AcDbLinetypeTableRecord
2
BYLAYER
70
0
3

72
65
73
0
40
0.0
0
LTYPE
5
16
100
AcDbSymbolTableRecord
100
AcDbLinetypeTableRecord
2
CONTINUOUS
70
64
3
Solid line
72
65
73
0
40
0
0
LTYPE
5
1F5
100
AcDbSymbolTableRecord
100
AcDbLinetypeTableRecord
2
CENTER
70
64
3
____ _ ____ _ ____ _ ____ _ ____ _ ____ _ ____
72
65
73
4
40
0.6
49
0.375
74
0
49
-0.075
74
0
49
0.075
74
0
49
-0.075
74
0
0
LTYPE
5
1F6
100
AcDbSymbolTableRecord
100
AcDbLinetypeTableRecord
2
HIDDEN
70
64
3
- - - - - - - - - - - - - - - - - - - -
72
65
73
2
40
0.2
49
0.1
74
0
49
-0.1
74
0
0
LTYPE
5
1F7
100
AcDbSymbolTableRecord
100
AcDbLinetypeTableRecord
2
PHANTOM
70
64
3
_____ _ _ _____ _ _ _____ _ _ _____
72
65
73
6
40
0.8
49
0.45
74
0
49
-0.05
74
0
49
0.1
74
0
49
-0.05
74
0
49
0.1
74
0
49
-0.05
74
0
0
LTYPE
5
1F8
100
AcDbSymbolTableRecord
100
AcDbLinetypeTableRecord
2
DOT
70
64
3
. . . . . . . . . . . . . . . . . . . .
72
65
73
2
40
0.2
49
0.1
74
0
49
-0.1
74
0
0
LTYPE
5
1F9
100
AcDbSymbolTableRecord
100
AcDbLinetypeTableRecord
2
DASHED
70
64
3
- - - - - - - - - - - - - - - - - - - -
72
65
73
2
40
0.2
49
0.1
74
0
49
-0.1
74
0
0
ENDTAB
0
TABLE
2
LAYER
5
2
100
AcDbSymbolTable
70
36
0
LAYER
5
10
100
AcDbSymbolTableRecord
100
AcDbLayerTableRecord
2
0
70
0
62
7
6
CONTINUOUS
370
-3
390
F
0
LAYER
5
1FA
100
AcDbSymbolTableRecord
100
AcDbLayerTableRecord
2
DEFAULT_1
70
0
62
7
6
CENTER
370
-3
390
F
0
LAYER
5
1FB
100
AcDbSymbolTableRecord
100
AcDbLayerTableRecord
2
DEFAULT_2
70
0
62
8
6
HIDDEN
370
-3
390
F
0
LAYER
5
1FC
100
AcDbSymbolTableRecord
100
AcDbLayerTableRecord
2
DEFAULT_3
70
0
62
7
6
PHANTOM
370
-3
390
F
0
LAYER
5
1FD
100
AcDbSymbolTableRecord
100
AcDbLayerTableRecord
2
ASSI
70
0
62
7
6
CONTINUOUS
370
-3
390
F
0
LAYER
5
1FE
100
AcDbSymbolTableRecord
100
AcDbLayerTableRecord
2
COORDINATE
70
0
62
7
6
CONTINUOUS
370
-3
390
F
0
LAYER
5
1FF
100
AcDbSymbolTableRecord
100
AcDbLayerTableRecord
2
COORD_ORIGINE
70
0
62
7
6
CONTINUOUS
370
-3
390
F
0
LAYER
5
200
100
AcDbSymbolTableRecord
100
AcDbLayerTableRecord
2
CURVE
70
0
62
7
6
CONTINUOUS
370
-3
390
F
0
LAYER
5
201
100
AcDbSymbolTableRecord
100
AcDbLayerTableRecord
2
DRAFT
70
0
62
7
6
CONTINUOUS
370
-3
390
F
0
LAYER
5
202
100
AcDbSymbolTableRecord
100
AcDbLayerTableRecord
2
IMPORT_FEATURES
70
0
62
7
6
CONTINUOUS
370
-3
390
F
0
LAYER
5
203
100
AcDbSymbolTableRecord
100
AcDbLayerTableRecord
2
INTF_1
70
0
62
7
6
CONTINUOUS
370
-3
390
F
0
LAYER
5
204
100
AcDbSymbolTableRecord
100
AcDbLayerTableRecord
2
NOTE
70
0
62
7
6
CONTINUOUS
370
-3
390
F
0
LAYER
5
205
100
AcDbSymbolTableRecord
100
AcDbLayerTableRecord
2
PIANI
70
0
62
7
6
CONTINUOUS
370
-3
390
F
0
LAYER
5
206
100
AcDbSymbolTableRecord
100
AcDbLayerTableRecord
2
PIANI_ORIGINE
70
0
62
7
6
CONTINUOUS
370
-3
390
F
0
LAYER
5
207
100
AcDbSymbolTableRecord
100
AcDbLayerTableRecord
2
PUNTI
70
0
62
7
6
CONTINUOUS
370
-3
390
F
0
LAYER
5
208
100
AcDbSymbolTableRecord
100
AcDbLayerTableRecord
2
RACCORDO
70
0
62
7
6
CONTINUOUS
370
-3
390
F
0
LAYER
5
209
100
AcDbSymbolTableRecord
100
AcDbLayerTableRecord
2
RGB____0____0____0__
70
0
62
7
6
CONTINUOUS
370
-3
390
F
0
LAYER
5
20A
100
AcDbSymbolTableRecord
100
AcDbLayerTableRecord
2
SMUSSO
70
0
62
7
6
CONTINUOUS
370
-3
390
F
0
LAYER
5
20B
100
AcDbSymbolTableRecord
100
AcDbLayerTableRecord
2
SUPERFICI
70
0
62
7
6
CONTINUOUS
370
-3
390
F
0
LAYER
5
20C
100
AcDbSymbolTableRecord
100
AcDbLayerTableRecord
2
TRASH
70
0
62
7
6
CONTINUOUS
370
-3
390
F
0
ENDTAB
0
TABLE
2
STYLE
5
3
100
AcDbSymbolTable
70
1
0
STYLE
5
11
100
AcDbSymbolTableRecord
100
AcDbTextStyleTableRecord
2
STANDARD
70
0
40
0.0
41
0.8000000000
50
0.0
71
0
42
0.2
3
txt
4

0
ENDTAB
0
TABLE
2
VIEW
5
6
100
AcDbSymbolTable
70
0
0
ENDTAB
0
TABLE
2
UCS
5
7
100
AcDbSymbolTable
70
0
0
ENDTAB
0
TABLE
2
APPID
5
9
100
AcDbSymbolTable
70
1
0
APPID
5
20D
100
AcDbSymbolTableRecord
100
AcDbRegAppTableRecord
2
ACAD
70
0
0
ENDTAB
0
TABLE
2
BLOCK_RECORD
5
1
100
AcDbSymbolTable
70
0
0
BLOCK_RECORD
5
1F
100
AcDbSymbolTableRecord
100
AcDbBlockTableRecord
2
*MODEL_SPACE
0
BLOCK_RECORD
5
1B
100
AcDbSymbolTableRecord
100
AcDbBlockTableRecord
2
*PAPER_SPACE
0
ENDTAB
0
TABLE
2
DIMSTYLE
5
A
100
AcDbSymbolTable
70
1
100
AcDbDimStyleTable
71
0
0
DIMSTYLE
105
20E
100
AcDbSymbolTableRecord
100
AcDbDimStyleTableRecord
2
STANDARD
70
0
3

4

40
1.0
41
3.0000000000
42
0.0625
43
0.38
44
0.18
45
0.0
46
0.0
47
0.0100000000
48
0.0100000000
140
3.0000000000
141
0.09
142
0.0
143
25.4
144
1.0000000000
145
0.0
146
1.0000000000
147
0.09
71
1
72
0
73
0
74
0
75
0
76
0
77
1
78
8
170
0
171
2
172
0
173
0
174
0
175
0
176
0
177
0
178
0
270
2
271
2
272
2
273
2
274
2
275
0
280
0
281
0
282
0
283
1
284
8
285
0
286
0
287
3
288
0
340
11
0
ENDTAB
0
ENDSEC
0
SECTION
2
BLOCKS
0
BLOCK
5
20
100
AcDbEntity
8
0
100
AcDbBlockBegin
2
*MODEL_SPACE
70
0
10
0.0
20
0.0
30
0.0
3
*MODEL_SPACE
1

0
ENDBLK
5
21
100
AcDbEntity
8
0
100
AcDbBlockEnd
0
BLOCK
5
1C
100
AcDbEntity
8
0
100
AcDbBlockBegin
2
*PAPER_SPACE
70
0
10
0.0
20
0.0
30
0.0
3
*PAPER_SPACE
1

0
ENDBLK
5
1D
100
AcDbEntity
8
0
100
AcDbBlockEnd
0
ENDSEC
0
SECTION
2
ENTITIES
0
LINE
5
20F
100
AcDbEntity
8
0
100
AcDbLine
62
7
6
CONTINUOUS
10
-3.6748577666
20
-23.5000000000
11
3.6748577666
21
-23.5000000000
0
LINE
5
210
100
AcDbEntity
8
0
100
AcDbLine
62
7
6
CONTINUOUS
10
3.3633443637
20
-23.4668353766
11
-3.3633443637
21
-23.4668353766
0
LINE
5
211
100
AcDbEntity
8
0
100
AcDbLine
62
7
6
CONTINUOUS
10
3.6537910750
20
-23.4301797403
11
3.4000000000
21
-23.4301797403
0
LINE
5
212
100
AcDbEntity
8
0
100
AcDbLine
62
7
6
CONTINUOUS
10
-3.4000000000
20
-23.4301797403
11
-3.6537910750
21
-23.4301797403
0
LINE
5
213
100
AcDbEntity
8
0
100
AcDbLine
62
7
6
CONTINUOUS
10
-3.0300365522
20
-23.3750000000
11
3.0300365522
21
-23.3750000000
0
LINE
5
214
100
AcDbEntity
8
0
100
AcDbLine
62
9
6
CONTINUOUS
10
-3.0154690987
20
-23.3164213562
11
3.0154690987
21
-23.3164213562
0
LINE
5
215
100
AcDbEntity
8
0
100
AcDbLine
62
9
6
CONTINUOUS
10
-3.2301584610
20
-23.1750000000
11
-3.2153472641
21
-23.1750000000
0
LINE
5
216
100
AcDbEntity
8
0
100
AcDbLine
62
9
6
CONTINUOUS
10
3.2153472641
20
-23.1750000000
11
3.2301584610
21
-23.1750000000
0
LINE
5
217
100
AcDbEntity
8
0
100
AcDbLine
62
7
6
CONTINUOUS
10
3.3633443637
20
-22.5000000000
11
3.2301584610
21
-22.5000000000
0
LINE
5
218
100
AcDbEntity
8
0
100
AcDbLine
62
7
6
CONTINUOUS
10
-3.2301584610
20
-22.5000000000
11
-3.3633443637
21
-22.5000000000
0
LINE
5
219
100
AcDbEntity
8
0
100
AcDbLine
62
7
6
CONTINUOUS
10
-10.6503805997
20
-22.4000000000
11
-5.5445583437
21
-22.4000000000
0
LINE
5
21A
100
AcDbEntity
8
0
100
AcDbLine
62
7
6
CONTINUOUS
10
-3.3848722771
20
-22.4000000000
11
-3.3000000000
21
-22.4000000000
0
LINE
5
21B
100
AcDbEntity
8
0
100
AcDbLine
62
7
6
CONTINUOUS
10
3.3000000000
20
-22.4000000000
11
3.3848722771
21
-22.4000000000
0
LINE
5
21C
100
AcDbEntity
8
0
100
AcDbLine
62
7
6
CONTINUOUS
10
5.5445583437
20
-22.4000000000
11
10.6503805997
21
-22.4000000000
0
LINE
5
21D
100
AcDbEntity
8
0
100
AcDbLine
62
7
6
CONTINUOUS
10
-2.6554647254
20
-21.1306884717
11
-3.1000000000
21
-21.1720718961
0
LINE
5
21E
100
AcDbEntity
8
0
100
AcDbLine
62
7
6
CONTINUOUS
10
-3.2986525290
20
-21.1905651910
11
-3.3631544652
21
-21.1965699136
0
LINE
5
21F
100
AcDbEntity
8
0
100
AcDbLine
62
7
6
CONTINUOUS
10
3.1000000000
20
-22.2000000000
11
-3.1000000000
21
-22.2000000000
0
LINE
5
220
100
AcDbEntity
8
0
100
AcDbLine
62
9
6
CONTINUOUS
10
3.1705494094
20
-21.8921572875
11
3.1000000000
21
-21.8921572875
0
LINE
5
221
100
AcDbEntity
8
0
100
AcDbLine
62
9
6
CONTINUOUS
10
-3.1705494094
20
-21.8921572875
11
-3.1000000000
21
-21.8921572875
0
LINE
5
222
100
AcDbEntity
8
0
100
AcDbLine
62
7
6
CONTINUOUS
10
2.7167632191
20
-21.6560705017
11
-2.7167632191
21
-21.6560705017
0
LINE
5
223
100
AcDbEntity
8
0
100
AcDbLine
62
9
6
CONTINUOUS
10
6.7022433077
20
-21.3965394526
11
3.4000000000
21
-21.3965394526
0
LINE
5
224
100
AcDbEntity
8
0
100
AcDbLine
62
9
6
CONTINUOUS
10
-3.4000000000
20
-21.3965394526
11
-6.7022433077
21
-21.3965394526
0
LINE
5
225
100
AcDbEntity
8
0
100
AcDbLine
62
9
6
CONTINUOUS
10
3.1705494094
20
-21.2941832525
11
3.1000000000
21
-21.2941832525
0
LINE
5
226
100
AcDbEntity
8
0
100
AcDbLine
62
9
6
CONTINUOUS
10
-3.1705494094
20
-21.2941832525
11
-3.1000000000
21
-21.2941832525
0
LINE
5
227
100
AcDbEntity
8
0
100
AcDbLine
62
9
6
CONTINUOUS
10
6.7466556736
20
-21.1965699136
11
3.3631544652
21
-21.1965699136
0
LINE
5
228
100
AcDbEntity
8
0
100
AcDbLine
62
9
6
CONTINUOUS
10
-3.3631544652
20
-21.1965699136
11
-6.7466556736
21
-21.1965699136
0
LINE
5
229
100
AcDbEntity
8
0
100
AcDbLine
62
7
6
CONTINUOUS
10
3.2986525290
20
-21.1905651910
11
3.1000000000
21
-21.1905651910
0
LINE
5
22A
100
AcDbEntity
8
0
100
AcDbLine
62
7
6
CONTINUOUS
10
-3.1000000000
20
-21.1905651910
11
-3.2986525290
21
-21.1905651910
0
LINE
5
22B
100
AcDbEntity
8
0
100
AcDbLine
62
9
6
CONTINUOUS
10
6.7220015127
20
-21.1306884717
11
2.6554647254
21
-21.1306884717
0
LINE
5
22C
100
AcDbEntity
8
0
100
AcDbLine
62
9
6
CONTINUOUS
10
-2.6554647254
20
-21.1306884717
11
-6.7220015127
21
-21.1306884717
0
LINE
5
22D
100
AcDbEntity
8
0
100
AcDbLine
62
9
6
CONTINUOUS
10
6.7219620243
20
-20.9843180147
11
2.5908096278
21
-20.9843180147
0
LINE
5
22E
100
AcDbEntity
8
0
100
AcDbLine
62
9
6
CONTINUOUS
10
-2.5908096278
20
-20.9843180147
11
-6.7219621303
21
-20.9843180147
0
LINE
5
22F
100
AcDbEntity
8
0
100
AcDbLine
62
7
6
CONTINUOUS
10
8.9005708996
20
-20.9000000000
11
7.3789613615
21
-20.9000000000
0
LINE
5
230
100
AcDbEntity
8
0
100
AcDbLine
62
7
6
CONTINUOUS
10
-7.3789613615
20
-20.9000000000
11
-8.9005708996
21
-20.9000000000
0
LINE
5
231
100
AcDbEntity
8
0
100
AcDbLine
62
7
6
CONTINUOUS
10
3.3631544652
20
-21.1965699136
11
3.2986525290
21
-21.1905651910
0
LINE
5
232
100
AcDbEntity
8
0
100
AcDbLine
62
7
6
CONTINUOUS
10
3.1000000000
20
-21.1720718961
11
2.6554647254
21
-21.1306884717
0
LINE
5
233
100
AcDbEntity
8
0
100
AcDbLine
62
7
6
CONTINUOUS
10
-3.4000000000
20
23.4301797403
11
-3.3633443637
21
23.4668353766
0
LINE
5
234
100
AcDbEntity
8
0
100
AcDbLine
62
9
6
CONTINUOUS
10
-8.7730563203
20
-20.5171451693
11
-7.8030257335
21
-20.5171451693
0
LINE
5
235
100
AcDbEntity
8
0
100
AcDbLine
62
9
6
CONTINUOUS
10
7.8030257335
20
-20.5171451693
11
8.7730563203
21
-20.5171451693
0
LINE
5
236
100
AcDbEntity
8
0
100
AcDbLine
62
9
6
CONTINUOUS
10
-8.7730563203
20
-20.2297306704
11
-8.1039313083
21
-20.2297306704
0
LINE
5
237
100
AcDbEntity
8
0
100
AcDbLine
62
9
6
CONTINUOUS
10
8.1039313083
20
-20.2297306704
11
8.7730563203
21
-20.2297306704
0
LINE
5
238
100
AcDbEntity
8
0
100
AcDbLine
62
9
6
CONTINUOUS
10
7.7471659548
20
-20.0210169973
11
-7.7471659548
21
-20.0210169973
0
LINE
5
239
100
AcDbEntity
8
0
100
AcDbLine
62
9
6
CONTINUOUS
10
8.0838316893
20
-19.8160983575
11
-8.0838316893
21
-19.8160983575
0
LINE
5
23A
100
AcDbEntity
8
0
100
AcDbLine
62
9
6
CONTINUOUS
10
-7.9141765766
20
-19.4085752160
11
7.9141765766
21
-19.4085752160
0
LINE
5
23B
100
AcDbEntity
8
0
100
AcDbLine
62
9
6
CONTINUOUS
10
-7.9141749720
20
-18.9086513684
11
7.9141748818
21
-18.9086513684
0
LINE
5
23C
100
AcDbEntity
8
0
100
AcDbLine
62
7
6
CONTINUOUS
10
-3.4000000000
20
-23.4301797403
11
-3.3633443637
21
-23.4668353766
0
LINE
5
23D
100
AcDbEntity
8
0
100
AcDbLine
62
7
6
CONTINUOUS
10
-4.3189770000
20
-16.5740120000
11
-4.1636160000
21
-16.5740120000
0
LINE
5
23E
100
AcDbEntity
8
0
100
AcDbLine
62
7
6
CONTINUOUS
10
-3.3660160000
20
-16.5740120000
11
-3.2058420000
21
-16.5740120000
0
LINE
5
23F
100
AcDbEntity
8
0
100
AcDbLine
62
7
6
CONTINUOUS
10
-2.5106670000
20
-16.5740120000
11
-2.3409590000
21
-16.5740120000
0
LINE
5
240
100
AcDbEntity
8
0
100
AcDbLine
62
7
6
CONTINUOUS
10
-1.9085620000
20
-16.5740120000
11
-1.7532010000
21
-16.5740120000
0
LINE
5
241
100
AcDbEntity
8
0
100
AcDbLine
62
7
6
CONTINUOUS
10
-1.2022180000
20
-16.5740120000
11
-1.0356880000
21
-16.5740120000
0
LINE
5
242
100
AcDbEntity
8
0
100
AcDbLine
62
7
6
CONTINUOUS
10
-0.3133630000
20
-16.5740120000
11
-0.1580020000
21
-16.5740120000
0
LINE
5
243
100
AcDbEntity
8
0
100
AcDbLine
62
7
6
CONTINUOUS
10
0.7549160000
20
-16.5740120000
11
1.6038180000
21
-16.5740120000
0
LINE
5
244
100
AcDbEntity
8
0
100
AcDbLine
62
7
6
CONTINUOUS
10
1.8072130000
20
-16.5740120000
11
1.9577620000
21
-16.5740120000
0
LINE
5
245
100
AcDbEntity
8
0
100
AcDbLine
62
7
6
CONTINUOUS
10
2.5456110000
20
-16.5740120000
11
2.7201310000
21
-16.5740120000
0
LINE
5
246
100
AcDbEntity
8
0
100
AcDbLine
62
7
6
CONTINUOUS
10
2.9715600000
20
-16.5740120000
11
3.4376442264
21
-16.5740120000
0
LINE
5
247
100
AcDbEntity
8
0
100
AcDbLine
62
7
6
CONTINUOUS
10
4.1375410000
20
-16.5740120000
11
4.3041620000
21
-16.5740120000
0
LINE
5
248
100
AcDbEntity
8
0
100
AcDbLine
62
7
6
CONTINUOUS
10
3.4168489984
20
-16.4410790000
11
3.1269210000
21
-16.4410790000
0
LINE
5
249
100
AcDbEntity
8
0
100
AcDbLine
62
7
6
CONTINUOUS
10
1.6038180000
20
-16.4362660000
11
0.9102770000
21
-16.4362660000
0
LINE
5
24A
100
AcDbEntity
8
0
100
AcDbLine
62
7
6
CONTINUOUS
10
4.3041620000
20
-16.4042130000
11
4.1375410000
21
-16.4042130000
0
LINE
5
24B
100
AcDbEntity
8
0
100
AcDbLine
62
7
6
CONTINUOUS
10
-1.0356880000
20
-16.4042130000
11
-1.2022180000
21
-16.4042130000
0
LINE
5
24C
100
AcDbEntity
8
0
100
AcDbLine
62
7
6
CONTINUOUS
10
-3.0857120000
20
-16.2392270000
11
-2.6244410000
21
-16.2392270000
0
LINE
5
24D
100
AcDbEntity
8
0
100
AcDbLine
62
7
6
CONTINUOUS
10
-2.6805560000
20
-16.1014820000
11
-3.0376780000
21
-16.1014820000
0
LINE
5
24E
100
AcDbEntity
8
0
100
AcDbLine
62
7
6
CONTINUOUS
10
-4.1636160000
20
-16.0886790000
11
-3.8016847756
21
-16.0886790000
0
LINE
5
24F
100
AcDbEntity
8
0
100
AcDbLine
62
7
6
CONTINUOUS
10
-0.1580020000
20
-16.0886790000
11
0.2039291210
21
-16.0886790000
0
LINE
5
250
100
AcDbEntity
8
0
100
AcDbLine
62
7
6
CONTINUOUS
10
0.9102770000
20
-16.0519040000
11
1.5398030000
21
-16.0519040000
0
LINE
5
251
100
AcDbEntity
8
0
100
AcDbLine
62
7
6
CONTINUOUS
10
0.1575355104
20
-15.9557450000
11
-0.1580020000
21
-15.9557450000
0
LINE
5
252
100
AcDbEntity
8
0
100
AcDbLine
62
7
6
CONTINUOUS
10
-3.8480783861
20
-15.9557450000
11
-4.1636160000
21
-15.9557450000
0
LINE
5
253
100
AcDbEntity
8
0
100
AcDbLine
62
9
6
CONTINUOUS
10
10.0721611869
20
-15.9176243207
11
10.5720850344
21
-15.9176243207
0
LINE
5
254
100
AcDbEntity
8
0
100
AcDbLine
62
9
6
CONTINUOUS
10
-10.0721611869
20
-15.9176243207
11
-10.5720850344
21
-15.9176243194
0
LINE
5
255
100
AcDbEntity
8
0
100
AcDbLine
62
7
6
CONTINUOUS
10
1.5398030000
20
-15.9141580000
11
0.9102770000
21
-15.9141580000
0
LINE
5
256
100
AcDbEntity
8
0
100
AcDbLine
62
7
6
CONTINUOUS
10
-2.2977370000
20
-15.5617580000
11
-1.9085620000
21
-15.5617580000
0
LINE
5
257
100
AcDbEntity
8
0
100
AcDbLine
62
7
6
CONTINUOUS
10
-1.7532010000
20
-15.5617580000
11
-1.3640260000
21
-15.5617580000
0
LINE
5
258
100
AcDbEntity
8
0
100
AcDbLine
62
7
6
CONTINUOUS
10
0.9102770000
20
-15.5617580000
11
1.5926500000
21
-15.5617580000
0
LINE
5
259
100
AcDbEntity
8
0
100
AcDbLine
62
7
6
CONTINUOUS
10
-4.1636160000
20
-15.5569450000
11
-3.8480848960
21
-15.5569450000
0
LINE
5
25A
100
AcDbEntity
8
0
100
AcDbLine
62
7
6
CONTINUOUS
10
-0.1580020000
20
-15.5569450000
11
0.1575290006
21
-15.5569450000
0
LINE
5
25B
100
AcDbEntity
8
0
100
AcDbLine
62
7
6
CONTINUOUS
10
3.1269210000
20
-15.5569450000
11
3.4168477804
21
-15.5569450000
0
LINE
5
25C
100
AcDbEntity
8
0
100
AcDbLine
62
7
6
CONTINUOUS
10
3.4376430872
20
-15.4240120000
11
2.9715600000
21
-15.4240120000
0
LINE
5
25D
100
AcDbEntity
8
0
100
AcDbLine
62
7
6
CONTINUOUS
10
2.7201310000
20
-15.4240120000
11
2.5695820000
21
-15.4240120000
0
LINE
5
25E
100
AcDbEntity
8
0
100
AcDbLine
62
7
6
CONTINUOUS
10
1.9914490000
20
-15.4240120000
11
1.8072130000
21
-15.4240120000
0
LINE
5
25F
100
AcDbEntity
8
0
100
AcDbLine
62
7
6
CONTINUOUS
10
1.5926500000
20
-15.4240120000
11
0.7549160000
21
-15.4240120000
0
LINE
5
260
100
AcDbEntity
8
0
100
AcDbLine
62
7
6
CONTINUOUS
10
0.2039319498
20
-15.4240120000
11
-0.3133630000
21
-15.4240120000
0
LINE
5
261
100
AcDbEntity
8
0
100
AcDbLine
62
7
6
CONTINUOUS
10
-1.3640260000
20
-15.4240120000
11
-2.2977370000
21
-15.4240120000
0
LINE
5
262
100
AcDbEntity
8
0
100
AcDbLine
62
7
6
CONTINUOUS
10
-2.7573740000
20
-15.4240120000
11
-2.9335290000
21
-15.4240120000
0
LINE
5
263
100
AcDbEntity
8
0
100
AcDbLine
62
7
6
CONTINUOUS
10
-3.8016819468
20
-15.4240120000
11
-4.3189770000
21
-15.4240120000
0
LINE
5
264
100
AcDbEntity
8
0
100
AcDbLine
62
7
6
CONTINUOUS
10
-3.2301584610
20
22.5048155586
11
-3.3000000000
21
22.4000000000
0
LINE
5
265
100
AcDbEntity
8
0
100
AcDbLine
62
9
6
CONTINUOUS
10
-3.2395930226
20
21.1905651910
11
-3.1705494094
21
21.2941832525
0
LINE
5
266
100
AcDbEntity
8
0
100
AcDbLine
62
7
6
CONTINUOUS
10
-3.3000000000
20
-22.4000000000
11
-3.2301584610
21
-22.5048155586
0
LINE
5
267
100
AcDbEntity
8
0
100
AcDbLine
62
9
6
CONTINUOUS
10
-3.1705494094
20
-21.2941832525
11
-3.2395930226
21
-21.1905651910
0
LINE
5
268
100
AcDbEntity
8
0
100
AcDbLine
62
7
6
CONTINUOUS
10
-11.1500000000
20
21.8997711479
11
-11.1500000000
21
-21.8997711479
0
LINE
5
269
100
AcDbEntity
8
0
100
AcDbLine
62
9
6
CONTINUOUS
10
-10.9665695018
20
6.5858330989
11
-10.9665695018
21
16.0558086086
0
LINE
5
26A
100
AcDbEntity
8
0
100
AcDbLine
62
9
6
CONTINUOUS
10
-10.5720850344
20
5.2086513684
11
-10.5720850344
21
-0.7084990752
0
LINE
5
26B
100
AcDbEntity
8
0
100
AcDbLine
62
9
6
CONTINUOUS
10
-10.5720850344
20
-5.1915009248
11
-10.5720850344
21
-15.9176243207
0
LINE
5
26C
100
AcDbEntity
8
0
100
AcDbLine
62
9
6
CONTINUOUS
10
-10.4666456542
20
6.5858330989
11
-10.4666456542
21
16.0558086086
0
LINE
5
26D
100
AcDbEntity
8
0
100
AcDbLine
62
7
6
CONTINUOUS
10
-7.5000000000
20
-11.0000000000
11
7.5000000000
21
-11.0000000000
0
LINE
5
26E
100
AcDbEntity
8
0
100
AcDbLine
62
7
6
CONTINUOUS
10
-10.5720850344
20
-5.1915009248
11
-10.9254573825
21
-4.8381285768
0
LINE
5
26F
100
AcDbEntity
8
0
100
AcDbLine
62
7
6
CONTINUOUS
10
-10.0632812915
20
-4.7000000000
11
-10.4252289020
21
-4.3380523895
0
LINE
5
270
100
AcDbEntity
8
0
100
AcDbLine
62
9
6
CONTINUOUS
10
-9.2223975165
20
19.7783034685
11
-9.2219556557
21
19.0982164442
0
LINE
5
271
100
AcDbEntity
8
0
100
AcDbLine
62
9
6
CONTINUOUS
10
-10.0721611869
20
-4.7088771902
11
-10.0721611869
21
-15.9176243207
0
LINE
5
272
100
AcDbEntity
8
0
100
AcDbLine
62
9
6
CONTINUOUS
10
-10.0721611869
20
-1.1911228098
11
-10.0721611869
21
5.7085752160
0
LINE
5
273
100
AcDbEntity
8
0
100
AcDbLine
62
7
6
CONTINUOUS
10
-9.6500000000
20
20.1496567219
11
-9.6500000000
21
18.6319562297
0
LINE
5
274
100
AcDbEntity
8
0
100
AcDbLine
62
7
6
CONTINUOUS
10
-9.6500000000
20
-18.6319562297
11
-9.6500000000
21
-20.1496567219
0
LINE
5
275
100
AcDbEntity
8
0
100
AcDbLine
62
7
6
CONTINUOUS
10
-9.1500000000
20
-4.6755629091
11
-9.1500000000
21
-1.2244370909
0
LINE
5
276
100
AcDbEntity
8
0
100
AcDbLine
62
7
6
CONTINUOUS
10
-9.1255629091
20
-4.7000000000
11
-9.1255629091
21
-1.2000000000
0
LINE
5
277
100
AcDbEntity
8
0
100
AcDbLine
62
9
6
CONTINUOUS
10
-8.7730563203
20
20.5171451693
11
-8.7730563203
21
20.2297306704
0
LINE
5
278
100
AcDbEntity
8
0
100
AcDbLine
62
9
6
CONTINUOUS
10
-8.7730563203
20
-20.5171451693
11
-8.7730563203
21
-20.2297306704
0
LINE
5
279
100
AcDbEntity
8
0
100
AcDbLine
62
9
6
CONTINUOUS
10
-9.2155896060
20
-1.2900266969
11
-9.2159313381
21
-4.6096315710
0
LINE
5
27A
100
AcDbEntity
8
0
100
AcDbLine
62
9
6
CONTINUOUS
10
-9.2219483227
20
-19.0982243956
11
-9.2223975165
21
-19.7783034685
0
LINE
5
27B
100
AcDbEntity
8
0
100
AcDbLine
62
7
6
CONTINUOUS
10
-6.1513715273
20
6.0487046135
11
-6.4915009248
21
5.7085752160
0
LINE
5
27C
100
AcDbEntity
8
0
100
AcDbLine
62
9
6
CONTINUOUS
10
-10.9254573825
20
-1.0618714232
11
-10.4252289020
21
-1.5619476105
0
LINE
5
27D
100
AcDbEntity
8
0
100
AcDbLine
62
7
6
CONTINUOUS
10
-9.1255629091
20
-4.7000000000
11
-9.4875105196
21
-4.3380523895
0
LINE
5
27E
100
AcDbEntity
8
0
100
AcDbLine
62
9
6
CONTINUOUS
10
-8.0784266484
20
19.8030596834
11
-8.0784266484
21
19.3031358358
0
LINE
5
27F
100
AcDbEntity
8
0
100
AcDbLine
62
9
6
CONTINUOUS
10
-7.9141766428
20
-18.9086513684
11
-7.9141766428
21
-19.4085752160
0
LINE
5
280
100
AcDbEntity
8
0
100
AcDbLine
62
7
6
CONTINUOUS
10
-7.5000000000
20
-1.0000000000
11
-7.5000000000
21
-11.0000000000
0
LINE
5
281
100
AcDbEntity
8
0
100
AcDbLine
62
9
6
CONTINUOUS
10
-6.7466556736
20
-21.1965699136
11
-6.7466556736
21
-21.3591170406
0
LINE
5
282
100
AcDbEntity
8
0
100
AcDbLine
62
9
6
CONTINUOUS
10
-6.7466556734
20
21.1965699136
11
-6.7466556734
21
21.3591170407
0
LINE
5
283
100
AcDbEntity
8
0
100
AcDbLine
62
9
6
CONTINUOUS
10
-6.7220012112
20
21.1306884717
11
-6.7220012112
21
20.9843180147
0
LINE
5
284
100
AcDbEntity
8
0
100
AcDbLine
62
9
6
CONTINUOUS
10
-6.7220012112
20
-21.1306884717
11
-6.7220012112
21
-20.9843180147
0
LINE
5
285
100
AcDbEntity
8
0
100
AcDbLine
62
7
6
CONTINUOUS
10
-3.4000000000
20
22.3297297297
11
-3.3633443637
21
22.5000000000
0
LINE
5
286
100
AcDbEntity
8
0
100
AcDbLine
62
7
6
CONTINUOUS
10
2.7167632191
20
21.6560705017
11
2.9969695968
21
22.2000000000
0
LINE
5
287
100
AcDbEntity
8
0
100
AcDbLine
62
7
6
CONTINUOUS
10
-5.6512953401
20
5.5484761331
11
-6.0000000000
21
5.1997714731
0
LINE
5
288
100
AcDbEntity
8
0
100
AcDbLine
62
7
6
CONTINUOUS
10
-6.0000000000
20
4.2755629091
11
-5.6512953401
21
4.6242675690
0
LINE
5
289
100
AcDbEntity
8
0
100
AcDbLine
62
7
6
CONTINUOUS
10
-10.5720850344
20
-0.7084990752
11
-10.9254573825
21
-1.0618714232
0
LINE
5
28A
100
AcDbEntity
8
0
100
AcDbLine
62
9
6
CONTINUOUS
10
8.4321575398
20
19.6564038783
11
8.0784266484
21
19.3031358358
0
LINE
5
28B
100
AcDbEntity
8
0
100
AcDbLine
62
9
6
CONTINUOUS
10
10.5328107846
20
17.2994419902
11
10.1413266164
21
16.9885336449
0
LINE
5
28C
100
AcDbEntity
8
0
100
AcDbLine
62
9
6
CONTINUOUS
10
9.7417941066
20
-16.8566705834
11
10.1315955931
21
-17.1696860056
0
LINE
5
28D
100
AcDbEntity
8
0
100
AcDbLine
62
9
6
CONTINUOUS
10
7.9141766428
20
-18.9086513684
11
8.2700406783
21
-19.2597704959
0
LINE
5
28E
100
AcDbEntity
8
0
100
AcDbLine
62
7
6
CONTINUOUS
10
-10.0721611869
20
-1.1911228098
11
-10.0632812915
21
-1.2000000000
0
LINE
5
28F
100
AcDbEntity
8
0
100
AcDbLine
62
7
6
CONTINUOUS
10
2.7167632191
20
-21.6560705017
11
2.9969695968
21
-22.2000000000
0
LINE
5
290
100
AcDbEntity
8
0
100
AcDbLine
62
7
6
CONTINUOUS
10
-2.3409590000
20
-16.5740120000
11
-2.7573740000
21
-15.4240120000
0
LINE
5
291
100
AcDbEntity
8
0
100
AcDbLine
62
7
6
CONTINUOUS
10
-2.6244410000
20
-16.2392270000
11
-2.5106670000
21
-16.5740120000
0
LINE
5
292
100
AcDbEntity
8
0
100
AcDbLine
62
7
6
CONTINUOUS
10
-2.8518790000
20
-15.5908100000
11
-2.6805560000
21
-16.1014820000
0
LINE
5
293
100
AcDbEntity
8
0
100
AcDbLine
62
7
6
CONTINUOUS
10
-3.4000000000
20
-22.3297297297
11
-3.3633443637
21
-22.5000000000
0
LINE
5
294
100
AcDbEntity
8
0
100
AcDbLine
62
7
6
CONTINUOUS
10
-6.0000000000
20
5.1997714731
11
-6.0000000000
21
4.2755629091
0
LINE
5
295
100
AcDbEntity
8
0
100
AcDbLine
62
9
6
CONTINUOUS
10
-5.6512953401
20
4.6242675690
11
-5.6512953401
21
5.5484761331
0
LINE
5
296
100
AcDbEntity
8
0
100
AcDbLine
62
9
6
CONTINUOUS
10
-1.8486284727
20
6.0487046135
11
-2.3487046599
21
5.5484761331
0
LINE
5
297
100
AcDbEntity
8
0
100
AcDbLine
62
7
6
CONTINUOUS
10
-1.9911228098
20
5.2086513684
11
-2.0000000000
21
5.1997714731
0
LINE
5
298
100
AcDbEntity
8
0
100
AcDbLine
62
7
6
CONTINUOUS
10
-10.0632812915
20
-1.2000000000
11
-10.4252289020
21
-1.5619476105
0
LINE
5
299
100
AcDbEntity
8
0
100
AcDbLine
62
7
6
CONTINUOUS
10
-9.1255629091
20
-1.2000000000
11
-9.4875105196
21
-1.5619476105
0
LINE
5
29A
100
AcDbEntity
8
0
100
AcDbLine
62
7
6
CONTINUOUS
10
1.9577620000
20
-15.6399730000
11
2.5456110000
21
-16.5740120000
0
LINE
5
29B
100
AcDbEntity
8
0
100
AcDbLine
62
7
6
CONTINUOUS
10
2.5695820000
20
-16.3581360000
11
1.9914490000
21
-15.4240120000
0
LINE
5
29C
100
AcDbEntity
8
0
100
AcDbLine
62
7
6
CONTINUOUS
10
-4.3189770000
20
-15.4240120000
11
-4.3189770000
21
-16.5740120000
0
LINE
5
29D
100
AcDbEntity
8
0
100
AcDbLine
62
7
6
CONTINUOUS
10
-4.1636160000
20
-16.5740120000
11
-4.1636160000
21
-16.0886790000
0
LINE
5
29E
100
AcDbEntity
8
0
100
AcDbLine
62
7
6
CONTINUOUS
10
-4.1636160000
20
-15.9557450000
11
-4.1636160000
21
-15.5569450000
0
LINE
5
29F
100
AcDbEntity
8
0
100
AcDbLine
62
7
6
CONTINUOUS
10
-3.4000000000
20
-21.3965394362
11
-3.4000000000
21
-23.4301797403
0
LINE
5
2A0
100
AcDbEntity
8
0
100
AcDbLine
62
7
6
CONTINUOUS
10
-3.4000000000
20
21.3965394362
11
-3.4000000000
21
23.4301797403
0
LINE
5
2A1
100
AcDbEntity
8
0
100
AcDbLine
62
7
6
CONTINUOUS
10
-3.3633443637
20
23.4668353766
11
-3.3633443637
21
22.5000000000
0
LINE
5
2A2
100
AcDbEntity
8
0
100
AcDbLine
62
7
6
CONTINUOUS
10
-3.3633443637
20
-23.4668353766
11
-3.3633443637
21
-22.5000000000
0
LINE
5
2A3
100
AcDbEntity
8
0
100
AcDbLine
62
7
6
CONTINUOUS
10
-3.3000000000
20
22.4000000000
11
-3.3000000000
21
21.9098076211
0
LINE
5
2A4
100
AcDbEntity
8
0
100
AcDbLine
62
7
6
CONTINUOUS
10
-3.3000000000
20
21.3901923789
11
-3.3000000000
21
21.1905651910
0
LINE
5
2A5
100
AcDbEntity
8
0
100
AcDbLine
62
7
6
CONTINUOUS
10
-3.3000000000
20
-21.1905651910
11
-3.3000000000
21
-21.3901923789
0
LINE
5
2A6
100
AcDbEntity
8
0
100
AcDbLine
62
7
6
CONTINUOUS
10
-3.3000000000
20
-21.9098076211
11
-3.3000000000
21
-22.4000000000
0
LINE
5
2A7
100
AcDbEntity
8
0
100
AcDbLine
62
7
6
CONTINUOUS
10
-3.0530190000
20
2.0550410000
11
-3.5062280000
21
0.6434420000
0
LINE
5
2A8
100
AcDbEntity
8
0
100
AcDbLine
62
9
6
CONTINUOUS
10
-10.9254573825
20
-4.8381285768
11
-10.4252289020
21
-4.3380523895
0
LINE
5
2A9
100
AcDbEntity
8
0
100
AcDbLine
62
7
6
CONTINUOUS
10
-10.0721611869
20
-4.7088771902
11
-10.0632812915
21
-4.7000000000
0
LINE
5
2AA
100
AcDbEntity
8
0
100
AcDbLine
62
7
6
CONTINUOUS
10
10.0632812915
20
-4.7000000000
11
9.1255629091
21
-4.7000000000
0
LINE
5
2AB
100
AcDbEntity
8
0
100
AcDbLine
62
7
6
CONTINUOUS
10
-9.1255629091
20
-4.7000000000
11
-10.0632812915
21
-4.7000000000
0
LINE
5
2AC
100
AcDbEntity
8
0
100
AcDbLine
62
9
6
CONTINUOUS
10
-10.4252289020
20
-4.3380523895
11
-9.4875105196
21
-4.3380523895
0
LINE
5
2AD
100
AcDbEntity
8
0
100
AcDbLine
62
9
6
CONTINUOUS
10
9.4875105196
20
-4.3380523895
11
10.4252289020
21
-4.3380523895
0
LINE
5
2AE
100
AcDbEntity
8
0
100
AcDbLine
62
9
6
CONTINUOUS
10
-10.5720850344
20
5.2086513684
11
-10.9494190698
21
5.5859854038
0
LINE
5
2AF
100
AcDbEntity
8
0
100
AcDbLine
62
7
6
CONTINUOUS
10
-4.3694620000
20
2.0550410000
11
-3.7112480000
21
0.0049440000
0
LINE
5
2B0
100
AcDbEntity
8
0
100
AcDbLine
62
9
6
CONTINUOUS
10
-3.2153472641
20
23.1750000000
11
-3.1705494094
21
21.8921572875
0
LINE
5
2B1
100
AcDbEntity
8
0
100
AcDbLine
62
9
6
CONTINUOUS
10
-3.0154690987
20
23.3164213562
11
-2.9765077582
21
22.2007145431
0
LINE
5
2B2
100
AcDbEntity
8
0
100
AcDbLine
62
7
6
CONTINUOUS
10
-3.2301584610
20
23.1750000000
11
-3.2301584610
21
22.5048155586
0
LINE
5
2B3
100
AcDbEntity
8
0
100
AcDbLine
62
7
6
CONTINUOUS
10
-3.2301584610
20
21.7767857292
11
-3.2301584610
21
21.5232142708
0
LINE
5
2B4
100
AcDbEntity
8
0
100
AcDbLine
62
7
6
CONTINUOUS
10
-3.2301584610
20
-21.5232142708
11
-3.2301584610
21
-21.7767857292
0
LINE
5
2B5
100
AcDbEntity
8
0
100
AcDbLine
62
7
6
CONTINUOUS
10
-3.2301584610
20
-22.5048155586
11
-3.2301584610
21
-23.1750000000
0
LINE
5
2B6
100
AcDbEntity
8
0
100
AcDbLine
62
9
6
CONTINUOUS
10
-3.1705494094
20
-21.8921572875
11
-3.1705494094
21
-21.2941832525
0
LINE
5
2B7
100
AcDbEntity
8
0
100
AcDbLine
62
9
6
CONTINUOUS
10
-3.1705494094
20
21.2941832525
11
-3.1705494094
21
21.8921572875
0
LINE
5
2B8
100
AcDbEntity
8
0
100
AcDbLine
62
7
6
CONTINUOUS
10
-3.1000000000
20
22.2000000000
11
-3.1000000000
21
21.1720718961
0
LINE
5
2B9
100
AcDbEntity
8
0
100
AcDbLine
62
7
6
CONTINUOUS
10
-3.1000000000
20
-22.2000000000
11
-3.1000000000
21
-21.1720718961
0
LINE
5
2BA
100
AcDbEntity
8
0
100
AcDbLine
62
9
6
CONTINUOUS
10
-3.0154690987
20
-23.3164213562
11
-3.0154690987
21
-23.3750000000
0
LINE
5
2BB
100
AcDbEntity
8
0
100
AcDbLine
62
9
6
CONTINUOUS
10
-3.0154690987
20
23.3164213562
11
-3.0154690987
21
23.3750000000
0
LINE
5
2BC
100
AcDbEntity
8
0
100
AcDbLine
62
7
6
CONTINUOUS
10
-2.3696570000
20
2.0550410000
11
-2.3696620000
21
0.0049440000
0
LINE
5
2BD
100
AcDbEntity
8
0
100
AcDbLine
62
9
6
CONTINUOUS
10
-2.3487046599
20
4.6242675690
11
-2.3487046599
21
5.5484761331
0
LINE
5
2BE
100
AcDbEntity
8
0
100
AcDbLine
62
7
6
CONTINUOUS
10
-2.2977370000
20
-15.4240120000
11
-2.2977370000
21
-15.5617580000
0
LINE
5
2BF
100
AcDbEntity
8
0
100
AcDbLine
62
7
6
CONTINUOUS
10
-2.0000000000
20
5.1997714731
11
-2.0000000000
21
4.2755629091
0
LINE
5
2C0
100
AcDbEntity
8
0
100
AcDbLine
62
7
6
CONTINUOUS
10
-1.9596460000
20
0.0049490000
11
-1.9596410000
21
2.0550410000
0
LINE
5
2C1
100
AcDbEntity
8
0
100
AcDbLine
62
7
6
CONTINUOUS
10
-1.9085620000
20
-15.5617580000
11
-1.9085620000
21
-16.5740120000
0
LINE
5
2C2
100
AcDbEntity
8
0
100
AcDbLine
62
7
6
CONTINUOUS
10
-1.7532010000
20
-16.5740120000
11
-1.7532010000
21
-15.5617580000
0
LINE
5
2C3
100
AcDbEntity
8
0
100
AcDbLine
62
7
6
CONTINUOUS
10
-1.5496410000
20
2.0550410000
11
-1.5496410000
21
0.0049490000
0
LINE
5
2C4
100
AcDbEntity
8
0
100
AcDbLine
62
9
6
CONTINUOUS
10
-3.1705494094
20
-21.8921572875
11
-3.2153472641
21
-23.1750000000
0
LINE
5
2C5
100
AcDbEntity
8
0
100
AcDbLine
62
9
6
CONTINUOUS
10
-2.9765077582
20
-22.2007145431
11
-3.0154690987
21
-23.3164213562
0
LINE
5
2C6
100
AcDbEntity
8
0
100
AcDbLine
62
7
6
CONTINUOUS
10
-3.3012180000
20
0.0049490000
11
-2.6429980000
21
2.0550410000
0
LINE
5
2C7
100
AcDbEntity
8
0
100
AcDbLine
62
9
6
CONTINUOUS
10
-9.6500000000
20
-20.1496567219
11
-9.5223518250
21
-19.7664007784
0
LINE
5
2C8
100
AcDbEntity
8
0
100
AcDbLine
62
9
6
CONTINUOUS
10
-8.9005708996
20
-20.9000000000
11
-8.7730563203
21
-20.5171451693
0
LINE
5
2C9
100
AcDbEntity
8
0
100
AcDbLine
62
7
6
CONTINUOUS
10
1.8486284727
20
6.0487046135
11
1.5084990752
21
5.7085752160
0
LINE
5
2CA
100
AcDbEntity
8
0
100
AcDbLine
62
7
6
CONTINUOUS
10
2.3487046599
20
5.5484761331
11
2.0000000000
21
5.1997714731
0
LINE
5
2CB
100
AcDbEntity
8
0
100
AcDbLine
62
7
6
CONTINUOUS
10
2.0000000000
20
4.2755629091
11
2.3487046599
21
4.6242675690
0
LINE
5
2CC
100
AcDbEntity
8
0
100
AcDbLine
62
9
6
CONTINUOUS
10
-10.4252289020
20
-1.5619476105
11
-9.4875105196
21
-1.5619476105
0
LINE
5
2CD
100
AcDbEntity
8
0
100
AcDbLine
62
9
6
CONTINUOUS
10
9.4875105196
20
-1.5619476105
11
10.4252289020
21
-1.5619476105
0
LINE
5
2CE
100
AcDbEntity
8
0
100
AcDbLine
62
9
6
CONTINUOUS
10
-10.0721611869
20
5.7085752160
11
-10.4494952222
21
6.0859092514
0
LINE
5
2CF
100
AcDbEntity
8
0
100
AcDbLine
62
9
6
CONTINUOUS
10
-9.6500000000
20
20.1496567219
11
-9.5223518250
21
19.7664007784
0
LINE
5
2D0
100
AcDbEntity
8
0
100
AcDbLine
62
9
6
CONTINUOUS
10
-8.9005708996
20
20.9000000000
11
-8.7730563203
21
20.5171451693
0
LINE
5
2D1
100
AcDbEntity
8
0
100
AcDbLine
62
7
6
CONTINUOUS
10
-3.5062280000
20
0.6434420000
11
-3.9594420000
21
2.0550410000
0
LINE
5
2D2
100
AcDbEntity
8
0
100
AcDbLine
62
7
6
CONTINUOUS
10
-1.3640260000
20
-15.5617580000
11
-1.3640260000
21
-15.4240120000
0
LINE
5
2D3
100
AcDbEntity
8
0
100
AcDbLine
62
7
6
CONTINUOUS
10
-1.2022180000
20
-16.4042130000
11
-1.2022180000
21
-16.5740120000
0
LINE
5
2D4
100
AcDbEntity
8
0
100
AcDbLine
62
7
6
CONTINUOUS
10
-1.1396260000
20
0.0049490000
11
-1.1396260000
21
1.3568470000
0
LINE
5
2D5
100
AcDbEntity
8
0
100
AcDbLine
62
7
6
CONTINUOUS
10
-1.0356880000
20
-16.5740120000
11
-1.0356880000
21
-16.4042130000
0
LINE
5
2D6
100
AcDbEntity
8
0
100
AcDbLine
62
7
6
CONTINUOUS
10
-0.3133630000
20
-15.4240120000
11
-0.3133630000
21
-16.5740120000
0
LINE
5
2D7
100
AcDbEntity
8
0
100
AcDbLine
62
7
6
CONTINUOUS
10
-0.1580020000
20
-16.5740120000
11
-0.1580020000
21
-16.0886790000
0
LINE
5
2D8
100
AcDbEntity
8
0
100
AcDbLine
62
7
6
CONTINUOUS
10
-0.1580020000
20
-15.9557450000
11
-0.1580020000
21
-15.5569450000
0
LINE
5
2D9
100
AcDbEntity
8
0
100
AcDbLine
62
7
6
CONTINUOUS
10
0.0456690000
20
1.3568470000
11
0.0456740000
21
0.0049490000
0
LINE
5
2DA
100
AcDbEntity
8
0
100
AcDbLine
62
7
6
CONTINUOUS
10
2.5908096278
20
20.9843180147
11
2.7167632191
21
21.6560705017
0
LINE
5
2DB
100
AcDbEntity
8
0
100
AcDbLine
62
7
6
CONTINUOUS
10
-0.1641440000
20
2.0550410000
11
-0.5469760000
21
0.7199480000
0
LINE
5
2DC
100
AcDbEntity
8
0
100
AcDbLine
62
7
6
CONTINUOUS
10
-0.3419760000
20
0.0049540000
11
0.0456690000
21
1.3568470000
0
LINE
5
2DD
100
AcDbEntity
8
0
100
AcDbLine
62
9
6
CONTINUOUS
10
8.0784260498
20
19.8030596834
11
8.0838316893
21
19.8160983575
0
LINE
5
2DE
100
AcDbEntity
8
0
100
AcDbLine
62
9
6
CONTINUOUS
10
6.1513715273
20
6.0487046135
11
5.6512953401
21
5.5484761331
0
LINE
5
2DF
100
AcDbEntity
8
0
100
AcDbLine
62
7
6
CONTINUOUS
10
10.0632812915
20
-1.2000000000
11
9.1255629091
21
-1.2000000000
0
LINE
5
2E0
100
AcDbEntity
8
0
100
AcDbLine
62
7
6
CONTINUOUS
10
-9.1255629091
20
-1.2000000000
11
-10.0632812915
21
-1.2000000000
0
LINE
5
2E1
100
AcDbEntity
8
0
100
AcDbLine
62
7
6
CONTINUOUS
10
7.5000000000
20
-1.0000000000
11
-7.5000000000
21
-1.0000000000
0
LINE
5
2E2
100
AcDbEntity
8
0
100
AcDbLine
62
7
6
CONTINUOUS
10
3.9076430000
20
0.0049540000
11
4.3694620000
21
0.0049590000
0
LINE
5
2E3
100
AcDbEntity
8
0
100
AcDbLine
62
7
6
CONTINUOUS
10
0.7290310000
20
0.0049490000
11
1.1390470000
21
0.0049540000
0
LINE
5
2E4
100
AcDbEntity
8
0
100
AcDbLine
62
7
6
CONTINUOUS
10
-1.5496410000
20
0.0049490000
11
-1.1396260000
21
0.0049490000
0
LINE
5
2E5
100
AcDbEntity
8
0
100
AcDbLine
62
7
6
CONTINUOUS
10
0.0456740000
20
0.0049490000
11
0.4556890000
21
0.0049490000
0
LINE
5
2E6
100
AcDbEntity
8
0
100
AcDbLine
62
7
6
CONTINUOUS
10
2.7288370000
20
0.0049540000
11
3.1388580000
21
0.0049540000
0
LINE
5
2E7
100
AcDbEntity
8
0
100
AcDbLine
62
7
6
CONTINUOUS
10
-0.7519810000
20
0.0049490000
11
-0.3419760000
21
0.0049540000
0
LINE
5
2E8
100
AcDbEntity
8
0
100
AcDbLine
62
7
6
CONTINUOUS
10
-2.3696620000
20
0.0049440000
11
-1.9596460000
21
0.0049490000
0
LINE
5
2E9
100
AcDbEntity
8
0
100
AcDbLine
62
7
6
CONTINUOUS
10
2.0454750000
20
0.0049540000
11
2.4554950000
21
0.0049490000
0
LINE
5
2EA
100
AcDbEntity
8
0
100
AcDbLine
62
7
6
CONTINUOUS
10
-3.7112480000
20
0.0049440000
11
-3.3012180000
21
0.0049490000
0
LINE
5
2EB
100
AcDbEntity
8
0
100
AcDbLine
62
7
6
CONTINUOUS
10
-6.0088771902
20
5.2086513684
11
-6.0000000000
21
5.1997714731
0
LINE
5
2EC
100
AcDbEntity
8
0
100
AcDbLine
62
9
6
CONTINUOUS
10
-6.1513715273
20
6.0487046135
11
-5.6512953401
21
5.5484761331
0
LINE
5
2ED
100
AcDbEntity
8
0
100
AcDbLine
62
9
6
CONTINUOUS
10
-8.0838316893
20
19.8160983575
11
-8.0784260498
21
19.8030596834
0
LINE
5
2EE
100
AcDbEntity
8
0
100
AcDbLine
62
9
6
CONTINUOUS
10
-8.4374926906
20
19.6695125202
11
-8.4321587056
21
19.6564027110
0
LINE
5
2EF
100
AcDbEntity
8
0
100
AcDbLine
62
7
6
CONTINUOUS
10
-1.1396260000
20
1.3568470000
11
-0.7519810000
21
0.0049490000
0
LINE
5
2F0
100
AcDbEntity
8
0
100
AcDbLine
62
7
6
CONTINUOUS
10
-0.5469760000
20
0.7199480000
11
-0.9298080000
21
2.0550410000
0
LINE
5
2F1
100
AcDbEntity
8
0
100
AcDbLine
62
7
6
CONTINUOUS
10
2.7167632191
20
-21.6560705017
11
2.5908096278
21
-20.9843180147
0
LINE
5
2F2
100
AcDbEntity
8
0
100
AcDbLine
62
7
6
CONTINUOUS
10
0.4556890000
20
0.0049490000
11
0.4556890000
21
2.0550410000
0
LINE
5
2F3
100
AcDbEntity
8
0
100
AcDbLine
62
7
6
CONTINUOUS
10
0.7549160000
20
-15.4240120000
11
0.7549160000
21
-16.5740120000
0
LINE
5
2F4
100
AcDbEntity
8
0
100
AcDbLine
62
7
6
CONTINUOUS
10
0.9102770000
20
-16.4362660000
11
0.9102770000
21
-16.0519040000
0
LINE
5
2F5
100
AcDbEntity
8
0
100
AcDbLine
62
7
6
CONTINUOUS
10
0.9102770000
20
-15.9141580000
11
0.9102770000
21
-15.5617580000
0
LINE
5
2F6
100
AcDbEntity
8
0
100
AcDbLine
62
7
6
CONTINUOUS
10
1.5398030000
20
-16.0519040000
11
1.5398030000
21
-15.9141580000
0
LINE
5
2F7
100
AcDbEntity
8
0
100
AcDbLine
62
7
6
CONTINUOUS
10
1.5926500000
20
-15.5617580000
11
1.5926500000
21
-15.4240120000
0
LINE
5
2F8
100
AcDbEntity
8
0
100
AcDbLine
62
7
6
CONTINUOUS
10
1.6038180000
20
-16.5740120000
11
1.6038180000
21
-16.4362660000
0
LINE
5
2F9
100
AcDbEntity
8
0
100
AcDbLine
62
7
6
CONTINUOUS
10
1.8072130000
20
-15.4240120000
11
1.8072130000
21
-16.5740120000
0
LINE
5
2FA
100
AcDbEntity
8
0
100
AcDbLine
62
7
6
CONTINUOUS
10
1.9577620000
20
-16.5740120000
11
1.9577620000
21
-15.6399730000
0
LINE
5
2FB
100
AcDbEntity
8
0
100
AcDbLine
62
7
6
CONTINUOUS
10
-2.5908096278
20
-20.9843180147
11
-2.7167632191
21
-21.6560705017
0
LINE
5
2FC
100
AcDbEntity
8
0
100
AcDbLine
62
7
6
CONTINUOUS
10
1.3872400000
20
2.0550460000
11
0.7290310000
21
0.0049490000
0
LINE
5
2FD
100
AcDbEntity
8
0
100
AcDbLine
62
7
6
CONTINUOUS
10
1.1390470000
20
0.0049540000
11
1.2684890000
21
0.4081170000
0
LINE
5
2FE
100
AcDbEntity
8
0
100
AcDbLine
62
7
6
CONTINUOUS
10
1.3935540000
20
0.7976320000
11
1.5922560000
21
1.4165480000
0
LINE
5
2FF
100
AcDbEntity
8
0
100
AcDbLine
62
9
6
CONTINUOUS
10
8.9005708996
20
20.9000000000
11
8.7730563203
21
20.5171451693
0
LINE
5
300
100
AcDbEntity
8
0
100
AcDbLine
62
9
6
CONTINUOUS
10
8.4321587056
20
19.6564027110
11
8.4374926906
21
19.6695125202
0
LINE
5
301
100
AcDbEntity
8
0
100
AcDbLine
62
7
6
CONTINUOUS
10
6.0088771902
20
5.2086513684
11
6.0000000000
21
5.1997714731
0
LINE
5
302
100
AcDbEntity
8
0
100
AcDbLine
62
7
6
CONTINUOUS
10
1.2684890000
20
0.4081170000
11
1.9160380000
21
0.4081170000
0
LINE
5
303
100
AcDbEntity
8
0
100
AcDbLine
62
7
6
CONTINUOUS
10
1.7909670000
20
0.7976320000
11
1.3935540000
21
0.7976320000
0
LINE
5
304
100
AcDbEntity
8
0
100
AcDbLine
62
7
6
CONTINUOUS
10
3.1389040000
20
0.7976380000
11
3.4967570000
21
0.7976320000
0
LINE
5
305
100
AcDbEntity
8
0
100
AcDbLine
62
7
6
CONTINUOUS
10
3.6320493813
20
1.1769030000
11
3.1332050000
21
1.1769030000
0
LINE
5
306
100
AcDbEntity
8
0
100
AcDbLine
62
7
6
CONTINUOUS
10
3.1332000000
20
1.6757810000
11
3.6320406187
21
1.6757810000
0
LINE
5
307
100
AcDbEntity
8
0
100
AcDbLine
62
7
6
CONTINUOUS
10
-2.0000000000
20
4.2755629091
11
-2.3487046599
21
4.6242675690
0
LINE
5
308
100
AcDbEntity
8
0
100
AcDbLine
62
9
6
CONTINUOUS
10
8.9005708996
20
-20.9000000000
11
8.7730563203
21
-20.5171451693
0
LINE
5
309
100
AcDbEntity
8
0
100
AcDbLine
62
7
6
CONTINUOUS
10
1.5922560000
20
1.4165480000
11
1.7909670000
21
0.7976320000
0
LINE
5
30A
100
AcDbEntity
8
0
100
AcDbLine
62
7
6
CONTINUOUS
10
1.9160380000
20
0.4081170000
11
2.0454750000
21
0.0049540000
0
LINE
5
30B
100
AcDbEntity
8
0
100
AcDbLine
62
7
6
CONTINUOUS
10
-2.7167632191
20
21.6560705017
11
-2.5908096278
21
20.9843180147
0
LINE
5
30C
100
AcDbEntity
8
0
100
AcDbLine
62
9
6
CONTINUOUS
10
3.0154690987
20
-23.3164213562
11
2.9765077582
21
-22.2007145431
0
LINE
5
30D
100
AcDbEntity
8
0
100
AcDbLine
62
9
6
CONTINUOUS
10
3.2153472641
20
-23.1750000000
11
3.1705494094
21
-21.8921572875
0
LINE
5
30E
100
AcDbEntity
8
0
100
AcDbLine
62
7
6
CONTINUOUS
10
2.0000000000
20
5.1997714731
11
2.0000000000
21
4.2755629091
0
LINE
5
30F
100
AcDbEntity
8
0
100
AcDbLine
62
9
6
CONTINUOUS
10
2.3487046599
20
4.6242675690
11
2.3487046599
21
5.5484761331
0
LINE
5
310
100
AcDbEntity
8
0
100
AcDbLine
62
7
6
CONTINUOUS
10
2.5695820000
20
-15.4240120000
11
2.5695820000
21
-16.3581360000
0
LINE
5
311
100
AcDbEntity
8
0
100
AcDbLine
62
7
6
CONTINUOUS
10
2.7201310000
20
-16.5740120000
11
2.7201310000
21
-15.4240120000
0
LINE
5
312
100
AcDbEntity
8
0
100
AcDbLine
62
7
6
CONTINUOUS
10
2.7288370000
20
2.0550460000
11
2.7288370000
21
0.0049540000
0
LINE
5
313
100
AcDbEntity
8
0
100
AcDbLine
62
7
6
CONTINUOUS
10
2.9715600000
20
-15.4240120000
11
2.9715600000
21
-16.5740120000
0
LINE
5
314
100
AcDbEntity
8
0
100
AcDbLine
62
9
6
CONTINUOUS
10
3.0154690987
20
-23.3164213562
11
3.0154690987
21
-23.3750000000
0
LINE
5
315
100
AcDbEntity
8
0
100
AcDbLine
62
9
6
CONTINUOUS
10
3.0154690987
20
23.3164213562
11
3.0154690987
21
23.3750000000
0
LINE
5
316
100
AcDbEntity
8
0
100
AcDbLine
62
7
6
CONTINUOUS
10
3.1000000000
20
22.2000000000
11
3.1000000000
21
21.1720718961
0
LINE
5
317
100
AcDbEntity
8
0
100
AcDbLine
62
7
6
CONTINUOUS
10
3.1000000000
20
-22.2000000000
11
3.1000000000
21
-21.1720718961
0
LINE
5
318
100
AcDbEntity
8
0
100
AcDbLine
62
7
6
CONTINUOUS
10
3.1269210000
20
-16.4410790000
11
3.1269210000
21
-15.5569450000
0
LINE
5
319
100
AcDbEntity
8
0
100
AcDbLine
62
7
6
CONTINUOUS
10
3.1332050000
20
1.1769030000
11
3.1332000000
21
1.6757810000
0
LINE
5
31A
100
AcDbEntity
8
0
100
AcDbLine
62
9
6
CONTINUOUS
10
3.1705494094
20
21.8921572875
11
3.1705494094
21
21.2941832525
0
LINE
5
31B
100
AcDbEntity
8
0
100
AcDbLine
62
9
6
CONTINUOUS
10
3.1705494094
20
-21.2941832525
11
3.1705494094
21
-21.8921572875
0
LINE
5
31C
100
AcDbEntity
8
0
100
AcDbLine
62
7
6
CONTINUOUS
10
3.2301584610
20
23.1750000000
11
3.2301584610
21
22.5048155586
0
LINE
5
31D
100
AcDbEntity
8
0
100
AcDbLine
62
7
6
CONTINUOUS
10
3.2301584610
20
21.7767857292
11
3.2301584610
21
21.5232142708
0
LINE
5
31E
100
AcDbEntity
8
0
100
AcDbLine
62
7
6
CONTINUOUS
10
3.2301584610
20
-21.5232142708
11
3.2301584610
21
-21.7767857292
0
LINE
5
31F
100
AcDbEntity
8
0
100
AcDbLine
62
7
6
CONTINUOUS
10
3.2301584610
20
-22.5048155586
11
3.2301584610
21
-23.1750000000
0
LINE
5
320
100
AcDbEntity
8
0
100
AcDbLine
62
7
6
CONTINUOUS
10
3.3000000000
20
22.4000000000
11
3.3000000000
21
21.9098076211
0
LINE
5
321
100
AcDbEntity
8
0
100
AcDbLine
62
7
6
CONTINUOUS
10
3.3000000000
20
21.3901923789
11
3.3000000000
21
21.1905651910
0
LINE
5
322
100
AcDbEntity
8
0
100
AcDbLine
62
7
6
CONTINUOUS
10
3.3000000000
20
-21.1905651910
11
3.3000000000
21
-21.3901923789
0
LINE
5
323
100
AcDbEntity
8
0
100
AcDbLine
62
7
6
CONTINUOUS
10
3.3000000000
20
-21.9098076211
11
3.3000000000
21
-22.4000000000
0
LINE
5
324
100
AcDbEntity
8
0
100
AcDbLine
62
7
6
CONTINUOUS
10
3.3633443637
20
-22.5000000000
11
3.3633443637
21
-23.4668353766
0
LINE
5
325
100
AcDbEntity
8
0
100
AcDbLine
62
7
6
CONTINUOUS
10
3.3633443637
20
22.5000000000
11
3.3633443637
21
23.4668353766
0
LINE
5
326
100
AcDbEntity
8
0
100
AcDbLine
62
7
6
CONTINUOUS
10
3.4000000000
20
23.4301797403
11
3.4000000000
21
21.3965394362
0
LINE
5
327
100
AcDbEntity
8
0
100
AcDbLine
62
7
6
CONTINUOUS
10
3.4000000000
20
-23.4301797403
11
3.4000000000
21
-21.3965394362
0
LINE
5
328
100
AcDbEntity
8
0
100
AcDbLine
62
7
6
CONTINUOUS
10
3.1388580000
20
0.0049540000
11
3.1389040000
21
0.7976380000
0
LINE
5
329
100
AcDbEntity
8
0
100
AcDbLine
62
9
6
CONTINUOUS
10
2.9765077582
20
22.2007145431
11
3.0154690987
21
23.3164213562
0
LINE
5
32A
100
AcDbEntity
8
0
100
AcDbLine
62
9
6
CONTINUOUS
10
3.1705494094
20
21.8921572875
11
3.2153472641
21
23.1750000000
0
LINE
5
32B
100
AcDbEntity
8
0
100
AcDbLine
62
9
6
CONTINUOUS
10
9.6500000000
20
20.1496567219
11
9.5223518250
21
19.7664007784
0
LINE
5
32C
100
AcDbEntity
8
0
100
AcDbLine
62
7
6
CONTINUOUS
10
-3.2058420000
20
-16.5740120000
11
-3.0857120000
21
-16.2392270000
0
LINE
5
32D
100
AcDbEntity
8
0
100
AcDbLine
62
7
6
CONTINUOUS
10
-3.0376780000
20
-16.1014820000
11
-2.8518790000
21
-15.5908100000
0
LINE
5
32E
100
AcDbEntity
8
0
100
AcDbLine
62
7
6
CONTINUOUS
10
-2.9335290000
20
-15.4240120000
11
-3.3660160000
21
-16.5740120000
0
LINE
5
32F
100
AcDbEntity
8
0
100
AcDbLine
62
9
6
CONTINUOUS
10
10.4494952222
20
6.0859092514
11
10.0721611869
21
5.7085752160
0
LINE
5
330
100
AcDbEntity
8
0
100
AcDbLine
62
7
6
CONTINUOUS
10
0.4556890000
20
2.0550410000
11
-0.1641440000
21
2.0550410000
0
LINE
5
331
100
AcDbEntity
8
0
100
AcDbLine
62
7
6
CONTINUOUS
10
-0.9298080000
20
2.0550410000
11
-1.5496410000
21
2.0550410000
0
LINE
5
332
100
AcDbEntity
8
0
100
AcDbLine
62
7
6
CONTINUOUS
10
-1.9596410000
20
2.0550410000
11
-2.3696570000
21
2.0550410000
0
LINE
5
333
100
AcDbEntity
8
0
100
AcDbLine
62
7
6
CONTINUOUS
10
-2.6429980000
20
2.0550410000
11
-3.0530190000
21
2.0550410000
0
LINE
5
334
100
AcDbEntity
8
0
100
AcDbLine
62
7
6
CONTINUOUS
10
-3.9594420000
20
2.0550410000
11
-4.3694620000
21
2.0550410000
0
LINE
5
335
100
AcDbEntity
8
0
100
AcDbLine
62
7
6
CONTINUOUS
10
3.6889681640
20
2.0550460000
11
2.7288370000
21
2.0550460000
0
LINE
5
336
100
AcDbEntity
8
0
100
AcDbLine
62
7
6
CONTINUOUS
10
1.7972760000
20
2.0550460000
11
1.3872400000
21
2.0550460000
0
LINE
5
337
100
AcDbEntity
8
0
100
AcDbLine
62
7
6
CONTINUOUS
10
-2.0000000000
20
5.1997714731
11
-2.3487046599
21
5.5484761331
0
LINE
5
338
100
AcDbEntity
8
0
100
AcDbLine
62
7
6
CONTINUOUS
10
-1.5084990752
20
5.7085752160
11
-1.8486284727
21
6.0487046135
0
LINE
5
339
100
AcDbEntity
8
0
100
AcDbLine
62
7
6
CONTINUOUS
10
3.4967570000
20
0.7976320000
11
3.9076430000
21
0.0049540000
0
LINE
5
33A
100
AcDbEntity
8
0
100
AcDbLine
62
9
6
CONTINUOUS
10
9.6500000000
20
-20.1496567219
11
9.5223518250
21
-19.7664007784
0
LINE
5
33B
100
AcDbEntity
8
0
100
AcDbLine
62
7
6
CONTINUOUS
10
2.4554950000
20
0.0049490000
11
1.7972760000
21
2.0550460000
0
LWPOLYLINE
5
33C
100
AcDbEntity
8
0
100
AcDbPolyline
62
7
6
CONTINUOUS
90
3
70
0
10
3.2153584705
20
23.1816512427
10
3.2132907118
20
23.2044293099
10
3.2085326736
20
23.2272122432
0
LINE
5
33D
100
AcDbEntity
8
0
100
AcDbLine
62
7
6
CONTINUOUS
10
4.1375410000
20
-16.4042130000
11
4.1375410000
21
-16.5740120000
0
LINE
5
33E
100
AcDbEntity
8
0
100
AcDbLine
62
7
6
CONTINUOUS
10
4.3041620000
20
-16.5740120000
11
4.3041620000
21
-16.4042130000
0
LINE
5
33F
100
AcDbEntity
8
0
100
AcDbLine
62
9
6
CONTINUOUS
10
10.9494190698
20
5.5859854038
11
10.5720850344
21
5.2086513684
0
LINE
5
340
100
AcDbEntity
8
0
100
AcDbLine
62
7
6
CONTINUOUS
10
-6.0000000000
20
4.2755629091
11
-2.0000000000
21
4.2755629091
0
LINE
5
341
100
AcDbEntity
8
0
100
AcDbLine
62
7
6
CONTINUOUS
10
2.0000000000
20
4.2755629091
11
6.0000000000
21
4.2755629091
0
LINE
5
342
100
AcDbEntity
8
0
100
AcDbLine
62
7
6
CONTINUOUS
10
-5.9755629091
20
4.3000000000
11
-2.0244370909
21
4.3000000000
0
LINE
5
343
100
AcDbEntity
8
0
100
AcDbLine
62
7
6
CONTINUOUS
10
2.0244370909
20
4.3000000000
11
5.9755629091
21
4.3000000000
0
LINE
5
344
100
AcDbEntity
8
0
100
AcDbLine
62
9
6
CONTINUOUS
10
10.5720850344
20
5.2086513684
11
6.0088771902
21
5.2086513684
0
LINE
5
345
100
AcDbEntity
8
0
100
AcDbLine
62
9
6
CONTINUOUS
10
1.9911228098
20
5.2086513684
11
-1.9911228098
21
5.2086513684
0
LINE
5
346
100
AcDbEntity
8
0
100
AcDbLine
62
9
6
CONTINUOUS
10
-6.0088771902
20
5.2086513684
11
-10.5720850344
21
5.2086513684
0
LINE
5
347
100
AcDbEntity
8
0
100
AcDbLine
62
7
6
CONTINUOUS
10
10.0721611869
20
-4.7088771902
11
10.0632812915
21
-4.7000000000
0
LINE
5
348
100
AcDbEntity
8
0
100
AcDbLine
62
9
6
CONTINUOUS
10
10.9254573825
20
-4.8381285768
11
10.4252289020
21
-4.3380523895
0
LINE
5
349
100
AcDbEntity
8
0
100
AcDbLine
62
7
6
CONTINUOUS
10
1.9911228098
20
5.2086513684
11
2.0000000000
21
5.1997714731
0
LINE
5
34A
100
AcDbEntity
8
0
100
AcDbLine
62
7
6
CONTINUOUS
10
4.3694620000
20
0.0049590000
11
3.9330213615
21
0.8469412318
0
LINE
5
34B
100
AcDbEntity
8
0
100
AcDbLine
62
9
6
CONTINUOUS
10
5.6512953401
20
4.6242675690
11
5.6512953401
21
5.5484761331
0
LINE
5
34C
100
AcDbEntity
8
0
100
AcDbLine
62
7
6
CONTINUOUS
10
6.0000000000
20
5.1997714731
11
6.0000000000
21
4.2755629091
0
LINE
5
34D
100
AcDbEntity
8
0
100
AcDbLine
62
9
6
CONTINUOUS
10
6.7220012112
20
21.1306884717
11
6.7220012112
21
20.9843180147
0
LINE
5
34E
100
AcDbEntity
8
0
100
AcDbLine
62
9
6
CONTINUOUS
10
6.7220012112
20
-21.1306884717
11
6.7220012112
21
-20.9843180147
0
LINE
5
34F
100
AcDbEntity
8
0
100
AcDbLine
62
9
6
CONTINUOUS
10
6.7466556736
20
-21.1965699136
11
6.7466556736
21
-21.3591170406
0
LINE
5
350
100
AcDbEntity
8
0
100
AcDbLine
62
9
6
CONTINUOUS
10
6.7466556734
20
21.1965699136
11
6.7466556734
21
21.3591170407
0
LINE
5
351
100
AcDbEntity
8
0
100
AcDbLine
62
9
6
CONTINUOUS
10
-9.7417941066
20
-16.8566705834
11
-10.1315955941
21
-17.1696860043
0
LINE
5
352
100
AcDbEntity
8
0
100
AcDbLine
62
9
6
CONTINUOUS
10
10.0721611869
20
5.7085752160
11
6.4915009248
21
5.7085752160
0
LINE
5
353
100
AcDbEntity
8
0
100
AcDbLine
62
9
6
CONTINUOUS
10
1.5084990752
20
5.7085752160
11
-1.5084990752
21
5.7085752160
0
LINE
5
354
100
AcDbEntity
8
0
100
AcDbLine
62
9
6
CONTINUOUS
10
-6.4915009248
20
5.7085752160
11
-10.0721611869
21
5.7085752160
0
LINE
5
355
100
AcDbEntity
8
0
100
AcDbLine
62
9
6
CONTINUOUS
10
-10.4494952222
20
6.0859092514
11
10.4494952222
21
6.0859092514
0
LINE
5
356
100
AcDbEntity
8
0
100
AcDbLine
62
9
6
CONTINUOUS
10
-10.9665695018
20
6.5858330989
11
10.9665695018
21
6.5858330989
0
LINE
5
357
100
AcDbEntity
8
0
100
AcDbLine
62
9
6
CONTINUOUS
10
-10.5328107846
20
17.2994419902
11
-10.1413266164
21
16.9885336449
0
LINE
5
358
100
AcDbEntity
8
0
100
AcDbLine
62
7
6
CONTINUOUS
10
9.1255629091
20
-1.2000000000
11
9.4875105196
21
-1.5619476105
0
LINE
5
359
100
AcDbEntity
8
0
100
AcDbLine
62
7
6
CONTINUOUS
10
10.0632812915
20
-1.2000000000
11
10.4252289020
21
-1.5619476105
0
LINE
5
35A
100
AcDbEntity
8
0
100
AcDbLine
62
7
6
CONTINUOUS
10
10.5720850344
20
-0.7084990752
11
10.9254573825
21
-1.0618714232
0
LINE
5
35B
100
AcDbEntity
8
0
100
AcDbLine
62
9
6
CONTINUOUS
10
1.8486284727
20
6.0487046135
11
2.3487046599
21
5.5484761331
0
LINE
5
35C
100
AcDbEntity
8
0
100
AcDbLine
62
7
6
CONTINUOUS
10
7.5000000000
20
-11.0000000000
11
7.5000000000
21
-1.0000000000
0
LINE
5
35D
100
AcDbEntity
8
0
100
AcDbLine
62
9
6
CONTINUOUS
10
7.9141766428
20
-18.9086513684
11
7.9141766428
21
-19.4085752160
0
LINE
5
35E
100
AcDbEntity
8
0
100
AcDbLine
62
9
6
CONTINUOUS
10
8.0784266484
20
19.8030596834
11
8.0784266484
21
19.3031358358
0
LINE
5
35F
100
AcDbEntity
8
0
100
AcDbLine
62
9
6
CONTINUOUS
10
8.7730563203
20
20.5171451693
11
8.7730563203
21
20.2297306704
0
LINE
5
360
100
AcDbEntity
8
0
100
AcDbLine
62
9
6
CONTINUOUS
10
8.7730563203
20
-20.5171451693
11
8.7730563203
21
-20.2297306704
0
LINE
5
361
100
AcDbEntity
8
0
100
AcDbLine
62
7
6
CONTINUOUS
10
3.4000000000
20
-22.3297297297
11
3.3633443637
21
-22.5000000000
0
LINE
5
362
100
AcDbEntity
8
0
100
AcDbLine
62
7
6
CONTINUOUS
10
-2.7167632191
20
-21.6560705017
11
-2.9969695968
21
-22.2000000000
0
LINE
5
363
100
AcDbEntity
8
0
100
AcDbLine
62
7
6
CONTINUOUS
10
10.0721611869
20
-1.1911228098
11
10.0632812915
21
-1.2000000000
0
LINE
5
364
100
AcDbEntity
8
0
100
AcDbLine
62
9
6
CONTINUOUS
10
10.9254573825
20
-1.0618714232
11
10.4252289020
21
-1.5619476105
0
LINE
5
365
100
AcDbEntity
8
0
100
AcDbLine
62
9
6
CONTINUOUS
10
-7.9141766428
20
-18.9086513684
11
-8.2700406783
21
-19.2597704959
0
LINE
5
366
100
AcDbEntity
8
0
100
AcDbLine
62
9
6
CONTINUOUS
10
-8.4321575398
20
19.6564038783
11
-8.0784266484
21
19.3031358358
0
LINE
5
367
100
AcDbEntity
8
0
100
AcDbLine
62
7
6
CONTINUOUS
10
6.0000000000
20
4.2755629091
11
5.6512953401
21
4.6242675690
0
LINE
5
368
100
AcDbEntity
8
0
100
AcDbLine
62
7
6
CONTINUOUS
10
6.0000000000
20
5.1997714731
11
5.6512953401
21
5.5484761331
0
LINE
5
369
100
AcDbEntity
8
0
100
AcDbLine
62
7
6
CONTINUOUS
10
6.4915009248
20
5.7085752160
11
6.1513715273
21
6.0487046135
0
LINE
5
36A
100
AcDbEntity
8
0
100
AcDbLine
62
7
6
CONTINUOUS
10
-2.7167632191
20
21.6560705017
11
-2.9969695968
21
22.2000000000
0
LINE
5
36B
100
AcDbEntity
8
0
100
AcDbLine
62
7
6
CONTINUOUS
10
3.4000000000
20
22.3297297297
11
3.3633443637
21
22.5000000000
0
LINE
5
36C
100
AcDbEntity
8
0
100
AcDbLine
62
9
6
CONTINUOUS
10
9.2223975165
20
-19.7783034685
11
9.2219483227
21
-19.0982243956
0
LINE
5
36D
100
AcDbEntity
8
0
100
AcDbLine
62
7
6
CONTINUOUS
10
9.1255629091
20
-4.7000000000
11
9.1255629091
21
-1.2000000000
0
LINE
5
36E
100
AcDbEntity
8
0
100
AcDbLine
62
7
6
CONTINUOUS
10
9.1500000000
20
-4.6755629091
11
9.1500000000
21
-1.2244370909
0
LINE
5
36F
100
AcDbEntity
8
0
100
AcDbLine
62
9
6
CONTINUOUS
10
9.2159312983
20
-4.6096316108
11
9.2155895996
21
-1.2900266905
0
LINE
5
370
100
AcDbEntity
8
0
100
AcDbLine
62
7
6
CONTINUOUS
10
9.6500000000
20
-20.1496567219
11
9.6500000000
21
-18.6319562297
0
LINE
5
371
100
AcDbEntity
8
0
100
AcDbLine
62
7
6
CONTINUOUS
10
9.6500000000
20
18.6319562297
11
9.6500000000
21
20.1496567219
0
LINE
5
372
100
AcDbEntity
8
0
100
AcDbLine
62
9
6
CONTINUOUS
10
10.0721611869
20
-15.9176243207
11
10.0721611869
21
-4.7088771902
0
LINE
5
373
100
AcDbEntity
8
0
100
AcDbLine
62
9
6
CONTINUOUS
10
10.0721611869
20
-1.1911228098
11
10.0721611869
21
5.7085752160
0
LINE
5
374
100
AcDbEntity
8
0
100
AcDbLine
62
9
6
CONTINUOUS
10
10.4666456542
20
16.0558086086
11
10.4666456542
21
6.5858330989
0
LINE
5
375
100
AcDbEntity
8
0
100
AcDbLine
62
9
6
CONTINUOUS
10
10.5720850344
20
-15.9176243207
11
10.5720850344
21
-5.1915009248
0
LINE
5
376
100
AcDbEntity
8
0
100
AcDbLine
62
9
6
CONTINUOUS
10
10.5720850344
20
-0.7084990752
11
10.5720850344
21
5.2086513684
0
LINE
5
377
100
AcDbEntity
8
0
100
AcDbLine
62
9
6
CONTINUOUS
10
9.2219556557
20
19.0982164442
11
9.2223975165
21
19.7783034685
0
LINE
5
378
100
AcDbEntity
8
0
100
AcDbLine
62
7
6
CONTINUOUS
10
9.1255629091
20
-4.7000000000
11
9.4875105196
21
-4.3380523895
0
LINE
5
379
100
AcDbEntity
8
0
100
AcDbLine
62
7
6
CONTINUOUS
10
10.0632812915
20
-4.7000000000
11
10.4252289020
21
-4.3380523895
0
LWPOLYLINE
5
37A
100
AcDbEntity
8
0
100
AcDbPolyline
62
7
6
CONTINUOUS
90
4
70
0
10
3.2085326736
20
23.2272122432
10
3.2010700153
20
23.2495137554
10
3.1910374834
20
23.2707898250
10
3.1785511965
20
23.2907766347
0
LINE
5
37B
100
AcDbEntity
8
0
100
AcDbLine
62
9
6
CONTINUOUS
10
10.9665695018
20
16.0558086086
11
10.9665695018
21
6.5858330989
0
LINE
5
37C
100
AcDbEntity
8
0
100
AcDbLine
62
7
6
CONTINUOUS
10
11.1500000000
20
-21.8997711479
11
11.1500000000
21
21.8997711479
0
LINE
5
37D
100
AcDbEntity
8
0
100
AcDbLine
62
7
6
CONTINUOUS
10
10.5720850344
20
-5.1915009248
11
10.9254573825
21
-4.8381285768
0
LINE
5
37E
100
AcDbEntity
8
0
100
AcDbLine
62
9
6
CONTINUOUS
10
3.2395930226
20
-21.1905651910
11
3.1705494094
21
-21.2941832525
0
LINE
5
37F
100
AcDbEntity
8
0
100
AcDbLine
62
7
6
CONTINUOUS
10
3.3000000000
20
-22.4000000000
11
3.2301584610
21
-22.5048155586
0
LINE
5
380
100
AcDbEntity
8
0
100
AcDbLine
62
9
6
CONTINUOUS
10
3.1705494094
20
21.2941832525
11
3.2395930226
21
21.1905651910
0
LINE
5
381
100
AcDbEntity
8
0
100
AcDbLine
62
7
6
CONTINUOUS
10
3.2301584610
20
22.5048155586
11
3.3000000000
21
22.4000000000
0
LINE
5
382
100
AcDbEntity
8
0
100
AcDbLine
62
9
6
CONTINUOUS
10
-10.9665695018
20
16.0558086086
11
-10.4666456542
21
16.0558086086
0
LINE
5
383
100
AcDbEntity
8
0
100
AcDbLine
62
9
6
CONTINUOUS
10
10.9665695018
20
16.0558086086
11
10.4666456542
21
16.0558086086
0
LWPOLYLINE
5
384
100
AcDbEntity
8
0
100
AcDbPolyline
62
7
6
CONTINUOUS
90
4
70
0
10
3.1785511965
20
23.2907766347
10
3.1635760969
20
23.3094035605
10
3.1462635524
20
23.3263036843
10
3.1268700442
20
23.3411018124
0
LINE
5
385
100
AcDbEntity
8
0
100
AcDbLine
62
7
6
CONTINUOUS
10
3.4000000000
20
-23.4301797403
11
3.3633443637
21
-23.4668353766
0
LINE
5
386
100
AcDbEntity
8
0
100
AcDbLine
62
9
6
CONTINUOUS
10
-8.0784238083
20
19.3031358358
11
8.0784238211
21
19.3031358358
0
LINE
5
387
100
AcDbEntity
8
0
100
AcDbLine
62
7
6
CONTINUOUS
10
3.4000000000
20
23.4301797403
11
3.3633443637
21
23.4668353766
0
LINE
5
388
100
AcDbEntity
8
0
100
AcDbLine
62
7
6
CONTINUOUS
10
3.3631544652
20
21.1965699136
11
3.2986525290
21
21.1905651910
0
LINE
5
389
100
AcDbEntity
8
0
100
AcDbLine
62
7
6
CONTINUOUS
10
3.1000000000
20
21.1720718961
11
2.6554647254
21
21.1306884717
0
LINE
5
38A
100
AcDbEntity
8
0
100
AcDbLine
62
9
6
CONTINUOUS
10
-8.0784260498
20
19.8030596834
11
8.0784260498
21
19.8030596834
0
LINE
5
38B
100
AcDbEntity
8
0
100
AcDbLine
62
9
6
CONTINUOUS
10
-8.0838316893
20
19.8160983575
11
8.0838316893
21
19.8160983575
0
LINE
5
38C
100
AcDbEntity
8
0
100
AcDbLine
62
9
6
CONTINUOUS
10
-7.7471659548
20
20.0210169973
11
7.7471659548
21
20.0210169973
0
LINE
5
38D
100
AcDbEntity
8
0
100
AcDbLine
62
9
6
CONTINUOUS
10
8.7730563203
20
20.2297306704
11
8.1039313083
21
20.2297306704
0
LINE
5
38E
100
AcDbEntity
8
0
100
AcDbLine
62
9
6
CONTINUOUS
10
-8.1039313083
20
20.2297306704
11
-8.7730563203
21
20.2297306704
0
LINE
5
38F
100
AcDbEntity
8
0
100
AcDbLine
62
9
6
CONTINUOUS
10
8.7730563203
20
20.5171451693
11
7.8030257335
21
20.5171451693
0
LINE
5
390
100
AcDbEntity
8
0
100
AcDbLine
62
9
6
CONTINUOUS
10
-7.8030257335
20
20.5171451693
11
-8.7730563203
21
20.5171451693
0
LINE
5
391
100
AcDbEntity
8
0
100
AcDbLine
62
7
6
CONTINUOUS
10
-8.9005708996
20
20.9000000000
11
-7.3789613615
21
20.9000000000
0
LINE
5
392
100
AcDbEntity
8
0
100
AcDbLine
62
7
6
CONTINUOUS
10
7.3789613615
20
20.9000000000
11
8.9005708996
21
20.9000000000
0
LINE
5
393
100
AcDbEntity
8
0
100
AcDbLine
62
9
6
CONTINUOUS
10
-6.7219619987
20
20.9843180147
11
-2.5908096278
21
20.9843180147
0
LINE
5
394
100
AcDbEntity
8
0
100
AcDbLine
62
9
6
CONTINUOUS
10
2.5908096278
20
20.9843180147
11
6.7219621157
21
20.9843180147
0
LINE
5
395
100
AcDbEntity
8
0
100
AcDbLine
62
7
6
CONTINUOUS
10
-2.6554647254
20
21.1306884717
11
-3.1000000000
21
21.1720718961
0
LINE
5
396
100
AcDbEntity
8
0
100
AcDbLine
62
7
6
CONTINUOUS
10
-3.2986525290
20
21.1905651910
11
-3.3631544652
21
21.1965699136
0
LINE
5
397
100
AcDbEntity
8
0
100
AcDbLine
62
9
6
CONTINUOUS
10
-6.7220012043
20
21.1306884717
11
-2.6554647254
21
21.1306884717
0
LINE
5
398
100
AcDbEntity
8
0
100
AcDbLine
62
9
6
CONTINUOUS
10
2.6554647254
20
21.1306884717
11
6.7220012043
21
21.1306884717
0
LINE
5
399
100
AcDbEntity
8
0
100
AcDbLine
62
7
6
CONTINUOUS
10
3.2986525290
20
21.1905651910
11
3.1000000000
21
21.1905651910
0
LINE
5
39A
100
AcDbEntity
8
0
100
AcDbLine
62
7
6
CONTINUOUS
10
-3.1000000000
20
21.1905651910
11
-3.2986525290
21
21.1905651910
0
LINE
5
39B
100
AcDbEntity
8
0
100
AcDbLine
62
9
6
CONTINUOUS
10
-6.7466556734
20
21.1965699136
11
-3.3631544652
21
21.1965699136
0
LINE
5
39C
100
AcDbEntity
8
0
100
AcDbLine
62
9
6
CONTINUOUS
10
3.3631544652
20
21.1965699136
11
6.7466556734
21
21.1965699136
0
LINE
5
39D
100
AcDbEntity
8
0
100
AcDbLine
62
9
6
CONTINUOUS
10
3.1705494094
20
21.2941832525
11
3.1000000000
21
21.2941832525
0
LINE
5
39E
100
AcDbEntity
8
0
100
AcDbLine
62
9
6
CONTINUOUS
10
-3.1705494094
20
21.2941832525
11
-3.1000000000
21
21.2941832525
0
LINE
5
39F
100
AcDbEntity
8
0
100
AcDbLine
62
9
6
CONTINUOUS
10
-6.7022433077
20
21.3965394526
11
-3.4000000000
21
21.3965394526
0
LINE
5
3A0
100
AcDbEntity
8
0
100
AcDbLine
62
9
6
CONTINUOUS
10
3.4000000000
20
21.3965394526
11
6.7022433077
21
21.3965394526
0
LINE
5
3A1
100
AcDbEntity
8
0
100
AcDbLine
62
7
6
CONTINUOUS
10
2.7167632191
20
21.6560705017
11
-2.7167632191
21
21.6560705017
0
LINE
5
3A2
100
AcDbEntity
8
0
100
AcDbLine
62
9
6
CONTINUOUS
10
3.1705494094
20
21.8921572875
11
3.1000000000
21
21.8921572875
0
LINE
5
3A3
100
AcDbEntity
8
0
100
AcDbLine
62
9
6
CONTINUOUS
10
-3.1705494094
20
21.8921572875
11
-3.1000000000
21
21.8921572875
0
LINE
5
3A4
100
AcDbEntity
8
0
100
AcDbLine
62
7
6
CONTINUOUS
10
3.1000000000
20
22.2000000000
11
-3.1000000000
21
22.2000000000
0
LINE
5
3A5
100
AcDbEntity
8
0
100
AcDbLine
62
7
6
CONTINUOUS
10
10.6503805997
20
22.4000000000
11
5.5445583437
21
22.4000000000
0
LINE
5
3A6
100
AcDbEntity
8
0
100
AcDbLine
62
7
6
CONTINUOUS
10
3.3848722771
20
22.4000000000
11
3.3000000000
21
22.4000000000
0
LINE
5
3A7
100
AcDbEntity
8
0
100
AcDbLine
62
7
6
CONTINUOUS
10
-3.3000000000
20
22.4000000000
11
-3.3848722771
21
22.4000000000
0
LINE
5
3A8
100
AcDbEntity
8
0
100
AcDbLine
62
7
6
CONTINUOUS
10
-5.5445583437
20
22.4000000000
11
-10.6503805997
21
22.4000000000
0
LINE
5
3A9
100
AcDbEntity
8
0
100
AcDbLine
62
7
6
CONTINUOUS
10
3.3633443637
20
22.5000000000
11
3.2301584610
21
22.5000000000
0
LINE
5
3AA
100
AcDbEntity
8
0
100
AcDbLine
62
7
6
CONTINUOUS
10
-3.2301584610
20
22.5000000000
11
-3.3633443637
21
22.5000000000
0
LWPOLYLINE
5
3AB
100
AcDbEntity
8
0
100
AcDbPolyline
62
7
6
CONTINUOUS
90
5
70
0
10
3.1268700442
20
23.3411018124
10
3.1054513314
20
23.3536146629
10
3.0822953609
20
23.3635053060
10
3.0578317859
20
23.3704617338
10
3.0323521747
20
23.3742861303
0
LINE
5
3AC
100
AcDbEntity
8
0
100
AcDbLine
62
9
6
CONTINUOUS
10
3.2301584610
20
23.1750000000
11
3.2153472641
21
23.1750000000
0
LINE
5
3AD
100
AcDbEntity
8
0
100
AcDbLine
62
9
6
CONTINUOUS
10
-3.2153472641
20
23.1750000000
11
-3.2301584610
21
23.1750000000
0
LINE
5
3AE
100
AcDbEntity
8
0
100
AcDbLine
62
9
6
CONTINUOUS
10
3.0154690987
20
23.3164213562
11
-3.0154690987
21
23.3164213562
0
LINE
5
3AF
100
AcDbEntity
8
0
100
AcDbLine
62
7
6
CONTINUOUS
10
3.0300365522
20
23.3750000000
11
-3.0300365522
21
23.3750000000
0
LINE
5
3B0
100
AcDbEntity
8
0
100
AcDbLine
62
7
6
CONTINUOUS
10
3.6537910750
20
23.4301797403
11
3.4000000000
21
23.4301797403
0
LINE
5
3B1
100
AcDbEntity
8
0
100
AcDbLine
62
7
6
CONTINUOUS
10
-3.4000000000
20
23.4301797403
11
-3.6537910750
21
23.4301797403
0
LINE
5
3B2
100
AcDbEntity
8
0
100
AcDbLine
62
7
6
CONTINUOUS
10
3.3633443637
20
23.4668353766
11
-3.3633443637
21
23.4668353766
0
LINE
5
3B3
100
AcDbEntity
8
0
100
AcDbLine
62
7
6
CONTINUOUS
10
-3.6748576640
20
23.5000000000
11
3.6748576640
21
23.5000000000
0
LINE
5
3B4
100
AcDbEntity
8
0
100
AcDbLine
62
7
6
CONTINUOUS
10
3.0323521747
20
23.3742861303
11
3.0154690987
21
23.3749991703
0
ARC
5
3B5
100
AcDbEntity
8
0
100
AcDbCircle
62
7
6
CONTINUOUS
10
3.1500000000
20
-21.6500000000
40
0.3000000000
100
AcDbArc
50
286.5382426164
51
326.4763392935
0
ARC
5
3B6
100
AcDbEntity
8
0
100
AcDbCircle
62
7
6
CONTINUOUS
10
3.1500000000
20
-21.6500000000
40
0.3000000000
100
AcDbArc
50
33.5105152343
51
73.4617573836
0
ARC
5
3B7
100
AcDbEntity
8
0
100
AcDbCircle
62
7
6
CONTINUOUS
10
-3.1500000000
20
-21.6500000000
40
0.3000000000
100
AcDbArc
50
106.5382426164
51
141.2446367770
0
ARC
5
3B8
100
AcDbEntity
8
0
100
AcDbCircle
62
7
6
CONTINUOUS
10
-3.1500000000
20
-21.6500000000
40
0.3000000000
100
AcDbArc
50
213.5105152343
51
253.4617573836
0
ARC
5
3B9
100
AcDbEntity
8
0
100
AcDbCircle
62
7
6
CONTINUOUS
10
3.1500000000
20
21.6500000000
40
0.3000000000
100
AcDbArc
50
286.5382426164
51
321.2446367770
0
ARC
5
3BA
100
AcDbEntity
8
0
100
AcDbCircle
62
7
6
CONTINUOUS
10
3.1500000000
20
21.6500000000
40
0.3000000000
100
AcDbArc
50
33.5105152343
51
73.4617573836
0
ARC
5
3BB
100
AcDbEntity
8
0
100
AcDbCircle
62
7
6
CONTINUOUS
10
-3.1500000000
20
21.6500000000
40
0.3000000000
100
AcDbArc
50
106.5382426164
51
146.4763392935
0
ARC
5
3BC
100
AcDbEntity
8
0
100
AcDbCircle
62
7
6
CONTINUOUS
10
-3.1500000000
20
21.6500000000
40
0.3000000000
100
AcDbArc
50
213.5105152343
51
253.4617573836
0
ARC
5
3BD
100
AcDbEntity
8
0
100
AcDbCircle
62
9
6
CONTINUOUS
10
3.1500000000
20
-21.6500000000
40
0.1500000000
100
AcDbArc
50
302.2994342645
51
57.6920792956
0
ARC
5
3BE
100
AcDbEntity
8
0
100
AcDbCircle
62
9
6
CONTINUOUS
10
-3.1500000000
20
-21.6500000000
40
0.1500000000
100
AcDbArc
50
122.2994342645
51
237.6920792956
0
ARC
5
3BF
100
AcDbEntity
8
0
100
AcDbCircle
62
9
6
CONTINUOUS
10
3.1500000000
20
21.6500000000
40
0.1500000000
100
AcDbArc
50
302.2994342645
51
57.6920792956
0
ARC
5
3C0
100
AcDbEntity
8
0
100
AcDbCircle
62
9
6
CONTINUOUS
10
-3.1500000000
20
21.6500000000
40
0.1500000000
100
AcDbArc
50
122.2994342645
51
237.6920792956
0
ARC
5
3C1
100
AcDbEntity
8
0
100
AcDbCircle
62
7
6
CONTINUOUS
10
-11.2500000000
20
0.0000000000
40
28.0000000000
100
AcDbArc
50
38.3146467789
51
54.0372348486
0
ARC
5
3C2
100
AcDbEntity
8
0
100
AcDbCircle
62
7
6
CONTINUOUS
10
-11.2500000000
20
0.0000000000
40
28.0000000000
100
AcDbArc
50
55.8789063483
51
56.4427882590
0
ARC
5
3C3
100
AcDbEntity
8
0
100
AcDbCircle
62
7
6
CONTINUOUS
10
11.2500000000
20
0.0000000000
40
28.0000000000
100
AcDbArc
50
123.5572117410
51
124.1210936517
0
ARC
5
3C4
100
AcDbEntity
8
0
100
AcDbCircle
62
7
6
CONTINUOUS
10
11.2500000000
20
0.0000000000
40
28.0000000000
100
AcDbArc
50
125.9627651514
51
141.6853532211
0
ARC
5
3C5
100
AcDbEntity
8
0
100
AcDbCircle
62
7
6
CONTINUOUS
10
11.2500000000
20
0.0000000000
40
28.0000000000
100
AcDbArc
50
218.3146467787
51
234.0372348486
0
ARC
5
3C6
100
AcDbEntity
8
0
100
AcDbCircle
62
7
6
CONTINUOUS
10
11.2500000000
20
0.0000000000
40
28.0000000000
100
AcDbArc
50
235.8789063483
51
236.4427880677
0
ARC
5
3C7
100
AcDbEntity
8
0
100
AcDbCircle
62
7
6
CONTINUOUS
10
-11.2500000000
20
0.0000000000
40
28.0000000000
100
AcDbArc
50
303.5572119323
51
304.1210936517
0
ARC
5
3C8
100
AcDbEntity
8
0
100
AcDbCircle
62
7
6
CONTINUOUS
10
-11.2500000000
20
0.0000000000
40
28.0000000000
100
AcDbArc
50
305.9627651514
51
321.6853532213
0
ARC
5
3C9
100
AcDbEntity
8
0
100
AcDbCircle
62
7
6
CONTINUOUS
10
3.6320450000
20
1.4263410000
40
0.2494390000
100
AcDbArc
50
270.0010063792
51
90.0010063711
0
ARC
5
3CA
100
AcDbEntity
8
0
100
AcDbCircle
62
7
6
CONTINUOUS
10
3.6889540000
20
1.4263410000
40
0.6287074522
100
AcDbArc
50
292.8428566081
51
89.9987091929
0
ARC
5
3CB
100
AcDbEntity
8
0
100
AcDbCircle
62
7
6
CONTINUOUS
10
-4.9500000000
20
23.1000000000
40
0.5000000000
100
AcDbArc
50
240.8875772240
51
9.1962815791
0
ARC
5
3CC
100
AcDbEntity
8
0
100
AcDbCircle
62
7
6
CONTINUOUS
10
4.9500000000
20
23.1000000000
40
0.5000000000
100
AcDbArc
50
170.8037184209
51
299.1124227760
0
ARC
5
3CD
100
AcDbEntity
8
0
100
AcDbCircle
62
7
6
CONTINUOUS
10
-4.9500000000
20
-23.1000000000
40
0.5000000000
100
AcDbArc
50
350.8037184210
51
119.1124227760
0
ARC
5
3CE
100
AcDbEntity
8
0
100
AcDbCircle
62
7
6
CONTINUOUS
10
4.9500000000
20
-23.1000000000
40
0.5000000000
100
AcDbArc
50
60.8875772240
51
189.1962815790
0
ARC
5
3CF
100
AcDbEntity
8
0
100
AcDbCircle
62
9
6
CONTINUOUS
10
11.2500000000
20
0.0000000000
40
27.8165695018
100
AcDbArc
50
135.0375130541
51
141.5441494164
0
ARC
5
3D0
100
AcDbEntity
8
0
100
AcDbCircle
62
9
6
CONTINUOUS
10
11.2500000000
20
0.0000000000
40
27.3166456542
100
AcDbArc
50
135.0375054464
51
141.5441494164
0
ARC
5
3D1
100
AcDbEntity
8
0
100
AcDbCircle
62
7
6
CONTINUOUS
10
-11.2500000000
20
0.0000000000
40
27.9301797403
100
AcDbArc
50
305.8816011220
51
309.9975091513
0
ARC
5
3D2
100
AcDbEntity
8
0
100
AcDbCircle
62
7
6
CONTINUOUS
10
-11.2500000000
20
0.0000000000
40
27.9301797403
100
AcDbArc
50
303.6019742715
51
304.2022576811
0
ARC
5
3D3
100
AcDbEntity
8
0
100
AcDbCircle
62
7
6
CONTINUOUS
10
11.2500000000
20
0.0000000000
40
27.9301797403
100
AcDbArc
50
235.7977423189
51
236.3980257285
0
ARC
5
3D4
100
AcDbEntity
8
0
100
AcDbCircle
62
7
6
CONTINUOUS
10
11.2500000000
20
0.0000000000
40
27.9301797403
100
AcDbArc
50
230.0024908487
51
234.1183988780
0
ARC
5
3D5
100
AcDbEntity
8
0
100
AcDbCircle
62
9
6
CONTINUOUS
10
-11.2500000000
20
0.0000000000
40
27.3166456542
100
AcDbArc
50
38.4558505836
51
44.9624945347
0
ARC
5
3D6
100
AcDbEntity
8
0
100
AcDbCircle
62
9
6
CONTINUOUS
10
-11.2500000000
20
0.0000000000
40
27.8165695018
100
AcDbArc
50
38.4558505836
51
44.9624869459
0
ARC
5
3D7
100
AcDbEntity
8
0
100
AcDbCircle
62
7
6
CONTINUOUS
10
-11.2500000000
20
0.0000000000
40
27.9301797403
100
AcDbArc
50
55.7977423189
51
56.3980257285
0
ARC
5
3D8
100
AcDbEntity
8
0
100
AcDbCircle
62
7
6
CONTINUOUS
10
-11.2500000000
20
0.0000000000
40
27.9301797403
100
AcDbArc
50
50.0024908487
51
54.1183988780
0
ARC
5
3D9
100
AcDbEntity
8
0
100
AcDbCircle
62
7
6
CONTINUOUS
10
11.2500000000
20
0.0000000000
40
27.9301797403
100
AcDbArc
50
125.8816011220
51
129.9975091513
0
ARC
5
3DA
100
AcDbEntity
8
0
100
AcDbCircle
62
7
6
CONTINUOUS
10
11.2500000000
20
0.0000000000
40
27.9301797403
100
AcDbArc
50
123.6019742715
51
124.2022576811
0
ARC
5
3DB
100
AcDbEntity
8
0
100
AcDbCircle
62
9
6
CONTINUOUS
10
11.2500000000
20
0.0000000000
40
26.9221611869
100
AcDbArc
50
218.7648956431
51
224.6154684155
0
ARC
5
3DC
100
AcDbEntity
8
0
100
AcDbCircle
62
9
6
CONTINUOUS
10
11.2500000000
20
0.0000000000
40
27.4220850344
100
AcDbArc
50
218.7648956431
51
224.6154654333
0
ARC
5
3DD
100
AcDbEntity
8
0
100
AcDbCircle
62
9
6
CONTINUOUS
10
-11.2500000000
20
0.0000000000
40
27.4220850344
100
AcDbArc
50
315.3845345667
51
321.2351043569
0
ARC
5
3DE
100
AcDbEntity
8
0
100
AcDbCircle
62
9
6
CONTINUOUS
10
-11.2500000000
20
0.0000000000
40
26.9221611869
100
AcDbArc
50
315.3845314496
51
321.2351043569
0
SPLINE
5
3DF
100
AcDbEntity
8
0
100
AcDbSpline
62
7
6
CONTINUOUS
70
0
71
3
72
15
73
11
74
9
42
0.0000001000
43
0.0000001000
44
0.0000000001
12
0.0000000000
22
-0.7840504605
32
0.0000000000
13
0.7840504605
23
0.0000000000
33
0.0000000000
40
0.0000000000
40
0.0000000000
40
0.0000000000
40
0.0000000000
40
0.1250035856
40
0.2500003382
40
0.3749971738
40
0.4999931596
40
0.6249941993
40
0.7499962985
40
0.8749988330
40
1.0000000000
40
1.0000000000
40
1.0000000000
40
1.0000000000
10
-11.1500000000
20
-21.8997711479
30
0.0000000000
10
-11.1500000000
20
-21.9324408542
30
0.0000000000
10
-11.1435720625
20
-21.9979588343
30
0.0000000000
10
-11.1150028885
20
-22.0923353736
30
0.0000000000
10
-11.0685863853
20
-22.1793736183
30
0.0000000000
10
-11.0060858443
20
-22.2556795570
30
0.0000000000
10
-10.9298940235
20
-22.3183228818
30
0.0000000000
10
-10.8429223671
20
-22.3648787971
30
0.0000000000
10
-10.7485697898
20
-22.3935479377
30
0.0000000000
10
-10.6830496739
20
-22.4000000000
30
0.0000000000
10
-10.6503805997
20
-22.4000000000
30
0.0000000000
11
-11.1500000000
21
-21.8997711479
31
0.0000000000
11
-11.1404171274
21
-21.9973106575
31
0.0000000000
11
-11.1120282390
21
-22.0911126206
31
0.0000000000
11
-11.0659057104
21
-22.1775849419
31
0.0000000000
11
-11.0038050670
21
-22.2534013616
31
0.0000000000
11
-10.9280978412
21
-22.3156413172
31
0.0000000000
11
-10.8416923200
21
-22.3618976126
31
0.0000000000
11
-10.7479148288
21
-22.3903828363
31
0.0000000000
11
-10.6503805997
21
-22.4000000000
31
0.0000000000
0
SPLINE
5
3E0
100
AcDbEntity
8
0
100
AcDbSpline
62
7
6
CONTINUOUS
70
0
71
3
72
8
73
4
74
2
42
0.0000001000
43
0.0000001000
44
0.0000000001
12
-0.0268866140
22
0.0000000000
32
0.0000000000
13
-0.0268013312
23
0.0036546710
33
0.0000000000
40
0.0000000000
40
0.0000000000
40
0.0000000000
40
0.0000000000
40
1.0000000000
40
1.0000000000
40
1.0000000000
40
1.0000000000
10
-3.0300365522
20
-23.3750000000
30
0.0000000000
10
-3.0389987568
20
-23.3750000000
30
0.0000000000
10
-3.0479947729
20
-23.3743830020
30
0.0000000000
10
-3.0569285499
20
-23.3731647783
30
0.0000000000
11
-3.0300365522
21
-23.3750000000
31
0.0000000000
11
-3.0569285499
21
-23.3731647783
31
0.0000000000
0
SPLINE
5
3E1
100
AcDbEntity
8
0
100
AcDbSpline
62
7
6
CONTINUOUS
70
0
71
3
72
8
73
4
74
2
42
0.0000001000
43
0.0000001000
44
0.0000000001
12
-0.0258231735
22
0.0035212879
32
0.0000000000
13
-0.0252187614
23
0.0068278118
33
0.0000000000
40
0.0000000000
40
0.0000000000
40
0.0000000000
40
0.0000000000
40
1.0000000000
40
1.0000000000
40
1.0000000000
40
1.0000000000
10
-3.0569285499
20
-23.3731647783
30
0.0000000000
10
-3.0655362744
20
-23.3719910157
30
0.0000000000
10
-3.0740862200
20
-23.3702591119
30
0.0000000000
10
-3.0824924738
20
-23.3679831747
30
0.0000000000
11
-3.0569285499
21
-23.3731647783
31
0.0000000000
11
-3.0824924738
21
-23.3679831747
31
0.0000000000
0
SPLINE
5
3E2
100
AcDbEntity
8
0
100
AcDbSpline
62
7
6
CONTINUOUS
70
0
71
3
72
11
73
7
74
5
42
0.0000001000
43
0.0000001000
44
0.0000000001
12
-0.2525714060
22
0.0683820272
32
0.0000000000
13
-0.0000000000
23
0.2594476782
33
0.0000000000
40
0.0000000000
40
0.0000000000
40
0.0000000000
40
0.0000000000
40
0.0980116625
40
0.3993801724
40
0.7001764270
40
1.0000000000
40
1.0000000000
40
1.0000000000
40
1.0000000000
10
-3.0824924738
20
-23.3679831747
30
0.0000000000
10
-3.0907441216
20
-23.3657490959
30
0.0000000000
10
-3.1238039462
20
-23.3545095739
30
0.0000000000
10
-3.1753672047
20
-23.3199338382
30
0.0000000000
10
-3.2197950732
20
-23.2534372859
30
0.0000000000
10
-3.2301584610
20
-23.2009295100
30
0.0000000000
10
-3.2301584610
20
-23.1750000000
30
0.0000000000
11
-3.0824924738
21
-23.3679831747
31
0.0000000000
11
-3.1067507931
21
-23.3597216639
31
0.0000000000
11
-3.1717310041
21
-23.3162343299
31
0.0000000000
11
-3.2150222996
21
-23.2513017169
31
0.0000000000
11
-3.2301584610
21
-23.1750000000
31
0.0000000000
0
SPLINE
5
3E3
100
AcDbEntity
8
0
100
AcDbSpline
62
7
6
CONTINUOUS
70
0
71
3
72
8
73
4
74
2
42
0.0000001000
43
0.0000001000
44
0.0000000001
12
0.0268866140
22
0.0000000000
32
0.0000000000
13
0.0268013312
23
-0.0036546710
33
0.0000000000
40
0.0000000000
40
0.0000000000
40
0.0000000000
40
0.0000000000
40
1.0000000000
40
1.0000000000
40
1.0000000000
40
1.0000000000
10
3.0300365522
20
23.3750000000
30
0.0000000000
10
3.0389987568
20
23.3750000000
30
0.0000000000
10
3.0479947729
20
23.3743830020
30
0.0000000000
10
3.0569285499
20
23.3731647783
30
0.0000000000
11
3.0300365522
21
23.3750000000
31
0.0000000000
11
3.0569285499
21
23.3731647783
31
0.0000000000
0
SPLINE
5
3E4
100
AcDbEntity
8
0
100
AcDbSpline
62
7
6
CONTINUOUS
70
0
71
3
72
8
73
4
74
2
42
0.0000001000
43
0.0000001000
44
0.0000000001
12
0.0258231735
22
-0.0035212879
32
0.0000000000
13
0.0252187614
23
-0.0068278118
33
0.0000000000
40
0.0000000000
40
0.0000000000
40
0.0000000000
40
0.0000000000
40
1.0000000000
40
1.0000000000
40
1.0000000000
40
1.0000000000
10
3.0569285499
20
23.3731647783
30
0.0000000000
10
3.0655362744
20
23.3719910157
30
0.0000000000
10
3.0740862200
20
23.3702591119
30
0.0000000000
10
3.0824924738
20
23.3679831747
30
0.0000000000
11
3.0569285499
21
23.3731647783
31
0.0000000000
11
3.0824924738
21
23.3679831747
31
0.0000000000
0
SPLINE
5
3E5
100
AcDbEntity
8
0
100
AcDbSpline
62
7
6
CONTINUOUS
70
0
71
3
72
9
73
5
74
3
42
0.0000001000
43
0.0000001000
44
0.0000000001
12
0.0499674425
22
-0.0135283525
32
0.0000000000
13
0.0447425079
23
-0.0258471570
33
0.0000000000
40
0.0000000000
40
0.0000000000
40
0.0000000000
40
0.0000000000
40
0.4954214619
40
1.0000000000
40
1.0000000000
40
1.0000000000
40
1.0000000000
10
3.0824924738
20
23.3679831747
30
0.0000000000
10
3.0907441216
20
23.3657490959
30
0.0000000000
10
3.1071204668
20
23.3601815439
30
0.0000000000
10
3.1226016356
20
23.3525325973
30
0.0000000000
10
3.1301270053
20
23.3481852904
30
0.0000000000
11
3.0824924738
21
23.3679831747
31
0.0000000000
11
3.1067507931
21
23.3597216639
31
0.0000000000
11
3.1301270053
21
23.3481852904
31
0.0000000000
0
SPLINE
5
3E6
100
AcDbEntity
8
0
100
AcDbSpline
62
7
6
CONTINUOUS
70
0
71
3
72
9
73
5
74
3
42
0.0000001000
43
0.0000001000
44
0.0000000001
12
0.0681560324
22
-0.0393728415
32
0.0000000000
13
0.0478525326
23
-0.0624265091
33
0.0000000000
40
0.0000000000
40
0.0000000000
40
0.0000000000
40
0.0000000000
40
0.6687836819
40
1.0000000000
40
1.0000000000
40
1.0000000000
40
1.0000000000
10
3.1301270053
20
23.3481852904
30
0.0000000000
10
3.1453208861
20
23.3394079858
30
0.0000000000
10
3.1662957202
20
23.3233103345
30
0.0000000000
10
3.1835923966
20
23.3035416189
30
0.0000000000
10
3.1888755765
20
23.2966493927
30
0.0000000000
11
3.1301270053
21
23.3481852904
31
0.0000000000
11
3.1717310041
21
23.3162343299
31
0.0000000000
11
3.1888755765
21
23.2966493927
31
0.0000000000
0
SPLINE
5
3E7
100
AcDbEntity
8
0
100
AcDbSpline
62
7
6
CONTINUOUS
70
0
71
3
72
9
73
5
74
3
42
0.0000001000
43
0.0000001000
44
0.0000000001
12
0.0795217546
22
-0.1037409154
32
0.0000000000
13
-0.0000000000
23
-0.1299324810
33
0.0000000000
40
0.0000000000
40
0.0000000000
40
0.0000000000
40
0.0000000000
40
0.4013157503
40
1.0000000000
40
1.0000000000
40
1.0000000000
40
1.0000000000
10
3.1888755765
20
23.2966493927
30
0.0000000000
10
3.1995133541
20
23.2827717716
30
0.0000000000
10
3.2215173412
20
23.2447111374
30
0.0000000000
10
3.2301584610
20
23.2009295100
30
0.0000000000
10
3.2301584610
20
23.1750000000
30
0.0000000000
11
3.1888755765
21
23.2966493927
31
0.0000000000
11
3.2150222996
21
23.2513017169
31
0.0000000000
11
3.2301584610
21
23.1750000000
31
0.0000000000
0
SPLINE
5
3E8
100
AcDbEntity
8
0
100
AcDbSpline
62
7
6
CONTINUOUS
70
0
71
3
72
15
73
11
74
9
42
0.0000001000
43
0.0000001000
44
0.0000000001
12
-0.7840504604
22
0.0000000000
32
0.0000000000
13
0.0000000000
23
-0.7840504604
33
0.0000000000
40
0.0000000000
40
0.0000000000
40
0.0000000000
40
0.0000000000
40
0.1250026133
40
0.2500082844
40
0.3750136098
40
0.5000160060
40
0.6250106349
40
0.7500042447
40
0.8749978606
40
1.0000000000
40
1.0000000000
40
1.0000000000
40
1.0000000000
10
-10.6503805997
20
22.4000000000
30
0.0000000000
10
-10.6830500519
20
22.4000000000
30
0.0000000000
10
-10.7485713718
20
22.3935477443
30
0.0000000000
10
-10.8429258085
20
22.3648775487
30
0.0000000000
10
-10.9298988298
20
22.3183198083
30
0.0000000000
10
-11.0060904776
20
22.2556749149
30
0.0000000000
10
-11.0685894502
20
22.1793688070
30
0.0000000000
10
-11.1150041327
20
22.0923319310
30
0.0000000000
10
-11.1435722551
20
21.9979572524
30
0.0000000000
10
-11.1500000000
20
21.9324404763
30
0.0000000000
10
-11.1500000000
20
21.8997711479
30
0.0000000000
11
-10.6503805997
21
22.4000000000
31
0.0000000000
11
-10.7479159463
21
22.3903826137
31
0.0000000000
11
-10.8416956551
21
22.3618962291
31
0.0000000000
11
-10.9281029540
21
22.3156378952
31
0.0000000000
11
-11.0038101683
21
22.2533962508
31
0.0000000000
11
-11.0659091235
21
22.1775798235
31
0.0000000000
11
-11.1120296181
21
22.0911092838
31
0.0000000000
11
-11.1404173492
21
21.9973095399
31
0.0000000000
11
-11.1500000000
21
21.8997711479
31
0.0000000000
0
SPLINE
5
3E9
100
AcDbEntity
8
0
100
AcDbSpline
62
7
6
CONTINUOUS
70
0
71
3
72
15
73
11
74
9
42
0.0000001000
43
0.0000001000
44
0.0000000001
12
0.7840504604
22
0.0000000000
32
0.0000000000
13
0.0000000000
23
0.7840504604
33
0.0000000000
40
0.0000000000
40
0.0000000000
40
0.0000000000
40
0.0000000000
40
0.1250026133
40
0.2500082844
40
0.3750136098
40
0.5000160060
40
0.6250106349
40
0.7500042447
40
0.8749978606
40
1.0000000000
40
1.0000000000
40
1.0000000000
40
1.0000000000
10
10.6503805997
20
-22.4000000000
30
0.0000000000
10
10.6830500519
20
-22.4000000000
30
0.0000000000
10
10.7485713718
20
-22.3935477443
30
0.0000000000
10
10.8429258085
20
-22.3648775487
30
0.0000000000
10
10.9298988298
20
-22.3183198083
30
0.0000000000
10
11.0060904776
20
-22.2556749149
30
0.0000000000
10
11.0685894502
20
-22.1793688070
30
0.0000000000
10
11.1150041327
20
-22.0923319310
30
0.0000000000
10
11.1435722551
20
-21.9979572524
30
0.0000000000
10
11.1500000000
20
-21.9324404762
30
0.0000000000
10
11.1500000000
20
-21.8997711479
30
0.0000000000
11
10.6503805997
21
-22.4000000000
31
0.0000000000
11
10.7479159463
21
-22.3903826137
31
0.0000000000
11
10.8416956551
21
-22.3618962291
31
0.0000000000
11
10.9281029540
21
-22.3156378952
31
0.0000000000
11
11.0038101683
21
-22.2533962508
31
0.0000000000
11
11.0659091235
21
-22.1775798235
31
0.0000000000
11
11.1120296181
21
-22.0911092838
31
0.0000000000
11
11.1404173492
21
-21.9973095399
31
0.0000000000
11
11.1500000000
21
-21.8997711479
31
0.0000000000
0
SPLINE
5
3EA
100
AcDbEntity
8
0
100
AcDbSpline
62
7
6
CONTINUOUS
70
0
71
3
72
15
73
11
74
9
42
0.0000001000
43
0.0000001000
44
0.0000000001
12
0.0000000000
22
0.7840504605
32
0.0000000000
13
-0.7840504605
23
0.0000000000
33
0.0000000000
40
0.0000000000
40
0.0000000000
40
0.0000000000
40
0.0000000000
40
0.1250035856
40
0.2500003382
40
0.3749971738
40
0.4999931596
40
0.6249941993
40
0.7499962985
40
0.8749988330
40
1.0000000000
40
1.0000000000
40
1.0000000000
40
1.0000000000
10
11.1500000000
20
21.8997711479
30
0.0000000000
10
11.1500000000
20
21.9324408542
30
0.0000000000
10
11.1435720625
20
21.9979588343
30
0.0000000000
10
11.1150028885
20
22.0923353736
30
0.0000000000
10
11.0685863853
20
22.1793736183
30
0.0000000000
10
11.0060858443
20
22.2556795571
30
0.0000000000
10
10.9298940235
20
22.3183228818
30
0.0000000000
10
10.8429223671
20
22.3648787971
30
0.0000000000
10
10.7485697898
20
22.3935479377
30
0.0000000000
10
10.6830496739
20
22.4000000000
30
0.0000000000
10
10.6503805997
20
22.4000000000
30
0.0000000000
11
11.1500000000
21
21.8997711479
31
0.0000000000
11
11.1404171274
21
21.9973106575
31
0.0000000000
11
11.1120282390
21
22.0911126206
31
0.0000000000
11
11.0659057104
21
22.1775849419
31
0.0000000000
11
11.0038050670
21
22.2534013617
31
0.0000000000
11
10.9280978412
21
22.3156413172
31
0.0000000000
11
10.8416923200
21
22.3618976126
31
0.0000000000
11
10.7479148288
21
22.3903828363
31
0.0000000000
11
10.6503805997
21
22.4000000000
31
0.0000000000
0
SPLINE
5
3EB
100
AcDbEntity
8
0
100
AcDbSpline
62
7
6
CONTINUOUS
70
0
71
3
72
11
73
7
74
5
42
0.0000001000
43
0.0000001000
44
0.0000000001
12
-0.0000000000
22
0.3122396360
32
0.0000000000
13
0.3122396360
23
0.0000000000
33
0.0000000000
40
0.0000000000
40
0.0000000000
40
0.0000000000
40
0.0000000000
40
0.2491308628
40
0.4990699508
40
0.7494845400
40
1.0000000000
40
1.0000000000
40
1.0000000000
40
1.0000000000
10
-3.2301584610
20
23.1750000000
30
0.0000000000
10
-3.2301584610
20
23.2009295100
30
0.0000000000
10
-3.2197950732
20
23.2534372859
30
0.0000000000
10
-3.1753672047
20
23.3199338382
30
0.0000000000
10
-3.1088191497
20
23.3645576271
30
0.0000000000
10
-3.0561101708
20
23.3750000000
30
0.0000000000
10
-3.0300365522
20
23.3750000000
30
0.0000000000
11
-3.2301584610
21
23.1750000000
31
0.0000000000
11
-3.2150222996
21
23.2513017169
31
0.0000000000
11
-3.1717310041
21
23.3162343299
31
0.0000000000
11
-3.1067507931
21
23.3597216639
31
0.0000000000
11
-3.0300365522
21
23.3750000000
31
0.0000000000
0
SPLINE
5
3EC
100
AcDbEntity
8
0
100
AcDbSpline
62
7
6
CONTINUOUS
70
0
71
3
72
11
73
7
74
5
42
0.0000001000
43
0.0000001000
44
0.0000000001
12
0.0000000000
22
-0.3122396360
32
0.0000000000
13
-0.3122396360
23
0.0000000000
33
0.0000000000
40
0.0000000000
40
0.0000000000
40
0.0000000000
40
0.0000000000
40
0.2491308628
40
0.4990699508
40
0.7494845400
40
1.0000000000
40
1.0000000000
40
1.0000000000
40
1.0000000000
10
3.2301584610
20
-23.1750000000
30
0.0000000000
10
3.2301584610
20
-23.2009295100
30
0.0000000000
10
3.2197950732
20
-23.2534372859
30
0.0000000000
10
3.1753672047
20
-23.3199338382
30
0.0000000000
10
3.1088191497
20
-23.3645576271
30
0.0000000000
10
3.0561101708
20
-23.3750000000
30
0.0000000000
10
3.0300365522
20
-23.3750000000
30
0.0000000000
11
3.2301584610
21
-23.1750000000
31
0.0000000000
11
3.2150222996
21
-23.2513017169
31
0.0000000000
11
3.1717310041
21
-23.3162343299
31
0.0000000000
11
3.1067507931
21
-23.3597216639
31
0.0000000000
11
3.0300365522
21
-23.3750000000
31
0.0000000000
0
SPLINE
5
3ED
100
AcDbEntity
8
0
100
AcDbSpline
62
7
6
CONTINUOUS
70
0
71
3
72
11
73
7
74
5
42
0.0000001000
43
0.0000001000
44
0.0000000001
12
0.1543638770
22
0.0458367576
32
0.0000000000
13
-0.0000000000
23
-0.1610255099
33
0.0000000000
40
0.0000000000
40
0.0000000000
40
0.0000000000
40
0.0000000000
40
0.0891935995
40
0.3360785789
40
0.6632045768
40
1.0000000000
40
1.0000000000
40
1.0000000000
40
1.0000000000
10
-3.2353965764
20
21.9375889858
30
0.0000000000
10
-3.2308071532
20
21.9389517676
30
0.0000000000
10
-3.2365125616
20
21.9070043155
30
0.0000000000
10
-3.2291185924
20
21.8833479126
30
0.0000000000
10
-3.2309861334
20
21.8291938573
30
0.0000000000
10
-3.2301584610
20
21.7948632808
30
0.0000000000
10
-3.2301584610
20
21.7767857292
30
0.0000000000
11
-3.2353965764
21
21.9375889858
31
0.0000000000
11
-3.2331697594
21
21.9234002188
31
0.0000000000
11
-3.2314147721
21
21.8836841952
31
0.0000000000
11
-3.2304348827
21
21.8310176795
31
0.0000000000
11
-3.2301584610
21
21.7767857292
31
0.0000000000
0
SPLINE
5
3EE
100
AcDbEntity
8
0
100
AcDbSpline
62
7
6
CONTINUOUS
70
0
71
3
72
11
73
7
74
5
42
0.0000001000
43
0.0000001000
44
0.0000000001
12
-0.1543638770
22
-0.0458367576
32
0.0000000000
13
-0.0000000000
23
0.1610255099
33
0.0000000000
40
0.0000000000
40
0.0000000000
40
0.0000000000
40
0.0000000000
40
0.0891935995
40
0.3360785789
40
0.6632045768
40
1.0000000000
40
1.0000000000
40
1.0000000000
40
1.0000000000
10
3.2353965764
20
-21.9375889858
30
0.0000000000
10
3.2308071532
20
-21.9389517676
30
0.0000000000
10
3.2365125616
20
-21.9070043155
30
0.0000000000
10
3.2291185924
20
-21.8833479126
30
0.0000000000
10
3.2309861334
20
-21.8291938573
30
0.0000000000
10
3.2301584610
20
-21.7948632808
30
0.0000000000
10
3.2301584610
20
-21.7767857292
30
0.0000000000
11
3.2353965764
21
-21.9375889858
31
0.0000000000
11
3.2331697594
21
-21.9234002188
31
0.0000000000
11
3.2314147721
21
-21.8836841952
31
0.0000000000
11
3.2304348827
21
-21.8310176795
31
0.0000000000
11
3.2301584610
21
-21.7767857292
31
0.0000000000
0
SPLINE
5
3EF
100
AcDbEntity
8
0
100
AcDbSpline
62
7
6
CONTINUOUS
70
0
71
3
72
14
73
10
74
8
42
0.0000001000
43
0.0000001000
44
0.0000000001
12
0.0000000000
22
0.1610608859
32
0.0000000000
13
0.1543977894
23
-0.0458468275
33
0.0000000000
40
0.0000000000
40
0.0000000000
40
0.0000000000
40
0.0000000000
40
0.1705431819
40
0.3442262393
40
0.5184867317
40
0.6863261181
40
0.8388717676
40
0.9555342865
40
1.0000000000
40
1.0000000000
40
1.0000000000
40
1.0000000000
10
3.2301584610
20
-21.5232142708
30
0.0000000000
10
3.2301584610
20
-21.5140583255
30
0.0000000000
10
3.2301953401
20
-21.4955649084
30
0.0000000000
10
3.2304361897
20
-21.4677886917
30
0.0000000000
10
3.2307486736
20
-21.4398850353
30
0.0000000000
10
3.2316823912
20
-21.4140876502
30
0.0000000000
10
3.2315640038
20
-21.3882917730
30
0.0000000000
10
3.2348286633
20
-21.3768961962
30
0.0000000000
10
3.2331081071
20
-21.3617314769
30
0.0000000000
10
3.2353965764
20
-21.3624110142
30
0.0000000000
11
3.2301584610
21
-21.5232142708
31
0.0000000000
11
3.2302252008
21
-21.4957465159
31
0.0000000000
11
3.2304481735
21
-21.4677738575
31
0.0000000000
11
3.2308663442
21
-21.4397104236
31
0.0000000000
11
3.2315214703
21
-21.4126860029
31
0.0000000000
11
3.2324773430
21
-21.3881354669
31
0.0000000000
11
3.2337989873
21
-21.3693922371
31
0.0000000000
11
3.2353965764
21
-21.3624110142
31
0.0000000000
0
SPLINE
5
3F0
100
AcDbEntity
8
0
100
AcDbSpline
62
7
6
CONTINUOUS
70
0
71
3
72
14
73
10
74
8
42
0.0000001000
43
0.0000001000
44
0.0000000001
12
0.0000000000
22
-0.1610608859
32
0.0000000000
13
-0.1543977894
23
0.0458468275
33
0.0000000000
40
0.0000000000
40
0.0000000000
40
0.0000000000
40
0.0000000000
40
0.1705431819
40
0.3442262393
40
0.5184867317
40
0.6863261181
40
0.8388717676
40
0.9555342865
40
1.0000000000
40
1.0000000000
40
1.0000000000
40
1.0000000000
10
-3.2301584610
20
-21.7767857292
30
0.0000000000
10
-3.2301584610
20
-21.7859416745
30
0.0000000000
10
-3.2301953401
20
-21.8044350916
30
0.0000000000
10
-3.2304361897
20
-21.8322113083
30
0.0000000000
10
-3.2307486736
20
-21.8601149647
30
0.0000000000
10
-3.2316823912
20
-21.8859123498
30
0.0000000000
10
-3.2315640038
20
-21.9117082270
30
0.0000000000
10
-3.2348286633
20
-21.9231038038
30
0.0000000000
10
-3.2331081071
20
-21.9382685231
30
0.0000000000
10
-3.2353965764
20
-21.9375889858
30
0.0000000000
11
-3.2301584610
21
-21.7767857292
31
0.0000000000
11
-3.2302252008
21
-21.8042534841
31
0.0000000000
11
-3.2304481735
21
-21.8322261425
31
0.0000000000
11
-3.2308663442
21
-21.8602895764
31
0.0000000000
11
-3.2315214703
21
-21.8873139971
31
0.0000000000
11
-3.2324773430
21
-21.9118645331
31
0.0000000000
11
-3.2337989873
21
-21.9306077629
31
0.0000000000
11
-3.2353965764
21
-21.9375889858
31
0.0000000000
0
SPLINE
5
3F1
100
AcDbEntity
8
0
100
AcDbSpline
62
7
6
CONTINUOUS
70
0
71
3
72
14
73
10
74
8
42
0.0000001000
43
0.0000001000
44
0.0000000001
12
0.0000000000
22
0.1610608859
32
0.0000000000
13
0.1543977894
23
-0.0458468275
33
0.0000000000
40
0.0000000000
40
0.0000000000
40
0.0000000000
40
0.0000000000
40
0.1705431819
40
0.3442262393
40
0.5184867317
40
0.6863261181
40
0.8388717676
40
0.9555342865
40
1.0000000000
40
1.0000000000
40
1.0000000000
40
1.0000000000
10
3.2301584610
20
21.7767857292
30
0.0000000000
10
3.2301584610
20
21.7859416745
30
0.0000000000
10
3.2301953401
20
21.8044350916
30
0.0000000000
10
3.2304361897
20
21.8322113083
30
0.0000000000
10
3.2307486736
20
21.8601149647
30
0.0000000000
10
3.2316823912
20
21.8859123498
30
0.0000000000
10
3.2315640038
20
21.9117082270
30
0.0000000000
10
3.2348286633
20
21.9231038038
30
0.0000000000
10
3.2331081071
20
21.9382685231
30
0.0000000000
10
3.2353965764
20
21.9375889858
30
0.0000000000
11
3.2301584610
21
21.7767857292
31
0.0000000000
11
3.2302252008
21
21.8042534841
31
0.0000000000
11
3.2304481735
21
21.8322261425
31
0.0000000000
11
3.2308663442
21
21.8602895764
31
0.0000000000
11
3.2315214703
21
21.8873139971
31
0.0000000000
11
3.2324773430
21
21.9118645331
31
0.0000000000
11
3.2337989873
21
21.9306077629
31
0.0000000000
11
3.2353965764
21
21.9375889858
31
0.0000000000
0
SPLINE
5
3F2
100
AcDbEntity
8
0
100
AcDbSpline
62
7
6
CONTINUOUS
70
0
71
3
72
14
73
10
74
8
42
0.0000001000
43
0.0000001000
44
0.0000000001
12
0.0000000000
22
-0.1610608859
32
0.0000000000
13
-0.1543977894
23
0.0458468275
33
0.0000000000
40
0.0000000000
40
0.0000000000
40
0.0000000000
40
0.0000000000
40
0.1705431819
40
0.3442262393
40
0.5184867317
40
0.6863261181
40
0.8388717676
40
0.9555342865
40
1.0000000000
40
1.0000000000
40
1.0000000000
40
1.0000000000
10
-3.2301584610
20
21.5232142708
30
0.0000000000
10
-3.2301584610
20
21.5140583255
30
0.0000000000
10
-3.2301953401
20
21.4955649084
30
0.0000000000
10
-3.2304361897
20
21.4677886917
30
0.0000000000
10
-3.2307486736
20
21.4398850353
30
0.0000000000
10
-3.2316823912
20
21.4140876502
30
0.0000000000
10
-3.2315640038
20
21.3882917730
30
0.0000000000
10
-3.2348286633
20
21.3768961962
30
0.0000000000
10
-3.2331081071
20
21.3617314769
30
0.0000000000
10
-3.2353965764
20
21.3624110142
30
0.0000000000
11
-3.2301584610
21
21.5232142708
31
0.0000000000
11
-3.2302252008
21
21.4957465159
31
0.0000000000
11
-3.2304481735
21
21.4677738575
31
0.0000000000
11
-3.2308663442
21
21.4397104236
31
0.0000000000
11
-3.2315214703
21
21.4126860029
31
0.0000000000
11
-3.2324773430
21
21.3881354669
31
0.0000000000
11
-3.2337989873
21
21.3693922371
31
0.0000000000
11
-3.2353965764
21
21.3624110142
31
0.0000000000
0
SPLINE
5
3F3
100
AcDbEntity
8
0
100
AcDbSpline
62
7
6
CONTINUOUS
70
0
71
3
72
13
73
9
74
7
42
0.0000001000
43
0.0000001000
44
0.0000000001
12
0.0000000000
22
-1.1746047279
32
0.0000000000
13
-1.1746047279
23
0.0000000000
33
0.0000000000
40
0.0000000000
40
0.0000000000
40
0.0000000000
40
0.0000000000
40
0.1648256138
40
0.3337034578
40
0.5001238443
40
0.6666030193
40
0.8355429087
40
1.0000000000
40
1.0000000000
40
1.0000000000
40
1.0000000000
10
9.6500000000
20
-20.1496567219
30
0.0000000000
10
9.6500000000
20
-20.2141917037
30
0.0000000000
10
9.6329983752
20
-20.3454643376
30
0.0000000000
10
9.5575398724
20
-20.5285628365
30
0.0000000000
10
9.4366718082
20
-20.6863053517
30
0.0000000000
10
9.2790748523
20
-20.8074133798
30
0.0000000000
10
9.0961142129
20
-20.8829883846
30
0.0000000000
10
8.9649615919
20
-20.9000000000
30
0.0000000000
10
8.9005708996
20
-20.9000000000
30
0.0000000000
11
9.6500000000
21
-20.1496567219
31
0.0000000000
11
9.6250692148
21
-20.3416497707
31
0.0000000000
11
9.5495138731
21
-20.5250617390
31
0.0000000000
11
9.4305994906
21
-20.6802103311
31
0.0000000000
11
9.2755531104
21
-20.7993713048
31
0.0000000000
11
9.0921303572
21
-20.8750916578
31
0.0000000000
11
8.9005708996
21
-20.9000000000
31
0.0000000000
0
SPLINE
5
3F4
100
AcDbEntity
8
0
100
AcDbSpline
62
7
6
CONTINUOUS
70
0
71
3
72
13
73
9
74
7
42
0.0000001000
43
0.0000001000
44
0.0000000001
12
1.1746047320
22
0.0000000000
32
0.0000000000
13
0.0000000000
23
-1.1746047320
33
0.0000000000
40
0.0000000000
40
0.0000000000
40
0.0000000000
40
0.0000000000
40
0.1644682341
40
0.3331230337
40
0.4994863657
40
0.6660195793
40
0.8351821891
40
1.0000000000
40
1.0000000000
40
1.0000000000
40
1.0000000000
10
8.9005708996
20
20.9000000000
30
0.0000000000
10
8.9649659550
20
20.9000000000
30
0.0000000000
10
9.0960115534
20
20.8830007905
30
0.0000000000
10
9.2788369353
20
20.8075260202
30
0.0000000000
10
9.4364048225
20
20.6865723826
30
0.0000000000
10
9.5574259934
20
20.5288029550
30
0.0000000000
10
9.6329854779
20
20.3455695219
30
0.0000000000
10
9.6500000000
20
20.2141886488
30
0.0000000000
10
9.6500000000
20
20.1496567219
30
0.0000000000
11
8.9005708996
21
20.9000000000
31
0.0000000000
11
9.0921431175
21
20.8750882819
31
0.0000000000
11
9.2752720552
21
20.7995337844
31
0.0000000000
11
9.4302730273
21
20.6805370661
31
0.0000000000
11
9.5493497989
21
20.5253459945
31
0.0000000000
11
9.6250715754
21
20.3416408356
31
0.0000000000
11
9.6500000000
21
20.1496567219
31
0.0000000000
0
SPLINE
5
3F5
100
AcDbEntity
8
0
100
AcDbSpline
62
7
6
CONTINUOUS
70
0
71
3
72
13
73
9
74
7
42
0.0000001000
43
0.0000001000
44
0.0000000001
12
-1.1746047320
22
0.0000000000
32
0.0000000000
13
0.0000000000
23
1.1746047320
33
0.0000000000
40
0.0000000000
40
0.0000000000
40
0.0000000000
40
0.0000000000
40
0.1644682341
40
0.3331230337
40
0.4994863657
40
0.6660195793
40
0.8351821891
40
1.0000000000
40
1.0000000000
40
1.0000000000
40
1.0000000000
10
-8.9005708996
20
-20.9000000000
30
0.0000000000
10
-8.9649659550
20
-20.9000000000
30
0.0000000000
10
-9.0960115534
20
-20.8830007905
30
0.0000000000
10
-9.2788369353
20
-20.8075260202
30
0.0000000000
10
-9.4364048225
20
-20.6865723826
30
0.0000000000
10
-9.5574259934
20
-20.5288029550
30
0.0000000000
10
-9.6329854779
20
-20.3455695219
30
0.0000000000
10
-9.6500000000
20
-20.2141886488
30
0.0000000000
10
-9.6500000000
20
-20.1496567219
30
0.0000000000
11
-8.9005708996
21
-20.9000000000
31
0.0000000000
11
-9.0921431175
21
-20.8750882819
31
0.0000000000
11
-9.2752720552
21
-20.7995337844
31
0.0000000000
11
-9.4302730273
21
-20.6805370661
31
0.0000000000
11
-9.5493497989
21
-20.5253459945
31
0.0000000000
11
-9.6250715754
21
-20.3416408356
31
0.0000000000
11
-9.6500000000
21
-20.1496567219
31
0.0000000000
0
SPLINE
5
3F6
100
AcDbEntity
8
0
100
AcDbSpline
62
7
6
CONTINUOUS
70
0
71
3
72
13
73
9
74
7
42
0.0000001000
43
0.0000001000
44
0.0000000001
12
0.0000000000
22
1.1746047279
32
0.0000000000
13
1.1746047279
23
-0.0000000000
33
0.0000000000
40
0.0000000000
40
0.0000000000
40
0.0000000000
40
0.0000000000
40
0.1648256138
40
0.3337034578
40
0.5001238443
40
0.6666030193
40
0.8355429087
40
1.0000000000
40
1.0000000000
40
1.0000000000
40
1.0000000000
10
-9.6500000000
20
20.1496567219
30
0.0000000000
10
-9.6500000000
20
20.2141917037
30
0.0000000000
10
-9.6329983752
20
20.3454643376
30
0.0000000000
10
-9.5575398724
20
20.5285628365
30
0.0000000000
10
-9.4366718082
20
20.6863053517
30
0.0000000000
10
-9.2790748523
20
20.8074133798
30
0.0000000000
10
-9.0961142129
20
20.8829883846
30
0.0000000000
10
-8.9649615919
20
20.9000000000
30
0.0000000000
10
-8.9005708996
20
20.9000000000
30
0.0000000000
11
-9.6500000000
21
20.1496567219
31
0.0000000000
11
-9.6250692148
21
20.3416497707
31
0.0000000000
11
-9.5495138731
21
20.5250617390
31
0.0000000000
11
-9.4305994906
21
20.6802103311
31
0.0000000000
11
-9.2755531104
21
20.7993713048
31
0.0000000000
11
-9.0921303572
21
20.8750916578
31
0.0000000000
11
-8.9005708996
21
20.9000000000
31
0.0000000000
0
SPLINE
5
3F7
100
AcDbEntity
8
0
100
AcDbSpline
62
9
6
CONTINUOUS
70
0
71
3
72
8
73
4
74
2
42
0.0000001000
43
0.0000001000
44
0.0000000001
12
0.0000000000
22
0.0237411551
32
0.0000000000
13
-0.0028543355
23
0.0236991588
33
0.0000000000
40
0.0000000000
40
0.0000000000
40
0.0000000000
40
0.0000000000
40
1.0000000000
40
1.0000000000
40
1.0000000000
40
1.0000000000
10
3.2153472641
20
23.1750000000
30
0.0000000000
10
3.2153472641
20
23.1829137184
30
0.0000000000
10
3.2148662015
20
23.1908534892
30
0.0000000000
10
3.2139147563
20
23.1987532088
30
0.0000000000
11
3.2153472641
21
23.1750000000
31
0.0000000000
11
3.2139147563
21
23.1987532088
31
0.0000000000
0
SPLINE
5
3F8
100
AcDbEntity
8
0
100
AcDbSpline
62
9
6
CONTINUOUS
70
0
71
3
72
9
73
5
74
3
42
0.0000001000
43
0.0000001000
44
0.0000000001
12
-0.0127299248
22
0.1056948303
32
0.0000000000
13
-0.0646302049
23
0.0846756455
33
0.0000000000
40
0.0000000000
40
0.0000000000
40
0.0000000000
40
0.0000000000
40
0.5079774342
40
1.0000000000
40
1.0000000000
40
1.0000000000
40
1.0000000000
10
3.2139147563
20
23.1987532088
30
0.0000000000
10
3.2117592515
20
23.2166500717
30
0.0000000000
10
3.2027632773
20
23.2514770105
30
0.0000000000
10
3.1848925039
20
23.2825285728
30
0.0000000000
10
3.1742926642
20
23.2964160156
30
0.0000000000
11
3.2139147563
21
23.1987532088
31
0.0000000000
11
3.2003296850
21
23.2510584675
31
0.0000000000
11
3.1742926642
21
23.2964160156
31
0.0000000000
0
SPLINE
5
3F9
100
AcDbEntity
8
0
100
AcDbSpline
62
9
6
CONTINUOUS
70
0
71
3
72
10
73
6
74
4
42
0.0000001000
43
0.0000001000
44
0.0000000001
12
-0.1024888019
22
0.1342763105
32
0.0000000000
13
-0.1680631158
23
0.0124307577
33
0.0000000000
40
0.0000000000
40
0.0000000000
40
0.0000000000
40
0.0000000000
40
0.1555208808
40
0.6214227304
40
1.0000000000
40
1.0000000000
40
1.0000000000
40
1.0000000000
10
3.1742926642
20
23.2964160156
30
0.0000000000
10
3.1689796146
20
23.3033769390
30
0.0000000000
10
3.1459359396
20
23.3297950154
30
0.0000000000
10
3.0982942249
20
23.3617884725
30
0.0000000000
10
3.0512129281
20
23.3728925433
30
0.0000000000
10
3.0300046362
20
23.3744612107
30
0.0000000000
11
3.1742926642
21
23.2964160156
31
0.0000000000
11
3.1570345296
21
23.3161906153
31
0.0000000000
11
3.0920492995
21
23.3597385214
31
0.0000000000
11
3.0300046362
21
23.3744612107
31
0.0000000000
0
SPLINE
5
3FA
100
AcDbEntity
8
0
100
AcDbSpline
62
9
6
CONTINUOUS
70
0
71
3
72
8
73
4
74
2
42
0.0000001000
43
0.0000001000
44
0.0000000001
12
-0.0145347789
22
0.0010750623
32
0.0000000000
13
-0.0145211016
23
0.0000000000
33
0.0000000000
40
0.0000000000
40
0.0000000000
40
0.0000000000
40
0.0000000000
40
1.0000000000
40
1.0000000000
40
1.0000000000
40
1.0000000000
10
3.0300046362
20
23.3744612107
30
0.0000000000
10
3.0251597099
20
23.3748195648
30
0.0000000000
10
3.0203094659
20
23.3750000000
30
0.0000000000
10
3.0154690987
20
23.3750000000
30
0.0000000000
11
3.0300046362
21
23.3744612107
31
0.0000000000
11
3.0154690987
21
23.3750000000
31
0.0000000000
0
SPLINE
5
3FB
100
AcDbEntity
8
0
100
AcDbSpline
62
7
6
CONTINUOUS
70
0
71
3
72
11
73
7
74
5
42
0.0000001000
43
0.0000001000
44
0.0000000001
12
0.1543638770
22
0.0458367576
32
0.0000000000
13
0.0000000000
23
-0.1610255099
33
0.0000000000
40
0.0000000000
40
0.0000000000
40
0.0000000000
40
0.0000000000
40
0.0891935995
40
0.3360785789
40
0.6632045768
40
1.0000000000
40
1.0000000000
40
1.0000000000
40
1.0000000000
10
-3.2353965764
20
-21.3624110142
30
0.0000000000
10
-3.2308071532
20
-21.3610482324
30
0.0000000000
10
-3.2365125616
20
-21.3929956845
30
0.0000000000
10
-3.2291185924
20
-21.4166520874
30
0.0000000000
10
-3.2309861334
20
-21.4708061427
30
0.0000000000
10
-3.2301584610
20
-21.5051367192
30
0.0000000000
10
-3.2301584610
20
-21.5232142708
30
0.0000000000
11
-3.2353965764
21
-21.3624110142
31
0.0000000000
11
-3.2331697594
21
-21.3765997812
31
0.0000000000
11
-3.2314147721
21
-21.4163158048
31
0.0000000000
11
-3.2304348827
21
-21.4689823205
31
0.0000000000
11
-3.2301584610
21
-21.5232142708
31
0.0000000000
0
SPLINE
5
3FC
100
AcDbEntity
8
0
100
AcDbSpline
62
9
6
CONTINUOUS
70
0
71
3
72
9
73
5
74
3
42
0.0000001000
43
0.0000001000
44
0.0000000001
12
0.0001982725
22
-0.1084706270
32
0.0000000000
13
0.0569086203
23
-0.0931747392
33
0.0000000000
40
0.0000000000
40
0.0000000000
40
0.0000000000
40
0.0000000000
40
0.7084137454
40
1.0000000000
40
1.0000000000
40
1.0000000000
40
1.0000000000
10
-3.1705494094
20
21.2941832525
30
0.0000000000
10
-3.1705025898
20
21.2685692248
30
0.0000000000
10
-3.1633059961
20
21.2320455611
30
0.0000000000
10
-3.1467902017
20
21.1994711351
30
0.0000000000
10
-3.1412589446
20
21.1904149774
30
0.0000000000
11
-3.1705494094
21
21.2941832525
31
0.0000000000
11
-3.1556294169
21
21.2188034191
31
0.0000000000
11
-3.1412589446
21
21.1904149774
31
0.0000000000
0
SPLINE
5
3FD
100
AcDbEntity
8
0
100
AcDbSpline
62
9
6
CONTINUOUS
70
0
71
3
72
9
73
5
74
3
42
0.0000001000
43
0.0000001000
44
0.0000000001
12
-0.0001981687
22
-0.1084138796
32
0.0000000000
13
-0.0568628164
23
-0.0931393060
33
0.0000000000
40
0.0000000000
40
0.0000000000
40
0.0000000000
40
0.0000000000
40
0.7212214770
40
1.0000000000
40
1.0000000000
40
1.0000000000
40
1.0000000000
10
3.1705494094
20
21.2941832525
30
0.0000000000
10
3.1705017682
20
21.2681197798
30
0.0000000000
10
3.1631739371
20
21.2315988652
30
0.0000000000
10
3.1465647398
20
21.1991016113
30
0.0000000000
10
3.1412806958
20
21.1904465319
30
0.0000000000
11
3.1705494094
21
21.2941832525
31
0.0000000000
11
3.1551039905
21
21.2175333929
31
0.0000000000
11
3.1412806958
21
21.1904465319
31
0.0000000000
0
SPLINE
5
3FE
100
AcDbEntity
8
0
100
AcDbSpline
62
9
6
CONTINUOUS
70
0
71
3
72
11
73
7
74
5
42
0.0000001000
43
0.0000001000
44
0.0000000001
12
-0.0000000000
22
0.2975282500
32
0.0000000000
13
0.2978084902
23
0.0220273507
33
0.0000000000
40
0.0000000000
40
0.0000000000
40
0.0000000000
40
0.0000000000
40
0.2605698340
40
0.5234326867
40
0.7863564082
40
1.0000000000
40
1.0000000000
40
1.0000000000
40
1.0000000000
10
-3.2153472641
20
23.1750000000
30
0.0000000000
10
-3.2153472641
20
23.2008422956
30
0.0000000000
10
-3.2050424708
20
23.2533123674
30
0.0000000000
10
-3.1607178826
20
23.3198683060
30
0.0000000000
10
-3.0982942249
20
23.3617884725
30
0.0000000000
10
-3.0512129281
20
23.3728925433
30
0.0000000000
10
-3.0300046362
20
23.3744612107
30
0.0000000000
11
-3.2153472641
21
23.1750000000
31
0.0000000000
11
-3.2003296850
21
23.2510584675
31
0.0000000000
11
-3.1570345296
21
23.3161906153
31
0.0000000000
11
-3.0920492995
21
23.3597385214
31
0.0000000000
11
-3.0300046362
21
23.3744612107
31
0.0000000000
0
SPLINE
5
3FF
100
AcDbEntity
8
0
100
AcDbSpline
62
9
6
CONTINUOUS
70
0
71
3
72
8
73
4
74
2
42
0.0000001000
43
0.0000001000
44
0.0000000001
12
0.0145347789
22
0.0010750623
32
0.0000000000
13
0.0145211016
23
0.0000000000
33
0.0000000000
40
0.0000000000
40
0.0000000000
40
0.0000000000
40
0.0000000000
40
1.0000000000
40
1.0000000000
40
1.0000000000
40
1.0000000000
10
-3.0300046362
20
23.3744612107
30
0.0000000000
10
-3.0251597099
20
23.3748195648
30
0.0000000000
10
-3.0203094659
20
23.3750000000
30
0.0000000000
10
-3.0154690987
20
23.3750000000
30
0.0000000000
11
-3.0300046362
21
23.3744612107
31
0.0000000000
11
-3.0154690987
21
23.3750000000
31
0.0000000000
0
SPLINE
5
400
100
AcDbEntity
8
0
100
AcDbSpline
62
9
6
CONTINUOUS
70
0
71
3
72
11
73
7
74
5
42
0.0000001000
43
0.0000001000
44
0.0000000001
12
-0.2664063580
22
-0.0046515575
32
0.0000000000
13
-0.0092875529
23
-0.2662850464
33
0.0000000000
40
0.0000000000
40
0.0000000000
40
0.0000000000
40
0.0000000000
40
0.2862952767
40
0.5538444028
40
0.7903731021
40
1.0000000000
40
1.0000000000
40
1.0000000000
40
1.0000000000
10
-3.0154690987
20
23.3164213562
30
0.0000000000
10
-3.0408927260
20
23.3159774499
30
0.0000000000
10
-3.0902512661
20
23.3085323627
30
0.0000000000
10
-3.1549179516
20
23.2786352154
30
0.0000000000
10
-3.2014309010
20
23.2331766194
30
0.0000000000
10
-3.2146982904
20
23.1936068361
30
0.0000000000
10
-3.2153472641
20
23.1750000000
30
0.0000000000
11
-3.0154690987
21
23.3164213562
31
0.0000000000
11
-3.0908412852
21
23.3046717004
31
0.0000000000
11
-3.1550920200
21
23.2737884938
31
0.0000000000
11
-3.1987408637
21
23.2283286706
31
0.0000000000
11
-3.2153472641
21
23.1750000000
31
0.0000000000
0
SPLINE
5
401
100
AcDbEntity
8
0
100
AcDbSpline
62
9
6
CONTINUOUS
70
0
71
3
72
10
73
6
74
4
42
0.0000001000
43
0.0000001000
44
0.0000000001
12
-0.1118005799
22
-0.0692402138
32
0.0000000000
13
-0.0045647423
23
-0.1308765210
33
0.0000000000
40
0.0000000000
40
0.0000000000
40
0.0000000000
40
0.0000000000
40
0.0922392880
40
0.5734872245
40
1.0000000000
40
1.0000000000
40
1.0000000000
40
1.0000000000
10
-3.1001715587
20
21.9976437716
30
0.0000000000
10
-3.1036090274
20
21.9955148823
30
0.0000000000
10
-3.1246020630
20
21.9816388134
30
0.0000000000
10
-3.1566330464
20
21.9503339070
30
0.0000000000
10
-3.1699004358
20
21.9107641236
30
0.0000000000
10
-3.1705494094
20
21.8921572875
30
0.0000000000
11
-3.1001715587
21
21.9976437716
31
0.0000000000
11
-3.1102941654
21
21.9909457813
31
0.0000000000
11
-3.1539430091
21
21.9454859581
31
0.0000000000
11
-3.1705494094
21
21.8921572875
31
0.0000000000
0
SPLINE
5
402
100
AcDbEntity
8
0
100
AcDbSpline
62
9
6
CONTINUOUS
70
0
71
3
72
8
73
4
74
2
42
0.0000001000
43
0.0000001000
44
0.0000000001
12
0.0762708820
22
-0.0013317189
32
0.0000000000
13
0.0733018858
23
-0.0223716234
33
0.0000000000
40
0.0000000000
40
0.0000000000
40
0.0000000000
40
0.0000000000
40
1.0000000000
40
1.0000000000
40
1.0000000000
40
1.0000000000
10
3.0154690987
20
23.3164213562
30
0.0000000000
10
3.0408927260
20
23.3159774499
30
0.0000000000
10
3.0664073233
20
23.3121289082
30
0.0000000000
10
3.0908412852
20
23.3046717004
30
0.0000000000
11
3.0154690987
21
23.3164213562
31
0.0000000000
11
3.0908412852
21
23.3046717004
31
0.0000000000
0
SPLINE
5
403
100
AcDbEntity
8
0
100
AcDbSpline
62
9
6
CONTINUOUS
70
0
71
3
72
10
73
6
74
4
42
0.0000001000
43
0.0000001000
44
0.0000000001
12
0.1827340735
22
-0.0557701595
32
0.0000000000
13
0.0066285704
23
-0.1900488953
33
0.0000000000
40
0.0000000000
40
0.0000000000
40
0.0000000000
40
0.0000000000
40
0.3748736940
40
0.7062834376
40
1.0000000000
40
1.0000000000
40
1.0000000000
40
1.0000000000
10
3.0908412852
20
23.3046717004
30
0.0000000000
10
3.1136753509
20
23.2977027785
30
0.0000000000
10
3.1549179516
20
23.2786352154
30
0.0000000000
10
3.2014309010
20
23.2331766194
30
0.0000000000
10
3.2146982904
20
23.1936068361
30
0.0000000000
10
3.2153472641
20
23.1750000000
30
0.0000000000
11
3.0908412852
21
23.3046717004
31
0.0000000000
11
3.1550920200
21
23.2737884938
31
0.0000000000
11
3.1987408637
21
23.2283286706
31
0.0000000000
11
3.2153472641
21
23.1750000000
31
0.0000000000
0
SPLINE
5
404
100
AcDbEntity
8
0
100
AcDbSpline
62
9
6
CONTINUOUS
70
0
71
3
72
10
73
6
74
4
42
0.0000001000
43
0.0000001000
44
0.0000000001
12
0.1118005799
22
-0.0692402138
32
0.0000000000
13
0.0045647423
23
-0.1308765210
33
0.0000000000
40
0.0000000000
40
0.0000000000
40
0.0000000000
40
0.0000000000
40
0.0922392880
40
0.5734872245
40
1.0000000000
40
1.0000000000
40
1.0000000000
40
1.0000000000
10
3.1001715587
20
21.9976437716
30
0.0000000000
10
3.1036090274
20
21.9955148823
30
0.0000000000
10
3.1246020630
20
21.9816388134
30
0.0000000000
10
3.1566330464
20
21.9503339070
30
0.0000000000
10
3.1699004358
20
21.9107641236
30
0.0000000000
10
3.1705494094
20
21.8921572875
30
0.0000000000
11
3.1001715587
21
21.9976437716
31
0.0000000000
11
3.1102941654
21
21.9909457813
31
0.0000000000
11
3.1539430091
21
21.9454859581
31
0.0000000000
11
3.1705494094
21
21.8921572875
31
0.0000000000
0
SPLINE
5
405
100
AcDbEntity
8
0
100
AcDbSpline
62
9
6
CONTINUOUS
70
0
71
3
72
9
73
5
74
3
42
0.0000001000
43
0.0000001000
44
0.0000000001
12
0.0001982725
22
0.1084706270
32
0.0000000000
13
0.0569086203
23
0.0931747392
33
0.0000000000
40
0.0000000000
40
0.0000000000
40
0.0000000000
40
0.0000000000
40
0.7084137454
40
1.0000000000
40
1.0000000000
40
1.0000000000
40
1.0000000000
10
-3.1705494094
20
-21.2941832525
30
0.0000000000
10
-3.1705025898
20
-21.2685692248
30
0.0000000000
10
-3.1633059961
20
-21.2320455611
30
0.0000000000
10
-3.1467902017
20
-21.1994711351
30
0.0000000000
10
-3.1412589446
20
-21.1904149774
30
0.0000000000
11
-3.1705494094
21
-21.2941832525
31
0.0000000000
11
-3.1556294169
21
-21.2188034191
31
0.0000000000
11
-3.1412589446
21
-21.1904149774
31
0.0000000000
0
SPLINE
5
406
100
AcDbEntity
8
0
100
AcDbSpline
62
9
6
CONTINUOUS
70
0
71
3
72
9
73
5
74
3
42
0.0000001000
43
0.0000001000
44
0.0000000001
12
-0.0001982725
22
0.1084706270
32
0.0000000000
13
-0.0569086203
23
0.0931747392
33
0.0000000000
40
0.0000000000
40
0.0000000000
40
0.0000000000
40
0.0000000000
40
0.7084137454
40
1.0000000000
40
1.0000000000
40
1.0000000000
40
1.0000000000
10
3.1705494094
20
-21.2941832525
30
0.0000000000
10
3.1705025898
20
-21.2685692248
30
0.0000000000
10
3.1633059961
20
-21.2320455611
30
0.0000000000
10
3.1467902017
20
-21.1994711351
30
0.0000000000
10
3.1412589446
20
-21.1904149774
30
0.0000000000
11
3.1705494094
21
-21.2941832525
31
0.0000000000
11
3.1556294169
21
-21.2188034191
31
0.0000000000
11
3.1412589446
21
-21.1904149774
31
0.0000000000
0
SPLINE
5
407
100
AcDbEntity
8
0
100
AcDbSpline
62
9
6
CONTINUOUS
70
0
71
3
72
11
73
7
74
5
42
0.0000001000
43
0.0000001000
44
0.0000000001
12
0.0000000000
22
-0.3120494475
32
0.0000000000
13
-0.3120494475
23
0.0000000000
33
0.0000000000
40
0.0000000000
40
0.0000000000
40
0.0000000000
40
0.0000000000
40
0.2500703676
40
0.5000995207
40
0.7500703758
40
1.0000000000
40
1.0000000000
40
1.0000000000
40
1.0000000000
10
3.2153472641
20
-23.1750000000
30
0.0000000000
10
3.2153472641
20
-23.2010114400
30
0.0000000000
10
3.2049480553
20
-23.2535989396
30
0.0000000000
10
3.1604701606
20
-23.3200757171
30
0.0000000000
10
3.0940334038
20
-23.3645900343
30
0.0000000000
10
3.0414658991
20
-23.3750000000
30
0.0000000000
10
3.0154690987
20
-23.3750000000
30
0.0000000000
11
3.2153472641
21
-23.1750000000
31
0.0000000000
11
3.2001324447
21
-23.2515366865
31
0.0000000000
11
3.1568043048
21
-23.3164213562
31
0.0000000000
11
3.0919591611
21
-23.3597759065
31
0.0000000000
11
3.0154690987
21
-23.3750000000
31
0.0000000000
0
SPLINE
5
408
100
AcDbEntity
8
0
100
AcDbSpline
62
7
6
CONTINUOUS
70
0
71
3
72
11
73
7
74
5
42
0.0000001000
43
0.0000001000
44
0.0000000001
12
-0.1543638770
22
-0.0458367576
32
0.0000000000
13
0.0000000000
23
0.1610255099
33
0.0000000000
40
0.0000000000
40
0.0000000000
40
0.0000000000
40
0.0000000000
40
0.0891935995
40
0.3360785789
40
0.6632045768
40
1.0000000000
40
1.0000000000
40
1.0000000000
40
1.0000000000
10
3.2353965764
20
21.3624110142
30
0.0000000000
10
3.2308071532
20
21.3610482324
30
0.0000000000
10
3.2365125616
20
21.3929956845
30
0.0000000000
10
3.2291185924
20
21.4166520874
30
0.0000000000
10
3.2309861334
20
21.4708061427
30
0.0000000000
10
3.2301584610
20
21.5051367192
30
0.0000000000
10
3.2301584610
20
21.5232142708
30
0.0000000000
11
3.2353965764
21
21.3624110142
31
0.0000000000
11
3.2331697594
21
21.3765997812
31
0.0000000000
11
3.2314147721
21
21.4163158048
31
0.0000000000
11
3.2304348827
21
21.4689823205
31
0.0000000000
11
3.2301584610
21
21.5232142708
31
0.0000000000
0
SPLINE
5
409
100
AcDbEntity
8
0
100
AcDbSpline
62
9
6
CONTINUOUS
70
0
71
3
72
10
73
6
74
4
42
0.0000001000
43
0.0000001000
44
0.0000000001
12
-0.1118005799
22
0.0692402138
32
0.0000000000
13
-0.0045647423
23
0.1308765210
33
0.0000000000
40
0.0000000000
40
0.0000000000
40
0.0000000000
40
0.0000000000
40
0.0922392880
40
0.5734872245
40
1.0000000000
40
1.0000000000
40
1.0000000000
40
1.0000000000
10
-3.1001715587
20
-21.9976437716
30
0.0000000000
10
-3.1036090274
20
-21.9955148823
30
0.0000000000
10
-3.1246020630
20
-21.9816388134
30
0.0000000000
10
-3.1566330464
20
-21.9503339070
30
0.0000000000
10
-3.1699004358
20
-21.9107641236
30
0.0000000000
10
-3.1705494094
20
-21.8921572875
30
0.0000000000
11
-3.1001715587
21
-21.9976437716
31
0.0000000000
11
-3.1102941654
21
-21.9909457813
31
0.0000000000
11
-3.1539430091
21
-21.9454859581
31
0.0000000000
11
-3.1705494094
21
-21.8921572875
31
0.0000000000
0
SPLINE
5
40A
100
AcDbEntity
8
0
100
AcDbSpline
62
9
6
CONTINUOUS
70
0
71
3
72
11
73
7
74
5
42
0.0000001000
43
0.0000001000
44
0.0000000001
12
-0.2664104365
22
0.0046516287
32
0.0000000000
13
-0.0092876951
23
0.2662891231
33
0.0000000000
40
0.0000000000
40
0.0000000000
40
0.0000000000
40
0.0000000000
40
0.2867656729
40
0.5550076202
40
0.7919094943
40
1.0000000000
40
1.0000000000
40
1.0000000000
40
1.0000000000
10
-3.0154690987
20
-23.3164213562
30
0.0000000000
10
-3.0409348880
20
-23.3159767138
30
0.0000000000
10
-3.0903982520
20
-23.3085041658
30
0.0000000000
10
-3.1551724573
20
-23.2784921207
30
0.0000000000
10
-3.2015657455
20
-23.2329406860
30
0.0000000000
10
-3.2147030370
20
-23.1934707461
30
0.0000000000
10
-3.2153472641
20
-23.1750000000
30
0.0000000000
11
-3.0154690987
21
-23.3164213562
31
0.0000000000
11
-3.0909634941
21
-23.3046343515
31
0.0000000000
11
-3.1553502100
21
-23.2736054925
31
0.0000000000
11
-3.1989595485
21
-23.2279688039
31
0.0000000000
11
-3.2153472641
21
-23.1750000000
31
0.0000000000
0
SPLINE
5
40B
100
AcDbEntity
8
0
100
AcDbSpline
62
9
6
CONTINUOUS
70
0
71
3
72
11
73
7
74
5
42
0.0000001000
43
0.0000001000
44
0.0000000001
12
0.0000000000
22
-0.2975282910
32
0.0000000000
13
0.2978077506
23
-0.0220264746
33
0.0000000000
40
0.0000000000
40
0.0000000000
40
0.0000000000
40
0.0000000000
40
0.2622752941
40
0.5245073621
40
0.7866782870
40
1.0000000000
40
1.0000000000
40
1.0000000000
40
1.0000000000
10
-3.2153472641
20
-23.1750000000
30
0.0000000000
10
-3.2153472641
20
-23.2010114400
30
0.0000000000
10
-3.2049480553
20
-23.2535989396
30
0.0000000000
10
-3.1604701606
20
-23.3200757171
30
0.0000000000
10
-3.0981559516
20
-23.3618278224
30
0.0000000000
10
-3.0511809607
20
-23.3728949892
30
0.0000000000
10
-3.0300046742
20
-23.3744612310
30
0.0000000000
11
-3.2153472641
21
-23.1750000000
31
0.0000000000
11
-3.2001324447
21
-23.2515366865
31
0.0000000000
11
-3.1568043048
21
-23.3164213562
31
0.0000000000
11
-3.0919591611
21
-23.3597759065
31
0.0000000000
11
-3.0300046742
21
-23.3744612310
31
0.0000000000
0
SPLINE
5
40C
100
AcDbEntity
8
0
100
AcDbSpline
62
9
6
CONTINUOUS
70
0
71
3
72
8
73
4
74
2
42
0.0000001000
43
0.0000001000
44
0.0000000001
12
0.0145347957
22
-0.0010750234
32
0.0000000000
13
0.0145211564
23
0.0000000000
33
0.0000000000
40
0.0000000000
40
0.0000000000
40
0.0000000000
40
0.0000000000
40
1.0000000000
40
1.0000000000
40
1.0000000000
40
1.0000000000
10
-3.0300046742
20
-23.3744612310
30
0.0000000000
10
-3.0251597423
20
-23.3748195721
30
0.0000000000
10
-3.0203094842
20
-23.3750000000
30
0.0000000000
10
-3.0154690987
20
-23.3750000000
30
0.0000000000
11
-3.0300046742
21
-23.3744612310
31
0.0000000000
11
-3.0154690987
21
-23.3750000000
31
0.0000000000
0
SPLINE
5
40D
100
AcDbEntity
8
0
100
AcDbSpline
62
9
6
CONTINUOUS
70
0
71
3
72
10
73
6
74
4
42
0.0000001000
43
0.0000001000
44
0.0000000001
12
0.1118005799
22
0.0692402138
32
0.0000000000
13
0.0045647423
23
0.1308765210
33
0.0000000000
40
0.0000000000
40
0.0000000000
40
0.0000000000
40
0.0000000000
40
0.0922392880
40
0.5734872245
40
1.0000000000
40
1.0000000000
40
1.0000000000
40
1.0000000000
10
3.1001715587
20
-21.9976437716
30
0.0000000000
10
3.1036090274
20
-21.9955148823
30
0.0000000000
10
3.1246020630
20
-21.9816388134
30
0.0000000000
10
3.1566330464
20
-21.9503339070
30
0.0000000000
10
3.1699004358
20
-21.9107641236
30
0.0000000000
10
3.1705494094
20
-21.8921572875
30
0.0000000000
11
3.1001715587
21
-21.9976437716
31
0.0000000000
11
3.1102941654
21
-21.9909457813
31
0.0000000000
11
3.1539430091
21
-21.9454859581
31
0.0000000000
11
3.1705494094
21
-21.8921572875
31
0.0000000000
0
SPLINE
5
40E
100
AcDbEntity
8
0
100
AcDbSpline
62
9
6
CONTINUOUS
70
0
71
3
72
11
73
7
74
5
42
0.0000001000
43
0.0000001000
44
0.0000000001
12
0.2664104365
22
0.0046516287
32
0.0000000000
13
0.0092876951
23
0.2662891231
33
0.0000000000
40
0.0000000000
40
0.0000000000
40
0.0000000000
40
0.0000000000
40
0.2867656729
40
0.5550076202
40
0.7919094943
40
1.0000000000
40
1.0000000000
40
1.0000000000
40
1.0000000000
10
3.0154690987
20
-23.3164213562
30
0.0000000000
10
3.0409348880
20
-23.3159767138
30
0.0000000000
10
3.0903982520
20
-23.3085041658
30
0.0000000000
10
3.1551724573
20
-23.2784921207
30
0.0000000000
10
3.2015657455
20
-23.2329406860
30
0.0000000000
10
3.2147030370
20
-23.1934707461
30
0.0000000000
10
3.2153472641
20
-23.1750000000
30
0.0000000000
11
3.0154690987
21
-23.3164213562
31
0.0000000000
11
3.0909634941
21
-23.3046343515
31
0.0000000000
11
3.1553502100
21
-23.2736054925
31
0.0000000000
11
3.1989595485
21
-23.2279688039
31
0.0000000000
11
3.2153472641
21
-23.1750000000
31
0.0000000000
0
SPLINE
5
40F
100
AcDbEntity
8
0
100
AcDbSpline
62
9
6
CONTINUOUS
70
0
71
3
72
8
73
4
74
2
42
0.0000001000
43
0.0000001000
44
0.0000000001
12
0.0006883798
22
-0.9932124458
32
0.0000000000
13
0.0006537398
23
-0.9932124703
33
0.0000000000
40
0.0000000000
40
0.0000000000
40
0.0000000000
40
0.0000000000
40
1.0000000000
40
1.0000000000
40
1.0000000000
40
1.0000000000
10
-9.5223518250
20
19.7664007784
30
0.0000000000
10
-9.5221223651
20
19.4353299631
30
0.0000000000
10
-9.5218986791
20
19.1042591436
30
0.0000000000
10
-9.5216807658
20
18.7731883202
30
0.0000000000
11
-9.5223518250
21
19.7664007784
31
0.0000000000
11
-9.5216807658
21
18.7731883202
31
0.0000000000
0
SPLINE
5
410
100
AcDbEntity
8
0
100
AcDbSpline
62
9
6
CONTINUOUS
70
0
71
3
72
11
73
7
74
5
42
0.0000001000
43
0.0000001000
44
0.0000000001
12
0.1209083008
22
0.2751243935
32
0.0000000000
13
0.3005198926
23
0.0002079585
33
0.0000000000
40
0.0000000000
40
0.0000000000
40
0.0000000000
40
0.0000000000
40
0.0822909967
40
0.3001693898
40
0.6219898382
40
1.0000000000
40
1.0000000000
40
1.0000000000
40
1.0000000000
10
-9.5223518250
20
19.7664007784
30
0.0000000000
10
-9.5190352702
20
19.7739475319
30
0.0000000000
10
-9.4787353580
20
19.7665972866
30
0.0000000000
10
-9.4254756758
20
19.7786896111
30
0.0000000000
10
-9.3291122979
20
19.7764568565
30
0.0000000000
10
-9.2602640409
20
19.7782772634
30
0.0000000000
10
-9.2223975165
20
19.7783034669
30
0.0000000000
11
-9.5223518250
21
19.7664007784
31
0.0000000000
11
-9.4980360226
21
19.7709084355
31
0.0000000000
11
-9.4326717013
21
19.7747448088
31
0.0000000000
11
-9.3359930190
21
19.7773385753
31
0.0000000000
11
-9.2223975165
21
19.7783034669
31
0.0000000000
0
SPLINE
5
411
100
AcDbEntity
8
0
100
AcDbSpline
62
9
6
CONTINUOUS
70
0
71
3
72
13
73
9
74
7
42
0.0000001000
43
0.0000001000
44
0.0000000001
12
-1.1747491782
22
-0.0006120437
32
0.0000000000
13
-0.0000810404
23
-1.1747493348
33
0.0000000000
40
0.0000000000
40
0.0000000000
40
0.0000000000
40
0.0000000000
40
0.1664604761
40
0.3329504791
40
0.4995090625
40
0.6661879140
40
0.8330318664
40
1.0000000000
40
1.0000000000
40
1.0000000000
40
1.0000000000
10
-8.7730563203
20
20.5171451693
30
0.0000000000
10
-8.8382394228
20
20.5171112090
30
0.0000000000
10
-8.9692519811
20
20.4998597738
30
0.0000000000
10
-9.1518893576
20
20.4240368328
30
0.0000000000
10
-9.3088723233
20
20.3034510442
30
0.0000000000
10
-9.4293462136
20
20.1462081530
30
0.0000000000
10
-9.5051305570
20
19.9631402459
30
0.0000000000
10
-9.5223473147
20
19.8317826797
30
0.0000000000
10
-9.5223518250
20
19.7664007784
30
0.0000000000
11
-8.7730563203
21
20.5171451693
31
0.0000000000
11
-8.9669221181
21
20.4915405902
31
0.0000000000
11
-9.1475783318
21
20.4165976677
31
0.0000000000
11
-9.3027383169
21
20.2973919252
31
0.0000000000
11
-9.4218522064
21
20.1419833662
31
0.0000000000
11
-9.4967856836
21
19.9608731665
31
0.0000000000
11
-9.5223518250
21
19.7664007784
31
0.0000000000
0
SPLINE
5
412
100
AcDbEntity
8
0
100
AcDbSpline
62
9
6
CONTINUOUS
70
0
71
3
72
13
73
9
74
7
42
0.0000001000
43
0.0000001000
44
0.0000000001
12
-0.7055583704
22
-0.0002201175
32
0.0000000000
13
0.0003135320
23
-0.7055583351
33
0.0000000000
40
0.0000000000
40
0.0000000000
40
0.0000000000
40
0.0000000000
40
0.1653454180
40
0.3320947209
40
0.4991709801
40
0.6664227992
40
0.8337741437
40
1.0000000000
40
1.0000000000
40
1.0000000000
40
1.0000000000
10
-8.7730563203
20
20.2297306704
30
0.0000000000
10
-8.8119432682
20
20.2297185386
30
0.0000000000
10
-8.8904286282
20
20.2194603091
30
0.0000000000
10
-9.0000814240
20
20.1739915051
30
0.0000000000
10
-9.0945743505
20
20.1012883086
30
0.0000000000
10
-9.1669664080
20
20.0063842399
30
0.0000000000
10
-9.2122325720
20
19.8962363544
30
0.0000000000
10
-9.2224148889
20
19.8173974813
30
0.0000000000
10
-9.2223975165
20
19.7783034685
30
0.0000000000
11
-8.7730563203
21
20.2297306704
31
0.0000000000
11
-8.8887249712
21
20.2145478849
31
0.0000000000
11
-8.9974199971
21
20.1695230396
31
0.0000000000
11
-9.0908441114
21
20.0976334389
31
0.0000000000
11
-9.1624445324
21
20.0038316349
31
0.0000000000
11
-9.2073087513
21
19.8946108562
31
0.0000000000
11
-9.2223975165
21
19.7783034685
31
0.0000000000
0
SPLINE
5
413
100
AcDbEntity
8
0
100
AcDbSpline
62
9
6
CONTINUOUS
70
0
71
3
72
13
73
9
74
7
42
0.0000001000
43
0.0000001000
44
0.0000000001
12
0.0001096884
22
-1.1747493391
32
0.0000000000
13
1.1747492004
23
-0.0005811071
33
0.0000000000
40
0.0000000000
40
0.0000000000
40
0.0000000000
40
0.0000000000
40
0.1669688119
40
0.3338136452
40
0.5004919688
40
0.6670494890
40
0.8335387275
40
1.0000000000
40
1.0000000000
40
1.0000000000
40
1.0000000000
10
-9.5223518250
20
-19.7664007784
30
0.0000000000
10
-9.5223457202
20
-19.8317829455
30
0.0000000000
10
-9.5051311498
20
-19.9631411274
30
0.0000000000
10
-9.4293453795
20
-20.1462093201
30
0.0000000000
10
-9.3088716232
20
-20.3034516810
30
0.0000000000
10
-9.1518892186
20
-20.4240369828
30
0.0000000000
10
-8.9692523210
20
-20.4998588834
30
0.0000000000
10
-8.8382397359
20
-20.5171129254
30
0.0000000000
10
-8.7730563203
20
-20.5171451693
30
0.0000000000
11
-9.5223518250
21
-19.7664007784
31
0.0000000000
11
-9.4967854795
21
-19.9608739444
31
0.0000000000
11
-9.4218512933
21
-20.1419849719
31
0.0000000000
11
-9.3027374738
21
-20.2973928046
31
0.0000000000
11
-9.1475783646
21
-20.4165976390
31
0.0000000000
11
-8.9669230297
21
-20.4915403388
31
0.0000000000
11
-8.7730563203
21
-20.5171451693
31
0.0000000000
0
SPLINE
5
414
100
AcDbEntity
8
0
100
AcDbSpline
62
9
6
CONTINUOUS
70
0
71
3
72
11
73
7
74
5
42
0.0000001000
43
0.0000001000
44
0.0000000001
12
0.1208852981
22
-0.2751058422
32
0.0000000000
13
0.3004936541
23
-0.0002085784
33
0.0000000000
40
0.0000000000
40
0.0000000000
40
0.0000000000
40
0.0000000000
40
0.0822896664
40
0.3001655423
40
0.6219851926
40
1.0000000000
40
1.0000000000
40
1.0000000000
40
1.0000000000
10
-9.5223255552
20
-19.7664007707
30
0.0000000000
10
-9.5190096849
20
-19.7739468933
30
0.0000000000
10
-9.4787131807
20
-19.7665977710
30
0.0000000000
10
-9.4254591208
20
-19.7786890598
30
0.0000000000
10
-9.3291037292
20
-19.7764567887
30
0.0000000000
10
-9.2602612001
20
-19.7782771850
30
0.0000000000
10
-9.2223975165
20
-19.7783034670
30
0.0000000000
11
-9.5223255552
21
-19.7664007707
31
0.0000000000
11
-9.4980123306
21
-19.7709082952
31
0.0000000000
11
-9.4326544893
21
-19.7747445951
31
0.0000000000
11
-9.3359844950
21
-19.7773384003
31
0.0000000000
11
-9.2223975165
21
-19.7783034670
31
0.0000000000
0
SPLINE
5
415
100
AcDbEntity
8
0
100
AcDbSpline
62
9
6
CONTINUOUS
70
0
71
3
72
13
73
9
74
7
42
0.0000001000
43
0.0000001000
44
0.0000000001
12
-0.0002750409
22
-0.7055583416
32
0.0000000000
13
0.7055583722
23
-0.0001801695
33
0.0000000000
40
0.0000000000
40
0.0000000000
40
0.0000000000
40
0.0000000000
40
0.1662380185
40
0.3336318212
40
0.5009348800
40
0.6679576136
40
0.8346646706
40
1.0000000000
40
1.0000000000
40
1.0000000000
40
1.0000000000
10
-9.2223975165
20
-19.7783034685
30
0.0000000000
10
-9.2224127573
20
-19.8174003421
30
0.0000000000
10
-9.2122314531
20
-19.8962520867
30
0.0000000000
10
-9.1669495648
20
-20.0064221215
30
0.0000000000
10
-9.0945381537
20
-20.1013245967
30
0.0000000000
10
-9.0000444773
20
-20.1740079064
30
0.0000000000
10
-8.8904139207
20
-20.2194611471
30
0.0000000000
10
-8.8119408956
20
-20.2297207409
30
0.0000000000
10
-8.7730563203
20
-20.2297306704
30
0.0000000000
11
-9.2223975165
21
-19.7783034685
31
0.0000000000
11
-9.2073069508
21
-19.8946192740
31
0.0000000000
11
-9.1624262223
21
-20.0038656548
31
0.0000000000
11
-9.0907912273
21
-20.0976865459
31
0.0000000000
11
-8.9973874478
21
-20.1695406419
31
0.0000000000
11
-8.8887179738
21
-20.2145492814
31
0.0000000000
11
-8.7730563203
21
-20.2297306704
31
0.0000000000
0
SPLINE
5
416
100
AcDbEntity
8
0
100
AcDbSpline
62
9
6
CONTINUOUS
70
0
71
3
72
8
73
4
74
2
42
0.0000001000
43
0.0000001000
44
0.0000000001
12
-0.0006537308
22
-0.9932008255
32
0.0000000000
13
-0.0006883717
23
-0.9932008014
33
0.0000000000
40
0.0000000000
40
0.0000000000
40
0.0000000000
40
0.0000000000
40
1.0000000000
40
1.0000000000
40
1.0000000000
40
1.0000000000
10
-9.5216807745
20
-18.7731999648
30
0.0000000000
10
-9.5218986847
20
-19.1042669066
30
0.0000000000
10
-9.5221223678
20
-19.4353338446
30
0.0000000000
10
-9.5223518250
20
-19.7664007784
30
0.0000000000
11
-9.5216807745
21
-18.7731999648
31
0.0000000000
11
-9.5223518250
21
-19.7664007784
31
0.0000000000
0
SPLINE
5
417
100
AcDbEntity
8
0
100
AcDbSpline
62
9
6
CONTINUOUS
70
0
71
3
72
13
73
9
74
7
42
0.0000001000
43
0.0000001000
44
0.0000000001
12
-0.0001096884
22
1.1747493391
32
0.0000000000
13
-1.1747492004
23
0.0005811071
33
0.0000000000
40
0.0000000000
40
0.0000000000
40
0.0000000000
40
0.0000000000
40
0.1669688119
40
0.3338136452
40
0.5004919688
40
0.6670494890
40
0.8335387275
40
1.0000000000
40
1.0000000000
40
1.0000000000
40
1.0000000000
10
9.5223518250
20
19.7664007784
30
0.0000000000
10
9.5223457202
20
19.8317829455
30
0.0000000000
10
9.5051311498
20
19.9631411274
30
0.0000000000
10
9.4293453795
20
20.1462093201
30
0.0000000000
10
9.3088716232
20
20.3034516810
30
0.0000000000
10
9.1518892186
20
20.4240369828
30
0.0000000000
10
8.9692523210
20
20.4998588835
30
0.0000000000
10
8.8382397359
20
20.5171129254
30
0.0000000000
10
8.7730563203
20
20.5171451693
30
0.0000000000
11
9.5223518250
21
19.7664007784
31
0.0000000000
11
9.4967854795
21
19.9608739444
31
0.0000000000
11
9.4218512933
21
20.1419849719
31
0.0000000000
11
9.3027374738
21
20.2973928046
31
0.0000000000
11
9.1475783646
21
20.4165976390
31
0.0000000000
11
8.9669230297
21
20.4915403388
31
0.0000000000
11
8.7730563203
21
20.5171451693
31
0.0000000000
0
SPLINE
5
418
100
AcDbEntity
8
0
100
AcDbSpline
62
9
6
CONTINUOUS
70
0
71
3
72
11
73
7
74
5
42
0.0000001000
43
0.0000001000
44
0.0000000001
12
-0.1208852981
22
0.2751058422
32
0.0000000000
13
-0.3004936541
23
0.0002085784
33
0.0000000000
40
0.0000000000
40
0.0000000000
40
0.0000000000
40
0.0000000000
40
0.0822896664
40
0.3001655423
40
0.6219851926
40
1.0000000000
40
1.0000000000
40
1.0000000000
40
1.0000000000
10
9.5223255552
20
19.7664007707
30
0.0000000000
10
9.5190096849
20
19.7739468933
30
0.0000000000
10
9.4787131807
20
19.7665977710
30
0.0000000000
10
9.4254591208
20
19.7786890598
30
0.0000000000
10
9.3291037292
20
19.7764567887
30
0.0000000000
10
9.2602612001
20
19.7782771851
30
0.0000000000
10
9.2223975165
20
19.7783034670
30
0.0000000000
11
9.5223255552
21
19.7664007707
31
0.0000000000
11
9.4980123306
21
19.7709082952
31
0.0000000000
11
9.4326544893
21
19.7747445951
31
0.0000000000
11
9.3359844950
21
19.7773384004
31
0.0000000000
11
9.2223975165
21
19.7783034670
31
0.0000000000
0
SPLINE
5
419
100
AcDbEntity
8
0
100
AcDbSpline
62
9
6
CONTINUOUS
70
0
71
3
72
13
73
9
74
7
42
0.0000001000
43
0.0000001000
44
0.0000000001
12
0.0002750409
22
0.7055583416
32
0.0000000000
13
-0.7055583722
23
0.0001801695
33
0.0000000000
40
0.0000000000
40
0.0000000000
40
0.0000000000
40
0.0000000000
40
0.1662380185
40
0.3336318212
40
0.5009348800
40
0.6679576136
40
0.8346646706
40
1.0000000000
40
1.0000000000
40
1.0000000000
40
1.0000000000
10
9.2223975165
20
19.7783034685
30
0.0000000000
10
9.2224127573
20
19.8174003421
30
0.0000000000
10
9.2122314531
20
19.8962520867
30
0.0000000000
10
9.1669495648
20
20.0064221215
30
0.0000000000
10
9.0945381537
20
20.1013245967
30
0.0000000000
10
9.0000444773
20
20.1740079064
30
0.0000000000
10
8.8904139207
20
20.2194611471
30
0.0000000000
10
8.8119408956
20
20.2297207409
30
0.0000000000
10
8.7730563203
20
20.2297306704
30
0.0000000000
11
9.2223975165
21
19.7783034685
31
0.0000000000
11
9.2073069508
21
19.8946192740
31
0.0000000000
11
9.1624262223
21
20.0038656548
31
0.0000000000
11
9.0907912273
21
20.0976865459
31
0.0000000000
11
8.9973874478
21
20.1695406419
31
0.0000000000
11
8.8887179738
21
20.2145492814
31
0.0000000000
11
8.7730563203
21
20.2297306704
31
0.0000000000
0
SPLINE
5
41A
100
AcDbEntity
8
0
100
AcDbSpline
62
9
6
CONTINUOUS
70
0
71
3
72
8
73
4
74
2
42
0.0000001000
43
0.0000001000
44
0.0000000001
12
0.0006537398
22
0.9932124702
32
0.0000000000
13
0.0006883798
23
0.9932124458
33
0.0000000000
40
0.0000000000
40
0.0000000000
40
0.0000000000
40
0.0000000000
40
1.0000000000
40
1.0000000000
40
1.0000000000
40
1.0000000000
10
9.5216807658
20
18.7731883202
30
0.0000000000
10
9.5218986791
20
19.1042591436
30
0.0000000000
10
9.5221223651
20
19.4353299631
30
0.0000000000
10
9.5223518250
20
19.7664007784
30
0.0000000000
11
9.5216807658
21
18.7731883202
31
0.0000000000
11
9.5223518250
21
19.7664007784
31
0.0000000000
0
SPLINE
5
41B
100
AcDbEntity
8
0
100
AcDbSpline
62
9
6
CONTINUOUS
70
0
71
3
72
13
73
9
74
7
42
0.0000001000
43
0.0000001000
44
0.0000000001
12
1.1747491782
22
0.0006120437
32
0.0000000000
13
0.0000810404
23
1.1747493348
33
0.0000000000
40
0.0000000000
40
0.0000000000
40
0.0000000000
40
0.0000000000
40
0.1664604761
40
0.3329504791
40
0.4995090625
40
0.6661879140
40
0.8330318664
40
1.0000000000
40
1.0000000000
40
1.0000000000
40
1.0000000000
10
8.7730563203
20
-20.5171451693
30
0.0000000000
10
8.8382394228
20
-20.5171112090
30
0.0000000000
10
8.9692519811
20
-20.4998597738
30
0.0000000000
10
9.1518893576
20
-20.4240368328
30
0.0000000000
10
9.3088723233
20
-20.3034510442
30
0.0000000000
10
9.4293462136
20
-20.1462081530
30
0.0000000000
10
9.5051305570
20
-19.9631402459
30
0.0000000000
10
9.5223473147
20
-19.8317826797
30
0.0000000000
10
9.5223518250
20
-19.7664007784
30
0.0000000000
11
8.7730563203
21
-20.5171451693
31
0.0000000000
11
8.9669221181
21
-20.4915405902
31
0.0000000000
11
9.1475783318
21
-20.4165976677
31
0.0000000000
11
9.3027383169
21
-20.2973919252
31
0.0000000000
11
9.4218522064
21
-20.1419833662
31
0.0000000000
11
9.4967856836
21
-19.9608731665
31
0.0000000000
11
9.5223518250
21
-19.7664007784
31
0.0000000000
0
SPLINE
5
41C
100
AcDbEntity
8
0
100
AcDbSpline
62
9
6
CONTINUOUS
70
0
71
3
72
13
73
9
74
7
42
0.0000001000
43
0.0000001000
44
0.0000000001
12
0.7055583704
22
0.0002201175
32
0.0000000000
13
-0.0003135320
23
0.7055583351
33
0.0000000000
40
0.0000000000
40
0.0000000000
40
0.0000000000
40
0.0000000000
40
0.1653454180
40
0.3320947209
40
0.4991709801
40
0.6664227992
40
0.8337741437
40
1.0000000000
40
1.0000000000
40
1.0000000000
40
1.0000000000
10
8.7730563203
20
-20.2297306704
30
0.0000000000
10
8.8119432682
20
-20.2297185386
30
0.0000000000
10
8.8904286282
20
-20.2194603091
30
0.0000000000
10
9.0000814240
20
-20.1739915051
30
0.0000000000
10
9.0945743505
20
-20.1012883086
30
0.0000000000
10
9.1669664080
20
-20.0063842399
30
0.0000000000
10
9.2122325720
20
-19.8962363544
30
0.0000000000
10
9.2224148889
20
-19.8173974813
30
0.0000000000
10
9.2223975165
20
-19.7783034685
30
0.0000000000
11
8.7730563203
21
-20.2297306704
31
0.0000000000
11
8.8887249712
21
-20.2145478849
31
0.0000000000
11
8.9974199971
21
-20.1695230395
31
0.0000000000
11
9.0908441114
21
-20.0976334389
31
0.0000000000
11
9.1624445324
21
-20.0038316349
31
0.0000000000
11
9.2073087513
21
-19.8946108562
31
0.0000000000
11
9.2223975165
21
-19.7783034685
31
0.0000000000
0
SPLINE
5
41D
100
AcDbEntity
8
0
100
AcDbSpline
62
9
6
CONTINUOUS
70
0
71
3
72
8
73
4
74
2
42
0.0000001000
43
0.0000001000
44
0.0000000001
12
-0.0006883717
22
0.9932008014
32
0.0000000000
13
-0.0006537308
23
0.9932008255
33
0.0000000000
40
0.0000000000
40
0.0000000000
40
0.0000000000
40
0.0000000000
40
1.0000000000
40
1.0000000000
40
1.0000000000
40
1.0000000000
10
9.5223518250
20
-19.7664007784
30
0.0000000000
10
9.5221223678
20
-19.4353338446
30
0.0000000000
10
9.5218986847
20
-19.1042669066
30
0.0000000000
10
9.5216807744
20
-18.7731999648
30
0.0000000000
11
9.5223518250
21
-19.7664007784
31
0.0000000000
11
9.5216807744
21
-18.7731999648
31
0.0000000000
0
SPLINE
5
41E
100
AcDbEntity
8
0
100
AcDbSpline
62
9
6
CONTINUOUS
70
0
71
3
72
11
73
7
74
5
42
0.0000001000
43
0.0000001000
44
0.0000000001
12
-0.1209083008
22
-0.2751243935
32
0.0000000000
13
-0.3005198926
23
-0.0002079585
33
0.0000000000
40
0.0000000000
40
0.0000000000
40
0.0000000000
40
0.0000000000
40
0.0822909967
40
0.3001693898
40
0.6219898382
40
1.0000000000
40
1.0000000000
40
1.0000000000
40
1.0000000000
10
9.5223518250
20
-19.7664007784
30
0.0000000000
10
9.5190352702
20
-19.7739475319
30
0.0000000000
10
9.4787353580
20
-19.7665972866
30
0.0000000000
10
9.4254756758
20
-19.7786896111
30
0.0000000000
10
9.3291122979
20
-19.7764568565
30
0.0000000000
10
9.2602640409
20
-19.7782772634
30
0.0000000000
10
9.2223975165
20
-19.7783034669
30
0.0000000000
11
9.5223518250
21
-19.7664007784
31
0.0000000000
11
9.4980360226
21
-19.7709084355
31
0.0000000000
11
9.4326717013
21
-19.7747448088
31
0.0000000000
11
9.3359930190
21
-19.7773385753
31
0.0000000000
11
9.2223975165
21
-19.7783034669
31
0.0000000000
0
SPLINE
5
41F
100
AcDbEntity
8
0
100
AcDbSpline
62
7
6
CONTINUOUS
70
0
71
3
72
19
73
15
74
13
42
0.0000001000
43
0.0000001000
44
0.0000000001
12
-1.9638082742
22
-1.9638082742
32
0.0000000000
13
1.9638082742
23
-1.9638082742
33
0.0000000000
40
0.0000000000
40
0.0000000000
40
0.0000000000
40
0.0000000000
40
0.0189658927
40
0.0702511403
40
0.1492904962
40
0.2529284268
40
0.3717281034
40
0.5000000000
40
0.6282718966
40
0.7470715732
40
0.8507095038
40
0.9297488597
40
0.9810341073
40
1.0000000000
40
1.0000000000
40
1.0000000000
40
1.0000000000
10
-9.4875105196
20
-1.5619476105
30
0.0000000000
10
-9.4999256452
20
-1.5743627361
30
0.0000000000
10
-9.4849641515
20
-1.6503579368
30
0.0000000000
10
-9.5068932438
20
-1.7786399932
30
0.0000000000
10
-9.5024325737
20
-2.0003111838
30
0.0000000000
10
-9.5095010132
20
-2.2773415439
30
0.0000000000
10
-9.5105148199
20
-2.6026769107
30
0.0000000000
10
-9.5117377876
20
-2.9500000000
30
0.0000000000
10
-9.5105148199
20
-3.2973230893
30
0.0000000000
10
-9.5095010132
20
-3.6226584561
30
0.0000000000
10
-9.5024325737
20
-3.8996888162
30
0.0000000000
10
-9.5068932438
20
-4.1213600068
30
0.0000000000
10
-9.4849641515
20
-4.2496420632
30
0.0000000000
10
-9.4999256452
20
-4.3256372639
30
0.0000000000
10
-9.4875105196
20
-4.3380523895
30
0.0000000000
11
-9.4875105196
21
-1.5619476105
31
0.0000000000
11
-9.4936898376
21
-1.6142568088
31
0.0000000000
11
-9.4994672285
21
-1.7565712491
31
0.0000000000
11
-9.5043553868
21
-1.9760284172
31
0.0000000000
11
-9.5081529786
21
-2.2638312149
31
0.0000000000
11
-9.5105084326
21
-2.5937585309
31
0.0000000000
11
-9.5113198440
21
-2.9500000000
31
0.0000000000
11
-9.5105084326
21
-3.3062414691
31
0.0000000000
11
-9.5081529786
21
-3.6361687851
31
0.0000000000
11
-9.5043553868
21
-3.9239715828
31
0.0000000000
11
-9.4994672285
21
-4.1434287509
31
0.0000000000
11
-9.4936898376
21
-4.2857431911
31
0.0000000000
11
-9.4875105196
21
-4.3380523895
31
0.0000000000
0
SPLINE
5
420
100
AcDbEntity
8
0
100
AcDbSpline
62
7
6
CONTINUOUS
70
0
71
3
72
19
73
15
74
13
42
0.0000001000
43
0.0000001000
44
0.0000000001
12
1.9638082742
22
-1.9638082742
32
0.0000000000
13
-1.9638082742
23
-1.9638082742
33
0.0000000000
40
0.0000000000
40
0.0000000000
40
0.0000000000
40
0.0000000000
40
0.0189658927
40
0.0702511403
40
0.1492904962
40
0.2529284268
40
0.3717281034
40
0.5000000000
40
0.6282718966
40
0.7470715732
40
0.8507095038
40
0.9297488597
40
0.9810341073
40
1.0000000000
40
1.0000000000
40
1.0000000000
40
1.0000000000
10
9.4875105196
20
-1.5619476105
30
0.0000000000
10
9.4999256452
20
-1.5743627361
30
0.0000000000
10
9.4849641515
20
-1.6503579368
30
0.0000000000
10
9.5068932438
20
-1.7786399932
30
0.0000000000
10
9.5024325737
20
-2.0003111838
30
0.0000000000
10
9.5095010132
20
-2.2773415439
30
0.0000000000
10
9.5105148199
20
-2.6026769107
30
0.0000000000
10
9.5117377876
20
-2.9500000000
30
0.0000000000
10
9.5105148199
20
-3.2973230893
30
0.0000000000
10
9.5095010132
20
-3.6226584561
30
0.0000000000
10
9.5024325737
20
-3.8996888162
30
0.0000000000
10
9.5068932438
20
-4.1213600068
30
0.0000000000
10
9.4849641515
20
-4.2496420632
30
0.0000000000
10
9.4999256452
20
-4.3256372639
30
0.0000000000
10
9.4875105196
20
-4.3380523895
30
0.0000000000
11
9.4875105196
21
-1.5619476105
31
0.0000000000
11
9.4936898376
21
-1.6142568088
31
0.0000000000
11
9.4994672285
21
-1.7565712491
31
0.0000000000
11
9.5043553868
21
-1.9760284172
31
0.0000000000
11
9.5081529786
21
-2.2638312149
31
0.0000000000
11
9.5105084326
21
-2.5937585309
31
0.0000000000
11
9.5113198440
21
-2.9500000000
31
0.0000000000
11
9.5105084326
21
-3.3062414691
31
0.0000000000
11
9.5081529786
21
-3.6361687851
31
0.0000000000
11
9.5043553868
21
-3.9239715828
31
0.0000000000
11
9.4994672285
21
-4.1434287509
31
0.0000000000
11
9.4936898376
21
-4.2857431911
31
0.0000000000
11
9.4875105196
21
-4.3380523895
31
0.0000000000
0
SPLINE
5
421
100
AcDbEntity
8
0
100
AcDbSpline
62
7
6
CONTINUOUS
70
0
71
3
72
9
73
5
74
3
42
0.0000001000
43
0.0000001000
44
0.0000000001
12
-0.0444909288
22
0.0373290260
32
0.0000000000
13
-0.0443327377
23
0.0375167602
33
0.0000000000
40
0.0000000000
40
0.0000000000
40
0.0000000000
40
0.0000000000
40
0.5077578288
40
1.0000000000
40
1.0000000000
40
1.0000000000
40
1.0000000000
10
-6.7022433077
20
-21.3965394526
30
0.0000000000
10
-6.7097735134
20
-21.3902214176
30
0.0000000000
10
-6.7245906586
20
-21.3777627099
30
0.0000000000
10
-6.7393815259
20
-21.3652728178
30
0.0000000000
10
-6.7466556736
20
-21.3591170406
30
0.0000000000
11
-6.7022433077
21
-21.3965394526
31
0.0000000000
11
-6.7248137814
21
-21.3775613649
31
0.0000000000
11
-6.7466556736
21
-21.3591170406
31
0.0000000000
0
SPLINE
5
422
100
AcDbEntity
8
0
100
AcDbSpline
62
9
6
CONTINUOUS
70
0
71
3
72
10
73
6
74
4
42
0.0000001000
43
0.0000001000
44
0.0000000001
12
0.0210527751
22
-0.0698243706
32
0.0000000000
13
0.0210800484
23
-0.0698161416
33
0.0000000000
40
0.0000000000
40
0.0000000000
40
0.0000000000
40
0.0000000000
40
0.3331815441
40
0.6665148639
40
1.0000000000
40
1.0000000000
40
1.0000000000
40
1.0000000000
10
-3.6748574782
20
23.5000000000
30
0.0000000000
10
-3.6725193461
20
23.4922452695
30
0.0000000000
10
-3.6678410094
20
23.4767325796
30
0.0000000000
10
-3.6608188783
20
23.4534591585
30
0.0000000000
10
-3.6561343692
20
23.4379406221
30
0.0000000000
10
-3.6537910750
20
23.4301797403
30
0.0000000000
11
-3.6748574782
21
23.5000000000
31
0.0000000000
11
-3.6678415705
21
23.4767362642
31
0.0000000000
11
-3.6608194390
21
23.4534628443
31
0.0000000000
11
-3.6537910750
21
23.4301797403
31
0.0000000000
0
SPLINE
5
423
100
AcDbEntity
8
0
100
AcDbSpline
62
9
6
CONTINUOUS
70
0
71
3
72
10
73
6
74
4
42
0.0000001000
43
0.0000001000
44
0.0000000001
12
0.0204032667
22
-0.0702558889
32
0.0000000000
13
0.0204280159
23
-0.0702486966
33
0.0000000000
40
0.0000000000
40
0.0000000000
40
0.0000000000
40
0.0000000000
40
0.3331797270
40
0.6665130445
40
1.0000000000
40
1.0000000000
40
1.0000000000
40
1.0000000000
10
-4.2275426698
20
23.3333596575
30
0.0000000000
10
-4.2252766848
20
23.3255570449
30
0.0000000000
10
-4.2207427560
20
23.3099484883
30
0.0000000000
10
-4.2139375475
20
23.2865310554
30
0.0000000000
10
-4.2093978613
20
23.2709163698
30
0.0000000000
10
-4.2071270357
20
23.2631073618
30
0.0000000000
11
-4.2275426698
21
23.3333596575
31
0.0000000000
11
-4.2207433431
21
23.3099522180
31
0.0000000000
11
-4.2139381344
21
23.2865347865
31
0.0000000000
11
-4.2071270357
21
23.2631073618
31
0.0000000000
0
SPLINE
5
424
100
AcDbEntity
8
0
100
AcDbSpline
62
9
6
CONTINUOUS
70
0
71
3
72
10
73
6
74
4
42
0.0000001000
43
0.0000001000
44
0.0000000001
12
0.0204280159
22
0.0702486966
32
0.0000000000
13
0.0204032667
23
0.0702558889
33
0.0000000000
40
0.0000000000
40
0.0000000000
40
0.0000000000
40
0.0000000000
40
0.3334869556
40
0.6668202731
40
1.0000000000
40
1.0000000000
40
1.0000000000
40
1.0000000000
10
4.2071270357
20
23.2631073618
30
0.0000000000
10
4.2093978613
20
23.2709163698
30
0.0000000000
10
4.2139375475
20
23.2865310554
30
0.0000000000
10
4.2207427560
20
23.3099484883
30
0.0000000000
10
4.2252766848
20
23.3255570449
30
0.0000000000
10
4.2275426698
20
23.3333596575
30
0.0000000000
11
4.2071270357
21
23.2631073618
31
0.0000000000
11
4.2139381344
21
23.2865347865
31
0.0000000000
11
4.2207433431
21
23.3099522181
31
0.0000000000
11
4.2275426698
21
23.3333596575
31
0.0000000000
0
SPLINE
5
425
100
AcDbEntity
8
0
100
AcDbSpline
62
9
6
CONTINUOUS
70
0
71
3
72
10
73
6
74
4
42
0.0000001000
43
0.0000001000
44
0.0000000001
12
0.0210800484
22
0.0698161416
32
0.0000000000
13
0.0210527751
23
0.0698243706
33
0.0000000000
40
0.0000000000
40
0.0000000000
40
0.0000000000
40
0.0000000000
40
0.3334851362
40
0.6668184560
40
1.0000000000
40
1.0000000000
40
1.0000000000
40
1.0000000000
10
3.6537910750
20
23.4301797403
30
0.0000000000
10
3.6561343692
20
23.4379406221
30
0.0000000000
10
3.6608188783
20
23.4534591585
30
0.0000000000
10
3.6678410094
20
23.4767325796
30
0.0000000000
10
3.6725193461
20
23.4922452695
30
0.0000000000
10
3.6748574782
20
23.5000000000
30
0.0000000000
11
3.6537910750
21
23.4301797403
31
0.0000000000
11
3.6608194390
21
23.4534628443
31
0.0000000000
11
3.6678415705
21
23.4767362642
31
0.0000000000
11
3.6748574782
21
23.5000000000
31
0.0000000000
0
SPLINE
5
426
100
AcDbEntity
8
0
100
AcDbSpline
62
9
6
CONTINUOUS
70
0
71
3
72
12
73
8
74
6
42
0.0000001000
43
0.0000001000
44
0.0000000001
12
0.1837766294
22
0.4603799715
32
0.0000000000
13
-0.3523241627
23
0.3486993720
33
0.0000000000
40
0.0000000000
40
0.0000000000
40
0.0000000000
40
0.0000000000
40
0.0399486406
40
0.1567960213
40
0.3558567937
40
0.6380602501
40
1.0000000000
40
1.0000000000
40
1.0000000000
40
1.0000000000
10
8.4374926906
20
19.6695125202
30
0.0000000000
10
8.4399398995
20
19.6756430382
30
0.0000000000
10
8.4098722193
20
19.6949837631
30
0.0000000000
10
8.3829900670
20
19.7387886692
30
0.0000000000
10
8.3073207302
20
19.8100577881
30
0.0000000000
10
8.2133073955
20
19.9097726527
30
0.0000000000
10
8.1369916778
20
19.9849680696
30
0.0000000000
10
8.0944849713
20
20.0270374575
30
0.0000000000
11
8.4374926906
21
19.6695125202
31
0.0000000000
11
8.4258014696
21
19.6854957642
31
0.0000000000
11
8.3869976776
21
19.7284981579
31
0.0000000000
11
8.3190759695
21
19.8000766805
31
0.0000000000
11
8.2213345304
21
19.9001553439
31
0.0000000000
11
8.0944849713
21
20.0270374575
31
0.0000000000
0
SPLINE
5
427
100
AcDbEntity
8
0
100
AcDbSpline
62
7
6
CONTINUOUS
70
0
71
3
72
9
73
5
74
3
42
0.0000001000
43
0.0000001000
44
0.0000000001
12
-0.0443327377
22
-0.0375167602
32
0.0000000000
13
-0.0444909288
23
-0.0373290260
33
0.0000000000
40
0.0000000000
40
0.0000000000
40
0.0000000000
40
0.0000000000
40
0.4922999993
40
1.0000000000
40
1.0000000000
40
1.0000000000
40
1.0000000000
10
6.7466556736
20
-21.3591170406
30
0.0000000000
10
6.7393806713
20
-21.3652735409
30
0.0000000000
10
6.7245898025
20
-21.3777634313
30
0.0000000000
10
6.7097726558
20
-21.3902221371
30
0.0000000000
10
6.7022433077
20
-21.3965394526
30
0.0000000000
11
6.7466556736
21
-21.3591170406
31
0.0000000000
11
6.7248112132
21
-21.3775635291
31
0.0000000000
11
6.7022433077
21
-21.3965394526
31
0.0000000000
0
SPLINE
5
428
100
AcDbEntity
8
0
100
AcDbSpline
62
7
6
CONTINUOUS
70
0
71
3
72
9
73
5
74
3
42
0.0000001000
43
0.0000001000
44
0.0000000001
12
0.0443327375
22
0.0375167600
32
0.0000000000
13
0.0444909286
23
0.0373290259
33
0.0000000000
40
0.0000000000
40
0.0000000000
40
0.0000000000
40
0.0000000000
40
0.4922961106
40
1.0000000000
40
1.0000000000
40
1.0000000000
40
1.0000000000
10
-6.7466556734
20
21.3591170407
30
0.0000000000
10
-6.7393807287
20
21.3652734924
30
0.0000000000
10
-6.7245898599
20
21.3777633828
30
0.0000000000
10
-6.7097727135
20
21.3902220887
30
0.0000000000
10
-6.7022433077
20
21.3965394526
30
0.0000000000
11
-6.7466556734
21
21.3591170407
31
0.0000000000
11
-6.7248113858
21
21.3775633836
31
0.0000000000
11
-6.7022433077
21
21.3965394526
31
0.0000000000
0
SPLINE
5
429
100
AcDbEntity
8
0
100
AcDbSpline
62
9
6
CONTINUOUS
70
0
71
3
72
9
73
5
74
3
42
0.0000001000
43
0.0000001000
44
0.0000000001
12
0.0246692948
22
0.0658758924
32
0.0000000000
13
0.0246396482
23
0.0658869869
33
0.0000000000
40
0.0000000000
40
0.0000000000
40
0.0000000000
40
0.0000000000
40
0.5001685627
40
1.0000000000
40
1.0000000000
40
1.0000000000
40
1.0000000000
10
6.7220012043
20
21.1306884717
30
0.0000000000
10
6.7261141395
20
21.1416714885
30
0.0000000000
10
6.7343347713
20
21.1636310430
30
0.0000000000
10
6.7425504498
20
21.1855924511
30
0.0000000000
10
6.7466556734
20
21.1965699136
30
0.0000000000
11
6.7220012043
21
21.1306884717
31
0.0000000000
11
6.7343363035
21
21.1636389098
31
0.0000000000
11
6.7466556734
21
21.1965699136
31
0.0000000000
0
SPLINE
5
42A
100
AcDbEntity
8
0
100
AcDbSpline
62
9
6
CONTINUOUS
70
0
71
3
72
9
73
5
74
3
42
0.0000001000
43
0.0000001000
44
0.0000000001
12
0.0243294267
22
0.0661719698
32
0.0000000000
13
0.0243010030
23
0.0661824134
33
0.0000000000
40
0.0000000000
40
0.0000000000
40
0.0000000000
40
0.0000000000
40
0.5001724393
40
1.0000000000
40
1.0000000000
40
1.0000000000
40
1.0000000000
10
7.0503754349
20
21.0077180193
30
0.0000000000
10
7.0544317378
20
21.0187504845
30
0.0000000000
10
7.0625391406
20
21.0408086925
30
0.0000000000
10
7.0706418498
20
21.0628686250
30
0.0000000000
10
7.0746906201
20
21.0738952231
30
0.0000000000
11
7.0503754349
21
21.0077180193
31
0.0000000000
11
7.0625407625
21
21.0408167313
31
0.0000000000
11
7.0746906201
21
21.0738952231
31
0.0000000000
0
SPLINE
5
42B
100
AcDbEntity
8
0
100
AcDbSpline
62
7
6
CONTINUOUS
70
0
71
3
72
9
73
5
74
3
42
0.0000001000
43
0.0000001000
44
0.0000000001
12
0.0444909286
22
-0.0373290259
32
0.0000000000
13
0.0443327375
23
-0.0375167600
33
0.0000000000
40
0.0000000000
40
0.0000000000
40
0.0000000000
40
0.0000000000
40
0.5079662376
40
1.0000000000
40
1.0000000000
40
1.0000000000
40
1.0000000000
10
6.7022433077
20
21.3965394526
30
0.0000000000
10
6.7097766042
20
21.3902188243
30
0.0000000000
10
6.7245937439
20
21.3777601103
30
0.0000000000
10
6.7393846055
20
21.3652702116
30
0.0000000000
10
6.7466556734
20
21.3591170407
30
0.0000000000
11
6.7022433077
21
21.3965394526
31
0.0000000000
11
6.7248230371
21
21.3775535656
31
0.0000000000
11
6.7466556734
21
21.3591170407
31
0.0000000000
0
SPLINE
5
42C
100
AcDbEntity
8
0
100
AcDbSpline
62
9
6
CONTINUOUS
70
0
71
3
72
10
73
6
74
4
42
0.0000001000
43
0.0000001000
44
0.0000000001
12
0.0204032667
22
0.0702558889
32
0.0000000000
13
0.0204280159
23
0.0702486966
33
0.0000000000
40
0.0000000000
40
0.0000000000
40
0.0000000000
40
0.0000000000
40
0.3331797270
40
0.6665130445
40
1.0000000000
40
1.0000000000
40
1.0000000000
40
1.0000000000
10
-4.2275426698
20
-23.3333596575
30
0.0000000000
10
-4.2252766848
20
-23.3255570449
30
0.0000000000
10
-4.2207427560
20
-23.3099484883
30
0.0000000000
10
-4.2139375475
20
-23.2865310554
30
0.0000000000
10
-4.2093978613
20
-23.2709163698
30
0.0000000000
10
-4.2071270357
20
-23.2631073618
30
0.0000000000
11
-4.2275426698
21
-23.3333596575
31
0.0000000000
11
-4.2207433431
21
-23.3099522180
31
0.0000000000
11
-4.2139381344
21
-23.2865347865
31
0.0000000000
11
-4.2071270357
21
-23.2631073618
31
0.0000000000
0
SPLINE
5
42D
100
AcDbEntity
8
0
100
AcDbSpline
62
9
6
CONTINUOUS
70
0
71
3
72
10
73
6
74
4
42
0.0000001000
43
0.0000001000
44
0.0000000001
12
0.0210527751
22
0.0698243706
32
0.0000000000
13
0.0210800484
23
0.0698161416
33
0.0000000000
40
0.0000000000
40
0.0000000000
40
0.0000000000
40
0.0000000000
40
0.3331815441
40
0.6665148639
40
1.0000000000
40
1.0000000000
40
1.0000000000
40
1.0000000000
10
-3.6748574782
20
-23.5000000000
30
0.0000000000
10
-3.6725193461
20
-23.4922452695
30
0.0000000000
10
-3.6678410094
20
-23.4767325796
30
0.0000000000
10
-3.6608188783
20
-23.4534591585
30
0.0000000000
10
-3.6561343692
20
-23.4379406221
30
0.0000000000
10
-3.6537910750
20
-23.4301797403
30
0.0000000000
11
-3.6748574782
21
-23.5000000000
31
0.0000000000
11
-3.6678415705
21
-23.4767362642
31
0.0000000000
11
-3.6608194390
21
-23.4534628443
31
0.0000000000
11
-3.6537910750
21
-23.4301797403
31
0.0000000000
0
SPLINE
5
42E
100
AcDbEntity
8
0
100
AcDbSpline
62
9
6
CONTINUOUS
70
0
71
3
72
10
73
6
74
4
42
0.0000001000
43
0.0000001000
44
0.0000000001
12
0.0210800484
22
-0.0698161416
32
0.0000000000
13
0.0210527751
23
-0.0698243706
33
0.0000000000
40
0.0000000000
40
0.0000000000
40
0.0000000000
40
0.0000000000
40
0.3334851362
40
0.6668184560
40
1.0000000000
40
1.0000000000
40
1.0000000000
40
1.0000000000
10
3.6537910750
20
-23.4301797403
30
0.0000000000
10
3.6561343692
20
-23.4379406221
30
0.0000000000
10
3.6608188783
20
-23.4534591585
30
0.0000000000
10
3.6678410094
20
-23.4767325796
30
0.0000000000
10
3.6725193461
20
-23.4922452695
30
0.0000000000
10
3.6748574782
20
-23.5000000000
30
0.0000000000
11
3.6537910750
21
-23.4301797403
31
0.0000000000
11
3.6608194390
21
-23.4534628443
31
0.0000000000
11
3.6678415705
21
-23.4767362642
31
0.0000000000
11
3.6748574782
21
-23.5000000000
31
0.0000000000
0
SPLINE
5
42F
100
AcDbEntity
8
0
100
AcDbSpline
62
9
6
CONTINUOUS
70
0
71
3
72
10
73
6
74
4
42
0.0000001000
43
0.0000001000
44
0.0000000001
12
0.0204280159
22
-0.0702486966
32
0.0000000000
13
0.0204032667
23
-0.0702558889
33
0.0000000000
40
0.0000000000
40
0.0000000000
40
0.0000000000
40
0.0000000000
40
0.3334869556
40
0.6668202731
40
1.0000000000
40
1.0000000000
40
1.0000000000
40
1.0000000000
10
4.2071270357
20
-23.2631073618
30
0.0000000000
10
4.2093978613
20
-23.2709163698
30
0.0000000000
10
4.2139375475
20
-23.2865310554
30
0.0000000000
10
4.2207427560
20
-23.3099484883
30
0.0000000000
10
4.2252766848
20
-23.3255570449
30
0.0000000000
10
4.2275426698
20
-23.3333596575
30
0.0000000000
11
4.2071270357
21
-23.2631073618
31
0.0000000000
11
4.2139381344
21
-23.2865347865
31
0.0000000000
11
4.2207433431
21
-23.3099522181
31
0.0000000000
11
4.2275426698
21
-23.3333596575
31
0.0000000000
0
SPLINE
5
430
100
AcDbEntity
8
0
100
AcDbSpline
62
9
6
CONTINUOUS
70
0
71
3
72
12
73
8
74
6
42
0.0000001000
43
0.0000001000
44
0.0000000001
12
-0.3523240229
22
-0.3486995131
32
0.0000000000
13
0.1837723469
23
-0.4603816809
33
0.0000000000
40
0.0000000000
40
0.0000000000
40
0.0000000000
40
0.0000000000
40
0.3619396279
40
0.6441432750
40
0.8432039696
40
0.9600513464
40
1.0000000000
40
1.0000000000
40
1.0000000000
40
1.0000000000
10
-8.0944849713
20
20.0270374575
30
0.0000000000
10
-8.1369916466
20
19.9849680668
30
0.0000000000
10
-8.2133073814
20
19.9097726660
30
0.0000000000
10
-8.3073207472
20
19.8100577866
30
0.0000000000
10
-8.3829900181
20
19.7387886845
30
0.0000000000
10
-8.4098722954
20
19.6949837329
30
0.0000000000
10
-8.4399398432
20
19.6756430629
30
0.0000000000
10
-8.4374926906
20
19.6695125202
30
0.0000000000
11
-8.0944849713
21
20.0270374575
31
0.0000000000
11
-8.2213344863
21
19.9001553855
31
0.0000000000
11
-8.3190759940
21
19.8000766569
31
0.0000000000
11
-8.3869976744
21
19.7284981611
31
0.0000000000
11
-8.4258014650
21
19.6854957688
31
0.0000000000
11
-8.4374926906
21
19.6695125202
31
0.0000000000
0
SPLINE
5
431
100
AcDbEntity
8
0
100
AcDbSpline
62
9
6
CONTINUOUS
70
0
71
3
72
9
73
5
74
3
42
0.0000001000
43
0.0000001000
44
0.0000000001
12
0.0243010009
22
-0.0661824078
32
0.0000000000
13
0.0243294246
23
-0.0661719642
33
0.0000000000
40
0.0000000000
40
0.0000000000
40
0.0000000000
40
0.0000000000
40
0.4998275859
40
1.0000000000
40
1.0000000000
40
1.0000000000
40
1.0000000000
10
-7.0746906194
20
21.0738952212
30
0.0000000000
10
-7.0706418492
20
21.0628686235
30
0.0000000000
10
-7.0625391408
20
21.0408086928
30
0.0000000000
10
-7.0544317386
20
21.0187504867
30
0.0000000000
10
-7.0503754363
20
21.0077180230
30
0.0000000000
11
-7.0746906194
21
21.0738952212
31
0.0000000000
11
-7.0625407622
21
21.0408167305
31
0.0000000000
11
-7.0503754363
21
21.0077180230
31
0.0000000000
0
SPLINE
5
432
100
AcDbEntity
8
0
100
AcDbSpline
62
9
6
CONTINUOUS
70
0
71
3
72
9
73
5
74
3
42
0.0000001000
43
0.0000001000
44
0.0000000001
12
0.0246396482
22
-0.0658869869
32
0.0000000000
13
0.0246692948
23
-0.0658758924
33
0.0000000000
40
0.0000000000
40
0.0000000000
40
0.0000000000
40
0.0000000000
40
0.4998314374
40
1.0000000000
40
1.0000000000
40
1.0000000000
40
1.0000000000
10
-6.7466556734
20
21.1965699136
30
0.0000000000
10
-6.7425504498
20
21.1855924511
30
0.0000000000
10
-6.7343347713
20
21.1636310430
30
0.0000000000
10
-6.7261141395
20
21.1416714885
30
0.0000000000
10
-6.7220012043
20
21.1306884717
30
0.0000000000
11
-6.7466556734
21
21.1965699136
31
0.0000000000
11
-6.7343363035
21
21.1636389098
31
0.0000000000
11
-6.7220012043
21
21.1306884717
31
0.0000000000
0
SPLINE
5
433
100
AcDbEntity
8
0
100
AcDbSpline
62
9
6
CONTINUOUS
70
0
71
3
72
12
73
8
74
6
42
0.0000001000
43
0.0000001000
44
0.0000000001
12
-0.1837766294
22
-0.4603799715
32
0.0000000000
13
0.3523241627
23
-0.3486993720
33
0.0000000000
40
0.0000000000
40
0.0000000000
40
0.0000000000
40
0.0000000000
40
0.0399486406
40
0.1567960213
40
0.3558567937
40
0.6380602501
40
1.0000000000
40
1.0000000000
40
1.0000000000
40
1.0000000000
10
-8.4374926906
20
-19.6695125202
30
0.0000000000
10
-8.4399398995
20
-19.6756430382
30
0.0000000000
10
-8.4098722193
20
-19.6949837631
30
0.0000000000
10
-8.3829900670
20
-19.7387886692
30
0.0000000000
10
-8.3073207302
20
-19.8100577881
30
0.0000000000
10
-8.2133073955
20
-19.9097726527
30
0.0000000000
10
-8.1369916778
20
-19.9849680696
30
0.0000000000
10
-8.0944849713
20
-20.0270374575
30
0.0000000000
11
-8.4374926906
21
-19.6695125202
31
0.0000000000
11
-8.4258014696
21
-19.6854957642
31
0.0000000000
11
-8.3869976776
21
-19.7284981579
31
0.0000000000
11
-8.3190759695
21
-19.8000766805
31
0.0000000000
11
-8.2213345304
21
-19.9001553439
31
0.0000000000
11
-8.0944849713
21
-20.0270374575
31
0.0000000000
0
SPLINE
5
434
100
AcDbEntity
8
0
100
AcDbSpline
62
9
6
CONTINUOUS
70
0
71
3
72
9
73
5
74
3
42
0.0000001000
43
0.0000001000
44
0.0000000001
12
-0.0246692569
22
-0.0658757912
32
0.0000000000
13
-0.0246396103
23
-0.0658868856
33
0.0000000000
40
0.0000000000
40
0.0000000000
40
0.0000000000
40
0.0000000000
40
0.5001699213
40
1.0000000000
40
1.0000000000
40
1.0000000000
40
1.0000000000
10
-6.7220015127
20
-21.1306884717
30
0.0000000000
10
-6.7261144528
20
-21.1416715014
30
0.0000000000
10
-6.7343346665
20
-21.1636311740
30
0.0000000000
10
-6.7425504675
20
-21.1855924978
30
0.0000000000
10
-6.7466556736
20
-21.1965699136
30
0.0000000000
11
-6.7220015127
21
-21.1306884717
31
0.0000000000
11
-6.7343363562
21
-21.1636390499
31
0.0000000000
11
-6.7466556736
21
-21.1965699136
31
0.0000000000
0
SPLINE
5
435
100
AcDbEntity
8
0
100
AcDbSpline
62
9
6
CONTINUOUS
70
0
71
3
72
9
73
5
74
3
42
0.0000001000
43
0.0000001000
44
0.0000000001
12
-0.0243292843
22
-0.0661715823
32
0.0000000000
13
-0.0243008606
23
-0.0661820259
33
0.0000000000
40
0.0000000000
40
0.0000000000
40
0.0000000000
40
0.0000000000
40
0.5001716630
40
1.0000000000
40
1.0000000000
40
1.0000000000
40
1.0000000000
10
-7.0503746007
20
-21.0077187636
30
0.0000000000
10
-7.0544308736
20
-21.0187511471
30
0.0000000000
10
-7.0625396926
20
-21.0408086879
30
0.0000000000
10
-7.0706418666
20
-21.0628686705
30
0.0000000000
10
-7.0746906195
20
-21.0738952211
30
0.0000000000
11
-7.0503746007
21
-21.0077187636
31
0.0000000000
11
-7.0625408142
21
-21.0408168717
31
0.0000000000
11
-7.0746906195
21
-21.0738952211
31
0.0000000000
0
SPLINE
5
436
100
AcDbEntity
8
0
100
AcDbSpline
62
9
6
CONTINUOUS
70
0
71
3
72
12
73
8
74
6
42
0.0000001000
43
0.0000001000
44
0.0000000001
12
0.3523240229
22
0.3486995131
32
0.0000000000
13
-0.1837723469
23
0.4603816809
33
0.0000000000
40
0.0000000000
40
0.0000000000
40
0.0000000000
40
0.0000000000
40
0.3619396279
40
0.6441432750
40
0.8432039696
40
0.9600513464
40
1.0000000000
40
1.0000000000
40
1.0000000000
40
1.0000000000
10
8.0944849713
20
-20.0270374575
30
0.0000000000
10
8.1369916466
20
-19.9849680668
30
0.0000000000
10
8.2133073814
20
-19.9097726660
30
0.0000000000
10
8.3073207472
20
-19.8100577866
30
0.0000000000
10
8.3829900181
20
-19.7387886845
30
0.0000000000
10
8.4098722954
20
-19.6949837329
30
0.0000000000
10
8.4399398432
20
-19.6756430629
30
0.0000000000
10
8.4374926906
20
-19.6695125202
30
0.0000000000
11
8.0944849713
21
-20.0270374575
31
0.0000000000
11
8.2213344863
21
-19.9001553855
31
0.0000000000
11
8.3190759940
21
-19.8000766569
31
0.0000000000
11
8.3869976744
21
-19.7284981611
31
0.0000000000
11
8.4258014650
21
-19.6854957688
31
0.0000000000
11
8.4374926906
21
-19.6695125202
31
0.0000000000
0
SPLINE
5
437
100
AcDbEntity
8
0
100
AcDbSpline
62
7
6
CONTINUOUS
70
0
71
3
72
31
73
27
74
25
42
0.0000001000
43
0.0000001000
44
0.0000000001
12
1.7428813285
22
-2.2373631513
32
0.0000000000
13
-1.7428804825
23
-2.2373636833
33
0.0000000000
40
0.0000000000
40
0.0000000000
40
0.0000000000
40
0.0000000000
40
0.0004486006
40
0.0012162616
40
0.0037518669
40
0.0076238711
40
0.0128154484
40
0.0270695413
40
0.0463293681
40
0.0704031726
40
0.0990974637
40
0.2097448842
40
0.3476843803
40
0.5000001108
40
0.6523158145
40
0.7902552383
40
0.9009025833
40
0.9295968567
40
0.9536706482
40
0.9729304662
40
0.9871845538
40
0.9923761296
40
0.9962481330
40
0.9987837381
40
0.9995513992
40
1.0000000000
40
1.0000000000
40
1.0000000000
40
1.0000000000
10
10.4252289020
20
-1.5619476105
30
0.0000000000
10
10.4254895212
20
-1.5622821713
30
0.0000000000
10
10.4260456328
20
-1.5632602454
30
0.0000000000
10
10.4269242204
20
-1.5666553596
30
0.0000000000
10
10.4280060980
20
-1.5731934194
30
0.0000000000
10
10.4291762559
20
-1.5838829920
30
0.0000000000
10
10.4309708300
20
-1.6053920747
30
0.0000000000
10
10.4330044248
20
-1.6411799955
30
0.0000000000
10
10.4352609297
20
-1.6944490260
30
0.0000000000
10
10.4374240413
20
-1.7611047511
30
0.0000000000
10
10.4413104085
20
-1.9123571816
30
0.0000000000
10
10.4452644044
20
-2.1690611831
30
0.0000000000
10
10.4484337457
20
-2.5402339673
30
0.0000000000
10
10.4494652267
20
-2.9500002829
30
0.0000000000
10
10.4484337427
20
-3.3597665317
30
0.0000000000
10
10.4452644006
20
-3.7309391542
30
0.0000000000
10
10.4413104046
20
-3.9876430025
30
0.0000000000
10
10.4374240388
20
-4.1388953347
30
0.0000000000
10
10.4352609278
20
-4.2055510232
30
0.0000000000
10
10.4330044236
20
-4.2588200286
30
0.0000000000
10
10.4309708293
20
-4.2946079348
30
0.0000000000
10
10.4291762557
20
-4.3161170105
30
0.0000000000
10
10.4280060978
20
-4.3268065807
30
0.0000000000
10
10.4269242204
20
-4.3333446397
30
0.0000000000
10
10.4260456327
20
-4.3367397540
30
0.0000000000
10
10.4254895212
20
-4.3377178285
30
0.0000000000
10
10.4252289020
20
-4.3380523895
30
0.0000000000
11
10.4252289020
21
-1.5619476105
31
0.0000000000
11
10.4258628418
21
-1.5630203383
31
0.0000000000
11
10.4264953371
21
-1.5650566437
31
0.0000000000
11
10.4277545328
21
-1.5719861226
31
0.0000000000
11
10.4290035655
21
-1.5826683188
31
0.0000000000
11
10.4302395114
21
-1.5970355036
31
0.0000000000
11
10.4326604488
21
-1.6365539254
31
0.0000000000
11
10.4349939558
21
-1.6899995602
31
0.0000000000
11
10.4372166436
21
-1.7568305800
31
0.0000000000
11
10.4393051231
21
-1.8365051569
31
0.0000000000
11
10.4445622718
21
-2.1437970936
31
0.0000000000
11
10.4479546417
21
-2.5269260955
31
0.0000000000
11
10.4491102305
21
-2.9500003078
31
0.0000000000
11
10.4479546386
21
-3.3730744455
31
0.0000000000
11
10.4445622677
21
-3.7562032467
31
0.0000000000
11
10.4393051200
21
-4.0634949735
31
0.0000000000
11
10.4372166412
21
-4.1431695014
31
0.0000000000
11
10.4349939541
21
-4.2100004851
31
0.0000000000
11
10.4326604477
21
-4.2634460953
31
0.0000000000
11
10.4302395110
21
-4.3029645024
31
0.0000000000
11
10.4290035652
21
-4.3173316831
31
0.0000000000
11
10.4277545328
21
-4.3280138770
31
0.0000000000
11
10.4264953371
21
-4.3349433554
31
0.0000000000
11
10.4258628418
21
-4.3369796610
31
0.0000000000
11
10.4252289020
21
-4.3380523895
31
0.0000000000
0
SPLINE
5
438
100
AcDbEntity
8
0
100
AcDbSpline
62
7
6
CONTINUOUS
70
0
71
3
72
31
73
27
74
25
42
0.0000001000
43
0.0000001000
44
0.0000000001
12
-1.7428813285
22
-2.2373631514
32
0.0000000000
13
1.7428804825
23
-2.2373636833
33
0.0000000000
40
0.0000000000
40
0.0000000000
40
0.0000000000
40
0.0000000000
40
0.0004486006
40
0.0012162616
40
0.0037518669
40
0.0076238711
40
0.0128154484
40
0.0270695413
40
0.0463293681
40
0.0704031726
40
0.0990974637
40
0.2097448842
40
0.3476843803
40
0.5000001108
40
0.6523158145
40
0.7902552383
40
0.9009025833
40
0.9295968567
40
0.9536706482
40
0.9729304662
40
0.9871845538
40
0.9923761296
40
0.9962481330
40
0.9987837381
40
0.9995513992
40
1.0000000000
40
1.0000000000
40
1.0000000000
40
1.0000000000
10
-10.4252289020
20
-1.5619476105
30
0.0000000000
10
-10.4254895212
20
-1.5622821713
30
0.0000000000
10
-10.4260456328
20
-1.5632602454
30
0.0000000000
10
-10.4269242204
20
-1.5666553596
30
0.0000000000
10
-10.4280060980
20
-1.5731934194
30
0.0000000000
10
-10.4291762559
20
-1.5838829920
30
0.0000000000
10
-10.4309708300
20
-1.6053920747
30
0.0000000000
10
-10.4330044248
20
-1.6411799955
30
0.0000000000
10
-10.4352609297
20
-1.6944490260
30
0.0000000000
10
-10.4374240413
20
-1.7611047511
30
0.0000000000
10
-10.4413104085
20
-1.9123571816
30
0.0000000000
10
-10.4452644044
20
-2.1690611831
30
0.0000000000
10
-10.4484337457
20
-2.5402339673
30
0.0000000000
10
-10.4494652267
20
-2.9500002829
30
0.0000000000
10
-10.4484337427
20
-3.3597665317
30
0.0000000000
10
-10.4452644006
20
-3.7309391542
30
0.0000000000
10
-10.4413104046
20
-3.9876430025
30
0.0000000000
10
-10.4374240388
20
-4.1388953347
30
0.0000000000
10
-10.4352609278
20
-4.2055510232
30
0.0000000000
10
-10.4330044236
20
-4.2588200286
30
0.0000000000
10
-10.4309708293
20
-4.2946079348
30
0.0000000000
10
-10.4291762557
20
-4.3161170105
30
0.0000000000
10
-10.4280060978
20
-4.3268065807
30
0.0000000000
10
-10.4269242204
20
-4.3333446397
30
0.0000000000
10
-10.4260456327
20
-4.3367397540
30
0.0000000000
10
-10.4254895212
20
-4.3377178285
30
0.0000000000
10
-10.4252289020
20
-4.3380523895
30
0.0000000000
11
-10.4252289020
21
-1.5619476105
31
0.0000000000
11
-10.4258628418
21
-1.5630203383
31
0.0000000000
11
-10.4264953371
21
-1.5650566437
31
0.0000000000
11
-10.4277545328
21
-1.5719861226
31
0.0000000000
11
-10.4290035655
21
-1.5826683188
31
0.0000000000
11
-10.4302395114
21
-1.5970355036
31
0.0000000000
11
-10.4326604488
21
-1.6365539254
31
0.0000000000
11
-10.4349939558
21
-1.6899995602
31
0.0000000000
11
-10.4372166436
21
-1.7568305800
31
0.0000000000
11
-10.4393051231
21
-1.8365051569
31
0.0000000000
11
-10.4445622718
21
-2.1437970936
31
0.0000000000
11
-10.4479546417
21
-2.5269260955
31
0.0000000000
11
-10.4491102305
21
-2.9500003078
31
0.0000000000
11
-10.4479546386
21
-3.3730744455
31
0.0000000000
11
-10.4445622677
21
-3.7562032467
31
0.0000000000
11
-10.4393051200
21
-4.0634949735
31
0.0000000000
11
-10.4372166412
21
-4.1431695014
31
0.0000000000
11
-10.4349939541
21
-4.2100004851
31
0.0000000000
11
-10.4326604477
21
-4.2634460953
31
0.0000000000
11
-10.4302395110
21
-4.3029645024
31
0.0000000000
11
-10.4290035652
21
-4.3173316831
31
0.0000000000
11
-10.4277545328
21
-4.3280138770
31
0.0000000000
11
-10.4264953371
21
-4.3349433554
31
0.0000000000
11
-10.4258628418
21
-4.3369796610
31
0.0000000000
11
-10.4252289020
21
-4.3380523895
31
0.0000000000
0
SPLINE
5
439
100
AcDbEntity
8
0
100
AcDbSpline
62
7
6
CONTINUOUS
70
0
71
3
72
35
73
31
74
29
42
0.0000001000
43
0.0000001000
44
0.0000000001
12
-2.6572840479
22
2.0771351876
32
0.0000000000
13
-2.6572840479
23
-2.0771351876
33
0.0000000000
40
0.0000000000
40
0.0000000000
40
0.0000000000
40
0.0000000000
40
0.0004477623
40
0.0012142084
40
0.0023133058
40
0.0037471775
40
0.0076146672
40
0.0128008219
40
0.0270421658
40
0.0462880739
40
0.0703484330
40
0.0990313962
40
0.1501492082
40
0.2096672317
40
0.3476302003
40
0.5000000000
40
0.6523697997
40
0.7903327683
40
0.8498507918
40
0.9009686038
40
0.9296515670
40
0.9537119261
40
0.9729578342
40
0.9871991781
40
0.9923853328
40
0.9962528225
40
0.9976866942
40
0.9987857916
40
0.9995522377
40
1.0000000000
40
1.0000000000
40
1.0000000000
40
1.0000000000
10
-2.3487046599
20
5.5484761331
30
0.0000000000
10
-2.3491012705
20
5.5487861540
30
0.0000000000
10
-2.3502629360
20
5.5494470470
30
0.0000000000
10
-2.3527557432
20
5.5500905882
30
0.0000000000
10
-2.3563028664
20
5.5508347298
30
0.0000000000
10
-2.3632801157
20
5.5519015845
30
0.0000000000
10
-2.3747603658
20
5.5531722129
30
0.0000000000
10
-2.4003347863
20
5.5552986474
30
0.0000000000
10
-2.4428667555
20
5.5577214972
30
0.0000000000
10
-2.5061978229
20
5.5604024505
30
0.0000000000
10
-2.5854510206
20
5.5629738346
30
0.0000000000
10
-2.6998133094
20
5.5659210157
30
0.0000000000
10
-2.8532409945
20
5.5688902003
30
0.0000000000
10
-3.1270371233
20
5.5728223024
30
0.0000000000
10
-3.5123766493
20
5.5760496723
30
0.0000000000
10
-4.0000000000
20
5.5773035507
30
0.0000000000
10
-4.4876233507
20
5.5760496723
30
0.0000000000
10
-4.8729628767
20
5.5728223024
30
0.0000000000
10
-5.1467590055
20
5.5688902003
30
0.0000000000
10
-5.3001866906
20
5.5659210157
30
0.0000000000
10
-5.4145489794
20
5.5629738346
30
0.0000000000
10
-5.4938021771
20
5.5604024505
30
0.0000000000
10
-5.5571332445
20
5.5577214972
30
0.0000000000
10
-5.5996652137
20
5.5552986474
30
0.0000000000
10
-5.6252396342
20
5.5531722129
30
0.0000000000
10
-5.6367198843
20
5.5519015845
30
0.0000000000
10
-5.6436971336
20
5.5508347298
30
0.0000000000
10
-5.6472442568
20
5.5500905882
30
0.0000000000
10
-5.6497370640
20
5.5494470470
30
0.0000000000
10
-5.6508987295
20
5.5487861540
30
0.0000000000
10
-5.6512953401
20
5.5484761331
30
0.0000000000
11
-2.3487046599
21
5.5484761331
31
0.0000000000
11
-2.3499780006
21
5.5492296475
31
0.0000000000
11
-2.3523964867
21
5.5499814675
31
0.0000000000
11
-2.3559501316
21
5.5507311575
31
0.0000000000
11
-2.3606289485
21
5.5514782824
31
0.0000000000
11
-2.3733221514
21
5.5529630947
31
0.0000000000
11
-2.3903962012
21
5.5544324213
31
0.0000000000
11
-2.4373672656
21
5.5573106849
31
0.0000000000
11
-2.5009029892
21
5.5600852082
31
0.0000000000
11
-2.5803642198
21
5.5627281261
31
0.0000000000
11
-2.6751118050
21
5.5652115736
31
0.0000000000
11
-2.8439921411
21
5.5685813887
31
0.0000000000
11
-3.0406426790
21
5.5714632861
31
0.0000000000
11
-3.4965103491
21
5.5754976761
31
0.0000000000
11
-4.0000000000
21
5.5768719896
31
0.0000000000
11
-4.5034896509
21
5.5754976761
31
0.0000000000
11
-4.9593573210
21
5.5714632861
31
0.0000000000
11
-5.1560078589
21
5.5685813887
31
0.0000000000
11
-5.3248881950
21
5.5652115736
31
0.0000000000
11
-5.4196357802
21
5.5627281261
31
0.0000000000
11
-5.4990970108
21
5.5600852082
31
0.0000000000
11
-5.5626327344
21
5.5573106849
31
0.0000000000
11
-5.6096037988
21
5.5544324213
31
0.0000000000
11
-5.6266778486
21
5.5529630947
31
0.0000000000
11
-5.6393710515
21
5.5514782824
31
0.0000000000
11
-5.6440498684
21
5.5507311575
31
0.0000000000
11
-5.6476035133
21
5.5499814675
31
0.0000000000
11
-5.6500219994
21
5.5492296475
31
0.0000000000
11
-5.6512953401
21
5.5484761331
31
0.0000000000
0
SPLINE
5
43A
100
AcDbEntity
8
0
100
AcDbSpline
62
7
6
CONTINUOUS
70
0
71
3
72
35
73
31
74
29
42
0.0000001000
43
0.0000001000
44
0.0000000001
12
-2.6572840479
22
2.0771351876
32
0.0000000000
13
-2.6572840479
23
-2.0771351876
33
0.0000000000
40
0.0000000000
40
0.0000000000
40
0.0000000000
40
0.0000000000
40
0.0004477623
40
0.0012142084
40
0.0023133058
40
0.0037471775
40
0.0076146672
40
0.0128008219
40
0.0270421658
40
0.0462880739
40
0.0703484330
40
0.0990313962
40
0.1501492082
40
0.2096672317
40
0.3476302003
40
0.5000000000
40
0.6523697997
40
0.7903327683
40
0.8498507918
40
0.9009686038
40
0.9296515670
40
0.9537119261
40
0.9729578342
40
0.9871991781
40
0.9923853328
40
0.9962528225
40
0.9976866942
40
0.9987857916
40
0.9995522377
40
1.0000000000
40
1.0000000000
40
1.0000000000
40
1.0000000000
10
5.6512953401
20
5.5484761331
30
0.0000000000
10
5.6508987295
20
5.5487861540
30
0.0000000000
10
5.6497370640
20
5.5494470470
30
0.0000000000
10
5.6472442568
20
5.5500905882
30
0.0000000000
10
5.6436971336
20
5.5508347298
30
0.0000000000
10
5.6367198843
20
5.5519015845
30
0.0000000000
10
5.6252396342
20
5.5531722129
30
0.0000000000
10
5.5996652137
20
5.5552986474
30
0.0000000000
10
5.5571332445
20
5.5577214972
30
0.0000000000
10
5.4938021771
20
5.5604024505
30
0.0000000000
10
5.4145489794
20
5.5629738346
30
0.0000000000
10
5.3001866906
20
5.5659210157
30
0.0000000000
10
5.1467590055
20
5.5688902003
30
0.0000000000
10
4.8729628767
20
5.5728223024
30
0.0000000000
10
4.4876233507
20
5.5760496723
30
0.0000000000
10
4.0000000000
20
5.5773035507
30
0.0000000000
10
3.5123766493
20
5.5760496723
30
0.0000000000
10
3.1270371233
20
5.5728223024
30
0.0000000000
10
2.8532409945
20
5.5688902003
30
0.0000000000
10
2.6998133094
20
5.5659210157
30
0.0000000000
10
2.5854510206
20
5.5629738346
30
0.0000000000
10
2.5061978229
20
5.5604024505
30
0.0000000000
10
2.4428667555
20
5.5577214972
30
0.0000000000
10
2.4003347863
20
5.5552986474
30
0.0000000000
10
2.3747603658
20
5.5531722129
30
0.0000000000
10
2.3632801157
20
5.5519015845
30
0.0000000000
10
2.3563028664
20
5.5508347298
30
0.0000000000
10
2.3527557432
20
5.5500905882
30
0.0000000000
10
2.3502629360
20
5.5494470470
30
0.0000000000
10
2.3491012705
20
5.5487861540
30
0.0000000000
10
2.3487046599
20
5.5484761331
30
0.0000000000
11
5.6512953401
21
5.5484761331
31
0.0000000000
11
5.6500219994
21
5.5492296475
31
0.0000000000
11
5.6476035133
21
5.5499814675
31
0.0000000000
11
5.6440498684
21
5.5507311575
31
0.0000000000
11
5.6393710515
21
5.5514782824
31
0.0000000000
11
5.6266778486
21
5.5529630947
31
0.0000000000
11
5.6096037988
21
5.5544324213
31
0.0000000000
11
5.5626327344
21
5.5573106849
31
0.0000000000
11
5.4990970108
21
5.5600852082
31
0.0000000000
11
5.4196357802
21
5.5627281261
31
0.0000000000
11
5.3248881950
21
5.5652115736
31
0.0000000000
11
5.1560078589
21
5.5685813887
31
0.0000000000
11
4.9593573210
21
5.5714632861
31
0.0000000000
11
4.5034896509
21
5.5754976761
31
0.0000000000
11
4.0000000000
21
5.5768719896
31
0.0000000000
11
3.4965103491
21
5.5754976761
31
0.0000000000
11
3.0406426790
21
5.5714632861
31
0.0000000000
11
2.8439921411
21
5.5685813887
31
0.0000000000
11
2.6751118050
21
5.5652115736
31
0.0000000000
11
2.5803642198
21
5.5627281261
31
0.0000000000
11
2.5009029892
21
5.5600852082
31
0.0000000000
11
2.4373672656
21
5.5573106849
31
0.0000000000
11
2.3903962012
21
5.5544324213
31
0.0000000000
11
2.3733221514
21
5.5529630947
31
0.0000000000
11
2.3606289485
21
5.5514782824
31
0.0000000000
11
2.3559501316
21
5.5507311575
31
0.0000000000
11
2.3523964867
21
5.5499814675
31
0.0000000000
11
2.3499780006
21
5.5492296475
31
0.0000000000
11
2.3487046599
21
5.5484761331
31
0.0000000000
0
SPLINE
5
43B
100
AcDbEntity
8
0
100
AcDbSpline
62
9
6
CONTINUOUS
70
0
71
3
72
9
73
5
74
3
42
0.0000001000
43
0.0000001000
44
0.0000000001
12
-0.0243008607
22
0.0661820263
32
0.0000000000
13
-0.0243292844
23
0.0661715827
33
0.0000000000
40
0.0000000000
40
0.0000000000
40
0.0000000000
40
0.0000000000
40
0.4998283471
40
1.0000000000
40
1.0000000000
40
1.0000000000
40
1.0000000000
10
7.0746906202
20
-21.0738952230
30
0.0000000000
10
7.0706418672
20
-21.0628686721
30
0.0000000000
10
7.0625396932
20
-21.0408086893
30
0.0000000000
10
7.0544308741
20
-21.0187511484
30
0.0000000000
10
7.0503746013
20
-21.0077187651
30
0.0000000000
11
7.0746906202
21
-21.0738952230
31
0.0000000000
11
7.0625408146
21
-21.0408168727
31
0.0000000000
11
7.0503746013
21
-21.0077187651
31
0.0000000000
0
SPLINE
5
43C
100
AcDbEntity
8
0
100
AcDbSpline
62
9
6
CONTINUOUS
70
0
71
3
72
9
73
5
74
3
42
0.0000001000
43
0.0000001000
44
0.0000000001
12
-0.0246396103
22
0.0658868856
32
0.0000000000
13
-0.0246692569
23
0.0658757912
33
0.0000000000
40
0.0000000000
40
0.0000000000
40
0.0000000000
40
0.0000000000
40
0.4998300786
40
1.0000000000
40
1.0000000000
40
1.0000000000
40
1.0000000000
10
6.7466556736
20
-21.1965699136
30
0.0000000000
10
6.7425504675
20
-21.1855924978
30
0.0000000000
10
6.7343346665
20
-21.1636311740
30
0.0000000000
10
6.7261144528
20
-21.1416715014
30
0.0000000000
10
6.7220015127
20
-21.1306884717
30
0.0000000000
11
6.7466556736
21
-21.1965699136
31
0.0000000000
11
6.7343363562
21
-21.1636390499
31
0.0000000000
11
6.7220015127
21
-21.1306884717
31
0.0000000000
0
SPLINE
5
43D
100
AcDbEntity
8
0
100
AcDbSpline
62
7
6
CONTINUOUS
70
0
71
3
72
14
73
10
74
8
42
0.0000001000
43
0.0000001000
44
0.0000000001
12
0.8287402323
22
-1.0488157973
32
0.0000000000
13
-0.0000000000
23
-1.3367217173
33
0.0000000000
40
0.0000000000
40
0.0000000000
40
0.0000000000
40
0.0000000000
40
0.1428761795
40
0.2857523299
40
0.4286244280
40
0.5714933821
40
0.7143601335
40
0.8572256132
40
1.0000000000
40
1.0000000000
40
1.0000000000
40
1.0000000000
10
10.7193014234
20
17.3594295692
30
0.0000000000
10
10.7587705028
20
17.3094793044
30
0.0000000000
10
10.8329828983
20
17.2057378262
30
0.0000000000
10
10.9289102432
20
17.0402732582
30
0.0000000000
10
11.0086238427
20
16.8663997120
30
0.0000000000
10
11.0713829358
20
16.6857240186
30
0.0000000000
10
11.1166202592
20
16.4998824056
30
0.0000000000
10
11.1439175235
20
16.3106330077
30
0.0000000000
10
11.1500000000
20
16.1832757075
30
0.0000000000
10
11.1500000000
20
16.1196591663
30
0.0000000000
11
10.7193014234
21
17.3594295692
31
0.0000000000
11
10.8304178490
21
17.2040954952
31
0.0000000000
11
10.9262090195
21
17.0388696759
31
0.0000000000
11
11.0057988806
21
16.8652640750
31
0.0000000000
11
11.0684630637
21
16.6848616204
31
0.0000000000
11
11.1136313808
21
16.4993069278
31
0.0000000000
11
11.1408929667
21
16.3102913796
31
0.0000000000
11
11.1500000000
21
16.1196591663
31
0.0000000000
0
SPLINE
5
43E
100
AcDbEntity
8
0
100
AcDbSpline
62
7
6
CONTINUOUS
70
0
71
3
72
10
73
6
74
4
42
0.0000001000
43
0.0000001000
44
0.0000000001
12
0.5846646811
22
0.0000000000
32
0.0000000000
13
0.4872211172
23
-0.3231847339
33
0.0000000000
40
0.0000000000
40
0.0000000000
40
0.0000000000
40
0.0000000000
40
0.3324081770
40
0.6679000849
40
1.0000000000
40
1.0000000000
40
1.0000000000
40
1.0000000000
10
3.6748576640
20
23.5000000000
30
0.0000000000
10
3.7396401042
20
23.5000000000
30
0.0000000000
10
3.8701698793
20
23.4872630147
30
0.0000000000
10
4.0578522507
20
23.4306561784
30
0.0000000000
10
4.1736070731
20
23.3691363536
30
0.0000000000
10
4.2275424370
20
23.3333598127
30
0.0000000000
11
3.6748576640
21
23.5000000000
31
0.0000000000
11
3.8682849634
21
23.4811118836
31
0.0000000000
11
4.0560794707
21
23.4244713402
31
0.0000000000
11
4.2275424370
21
23.3333598127
31
0.0000000000
0
SPLINE
5
43F
100
AcDbEntity
8
0
100
AcDbSpline
62
7
6
CONTINUOUS
70
0
71
3
72
10
73
6
74
4
42
0.0000001000
43
0.0000001000
44
0.0000000001
12
0.4872211172
22
0.3231847339
32
0.0000000000
13
0.5846646811
23
0.0000000000
33
0.0000000000
40
0.0000000000
40
0.0000000000
40
0.0000000000
40
0.0000000000
40
0.3320999151
40
0.6675918230
40
1.0000000000
40
1.0000000000
40
1.0000000000
40
1.0000000000
10
-4.2275424370
20
23.3333598127
30
0.0000000000
10
-4.1736070731
20
23.3691363536
30
0.0000000000
10
-4.0578522507
20
23.4306561784
30
0.0000000000
10
-3.8701698793
20
23.4872630147
30
0.0000000000
10
-3.7396401042
20
23.5000000000
30
0.0000000000
10
-3.6748576640
20
23.5000000000
30
0.0000000000
11
-4.2275424370
21
23.3333598127
31
0.0000000000
11
-4.0560794707
21
23.4244713402
31
0.0000000000
11
-3.8682849634
21
23.4811118836
31
0.0000000000
11
-3.6748576640
21
23.5000000000
31
0.0000000000
0
SPLINE
5
440
100
AcDbEntity
8
0
100
AcDbSpline
62
7
6
CONTINUOUS
70
0
71
3
72
14
73
10
74
8
42
0.0000001000
43
0.0000001000
44
0.0000000001
12
-0.0000000000
22
1.3367217173
32
0.0000000000
13
0.8287402323
23
1.0488157973
33
0.0000000000
40
0.0000000000
40
0.0000000000
40
0.0000000000
40
0.0000000000
40
0.1427744655
40
0.2856400568
40
0.4285068964
40
0.5713758670
40
0.7142478945
40
0.8571239283
40
1.0000000000
40
1.0000000000
40
1.0000000000
40
1.0000000000
10
-11.1500000000
20
16.1196591663
30
0.0000000000
10
-11.1500000000
20
16.1832757426
30
0.0000000000
10
-11.1439175161
20
16.3106331277
30
0.0000000000
10
-11.1166202169
20
16.4998826467
30
0.0000000000
10
-11.0713828414
20
16.6857243467
30
0.0000000000
10
-11.0086237086
20
16.8664000425
30
0.0000000000
10
-10.9289101109
20
17.0402735053
30
0.0000000000
10
-10.8329828138
20
17.2057379483
30
0.0000000000
10
-10.7587704731
20
17.3094793421
30
0.0000000000
10
-10.7193014234
20
17.3594295692
30
0.0000000000
11
-11.1500000000
21
16.1196591663
31
0.0000000000
11
-11.1408929566
21
16.3102914845
31
0.0000000000
11
-11.1136313324
21
16.4993071779
31
0.0000000000
11
-11.0684629583
21
16.6848619780
31
0.0000000000
11
-11.0057987334
21
16.8652644413
31
0.0000000000
11
-10.9262088814
21
17.0388699427
31
0.0000000000
11
-10.8304177708
21
17.2040956164
31
0.0000000000
11
-10.7193014234
21
17.3594295692
31
0.0000000000
0
SPLINE
5
441
100
AcDbEntity
8
0
100
AcDbSpline
62
7
6
CONTINUOUS
70
0
71
3
72
14
73
10
74
8
42
0.0000001000
43
0.0000001000
44
0.0000000001
12
-0.8287402324
22
1.0488157975
32
0.0000000000
13
0.0000000000
23
1.3367217175
33
0.0000000000
40
0.0000000000
40
0.0000000000
40
0.0000000000
40
0.0000000000
40
0.1428076465
40
0.2856751775
40
0.4285423336
40
0.5714100070
40
0.7142791188
40
0.8571505884
40
1.0000000000
40
1.0000000000
40
1.0000000000
40
1.0000000000
10
-10.7193014235
20
-17.3594295691
30
0.0000000000
10
-10.7587515709
20
-17.3095032639
30
0.0000000000
10
-10.8329461675
20
-17.2057916931
30
0.0000000000
10
-10.9288632081
20
-17.0403634967
30
0.0000000000
10
-11.0085832981
20
-16.8665002438
30
0.0000000000
10
-11.0713518295
20
-16.6858296596
30
0.0000000000
10
-11.1166001238
20
-16.4999874509
30
0.0000000000
10
-11.1439125871
20
-16.3107026703
30
0.0000000000
10
-11.1500000000
20
-16.1833091363
30
0.0000000000
10
-11.1500000000
20
-16.1196591661
30
0.0000000000
11
-10.7193014235
21
-17.3594295691
31
0.0000000000
11
-10.8303681105
21
-17.2041725506
31
0.0000000000
11
-10.9261615560
21
-17.0389613686
31
0.0000000000
11
-11.0057579145
21
-16.8653660139
31
0.0000000000
11
-11.0684315244
21
-16.6849686464
31
0.0000000000
11
-11.1136107948
21
-16.4994133730
31
0.0000000000
11
-11.1408833930
21
-16.3103913236
31
0.0000000000
11
-11.1500000000
21
-16.1196591661
31
0.0000000000
0
SPLINE
5
442
100
AcDbEntity
8
0
100
AcDbSpline
62
7
6
CONTINUOUS
70
0
71
3
72
10
73
6
74
4
42
0.0000001000
43
0.0000001000
44
0.0000000001
12
-0.5846646711
22
0.0000000000
32
0.0000000000
13
-0.4872211089
23
0.3231847284
33
0.0000000000
40
0.0000000000
40
0.0000000000
40
0.0000000000
40
0.0000000000
40
0.3320970604
40
0.6676052029
40
1.0000000000
40
1.0000000000
40
1.0000000000
40
1.0000000000
10
-3.6748577666
20
-23.5000000000
30
0.0000000000
10
-3.7395795728
20
-23.5000000000
30
0.0000000000
10
-3.8700508992
20
-23.4872807201
30
0.0000000000
10
-4.0577435501
20
-23.4307074389
30
0.0000000000
10
-4.1735592609
20
-23.3691680683
30
0.0000000000
10
-4.2275425147
20
-23.3333597609
30
0.0000000000
11
-3.6748577666
21
-23.5000000000
31
0.0000000000
11
-3.8681057469
21
-23.4811472046
31
0.0000000000
11
-4.0559194138
21
-23.4245373373
31
0.0000000000
11
-4.2275425147
21
-23.3333597609
31
0.0000000000
0
SPLINE
5
443
100
AcDbEntity
8
0
100
AcDbSpline
62
7
6
CONTINUOUS
70
0
71
3
72
10
73
6
74
4
42
0.0000001000
43
0.0000001000
44
0.0000000001
12
-0.4872211089
22
-0.3231847284
32
0.0000000000
13
-0.5846646711
23
-0.0000000000
33
0.0000000000
40
0.0000000000
40
0.0000000000
40
0.0000000000
40
0.0000000000
40
0.3323947971
40
0.6679029396
40
1.0000000000
40
1.0000000000
40
1.0000000000
40
1.0000000000
10
4.2275425147
20
-23.3333597609
30
0.0000000000
10
4.1735592609
20
-23.3691680683
30
0.0000000000
10
4.0577435501
20
-23.4307074389
30
0.0000000000
10
3.8700508992
20
-23.4872807201
30
0.0000000000
10
3.7395795728
20
-23.5000000000
30
0.0000000000
10
3.6748577666
20
-23.5000000000
30
0.0000000000
11
4.2275425147
21
-23.3333597609
31
0.0000000000
11
4.0559194138
21
-23.4245373373
31
0.0000000000
11
3.8681057469
21
-23.4811472046
31
0.0000000000
11
3.6748577666
21
-23.5000000000
31
0.0000000000
0
SPLINE
5
444
100
AcDbEntity
8
0
100
AcDbSpline
62
7
6
CONTINUOUS
70
0
71
3
72
14
73
10
74
8
42
0.0000001000
43
0.0000001000
44
0.0000000001
12
0.0000000000
22
-1.3367217175
32
0.0000000000
13
-0.8287402324
23
-1.0488157975
33
0.0000000000
40
0.0000000000
40
0.0000000000
40
0.0000000000
40
0.0000000000
40
0.1428494530
40
0.2857209706
40
0.4285901142
40
0.5714577849
40
0.7143249065
40
0.8571923902
40
1.0000000000
40
1.0000000000
40
1.0000000000
40
1.0000000000
10
11.1500000000
20
-16.1196591661
30
0.0000000000
10
11.1500000000
20
-16.1833091548
30
0.0000000000
10
11.1439125835
20
-16.3107027286
30
0.0000000000
10
11.1166001041
20
-16.4999875617
30
0.0000000000
10
11.0713517885
20
-16.6858298008
30
0.0000000000
10
11.0085832434
20
-16.8665003777
30
0.0000000000
10
10.9288631574
20
-17.0403635908
30
0.0000000000
10
10.8329461368
20
-17.2057917374
30
0.0000000000
10
10.7587515607
20
-17.3095032767
30
0.0000000000
10
10.7193014235
20
-17.3594295691
30
0.0000000000
11
11.1500000000
21
-16.1196591661
31
0.0000000000
11
11.1408833877
21
-16.3103913787
31
0.0000000000
11
11.1136107720
21
-16.4994134904
31
0.0000000000
11
11.0684314785
21
-16.6849688020
31
0.0000000000
11
11.0057578553
21
-16.8653661611
31
0.0000000000
11
10.9261615043
21
-17.0389614684
31
0.0000000000
11
10.8303680838
21
-17.2041725919
31
0.0000000000
11
10.7193014235
21
-17.3594295691
31
0.0000000000
0
SPLINE
5
445
100
AcDbEntity
8
0
100
AcDbSpline
62
7
6
CONTINUOUS
70
0
71
3
72
15
73
11
74
9
42
0.0000001000
43
0.0000001000
44
0.0000000001
12
0.6340243477
22
0.0000041764
32
0.0000000000
13
-0.0000000000
23
-0.6340243437
33
0.0000000000
40
0.0000000000
40
0.0000000000
40
0.0000000000
40
0.0000000000
40
0.1189801713
40
0.2659027991
40
0.4087596200
40
0.5206569379
40
0.6865924466
40
0.8299211302
40
0.9350998286
40
1.0000000000
40
1.0000000000
40
1.0000000000
40
1.0000000000
10
3.4168477804
20
-15.5569453787
30
0.0000000000
10
3.4419932222
20
-15.5569452131
30
0.0000000000
10
3.4981837989
20
-15.5628836815
30
0.0000000000
10
3.5816338148
20
-15.5897720323
30
0.0000000000
10
3.6502167189
20
-15.6424054193
30
0.0000000000
10
3.7052171729
20
-15.7130978917
30
0.0000000000
10
3.7390712375
20
-15.7968442914
30
0.0000000000
10
3.7547816413
20
-15.8832600439
30
0.0000000000
10
3.7597491455
20
-15.9493583540
30
0.0000000000
10
3.7609270822
20
-15.9852960018
30
0.0000000000
10
3.7609270822
20
-15.9990120980
30
0.0000000000
11
3.4168477804
21
-15.5569453787
31
0.0000000000
11
3.4918975060
21
-15.5645726981
31
0.0000000000
11
3.5799748846
21
-15.5949003728
31
0.0000000000
11
3.6522982166
21
-15.6494266263
31
0.0000000000
11
3.6958828988
21
-15.7054057024
31
0.0000000000
11
3.7371067440
21
-15.8022000175
31
0.0000000000
11
3.7544044148
21
-15.8914124139
31
0.0000000000
11
3.7598070994
21
-15.9578790542
31
0.0000000000
11
3.7609270822
21
-15.9990120980
31
0.0000000000
0
SPLINE
5
446
100
AcDbEntity
8
0
100
AcDbSpline
62
7
6
CONTINUOUS
70
0
71
3
72
15
73
11
74
9
42
0.0000001000
43
0.0000001000
44
0.0000000001
12
0.0000000000
22
-0.6340231257
32
0.0000000000
13
-0.6340231277
23
0.0000020126
33
0.0000000000
40
0.0000000000
40
0.0000000000
40
0.0000000000
40
0.0000000000
40
0.0649002961
40
0.1700791965
40
0.3134081555
40
0.4793439830
40
0.5912415158
40
0.7340986112
40
0.8810215212
40
1.0000000000
40
1.0000000000
40
1.0000000000
40
1.0000000000
10
3.7609270822
20
-15.9990120980
30
0.0000000000
10
3.7609270822
20
-16.0127281942
30
0.0000000000
10
3.7597491455
20
-16.0486658421
30
0.0000000000
10
3.7547816413
20
-16.1147641522
30
0.0000000000
10
3.7390712375
20
-16.2011799047
30
0.0000000000
10
3.7052171729
20
-16.2849263044
30
0.0000000000
10
3.6502167189
20
-16.3556187768
30
0.0000000000
10
3.5816338148
20
-16.4082521638
30
0.0000000000
10
3.4981841911
20
-16.4351403882
30
0.0000000000
10
3.4419940341
20
-16.4410788971
30
0.0000000000
10
3.4168489984
20
-16.4410788173
30
0.0000000000
11
3.7609270822
21
-15.9990120980
31
0.0000000000
11
3.7598070994
21
-16.0401451418
31
0.0000000000
11
3.7544044148
21
-16.1066117822
31
0.0000000000
11
3.7371067440
21
-16.1958241786
31
0.0000000000
11
3.6958828988
21
-16.2926184936
31
0.0000000000
11
3.6522982166
21
-16.3485975698
31
0.0000000000
11
3.5799748846
21
-16.4031238233
31
0.0000000000
11
3.4918975060
21
-16.4334514979
31
0.0000000000
11
3.4168489984
21
-16.4410788173
31
0.0000000000
0
SPLINE
5
447
100
AcDbEntity
8
0
100
AcDbSpline
62
7
6
CONTINUOUS
70
0
71
3
72
15
73
11
74
9
42
0.0000001000
43
0.0000001000
44
0.0000000001
12
0.0000000000
22
0.8461152198
32
0.0000000000
13
-0.8461152057
23
-0.0000010048
33
0.0000000000
40
0.0000000000
40
0.0000000000
40
0.0000000000
40
0.0000000000
40
0.1143016167
40
0.2049833574
40
0.3323811714
40
0.4528485075
40
0.6051128412
40
0.7180251696
40
0.8738149336
40
1.0000000000
40
1.0000000000
40
1.0000000000
40
1.0000000000
10
3.9207672922
20
-15.9990120980
30
0.0000000000
10
3.9207672922
20
-15.9667746522
30
0.0000000000
10
3.9199463169
20
-15.9088634428
30
0.0000000000
10
3.9065031210
20
-15.8158131382
30
0.0000000000
10
3.8781982463
20
-15.7241986461
30
0.0000000000
10
3.8300599511
20
-15.6215716348
30
0.0000000000
10
3.7587713427
20
-15.5367770083
30
0.0000000000
10
3.6593208843
20
-15.4701884475
30
0.0000000000
10
3.5528839712
20
-15.4328625313
30
0.0000000000
10
3.4732321216
20
-15.4240120558
30
0.0000000000
10
3.4376430872
20
-15.4240120980
30
0.0000000000
11
3.9207672922
21
-15.9990120980
31
0.0000000000
11
3.9175291681
21
-15.9023539851
31
0.0000000000
11
3.9063605932
21
-15.8264439970
31
0.0000000000
11
3.8752157058
21
-15.7232481817
31
0.0000000000
11
3.8304506051
21
-15.6316749484
31
0.0000000000
11
3.7470040990
21
-15.5335186120
31
0.0000000000
11
3.6678706604
21
-15.4799911742
31
0.0000000000
11
3.5437905182
21
-15.4354984778
31
0.0000000000
11
3.4376430872
21
-15.4240120980
31
0.0000000000
0
SPLINE
5
448
100
AcDbEntity
8
0
100
AcDbSpline
62
7
6
CONTINUOUS
70
0
71
3
72
15
73
11
74
9
42
0.0000001000
43
0.0000001000
44
0.0000000001
12
0.8461140946
22
0.0000010048
32
0.0000000000
13
0.0000000000
23
0.8461140806
33
0.0000000000
40
0.0000000000
40
0.0000000000
40
0.0000000000
40
0.0000000000
40
0.1261838898
40
0.2819738636
40
0.3948863440
40
0.5471508828
40
0.6676183811
40
0.7950163666
40
0.8856982294
40
1.0000000000
40
1.0000000000
40
1.0000000000
40
1.0000000000
10
3.4376442264
20
-16.5740120980
30
0.0000000000
10
3.4732328823
20
-16.5740120558
30
0.0000000000
10
3.5528843341
20
-16.5651615374
30
0.0000000000
10
3.6593208843
20
-16.5278357486
30
0.0000000000
10
3.7587713427
20
-16.4612471877
30
0.0000000000
10
3.8300599511
20
-16.3764525612
30
0.0000000000
10
3.8781982463
20
-16.2738255499
30
0.0000000000
10
3.9065031210
20
-16.1822110578
30
0.0000000000
10
3.9199463169
20
-16.0891607533
30
0.0000000000
10
3.9207672922
20
-16.0312495439
30
0.0000000000
10
3.9207672922
20
-15.9990120980
30
0.0000000000
11
3.4376442264
21
-16.5740120980
31
0.0000000000
11
3.5437905182
21
-16.5625257182
31
0.0000000000
11
3.6678706604
21
-16.5180330218
31
0.0000000000
11
3.7470040990
21
-16.4645055840
31
0.0000000000
11
3.8304506051
21
-16.3663492477
31
0.0000000000
11
3.8752157058
21
-16.2747760143
31
0.0000000000
11
3.9063605932
21
-16.1715801991
31
0.0000000000
11
3.9175291681
21
-16.0956702109
31
0.0000000000
11
3.9207672922
21
-15.9990120980
31
0.0000000000
0
SPLINE
5
449
100
AcDbEntity
8
0
100
AcDbSpline
62
7
6
CONTINUOUS
70
0
71
3
72
14
73
10
74
8
42
0.0000001000
43
0.0000001000
44
0.0000000001
12
0.3465030722
22
0.0000037626
32
0.0000000000
13
0.0000000000
23
-0.3465029795
33
0.0000000000
40
0.0000000000
40
0.0000000000
40
0.0000000000
40
0.0000000000
40
0.1339971774
40
0.3391217017
40
0.5241378566
40
0.6710875631
40
0.7907140907
40
0.9296140516
40
1.0000000000
40
1.0000000000
40
1.0000000000
40
1.0000000000
10
0.1575290006
20
-15.5569453787
30
0.0000000000
10
0.1730058118
20
-15.5569452107
30
0.0000000000
10
0.2121156487
20
-15.5593441078
30
0.0000000000
10
0.2723102368
20
-15.5699047142
30
0.0000000000
10
0.3278975165
20
-15.6009920154
30
0.0000000000
10
0.3612668835
20
-15.6423002756
30
0.0000000000
10
0.3796550054
20
-15.6859613275
30
0.0000000000
10
0.3839894580
20
-15.7240744513
30
0.0000000000
10
0.3846000502
20
-15.7482156528
30
0.0000000000
10
0.3846000502
20
-15.7563452998
30
0.0000000000
11
0.1575290006
21
-15.5569453787
31
0.0000000000
11
0.2038872415
21
-15.5595332192
31
0.0000000000
11
0.2733957294
21
-15.5743792516
31
0.0000000000
11
0.3287845964
21
-15.6066591568
31
0.0000000000
11
0.3609737002
21
-15.6461123744
31
0.0000000000
11
0.3770001511
21
-15.6843397727
31
0.0000000000
11
0.3839464598
21
-15.7319651182
31
0.0000000000
11
0.3846000502
21
-15.7563452998
31
0.0000000000
0
SPLINE
5
44A
100
AcDbEntity
8
0
100
AcDbSpline
62
7
6
CONTINUOUS
70
0
71
3
72
14
73
10
74
8
42
0.0000001000
43
0.0000001000
44
0.0000000001
12
0.0000000000
22
-0.3464964697
32
0.0000000000
13
-0.3464964158
23
-0.0000021891
33
0.0000000000
40
0.0000000000
40
0.0000000000
40
0.0000000000
40
0.0000000000
40
0.0703872708
40
0.2092898413
40
0.3289186164
40
0.4758710838
40
0.6608907146
40
0.8660190928
40
1.0000000000
40
1.0000000000
40
1.0000000000
40
1.0000000000
10
0.3846000502
20
-15.7563452998
30
0.0000000000
10
0.3846000502
20
-15.7644749467
30
0.0000000000
10
0.3839894580
20
-15.7886161482
30
0.0000000000
10
0.3796550054
20
-15.8267292720
30
0.0000000000
10
0.3612668835
20
-15.8703903240
30
0.0000000000
10
0.3278975165
20
-15.9116985841
30
0.0000000000
10
0.2723102368
20
-15.9427858854
30
0.0000000000
10
0.2121178064
20
-15.9533461132
30
0.0000000000
10
0.1730101451
20
-15.9557451230
30
0.0000000000
10
0.1575355104
20
-15.9557452208
30
0.0000000000
11
0.3846000502
21
-15.7563452998
31
0.0000000000
11
0.3839464598
21
-15.7807254814
31
0.0000000000
11
0.3770001511
21
-15.8283508268
31
0.0000000000
11
0.3609737002
21
-15.8665782251
31
0.0000000000
11
0.3287845964
21
-15.9060314427
31
0.0000000000
11
0.2733957294
21
-15.9383113479
31
0.0000000000
11
0.2038872415
21
-15.9531573803
31
0.0000000000
11
0.1575355104
21
-15.9557452208
31
0.0000000000
0
SPLINE
5
44B
100
AcDbEntity
8
0
100
AcDbSpline
62
7
6
CONTINUOUS
70
0
71
3
72
14
73
10
74
8
42
0.0000001000
43
0.0000001000
44
0.0000000001
12
0.0127099520
22
0.5359229793
32
0.0000000000
13
-0.5360497727
23
0.0050602981
33
0.0000000000
40
0.0000000000
40
0.0000000000
40
0.0000000000
40
0.0000000000
40
0.1417257491
40
0.2998073620
40
0.4146683958
40
0.5679825401
40
0.6876935721
40
0.8588154654
40
1.0000000000
40
1.0000000000
40
1.0000000000
40
1.0000000000
10
0.5446579357
20
-15.7563452998
30
0.0000000000
10
0.5452583782
20
-15.7310272712
30
0.0000000000
10
0.5409593061
20
-15.6771915738
30
0.0000000000
10
0.5185621159
20
-15.6057531695
30
0.0000000000
10
0.4799742741
20
-15.5394966558
30
0.0000000000
10
0.4295423613
20
-15.4901851349
30
0.0000000000
10
0.3598343997
20
-15.4511849972
30
0.0000000000
10
0.2850123586
20
-15.4291935506
30
0.0000000000
10
0.2291592615
20
-15.4242502368
30
0.0000000000
10
0.2039319489
20
-15.4240120915
30
0.0000000000
11
0.5446579357
21
-15.7563452998
31
0.0000000000
11
0.5385358795
21
-15.6806169144
31
0.0000000000
11
0.5128844780
21
-15.5998490503
31
0.0000000000
11
0.4815125869
21
-15.5468664210
31
0.0000000000
11
0.4228548688
21
-15.4892983199
31
0.0000000000
11
0.3671027962
21
-15.4575178225
31
0.0000000000
11
0.2792978218
21
-15.4309584068
31
0.0000000000
11
0.2039319489
21
-15.4240120915
31
0.0000000000
0
SPLINE
5
44C
100
AcDbEntity
8
0
100
AcDbSpline
62
7
6
CONTINUOUS
70
0
71
3
72
14
73
10
74
8
42
0.0000001000
43
0.0000001000
44
0.0000000001
12
0.5360525697
22
0.0050571495
32
0.0000000000
13
-0.0127100192
23
0.5359258109
33
0.0000000000
40
0.0000000000
40
0.0000000000
40
0.0000000000
40
0.0000000000
40
0.1411890723
40
0.3123100614
40
0.4320204609
40
0.5853337951
40
0.7001942221
40
0.8582749997
40
1.0000000000
40
1.0000000000
40
1.0000000000
40
1.0000000000
10
0.2039291166
20
-16.0886785348
30
0.0000000000
10
0.2291573716
20
-16.0884405300
30
0.0000000000
10
0.2850114436
20
-16.0834973179
30
0.0000000000
10
0.3598343997
20
-16.0615056024
30
0.0000000000
10
0.4295423613
20
-16.0225054647
30
0.0000000000
10
0.4799742741
20
-15.9731939438
30
0.0000000000
10
0.5185621159
20
-15.9069374301
30
0.0000000000
10
0.5409593061
20
-15.8354990257
30
0.0000000000
10
0.5452583782
20
-15.7816633283
30
0.0000000000
10
0.5446579357
20
-15.7563452998
30
0.0000000000
11
0.2039291166
21
-16.0886785348
31
0.0000000000
11
0.2792978218
21
-16.0817321928
31
0.0000000000
11
0.3671027962
21
-16.0551727771
31
0.0000000000
11
0.4228548688
21
-16.0233922796
31
0.0000000000
11
0.4815125869
21
-15.9658241786
31
0.0000000000
11
0.5128844780
21
-15.9128415493
31
0.0000000000
11
0.5385358795
21
-15.8320736851
31
0.0000000000
11
0.5446579357
21
-15.7563452998
31
0.0000000000
0
SPLINE
5
44D
100
AcDbEntity
8
0
100
AcDbSpline
62
7
6
CONTINUOUS
70
0
71
3
72
14
73
10
74
8
42
0.0000001000
43
0.0000001000
44
0.0000000001
12
0.3465030722
22
0.0000037626
32
0.0000000000
13
-0.0000000000
23
-0.3465029795
33
0.0000000000
40
0.0000000000
40
0.0000000000
40
0.0000000000
40
0.0000000000
40
0.1339971774
40
0.3391217017
40
0.5241378566
40
0.6710875631
40
0.7907140907
40
0.9296140516
40
1.0000000000
40
1.0000000000
40
1.0000000000
40
1.0000000000
10
-3.8480848960
20
-15.5569453787
30
0.0000000000
10
-3.8326080848
20
-15.5569452107
30
0.0000000000
10
-3.7934982478
20
-15.5593441078
30
0.0000000000
10
-3.7333036598
20
-15.5699047142
30
0.0000000000
10
-3.6777163801
20
-15.6009920154
30
0.0000000000
10
-3.6443470131
20
-15.6423002756
30
0.0000000000
10
-3.6259588912
20
-15.6859613275
30
0.0000000000
10
-3.6216244386
20
-15.7240744513
30
0.0000000000
10
-3.6210138463
20
-15.7482156528
30
0.0000000000
10
-3.6210138463
20
-15.7563452998
30
0.0000000000
11
-3.8480848960
21
-15.5569453787
31
0.0000000000
11
-3.8017266551
21
-15.5595332192
31
0.0000000000
11
-3.7322181671
21
-15.5743792516
31
0.0000000000
11
-3.6768293002
21
-15.6066591568
31
0.0000000000
11
-3.6446401963
21
-15.6461123744
31
0.0000000000
11
-3.6286137455
21
-15.6843397727
31
0.0000000000
11
-3.6216674368
21
-15.7319651182
31
0.0000000000
11
-3.6210138463
21
-15.7563452998
31
0.0000000000
0
SPLINE
5
44E
100
AcDbEntity
8
0
100
AcDbSpline
62
7
6
CONTINUOUS
70
0
71
3
72
14
73
10
74
8
42
0.0000001000
43
0.0000001000
44
0.0000000001
12
0.0000000000
22
-0.3464964697
32
0.0000000000
13
-0.3464964158
23
-0.0000021891
33
0.0000000000
40
0.0000000000
40
0.0000000000
40
0.0000000000
40
0.0000000000
40
0.0703872708
40
0.2092898413
40
0.3289186164
40
0.4758710838
40
0.6608907146
40
0.8660190928
40
1.0000000000
40
1.0000000000
40
1.0000000000
40
1.0000000000
10
-3.6210138463
20
-15.7563452998
30
0.0000000000
10
-3.6210138463
20
-15.7644749467
30
0.0000000000
10
-3.6216244386
20
-15.7886161482
30
0.0000000000
10
-3.6259588912
20
-15.8267292720
30
0.0000000000
10
-3.6443470131
20
-15.8703903240
30
0.0000000000
10
-3.6777163801
20
-15.9116985841
30
0.0000000000
10
-3.7333036598
20
-15.9427858854
30
0.0000000000
10
-3.7934960902
20
-15.9533461132
30
0.0000000000
10
-3.8326037514
20
-15.9557451230
30
0.0000000000
10
-3.8480783861
20
-15.9557452208
30
0.0000000000
11
-3.6210138463
21
-15.7563452998
31
0.0000000000
11
-3.6216674368
21
-15.7807254814
31
0.0000000000
11
-3.6286137455
21
-15.8283508268
31
0.0000000000
11
-3.6446401963
21
-15.8665782251
31
0.0000000000
11
-3.6768293002
21
-15.9060314427
31
0.0000000000
11
-3.7322181671
21
-15.9383113479
31
0.0000000000
11
-3.8017266551
21
-15.9531573803
31
0.0000000000
11
-3.8480783861
21
-15.9557452208
31
0.0000000000
0
SPLINE
5
44F
100
AcDbEntity
8
0
100
AcDbSpline
62
7
6
CONTINUOUS
70
0
71
3
72
14
73
10
74
8
42
0.0000001000
43
0.0000001000
44
0.0000000001
12
0.0127099520
22
0.5359229793
32
0.0000000000
13
-0.5360497727
23
0.0050602981
33
0.0000000000
40
0.0000000000
40
0.0000000000
40
0.0000000000
40
0.0000000000
40
0.1417257491
40
0.2998073620
40
0.4146683958
40
0.5679825401
40
0.6876935721
40
0.8588154654
40
1.0000000000
40
1.0000000000
40
1.0000000000
40
1.0000000000
10
-3.4609559608
20
-15.7563452998
30
0.0000000000
10
-3.4603555183
20
-15.7310272712
30
0.0000000000
10
-3.4646545905
20
-15.6771915738
30
0.0000000000
10
-3.4870517807
20
-15.6057531695
30
0.0000000000
10
-3.5256396225
20
-15.5394966558
30
0.0000000000
10
-3.5760715352
20
-15.4901851349
30
0.0000000000
10
-3.6457794968
20
-15.4511849972
30
0.0000000000
10
-3.7206015379
20
-15.4291935506
30
0.0000000000
10
-3.7764546351
20
-15.4242502368
30
0.0000000000
10
-3.8016819477
20
-15.4240120915
30
0.0000000000
11
-3.4609559608
21
-15.7563452998
31
0.0000000000
11
-3.4670780171
21
-15.6806169144
31
0.0000000000
11
-3.4927294186
21
-15.5998490503
31
0.0000000000
11
-3.5241013096
21
-15.5468664210
31
0.0000000000
11
-3.5827590278
21
-15.4892983199
31
0.0000000000
11
-3.6385111004
21
-15.4575178225
31
0.0000000000
11
-3.7263160747
21
-15.4309584068
31
0.0000000000
11
-3.8016819477
21
-15.4240120915
31
0.0000000000
0
SPLINE
5
450
100
AcDbEntity
8
0
100
AcDbSpline
62
7
6
CONTINUOUS
70
0
71
3
72
14
73
10
74
8
42
0.0000001000
43
0.0000001000
44
0.0000000001
12
0.5360525697
22
0.0050571495
32
0.0000000000
13
-0.0127100192
23
0.5359258109
33
0.0000000000
40
0.0000000000
40
0.0000000000
40
0.0000000000
40
0.0000000000
40
0.1411890723
40
0.3123100614
40
0.4320204609
40
0.5853337951
40
0.7001942221
40
0.8582749997
40
1.0000000000
40
1.0000000000
40
1.0000000000
40
1.0000000000
10
-3.8016847800
20
-16.0886785348
30
0.0000000000
10
-3.7764565250
20
-16.0884405300
30
0.0000000000
10
-3.7206024530
20
-16.0834973179
30
0.0000000000
10
-3.6457794968
20
-16.0615056024
30
0.0000000000
10
-3.5760715352
20
-16.0225054647
30
0.0000000000
10
-3.5256396225
20
-15.9731939438
30
0.0000000000
10
-3.4870517807
20
-15.9069374301
30
0.0000000000
10
-3.4646545905
20
-15.8354990257
30
0.0000000000
10
-3.4603555183
20
-15.7816633283
30
0.0000000000
10
-3.4609559608
20
-15.7563452998
30
0.0000000000
11
-3.8016847800
21
-16.0886785348
31
0.0000000000
11
-3.7263160747
21
-16.0817321928
31
0.0000000000
11
-3.6385111004
21
-16.0551727771
31
0.0000000000
11
-3.5827590278
21
-16.0233922796
31
0.0000000000
11
-3.5241013096
21
-15.9658241786
31
0.0000000000
11
-3.4927294186
21
-15.9128415493
31
0.0000000000
11
-3.4670780171
21
-15.8320736851
31
0.0000000000
11
-3.4609559608
21
-15.7563452998
31
0.0000000000
0
SPLINE
5
451
100
AcDbEntity
8
0
100
AcDbSpline
62
7
6
CONTINUOUS
70
0
71
3
72
8
73
4
74
2
42
0.0000001000
43
0.0000001000
44
0.0000000001
12
-0.0129124176
22
-0.0012020645
32
0.0000000000
13
-0.0074576220
23
-0.0120877982
33
0.0000000000
40
0.0000000000
40
0.0000000000
40
0.0000000000
40
0.0000000000
40
1.0000000000
40
1.0000000000
40
1.0000000000
40
1.0000000000
10
-3.3631544652
20
-21.1965699136
30
0.0000000000
10
-3.3674586045
20
-21.1969706017
30
0.0000000000
10
-3.3705871641
20
-21.2000526748
30
0.0000000000
10
-3.3730730380
20
-21.2040819408
30
0.0000000000
11
-3.3631544652
21
-21.1965699136
31
0.0000000000
11
-3.3730730380
21
-21.2040819408
31
0.0000000000
0
SPLINE
5
452
100
AcDbEntity
8
0
100
AcDbSpline
62
7
6
CONTINUOUS
70
0
71
3
72
9
73
5
74
3
42
0.0000001000
43
0.0000001000
44
0.0000000001
12
-0.0309735293
22
-0.0502039085
32
0.0000000000
13
-0.0088822918
23
-0.0510842676
33
0.0000000000
40
0.0000000000
40
0.0000000000
40
0.0000000000
40
0.0000000000
40
0.1571671993
40
1.0000000000
40
1.0000000000
40
1.0000000000
40
1.0000000000
10
-3.3730730380
20
-21.2040819408
30
0.0000000000
10
-3.3746957123
20
-21.2067120767
30
0.0000000000
10
-3.3832778490
20
-21.2260146304
30
0.0000000000
10
-3.3867741851
20
-21.2421291934
30
0.0000000000
10
-3.3892696141
20
-21.2564810255
30
0.0000000000
11
-3.3730730380
21
-21.2040819408
31
0.0000000000
11
-3.3772677461
21
-21.2127007851
31
0.0000000000
11
-3.3892696141
21
-21.2564810255
31
0.0000000000
0
SPLINE
5
453
100
AcDbEntity
8
0
100
AcDbSpline
62
7
6
CONTINUOUS
70
0
71
3
72
9
73
5
74
3
42
0.0000001000
43
0.0000001000
44
0.0000000001
12
-0.0231862903
22
-0.1333501179
32
0.0000000000
13
0.0000000000
23
-0.1405976006
33
0.0000000000
40
0.0000000000
40
0.0000000000
40
0.0000000000
40
0.0000000000
40
0.4654859115
40
1.0000000000
40
1.0000000000
40
1.0000000000
40
1.0000000000
10
-3.3892696141
20
-21.2564810255
30
0.0000000000
10
-3.3928672446
20
-21.2771718925
30
0.0000000000
10
-3.3985804489
20
-21.3250598744
30
0.0000000000
10
-3.4000000000
20
-21.3714889538
30
0.0000000000
10
-3.4000000000
20
-21.3965394199
30
0.0000000000
11
-3.3892696141
21
-21.2564810255
31
0.0000000000
11
-3.3972557403
21
-21.3214381435
31
0.0000000000
11
-3.4000000000
21
-21.3965394199
31
0.0000000000
0
SPLINE
5
454
100
AcDbEntity
8
0
100
AcDbSpline
62
7
6
CONTINUOUS
70
0
71
3
72
11
73
7
74
5
42
0.0000001000
43
0.0000001000
44
0.0000000001
12
0.0000000000
22
0.2074265106
32
0.0000000000
13
-0.2065334869
23
0.0192269623
33
0.0000000000
40
0.0000000000
40
0.0000000000
40
0.0000000000
40
0.0000000000
40
0.3623037293
40
0.6778188585
40
0.8966700140
40
1.0000000000
40
1.0000000000
40
1.0000000000
40
1.0000000000
10
3.4000000000
20
-21.3965394199
30
0.0000000000
10
3.4000000000
20
-21.3714889538
30
0.0000000000
10
3.3985804489
20
-21.3250598744
30
0.0000000000
10
3.3910225904
20
-21.2617100327
30
0.0000000000
10
3.3824360221
20
-21.2221346619
30
0.0000000000
10
3.3702681660
20
-21.1972321542
30
0.0000000000
10
3.3631544652
20
-21.1965699136
30
0.0000000000
11
3.4000000000
21
-21.3965394199
31
0.0000000000
11
3.3972557403
21
-21.3214381435
31
0.0000000000
11
3.3892696141
21
-21.2564810255
31
0.0000000000
11
3.3772677461
21
-21.2127007851
31
0.0000000000
11
3.3631544652
21
-21.1965699136
31
0.0000000000
0
SPLINE
5
455
100
AcDbEntity
8
0
100
AcDbSpline
62
7
6
CONTINUOUS
70
0
71
3
72
11
73
7
74
5
42
0.0000001000
43
0.0000001000
44
0.0000000001
12
0.0000000000
22
-0.2074265106
32
0.0000000000
13
0.2065334869
23
-0.0192269623
33
0.0000000000
40
0.0000000000
40
0.0000000000
40
0.0000000000
40
0.0000000000
40
0.3623037293
40
0.6778188585
40
0.8966700140
40
1.0000000000
40
1.0000000000
40
1.0000000000
40
1.0000000000
10
-3.4000000000
20
21.3965394199
30
0.0000000000
10
-3.4000000000
20
21.3714889538
30
0.0000000000
10
-3.3985804489
20
21.3250598744
30
0.0000000000
10
-3.3910225904
20
21.2617100327
30
0.0000000000
10
-3.3824360221
20
21.2221346619
30
0.0000000000
10
-3.3702681660
20
21.1972321542
30
0.0000000000
10
-3.3631544652
20
21.1965699136
30
0.0000000000
11
-3.4000000000
21
21.3965394199
31
0.0000000000
11
-3.3972557403
21
21.3214381435
31
0.0000000000
11
-3.3892696141
21
21.2564810255
31
0.0000000000
11
-3.3772677461
21
21.2127007851
31
0.0000000000
11
-3.3631544652
21
21.1965699136
31
0.0000000000
0
SPLINE
5
456
100
AcDbEntity
8
0
100
AcDbSpline
62
7
6
CONTINUOUS
70
0
71
3
72
8
73
4
74
2
42
0.0000001000
43
0.0000001000
44
0.0000000001
12
0.0129124176
22
0.0012020645
32
0.0000000000
13
0.0074576220
23
0.0120877982
33
0.0000000000
40
0.0000000000
40
0.0000000000
40
0.0000000000
40
0.0000000000
40
1.0000000000
40
1.0000000000
40
1.0000000000
40
1.0000000000
10
3.3631544652
20
21.1965699136
30
0.0000000000
10
3.3674586045
20
21.1969706018
30
0.0000000000
10
3.3705871641
20
21.2000526748
30
0.0000000000
10
3.3730730380
20
21.2040819408
30
0.0000000000
11
3.3631544652
21
21.1965699136
31
0.0000000000
11
3.3730730380
21
21.2040819408
31
0.0000000000
0
SPLINE
5
457
100
AcDbEntity
8
0
100
AcDbSpline
62
7
6
CONTINUOUS
70
0
71
3
72
9
73
5
74
3
42
0.0000001000
43
0.0000001000
44
0.0000000001
12
0.0309735293
22
0.0502039085
32
0.0000000000
13
0.0088822918
23
0.0510842676
33
0.0000000000
40
0.0000000000
40
0.0000000000
40
0.0000000000
40
0.0000000000
40
0.1571671993
40
1.0000000000
40
1.0000000000
40
1.0000000000
40
1.0000000000
10
3.3730730380
20
21.2040819408
30
0.0000000000
10
3.3746957123
20
21.2067120767
30
0.0000000000
10
3.3832778490
20
21.2260146304
30
0.0000000000
10
3.3867741851
20
21.2421291934
30
0.0000000000
10
3.3892696141
20
21.2564810255
30
0.0000000000
11
3.3730730380
21
21.2040819408
31
0.0000000000
11
3.3772677461
21
21.2127007851
31
0.0000000000
11
3.3892696141
21
21.2564810255
31
0.0000000000
0
SPLINE
5
458
100
AcDbEntity
8
0
100
AcDbSpline
62
7
6
CONTINUOUS
70
0
71
3
72
9
73
5
74
3
42
0.0000001000
43
0.0000001000
44
0.0000000001
12
0.0231862903
22
0.1333501179
32
0.0000000000
13
0.0000000000
23
0.1405976006
33
0.0000000000
40
0.0000000000
40
0.0000000000
40
0.0000000000
40
0.0000000000
40
0.4654859115
40
1.0000000000
40
1.0000000000
40
1.0000000000
40
1.0000000000
10
3.3892696141
20
21.2564810255
30
0.0000000000
10
3.3928672446
20
21.2771718925
30
0.0000000000
10
3.3985804489
20
21.3250598744
30
0.0000000000
10
3.4000000000
20
21.3714889538
30
0.0000000000
10
3.4000000000
20
21.3965394199
30
0.0000000000
11
3.3892696141
21
21.2564810255
31
0.0000000000
11
3.3972557403
21
21.3214381435
31
0.0000000000
11
3.4000000000
21
21.3965394199
31
0.0000000000
0
SPLINE
5
459
100
AcDbEntity
8
0
100
AcDbSpline
62
7
6
CONTINUOUS
70
0
71
3
72
19
73
15
74
13
42
0.0000001000
43
0.0000001000
44
0.0000000001
12
-1.9638082742
22
-1.9638082742
32
0.0000000000
13
1.9638082742
23
-1.9638082742
33
0.0000000000
40
0.0000000000
40
0.0000000000
40
0.0000000000
40
0.0000000000
40
0.0189658927
40
0.0702511403
40
0.1492904962
40
0.2529284268
40
0.3717281034
40
0.5000000000
40
0.6282718966
40
0.7470715732
40
0.8507095038
40
0.9297488597
40
0.9810341073
40
1.0000000000
40
1.0000000000
40
1.0000000000
40
1.0000000000
10
-9.4875105196
20
-1.5619476105
30
0.0000000000
10
-9.4999256452
20
-1.5743627361
30
0.0000000000
10
-9.4849641515
20
-1.6503579368
30
0.0000000000
10
-9.5068932438
20
-1.7786399932
30
0.0000000000
10
-9.5024325737
20
-2.0003111838
30
0.0000000000
10
-9.5095010132
20
-2.2773415439
30
0.0000000000
10
-9.5105148199
20
-2.6026769107
30
0.0000000000
10
-9.5117377876
20
-2.9500000000
30
0.0000000000
10
-9.5105148199
20
-3.2973230893
30
0.0000000000
10
-9.5095010132
20
-3.6226584561
30
0.0000000000
10
-9.5024325737
20
-3.8996888162
30
0.0000000000
10
-9.5068932438
20
-4.1213600068
30
0.0000000000
10
-9.4849641515
20
-4.2496420632
30
0.0000000000
10
-9.4999256452
20
-4.3256372639
30
0.0000000000
10
-9.4875105196
20
-4.3380523895
30
0.0000000000
11
-9.4875105196
21
-1.5619476105
31
0.0000000000
11
-9.4936898376
21
-1.6142568088
31
0.0000000000
11
-9.4994672285
21
-1.7565712491
31
0.0000000000
11
-9.5043553868
21
-1.9760284172
31
0.0000000000
11
-9.5081529786
21
-2.2638312149
31
0.0000000000
11
-9.5105084326
21
-2.5937585309
31
0.0000000000
11
-9.5113198440
21
-2.9500000000
31
0.0000000000
11
-9.5105084326
21
-3.3062414691
31
0.0000000000
11
-9.5081529786
21
-3.6361687851
31
0.0000000000
11
-9.5043553868
21
-3.9239715828
31
0.0000000000
11
-9.4994672285
21
-4.1434287509
31
0.0000000000
11
-9.4936898376
21
-4.2857431911
31
0.0000000000
11
-9.4875105196
21
-4.3380523895
31
0.0000000000
0
SPLINE
5
45A
100
AcDbEntity
8
0
100
AcDbSpline
62
7
6
CONTINUOUS
70
0
71
3
72
19
73
15
74
13
42
0.0000001000
43
0.0000001000
44
0.0000000001
12
1.9638082742
22
-1.9638082742
32
0.0000000000
13
-1.9638082742
23
-1.9638082742
33
0.0000000000
40
0.0000000000
40
0.0000000000
40
0.0000000000
40
0.0000000000
40
0.0189658927
40
0.0702511403
40
0.1492904962
40
0.2529284268
40
0.3717281034
40
0.5000000000
40
0.6282718966
40
0.7470715732
40
0.8507095038
40
0.9297488597
40
0.9810341073
40
1.0000000000
40
1.0000000000
40
1.0000000000
40
1.0000000000
10
9.4875105196
20
-1.5619476105
30
0.0000000000
10
9.4999256452
20
-1.5743627361
30
0.0000000000
10
9.4849641515
20
-1.6503579368
30
0.0000000000
10
9.5068932438
20
-1.7786399932
30
0.0000000000
10
9.5024325737
20
-2.0003111838
30
0.0000000000
10
9.5095010132
20
-2.2773415439
30
0.0000000000
10
9.5105148199
20
-2.6026769107
30
0.0000000000
10
9.5117377876
20
-2.9500000000
30
0.0000000000
10
9.5105148199
20
-3.2973230893
30
0.0000000000
10
9.5095010132
20
-3.6226584561
30
0.0000000000
10
9.5024325737
20
-3.8996888162
30
0.0000000000
10
9.5068932438
20
-4.1213600068
30
0.0000000000
10
9.4849641515
20
-4.2496420632
30
0.0000000000
10
9.4999256452
20
-4.3256372639
30
0.0000000000
10
9.4875105196
20
-4.3380523895
30
0.0000000000
11
9.4875105196
21
-1.5619476105
31
0.0000000000
11
9.4936898376
21
-1.6142568088
31
0.0000000000
11
9.4994672285
21
-1.7565712491
31
0.0000000000
11
9.5043553868
21
-1.9760284172
31
0.0000000000
11
9.5081529786
21
-2.2638312149
31
0.0000000000
11
9.5105084326
21
-2.5937585309
31
0.0000000000
11
9.5113198440
21
-2.9500000000
31
0.0000000000
11
9.5105084326
21
-3.3062414691
31
0.0000000000
11
9.5081529786
21
-3.6361687851
31
0.0000000000
11
9.5043553868
21
-3.9239715828
31
0.0000000000
11
9.4994672285
21
-4.1434287509
31
0.0000000000
11
9.4936898376
21
-4.2857431911
31
0.0000000000
11
9.4875105196
21
-4.3380523895
31
0.0000000000
0
SPLINE
5
45B
100
AcDbEntity
8
0
100
AcDbSpline
62
7
6
CONTINUOUS
70
0
71
3
72
19
73
15
74
13
42
0.0000001000
43
0.0000001000
44
0.0000000001
12
-2.3362425112
22
2.3362425112
32
0.0000000000
13
-2.3362425112
23
-2.3362425112
33
0.0000000000
40
0.0000000000
40
0.0000000000
40
0.0000000000
40
0.0000000000
40
0.0190230442
40
0.0700116788
40
0.1496360906
40
0.2525963719
40
0.3720373854
40
0.5000000000
40
0.6279626146
40
0.7474036281
40
0.8503639094
40
0.9299883212
40
0.9809769558
40
1.0000000000
40
1.0000000000
40
1.0000000000
40
1.0000000000
10
-2.3487046599
20
4.6242675690
30
0.0000000000
10
-2.3635188081
20
4.6390817172
30
0.0000000000
10
-2.4536363507
20
4.6212946700
30
0.0000000000
10
-2.6066437734
20
4.6473914362
30
0.0000000000
10
-2.8699462103
20
4.6420257928
30
0.0000000000
10
-3.2001257480
20
4.6504376814
30
0.0000000000
10
-3.5867822240
20
4.6516346532
30
0.0000000000
10
-4.0000000000
20
4.6530876336
30
0.0000000000
10
-4.4132177760
20
4.6516346532
30
0.0000000000
10
-4.7998742520
20
4.6504376814
30
0.0000000000
10
-5.1300537897
20
4.6420257928
30
0.0000000000
10
-5.3933562266
20
4.6473914362
30
0.0000000000
10
-5.5463636493
20
4.6212946700
30
0.0000000000
10
-5.6364811919
20
4.6390817172
30
0.0000000000
10
-5.6512953401
20
4.6242675690
30
0.0000000000
11
-2.3487046599
21
4.6242675690
31
0.0000000000
11
-2.4111230085
21
4.6316304154
31
0.0000000000
11
-2.5794478525
21
4.6384686099
31
0.0000000000
11
-2.8424573667
21
4.6443266545
31
0.0000000000
11
-3.1826029626
21
4.6488139567
31
0.0000000000
11
-3.5772195425
21
4.6516317464
31
0.0000000000
11
-4.0000000000
21
4.6525923116
31
0.0000000000
11
-4.4227804575
21
4.6516317464
31
0.0000000000
11
-4.8173970374
21
4.6488139567
31
0.0000000000
11
-5.1575426333
21
4.6443266545
31
0.0000000000
11
-5.4205521475
21
4.6384686099
31
0.0000000000
11
-5.5888769915
21
4.6316304154
31
0.0000000000
11
-5.6512953401
21
4.6242675690
31
0.0000000000
0
SPLINE
5
45C
100
AcDbEntity
8
0
100
AcDbSpline
62
7
6
CONTINUOUS
70
0
71
3
72
19
73
15
74
13
42
0.0000001000
43
0.0000001000
44
0.0000000001
12
-2.3362425112
22
2.3362425112
32
0.0000000000
13
-2.3362425112
23
-2.3362425112
33
0.0000000000
40
0.0000000000
40
0.0000000000
40
0.0000000000
40
0.0000000000
40
0.0190230442
40
0.0700116788
40
0.1496360906
40
0.2525963719
40
0.3720373854
40
0.5000000000
40
0.6279626146
40
0.7474036281
40
0.8503639094
40
0.9299883212
40
0.9809769558
40
1.0000000000
40
1.0000000000
40
1.0000000000
40
1.0000000000
10
5.6512953401
20
4.6242675690
30
0.0000000000
10
5.6364811919
20
4.6390817172
30
0.0000000000
10
5.5463636493
20
4.6212946700
30
0.0000000000
10
5.3933562266
20
4.6473914362
30
0.0000000000
10
5.1300537897
20
4.6420257928
30
0.0000000000
10
4.7998742520
20
4.6504376814
30
0.0000000000
10
4.4132177760
20
4.6516346532
30
0.0000000000
10
4.0000000000
20
4.6530876336
30
0.0000000000
10
3.5867822240
20
4.6516346532
30
0.0000000000
10
3.2001257480
20
4.6504376814
30
0.0000000000
10
2.8699462103
20
4.6420257928
30
0.0000000000
10
2.6066437734
20
4.6473914362
30
0.0000000000
10
2.4536363507
20
4.6212946700
30
0.0000000000
10
2.3635188081
20
4.6390817172
30
0.0000000000
10
2.3487046599
20
4.6242675690
30
0.0000000000
11
5.6512953401
21
4.6242675690
31
0.0000000000
11
5.5888769915
21
4.6316304154
31
0.0000000000
11
5.4205521475
21
4.6384686099
31
0.0000000000
11
5.1575426333
21
4.6443266545
31
0.0000000000
11
4.8173970374
21
4.6488139567
31
0.0000000000
11
4.4227804575
21
4.6516317464
31
0.0000000000
11
4.0000000000
21
4.6525923116
31
0.0000000000
11
3.5772195425
21
4.6516317464
31
0.0000000000
11
3.1826029626
21
4.6488139567
31
0.0000000000
11
2.8424573667
21
4.6443266545
31
0.0000000000
11
2.5794478525
21
4.6384686099
31
0.0000000000
11
2.4111230085
21
4.6316304154
31
0.0000000000
11
2.3487046599
21
4.6242675690
31
0.0000000000
0
SPLINE
5
45D
100
AcDbEntity
8
0
100
AcDbSpline
62
9
6
CONTINUOUS
70
0
71
3
72
12
73
8
74
6
42
0.0000001000
43
0.0000001000
44
0.0000000001
12
0.0002381804
22
0.7819795954
32
0.0000000000
13
0.7819795954
23
0.0002381804
33
0.0000000000
40
0.0000000000
40
0.0000000000
40
0.0000000000
40
0.0000000000
40
0.2006210343
40
0.4012767863
40
0.6017150864
40
0.8021706096
40
1.0000000000
40
1.0000000000
40
1.0000000000
40
1.0000000000
10
-10.5720850344
20
5.2086513684
30
0.0000000000
10
-10.5720691064
20
5.2609452202
30
0.0000000000
10
-10.5553497268
20
5.3662778820
30
0.0000000000
10
-10.4827271279
20
5.5081099286
30
0.0000000000
10
-10.3697104047
20
5.6205950756
30
0.0000000000
10
-10.2282496772
20
5.6922058818
30
0.0000000000
10
-10.1237273691
20
5.7085595097
30
0.0000000000
10
-10.0721611869
20
5.7085752160
30
0.0000000000
11
-10.5720850344
21
5.2086513684
31
0.0000000000
11
-10.5474245985
21
5.3635826034
31
0.0000000000
11
-10.4759568686
21
5.5032704954
31
0.0000000000
11
-10.3648637766
21
5.6138387322
31
0.0000000000
11
-10.2249899182
21
5.6845956112
31
0.0000000000
11
-10.0721611869
21
5.7085752160
31
0.0000000000
0
SPLINE
5
45E
100
AcDbEntity
8
0
100
AcDbSpline
62
9
6
CONTINUOUS
70
0
71
3
72
11
73
7
74
5
42
0.0000001000
43
0.0000001000
44
0.0000000001
12
0.0002376295
22
0.7801707120
32
0.0000000000
13
0.7801707120
23
0.0002376295
33
0.0000000000
40
0.0000000000
40
0.0000000000
40
0.0000000000
40
0.0000000000
40
0.2499898560
40
0.5000001900
40
0.7500104252
40
1.0000000000
40
1.0000000000
40
1.0000000000
40
1.0000000000
10
-10.9494190698
20
5.5859854038
30
0.0000000000
10
-10.9493992681
20
5.6509969918
30
0.0000000000
10
-10.9233501983
20
5.7824390819
30
0.0000000000
10
-10.8120869383
20
5.9485773027
30
0.0000000000
10
-10.6459487237
20
6.0598404308
30
0.0000000000
10
-10.5145067370
20
6.0858894497
30
0.0000000000
10
-10.4494952222
20
6.0859092514
30
0.0000000000
11
-10.9494190698
21
5.5859854038
31
0.0000000000
11
-10.9113208921
21
5.7772629287
31
0.0000000000
11
-10.8029408347
21
5.9394312300
31
0.0000000000
11
-10.6407725405
21
6.0478111593
31
0.0000000000
11
-10.4494952222
21
6.0859092514
31
0.0000000000
0
SPLINE
5
45F
100
AcDbEntity
8
0
100
AcDbSpline
62
9
6
CONTINUOUS
70
0
71
3
72
15
73
11
74
9
42
0.0000001000
43
0.0000001000
44
0.0000000001
12
-0.4480120404
22
0.2238515626
32
0.0000000000
13
-0.0000003031
23
0.5008236321
33
0.0000000000
40
0.0000000000
40
0.0000000000
40
0.0000000000
40
0.0000000000
40
0.0172342137
40
0.0680462735
40
0.1591880137
40
0.2898450241
40
0.4527727320
40
0.6358359346
40
0.8234772095
40
1.0000000000
40
1.0000000000
40
1.0000000000
40
1.0000000000
10
-10.4494952222
20
6.0859092514
30
0.0000000000
10
-10.4520689339
20
6.0871952199
30
0.0000000000
10
-10.4524002533
20
6.1012430116
30
0.0000000000
10
-10.4570760900
20
6.1248407860
30
0.0000000000
10
-10.4587790533
20
6.1719911020
30
0.0000000000
10
-10.4619674441
20
6.2353826288
30
0.0000000000
10
-10.4639617573
20
6.3152191854
30
0.0000000000
10
-10.4655899695
20
6.4041974989
30
0.0000000000
10
-10.4664554676
20
6.4955757616
30
0.0000000000
10
-10.4666456364
20
6.5563641706
30
0.0000000000
10
-10.4666456542
20
6.5858330989
30
0.0000000000
11
-10.4494952222
21
6.0859092514
31
0.0000000000
11
-10.4523437204
21
6.0940569764
31
0.0000000000
11
-10.4554708640
21
6.1193119876
31
0.0000000000
11
-10.4586086297
21
6.1648499500
31
0.0000000000
11
-10.4614614012
21
6.2302238538
31
0.0000000000
11
-10.4637905940
21
6.3117886504
31
0.0000000000
11
-10.4654431489
21
6.4034561337
31
0.0000000000
11
-10.4663706245
21
6.4974267417
31
0.0000000000
11
-10.4666456542
21
6.5858330989
31
0.0000000000
0
SPLINE
5
460
100
AcDbEntity
8
0
100
AcDbSpline
62
7
6
CONTINUOUS
70
0
71
3
72
12
73
8
74
6
42
0.0000001000
43
0.0000001000
44
0.0000000001
12
-0.3318306586
22
0.2808131010
32
0.0000000000
13
-0.3249013188
23
0.2888022104
33
0.0000000000
40
0.0000000000
40
0.0000000000
40
0.0000000000
40
0.0000000000
40
0.1909644016
40
0.3875712139
40
0.5881092305
40
0.7918292842
40
1.0000000000
40
1.0000000000
40
1.0000000000
40
1.0000000000
10
-6.7466556736
20
-21.3591170406
30
0.0000000000
10
-6.7677782880
20
-21.3412419387
30
0.0000000000
10
-6.8105403908
20
-21.3048366882
30
0.0000000000
10
-6.8751219025
20
-21.2492365901
30
0.0000000000
10
-6.9408057024
20
-21.1920857850
30
0.0000000000
10
-7.0074734933
20
-21.1335148367
30
0.0000000000
10
-7.0521456395
20
-21.0939352754
30
0.0000000000
10
-7.0746906195
20
-21.0738952211
30
0.0000000000
11
-6.7466556736
21
-21.3591170406
31
0.0000000000
11
-6.8098687809
21
-21.3053094200
31
0.0000000000
11
-6.8746418668
21
-21.2495523987
31
0.0000000000
11
-6.9404123551
21
-21.1923364220
31
0.0000000000
11
-7.0069485243
21
-21.1338946182
31
0.0000000000
11
-7.0746906195
21
-21.0738952211
31
0.0000000000
0
SPLINE
5
461
100
AcDbEntity
8
0
100
AcDbSpline
62
9
6
CONTINUOUS
70
0
71
3
72
12
73
8
74
6
42
0.0000001000
43
0.0000001000
44
0.0000000001
12
-0.3574910363
22
-0.0000129319
32
0.0000000000
13
-0.2697581092
23
0.2345856001
33
0.0000000000
40
0.0000000000
40
0.0000000000
40
0.0000000000
40
0.0000000000
40
0.1649490402
40
0.3450646445
40
0.5427642638
40
0.7601786451
40
1.0000000000
40
1.0000000000
40
1.0000000000
40
1.0000000000
10
-6.7466556736
20
-21.1965698523
30
0.0000000000
10
-6.7663116080
20
-21.1965705633
30
0.0000000000
10
-6.8074704992
20
-21.1941419974
30
0.0000000000
10
-6.8712438396
20
-21.1823774612
30
0.0000000000
10
-6.9388549350
20
-21.1601449445
30
0.0000000000
10
-7.0088400908
20
-21.1249412033
30
0.0000000000
10
-7.0531222557
20
-21.0926440927
30
0.0000000000
10
-7.0746868407
20
-21.0738912139
30
0.0000000000
11
-6.7466556736
21
-21.1965698523
31
0.0000000000
11
-6.8055209814
21
-21.1930946018
31
0.0000000000
11
-6.8688421093
21
-21.1814125623
31
0.0000000000
11
-6.9359818911
21
-21.1593371390
31
0.0000000000
11
-7.0054108333
21
-21.1244001332
31
0.0000000000
11
-7.0746868407
21
-21.0738912139
31
0.0000000000
0
SPLINE
5
462
100
AcDbEntity
8
0
100
AcDbSpline
62
7
6
CONTINUOUS
70
0
71
3
72
9
73
5
74
3
42
0.0000001000
43
0.0000001000
44
0.0000000001
12
-0.0444909288
22
0.0373290260
32
0.0000000000
13
-0.0443327377
23
0.0375167602
33
0.0000000000
40
0.0000000000
40
0.0000000000
40
0.0000000000
40
0.0000000000
40
0.5077578288
40
1.0000000000
40
1.0000000000
40
1.0000000000
40
1.0000000000
10
-6.7022433077
20
-21.3965394526
30
0.0000000000
10
-6.7097735134
20
-21.3902214176
30
0.0000000000
10
-6.7245906586
20
-21.3777627099
30
0.0000000000
10
-6.7393815259
20
-21.3652728178
30
0.0000000000
10
-6.7466556736
20
-21.3591170406
30
0.0000000000
11
-6.7022433077
21
-21.3965394526
31
0.0000000000
11
-6.7248137814
21
-21.3775613649
31
0.0000000000
11
-6.7466556736
21
-21.3591170406
31
0.0000000000
0
SPLINE
5
463
100
AcDbEntity
8
0
100
AcDbSpline
62
9
6
CONTINUOUS
70
0
71
3
72
9
73
5
74
3
42
0.0000001000
43
0.0000001000
44
0.0000000001
12
-0.1833910626
22
0.0639637639
32
0.0000000000
13
-0.1834697418
23
0.0637377344
33
0.0000000000
40
0.0000000000
40
0.0000000000
40
0.0000000000
40
0.0000000000
40
0.5004747813
40
1.0000000000
40
1.0000000000
40
1.0000000000
40
1.0000000000
10
-10.9665695018
20
16.0558086086
30
0.0000000000
10
-10.9971637025
20
16.0664793588
30
0.0000000000
10
-11.0583006675
20
16.0877816642
30
0.0000000000
10
-11.1194507457
20
16.1090462975
30
0.0000000000
10
-11.1500000000
20
16.1196591660
30
0.0000000000
11
-10.9665695018
21
16.0558086086
31
0.0000000000
11
-11.0583620054
21
16.0877924562
31
0.0000000000
11
-11.1500000000
21
16.1196591660
31
0.0000000000
0
SPLINE
5
464
100
AcDbEntity
8
0
100
AcDbSpline
62
9
6
CONTINUOUS
70
0
71
3
72
9
73
5
74
3
42
0.0000001000
43
0.0000001000
44
0.0000000001
12
-0.1864607928
22
0.0600803056
32
0.0000000000
13
-0.1865203589
23
0.0598951258
33
0.0000000000
40
0.0000000000
40
0.0000000000
40
0.0000000000
40
0.0000000000
40
0.5004901347
40
1.0000000000
40
1.0000000000
40
1.0000000000
40
1.0000000000
10
-10.5328107846
20
17.2994419902
30
0.0000000000
10
-10.5639180470
20
17.3094651903
30
0.0000000000
10
-10.6260766449
20
17.3294764437
30
0.0000000000
10
-10.6882451703
20
17.3494568337
30
0.0000000000
10
-10.7193014234
20
17.3594295692
30
0.0000000000
11
-10.5328107846
21
17.2994419902
31
0.0000000000
11
-10.6261400638
21
17.3294883291
31
0.0000000000
11
-10.7193014234
21
17.3594295692
31
0.0000000000
0
SPLINE
5
465
100
AcDbEntity
8
0
100
AcDbSpline
62
9
6
CONTINUOUS
70
0
71
3
72
9
73
5
74
3
42
0.0000001000
43
0.0000001000
44
0.0000000001
12
-0.1834697418
22
-0.0637377344
32
0.0000000000
13
-0.1833910626
23
-0.0639637639
33
0.0000000000
40
0.0000000000
40
0.0000000000
40
0.0000000000
40
0.0000000000
40
0.4995252187
40
1.0000000000
40
1.0000000000
40
1.0000000000
40
1.0000000000
10
11.1500000000
20
16.1196591660
30
0.0000000000
10
11.1194507457
20
16.1090462975
30
0.0000000000
10
11.0583006675
20
16.0877816642
30
0.0000000000
10
10.9971637025
20
16.0664793588
30
0.0000000000
10
10.9665695018
20
16.0558086086
30
0.0000000000
11
11.1500000000
21
16.1196591660
31
0.0000000000
11
11.0583620054
21
16.0877924562
31
0.0000000000
11
10.9665695018
21
16.0558086086
31
0.0000000000
0
SPLINE
5
466
100
AcDbEntity
8
0
100
AcDbSpline
62
9
6
CONTINUOUS
70
0
71
3
72
9
73
5
74
3
42
0.0000001000
43
0.0000001000
44
0.0000000001
12
-0.1865203589
22
-0.0598951258
32
0.0000000000
13
-0.1864607928
23
-0.0600803056
33
0.0000000000
40
0.0000000000
40
0.0000000000
40
0.0000000000
40
0.0000000000
40
0.4995098653
40
1.0000000000
40
1.0000000000
40
1.0000000000
40
1.0000000000
10
10.7193014234
20
17.3594295692
30
0.0000000000
10
10.6882451703
20
17.3494568337
30
0.0000000000
10
10.6260766449
20
17.3294764437
30
0.0000000000
10
10.5639180470
20
17.3094651903
30
0.0000000000
10
10.5328107846
20
17.2994419902
30
0.0000000000
11
10.7193014234
21
17.3594295692
31
0.0000000000
11
10.6261400638
21
17.3294883291
31
0.0000000000
11
10.5328107846
21
17.2994419902
31
0.0000000000
0
SPLINE
5
467
100
AcDbEntity
8
0
100
AcDbSpline
62
9
6
CONTINUOUS
70
0
71
3
72
10
73
6
74
4
42
0.0000001000
43
0.0000001000
44
0.0000000001
12
0.0210527751
22
-0.0698243706
32
0.0000000000
13
0.0210800484
23
-0.0698161416
33
0.0000000000
40
0.0000000000
40
0.0000000000
40
0.0000000000
40
0.0000000000
40
0.3331815441
40
0.6665148639
40
1.0000000000
40
1.0000000000
40
1.0000000000
40
1.0000000000
10
-3.6748574782
20
23.5000000000
30
0.0000000000
10
-3.6725193461
20
23.4922452695
30
0.0000000000
10
-3.6678410094
20
23.4767325796
30
0.0000000000
10
-3.6608188783
20
23.4534591585
30
0.0000000000
10
-3.6561343692
20
23.4379406221
30
0.0000000000
10
-3.6537910750
20
23.4301797403
30
0.0000000000
11
-3.6748574782
21
23.5000000000
31
0.0000000000
11
-3.6678415705
21
23.4767362642
31
0.0000000000
11
-3.6608194390
21
23.4534628443
31
0.0000000000
11
-3.6537910750
21
23.4301797403
31
0.0000000000
0
SPLINE
5
468
100
AcDbEntity
8
0
100
AcDbSpline
62
7
6
CONTINUOUS
70
0
71
3
72
10
73
6
74
4
42
0.0000001000
43
0.0000001000
44
0.0000000001
12
-0.5854426055
22
0.0000000000
32
0.0000000000
13
-0.4876164176
23
-0.3239957927
33
0.0000000000
40
0.0000000000
40
0.0000000000
40
0.0000000000
40
0.0000000000
40
0.3333348314
40
0.6666651686
40
1.0000000000
40
1.0000000000
40
1.0000000000
40
1.0000000000
10
-3.6537910750
20
23.4301797403
30
0.0000000000
10
-3.7188405457
20
23.4301797403
30
0.0000000000
10
-3.8493077260
20
23.4173951733
30
0.0000000000
10
-4.0372055542
20
23.3606619419
30
0.0000000000
10
-4.1529471903
20
23.2991070561
30
0.0000000000
10
-4.2071270357
20
23.2631073618
30
0.0000000000
11
-3.6537910750
21
23.4301797403
31
0.0000000000
11
-3.8480080272
21
23.4111356272
31
0.0000000000
11
-4.0348239165
21
23.3547290728
31
0.0000000000
11
-4.2071270357
21
23.2631073618
31
0.0000000000
0
SPLINE
5
469
100
AcDbEntity
8
0
100
AcDbSpline
62
9
6
CONTINUOUS
70
0
71
3
72
10
73
6
74
4
42
0.0000001000
43
0.0000001000
44
0.0000000001
12
0.0204032667
22
-0.0702558889
32
0.0000000000
13
0.0204280159
23
-0.0702486966
33
0.0000000000
40
0.0000000000
40
0.0000000000
40
0.0000000000
40
0.0000000000
40
0.3331797270
40
0.6665130445
40
1.0000000000
40
1.0000000000
40
1.0000000000
40
1.0000000000
10
-4.2275426698
20
23.3333596575
30
0.0000000000
10
-4.2252766848
20
23.3255570449
30
0.0000000000
10
-4.2207427560
20
23.3099484883
30
0.0000000000
10
-4.2139375475
20
23.2865310554
30
0.0000000000
10
-4.2093978613
20
23.2709163698
30
0.0000000000
10
-4.2071270357
20
23.2631073618
30
0.0000000000
11
-4.2275426698
21
23.3333596575
31
0.0000000000
11
-4.2207433431
21
23.3099522180
31
0.0000000000
11
-4.2139381344
21
23.2865347865
31
0.0000000000
11
-4.2071270357
21
23.2631073618
31
0.0000000000
0
SPLINE
5
46A
100
AcDbEntity
8
0
100
AcDbSpline
62
9
6
CONTINUOUS
70
0
71
3
72
10
73
6
74
4
42
0.0000001000
43
0.0000001000
44
0.0000000001
12
0.0204280159
22
0.0702486966
32
0.0000000000
13
0.0204032667
23
0.0702558889
33
0.0000000000
40
0.0000000000
40
0.0000000000
40
0.0000000000
40
0.0000000000
40
0.3334869556
40
0.6668202731
40
1.0000000000
40
1.0000000000
40
1.0000000000
40
1.0000000000
10
4.2071270357
20
23.2631073618
30
0.0000000000
10
4.2093978613
20
23.2709163698
30
0.0000000000
10
4.2139375475
20
23.2865310554
30
0.0000000000
10
4.2207427560
20
23.3099484883
30
0.0000000000
10
4.2252766848
20
23.3255570449
30
0.0000000000
10
4.2275426698
20
23.3333596575
30
0.0000000000
11
4.2071270357
21
23.2631073618
31
0.0000000000
11
4.2139381344
21
23.2865347865
31
0.0000000000
11
4.2207433431
21
23.3099522181
31
0.0000000000
11
4.2275426698
21
23.3333596575
31
0.0000000000
0
SPLINE
5
46B
100
AcDbEntity
8
0
100
AcDbSpline
62
7
6
CONTINUOUS
70
0
71
3
72
10
73
6
74
4
42
0.0000001000
43
0.0000001000
44
0.0000000001
12
-0.4876164176
22
0.3239957927
32
0.0000000000
13
-0.5854426055
23
0.0000000000
33
0.0000000000
40
0.0000000000
40
0.0000000000
40
0.0000000000
40
0.0000000000
40
0.3333348314
40
0.6666651686
40
1.0000000000
40
1.0000000000
40
1.0000000000
40
1.0000000000
10
4.2071270357
20
23.2631073618
30
0.0000000000
10
4.1529471903
20
23.2991070561
30
0.0000000000
10
4.0372055542
20
23.3606619419
30
0.0000000000
10
3.8493077260
20
23.4173951733
30
0.0000000000
10
3.7188405457
20
23.4301797403
30
0.0000000000
10
3.6537910750
20
23.4301797403
30
0.0000000000
11
4.2071270357
21
23.2631073618
31
0.0000000000
11
4.0348239165
21
23.3547290728
31
0.0000000000
11
3.8480080272
21
23.4111356272
31
0.0000000000
11
3.6537910750
21
23.4301797403
31
0.0000000000
0
SPLINE
5
46C
100
AcDbEntity
8
0
100
AcDbSpline
62
9
6
CONTINUOUS
70
0
71
3
72
10
73
6
74
4
42
0.0000001000
43
0.0000001000
44
0.0000000001
12
0.0210800484
22
0.0698161416
32
0.0000000000
13
0.0210527751
23
0.0698243706
33
0.0000000000
40
0.0000000000
40
0.0000000000
40
0.0000000000
40
0.0000000000
40
0.3334851362
40
0.6668184560
40
1.0000000000
40
1.0000000000
40
1.0000000000
40
1.0000000000
10
3.6537910750
20
23.4301797403
30
0.0000000000
10
3.6561343692
20
23.4379406221
30
0.0000000000
10
3.6608188783
20
23.4534591585
30
0.0000000000
10
3.6678410094
20
23.4767325796
30
0.0000000000
10
3.6725193461
20
23.4922452695
30
0.0000000000
10
3.6748574782
20
23.5000000000
30
0.0000000000
11
3.6537910750
21
23.4301797403
31
0.0000000000
11
3.6608194390
21
23.4534628443
31
0.0000000000
11
3.6678415705
21
23.4767362642
31
0.0000000000
11
3.6748574782
21
23.5000000000
31
0.0000000000
0
SPLINE
5
46D
100
AcDbEntity
8
0
100
AcDbSpline
62
9
6
CONTINUOUS
70
0
71
3
72
15
73
11
74
9
42
0.0000001000
43
0.0000001000
44
0.0000000001
12
-0.7080526681
22
0.7065888128
32
0.0000000000
13
-0.0000071344
23
1.0003031196
33
0.0000000000
40
0.0000000000
40
0.0000000000
40
0.0000000000
40
0.0000000000
40
0.0165479983
40
0.0671704593
40
0.1583064501
40
0.2890664255
40
0.4521600574
40
0.6354183497
40
0.8232657580
40
1.0000000000
40
1.0000000000
40
1.0000000000
40
1.0000000000
10
-10.9494190698
20
5.5859854038
30
0.0000000000
10
-10.9533246879
20
5.5898829473
30
0.0000000000
10
-10.9504048575
20
5.6156715292
30
0.0000000000
10
-10.9583620099
20
5.6648768816
30
0.0000000000
10
-10.9580452021
20
5.7578456604
30
0.0000000000
10
-10.9621503921
20
5.8852137278
30
0.0000000000
10
-10.9638006390
20
6.0446496324
30
0.0000000000
10
-10.9655389321
20
6.2226463213
30
0.0000000000
10
-10.9663727986
20
6.4053468477
30
0.0000000000
10
-10.9665690815
20
6.5269038277
30
0.0000000000
10
-10.9665695018
20
6.5858330989
30
0.0000000000
11
-10.9494190698
21
5.5859854038
31
0.0000000000
11
-10.9522681647
21
5.6022913825
31
0.0000000000
11
-10.9553959630
21
5.6528324969
31
0.0000000000
11
-10.9585339102
21
5.7439420910
31
0.0000000000
11
-10.9613864253
21
5.8747105944
31
0.0000000000
11
-10.9637151637
21
6.0378370418
31
0.0000000000
11
-10.9653672674
21
6.2211434384
31
0.0000000000
11
-10.9662945029
21
6.4090454992
31
0.0000000000
11
-10.9665695018
21
6.5858330989
31
0.0000000000
0
SPLINE
5
46E
100
AcDbEntity
8
0
100
AcDbSpline
62
7
6
CONTINUOUS
70
0
71
3
72
12
73
8
74
6
42
0.0000001000
43
0.0000001000
44
0.0000000001
12
-0.3249134143
22
-0.2887885999
32
0.0000000000
13
-0.3318306989
23
-0.2808130509
33
0.0000000000
40
0.0000000000
40
0.0000000000
40
0.0000000000
40
0.0000000000
40
0.2086418319
40
0.4105857866
40
0.6088886394
40
0.8051523851
40
1.0000000000
40
1.0000000000
40
1.0000000000
40
1.0000000000
10
7.0746906202
20
-21.0738952230
30
0.0000000000
10
7.0520937769
20
-21.0939796838
30
0.0000000000
10
7.0075643180
20
-21.1334351461
30
0.0000000000
10
6.9412817277
20
-21.1916673254
30
0.0000000000
10
6.8760775188
20
-21.2484080865
30
0.0000000000
10
6.8113583061
20
-21.3041380574
30
0.0000000000
10
6.7682078137
20
-21.3408784562
30
0.0000000000
10
6.7466556736
20
-21.3591170406
30
0.0000000000
11
7.0746906202
21
-21.0738952230
31
0.0000000000
11
7.0067949888
21
-21.1340301487
31
0.0000000000
11
6.9408394023
21
-21.1919630045
31
0.0000000000
11
6.8758054708
21
-21.2485452720
31
0.0000000000
11
6.8111510765
21
-21.3042115826
31
0.0000000000
11
6.7466556736
21
-21.3591170406
31
0.0000000000
0
SPLINE
5
46F
100
AcDbEntity
8
0
100
AcDbSpline
62
9
6
CONTINUOUS
70
0
71
3
72
11
73
7
74
5
42
0.0000001000
43
0.0000001000
44
0.0000000001
12
0.0001053473
22
1.0054384990
32
0.0000000000
13
0.6252039765
23
0.7874176618
33
0.0000000000
40
0.0000000000
40
0.0000000000
40
0.0000000000
40
0.0000000000
40
0.2494962552
40
0.4999654064
40
0.7504678004
40
1.0000000000
40
1.0000000000
40
1.0000000000
40
1.0000000000
10
-10.4666456542
20
16.0558086086
30
0.0000000000
10
-10.4666368930
20
16.1394263220
30
0.0000000000
10
-10.4525753081
20
16.3073229072
30
0.0000000000
10
-10.3896676961
20
16.5520300552
30
0.0000000000
10
-10.2867472423
20
16.7827955821
30
0.0000000000
10
-10.1933294576
20
16.9230382911
30
0.0000000000
10
-10.1413266164
20
16.9885336449
30
0.0000000000
11
-10.4666456542
21
16.0558086086
31
0.0000000000
11
-10.4456677941
21
16.3057830635
31
0.0000000000
11
-10.3829945913
21
16.5496910129
31
0.0000000000
11
-10.2803787032
21
16.7797036930
31
0.0000000000
11
-10.1413266164
21
16.9885336449
31
0.0000000000
0
SPLINE
5
470
100
AcDbEntity
8
0
100
AcDbSpline
62
9
6
CONTINUOUS
70
0
71
3
72
11
73
7
74
5
42
0.0000001000
43
0.0000001000
44
0.0000000001
12
0.0001041323
22
1.3405786000
32
0.0000000000
13
0.8336353105
23
1.0498586394
33
0.0000000000
40
0.0000000000
40
0.0000000000
40
0.0000000000
40
0.0000000000
40
0.2500496532
40
0.4999997159
40
0.7499523900
40
1.0000000000
40
1.0000000000
40
1.0000000000
40
1.0000000000
10
-10.9665566637
20
16.0558086073
30
0.0000000000
10
-10.9665479843
20
16.1675456786
30
0.0000000000
10
-10.9477604655
20
16.3914261985
30
0.0000000000
10
-10.8638720135
20
16.7174509363
30
0.0000000000
10
-10.7268058135
20
17.0249272215
30
0.0000000000
10
-10.6022843836
20
17.2119297724
30
0.0000000000
10
-10.5328015446
20
17.2994346536
30
0.0000000000
11
-10.9665566637
21
16.0558086073
31
0.0000000000
11
-10.9384676154
21
16.3898408872
31
0.0000000000
11
-10.8550105395
21
16.7143589693
31
0.0000000000
11
-10.7185418450
21
17.0203911747
31
0.0000000000
11
-10.5328015446
21
17.2994346536
31
0.0000000000
0
SPLINE
5
471
100
AcDbEntity
8
0
100
AcDbSpline
62
9
6
CONTINUOUS
70
0
71
3
72
12
73
8
74
6
42
0.0000001000
43
0.0000001000
44
0.0000000001
12
-0.2697765203
22
-0.2345665267
32
0.0000000000
13
-0.3574924140
23
0.0000178584
33
0.0000000000
40
0.0000000000
40
0.0000000000
40
0.0000000000
40
0.0000000000
40
0.2379989104
40
0.4550197919
40
0.6530509163
40
0.8340395138
40
1.0000000000
40
1.0000000000
40
1.0000000000
40
1.0000000000
10
7.0746896336
20
-21.0738941725
30
0.0000000000
10
7.0532874610
20
-21.0925030317
30
0.0000000000
10
7.0092413085
20
-21.1246634052
30
0.0000000000
10
6.9395130205
20
-21.1598752617
30
0.0000000000
10
6.8718390895
20
-21.1822310063
30
0.0000000000
10
6.8078166970
20
-21.1941136547
30
0.0000000000
10
6.7664322119
20
-21.1965708878
30
0.0000000000
10
6.7466556736
20
-21.1965698999
30
0.0000000000
11
7.0746896336
21
-21.0738941725
31
0.0000000000
11
7.0059691770
21
-21.1240597242
31
0.0000000000
11
6.9367176521
21
-21.1590368261
31
0.0000000000
11
6.8694967001
21
-21.1812454397
31
0.0000000000
11
6.8058808665
21
-21.1930514164
31
0.0000000000
11
6.7466556736
21
-21.1965698999
31
0.0000000000
0
SPLINE
5
472
100
AcDbEntity
8
0
100
AcDbSpline
62
9
6
CONTINUOUS
70
0
71
3
72
10
73
6
74
4
42
0.0000001000
43
0.0000001000
44
0.0000000001
12
0.3918373740
22
-0.0000494815
32
0.0000000000
13
0.2769244274
23
-0.2772172283
33
0.0000000000
40
0.0000000000
40
0.0000000000
40
0.0000000000
40
0.0000000000
40
0.3333320033
40
0.6666679967
40
1.0000000000
40
1.0000000000
40
1.0000000000
40
1.0000000000
10
8.0784266484
20
19.8030596834
30
0.0000000000
10
8.1219639607
20
19.8030541855
30
0.0000000000
10
8.2094775862
20
19.7915288385
30
0.0000000000
10
8.3313923441
20
19.7409833323
30
0.0000000000
10
8.4013882818
20
19.6872056696
30
0.0000000000
10
8.4321575398
20
19.6564038783
30
0.0000000000
11
8.0784266484
21
19.8030596834
31
0.0000000000
11
8.2079178416
21
19.7859860427
31
0.0000000000
11
8.3285726144
21
19.7359629227
31
0.0000000000
11
8.4321575398
21
19.6564038783
31
0.0000000000
0
SPLINE
5
473
100
AcDbEntity
8
0
100
AcDbSpline
62
9
6
CONTINUOUS
70
0
71
3
72
10
73
6
74
4
42
0.0000001000
43
0.0000001000
44
0.0000000001
12
0.3917392784
22
-0.0000493923
32
0.0000000000
13
0.2769097916
23
-0.2770931829
33
0.0000000000
40
0.0000000000
40
0.0000000000
40
0.0000000000
40
0.0000000000
40
0.3333319679
40
0.6666679533
40
1.0000000000
40
1.0000000000
40
1.0000000000
40
1.0000000000
10
8.0838316893
20
19.8160983137
30
0.0000000000
10
8.1273580974
20
19.8160928257
30
0.0000000000
10
8.2148495945
20
19.8045733217
30
0.0000000000
10
8.3367381758
20
19.7540527641
30
0.0000000000
10
8.4067249640
20
19.7003004421
30
0.0000000000
10
8.4374925999
20
19.6695124295
30
0.0000000000
11
8.0838316893
21
19.8160983137
31
0.0000000000
11
8.2132910145
21
19.7990332247
31
0.0000000000
11
8.3339205145
21
19.7490345355
31
0.0000000000
11
8.4374925999
21
19.6695124295
31
0.0000000000
0
SPLINE
5
474
100
AcDbEntity
8
0
100
AcDbSpline
62
9
6
CONTINUOUS
70
0
71
3
72
12
73
8
74
6
42
0.0000001000
43
0.0000001000
44
0.0000000001
12
0.1837766294
22
0.4603799715
32
0.0000000000
13
-0.3523241627
23
0.3486993720
33
0.0000000000
40
0.0000000000
40
0.0000000000
40
0.0000000000
40
0.0000000000
40
0.0399486406
40
0.1567960213
40
0.3558567937
40
0.6380602501
40
1.0000000000
40
1.0000000000
40
1.0000000000
40
1.0000000000
10
8.4374926906
20
19.6695125202
30
0.0000000000
10
8.4399398995
20
19.6756430382
30
0.0000000000
10
8.4098722193
20
19.6949837631
30
0.0000000000
10
8.3829900670
20
19.7387886692
30
0.0000000000
10
8.3073207302
20
19.8100577881
30
0.0000000000
10
8.2133073955
20
19.9097726527
30
0.0000000000
10
8.1369916778
20
19.9849680696
30
0.0000000000
10
8.0944849713
20
20.0270374575
30
0.0000000000
11
8.4374926906
21
19.6695125202
31
0.0000000000
11
8.4258014696
21
19.6854957642
31
0.0000000000
11
8.3869976776
21
19.7284981579
31
0.0000000000
11
8.3190759695
21
19.8000766805
31
0.0000000000
11
8.2213345304
21
19.9001553439
31
0.0000000000
11
8.0944849713
21
20.0270374575
31
0.0000000000
0
SPLINE
5
475
100
AcDbEntity
8
0
100
AcDbSpline
62
7
6
CONTINUOUS
70
0
71
3
72
9
73
5
74
3
42
0.0000001000
43
0.0000001000
44
0.0000000001
12
-0.0443327377
22
-0.0375167602
32
0.0000000000
13
-0.0444909288
23
-0.0373290260
33
0.0000000000
40
0.0000000000
40
0.0000000000
40
0.0000000000
40
0.0000000000
40
0.4922999993
40
1.0000000000
40
1.0000000000
40
1.0000000000
40
1.0000000000
10
6.7466556736
20
-21.3591170406
30
0.0000000000
10
6.7393806713
20
-21.3652735409
30
0.0000000000
10
6.7245898025
20
-21.3777634313
30
0.0000000000
10
6.7097726558
20
-21.3902221371
30
0.0000000000
10
6.7022433077
20
-21.3965394526
30
0.0000000000
11
6.7466556736
21
-21.3591170406
31
0.0000000000
11
6.7248112132
21
-21.3775635291
31
0.0000000000
11
6.7022433077
21
-21.3965394526
31
0.0000000000
0
SPLINE
5
476
100
AcDbEntity
8
0
100
AcDbSpline
62
7
6
CONTINUOUS
70
0
71
3
72
12
73
8
74
6
42
0.0000001000
43
0.0000001000
44
0.0000000001
12
0.3249014518
22
0.2888020590
32
0.0000000000
13
0.3318306576
23
0.2808131005
33
0.0000000000
40
0.0000000000
40
0.0000000000
40
0.0000000000
40
0.0000000000
40
0.2083031823
40
0.4101317753
40
0.6085232782
40
0.8049802804
40
1.0000000000
40
1.0000000000
40
1.0000000000
40
1.0000000000
10
-7.0746906194
20
21.0738952212
30
0.0000000000
10
-7.0521312840
20
21.0939480172
30
0.0000000000
10
-7.0076498819
20
21.1333585196
30
0.0000000000
10
-6.9414081882
20
21.1915570296
30
0.0000000000
10
-6.8761861504
20
21.2483140683
30
0.0000000000
10
-6.8114175719
20
21.3040875307
30
0.0000000000
10
-6.7682268473
20
21.3408623434
30
0.0000000000
10
-6.7466556734
20
21.3591170407
30
0.0000000000
11
-7.0746906194
21
21.0738952212
31
0.0000000000
11
-7.0069053426
21
21.1339327130
31
0.0000000000
11
-6.9409880031
21
21.1918331227
31
0.0000000000
11
-6.8759255485
21
21.2484413173
31
0.0000000000
11
-6.8112079057
21
21.3041629236
31
0.0000000000
11
-6.7466556734
21
21.3591170407
31
0.0000000000
0
SPLINE
5
477
100
AcDbEntity
8
0
100
AcDbSpline
62
9
6
CONTINUOUS
70
0
71
3
72
12
73
8
74
6
42
0.0000001000
43
0.0000001000
44
0.0000000001
12
0.2697577026
22
0.2345850922
32
0.0000000000
13
0.3574903963
23
-0.0000128910
33
0.0000000000
40
0.0000000000
40
0.0000000000
40
0.0000000000
40
0.0000000000
40
0.2406555048
40
0.4583467891
40
0.6559088630
40
0.8356070577
40
1.0000000000
40
1.0000000000
40
1.0000000000
40
1.0000000000
10
-7.0746867545
20
21.0738911231
30
0.0000000000
10
-7.0530471958
20
21.0927091876
30
0.0000000000
10
-7.0086459971
20
21.1250729793
30
0.0000000000
10
-6.9385317183
20
21.1602802456
30
0.0000000000
10
-6.8709360456
20
21.1824516959
30
0.0000000000
10
-6.8072877222
20
21.1941570762
30
0.0000000000
10
-6.7662453061
20
21.1965705532
30
0.0000000000
10
-6.7466556734
20
21.1965698468
30
0.0000000000
11
-7.0746867545
21
21.0738911231
31
0.0000000000
11
-7.0051548145
21
21.1245549150
31
0.0000000000
11
-6.9356131881
21
21.1594878576
31
0.0000000000
11
-6.8685037634
21
21.1814977159
31
0.0000000000
11
-6.8053231115
21
21.1931180213
31
0.0000000000
11
-6.7466556734
21
21.1965698468
31
0.0000000000
0
SPLINE
5
478
100
AcDbEntity
8
0
100
AcDbSpline
62
9
6
CONTINUOUS
70
0
71
3
72
12
73
8
74
6
42
0.0000001000
43
0.0000001000
44
0.0000000001
12
0.2280068076
22
0.3216843106
32
0.0000000000
13
-0.3414516812
23
0.1971766959
33
0.0000000000
40
0.0000000000
40
0.0000000000
40
0.0000000000
40
0.0000000000
40
0.0371212761
40
0.1520310589
40
0.3506548815
40
0.6342032795
40
1.0000000000
40
1.0000000000
40
1.0000000000
40
1.0000000000
10
8.0838316893
20
19.8160983575
30
0.0000000000
10
8.0866529905
20
19.8200788015
30
0.0000000000
10
8.0548525657
20
19.8306003437
30
0.0000000000
10
8.0312825327
20
19.8562170635
30
0.0000000000
10
7.9553052783
20
19.8967236543
30
0.0000000000
10
7.8637818982
20
19.9540442774
30
0.0000000000
10
7.7887999232
20
19.9969748010
30
0.0000000000
10
7.7471659548
20
20.0210169973
30
0.0000000000
11
8.0838316893
21
19.8160983575
31
0.0000000000
11
8.0724102793
21
19.8252517434
31
0.0000000000
11
8.0343814135
21
19.8498818804
31
0.0000000000
11
7.9676920952
21
19.8909423809
31
0.0000000000
11
7.8717254917
21
19.9483007509
31
0.0000000000
11
7.7471659548
21
20.0210169973
31
0.0000000000
0
SPLINE
5
479
100
AcDbEntity
8
0
100
AcDbSpline
62
9
6
CONTINUOUS
70
0
71
3
72
9
73
5
74
3
42
0.0000001000
43
0.0000001000
44
0.0000000001
12
-0.9998338759
22
0.9897780120
32
0.0000000000
13
-1.0500164548
23
0.9363726487
33
0.0000000000
40
0.0000000000
40
0.0000000000
40
0.0000000000
40
0.0000000000
40
0.5109464629
40
1.0000000000
40
1.0000000000
40
1.0000000000
40
1.0000000000
10
7.7471659548
20
20.0210169973
30
0.0000000000
10
7.5768787607
20
20.1895915220
30
0.0000000000
10
7.2392033878
20
20.5151069874
30
0.0000000000
10
6.8931335361
20
20.8316725627
30
0.0000000000
10
6.7219621157
20
20.9843180147
30
0.0000000000
11
7.7471659548
21
20.0210169973
31
0.0000000000
11
7.2296191705
21
20.5198969587
31
0.0000000000
11
6.7219621157
21
20.9843180147
31
0.0000000000
0
SPLINE
5
47A
100
AcDbEntity
8
0
100
AcDbSpline
62
9
6
CONTINUOUS
70
0
71
3
72
10
73
6
74
4
42
0.0000001000
43
0.0000001000
44
0.0000000001
12
0.3266582824
22
0.1649884975
32
0.0000000000
13
0.2694423771
23
-0.2476441866
33
0.0000000000
40
0.0000000000
40
0.0000000000
40
0.0000000000
40
0.0000000000
40
0.3945832751
40
0.7236137822
40
1.0000000000
40
1.0000000000
40
1.0000000000
40
1.0000000000
10
7.7471659548
20
20.0210169973
30
0.0000000000
10
7.7901305865
20
20.0427175645
30
0.0000000000
10
7.8737170307
20
20.0742621233
30
0.0000000000
10
7.9982348041
20
20.0818997374
30
0.0000000000
10
8.0696615793
20
20.0498525985
30
0.0000000000
10
8.0944849658
20
20.0270374518
30
0.0000000000
11
7.7471659548
21
20.0210169973
31
0.0000000000
11
7.8832268081
21
20.0693834312
31
0.0000000000
11
8.0036207786
21
20.0714703496
31
0.0000000000
11
8.0944849658
21
20.0270374518
31
0.0000000000
0
SPLINE
5
47B
100
AcDbEntity
8
0
100
AcDbSpline
62
9
6
CONTINUOUS
70
0
71
3
72
9
73
5
74
3
42
0.0000001000
43
0.0000001000
44
0.0000000001
12
-1.0183064047
22
1.0076204210
32
0.0000000000
13
-1.0693814277
23
0.9532419466
33
0.0000000000
40
0.0000000000
40
0.0000000000
40
0.0000000000
40
0.0000000000
40
0.5109500660
40
1.0000000000
40
1.0000000000
40
1.0000000000
40
1.0000000000
10
8.0944849713
20
20.0270374575
30
0.0000000000
10
7.9210503964
20
20.1986520310
30
0.0000000000
10
7.5771300661
20
20.5300244290
30
0.0000000000
10
7.2247024071
20
20.8523237156
30
0.0000000000
10
7.0503754349
20
21.0077180193
30
0.0000000000
11
8.0944849713
21
20.0270374575
31
0.0000000000
11
7.5673771574
21
20.5349128114
31
0.0000000000
11
7.0503754349
21
21.0077180193
31
0.0000000000
0
SPLINE
5
47C
100
AcDbEntity
8
0
100
AcDbSpline
62
9
6
CONTINUOUS
70
0
71
3
72
10
73
6
74
4
42
0.0000001000
43
0.0000001000
44
0.0000000001
12
0.2978194099
22
0.1769609529
32
0.0000000000
13
0.2674444456
23
-0.2201932067
33
0.0000000000
40
0.0000000000
40
0.0000000000
40
0.0000000000
40
0.0000000000
40
0.3974909704
40
0.7262081916
40
1.0000000000
40
1.0000000000
40
1.0000000000
40
1.0000000000
10
6.7220012112
20
20.9843180147
30
0.0000000000
10
6.7614613866
20
21.0077648083
30
0.0000000000
10
6.8400785136
20
21.0400561092
30
0.0000000000
10
6.9570419306
20
21.0542851103
30
0.0000000000
10
7.0259675165
20
21.0278140965
30
0.0000000000
10
7.0503755493
20
21.0077183978
30
0.0000000000
11
6.7220012112
21
20.9843180147
31
0.0000000000
11
6.8494179826
21
21.0365356798
31
0.0000000000
11
6.9630060362
21
21.0446354771
31
0.0000000000
11
7.0503755493
21
21.0077183978
31
0.0000000000
0
SPLINE
5
47D
100
AcDbEntity
8
0
100
AcDbSpline
62
7
6
CONTINUOUS
70
0
71
3
72
9
73
5
74
3
42
0.0000001000
43
0.0000001000
44
0.0000000001
12
0.0443327375
22
0.0375167600
32
0.0000000000
13
0.0444909286
23
0.0373290259
33
0.0000000000
40
0.0000000000
40
0.0000000000
40
0.0000000000
40
0.0000000000
40
0.4922961106
40
1.0000000000
40
1.0000000000
40
1.0000000000
40
1.0000000000
10
-6.7466556734
20
21.3591170407
30
0.0000000000
10
-6.7393807287
20
21.3652734924
30
0.0000000000
10
-6.7245898599
20
21.3777633828
30
0.0000000000
10
-6.7097727135
20
21.3902220887
30
0.0000000000
10
-6.7022433077
20
21.3965394526
30
0.0000000000
11
-6.7466556734
21
21.3591170407
31
0.0000000000
11
-6.7248113858
21
21.3775633836
31
0.0000000000
11
-6.7022433077
21
21.3965394526
31
0.0000000000
0
SPLINE
5
47E
100
AcDbEntity
8
0
100
AcDbSpline
62
7
6
CONTINUOUS
70
0
71
3
72
10
73
6
74
4
42
0.0000001000
43
0.0000001000
44
0.0000000001
12
0.0303768301
22
0.1620097605
32
0.0000000000
13
0.1641233414
23
0.0152788458
33
0.0000000000
40
0.0000000000
40
0.0000000000
40
0.0000000000
40
0.0000000000
40
0.4848473332
40
0.8171568381
40
1.0000000000
40
1.0000000000
40
1.0000000000
40
1.0000000000
10
2.5908096278
20
20.9843180147
30
0.0000000000
10
2.5957190028
20
21.0105013481
30
0.0000000000
10
2.6063662081
20
21.0548629124
30
0.0000000000
10
2.6238965785
20
21.1051213775
30
0.0000000000
10
2.6454617818
20
21.1297572609
30
0.0000000000
10
2.6554647254
20
21.1306884717
30
0.0000000000
11
2.5908096278
21
20.9843180147
31
0.0000000000
11
2.6096484850
21
21.0619847236
31
0.0000000000
11
2.6317325280
21
21.1121111439
31
0.0000000000
11
2.6554647254
21
21.1306884717
31
0.0000000000
0
SPLINE
5
47F
100
AcDbEntity
8
0
100
AcDbSpline
62
9
6
CONTINUOUS
70
0
71
3
72
9
73
5
74
3
42
0.0000001000
43
0.0000001000
44
0.0000000001
12
0.0246692948
22
0.0658758924
32
0.0000000000
13
0.0246396482
23
0.0658869869
33
0.0000000000
40
0.0000000000
40
0.0000000000
40
0.0000000000
40
0.0000000000
40
0.5001685627
40
1.0000000000
40
1.0000000000
40
1.0000000000
40
1.0000000000
10
6.7220012043
20
21.1306884717
30
0.0000000000
10
6.7261141395
20
21.1416714885
30
0.0000000000
10
6.7343347713
20
21.1636310430
30
0.0000000000
10
6.7425504498
20
21.1855924511
30
0.0000000000
10
6.7466556734
20
21.1965699136
30
0.0000000000
11
6.7220012043
21
21.1306884717
31
0.0000000000
11
6.7343363035
21
21.1636389098
31
0.0000000000
11
6.7466556734
21
21.1965699136
31
0.0000000000
0
SPLINE
5
480
100
AcDbEntity
8
0
100
AcDbSpline
62
9
6
CONTINUOUS
70
0
71
3
72
10
73
6
74
4
42
0.0000001000
43
0.0000001000
44
0.0000000001
12
0.3574056366
22
-0.0000533947
32
0.0000000000
13
0.2695009221
23
-0.2347510274
33
0.0000000000
40
0.0000000000
40
0.0000000000
40
0.0000000000
40
0.0000000000
40
0.3331925131
40
0.6665978160
40
1.0000000000
40
1.0000000000
40
1.0000000000
40
1.0000000000
10
6.7220012112
20
21.1306884717
30
0.0000000000
10
6.7616961720
20
21.1306825415
30
0.0000000000
10
6.8414447413
20
21.1211213396
30
0.0000000000
10
6.9539828061
20
21.0789850574
30
0.0000000000
10
7.0204248173
20
21.0338072329
30
0.0000000000
10
7.0503755493
20
21.0077183978
30
0.0000000000
11
6.7220012112
21
21.1306884717
31
0.0000000000
11
6.8402373038
21
21.1164956603
31
0.0000000000
11
6.9518333337
21
21.0747146270
31
0.0000000000
11
7.0503755493
21
21.0077183978
31
0.0000000000
0
SPLINE
5
481
100
AcDbEntity
8
0
100
AcDbSpline
62
7
6
CONTINUOUS
70
0
71
3
72
12
73
8
74
6
42
0.0000001000
43
0.0000001000
44
0.0000000001
12
0.3318306998
22
-0.2808130524
32
0.0000000000
13
0.3249129357
23
-0.2887891410
33
0.0000000000
40
0.0000000000
40
0.0000000000
40
0.0000000000
40
0.0000000000
40
0.1907158675
40
0.3868551417
40
0.5869120740
40
0.7906590038
40
1.0000000000
40
1.0000000000
40
1.0000000000
40
1.0000000000
10
6.7466556734
20
21.3591170407
30
0.0000000000
10
6.7677508000
20
21.3412652058
30
0.0000000000
10
6.8104340160
20
21.3049273599
30
0.0000000000
10
6.8748848798
20
21.2494413888
30
0.0000000000
10
6.9404691024
20
21.1923796208
30
0.0000000000
10
7.0072169870
20
21.1337426222
30
0.0000000000
10
7.0520180876
20
21.0940470253
30
0.0000000000
10
7.0746906201
20
21.0738952231
30
0.0000000000
11
6.7466556734
21
21.3591170407
31
0.0000000000
11
6.8097867063
21
21.3053796786
31
0.0000000000
11
6.8744064975
21
21.2497561070
31
0.0000000000
11
6.9400205379
21
21.1926789224
31
0.0000000000
11
7.0065670698
21
21.1342312128
31
0.0000000000
11
7.0746906201
21
21.0738952231
31
0.0000000000
0
SPLINE
5
482
100
AcDbEntity
8
0
100
AcDbSpline
62
9
6
CONTINUOUS
70
0
71
3
72
9
73
5
74
3
42
0.0000001000
43
0.0000001000
44
0.0000000001
12
0.0243294267
22
0.0661719698
32
0.0000000000
13
0.0243010030
23
0.0661824134
33
0.0000000000
40
0.0000000000
40
0.0000000000
40
0.0000000000
40
0.0000000000
40
0.5001724393
40
1.0000000000
40
1.0000000000
40
1.0000000000
40
1.0000000000
10
7.0503754349
20
21.0077180193
30
0.0000000000
10
7.0544317378
20
21.0187504845
30
0.0000000000
10
7.0625391406
20
21.0408086925
30
0.0000000000
10
7.0706418498
20
21.0628686250
30
0.0000000000
10
7.0746906201
20
21.0738952231
30
0.0000000000
11
7.0503754349
21
21.0077180193
31
0.0000000000
11
7.0625407625
21
21.0408167313
31
0.0000000000
11
7.0746906201
21
21.0738952231
31
0.0000000000
0
SPLINE
5
483
100
AcDbEntity
8
0
100
AcDbSpline
62
9
6
CONTINUOUS
70
0
71
3
72
11
73
7
74
5
42
0.0000001000
43
0.0000001000
44
0.0000000001
12
-0.0002376295
22
0.7801707120
32
0.0000000000
13
-0.7801707120
23
0.0002376295
33
0.0000000000
40
0.0000000000
40
0.0000000000
40
0.0000000000
40
0.0000000000
40
0.2499897029
40
0.5000000000
40
0.7500102971
40
1.0000000000
40
1.0000000000
40
1.0000000000
40
1.0000000000
10
10.9494190698
20
5.5859854038
30
0.0000000000
10
10.9493992681
20
5.6509969520
30
0.0000000000
10
10.9233502252
20
5.7824389901
30
0.0000000000
10
10.8120870307
20
5.9485772123
30
0.0000000000
10
10.6459488085
20
6.0598404067
30
0.0000000000
10
10.5145067704
20
6.0858894497
30
0.0000000000
10
10.4494952222
20
6.0859092514
30
0.0000000000
11
10.9494190698
21
5.5859854038
31
0.0000000000
11
10.9113209387
21
5.7772628162
31
0.0000000000
11
10.8029409416
21
5.9394311232
31
0.0000000000
11
10.6407726346
21
6.0478111203
31
0.0000000000
11
10.4494952222
21
6.0859092514
31
0.0000000000
0
SPLINE
5
484
100
AcDbEntity
8
0
100
AcDbSpline
62
9
6
CONTINUOUS
70
0
71
3
72
12
73
8
74
6
42
0.0000001000
43
0.0000001000
44
0.0000000001
12
-0.0002381804
22
0.7819795954
32
0.0000000000
13
-0.7819795954
23
0.0002381804
33
0.0000000000
40
0.0000000000
40
0.0000000000
40
0.0000000000
40
0.0000000000
40
0.2006210343
40
0.4012767863
40
0.6017150864
40
0.8021706096
40
1.0000000000
40
1.0000000000
40
1.0000000000
40
1.0000000000
10
10.5720850344
20
5.2086513684
30
0.0000000000
10
10.5720691064
20
5.2609452202
30
0.0000000000
10
10.5553497268
20
5.3662778820
30
0.0000000000
10
10.4827271279
20
5.5081099286
30
0.0000000000
10
10.3697104047
20
5.6205950756
30
0.0000000000
10
10.2282496772
20
5.6922058818
30
0.0000000000
10
10.1237273691
20
5.7085595097
30
0.0000000000
10
10.0721611869
20
5.7085752160
30
0.0000000000
11
10.5720850344
21
5.2086513684
31
0.0000000000
11
10.5474245985
21
5.3635826034
31
0.0000000000
11
10.4759568686
21
5.5032704954
31
0.0000000000
11
10.3648637766
21
5.6138387322
31
0.0000000000
11
10.2249899182
21
5.6845956112
31
0.0000000000
11
10.0721611869
21
5.7085752160
31
0.0000000000
0
SPLINE
5
485
100
AcDbEntity
8
0
100
AcDbSpline
62
9
6
CONTINUOUS
70
0
71
3
72
12
73
8
74
6
42
0.0000001000
43
0.0000001000
44
0.0000000001
12
0.3574924199
22
0.0000178341
32
0.0000000000
13
0.2697762959
23
-0.2345667939
33
0.0000000000
40
0.0000000000
40
0.0000000000
40
0.0000000000
40
0.0000000000
40
0.1659602170
40
0.3469487582
40
0.5449792507
40
0.7620004254
40
1.0000000000
40
1.0000000000
40
1.0000000000
40
1.0000000000
10
6.7466556734
20
21.1965699010
30
0.0000000000
10
6.7664321799
20
21.1965708876
30
0.0000000000
10
6.8078166291
20
21.1941136722
30
0.0000000000
10
6.8718389013
20
21.1822310152
30
0.0000000000
10
6.9395128282
20
21.1598753979
30
0.0000000000
10
7.0092411174
20
21.1246634631
30
0.0000000000
10
7.0532874505
20
21.0925031386
30
0.0000000000
10
7.0746896651
20
21.0738942062
30
0.0000000000
11
6.7466556734
21
21.1965699010
31
0.0000000000
11
6.8058807716
21
21.1930514296
31
0.0000000000
11
6.8694965865
21
21.1812454563
31
0.0000000000
11
6.9367173456
21
21.1590369755
31
0.0000000000
11
7.0059689721
21
21.1240598391
31
0.0000000000
11
7.0746896651
21
21.0738942062
31
0.0000000000
0
SPLINE
5
486
100
AcDbEntity
8
0
100
AcDbSpline
62
9
6
CONTINUOUS
70
0
71
3
72
15
73
11
74
9
42
0.0000001000
43
0.0000001000
44
0.0000000001
12
-0.0000003245
22
-0.5008235173
32
0.0000000000
13
-0.4480166995
23
-0.2238419810
33
0.0000000000
40
0.0000000000
40
0.0000000000
40
0.0000000000
40
0.0000000000
40
0.1765808128
40
0.3642119750
40
0.5472286669
40
0.7101085523
40
0.8407442609
40
0.9318996688
40
0.9827427861
40
1.0000000000
40
1.0000000000
40
1.0000000000
40
1.0000000000
10
10.4666456542
20
6.5858330989
30
0.0000000000
10
10.4666456351
20
6.5563544910
30
0.0000000000
10
10.4664553819
20
6.4955581000
30
0.0000000000
10
10.4655897091
20
6.4041796262
30
0.0000000000
10
10.4639616489
20
6.3152187444
30
0.0000000000
10
10.4619680588
20
6.2354015924
30
0.0000000000
10
10.4587801062
20
6.1720192161
30
0.0000000000
10
10.4570789355
20
6.1248645228
30
0.0000000000
10
10.4524000350
20
6.1012576062
30
0.0000000000
10
10.4520723955
20
6.0871968810
30
0.0000000000
10
10.4494952222
20
6.0859092514
30
0.0000000000
11
10.4666456542
21
6.5858330989
31
0.0000000000
11
10.4663704443
21
6.4973977034
31
0.0000000000
11
10.4654428235
21
6.4034321834
31
0.0000000000
11
10.4637905801
21
6.3117880129
31
0.0000000000
11
10.4614622230
21
6.2302471715
31
0.0000000000
11
10.4586104759
21
6.1648839166
31
0.0000000000
11
10.4554733142
21
6.1193390617
31
0.0000000000
11
10.4523458908
21
6.0940684181
31
0.0000000000
11
10.4494952222
21
6.0859092514
31
0.0000000000
0
SPLINE
5
487
100
AcDbEntity
8
0
100
AcDbSpline
62
9
6
CONTINUOUS
70
0
71
3
72
15
73
11
74
9
42
0.0000001000
43
0.0000001000
44
0.0000000001
12
-0.0000076334
22
-1.0003030572
32
0.0000000000
13
-0.7080789222
23
-0.7065624149
33
0.0000000000
40
0.0000000000
40
0.0000000000
40
0.0000000000
40
0.0000000000
40
0.1767926431
40
0.3646308148
40
0.5478433956
40
0.7108893623
40
0.8416274955
40
0.9327762630
40
0.9834293034
40
1.0000000000
40
1.0000000000
40
1.0000000000
40
1.0000000000
10
10.9665695018
20
6.5858330989
30
0.0000000000
10
10.9665690520
20
6.5268843585
30
0.0000000000
10
10.9663727231
20
6.4053109946
30
0.0000000000
10
10.9655386517
20
6.2226093338
30
0.0000000000
10
10.9638005563
20
6.0446468223
30
0.0000000000
10
10.9621508396
20
5.8852495094
30
0.0000000000
10
10.9580464003
20
5.7579000762
30
0.0000000000
10
10.9583650518
20
5.6649239169
30
0.0000000000
10
10.9504030455
20
5.6156986651
30
0.0000000000
10
10.9533301901
20
5.5898881476
30
0.0000000000
10
10.9494190698
20
5.5859854038
30
0.0000000000
11
10.9665695018
21
6.5858330989
31
0.0000000000
11
10.9662943206
21
6.4089870917
31
0.0000000000
11
10.9653669320
21
6.2210942829
31
0.0000000000
11
10.9637151255
21
6.0378336222
31
0.0000000000
11
10.9613872072
21
5.8747548578
31
0.0000000000
11
10.9585357102
21
5.7440081944
31
0.0000000000
11
10.9553983727
21
5.6528857967
31
0.0000000000
11
10.9522703180
21
5.6023140542
31
0.0000000000
11
10.9494190698
21
5.5859854038
31
0.0000000000
0
SPLINE
5
488
100
AcDbEntity
8
0
100
AcDbSpline
62
7
6
CONTINUOUS
70
0
71
3
72
9
73
5
74
3
42
0.0000001000
43
0.0000001000
44
0.0000000001
12
0.0444909286
22
-0.0373290259
32
0.0000000000
13
0.0443327375
23
-0.0375167600
33
0.0000000000
40
0.0000000000
40
0.0000000000
40
0.0000000000
40
0.0000000000
40
0.5079662376
40
1.0000000000
40
1.0000000000
40
1.0000000000
40
1.0000000000
10
6.7022433077
20
21.3965394526
30
0.0000000000
10
6.7097766042
20
21.3902188243
30
0.0000000000
10
6.7245937439
20
21.3777601103
30
0.0000000000
10
6.7393846055
20
21.3652702116
30
0.0000000000
10
6.7466556734
20
21.3591170407
30
0.0000000000
11
6.7022433077
21
21.3965394526
31
0.0000000000
11
6.7248230371
21
21.3775535656
31
0.0000000000
11
6.7466556734
21
21.3591170407
31
0.0000000000
0
SPLINE
5
489
100
AcDbEntity
8
0
100
AcDbSpline
62
9
6
CONTINUOUS
70
0
71
3
72
10
73
6
74
4
42
0.0000001000
43
0.0000001000
44
0.0000000001
12
-0.5874039129
22
-0.1906769197
32
0.0000000000
13
-0.5880038106
23
-0.1888188638
33
0.0000000000
40
0.0000000000
40
0.0000000000
40
0.0000000000
40
0.0000000000
40
0.3347019287
40
0.6680333945
40
1.0000000000
40
1.0000000000
40
1.0000000000
40
1.0000000000
10
-10.1315955941
20
-17.1696860043
30
0.0000000000
10
-10.1971306683
20
-17.1909593152
30
0.0000000000
10
-10.3279552822
20
-17.2333486192
30
0.0000000000
10
-10.5238579263
20
-17.2965946625
30
0.0000000000
10
-10.6542355471
20
-17.3385357167
30
0.0000000000
10
-10.7193014234
20
-17.3594295692
30
0.0000000000
11
-10.1315955941
21
-17.1696860043
31
0.0000000000
11
-10.3282349371
21
-17.2334007291
31
0.0000000000
11
-10.5241363436
21
-17.2966467403
31
0.0000000000
11
-10.7193014234
21
-17.3594295692
31
0.0000000000
0
SPLINE
5
48A
100
AcDbEntity
8
0
100
AcDbSpline
62
9
6
CONTINUOUS
70
0
71
3
72
10
73
6
74
4
42
0.0000001000
43
0.0000001000
44
0.0000000001
12
-0.5775150239
22
-0.2031763075
32
0.0000000000
13
-0.5783088766
23
-0.2009055946
33
0.0000000000
40
0.0000000000
40
0.0000000000
40
0.0000000000
40
0.0000000000
40
0.3346576729
40
0.6679896404
40
1.0000000000
40
1.0000000000
40
1.0000000000
40
1.0000000000
10
-10.5720850344
20
-15.9176243207
30
0.0000000000
10
-10.6365083124
20
-15.9402891574
30
0.0000000000
10
-10.7651299289
20
-15.9854430730
30
0.0000000000
10
-10.9577692563
20
-16.0527856577
30
0.0000000000
10
-11.0859984873
20
-16.0974249198
30
0.0000000000
10
-11.1500000000
20
-16.1196591660
30
0.0000000000
11
-10.5720850344
21
-15.9176243207
31
0.0000000000
11
-10.7654001176
21
-15.9854900761
31
0.0000000000
11
-10.9580384409
21
-16.0528328401
31
0.0000000000
11
-11.1500000000
21
-16.1196591660
31
0.0000000000
0
SPLINE
5
48B
100
AcDbEntity
8
0
100
AcDbSpline
62
9
6
CONTINUOUS
70
0
71
3
72
10
73
6
74
4
42
0.0000001000
43
0.0000001000
44
0.0000000001
12
-0.5783088766
22
0.2009055946
32
0.0000000000
13
-0.5775150239
23
0.2031763075
33
0.0000000000
40
0.0000000000
40
0.0000000000
40
0.0000000000
40
0.0000000000
40
0.3320103596
40
0.6653423271
40
1.0000000000
40
1.0000000000
40
1.0000000000
40
1.0000000000
10
11.1500000000
20
-16.1196591660
30
0.0000000000
10
11.0859984873
20
-16.0974249198
30
0.0000000000
10
10.9577692563
20
-16.0527856577
30
0.0000000000
10
10.7651299289
20
-15.9854430730
30
0.0000000000
10
10.6365083124
20
-15.9402891574
30
0.0000000000
10
10.5720850344
20
-15.9176243207
30
0.0000000000
11
11.1500000000
21
-16.1196591660
31
0.0000000000
11
10.9580384409
21
-16.0528328401
31
0.0000000000
11
10.7654001176
21
-15.9854900761
31
0.0000000000
11
10.5720850344
21
-15.9176243207
31
0.0000000000
0
SPLINE
5
48C
100
AcDbEntity
8
0
100
AcDbSpline
62
9
6
CONTINUOUS
70
0
71
3
72
10
73
6
74
4
42
0.0000001000
43
0.0000001000
44
0.0000000001
12
-0.5880038106
22
0.1888188638
32
0.0000000000
13
-0.5874039129
23
0.1906769197
33
0.0000000000
40
0.0000000000
40
0.0000000000
40
0.0000000000
40
0.0000000000
40
0.3319666055
40
0.6652980713
40
1.0000000000
40
1.0000000000
40
1.0000000000
40
1.0000000000
10
10.7193014234
20
-17.3594295692
30
0.0000000000
10
10.6542355471
20
-17.3385357167
30
0.0000000000
10
10.5238579263
20
-17.2965946625
30
0.0000000000
10
10.3279552822
20
-17.2333486192
30
0.0000000000
10
10.1971306683
20
-17.1909593152
30
0.0000000000
10
10.1315955941
20
-17.1696860043
30
0.0000000000
11
10.7193014234
21
-17.3594295692
31
0.0000000000
11
10.5241363436
21
-17.2966467403
31
0.0000000000
11
10.3282349371
21
-17.2334007291
31
0.0000000000
11
10.1315955941
21
-17.1696860043
31
0.0000000000
0
SPLINE
5
48D
100
AcDbEntity
8
0
100
AcDbSpline
62
9
6
CONTINUOUS
70
0
71
3
72
10
73
6
74
4
42
0.0000001000
43
0.0000001000
44
0.0000000001
12
0.0204032667
22
0.0702558889
32
0.0000000000
13
0.0204280159
23
0.0702486966
33
0.0000000000
40
0.0000000000
40
0.0000000000
40
0.0000000000
40
0.0000000000
40
0.3331797270
40
0.6665130445
40
1.0000000000
40
1.0000000000
40
1.0000000000
40
1.0000000000
10
-4.2275426698
20
-23.3333596575
30
0.0000000000
10
-4.2252766848
20
-23.3255570449
30
0.0000000000
10
-4.2207427560
20
-23.3099484883
30
0.0000000000
10
-4.2139375475
20
-23.2865310554
30
0.0000000000
10
-4.2093978613
20
-23.2709163698
30
0.0000000000
10
-4.2071270357
20
-23.2631073618
30
0.0000000000
11
-4.2275426698
21
-23.3333596575
31
0.0000000000
11
-4.2207433431
21
-23.3099522180
31
0.0000000000
11
-4.2139381344
21
-23.2865347865
31
0.0000000000
11
-4.2071270357
21
-23.2631073618
31
0.0000000000
0
SPLINE
5
48E
100
AcDbEntity
8
0
100
AcDbSpline
62
7
6
CONTINUOUS
70
0
71
3
72
10
73
6
74
4
42
0.0000001000
43
0.0000001000
44
0.0000000001
12
-0.5854426055
22
0.0000000000
32
0.0000000000
13
-0.4876164176
23
0.3239957927
33
0.0000000000
40
0.0000000000
40
0.0000000000
40
0.0000000000
40
0.0000000000
40
0.3333348314
40
0.6666651686
40
1.0000000000
40
1.0000000000
40
1.0000000000
40
1.0000000000
10
-3.6537910750
20
-23.4301797403
30
0.0000000000
10
-3.7188405457
20
-23.4301797403
30
0.0000000000
10
-3.8493077260
20
-23.4173951733
30
0.0000000000
10
-4.0372055542
20
-23.3606619419
30
0.0000000000
10
-4.1529471903
20
-23.2991070561
30
0.0000000000
10
-4.2071270357
20
-23.2631073618
30
0.0000000000
11
-3.6537910750
21
-23.4301797403
31
0.0000000000
11
-3.8480080272
21
-23.4111356272
31
0.0000000000
11
-4.0348239165
21
-23.3547290728
31
0.0000000000
11
-4.2071270357
21
-23.2631073618
31
0.0000000000
0
SPLINE
5
48F
100
AcDbEntity
8
0
100
AcDbSpline
62
9
6
CONTINUOUS
70
0
71
3
72
10
73
6
74
4
42
0.0000001000
43
0.0000001000
44
0.0000000001
12
0.0210527751
22
0.0698243706
32
0.0000000000
13
0.0210800484
23
0.0698161416
33
0.0000000000
40
0.0000000000
40
0.0000000000
40
0.0000000000
40
0.0000000000
40
0.3331815441
40
0.6665148639
40
1.0000000000
40
1.0000000000
40
1.0000000000
40
1.0000000000
10
-3.6748574782
20
-23.5000000000
30
0.0000000000
10
-3.6725193461
20
-23.4922452695
30
0.0000000000
10
-3.6678410094
20
-23.4767325796
30
0.0000000000
10
-3.6608188783
20
-23.4534591585
30
0.0000000000
10
-3.6561343692
20
-23.4379406221
30
0.0000000000
10
-3.6537910750
20
-23.4301797403
30
0.0000000000
11
-3.6748574782
21
-23.5000000000
31
0.0000000000
11
-3.6678415705
21
-23.4767362642
31
0.0000000000
11
-3.6608194390
21
-23.4534628443
31
0.0000000000
11
-3.6537910750
21
-23.4301797403
31
0.0000000000
0
SPLINE
5
490
100
AcDbEntity
8
0
100
AcDbSpline
62
9
6
CONTINUOUS
70
0
71
3
72
10
73
6
74
4
42
0.0000001000
43
0.0000001000
44
0.0000000001
12
0.0210800484
22
-0.0698161416
32
0.0000000000
13
0.0210527751
23
-0.0698243706
33
0.0000000000
40
0.0000000000
40
0.0000000000
40
0.0000000000
40
0.0000000000
40
0.3334851362
40
0.6668184560
40
1.0000000000
40
1.0000000000
40
1.0000000000
40
1.0000000000
10
3.6537910750
20
-23.4301797403
30
0.0000000000
10
3.6561343692
20
-23.4379406221
30
0.0000000000
10
3.6608188783
20
-23.4534591585
30
0.0000000000
10
3.6678410094
20
-23.4767325796
30
0.0000000000
10
3.6725193461
20
-23.4922452695
30
0.0000000000
10
3.6748574782
20
-23.5000000000
30
0.0000000000
11
3.6537910750
21
-23.4301797403
31
0.0000000000
11
3.6608194390
21
-23.4534628443
31
0.0000000000
11
3.6678415705
21
-23.4767362642
31
0.0000000000
11
3.6748574782
21
-23.5000000000
31
0.0000000000
0
SPLINE
5
491
100
AcDbEntity
8
0
100
AcDbSpline
62
7
6
CONTINUOUS
70
0
71
3
72
10
73
6
74
4
42
0.0000001000
43
0.0000001000
44
0.0000000001
12
-0.4876164176
22
-0.3239957927
32
0.0000000000
13
-0.5854426055
23
0.0000000000
33
0.0000000000
40
0.0000000000
40
0.0000000000
40
0.0000000000
40
0.0000000000
40
0.3333348314
40
0.6666651686
40
1.0000000000
40
1.0000000000
40
1.0000000000
40
1.0000000000
10
4.2071270357
20
-23.2631073618
30
0.0000000000
10
4.1529471903
20
-23.2991070561
30
0.0000000000
10
4.0372055542
20
-23.3606619419
30
0.0000000000
10
3.8493077260
20
-23.4173951733
30
0.0000000000
10
3.7188405457
20
-23.4301797403
30
0.0000000000
10
3.6537910750
20
-23.4301797403
30
0.0000000000
11
4.2071270357
21
-23.2631073618
31
0.0000000000
11
4.0348239165
21
-23.3547290728
31
0.0000000000
11
3.8480080272
21
-23.4111356272
31
0.0000000000
11
3.6537910750
21
-23.4301797403
31
0.0000000000
0
SPLINE
5
492
100
AcDbEntity
8
0
100
AcDbSpline
62
9
6
CONTINUOUS
70
0
71
3
72
10
73
6
74
4
42
0.0000001000
43
0.0000001000
44
0.0000000001
12
0.0204280159
22
-0.0702486966
32
0.0000000000
13
0.0204032667
23
-0.0702558889
33
0.0000000000
40
0.0000000000
40
0.0000000000
40
0.0000000000
40
0.0000000000
40
0.3334869556
40
0.6668202731
40
1.0000000000
40
1.0000000000
40
1.0000000000
40
1.0000000000
10
4.2071270357
20
-23.2631073618
30
0.0000000000
10
4.2093978613
20
-23.2709163698
30
0.0000000000
10
4.2139375475
20
-23.2865310554
30
0.0000000000
10
4.2207427560
20
-23.3099484883
30
0.0000000000
10
4.2252766848
20
-23.3255570449
30
0.0000000000
10
4.2275426698
20
-23.3333596575
30
0.0000000000
11
4.2071270357
21
-23.2631073618
31
0.0000000000
11
4.2139381344
21
-23.2865347865
31
0.0000000000
11
4.2207433431
21
-23.3099522181
31
0.0000000000
11
4.2275426698
21
-23.3333596575
31
0.0000000000
0
SPLINE
5
493
100
AcDbEntity
8
0
100
AcDbSpline
62
9
6
CONTINUOUS
70
0
71
3
72
11
73
7
74
5
42
0.0000001000
43
0.0000001000
44
0.0000000001
12
0.6252039772
22
-0.7874176612
32
0.0000000000
13
0.0001053485
23
-1.0054384990
33
0.0000000000
40
0.0000000000
40
0.0000000000
40
0.0000000000
40
0.0000000000
40
0.2495321996
40
0.5000345936
40
0.7505037447
40
1.0000000000
40
1.0000000000
40
1.0000000000
40
1.0000000000
10
10.1413266164
20
16.9885336449
30
0.0000000000
10
10.1933294576
20
16.9230382912
30
0.0000000000
10
10.2867472422
20
16.7827955821
30
0.0000000000
10
10.3896676960
20
16.5520300552
30
0.0000000000
10
10.4525753083
20
16.3073229072
30
0.0000000000
10
10.4666368929
20
16.1394263220
30
0.0000000000
10
10.4666456542
20
16.0558086086
30
0.0000000000
11
10.1413266164
21
16.9885336449
31
0.0000000000
11
10.2803787031
21
16.7797036929
31
0.0000000000
11
10.3829945913
21
16.5496910129
31
0.0000000000
11
10.4456677942
21
16.3057830635
31
0.0000000000
11
10.4666456542
21
16.0558086086
31
0.0000000000
0
SPLINE
5
494
100
AcDbEntity
8
0
100
AcDbSpline
62
9
6
CONTINUOUS
70
0
71
3
72
11
73
7
74
5
42
0.0000001000
43
0.0000001000
44
0.0000000001
12
0.8336353112
22
-1.0498586389
32
0.0000000000
13
0.0001041333
23
-1.3405786000
33
0.0000000000
40
0.0000000000
40
0.0000000000
40
0.0000000000
40
0.0000000000
40
0.2500476073
40
0.5000002818
40
0.7499503441
40
1.0000000000
40
1.0000000000
40
1.0000000000
40
1.0000000000
10
10.5328015445
20
17.2994346536
30
0.0000000000
10
10.6022843828
20
17.2119297733
30
0.0000000000
10
10.7268058122
20
17.0249272234
30
0.0000000000
10
10.8638720123
20
16.7174509395
30
0.0000000000
10
10.9477604653
20
16.3914262008
30
0.0000000000
10
10.9665479843
20
16.1675456798
30
0.0000000000
10
10.9665566638
20
16.0558086073
30
0.0000000000
11
10.5328015445
21
17.2994346536
31
0.0000000000
11
10.7185418432
21
17.0203911777
31
0.0000000000
11
10.8550105384
21
16.7143589722
31
0.0000000000
11
10.9384676149
21
16.3898408908
31
0.0000000000
11
10.9665566638
21
16.0558086073
31
0.0000000000
0
SPLINE
5
495
100
AcDbEntity
8
0
100
AcDbSpline
62
7
6
CONTINUOUS
70
0
71
3
72
13
73
9
74
7
42
0.0000001000
43
0.0000001000
44
0.0000000001
12
-0.4915050950
22
0.4915050950
32
0.0000000000
13
-0.4915799650
23
-0.4914302136
33
0.0000000000
40
0.0000000000
40
0.0000000000
40
0.0000000000
40
0.0000000000
40
0.0297657776
40
0.1205898238
40
0.2694380675
40
0.4689504613
40
0.7145810107
40
1.0000000000
40
1.0000000000
40
1.0000000000
40
1.0000000000
10
10.5720850344
20
-0.7084990752
30
0.0000000000
10
10.5672083573
20
-0.7036223981
30
0.0000000000
10
10.5428966183
20
-0.7421034052
30
0.0000000000
10
10.5001246512
20
-0.7649368137
30
0.0000000000
10
10.4248936233
20
-0.8461716132
30
0.0000000000
10
10.3269540802
20
-0.9375559116
30
0.0000000000
10
10.2060861075
20
-1.0580435753
30
0.0000000000
10
10.1189299391
20
-1.1443683048
30
0.0000000000
10
10.0721611869
20
-1.1911228098
30
0.0000000000
11
10.5720850344
21
-0.7084990752
31
0.0000000000
11
10.5555213014
21
-0.7208973971
31
0.0000000000
11
10.5089036960
21
-0.7634690311
31
0.0000000000
11
10.4339801212
21
-0.8348212043
31
0.0000000000
11
10.3345080194
21
-0.9314512247
31
0.0000000000
11
10.2128194080
21
-1.0512122522
31
0.0000000000
11
10.0721611869
21
-1.1911228098
31
0.0000000000
0
SPLINE
5
496
100
AcDbEntity
8
0
100
AcDbSpline
62
7
6
CONTINUOUS
70
0
71
3
72
13
73
9
74
7
42
0.0000001000
43
0.0000001000
44
0.0000000001
12
0.4914300935
22
0.4915798449
32
0.0000000000
13
-0.4915049749
23
0.4915049749
33
0.0000000000
40
0.0000000000
40
0.0000000000
40
0.0000000000
40
0.0000000000
40
0.2850003085
40
0.5308186423
40
0.7309435239
40
0.8796936105
40
0.9701202452
40
1.0000000000
40
1.0000000000
40
1.0000000000
40
1.0000000000
10
6.0088771902
20
5.2086513684
30
0.0000000000
10
6.0555630996
20
5.2553515043
30
0.0000000000
10
6.1418508072
20
5.3424697031
30
0.0000000000
10
6.2624037576
20
5.4633994034
30
0.0000000000
10
6.3538871650
20
5.5614553042
30
0.0000000000
10
6.4351369274
20
5.6367022691
30
0.0000000000
10
6.4579727660
20
5.6794296916
30
0.0000000000
10
6.4963962742
20
5.7036798666
30
0.0000000000
10
6.4915009248
20
5.7085752160
30
0.0000000000
11
6.0088771902
21
5.2086513684
31
0.0000000000
11
6.1485830213
21
5.3491026845
31
0.0000000000
11
6.2684364832
21
5.4708834049
31
0.0000000000
11
6.3653627055
21
5.5706612632
31
0.0000000000
11
6.4366655794
21
5.6455375345
31
0.0000000000
11
6.4790505412
21
5.6919514990
31
0.0000000000
11
6.4915009248
21
5.7085752160
31
0.0000000000
0
SPLINE
5
497
100
AcDbEntity
8
0
100
AcDbSpline
62
9
6
CONTINUOUS
70
0
71
3
72
10
73
6
74
4
42
0.0000001000
43
0.0000001000
44
0.0000000001
12
-0.3917393317
22
-0.0000494553
32
0.0000000000
13
-0.2769099475
23
-0.2770931024
33
0.0000000000
40
0.0000000000
40
0.0000000000
40
0.0000000000
40
0.0000000000
40
0.3333320040
40
0.6666679960
40
1.0000000000
40
1.0000000000
40
1.0000000000
40
1.0000000000
10
-8.0838316893
20
19.8160983575
30
0.0000000000
10
-8.1273581081
20
19.8160928625
30
0.0000000000
10
-8.2148496200
20
19.8045733543
30
0.0000000000
10
-8.3367382270
20
19.7540528179
30
0.0000000000
10
-8.4067250414
20
19.7003005199
30
0.0000000000
10
-8.4374926906
20
19.6695125202
30
0.0000000000
11
-8.0838316893
21
19.8160983575
31
0.0000000000
11
-8.2132910457
21
19.7990332604
31
0.0000000000
11
-8.3339205746
21
19.7490345881
31
0.0000000000
11
-8.4374926906
21
19.6695125202
31
0.0000000000
0
SPLINE
5
498
100
AcDbEntity
8
0
100
AcDbSpline
62
9
6
CONTINUOUS
70
0
71
3
72
10
73
6
74
4
42
0.0000001000
43
0.0000001000
44
0.0000000001
12
-0.3918373740
22
-0.0000494815
32
0.0000000000
13
-0.2769244274
23
-0.2772172283
33
0.0000000000
40
0.0000000000
40
0.0000000000
40
0.0000000000
40
0.0000000000
40
0.3333320033
40
0.6666679967
40
1.0000000000
40
1.0000000000
40
1.0000000000
40
1.0000000000
10
-8.0784266484
20
19.8030596834
30
0.0000000000
10
-8.1219639607
20
19.8030541855
30
0.0000000000
10
-8.2094775862
20
19.7915288385
30
0.0000000000
10
-8.3313923441
20
19.7409833323
30
0.0000000000
10
-8.4013882818
20
19.6872056696
30
0.0000000000
10
-8.4321575398
20
19.6564038783
30
0.0000000000
11
-8.0784266484
21
19.8030596834
31
0.0000000000
11
-8.2079178416
21
19.7859860427
31
0.0000000000
11
-8.3285726144
21
19.7359629227
31
0.0000000000
11
-8.4321575398
21
19.6564038783
31
0.0000000000
0
SPLINE
5
499
100
AcDbEntity
8
0
100
AcDbSpline
62
9
6
CONTINUOUS
70
0
71
3
72
10
73
6
74
4
42
0.0000001000
43
0.0000001000
44
0.0000000001
12
-0.3266602046
22
0.1649905863
32
0.0000000000
13
-0.2694511585
23
-0.2476385591
33
0.0000000000
40
0.0000000000
40
0.0000000000
40
0.0000000000
40
0.0000000000
40
0.3945831445
40
0.7236142080
40
1.0000000000
40
1.0000000000
40
1.0000000000
40
1.0000000000
10
-7.7471659549
20
20.0210158313
30
0.0000000000
10
-7.7901308251
20
20.0427166661
30
0.0000000000
10
-7.8737177476
20
20.0742618446
30
0.0000000000
10
-7.9982361466
20
20.0819009912
30
0.0000000000
10
-8.0696641192
20
20.0498554715
30
0.0000000000
10
-8.0944882765
20
20.0270408784
30
0.0000000000
11
-7.7471659549
21
20.0210158313
31
0.0000000000
11
-7.8832274890
21
20.0693833377
31
0.0000000000
11
-8.0036225099
21
20.0714718635
31
0.0000000000
11
-8.0944882765
21
20.0270408784
31
0.0000000000
0
SPLINE
5
49A
100
AcDbEntity
8
0
100
AcDbSpline
62
9
6
CONTINUOUS
70
0
71
3
72
12
73
8
74
6
42
0.0000001000
43
0.0000001000
44
0.0000000001
12
-0.3523240229
22
-0.3486995131
32
0.0000000000
13
0.1837723469
23
-0.4603816809
33
0.0000000000
40
0.0000000000
40
0.0000000000
40
0.0000000000
40
0.0000000000
40
0.3619396279
40
0.6441432750
40
0.8432039696
40
0.9600513464
40
1.0000000000
40
1.0000000000
40
1.0000000000
40
1.0000000000
10
-8.0944849713
20
20.0270374575
30
0.0000000000
10
-8.1369916466
20
19.9849680668
30
0.0000000000
10
-8.2133073814
20
19.9097726660
30
0.0000000000
10
-8.3073207472
20
19.8100577866
30
0.0000000000
10
-8.3829900181
20
19.7387886845
30
0.0000000000
10
-8.4098722954
20
19.6949837329
30
0.0000000000
10
-8.4399398432
20
19.6756430629
30
0.0000000000
10
-8.4374926906
20
19.6695125202
30
0.0000000000
11
-8.0944849713
21
20.0270374575
31
0.0000000000
11
-8.2213344863
21
19.9001553855
31
0.0000000000
11
-8.3190759940
21
19.8000766569
31
0.0000000000
11
-8.3869976744
21
19.7284981611
31
0.0000000000
11
-8.4258014650
21
19.6854957688
31
0.0000000000
11
-8.4374926906
21
19.6695125202
31
0.0000000000
0
SPLINE
5
49B
100
AcDbEntity
8
0
100
AcDbSpline
62
9
6
CONTINUOUS
70
0
71
3
72
12
73
8
74
6
42
0.0000001000
43
0.0000001000
44
0.0000000001
12
-0.3414514433
22
-0.1971771066
32
0.0000000000
13
0.2279993479
23
-0.3216895970
33
0.0000000000
40
0.0000000000
40
0.0000000000
40
0.0000000000
40
0.0000000000
40
0.3657967190
40
0.6493451319
40
0.8479689466
40
0.9628787003
40
1.0000000000
40
1.0000000000
40
1.0000000000
40
1.0000000000
10
-7.7471659548
20
20.0210169973
30
0.0000000000
10
-7.7887998941
20
19.9969747511
30
0.0000000000
10
-7.8637818891
20
19.9540443046
30
0.0000000000
10
-7.9553053234
20
19.8967236225
30
0.0000000000
10
-8.0312824476
20
19.8562171409
30
0.0000000000
10
-8.0548526907
20
19.8306002325
30
0.0000000000
10
-8.0866529000
20
19.8200788695
30
0.0000000000
10
-8.0838316893
20
19.8160983575
30
0.0000000000
11
-7.7471659548
21
20.0210169973
31
0.0000000000
11
-7.8717254903
21
19.9483007500
31
0.0000000000
11
-7.9676921023
21
19.8909423833
31
0.0000000000
11
-8.0343814154
21
19.8498818807
31
0.0000000000
11
-8.0724102671
21
19.8252517429
31
0.0000000000
11
-8.0838316893
21
19.8160983575
31
0.0000000000
0
SPLINE
5
49C
100
AcDbEntity
8
0
100
AcDbSpline
62
9
6
CONTINUOUS
70
0
71
3
72
10
73
6
74
4
42
0.0000001000
43
0.0000001000
44
0.0000000001
12
-0.2978193991
22
0.1769609796
32
0.0000000000
13
-0.2674444477
23
-0.2201932110
33
0.0000000000
40
0.0000000000
40
0.0000000000
40
0.0000000000
40
0.0000000000
40
0.3974909543
40
0.7262081715
40
1.0000000000
40
1.0000000000
40
1.0000000000
40
1.0000000000
10
-6.7220012112
20
20.9843180147
30
0.0000000000
10
-6.7614613836
20
21.0077648109
30
0.0000000000
10
-6.8400785078
20
21.0400561162
30
0.0000000000
10
-6.9570419275
20
21.0542851170
30
0.0000000000
10
-7.0259675145
20
21.0278140984
30
0.0000000000
10
-7.0503755493
20
21.0077183978
30
0.0000000000
11
-6.7220012112
21
20.9843180147
31
0.0000000000
11
-6.8494179761
21
21.0365356855
31
0.0000000000
11
-6.9630060298
21
21.0446354828
31
0.0000000000
11
-7.0503755493
21
21.0077183978
31
0.0000000000
0
SPLINE
5
49D
100
AcDbEntity
8
0
100
AcDbSpline
62
9
6
CONTINUOUS
70
0
71
3
72
9
73
5
74
3
42
0.0000001000
43
0.0000001000
44
0.0000000001
12
-1.0693814354
22
-0.9532419455
32
0.0000000000
13
-1.0183064067
23
-1.0076204260
33
0.0000000000
40
0.0000000000
40
0.0000000000
40
0.0000000000
40
0.0000000000
40
0.4893856327
40
1.0000000000
40
1.0000000000
40
1.0000000000
40
1.0000000000
10
-7.0503754363
20
21.0077180230
30
0.0000000000
10
-7.2248220731
20
20.8522170521
30
0.0000000000
10
-7.5772469882
20
20.5299146060
30
0.0000000000
10
-7.9211643441
20
20.1985392796
30
0.0000000000
10
-8.0944849713
20
20.0270374575
30
0.0000000000
11
-7.0503754363
21
21.0077180230
31
0.0000000000
11
-7.5677279072
21
20.5345837397
31
0.0000000000
11
-8.0944849713
21
20.0270374575
31
0.0000000000
0
SPLINE
5
49E
100
AcDbEntity
8
0
100
AcDbSpline
62
9
6
CONTINUOUS
70
0
71
3
72
9
73
5
74
3
42
0.0000001000
43
0.0000001000
44
0.0000000001
12
-1.0500165288
22
-0.9363727002
32
0.0000000000
13
-0.9998339363
23
-0.9897780783
33
0.0000000000
40
0.0000000000
40
0.0000000000
40
0.0000000000
40
0.0000000000
40
0.4893895008
40
1.0000000000
40
1.0000000000
40
1.0000000000
40
1.0000000000
10
-6.7219619987
20
20.9843180147
30
0.0000000000
10
-6.8932510203
20
20.8315676919
30
0.0000000000
10
-7.2393182665
20
20.5149990699
30
0.0000000000
10
-7.5769907197
20
20.1894806901
30
0.0000000000
10
-7.7471659548
20
20.0210169973
30
0.0000000000
11
-6.7219619987
21
20.9843180147
31
0.0000000000
11
-7.2299638037
21
20.5195734865
31
0.0000000000
11
-7.7471659548
21
20.0210169973
31
0.0000000000
0
SPLINE
5
49F
100
AcDbEntity
8
0
100
AcDbSpline
62
7
6
CONTINUOUS
70
0
71
3
72
10
73
6
74
4
42
0.0000001000
43
0.0000001000
44
0.0000000001
12
0.1641233414
22
-0.0152788458
32
0.0000000000
13
0.0303768301
23
-0.1620097605
33
0.0000000000
40
0.0000000000
40
0.0000000000
40
0.0000000000
40
0.0000000000
40
0.1828431619
40
0.5151526668
40
1.0000000000
40
1.0000000000
40
1.0000000000
40
1.0000000000
10
-2.6554647254
20
21.1306884717
30
0.0000000000
10
-2.6454617818
20
21.1297572609
30
0.0000000000
10
-2.6238965785
20
21.1051213775
30
0.0000000000
10
-2.6063662081
20
21.0548629124
30
0.0000000000
10
-2.5957190028
20
21.0105013481
30
0.0000000000
10
-2.5908096278
20
20.9843180147
30
0.0000000000
11
-2.6554647254
21
21.1306884717
31
0.0000000000
11
-2.6317325280
21
21.1121111439
31
0.0000000000
11
-2.6096484850
21
21.0619847236
31
0.0000000000
11
-2.5908096278
21
20.9843180147
31
0.0000000000
0
SPLINE
5
4A0
100
AcDbEntity
8
0
100
AcDbSpline
62
9
6
CONTINUOUS
70
0
71
3
72
9
73
5
74
3
42
0.0000001000
43
0.0000001000
44
0.0000000001
12
0.0243010009
22
-0.0661824078
32
0.0000000000
13
0.0243294246
23
-0.0661719642
33
0.0000000000
40
0.0000000000
40
0.0000000000
40
0.0000000000
40
0.0000000000
40
0.4998275859
40
1.0000000000
40
1.0000000000
40
1.0000000000
40
1.0000000000
10
-7.0746906194
20
21.0738952212
30
0.0000000000
10
-7.0706418492
20
21.0628686235
30
0.0000000000
10
-7.0625391408
20
21.0408086928
30
0.0000000000
10
-7.0544317386
20
21.0187504867
30
0.0000000000
10
-7.0503754363
20
21.0077180230
30
0.0000000000
11
-7.0746906194
21
21.0738952212
31
0.0000000000
11
-7.0625407622
21
21.0408167305
31
0.0000000000
11
-7.0503754363
21
21.0077180230
31
0.0000000000
0
SPLINE
5
4A1
100
AcDbEntity
8
0
100
AcDbSpline
62
9
6
CONTINUOUS
70
0
71
3
72
10
73
6
74
4
42
0.0000001000
43
0.0000001000
44
0.0000000001
12
-0.3574056366
22
-0.0000533947
32
0.0000000000
13
-0.2695009221
23
-0.2347510274
33
0.0000000000
40
0.0000000000
40
0.0000000000
40
0.0000000000
40
0.0000000000
40
0.3331925131
40
0.6665978160
40
1.0000000000
40
1.0000000000
40
1.0000000000
40
1.0000000000
10
-6.7220012112
20
21.1306884717
30
0.0000000000
10
-6.7616961720
20
21.1306825414
30
0.0000000000
10
-6.8414447413
20
21.1211213396
30
0.0000000000
10
-6.9539828061
20
21.0789850574
30
0.0000000000
10
-7.0204248173
20
21.0338072329
30
0.0000000000
10
-7.0503755493
20
21.0077183978
30
0.0000000000
11
-6.7220012112
21
21.1306884717
31
0.0000000000
11
-6.8402373038
21
21.1164956603
31
0.0000000000
11
-6.9518333337
21
21.0747146270
31
0.0000000000
11
-7.0503755493
21
21.0077183978
31
0.0000000000
0
SPLINE
5
4A2
100
AcDbEntity
8
0
100
AcDbSpline
62
9
6
CONTINUOUS
70
0
71
3
72
9
73
5
74
3
42
0.0000001000
43
0.0000001000
44
0.0000000001
12
0.0246396482
22
-0.0658869869
32
0.0000000000
13
0.0246692948
23
-0.0658758924
33
0.0000000000
40
0.0000000000
40
0.0000000000
40
0.0000000000
40
0.0000000000
40
0.4998314374
40
1.0000000000
40
1.0000000000
40
1.0000000000
40
1.0000000000
10
-6.7466556734
20
21.1965699136
30
0.0000000000
10
-6.7425504498
20
21.1855924511
30
0.0000000000
10
-6.7343347713
20
21.1636310430
30
0.0000000000
10
-6.7261141395
20
21.1416714885
30
0.0000000000
10
-6.7220012043
20
21.1306884717
30
0.0000000000
11
-6.7466556734
21
21.1965699136
31
0.0000000000
11
-6.7343363035
21
21.1636389098
31
0.0000000000
11
-6.7220012043
21
21.1306884717
31
0.0000000000
0
SPLINE
5
4A3
100
AcDbEntity
8
0
100
AcDbSpline
62
7
6
CONTINUOUS
70
0
71
3
72
13
73
9
74
7
42
0.0000001000
43
0.0000001000
44
0.0000000001
12
0.4914300935
22
0.4915798449
32
0.0000000000
13
-0.4915049749
23
0.4915049749
33
0.0000000000
40
0.0000000000
40
0.0000000000
40
0.0000000000
40
0.0000000000
40
0.2850003085
40
0.5308186423
40
0.7309435239
40
0.8796936105
40
0.9701202452
40
1.0000000000
40
1.0000000000
40
1.0000000000
40
1.0000000000
10
-1.9911228098
20
5.2086513684
30
0.0000000000
10
-1.9444369004
20
5.2553515043
30
0.0000000000
10
-1.8581491928
20
5.3424697031
30
0.0000000000
10
-1.7375962424
20
5.4633994034
30
0.0000000000
10
-1.6461128350
20
5.5614553042
30
0.0000000000
10
-1.5648630726
20
5.6367022691
30
0.0000000000
10
-1.5420272340
20
5.6794296916
30
0.0000000000
10
-1.5036037258
20
5.7036798666
30
0.0000000000
10
-1.5084990752
20
5.7085752160
30
0.0000000000
11
-1.9911228098
21
5.2086513684
31
0.0000000000
11
-1.8514169787
21
5.3491026845
31
0.0000000000
11
-1.7315635168
21
5.4708834049
31
0.0000000000
11
-1.6346372945
21
5.5706612632
31
0.0000000000
11
-1.5633344206
21
5.6455375345
31
0.0000000000
11
-1.5209494588
21
5.6919514990
31
0.0000000000
11
-1.5084990752
21
5.7085752160
31
0.0000000000
0
SPLINE
5
4A4
100
AcDbEntity
8
0
100
AcDbSpline
62
9
6
CONTINUOUS
70
0
71
3
72
11
73
7
74
5
42
0.0000001000
43
0.0000001000
44
0.0000000001
12
0.0000812099
22
-1.3513255199
32
0.0000000000
13
0.8460073561
23
-1.0537325186
33
0.0000000000
40
0.0000000000
40
0.0000000000
40
0.0000000000
40
0.0000000000
40
0.2500616554
40
0.4999949636
40
0.7499417642
40
1.0000000000
40
1.0000000000
40
1.0000000000
40
1.0000000000
10
-10.5720666579
20
-15.9176243194
30
0.0000000000
10
-10.5720598887
20
-16.0302625516
30
0.0000000000
10
-10.5529708636
20
-16.2559436369
30
0.0000000000
10
-10.4677380124
20
-16.5844287018
30
0.0000000000
10
-10.3285255684
20
-16.8939223076
30
0.0000000000
10
-10.2021019586
20
-17.0818459390
30
0.0000000000
10
-10.1315849230
20
-17.1696774373
30
0.0000000000
11
-10.5720666579
21
-15.9176243194
31
0.0000000000
11
-10.5435269405
21
-16.2543316509
31
0.0000000000
11
-10.4587447856
21
-16.5812584680
31
0.0000000000
11
-10.3201483117
21
-16.8892722519
31
0.0000000000
11
-10.1315849230
21
-17.1696774373
31
0.0000000000
0
SPLINE
5
4A5
100
AcDbEntity
8
0
100
AcDbSpline
62
9
6
CONTINUOUS
70
0
71
3
72
11
73
7
74
5
42
0.0000001000
43
0.0000001000
44
0.0000000001
12
0.0000666052
22
-1.0134992612
32
0.0000000000
13
0.6344782524
23
-0.7903278460
33
0.0000000000
40
0.0000000000
40
0.0000000000
40
0.0000000000
40
0.0000000000
40
0.2493966982
40
0.4998556416
40
0.7504801227
40
1.0000000000
40
1.0000000000
40
1.0000000000
40
1.0000000000
10
-10.0721611869
20
-15.9176243207
30
0.0000000000
10
-10.0721556498
20
-16.0018787771
30
0.0000000000
10
-10.0578695271
20
-16.1710893001
30
0.0000000000
10
-9.9939733206
20
-16.4176561340
30
0.0000000000
10
-9.8894302479
20
-16.6499740632
30
0.0000000000
10
-9.7945657519
20
-16.7909364143
30
0.0000000000
10
-9.7417941066
20
-16.8566705834
30
0.0000000000
11
-10.0721611869
21
-15.9176243207
31
0.0000000000
11
-10.0508619435
21
-16.1694886957
31
0.0000000000
11
-9.9872099449
21
-16.4152185181
31
0.0000000000
11
-9.8829472793
21
-16.6468415349
31
0.0000000000
11
-9.7417941066
21
-16.8566705834
31
0.0000000000
0
SPLINE
5
4A6
100
AcDbEntity
8
0
100
AcDbSpline
62
7
6
CONTINUOUS
70
0
71
3
72
13
73
9
74
7
42
0.0000001000
43
0.0000001000
44
0.0000000001
12
0.4915050950
22
-0.4915050950
32
0.0000000000
13
0.4915799650
23
0.4914302136
33
0.0000000000
40
0.0000000000
40
0.0000000000
40
0.0000000000
40
0.0000000000
40
0.0297657776
40
0.1205898238
40
0.2694380675
40
0.4689504613
40
0.7145810107
40
1.0000000000
40
1.0000000000
40
1.0000000000
40
1.0000000000
10
-10.5720850344
20
-5.1915009248
30
0.0000000000
10
-10.5672083573
20
-5.1963776019
30
0.0000000000
10
-10.5428966183
20
-5.1578965948
30
0.0000000000
10
-10.5001246512
20
-5.1350631863
30
0.0000000000
10
-10.4248936233
20
-5.0538283868
30
0.0000000000
10
-10.3269540802
20
-4.9624440884
30
0.0000000000
10
-10.2060861075
20
-4.8419564247
30
0.0000000000
10
-10.1189299391
20
-4.7556316952
30
0.0000000000
10
-10.0721611869
20
-4.7088771902
30
0.0000000000
11
-10.5720850344
21
-5.1915009248
31
0.0000000000
11
-10.5555213014
21
-5.1791026029
31
0.0000000000
11
-10.5089036960
21
-5.1365309689
31
0.0000000000
11
-10.4339801212
21
-5.0651787957
31
0.0000000000
11
-10.3345080194
21
-4.9685487753
31
0.0000000000
11
-10.2128194080
21
-4.8487877478
31
0.0000000000
11
-10.0721611869
21
-4.7088771902
31
0.0000000000
0
SPLINE
5
4A7
100
AcDbEntity
8
0
100
AcDbSpline
62
9
6
CONTINUOUS
70
0
71
3
72
10
73
6
74
4
42
0.0000001000
43
0.0000001000
44
0.0000000001
12
-0.1702945193
22
-0.4072565359
32
0.0000000000
13
-0.1690200879
23
-0.4077871003
33
0.0000000000
40
0.0000000000
40
0.0000000000
40
0.0000000000
40
0.0000000000
40
0.3342982201
40
0.6676306331
40
1.0000000000
40
1.0000000000
40
1.0000000000
40
1.0000000000
10
-7.9141765766
20
-19.4085752160
30
0.0000000000
10
-7.9331529615
20
-19.4539569277
30
0.0000000000
10
-7.9710030812
20
-19.5446092480
30
0.0000000000
10
-8.0275538210
20
-19.6804507804
30
0.0000000000
10
-8.0651059894
20
-19.7709197107
30
0.0000000000
10
-8.0838316893
20
-19.8160983575
30
0.0000000000
11
-7.9141765766
21
-19.4085752160
31
0.0000000000
11
-7.9710339886
21
-19.5447503281
31
0.0000000000
11
-8.0275847742
21
-19.6805913754
31
0.0000000000
11
-8.0838316893
21
-19.8160983575
31
0.0000000000
0
SPLINE
5
4A8
100
AcDbEntity
8
0
100
AcDbSpline
62
9
6
CONTINUOUS
70
0
71
3
72
10
73
6
74
4
42
0.0000001000
43
0.0000001000
44
0.0000000001
12
-0.3948388130
22
-0.0000988308
32
0.0000000000
13
-0.2774024616
23
0.2809725473
33
0.0000000000
40
0.0000000000
40
0.0000000000
40
0.0000000000
40
0.0000000000
40
0.3349319778
40
0.6698255063
40
1.0000000000
40
1.0000000000
40
1.0000000000
40
1.0000000000
10
-7.9141766428
20
-19.4085752160
30
0.0000000000
10
-7.9582580244
20
-19.4085862499
30
0.0000000000
10
-8.0468690243
20
-19.3967438822
30
0.0000000000
10
-8.1695051826
20
-19.3452025838
30
0.0000000000
10
-8.2395102725
20
-19.2906938187
30
0.0000000000
10
-8.2700406783
20
-19.2597704959
30
0.0000000000
11
-7.9141766428
21
-19.4085752160
31
0.0000000000
11
-8.0452573819
21
-19.3910722243
31
0.0000000000
11
-8.1671536879
21
-19.3398297574
31
0.0000000000
11
-8.2700406783
21
-19.2597704959
31
0.0000000000
0
SPLINE
5
4A9
100
AcDbEntity
8
0
100
AcDbSpline
62
9
6
CONTINUOUS
70
0
71
3
72
10
73
6
74
4
42
0.0000001000
43
0.0000001000
44
0.0000000001
12
-0.1680665803
22
-0.4094905832
32
0.0000000000
13
-0.1668417291
23
-0.4099911592
33
0.0000000000
40
0.0000000000
40
0.0000000000
40
0.0000000000
40
0.0000000000
40
0.3343075182
40
0.6676398108
40
1.0000000000
40
1.0000000000
40
1.0000000000
40
1.0000000000
10
-8.2700408412
20
-19.2597703307
30
0.0000000000
10
-8.2887694817
20
-19.3054022576
30
0.0000000000
10
-8.3261258035
20
-19.3965520169
30
0.0000000000
10
-8.3819424022
20
-19.5331331027
30
0.0000000000
10
-8.4190088411
20
-19.6240909404
30
0.0000000000
10
-8.4374926906
20
-19.6695125202
30
0.0000000000
11
-8.2700408412
21
-19.2597703307
31
0.0000000000
11
-8.3261575690
21
-19.3966944899
31
0.0000000000
11
-8.3819740329
21
-19.5332751095
31
0.0000000000
11
-8.4374926906
21
-19.6695125202
31
0.0000000000
0
SPLINE
5
4AA
100
AcDbEntity
8
0
100
AcDbSpline
62
9
6
CONTINUOUS
70
0
71
3
72
10
73
6
74
4
42
0.0000001000
43
0.0000001000
44
0.0000000001
12
-0.3917392784
22
0.0000493923
32
0.0000000000
13
-0.2769097916
23
0.2770931829
33
0.0000000000
40
0.0000000000
40
0.0000000000
40
0.0000000000
40
0.0000000000
40
0.3333319679
40
0.6666679533
40
1.0000000000
40
1.0000000000
40
1.0000000000
40
1.0000000000
10
-8.0838316893
20
-19.8160983137
30
0.0000000000
10
-8.1273580974
20
-19.8160928257
30
0.0000000000
10
-8.2148495945
20
-19.8045733217
30
0.0000000000
10
-8.3367381758
20
-19.7540527641
30
0.0000000000
10
-8.4067249640
20
-19.7003004421
30
0.0000000000
10
-8.4374925999
20
-19.6695124295
30
0.0000000000
11
-8.0838316893
21
-19.8160983137
31
0.0000000000
11
-8.2132910145
21
-19.7990332247
31
0.0000000000
11
-8.3339205145
21
-19.7490345355
31
0.0000000000
11
-8.4374925999
21
-19.6695124295
31
0.0000000000
0
SPLINE
5
4AB
100
AcDbEntity
8
0
100
AcDbSpline
62
9
6
CONTINUOUS
70
0
71
3
72
12
73
8
74
6
42
0.0000001000
43
0.0000001000
44
0.0000000001
12
-0.1837766294
22
-0.4603799715
32
0.0000000000
13
0.3523241627
23
-0.3486993720
33
0.0000000000
40
0.0000000000
40
0.0000000000
40
0.0000000000
40
0.0000000000
40
0.0399486406
40
0.1567960213
40
0.3558567937
40
0.6380602501
40
1.0000000000
40
1.0000000000
40
1.0000000000
40
1.0000000000
10
-8.4374926906
20
-19.6695125202
30
0.0000000000
10
-8.4399398995
20
-19.6756430382
30
0.0000000000
10
-8.4098722193
20
-19.6949837631
30
0.0000000000
10
-8.3829900670
20
-19.7387886692
30
0.0000000000
10
-8.3073207302
20
-19.8100577881
30
0.0000000000
10
-8.2133073955
20
-19.9097726527
30
0.0000000000
10
-8.1369916778
20
-19.9849680696
30
0.0000000000
10
-8.0944849713
20
-20.0270374575
30
0.0000000000
11
-8.4374926906
21
-19.6695125202
31
0.0000000000
11
-8.4258014696
21
-19.6854957642
31
0.0000000000
11
-8.3869976776
21
-19.7284981579
31
0.0000000000
11
-8.3190759695
21
-19.8000766805
31
0.0000000000
11
-8.2213345304
21
-19.9001553439
31
0.0000000000
11
-8.0944849713
21
-20.0270374575
31
0.0000000000
0
SPLINE
5
4AC
100
AcDbEntity
8
0
100
AcDbSpline
62
7
6
CONTINUOUS
70
0
71
3
72
13
73
9
74
7
42
0.0000001000
43
0.0000001000
44
0.0000000001
12
-0.4915050950
22
-0.4915050950
32
0.0000000000
13
0.4914302136
23
-0.4915799650
33
0.0000000000
40
0.0000000000
40
0.0000000000
40
0.0000000000
40
0.0000000000
40
0.0297657776
40
0.1205898238
40
0.2694380675
40
0.4689504613
40
0.7145810107
40
1.0000000000
40
1.0000000000
40
1.0000000000
40
1.0000000000
10
1.5084990752
20
5.7085752160
30
0.0000000000
10
1.5036223981
20
5.7036985389
30
0.0000000000
10
1.5421034052
20
5.6793867999
30
0.0000000000
10
1.5649368137
20
5.6366148328
30
0.0000000000
10
1.6461716132
20
5.5613838049
30
0.0000000000
10
1.7375559116
20
5.4634442618
30
0.0000000000
10
1.8580435753
20
5.3425762891
30
0.0000000000
10
1.9443683048
20
5.2554201207
30
0.0000000000
10
1.9911228098
20
5.2086513684
30
0.0000000000
11
1.5084990752
21
5.7085752160
31
0.0000000000
11
1.5208973971
21
5.6920114830
31
0.0000000000
11
1.5634690311
21
5.6453938776
31
0.0000000000
11
1.6348212043
21
5.5704703028
31
0.0000000000
11
1.7314512247
21
5.4709982009
31
0.0000000000
11
1.8512122522
21
5.3493095896
31
0.0000000000
11
1.9911228098
21
5.2086513684
31
0.0000000000
0
SPLINE
5
4AD
100
AcDbEntity
8
0
100
AcDbSpline
62
9
6
CONTINUOUS
70
0
71
3
72
12
73
8
74
6
42
0.0000001000
43
0.0000001000
44
0.0000000001
12
-0.2280068076
22
-0.3216843106
32
0.0000000000
13
0.3414516812
23
-0.1971766959
33
0.0000000000
40
0.0000000000
40
0.0000000000
40
0.0000000000
40
0.0000000000
40
0.0371212761
40
0.1520310589
40
0.3506548815
40
0.6342032795
40
1.0000000000
40
1.0000000000
40
1.0000000000
40
1.0000000000
10
-8.0838316893
20
-19.8160983575
30
0.0000000000
10
-8.0866529905
20
-19.8200788015
30
0.0000000000
10
-8.0548525657
20
-19.8306003437
30
0.0000000000
10
-8.0312825327
20
-19.8562170635
30
0.0000000000
10
-7.9553052783
20
-19.8967236543
30
0.0000000000
10
-7.8637818982
20
-19.9540442774
30
0.0000000000
10
-7.7887999232
20
-19.9969748010
30
0.0000000000
10
-7.7471659548
20
-20.0210169973
30
0.0000000000
11
-8.0838316893
21
-19.8160983575
31
0.0000000000
11
-8.0724102793
21
-19.8252517434
31
0.0000000000
11
-8.0343814135
21
-19.8498818804
31
0.0000000000
11
-7.9676920952
21
-19.8909423809
31
0.0000000000
11
-7.8717254917
21
-19.9483007509
31
0.0000000000
11
-7.7471659548
21
-20.0210169973
31
0.0000000000
0
SPLINE
5
4AE
100
AcDbEntity
8
0
100
AcDbSpline
62
9
6
CONTINUOUS
70
0
71
3
72
10
73
6
74
4
42
0.0000001000
43
0.0000001000
44
0.0000000001
12
-0.2978194095
22
-0.1769609540
32
0.0000000000
13
-0.2674444457
23
0.2201932069
33
0.0000000000
40
0.0000000000
40
0.0000000000
40
0.0000000000
40
0.0000000000
40
0.3974909697
40
0.7262081908
40
1.0000000000
40
1.0000000000
40
1.0000000000
40
1.0000000000
10
-6.7220012112
20
-20.9843180147
30
0.0000000000
10
-6.7614613865
20
-21.0077648084
30
0.0000000000
10
-6.8400785133
20
-21.0400561094
30
0.0000000000
10
-6.9570419305
20
-21.0542851105
30
0.0000000000
10
-7.0259675164
20
-21.0278140966
30
0.0000000000
10
-7.0503755493
20
-21.0077183978
30
0.0000000000
11
-6.7220012112
21
-20.9843180147
31
0.0000000000
11
-6.8494179823
21
-21.0365356801
31
0.0000000000
11
-6.9630060359
21
-21.0446354773
31
0.0000000000
11
-7.0503755493
21
-21.0077183978
31
0.0000000000
0
SPLINE
5
4AF
100
AcDbEntity
8
0
100
AcDbSpline
62
9
6
CONTINUOUS
70
0
71
3
72
9
73
5
74
3
42
0.0000001000
43
0.0000001000
44
0.0000000001
12
0.9998338683
22
-0.9897780046
32
0.0000000000
13
1.0500164470
23
-0.9363726414
33
0.0000000000
40
0.0000000000
40
0.0000000000
40
0.0000000000
40
0.0000000000
40
0.5109319935
40
1.0000000000
40
1.0000000000
40
1.0000000000
40
1.0000000000
10
-7.7471659548
20
-20.0210169973
30
0.0000000000
10
-7.5768835843
20
-20.1895867469
30
0.0000000000
10
-7.2392083361
20
-20.5151023295
30
0.0000000000
10
-6.8931386138
20
-20.8316680477
30
0.0000000000
10
-6.7219621303
20
-20.9843180147
30
0.0000000000
11
-7.7471659548
21
-20.0210169973
31
0.0000000000
11
-7.2296340188
21
-20.5198830224
31
0.0000000000
11
-6.7219621303
21
-20.9843180147
31
0.0000000000
0
SPLINE
5
4B0
100
AcDbEntity
8
0
100
AcDbSpline
62
7
6
CONTINUOUS
70
0
71
3
72
13
73
9
74
7
42
0.0000001000
43
0.0000001000
44
0.0000000001
12
-0.4915798449
22
0.4914300935
32
0.0000000000
13
-0.4915049749
23
-0.4915049749
33
0.0000000000
40
0.0000000000
40
0.0000000000
40
0.0000000000
40
0.0000000000
40
0.2850003085
40
0.5308186423
40
0.7309435239
40
0.8796936105
40
0.9701202452
40
1.0000000000
40
1.0000000000
40
1.0000000000
40
1.0000000000
10
-10.0721611869
20
-1.1911228098
30
0.0000000000
10
-10.1188613227
20
-1.1444369004
30
0.0000000000
10
-10.2059795215
20
-1.0581491928
30
0.0000000000
10
-10.3269092218
20
-0.9375962424
30
0.0000000000
10
-10.4249651226
20
-0.8461128350
30
0.0000000000
10
-10.5002120875
20
-0.7648630726
30
0.0000000000
10
-10.5429395100
20
-0.7420272340
30
0.0000000000
10
-10.5671896850
20
-0.7036037258
30
0.0000000000
10
-10.5720850344
20
-0.7084990752
30
0.0000000000
11
-10.0721611869
21
-1.1911228098
31
0.0000000000
11
-10.2126125029
21
-1.0514169787
31
0.0000000000
11
-10.3343932233
21
-0.9315635168
31
0.0000000000
11
-10.4341710816
21
-0.8346372945
31
0.0000000000
11
-10.5090473529
21
-0.7633344206
31
0.0000000000
11
-10.5554613174
21
-0.7209494588
31
0.0000000000
11
-10.5720850344
21
-0.7084990752
31
0.0000000000
0
SPLINE
5
4B1
100
AcDbEntity
8
0
100
AcDbSpline
62
9
6
CONTINUOUS
70
0
71
3
72
10
73
6
74
4
42
0.0000001000
43
0.0000001000
44
0.0000000001
12
-0.3266582824
22
-0.1649884975
32
0.0000000000
13
-0.2694423772
23
0.2476441866
33
0.0000000000
40
0.0000000000
40
0.0000000000
40
0.0000000000
40
0.0000000000
40
0.3945832752
40
0.7236137822
40
1.0000000000
40
1.0000000000
40
1.0000000000
40
1.0000000000
10
-7.7471659548
20
-20.0210169973
30
0.0000000000
10
-7.7901305865
20
-20.0427175645
30
0.0000000000
10
-7.8737170307
20
-20.0742621233
30
0.0000000000
10
-7.9982348041
20
-20.0818997374
30
0.0000000000
10
-8.0696615793
20
-20.0498525985
30
0.0000000000
10
-8.0944849658
20
-20.0270374518
30
0.0000000000
11
-7.7471659548
21
-20.0210169973
31
0.0000000000
11
-7.8832268081
21
-20.0693834312
31
0.0000000000
11
-8.0036207786
21
-20.0714703496
31
0.0000000000
11
-8.0944849658
21
-20.0270374518
31
0.0000000000
0
SPLINE
5
4B2
100
AcDbEntity
8
0
100
AcDbSpline
62
9
6
CONTINUOUS
70
0
71
3
72
9
73
5
74
3
42
0.0000001000
43
0.0000001000
44
0.0000000001
12
1.0183071994
22
-1.0076212074
32
0.0000000000
13
1.0693822815
23
-0.9532426690
33
0.0000000000
40
0.0000000000
40
0.0000000000
40
0.0000000000
40
0.0000000000
40
0.5109352046
40
1.0000000000
40
1.0000000000
40
1.0000000000
40
1.0000000000
10
-8.0944849713
20
-20.0270374575
30
0.0000000000
10
-7.9210553056
20
-20.1986471734
30
0.0000000000
10
-7.5771348366
20
-20.5300199579
30
0.0000000000
10
-7.2247070096
20
-20.8523196200
30
0.0000000000
10
-7.0503746007
20
-21.0077187636
30
0.0000000000
11
-8.0944849713
21
-20.0270374575
31
0.0000000000
11
-7.5673922687
21
-20.5348986343
31
0.0000000000
11
-7.0503746007
21
-21.0077187636
31
0.0000000000
0
SPLINE
5
4B3
100
AcDbEntity
8
0
100
AcDbSpline
62
7
6
CONTINUOUS
70
0
71
3
72
10
73
6
74
4
42
0.0000001000
43
0.0000001000
44
0.0000000001
12
-0.0303768301
22
-0.1620097605
32
0.0000000000
13
-0.1641233414
23
-0.0152788458
33
0.0000000000
40
0.0000000000
40
0.0000000000
40
0.0000000000
40
0.0000000000
40
0.4848473332
40
0.8171568381
40
1.0000000000
40
1.0000000000
40
1.0000000000
40
1.0000000000
10
-2.5908096278
20
-20.9843180147
30
0.0000000000
10
-2.5957190028
20
-21.0105013481
30
0.0000000000
10
-2.6063662081
20
-21.0548629124
30
0.0000000000
10
-2.6238965785
20
-21.1051213775
30
0.0000000000
10
-2.6454617818
20
-21.1297572609
30
0.0000000000
10
-2.6554647254
20
-21.1306884717
30
0.0000000000
11
-2.5908096278
21
-20.9843180147
31
0.0000000000
11
-2.6096484850
21
-21.0619847236
31
0.0000000000
11
-2.6317325280
21
-21.1121111439
31
0.0000000000
11
-2.6554647254
21
-21.1306884717
31
0.0000000000
0
SPLINE
5
4B4
100
AcDbEntity
8
0
100
AcDbSpline
62
9
6
CONTINUOUS
70
0
71
3
72
9
73
5
74
3
42
0.0000001000
43
0.0000001000
44
0.0000000001
12
-0.0246692569
22
-0.0658757912
32
0.0000000000
13
-0.0246396103
23
-0.0658868856
33
0.0000000000
40
0.0000000000
40
0.0000000000
40
0.0000000000
40
0.0000000000
40
0.5001699213
40
1.0000000000
40
1.0000000000
40
1.0000000000
40
1.0000000000
10
-6.7220015127
20
-21.1306884717
30
0.0000000000
10
-6.7261144528
20
-21.1416715014
30
0.0000000000
10
-6.7343346665
20
-21.1636311740
30
0.0000000000
10
-6.7425504675
20
-21.1855924978
30
0.0000000000
10
-6.7466556736
20
-21.1965699136
30
0.0000000000
11
-6.7220015127
21
-21.1306884717
31
0.0000000000
11
-6.7343363562
21
-21.1636390499
31
0.0000000000
11
-6.7466556736
21
-21.1965699136
31
0.0000000000
0
SPLINE
5
4B5
100
AcDbEntity
8
0
100
AcDbSpline
62
7
6
CONTINUOUS
70
0
71
3
72
13
73
9
74
7
42
0.0000001000
43
0.0000001000
44
0.0000000001
12
-0.4915050950
22
-0.4915050950
32
0.0000000000
13
0.4914302136
23
-0.4915799650
33
0.0000000000
40
0.0000000000
40
0.0000000000
40
0.0000000000
40
0.0000000000
40
0.0297657776
40
0.1205898238
40
0.2694380675
40
0.4689504613
40
0.7145810107
40
1.0000000000
40
1.0000000000
40
1.0000000000
40
1.0000000000
10
-6.4915009248
20
5.7085752160
30
0.0000000000
10
-6.4963776019
20
5.7036985389
30
0.0000000000
10
-6.4578965948
20
5.6793867999
30
0.0000000000
10
-6.4350631863
20
5.6366148328
30
0.0000000000
10
-6.3538283868
20
5.5613838049
30
0.0000000000
10
-6.2624440884
20
5.4634442618
30
0.0000000000
10
-6.1419564247
20
5.3425762891
30
0.0000000000
10
-6.0556316952
20
5.2554201207
30
0.0000000000
10
-6.0088771902
20
5.2086513684
30
0.0000000000
11
-6.4915009248
21
5.7085752160
31
0.0000000000
11
-6.4791026029
21
5.6920114830
31
0.0000000000
11
-6.4365309689
21
5.6453938776
31
0.0000000000
11
-6.3651787957
21
5.5704703028
31
0.0000000000
11
-6.2685487753
21
5.4709982009
31
0.0000000000
11
-6.1487877478
21
5.3493095896
31
0.0000000000
11
-6.0088771902
21
5.2086513684
31
0.0000000000
0
SPLINE
5
4B6
100
AcDbEntity
8
0
100
AcDbSpline
62
9
6
CONTINUOUS
70
0
71
3
72
10
73
6
74
4
42
0.0000001000
43
0.0000001000
44
0.0000000001
12
-0.3574056366
22
0.0000533947
32
0.0000000000
13
-0.2695009221
23
0.2347510274
33
0.0000000000
40
0.0000000000
40
0.0000000000
40
0.0000000000
40
0.0000000000
40
0.3331925131
40
0.6665978160
40
1.0000000000
40
1.0000000000
40
1.0000000000
40
1.0000000000
10
-6.7220012112
20
-21.1306884717
30
0.0000000000
10
-6.7616961720
20
-21.1306825414
30
0.0000000000
10
-6.8414447413
20
-21.1211213395
30
0.0000000000
10
-6.9539828061
20
-21.0789850574
30
0.0000000000
10
-7.0204248173
20
-21.0338072328
30
0.0000000000
10
-7.0503755493
20
-21.0077183978
30
0.0000000000
11
-6.7220012112
21
-21.1306884717
31
0.0000000000
11
-6.8402373038
21
-21.1164956603
31
0.0000000000
11
-6.9518333337
21
-21.0747146270
31
0.0000000000
11
-7.0503755493
21
-21.0077183978
31
0.0000000000
0
SPLINE
5
4B7
100
AcDbEntity
8
0
100
AcDbSpline
62
9
6
CONTINUOUS
70
0
71
3
72
9
73
5
74
3
42
0.0000001000
43
0.0000001000
44
0.0000000001
12
-0.0243292843
22
-0.0661715823
32
0.0000000000
13
-0.0243008606
23
-0.0661820259
33
0.0000000000
40
0.0000000000
40
0.0000000000
40
0.0000000000
40
0.0000000000
40
0.5001716630
40
1.0000000000
40
1.0000000000
40
1.0000000000
40
1.0000000000
10
-7.0503746007
20
-21.0077187636
30
0.0000000000
10
-7.0544308736
20
-21.0187511471
30
0.0000000000
10
-7.0625396926
20
-21.0408086879
30
0.0000000000
10
-7.0706418666
20
-21.0628686705
30
0.0000000000
10
-7.0746906195
20
-21.0738952211
30
0.0000000000
11
-7.0503746007
21
-21.0077187636
31
0.0000000000
11
-7.0625408142
21
-21.0408168717
31
0.0000000000
11
-7.0746906195
21
-21.0738952211
31
0.0000000000
0
SPLINE
5
4B8
100
AcDbEntity
8
0
100
AcDbSpline
62
9
6
CONTINUOUS
70
0
71
3
72
11
73
7
74
5
42
0.0000001000
43
0.0000001000
44
0.0000000001
12
0.8460073574
22
1.0537325177
32
0.0000000000
13
0.0000812120
23
1.3513255200
33
0.0000000000
40
0.0000000000
40
0.0000000000
40
0.0000000000
40
0.0000000000
40
0.2500582312
40
0.5000050322
40
0.7499383395
40
1.0000000000
40
1.0000000000
40
1.0000000000
40
1.0000000000
10
10.1315849227
20
-17.1696774372
30
0.0000000000
10
10.2021019572
20
-17.0818459406
30
0.0000000000
10
10.3285255662
20
-16.8939223110
30
0.0000000000
10
10.4677380101
20
-16.5844287076
30
0.0000000000
10
10.5529708636
20
-16.2559436411
30
0.0000000000
10
10.5720598886
20
-16.0302625539
30
0.0000000000
10
10.5720666580
20
-15.9176243194
30
0.0000000000
11
10.1315849227
21
-17.1696774372
31
0.0000000000
11
10.3201483085
21
-16.8892722573
31
0.0000000000
11
10.4587447837
21
-16.5812584733
31
0.0000000000
11
10.5435269396
21
-16.2543316577
31
0.0000000000
11
10.5720666580
21
-15.9176243194
31
0.0000000000
0
SPLINE
5
4B9
100
AcDbEntity
8
0
100
AcDbSpline
62
9
6
CONTINUOUS
70
0
71
3
72
11
73
7
74
5
42
0.0000001000
43
0.0000001000
44
0.0000000001
12
0.6344782537
22
0.7903278450
32
0.0000000000
13
0.0000666085
23
1.0134992612
33
0.0000000000
40
0.0000000000
40
0.0000000000
40
0.0000000000
40
0.0000000000
40
0.2495198773
40
0.5001443584
40
0.7506033018
40
1.0000000000
40
1.0000000000
40
1.0000000000
40
1.0000000000
10
9.7417941066
20
-16.8566705834
30
0.0000000000
10
9.7945657520
20
-16.7909364144
30
0.0000000000
10
9.8894302478
20
-16.6499740631
30
0.0000000000
10
9.9939733204
20
-16.4176561339
30
0.0000000000
10
10.0578695276
20
-16.1710893001
30
0.0000000000
10
10.0721556495
20
-16.0018787771
30
0.0000000000
10
10.0721611869
20
-15.9176243207
30
0.0000000000
11
9.7417941066
21
-16.8566705834
31
0.0000000000
11
9.8829472792
21
-16.6468415349
31
0.0000000000
11
9.9872099449
21
-16.4152185181
31
0.0000000000
11
10.0508619437
21
-16.1694886957
31
0.0000000000
11
10.0721611869
21
-15.9176243207
31
0.0000000000
0
SPLINE
5
4BA
100
AcDbEntity
8
0
100
AcDbSpline
62
7
6
CONTINUOUS
70
0
71
3
72
13
73
9
74
7
42
0.0000001000
43
0.0000001000
44
0.0000000001
12
0.4915798449
22
-0.4914300935
32
0.0000000000
13
0.4915049749
23
0.4915049749
33
0.0000000000
40
0.0000000000
40
0.0000000000
40
0.0000000000
40
0.0000000000
40
0.2850003085
40
0.5308186423
40
0.7309435239
40
0.8796936105
40
0.9701202452
40
1.0000000000
40
1.0000000000
40
1.0000000000
40
1.0000000000
10
10.0721611869
20
-4.7088771902
30
0.0000000000
10
10.1188613227
20
-4.7555630996
30
0.0000000000
10
10.2059795215
20
-4.8418508072
30
0.0000000000
10
10.3269092218
20
-4.9624037576
30
0.0000000000
10
10.4249651226
20
-5.0538871650
30
0.0000000000
10
10.5002120875
20
-5.1351369274
30
0.0000000000
10
10.5429395100
20
-5.1579727660
30
0.0000000000
10
10.5671896850
20
-5.1963962742
30
0.0000000000
10
10.5720850344
20
-5.1915009248
30
0.0000000000
11
10.0721611869
21
-4.7088771902
31
0.0000000000
11
10.2126125029
21
-4.8485830213
31
0.0000000000
11
10.3343932233
21
-4.9684364832
31
0.0000000000
11
10.4341710816
21
-5.0653627055
31
0.0000000000
11
10.5090473529
21
-5.1366655794
31
0.0000000000
11
10.5554613174
21
-5.1790505412
31
0.0000000000
11
10.5720850344
21
-5.1915009248
31
0.0000000000
0
SPLINE
5
4BB
100
AcDbEntity
8
0
100
AcDbSpline
62
9
6
CONTINUOUS
70
0
71
3
72
10
73
6
74
4
42
0.0000001000
43
0.0000001000
44
0.0000000001
12
0.3917393317
22
0.0000494553
32
0.0000000000
13
0.2769099475
23
0.2770931024
33
0.0000000000
40
0.0000000000
40
0.0000000000
40
0.0000000000
40
0.0000000000
40
0.3333320040
40
0.6666679960
40
1.0000000000
40
1.0000000000
40
1.0000000000
40
1.0000000000
10
8.0838316893
20
-19.8160983575
30
0.0000000000
10
8.1273581081
20
-19.8160928625
30
0.0000000000
10
8.2148496200
20
-19.8045733543
30
0.0000000000
10
8.3367382270
20
-19.7540528179
30
0.0000000000
10
8.4067250414
20
-19.7003005199
30
0.0000000000
10
8.4374926906
20
-19.6695125202
30
0.0000000000
11
8.0838316893
21
-19.8160983575
31
0.0000000000
11
8.2132910457
21
-19.7990332604
31
0.0000000000
11
8.3339205746
21
-19.7490345881
31
0.0000000000
11
8.4374926906
21
-19.6695125202
31
0.0000000000
0
SPLINE
5
4BC
100
AcDbEntity
8
0
100
AcDbSpline
62
9
6
CONTINUOUS
70
0
71
3
72
10
73
6
74
4
42
0.0000001000
43
0.0000001000
44
0.0000000001
12
-0.1668417291
22
0.4099911592
32
0.0000000000
13
-0.1680665803
23
0.4094905832
33
0.0000000000
40
0.0000000000
40
0.0000000000
40
0.0000000000
40
0.0000000000
40
0.3323601892
40
0.6656924818
40
1.0000000000
40
1.0000000000
40
1.0000000000
40
1.0000000000
10
8.4374926906
20
-19.6695125202
30
0.0000000000
10
8.4190088411
20
-19.6240909404
30
0.0000000000
10
8.3819424022
20
-19.5331331027
30
0.0000000000
10
8.3261258035
20
-19.3965520169
30
0.0000000000
10
8.2887694817
20
-19.3054022576
30
0.0000000000
10
8.2700408412
20
-19.2597703307
30
0.0000000000
11
8.4374926906
21
-19.6695125202
31
0.0000000000
11
8.3819740329
21
-19.5332751095
31
0.0000000000
11
8.3261575691
21
-19.3966944899
31
0.0000000000
11
8.2700408412
21
-19.2597703307
31
0.0000000000
0
SPLINE
5
4BD
100
AcDbEntity
8
0
100
AcDbSpline
62
9
6
CONTINUOUS
70
0
71
3
72
10
73
6
74
4
42
0.0000001000
43
0.0000001000
44
0.0000000001
12
0.3948388130
22
-0.0000988308
32
0.0000000000
13
0.2774024616
23
0.2809725473
33
0.0000000000
40
0.0000000000
40
0.0000000000
40
0.0000000000
40
0.0000000000
40
0.3349319778
40
0.6698255063
40
1.0000000000
40
1.0000000000
40
1.0000000000
40
1.0000000000
10
7.9141766428
20
-19.4085752160
30
0.0000000000
10
7.9582580244
20
-19.4085862499
30
0.0000000000
10
8.0468690243
20
-19.3967438822
30
0.0000000000
10
8.1695051826
20
-19.3452025838
30
0.0000000000
10
8.2395102725
20
-19.2906938187
30
0.0000000000
10
8.2700406783
20
-19.2597704959
30
0.0000000000
11
7.9141766428
21
-19.4085752160
31
0.0000000000
11
8.0452573819
21
-19.3910722243
31
0.0000000000
11
8.1671536879
21
-19.3398297574
31
0.0000000000
11
8.2700406783
21
-19.2597704959
31
0.0000000000
0
SPLINE
5
4BE
100
AcDbEntity
8
0
100
AcDbSpline
62
9
6
CONTINUOUS
70
0
71
3
72
10
73
6
74
4
42
0.0000001000
43
0.0000001000
44
0.0000000001
12
-0.1690200879
22
0.4077871003
32
0.0000000000
13
-0.1702945193
23
0.4072565359
33
0.0000000000
40
0.0000000000
40
0.0000000000
40
0.0000000000
40
0.0000000000
40
0.3323693668
40
0.6657017799
40
1.0000000000
40
1.0000000000
40
1.0000000000
40
1.0000000000
10
8.0838316893
20
-19.8160983575
30
0.0000000000
10
8.0651059894
20
-19.7709197107
30
0.0000000000
10
8.0275538210
20
-19.6804507804
30
0.0000000000
10
7.9710030812
20
-19.5446092480
30
0.0000000000
10
7.9331529615
20
-19.4539569277
30
0.0000000000
10
7.9141765766
20
-19.4085752160
30
0.0000000000
11
8.0838316893
21
-19.8160983575
31
0.0000000000
11
8.0275847742
21
-19.6805913754
31
0.0000000000
11
7.9710339886
21
-19.5447503281
31
0.0000000000
11
7.9141765766
21
-19.4085752160
31
0.0000000000
0
SPLINE
5
4BF
100
AcDbEntity
8
0
100
AcDbSpline
62
9
6
CONTINUOUS
70
0
71
3
72
10
73
6
74
4
42
0.0000001000
43
0.0000001000
44
0.0000000001
12
0.3266602046
22
-0.1649905863
32
0.0000000000
13
0.2694511585
23
0.2476385591
33
0.0000000000
40
0.0000000000
40
0.0000000000
40
0.0000000000
40
0.0000000000
40
0.3945831445
40
0.7236142080
40
1.0000000000
40
1.0000000000
40
1.0000000000
40
1.0000000000
10
7.7471659549
20
-20.0210158313
30
0.0000000000
10
7.7901308251
20
-20.0427166661
30
0.0000000000
10
7.8737177476
20
-20.0742618446
30
0.0000000000
10
7.9982361466
20
-20.0819009912
30
0.0000000000
10
8.0696641192
20
-20.0498554715
30
0.0000000000
10
8.0944882765
20
-20.0270408784
30
0.0000000000
11
7.7471659549
21
-20.0210158313
31
0.0000000000
11
7.8832274890
21
-20.0693833377
31
0.0000000000
11
8.0036225099
21
-20.0714718635
31
0.0000000000
11
8.0944882765
21
-20.0270408784
31
0.0000000000
0
SPLINE
5
4C0
100
AcDbEntity
8
0
100
AcDbSpline
62
9
6
CONTINUOUS
70
0
71
3
72
12
73
8
74
6
42
0.0000001000
43
0.0000001000
44
0.0000000001
12
0.3523240229
22
0.3486995131
32
0.0000000000
13
-0.1837723469
23
0.4603816809
33
0.0000000000
40
0.0000000000
40
0.0000000000
40
0.0000000000
40
0.0000000000
40
0.3619396279
40
0.6441432750
40
0.8432039696
40
0.9600513464
40
1.0000000000
40
1.0000000000
40
1.0000000000
40
1.0000000000
10
8.0944849713
20
-20.0270374575
30
0.0000000000
10
8.1369916466
20
-19.9849680668
30
0.0000000000
10
8.2133073814
20
-19.9097726660
30
0.0000000000
10
8.3073207472
20
-19.8100577866
30
0.0000000000
10
8.3829900181
20
-19.7387886845
30
0.0000000000
10
8.4098722954
20
-19.6949837329
30
0.0000000000
10
8.4399398432
20
-19.6756430629
30
0.0000000000
10
8.4374926906
20
-19.6695125202
30
0.0000000000
11
8.0944849713
21
-20.0270374575
31
0.0000000000
11
8.2213344863
21
-19.9001553855
31
0.0000000000
11
8.3190759940
21
-19.8000766569
31
0.0000000000
11
8.3869976744
21
-19.7284981611
31
0.0000000000
11
8.4258014650
21
-19.6854957688
31
0.0000000000
11
8.4374926906
21
-19.6695125202
31
0.0000000000
0
SPLINE
5
4C1
100
AcDbEntity
8
0
100
AcDbSpline
62
9
6
CONTINUOUS
70
0
71
3
72
12
73
8
74
6
42
0.0000001000
43
0.0000001000
44
0.0000000001
12
0.3414514433
22
0.1971771066
32
0.0000000000
13
-0.2279993479
23
0.3216895970
33
0.0000000000
40
0.0000000000
40
0.0000000000
40
0.0000000000
40
0.0000000000
40
0.3657967190
40
0.6493451319
40
0.8479689466
40
0.9628787003
40
1.0000000000
40
1.0000000000
40
1.0000000000
40
1.0000000000
10
7.7471659548
20
-20.0210169973
30
0.0000000000
10
7.7887998941
20
-19.9969747510
30
0.0000000000
10
7.8637818891
20
-19.9540443046
30
0.0000000000
10
7.9553053234
20
-19.8967236225
30
0.0000000000
10
8.0312824476
20
-19.8562171409
30
0.0000000000
10
8.0548526907
20
-19.8306002325
30
0.0000000000
10
8.0866529000
20
-19.8200788695
30
0.0000000000
10
8.0838316893
20
-19.8160983575
30
0.0000000000
11
7.7471659548
21
-20.0210169973
31
0.0000000000
11
7.8717254903
21
-19.9483007500
31
0.0000000000
11
7.9676921023
21
-19.8909423833
31
0.0000000000
11
8.0343814154
21
-19.8498818807
31
0.0000000000
11
8.0724102671
21
-19.8252517429
31
0.0000000000
11
8.0838316893
21
-19.8160983575
31
0.0000000000
0
SPLINE
5
4C2
100
AcDbEntity
8
0
100
AcDbSpline
62
9
6
CONTINUOUS
70
0
71
3
72
10
73
6
74
4
42
0.0000001000
43
0.0000001000
44
0.0000000001
12
0.2978194034
22
-0.1769609690
32
0.0000000000
13
0.2674444469
23
0.2201932093
33
0.0000000000
40
0.0000000000
40
0.0000000000
40
0.0000000000
40
0.0000000000
40
0.3974909606
40
0.7262081794
40
1.0000000000
40
1.0000000000
40
1.0000000000
40
1.0000000000
10
6.7220012112
20
-20.9843180147
30
0.0000000000
10
6.7614613848
20
-21.0077648099
30
0.0000000000
10
6.8400785101
20
-21.0400561134
30
0.0000000000
10
6.9570419287
20
-21.0542851143
30
0.0000000000
10
7.0259675153
20
-21.0278140977
30
0.0000000000
10
7.0503755493
20
-21.0077183978
30
0.0000000000
11
6.7220012112
21
-20.9843180147
31
0.0000000000
11
6.8494179787
21
-21.0365356833
31
0.0000000000
11
6.9630060323
21
-21.0446354805
31
0.0000000000
11
7.0503755493
21
-21.0077183978
31
0.0000000000
0
SPLINE
5
4C3
100
AcDbEntity
8
0
100
AcDbSpline
62
9
6
CONTINUOUS
70
0
71
3
72
9
73
5
74
3
42
0.0000001000
43
0.0000001000
44
0.0000000001
12
1.0693822860
22
0.9532426675
32
0.0000000000
13
1.0183071999
23
1.0076212103
33
0.0000000000
40
0.0000000000
40
0.0000000000
40
0.0000000000
40
0.0000000000
40
0.4892363452
40
1.0000000000
40
1.0000000000
40
1.0000000000
40
1.0000000000
10
7.0503746013
20
-21.0077187651
30
0.0000000000
10
7.2247681617
20
-20.8522651122
30
0.0000000000
10
7.5771945866
20
-20.5299638357
30
0.0000000000
10
7.9211135356
20
-20.1985895548
30
0.0000000000
10
8.0944849713
20
-20.0270374575
30
0.0000000000
11
7.0503746013
21
-21.0077187651
31
0.0000000000
11
7.5675715107
21
-20.5347304715
31
0.0000000000
11
8.0944849713
21
-20.0270374575
31
0.0000000000
0
SPLINE
5
4C4
100
AcDbEntity
8
0
100
AcDbSpline
62
9
6
CONTINUOUS
70
0
71
3
72
9
73
5
74
3
42
0.0000001000
43
0.0000001000
44
0.0000000001
12
1.0500165116
22
0.9363726889
32
0.0000000000
13
0.9998339225
23
0.9897780633
33
0.0000000000
40
0.0000000000
40
0.0000000000
40
0.0000000000
40
0.0000000000
40
0.4892397038
40
1.0000000000
40
1.0000000000
40
1.0000000000
40
1.0000000000
10
6.7219620243
20
-20.9843180147
30
0.0000000000
10
6.8931986134
20
-20.8316144490
30
0.0000000000
10
7.2392670438
20
-20.5150472004
30
0.0000000000
10
7.5769407980
20
-20.1895301095
30
0.0000000000
10
7.7471659548
20
-20.0210169973
30
0.0000000000
11
6.7219620243
21
-20.9843180147
31
0.0000000000
11
7.2298101344
21
-20.5197177213
31
0.0000000000
11
7.7471659548
21
-20.0210169973
31
0.0000000000
0
SPLINE
5
4C5
100
AcDbEntity
8
0
100
AcDbSpline
62
7
6
CONTINUOUS
70
0
71
3
72
35
73
31
74
29
42
0.0000001000
43
0.0000001000
44
0.0000000001
12
2.6979651566
22
-2.8083726599
32
0.0000000000
13
-2.6979637765
23
-2.8083736981
33
0.0000000000
40
0.0000000000
40
0.0000000000
40
0.0000000000
40
0.0000000000
40
0.0003974430
40
0.0011077012
40
0.0021499505
40
0.0035273996
40
0.0072847359
40
0.0123655601
40
0.0264145246
40
0.0454979691
40
0.0694321096
40
0.0980313473
40
0.1491115079
40
0.2086903745
40
0.3470259549
40
0.5000001113
40
0.6529742407
40
0.7913097484
40
0.8508885742
40
0.9019686996
40
0.9305679196
40
0.9545020472
40
0.9735854828
40
0.9876344421
40
0.9927152648
40
0.9964726003
40
0.9978500492
40
0.9988922985
40
0.9996025568
40
1.0000000000
40
1.0000000000
40
1.0000000000
40
1.0000000000
10
10.9254573825
20
-1.0618714232
30
0.0000000000
10
10.9258148116
20
-1.0622434793
30
0.0000000000
10
10.9265913881
20
-1.0634004311
30
0.0000000000
10
10.9273078154
20
-1.0660564935
30
0.0000000000
10
10.9281637762
20
-1.0698865128
30
0.0000000000
10
10.9293831182
20
-1.0775845109
30
0.0000000000
10
10.9308387045
20
-1.0903640393
30
0.0000000000
10
10.9332748500
20
-1.1190935797
30
0.0000000000
10
10.9360469466
20
-1.1671454973
30
0.0000000000
10
10.9391150691
20
-1.2389561921
30
0.0000000000
10
10.9420588423
20
-1.3291095747
30
0.0000000000
10
10.9454359930
20
-1.4595663989
30
0.0000000000
10
10.9488377501
20
-1.6349286289
30
0.0000000000
10
10.9533465775
20
-1.9485023287
30
0.0000000000
10
10.9570453407
20
-2.3904302979
30
0.0000000000
10
10.9584815817
20
-2.9500003864
30
0.0000000000
10
10.9570453367
20
-3.5095703834
30
0.0000000000
10
10.9533465722
20
-3.9514981756
30
0.0000000000
10
10.9488377449
20
-4.2650716881
30
0.0000000000
10
10.9454359884
20
-4.4404338002
30
0.0000000000
10
10.9420588388
20
-4.5708905414
30
0.0000000000
10
10.9391150665
20
-4.6610438743
30
0.0000000000
10
10.9360469450
20
-4.7328545351
30
0.0000000000
10
10.9332748491
20
-4.7809064331
30
0.0000000000
10
10.9308387041
20
-4.8096359640
30
0.0000000000
10
10.9293831180
20
-4.8224154894
30
0.0000000000
10
10.9281637761
20
-4.8301134862
30
0.0000000000
10
10.9273078154
20
-4.8339435054
30
0.0000000000
10
10.9265913880
20
-4.8365995680
30
0.0000000000
10
10.9258148116
20
-4.8377565204
30
0.0000000000
10
10.9254573825
20
-4.8381285768
30
0.0000000000
11
10.9254573825
21
-1.0618714232
31
0.0000000000
11
10.9263196277
21
-1.0631009367
31
0.0000000000
11
10.9271799852
21
-1.0656429700
31
0.0000000000
11
10.9280379555
21
-1.0694864698
31
0.0000000000
11
10.9288930393
21
-1.0746203829
31
0.0000000000
11
10.9305925495
21
-1.0887152350
31
0.0000000000
11
10.9322745205
21
-1.1078390996
31
0.0000000000
11
10.9355698631
21
-1.1608201588
31
0.0000000000
11
10.9387471043
21
-1.2328561457
31
0.0000000000
11
10.9417742813
21
-1.3232396457
31
0.0000000000
11
10.9446194310
21
-1.4312632441
31
0.0000000000
11
10.9484811403
21
-1.6242289228
31
0.0000000000
11
10.9517847246
21
-1.8493210131
31
0.0000000000
11
10.9564109283
21
-2.3719959217
31
0.0000000000
11
10.9579870599
21
-2.9500004205
31
0.0000000000
11
10.9564109242
21
-3.5280048171
31
0.0000000000
11
10.9517847191
21
-4.0506794510
31
0.0000000000
11
10.9484811352
21
-4.2757713873
31
0.0000000000
11
10.9446194268
21
-4.4687369329
31
0.0000000000
11
10.9417742780
21
-4.5767604645
31
0.0000000000
11
10.9387471020
21
-4.6671439155
31
0.0000000000
11
10.9355698617
21
-4.7391798691
31
0.0000000000
11
10.9322745199
21
-4.7921609084
31
0.0000000000
11
10.9305925492
21
-4.8112847675
31
0.0000000000
11
10.9288930392
21
-4.8253796166
31
0.0000000000
11
10.9280379555
21
-4.8305135290
31
0.0000000000
11
10.9271799852
21
-4.8343570287
31
0.0000000000
11
10.9263196277
21
-4.8368990625
31
0.0000000000
11
10.9254573825
21
-4.8381285768
31
0.0000000000
0
SPLINE
5
4C6
100
AcDbEntity
8
0
100
AcDbSpline
62
7
6
CONTINUOUS
70
0
71
3
72
31
73
27
74
25
42
0.0000001000
43
0.0000001000
44
0.0000000001
12
1.7428813285
22
-2.2373631513
32
0.0000000000
13
-1.7428804825
23
-2.2373636833
33
0.0000000000
40
0.0000000000
40
0.0000000000
40
0.0000000000
40
0.0000000000
40
0.0004486006
40
0.0012162616
40
0.0037518669
40
0.0076238711
40
0.0128154484
40
0.0270695413
40
0.0463293681
40
0.0704031726
40
0.0990974637
40
0.2097448842
40
0.3476843803
40
0.5000001108
40
0.6523158145
40
0.7902552383
40
0.9009025833
40
0.9295968567
40
0.9536706482
40
0.9729304662
40
0.9871845538
40
0.9923761296
40
0.9962481330
40
0.9987837381
40
0.9995513992
40
1.0000000000
40
1.0000000000
40
1.0000000000
40
1.0000000000
10
10.4252289020
20
-1.5619476105
30
0.0000000000
10
10.4254895212
20
-1.5622821713
30
0.0000000000
10
10.4260456328
20
-1.5632602454
30
0.0000000000
10
10.4269242204
20
-1.5666553596
30
0.0000000000
10
10.4280060980
20
-1.5731934194
30
0.0000000000
10
10.4291762559
20
-1.5838829920
30
0.0000000000
10
10.4309708300
20
-1.6053920747
30
0.0000000000
10
10.4330044248
20
-1.6411799955
30
0.0000000000
10
10.4352609297
20
-1.6944490260
30
0.0000000000
10
10.4374240413
20
-1.7611047511
30
0.0000000000
10
10.4413104085
20
-1.9123571816
30
0.0000000000
10
10.4452644044
20
-2.1690611831
30
0.0000000000
10
10.4484337457
20
-2.5402339673
30
0.0000000000
10
10.4494652267
20
-2.9500002829
30
0.0000000000
10
10.4484337427
20
-3.3597665317
30
0.0000000000
10
10.4452644006
20
-3.7309391542
30
0.0000000000
10
10.4413104046
20
-3.9876430025
30
0.0000000000
10
10.4374240388
20
-4.1388953347
30
0.0000000000
10
10.4352609278
20
-4.2055510232
30
0.0000000000
10
10.4330044236
20
-4.2588200286
30
0.0000000000
10
10.4309708293
20
-4.2946079348
30
0.0000000000
10
10.4291762557
20
-4.3161170105
30
0.0000000000
10
10.4280060978
20
-4.3268065807
30
0.0000000000
10
10.4269242204
20
-4.3333446397
30
0.0000000000
10
10.4260456327
20
-4.3367397540
30
0.0000000000
10
10.4254895212
20
-4.3377178285
30
0.0000000000
10
10.4252289020
20
-4.3380523895
30
0.0000000000
11
10.4252289020
21
-1.5619476105
31
0.0000000000
11
10.4258628418
21
-1.5630203383
31
0.0000000000
11
10.4264953371
21
-1.5650566437
31
0.0000000000
11
10.4277545328
21
-1.5719861226
31
0.0000000000
11
10.4290035655
21
-1.5826683188
31
0.0000000000
11
10.4302395114
21
-1.5970355036
31
0.0000000000
11
10.4326604488
21
-1.6365539254
31
0.0000000000
11
10.4349939558
21
-1.6899995602
31
0.0000000000
11
10.4372166436
21
-1.7568305800
31
0.0000000000
11
10.4393051231
21
-1.8365051569
31
0.0000000000
11
10.4445622718
21
-2.1437970936
31
0.0000000000
11
10.4479546417
21
-2.5269260955
31
0.0000000000
11
10.4491102305
21
-2.9500003078
31
0.0000000000
11
10.4479546386
21
-3.3730744455
31
0.0000000000
11
10.4445622677
21
-3.7562032467
31
0.0000000000
11
10.4393051200
21
-4.0634949735
31
0.0000000000
11
10.4372166412
21
-4.1431695014
31
0.0000000000
11
10.4349939541
21
-4.2100004851
31
0.0000000000
11
10.4326604477
21
-4.2634460953
31
0.0000000000
11
10.4302395110
21
-4.3029645024
31
0.0000000000
11
10.4290035652
21
-4.3173316831
31
0.0000000000
11
10.4277545328
21
-4.3280138770
31
0.0000000000
11
10.4264953371
21
-4.3349433554
31
0.0000000000
11
10.4258628418
21
-4.3369796610
31
0.0000000000
11
10.4252289020
21
-4.3380523895
31
0.0000000000
0
SPLINE
5
4C7
100
AcDbEntity
8
0
100
AcDbSpline
62
7
6
CONTINUOUS
70
0
71
3
72
35
73
31
74
29
42
0.0000001000
43
0.0000001000
44
0.0000000001
12
-2.6979651566
22
-2.8083726599
32
0.0000000000
13
2.6979637765
23
-2.8083736980
33
0.0000000000
40
0.0000000000
40
0.0000000000
40
0.0000000000
40
0.0000000000
40
0.0003974430
40
0.0011077012
40
0.0021499505
40
0.0035273996
40
0.0072847359
40
0.0123655601
40
0.0264145246
40
0.0454979691
40
0.0694321096
40
0.0980313473
40
0.1491115079
40
0.2086903745
40
0.3470259549
40
0.5000001113
40
0.6529742407
40
0.7913097484
40
0.8508885742
40
0.9019686996
40
0.9305679196
40
0.9545020472
40
0.9735854828
40
0.9876344421
40
0.9927152648
40
0.9964726003
40
0.9978500492
40
0.9988922985
40
0.9996025568
40
1.0000000000
40
1.0000000000
40
1.0000000000
40
1.0000000000
10
-10.9254573825
20
-1.0618714232
30
0.0000000000
10
-10.9258148116
20
-1.0622434793
30
0.0000000000
10
-10.9265913881
20
-1.0634004311
30
0.0000000000
10
-10.9273078154
20
-1.0660564935
30
0.0000000000
10
-10.9281637762
20
-1.0698865128
30
0.0000000000
10
-10.9293831182
20
-1.0775845109
30
0.0000000000
10
-10.9308387045
20
-1.0903640393
30
0.0000000000
10
-10.9332748500
20
-1.1190935797
30
0.0000000000
10
-10.9360469466
20
-1.1671454973
30
0.0000000000
10
-10.9391150691
20
-1.2389561921
30
0.0000000000
10
-10.9420588423
20
-1.3291095747
30
0.0000000000
10
-10.9454359930
20
-1.4595663989
30
0.0000000000
10
-10.9488377501
20
-1.6349286289
30
0.0000000000
10
-10.9533465775
20
-1.9485023287
30
0.0000000000
10
-10.9570453407
20
-2.3904302979
30
0.0000000000
10
-10.9584815817
20
-2.9500003864
30
0.0000000000
10
-10.9570453367
20
-3.5095703834
30
0.0000000000
10
-10.9533465722
20
-3.9514981756
30
0.0000000000
10
-10.9488377449
20
-4.2650716881
30
0.0000000000
10
-10.9454359884
20
-4.4404338002
30
0.0000000000
10
-10.9420588388
20
-4.5708905414
30
0.0000000000
10
-10.9391150665
20
-4.6610438743
30
0.0000000000
10
-10.9360469450
20
-4.7328545351
30
0.0000000000
10
-10.9332748491
20
-4.7809064331
30
0.0000000000
10
-10.9308387041
20
-4.8096359640
30
0.0000000000
10
-10.9293831180
20
-4.8224154894
30
0.0000000000
10
-10.9281637761
20
-4.8301134862
30
0.0000000000
10
-10.9273078154
20
-4.8339435054
30
0.0000000000
10
-10.9265913880
20
-4.8365995680
30
0.0000000000
10
-10.9258148116
20
-4.8377565204
30
0.0000000000
10
-10.9254573825
20
-4.8381285768
30
0.0000000000
11
-10.9254573825
21
-1.0618714232
31
0.0000000000
11
-10.9263196277
21
-1.0631009367
31
0.0000000000
11
-10.9271799852
21
-1.0656429700
31
0.0000000000
11
-10.9280379555
21
-1.0694864698
31
0.0000000000
11
-10.9288930393
21
-1.0746203829
31
0.0000000000
11
-10.9305925495
21
-1.0887152350
31
0.0000000000
11
-10.9322745205
21
-1.1078390996
31
0.0000000000
11
-10.9355698631
21
-1.1608201588
31
0.0000000000
11
-10.9387471043
21
-1.2328561457
31
0.0000000000
11
-10.9417742813
21
-1.3232396457
31
0.0000000000
11
-10.9446194310
21
-1.4312632441
31
0.0000000000
11
-10.9484811403
21
-1.6242289228
31
0.0000000000
11
-10.9517847246
21
-1.8493210131
31
0.0000000000
11
-10.9564109283
21
-2.3719959217
31
0.0000000000
11
-10.9579870599
21
-2.9500004205
31
0.0000000000
11
-10.9564109242
21
-3.5280048171
31
0.0000000000
11
-10.9517847191
21
-4.0506794510
31
0.0000000000
11
-10.9484811352
21
-4.2757713873
31
0.0000000000
11
-10.9446194268
21
-4.4687369329
31
0.0000000000
11
-10.9417742780
21
-4.5767604645
31
0.0000000000
11
-10.9387471020
21
-4.6671439155
31
0.0000000000
11
-10.9355698617
21
-4.7391798691
31
0.0000000000
11
-10.9322745199
21
-4.7921609084
31
0.0000000000
11
-10.9305925492
21
-4.8112847675
31
0.0000000000
11
-10.9288930392
21
-4.8253796166
31
0.0000000000
11
-10.9280379555
21
-4.8305135290
31
0.0000000000
11
-10.9271799852
21
-4.8343570287
31
0.0000000000
11
-10.9263196277
21
-4.8368990625
31
0.0000000000
11
-10.9254573825
21
-4.8381285768
31
0.0000000000
0
SPLINE
5
4C8
100
AcDbEntity
8
0
100
AcDbSpline
62
7
6
CONTINUOUS
70
0
71
3
72
31
73
27
74
25
42
0.0000001000
43
0.0000001000
44
0.0000000001
12
-1.7428813285
22
-2.2373631514
32
0.0000000000
13
1.7428804825
23
-2.2373636833
33
0.0000000000
40
0.0000000000
40
0.0000000000
40
0.0000000000
40
0.0000000000
40
0.0004486006
40
0.0012162616
40
0.0037518669
40
0.0076238711
40
0.0128154484
40
0.0270695413
40
0.0463293681
40
0.0704031726
40
0.0990974637
40
0.2097448842
40
0.3476843803
40
0.5000001108
40
0.6523158145
40
0.7902552383
40
0.9009025833
40
0.9295968567
40
0.9536706482
40
0.9729304662
40
0.9871845538
40
0.9923761296
40
0.9962481330
40
0.9987837381
40
0.9995513992
40
1.0000000000
40
1.0000000000
40
1.0000000000
40
1.0000000000
10
-10.4252289020
20
-1.5619476105
30
0.0000000000
10
-10.4254895212
20
-1.5622821713
30
0.0000000000
10
-10.4260456328
20
-1.5632602454
30
0.0000000000
10
-10.4269242204
20
-1.5666553596
30
0.0000000000
10
-10.4280060980
20
-1.5731934194
30
0.0000000000
10
-10.4291762559
20
-1.5838829920
30
0.0000000000
10
-10.4309708300
20
-1.6053920747
30
0.0000000000
10
-10.4330044248
20
-1.6411799955
30
0.0000000000
10
-10.4352609297
20
-1.6944490260
30
0.0000000000
10
-10.4374240413
20
-1.7611047511
30
0.0000000000
10
-10.4413104085
20
-1.9123571816
30
0.0000000000
10
-10.4452644044
20
-2.1690611831
30
0.0000000000
10
-10.4484337457
20
-2.5402339673
30
0.0000000000
10
-10.4494652267
20
-2.9500002829
30
0.0000000000
10
-10.4484337427
20
-3.3597665317
30
0.0000000000
10
-10.4452644006
20
-3.7309391542
30
0.0000000000
10
-10.4413104046
20
-3.9876430025
30
0.0000000000
10
-10.4374240388
20
-4.1388953347
30
0.0000000000
10
-10.4352609278
20
-4.2055510232
30
0.0000000000
10
-10.4330044236
20
-4.2588200286
30
0.0000000000
10
-10.4309708293
20
-4.2946079348
30
0.0000000000
10
-10.4291762557
20
-4.3161170105
30
0.0000000000
10
-10.4280060978
20
-4.3268065807
30
0.0000000000
10
-10.4269242204
20
-4.3333446397
30
0.0000000000
10
-10.4260456327
20
-4.3367397540
30
0.0000000000
10
-10.4254895212
20
-4.3377178285
30
0.0000000000
10
-10.4252289020
20
-4.3380523895
30
0.0000000000
11
-10.4252289020
21
-1.5619476105
31
0.0000000000
11
-10.4258628418
21
-1.5630203383
31
0.0000000000
11
-10.4264953371
21
-1.5650566437
31
0.0000000000
11
-10.4277545328
21
-1.5719861226
31
0.0000000000
11
-10.4290035655
21
-1.5826683188
31
0.0000000000
11
-10.4302395114
21
-1.5970355036
31
0.0000000000
11
-10.4326604488
21
-1.6365539254
31
0.0000000000
11
-10.4349939558
21
-1.6899995602
31
0.0000000000
11
-10.4372166436
21
-1.7568305800
31
0.0000000000
11
-10.4393051231
21
-1.8365051569
31
0.0000000000
11
-10.4445622718
21
-2.1437970936
31
0.0000000000
11
-10.4479546417
21
-2.5269260955
31
0.0000000000
11
-10.4491102305
21
-2.9500003078
31
0.0000000000
11
-10.4479546386
21
-3.3730744455
31
0.0000000000
11
-10.4445622677
21
-3.7562032467
31
0.0000000000
11
-10.4393051200
21
-4.0634949735
31
0.0000000000
11
-10.4372166412
21
-4.1431695014
31
0.0000000000
11
-10.4349939541
21
-4.2100004851
31
0.0000000000
11
-10.4326604477
21
-4.2634460953
31
0.0000000000
11
-10.4302395110
21
-4.3029645024
31
0.0000000000
11
-10.4290035652
21
-4.3173316831
31
0.0000000000
11
-10.4277545328
21
-4.3280138770
31
0.0000000000
11
-10.4264953371
21
-4.3349433554
31
0.0000000000
11
-10.4258628418
21
-4.3369796610
31
0.0000000000
11
-10.4252289020
21
-4.3380523895
31
0.0000000000
0
SPLINE
5
4C9
100
AcDbEntity
8
0
100
AcDbSpline
62
7
6
CONTINUOUS
70
0
71
3
72
35
73
31
74
29
42
0.0000001000
43
0.0000001000
44
0.0000000001
12
-3.2350937098
22
3.0282431774
32
0.0000000000
13
-3.2350937098
23
-3.0282431774
33
0.0000000000
40
0.0000000000
40
0.0000000000
40
0.0000000000
40
0.0000000000
40
0.0004027819
40
0.0011188708
40
0.0021667513
40
0.0035495127
40
0.0073164264
40
0.0124054287
40
0.0264668081
40
0.0455579448
40
0.0694957351
40
0.0980952708
40
0.1491709817
40
0.2087409783
40
0.3470518009
40
0.5000000000
40
0.6529481991
40
0.7912590217
40
0.8508290183
40
0.9019047292
40
0.9305042649
40
0.9544420552
40
0.9735331919
40
0.9875945713
40
0.9926835736
40
0.9964504873
40
0.9978332487
40
0.9988811292
40
0.9995972181
40
1.0000000000
40
1.0000000000
40
1.0000000000
40
1.0000000000
10
-1.8486284727
20
6.0487046135
30
0.0000000000
10
-1.8490628185
20
6.0491111874
30
0.0000000000
10
-1.8504028254
20
6.0499924434
30
0.0000000000
10
-1.8534514187
20
6.0508109185
30
0.0000000000
10
-1.8578414456
20
6.0517847910
30
0.0000000000
10
-1.8666418614
20
6.0531733742
30
0.0000000000
10
-1.8812369870
20
6.0548305072
30
0.0000000000
10
-1.9140151354
20
6.0576042508
30
0.0000000000
10
-1.9688071560
20
6.0607611561
30
0.0000000000
10
-2.0506634235
20
6.0642553251
30
0.0000000000
10
-2.1534023271
20
6.0676079491
30
0.0000000000
10
-2.3020460871
20
6.0714540537
30
0.0000000000
10
-2.5018377711
20
6.0753283226
30
0.0000000000
10
-2.8590736927
20
6.0804634759
30
0.0000000000
10
-3.3625275013
20
6.0846762525
30
0.0000000000
10
-4.0000000000
20
6.0863119756
30
0.0000000000
10
-4.6374724987
20
6.0846762525
30
0.0000000000
10
-5.1409263073
20
6.0804634759
30
0.0000000000
10
-5.4981622289
20
6.0753283226
30
0.0000000000
10
-5.6979539129
20
6.0714540537
30
0.0000000000
10
-5.8465976729
20
6.0676079491
30
0.0000000000
10
-5.9493365765
20
6.0642553251
30
0.0000000000
10
-6.0311928440
20
6.0607611561
30
0.0000000000
10
-6.0859848646
20
6.0576042508
30
0.0000000000
10
-6.1187630130
20
6.0548305072
30
0.0000000000
10
-6.1333581386
20
6.0531733742
30
0.0000000000
10
-6.1421585544
20
6.0517847910
30
0.0000000000
10
-6.1465485813
20
6.0508109185
30
0.0000000000
10
-6.1495971746
20
6.0499924434
30
0.0000000000
10
-6.1509371815
20
6.0491111874
30
0.0000000000
10
-6.1513715273
20
6.0487046135
30
0.0000000000
11
-1.8486284727
21
6.0487046135
31
0.0000000000
11
-1.8500579503
21
6.0496862410
31
0.0000000000
11
-1.8529811380
21
6.0506657446
31
0.0000000000
11
-1.8573854882
21
6.0516425547
31
0.0000000000
11
-1.8632584535
21
6.0526161014
31
0.0000000000
11
-1.8793600398
21
6.0545511257
31
0.0000000000
11
-1.9011855170
21
6.0564662596
31
0.0000000000
11
-1.9616066261
21
6.0602186235
31
0.0000000000
11
-2.0437187434
21
6.0638367286
31
0.0000000000
11
-2.1467188320
21
6.0672841102
31
0.0000000000
11
-2.2698038544
21
6.0705243037
31
0.0000000000
11
-2.4896527032
21
6.0749223056
31
0.0000000000
11
-2.7460878159
21
6.0786847543
31
0.0000000000
11
-3.3415248179
21
6.0839536530
31
0.0000000000
11
-4.0000000000
21
6.0857487679
31
0.0000000000
11
-4.6584751821
21
6.0839536530
31
0.0000000000
11
-5.2539121841
21
6.0786847543
31
0.0000000000
11
-5.5103472968
21
6.0749223056
31
0.0000000000
11
-5.7301961456
21
6.0705243037
31
0.0000000000
11
-5.8532811680
21
6.0672841102
31
0.0000000000
11
-5.9562812566
21
6.0638367286
31
0.0000000000
11
-6.0383933739
21
6.0602186235
31
0.0000000000
11
-6.0988144830
21
6.0564662596
31
0.0000000000
11
-6.1206399602
21
6.0545511257
31
0.0000000000
11
-6.1367415465
21
6.0526161014
31
0.0000000000
11
-6.1426145118
21
6.0516425547
31
0.0000000000
11
-6.1470188620
21
6.0506657446
31
0.0000000000
11
-6.1499420497
21
6.0496862410
31
0.0000000000
11
-6.1513715273
21
6.0487046135
31
0.0000000000
0
SPLINE
5
4CA
100
AcDbEntity
8
0
100
AcDbSpline
62
7
6
CONTINUOUS
70
0
71
3
72
35
73
31
74
29
42
0.0000001000
43
0.0000001000
44
0.0000000001
12
-2.6572840479
22
2.0771351876
32
0.0000000000
13
-2.6572840479
23
-2.0771351876
33
0.0000000000
40
0.0000000000
40
0.0000000000
40
0.0000000000
40
0.0000000000
40
0.0004477623
40
0.0012142084
40
0.0023133058
40
0.0037471775
40
0.0076146672
40
0.0128008219
40
0.0270421658
40
0.0462880739
40
0.0703484330
40
0.0990313962
40
0.1501492082
40
0.2096672317
40
0.3476302003
40
0.5000000000
40
0.6523697997
40
0.7903327683
40
0.8498507918
40
0.9009686038
40
0.9296515670
40
0.9537119261
40
0.9729578342
40
0.9871991781
40
0.9923853328
40
0.9962528225
40
0.9976866942
40
0.9987857916
40
0.9995522377
40
1.0000000000
40
1.0000000000
40
1.0000000000
40
1.0000000000
10
-2.3487046599
20
5.5484761331
30
0.0000000000
10
-2.3491012705
20
5.5487861540
30
0.0000000000
10
-2.3502629360
20
5.5494470470
30
0.0000000000
10
-2.3527557432
20
5.5500905882
30
0.0000000000
10
-2.3563028664
20
5.5508347298
30
0.0000000000
10
-2.3632801157
20
5.5519015845
30
0.0000000000
10
-2.3747603658
20
5.5531722129
30
0.0000000000
10
-2.4003347863
20
5.5552986474
30
0.0000000000
10
-2.4428667555
20
5.5577214972
30
0.0000000000
10
-2.5061978229
20
5.5604024505
30
0.0000000000
10
-2.5854510206
20
5.5629738346
30
0.0000000000
10
-2.6998133094
20
5.5659210157
30
0.0000000000
10
-2.8532409945
20
5.5688902003
30
0.0000000000
10
-3.1270371233
20
5.5728223024
30
0.0000000000
10
-3.5123766493
20
5.5760496723
30
0.0000000000
10
-4.0000000000
20
5.5773035507
30
0.0000000000
10
-4.4876233507
20
5.5760496723
30
0.0000000000
10
-4.8729628767
20
5.5728223024
30
0.0000000000
10
-5.1467590055
20
5.5688902003
30
0.0000000000
10
-5.3001866906
20
5.5659210157
30
0.0000000000
10
-5.4145489794
20
5.5629738346
30
0.0000000000
10
-5.4938021771
20
5.5604024505
30
0.0000000000
10
-5.5571332445
20
5.5577214972
30
0.0000000000
10
-5.5996652137
20
5.5552986474
30
0.0000000000
10
-5.6252396342
20
5.5531722129
30
0.0000000000
10
-5.6367198843
20
5.5519015845
30
0.0000000000
10
-5.6436971336
20
5.5508347298
30
0.0000000000
10
-5.6472442568
20
5.5500905882
30
0.0000000000
10
-5.6497370640
20
5.5494470470
30
0.0000000000
10
-5.6508987295
20
5.5487861540
30
0.0000000000
10
-5.6512953401
20
5.5484761331
30
0.0000000000
11
-2.3487046599
21
5.5484761331
31
0.0000000000
11
-2.3499780006
21
5.5492296475
31
0.0000000000
11
-2.3523964867
21
5.5499814675
31
0.0000000000
11
-2.3559501316
21
5.5507311575
31
0.0000000000
11
-2.3606289485
21
5.5514782824
31
0.0000000000
11
-2.3733221514
21
5.5529630947
31
0.0000000000
11
-2.3903962012
21
5.5544324213
31
0.0000000000
11
-2.4373672656
21
5.5573106849
31
0.0000000000
11
-2.5009029892
21
5.5600852082
31
0.0000000000
11
-2.5803642198
21
5.5627281261
31
0.0000000000
11
-2.6751118050
21
5.5652115736
31
0.0000000000
11
-2.8439921411
21
5.5685813887
31
0.0000000000
11
-3.0406426790
21
5.5714632861
31
0.0000000000
11
-3.4965103491
21
5.5754976761
31
0.0000000000
11
-4.0000000000
21
5.5768719896
31
0.0000000000
11
-4.5034896509
21
5.5754976761
31
0.0000000000
11
-4.9593573210
21
5.5714632861
31
0.0000000000
11
-5.1560078589
21
5.5685813887
31
0.0000000000
11
-5.3248881950
21
5.5652115736
31
0.0000000000
11
-5.4196357802
21
5.5627281261
31
0.0000000000
11
-5.4990970108
21
5.5600852082
31
0.0000000000
11
-5.5626327344
21
5.5573106849
31
0.0000000000
11
-5.6096037988
21
5.5544324213
31
0.0000000000
11
-5.6266778486
21
5.5529630947
31
0.0000000000
11
-5.6393710515
21
5.5514782824
31
0.0000000000
11
-5.6440498684
21
5.5507311575
31
0.0000000000
11
-5.6476035133
21
5.5499814675
31
0.0000000000
11
-5.6500219994
21
5.5492296475
31
0.0000000000
11
-5.6512953401
21
5.5484761331
31
0.0000000000
0
SPLINE
5
4CB
100
AcDbEntity
8
0
100
AcDbSpline
62
7
6
CONTINUOUS
70
0
71
3
72
35
73
31
74
29
42
0.0000001000
43
0.0000001000
44
0.0000000001
12
-3.2350937098
22
3.0282431774
32
0.0000000000
13
-3.2350937098
23
-3.0282431774
33
0.0000000000
40
0.0000000000
40
0.0000000000
40
0.0000000000
40
0.0000000000
40
0.0004027819
40
0.0011188708
40
0.0021667513
40
0.0035495127
40
0.0073164264
40
0.0124054287
40
0.0264668081
40
0.0455579448
40
0.0694957351
40
0.0980952708
40
0.1491709817
40
0.2087409783
40
0.3470518009
40
0.5000000000
40
0.6529481991
40
0.7912590217
40
0.8508290183
40
0.9019047292
40
0.9305042649
40
0.9544420552
40
0.9735331919
40
0.9875945713
40
0.9926835736
40
0.9964504873
40
0.9978332487
40
0.9988811292
40
0.9995972181
40
1.0000000000
40
1.0000000000
40
1.0000000000
40
1.0000000000
10
6.1513715273
20
6.0487046135
30
0.0000000000
10
6.1509371815
20
6.0491111874
30
0.0000000000
10
6.1495971746
20
6.0499924434
30
0.0000000000
10
6.1465485813
20
6.0508109185
30
0.0000000000
10
6.1421585544
20
6.0517847910
30
0.0000000000
10
6.1333581386
20
6.0531733742
30
0.0000000000
10
6.1187630130
20
6.0548305072
30
0.0000000000
10
6.0859848646
20
6.0576042508
30
0.0000000000
10
6.0311928440
20
6.0607611561
30
0.0000000000
10
5.9493365765
20
6.0642553251
30
0.0000000000
10
5.8465976729
20
6.0676079491
30
0.0000000000
10
5.6979539129
20
6.0714540537
30
0.0000000000
10
5.4981622289
20
6.0753283226
30
0.0000000000
10
5.1409263073
20
6.0804634759
30
0.0000000000
10
4.6374724987
20
6.0846762525
30
0.0000000000
10
4.0000000000
20
6.0863119756
30
0.0000000000
10
3.3625275013
20
6.0846762525
30
0.0000000000
10
2.8590736927
20
6.0804634759
30
0.0000000000
10
2.5018377711
20
6.0753283226
30
0.0000000000
10
2.3020460871
20
6.0714540537
30
0.0000000000
10
2.1534023271
20
6.0676079491
30
0.0000000000
10
2.0506634235
20
6.0642553251
30
0.0000000000
10
1.9688071560
20
6.0607611561
30
0.0000000000
10
1.9140151354
20
6.0576042508
30
0.0000000000
10
1.8812369870
20
6.0548305072
30
0.0000000000
10
1.8666418614
20
6.0531733742
30
0.0000000000
10
1.8578414456
20
6.0517847910
30
0.0000000000
10
1.8534514187
20
6.0508109185
30
0.0000000000
10
1.8504028254
20
6.0499924434
30
0.0000000000
10
1.8490628185
20
6.0491111874
30
0.0000000000
10
1.8486284727
20
6.0487046135
30
0.0000000000
11
6.1513715273
21
6.0487046135
31
0.0000000000
11
6.1499420497
21
6.0496862410
31
0.0000000000
11
6.1470188620
21
6.0506657446
31
0.0000000000
11
6.1426145118
21
6.0516425547
31
0.0000000000
11
6.1367415465
21
6.0526161014
31
0.0000000000
11
6.1206399602
21
6.0545511257
31
0.0000000000
11
6.0988144830
21
6.0564662596
31
0.0000000000
11
6.0383933739
21
6.0602186235
31
0.0000000000
11
5.9562812566
21
6.0638367286
31
0.0000000000
11
5.8532811680
21
6.0672841102
31
0.0000000000
11
5.7301961456
21
6.0705243037
31
0.0000000000
11
5.5103472968
21
6.0749223056
31
0.0000000000
11
5.2539121841
21
6.0786847543
31
0.0000000000
11
4.6584751821
21
6.0839536530
31
0.0000000000
11
4.0000000000
21
6.0857487679
31
0.0000000000
11
3.3415248179
21
6.0839536530
31
0.0000000000
11
2.7460878159
21
6.0786847543
31
0.0000000000
11
2.4896527032
21
6.0749223056
31
0.0000000000
11
2.2698038544
21
6.0705243037
31
0.0000000000
11
2.1467188320
21
6.0672841102
31
0.0000000000
11
2.0437187434
21
6.0638367286
31
0.0000000000
11
1.9616066261
21
6.0602186235
31
0.0000000000
11
1.9011855170
21
6.0564662596
31
0.0000000000
11
1.8793600398
21
6.0545511257
31
0.0000000000
11
1.8632584535
21
6.0526161014
31
0.0000000000
11
1.8573854882
21
6.0516425547
31
0.0000000000
11
1.8529811380
21
6.0506657446
31
0.0000000000
11
1.8500579503
21
6.0496862410
31
0.0000000000
11
1.8486284727
21
6.0487046135
31
0.0000000000
0
SPLINE
5
4CC
100
AcDbEntity
8
0
100
AcDbSpline
62
7
6
CONTINUOUS
70
0
71
3
72
35
73
31
74
29
42
0.0000001000
43
0.0000001000
44
0.0000000001
12
-2.6572840479
22
2.0771351876
32
0.0000000000
13
-2.6572840479
23
-2.0771351876
33
0.0000000000
40
0.0000000000
40
0.0000000000
40
0.0000000000
40
0.0000000000
40
0.0004477623
40
0.0012142084
40
0.0023133058
40
0.0037471775
40
0.0076146672
40
0.0128008219
40
0.0270421658
40
0.0462880739
40
0.0703484330
40
0.0990313962
40
0.1501492082
40
0.2096672317
40
0.3476302003
40
0.5000000000
40
0.6523697997
40
0.7903327683
40
0.8498507918
40
0.9009686038
40
0.9296515670
40
0.9537119261
40
0.9729578342
40
0.9871991781
40
0.9923853328
40
0.9962528225
40
0.9976866942
40
0.9987857916
40
0.9995522377
40
1.0000000000
40
1.0000000000
40
1.0000000000
40
1.0000000000
10
5.6512953401
20
5.5484761331
30
0.0000000000
10
5.6508987295
20
5.5487861540
30
0.0000000000
10
5.6497370640
20
5.5494470470
30
0.0000000000
10
5.6472442568
20
5.5500905882
30
0.0000000000
10
5.6436971336
20
5.5508347298
30
0.0000000000
10
5.6367198843
20
5.5519015845
30
0.0000000000
10
5.6252396342
20
5.5531722129
30
0.0000000000
10
5.5996652137
20
5.5552986474
30
0.0000000000
10
5.5571332445
20
5.5577214972
30
0.0000000000
10
5.4938021771
20
5.5604024505
30
0.0000000000
10
5.4145489794
20
5.5629738346
30
0.0000000000
10
5.3001866906
20
5.5659210157
30
0.0000000000
10
5.1467590055
20
5.5688902003
30
0.0000000000
10
4.8729628767
20
5.5728223024
30
0.0000000000
10
4.4876233507
20
5.5760496723
30
0.0000000000
10
4.0000000000
20
5.5773035507
30
0.0000000000
10
3.5123766493
20
5.5760496723
30
0.0000000000
10
3.1270371233
20
5.5728223024
30
0.0000000000
10
2.8532409945
20
5.5688902003
30
0.0000000000
10
2.6998133094
20
5.5659210157
30
0.0000000000
10
2.5854510206
20
5.5629738346
30
0.0000000000
10
2.5061978229
20
5.5604024505
30
0.0000000000
10
2.4428667555
20
5.5577214972
30
0.0000000000
10
2.4003347863
20
5.5552986474
30
0.0000000000
10
2.3747603658
20
5.5531722129
30
0.0000000000
10
2.3632801157
20
5.5519015845
30
0.0000000000
10
2.3563028664
20
5.5508347298
30
0.0000000000
10
2.3527557432
20
5.5500905882
30
0.0000000000
10
2.3502629360
20
5.5494470470
30
0.0000000000
10
2.3491012705
20
5.5487861540
30
0.0000000000
10
2.3487046599
20
5.5484761331
30
0.0000000000
11
5.6512953401
21
5.5484761331
31
0.0000000000
11
5.6500219994
21
5.5492296475
31
0.0000000000
11
5.6476035133
21
5.5499814675
31
0.0000000000
11
5.6440498684
21
5.5507311575
31
0.0000000000
11
5.6393710515
21
5.5514782824
31
0.0000000000
11
5.6266778486
21
5.5529630947
31
0.0000000000
11
5.6096037988
21
5.5544324213
31
0.0000000000
11
5.5626327344
21
5.5573106849
31
0.0000000000
11
5.4990970108
21
5.5600852082
31
0.0000000000
11
5.4196357802
21
5.5627281261
31
0.0000000000
11
5.3248881950
21
5.5652115736
31
0.0000000000
11
5.1560078589
21
5.5685813887
31
0.0000000000
11
4.9593573210
21
5.5714632861
31
0.0000000000
11
4.5034896509
21
5.5754976761
31
0.0000000000
11
4.0000000000
21
5.5768719896
31
0.0000000000
11
3.4965103491
21
5.5754976761
31
0.0000000000
11
3.0406426790
21
5.5714632861
31
0.0000000000
11
2.8439921411
21
5.5685813887
31
0.0000000000
11
2.6751118050
21
5.5652115736
31
0.0000000000
11
2.5803642198
21
5.5627281261
31
0.0000000000
11
2.5009029892
21
5.5600852082
31
0.0000000000
11
2.4373672656
21
5.5573106849
31
0.0000000000
11
2.3903962012
21
5.5544324213
31
0.0000000000
11
2.3733221514
21
5.5529630947
31
0.0000000000
11
2.3606289485
21
5.5514782824
31
0.0000000000
11
2.3559501316
21
5.5507311575
31
0.0000000000
11
2.3523964867
21
5.5499814675
31
0.0000000000
11
2.3499780006
21
5.5492296475
31
0.0000000000
11
2.3487046599
21
5.5484761331
31
0.0000000000
0
SPLINE
5
4CD
100
AcDbEntity
8
0
100
AcDbSpline
62
7
6
CONTINUOUS
70
0
71
3
72
10
73
6
74
4
42
0.0000001000
43
0.0000001000
44
0.0000000001
12
-0.1641233414
22
0.0152788458
32
0.0000000000
13
-0.0303768301
23
0.1620097605
33
0.0000000000
40
0.0000000000
40
0.0000000000
40
0.0000000000
40
0.0000000000
40
0.1828431619
40
0.5151526668
40
1.0000000000
40
1.0000000000
40
1.0000000000
40
1.0000000000
10
2.6554647254
20
-21.1306884717
30
0.0000000000
10
2.6454617818
20
-21.1297572609
30
0.0000000000
10
2.6238965785
20
-21.1051213775
30
0.0000000000
10
2.6063662081
20
-21.0548629124
30
0.0000000000
10
2.5957190028
20
-21.0105013481
30
0.0000000000
10
2.5908096278
20
-20.9843180147
30
0.0000000000
11
2.6554647254
21
-21.1306884717
31
0.0000000000
11
2.6317325280
21
-21.1121111439
31
0.0000000000
11
2.6096484850
21
-21.0619847236
31
0.0000000000
11
2.5908096278
21
-20.9843180147
31
0.0000000000
0
SPLINE
5
4CE
100
AcDbEntity
8
0
100
AcDbSpline
62
9
6
CONTINUOUS
70
0
71
3
72
9
73
5
74
3
42
0.0000001000
43
0.0000001000
44
0.0000000001
12
-0.0243008607
22
0.0661820263
32
0.0000000000
13
-0.0243292844
23
0.0661715827
33
0.0000000000
40
0.0000000000
40
0.0000000000
40
0.0000000000
40
0.0000000000
40
0.4998283471
40
1.0000000000
40
1.0000000000
40
1.0000000000
40
1.0000000000
10
7.0746906202
20
-21.0738952230
30
0.0000000000
10
7.0706418672
20
-21.0628686721
30
0.0000000000
10
7.0625396932
20
-21.0408086893
30
0.0000000000
10
7.0544308741
20
-21.0187511484
30
0.0000000000
10
7.0503746013
20
-21.0077187651
30
0.0000000000
11
7.0746906202
21
-21.0738952230
31
0.0000000000
11
7.0625408146
21
-21.0408168727
31
0.0000000000
11
7.0503746013
21
-21.0077187651
31
0.0000000000
0
SPLINE
5
4CF
100
AcDbEntity
8
0
100
AcDbSpline
62
9
6
CONTINUOUS
70
0
71
3
72
10
73
6
74
4
42
0.0000001000
43
0.0000001000
44
0.0000000001
12
0.3574056366
22
0.0000533947
32
0.0000000000
13
0.2695009221
23
0.2347510274
33
0.0000000000
40
0.0000000000
40
0.0000000000
40
0.0000000000
40
0.0000000000
40
0.3331925131
40
0.6665978160
40
1.0000000000
40
1.0000000000
40
1.0000000000
40
1.0000000000
10
6.7220012112
20
-21.1306884717
30
0.0000000000
10
6.7616961720
20
-21.1306825414
30
0.0000000000
10
6.8414447413
20
-21.1211213395
30
0.0000000000
10
6.9539828061
20
-21.0789850574
30
0.0000000000
10
7.0204248173
20
-21.0338072328
30
0.0000000000
10
7.0503755493
20
-21.0077183978
30
0.0000000000
11
6.7220012112
21
-21.1306884717
31
0.0000000000
11
6.8402373038
21
-21.1164956603
31
0.0000000000
11
6.9518333337
21
-21.0747146270
31
0.0000000000
11
7.0503755493
21
-21.0077183978
31
0.0000000000
0
SPLINE
5
4D0
100
AcDbEntity
8
0
100
AcDbSpline
62
9
6
CONTINUOUS
70
0
71
3
72
9
73
5
74
3
42
0.0000001000
43
0.0000001000
44
0.0000000001
12
-0.0246396103
22
0.0658868856
32
0.0000000000
13
-0.0246692569
23
0.0658757912
33
0.0000000000
40
0.0000000000
40
0.0000000000
40
0.0000000000
40
0.0000000000
40
0.4998300786
40
1.0000000000
40
1.0000000000
40
1.0000000000
40
1.0000000000
10
6.7466556736
20
-21.1965699136
30
0.0000000000
10
6.7425504675
20
-21.1855924978
30
0.0000000000
10
6.7343346665
20
-21.1636311740
30
0.0000000000
10
6.7261144528
20
-21.1416715014
30
0.0000000000
10
6.7220015127
20
-21.1306884717
30
0.0000000000
11
6.7466556736
21
-21.1965699136
31
0.0000000000
11
6.7343363562
21
-21.1636390499
31
0.0000000000
11
6.7220015127
21
-21.1306884717
31
0.0000000000
0
ENDSEC
0
SECTION
2
OBJECTS
0
DICTIONARY
5
C
100
AcDbDictionary
280
0
281
1
3
ACAD_GROUP
350
D
3
ACAD_MLINESTYLE
350
17
3
ACAD_LAYOUT
350
1A
3
ACAD_PLOTSETTINGS
350
19
3
ACAD_PLOTSTYLENAME
350
E
0
DICTIONARY
5
D
102
{ACAD_REACTORS
330
C
102
}
100
AcDbDictionary
280
0
281
1
0
ACDBDICTIONARYWDFLT
5
E
102
{ACAD_REACTORS
330
C
102
}
100
AcDbDictionary
281
1
3
Normal
350
F
100
AcDbDictionaryWithDefault
340
F
0
DICTIONARY
5
17
102
{ACAD_REACTORS
330
C
102
}
100
AcDbDictionary
280
0
281
1
3
Standard
350
18
0
DICTIONARY
5
19
102
{ACAD_REACTORS
330
C
102
}
100
AcDbDictionary
281
1
0
DICTIONARY
5
1A
102
{ACAD_REACTORS
330
C
102
}
100
AcDbDictionary
281
1
3
Layout1
350
1E
3
Model
350
22
0
ACDBPLACEHOLDER
5
F
102
{ACAD_REACTORS
330
E
102
}
0
MLINESTYLE
5
18
102
{ACAD_REACTORS
330
17
102
}
100
AcDbMlineStyle
2
STANDARD
70
0
3

62
256
51
90.0
52
90.0
71
2
49
0.5
62
256
6
BYLAYER
49
-0.5
62
256
6
BYLAYER
0
LAYOUT
5
1E
102
{ACAD_REACTORS
330
1A
102
}
100
AcDbPlotSettings
1

2

4

6

40
0.0
41
0.0
42
0.0
43
0.0
44
0.0
45
0.0
46
0.0
47
0.0
48
0.0
49
0.0
140
0.0
141
0.0
142
1.0
143
1.0
70
0
72
0
73
0
74
0
7

75
0
147
1.0
148
0.0
149
0.0
100
AcDbLayout
1
Layout1
70
0
71
0
10
0.0
20
0.0
11
0.0
21
0.0
12
0.0
22
0.0
32
0.0
14
0.0
24
0.0
34
0.0
15
0.0
25
0.0
35
0.0
146
0.0
13
0.0
23
0.0
33
0.0
16
0.0
26
0.0
36
0.0
17
0.0
27
0.0
37
0.0
76
0
330
1B
331
0
345
0
346
0
0
LAYOUT
5
22
102
{ACAD_REACTORS
330
1A
102
}
100
AcDbPlotSettings
1

2

4

6

40
0.0
41
0.0
42
0.0
43
0.0
44
0.0
45
0.0
46
0.0
47
0.0
48
0.0
49
0.0
140
0.0
141
0.0
142
1.0
143
1.0
70
0
72
0
73
0
74
0
7

75
0
147
1.0
148
0.0
149
0.0
100
AcDbLayout
1
Model
70
0
71
0
10
0.0
20
0.0
11
0.0
21
0.0
12
0.0
22
0.0
32
0.0
14
0.0
24
0.0
34
0.0
15
0.0
25
0.0
35
0.0
146
0.0
13
0.0
23
0.0
33
0.0
16
0.0
26
0.0
36
0.0
17
0.0
27
0.0
37
0.0
76
0
330
1F
331
0
345
0
346
0
0
ENDSEC
0
EOF
