  0
SECTION
  2
HEADER
  9
$ACADVER
  1
AC1015
  9
$DWGCODEPAGE
  3
ANSI_1252
  9
$EXTMAX
 10
297.0
 20
210.0
 30
0.0
  9
$EXTMIN
 10
0.0
 20
0.0
 30
0.0
  9
$LIMMIN
 10
0.0
 20
0.0
  9
$LIMMAX
 10
297.0
 20
210.0
  9
$VIEWCTR
 10
148.5
 20
105.0
  9
$VIEWSIZE
 40
210.0
  9
$CLAYER
  8
0
  9
$LTSCALE
 40
16.335
  9
$CELTYPE
  6
BYLAYER
  9
$DIMSCALE
 40
1.0
  9
$DIMASZ
 40
3.0
  9
$DIMEXO
 40
1.85625
  9
$DIMDLI
 40
11.286
  9
$DIMEXE
 40
5.346
  9
$DIMCEN
 40
2.673
  9
$DIMLFAC
 40
1.0
  9
$DIMBLK
  1
_FILLED
  9
$DIMTXT
 40
3.0
  9
$DIMTOL
 70
1
  9
$DIMLIM
 70
0
  9
$DIMTFAC
 40
1.0
  9
$DIMTP
 40
0.01
  9
$DIMTM
 40
0.01
  9
$PDMODE
 70
3
  9
$PDSIZE
 40
3.0
  9
$HANDSEED
  5
887
  9
$TILEMODE
 70
1
  9
$MEASUREMENT
 70
1
  9
$INSUNITS
 70
4
  0
ENDSEC
  0
SECTION
  2
CLASSES
  0
CLASS
  1
ACDBDICTIONARYWDFLT
  2
AcDbDictionaryWithDefault
  3
AutoCAD 2000
 90
0
280
0
281
0
  0
CLASS
  1
ACDBPLACEHOLDER
  2
AcDbPlaceHolder
  3
AutoCAD 2000
 90
0
280
0
281
0
  0
CLASS
  1
LAYOUT
  2
AcDbLayout
  3
AutoCAD 2000
 90
0
280
0
281
0
  0
ENDSEC
  0
SECTION
  2
TABLES
  0
TABLE
  2
VPORT
  5
8
100
AcDbSymbolTable
 70
2
  0
VPORT
  5
1F4
100
AcDbSymbolTableRecord
100
AcDbViewportTableRecord
  2
*ACTIVE
 70
0
 10
0.0
 20
0.0
 11
1.0
 21
1.0
 12
148.5
 22
105.0
 13
0.0
 23
0.0
 14
1.0
 24
1.0
 15
0.0
 25
0.0
 16
0.0
 26
0.0
 36
1.0
 17
0.0
 27
0.0
 37
0.0
 40
210.0
 41
1.4142857143
 42
50.0
 43
0.0
 44
0.0
 50
0.0
 51
0.0
 71
0
 72
100
 73
1
 74
1
 75
0
 76
0
 77
0
 78
0
  0
ENDTAB
  0
TABLE
  2
LTYPE
  5
5
100
AcDbSymbolTable
 70
6
  0
LTYPE
  5
14
100
AcDbSymbolTableRecord
100
AcDbLinetypeTableRecord
  2
BYBLOCK
 70
0
  3

 72
65
 73
0
 40
0.0
  0
LTYPE
  5
15
100
AcDbSymbolTableRecord
100
AcDbLinetypeTableRecord
  2
BYLAYER
 70
0
  3

 72
65
 73
0
 40
0.0
  0
LTYPE
  5
16
100
AcDbSymbolTableRecord
100
AcDbLinetypeTableRecord
  2
CONTINUOUS
 70
64
  3
Solid line
 72
65
 73
0
 40
0.0
  0
LTYPE
  5
1F5
100
AcDbSymbolTableRecord
100
AcDbLinetypeTableRecord
  2
CENTER
 70
64
  3
____ _ ____ _ ____ _ ____ _ ____ _ ____ _ ____
 72
65
 73
4
 40
0.6
 49
0.375
 74
0
 49
-0.075
 74
0
 49
0.075
 74
0
 49
-0.075
 74
0
  0
LTYPE
  5
1F6
100
AcDbSymbolTableRecord
100
AcDbLinetypeTableRecord
  2
HIDDEN
 70
64
  3
- - - - - - - - - - - - - - - - - - - -
 72
65
 73
2
 40
0.2
 49
0.1
 74
0
 49
-0.1
 74
0
  0
LTYPE
  5
1F7
100
AcDbSymbolTableRecord
100
AcDbLinetypeTableRecord
  2
PHANTOM
 70
64
  3
_____ _ _ _____ _ _ _____ _ _ _____
 72
65
 73
6
 40
0.8
 49
0.45
 74
0
 49
-0.05
 74
0
 49
0.1
 74
0
 49
-0.05
 74
0
 49
0.1
 74
0
 49
-0.05
 74
0
  0
LTYPE
  5
1F8
100
AcDbSymbolTableRecord
100
AcDbLinetypeTableRecord
  2
DOT
 70
64
  3
. . . . . . . . . . . . . . . . . . . .
 72
65
 73
2
 40
0.2
 49
0.1
 74
0
 49
-0.1
 74
0
  0
LTYPE
  5
1F9
100
AcDbSymbolTableRecord
100
AcDbLinetypeTableRecord
  2
DASHED
 70
64
  3
- - - - - - - - - - - - - - - - - - - -
 72
65
 73
2
 40
0.2
 49
0.1
 74
0
 49
-0.1
 74
0
  0
ENDTAB
  0
TABLE
  2
LAYER
  5
2
100
AcDbSymbolTable
 70
36
  0
LAYER
  5
10
100
AcDbSymbolTableRecord
100
AcDbLayerTableRecord
  2
0
 70
0
 62
7
  6
CONTINUOUS
370
-3
390
F
  0
LAYER
  5
1FA
100
AcDbSymbolTableRecord
100
AcDbLayerTableRecord
  2
DEFAULT_1
 70
0
 62
7
  6
CENTER
370
-3
390
F
  0
LAYER
  5
1FB
100
AcDbSymbolTableRecord
100
AcDbLayerTableRecord
  2
DEFAULT_2
 70
0
 62
7
  6
HIDDEN
370
-3
390
F
  0
LAYER
  5
1FC
100
AcDbSymbolTableRecord
100
AcDbLayerTableRecord
  2
DEFAULT_3
 70
0
 62
7
  6
PHANTOM
370
-3
390
F
  0
LAYER
  5
1FD
100
AcDbSymbolTableRecord
100
AcDbLayerTableRecord
  2
ASSI
 70
0
 62
7
  6
CONTINUOUS
370
-3
390
F
  0
LAYER
  5
1FE
100
AcDbSymbolTableRecord
100
AcDbLayerTableRecord
  2
COLOR1
 70
0
 62
7
  6
CONTINUOUS
370
-3
390
F
  0
LAYER
  5
1FF
100
AcDbSymbolTableRecord
100
AcDbLayerTableRecord
  2
COORDINATE
 70
0
 62
7
  6
CONTINUOUS
370
-3
390
F
  0
LAYER
  5
200
100
AcDbSymbolTableRecord
100
AcDbLayerTableRecord
  2
COORD_ORIGINE
 70
0
 62
7
  6
CONTINUOUS
370
-3
390
F
  0
LAYER
  5
201
100
AcDbSymbolTableRecord
100
AcDbLayerTableRecord
  2
COPY_PUBLISH
 70
0
 62
7
  6
CONTINUOUS
370
-3
390
F
  0
LAYER
  5
202
100
AcDbSymbolTableRecord
100
AcDbLayerTableRecord
  2
COSMETIC
 70
0
 62
7
  6
CONTINUOUS
370
-3
390
F
  0
LAYER
  5
203
100
AcDbSymbolTableRecord
100
AcDbLayerTableRecord
  2
CURVE
 70
0
 62
7
  6
CONTINUOUS
370
-3
390
F
  0
LAYER
  5
204
100
AcDbSymbolTableRecord
100
AcDbLayerTableRecord
  2
DRAFT
 70
0
 62
7
  6
CONTINUOUS
370
-3
390
F
  0
LAYER
  5
205
100
AcDbSymbolTableRecord
100
AcDbLayerTableRecord
  2
IMPORT_FEATURES
 70
0
 62
7
  6
CONTINUOUS
370
-3
390
F
  0
LAYER
  5
206
100
AcDbSymbolTableRecord
100
AcDbLayerTableRecord
  2
IMPORT_IGES
 70
0
 62
7
  6
CONTINUOUS
370
-3
390
F
  0
LAYER
  5
207
100
AcDbSymbolTableRecord
100
AcDbLayerTableRecord
  2
INTFCLR_2
 70
0
 62
7
  6
CONTINUOUS
370
-3
390
F
  0
LAYER
  5
208
100
AcDbSymbolTableRecord
100
AcDbLayerTableRecord
  2
INTF_1
 70
0
 62
7
  6
CONTINUOUS
370
-3
390
F
  0
LAYER
  5
209
100
AcDbSymbolTableRecord
100
AcDbLayerTableRecord
  2
INTF_5
 70
0
 62
7
  6
CONTINUOUS
370
-3
390
F
  0
LAYER
  5
20A
100
AcDbSymbolTableRecord
100
AcDbLayerTableRecord
  2
INTF_CYAN
 70
0
 62
7
  6
CONTINUOUS
370
-3
390
F
  0
LAYER
  5
20B
100
AcDbSymbolTableRecord
100
AcDbLayerTableRecord
  2
INTF_YELLOW
 70
0
 62
7
  6
CONTINUOUS
370
-3
390
F
  0
LAYER
  5
20C
100
AcDbSymbolTableRecord
100
AcDbLayerTableRecord
  2
NOTE
 70
0
 62
7
  6
CONTINUOUS
370
-3
390
F
  0
LAYER
  5
20D
100
AcDbSymbolTableRecord
100
AcDbLayerTableRecord
  2
PIANI
 70
0
 62
7
  6
CONTINUOUS
370
-3
390
F
  0
LAYER
  5
20E
100
AcDbSymbolTableRecord
100
AcDbLayerTableRecord
  2
PIANI_ORIGINE
 70
0
 62
7
  6
CONTINUOUS
370
-3
390
F
  0
LAYER
  5
20F
100
AcDbSymbolTableRecord
100
AcDbLayerTableRecord
  2
PUNTI
 70
0
 62
7
  6
CONTINUOUS
370
-3
390
F
  0
LAYER
  5
210
100
AcDbSymbolTableRecord
100
AcDbLayerTableRecord
  2
RACCORDO
 70
0
 62
7
  6
CONTINUOUS
370
-3
390
F
  0
LAYER
  5
211
100
AcDbSymbolTableRecord
100
AcDbLayerTableRecord
  2
RGB____0____0____0__
 70
0
 62
7
  6
CONTINUOUS
370
-3
390
F
  0
LAYER
  5
212
100
AcDbSymbolTableRecord
100
AcDbLayerTableRecord
  2
SCRITTE
 70
0
 62
7
  6
CONTINUOUS
370
-3
390
F
  0
LAYER
  5
213
100
AcDbSymbolTableRecord
100
AcDbLayerTableRecord
  2
SMUSSO
 70
0
 62
7
  6
CONTINUOUS
370
-3
390
F
  0
LAYER
  5
214
100
AcDbSymbolTableRecord
100
AcDbLayerTableRecord
  2
SNAPLINE
 70
0
 62
7
  6
CONTINUOUS
370
-3
390
F
  0
LAYER
  5
215
100
AcDbSymbolTableRecord
100
AcDbLayerTableRecord
  2
SUPERFICI
 70
0
 62
7
  6
CONTINUOUS
370
-3
390
F
  0
LAYER
  5
216
100
AcDbSymbolTableRecord
100
AcDbLayerTableRecord
  2
TRASH
 70
0
 62
7
  6
CONTINUOUS
370
-3
390
F
  0
LAYER
  5
217
100
AcDbSymbolTableRecord
100
AcDbLayerTableRecord
  2
XSEC_DATUMS
 70
0
 62
7
  6
CONTINUOUS
370
-3
390
F
  0
ENDTAB
  0
TABLE
  2
STYLE
  5
3
100
AcDbSymbolTable
 70
1
  0
STYLE
  5
11
100
AcDbSymbolTableRecord
100
AcDbTextStyleTableRecord
  2
STANDARD
 70
0
 40
0.0
 41
0.8
 50
0.0
 71
0
 42
0.2
  3
txt
  4

  0
STYLE
  5
218
100
AcDbSymbolTableRecord
100
AcDbTextStyleTableRecord
  2
TEXTSTYLE_1
 70
0
 40
0.0
 41
0.8
 50
0.0
 71
0
 42
0.2
  3
gdt
  4

  0
ENDTAB
  0
TABLE
  2
VIEW
  5
6
100
AcDbSymbolTable
 70
0
  0
ENDTAB
  0
TABLE
  2
UCS
  5
7
100
AcDbSymbolTable
 70
0
  0
ENDTAB
  0
TABLE
  2
APPID
  5
9
100
AcDbSymbolTable
 70
1
  0
APPID
  5
219
100
AcDbSymbolTableRecord
100
AcDbRegAppTableRecord
  2
ACAD
 70
0
  0
ENDTAB
  0
TABLE
  2
BLOCK_RECORD
  5
1
100
AcDbSymbolTable
 70
0
  0
BLOCK_RECORD
  5
21A
100
AcDbSymbolTableRecord
100
AcDbBlockTableRecord
  2
*Model_Space
  0
BLOCK_RECORD
  5
21B
100
AcDbSymbolTableRecord
100
AcDbBlockTableRecord
  2
*Paper_Space
  0
ENDTAB
  0
TABLE
  2
DIMSTYLE
  5
A
100
AcDbSymbolTable
 70
1
100
AcDbDimStyleTable
 71
0
  0
DIMSTYLE
105
21C
100
AcDbSymbolTableRecord
100
AcDbDimStyleTableRecord
  2
STANDARD
 70
0
  3

  4

 40
1.0
 41
3.0
 42
0.0625
 43
0.38
 44
0.18
 45
0.0
 46
0.0
 47
0.01
 48
0.01
140
3.0
141
0.09
142
0.0
143
25.4
144
1.0
145
0.0
146
1.0
147
0.09
 71
1.0
 72
0.0
 73
0
 74
0
 75
0
 76
0
 77
1
 78
8
170
0
171
2
172
0
173
0
174
0
175
0
176
0
177
0
178
0
270
2
271
2
272
2
273
2
274
2
275
0
280
0
281
0
282
0
283
1
284
8
285
0
286
0
287
3
288
0
340
11
  0
ENDTAB
  0
ENDSEC
  0
SECTION
  2
BLOCKS
  0
BLOCK
  5
20
100
AcDbEntity
  8
0
100
AcDbBlockBegin
  2
*Model_Space
 70
0
 10
0.0
 20
0.0
 30
0.0
  3
*Model_Space
  1

  0
ENDBLK
  5
21
100
AcDbEntity
  8
0
100
AcDbBlockEnd
  0
BLOCK
  5
1C
100
AcDbEntity
  8
0
100
AcDbBlockBegin
  2
*Paper_Space
 70
0
 10
0.0
 20
0.0
 30
0.0
  3
*Paper_Space
  1

  0
ENDBLK
  5
1D
100
AcDbEntity
  8
0
100
AcDbBlockEnd
  0
ENDSEC
  0
SECTION
  2
ENTITIES
  0
LINE
  5
21D
100
AcDbEntity
  8
ASSI
100
AcDbLine
 62
7
  6
CONTINUOUS
 10
-7.7236860843
 20
21.335766552
 11
-7.5857910714
 21
21.7497880083
  0
LINE
  5
21E
100
AcDbEntity
  8
DRAFT
100
AcDbLine
 62
7
  6
CONTINUOUS
 10
-7.7236860843
 20
21.335766552
 11
-7.5857910714
 21
21.7497880083
  0
LINE
  5
21F
100
AcDbEntity
  8
DRAFT
100
AcDbLine
 62
7
  6
CONTINUOUS
 10
-11.1954154181
 20
9.4568835927
 11
-11.0112785077
 21
9.8251854627
  0
LINE
  5
220
100
AcDbEntity
  8
ASSI
100
AcDbLine
 62
7
  6
CONTINUOUS
 10
-11.1954154181
 20
9.4568835927
 11
-11.0112785077
 21
9.8251854627
  0
LINE
  5
221
100
AcDbEntity
  8
DRAFT
100
AcDbLine
 62
7
  6
CONTINUOUS
 10
-7.9527558919
 20
18.0997880083
 11
-8.0007536647
 21
18.0517902355
  0
LINE
  5
222
100
AcDbEntity
  8
ASSI
100
AcDbLine
 62
7
  6
CONTINUOUS
 10
-7.9527558919
 20
18.0997880083
 11
-8.0007536647
 21
18.0517902355
  0
LINE
  5
223
100
AcDbEntity
  8
ASSI
100
AcDbLine
 62
7
  6
CONTINUOUS
 10
-9.009038682
 20
16.2935052182
 11
-9.0027558919
 21
16.2997880083
  0
LINE
  5
224
100
AcDbEntity
  8
RACCORDO
100
AcDbLine
 62
7
  6
CONTINUOUS
 10
-9.009038682
 20
16.2935052182
 11
-9.0027558919
 21
16.2997880083
  0
LINE
  5
225
100
AcDbEntity
  8
DRAFT
100
AcDbLine
 62
7
  6
CONTINUOUS
 10
-10.0442332761
 20
13.9083106241
 11
-9.7527558919
 21
14.1997880083
  0
LINE
  5
226
100
AcDbEntity
  8
ASSI
100
AcDbLine
 62
7
  6
CONTINUOUS
 10
-10.0442332761
 20
13.9083106241
 11
-9.7527558919
 21
14.1997880083
  0
LINE
  5
227
100
AcDbEntity
  8
DRAFT
100
AcDbLine
 62
7
  6
CONTINUOUS
 10
-9.7900245698
 20
13.9083106241
 11
-9.7027558919
 21
13.995579302
  0
LINE
  5
228
100
AcDbEntity
  8
ASSI
100
AcDbLine
 62
7
  6
CONTINUOUS
 10
-9.7900245698
 20
13.9083106241
 11
-9.7027558919
 21
13.995579302
  0
LINE
  5
229
100
AcDbEntity
  8
ASSI
100
AcDbLine
 62
7
  6
CONTINUOUS
 10
-7.428695487
 20
18.247272074
 11
-7.7236860843
 21
18.0997880083
  0
LINE
  5
22A
100
AcDbEntity
  8
DRAFT
100
AcDbLine
 62
7
  6
CONTINUOUS
 10
-7.428695487
 20
18.247272074
 11
-7.7236860843
 21
18.0997880083
  0
LINE
  5
22B
100
AcDbEntity
  8
ASSI
100
AcDbLine
 62
7
  6
CONTINUOUS
 10
-4.1760932395
 20
-22.6502119917
 11
-3.2027558919
 21
-22.6502119917
  0
LINE
  5
22C
100
AcDbEntity
  8
DRAFT
100
AcDbLine
 62
7
  6
CONTINUOUS
 10
-4.1760932395
 20
-22.6502119917
 11
-3.2027558919
 21
-22.6502119917
  0
LINE
  5
22D
100
AcDbEntity
  8
ASSI
100
AcDbLine
 62
7
  6
CONTINUOUS
 10
2.7972441081
 20
-22.6502119917
 11
3.7705814557
 21
-22.6502119917
  0
LINE
  5
22E
100
AcDbEntity
  8
DRAFT
100
AcDbLine
 62
7
  6
CONTINUOUS
 10
2.7972441081
 20
-22.6502119917
 11
3.7705814557
 21
-22.6502119917
  0
LINE
  5
22F
100
AcDbEntity
  8
ASSI
100
AcDbLine
 62
7
  6
CONTINUOUS
 10
2.7972441081
 20
-22.6502119917
 11
2.5785224493
 21
-22.6065743294
  0
LINE
  5
230
100
AcDbEntity
  8
DRAFT
100
AcDbLine
 62
7
  6
CONTINUOUS
 10
2.7972441081
 20
-22.6502119917
 11
2.5785224493
 21
-22.6065743294
  0
LINE
  5
231
100
AcDbEntity
  8
ASSI
100
AcDbLine
 62
7
  6
CONTINUOUS
 10
-7.428695487
 20
-17.8976960573
 11
-7.7236860843
 21
-17.7502119917
  0
LINE
  5
232
100
AcDbEntity
  8
DRAFT
100
AcDbLine
 62
7
  6
CONTINUOUS
 10
-7.428695487
 20
-17.8976960573
 11
-7.7236860843
 21
-17.7502119917
  0
LINE
  5
233
100
AcDbEntity
  8
ASSI
100
AcDbLine
 62
7
  6
CONTINUOUS
 10
-7.7236860843
 20
-19.6361905353
 11
-7.5857910714
 21
-20.0502119917
  0
LINE
  5
234
100
AcDbEntity
  8
DRAFT
100
AcDbLine
 62
7
  6
CONTINUOUS
 10
-7.7236860843
 20
-19.6361905353
 11
-7.5857910714
 21
-20.0502119917
  0
LINE
  5
235
100
AcDbEntity
  8
CURVE
100
AcDbLine
 62
253
  6
CONTINUOUS
 10
-11.0748599727
 20
-6.4716404993
 11
-11.0717432344
 21
-6.8287834096
  0
LINE
  5
236
100
AcDbEntity
  8
CURVE
100
AcDbLine
 62
253
  6
CONTINUOUS
 10
-11.0343423724
 20
-7.9002119917
 11
-11.0374591111
 21
-7.5430691186
  0
LINE
  5
237
100
AcDbEntity
  8
CURVE
100
AcDbLine
 62
253
  6
CONTINUOUS
 10
-11.0296672646
 20
-6.4716404993
 11
-11.0265505263
 21
-6.8287834096
  0
LINE
  5
238
100
AcDbEntity
  8
ASSI
100
AcDbLine
 62
7
  6
CONTINUOUS
 10
-11.3527558919
 20
22.7495591562
 11
-11.3527558919
 21
-21.0499831396
  0
LINE
  5
239
100
AcDbEntity
  8
0
100
AcDbLine
 62
7
  6
CONTINUOUS
 10
-11.3527558919
 20
22.7495591562
 11
-11.3527558919
 21
-21.0499831396
  0
LINE
  5
23A
100
AcDbEntity
  8
DRAFT
100
AcDbLine
 62
7
  6
CONTINUOUS
 10
-11.3027558919
 20
-16.4002119917
 11
-11.3027558919
 21
18.0997880083
  0
LINE
  5
23B
100
AcDbEntity
  8
ASSI
100
AcDbLine
 62
7
  6
CONTINUOUS
 10
-11.3027558919
 20
-16.4002119917
 11
-11.3027558919
 21
18.0997880083
  0
LINE
  5
23C
100
AcDbEntity
  8
DRAFT
100
AcDbLine
 62
7
  6
CONTINUOUS
 10
-11.2739572282
 20
-4.1002119917
 11
-11.2739572282
 21
3.2997880083
  0
LINE
  5
23D
100
AcDbEntity
  8
ASSI
100
AcDbLine
 62
7
  6
CONTINUOUS
 10
-11.2739572282
 20
-4.1002119917
 11
-11.2739572282
 21
3.2997880083
  0
LINE
  5
23E
100
AcDbEntity
  8
DRAFT
100
AcDbLine
 62
7
  6
CONTINUOUS
 10
-11.1954154181
 20
5.2997880083
 11
-11.1954154181
 21
9.4568835927
  0
LINE
  5
23F
100
AcDbEntity
  8
ASSI
100
AcDbLine
 62
7
  6
CONTINUOUS
 10
-11.1954154181
 20
5.2997880083
 11
-11.1954154181
 21
9.4568835927
  0
LINE
  5
240
100
AcDbEntity
  8
CURVE
100
AcDbLine
 62
253
  6
CONTINUOUS
 10
-11.1174553989
 20
-6.6502119917
 11
-11.1174553989
 21
-7.9002119917
  0
LINE
  5
241
100
AcDbEntity
  8
CURVE
100
AcDbLine
 62
253
  6
CONTINUOUS
 10
-11.08109345
 20
-5.4002119917
 11
-11.08109345
 21
-6.4716404993
  0
LINE
  5
242
100
AcDbEntity
  8
CURVE
100
AcDbLine
 62
253
  6
CONTINUOUS
 10
-11.0717432344
 20
-6.8287834096
 11
-11.0717432344
 21
-7.5430691186
  0
LINE
  5
243
100
AcDbEntity
  8
CURVE
100
AcDbLine
 62
253
  6
CONTINUOUS
 10
-11.0374591111
 20
-7.5430691186
 11
-11.0374591111
 21
-6.6502119917
  0
LINE
  5
244
100
AcDbEntity
  8
CURVE
100
AcDbLine
 62
253
  6
CONTINUOUS
 10
-11.0265505263
 20
-6.8287834096
 11
-11.0265505263
 21
-7.5430691186
  0
LINE
  5
245
100
AcDbEntity
  8
DRAFT
100
AcDbLine
 62
7
  6
CONTINUOUS
 10
-11.0112785077
 20
-16.1087346075
 11
-11.0112785077
 21
-4.625609446
  0
LINE
  5
246
100
AcDbEntity
  8
ASSI
100
AcDbLine
 62
7
  6
CONTINUOUS
 10
-11.0112785077
 20
-16.1087346075
 11
-11.0112785077
 21
-4.625609446
  0
LINE
  5
247
100
AcDbEntity
  8
DRAFT
100
AcDbLine
 62
7
  6
CONTINUOUS
 10
-11.0112785077
 20
9.8251854627
 11
-11.0112785077
 21
17.8083106241
  0
LINE
  5
248
100
AcDbEntity
  8
ASSI
100
AcDbLine
 62
7
  6
CONTINUOUS
 10
-11.0112785077
 20
9.8251854627
 11
-11.0112785077
 21
17.8083106241
  0
LINE
  5
249
100
AcDbEntity
  8
DRAFT
100
AcDbLine
 62
7
  6
CONTINUOUS
 10
-10.2027558919
 20
1.5997880083
 11
-10.2027558919
 21
-0.4002119917
  0
LINE
  5
24A
100
AcDbEntity
  8
ASSI
100
AcDbLine
 62
7
  6
CONTINUOUS
 10
-10.2027558919
 20
1.5997880083
 11
-10.2027558919
 21
-0.4002119917
  0
LINE
  5
24B
100
AcDbEntity
  8
DRAFT
100
AcDbLine
 62
7
  6
CONTINUOUS
 10
-10.2027558919
 20
-1.4002119917
 11
-10.2027558919
 21
-3.4002119917
  0
LINE
  5
24C
100
AcDbEntity
  8
ASSI
100
AcDbLine
 62
7
  6
CONTINUOUS
 10
-10.2027558919
 20
-1.4002119917
 11
-10.2027558919
 21
-3.4002119917
  0
LINE
  5
24D
100
AcDbEntity
  8
DRAFT
100
AcDbLine
 62
7
  6
CONTINUOUS
 10
-10.0442332761
 20
-11.7161246057
 11
-10.0442332761
 21
-8.8087346075
  0
LINE
  5
24E
100
AcDbEntity
  8
ASSI
100
AcDbLine
 62
7
  6
CONTINUOUS
 10
-10.0442332761
 20
-11.7161246057
 11
-10.0442332761
 21
-8.8087346075
  0
LINE
  5
24F
100
AcDbEntity
  8
DRAFT
100
AcDbLine
 62
7
  6
CONTINUOUS
 10
-10.0442332761
 20
13.9083106241
 11
-10.0442332761
 21
16.7912653925
  0
LINE
  5
250
100
AcDbEntity
  8
ASSI
100
AcDbLine
 62
7
  6
CONTINUOUS
 10
-10.0442332761
 20
13.9083106241
 11
-10.0442332761
 21
16.7912653925
  0
LINE
  5
251
100
AcDbEntity
  8
DRAFT
100
AcDbLine
 62
7
  6
CONTINUOUS
 10
-9.9758400478
 20
-3.1732961476
 11
-9.9758400478
 21
1.3728721642
  0
LINE
  5
252
100
AcDbEntity
  8
ASSI
100
AcDbLine
 62
7
  6
CONTINUOUS
 10
-9.9758400478
 20
-3.1732961476
 11
-9.9758400478
 21
1.3728721642
  0
LINE
  5
253
100
AcDbEntity
  8
ASSI
100
AcDbLine
 62
7
  6
CONTINUOUS
 10
-9.9216981474
 20
21.7497880083
 11
-9.9216981474
 21
18.0997880083
  0
LINE
  5
254
100
AcDbEntity
  8
DRAFT
100
AcDbLine
 62
7
  6
CONTINUOUS
 10
-9.9216981474
 20
21.7497880083
 11
-9.9216981474
 21
18.0997880083
  0
LINE
  5
255
100
AcDbEntity
  8
ASSI
100
AcDbLine
 62
7
  6
CONTINUOUS
 10
-9.9216981474
 20
-16.4002119917
 11
-9.9216981474
 21
-20.0502119917
  0
LINE
  5
256
100
AcDbEntity
  8
DRAFT
100
AcDbLine
 62
7
  6
CONTINUOUS
 10
-9.9216981474
 20
-16.4002119917
 11
-9.9216981474
 21
-20.0502119917
  0
LINE
  5
257
100
AcDbEntity
  8
ASSI
100
AcDbLine
 62
7
  6
CONTINUOUS
 10
-9.8527558919
 20
-19.6361905353
 11
-9.8527558919
 21
-16.4002119917
  0
LINE
  5
258
100
AcDbEntity
  8
DRAFT
100
AcDbLine
 62
7
  6
CONTINUOUS
 10
-9.8527558919
 20
-19.6361905353
 11
-9.8527558919
 21
-16.4002119917
  0
LINE
  5
259
100
AcDbEntity
  8
ASSI
100
AcDbLine
 62
7
  6
CONTINUOUS
 10
-9.8527558919
 20
18.0997880083
 11
-9.8527558919
 21
21.335766552
  0
LINE
  5
25A
100
AcDbEntity
  8
SMUSSO
100
AcDbLine
 62
7
  6
CONTINUOUS
 10
-9.8527558919
 20
18.0997880083
 11
-9.8527558919
 21
21.335766552
  0
LINE
  5
25B
100
AcDbEntity
  8
DRAFT
100
AcDbLine
 62
7
  6
CONTINUOUS
 10
-9.831297702
 20
5.2997880083
 11
-9.831297702
 21
9.4568835927
  0
LINE
  5
25C
100
AcDbEntity
  8
ASSI
100
AcDbLine
 62
7
  6
CONTINUOUS
 10
-9.831297702
 20
5.2997880083
 11
-9.831297702
 21
9.4568835927
  0
LINE
  5
25D
100
AcDbEntity
  8
CURVE
100
AcDbLine
 62
253
  6
CONTINUOUS
 10
-11.1200526812
 20
-5.4002119917
 11
-11.124727789
 21
-7.3644977006
  0
LINE
  5
25E
100
AcDbEntity
  8
CURVE
100
AcDbLine
 62
253
  6
CONTINUOUS
 10
-11.0374591111
 20
-6.6502119917
 11
-11.0343423724
 21
-5.93592632
  0
LINE
  5
25F
100
AcDbEntity
  8
CURVE
100
AcDbLine
 62
253
  6
CONTINUOUS
 10
-11.0717432344
 20
-7.5430691186
 11
-11.0748599727
 21
-7.9002119917
  0
LINE
  5
260
100
AcDbEntity
  8
CURVE
100
AcDbLine
 62
253
  6
CONTINUOUS
 10
-11.0343423724
 20
-5.93592632
 11
-11.0296672646
 21
-5.4002119917
  0
LINE
  5
261
100
AcDbEntity
  8
CURVE
100
AcDbLine
 62
253
  6
CONTINUOUS
 10
-11.0265505263
 20
-7.5430691186
 11
-11.0296672646
 21
-7.9002119917
  0
LINE
  5
262
100
AcDbEntity
  8
DRAFT
100
AcDbLine
 62
7
  6
CONTINUOUS
 10
-11.2739572282
 20
3.2997880083
 11
-11.1954154181
 21
5.2997880083
  0
LINE
  5
263
100
AcDbEntity
  8
ASSI
100
AcDbLine
 62
7
  6
CONTINUOUS
 10
-11.2739572282
 20
3.2997880083
 11
-11.1954154181
 21
5.2997880083
  0
LINE
  5
264
100
AcDbEntity
  8
DRAFT
100
AcDbLine
 62
7
  6
CONTINUOUS
 10
-8.1569645982
 20
13.995579302
 11
-7.9283206621
 21
14.2242232381
  0
LINE
  5
265
100
AcDbEntity
  8
ASSI
100
AcDbLine
 62
7
  6
CONTINUOUS
 10
-8.1569645982
 20
13.995579302
 11
-7.9283206621
 21
14.2242232381
  0
LINE
  5
266
100
AcDbEntity
  8
ASSI
100
AcDbLine
 62
7
  6
CONTINUOUS
 10
-0.6716981474
 20
21.2808457528
 11
-0.5329409496
 21
21.4196029506
  0
LINE
  5
267
100
AcDbEntity
  8
DRAFT
100
AcDbLine
 62
7
  6
CONTINUOUS
 10
-0.6716981474
 20
21.2808457528
 11
-0.5329409496
 21
21.4196029506
  0
LINE
  5
268
100
AcDbEntity
  8
DRAFT
100
AcDbLine
 62
7
  6
CONTINUOUS
 10
-7.8960312513
 20
12.8320774191
 11
-7.9283206621
 21
12.7997880083
  0
LINE
  5
269
100
AcDbEntity
  8
ASSI
100
AcDbLine
 62
7
  6
CONTINUOUS
 10
-7.8960312513
 20
12.8320774191
 11
-7.9283206621
 21
12.7997880083
  0
LINE
  5
26A
100
AcDbEntity
  8
RACCORDO
100
AcDbLine
 62
7
  6
CONTINUOUS
 10
-8.9527558919
 20
11.0997880083
 11
-9.0636002337
 21
10.9889436666
  0
LINE
  5
26B
100
AcDbEntity
  8
ASSI
100
AcDbLine
 62
7
  6
CONTINUOUS
 10
-8.9527558919
 20
11.0997880083
 11
-9.0636002337
 21
10.9889436666
  0
LINE
  5
26C
100
AcDbEntity
  8
ASSI
100
AcDbLine
 62
7
  6
CONTINUOUS
 10
-2.9840342331
 20
-22.6065743294
 11
2.5785224493
 21
-22.6065743294
  0
LINE
  5
26D
100
AcDbEntity
  8
DRAFT
100
AcDbLine
 62
7
  6
CONTINUOUS
 10
-2.9840342331
 20
-22.6065743294
 11
2.5785224493
 21
-22.6065743294
  0
LINE
  5
26E
100
AcDbEntity
  8
ASSI
100
AcDbLine
 62
7
  6
CONTINUOUS
 10
-4.1554404464
 20
-22.580391732
 11
3.7499286626
 21
-22.580391732
  0
LINE
  5
26F
100
AcDbEntity
  8
DRAFT
100
AcDbLine
 62
7
  6
CONTINUOUS
 10
-4.1554404464
 20
-22.580391732
 11
3.7499286626
 21
-22.580391732
  0
LINE
  5
270
100
AcDbEntity
  8
ASSI
100
AcDbLine
 62
7
  6
CONTINUOUS
 10
-10.8531364916
 20
-21.5502119917
 11
-5.7527558919
 21
-21.5502119917
  0
LINE
  5
271
100
AcDbEntity
  8
DRAFT
100
AcDbLine
 62
7
  6
CONTINUOUS
 10
-10.8531364916
 20
-21.5502119917
 11
-5.7527558919
 21
-21.5502119917
  0
LINE
  5
272
100
AcDbEntity
  8
ASSI
100
AcDbLine
 62
7
  6
CONTINUOUS
 10
5.3472441081
 20
-21.5502119917
 11
10.4476247078
 21
-21.5502119917
  0
LINE
  5
273
100
AcDbEntity
  8
DRAFT
100
AcDbLine
 62
7
  6
CONTINUOUS
 10
5.3472441081
 20
-21.5502119917
 11
10.4476247078
 21
-21.5502119917
  0
LINE
  5
274
100
AcDbEntity
  8
ASSI
100
AcDbLine
 62
7
  6
CONTINUOUS
 10
2.8972441081
 20
-21.3502119917
 11
-3.3027558919
 21
-21.3502119917
  0
LINE
  5
275
100
AcDbEntity
  8
0
100
AcDbLine
 62
7
  6
CONTINUOUS
 10
2.8972441081
 20
-21.3502119917
 11
-3.3027558919
 21
-21.3502119917
  0
LINE
  5
276
100
AcDbEntity
  8
ASSI
100
AcDbLine
 62
7
  6
CONTINUOUS
 10
6.7311639365
 20
-20.3502119917
 11
-7.1366757203
 21
-20.3502119917
  0
LINE
  5
277
100
AcDbEntity
  8
DRAFT
100
AcDbLine
 62
7
  6
CONTINUOUS
 10
6.7311639365
 20
-20.3502119917
 11
-7.1366757203
 21
-20.3502119917
  0
LINE
  5
278
100
AcDbEntity
  8
ASSI
100
AcDbLine
 62
7
  6
CONTINUOUS
 10
6.6641061513
 20
-20.3150470176
 11
3.5472441081
 21
-20.3150470176
  0
LINE
  5
279
100
AcDbEntity
  8
DRAFT
100
AcDbLine
 62
7
  6
CONTINUOUS
 10
6.6641061513
 20
-20.3150470176
 11
3.5472441081
 21
-20.3150470176
  0
LINE
  5
27A
100
AcDbEntity
  8
ASSI
100
AcDbLine
 62
7
  6
CONTINUOUS
 10
-3.9527558919
 20
-20.3150470176
 11
-7.0696179351
 21
-20.3150470176
  0
LINE
  5
27B
100
AcDbEntity
  8
DRAFT
100
AcDbLine
 62
7
  6
CONTINUOUS
 10
-3.9527558919
 20
-20.3150470176
 11
-7.0696179351
 21
-20.3150470176
  0
LINE
  5
27C
100
AcDbEntity
  8
ASSI
100
AcDbLine
 62
7
  6
CONTINUOUS
 10
-9.9216981474
 20
-20.0502119917
 11
-7.5857910714
 21
-20.0502119917
  0
LINE
  5
27D
100
AcDbEntity
  8
DRAFT
100
AcDbLine
 62
7
  6
CONTINUOUS
 10
-9.9216981474
 20
-20.0502119917
 11
-7.5857910714
 21
-20.0502119917
  0
LINE
  5
27E
100
AcDbEntity
  8
ASSI
100
AcDbLine
 62
7
  6
CONTINUOUS
 10
7.1802792876
 20
-20.0502119917
 11
9.5161863637
 21
-20.0502119917
  0
LINE
  5
27F
100
AcDbEntity
  8
DRAFT
100
AcDbLine
 62
7
  6
CONTINUOUS
 10
7.1802792876
 20
-20.0502119917
 11
9.5161863637
 21
-20.0502119917
  0
LINE
  5
280
100
AcDbEntity
  8
ASSI
100
AcDbLine
 62
7
  6
CONTINUOUS
 10
-0.6716981474
 20
-19.5812697361
 11
-0.5329409496
 21
-19.720026934
  0
LINE
  5
281
100
AcDbEntity
  8
DRAFT
100
AcDbLine
 62
7
  6
CONTINUOUS
 10
-0.6716981474
 20
-19.5812697361
 11
-0.5329409496
 21
-19.720026934
  0
LINE
  5
282
100
AcDbEntity
  8
ASSI
100
AcDbLine
 62
7
  6
CONTINUOUS
 10
-9.009038682
 20
-11.1939292015
 11
-9.0027558919
 21
-11.2002119917
  0
LINE
  5
283
100
AcDbEntity
  8
RACCORDO
100
AcDbLine
 62
7
  6
CONTINUOUS
 10
-9.009038682
 20
-11.1939292015
 11
-9.0027558919
 21
-11.2002119917
  0
LINE
  5
284
100
AcDbEntity
  8
DRAFT
100
AcDbLine
 62
7
  6
CONTINUOUS
 10
-10.0442332761
 20
-8.8087346075
 11
-9.7527558919
 21
-9.1002119917
  0
LINE
  5
285
100
AcDbEntity
  8
ASSI
100
AcDbLine
 62
7
  6
CONTINUOUS
 10
-10.0442332761
 20
-8.8087346075
 11
-9.7527558919
 21
-9.1002119917
  0
LINE
  5
286
100
AcDbEntity
  8
DRAFT
100
AcDbLine
 62
7
  6
CONTINUOUS
 10
-9.7900245698
 20
-8.8087346075
 11
-9.7027558919
 21
-8.8960032854
  0
LINE
  5
287
100
AcDbEntity
  8
ASSI
100
AcDbLine
 62
7
  6
CONTINUOUS
 10
-9.7900245698
 20
-8.8087346075
 11
-9.7027558919
 21
-8.8960032854
  0
LINE
  5
288
100
AcDbEntity
  8
DRAFT
100
AcDbLine
 62
7
  6
CONTINUOUS
 10
-8.7136892388
 20
-8.8960032854
 11
-8.4850453027
 21
-9.1246472215
  0
LINE
  5
289
100
AcDbEntity
  8
ASSI
100
AcDbLine
 62
7
  6
CONTINUOUS
 10
-8.7136892388
 20
-8.8960032854
 11
-8.4850453027
 21
-9.1246472215
  0
LINE
  5
28A
100
AcDbEntity
  8
0
100
AcDbLine
 62
7
  6
CONTINUOUS
 10
-8.3027558919
 20
-8.4002119917
 11
-7.7027558919
 21
-9.4002119917
  0
LINE
  5
28B
100
AcDbEntity
  8
DRAFT
100
AcDbLine
 62
7
  6
CONTINUOUS
 10
-11.2739572282
 20
-4.1002119917
 11
-11.0112785077
 21
-4.625609446
  0
LINE
  5
28C
100
AcDbEntity
  8
ASSI
100
AcDbLine
 62
7
  6
CONTINUOUS
 10
-11.2739572282
 20
-4.1002119917
 11
-11.0112785077
 21
-4.625609446
  0
LINE
  5
28D
100
AcDbEntity
  8
RACCORDO
100
AcDbLine
 62
7
  6
CONTINUOUS
 10
-9.6027558919
 20
-5.7661772073
 11
-9.6993669228
 21
-5.568889071
  0
LINE
  5
28E
100
AcDbEntity
  8
ASSI
100
AcDbLine
 62
7
  6
CONTINUOUS
 10
-9.6027558919
 20
-5.7661772073
 11
-9.6993669228
 21
-5.568889071
  0
LINE
  5
28F
100
AcDbEntity
  8
DRAFT
100
AcDbLine
 62
7
  6
CONTINUOUS
 10
-9.7527558919
 20
3.2997880083
 11
-9.831297702
 21
5.2997880083
  0
LINE
  5
290
100
AcDbEntity
  8
ASSI
100
AcDbLine
 62
7
  6
CONTINUOUS
 10
-9.7527558919
 20
3.2997880083
 11
-9.831297702
 21
5.2997880083
  0
LINE
  5
291
100
AcDbEntity
  8
DRAFT
100
AcDbLine
 62
7
  6
CONTINUOUS
 10
-9.7900245698
 20
13.9083106241
 11
-9.7900245698
 21
9.8251854627
  0
LINE
  5
292
100
AcDbEntity
  8
ASSI
100
AcDbLine
 62
7
  6
CONTINUOUS
 10
-9.7900245698
 20
13.9083106241
 11
-9.7900245698
 21
9.8251854627
  0
LINE
  5
293
100
AcDbEntity
  8
DRAFT
100
AcDbLine
 62
7
  6
CONTINUOUS
 10
-9.7900245698
 20
-4.625609446
 11
-9.7900245698
 21
-8.8087346075
  0
LINE
  5
294
100
AcDbEntity
  8
ASSI
100
AcDbLine
 62
7
  6
CONTINUOUS
 10
-9.7900245698
 20
-4.625609446
 11
-9.7900245698
 21
-8.8087346075
  0
LINE
  5
295
100
AcDbEntity
  8
DRAFT
100
AcDbLine
 62
7
  6
CONTINUOUS
 10
-9.7527558919
 20
9.2997880083
 11
-9.7527558919
 21
3.2997880083
  0
LINE
  5
296
100
AcDbEntity
  8
ASSI
100
AcDbLine
 62
7
  6
CONTINUOUS
 10
-9.7527558919
 20
9.2997880083
 11
-9.7527558919
 21
3.2997880083
  0
LINE
  5
297
100
AcDbEntity
  8
DRAFT
100
AcDbLine
 62
7
  6
CONTINUOUS
 10
-9.7527558919
 20
-9.1002119917
 11
-9.7527558919
 21
-11.4246472215
  0
LINE
  5
298
100
AcDbEntity
  8
ASSI
100
AcDbLine
 62
7
  6
CONTINUOUS
 10
-9.7527558919
 20
-9.1002119917
 11
-9.7527558919
 21
-11.4246472215
  0
LINE
  5
299
100
AcDbEntity
  8
DRAFT
100
AcDbLine
 62
7
  6
CONTINUOUS
 10
-9.7527558919
 20
14.1997880083
 11
-9.7527558919
 21
16.4997880083
  0
LINE
  5
29A
100
AcDbEntity
  8
ASSI
100
AcDbLine
 62
7
  6
CONTINUOUS
 10
-9.7527558919
 20
14.1997880083
 11
-9.7527558919
 21
16.4997880083
  0
LINE
  5
29B
100
AcDbEntity
  8
RACCORDO
100
AcDbLine
 62
7
  6
CONTINUOUS
 10
-9.7027558919
 20
13.995579302
 11
-9.7027558919
 21
9.6506348134
  0
LINE
  5
29C
100
AcDbEntity
  8
ASSI
100
AcDbLine
 62
7
  6
CONTINUOUS
 10
-9.7027558919
 20
13.995579302
 11
-9.7027558919
 21
9.6506348134
  0
LINE
  5
29D
100
AcDbEntity
  8
DRAFT
100
AcDbLine
 62
7
  6
CONTINUOUS
 10
-9.7027558919
 20
-11.7161246057
 11
-9.7027558919
 21
-15.0916893759
  0
LINE
  5
29E
100
AcDbEntity
  8
ASSI
100
AcDbLine
 62
7
  6
CONTINUOUS
 10
-9.7027558919
 20
-11.7161246057
 11
-9.7027558919
 21
-15.0916893759
  0
LINE
  5
29F
100
AcDbEntity
  8
RACCORDO
100
AcDbLine
 62
7
  6
CONTINUOUS
 10
-9.7027558919
 20
-8.8960032854
 11
-9.7027558919
 21
-4.4510587967
  0
LINE
  5
2A0
100
AcDbEntity
  8
ASSI
100
AcDbLine
 62
7
  6
CONTINUOUS
 10
-9.7027558919
 20
-8.8960032854
 11
-9.7027558919
 21
-4.4510587967
  0
LINE
  5
2A1
100
AcDbEntity
  8
DRAFT
100
AcDbLine
 62
7
  6
CONTINUOUS
 10
-9.6549777373
 20
-11.4002119917
 11
-9.6549777373
 21
-11.2002119917
  0
LINE
  5
2A2
100
AcDbEntity
  8
ASSI
100
AcDbLine
 62
7
  6
CONTINUOUS
 10
-9.6549777373
 20
-11.4002119917
 11
-9.6549777373
 21
-11.2002119917
  0
LINE
  5
2A3
100
AcDbEntity
  8
DRAFT
100
AcDbLine
 62
7
  6
CONTINUOUS
 10
-9.6549777373
 20
-9.4002119917
 11
-9.6549777373
 21
-9.1246472215
  0
LINE
  5
2A4
100
AcDbEntity
  8
ASSI
100
AcDbLine
 62
7
  6
CONTINUOUS
 10
-9.6549777373
 20
-9.4002119917
 11
-9.6549777373
 21
-9.1246472215
  0
LINE
  5
2A5
100
AcDbEntity
  8
DRAFT
100
AcDbLine
 62
7
  6
CONTINUOUS
 10
-9.6549777373
 20
14.2242232381
 11
-9.6549777373
 21
14.4997880083
  0
LINE
  5
2A6
100
AcDbEntity
  8
ASSI
100
AcDbLine
 62
7
  6
CONTINUOUS
 10
-9.6549777373
 20
14.2242232381
 11
-9.6549777373
 21
14.4997880083
  0
LINE
  5
2A7
100
AcDbEntity
  8
DRAFT
100
AcDbLine
 62
7
  6
CONTINUOUS
 10
-9.6549777373
 20
16.2997880083
 11
-9.6549777373
 21
16.4753527785
  0
LINE
  5
2A8
100
AcDbEntity
  8
ASSI
100
AcDbLine
 62
7
  6
CONTINUOUS
 10
-9.6549777373
 20
16.2997880083
 11
-9.6549777373
 21
16.4753527785
  0
LINE
  5
2A9
100
AcDbEntity
  8
0
100
AcDbLine
 62
7
  6
CONTINUOUS
 10
-9.6027558919
 20
-7.6342467761
 11
-9.6027558919
 21
-5.7661772073
  0
LINE
  5
2AA
100
AcDbEntity
  8
ASSI
100
AcDbLine
 62
7
  6
CONTINUOUS
 10
-9.6027558919
 20
-7.6342467761
 11
-9.6027558919
 21
-5.7661772073
  0
LINE
  5
2AB
100
AcDbEntity
  8
ASSI
100
AcDbLine
 62
7
  6
CONTINUOUS
 10
-9.4527558919
 20
-7.5002119917
 11
-9.4527558919
 21
-5.9002119917
  0
LINE
  5
2AC
100
AcDbEntity
  8
DRAFT
100
AcDbLine
 62
7
  6
CONTINUOUS
 10
-9.4243688094
 20
-14.8133022934
 11
-9.4243688094
 21
-11.4377375232
  0
LINE
  5
2AD
100
AcDbEntity
  8
ASSI
100
AcDbLine
 62
7
  6
CONTINUOUS
 10
-9.4243688094
 20
-14.8133022934
 11
-9.4243688094
 21
-11.4377375232
  0
LINE
  5
2AE
100
AcDbEntity
  8
RACCORDO
100
AcDbLine
 62
253
  6
CONTINUOUS
 10
-9.2527558919
 20
1.3728721642
 11
-9.2527558919
 21
-3.1732961476
  0
LINE
  5
2AF
100
AcDbEntity
  8
ASSI
100
AcDbLine
 62
253
  6
CONTINUOUS
 10
-9.2527558919
 20
1.3728721642
 11
-9.2527558919
 21
-3.1732961476
  0
LINE
  5
2B0
100
AcDbEntity
  8
ASSI
100
AcDbLine
 62
253
  6
CONTINUOUS
 10
-9.0993865075
 20
16.2886516277
 11
-9.0993865075
 21
14.510924389
  0
LINE
  5
2B1
100
AcDbEntity
  8
RACCORDO
100
AcDbLine
 62
253
  6
CONTINUOUS
 10
-9.0993865075
 20
16.2886516277
 11
-9.0993865075
 21
14.510924389
  0
LINE
  5
2B2
100
AcDbEntity
  8
ASSI
100
AcDbLine
 62
253
  6
CONTINUOUS
 10
-9.0993865075
 20
-9.4113483723
 11
-9.0993865075
 21
-11.189075611
  0
LINE
  5
2B3
100
AcDbEntity
  8
RACCORDO
100
AcDbLine
 62
253
  6
CONTINUOUS
 10
-9.0993865075
 20
-9.4113483723
 11
-9.0993865075
 21
-11.189075611
  0
LINE
  5
2B4
100
AcDbEntity
  8
RACCORDO
100
AcDbLine
 62
7
  6
CONTINUOUS
 10
-9.0636715709
 20
12.8108707844
 11
-9.0636715709
 21
10.9887052322
  0
LINE
  5
2B5
100
AcDbEntity
  8
ASSI
100
AcDbLine
 62
7
  6
CONTINUOUS
 10
-9.0636715709
 20
12.8108707844
 11
-9.0636715709
 21
10.9887052322
  0
LINE
  5
2B6
100
AcDbEntity
  8
ASSI
100
AcDbLine
 62
253
  6
CONTINUOUS
 10
-9.009038682
 20
16.2935052182
 11
-9.009038682
 21
14.5060707985
  0
LINE
  5
2B7
100
AcDbEntity
  8
RACCORDO
100
AcDbLine
 62
253
  6
CONTINUOUS
 10
-9.009038682
 20
16.2935052182
 11
-9.009038682
 21
14.5060707985
  0
LINE
  5
2B8
100
AcDbEntity
  8
ASSI
100
AcDbLine
 62
253
  6
CONTINUOUS
 10
-9.009038682
 20
-9.4064947818
 11
-9.009038682
 21
-11.1939292015
  0
LINE
  5
2B9
100
AcDbEntity
  8
RACCORDO
100
AcDbLine
 62
253
  6
CONTINUOUS
 10
-9.009038682
 20
-9.4064947818
 11
-9.009038682
 21
-11.1939292015
  0
LINE
  5
2BA
100
AcDbEntity
  8
DRAFT
100
AcDbLine
 62
7
  6
CONTINUOUS
 10
-8.9527558919
 20
12.6997880083
 11
-8.9527558919
 21
11.0997880083
  0
LINE
  5
2BB
100
AcDbEntity
  8
ASSI
100
AcDbLine
 62
7
  6
CONTINUOUS
 10
-8.9527558919
 20
12.6997880083
 11
-8.9527558919
 21
11.0997880083
  0
LINE
  5
2BC
100
AcDbEntity
  8
DRAFT
100
AcDbLine
 62
7
  6
CONTINUOUS
 10
-8.9527558919
 20
1.5997880083
 11
-8.9527558919
 21
7.0997880083
  0
LINE
  5
2BD
100
AcDbEntity
  8
ASSI
100
AcDbLine
 62
7
  6
CONTINUOUS
 10
-8.9527558919
 20
1.5997880083
 11
-8.9527558919
 21
7.0997880083
  0
LINE
  5
2BE
100
AcDbEntity
  8
0
100
AcDbLine
 62
7
  6
CONTINUOUS
 10
-8.9027558919
 20
-7.5502119917
 11
-8.9027558919
 21
-7.5002119917
  0
LINE
  5
2BF
100
AcDbEntity
  8
RACCORDO
100
AcDbLine
 62
7
  6
CONTINUOUS
 10
-8.7136892388
 20
-8.8960032854
 11
-8.7136892388
 21
-8.6315044508
  0
LINE
  5
2C0
100
AcDbEntity
  8
ASSI
100
AcDbLine
 62
7
  6
CONTINUOUS
 10
-8.7136892388
 20
-8.8960032854
 11
-8.7136892388
 21
-8.6315044508
  0
LINE
  5
2C1
100
AcDbEntity
  8
RACCORDO
100
AcDbLine
 62
7
  6
CONTINUOUS
 10
-8.7136892388
 20
-4.7689195325
 11
-8.7136892388
 21
-4.4510587967
  0
LINE
  5
2C2
100
AcDbEntity
  8
ASSI
100
AcDbLine
 62
7
  6
CONTINUOUS
 10
-8.7136892388
 20
-4.7689195325
 11
-8.7136892388
 21
-4.4510587967
  0
LINE
  5
2C3
100
AcDbEntity
  8
DRAFT
100
AcDbLine
 62
7
  6
CONTINUOUS
 10
-8.7027558919
 20
6.511624518
 11
-8.7027558919
 21
4.9879514987
  0
LINE
  5
2C4
100
AcDbEntity
  8
DRAFT
100
AcDbLine
 62
7
  6
CONTINUOUS
 10
-8.5382791962
 20
-4.1002119917
 11
-8.5382791962
 21
-3.4002119917
  0
LINE
  5
2C5
100
AcDbEntity
  8
ASSI
100
AcDbLine
 62
7
  6
CONTINUOUS
 10
-8.5382791962
 20
-4.1002119917
 11
-8.5382791962
 21
-3.4002119917
  0
LINE
  5
2C6
100
AcDbEntity
  8
RACCORDO
100
AcDbLine
 62
7
  6
CONTINUOUS
 10
-8.5382791962
 20
7.0997880083
 11
-8.5382791962
 21
9.0766225233
  0
LINE
  5
2C7
100
AcDbEntity
  8
ASSI
100
AcDbLine
 62
7
  6
CONTINUOUS
 10
-8.5382791962
 20
7.0997880083
 11
-8.5382791962
 21
9.0766225233
  0
LINE
  5
2C8
100
AcDbEntity
  8
DRAFT
100
AcDbLine
 62
7
  6
CONTINUOUS
 10
-8.5225708342
 20
-14.8133022934
 11
-8.5225708342
 21
-11.4377375232
  0
LINE
  5
2C9
100
AcDbEntity
  8
ASSI
100
AcDbLine
 62
7
  6
CONTINUOUS
 10
-8.5225708342
 20
-14.8133022934
 11
-8.5225708342
 21
-11.4377375232
  0
LINE
  5
2CA
100
AcDbEntity
  8
DRAFT
100
AcDbLine
 62
7
  6
CONTINUOUS
 10
-8.4850453027
 20
-14.7757767619
 11
-8.4850453027
 21
-11.4002119917
  0
LINE
  5
2CB
100
AcDbEntity
  8
ASSI
100
AcDbLine
 62
7
  6
CONTINUOUS
 10
-8.4850453027
 20
-14.7757767619
 11
-8.4850453027
 21
-11.4002119917
  0
LINE
  5
2CC
100
AcDbEntity
  8
DRAFT
100
AcDbLine
 62
7
  6
CONTINUOUS
 10
-8.4850453027
 20
-10.9325014025
 11
-8.4850453027
 21
-10.8502119917
  0
LINE
  5
2CD
100
AcDbEntity
  8
ASSI
100
AcDbLine
 62
7
  6
CONTINUOUS
 10
-8.4850453027
 20
-10.9325014025
 11
-8.4850453027
 21
-10.8502119917
  0
LINE
  5
2CE
100
AcDbEntity
  8
DRAFT
100
AcDbLine
 62
7
  6
CONTINUOUS
 10
-8.4850453027
 20
-9.6502119917
 11
-8.4850453027
 21
-9.1246472215
  0
LINE
  5
2CF
100
AcDbEntity
  8
ASSI
100
AcDbLine
 62
7
  6
CONTINUOUS
 10
-8.4850453027
 20
-9.6502119917
 11
-8.4850453027
 21
-9.1246472215
  0
LINE
  5
2D0
100
AcDbEntity
  8
DRAFT
100
AcDbLine
 62
7
  6
CONTINUOUS
 10
-8.4754457481
 20
-5.8002119917
 11
-8.4754457481
 21
-5.9002119917
  0
LINE
  5
2D1
100
AcDbEntity
  8
ASSI
100
AcDbLine
 62
7
  6
CONTINUOUS
 10
-8.4754457481
 20
-5.8002119917
 11
-8.4754457481
 21
-5.9002119917
  0
LINE
  5
2D2
100
AcDbEntity
  8
DRAFT
100
AcDbLine
 62
7
  6
CONTINUOUS
 10
-8.4527558919
 20
-10.9002119917
 11
-8.4527558919
 21
-7.6229018479
  0
LINE
  5
2D3
100
AcDbEntity
  8
ASSI
100
AcDbLine
 62
7
  6
CONTINUOUS
 10
-8.4527558919
 20
-10.9002119917
 11
-8.4527558919
 21
-7.6229018479
  0
LINE
  5
2D4
100
AcDbEntity
  8
DRAFT
100
AcDbLine
 62
7
  6
CONTINUOUS
 10
-8.4527558919
 20
-5.9002119917
 11
-8.4527558919
 21
-3.571271628
  0
LINE
  5
2D5
100
AcDbEntity
  8
ASSI
100
AcDbLine
 62
7
  6
CONTINUOUS
 10
-8.4527558919
 20
-7.5002119917
 11
-8.4527558919
 21
-3.571271628
  0
LINE
  5
2D6
100
AcDbEntity
  8
RACCORDO
100
AcDbLine
 62
7
  6
CONTINUOUS
 10
-8.4527558919
 20
-3.2050061425
 11
-8.4527558919
 21
1.4045821592
  0
LINE
  5
2D7
100
AcDbEntity
  8
ASSI
100
AcDbLine
 62
7
  6
CONTINUOUS
 10
-8.4527558919
 20
-3.2050061425
 11
-8.4527558919
 21
1.4045821592
  0
LINE
  5
2D8
100
AcDbEntity
  8
DRAFT
100
AcDbLine
 62
7
  6
CONTINUOUS
 10
-8.4527558919
 20
7.0997880083
 11
-8.4527558919
 21
7.9997880083
  0
LINE
  5
2D9
100
AcDbEntity
  8
ASSI
100
AcDbLine
 62
7
  6
CONTINUOUS
 10
-8.4527558919
 20
7.0997880083
 11
-8.4527558919
 21
7.9997880083
  0
LINE
  5
2DA
100
AcDbEntity
  8
0
100
AcDbLine
 62
7
  6
CONTINUOUS
 10
-8.3027558919
 20
-7.9002119917
 11
-8.3027558919
 21
-8.4002119917
  0
LINE
  5
2DB
100
AcDbEntity
  8
0
100
AcDbLine
 62
7
  6
CONTINUOUS
 10
-8.2527558919
 20
-7.5502119917
 11
-8.2527558919
 21
-7.9002119917
  0
LINE
  5
2DC
100
AcDbEntity
  8
ASSI
100
AcDbLine
 62
7
  6
CONTINUOUS
 10
-8.2027558919
 20
-10.9002119917
 11
-8.2027558919
 21
-8.5668786584
  0
LINE
  5
2DD
100
AcDbEntity
  8
0
100
AcDbLine
 62
7
  6
CONTINUOUS
 10
-8.2027558919
 20
-10.9002119917
 11
-8.2027558919
 21
-8.5668786584
  0
LINE
  5
2DE
100
AcDbEntity
  8
DRAFT
100
AcDbLine
 62
7
  6
CONTINUOUS
 10
-8.2027558919
 20
-5.9002119917
 11
-8.2027558919
 21
-3.3059546411
  0
LINE
  5
2DF
100
AcDbEntity
  8
DRAFT
100
AcDbLine
 62
7
  6
CONTINUOUS
 10
-8.2027558919
 20
1.4584019824
 11
-8.2027558919
 21
4.8997880083
  0
LINE
  5
2E0
100
AcDbEntity
  8
DRAFT
100
AcDbLine
 62
7
  6
CONTINUOUS
 10
-8.2027558919
 20
6.5997880083
 11
-8.2027558919
 21
7.5997880083
  0
LINE
  5
2E1
100
AcDbEntity
  8
ASSI
100
AcDbLine
 62
7
  6
CONTINUOUS
 10
-8.2027558919
 20
7.5997880083
 11
-8.2027558919
 21
7.9997880083
  0
LINE
  5
2E2
100
AcDbEntity
  8
0
100
AcDbLine
 62
7
  6
CONTINUOUS
 10
-8.2027558919
 20
7.5997880083
 11
-8.2027558919
 21
7.9997880083
  0
LINE
  5
2E3
100
AcDbEntity
  8
RACCORDO
100
AcDbLine
 62
7
  6
CONTINUOUS
 10
-8.1569645982
 20
13.995579302
 11
-8.1569645982
 21
13.6106247347
  0
LINE
  5
2E4
100
AcDbEntity
  8
ASSI
100
AcDbLine
 62
7
  6
CONTINUOUS
 10
-8.1569645982
 20
13.995579302
 11
-8.1569645982
 21
13.6106247347
  0
LINE
  5
2E5
100
AcDbEntity
  8
RACCORDO
100
AcDbLine
 62
7
  6
CONTINUOUS
 10
-8.1569645982
 20
10.188951282
 11
-8.1569645982
 21
9.6506348134
  0
LINE
  5
2E6
100
AcDbEntity
  8
ASSI
100
AcDbLine
 62
7
  6
CONTINUOUS
 10
-8.1569645982
 20
10.188951282
 11
-8.1569645982
 21
9.6506348134
  0
LINE
  5
2E7
100
AcDbEntity
  8
RACCORDO
100
AcDbLine
 62
7
  6
CONTINUOUS
 10
-7.9815545556
 20
9.2997880083
 11
-7.9815545556
 21
9.0766225233
  0
LINE
  5
2E8
100
AcDbEntity
  8
ASSI
100
AcDbLine
 62
7
  6
CONTINUOUS
 10
-7.9815545556
 20
9.2997880083
 11
-7.9815545556
 21
9.0766225233
  0
LINE
  5
2E9
100
AcDbEntity
  8
DRAFT
100
AcDbLine
 62
7
  6
CONTINUOUS
 10
-7.9283206621
 20
16.4753527785
 11
-7.9283206621
 21
15.9497880083
  0
LINE
  5
2EA
100
AcDbEntity
  8
ASSI
100
AcDbLine
 62
7
  6
CONTINUOUS
 10
-7.9283206621
 20
16.4753527785
 11
-7.9283206621
 21
15.9497880083
  0
LINE
  5
2EB
100
AcDbEntity
  8
DRAFT
100
AcDbLine
 62
7
  6
CONTINUOUS
 10
-7.9283206621
 20
14.7497880083
 11
-7.9283206621
 21
14.2242232381
  0
LINE
  5
2EC
100
AcDbEntity
  8
ASSI
100
AcDbLine
 62
7
  6
CONTINUOUS
 10
-7.9283206621
 20
14.7497880083
 11
-7.9283206621
 21
14.2242232381
  0
LINE
  5
2ED
100
AcDbEntity
  8
DRAFT
100
AcDbLine
 62
7
  6
CONTINUOUS
 10
-7.9283206621
 20
12.7997880083
 11
-7.9283206621
 21
12.6997880083
  0
LINE
  5
2EE
100
AcDbEntity
  8
ASSI
100
AcDbLine
 62
7
  6
CONTINUOUS
 10
-7.9283206621
 20
12.7997880083
 11
-7.9283206621
 21
12.6997880083
  0
LINE
  5
2EF
100
AcDbEntity
  8
DRAFT
100
AcDbLine
 62
7
  6
CONTINUOUS
 10
-7.9283206621
 20
11.2997880083
 11
-7.9283206621
 21
11.0997880083
  0
LINE
  5
2F0
100
AcDbEntity
  8
ASSI
100
AcDbLine
 62
7
  6
CONTINUOUS
 10
-7.9283206621
 20
11.2997880083
 11
-7.9283206621
 21
11.0997880083
  0
LINE
  5
2F1
100
AcDbEntity
  8
0
100
AcDbLine
 62
7
  6
CONTINUOUS
 10
-7.9091215529
 20
11.2805888992
 11
-7.9091215529
 21
8.01287831
  0
LINE
  5
2F2
100
AcDbEntity
  8
ASSI
100
AcDbLine
 62
7
  6
CONTINUOUS
 10
-7.9091215529
 20
11.2805888992
 11
-7.9091215529
 21
8.01287831
  0
LINE
  5
2F3
100
AcDbEntity
  8
DRAFT
100
AcDbLine
 62
7
  6
CONTINUOUS
 10
-7.8960312513
 20
16.5477857812
 11
-7.8960312513
 21
12.8320774191
  0
LINE
  5
2F4
100
AcDbEntity
  8
ASSI
100
AcDbLine
 62
7
  6
CONTINUOUS
 10
-7.8960312513
 20
16.5477857812
 11
-7.8960312513
 21
12.8320774191
  0
LINE
  5
2F5
100
AcDbEntity
  8
ASSI
100
AcDbLine
 62
7
  6
CONTINUOUS
 10
-7.7236860843
 20
21.335766552
 11
-7.7236860843
 21
18.0997880083
  0
LINE
  5
2F6
100
AcDbEntity
  8
DRAFT
100
AcDbLine
 62
7
  6
CONTINUOUS
 10
-7.7236860843
 20
21.335766552
 11
-7.7236860843
 21
18.0997880083
  0
LINE
  5
2F7
100
AcDbEntity
  8
ASSI
100
AcDbLine
 62
7
  6
CONTINUOUS
 10
-7.7236860843
 20
-17.7502119917
 11
-7.7236860843
 21
-19.6361905353
  0
LINE
  5
2F8
100
AcDbEntity
  8
DRAFT
100
AcDbLine
 62
7
  6
CONTINUOUS
 10
-7.7236860843
 20
-17.7502119917
 11
-7.7236860843
 21
-19.6361905353
  0
LINE
  5
2F9
100
AcDbEntity
  8
0
100
AcDbLine
 62
7
  6
CONTINUOUS
 10
-7.7027558919
 20
-5.9002119917
 11
-7.7027558919
 21
1.0997880083
  0
LINE
  5
2FA
100
AcDbEntity
  8
ASSI
100
AcDbLine
 62
7
  6
CONTINUOUS
 10
-7.428695487
 20
20.6760492986
 11
-7.428695487
 21
18.247272074
  0
LINE
  5
2FB
100
AcDbEntity
  8
RACCORDO
100
AcDbLine
 62
7
  6
CONTINUOUS
 10
-7.428695487
 20
20.6760492986
 11
-7.428695487
 21
18.247272074
  0
LINE
  5
2FC
100
AcDbEntity
  8
ASSI
100
AcDbLine
 62
7
  6
CONTINUOUS
 10
-7.428695487
 20
-17.8976960573
 11
-7.428695487
 21
-18.976473282
  0
LINE
  5
2FD
100
AcDbEntity
  8
RACCORDO
100
AcDbLine
 62
7
  6
CONTINUOUS
 10
-7.428695487
 20
-17.8976960573
 11
-7.428695487
 21
-18.976473282
  0
LINE
  5
2FE
100
AcDbEntity
  8
ASSI
100
AcDbLine
 62
7
  6
CONTINUOUS
 10
-0.5848054981
 20
18.1866806577
 11
-0.6716981474
 21
18.0997880083
  0
LINE
  5
2FF
100
AcDbEntity
  8
DRAFT
100
AcDbLine
 62
7
  6
CONTINUOUS
 10
-0.5848054981
 20
18.1866806577
 11
-0.6716981474
 21
18.0997880083
  0
LINE
  5
300
100
AcDbEntity
  8
DRAFT
100
AcDbLine
 62
7
  6
CONTINUOUS
 10
6.7311639365
 20
22.0497880083
 11
6.6641061513
 21
22.0146230342
  0
LINE
  5
301
100
AcDbEntity
  8
DRAFT
100
AcDbLine
 62
7
  6
CONTINUOUS
 10
7.1802792876
 20
21.7497880083
 11
7.0352915814
 21
21.6847060671
  0
LINE
  5
302
100
AcDbEntity
  8
ASSI
100
AcDbLine
 62
7
  6
CONTINUOUS
 10
-3.2027558919
 20
-22.6502119917
 11
-2.9840342331
 21
-22.6065743294
  0
LINE
  5
303
100
AcDbEntity
  8
DRAFT
100
AcDbLine
 62
7
  6
CONTINUOUS
 10
-3.2027558919
 20
-22.6502119917
 11
-2.9840342331
 21
-22.6065743294
  0
LINE
  5
304
100
AcDbEntity
  8
ASSI
100
AcDbLine
 62
253
  6
CONTINUOUS
 10
6.4528912637
 20
-19.9682450457
 11
-6.8584030475
 21
-19.9682450457
  0
LINE
  5
305
100
AcDbEntity
  8
RACCORDO
100
AcDbLine
 62
253
  6
CONTINUOUS
 10
6.4528912637
 20
-19.9682450457
 11
-6.8584030475
 21
-19.9682450457
  0
LINE
  5
306
100
AcDbEntity
  8
ASSI
100
AcDbLine
 62
7
  6
CONTINUOUS
 10
6.4518999117
 20
-19.7218326158
 11
-6.8574116955
 21
-19.7218326158
  0
LINE
  5
307
100
AcDbEntity
  8
RACCORDO
100
AcDbLine
 62
7
  6
CONTINUOUS
 10
6.4518999117
 20
-19.7218326158
 11
-6.8574116955
 21
-19.7218326158
  0
LINE
  5
308
100
AcDbEntity
  8
ASSI
100
AcDbLine
 62
7
  6
CONTINUOUS
 10
9.4472441081
 20
-19.6361905353
 11
7.3181743005
 21
-19.6361905353
  0
LINE
  5
309
100
AcDbEntity
  8
DRAFT
100
AcDbLine
 62
7
  6
CONTINUOUS
 10
9.4472441081
 20
-19.6361905353
 11
7.3181743005
 21
-19.6361905353
  0
LINE
  5
30A
100
AcDbEntity
  8
ASSI
100
AcDbLine
 62
7
  6
CONTINUOUS
 10
-7.7236860843
 20
-19.6361905353
 11
-9.8527558919
 21
-19.6361905353
  0
LINE
  5
30B
100
AcDbEntity
  8
DRAFT
100
AcDbLine
 62
7
  6
CONTINUOUS
 10
-7.7236860843
 20
-19.6361905353
 11
-9.8527558919
 21
-19.6361905353
  0
LINE
  5
30C
100
AcDbEntity
  8
ASSI
100
AcDbLine
 62
7
  6
CONTINUOUS
 10
6.311337032
 20
-19.5812697361
 11
0.2661863637
 21
-19.5812697361
  0
LINE
  5
30D
100
AcDbEntity
  8
DRAFT
100
AcDbLine
 62
7
  6
CONTINUOUS
 10
6.311337032
 20
-19.5812697361
 11
0.2661863637
 21
-19.5812697361
  0
LINE
  5
30E
100
AcDbEntity
  8
ASSI
100
AcDbLine
 62
7
  6
CONTINUOUS
 10
-0.6716981474
 20
-19.5812697361
 11
-6.7168488158
 21
-19.5812697361
  0
LINE
  5
30F
100
AcDbEntity
  8
DRAFT
100
AcDbLine
 62
7
  6
CONTINUOUS
 10
-0.6716981474
 20
-19.5812697361
 11
-6.7168488158
 21
-19.5812697361
  0
LINE
  5
310
100
AcDbEntity
  8
ASSI
100
AcDbLine
 62
253
  6
CONTINUOUS
 10
-7.4307373417
 20
-19.2978670868
 11
-6.8633120319
 21
-19.2978670868
  0
LINE
  5
311
100
AcDbEntity
  8
RACCORDO
100
AcDbLine
 62
253
  6
CONTINUOUS
 10
-7.4307373417
 20
-19.2978670868
 11
-6.8633120319
 21
-19.2978670868
  0
LINE
  5
312
100
AcDbEntity
  8
ASSI
100
AcDbLine
 62
253
  6
CONTINUOUS
 10
6.4578002481
 20
-19.2978670868
 11
7.025225558
 21
-19.2978670868
  0
LINE
  5
313
100
AcDbEntity
  8
RACCORDO
100
AcDbLine
 62
253
  6
CONTINUOUS
 10
6.4578002481
 20
-19.2978670868
 11
7.025225558
 21
-19.2978670868
  0
LINE
  5
314
100
AcDbEntity
  8
ASSI
100
AcDbLine
 62
253
  6
CONTINUOUS
 10
-7.428695487
 20
-18.976473282
 11
-6.8643328815
 21
-18.976473282
  0
LINE
  5
315
100
AcDbEntity
  8
RACCORDO
100
AcDbLine
 62
253
  6
CONTINUOUS
 10
-7.428695487
 20
-18.976473282
 11
-6.8643328815
 21
-18.976473282
  0
LINE
  5
316
100
AcDbEntity
  8
ASSI
100
AcDbLine
 62
253
  6
CONTINUOUS
 10
6.4588210977
 20
-18.976473282
 11
7.0231837032
 21
-18.976473282
  0
LINE
  5
317
100
AcDbEntity
  8
RACCORDO
100
AcDbLine
 62
253
  6
CONTINUOUS
 10
6.4588210977
 20
-18.976473282
 11
7.0231837032
 21
-18.976473282
  0
LINE
  5
318
100
AcDbEntity
  8
ASSI
100
AcDbLine
 62
7
  6
CONTINUOUS
 10
0.1274291658
 20
-18.6502119917
 11
-0.5329409496
 21
-18.6502119917
  0
LINE
  5
319
100
AcDbEntity
  8
DRAFT
100
AcDbLine
 62
7
  6
CONTINUOUS
 10
0.1274291658
 20
-18.6502119917
 11
-0.5329409496
 21
-18.6502119917
  0
LINE
  5
31A
100
AcDbEntity
  8
ASSI
100
AcDbLine
 62
7
  6
CONTINUOUS
 10
-7.428695487
 20
-17.8976960573
 11
-6.8643328815
 21
-17.8976960573
  0
LINE
  5
31B
100
AcDbEntity
  8
DRAFT
100
AcDbLine
 62
7
  6
CONTINUOUS
 10
-7.428695487
 20
-17.8976960573
 11
-6.8643328815
 21
-17.8976960573
  0
LINE
  5
31C
100
AcDbEntity
  8
ASSI
100
AcDbLine
 62
7
  6
CONTINUOUS
 10
-6.7168488158
 20
-17.7502119917
 11
-7.7236860843
 21
-17.7502119917
  0
LINE
  5
31D
100
AcDbEntity
  8
DRAFT
100
AcDbLine
 62
7
  6
CONTINUOUS
 10
-6.7168488158
 20
-17.7502119917
 11
-7.7236860843
 21
-17.7502119917
  0
LINE
  5
31E
100
AcDbEntity
  8
DRAFT
100
AcDbLine
 62
7
  6
CONTINUOUS
 10
-6.2027558919
 20
-16.2841446501
 11
-6.9046633587
 21
-16.1087346075
  0
LINE
  5
31F
100
AcDbEntity
  8
ASSI
100
AcDbLine
 62
7
  6
CONTINUOUS
 10
-6.2027558919
 20
-16.2841446501
 11
-6.9046633587
 21
-16.1087346075
  0
LINE
  5
320
100
AcDbEntity
  8
DRAFT
100
AcDbLine
 62
7
  6
CONTINUOUS
 10
7.0352915814
 20
-19.9851300504
 11
7.1802792876
 21
-20.0502119917
  0
LINE
  5
321
100
AcDbEntity
  8
DRAFT
100
AcDbLine
 62
7
  6
CONTINUOUS
 10
6.7311639365
 20
-20.3502119917
 11
6.6641061513
 21
-20.3150470176
  0
LINE
  5
322
100
AcDbEntity
  8
DRAFT
100
AcDbLine
 62
7
  6
CONTINUOUS
 10
-5.7027558919
 20
-11.8679225809
 11
-5.6774479753
 21
-11.8932304975
  0
LINE
  5
323
100
AcDbEntity
  8
ASSI
100
AcDbLine
 62
7
  6
CONTINUOUS
 10
-5.7027558919
 20
-11.8679225809
 11
-5.6774479753
 21
-11.8932304975
  0
LINE
  5
324
100
AcDbEntity
  8
ASSI
100
AcDbLine
 62
7
  6
CONTINUOUS
 10
-0.6716981474
 20
-16.6502119917
 11
-0.5786640267
 21
-16.7432461124
  0
LINE
  5
325
100
AcDbEntity
  8
DRAFT
100
AcDbLine
 62
7
  6
CONTINUOUS
 10
-0.6716981474
 20
-16.6502119917
 11
-0.5786640267
 21
-16.7432461124
  0
LINE
  5
326
100
AcDbEntity
  8
DRAFT
100
AcDbLine
 62
7
  6
CONTINUOUS
 10
-8.4754457481
 20
-7.6002119917
 11
-8.4527558919
 21
-7.6229018479
  0
LINE
  5
327
100
AcDbEntity
  8
ASSI
100
AcDbLine
 62
7
  6
CONTINUOUS
 10
-8.4754457481
 20
-7.6002119917
 11
-8.4527558919
 21
-7.6229018479
  0
LINE
  5
328
100
AcDbEntity
  8
RACCORDO
100
AcDbLine
 62
7
  6
CONTINUOUS
 10
-8.7067686689
 20
-5.568889071
 11
-8.4754457481
 21
-5.8002119917
  0
LINE
  5
329
100
AcDbEntity
  8
ASSI
100
AcDbLine
 62
7
  6
CONTINUOUS
 10
-8.7067686689
 20
-5.568889071
 11
-8.4754457481
 21
-5.8002119917
  0
LINE
  5
32A
100
AcDbEntity
  8
DRAFT
100
AcDbLine
 62
7
  6
CONTINUOUS
 10
-8.4527558919
 20
-3.571271628
 11
-8.5382791962
 21
-3.4002119917
  0
LINE
  5
32B
100
AcDbEntity
  8
ASSI
100
AcDbLine
 62
7
  6
CONTINUOUS
 10
-8.4527558919
 20
-3.571271628
 11
-8.5382791962
 21
-3.4002119917
  0
LINE
  5
32C
100
AcDbEntity
  8
ASSI
100
AcDbLine
 62
7
  6
CONTINUOUS
 10
-7.4307373417
 20
20.9974431034
 11
-7.4408033652
 21
21.6847060671
  0
LINE
  5
32D
100
AcDbEntity
  8
RACCORDO
100
AcDbLine
 62
7
  6
CONTINUOUS
 10
-7.4307373417
 20
20.9974431034
 11
-7.4408033652
 21
21.6847060671
  0
LINE
  5
32E
100
AcDbEntity
  8
ASSI
100
AcDbLine
 62
7
  6
CONTINUOUS
 10
-6.8584030475
 20
-19.9682450457
 11
-6.8633120319
 21
-19.2978670868
  0
LINE
  5
32F
100
AcDbEntity
  8
RACCORDO
100
AcDbLine
 62
7
  6
CONTINUOUS
 10
-6.8584030475
 20
-19.9682450457
 11
-6.8633120319
 21
-19.2978670868
  0
LINE
  5
330
100
AcDbEntity
  8
0
100
AcDbLine
 62
7
  6
CONTINUOUS
 10
-7.0027558919
 20
-7.5502119917
 11
-7.0027558919
 21
-9.4002119917
  0
LINE
  5
331
100
AcDbEntity
  8
0
100
AcDbLine
 62
7
  6
CONTINUOUS
 10
-7.0027558919
 20
2.5997880083
 11
-7.0027558919
 21
4.2997880083
  0
LINE
  5
332
100
AcDbEntity
  8
DRAFT
100
AcDbLine
 62
7
  6
CONTINUOUS
 10
-6.9046633587
 20
17.8083106241
 11
-6.9046633587
 21
16.7912653925
  0
LINE
  5
333
100
AcDbEntity
  8
ASSI
100
AcDbLine
 62
7
  6
CONTINUOUS
 10
-6.9046633587
 20
17.8083106241
 11
-6.9046633587
 21
16.7912653925
  0
LINE
  5
334
100
AcDbEntity
  8
DRAFT
100
AcDbLine
 62
7
  6
CONTINUOUS
 10
-6.9046633587
 20
-16.1087346075
 11
-6.9046633587
 21
-15.0916893759
  0
LINE
  5
335
100
AcDbEntity
  8
ASSI
100
AcDbLine
 62
7
  6
CONTINUOUS
 10
-6.9046633587
 20
-16.1087346075
 11
-6.9046633587
 21
-15.0916893759
  0
LINE
  5
336
100
AcDbEntity
  8
ASSI
100
AcDbLine
 62
7
  6
CONTINUOUS
 10
-6.8643328815
 20
-18.976473282
 11
-6.8643328815
 21
-17.8976960573
  0
LINE
  5
337
100
AcDbEntity
  8
RACCORDO
100
AcDbLine
 62
7
  6
CONTINUOUS
 10
-6.8643328815
 20
-18.976473282
 11
-6.8643328815
 21
-17.8976960573
  0
LINE
  5
338
100
AcDbEntity
  8
ASSI
100
AcDbLine
 62
7
  6
CONTINUOUS
 10
-6.8643328815
 20
18.247272074
 11
-6.8643328815
 21
20.6760492986
  0
LINE
  5
339
100
AcDbEntity
  8
RACCORDO
100
AcDbLine
 62
7
  6
CONTINUOUS
 10
-6.8643328815
 20
18.247272074
 11
-6.8643328815
 21
20.6760492986
  0
LINE
  5
33A
100
AcDbEntity
  8
ASSI
100
AcDbLine
 62
7
  6
CONTINUOUS
 10
-6.7168488158
 20
-19.5812697361
 11
-6.7168488158
 21
-17.7502119917
  0
LINE
  5
33B
100
AcDbEntity
  8
DRAFT
100
AcDbLine
 62
7
  6
CONTINUOUS
 10
-6.7168488158
 20
-19.5812697361
 11
-6.7168488158
 21
-17.7502119917
  0
LINE
  5
33C
100
AcDbEntity
  8
ASSI
100
AcDbLine
 62
7
  6
CONTINUOUS
 10
-6.7168488158
 20
18.0997880083
 11
-6.7168488158
 21
21.2808457528
  0
LINE
  5
33D
100
AcDbEntity
  8
DRAFT
100
AcDbLine
 62
7
  6
CONTINUOUS
 10
-6.7168488158
 20
18.0997880083
 11
-6.7168488158
 21
21.2808457528
  0
LINE
  5
33E
100
AcDbEntity
  8
0
100
AcDbLine
 62
7
  6
CONTINUOUS
 10
-6.6027558919
 20
4.2997880083
 11
-6.6027558919
 21
5.9997880083
  0
LINE
  5
33F
100
AcDbEntity
  8
0
100
AcDbLine
 62
7
  6
CONTINUOUS
 10
-6.4027558919
 20
-9.4002119917
 11
-6.4027558919
 21
-7.5502119917
  0
LINE
  5
340
100
AcDbEntity
  8
DRAFT
100
AcDbLine
 62
7
  6
CONTINUOUS
 10
-6.2027558919
 20
-16.2841446501
 11
-6.2027558919
 21
-14.9162793333
  0
LINE
  5
341
100
AcDbEntity
  8
ASSI
100
AcDbLine
 62
7
  6
CONTINUOUS
 10
-6.2027558919
 20
-16.2841446501
 11
-6.2027558919
 21
-14.9162793333
  0
LINE
  5
342
100
AcDbEntity
  8
DRAFT
100
AcDbLine
 62
7
  6
CONTINUOUS
 10
-6.2027558919
 20
16.6158553499
 11
-6.2027558919
 21
17.9837206667
  0
LINE
  5
343
100
AcDbEntity
  8
ASSI
100
AcDbLine
 62
7
  6
CONTINUOUS
 10
-6.2027558919
 20
16.6158553499
 11
-6.2027558919
 21
17.9837206667
  0
LINE
  5
344
100
AcDbEntity
  8
DRAFT
100
AcDbLine
 62
7
  6
CONTINUOUS
 10
-5.7027558919
 20
-14.7757767619
 11
-5.7027558919
 21
-11.8679225809
  0
LINE
  5
345
100
AcDbEntity
  8
ASSI
100
AcDbLine
 62
7
  6
CONTINUOUS
 10
-5.7027558919
 20
-14.7757767619
 11
-5.7027558919
 21
-11.8679225809
  0
LINE
  5
346
100
AcDbEntity
  8
DRAFT
100
AcDbLine
 62
7
  6
CONTINUOUS
 10
-5.6949017109
 20
-12.4002119917
 11
-5.6949022093
 21
-14.7679227802
  0
LINE
  5
347
100
AcDbEntity
  8
ASSI
100
AcDbLine
 62
7
  6
CONTINUOUS
 10
-5.6949017109
 20
-12.4002119917
 11
-5.6949022093
 21
-14.7679227802
  0
LINE
  5
348
100
AcDbEntity
  8
DRAFT
100
AcDbLine
 62
7
  6
CONTINUOUS
 10
-5.6774479753
 20
-12.3827582561
 11
-5.6774479753
 21
-11.8932304975
  0
LINE
  5
349
100
AcDbEntity
  8
ASSI
100
AcDbLine
 62
7
  6
CONTINUOUS
 10
-5.6774479753
 20
-12.3827582561
 11
-5.6774479753
 21
-11.8932304975
  0
LINE
  5
34A
100
AcDbEntity
  8
ASSI
100
AcDbLine
 62
7
  6
CONTINUOUS
 10
-5.4527558919
 20
-8.0712376062
 11
-5.4527558919
 21
-8.5502119917
  0
LINE
  5
34B
100
AcDbEntity
  8
ASSI
100
AcDbLine
 62
7
  6
CONTINUOUS
 10
-4.8527558919
 20
-9.1002119917
 11
-4.8527558919
 21
-8.4213766013
  0
LINE
  5
34C
100
AcDbEntity
  8
ASSI
100
AcDbLine
 62
7
  6
CONTINUOUS
 10
-6.8633120319
 20
20.9974431034
 11
-6.8584030475
 21
21.6678210623
  0
LINE
  5
34D
100
AcDbEntity
  8
RACCORDO
100
AcDbLine
 62
7
  6
CONTINUOUS
 10
-6.8633120319
 20
20.9974431034
 11
-6.8584030475
 21
21.6678210623
  0
LINE
  5
34E
100
AcDbEntity
  8
ASSI
100
AcDbLine
 62
7
  6
CONTINUOUS
 10
-7.4408033652
 20
-19.9851300504
 11
-7.4307373417
 21
-19.2978670868
  0
LINE
  5
34F
100
AcDbEntity
  8
RACCORDO
100
AcDbLine
 62
7
  6
CONTINUOUS
 10
-7.4408033652
 20
-19.9851300504
 11
-7.4307373417
 21
-19.2978670868
  0
LINE
  5
350
100
AcDbEntity
  8
ASSI
100
AcDbLine
 62
7
  6
CONTINUOUS
 10
-9.8527558919
 20
-19.6361905353
 11
-9.9216981474
 21
-20.0502119917
  0
LINE
  5
351
100
AcDbEntity
  8
DRAFT
100
AcDbLine
 62
7
  6
CONTINUOUS
 10
-9.8527558919
 20
-19.6361905353
 11
-9.9216981474
 21
-20.0502119917
  0
LINE
  5
352
100
AcDbEntity
  8
0
100
AcDbLine
 62
7
  6
CONTINUOUS
 10
-7.7027558919
 20
1.0997880083
 11
-6.3027558919
 21
4.0997880083
  0
LINE
  5
353
100
AcDbEntity
  8
DRAFT
100
AcDbLine
 62
7
  6
CONTINUOUS
 10
-9.7900245698
 20
-4.625609446
 11
-9.7027558919
 21
-4.4510587967
  0
LINE
  5
354
100
AcDbEntity
  8
ASSI
100
AcDbLine
 62
7
  6
CONTINUOUS
 10
-9.7900245698
 20
-4.625609446
 11
-9.7027558919
 21
-4.4510587967
  0
LINE
  5
355
100
AcDbEntity
  8
ASSI
100
AcDbLine
 62
7
  6
CONTINUOUS
 10
6.311337032
 20
21.2808457528
 11
6.4518999117
 21
21.4214086324
  0
LINE
  5
356
100
AcDbEntity
  8
RACCORDO
100
AcDbLine
 62
7
  6
CONTINUOUS
 10
6.311337032
 20
21.2808457528
 11
6.4518999117
 21
21.4214086324
  0
LINE
  5
357
100
AcDbEntity
  8
ASSI
100
AcDbLine
 62
7
  6
CONTINUOUS
 10
6.4588210977
 20
18.247272074
 11
6.311337032
 21
18.0997880083
  0
LINE
  5
358
100
AcDbEntity
  8
DRAFT
100
AcDbLine
 62
7
  6
CONTINUOUS
 10
6.4588210977
 20
18.247272074
 11
6.311337032
 21
18.0997880083
  0
LINE
  5
359
100
AcDbEntity
  8
RACCORDO
100
AcDbLine
 62
7
  6
CONTINUOUS
 10
-8.1500135664
 20
10.9889436666
 11
-7.9283206621
 21
11.0997880083
  0
LINE
  5
35A
100
AcDbEntity
  8
ASSI
100
AcDbLine
 62
7
  6
CONTINUOUS
 10
-8.1500135664
 20
10.9889436666
 11
-7.9283206621
 21
11.0997880083
  0
LINE
  5
35B
100
AcDbEntity
  8
ASSI
100
AcDbLine
 62
7
  6
CONTINUOUS
 10
7.0231837032
 20
-16.7976960573
 11
6.4588210977
 21
-16.7976960573
  0
LINE
  5
35C
100
AcDbEntity
  8
DRAFT
100
AcDbLine
 62
7
  6
CONTINUOUS
 10
7.0231837032
 20
-16.7976960573
 11
6.4588210977
 21
-16.7976960573
  0
LINE
  5
35D
100
AcDbEntity
  8
ASSI
100
AcDbLine
 62
7
  6
CONTINUOUS
 10
0.173152243
 20
-16.7432461124
 11
-0.5786640267
 21
-16.7432461124
  0
LINE
  5
35E
100
AcDbEntity
  8
DRAFT
100
AcDbLine
 62
7
  6
CONTINUOUS
 10
0.173152243
 20
-16.7432461124
 11
-0.5786640267
 21
-16.7432461124
  0
LINE
  5
35F
100
AcDbEntity
  8
ASSI
100
AcDbLine
 62
7
  6
CONTINUOUS
 10
7.3181743005
 20
-16.6502119917
 11
6.311337032
 21
-16.6502119917
  0
LINE
  5
360
100
AcDbEntity
  8
DRAFT
100
AcDbLine
 62
7
  6
CONTINUOUS
 10
7.3181743005
 20
-16.6502119917
 11
6.311337032
 21
-16.6502119917
  0
LINE
  5
361
100
AcDbEntity
  8
ASSI
100
AcDbLine
 62
7
  6
CONTINUOUS
 10
0.2661863637
 20
-16.6502119917
 11
-0.6716981474
 21
-16.6502119917
  0
LINE
  5
362
100
AcDbEntity
  8
DRAFT
100
AcDbLine
 62
7
  6
CONTINUOUS
 10
0.2661863637
 20
-16.6502119917
 11
-0.6716981474
 21
-16.6502119917
  0
LINE
  5
363
100
AcDbEntity
  8
DRAFT
100
AcDbLine
 62
7
  6
CONTINUOUS
 10
-11.3027558919
 20
-16.4002119917
 11
10.8972441081
 21
-16.4002119917
  0
LINE
  5
364
100
AcDbEntity
  8
ASSI
100
AcDbLine
 62
7
  6
CONTINUOUS
 10
-11.3027558919
 20
-16.4002119917
 11
10.8972441081
 21
-16.4002119917
  0
LINE
  5
365
100
AcDbEntity
  8
DRAFT
100
AcDbLine
 62
7
  6
CONTINUOUS
 10
-6.2027558919
 20
-16.2841446501
 11
5.7972441081
 21
-16.2841446501
  0
LINE
  5
366
100
AcDbEntity
  8
ASSI
100
AcDbLine
 62
7
  6
CONTINUOUS
 10
-6.2027558919
 20
-16.2841446501
 11
5.7972441081
 21
-16.2841446501
  0
LINE
  5
367
100
AcDbEntity
  8
DRAFT
100
AcDbLine
 62
7
  6
CONTINUOUS
 10
-11.0112785077
 20
-16.1087346075
 11
-6.9046633587
 21
-16.1087346075
  0
LINE
  5
368
100
AcDbEntity
  8
ASSI
100
AcDbLine
 62
7
  6
CONTINUOUS
 10
-11.0112785077
 20
-16.1087346075
 11
-6.9046633587
 21
-16.1087346075
  0
LINE
  5
369
100
AcDbEntity
  8
DRAFT
100
AcDbLine
 62
7
  6
CONTINUOUS
 10
6.4991515749
 20
-16.1087346075
 11
10.6057667239
 21
-16.1087346075
  0
LINE
  5
36A
100
AcDbEntity
  8
ASSI
100
AcDbLine
 62
7
  6
CONTINUOUS
 10
6.4991515749
 20
-16.1087346075
 11
10.6057667239
 21
-16.1087346075
  0
LINE
  5
36B
100
AcDbEntity
  8
CURVE
100
AcDbLine
 62
253
  6
CONTINUOUS
 10
10.8851511628
 20
-15.5573545832
 11
10.8835304589
 21
-15.5573545832
  0
LINE
  5
36C
100
AcDbEntity
  8
DRAFT
100
AcDbLine
 62
7
  6
CONTINUOUS
 10
9.2972441081
 20
-15.0916893759
 11
6.4991515749
 21
-15.0916893759
  0
LINE
  5
36D
100
AcDbEntity
  8
ASSI
100
AcDbLine
 62
7
  6
CONTINUOUS
 10
9.2972441081
 20
-15.0916893759
 11
6.4991515749
 21
-15.0916893759
  0
LINE
  5
36E
100
AcDbEntity
  8
DRAFT
100
AcDbLine
 62
7
  6
CONTINUOUS
 10
-6.9046633587
 20
-15.0916893759
 11
-9.7027558919
 21
-15.0916893759
  0
LINE
  5
36F
100
AcDbEntity
  8
ASSI
100
AcDbLine
 62
7
  6
CONTINUOUS
 10
-6.9046633587
 20
-15.0916893759
 11
-9.7027558919
 21
-15.0916893759
  0
LINE
  5
370
100
AcDbEntity
  8
DRAFT
100
AcDbLine
 62
7
  6
CONTINUOUS
 10
-6.2027558919
 20
-14.9162793333
 11
5.7972441081
 21
-14.9162793333
  0
LINE
  5
371
100
AcDbEntity
  8
ASSI
100
AcDbLine
 62
7
  6
CONTINUOUS
 10
-6.2027558919
 20
-14.9162793333
 11
5.7972441081
 21
-14.9162793333
  0
LINE
  5
372
100
AcDbEntity
  8
DRAFT
100
AcDbLine
 62
7
  6
CONTINUOUS
 10
-9.4243688094
 20
-14.8133022934
 11
-8.5225708342
 21
-14.8133022934
  0
LINE
  5
373
100
AcDbEntity
  8
ASSI
100
AcDbLine
 62
7
  6
CONTINUOUS
 10
-9.4243688094
 20
-14.8133022934
 11
-8.5225708342
 21
-14.8133022934
  0
LINE
  5
374
100
AcDbEntity
  8
DRAFT
100
AcDbLine
 62
7
  6
CONTINUOUS
 10
8.1170590504
 20
-14.8133022934
 11
9.0188570256
 21
-14.8133022934
  0
LINE
  5
375
100
AcDbEntity
  8
ASSI
100
AcDbLine
 62
7
  6
CONTINUOUS
 10
8.1170590504
 20
-14.8133022934
 11
9.0188570256
 21
-14.8133022934
  0
LINE
  5
376
100
AcDbEntity
  8
DRAFT
100
AcDbLine
 62
7
  6
CONTINUOUS
 10
-5.7027558919
 20
-14.7757767619
 11
-8.4850453027
 21
-14.7757767619
  0
LINE
  5
377
100
AcDbEntity
  8
ASSI
100
AcDbLine
 62
7
  6
CONTINUOUS
 10
-5.7027558919
 20
-14.7757767619
 11
-8.4850453027
 21
-14.7757767619
  0
LINE
  5
378
100
AcDbEntity
  8
DRAFT
100
AcDbLine
 62
7
  6
CONTINUOUS
 10
-5.6853021563
 20
-14.7504688453
 11
8.0542256023
 21
-14.7504688453
  0
LINE
  5
379
100
AcDbEntity
  8
ASSI
100
AcDbLine
 62
7
  6
CONTINUOUS
 10
-5.6853021563
 20
-14.7504688453
 11
8.0542256023
 21
-14.7504688453
  0
LINE
  5
37A
100
AcDbEntity
  8
DRAFT
100
AcDbLine
 62
7
  6
CONTINUOUS
 10
5.7972441081
 20
-14.9162793333
 11
6.4991515749
 21
-15.0916893759
  0
LINE
  5
37B
100
AcDbEntity
  8
ASSI
100
AcDbLine
 62
7
  6
CONTINUOUS
 10
5.7972441081
 20
-14.9162793333
 11
6.4991515749
 21
-15.0916893759
  0
LINE
  5
37C
100
AcDbEntity
  8
ASSI
100
AcDbLine
 62
7
  6
CONTINUOUS
 10
6.311337032
 20
-19.5812697361
 11
6.4518999117
 21
-19.7218326158
  0
LINE
  5
37D
100
AcDbEntity
  8
RACCORDO
100
AcDbLine
 62
7
  6
CONTINUOUS
 10
6.311337032
 20
-19.5812697361
 11
6.4518999117
 21
-19.7218326158
  0
LINE
  5
37E
100
AcDbEntity
  8
DRAFT
100
AcDbLine
 62
7
  6
CONTINUOUS
 10
-10.2027558919
 20
-0.4002119917
 11
-9.9758400478
 21
-0.6271278358
  0
LINE
  5
37F
100
AcDbEntity
  8
ASSI
100
AcDbLine
 62
7
  6
CONTINUOUS
 10
-10.2027558919
 20
-0.4002119917
 11
-9.9758400478
 21
-0.6271278358
  0
LINE
  5
380
100
AcDbEntity
  8
ASSI
100
AcDbLine
 62
7
  6
CONTINUOUS
 10
6.4588210977
 20
-16.7976960573
 11
6.311337032
 21
-16.6502119917
  0
LINE
  5
381
100
AcDbEntity
  8
DRAFT
100
AcDbLine
 62
7
  6
CONTINUOUS
 10
6.4588210977
 20
-16.7976960573
 11
6.311337032
 21
-16.6502119917
  0
LINE
  5
382
100
AcDbEntity
  8
DRAFT
100
AcDbLine
 62
7
  6
CONTINUOUS
 10
-8.9527558919
 20
1.7708476446
 11
-8.7965449584
 21
1.4584019824
  0
LINE
  5
383
100
AcDbEntity
  8
ASSI
100
AcDbLine
 62
7
  6
CONTINUOUS
 10
-8.9527558919
 20
1.7708476446
 11
-8.7965449584
 21
1.4584019824
  0
LINE
  5
384
100
AcDbEntity
  8
ASSI
100
AcDbLine
 62
7
  6
CONTINUOUS
 10
-9.9216981474
 20
21.7497880083
 11
-9.8527558919
 21
21.335766552
  0
LINE
  5
385
100
AcDbEntity
  8
DRAFT
100
AcDbLine
 62
7
  6
CONTINUOUS
 10
-9.9216981474
 20
21.7497880083
 11
-9.8527558919
 21
21.335766552
  0
LINE
  5
386
100
AcDbEntity
  8
ASSI
100
AcDbLine
 62
7
  6
CONTINUOUS
 10
-3.9527558919
 20
22.0497880083
 11
-3.9527558919
 21
22.0146230342
  0
LINE
  5
387
100
AcDbEntity
  8
DRAFT
100
AcDbLine
 62
7
  6
CONTINUOUS
 10
-3.9527558919
 20
22.0497880083
 11
-3.9527558919
 21
22.0146230342
  0
LINE
  5
388
100
AcDbEntity
  8
ASSI
100
AcDbLine
 62
7
  6
CONTINUOUS
 10
-3.9527558919
 20
-20.3502119917
 11
-3.9527558919
 21
-20.3150470176
  0
LINE
  5
389
100
AcDbEntity
  8
DRAFT
100
AcDbLine
 62
7
  6
CONTINUOUS
 10
-3.9527558919
 20
-20.3502119917
 11
-3.9527558919
 21
-20.3150470176
  0
LINE
  5
38A
100
AcDbEntity
  8
ASSI
100
AcDbLine
 62
7
  6
CONTINUOUS
 10
-3.8527558919
 20
-9.1002119917
 11
-3.8527558919
 21
-8.4213766013
  0
LINE
  5
38B
100
AcDbEntity
  8
ASSI
100
AcDbLine
 62
7
  6
CONTINUOUS
 10
-3.3027558919
 20
-20.3502119917
 11
-3.3027558919
 21
-21.3502119917
  0
LINE
  5
38C
100
AcDbEntity
  8
DRAFT
100
AcDbLine
 62
7
  6
CONTINUOUS
 10
-3.3027558919
 20
-20.3502119917
 11
-3.3027558919
 21
-21.3502119917
  0
LINE
  5
38D
100
AcDbEntity
  8
ASSI
100
AcDbLine
 62
7
  6
CONTINUOUS
 10
-3.3027558919
 20
22.0497880083
 11
-3.3027558919
 21
23.0497880083
  0
LINE
  5
38E
100
AcDbEntity
  8
DRAFT
100
AcDbLine
 62
7
  6
CONTINUOUS
 10
-3.3027558919
 20
22.0497880083
 11
-3.3027558919
 21
23.0497880083
  0
LINE
  5
38F
100
AcDbEntity
  8
ASSI
100
AcDbLine
 62
7
  6
CONTINUOUS
 10
-2.9527558919
 20
-7.8460159965
 11
-2.9527558919
 21
-8.5502119917
  0
LINE
  5
390
100
AcDbEntity
  8
ASSI
100
AcDbLine
 62
7
  6
CONTINUOUS
 10
-2.4527558919
 20
-7.8460159965
 11
-2.4527558919
 21
-8.5502119917
  0
LINE
  5
391
100
AcDbEntity
  8
DRAFT
100
AcDbLine
 62
7
  6
CONTINUOUS
 10
3.7705814557
 20
24.3497880083
 11
3.7499286626
 21
24.2799677486
  0
LINE
  5
392
100
AcDbEntity
  8
ASSI
100
AcDbLine
 62
7
  6
CONTINUOUS
 10
2.8090806178
 20
23.0497880083
 11
2.4740593544
 21
22.0497880083
  0
LINE
  5
393
100
AcDbEntity
  8
DRAFT
100
AcDbLine
 62
7
  6
CONTINUOUS
 10
2.8090806178
 20
23.0497880083
 11
2.4740593544
 21
22.0497880083
  0
LINE
  5
394
100
AcDbEntity
  8
RACCORDO
100
AcDbLine
 62
7
  6
CONTINUOUS
 10
-9.6027558919
 20
-7.6342467761
 11
-9.6993669228
 21
-7.8315349124
  0
LINE
  5
395
100
AcDbEntity
  8
ASSI
100
AcDbLine
 62
7
  6
CONTINUOUS
 10
-9.6027558919
 20
-7.6342467761
 11
-9.6993669228
 21
-7.8315349124
  0
LINE
  5
396
100
AcDbEntity
  8
DRAFT
100
AcDbLine
 62
7
  6
CONTINUOUS
 10
-8.3201075015
 20
-3.3059546411
 11
-8.4527558919
 21
-3.571271628
  0
LINE
  5
397
100
AcDbEntity
  8
ASSI
100
AcDbLine
 62
7
  6
CONTINUOUS
 10
-8.3201075015
 20
-3.3059546411
 11
-8.4527558919
 21
-3.571271628
  0
LINE
  5
398
100
AcDbEntity
  8
DRAFT
100
AcDbLine
 62
7
  6
CONTINUOUS
 10
-8.7136892388
 20
-4.4510587967
 11
-8.5382791962
 21
-4.1002119917
  0
LINE
  5
399
100
AcDbEntity
  8
ASSI
100
AcDbLine
 62
7
  6
CONTINUOUS
 10
-8.7136892388
 20
-4.4510587967
 11
-8.5382791962
 21
-4.1002119917
  0
LINE
  5
39A
100
AcDbEntity
  8
RACCORDO
100
AcDbLine
 62
7
  6
CONTINUOUS
 10
7.5135334468
 20
18.066077347
 11
7.5472441081
 21
18.0997880083
  0
LINE
  5
39B
100
AcDbEntity
  8
ASSI
100
AcDbLine
 62
7
  6
CONTINUOUS
 10
7.5135334468
 20
18.066077347
 11
7.5472441081
 21
18.0997880083
  0
LINE
  5
39C
100
AcDbEntity
  8
DRAFT
100
AcDbLine
 62
7
  6
CONTINUOUS
 10
7.595241881
 20
16.5477857812
 11
7.5228088783
 21
16.4753527785
  0
LINE
  5
39D
100
AcDbEntity
  8
ASSI
100
AcDbLine
 62
7
  6
CONTINUOUS
 10
7.595241881
 20
16.5477857812
 11
7.5228088783
 21
16.4753527785
  0
LINE
  5
39E
100
AcDbEntity
  8
DRAFT
100
AcDbLine
 62
7
  6
CONTINUOUS
 10
-10.2027558919
 20
-1.4002119917
 11
-9.9758400478
 21
-1.1732961476
  0
LINE
  5
39F
100
AcDbEntity
  8
ASSI
100
AcDbLine
 62
7
  6
CONTINUOUS
 10
-10.2027558919
 20
-1.4002119917
 11
-9.9758400478
 21
-1.1732961476
  0
LINE
  5
3A0
100
AcDbEntity
  8
DRAFT
100
AcDbLine
 62
7
  6
CONTINUOUS
 10
5.7972441081
 20
-16.2841446501
 11
6.4991515749
 21
-16.1087346075
  0
LINE
  5
3A1
100
AcDbEntity
  8
ASSI
100
AcDbLine
 62
7
  6
CONTINUOUS
 10
5.7972441081
 20
-16.2841446501
 11
6.4991515749
 21
-16.1087346075
  0
LINE
  5
3A2
100
AcDbEntity
  8
ASSI
100
AcDbLine
 62
7
  6
CONTINUOUS
 10
-5.694902174
 20
-14.6002119917
 11
7.7972441081
 21
-14.6002119917
  0
LINE
  5
3A3
100
AcDbEntity
  8
0
100
AcDbLine
 62
7
  6
CONTINUOUS
 10
-5.694902174
 20
-14.6002119917
 11
7.7972441081
 21
-14.6002119917
  0
LINE
  5
3A4
100
AcDbEntity
  8
CURVE
100
AcDbLine
 62
253
  6
CONTINUOUS
 10
10.876507408
 20
-14.4740216631
 11
10.8767775253
 21
-14.4740216631
  0
LINE
  5
3A5
100
AcDbEntity
  8
CURVE
100
AcDbLine
 62
253
  6
CONTINUOUS
 10
10.8767775253
 20
-14.3502119917
 11
10.876507408
 21
-14.3502119917
  0
LINE
  5
3A6
100
AcDbEntity
  8
CURVE
100
AcDbLine
 62
253
  6
CONTINUOUS
 10
10.8851511628
 20
-13.7930694002
 11
10.8835304589
 21
-13.7930694002
  0
LINE
  5
3A7
100
AcDbEntity
  8
CURVE
100
AcDbLine
 62
253
  6
CONTINUOUS
 10
10.8810994027
 20
-12.6787835974
 11
10.8802890507
 21
-12.6787835974
  0
LINE
  5
3A8
100
AcDbEntity
  8
CURVE
100
AcDbLine
 62
253
  6
CONTINUOUS
 10
10.8762372907
 20
-12.6787835974
 11
10.8754269386
 21
-12.6787835974
  0
LINE
  5
3A9
100
AcDbEntity
  8
DRAFT
100
AcDbLine
 62
7
  6
CONTINUOUS
 10
8.0542256023
 20
-12.3827582561
 11
-5.6774479753
 21
-12.3827582561
  0
LINE
  5
3AA
100
AcDbEntity
  8
ASSI
100
AcDbLine
 62
7
  6
CONTINUOUS
 10
8.0542256023
 20
-12.3827582561
 11
-5.6774479753
 21
-12.3827582561
  0
LINE
  5
3AB
100
AcDbEntity
  8
CURVE
100
AcDbLine
 62
253
  6
CONTINUOUS
 10
10.8851511628
 20
-12.3073545832
 11
10.8835304589
 21
-12.3073545832
  0
LINE
  5
3AC
100
AcDbEntity
  8
DRAFT
100
AcDbLine
 62
7
  6
CONTINUOUS
 10
-9.6549777373
 20
-9.1246472215
 11
-9.7527558919
 21
-9.1002119917
  0
LINE
  5
3AD
100
AcDbEntity
  8
ASSI
100
AcDbLine
 62
7
  6
CONTINUOUS
 10
-9.6549777373
 20
-9.1246472215
 11
-9.7527558919
 21
-9.1002119917
  0
LINE
  5
3AE
100
AcDbEntity
  8
DRAFT
100
AcDbLine
 62
7
  6
CONTINUOUS
 10
-10.2027558919
 20
1.5997880083
 11
-9.9758400478
 21
1.3728721642
  0
LINE
  5
3AF
100
AcDbEntity
  8
ASSI
100
AcDbLine
 62
7
  6
CONTINUOUS
 10
-10.2027558919
 20
1.5997880083
 11
-9.9758400478
 21
1.3728721642
  0
LINE
  5
3B0
100
AcDbEntity
  8
DRAFT
100
AcDbLine
 62
7
  6
CONTINUOUS
 10
8.1170590504
 20
-14.8133022934
 11
8.0542256023
 21
-14.7504688453
  0
LINE
  5
3B1
100
AcDbEntity
  8
ASSI
100
AcDbLine
 62
7
  6
CONTINUOUS
 10
8.1170590504
 20
-14.8133022934
 11
8.0542256023
 21
-14.7504688453
  0
LINE
  5
3B2
100
AcDbEntity
  8
DRAFT
100
AcDbLine
 62
7
  6
CONTINUOUS
 10
-9.7527558919
 20
9.2997880083
 11
-9.831297702
 21
9.4568835927
  0
LINE
  5
3B3
100
AcDbEntity
  8
ASSI
100
AcDbLine
 62
7
  6
CONTINUOUS
 10
-9.7527558919
 20
9.2997880083
 11
-9.831297702
 21
9.4568835927
  0
LINE
  5
3B4
100
AcDbEntity
  8
DRAFT
100
AcDbLine
 62
7
  6
CONTINUOUS
 10
-9.7900245698
 20
9.8251854627
 11
-9.7027558919
 21
9.6506348134
  0
LINE
  5
3B5
100
AcDbEntity
  8
ASSI
100
AcDbLine
 62
7
  6
CONTINUOUS
 10
-9.7900245698
 20
9.8251854627
 11
-9.7027558919
 21
9.6506348134
  0
LINE
  5
3B6
100
AcDbEntity
  8
DRAFT
100
AcDbLine
 62
7
  6
CONTINUOUS
 10
-7.9815545556
 20
9.2997880083
 11
-8.1569645982
 21
9.6506348134
  0
LINE
  5
3B7
100
AcDbEntity
  8
ASSI
100
AcDbLine
 62
7
  6
CONTINUOUS
 10
-7.9815545556
 20
9.2997880083
 11
-8.1569645982
 21
9.6506348134
  0
LINE
  5
3B8
100
AcDbEntity
  8
ASSI
100
AcDbLine
 62
7
  6
CONTINUOUS
 10
2.4740593544
 20
-20.3502119917
 11
2.8090806178
 21
-21.3502119917
  0
LINE
  5
3B9
100
AcDbEntity
  8
DRAFT
100
AcDbLine
 62
7
  6
CONTINUOUS
 10
2.4740593544
 20
-20.3502119917
 11
2.8090806178
 21
-21.3502119917
  0
LINE
  5
3BA
100
AcDbEntity
  8
DRAFT
100
AcDbLine
 62
7
  6
CONTINUOUS
 10
3.7705814557
 20
-22.6502119917
 11
3.7499286626
 21
-22.580391732
  0
LINE
  5
3BB
100
AcDbEntity
  8
ASSI
100
AcDbLine
 62
7
  6
CONTINUOUS
 10
-0.5329409496
 20
-18.6502119917
 11
-0.5786640267
 21
-16.7432461124
  0
LINE
  5
3BC
100
AcDbEntity
  8
DRAFT
100
AcDbLine
 62
7
  6
CONTINUOUS
 10
-0.5329409496
 20
-18.6502119917
 11
-0.5786640267
 21
-16.7432461124
  0
LINE
  5
3BD
100
AcDbEntity
  8
ASSI
100
AcDbLine
 62
7
  6
CONTINUOUS
 10
0.1792937143
 20
18.1866806577
 11
0.1274291658
 21
20.3497880083
  0
LINE
  5
3BE
100
AcDbEntity
  8
DRAFT
100
AcDbLine
 62
7
  6
CONTINUOUS
 10
0.1792937143
 20
18.1866806577
 11
0.1274291658
 21
20.3497880083
  0
LINE
  5
3BF
100
AcDbEntity
  8
0
100
AcDbLine
 62
7
  6
CONTINUOUS
 10
-1.5527558919
 20
3.1247880083
 11
-1.5527558919
 21
3.4471516348
  0
LINE
  5
3C0
100
AcDbEntity
  8
ASSI
100
AcDbLine
 62
7
  6
CONTINUOUS
 10
-1.4527558919
 20
-7.8460159965
 11
-1.4527558919
 21
-8.5502119917
  0
LINE
  5
3C1
100
AcDbEntity
  8
ASSI
100
AcDbLine
 62
7
  6
CONTINUOUS
 10
-0.9527558919
 20
-7.5002119917
 11
-0.9527558919
 21
-7.5502119917
  0
LINE
  5
3C2
100
AcDbEntity
  8
ASSI
100
AcDbLine
 62
7
  6
CONTINUOUS
 10
-0.9527558919
 20
-7.8460159965
 11
-0.9527558919
 21
-8.5502119917
  0
LINE
  5
3C3
100
AcDbEntity
  8
0
100
AcDbLine
 62
7
  6
CONTINUOUS
 10
-0.8527558919
 20
2.0747880083
 11
-0.8527558919
 21
3.4471516348
  0
LINE
  5
3C4
100
AcDbEntity
  8
ASSI
100
AcDbLine
 62
7
  6
CONTINUOUS
 10
-0.6716981474
 20
21.2808457528
 11
-0.6716981474
 21
18.0997880083
  0
LINE
  5
3C5
100
AcDbEntity
  8
DRAFT
100
AcDbLine
 62
7
  6
CONTINUOUS
 10
-0.6716981474
 20
21.2808457528
 11
-0.6716981474
 21
18.0997880083
  0
LINE
  5
3C6
100
AcDbEntity
  8
ASSI
100
AcDbLine
 62
7
  6
CONTINUOUS
 10
-0.6716981474
 20
-16.6502119917
 11
-0.6716981474
 21
-19.5812697361
  0
LINE
  5
3C7
100
AcDbEntity
  8
DRAFT
100
AcDbLine
 62
7
  6
CONTINUOUS
 10
-0.6716981474
 20
-16.6502119917
 11
-0.6716981474
 21
-19.5812697361
  0
LINE
  5
3C8
100
AcDbEntity
  8
RACCORDO
100
AcDbLine
 62
7
  6
CONTINUOUS
 10
-0.6527558919
 20
8.06287831
 11
-0.6527558919
 21
9.5890609074
  0
LINE
  5
3C9
100
AcDbEntity
  8
ASSI
100
AcDbLine
 62
7
  6
CONTINUOUS
 10
-0.6527558919
 20
8.06287831
 11
-0.6527558919
 21
9.5890609074
  0
LINE
  5
3CA
100
AcDbEntity
  8
ASSI
100
AcDbLine
 62
7
  6
CONTINUOUS
 10
-0.5329409496
 20
-19.720026934
 11
-0.5329409496
 21
-18.6502119917
  0
LINE
  5
3CB
100
AcDbEntity
  8
DRAFT
100
AcDbLine
 62
7
  6
CONTINUOUS
 10
-0.5329409496
 20
-19.720026934
 11
-0.5329409496
 21
-18.6502119917
  0
LINE
  5
3CC
100
AcDbEntity
  8
ASSI
100
AcDbLine
 62
7
  6
CONTINUOUS
 10
-0.5329409496
 20
20.3497880083
 11
-0.5329409496
 21
21.4196029506
  0
LINE
  5
3CD
100
AcDbEntity
  8
DRAFT
100
AcDbLine
 62
7
  6
CONTINUOUS
 10
-0.5329409496
 20
20.3497880083
 11
-0.5329409496
 21
21.4196029506
  0
LINE
  5
3CE
100
AcDbEntity
  8
0
100
AcDbLine
 62
7
  6
CONTINUOUS
 10
-0.0527558919
 20
1.3247880083
 11
-0.0527558919
 21
3.4471516348
  0
LINE
  5
3CF
100
AcDbEntity
  8
ASSI
100
AcDbLine
 62
7
  6
CONTINUOUS
 10
0.0472441081
 20
-7.8460159965
 11
0.0472441081
 21
-8.5502119917
  0
LINE
  5
3D0
100
AcDbEntity
  8
ASSI
100
AcDbLine
 62
7
  6
CONTINUOUS
 10
0.1274291658
 20
-19.720026934
 11
0.1274291658
 21
-18.6502119917
  0
LINE
  5
3D1
100
AcDbEntity
  8
DRAFT
100
AcDbLine
 62
7
  6
CONTINUOUS
 10
0.1274291658
 20
-19.720026934
 11
0.1274291658
 21
-18.6502119917
  0
LINE
  5
3D2
100
AcDbEntity
  8
ASSI
100
AcDbLine
 62
7
  6
CONTINUOUS
 10
0.1274291658
 20
20.3497880083
 11
0.1274291658
 21
21.4196029506
  0
LINE
  5
3D3
100
AcDbEntity
  8
DRAFT
100
AcDbLine
 62
7
  6
CONTINUOUS
 10
0.1274291658
 20
20.3497880083
 11
0.1274291658
 21
21.4196029506
  0
LINE
  5
3D4
100
AcDbEntity
  8
RACCORDO
100
AcDbLine
 62
7
  6
CONTINUOUS
 10
0.2472441081
 20
9.5890609074
 11
0.2472441081
 21
8.06287831
  0
LINE
  5
3D5
100
AcDbEntity
  8
ASSI
100
AcDbLine
 62
7
  6
CONTINUOUS
 10
0.2472441081
 20
9.5890609074
 11
0.2472441081
 21
8.06287831
  0
LINE
  5
3D6
100
AcDbEntity
  8
ASSI
100
AcDbLine
 62
7
  6
CONTINUOUS
 10
0.2661863637
 20
-19.5812697361
 11
0.2661863637
 21
-16.6502119917
  0
LINE
  5
3D7
100
AcDbEntity
  8
DRAFT
100
AcDbLine
 62
7
  6
CONTINUOUS
 10
0.2661863637
 20
-19.5812697361
 11
0.2661863637
 21
-16.6502119917
  0
LINE
  5
3D8
100
AcDbEntity
  8
ASSI
100
AcDbLine
 62
7
  6
CONTINUOUS
 10
0.2661863637
 20
18.0997880083
 11
0.2661863637
 21
21.2808457528
  0
LINE
  5
3D9
100
AcDbEntity
  8
DRAFT
100
AcDbLine
 62
7
  6
CONTINUOUS
 10
0.2661863637
 20
18.0997880083
 11
0.2661863637
 21
21.2808457528
  0
LINE
  5
3DA
100
AcDbEntity
  8
ASSI
100
AcDbLine
 62
7
  6
CONTINUOUS
 10
0.5472441081
 20
-7.5002119917
 11
0.5472441081
 21
-7.5502119917
  0
LINE
  5
3DB
100
AcDbEntity
  8
ASSI
100
AcDbLine
 62
7
  6
CONTINUOUS
 10
0.5472441081
 20
-7.8460159965
 11
0.5472441081
 21
-8.5502119917
  0
LINE
  5
3DC
100
AcDbEntity
  8
0
100
AcDbLine
 62
7
  6
CONTINUOUS
 10
0.6472441081
 20
2.3747880083
 11
0.6472441081
 21
3.4471516348
  0
LINE
  5
3DD
100
AcDbEntity
  8
ASSI
100
AcDbLine
 62
7
  6
CONTINUOUS
 10
-0.5848054981
 20
18.1866806577
 11
-0.5329409496
 21
20.3497880083
  0
LINE
  5
3DE
100
AcDbEntity
  8
DRAFT
100
AcDbLine
 62
7
  6
CONTINUOUS
 10
-0.5848054981
 20
18.1866806577
 11
-0.5329409496
 21
20.3497880083
  0
LINE
  5
3DF
100
AcDbEntity
  8
ASSI
100
AcDbLine
 62
7
  6
CONTINUOUS
 10
0.1274291658
 20
-18.6502119917
 11
0.173152243
 21
-16.7432461124
  0
LINE
  5
3E0
100
AcDbEntity
  8
DRAFT
100
AcDbLine
 62
7
  6
CONTINUOUS
 10
0.1274291658
 20
-18.6502119917
 11
0.173152243
 21
-16.7432461124
  0
LINE
  5
3E1
100
AcDbEntity
  8
DRAFT
100
AcDbLine
 62
7
  6
CONTINUOUS
 10
10.6057667239
 20
17.8083106241
 11
10.8972441081
 21
18.0997880083
  0
LINE
  5
3E2
100
AcDbEntity
  8
ASSI
100
AcDbLine
 62
7
  6
CONTINUOUS
 10
10.6057667239
 20
17.8083106241
 11
10.8972441081
 21
18.0997880083
  0
LINE
  5
3E3
100
AcDbEntity
  8
DRAFT
100
AcDbLine
 62
7
  6
CONTINUOUS
 10
9.6387214923
 20
16.7912653925
 11
9.3472441081
 21
16.4997880083
  0
LINE
  5
3E4
100
AcDbEntity
  8
ASSI
100
AcDbLine
 62
7
  6
CONTINUOUS
 10
9.6387214923
 20
16.7912653925
 11
9.3472441081
 21
16.4997880083
  0
LINE
  5
3E5
100
AcDbEntity
  8
DRAFT
100
AcDbLine
 62
7
  6
CONTINUOUS
 10
-10.2027558919
 20
-3.4002119917
 11
-9.9758400478
 21
-3.1732961476
  0
LINE
  5
3E6
100
AcDbEntity
  8
ASSI
100
AcDbLine
 62
7
  6
CONTINUOUS
 10
-10.2027558919
 20
-3.4002119917
 11
-9.9758400478
 21
-3.1732961476
  0
LINE
  5
3E7
100
AcDbEntity
  8
ASSI
100
AcDbLine
 62
7
  6
CONTINUOUS
 10
8.5972441081
 20
14.4997880083
 11
8.6035268982
 21
14.5060707985
  0
LINE
  5
3E8
100
AcDbEntity
  8
RACCORDO
100
AcDbLine
 62
7
  6
CONTINUOUS
 10
8.5972441081
 20
14.4997880083
 11
8.6035268982
 21
14.5060707985
  0
LINE
  5
3E9
100
AcDbEntity
  8
RACCORDO
100
AcDbLine
 62
7
  6
CONTINUOUS
 10
7.7445017826
 20
12.8106323501
 11
7.5228088783
 21
12.6997880083
  0
LINE
  5
3EA
100
AcDbEntity
  8
ASSI
100
AcDbLine
 62
7
  6
CONTINUOUS
 10
7.7445017826
 20
12.8106323501
 11
7.5228088783
 21
12.6997880083
  0
LINE
  5
3EB
100
AcDbEntity
  8
DRAFT
100
AcDbLine
 62
7
  6
CONTINUOUS
 10
-6.2027558919
 20
-14.9162793333
 11
-6.9046633587
 21
-15.0916893759
  0
LINE
  5
3EC
100
AcDbEntity
  8
ASSI
100
AcDbLine
 62
7
  6
CONTINUOUS
 10
-6.2027558919
 20
-14.9162793333
 11
-6.9046633587
 21
-15.0916893759
  0
LINE
  5
3ED
100
AcDbEntity
  8
ASSI
100
AcDbLine
 62
7
  6
CONTINUOUS
 10
8.6938747237
 20
-11.189075611
 11
9.3472441081
 21
-11.1727881471
  0
LINE
  5
3EE
100
AcDbEntity
  8
RACCORDO
100
AcDbLine
 62
7
  6
CONTINUOUS
 10
8.6938747237
 20
-11.189075611
 11
9.3472441081
 21
-11.1727881471
  0
LINE
  5
3EF
100
AcDbEntity
  8
DRAFT
100
AcDbLine
 62
7
  6
CONTINUOUS
 10
8.0542256023
 20
-11.8932304975
 11
-5.6774479753
 21
-11.8932304975
  0
LINE
  5
3F0
100
AcDbEntity
  8
ASSI
100
AcDbLine
 62
7
  6
CONTINUOUS
 10
8.0542256023
 20
-11.8932304975
 11
-5.6774479753
 21
-11.8932304975
  0
LINE
  5
3F1
100
AcDbEntity
  8
DRAFT
100
AcDbLine
 62
7
  6
CONTINUOUS
 10
8.0795335189
 20
-11.8679225809
 11
-5.7027558919
 21
-11.8679225809
  0
LINE
  5
3F2
100
AcDbEntity
  8
ASSI
100
AcDbLine
 62
7
  6
CONTINUOUS
 10
8.0795335189
 20
-11.8679225809
 11
-5.7027558919
 21
-11.8679225809
  0
LINE
  5
3F3
100
AcDbEntity
  8
DRAFT
100
AcDbLine
 62
7
  6
CONTINUOUS
 10
-10.0442332761
 20
-11.7161246057
 11
-9.7027558919
 21
-11.7161246057
  0
LINE
  5
3F4
100
AcDbEntity
  8
ASSI
100
AcDbLine
 62
7
  6
CONTINUOUS
 10
-10.0442332761
 20
-11.7161246057
 11
-9.7027558919
 21
-11.7161246057
  0
LINE
  5
3F5
100
AcDbEntity
  8
DRAFT
100
AcDbLine
 62
7
  6
CONTINUOUS
 10
9.2972441081
 20
-11.7161246057
 11
9.6387214923
 21
-11.7161246057
  0
LINE
  5
3F6
100
AcDbEntity
  8
ASSI
100
AcDbLine
 62
7
  6
CONTINUOUS
 10
9.2972441081
 20
-11.7161246057
 11
9.6387214923
 21
-11.7161246057
  0
LINE
  5
3F7
100
AcDbEntity
  8
DRAFT
100
AcDbLine
 62
7
  6
CONTINUOUS
 10
-9.4243688094
 20
-11.4377375232
 11
-8.5225708342
 21
-11.4377375232
  0
LINE
  5
3F8
100
AcDbEntity
  8
ASSI
100
AcDbLine
 62
7
  6
CONTINUOUS
 10
-9.4243688094
 20
-11.4377375232
 11
-8.5225708342
 21
-11.4377375232
  0
LINE
  5
3F9
100
AcDbEntity
  8
DRAFT
100
AcDbLine
 62
7
  6
CONTINUOUS
 10
9.0188570256
 20
-11.4377375232
 11
8.1170590504
 21
-11.4377375232
  0
LINE
  5
3FA
100
AcDbEntity
  8
ASSI
100
AcDbLine
 62
7
  6
CONTINUOUS
 10
9.0188570256
 20
-11.4377375232
 11
8.1170590504
 21
-11.4377375232
  0
LINE
  5
3FB
100
AcDbEntity
  8
DRAFT
100
AcDbLine
 62
7
  6
CONTINUOUS
 10
-9.6549777373
 20
-11.4002119917
 11
-8.4850453027
 21
-11.4002119917
  0
LINE
  5
3FC
100
AcDbEntity
  8
ASSI
100
AcDbLine
 62
7
  6
CONTINUOUS
 10
-9.6549777373
 20
-11.4002119917
 11
-8.4850453027
 21
-11.4002119917
  0
LINE
  5
3FD
100
AcDbEntity
  8
DRAFT
100
AcDbLine
 62
7
  6
CONTINUOUS
 10
8.0795335189
 20
-11.4002119917
 11
9.2494659535
 21
-11.4002119917
  0
LINE
  5
3FE
100
AcDbEntity
  8
ASSI
100
AcDbLine
 62
7
  6
CONTINUOUS
 10
8.0795335189
 20
-11.4002119917
 11
9.2494659535
 21
-11.4002119917
  0
LINE
  5
3FF
100
AcDbEntity
  8
CURVE
100
AcDbLine
 62
253
  6
CONTINUOUS
 10
10.8754269386
 20
-11.2859261888
 11
10.8867718668
 21
-11.2859261888
  0
LINE
  5
400
100
AcDbEntity
  8
ASSI
100
AcDbLine
 62
7
  6
CONTINUOUS
 10
9.3472441081
 20
-11.2002119917
 11
8.5972441081
 21
-11.2002119917
  0
LINE
  5
401
100
AcDbEntity
  8
DRAFT
100
AcDbLine
 62
7
  6
CONTINUOUS
 10
9.3472441081
 20
-11.2002119917
 11
8.5972441081
 21
-11.2002119917
  0
LINE
  5
402
100
AcDbEntity
  8
ASSI
100
AcDbLine
 62
7
  6
CONTINUOUS
 10
-9.0027558919
 20
-11.2002119917
 11
-9.7527558919
 21
-11.2002119917
  0
LINE
  5
403
100
AcDbEntity
  8
DRAFT
100
AcDbLine
 62
7
  6
CONTINUOUS
 10
-9.0027558919
 20
-11.2002119917
 11
-9.7527558919
 21
-11.2002119917
  0
LINE
  5
404
100
AcDbEntity
  8
DRAFT
100
AcDbLine
 62
7
  6
CONTINUOUS
 10
8.0795335189
 20
-10.9325014025
 11
-8.4850453027
 21
-10.9325014025
  0
LINE
  5
405
100
AcDbEntity
  8
ASSI
100
AcDbLine
 62
7
  6
CONTINUOUS
 10
8.0795335189
 20
-10.9325014025
 11
-8.4850453027
 21
-10.9325014025
  0
LINE
  5
406
100
AcDbEntity
  8
DRAFT
100
AcDbLine
 62
7
  6
CONTINUOUS
 10
-8.4527558919
 20
-10.9002119917
 11
8.0472441081
 21
-10.9002119917
  0
LINE
  5
407
100
AcDbEntity
  8
ASSI
100
AcDbLine
 62
7
  6
CONTINUOUS
 10
-8.4527558919
 20
-10.9002119917
 11
8.0472441081
 21
-10.9002119917
  0
LINE
  5
408
100
AcDbEntity
  8
DRAFT
100
AcDbLine
 62
7
  6
CONTINUOUS
 10
8.5972441081
 20
-10.8502119917
 11
8.0795335189
 21
-10.8502119917
  0
LINE
  5
409
100
AcDbEntity
  8
ASSI
100
AcDbLine
 62
7
  6
CONTINUOUS
 10
8.5972441081
 20
-10.8502119917
 11
8.0795335189
 21
-10.8502119917
  0
LINE
  5
40A
100
AcDbEntity
  8
DRAFT
100
AcDbLine
 62
7
  6
CONTINUOUS
 10
-8.4850453027
 20
-10.8502119917
 11
-9.0027558919
 21
-10.8502119917
  0
LINE
  5
40B
100
AcDbEntity
  8
ASSI
100
AcDbLine
 62
7
  6
CONTINUOUS
 10
-8.4850453027
 20
-10.8502119917
 11
-9.0027558919
 21
-10.8502119917
  0
LINE
  5
40C
100
AcDbEntity
  8
CURVE
100
AcDbLine
 62
253
  6
CONTINUOUS
 10
10.8802890507
 20
-10.5430690903
 11
10.8762372907
 21
-10.5430690903
  0
LINE
  5
40D
100
AcDbEntity
  8
CURVE
100
AcDbLine
 62
253
  6
CONTINUOUS
 10
10.8851511628
 20
-10.5121168274
 11
10.8827201066
 21
-10.5121168274
  0
LINE
  5
40E
100
AcDbEntity
  8
DRAFT
100
AcDbLine
 62
7
  6
CONTINUOUS
 10
8.5972441081
 20
-9.6502119917
 11
8.0795335189
 21
-9.6502119917
  0
LINE
  5
40F
100
AcDbEntity
  8
ASSI
100
AcDbLine
 62
7
  6
CONTINUOUS
 10
8.5972441081
 20
-9.6502119917
 11
8.0795335189
 21
-9.6502119917
  0
LINE
  5
410
100
AcDbEntity
  8
DRAFT
100
AcDbLine
 62
7
  6
CONTINUOUS
 10
-8.4850453027
 20
-9.6502119917
 11
-9.0027558919
 21
-9.6502119917
  0
LINE
  5
411
100
AcDbEntity
  8
ASSI
100
AcDbLine
 62
7
  6
CONTINUOUS
 10
-8.4850453027
 20
-9.6502119917
 11
-9.0027558919
 21
-9.6502119917
  0
LINE
  5
412
100
AcDbEntity
  8
CURVE
100
AcDbLine
 62
253
  6
CONTINUOUS
 10
10.8802890507
 20
-9.6144977945
 11
10.8770476427
 21
-9.6144977945
  0
LINE
  5
413
100
AcDbEntity
  8
ASSI
100
AcDbLine
 62
7
  6
CONTINUOUS
 10
9.3472441081
 20
-9.4002119917
 11
8.5972441081
 21
-9.4002119917
  0
LINE
  5
414
100
AcDbEntity
  8
DRAFT
100
AcDbLine
 62
7
  6
CONTINUOUS
 10
9.3472441081
 20
-9.4002119917
 11
8.5972441081
 21
-9.4002119917
  0
LINE
  5
415
100
AcDbEntity
  8
0
100
AcDbLine
 62
7
  6
CONTINUOUS
 10
-6.4027558919
 20
-9.4002119917
 11
-5.7029020123
 21
-9.4002119917
  0
LINE
  5
416
100
AcDbEntity
  8
0
100
AcDbLine
 62
7
  6
CONTINUOUS
 10
5.9972441081
 20
-9.4002119917
 11
5.2973902285
 21
-9.4002119917
  0
LINE
  5
417
100
AcDbEntity
  8
0
100
AcDbLine
 62
7
  6
CONTINUOUS
 10
6.5972441081
 20
-9.4002119917
 11
7.2970979877
 21
-9.4002119917
  0
LINE
  5
418
100
AcDbEntity
  8
0
100
AcDbLine
 62
7
  6
CONTINUOUS
 10
-7.0027558919
 20
-9.4002119917
 11
-7.7026097715
 21
-9.4002119917
  0
LINE
  5
419
100
AcDbEntity
  8
ASSI
100
AcDbLine
 62
7
  6
CONTINUOUS
 10
-9.0027558919
 20
-9.4002119917
 11
-9.7527558919
 21
-9.4002119917
  0
LINE
  5
41A
100
AcDbEntity
  8
DRAFT
100
AcDbLine
 62
7
  6
CONTINUOUS
 10
-9.0027558919
 20
-9.4002119917
 11
-9.7527558919
 21
-9.4002119917
  0
LINE
  5
41B
100
AcDbEntity
  8
ASSI
100
AcDbLine
 62
7
  6
CONTINUOUS
 10
-9.7527558919
 20
-11.1727881471
 11
-9.0993865075
 21
-11.189075611
  0
LINE
  5
41C
100
AcDbEntity
  8
RACCORDO
100
AcDbLine
 62
7
  6
CONTINUOUS
 10
-9.7527558919
 20
-11.1727881471
 11
-9.0993865075
 21
-11.189075611
  0
LINE
  5
41D
100
AcDbEntity
  8
ASSI
100
AcDbLine
 62
7
  6
CONTINUOUS
 10
8.6938747237
 20
-9.4113483723
 11
9.3472441081
 21
-9.4276358363
  0
LINE
  5
41E
100
AcDbEntity
  8
RACCORDO
100
AcDbLine
 62
7
  6
CONTINUOUS
 10
8.6938747237
 20
-9.4113483723
 11
9.3472441081
 21
-9.4276358363
  0
LINE
  5
41F
100
AcDbEntity
  8
DRAFT
100
AcDbLine
 62
7
  6
CONTINUOUS
 10
9.3472441081
 20
-11.4246472215
 11
9.2494659535
 21
-11.4002119917
  0
LINE
  5
420
100
AcDbEntity
  8
ASSI
100
AcDbLine
 62
7
  6
CONTINUOUS
 10
9.3472441081
 20
-11.4246472215
 11
9.2494659535
 21
-11.4002119917
  0
LINE
  5
421
100
AcDbEntity
  8
DRAFT
100
AcDbLine
 62
7
  6
CONTINUOUS
 10
9.0188570256
 20
-14.8133022934
 11
9.2972441081
 21
-15.0916893759
  0
LINE
  5
422
100
AcDbEntity
  8
ASSI
100
AcDbLine
 62
7
  6
CONTINUOUS
 10
9.0188570256
 20
-14.8133022934
 11
9.2972441081
 21
-15.0916893759
  0
LINE
  5
423
100
AcDbEntity
  8
DRAFT
100
AcDbLine
 62
7
  6
CONTINUOUS
 10
10.6057667239
 20
-16.1087346075
 11
10.8972441081
 21
-16.4002119917
  0
LINE
  5
424
100
AcDbEntity
  8
ASSI
100
AcDbLine
 62
7
  6
CONTINUOUS
 10
10.6057667239
 20
-16.1087346075
 11
10.8972441081
 21
-16.4002119917
  0
LINE
  5
425
100
AcDbEntity
  8
DRAFT
100
AcDbLine
 62
7
  6
CONTINUOUS
 10
8.1170590504
 20
-11.4377375232
 11
8.0795335189
 21
-11.4002119917
  0
LINE
  5
426
100
AcDbEntity
  8
ASSI
100
AcDbLine
 62
7
  6
CONTINUOUS
 10
8.1170590504
 20
-11.4377375232
 11
8.0795335189
 21
-11.4002119917
  0
LINE
  5
427
100
AcDbEntity
  8
DRAFT
100
AcDbLine
 62
7
  6
CONTINUOUS
 10
8.0795335189
 20
-10.9325014025
 11
8.0472441081
 21
-10.9002119917
  0
LINE
  5
428
100
AcDbEntity
  8
ASSI
100
AcDbLine
 62
7
  6
CONTINUOUS
 10
8.0795335189
 20
-10.9325014025
 11
8.0472441081
 21
-10.9002119917
  0
LINE
  5
429
100
AcDbEntity
  8
ASSI
100
AcDbLine
 62
7
  6
CONTINUOUS
 10
1.5472441081
 20
-7.8460159965
 11
1.5472441081
 21
-8.5502119917
  0
LINE
  5
42A
100
AcDbEntity
  8
ASSI
100
AcDbLine
 62
7
  6
CONTINUOUS
 10
2.0472441081
 20
-7.8460159965
 11
2.0472441081
 21
-8.5502119917
  0
LINE
  5
42B
100
AcDbEntity
  8
ASSI
100
AcDbLine
 62
7
  6
CONTINUOUS
 10
2.8972441081
 20
-20.3502119917
 11
2.8972441081
 21
-21.3502119917
  0
LINE
  5
42C
100
AcDbEntity
  8
DRAFT
100
AcDbLine
 62
7
  6
CONTINUOUS
 10
2.8972441081
 20
-20.3502119917
 11
2.8972441081
 21
-21.3502119917
  0
LINE
  5
42D
100
AcDbEntity
  8
ASSI
100
AcDbLine
 62
7
  6
CONTINUOUS
 10
2.8972441081
 20
22.0497880083
 11
2.8972441081
 21
23.0497880083
  0
LINE
  5
42E
100
AcDbEntity
  8
DRAFT
100
AcDbLine
 62
7
  6
CONTINUOUS
 10
2.8972441081
 20
22.0497880083
 11
2.8972441081
 21
23.0497880083
  0
LINE
  5
42F
100
AcDbEntity
  8
ASSI
100
AcDbLine
 62
7
  6
CONTINUOUS
 10
3.0472441081
 20
-8.2274577464
 11
3.0472441081
 21
-8.5502119917
  0
LINE
  5
430
100
AcDbEntity
  8
ASSI
100
AcDbLine
 62
7
  6
CONTINUOUS
 10
3.4472441081
 20
-8.4213766013
 11
3.4472441081
 21
-9.1002119917
  0
LINE
  5
431
100
AcDbEntity
  8
DRAFT
100
AcDbLine
 62
7
  6
CONTINUOUS
 10
-4.1760932395
 20
-22.6502119917
 11
-4.1554404464
 21
-22.580391732
  0
LINE
  5
432
100
AcDbEntity
  8
0
100
AcDbLine
 62
7
  6
CONTINUOUS
 10
-5.1927558919
 20
-8.5502119917
 11
-5.7027558919
 21
-9.4002119917
  0
LINE
  5
433
100
AcDbEntity
  8
0
100
AcDbLine
 62
7
  6
CONTINUOUS
 10
-0.2027558919
 20
1.0997880083
 11
1.7972441081
 21
4.0997880083
  0
LINE
  5
434
100
AcDbEntity
  8
RACCORDO
100
AcDbLine
 62
7
  6
CONTINUOUS
 10
8.5472441081
 20
12.6997880083
 11
8.6580884499
 21
12.8106323501
  0
LINE
  5
435
100
AcDbEntity
  8
ASSI
100
AcDbLine
 62
7
  6
CONTINUOUS
 10
8.5472441081
 20
12.6997880083
 11
8.6580884499
 21
12.8106323501
  0
LINE
  5
436
100
AcDbEntity
  8
0
100
AcDbLine
 62
7
  6
CONTINUOUS
 10
7.5036097692
 20
11.2805888992
 11
7.5228088783
 21
11.2997880083
  0
LINE
  5
437
100
AcDbEntity
  8
ASSI
100
AcDbLine
 62
7
  6
CONTINUOUS
 10
7.5036097692
 20
11.2805888992
 11
7.5228088783
 21
11.2997880083
  0
LINE
  5
438
100
AcDbEntity
  8
RACCORDO
100
AcDbLine
 62
7
  6
CONTINUOUS
 10
-8.7067686689
 20
-7.8315349124
 11
-8.4754457481
 21
-7.6002119917
  0
LINE
  5
439
100
AcDbEntity
  8
ASSI
100
AcDbLine
 62
7
  6
CONTINUOUS
 10
-8.7067686689
 20
-7.8315349124
 11
-8.4754457481
 21
-7.6002119917
  0
LINE
  5
43A
100
AcDbEntity
  8
DRAFT
100
AcDbLine
 62
7
  6
CONTINUOUS
 10
9.2494659535
 20
-9.1246472215
 11
9.3472441081
 21
-9.1002119917
  0
LINE
  5
43B
100
AcDbEntity
  8
ASSI
100
AcDbLine
 62
7
  6
CONTINUOUS
 10
9.2494659535
 20
-9.1246472215
 11
9.3472441081
 21
-9.1002119917
  0
LINE
  5
43C
100
AcDbEntity
  8
ASSI
100
AcDbLine
 62
7
  6
CONTINUOUS
 10
-9.7527558919
 20
-9.4276358363
 11
-9.0993865075
 21
-9.4113483723
  0
LINE
  5
43D
100
AcDbEntity
  8
RACCORDO
100
AcDbLine
 62
7
  6
CONTINUOUS
 10
-9.7527558919
 20
-9.4276358363
 11
-9.0993865075
 21
-9.4113483723
  0
LINE
  5
43E
100
AcDbEntity
  8
DRAFT
100
AcDbLine
 62
7
  6
CONTINUOUS
 10
-9.6549777373
 20
-9.1246472215
 11
-8.4850453027
 21
-9.1246472215
  0
LINE
  5
43F
100
AcDbEntity
  8
ASSI
100
AcDbLine
 62
7
  6
CONTINUOUS
 10
-9.6549777373
 20
-9.1246472215
 11
-8.4850453027
 21
-9.1246472215
  0
LINE
  5
440
100
AcDbEntity
  8
DRAFT
100
AcDbLine
 62
7
  6
CONTINUOUS
 10
9.2494659535
 20
-9.1246472215
 11
8.0795335189
 21
-9.1246472215
  0
LINE
  5
441
100
AcDbEntity
  8
ASSI
100
AcDbLine
 62
7
  6
CONTINUOUS
 10
9.2494659535
 20
-9.1246472215
 11
8.0795335189
 21
-9.1246472215
  0
LINE
  5
442
100
AcDbEntity
  8
ASSI
100
AcDbLine
 62
7
  6
CONTINUOUS
 10
-4.8525836652
 20
-9.1002119917
 11
-3.8529281186
 21
-9.1002119917
  0
LINE
  5
443
100
AcDbEntity
  8
ASSI
100
AcDbLine
 62
7
  6
CONTINUOUS
 10
3.4474163348
 20
-9.1002119917
 11
4.4470718814
 21
-9.1002119917
  0
LINE
  5
444
100
AcDbEntity
  8
CURVE
100
AcDbLine
 62
253
  6
CONTINUOUS
 10
10.8770476427
 20
-8.9644977945
 11
10.8810994027
 21
-8.9644977945
  0
LINE
  5
445
100
AcDbEntity
  8
DRAFT
100
AcDbLine
 62
7
  6
CONTINUOUS
 10
-9.7027558919
 20
-8.8960032854
 11
-8.7136892388
 21
-8.8960032854
  0
LINE
  5
446
100
AcDbEntity
  8
ASSI
100
AcDbLine
 62
7
  6
CONTINUOUS
 10
-9.7027558919
 20
-8.8960032854
 11
-8.7136892388
 21
-8.8960032854
  0
LINE
  5
447
100
AcDbEntity
  8
DRAFT
100
AcDbLine
 62
7
  6
CONTINUOUS
 10
9.2972441081
 20
-8.8960032854
 11
8.3081774551
 21
-8.8960032854
  0
LINE
  5
448
100
AcDbEntity
  8
ASSI
100
AcDbLine
 62
7
  6
CONTINUOUS
 10
9.2972441081
 20
-8.8960032854
 11
8.3081774551
 21
-8.8960032854
  0
LINE
  5
449
100
AcDbEntity
  8
DRAFT
100
AcDbLine
 62
7
  6
CONTINUOUS
 10
-10.0442332761
 20
-8.8087346075
 11
-9.7900245698
 21
-8.8087346075
  0
LINE
  5
44A
100
AcDbEntity
  8
ASSI
100
AcDbLine
 62
7
  6
CONTINUOUS
 10
-10.0442332761
 20
-8.8087346075
 11
-9.7900245698
 21
-8.8087346075
  0
LINE
  5
44B
100
AcDbEntity
  8
DRAFT
100
AcDbLine
 62
7
  6
CONTINUOUS
 10
9.384512786
 20
-8.8087346075
 11
9.6387214923
 21
-8.8087346075
  0
LINE
  5
44C
100
AcDbEntity
  8
ASSI
100
AcDbLine
 62
7
  6
CONTINUOUS
 10
9.384512786
 20
-8.8087346075
 11
9.6387214923
 21
-8.8087346075
  0
LINE
  5
44D
100
AcDbEntity
  8
RACCORDO
100
AcDbLine
 62
253
  6
CONTINUOUS
 10
-9.7027558919
 20
-8.6315044508
 11
-8.7136892388
 21
-8.6315044508
  0
LINE
  5
44E
100
AcDbEntity
  8
ASSI
100
AcDbLine
 62
253
  6
CONTINUOUS
 10
-9.7027558919
 20
-8.6315044508
 11
-8.7136892388
 21
-8.6315044508
  0
LINE
  5
44F
100
AcDbEntity
  8
RACCORDO
100
AcDbLine
 62
253
  6
CONTINUOUS
 10
8.3081774551
 20
-8.6315044508
 11
9.2972441081
 21
-8.6315044508
  0
LINE
  5
450
100
AcDbEntity
  8
ASSI
100
AcDbLine
 62
253
  6
CONTINUOUS
 10
8.3081774551
 20
-8.6315044508
 11
9.2972441081
 21
-8.6315044508
  0
LINE
  5
451
100
AcDbEntity
  8
ASSI
100
AcDbLine
 62
7
  6
CONTINUOUS
 10
3.0470718814
 20
-8.5502119917
 11
2.0474163348
 21
-8.5502119917
  0
LINE
  5
452
100
AcDbEntity
  8
ASSI
100
AcDbLine
 62
7
  6
CONTINUOUS
 10
1.5470718814
 20
-8.5502119917
 11
0.5474163348
 21
-8.5502119917
  0
LINE
  5
453
100
AcDbEntity
  8
ASSI
100
AcDbLine
 62
7
  6
CONTINUOUS
 10
0.0470718814
 20
-8.5502119917
 11
-0.9525836652
 21
-8.5502119917
  0
LINE
  5
454
100
AcDbEntity
  8
ASSI
100
AcDbLine
 62
7
  6
CONTINUOUS
 10
-1.4529281186
 20
-8.5502119917
 11
-2.4525836652
 21
-8.5502119917
  0
LINE
  5
455
100
AcDbEntity
  8
ASSI
100
AcDbLine
 62
7
  6
CONTINUOUS
 10
-2.9529281186
 20
-8.5502119917
 11
-3.8527558919
 21
-8.5502119917
  0
LINE
  5
456
100
AcDbEntity
  8
ASSI
100
AcDbLine
 62
7
  6
CONTINUOUS
 10
-4.8527558919
 20
-8.5502119917
 11
-5.4525836652
 21
-8.5502119917
  0
LINE
  5
457
100
AcDbEntity
  8
0
100
AcDbLine
 62
7
  6
CONTINUOUS
 10
-4.8527558919
 20
-8.4213766013
 11
-3.8527558919
 21
-8.4213766013
  0
LINE
  5
458
100
AcDbEntity
  8
0
100
AcDbLine
 62
7
  6
CONTINUOUS
 10
4.4472441081
 20
-8.4213766013
 11
3.4472441081
 21
-8.4213766013
  0
LINE
  5
459
100
AcDbEntity
  8
0
100
AcDbLine
 62
7
  6
CONTINUOUS
 10
-6.4027558919
 20
-8.4002119917
 11
-5.4527558919
 21
-8.4002119917
  0
LINE
  5
45A
100
AcDbEntity
  8
0
100
AcDbLine
 62
7
  6
CONTINUOUS
 10
5.9972441081
 20
-8.4002119917
 11
4.6972441081
 21
-8.4002119917
  0
LINE
  5
45B
100
AcDbEntity
  8
0
100
AcDbLine
 62
7
  6
CONTINUOUS
 10
6.5972441081
 20
-8.4002119917
 11
7.8972441081
 21
-8.4002119917
  0
LINE
  5
45C
100
AcDbEntity
  8
0
100
AcDbLine
 62
7
  6
CONTINUOUS
 10
-7.0027558919
 20
-8.4002119917
 11
-8.3027558919
 21
-8.4002119917
  0
LINE
  5
45D
100
AcDbEntity
  8
CURVE
100
AcDbLine
 62
253
  6
CONTINUOUS
 10
10.7339893458
 20
-7.9002119917
 11
10.7261974994
 21
-7.9002119917
  0
LINE
  5
45E
100
AcDbEntity
  8
0
100
AcDbLine
 62
7
  6
CONTINUOUS
 10
-6.4027558919
 20
-7.9002119917
 11
-5.6137073818
 21
-7.9002119917
  0
LINE
  5
45F
100
AcDbEntity
  8
0
100
AcDbLine
 62
7
  6
CONTINUOUS
 10
5.9972441081
 20
-7.9002119917
 11
5.208195598
 21
-7.9002119917
  0
LINE
  5
460
100
AcDbEntity
  8
0
100
AcDbLine
 62
7
  6
CONTINUOUS
 10
6.5972441081
 20
-7.9002119917
 11
7.8957092694
 21
-7.9002119917
  0
LINE
  5
461
100
AcDbEntity
  8
0
100
AcDbLine
 62
7
  6
CONTINUOUS
 10
-7.0027558919
 20
-7.9002119917
 11
-8.3012210532
 21
-7.9002119917
  0
LINE
  5
462
100
AcDbEntity
  8
CURVE
100
AcDbLine
 62
253
  6
CONTINUOUS
 10
10.6825631605
 20
-7.9002119917
 11
10.6934717452
 21
-7.9002119917
  0
LINE
  5
463
100
AcDbEntity
  8
CURVE
100
AcDbLine
 62
253
  6
CONTINUOUS
 10
-11.0748599727
 20
-7.9002119917
 11
-11.08109345
 21
-7.9002119917
  0
LINE
  5
464
100
AcDbEntity
  8
CURVE
100
AcDbLine
 62
253
  6
CONTINUOUS
 10
-11.0296672646
 20
-7.9002119917
 11
-11.0343423724
 21
-7.9002119917
  0
LINE
  5
465
100
AcDbEntity
  8
RACCORDO
100
AcDbLine
 62
253
  6
CONTINUOUS
 10
2.6453841924
 20
-7.8460159924
 11
2.0472441081
 21
-7.8460159965
  0
LINE
  5
466
100
AcDbEntity
  8
RACCORDO
100
AcDbLine
 62
253
  6
CONTINUOUS
 10
1.5472441081
 20
-7.8460159965
 11
0.5472441081
 21
-7.8460159965
  0
LINE
  5
467
100
AcDbEntity
  8
RACCORDO
100
AcDbLine
 62
253
  6
CONTINUOUS
 10
0.0472441081
 20
-7.8460159965
 11
-0.9527558919
 21
-7.8460159965
  0
LINE
  5
468
100
AcDbEntity
  8
RACCORDO
100
AcDbLine
 62
253
  6
CONTINUOUS
 10
-2.9527558919
 20
-7.8460159965
 11
-3.0508959792
 21
-7.8460159965
  0
LINE
  5
469
100
AcDbEntity
  8
RACCORDO
100
AcDbLine
 62
253
  6
CONTINUOUS
 10
-1.4527558919
 20
-7.8460159965
 11
-2.4527558919
 21
-7.8460159965
  0
LINE
  5
46A
100
AcDbEntity
  8
RACCORDO
100
AcDbLine
 62
253
  6
CONTINUOUS
 10
-9.6993669228
 20
-7.8315349124
 11
-8.7067686689
 21
-7.8315349124
  0
LINE
  5
46B
100
AcDbEntity
  8
ASSI
100
AcDbLine
 62
253
  6
CONTINUOUS
 10
-9.6993669228
 20
-7.8315349124
 11
-8.7067686689
 21
-7.8315349124
  0
LINE
  5
46C
100
AcDbEntity
  8
RACCORDO
100
AcDbLine
 62
253
  6
CONTINUOUS
 10
8.3012568851
 20
-7.8315349124
 11
9.293855139
 21
-7.8315349124
  0
LINE
  5
46D
100
AcDbEntity
  8
ASSI
100
AcDbLine
 62
253
  6
CONTINUOUS
 10
8.3012568851
 20
-7.8315349124
 11
9.293855139
 21
-7.8315349124
  0
LINE
  5
46E
100
AcDbEntity
  8
DRAFT
100
AcDbLine
 62
7
  6
CONTINUOUS
 10
8.0472441081
 20
-7.6229018479
 11
7.8472441081
 21
-7.6229018479
  0
LINE
  5
46F
100
AcDbEntity
  8
ASSI
100
AcDbLine
 62
7
  6
CONTINUOUS
 10
8.0472441081
 20
-7.6229018479
 11
7.8472441081
 21
-7.6229018479
  0
LINE
  5
470
100
AcDbEntity
  8
DRAFT
100
AcDbLine
 62
7
  6
CONTINUOUS
 10
6.5972441081
 20
-7.6229018479
 11
5.9972441081
 21
-7.6229018479
  0
LINE
  5
471
100
AcDbEntity
  8
ASSI
100
AcDbLine
 62
7
  6
CONTINUOUS
 10
6.5972441081
 20
-7.6229018479
 11
5.9972441081
 21
-7.6229018479
  0
LINE
  5
472
100
AcDbEntity
  8
DRAFT
100
AcDbLine
 62
7
  6
CONTINUOUS
 10
1.9473390627
 20
-7.6229018479
 11
1.6471491504
 21
-7.6229018479
  0
LINE
  5
473
100
AcDbEntity
  8
ASSI
100
AcDbLine
 62
7
  6
CONTINUOUS
 10
1.9473390627
 20
-7.6229018479
 11
1.6471491504
 21
-7.6229018479
  0
LINE
  5
474
100
AcDbEntity
  8
DRAFT
100
AcDbLine
 62
7
  6
CONTINUOUS
 10
0.4473390627
 20
-7.6229018479
 11
0.1471491504
 21
-7.6229018479
  0
LINE
  5
475
100
AcDbEntity
  8
ASSI
100
AcDbLine
 62
7
  6
CONTINUOUS
 10
0.4473390627
 20
-7.6229018479
 11
0.1471491504
 21
-7.6229018479
  0
LINE
  5
476
100
AcDbEntity
  8
DRAFT
100
AcDbLine
 62
7
  6
CONTINUOUS
 10
-1.0526609342
 20
-7.6229018479
 11
-1.3528508464
 21
-7.6229018479
  0
LINE
  5
477
100
AcDbEntity
  8
ASSI
100
AcDbLine
 62
7
  6
CONTINUOUS
 10
-1.0526609342
 20
-7.6229018479
 11
-1.3528508464
 21
-7.6229018479
  0
LINE
  5
478
100
AcDbEntity
  8
DRAFT
100
AcDbLine
 62
7
  6
CONTINUOUS
 10
-2.5526609373
 20
-7.6229018479
 11
-2.8528508496
 21
-7.6229018479
  0
LINE
  5
479
100
AcDbEntity
  8
ASSI
100
AcDbLine
 62
7
  6
CONTINUOUS
 10
-2.5526609373
 20
-7.6229018479
 11
-2.8528508496
 21
-7.6229018479
  0
LINE
  5
47A
100
AcDbEntity
  8
DRAFT
100
AcDbLine
 62
7
  6
CONTINUOUS
 10
-6.4027558919
 20
-7.6229018479
 11
-7.0027558919
 21
-7.6229018479
  0
LINE
  5
47B
100
AcDbEntity
  8
ASSI
100
AcDbLine
 62
7
  6
CONTINUOUS
 10
-6.4027558919
 20
-7.6229018479
 11
-7.0027558919
 21
-7.6229018479
  0
LINE
  5
47C
100
AcDbEntity
  8
DRAFT
100
AcDbLine
 62
7
  6
CONTINUOUS
 10
-8.2527558919
 20
-7.6229018479
 11
-8.4527558919
 21
-7.6229018479
  0
LINE
  5
47D
100
AcDbEntity
  8
ASSI
100
AcDbLine
 62
7
  6
CONTINUOUS
 10
-8.2527558919
 20
-7.6229018479
 11
-8.4527558919
 21
-7.6229018479
  0
LINE
  5
47E
100
AcDbEntity
  8
DRAFT
100
AcDbLine
 62
7
  6
CONTINUOUS
 10
-9.6027558919
 20
-7.6002119917
 11
-8.2527558919
 21
-7.6002119917
  0
LINE
  5
47F
100
AcDbEntity
  8
ASSI
100
AcDbLine
 62
7
  6
CONTINUOUS
 10
-9.6027558919
 20
-7.6002119917
 11
-8.2527558919
 21
-7.6002119917
  0
LINE
  5
480
100
AcDbEntity
  8
DRAFT
100
AcDbLine
 62
7
  6
CONTINUOUS
 10
-7.0027558919
 20
-7.6002119917
 11
-6.4027558919
 21
-7.6002119917
  0
LINE
  5
481
100
AcDbEntity
  8
ASSI
100
AcDbLine
 62
7
  6
CONTINUOUS
 10
-7.0027558919
 20
-7.6002119917
 11
-6.4027558919
 21
-7.6002119917
  0
LINE
  5
482
100
AcDbEntity
  8
DRAFT
100
AcDbLine
 62
7
  6
CONTINUOUS
 10
-2.8241188038
 20
-7.6002119917
 11
-2.5813929835
 21
-7.6002119917
  0
LINE
  5
483
100
AcDbEntity
  8
ASSI
100
AcDbLine
 62
7
  6
CONTINUOUS
 10
-2.8241188038
 20
-7.6002119917
 11
-2.5813929835
 21
-7.6002119917
  0
LINE
  5
484
100
AcDbEntity
  8
DRAFT
100
AcDbLine
 62
7
  6
CONTINUOUS
 10
-1.3241188002
 20
-7.6002119917
 11
-1.08139298
 21
-7.6002119917
  0
LINE
  5
485
100
AcDbEntity
  8
ASSI
100
AcDbLine
 62
7
  6
CONTINUOUS
 10
-1.3241188002
 20
-7.6002119917
 11
-1.08139298
 21
-7.6002119917
  0
LINE
  5
486
100
AcDbEntity
  8
DRAFT
100
AcDbLine
 62
7
  6
CONTINUOUS
 10
0.1758811962
 20
-7.6002119917
 11
0.4186070165
 21
-7.6002119917
  0
LINE
  5
487
100
AcDbEntity
  8
ASSI
100
AcDbLine
 62
7
  6
CONTINUOUS
 10
0.1758811962
 20
-7.6002119917
 11
0.4186070165
 21
-7.6002119917
  0
LINE
  5
488
100
AcDbEntity
  8
DRAFT
100
AcDbLine
 62
7
  6
CONTINUOUS
 10
1.6758811962
 20
-7.6002119917
 11
1.9186070165
 21
-7.6002119917
  0
LINE
  5
489
100
AcDbEntity
  8
ASSI
100
AcDbLine
 62
7
  6
CONTINUOUS
 10
1.6758811962
 20
-7.6002119917
 11
1.9186070165
 21
-7.6002119917
  0
LINE
  5
48A
100
AcDbEntity
  8
DRAFT
100
AcDbLine
 62
7
  6
CONTINUOUS
 10
5.9972441081
 20
-7.6002119917
 11
6.5972441081
 21
-7.6002119917
  0
LINE
  5
48B
100
AcDbEntity
  8
ASSI
100
AcDbLine
 62
7
  6
CONTINUOUS
 10
5.9972441081
 20
-7.6002119917
 11
6.5972441081
 21
-7.6002119917
  0
LINE
  5
48C
100
AcDbEntity
  8
DRAFT
100
AcDbLine
 62
7
  6
CONTINUOUS
 10
7.8472441081
 20
-7.6002119917
 11
9.1972441081
 21
-7.6002119917
  0
LINE
  5
48D
100
AcDbEntity
  8
ASSI
100
AcDbLine
 62
7
  6
CONTINUOUS
 10
7.8472441081
 20
-7.6002119917
 11
9.1972441081
 21
-7.6002119917
  0
LINE
  5
48E
100
AcDbEntity
  8
CURVE
100
AcDbLine
 62
253
  6
CONTINUOUS
 10
10.8786683468
 20
-7.571640541
 11
10.8770476427
 21
-7.571640541
  0
LINE
  5
48F
100
AcDbEntity
  8
0
100
AcDbLine
 62
7
  6
CONTINUOUS
 10
8.4972441081
 20
-7.5502119917
 11
5.4242670852
 21
-7.5502119917
  0
LINE
  5
490
100
AcDbEntity
  8
ASSI
100
AcDbLine
 62
7
  6
CONTINUOUS
 10
2.470221131
 20
-7.5502119917
 11
-0.9526425826
 21
-7.5502119917
  0
LINE
  5
491
100
AcDbEntity
  8
0
100
AcDbLine
 62
7
  6
CONTINUOUS
 10
-0.9527558919
 20
-7.5502119917
 11
-2.8757329148
 21
-7.5502119917
  0
LINE
  5
492
100
AcDbEntity
  8
0
100
AcDbLine
 62
7
  6
CONTINUOUS
 10
-5.829778869
 20
-7.5502119917
 11
-8.9027558919
 21
-7.5502119917
  0
LINE
  5
493
100
AcDbEntity
  8
ASSI
100
AcDbLine
 62
7
  6
CONTINUOUS
 10
9.0472441081
 20
-7.5002119917
 11
-9.4527558919
 21
-7.5002119917
  0
LINE
  5
494
100
AcDbEntity
  8
CURVE
100
AcDbLine
 62
253
  6
CONTINUOUS
 10
-11.124727789
 20
-7.3644977006
 11
-11.1138192042
 21
-7.3644977006
  0
LINE
  5
495
100
AcDbEntity
  8
CURVE
100
AcDbLine
 62
253
  6
CONTINUOUS
 10
10.8851511628
 20
-6.921640541
 11
10.8835304589
 21
-6.921640541
  0
LINE
  5
496
100
AcDbEntity
  8
DRAFT
100
AcDbLine
 62
7
  6
CONTINUOUS
 10
9.0188570256
 20
-11.4377375232
 11
9.2972441081
 21
-11.7161246057
  0
LINE
  5
497
100
AcDbEntity
  8
ASSI
100
AcDbLine
 62
7
  6
CONTINUOUS
 10
9.0188570256
 20
-11.4377375232
 11
9.2972441081
 21
-11.7161246057
  0
LINE
  5
498
100
AcDbEntity
  8
DRAFT
100
AcDbLine
 62
7
  6
CONTINUOUS
 10
9.6387214923
 20
-11.7161246057
 11
9.3472441081
 21
-11.4246472215
  0
LINE
  5
499
100
AcDbEntity
  8
ASSI
100
AcDbLine
 62
7
  6
CONTINUOUS
 10
9.6387214923
 20
-11.7161246057
 11
9.3472441081
 21
-11.4246472215
  0
LINE
  5
49A
100
AcDbEntity
  8
ASSI
100
AcDbLine
 62
7
  6
CONTINUOUS
 10
8.5972441081
 20
-9.4002119917
 11
8.6035268982
 21
-9.4064947818
  0
LINE
  5
49B
100
AcDbEntity
  8
RACCORDO
100
AcDbLine
 62
7
  6
CONTINUOUS
 10
8.5972441081
 20
-9.4002119917
 11
8.6035268982
 21
-9.4064947818
  0
LINE
  5
49C
100
AcDbEntity
  8
RACCORDO
100
AcDbLine
 62
7
  6
CONTINUOUS
 10
-8.4527558919
 20
7.9997880083
 11
-8.5296284838
 21
8.0766606002
  0
LINE
  5
49D
100
AcDbEntity
  8
ASSI
100
AcDbLine
 62
7
  6
CONTINUOUS
 10
-8.4527558919
 20
7.9997880083
 11
-8.5296284838
 21
8.0766606002
  0
LINE
  5
49E
100
AcDbEntity
  8
0
100
AcDbLine
 62
7
  6
CONTINUOUS
 10
-7.9091215529
 20
8.01287831
 11
-7.9729038431
 21
8.0766606002
  0
LINE
  5
49F
100
AcDbEntity
  8
ASSI
100
AcDbLine
 62
7
  6
CONTINUOUS
 10
-7.9091215529
 20
8.01287831
 11
-7.9729038431
 21
8.0766606002
  0
LINE
  5
4A0
100
AcDbEntity
  8
RACCORDO
100
AcDbLine
 62
7
  6
CONTINUOUS
 10
8.3012568851
 20
-7.8315349124
 11
8.0699339644
 21
-7.6002119917
  0
LINE
  5
4A1
100
AcDbEntity
  8
ASSI
100
AcDbLine
 62
7
  6
CONTINUOUS
 10
8.3012568851
 20
-7.8315349124
 11
8.0699339644
 21
-7.6002119917
  0
LINE
  5
4A2
100
AcDbEntity
  8
0
100
AcDbLine
 62
7
  6
CONTINUOUS
 10
-2.2027558919
 20
4.0997880083
 11
-0.2027558919
 21
1.0997880083
  0
LINE
  5
4A3
100
AcDbEntity
  8
0
100
AcDbLine
 62
7
  6
CONTINUOUS
 10
5.2972441081
 20
-9.4002119917
 11
4.6972441081
 21
-8.4002119917
  0
LINE
  5
4A4
100
AcDbEntity
  8
DRAFT
100
AcDbLine
 62
7
  6
CONTINUOUS
 10
-4.1760932395
 20
24.3497880083
 11
-4.1554404464
 21
24.2799677486
  0
LINE
  5
4A5
100
AcDbEntity
  8
ASSI
100
AcDbLine
 62
7
  6
CONTINUOUS
 10
3.5472441081
 20
22.0497880083
 11
3.5472441081
 21
22.0146230342
  0
LINE
  5
4A6
100
AcDbEntity
  8
DRAFT
100
AcDbLine
 62
7
  6
CONTINUOUS
 10
3.5472441081
 20
22.0497880083
 11
3.5472441081
 21
22.0146230342
  0
LINE
  5
4A7
100
AcDbEntity
  8
ASSI
100
AcDbLine
 62
7
  6
CONTINUOUS
 10
3.5472441081
 20
-20.3502119917
 11
3.5472441081
 21
-20.3150470176
  0
LINE
  5
4A8
100
AcDbEntity
  8
DRAFT
100
AcDbLine
 62
7
  6
CONTINUOUS
 10
3.5472441081
 20
-20.3502119917
 11
3.5472441081
 21
-20.3150470176
  0
LINE
  5
4A9
100
AcDbEntity
  8
ASSI
100
AcDbLine
 62
7
  6
CONTINUOUS
 10
4.4472441081
 20
-8.4213766013
 11
4.4472441081
 21
-9.1002119917
  0
LINE
  5
4AA
100
AcDbEntity
  8
0
100
AcDbLine
 62
7
  6
CONTINUOUS
 10
4.5972441081
 20
5.9997880083
 11
4.5972441081
 21
5.0797880083
  0
LINE
  5
4AB
100
AcDbEntity
  8
0
100
AcDbLine
 62
7
  6
CONTINUOUS
 10
4.6972441081
 20
-8.4002119917
 11
4.6972441081
 21
-8.315742419
  0
LINE
  5
4AC
100
AcDbEntity
  8
DRAFT
100
AcDbLine
 62
7
  6
CONTINUOUS
 10
5.7972441081
 20
17.9837206667
 11
5.7972441081
 21
16.6158553499
  0
LINE
  5
4AD
100
AcDbEntity
  8
ASSI
100
AcDbLine
 62
7
  6
CONTINUOUS
 10
5.7972441081
 20
17.9837206667
 11
5.7972441081
 21
16.6158553499
  0
LINE
  5
4AE
100
AcDbEntity
  8
DRAFT
100
AcDbLine
 62
7
  6
CONTINUOUS
 10
5.7972441081
 20
-14.9162793333
 11
5.7972441081
 21
-16.2841446501
  0
LINE
  5
4AF
100
AcDbEntity
  8
ASSI
100
AcDbLine
 62
7
  6
CONTINUOUS
 10
5.7972441081
 20
-14.9162793333
 11
5.7972441081
 21
-16.2841446501
  0
LINE
  5
4B0
100
AcDbEntity
  8
0
100
AcDbLine
 62
7
  6
CONTINUOUS
 10
5.8972441081
 20
5.0797880083
 11
5.8972441081
 21
4.0997880083
  0
LINE
  5
4B1
100
AcDbEntity
  8
0
100
AcDbLine
 62
7
  6
CONTINUOUS
 10
5.9972441081
 20
-9.4002119917
 11
5.9972441081
 21
-7.5502119917
  0
LINE
  5
4B2
100
AcDbEntity
  8
ASSI
100
AcDbLine
 62
7
  6
CONTINUOUS
 10
9.4472441081
 20
21.335766552
 11
9.5161863637
 21
21.7497880083
  0
LINE
  5
4B3
100
AcDbEntity
  8
DRAFT
100
AcDbLine
 62
7
  6
CONTINUOUS
 10
9.4472441081
 20
21.335766552
 11
9.5161863637
 21
21.7497880083
  0
LINE
  5
4B4
100
AcDbEntity
  8
ASSI
100
AcDbLine
 62
7
  6
CONTINUOUS
 10
-2.8795711382
 20
-20.3502119917
 11
-3.2145924015
 21
-21.3502119917
  0
LINE
  5
4B5
100
AcDbEntity
  8
DRAFT
100
AcDbLine
 62
7
  6
CONTINUOUS
 10
-2.8795711382
 20
-20.3502119917
 11
-3.2145924015
 21
-21.3502119917
  0
LINE
  5
4B6
100
AcDbEntity
  8
DRAFT
100
AcDbLine
 62
7
  6
CONTINUOUS
 10
7.5760427718
 20
9.2997880083
 11
7.7514528144
 21
9.6506348134
  0
LINE
  5
4B7
100
AcDbEntity
  8
ASSI
100
AcDbLine
 62
7
  6
CONTINUOUS
 10
7.5760427718
 20
9.2997880083
 11
7.7514528144
 21
9.6506348134
  0
LINE
  5
4B8
100
AcDbEntity
  8
DRAFT
100
AcDbLine
 62
7
  6
CONTINUOUS
 10
9.384512786
 20
9.8251854627
 11
9.2972441081
 21
9.6506348134
  0
LINE
  5
4B9
100
AcDbEntity
  8
ASSI
100
AcDbLine
 62
7
  6
CONTINUOUS
 10
9.384512786
 20
9.8251854627
 11
9.2972441081
 21
9.6506348134
  0
LINE
  5
4BA
100
AcDbEntity
  8
DRAFT
100
AcDbLine
 62
7
  6
CONTINUOUS
 10
9.3472441081
 20
9.2997880083
 11
9.4257859182
 21
9.4568835927
  0
LINE
  5
4BB
100
AcDbEntity
  8
ASSI
100
AcDbLine
 62
7
  6
CONTINUOUS
 10
9.3472441081
 20
9.2997880083
 11
9.4257859182
 21
9.4568835927
  0
LINE
  5
4BC
100
AcDbEntity
  8
0
100
AcDbLine
 62
7
  6
CONTINUOUS
 10
7.5036097692
 20
8.01287831
 11
7.5673920593
 21
8.0766606002
  0
LINE
  5
4BD
100
AcDbEntity
  8
ASSI
100
AcDbLine
 62
7
  6
CONTINUOUS
 10
7.5036097692
 20
8.01287831
 11
7.5673920593
 21
8.0766606002
  0
LINE
  5
4BE
100
AcDbEntity
  8
RACCORDO
100
AcDbLine
 62
7
  6
CONTINUOUS
 10
8.1241167
 20
8.0766606002
 11
8.0472441081
 21
7.9997880083
  0
LINE
  5
4BF
100
AcDbEntity
  8
ASSI
100
AcDbLine
 62
7
  6
CONTINUOUS
 10
8.1241167
 20
8.0766606002
 11
8.0472441081
 21
7.9997880083
  0
LINE
  5
4C0
100
AcDbEntity
  8
ASSI
100
AcDbLine
 62
7
  6
CONTINUOUS
 10
-9.009038682
 20
-9.4064947818
 11
-9.0027558919
 21
-9.4002119917
  0
LINE
  5
4C1
100
AcDbEntity
  8
RACCORDO
100
AcDbLine
 62
7
  6
CONTINUOUS
 10
-9.009038682
 20
-9.4064947818
 11
-9.0027558919
 21
-9.4002119917
  0
LINE
  5
4C2
100
AcDbEntity
  8
DRAFT
100
AcDbLine
 62
7
  6
CONTINUOUS
 10
-10.0442332761
 20
-11.7161246057
 11
-9.7527558919
 21
-11.4246472215
  0
LINE
  5
4C3
100
AcDbEntity
  8
ASSI
100
AcDbLine
 62
7
  6
CONTINUOUS
 10
-10.0442332761
 20
-11.7161246057
 11
-9.7527558919
 21
-11.4246472215
  0
LINE
  5
4C4
100
AcDbEntity
  8
DRAFT
100
AcDbLine
 62
7
  6
CONTINUOUS
 10
-9.7027558919
 20
-11.7161246057
 11
-9.4243688094
 21
-11.4377375232
  0
LINE
  5
4C5
100
AcDbEntity
  8
ASSI
100
AcDbLine
 62
7
  6
CONTINUOUS
 10
-9.7027558919
 20
-11.7161246057
 11
-9.4243688094
 21
-11.4377375232
  0
LINE
  5
4C6
100
AcDbEntity
  8
DRAFT
100
AcDbLine
 62
7
  6
CONTINUOUS
 10
-8.4527558919
 20
-10.9002119917
 11
-8.4850453027
 21
-10.9325014025
  0
LINE
  5
4C7
100
AcDbEntity
  8
ASSI
100
AcDbLine
 62
7
  6
CONTINUOUS
 10
-8.4527558919
 20
-10.9002119917
 11
-8.4850453027
 21
-10.9325014025
  0
LINE
  5
4C8
100
AcDbEntity
  8
DRAFT
100
AcDbLine
 62
7
  6
CONTINUOUS
 10
-8.5225708342
 20
-11.4377375232
 11
-8.4850453027
 21
-11.4002119917
  0
LINE
  5
4C9
100
AcDbEntity
  8
ASSI
100
AcDbLine
 62
7
  6
CONTINUOUS
 10
-8.5225708342
 20
-11.4377375232
 11
-8.4850453027
 21
-11.4002119917
  0
LINE
  5
4CA
100
AcDbEntity
  8
DRAFT
100
AcDbLine
 62
7
  6
CONTINUOUS
 10
-9.7527558919
 20
-11.4246472215
 11
-9.6549777373
 21
-11.4002119917
  0
LINE
  5
4CB
100
AcDbEntity
  8
ASSI
100
AcDbLine
 62
7
  6
CONTINUOUS
 10
-9.7527558919
 20
-11.4246472215
 11
-9.6549777373
 21
-11.4002119917
  0
LINE
  5
4CC
100
AcDbEntity
  8
CURVE
100
AcDbLine
 62
253
  6
CONTINUOUS
 10
10.8770476427
 20
-6.5502119917
 11
10.8794786988
 21
-6.5502119917
  0
LINE
  5
4CD
100
AcDbEntity
  8
CURVE
100
AcDbLine
 62
253
  6
CONTINUOUS
 10
-11.08109345
 20
-6.4716404993
 11
-11.0748599727
 21
-6.4716404993
  0
LINE
  5
4CE
100
AcDbEntity
  8
CURVE
100
AcDbLine
 62
253
  6
CONTINUOUS
 10
-11.0364201982
 20
-6.4716404993
 11
-11.0296672646
 21
-6.4716404993
  0
LINE
  5
4CF
100
AcDbEntity
  8
CURVE
100
AcDbLine
 62
253
  6
CONTINUOUS
 10
10.729314238
 20
-6.4716404993
 11
10.7324309767
 21
-6.4716404993
  0
LINE
  5
4D0
100
AcDbEntity
  8
CURVE
100
AcDbLine
 62
253
  6
CONTINUOUS
 10
10.8827201066
 20
-6.4573548544
 11
10.8851511628
 21
-6.4573548544
  0
LINE
  5
4D1
100
AcDbEntity
  8
CURVE
100
AcDbLine
 62
253
  6
CONTINUOUS
 10
10.8867718668
 20
-5.9002119917
 11
10.8754269386
 21
-5.9002119917
  0
LINE
  5
4D2
100
AcDbEntity
  8
ASSI
100
AcDbLine
 62
7
  6
CONTINUOUS
 10
9.0472441081
 20
-5.9002119917
 11
-9.4527558919
 21
-5.9002119917
  0
LINE
  5
4D3
100
AcDbEntity
  8
DRAFT
100
AcDbLine
 62
7
  6
CONTINUOUS
 10
-9.6027558919
 20
-5.8002119917
 11
-8.4754457481
 21
-5.8002119917
  0
LINE
  5
4D4
100
AcDbEntity
  8
ASSI
100
AcDbLine
 62
7
  6
CONTINUOUS
 10
-9.6027558919
 20
-5.8002119917
 11
-8.4754457481
 21
-5.8002119917
  0
LINE
  5
4D5
100
AcDbEntity
  8
DRAFT
100
AcDbLine
 62
7
  6
CONTINUOUS
 10
8.0699339644
 20
-5.8002119917
 11
9.1972441081
 21
-5.8002119917
  0
LINE
  5
4D6
100
AcDbEntity
  8
ASSI
100
AcDbLine
 62
7
  6
CONTINUOUS
 10
8.0699339644
 20
-5.8002119917
 11
9.1972441081
 21
-5.8002119917
  0
LINE
  5
4D7
100
AcDbEntity
  8
RACCORDO
100
AcDbLine
 62
253
  6
CONTINUOUS
 10
9.293855139
 20
-5.568889071
 11
8.3012568851
 21
-5.568889071
  0
LINE
  5
4D8
100
AcDbEntity
  8
ASSI
100
AcDbLine
 62
253
  6
CONTINUOUS
 10
9.293855139
 20
-5.568889071
 11
8.3012568851
 21
-5.568889071
  0
LINE
  5
4D9
100
AcDbEntity
  8
RACCORDO
100
AcDbLine
 62
253
  6
CONTINUOUS
 10
-8.7067686689
 20
-5.568889071
 11
-9.6993669228
 21
-5.568889071
  0
LINE
  5
4DA
100
AcDbEntity
  8
ASSI
100
AcDbLine
 62
253
  6
CONTINUOUS
 10
-8.7067686689
 20
-5.568889071
 11
-9.6993669228
 21
-5.568889071
  0
LINE
  5
4DB
100
AcDbEntity
  8
CURVE
100
AcDbLine
 62
253
  6
CONTINUOUS
 10
10.6856798991
 20
-5.4002119917
 11
10.6903550069
 21
-5.4002119917
  0
LINE
  5
4DC
100
AcDbEntity
  8
CURVE
100
AcDbLine
 62
253
  6
CONTINUOUS
 10
10.7261974994
 20
-5.4002119917
 11
10.7324309767
 21
-5.4002119917
  0
LINE
  5
4DD
100
AcDbEntity
  8
CURVE
100
AcDbLine
 62
253
  6
CONTINUOUS
 10
-11.0717432344
 20
-5.4002119917
 11
-11.08109345
 21
-5.4002119917
  0
LINE
  5
4DE
100
AcDbEntity
  8
RACCORDO
100
AcDbLine
 62
253
  6
CONTINUOUS
 10
9.2972441081
 20
-4.7689195325
 11
8.3081774551
 21
-4.7689195325
  0
LINE
  5
4DF
100
AcDbEntity
  8
ASSI
100
AcDbLine
 62
253
  6
CONTINUOUS
 10
9.2972441081
 20
-4.7689195325
 11
8.3081774551
 21
-4.7689195325
  0
LINE
  5
4E0
100
AcDbEntity
  8
RACCORDO
100
AcDbLine
 62
253
  6
CONTINUOUS
 10
-8.7136892388
 20
-4.7689195325
 11
-9.7027558919
 21
-4.7689195325
  0
LINE
  5
4E1
100
AcDbEntity
  8
ASSI
100
AcDbLine
 62
253
  6
CONTINUOUS
 10
-8.7136892388
 20
-4.7689195325
 11
-9.7027558919
 21
-4.7689195325
  0
LINE
  5
4E2
100
AcDbEntity
  8
DRAFT
100
AcDbLine
 62
7
  6
CONTINUOUS
 10
-11.0112785077
 20
-4.625609446
 11
-9.7900245698
 21
-4.625609446
  0
LINE
  5
4E3
100
AcDbEntity
  8
ASSI
100
AcDbLine
 62
7
  6
CONTINUOUS
 10
-11.0112785077
 20
-4.625609446
 11
-9.7900245698
 21
-4.625609446
  0
LINE
  5
4E4
100
AcDbEntity
  8
DRAFT
100
AcDbLine
 62
7
  6
CONTINUOUS
 10
9.384512786
 20
-4.625609446
 11
10.6057667239
 21
-4.625609446
  0
LINE
  5
4E5
100
AcDbEntity
  8
ASSI
100
AcDbLine
 62
7
  6
CONTINUOUS
 10
9.384512786
 20
-4.625609446
 11
10.6057667239
 21
-4.625609446
  0
LINE
  5
4E6
100
AcDbEntity
  8
DRAFT
100
AcDbLine
 62
7
  6
CONTINUOUS
 10
-9.7027558919
 20
-4.4510587967
 11
-8.7136892388
 21
-4.4510587967
  0
LINE
  5
4E7
100
AcDbEntity
  8
ASSI
100
AcDbLine
 62
7
  6
CONTINUOUS
 10
-9.7027558919
 20
-4.4510587967
 11
-8.7136892388
 21
-4.4510587967
  0
LINE
  5
4E8
100
AcDbEntity
  8
DRAFT
100
AcDbLine
 62
7
  6
CONTINUOUS
 10
8.3081774551
 20
-4.4510587967
 11
9.2972441081
 21
-4.4510587967
  0
LINE
  5
4E9
100
AcDbEntity
  8
ASSI
100
AcDbLine
 62
7
  6
CONTINUOUS
 10
8.3081774551
 20
-4.4510587967
 11
9.2972441081
 21
-4.4510587967
  0
LINE
  5
4EA
100
AcDbEntity
  8
DRAFT
100
AcDbLine
 62
7
  6
CONTINUOUS
 10
-11.2739572282
 20
-4.1002119917
 11
-8.5382791962
 21
-4.1002119917
  0
LINE
  5
4EB
100
AcDbEntity
  8
ASSI
100
AcDbLine
 62
7
  6
CONTINUOUS
 10
-11.2739572282
 20
-4.1002119917
 11
-8.5382791962
 21
-4.1002119917
  0
LINE
  5
4EC
100
AcDbEntity
  8
DRAFT
100
AcDbLine
 62
7
  6
CONTINUOUS
 10
8.1327674125
 20
-4.1002119917
 11
10.8684454444
 21
-4.1002119917
  0
LINE
  5
4ED
100
AcDbEntity
  8
ASSI
100
AcDbLine
 62
7
  6
CONTINUOUS
 10
8.1327674125
 20
-4.1002119917
 11
10.8684454444
 21
-4.1002119917
  0
LINE
  5
4EE
100
AcDbEntity
  8
DRAFT
100
AcDbLine
 62
7
  6
CONTINUOUS
 10
-11.2739572282
 20
-0.4002119917
 11
-9.9758400478
 21
-0.6271278358
  0
LINE
  5
4EF
100
AcDbEntity
  8
ASSI
100
AcDbLine
 62
7
  6
CONTINUOUS
 10
-11.2739572282
 20
-0.4002119917
 11
-9.9758400478
 21
-0.6271278358
  0
LINE
  5
4F0
100
AcDbEntity
  8
0
100
AcDbLine
 62
7
  6
CONTINUOUS
 10
-7.9091215529
 20
11.2805888992
 11
-7.9283206621
 21
11.2997880083
  0
LINE
  5
4F1
100
AcDbEntity
  8
ASSI
100
AcDbLine
 62
7
  6
CONTINUOUS
 10
-7.9091215529
 20
11.2805888992
 11
-7.9283206621
 21
11.2997880083
  0
LINE
  5
4F2
100
AcDbEntity
  8
RACCORDO
100
AcDbLine
 62
7
  6
CONTINUOUS
 10
-8.9527558919
 20
12.6997880083
 11
-9.0636002337
 21
12.8106323501
  0
LINE
  5
4F3
100
AcDbEntity
  8
ASSI
100
AcDbLine
 62
7
  6
CONTINUOUS
 10
-8.9527558919
 20
12.6997880083
 11
-9.0636002337
 21
12.8106323501
  0
LINE
  5
4F4
100
AcDbEntity
  8
RACCORDO
100
AcDbLine
 62
7
  6
CONTINUOUS
 10
9.293855139
 20
-7.8315349124
 11
9.1972441081
 21
-7.6342467761
  0
LINE
  5
4F5
100
AcDbEntity
  8
ASSI
100
AcDbLine
 62
7
  6
CONTINUOUS
 10
9.293855139
 20
-7.8315349124
 11
9.1972441081
 21
-7.6342467761
  0
LINE
  5
4F6
100
AcDbEntity
  8
ASSI
100
AcDbLine
 62
7
  6
CONTINUOUS
 10
-3.2145924015
 20
23.0497880083
 11
-2.8795711382
 21
22.0497880083
  0
LINE
  5
4F7
100
AcDbEntity
  8
DRAFT
100
AcDbLine
 62
7
  6
CONTINUOUS
 10
-3.2145924015
 20
23.0497880083
 11
-2.8795711382
 21
22.0497880083
  0
LINE
  5
4F8
100
AcDbEntity
  8
ASSI
100
AcDbLine
 62
7
  6
CONTINUOUS
 10
9.4472441081
 20
-19.6361905353
 11
9.5161863637
 21
-20.0502119917
  0
LINE
  5
4F9
100
AcDbEntity
  8
DRAFT
100
AcDbLine
 62
7
  6
CONTINUOUS
 10
9.4472441081
 20
-19.6361905353
 11
9.5161863637
 21
-20.0502119917
  0
LINE
  5
4FA
100
AcDbEntity
  8
ASSI
100
AcDbLine
 62
7
  6
CONTINUOUS
 10
7.0352915814
 20
-19.9851300504
 11
7.025225558
 21
-19.2978670868
  0
LINE
  5
4FB
100
AcDbEntity
  8
RACCORDO
100
AcDbLine
 62
7
  6
CONTINUOUS
 10
7.0352915814
 20
-19.9851300504
 11
7.025225558
 21
-19.2978670868
  0
LINE
  5
4FC
100
AcDbEntity
  8
ASSI
100
AcDbLine
 62
7
  6
CONTINUOUS
 10
6.4528912637
 20
21.6678210623
 11
6.4578002481
 21
20.9974431034
  0
LINE
  5
4FD
100
AcDbEntity
  8
RACCORDO
100
AcDbLine
 62
7
  6
CONTINUOUS
 10
6.4528912637
 20
21.6678210623
 11
6.4578002481
 21
20.9974431034
  0
LINE
  5
4FE
100
AcDbEntity
  8
ASSI
100
AcDbLine
 62
7
  6
CONTINUOUS
 10
6.311337032
 20
21.2808457528
 11
6.311337032
 21
18.0997880083
  0
LINE
  5
4FF
100
AcDbEntity
  8
DRAFT
100
AcDbLine
 62
7
  6
CONTINUOUS
 10
6.311337032
 20
21.2808457528
 11
6.311337032
 21
18.0997880083
  0
LINE
  5
500
100
AcDbEntity
  8
ASSI
100
AcDbLine
 62
7
  6
CONTINUOUS
 10
6.311337032
 20
-16.6502119917
 11
6.311337032
 21
-19.5812697361
  0
LINE
  5
501
100
AcDbEntity
  8
DRAFT
100
AcDbLine
 62
7
  6
CONTINUOUS
 10
6.311337032
 20
-16.6502119917
 11
6.311337032
 21
-19.5812697361
  0
LINE
  5
502
100
AcDbEntity
  8
ASSI
100
AcDbLine
 62
7
  6
CONTINUOUS
 10
6.4588210977
 20
20.6760492986
 11
6.4588210977
 21
18.247272074
  0
LINE
  5
503
100
AcDbEntity
  8
RACCORDO
100
AcDbLine
 62
7
  6
CONTINUOUS
 10
6.4588210977
 20
20.6760492986
 11
6.4588210977
 21
18.247272074
  0
LINE
  5
504
100
AcDbEntity
  8
ASSI
100
AcDbLine
 62
7
  6
CONTINUOUS
 10
6.4588210977
 20
-16.7976960573
 11
6.4588210977
 21
-18.976473282
  0
LINE
  5
505
100
AcDbEntity
  8
RACCORDO
100
AcDbLine
 62
7
  6
CONTINUOUS
 10
6.4588210977
 20
-16.7976960573
 11
6.4588210977
 21
-18.976473282
  0
LINE
  5
506
100
AcDbEntity
  8
DRAFT
100
AcDbLine
 62
7
  6
CONTINUOUS
 10
6.4991515749
 20
17.8083106241
 11
6.4991515749
 21
16.7912653925
  0
LINE
  5
507
100
AcDbEntity
  8
ASSI
100
AcDbLine
 62
7
  6
CONTINUOUS
 10
6.4991515749
 20
17.8083106241
 11
6.4991515749
 21
16.7912653925
  0
LINE
  5
508
100
AcDbEntity
  8
DRAFT
100
AcDbLine
 62
7
  6
CONTINUOUS
 10
6.4991515749
 20
-16.1087346075
 11
6.4991515749
 21
-15.0916893759
  0
LINE
  5
509
100
AcDbEntity
  8
ASSI
100
AcDbLine
 62
7
  6
CONTINUOUS
 10
6.4991515749
 20
-16.1087346075
 11
6.4991515749
 21
-15.0916893759
  0
LINE
  5
50A
100
AcDbEntity
  8
0
100
AcDbLine
 62
7
  6
CONTINUOUS
 10
6.5972441081
 20
3.7397880083
 11
6.5972441081
 21
2.5997880083
  0
LINE
  5
50B
100
AcDbEntity
  8
0
100
AcDbLine
 62
7
  6
CONTINUOUS
 10
6.5972441081
 20
-9.4002119917
 11
6.5972441081
 21
-7.5502119917
  0
LINE
  5
50C
100
AcDbEntity
  8
ASSI
100
AcDbLine
 62
7
  6
CONTINUOUS
 10
7.0231837032
 20
-18.976473282
 11
7.0231837032
 21
-16.7976960573
  0
LINE
  5
50D
100
AcDbEntity
  8
RACCORDO
100
AcDbLine
 62
7
  6
CONTINUOUS
 10
7.0231837032
 20
-18.976473282
 11
7.0231837032
 21
-16.7976960573
  0
LINE
  5
50E
100
AcDbEntity
  8
ASSI
100
AcDbLine
 62
7
  6
CONTINUOUS
 10
7.0231837032
 20
18.247272074
 11
7.0231837032
 21
20.6760492986
  0
LINE
  5
50F
100
AcDbEntity
  8
RACCORDO
100
AcDbLine
 62
7
  6
CONTINUOUS
 10
7.0231837032
 20
18.247272074
 11
7.0231837032
 21
20.6760492986
  0
LINE
  5
510
100
AcDbEntity
  8
0
100
AcDbLine
 62
7
  6
CONTINUOUS
 10
7.2972441081
 20
1.0997880083
 11
7.2972441081
 21
-5.9002119917
  0
LINE
  5
511
100
AcDbEntity
  8
ASSI
100
AcDbLine
 62
7
  6
CONTINUOUS
 10
7.3181743005
 20
-19.6361905353
 11
7.3181743005
 21
-16.6502119917
  0
LINE
  5
512
100
AcDbEntity
  8
DRAFT
100
AcDbLine
 62
7
  6
CONTINUOUS
 10
7.3181743005
 20
-19.6361905353
 11
7.3181743005
 21
-16.6502119917
  0
LINE
  5
513
100
AcDbEntity
  8
ASSI
100
AcDbLine
 62
7
  6
CONTINUOUS
 10
7.3181743005
 20
18.0997880083
 11
7.3181743005
 21
21.335766552
  0
LINE
  5
514
100
AcDbEntity
  8
DRAFT
100
AcDbLine
 62
7
  6
CONTINUOUS
 10
7.3181743005
 20
18.0997880083
 11
7.3181743005
 21
21.335766552
  0
LINE
  5
515
100
AcDbEntity
  8
DRAFT
100
AcDbLine
 62
7
  6
CONTINUOUS
 10
7.4905194675
 20
12.8320774191
 11
7.4905194675
 21
16.5477857812
  0
LINE
  5
516
100
AcDbEntity
  8
ASSI
100
AcDbLine
 62
7
  6
CONTINUOUS
 10
7.4905194675
 20
12.8320774191
 11
7.4905194675
 21
16.5477857812
  0
LINE
  5
517
100
AcDbEntity
  8
0
100
AcDbLine
 62
7
  6
CONTINUOUS
 10
7.5036097692
 20
11.2805888992
 11
7.5036097692
 21
8.01287831
  0
LINE
  5
518
100
AcDbEntity
  8
ASSI
100
AcDbLine
 62
7
  6
CONTINUOUS
 10
7.5036097692
 20
11.2805888992
 11
7.5036097692
 21
8.01287831
  0
LINE
  5
519
100
AcDbEntity
  8
DRAFT
100
AcDbLine
 62
7
  6
CONTINUOUS
 10
7.5228088783
 20
12.7997880083
 11
7.5228088783
 21
12.6997880083
  0
LINE
  5
51A
100
AcDbEntity
  8
ASSI
100
AcDbLine
 62
7
  6
CONTINUOUS
 10
7.5228088783
 20
12.7997880083
 11
7.5228088783
 21
12.6997880083
  0
LINE
  5
51B
100
AcDbEntity
  8
DRAFT
100
AcDbLine
 62
7
  6
CONTINUOUS
 10
7.5228088783
 20
11.0997880083
 11
7.5228088783
 21
11.2997880083
  0
LINE
  5
51C
100
AcDbEntity
  8
ASSI
100
AcDbLine
 62
7
  6
CONTINUOUS
 10
7.5228088783
 20
11.0997880083
 11
7.5228088783
 21
11.2997880083
  0
LINE
  5
51D
100
AcDbEntity
  8
DRAFT
100
AcDbLine
 62
7
  6
CONTINUOUS
 10
7.5228088783
 20
14.2242232381
 11
7.5228088783
 21
14.7497880083
  0
LINE
  5
51E
100
AcDbEntity
  8
ASSI
100
AcDbLine
 62
7
  6
CONTINUOUS
 10
7.5228088783
 20
14.2242232381
 11
7.5228088783
 21
14.7497880083
  0
LINE
  5
51F
100
AcDbEntity
  8
DRAFT
100
AcDbLine
 62
7
  6
CONTINUOUS
 10
7.5228088783
 20
15.9497880083
 11
7.5228088783
 21
16.4753527785
  0
LINE
  5
520
100
AcDbEntity
  8
ASSI
100
AcDbLine
 62
7
  6
CONTINUOUS
 10
7.5228088783
 20
15.9497880083
 11
7.5228088783
 21
16.4753527785
  0
LINE
  5
521
100
AcDbEntity
  8
RACCORDO
100
AcDbLine
 62
7
  6
CONTINUOUS
 10
7.5760427718
 20
9.2997880083
 11
7.5760427718
 21
9.0766225233
  0
LINE
  5
522
100
AcDbEntity
  8
ASSI
100
AcDbLine
 62
7
  6
CONTINUOUS
 10
7.5760427718
 20
9.2997880083
 11
7.5760427718
 21
9.0766225233
  0
LINE
  5
523
100
AcDbEntity
  8
RACCORDO
100
AcDbLine
 62
7
  6
CONTINUOUS
 10
7.7514528144
 20
13.995579302
 11
7.7514528144
 21
13.6106247347
  0
LINE
  5
524
100
AcDbEntity
  8
ASSI
100
AcDbLine
 62
7
  6
CONTINUOUS
 10
7.7514528144
 20
13.995579302
 11
7.7514528144
 21
13.6106247347
  0
LINE
  5
525
100
AcDbEntity
  8
RACCORDO
100
AcDbLine
 62
7
  6
CONTINUOUS
 10
7.7514528144
 20
9.6506348134
 11
7.7514528144
 21
10.188951282
  0
LINE
  5
526
100
AcDbEntity
  8
ASSI
100
AcDbLine
 62
7
  6
CONTINUOUS
 10
7.7514528144
 20
9.6506348134
 11
7.7514528144
 21
10.188951282
  0
LINE
  5
527
100
AcDbEntity
  8
ASSI
100
AcDbLine
 62
7
  6
CONTINUOUS
 10
7.7972441081
 20
7.9997880083
 11
7.7972441081
 21
7.5997880083
  0
LINE
  5
528
100
AcDbEntity
  8
0
100
AcDbLine
 62
7
  6
CONTINUOUS
 10
7.7972441081
 20
7.9997880083
 11
7.7972441081
 21
7.5997880083
  0
LINE
  5
529
100
AcDbEntity
  8
ASSI
100
AcDbLine
 62
7
  6
CONTINUOUS
 10
7.7972441081
 20
-8.5668786584
 11
7.7972441081
 21
-10.9002119917
  0
LINE
  5
52A
100
AcDbEntity
  8
0
100
AcDbLine
 62
7
  6
CONTINUOUS
 10
7.7972441081
 20
-8.5668786584
 11
7.7972441081
 21
-10.9002119917
  0
LINE
  5
52B
100
AcDbEntity
  8
ASSI
100
AcDbLine
 62
7
  6
CONTINUOUS
 10
7.7972441081
 20
-12.3827582561
 11
7.7972441081
 21
-14.6002119917
  0
LINE
  5
52C
100
AcDbEntity
  8
0
100
AcDbLine
 62
7
  6
CONTINUOUS
 10
7.7972441081
 20
-12.3827582561
 11
7.7972441081
 21
-14.6002119917
  0
LINE
  5
52D
100
AcDbEntity
  8
DRAFT
100
AcDbLine
 62
7
  6
CONTINUOUS
 10
7.7972441081
 20
-5.9002119917
 11
7.7972441081
 21
-3.3059546411
  0
LINE
  5
52E
100
AcDbEntity
  8
DRAFT
100
AcDbLine
 62
7
  6
CONTINUOUS
 10
7.7972441081
 20
1.4584019824
 11
7.7972441081
 21
4.8997880083
  0
LINE
  5
52F
100
AcDbEntity
  8
DRAFT
100
AcDbLine
 62
7
  6
CONTINUOUS
 10
7.7972441081
 20
6.5997880083
 11
7.7972441081
 21
7.5997880083
  0
LINE
  5
530
100
AcDbEntity
  8
0
100
AcDbLine
 62
7
  6
CONTINUOUS
 10
7.8472441081
 20
-7.9002119917
 11
7.8472441081
 21
-7.5502119917
  0
LINE
  5
531
100
AcDbEntity
  8
0
100
AcDbLine
 62
7
  6
CONTINUOUS
 10
7.8972441081
 20
-8.4002119917
 11
7.8972441081
 21
-7.9002119917
  0
LINE
  5
532
100
AcDbEntity
  8
DRAFT
100
AcDbLine
 62
7
  6
CONTINUOUS
 10
8.0472441081
 20
-10.9002119917
 11
8.0472441081
 21
-7.6229018479
  0
LINE
  5
533
100
AcDbEntity
  8
ASSI
100
AcDbLine
 62
7
  6
CONTINUOUS
 10
8.0472441081
 20
-10.9002119917
 11
8.0472441081
 21
-7.6229018479
  0
LINE
  5
534
100
AcDbEntity
  8
DRAFT
100
AcDbLine
 62
7
  6
CONTINUOUS
 10
8.0472441081
 20
-5.9002119917
 11
8.0472441081
 21
-3.571271628
  0
LINE
  5
535
100
AcDbEntity
  8
ASSI
100
AcDbLine
 62
7
  6
CONTINUOUS
 10
8.0472441081
 20
-7.5002119917
 11
8.0472441081
 21
-3.571271628
  0
LINE
  5
536
100
AcDbEntity
  8
RACCORDO
100
AcDbLine
 62
7
  6
CONTINUOUS
 10
8.0472441081
 20
-3.2050061425
 11
8.0472441081
 21
1.4045821592
  0
LINE
  5
537
100
AcDbEntity
  8
ASSI
100
AcDbLine
 62
7
  6
CONTINUOUS
 10
8.0472441081
 20
-3.2050061425
 11
8.0472441081
 21
1.4045821592
  0
LINE
  5
538
100
AcDbEntity
  8
DRAFT
100
AcDbLine
 62
7
  6
CONTINUOUS
 10
8.0472441081
 20
7.0997880083
 11
8.0472441081
 21
7.9997880083
  0
LINE
  5
539
100
AcDbEntity
  8
ASSI
100
AcDbLine
 62
7
  6
CONTINUOUS
 10
8.0472441081
 20
7.0997880083
 11
8.0472441081
 21
7.9997880083
  0
LINE
  5
53A
100
AcDbEntity
  8
DRAFT
100
AcDbLine
 62
7
  6
CONTINUOUS
 10
8.0542256023
 20
-14.7504688453
 11
8.0542256023
 21
-11.8932304975
  0
LINE
  5
53B
100
AcDbEntity
  8
ASSI
100
AcDbLine
 62
7
  6
CONTINUOUS
 10
8.0542256023
 20
-14.7504688453
 11
8.0542256023
 21
-11.8932304975
  0
LINE
  5
53C
100
AcDbEntity
  8
DRAFT
100
AcDbLine
 62
7
  6
CONTINUOUS
 10
8.0699339644
 20
-5.8002119917
 11
8.0699339644
 21
-5.9002119917
  0
LINE
  5
53D
100
AcDbEntity
  8
ASSI
100
AcDbLine
 62
7
  6
CONTINUOUS
 10
8.0699339644
 20
-5.8002119917
 11
8.0699339644
 21
-5.9002119917
  0
LINE
  5
53E
100
AcDbEntity
  8
DRAFT
100
AcDbLine
 62
7
  6
CONTINUOUS
 10
8.0795335189
 20
-11.8679225809
 11
8.0795335189
 21
-11.4002119917
  0
LINE
  5
53F
100
AcDbEntity
  8
ASSI
100
AcDbLine
 62
7
  6
CONTINUOUS
 10
8.0795335189
 20
-11.8679225809
 11
8.0795335189
 21
-11.4002119917
  0
LINE
  5
540
100
AcDbEntity
  8
DRAFT
100
AcDbLine
 62
7
  6
CONTINUOUS
 10
8.0795335189
 20
-10.9325014025
 11
8.0795335189
 21
-10.8502119917
  0
LINE
  5
541
100
AcDbEntity
  8
ASSI
100
AcDbLine
 62
7
  6
CONTINUOUS
 10
8.0795335189
 20
-10.9325014025
 11
8.0795335189
 21
-10.8502119917
  0
LINE
  5
542
100
AcDbEntity
  8
DRAFT
100
AcDbLine
 62
7
  6
CONTINUOUS
 10
8.0795335189
 20
-9.6502119917
 11
8.0795335189
 21
-9.1246472215
  0
LINE
  5
543
100
AcDbEntity
  8
ASSI
100
AcDbLine
 62
7
  6
CONTINUOUS
 10
8.0795335189
 20
-9.6502119917
 11
8.0795335189
 21
-9.1246472215
  0
LINE
  5
544
100
AcDbEntity
  8
DRAFT
100
AcDbLine
 62
7
  6
CONTINUOUS
 10
8.1170590504
 20
-11.4377375232
 11
8.1170590504
 21
-14.8133022934
  0
LINE
  5
545
100
AcDbEntity
  8
ASSI
100
AcDbLine
 62
7
  6
CONTINUOUS
 10
8.1170590504
 20
-11.4377375232
 11
8.1170590504
 21
-14.8133022934
  0
LINE
  5
546
100
AcDbEntity
  8
RACCORDO
100
AcDbLine
 62
7
  6
CONTINUOUS
 10
8.1327674125
 20
9.0766225233
 11
8.1327674125
 21
7.0997880083
  0
LINE
  5
547
100
AcDbEntity
  8
ASSI
100
AcDbLine
 62
7
  6
CONTINUOUS
 10
8.1327674125
 20
9.0766225233
 11
8.1327674125
 21
7.0997880083
  0
LINE
  5
548
100
AcDbEntity
  8
DRAFT
100
AcDbLine
 62
7
  6
CONTINUOUS
 10
8.1327674125
 20
-4.1002119917
 11
8.1327674125
 21
-3.4002119917
  0
LINE
  5
549
100
AcDbEntity
  8
ASSI
100
AcDbLine
 62
7
  6
CONTINUOUS
 10
8.1327674125
 20
-4.1002119917
 11
8.1327674125
 21
-3.4002119917
  0
LINE
  5
54A
100
AcDbEntity
  8
DRAFT
100
AcDbLine
 62
7
  6
CONTINUOUS
 10
8.2972441081
 20
4.9879514987
 11
8.2972441081
 21
6.511624518
  0
LINE
  5
54B
100
AcDbEntity
  8
RACCORDO
100
AcDbLine
 62
7
  6
CONTINUOUS
 10
8.3081774551
 20
-8.8960032854
 11
8.3081774551
 21
-8.6315044508
  0
LINE
  5
54C
100
AcDbEntity
  8
ASSI
100
AcDbLine
 62
7
  6
CONTINUOUS
 10
8.3081774551
 20
-8.8960032854
 11
8.3081774551
 21
-8.6315044508
  0
LINE
  5
54D
100
AcDbEntity
  8
RACCORDO
100
AcDbLine
 62
7
  6
CONTINUOUS
 10
8.3081774551
 20
-4.7689195325
 11
8.3081774551
 21
-4.4510587967
  0
LINE
  5
54E
100
AcDbEntity
  8
ASSI
100
AcDbLine
 62
7
  6
CONTINUOUS
 10
8.3081774551
 20
-4.7689195325
 11
8.3081774551
 21
-4.4510587967
  0
LINE
  5
54F
100
AcDbEntity
  8
0
100
AcDbLine
 62
7
  6
CONTINUOUS
 10
8.4972441081
 20
-7.5502119917
 11
8.4972441081
 21
-7.5002119917
  0
LINE
  5
550
100
AcDbEntity
  8
DRAFT
100
AcDbLine
 62
7
  6
CONTINUOUS
 10
8.5472441081
 20
12.6997880083
 11
8.5472441081
 21
11.0997880083
  0
LINE
  5
551
100
AcDbEntity
  8
ASSI
100
AcDbLine
 62
7
  6
CONTINUOUS
 10
8.5472441081
 20
12.6997880083
 11
8.5472441081
 21
11.0997880083
  0
LINE
  5
552
100
AcDbEntity
  8
DRAFT
100
AcDbLine
 62
7
  6
CONTINUOUS
 10
8.5472441081
 20
7.0997880083
 11
8.5472441081
 21
1.5997880083
  0
LINE
  5
553
100
AcDbEntity
  8
ASSI
100
AcDbLine
 62
7
  6
CONTINUOUS
 10
8.5472441081
 20
7.0997880083
 11
8.5472441081
 21
1.5997880083
  0
LINE
  5
554
100
AcDbEntity
  8
ASSI
100
AcDbLine
 62
253
  6
CONTINUOUS
 10
8.6035268982
 20
16.2935052182
 11
8.6035268982
 21
14.5060707985
  0
LINE
  5
555
100
AcDbEntity
  8
RACCORDO
100
AcDbLine
 62
253
  6
CONTINUOUS
 10
8.6035268982
 20
16.2935052182
 11
8.6035268982
 21
14.5060707985
  0
LINE
  5
556
100
AcDbEntity
  8
ASSI
100
AcDbLine
 62
253
  6
CONTINUOUS
 10
8.6035268982
 20
-9.4064947818
 11
8.6035268982
 21
-11.1939292015
  0
LINE
  5
557
100
AcDbEntity
  8
RACCORDO
100
AcDbLine
 62
253
  6
CONTINUOUS
 10
8.6035268982
 20
-9.4064947818
 11
8.6035268982
 21
-11.1939292015
  0
LINE
  5
558
100
AcDbEntity
  8
RACCORDO
100
AcDbLine
 62
7
  6
CONTINUOUS
 10
8.6581597871
 20
10.9887052322
 11
8.6581597871
 21
12.8108707844
  0
LINE
  5
559
100
AcDbEntity
  8
ASSI
100
AcDbLine
 62
7
  6
CONTINUOUS
 10
8.6581597871
 20
10.9887052322
 11
8.6581597871
 21
12.8108707844
  0
LINE
  5
55A
100
AcDbEntity
  8
ASSI
100
AcDbLine
 62
253
  6
CONTINUOUS
 10
8.6938747237
 20
16.2886516277
 11
8.6938747237
 21
14.510924389
  0
LINE
  5
55B
100
AcDbEntity
  8
RACCORDO
100
AcDbLine
 62
253
  6
CONTINUOUS
 10
8.6938747237
 20
16.2886516277
 11
8.6938747237
 21
14.510924389
  0
LINE
  5
55C
100
AcDbEntity
  8
ASSI
100
AcDbLine
 62
253
  6
CONTINUOUS
 10
8.6938747237
 20
-9.4113483723
 11
8.6938747237
 21
-11.189075611
  0
LINE
  5
55D
100
AcDbEntity
  8
RACCORDO
100
AcDbLine
 62
253
  6
CONTINUOUS
 10
8.6938747237
 20
-9.4113483723
 11
8.6938747237
 21
-11.189075611
  0
LINE
  5
55E
100
AcDbEntity
  8
ASSI
100
AcDbLine
 62
7
  6
CONTINUOUS
 10
6.4578002481
 20
-19.2978670868
 11
6.4528912637
 21
-19.9682450457
  0
LINE
  5
55F
100
AcDbEntity
  8
RACCORDO
100
AcDbLine
 62
7
  6
CONTINUOUS
 10
6.4578002481
 20
-19.2978670868
 11
6.4528912637
 21
-19.9682450457
  0
LINE
  5
560
100
AcDbEntity
  8
ASSI
100
AcDbLine
 62
7
  6
CONTINUOUS
 10
7.025225558
 20
20.9974431034
 11
7.0352915814
 21
21.6847060671
  0
LINE
  5
561
100
AcDbEntity
  8
RACCORDO
100
AcDbLine
 62
7
  6
CONTINUOUS
 10
7.025225558
 20
20.9974431034
 11
7.0352915814
 21
21.6847060671
  0
LINE
  5
562
100
AcDbEntity
  8
DRAFT
100
AcDbLine
 62
7
  6
CONTINUOUS
 10
8.3910331747
 20
1.4584019824
 11
8.5472441081
 21
1.7708476446
  0
LINE
  5
563
100
AcDbEntity
  8
ASSI
100
AcDbLine
 62
7
  6
CONTINUOUS
 10
8.3910331747
 20
1.4584019824
 11
8.5472441081
 21
1.7708476446
  0
LINE
  5
564
100
AcDbEntity
  8
DRAFT
100
AcDbLine
 62
7
  6
CONTINUOUS
 10
-11.0112785077
 20
-16.1087346075
 11
-11.3027558919
 21
-16.4002119917
  0
LINE
  5
565
100
AcDbEntity
  8
ASSI
100
AcDbLine
 62
7
  6
CONTINUOUS
 10
-11.0112785077
 20
-16.1087346075
 11
-11.3027558919
 21
-16.4002119917
  0
LINE
  5
566
100
AcDbEntity
  8
DRAFT
100
AcDbLine
 62
7
  6
CONTINUOUS
 10
-9.4243688094
 20
-14.8133022934
 11
-9.7027558919
 21
-15.0916893759
  0
LINE
  5
567
100
AcDbEntity
  8
ASSI
100
AcDbLine
 62
7
  6
CONTINUOUS
 10
-9.4243688094
 20
-14.8133022934
 11
-9.7027558919
 21
-15.0916893759
  0
LINE
  5
568
100
AcDbEntity
  8
DRAFT
100
AcDbLine
 62
7
  6
CONTINUOUS
 10
-8.4850453027
 20
-14.7757767619
 11
-8.5225708342
 21
-14.8133022934
  0
LINE
  5
569
100
AcDbEntity
  8
ASSI
100
AcDbLine
 62
7
  6
CONTINUOUS
 10
-8.4850453027
 20
-14.7757767619
 11
-8.5225708342
 21
-14.8133022934
  0
LINE
  5
56A
100
AcDbEntity
  8
DRAFT
100
AcDbLine
 62
7
  6
CONTINUOUS
 10
-5.6949017109
 20
-12.4002119917
 11
-5.6774479753
 21
-12.3827582561
  0
LINE
  5
56B
100
AcDbEntity
  8
ASSI
100
AcDbLine
 62
7
  6
CONTINUOUS
 10
-5.6949017109
 20
-12.4002119917
 11
-5.6774479753
 21
-12.3827582561
  0
LINE
  5
56C
100
AcDbEntity
  8
RACCORDO
100
AcDbLine
 62
253
  6
CONTINUOUS
 10
7.2972441081
 20
-3.2213701536
 11
8.0472441081
 21
-3.2050061425
  0
LINE
  5
56D
100
AcDbEntity
  8
ASSI
100
AcDbLine
 62
253
  6
CONTINUOUS
 10
7.2972441081
 20
-3.2213701536
 11
8.0472441081
 21
-3.2050061425
  0
LINE
  5
56E
100
AcDbEntity
  8
RACCORDO
100
AcDbLine
 62
253
  6
CONTINUOUS
 10
7.2972441081
 20
-3.0179931182
 11
8.0472441081
 21
-3.001629107
  0
LINE
  5
56F
100
AcDbEntity
  8
ASSI
100
AcDbLine
 62
253
  6
CONTINUOUS
 10
7.2972441081
 20
-3.0179931182
 11
8.0472441081
 21
-3.001629107
  0
LINE
  5
570
100
AcDbEntity
  8
DRAFT
100
AcDbLine
 62
7
  6
CONTINUOUS
 10
-10.2027558919
 20
-3.4002119917
 11
-8.5382791962
 21
-3.4002119917
  0
LINE
  5
571
100
AcDbEntity
  8
ASSI
100
AcDbLine
 62
7
  6
CONTINUOUS
 10
-10.2027558919
 20
-3.4002119917
 11
-8.5382791962
 21
-3.4002119917
  0
LINE
  5
572
100
AcDbEntity
  8
DRAFT
100
AcDbLine
 62
7
  6
CONTINUOUS
 10
8.1327674125
 20
-3.4002119917
 11
9.7972441081
 21
-3.4002119917
  0
LINE
  5
573
100
AcDbEntity
  8
ASSI
100
AcDbLine
 62
7
  6
CONTINUOUS
 10
8.1327674125
 20
-3.4002119917
 11
9.7972441081
 21
-3.4002119917
  0
LINE
  5
574
100
AcDbEntity
  8
RACCORDO
100
AcDbLine
 62
7
  6
CONTINUOUS
 10
7.9145957177
 20
-3.3059546411
 11
7.2972441081
 21
-3.3059546411
  0
LINE
  5
575
100
AcDbEntity
  8
ASSI
100
AcDbLine
 62
7
  6
CONTINUOUS
 10
7.9145957177
 20
-3.3059546411
 11
7.2972441081
 21
-3.3059546411
  0
LINE
  5
576
100
AcDbEntity
  8
RACCORDO
100
AcDbLine
 62
7
  6
CONTINUOUS
 10
-7.7027558919
 20
-3.3059546411
 11
-8.3201075015
 21
-3.3059546411
  0
LINE
  5
577
100
AcDbEntity
  8
ASSI
100
AcDbLine
 62
7
  6
CONTINUOUS
 10
-7.7027558919
 20
-3.3059546411
 11
-8.3201075015
 21
-3.3059546411
  0
LINE
  5
578
100
AcDbEntity
  8
RACCORDO
100
AcDbLine
 62
7
  6
CONTINUOUS
 10
9.570328264
 20
-3.1732961476
 11
8.8472441081
 21
-3.1732961476
  0
LINE
  5
579
100
AcDbEntity
  8
ASSI
100
AcDbLine
 62
7
  6
CONTINUOUS
 10
9.570328264
 20
-3.1732961476
 11
8.8472441081
 21
-3.1732961476
  0
LINE
  5
57A
100
AcDbEntity
  8
RACCORDO
100
AcDbLine
 62
7
  6
CONTINUOUS
 10
-9.2527558919
 20
-3.1732961476
 11
-9.9758400478
 21
-3.1732961476
  0
LINE
  5
57B
100
AcDbEntity
  8
ASSI
100
AcDbLine
 62
7
  6
CONTINUOUS
 10
-9.2527558919
 20
-3.1732961476
 11
-9.9758400478
 21
-3.1732961476
  0
LINE
  5
57C
100
AcDbEntity
  8
RACCORDO
100
AcDbLine
 62
253
  6
CONTINUOUS
 10
-8.4527558919
 20
-3.2050061425
 11
-7.7027558919
 21
-3.2213701536
  0
LINE
  5
57D
100
AcDbEntity
  8
ASSI
100
AcDbLine
 62
253
  6
CONTINUOUS
 10
-8.4527558919
 20
-3.2050061425
 11
-7.7027558919
 21
-3.2213701536
  0
LINE
  5
57E
100
AcDbEntity
  8
RACCORDO
100
AcDbLine
 62
253
  6
CONTINUOUS
 10
-8.4527558919
 20
-3.001629107
 11
-7.7027558919
 21
-3.0179931182
  0
LINE
  5
57F
100
AcDbEntity
  8
ASSI
100
AcDbLine
 62
253
  6
CONTINUOUS
 10
-8.4527558919
 20
-3.001629107
 11
-7.7027558919
 21
-3.0179931182
  0
LINE
  5
580
100
AcDbEntity
  8
ASSI
100
AcDbLine
 62
7
  6
CONTINUOUS
 10
-9.009038682
 20
14.5060707985
 11
-9.0027558919
 21
14.4997880083
  0
LINE
  5
581
100
AcDbEntity
  8
RACCORDO
100
AcDbLine
 62
7
  6
CONTINUOUS
 10
-9.009038682
 20
14.5060707985
 11
-9.0027558919
 21
14.4997880083
  0
LINE
  5
582
100
AcDbEntity
  8
DRAFT
100
AcDbLine
 62
7
  6
CONTINUOUS
 10
9.7972441081
 20
-3.4002119917
 11
9.570328264
 21
-3.1732961476
  0
LINE
  5
583
100
AcDbEntity
  8
ASSI
100
AcDbLine
 62
7
  6
CONTINUOUS
 10
9.7972441081
 20
-3.4002119917
 11
9.570328264
 21
-3.1732961476
  0
LINE
  5
584
100
AcDbEntity
  8
DRAFT
100
AcDbLine
 62
7
  6
CONTINUOUS
 10
-10.0442332761
 20
16.7912653925
 11
-9.7527558919
 21
16.4997880083
  0
LINE
  5
585
100
AcDbEntity
  8
ASSI
100
AcDbLine
 62
7
  6
CONTINUOUS
 10
-10.0442332761
 20
16.7912653925
 11
-9.7527558919
 21
16.4997880083
  0
LINE
  5
586
100
AcDbEntity
  8
DRAFT
100
AcDbLine
 62
7
  6
CONTINUOUS
 10
-11.0112785077
 20
17.8083106241
 11
-11.3027558919
 21
18.0997880083
  0
LINE
  5
587
100
AcDbEntity
  8
ASSI
100
AcDbLine
 62
7
  6
CONTINUOUS
 10
-11.0112785077
 20
17.8083106241
 11
-11.3027558919
 21
18.0997880083
  0
LINE
  5
588
100
AcDbEntity
  8
DRAFT
100
AcDbLine
 62
7
  6
CONTINUOUS
 10
9.7972441081
 20
-1.4002119917
 11
9.570328264
 21
-1.1732961476
  0
LINE
  5
589
100
AcDbEntity
  8
ASSI
100
AcDbLine
 62
7
  6
CONTINUOUS
 10
9.7972441081
 20
-1.4002119917
 11
9.570328264
 21
-1.1732961476
  0
LINE
  5
58A
100
AcDbEntity
  8
DRAFT
100
AcDbLine
 62
7
  6
CONTINUOUS
 10
-7.9283206621
 20
16.4753527785
 11
-8.0007536647
 21
16.5477857812
  0
LINE
  5
58B
100
AcDbEntity
  8
ASSI
100
AcDbLine
 62
7
  6
CONTINUOUS
 10
-7.9283206621
 20
16.4753527785
 11
-8.0007536647
 21
16.5477857812
  0
LINE
  5
58C
100
AcDbEntity
  8
DRAFT
100
AcDbLine
 62
7
  6
CONTINUOUS
 10
8.3081774551
 20
-4.4510587967
 11
8.1327674125
 21
-4.1002119917
  0
LINE
  5
58D
100
AcDbEntity
  8
ASSI
100
AcDbLine
 62
7
  6
CONTINUOUS
 10
8.3081774551
 20
-4.4510587967
 11
8.1327674125
 21
-4.1002119917
  0
LINE
  5
58E
100
AcDbEntity
  8
DRAFT
100
AcDbLine
 62
7
  6
CONTINUOUS
 10
8.0472441081
 20
-3.571271628
 11
7.9145957177
 21
-3.3059546411
  0
LINE
  5
58F
100
AcDbEntity
  8
ASSI
100
AcDbLine
 62
7
  6
CONTINUOUS
 10
8.0472441081
 20
-3.571271628
 11
7.9145957177
 21
-3.3059546411
  0
LINE
  5
590
100
AcDbEntity
  8
DRAFT
100
AcDbLine
 62
7
  6
CONTINUOUS
 10
9.384512786
 20
-4.625609446
 11
9.2972441081
 21
-4.4510587967
  0
LINE
  5
591
100
AcDbEntity
  8
ASSI
100
AcDbLine
 62
7
  6
CONTINUOUS
 10
9.384512786
 20
-4.625609446
 11
9.2972441081
 21
-4.4510587967
  0
LINE
  5
592
100
AcDbEntity
  8
0
100
AcDbLine
 62
7
  6
CONTINUOUS
 10
5.8972441081
 20
4.0997880083
 11
7.2972441081
 21
1.0997880083
  0
LINE
  5
593
100
AcDbEntity
  8
DRAFT
100
AcDbLine
 62
7
  6
CONTINUOUS
 10
10.7899036343
 20
5.2997880083
 11
10.8684454444
 21
3.2997880083
  0
LINE
  5
594
100
AcDbEntity
  8
ASSI
100
AcDbLine
 62
7
  6
CONTINUOUS
 10
10.7899036343
 20
5.2997880083
 11
10.8684454444
 21
3.2997880083
  0
LINE
  5
595
100
AcDbEntity
  8
CURVE
100
AcDbLine
 62
253
  6
CONTINUOUS
 10
10.8876445535
 20
15.3855020083
 11
10.8807877313
 21
15.5997880083
  0
LINE
  5
596
100
AcDbEntity
  8
CURVE
100
AcDbLine
 62
253
  6
CONTINUOUS
 10
10.8759671733
 20
-14.4430694002
 11
10.876507408
 21
-14.4740216631
  0
LINE
  5
597
100
AcDbEntity
  8
CURVE
100
AcDbLine
 62
253
  6
CONTINUOUS
 10
10.87731776
 20
-14.3811642546
 11
10.8767775253
 21
-14.3502119917
  0
LINE
  5
598
100
AcDbEntity
  8
CURVE
100
AcDbLine
 62
253
  6
CONTINUOUS
 10
10.8810994027
 20
-8.9644977945
 11
10.8843408105
 21
-9.1502119917
  0
LINE
  5
599
100
AcDbEntity
  8
CURVE
100
AcDbLine
 62
253
  6
CONTINUOUS
 10
10.8605912634
 20
15.5997880083
 11
10.8630846517
 21
15.4569310083
  0
LINE
  5
59A
100
AcDbEntity
  8
CURVE
100
AcDbLine
 62
253
  6
CONTINUOUS
 10
10.8843408105
 20
-14.9073545832
 11
10.8867718668
 21
-15.0930694002
  0
LINE
  5
59B
100
AcDbEntity
  8
CURVE
100
AcDbLine
 62
253
  6
CONTINUOUS
 10
10.8754269386
 20
-12.6787835974
 11
10.8762372907
 21
-12.7406881231
  0
LINE
  5
59C
100
AcDbEntity
  8
CURVE
100
AcDbLine
 62
253
  6
CONTINUOUS
 10
10.8843408105
 20
-13.1430694002
 11
10.8867718668
 21
-13.3287835974
  0
LINE
  5
59D
100
AcDbEntity
  8
CURVE
100
AcDbLine
 62
253
  6
CONTINUOUS
 10
10.8802890507
 20
-12.6787835974
 11
10.8810994027
 21
-12.7406881231
  0
LINE
  5
59E
100
AcDbEntity
  8
CURVE
100
AcDbLine
 62
253
  6
CONTINUOUS
 10
10.8843408105
 20
-11.6573545832
 11
10.8867718668
 21
-11.8430694002
  0
LINE
  5
59F
100
AcDbEntity
  8
CURVE
100
AcDbLine
 62
253
  6
CONTINUOUS
 10
10.8744295798
 20
7.1997880083
 11
10.8762996254
 21
7.0569310083
  0
LINE
  5
5A0
100
AcDbEntity
  8
CURVE
100
AcDbLine
 62
253
  6
CONTINUOUS
 10
10.8835304589
 20
-15.5573545832
 11
10.8754269386
 21
-14.9073545832
  0
LINE
  5
5A1
100
AcDbEntity
  8
CURVE
100
AcDbLine
 62
253
  6
CONTINUOUS
 10
10.8835304589
 20
-13.7930694002
 11
10.8754269386
 21
-13.1430694002
  0
LINE
  5
5A2
100
AcDbEntity
  8
CURVE
100
AcDbLine
 62
253
  6
CONTINUOUS
 10
10.8835304589
 20
-12.3073545832
 11
10.8754269386
 21
-11.6573545832
  0
LINE
  5
5A3
100
AcDbEntity
  8
CURVE
100
AcDbLine
 62
253
  6
CONTINUOUS
 10
10.8738062371
 20
6.6997880083
 11
10.8675727576
 21
7.1997880083
  0
LINE
  5
5A4
100
AcDbEntity
  8
CURVE
100
AcDbLine
 62
253
  6
CONTINUOUS
 10
10.6903550069
 20
-5.4002119917
 11
10.6934717452
 21
-5.7573548275
  0
LINE
  5
5A5
100
AcDbEntity
  8
CURVE
100
AcDbLine
 62
253
  6
CONTINUOUS
 10
10.7324309767
 20
-6.4716404993
 11
10.735547715
 21
-6.8287834096
  0
LINE
  5
5A6
100
AcDbEntity
  8
CURVE
100
AcDbLine
 62
253
  6
CONTINUOUS
 10
10.8762372907
 20
-10.5430690903
 11
10.8754269386
 21
-10.4502119917
  0
LINE
  5
5A7
100
AcDbEntity
  8
CURVE
100
AcDbLine
 62
253
  6
CONTINUOUS
 10
10.8867718668
 20
-11.2859261888
 11
10.8835304589
 21
-10.9144977945
  0
LINE
  5
5A8
100
AcDbEntity
  8
CURVE
100
AcDbLine
 62
253
  6
CONTINUOUS
 10
10.8770476427
 20
-9.6144977945
 11
10.8754269386
 21
-9.4287832874
  0
LINE
  5
5A9
100
AcDbEntity
  8
CURVE
100
AcDbLine
 62
253
  6
CONTINUOUS
 10
10.8843408105
 20
-9.1502119917
 11
10.8867718668
 21
-9.4287832874
  0
LINE
  5
5AA
100
AcDbEntity
  8
CURVE
100
AcDbLine
 62
253
  6
CONTINUOUS
 10
10.8770476427
 20
-7.571640541
 11
10.8754269386
 21
-7.3859263438
  0
LINE
  5
5AB
100
AcDbEntity
  8
CURVE
100
AcDbLine
 62
253
  6
CONTINUOUS
 10
10.8754269386
 20
-6.364497717
 11
10.8770476427
 21
-6.5502119917
  0
LINE
  5
5AC
100
AcDbEntity
  8
CURVE
100
AcDbLine
 62
253
  6
CONTINUOUS
 10
10.8867718668
 20
-7.1073548156
 11
10.8851511628
 21
-6.921640541
  0
LINE
  5
5AD
100
AcDbEntity
  8
CURVE
100
AcDbLine
 62
253
  6
CONTINUOUS
 10
10.8810994027
 20
-6.2716405797
 11
10.8827201066
 21
-6.4573548544
  0
LINE
  5
5AE
100
AcDbEntity
  8
CURVE
100
AcDbLine
 62
253
  6
CONTINUOUS
 10
10.8649546973
 20
6.9140740083
 11
10.862461309
 21
7.1997880083
  0
LINE
  5
5AF
100
AcDbEntity
  8
CURVE
100
AcDbLine
 62
253
  6
CONTINUOUS
 10
10.8795410372
 20
6.7712170083
 11
10.8789176857
 21
6.8426450083
  0
LINE
  5
5B0
100
AcDbEntity
  8
CURVE
100
AcDbLine
 62
253
  6
CONTINUOUS
 10
10.8574745236
 20
15.0997880083
 11
10.8562278295
 21
15.2426450083
  0
LINE
  5
5B1
100
AcDbEntity
  8
CURVE
100
AcDbLine
 62
253
  6
CONTINUOUS
 10
10.8630846517
 20
15.4569310083
 11
10.8649546973
 21
15.2426450083
  0
LINE
  5
5B2
100
AcDbEntity
  8
CURVE
100
AcDbLine
 62
253
  6
CONTINUOUS
 10
10.8688194518
 20
15.1712170083
 11
10.8675727576
 21
15.3140740083
  0
LINE
  5
5B3
100
AcDbEntity
  8
CURVE
100
AcDbLine
 62
253
  6
CONTINUOUS
 10
10.7324309767
 20
-5.4002119917
 11
10.7350282586
 21
-5.7573548275
  0
LINE
  5
5B4
100
AcDbEntity
  8
CURVE
100
AcDbLine
 62
253
  6
CONTINUOUS
 10
10.8827201066
 20
-10.5121168274
 11
10.881909755
 21
-10.3573548931
  0
LINE
  5
5B5
100
AcDbEntity
  8
CURVE
100
AcDbLine
 62
253
  6
CONTINUOUS
 10
10.8845278138
 20
6.7950260083
 11
10.8839044711
 21
6.9140740083
  0
LINE
  5
5B6
100
AcDbEntity
  8
RACCORDO
100
AcDbLine
 62
253
  6
CONTINUOUS
 10
8.8472441081
 20
-3.1732961476
 11
8.8472441081
 21
1.3728721642
  0
LINE
  5
5B7
100
AcDbEntity
  8
ASSI
100
AcDbLine
 62
253
  6
CONTINUOUS
 10
8.8472441081
 20
-3.1732961476
 11
8.8472441081
 21
1.3728721642
  0
LINE
  5
5B8
100
AcDbEntity
  8
DRAFT
100
AcDbLine
 62
7
  6
CONTINUOUS
 10
9.0188570256
 20
-14.8133022934
 11
9.0188570256
 21
-11.4377375232
  0
LINE
  5
5B9
100
AcDbEntity
  8
ASSI
100
AcDbLine
 62
7
  6
CONTINUOUS
 10
9.0188570256
 20
-14.8133022934
 11
9.0188570256
 21
-11.4377375232
  0
LINE
  5
5BA
100
AcDbEntity
  8
ASSI
100
AcDbLine
 62
7
  6
CONTINUOUS
 10
9.0472441081
 20
-7.5002119917
 11
9.0472441081
 21
-5.9002119917
  0
LINE
  5
5BB
100
AcDbEntity
  8
0
100
AcDbLine
 62
7
  6
CONTINUOUS
 10
9.1972441081
 20
-7.6342467761
 11
9.1972441081
 21
-5.7661772073
  0
LINE
  5
5BC
100
AcDbEntity
  8
ASSI
100
AcDbLine
 62
7
  6
CONTINUOUS
 10
9.1972441081
 20
-7.6342467761
 11
9.1972441081
 21
-5.7661772073
  0
LINE
  5
5BD
100
AcDbEntity
  8
DRAFT
100
AcDbLine
 62
7
  6
CONTINUOUS
 10
9.2494659535
 20
-11.4002119917
 11
9.2494659535
 21
-11.2002119917
  0
LINE
  5
5BE
100
AcDbEntity
  8
ASSI
100
AcDbLine
 62
7
  6
CONTINUOUS
 10
9.2494659535
 20
-11.4002119917
 11
9.2494659535
 21
-11.2002119917
  0
LINE
  5
5BF
100
AcDbEntity
  8
DRAFT
100
AcDbLine
 62
7
  6
CONTINUOUS
 10
9.2494659535
 20
-9.4002119917
 11
9.2494659535
 21
-9.1246472215
  0
LINE
  5
5C0
100
AcDbEntity
  8
ASSI
100
AcDbLine
 62
7
  6
CONTINUOUS
 10
9.2494659535
 20
-9.4002119917
 11
9.2494659535
 21
-9.1246472215
  0
LINE
  5
5C1
100
AcDbEntity
  8
DRAFT
100
AcDbLine
 62
7
  6
CONTINUOUS
 10
9.2494659535
 20
14.2242232381
 11
9.2494659535
 21
14.4997880083
  0
LINE
  5
5C2
100
AcDbEntity
  8
ASSI
100
AcDbLine
 62
7
  6
CONTINUOUS
 10
9.2494659535
 20
14.2242232381
 11
9.2494659535
 21
14.4997880083
  0
LINE
  5
5C3
100
AcDbEntity
  8
DRAFT
100
AcDbLine
 62
7
  6
CONTINUOUS
 10
9.2494659535
 20
16.2997880083
 11
9.2494659535
 21
16.4753527785
  0
LINE
  5
5C4
100
AcDbEntity
  8
ASSI
100
AcDbLine
 62
7
  6
CONTINUOUS
 10
9.2494659535
 20
16.2997880083
 11
9.2494659535
 21
16.4753527785
  0
LINE
  5
5C5
100
AcDbEntity
  8
DRAFT
100
AcDbLine
 62
7
  6
CONTINUOUS
 10
9.2972441081
 20
-15.0916893759
 11
9.2972441081
 21
-11.7161246057
  0
LINE
  5
5C6
100
AcDbEntity
  8
ASSI
100
AcDbLine
 62
7
  6
CONTINUOUS
 10
9.2972441081
 20
-15.0916893759
 11
9.2972441081
 21
-11.7161246057
  0
LINE
  5
5C7
100
AcDbEntity
  8
RACCORDO
100
AcDbLine
 62
7
  6
CONTINUOUS
 10
9.2972441081
 20
-8.8960032854
 11
9.2972441081
 21
-4.4510587967
  0
LINE
  5
5C8
100
AcDbEntity
  8
ASSI
100
AcDbLine
 62
7
  6
CONTINUOUS
 10
9.2972441081
 20
-8.8960032854
 11
9.2972441081
 21
-4.4510587967
  0
LINE
  5
5C9
100
AcDbEntity
  8
RACCORDO
100
AcDbLine
 62
7
  6
CONTINUOUS
 10
9.2972441081
 20
9.6506348134
 11
9.2972441081
 21
13.995579302
  0
LINE
  5
5CA
100
AcDbEntity
  8
ASSI
100
AcDbLine
 62
7
  6
CONTINUOUS
 10
9.2972441081
 20
9.6506348134
 11
9.2972441081
 21
13.995579302
  0
LINE
  5
5CB
100
AcDbEntity
  8
DRAFT
100
AcDbLine
 62
7
  6
CONTINUOUS
 10
9.3472441081
 20
16.4997880083
 11
9.3472441081
 21
14.1997880083
  0
LINE
  5
5CC
100
AcDbEntity
  8
ASSI
100
AcDbLine
 62
7
  6
CONTINUOUS
 10
9.3472441081
 20
16.4997880083
 11
9.3472441081
 21
14.1997880083
  0
LINE
  5
5CD
100
AcDbEntity
  8
DRAFT
100
AcDbLine
 62
7
  6
CONTINUOUS
 10
9.3472441081
 20
9.2997880083
 11
9.3472441081
 21
3.2997880083
  0
LINE
  5
5CE
100
AcDbEntity
  8
ASSI
100
AcDbLine
 62
7
  6
CONTINUOUS
 10
9.3472441081
 20
9.2997880083
 11
9.3472441081
 21
3.2997880083
  0
LINE
  5
5CF
100
AcDbEntity
  8
DRAFT
100
AcDbLine
 62
7
  6
CONTINUOUS
 10
9.3472441081
 20
-11.4246472215
 11
9.3472441081
 21
-9.1002119917
  0
LINE
  5
5D0
100
AcDbEntity
  8
ASSI
100
AcDbLine
 62
7
  6
CONTINUOUS
 10
9.3472441081
 20
-11.4246472215
 11
9.3472441081
 21
-9.1002119917
  0
LINE
  5
5D1
100
AcDbEntity
  8
DRAFT
100
AcDbLine
 62
7
  6
CONTINUOUS
 10
9.384512786
 20
-8.8087346075
 11
9.384512786
 21
-4.625609446
  0
LINE
  5
5D2
100
AcDbEntity
  8
ASSI
100
AcDbLine
 62
7
  6
CONTINUOUS
 10
9.384512786
 20
-8.8087346075
 11
9.384512786
 21
-4.625609446
  0
LINE
  5
5D3
100
AcDbEntity
  8
DRAFT
100
AcDbLine
 62
7
  6
CONTINUOUS
 10
9.384512786
 20
9.8251854627
 11
9.384512786
 21
13.9083106241
  0
LINE
  5
5D4
100
AcDbEntity
  8
ASSI
100
AcDbLine
 62
7
  6
CONTINUOUS
 10
9.384512786
 20
9.8251854627
 11
9.384512786
 21
13.9083106241
  0
LINE
  5
5D5
100
AcDbEntity
  8
DRAFT
100
AcDbLine
 62
7
  6
CONTINUOUS
 10
9.4257859182
 20
9.4568835927
 11
9.4257859182
 21
5.2997880083
  0
LINE
  5
5D6
100
AcDbEntity
  8
ASSI
100
AcDbLine
 62
7
  6
CONTINUOUS
 10
9.4257859182
 20
9.4568835927
 11
9.4257859182
 21
5.2997880083
  0
LINE
  5
5D7
100
AcDbEntity
  8
ASSI
100
AcDbLine
 62
7
  6
CONTINUOUS
 10
9.4472441081
 20
21.335766552
 11
9.4472441081
 21
18.0997880083
  0
LINE
  5
5D8
100
AcDbEntity
  8
SMUSSO
100
AcDbLine
 62
7
  6
CONTINUOUS
 10
9.4472441081
 20
21.335766552
 11
9.4472441081
 21
18.0997880083
  0
LINE
  5
5D9
100
AcDbEntity
  8
ASSI
100
AcDbLine
 62
7
  6
CONTINUOUS
 10
9.4472441081
 20
-16.4002119917
 11
9.4472441081
 21
-19.6361905353
  0
LINE
  5
5DA
100
AcDbEntity
  8
SMUSSO
100
AcDbLine
 62
7
  6
CONTINUOUS
 10
9.4472441081
 20
-16.4002119917
 11
9.4472441081
 21
-19.6361905353
  0
LINE
  5
5DB
100
AcDbEntity
  8
ASSI
100
AcDbLine
 62
7
  6
CONTINUOUS
 10
9.5161863637
 20
-20.0502119917
 11
9.5161863637
 21
-16.4002119917
  0
LINE
  5
5DC
100
AcDbEntity
  8
DRAFT
100
AcDbLine
 62
7
  6
CONTINUOUS
 10
9.5161863637
 20
-20.0502119917
 11
9.5161863637
 21
-16.4002119917
  0
LINE
  5
5DD
100
AcDbEntity
  8
ASSI
100
AcDbLine
 62
7
  6
CONTINUOUS
 10
9.5161863637
 20
18.0997880083
 11
9.5161863637
 21
21.7497880083
  0
LINE
  5
5DE
100
AcDbEntity
  8
DRAFT
100
AcDbLine
 62
7
  6
CONTINUOUS
 10
9.5161863637
 20
18.0997880083
 11
9.5161863637
 21
21.7497880083
  0
LINE
  5
5DF
100
AcDbEntity
  8
DRAFT
100
AcDbLine
 62
7
  6
CONTINUOUS
 10
9.570328264
 20
-3.1732961476
 11
9.570328264
 21
1.3728721642
  0
LINE
  5
5E0
100
AcDbEntity
  8
ASSI
100
AcDbLine
 62
7
  6
CONTINUOUS
 10
9.570328264
 20
-3.1732961476
 11
9.570328264
 21
1.3728721642
  0
LINE
  5
5E1
100
AcDbEntity
  8
DRAFT
100
AcDbLine
 62
7
  6
CONTINUOUS
 10
9.6387214923
 20
16.7912653925
 11
9.6387214923
 21
13.9083106241
  0
LINE
  5
5E2
100
AcDbEntity
  8
ASSI
100
AcDbLine
 62
7
  6
CONTINUOUS
 10
9.6387214923
 20
16.7912653925
 11
9.6387214923
 21
13.9083106241
  0
LINE
  5
5E3
100
AcDbEntity
  8
DRAFT
100
AcDbLine
 62
7
  6
CONTINUOUS
 10
9.6387214923
 20
-8.8087346075
 11
9.6387214923
 21
-11.7161246057
  0
LINE
  5
5E4
100
AcDbEntity
  8
ASSI
100
AcDbLine
 62
7
  6
CONTINUOUS
 10
9.6387214923
 20
-8.8087346075
 11
9.6387214923
 21
-11.7161246057
  0
LINE
  5
5E5
100
AcDbEntity
  8
DRAFT
100
AcDbLine
 62
7
  6
CONTINUOUS
 10
9.7972441081
 20
-3.4002119917
 11
9.7972441081
 21
-1.4002119917
  0
LINE
  5
5E6
100
AcDbEntity
  8
ASSI
100
AcDbLine
 62
7
  6
CONTINUOUS
 10
9.7972441081
 20
-3.4002119917
 11
9.7972441081
 21
-1.4002119917
  0
LINE
  5
5E7
100
AcDbEntity
  8
DRAFT
100
AcDbLine
 62
7
  6
CONTINUOUS
 10
9.7972441081
 20
-0.4002119917
 11
9.7972441081
 21
1.5997880083
  0
LINE
  5
5E8
100
AcDbEntity
  8
ASSI
100
AcDbLine
 62
7
  6
CONTINUOUS
 10
9.7972441081
 20
-0.4002119917
 11
9.7972441081
 21
1.5997880083
  0
LINE
  5
5E9
100
AcDbEntity
  8
DRAFT
100
AcDbLine
 62
7
  6
CONTINUOUS
 10
10.6057667239
 20
-16.1087346075
 11
10.6057667239
 21
-4.625609446
  0
LINE
  5
5EA
100
AcDbEntity
  8
ASSI
100
AcDbLine
 62
7
  6
CONTINUOUS
 10
10.6057667239
 20
-16.1087346075
 11
10.6057667239
 21
-4.625609446
  0
LINE
  5
5EB
100
AcDbEntity
  8
DRAFT
100
AcDbLine
 62
7
  6
CONTINUOUS
 10
10.6057667239
 20
9.8251854627
 11
10.6057667239
 21
17.8083106241
  0
LINE
  5
5EC
100
AcDbEntity
  8
ASSI
100
AcDbLine
 62
7
  6
CONTINUOUS
 10
10.6057667239
 20
9.8251854627
 11
10.6057667239
 21
17.8083106241
  0
LINE
  5
5ED
100
AcDbEntity
  8
CURVE
100
AcDbLine
 62
253
  6
CONTINUOUS
 10
10.6451622988
 20
-7.9002119917
 11
10.6451622988
 21
-5.4002119917
  0
LINE
  5
5EE
100
AcDbEntity
  8
CURVE
100
AcDbLine
 62
253
  6
CONTINUOUS
 10
10.6934717452
 20
-5.7573548275
 11
10.6934717452
 21
-6.1144976634
  0
LINE
  5
5EF
100
AcDbEntity
  8
CURVE
100
AcDbLine
 62
253
  6
CONTINUOUS
 10
10.7350282586
 20
-5.7573548275
 11
10.7350282586
 21
-6.2930691558
  0
LINE
  5
5F0
100
AcDbEntity
  8
CURVE
100
AcDbLine
 62
253
  6
CONTINUOUS
 10
10.735547715
 20
-6.8287834096
 11
10.735547715
 21
-7.7216405551
  0
LINE
  5
5F1
100
AcDbEntity
  8
DRAFT
100
AcDbLine
 62
7
  6
CONTINUOUS
 10
10.7899036343
 20
9.4568835927
 11
10.7899036343
 21
5.2997880083
  0
LINE
  5
5F2
100
AcDbEntity
  8
ASSI
100
AcDbLine
 62
7
  6
CONTINUOUS
 10
10.7899036343
 20
9.4568835927
 11
10.7899036343
 21
5.2997880083
  0
LINE
  5
5F3
100
AcDbEntity
  8
CURVE
100
AcDbLine
 62
253
  6
CONTINUOUS
 10
10.8195749848
 20
14.0997880083
 11
10.8195749848
 21
7.7997880083
  0
LINE
  5
5F4
100
AcDbEntity
  8
CURVE
100
AcDbLine
 62
253
  6
CONTINUOUS
 10
10.8230657319
 20
7.7997880083
 11
10.8230657319
 21
6.8997880083
  0
LINE
  5
5F5
100
AcDbEntity
  8
CURVE
100
AcDbLine
 62
253
  6
CONTINUOUS
 10
10.8256837922
 20
6.8997880083
 11
10.8256837922
 21
6.5997880083
  0
LINE
  5
5F6
100
AcDbEntity
  8
CURVE
100
AcDbLine
 62
253
  6
CONTINUOUS
 10
10.8283018526
 20
14.5997880083
 11
10.8283018526
 21
14.0997880083
  0
LINE
  5
5F7
100
AcDbEntity
  8
CURVE
100
AcDbLine
 62
253
  6
CONTINUOUS
 10
10.8387740939
 20
13.0497880083
 11
10.8387740939
 21
12.8497880083
  0
LINE
  5
5F8
100
AcDbEntity
  8
CURVE
100
AcDbLine
 62
253
  6
CONTINUOUS
 10
10.8387740939
 20
12.3497880083
 11
10.8387740939
 21
12.1497880083
  0
LINE
  5
5F9
100
AcDbEntity
  8
CURVE
100
AcDbLine
 62
253
  6
CONTINUOUS
 10
10.8387740939
 20
11.6497880083
 11
10.8387740939
 21
11.4497880083
  0
LINE
  5
5FA
100
AcDbEntity
  8
CURVE
100
AcDbLine
 62
253
  6
CONTINUOUS
 10
10.8387740939
 20
10.2497880083
 11
10.8387740939
 21
10.0497880083
  0
LINE
  5
5FB
100
AcDbEntity
  8
CURVE
100
AcDbLine
 62
253
  6
CONTINUOUS
 10
10.8387740939
 20
9.5497880083
 11
10.8387740939
 21
9.3497880083
  0
LINE
  5
5FC
100
AcDbEntity
  8
CURVE
100
AcDbLine
 62
253
  6
CONTINUOUS
 10
10.8387740939
 20
10.7497880083
 11
10.8387740939
 21
10.9497880083
  0
LINE
  5
5FD
100
AcDbEntity
  8
CURVE
100
AcDbLine
 62
253
  6
CONTINUOUS
 10
10.8431375278
 20
6.5997880083
 11
10.8431375278
 21
6.8997880083
  0
LINE
  5
5FE
100
AcDbEntity
  8
CURVE
100
AcDbLine
 62
253
  6
CONTINUOUS
 10
10.8457555881
 20
6.8997880083
 11
10.8457555881
 21
7.7997880083
  0
LINE
  5
5FF
100
AcDbEntity
  8
CURVE
100
AcDbLine
 62
253
  6
CONTINUOUS
 10
10.8492463353
 20
7.7997880083
 11
10.8492463353
 21
14.5997880083
  0
LINE
  5
600
100
AcDbEntity
  8
CURVE
100
AcDbLine
 62
253
  6
CONTINUOUS
 10
10.8562278295
 20
15.2426450083
 11
10.8562278295
 21
15.4569310083
  0
LINE
  5
601
100
AcDbEntity
  8
CURVE
100
AcDbLine
 62
253
  6
CONTINUOUS
 10
10.8605912634
 20
14.8997880083
 11
10.8605912634
 21
12.9497880083
  0
LINE
  5
602
100
AcDbEntity
  8
CURVE
100
AcDbLine
 62
253
  6
CONTINUOUS
 10
10.8605912634
 20
7.4997880083
 11
10.8605912634
 21
9.4497880083
  0
LINE
  5
603
100
AcDbEntity
  8
CURVE
100
AcDbLine
 62
253
  6
CONTINUOUS
 10
10.8612146148
 20
15.5521690083
 11
10.8612146148
 21
15.2426450083
  0
LINE
  5
604
100
AcDbEntity
  8
CURVE
100
AcDbLine
 62
253
  6
CONTINUOUS
 10
10.8675727576
 20
7.1997880083
 11
10.8675727576
 21
6.6997880083
  0
LINE
  5
605
100
AcDbEntity
  8
CURVE
100
AcDbLine
 62
253
  6
CONTINUOUS
 10
10.8675727576
 20
15.3140740083
 11
10.8675727576
 21
15.5997880083
  0
LINE
  5
606
100
AcDbEntity
  8
DRAFT
100
AcDbLine
 62
7
  6
CONTINUOUS
 10
10.8684454444
 20
-4.1002119917
 11
10.8684454444
 21
3.2997880083
  0
LINE
  5
607
100
AcDbEntity
  8
ASSI
100
AcDbLine
 62
7
  6
CONTINUOUS
 10
10.8684454444
 20
-4.1002119917
 11
10.8684454444
 21
3.2997880083
  0
LINE
  5
608
100
AcDbEntity
  8
CURVE
100
AcDbLine
 62
253
  6
CONTINUOUS
 10
10.8719361915
 20
14.8997880083
 11
10.8719361915
 21
12.2497880083
  0
LINE
  5
609
100
AcDbEntity
  8
CURVE
100
AcDbLine
 62
253
  6
CONTINUOUS
 10
10.8719361915
 20
7.4997880083
 11
10.8719361915
 21
10.1497880083
  0
LINE
  5
60A
100
AcDbEntity
  8
CURVE
100
AcDbLine
 62
253
  6
CONTINUOUS
 10
10.872559543
 20
15.5997880083
 11
10.872559543
 21
15.3140740083
  0
LINE
  5
60B
100
AcDbEntity
  8
CURVE
100
AcDbLine
 62
253
  6
CONTINUOUS
 10
10.8754269386
 20
-5.9002119917
 11
10.8754269386
 21
-6.364497717
  0
LINE
  5
60C
100
AcDbEntity
  8
CURVE
100
AcDbLine
 62
253
  6
CONTINUOUS
 10
10.8754269386
 20
-11.6573545832
 11
10.8754269386
 21
-12.3073545832
  0
LINE
  5
60D
100
AcDbEntity
  8
CURVE
100
AcDbLine
 62
253
  6
CONTINUOUS
 10
10.8754269386
 20
-13.1430694002
 11
10.8754269386
 21
-13.7930694002
  0
LINE
  5
60E
100
AcDbEntity
  8
CURVE
100
AcDbLine
 62
253
  6
CONTINUOUS
 10
10.8754269386
 20
-14.9073545832
 11
10.8754269386
 21
-15.5573545832
  0
LINE
  5
60F
100
AcDbEntity
  8
CURVE
100
AcDbLine
 62
253
  6
CONTINUOUS
 10
10.8754269386
 20
-10.4502119917
 11
10.8754269386
 21
-9.9859261888
  0
LINE
  5
610
100
AcDbEntity
  8
CURVE
100
AcDbLine
 62
253
  6
CONTINUOUS
 10
10.8754269386
 20
-9.4287832874
 11
10.8754269386
 21
-9.1502119917
  0
LINE
  5
611
100
AcDbEntity
  8
CURVE
100
AcDbLine
 62
253
  6
CONTINUOUS
 10
10.8754269386
 20
-7.3859263438
 11
10.8754269386
 21
-7.014497717
  0
LINE
  5
612
100
AcDbEntity
  8
CURVE
100
AcDbLine
 62
253
  6
CONTINUOUS
 10
10.8759671733
 20
-14.3811642546
 11
10.8759671733
 21
-14.4430694002
  0
LINE
  5
613
100
AcDbEntity
  8
CURVE
100
AcDbLine
 62
253
  6
CONTINUOUS
 10
10.8762372907
 20
-12.7406881231
 11
10.8762372907
 21
-12.6787835974
  0
LINE
  5
614
100
AcDbEntity
  8
CURVE
100
AcDbLine
 62
253
  6
CONTINUOUS
 10
10.8762996254
 20
7.0569310083
 11
10.8762996254
 21
6.8426450083
  0
LINE
  5
615
100
AcDbEntity
  8
CURVE
100
AcDbLine
 62
253
  6
CONTINUOUS
 10
10.8762996254
 20
15.1712170083
 11
10.8762996254
 21
15.5997880083
  0
LINE
  5
616
100
AcDbEntity
  8
CURVE
100
AcDbLine
 62
253
  6
CONTINUOUS
 10
10.8789176857
 20
6.8426450083
 11
10.8789176857
 21
7.1997880083
  0
LINE
  5
617
100
AcDbEntity
  8
CURVE
100
AcDbLine
 62
253
  6
CONTINUOUS
 10
10.8807877313
 20
15.5997880083
 11
10.8807877313
 21
15.0997880083
  0
LINE
  5
618
100
AcDbEntity
  8
CURVE
100
AcDbLine
 62
253
  6
CONTINUOUS
 10
10.8810994027
 20
-12.7406881231
 11
10.8810994027
 21
-12.6787835974
  0
LINE
  5
619
100
AcDbEntity
  8
CURVE
100
AcDbLine
 62
253
  6
CONTINUOUS
 10
10.8810994027
 20
-6.364497717
 11
10.8810994027
 21
-5.9002119917
  0
LINE
  5
61A
100
AcDbEntity
  8
CURVE
100
AcDbLine
 62
253
  6
CONTINUOUS
 10
10.881909755
 20
-9.0264023203
 11
10.881909755
 21
-9.4287832874
  0
LINE
  5
61B
100
AcDbEntity
  8
CURVE
100
AcDbLine
 62
253
  6
CONTINUOUS
 10
10.881909755
 20
-10.1716406959
 11
10.881909755
 21
-10.3573548931
  0
LINE
  5
61C
100
AcDbEntity
  8
CURVE
100
AcDbLine
 62
253
  6
CONTINUOUS
 10
10.8832811196
 20
14.8997880083
 11
10.8832811196
 21
11.5497880083
  0
LINE
  5
61D
100
AcDbEntity
  8
CURVE
100
AcDbLine
 62
253
  6
CONTINUOUS
 10
10.8832811196
 20
7.4997880083
 11
10.8832811196
 21
10.8497880083
  0
LINE
  5
61E
100
AcDbEntity
  8
CURVE
100
AcDbLine
 62
253
  6
CONTINUOUS
 10
10.8839044711
 20
7.0569310083
 11
10.8839044711
 21
6.9140740083
  0
LINE
  5
61F
100
AcDbEntity
  8
CURVE
100
AcDbLine
 62
253
  6
CONTINUOUS
 10
10.8867718668
 20
-9.9859261888
 11
10.8867718668
 21
-10.3573548931
  0
LINE
  5
620
100
AcDbEntity
  8
CURVE
100
AcDbLine
 62
253
  6
CONTINUOUS
 10
10.8867718668
 20
-11.8430694002
 11
10.8867718668
 21
-12.121640386
  0
LINE
  5
621
100
AcDbEntity
  8
CURVE
100
AcDbLine
 62
253
  6
CONTINUOUS
 10
10.8867718668
 20
-13.3287835974
 11
10.8867718668
 21
-13.6073545832
  0
LINE
  5
622
100
AcDbEntity
  8
CURVE
100
AcDbLine
 62
253
  6
CONTINUOUS
 10
10.8867718668
 20
-15.0930694002
 11
10.8867718668
 21
-15.371640386
  0
LINE
  5
623
100
AcDbEntity
  8
CURVE
100
AcDbLine
 62
253
  6
CONTINUOUS
 10
10.8867718668
 20
-7.4787834424
 11
10.8867718668
 21
-7.1073548156
  0
LINE
  5
624
100
AcDbEntity
  8
CURVE
100
AcDbLine
 62
253
  6
CONTINUOUS
 10
10.8876445535
 20
7.1997880083
 11
10.8876445535
 21
6.9140740083
  0
LINE
  5
625
100
AcDbEntity
  8
DRAFT
100
AcDbLine
 62
7
  6
CONTINUOUS
 10
10.8972441081
 20
-16.4002119917
 11
10.8972441081
 21
18.0997880083
  0
LINE
  5
626
100
AcDbEntity
  8
ASSI
100
AcDbLine
 62
7
  6
CONTINUOUS
 10
10.8972441081
 20
-16.4002119917
 11
10.8972441081
 21
18.0997880083
  0
LINE
  5
627
100
AcDbEntity
  8
ASSI
100
AcDbLine
 62
7
  6
CONTINUOUS
 10
10.9472441081
 20
-21.0499831396
 11
10.9472441081
 21
22.7495591562
  0
LINE
  5
628
100
AcDbEntity
  8
0
100
AcDbLine
 62
7
  6
CONTINUOUS
 10
10.9472441081
 20
-21.0499831396
 11
10.9472441081
 21
22.7495591562
  0
LINE
  5
629
100
AcDbEntity
  8
CURVE
100
AcDbLine
 62
253
  6
CONTINUOUS
 10
10.8865017491
 20
-6.2716405797
 11
10.8867718668
 21
-5.9002119917
  0
LINE
  5
62A
100
AcDbEntity
  8
CURVE
100
AcDbLine
 62
253
  6
CONTINUOUS
 10
10.6825631605
 20
-5.93592632
 11
10.6856798991
 21
-5.4002119917
  0
LINE
  5
62B
100
AcDbEntity
  8
CURVE
100
AcDbLine
 62
253
  6
CONTINUOUS
 10
10.6934717452
 20
-6.1144976634
 11
10.6825631605
 21
-7.9002119917
  0
LINE
  5
62C
100
AcDbEntity
  8
CURVE
100
AcDbLine
 62
253
  6
CONTINUOUS
 10
10.8851511628
 20
-6.4573548544
 11
10.8865017491
 21
-6.2716405797
  0
LINE
  5
62D
100
AcDbEntity
  8
CURVE
100
AcDbLine
 62
253
  6
CONTINUOUS
 10
10.8835304589
 20
-6.921640541
 11
10.8786683468
 21
-7.571640541
  0
LINE
  5
62E
100
AcDbEntity
  8
CURVE
100
AcDbLine
 62
253
  6
CONTINUOUS
 10
10.6451622988
 20
-5.4002119917
 11
10.6389288215
 21
-6.1144976634
  0
LINE
  5
62F
100
AcDbEntity
  8
CURVE
100
AcDbLine
 62
253
  6
CONTINUOUS
 10
10.8562278295
 20
15.4569310083
 11
10.8574745236
 21
15.5997880083
  0
LINE
  5
630
100
AcDbEntity
  8
CURVE
100
AcDbLine
 62
253
  6
CONTINUOUS
 10
10.8612146148
 20
15.2426450083
 11
10.8599679119
 21
15.0997880083
  0
LINE
  5
631
100
AcDbEntity
  8
CURVE
100
AcDbLine
 62
253
  6
CONTINUOUS
 10
10.872559543
 20
15.3140740083
 11
10.8713128401
 21
15.1712170083
  0
LINE
  5
632
100
AcDbEntity
  8
CURVE
100
AcDbLine
 62
253
  6
CONTINUOUS
 10
10.735547715
 20
-7.7216405551
 11
10.7339893458
 21
-7.9002119917
  0
LINE
  5
633
100
AcDbEntity
  8
CURVE
100
AcDbLine
 62
253
  6
CONTINUOUS
 10
10.8762996254
 20
6.8426450083
 11
10.8750529313
 21
6.6997880083
  0
LINE
  5
634
100
AcDbEntity
  8
CURVE
100
AcDbLine
 62
253
  6
CONTINUOUS
 10
10.8839044711
 20
6.9140740083
 11
10.8826577682
 21
6.7712170083
  0
LINE
  5
635
100
AcDbEntity
  8
CURVE
100
AcDbLine
 62
253
  6
CONTINUOUS
 10
10.8754269386
 20
-7.014497717
 11
10.8762372907
 21
-6.921640541
  0
LINE
  5
636
100
AcDbEntity
  8
CURVE
100
AcDbLine
 62
253
  6
CONTINUOUS
 10
10.8794786988
 20
-6.5502119917
 11
10.8810994027
 21
-6.364497717
  0
LINE
  5
637
100
AcDbEntity
  8
CURVE
100
AcDbLine
 62
253
  6
CONTINUOUS
 10
10.8859615145
 20
-7.571640541
 11
10.8867718668
 21
-7.4787834424
  0
LINE
  5
638
100
AcDbEntity
  8
CURVE
100
AcDbLine
 62
253
  6
CONTINUOUS
 10
10.8754269386
 20
-9.1502119917
 11
10.8770476427
 21
-8.9644977945
  0
LINE
  5
639
100
AcDbEntity
  8
CURVE
100
AcDbLine
 62
253
  6
CONTINUOUS
 10
10.881909755
 20
-9.4287832874
 11
10.8802890507
 21
-9.6144977945
  0
LINE
  5
63A
100
AcDbEntity
  8
CURVE
100
AcDbLine
 62
253
  6
CONTINUOUS
 10
10.881909755
 20
-10.3573548931
 11
10.8802890507
 21
-10.5430690903
  0
LINE
  5
63B
100
AcDbEntity
  8
CURVE
100
AcDbLine
 62
253
  6
CONTINUOUS
 10
10.8867718668
 20
-12.121640386
 11
10.8851511628
 21
-12.3073545832
  0
LINE
  5
63C
100
AcDbEntity
  8
CURVE
100
AcDbLine
 62
253
  6
CONTINUOUS
 10
10.8867718668
 20
-13.6073545832
 11
10.8851511628
 21
-13.7930694002
  0
LINE
  5
63D
100
AcDbEntity
  8
CURVE
100
AcDbLine
 62
253
  6
CONTINUOUS
 10
10.8867718668
 20
-15.371640386
 11
10.8851511628
 21
-15.5573545832
  0
LINE
  5
63E
100
AcDbEntity
  8
CURVE
100
AcDbLine
 62
253
  6
CONTINUOUS
 10
10.8876445535
 20
6.9140740083
 11
10.8863978594
 21
6.7950260083
  0
LINE
  5
63F
100
AcDbEntity
  8
CURVE
100
AcDbLine
 62
253
  6
CONTINUOUS
 10
10.8867718668
 20
-10.3573548931
 11
10.8851511628
 21
-10.5121168274
  0
LINE
  5
640
100
AcDbEntity
  8
CURVE
100
AcDbLine
 62
253
  6
CONTINUOUS
 10
10.7350282586
 20
-6.2930691558
 11
10.7324309767
 21
-6.4716404993
  0
LINE
  5
641
100
AcDbEntity
  8
CURVE
100
AcDbLine
 62
253
  6
CONTINUOUS
 10
10.876507408
 20
-14.3502119917
 11
10.8759671733
 21
-14.3811642546
  0
LINE
  5
642
100
AcDbEntity
  8
CURVE
100
AcDbLine
 62
253
  6
CONTINUOUS
 10
10.8767775253
 20
-14.4740216631
 11
10.87731776
 21
-14.4430694002
  0
LINE
  5
643
100
AcDbEntity
  8
DRAFT
100
AcDbLine
 62
7
  6
CONTINUOUS
 10
9.4257859182
 20
5.2997880083
 11
9.3472441081
 21
3.2997880083
  0
LINE
  5
644
100
AcDbEntity
  8
ASSI
100
AcDbLine
 62
7
  6
CONTINUOUS
 10
9.4257859182
 20
5.2997880083
 11
9.3472441081
 21
3.2997880083
  0
LINE
  5
645
100
AcDbEntity
  8
DRAFT
100
AcDbLine
 62
7
  6
CONTINUOUS
 10
8.0472441081
 20
-3.571271628
 11
8.1327674125
 21
-3.4002119917
  0
LINE
  5
646
100
AcDbEntity
  8
ASSI
100
AcDbLine
 62
7
  6
CONTINUOUS
 10
8.0472441081
 20
-3.571271628
 11
8.1327674125
 21
-3.4002119917
  0
LINE
  5
647
100
AcDbEntity
  8
DRAFT
100
AcDbLine
 62
7
  6
CONTINUOUS
 10
9.7972441081
 20
1.5997880083
 11
9.570328264
 21
1.3728721642
  0
LINE
  5
648
100
AcDbEntity
  8
ASSI
100
AcDbLine
 62
7
  6
CONTINUOUS
 10
9.7972441081
 20
1.5997880083
 11
9.570328264
 21
1.3728721642
  0
LINE
  5
649
100
AcDbEntity
  8
DRAFT
100
AcDbLine
 62
7
  6
CONTINUOUS
 10
-5.6853021563
 20
-14.7504688453
 11
-5.6949022076
 21
-14.7600690611
  0
LINE
  5
64A
100
AcDbEntity
  8
ASSI
100
AcDbLine
 62
7
  6
CONTINUOUS
 10
-5.6853021563
 20
-14.7504688453
 11
-5.6949022076
 21
-14.7600690611
  0
LINE
  5
64B
100
AcDbEntity
  8
DRAFT
100
AcDbLine
 62
7
  6
CONTINUOUS
 10
-5.6988288512
 20
-14.7718495717
 11
-5.6949022093
 21
-14.7679227802
  0
LINE
  5
64C
100
AcDbEntity
  8
ASSI
100
AcDbLine
 62
7
  6
CONTINUOUS
 10
-5.6988288512
 20
-14.7718495717
 11
-5.6949022093
 21
-14.7679227802
  0
LINE
  5
64D
100
AcDbEntity
  8
DRAFT
100
AcDbLine
 62
7
  6
CONTINUOUS
 10
9.7972441081
 20
-0.4002119917
 11
9.570328264
 21
-0.6271278358
  0
LINE
  5
64E
100
AcDbEntity
  8
ASSI
100
AcDbLine
 62
7
  6
CONTINUOUS
 10
9.7972441081
 20
-0.4002119917
 11
9.570328264
 21
-0.6271278358
  0
LINE
  5
64F
100
AcDbEntity
  8
DRAFT
100
AcDbLine
 62
7
  6
CONTINUOUS
 10
9.570328264
 20
-0.6271278358
 11
10.8684454444
 21
-0.4002119917
  0
LINE
  5
650
100
AcDbEntity
  8
ASSI
100
AcDbLine
 62
7
  6
CONTINUOUS
 10
9.570328264
 20
-0.6271278358
 11
10.8684454444
 21
-0.4002119917
  0
LINE
  5
651
100
AcDbEntity
  8
DRAFT
100
AcDbLine
 62
7
  6
CONTINUOUS
 10
-11.2739572282
 20
-1.4002119917
 11
-10.2027558919
 21
-1.4002119917
  0
LINE
  5
652
100
AcDbEntity
  8
ASSI
100
AcDbLine
 62
7
  6
CONTINUOUS
 10
-11.2739572282
 20
-1.4002119917
 11
-10.2027558919
 21
-1.4002119917
  0
LINE
  5
653
100
AcDbEntity
  8
DRAFT
100
AcDbLine
 62
7
  6
CONTINUOUS
 10
9.7972441081
 20
-1.4002119917
 11
10.8684454444
 21
-1.4002119917
  0
LINE
  5
654
100
AcDbEntity
  8
ASSI
100
AcDbLine
 62
7
  6
CONTINUOUS
 10
9.7972441081
 20
-1.4002119917
 11
10.8684454444
 21
-1.4002119917
  0
LINE
  5
655
100
AcDbEntity
  8
DRAFT
100
AcDbLine
 62
7
  6
CONTINUOUS
 10
-11.2739572282
 20
-0.4002119917
 11
-10.2027558919
 21
-0.4002119917
  0
LINE
  5
656
100
AcDbEntity
  8
ASSI
100
AcDbLine
 62
7
  6
CONTINUOUS
 10
-11.2739572282
 20
-0.4002119917
 11
-10.2027558919
 21
-0.4002119917
  0
LINE
  5
657
100
AcDbEntity
  8
DRAFT
100
AcDbLine
 62
7
  6
CONTINUOUS
 10
9.7972441081
 20
-0.4002119917
 11
10.8684454444
 21
-0.4002119917
  0
LINE
  5
658
100
AcDbEntity
  8
ASSI
100
AcDbLine
 62
7
  6
CONTINUOUS
 10
9.7972441081
 20
-0.4002119917
 11
10.8684454444
 21
-0.4002119917
  0
LINE
  5
659
100
AcDbEntity
  8
RACCORDO
100
AcDbLine
 62
253
  6
CONTINUOUS
 10
8.0472441081
 20
1.2012051237
 11
7.2417141738
 21
1.2187807247
  0
LINE
  5
65A
100
AcDbEntity
  8
ASSI
100
AcDbLine
 62
253
  6
CONTINUOUS
 10
8.0472441081
 20
1.2012051237
 11
7.2417141738
 21
1.2187807247
  0
LINE
  5
65B
100
AcDbEntity
  8
DRAFT
100
AcDbLine
 62
7
  6
CONTINUOUS
 10
9.570328264
 20
-1.1732961476
 11
10.8684454444
 21
-1.4002119917
  0
LINE
  5
65C
100
AcDbEntity
  8
ASSI
100
AcDbLine
 62
7
  6
CONTINUOUS
 10
9.570328264
 20
-1.1732961476
 11
10.8684454444
 21
-1.4002119917
  0
LINE
  5
65D
100
AcDbEntity
  8
RACCORDO
100
AcDbLine
 62
7
  6
CONTINUOUS
 10
-7.9190452306
 20
18.066077347
 11
-7.9527558919
 21
18.0997880083
  0
LINE
  5
65E
100
AcDbEntity
  8
ASSI
100
AcDbLine
 62
7
  6
CONTINUOUS
 10
-7.9190452306
 20
18.066077347
 11
-7.9527558919
 21
18.0997880083
  0
LINE
  5
65F
100
AcDbEntity
  8
ASSI
100
AcDbLine
 62
7
  6
CONTINUOUS
 10
-6.8643328815
 20
18.247272074
 11
-6.7168488158
 21
18.0997880083
  0
LINE
  5
660
100
AcDbEntity
  8
DRAFT
100
AcDbLine
 62
7
  6
CONTINUOUS
 10
-6.8643328815
 20
18.247272074
 11
-6.7168488158
 21
18.0997880083
  0
LINE
  5
661
100
AcDbEntity
  8
ASSI
100
AcDbLine
 62
7
  6
CONTINUOUS
 10
7.1802792876
 20
-20.0502119917
 11
7.3181743005
 21
-19.6361905353
  0
LINE
  5
662
100
AcDbEntity
  8
DRAFT
100
AcDbLine
 62
7
  6
CONTINUOUS
 10
7.1802792876
 20
-20.0502119917
 11
7.3181743005
 21
-19.6361905353
  0
LINE
  5
663
100
AcDbEntity
  8
RACCORDO
100
AcDbLine
 62
7
  6
CONTINUOUS
 10
9.293855139
 20
-5.568889071
 11
9.1972441081
 21
-5.7661772073
  0
LINE
  5
664
100
AcDbEntity
  8
ASSI
100
AcDbLine
 62
7
  6
CONTINUOUS
 10
9.293855139
 20
-5.568889071
 11
9.1972441081
 21
-5.7661772073
  0
LINE
  5
665
100
AcDbEntity
  8
DRAFT
100
AcDbLine
 62
7
  6
CONTINUOUS
 10
10.8684454444
 20
-4.1002119917
 11
10.6057667239
 21
-4.625609446
  0
LINE
  5
666
100
AcDbEntity
  8
ASSI
100
AcDbLine
 62
7
  6
CONTINUOUS
 10
10.8684454444
 20
-4.1002119917
 11
10.6057667239
 21
-4.625609446
  0
LINE
  5
667
100
AcDbEntity
  8
0
100
AcDbLine
 62
7
  6
CONTINUOUS
 10
7.2972441081
 20
-9.4002119917
 11
7.8972441081
 21
-8.4002119917
  0
LINE
  5
668
100
AcDbEntity
  8
ASSI
100
AcDbLine
 62
7
  6
CONTINUOUS
 10
-6.8643328815
 20
-17.8976960573
 11
-6.7168488158
 21
-17.7502119917
  0
LINE
  5
669
100
AcDbEntity
  8
DRAFT
100
AcDbLine
 62
7
  6
CONTINUOUS
 10
-6.8643328815
 20
-17.8976960573
 11
-6.7168488158
 21
-17.7502119917
  0
LINE
  5
66A
100
AcDbEntity
  8
ASSI
100
AcDbLine
 62
7
  6
CONTINUOUS
 10
-6.8574116955
 20
-19.7218326158
 11
-6.7168488158
 21
-19.5812697361
  0
LINE
  5
66B
100
AcDbEntity
  8
RACCORDO
100
AcDbLine
 62
7
  6
CONTINUOUS
 10
-6.8574116955
 20
-19.7218326158
 11
-6.7168488158
 21
-19.5812697361
  0
LINE
  5
66C
100
AcDbEntity
  8
RACCORDO
100
AcDbLine
 62
7
  6
CONTINUOUS
 10
8.3012568851
 20
-5.568889071
 11
8.0699339644
 21
-5.8002119917
  0
LINE
  5
66D
100
AcDbEntity
  8
ASSI
100
AcDbLine
 62
7
  6
CONTINUOUS
 10
8.3012568851
 20
-5.568889071
 11
8.0699339644
 21
-5.8002119917
  0
LINE
  5
66E
100
AcDbEntity
  8
DRAFT
100
AcDbLine
 62
7
  6
CONTINUOUS
 10
-11.2739572282
 20
-1.4002119917
 11
-9.9758400478
 21
-1.1732961476
  0
LINE
  5
66F
100
AcDbEntity
  8
ASSI
100
AcDbLine
 62
7
  6
CONTINUOUS
 10
-11.2739572282
 20
-1.4002119917
 11
-9.9758400478
 21
-1.1732961476
  0
LINE
  5
670
100
AcDbEntity
  8
RACCORDO
100
AcDbLine
 62
253
  6
CONTINUOUS
 10
-7.6472259576
 20
1.2187807247
 11
-8.4527558919
 21
1.2012051237
  0
LINE
  5
671
100
AcDbEntity
  8
ASSI
100
AcDbLine
 62
253
  6
CONTINUOUS
 10
-7.6472259576
 20
1.2187807247
 11
-8.4527558919
 21
1.2012051237
  0
LINE
  5
672
100
AcDbEntity
  8
RACCORDO
100
AcDbLine
 62
253
  6
CONTINUOUS
 10
-7.5513403623
 20
1.4242498575
 11
-8.4527558919
 21
1.4045821592
  0
LINE
  5
673
100
AcDbEntity
  8
ASSI
100
AcDbLine
 62
253
  6
CONTINUOUS
 10
-7.5513403623
 20
1.4242498575
 11
-8.4527558919
 21
1.4045821592
  0
LINE
  5
674
100
AcDbEntity
  8
RACCORDO
100
AcDbLine
 62
7
  6
CONTINUOUS
 10
9.570328264
 20
1.3728721642
 11
8.8472441081
 21
1.3728721642
  0
LINE
  5
675
100
AcDbEntity
  8
ASSI
100
AcDbLine
 62
7
  6
CONTINUOUS
 10
9.570328264
 20
1.3728721642
 11
8.8472441081
 21
1.3728721642
  0
LINE
  5
676
100
AcDbEntity
  8
RACCORDO
100
AcDbLine
 62
7
  6
CONTINUOUS
 10
-9.2527558919
 20
1.3728721642
 11
-9.9758400478
 21
1.3728721642
  0
LINE
  5
677
100
AcDbEntity
  8
ASSI
100
AcDbLine
 62
7
  6
CONTINUOUS
 10
-9.2527558919
 20
1.3728721642
 11
-9.9758400478
 21
1.3728721642
  0
LINE
  5
678
100
AcDbEntity
  8
RACCORDO
100
AcDbLine
 62
7
  6
CONTINUOUS
 10
-8.7965449584
 20
1.4584019824
 11
-7.535402704
 21
1.4584019824
  0
LINE
  5
679
100
AcDbEntity
  8
ASSI
100
AcDbLine
 62
7
  6
CONTINUOUS
 10
-8.7965449584
 20
1.4584019824
 11
-7.535402704
 21
1.4584019824
  0
LINE
  5
67A
100
AcDbEntity
  8
RACCORDO
100
AcDbLine
 62
7
  6
CONTINUOUS
 10
7.1298909202
 20
1.4584019824
 11
8.3910331747
 21
1.4584019824
  0
LINE
  5
67B
100
AcDbEntity
  8
ASSI
100
AcDbLine
 62
7
  6
CONTINUOUS
 10
7.1298909202
 20
1.4584019824
 11
8.3910331747
 21
1.4584019824
  0
LINE
  5
67C
100
AcDbEntity
  8
DRAFT
100
AcDbLine
 62
7
  6
CONTINUOUS
 10
9.7972441081
 20
1.5997880083
 11
8.5472441081
 21
1.5997880083
  0
LINE
  5
67D
100
AcDbEntity
  8
ASSI
100
AcDbLine
 62
7
  6
CONTINUOUS
 10
9.7972441081
 20
1.5997880083
 11
8.5472441081
 21
1.5997880083
  0
LINE
  5
67E
100
AcDbEntity
  8
DRAFT
100
AcDbLine
 62
7
  6
CONTINUOUS
 10
-8.9527558919
 20
1.5997880083
 11
-10.2027558919
 21
1.5997880083
  0
LINE
  5
67F
100
AcDbEntity
  8
ASSI
100
AcDbLine
 62
7
  6
CONTINUOUS
 10
-8.9527558919
 20
1.5997880083
 11
-10.2027558919
 21
1.5997880083
  0
LINE
  5
680
100
AcDbEntity
  8
0
100
AcDbLine
 62
7
  6
CONTINUOUS
 10
0.9862761441
 20
2.8833360623
 11
0.6472441081
 21
2.8833360623
  0
LINE
  5
681
100
AcDbEntity
  8
0
100
AcDbLine
 62
7
  6
CONTINUOUS
 10
-0.0527558919
 20
2.8833360623
 11
-0.8527558919
 21
2.8833360623
  0
LINE
  5
682
100
AcDbEntity
  8
DRAFT
100
AcDbLine
 62
7
  6
CONTINUOUS
 10
-11.2739572282
 20
3.2997880083
 11
-9.7527558919
 21
3.2997880083
  0
LINE
  5
683
100
AcDbEntity
  8
ASSI
100
AcDbLine
 62
7
  6
CONTINUOUS
 10
-11.2739572282
 20
3.2997880083
 11
-9.7527558919
 21
3.2997880083
  0
LINE
  5
684
100
AcDbEntity
  8
DRAFT
100
AcDbLine
 62
7
  6
CONTINUOUS
 10
10.8684454444
 20
3.2997880083
 11
9.3472441081
 21
3.2997880083
  0
LINE
  5
685
100
AcDbEntity
  8
ASSI
100
AcDbLine
 62
7
  6
CONTINUOUS
 10
10.8684454444
 20
3.2997880083
 11
9.3472441081
 21
3.2997880083
  0
LINE
  5
686
100
AcDbEntity
  8
0
100
AcDbLine
 62
7
  6
CONTINUOUS
 10
1.3621531924
 20
3.4471516348
 11
0.6472441081
 21
3.4471516348
  0
LINE
  5
687
100
AcDbEntity
  8
0
100
AcDbLine
 62
7
  6
CONTINUOUS
 10
-0.0527558919
 20
3.4471516348
 11
-0.8527558919
 21
3.4471516348
  0
LINE
  5
688
100
AcDbEntity
  8
0
100
AcDbLine
 62
7
  6
CONTINUOUS
 10
-1.5527558919
 20
3.4471516348
 11
-1.7676649762
 21
3.4471516348
  0
LINE
  5
689
100
AcDbEntity
  8
0
100
AcDbLine
 62
7
  6
CONTINUOUS
 10
6.0652441081
 20
3.7397880083
 11
6.5972441081
 21
3.7397880083
  0
LINE
  5
68A
100
AcDbEntity
  8
RACCORDO
100
AcDbLine
 62
253
  6
CONTINUOUS
 10
8.0472441081
 20
1.4045821592
 11
7.1458285785
 21
1.4242498575
  0
LINE
  5
68B
100
AcDbEntity
  8
ASSI
100
AcDbLine
 62
253
  6
CONTINUOUS
 10
8.0472441081
 20
1.4045821592
 11
7.1458285785
 21
1.4242498575
  0
LINE
  5
68C
100
AcDbEntity
  8
DRAFT
100
AcDbLine
 62
7
  6
CONTINUOUS
 10
-8.2027558919
 20
4.8997880083
 11
-8.7027558919
 21
4.9879514987
  0
LINE
  5
68D
100
AcDbEntity
  8
RACCORDO
100
AcDbLine
 62
7
  6
CONTINUOUS
 10
-7.9283206621
 20
12.6997880083
 11
-8.1500135664
 21
12.8106323501
  0
LINE
  5
68E
100
AcDbEntity
  8
ASSI
100
AcDbLine
 62
7
  6
CONTINUOUS
 10
-7.9283206621
 20
12.6997880083
 11
-8.1500135664
 21
12.8106323501
  0
LINE
  5
68F
100
AcDbEntity
  8
ASSI
100
AcDbLine
 62
7
  6
CONTINUOUS
 10
-6.7168488158
 20
21.2808457528
 11
-6.8574116955
 21
21.4214086324
  0
LINE
  5
690
100
AcDbEntity
  8
RACCORDO
100
AcDbLine
 62
7
  6
CONTINUOUS
 10
-6.7168488158
 20
21.2808457528
 11
-6.8574116955
 21
21.4214086324
  0
LINE
  5
691
100
AcDbEntity
  8
ASSI
100
AcDbLine
 62
7
  6
CONTINUOUS
 10
7.1802792876
 20
21.7497880083
 11
7.3181743005
 21
21.335766552
  0
LINE
  5
692
100
AcDbEntity
  8
DRAFT
100
AcDbLine
 62
7
  6
CONTINUOUS
 10
7.1802792876
 20
21.7497880083
 11
7.3181743005
 21
21.335766552
  0
LINE
  5
693
100
AcDbEntity
  8
DRAFT
100
AcDbLine
 62
7
  6
CONTINUOUS
 10
8.0472441081
 20
-7.6229018479
 11
8.0699339644
 21
-7.6002119917
  0
LINE
  5
694
100
AcDbEntity
  8
ASSI
100
AcDbLine
 62
7
  6
CONTINUOUS
 10
8.0472441081
 20
-7.6229018479
 11
8.0699339644
 21
-7.6002119917
  0
LINE
  5
695
100
AcDbEntity
  8
ASSI
100
AcDbLine
 62
7
  6
CONTINUOUS
 10
0.2661863637
 20
-16.6502119917
 11
0.173152243
 21
-16.7432461124
  0
LINE
  5
696
100
AcDbEntity
  8
DRAFT
100
AcDbLine
 62
7
  6
CONTINUOUS
 10
0.2661863637
 20
-16.6502119917
 11
0.173152243
 21
-16.7432461124
  0
LINE
  5
697
100
AcDbEntity
  8
DRAFT
100
AcDbLine
 62
7
  6
CONTINUOUS
 10
8.0795335189
 20
-9.1246472215
 11
8.3081774551
 21
-8.8960032854
  0
LINE
  5
698
100
AcDbEntity
  8
ASSI
100
AcDbLine
 62
7
  6
CONTINUOUS
 10
8.0795335189
 20
-9.1246472215
 11
8.3081774551
 21
-8.8960032854
  0
LINE
  5
699
100
AcDbEntity
  8
DRAFT
100
AcDbLine
 62
7
  6
CONTINUOUS
 10
9.384512786
 20
-8.8087346075
 11
9.2972441081
 21
-8.8960032854
  0
LINE
  5
69A
100
AcDbEntity
  8
ASSI
100
AcDbLine
 62
7
  6
CONTINUOUS
 10
9.384512786
 20
-8.8087346075
 11
9.2972441081
 21
-8.8960032854
  0
LINE
  5
69B
100
AcDbEntity
  8
DRAFT
100
AcDbLine
 62
7
  6
CONTINUOUS
 10
7.7972441081
 20
4.8997880083
 11
8.2972441081
 21
4.9879514987
  0
LINE
  5
69C
100
AcDbEntity
  8
0
100
AcDbLine
 62
7
  6
CONTINUOUS
 10
-6.3027558919
 20
4.0997880083
 11
-2.2027558919
 21
4.0997880083
  0
LINE
  5
69D
100
AcDbEntity
  8
0
100
AcDbLine
 62
7
  6
CONTINUOUS
 10
1.7972441081
 20
4.0997880083
 11
5.8972441081
 21
4.0997880083
  0
LINE
  5
69E
100
AcDbEntity
  8
0
100
AcDbLine
 62
7
  6
CONTINUOUS
 10
-7.0027558919
 20
4.2997880083
 11
-6.6027558919
 21
4.2997880083
  0
LINE
  5
69F
100
AcDbEntity
  8
0
100
AcDbLine
 62
7
  6
CONTINUOUS
 10
4.5972441081
 20
5.0797880083
 11
5.8972441081
 21
5.0797880083
  0
LINE
  5
6A0
100
AcDbEntity
  8
DRAFT
100
AcDbLine
 62
7
  6
CONTINUOUS
 10
-11.1954154181
 20
5.2997880083
 11
-9.831297702
 21
5.2997880083
  0
LINE
  5
6A1
100
AcDbEntity
  8
ASSI
100
AcDbLine
 62
7
  6
CONTINUOUS
 10
-11.1954154181
 20
5.2997880083
 11
-9.831297702
 21
5.2997880083
  0
LINE
  5
6A2
100
AcDbEntity
  8
DRAFT
100
AcDbLine
 62
7
  6
CONTINUOUS
 10
10.7899036343
 20
5.2997880083
 11
9.4257859182
 21
5.2997880083
  0
LINE
  5
6A3
100
AcDbEntity
  8
ASSI
100
AcDbLine
 62
7
  6
CONTINUOUS
 10
10.7899036343
 20
5.2997880083
 11
9.4257859182
 21
5.2997880083
  0
LINE
  5
6A4
100
AcDbEntity
  8
0
100
AcDbLine
 62
7
  6
CONTINUOUS
 10
-6.6027558919
 20
5.9997880083
 11
4.5972441081
 21
5.9997880083
  0
LINE
  5
6A5
100
AcDbEntity
  8
DRAFT
100
AcDbLine
 62
7
  6
CONTINUOUS
 10
7.7972441081
 20
6.5997880083
 11
8.2972441081
 21
6.511624518
  0
LINE
  5
6A6
100
AcDbEntity
  8
ASSI
100
AcDbLine
 62
7
  6
CONTINUOUS
 10
0.1792937143
 20
18.1866806577
 11
0.2661863637
 21
18.0997880083
  0
LINE
  5
6A7
100
AcDbEntity
  8
DRAFT
100
AcDbLine
 62
7
  6
CONTINUOUS
 10
0.1792937143
 20
18.1866806577
 11
0.2661863637
 21
18.0997880083
  0
LINE
  5
6A8
100
AcDbEntity
  8
RACCORDO
100
AcDbLine
 62
7
  6
CONTINUOUS
 10
8.5472441081
 20
11.0997880083
 11
8.6580884499
 21
10.9889436666
  0
LINE
  5
6A9
100
AcDbEntity
  8
ASSI
100
AcDbLine
 62
7
  6
CONTINUOUS
 10
8.5472441081
 20
11.0997880083
 11
8.6580884499
 21
10.9889436666
  0
LINE
  5
6AA
100
AcDbEntity
  8
DRAFT
100
AcDbLine
 62
7
  6
CONTINUOUS
 10
10.7899036343
 20
9.4568835927
 11
10.6057667239
 21
9.8251854627
  0
LINE
  5
6AB
100
AcDbEntity
  8
ASSI
100
AcDbLine
 62
7
  6
CONTINUOUS
 10
10.7899036343
 20
9.4568835927
 11
10.6057667239
 21
9.8251854627
  0
LINE
  5
6AC
100
AcDbEntity
  8
DRAFT
100
AcDbLine
 62
7
  6
CONTINUOUS
 10
9.6387214923
 20
-8.8087346075
 11
9.3472441081
 21
-9.1002119917
  0
LINE
  5
6AD
100
AcDbEntity
  8
ASSI
100
AcDbLine
 62
7
  6
CONTINUOUS
 10
9.6387214923
 20
-8.8087346075
 11
9.3472441081
 21
-9.1002119917
  0
LINE
  5
6AE
100
AcDbEntity
  8
ASSI
100
AcDbLine
 62
7
  6
CONTINUOUS
 10
8.5972441081
 20
-11.2002119917
 11
8.6035268982
 21
-11.1939292015
  0
LINE
  5
6AF
100
AcDbEntity
  8
RACCORDO
100
AcDbLine
 62
7
  6
CONTINUOUS
 10
8.5972441081
 20
-11.2002119917
 11
8.6035268982
 21
-11.1939292015
  0
LINE
  5
6B0
100
AcDbEntity
  8
ASSI
100
AcDbLine
 62
7
  6
CONTINUOUS
 10
0.1274291658
 20
-19.720026934
 11
0.2661863637
 21
-19.5812697361
  0
LINE
  5
6B1
100
AcDbEntity
  8
DRAFT
100
AcDbLine
 62
7
  6
CONTINUOUS
 10
0.1274291658
 20
-19.720026934
 11
0.2661863637
 21
-19.5812697361
  0
LINE
  5
6B2
100
AcDbEntity
  8
DRAFT
100
AcDbLine
 62
7
  6
CONTINUOUS
 10
8.0542256023
 20
-11.8932304975
 11
8.0795335189
 21
-11.8679225809
  0
LINE
  5
6B3
100
AcDbEntity
  8
ASSI
100
AcDbLine
 62
7
  6
CONTINUOUS
 10
8.0542256023
 20
-11.8932304975
 11
8.0795335189
 21
-11.8679225809
  0
LINE
  5
6B4
100
AcDbEntity
  8
CURVE
100
AcDbLine
 62
253
  6
CONTINUOUS
 10
10.8256837922
 20
6.5997880083
 11
10.8431375278
 21
6.5997880083
  0
LINE
  5
6B5
100
AcDbEntity
  8
CURVE
100
AcDbLine
 62
253
  6
CONTINUOUS
 10
10.8750529313
 20
6.6997880083
 11
10.8738062371
 21
6.6997880083
  0
LINE
  5
6B6
100
AcDbEntity
  8
CURVE
100
AcDbLine
 62
253
  6
CONTINUOUS
 10
10.8826577682
 20
6.7712170083
 11
10.8795410372
 21
6.7712170083
  0
LINE
  5
6B7
100
AcDbEntity
  8
CURVE
100
AcDbLine
 62
253
  6
CONTINUOUS
 10
10.8863978594
 20
6.7950260083
 11
10.8845278138
 21
6.7950260083
  0
LINE
  5
6B8
100
AcDbEntity
  8
CURVE
100
AcDbLine
 62
253
  6
CONTINUOUS
 10
10.8431375278
 20
6.8997880083
 11
10.8457555881
 21
6.8997880083
  0
LINE
  5
6B9
100
AcDbEntity
  8
CURVE
100
AcDbLine
 62
253
  6
CONTINUOUS
 10
10.8230657319
 20
6.8997880083
 11
10.8256837922
 21
6.8997880083
  0
LINE
  5
6BA
100
AcDbEntity
  8
CURVE
100
AcDbLine
 62
253
  6
CONTINUOUS
 10
10.8562278295
 20
6.9140740083
 11
10.8649546973
 21
6.9140740083
  0
LINE
  5
6BB
100
AcDbEntity
  8
DRAFT
100
AcDbLine
 62
7
  6
CONTINUOUS
 10
-8.9527558919
 20
7.0997880083
 11
-8.4527558919
 21
7.0997880083
  0
LINE
  5
6BC
100
AcDbEntity
  8
ASSI
100
AcDbLine
 62
7
  6
CONTINUOUS
 10
-8.9527558919
 20
7.0997880083
 11
-8.4527558919
 21
7.0997880083
  0
LINE
  5
6BD
100
AcDbEntity
  8
DRAFT
100
AcDbLine
 62
7
  6
CONTINUOUS
 10
8.0472441081
 20
7.0997880083
 11
8.5472441081
 21
7.0997880083
  0
LINE
  5
6BE
100
AcDbEntity
  8
ASSI
100
AcDbLine
 62
7
  6
CONTINUOUS
 10
8.0472441081
 20
7.0997880083
 11
8.5472441081
 21
7.0997880083
  0
LINE
  5
6BF
100
AcDbEntity
  8
0
100
AcDbLine
 62
7
  6
CONTINUOUS
 10
-8.2027558919
 20
7.5997880083
 11
7.7972441081
 21
7.5997880083
  0
LINE
  5
6C0
100
AcDbEntity
  8
CURVE
100
AcDbLine
 62
253
  6
CONTINUOUS
 10
10.8457555881
 20
7.7997880083
 11
10.8492463353
 21
7.7997880083
  0
LINE
  5
6C1
100
AcDbEntity
  8
CURVE
100
AcDbLine
 62
253
  6
CONTINUOUS
 10
10.8195749848
 20
7.7997880083
 11
10.8230657319
 21
7.7997880083
  0
LINE
  5
6C2
100
AcDbEntity
  8
ASSI
100
AcDbLine
 62
7
  6
CONTINUOUS
 10
-8.4527558919
 20
7.9997880083
 11
8.0472441081
 21
7.9997880083
  0
LINE
  5
6C3
100
AcDbEntity
  8
0
100
AcDbLine
 62
7
  6
CONTINUOUS
 10
-8.4527558919
 20
7.9997880083
 11
8.0472441081
 21
7.9997880083
  0
LINE
  5
6C4
100
AcDbEntity
  8
CURVE
100
AcDbLine
 62
7
  6
DASHED
 10
7.5228088783
 20
7.9997880083
 11
-7.9283206621
 21
7.9997880083
  0
LINE
  5
6C5
100
AcDbEntity
  8
0
100
AcDbLine
 62
7
  6
CONTINUOUS
 10
-7.9091215529
 20
8.01287831
 11
7.5036097692
 21
8.01287831
  0
LINE
  5
6C6
100
AcDbEntity
  8
ASSI
100
AcDbLine
 62
7
  6
CONTINUOUS
 10
-7.9091215529
 20
8.01287831
 11
7.5036097692
 21
8.01287831
  0
LINE
  5
6C7
100
AcDbEntity
  8
0
100
AcDbLine
 62
7
  6
CONTINUOUS
 10
-0.6527558919
 20
8.06287831
 11
0.2472441081
 21
8.06287831
  0
LINE
  5
6C8
100
AcDbEntity
  8
ASSI
100
AcDbLine
 62
7
  6
CONTINUOUS
 10
-0.6527558919
 20
8.06287831
 11
0.2472441081
 21
8.06287831
  0
LINE
  5
6C9
100
AcDbEntity
  8
RACCORDO
100
AcDbLine
 62
253
  6
CONTINUOUS
 10
-8.5296284838
 20
8.0766606002
 11
-7.9729038431
 21
8.0766606002
  0
LINE
  5
6CA
100
AcDbEntity
  8
ASSI
100
AcDbLine
 62
253
  6
CONTINUOUS
 10
-8.5296284838
 20
8.0766606002
 11
-7.9729038431
 21
8.0766606002
  0
LINE
  5
6CB
100
AcDbEntity
  8
RACCORDO
100
AcDbLine
 62
253
  6
CONTINUOUS
 10
7.5673920593
 20
8.0766606002
 11
8.1241167
 21
8.0766606002
  0
LINE
  5
6CC
100
AcDbEntity
  8
ASSI
100
AcDbLine
 62
253
  6
CONTINUOUS
 10
7.5673920593
 20
8.0766606002
 11
8.1241167
 21
8.0766606002
  0
LINE
  5
6CD
100
AcDbEntity
  8
RACCORDO
100
AcDbLine
 62
253
  6
CONTINUOUS
 10
0.2472441081
 20
8.0808378488
 11
-0.6527558919
 21
8.0808378488
  0
LINE
  5
6CE
100
AcDbEntity
  8
ASSI
100
AcDbLine
 62
253
  6
CONTINUOUS
 10
0.2472441081
 20
8.0808378488
 11
-0.6527558919
 21
8.0808378488
  0
LINE
  5
6CF
100
AcDbEntity
  8
RACCORDO
100
AcDbLine
 62
253
  6
CONTINUOUS
 10
0.2472441081
 20
8.4222287441
 11
-0.6527558919
 21
8.4222287441
  0
LINE
  5
6D0
100
AcDbEntity
  8
ASSI
100
AcDbLine
 62
253
  6
CONTINUOUS
 10
0.2472441081
 20
8.4222287441
 11
-0.6527558919
 21
8.4222287441
  0
LINE
  5
6D1
100
AcDbEntity
  8
RACCORDO
100
AcDbLine
 62
253
  6
CONTINUOUS
 10
-8.5382791962
 20
9.0766225233
 11
-7.9815545556
 21
9.0766225233
  0
LINE
  5
6D2
100
AcDbEntity
  8
ASSI
100
AcDbLine
 62
253
  6
CONTINUOUS
 10
-8.5382791962
 20
9.0766225233
 11
-7.9815545556
 21
9.0766225233
  0
LINE
  5
6D3
100
AcDbEntity
  8
RACCORDO
100
AcDbLine
 62
253
  6
CONTINUOUS
 10
7.5760427718
 20
9.0766225233
 11
8.1327674125
 21
9.0766225233
  0
LINE
  5
6D4
100
AcDbEntity
  8
ASSI
100
AcDbLine
 62
253
  6
CONTINUOUS
 10
7.5760427718
 20
9.0766225233
 11
8.1327674125
 21
9.0766225233
  0
LINE
  5
6D5
100
AcDbEntity
  8
RACCORDO
100
AcDbLine
 62
7
  6
CONTINUOUS
 10
7.5228088783
 20
11.0997880083
 11
7.7445017826
 21
10.9889436666
  0
LINE
  5
6D6
100
AcDbEntity
  8
ASSI
100
AcDbLine
 62
7
  6
CONTINUOUS
 10
7.5228088783
 20
11.0997880083
 11
7.7445017826
 21
10.9889436666
  0
LINE
  5
6D7
100
AcDbEntity
  8
DRAFT
100
AcDbLine
 62
7
  6
CONTINUOUS
 10
7.4905194675
 20
12.8320774191
 11
7.5228088783
 21
12.7997880083
  0
LINE
  5
6D8
100
AcDbEntity
  8
ASSI
100
AcDbLine
 62
7
  6
CONTINUOUS
 10
7.4905194675
 20
12.8320774191
 11
7.5228088783
 21
12.7997880083
  0
LINE
  5
6D9
100
AcDbEntity
  8
ASSI
100
AcDbLine
 62
7
  6
CONTINUOUS
 10
0.1274291658
 20
21.4196029506
 11
0.2661863637
 21
21.2808457528
  0
LINE
  5
6DA
100
AcDbEntity
  8
DRAFT
100
AcDbLine
 62
7
  6
CONTINUOUS
 10
0.1274291658
 20
21.4196029506
 11
0.2661863637
 21
21.2808457528
  0
LINE
  5
6DB
100
AcDbEntity
  8
DRAFT
100
AcDbLine
 62
7
  6
CONTINUOUS
 10
7.5228088783
 20
14.2242232381
 11
7.7514528144
 21
13.995579302
  0
LINE
  5
6DC
100
AcDbEntity
  8
ASSI
100
AcDbLine
 62
7
  6
CONTINUOUS
 10
7.5228088783
 20
14.2242232381
 11
7.7514528144
 21
13.995579302
  0
LINE
  5
6DD
100
AcDbEntity
  8
DRAFT
100
AcDbLine
 62
7
  6
CONTINUOUS
 10
9.384512786
 20
13.9083106241
 11
9.2972441081
 21
13.995579302
  0
LINE
  5
6DE
100
AcDbEntity
  8
ASSI
100
AcDbLine
 62
7
  6
CONTINUOUS
 10
9.384512786
 20
13.9083106241
 11
9.2972441081
 21
13.995579302
  0
LINE
  5
6DF
100
AcDbEntity
  8
DRAFT
100
AcDbLine
 62
7
  6
CONTINUOUS
 10
9.6387214923
 20
13.9083106241
 11
9.3472441081
 21
14.1997880083
  0
LINE
  5
6E0
100
AcDbEntity
  8
ASSI
100
AcDbLine
 62
7
  6
CONTINUOUS
 10
9.6387214923
 20
13.9083106241
 11
9.3472441081
 21
14.1997880083
  0
LINE
  5
6E1
100
AcDbEntity
  8
DRAFT
100
AcDbLine
 62
7
  6
CONTINUOUS
 10
-7.0696179351
 20
-20.3150470176
 11
-7.1366757203
 21
-20.3502119917
  0
LINE
  5
6E2
100
AcDbEntity
  8
DRAFT
100
AcDbLine
 62
7
  6
CONTINUOUS
 10
-8.2027558919
 20
6.5997880083
 11
-8.7027558919
 21
6.511624518
  0
LINE
  5
6E3
100
AcDbEntity
  8
DRAFT
100
AcDbLine
 62
7
  6
CONTINUOUS
 10
9.3472441081
 20
9.2997880083
 11
7.5760427718
 21
9.2997880083
  0
LINE
  5
6E4
100
AcDbEntity
  8
ASSI
100
AcDbLine
 62
7
  6
CONTINUOUS
 10
9.3472441081
 20
9.2997880083
 11
7.5760427718
 21
9.2997880083
  0
LINE
  5
6E5
100
AcDbEntity
  8
DRAFT
100
AcDbLine
 62
7
  6
CONTINUOUS
 10
-7.9815545556
 20
9.2997880083
 11
-9.7527558919
 21
9.2997880083
  0
LINE
  5
6E6
100
AcDbEntity
  8
ASSI
100
AcDbLine
 62
7
  6
CONTINUOUS
 10
-7.9815545556
 20
9.2997880083
 11
-9.7527558919
 21
9.2997880083
  0
LINE
  5
6E7
100
AcDbEntity
  8
CURVE
100
AcDbLine
 62
253
  6
CONTINUOUS
 10
10.8387740939
 20
9.3497880083
 11
10.8492463353
 21
9.3497880083
  0
LINE
  5
6E8
100
AcDbEntity
  8
CURVE
100
AcDbLine
 62
253
  6
CONTINUOUS
 10
10.8605912634
 20
9.4497880083
 11
10.8492463353
 21
9.4497880083
  0
LINE
  5
6E9
100
AcDbEntity
  8
DRAFT
100
AcDbLine
 62
7
  6
CONTINUOUS
 10
-11.1954154181
 20
9.4568835927
 11
-9.831297702
 21
9.4568835927
  0
LINE
  5
6EA
100
AcDbEntity
  8
ASSI
100
AcDbLine
 62
7
  6
CONTINUOUS
 10
-11.1954154181
 20
9.4568835927
 11
-9.831297702
 21
9.4568835927
  0
LINE
  5
6EB
100
AcDbEntity
  8
DRAFT
100
AcDbLine
 62
7
  6
CONTINUOUS
 10
10.7899036343
 20
9.4568835927
 11
9.4257859182
 21
9.4568835927
  0
LINE
  5
6EC
100
AcDbEntity
  8
ASSI
100
AcDbLine
 62
7
  6
CONTINUOUS
 10
10.7899036343
 20
9.4568835927
 11
9.4257859182
 21
9.4568835927
  0
LINE
  5
6ED
100
AcDbEntity
  8
CURVE
100
AcDbLine
 62
253
  6
CONTINUOUS
 10
10.8492463353
 20
9.5497880083
 11
10.8387740939
 21
9.5497880083
  0
LINE
  5
6EE
100
AcDbEntity
  8
0
100
AcDbLine
 62
7
  6
CONTINUOUS
 10
-0.6527558919
 20
9.5890609074
 11
0.2472441081
 21
9.5890609074
  0
LINE
  5
6EF
100
AcDbEntity
  8
ASSI
100
AcDbLine
 62
7
  6
CONTINUOUS
 10
-0.6527558919
 20
9.5890609074
 11
0.2472441081
 21
9.5890609074
  0
LINE
  5
6F0
100
AcDbEntity
  8
DRAFT
100
AcDbLine
 62
7
  6
CONTINUOUS
 10
-9.7027558919
 20
9.6506348134
 11
-8.1569645982
 21
9.6506348134
  0
LINE
  5
6F1
100
AcDbEntity
  8
ASSI
100
AcDbLine
 62
7
  6
CONTINUOUS
 10
-9.7027558919
 20
9.6506348134
 11
-8.1569645982
 21
9.6506348134
  0
LINE
  5
6F2
100
AcDbEntity
  8
DRAFT
100
AcDbLine
 62
7
  6
CONTINUOUS
 10
7.7514528144
 20
9.6506348134
 11
9.2972441081
 21
9.6506348134
  0
LINE
  5
6F3
100
AcDbEntity
  8
ASSI
100
AcDbLine
 62
7
  6
CONTINUOUS
 10
7.7514528144
 20
9.6506348134
 11
9.2972441081
 21
9.6506348134
  0
LINE
  5
6F4
100
AcDbEntity
  8
DRAFT
100
AcDbLine
 62
7
  6
CONTINUOUS
 10
-11.0112785077
 20
9.8251854627
 11
-9.7900245698
 21
9.8251854627
  0
LINE
  5
6F5
100
AcDbEntity
  8
ASSI
100
AcDbLine
 62
7
  6
CONTINUOUS
 10
-11.0112785077
 20
9.8251854627
 11
-9.7900245698
 21
9.8251854627
  0
LINE
  5
6F6
100
AcDbEntity
  8
DRAFT
100
AcDbLine
 62
7
  6
CONTINUOUS
 10
9.384512786
 20
9.8251854627
 11
10.6057667239
 21
9.8251854627
  0
LINE
  5
6F7
100
AcDbEntity
  8
ASSI
100
AcDbLine
 62
7
  6
CONTINUOUS
 10
9.384512786
 20
9.8251854627
 11
10.6057667239
 21
9.8251854627
  0
LINE
  5
6F8
100
AcDbEntity
  8
CURVE
100
AcDbLine
 62
253
  6
CONTINUOUS
 10
10.8387740939
 20
10.0497880083
 11
10.8492463353
 21
10.0497880083
  0
LINE
  5
6F9
100
AcDbEntity
  8
CURVE
100
AcDbLine
 62
253
  6
CONTINUOUS
 10
10.8719361915
 20
10.1497880083
 11
10.8492463353
 21
10.1497880083
  0
LINE
  5
6FA
100
AcDbEntity
  8
RACCORDO
100
AcDbLine
 62
253
  6
CONTINUOUS
 10
9.2972441081
 20
10.188951282
 11
7.7514528144
 21
10.188951282
  0
LINE
  5
6FB
100
AcDbEntity
  8
ASSI
100
AcDbLine
 62
253
  6
CONTINUOUS
 10
9.2972441081
 20
10.188951282
 11
7.7514528144
 21
10.188951282
  0
LINE
  5
6FC
100
AcDbEntity
  8
RACCORDO
100
AcDbLine
 62
253
  6
CONTINUOUS
 10
-8.1569645982
 20
10.188951282
 11
-9.7027558919
 21
10.188951282
  0
LINE
  5
6FD
100
AcDbEntity
  8
ASSI
100
AcDbLine
 62
253
  6
CONTINUOUS
 10
-8.1569645982
 20
10.188951282
 11
-9.7027558919
 21
10.188951282
  0
LINE
  5
6FE
100
AcDbEntity
  8
CURVE
100
AcDbLine
 62
253
  6
CONTINUOUS
 10
10.8492463353
 20
10.2497880083
 11
10.8387740939
 21
10.2497880083
  0
LINE
  5
6FF
100
AcDbEntity
  8
CURVE
100
AcDbLine
 62
253
  6
CONTINUOUS
 10
10.8492463353
 20
10.7497880083
 11
10.8387740939
 21
10.7497880083
  0
LINE
  5
700
100
AcDbEntity
  8
CURVE
100
AcDbLine
 62
253
  6
CONTINUOUS
 10
10.8832811196
 20
10.8497880083
 11
10.8492463353
 21
10.8497880083
  0
LINE
  5
701
100
AcDbEntity
  8
CURVE
100
AcDbLine
 62
253
  6
CONTINUOUS
 10
10.8387740939
 20
10.9497880083
 11
10.8492463353
 21
10.9497880083
  0
LINE
  5
702
100
AcDbEntity
  8
RACCORDO
100
AcDbLine
 62
7
  6
CONTINUOUS
 10
8.6580884499
 20
10.9889436666
 11
7.7445017826
 21
10.9889436666
  0
LINE
  5
703
100
AcDbEntity
  8
ASSI
100
AcDbLine
 62
7
  6
CONTINUOUS
 10
8.6580884499
 20
10.9889436666
 11
7.7445017826
 21
10.9889436666
  0
LINE
  5
704
100
AcDbEntity
  8
RACCORDO
100
AcDbLine
 62
7
  6
CONTINUOUS
 10
-8.1500135664
 20
10.9889436666
 11
-9.0636002337
 21
10.9889436666
  0
LINE
  5
705
100
AcDbEntity
  8
ASSI
100
AcDbLine
 62
7
  6
CONTINUOUS
 10
-8.1500135664
 20
10.9889436666
 11
-9.0636002337
 21
10.9889436666
  0
LINE
  5
706
100
AcDbEntity
  8
DRAFT
100
AcDbLine
 62
7
  6
CONTINUOUS
 10
-8.9527558919
 20
11.0997880083
 11
-7.9283206621
 21
11.0997880083
  0
LINE
  5
707
100
AcDbEntity
  8
ASSI
100
AcDbLine
 62
7
  6
CONTINUOUS
 10
-8.9527558919
 20
11.0997880083
 11
-7.9283206621
 21
11.0997880083
  0
LINE
  5
708
100
AcDbEntity
  8
DRAFT
100
AcDbLine
 62
7
  6
CONTINUOUS
 10
7.5228088783
 20
11.0997880083
 11
8.5472441081
 21
11.0997880083
  0
LINE
  5
709
100
AcDbEntity
  8
ASSI
100
AcDbLine
 62
7
  6
CONTINUOUS
 10
7.5228088783
 20
11.0997880083
 11
8.5472441081
 21
11.0997880083
  0
LINE
  5
70A
100
AcDbEntity
  8
0
100
AcDbLine
 62
7
  6
CONTINUOUS
 10
-7.9091215529
 20
11.2805888992
 11
7.5036097692
 21
11.2805888992
  0
LINE
  5
70B
100
AcDbEntity
  8
ASSI
100
AcDbLine
 62
7
  6
CONTINUOUS
 10
-7.9091215529
 20
11.2805888992
 11
7.5036097692
 21
11.2805888992
  0
LINE
  5
70C
100
AcDbEntity
  8
DRAFT
100
AcDbLine
 62
7
  6
CONTINUOUS
 10
7.5228088783
 20
11.2997880083
 11
-7.9283206621
 21
11.2997880083
  0
LINE
  5
70D
100
AcDbEntity
  8
ASSI
100
AcDbLine
 62
7
  6
CONTINUOUS
 10
7.5228088783
 20
11.2997880083
 11
-7.9283206621
 21
11.2997880083
  0
LINE
  5
70E
100
AcDbEntity
  8
CURVE
100
AcDbLine
 62
253
  6
CONTINUOUS
 10
10.8387740939
 20
11.4497880083
 11
10.8492463353
 21
11.4497880083
  0
LINE
  5
70F
100
AcDbEntity
  8
CURVE
100
AcDbLine
 62
253
  6
CONTINUOUS
 10
10.8832811196
 20
11.5497880083
 11
10.8492463353
 21
11.5497880083
  0
LINE
  5
710
100
AcDbEntity
  8
CURVE
100
AcDbLine
 62
253
  6
CONTINUOUS
 10
10.8492463353
 20
11.6497880083
 11
10.8387740939
 21
11.6497880083
  0
LINE
  5
711
100
AcDbEntity
  8
DRAFT
100
AcDbLine
 62
7
  6
CONTINUOUS
 10
-9.6549777373
 20
16.4753527785
 11
-9.7527558919
 21
16.4997880083
  0
LINE
  5
712
100
AcDbEntity
  8
ASSI
100
AcDbLine
 62
7
  6
CONTINUOUS
 10
-9.6549777373
 20
16.4753527785
 11
-9.7527558919
 21
16.4997880083
  0
LINE
  5
713
100
AcDbEntity
  8
DRAFT
100
AcDbLine
 62
7
  6
CONTINUOUS
 10
-7.1366757203
 20
22.0497880083
 11
-7.0696179351
 21
22.0146230342
  0
LINE
  5
714
100
AcDbEntity
  8
ASSI
100
AcDbLine
 62
7
  6
CONTINUOUS
 10
8.5972441081
 20
16.2997880083
 11
8.6035268982
 21
16.2935052182
  0
LINE
  5
715
100
AcDbEntity
  8
RACCORDO
100
AcDbLine
 62
7
  6
CONTINUOUS
 10
8.5972441081
 20
16.2997880083
 11
8.6035268982
 21
16.2935052182
  0
LINE
  5
716
100
AcDbEntity
  8
DRAFT
100
AcDbLine
 62
7
  6
CONTINUOUS
 10
7.5472441081
 20
18.0997880083
 11
7.595241881
 21
18.0517902355
  0
LINE
  5
717
100
AcDbEntity
  8
ASSI
100
AcDbLine
 62
7
  6
CONTINUOUS
 10
7.5472441081
 20
18.0997880083
 11
7.595241881
 21
18.0517902355
  0
LINE
  5
718
100
AcDbEntity
  8
DRAFT
100
AcDbLine
 62
7
  6
CONTINUOUS
 10
-7.4408033652
 20
-19.9851300504
 11
-7.5857910714
 21
-20.0502119917
  0
LINE
  5
719
100
AcDbEntity
  8
CURVE
100
AcDbLine
 62
253
  6
CONTINUOUS
 10
10.8387740939
 20
12.1497880083
 11
10.8492463353
 21
12.1497880083
  0
LINE
  5
71A
100
AcDbEntity
  8
CURVE
100
AcDbLine
 62
253
  6
CONTINUOUS
 10
10.8719361915
 20
12.2497880083
 11
10.8492463353
 21
12.2497880083
  0
LINE
  5
71B
100
AcDbEntity
  8
CURVE
100
AcDbLine
 62
253
  6
CONTINUOUS
 10
10.8492463353
 20
12.3497880083
 11
10.8387740939
 21
12.3497880083
  0
LINE
  5
71C
100
AcDbEntity
  8
DRAFT
100
AcDbLine
 62
7
  6
CONTINUOUS
 10
8.5472441081
 20
12.6997880083
 11
7.5228088783
 21
12.6997880083
  0
LINE
  5
71D
100
AcDbEntity
  8
ASSI
100
AcDbLine
 62
7
  6
CONTINUOUS
 10
8.5472441081
 20
12.6997880083
 11
7.5228088783
 21
12.6997880083
  0
LINE
  5
71E
100
AcDbEntity
  8
DRAFT
100
AcDbLine
 62
7
  6
CONTINUOUS
 10
-7.9283206621
 20
12.6997880083
 11
-8.9527558919
 21
12.6997880083
  0
LINE
  5
71F
100
AcDbEntity
  8
ASSI
100
AcDbLine
 62
7
  6
CONTINUOUS
 10
-7.9283206621
 20
12.6997880083
 11
-8.9527558919
 21
12.6997880083
  0
LINE
  5
720
100
AcDbEntity
  8
DRAFT
100
AcDbLine
 62
7
  6
CONTINUOUS
 10
-7.9283206621
 20
12.7997880083
 11
7.5228088783
 21
12.7997880083
  0
LINE
  5
721
100
AcDbEntity
  8
ASSI
100
AcDbLine
 62
7
  6
CONTINUOUS
 10
-7.9283206621
 20
12.7997880083
 11
7.5228088783
 21
12.7997880083
  0
LINE
  5
722
100
AcDbEntity
  8
RACCORDO
100
AcDbLine
 62
7
  6
CONTINUOUS
 10
-9.0636002337
 20
12.8106323501
 11
-8.1500135664
 21
12.8106323501
  0
LINE
  5
723
100
AcDbEntity
  8
ASSI
100
AcDbLine
 62
7
  6
CONTINUOUS
 10
-9.0636002337
 20
12.8106323501
 11
-8.1500135664
 21
12.8106323501
  0
LINE
  5
724
100
AcDbEntity
  8
RACCORDO
100
AcDbLine
 62
7
  6
CONTINUOUS
 10
7.7445017826
 20
12.8106323501
 11
8.6580884499
 21
12.8106323501
  0
LINE
  5
725
100
AcDbEntity
  8
ASSI
100
AcDbLine
 62
7
  6
CONTINUOUS
 10
7.7445017826
 20
12.8106323501
 11
8.6580884499
 21
12.8106323501
  0
LINE
  5
726
100
AcDbEntity
  8
DRAFT
100
AcDbLine
 62
7
  6
CONTINUOUS
 10
-7.8960312513
 20
12.8320774191
 11
7.4905194675
 21
12.8320774191
  0
LINE
  5
727
100
AcDbEntity
  8
ASSI
100
AcDbLine
 62
7
  6
CONTINUOUS
 10
-7.8960312513
 20
12.8320774191
 11
7.4905194675
 21
12.8320774191
  0
LINE
  5
728
100
AcDbEntity
  8
CURVE
100
AcDbLine
 62
253
  6
CONTINUOUS
 10
10.8387740939
 20
12.8497880083
 11
10.8492463353
 21
12.8497880083
  0
LINE
  5
729
100
AcDbEntity
  8
CURVE
100
AcDbLine
 62
253
  6
CONTINUOUS
 10
10.8605912634
 20
12.9497880083
 11
10.8492463353
 21
12.9497880083
  0
LINE
  5
72A
100
AcDbEntity
  8
CURVE
100
AcDbLine
 62
253
  6
CONTINUOUS
 10
10.8492463353
 20
13.0497880083
 11
10.8387740939
 21
13.0497880083
  0
LINE
  5
72B
100
AcDbEntity
  8
RACCORDO
100
AcDbLine
 62
253
  6
CONTINUOUS
 10
-9.7027558919
 20
13.6106247347
 11
-8.1569645982
 21
13.6106247347
  0
LINE
  5
72C
100
AcDbEntity
  8
ASSI
100
AcDbLine
 62
253
  6
CONTINUOUS
 10
-9.7027558919
 20
13.6106247347
 11
-8.1569645982
 21
13.6106247347
  0
LINE
  5
72D
100
AcDbEntity
  8
RACCORDO
100
AcDbLine
 62
253
  6
CONTINUOUS
 10
7.7514528144
 20
13.6106247347
 11
9.2972441081
 21
13.6106247347
  0
LINE
  5
72E
100
AcDbEntity
  8
ASSI
100
AcDbLine
 62
253
  6
CONTINUOUS
 10
7.7514528144
 20
13.6106247347
 11
9.2972441081
 21
13.6106247347
  0
LINE
  5
72F
100
AcDbEntity
  8
DRAFT
100
AcDbLine
 62
7
  6
CONTINUOUS
 10
9.6387214923
 20
13.9083106241
 11
9.384512786
 21
13.9083106241
  0
LINE
  5
730
100
AcDbEntity
  8
ASSI
100
AcDbLine
 62
7
  6
CONTINUOUS
 10
9.6387214923
 20
13.9083106241
 11
9.384512786
 21
13.9083106241
  0
LINE
  5
731
100
AcDbEntity
  8
DRAFT
100
AcDbLine
 62
7
  6
CONTINUOUS
 10
-9.7900245698
 20
13.9083106241
 11
-10.0442332761
 21
13.9083106241
  0
LINE
  5
732
100
AcDbEntity
  8
ASSI
100
AcDbLine
 62
7
  6
CONTINUOUS
 10
-9.7900245698
 20
13.9083106241
 11
-10.0442332761
 21
13.9083106241
  0
LINE
  5
733
100
AcDbEntity
  8
DRAFT
100
AcDbLine
 62
7
  6
CONTINUOUS
 10
-9.7027558919
 20
13.995579302
 11
-8.1569645982
 21
13.995579302
  0
LINE
  5
734
100
AcDbEntity
  8
ASSI
100
AcDbLine
 62
7
  6
CONTINUOUS
 10
-9.7027558919
 20
13.995579302
 11
-8.1569645982
 21
13.995579302
  0
LINE
  5
735
100
AcDbEntity
  8
DRAFT
100
AcDbLine
 62
7
  6
CONTINUOUS
 10
9.2972441081
 20
13.995579302
 11
7.7514528144
 21
13.995579302
  0
LINE
  5
736
100
AcDbEntity
  8
ASSI
100
AcDbLine
 62
7
  6
CONTINUOUS
 10
9.2972441081
 20
13.995579302
 11
7.7514528144
 21
13.995579302
  0
LINE
  5
737
100
AcDbEntity
  8
CURVE
100
AcDbLine
 62
253
  6
CONTINUOUS
 10
10.8283018526
 20
14.0997880083
 11
10.8195749848
 21
14.0997880083
  0
LINE
  5
738
100
AcDbEntity
  8
DRAFT
100
AcDbLine
 62
7
  6
CONTINUOUS
 10
9.2494659535
 20
14.2242232381
 11
7.5228088783
 21
14.2242232381
  0
LINE
  5
739
100
AcDbEntity
  8
ASSI
100
AcDbLine
 62
7
  6
CONTINUOUS
 10
9.2494659535
 20
14.2242232381
 11
7.5228088783
 21
14.2242232381
  0
LINE
  5
73A
100
AcDbEntity
  8
DRAFT
100
AcDbLine
 62
7
  6
CONTINUOUS
 10
-7.9283206621
 20
14.2242232381
 11
-9.6549777373
 21
14.2242232381
  0
LINE
  5
73B
100
AcDbEntity
  8
ASSI
100
AcDbLine
 62
7
  6
CONTINUOUS
 10
-7.9283206621
 20
14.2242232381
 11
-9.6549777373
 21
14.2242232381
  0
LINE
  5
73C
100
AcDbEntity
  8
ASSI
100
AcDbLine
 62
7
  6
CONTINUOUS
 10
-9.7527558919
 20
14.5272118529
 11
-9.0993865075
 21
14.510924389
  0
LINE
  5
73D
100
AcDbEntity
  8
RACCORDO
100
AcDbLine
 62
7
  6
CONTINUOUS
 10
-9.7527558919
 20
14.5272118529
 11
-9.0993865075
 21
14.510924389
  0
LINE
  5
73E
100
AcDbEntity
  8
DRAFT
100
AcDbLine
 62
7
  6
CONTINUOUS
 10
-6.2027558919
 20
16.6158553499
 11
-6.9046633587
 21
16.7912653925
  0
LINE
  5
73F
100
AcDbEntity
  8
ASSI
100
AcDbLine
 62
7
  6
CONTINUOUS
 10
-6.2027558919
 20
16.6158553499
 11
-6.9046633587
 21
16.7912653925
  0
LINE
  5
740
100
AcDbEntity
  8
DRAFT
100
AcDbLine
 62
7
  6
CONTINUOUS
 10
9.2494659535
 20
14.2242232381
 11
9.3472441081
 21
14.1997880083
  0
LINE
  5
741
100
AcDbEntity
  8
ASSI
100
AcDbLine
 62
7
  6
CONTINUOUS
 10
9.2494659535
 20
14.2242232381
 11
9.3472441081
 21
14.1997880083
  0
LINE
  5
742
100
AcDbEntity
  8
DRAFT
100
AcDbLine
 62
7
  6
CONTINUOUS
 10
-7.4408033652
 20
21.6847060671
 11
-7.5857910714
 21
21.7497880083
  0
LINE
  5
743
100
AcDbEntity
  8
ASSI
100
AcDbLine
 62
7
  6
CONTINUOUS
 10
7.0231837032
 20
-16.7976960573
 11
7.3181743005
 21
-16.6502119917
  0
LINE
  5
744
100
AcDbEntity
  8
DRAFT
100
AcDbLine
 62
7
  6
CONTINUOUS
 10
7.0231837032
 20
-16.7976960573
 11
7.3181743005
 21
-16.6502119917
  0
LINE
  5
745
100
AcDbEntity
  8
DRAFT
100
AcDbLine
 62
7
  6
CONTINUOUS
 10
9.2494659535
 20
16.4753527785
 11
9.3472441081
 21
16.4997880083
  0
LINE
  5
746
100
AcDbEntity
  8
ASSI
100
AcDbLine
 62
7
  6
CONTINUOUS
 10
9.2494659535
 20
16.4753527785
 11
9.3472441081
 21
16.4997880083
  0
LINE
  5
747
100
AcDbEntity
  8
ASSI
100
AcDbLine
 62
7
  6
CONTINUOUS
 10
8.6938747237
 20
14.510924389
 11
9.3472441081
 21
14.5272118529
  0
LINE
  5
748
100
AcDbEntity
  8
RACCORDO
100
AcDbLine
 62
7
  6
CONTINUOUS
 10
8.6938747237
 20
14.510924389
 11
9.3472441081
 21
14.5272118529
  0
LINE
  5
749
100
AcDbEntity
  8
ASSI
100
AcDbLine
 62
7
  6
CONTINUOUS
 10
-9.7527558919
 20
16.2723641637
 11
-9.0993865075
 21
16.2886516277
  0
LINE
  5
74A
100
AcDbEntity
  8
RACCORDO
100
AcDbLine
 62
7
  6
CONTINUOUS
 10
-9.7527558919
 20
16.2723641637
 11
-9.0993865075
 21
16.2886516277
  0
LINE
  5
74B
100
AcDbEntity
  8
ASSI
100
AcDbLine
 62
7
  6
CONTINUOUS
 10
9.3472441081
 20
14.4997880083
 11
8.5972441081
 21
14.4997880083
  0
LINE
  5
74C
100
AcDbEntity
  8
DRAFT
100
AcDbLine
 62
7
  6
CONTINUOUS
 10
9.3472441081
 20
14.4997880083
 11
8.5972441081
 21
14.4997880083
  0
LINE
  5
74D
100
AcDbEntity
  8
ASSI
100
AcDbLine
 62
7
  6
CONTINUOUS
 10
-9.0027558919
 20
14.4997880083
 11
-9.7527558919
 21
14.4997880083
  0
LINE
  5
74E
100
AcDbEntity
  8
DRAFT
100
AcDbLine
 62
7
  6
CONTINUOUS
 10
-9.0027558919
 20
14.4997880083
 11
-9.7527558919
 21
14.4997880083
  0
LINE
  5
74F
100
AcDbEntity
  8
CURVE
100
AcDbLine
 62
253
  6
CONTINUOUS
 10
10.8492463353
 20
14.5997880083
 11
10.8283018526
 21
14.5997880083
  0
LINE
  5
750
100
AcDbEntity
  8
DRAFT
100
AcDbLine
 62
7
  6
CONTINUOUS
 10
8.5972441081
 20
14.7497880083
 11
7.5228088783
 21
14.7497880083
  0
LINE
  5
751
100
AcDbEntity
  8
ASSI
100
AcDbLine
 62
7
  6
CONTINUOUS
 10
8.5972441081
 20
14.7497880083
 11
7.5228088783
 21
14.7497880083
  0
LINE
  5
752
100
AcDbEntity
  8
DRAFT
100
AcDbLine
 62
7
  6
CONTINUOUS
 10
-7.9283206621
 20
14.7497880083
 11
-9.0027558919
 21
14.7497880083
  0
LINE
  5
753
100
AcDbEntity
  8
ASSI
100
AcDbLine
 62
7
  6
CONTINUOUS
 10
-7.9283206621
 20
14.7497880083
 11
-9.0027558919
 21
14.7497880083
  0
LINE
  5
754
100
AcDbEntity
  8
CURVE
100
AcDbLine
 62
253
  6
CONTINUOUS
 10
10.8599679119
 20
15.0997880083
 11
10.8574745236
 21
15.0997880083
  0
LINE
  5
755
100
AcDbEntity
  8
CURVE
100
AcDbLine
 62
253
  6
CONTINUOUS
 10
10.8713128401
 20
15.1712170083
 11
10.8688194518
 21
15.1712170083
  0
LINE
  5
756
100
AcDbEntity
  8
CURVE
100
AcDbLine
 62
253
  6
CONTINUOUS
 10
10.8832811196
 20
15.2664550083
 11
10.8789176857
 21
15.2664550083
  0
LINE
  5
757
100
AcDbEntity
  8
CURVE
100
AcDbLine
 62
253
  6
CONTINUOUS
 10
10.8762996254
 20
15.5997880083
 11
10.872559543
 21
15.5997880083
  0
LINE
  5
758
100
AcDbEntity
  8
CURVE
100
AcDbLine
 62
253
  6
CONTINUOUS
 10
10.8574745236
 20
15.5997880083
 11
10.8605912634
 21
15.5997880083
  0
LINE
  5
759
100
AcDbEntity
  8
DRAFT
100
AcDbLine
 62
7
  6
CONTINUOUS
 10
-9.0027558919
 20
15.9497880083
 11
-7.9283206621
 21
15.9497880083
  0
LINE
  5
75A
100
AcDbEntity
  8
ASSI
100
AcDbLine
 62
7
  6
CONTINUOUS
 10
-9.0027558919
 20
15.9497880083
 11
-7.9283206621
 21
15.9497880083
  0
LINE
  5
75B
100
AcDbEntity
  8
DRAFT
100
AcDbLine
 62
7
  6
CONTINUOUS
 10
7.5228088783
 20
15.9497880083
 11
8.5972441081
 21
15.9497880083
  0
LINE
  5
75C
100
AcDbEntity
  8
ASSI
100
AcDbLine
 62
7
  6
CONTINUOUS
 10
7.5228088783
 20
15.9497880083
 11
8.5972441081
 21
15.9497880083
  0
LINE
  5
75D
100
AcDbEntity
  8
ASSI
100
AcDbLine
 62
7
  6
CONTINUOUS
 10
9.3472441081
 20
16.2997880083
 11
8.5972441081
 21
16.2997880083
  0
LINE
  5
75E
100
AcDbEntity
  8
DRAFT
100
AcDbLine
 62
7
  6
CONTINUOUS
 10
9.3472441081
 20
16.2997880083
 11
8.5972441081
 21
16.2997880083
  0
LINE
  5
75F
100
AcDbEntity
  8
ASSI
100
AcDbLine
 62
7
  6
CONTINUOUS
 10
-9.0027558919
 20
16.2997880083
 11
-9.7527558919
 21
16.2997880083
  0
LINE
  5
760
100
AcDbEntity
  8
DRAFT
100
AcDbLine
 62
7
  6
CONTINUOUS
 10
-9.0027558919
 20
16.2997880083
 11
-9.7527558919
 21
16.2997880083
  0
LINE
  5
761
100
AcDbEntity
  8
DRAFT
100
AcDbLine
 62
7
  6
CONTINUOUS
 10
9.2494659535
 20
16.4753527785
 11
7.5228088783
 21
16.4753527785
  0
LINE
  5
762
100
AcDbEntity
  8
ASSI
100
AcDbLine
 62
7
  6
CONTINUOUS
 10
9.2494659535
 20
16.4753527785
 11
7.5228088783
 21
16.4753527785
  0
LINE
  5
763
100
AcDbEntity
  8
DRAFT
100
AcDbLine
 62
7
  6
CONTINUOUS
 10
-7.9283206621
 20
16.4753527785
 11
-9.6549777373
 21
16.4753527785
  0
LINE
  5
764
100
AcDbEntity
  8
ASSI
100
AcDbLine
 62
7
  6
CONTINUOUS
 10
-7.9283206621
 20
16.4753527785
 11
-9.6549777373
 21
16.4753527785
  0
LINE
  5
765
100
AcDbEntity
  8
DRAFT
100
AcDbLine
 62
7
  6
CONTINUOUS
 10
-8.0007536647
 20
16.5477857812
 11
7.595241881
 21
16.5477857812
  0
LINE
  5
766
100
AcDbEntity
  8
ASSI
100
AcDbLine
 62
7
  6
CONTINUOUS
 10
-8.0007536647
 20
16.5477857812
 11
7.595241881
 21
16.5477857812
  0
LINE
  5
767
100
AcDbEntity
  8
DRAFT
100
AcDbLine
 62
7
  6
CONTINUOUS
 10
-6.2027558919
 20
16.6158553499
 11
5.7972441081
 21
16.6158553499
  0
LINE
  5
768
100
AcDbEntity
  8
ASSI
100
AcDbLine
 62
7
  6
CONTINUOUS
 10
-6.2027558919
 20
16.6158553499
 11
5.7972441081
 21
16.6158553499
  0
LINE
  5
769
100
AcDbEntity
  8
DRAFT
100
AcDbLine
 62
7
  6
CONTINUOUS
 10
-10.0442332761
 20
16.7912653925
 11
-6.9046633587
 21
16.7912653925
  0
LINE
  5
76A
100
AcDbEntity
  8
ASSI
100
AcDbLine
 62
7
  6
CONTINUOUS
 10
-10.0442332761
 20
16.7912653925
 11
-6.9046633587
 21
16.7912653925
  0
LINE
  5
76B
100
AcDbEntity
  8
DRAFT
100
AcDbLine
 62
7
  6
CONTINUOUS
 10
6.4991515749
 20
16.7912653925
 11
9.6387214923
 21
16.7912653925
  0
LINE
  5
76C
100
AcDbEntity
  8
ASSI
100
AcDbLine
 62
7
  6
CONTINUOUS
 10
6.4991515749
 20
16.7912653925
 11
9.6387214923
 21
16.7912653925
  0
LINE
  5
76D
100
AcDbEntity
  8
ASSI
100
AcDbLine
 62
7
  6
CONTINUOUS
 10
8.6938747237
 20
16.2886516277
 11
9.3472441081
 21
16.2723641637
  0
LINE
  5
76E
100
AcDbEntity
  8
RACCORDO
100
AcDbLine
 62
7
  6
CONTINUOUS
 10
8.6938747237
 20
16.2886516277
 11
9.3472441081
 21
16.2723641637
  0
LINE
  5
76F
100
AcDbEntity
  8
DRAFT
100
AcDbLine
 62
7
  6
CONTINUOUS
 10
5.7972441081
 20
17.9837206667
 11
6.4991515749
 21
17.8083106241
  0
LINE
  5
770
100
AcDbEntity
  8
ASSI
100
AcDbLine
 62
7
  6
CONTINUOUS
 10
5.7972441081
 20
17.9837206667
 11
6.4991515749
 21
17.8083106241
  0
LINE
  5
771
100
AcDbEntity
  8
ASSI
100
AcDbLine
 62
7
  6
CONTINUOUS
 10
7.0231837032
 20
18.247272074
 11
7.3181743005
 21
18.0997880083
  0
LINE
  5
772
100
AcDbEntity
  8
DRAFT
100
AcDbLine
 62
7
  6
CONTINUOUS
 10
7.0231837032
 20
18.247272074
 11
7.3181743005
 21
18.0997880083
  0
LINE
  5
773
100
AcDbEntity
  8
DRAFT
100
AcDbLine
 62
7
  6
CONTINUOUS
 10
5.7972441081
 20
16.6158553499
 11
6.4991515749
 21
16.7912653925
  0
LINE
  5
774
100
AcDbEntity
  8
ASSI
100
AcDbLine
 62
7
  6
CONTINUOUS
 10
5.7972441081
 20
16.6158553499
 11
6.4991515749
 21
16.7912653925
  0
LINE
  5
775
100
AcDbEntity
  8
DRAFT
100
AcDbLine
 62
7
  6
CONTINUOUS
 10
-9.6549777373
 20
14.2242232381
 11
-9.7527558919
 21
14.1997880083
  0
LINE
  5
776
100
AcDbEntity
  8
ASSI
100
AcDbLine
 62
7
  6
CONTINUOUS
 10
-9.6549777373
 20
14.2242232381
 11
-9.7527558919
 21
14.1997880083
  0
LINE
  5
777
100
AcDbEntity
  8
DRAFT
100
AcDbLine
 62
7
  6
CONTINUOUS
 10
-11.0112785077
 20
17.8083106241
 11
-6.9046633587
 21
17.8083106241
  0
LINE
  5
778
100
AcDbEntity
  8
ASSI
100
AcDbLine
 62
7
  6
CONTINUOUS
 10
-11.0112785077
 20
17.8083106241
 11
-6.9046633587
 21
17.8083106241
  0
LINE
  5
779
100
AcDbEntity
  8
DRAFT
100
AcDbLine
 62
7
  6
CONTINUOUS
 10
6.4991515749
 20
17.8083106241
 11
10.6057667239
 21
17.8083106241
  0
LINE
  5
77A
100
AcDbEntity
  8
ASSI
100
AcDbLine
 62
7
  6
CONTINUOUS
 10
6.4991515749
 20
17.8083106241
 11
10.6057667239
 21
17.8083106241
  0
LINE
  5
77B
100
AcDbEntity
  8
DRAFT
100
AcDbLine
 62
7
  6
CONTINUOUS
 10
-6.2027558919
 20
17.9837206667
 11
5.7972441081
 21
17.9837206667
  0
LINE
  5
77C
100
AcDbEntity
  8
ASSI
100
AcDbLine
 62
7
  6
CONTINUOUS
 10
-6.2027558919
 20
17.9837206667
 11
5.7972441081
 21
17.9837206667
  0
LINE
  5
77D
100
AcDbEntity
  8
DRAFT
100
AcDbLine
 62
7
  6
CONTINUOUS
 10
7.595241881
 20
18.0517902355
 11
-8.0007536647
 21
18.0517902355
  0
LINE
  5
77E
100
AcDbEntity
  8
ASSI
100
AcDbLine
 62
7
  6
CONTINUOUS
 10
7.595241881
 20
18.0517902355
 11
-8.0007536647
 21
18.0517902355
  0
LINE
  5
77F
100
AcDbEntity
  8
DRAFT
100
AcDbLine
 62
7
  6
CONTINUOUS
 10
10.8972441081
 20
18.0997880083
 11
7.5472441081
 21
18.0997880083
  0
LINE
  5
780
100
AcDbEntity
  8
ASSI
100
AcDbLine
 62
7
  6
CONTINUOUS
 10
10.8972441081
 20
18.0997880083
 11
7.5472441081
 21
18.0997880083
  0
LINE
  5
781
100
AcDbEntity
  8
ASSI
100
AcDbLine
 62
7
  6
CONTINUOUS
 10
7.3181743005
 20
18.0997880083
 11
6.311337032
 21
18.0997880083
  0
LINE
  5
782
100
AcDbEntity
  8
DRAFT
100
AcDbLine
 62
7
  6
CONTINUOUS
 10
7.3181743005
 20
18.0997880083
 11
6.311337032
 21
18.0997880083
  0
LINE
  5
783
100
AcDbEntity
  8
ASSI
100
AcDbLine
 62
7
  6
CONTINUOUS
 10
0.2661863637
 20
18.0997880083
 11
-0.6716981474
 21
18.0997880083
  0
LINE
  5
784
100
AcDbEntity
  8
DRAFT
100
AcDbLine
 62
7
  6
CONTINUOUS
 10
0.2661863637
 20
18.0997880083
 11
-0.6716981474
 21
18.0997880083
  0
LINE
  5
785
100
AcDbEntity
  8
ASSI
100
AcDbLine
 62
7
  6
CONTINUOUS
 10
-6.7168488158
 20
18.0997880083
 11
-7.7236860843
 21
18.0997880083
  0
LINE
  5
786
100
AcDbEntity
  8
DRAFT
100
AcDbLine
 62
7
  6
CONTINUOUS
 10
-6.7168488158
 20
18.0997880083
 11
-7.7236860843
 21
18.0997880083
  0
LINE
  5
787
100
AcDbEntity
  8
DRAFT
100
AcDbLine
 62
7
  6
CONTINUOUS
 10
-7.9527558919
 20
18.0997880083
 11
-11.3027558919
 21
18.0997880083
  0
LINE
  5
788
100
AcDbEntity
  8
ASSI
100
AcDbLine
 62
7
  6
CONTINUOUS
 10
-7.9527558919
 20
18.0997880083
 11
-11.3027558919
 21
18.0997880083
  0
LINE
  5
789
100
AcDbEntity
  8
ASSI
100
AcDbLine
 62
7
  6
CONTINUOUS
 10
0.1792937143
 20
18.1866806577
 11
-0.5848054981
 21
18.1866806577
  0
LINE
  5
78A
100
AcDbEntity
  8
DRAFT
100
AcDbLine
 62
7
  6
CONTINUOUS
 10
0.1792937143
 20
18.1866806577
 11
-0.5848054981
 21
18.1866806577
  0
LINE
  5
78B
100
AcDbEntity
  8
ASSI
100
AcDbLine
 62
7
  6
CONTINUOUS
 10
-7.428695487
 20
18.247272074
 11
-6.8643328815
 21
18.247272074
  0
LINE
  5
78C
100
AcDbEntity
  8
DRAFT
100
AcDbLine
 62
7
  6
CONTINUOUS
 10
-7.428695487
 20
18.247272074
 11
-6.8643328815
 21
18.247272074
  0
LINE
  5
78D
100
AcDbEntity
  8
ASSI
100
AcDbLine
 62
7
  6
CONTINUOUS
 10
6.4588210977
 20
18.247272074
 11
7.0231837032
 21
18.247272074
  0
LINE
  5
78E
100
AcDbEntity
  8
DRAFT
100
AcDbLine
 62
7
  6
CONTINUOUS
 10
6.4588210977
 20
18.247272074
 11
7.0231837032
 21
18.247272074
  0
LINE
  5
78F
100
AcDbEntity
  8
DRAFT
100
AcDbLine
 62
7
  6
CONTINUOUS
 10
-6.2027558919
 20
17.9837206667
 11
-6.9046633587
 21
17.8083106241
  0
LINE
  5
790
100
AcDbEntity
  8
ASSI
100
AcDbLine
 62
7
  6
CONTINUOUS
 10
-6.2027558919
 20
17.9837206667
 11
-6.9046633587
 21
17.8083106241
  0
LINE
  5
791
100
AcDbEntity
  8
ASSI
100
AcDbLine
 62
7
  6
CONTINUOUS
 10
0.1274291658
 20
20.3497880083
 11
-0.5329409496
 21
20.3497880083
  0
LINE
  5
792
100
AcDbEntity
  8
DRAFT
100
AcDbLine
 62
7
  6
CONTINUOUS
 10
0.1274291658
 20
20.3497880083
 11
-0.5329409496
 21
20.3497880083
  0
LINE
  5
793
100
AcDbEntity
  8
ASSI
100
AcDbLine
 62
253
  6
CONTINUOUS
 10
7.0231837032
 20
20.6760492986
 11
6.4588210977
 21
20.6760492986
  0
LINE
  5
794
100
AcDbEntity
  8
RACCORDO
100
AcDbLine
 62
253
  6
CONTINUOUS
 10
7.0231837032
 20
20.6760492986
 11
6.4588210977
 21
20.6760492986
  0
LINE
  5
795
100
AcDbEntity
  8
ASSI
100
AcDbLine
 62
253
  6
CONTINUOUS
 10
-6.8643328815
 20
20.6760492986
 11
-7.428695487
 21
20.6760492986
  0
LINE
  5
796
100
AcDbEntity
  8
RACCORDO
100
AcDbLine
 62
253
  6
CONTINUOUS
 10
-6.8643328815
 20
20.6760492986
 11
-7.428695487
 21
20.6760492986
  0
LINE
  5
797
100
AcDbEntity
  8
ASSI
100
AcDbLine
 62
253
  6
CONTINUOUS
 10
7.025225558
 20
20.9974431034
 11
6.4578002481
 21
20.9974431034
  0
LINE
  5
798
100
AcDbEntity
  8
RACCORDO
100
AcDbLine
 62
253
  6
CONTINUOUS
 10
7.025225558
 20
20.9974431034
 11
6.4578002481
 21
20.9974431034
  0
LINE
  5
799
100
AcDbEntity
  8
ASSI
100
AcDbLine
 62
253
  6
CONTINUOUS
 10
-6.8633120319
 20
20.9974431034
 11
-7.4307373417
 21
20.9974431034
  0
LINE
  5
79A
100
AcDbEntity
  8
RACCORDO
100
AcDbLine
 62
253
  6
CONTINUOUS
 10
-6.8633120319
 20
20.9974431034
 11
-7.4307373417
 21
20.9974431034
  0
LINE
  5
79B
100
AcDbEntity
  8
ASSI
100
AcDbLine
 62
7
  6
CONTINUOUS
 10
-6.7168488158
 20
21.2808457528
 11
-0.6716981474
 21
21.2808457528
  0
LINE
  5
79C
100
AcDbEntity
  8
DRAFT
100
AcDbLine
 62
7
  6
CONTINUOUS
 10
-6.7168488158
 20
21.2808457528
 11
-0.6716981474
 21
21.2808457528
  0
LINE
  5
79D
100
AcDbEntity
  8
ASSI
100
AcDbLine
 62
7
  6
CONTINUOUS
 10
0.2661863637
 20
21.2808457528
 11
6.311337032
 21
21.2808457528
  0
LINE
  5
79E
100
AcDbEntity
  8
DRAFT
100
AcDbLine
 62
7
  6
CONTINUOUS
 10
0.2661863637
 20
21.2808457528
 11
6.311337032
 21
21.2808457528
  0
LINE
  5
79F
100
AcDbEntity
  8
ASSI
100
AcDbLine
 62
7
  6
CONTINUOUS
 10
-9.8527558919
 20
21.335766552
 11
-7.7236860843
 21
21.335766552
  0
LINE
  5
7A0
100
AcDbEntity
  8
DRAFT
100
AcDbLine
 62
7
  6
CONTINUOUS
 10
-9.8527558919
 20
21.335766552
 11
-7.7236860843
 21
21.335766552
  0
LINE
  5
7A1
100
AcDbEntity
  8
ASSI
100
AcDbLine
 62
7
  6
CONTINUOUS
 10
7.3181743005
 20
21.335766552
 11
9.4472441081
 21
21.335766552
  0
LINE
  5
7A2
100
AcDbEntity
  8
DRAFT
100
AcDbLine
 62
7
  6
CONTINUOUS
 10
7.3181743005
 20
21.335766552
 11
9.4472441081
 21
21.335766552
  0
LINE
  5
7A3
100
AcDbEntity
  8
ASSI
100
AcDbLine
 62
7
  6
CONTINUOUS
 10
6.4518999117
 20
21.4214086324
 11
-6.8574116955
 21
21.4214086324
  0
LINE
  5
7A4
100
AcDbEntity
  8
RACCORDO
100
AcDbLine
 62
7
  6
CONTINUOUS
 10
6.4518999117
 20
21.4214086324
 11
-6.8574116955
 21
21.4214086324
  0
LINE
  5
7A5
100
AcDbEntity
  8
ASSI
100
AcDbLine
 62
253
  6
CONTINUOUS
 10
6.4528912637
 20
21.6678210623
 11
-6.8584030475
 21
21.6678210623
  0
LINE
  5
7A6
100
AcDbEntity
  8
RACCORDO
100
AcDbLine
 62
253
  6
CONTINUOUS
 10
6.4528912637
 20
21.6678210623
 11
-6.8584030475
 21
21.6678210623
  0
LINE
  5
7A7
100
AcDbEntity
  8
ASSI
100
AcDbLine
 62
7
  6
CONTINUOUS
 10
9.5161863637
 20
21.7497880083
 11
7.1802792876
 21
21.7497880083
  0
LINE
  5
7A8
100
AcDbEntity
  8
DRAFT
100
AcDbLine
 62
7
  6
CONTINUOUS
 10
9.5161863637
 20
21.7497880083
 11
7.1802792876
 21
21.7497880083
  0
LINE
  5
7A9
100
AcDbEntity
  8
ASSI
100
AcDbLine
 62
7
  6
CONTINUOUS
 10
-7.5857910714
 20
21.7497880083
 11
-9.9216981474
 21
21.7497880083
  0
LINE
  5
7AA
100
AcDbEntity
  8
DRAFT
100
AcDbLine
 62
7
  6
CONTINUOUS
 10
-7.5857910714
 20
21.7497880083
 11
-9.9216981474
 21
21.7497880083
  0
LINE
  5
7AB
100
AcDbEntity
  8
ASSI
100
AcDbLine
 62
7
  6
CONTINUOUS
 10
-7.0696179351
 20
22.0146230342
 11
-3.9527558919
 21
22.0146230342
  0
LINE
  5
7AC
100
AcDbEntity
  8
DRAFT
100
AcDbLine
 62
7
  6
CONTINUOUS
 10
-7.0696179351
 20
22.0146230342
 11
-3.9527558919
 21
22.0146230342
  0
LINE
  5
7AD
100
AcDbEntity
  8
ASSI
100
AcDbLine
 62
7
  6
CONTINUOUS
 10
3.5472441081
 20
22.0146230342
 11
6.6641061513
 21
22.0146230342
  0
LINE
  5
7AE
100
AcDbEntity
  8
DRAFT
100
AcDbLine
 62
7
  6
CONTINUOUS
 10
3.5472441081
 20
22.0146230342
 11
6.6641061513
 21
22.0146230342
  0
LINE
  5
7AF
100
AcDbEntity
  8
ASSI
100
AcDbLine
 62
7
  6
CONTINUOUS
 10
-7.1366757203
 20
22.0497880083
 11
6.7311639365
 21
22.0497880083
  0
LINE
  5
7B0
100
AcDbEntity
  8
DRAFT
100
AcDbLine
 62
7
  6
CONTINUOUS
 10
-7.1366757203
 20
22.0497880083
 11
6.7311639365
 21
22.0497880083
  0
LINE
  5
7B1
100
AcDbEntity
  8
ASSI
100
AcDbLine
 62
7
  6
CONTINUOUS
 10
-3.2027558919
 20
24.3497880083
 11
-2.9840342331
 21
24.306150346
  0
LINE
  5
7B2
100
AcDbEntity
  8
DRAFT
100
AcDbLine
 62
7
  6
CONTINUOUS
 10
-3.2027558919
 20
24.3497880083
 11
-2.9840342331
 21
24.306150346
  0
LINE
  5
7B3
100
AcDbEntity
  8
ASSI
100
AcDbLine
 62
7
  6
CONTINUOUS
 10
2.8972441081
 20
23.0497880083
 11
-3.3027558919
 21
23.0497880083
  0
LINE
  5
7B4
100
AcDbEntity
  8
0
100
AcDbLine
 62
7
  6
CONTINUOUS
 10
2.8972441081
 20
23.0497880083
 11
-3.3027558919
 21
23.0497880083
  0
LINE
  5
7B5
100
AcDbEntity
  8
ASSI
100
AcDbLine
 62
7
  6
CONTINUOUS
 10
10.4476247078
 20
23.2497880083
 11
5.3472441081
 21
23.2497880083
  0
LINE
  5
7B6
100
AcDbEntity
  8
DRAFT
100
AcDbLine
 62
7
  6
CONTINUOUS
 10
10.4476247078
 20
23.2497880083
 11
5.3472441081
 21
23.2497880083
  0
LINE
  5
7B7
100
AcDbEntity
  8
ASSI
100
AcDbLine
 62
7
  6
CONTINUOUS
 10
-5.7527558919
 20
23.2497880083
 11
-10.8531364916
 21
23.2497880083
  0
LINE
  5
7B8
100
AcDbEntity
  8
DRAFT
100
AcDbLine
 62
7
  6
CONTINUOUS
 10
-5.7527558919
 20
23.2497880083
 11
-10.8531364916
 21
23.2497880083
  0
LINE
  5
7B9
100
AcDbEntity
  8
ASSI
100
AcDbLine
 62
7
  6
CONTINUOUS
 10
3.7499286626
 20
24.2799677486
 11
-4.1554404464
 21
24.2799677486
  0
LINE
  5
7BA
100
AcDbEntity
  8
DRAFT
100
AcDbLine
 62
7
  6
CONTINUOUS
 10
3.7499286626
 20
24.2799677486
 11
-4.1554404464
 21
24.2799677486
  0
LINE
  5
7BB
100
AcDbEntity
  8
ASSI
100
AcDbLine
 62
7
  6
CONTINUOUS
 10
-2.9840342331
 20
24.306150346
 11
2.5785224493
 21
24.306150346
  0
LINE
  5
7BC
100
AcDbEntity
  8
DRAFT
100
AcDbLine
 62
7
  6
CONTINUOUS
 10
-2.9840342331
 20
24.306150346
 11
2.5785224493
 21
24.306150346
  0
LINE
  5
7BD
100
AcDbEntity
  8
ASSI
100
AcDbLine
 62
7
  6
CONTINUOUS
 10
3.7705814557
 20
24.3497880083
 11
2.7972441081
 21
24.3497880083
  0
LINE
  5
7BE
100
AcDbEntity
  8
DRAFT
100
AcDbLine
 62
7
  6
CONTINUOUS
 10
3.7705814557
 20
24.3497880083
 11
2.7972441081
 21
24.3497880083
  0
LINE
  5
7BF
100
AcDbEntity
  8
ASSI
100
AcDbLine
 62
7
  6
CONTINUOUS
 10
-3.2027558919
 20
24.3497880083
 11
-4.1760932395
 21
24.3497880083
  0
LINE
  5
7C0
100
AcDbEntity
  8
DRAFT
100
AcDbLine
 62
7
  6
CONTINUOUS
 10
-3.2027558919
 20
24.3497880083
 11
-4.1760932395
 21
24.3497880083
  0
LINE
  5
7C1
100
AcDbEntity
  8
ASSI
100
AcDbLine
 62
7
  6
CONTINUOUS
 10
2.7972441081
 20
24.3497880083
 11
2.5785224493
 21
24.306150346
  0
LINE
  5
7C2
100
AcDbEntity
  8
DRAFT
100
AcDbLine
 62
7
  6
CONTINUOUS
 10
2.7972441081
 20
24.3497880083
 11
2.5785224493
 21
24.306150346
  0
ARC
  5
7C3
100
AcDbEntity
  8
0
100
AcDbCircle
 62
7
  6
CONTINUOUS
 10
-4.3527558919
 20
-6.8752119917
 40
1.625
100
AcDbArc
 50
202.619864948
 51
252.0797868606
  0
ARC
  5
7C4
100
AcDbEntity
  8
0
100
AcDbCircle
 62
7
  6
CONTINUOUS
 10
-4.3527558919
 20
-6.8752119917
 40
1.625
100
AcDbArc
 50
287.9202131394
 51
337.380135052
  0
ARC
  5
7C5
100
AcDbEntity
  8
ASSI
100
AcDbCircle
 62
7
  6
CONTINUOUS
 10
-5.1527558919
 20
-22.2502119917
 40
0.5
100
AcDbArc
 50
350.803718421
 51
358.9601166683
  0
ARC
  5
7C6
100
AcDbEntity
  8
ASSI
100
AcDbCircle
 62
7
  6
CONTINUOUS
 10
-5.1527558919
 20
-22.2502119917
 40
0.5
100
AcDbArc
 50
0.0125506627
 51
119.112422776
  0
ARC
  5
7C7
100
AcDbEntity
  8
DRAFT
100
AcDbCircle
 62
7
  6
CONTINUOUS
 10
-5.1527558919
 20
-22.2502119917
 40
0.5
100
AcDbArc
 50
110.9560269578
 51
119.112422776
  0
ARC
  5
7C8
100
AcDbEntity
  8
DRAFT
100
AcDbCircle
 62
7
  6
CONTINUOUS
 10
-5.1527558919
 20
-22.2502119917
 40
0.5
100
AcDbArc
 50
350.803718421
 51
109.9035905342
  0
ARC
  5
7C9
100
AcDbEntity
  8
RACCORDO
100
AcDbCircle
 62
7
  6
CONTINUOUS
 10
-1.2527558919
 20
-7.8460159965
 40
0.3
100
AcDbArc
 50
0.0
 51
80.4059317731
  0
ARC
  5
7CA
100
AcDbEntity
  8
RACCORDO
100
AcDbCircle
 62
7
  6
CONTINUOUS
 10
-2.7527558919
 20
-7.8460159965
 40
0.3
100
AcDbArc
 50
0.0
 51
80.4059317731
  0
ARC
  5
7CB
100
AcDbEntity
  8
RACCORDO
100
AcDbCircle
 62
7
  6
CONTINUOUS
 10
-1.1527558919
 20
-7.8460159965
 40
0.3
100
AcDbArc
 50
99.5940682269
 51
180.0
  0
ARC
  5
7CC
100
AcDbEntity
  8
RACCORDO
100
AcDbCircle
 62
7
  6
CONTINUOUS
 10
-2.6527558919
 20
-7.8460159965
 40
0.3
100
AcDbArc
 50
99.5940682269
 51
180.0
  0
ARC
  5
7CD
100
AcDbEntity
  8
ASSI
100
AcDbCircle
 62
7
  6
CONTINUOUS
 10
-11.4527558919
 20
0.8497880083
 40
28.0
100
AcDbArc
 50
55.8789063483
 51
57.0647695028
  0
ARC
  5
7CE
100
AcDbEntity
  8
ASSI
100
AcDbCircle
 62
7
  6
CONTINUOUS
 10
-11.4527558919
 20
0.8497880083
 40
28.0
100
AcDbArc
 50
302.9352304972
 51
304.1210936517
  0
ARC
  5
7CF
100
AcDbEntity
  8
ASSI
100
AcDbCircle
 62
7
  6
CONTINUOUS
 10
-11.4527558919
 20
0.8497880083
 40
28.0
100
AcDbArc
 50
48.2819495688
 51
54.0372348486
  0
ARC
  5
7D0
100
AcDbEntity
  8
ASSI
100
AcDbCircle
 62
7
  6
CONTINUOUS
 10
-11.4527558919
 20
0.8497880083
 40
28.0
100
AcDbArc
 50
305.9627651514
 51
311.7180504312
  0
ARC
  5
7D1
100
AcDbEntity
  8
DRAFT
100
AcDbCircle
 62
7
  6
CONTINUOUS
 10
-11.4527558919
 20
0.8497880083
 40
28.0
100
AcDbArc
 50
55.8789063483
 51
57.0647695028
  0
ARC
  5
7D2
100
AcDbEntity
  8
DRAFT
100
AcDbCircle
 62
7
  6
CONTINUOUS
 10
-11.4527558919
 20
0.8497880083
 40
28.0
100
AcDbArc
 50
302.9352304972
 51
304.1210936517
  0
ARC
  5
7D3
100
AcDbEntity
  8
DRAFT
100
AcDbCircle
 62
7
  6
CONTINUOUS
 10
-11.4527558919
 20
0.8497880083
 40
28.0
100
AcDbArc
 50
305.9627651514
 51
311.7180504312
  0
ARC
  5
7D4
100
AcDbEntity
  8
DRAFT
100
AcDbCircle
 62
7
  6
CONTINUOUS
 10
-11.4527558919
 20
0.8497880083
 40
28.0
100
AcDbArc
 50
48.2819495688
 51
54.0372348486
  0
ARC
  5
7D5
100
AcDbEntity
  8
ASSI
100
AcDbCircle
 62
7
  6
CONTINUOUS
 10
-11.4527558919
 20
0.8497880083
 40
27.9301797403
100
AcDbArc
 50
305.881601122
 51
310.6207502002
  0
ARC
  5
7D6
100
AcDbEntity
  8
ASSI
100
AcDbCircle
 62
7
  6
CONTINUOUS
 10
-11.4527558919
 20
0.8497880083
 40
27.9301797403
100
AcDbArc
 50
302.9775446409
 51
304.2022576811
  0
ARC
  5
7D7
100
AcDbEntity
  8
ASSI
100
AcDbCircle
 62
7
  6
CONTINUOUS
 10
-11.4527558919
 20
0.8497880083
 40
27.9301797403
100
AcDbArc
 50
55.7977423189
 51
57.0224553591
  0
ARC
  5
7D8
100
AcDbEntity
  8
ASSI
100
AcDbCircle
 62
7
  6
CONTINUOUS
 10
-11.4527558919
 20
0.8497880083
 40
27.9301797403
100
AcDbArc
 50
49.3792497998
 51
54.118398878
  0
ARC
  5
7D9
100
AcDbEntity
  8
DRAFT
100
AcDbCircle
 62
7
  6
CONTINUOUS
 10
-11.4527558919
 20
0.8497880083
 40
27.9301797403
100
AcDbArc
 50
49.3792497998
 51
54.118398878
  0
ARC
  5
7DA
100
AcDbEntity
  8
DRAFT
100
AcDbCircle
 62
7
  6
CONTINUOUS
 10
-11.4527558919
 20
0.8497880083
 40
27.9301797403
100
AcDbArc
 50
55.7977423189
 51
57.0224553591
  0
ARC
  5
7DB
100
AcDbEntity
  8
DRAFT
100
AcDbCircle
 62
7
  6
CONTINUOUS
 10
-11.4527558919
 20
0.8497880083
 40
27.9301797403
100
AcDbArc
 50
305.881601122
 51
310.6207502002
  0
ARC
  5
7DC
100
AcDbEntity
  8
DRAFT
100
AcDbCircle
 62
7
  6
CONTINUOUS
 10
-11.4527558919
 20
0.8497880083
 40
27.9301797403
100
AcDbArc
 50
302.9775446409
 51
304.2022576811
  0
ARC
  5
7DD
100
AcDbEntity
  8
ASSI
100
AcDbCircle
 62
7
  6
CONTINUOUS
 10
-5.1527558919
 20
23.9497880083
 40
0.5
100
AcDbArc
 50
250.0964094658
 51
9.1962815791
  0
ARC
  5
7DE
100
AcDbEntity
  8
ASSI
100
AcDbCircle
 62
7
  6
CONTINUOUS
 10
-5.1527558919
 20
23.9497880083
 40
0.5
100
AcDbArc
 50
240.887577224
 51
249.0439754715
  0
ARC
  5
7DF
100
AcDbEntity
  8
DRAFT
100
AcDbCircle
 62
7
  6
CONTINUOUS
 10
-5.1527558919
 20
23.9497880083
 40
0.5
100
AcDbArc
 50
240.887577224
 51
359.9874493373
  0
ARC
  5
7E0
100
AcDbEntity
  8
DRAFT
100
AcDbCircle
 62
7
  6
CONTINUOUS
 10
-5.1527558919
 20
23.9497880083
 40
0.5
100
AcDbArc
 50
1.0398857609
 51
9.1962815791
  0
ARC
  5
7E1
100
AcDbEntity
  8
0
100
AcDbCircle
 62
7
  6
CONTINUOUS
 10
3.9472441081
 20
-6.8752119917
 40
1.625
100
AcDbArc
 50
287.9202131394
 51
337.380135052
  0
ARC
  5
7E2
100
AcDbEntity
  8
0
100
AcDbCircle
 62
7
  6
CONTINUOUS
 10
3.9472441081
 20
-6.8752119917
 40
1.625
100
AcDbArc
 50
202.619864948
 51
252.0797868606
  0
ARC
  5
7E3
100
AcDbEntity
  8
ASSI
100
AcDbCircle
 62
7
  6
CONTINUOUS
 10
4.7472441081
 20
-22.2502119917
 40
0.5
100
AcDbArc
 50
70.0964094658
 51
189.196281579
  0
ARC
  5
7E4
100
AcDbEntity
  8
ASSI
100
AcDbCircle
 62
7
  6
CONTINUOUS
 10
4.7472441081
 20
-22.2502119917
 40
0.5
100
AcDbArc
 50
60.887577224
 51
69.0439754714
  0
ARC
  5
7E5
100
AcDbEntity
  8
DRAFT
100
AcDbCircle
 62
7
  6
CONTINUOUS
 10
4.7472441081
 20
-22.2502119917
 40
0.5
100
AcDbArc
 50
60.887577224
 51
179.9874493373
  0
ARC
  5
7E6
100
AcDbEntity
  8
DRAFT
100
AcDbCircle
 62
7
  6
CONTINUOUS
 10
4.7472441081
 20
-22.2502119917
 40
0.5
100
AcDbArc
 50
181.0398857609
 51
189.196281579
  0
ARC
  5
7E7
100
AcDbEntity
  8
RACCORDO
100
AcDbCircle
 62
7
  6
CONTINUOUS
 10
0.2472441081
 20
-7.8460159965
 40
0.3
100
AcDbArc
 50
0.0
 51
73.705437915
  0
ARC
  5
7E8
100
AcDbEntity
  8
RACCORDO
100
AcDbCircle
 62
7
  6
CONTINUOUS
 10
1.8472441081
 20
-7.8460159965
 40
0.3
100
AcDbArc
 50
103.048485464
 51
180.0
  0
ARC
  5
7E9
100
AcDbEntity
  8
RACCORDO
100
AcDbCircle
 62
7
  6
CONTINUOUS
 10
1.7472441081
 20
-7.8460159965
 40
0.3
100
AcDbArc
 50
0.0
 51
80.4059317731
  0
ARC
  5
7EA
100
AcDbEntity
  8
RACCORDO
100
AcDbCircle
 62
7
  6
CONTINUOUS
 10
0.3472441081
 20
-7.8460159965
 40
0.3
100
AcDbArc
 50
99.5940682269
 51
180.0
  0
ARC
  5
7EB
100
AcDbEntity
  8
ASSI
100
AcDbCircle
 62
7
  6
CONTINUOUS
 10
4.7472441081
 20
23.9497880083
 40
0.5
100
AcDbArc
 50
170.803718421
 51
178.9601166684
  0
ARC
  5
7EC
100
AcDbEntity
  8
ASSI
100
AcDbCircle
 62
7
  6
CONTINUOUS
 10
4.7472441081
 20
23.9497880083
 40
0.5
100
AcDbArc
 50
180.0125506627
 51
299.112422776
  0
ARC
  5
7ED
100
AcDbEntity
  8
DRAFT
100
AcDbCircle
 62
7
  6
CONTINUOUS
 10
4.7472441081
 20
23.9497880083
 40
0.5
100
AcDbArc
 50
290.9560269578
 51
299.112422776
  0
ARC
  5
7EE
100
AcDbEntity
  8
DRAFT
100
AcDbCircle
 62
7
  6
CONTINUOUS
 10
4.7472441081
 20
23.9497880083
 40
0.5
100
AcDbArc
 50
170.803718421
 51
289.9035905342
  0
ARC
  5
7EF
100
AcDbEntity
  8
ASSI
100
AcDbCircle
 62
7
  6
CONTINUOUS
 10
11.0472441081
 20
0.8497880083
 40
28.0
100
AcDbArc
 50
122.9352304972
 51
124.1210936517
  0
ARC
  5
7F0
100
AcDbEntity
  8
ASSI
100
AcDbCircle
 62
7
  6
CONTINUOUS
 10
11.0472441081
 20
0.8497880083
 40
28.0
100
AcDbArc
 50
235.8789063483
 51
237.0647695028
  0
ARC
  5
7F1
100
AcDbEntity
  8
ASSI
100
AcDbCircle
 62
7
  6
CONTINUOUS
 10
11.0472441081
 20
0.8497880083
 40
28.0
100
AcDbArc
 50
228.2819495688
 51
234.0372348486
  0
ARC
  5
7F2
100
AcDbEntity
  8
ASSI
100
AcDbCircle
 62
7
  6
CONTINUOUS
 10
11.0472441081
 20
0.8497880083
 40
28.0
100
AcDbArc
 50
125.9627651514
 51
131.7180504312
  0
ARC
  5
7F3
100
AcDbEntity
  8
DRAFT
100
AcDbCircle
 62
7
  6
CONTINUOUS
 10
11.0472441081
 20
0.8497880083
 40
28.0
100
AcDbArc
 50
122.9352304972
 51
124.1210936517
  0
ARC
  5
7F4
100
AcDbEntity
  8
DRAFT
100
AcDbCircle
 62
7
  6
CONTINUOUS
 10
11.0472441081
 20
0.8497880083
 40
28.0
100
AcDbArc
 50
235.8789063483
 51
237.0647695028
  0
ARC
  5
7F5
100
AcDbEntity
  8
DRAFT
100
AcDbCircle
 62
7
  6
CONTINUOUS
 10
11.0472441081
 20
0.8497880083
 40
28.0
100
AcDbArc
 50
228.2819495688
 51
234.0372348486
  0
ARC
  5
7F6
100
AcDbEntity
  8
DRAFT
100
AcDbCircle
 62
7
  6
CONTINUOUS
 10
11.0472441081
 20
0.8497880083
 40
28.0
100
AcDbArc
 50
125.9627651514
 51
131.7180504312
  0
ARC
  5
7F7
100
AcDbEntity
  8
ASSI
100
AcDbCircle
 62
7
  6
CONTINUOUS
 10
11.0472441081
 20
0.8497880083
 40
27.9301797403
100
AcDbArc
 50
235.7977423189
 51
237.0224553591
  0
ARC
  5
7F8
100
AcDbEntity
  8
ASSI
100
AcDbCircle
 62
7
  6
CONTINUOUS
 10
11.0472441081
 20
0.8497880083
 40
27.9301797403
100
AcDbArc
 50
229.3792497998
 51
234.118398878
  0
ARC
  5
7F9
100
AcDbEntity
  8
ASSI
100
AcDbCircle
 62
7
  6
CONTINUOUS
 10
11.0472441081
 20
0.8497880083
 40
27.9301797403
100
AcDbArc
 50
122.9775446409
 51
124.2022576811
  0
ARC
  5
7FA
100
AcDbEntity
  8
ASSI
100
AcDbCircle
 62
7
  6
CONTINUOUS
 10
11.0472441081
 20
0.8497880083
 40
27.9301797403
100
AcDbArc
 50
125.881601122
 51
130.6207502002
  0
ARC
  5
7FB
100
AcDbEntity
  8
DRAFT
100
AcDbCircle
 62
7
  6
CONTINUOUS
 10
11.0472441081
 20
0.8497880083
 40
27.9301797403
100
AcDbArc
 50
125.881601122
 51
130.6207502002
  0
ARC
  5
7FC
100
AcDbEntity
  8
DRAFT
100
AcDbCircle
 62
7
  6
CONTINUOUS
 10
11.0472441081
 20
0.8497880083
 40
27.9301797403
100
AcDbArc
 50
122.9775446409
 51
124.2022576811
  0
ARC
  5
7FD
100
AcDbEntity
  8
DRAFT
100
AcDbCircle
 62
7
  6
CONTINUOUS
 10
11.0472441081
 20
0.8497880083
 40
27.9301797403
100
AcDbArc
 50
235.7977423189
 51
237.0224553591
  0
ARC
  5
7FE
100
AcDbEntity
  8
DRAFT
100
AcDbCircle
 62
7
  6
CONTINUOUS
 10
11.0472441081
 20
0.8497880083
 40
27.9301797403
100
AcDbArc
 50
229.3792497998
 51
234.118398878
  0
LINE
  5
7FF
100
AcDbEntity
  8
ASSI
100
AcDbLine
 62
7
  6
CONTINUOUS
 10
3.7705814557
 20
-22.6502119917
 11
3.7499286626
 21
-22.580391732
  0
LINE
  5
800
100
AcDbEntity
  8
ASSI
100
AcDbLine
 62
7
  6
CONTINUOUS
 10
7.0352915814
 20
-19.9851300504
 11
7.1802792876
 21
-20.0502119917
  0
LINE
  5
801
100
AcDbEntity
  8
ASSI
100
AcDbLine
 62
7
  6
CONTINUOUS
 10
6.7311639365
 20
-20.3502119917
 11
6.6641061513
 21
-20.3150470176
  0
LINE
  5
802
100
AcDbEntity
  8
ASSI
100
AcDbLine
 62
7
  6
CONTINUOUS
 10
-7.0696179351
 20
-20.3150470176
 11
-7.1366757203
 21
-20.3502119917
  0
LINE
  5
803
100
AcDbEntity
  8
ASSI
100
AcDbLine
 62
7
  6
CONTINUOUS
 10
-4.1760932395
 20
-22.6502119917
 11
-4.1554404464
 21
-22.580391732
  0
LINE
  5
804
100
AcDbEntity
  8
ASSI
100
AcDbLine
 62
7
  6
CONTINUOUS
 10
-7.4408033652
 20
-19.9851300504
 11
-7.5857910714
 21
-20.0502119917
  0
LINE
  5
805
100
AcDbEntity
  8
ASSI
100
AcDbLine
 62
7
  6
CONTINUOUS
 10
6.7311639365
 20
22.0497880083
 11
6.6641061513
 21
22.0146230342
  0
LINE
  5
806
100
AcDbEntity
  8
ASSI
100
AcDbLine
 62
7
  6
CONTINUOUS
 10
3.7705814557
 20
24.3497880083
 11
3.7499286626
 21
24.2799677486
  0
LINE
  5
807
100
AcDbEntity
  8
ASSI
100
AcDbLine
 62
7
  6
CONTINUOUS
 10
-4.1760932395
 20
24.3497880083
 11
-4.1554404464
 21
24.2799677486
  0
LINE
  5
808
100
AcDbEntity
  8
ASSI
100
AcDbLine
 62
7
  6
CONTINUOUS
 10
-7.4408033652
 20
21.6847060671
 11
-7.5857910714
 21
21.7497880083
  0
LINE
  5
809
100
AcDbEntity
  8
ASSI
100
AcDbLine
 62
7
  6
CONTINUOUS
 10
-7.1366757203
 20
22.0497880083
 11
-7.0696179351
 21
22.0146230342
  0
LINE
  5
80A
100
AcDbEntity
  8
ASSI
100
AcDbLine
 62
7
  6
CONTINUOUS
 10
7.1802792876
 20
21.7497880083
 11
7.0352915814
 21
21.6847060671
  0
SPLINE
  5
80B
100
AcDbEntity
  8
RACCORDO
100
AcDbSpline
 62
7
  6
CONTINUOUS
 70
0
 71
3
 72
23
 73
19
 74
17
 42
0.0000001
 43
0.0000001
 44
0.0000000001
 12
-0.1789146451
 22
-1.0172025296
 32
0.0
 13
0.0
 23
-1.0328172329
 33
0.0
 40
0.0
 40
0.0
 40
0.0
 40
0.0
 40
0.0026622084
 40
0.0086183549
 40
0.0177869048
 40
0.0300627081
 40
0.0453067114
 40
0.0633198407
 40
0.1068279398
 40
0.1589847436
 40
0.2182943243
 40
0.2834361317
 40
0.3533191056
 40
0.5038697501
 40
0.6644966434
 40
0.7473778792
 40
0.8314692803
 40
1.0
 40
1.0
 40
1.0
 40
1.0
 10
-9.0636715709
 20
10.9887052322
 30
0.0
 10
-9.0638303403
 20
10.9878025638
 30
0.0
 10
-9.0659585717
 20
10.9854653655
 30
0.0
 10
-9.0695554458
 20
10.980691328
 30
0.0
 10
-9.0759357885
 20
10.9736296054
 30
0.0
 10
-9.0843405164
 20
10.9642474858
 30
0.0
 10
-9.0949791382
 20
10.9527165432
 30
0.0
 10
-9.1129709335
 20
10.9333662039
 30
0.0
 10
-9.1397964461
 20
10.9048646882
 30
0.0
 10
-9.1764709198
 20
10.8661165377
 30
0.0
 10
-9.218316089
 20
10.8220051306
 30
0.0
 10
-9.264338253
 20
10.7734437476
 30
0.0
 10
-9.3318383698
 20
10.7019686194
 30
0.0
 10
-9.4214469706
 20
10.60608802
 30
0.0
 10
-9.5124240856
 20
10.5056613909
 30
0.0
 10
-9.5855418526
 20
10.4192708715
 30
0.0
 10
-9.655107879
 20
10.3289699082
 30
0.0
 10
-9.7027558919
 20
10.2469717592
 30
0.0
 10
-9.7027558919
 20
10.188951282
 30
0.0
 11
-9.0636715709
 21
10.9887052322
 31
0.0
 11
-9.065108384
 21
10.9863609351
 31
0.0
 11
-9.0689776874
 21
10.9815785919
 31
0.0
 11
-9.0751974681
 21
10.9744382452
 31
0.0
 11
-9.0836855314
 21
10.9650201121
 31
0.0
 11
-9.0943372245
 21
10.9534259993
 31
0.0
 11
-9.1070040267
 21
10.9397998847
 31
0.0
 11
-9.1377688093
 21
10.9070467999
 31
0.0
 11
-9.1747852891
 21
10.8679112703
 31
0.0
 11
-9.2169308675
 21
10.8234585708
 31
0.0
 11
-9.2632011781
 21
10.7746159622
 31
0.0
 11
-9.3127445378
 21
10.7221290161
 31
0.0
 11
-9.418765453
 21
10.608387599
 31
0.0
 11
-9.5295597011
 21
10.4849094425
 31
0.0
 11
-9.584619914
 21
10.419366075
 31
0.0
 11
-9.6370751238
 21
10.3501450122
 31
0.0
 11
-9.7027558919
 21
10.188951282
 31
0.0
  0
SPLINE
  5
80C
100
AcDbEntity
  8
RACCORDO
100
AcDbSpline
 62
7
  6
CONTINUOUS
 70
0
 71
3
 72
23
 73
19
 74
17
 42
0.0000001
 43
0.0000001
 44
0.0000000001
 12
0.0
 22
-1.0328164324
 32
0.0
 13
0.1789145065
 23
-1.0172017413
 33
0.0
 40
0.0
 40
0.0
 40
0.0
 40
0.0
 40
0.1685404696
 40
0.2526309301
 40
0.3355105493
 40
0.4961336079
 40
0.6466794754
 40
0.7165602731
 40
0.7816999107
 40
0.8410086609
 40
0.8931645313
 40
0.9366752023
 40
0.9546894121
 40
0.9699335553
 40
0.9822092014
 40
0.991379105
 40
0.9973369701
 40
1.0
 40
1.0
 40
1.0
 40
1.0
 10
-9.7027558919
 20
13.6106247347
 30
0.0
 10
-9.7027558919
 20
13.5526009458
 30
0.0
 10
-9.6551005729
 20
13.4706025487
 30
0.0
 10
-9.5855366457
 20
13.3802972922
 30
0.0
 10
-9.5124183075
 20
13.2939101261
 30
0.0
 10
-9.4214448703
 20
13.1934851771
 30
0.0
 10
-9.3318384721
 20
13.0976077011
 30
0.0
 10
-9.2643406989
 20
13.0261347897
 30
0.0
 10
-9.2183197328
 20
12.9775747972
 30
0.0
 10
-9.1764755861
 20
12.9334643519
 30
0.0
 10
-9.1398009122
 20
12.8947160651
 30
0.0
 10
-9.1129747456
 20
12.8662139199
 30
0.0
 10
-9.0949820342
 20
12.8468626799
 30
0.0
 10
-9.084343175
 20
12.8353314707
 30
0.0
 10
-9.075938273
 20
12.8259489113
 30
0.0
 10
-9.069557162
 20
12.8188864994
 30
0.0
 10
-9.0659595811
 20
12.8141114152
 30
0.0
 10
-9.0638303891
 20
12.8117737306
 30
0.0
 10
-9.0636715709
 20
12.8108707844
 30
0.0
 11
-9.7027558919
 21
13.6106247347
 31
0.0
 11
-9.6370674598
 21
13.4494233992
 31
0.0
 11
-9.5846138731
 21
13.3802024098
 31
0.0
 11
-9.5295541719
 21
13.3146608797
 31
0.0
 11
-9.4187628262
 21
13.1911856128
 31
0.0
 11
-9.3127453425
 21
13.0774479068
 31
0.0
 11
-9.2632036002
 21
13.0249626016
 31
0.0
 11
-9.2169348501
 21
12.9761216734
 31
0.0
 11
-9.1747899166
 21
12.9316696099
 31
0.0
 11
-9.137774102
 21
12.8925348356
 31
0.0
 11
-9.1070074795
 21
12.8597798824
 31
0.0
 11
-9.0943399055
 21
12.8461529813
 31
0.0
 11
-9.0836881504
 21
12.8345587459
 31
0.0
 11
-9.0752002638
 21
12.8251406854
 31
0.0
 11
-9.0689795371
 21
12.8179993182
 31
0.0
 11
-9.0651089972
 21
12.8132156984
 31
0.0
 11
-9.0636715709
 21
12.8108707844
 31
0.0
  0
SPLINE
  5
80D
100
AcDbEntity
  8
RACCORDO
100
AcDbSpline
 62
7
  6
CONTINUOUS
 70
0
 71
3
 72
23
 73
19
 74
17
 42
0.0000001
 43
0.0000001
 44
0.0000000001
 12
0.1789146451
 22
1.0172025296
 32
0.0
 13
-0.0
 23
1.0328172329
 33
0.0
 40
0.0
 40
0.0
 40
0.0
 40
0.0
 40
0.0026622084
 40
0.0086183549
 40
0.0177869048
 40
0.0300627081
 40
0.0453067114
 40
0.0633198407
 40
0.1068279398
 40
0.1589847436
 40
0.2182943243
 40
0.2834361317
 40
0.3533191056
 40
0.5038697501
 40
0.6644966434
 40
0.7473778792
 40
0.8314692803
 40
1.0
 40
1.0
 40
1.0
 40
1.0
 10
8.6581597871
 20
12.8108707844
 30
0.0
 10
8.6583185565
 20
12.8117734528
 30
0.0
 10
8.6604467879
 20
12.8141106512
 30
0.0
 10
8.664043662
 20
12.8188846887
 30
0.0
 10
8.6704240048
 20
12.8259464113
 30
0.0
 10
8.6788287326
 20
12.8353285309
 30
0.0
 10
8.6894673544
 20
12.8468594734
 30
0.0
 10
8.7074591497
 20
12.8662098127
 30
0.0
 10
8.7342846623
 20
12.8947113284
 30
0.0
 10
8.770959136
 20
12.933459479
 30
0.0
 10
8.8128043052
 20
12.977570886
 30
0.0
 10
8.8588264693
 20
13.026132269
 30
0.0
 10
8.926326586
 20
13.0976073972
 30
0.0
 10
9.0159351868
 20
13.1934879966
 30
0.0
 10
9.1069123018
 20
13.2939146258
 30
0.0
 10
9.1800300688
 20
13.3803051451
 30
0.0
 10
9.2495960952
 20
13.4706061084
 30
0.0
 10
9.2972441081
 20
13.5526042575
 30
0.0
 10
9.2972441081
 20
13.6106247347
 30
0.0
 11
8.6581597871
 21
12.8108707844
 31
0.0
 11
8.6595966003
 21
12.8132150815
 31
0.0
 11
8.6634659036
 21
12.8179974247
 31
0.0
 11
8.6696856843
 21
12.8251377715
 31
0.0
 11
8.6781737476
 21
12.8345559046
 31
0.0
 11
8.6888254407
 21
12.8461500174
 31
0.0
 11
8.701492243
 21
12.859776132
 31
0.0
 11
8.7322570255
 21
12.8925292168
 31
0.0
 11
8.7692735053
 21
12.9316647463
 31
0.0
 11
8.8114190837
 21
12.9761174458
 31
0.0
 11
8.8576893943
 21
13.0249600544
 31
0.0
 11
8.907232754
 21
13.0774470006
 31
0.0
 11
9.0132536692
 21
13.1911884176
 31
0.0
 11
9.1240479173
 21
13.3146665742
 31
0.0
 11
9.1791081303
 21
13.3802099416
 31
0.0
 11
9.23156334
 21
13.4494310044
 31
0.0
 11
9.2972441081
 21
13.6106247347
 31
0.0
  0
SPLINE
  5
80E
100
AcDbEntity
  8
RACCORDO
100
AcDbSpline
 62
7
  6
CONTINUOUS
 70
0
 71
3
 72
23
 73
19
 74
17
 42
0.0000001
 43
0.0000001
 44
0.0000000001
 12
0.0
 22
1.0328164324
 32
0.0
 13
-0.1789145065
 23
1.0172017413
 33
0.0
 40
0.0
 40
0.0
 40
0.0
 40
0.0
 40
0.1685404696
 40
0.2526309301
 40
0.3355105493
 40
0.4961336079
 40
0.6466794754
 40
0.7165602731
 40
0.7816999107
 40
0.8410086609
 40
0.8931645313
 40
0.9366752023
 40
0.9546894121
 40
0.9699335553
 40
0.9822092014
 40
0.991379105
 40
0.9973369701
 40
1.0
 40
1.0
 40
1.0
 40
1.0
 10
9.2972441081
 20
10.188951282
 30
0.0
 10
9.2972441081
 20
10.2469750708
 30
0.0
 10
9.2495887891
 20
10.3289734679
 30
0.0
 10
9.1800248619
 20
10.4192787244
 30
0.0
 10
9.1069065237
 20
10.5056658905
 30
0.0
 10
9.0159330865
 20
10.6060908395
 30
0.0
 10
8.9263266883
 20
10.7019683155
 30
0.0
 10
8.8588289152
 20
10.773441227
 30
0.0
 10
8.812807949
 20
10.8220012194
 30
0.0
 10
8.7709638023
 20
10.8661116647
 30
0.0
 10
8.7342891284
 20
10.9048599515
 30
0.0
 10
8.7074629618
 20
10.9333620968
 30
0.0
 10
8.6894702504
 20
10.9527133367
 30
0.0
 10
8.6788313912
 20
10.9642445459
 30
0.0
 10
8.6704264892
 20
10.9736271054
 30
0.0
 10
8.6640453782
 20
10.9806895173
 30
0.0
 10
8.6604477973
 20
10.9854646015
 30
0.0
 10
8.6583186053
 20
10.987802286
 30
0.0
 10
8.6581597871
 20
10.9887052322
 30
0.0
 11
9.2972441081
 21
10.188951282
 31
0.0
 11
9.231555676
 21
10.3501526174
 31
0.0
 11
9.1791020893
 21
10.4193736069
 31
0.0
 11
9.1240423881
 21
10.4849151369
 31
0.0
 11
9.0132510424
 21
10.6083904038
 31
0.0
 11
8.9072335587
 21
10.7221281099
 31
0.0
 11
8.8576918164
 21
10.774613415
 31
0.0
 11
8.8114230663
 21
10.8234543433
 31
0.0
 11
8.7692781328
 21
10.8679064067
 31
0.0
 11
8.7322623182
 21
10.9070411811
 31
0.0
 11
8.7014956957
 21
10.9397961342
 31
0.0
 11
8.6888281217
 21
10.9534230353
 31
0.0
 11
8.6781763666
 21
10.9650172707
 31
0.0
 11
8.66968848
 21
10.9744353312
 31
0.0
 11
8.6634677533
 21
10.9815766985
 31
0.0
 11
8.6595972134
 21
10.9863603182
 31
0.0
 11
8.6581597871
 21
10.9887052322
 31
0.0
  0
SPLINE
  5
80F
100
AcDbEntity
  8
ASSI
100
AcDbSpline
 62
7
  6
CONTINUOUS
 70
0
 71
3
 72
23
 73
19
 74
17
 42
0.0000001
 43
0.0000001
 44
0.0000000001
 12
0.0
 22
1.0328164324
 32
0.0
 13
-0.1789145065
 23
1.0172017413
 33
0.0
 40
0.0
 40
0.0
 40
0.0
 40
0.0
 40
0.1685404696
 40
0.2526309301
 40
0.3355105493
 40
0.4961336079
 40
0.6466794754
 40
0.7165602731
 40
0.7816999107
 40
0.8410086609
 40
0.8931645313
 40
0.9366752023
 40
0.9546894121
 40
0.9699335553
 40
0.9822092014
 40
0.991379105
 40
0.9973369701
 40
1.0
 40
1.0
 40
1.0
 40
1.0
 10
9.2972441081
 20
10.188951282
 30
0.0
 10
9.2972441081
 20
10.2469750708
 30
0.0
 10
9.2495887891
 20
10.3289734679
 30
0.0
 10
9.1800248619
 20
10.4192787244
 30
0.0
 10
9.1069065237
 20
10.5056658905
 30
0.0
 10
9.0159330865
 20
10.6060908395
 30
0.0
 10
8.9263266883
 20
10.7019683155
 30
0.0
 10
8.8588289152
 20
10.773441227
 30
0.0
 10
8.812807949
 20
10.8220012194
 30
0.0
 10
8.7709638023
 20
10.8661116647
 30
0.0
 10
8.7342891284
 20
10.9048599515
 30
0.0
 10
8.7074629618
 20
10.9333620968
 30
0.0
 10
8.6894702504
 20
10.9527133367
 30
0.0
 10
8.6788313912
 20
10.9642445459
 30
0.0
 10
8.6704264892
 20
10.9736271054
 30
0.0
 10
8.6640453782
 20
10.9806895173
 30
0.0
 10
8.6604477973
 20
10.9854646015
 30
0.0
 10
8.6583186053
 20
10.987802286
 30
0.0
 10
8.6581597871
 20
10.9887052322
 30
0.0
 11
9.2972441081
 21
10.188951282
 31
0.0
 11
9.231555676
 21
10.3501526174
 31
0.0
 11
9.1791020893
 21
10.4193736069
 31
0.0
 11
9.1240423881
 21
10.4849151369
 31
0.0
 11
9.0132510424
 21
10.6083904038
 31
0.0
 11
8.9072335587
 21
10.7221281099
 31
0.0
 11
8.8576918164
 21
10.774613415
 31
0.0
 11
8.8114230663
 21
10.8234543433
 31
0.0
 11
8.7692781328
 21
10.8679064067
 31
0.0
 11
8.7322623182
 21
10.9070411811
 31
0.0
 11
8.7014956957
 21
10.9397961342
 31
0.0
 11
8.6888281217
 21
10.9534230353
 31
0.0
 11
8.6781763666
 21
10.9650172707
 31
0.0
 11
8.66968848
 21
10.9744353312
 31
0.0
 11
8.6634677533
 21
10.9815766985
 31
0.0
 11
8.6595972134
 21
10.9863603182
 31
0.0
 11
8.6581597871
 21
10.9887052322
 31
0.0
  0
SPLINE
  5
810
100
AcDbEntity
  8
ASSI
100
AcDbSpline
 62
7
  6
CONTINUOUS
 70
0
 71
3
 72
23
 73
19
 74
17
 42
0.0000001
 43
0.0000001
 44
0.0000000001
 12
0.1789146451
 22
1.0172025296
 32
0.0
 13
-0.0
 23
1.0328172329
 33
0.0
 40
0.0
 40
0.0
 40
0.0
 40
0.0
 40
0.0026622084
 40
0.0086183549
 40
0.0177869048
 40
0.0300627081
 40
0.0453067114
 40
0.0633198407
 40
0.1068279398
 40
0.1589847436
 40
0.2182943243
 40
0.2834361317
 40
0.3533191056
 40
0.5038697501
 40
0.6644966434
 40
0.7473778792
 40
0.8314692803
 40
1.0
 40
1.0
 40
1.0
 40
1.0
 10
8.6581597871
 20
12.8108707844
 30
0.0
 10
8.6583185565
 20
12.8117734528
 30
0.0
 10
8.6604467879
 20
12.8141106512
 30
0.0
 10
8.664043662
 20
12.8188846887
 30
0.0
 10
8.6704240048
 20
12.8259464113
 30
0.0
 10
8.6788287326
 20
12.8353285309
 30
0.0
 10
8.6894673544
 20
12.8468594734
 30
0.0
 10
8.7074591497
 20
12.8662098127
 30
0.0
 10
8.7342846623
 20
12.8947113284
 30
0.0
 10
8.770959136
 20
12.933459479
 30
0.0
 10
8.8128043052
 20
12.977570886
 30
0.0
 10
8.8588264693
 20
13.026132269
 30
0.0
 10
8.926326586
 20
13.0976073972
 30
0.0
 10
9.0159351868
 20
13.1934879966
 30
0.0
 10
9.1069123018
 20
13.2939146258
 30
0.0
 10
9.1800300688
 20
13.3803051451
 30
0.0
 10
9.2495960952
 20
13.4706061084
 30
0.0
 10
9.2972441081
 20
13.5526042575
 30
0.0
 10
9.2972441081
 20
13.6106247347
 30
0.0
 11
8.6581597871
 21
12.8108707844
 31
0.0
 11
8.6595966003
 21
12.8132150815
 31
0.0
 11
8.6634659036
 21
12.8179974247
 31
0.0
 11
8.6696856843
 21
12.8251377715
 31
0.0
 11
8.6781737476
 21
12.8345559046
 31
0.0
 11
8.6888254407
 21
12.8461500174
 31
0.0
 11
8.701492243
 21
12.859776132
 31
0.0
 11
8.7322570255
 21
12.8925292168
 31
0.0
 11
8.7692735053
 21
12.9316647463
 31
0.0
 11
8.8114190837
 21
12.9761174458
 31
0.0
 11
8.8576893943
 21
13.0249600544
 31
0.0
 11
8.907232754
 21
13.0774470006
 31
0.0
 11
9.0132536692
 21
13.1911884176
 31
0.0
 11
9.1240479173
 21
13.3146665742
 31
0.0
 11
9.1791081303
 21
13.3802099416
 31
0.0
 11
9.23156334
 21
13.4494310044
 31
0.0
 11
9.2972441081
 21
13.6106247347
 31
0.0
  0
SPLINE
  5
811
100
AcDbEntity
  8
ASSI
100
AcDbSpline
 62
7
  6
CONTINUOUS
 70
0
 71
3
 72
23
 73
19
 74
17
 42
0.0000001
 43
0.0000001
 44
0.0000000001
 12
0.0
 22
-1.0328164324
 32
0.0
 13
0.1789145065
 23
-1.0172017413
 33
0.0
 40
0.0
 40
0.0
 40
0.0
 40
0.0
 40
0.1685404696
 40
0.2526309301
 40
0.3355105493
 40
0.4961336079
 40
0.6466794754
 40
0.7165602731
 40
0.7816999107
 40
0.8410086609
 40
0.8931645313
 40
0.9366752023
 40
0.9546894121
 40
0.9699335553
 40
0.9822092014
 40
0.991379105
 40
0.9973369701
 40
1.0
 40
1.0
 40
1.0
 40
1.0
 10
-9.7027558919
 20
13.6106247347
 30
0.0
 10
-9.7027558919
 20
13.5526009458
 30
0.0
 10
-9.6551005729
 20
13.4706025487
 30
0.0
 10
-9.5855366457
 20
13.3802972922
 30
0.0
 10
-9.5124183075
 20
13.2939101261
 30
0.0
 10
-9.4214448703
 20
13.1934851771
 30
0.0
 10
-9.3318384721
 20
13.0976077011
 30
0.0
 10
-9.2643406989
 20
13.0261347897
 30
0.0
 10
-9.2183197328
 20
12.9775747972
 30
0.0
 10
-9.1764755861
 20
12.9334643519
 30
0.0
 10
-9.1398009122
 20
12.8947160651
 30
0.0
 10
-9.1129747456
 20
12.8662139199
 30
0.0
 10
-9.0949820342
 20
12.8468626799
 30
0.0
 10
-9.084343175
 20
12.8353314707
 30
0.0
 10
-9.075938273
 20
12.8259489113
 30
0.0
 10
-9.069557162
 20
12.8188864994
 30
0.0
 10
-9.0659595811
 20
12.8141114152
 30
0.0
 10
-9.0638303891
 20
12.8117737306
 30
0.0
 10
-9.0636715709
 20
12.8108707844
 30
0.0
 11
-9.7027558919
 21
13.6106247347
 31
0.0
 11
-9.6370674598
 21
13.4494233992
 31
0.0
 11
-9.5846138731
 21
13.3802024098
 31
0.0
 11
-9.5295541719
 21
13.3146608797
 31
0.0
 11
-9.4187628262
 21
13.1911856128
 31
0.0
 11
-9.3127453425
 21
13.0774479068
 31
0.0
 11
-9.2632036002
 21
13.0249626016
 31
0.0
 11
-9.2169348501
 21
12.9761216734
 31
0.0
 11
-9.1747899166
 21
12.9316696099
 31
0.0
 11
-9.137774102
 21
12.8925348356
 31
0.0
 11
-9.1070074795
 21
12.8597798824
 31
0.0
 11
-9.0943399055
 21
12.8461529813
 31
0.0
 11
-9.0836881504
 21
12.8345587459
 31
0.0
 11
-9.0752002638
 21
12.8251406854
 31
0.0
 11
-9.0689795371
 21
12.8179993182
 31
0.0
 11
-9.0651089972
 21
12.8132156984
 31
0.0
 11
-9.0636715709
 21
12.8108707844
 31
0.0
  0
SPLINE
  5
812
100
AcDbEntity
  8
ASSI
100
AcDbSpline
 62
7
  6
CONTINUOUS
 70
0
 71
3
 72
23
 73
19
 74
17
 42
0.0000001
 43
0.0000001
 44
0.0000000001
 12
-0.1789146451
 22
-1.0172025296
 32
0.0
 13
0.0
 23
-1.0328172329
 33
0.0
 40
0.0
 40
0.0
 40
0.0
 40
0.0
 40
0.0026622084
 40
0.0086183549
 40
0.0177869048
 40
0.0300627081
 40
0.0453067114
 40
0.0633198407
 40
0.1068279398
 40
0.1589847436
 40
0.2182943243
 40
0.2834361317
 40
0.3533191056
 40
0.5038697501
 40
0.6644966434
 40
0.7473778792
 40
0.8314692803
 40
1.0
 40
1.0
 40
1.0
 40
1.0
 10
-9.0636715709
 20
10.9887052322
 30
0.0
 10
-9.0638303403
 20
10.9878025638
 30
0.0
 10
-9.0659585717
 20
10.9854653655
 30
0.0
 10
-9.0695554458
 20
10.980691328
 30
0.0
 10
-9.0759357885
 20
10.9736296054
 30
0.0
 10
-9.0843405164
 20
10.9642474858
 30
0.0
 10
-9.0949791382
 20
10.9527165432
 30
0.0
 10
-9.1129709335
 20
10.9333662039
 30
0.0
 10
-9.1397964461
 20
10.9048646882
 30
0.0
 10
-9.1764709198
 20
10.8661165377
 30
0.0
 10
-9.218316089
 20
10.8220051306
 30
0.0
 10
-9.264338253
 20
10.7734437476
 30
0.0
 10
-9.3318383698
 20
10.7019686194
 30
0.0
 10
-9.4214469706
 20
10.60608802
 30
0.0
 10
-9.5124240856
 20
10.5056613909
 30
0.0
 10
-9.5855418526
 20
10.4192708715
 30
0.0
 10
-9.655107879
 20
10.3289699082
 30
0.0
 10
-9.7027558919
 20
10.2469717592
 30
0.0
 10
-9.7027558919
 20
10.188951282
 30
0.0
 11
-9.0636715709
 21
10.9887052322
 31
0.0
 11
-9.065108384
 21
10.9863609351
 31
0.0
 11
-9.0689776874
 21
10.9815785919
 31
0.0
 11
-9.0751974681
 21
10.9744382452
 31
0.0
 11
-9.0836855314
 21
10.9650201121
 31
0.0
 11
-9.0943372245
 21
10.9534259993
 31
0.0
 11
-9.1070040267
 21
10.9397998847
 31
0.0
 11
-9.1377688093
 21
10.9070467999
 31
0.0
 11
-9.1747852891
 21
10.8679112703
 31
0.0
 11
-9.2169308675
 21
10.8234585708
 31
0.0
 11
-9.2632011781
 21
10.7746159622
 31
0.0
 11
-9.3127445378
 21
10.7221290161
 31
0.0
 11
-9.418765453
 21
10.608387599
 31
0.0
 11
-9.5295597011
 21
10.4849094425
 31
0.0
 11
-9.584619914
 21
10.419366075
 31
0.0
 11
-9.6370751238
 21
10.3501450122
 31
0.0
 11
-9.7027558919
 21
10.188951282
 31
0.0
  0
ELLIPSE
  5
813
100
AcDbEntity
  8
ASSI
100
AcDbEllipse
 62
7
  6
CONTINUOUS
 10
10.4471679441
 20
22.7491018353
 30
0.0
 11
0.1582391023
 21
0.4751033573
 31
0.0
 40
0.9984778551
 41
5.0343527194
 42
6.6042356577
  0
ELLIPSE
  5
814
100
AcDbEntity
  8
ASSI
100
AcDbEllipse
 62
7
  6
CONTINUOUS
 10
10.4471679441
 20
-21.0495258187
 30
0.0
 11
-0.1582391023
 21
0.4751033573
 31
0.0
 40
0.9984778551
 41
9.1037276102
 42
10.6736105485
  0
ELLIPSE
  5
815
100
AcDbEntity
  8
ASSI
100
AcDbEllipse
 62
7
  6
CONTINUOUS
 10
-10.8526797279
 20
22.7491018353
 30
0.0
 11
-0.1582391023
 21
0.4751033573
 31
0.0
 40
0.9984778551
 41
5.9621349567
 42
7.5320178949
  0
ELLIPSE
  5
816
100
AcDbEntity
  8
ASSI
100
AcDbEllipse
 62
7
  6
CONTINUOUS
 10
-10.8526797279
 20
-21.0495258187
 30
0.0
 11
0.1582391023
 21
0.4751033573
 31
0.0
 40
0.9984778551
 41
8.175945373
 42
9.7458283113
  0
ELLIPSE
  5
817
100
AcDbEntity
  8
ASSI
100
AcDbEllipse
 62
7
  6
CONTINUOUS
 10
9.1034507458
 20
-11.194081518
 30
0.0
 11
0.5
 21
-0.0
 31
0.0
 40
0.0174550649
 41
2.5307274154
 42
3.1241393611
  0
ELLIPSE
  5
818
100
AcDbEntity
  8
ASSI
100
AcDbEllipse
 62
7
  6
CONTINUOUS
 10
-9.5089625296
 20
-11.194081518
 30
0.0
 11
0.5
 21
0.0
 31
0.0
 40
0.0174550649
 41
0.0174532925
 42
0.6108652382
  0
ELLIPSE
  5
819
100
AcDbEntity
  8
ASSI
100
AcDbEllipse
 62
7
  6
CONTINUOUS
 10
9.1034507458
 20
-9.4063424654
 30
0.0
 11
0.5
 21
-0.0
 31
0.0
 40
0.0174550649
 41
-3.1241393611
 42
-2.5307274154
  0
ELLIPSE
  5
81A
100
AcDbEntity
  8
ASSI
100
AcDbEllipse
 62
7
  6
CONTINUOUS
 10
-9.5089625296
 20
-9.4063424654
 30
0.0
 11
0.5
 21
0.0
 31
0.0
 40
0.0174550649
 41
-0.6108652382
 42
-0.0174532925
  0
ELLIPSE
  5
81B
100
AcDbEntity
  8
ASSI
100
AcDbEllipse
 62
7
  6
CONTINUOUS
 10
9.1034507458
 20
16.2936575346
 30
0.0
 11
0.5
 21
0.0
 31
0.0
 40
0.0174550649
 41
-3.1241393611
 42
-2.5307274154
  0
ELLIPSE
  5
81C
100
AcDbEntity
  8
ASSI
100
AcDbEllipse
 62
7
  6
CONTINUOUS
 10
-9.5089625296
 20
16.2936575346
 30
0.0
 11
0.5
 21
-0.0
 31
0.0
 40
0.0174550649
 41
-0.6108652382
 42
-0.0174532925
  0
ELLIPSE
  5
81D
100
AcDbEntity
  8
ASSI
100
AcDbEllipse
 62
7
  6
CONTINUOUS
 10
9.1034507458
 20
14.505918482
 30
0.0
 11
0.5
 21
-0.0
 31
0.0
 40
0.0174550649
 41
2.5307274154
 42
3.1241393611
  0
ELLIPSE
  5
81E
100
AcDbEntity
  8
ASSI
100
AcDbEllipse
 62
7
  6
CONTINUOUS
 10
-9.5089625296
 20
14.505918482
 30
0.0
 11
0.5
 21
0.0
 31
0.0
 40
0.0174550649
 41
0.0174532925
 42
0.6108652382
  0
ELLIPSE
  5
81F
100
AcDbEntity
  8
ASSI
100
AcDbEllipse
 62
7
  6
CONTINUOUS
 10
6.4544576638
 20
-18.976473282
 30
0.0
 11
-0.0
 21
0.5
 31
0.0
 40
0.0087268678
 41
-2.2689280276
 42
-1.5707963268
  0
ELLIPSE
  5
820
100
AcDbEntity
  8
ASSI
100
AcDbEllipse
 62
7
  6
CONTINUOUS
 10
6.4544576638
 20
20.6760492986
 30
0.0
 11
0.0
 21
0.5
 31
0.0
 40
0.0087268678
 41
-1.5707963268
 42
-0.872664626
  0
ELLIPSE
  5
821
100
AcDbEntity
  8
ASSI
100
AcDbEllipse
 62
7
  6
CONTINUOUS
 10
-6.8599694476
 20
-18.976473282
 30
0.0
 11
-0.0
 21
0.5
 31
0.0
 40
0.0087268678
 41
-4.7123889804
 42
-4.0142572796
  0
ELLIPSE
  5
822
100
AcDbEntity
  8
ASSI
100
AcDbEllipse
 62
7
  6
CONTINUOUS
 10
-6.8599694476
 20
20.6760492986
 30
0.0
 11
0.0
 21
0.5
 31
0.0
 40
0.0087268678
 41
0.872664626
 42
1.5707963268
  0
ELLIPSE
  5
823
100
AcDbEntity
  8
ASSI
100
AcDbEllipse
 62
7
  6
CONTINUOUS
 10
-11.4527558919
 20
0.4461914465
 30
0.0
 11
-0.0
 21
27.5557641561
 31
0.0
 40
0.9998927337
 41
-2.4240538679
 42
-2.4060304578
  0
ELLIPSE
  5
824
100
AcDbEntity
  8
ASSI
100
AcDbEllipse
 62
7
  6
CONTINUOUS
 10
11.0472441081
 20
0.4461914465
 30
0.0
 11
0.0
 21
27.5557641561
 31
0.0
 40
0.9998927337
 41
-3.8771548493
 42
-3.8591314392
  0
ELLIPSE
  5
825
100
AcDbEntity
  8
ASSI
100
AcDbEllipse
 62
7
  6
CONTINUOUS
 10
7.0319112357
 20
20.6760492986
 30
0.0
 11
-0.0
 21
0.5
 31
0.0
 40
0.0174550649
 41
0.872664626
 42
1.5707963268
  0
ELLIPSE
  5
826
100
AcDbEntity
  8
ASSI
100
AcDbEllipse
 62
7
  6
CONTINUOUS
 10
7.0319112357
 20
-18.976473282
 30
0.0
 11
0.0
 21
0.5
 31
0.0
 40
0.0174550649
 41
-4.7123889804
 42
-4.0142572796
  0
ELLIPSE
  5
827
100
AcDbEntity
  8
ASSI
100
AcDbEllipse
 62
7
  6
CONTINUOUS
 10
-7.4374230195
 20
20.6760492986
 30
0.0
 11
-0.0
 21
0.5
 31
0.0
 40
0.0174550649
 41
-1.5707963268
 42
-0.872664626
  0
ELLIPSE
  5
828
100
AcDbEntity
  8
ASSI
100
AcDbEllipse
 62
7
  6
CONTINUOUS
 10
-7.4374230195
 20
-18.976473282
 30
0.0
 11
0.0
 21
0.5
 31
0.0
 40
0.0174550649
 41
-2.2689280276
 42
-1.5707963268
  0
ELLIPSE
  5
829
100
AcDbEntity
  8
ASSI
100
AcDbEllipse
 62
7
  6
CONTINUOUS
 10
11.0472441081
 20
1.2533845701
 30
0.0
 11
0.0
 21
27.5557641561
 31
0.0
 40
0.9998927337
 41
0.7175387856
 42
0.7355621958
  0
ELLIPSE
  5
82A
100
AcDbEntity
  8
ASSI
100
AcDbEllipse
 62
7
  6
CONTINUOUS
 10
-11.4527558919
 20
1.2533845701
 30
0.0
 11
0.0
 21
27.5557641561
 31
0.0
 40
0.9998927337
 41
-0.7355621958
 42
-0.7175387856
  0
ELLIPSE
  5
82B
100
AcDbEntity
  8
ASSI
100
AcDbEllipse
 62
7
  6
CONTINUOUS
 10
-6.8574002722
 20
-19.8718269042
 30
0.0
 11
0.0
 21
0.15
 31
0.0
 40
0.0087268678
 41
0.0087266463
 42
2.2689280276
  0
ELLIPSE
  5
82C
100
AcDbEntity
  8
ASSI
100
AcDbEllipse
 62
7
  6
CONTINUOUS
 10
6.4518884884
 20
-19.8718269042
 30
0.0
 11
-0.0
 21
0.15
 31
0.0
 40
0.0087268678
 41
-2.2689280276
 42
-0.0087266463
  0
ELLIPSE
  5
82D
100
AcDbEntity
  8
0
100
AcDbEllipse
 62
7
  6
CONTINUOUS
 10
10.4471679441
 20
22.7491018353
 30
0.0
 11
0.1582391023
 21
0.4751033573
 31
0.0
 40
0.9984778551
 41
5.0343527194
 42
6.6042356577
  0
ELLIPSE
  5
82E
100
AcDbEntity
  8
0
100
AcDbEllipse
 62
7
  6
CONTINUOUS
 10
10.4471679441
 20
-21.0495258187
 30
0.0
 11
-0.1582391023
 21
0.4751033573
 31
0.0
 40
0.9984778551
 41
9.1037276102
 42
10.6736105485
  0
ELLIPSE
  5
82F
100
AcDbEntity
  8
0
100
AcDbEllipse
 62
7
  6
CONTINUOUS
 10
-10.8526797279
 20
22.7491018353
 30
0.0
 11
-0.1582391023
 21
0.4751033573
 31
0.0
 40
0.9984778551
 41
5.9621349567
 42
7.5320178949
  0
ELLIPSE
  5
830
100
AcDbEntity
  8
0
100
AcDbEllipse
 62
7
  6
CONTINUOUS
 10
-10.8526797279
 20
-21.0495258187
 30
0.0
 11
0.1582391023
 21
0.4751033573
 31
0.0
 40
0.9984778551
 41
8.175945373
 42
9.7458283113
  0
ELLIPSE
  5
831
100
AcDbEntity
  8
DRAFT
100
AcDbEllipse
 62
7
  6
CONTINUOUS
 10
-11.4527558919
 20
1.2533845701
 30
0.0
 11
0.0
 21
27.5557641561
 31
0.0
 40
0.9998927337
 41
-0.7355621958
 42
-0.7175387856
  0
ELLIPSE
  5
832
100
AcDbEntity
  8
DRAFT
100
AcDbEllipse
 62
7
  6
CONTINUOUS
 10
11.0472441081
 20
1.2533845701
 30
0.0
 11
0.0
 21
27.5557641561
 31
0.0
 40
0.9998927337
 41
0.7175387856
 42
0.7355621958
  0
ELLIPSE
  5
833
100
AcDbEntity
  8
RACCORDO
100
AcDbEllipse
 62
7
  6
CONTINUOUS
 10
-7.4374230195
 20
-18.976473282
 30
0.0
 11
0.0
 21
0.5
 31
0.0
 40
0.0174550649
 41
-2.2689280276
 42
-1.5707963268
  0
ELLIPSE
  5
834
100
AcDbEntity
  8
RACCORDO
100
AcDbEllipse
 62
7
  6
CONTINUOUS
 10
-7.4374230195
 20
20.6760492986
 30
0.0
 11
-0.0
 21
0.5
 31
0.0
 40
0.0174550649
 41
-1.5707963268
 42
-0.872664626
  0
ELLIPSE
  5
835
100
AcDbEntity
  8
RACCORDO
100
AcDbEllipse
 62
7
  6
CONTINUOUS
 10
7.0319112357
 20
-18.976473282
 30
0.0
 11
0.0
 21
0.5
 31
0.0
 40
0.0174550649
 41
-4.7123889804
 42
-4.0142572796
  0
ELLIPSE
  5
836
100
AcDbEntity
  8
RACCORDO
100
AcDbEllipse
 62
7
  6
CONTINUOUS
 10
7.0319112357
 20
20.6760492986
 30
0.0
 11
-0.0
 21
0.5
 31
0.0
 40
0.0174550649
 41
0.872664626
 42
1.5707963268
  0
ELLIPSE
  5
837
100
AcDbEntity
  8
DRAFT
100
AcDbEllipse
 62
7
  6
CONTINUOUS
 10
11.0472441081
 20
0.4461914465
 30
0.0
 11
0.0
 21
27.5557641561
 31
0.0
 40
0.9998927337
 41
-3.8771548493
 42
-3.8591314392
  0
ELLIPSE
  5
838
100
AcDbEntity
  8
RACCORDO
100
AcDbEllipse
 62
7
  6
CONTINUOUS
 10
-6.8574002722
 20
21.5714029209
 30
0.0
 11
-0.0
 21
0.15
 31
0.0
 40
0.0087268678
 41
0.872664626
 42
3.1328660073
  0
ELLIPSE
  5
839
100
AcDbEntity
  8
DRAFT
100
AcDbEllipse
 62
7
  6
CONTINUOUS
 10
-11.4527558919
 20
0.4461914465
 30
0.0
 11
-0.0
 21
27.5557641561
 31
0.0
 40
0.9998927337
 41
-2.4240538679
 42
-2.4060304578
  0
ELLIPSE
  5
83A
100
AcDbEntity
  8
RACCORDO
100
AcDbEllipse
 62
7
  6
CONTINUOUS
 10
9.1034507458
 20
-11.194081518
 30
0.0
 11
0.5
 21
-0.0
 31
0.0
 40
0.0174550649
 41
2.5307274154
 42
3.1241393611
  0
ELLIPSE
  5
83B
100
AcDbEntity
  8
RACCORDO
100
AcDbEllipse
 62
7
  6
CONTINUOUS
 10
6.4518884884
 20
21.5714029209
 30
0.0
 11
0.0
 21
0.15
 31
0.0
 40
0.0087268678
 41
-3.1328660073
 42
-0.872664626
  0
ELLIPSE
  5
83C
100
AcDbEntity
  8
RACCORDO
100
AcDbEllipse
 62
7
  6
CONTINUOUS
 10
-9.5089625296
 20
-11.194081518
 30
0.0
 11
0.5
 21
0.0
 31
0.0
 40
0.0174550649
 41
0.0174532925
 42
0.6108652382
  0
ELLIPSE
  5
83D
100
AcDbEntity
  8
RACCORDO
100
AcDbEllipse
 62
7
  6
CONTINUOUS
 10
9.1034507458
 20
-9.4063424654
 30
0.0
 11
0.5
 21
-0.0
 31
0.0
 40
0.0174550649
 41
-3.1241393611
 42
-2.5307274154
  0
ELLIPSE
  5
83E
100
AcDbEntity
  8
RACCORDO
100
AcDbEllipse
 62
7
  6
CONTINUOUS
 10
-9.5089625296
 20
-9.4063424654
 30
0.0
 11
0.5
 21
0.0
 31
0.0
 40
0.0174550649
 41
-0.6108652382
 42
-0.0174532925
  0
ELLIPSE
  5
83F
100
AcDbEntity
  8
RACCORDO
100
AcDbEllipse
 62
7
  6
CONTINUOUS
 10
-6.8574002722
 20
-19.8718269042
 30
0.0
 11
0.0
 21
0.15
 31
0.0
 40
0.0087268678
 41
0.0087266463
 42
2.2689280276
  0
ELLIPSE
  5
840
100
AcDbEntity
  8
RACCORDO
100
AcDbEllipse
 62
7
  6
CONTINUOUS
 10
9.1034507458
 20
16.2936575346
 30
0.0
 11
0.5
 21
0.0
 31
0.0
 40
0.0174550649
 41
-3.1241393611
 42
-2.5307274154
  0
ELLIPSE
  5
841
100
AcDbEntity
  8
RACCORDO
100
AcDbEllipse
 62
7
  6
CONTINUOUS
 10
-9.5089625296
 20
16.2936575346
 30
0.0
 11
0.5
 21
-0.0
 31
0.0
 40
0.0174550649
 41
-0.6108652382
 42
-0.0174532925
  0
ELLIPSE
  5
842
100
AcDbEntity
  8
RACCORDO
100
AcDbEllipse
 62
7
  6
CONTINUOUS
 10
9.1034507458
 20
14.505918482
 30
0.0
 11
0.5
 21
-0.0
 31
0.0
 40
0.0174550649
 41
2.5307274154
 42
3.1241393611
  0
ELLIPSE
  5
843
100
AcDbEntity
  8
RACCORDO
100
AcDbEllipse
 62
7
  6
CONTINUOUS
 10
6.4518884884
 20
-19.8718269042
 30
0.0
 11
-0.0
 21
0.15
 31
0.0
 40
0.0087268678
 41
-2.2689280276
 42
-0.0087266463
  0
ELLIPSE
  5
844
100
AcDbEntity
  8
RACCORDO
100
AcDbEllipse
 62
7
  6
CONTINUOUS
 10
-9.5089625296
 20
14.505918482
 30
0.0
 11
0.5
 21
0.0
 31
0.0
 40
0.0174550649
 41
0.0174532925
 42
0.6108652382
  0
ELLIPSE
  5
845
100
AcDbEntity
  8
RACCORDO
100
AcDbEllipse
 62
7
  6
CONTINUOUS
 10
-6.8599694476
 20
20.6760492986
 30
0.0
 11
0.0
 21
0.5
 31
0.0
 40
0.0087268678
 41
0.872664626
 42
1.5707963268
  0
ELLIPSE
  5
846
100
AcDbEntity
  8
RACCORDO
100
AcDbEllipse
 62
7
  6
CONTINUOUS
 10
-6.8599694476
 20
-18.976473282
 30
0.0
 11
-0.0
 21
0.5
 31
0.0
 40
0.0087268678
 41
-4.7123889804
 42
-4.0142572796
  0
ELLIPSE
  5
847
100
AcDbEntity
  8
RACCORDO
100
AcDbEllipse
 62
7
  6
CONTINUOUS
 10
6.4544576638
 20
20.6760492986
 30
0.0
 11
0.0
 21
0.5
 31
0.0
 40
0.0087268678
 41
-1.5707963268
 42
-0.872664626
  0
ELLIPSE
  5
848
100
AcDbEntity
  8
RACCORDO
100
AcDbEllipse
 62
7
  6
CONTINUOUS
 10
6.4544576638
 20
-18.976473282
 30
0.0
 11
-0.0
 21
0.5
 31
0.0
 40
0.0087268678
 41
-2.2689280276
 42
-1.5707963268
  0
ELLIPSE
  5
849
100
AcDbEntity
  8
RACCORDO
100
AcDbEllipse
 62
7
  6
CONTINUOUS
 10
-7.9191975412
 20
16.0661535009
 30
0.0
 11
0.0
 21
2.0
 31
0.0
 40
0.0087268678
 41
-0.1192661309
 42
-0.0087266463
  0
ELLIPSE
  5
84A
100
AcDbEntity
  8
RACCORDO
100
AcDbEllipse
 62
7
  6
CONTINUOUS
 10
7.5136857574
 20
16.0661535009
 30
0.0
 11
0.0
 21
2.0
 31
0.0
 40
0.0087268678
 41
0.0087266463
 42
0.1192661309
  0
ELLIPSE
  5
84B
100
AcDbEntity
  8
DRAFT
100
AcDbEllipse
 62
7
  6
CONTINUOUS
 10
-7.9213391678
 20
15.3497880083
 30
0.0
 11
-0.0
 21
1.0
 31
0.0
 40
0.0087268678
 41
0.927295218
 42
2.2142974356
  0
ELLIPSE
  5
84C
100
AcDbEntity
  8
RACCORDO
100
AcDbEllipse
 62
7
  6
CONTINUOUS
 10
-8.149983104
 20
13.6106247347
 30
0.0
 11
0.0
 21
0.8
 31
0.0
 40
0.0087268678
 41
-4.7123889804
 42
-3.1459559767
  0
ELLIPSE
  5
84D
100
AcDbEntity
  8
DRAFT
100
AcDbEllipse
 62
7
  6
CONTINUOUS
 10
7.5158273841
 20
15.3497880083
 30
0.0
 11
-0.0
 21
1.0
 31
0.0
 40
0.0087268678
 41
-2.2142974356
 42
-0.927295218
  0
ELLIPSE
  5
84E
100
AcDbEntity
  8
RACCORDO
100
AcDbEllipse
 62
7
  6
CONTINUOUS
 10
7.7444713202
 20
13.6106247347
 30
0.0
 11
0.0
 21
0.8
 31
0.0
 40
0.0087268678
 41
-3.1372293305
 42
-1.5707963268
  0
ELLIPSE
  5
84F
100
AcDbEntity
  8
RACCORDO
100
AcDbEllipse
 62
7
  6
CONTINUOUS
 10
7.567315904
 20
9.0766225233
 30
0.0
 11
0.0
 21
1.0
 31
0.0
 40
0.0087268678
 41
-3.1328660073
 42
-1.5707963268
  0
ELLIPSE
  5
850
100
AcDbEntity
  8
RACCORDO
100
AcDbEllipse
 62
7
  6
CONTINUOUS
 10
-9.0635850027
 20
13.6106247347
 30
0.0
 11
-0.0
 21
0.8
 31
0.0
 40
0.0043633508
 41
-3.1663949907
 42
-3.1459559767
  0
ELLIPSE
  5
851
100
AcDbEntity
  8
RACCORDO
100
AcDbEllipse
 62
7
  6
CONTINUOUS
 10
7.7444713202
 20
10.188951282
 30
0.0
 11
-0.0
 21
0.8
 31
0.0
 40
0.0087268678
 41
-1.5707963268
 42
-0.0043633231
  0
ELLIPSE
  5
852
100
AcDbEntity
  8
RACCORDO
100
AcDbEllipse
 62
7
  6
CONTINUOUS
 10
-9.0635850027
 20
10.188951282
 30
0.0
 11
-0.0
 21
0.8
 31
0.0
 40
0.0043633508
 41
0.0043633231
 42
0.0248023372
  0
ELLIPSE
  5
853
100
AcDbEntity
  8
RACCORDO
100
AcDbEllipse
 62
7
  6
CONTINUOUS
 10
-8.149983104
 20
10.188951282
 30
0.0
 11
-0.0
 21
0.8
 31
0.0
 40
0.0087268678
 41
0.0043633231
 42
1.5707963268
  0
ELLIPSE
  5
854
100
AcDbEntity
  8
RACCORDO
100
AcDbEllipse
 62
7
  6
CONTINUOUS
 10
8.658073219
 20
13.6106247347
 30
0.0
 11
-0.0
 21
0.8
 31
0.0
 40
0.0043633508
 41
-3.1372293305
 42
-3.1167903164
  0
ELLIPSE
  5
855
100
AcDbEntity
  8
RACCORDO
100
AcDbEllipse
 62
7
  6
CONTINUOUS
 10
-7.9728276878
 20
9.0766225233
 30
0.0
 11
-0.0
 21
1.0
 31
0.0
 40
0.0087268678
 41
-4.7123889804
 42
-3.1503192998
  0
ELLIPSE
  5
856
100
AcDbEntity
  8
RACCORDO
100
AcDbEllipse
 62
7
  6
CONTINUOUS
 10
8.658073219
 20
10.188951282
 30
0.0
 11
-0.0
 21
0.8
 31
0.0
 40
0.0043633508
 41
-0.0248023372
 42
-0.0043633231
  0
ELLIPSE
  5
857
100
AcDbEntity
  8
RACCORDO
100
AcDbEllipse
 62
7
  6
CONTINUOUS
 10
-9.6993370885
 20
-8.6315044508
 30
0.0
 11
0.0
 21
0.8
 31
0.0
 40
0.0042735043
 41
0.0087266463
 42
1.5707889242
  0
ELLIPSE
  5
858
100
AcDbEntity
  8
RACCORDO
100
AcDbEllipse
 62
7
  6
CONTINUOUS
 10
9.2938253047
 20
-4.7689195325
 30
0.0
 11
-0.0
 21
0.8
 31
0.0
 40
0.0042735043
 41
-3.1328660073
 42
-1.5708036749
  0
ELLIPSE
  5
859
100
AcDbEntity
  8
RACCORDO
100
AcDbEllipse
 62
7
  6
CONTINUOUS
 10
9.2938253047
 20
-8.6315044508
 30
0.0
 11
0.0
 21
0.8
 31
0.0
 40
0.0042735043
 41
-1.5707889809
 42
-0.0087266463
  0
ELLIPSE
  5
85A
100
AcDbEntity
  8
RACCORDO
100
AcDbEllipse
 62
7
  6
CONTINUOUS
 10
-9.6993370885
 20
-4.7689195325
 30
0.0
 11
0.0
 21
0.8
 31
0.0
 40
0.0042735043
 41
-4.7123816029
 42
-3.1503192998
  0
ELLIPSE
  5
85B
100
AcDbEntity
  8
RACCORDO
100
AcDbEllipse
 62
7
  6
CONTINUOUS
 10
8.1240405447
 20
9.0766225233
 30
0.0
 11
-0.0
 21
1.0
 31
0.0
 40
0.0087268678
 41
-3.1328660073
 42
-1.5707963268
  0
ELLIPSE
  5
85C
100
AcDbEntity
  8
RACCORDO
100
AcDbEllipse
 62
7
  6
CONTINUOUS
 10
-8.5295523285
 20
9.0766225233
 30
0.0
 11
0.0
 21
1.0
 31
0.0
 40
0.0087268678
 41
-4.7123889804
 42
-3.1503192998
  0
ELLIPSE
  5
85D
100
AcDbEntity
  8
RACCORDO
100
AcDbEllipse
 62
7
  6
CONTINUOUS
 10
-9.2527558919
 20
-3.1872601996
 30
0.0
 11
0.8
 21
0.0
 31
0.0
 40
0.0174550649
 41
6.2831853072
 42
7.853981634
  0
ELLIPSE
  5
85E
100
AcDbEntity
  8
DRAFT
100
AcDbEllipse
 62
7
  6
CONTINUOUS
 10
-8.4780638085
 20
-10.2502119917
 30
0.0
 11
-0.0
 21
1.0
 31
0.0
 40
0.0087268678
 41
0.927295218
 42
2.2142974356
  0
ELLIPSE
  5
85F
100
AcDbEntity
  8
DRAFT
100
AcDbEllipse
 62
7
  6
CONTINUOUS
 10
8.0725520247
 20
-10.2502119917
 30
0.0
 11
0.0
 21
1.0
 31
0.0
 40
0.0087268678
 41
-2.2142974356
 42
-0.927295218
  0
ELLIPSE
  5
860
100
AcDbEntity
  8
RACCORDO
100
AcDbEllipse
 62
7
  6
CONTINUOUS
 10
8.8472441081
 20
-3.1872601996
 30
0.0
 11
0.8
 21
0.0
 31
0.0
 40
0.0174550649
 41
1.5707963268
 42
3.1415926536
  0
ELLIPSE
  5
861
100
AcDbEntity
  8
RACCORDO
100
AcDbEllipse
 62
7
  6
CONTINUOUS
 10
-9.2527558919
 20
1.3868362162
 30
0.0
 11
0.8
 21
-0.0
 31
0.0
 40
0.0174550649
 41
-1.5707963268
 42
-0.0
  0
ELLIPSE
  5
862
100
AcDbEntity
  8
RACCORDO
100
AcDbEllipse
 62
7
  6
CONTINUOUS
 10
8.8472441081
 20
1.3868362162
 30
0.0
 11
0.8
 21
-0.0
 31
0.0
 40
0.0174550649
 41
3.1415926536
 42
4.7123889804
  0
ELLIPSE
  5
863
100
AcDbEntity
  8
RACCORDO
100
AcDbEllipse
 62
7
  6
CONTINUOUS
 10
-8.7067077446
 20
-4.7689195325
 30
0.0
 11
-0.0
 21
0.8
 31
0.0
 40
0.0087268678
 41
1.5707963268
 42
3.1328660073
  0
ELLIPSE
  5
864
100
AcDbEntity
  8
RACCORDO
100
AcDbEllipse
 62
7
  6
CONTINUOUS
 10
-8.7067077446
 20
-8.6315044508
 30
0.0
 11
0.0
 21
0.8
 31
0.0
 40
0.0087268678
 41
0.0087266463
 42
1.5707963268
  0
ELLIPSE
  5
865
100
AcDbEntity
  8
RACCORDO
100
AcDbEllipse
 62
7
  6
CONTINUOUS
 10
8.3011959608
 20
-8.6315044508
 30
0.0
 11
0.0
 21
0.8
 31
0.0
 40
0.0087268678
 41
-1.5707963268
 42
-0.0087266463
  0
ELLIPSE
  5
866
100
AcDbEntity
  8
RACCORDO
100
AcDbEllipse
 62
7
  6
CONTINUOUS
 10
8.3011959608
 20
-4.7689195325
 30
0.0
 11
0.0
 21
0.8
 31
0.0
 40
0.0087268678
 41
-3.1328660073
 42
-1.5707963268
  0
ELLIPSE
  5
867
100
AcDbEntity
  8
ASSI
100
AcDbEllipse
 62
7
  6
CONTINUOUS
 10
7.5136857574
 20
16.0661535009
 30
0.0
 11
0.0
 21
2.0
 31
0.0
 40
0.0087268678
 41
0.0087266463
 42
0.1192661309
  0
ELLIPSE
  5
868
100
AcDbEntity
  8
ASSI
100
AcDbEllipse
 62
7
  6
CONTINUOUS
 10
-7.9191975412
 20
16.0661535009
 30
0.0
 11
0.0
 21
2.0
 31
0.0
 40
0.0087268678
 41
-0.1192661309
 42
-0.0087266463
  0
ELLIPSE
  5
869
100
AcDbEntity
  8
ASSI
100
AcDbEllipse
 62
7
  6
CONTINUOUS
 10
-8.4780638085
 20
-10.2502119917
 30
0.0
 11
-0.0
 21
1.0
 31
0.0
 40
0.0087268678
 41
0.927295218
 42
2.2142974356
  0
ELLIPSE
  5
86A
100
AcDbEntity
  8
ASSI
100
AcDbEllipse
 62
7
  6
CONTINUOUS
 10
8.0725520247
 20
-10.2502119917
 30
0.0
 11
0.0
 21
1.0
 31
0.0
 40
0.0087268678
 41
-2.2142974356
 42
-0.927295218
  0
ELLIPSE
  5
86B
100
AcDbEntity
  8
ASSI
100
AcDbEllipse
 62
7
  6
CONTINUOUS
 10
-8.7067077446
 20
-4.7689195325
 30
0.0
 11
-0.0
 21
0.8
 31
0.0
 40
0.0087268678
 41
1.5707963268
 42
3.1328660073
  0
ELLIPSE
  5
86C
100
AcDbEntity
  8
ASSI
100
AcDbEllipse
 62
7
  6
CONTINUOUS
 10
-8.7067077446
 20
-8.6315044508
 30
0.0
 11
0.0
 21
0.8
 31
0.0
 40
0.0087268678
 41
0.0087266463
 42
1.5707963268
  0
ELLIPSE
  5
86D
100
AcDbEntity
  8
ASSI
100
AcDbEllipse
 62
7
  6
CONTINUOUS
 10
8.3011959608
 20
-8.6315044508
 30
0.0
 11
0.0
 21
0.8
 31
0.0
 40
0.0087268678
 41
-1.5707963268
 42
-0.0087266463
  0
ELLIPSE
  5
86E
100
AcDbEntity
  8
ASSI
100
AcDbEllipse
 62
7
  6
CONTINUOUS
 10
8.3011959608
 20
-4.7689195325
 30
0.0
 11
0.0
 21
0.8
 31
0.0
 40
0.0087268678
 41
-3.1328660073
 42
-1.5707963268
  0
ELLIPSE
  5
86F
100
AcDbEntity
  8
ASSI
100
AcDbEllipse
 62
7
  6
CONTINUOUS
 10
8.8472441081
 20
1.3868362162
 30
0.0
 11
0.8
 21
-0.0
 31
0.0
 40
0.0174550649
 41
3.1415926536
 42
4.7123889804
  0
ELLIPSE
  5
870
100
AcDbEntity
  8
ASSI
100
AcDbEllipse
 62
7
  6
CONTINUOUS
 10
-9.2527558919
 20
1.3868362162
 30
0.0
 11
0.8
 21
-0.0
 31
0.0
 40
0.0174550649
 41
-1.5707963268
 42
-0.0
  0
ELLIPSE
  5
871
100
AcDbEntity
  8
ASSI
100
AcDbEllipse
 62
7
  6
CONTINUOUS
 10
8.8472441081
 20
-3.1872601996
 30
0.0
 11
0.8
 21
0.0
 31
0.0
 40
0.0174550649
 41
1.5707963268
 42
3.1415926536
  0
ELLIPSE
  5
872
100
AcDbEntity
  8
ASSI
100
AcDbEllipse
 62
7
  6
CONTINUOUS
 10
-9.2527558919
 20
-3.1872601996
 30
0.0
 11
0.8
 21
0.0
 31
0.0
 40
0.0174550649
 41
6.2831853072
 42
7.853981634
  0
ELLIPSE
  5
873
100
AcDbEntity
  8
ASSI
100
AcDbEllipse
 62
7
  6
CONTINUOUS
 10
-7.9728276878
 20
9.0766225233
 30
0.0
 11
-0.0
 21
1.0
 31
0.0
 40
0.0087268678
 41
-4.7123889804
 42
-3.1503192998
  0
ELLIPSE
  5
874
100
AcDbEntity
  8
ASSI
100
AcDbEllipse
 62
7
  6
CONTINUOUS
 10
-8.149983104
 20
10.188951282
 30
0.0
 11
-0.0
 21
0.8
 31
0.0
 40
0.0087268678
 41
0.0043633231
 42
1.5707963268
  0
ELLIPSE
  5
875
100
AcDbEntity
  8
ASSI
100
AcDbEllipse
 62
7
  6
CONTINUOUS
 10
7.7444713202
 20
10.188951282
 30
0.0
 11
-0.0
 21
0.8
 31
0.0
 40
0.0087268678
 41
-1.5707963268
 42
-0.0043633231
  0
ELLIPSE
  5
876
100
AcDbEntity
  8
ASSI
100
AcDbEllipse
 62
7
  6
CONTINUOUS
 10
7.567315904
 20
9.0766225233
 30
0.0
 11
0.0
 21
1.0
 31
0.0
 40
0.0087268678
 41
-3.1328660073
 42
-1.5707963268
  0
ELLIPSE
  5
877
100
AcDbEntity
  8
ASSI
100
AcDbEllipse
 62
7
  6
CONTINUOUS
 10
7.7444713202
 20
13.6106247347
 30
0.0
 11
0.0
 21
0.8
 31
0.0
 40
0.0087268678
 41
-3.1372293305
 42
-1.5707963268
  0
ELLIPSE
  5
878
100
AcDbEntity
  8
ASSI
100
AcDbEllipse
 62
7
  6
CONTINUOUS
 10
7.5158273841
 20
15.3497880083
 30
0.0
 11
-0.0
 21
1.0
 31
0.0
 40
0.0087268678
 41
-2.2142974356
 42
-0.927295218
  0
ELLIPSE
  5
879
100
AcDbEntity
  8
ASSI
100
AcDbEllipse
 62
7
  6
CONTINUOUS
 10
-8.149983104
 20
13.6106247347
 30
0.0
 11
0.0
 21
0.8
 31
0.0
 40
0.0087268678
 41
-4.7123889804
 42
-3.1459559767
  0
ELLIPSE
  5
87A
100
AcDbEntity
  8
ASSI
100
AcDbEllipse
 62
7
  6
CONTINUOUS
 10
-7.9213391678
 20
15.3497880083
 30
0.0
 11
-0.0
 21
1.0
 31
0.0
 40
0.0087268678
 41
0.927295218
 42
2.2142974356
  0
ELLIPSE
  5
87B
100
AcDbEntity
  8
ASSI
100
AcDbEllipse
 62
7
  6
CONTINUOUS
 10
-8.5295523285
 20
9.0766225233
 30
0.0
 11
0.0
 21
1.0
 31
0.0
 40
0.0087268678
 41
-4.7123889804
 42
-3.1503192998
  0
ELLIPSE
  5
87C
100
AcDbEntity
  8
ASSI
100
AcDbEllipse
 62
7
  6
CONTINUOUS
 10
8.1240405447
 20
9.0766225233
 30
0.0
 11
-0.0
 21
1.0
 31
0.0
 40
0.0087268678
 41
-3.1328660073
 42
-1.5707963268
  0
ELLIPSE
  5
87D
100
AcDbEntity
  8
ASSI
100
AcDbEllipse
 62
7
  6
CONTINUOUS
 10
-9.6993370885
 20
-4.7689195325
 30
0.0
 11
0.0
 21
0.8
 31
0.0
 40
0.0042735043
 41
-4.7123816029
 42
-3.1503192998
  0
ELLIPSE
  5
87E
100
AcDbEntity
  8
ASSI
100
AcDbEllipse
 62
7
  6
CONTINUOUS
 10
9.2938253047
 20
-8.6315044508
 30
0.0
 11
0.0
 21
0.8
 31
0.0
 40
0.0042735043
 41
-1.5707889809
 42
-0.0087266463
  0
ELLIPSE
  5
87F
100
AcDbEntity
  8
ASSI
100
AcDbEllipse
 62
7
  6
CONTINUOUS
 10
9.2938253047
 20
-4.7689195325
 30
0.0
 11
-0.0
 21
0.8
 31
0.0
 40
0.0042735043
 41
-3.1328660073
 42
-1.5708036749
  0
ELLIPSE
  5
880
100
AcDbEntity
  8
ASSI
100
AcDbEllipse
 62
7
  6
CONTINUOUS
 10
-9.6993370885
 20
-8.6315044508
 30
0.0
 11
0.0
 21
0.8
 31
0.0
 40
0.0042735043
 41
0.0087266463
 42
1.5707889242
  0
ELLIPSE
  5
881
100
AcDbEntity
  8
ASSI
100
AcDbEllipse
 62
7
  6
CONTINUOUS
 10
8.658073219
 20
10.188951282
 30
0.0
 11
-0.0
 21
0.8
 31
0.0
 40
0.0043633508
 41
-0.0248023372
 42
-0.0043633231
  0
ELLIPSE
  5
882
100
AcDbEntity
  8
ASSI
100
AcDbEllipse
 62
7
  6
CONTINUOUS
 10
8.658073219
 20
13.6106247347
 30
0.0
 11
-0.0
 21
0.8
 31
0.0
 40
0.0043633508
 41
-3.1372293305
 42
-3.1167903164
  0
ELLIPSE
  5
883
100
AcDbEntity
  8
ASSI
100
AcDbEllipse
 62
7
  6
CONTINUOUS
 10
-9.0635850027
 20
10.188951282
 30
0.0
 11
-0.0
 21
0.8
 31
0.0
 40
0.0043633508
 41
0.0043633231
 42
0.0248023372
  0
ELLIPSE
  5
884
100
AcDbEntity
  8
ASSI
100
AcDbEllipse
 62
7
  6
CONTINUOUS
 10
-9.0635850027
 20
13.6106247347
 30
0.0
 11
-0.0
 21
0.8
 31
0.0
 40
0.0043633508
 41
-3.1663949907
 42
-3.1459559767
  0
ENDSEC
  0
SECTION
  2
OBJECTS
  0
DICTIONARY
  5
C
100
AcDbDictionary
280
0
281
1
  3
ACAD_GROUP
350
D
  3
ACAD_MLINESTYLE
350
17
  3
ACAD_LAYOUT
350
1A
  3
ACAD_PLOTSETTINGS
350
19
  3
ACAD_PLOTSTYLENAME
350
E
  0
DICTIONARY
  5
D
102
{ACAD_REACTORS
330
C
102
}
100
AcDbDictionary
280
0
281
1
  0
ACDBDICTIONARYWDFLT
  5
E
102
{ACAD_REACTORS
330
C
102
}
100
AcDbDictionary
281
1
  3
Normal
350
F
100
AcDbDictionaryWithDefault
340
F
  0
DICTIONARY
  5
17
102
{ACAD_REACTORS
330
C
102
}
100
AcDbDictionary
280
0
281
1
  3
Standard
350
18
  0
DICTIONARY
  5
19
102
{ACAD_REACTORS
330
C
102
}
100
AcDbDictionary
281
1
  0
DICTIONARY
  5
1A
102
{ACAD_REACTORS
330
C
102
}
100
AcDbDictionary
281
1
  3
Model
350
885
  3
Layout1
350
886
  0
ACDBPLACEHOLDER
  5
F
102
{ACAD_REACTORS
330
E
102
}
  0
MLINESTYLE
  5
18
102
{ACAD_REACTORS
330
17
102
}
100
AcDbMlineStyle
  2
STANDARD
 70
0
  3

 62
256
 51
90.0
 52
90.0
 71
2
 49
0.5
 62
256
  6
BYLAYER
 49
-0.5
 62
256
  6
BYLAYER
  0
LAYOUT
  5
885
102
{ACAD_REACTORS
330
1A
102
}
100
AcDbPlotSettings
  1

  2
none_device
  4
ISO_A4_(297.00_x_210.00_MM)
  6

 40
0.0
 41
0.0
 42
0.0
 43
0.0
 44
297.0
 45
210.0
 46
0.0
 47
0.0
 48
0.0
 49
0.0
140
0.0
141
0.0
142
1.0
143
1.0
 70
1024
 72
1
 73
0
 74
0
  7

 75
0
147
1.0
148
0.0
149
0.0
100
AcDbLayout
  1
Model
 70
0
 71
0
 10
0.0
 20
0.0
 11
297.0
 21
210.0
 12
0.0
 22
0.0
 32
0.0
 14
0.0
 24
0.0
 34
0.0
 15
0.0
 25
0.0
 35
0.0
146
0.0
 13
0.0
 23
0.0
 33
0.0
 16
1.0
 26
0.0
 36
0.0
 17
0.0
 27
1.0
 37
0.0
 76
0
330
21A
345
0
346
0
  0
LAYOUT
  5
886
102
{ACAD_REACTORS
330
1A
102
}
100
AcDbPlotSettings
  1

  2
none_device
  4
ISO_A4_(297.00_x_210.00_MM)
  6

 40
0.0
 41
0.0
 42
0.0
 43
0.0
 44
297.0
 45
210.0
 46
0.0
 47
0.0
 48
0.0
 49
0.0
140
0.0
141
0.0
142
1.0
143
1.0
 70
0
 72
1
 73
0
 74
0
  7

 75
0
147
1.0
148
0.0
149
0.0
100
AcDbLayout
  1
Layout1
 70
0
 71
1
 10
0.0
 20
0.0
 11
297.0
 21
210.0
 12
0.0
 22
0.0
 32
0.0
 14
0.0
 24
0.0
 34
0.0
 15
0.0
 25
0.0
 35
0.0
146
0.0
 13
0.0
 23
0.0
 33
0.0
 16
1.0
 26
0.0
 36
0.0
 17
0.0
 27
1.0
 37
0.0
 76
0
330
21B
345
0
346
0
  0
ENDSEC
  0
EOF
