  0
SECTION
  2
HEADER
  9
$ACADVER
  1
AC1024
  9
$DWGCODEPAGE
  3
ANSI_1252
  9
$EXTMAX
 10
297.0
 20
210.0
 30
0.0
  9
$EXTMIN
 10
0.0
 20
0.0
 30
0.0
  9
$LIMMIN
 10
0.0
 20
0.0
  9
$LIMMAX
 10
297.0
 20
210.0
  9
$VIEWCTR
 10
148.5
 20
105.0
  9
$VIEWSIZE
 40
210.0
  9
$CLAYER
  8
0
  9
$LTSCALE
 40
16.335
  9
$CELTYPE
  6
BYLAYER
  9
$DIMSCALE
 40
1.0
  9
$DIMASZ
 40
3.0
  9
$DIMEXO
 40
0.5
  9
$DIMDLI
 40
11.286
  9
$DIMEXE
 40
1.5
  9
$DIMCEN
 40
2.673
  9
$DIMLFAC
 40
1.0
  9
$DIMBLK
  1
_FILLED
  9
$DIMALT
 70
0
  9
$DIMALTF
 40
0.0393700787
  9
$DIMTXT
 40
3.0
  9
$DIMTOL
 70
1
  9
$DIMLIM
 70
0
  9
$DIMTFAC
 40
1.0
  9
$DIMTP
 40
0.01
  9
$DIMTM
 40
0.01
  9
$DIMGAP
 40
0.625
  9
$DIMDSEP
 70
44
  9
$AUNITS
 70
0
  9
$PDMODE
 70
3
  9
$PDSIZE
 40
3.0
  9
$HANDSEED
  5
6E9
  9
$TILEMODE
 70
1
  9
$MEASUREMENT
 70
1
  9
$INSUNITS
 70
4
  0
ENDSEC
  0
SECTION
  2
CLASSES
  0
CLASS
  1
ACDBDICTIONARYWDFLT
  2
AcDbDictionaryWithDefault
  3
AutoCAD 2000
 90
0
 91
1
280
0
281
0
  0
CLASS
  1
ACDBPLACEHOLDER
  2
AcDbPlaceHolder
  3
AutoCAD 2000
 90
0
 91
1
280
0
281
0
  0
CLASS
  1
LAYOUT
  2
AcDbLayout
  3
AutoCAD 2000
 90
0
 91
0
280
0
281
0
  0
ENDSEC
  0
SECTION
  2
TABLES
  0
TABLE
  2
VPORT
  5
8
100
AcDbSymbolTable
 70
2
  0
VPORT
  5
1F4
100
AcDbSymbolTableRecord
100
AcDbViewportTableRecord
  2
*ACTIVE
 70
0
 10
0.0
 20
0.0
 11
1.0
 21
1.0
 12
148.5
 22
105.0
 13
0.0
 23
0.0
 14
1.0
 24
1.0
 15
0.0
 25
0.0
 16
0.0
 26
0.0
 36
1.0
 17
0.0
 27
0.0
 37
0.0
 40
210.0
 41
1.4142857143
 42
50.0
 43
0.0
 44
0.0
 50
0.0
 51
0.0
 71
0
 72
100
 73
1
 74
1
 75
0
 76
0
 77
0
 78
0
  0
ENDTAB
  0
TABLE
  2
LTYPE
  5
5
100
AcDbSymbolTable
 70
6
  0
LTYPE
  5
14
100
AcDbSymbolTableRecord
100
AcDbLinetypeTableRecord
  2
BYBLOCK
 70
0
  3

 72
65
 73
0
 40
0.0
  0
LTYPE
  5
15
100
AcDbSymbolTableRecord
100
AcDbLinetypeTableRecord
  2
BYLAYER
 70
0
  3

 72
65
 73
0
 40
0.0
  0
LTYPE
  5
16
100
AcDbSymbolTableRecord
100
AcDbLinetypeTableRecord
  2
CONTINUOUS
 70
64
  3
Solid line
 72
65
 73
0
 40
0.0
  0
LTYPE
  5
1F5
100
AcDbSymbolTableRecord
100
AcDbLinetypeTableRecord
  2
CENTER
 70
64
  3
____ _ ____ _ ____ _ ____ _ ____ _ ____ _ ____
 72
65
 73
4
 40
0.6
 49
0.375
 74
0
 49
-0.075
 74
0
 49
0.075
 74
0
 49
-0.075
 74
0
  0
LTYPE
  5
1F6
100
AcDbSymbolTableRecord
100
AcDbLinetypeTableRecord
  2
HIDDEN
 70
64
  3
- - - - - - - - - - - - - - - - - - - -
 72
65
 73
2
 40
0.2
 49
0.1
 74
0
 49
-0.1
 74
0
  0
LTYPE
  5
1F7
100
AcDbSymbolTableRecord
100
AcDbLinetypeTableRecord
  2
PHANTOM
 70
64
  3
_____ _ _ _____ _ _ _____ _ _ _____
 72
65
 73
6
 40
0.8
 49
0.45
 74
0
 49
-0.05
 74
0
 49
0.1
 74
0
 49
-0.05
 74
0
 49
0.1
 74
0
 49
-0.05
 74
0
  0
LTYPE
  5
1F8
100
AcDbSymbolTableRecord
100
AcDbLinetypeTableRecord
  2
DOT
 70
64
  3
. . . . . . . . . . . . . . . . . . . .
 72
65
 73
2
 40
0.2
 49
0.1
 74
0
 49
-0.1
 74
0
  0
LTYPE
  5
1F9
100
AcDbSymbolTableRecord
100
AcDbLinetypeTableRecord
  2
DASHED
 70
64
  3
- - - - - - - - - - - - - - - - - - - -
 72
65
 73
2
 40
0.2
 49
0.1
 74
0
 49
-0.1
 74
0
  0
ENDTAB
  0
TABLE
  2
LAYER
  5
2
100
AcDbSymbolTable
 70
36
  0
LAYER
  5
10
100
AcDbSymbolTableRecord
100
AcDbLayerTableRecord
  2
0
 70
0
 62
7
  6
CONTINUOUS
370
-3
390
F
  0
LAYER
  5
1FA
100
AcDbSymbolTableRecord
100
AcDbLayerTableRecord
  2
DEFAULT_1
 70
0
 62
7
  6
CENTER
370
-3
390
F
  0
LAYER
  5
1FB
100
AcDbSymbolTableRecord
100
AcDbLayerTableRecord
  2
DEFAULT_2
 70
0
 62
7
  6
HIDDEN
370
-3
390
F
  0
LAYER
  5
1FC
100
AcDbSymbolTableRecord
100
AcDbLayerTableRecord
  2
DEFAULT_3
 70
0
 62
7
  6
PHANTOM
370
-3
390
F
  0
LAYER
  5
1FD
100
AcDbSymbolTableRecord
100
AcDbLayerTableRecord
  2
ASSI
 70
0
 62
7
  6
CONTINUOUS
370
-3
390
F
  0
LAYER
  5
1FE
100
AcDbSymbolTableRecord
100
AcDbLayerTableRecord
  2
COORDINATE
 70
0
 62
7
  6
CONTINUOUS
370
-3
390
F
  0
LAYER
  5
1FF
100
AcDbSymbolTableRecord
100
AcDbLayerTableRecord
  2
COORD_ORIGINE
 70
0
 62
7
  6
CONTINUOUS
370
-3
390
F
  0
LAYER
  5
200
100
AcDbSymbolTableRecord
100
AcDbLayerTableRecord
  2
CURVE
 70
0
 62
7
  6
CONTINUOUS
370
-3
390
F
  0
LAYER
  5
201
100
AcDbSymbolTableRecord
100
AcDbLayerTableRecord
  2
C_COMP
 70
0
 62
7
  6
CONTINUOUS
370
-3
390
F
  0
LAYER
  5
202
100
AcDbSymbolTableRecord
100
AcDbLayerTableRecord
  2
DRAFT
 70
0
 62
7
  6
CONTINUOUS
370
-3
390
F
  0
LAYER
  5
203
100
AcDbSymbolTableRecord
100
AcDbLayerTableRecord
  2
IMPORT_FEATURES
 70
0
 62
7
  6
CONTINUOUS
370
-3
390
F
  0
LAYER
  5
204
100
AcDbSymbolTableRecord
100
AcDbLayerTableRecord
  2
INTF_1
 70
0
 62
7
  6
CONTINUOUS
370
-3
390
F
  0
LAYER
  5
205
100
AcDbSymbolTableRecord
100
AcDbLayerTableRecord
  2
INTF_8
 70
0
 62
7
  6
CONTINUOUS
370
-3
390
F
  0
LAYER
  5
206
100
AcDbSymbolTableRecord
100
AcDbLayerTableRecord
  2
NOTE
 70
0
 62
7
  6
CONTINUOUS
370
-3
390
F
  0
LAYER
  5
207
100
AcDbSymbolTableRecord
100
AcDbLayerTableRecord
  2
PIANI
 70
0
 62
7
  6
CONTINUOUS
370
-3
390
F
  0
LAYER
  5
208
100
AcDbSymbolTableRecord
100
AcDbLayerTableRecord
  2
PIANI_ORIGINE
 70
0
 62
7
  6
CONTINUOUS
370
-3
390
F
  0
LAYER
  5
209
100
AcDbSymbolTableRecord
100
AcDbLayerTableRecord
  2
PUNTI
 70
0
 62
7
  6
CONTINUOUS
370
-3
390
F
  0
LAYER
  5
20A
100
AcDbSymbolTableRecord
100
AcDbLayerTableRecord
  2
RACCORDO
 70
0
 62
7
  6
CONTINUOUS
370
-3
390
F
  0
LAYER
  5
20B
100
AcDbSymbolTableRecord
100
AcDbLayerTableRecord
  2
SMUSSO
 70
0
 62
7
  6
CONTINUOUS
370
-3
390
F
  0
LAYER
  5
20C
100
AcDbSymbolTableRecord
100
AcDbLayerTableRecord
  2
SNAPLINE
 70
0
 62
7
  6
CONTINUOUS
370
-3
390
F
  0
LAYER
  5
20D
100
AcDbSymbolTableRecord
100
AcDbLayerTableRecord
  2
SUPERFICI
 70
0
 62
7
  6
CONTINUOUS
370
-3
390
F
  0
LAYER
  5
20E
100
AcDbSymbolTableRecord
100
AcDbLayerTableRecord
  2
TRASH
 70
0
 62
7
  6
CONTINUOUS
370
-3
390
F
  0
LAYER
  5
20F
100
AcDbSymbolTableRecord
100
AcDbLayerTableRecord
  2
XSEC_DATUMS
 70
0
 62
7
  6
CONTINUOUS
370
-3
390
F
  0
ENDTAB
  0
TABLE
  2
STYLE
  5
3
100
AcDbSymbolTable
 70
1
  0
STYLE
  5
11
100
AcDbSymbolTableRecord
100
AcDbTextStyleTableRecord
  2
STANDARD
 70
0
 40
0.0
 41
0.8
 50
0.0
 71
0
 42
0.2
  3
txt
  4

  0
STYLE
  5
210
100
AcDbSymbolTableRecord
100
AcDbTextStyleTableRecord
  2
TEXTSTYLE_1
 70
0
 40
0.0
 41
0.8
 50
0.0
 71
0
 42
0.2
  3
gdt
  4

  0
ENDTAB
  0
TABLE
  2
VIEW
  5
6
100
AcDbSymbolTable
 70
0
  0
ENDTAB
  0
TABLE
  2
UCS
  5
7
100
AcDbSymbolTable
 70
0
  0
ENDTAB
  0
TABLE
  2
APPID
  5
9
100
AcDbSymbolTable
 70
1
  0
APPID
  5
211
100
AcDbSymbolTableRecord
100
AcDbRegAppTableRecord
  2
ACAD
 70
0
  0
ENDTAB
  0
TABLE
  2
BLOCK_RECORD
  5
1
100
AcDbSymbolTable
 70
0
  0
BLOCK_RECORD
  5
212
100
AcDbSymbolTableRecord
100
AcDbBlockTableRecord
  2
*Model_Space
  0
BLOCK_RECORD
  5
213
100
AcDbSymbolTableRecord
100
AcDbBlockTableRecord
  2
*Paper_Space
  0
BLOCK_RECORD
  5
214
100
AcDbSymbolTableRecord
100
AcDbBlockTableRecord
  2
_FILLED
  0
ENDTAB
  0
TABLE
  2
DIMSTYLE
  5
A
100
AcDbSymbolTable
 70
1
100
AcDbDimStyleTable
 71
0
  0
DIMSTYLE
105
215
100
AcDbSymbolTableRecord
100
AcDbDimStyleTableRecord
  2
STANDARD
 70
0
  3

  4

 40
1.0
 41
3.0
 42
0.5
 43
0.38
 44
1.5
 45
0.0
 46
0.0
 47
0.01
 48
0.01
140
3.0
141
0.09
142
0.0
143
25.4
144
1.0
145
0.0
146
1.0
147
0.625
 71
1
 72
0
 73
0
 74
0
 75
0
 76
0
 77
1
 78
8
 79
2
170
0
171
1
172
0
173
0
174
0
175
0
176
0
177
0
178
0
270
2
179
2
271
2
272
2
273
2
274
2
275
0
280
0
281
0
282
0
283
1
284
8
285
0
286
0
287
3
288
0
340
11
278
44
341
214
342
214
343
214
344
214
  0
ENDTAB
  0
ENDSEC
  0
SECTION
  2
BLOCKS
  0
BLOCK
  5
20
100
AcDbEntity
  8
0
100
AcDbBlockBegin
  2
*Model_Space
 70
0
 10
0.0
 20
0.0
 30
0.0
  3
*Model_Space
  1

  0
ENDBLK
  5
21
100
AcDbEntity
  8
0
100
AcDbBlockEnd
  0
BLOCK
  5
1C
100
AcDbEntity
  8
0
100
AcDbBlockBegin
  2
*Paper_Space
 70
0
 10
0.0
 20
0.0
 30
0.0
  3
*Paper_Space
  1

  0
ENDBLK
  5
1D
100
AcDbEntity
  8
0
100
AcDbBlockEnd
  0
BLOCK
  5
216
100
AcDbEntity
  8
0
100
AcDbBlockBegin
  2
_FILLED
 70
64
 10
0.0
 20
0.0
  3
_FILLED
  1

  0
SOLID
  5
217
100
AcDbEntity
  8
0
  6
BYBLOCK
 62
0
100
AcDbTrace
 10
0.0
 20
0.0
 11
-1.0
 21
0.3166666667
 12
-1.0
 22
-0.3166666667
 13
-1.0
 23
-0.3166666667
  0
ENDBLK
  5
218
100
AcDbEntity
  8
0
  6
BYBLOCK
 62
0
100
AcDbBlockEnd
  0
ENDSEC
  0
SECTION
  2
ENTITIES
  0
LINE
  5
219
100
AcDbEntity
  8
DRAFT
100
AcDbLine
 62
7
  6
CONTINUOUS
 10
-3.0
 20
-23.5
 11
-2.7812783412
 21
-23.4563623377
  0
LINE
  5
21A
100
AcDbEntity
  8
DRAFT
100
AcDbLine
 62
7
  6
CONTINUOUS
 10
-3.9733373476
 20
-23.5
 11
-3.0
 21
-23.5
  0
LINE
  5
21B
100
AcDbEntity
  8
DRAFT
100
AcDbLine
 62
7
  6
CONTINUOUS
 10
3.0
 20
-23.5
 11
3.9733373476
 21
-23.5
  0
LINE
  5
21C
100
AcDbEntity
  8
DRAFT
100
AcDbLine
 62
7
  6
CONTINUOUS
 10
-2.7812783412
 20
-23.4563623377
 11
2.7812783412
 21
-23.4563623377
  0
LINE
  5
21D
100
AcDbEntity
  8
DRAFT
100
AcDbLine
 62
7
  6
CONTINUOUS
 10
-3.9526845545
 20
-23.4301797403
 11
3.9526845545
 21
-23.4301797403
  0
LINE
  5
21E
100
AcDbEntity
  8
DRAFT
100
AcDbLine
 62
7
  6
CONTINUOUS
 10
-10.6503805997
 20
-22.4
 11
-5.55
 21
-22.4
  0
LINE
  5
21F
100
AcDbEntity
  8
0
100
AcDbLine
 62
7
  6
CONTINUOUS
 10
3.1
 20
-22.4
 11
-3.1
 21
-22.4
  0
LINE
  5
220
100
AcDbEntity
  8
DRAFT
100
AcDbLine
 62
7
  6
CONTINUOUS
 10
5.55
 20
-22.4
 11
10.6503805997
 21
-22.4
  0
LINE
  5
221
100
AcDbEntity
  8
DRAFT
100
AcDbLine
 62
7
  6
CONTINUOUS
 10
3.0
 20
-23.5
 11
2.7812783412
 21
-23.4563623377
  0
LINE
  5
222
100
AcDbEntity
  8
RACCORDO
100
AcDbLine
 62
7
  6
CONTINUOUS
 10
-7.2269247239
 20
20.8478512967
 11
-7.220580698
 21
20.8531402183
  0
LWPOLYLINE
  5
223
100
AcDbEntity
  8
RACCORDO
100
AcDbPolyline
 62
7
  6
CONTINUOUS
 90
5
 70
0
 10
7.2419286989
 20
-20.8366629075
 10
7.2410711055
 20
-20.8368010859
 10
7.2391819588
 20
-20.8380636213
 10
7.2362200436
 20
-20.8403931379
 10
7.2269247239
 20
-20.8478512967
  0
LWPOLYLINE
  5
224
100
AcDbEntity
  8
RACCORDO
100
AcDbPolyline
 62
250
  6
CONTINUOUS
 90
13
 70
0
 10
7.0294001425
 20
-20.2585786438
 10
7.0553235464
 20
-20.257159202
 10
7.0808217567
 20
-20.2533749129
 10
7.1054631376
 20
-20.2472862956
 10
7.128834401
 20
-20.2389909837
 10
7.1505322297
 20
-20.2286273937
 10
7.170174151
 20
-20.2163768226
 10
7.1874402364
 20
-20.2024368699
 10
7.2020236077
 20
-20.1870530906
 10
7.2136494171
 20
-20.1705357589
 10
7.2221423768
 20
-20.1531896548
 10
7.2274017151
 20
-20.1352963416
 10
7.2293696815
 20
-20.1171572875
  0
LINE
  5
225
100
AcDbEntity
  8
DRAFT
100
AcDbLine
 62
7
  6
CONTINUOUS
 10
-6.9339198284
 20
-21.2
 11
6.9339198284
 21
-21.2
  0
LINE
  5
226
100
AcDbEntity
  8
DRAFT
100
AcDbLine
 62
7
  6
CONTINUOUS
 10
6.8667670239
 20
-21.1647852141
 11
3.75
 21
-21.1647852141
  0
LINE
  5
227
100
AcDbEntity
  8
DRAFT
100
AcDbLine
 62
7
  6
CONTINUOUS
 10
-3.75
 20
-21.1647852141
 11
-6.8667670239
 21
-21.1647852141
  0
LINE
  5
228
100
AcDbEntity
  8
DRAFT
100
AcDbLine
 62
7
  6
CONTINUOUS
 10
-9.65
 20
-20.9
 11
-7.3830351795
 21
-20.9
  0
LINE
  5
229
100
AcDbEntity
  8
DRAFT
100
AcDbLine
 62
7
  6
CONTINUOUS
 10
7.3830351795
 20
-20.9
 11
9.65
 21
-20.9
  0
LINE
  5
22A
100
AcDbEntity
  8
RACCORDO
100
AcDbLine
 62
250
  6
CONTINUOUS
 10
-6.8556039598
 20
-20.7438927334
 11
6.8556039598
 21
-20.7438927334
  0
LWPOLYLINE
  5
22B
100
AcDbEntity
  8
RACCORDO
100
AcDbPolyline
 62
7
  6
CONTINUOUS
 90
4
 70
0
 10
-7.2359625226
 20
-20.8405916279
 10
-7.2390584773
 20
-20.8381523097
 10
-7.2410348192
 20
-20.8368223095
 10
-7.2419286989
 20
-20.8366629075
  0
LWPOLYLINE
  5
22C
100
AcDbEntity
  8
RACCORDO
100
AcDbPolyline
 62
7
  6
CONTINUOUS
 90
3
 70
0
 10
-7.2196903263
 20
-20.8538879833
 10
-7.2262675205
 20
-20.8484063534
 10
-7.2359625226
 20
-20.8405916279
  0
LINE
  5
22D
100
AcDbEntity
  8
RACCORDO
100
AcDbLine
 62
7
  6
CONTINUOUS
 10
-7.0558748029
 20
20.9974535594
 11
-7.0425072881
 21
21.0094865114
  0
LINE
  5
22E
100
AcDbEntity
  8
RACCORDO
100
AcDbLine
 62
7
  6
CONTINUOUS
 10
-7.109491252
 20
20.9499376587
 11
-7.0558748029
 21
20.9974535594
  0
LWPOLYLINE
  5
22F
100
AcDbEntity
  8
RACCORDO
100
AcDbPolyline
 62
7
  6
CONTINUOUS
 90
3
 70
0
 10
-7.1948944826
 20
20.8750755783
 10
-7.1610166107
 20
20.9045842926
 10
-7.109491252
 20
20.9499376587
  0
LINE
  5
230
100
AcDbEntity
  8
RACCORDO
100
AcDbLine
 62
7
  6
CONTINUOUS
 10
-7.220580698
 20
20.8531402183
 11
-7.1948944826
 21
20.8750755783
  0
LWPOLYLINE
  5
231
100
AcDbEntity
  8
RACCORDO
100
AcDbPolyline
 62
7
  6
CONTINUOUS
 90
6
 70
0
 10
-6.7481955893
 20
18.5323321224
 10
-6.7572249791
 20
18.5267949192
 10
-6.7806873992
 20
18.5152240935
 10
-6.8054593334
 20
18.5068148347
 10
-6.8311169269
 20
18.5017110277
 10
-6.8572211714
 20
18.5
  0
LWPOLYLINE
  5
232
100
AcDbEntity
  8
RACCORDO
100
AcDbPolyline
 62
7
  6
CONTINUOUS
 90
3
 70
0
 10
-6.7432991968
 20
18.5154061091
 10
-6.7681744471
 20
18.5069073744
 10
-6.7939855153
 20
18.5017370046
  0
LINE
  5
233
100
AcDbEntity
  8
RACCORDO
100
AcDbLine
 62
7
  6
CONTINUOUS
 10
6.7939855153
 20
-18.5017370046
 11
6.8202886235
 21
-18.5
  0
LWPOLYLINE
  5
234
100
AcDbEntity
  8
RACCORDO
100
AcDbPolyline
 62
250
  6
CONTINUOUS
 90
13
 70
0
 10
-6.8598392317
 20
-20.2585786438
 10
-6.8338112531
 20
-20.2572623286
 10
-6.8082132153
 20
-20.2535604456
 10
-6.7834819673
 20
-20.2475324589
 10
-6.7600355757
 20
-20.2392755665
 10
-6.7382822012
 20
-20.2289285414
 10
-6.7186088814
 20
-20.2166740213
 10
-6.7013382517
 20
-20.2027109185
 10
-6.6867803067
 20
-20.1872875146
 10
-6.67521242
 20
-20.1707191451
 10
-6.6668092065
 20
-20.1533149498
 10
-6.66166905
 20
-20.1353593577
 10
-6.6598468471
 20
-20.1171572875
  0
LINE
  5
235
100
AcDbEntity
  8
RACCORDO
100
AcDbLine
 62
7
  6
CONTINUOUS
 10
-6.6582893563
 20
-20.5731858629
 11
6.6582893563
 21
-20.5731858629
  0
LINE
  5
236
100
AcDbEntity
  8
DRAFT
100
AcDbLine
 62
7
  6
CONTINUOUS
 10
-9.5838661374
 20
-20.5028438891
 11
-7.5153129787
 21
-20.5028438891
  0
LINE
  5
237
100
AcDbEntity
  8
DRAFT
100
AcDbLine
 62
7
  6
CONTINUOUS
 10
7.5153129787
 20
-20.5028438891
 11
9.5838661374
 21
-20.5028438891
  0
LINE
  5
238
100
AcDbEntity
  8
DRAFT
100
AcDbLine
 62
7
  6
CONTINUOUS
 10
-6.5168765708
 20
-20.4338413913
 11
-0.3972163531
 21
-20.4338413913
  0
LINE
  5
239
100
AcDbEntity
  8
DRAFT
100
AcDbLine
 62
7
  6
CONTINUOUS
 10
0.3972163531
 20
-20.4338413913
 11
6.5168765708
 21
-20.4338413913
  0
LINE
  5
23A
100
AcDbEntity
  8
RACCORDO
100
AcDbLine
 62
250
  6
CONTINUOUS
 10
-7.0294001425
 20
-20.2585786438
 11
-6.8598392317
 21
-20.2585786438
  0
LINE
  5
23B
100
AcDbEntity
  8
RACCORDO
100
AcDbLine
 62
250
  6
CONTINUOUS
 10
6.8598392317
 20
-20.2585786438
 11
7.0294001425
 21
-20.2585786438
  0
LINE
  5
23C
100
AcDbEntity
  8
RACCORDO
100
AcDbLine
 62
250
  6
CONTINUOUS
 10
-7.2293696815
 20
-20.1171572875
 11
-6.6598468471
 21
-20.1171572875
  0
LINE
  5
23D
100
AcDbEntity
  8
RACCORDO
100
AcDbLine
 62
250
  6
CONTINUOUS
 10
6.6598468471
 20
-20.1171572875
 11
7.2293696815
 21
-20.1171572875
  0
LINE
  5
23E
100
AcDbEntity
  8
RACCORDO
100
AcDbLine
 62
250
  6
CONTINUOUS
 10
-0.2629729446
 20
-19.883663494
 11
0.2629729446
 21
-19.883663494
  0
LINE
  5
23F
100
AcDbEntity
  8
RACCORDO
100
AcDbLine
 62
250
  6
CONTINUOUS
 10
-0.0649210165
 20
-19.4007005808
 11
0.0649210165
 21
-19.4007005808
  0
LINE
  5
240
100
AcDbEntity
  8
RACCORDO
100
AcDbLine
 62
250
  6
CONTINUOUS
 10
-6.6598468471
 20
-19.0
 11
-7.2293696815
 21
-19.0
  0
LINE
  5
241
100
AcDbEntity
  8
RACCORDO
100
AcDbLine
 62
250
  6
CONTINUOUS
 10
6.6598468471
 20
-19.0
 11
7.2293696815
 21
-19.0
  0
LWPOLYLINE
  5
242
100
AcDbEntity
  8
RACCORDO
100
AcDbPolyline
 62
7
  6
CONTINUOUS
 90
6
 70
0
 10
-6.8572211714
 20
-18.5
 10
-6.8311169269
 20
-18.5017110277
 10
-6.8054593333
 20
-18.5068148348
 10
-6.7806873991
 20
-18.5152240935
 10
-6.757224979
 20
-18.5267949193
 10
-6.7451223079
 20
-18.5343712351
  0
LINE
  5
243
100
AcDbEntity
  8
RACCORDO
100
AcDbLine
 62
7
  6
CONTINUOUS
 10
-6.7936861374
 20
-18.5017851593
 11
-6.8198368876
 21
-18.5
  0
LWPOLYLINE
  5
244
100
AcDbEntity
  8
RACCORDO
100
AcDbPolyline
 62
7
  6
CONTINUOUS
 90
3
 70
0
 10
-6.7432134297
 20
-18.5154418811
 10
-6.7679982835
 20
-18.5069623748
 10
-6.7936861374
 20
-18.5017851593
  0
LWPOLYLINE
  5
245
100
AcDbEntity
  8
RACCORDO
100
AcDbPolyline
 62
250
  6
CONTINUOUS
 90
9
 70
0
 10
-6.7451223079
 20
-18.5343712351
 10
-6.7354735214
 20
-18.541329332
 10
-6.7158052
 20
-18.5585786439
 10
-6.698556545
 20
-18.5782477143
 10
-6.6840226857
 20
-18.6000000001
 10
-6.6724523006
 20
-18.6234633136
 10
-6.664043362
 20
-18.648236191
 10
-6.6589397493
 20
-18.6738947616
 10
-6.6572287868
 20
-18.7
  0
LINE
  5
246
100
AcDbEntity
  8
RACCORDO
100
AcDbLine
 62
7
  6
CONTINUOUS
 10
-7.1933978089
 20
-20.8763693994
 11
-7.2196903263
 21
-20.8538879833
  0
LWPOLYLINE
  5
247
100
AcDbEntity
  8
RACCORDO
100
AcDbPolyline
 62
7
  6
CONTINUOUS
 90
3
 70
0
 10
-7.0684513858
 20
-20.9862689467
 10
-7.0949472853
 20
-20.9628966865
 10
-7.1082227362
 20
-20.9510743423
  0
LWPOLYLINE
  5
248
100
AcDbEntity
  8
RACCORDO
100
AcDbPolyline
 62
7
  6
CONTINUOUS
 90
3
 70
0
 10
-7.1082227362
 20
-20.9510743423
 10
-7.1472234187
 20
-20.9166738743
 10
-7.1933978089
 20
-20.8763693994
  0
LWPOLYLINE
  5
249
100
AcDbEntity
  8
RACCORDO
100
AcDbPolyline
 62
7
  6
CONTINUOUS
 90
3
 70
0
 10
-7.0425072881
 20
-21.0094865114
 10
-7.0553773716
 20
-20.9978705966
 10
-7.0684513858
 20
-20.9862689467
  0
LINE
  5
24A
100
AcDbEntity
  8
0
100
AcDbLine
 62
7
  6
CONTINUOUS
 10
-2.2348011665
 20
19.0493123953
 11
-1.474963
 21
19.443173
  0
LINE
  5
24B
100
AcDbEntity
  8
0
100
AcDbLine
 62
7
  6
CONTINUOUS
 10
-2.190302
 20
18.65561
 11
-1.474958
 21
19.02641
  0
LINE
  5
24C
100
AcDbEntity
  8
0
100
AcDbLine
 62
7
  6
CONTINUOUS
 10
-3.325042
 20
17.121932
 11
-1.474954
 21
17.715935
  0
LINE
  5
24D
100
AcDbEntity
  8
RACCORDO
100
AcDbLine
 62
7
  6
CONTINUOUS
 10
-7.1348648826
 20
-18.5017443099
 11
-7.1085073836
 21
-18.5
  0
LINE
  5
24E
100
AcDbEntity
  8
RACCORDO
100
AcDbLine
 62
250
  6
CONTINUOUS
 10
6.6572287868
 20
-18.7
 11
6.6200664561
 21
-18.7
  0
LINE
  5
24F
100
AcDbEntity
  8
RACCORDO
100
AcDbLine
 62
250
  6
CONTINUOUS
 10
-6.6572287868
 20
-18.7
 11
-6.6200664561
 21
-18.7
  0
LINE
  5
250
100
AcDbEntity
  8
RACCORDO
100
AcDbLine
 62
250
  6
CONTINUOUS
 10
7.234606201
 20
-18.7
 11
7.3089365232
 21
-18.7
  0
LINE
  5
251
100
AcDbEntity
  8
RACCORDO
100
AcDbLine
 62
250
  6
CONTINUOUS
 10
-7.234606201
 20
-18.7
 11
-7.3089365232
 21
-18.7
  0
LINE
  5
252
100
AcDbEntity
  8
RACCORDO
100
AcDbLine
 62
7
  6
CONTINUOUS
 10
6.8202886235
 20
-18.5
 11
7.1085073836
 21
-18.5
  0
LINE
  5
253
100
AcDbEntity
  8
RACCORDO
100
AcDbLine
 62
7
  6
CONTINUOUS
 10
-6.8202886235
 20
-18.5
 11
-7.1085073836
 21
-18.5
  0
LWPOLYLINE
  5
254
100
AcDbEntity
  8
RACCORDO
100
AcDbPolyline
 62
7
  6
CONTINUOUS
 90
6
 70
0
 10
7.034636662
 20
-18.5
 10
7.0607379245
 20
-18.5017110277
 10
7.0863925872
 20
-18.5068148348
 10
7.1111616916
 20
-18.5152240935
 10
7.1346214316
 20
-18.5267949193
 10
7.1457306125
 20
-18.5337039572
  0
LINE
  5
255
100
AcDbEntity
  8
RACCORDO
100
AcDbLine
 62
7
  6
CONTINUOUS
 10
7.1354636732
 20
-18.5018319132
 11
7.1094109243
 21
-18.5
  0
LINE
  5
256
100
AcDbEntity
  8
DRAFT
100
AcDbLine
 62
7
  6
CONTINUOUS
 10
6.9339198284
 20
21.2
 11
6.8667670239
 21
21.1647852141
  0
LINE
  5
257
100
AcDbEntity
  8
RACCORDO
100
AcDbLine
 62
7
  6
CONTINUOUS
 10
7.3830351795
 20
20.9
 11
7.2419286989
 21
20.8366629075
  0
LINE
  5
258
100
AcDbEntity
  8
0
100
AcDbLine
 62
7
  6
CONTINUOUS
 10
-1.838789
 20
17.229107
 11
-1.474958
 21
17.345916
  0
LINE
  5
259
100
AcDbEntity
  8
0
100
AcDbLine
 62
7
  6
CONTINUOUS
 10
-2.748836
 20
16.936914
 11
-2.190302
 21
17.116239
  0
LWPOLYLINE
  5
25A
100
AcDbEntity
  8
RACCORDO
100
AcDbPolyline
 62
7
  6
CONTINUOUS
 90
16
 70
0
 10
-6.9988692386
 20
-15.1988502001
 10
-7.0509520865
 20
-15.196131188
 10
-7.1025530945
 20
-15.1879856028
 10
-7.1531049333
 20
-15.1744759699
 10
-7.2021153054
 20
-15.155694238
 10
-7.2489617473
 20
-15.1318376392
 10
-7.2929333646
 20
-15.1032770493
 10
-7.3334372192
 20
-15.0704825725
 10
-7.3702153806
 20
-15.0337543415
 10
-7.403085202
 20
-14.9932658405
 10
-7.4317485295
 20
-14.9492470034
 10
-7.4557063755
 20
-14.9023047586
 10
-7.4745512846
 20
-14.8532176614
 10
-7.4880897283
 20
-14.8026390754
 10
-7.4962502297
 20
-14.7510434362
 10
-7.4989810696
 20
-14.699000108
  0
LWPOLYLINE
  5
25B
100
AcDbEntity
  8
RACCORDO
100
AcDbPolyline
 62
7
  6
CONTINUOUS
 90
13
 70
0
 10
-6.7148190698
 20
-15.2755396155
 10
-6.6892152491
 20
-15.2772689045
 10
-6.6639347522
 20
-15.2824239732
 10
-6.6394055691
 20
-15.2909646937
 10
-6.6160314747
 20
-15.3028251148
 10
-6.5942500332
 20
-15.3178327493
 10
-6.5745074607
 20
-15.3356839057
 10
-6.5571737495
 20
-15.3560877535
 10
-6.5425282199
 20
-15.3787409919
 10
-6.53081924
 20
-15.4032420842
 10
-6.5222705553
 20
-15.4291951873
 10
-6.5170642143
 20
-15.4562082555
 10
-6.5153193024
 20
-15.4838500694
  0
LINE
  5
25C
100
AcDbEntity
  8
RACCORDO
100
AcDbLine
 62
7
  6
CONTINUOUS
 10
7.2419286989
 20
-20.8366629075
 11
7.3830351795
 21
-20.9
  0
LINE
  5
25D
100
AcDbEntity
  8
RACCORDO
100
AcDbLine
 62
7
  6
CONTINUOUS
 10
-6.5140249785
 20
-15.1118281743
 11
-6.5
 21
-15.1188401295
  0
LINE
  5
25E
100
AcDbEntity
  8
DRAFT
100
AcDbLine
 62
7
  6
CONTINUOUS
 10
6.9339198284
 20
-21.2
 11
6.8667670239
 21
-21.1647852141
  0
LINE
  5
25F
100
AcDbEntity
  8
DRAFT
100
AcDbLine
 62
7
  6
CONTINUOUS
 10
-9.65
 20
-13.7310577445
 11
-9.5818521307
 21
-13.7992056137
  0
LINE
  5
260
100
AcDbEntity
  8
RACCORDO
100
AcDbLine
 62
7
  6
CONTINUOUS
 10
-0.3972163531
 20
20.4338413913
 11
-0.2629729446
 21
20.5680847998
  0
LWPOLYLINE
  5
261
100
AcDbEntity
  8
RACCORDO
100
AcDbPolyline
 62
7
  6
CONTINUOUS
 90
22
 70
0
 10
6.8556039598
 20
20.7438927334
 10
6.8439789161
 20
20.7378805693
 10
6.8321363454
 20
20.7312003699
 10
6.8200762477
 20
20.7238550254
 10
6.807675079
 20
20.715833352
 10
6.7950563834
 20
20.7071884359
 10
6.7825907924
 20
20.6980495277
 10
6.7702734169
 20
20.6884737471
 10
6.758109146
 20
20.6785497693
 10
6.7464832792
 20
20.6684860309
 10
6.7355401445
 20
20.6585352325
 10
6.7251354139
 20
20.6486470512
 10
6.7152214031
 20
20.6386064448
 10
6.7056971984
 20
20.6285495836
 10
6.6966637136
 20
20.6186690987
 10
6.6883760053
 20
20.6089416221
 10
6.6807906414
 20
20.59955129
 10
6.6739510539
 20
20.5909907663
 10
6.6682425964
 20
20.5837458779
 10
6.6637937198
 20
20.5781702503
 10
6.6604759731
 20
20.5745483306
 10
6.6582893563
 20
20.5731858629
  0
LWPOLYLINE
  5
262
100
AcDbEntity
  8
0
100
AcDbPolyline
 62
7
  6
CONTINUOUS
 90
22
 70
0
 10
8.0977489829
 20
19.2845839307
 10
8.1163352062
 20
19.2920326022
 10
8.1351020398
 20
19.298880648
 10
8.1540494835
 20
19.3051280689
 10
8.1732188575
 20
19.3107308281
 10
8.1925688417
 20
19.3157329641
 10
8.2119754757
 20
19.3202665906
 10
8.2314143896
 20
19.3243411243
 10
8.2509099533
 20
19.3279471494
 10
8.2704113167
 20
19.3311885306
 10
8.2898578794
 20
19.3340713791
 10
8.3093102418
 20
19.3365895842
 10
8.3288993548
 20
19.338828678
 10
8.3486002449
 20
19.3408017559
 10
8.3684378856
 20
19.3424957228
 10
8.3886181492
 20
19.3439568241
 10
8.4091356706
 20
19.3451969197
 10
8.4299958149
 20
19.3462041498
 10
8.4514205496
 20
19.3469891812
 10
8.4734838638
 20
19.3475555695
 10
8.4961117685
 20
19.3478997591
 10
8.5193042636
 20
19.3480217502
  0
LINE
  5
263
100
AcDbEntity
  8
0
100
AcDbLine
 62
7
  6
CONTINUOUS
 10
-3.325037
 20
14.660905
 11
-2.120197
 21
15.006388
  0
LINE
  5
264
100
AcDbEntity
  8
0
100
AcDbLine
 62
7
  6
CONTINUOUS
 10
-2.694959
 20
14.471557
 11
-1.474954
 21
14.821383
  0
LWPOLYLINE
  5
265
100
AcDbEntity
  8
RACCORDO
100
AcDbPolyline
 62
250
  6
CONTINUOUS
 90
19
 70
0
 10
9.5099578574
 20
-13.7240610039
 10
9.5175319676
 20
-13.7231220535
 10
9.5252662759
 20
-13.7207663835
 10
9.5330429435
 20
-13.7169602724
 10
9.5406988695
 20
-13.7116612734
 10
9.5481401839
 20
-13.7048701715
 10
9.5553594873
 20
-13.6966748059
 10
9.5622258961
 20
-13.6871635336
 10
9.5686456389
 20
-13.6763736369
 10
9.5746841534
 20
-13.6643664518
 10
9.5802642886
 20
-13.6511846074
 10
9.5852515461
 20
-13.6369511465
 10
9.58965548
 20
-13.6218790314
 10
9.5934475285
 20
-13.6061198956
 10
9.59655655
 20
-13.5897806435
 10
9.5989796025
 20
-13.5730369564
 10
9.6007157327
 20
-13.5560394092
 10
9.6017543796
 20
-13.5389074426
 10
9.6021053835
 20
-13.5217718508
  0
LWPOLYLINE
  5
266
100
AcDbEntity
  8
RACCORDO
100
AcDbPolyline
 62
250
  6
CONTINUOUS
 90
16
 70
0
 10
-6.3140554395
 20
-14.2860054824
 10
-6.3570576095
 20
-14.2885163937
 10
-6.3985731702
 20
-14.2951451129
 10
-6.4386021216
 20
-14.3058916402
 10
-6.4775191101
 20
-14.3209866923
 10
-6.5149494892
 20
-14.3401995525
 10
-6.5497693201
 20
-14.36283807
 10
-6.5818794786
 20
-14.388952556
 10
-6.6113790888
 20
-14.4184926994
 10
-6.6374415844
 20
-14.4506154166
 10
-6.6600132767
 20
-14.4854083848
 10
-6.6791478545
 20
-14.5227839267
 10
-6.6941798174
 20
-14.5616359269
 10
-6.7048873322
 20
-14.6015956799
 10
-6.7114922323
 20
-14.6430318911
 10
-6.7139945176
 20
-14.6859445605
  0
LWPOLYLINE
  5
267
100
AcDbEntity
  8
RACCORDO
100
AcDbPolyline
 62
7
  6
CONTINUOUS
 90
19
 70
0
 10
10.25
 20
-13.7240610192
 10
10.2869527496
 20
-13.7226936601
 10
10.3253956086
 20
-13.7183438128
 10
10.3650531667
 20
-13.710643663
 10
10.4058434171
 20
-13.6991532599
 10
10.4470881124
 20
-13.683578142
 10
10.4875942443
 20
-13.6640025744
 10
10.5269163864
 20
-13.6403743358
 10
10.5646087539
 20
-13.6126747911
 10
10.5996435807
 20
-13.581480366
 10
10.6317012527
 20
-13.5470212054
 10
10.6604534789
 20
-13.5095903558
 10
10.6852051798
 20
-13.4702225496
 10
10.7058750862
 20
-13.4294313832
 10
10.7225041296
 20
-13.3875816821
 10
10.7349859002
 20
-13.3456668391
 10
10.7435186691
 20
-13.3043032384
 10
10.7484289374
 20
-13.2636630243
 10
10.75
 20
-13.224057211
  0
LWPOLYLINE
  5
268
100
AcDbEntity
  8
RACCORDO
100
AcDbPolyline
 62
250
  6
CONTINUOUS
 90
19
 70
0
 10
9.5099603365
 20
-13.7240610192
 10
9.5335095224
 20
-13.7232259042
 10
9.5568071468
 20
-13.7209820487
 10
9.5798532098
 20
-13.7172966924
 10
9.6028962756
 20
-13.7121303874
 10
9.62568778
 20
-13.7054826335
 10
9.6474820299
 20
-13.6974346519
 10
9.6681818846
 20
-13.6880723574
 10
9.6878844848
 20
-13.6774338372
 10
9.7061355598
 20
-13.6655783285
 10
9.7229356437
 20
-13.6525491563
 10
9.7382842024
 20
-13.6384681585
 10
9.7517253635
 20
-13.6235436161
 10
9.7631579378
 20
-13.6079272631
 10
9.7726831145
 20
-13.5917237911
 10
9.7801485886
 20
-13.5750995654
 10
9.7855035918
 20
-13.5582005438
 10
9.7887988924
 20
-13.5411470998
 10
9.7900344904
 20
-13.5240686345
  0
LWPOLYLINE
  5
269
100
AcDbEntity
  8
RACCORDO
100
AcDbPolyline
 62
250
  6
CONTINUOUS
 90
19
 70
0
 10
10.25
 20
-13.5240686345
 10
10.2725171774
 20
-13.5235999991
 10
10.2955336596
 20
-13.5209150131
 10
10.3190494465
 20
-13.5160136764
 10
10.3434648289
 20
-13.5089545658
 10
10.368379516
 20
-13.4996791045
 10
10.3925926356
 20
-13.4880115628
 10
10.4160592232
 20
-13.4737340678
 10
10.4388242433
 20
-13.4570644924
 10
10.4598217167
 20
-13.4384807259
 10
10.4789022543
 20
-13.4177989227
 10
10.4962152453
 20
-13.3952029284
 10
10.5111428773
 20
-13.3717221695
 10
10.5234562689
 20
-13.3473390178
 10
10.5333843017
 20
-13.3220711016
 10
10.5409958079
 20
-13.2970007317
 10
10.5463137318
 20
-13.2724886784
 10
10.5493151291
 20
-13.2481741715
 10
10.55
 20
-13.224057211
  0
LINE
  5
26A
100
AcDbEntity
  8
RACCORDO
100
AcDbLine
 62
250
  6
CONTINUOUS
 10
-8.961952514
 20
-13.7118880414
 11
-8.9980295642
 21
-13.7120736115
  0
LINE
  5
26B
100
AcDbEntity
  8
RACCORDO
100
AcDbLine
 62
250
  6
CONTINUOUS
 10
-8.9303794106
 20
-13.7118434042
 11
-8.961952514
 21
-13.7118880414
  0
LINE
  5
26C
100
AcDbEntity
  8
RACCORDO
100
AcDbLine
 62
7
  6
CONTINUOUS
 10
-7.319462557
 20
-15.2755396155
 11
-6.7148190698
 21
-15.2755396155
  0
LINE
  5
26D
100
AcDbEntity
  8
RACCORDO
100
AcDbLine
 62
7
  6
CONTINUOUS
 10
-0.1992738542
 20
-15.2755396155
 11
0.1992738542
 21
-15.2755396155
  0
LINE
  5
26E
100
AcDbEntity
  8
RACCORDO
100
AcDbLine
 62
7
  6
CONTINUOUS
 10
6.7148190698
 20
-15.2755396155
 11
7.319462557
 21
-15.2755396155
  0
LINE
  5
26F
100
AcDbEntity
  8
RACCORDO
100
AcDbLine
 62
7
  6
CONTINUOUS
 10
-6.9988692386
 20
-15.1988502001
 11
6.9988692386
 21
-15.1988502001
  0
LINE
  5
270
100
AcDbEntity
  8
DRAFT
100
AcDbLine
 62
7
  6
CONTINUOUS
 10
6.5
 20
-15.1188401295
 11
-6.5
 21
-15.1188401295
  0
LINE
  5
271
100
AcDbEntity
  8
RACCORDO
100
AcDbLine
 62
7
  6
CONTINUOUS
 10
6.9101323002
 20
-15.1101132618
 11
6.7139945176
 21
-15.1101132618
  0
LINE
  5
272
100
AcDbEntity
  8
RACCORDO
100
AcDbLine
 62
7
  6
CONTINUOUS
 10
-6.7139945176
 20
-15.1101132618
 11
-6.9101323002
 21
-15.1101132618
  0
LINE
  5
273
100
AcDbEntity
  8
RACCORDO
100
AcDbLine
 62
250
  6
CONTINUOUS
 10
-6.7139945176
 20
-14.6859445605
 11
-6.5140249785
 21
-14.6859445604
  0
LINE
  5
274
100
AcDbEntity
  8
RACCORDO
100
AcDbLine
 62
250
  6
CONTINUOUS
 10
6.7139945176
 20
-14.6859445603
 11
6.5140249785
 21
-14.6859445604
  0
LINE
  5
275
100
AcDbEntity
  8
RACCORDO
100
AcDbLine
 62
7
  6
CONTINUOUS
 10
6.300030461
 20
-14.5
 11
-6.300030461
 21
-14.5
  0
LINE
  5
276
100
AcDbEntity
  8
RACCORDO
100
AcDbLine
 62
250
  6
CONTINUOUS
 10
-6.3140554395
 20
-14.4859750215
 11
6.3140554395
 21
-14.4859750215
  0
LINE
  5
277
100
AcDbEntity
  8
RACCORDO
100
AcDbLine
 62
250
  6
CONTINUOUS
 10
-6.3140554395
 20
-14.2860054824
 11
6.3140554395
 21
-14.2860054824
  0
LINE
  5
278
100
AcDbEntity
  8
DRAFT
100
AcDbLine
 62
7
  6
CONTINUOUS
 10
9.5818521307
 20
-13.7992056137
 11
7.4992056137
 21
-13.7992056137
  0
LINE
  5
279
100
AcDbEntity
  8
DRAFT
100
AcDbLine
 62
7
  6
CONTINUOUS
 10
-7.4992056137
 20
-13.7992056137
 11
-9.5818521307
 21
-13.7992056137
  0
LINE
  5
27A
100
AcDbEntity
  8
RACCORDO
100
AcDbLine
 62
7
  6
CONTINUOUS
 10
10.25
 20
-13.7310577445
 11
9.65
 21
-13.7310577445
  0
LINE
  5
27B
100
AcDbEntity
  8
RACCORDO
100
AcDbLine
 62
7
  6
CONTINUOUS
 10
-9.65
 20
-13.7310577445
 11
-10.25
 21
-13.7310577445
  0
LINE
  5
27C
100
AcDbEntity
  8
RACCORDO
100
AcDbLine
 62
7
  6
CONTINUOUS
 10
-10.25
 20
-13.7240610192
 11
-9.5099584924
 21
-13.7240610192
  0
LINE
  5
27D
100
AcDbEntity
  8
RACCORDO
100
AcDbLine
 62
7
  6
CONTINUOUS
 10
9.5099584924
 20
-13.7240610192
 11
10.25
 21
-13.7240610192
  0
LINE
  5
27E
100
AcDbEntity
  8
RACCORDO
100
AcDbLine
 62
7
  6
CONTINUOUS
 10
7.4118434042
 20
-13.7118434042
 11
8.9303794106
 21
-13.7118434042
  0
LINE
  5
27F
100
AcDbEntity
  8
RACCORDO
100
AcDbLine
 62
7
  6
CONTINUOUS
 10
-7.4118434042
 20
-13.7118434042
 11
-8.9303794106
 21
-13.7118434042
  0
LINE
  5
280
100
AcDbEntity
  8
RACCORDO
100
AcDbLine
 62
250
  6
CONTINUOUS
 10
8.9303794106
 20
-13.7118434042
 11
8.9755832568
 21
-13.7119378447
  0
LINE
  5
281
100
AcDbEntity
  8
RACCORDO
100
AcDbLine
 62
250
  6
CONTINUOUS
 10
8.9755832568
 20
-13.7119378447
 11
8.9988739059
 21
-13.7120804957
  0
LWPOLYLINE
  5
282
100
AcDbEntity
  8
RACCORDO
100
AcDbPolyline
 62
250
  6
CONTINUOUS
 90
13
 70
0
 10
6.3140554395
 20
-14.4859750215
 10
6.3402689774
 20
-14.4876914132
 10
6.3660019393
 20
-14.4928207415
 10
6.3908139424
 20
-14.5012641225
 10
6.4142804289
 20
-14.512864999
 10
6.4360067448
 20
-14.5274157835
 10
6.4556328454
 20
-14.5446646506
 10
6.4728224134
 20
-14.5643035724
 10
6.4872965873
 20
-14.5859992593
 10
6.4988303726
 20
-14.6094139932
 10
6.5072239649
 20
-14.6341647613
 10
6.5123203827
 20
-14.6598205931
 10
6.5140249785
 20
-14.6859445605
  0
LWPOLYLINE
  5
283
100
AcDbEntity
  8
RACCORDO
100
AcDbPolyline
 62
7
  6
CONTINUOUS
 90
13
 70
0
 10
7.319462557
 20
-15.2755396155
 10
7.3450382138
 20
-15.2772639035
 10
7.3702803713
 20
-15.2824077141
 10
7.3947628174
 20
-15.2909290282
 10
7.4180826207
 20
-15.302759043
 10
7.439805836
 20
-15.3177252699
 10
7.4594919121
 20
-15.3355278816
 10
7.4767719555
 20
-15.3558765063
 10
7.4913687433
 20
-15.3784690175
 10
7.5030389782
 20
-15.4029109818
 10
7.5115595483
 20
-15.428810679
 10
7.5167459172
 20
-15.4557762905
 10
7.5184775044
 20
-15.483378525
  0
LWPOLYLINE
  5
284
100
AcDbEntity
  8
RACCORDO
100
AcDbPolyline
 62
7
  6
CONTINUOUS
 90
13
 70
0
 10
0.1992738542
 20
-15.2755396155
 10
0.2248776749
 20
-15.2772689045
 10
0.2501581718
 20
-15.2824239732
 10
0.2746873548
 20
-15.2909646937
 10
0.2980614492
 20
-15.3028251148
 10
0.3198428908
 20
-15.3178327493
 10
0.3395854632
 20
-15.3356839057
 10
0.3569191744
 20
-15.3560877535
 10
0.3715647041
 20
-15.3787409919
 10
0.3832736839
 20
-15.4032420842
 10
0.3918223687
 20
-15.4291951873
 10
0.3970287097
 20
-15.4562082555
 10
0.3987736215
 20
-15.4838500694
  0
LWPOLYLINE
  5
285
100
AcDbEntity
  8
RACCORDO
100
AcDbPolyline
 62
250
  6
CONTINUOUS
 90
13
 70
0
 10
-9.0243486726
 20
-13.7124176146
 10
-9.0488333365
 20
-13.7106353733
 10
-9.0729006492
 20
-13.7054745591
 10
-9.0961403736
 20
-13.69702314
 10
-9.118156379
 20
-13.685425174
 10
-9.1385733937
 20
-13.6708783531
 10
-9.1570434013
 20
-13.6536306339
 10
-9.173251573
 20
-13.6339760108
 10
-9.1869216337
 20
-13.6122495048
 10
-9.1978205718
 20
-13.5888214533
 10
-9.2057626104
 20
-13.5640911968
 10
-9.2106123741
 20
-13.5384802728
 10
-9.2122871968
 20
-13.51242523
  0
LWPOLYLINE
  5
286
100
AcDbEntity
  8
RACCORDO
100
AcDbPolyline
 62
7
  6
CONTINUOUS
 90
22
 70
0
 10
6.6582893563
 20
-20.5731858629
 10
6.6604840487
 20
-20.5745561168
 10
6.6638174644
 20
-20.578199069
 10
6.6682896036
 20
-20.5838064498
 10
6.6740318125
 20
-20.5910923324
 10
6.6809127448
 20
-20.5996995251
 10
6.6885383612
 20
-20.6091344359
 10
6.6968644881
 20
-20.6188983798
 10
6.705935299
 20
-20.6288065493
 10
6.7154892748
 20
-20.6388819844
 10
6.7254271808
 20
-20.6489332698
 10
6.7358482518
 20
-20.6588217863
 10
6.7467886728
 20
-20.6687569856
 10
6.7583832426
 20
-20.6787825169
 10
6.7704971624
 20
-20.6886536776
 10
6.7827622208
 20
-20.6981785418
 10
6.795173684
 20
-20.7072714599
 10
6.8077362858
 20
-20.7158745039
 10
6.8200960153
 20
-20.7238673744
 10
6.832134869
 20
-20.7311986846
 10
6.8439708505
 20
-20.7378753505
 10
6.8556039598
 20
-20.7438927334
  0
LINE
  5
287
100
AcDbEntity
  8
RACCORDO
100
AcDbLine
 62
250
  6
CONTINUOUS
 10
-6.5140249785
 20
-14.6859445605
 11
-6.5
 21
-14.699969539
  0
LINE
  5
288
100
AcDbEntity
  8
RACCORDO
100
AcDbLine
 62
7
  6
CONTINUOUS
 10
-0.3972163531
 20
-20.4338413913
 11
-0.2629729446
 21
-20.5680847998
  0
LINE
  5
289
100
AcDbEntity
  8
RACCORDO
100
AcDbLine
 62
250
  6
CONTINUOUS
 10
-6.3140554395
 20
-14.4859750215
 11
-6.300030461
 21
-14.5
  0
LINE
  5
28A
100
AcDbEntity
  8
DRAFT
100
AcDbLine
 62
7
  6
CONTINUOUS
 10
-7.5
 20
-12.8
 11
-7.4825462644
 21
-12.8174537356
  0
LINE
  5
28B
100
AcDbEntity
  8
DRAFT
100
AcDbLine
 62
7
  6
CONTINUOUS
 10
-7.5153129787
 20
20.5028438891
 11
-7.3830351795
 21
20.9
  0
LINE
  5
28C
100
AcDbEntity
  8
DRAFT
100
AcDbLine
 62
7
  6
CONTINUOUS
 10
-9.65
 20
7.5310577445
 11
-9.5806907165
 21
7.6003670279
  0
LWPOLYLINE
  5
28D
100
AcDbEntity
  8
RACCORDO
100
AcDbPolyline
 62
7
  6
CONTINUOUS
 90
6
 70
0
 10
7.1443368137
 20
18.5327809516
 10
7.1346214315
 20
18.5267949192
 10
7.1111616916
 20
18.5152240935
 10
7.0863925871
 20
18.5068148347
 10
7.0607379245
 20
18.5017110277
 10
7.034636662
 20
18.5
  0
LINE
  5
28E
100
AcDbEntity
  8
0
100
AcDbLine
 62
7
  6
CONTINUOUS
 10
1.850364
 20
14.219293
 11
3.350372
 21
14.748703
  0
LINE
  5
28F
100
AcDbEntity
  8
0
100
AcDbLine
 62
7
  6
CONTINUOUS
 10
1.850364
 20
14.43565
 11
3.150795
 21
14.8663585
  0
LINE
  5
290
100
AcDbEntity
  8
0
100
AcDbLine
 62
7
  6
CONTINUOUS
 10
-3.325037
 20
11.926845
 11
-2.051155
 21
12.335843
  0
LINE
  5
291
100
AcDbEntity
  8
0
100
AcDbLine
 62
7
  6
CONTINUOUS
 10
-3.325037
 20
11.556827
 11
-1.474949
 21
12.150825
  0
LINE
  5
292
100
AcDbEntity
  8
RACCORDO
100
AcDbLine
 62
7
  6
CONTINUOUS
 10
9.2122871968
 20
-12.8881641073
 11
9.6021029835
 21
-12.878817544
  0
LINE
  5
293
100
AcDbEntity
  8
RACCORDO
100
AcDbLine
 62
250
  6
CONTINUOUS
 10
-9.0219421425
 20
-13.7123644868
 11
-9.5099584924
 21
-13.7240610192
  0
LINE
  5
294
100
AcDbEntity
  8
RACCORDO
100
AcDbLine
 62
250
  6
CONTINUOUS
 10
-9.6130921016
 20
-13.5220121027
 11
-9.2122871968
 21
-13.51242523
  0
LINE
  5
295
100
AcDbEntity
  8
RACCORDO
100
AcDbLine
 62
250
  6
CONTINUOUS
 10
-9.0157646587
 20
-13.7122618519
 11
-9.0219421425
 21
-13.7123644868
  0
LINE
  5
296
100
AcDbEntity
  8
RACCORDO
100
AcDbLine
 62
250
  6
CONTINUOUS
 10
-9.6644878929
 20
-13.5227823609
 11
-9.6130921016
 21
-13.5220121027
  0
LINE
  5
297
100
AcDbEntity
  8
RACCORDO
100
AcDbLine
 62
250
  6
CONTINUOUS
 10
-9.7900415076
 20
-13.5240686345
 11
-9.6644878929
 21
-13.5227823609
  0
LWPOLYLINE
  5
298
100
AcDbEntity
  8
RACCORDO
100
AcDbPolyline
 62
250
  6
CONTINUOUS
 90
3
 70
0
 10
-8.9980295642
 20
-13.7120736115
 10
-9.0030873745
 20
-13.7121169515
 10
-9.0157646587
 20
-13.7122618519
  0
LINE
  5
299
100
AcDbEntity
  8
RACCORDO
100
AcDbLine
 62
250
  6
CONTINUOUS
 10
-9.1484908664
 20
-13.5121245945
 11
-9.2122871968
 21
-13.51242523
  0
LINE
  5
29A
100
AcDbEntity
  8
0
100
AcDbLine
 62
7
  6
CONTINUOUS
 10
-6.5
 20
-13.6
 11
6.5
 21
-13.6
  0
LINE
  5
29B
100
AcDbEntity
  8
RACCORDO
100
AcDbLine
 62
250
  6
CONTINUOUS
 10
-10.25
 20
-13.5240686345
 11
-9.7900415076
 21
-13.5240686345
  0
LINE
  5
29C
100
AcDbEntity
  8
RACCORDO
100
AcDbLine
 62
250
  6
CONTINUOUS
 10
9.7900415076
 20
-13.5240686345
 11
10.25
 21
-13.5240686345
  0
LINE
  5
29D
100
AcDbEntity
  8
RACCORDO
100
AcDbLine
 62
250
  6
CONTINUOUS
 10
-7.4101132618
 20
-13.5118510196
 11
-9.1484908664
 21
-13.5121245945
  0
LINE
  5
29E
100
AcDbEntity
  8
RACCORDO
100
AcDbLine
 62
250
  6
CONTINUOUS
 10
10.55
 20
-13.224057211
 11
10.75
 21
-13.224057211
  0
LINE
  5
29F
100
AcDbEntity
  8
RACCORDO
100
AcDbLine
 62
250
  6
CONTINUOUS
 10
-10.55
 20
-13.224057211
 11
-10.75
 21
-13.2240572111
  0
LINE
  5
2A0
100
AcDbEntity
  8
RACCORDO
100
AcDbLine
 62
7
  6
CONTINUOUS
 10
-8.9303794106
 20
-12.8898867382
 11
-6.5
 21
-12.8898867382
  0
LINE
  5
2A1
100
AcDbEntity
  8
RACCORDO
100
AcDbLine
 62
7
  6
CONTINUOUS
 10
6.5
 20
-12.8898867382
 11
8.9303794106
 21
-12.8898867382
  0
LINE
  5
2A2
100
AcDbEntity
  8
RACCORDO
100
AcDbLine
 62
7
  6
CONTINUOUS
 10
-9.7900415076
 20
-12.8776691233
 11
-9.6587268678
 21
-12.8776691233
  0
LINE
  5
2A3
100
AcDbEntity
  8
RACCORDO
100
AcDbLine
 62
7
  6
CONTINUOUS
 10
9.7900415076
 20
-12.8776691233
 11
9.6587268678
 21
-12.8776691233
  0
LINE
  5
2A4
100
AcDbEntity
  8
ASSI
100
AcDbLine
 62
7
  6
CONTINUOUS
 10
6.0
 20
-12.85
 11
-6.0
 21
-12.85
  0
LINE
  5
2A5
100
AcDbEntity
  8
DRAFT
100
AcDbLine
 62
7
  6
CONTINUOUS
 10
-7.4825462644
 20
-12.8174537356
 11
-6.5
 21
-12.8174537356
  0
LINE
  5
2A6
100
AcDbEntity
  8
DRAFT
100
AcDbLine
 62
7
  6
CONTINUOUS
 10
6.5
 20
-12.8174537356
 11
7.4825462644
 21
-12.8174537356
  0
LINE
  5
2A7
100
AcDbEntity
  8
DRAFT
100
AcDbLine
 62
7
  6
CONTINUOUS
 10
-9.5810577445
 20
-12.8
 11
-7.5
 21
-12.8
  0
LINE
  5
2A8
100
AcDbEntity
  8
DRAFT
100
AcDbLine
 62
7
  6
CONTINUOUS
 10
7.5
 20
-12.8
 11
9.5810577445
 21
-12.8
  0
LINE
  5
2A9
100
AcDbEntity
  8
0
100
AcDbLine
 62
7
  6
CONTINUOUS
 10
-6.5
 20
-12.5
 11
-6.0
 21
-12.5
  0
LINE
  5
2AA
100
AcDbEntity
  8
0
100
AcDbLine
 62
7
  6
CONTINUOUS
 10
6.0
 20
-12.5
 11
6.5
 21
-12.5
  0
LINE
  5
2AB
100
AcDbEntity
  8
RACCORDO
100
AcDbLine
 62
250
  6
CONTINUOUS
 10
7.4101132618
 20
-13.5118510196
 11
9.176745372
 21
-13.5122258899
  0
LINE
  5
2AC
100
AcDbEntity
  8
RACCORDO
100
AcDbLine
 62
250
  6
CONTINUOUS
 10
9.176745372
 20
-13.5122258899
 11
9.2122871968
 21
-13.51242523
  0
LINE
  5
2AD
100
AcDbEntity
  8
RACCORDO
100
AcDbLine
 62
250
  6
CONTINUOUS
 10
8.9988739059
 20
-13.7120804957
 11
9.0124855162
 21
-13.7122182742
  0
LINE
  5
2AE
100
AcDbEntity
  8
RACCORDO
100
AcDbLine
 62
250
  6
CONTINUOUS
 10
9.7900415076
 20
-13.5240686345
 11
9.6445667807
 21
-13.5225374053
  0
LINE
  5
2AF
100
AcDbEntity
  8
RACCORDO
100
AcDbLine
 62
250
  6
CONTINUOUS
 10
9.0124855162
 20
-13.7122182742
 11
9.0193354607
 21
-13.7123166704
  0
LINE
  5
2B0
100
AcDbEntity
  8
RACCORDO
100
AcDbLine
 62
250
  6
CONTINUOUS
 10
9.6445667807
 20
-13.5225374053
 11
9.6130891488
 21
-13.5220269976
  0
LINE
  5
2B1
100
AcDbEntity
  8
RACCORDO
100
AcDbLine
 62
250
  6
CONTINUOUS
 10
9.0193354607
 20
-13.7123166704
 11
9.0243486726
 21
-13.7124176146
  0
LINE
  5
2B2
100
AcDbEntity
  8
RACCORDO
100
AcDbLine
 62
250
  6
CONTINUOUS
 10
9.0243486726
 20
-13.7124176146
 11
9.5099584924
 21
-13.7240610192
  0
LINE
  5
2B3
100
AcDbEntity
  8
RACCORDO
100
AcDbLine
 62
250
  6
CONTINUOUS
 10
9.2122871968
 20
-13.51242523
 11
9.6130891488
 21
-13.5220269976
  0
LINE
  5
2B4
100
AcDbEntity
  8
RACCORDO
100
AcDbLine
 62
7
  6
CONTINUOUS
 10
-9.6021029835
 20
-12.878817544
 11
-9.2122871968
 21
-12.8881641073
  0
LINE
  5
2B5
100
AcDbEntity
  8
DRAFT
100
AcDbLine
 62
7
  6
CONTINUOUS
 10
-9.5810577445
 20
-9.5
 11
-9.6587268678
 21
-9.4223308767
  0
LINE
  5
2B6
100
AcDbEntity
  8
DRAFT
100
AcDbLine
 62
7
  6
CONTINUOUS
 10
-7.5153129787
 20
-20.5028438891
 11
-7.3830351795
 21
-20.9
  0
LWPOLYLINE
  5
2B7
100
AcDbEntity
  8
RACCORDO
100
AcDbPolyline
 62
250
  6
CONTINUOUS
 90
19
 70
0
 10
-9.7900344904
 20
-13.5240686345
 10
-9.788864783
 20
-13.5406618545
 10
-9.7857419802
 20
-13.5572453596
 10
-9.780666082
 20
-13.573700023
 10
-9.7735859323
 20
-13.5899255678
 10
-9.7645526872
 20
-13.6057750797
 10
-9.7537198151
 20
-13.6210631668
 10
-9.7410162952
 20
-13.6356723291
 10
-9.7265131482
 20
-13.6494921426
 10
-9.710576905
 20
-13.6623695352
 10
-9.6932763621
 20
-13.6741579819
 10
-9.6745427228
 20
-13.684843113
 10
-9.6545361278
 20
-13.694453688
 10
-9.6332404358
 20
-13.7028864349
 10
-9.610671788
 20
-13.7100360154
 10
-9.5870387488
 20
-13.7158565483
 10
-9.5624108395
 20
-13.7202273431
 10
-9.5367185388
 20
-13.72300118
 10
-9.5099618465
 20
-13.7240610192
  0
LWPOLYLINE
  5
2B8
100
AcDbEntity
  8
RACCORDO
100
AcDbPolyline
 62
7
  6
CONTINUOUS
 90
19
 70
0
 10
-10.75
 20
-13.224057211
 10
-10.7486300981
 20
-13.261044344
 10
-10.7442725577
 20
-13.2995206378
 10
-10.7365593823
 20
-13.3392100207
 10
-10.7250499121
 20
-13.3800314083
 10
-10.7094500212
 20
-13.4213039442
 10
-10.6898469715
 20
-13.4618291673
 10
-10.6661905228
 20
-13.5011611867
 10
-10.6384635225
 20
-13.5388549279
 10
-10.6072469612
 20
-13.5738806997
 10
-10.5727747775
 20
-13.6059193011
 10
-10.5353406493
 20
-13.6346461501
 10
-10.4959789836
 20
-13.6593700024
 10
-10.4552051114
 20
-13.6800111818
 10
-10.4133830561
 20
-13.6966134187
 10
-10.3715003629
 20
-13.7090739582
 10
-10.3301706411
 20
-13.7175918031
 10
-10.2895671018
 20
-13.7224930126
 10
-10.25
 20
-13.7240610192
  0
LWPOLYLINE
  5
2B9
100
AcDbEntity
  8
RACCORDO
100
AcDbPolyline
 62
250
  6
CONTINUOUS
 90
19
 70
0
 10
-10.55
 20
-13.224057211
 10
-10.5495299282
 20
-13.2465964523
 10
-10.5468403667
 20
-13.2696335728
 10
-10.5419313155
 20
-13.2931685728
 10
-10.5348604195
 20
-13.3176029661
 10
-10.5255700337
 20
-13.3425352388
 10
-10.5138872237
 20
-13.3667608486
 10
-10.4995934089
 20
-13.3902335792
 10
-10.4829071699
 20
-13.4129996469
 10
-10.464311314
 20
-13.4339931583
 10
-10.4436232183
 20
-13.4530632014
 10
-10.4210255056
 20
-13.4703606882
 10
-10.3975488516
 20
-13.4852724607
 10
-10.373177278
 20
-13.4975699905
 10
-10.347926763
 20
-13.5074818061
 10
-10.3228759167
 20
-13.5150803355
 10
-10.2983842758
 20
-13.5203897214
 10
-10.2740923036
 20
-13.523385821
 10
-10.25
 20
-13.5240686345
  0
LINE
  5
2BA
100
AcDbEntity
  8
0
100
AcDbLine
 62
7
  6
CONTINUOUS
 10
-11.15
 20
21.8997711479
 11
-11.15
 21
-21.8997711479
  0
LINE
  5
2BB
100
AcDbEntity
  8
RACCORDO
100
AcDbLine
 62
7
  6
CONTINUOUS
 10
-10.75
 20
7.024057211
 11
-10.75
 21
-13.224057211
  0
LINE
  5
2BC
100
AcDbEntity
  8
RACCORDO
100
AcDbLine
 62
250
  6
CONTINUOUS
 10
-10.55
 20
7.024057211
 11
-10.55
 21
-13.224057211
  0
LINE
  5
2BD
100
AcDbEntity
  8
RACCORDO
100
AcDbLine
 62
250
  6
CONTINUOUS
 10
-10.25
 20
-13.5240686345
 11
-10.25
 21
-13.7240610192
  0
LINE
  5
2BE
100
AcDbEntity
  8
RACCORDO
100
AcDbLine
 62
250
  6
CONTINUOUS
 10
-10.25
 20
7.3240686345
 11
-10.2500000001
 21
7.5240610192
  0
LINE
  5
2BF
100
AcDbEntity
  8
RACCORDO
100
AcDbLine
 62
250
  6
CONTINUOUS
 10
-6.5140249785
 20
8.7859445605
 11
-6.5
 21
8.799969539
  0
LINE
  5
2C0
100
AcDbEntity
  8
DRAFT
100
AcDbLine
 62
7
  6
CONTINUOUS
 10
-8.5
 20
6.6
 11
-8.4101132618
 21
6.6898867382
  0
LINE
  5
2C1
100
AcDbEntity
  8
RACCORDO
100
AcDbLine
 62
250
  6
CONTINUOUS
 10
-6.3140554395
 20
8.5859750215
 11
-6.300030461
 21
8.6
  0
LWPOLYLINE
  5
2C2
100
AcDbEntity
  8
0
100
AcDbPolyline
 62
7
  6
CONTINUOUS
 90
7
 70
0
 10
8.6154843865
 20
18.1058663235
 10
8.6500841268
 20
18.1286672982
 10
8.6869421933
 20
18.147259175
 10
8.726058586
 20
18.1616419713
 10
8.767433305
 20
18.1718157001
 10
8.8110663503
 20
18.177780371
 10
8.8569577217
 20
18.1795359895
  0
LWPOLYLINE
  5
2C3
100
AcDbEntity
  8
0
100
AcDbPolyline
 62
7
  6
CONTINUOUS
 90
7
 70
0
 10
7.9904513216
 20
18.0503876958
 10
8.0205425404
 20
18.0671215118
 10
8.0514803271
 20
18.0808603741
 10
8.0832646816
 20
18.0916042917
 10
8.1158956039
 20
18.0993532715
 10
8.1493730941
 20
18.1041073188
 10
8.1836971521
 20
18.1058664367
  0
LWPOLYLINE
  5
2C4
100
AcDbEntity
  8
0
100
AcDbPolyline
 62
7
  6
CONTINUOUS
 90
7
 70
0
 10
7.9904513216
 20
16.8849714551
 10
8.0205427548
 20
16.9017053328
 10
8.0514806701
 20
16.9154442328
 10
8.0832650675
 20
16.9261881634
 10
8.115895947
 20
16.9339371313
 10
8.1493733085
 20
16.9386911412
 10
8.1836971521
 20
16.940450196
  0
LINE
  5
2C5
100
AcDbEntity
  8
RACCORDO
100
AcDbLine
 62
7
  6
CONTINUOUS
 10
-6.5140249785
 20
9.5118281743
 11
-6.5
 21
9.5188401295
  0
LWPOLYLINE
  5
2C6
100
AcDbEntity
  8
0
100
AcDbPolyline
 62
7
  6
CONTINUOUS
 90
22
 70
0
 10
8.0977489504
 20
15.7883356416
 10
8.1163355554
 20
15.795784457
 10
8.1351026958
 20
15.8026326109
 10
8.1540503715
 20
15.8088801043
 10
8.1732198938
 20
15.8144828913
 10
8.1925699514
 20
15.8194850191
 10
8.2119766106
 20
15.8240186275
 10
8.2314155002
 20
15.8280931382
 10
8.2509109914
 20
15.8316991303
 10
8.2704122642
 20
15.8349404798
 10
8.2898587227
 20
15.8378233008
 10
8.3093109629
 20
15.8403414797
 10
8.3288999518
 20
15.8425805507
 10
8.3486007158
 20
15.8445536103
 10
8.3684382285
 20
15.8462475622
 10
8.3886183787
 20
15.8477086521
 10
8.4091358028
 20
15.8489487402
 10
8.4299958643
 20
15.8499559662
 10
8.4514205432
 20
15.8507409952
 10
8.4734838326
 20
15.851307382
 10
8.4961117394
 20
15.8516515718
 10
8.5193042636
 20
15.8517735645
  0
LINE
  5
2C7
100
AcDbEntity
  8
DRAFT
100
AcDbLine
 62
7
  6
CONTINUOUS
 10
8.35
 20
-10.9
 11
7.5
 21
-10.9
  0
LINE
  5
2C8
100
AcDbEntity
  8
DRAFT
100
AcDbLine
 62
7
  6
CONTINUOUS
 10
-7.5
 20
-10.9
 11
-8.35
 21
-10.9
  0
LINE
  5
2C9
100
AcDbEntity
  8
DRAFT
100
AcDbLine
 62
7
  6
CONTINUOUS
 10
8.3325462644
 20
-10.8825462644
 11
7.4825462644
 21
-10.8825462644
  0
LINE
  5
2CA
100
AcDbEntity
  8
DRAFT
100
AcDbLine
 62
7
  6
CONTINUOUS
 10
-7.4825462644
 20
-10.8825462644
 11
-8.3325462644
 21
-10.8825462644
  0
LINE
  5
2CB
100
AcDbEntity
  8
RACCORDO
100
AcDbLine
 62
250
  6
CONTINUOUS
 10
7.3674537356
 20
-10.5043838508
 11
6.5
 21
-10.5043838508
  0
LINE
  5
2CC
100
AcDbEntity
  8
RACCORDO
100
AcDbLine
 62
250
  6
CONTINUOUS
 10
-6.5
 20
-10.5043838508
 11
-7.3674537356
 21
-10.5043838508
  0
LINE
  5
2CD
100
AcDbEntity
  8
0
100
AcDbLine
 62
7
  6
CONTINUOUS
 10
-9.5
 20
-10.45
 11
9.5
 21
-10.45
  0
LINE
  5
2CE
100
AcDbEntity
  8
RACCORDO
100
AcDbLine
 62
250
  6
CONTINUOUS
 10
7.1457306125
 20
-18.5337039572
 11
7.1563704044
 21
-18.541329332
  0
LWPOLYLINE
  5
2CF
100
AcDbEntity
  8
RACCORDO
100
AcDbPolyline
 62
250
  6
CONTINUOUS
 90
13
 70
0
 10
-7.2293696815
 20
-20.1171572875
 10
-7.2274017151
 20
-20.1352963416
 10
-7.2221423768
 20
-20.1531896548
 10
-7.2136494171
 20
-20.1705357589
 10
-7.2020236077
 20
-20.1870530906
 10
-7.1874402364
 20
-20.2024368699
 10
-7.170174151
 20
-20.2163768226
 10
-7.1505322297
 20
-20.2286273937
 10
-7.128834401
 20
-20.2389909837
 10
-7.1054631376
 20
-20.2472862956
 10
-7.0808217567
 20
-20.2533749129
 10
-7.0553235464
 20
-20.257159202
 10
-7.0294001425
 20
-20.2585786438
  0
LINE
  5
2D0
100
AcDbEntity
  8
RACCORDO
100
AcDbLine
 62
250
  6
CONTINUOUS
 10
-7.3089365232
 20
-18.7
 11
-7.5184775044
 21
-15.483378525
  0
LWPOLYLINE
  5
2D1
100
AcDbEntity
  8
RACCORDO
100
AcDbPolyline
 62
250
  6
CONTINUOUS
 90
19
 70
0
 10
-9.6021053835
 20
-13.5217718508
 10
-9.6017732563
 20
-13.5384194484
 10
-9.6007937695
 20
-13.5550780725
 10
-9.5991549085
 20
-13.5716273198
 10
-9.5968613639
 20
-13.5879673257
 10
-9.593910763
 20
-13.6039473718
 10
-9.5903124222
 20
-13.6193746545
 10
-9.5861414881
 20
-13.6341308934
 10
-9.5814235621
 20
-13.6481036708
 10
-9.5761377801
 20
-13.6611321351
 10
-9.570407451
 20
-13.6730669587
 10
-9.5642944836
 20
-13.6838970518
 10
-9.5576790859
 20
-13.6936524317
 10
-9.5506367959
 20
-13.7022297855
 10
-9.5432577077
 20
-13.7095220962
 10
-9.5354139422
 20
-13.7154806955
 10
-9.5271290124
 20
-13.7199832284
 10
-9.518597362
 20
-13.7228824867
 10
-9.5099573388
 20
-13.7240609915
  0
LINE
  5
2D2
100
AcDbEntity
  8
RACCORDO
100
AcDbLine
 62
250
  6
CONTINUOUS
 10
-9.7900415076
 20
7.3240686345
 11
-9.7900415076
 21
6.6776691233
  0
LINE
  5
2D3
100
AcDbEntity
  8
RACCORDO
100
AcDbLine
 62
250
  6
CONTINUOUS
 10
-9.7900415076
 20
-0.8776691233
 11
-9.7900415076
 21
-1.7223308767
  0
LINE
  5
2D4
100
AcDbEntity
  8
RACCORDO
100
AcDbLine
 62
250
  6
CONTINUOUS
 10
-9.7900415076
 20
-8.5776691233
 11
-9.7900415076
 21
-9.4223308767
  0
LINE
  5
2D5
100
AcDbEntity
  8
RACCORDO
100
AcDbLine
 62
250
  6
CONTINUOUS
 10
-9.7900415076
 20
-12.8776691233
 11
-9.7900415076
 21
-13.5240686345
  0
LINE
  5
2D6
100
AcDbEntity
  8
DRAFT
100
AcDbLine
 62
7
  6
CONTINUOUS
 10
-9.6587268678
 20
6.6776691233
 11
-9.6587268678
 21
-0.8776691233
  0
LINE
  5
2D7
100
AcDbEntity
  8
DRAFT
100
AcDbLine
 62
7
  6
CONTINUOUS
 10
-9.6587268678
 20
-1.7223308767
 11
-9.6587268678
 21
-8.5776691233
  0
LINE
  5
2D8
100
AcDbEntity
  8
DRAFT
100
AcDbLine
 62
7
  6
CONTINUOUS
 10
-9.6587268678
 20
-9.4223308767
 11
-9.6587268678
 21
-12.8776691233
  0
LINE
  5
2D9
100
AcDbEntity
  8
DRAFT
100
AcDbLine
 62
7
  6
CONTINUOUS
 10
-9.65
 20
-20.9
 11
-9.65
 21
-13.7310577445
  0
LINE
  5
2DA
100
AcDbEntity
  8
DRAFT
100
AcDbLine
 62
7
  6
CONTINUOUS
 10
-9.65
 20
7.5310577445
 11
-9.65
 21
20.9
  0
LINE
  5
2DB
100
AcDbEntity
  8
RACCORDO
100
AcDbLine
 62
250
  6
CONTINUOUS
 10
-9.6021029835
 20
7.3217717933
 11
-9.6021029835
 21
6.678817544
  0
LINE
  5
2DC
100
AcDbEntity
  8
RACCORDO
100
AcDbLine
 62
250
  6
CONTINUOUS
 10
-9.6021029835
 20
-0.878817544
 11
-9.6021029835
 21
-1.721182456
  0
LINE
  5
2DD
100
AcDbEntity
  8
RACCORDO
100
AcDbLine
 62
250
  6
CONTINUOUS
 10
-9.6021029835
 20
-8.578817544
 11
-9.6021029835
 21
-9.421182456
  0
LINE
  5
2DE
100
AcDbEntity
  8
RACCORDO
100
AcDbLine
 62
250
  6
CONTINUOUS
 10
-9.6021029835
 20
-12.878817544
 11
-9.6021029835
 21
-13.5217717933
  0
LINE
  5
2DF
100
AcDbEntity
  8
DRAFT
100
AcDbLine
 62
7
  6
CONTINUOUS
 10
-9.5810577445
 20
-12.8
 11
-9.5810577445
 21
-9.5
  0
LINE
  5
2E0
100
AcDbEntity
  8
DRAFT
100
AcDbLine
 62
7
  6
CONTINUOUS
 10
-9.5810577445
 20
-8.5
 11
-9.5810577445
 21
-1.8
  0
LINE
  5
2E1
100
AcDbEntity
  8
DRAFT
100
AcDbLine
 62
7
  6
CONTINUOUS
 10
-9.5810577445
 20
-0.8
 11
-9.5810577445
 21
6.6
  0
LINE
  5
2E2
100
AcDbEntity
  8
0
100
AcDbLine
 62
7
  6
CONTINUOUS
 10
-9.5
 20
2.05
 11
-9.5
 21
-10.45
  0
LINE
  5
2E3
100
AcDbEntity
  8
RACCORDO
100
AcDbLine
 62
250
  6
CONTINUOUS
 10
-9.2122871968
 20
7.31242523
 11
-9.2122871968
 21
6.6881641073
  0
LINE
  5
2E4
100
AcDbEntity
  8
RACCORDO
100
AcDbLine
 62
250
  6
CONTINUOUS
 10
-9.2122871968
 20
-12.8881641073
 11
-9.2122871968
 21
-13.51242523
  0
LINE
  5
2E5
100
AcDbEntity
  8
RACCORDO
100
AcDbLine
 62
250
  6
CONTINUOUS
 10
-8.9303794106
 20
7.5118434042
 11
-8.9303794106
 21
6.6898867382
  0
LINE
  5
2E6
100
AcDbEntity
  8
RACCORDO
100
AcDbLine
 62
250
  6
CONTINUOUS
 10
-8.9303794106
 20
-13.7118434042
 11
-8.9303794106
 21
-12.8898867382
  0
LINE
  5
2E7
100
AcDbEntity
  8
SUPERFICI
100
AcDbLine
 62
7
  6
CONTINUOUS
 10
-8.64
 20
3.75
 11
-8.64
 21
2.45
  0
LINE
  5
2E8
100
AcDbEntity
  8
SUPERFICI
100
AcDbLine
 62
7
  6
CONTINUOUS
 10
-8.64
 20
2.1
 11
-8.64
 21
-1.4
  0
LINE
  5
2E9
100
AcDbEntity
  8
0
100
AcDbLine
 62
7
  6
CONTINUOUS
 10
-8.59
 20
-2.25
 11
-8.59
 21
4.55
  0
LINE
  5
2EA
100
AcDbEntity
  8
DRAFT
100
AcDbLine
 62
7
  6
CONTINUOUS
 10
-8.5
 20
4.6
 11
-8.5
 21
6.6
  0
LINE
  5
2EB
100
AcDbEntity
  8
RACCORDO
100
AcDbLine
 62
250
  6
CONTINUOUS
 10
-7.5184775044
 20
15.483378525
 11
-7.3089365232
 21
18.7
  0
LINE
  5
2EC
100
AcDbEntity
  8
RACCORDO
100
AcDbLine
 62
7
  6
CONTINUOUS
 10
-4.4999340873
 20
9.6000659127
 11
-4.5743642455
 21
9.5256357545
  0
LINE
  5
2ED
100
AcDbEntity
  8
RACCORDO
100
AcDbLine
 62
7
  6
CONTINUOUS
 10
6.6558702077
 20
20.5728350282
 11
6.5168765708
 21
20.4338413913
  0
LINE
  5
2EE
100
AcDbEntity
  8
RACCORDO
100
AcDbLine
 62
7
  6
CONTINUOUS
 10
-8.4127084755
 20
4.6872915245
 11
-8.5
 21
4.6
  0
LWPOLYLINE
  5
2EF
100
AcDbEntity
  8
0
100
AcDbPolyline
 62
7
  6
CONTINUOUS
 90
7
 70
0
 10
8.6154843003
 20
16.940450196
 10
8.6500837609
 20
16.9632511681
 10
8.6869416654
 20
16.9818430609
 10
8.7260580138
 20
16.9962258906
 10
8.7674328059
 20
17.0063996695
 10
8.8110660419
 20
17.0123644063
 10
8.8569577217
 20
17.0141201064
  0
LINE
  5
2F0
100
AcDbEntity
  8
0
100
AcDbLine
 62
7
  6
CONTINUOUS
 10
2.14659
 20
11.582765
 11
3.350368
 21
12.370609
  0
LINE
  5
2F1
100
AcDbEntity
  8
0
100
AcDbLine
 62
7
  6
CONTINUOUS
 10
1.850359
 20
11.605888
 11
3.066765
 21
12.400016
  0
LINE
  5
2F2
100
AcDbEntity
  8
RACCORDO
100
AcDbLine
 62
7
  6
CONTINUOUS
 10
-9.6021029835
 20
-9.421182456
 11
-9.5
 21
-9.4187343458
  0
LINE
  5
2F3
100
AcDbEntity
  8
RACCORDO
100
AcDbLine
 62
7
  6
CONTINUOUS
 10
9.5
 20
-8.5812656542
 11
9.6021029835
 21
-8.578817544
  0
LINE
  5
2F4
100
AcDbEntity
  8
DRAFT
100
AcDbLine
 62
7
  6
CONTINUOUS
 10
-9.5810577445
 20
-9.5
 11
-9.5
 21
-9.5
  0
LINE
  5
2F5
100
AcDbEntity
  8
DRAFT
100
AcDbLine
 62
7
  6
CONTINUOUS
 10
9.5810577445
 20
-9.5
 11
9.5
 21
-9.5
  0
LINE
  5
2F6
100
AcDbEntity
  8
RACCORDO
100
AcDbLine
 62
7
  6
CONTINUOUS
 10
-9.7900415076
 20
-9.4223308767
 11
-9.6587268678
 21
-9.4223308767
  0
LINE
  5
2F7
100
AcDbEntity
  8
RACCORDO
100
AcDbLine
 62
7
  6
CONTINUOUS
 10
9.7900415076
 20
-9.4223308767
 11
9.6587268678
 21
-9.4223308767
  0
LINE
  5
2F8
100
AcDbEntity
  8
0
100
AcDbLine
 62
7
  6
CONTINUOUS
 10
-6.55
 20
-9.35
 11
-5.35
 21
-9.35
  0
LINE
  5
2F9
100
AcDbEntity
  8
0
100
AcDbLine
 62
7
  6
CONTINUOUS
 10
-4.15
 20
-9.35
 11
-2.95
 21
-9.35
  0
LINE
  5
2FA
100
AcDbEntity
  8
0
100
AcDbLine
 62
7
  6
CONTINUOUS
 10
-1.75
 20
-9.35
 11
-0.55
 21
-9.35
  0
LINE
  5
2FB
100
AcDbEntity
  8
0
100
AcDbLine
 62
7
  6
CONTINUOUS
 10
0.55
 20
-9.35
 11
1.75
 21
-9.35
  0
LINE
  5
2FC
100
AcDbEntity
  8
0
100
AcDbLine
 62
7
  6
CONTINUOUS
 10
2.95
 20
-9.35
 11
4.15
 21
-9.35
  0
LINE
  5
2FD
100
AcDbEntity
  8
0
100
AcDbLine
 62
7
  6
CONTINUOUS
 10
5.35
 20
-9.35
 11
6.55
 21
-9.35
  0
LINE
  5
2FE
100
AcDbEntity
  8
RACCORDO
100
AcDbLine
 62
7
  6
CONTINUOUS
 10
-9.7900415076
 20
-8.5776691233
 11
-9.6587268678
 21
-8.5776691233
  0
LINE
  5
2FF
100
AcDbEntity
  8
RACCORDO
100
AcDbLine
 62
7
  6
CONTINUOUS
 10
9.7900415076
 20
-8.5776691233
 11
9.6587268678
 21
-8.5776691233
  0
LINE
  5
300
100
AcDbEntity
  8
DRAFT
100
AcDbLine
 62
7
  6
CONTINUOUS
 10
-9.5810577445
 20
-8.5
 11
-9.5
 21
-8.5
  0
LINE
  5
301
100
AcDbEntity
  8
DRAFT
100
AcDbLine
 62
7
  6
CONTINUOUS
 10
9.5810577445
 20
-8.5
 11
9.5
 21
-8.5
  0
LINE
  5
302
100
AcDbEntity
  8
0
100
AcDbLine
 62
7
  6
CONTINUOUS
 10
-7.1
 20
-8.45
 11
-6.55
 21
-8.45
  0
LINE
  5
303
100
AcDbEntity
  8
0
100
AcDbLine
 62
7
  6
CONTINUOUS
 10
-5.35
 20
-8.45
 11
-4.15
 21
-8.45
  0
LINE
  5
304
100
AcDbEntity
  8
0
100
AcDbLine
 62
7
  6
CONTINUOUS
 10
-2.95
 20
-8.45
 11
-1.75
 21
-8.45
  0
LINE
  5
305
100
AcDbEntity
  8
0
100
AcDbLine
 62
7
  6
CONTINUOUS
 10
-0.55
 20
-8.45
 11
0.55
 21
-8.45
  0
LINE
  5
306
100
AcDbEntity
  8
0
100
AcDbLine
 62
7
  6
CONTINUOUS
 10
1.75
 20
-8.45
 11
2.95
 21
-8.45
  0
LINE
  5
307
100
AcDbEntity
  8
0
100
AcDbLine
 62
7
  6
CONTINUOUS
 10
4.15
 20
-8.45
 11
5.35
 21
-8.45
  0
LINE
  5
308
100
AcDbEntity
  8
0
100
AcDbLine
 62
7
  6
CONTINUOUS
 10
6.55
 20
-8.45
 11
7.1
 21
-8.45
  0
LINE
  5
309
100
AcDbEntity
  8
RACCORDO
100
AcDbLine
 62
7
  6
CONTINUOUS
 10
9.5
 20
-9.4187343458
 11
9.6021029835
 21
-9.421182456
  0
LINE
  5
30A
100
AcDbEntity
  8
RACCORDO
100
AcDbLine
 62
7
  6
CONTINUOUS
 10
-9.6021029835
 20
-8.578817544
 11
-9.5
 21
-8.5812656542
  0
LWPOLYLINE
  5
30B
100
AcDbEntity
  8
RACCORDO
100
AcDbPolyline
 62
250
  6
CONTINUOUS
 90
8
 70
0
 10
7.1563704044
 20
-18.541329332
 10
7.1760364792
 20
-18.5585786439
 10
7.1932831638
 20
-18.5782477143
 10
7.2078153628
 20
-18.6000000001
 10
7.2193844262
 20
-18.6234633136
 10
7.2277924042
 20
-18.648236191
 10
7.2328954339
 20
-18.6738947616
 10
7.234606201
 20
-18.7
  0
LINE
  5
30C
100
AcDbEntity
  8
RACCORDO
100
AcDbLine
 62
7
  6
CONTINUOUS
 10
6.5168765708
 20
-20.4338413913
 11
6.6558702077
 21
-20.5728350282
  0
LWPOLYLINE
  5
30D
100
AcDbEntity
  8
RACCORDO
100
AcDbPolyline
 62
7
  6
CONTINUOUS
 90
10
 70
0
 10
-6.6200664561
 20
-18.7
 10
-6.621788861
 20
-18.6740052246
 10
-6.6268735856
 20
-18.6484644063
 10
-6.6352396652
 20
-18.6237969742
 10
-6.6467477188
 20
-18.6004004561
 10
-6.6612085203
 20
-18.5786699409
 10
-6.6783904723
 20
-18.5589942658
 10
-6.6980161506
 20
-18.5417022105
 10
-6.7197508472
 20
-18.5270906564
 10
-6.7432134297
 20
-18.5154418811
  0
LINE
  5
30E
100
AcDbEntity
  8
RACCORDO
100
AcDbLine
 62
250
  6
CONTINUOUS
 10
-7.1094109243
 20
-18.5
 11
-7.319462557
 21
-15.2755396155
  0
LWPOLYLINE
  5
30F
100
AcDbEntity
  8
RACCORDO
100
AcDbPolyline
 62
250
  6
CONTINUOUS
 90
8
 70
0
 10
-7.2316159776
 20
-18.7539032019
 10
-7.2320259031
 20
-18.7389509382
 10
-7.2324517745
 20
-18.726613029
 10
-7.2328932409
 20
-18.7166600606
 10
-7.2333313154
 20
-18.7090286153
 10
-7.2337596691
 20
-18.7036975538
 10
-7.234184631
 20
-18.7006880154
 10
-7.234606201
 20
-18.7
  0
LWPOLYLINE
  5
310
100
AcDbEntity
  8
RACCORDO
100
AcDbPolyline
 62
250
  6
CONTINUOUS
 90
6
 70
0
 10
-7.032481887
 20
-18.5442382844
 10
-7.0329234369
 20
-18.5275687844
 10
-7.0333615908
 20
-18.5150549441
 10
-7.0337900106
 20
-18.5064996113
 10
-7.0342150344
 20
-18.501575651
 10
-7.034636662
 20
-18.5
  0
LINE
  5
311
100
AcDbEntity
  8
RACCORDO
100
AcDbLine
 62
250
  6
CONTINUOUS
 10
-7.230860845
 20
-18.7903377291
 11
-7.2316159776
 21
-18.7539032019
  0
LINE
  5
312
100
AcDbEntity
  8
RACCORDO
100
AcDbLine
 62
250
  6
CONTINUOUS
 10
-7.2419286989
 20
20.8366629075
 11
-7.2293696815
 21
20.1171572875
  0
LINE
  5
313
100
AcDbEntity
  8
RACCORDO
100
AcDbLine
 62
250
  6
CONTINUOUS
 10
-7.0316459995
 20
-18.5897453036
 11
-7.032481887
 21
-18.5442382844
  0
LINE
  5
314
100
AcDbEntity
  8
RACCORDO
100
AcDbLine
 62
250
  6
CONTINUOUS
 10
-7.2302463082
 20
-18.834106935
 11
-7.230860845
 21
-18.7903377291
  0
LINE
  5
315
100
AcDbEntity
  8
RACCORDO
100
AcDbLine
 62
250
  6
CONTINUOUS
 10
-7.0308908793
 20
-18.6506224121
 11
-7.0316459995
 21
-18.5897453036
  0
LINE
  5
316
100
AcDbEntity
  8
RACCORDO
100
AcDbLine
 62
250
  6
CONTINUOUS
 10
-6.8556039598
 20
-20.7438927334
 11
-6.8598392317
 21
-20.2585786438
  0
LINE
  5
317
100
AcDbEntity
  8
RACCORDO
100
AcDbLine
 62
250
  6
CONTINUOUS
 10
-6.6558702077
 20
-20.5728350282
 11
-6.6598468471
 21
-20.1171572875
  0
LINE
  5
318
100
AcDbEntity
  8
RACCORDO
100
AcDbLine
 62
250
  6
CONTINUOUS
 10
-7.2296328074
 20
-18.9066510247
 11
-7.2302463082
 21
-18.834106935
  0
LINE
  5
319
100
AcDbEntity
  8
RACCORDO
100
AcDbLine
 62
250
  6
CONTINUOUS
 10
-7.0298246198
 20
-18.8031472374
 11
-7.0308908793
 21
-18.6506224121
  0
LINE
  5
31A
100
AcDbEntity
  8
RACCORDO
100
AcDbLine
 62
250
  6
CONTINUOUS
 10
-6.8592547018
 20
18.6853912461
 11
-6.8585099766
 21
18.5647948202
  0
LINE
  5
31B
100
AcDbEntity
  8
RACCORDO
100
AcDbLine
 62
250
  6
CONTINUOUS
 10
-7.2293778235
 20
-18.9775145429
 11
-7.2296328074
 21
-18.9066510247
  0
LINE
  5
31C
100
AcDbEntity
  8
RACCORDO
100
AcDbLine
 62
7
  6
CONTINUOUS
 10
-8.4101132618
 20
4.9872801014
 11
-8.4101132618
 21
6.6898867382
  0
LINE
  5
31D
100
AcDbEntity
  8
DRAFT
100
AcDbLine
 62
7
  6
CONTINUOUS
 10
-8.35
 20
-10.9
 11
-8.35
 21
-10.45
  0
LINE
  5
31E
100
AcDbEntity
  8
DRAFT
100
AcDbLine
 62
7
  6
CONTINUOUS
 10
-8.3325462644
 20
-10.8825462644
 11
-8.3325462644
 21
-10.45
  0
LINE
  5
31F
100
AcDbEntity
  8
0
100
AcDbLine
 62
7
  6
CONTINUOUS
 10
-8.3
 20
-3.45
 11
-8.3
 21
-7.15
  0
LINE
  5
320
100
AcDbEntity
  8
0
100
AcDbLine
 62
7
  6
CONTINUOUS
 10
-8.15
 20
-3.6
 11
-8.15
 21
-7.0
  0
LINE
  5
321
100
AcDbEntity
  8
RACCORDO
100
AcDbLine
 62
250
  6
CONTINUOUS
 10
-7.7372801014
 20
4.6872915245
 11
-7.7372801014
 21
6.6898867382
  0
LINE
  5
322
100
AcDbEntity
  8
DRAFT
100
AcDbLine
 62
7
  6
CONTINUOUS
 10
-7.5
 20
-12.8
 11
-7.5
 21
-10.9
  0
LINE
  5
323
100
AcDbEntity
  8
DRAFT
100
AcDbLine
 62
7
  6
CONTINUOUS
 10
-7.4825462644
 20
-12.8174537356
 11
-7.4825462644
 21
-10.8825462644
  0
LINE
  5
324
100
AcDbEntity
  8
RACCORDO
100
AcDbLine
 62
7
  6
CONTINUOUS
 10
-7.4372915245
 20
4.9872801014
 11
-7.4372915245
 21
6.6872915245
  0
LINE
  5
325
100
AcDbEntity
  8
RACCORDO
100
AcDbLine
 62
7
  6
CONTINUOUS
 10
-7.4101132618
 20
9.0101323002
 11
-7.4101132618
 21
7.3118510196
  0
LINE
  5
326
100
AcDbEntity
  8
RACCORDO
100
AcDbLine
 62
7
  6
CONTINUOUS
 10
-7.4101132618
 20
-13.5118510196
 11
-7.4101132618
 21
-14.6101323002
  0
LINE
  5
327
100
AcDbEntity
  8
RACCORDO
100
AcDbLine
 62
7
  6
CONTINUOUS
 10
-7.3674537356
 20
-10.5043838508
 11
-7.3674537356
 21
-10.45
  0
LINE
  5
328
100
AcDbEntity
  8
RACCORDO
100
AcDbLine
 62
7
  6
CONTINUOUS
 10
-7.35
 20
6.6
 11
-7.35
 21
4.8999885769
  0
LINE
  5
329
100
AcDbEntity
  8
ASSI
100
AcDbLine
 62
7
  6
CONTINUOUS
 10
-7.3
 20
4.55
 11
-7.3
 21
5.2498863979
  0
LINE
  5
32A
100
AcDbEntity
  8
0
100
AcDbLine
 62
7
  6
CONTINUOUS
 10
-7.25
 20
6.65
 11
-7.25
 21
5.25
  0
LINE
  5
32B
100
AcDbEntity
  8
RACCORDO
100
AcDbLine
 62
250
  6
CONTINUOUS
 10
-7.2293696815
 20
-20.1171572875
 11
-7.2293778235
 21
-18.9775145429
  0
LINE
  5
32C
100
AcDbEntity
  8
0
100
AcDbLine
 62
7
  6
CONTINUOUS
 10
-7.19
 20
1.55
 11
-7.19
 21
-2.25
  0
LINE
  5
32D
100
AcDbEntity
  8
0
100
AcDbLine
 62
7
  6
CONTINUOUS
 10
-7.1
 20
-2.45
 11
-7.1
 21
-3.45
  0
LINE
  5
32E
100
AcDbEntity
  8
0
100
AcDbLine
 62
7
  6
CONTINUOUS
 10
-7.1
 20
-7.15
 11
-7.1
 21
-8.45
  0
LINE
  5
32F
100
AcDbEntity
  8
RACCORDO
100
AcDbLine
 62
250
  6
CONTINUOUS
 10
-7.0294001425
 20
-20.2585786438
 11
-7.0298246198
 21
-18.8031472374
  0
LINE
  5
330
100
AcDbEntity
  8
0
100
AcDbLine
 62
7
  6
CONTINUOUS
 10
-6.95
 20
-3.6
 11
-6.95
 21
1.55
  0
LINE
  5
331
100
AcDbEntity
  8
RACCORDO
100
AcDbLine
 62
250
  6
CONTINUOUS
 10
-6.8598392317
 20
20.2585786438
 11
-6.8592547018
 21
18.6853912461
  0
LINE
  5
332
100
AcDbEntity
  8
RACCORDO
100
AcDbLine
 62
250
  6
CONTINUOUS
 10
-6.7139945176
 20
-15.1101132618
 11
-6.7139945176
 21
-14.6859445605
  0
LINE
  5
333
100
AcDbEntity
  8
RACCORDO
100
AcDbLine
 62
250
  6
CONTINUOUS
 10
-6.7139945176
 20
8.7859445605
 11
-6.7139945176
 21
9.5101132618
  0
LINE
  5
334
100
AcDbEntity
  8
RACCORDO
100
AcDbLine
 62
250
  6
CONTINUOUS
 10
-7.2293696815
 20
20.1171572875
 11
-7.2295241191
 21
18.9276857293
  0
LINE
  5
335
100
AcDbEntity
  8
RACCORDO
100
AcDbLine
 62
250
  6
CONTINUOUS
 10
-6.8598392317
 20
-20.2585786438
 11
-6.8592321097
 21
-18.6801191675
  0
LINE
  5
336
100
AcDbEntity
  8
RACCORDO
100
AcDbLine
 62
250
  6
CONTINUOUS
 10
-7.0294001425
 20
20.2585786438
 11
-7.0298548336
 21
18.7965852064
  0
LINE
  5
337
100
AcDbEntity
  8
RACCORDO
100
AcDbLine
 62
250
  6
CONTINUOUS
 10
-6.8592321097
 20
-18.6801191675
 11
-6.858694955
 21
-18.5868922572
  0
LINE
  5
338
100
AcDbEntity
  8
RACCORDO
100
AcDbLine
 62
250
  6
CONTINUOUS
 10
-7.2295241191
 20
18.9276857293
 11
-7.2300346566
 21
18.853704069
  0
LINE
  5
339
100
AcDbEntity
  8
RACCORDO
100
AcDbLine
 62
250
  6
CONTINUOUS
 10
-6.8598392317
 20
20.2585786438
 11
-6.8556039598
 21
20.7438927334
  0
LINE
  5
33A
100
AcDbEntity
  8
RACCORDO
100
AcDbLine
 62
250
  6
CONTINUOUS
 10
-6.6558702077
 20
20.5728350282
 11
-6.6598468471
 21
20.1171572875
  0
LINE
  5
33B
100
AcDbEntity
  8
RACCORDO
100
AcDbLine
 62
250
  6
CONTINUOUS
 10
-7.0298548336
 20
18.7965852064
 11
-7.0309370361
 21
18.6461659179
  0
LINE
  5
33C
100
AcDbEntity
  8
RACCORDO
100
AcDbLine
 62
250
  6
CONTINUOUS
 10
-7.2300346566
 20
18.853704069
 11
-7.2305820071
 21
18.808185491
  0
LINE
  5
33D
100
AcDbEntity
  8
RACCORDO
100
AcDbLine
 62
250
  6
CONTINUOUS
 10
-7.0309370361
 20
18.6461659179
 11
-7.0316859465
 21
18.5870834689
  0
LINE
  5
33E
100
AcDbEntity
  8
RACCORDO
100
AcDbLine
 62
250
  6
CONTINUOUS
 10
-7.2419286989
 20
-20.8366629075
 11
-7.2293696815
 21
-20.1171572875
  0
LWPOLYLINE
  5
33F
100
AcDbEntity
  8
RACCORDO
100
AcDbPolyline
 62
250
  6
CONTINUOUS
 90
10
 70
0
 10
-7.2305820071
 20
18.808185491
 10
-7.2312659314
 20
18.7690824564
 10
-7.2316560751
 20
18.752297365
 10
-7.2320612452
 20
18.7378209509
 10
-7.2324822778
 20
18.7258402591
 10
-7.2329183369
 20
18.7161682446
 10
-7.2333506372
 20
18.7087533656
 10
-7.2337729171
 20
18.7035784415
 10
-7.2341914384
 20
18.700660653
 10
-7.234606201
 20
18.7
  0
LWPOLYLINE
  5
340
100
AcDbEntity
  8
RACCORDO
100
AcDbPolyline
 62
250
  6
CONTINUOUS
 90
7
 70
0
 10
-7.0316859465
 20
18.5870834689
 10
-7.0325118959
 20
18.5429494182
 10
-7.0329477295
 20
18.5267597102
 10
-7.0333799803
 20
18.514609784
 10
-7.0338024571
 20
18.5063070281
 10
-7.034221351
 20
18.5015289256
 10
-7.034636662
 20
18.5
  0
LWPOLYLINE
  5
341
100
AcDbEntity
  8
RACCORDO
100
AcDbPolyline
 62
7
  6
CONTINUOUS
 90
16
 70
0
 10
-7.5001477533
 20
9.1001667918
 10
-7.4974224372
 20
9.152212196
 10
-7.4892678677
 20
9.2038102614
 10
-7.4757356198
 20
9.2543916914
 10
-7.4568970634
 20
9.3034821851
 10
-7.4329455248
 20
9.35042829
 10
-7.4042882036
 20
9.3944511555
 10
-7.3714240221
 20
9.4349437147
 10
-7.3346510068
 20
9.4716761142
 10
-7.2941514538
 20
9.5044748448
 10
-7.2501832706
 20
9.5330395935
 10
-7.2033392262
 20
9.5569001772
 10
-7.1543295652
 20
9.5756856248
 10
-7.1037764834
 20
9.5891983754
 10
-7.0521724765
 20
9.5973460943
 10
-7.0000849512
 20
9.6000659127
  0
LWPOLYLINE
  5
342
100
AcDbEntity
  8
RACCORDO
100
AcDbPolyline
 62
7
  6
CONTINUOUS
 90
13
 70
0
 10
-6.5153193024
 20
15.4838500694
 10
-6.5170644077
 20
15.4562067425
 10
-6.5222712161
 20
15.4291926459
 10
-6.5308204697
 20
15.4032390196
 10
-6.5425299038
 20
15.3787379785
 10
-6.5571756464
 20
15.3560852013
 10
-6.5745094037
 20
15.3356819
 10
-6.5942518661
 20
15.3178312955
 10
-6.6160329962
 20
15.3028242083
 10
-6.6394067097
 20
15.2909642083
 10
-6.6639355174
 20
15.2824237631
 10
-6.6892156267
 20
15.2772688539
 10
-6.7148190698
 20
15.2755396155
  0
LINE
  5
343
100
AcDbEntity
  8
RACCORDO
100
AcDbLine
 62
250
  6
CONTINUOUS
 10
-7.319462557
 20
15.2755396155
 11
-7.1094109243
 21
18.5
  0
LWPOLYLINE
  5
344
100
AcDbEntity
  8
RACCORDO
100
AcDbPolyline
 62
250
  6
CONTINUOUS
 90
9
 70
0
 10
-6.6572287868
 20
18.7
 10
-6.6589397493
 20
18.6738947616
 10
-6.664043362
 20
18.648236191
 10
-6.6724523006
 20
18.6234633135
 10
-6.6840226857
 20
18.6
 10
-6.698556545
 20
18.5782477142
 10
-6.7158052
 20
18.5585786438
 10
-6.7354735215
 20
18.5413293319
 10
-6.7481955893
 20
18.5323321224
  0
LWPOLYLINE
  5
345
100
AcDbEntity
  8
RACCORDO
100
AcDbPolyline
 62
7
  6
CONTINUOUS
 90
10
 70
0
 10
-6.6200664561
 20
18.7
 10
-6.6217837243
 20
18.6740798342
 10
-6.6268536167
 20
18.6485625367
 10
-6.6352044001
 20
18.6238823695
 10
-6.6467097823
 20
18.60045995
 10
-6.6611858003
 20
18.5787024009
 10
-6.678390465
 20
18.5589942732
 10
-6.6980324725
 20
18.5416836961
 10
-6.7197873722
 20
18.5270694334
 10
-6.7432991968
 20
18.5154061091
  0
LWPOLYLINE
  5
346
100
AcDbEntity
  8
RACCORDO
100
AcDbPolyline
 62
250
  6
CONTINUOUS
 90
3
 70
0
 10
-7.4398981132
 20
4.947842643
 10
-7.4388857693
 20
4.9564164305
 10
-7.4372915245
 20
4.9872801014
  0
LWPOLYLINE
  5
347
100
AcDbEntity
  8
0
100
AcDbPolyline
 62
7
  6
CONTINUOUS
 90
10
 70
0
 10
8.039657996
 20
19.0582032229
 10
8.02087248
 20
19.0400627936
 10
8.0040970755
 20
19.0207528448
 10
7.9893317826
 20
19.0002733714
 10
7.9764520049
 20
18.9785121374
 10
7.9655823389
 20
18.9555813672
 10
7.9570965733
 20
18.9318177471
 10
7.9511193046
 20
18.9073335038
 10
7.9475259364
 20
18.8820164019
 10
7.9463164687
 20
18.8558664367
  0
LWPOLYLINE
  5
348
100
AcDbEntity
  8
0
100
AcDbPolyline
 62
7
  6
CONTINUOUS
 90
10
 70
0
 10
8.6564120935
 20
18.4905866574
 10
8.6244577107
 20
18.4628732567
 10
8.5903413532
 20
18.4385201469
 10
8.554063021
 20
18.4175273462
 10
8.5152764364
 20
18.3999124008
 10
8.474327877
 20
18.3856577936
 10
8.4322561762
 20
18.3747109441
 10
8.3894076116
 20
18.3670543299
 10
8.3454359054
 20
18.3627054871
 10
8.3003410578
 20
18.3616644189
  0
LWPOLYLINE
  5
349
100
AcDbEntity
  8
0
100
AcDbPolyline
 62
7
  6
CONTINUOUS
 90
37
 70
0
 10
4.666435305
 20
14.357411108
 10
4.6356745557
 20
14.3332687676
 10
4.6094560411
 20
14.3076381766
 10
4.5877797611
 20
14.2805193286
 10
4.570817695
 20
14.2514162785
 10
4.5583978636
 20
14.2208249554
 10
4.5500043293
 20
14.1902331713
 10
4.5456071705
 20
14.1598897026
 10
4.5452363088
 20
14.129545774
 10
4.5484655722
 20
14.0999428808
 10
4.5552209828
 20
14.0709660383
 10
4.5655765185
 20
14.0427302385
 10
4.5793279405
 20
14.0163219505
 10
4.5969959454
 20
13.9918369703
 10
4.6180598367
 20
13.9691795182
 10
4.640753286
 20
13.9491487074
 10
4.6649645803
 20
13.9321920552
 10
4.6908054325
 20
13.9178620617
 10
4.716844653
 20
13.9056153147
 10
4.7427254262
 20
13.8956004536
 10
4.7688045675
 20
13.887668847
 10
4.794721334
 20
13.8808311725
 10
4.8204139103
 20
13.8749264684
 10
4.8459441117
 20
13.8701156987
 10
4.8711366412
 20
13.8658924273
 10
4.8959031993
 20
13.8621426583
 10
4.9203320855
 20
13.8589803883
 10
4.9445129009
 20
13.8562411704
 10
4.9684197695
 20
13.8539060718
 10
4.9920785673
 20
13.8519940254
 10
5.0156565234
 20
13.8503973826
 10
5.0391830719
 20
13.8491060636
 10
5.0626287787
 20
13.8481301483
 10
5.0860725714
 20
13.8473922264
 10
5.1095407591
 20
13.8468664945
 10
5.1330070326
 20
13.8465787562
 10
5.1798169844
 20
13.8465658242
  0
LWPOLYLINE
  5
34A
100
AcDbEntity
  8
0
100
AcDbPolyline
 62
7
  6
CONTINUOUS
 90
16
 70
0
 10
5.6465074628
 20
13.932569744
 10
5.6766058832
 20
13.9558635673
 10
5.7024397316
 20
13.9808843287
 10
5.7240090081
 20
14.0076320211
 10
5.7413652058
 20
14.0364746782
 10
5.7544568316
 20
14.0670442487
 10
5.7631294058
 20
14.0982366019
 10
5.7673107804
 20
14.13014605
 10
5.7670731034
 20
14.1626782737
 10
5.7624783399
 20
14.1944462083
 10
5.7534557624
 20
14.2253237873
 10
5.7400760983
 20
14.2554370857
 10
5.7226134949
 20
14.2837772643
 10
5.7011593346
 20
14.310008051
 10
5.675622235
 20
14.3344657355
 10
5.646002196
 20
14.3571503252
  0
LWPOLYLINE
  5
34B
100
AcDbEntity
  8
0
100
AcDbPolyline
 62
7
  6
CONTINUOUS
 90
10
 70
0
 10
8.0682457235
 20
14.4016688469
 10
8.0446460594
 20
14.3841242522
 10
8.0233863867
 20
14.3650286618
 10
8.0044667056
 20
14.3443820704
 10
7.9876563482
 20
14.3222174942
 10
7.9731859822
 20
14.2985019058
 10
7.961747611
 20
14.2731362335
 10
7.9535719022
 20
14.2460874483
 10
7.9484281881
 20
14.2173885643
 10
7.9463164687
 20
14.1870395735
  0
LWPOLYLINE
  5
34C
100
AcDbEntity
  8
0
100
AcDbPolyline
 62
7
  6
CONTINUOUS
 90
7
 70
0
 10
7.9833850173
 20
14.5509343323
 10
8.0160674456
 20
14.5704768695
 10
8.0505317239
 20
14.588433866
 10
8.0867778522
 20
14.6048053268
 10
8.1248058304
 20
14.6195912565
 10
8.1646156585
 20
14.6327916592
 10
8.2062073366
 20
14.6444065387
  0
LINE
  5
34D
100
AcDbEntity
  8
0
100
AcDbLine
 62
7
  6
CONTINUOUS
 10
-8.3
 20
-7.15
 11
-7.1
 21
-7.15
  0
LINE
  5
34E
100
AcDbEntity
  8
0
100
AcDbLine
 62
7
  6
CONTINUOUS
 10
7.1
 20
-7.15
 11
8.3
 21
-7.15
  0
LINE
  5
34F
100
AcDbEntity
  8
0
100
AcDbLine
 62
7
  6
CONTINUOUS
 10
-8.15
 20
-7.0
 11
-2.6602750577
 21
-7.0
  0
LINE
  5
350
100
AcDbEntity
  8
0
100
AcDbLine
 62
7
  6
CONTINUOUS
 10
2.6602750577
 20
-7.0
 11
8.15
 21
-7.0
  0
LINE
  5
351
100
AcDbEntity
  8
DRAFT
100
AcDbLine
 62
7
  6
CONTINUOUS
 10
-9.6587268678
 20
-1.7223308767
 11
-9.5810577445
 21
-1.8
  0
LWPOLYLINE
  5
352
100
AcDbEntity
  8
RACCORDO
100
AcDbPolyline
 62
7
  6
CONTINUOUS
 90
12
 70
0
 10
-7.3089365232
 20
18.7
 10
-7.3071842988
 20
18.6739981974
 10
-7.3020705504
 20
18.6484605873
 10
-7.2936811322
 20
18.6238056948
 10
-7.2821620547
 20
18.6004322166
 10
-7.2677050687
 20
18.5787289921
 10
-7.250536297
 20
18.5590736936
 10
-7.2309257685
 20
18.5417887896
 10
-7.209212759
 20
18.5271768639
 10
-7.1857903053
 20
18.5155248943
 10
-7.1610692283
 20
18.5070349419
 10
-7.1354636732
 20
18.5018319132
  0
LWPOLYLINE
  5
353
100
AcDbEntity
  8
RACCORDO
100
AcDbPolyline
 62
250
  6
CONTINUOUS
 90
16
 70
0
 10
-6.7139945176
 20
8.7859445605
 10
-6.7114836063
 20
8.7429423905
 10
-6.7048548871
 20
8.7014268298
 10
-6.6941083598
 20
8.6613978784
 10
-6.6790133077
 20
8.6224808899
 10
-6.6598004475
 20
8.5850505108
 10
-6.63716193
 20
8.5502306799
 10
-6.611047444
 20
8.5181205214
 10
-6.5815073006
 20
8.4886209112
 10
-6.5493845834
 20
8.4625584156
 10
-6.5145916152
 20
8.4399867233
 10
-6.4772160733
 20
8.4208521455
 10
-6.4383640731
 20
8.4058201826
 10
-6.3984043201
 20
8.3951126678
 10
-6.3569681089
 20
8.3885077677
 10
-6.3140554395
 20
8.3860054824
  0
LINE
  5
354
100
AcDbEntity
  8
RACCORDO
100
AcDbLine
 62
250
  6
CONTINUOUS
 10
-6.8198368876
 20
18.5
 11
-6.7148190698
 21
15.2755396155
  0
LINE
  5
355
100
AcDbEntity
  8
RACCORDO
100
AcDbLine
 62
250
  6
CONTINUOUS
 10
-6.6200664561
 20
18.7
 11
-6.5153193024
 21
15.4838500694
  0
LWPOLYLINE
  5
356
100
AcDbEntity
  8
RACCORDO
100
AcDbPolyline
 62
250
  6
CONTINUOUS
 90
4
 70
0
 10
-6.8578578064
 20
18.5150140998
 10
-6.8576438686
 20
18.5064813309
 10
-6.8574316569
 20
18.5015710626
 10
-6.8572211714
 20
18.5
  0
LINE
  5
357
100
AcDbEntity
  8
RACCORDO
100
AcDbLine
 62
250
  6
CONTINUOUS
 10
-5.4256357545
 20
9.5256357545
 11
-5.4994816014
 21
12.6055139921
  0
LINE
  5
358
100
AcDbEntity
  8
RACCORDO
100
AcDbLine
 62
250
  6
CONTINUOUS
 10
-5.2210122031
 20
9.5204228659
 11
-5.3000241398
 21
12.8157624759
  0
LWPOLYLINE
  5
359
100
AcDbEntity
  8
RACCORDO
100
AcDbPolyline
 62
250
  6
CONTINUOUS
 90
6
 70
0
 10
-6.6583046098
 20
18.7265437311
 10
-6.6580841085
 20
18.7166156983
 10
-6.657865331
 20
18.7090041921
 10
-6.6576514257
 20
18.7036862682
 10
-6.6574392443
 20
18.7006848709
 10
-6.6572287868
 20
18.7
  0
LINE
  5
35A
100
AcDbEntity
  8
RACCORDO
100
AcDbLine
 62
250
  6
CONTINUOUS
 10
-7.0425072881
 20
21.0094865114
 11
-7.0294001425
 21
20.2585786438
  0
LINE
  5
35B
100
AcDbEntity
  8
RACCORDO
100
AcDbLine
 62
250
  6
CONTINUOUS
 10
-6.658722296
 20
18.7537847547
 11
-6.6583046098
 21
18.7265437311
  0
LWPOLYLINE
  5
35C
100
AcDbEntity
  8
RACCORDO
100
AcDbPolyline
 62
250
  6
CONTINUOUS
 90
3
 70
0
 10
-6.8585099766
 20
18.5647948202
 10
-6.8582971659
 20
18.5441249138
 10
-6.8578578064
 20
18.5150140998
  0
LINE
  5
35D
100
AcDbEntity
  8
RACCORDO
100
AcDbLine
 62
250
  6
CONTINUOUS
 10
-6.6592621331
 20
18.8111757567
 11
-6.658722296
 21
18.7537847547
  0
LINE
  5
35E
100
AcDbEntity
  8
RACCORDO
100
AcDbLine
 62
250
  6
CONTINUOUS
 10
-6.6597765552
 20
18.9309505535
 11
-6.6592621331
 21
18.8111757567
  0
LINE
  5
35F
100
AcDbEntity
  8
RACCORDO
100
AcDbLine
 62
250
  6
CONTINUOUS
 10
-6.6598468471
 20
19.0
 11
-6.6597765552
 21
18.9309505535
  0
LINE
  5
360
100
AcDbEntity
  8
RACCORDO
100
AcDbLine
 62
7
  6
CONTINUOUS
 10
-6.6598468471
 20
20.1171572875
 11
-6.6598468471
 21
19.0
  0
LINE
  5
361
100
AcDbEntity
  8
RACCORDO
100
AcDbLine
 62
7
  6
CONTINUOUS
 10
-6.6598468471
 20
-20.1171572875
 11
-6.6598468471
 21
-19.0
  0
LINE
  5
362
100
AcDbEntity
  8
0
100
AcDbLine
 62
7
  6
CONTINUOUS
 10
-6.55
 20
-8.45
 11
-6.55
 21
-9.35
  0
LINE
  5
363
100
AcDbEntity
  8
RACCORDO
100
AcDbLine
 62
250
  6
CONTINUOUS
 10
-6.5140249785
 20
-15.1118281743
 11
-6.5140249785
 21
-14.6859445605
  0
LINE
  5
364
100
AcDbEntity
  8
RACCORDO
100
AcDbLine
 62
250
  6
CONTINUOUS
 10
-6.5140249785
 20
8.7859445605
 11
-6.5140249785
 21
9.5118281743
  0
LINE
  5
365
100
AcDbEntity
  8
RACCORDO
100
AcDbLine
 62
7
  6
CONTINUOUS
 10
-6.5
 20
9.5188401295
 11
-6.5
 21
8.799969539
  0
LINE
  5
366
100
AcDbEntity
  8
RACCORDO
100
AcDbLine
 62
7
  6
CONTINUOUS
 10
-6.5
 20
-10.45
 11
-6.5
 21
-12.5
  0
LINE
  5
367
100
AcDbEntity
  8
DRAFT
100
AcDbLine
 62
7
  6
CONTINUOUS
 10
-6.5
 20
-12.8898867382
 11
-6.5
 21
-13.6
  0
LINE
  5
368
100
AcDbEntity
  8
RACCORDO
100
AcDbLine
 62
7
  6
CONTINUOUS
 10
-6.5
 20
-14.699969539
 11
-6.5
 21
-15.1188401295
  0
LINE
  5
369
100
AcDbEntity
  8
DRAFT
100
AcDbLine
 62
7
  6
CONTINUOUS
 10
-6.5
 20
-12.8836351166
 11
-6.5
 21
-12.5
  0
LINE
  5
36A
100
AcDbEntity
  8
DRAFT
100
AcDbLine
 62
7
  6
CONTINUOUS
 10
-6.5
 20
6.6
 11
-6.5
 21
6.675051063
  0
LINE
  5
36B
100
AcDbEntity
  8
DRAFT
100
AcDbLine
 62
7
  6
CONTINUOUS
 10
-6.5
 20
6.6898867382
 11
-6.5
 21
7.3
  0
LINE
  5
36C
100
AcDbEntity
  8
RACCORDO
100
AcDbLine
 62
250
  6
CONTINUOUS
 10
-6.3140554397
 20
-14.2860054824
 11
-6.3140554396
 21
-14.4859750215
  0
LINE
  5
36D
100
AcDbEntity
  8
RACCORDO
100
AcDbLine
 62
250
  6
CONTINUOUS
 10
-6.3140554395
 20
8.3860054824
 11
-6.3140554396
 21
8.5859750215
  0
LINE
  5
36E
100
AcDbEntity
  8
0
100
AcDbLine
 62
7
  6
CONTINUOUS
 10
-6.0
 20
4.55
 11
-6.0
 21
2.05
  0
LINE
  5
36F
100
AcDbEntity
  8
ASSI
100
AcDbLine
 62
7
  6
CONTINUOUS
 10
-6.0
 20
-12.85
 11
-6.0
 21
-10.45
  0
LINE
  5
370
100
AcDbEntity
  8
ASSI
100
AcDbLine
 62
7
  6
CONTINUOUS
 10
-5.5
 20
4.55
 11
-5.5
 21
5.2498863979
  0
LINE
  5
371
100
AcDbEntity
  8
0
100
AcDbLine
 62
7
  6
CONTINUOUS
 10
-5.35
 20
-9.35
 11
-5.35
 21
-8.45
  0
LINE
  5
372
100
AcDbEntity
  8
0
100
AcDbLine
 62
7
  6
CONTINUOUS
 10
-5.3
 20
6.65
 11
-5.3
 21
4.55
  0
LINE
  5
373
100
AcDbEntity
  8
RACCORDO
100
AcDbLine
 62
250
  6
CONTINUOUS
 10
-6.6598468471
 20
-19.0
 11
-6.6595136004
 21
-18.8535433418
  0
LINE
  5
374
100
AcDbEntity
  8
RACCORDO
100
AcDbLine
 62
250
  6
CONTINUOUS
 10
-6.6595136004
 20
-18.8535433418
 11
-6.6588973716
 21
-18.7689459358
  0
LINE
  5
375
100
AcDbEntity
  8
RACCORDO
100
AcDbLine
 62
250
  6
CONTINUOUS
 10
-6.858694955
 20
-18.5868922572
 11
-6.8582822013
 21
-18.5428412431
  0
LWPOLYLINE
  5
376
100
AcDbEntity
  8
RACCORDO
100
AcDbPolyline
 62
250
  6
CONTINUOUS
 90
8
 70
0
 10
-6.6588973716
 20
-18.7689459358
 10
-6.6584997794
 20
-18.7377325002
 10
-6.6582894159
 20
-18.7257751852
 10
-6.658071608
 20
-18.7161265268
 10
-6.6578557061
 20
-18.7087303013
 10
-6.657644827
 20
-18.7035677678
 10
-6.6574358539
 20
-18.7006576674
 10
-6.6572287868
 20
-18.7
  0
LINE
  5
377
100
AcDbEntity
  8
RACCORDO
100
AcDbLine
 62
250
  6
CONTINUOUS
 10
-7.0425072881
 20
-21.0094865114
 11
-7.0294001425
 21
-20.2585786438
  0
LWPOLYLINE
  5
378
100
AcDbEntity
  8
RACCORDO
100
AcDbPolyline
 62
250
  6
CONTINUOUS
 90
5
 70
0
 10
-6.8582822013
 20
-18.5428412431
 10
-6.8578486339
 20
-18.5145705893
 10
-6.8576376605
 20
-18.506289462
 10
-6.8574285064
 20
-18.5015245104
 10
-6.8572211714
 20
-18.5
  0
LINE
  5
379
100
AcDbEntity
  8
RACCORDO
100
AcDbLine
 62
250
  6
CONTINUOUS
 10
-4.6999758602
 20
12.8157624759
 11
-4.7789877969
 21
9.5204228659
  0
LINE
  5
37A
100
AcDbEntity
  8
RACCORDO
100
AcDbLine
 62
250
  6
CONTINUOUS
 10
-6.7148190698
 20
-15.2755396155
 11
-6.8198368876
 21
-18.5
  0
LINE
  5
37B
100
AcDbEntity
  8
RACCORDO
100
AcDbLine
 62
250
  6
CONTINUOUS
 10
-6.5153193024
 20
-15.4838500694
 11
-6.6200664561
 21
-18.7
  0
LWPOLYLINE
  5
37C
100
AcDbEntity
  8
RACCORDO
100
AcDbPolyline
 62
7
  6
CONTINUOUS
 90
13
 70
0
 10
-7.5184775044
 20
-15.483378525
 10
-7.5167459172
 20
-15.4557762905
 10
-7.5115595483
 20
-15.428810679
 10
-7.5030389782
 20
-15.4029109818
 10
-7.4913687433
 20
-15.3784690175
 10
-7.4767719555
 20
-15.3558765063
 10
-7.4594919121
 20
-15.3355278816
 10
-7.439805836
 20
-15.3177252699
 10
-7.4180826207
 20
-15.302759043
 10
-7.3947628174
 20
-15.2909290282
 10
-7.3702803713
 20
-15.2824077141
 10
-7.3450382138
 20
-15.2772639035
 10
-7.319462557
 20
-15.2755396155
  0
LWPOLYLINE
  5
37D
100
AcDbEntity
  8
RACCORDO
100
AcDbPolyline
 62
7
  6
CONTINUOUS
 90
13
 70
0
 10
-5.4994816014
 20
12.6055139921
 10
-5.4977101444
 20
12.6335600218
 10
-5.4924578564
 20
12.6609091392
 10
-5.483854214
 20
12.6871399703
 10
-5.472093435
 20
12.7118811896
 10
-5.4574076415
 20
12.7347414304
 10
-5.4400453256
 20
12.755304661
 10
-5.4202833981
 20
12.7732792014
 10
-5.3984997267
 20
12.7883850794
 10
-5.3751535225
 20
12.8003033263
 10
-5.3506882326
 20
12.8088663423
 10
-5.3255034932
 20
12.8140293097
 10
-5.3000241398
 20
12.8157624759
  0
LWPOLYLINE
  5
37E
100
AcDbEntity
  8
RACCORDO
100
AcDbPolyline
 62
250
  6
CONTINUOUS
 90
9
 70
0
 10
-7.234606201
 20
-18.7
 10
-7.2328954339
 20
-18.6738947616
 10
-7.2277924042
 20
-18.648236191
 10
-7.2193844262
 20
-18.6234633135
 10
-7.2078153628
 20
-18.6
 10
-7.1932831637
 20
-18.5782477142
 10
-7.1760364791
 20
-18.5585786438
 10
-7.1563704043
 20
-18.5413293319
 10
-7.1443368137
 20
-18.5327809516
  0
LWPOLYLINE
  5
37F
100
AcDbEntity
  8
RACCORDO
100
AcDbPolyline
 62
250
  6
CONTINUOUS
 90
13
 70
0
 10
-6.5140249785
 20
-14.6859445605
 10
-6.5123085868
 20
-14.6597310226
 10
-6.5071792585
 20
-14.6339980607
 10
-6.4987358775
 20
-14.6091860576
 10
-6.487135001
 20
-14.5857195711
 10
-6.4725842165
 20
-14.5639932552
 10
-6.4553353494
 20
-14.5443671546
 10
-6.4356964276
 20
-14.5271775866
 10
-6.4140007407
 20
-14.5127034127
 10
-6.3905860068
 20
-14.5011696274
 10
-6.3658352387
 20
-14.4927760351
 10
-6.3401794069
 20
-14.4876796173
 10
-6.3140554395
 20
-14.4859750215
  0
LWPOLYLINE
  5
380
100
AcDbEntity
  8
RACCORDO
100
AcDbPolyline
 62
7
  6
CONTINUOUS
 90
12
 70
0
 10
-7.3089365232
 20
-18.7
 10
-7.3071946849
 20
-18.6741235681
 10
-7.3021106415
 20
-18.6486379494
 10
-7.293751803
 20
-18.6239765047
 10
-7.2822380187
 20
-18.6005570772
 10
-7.2677505446
 20
-18.5787914426
 10
-7.2505363116
 20
-18.5590737083
 10
-7.2308931205
 20
-18.5417572449
 10
-7.2091397129
 20
-18.5271341059
 10
-7.1856187697
 20
-18.5154532061
 10
-7.1607168843
 20
-18.5069324742
 10
-7.1348648826
 20
-18.5017443099
  0
LINE
  5
381
100
AcDbEntity
  8
DRAFT
100
AcDbLine
 62
7
  6
CONTINUOUS
 10
-9.65
 20
-20.9
 11
-9.5838661374
 21
-20.5028438891
  0
LWPOLYLINE
  5
382
100
AcDbEntity
  8
0
100
AcDbPolyline
 62
7
  6
CONTINUOUS
 90
7
 70
0
 10
8.0123151858
 20
17.8475131918
 10
7.9912642565
 20
17.8218983735
 10
7.9741655729
 20
17.7947625849
 10
7.961019135
 20
17.7661058173
 10
7.9518249428
 20
17.7359280613
 10
7.9465829962
 20
17.7042293073
 10
7.9452932954
 20
17.671009545
  0
LWPOLYLINE
  5
383
100
AcDbEntity
  8
0
100
AcDbPolyline
 62
7
  6
CONTINUOUS
 90
10
 70
0
 10
8.6523192555
 20
17.9012278363
 10
8.6345600945
 20
17.8817678476
 10
8.6189454298
 20
17.861180836
 10
8.6054752613
 20
17.8394667966
 10
8.5941587751
 20
17.8164429284
 10
8.5849867851
 20
17.792292021
 10
8.5779317335
 20
17.7675624578
 10
8.5729844343
 20
17.7424370327
 10
8.5701540734
 20
17.7167329465
 10
8.5694406509
 20
17.690450196
  0
LWPOLYLINE
  5
384
100
AcDbEntity
  8
0
100
AcDbPolyline
 62
7
  6
CONTINUOUS
 90
10
 70
0
 10
8.5397680879
 20
18.636903052
 10
8.5584553953
 20
18.6564557108
 10
8.5749696414
 20
18.6771840827
 10
8.5893108263
 20
18.6990881622
 10
8.6015136842
 20
18.7223328315
 10
8.6115434809
 20
18.7467531957
 10
8.6192960133
 20
18.7718545858
 10
8.624736547
 20
18.7974721108
 10
8.6278998166
 20
18.8237706544
 10
8.6287858218
 20
18.8507502124
  0
LWPOLYLINE
  5
385
100
AcDbEntity
  8
0
100
AcDbPolyline
 62
7
  6
CONTINUOUS
 90
10
 70
0
 10
9.2286299686
 20
18.5231041718
 10
9.2047982488
 20
18.4985064809
 10
9.1790754967
 20
18.4763387246
 10
9.1514617123
 20
18.4566009151
 10
9.1216950271
 20
18.4392898405
 10
9.0900373096
 20
18.4244087328
 10
9.0572741656
 20
18.4119672677
 10
9.0236674638
 20
18.4019686745
 10
8.9889553355
 20
18.3944097361
 10
8.9531377807
 20
18.3892904565
  0
LWPOLYLINE
  5
386
100
AcDbEntity
  8
0
100
AcDbPolyline
 62
7
  6
CONTINUOUS
 90
10
 70
0
 10
9.209218029
 20
17.3453795834
 10
9.181970481
 20
17.3175414742
 10
9.1528488459
 20
17.2925225692
 10
9.1218531235
 20
17.2703228833
 10
9.0887054774
 20
17.2509075274
 10
9.0536837441
 20
17.2343114152
 10
9.0176214332
 20
17.2206392633
 10
8.9807963812
 20
17.2099259825
 10
8.9429307516
 20
17.202136677
 10
8.9040245444
 20
17.1972713515
  0
LINE
  5
387
100
AcDbEntity
  8
DRAFT
100
AcDbLine
 62
7
  6
CONTINUOUS
 10
-9.6587268678
 20
-0.8776691233
 11
-9.5810577445
 21
-0.8
  0
LWPOLYLINE
  5
388
100
AcDbEntity
  8
0
100
AcDbPolyline
 62
7
  6
CONTINUOUS
 90
10
 70
0
 10
8.039657996
 20
15.5619550372
 10
8.0208734958
 20
15.5438159303
 10
8.0040987659
 20
15.524506983
 10
7.9893338062
 20
15.5040281909
 10
7.9764539038
 20
15.4822673416
 10
7.9655837717
 20
15.4593366381
 10
7.9570975483
 20
15.4355727004
 10
7.9511199464
 20
15.4110877335
 10
7.9475262532
 20
15.3857695254
 10
7.9463164687
 20
15.3596180722
  0
LWPOLYLINE
  5
389
100
AcDbEntity
  8
0
100
AcDbPolyline
 62
7
  6
CONTINUOUS
 90
10
 70
0
 10
8.6564120042
 20
14.9943382971
 10
8.62445821
 20
14.9666252898
 10
8.5903423871
 20
14.9422724582
 10
8.5540645353
 20
14.9212798173
 10
8.5152784978
 20
14.9036648796
 10
8.4743304315
 20
14.889410156
 10
8.4322588072
 20
14.878463156
 10
8.389409782
 20
14.8708063866
 10
8.3454371989
 20
14.8664573518
 10
8.3003410578
 20
14.8654160544
  0
LWPOLYLINE
  5
38A
100
AcDbEntity
  8
0
100
AcDbPolyline
 62
7
  6
CONTINUOUS
 90
10
 70
0
 10
9.0523874386
 20
13.9752387525
 10
9.0759815271
 20
13.9926042318
 10
9.0972599992
 20
14.0116325765
 10
9.116222855
 20
14.0323237813
 10
9.133137676
 20
14.0547632016
 10
9.1477368807
 20
14.0788654695
 10
9.1592177244
 20
14.1043744944
 10
9.1673126254
 20
14.131204909
 10
9.1722891654
 20
14.1594420681
 10
9.1741473444
 20
14.1890859649
  0
LWPOLYLINE
  5
38B
100
AcDbEntity
  8
0
100
AcDbPolyline
 62
7
  6
CONTINUOUS
 90
25
 70
0
 10
9.1703516419
 20
13.8479855431
 10
9.1494484404
 20
13.8326321835
 10
9.1279143814
 20
13.8183478745
 10
9.1057494648
 20
13.8051326185
 10
9.0828489477
 20
13.7930345605
 10
9.0593175731
 20
13.7820055601
 10
9.0354695699
 20
13.7719011913
 10
9.0113500368
 20
13.7627323455
 10
8.9869138751
 20
13.7544881342
 10
8.9623400179
 20
13.7469914607
 10
8.9376805048
 20
13.7402374856
 10
8.9128832962
 20
13.7342310501
 10
8.8879712056
 20
13.7288095779
 10
8.8630223217
 20
13.7239623459
 10
8.8379585558
 20
13.7197000783
 10
8.8125684551
 20
13.7158923692
 10
8.7868567691
 20
13.7125154319
 10
8.7608187484
 20
13.7095930536
 10
8.7342286916
 20
13.7070661895
 10
8.7071007087
 20
13.7049185919
 10
8.6794206898
 20
13.7031665087
 10
8.6509206037
 20
13.7017996379
 10
8.6215111069
 20
13.7008145455
 10
8.5912815431
 20
13.7002146655
 10
8.5602319121
 20
13.6999999981
  0
LINE
  5
38C
100
AcDbEntity
  8
0
100
AcDbLine
 62
7
  6
CONTINUOUS
 10
1.0
 20
-5.45
 11
-1.0
 21
-5.45
  0
LINE
  5
38D
100
AcDbEntity
  8
RACCORDO
100
AcDbLine
 62
250
  6
CONTINUOUS
 10
6.9988692386
 20
-15.1988502001
 11
6.9101323002
 21
-15.1101132618
  0
LINE
  5
38E
100
AcDbEntity
  8
RACCORDO
100
AcDbLine
 62
250
  6
CONTINUOUS
 10
7.4989810696
 20
-14.699000108
 11
7.4101132618
 21
-14.6101323002
  0
LINE
  5
38F
100
AcDbEntity
  8
DRAFT
100
AcDbLine
 62
7
  6
CONTINUOUS
 10
-9.65
 20
20.9
 11
-9.5838661374
 21
20.5028438891
  0
LWPOLYLINE
  5
390
100
AcDbEntity
  8
RACCORDO
100
AcDbPolyline
 62
250
  6
CONTINUOUS
 90
13
 70
0
 10
-6.6598468471
 20
20.1171572875
 10
-6.66166905
 20
20.1353593577
 10
-6.6668092065
 20
20.1533149498
 10
-6.67521242
 20
20.1707191451
 10
-6.6867803067
 20
20.1872875146
 10
-6.7013382517
 20
20.2027109185
 10
-6.7186088814
 20
20.2166740213
 10
-6.7382822012
 20
20.2289285414
 10
-6.7600355757
 20
20.2392755665
 10
-6.7834819673
 20
20.2475324589
 10
-6.8082132153
 20
20.2535604456
 10
-6.8338112531
 20
20.2572623286
 10
-6.8598392317
 20
20.2585786438
  0
LINE
  5
391
100
AcDbEntity
  8
0
100
AcDbLine
 62
7
  6
CONTINUOUS
 10
-4.95
 20
-10.45
 11
-4.95
 21
-8.45
  0
LINE
  5
392
100
AcDbEntity
  8
0
100
AcDbLine
 62
7
  6
CONTINUOUS
 10
-4.95
 20
-7.0
 11
-4.95
 21
-2.45
  0
LINE
  5
393
100
AcDbEntity
  8
ASSI
100
AcDbLine
 62
7
  6
CONTINUOUS
 10
-4.6
 20
1.55
 11
-4.6
 21
-3.25
  0
LINE
  5
394
100
AcDbEntity
  8
0
100
AcDbLine
 62
7
  6
CONTINUOUS
 10
-4.35
 20
6.05
 11
-4.35
 21
4.55
  0
LINE
  5
395
100
AcDbEntity
  8
0
100
AcDbLine
 62
7
  6
CONTINUOUS
 10
-4.25
 20
6.65
 11
-4.25
 21
6.675051063
  0
LINE
  5
396
100
AcDbEntity
  8
0
100
AcDbLine
 62
7
  6
CONTINUOUS
 10
-4.15
 20
-8.45
 11
-4.15
 21
-9.35
  0
LINE
  5
397
100
AcDbEntity
  8
DRAFT
100
AcDbLine
 62
7
  6
CONTINUOUS
 10
-3.75
 20
21.2
 11
-3.75
 21
21.1647852141
  0
LINE
  5
398
100
AcDbEntity
  8
DRAFT
100
AcDbLine
 62
7
  6
CONTINUOUS
 10
-3.75
 20
-21.2
 11
-3.75
 21
-21.1647852141
  0
LINE
  5
399
100
AcDbEntity
  8
0
100
AcDbLine
 62
7
  6
CONTINUOUS
 10
-3.325042
 20
16.7519
 11
-3.325042
 21
17.121932
  0
LINE
  5
39A
100
AcDbEntity
  8
0
100
AcDbLine
 62
7
  6
CONTINUOUS
 10
-3.325042
 20
17.962609
 11
-3.325042
 21
18.829056
  0
LINE
  5
39B
100
AcDbEntity
  8
0
100
AcDbLine
 62
7
  6
CONTINUOUS
 10
-3.325037
 20
11.556827
 11
-3.325037
 21
11.926845
  0
LINE
  5
39C
100
AcDbEntity
  8
0
100
AcDbLine
 62
7
  6
CONTINUOUS
 10
-3.325037
 20
12.744837
 11
-3.325037
 21
13.114855
  0
LINE
  5
39D
100
AcDbEntity
  8
0
100
AcDbLine
 62
7
  6
CONTINUOUS
 10
-3.325037
 20
13.361529
 11
-3.325037
 21
13.731543
  0
LINE
  5
39E
100
AcDbEntity
  8
0
100
AcDbLine
 62
7
  6
CONTINUOUS
 10
-3.325037
 20
14.101543
 11
-3.325037
 21
14.660905
  0
LINE
  5
39F
100
AcDbEntity
  8
0
100
AcDbLine
 62
7
  6
CONTINUOUS
 10
-3.325037
 20
15.35187
 11
-3.325037
 21
15.911232
  0
LINE
  5
3A0
100
AcDbEntity
  8
0
100
AcDbLine
 62
7
  6
CONTINUOUS
 10
-3.25
 20
4.85
 11
-3.25
 21
4.55
  0
LINE
  5
3A1
100
AcDbEntity
  8
RACCORDO
100
AcDbLine
 62
250
  6
CONTINUOUS
 10
-4.5005183986
 20
12.6055139921
 11
-4.5743642455
 21
9.5256357545
  0
LWPOLYLINE
  5
3A2
100
AcDbEntity
  8
0
100
AcDbPolyline
 62
7
  6
CONTINUOUS
 90
34
 70
0
 10
4.4290482633
 20
18.9812302981
 10
4.4468948513
 20
19.0178346645
 10
4.4681011322
 20
19.051805987
 10
4.4913881146
 20
19.0826343227
 10
4.516820206
 20
19.1102112758
 10
4.5443329987
 20
19.1346452848
 10
4.5724542786
 20
19.1557516603
 10
4.6009745124
 20
19.1732972004
 10
4.6301032333
 20
19.1875151375
 10
4.6589968265
 20
19.1989204292
 10
4.6876350238
 20
19.2074063311
 10
4.7160380934
 20
19.2130796007
 10
4.7434232254
 20
19.2167754432
 10
4.7695026123
 20
19.2186100167
 10
4.7945640616
 20
19.2184671655
 10
4.8186881858
 20
19.2168336216
 10
4.8419315997
 20
19.2138225065
 10
4.8642376886
 20
19.2093206971
 10
4.8855172204
 20
19.2034755587
 10
4.9057829847
 20
19.1962475999
 10
4.925022192
 20
19.1876763078
 10
4.9431072415
 20
19.178027515
 10
4.9599467834
 20
19.1673089211
 10
4.9756321674
 20
19.1555128214
 10
4.9903098422
 20
19.1428819422
 10
5.0039642808
 20
19.1294359363
 10
5.0166110101
 20
19.115155146
 10
5.0284430587
 20
19.1002233323
 10
5.0395130498
 20
19.0846290533
 10
5.0497683601
 20
19.0683837465
 10
5.0592441484
 20
19.0517054932
 10
5.0679521341
 20
19.0346669865
 10
5.0758805976
 20
19.0171955301
 10
5.0830295391
 20
18.9992911224
  0
LWPOLYLINE
  5
3A3
100
AcDbEntity
  8
0
100
AcDbPolyline
 62
7
  6
CONTINUOUS
 90
7
 70
0
 10
9.1184169609
 20
18.6517776285
 10
9.1362334377
 20
18.6762358217
 10
9.1506386827
 20
18.7017881332
 10
9.1616326959
 20
18.7284345567
 10
9.1692154772
 20
18.7561750854
 10
9.1733870267
 20
18.7850097124
 10
9.1741473444
 20
18.8149384305
  0
LWPOLYLINE
  5
3A4
100
AcDbEntity
  8
0
100
AcDbPolyline
 62
7
  6
CONTINUOUS
 90
7
 70
0
 10
7.8730061024
 20
19.1001759657
 10
7.9019168302
 20
19.1396278018
 10
7.9342461255
 20
19.175592732
 10
7.9699939885
 20
19.2080707853
 10
8.009160419
 20
19.2370619876
 10
8.0517454172
 20
19.2625663625
 10
8.0977489829
 20
19.2845839307
  0
LWPOLYLINE
  5
3A5
100
AcDbEntity
  8
0
100
AcDbPolyline
 62
7
  6
CONTINUOUS
 90
7
 70
0
 10
8.0123153626
 20
16.682097132
 10
7.9912645836
 20
16.656482837
 10
7.9741659784
 20
16.6293473615
 10
7.961019547
 20
16.6006906973
 10
7.9518252894
 20
16.5705128356
 10
7.9465832055
 20
16.5388137674
 10
7.9452932954
 20
16.5055934832
  0
LWPOLYLINE
  5
3A6
100
AcDbEntity
  8
0
100
AcDbPolyline
 62
7
  6
CONTINUOUS
 90
10
 70
0
 10
9.1055935379
 20
17.4888813904
 10
9.1202518638
 20
17.5065357802
 10
9.1331446076
 20
17.5250333589
 10
9.1442717693
 20
17.544374123
 10
9.1536263181
 20
17.5646700389
 10
9.1612152848
 20
17.5858091328
 10
9.1670597616
 20
17.6074554927
 10
9.1711667791
 20
17.6294971472
 10
9.1735293067
 20
17.6520460632
 10
9.1741473444
 20
17.6751022384
  0
LWPOLYLINE
  5
3A7
100
AcDbEntity
  8
0
100
AcDbPolyline
 62
7
  6
CONTINUOUS
 90
10
 70
0
 10
9.105593449
 20
16.3234652298
 10
9.1202515869
 20
16.3411193073
 10
9.1331442103
 20
16.3596166501
 10
9.1442713193
 20
16.378957255
 10
9.1536259072
 20
16.3992530834
 10
9.1612149806
 20
16.420392167
 10
9.1670595591
 20
16.4420386094
 10
9.1711666491
 20
16.4640804445
 10
9.1735292442
 20
16.4866296343
 10
9.1741473444
 20
16.5096861765
  0
LWPOLYLINE
  5
3A8
100
AcDbEntity
  8
0
100
AcDbPolyline
 62
7
  6
CONTINUOUS
 90
10
 70
0
 10
8.6523191661
 20
16.735811685
 10
8.6345602699
 20
16.7163521502
 10
8.6189457835
 20
16.6957654828
 10
8.605475707
 20
16.674051678
 10
8.5941591959
 20
16.651027938
 10
8.5849870947
 20
16.62687705
 10
8.5779319364
 20
16.6021473901
 10
8.5729845651
 20
16.5770217494
 10
8.5701541366
 20
16.5513173317
 10
8.5694406509
 20
16.5250341341
  0
LWPOLYLINE
  5
3A9
100
AcDbEntity
  8
0
100
AcDbPolyline
 62
7
  6
CONTINUOUS
 90
10
 70
0
 10
8.5397680879
 20
15.1406548664
 10
8.558454471
 20
15.1602061598
 10
8.5749681069
 20
15.1809334875
 10
8.5893089958
 20
15.2028368448
 10
8.6015119827
 20
15.2260810913
 10
8.6115422224
 20
15.2505013571
 10
8.6192951797
 20
15.2756030458
 10
8.6247360095
 20
15.3012212905
 10
8.6278995569
 20
15.3275209519
 10
8.6287858218
 20
15.3545020267
  0
LWPOLYLINE
  5
3AA
100
AcDbEntity
  8
0
100
AcDbPolyline
 62
7
  6
CONTINUOUS
 90
10
 70
0
 10
9.2286299687
 20
15.0268559859
 10
9.2047983799
 20
15.002258427
 10
9.179075778
 20
14.980090775
 10
9.151462163
 20
14.9603530397
 10
9.1216957355
 20
14.9430420083
 10
9.0900382948
 20
14.92816091
 10
9.0572752392
 20
14.9157194157
 10
9.023668368
 20
14.9057207524
 10
8.9889558818
 20
14.898161703
 10
8.9531377807
 20
14.8930422708
  0
LWPOLYLINE
  5
3AB
100
AcDbEntity
  8
0
100
AcDbPolyline
 62
7
  6
CONTINUOUS
 90
10
 70
0
 10
9.2092181177
 20
16.1799634413
 10
9.181970522
 20
16.1521253031
 10
9.1528488644
 20
16.1271063923
 10
9.1218531448
 20
16.1049067227
 10
9.0887055477
 20
16.085491413
 10
9.0536838887
 20
16.0688953673
 10
9.0176216142
 20
16.055223275
 10
8.9807965398
 20
16.0445100374
 10
8.9429308498
 20
16.036720767
 10
8.9040245444
 20
16.0318554685
  0
LINE
  5
3AC
100
AcDbEntity
  8
0
100
AcDbLine
 62
7
  6
CONTINUOUS
 10
1.3260869565
 20
-4.95
 11
-1.3260869565
 21
-4.95
  0
LINE
  5
3AD
100
AcDbEntity
  8
0
100
AcDbLine
 62
7
  6
CONTINUOUS
 10
8.15
 20
-3.6
 11
6.95
 21
-3.6
  0
LINE
  5
3AE
100
AcDbEntity
  8
0
100
AcDbLine
 62
7
  6
CONTINUOUS
 10
-6.95
 20
-3.6
 11
-8.15
 21
-3.6
  0
LINE
  5
3AF
100
AcDbEntity
  8
0
100
AcDbLine
 62
7
  6
CONTINUOUS
 10
8.3
 20
-3.45
 11
7.1
 21
-3.45
  0
LINE
  5
3B0
100
AcDbEntity
  8
0
100
AcDbLine
 62
7
  6
CONTINUOUS
 10
-7.1
 20
-3.45
 11
-8.3
 21
-3.45
  0
LINE
  5
3B1
100
AcDbEntity
  8
RACCORDO
100
AcDbLine
 62
7
  6
CONTINUOUS
 10
7.4118434042
 20
-13.7118434042
 11
7.4992056137
 21
-13.7992056137
  0
LINE
  5
3B2
100
AcDbEntity
  8
0
100
AcDbLine
 62
7
  6
CONTINUOUS
 10
-1.0
 20
-5.45
 11
-2.5
 21
-3.15
  0
LINE
  5
3B3
100
AcDbEntity
  8
DRAFT
100
AcDbLine
 62
7
  6
CONTINUOUS
 10
-3.1
 20
-21.2
 11
-3.1
 21
-22.4
  0
LINE
  5
3B4
100
AcDbEntity
  8
DRAFT
100
AcDbLine
 62
7
  6
CONTINUOUS
 10
-3.1
 20
21.2
 11
-3.1
 21
22.4
  0
LINE
  5
3B5
100
AcDbEntity
  8
0
100
AcDbLine
 62
7
  6
CONTINUOUS
 10
-2.982778
 20
18.327522
 11
-2.982778
 21
18.777699
  0
LINE
  5
3B6
100
AcDbEntity
  8
0
100
AcDbLine
 62
7
  6
CONTINUOUS
 10
-2.95
 20
-9.35
 11
-2.95
 21
-8.45
  0
LINE
  5
3B7
100
AcDbEntity
  8
0
100
AcDbLine
 62
7
  6
CONTINUOUS
 10
-2.6
 20
-3.25
 11
-2.6
 21
2.05
  0
LINE
  5
3B8
100
AcDbEntity
  8
0
100
AcDbLine
 62
7
  6
CONTINUOUS
 10
-2.532571
 20
18.327526
 11
-2.532571
 21
18.777699
  0
LINE
  5
3B9
100
AcDbEntity
  8
DRAFT
100
AcDbLine
 62
7
  6
CONTINUOUS
 10
-2.5
 20
4.85
 11
-2.5
 21
4.8
  0
LINE
  5
3BA
100
AcDbEntity
  8
0
100
AcDbLine
 62
7
  6
CONTINUOUS
 10
-2.190307
 20
18.332669
 11
-2.190302
 21
18.65561
  0
LINE
  5
3BB
100
AcDbEntity
  8
0
100
AcDbLine
 62
7
  6
CONTINUOUS
 10
-2.190302
 20
16.757598
 11
-2.190302
 21
17.116239
  0
LINE
  5
3BC
100
AcDbEntity
  8
0
100
AcDbLine
 62
7
  6
CONTINUOUS
 10
-2.05
 20
4.85
 11
-2.05
 21
6.05
  0
LINE
  5
3BD
100
AcDbEntity
  8
0
100
AcDbLine
 62
7
  6
CONTINUOUS
 10
-1.838789
 20
16.644734
 11
-1.838789
 21
17.229107
  0
LINE
  5
3BE
100
AcDbEntity
  8
0
100
AcDbLine
 62
7
  6
CONTINUOUS
 10
-1.75
 20
-8.45
 11
-1.75
 21
-9.35
  0
LINE
  5
3BF
100
AcDbEntity
  8
DRAFT
100
AcDbLine
 62
7
  6
CONTINUOUS
 10
3.0118365096
 20
22.4
 11
2.6768152463
 21
21.2
  0
LINE
  5
3C0
100
AcDbEntity
  8
DRAFT
100
AcDbLine
 62
7
  6
CONTINUOUS
 10
3.9733373476
 20
23.5
 11
3.9526845545
 21
23.4301797403
  0
LWPOLYLINE
  5
3C1
100
AcDbEntity
  8
0
100
AcDbPolyline
 62
7
  6
CONTINUOUS
 90
42
 70
0
 10
5.0830295391
 20
18.9992911224
 10
5.0908589763
 20
19.0213692487
 10
5.0997319771
 20
19.0429068262
 10
5.1096485415
 20
19.0639038573
 10
5.1206231153
 20
19.0844444557
 10
5.1326412527
 20
19.1044445126
 10
5.1456596163
 20
19.1236516989
 10
5.1596090056
 20
19.1420371853
 10
5.1745586212
 20
19.159629808
 10
5.1906727275
 20
19.1762637375
 10
5.2079342861
 20
19.1919589327
 10
5.2263603354
 20
19.2066954417
 10
5.2461662557
 20
19.2202475703
 10
5.2674429642
 20
19.23263045
 10
5.2900995437
 20
19.2438289565
 10
5.3140786223
 20
19.2535720122
 10
5.3393664583
 20
19.2618506336
 10
5.3659767933
 20
19.2686738104
 10
5.3938934801
 20
19.273797425
 10
5.4230796124
 20
19.2773298255
 10
5.4535720964
 20
19.2791626673
 10
5.4854655037
 20
19.2787267933
 10
5.5190976902
 20
19.2762386427
 10
5.5541307999
 20
19.2714817748
 10
5.5896458359
 20
19.2632377105
 10
5.6257449261
 20
19.2513873879
 10
5.6623259425
 20
19.2360498523
 10
5.698163505
 20
19.2163637768
 10
5.7335268932
 20
19.191909995
 10
5.7681468275
 20
19.1631076271
 10
5.7999900887
 20
19.1303527694
 10
5.8289083495
 20
19.0935221038
 10
5.8550499372
 20
19.0527388842
 10
5.8768266144
 20
19.0087690696
 10
5.8937288247
 20
18.9611725844
 10
5.9062661246
 20
18.9103894347
 10
5.9143789464
 20
18.8585057293
 10
5.9180676833
 20
18.8053847456
 10
5.9173319422
 20
18.7511631798
 10
5.9121109754
 20
18.6983373233
 10
5.9023023244
 20
18.6470831295
 10
5.8880084477
 20
18.5972246805
  0
LWPOLYLINE
  5
3C2
100
AcDbEntity
  8
0
100
AcDbPolyline
 62
7
  6
CONTINUOUS
 90
43
 70
0
 10
5.0830295391
 20
18.5813277944
 10
5.0761021208
 20
18.563385567
 10
5.0684208957
 20
18.5458601808
 10
5.0599858636
 20
18.5287516375
 10
5.0508203709
 20
18.5119966284
 10
5.0409010713
 20
18.4956584651
 10
5.0301579258
 20
18.4799270812
 10
5.0186450528
 20
18.4648035453
 10
5.0063083339
 20
18.450286793
 10
4.9929153751
 20
18.4365635583
 10
4.978438684
 20
18.4236007254
 10
4.9629057529
 20
18.411431415
 10
4.9461666653
 20
18.4003417174
 10
4.9281251805
 20
18.390341718
 10
4.9088775391
 20
18.3814213367
 10
4.8885625467
 20
18.3738364167
 10
4.867209813
 20
18.3676241093
 10
4.8447897282
 20
18.3627472674
 10
4.8213522684
 20
18.3593502871
 10
4.7969245632
 20
18.3573200635
 10
4.771479483
 20
18.3567697033
 10
4.7449856149
 20
18.3581829193
 10
4.7171802752
 20
18.3614072606
 10
4.6883261476
 20
18.3665951761
 10
4.6591798704
 20
18.3746877267
 10
4.6296694847
 20
18.3858003142
 10
4.5998669493
 20
18.3998175242
 10
4.5707447791
 20
18.4173341868
 10
4.5420982148
 20
18.4386311082
 10
4.5141320156
 20
18.463427451
 10
4.4884329742
 20
18.491475575
 10
4.4651193939
 20
18.5229187053
 10
4.4440729713
 20
18.5576135727
 10
4.4265255896
 20
18.594882799
 10
4.4128967384
 20
18.6350589221
 10
4.402766928
 20
18.6778093568
 10
4.3961095724
 20
18.7214590595
 10
4.3929152744
 20
18.7661038094
 10
4.3931934311
 20
18.811647808
 10
4.3969456478
 20
18.8561286805
 10
4.404210582
 20
18.8994156533
 10
4.4149495762
 20
18.9416395215
 10
4.4290482633
 20
18.9812302981
  0
LWPOLYLINE
  5
3C3
100
AcDbEntity
  8
0
100
AcDbPolyline
 62
7
  6
CONTINUOUS
 90
7
 70
0
 10
7.8472726317
 20
17.8929391869
 10
7.864989775
 20
17.9250360561
 10
7.885165307
 20
17.954790726
 10
7.9077992277
 20
17.9822032116
 10
7.932891537
 20
18.0072735269
 10
7.960442235
 20
18.0300016844
 10
7.9904513216
 20
18.0503876958
  0
LWPOLYLINE
  5
3C4
100
AcDbEntity
  8
0
100
AcDbPolyline
 62
7
  6
CONTINUOUS
 90
7
 70
0
 10
9.1184169166
 20
15.1555293031
 10
9.1362330152
 20
15.1799862793
 10
9.1506380363
 20
15.2055378684
 10
9.1616319797
 20
15.232184065
 10
9.1692148456
 20
15.2599248638
 10
9.1733866338
 20
15.288760259
 10
9.1741473444
 20
15.3186902449
  0
LWPOLYLINE
  5
3C5
100
AcDbEntity
  8
0
100
AcDbPolyline
 62
7
  6
CONTINUOUS
 90
7
 70
0
 10
7.873006184
 20
15.6039277269
 10
7.9019168596
 20
15.6433794494
 10
7.9342461161
 20
15.6793443146
 10
7.9699939534
 20
15.7118223462
 10
8.0091603716
 20
15.7408135656
 10
8.0517453706
 20
15.7663179917
 10
8.0977489504
 20
15.7883356416
  0
LINE
  5
3C6
100
AcDbEntity
  8
RACCORDO
100
AcDbLine
 62
7
  6
CONTINUOUS
 10
5.5000659127
 20
9.6000659127
 11
5.4256357545
 21
9.5256357545
  0
LINE
  5
3C7
100
AcDbEntity
  8
RACCORDO
100
AcDbLine
 62
250
  6
CONTINUOUS
 10
6.9101323002
 20
9.5101132618
 11
7.0000849512
 21
9.6000659127
  0
LINE
  5
3C8
100
AcDbEntity
  8
0
100
AcDbLine
 62
7
  6
CONTINUOUS
 10
2.5
 20
-3.15
 11
-2.5
 21
-3.15
  0
LINE
  5
3C9
100
AcDbEntity
  8
0
100
AcDbLine
 62
7
  6
CONTINUOUS
 10
-2.6
 20
-2.45
 11
2.6
 21
-2.45
  0
LINE
  5
3CA
100
AcDbEntity
  8
0
100
AcDbLine
 62
7
  6
CONTINUOUS
 10
4.95
 20
-2.45
 11
9.5
 21
-2.45
  0
LINE
  5
3CB
100
AcDbEntity
  8
0
100
AcDbLine
 62
7
  6
CONTINUOUS
 10
-4.95
 20
-2.45
 11
-9.5
 21
-2.45
  0
LINE
  5
3CC
100
AcDbEntity
  8
0
100
AcDbLine
 62
7
  6
CONTINUOUS
 10
8.59
 20
-2.25
 11
6.95
 21
-2.25
  0
LINE
  5
3CD
100
AcDbEntity
  8
0
100
AcDbLine
 62
7
  6
CONTINUOUS
 10
2.6
 20
-2.25
 11
-2.6
 21
-2.25
  0
LINE
  5
3CE
100
AcDbEntity
  8
0
100
AcDbLine
 62
7
  6
CONTINUOUS
 10
-6.95
 20
-2.25
 11
-8.59
 21
-2.25
  0
LINE
  5
3CF
100
AcDbEntity
  8
DRAFT
100
AcDbLine
 62
7
  6
CONTINUOUS
 10
-9.5810577445
 20
-1.8
 11
-9.5
 21
-1.8
  0
LINE
  5
3D0
100
AcDbEntity
  8
DRAFT
100
AcDbLine
 62
7
  6
CONTINUOUS
 10
9.5810577445
 20
-1.8
 11
9.5
 21
-1.8
  0
LINE
  5
3D1
100
AcDbEntity
  8
RACCORDO
100
AcDbLine
 62
7
  6
CONTINUOUS
 10
-9.7900415076
 20
-1.7223308767
 11
-9.6587268678
 21
-1.7223308767
  0
LINE
  5
3D2
100
AcDbEntity
  8
RACCORDO
100
AcDbLine
 62
7
  6
CONTINUOUS
 10
9.7900415076
 20
-1.7223308767
 11
9.6587268678
 21
-1.7223308767
  0
LINE
  5
3D3
100
AcDbEntity
  8
DRAFT
100
AcDbLine
 62
7
  6
CONTINUOUS
 10
7.4825462644
 20
-10.8825462644
 11
7.5
 21
-10.9
  0
LINE
  5
3D4
100
AcDbEntity
  8
DRAFT
100
AcDbLine
 62
7
  6
CONTINUOUS
 10
9.6587268678
 20
-12.8776691233
 11
9.5810577445
 21
-12.8
  0
LINE
  5
3D5
100
AcDbEntity
  8
RACCORDO
100
AcDbLine
 62
250
  6
CONTINUOUS
 10
-7.6499885769
 20
4.6
 11
-7.7372801014
 21
4.6872915245
  0
LINE
  5
3D6
100
AcDbEntity
  8
DRAFT
100
AcDbLine
 62
7
  6
CONTINUOUS
 10
-9.6587268678
 20
6.6776691233
 11
-9.5810577445
 21
6.6
  0
LINE
  5
3D7
100
AcDbEntity
  8
DRAFT
100
AcDbLine
 62
7
  6
CONTINUOUS
 10
8.3325462644
 20
-10.8825462644
 11
8.35
 21
-10.9
  0
LINE
  5
3D8
100
AcDbEntity
  8
RACCORDO
100
AcDbLine
 62
250
  6
CONTINUOUS
 10
-7.35
 20
4.8999885769
 11
-7.4372915245
 21
4.9872801014
  0
LINE
  5
3D9
100
AcDbEntity
  8
DRAFT
100
AcDbLine
 62
7
  6
CONTINUOUS
 10
3.9733373476
 20
-23.5
 11
3.9526845545
 21
-23.4301797403
  0
LINE
  5
3DA
100
AcDbEntity
  8
DRAFT
100
AcDbLine
 62
7
  6
CONTINUOUS
 10
2.6768152463
 20
-21.2
 11
3.0118365096
 21
-22.4
  0
LWPOLYLINE
  5
3DB
100
AcDbEntity
  8
RACCORDO
100
AcDbPolyline
 62
250
  6
CONTINUOUS
 90
13
 70
0
 10
0.2649134011
 20
-19.5938857461
 10
0.2631488246
 20
-19.5687085423
 10
0.2580027931
 20
-19.5439603064
 10
0.249562886
 20
-19.5200632434
 10
0.2379728705
 20
-19.4974250586
 10
0.223430291
 20
-19.4764320693
 10
0.2061831349
 20
-19.4574425926
 10
0.1865255069
 20
-19.4407807098
 10
0.1647926978
 20
-19.4267308484
 10
0.1413555591
 20
-19.4155329292
 10
0.1166139877
 20
-19.4073781356
 10
0.0909900701
 20
-19.4024056991
 10
0.0649210165
 20
-19.4007005801
  0
LINE
  5
3DC
100
AcDbEntity
  8
RACCORDO
100
AcDbLine
 62
250
  6
CONTINUOUS
 10
-0.2649134011
 20
-19.5938857461
 11
-0.3987736215
 21
-15.4838500694
  0
LINE
  5
3DD
100
AcDbEntity
  8
RACCORDO
100
AcDbLine
 62
250
  6
CONTINUOUS
 10
-0.0649210165
 20
-19.4007005808
 11
-0.1992738542
 21
-15.2755396155
  0
LWPOLYLINE
  5
3DE
100
AcDbEntity
  8
RACCORDO
100
AcDbPolyline
 62
250
  6
CONTINUOUS
 90
3
 70
0
 10
-0.2643828219
 20
-19.6175022913
 10
-0.264640027
 20
-19.6041911109
 10
-0.2649134011
 20
-19.5938857461
  0
LINE
  5
3DF
100
AcDbEntity
  8
RACCORDO
100
AcDbLine
 62
250
  6
CONTINUOUS
 10
-0.0646458243
 20
-19.4175833679
 11
-0.0649210165
 21
-19.4007005808
  0
LINE
  5
3E0
100
AcDbEntity
  8
RACCORDO
100
AcDbLine
 62
250
  6
CONTINUOUS
 10
-0.2639141051
 20
-19.6534136761
 11
-0.2643828219
 21
-19.6175022913
  0
LINE
  5
3E1
100
AcDbEntity
  8
RACCORDO
100
AcDbLine
 62
250
  6
CONTINUOUS
 10
-0.0641459597
 20
-19.4677006561
 11
-0.0646458243
 21
-19.4175833679
  0
LINE
  5
3E2
100
AcDbEntity
  8
RACCORDO
100
AcDbLine
 62
250
  6
CONTINUOUS
 10
-0.2633545402
 20
-19.7278964333
 11
-0.2639141051
 21
-19.6534136761
  0
LINE
  5
3E3
100
AcDbEntity
  8
RACCORDO
100
AcDbLine
 62
250
  6
CONTINUOUS
 10
-0.0632256648
 20
-19.6725733935
 11
-0.0641459597
 21
-19.4677006561
  0
LINE
  5
3E4
100
AcDbEntity
  8
RACCORDO
100
AcDbLine
 62
250
  6
CONTINUOUS
 10
0.0632251651
 20
19.6727093349
 11
0.064145624
 21
19.4677300809
  0
LINE
  5
3E5
100
AcDbEntity
  8
RACCORDO
100
AcDbLine
 62
250
  6
CONTINUOUS
 10
-0.2629729446
 20
-19.883663494
 11
-0.2633545402
 21
-19.7278964333
  0
LINE
  5
3E6
100
AcDbEntity
  8
0
100
AcDbLine
 62
7
  6
CONTINUOUS
 10
-1.474958
 20
17.345916
 11
-1.474954
 21
17.715935
  0
LINE
  5
3E7
100
AcDbEntity
  8
0
100
AcDbLine
 62
7
  6
CONTINUOUS
 10
-1.474958
 20
17.962609
 11
-1.474958
 21
18.332628
  0
LINE
  5
3E8
100
AcDbEntity
  8
0
100
AcDbLine
 62
7
  6
CONTINUOUS
 10
-1.474954
 20
14.101543
 11
-1.474954
 21
14.471557
  0
LINE
  5
3E9
100
AcDbEntity
  8
0
100
AcDbLine
 62
7
  6
CONTINUOUS
 10
-1.474954
 20
15.541218
 11
-1.474954
 21
15.911232
  0
LINE
  5
3EA
100
AcDbEntity
  8
0
100
AcDbLine
 62
7
  6
CONTINUOUS
 10
-1.474954
 20
14.821383
 11
-1.474958
 21
15.191388
  0
LINE
  5
3EB
100
AcDbEntity
  8
0
100
AcDbLine
 62
7
  6
CONTINUOUS
 10
-1.474949
 20
12.150825
 11
-1.474954
 21
12.520852
  0
LINE
  5
3EC
100
AcDbEntity
  8
0
100
AcDbLine
 62
7
  6
CONTINUOUS
 10
-1.474954
 20
16.157906
 11
-1.474958
 21
16.52792
  0
LINE
  5
3ED
100
AcDbEntity
  8
0
100
AcDbLine
 62
7
  6
CONTINUOUS
 10
-1.474949
 20
13.361525
 11
-1.474954
 21
13.731539
  0
LINE
  5
3EE
100
AcDbEntity
  8
0
100
AcDbLine
 62
7
  6
CONTINUOUS
 10
-1.474958
 20
19.02641
 11
-1.474963
 21
19.443173
  0
LINE
  5
3EF
100
AcDbEntity
  8
0
100
AcDbLine
 62
7
  6
CONTINUOUS
 10
-0.55
 20
-9.35
 11
-0.55
 21
-8.45
  0
LINE
  5
3F0
100
AcDbEntity
  8
RACCORDO
100
AcDbLine
 62
7
  6
CONTINUOUS
 10
-0.2629729446
 20
-20.5680847998
 11
-0.2629729446
 21
-19.883663494
  0
LINE
  5
3F1
100
AcDbEntity
  8
RACCORDO
100
AcDbLine
 62
7
  6
CONTINUOUS
 10
-0.2629729446
 20
19.883663494
 11
-0.2629729446
 21
20.5680847998
  0
LINE
  5
3F2
100
AcDbEntity
  8
RACCORDO
100
AcDbLine
 62
250
  6
CONTINUOUS
 10
-0.06298056
 20
-20.5698149423
 11
-0.0632256648
 21
-19.6725733935
  0
LINE
  5
3F3
100
AcDbEntity
  8
RACCORDO
100
AcDbLine
 62
250
  6
CONTINUOUS
 10
0.06298056
 20
20.5698149423
 11
0.0632251651
 21
19.6727093349
  0
LINE
  5
3F4
100
AcDbEntity
  8
RACCORDO
100
AcDbLine
 62
250
  6
CONTINUOUS
 10
-0.0635212212
 20
19.5794139546
 11
-0.06298056
 21
20.5698149423
  0
LINE
  5
3F5
100
AcDbEntity
  8
RACCORDO
100
AcDbLine
 62
250
  6
CONTINUOUS
 10
0.0635224622
 20
-19.5791554642
 11
0.06298056
 21
-20.5698149423
  0
LINE
  5
3F6
100
AcDbEntity
  8
RACCORDO
100
AcDbLine
 62
250
  6
CONTINUOUS
 10
-0.2633518506
 20
19.7283925668
 11
-0.2629729446
 21
19.883663494
  0
LINE
  5
3F7
100
AcDbEntity
  8
RACCORDO
100
AcDbLine
 62
250
  6
CONTINUOUS
 10
0.0641459596
 20
-19.4677006561
 11
0.0635224622
 21
-19.5791554642
  0
LINE
  5
3F8
100
AcDbEntity
  8
RACCORDO
100
AcDbLine
 62
250
  6
CONTINUOUS
 10
-0.2639106098
 20
19.653747198
 11
-0.2633518506
 21
19.7283925668
  0
LWPOLYLINE
  5
3F9
100
AcDbEntity
  8
RACCORDO
100
AcDbPolyline
 62
250
  6
CONTINUOUS
 90
4
 70
0
 10
-0.0649210165
 20
19.4007005808
 10
-0.0646457757
 20
19.4175809263
 10
-0.0643873115
 20
19.4400028908
 10
-0.0635212212
 20
19.5794139546
  0
LWPOLYLINE
  5
3FA
100
AcDbEntity
  8
RACCORDO
100
AcDbPolyline
 62
250
  6
CONTINUOUS
 90
4
 70
0
 10
-0.2649134011
 20
19.5938857461
 10
-0.2646386284
 20
19.6042715123
 10
-0.2643803683
 20
19.6176631565
 10
-0.2639106098
 20
19.653747198
  0
LINE
  5
3FB
100
AcDbEntity
  8
RACCORDO
100
AcDbLine
 62
250
  6
CONTINUOUS
 10
-0.3987736215
 20
15.4838500694
 11
-0.2649134011
 21
19.5938857461
  0
LINE
  5
3FC
100
AcDbEntity
  8
RACCORDO
100
AcDbLine
 62
250
  6
CONTINUOUS
 10
-0.1992738542
 20
15.2755396155
 11
-0.0649210165
 21
19.4007005808
  0
LWPOLYLINE
  5
3FD
100
AcDbEntity
  8
RACCORDO
100
AcDbPolyline
 62
7
  6
CONTINUOUS
 90
13
 70
0
 10
0.3987736215
 20
15.4838500694
 10
0.3970285163
 20
15.4562067425
 10
0.3918217078
 20
15.4291926459
 10
0.3832724542
 20
15.4032390196
 10
0.3715630201
 20
15.3787379785
 10
0.3569172775
 20
15.3560852013
 10
0.3395835202
 20
15.3356819
 10
0.3198410578
 20
15.3178312955
 10
0.2980599277
 20
15.3028242083
 10
0.2746862143
 20
15.2909642083
 10
0.2501574065
 20
15.2824237631
 10
0.2248772972
 20
15.2772688539
 10
0.1992738542
 20
15.2755396155
  0
LWPOLYLINE
  5
3FE
100
AcDbEntity
  8
RACCORDO
100
AcDbPolyline
 62
250
  6
CONTINUOUS
 90
13
 70
0
 10
0.2649134011
 20
19.5938857461
 10
0.2631484735
 20
19.568706008
 10
0.2580015521
 20
19.543955866
 10
0.2495604493
 20
19.5200575866
 10
0.2379691803
 20
19.4974189027
 10
0.2234255058
 20
19.4764260567
 10
0.206177558
 20
19.4574372114
 10
0.1865196071
 20
19.4407763388
 10
0.164787041
 20
19.4267276931
 10
0.1413506427
 20
19.4155309604
 10
0.1166102649
 20
19.4073771702
 10
0.0909880075
 20
19.4024054358
 10
0.0649210165
 20
19.4007005808
  0
LWPOLYLINE
  5
3FF
100
AcDbEntity
  8
0
100
AcDbPolyline
 62
7
  6
CONTINUOUS
 90
31
 70
0
 10
5.1069484923
 20
17.8145325847
 10
5.1180813294
 20
17.8550969745
 10
5.1338945624
 20
17.8936418711
 10
5.1543881914
 20
17.9301672909
 10
5.1798478844
 20
17.9656016119
 10
5.2099879734
 20
17.9990164825
 10
5.243951454
 20
18.027626844
 10
5.2820442735
 20
18.0505307059
 10
5.3239604846
 20
18.0686301158
 10
5.3679252416
 20
18.0818460846
 10
5.4139702493
 20
18.0901571311
 10
5.4620638028
 20
18.0935847595
 10
5.5103359415
 20
18.0921144522
 10
5.5588501438
 20
18.0859187754
 10
5.6075429314
 20
18.0748251547
 10
5.6543539081
 20
18.058301352
 10
5.6990555649
 20
18.0358339098
 10
5.7418754108
 20
18.007936238
 10
5.7814355773
 20
17.9756163939
 10
5.8178809456
 20
17.9384566427
 10
5.8510666344
 20
17.8968746507
 10
5.8791801317
 20
17.8531315979
 10
5.9014300399
 20
17.807066835
 10
5.9186077565
 20
17.7588409691
 10
5.9312749616
 20
17.7111971112
 10
5.9391582975
 20
17.6647844182
 10
5.9425311219
 20
17.6189537502
 10
5.9427751879
 20
17.5745008088
 10
5.940309901
 20
17.5315491064
 10
5.9347158557
 20
17.4899751576
 10
5.9261165883
 20
17.4502041776
  0
LWPOLYLINE
  5
400
100
AcDbEntity
  8
0
100
AcDbPolyline
 62
7
  6
CONTINUOUS
 90
35
 70
0
 10
5.8880084477
 20
18.5972246805
 10
5.869475973
 20
18.5507305124
 10
5.8462176224
 20
18.5080387685
 10
5.8187206738
 20
18.4687113766
 10
5.7886935888
 20
18.433402573
 10
5.7560340513
 20
18.4022378837
 10
5.7208443774
 20
18.3750918432
 10
5.685139978
 20
18.3522422037
 10
5.6492169064
 20
18.334125917
 10
5.6127791093
 20
18.3203060717
 10
5.5769538376
 20
18.3097496175
 10
5.5418490026
 20
18.3025132455
 10
5.5073566931
 20
18.2985402774
 10
5.4742804259
 20
18.2966276014
 10
5.4429530543
 20
18.296514351
 10
5.413041725
 20
18.2984613935
 10
5.3843513957
 20
18.3020482149
 10
5.3567923757
 20
18.3071930848
 10
5.3304543556
 20
18.3139777305
 10
5.3054113645
 20
18.3222268249
 10
5.2816502441
 20
18.3319572948
 10
5.2591841527
 20
18.3431522076
 10
5.2381265944
 20
18.3555854478
 10
5.2185773646
 20
18.3692485614
 10
5.2004366679
 20
18.3841499951
 10
5.183518622
 20
18.4000889855
 10
5.1678026458
 20
18.4170673203
 10
5.1533093204
 20
18.4350832042
 10
5.1399145071
 20
18.4539304999
 10
5.1275522543
 20
18.4736417403
 10
5.1162885136
 20
18.4941843852
 10
5.1061970002
 20
18.5152546896
 10
5.0973022859
 20
18.536751404
 10
5.0895797988
 20
18.5587757732
 10
5.0830295391
 20
18.5813277944
  0
LWPOLYLINE
  5
401
100
AcDbEntity
  8
0
100
AcDbPolyline
 62
7
  6
CONTINUOUS
 90
7
 70
0
 10
7.8472725594
 20
16.7275229826
 10
7.8649895578
 20
16.7596197223
 10
7.8851650076
 20
16.7893743133
 10
7.9077989089
 20
16.8167867697
 10
7.9328912616
 20
16.8418571044
 10
7.9604420659
 20
16.8645853293
 10
7.9904513216
 20
16.8849714551
  0
LWPOLYLINE
  5
402
100
AcDbEntity
  8
0
100
AcDbPolyline
 62
7
  6
CONTINUOUS
 90
7
 70
0
 10
7.8431877142
 20
14.4007723644
 10
7.861049799
 20
14.4307593768
 10
7.8811135367
 20
14.4587623699
 10
7.9033789274
 20
14.4847813533
 10
7.9278459711
 20
14.5088163361
 10
7.9545146677
 20
14.5308673266
 10
7.9833850173
 20
14.5509343323
  0
LINE
  5
403
100
AcDbEntity
  8
RACCORDO
100
AcDbLine
 62
250
  6
CONTINUOUS
 10
7.4101132618
 20
9.0101323002
 11
7.5001477533
 21
9.1001667918
  0
LINE
  5
404
100
AcDbEntity
  8
DRAFT
100
AcDbLine
 62
7
  6
CONTINUOUS
 10
-9.6587268678
 20
-8.5776691233
 11
-9.5810577445
 21
-8.5
  0
LINE
  5
405
100
AcDbEntity
  8
RACCORDO
100
AcDbLine
 62
7
  6
CONTINUOUS
 10
7.4118434042
 20
7.5118434042
 11
7.5003670279
 21
7.6003670279
  0
LINE
  5
406
100
AcDbEntity
  8
RACCORDO
100
AcDbLine
 62
7
  6
CONTINUOUS
 10
-9.6021029835
 20
-1.721182456
 11
-9.5
 21
-1.7187343458
  0
LINE
  5
407
100
AcDbEntity
  8
RACCORDO
100
AcDbLine
 62
7
  6
CONTINUOUS
 10
9.5
 20
-0.8812656542
 11
9.6021029835
 21
-0.878817544
  0
LINE
  5
408
100
AcDbEntity
  8
RACCORDO
100
AcDbLine
 62
7
  6
CONTINUOUS
 10
-9.7900415076
 20
-0.8776691233
 11
-9.6587268678
 21
-0.8776691233
  0
LINE
  5
409
100
AcDbEntity
  8
RACCORDO
100
AcDbLine
 62
7
  6
CONTINUOUS
 10
9.7900415076
 20
-0.8776691233
 11
9.6587268678
 21
-0.8776691233
  0
LINE
  5
40A
100
AcDbEntity
  8
DRAFT
100
AcDbLine
 62
7
  6
CONTINUOUS
 10
-9.5810577445
 20
-0.8
 11
-9.5
 21
-0.8
  0
LINE
  5
40B
100
AcDbEntity
  8
DRAFT
100
AcDbLine
 62
7
  6
CONTINUOUS
 10
9.5810577445
 20
-0.8
 11
9.5
 21
-0.8
  0
LINE
  5
40C
100
AcDbEntity
  8
RACCORDO
100
AcDbLine
 62
7
  6
CONTINUOUS
 10
9.5
 20
-1.7187343458
 11
9.6021029835
 21
-1.721182456
  0
LINE
  5
40D
100
AcDbEntity
  8
RACCORDO
100
AcDbLine
 62
7
  6
CONTINUOUS
 10
-9.6021029835
 20
-0.878817544
 11
-9.5
 21
-0.8812656542
  0
LINE
  5
40E
100
AcDbEntity
  8
RACCORDO
100
AcDbLine
 62
7
  6
CONTINUOUS
 10
-7.4372915245
 20
6.6872915245
 11
-7.35
 21
6.6
  0
LINE
  5
40F
100
AcDbEntity
  8
RACCORDO
100
AcDbLine
 62
7
  6
CONTINUOUS
 10
-7.4118434042
 20
7.5118434042
 11
-7.5003670279
 21
7.6003670279
  0
LWPOLYLINE
  5
410
100
AcDbEntity
  8
RACCORDO
100
AcDbPolyline
 62
250
  6
CONTINUOUS
 90
13
 70
0
 10
-0.2649134011
 20
19.5938857461
 10
-0.2631487481
 20
19.5687079866
 10
-0.2580025227
 20
19.5439593332
 10
-0.2495623553
 20
19.5200620045
 10
-0.2379720678
 20
19.4974237119
 10
-0.223429252
 20
19.4764307557
 10
-0.2061819258
 20
19.4574414183
 10
-0.1865242297
 20
19.4407797572
 10
-0.1647914758
 20
19.426730162
 10
-0.141354499
 20
19.415532502
 10
-0.1166131859
 20
19.4073779272
 10
-0.0909896263
 20
19.4024056443
 10
-0.0649210163
 20
19.4007005848
  0
LINE
  5
411
100
AcDbEntity
  8
RACCORDO
100
AcDbLine
 62
250
  6
CONTINUOUS
 10
0.0649210165
 20
19.4007005808
 11
0.1992738542
 21
15.2755396155
  0
LINE
  5
412
100
AcDbEntity
  8
RACCORDO
100
AcDbLine
 62
250
  6
CONTINUOUS
 10
0.2649134011
 20
19.5938857461
 11
0.3987736215
 21
15.4838500694
  0
LWPOLYLINE
  5
413
100
AcDbEntity
  8
RACCORDO
100
AcDbPolyline
 62
250
  6
CONTINUOUS
 90
3
 70
0
 10
0.2643803683
 20
19.6176631592
 10
0.2646386284
 20
19.604271514
 10
0.2649134011
 20
19.5938857461
  0
LINE
  5
414
100
AcDbEntity
  8
RACCORDO
100
AcDbLine
 62
250
  6
CONTINUOUS
 10
0.0646457757
 20
19.4175809263
 11
0.0649210165
 21
19.4007005808
  0
LINE
  5
415
100
AcDbEntity
  8
RACCORDO
100
AcDbLine
 62
250
  6
CONTINUOUS
 10
0.2639106098
 20
19.6537472006
 11
0.2643803683
 21
19.6176631592
  0
LINE
  5
416
100
AcDbEntity
  8
RACCORDO
100
AcDbLine
 62
250
  6
CONTINUOUS
 10
0.064145624
 20
19.4677300809
 11
0.0646457757
 21
19.4175809263
  0
LINE
  5
417
100
AcDbEntity
  8
RACCORDO
100
AcDbLine
 62
250
  6
CONTINUOUS
 10
0.2633518505
 20
19.7283925662
 11
0.2639106098
 21
19.6537472006
  0
LINE
  5
418
100
AcDbEntity
  8
RACCORDO
100
AcDbLine
 62
250
  6
CONTINUOUS
 10
0.2629729446
 20
19.883663494
 11
0.2633518505
 21
19.7283925662
  0
LINE
  5
419
100
AcDbEntity
  8
RACCORDO
100
AcDbLine
 62
7
  6
CONTINUOUS
 10
0.2629729446
 20
20.5680847998
 11
0.2629729446
 21
19.883663494
  0
LINE
  5
41A
100
AcDbEntity
  8
RACCORDO
100
AcDbLine
 62
7
  6
CONTINUOUS
 10
0.2629729446
 20
-19.883663494
 11
0.2629729446
 21
-20.5680847998
  0
LINE
  5
41B
100
AcDbEntity
  8
0
100
AcDbLine
 62
7
  6
CONTINUOUS
 10
0.55
 20
-8.45
 11
0.55
 21
-9.35
  0
LINE
  5
41C
100
AcDbEntity
  8
0
100
AcDbLine
 62
7
  6
CONTINUOUS
 10
1.75
 20
-9.35
 11
1.75
 21
-8.45
  0
LINE
  5
41D
100
AcDbEntity
  8
0
100
AcDbLine
 62
7
  6
CONTINUOUS
 10
1.8489555797
 20
17.3192159826
 11
1.8489555797
 21
17.4118168282
  0
LINE
  5
41E
100
AcDbEntity
  8
0
100
AcDbLine
 62
7
  6
CONTINUOUS
 10
1.8489555797
 20
18.3757750279
 11
1.8489555797
 21
18.4683750056
  0
LINE
  5
41F
100
AcDbEntity
  8
0
100
AcDbLine
 62
7
  6
CONTINUOUS
 10
1.8489599193
 20
18.7334347608
 11
1.8489599193
 21
19.373277416
  0
LINE
  5
420
100
AcDbEntity
  8
0
100
AcDbLine
 62
7
  6
CONTINUOUS
 10
1.850359
 20
11.393697
 11
1.850359
 21
11.605888
  0
LINE
  5
421
100
AcDbEntity
  8
0
100
AcDbLine
 62
7
  6
CONTINUOUS
 10
1.850359
 20
12.400016
 11
1.850359
 21
12.589099
  0
LINE
  5
422
100
AcDbEntity
  8
0
100
AcDbLine
 62
7
  6
CONTINUOUS
 10
1.850359
 20
13.007122
 11
1.850359
 21
14.042849
  0
LINE
  5
423
100
AcDbEntity
  8
0
100
AcDbLine
 62
7
  6
CONTINUOUS
 10
1.850359
 20
15.763409
 11
1.850359
 21
16.799122
  0
LINE
  5
424
100
AcDbEntity
  8
0
100
AcDbLine
 62
7
  6
CONTINUOUS
 10
1.850364
 20
14.219293
 11
1.850364
 21
14.43565
  0
LINE
  5
425
100
AcDbEntity
  8
0
100
AcDbLine
 62
7
  6
CONTINUOUS
 10
1.850364
 20
15.30122
 11
1.850364
 21
15.509216
  0
LINE
  5
426
100
AcDbEntity
  8
0
100
AcDbLine
 62
7
  6
CONTINUOUS
 10
1.9289473031
 20
18.826092889
 11
1.9289473031
 21
19.366949421
  0
LINE
  5
427
100
AcDbEntity
  8
RACCORDO
100
AcDbLine
 62
250
  6
CONTINUOUS
 10
0.2633545402
 20
-19.7278964342
 11
0.2629729446
 21
-19.883663494
  0
LINE
  5
428
100
AcDbEntity
  8
RACCORDO
100
AcDbLine
 62
250
  6
CONTINUOUS
 10
0.263914105
 20
-19.6534136726
 11
0.2633545402
 21
-19.7278964342
  0
LWPOLYLINE
  5
429
100
AcDbEntity
  8
0
100
AcDbPolyline
 62
7
  6
CONTINUOUS
 90
22
 70
0
 10
1.8489599193
 20
19.373277416
 10
1.849446594
 20
19.405195394
 10
1.8516806093
 20
19.4369732349
 10
1.8556619654
 20
19.4686109397
 10
1.861259603
 20
19.5003431593
 10
1.8686045813
 20
19.5319352434
 10
1.878090078
 20
19.5626832464
 10
1.8898086662
 20
19.5926678567
 10
1.9036677728
 20
19.6218083974
 10
1.9197828567
 20
19.649158886
 10
1.9382807053
 20
19.6745006744
 10
1.9590345313
 20
19.6980524338
 10
1.9817794316
 20
19.7195241684
 10
2.0064958518
 20
19.7389237517
 10
2.0332033463
 20
19.7562433303
 10
2.0616956757
 20
19.7711693189
 10
2.091897924
 20
19.78355198
 10
2.1238850072
 20
19.7935410671
 10
2.1576754337
 20
19.8012722299
 10
2.1932753728
 20
19.8067906872
 10
2.2306786553
 20
19.8100512275
 10
2.269885281
 20
19.8110538524
  0
LWPOLYLINE
  5
42A
100
AcDbEntity
  8
RACCORDO
100
AcDbPolyline
 62
250
  6
CONTINUOUS
 90
3
 70
0
 10
0.0649210165
 20
-19.4007005808
 10
0.0646458243
 20
-19.4175833679
 10
0.0641459596
 20
-19.4677006561
  0
LWPOLYLINE
  5
42B
100
AcDbEntity
  8
RACCORDO
100
AcDbPolyline
 62
250
  6
CONTINUOUS
 90
4
 70
0
 10
0.2649134011
 20
-19.5938857461
 10
0.264640027
 20
-19.6041911084
 10
0.2643828219
 20
-19.6175022873
 10
0.263914105
 20
-19.6534136726
  0
LINE
  5
42C
100
AcDbEntity
  8
RACCORDO
100
AcDbLine
 62
250
  6
CONTINUOUS
 10
0.1992738542
 20
-15.2755396155
 11
0.0649210165
 21
-19.4007005808
  0
LINE
  5
42D
100
AcDbEntity
  8
RACCORDO
100
AcDbLine
 62
250
  6
CONTINUOUS
 10
0.3987736215
 20
-15.4838500694
 11
0.2649134011
 21
-19.5938857461
  0
LWPOLYLINE
  5
42E
100
AcDbEntity
  8
RACCORDO
100
AcDbPolyline
 62
7
  6
CONTINUOUS
 90
13
 70
0
 10
-0.3987736215
 20
-15.4838500694
 10
-0.3970285163
 20
-15.4562067425
 10
-0.3918217078
 20
-15.4291926459
 10
-0.3832724542
 20
-15.4032390196
 10
-0.3715630201
 20
-15.3787379785
 10
-0.3569172775
 20
-15.3560852013
 10
-0.3395835202
 20
-15.3356819
 10
-0.3198410578
 20
-15.3178312955
 10
-0.2980599277
 20
-15.3028242083
 10
-0.2746862143
 20
-15.2909642083
 10
-0.2501574065
 20
-15.2824237631
 10
-0.2248772972
 20
-15.2772688539
 10
-0.1992738542
 20
-15.2755396155
  0
LWPOLYLINE
  5
42F
100
AcDbEntity
  8
RACCORDO
100
AcDbPolyline
 62
250
  6
CONTINUOUS
 90
13
 70
0
 10
-0.2649134011
 20
-19.5938857461
 10
-0.2631484735
 20
-19.5687060081
 10
-0.2580015521
 20
-19.5439558661
 10
-0.2495604494
 20
-19.5200575867
 10
-0.2379691805
 20
-19.4974189026
 10
-0.2234255062
 20
-19.4764260564
 10
-0.2061775585
 20
-19.4574372108
 10
-0.1865196078
 20
-19.4407763378
 10
-0.1647870417
 20
-19.4267276916
 10
-0.1413506434
 20
-19.4155309587
 10
-0.1166102654
 20
-19.4073771687
 10
-0.0909880078
 20
-19.4024054348
 10
-0.0649210165
 20
-19.4007005808
  0
LINE
  5
430
100
AcDbEntity
  8
0
100
AcDbLine
 62
7
  6
CONTINUOUS
 10
4.8059769277
 20
17.1336716024
 11
4.8393569746
 21
17.3172598605
  0
LINE
  5
431
100
AcDbEntity
  8
0
100
AcDbLine
 62
7
  6
CONTINUOUS
 10
4.7809500026
 20
15.997433014
 11
4.8143300515
 21
16.1810212831
  0
LWPOLYLINE
  5
432
100
AcDbEntity
  8
0
100
AcDbPolyline
 62
7
  6
CONTINUOUS
 90
31
 70
0
 10
5.081921212
 20
16.678294061
 10
5.0930533353
 20
16.718856777
 10
5.1088658052
 20
16.7574004329
 10
5.1293586217
 20
16.7939250443
 10
5.1548174462
 20
16.8293590726
 10
5.1849566174
 20
16.8627740809
 10
5.218919151
 20
16.8913847551
 10
5.2570109626
 20
16.9142890433
 10
5.2989261367
 20
16.9323890508
 10
5.3428899427
 20
16.9456057111
 10
5.3889340809
 20
16.9539175018
 10
5.437026851
 20
16.9573459669
 10
5.4852984214
 20
16.9558766317
 10
5.5338122884
 20
16.9496821512
 10
5.5825049557
 20
16.938589863
 10
5.6293161022
 20
16.9220673081
 10
5.6740182792
 20
16.8996010412
 10
5.7168389354
 20
16.871704463
 10
5.7564000955
 20
16.8393853793
 10
5.7928466893
 20
16.8022259855
 10
5.826033787
 20
16.7606440219
 10
5.8541486237
 20
16.7169006305
 10
5.8763997863
 20
16.6708350801
 10
5.8935786878
 20
16.6226080623
 10
5.9062468024
 20
16.5749628971
 10
5.9141306879
 20
16.5285487413
 10
5.9175037865
 20
16.482716454
 10
5.9177478992
 20
16.4382619419
 10
5.9152824262
 20
16.3953087246
 10
5.9096879673
 20
16.3537333079
 10
5.9010881235
 20
16.3139610879
  0
LWPOLYLINE
  5
433
100
AcDbEntity
  8
0
100
AcDbPolyline
 62
7
  6
CONTINUOUS
 90
16
 70
0
 10
5.9261165883
 20
17.4502041776
 10
5.9143852486
 20
17.4122770407
 10
5.8996486867
 20
17.3761529029
 10
5.8824109901
 20
17.3421344078
 10
5.8627166145
 20
17.3103060221
 10
5.840521104
 20
17.280583309
 10
5.8161951789
 20
17.2530155575
 10
5.789728435
 20
17.2274762191
 10
5.7611312765
 20
17.2040918659
 10
5.7308056349
 20
17.183291469
 10
5.6985819112
 20
17.1651704397
 10
5.6646297044
 20
17.1496333879
 10
5.6298597443
 20
17.1368230822
 10
5.5945756072
 20
17.1267871168
 10
5.5584737166
 20
17.1194779106
 10
5.5215540726
 20
17.1148954677
  0
LWPOLYLINE
  5
434
100
AcDbEntity
  8
0
100
AcDbPolyline
 62
7
  6
CONTINUOUS
 90
16
 70
0
 10
5.9010881235
 20
16.3139610879
 10
5.8893559939
 20
16.2760329746
 10
5.8746184793
 20
16.2399080863
 10
5.8573798833
 20
16.2058891372
 10
5.8376846823
 20
16.1740606452
 10
5.8154883999
 20
16.1443381202
 10
5.791161911
 20
16.1167707643
 10
5.7646948364
 20
16.0912320551
 10
5.7360975554
 20
16.0678485371
 10
5.7057720802
 20
16.0470490133
 10
5.6735488654
 20
16.028928902
 10
5.6395974564
 20
16.0133928048
 10
5.604828501
 20
16.0005832993
 10
5.5695455486
 20
15.9905479159
 10
5.5334450499
 20
15.9832391365
 10
5.4965270048
 20
15.9786569649
  0
LINE
  5
435
100
AcDbEntity
  8
RACCORDO
100
AcDbLine
 62
7
  6
CONTINUOUS
 10
7.35
 20
6.6
 11
7.4372915245
 21
6.6872915245
  0
LINE
  5
436
100
AcDbEntity
  8
RACCORDO
100
AcDbLine
 62
250
  6
CONTINUOUS
 10
7.4372915245
 20
4.9872801014
 11
7.35
 21
4.8999885769
  0
LINE
  5
437
100
AcDbEntity
  8
DRAFT
100
AcDbLine
 62
7
  6
CONTINUOUS
 10
-8.3325462644
 20
-10.8825462644
 11
-8.35
 21
-10.9
  0
LINE
  5
438
100
AcDbEntity
  8
ASSI
100
AcDbLine
 62
7
  6
CONTINUOUS
 10
7.19
 20
1.55
 11
4.6
 21
1.55
  0
LINE
  5
439
100
AcDbEntity
  8
0
100
AcDbLine
 62
7
  6
CONTINUOUS
 10
2.6
 20
1.55
 11
-2.6
 21
1.55
  0
LINE
  5
43A
100
AcDbEntity
  8
ASSI
100
AcDbLine
 62
7
  6
CONTINUOUS
 10
-4.6
 20
1.55
 11
-7.19
 21
1.55
  0
LINE
  5
43B
100
AcDbEntity
  8
DRAFT
100
AcDbLine
 62
7
  6
CONTINUOUS
 10
9.5810577445
 20
-8.5
 11
9.6587268678
 21
-8.5776691233
  0
LINE
  5
43C
100
AcDbEntity
  8
RACCORDO
100
AcDbLine
 62
250
  6
CONTINUOUS
 10
-7.5001477533
 20
9.1001667918
 11
-7.4101132618
 21
9.0101323002
  0
LINE
  5
43D
100
AcDbEntity
  8
RACCORDO
100
AcDbLine
 62
250
  6
CONTINUOUS
 10
-7.0000849512
 20
9.6000659127
 11
-6.9101323002
 21
9.5101132618
  0
LWPOLYLINE
  5
43E
100
AcDbEntity
  8
0
100
AcDbPolyline
 62
7
  6
CONTINUOUS
 90
28
 70
0
 10
2.6024478439
 20
19.3543359591
 10
2.600603624
 20
19.4026691922
 10
2.5946437139
 20
19.4479966004
 10
2.5845681137
 20
19.4903182155
 10
2.5702927272
 20
19.5298223299
 10
2.5519016506
 20
19.5663207073
 10
2.5296471718
 20
19.5992485881
 10
2.5032296847
 20
19.6286623134
 10
2.4729487954
 20
19.6545055943
 10
2.4399556104
 20
19.6760447308
 10
2.4040400155
 20
19.693042527
 10
2.3654121249
 20
19.705736219
 10
2.325853387
 20
19.7141037533
 10
2.2853257082
 20
19.7180425727
 10
2.2438671821
 20
19.7176552472
 10
2.2033735374
 20
19.7132274076
 10
2.1639026973
 20
19.7048799477
 10
2.1253967386
 20
19.6924919615
 10
2.0895776203
 20
19.6759863738
 10
2.0566005075
 20
19.6551107847
 10
2.026310235
 20
19.6301175567
 10
1.9999632669
 20
19.6016867562
 10
1.9779138495
 20
19.5697977367
 10
1.9598077365
 20
19.5344710955
 10
1.9458386528
 20
19.4964487708
 10
1.9360711735
 20
19.4559780614
 10
1.9304407236
 20
19.4128116205
 10
1.9289473031
 20
19.366949421
  0
LWPOLYLINE
  5
43F
100
AcDbEntity
  8
0
100
AcDbPolyline
 62
7
  6
CONTINUOUS
 90
34
 70
0
 10
3.3075273882
 20
17.8832936783
 10
3.3073653898
 20
17.9092685048
 10
3.3062711021
 20
17.9351610072
 10
3.3042445252
 20
17.9609711859
 10
3.3013880934
 20
17.986770603
 10
3.2975993723
 20
18.012487697
 10
3.2925710591
 20
18.0379077839
 10
3.2862852736
 20
18.0630389031
 10
3.278759896
 20
18.0878730184
 10
3.2697412643
 20
18.1121713344
 10
3.2591360826
 20
18.1359790008
 10
3.2470376468
 20
18.1592508733
 10
3.2334721832
 20
18.1816127189
 10
3.2184051867
 20
18.203087654
 10
3.2018711623
 20
18.2236525709
 10
3.1839998509
 20
18.2428639036
 10
3.1647106506
 20
18.2606255735
 10
3.1440841634
 20
18.2770336706
 10
3.122491936
 20
18.2919328844
 10
3.0998838025
 20
18.3051987224
 10
3.0763099288
 20
18.3169556868
 10
3.0522923597
 20
18.3274219584
 10
3.027897992
 20
18.3365789803
 10
3.0030599288
 20
18.3444453151
 10
2.9780995244
 20
18.3512948215
 10
2.9531143428
 20
18.357143862
 10
2.9280068199
 20
18.3619760769
 10
2.9028056181
 20
18.3660162409
 10
2.8775164809
 20
18.369276268
 10
2.8521336647
 20
18.3717442455
 10
2.826668601
 20
18.3736092067
 10
2.8011251005
 20
18.3749341629
 10
2.7754993525
 20
18.3756561033
 10
2.7497913572
 20
18.3757750279
  0
LINE
  5
440
100
AcDbEntity
  8
0
100
AcDbLine
 62
7
  6
CONTINUOUS
 10
2.018425
 20
13.206714
 11
2.018425
 21
14.042849
  0
LINE
  5
441
100
AcDbEntity
  8
0
100
AcDbLine
 62
7
  6
CONTINUOUS
 10
2.018425
 20
15.962987
 11
2.018425
 21
16.799122
  0
LINE
  5
442
100
AcDbEntity
  8
0
100
AcDbLine
 62
7
  6
CONTINUOUS
 10
2.05
 20
6.05
 11
2.05
 21
4.85
  0
LINE
  5
443
100
AcDbEntity
  8
0
100
AcDbLine
 62
7
  6
CONTINUOUS
 10
2.49532
 20
13.206714
 11
2.49532
 21
13.986125
  0
LINE
  5
444
100
AcDbEntity
  8
0
100
AcDbLine
 62
7
  6
CONTINUOUS
 10
2.49532
 20
15.962987
 11
2.49532
 21
16.742441
  0
LINE
  5
445
100
AcDbEntity
  8
DRAFT
100
AcDbLine
 62
7
  6
CONTINUOUS
 10
2.5
 20
4.8
 11
2.5
 21
4.85
  0
LINE
  5
446
100
AcDbEntity
  8
0
100
AcDbLine
 62
7
  6
CONTINUOUS
 10
2.6
 20
2.05
 11
2.6
 21
-3.25
  0
LINE
  5
447
100
AcDbEntity
  8
0
100
AcDbLine
 62
7
  6
CONTINUOUS
 10
2.6024478439
 20
18.826092889
 11
2.6024478439
 21
19.3543359591
  0
LINE
  5
448
100
AcDbEntity
  8
0
100
AcDbLine
 62
7
  6
CONTINUOUS
 10
2.663401
 20
13.206714
 11
2.663401
 21
13.986125
  0
LINE
  5
449
100
AcDbEntity
  8
0
100
AcDbLine
 62
7
  6
CONTINUOUS
 10
2.663401
 20
15.962987
 11
2.663401
 21
16.742441
  0
LINE
  5
44A
100
AcDbEntity
  8
0
100
AcDbLine
 62
7
  6
CONTINUOUS
 10
2.6824352277
 20
18.826092889
 11
2.6824352277
 21
19.3396186624
  0
LINE
  5
44B
100
AcDbEntity
  8
0
100
AcDbLine
 62
7
  6
CONTINUOUS
 10
2.95
 20
-8.45
 11
2.95
 21
-9.35
  0
LINE
  5
44C
100
AcDbEntity
  8
DRAFT
100
AcDbLine
 62
7
  6
CONTINUOUS
 10
3.1
 20
-21.2
 11
3.1
 21
-22.4
  0
LINE
  5
44D
100
AcDbEntity
  8
DRAFT
100
AcDbLine
 62
7
  6
CONTINUOUS
 10
3.1
 20
21.2
 11
3.1
 21
22.4
  0
LINE
  5
44E
100
AcDbEntity
  8
0
100
AcDbLine
 62
7
  6
CONTINUOUS
 10
3.182302
 20
13.206714
 11
3.182302
 21
14.049148
  0
LINE
  5
44F
100
AcDbEntity
  8
0
100
AcDbLine
 62
7
  6
CONTINUOUS
 10
3.182302
 20
15.962987
 11
3.182302
 21
16.80545
  0
LINE
  5
450
100
AcDbEntity
  8
0
100
AcDbLine
 62
7
  6
CONTINUOUS
 10
3.25
 20
4.85
 11
3.25
 21
4.55
  0
LINE
  5
451
100
AcDbEntity
  8
0
100
AcDbLine
 62
7
  6
CONTINUOUS
 10
3.350368
 20
11.393697
 11
3.350368
 21
11.582765
  0
LINE
  5
452
100
AcDbEntity
  8
0
100
AcDbLine
 62
7
  6
CONTINUOUS
 10
3.350368
 20
12.370609
 11
3.350368
 21
12.589099
  0
LINE
  5
453
100
AcDbEntity
  8
0
100
AcDbLine
 62
7
  6
CONTINUOUS
 10
3.350368
 20
13.007122
 11
3.350368
 21
14.049148
  0
LINE
  5
454
100
AcDbEntity
  8
0
100
AcDbLine
 62
7
  6
CONTINUOUS
 10
3.350368
 20
15.763409
 11
3.350368
 21
16.80545
  0
LINE
  5
455
100
AcDbEntity
  8
0
100
AcDbLine
 62
7
  6
CONTINUOUS
 10
3.350372
 20
14.748703
 11
3.350372
 21
14.975583
  0
LINE
  5
456
100
AcDbEntity
  8
0
100
AcDbLine
 62
7
  6
CONTINUOUS
 10
3.3517129103
 20
18.7334347608
 11
3.3517129103
 21
18.826092889
  0
LWPOLYLINE
  5
457
100
AcDbEntity
  8
RACCORDO
100
AcDbPolyline
 62
7
  6
CONTINUOUS
 90
13
 70
0
 10
4.5005183986
 20
12.6055139921
 10
4.5022898556
 20
12.6335600218
 10
4.5075421436
 20
12.6609091392
 10
4.516145786
 20
12.6871399703
 10
4.527906565
 20
12.7118811896
 10
4.5425923585
 20
12.7347414304
 10
4.5599546744
 20
12.755304661
 10
4.5797166019
 20
12.7732792014
 10
4.6015002733
 20
12.7883850794
 10
4.6248464775
 20
12.8003033263
 10
4.6493117674
 20
12.8088663423
 10
4.6744965068
 20
12.8140293097
 10
4.6999758602
 20
12.8157624759
  0
LWPOLYLINE
  5
458
100
AcDbEntity
  8
0
100
AcDbPolyline
 62
7
  6
CONTINUOUS
 90
7
 70
0
 10
5.047979909
 20
17.4973930116
 10
5.0485241971
 20
17.5020824117
 10
5.0489855047
 20
17.5068714444
 10
5.049363832
 20
17.5117601095
 10
5.0496591788
 20
17.5167484069
 10
5.0498715452
 20
17.5218363364
 10
5.0500009312
 20
17.527023898
  0
LWPOLYLINE
  5
459
100
AcDbEntity
  8
0
100
AcDbPolyline
 62
7
  6
CONTINUOUS
 90
7
 70
0
 10
5.022952581
 20
16.3611540532
 10
5.0234968794
 20
16.3658435041
 10
5.0239581964
 20
16.3706325962
 10
5.0243365321
 20
16.3755213294
 10
5.0246318864
 20
16.3805097035
 10
5.0248442594
 20
16.3855977185
 10
5.024973651
 20
16.3907853743
  0
LINE
  5
45A
100
AcDbEntity
  8
DRAFT
100
AcDbLine
 62
7
  6
CONTINUOUS
 10
-2.6768152463
 20
-21.2
 11
-3.0118365096
 21
-22.4
  0
LINE
  5
45B
100
AcDbEntity
  8
DRAFT
100
AcDbLine
 62
7
  6
CONTINUOUS
 10
-3.9733373476
 20
-23.5
 11
-3.9526845545
 21
-23.4301797403
  0
LINE
  5
45C
100
AcDbEntity
  8
DRAFT
100
AcDbLine
 62
7
  6
CONTINUOUS
 10
9.5810577445
 20
6.6
 11
9.6587268678
 21
6.6776691233
  0
LINE
  5
45D
100
AcDbEntity
  8
RACCORDO
100
AcDbLine
 62
250
  6
CONTINUOUS
 10
7.7372801014
 20
4.6872915245
 11
7.6499885769
 21
4.6
  0
LINE
  5
45E
100
AcDbEntity
  8
DRAFT
100
AcDbLine
 62
7
  6
CONTINUOUS
 10
-9.5810577445
 20
-12.8
 11
-9.6587268678
 21
-12.8776691233
  0
LINE
  5
45F
100
AcDbEntity
  8
DRAFT
100
AcDbLine
 62
7
  6
CONTINUOUS
 10
-7.4825462644
 20
-10.8825462644
 11
-7.5
 21
-10.9
  0
LINE
  5
460
100
AcDbEntity
  8
0
100
AcDbLine
 62
7
  6
CONTINUOUS
 10
-9.5
 20
2.05
 11
-8.59
 21
2.05
  0
LINE
  5
461
100
AcDbEntity
  8
0
100
AcDbLine
 62
7
  6
CONTINUOUS
 10
9.5
 20
2.05
 11
8.59
 21
2.05
  0
LINE
  5
462
100
AcDbEntity
  8
0
100
AcDbLine
 62
7
  6
CONTINUOUS
 10
-6.0
 20
2.05
 11
6.0
 21
2.05
  0
LINE
  5
463
100
AcDbEntity
  8
RACCORDO
100
AcDbLine
 62
7
  6
CONTINUOUS
 10
-5.5000659127
 20
9.6000659127
 11
-5.4256357545
 21
9.5256357545
  0
LINE
  5
464
100
AcDbEntity
  8
DRAFT
100
AcDbLine
 62
7
  6
CONTINUOUS
 10
-3.9733373476
 20
23.5
 11
-3.9526845545
 21
23.4301797403
  0
LINE
  5
465
100
AcDbEntity
  8
DRAFT
100
AcDbLine
 62
7
  6
CONTINUOUS
 10
-3.0118365096
 20
22.4
 11
-2.6768152463
 21
21.2
  0
LWPOLYLINE
  5
466
100
AcDbEntity
  8
RACCORDO
100
AcDbPolyline
 62
250
  6
CONTINUOUS
 90
13
 70
0
 10
6.6598468471
 20
-20.1171572875
 10
6.66166905
 20
-20.1353593577
 10
6.6668092065
 20
-20.1533149498
 10
6.67521242
 20
-20.1707191451
 10
6.6867803067
 20
-20.1872875146
 10
6.7013382517
 20
-20.2027109185
 10
6.7186088814
 20
-20.2166740213
 10
6.7382822012
 20
-20.2289285414
 10
6.7600355757
 20
-20.2392755665
 10
6.7834819673
 20
-20.2475324589
 10
6.8082132153
 20
-20.2535604456
 10
6.8338112531
 20
-20.2572623286
 10
6.8598392317
 20
-20.2585786438
  0
LINE
  5
467
100
AcDbEntity
  8
RACCORDO
100
AcDbLine
 62
250
  6
CONTINUOUS
 10
4.5743642455
 20
9.5256357545
 11
4.5005183986
 21
12.6055139921
  0
LINE
  5
468
100
AcDbEntity
  8
RACCORDO
100
AcDbLine
 62
250
  6
CONTINUOUS
 10
4.7789877969
 20
9.5204228659
 11
4.6999758602
 21
12.8157624759
  0
LINE
  5
469
100
AcDbEntity
  8
DRAFT
100
AcDbLine
 62
7
  6
CONTINUOUS
 10
3.75
 20
21.2
 11
3.75
 21
21.1647852141
  0
LINE
  5
46A
100
AcDbEntity
  8
DRAFT
100
AcDbLine
 62
7
  6
CONTINUOUS
 10
3.75
 20
-21.2
 11
3.75
 21
-21.1647852141
  0
LINE
  5
46B
100
AcDbEntity
  8
0
100
AcDbLine
 62
7
  6
CONTINUOUS
 10
4.15
 20
-9.35
 11
4.15
 21
-8.45
  0
LINE
  5
46C
100
AcDbEntity
  8
0
100
AcDbLine
 62
7
  6
CONTINUOUS
 10
4.25
 20
6.65
 11
4.25
 21
6.675051063
  0
LINE
  5
46D
100
AcDbEntity
  8
0
100
AcDbLine
 62
7
  6
CONTINUOUS
 10
4.35
 20
4.55
 11
4.35
 21
6.05
  0
LINE
  5
46E
100
AcDbEntity
  8
ASSI
100
AcDbLine
 62
7
  6
CONTINUOUS
 10
4.6
 20
-3.25
 11
4.6
 21
1.55
  0
LINE
  5
46F
100
AcDbEntity
  8
0
100
AcDbLine
 62
7
  6
CONTINUOUS
 10
4.95
 20
-10.45
 11
4.95
 21
-8.45
  0
LINE
  5
470
100
AcDbEntity
  8
0
100
AcDbLine
 62
7
  6
CONTINUOUS
 10
4.95
 20
-7.0
 11
4.95
 21
-2.45
  0
LINE
  5
471
100
AcDbEntity
  8
0
100
AcDbLine
 62
7
  6
CONTINUOUS
 10
5.3
 20
4.55
 11
5.3
 21
6.65
  0
LINE
  5
472
100
AcDbEntity
  8
0
100
AcDbLine
 62
7
  6
CONTINUOUS
 10
5.35
 20
-8.45
 11
5.35
 21
-9.35
  0
LINE
  5
473
100
AcDbEntity
  8
RACCORDO
100
AcDbLine
 62
250
  6
CONTINUOUS
 10
5.3000241398
 20
12.8157624759
 11
5.2210122031
 21
9.5204228659
  0
LINE
  5
474
100
AcDbEntity
  8
RACCORDO
100
AcDbLine
 62
250
  6
CONTINUOUS
 10
5.4994816014
 20
12.6055139921
 11
5.4256357545
 21
9.5256357545
  0
LINE
  5
475
100
AcDbEntity
  8
0
100
AcDbLine
 62
7
  6
CONTINUOUS
 10
8.1826739788
 20
17.2156888291
 11
8.2154160619
 21
17.3998636052
  0
LINE
  5
476
100
AcDbEntity
  8
0
100
AcDbLine
 62
7
  6
CONTINUOUS
 10
8.1826739788
 20
16.0502727672
 11
8.2154160619
 21
16.2344475433
  0
LWPOLYLINE
  5
477
100
AcDbEntity
  8
0
100
AcDbPolyline
 62
7
  6
CONTINUOUS
 90
10
 70
0
 10
8.4875852644
 20
17.8991814896
 10
8.4946743781
 20
17.9264878405
 10
8.5035572426
 20
17.9528263409
 10
8.5142338578
 20
17.9781969965
 10
8.5267219249
 20
18.0027564857
 10
8.5410037427
 20
18.0263481397
 10
8.5570262081
 20
18.0485019455
 10
8.57477162
 20
18.0690612374
 10
8.5942576794
 20
18.0881826947
 10
8.6154843865
 20
18.1058663235
  0
LWPOLYLINE
  5
478
100
AcDbEntity
  8
0
100
AcDbPolyline
 62
7
  6
CONTINUOUS
 90
10
 70
0
 10
8.4875852644
 20
16.733765249
 10
8.4946742829
 20
16.7610714449
 10
8.5035570744
 20
16.7874098425
 10
8.514233639
 20
16.8127804471
 10
8.5267216787
 20
16.8373399492
 10
8.5410034915
 20
16.8609316674
 10
8.5570259707
 20
16.8830855503
 10
8.5747714141
 20
16.9036449193
 10
8.594257524
 20
16.922766466
 10
8.6154843003
 20
16.940450196
  0
LINE
  5
479
100
AcDbEntity
  8
0
100
AcDbLine
 62
7
  6
CONTINUOUS
 10
1.0
 20
-5.45
 11
2.5
 21
-3.15
  0
LINE
  5
47A
100
AcDbEntity
  8
RACCORDO
100
AcDbLine
 62
7
  6
CONTINUOUS
 10
-7.4118434042
 20
-13.7118434042
 11
-7.4992056137
 21
-13.7992056137
  0
LINE
  5
47B
100
AcDbEntity
  8
RACCORDO
100
AcDbLine
 62
250
  6
CONTINUOUS
 10
-7.4101132618
 20
-14.6101323002
 11
-7.4989810696
 21
-14.699000108
  0
LWPOLYLINE
  5
47C
100
AcDbEntity
  8
RACCORDO
100
AcDbPolyline
 62
7
  6
CONTINUOUS
 90
15
 70
0
 10
-7.734662139
 20
4.6873031474
 10
-7.7058234815
 20
4.6889477397
 10
-7.6747124661
 20
4.6938935961
 10
-7.6442901712
 20
4.7020749475
 10
-7.6148880968
 20
4.7134037823
 10
-7.586835119
 20
4.7277545595
 10
-7.5604517671
 20
4.7449613849
 10
-7.5360334618
 20
4.7648253467
 10
-7.5138388545
 20
4.7871292981
 10
-7.4941014952
 20
4.8116361252
 10
-7.477012826
 20
4.8381218667
 10
-7.4627967555
 20
4.8662553946
 10
-7.4516544309
 20
4.8955896771
 10
-7.4436760233
 20
4.9257411729
 10
-7.4398981132
 20
4.947842643
  0
LINE
  5
47D
100
AcDbEntity
  8
RACCORDO
100
AcDbLine
 62
250
  6
CONTINUOUS
 10
-7.7372801014
 20
4.6872915245
 11
-7.734662139
 21
4.6873031474
  0
LINE
  5
47E
100
AcDbEntity
  8
0
100
AcDbLine
 62
7
  6
CONTINUOUS
 10
8.59
 20
4.55
 11
-8.59
 21
4.55
  0
LINE
  5
47F
100
AcDbEntity
  8
RACCORDO
100
AcDbLine
 62
7
  6
CONTINUOUS
 10
8.5
 20
4.6
 11
7.6499885769
 21
4.6
  0
LINE
  5
480
100
AcDbEntity
  8
RACCORDO
100
AcDbLine
 62
7
  6
CONTINUOUS
 10
-7.6499885769
 20
4.6
 11
-8.5
 21
4.6
  0
LINE
  5
481
100
AcDbEntity
  8
0
100
AcDbLine
 62
7
  6
CONTINUOUS
 10
5.3
 20
4.65
 11
5.5
 21
4.65
  0
LINE
  5
482
100
AcDbEntity
  8
0
100
AcDbLine
 62
7
  6
CONTINUOUS
 10
-5.3
 20
4.65
 11
-5.5
 21
4.65
  0
LINE
  5
483
100
AcDbEntity
  8
RACCORDO
100
AcDbLine
 62
7
  6
CONTINUOUS
 10
-8.4127084755
 20
4.6872915245
 11
-7.7372801014
 21
4.6872915245
  0
LINE
  5
484
100
AcDbEntity
  8
RACCORDO
100
AcDbLine
 62
7
  6
CONTINUOUS
 10
7.7372801014
 20
4.6872915245
 11
8.4127084755
 21
4.6872915245
  0
LINE
  5
485
100
AcDbEntity
  8
DRAFT
100
AcDbLine
 62
7
  6
CONTINUOUS
 10
3.25
 20
4.8
 11
2.5
 21
4.8
  0
LINE
  5
486
100
AcDbEntity
  8
DRAFT
100
AcDbLine
 62
7
  6
CONTINUOUS
 10
-2.5
 20
4.8
 11
-3.25
 21
4.8
  0
LINE
  5
487
100
AcDbEntity
  8
0
100
AcDbLine
 62
7
  6
CONTINUOUS
 10
-3.25
 20
4.85
 11
-2.05
 21
4.85
  0
LINE
  5
488
100
AcDbEntity
  8
0
100
AcDbLine
 62
7
  6
CONTINUOUS
 10
2.05
 20
4.85
 11
3.25
 21
4.85
  0
LINE
  5
489
100
AcDbEntity
  8
RACCORDO
100
AcDbLine
 62
250
  6
CONTINUOUS
 10
-8.4101132618
 20
4.9872801014
 11
-7.4372915245
 21
4.9872801014
  0
LINE
  5
48A
100
AcDbEntity
  8
RACCORDO
100
AcDbLine
 62
250
  6
CONTINUOUS
 10
7.4372915245
 20
4.9872801014
 11
8.4101132618
 21
4.9872801014
  0
LINE
  5
48B
100
AcDbEntity
  8
ASSI
100
AcDbLine
 62
7
  6
CONTINUOUS
 10
7.3
 20
5.25
 11
5.5
 21
5.25
  0
LINE
  5
48C
100
AcDbEntity
  8
ASSI
100
AcDbLine
 62
7
  6
CONTINUOUS
 10
-5.5
 20
5.25
 11
-7.3
 21
5.25
  0
LWPOLYLINE
  5
48D
100
AcDbEntity
  8
RACCORDO
100
AcDbPolyline
 62
250
  6
CONTINUOUS
 90
16
 70
0
 10
7.7372801014
 20
4.6872915245
 10
7.705924271
 20
4.6889371219
 10
7.6749119484
 20
4.6938511109
 10
7.6445828781
 20
4.7019796578
 10
7.6152693196
 20
4.7132337133
 10
7.5872924073
 20
4.7274899875
 10
7.5609586324
 20
4.7445923008
 10
7.5365564852
 20
4.764353295
 10
7.514353295
 20
4.7865564852
 10
7.4945923008
 20
4.8109586324
 10
7.4774899875
 20
4.8372924073
 10
7.4632337133
 20
4.8652693196
 10
7.4519796578
 20
4.8945828781
 10
7.4438511109
 20
4.9249119484
 10
7.4389371219
 20
4.955924271
 10
7.4372915245
 20
4.9872801014
  0
LINE
  5
48E
100
AcDbEntity
  8
0
100
AcDbLine
 62
7
  6
CONTINUOUS
 10
5.5465970284
 20
14.8458336597
 11
5.5319929997
 21
15.0210770037
  0
LWPOLYLINE
  5
48F
100
AcDbEntity
  8
0
100
AcDbPolyline
 62
7
  6
CONTINUOUS
 90
27
 70
0
 10
5.0241793071
 20
16.414094556
 10
5.022323363
 20
16.4367147489
 10
5.0194058189
 20
16.4586459562
 10
5.0153525373
 20
16.4799699264
 10
5.0102376555
 20
16.5006049166
 10
5.0042835859
 20
16.5203056931
 10
4.9974804694
 20
16.5390743493
 10
4.9898381651
 20
16.556908799
 10
4.9816086621
 20
16.5735575406
 10
4.9728200382
 20
16.5889029135
 10
4.9634442156
 20
16.6030625861
 10
4.9536489509
 20
16.6161380513
 10
4.9434408
 20
16.6281581173
 10
4.9328132069
 20
16.6390939813
 10
4.9219142608
 20
16.648960718
 10
4.9107664928
 20
16.657737837
 10
4.8993473718
 20
16.6654458328
 10
4.8877373929
 20
16.6721612575
 10
4.8759558235
 20
16.6778268381
 10
4.8639833963
 20
16.6824998501
 10
4.8518428052
 20
16.6864286673
 10
4.8395261844
 20
16.6896423723
 10
4.8270413997
 20
16.6921118836
 10
4.8144347426
 20
16.693998328
 10
4.8017216436
 20
16.6953554145
 10
4.7888866721
 20
16.6961294346
 10
4.7759298282
 20
16.6963203882
  0
LWPOLYLINE
  5
490
100
AcDbEntity
  8
0
100
AcDbPolyline
 62
7
  6
CONTINUOUS
 90
27
 70
0
 10
5.0492065848
 20
17.5503328332
 10
5.047350691
 20
17.5729527213
 10
5.04443325
 20
17.5948835657
 10
5.0403801251
 20
17.6162070845
 10
5.0352654529
 20
17.6368415655
 10
5.0293116434
 20
17.6565418678
 10
5.0225088552
 20
17.675310092
 10
5.0148669298
 20
17.6931441451
 10
5.0066378007
 20
17.7097925972
 10
4.997849544
 20
17.725137815
 10
4.9884740837
 20
17.7392974402
 10
4.9786791259
 20
17.7523729547
 10
4.9684712169
 20
17.764393179
 10
4.9578438104
 20
17.7753292984
 10
4.9469449739
 20
17.7851963413
 10
4.9357972296
 20
17.7939738251
 10
4.9243780552
 20
17.8016822368
 10
4.9127679518
 20
17.8083980582
 10
4.900986177
 20
17.814064004
 10
4.8890134731
 20
17.8187373623
 10
4.8768725677
 20
17.8226664747
 10
4.8645556013
 20
17.8258804102
 10
4.8520704332
 20
17.8283501009
 10
4.8394633694
 20
17.8302366827
 10
4.8267498449
 20
17.8315938676
 10
4.8139144246
 20
17.832367944
 10
4.8009571084
 20
17.8325589119
  0
LWPOLYLINE
  5
491
100
AcDbEntity
  8
RACCORDO
100
AcDbPolyline
 62
7
  6
CONTINUOUS
 90
12
 70
0
 10
7.3089365232
 20
-18.7
 10
7.3071842988
 20
-18.6739981974
 10
7.3020705504
 20
-18.6484605873
 10
7.2936811322
 20
-18.6238056948
 10
7.2821620547
 20
-18.6004322166
 10
7.2677050687
 20
-18.5787289921
 10
7.250536297
 20
-18.5590736936
 10
7.2309257685
 20
-18.5417887896
 10
7.209212759
 20
-18.5271768639
 10
7.1857903053
 20
-18.5155248943
 10
7.1610692283
 20
-18.5070349419
 10
7.1354636732
 20
-18.5018319132
  0
LWPOLYLINE
  5
492
100
AcDbEntity
  8
RACCORDO
100
AcDbPolyline
 62
250
  6
CONTINUOUS
 90
16
 70
0
 10
6.7139945176
 20
-14.6859445605
 10
6.7114836063
 20
-14.6429423905
 10
6.7048548871
 20
-14.6014268298
 10
6.6941083598
 20
-14.5613978784
 10
6.6790133077
 20
-14.5224808899
 10
6.6598004475
 20
-14.4850505108
 10
6.63716193
 20
-14.4502306799
 10
6.611047444
 20
-14.4181205214
 10
6.5815073006
 20
-14.3886209112
 10
6.5493845834
 20
-14.3625584156
 10
6.5145916152
 20
-14.3399867233
 10
6.4772160733
 20
-14.3208521455
 10
6.4383640731
 20
-14.3058201826
 10
6.3984043201
 20
-14.2951126678
 10
6.3569681089
 20
-14.2885077677
 10
6.3140554395
 20
-14.2860054824
  0
LWPOLYLINE
  5
493
100
AcDbEntity
  8
0
100
AcDbPolyline
 62
7
  6
CONTINUOUS
 90
7
 70
0
 10
5.1632190205
 20
16.4703229305
 10
5.1641218293
 20
16.449481515
 10
5.1660217481
 20
16.4283383342
 10
5.168918777
 20
16.4068933869
 10
5.172812916
 20
16.3851466719
 10
5.177704165
 20
16.3630981878
 10
5.183592524
 20
16.3407479334
  0
LWPOLYLINE
  5
494
100
AcDbEntity
  8
0
100
AcDbPolyline
 62
7
  6
CONTINUOUS
 90
7
 70
0
 10
5.1882463007
 20
17.6065614542
 10
5.1891490945
 20
17.5857201656
 10
5.1910489941
 20
17.5645771002
 10
5.1939459994
 20
17.5431322567
 10
5.1978401105
 20
17.5213856338
 10
5.2027313273
 20
17.4993372302
 10
5.20861965
 20
17.4769870445
  0
LINE
  5
495
100
AcDbEntity
  8
0
100
AcDbLine
 62
7
  6
CONTINUOUS
 10
5.024973651
 20
16.3907853743
 11
5.0241793071
 21
16.414094556
  0
LINE
  5
496
100
AcDbEntity
  8
0
100
AcDbLine
 62
7
  6
CONTINUOUS
 10
5.0500009312
 20
17.527023898
 11
5.0492065848
 21
17.5503328332
  0
LINE
  5
497
100
AcDbEntity
  8
RACCORDO
100
AcDbLine
 62
250
  6
CONTINUOUS
 10
6.6200664561
 20
-18.7
 11
6.5153193024
 21
-15.4838500694
  0
LINE
  5
498
100
AcDbEntity
  8
RACCORDO
100
AcDbLine
 62
250
  6
CONTINUOUS
 10
6.8198368876
 20
-18.5
 11
6.7148190698
 21
-15.2755396155
  0
LWPOLYLINE
  5
499
100
AcDbEntity
  8
RACCORDO
100
AcDbPolyline
 62
250
  6
CONTINUOUS
 90
4
 70
0
 10
6.8578578064
 20
-18.5150140998
 10
6.8576438685
 20
-18.5064813309
 10
6.8574316569
 20
-18.5015710626
 10
6.8572211714
 20
-18.5
  0
LWPOLYLINE
  5
49A
100
AcDbEntity
  8
RACCORDO
100
AcDbPolyline
 62
250
  6
CONTINUOUS
 90
6
 70
0
 10
6.6583046098
 20
-18.7265437311
 10
6.6580841085
 20
-18.7166156983
 10
6.657865331
 20
-18.7090041921
 10
6.6576514257
 20
-18.7036862682
 10
6.6574392443
 20
-18.7006848709
 10
6.6572287868
 20
-18.7
  0
LINE
  5
49B
100
AcDbEntity
  8
RACCORDO
100
AcDbLine
 62
250
  6
CONTINUOUS
 10
7.0425072881
 20
-21.0094865114
 11
7.0294001425
 21
-20.2585786438
  0
LINE
  5
49C
100
AcDbEntity
  8
RACCORDO
100
AcDbLine
 62
250
  6
CONTINUOUS
 10
7.2419286989
 20
-20.8366629075
 11
7.2293696815
 21
-20.1171572875
  0
LINE
  5
49D
100
AcDbEntity
  8
RACCORDO
100
AcDbLine
 62
250
  6
CONTINUOUS
 10
6.658722296
 20
-18.7537847547
 11
6.6583046098
 21
-18.7265437311
  0
LINE
  5
49E
100
AcDbEntity
  8
RACCORDO
100
AcDbLine
 62
250
  6
CONTINUOUS
 10
6.8582971659
 20
-18.5441249138
 11
6.8578578064
 21
-18.5150140998
  0
LINE
  5
49F
100
AcDbEntity
  8
RACCORDO
100
AcDbLine
 62
250
  6
CONTINUOUS
 10
6.6558702077
 20
20.5728350282
 11
6.6598468471
 21
20.1171572875
  0
LINE
  5
4A0
100
AcDbEntity
  8
RACCORDO
100
AcDbLine
 62
250
  6
CONTINUOUS
 10
6.8556039598
 20
20.7438927334
 11
6.8598392317
 21
20.2585786438
  0
LINE
  5
4A1
100
AcDbEntity
  8
RACCORDO
100
AcDbLine
 62
250
  6
CONTINUOUS
 10
6.6592621331
 20
-18.8111757567
 11
6.658722296
 21
-18.7537847547
  0
LINE
  5
4A2
100
AcDbEntity
  8
RACCORDO
100
AcDbLine
 62
250
  6
CONTINUOUS
 10
6.8589120864
 20
-18.6182987473
 11
6.8582971659
 21
-18.5441249138
  0
LINE
  5
4A3
100
AcDbEntity
  8
RACCORDO
100
AcDbLine
 62
250
  6
CONTINUOUS
 10
6.6597765552
 20
-18.9309505535
 11
6.6592621331
 21
-18.8111757567
  0
LINE
  5
4A4
100
AcDbEntity
  8
RACCORDO
100
AcDbLine
 62
250
  6
CONTINUOUS
 10
7.0294550094
 20
18.9247049674
 11
7.0302764824
 21
18.7233617142
  0
LINE
  5
4A5
100
AcDbEntity
  8
RACCORDO
100
AcDbLine
 62
250
  6
CONTINUOUS
 10
6.8597689629
 20
-18.8849468333
 11
6.8589120864
 21
-18.6182987473
  0
LINE
  5
4A6
100
AcDbEntity
  8
RACCORDO
100
AcDbLine
 62
250
  6
CONTINUOUS
 10
6.6598468471
 20
-19.0
 11
6.6597765552
 21
-18.9309505535
  0
LINE
  5
4A7
100
AcDbEntity
  8
ASSI
100
AcDbLine
 62
7
  6
CONTINUOUS
 10
5.5
 20
4.55
 11
5.5
 21
5.2498863979
  0
LINE
  5
4A8
100
AcDbEntity
  8
0
100
AcDbLine
 62
7
  6
CONTINUOUS
 10
6.0
 20
4.55
 11
6.0
 21
2.05
  0
LINE
  5
4A9
100
AcDbEntity
  8
ASSI
100
AcDbLine
 62
7
  6
CONTINUOUS
 10
6.0
 20
-12.85
 11
6.0
 21
-10.45
  0
LINE
  5
4AA
100
AcDbEntity
  8
RACCORDO
100
AcDbLine
 62
250
  6
CONTINUOUS
 10
6.3140554395
 20
-14.2860054824
 11
6.3140554396
 21
-14.4859750215
  0
LINE
  5
4AB
100
AcDbEntity
  8
RACCORDO
100
AcDbLine
 62
250
  6
CONTINUOUS
 10
6.3140554397
 20
8.3860054824
 11
6.3140554396
 21
8.5859750215
  0
LINE
  5
4AC
100
AcDbEntity
  8
DRAFT
100
AcDbLine
 62
7
  6
CONTINUOUS
 10
6.5
 20
-12.8898867382
 11
6.5
 21
-13.6
  0
LINE
  5
4AD
100
AcDbEntity
  8
RACCORDO
100
AcDbLine
 62
7
  6
CONTINUOUS
 10
6.5
 20
-15.1188401295
 11
6.5
 21
-14.699969539
  0
LINE
  5
4AE
100
AcDbEntity
  8
DRAFT
100
AcDbLine
 62
7
  6
CONTINUOUS
 10
6.5
 20
-12.8836351166
 11
6.5
 21
-12.5
  0
LINE
  5
4AF
100
AcDbEntity
  8
RACCORDO
100
AcDbLine
 62
7
  6
CONTINUOUS
 10
6.5
 20
-12.5
 11
6.5
 21
-10.45
  0
LINE
  5
4B0
100
AcDbEntity
  8
DRAFT
100
AcDbLine
 62
7
  6
CONTINUOUS
 10
6.5
 20
6.6
 11
6.5
 21
6.675051063
  0
LINE
  5
4B1
100
AcDbEntity
  8
DRAFT
100
AcDbLine
 62
7
  6
CONTINUOUS
 10
6.5
 20
6.6898867382
 11
6.5
 21
7.3
  0
LINE
  5
4B2
100
AcDbEntity
  8
RACCORDO
100
AcDbLine
 62
7
  6
CONTINUOUS
 10
6.5
 20
8.799969539
 11
6.5
 21
9.5188401295
  0
LINE
  5
4B3
100
AcDbEntity
  8
RACCORDO
100
AcDbLine
 62
250
  6
CONTINUOUS
 10
6.5140249785
 20
9.5118281743
 11
6.5140249785
 21
8.7859445605
  0
LINE
  5
4B4
100
AcDbEntity
  8
RACCORDO
100
AcDbLine
 62
250
  6
CONTINUOUS
 10
6.5140249785
 20
-14.6859445605
 11
6.5140249785
 21
-15.1118281743
  0
LINE
  5
4B5
100
AcDbEntity
  8
0
100
AcDbLine
 62
7
  6
CONTINUOUS
 10
6.55
 20
-9.35
 11
6.55
 21
-8.45
  0
LINE
  5
4B6
100
AcDbEntity
  8
RACCORDO
100
AcDbLine
 62
7
  6
CONTINUOUS
 10
6.6598468471
 20
20.1171572875
 11
6.6598468471
 21
19.0
  0
LINE
  5
4B7
100
AcDbEntity
  8
RACCORDO
100
AcDbLine
 62
7
  6
CONTINUOUS
 10
6.6598468471
 20
-20.1171572875
 11
6.6598468471
 21
-19.0
  0
LINE
  5
4B8
100
AcDbEntity
  8
RACCORDO
100
AcDbLine
 62
250
  6
CONTINUOUS
 10
6.7139945176
 20
9.5101132618
 11
6.7139945176
 21
8.7859445605
  0
LINE
  5
4B9
100
AcDbEntity
  8
RACCORDO
100
AcDbLine
 62
250
  6
CONTINUOUS
 10
6.7139945176
 20
-14.6859445605
 11
6.7139945176
 21
-15.1101132618
  0
LINE
  5
4BA
100
AcDbEntity
  8
RACCORDO
100
AcDbLine
 62
250
  6
CONTINUOUS
 10
6.8598392317
 20
-20.2585786438
 11
6.8597689629
 21
-18.8849468333
  0
LINE
  5
4BB
100
AcDbEntity
  8
0
100
AcDbLine
 62
7
  6
CONTINUOUS
 10
6.95
 20
-3.6
 11
6.95
 21
1.55
  0
LINE
  5
4BC
100
AcDbEntity
  8
RACCORDO
100
AcDbLine
 62
250
  6
CONTINUOUS
 10
7.0294550094
 20
18.9247049674
 11
7.0294001425
 21
20.2585786438
  0
LINE
  5
4BD
100
AcDbEntity
  8
0
100
AcDbLine
 62
7
  6
CONTINUOUS
 10
7.1
 20
-2.45
 11
7.1
 21
-3.45
  0
LINE
  5
4BE
100
AcDbEntity
  8
0
100
AcDbLine
 62
7
  6
CONTINUOUS
 10
7.1
 20
-8.45
 11
7.1
 21
-7.15
  0
LINE
  5
4BF
100
AcDbEntity
  8
RACCORDO
100
AcDbLine
 62
250
  6
CONTINUOUS
 10
6.8598392317
 20
20.2585786438
 11
6.8592321097
 21
18.6801191675
  0
LINE
  5
4C0
100
AcDbEntity
  8
RACCORDO
100
AcDbLine
 62
250
  6
CONTINUOUS
 10
7.0294001425
 20
-20.2585786438
 11
7.0298548336
 21
-18.7965852064
  0
LINE
  5
4C1
100
AcDbEntity
  8
RACCORDO
100
AcDbLine
 62
250
  6
CONTINUOUS
 10
6.6598468471
 20
19.0
 11
6.6595136004
 21
18.8535433418
  0
LINE
  5
4C2
100
AcDbEntity
  8
RACCORDO
100
AcDbLine
 62
250
  6
CONTINUOUS
 10
7.0298548336
 20
-18.7965852064
 11
7.0303183743
 21
-18.717375741
  0
LINE
  5
4C3
100
AcDbEntity
  8
RACCORDO
100
AcDbLine
 62
250
  6
CONTINUOUS
 10
6.8592321097
 20
18.6801191675
 11
6.8584924692
 21
18.5629094259
  0
LINE
  5
4C4
100
AcDbEntity
  8
RACCORDO
100
AcDbLine
 62
250
  6
CONTINUOUS
 10
6.6558702077
 20
-20.5728350282
 11
6.6598468471
 21
-20.1171572875
  0
LINE
  5
4C5
100
AcDbEntity
  8
RACCORDO
100
AcDbLine
 62
250
  6
CONTINUOUS
 10
6.8598392317
 20
-20.2585786438
 11
6.8556039598
 21
-20.7438927334
  0
LINE
  5
4C6
100
AcDbEntity
  8
RACCORDO
100
AcDbLine
 62
250
  6
CONTINUOUS
 10
6.6595136004
 20
18.8535433418
 11
6.6588973716
 21
18.7689459358
  0
LWPOLYLINE
  5
4C7
100
AcDbEntity
  8
RACCORDO
100
AcDbPolyline
 62
250
  6
CONTINUOUS
 90
6
 70
0
 10
6.8584924692
 20
18.5629094259
 10
6.858064508
 20
18.526689967
 10
6.8578486339
 20
18.5145705893
 10
6.8576376605
 20
18.506289462
 10
6.8574285064
 20
18.5015245104
 10
6.8572211714
 20
18.5
  0
LWPOLYLINE
  5
4C8
100
AcDbEntity
  8
RACCORDO
100
AcDbPolyline
 62
250
  6
CONTINUOUS
 90
8
 70
0
 10
6.6588973716
 20
18.7689459358
 10
6.6584997794
 20
18.7377325002
 10
6.6582894159
 20
18.7257751852
 10
6.658071608
 20
18.7161265268
 10
6.6578557061
 20
18.7087303013
 10
6.657644827
 20
18.7035677678
 10
6.6574358539
 20
18.7006576674
 10
6.6572287868
 20
18.7
  0
LINE
  5
4C9
100
AcDbEntity
  8
RACCORDO
100
AcDbLine
 62
250
  6
CONTINUOUS
 10
7.0425072881
 20
21.0094865114
 11
7.0294001425
 21
20.2585786438
  0
LINE
  5
4CA
100
AcDbEntity
  8
RACCORDO
100
AcDbLine
 62
250
  6
CONTINUOUS
 10
7.2419286989
 20
20.8366629075
 11
7.2293696815
 21
20.1171572875
  0
LINE
  5
4CB
100
AcDbEntity
  8
RACCORDO
100
AcDbLine
 62
250
  6
CONTINUOUS
 10
6.5153193024
 20
15.4838500694
 11
6.6200664561
 21
18.7
  0
LINE
  5
4CC
100
AcDbEntity
  8
RACCORDO
100
AcDbLine
 62
250
  6
CONTINUOUS
 10
6.7148190698
 20
15.2755396155
 11
6.8198368876
 21
18.5
  0
LWPOLYLINE
  5
4CD
100
AcDbEntity
  8
0
100
AcDbPolyline
 62
7
  6
CONTINUOUS
 90
7
 70
0
 10
7.7938607812
 20
17.6669168517
 10
7.7952848762
 20
17.7063768673
 10
7.7997001233
 20
17.7451210249
 10
7.8071065223
 20
17.78314933
 10
7.8175040734
 20
17.8204617884
 10
7.8308927765
 20
17.8570584055
 10
7.8472726317
 20
17.8929391869
  0
LWPOLYLINE
  5
4CE
100
AcDbEntity
  8
0
100
AcDbPolyline
 62
7
  6
CONTINUOUS
 90
7
 70
0
 10
7.7938607812
 20
18.8333559081
 10
7.7960654499
 20
18.8811508195
 10
7.8026646058
 20
18.9276157523
 10
7.8136582491
 20
18.97275072
 10
7.8290463796
 20
19.0165557362
 10
7.8488289974
 20
19.0590308139
 10
7.8730061024
 20
19.1001759657
  0
LWPOLYLINE
  5
4CF
100
AcDbEntity
  8
0
100
AcDbPolyline
 62
7
  6
CONTINUOUS
 90
7
 70
0
 10
7.7938607812
 20
15.3371077225
 10
7.7960658696
 20
15.384903984
 10
7.8026652828
 20
15.4313697266
 10
7.8136590209
 20
15.4765049615
 10
7.8290470838
 20
15.5203096995
 10
7.8488294715
 20
15.5627839512
 10
7.873006184
 20
15.6039277269
  0
LWPOLYLINE
  5
4D0
100
AcDbEntity
  8
RACCORDO
100
AcDbPolyline
 62
7
  6
CONTINUOUS
 90
13
 70
0
 10
7.5184775044
 20
15.483378525
 10
7.5167459172
 20
15.4557762905
 10
7.5115595483
 20
15.428810679
 10
7.5030389782
 20
15.4029109818
 10
7.4913687433
 20
15.3784690175
 10
7.4767719555
 20
15.3558765063
 10
7.4594919121
 20
15.3355278816
 10
7.439805836
 20
15.3177252699
 10
7.4180826207
 20
15.302759043
 10
7.3947628174
 20
15.2909290282
 10
7.3702803713
 20
15.2824077141
 10
7.3450382138
 20
15.2772639035
 10
7.319462557
 20
15.2755396155
  0
LWPOLYLINE
  5
4D1
100
AcDbEntity
  8
RACCORDO
100
AcDbPolyline
 62
250
  6
CONTINUOUS
 90
13
 70
0
 10
6.5140249785
 20
8.7859445605
 10
6.5123085868
 20
8.7597310226
 10
6.5071792585
 20
8.7339980607
 10
6.4987358775
 20
8.7091860576
 10
6.487135001
 20
8.6857195711
 10
6.4725842165
 20
8.6639932552
 10
6.4553353494
 20
8.6443671546
 10
6.4356964276
 20
8.6271775866
 10
6.4140007407
 20
8.6127034127
 10
6.3905860068
 20
8.6011696274
 10
6.3658352387
 20
8.5927760351
 10
6.3401794069
 20
8.5876796173
 10
6.3140554395
 20
8.5859750215
  0
LWPOLYLINE
  5
4D2
100
AcDbEntity
  8
RACCORDO
100
AcDbPolyline
 62
250
  6
CONTINUOUS
 90
9
 70
0
 10
7.234606201
 20
18.7
 10
7.2328954339
 20
18.6738947616
 10
7.2277924042
 20
18.648236191
 10
7.2193844262
 20
18.6234633135
 10
7.2078153628
 20
18.6
 10
7.1932831637
 20
18.5782477142
 10
7.1760364791
 20
18.5585786438
 10
7.1563704043
 20
18.5413293319
 10
7.1443368137
 20
18.5327809516
  0
LWPOLYLINE
  5
4D3
100
AcDbEntity
  8
RACCORDO
100
AcDbPolyline
 62
7
  6
CONTINUOUS
 90
12
 70
0
 10
7.3089365232
 20
18.7
 10
7.3071946849
 20
18.6741235681
 10
7.3021106415
 20
18.6486379494
 10
7.293751803
 20
18.6239765047
 10
7.2822380187
 20
18.6005570772
 10
7.2677505446
 20
18.5787914426
 10
7.2505363116
 20
18.5590737083
 10
7.2308931205
 20
18.5417572449
 10
7.2091397129
 20
18.5271341059
 10
7.1856187697
 20
18.5154532061
 10
7.1607168843
 20
18.5069324742
 10
7.1348648826
 20
18.5017443099
  0
LINE
  5
4D4
100
AcDbEntity
  8
DRAFT
100
AcDbLine
 62
7
  6
CONTINUOUS
 10
9.65
 20
20.9
 11
9.5838661374
 21
20.5028438891
  0
LINE
  5
4D5
100
AcDbEntity
  8
RACCORDO
100
AcDbLine
 62
250
  6
CONTINUOUS
 10
-6.9101323002
 20
-15.1101132618
 11
-6.9988692386
 21
-15.1988502001
  0
LINE
  5
4D6
100
AcDbEntity
  8
RACCORDO
100
AcDbLine
 62
7
  6
CONTINUOUS
 10
-9.6021029835
 20
6.678817544
 11
-9.2122871968
 21
6.6881641073
  0
LWPOLYLINE
  5
4D7
100
AcDbEntity
  8
RACCORDO
100
AcDbPolyline
 62
250
  6
CONTINUOUS
 90
3
 70
0
 10
9.6273374654
 20
7.3222604695
 10
9.6130922327
 20
7.3220124758
 10
9.2122871968
 20
7.31242523
  0
LINE
  5
4D8
100
AcDbEntity
  8
0
100
AcDbLine
 62
7
  6
CONTINUOUS
 10
-4.35
 20
6.05
 11
4.35
 21
6.05
  0
LINE
  5
4D9
100
AcDbEntity
  8
DRAFT
100
AcDbLine
 62
7
  6
CONTINUOUS
 10
-9.5810577445
 20
6.6
 11
-8.5
 21
6.6
  0
LINE
  5
4DA
100
AcDbEntity
  8
DRAFT
100
AcDbLine
 62
7
  6
CONTINUOUS
 10
-7.35
 20
6.6
 11
-7.25
 21
6.6
  0
LINE
  5
4DB
100
AcDbEntity
  8
DRAFT
100
AcDbLine
 62
7
  6
CONTINUOUS
 10
7.25
 20
6.6
 11
7.35
 21
6.6
  0
LINE
  5
4DC
100
AcDbEntity
  8
DRAFT
100
AcDbLine
 62
7
  6
CONTINUOUS
 10
8.5
 20
6.6
 11
9.5810577445
 21
6.6
  0
LINE
  5
4DD
100
AcDbEntity
  8
0
100
AcDbLine
 62
7
  6
CONTINUOUS
 10
6.5
 20
6.65
 11
-6.5
 21
6.65
  0
LINE
  5
4DE
100
AcDbEntity
  8
DRAFT
100
AcDbLine
 62
7
  6
CONTINUOUS
 10
-6.5
 20
6.675051063
 11
6.5
 21
6.675051063
  0
LINE
  5
4DF
100
AcDbEntity
  8
RACCORDO
100
AcDbLine
 62
7
  6
CONTINUOUS
 10
-9.7900415076
 20
6.6776691233
 11
-9.6587268678
 21
6.6776691233
  0
LINE
  5
4E0
100
AcDbEntity
  8
RACCORDO
100
AcDbLine
 62
7
  6
CONTINUOUS
 10
9.7900415076
 20
6.6776691233
 11
9.6587268678
 21
6.6776691233
  0
LINE
  5
4E1
100
AcDbEntity
  8
DRAFT
100
AcDbLine
 62
7
  6
CONTINUOUS
 10
-6.5
 20
6.6845154863
 11
6.5
 21
6.6845154863
  0
LINE
  5
4E2
100
AcDbEntity
  8
RACCORDO
100
AcDbLine
 62
7
  6
CONTINUOUS
 10
8.9303794106
 20
6.6898867382
 11
8.4101132618
 21
6.6898867382
  0
LINE
  5
4E3
100
AcDbEntity
  8
RACCORDO
100
AcDbLine
 62
7
  6
CONTINUOUS
 10
-7.7372801014
 20
6.6898867382
 11
-6.5
 21
6.6898867382
  0
LINE
  5
4E4
100
AcDbEntity
  8
RACCORDO
100
AcDbLine
 62
7
  6
CONTINUOUS
 10
6.5
 20
6.6898867382
 11
7.7372801014
 21
6.6898867382
  0
LINE
  5
4E5
100
AcDbEntity
  8
RACCORDO
100
AcDbLine
 62
7
  6
CONTINUOUS
 10
-8.4101132618
 20
6.6898867382
 11
-8.9303794106
 21
6.6898867382
  0
LINE
  5
4E6
100
AcDbEntity
  8
RACCORDO
100
AcDbLine
 62
250
  6
CONTINUOUS
 10
10.55
 20
7.024057211
 11
10.75
 21
7.0240572111
  0
LINE
  5
4E7
100
AcDbEntity
  8
RACCORDO
100
AcDbLine
 62
250
  6
CONTINUOUS
 10
-10.55
 20
7.024057211
 11
-10.75
 21
7.024057211
  0
LINE
  5
4E8
100
AcDbEntity
  8
RACCORDO
100
AcDbLine
 62
7
  6
CONTINUOUS
 10
9.2122871968
 20
6.6881641073
 11
9.6021029835
 21
6.678817544
  0
LINE
  5
4E9
100
AcDbEntity
  8
RACCORDO
100
AcDbLine
 62
250
  6
CONTINUOUS
 10
-9.6130891487
 20
7.3220269976
 11
-9.2122871968
 21
7.31242523
  0
LINE
  5
4EA
100
AcDbEntity
  8
DRAFT
100
AcDbLine
 62
7
  6
CONTINUOUS
 10
9.6587268678
 20
-0.8776691233
 11
9.5810577445
 21
-0.8
  0
LINE
  5
4EB
100
AcDbEntity
  8
DRAFT
100
AcDbLine
 62
7
  6
CONTINUOUS
 10
9.65
 20
-20.9
 11
9.5838661374
 21
-20.5028438891
  0
LINE
  5
4EC
100
AcDbEntity
  8
RACCORDO
100
AcDbLine
 62
250
  6
CONTINUOUS
 10
7.1094109243
 20
18.5
 11
7.319462557
 21
15.2755396155
  0
LINE
  5
4ED
100
AcDbEntity
  8
RACCORDO
100
AcDbLine
 62
250
  6
CONTINUOUS
 10
7.3089365232
 20
18.7
 11
7.5184775044
 21
15.483378525
  0
LWPOLYLINE
  5
4EE
100
AcDbEntity
  8
0
100
AcDbPolyline
 62
7
  6
CONTINUOUS
 90
10
 70
0
 10
7.9463164687
 20
14.1870395735
 10
7.9477329356
 20
14.1588345354
 10
7.9518574399
 20
14.1320290628
 10
7.9586899818
 20
14.1066231619
 10
7.9683265618
 20
14.0825735008
 10
7.9806711793
 20
14.0599234233
 10
7.9954358325
 20
14.03880295
 10
8.0125245205
 20
14.0192554247
 10
8.0320332442
 20
14.0012375142
 10
8.0539620035
 20
13.9847492233
  0
LWPOLYLINE
  5
4EF
100
AcDbEntity
  8
0
100
AcDbPolyline
 62
7
  6
CONTINUOUS
 90
10
 70
0
 10
7.9463164687
 20
15.3596180722
 10
7.9476560782
 20
15.3320802229
 10
7.951562905
 20
15.3053887997
 10
7.9580369491
 20
15.2795438069
 10
7.9672347555
 20
15.254415768
 10
7.9789997792
 20
15.2301341672
 10
7.9928623849
 20
15.2070874507
 10
8.0086660274
 20
15.1854051047
 10
8.026567252
 20
15.1649576536
 10
8.0465660586
 20
15.145745102
  0
LWPOLYLINE
  5
4F0
100
AcDbEntity
  8
0
100
AcDbPolyline
 62
7
  6
CONTINUOUS
 90
10
 70
0
 10
7.9463164687
 20
18.8558664367
 10
7.947655746
 20
18.8283300977
 10
7.9515622163
 20
18.8016398066
 10
7.9580358798
 20
18.7757955687
 10
7.9672331435
 20
18.7506679094
 10
7.9789976003
 20
18.7263863128
 10
7.992860029
 20
18.7033392229
 10
8.0086640226
 20
18.6816561264
 10
8.0265659881
 20
18.6612075497
 10
8.0465659255
 20
18.6419934986
  0
LWPOLYLINE
  5
4F1
100
AcDbEntity
  8
RACCORDO
100
AcDbPolyline
 62
250
  6
CONTINUOUS
 90
8
 70
0
 10
7.2316159776
 20
18.7539032019
 10
7.2320259031
 20
18.7389509382
 10
7.2324517745
 20
18.726613029
 10
7.2328932409
 20
18.7166600606
 10
7.2333313154
 20
18.7090286153
 10
7.2337596691
 20
18.7036975538
 10
7.234184631
 20
18.7006880154
 10
7.234606201
 20
18.7
  0
LWPOLYLINE
  5
4F2
100
AcDbEntity
  8
0
100
AcDbPolyline
 62
7
  6
CONTINUOUS
 90
10
 70
0
 10
7.9452932954
 20
16.5055934832
 10
7.9458907267
 20
16.4834197457
 10
7.9481823438
 20
16.4617200807
 10
7.9521681469
 20
16.4404944905
 10
7.9578144918
 20
16.4196246153
 10
7.9651550226
 20
16.3992288184
 10
7.9742906715
 20
16.3796621879
 10
7.9852550827
 20
16.3610430892
 10
7.9980146121
 20
16.3432531635
 10
8.0125692596
 20
16.3262924137
  0
LWPOLYLINE
  5
4F3
100
AcDbEntity
  8
0
100
AcDbPolyline
 62
7
  6
CONTINUOUS
 90
10
 70
0
 10
7.9452932954
 20
17.671009545
 10
7.945890668
 20
17.6488361962
 10
7.9481822199
 20
17.6271368201
 10
7.9521679512
 20
17.6059114191
 10
7.9578141925
 20
17.5850416272
 10
7.9651546131
 20
17.5646458142
 10
7.9742902205
 20
17.5450790879
 10
7.9852546838
 20
17.5264598203
 10
7.9980143339
 20
17.5086696464
 10
8.0125691708
 20
17.4917085694
  0
LWPOLYLINE
  5
4F4
100
AcDbEntity
  8
RACCORDO
100
AcDbPolyline
 62
250
  6
CONTINUOUS
 90
6
 70
0
 10
7.032481887
 20
18.5442382844
 10
7.0329234369
 20
18.5275687844
 10
7.0333615908
 20
18.5150549441
 10
7.0337900106
 20
18.5064996113
 10
7.0342150344
 20
18.501575651
 10
7.034636662
 20
18.5
  0
LINE
  5
4F5
100
AcDbEntity
  8
RACCORDO
100
AcDbLine
 62
250
  6
CONTINUOUS
 10
7.230860845
 20
18.7903377291
 11
7.2316159776
 21
18.7539032019
  0
LINE
  5
4F6
100
AcDbEntity
  8
RACCORDO
100
AcDbLine
 62
250
  6
CONTINUOUS
 10
7.0316459995
 20
18.5897453036
 11
7.032481887
 21
18.5442382844
  0
LINE
  5
4F7
100
AcDbEntity
  8
RACCORDO
100
AcDbLine
 62
250
  6
CONTINUOUS
 10
7.2302463082
 20
18.834106935
 11
7.230860845
 21
18.7903377291
  0
LINE
  5
4F8
100
AcDbEntity
  8
RACCORDO
100
AcDbLine
 62
250
  6
CONTINUOUS
 10
7.0308908793
 20
18.6506224121
 11
7.0316459995
 21
18.5897453036
  0
LINE
  5
4F9
100
AcDbEntity
  8
RACCORDO
100
AcDbLine
 62
250
  6
CONTINUOUS
 10
7.0302764824
 20
18.7233617142
 11
7.0308908793
 21
18.6506224121
  0
LINE
  5
4FA
100
AcDbEntity
  8
RACCORDO
100
AcDbLine
 62
250
  6
CONTINUOUS
 10
7.2296328074
 20
18.9066510247
 11
7.2302463082
 21
18.834106935
  0
LWPOLYLINE
  5
4FB
100
AcDbEntity
  8
0
100
AcDbPolyline
 62
7
  6
CONTINUOUS
 90
7
 70
0
 10
8.430286485
 20
16.4452251837
 10
8.4301071924
 20
16.4821630403
 10
8.4258912466
 20
16.5184356854
 10
8.4176386475
 20
16.5540431237
 10
8.4053493951
 20
16.5889853597
 10
8.3890234895
 20
16.623262398
 10
8.3686609306
 20
16.6568742428
  0
LWPOLYLINE
  5
4FC
100
AcDbEntity
  8
0
100
AcDbPolyline
 62
7
  6
CONTINUOUS
 90
7
 70
0
 10
8.430286485
 20
17.6106412455
 10
8.430107315
 20
17.6475787393
 10
8.4258914373
 20
17.6838511746
 10
8.4176388517
 20
17.7194585565
 10
8.4053495584
 20
17.7544008899
 10
8.3890235573
 20
17.7886781795
 10
8.3686608484
 20
17.82229043
  0
LINE
  5
4FD
100
AcDbEntity
  8
RACCORDO
100
AcDbLine
 62
250
  6
CONTINUOUS
 10
7.2293778235
 20
18.9775145429
 11
7.2296328074
 21
18.9066510247
  0
LINE
  5
4FE
100
AcDbEntity
  8
0
100
AcDbLine
 62
7
  6
CONTINUOUS
 10
7.19
 20
1.55
 11
7.19
 21
-2.25
  0
LINE
  5
4FF
100
AcDbEntity
  8
RACCORDO
100
AcDbLine
 62
250
  6
CONTINUOUS
 10
7.2293696815
 20
20.1171572875
 11
7.2293778235
 21
18.9775145429
  0
LINE
  5
500
100
AcDbEntity
  8
0
100
AcDbLine
 62
7
  6
CONTINUOUS
 10
7.25
 20
6.65
 11
7.25
 21
5.25
  0
LINE
  5
501
100
AcDbEntity
  8
ASSI
100
AcDbLine
 62
7
  6
CONTINUOUS
 10
7.3
 20
4.55
 11
7.3
 21
5.2498863979
  0
LINE
  5
502
100
AcDbEntity
  8
RACCORDO
100
AcDbLine
 62
7
  6
CONTINUOUS
 10
7.35
 20
4.8999885769
 11
7.35
 21
6.6
  0
LINE
  5
503
100
AcDbEntity
  8
RACCORDO
100
AcDbLine
 62
7
  6
CONTINUOUS
 10
7.3674537356
 20
-10.45
 11
7.3674537356
 21
-10.5043838508
  0
LINE
  5
504
100
AcDbEntity
  8
RACCORDO
100
AcDbLine
 62
7
  6
CONTINUOUS
 10
7.4101132618
 20
-14.6101323002
 11
7.4101132618
 21
-13.5118510196
  0
LINE
  5
505
100
AcDbEntity
  8
RACCORDO
100
AcDbLine
 62
7
  6
CONTINUOUS
 10
7.4101132618
 20
7.3118510196
 11
7.4101132618
 21
9.0101323002
  0
LINE
  5
506
100
AcDbEntity
  8
RACCORDO
100
AcDbLine
 62
7
  6
CONTINUOUS
 10
7.4372915245
 20
6.6872915245
 11
7.4372915245
 21
4.9872801014
  0
LINE
  5
507
100
AcDbEntity
  8
DRAFT
100
AcDbLine
 62
7
  6
CONTINUOUS
 10
7.4825462644
 20
-10.8825462644
 11
7.4825462644
 21
-12.8174537356
  0
LINE
  5
508
100
AcDbEntity
  8
DRAFT
100
AcDbLine
 62
7
  6
CONTINUOUS
 10
7.5
 20
-10.9
 11
7.5
 21
-12.8
  0
LINE
  5
509
100
AcDbEntity
  8
RACCORDO
100
AcDbLine
 62
250
  6
CONTINUOUS
 10
7.7372801014
 20
6.6898867382
 11
7.7372801014
 21
4.6872915245
  0
LINE
  5
50A
100
AcDbEntity
  8
0
100
AcDbLine
 62
7
  6
CONTINUOUS
 10
8.15
 20
-7.0
 11
8.15
 21
-3.6
  0
LINE
  5
50B
100
AcDbEntity
  8
0
100
AcDbLine
 62
7
  6
CONTINUOUS
 10
8.3
 20
-7.15
 11
8.3
 21
-3.45
  0
LINE
  5
50C
100
AcDbEntity
  8
DRAFT
100
AcDbLine
 62
7
  6
CONTINUOUS
 10
8.3325462644
 20
-10.45
 11
8.3325462644
 21
-10.8825462644
  0
LINE
  5
50D
100
AcDbEntity
  8
DRAFT
100
AcDbLine
 62
7
  6
CONTINUOUS
 10
8.35
 20
-10.45
 11
8.35
 21
-10.9
  0
LINE
  5
50E
100
AcDbEntity
  8
RACCORDO
100
AcDbLine
 62
7
  6
CONTINUOUS
 10
8.4101132618
 20
6.6898867382
 11
8.4101132618
 21
4.9872801014
  0
LINE
  5
50F
100
AcDbEntity
  8
DRAFT
100
AcDbLine
 62
7
  6
CONTINUOUS
 10
8.5
 20
6.6
 11
8.5
 21
4.6
  0
LINE
  5
510
100
AcDbEntity
  8
0
100
AcDbLine
 62
7
  6
CONTINUOUS
 10
8.59
 20
4.55
 11
8.59
 21
-2.25
  0
LINE
  5
511
100
AcDbEntity
  8
SUPERFICI
100
AcDbLine
 62
7
  6
CONTINUOUS
 10
8.64
 20
3.7
 11
8.64
 21
2.4
  0
LINE
  5
512
100
AcDbEntity
  8
SUPERFICI
100
AcDbLine
 62
7
  6
CONTINUOUS
 10
8.64
 20
2.1
 11
8.64
 21
-1.4
  0
LINE
  5
513
100
AcDbEntity
  8
RACCORDO
100
AcDbLine
 62
250
  6
CONTINUOUS
 10
7.2293696815
 20
-20.1171572875
 11
7.2295241191
 21
-18.9276857293
  0
LINE
  5
514
100
AcDbEntity
  8
RACCORDO
100
AcDbLine
 62
250
  6
CONTINUOUS
 10
7.2295241191
 20
-18.9276857293
 11
7.2300346566
 21
-18.853704069
  0
LINE
  5
515
100
AcDbEntity
  8
RACCORDO
100
AcDbLine
 62
250
  6
CONTINUOUS
 10
7.0303183743
 20
-18.717375741
 11
7.0312958308
 21
-18.614969788
  0
LINE
  5
516
100
AcDbEntity
  8
RACCORDO
100
AcDbLine
 62
250
  6
CONTINUOUS
 10
7.2300346566
 20
-18.853704069
 11
7.2305820071
 21
-18.808185491
  0
LWPOLYLINE
  5
517
100
AcDbEntity
  8
RACCORDO
100
AcDbPolyline
 62
250
  6
CONTINUOUS
 90
8
 70
0
 10
7.0312958308
 20
-18.614969788
 10
7.0320910524
 20
-18.5630592325
 10
7.0325118959
 20
-18.5429494182
 10
7.0329477295
 20
-18.5267597102
 10
7.0333799803
 20
-18.514609784
 10
7.0338024571
 20
-18.5063070281
 10
7.034221351
 20
-18.5015289256
 10
7.034636662
 20
-18.5
  0
LWPOLYLINE
  5
518
100
AcDbEntity
  8
RACCORDO
100
AcDbPolyline
 62
250
  6
CONTINUOUS
 90
10
 70
0
 10
7.2305820071
 20
-18.808185491
 10
7.2312659314
 20
-18.7690824564
 10
7.2316560751
 20
-18.752297365
 10
7.2320612452
 20
-18.7378209509
 10
7.2324822778
 20
-18.7258402591
 10
7.2329183369
 20
-18.7161682446
 10
7.2333506372
 20
-18.7087533656
 10
7.2337729171
 20
-18.7035784415
 10
7.2341914384
 20
-18.700660653
 10
7.234606201
 20
-18.7
  0
LWPOLYLINE
  5
519
100
AcDbEntity
  8
0
100
AcDbPolyline
 62
7
  6
CONTINUOUS
 90
7
 70
0
 10
7.7938607812
 20
14.1890859649
 10
7.7951214738
 20
14.2278194651
 10
7.7991663516
 20
14.2651719805
 10
7.8059954145
 20
14.30114352
 10
7.8156086626
 20
14.3357340917
 10
7.8280060958
 20
14.3689437039
 10
7.8431877142
 20
14.4007723644
  0
LWPOLYLINE
  5
51A
100
AcDbEntity
  8
0
100
AcDbPolyline
 62
7
  6
CONTINUOUS
 90
10
 70
0
 10
8.7914733768
 20
18.8057298705
 10
8.7901001664
 20
18.7658821301
 10
8.7852396461
 20
18.7270512471
 10
8.7768918158
 20
18.6892372308
 10
8.7649514619
 20
18.6521853212
 10
8.7495237979
 20
18.6161502944
 10
8.730924465
 20
18.5818964696
 10
8.7092586768
 20
18.5496786314
 10
8.6844212196
 20
18.5192420232
 10
8.6564120935
 20
18.4905866574
  0
LWPOLYLINE
  5
51B
100
AcDbEntity
  8
0
100
AcDbPolyline
 62
7
  6
CONTINUOUS
 90
10
 70
0
 10
8.7914733768
 20
15.309481506
 10
8.7900997716
 20
15.2696315201
 10
8.7852388122
 20
15.2307989651
 10
8.7768904983
 20
15.1929838485
 10
8.764949429
 20
15.1559314192
 10
8.7495210054
 20
15.1198964415
 10
8.7309214308
 20
15.0856432011
 10
8.7092561062
 20
15.0534264695
 10
8.6844196307
 20
15.0229914982
 10
8.6564120042
 20
14.9943382971
  0
LWPOLYLINE
  5
51C
100
AcDbEntity
  8
0
100
AcDbPolyline
 62
7
  6
CONTINUOUS
 90
7
 70
0
 10
7.7938607812
 20
16.501500611
 10
7.7952849356
 20
16.5409609005
 10
7.7997002135
 20
16.5797052254
 10
7.8071066148
 20
16.6177335908
 10
7.8175041395
 20
16.655046002
 10
7.8308927877
 20
16.6916424643
 10
7.8472725594
 20
16.7275229826
  0
LWPOLYLINE
  5
51D
100
AcDbEntity
  8
RACCORDO
100
AcDbPolyline
 62
7
  6
CONTINUOUS
 90
16
 70
0
 10
7.4989810696
 20
-14.699000108
 10
7.4962502297
 20
-14.7510434362
 10
7.4880897283
 20
-14.8026390754
 10
7.4745512846
 20
-14.8532176614
 10
7.4557063755
 20
-14.9023047586
 10
7.4317485295
 20
-14.9492470034
 10
7.403085202
 20
-14.9932658405
 10
7.3702153806
 20
-15.0337543415
 10
7.3334372192
 20
-15.0704825725
 10
7.2929333646
 20
-15.1032770493
 10
7.2489617473
 20
-15.1318376392
 10
7.2021153054
 20
-15.155694238
 10
7.1531049333
 20
-15.1744759699
 10
7.1025530945
 20
-15.1879856028
 10
7.0509520865
 20
-15.196131188
 10
6.9988692386
 20
-15.1988502001
  0
LWPOLYLINE
  5
51E
100
AcDbEntity
  8
RACCORDO
100
AcDbPolyline
 62
7
  6
CONTINUOUS
 90
13
 70
0
 10
6.5153193024
 20
-15.4838500694
 10
6.5170644077
 20
-15.4562067425
 10
6.5222712161
 20
-15.4291926459
 10
6.5308204697
 20
-15.4032390196
 10
6.5425299038
 20
-15.3787379785
 10
6.5571756464
 20
-15.3560852013
 10
6.5745094037
 20
-15.3356819
 10
6.5942518661
 20
-15.3178312955
 10
6.6160329962
 20
-15.3028242083
 10
6.6394067097
 20
-15.2909642083
 10
6.6639355174
 20
-15.2824237631
 10
6.6892156267
 20
-15.2772688539
 10
6.7148190698
 20
-15.2755396155
  0
LINE
  5
51F
100
AcDbEntity
  8
RACCORDO
100
AcDbLine
 62
250
  6
CONTINUOUS
 10
7.319462557
 20
-15.2755396155
 11
7.1094109243
 21
-18.5
  0
LINE
  5
520
100
AcDbEntity
  8
RACCORDO
100
AcDbLine
 62
250
  6
CONTINUOUS
 10
7.5184775044
 20
-15.483378525
 11
7.3089365232
 21
-18.7
  0
LWPOLYLINE
  5
521
100
AcDbEntity
  8
RACCORDO
100
AcDbPolyline
 62
250
  6
CONTINUOUS
 90
9
 70
0
 10
6.6572287868
 20
-18.7
 10
6.6589397493
 20
-18.6738947616
 10
6.664043362
 20
-18.648236191
 10
6.6724523006
 20
-18.6234633135
 10
6.6840226857
 20
-18.6
 10
6.698556545
 20
-18.5782477142
 10
6.7158052
 20
-18.5585786438
 10
6.7354735215
 20
-18.5413293319
 10
6.7481955893
 20
-18.5323321224
  0
LWPOLYLINE
  5
522
100
AcDbEntity
  8
RACCORDO
100
AcDbPolyline
 62
7
  6
CONTINUOUS
 90
10
 70
0
 10
6.6200664561
 20
-18.7
 10
6.6217837243
 20
-18.6740798342
 10
6.6268536167
 20
-18.6485625367
 10
6.6352044001
 20
-18.6238823695
 10
6.6467097823
 20
-18.60045995
 10
6.6611858003
 20
-18.5787024009
 10
6.678390465
 20
-18.5589942732
 10
6.6980324725
 20
-18.5416836961
 10
6.7197873722
 20
-18.5270694334
 10
6.7432991968
 20
-18.5154061091
  0
LINE
  5
523
100
AcDbEntity
  8
0
100
AcDbLine
 62
7
  6
CONTINUOUS
 10
8.4282401383
 20
17.5809685037
 11
8.430286485
 21
17.6106412455
  0
LINE
  5
524
100
AcDbEntity
  8
0
100
AcDbLine
 62
7
  6
CONTINUOUS
 10
8.4282401383
 20
16.4155524418
 11
8.430286485
 21
16.4452251837
  0
LINE
  5
525
100
AcDbEntity
  8
DRAFT
100
AcDbLine
 62
7
  6
CONTINUOUS
 10
9.6587268678
 20
-1.7223308767
 11
9.5810577445
 21
-1.8
  0
LWPOLYLINE
  5
526
100
AcDbEntity
  8
RACCORDO
100
AcDbPolyline
 62
250
  6
CONTINUOUS
 90
19
 70
0
 10
-9.5099573271
 20
7.5240609912
 10
-9.5186334618
 20
7.5228738322
 10
-9.527194232
 20
7.5199541706
 10
-9.5355003308
 20
7.5154240281
 10
-9.5433572102
 20
7.5094354076
 10
-9.5507418778
 20
7.5021145822
 10
-9.5577829161
 20
7.4935124632
 10
-9.564391116
 20
7.4837399159
 10
-9.5704932078
 20
7.4729020676
 10
-9.5762109409
 20
7.4609656097
 10
-9.581483345
 20
7.4479413226
 10
-9.5861883145
 20
7.4339798584
 10
-9.5903473672
 20
7.4192389844
 10
-9.5939351145
 20
7.4038298317
 10
-9.5968769574
 20
7.3878710706
 10
-9.5991636919
 20
7.3715541301
 10
-9.6007976555
 20
7.3550288409
 10
-9.6017742303
 20
7.3383947947
 10
-9.6021053835
 20
7.3217718508
  0
LWPOLYLINE
  5
527
100
AcDbEntity
  8
RACCORDO
100
AcDbPolyline
 62
250
  6
CONTINUOUS
 90
13
 70
0
 10
-9.0243486726
 20
7.5124176146
 10
-9.0488331928
 20
7.5106353939
 10
-9.0729003934
 20
7.5054746327
 10
-9.0961400415
 20
7.4970232873
 10
-9.1181560056
 20
7.4854254043
 10
-9.1385730147
 20
7.4708786634
 10
-9.1570430527
 20
7.4536310054
 10
-9.1732512859
 20
7.433976409
 10
-9.1869214244
 20
7.4122498903
 10
-9.19782044
 20
7.3888217909
 10
-9.2057625452
 20
7.3640914542
 10
-9.2106123561
 20
7.3384804163
 10
-9.2122871968
 20
7.31242523
  0
LWPOLYLINE
  5
528
100
AcDbEntity
  8
RACCORDO
100
AcDbPolyline
 62
250
  6
CONTINUOUS
 90
16
 70
0
 10
6.3140554395
 20
8.3860054824
 10
6.3570576095
 20
8.3885163937
 10
6.3985731702
 20
8.3951451129
 10
6.4386021216
 20
8.4058916402
 10
6.4775191101
 20
8.4209866923
 10
6.5149494892
 20
8.4401995525
 10
6.5497693201
 20
8.46283807
 10
6.5818794786
 20
8.488952556
 10
6.6113790888
 20
8.5184926994
 10
6.6374415844
 20
8.5506154166
 10
6.6600132767
 20
8.5854083848
 10
6.6791478545
 20
8.6227839267
 10
6.6941798174
 20
8.6616359269
 10
6.7048873322
 20
8.7015956799
 10
6.7114922323
 20
8.7430318911
 10
6.7139945176
 20
8.7859445605
  0
LWPOLYLINE
  5
529
100
AcDbEntity
  8
RACCORDO
100
AcDbPolyline
 62
250
  6
CONTINUOUS
 90
19
 70
0
 10
-9.5099618806
 20
7.5240610192
 10
-9.5368286605
 20
7.5229930474
 10
-9.562608035
 20
7.5201993209
 10
-9.5873000042
 20
7.5158013763
 10
-9.6109718325
 20
7.509951158
 10
-9.6335562555
 20
7.5027732457
 10
-9.6548514795
 20
7.4943157961
 10
-9.6748391282
 20
7.484687933
 10
-9.6935375779
 20
7.4739947475
 10
-9.7108001641
 20
7.4622043803
 10
-9.7266978626
 20
7.4493310087
 10
-9.7411596976
 20
7.4355224009
 10
-9.7538260771
 20
7.420928451
 10
-9.7646277341
 20
7.405658206
 10
-9.7736339356
 20
7.3898296258
 10
-9.7806928911
 20
7.3736268768
 10
-9.7857540036
 20
7.3571960485
 10
-9.78886787
 20
7.3406371054
 10
-9.7900344904
 20
7.3240686345
  0
LWPOLYLINE
  5
52A
100
AcDbEntity
  8
RACCORDO
100
AcDbPolyline
 62
7
  6
CONTINUOUS
 90
19
 70
0
 10
-10.25
 20
7.5240610192
 10
-10.2869527496
 20
7.5226936601
 10
-10.3253956086
 20
7.5183438128
 10
-10.3650531667
 20
7.510643663
 10
-10.4058434171
 20
7.4991532599
 10
-10.4470881124
 20
7.483578142
 10
-10.4875942443
 20
7.4640025744
 10
-10.5269163864
 20
7.4403743358
 10
-10.5646087539
 20
7.4126747911
 10
-10.5996435807
 20
7.381480366
 10
-10.6317012527
 20
7.3470212054
 10
-10.6604534789
 20
7.3095903558
 10
-10.6852051798
 20
7.2702225496
 10
-10.7058750862
 20
7.2294313832
 10
-10.7225041296
 20
7.1875816821
 10
-10.7349859002
 20
7.1456668391
 10
-10.7435186691
 20
7.1043032384
 10
-10.7484289374
 20
7.0636630243
 10
-10.75
 20
7.024057211
  0
LINE
  5
52B
100
AcDbEntity
  8
RACCORDO
100
AcDbLine
 62
250
  6
CONTINUOUS
 10
9.5099584924
 20
7.5240610192
 11
9.0220900722
 21
7.5123671274
  0
LWPOLYLINE
  5
52C
100
AcDbEntity
  8
RACCORDO
100
AcDbPolyline
 62
250
  6
CONTINUOUS
 90
19
 70
0
 10
-10.25
 20
7.3240686345
 10
-10.2725171774
 20
7.3235999991
 10
-10.2955336596
 20
7.3209150131
 10
-10.3190494465
 20
7.3160136764
 10
-10.3434648289
 20
7.3089545658
 10
-10.368379516
 20
7.2996791045
 10
-10.3925926356
 20
7.2880115628
 10
-10.4160592232
 20
7.2737340678
 10
-10.4388242433
 20
7.2570644924
 10
-10.4598217167
 20
7.2384807259
 10
-10.4789022543
 20
7.2177989227
 10
-10.4962152453
 20
7.1952029284
 10
-10.5111428773
 20
7.1717221695
 10
-10.5234562689
 20
7.1473390178
 10
-10.5333843017
 20
7.1220711016
 10
-10.5409958079
 20
7.0970007317
 10
-10.5463137318
 20
7.0724886784
 10
-10.5493151291
 20
7.0481741715
 10
-10.55
 20
7.024057211
  0
LINE
  5
52D
100
AcDbEntity
  8
RACCORDO
100
AcDbLine
 62
250
  6
CONTINUOUS
 10
9.0220900722
 20
7.5123671274
 11
9.0162081803
 21
7.512268265
  0
LINE
  5
52E
100
AcDbEntity
  8
RACCORDO
100
AcDbLine
 62
250
  6
CONTINUOUS
 10
9.7108306233
 20
7.3233255567
 11
9.6273374654
 21
7.3222604695
  0
LINE
  5
52F
100
AcDbEntity
  8
RACCORDO
100
AcDbLine
 62
250
  6
CONTINUOUS
 10
9.0162081803
 20
7.512268265
 11
9.0039736149
 21
7.5121252515
  0
LINE
  5
530
100
AcDbEntity
  8
RACCORDO
100
AcDbLine
 62
250
  6
CONTINUOUS
 10
9.7900415076
 20
7.3240686345
 11
9.7108306233
 21
7.3233255567
  0
LINE
  5
531
100
AcDbEntity
  8
RACCORDO
100
AcDbLine
 62
250
  6
CONTINUOUS
 10
9.0039736149
 20
7.5121252515
 11
8.9757672083
 21
7.5119386577
  0
LINE
  5
532
100
AcDbEntity
  8
RACCORDO
100
AcDbLine
 62
250
  6
CONTINUOUS
 10
9.2122871968
 20
7.31242523
 11
9.1511640532
 21
7.312132881
  0
LINE
  5
533
100
AcDbEntity
  8
RACCORDO
100
AcDbLine
 62
250
  6
CONTINUOUS
 10
8.9757672083
 20
7.5119386577
 11
8.9303794106
 21
7.5118434042
  0
LINE
  5
534
100
AcDbEntity
  8
0
100
AcDbLine
 62
7
  6
CONTINUOUS
 10
-6.5
 20
7.3
 11
6.5
 21
7.3
  0
LINE
  5
535
100
AcDbEntity
  8
RACCORDO
100
AcDbLine
 62
250
  6
CONTINUOUS
 10
9.1511640532
 20
7.312132881
 11
7.4101132618
 21
7.3118510196
  0
LINE
  5
536
100
AcDbEntity
  8
RACCORDO
100
AcDbLine
 62
250
  6
CONTINUOUS
 10
10.25
 20
7.3240686345
 11
9.7900415076
 21
7.3240686345
  0
LINE
  5
537
100
AcDbEntity
  8
RACCORDO
100
AcDbLine
 62
250
  6
CONTINUOUS
 10
-9.7900415076
 20
7.3240686345
 11
-10.25
 21
7.3240686345
  0
LINE
  5
538
100
AcDbEntity
  8
RACCORDO
100
AcDbLine
 62
7
  6
CONTINUOUS
 10
-8.9303794106
 20
7.5118434042
 11
-7.4118434042
 21
7.5118434042
  0
LINE
  5
539
100
AcDbEntity
  8
RACCORDO
100
AcDbLine
 62
7
  6
CONTINUOUS
 10
8.9303794106
 20
7.5118434042
 11
7.4118434042
 21
7.5118434042
  0
LINE
  5
53A
100
AcDbEntity
  8
RACCORDO
100
AcDbLine
 62
7
  6
CONTINUOUS
 10
10.25
 20
7.5240610192
 11
9.5099584924
 21
7.5240610192
  0
LINE
  5
53B
100
AcDbEntity
  8
RACCORDO
100
AcDbLine
 62
7
  6
CONTINUOUS
 10
-9.5099584924
 20
7.5240610192
 11
-10.25
 21
7.5240610192
  0
LINE
  5
53C
100
AcDbEntity
  8
RACCORDO
100
AcDbLine
 62
7
  6
CONTINUOUS
 10
-10.25
 20
7.5310577445
 11
-9.65
 21
7.5310577445
  0
LINE
  5
53D
100
AcDbEntity
  8
RACCORDO
100
AcDbLine
 62
7
  6
CONTINUOUS
 10
9.65
 20
7.5310577445
 11
10.25
 21
7.5310577445
  0
LINE
  5
53E
100
AcDbEntity
  8
DRAFT
100
AcDbLine
 62
7
  6
CONTINUOUS
 10
-9.5806907165
 20
7.6003670279
 11
-7.5003670279
 21
7.6003670279
  0
LINE
  5
53F
100
AcDbEntity
  8
DRAFT
100
AcDbLine
 62
7
  6
CONTINUOUS
 10
7.5003670279
 20
7.6003670279
 11
9.5806907165
 21
7.6003670279
  0
LINE
  5
540
100
AcDbEntity
  8
RACCORDO
100
AcDbLine
 62
250
  6
CONTINUOUS
 10
6.3140554395
 20
8.3860054824
 11
-6.3140554395
 21
8.3860054824
  0
LINE
  5
541
100
AcDbEntity
  8
RACCORDO
100
AcDbLine
 62
250
  6
CONTINUOUS
 10
6.3140554395
 20
8.5859750215
 11
-6.3140554395
 21
8.5859750215
  0
LINE
  5
542
100
AcDbEntity
  8
RACCORDO
100
AcDbLine
 62
7
  6
CONTINUOUS
 10
-6.300030461
 20
8.6
 11
6.300030461
 21
8.6
  0
LINE
  5
543
100
AcDbEntity
  8
RACCORDO
100
AcDbLine
 62
250
  6
CONTINUOUS
 10
-6.7139945176
 20
8.7859445603
 11
-6.5140249785
 21
8.7859445604
  0
LINE
  5
544
100
AcDbEntity
  8
RACCORDO
100
AcDbLine
 62
250
  6
CONTINUOUS
 10
6.7139945176
 20
8.7859445605
 11
6.5140249785
 21
8.7859445604
  0
LINE
  5
545
100
AcDbEntity
  8
RACCORDO
100
AcDbLine
 62
250
  6
CONTINUOUS
 10
-9.175405812
 20
7.3122203904
 11
-7.4101132618
 21
7.3118510196
  0
LINE
  5
546
100
AcDbEntity
  8
RACCORDO
100
AcDbLine
 62
250
  6
CONTINUOUS
 10
-8.9748170108
 20
7.5119344918
 11
-8.9303794106
 21
7.5118434042
  0
LINE
  5
547
100
AcDbEntity
  8
RACCORDO
100
AcDbLine
 62
250
  6
CONTINUOUS
 10
-9.2122871968
 20
7.31242523
 11
-9.175405812
 21
7.3122203904
  0
LINE
  5
548
100
AcDbEntity
  8
RACCORDO
100
AcDbLine
 62
250
  6
CONTINUOUS
 10
-9.0031976598
 20
7.5121179729
 11
-8.9748170108
 21
7.5119344918
  0
LWPOLYLINE
  5
549
100
AcDbEntity
  8
RACCORDO
100
AcDbPolyline
 62
250
  6
CONTINUOUS
 90
4
 70
0
 10
-9.7900415076
 20
7.3240686345
 10
-9.6445667805
 20
7.3225374063
 10
-9.6273310946
 20
7.3222822019
 10
-9.6130891487
 20
7.3220269976
  0
LINE
  5
54A
100
AcDbEntity
  8
RACCORDO
100
AcDbLine
 62
250
  6
CONTINUOUS
 10
-9.0158162863
 20
7.5122625921
 11
-9.0031976598
 21
7.5121179729
  0
LINE
  5
54B
100
AcDbEntity
  8
RACCORDO
100
AcDbLine
 62
250
  6
CONTINUOUS
 10
-9.0219585705
 20
7.5123647845
 11
-9.0158162863
 21
7.5122625921
  0
LINE
  5
54C
100
AcDbEntity
  8
RACCORDO
100
AcDbLine
 62
250
  6
CONTINUOUS
 10
-9.5099584924
 20
7.5240610192
 11
-9.0219585705
 21
7.5123647845
  0
LWPOLYLINE
  5
54D
100
AcDbEntity
  8
RACCORDO
100
AcDbPolyline
 62
250
  6
CONTINUOUS
 90
13
 70
0
 10
-6.3140554395
 20
8.5859750215
 10
-6.3402689774
 20
8.5876914132
 10
-6.3660019393
 20
8.5928207415
 10
-6.3908139424
 20
8.6012641225
 10
-6.4142804289
 20
8.612864999
 10
-6.4360067448
 20
8.6274157835
 10
-6.4556328454
 20
8.6446646506
 10
-6.4728224134
 20
8.6643035724
 10
-6.4872965873
 20
8.6859992593
 10
-6.4988303726
 20
8.7094139932
 10
-6.5072239649
 20
8.7341647613
 10
-6.5123203827
 20
8.7598205931
 10
-6.5140249785
 20
8.7859445605
  0
LINE
  5
54E
100
AcDbEntity
  8
0
100
AcDbLine
 62
7
  6
CONTINUOUS
 10
5.4965270048
 20
15.9786569649
 11
5.4714919691
 21
16.1622452262
  0
LINE
  5
54F
100
AcDbEntity
  8
0
100
AcDbLine
 62
7
  6
CONTINUOUS
 10
5.5215540726
 20
17.1148954677
 11
5.496520013
 21
17.2984839045
  0
LWPOLYLINE
  5
550
100
AcDbEntity
  8
RACCORDO
100
AcDbPolyline
 62
250
  6
CONTINUOUS
 90
13
 70
0
 10
7.2293696815
 20
20.1171572875
 10
7.2274017151
 20
20.1352963416
 10
7.2221423768
 20
20.1531896548
 10
7.2136494171
 20
20.1705357589
 10
7.2020236077
 20
20.1870530906
 10
7.1874402364
 20
20.2024368699
 10
7.170174151
 20
20.2163768226
 10
7.1505322297
 20
20.2286273937
 10
7.128834401
 20
20.2389909837
 10
7.1054631376
 20
20.2472862956
 10
7.0808217567
 20
20.2533749129
 10
7.0553235464
 20
20.257159202
 10
7.0294001425
 20
20.2585786438
  0
LINE
  5
551
100
AcDbEntity
  8
0
100
AcDbLine
 62
7
  6
CONTINUOUS
 10
8.9531377807
 20
14.8930422708
 11
8.9367667168
 21
15.0700545654
  0
LINE
  5
552
100
AcDbEntity
  8
0
100
AcDbLine
 62
7
  6
CONTINUOUS
 10
8.9531377807
 20
18.3892904565
 11
8.9367667168
 21
18.5663030192
  0
LWPOLYLINE
  5
553
100
AcDbEntity
  8
RACCORDO
100
AcDbPolyline
 62
250
  6
CONTINUOUS
 90
19
 70
0
 10
9.7900344904
 20
7.3240686345
 10
9.7888066791
 20
7.3410972851
 10
9.7855291054
 20
7.3581035306
 10
9.7802017692
 20
7.3749589942
 10
9.7727738898
 20
7.3915454569
 10
9.763296248
 20
7.4077165507
 10
9.7519211863
 20
7.423303321
 10
9.7385531561
 20
7.4381978586
 10
9.7232877059
 20
7.4522545711
 10
9.7065638241
 20
7.4652749523
 10
9.6883898952
 20
7.4771334401
 10
9.6687575346
 20
7.4877880311
 10
9.6480805777
 20
7.4971892977
 10
9.6262358377
 20
7.5052993561
 10
9.6033465014
 20
7.512012954
 10
9.5801959635
 20
7.5172313682
 10
9.5570453556
 20
7.5209522339
 10
9.5336335462
 20
7.5232180212
 10
9.5099605353
 20
7.5240610192
  0
LWPOLYLINE
  5
554
100
AcDbEntity
  8
RACCORDO
100
AcDbPolyline
 62
250
  6
CONTINUOUS
 90
13
 70
0
 10
9.2122871968
 20
7.31242523
 10
9.2106123657
 20
7.3384803371
 10
9.2057625805
 20
7.3640913121
 10
9.1978205119
 20
7.3888216045
 10
9.186921539
 20
7.4122496774
 10
9.1732514434
 20
7.4339761889
 10
9.1570432442
 20
7.4536308
 10
9.1385732232
 20
7.4708784917
 10
9.1181562113
 20
7.4854252767
 10
9.0961402246
 20
7.4970232056
 10
9.0729005345
 20
7.5054745919
 10
9.0488332721
 20
7.5106353825
 10
9.0243486726
 20
7.5124176146
  0
LWPOLYLINE
  5
555
100
AcDbEntity
  8
0
100
AcDbPolyline
 62
7
  6
CONTINUOUS
 90
13
 70
0
 10
9.1741473444
 20
14.1890859649
 10
9.1727744342
 20
14.21269601
 10
9.1695815705
 20
14.2351576209
 10
9.1645687533
 20
14.2564708021
 10
9.1576234515
 20
14.2765638663
 10
9.1488581962
 20
14.295508509
 10
9.1386105807
 20
14.3135198075
 10
9.1268192938
 20
14.3306882605
 10
9.1135456468
 20
14.3469233748
 10
9.0993111666
 20
14.3621687399
 10
9.0842896955
 20
14.376405554
 10
9.0683073911
 20
14.3896526239
 10
9.0513642535
 20
14.4019099519
  0
LWPOLYLINE
  5
556
100
AcDbEntity
  8
0
100
AcDbPolyline
 62
7
  6
CONTINUOUS
 90
10
 70
0
 10
9.1741473444
 20
16.5096861765
 10
9.1732459844
 20
16.5371481618
 10
9.1700559111
 20
16.5639522751
 10
9.1645771247
 20
16.59009852
 10
9.156783031
 20
16.6157445018
 10
9.1467002241
 20
16.6407326212
 10
9.1344084859
 20
16.6645900771
 10
9.1199344104
 20
16.6871592737
 10
9.1032514035
 20
16.7085978178
 10
9.0843594653
 20
16.7289057141
  0
LWPOLYLINE
  5
557
100
AcDbEntity
  8
0
100
AcDbPolyline
 62
7
  6
CONTINUOUS
 90
10
 70
0
 10
9.1741473444
 20
17.6751022384
 10
9.1732460679
 20
17.7025637849
 10
9.1700560864
 20
17.7293675745
 10
9.1645773998
 20
17.7555136107
 10
9.1567834529
 20
17.7811595004
 10
9.146700801
 20
17.8061476433
 10
9.1344091097
 20
17.8300052351
 10
9.1199349343
 20
17.8525746793
 10
9.1032517195
 20
17.8740135841
 10
9.0843594653
 20
17.8943219548
  0
LWPOLYLINE
  5
558
100
AcDbEntity
  8
0
100
AcDbPolyline
 62
7
  6
CONTINUOUS
 90
10
 70
0
 10
8.6287858218
 20
15.3545020267
 10
8.627951083
 20
15.3811174844
 10
8.6248389405
 20
15.4070228042
 10
8.6194493943
 20
15.4322179897
 10
8.6117646127
 20
15.45685934
 10
8.6018024275
 20
15.4807905619
 10
8.5896163329
 20
15.5035427719
 10
8.5752241605
 20
15.5249596795
 10
8.5586080788
 20
15.5451975853
 10
8.5397680879
 20
15.5642564937
  0
LWPOLYLINE
  5
559
100
AcDbEntity
  8
0
100
AcDbPolyline
 62
7
  6
CONTINUOUS
 90
10
 70
0
 10
8.6287858218
 20
18.8507502124
 10
8.6279513383
 20
18.8773642374
 10
8.6248394756
 20
18.9032684901
 10
8.6194502338
 20
18.9284629747
 10
8.6117658991
 20
18.9531040035
 10
8.6018041853
 20
18.9770352716
 10
8.5896182332
 20
18.9997878594
 10
8.5752257564
 20
19.0212054655
 10
8.5586090413
 20
19.0414444037
 10
8.5397680879
 20
19.0605046794
  0
LWPOLYLINE
  5
55A
100
AcDbEntity
  8
0
100
AcDbPolyline
 62
7
  6
CONTINUOUS
 90
7
 70
0
 10
9.1741473444
 20
15.3186902449
 10
9.1734545814
 20
15.3451492286
 10
9.1704716884
 20
15.3709307174
 10
9.1651986652
 20
15.3960347143
 10
9.1576355119
 20
15.4204612225
 10
9.1477822285
 20
15.444210245
 10
9.135638815
 20
15.4672817848
  0
LWPOLYLINE
  5
55B
100
AcDbEntity
  8
0
100
AcDbPolyline
 62
7
  6
CONTINUOUS
 90
7
 70
0
 10
9.1741473444
 20
18.8149384305
 10
9.1734547422
 20
18.8413967986
 10
9.1704719483
 20
18.8671779186
 10
9.1651989625
 20
18.8922817945
 10
9.1576357848
 20
18.91670843
 10
9.1477824154
 20
18.940457829
 10
9.1356388541
 20
18.963529995
  0
LWPOLYLINE
  5
55C
100
AcDbEntity
  8
0
100
AcDbPolyline
 62
7
  6
CONTINUOUS
 90
16
 70
0
 10
8.5694406509
 20
16.5250341341
 10
8.5696371542
 20
16.5161783094
 10
8.570040008
 20
16.5073658574
 10
8.5706492123
 20
16.4985967782
 10
8.571485451
 20
16.4898704852
 10
8.5725280402
 20
16.4811875651
 10
8.5737149282
 20
16.4725497781
 10
8.5750353842
 20
16.4639696163
 10
8.5765001389
 20
16.4554345877
 10
8.5780793339
 20
16.4469089755
 10
8.5797627756
 20
16.4384102443
 10
8.5815606575
 20
16.4299209296
 10
8.5834737008
 20
16.4213529207
 10
8.5855021458
 20
16.4126768474
 10
8.5876457522
 20
16.4039220797
 10
8.5899045199
 20
16.3950886175
  0
LWPOLYLINE
  5
55D
100
AcDbEntity
  8
0
100
AcDbPolyline
 62
7
  6
CONTINUOUS
 90
16
 70
0
 10
8.5694406509
 20
17.690450196
 10
8.5696371523
 20
17.681594402
 10
8.5700400039
 20
17.6727819758
 10
8.5706492056
 20
17.6640129174
 10
8.5714854411
 20
17.6552866403
 10
8.5725280268
 20
17.6466037312
 10
8.573714912
 20
17.6379659508
 10
8.5750353658
 20
17.6293857913
 10
8.5765001192
 20
17.6208507607
 10
8.5780793136
 20
17.6123251428
 10
8.579762756
 20
17.6038264022
 10
8.5815606395
 20
17.5953370743
 10
8.5834736855
 20
17.5867690492
 10
8.5855021345
 20
17.5780929568
 10
8.587645746
 20
17.5693381669
 10
8.5899045199
 20
17.5605046794
  0
LWPOLYLINE
  5
55E
100
AcDbEntity
  8
RACCORDO
100
AcDbPolyline
 62
250
  6
CONTINUOUS
 90
19
 70
0
 10
9.6021053835
 20
7.3217718508
 10
9.6017560026
 20
7.3388570845
 10
9.6007234118
 20
7.3559413752
 10
9.5989972628
 20
7.3728949637
 10
9.5965871233
 20
7.3896005836
 10
9.5934934019
 20
7.4059072349
 10
9.5897199095
 20
7.4216366012
 10
9.5853386073
 20
7.4366786249
 10
9.580377596
 20
7.4508877179
 10
9.5748245318
 20
7.4640604629
 10
9.5688114076
 20
7.4760698321
 10
9.5624133081
 20
7.4868749479
 10
9.5555570788
 20
7.4964249858
 10
9.5483250461
 20
7.5046830437
 10
9.5408506599
 20
7.5115409302
 10
9.53315612
 20
7.5168929217
 10
9.5253427196
 20
7.5207352829
 10
9.5175700985
 20
7.5231135629
 10
9.509957789
 20
7.5240610023
  0
LINE
  5
55F
100
AcDbEntity
  8
RACCORDO
100
AcDbLine
 62
250
  6
CONTINUOUS
 10
8.9303794106
 20
-13.7118434042
 11
8.9303794106
 21
-12.8898867382
  0
LINE
  5
560
100
AcDbEntity
  8
RACCORDO
100
AcDbLine
 62
250
  6
CONTINUOUS
 10
8.9303794106
 20
6.6898867382
 11
8.9303794106
 21
7.5118434042
  0
LINE
  5
561
100
AcDbEntity
  8
RACCORDO
100
AcDbLine
 62
250
  6
CONTINUOUS
 10
9.2122871968
 20
-13.51242523
 11
9.2122871968
 21
-12.8881641073
  0
LINE
  5
562
100
AcDbEntity
  8
RACCORDO
100
AcDbLine
 62
250
  6
CONTINUOUS
 10
9.2122871968
 20
6.6881641073
 11
9.2122871968
 21
7.31242523
  0
LINE
  5
563
100
AcDbEntity
  8
0
100
AcDbLine
 62
7
  6
CONTINUOUS
 10
9.5
 20
2.05
 11
9.5
 21
-10.45
  0
LINE
  5
564
100
AcDbEntity
  8
DRAFT
100
AcDbLine
 62
7
  6
CONTINUOUS
 10
9.5810577445
 20
6.6
 11
9.5810577445
 21
-0.8
  0
LINE
  5
565
100
AcDbEntity
  8
DRAFT
100
AcDbLine
 62
7
  6
CONTINUOUS
 10
9.5810577445
 20
-1.8
 11
9.5810577445
 21
-8.5
  0
LINE
  5
566
100
AcDbEntity
  8
DRAFT
100
AcDbLine
 62
7
  6
CONTINUOUS
 10
9.5810577445
 20
-9.5
 11
9.5810577445
 21
-12.8
  0
LINE
  5
567
100
AcDbEntity
  8
RACCORDO
100
AcDbLine
 62
250
  6
CONTINUOUS
 10
9.6021029835
 20
-13.5217717933
 11
9.6021029835
 21
-12.878817544
  0
LINE
  5
568
100
AcDbEntity
  8
RACCORDO
100
AcDbLine
 62
250
  6
CONTINUOUS
 10
9.6021029835
 20
-9.421182456
 11
9.6021029835
 21
-8.578817544
  0
LINE
  5
569
100
AcDbEntity
  8
RACCORDO
100
AcDbLine
 62
250
  6
CONTINUOUS
 10
9.6021029835
 20
-1.721182456
 11
9.6021029835
 21
-0.878817544
  0
LINE
  5
56A
100
AcDbEntity
  8
RACCORDO
100
AcDbLine
 62
250
  6
CONTINUOUS
 10
9.6021029835
 20
6.678817544
 11
9.6021029835
 21
7.3217717933
  0
LINE
  5
56B
100
AcDbEntity
  8
DRAFT
100
AcDbLine
 62
7
  6
CONTINUOUS
 10
9.65
 20
20.9
 11
9.65
 21
7.5310577445
  0
LINE
  5
56C
100
AcDbEntity
  8
DRAFT
100
AcDbLine
 62
7
  6
CONTINUOUS
 10
9.65
 20
-13.7310577445
 11
9.65
 21
-20.9
  0
LINE
  5
56D
100
AcDbEntity
  8
DRAFT
100
AcDbLine
 62
7
  6
CONTINUOUS
 10
9.6587268678
 20
-12.8776691233
 11
9.6587268678
 21
-9.4223308767
  0
LINE
  5
56E
100
AcDbEntity
  8
DRAFT
100
AcDbLine
 62
7
  6
CONTINUOUS
 10
9.6587268678
 20
-8.5776691233
 11
9.6587268678
 21
-1.7223308767
  0
LINE
  5
56F
100
AcDbEntity
  8
DRAFT
100
AcDbLine
 62
7
  6
CONTINUOUS
 10
9.6587268678
 20
-0.8776691233
 11
9.6587268678
 21
6.6776691233
  0
LINE
  5
570
100
AcDbEntity
  8
RACCORDO
100
AcDbLine
 62
250
  6
CONTINUOUS
 10
9.7900415076
 20
-13.5240686345
 11
9.7900415076
 21
-12.8776691233
  0
LINE
  5
571
100
AcDbEntity
  8
RACCORDO
100
AcDbLine
 62
250
  6
CONTINUOUS
 10
9.7900415076
 20
-9.4223308767
 11
9.7900415076
 21
-8.5776691233
  0
LINE
  5
572
100
AcDbEntity
  8
RACCORDO
100
AcDbLine
 62
250
  6
CONTINUOUS
 10
9.7900415076
 20
-1.7223308767
 11
9.7900415076
 21
-0.8776691233
  0
LINE
  5
573
100
AcDbEntity
  8
RACCORDO
100
AcDbLine
 62
250
  6
CONTINUOUS
 10
9.7900415076
 20
6.6776691233
 11
9.7900415076
 21
7.3240686345
  0
LINE
  5
574
100
AcDbEntity
  8
RACCORDO
100
AcDbLine
 62
250
  6
CONTINUOUS
 10
10.25
 20
-13.5240686345
 11
10.2500000001
 21
-13.7240610192
  0
LINE
  5
575
100
AcDbEntity
  8
RACCORDO
100
AcDbLine
 62
250
  6
CONTINUOUS
 10
10.25
 20
7.3240686345
 11
10.25
 21
7.5240610192
  0
LINE
  5
576
100
AcDbEntity
  8
RACCORDO
100
AcDbLine
 62
250
  6
CONTINUOUS
 10
10.55
 20
-13.224057211
 11
10.55
 21
7.024057211
  0
LWPOLYLINE
  5
577
100
AcDbEntity
  8
0
100
AcDbPolyline
 62
7
  6
CONTINUOUS
 90
10
 70
0
 10
9.3255798083
 20
18.8108457372
 10
9.3248267291
 20
18.7748339736
 10
9.3216107709
 20
18.7396524912
 10
9.3159319338
 20
18.7053012966
 10
9.3078460873
 20
18.6715406349
 10
9.2972973619
 20
18.6386102729
 10
9.2841181483
 20
18.6072295055
 10
9.2682525766
 20
18.5776381071
 10
9.2497565167
 20
18.549596326
 10
9.2286299686
 20
18.5231041718
  0
LWPOLYLINE
  5
578
100
AcDbEntity
  8
0
100
AcDbPolyline
 62
7
  6
CONTINUOUS
 90
10
 70
0
 10
9.3255798083
 20
15.3145975515
 10
9.3248268981
 20
15.2785868623
 10
9.3216110847
 20
15.2434061147
 10
9.3159323681
 20
15.2090553141
 10
9.3078466421
 20
15.1752946055
 10
9.2972980128
 20
15.1423638538
 10
9.284118799
 20
15.1109826483
 10
9.2682531068
 20
15.0813908601
 10
9.24975683
 20
15.0533486366
 10
9.2286299687
 20
15.0268559859
  0
LWPOLYLINE
  5
579
100
AcDbEntity
  8
0
100
AcDbPolyline
 62
7
  6
CONTINUOUS
 90
10
 70
0
 10
9.3266030012
 20
17.674079065
 10
9.3256519302
 20
17.6335480678
 10
9.3217044917
 20
17.5938119318
 10
9.3147606857
 20
17.5548706641
 10
9.3048559234
 20
17.5164478333
 10
9.2919547937
 20
17.4788198828
 10
9.2759510627
 20
17.4428161378
 10
9.2568093194
 20
17.4087130513
 10
9.2345649748
 20
17.3762341961
 10
9.209218029
 20
17.3453795834
  0
LWPOLYLINE
  5
57A
100
AcDbEntity
  8
0
100
AcDbPolyline
 62
7
  6
CONTINUOUS
 90
10
 70
0
 10
9.3266030012
 20
16.5086630031
 10
9.3256519727
 20
16.468132235
 10
9.3217045686
 20
16.4283962447
 10
9.314760789
 20
16.3894550389
 10
9.3048560453
 20
16.3510321524
 10
9.2919549261
 20
16.3134040616
 10
9.2759511972
 20
16.2774001912
 10
9.2568094471
 20
16.2432970265
 10
9.2345650872
 20
16.2108181064
 10
9.2092181177
 20
16.1799634413
  0
LWPOLYLINE
  5
57B
100
AcDbEntity
  8
0
100
AcDbPolyline
 62
7
  6
CONTINUOUS
 90
10
 70
0
 10
9.3255798083
 20
14.1890859649
 10
9.324482379
 20
14.1451354801
 10
9.3193510494
 20
14.1023694403
 10
9.3101858195
 20
14.0607878543
 10
9.2969915373
 20
14.019953209
 10
9.2797633548
 20
13.9803030326
 10
9.2584867284
 20
13.9431499047
 10
9.2331568101
 20
13.9089313657
 10
9.203778448
 20
13.8772099074
 10
9.1703516419
 20
13.8479855431
  0
LWPOLYLINE
  5
57C
100
AcDbEntity
  8
RACCORDO
100
AcDbPolyline
 62
250
  6
CONTINUOUS
 90
13
 70
0
 10
9.2122871968
 20
-13.51242523
 10
9.2106123741
 20
-13.5384802728
 10
9.2057626103
 20
-13.5640911968
 10
9.1978205718
 20
-13.5888214533
 10
9.1869216337
 20
-13.6122495048
 10
9.173251573
 20
-13.6339760108
 10
9.1570434013
 20
-13.6536306339
 10
9.1385733937
 20
-13.6708783531
 10
9.118156379
 20
-13.685425174
 10
9.0961403736
 20
-13.69702314
 10
9.0729006492
 20
-13.7054745591
 10
9.0488333365
 20
-13.7106353733
 10
9.0243486726
 20
-13.7124176146
  0
LINE
  5
57D
100
AcDbEntity
  8
RACCORDO
100
AcDbLine
 62
7
  6
CONTINUOUS
 10
-6.6558702077
 20
-20.5728350282
 11
-6.5168765708
 21
-20.4338413913
  0
LINE
  5
57E
100
AcDbEntity
  8
RACCORDO
100
AcDbLine
 62
7
  6
CONTINUOUS
 10
-6.9101323002
 20
9.5101132618
 11
-6.7139945176
 21
9.5101132618
  0
LINE
  5
57F
100
AcDbEntity
  8
RACCORDO
100
AcDbLine
 62
7
  6
CONTINUOUS
 10
6.7139945176
 20
9.5101132618
 11
6.9101323002
 21
9.5101132618
  0
LINE
  5
580
100
AcDbEntity
  8
DRAFT
100
AcDbLine
 62
7
  6
CONTINUOUS
 10
6.5
 20
9.5188401295
 11
-6.5
 21
9.5188401295
  0
LINE
  5
581
100
AcDbEntity
  8
RACCORDO
100
AcDbLine
 62
7
  6
CONTINUOUS
 10
-7.0000849512
 20
9.6000659127
 11
-5.5000659127
 21
9.6000659127
  0
LINE
  5
582
100
AcDbEntity
  8
DRAFT
100
AcDbLine
 62
7
  6
CONTINUOUS
 10
-4.4999340873
 20
9.6000659127
 11
4.4999340873
 21
9.6000659127
  0
LINE
  5
583
100
AcDbEntity
  8
RACCORDO
100
AcDbLine
 62
7
  6
CONTINUOUS
 10
5.5000659127
 20
9.6000659127
 11
7.0000849512
 21
9.6000659127
  0
LWPOLYLINE
  5
584
100
AcDbEntity
  8
RACCORDO
100
AcDbPolyline
 62
7
  6
CONTINUOUS
 90
16
 70
0
 10
7.0000849512
 20
9.6000659127
 10
7.0521724765
 20
9.5973460943
 10
7.1037764834
 20
9.5891983754
 10
7.1543295652
 20
9.5756856248
 10
7.2033392262
 20
9.5569001772
 10
7.2501832706
 20
9.5330395935
 10
7.2941514538
 20
9.5044748448
 10
7.3346510068
 20
9.4716761142
 10
7.3714240221
 20
9.4349437147
 10
7.4042882036
 20
9.3944511555
 10
7.4329455248
 20
9.35042829
 10
7.4568970634
 20
9.3034821851
 10
7.4757356198
 20
9.2543916914
 10
7.4892678677
 20
9.2038102614
 10
7.4974224372
 20
9.152212196
 10
7.5001477533
 20
9.1001667918
  0
LWPOLYLINE
  5
585
100
AcDbEntity
  8
RACCORDO
100
AcDbPolyline
 62
250
  6
CONTINUOUS
 90
8
 70
0
 10
-7.1563704044
 20
18.541329332
 10
-7.1760364792
 20
18.5585786439
 10
-7.1932831638
 20
18.5782477143
 10
-7.2078153628
 20
18.6000000001
 10
-7.2193844262
 20
18.6234633136
 10
-7.2277924042
 20
18.648236191
 10
-7.2328954339
 20
18.6738947616
 10
-7.234606201
 20
18.7
  0
LINE
  5
586
100
AcDbEntity
  8
RACCORDO
100
AcDbLine
 62
7
  6
CONTINUOUS
 10
8.4127084755
 20
4.6872915245
 11
8.5
 21
4.6
  0
LINE
  5
587
100
AcDbEntity
  8
RACCORDO
100
AcDbLine
 62
7
  6
CONTINUOUS
 10
-6.5168765708
 20
20.4338413913
 11
-6.6558702077
 21
20.5728350282
  0
LINE
  5
588
100
AcDbEntity
  8
RACCORDO
100
AcDbLine
 62
7
  6
CONTINUOUS
 10
4.4999340873
 20
9.6000659127
 11
4.5743642455
 21
9.5256357545
  0
LINE
  5
589
100
AcDbEntity
  8
RACCORDO
100
AcDbLine
 62
250
  6
CONTINUOUS
 10
6.3140554395
 20
8.5859750215
 11
6.300030461
 21
8.6
  0
LWPOLYLINE
  5
58A
100
AcDbEntity
  8
RACCORDO
100
AcDbPolyline
 62
7
  6
CONTINUOUS
 90
19
 70
0
 10
10.75
 20
7.024057211
 10
10.7486300981
 20
7.061044344
 10
10.7442725577
 20
7.0995206378
 10
10.7365593823
 20
7.1392100207
 10
10.7250499121
 20
7.1800314083
 10
10.7094500212
 20
7.2213039442
 10
10.6898469715
 20
7.2618291673
 10
10.6661905228
 20
7.3011611867
 10
10.6384635225
 20
7.3388549279
 10
10.6072469612
 20
7.3738806997
 10
10.5727747775
 20
7.4059193011
 10
10.5353406493
 20
7.4346461501
 10
10.4959789836
 20
7.4593700024
 10
10.4552051114
 20
7.4800111818
 10
10.4133830561
 20
7.4966134187
 10
10.3715003629
 20
7.5090739582
 10
10.3301706411
 20
7.5175918031
 10
10.2895671018
 20
7.5224930126
 10
10.25
 20
7.5240610192
  0
LWPOLYLINE
  5
58B
100
AcDbEntity
  8
RACCORDO
100
AcDbPolyline
 62
250
  6
CONTINUOUS
 90
19
 70
0
 10
10.55
 20
7.024057211
 10
10.5495299282
 20
7.0465964523
 10
10.5468403667
 20
7.0696335728
 10
10.5419313155
 20
7.0931685728
 10
10.5348604195
 20
7.1176029661
 10
10.5255700337
 20
7.1425352388
 10
10.5138872237
 20
7.1667608486
 10
10.4995934089
 20
7.1902335792
 10
10.4829071699
 20
7.2129996469
 10
10.464311314
 20
7.2339931583
 10
10.4436232183
 20
7.2530632014
 10
10.4210255056
 20
7.2703606882
 10
10.3975488516
 20
7.2852724607
 10
10.373177278
 20
7.2975699905
 10
10.347926763
 20
7.3074818061
 10
10.3228759167
 20
7.3150803355
 10
10.2983842758
 20
7.3203897214
 10
10.2740923036
 20
7.323385821
 10
10.25
 20
7.3240686345
  0
LINE
  5
58C
100
AcDbEntity
  8
RACCORDO
100
AcDbLine
 62
7
  6
CONTINUOUS
 10
10.75
 20
-13.224057211
 11
10.75
 21
7.024057211
  0
LINE
  5
58D
100
AcDbEntity
  8
0
100
AcDbLine
 62
7
  6
CONTINUOUS
 10
11.15
 20
-21.8997711479
 11
11.15
 21
21.8997711479
  0
LWPOLYLINE
  5
58E
100
AcDbEntity
  8
RACCORDO
100
AcDbPolyline
 62
7
  6
CONTINUOUS
 90
6
 70
0
 10
-7.1443368137
 20
-18.5327809516
 10
-7.1346214315
 20
-18.5267949192
 10
-7.1111616916
 20
-18.5152240935
 10
-7.0863925871
 20
-18.5068148347
 10
-7.0607379245
 20
-18.5017110277
 10
-7.034636662
 20
-18.5
  0
LWPOLYLINE
  5
58F
100
AcDbEntity
  8
0
100
AcDbPolyline
 62
7
  6
CONTINUOUS
 90
19
 70
0
 10
8.2062073366
 20
14.6444065387
 10
8.2256356487
 20
14.6490007997
 10
8.2451297635
 20
14.6531789971
 10
8.264689681
 20
14.656941131
 10
8.2843309724
 20
14.6602527746
 10
8.3040380665
 20
14.6631483553
 10
8.3237642493
 20
14.6657311548
 10
8.3435024966
 20
14.6680122894
 10
8.3632598326
 20
14.6699806432
 10
8.3830106159
 20
14.6717061496
 10
8.4027490625
 20
14.6731956426
 10
8.4224809564
 20
14.6744422885
 10
8.442198008
 20
14.6754955194
 10
8.461895237
 20
14.6763599653
 10
8.4815776237
 20
14.6770309964
 10
8.5012518195
 20
14.6775441549
 10
8.5209200414
 20
14.6779112882
 10
8.5405800722
 20
14.678120549
 10
8.5602319121
 20
14.6781719372
  0
LINE
  5
590
100
AcDbEntity
  8
0
100
AcDbLine
 62
7
  6
CONTINUOUS
 10
1.850359
 20
11.393697
 11
3.350368
 21
11.393697
  0
LINE
  5
591
100
AcDbEntity
  8
0
100
AcDbLine
 62
7
  6
CONTINUOUS
 10
2.14659
 20
11.582765
 11
3.350368
 21
11.582765
  0
LINE
  5
592
100
AcDbEntity
  8
0
100
AcDbLine
 62
7
  6
CONTINUOUS
 10
-2.051155
 20
12.335843
 11
-3.325037
 21
12.744837
  0
LINE
  5
593
100
AcDbEntity
  8
0
100
AcDbLine
 62
7
  6
CONTINUOUS
 10
-1.474954
 20
12.520852
 11
-3.325037
 21
13.114855
  0
LINE
  5
594
100
AcDbEntity
  8
RACCORDO
100
AcDbLine
 62
7
  6
CONTINUOUS
 10
6.5140249785
 20
9.5118281743
 11
6.5
 21
9.5188401295
  0
LINE
  5
595
100
AcDbEntity
  8
RACCORDO
100
AcDbLine
 62
250
  6
CONTINUOUS
 10
-7.1457306125
 20
18.5337039572
 11
-7.1563704044
 21
18.541329332
  0
LINE
  5
596
100
AcDbEntity
  8
DRAFT
100
AcDbLine
 62
7
  6
CONTINUOUS
 10
8.4101132618
 20
6.6898867382
 11
8.5
 21
6.6
  0
LINE
  5
597
100
AcDbEntity
  8
RACCORDO
100
AcDbLine
 62
250
  6
CONTINUOUS
 10
6.5140249785
 20
8.7859445605
 11
6.5
 21
8.799969539
  0
LINE
  5
598
100
AcDbEntity
  8
DRAFT
100
AcDbLine
 62
7
  6
CONTINUOUS
 10
9.65
 20
7.5310577445
 11
9.5806907165
 21
7.6003670279
  0
LINE
  5
599
100
AcDbEntity
  8
0
100
AcDbLine
 62
7
  6
CONTINUOUS
 10
8.9040245444
 20
16.0318554685
 11
8.8794679374
 21
16.2160300657
  0
LINE
  5
59A
100
AcDbEntity
  8
0
100
AcDbLine
 62
7
  6
CONTINUOUS
 10
8.9040245444
 20
17.1972713515
 11
8.8794679374
 21
17.3814461276
  0
LINE
  5
59B
100
AcDbEntity
  8
DRAFT
100
AcDbLine
 62
7
  6
CONTINUOUS
 10
7.5153129787
 20
-20.5028438891
 11
7.3830351795
 21
-20.9
  0
LINE
  5
59C
100
AcDbEntity
  8
DRAFT
100
AcDbLine
 62
7
  6
CONTINUOUS
 10
9.6587268678
 20
-9.4223308767
 11
9.5810577445
 21
-9.5
  0
LWPOLYLINE
  5
59D
100
AcDbEntity
  8
0
100
AcDbPolyline
 62
7
  6
CONTINUOUS
 90
19
 70
0
 10
8.8794679374
 20
16.2160300657
 10
8.8947956809
 20
16.2191840473
 10
8.9097445666
 20
16.2225831987
 10
8.9243145944
 20
16.2262275199
 10
8.9384783798
 20
16.2300997583
 10
8.9522633073
 20
16.2342171662
 10
8.9657515304
 20
16.2386315004
 10
8.9789462508
 20
16.2433269551
 10
8.9918442668
 20
16.2483193357
 10
9.004518127
 20
16.2537078158
 10
9.0170142321
 20
16.259494871
 10
9.0292861813
 20
16.265678025
 10
9.0412673207
 20
16.2723490224
 10
9.0529843361
 20
16.2795139239
 10
9.0644105416
 20
16.2871666675
 10
9.0753992267
 20
16.2953808147
 10
9.0859014879
 20
16.3041808851
 10
9.0959662286
 20
16.3135423572
 10
9.105593449
 20
16.3234652298
  0
LWPOLYLINE
  5
59E
100
AcDbEntity
  8
0
100
AcDbPolyline
 62
7
  6
CONTINUOUS
 90
26
 70
0
 10
5.5319929997
 20
15.0210770037
 10
5.5534273641
 20
15.0251707758
 10
5.5744875937
 20
15.0303753291
 10
5.5951736887
 20
15.0366906625
 10
5.6156952122
 20
15.0440326391
 10
5.635842601
 20
15.052485393
 10
5.6549871651
 20
15.0623013294
 10
5.6730736519
 20
15.0734440084
 10
5.690157314
 20
15.0859498647
 10
5.70577522
 20
15.1001806134
 10
5.7198951106
 20
15.1162340728
 10
5.7325492451
 20
15.1340124148
 10
5.7433714691
 20
15.1535838833
 10
5.7523630923
 20
15.1750737507
 10
5.7595228051
 20
15.1983567306
 10
5.7644805249
 20
15.2231252289
 10
5.7673126779
 20
15.249636501
 10
5.7679428378
 20
15.2776332764
 10
5.7657716429
 20
15.3060361778
 10
5.7607257222
 20
15.3349793894
 10
5.7528784467
 20
15.3643287219
 10
5.7418505673
 20
15.392602252
 10
5.7269961185
 20
15.4197963528
 10
5.7089610658
 20
15.445914662
 10
5.689304057
 20
15.4694861675
 10
5.6680803331
 20
15.4899258358
  0
LWPOLYLINE
  5
59F
100
AcDbEntity
  8
0
100
AcDbPolyline
 62
7
  6
CONTINUOUS
 90
16
 70
0
 10
8.9367667168
 20
15.0700545654
 10
8.9513096393
 20
15.0727067454
 10
8.9654876441
 20
15.0757064569
 10
8.9793007313
 20
15.0790536997
 10
8.9927271548
 20
15.0827196377
 10
9.0057886607
 20
15.0867331065
 10
9.0185504873
 20
15.0911806135
 10
9.0310321785
 20
15.0960431891
 10
9.0432141905
 20
15.1013398021
 10
9.0551031295
 20
15.1072138667
 10
9.066770773
 20
15.1136888253
 10
9.0781453435
 20
15.1207412342
 10
9.0890181157
 20
15.1284441788
 10
9.0993195144
 20
15.1368220202
 10
9.1091191146
 20
15.1458503953
 10
9.1184169166
 20
15.1555293031
  0
LWPOLYLINE
  5
5A0
100
AcDbEntity
  8
0
100
AcDbPolyline
 62
7
  6
CONTINUOUS
 90
21
 70
0
 10
5.1798169844
 20
13.8465658242
 10
5.2031583616
 20
13.8468194012
 10
5.2264955236
 20
13.8472897423
 10
5.2498293774
 20
13.8479535115
 10
5.2731590159
 20
13.8488340449
 10
5.2964817178
 20
13.8500013504
 10
5.3197947244
 20
13.8514562331
 10
5.3431007942
 20
13.8531978878
 10
5.3664054819
 20
13.8552939067
 10
5.3896939975
 20
13.8577356178
 10
5.412981131
 20
13.8605316929
 10
5.436316806
 20
13.8637757393
 10
5.4597108402
 20
13.867355663
 10
5.4831534159
 20
13.8713835577
 10
5.5066650035
 20
13.8762893118
 10
5.5303530657
 20
13.8819365483
 10
5.5541101397
 20
13.8884616428
 10
5.5776343082
 20
13.8967036108
 10
5.6008249319
 20
13.9069421218
 10
5.6237826501
 20
13.9188975007
 10
5.6465074628
 20
13.932569744
  0
LWPOLYLINE
  5
5A1
100
AcDbEntity
  8
0
100
AcDbPolyline
 62
7
  6
CONTINUOUS
 90
25
 70
0
 10
8.5602319121
 20
13.8892905906
 10
8.5872985095
 20
13.8894246472
 10
8.6133804198
 20
13.8897701868
 10
8.6384776431
 20
13.8903272094
 10
8.6624970513
 20
13.8910986294
 10
8.6855317725
 20
13.8920815323
 10
8.7078611911
 20
13.8932671744
 10
8.7294871864
 20
13.8946441956
 10
8.7504078791
 20
13.8962239559
 10
8.7708970166
 20
13.8980317914
 10
8.7909655676
 20
13.9000518012
 10
8.8106025633
 20
13.9022998861
 10
8.8300488441
 20
13.9048490851
 10
8.8493390415
 20
13.9076785369
 10
8.8684385239
 20
13.9108091026
 10
8.8874842373
 20
13.914376405
 10
8.9065496251
 20
13.9183578916
 10
8.9255612439
 20
13.9227761145
 10
8.9444357096
 20
13.9278343525
 10
8.9632284897
 20
13.9334815451
 10
8.9818841166
 20
13.9397687519
 10
9.0001528036
 20
13.9470524314
 10
9.0179512885
 20
13.9554514022
 10
9.0353628335
 20
13.9648468431
 10
9.0523874386
 20
13.9752387525
  0
LINE
  5
5A2
100
AcDbEntity
  8
0
100
AcDbLine
 62
7
  6
CONTINUOUS
 10
1.850359
 20
12.400016
 11
3.066765
 21
12.400016
  0
LINE
  5
5A3
100
AcDbEntity
  8
0
100
AcDbLine
 62
7
  6
CONTINUOUS
 10
1.850359
 20
12.589099
 11
3.350368
 21
12.589099
  0
LINE
  5
5A4
100
AcDbEntity
  8
RACCORDO
100
AcDbLine
 62
7
  6
CONTINUOUS
 10
-5.3000241398
 20
12.8157624759
 11
-4.6999758602
 21
12.8157624759
  0
LINE
  5
5A5
100
AcDbEntity
  8
RACCORDO
100
AcDbLine
 62
7
  6
CONTINUOUS
 10
4.6999758602
 20
12.8157624759
 11
5.3000241398
 21
12.8157624759
  0
LINE
  5
5A6
100
AcDbEntity
  8
0
100
AcDbLine
 62
7
  6
CONTINUOUS
 10
1.850359
 20
13.007122
 11
3.350368
 21
13.007122
  0
LINE
  5
5A7
100
AcDbEntity
  8
0
100
AcDbLine
 62
7
  6
CONTINUOUS
 10
2.018425
 20
13.206714
 11
2.49532
 21
13.206714
  0
LINE
  5
5A8
100
AcDbEntity
  8
0
100
AcDbLine
 62
7
  6
CONTINUOUS
 10
2.663401
 20
13.206714
 11
3.182302
 21
13.206714
  0
LINE
  5
5A9
100
AcDbEntity
  8
0
100
AcDbLine
 62
7
  6
CONTINUOUS
 10
-3.325037
 20
13.361529
 11
-1.474949
 21
13.361525
  0
LINE
  5
5AA
100
AcDbEntity
  8
0
100
AcDbLine
 62
7
  6
CONTINUOUS
 10
-3.325037
 20
13.731543
 11
-1.474954
 21
13.731539
  0
LINE
  5
5AB
100
AcDbEntity
  8
0
100
AcDbLine
 62
7
  6
CONTINUOUS
 10
2.49532
 20
13.986125
 11
2.663401
 21
13.986125
  0
LINE
  5
5AC
100
AcDbEntity
  8
0
100
AcDbLine
 62
7
  6
CONTINUOUS
 10
1.850359
 20
14.042849
 11
2.018425
 21
14.042849
  0
LINE
  5
5AD
100
AcDbEntity
  8
0
100
AcDbLine
 62
7
  6
CONTINUOUS
 10
3.182302
 20
14.049148
 11
3.350368
 21
14.049148
  0
LINE
  5
5AE
100
AcDbEntity
  8
0
100
AcDbLine
 62
7
  6
CONTINUOUS
 10
-3.325037
 20
14.101543
 11
-1.474954
 21
14.101543
  0
LWPOLYLINE
  5
5AF
100
AcDbEntity
  8
0
100
AcDbPolyline
 62
7
  6
CONTINUOUS
 90
19
 70
0
 10
8.5602319121
 20
13.6999999981
 10
8.5362603826
 20
13.7000827916
 10
8.5123003964
 20
13.7004214711
 10
8.4883519535
 20
13.7010160366
 10
8.4644177797
 20
13.7018472032
 10
8.4404951491
 20
13.7029342557
 10
8.4165758846
 20
13.7043350489
 10
8.3926534578
 20
13.70604245
 10
8.3687343969
 20
13.7080635917
 10
8.3448301098
 20
13.7104777271
 10
8.3209266752
 20
13.7132764132
 10
8.2970380142
 20
13.7164680926
 10
8.2732172976
 20
13.7201573477
 10
8.2494559032
 20
13.7243317018
 10
8.225762453
 20
13.729003631
 10
8.2022159846
 20
13.7343151458
 10
8.1788428436
 20
13.7403135829
 10
8.1556166843
 20
13.7469516044
 10
8.1325375067
 20
13.7542292098
  0
LWPOLYLINE
  5
5B0
100
AcDbEntity
  8
0
100
AcDbPolyline
 62
7
  6
CONTINUOUS
 90
42
 70
0
 10
5.1559498262
 20
13.6587682325
 10
5.1070569575
 20
13.6589500954
 10
5.0579900023
 20
13.6605401289
 10
5.0087489606
 20
13.6635383324
 10
4.9589501534
 20
13.667753874
 10
4.9089772597
 20
13.6733775842
 10
4.8599813163
 20
13.6809819549
 10
4.8120781154
 20
13.6905740175
 10
4.7651518648
 20
13.7021467351
 10
4.7200062243
 20
13.716251494
 10
4.6767916671
 20
13.7328415753
 10
4.6353577201
 20
13.7519636851
 10
4.5960566244
 20
13.7743093434
 10
4.5585737624
 20
13.7997194387
 10
4.5232237516
 20
13.8283530572
 10
4.4913026861
 20
13.8613790052
 10
4.4625560787
 20
13.8996007541
 10
4.4372384165
 20
13.9422147765
 10
4.4174092547
 20
13.9879793774
 10
4.4037960507
 20
14.0375006801
 10
4.395671347
 20
14.0901725065
 10
4.3929123261
 20
14.1429347432
 10
4.3954544629
 20
14.1958316467
 10
4.4033622825
 20
14.2488189573
 10
4.4167065423
 20
14.2987038435
 10
4.436118055
 20
14.3448831473
 10
4.4609660079
 20
14.3879600806
 10
4.4894287203
 20
14.426551404
 10
4.5213732542
 20
14.4597861719
 10
4.5569325476
 20
14.4885353892
 10
4.594683734
 20
14.5140287418
 10
4.6343272786
 20
14.5363665135
 10
4.6761627161
 20
14.5554484473
 10
4.7196657841
 20
14.5722034055
 10
4.764896096
 20
14.5869069236
 10
4.8117940384
 20
14.5992834785
 10
4.8596565097
 20
14.6094353401
 10
4.9086379879
 20
14.6171329105
 10
4.958583995
 20
14.6226057948
 10
5.0083279944
 20
14.6266450656
 10
5.0574811409
 20
14.6295144138
 10
5.1064322798
 20
14.6309501501
  0
LWPOLYLINE
  5
5B1
100
AcDbEntity
  8
RACCORDO
100
AcDbPolyline
 62
7
  6
CONTINUOUS
 90
13
 70
0
 10
-4.6999758602
 20
12.8157624759
 10
-4.6744965068
 20
12.8140293097
 10
-4.6493117674
 20
12.8088663423
 10
-4.6248464775
 20
12.8003033263
 10
-4.6015002733
 20
12.7883850794
 10
-4.5797166019
 20
12.7732792014
 10
-4.5599546744
 20
12.755304661
 10
-4.5425923585
 20
12.7347414304
 10
-4.527906565
 20
12.7118811896
 10
-4.516145786
 20
12.6871399703
 10
-4.5075421436
 20
12.6609091392
 10
-4.5022898556
 20
12.6335600218
 10
-4.5005183986
 20
12.6055139921
  0
LWPOLYLINE
  5
5B2
100
AcDbEntity
  8
RACCORDO
100
AcDbPolyline
 62
7
  6
CONTINUOUS
 90
13
 70
0
 10
5.3000241398
 20
12.8157624759
 10
5.3255034932
 20
12.8140293097
 10
5.3506882326
 20
12.8088663423
 10
5.3751535225
 20
12.8003033263
 10
5.3984997267
 20
12.7883850794
 10
5.4202833981
 20
12.7732792014
 10
5.4400453256
 20
12.755304661
 10
5.4574076415
 20
12.7347414304
 10
5.472093435
 20
12.7118811896
 10
5.483854214
 20
12.6871399703
 10
5.4924578564
 20
12.6609091392
 10
5.4977101444
 20
12.6335600218
 10
5.4994816014
 20
12.6055139921
  0
LINE
  5
5B3
100
AcDbEntity
  8
0
100
AcDbLine
 62
7
  6
CONTINUOUS
 10
-2.120197
 20
15.006388
 11
-3.325037
 21
15.35187
  0
LWPOLYLINE
  5
5B4
100
AcDbEntity
  8
RACCORDO
100
AcDbPolyline
 62
7
  6
CONTINUOUS
 90
22
 70
0
 10
-6.6582893563
 20
20.5731858629
 10
-6.6604840487
 20
20.5745561168
 10
-6.6638174644
 20
20.578199069
 10
-6.6682896036
 20
20.5838064498
 10
-6.6740318125
 20
20.5910923324
 10
-6.6809127448
 20
20.5996995251
 10
-6.6885383612
 20
20.6091344359
 10
-6.6968644881
 20
20.6188983798
 10
-6.705935299
 20
20.6288065493
 10
-6.7154892748
 20
20.6388819844
 10
-6.7254271808
 20
20.6489332698
 10
-6.7358482518
 20
20.6588217863
 10
-6.7467886728
 20
20.6687569856
 10
-6.7583832426
 20
20.6787825169
 10
-6.7704971624
 20
20.6886536776
 10
-6.7827622208
 20
20.6981785418
 10
-6.795173684
 20
20.7072714599
 10
-6.8077362858
 20
20.7158745039
 10
-6.8200960153
 20
20.7238673744
 10
-6.832134869
 20
20.7311986846
 10
-6.8439708505
 20
20.7378753505
 10
-6.8556039598
 20
20.7438927334
  0
LWPOLYLINE
  5
5B5
100
AcDbEntity
  8
0
100
AcDbPolyline
 62
7
  6
CONTINUOUS
 90
26
 70
0
 10
5.2928369672
 20
15.5225439516
 10
5.3210419736
 20
15.4825707644
 10
5.345737355
 20
15.4384309795
 10
5.3647577883
 20
15.3919360164
 10
5.3774503724
 20
15.3427739174
 10
5.3844680085
 20
15.2912565972
 10
5.3856040775
 20
15.2401313226
 10
5.3807890617
 20
15.1896977728
 10
5.3700924789
 20
15.139656279
 10
5.3535162625
 20
15.0918551283
 10
5.3308763819
 20
15.0464847195
 10
5.3023568678
 20
15.0033546939
 10
5.2685117456
 20
14.9637422287
 10
5.2290758594
 20
14.9273449171
 10
5.1843143652
 20
14.8944652133
 10
5.1355767554
 20
14.8672876049
 10
5.0823477031
 20
14.846583248
 10
5.0251425353
 20
14.8315810379
 10
4.9668567261
 20
14.8221520741
 10
4.9073914407
 20
14.818316394
 10
4.8468455137
 20
14.8200539735
 10
4.7884109235
 20
14.8271758115
 10
4.7324711078
 20
14.8397955208
 10
4.6786426288
 20
14.8577994694
 10
4.6289671508
 20
14.8806577829
 10
4.583998338
 20
14.9085965818
  0
LINE
  5
5B6
100
AcDbEntity
  8
DRAFT
100
AcDbLine
 62
7
  6
CONTINUOUS
 10
7.5153129787
 20
20.5028438891
 11
7.3830351795
 21
20.9
  0
LINE
  5
5B7
100
AcDbEntity
  8
DRAFT
100
AcDbLine
 62
7
  6
CONTINUOUS
 10
7.5
 20
-12.8
 11
7.4825462644
 21
-12.8174537356
  0
LINE
  5
5B8
100
AcDbEntity
  8
RACCORDO
100
AcDbLine
 62
250
  6
CONTINUOUS
 10
6.3140554395
 20
-14.4859750215
 11
6.300030461
 21
-14.5
  0
LINE
  5
5B9
100
AcDbEntity
  8
RACCORDO
100
AcDbLine
 62
7
  6
CONTINUOUS
 10
0.3972163531
 20
-20.4338413913
 11
0.2629729446
 21
-20.5680847998
  0
LINE
  5
5BA
100
AcDbEntity
  8
RACCORDO
100
AcDbLine
 62
250
  6
CONTINUOUS
 10
6.5140249785
 20
-14.6859445605
 11
6.5
 21
-14.699969539
  0
LINE
  5
5BB
100
AcDbEntity
  8
DRAFT
100
AcDbLine
 62
7
  6
CONTINUOUS
 10
-6.8667670239
 20
-21.1647852141
 11
-6.9339198284
 21
-21.2
  0
LWPOLYLINE
  5
5BC
100
AcDbEntity
  8
RACCORDO
100
AcDbPolyline
 62
7
  6
CONTINUOUS
 90
22
 70
0
 10
-6.8556039598
 20
-20.7438927334
 10
-6.8439789161
 20
-20.7378805693
 10
-6.8321363454
 20
-20.7312003699
 10
-6.8200762477
 20
-20.7238550254
 10
-6.8076750791
 20
-20.715833352
 10
-6.7950563834
 20
-20.7071884359
 10
-6.7825907924
 20
-20.6980495277
 10
-6.7702734169
 20
-20.6884737471
 10
-6.758109146
 20
-20.6785497693
 10
-6.7464832792
 20
-20.6684860309
 10
-6.7355401445
 20
-20.6585352325
 10
-6.7251354139
 20
-20.6486470512
 10
-6.7152214031
 20
-20.6386064448
 10
-6.7056971984
 20
-20.6285495836
 10
-6.6966637136
 20
-20.6186690987
 10
-6.6883760053
 20
-20.6089416221
 10
-6.6807906414
 20
-20.59955129
 10
-6.6739510539
 20
-20.5909907663
 10
-6.6682425964
 20
-20.5837458779
 10
-6.6637937198
 20
-20.5781702503
 10
-6.6604759731
 20
-20.5745483306
 10
-6.6582893563
 20
-20.5731858629
  0
LWPOLYLINE
  5
5BD
100
AcDbEntity
  8
0
100
AcDbPolyline
 62
7
  6
CONTINUOUS
 90
12
 70
0
 10
5.3990674717
 20
16.7586462089
 10
5.3626376703
 20
16.7505439087
 10
5.3283871726
 20
16.7381871556
 10
5.2964821205
 20
16.7211797679
 10
5.2667563721
 20
16.6999179012
 10
5.2403852319
 20
16.6754274578
 10
5.2174544221
 20
16.6477693842
 10
5.1978782206
 20
16.6168827003
 10
5.1825747659
 20
16.5836104249
 10
5.171850104
 20
16.5482335555
 10
5.1653981889
 20
16.5104710633
 10
5.1632190205
 20
16.4703229305
  0
LWPOLYLINE
  5
5BE
100
AcDbEntity
  8
0
100
AcDbPolyline
 62
7
  6
CONTINUOUS
 90
32
 70
0
 10
5.4714919691
 20
16.1622452262
 10
5.4977298525
 20
16.1676844982
 10
5.5236162836
 20
16.1743958388
 10
5.5491512622
 20
16.1823792464
 10
5.5746158801
 20
16.191527494
 10
5.5997290457
 20
16.2019478043
 10
5.6236474841
 20
16.21396185
 10
5.6462877845
 20
16.2275533029
 10
5.6677333578
 20
16.2427384831
 10
5.6873911618
 20
16.2598880327
 10
5.7052391095
 20
16.2790828617
 10
5.721299288
 20
16.3002420458
 10
5.7350449162
 20
16.3234934731
 10
5.7465160682
 20
16.3489299988
 10
5.7556726699
 20
16.3764587471
 10
5.7618677182
 20
16.4059290082
 10
5.7652480035
 20
16.4377649216
 10
5.7656667352
 20
16.4715423222
 10
5.7620365383
 20
16.5058380521
 10
5.7541088643
 20
16.5410027345
 10
5.7421322616
 20
16.5766857371
 10
5.7257650003
 20
16.6104120456
 10
5.7043933728
 20
16.6419652137
 10
5.6786310866
 20
16.6715617141
 10
5.6499775348
 20
16.6973759375
 10
5.6183523514
 20
16.7190410865
 10
5.5838359023
 20
16.736923996
 10
5.5481686782
 20
16.7502995142
 10
5.5113787265
 20
16.7587874252
 10
5.4734379998
 20
16.7627679654
 10
5.4360028462
 20
16.7626566584
 10
5.3990674717
 20
16.7586462089
  0
LWPOLYLINE
  5
5BF
100
AcDbEntity
  8
0
100
AcDbPolyline
 62
7
  6
CONTINUOUS
 90
32
 70
0
 10
5.496520013
 20
17.2984839045
 10
5.5227586173
 20
17.3039233645
 10
5.5486456783
 20
17.3106349431
 10
5.5741811958
 20
17.3186186386
 10
5.599646305
 20
17.3277672582
 10
5.6247598708
 20
17.3381879903
 10
5.6486784883
 20
17.350202403
 10
5.6713186735
 20
17.3637941908
 10
5.6927639103
 20
17.3789796507
 10
5.7124212452
 20
17.3961292525
 10
5.7302685312
 20
17.4153238164
 10
5.7463279153
 20
17.4364825069
 10
5.7600728853
 20
17.459733307
 10
5.7715435965
 20
17.4851690047
 10
5.7806998935
 20
17.51269679
 10
5.7868947984
 20
17.5421662484
 10
5.7902751983
 20
17.5740015364
 10
5.7906942061
 20
17.6077784702
 10
5.787064182
 20
17.6420741339
 10
5.7791364957
 20
17.6772394129
 10
5.7671597775
 20
17.7129234121
 10
5.7507922781
 20
17.7466505736
 10
5.7294201356
 20
17.7782043105
 10
5.703657212
 20
17.8078012379
 10
5.6750033429
 20
17.8336156297
 10
5.6433783343
 20
17.8552805175
 10
5.6088623804
 20
17.8731629098
 10
5.573195899
 20
17.8865380551
 10
5.5364070499
 20
17.8950258366
 10
5.4984676734
 20
17.8990063932
 10
5.4610337081
 20
17.8988953533
 10
5.42409929
 20
17.8948855407
  0
LWPOLYLINE
  5
5C0
100
AcDbEntity
  8
0
100
AcDbPolyline
 62
7
  6
CONTINUOUS
 90
19
 70
0
 10
8.8794679374
 20
17.3814461276
 10
8.8947957474
 20
17.384600121
 10
8.9097447138
 20
17.3879992937
 10
8.9243148365
 20
17.3916436454
 10
8.938478738
 20
17.3955159246
 10
8.9522637959
 20
17.3996333824
 10
8.9657521426
 20
17.4040477729
 10
8.9789469791
 20
17.4087432919
 10
8.9918451044
 20
17.413735743
 10
9.0045190475
 20
17.4191242906
 10
9.0170152067
 20
17.4249114131
 10
9.0292871836
 20
17.4310946312
 10
9.0412683127
 20
17.4377656725
 10
9.052985276
 20
17.4449306026
 10
9.0644113915
 20
17.4525833544
 10
9.0753999466
 20
17.4607974572
 10
9.0859020373
 20
17.4695974198
 10
9.0959665678
 20
17.4789587312
 10
9.1055935379
 20
17.4888813904
  0
LINE
  5
5C1
100
AcDbEntity
  8
0
100
AcDbLine
 62
7
  6
CONTINUOUS
 10
8.6211550818
 20
15.6683568294
 11
8.6119196794
 21
15.6679679129
  0
LWPOLYLINE
  5
5C2
100
AcDbEntity
  8
0
100
AcDbPolyline
 62
7
  6
CONTINUOUS
 90
7
 70
0
 10
8.6119196794
 20
15.6679679129
 10
8.6073222797
 20
15.6678103717
 10
8.6049757605
 20
15.6677427474
 10
8.6024811302
 20
15.6676873247
 10
8.599801284
 20
15.6676456705
 10
8.5969733265
 20
15.667616218
 10
8.5939972579
 20
15.6675989673
  0
LWPOLYLINE
  5
5C3
100
AcDbEntity
  8
0
100
AcDbPolyline
 62
7
  6
CONTINUOUS
 90
10
 70
0
 10
8.3064801872
 20
15.0547066972
 10
8.3351974131
 20
15.0553037449
 10
8.3633806263
 20
15.0580858098
 10
8.3910298268
 20
15.0630528908
 10
8.4183651136
 20
15.0701340845
 10
8.4451663878
 20
15.0794002895
 10
8.4707733521
 20
15.0910642056
 10
8.4949659073
 20
15.1051967286
 10
8.5179641525
 20
15.1217269513
 10
8.5397680879
 20
15.1406548664
  0
LWPOLYLINE
  5
5C4
100
AcDbEntity
  8
0
100
AcDbPolyline
 62
7
  6
CONTINUOUS
 90
5
 70
0
 10
8.6308322132
 20
15.6686221406
 10
8.628380891
 20
15.6685776063
 10
8.6259513967
 20
15.6685194885
 10
8.6235437305
 20
15.6684477873
 10
8.6211550818
 20
15.6683568294
  0
LWPOLYLINE
  5
5C5
100
AcDbEntity
  8
0
100
AcDbPolyline
 62
7
  6
CONTINUOUS
 90
31
 70
0
 10
4.9030269223
 20
15.0064733785
 10
4.9258094617
 20
15.0068618593
 10
4.9483730388
 20
15.0086300364
 10
4.9707176538
 20
15.0117779094
 10
4.9929814426
 20
15.0162465332
 10
5.0150262692
 20
15.022094851
 10
5.0364377256
 20
15.0294996937
 10
5.0571798402
 20
15.0385644738
 10
5.0772885847
 20
15.0491857741
 10
5.0964574659
 20
15.0612301802
 10
5.1146949306
 20
15.0747268247
 10
5.131992532
 20
15.0896465684
 10
5.1480184367
 20
15.1057685895
 10
5.1627809414
 20
15.1231020509
 10
5.1762717493
 20
15.1416377823
 10
5.1881341367
 20
15.1611274631
 10
5.1983000445
 20
15.1816915158
 10
5.2068375319
 20
15.2032095106
 10
5.2135940527
 20
15.2250718506
 10
5.2184284616
 20
15.2472239213
 10
5.221481904
 20
15.2697203345
 10
5.2230252694
 20
15.2921153373
 10
5.2232241342
 20
15.3142304931
 10
5.221912922
 20
15.3362442398
 10
5.2188657939
 20
15.3582461372
 10
5.2142497552
 20
15.3802773897
 10
5.2078978005
 20
15.4022967927
 10
5.1990830746
 20
15.4242702922
 10
5.1877184554
 20
15.4465380087
 10
5.173891065
 20
15.4687598211
 10
5.1571354141
 20
15.4898813173
  0
LWPOLYLINE
  5
5C6
100
AcDbEntity
  8
0
100
AcDbPolyline
 62
7
  6
CONTINUOUS
 90
34
 70
0
 10
4.8877713491
 20
15.5947904856
 10
4.8631752143
 20
15.5944627742
 10
4.8387556655
 20
15.5927954399
 10
4.8145127028
 20
15.5897884823
 10
4.7902640749
 20
15.585508112
 10
4.7661920331
 20
15.5798881165
 10
4.742843331
 20
15.5727298603
 10
4.7202933183
 20
15.5640162153
 10
4.6984666454
 20
15.5537643051
 10
4.6776840165
 20
15.5418268706
 10
4.6579824362
 20
15.5282362829
 10
4.6393248999
 20
15.5129601631
 10
4.621921099
 20
15.4957541257
 10
4.6056585646
 20
15.4765919445
 10
4.5906497656
 20
15.4554998327
 10
4.5774418003
 20
15.4323120611
 10
4.5657405853
 20
15.4066764025
 10
4.555840204
 20
15.378945064
 10
4.5491700045
 20
15.3500089713
 10
4.5459432952
 20
15.3197609677
 10
4.5459467678
 20
15.2883081963
 10
4.5499698447
 20
15.2568630431
 10
4.5582343838
 20
15.2253870162
 10
4.5705185273
 20
15.1939186077
 10
4.5869461247
 20
15.1637856941
 10
4.6077074015
 20
15.1349848547
 10
4.6326121322
 20
15.1075195249
 10
4.6612134896
 20
15.0827278795
 10
4.6936043915
 20
15.0605496532
 10
4.7296919201
 20
15.0410451342
 10
4.7687504955
 20
15.0257333364
 10
4.8105382577
 20
15.0151206069
 10
4.8552970666
 20
15.0087006193
 10
4.9030269223
 20
15.0064733785
  0
LWPOLYLINE
  5
5C7
100
AcDbEntity
  8
0
100
AcDbPolyline
 62
7
  6
CONTINUOUS
 90
16
 70
0
 10
8.291132319
 20
15.647135143
 10
8.2735089469
 20
15.6469336887
 10
8.2559312419
 20
15.6460786846
 10
8.2383992039
 20
15.6445701307
 10
8.2208874478
 20
15.6424552688
 10
8.2034213587
 20
15.6396868566
 10
8.1860770919
 20
15.6361231671
 10
8.1688561488
 20
15.6317769193
 10
8.1517570281
 20
15.626635393
 10
8.1348513807
 20
15.6205187021
 10
8.1180877475
 20
15.6134048547
 10
8.1015175877
 20
15.6053158403
 10
8.0853669298
 20
15.5961377446
 10
8.0697111166
 20
15.5858325949
 10
8.0544748054
 20
15.5744383599
 10
8.039657996
 20
15.5619550372
  0
LWPOLYLINE
  5
5C8
100
AcDbEntity
  8
0
100
AcDbPolyline
 62
7
  6
CONTINUOUS
 90
7
 70
0
 10
5.2260015339
 20
15.6166959257
 10
5.2199414347
 20
15.6166324073
 10
5.2138605743
 20
15.6165247542
 10
5.2077589526
 20
15.6163729664
 10
5.2016365697
 20
15.6161770438
 10
5.1954934256
 20
15.6159369864
 10
5.1893295202
 20
15.6156527944
  0
LWPOLYLINE
  5
5C9
100
AcDbEntity
  8
0
100
AcDbPolyline
 62
7
  6
CONTINUOUS
 90
25
 70
0
 10
8.5602319121
 20
14.4888812944
 10
8.5331588022
 20
14.4887417282
 10
8.5070706443
 20
14.4883844653
 10
8.4819674385
 20
14.4878095055
 10
8.4579422377
 20
14.4870133946
 10
8.434901989
 20
14.4859995868
 10
8.4125675335
 20
14.4847784453
 10
8.3909368385
 20
14.4833616029
 10
8.3700119367
 20
14.4817374267
 10
8.3495197675
 20
14.4798813812
 10
8.3294493878
 20
14.4778095343
 10
8.3098117408
 20
14.475505818
 10
8.2903665958
 20
14.4728974929
 10
8.2710792694
 20
14.4700053324
 10
8.251984445
 20
14.4668085627
 10
8.2329459415
 20
14.4631721234
 10
8.2138903409
 20
14.4591179821
 10
8.1948910612
 20
14.4546241705
 10
8.1760321753
 20
14.4494897243
 10
8.1572583577
 20
14.4437646513
 10
8.138624934
 20
14.4373989425
 10
8.1203819537
 20
14.430041608
 10
8.1026127668
 20
14.42157565
 10
8.0852340234
 20
14.4121180635
 10
8.0682457235
 20
14.4016688469
  0
LINE
  5
5CA
100
AcDbEntity
  8
0
100
AcDbLine
 62
7
  6
CONTINUOUS
 10
-2.694959
 20
14.471557
 11
-1.474954
 21
14.471557
  0
LINE
  5
5CB
100
AcDbEntity
  8
RACCORDO
100
AcDbLine
 62
7
  6
CONTINUOUS
 10
-7.319462557
 20
15.2755396155
 11
-6.7148190698
 21
15.2755396155
  0
LINE
  5
5CC
100
AcDbEntity
  8
RACCORDO
100
AcDbLine
 62
7
  6
CONTINUOUS
 10
-0.1992738542
 20
15.2755396155
 11
0.1992738542
 21
15.2755396155
  0
LINE
  5
5CD
100
AcDbEntity
  8
RACCORDO
100
AcDbLine
 62
7
  6
CONTINUOUS
 10
6.7148190698
 20
15.2755396155
 11
7.319462557
 21
15.2755396155
  0
LINE
  5
5CE
100
AcDbEntity
  8
0
100
AcDbLine
 62
7
  6
CONTINUOUS
 10
-2.694959
 20
15.541213
 11
-1.474954
 21
15.541218
  0
LINE
  5
5CF
100
AcDbEntity
  8
0
100
AcDbLine
 62
7
  6
CONTINUOUS
 10
1.850359
 20
15.763409
 11
3.350368
 21
15.763409
  0
LWPOLYLINE
  5
5D0
100
AcDbEntity
  8
0
100
AcDbPolyline
 62
7
  6
CONTINUOUS
 90
43
 70
0
 10
5.1064322798
 20
14.6309501501
 10
5.2038271028
 20
14.6307934925
 10
5.2526443208
 20
14.629244481
 10
5.3016330652
 20
14.6263052399
 10
5.3511662648
 20
14.622169618
 10
5.4008709908
 20
14.6166437649
 10
5.4496284565
 20
14.6091461301
 10
5.497329757
 20
14.5996581554
 10
5.5440837971
 20
14.5881983932
 10
5.589098505
 20
14.574240957
 10
5.6322377049
 20
14.5578365789
 10
5.6736375725
 20
14.5389345137
 10
5.7129145633
 20
14.516856654
 10
5.7503530214
 20
14.4917623802
 10
5.7856686027
 20
14.4634922861
 10
5.8176247305
 20
14.4308900742
 10
5.8464917004
 20
14.3932255751
 10
5.8719992167
 20
14.3512289025
 10
5.8920998153
 20
14.3059341799
 10
5.906097563
 20
14.2567111501
 10
5.9146883929
 20
14.2041900139
 10
5.91791264
 20
14.1512956133
 10
5.9158812749
 20
14.0978740973
 10
5.9084833271
 20
14.0440793103
 10
5.8954262195
 20
13.9932976939
 10
5.8759472017
 20
13.9461389799
 10
5.8508090241
 20
13.9019934908
 10
5.8220073603
 20
13.8624185936
 10
5.7897270857
 20
13.8282378736
 10
5.7537833248
 20
13.798627806
 10
5.7156171252
 20
13.7726750939
 10
5.6754757235
 20
13.7504706073
 10
5.6331118831
 20
13.7319235059
 10
5.5892249416
 20
13.7158479162
 10
5.5438067787
 20
13.7020422303
 10
5.4968655147
 20
13.6907080681
 10
5.4491248488
 20
13.6812643912
 10
5.4005071614
 20
13.6736794598
 10
5.3510900721
 20
13.667985019
 10
5.3018301382
 20
13.6636952565
 10
5.2530462121
 20
13.6606482352
 10
5.2044194414
 20
13.6590058937
 10
5.1559498262
 20
13.6587682325
  0
LWPOLYLINE
  5
5D1
100
AcDbEntity
  8
0
100
AcDbPolyline
 62
7
  6
CONTINUOUS
 90
19
 70
0
 10
8.5602319121
 20
14.6781719372
 10
8.5841012168
 20
14.6780807777
 10
8.6079646118
 20
14.677723797
 10
8.631822097
 20
14.677100995
 10
8.6556714776
 20
14.6762301186
 10
8.6795149485
 20
14.6750934209
 10
8.7033590941
 20
14.6736376607
 10
8.7272103791
 20
14.6718691643
 10
8.7510623387
 20
14.6697816053
 10
8.7749021631
 20
14.6673027629
 10
8.798743202
 20
14.6644399469
 10
8.8225721058
 20
14.6611858472
 10
8.8463360158
 20
14.6574463133
 10
8.870043194
 20
14.6532323417
 10
8.8936853784
 20
14.6485329352
 10
8.9171849241
 20
14.6432209523
 10
8.9405159496
 20
14.637254012
 10
8.9637043365
 20
14.6306744941
 10
8.9867500848
 20
14.6234823978
  0
LWPOLYLINE
  5
5D2
100
AcDbEntity
  8
0
100
AcDbPolyline
 62
7
  6
CONTINUOUS
 90
10
 70
0
 10
8.3003410578
 20
14.8654160544
 10
8.2539679795
 20
14.866453595
 10
8.2087260665
 20
14.8709268605
 10
8.1646153188
 20
14.8788358481
 10
8.1212817351
 20
14.8901334857
 10
8.0790793166
 20
14.9048668336
 10
8.0390700671
 20
14.9231770841
 10
8.0016079879
 20
14.9451112926
 10
7.9663390777
 20
14.9706223777
 10
7.9332633365
 20
14.9997103227
  0
LWPOLYLINE
  5
5D3
100
AcDbEntity
  8
RACCORDO
100
AcDbPolyline
 62
7
  6
CONTINUOUS
 90
13
 70
0
 10
-7.319462557
 20
15.2755396155
 10
-7.3450382138
 20
15.2772639035
 10
-7.3702803713
 20
15.2824077141
 10
-7.3947628174
 20
15.2909290282
 10
-7.4180826207
 20
15.302759043
 10
-7.439805836
 20
15.3177252699
 10
-7.4594919121
 20
15.3355278816
 10
-7.4767719555
 20
15.3558765063
 10
-7.4913687433
 20
15.3784690175
 10
-7.5030389782
 20
15.4029109818
 10
-7.5115595483
 20
15.428810679
 10
-7.5167459172
 20
15.4557762905
 10
-7.5184775044
 20
15.483378525
  0
LWPOLYLINE
  5
5D4
100
AcDbEntity
  8
RACCORDO
100
AcDbPolyline
 62
7
  6
CONTINUOUS
 90
13
 70
0
 10
-0.1992738542
 20
15.2755396155
 10
-0.2248776749
 20
15.2772689045
 10
-0.2501581718
 20
15.2824239732
 10
-0.2746873548
 20
15.2909646937
 10
-0.2980614492
 20
15.3028251148
 10
-0.3198428908
 20
15.3178327493
 10
-0.3395854632
 20
15.3356839057
 10
-0.3569191744
 20
15.3560877535
 10
-0.3715647041
 20
15.3787409919
 10
-0.3832736839
 20
15.4032420842
 10
-0.3918223687
 20
15.4291951873
 10
-0.3970287097
 20
15.4562082555
 10
-0.3987736215
 20
15.4838500694
  0
LWPOLYLINE
  5
5D5
100
AcDbEntity
  8
RACCORDO
100
AcDbPolyline
 62
7
  6
CONTINUOUS
 90
13
 70
0
 10
6.7148190698
 20
15.2755396155
 10
6.6892152491
 20
15.2772689045
 10
6.6639347522
 20
15.2824239732
 10
6.6394055691
 20
15.2909646937
 10
6.6160314747
 20
15.3028251148
 10
6.5942500332
 20
15.3178327493
 10
6.5745074607
 20
15.3356839057
 10
6.5571737495
 20
15.3560877535
 10
6.5425282199
 20
15.3787409919
 10
6.53081924
 20
15.4032420842
 10
6.5222705553
 20
15.4291951873
 10
6.5170642143
 20
15.4562082555
 10
6.5153193024
 20
15.4838500694
  0
LINE
  5
5D6
100
AcDbEntity
  8
0
100
AcDbLine
 62
7
  6
CONTINUOUS
 10
-1.474958
 20
15.191388
 11
-2.694959
 21
15.541213
  0
LINE
  5
5D7
100
AcDbEntity
  8
0
100
AcDbLine
 62
7
  6
CONTINUOUS
 10
-1.474954
 20
16.157906
 11
-3.325042
 21
16.7519
  0
LINE
  5
5D8
100
AcDbEntity
  8
0
100
AcDbLine
 62
7
  6
CONTINUOUS
 10
-1.474958
 20
16.52792
 11
-1.838789
 21
16.644734
  0
LINE
  5
5D9
100
AcDbEntity
  8
0
100
AcDbLine
 62
7
  6
CONTINUOUS
 10
-2.190302
 20
16.757598
 11
-2.748836
 21
16.936914
  0
LINE
  5
5DA
100
AcDbEntity
  8
0
100
AcDbLine
 62
7
  6
CONTINUOUS
 10
3.150795
 20
14.8663585
 11
1.850364
 21
15.30122
  0
LINE
  5
5DB
100
AcDbEntity
  8
0
100
AcDbLine
 62
7
  6
CONTINUOUS
 10
3.350372
 20
14.975583
 11
1.850364
 21
15.509216
  0
LWPOLYLINE
  5
5DC
100
AcDbEntity
  8
0
100
AcDbPolyline
 62
7
  6
CONTINUOUS
 90
7
 70
0
 10
8.1325375067
 20
13.7542292098
 10
8.0814006666
 20
13.7735092052
 10
8.0340267501
 20
13.7959398294
 10
7.9904157571
 20
13.8215210706
 10
7.9505676876
 20
13.8502529152
 10
7.9144825417
 20
13.8821353481
 10
7.8821603193
 20
13.9171683522
  0
LINE
  5
5DD
100
AcDbEntity
  8
DRAFT
100
AcDbLine
 62
7
  6
CONTINUOUS
 10
-6.9339198284
 20
21.2
 11
-6.8667670239
 21
21.1647852141
  0
LWPOLYLINE
  5
5DE
100
AcDbEntity
  8
0
100
AcDbPolyline
 62
7
  6
CONTINUOUS
 90
34
 70
0
 10
5.646002196
 20
14.3571503252
 10
5.6131250627
 20
14.3754903111
 10
5.5787392274
 20
14.3911727419
 10
5.5428446902
 20
14.404197625
 10
5.5048487959
 20
14.4141145337
 10
5.4653441998
 20
14.4213739058
 10
5.4261088673
 20
14.4273270417
 10
5.3875473354
 20
14.4322584492
 10
5.3492550671
 20
14.4358836227
 10
5.3117964168
 20
14.43870034
 10
5.2751892558
 20
14.440755263
 10
5.2394157128
 20
14.4420017305
 10
5.2049865288
 20
14.4427975342
 10
5.1721045479
 20
14.4432116702
 10
5.1405669259
 20
14.4431751426
 10
5.1102758717
 20
14.442838755
 10
5.0813321731
 20
14.4422522862
 10
5.0536350423
 20
14.4413659573
 10
5.0267843238
 20
14.4401812357
 10
5.0008006612
 20
14.4387185805
 10
4.975663411
 20
14.4369575325
 10
4.9509104876
 20
14.4348381816
 10
4.9265330203
 20
14.4323815717
 10
4.9025398799
 20
14.4295666586
 10
4.8784955929
 20
14.4262703999
 10
4.8542034622
 20
14.4225852368
 10
4.8298601849
 20
14.4184187276
 10
4.8056203788
 20
14.4133705056
 10
4.7813958932
 20
14.4075424217
 10
4.7572748789
 20
14.4008326235
 10
4.7336764059
 20
14.3925351879
 10
4.7107401643
 20
14.3824148051
 10
4.688326464
 20
14.3707067795
 10
4.666435305
 20
14.357411108
  0
LWPOLYLINE
  5
5DF
100
AcDbEntity
  8
0
100
AcDbPolyline
 62
7
  6
CONTINUOUS
 90
4
 70
0
 10
5.1893295202
 20
15.6156527944
 10
5.2273416276
 20
15.5887830337
 10
5.26184411
 20
15.5577467608
 10
5.2928369672
 20
15.5225439516
  0
LINE
  5
5E0
100
AcDbEntity
  8
0
100
AcDbLine
 62
7
  6
CONTINUOUS
 10
5.6680803331
 20
15.4899258358
 11
5.645234653
 21
15.507818723
  0
LWPOLYLINE
  5
5E1
100
AcDbEntity
  8
0
100
AcDbPolyline
 62
7
  6
CONTINUOUS
 90
42
 70
0
 10
4.583998338
 20
14.9085965818
 10
4.5431825261
 20
14.9413897004
 10
4.5069003867
 20
14.9778288375
 10
4.4749736367
 20
15.0178182076
 10
4.4475805592
 20
15.0614535455
 10
4.4256366746
 20
15.1078138407
 10
4.4094369693
 20
15.15739169
 10
4.398686457
 20
15.209694445
 10
4.3934156989
 20
15.2623232549
 10
4.3936893286
 20
15.3152347151
 10
4.3994427126
 20
15.3684722229
 10
4.4105125109
 20
15.4197671765
 10
4.4270612234
 20
15.4687333918
 10
4.4489263504
 20
15.5157570904
 10
4.4754570529
 20
15.5597283095
 10
4.5067954867
 20
15.6006533686
 10
4.5427994961
 20
15.6385259963
 10
4.5823917747
 20
15.6722173584
 10
4.6258341072
 20
15.7013565407
 10
4.6728647089
 20
15.7263145084
 10
4.7216209198
 20
15.7470752487
 10
4.7719911858
 20
15.7631054515
 10
4.8240870609
 20
15.7749384576
 10
4.8763805469
 20
15.7841582226
 10
4.9284606359
 20
15.7909070285
 10
4.9807383358
 20
15.7950426012
 10
5.0329186718
 20
15.7977220552
 10
5.0848791085
 20
15.7992663865
 10
5.1367421814
 20
15.7993546004
 10
5.188580522
 20
15.7981808233
 10
5.2404022488
 20
15.7960258143
 10
5.2921992435
 20
15.7926088138
 10
5.344019782
 20
15.7872816696
 10
5.3962853972
 20
15.780133303
 10
5.4485745563
 20
15.7710747883
 10
5.499670937
 20
15.7591911998
 10
5.5498832484
 20
15.7440979125
 10
5.5989027813
 20
15.7261795362
 10
5.6445870861
 20
15.7056749938
 10
5.6864227607
 20
15.6822985184
 10
5.724923207
 20
15.6563358546
 10
5.7594861815
 20
15.6288831962
  0
LWPOLYLINE
  5
5E2
100
AcDbEntity
  8
0
100
AcDbPolyline
 62
7
  6
CONTINUOUS
 90
37
 70
0
 10
5.7594861815
 20
15.6288831962
 10
5.7897901467
 20
15.5998621872
 10
5.81615664
 20
15.5693511676
 10
5.8389480295
 20
15.5386813874
 10
5.8579595312
 20
15.508103332
 10
5.8733959293
 20
15.4773665155
 10
5.8862339436
 20
15.4470507422
 10
5.8965325921
 20
15.4173283256
 10
5.9042328569
 20
15.3880269579
 10
5.9101344046
 20
15.3592095154
 10
5.9143354908
 20
15.3309019846
 10
5.9167378598
 20
15.3030783844
 10
5.9178464118
 20
15.2757236392
 10
5.9178399011
 20
15.2488858137
 10
5.9165395733
 20
15.2225168481
 10
5.913914066
 20
15.1964574794
 10
5.910043597
 20
15.1706350942
 10
5.9048479484
 20
15.1451223087
 10
5.8980551041
 20
15.1199777041
 10
5.8895850582
 20
15.0950399477
 10
5.8795178166
 20
15.0704703752
 10
5.8678213803
 20
15.0468115734
 10
5.8544528493
 20
15.0241050301
 10
5.8394551237
 20
15.0023092653
 10
5.822924905
 20
14.9818424179
 10
5.8047086677
 20
14.9627904682
 10
5.7849599372
 20
14.9450674456
 10
5.764235992
 20
14.9288335653
 10
5.7426146141
 20
14.9141919793
 10
5.7200180213
 20
14.901039544
 10
5.6967701452
 20
14.8892270308
 10
5.6728921768
 20
14.8787179696
 10
5.6483629251
 20
14.8695488357
 10
5.6234427485
 20
14.8616798175
 10
5.5982184333
 20
14.8550976455
 10
5.5726031932
 20
14.8498155925
 10
5.5465970284
 20
14.8458336597
  0
LINE
  5
5E3
100
AcDbEntity
  8
RACCORDO
100
AcDbLine
 62
7
  6
CONTINUOUS
 10
0.3972163531
 20
20.4338413913
 11
0.2629729446
 21
20.5680847998
  0
LWPOLYLINE
  5
5E4
100
AcDbEntity
  8
0
100
AcDbPolyline
 62
7
  6
CONTINUOUS
 90
5
 70
0
 10
5.1571354141
 20
15.4898813173
 10
5.1371892024
 20
15.5099078747
 10
5.1143147303
 20
15.5288341243
 10
5.08883341
 20
15.545589543
 10
5.060632866
 20
15.5599507547
  0
LWPOLYLINE
  5
5E5
100
AcDbEntity
  8
0
100
AcDbPolyline
 62
7
  6
CONTINUOUS
 90
10
 70
0
 10
7.8821603193
 20
13.9171683522
 10
7.863313712
 20
13.9422802429
 10
7.8467306831
 20
13.9688203679
 10
7.8324112326
 20
13.9967887205
 10
7.820361616
 20
14.0263891939
 10
7.8105755778
 20
14.0574178803
 10
7.8030343519
 20
14.0892630745
 10
7.7977316828
 20
14.1217208734
 10
7.7946738259
 20
14.1549951718
 10
7.7938607812
 20
14.1890859649
  0
LWPOLYLINE
  5
5E6
100
AcDbEntity
  8
0
100
AcDbPolyline
 62
7
  6
CONTINUOUS
 90
7
 70
0
 10
8.7372442067
 20
15.5161664531
 10
8.7538659352
 20
15.484198152
 10
8.7674542504
 20
15.451238183
 10
8.7780091521
 20
15.4172865401
 10
8.7855306404
 20
15.3823432172
 10
8.7900187153
 20
15.346408208
 10
8.7914733768
 20
15.309481506
  0
LINE
  5
5E7
100
AcDbEntity
  8
DRAFT
100
AcDbLine
 62
7
  6
CONTINUOUS
 10
9.65
 20
-13.7310577445
 11
9.5818521307
 21
-13.7992056137
  0
LINE
  5
5E8
100
AcDbEntity
  8
RACCORDO
100
AcDbLine
 62
7
  6
CONTINUOUS
 10
6.5140249785
 20
-15.1118281743
 11
6.5
 21
-15.1188401295
  0
LINE
  5
5E9
100
AcDbEntity
  8
RACCORDO
100
AcDbLine
 62
7
  6
CONTINUOUS
 10
-7.2419286989
 20
-20.8366629075
 11
-7.3830351795
 21
-20.9
  0
LWPOLYLINE
  5
5EA
100
AcDbEntity
  8
0
100
AcDbPolyline
 62
7
  6
CONTINUOUS
 90
12
 70
0
 10
5.42409929
 20
17.8948855407
 10
5.3876702831
 20
17.8867841281
 10
5.353420219
 20
17.8744282611
 10
5.3215151289
 20
17.8574217884
 10
5.2917889816
 20
17.8361608336
 10
5.2654172148
 20
17.8116709531
 10
5.2424854628
 20
17.7840129879
 10
5.2229080913
 20
17.7531260611
 10
5.2076036358
 20
17.7198531603
 10
5.1968782748
 20
17.6844752721
 10
5.1904258298
 20
17.6467113764
 10
5.1882463007
 20
17.6065614542
  0
LWPOLYLINE
  5
5EB
100
AcDbEntity
  8
0
100
AcDbPolyline
 62
7
  6
CONTINUOUS
 90
16
 70
0
 10
8.9367667168
 20
18.5663030192
 10
8.9513099084
 20
18.5689552021
 10
8.9654882078
 20
18.5719549545
 10
8.9793016151
 20
18.5753022761
 10
8.9927284158
 20
18.57896834
 10
9.0057903243
 20
18.5829819726
 10
9.0185524841
 20
18.5874296537
 10
9.0310344243
 20
18.5922924233
 10
9.0432166159
 20
18.5975892404
 10
9.0551056151
 20
18.6034634636
 10
9.0667731899
 20
18.6099385585
 10
9.0781475725
 20
18.6169910578
 10
9.0890200155
 20
18.6246939197
 10
9.0993209368
 20
18.6330714628
 10
9.1091199186
 20
18.6420993662
 10
9.1184169609
 20
18.6517776285
  0
LWPOLYLINE
  5
5EC
100
AcDbEntity
  8
0
100
AcDbPolyline
 62
7
  6
CONTINUOUS
 90
37
 70
0
 10
4.7759298282
 20
16.6963203882
 10
4.7481694637
 20
16.6944746456
 10
4.7213335373
 20
16.6896680932
 10
4.6954220489
 20
16.6819007281
 10
4.6699007685
 20
16.6708999342
 10
4.6453039262
 20
16.656938316
 10
4.6232342123
 20
16.6408337016
 10
4.6041194618
 20
16.6222669304
 10
4.5875318399
 20
16.6015571474
 10
4.5737905316
 20
16.5804796471
 10
4.5633205294
 20
16.5593734343
 10
4.555696841
 20
16.5378995023
 10
4.5499636741
 20
16.516816139
 10
4.5460014558
 20
16.4964920015
 10
4.5439297591
 20
16.476558437
 10
4.5431515107
 20
16.4566677707
 10
4.5433872915
 20
16.4367007541
 10
4.5449165207
 20
16.4167766357
 10
4.547980382
 20
16.396905485
 10
4.5526333293
 20
16.3768523949
 10
4.5588209088
 20
16.3568522723
 10
4.5666209426
 20
16.3376199107
 10
4.5761400793
 20
16.3192542773
 10
4.5872716702
 20
16.3016564107
 10
4.5997735919
 20
16.2852442154
 10
4.6137511089
 20
16.2701104129
 10
4.6290989567
 20
16.2561622892
 10
4.6452592177
 20
16.2435395966
 10
4.6621601663
 20
16.2323782006
 10
4.6798735281
 20
16.2225422421
 10
4.6980565625
 20
16.2137638855
 10
4.7166691841
 20
16.2060185386
 10
4.7357514782
 20
16.1993307969
 10
4.7550809604
 20
16.1935066053
 10
4.7745834693
 20
16.1884812792
 10
4.7943331663
 20
16.1843195049
 10
4.8143300515
 20
16.1810212831
  0
LWPOLYLINE
  5
5ED
100
AcDbEntity
  8
0
100
AcDbPolyline
 62
7
  6
CONTINUOUS
 90
37
 70
0
 10
4.8009571084
 20
17.8325589119
 10
4.7731969613
 20
17.8307132417
 10
4.746361172
 20
17.8259067388
 10
4.7204497406
 20
17.8181394
 10
4.6949283996
 20
17.8071385965
 10
4.6703314165
 20
17.7931769449
 10
4.6482615932
 20
17.7770723097
 10
4.6291468061
 20
17.7585055178
 10
4.6125591787
 20
17.7377957256
 10
4.5988178833
 20
17.7167183003
 10
4.5883479256
 20
17.6956122596
 10
4.5807243
 20
17.6741385837
 10
4.574991162
 20
17.6530555948
 10
4.5710289387
 20
17.6327319935
 10
4.5689572031
 20
17.6127990839
 10
4.5681788302
 20
17.5929090957
 10
4.5684143893
 20
17.5729427934
 10
4.5699433111
 20
17.5530194127
 10
4.5730067626
 20
17.5331488889
 10
4.577659155
 20
17.5130962928
 10
4.5838460771
 20
17.4930965534
 10
4.5916454617
 20
17.4738643967
 10
4.6011639513
 20
17.4554987572
 10
4.6122949034
 20
17.4379007068
 10
4.6247963237
 20
17.421488182
 10
4.6387735056
 20
17.4063538668
 10
4.6541211557
 20
17.3924050853
 10
4.6702814001
 20
17.3797817352
 10
4.6871825564
 20
17.3686197085
 10
4.7048963069
 20
17.3587831201
 10
4.7230798249
 20
17.3500042009
 10
4.7416930357
 20
17.3422583779
 10
4.7607760139
 20
17.3355702278
 10
4.7801061572
 20
17.3297457047
 10
4.7996092647
 20
17.3247201274
 10
4.8193595372
 20
17.3205581791
 10
4.8393569746
 20
17.3172598605
  0
LWPOLYLINE
  5
5EE
100
AcDbEntity
  8
0
100
AcDbPolyline
 62
7
  6
CONTINUOUS
 90
7
 70
0
 10
8.1796043694
 20
16.7511595532
 10
8.1476308016
 20
16.7494249586
 10
8.1172940604
 20
16.7437800495
 10
8.0885941459
 20
16.7342248214
 10
8.0615310581
 20
16.7207592667
 10
8.036104797
 20
16.7033833748
 10
8.0123153626
 20
16.682097132
  0
LWPOLYLINE
  5
5EF
100
AcDbEntity
  8
0
100
AcDbPolyline
 62
7
  6
CONTINUOUS
 90
7
 70
0
 10
8.1796043694
 20
17.9165757939
 10
8.1476301681
 20
17.9148409445
 10
8.1172930351
 20
17.909195871
 10
8.0885929703
 20
17.8996405688
 10
8.0615299739
 20
17.8861750296
 10
8.0361040457
 20
17.8687992422
 10
8.0123151858
 20
17.8475131918
  0
LWPOLYLINE
  5
5F0
100
AcDbEntity
  8
0
100
AcDbPolyline
 62
7
  6
CONTINUOUS
 90
10
 70
0
 10
8.8610504597
 20
16.8186904237
 10
8.8349722176
 20
16.817949997
 10
8.8094989355
 20
16.8150993502
 10
8.7846306137
 20
16.8101384819
 10
8.7602119069
 20
16.8030765293
 10
8.7363981602
 20
16.7939043501
 10
8.7136554092
 20
16.7825945232
 10
8.6921389991
 20
16.7691379046
 10
8.6716935848
 20
16.7535436274
 10
8.6523191661
 20
16.735811685
  0
LWPOLYLINE
  5
5F1
100
AcDbEntity
  8
0
100
AcDbPolyline
 62
7
  6
CONTINUOUS
 90
37
 70
0
 10
2.7497913572
 20
17.4118168282
 10
2.7829365684
 20
17.4123687806
 10
2.8146475635
 20
17.4137092332
 10
2.8449243424
 20
17.4158381857
 10
2.8736526759
 20
17.418783956
 10
2.9009467933
 20
17.4225182255
 10
2.9271493823
 20
17.4269560389
 10
2.952323725
 20
17.4320638992
 10
2.9764065395
 20
17.4378753022
 10
2.9995506676
 20
17.4444057818
 10
3.0217622372
 20
17.4516437977
 10
3.0430351206
 20
17.4596008882
 10
3.0635037762
 20
17.4683272049
 10
3.0831595667
 20
17.47781131
 10
3.1020111295
 20
17.4880646384
 10
3.120218835
 20
17.4991716499
 10
3.137853887
 20
17.5111560965
 10
3.1548450816
 20
17.5239942221
 10
3.171139178
 20
17.5376992245
 10
3.1868011627
 20
17.5523085284
 10
3.2017660492
 20
17.5677847038
 10
3.2157856368
 20
17.584028667
 10
3.2288287714
 20
17.6010632277
 10
3.2409266071
 20
17.6188655708
 10
3.251924405
 20
17.6372681757
 10
3.2617440748
 20
17.656314678
 10
3.2704637068
 20
17.6759614373
 10
3.2781628335
 20
17.6959100208
 10
3.2848117542
 20
17.7161106549
 10
3.2904401697
 20
17.7366131106
 10
3.2952167148
 20
17.7572682742
 10
3.2991530303
 20
17.7780565956
 10
3.3022374755
 20
17.7989976233
 10
3.3046037627
 20
17.8200008922
 10
3.3062964626
 20
17.8410362471
 10
3.3072710044
 20
17.8621338426
 10
3.3075273882
 20
17.8832936783
  0
LINE
  5
5F2
100
AcDbEntity
  8
0
100
AcDbLine
 62
7
  6
CONTINUOUS
 10
-3.325037
 20
15.911232
 11
-1.474954
 21
15.911232
  0
LINE
  5
5F3
100
AcDbEntity
  8
0
100
AcDbLine
 62
7
  6
CONTINUOUS
 10
2.018425
 20
15.962987
 11
2.49532
 21
15.962987
  0
LINE
  5
5F4
100
AcDbEntity
  8
0
100
AcDbLine
 62
7
  6
CONTINUOUS
 10
2.663401
 20
15.962987
 11
3.182302
 21
15.962987
  0
LINE
  5
5F5
100
AcDbEntity
  8
0
100
AcDbLine
 62
7
  6
CONTINUOUS
 10
2.49532
 20
16.742441
 11
2.663401
 21
16.742441
  0
LINE
  5
5F6
100
AcDbEntity
  8
0
100
AcDbLine
 62
7
  6
CONTINUOUS
 10
1.850359
 20
16.799122
 11
2.018425
 21
16.799122
  0
LINE
  5
5F7
100
AcDbEntity
  8
0
100
AcDbLine
 62
7
  6
CONTINUOUS
 10
3.182302
 20
16.80545
 11
3.350368
 21
16.80545
  0
LINE
  5
5F8
100
AcDbEntity
  8
0
100
AcDbLine
 62
7
  6
CONTINUOUS
 10
1.8489555797
 20
17.3192159826
 11
2.7972065048
 21
17.3192874557
  0
LINE
  5
5F9
100
AcDbEntity
  8
0
100
AcDbLine
 62
7
  6
CONTINUOUS
 10
1.8489555797
 20
17.4118168282
 11
2.7497913572
 21
17.4118168282
  0
LWPOLYLINE
  5
5FA
100
AcDbEntity
  8
0
100
AcDbPolyline
 62
7
  6
CONTINUOUS
 90
19
 70
0
 10
8.5193042636
 20
15.8517735645
 10
8.5449975885
 20
15.8516712192
 10
8.5706816744
 20
15.8512667424
 10
8.5963565213
 20
15.8505601341
 10
8.6220195475
 20
15.8495723379
 10
8.6476733348
 20
15.8482824102
 10
8.6733256279
 20
15.8466275193
 10
8.698984427
 20
15.8446155096
 10
8.7246417319
 20
15.8422385365
 10
8.7502812863
 20
15.8394102352
 10
8.7759192673
 20
15.8361398565
 10
8.8015394977
 20
15.832418149
 10
8.8270771893
 20
15.8281309938
 10
8.852544444
 20
15.8232921427
 10
8.8779291599
 20
15.817887843
 10
8.9031302435
 20
15.8117627181
 10
8.928113997
 20
15.8048649754
 10
8.9529141181
 20
15.7972464059
 10
8.977530607
 20
15.7889070083
  0
LWPOLYLINE
  5
5FB
100
AcDbEntity
  8
0
100
AcDbPolyline
 62
7
  6
CONTINUOUS
 90
10
 70
0
 10
8.8569577217
 20
17.0141201064
 10
8.8991058697
 20
17.0125901934
 10
8.940181022
 20
17.0073657556
 10
8.9801831787
 20
16.998446789
 10
9.0193864118
 20
16.9857117269
 10
9.0575166492
 20
16.9692821194
 10
9.0937516744
 20
16.9495226342
 10
9.1278174154
 20
16.926554818
 10
9.1599879441
 20
16.9002570954
 10
9.1902632608
 20
16.8706294485
  0
LWPOLYLINE
  5
5FC
100
AcDbEntity
  8
0
100
AcDbPolyline
 62
7
  6
CONTINUOUS
 90
7
 70
0
 10
8.1836971521
 20
16.940450196
 10
8.2154022695
 20
16.9391051656
 10
8.246226165
 20
16.9348193001
 10
8.2761688387
 20
16.9275925969
 10
8.3052302905
 20
16.9174250516
 10
8.3334105204
 20
16.904316658
 10
8.3607095286
 20
16.8882674084
  0
LWPOLYLINE
  5
5FD
100
AcDbEntity
  8
0
100
AcDbPolyline
 62
7
  6
CONTINUOUS
 90
3
 70
0
 10
8.7070331939
 20
15.6655348928
 10
8.669078564
 20
15.667843702
 10
8.6308322132
 20
15.6686221406
  0
LWPOLYLINE
  5
5FE
100
AcDbEntity
  8
0
100
AcDbPolyline
 62
7
  6
CONTINUOUS
 90
5
 70
0
 10
5.3126761158
 20
15.6126794416
 10
5.2910483991
 20
15.6144491867
 10
5.2693944969
 20
15.6157094441
 10
5.2477122086
 20
15.6164583571
 10
5.2260015339
 20
15.6166959257
  0
LINE
  5
5FF
100
AcDbEntity
  8
0
100
AcDbLine
 62
7
  6
CONTINUOUS
 10
8.5899045199
 20
16.3950886175
 11
8.4282401383
 21
16.4155524418
  0
LINE
  5
600
100
AcDbEntity
  8
0
100
AcDbLine
 62
7
  6
CONTINUOUS
 10
5.183592524
 20
16.3407479334
 11
5.022952581
 21
16.3611540532
  0
LWPOLYLINE
  5
601
100
AcDbEntity
  8
0
100
AcDbPolyline
 62
7
  6
CONTINUOUS
 90
10
 70
0
 10
8.1826739788
 20
16.0502727672
 10
8.1444377748
 20
16.0582085717
 10
8.1076310511
 20
16.0684474439
 10
8.0722538076
 20
16.0809893793
 10
8.0380775001
 20
16.0958659749
 10
8.0053306728
 20
16.1130456214
 10
7.9746989585
 20
16.1324335032
 10
7.9464109012
 20
16.1539980096
 10
7.9202379569
 20
16.1777707338
 10
7.8961801255
 20
16.2037516654
  0
LWPOLYLINE
  5
602
100
AcDbEntity
  8
0
100
AcDbPolyline
 62
7
  6
CONTINUOUS
 90
33
 70
0
 10
4.7809500026
 20
15.997433014
 10
4.7412950985
 20
16.0059386858
 10
4.7027072312
 20
16.0172811452
 10
4.6651864007
 20
16.0314603861
 10
4.6283168268
 20
16.0484599449
 10
4.5925142898
 20
16.068296268
 10
4.5590261298
 20
16.0910187115
 10
4.52795497
 20
16.1167188723
 10
4.4991981873
 20
16.1453051259
 10
4.4736952523
 20
16.1765519943
 10
4.4516516697
 20
16.2106069628
 10
4.4328619348
 20
16.2473225112
 10
4.4176490044
 20
16.286030657
 10
4.4060975296
 20
16.3268675197
 10
4.3981228593
 20
16.3696969473
 10
4.3937939962
 20
16.4134425621
 10
4.3929009982
 20
16.4581350206
 10
4.3956538073
 20
16.5037436493
 10
4.4027512522
 20
16.5491000952
 10
4.4143293829
 20
16.5945280158
 10
4.4302521494
 20
16.6397037554
 10
4.4508102307
 20
16.6824880216
 10
4.4766043257
 20
16.7229537949
 10
4.5070337356
 20
16.761028134
 10
4.540587043
 20
16.7943528981
 10
4.577485665
 20
16.822358252
 10
4.6175081845
 20
16.8456140922
 10
4.6584789323
 20
16.8634718906
 10
4.7001301835
 20
16.8756370723
 10
4.742729663
 20
16.8824042458
 10
4.7849048769
 20
16.8840086513
 10
4.8267847831
 20
16.880525868
 10
4.8682404238
 20
16.8718803147
  0
LWPOLYLINE
  5
603
100
AcDbEntity
  8
0
100
AcDbPolyline
 62
7
  6
CONTINUOUS
 90
5
 70
0
 10
8.855934505
 20
15.6409959294
 10
8.8191467585
 20
15.6494262323
 10
8.7820672912
 20
15.6563261593
 10
8.744696103
 20
15.6616957122
 10
8.7070331939
 20
15.6655348928
  0
LWPOLYLINE
  5
604
100
AcDbEntity
  8
0
100
AcDbPolyline
 62
7
  6
CONTINUOUS
 90
8
 70
0
 10
4.8682404238
 20
16.8718803147
 10
4.907512431
 20
16.8580804822
 10
4.9444531719
 20
16.8387130228
 10
4.9792102793
 20
16.8141912485
 10
5.010467284
 20
16.7857636378
 10
5.0377853627
 20
16.7538463373
 10
5.0616033388
 20
16.7180231544
 10
5.081921212
 20
16.678294061
  0
LWPOLYLINE
  5
605
100
AcDbEntity
  8
0
100
AcDbPolyline
 62
7
  6
CONTINUOUS
 90
7
 70
0
 10
8.9867500848
 20
14.6234823978
 10
9.0378019185
 20
14.6044452169
 10
9.0851553655
 20
14.5822077734
 10
9.1288104257
 20
14.5567700547
 10
9.1687670992
 20
14.5281320465
 10
9.205025386
 20
14.4962937328
 10
9.2375852861
 20
14.461255096
  0
LWPOLYLINE
  5
606
100
AcDbEntity
  8
0
100
AcDbPolyline
 62
7
  6
CONTINUOUS
 90
6
 70
0
 10
5.060632866
 20
15.5599507547
 10
5.0298254738
 20
15.5721411486
 10
4.9970697721
 20
15.5817603523
 10
4.9625852739
 20
15.5886749114
 10
4.9261524662
 20
15.5930182885
 10
4.8877713491
 20
15.5947904856
  0
LINE
  5
607
100
AcDbEntity
  8
RACCORDO
100
AcDbLine
 62
7
  6
CONTINUOUS
 10
-7.2419286989
 20
20.8366629075
 11
-7.3830351795
 21
20.9
  0
LWPOLYLINE
  5
608
100
AcDbEntity
  8
0
100
AcDbPolyline
 62
7
  6
CONTINUOUS
 90
25
 70
0
 10
9.0513642535
 20
14.4019099519
 10
9.0340314038
 20
14.4124924205
 10
9.0162616432
 20
14.4220693657
 10
8.9980549717
 20
14.4306407892
 10
8.9793022713
 20
14.4380935368
 10
8.96011266
 20
14.4445407655
 10
8.9408134919
 20
14.4503219431
 10
8.9214801561
 20
14.4554794291
 10
8.9020372634
 20
14.4599708652
 10
8.8825859999
 20
14.4640086418
 10
8.8631920412
 20
14.4676172098
 10
8.8437897118
 20
14.4707721188
 10
8.8242831706
 20
14.4736124068
 10
8.8047156175
 20
14.4761576185
 10
8.7850438526
 20
14.4783882095
 10
8.7650424351
 20
14.4803845835
 10
8.7447215705
 20
14.4821630185
 10
8.7240710533
 20
14.4837072365
 10
8.7028348265
 20
14.4850488071
 10
8.6810154466
 20
14.4861991599
 10
8.6586103571
 20
14.4871468654
 10
8.6353558315
 20
14.4878892035
 10
8.6111639611
 20
14.4884252678
 10
8.5861226546
 20
14.4887559647
 10
8.5602319121
 20
14.4888812944
  0
LWPOLYLINE
  5
609
100
AcDbEntity
  8
0
100
AcDbPolyline
 62
7
  6
CONTINUOUS
 90
25
 70
0
 10
8.0539620035
 20
13.9847492233
 10
8.0719034879
 20
13.9736217447
 10
8.0902772561
 20
13.9634743556
 10
8.109083308
 20
13.9543070576
 10
8.128415286
 20
13.946214822
 10
8.1481795478
 20
13.9391026804
 10
8.1680951662
 20
13.9326857248
 10
8.188115493
 20
13.9269335025
 10
8.2082871764
 20
13.9218764677
 10
8.2284692335
 20
13.9173210719
 10
8.2485870141
 20
13.9132515006
 10
8.2687151684
 20
13.9096835691
 10
8.2889366639
 20
13.906471173
 10
8.3092058417
 20
13.9035951952
 10
8.3295683607
 20
13.9010747532
 10
8.3502441646
 20
13.8988210942
 10
8.3712226908
 20
13.8968168573
 10
8.3925145018
 20
13.8950794036
 10
8.4143712294
 20
13.893572063
 10
8.4367895727
 20
13.8922824814
 10
8.4597728326
 20
13.891223013
 10
8.483582543
 20
13.8903940504
 10
8.5083058821
 20
13.8897957246
 10
8.5338556718
 20
13.8894279046
 10
8.5602319121
 20
13.8892905906
  0
LWPOLYLINE
  5
60A
100
AcDbEntity
  8
0
100
AcDbPolyline
 62
7
  6
CONTINUOUS
 90
16
 70
0
 10
5.645234653
 20
15.507818723
 10
5.6221599407
 20
15.5234489552
 10
5.599175742
 20
15.5365588327
 10
5.5759625112
 20
15.5474060679
 10
5.5529545348
 20
15.5570479004
 10
5.5302880313
 20
15.5656738082
 10
5.5078267822
 20
15.5730943172
 10
5.4855964189
 20
15.5797982361
 10
5.4636526822
 20
15.5858874148
 10
5.4419398312
 20
15.591260005
 10
5.4203162754
 20
15.5960992669
 10
5.3987762458
 20
15.6004608171
 10
5.3773255113
 20
15.6042890399
 10
5.3558397878
 20
15.6076003468
 10
5.3342754463
 20
15.6103983518
 10
5.3126761158
 20
15.6126794416
  0
LWPOLYLINE
  5
60B
100
AcDbEntity
  8
0
100
AcDbPolyline
 62
7
  6
CONTINUOUS
 90
18
 70
0
 10
8.5285260832
 20
15.5741232718
 10
8.5168506158
 20
15.58332735
 10
8.5047416854
 20
15.5918687294
 10
8.4921480653
 20
15.5997475223
 10
8.4791209823
 20
15.6069636185
 10
8.4658141171
 20
15.6135166855
 10
8.4522341054
 20
15.6193853726
 10
8.4383743114
 20
15.6245910321
 10
8.4243685089
 20
15.6291973855
 10
8.4102712004
 20
15.6331921072
 10
8.3960278835
 20
15.6365875239
 10
8.3816088248
 20
15.6394843353
 10
8.3670119694
 20
15.6418961365
 10
8.3522393722
 20
15.643809333
 10
8.3372674653
 20
15.6452838402
 10
8.3220883929
 20
15.6463396302
 10
8.3067100107
 20
15.6469567311
 10
8.291132319
 20
15.647135143
  0
LWPOLYLINE
  5
60C
100
AcDbEntity
  8
0
100
AcDbPolyline
 62
7
  6
CONTINUOUS
 90
10
 70
0
 10
8.0465660586
 20
15.145745102
 10
8.0708672287
 20
15.1257480347
 10
8.0964981749
 20
15.1082686331
 10
8.1234588972
 20
15.0933069052
 10
8.1519963713
 20
15.0809258688
 10
8.1818636215
 20
15.0710625188
 10
8.2123197208
 20
15.0635278272
 10
8.2431176937
 20
15.0582587863
 10
8.2745045159
 20
15.0553184092
 10
8.3064801872
 20
15.0547066972
  0
LINE
  5
60D
100
AcDbEntity
  8
0
100
AcDbLine
 62
7
  6
CONTINUOUS
 10
8.5397680879
 20
15.5642564937
 11
8.5285260832
 21
15.5741232718
  0
LINE
  5
60E
100
AcDbEntity
  8
0
100
AcDbLine
 62
7
  6
CONTINUOUS
 10
8.648985754
 20
15.6262697711
 11
8.6737651846
 21
15.6021745732
  0
LWPOLYLINE
  5
60F
100
AcDbEntity
  8
0
100
AcDbPolyline
 62
7
  6
CONTINUOUS
 90
19
 70
0
 10
8.0125692596
 20
16.3262924137
 10
8.0215373709
 20
16.3173741298
 10
8.0308780887
 20
16.3089532836
 10
8.040591413
 20
16.3010298758
 10
8.0507188699
 20
16.293610473
 10
8.0612189333
 20
16.2866885102
 10
8.0719670245
 20
16.2802442911
 10
8.0829572762
 20
16.27428844
 10
8.0941955557
 20
16.2688103339
 10
8.1055748865
 20
16.2637584046
 10
8.1170465859
 20
16.2591452937
 10
8.1286593367
 20
16.2549583605
 10
8.1404522104
 20
16.2511081142
 10
8.1524254207
 20
16.2475814119
 10
8.164578754
 20
16.2443913971
 10
8.1769506416
 20
16.2414880087
 10
8.189553894
 20
16.2388545601
 10
8.2023757008
 20
16.2365077382
 10
8.2154160619
 20
16.2344475433
  0
LWPOLYLINE
  5
610
100
AcDbEntity
  8
0
100
AcDbPolyline
 62
7
  6
CONTINUOUS
 90
10
 70
0
 10
7.9332633365
 20
14.9997103227
 10
7.9039909709
 20
15.030511948
 10
7.8781147362
 20
15.0632208895
 10
7.8556346326
 20
15.0978371356
 10
7.836484437
 20
15.1346747357
 10
7.8207303723
 20
15.1734196139
 10
7.8085711076
 20
15.2131295764
 10
7.8000728656
 20
15.2534905566
 10
7.7951694235
 20
15.2948166078
 10
7.7938607812
 20
15.3371077225
  0
LWPOLYLINE
  5
611
100
AcDbEntity
  8
0
100
AcDbPolyline
 62
7
  6
CONTINUOUS
 90
4
 70
0
 10
8.6737651846
 20
15.6021745732
 10
8.6967347369
 20
15.5757922953
 10
8.7178944109
 20
15.547122926
 10
8.7372442067
 20
15.5161664531
  0
LWPOLYLINE
  5
612
100
AcDbEntity
  8
0
100
AcDbPolyline
 62
7
  6
CONTINUOUS
 90
10
 70
0
 10
7.8961801255
 20
16.2037516654
 10
7.8743826638
 20
16.2317876786
 10
7.8551916029
 20
16.2612577976
 10
7.8386069428
 20
16.2921620141
 10
7.8246276692
 20
16.3247300338
 10
7.8132547964
 20
16.3587321318
 10
7.8044913669
 20
16.3934791575
 10
7.798338395
 20
16.4287413925
 10
7.7947948664
 20
16.4647485455
 10
7.7938607812
 20
16.501500611
  0
LWPOLYLINE
  5
613
100
AcDbEntity
  8
0
100
AcDbPolyline
 62
7
  6
CONTINUOUS
 90
10
 70
0
 10
7.8961800814
 20
17.36916769
 10
7.8743827603
 20
17.3972034752
 10
7.8551917986
 20
17.4266734092
 10
7.8386071964
 20
17.4575774831
 10
7.8246279294
 20
17.4901453735
 10
7.8132550219
 20
17.5241473832
 10
7.8044915461
 20
17.5588944466
 10
7.7983385261
 20
17.5941568736
 10
7.7947949378
 20
17.6301643439
 10
7.7938607812
 20
17.6669168517
  0
LWPOLYLINE
  5
614
100
AcDbEntity
  8
0
100
AcDbPolyline
 62
7
  6
CONTINUOUS
 90
10
 70
0
 10
9.2375852861
 20
14.461255096
 10
9.2565708224
 20
14.4360816122
 10
9.2732333181
 20
14.4094808962
 10
9.2875727732
 20
14.3814529417
 10
9.2995612559
 20
14.3517839226
 10
9.309226698
 20
14.32068765
 10
9.3166528948
 20
14.2888055758
 10
9.321867778
 20
14.2563515162
 10
9.3248434158
 20
14.2231116473
 10
9.3255798083
 20
14.1890859649
  0
LWPOLYLINE
  5
615
100
AcDbEntity
  8
0
100
AcDbPolyline
 62
7
  6
CONTINUOUS
 90
10
 70
0
 10
8.3686609306
 20
16.6568742428
 10
8.3531205478
 20
16.6777186587
 10
8.336091685
 20
16.6958978473
 10
8.317574342
 20
16.7114118185
 10
8.2974058462
 20
16.7241630579
 10
8.2757488703
 20
16.7342490951
 10
8.2530914328
 20
16.7419625034
 10
8.2295962065
 20
16.7474008089
 10
8.2051005188
 20
16.7504664917
 10
8.1796043694
 20
16.7511595532
  0
LWPOLYLINE
  5
616
100
AcDbEntity
  8
0
100
AcDbPolyline
 62
7
  6
CONTINUOUS
 90
10
 70
0
 10
8.3686608484
 20
17.82229043
 10
8.3531211216
 20
17.8431342493
 10
8.3360927579
 20
17.8613130502
 10
8.3175757575
 20
17.8768268433
 10
8.2974074541
 20
17.889578194
 10
8.2757505139
 20
17.8996645533
 10
8.2530929355
 20
17.9073782567
 10
8.229597385
 20
17.9128167512
 10
8.2051011963
 20
17.9158825964
 10
8.1796043694
 20
17.9165757939
  0
LWPOLYLINE
  5
617
100
AcDbEntity
  8
0
100
AcDbPolyline
 62
7
  6
CONTINUOUS
 90
7
 70
0
 10
9.135638815
 20
15.4672817848
 10
9.1217993021
 20
15.4880835955
 10
9.1065657519
 20
15.5075510316
 10
9.0899381644
 20
15.525684098
 10
9.0719165395
 20
15.542482799
 10
9.0525008773
 20
15.557947139
 10
9.0316911777
 20
15.5720771217
  0
LWPOLYLINE
  5
618
100
AcDbEntity
  8
0
100
AcDbPolyline
 62
7
  6
CONTINUOUS
 90
7
 70
0
 10
9.2365620325
 20
15.6031377653
 10
9.2640440405
 20
15.5600957424
 10
9.2864677636
 20
15.5150345374
 10
9.3038332019
 20
15.4679541335
 10
9.3161403555
 20
15.4188545133
 10
9.3233892243
 20
15.3677356589
 10
9.3255798083
 20
15.3145975515
  0
LWPOLYLINE
  5
619
100
AcDbEntity
  8
0
100
AcDbPolyline
 62
7
  6
CONTINUOUS
 90
7
 70
0
 10
8.737244129
 20
19.0124147724
 10
8.7538657736
 20
18.9804468811
 10
8.7674540436
 20
18.9474871629
 10
8.7780089389
 20
18.9135356103
 10
8.7855304595
 20
18.878592216
 10
8.7900186055
 20
18.842656972
 10
8.7914733768
 20
18.8057298705
  0
LINE
  5
61A
100
AcDbEntity
  8
RACCORDO
100
AcDbLine
 62
7
  6
CONTINUOUS
 10
7.1348648826
 20
18.5017443099
 11
7.1085073836
 21
18.5
  0
LINE
  5
61B
100
AcDbEntity
  8
RACCORDO
100
AcDbLine
 62
7
  6
CONTINUOUS
 10
-6.7939855153
 20
18.5017370046
 11
-6.8202886235
 21
18.5
  0
LWPOLYLINE
  5
61C
100
AcDbEntity
  8
0
100
AcDbPolyline
 62
7
  6
CONTINUOUS
 90
28
 70
0
 10
5.462169395
 20
18.4842202492
 10
5.4985673455
 20
18.4862839997
 10
5.5337479575
 20
18.4920386923
 10
5.567711231
 20
18.5014843222
 10
5.60106891
 20
18.5146575708
 10
5.6332092506
 20
18.5315217379
 10
5.6622970204
 20
18.5519667423
 10
5.6879283603
 20
18.5763827465
 10
5.7105071296
 20
18.6043795504
 10
5.729409674
 20
18.6346765332
 10
5.7444760021
 20
18.6672935709
 10
5.7558661053
 20
18.7022107544
 10
5.7634363039
 20
18.7380878011
 10
5.7672647525
 20
18.7751337172
 10
5.7672732964
 20
18.8131394792
 10
5.7630837919
 20
18.8501377865
 10
5.7543269294
 20
18.8860726064
 10
5.7413720185
 20
18.9209999883
 10
5.7249488441
 20
18.9531207857
 10
5.704854308
 20
18.9820623606
 10
5.6812915084
 20
19.0081973917
 10
5.6555995261
 20
19.0308447233
 10
5.6279184357
 20
19.0498074103
 10
5.5981081625
 20
19.0652824317
 10
5.5670875626
 20
19.0771795185
 10
5.5351629212
 20
19.0854685866
 10
5.5020279531
 20
19.0901797368
 10
5.4676826582
 20
19.0913129729
  0
LINE
  5
61D
100
AcDbEntity
  8
0
100
AcDbLine
 62
7
  6
CONTINUOUS
 10
8.6211554585
 20
19.1646052089
 11
8.6119200456
 21
19.1642162912
  0
LWPOLYLINE
  5
61E
100
AcDbEntity
  8
0
100
AcDbPolyline
 62
7
  6
CONTINUOUS
 90
28
 70
0
 10
5.4676826582
 20
19.0913129729
 10
5.4333776842
 20
19.0901685806
 10
5.4001113881
 20
19.0853220084
 10
5.3678837698
 20
19.0767732522
 10
5.33632985
 20
19.0644831961
 10
5.3058146081
 20
19.0484909381
 10
5.2774329824
 20
19.0289137907
 10
5.2510575095
 20
19.0055527968
 10
5.2268156528
 20
18.9786068774
 10
5.2061847419
 20
18.9487901625
 10
5.1894432604
 20
18.9157274793
 10
5.1763127247
 20
18.8797939576
 10
5.1674350129
 20
18.8428291975
 10
5.1630480427
 20
18.8046519941
 10
5.1629138964
 20
18.7654435341
 10
5.1669606995
 20
18.7275870406
 10
5.175401035
 20
18.69137568
 10
5.1880223199
 20
18.6565163107
 10
5.2041149307
 20
18.6245127253
 10
5.2238782473
 20
18.5957146331
 10
5.2471128898
 20
18.5697723658
 10
5.2725110943
 20
18.5471406618
 10
5.2998425024
 20
18.5278808251
 10
5.3293374726
 20
18.5119315832
 10
5.3603793158
 20
18.4995638099
 10
5.3927624692
 20
18.4908678026
 10
5.4266924956
 20
18.485753281
 10
5.462169395
 20
18.4842202492
  0
LWPOLYLINE
  5
61F
100
AcDbEntity
  8
0
100
AcDbPolyline
 62
7
  6
CONTINUOUS
 90
7
 70
0
 10
8.6119200456
 20
19.1642162912
 10
8.6073225217
 20
19.1640587438
 10
8.604975923
 20
19.1639911162
 10
8.6024812263
 20
19.1639356911
 10
8.5998013349
 20
19.1638940355
 10
8.5969733454
 20
19.1638645824
 10
8.5939972579
 20
19.1638473317
  0
LWPOLYLINE
  5
620
100
AcDbEntity
  8
0
100
AcDbPolyline
 62
7
  6
CONTINUOUS
 90
28
 70
0
 10
4.7716921707
 20
18.5447209446
 10
4.7993298609
 20
18.5455966581
 10
4.8262855179
 20
18.5495603863
 10
4.852559142
 20
18.5566121263
 10
4.8786614465
 20
18.5668399169
 10
4.904081718
 20
18.5801557073
 10
4.9272878156
 20
18.5962953576
 10
4.9480498404
 20
18.6154646139
 10
4.9665976914
 20
18.6374577071
 10
4.9820889248
 20
18.6613932265
 10
4.9942316213
 20
18.6873647296
 10
5.0033177002
 20
18.7152786366
 10
5.0093804766
 20
18.7439728415
 10
5.012450991
 20
18.7735835915
 10
5.0124982027
 20
18.8039746284
 10
5.0094623048
 20
18.8335751064
 10
5.0032249111
 20
18.8623197342
 10
4.9939044077
 20
18.8902738137
 10
4.9817961453
 20
18.9160624084
 10
4.9666307463
 20
18.9394007682
 10
4.9486775883
 20
18.9605736686
 10
4.9290401554
 20
18.9790604702
 10
4.9078128175
 20
18.9947525577
 10
4.8849012047
 20
19.0077585678
 10
4.8611256913
 20
19.0178837405
 10
4.8367597353
 20
19.0250631596
 10
4.8115298786
 20
19.0293617528
 10
4.7854361213
 20
19.0307795229
  0
LWPOLYLINE
  5
621
100
AcDbEntity
  8
0
100
AcDbPolyline
 62
7
  6
CONTINUOUS
 90
10
 70
0
 10
8.8610504597
 20
17.9841063067
 10
8.8349718049
 20
17.9833658352
 10
8.8094982164
 20
17.9805151434
 10
8.7846296941
 20
17.9755542298
 10
8.7602108936
 20
17.9684922058
 10
8.7363971592
 20
17.9593199545
 10
8.7136545249
 20
17.9480101317
 10
8.6921383351
 20
17.9345536187
 10
8.6716932453
 20
17.9189595226
 10
8.6523192555
 20
17.9012278363
  0
LWPOLYLINE
  5
622
100
AcDbEntity
  8
0
100
AcDbPolyline
 62
7
  6
CONTINUOUS
 90
10
 70
0
 10
8.3064801872
 20
18.5509550616
 10
8.3351968564
 20
18.5515519978
 10
8.3633797058
 20
18.5543339723
 10
8.3910287353
 20
18.5593009839
 10
8.4183641156
 20
18.5663821246
 10
8.4451656761
 20
18.5756482965
 10
8.4707729047
 20
18.5873122107
 10
8.4949656309
 20
18.6014447659
 10
8.5179640253
 20
18.6179750494
 10
8.5397680879
 20
18.636903052
  0
LWPOLYLINE
  5
623
100
AcDbEntity
  8
0
100
AcDbPolyline
 62
7
  6
CONTINUOUS
 90
5
 70
0
 10
8.6308322132
 20
19.164870505
 10
8.6283810181
 20
19.1648259755
 10
8.6259516289
 20
19.1647678617
 10
8.6235440454
 20
19.1646961638
 10
8.6211554585
 20
19.1646052089
  0
LWPOLYLINE
  5
624
100
AcDbEntity
  8
0
100
AcDbPolyline
 62
7
  6
CONTINUOUS
 90
28
 70
0
 10
4.7854361213
 20
19.0307795229
 10
4.7590794397
 20
19.0303249589
 10
4.7332687637
 20
19.0268324687
 10
4.7080040933
 20
19.02030205
 10
4.6829136032
 20
19.0106895763
 10
4.6583691187
 20
18.9980391627
 10
4.6354861154
 20
18.9824831664
 10
4.6142133052
 20
18.9638740602
 10
4.5946019761
 20
18.9423593482
 10
4.5779214677
 20
18.9185139345
 10
4.5644188105
 20
18.8920435091
 10
4.553846974
 20
18.8632423544
 10
4.5467342056
 20
18.8335682732
 10
4.5433025785
 20
18.8028600171
 10
4.5433300194
 20
18.7712788221
 10
4.5466785569
 20
18.7407662415
 10
4.5535402221
 20
18.7115483291
 10
4.5637229838
 20
18.6833990467
 10
4.5765127769
 20
18.6575818311
 10
4.5920423919
 20
18.6344043804
 10
4.6101790382
 20
18.6135590235
 10
4.6298102787
 20
18.5953861507
 10
4.6507529733
 20
18.5799411366
 10
4.673190262
 20
18.567168627
 10
4.6965591278
 20
18.5572429187
 10
4.7206718984
 20
18.5502221143
 10
4.745716246
 20
18.546048122
 10
4.7716921707
 20
18.5447209446
  0
LWPOLYLINE
  5
625
100
AcDbEntity
  8
0
100
AcDbPolyline
 62
7
  6
CONTINUOUS
 90
16
 70
0
 10
8.291132319
 20
19.1433835074
 10
8.2735083016
 20
19.1431820326
 10
8.2559299877
 20
19.1423269624
 10
8.2383973773
 20
19.1408182966
 10
8.2208850585
 20
19.1387032678
 10
8.2034184432
 20
19.135934643
 10
8.1860737674
 20
19.1323707235
 10
8.1688525433
 20
19.1280242122
 10
8.1517532586
 20
19.1228824049
 10
8.1348476126
 20
19.1167654919
 10
8.1180841548
 20
19.1096514565
 10
8.1015143355
 20
19.1015623124
 10
8.085364205
 20
19.0923842957
 10
8.0697091133
 20
19.0820794833
 10
8.0544737103
 20
19.0706857933
 10
8.039657996
 20
19.0582032229
  0
LINE
  5
626
100
AcDbEntity
  8
0
100
AcDbLine
 62
7
  6
CONTINUOUS
 10
-3.325042
 20
17.962609
 11
-1.474958
 21
17.962609
  0
LINE
  5
627
100
AcDbEntity
  8
0
100
AcDbLine
 62
7
  6
CONTINUOUS
 10
-2.982778
 20
18.327522
 11
-2.532571
 21
18.327526
  0
LINE
  5
628
100
AcDbEntity
  8
0
100
AcDbLine
 62
7
  6
CONTINUOUS
 10
1.8489555797
 20
18.3757750279
 11
2.7497913572
 21
18.3757750279
  0
LINE
  5
629
100
AcDbEntity
  8
0
100
AcDbLine
 62
7
  6
CONTINUOUS
 10
1.8489555797
 20
18.4683750056
 11
2.7497913572
 21
18.4683750056
  0
LINE
  5
62A
100
AcDbEntity
  8
RACCORDO
100
AcDbLine
 62
7
  6
CONTINUOUS
 10
6.8202886235
 20
18.5
 11
7.1085073836
 21
18.5
  0
LINE
  5
62B
100
AcDbEntity
  8
RACCORDO
100
AcDbLine
 62
7
  6
CONTINUOUS
 10
-6.8202886235
 20
18.5
 11
-7.1085073836
 21
18.5
  0
LINE
  5
62C
100
AcDbEntity
  8
RACCORDO
100
AcDbLine
 62
250
  6
CONTINUOUS
 10
6.6572287868
 20
18.7
 11
6.6200664561
 21
18.7
  0
LINE
  5
62D
100
AcDbEntity
  8
RACCORDO
100
AcDbLine
 62
250
  6
CONTINUOUS
 10
-6.6572287868
 20
18.7
 11
-6.6200664561
 21
18.7
  0
LINE
  5
62E
100
AcDbEntity
  8
RACCORDO
100
AcDbLine
 62
250
  6
CONTINUOUS
 10
7.234606201
 20
18.7
 11
7.3089365232
 21
18.7
  0
LINE
  5
62F
100
AcDbEntity
  8
RACCORDO
100
AcDbLine
 62
250
  6
CONTINUOUS
 10
-7.234606201
 20
18.7
 11
-7.3089365232
 21
18.7
  0
LINE
  5
630
100
AcDbEntity
  8
0
100
AcDbLine
 62
7
  6
CONTINUOUS
 10
1.8489599193
 20
18.7334347608
 11
3.3517129103
 21
18.7334347608
  0
LINE
  5
631
100
AcDbEntity
  8
0
100
AcDbLine
 62
7
  6
CONTINUOUS
 10
1.9289473031
 20
18.826092889
 11
2.6024478439
 21
18.826092889
  0
LINE
  5
632
100
AcDbEntity
  8
0
100
AcDbLine
 62
7
  6
CONTINUOUS
 10
2.6824352277
 20
18.826092889
 11
3.3517129103
 21
18.826092889
  0
LINE
  5
633
100
AcDbEntity
  8
RACCORDO
100
AcDbLine
 62
250
  6
CONTINUOUS
 10
6.6598468471
 20
19.0
 11
7.2293696815
 21
19.0
  0
LINE
  5
634
100
AcDbEntity
  8
RACCORDO
100
AcDbLine
 62
250
  6
CONTINUOUS
 10
-6.6598468471
 20
19.0
 11
-7.2293696815
 21
19.0
  0
LINE
  5
635
100
AcDbEntity
  8
0
100
AcDbLine
 62
7
  6
CONTINUOUS
 10
-2.190307
 20
18.332669
 11
-1.474958
 21
18.332628
  0
LWPOLYLINE
  5
636
100
AcDbEntity
  8
0
100
AcDbPolyline
 62
7
  6
CONTINUOUS
 90
39
 70
0
 10
2.7497913572
 20
18.4683750056
 10
2.797327587
 20
18.4681004974
 10
2.8447565665
 20
18.4654395785
 10
2.8920782956
 20
18.4603922477
 10
2.9397247545
 20
18.4532105492
 10
2.987263963
 20
18.4436424324
 10
3.0333999804
 20
18.4309317497
 10
3.0780918328
 20
18.4150193546
 10
3.1213804941
 20
18.3959643735
 10
3.1620929449
 20
18.3731880598
 10
3.2000713804
 20
18.3467224192
 10
3.2354736054
 20
18.3165354056
 10
3.2676000157
 20
18.2819521839
 10
3.2965008764
 20
18.2426790615
 10
3.3221259224
 20
18.199009658
 10
3.3436247531
 20
18.1511500973
 10
3.3607414225
 20
18.0983502409
 10
3.3737318768
 20
18.0413601301
 10
3.3825135532
 20
17.9826361854
 10
3.3871146428
 20
17.9217999854
 10
3.3875069545
 20
17.8592299047
 10
3.3835233534
 20
17.7985176356
 10
3.3750643981
 20
17.7400683126
 10
3.3622295298
 20
17.683476854
 10
3.3451499376
 20
17.631119703
 10
3.3235519287
 20
17.5837513105
 10
3.2977091959
 20
17.540617322
 10
3.2685740063
 20
17.5018309961
 10
3.2362189296
 20
17.4676470112
 10
3.2005713961
 20
17.4378107577
 10
3.1623659635
 20
17.411671553
 10
3.1214429986
 20
17.3891871528
 10
3.0779621346
 20
17.3703998391
 10
3.0331368287
 20
17.3547857082
 10
2.9869488731
 20
17.3424469592
 10
2.9394164756
 20
17.3332814118
 10
2.8918077172
 20
17.3264585863
 10
2.8445452915
 20
17.3217016573
 10
2.7972065048
 20
17.3192874557
  0
LWPOLYLINE
  5
637
100
AcDbEntity
  8
0
100
AcDbPolyline
 62
7
  6
CONTINUOUS
 90
10
 70
0
 10
8.3003410578
 20
18.3616644189
 10
8.2539693288
 20
18.3627017153
 10
8.2087283322
 20
18.3671747741
 10
8.1646180681
 20
18.3750835919
 10
8.1212844085
 20
18.3863810604
 10
8.0790814814
 20
18.4011142733
 10
8.0390716701
 20
18.4194245256
 10
8.0016091024
 20
18.4413589048
 10
7.9663396506
 20
18.4668702911
 10
7.9332633146
 20
18.4959586641
  0
LWPOLYLINE
  5
638
100
AcDbEntity
  8
0
100
AcDbPolyline
 62
7
  6
CONTINUOUS
 90
10
 70
0
 10
8.8569577217
 20
18.1795359895
 10
8.8991066401
 20
18.1780059549
 10
8.9401823667
 20
18.1727813935
 10
8.9801849016
 20
18.1638623011
 10
9.0193883123
 20
18.1511270526
 10
9.0575185313
 20
18.1346972554
 10
9.093753356
 20
18.1149377504
 10
9.1278187186
 20
18.0919701415
 10
9.1599886869
 20
18.0656727941
 10
9.1902632608
 20
18.0360456892
  0
LWPOLYLINE
  5
639
100
AcDbEntity
  8
0
100
AcDbPolyline
 62
7
  6
CONTINUOUS
 90
7
 70
0
 10
8.1836971521
 20
18.1058664367
 10
8.2154025516
 20
18.1045213295
 10
8.246226611
 20
18.1002354099
 10
8.2761693301
 20
18.0930086752
 10
8.3052307091
 20
18.0828411206
 10
8.333410748
 20
18.0697327396
 10
8.3607094467
 20
18.0536835238
  0
LWPOLYLINE
  5
63A
100
AcDbEntity
  8
RACCORDO
100
AcDbPolyline
 62
7
  6
CONTINUOUS
 90
6
 70
0
 10
-7.034636662
 20
18.5
 10
-7.0607379245
 20
18.5017110277
 10
-7.0863925872
 20
18.5068148348
 10
-7.1111616916
 20
18.5152240935
 10
-7.1346214316
 20
18.5267949193
 10
-7.1457306125
 20
18.5337039572
  0
LWPOLYLINE
  5
63B
100
AcDbEntity
  8
RACCORDO
100
AcDbPolyline
 62
7
  6
CONTINUOUS
 90
6
 70
0
 10
6.8572211714
 20
18.5
 10
6.8311169269
 20
18.5017110277
 10
6.8054593333
 20
18.5068148348
 10
6.7806873991
 20
18.5152240935
 10
6.757224979
 20
18.5267949193
 10
6.7451223079
 20
18.5343712351
  0
LWPOLYLINE
  5
63C
100
AcDbEntity
  8
RACCORDO
100
AcDbPolyline
 62
7
  6
CONTINUOUS
 90
4
 70
0
 10
6.8202886235
 20
18.5
 10
6.7939855153
 20
18.5017370046
 10
6.7681744471
 20
18.5069073744
 10
6.7432991968
 20
18.5154061091
  0
LINE
  5
63D
100
AcDbEntity
  8
RACCORDO
100
AcDbLine
 62
7
  6
CONTINUOUS
 10
-7.1354636732
 20
18.5018319132
 11
-7.1094109243
 21
18.5
  0
LINE
  5
63E
100
AcDbEntity
  8
0
100
AcDbLine
 62
7
  6
CONTINUOUS
 10
8.5899045199
 20
17.5605046794
 11
8.4282401383
 21
17.5809685037
  0
LINE
  5
63F
100
AcDbEntity
  8
0
100
AcDbLine
 62
7
  6
CONTINUOUS
 10
5.20861965
 20
17.4769870445
 11
5.047979909
 21
17.4973930116
  0
LWPOLYLINE
  5
640
100
AcDbEntity
  8
0
100
AcDbPolyline
 62
7
  6
CONTINUOUS
 90
10
 70
0
 10
8.1826739788
 20
17.2156888291
 10
8.1444380101
 20
17.2236245906
 10
8.107631444
 20
17.2338634275
 10
8.0722542806
 20
17.2464053349
 10
8.038077952
 20
17.2612819053
 10
8.0053310261
 20
17.2784615328
 10
7.9746992058
 20
17.2978494141
 10
7.9464110587
 20
17.3194139416
 10
7.9202380172
 20
17.343186704
 10
7.8961800814
 20
17.36916769
  0
LWPOLYLINE
  5
641
100
AcDbEntity
  8
0
100
AcDbPolyline
 62
7
  6
CONTINUOUS
 90
33
 70
0
 10
4.8059769277
 20
17.1336716024
 10
4.766320751
 20
17.1421776827
 10
4.7277318598
 20
17.1535205942
 10
4.6902102541
 20
17.1677003305
 10
4.653340163
 20
17.1847004633
 10
4.6175373573
 20
17.2045374024
 10
4.5840491498
 20
17.2272603949
 10
4.5529782017
 20
17.2529610419
 10
4.5242218517
 20
17.2815477127
 10
4.4987194288
 20
17.3127948048
 10
4.4766764438
 20
17.346849742
 10
4.4578873858
 20
17.3835650631
 10
4.4426750505
 20
17.4222728424
 10
4.4311240421
 20
17.4631091434
 10
4.4231497564
 20
17.5059378678
 10
4.4188211764
 20
17.5496828611
 10
4.4179282967
 20
17.5943747962
 10
4.4206811228
 20
17.6399829821
 10
4.4277786545
 20
17.6853392395
 10
4.4393569804
 20
17.7307673818
 10
4.4552800121
 20
17.7759435977
 10
4.4758384835
 20
17.8187283025
 10
4.5016332299
 20
17.8591944588
 10
4.5320634161
 20
17.8972691461
 10
4.5656172709
 20
17.9305939928
 10
4.6025161187
 20
17.9585989822
 10
4.642538635
 20
17.9818541967
 10
4.6835090759
 20
17.9997114283
 10
4.7251595477
 20
18.0118761675
 10
4.7677579439
 20
18.0186429599
 10
4.8099322017
 20
18.020247174
 10
4.8518113954
 20
18.0167644898
 10
4.8932664506
 20
18.0081192253
  0
LWPOLYLINE
  5
642
100
AcDbEntity
  8
0
100
AcDbPolyline
 62
7
  6
CONTINUOUS
 90
8
 70
0
 10
4.8932664506
 20
18.0081192253
 10
4.9325380808
 20
17.9943196975
 10
4.9694787045
 20
17.97495259
 10
5.0042359033
 20
17.950431181
 10
5.0354931356
 20
17.9220036772
 10
5.0628115542
 20
17.8900861336
 10
5.0866300065
 20
17.8542624461
 10
5.1069484923
 20
17.8145325847
  0
LWPOLYLINE
  5
643
100
AcDbEntity
  8
0
100
AcDbPolyline
 62
7
  6
CONTINUOUS
 90
7
 70
0
 10
8.977530607
 20
15.7889070083
 10
9.031039755
 20
15.7670653844
 10
9.0804140055
 20
15.7415758198
 10
9.1256533585
 20
15.712438297
 10
9.166757814
 20
15.6796527957
 10
9.203727372
 20
15.6432192935
 10
9.2365620325
 20
15.6031377653
  0
LWPOLYLINE
  5
644
100
AcDbEntity
  8
0
100
AcDbPolyline
 62
7
  6
CONTINUOUS
 90
16
 70
0
 10
9.0316911777
 20
15.5720771217
 10
9.0207141665
 20
15.5786365116
 10
9.009591479
 20
15.5848627369
 10
8.9983231152
 20
15.590755798
 10
8.9868909837
 20
15.5962913476
 10
8.9753131758
 20
15.6014937337
 10
8.9636439657
 20
15.6064359998
 10
8.9518875943
 20
15.611127217
 10
8.9400398206
 20
15.6155583146
 10
8.9281421953
 20
15.6197751223
 10
8.9162033154
 20
15.6237807546
 10
8.9042145839
 20
15.6275720974
 10
8.8921917611
 20
15.6311856374
 10
8.8801401004
 20
15.6346335372
 10
8.8680543484
 20
15.6379036345
 10
8.855934505
 20
15.6409959294
  0
LWPOLYLINE
  5
645
100
AcDbEntity
  8
0
100
AcDbPolyline
 62
7
  6
CONTINUOUS
 90
3
 70
0
 10
8.5939972579
 20
15.6675989673
 10
8.6223964451
 20
15.6480778993
 10
8.648985754
 20
15.6262697711
  0
LWPOLYLINE
  5
646
100
AcDbEntity
  8
RACCORDO
100
AcDbPolyline
 62
250
  6
CONTINUOUS
 90
9
 70
0
 10
6.7451223079
 20
18.5343712351
 10
6.7354735214
 20
18.541329332
 10
6.7158052
 20
18.5585786439
 10
6.698556545
 20
18.5782477143
 10
6.6840226857
 20
18.6000000001
 10
6.6724523006
 20
18.6234633136
 10
6.664043362
 20
18.648236191
 10
6.6589397493
 20
18.6738947616
 10
6.6572287868
 20
18.7
  0
LWPOLYLINE
  5
647
100
AcDbEntity
  8
0
100
AcDbPolyline
 62
7
  6
CONTINUOUS
 90
7
 70
0
 10
8.3607095286
 20
16.8882674084
 10
8.3865812509
 20
16.8692943813
 10
8.4105626667
 20
16.8476104384
 10
8.4326537759
 20
16.8232155679
 10
8.4528545787
 20
16.7961097563
 10
8.4711650748
 20
16.7662929887
 10
8.4875852644
 20
16.733765249
  0
LWPOLYLINE
  5
648
100
AcDbEntity
  8
RACCORDO
100
AcDbPolyline
 62
7
  6
CONTINUOUS
 90
8
 70
0
 10
6.6980324725
 20
18.5416836961
 10
6.678390465
 20
18.5589942732
 10
6.6611858003
 20
18.5787024009
 10
6.6467097823
 20
18.60045995
 10
6.6352044001
 20
18.6238823695
 10
6.6268536167
 20
18.6485625367
 10
6.6217837243
 20
18.6740798342
 10
6.6200664561
 20
18.7
  0
LWPOLYLINE
  5
649
100
AcDbEntity
  8
0
100
AcDbPolyline
 62
7
  6
CONTINUOUS
 90
10
 70
0
 10
9.0843594653
 20
16.7289057141
 10
9.0637447049
 20
16.747763604
 10
9.0419499176
 20
16.7644258455
 10
9.0189751034
 20
16.7788924461
 10
8.9946460101
 20
16.7911965033
 10
8.96913689
 20
16.8013049314
 10
8.9429704992
 20
16.8091184617
 10
8.91632109
 20
16.8146040068
 10
8.8890144102
 20
16.8177946603
 10
8.8610504597
 20
16.8186904237
  0
LWPOLYLINE
  5
64A
100
AcDbEntity
  8
0
100
AcDbPolyline
 62
7
  6
CONTINUOUS
 90
19
 70
0
 10
8.0125691708
 20
17.4917085694
 10
8.0215370561
 20
17.4827904796
 10
8.0308775808
 20
17.4743697834
 10
8.0405907448
 20
17.4664464816
 10
8.0507180735
 20
17.4590271332
 10
8.0612180416
 20
17.4521051809
 10
8.0719660725
 20
17.4456609514
 10
8.0829563024
 20
17.4397050716
 10
8.0941945951
 20
17.434226916
 10
8.1055739658
 20
17.4291749316
 10
8.1170457345
 20
17.4245617624
 10
8.1286585811
 20
17.4203747655
 10
8.1404515609
 20
17.416524458
 10
8.1524248879
 20
17.412997699
 10
8.164578348
 20
17.4098076301
 10
8.1769503542
 20
17.406904192
 10
8.1895537107
 20
17.4042706985
 10
8.2023756133
 20
17.4019238362
 10
8.2154160619
 20
17.3998636052
  0
LWPOLYLINE
  5
64B
100
AcDbEntity
  8
0
100
AcDbPolyline
 62
7
  6
CONTINUOUS
 90
10
 70
0
 10
7.9332633146
 20
18.4959586641
 10
7.9039894149
 20
18.5267625904
 10
7.8781121741
 20
18.5594732565
 10
7.8556315924
 20
18.5940906483
 10
7.8364816385
 20
18.6309288085
 10
7.8207283436
 20
18.6696736617
 10
7.8085698011
 20
18.7093830232
 10
7.8000720421
 20
18.7497428291
 10
7.7951690354
 20
18.7910671272
 10
7.7938607812
 20
18.8333559081
  0
LWPOLYLINE
  5
64C
100
AcDbEntity
  8
0
100
AcDbPolyline
 62
7
  6
CONTINUOUS
 90
10
 70
0
 10
9.1902632608
 20
16.8706294485
 10
9.2194880736
 20
16.8370981755
 10
9.2451881276
 20
16.8016406889
 10
9.2673634229
 20
16.7642569749
 10
9.2860062651
 20
16.724607767
 10
9.3011243486
 20
16.6830323003
 10
9.3127407557
 20
16.640548321
 10
9.3208631805
 20
16.5974950766
 10
9.325483929
 20
16.5535333066
 10
9.3266030012
 20
16.5086630031
  0
LWPOLYLINE
  5
64D
100
AcDbEntity
  8
0
100
AcDbPolyline
 62
7
  6
CONTINUOUS
 90
10
 70
0
 10
9.1902632608
 20
18.0360456892
 10
9.2194879911
 20
18.0025145271
 10
9.2451879852
 20
17.9670571509
 10
9.2673632432
 20
17.9296735461
 10
9.2860060736
 20
17.8900244854
 10
9.3011241678
 20
17.8484491623
 10
9.3127406002
 20
17.8059652017
 10
9.3208630623
 20
17.7629118105
 10
9.3254838626
 20
17.7189497677
 10
9.3266030012
 20
17.674079065
  0
LWPOLYLINE
  5
64E
100
AcDbEntity
  8
0
100
AcDbPolyline
 62
7
  6
CONTINUOUS
 90
4
 70
0
 10
8.6737648316
 20
19.0984232301
 10
8.6967344059
 20
19.072040913
 10
8.7178941717
 20
19.0433714321
 10
8.737244129
 20
19.0124147724
  0
LWPOLYLINE
  5
64F
100
AcDbEntity
  8
0
100
AcDbPolyline
 62
7
  6
CONTINUOUS
 90
7
 70
0
 10
9.1356388541
 20
18.963529995
 10
9.1218000215
 20
18.9843311015
 10
9.1065668714
 20
19.0037981155
 10
9.0899394038
 20
19.0219310428
 10
9.0719176187
 20
19.0387298892
 10
9.0525015161
 20
19.0541946596
 10
9.0316910959
 20
19.0683253589
  0
LWPOLYLINE
  5
650
100
AcDbEntity
  8
0
100
AcDbPolyline
 62
7
  6
CONTINUOUS
 90
7
 70
0
 10
9.23656216
 20
19.0993860434
 10
9.2640438544
 20
19.0563449252
 10
9.2864673809
 20
19.0112842622
 10
9.3038327395
 20
18.9642040337
 10
9.3161399303
 20
18.9151042183
 10
9.3233889532
 20
18.8639847938
 10
9.3255798083
 20
18.8108457372
  0
LINE
  5
651
100
AcDbEntity
  8
RACCORDO
100
AcDbLine
 62
7
  6
CONTINUOUS
 10
7.0558748029
 20
-20.9974535594
 11
7.0425072881
 21
-21.0094865114
  0
LINE
  5
652
100
AcDbEntity
  8
RACCORDO
100
AcDbLine
 62
7
  6
CONTINUOUS
 10
7.109491252
 20
-20.9499376587
 11
7.0558748029
 21
-20.9974535594
  0
LWPOLYLINE
  5
653
100
AcDbEntity
  8
RACCORDO
100
AcDbPolyline
 62
7
  6
CONTINUOUS
 90
3
 70
0
 10
7.1948944826
 20
-20.8750755783
 10
7.1610166107
 20
-20.9045842926
 10
7.109491252
 20
-20.9499376587
  0
LINE
  5
654
100
AcDbEntity
  8
RACCORDO
100
AcDbLine
 62
7
  6
CONTINUOUS
 10
7.220580698
 20
-20.8531402183
 11
7.1948944826
 21
-20.8750755783
  0
LINE
  5
655
100
AcDbEntity
  8
RACCORDO
100
AcDbLine
 62
7
  6
CONTINUOUS
 10
7.2269247239
 20
-20.8478512967
 11
7.220580698
 21
-20.8531402183
  0
LWPOLYLINE
  5
656
100
AcDbEntity
  8
RACCORDO
100
AcDbPolyline
 62
7
  6
CONTINUOUS
 90
6
 70
0
 10
6.7481955893
 20
-18.5323321224
 10
6.7572249791
 20
-18.5267949192
 10
6.7806873992
 20
-18.5152240935
 10
6.8054593334
 20
-18.5068148347
 10
6.8311169269
 20
-18.5017110277
 10
6.8572211714
 20
-18.5
  0
LWPOLYLINE
  5
657
100
AcDbEntity
  8
RACCORDO
100
AcDbPolyline
 62
7
  6
CONTINUOUS
 90
3
 70
0
 10
6.7432991968
 20
-18.5154061091
 10
6.7681744471
 20
-18.5069073744
 10
6.7939855153
 20
-18.5017370046
  0
LWPOLYLINE
  5
658
100
AcDbEntity
  8
RACCORDO
100
AcDbPolyline
 62
250
  6
CONTINUOUS
 90
13
 70
0
 10
-7.0294001425
 20
20.2585786438
 10
-7.0553235464
 20
20.257159202
 10
-7.0808217567
 20
20.2533749129
 10
-7.1054631376
 20
20.2472862956
 10
-7.128834401
 20
20.2389909837
 10
-7.1505322297
 20
20.2286273937
 10
-7.170174151
 20
20.2163768226
 10
-7.1874402364
 20
20.2024368699
 10
-7.2020236077
 20
20.1870530906
 10
-7.2136494171
 20
20.1705357589
 10
-7.2221423768
 20
20.1531896548
 10
-7.2274017151
 20
20.1352963416
 10
-7.2293696815
 20
20.1171572875
  0
LWPOLYLINE
  5
659
100
AcDbEntity
  8
RACCORDO
100
AcDbPolyline
 62
250
  6
CONTINUOUS
 90
13
 70
0
 10
6.8598392317
 20
20.2585786438
 10
6.8338112531
 20
20.2572623286
 10
6.8082132153
 20
20.2535604456
 10
6.7834819673
 20
20.2475324589
 10
6.7600355757
 20
20.2392755665
 10
6.7382822012
 20
20.2289285414
 10
6.7186088814
 20
20.2166740213
 10
6.7013382517
 20
20.2027109185
 10
6.6867803067
 20
20.1872875146
 10
6.67521242
 20
20.1707191451
 10
6.6668092065
 20
20.1533149498
 10
6.66166905
 20
20.1353593577
 10
6.6598468471
 20
20.1171572875
  0
LINE
  5
65A
100
AcDbEntity
  8
RACCORDO
100
AcDbLine
 62
250
  6
CONTINUOUS
 10
-0.0649210165
 20
19.4007005808
 11
0.0649210165
 21
19.4007005808
  0
LINE
  5
65B
100
AcDbEntity
  8
RACCORDO
100
AcDbLine
 62
250
  6
CONTINUOUS
 10
-0.2629729446
 20
19.883663494
 11
0.2629729446
 21
19.883663494
  0
LINE
  5
65C
100
AcDbEntity
  8
RACCORDO
100
AcDbLine
 62
250
  6
CONTINUOUS
 10
7.2293696815
 20
20.1171572875
 11
6.6598468471
 21
20.1171572875
  0
LINE
  5
65D
100
AcDbEntity
  8
RACCORDO
100
AcDbLine
 62
250
  6
CONTINUOUS
 10
-6.6598468471
 20
20.1171572875
 11
-7.2293696815
 21
20.1171572875
  0
LINE
  5
65E
100
AcDbEntity
  8
RACCORDO
100
AcDbLine
 62
250
  6
CONTINUOUS
 10
7.0294001425
 20
20.2585786438
 11
6.8598392317
 21
20.2585786438
  0
LINE
  5
65F
100
AcDbEntity
  8
RACCORDO
100
AcDbLine
 62
250
  6
CONTINUOUS
 10
-6.8598392317
 20
20.2585786438
 11
-7.0294001425
 21
20.2585786438
  0
LINE
  5
660
100
AcDbEntity
  8
DRAFT
100
AcDbLine
 62
7
  6
CONTINUOUS
 10
-6.5168765708
 20
20.4338413913
 11
-0.3972163531
 21
20.4338413913
  0
LINE
  5
661
100
AcDbEntity
  8
DRAFT
100
AcDbLine
 62
7
  6
CONTINUOUS
 10
0.3972163531
 20
20.4338413913
 11
6.5168765708
 21
20.4338413913
  0
LINE
  5
662
100
AcDbEntity
  8
DRAFT
100
AcDbLine
 62
7
  6
CONTINUOUS
 10
-9.5838661374
 20
20.5028438891
 11
-7.5153129787
 21
20.5028438891
  0
LINE
  5
663
100
AcDbEntity
  8
DRAFT
100
AcDbLine
 62
7
  6
CONTINUOUS
 10
7.5153129787
 20
20.5028438891
 11
9.5838661374
 21
20.5028438891
  0
LINE
  5
664
100
AcDbEntity
  8
RACCORDO
100
AcDbLine
 62
7
  6
CONTINUOUS
 10
6.6582893563
 20
20.5731858629
 11
-6.6582893563
 21
20.5731858629
  0
LINE
  5
665
100
AcDbEntity
  8
RACCORDO
100
AcDbLine
 62
250
  6
CONTINUOUS
 10
6.8556039598
 20
20.7438927334
 11
-6.8556039598
 21
20.7438927334
  0
LINE
  5
666
100
AcDbEntity
  8
DRAFT
100
AcDbLine
 62
7
  6
CONTINUOUS
 10
9.65
 20
20.9
 11
7.3830351795
 21
20.9
  0
LINE
  5
667
100
AcDbEntity
  8
DRAFT
100
AcDbLine
 62
7
  6
CONTINUOUS
 10
-7.3830351795
 20
20.9
 11
-9.65
 21
20.9
  0
LWPOLYLINE
  5
668
100
AcDbEntity
  8
0
100
AcDbPolyline
 62
7
  6
CONTINUOUS
 90
19
 70
0
 10
8.5193042636
 20
19.3480217502
 10
8.544997898
 20
19.3479194008
 10
8.5706822633
 20
19.347514915
 10
8.5963573596
 20
19.3468082928
 10
8.6220206055
 20
19.3458204772
 10
8.6476745823
 20
19.3445305251
 10
8.673327034
 20
19.3428756073
 10
8.6989859618
 20
19.3408635674
 10
8.7246433645
 20
19.3384865615
 10
8.7502829818
 20
19.3356582285
 10
8.7759209961
 20
19.3323878171
 10
8.801541225
 20
19.328666078
 10
8.8270788615
 20
19.3243789032
 10
8.8525460088
 20
19.3195400399
 10
8.8779305638
 20
19.3141357397
 10
8.90313141
 20
19.3080106511
 10
8.9281148418
 20
19.3011129896
 10
8.9529145647
 20
19.2934945375
 10
8.9775305788
 20
19.2851552935
  0
LWPOLYLINE
  5
669
100
AcDbEntity
  8
0
100
AcDbPolyline
 62
7
  6
CONTINUOUS
 90
19
 70
0
 10
2.269885281
 20
19.8110538524
 10
2.3171396985
 20
19.8090053831
 10
2.3615359618
 20
19.8033154901
 10
2.4030740708
 20
19.7939841682
 10
2.4417592062
 20
19.7808486584
 10
2.4775861874
 20
19.7640716999
 10
2.5105394724
 20
19.7441415327
 10
2.5407015255
 20
19.7209907534
 10
2.5679898824
 20
19.6946867327
 10
2.5921416079
 20
19.6659198755
 10
2.6129457854
 20
19.6345320274
 10
2.6306133315
 20
19.600681307
 10
2.6455140603
 20
19.565532539
 10
2.6575904902
 20
19.5291070153
 10
2.6669001029
 20
19.4913834226
 10
2.673985157
 20
19.4534626967
 10
2.6790264057
 20
19.4157118198
 10
2.6818430959
 20
19.3777638088
 10
2.6824352277
 20
19.3396186624
  0
LWPOLYLINE
  5
66A
100
AcDbEntity
  8
0
100
AcDbPolyline
 62
7
  6
CONTINUOUS
 90
3
 70
0
 10
8.7070321618
 20
19.1617833241
 10
8.6690779189
 20
19.1640921155
 10
8.6308322132
 20
19.164870505
  0
LWPOLYLINE
  5
66B
100
AcDbEntity
  8
0
100
AcDbPolyline
 62
7
  6
CONTINUOUS
 90
5
 70
0
 10
8.855934505
 20
19.1372441151
 10
8.8191461135
 20
19.1456745276
 10
8.7820662591
 20
19.1525745318
 10
8.7446949419
 20
19.15794413
 10
8.7070321618
 20
19.1617833241
  0
LWPOLYLINE
  5
66C
100
AcDbEntity
  8
RACCORDO
100
AcDbPolyline
 62
7
  6
CONTINUOUS
 90
3
 70
0
 10
6.7432991968
 20
18.5154061091
 10
6.7197873722
 20
18.5270694334
 10
6.6980324725
 20
18.5416836961
  0
LWPOLYLINE
  5
66D
100
AcDbEntity
  8
0
100
AcDbPolyline
 62
7
  6
CONTINUOUS
 90
16
 70
0
 10
9.0316910959
 20
19.0683253589
 10
9.0207145497
 20
19.0748844987
 10
9.0095922517
 20
19.0811105274
 10
8.9983242018
 20
19.0870034457
 10
8.9868923056
 20
19.0925389152
 10
8.9753146576
 20
19.0977412751
 10
8.9636455413
 20
19.1026835419
 10
8.9518891959
 20
19.1073747833
 10
8.9400413822
 20
19.1118059323
 10
8.9281436667
 20
19.1160228024
 10
8.9162046479
 20
19.1200285056
 10
8.9042157272
 20
19.1238199304
 10
8.8921926755
 20
19.1274335558
 10
8.8801407497
 20
19.1308815413
 10
8.8680546928
 20
19.1341517277
 10
8.855934505
 20
19.1372441151
  0
LWPOLYLINE
  5
66E
100
AcDbEntity
  8
0
100
AcDbPolyline
 62
7
  6
CONTINUOUS
 90
3
 70
0
 10
8.5939972579
 20
19.1638473317
 10
8.6223962577
 20
19.1443264274
 10
8.6489854489
 20
19.1225183973
  0
LWPOLYLINE
  5
66F
100
AcDbEntity
  8
0
100
AcDbPolyline
 62
7
  6
CONTINUOUS
 90
7
 70
0
 10
8.3607094467
 20
18.0536835238
 10
8.3865810939
 20
18.034710522
 10
8.4105624701
 20
18.0130266039
 10
8.4326535752
 20
17.9886317567
 10
8.4528544094
 20
17.9615259661
 10
8.4711649724
 20
17.9317092163
 10
8.4875852644
 20
17.8991814896
  0
LWPOLYLINE
  5
670
100
AcDbEntity
  8
RACCORDO
100
AcDbPolyline
 62
7
  6
CONTINUOUS
 90
4
 70
0
 10
7.2359625226
 20
20.8405916279
 10
7.2390584773
 20
20.8381523097
 10
7.2410348192
 20
20.8368223095
 10
7.2419286989
 20
20.8366629075
  0
LWPOLYLINE
  5
671
100
AcDbEntity
  8
0
100
AcDbPolyline
 62
7
  6
CONTINUOUS
 90
18
 70
0
 10
8.5285269446
 20
19.0703708156
 10
8.5168522104
 20
19.0795744123
 10
8.5047438851
 20
19.0881154708
 10
8.4921507434
 20
19.0959941355
 10
8.4791240106
 20
19.1032102646
 10
8.4658173631
 20
19.1097634303
 10
8.4522374229
 20
19.1156322721
 10
8.4383775679
 20
19.1208381524
 10
8.4243716082
 20
19.1254447273
 10
8.410274036
 20
19.1294396591
 10
8.3960303592
 20
19.1328352867
 10
8.3816109116
 20
19.1357322799
 10
8.3670136336
 20
19.138144224
 10
8.3522405848
 20
19.1400575345
 10
8.3372682777
 20
19.1415321264
 10
8.3220888831
 20
19.1425879716
 10
8.3067102302
 20
19.1432050986
 10
8.291132319
 20
19.1433835074
  0
LWPOLYLINE
  5
672
100
AcDbEntity
  8
0
100
AcDbPolyline
 62
7
  6
CONTINUOUS
 90
10
 70
0
 10
8.0465659255
 20
18.6419934986
 10
8.0708673632
 20
18.6219962238
 10
8.0964985776
 20
18.604516671
 10
8.1234595688
 20
18.5895548503
 10
8.1519973975
 20
18.5771737927
 10
8.181865003
 20
18.5673104828
 10
8.2123212029
 20
18.5597758583
 10
8.2431189366
 20
18.5545069003
 10
8.2745052646
 20
18.5515666342
 10
8.3064801872
 20
18.5509550616
  0
LWPOLYLINE
  5
673
100
AcDbEntity
  8
RACCORDO
100
AcDbPolyline
 62
7
  6
CONTINUOUS
 90
3
 70
0
 10
7.2196903263
 20
20.8538879833
 10
7.2262675205
 20
20.8484063534
 10
7.2359625226
 20
20.8405916279
  0
LINE
  5
674
100
AcDbEntity
  8
RACCORDO
100
AcDbLine
 62
7
  6
CONTINUOUS
 10
7.1933978089
 20
20.8763693994
 11
7.2196903263
 21
20.8538879833
  0
LINE
  5
675
100
AcDbEntity
  8
0
100
AcDbLine
 62
7
  6
CONTINUOUS
 10
8.5397680879
 20
19.0605046794
 11
8.5285269446
 21
19.0703708156
  0
LWPOLYLINE
  5
676
100
AcDbEntity
  8
RACCORDO
100
AcDbPolyline
 62
7
  6
CONTINUOUS
 90
3
 70
0
 10
7.1082227362
 20
20.9510743423
 10
7.1472234187
 20
20.9166738743
 10
7.1933978089
 20
20.8763693994
  0
LWPOLYLINE
  5
677
100
AcDbEntity
  8
RACCORDO
100
AcDbPolyline
 62
7
  6
CONTINUOUS
 90
3
 70
0
 10
7.0684513858
 20
20.9862689467
 10
7.0949472853
 20
20.9628966865
 10
7.1082227362
 20
20.9510743423
  0
LWPOLYLINE
  5
678
100
AcDbEntity
  8
RACCORDO
100
AcDbPolyline
 62
7
  6
CONTINUOUS
 90
3
 70
0
 10
7.0425072881
 20
21.0094865114
 10
7.0553773716
 20
20.9978705966
 10
7.0684513858
 20
20.9862689467
  0
LWPOLYLINE
  5
679
100
AcDbEntity
  8
0
100
AcDbPolyline
 62
7
  6
CONTINUOUS
 90
10
 70
0
 10
9.0843594653
 20
17.8943219548
 10
9.0637451505
 20
17.9131795323
 10
9.0419506988
 20
17.9298415511
 10
9.0189761101
 20
17.9443080189
 10
8.9946471341
 20
17.9566120637
 10
8.9691380212
 20
17.9667205703
 10
8.9429715222
 20
17.9745341809
 10
8.9163218874
 20
17.9800197784
 10
8.8890148666
 20
17.9832104865
 10
8.8610504597
 20
17.9841063067
  0
LINE
  5
67A
100
AcDbEntity
  8
0
100
AcDbLine
 62
7
  6
CONTINUOUS
 10
8.6489854489
 20
19.1225183973
 11
8.6737648316
 21
19.0984232301
  0
LINE
  5
67B
100
AcDbEntity
  8
DRAFT
100
AcDbLine
 62
7
  6
CONTINUOUS
 10
3.0
 20
23.5
 11
2.7812783412
 21
23.4563623377
  0
LWPOLYLINE
  5
67C
100
AcDbEntity
  8
RACCORDO
100
AcDbPolyline
 62
7
  6
CONTINUOUS
 90
5
 70
0
 10
-7.2419286989
 20
20.8366629075
 10
-7.2410711055
 20
20.8368010859
 10
-7.2391819588
 20
20.8380636213
 10
-7.2362200436
 20
20.8403931379
 10
-7.2269247239
 20
20.8478512967
  0
LINE
  5
67D
100
AcDbEntity
  8
DRAFT
100
AcDbLine
 62
7
  6
CONTINUOUS
 10
-6.8667670239
 20
21.1647852141
 11
-3.75
 21
21.1647852141
  0
LINE
  5
67E
100
AcDbEntity
  8
DRAFT
100
AcDbLine
 62
7
  6
CONTINUOUS
 10
3.75
 20
21.1647852141
 11
6.8667670239
 21
21.1647852141
  0
LINE
  5
67F
100
AcDbEntity
  8
DRAFT
100
AcDbLine
 62
7
  6
CONTINUOUS
 10
-6.9339198284
 20
21.2
 11
6.9339198284
 21
21.2
  0
LINE
  5
680
100
AcDbEntity
  8
DRAFT
100
AcDbLine
 62
7
  6
CONTINUOUS
 10
10.6503805997
 20
22.4
 11
5.55
 21
22.4
  0
LINE
  5
681
100
AcDbEntity
  8
0
100
AcDbLine
 62
7
  6
CONTINUOUS
 10
3.1
 20
22.4
 11
-3.1
 21
22.4
  0
LINE
  5
682
100
AcDbEntity
  8
DRAFT
100
AcDbLine
 62
7
  6
CONTINUOUS
 10
-5.55
 20
22.4
 11
-10.6503805997
 21
22.4
  0
LINE
  5
683
100
AcDbEntity
  8
DRAFT
100
AcDbLine
 62
7
  6
CONTINUOUS
 10
-3.0
 20
23.5
 11
-2.7812783412
 21
23.4563623377
  0
LWPOLYLINE
  5
684
100
AcDbEntity
  8
0
100
AcDbPolyline
 62
7
  6
CONTINUOUS
 90
7
 70
0
 10
8.9775305788
 20
19.2851552935
 10
9.0310392667
 20
19.2633140637
 10
9.0804132515
 20
19.2378247409
 10
9.1256525333
 20
19.2086873036
 10
9.1667571119
 20
19.1759017272
 10
9.2037269875
 20
19.139467984
 10
9.23656216
 20
19.0993860434
  0
LINE
  5
685
100
AcDbEntity
  8
DRAFT
100
AcDbLine
 62
7
  6
CONTINUOUS
 10
3.9526845545
 20
23.4301797403
 11
-3.9526845545
 21
23.4301797403
  0
LINE
  5
686
100
AcDbEntity
  8
DRAFT
100
AcDbLine
 62
7
  6
CONTINUOUS
 10
-2.7812783412
 20
23.4563623377
 11
2.7812783412
 21
23.4563623377
  0
LINE
  5
687
100
AcDbEntity
  8
DRAFT
100
AcDbLine
 62
7
  6
CONTINUOUS
 10
3.9733373476
 20
23.5
 11
3.0
 21
23.5
  0
LINE
  5
688
100
AcDbEntity
  8
DRAFT
100
AcDbLine
 62
7
  6
CONTINUOUS
 10
-3.0
 20
23.5
 11
-3.9733373476
 21
23.5
  0
ARC
  5
689
100
AcDbEntity
  8
DRAFT
100
AcDbCircle
 62
7
  6
CONTINUOUS
 10
11.25
 20
0.0
 40
28.0
100
AcDbArc
 50
122.9352304972
 51
124.1210936517
  0
ARC
  5
68A
100
AcDbEntity
  8
DRAFT
100
AcDbCircle
 62
7
  6
CONTINUOUS
 10
11.25
 20
0.0
 40
28.0
100
AcDbArc
 50
235.8789063483
 51
237.0647695028
  0
ARC
  5
68B
100
AcDbEntity
  8
DRAFT
100
AcDbCircle
 62
7
  6
CONTINUOUS
 10
-11.25
 20
0.0
 40
28.0
100
AcDbArc
 50
55.8789063483
 51
57.0647695028
  0
ARC
  5
68C
100
AcDbEntity
  8
DRAFT
100
AcDbCircle
 62
7
  6
CONTINUOUS
 10
-11.25
 20
0.0
 40
28.0
100
AcDbArc
 50
302.9352304972
 51
304.1210936517
  0
ARC
  5
68D
100
AcDbEntity
  8
DRAFT
100
AcDbCircle
 62
7
  6
CONTINUOUS
 10
11.25
 20
0.0
 40
28.0
100
AcDbArc
 50
125.9627651514
 51
131.7180504312
  0
ARC
  5
68E
100
AcDbEntity
  8
DRAFT
100
AcDbCircle
 62
7
  6
CONTINUOUS
 10
-11.25
 20
0.0
 40
28.0
100
AcDbArc
 50
48.2819495688
 51
54.0372348486
  0
ARC
  5
68F
100
AcDbEntity
  8
DRAFT
100
AcDbCircle
 62
7
  6
CONTINUOUS
 10
-11.25
 20
0.0
 40
28.0
100
AcDbArc
 50
305.9627651514
 51
311.7180504312
  0
ARC
  5
690
100
AcDbEntity
  8
DRAFT
100
AcDbCircle
 62
7
  6
CONTINUOUS
 10
11.25
 20
0.0
 40
28.0
100
AcDbArc
 50
228.2819495688
 51
234.0372348486
  0
ARC
  5
691
100
AcDbEntity
  8
DRAFT
100
AcDbCircle
 62
7
  6
CONTINUOUS
 10
-11.25
 20
0.0
 40
27.9301797403
100
AcDbArc
 50
305.881601122
 51
310.6207502002
  0
ARC
  5
692
100
AcDbEntity
  8
DRAFT
100
AcDbCircle
 62
7
  6
CONTINUOUS
 10
-11.25
 20
0.0
 40
27.9301797403
100
AcDbArc
 50
302.9775446409
 51
304.2022576811
  0
ARC
  5
693
100
AcDbEntity
  8
DRAFT
100
AcDbCircle
 62
7
  6
CONTINUOUS
 10
11.25
 20
0.0
 40
27.9301797403
100
AcDbArc
 50
235.7977423189
 51
237.0224553591
  0
ARC
  5
694
100
AcDbEntity
  8
DRAFT
100
AcDbCircle
 62
7
  6
CONTINUOUS
 10
11.25
 20
0.0
 40
27.9301797403
100
AcDbArc
 50
229.3792497998
 51
234.118398878
  0
ARC
  5
695
100
AcDbEntity
  8
DRAFT
100
AcDbCircle
 62
7
  6
CONTINUOUS
 10
11.25
 20
0.0
 40
27.9301797403
100
AcDbArc
 50
122.9775446409
 51
124.2022576811
  0
ARC
  5
696
100
AcDbEntity
  8
DRAFT
100
AcDbCircle
 62
7
  6
CONTINUOUS
 10
11.25
 20
0.0
 40
27.9301797403
100
AcDbArc
 50
125.881601122
 51
130.6207502002
  0
ARC
  5
697
100
AcDbEntity
  8
DRAFT
100
AcDbCircle
 62
7
  6
CONTINUOUS
 10
-11.25
 20
0.0
 40
27.9301797403
100
AcDbArc
 50
55.7977423189
 51
57.0224553591
  0
ARC
  5
698
100
AcDbEntity
  8
DRAFT
100
AcDbCircle
 62
7
  6
CONTINUOUS
 10
-11.25
 20
0.0
 40
27.9301797403
100
AcDbArc
 50
49.3792497998
 51
54.118398878
  0
ARC
  5
699
100
AcDbEntity
  8
ASSI
100
AcDbCircle
 62
7
  6
CONTINUOUS
 10
-0.0
 20
-3.25
 40
4.6
100
AcDbArc
 50
180.0
 51
360.0
  0
ARC
  5
69A
100
AcDbEntity
  8
ASSI
100
AcDbCircle
 62
7
  6
CONTINUOUS
 10
-0.0
 20
-3.25
 40
2.6
100
AcDbArc
 50
180.0
 51
360.0
  0
ARC
  5
69B
100
AcDbEntity
  8
0
100
AcDbCircle
 62
7
  6
CONTINUOUS
 10
-2.757674
 20
18.829056
 40
0.5673701434
100
AcDbArc
 50
22.8429066477
 51
180.0
  0
ARC
  5
69C
100
AcDbEntity
  8
DRAFT
100
AcDbCircle
 62
7
  6
CONTINUOUS
 10
-4.95
 20
23.1
 40
0.5
100
AcDbArc
 50
240.887577224
 51
9.1962815791
  0
ARC
  5
69D
100
AcDbEntity
  8
DRAFT
100
AcDbCircle
 62
7
  6
CONTINUOUS
 10
-4.95
 20
-23.1
 40
0.5
100
AcDbArc
 50
350.803718421
 51
119.112422776
  0
ARC
  5
69E
100
AcDbEntity
  8
DRAFT
100
AcDbCircle
 62
7
  6
CONTINUOUS
 10
4.95
 20
23.1
 40
0.5
100
AcDbArc
 50
170.803718421
 51
299.112422776
  0
ARC
  5
69F
100
AcDbEntity
  8
DRAFT
100
AcDbCircle
 62
7
  6
CONTINUOUS
 10
4.95
 20
-23.1
 40
0.5
100
AcDbArc
 50
60.887577224
 51
189.196281579
  0
ARC
  5
6A0
100
AcDbEntity
  8
0
100
AcDbCircle
 62
7
  6
CONTINUOUS
 10
-2.757674
 20
18.777699
 40
0.225104
100
AcDbArc
 50
0.0
 51
180.0
  0
ELLIPSE
  5
6A1
100
AcDbEntity
  8
0
100
AcDbEllipse
 62
7
  6
CONTINUOUS
 10
10.649923836
 20
21.899313827
 30
0.0
 11
0.1582391023
 21
0.4751033573
 31
0.0
 40
0.9984778551
 41
-1.2488325878
 42
0.3210503505
  0
ELLIPSE
  5
6A2
100
AcDbEntity
  8
0
100
AcDbEllipse
 62
7
  6
CONTINUOUS
 10
10.649923836
 20
-21.899313827
 30
0.0
 11
-0.1582391023
 21
0.4751033573
 31
0.0
 40
0.9984778551
 41
2.8205423031
 42
4.3904252414
  0
ELLIPSE
  5
6A3
100
AcDbEntity
  8
0
100
AcDbEllipse
 62
7
  6
CONTINUOUS
 10
-10.649923836
 20
21.899313827
 30
0.0
 11
-0.1582391023
 21
0.4751033573
 31
0.0
 40
0.9984778551
 41
-0.3210503505
 42
1.2488325878
  0
ELLIPSE
  5
6A4
100
AcDbEntity
  8
0
100
AcDbEllipse
 62
7
  6
CONTINUOUS
 10
-10.649923836
 20
-21.899313827
 30
0.0
 11
0.1582391023
 21
0.4751033573
 31
0.0
 40
0.9984778551
 41
1.8927600658
 42
3.4626430041
  0
ELLIPSE
  5
6A5
100
AcDbEntity
  8
RACCORDO
100
AcDbEllipse
 62
7
  6
CONTINUOUS
 10
-6.9100942226
 20
9.0100942226
 30
0.0
 11
-0.3535803156
 21
0.3535803156
 31
0.0
 40
0.9999238505
 41
-0.7853600872
 42
0.7853600872
  0
ELLIPSE
  5
6A6
100
AcDbEntity
  8
RACCORDO
100
AcDbEllipse
 62
7
  6
CONTINUOUS
 10
6.9100942226
 20
9.0100942226
 30
0.0
 11
-0.3535803156
 21
-0.3535803156
 31
0.0
 40
0.9999238505
 41
2.3562325664
 42
3.9269527408
  0
ELLIPSE
  5
6A7
100
AcDbEntity
  8
RACCORDO
100
AcDbEllipse
 62
7
  6
CONTINUOUS
 10
-8.9303794106
 20
6.6872686779
 30
0.0
 11
0.3
 21
0.0
 31
0.0
 40
0.0087268678
 41
1.5707963268
 42
2.7925268032
  0
ELLIPSE
  5
6A8
100
AcDbEntity
  8
RACCORDO
100
AcDbEllipse
 62
7
  6
CONTINUOUS
 10
8.9303794106
 20
6.6872686779
 30
0.0
 11
0.3
 21
0.0
 31
0.0
 40
0.0087268678
 41
0.3490658504
 42
1.5707963268
  0
ELLIPSE
  5
6A9
100
AcDbEntity
  8
RACCORDO
100
AcDbEllipse
 62
7
  6
CONTINUOUS
 10
6.9100942226
 20
-14.6100942226
 30
0.0
 11
0.3535803156
 21
-0.3535803156
 31
0.0
 40
0.9999238505
 41
-0.7853600872
 42
0.7853600872
  0
ELLIPSE
  5
6AA
100
AcDbEntity
  8
RACCORDO
100
AcDbEllipse
 62
7
  6
CONTINUOUS
 10
-6.9100942226
 20
-14.6100942226
 30
0.0
 11
0.3535803156
 21
0.3535803156
 31
0.0
 40
0.9999238505
 41
2.3562325664
 42
3.9269527408
  0
ELLIPSE
  5
6AB
100
AcDbEntity
  8
RACCORDO
100
AcDbEllipse
 62
7
  6
CONTINUOUS
 10
6.7139945176
 20
-15.1118586353
 30
0.0
 11
0.2
 21
0.0
 31
0.0
 40
0.0087268678
 41
1.5707963268
 42
3.1241393611
  0
ELLIPSE
  5
6AC
100
AcDbEntity
  8
RACCORDO
100
AcDbEllipse
 62
7
  6
CONTINUOUS
 10
-6.7139945176
 20
-15.1118586353
 30
0.0
 11
0.2
 21
-0.0
 31
0.0
 40
0.0087268678
 41
0.0174532925
 42
1.5707963268
  0
ELLIPSE
  5
6AD
100
AcDbEntity
  8
RACCORDO
100
AcDbEllipse
 62
7
  6
CONTINUOUS
 10
-8.9303794106
 20
-12.8872686779
 30
0.0
 11
0.3
 21
0.0
 31
0.0
 40
0.0087268678
 41
-2.7925268032
 42
-1.5707963268
  0
ELLIPSE
  5
6AE
100
AcDbEntity
  8
RACCORDO
100
AcDbEllipse
 62
7
  6
CONTINUOUS
 10
8.9303794106
 20
-12.8872686779
 30
0.0
 11
0.3
 21
0.0
 31
0.0
 40
0.0087268678
 41
-1.5707963268
 42
-0.3490658504
  0
ELLIPSE
  5
6AF
100
AcDbEntity
  8
RACCORDO
100
AcDbEllipse
 62
7
  6
CONTINUOUS
 10
-3.1505290931
 20
0.0
 30
0.0
 11
-0.0
 21
498.5
 31
0.0
 40
0.0087268678
 41
1.5525402138
 42
1.5555492626
  0
ELLIPSE
  5
6B0
100
AcDbEntity
  8
DRAFT
100
AcDbEllipse
 62
7
  6
CONTINUOUS
 10
-13.9305286514
 20
-0.0
 30
0.0
 11
0.0
 21
498.5
 31
0.0
 40
0.0087268678
 41
-1.5555492626
 42
-1.5296556473
  0
ELLIPSE
  5
6B1
100
AcDbEntity
  8
RACCORDO
100
AcDbEllipse
 62
7
  6
CONTINUOUS
 10
-10.8635638309
 20
-0.0
 30
0.0
 11
0.0
 21
498.5
 31
0.0
 40
0.0087268678
 41
-1.5397304474
 42
-1.5297941844
  0
ELLIPSE
  5
6B2
100
AcDbEntity
  8
RACCORDO
100
AcDbEllipse
 62
7
  6
CONTINUOUS
 10
10.8635638309
 20
0.0
 30
0.0
 11
0.0
 21
498.5
 31
0.0
 40
0.0087268678
 41
1.5297941844
 42
1.5397304474
  0
ELLIPSE
  5
6B3
100
AcDbEntity
  8
DRAFT
100
AcDbEllipse
 62
7
  6
CONTINUOUS
 10
13.9305286514
 20
0.0
 30
0.0
 11
0.0
 21
498.5
 31
0.0
 40
0.0087268678
 41
1.5296556473
 42
1.5555492626
  0
ELLIPSE
  5
6B4
100
AcDbEntity
  8
RACCORDO
100
AcDbEllipse
 62
7
  6
CONTINUOUS
 10
3.1505290931
 20
0.0
 30
0.0
 11
0.0
 21
498.5
 31
0.0
 40
0.0087268678
 41
-1.5555492626
 42
-1.5525402138
  0
ELLIPSE
  5
6B5
100
AcDbEntity
  8
RACCORDO
100
AcDbEllipse
 62
7
  6
CONTINUOUS
 10
1.1505290931
 20
-0.0
 30
0.0
 11
-0.0
 21
498.5
 31
0.0
 40
0.0087268678
 41
-1.5515372307
 42
-1.5455067425
  0
ELLIPSE
  5
6B6
100
AcDbEntity
  8
RACCORDO
100
AcDbEllipse
 62
7
  6
CONTINUOUS
 10
8.8494709069
 20
-0.0
 30
0.0
 11
-0.0
 21
498.5
 31
0.0
 40
0.0087268678
 41
1.5455067425
 42
1.5515372307
  0
ELLIPSE
  5
6B7
100
AcDbEntity
  8
RACCORDO
100
AcDbEllipse
 62
7
  6
CONTINUOUS
 10
-8.8494709069
 20
0.0
 30
0.0
 11
-0.0
 21
498.5
 31
0.0
 40
0.0087268678
 41
-1.5515372307
 42
-1.5455067425
  0
ELLIPSE
  5
6B8
100
AcDbEntity
  8
RACCORDO
100
AcDbEllipse
 62
7
  6
CONTINUOUS
 10
-1.1505290931
 20
0.0
 30
0.0
 11
0.0
 21
498.5
 31
0.0
 40
0.0087268678
 41
1.5455067425
 42
1.5515372307
  0
ELLIPSE
  5
6B9
100
AcDbEntity
  8
RACCORDO
100
AcDbEllipse
 62
7
  6
CONTINUOUS
 10
-3.1505290931
 20
0.0
 30
0.0
 11
0.0
 21
498.5
 31
0.0
 40
0.0087268678
 41
-4.6847039884
 42
-4.6828982463
  0
ELLIPSE
  5
6BA
100
AcDbEntity
  8
RACCORDO
100
AcDbEllipse
 62
7
  6
CONTINUOUS
 10
3.1505290931
 20
0.0
 30
0.0
 11
0.0
 21
498.5
 31
0.0
 40
0.0087268678
 41
-1.6002870609
 42
-1.5984813188
  0
ELLIPSE
  5
6BB
100
AcDbEntity
  8
DRAFT
100
AcDbEllipse
 62
7
  6
CONTINUOUS
 10
13.9305286514
 20
-0.0
 30
0.0
 11
-0.0
 21
498.5
 31
0.0
 40
0.0087268678
 41
-4.6847039884
 42
-4.6712483009
  0
ELLIPSE
  5
6BC
100
AcDbEntity
  8
RACCORDO
100
AcDbEllipse
 62
7
  6
CONTINUOUS
 10
10.8635638309
 20
0.0
 30
0.0
 11
0.0
 21
498.5
 31
0.0
 40
0.0087268678
 41
-4.6813231009
 42
-4.671386838
  0
ELLIPSE
  5
6BD
100
AcDbEntity
  8
RACCORDO
100
AcDbEllipse
 62
7
  6
CONTINUOUS
 10
-10.8635638309
 20
-0.0
 30
0.0
 11
0.0
 21
498.5
 31
0.0
 40
0.0087268678
 41
-1.6117984692
 42
-1.6018622062
  0
ELLIPSE
  5
6BE
100
AcDbEntity
  8
DRAFT
100
AcDbEllipse
 62
7
  6
CONTINUOUS
 10
-13.9305286514
 20
-0.0
 30
0.0
 11
-0.0
 21
498.5
 31
0.0
 40
0.0087268678
 41
-1.6119370063
 42
-1.5984813188
  0
ELLIPSE
  5
6BF
100
AcDbEntity
  8
RACCORDO
100
AcDbEllipse
 62
7
  6
CONTINUOUS
 10
-3.9494709069
 20
0.0
 30
0.0
 11
-0.0
 21
498.5
 31
0.0
 40
0.0087268678
 41
-1.5397304474
 42
-1.5297941844
  0
ELLIPSE
  5
6C0
100
AcDbEntity
  8
RACCORDO
100
AcDbEllipse
 62
7
  6
CONTINUOUS
 10
-3.9494709069
 20
0.0
 30
0.0
 11
-0.0
 21
498.5
 31
0.0
 40
0.0087268678
 41
-1.6117984692
 42
-1.6018622062
  0
ELLIPSE
  5
6C1
100
AcDbEntity
  8
RACCORDO
100
AcDbEllipse
 62
7
  6
CONTINUOUS
 10
3.9494709069
 20
-0.0
 30
0.0
 11
-0.0
 21
498.5
 31
0.0
 40
0.0087268678
 41
1.5297941844
 42
1.5397304474
  0
ELLIPSE
  5
6C2
100
AcDbEntity
  8
RACCORDO
100
AcDbEllipse
 62
7
  6
CONTINUOUS
 10
3.9494709069
 20
0.0
 30
0.0
 11
-0.0
 21
498.5
 31
0.0
 40
0.0087268678
 41
-4.6813231009
 42
-4.671386838
  0
ELLIPSE
  5
6C3
100
AcDbEntity
  8
RACCORDO
100
AcDbEllipse
 62
7
  6
CONTINUOUS
 10
-11.25
 20
-0.4799914261
 30
0.0
 11
-0.0
 21
27.4986903856
 31
0.0
 40
0.9998476487
 41
-2.4222061861
 42
-2.4136768153
  0
ELLIPSE
  5
6C4
100
AcDbEntity
  8
RACCORDO
100
AcDbEllipse
 62
7
  6
CONTINUOUS
 10
11.25
 20
-0.4799914261
 30
0.0
 11
0.0
 21
27.4986903856
 31
0.0
 40
0.9998476487
 41
-3.8695084919
 42
-3.8609791211
  0
ELLIPSE
  5
6C5
100
AcDbEntity
  8
RACCORDO
100
AcDbEllipse
 62
7
  6
CONTINUOUS
 10
-1.1786741678
 20
0.0
 30
0.0
 11
-0.0
 21
498.5
 31
0.0
 40
0.0174550649
 41
-1.5397313937
 42
-1.5296556473
  0
ELLIPSE
  5
6C6
100
AcDbEntity
  8
RACCORDO
100
AcDbEllipse
 62
7
  6
CONTINUOUS
 10
-1.1786741678
 20
-0.0
 30
0.0
 11
-0.0
 21
498.5
 31
0.0
 40
0.0174550649
 41
-1.6119370063
 42
-1.6018612598
  0
ELLIPSE
  5
6C7
100
AcDbEntity
  8
RACCORDO
100
AcDbEllipse
 62
7
  6
CONTINUOUS
 10
6.7139945176
 20
9.5118586353
 30
0.0
 11
0.2
 21
0.0
 31
0.0
 40
0.0087268678
 41
-3.1241393611
 42
-1.5707963268
  0
ELLIPSE
  5
6C8
100
AcDbEntity
  8
RACCORDO
100
AcDbEllipse
 62
7
  6
CONTINUOUS
 10
-6.7139945176
 20
9.5118586353
 30
0.0
 11
0.2
 21
-0.0
 31
0.0
 40
0.0087268678
 41
-1.5707963268
 42
-0.0174532925
  0
ELLIPSE
  5
6C9
100
AcDbEntity
  8
RACCORDO
100
AcDbEllipse
 62
7
  6
CONTINUOUS
 10
1.1786741678
 20
-0.0
 30
0.0
 11
-0.0
 21
498.5
 31
0.0
 40
0.0174550649
 41
1.5296556473
 42
1.5397313937
  0
ELLIPSE
  5
6CA
100
AcDbEntity
  8
RACCORDO
100
AcDbEllipse
 62
7
  6
CONTINUOUS
 10
1.1786741678
 20
-0.0
 30
0.0
 11
-0.0
 21
498.5
 31
0.0
 40
0.0174550649
 41
-4.6813240473
 42
-4.6712483009
  0
ELLIPSE
  5
6CB
100
AcDbEntity
  8
RACCORDO
100
AcDbEllipse
 62
7
  6
CONTINUOUS
 10
9.7900415076
 20
-12.8794144969
 30
0.0
 11
0.2
 21
-0.0
 31
0.0
 40
0.0087268678
 41
1.5707963268
 42
2.7925268032
  0
ELLIPSE
  5
6CC
100
AcDbEntity
  8
RACCORDO
100
AcDbEllipse
 62
7
  6
CONTINUOUS
 10
9.7900415076
 20
-8.5794144969
 30
0.0
 11
0.2
 21
-0.0
 31
0.0
 40
0.0087268678
 41
1.5707963268
 42
2.7925268032
  0
ELLIPSE
  5
6CD
100
AcDbEntity
  8
RACCORDO
100
AcDbEllipse
 62
7
  6
CONTINUOUS
 10
9.7900415076
 20
-9.4205855031
 30
0.0
 11
0.2
 21
-0.0
 31
0.0
 40
0.0087268678
 41
-2.7925268032
 42
-1.5707963268
  0
ELLIPSE
  5
6CE
100
AcDbEntity
  8
RACCORDO
100
AcDbEllipse
 62
7
  6
CONTINUOUS
 10
9.7900415076
 20
-0.8794144969
 30
0.0
 11
0.2
 21
-0.0
 31
0.0
 40
0.0087268678
 41
1.5707963268
 42
2.7925268032
  0
ELLIPSE
  5
6CF
100
AcDbEntity
  8
RACCORDO
100
AcDbEllipse
 62
7
  6
CONTINUOUS
 10
9.7900415076
 20
-1.7205855031
 30
0.0
 11
0.2
 21
-0.0
 31
0.0
 40
0.0087268678
 41
-2.7925268032
 42
-1.5707963268
  0
ELLIPSE
  5
6D0
100
AcDbEntity
  8
RACCORDO
100
AcDbEllipse
 62
7
  6
CONTINUOUS
 10
9.7900415076
 20
6.6794144969
 30
0.0
 11
0.2
 21
-0.0
 31
0.0
 40
0.0087268678
 41
-2.7925268032
 42
-1.5707963268
  0
ELLIPSE
  5
6D1
100
AcDbEntity
  8
RACCORDO
100
AcDbEllipse
 62
7
  6
CONTINUOUS
 10
-9.7900415076
 20
6.6794144969
 30
0.0
 11
0.2
 21
0.0
 31
0.0
 40
0.0087268678
 41
-1.5707963268
 42
-0.3490658504
  0
ELLIPSE
  5
6D2
100
AcDbEntity
  8
RACCORDO
100
AcDbEllipse
 62
7
  6
CONTINUOUS
 10
-9.7900415076
 20
-1.7205855031
 30
0.0
 11
0.2
 21
0.0
 31
0.0
 40
0.0087268678
 41
-1.5707963268
 42
-0.3490658504
  0
ELLIPSE
  5
6D3
100
AcDbEntity
  8
RACCORDO
100
AcDbEllipse
 62
7
  6
CONTINUOUS
 10
-9.7900415076
 20
-0.8794144969
 30
0.0
 11
0.2
 21
0.0
 31
0.0
 40
0.0087268678
 41
0.3490658504
 42
1.5707963268
  0
ELLIPSE
  5
6D4
100
AcDbEntity
  8
RACCORDO
100
AcDbEllipse
 62
7
  6
CONTINUOUS
 10
-9.7900415076
 20
-9.4205855031
 30
0.0
 11
0.2
 21
0.0
 31
0.0
 40
0.0087268678
 41
-1.5707963268
 42
-0.3490658504
  0
ELLIPSE
  5
6D5
100
AcDbEntity
  8
RACCORDO
100
AcDbEllipse
 62
7
  6
CONTINUOUS
 10
-9.7900415076
 20
-8.5794144969
 30
0.0
 11
0.2
 21
0.0
 31
0.0
 40
0.0087268678
 41
0.3490658504
 42
1.5707963268
  0
ELLIPSE
  5
6D6
100
AcDbEntity
  8
RACCORDO
100
AcDbEllipse
 62
7
  6
CONTINUOUS
 10
-9.7900415076
 20
-12.8794144969
 30
0.0
 11
0.2
 21
0.0
 31
0.0
 40
0.0087268678
 41
0.3490658504
 42
1.5707963268
  0
ELLIPSE
  5
6D7
100
AcDbEntity
  8
RACCORDO
100
AcDbEllipse
 62
7
  6
CONTINUOUS
 10
7.6500114235
 20
4.9000114235
 30
0.0
 11
0.2121481893
 21
0.2121481893
 31
0.0
 40
0.9999238505
 41
2.3562325664
 42
3.9269527408
  0
ELLIPSE
  5
6D8
100
AcDbEntity
  8
RACCORDO
100
AcDbEllipse
 62
7
  6
CONTINUOUS
 10
-7.6500114235
 20
4.9000114235
 30
0.0
 11
0.2121481893
 21
-0.2121481893
 31
0.0
 40
0.9999238505
 41
-0.7853600872
 42
0.7853600872
  0
ELLIPSE
  5
6D9
100
AcDbEntity
  8
RACCORDO
100
AcDbEllipse
 62
7
  6
CONTINUOUS
 10
-10.25
 20
-13.2310387053
 30
0.0
 11
-0.0
 21
0.5000190392
 31
0.0
 40
0.9999619231
 41
1.5707963268
 42
3.1415926536
  0
ELLIPSE
  5
6DA
100
AcDbEntity
  8
RACCORDO
100
AcDbEllipse
 62
7
  6
CONTINUOUS
 10
-10.25
 20
7.0310387053
 30
0.0
 11
-0.0
 21
0.5000190392
 31
0.0
 40
0.9999619231
 41
0.0
 42
1.5707963268
  0
ELLIPSE
  5
6DB
100
AcDbEntity
  8
RACCORDO
100
AcDbEllipse
 62
7
  6
CONTINUOUS
 10
10.25
 20
7.0310387053
 30
0.0
 11
0.0
 21
0.5000190392
 31
0.0
 40
0.9999619231
 41
-1.5707963268
 42
0.0
  0
ELLIPSE
  5
6DC
100
AcDbEntity
  8
RACCORDO
100
AcDbEllipse
 62
7
  6
CONTINUOUS
 10
10.25
 20
-13.2310387053
 30
0.0
 11
-0.0
 21
0.5000190392
 31
0.0
 40
0.9999619231
 41
-3.1415926536
 42
-1.5707963268
  0
ELLIPSE
  5
6DD
100
AcDbEntity
  8
RACCORDO
100
AcDbEllipse
 62
7
  6
CONTINUOUS
 10
6.8558627241
 20
-20.5728199289
 30
0.0
 11
0.200007485
 21
-0.0000148403
 31
0.0
 40
0.0122341997
 41
-3.1293572488
 42
-2.9854194263
  0
ELLIPSE
  5
6DE
100
AcDbEntity
  8
RACCORDO
100
AcDbEllipse
 62
7
  6
CONTINUOUS
 10
-8.4127313221
 20
4.9872801014
 30
0.0
 11
0.0
 21
0.3
 31
0.0
 40
0.0087268678
 41
-3.1328660073
 42
-1.5707963268
  0
ELLIPSE
  5
6DF
100
AcDbEntity
  8
RACCORDO
100
AcDbEllipse
 62
7
  6
CONTINUOUS
 10
8.4127313221
 20
4.9872801014
 30
0.0
 11
0.0
 21
0.3
 31
0.0
 40
0.0087268678
 41
-4.7123889804
 42
-3.1503192998
  0
ELLIPSE
  5
6E0
100
AcDbEntity
  8
RACCORDO
100
AcDbEllipse
 62
7
  6
CONTINUOUS
 10
-6.2999695344
 20
8.8000304656
 30
0.0
 11
0.1414644378
 21
0.1414644378
 31
0.0
 40
0.9996954599
 41
2.3563467834
 42
3.9268385237
  0
ELLIPSE
  5
6E1
100
AcDbEntity
  8
RACCORDO
100
AcDbEllipse
 62
7
  6
CONTINUOUS
 10
6.2999695344
 20
8.8000304656
 30
0.0
 11
-0.1414644378
 21
0.1414644378
 31
0.0
 40
0.9996954599
 41
2.3563467834
 42
3.9268385237
  0
ELLIPSE
  5
6E2
100
AcDbEntity
  8
RACCORDO
100
AcDbEllipse
 62
7
  6
CONTINUOUS
 10
6.2999695344
 20
-14.7000304656
 30
0.0
 11
-0.1414644378
 21
-0.1414644378
 31
0.0
 40
0.9996954599
 41
2.3563467834
 42
3.9268385237
  0
ELLIPSE
  5
6E3
100
AcDbEntity
  8
RACCORDO
100
AcDbEllipse
 62
7
  6
CONTINUOUS
 10
-6.2999695344
 20
-14.7000304656
 30
0.0
 11
0.1414644378
 21
-0.1414644378
 31
0.0
 40
0.9996954599
 41
2.3563467834
 42
3.9268385237
  0
ELLIPSE
  5
6E4
100
AcDbEntity
  8
RACCORDO
100
AcDbEllipse
 62
7
  6
CONTINUOUS
 10
11.25
 20
0.4799914261
 30
0.0
 11
-0.0
 21
27.4986903856
 31
0.0
 40
0.9998476487
 41
0.7193864675
 42
0.7279158383
  0
ELLIPSE
  5
6E5
100
AcDbEntity
  8
RACCORDO
100
AcDbEllipse
 62
7
  6
CONTINUOUS
 10
-6.8558627241
 20
20.5728199289
 30
0.0
 11
0.200007485
 21
-0.0000148403
 31
0.0
 40
0.0122341997
 41
0.0122354048
 42
0.1561732272
  0
ELLIPSE
  5
6E6
100
AcDbEntity
  8
RACCORDO
100
AcDbEllipse
 62
7
  6
CONTINUOUS
 10
-11.25
 20
0.4799914261
 30
0.0
 11
-0.0
 21
27.4986903856
 31
0.0
 40
0.9998476487
 41
-0.7279158383
 42
-0.7193864675
  0
ENDSEC
  0
SECTION
  2
OBJECTS
  0
DICTIONARY
  5
C
100
AcDbDictionary
280
0
281
1
  3
ACAD_GROUP
350
D
  3
ACAD_MLINESTYLE
350
17
  3
ACAD_LAYOUT
350
1A
  3
ACAD_PLOTSETTINGS
350
19
  3
ACAD_PLOTSTYLENAME
350
E
  0
DICTIONARY
  5
D
102
{ACAD_REACTORS
330
C
102
}
100
AcDbDictionary
280
0
281
1
  0
ACDBDICTIONARYWDFLT
  5
E
102
{ACAD_REACTORS
330
C
102
}
100
AcDbDictionary
281
1
  3
Normal
350
F
100
AcDbDictionaryWithDefault
340
F
  0
DICTIONARY
  5
17
102
{ACAD_REACTORS
330
C
102
}
100
AcDbDictionary
280
0
281
1
  3
Standard
350
18
  0
DICTIONARY
  5
19
102
{ACAD_REACTORS
330
C
102
}
100
AcDbDictionary
281
1
  0
DICTIONARY
  5
1A
102
{ACAD_REACTORS
330
C
102
}
100
AcDbDictionary
281
1
  3
Model
350
6E7
  3
Layout1
350
6E8
  0
ACDBPLACEHOLDER
  5
F
102
{ACAD_REACTORS
330
E
102
}
  0
MLINESTYLE
  5
18
102
{ACAD_REACTORS
330
17
102
}
100
AcDbMlineStyle
  2
STANDARD
 70
0
  3

 62
256
 51
90.0
 52
90.0
 71
2
 49
0.5
 62
256
  6
BYLAYER
 49
-0.5
 62
256
  6
BYLAYER
  0
LAYOUT
  5
6E7
102
{ACAD_REACTORS
330
1A
102
}
100
AcDbPlotSettings
  1

  2
none_device
  4
ISO_A4_(297.00_x_210.00_MM)
  6

 40
0.0
 41
0.0
 42
0.0
 43
0.0
 44
297.0
 45
210.0
 46
0.0
 47
0.0
 48
0.0
 49
0.0
140
0.0
141
0.0
142
1.0
143
1.0
 70
1024
 72
1
 73
0
 74
0
  7

 75
0
147
1.0
148
0.0
149
0.0
100
AcDbLayout
  1
Model
 70
0
 71
0
 10
0.0
 20
0.0
 11
297.0
 21
210.0
 12
0.0
 22
0.0
 32
0.0
 14
0.0
 24
0.0
 34
0.0
 15
0.0
 25
0.0
 35
0.0
146
0.0
 13
0.0
 23
0.0
 33
0.0
 16
1.0
 26
0.0
 36
0.0
 17
0.0
 27
1.0
 37
0.0
 76
0
330
212
345
0
346
0
  0
LAYOUT
  5
6E8
102
{ACAD_REACTORS
330
1A
102
}
100
AcDbPlotSettings
  1

  2
none_device
  4
ISO_A4_(297.00_x_210.00_MM)
  6

 40
0.0
 41
0.0
 42
0.0
 43
0.0
 44
297.0
 45
210.0
 46
0.0
 47
0.0
 48
0.0
 49
0.0
140
0.0
141
0.0
142
1.0
143
1.0
 70
0
 72
1
 73
0
 74
0
  7

 75
0
147
1.0
148
0.0
149
0.0
100
AcDbLayout
  1
Layout1
 70
0
 71
1
 10
0.0
 20
0.0
 11
297.0
 21
210.0
 12
0.0
 22
0.0
 32
0.0
 14
0.0
 24
0.0
 34
0.0
 15
0.0
 25
0.0
 35
0.0
146
0.0
 13
0.0
 23
0.0
 33
0.0
 16
1.0
 26
0.0
 36
0.0
 17
0.0
 27
1.0
 37
0.0
 76
0
330
213
345
0
346
0
  0
ENDSEC
  0
EOF
