  0
SECTION
  2
HEADER
  9
$ACADVER
  1
AC1024
  9
$DWGCODEPAGE
  3
ANSI_1252
  9
$EXTMAX
 10
297.0
 20
210.0
 30
0.0
  9
$EXTMIN
 10
0.0
 20
0.0
 30
0.0
  9
$LIMMIN
 10
0.0
 20
0.0
  9
$LIMMAX
 10
297.0
 20
210.0
  9
$VIEWCTR
 10
148.5
 20
105.0
  9
$VIEWSIZE
 40
210.0
  9
$CLAYER
  8
0
  9
$LTSCALE
 40
16.335
  9
$CELTYPE
  6
BYLAYER
  9
$DIMSCALE
 40
1.0
  9
$DIMASZ
 40
3.0
  9
$DIMEXO
 40
0.5
  9
$DIMDLI
 40
11.286
  9
$DIMEXE
 40
1.5
  9
$DIMCEN
 40
2.673
  9
$DIMLFAC
 40
1.0
  9
$DIMBLK
  1
_FILLED
  9
$DIMALT
 70
0
  9
$DIMALTF
 40
0.0393700787
  9
$DIMTXT
 40
3.0
  9
$DIMTOL
 70
1
  9
$DIMLIM
 70
0
  9
$DIMTFAC
 40
1.0
  9
$DIMTP
 40
0.01
  9
$DIMTM
 40
0.01
  9
$DIMGAP
 40
0.625
  9
$DIMDSEP
 70
44
  9
$AUNITS
 70
0
  9
$PDMODE
 70
3
  9
$PDSIZE
 40
3.0
  9
$HANDSEED
  5
6BA
  9
$TILEMODE
 70
1
  9
$MEASUREMENT
 70
1
  9
$INSUNITS
 70
4
  0
ENDSEC
  0
SECTION
  2
CLASSES
  0
CLASS
  1
ACDBDICTIONARYWDFLT
  2
AcDbDictionaryWithDefault
  3
AutoCAD 2000
 90
0
 91
1
280
0
281
0
  0
CLASS
  1
ACDBPLACEHOLDER
  2
AcDbPlaceHolder
  3
AutoCAD 2000
 90
0
 91
1
280
0
281
0
  0
CLASS
  1
LAYOUT
  2
AcDbLayout
  3
AutoCAD 2000
 90
0
 91
0
280
0
281
0
  0
ENDSEC
  0
SECTION
  2
TABLES
  0
TABLE
  2
VPORT
  5
8
100
AcDbSymbolTable
 70
2
  0
VPORT
  5
1F4
100
AcDbSymbolTableRecord
100
AcDbViewportTableRecord
  2
*ACTIVE
 70
0
 10
0.0
 20
0.0
 11
1.0
 21
1.0
 12
148.5
 22
105.0
 13
0.0
 23
0.0
 14
1.0
 24
1.0
 15
0.0
 25
0.0
 16
0.0
 26
0.0
 36
1.0
 17
0.0
 27
0.0
 37
0.0
 40
210.0
 41
1.4142857143
 42
50.0
 43
0.0
 44
0.0
 50
0.0
 51
0.0
 71
0
 72
100
 73
1
 74
1
 75
0
 76
0
 77
0
 78
0
  0
ENDTAB
  0
TABLE
  2
LTYPE
  5
5
100
AcDbSymbolTable
 70
6
  0
LTYPE
  5
14
100
AcDbSymbolTableRecord
100
AcDbLinetypeTableRecord
  2
BYBLOCK
 70
0
  3

 72
65
 73
0
 40
0.0
  0
LTYPE
  5
15
100
AcDbSymbolTableRecord
100
AcDbLinetypeTableRecord
  2
BYLAYER
 70
0
  3

 72
65
 73
0
 40
0.0
  0
LTYPE
  5
16
100
AcDbSymbolTableRecord
100
AcDbLinetypeTableRecord
  2
CONTINUOUS
 70
64
  3
Solid line
 72
65
 73
0
 40
0.0
  0
LTYPE
  5
1F5
100
AcDbSymbolTableRecord
100
AcDbLinetypeTableRecord
  2
CENTER
 70
64
  3
____ _ ____ _ ____ _ ____ _ ____ _ ____ _ ____
 72
65
 73
4
 40
0.6
 49
0.375
 74
0
 49
-0.075
 74
0
 49
0.075
 74
0
 49
-0.075
 74
0
  0
LTYPE
  5
1F6
100
AcDbSymbolTableRecord
100
AcDbLinetypeTableRecord
  2
HIDDEN
 70
64
  3
- - - - - - - - - - - - - - - - - - - -
 72
65
 73
2
 40
0.2
 49
0.1
 74
0
 49
-0.1
 74
0
  0
LTYPE
  5
1F7
100
AcDbSymbolTableRecord
100
AcDbLinetypeTableRecord
  2
PHANTOM
 70
64
  3
_____ _ _ _____ _ _ _____ _ _ _____
 72
65
 73
6
 40
0.8
 49
0.45
 74
0
 49
-0.05
 74
0
 49
0.1
 74
0
 49
-0.05
 74
0
 49
0.1
 74
0
 49
-0.05
 74
0
  0
LTYPE
  5
1F8
100
AcDbSymbolTableRecord
100
AcDbLinetypeTableRecord
  2
DOT
 70
64
  3
. . . . . . . . . . . . . . . . . . . .
 72
65
 73
2
 40
0.2
 49
0.1
 74
0
 49
-0.1
 74
0
  0
LTYPE
  5
1F9
100
AcDbSymbolTableRecord
100
AcDbLinetypeTableRecord
  2
DASHED
 70
64
  3
- - - - - - - - - - - - - - - - - - - -
 72
65
 73
2
 40
0.2
 49
0.1
 74
0
 49
-0.1
 74
0
  0
ENDTAB
  0
TABLE
  2
LAYER
  5
2
100
AcDbSymbolTable
 70
36
  0
LAYER
  5
10
100
AcDbSymbolTableRecord
100
AcDbLayerTableRecord
  2
0
 70
0
 62
7
  6
CONTINUOUS
370
-3
390
F
  0
LAYER
  5
1FA
100
AcDbSymbolTableRecord
100
AcDbLayerTableRecord
  2
DEFAULT_1
 70
0
 62
7
  6
CENTER
370
-3
390
F
  0
LAYER
  5
1FB
100
AcDbSymbolTableRecord
100
AcDbLayerTableRecord
  2
DEFAULT_2
 70
0
 62
7
  6
HIDDEN
370
-3
390
F
  0
LAYER
  5
1FC
100
AcDbSymbolTableRecord
100
AcDbLayerTableRecord
  2
DEFAULT_3
 70
0
 62
7
  6
PHANTOM
370
-3
390
F
  0
LAYER
  5
1FD
100
AcDbSymbolTableRecord
100
AcDbLayerTableRecord
  2
ASSI
 70
0
 62
7
  6
CONTINUOUS
370
-3
390
F
  0
LAYER
  5
1FE
100
AcDbSymbolTableRecord
100
AcDbLayerTableRecord
  2
COORDINATE
 70
0
 62
7
  6
CONTINUOUS
370
-3
390
F
  0
LAYER
  5
1FF
100
AcDbSymbolTableRecord
100
AcDbLayerTableRecord
  2
COORD_ORIGINE
 70
0
 62
7
  6
CONTINUOUS
370
-3
390
F
  0
LAYER
  5
200
100
AcDbSymbolTableRecord
100
AcDbLayerTableRecord
  2
CURVE
 70
0
 62
7
  6
CONTINUOUS
370
-3
390
F
  0
LAYER
  5
201
100
AcDbSymbolTableRecord
100
AcDbLayerTableRecord
  2
DRAFT
 70
0
 62
7
  6
CONTINUOUS
370
-3
390
F
  0
LAYER
  5
202
100
AcDbSymbolTableRecord
100
AcDbLayerTableRecord
  2
IMPORT_FEATURES
 70
0
 62
7
  6
CONTINUOUS
370
-3
390
F
  0
LAYER
  5
203
100
AcDbSymbolTableRecord
100
AcDbLayerTableRecord
  2
INTF_1
 70
0
 62
7
  6
CONTINUOUS
370
-3
390
F
  0
LAYER
  5
204
100
AcDbSymbolTableRecord
100
AcDbLayerTableRecord
  2
INTF_8
 70
0
 62
7
  6
CONTINUOUS
370
-3
390
F
  0
LAYER
  5
205
100
AcDbSymbolTableRecord
100
AcDbLayerTableRecord
  2
NOTE
 70
0
 62
7
  6
CONTINUOUS
370
-3
390
F
  0
LAYER
  5
206
100
AcDbSymbolTableRecord
100
AcDbLayerTableRecord
  2
PIANI
 70
0
 62
7
  6
CONTINUOUS
370
-3
390
F
  0
LAYER
  5
207
100
AcDbSymbolTableRecord
100
AcDbLayerTableRecord
  2
PIANI_ORIGINE
 70
0
 62
7
  6
CONTINUOUS
370
-3
390
F
  0
LAYER
  5
208
100
AcDbSymbolTableRecord
100
AcDbLayerTableRecord
  2
PUNTI
 70
0
 62
7
  6
CONTINUOUS
370
-3
390
F
  0
LAYER
  5
209
100
AcDbSymbolTableRecord
100
AcDbLayerTableRecord
  2
RACCORDO
 70
0
 62
7
  6
CONTINUOUS
370
-3
390
F
  0
LAYER
  5
20A
100
AcDbSymbolTableRecord
100
AcDbLayerTableRecord
  2
SMUSSO
 70
0
 62
7
  6
CONTINUOUS
370
-3
390
F
  0
LAYER
  5
20B
100
AcDbSymbolTableRecord
100
AcDbLayerTableRecord
  2
SNAPLINE
 70
0
 62
7
  6
CONTINUOUS
370
-3
390
F
  0
LAYER
  5
20C
100
AcDbSymbolTableRecord
100
AcDbLayerTableRecord
  2
SUPERFICI
 70
0
 62
7
  6
CONTINUOUS
370
-3
390
F
  0
LAYER
  5
20D
100
AcDbSymbolTableRecord
100
AcDbLayerTableRecord
  2
TRASH
 70
0
 62
7
  6
CONTINUOUS
370
-3
390
F
  0
LAYER
  5
20E
100
AcDbSymbolTableRecord
100
AcDbLayerTableRecord
  2
XSEC_DATUMS
 70
0
 62
7
  6
CONTINUOUS
370
-3
390
F
  0
ENDTAB
  0
TABLE
  2
STYLE
  5
3
100
AcDbSymbolTable
 70
1
  0
STYLE
  5
11
100
AcDbSymbolTableRecord
100
AcDbTextStyleTableRecord
  2
STANDARD
 70
0
 40
0.0
 41
0.8
 50
0.0
 71
0
 42
0.2
  3
txt
  4

  0
STYLE
  5
20F
100
AcDbSymbolTableRecord
100
AcDbTextStyleTableRecord
  2
TEXTSTYLE_1
 70
0
 40
0.0
 41
0.8
 50
0.0
 71
0
 42
0.2
  3
gdt
  4

  0
ENDTAB
  0
TABLE
  2
VIEW
  5
6
100
AcDbSymbolTable
 70
0
  0
ENDTAB
  0
TABLE
  2
UCS
  5
7
100
AcDbSymbolTable
 70
0
  0
ENDTAB
  0
TABLE
  2
APPID
  5
9
100
AcDbSymbolTable
 70
1
  0
APPID
  5
210
100
AcDbSymbolTableRecord
100
AcDbRegAppTableRecord
  2
ACAD
 70
0
  0
ENDTAB
  0
TABLE
  2
BLOCK_RECORD
  5
1
100
AcDbSymbolTable
 70
0
  0
BLOCK_RECORD
  5
211
100
AcDbSymbolTableRecord
100
AcDbBlockTableRecord
  2
*Model_Space
  0
BLOCK_RECORD
  5
212
100
AcDbSymbolTableRecord
100
AcDbBlockTableRecord
  2
*Paper_Space
  0
BLOCK_RECORD
  5
213
100
AcDbSymbolTableRecord
100
AcDbBlockTableRecord
  2
_FILLED
  0
ENDTAB
  0
TABLE
  2
DIMSTYLE
  5
A
100
AcDbSymbolTable
 70
1
100
AcDbDimStyleTable
 71
0
  0
DIMSTYLE
105
214
100
AcDbSymbolTableRecord
100
AcDbDimStyleTableRecord
  2
STANDARD
 70
0
  3

  4

 40
1.0
 41
3.0
 42
0.5
 43
0.38
 44
1.5
 45
0.0
 46
0.0
 47
0.01
 48
0.01
140
3.0
141
0.09
142
0.0
143
25.4
144
1.0
145
0.0
146
1.0
147
0.625
 71
1
 72
0
 73
0
 74
0
 75
0
 76
0
 77
1
 78
8
 79
2
170
0
171
1
172
0
173
0
174
0
175
0
176
0
177
0
178
0
270
2
179
2
271
2
272
2
273
2
274
2
275
0
280
0
281
0
282
0
283
1
284
8
285
0
286
0
287
3
288
0
340
11
278
44
341
213
342
213
343
213
344
213
  0
ENDTAB
  0
ENDSEC
  0
SECTION
  2
BLOCKS
  0
BLOCK
  5
20
100
AcDbEntity
  8
0
100
AcDbBlockBegin
  2
*Model_Space
 70
0
 10
0.0
 20
0.0
 30
0.0
  3
*Model_Space
  1

  0
ENDBLK
  5
21
100
AcDbEntity
  8
0
100
AcDbBlockEnd
  0
BLOCK
  5
1C
100
AcDbEntity
  8
0
100
AcDbBlockBegin
  2
*Paper_Space
 70
0
 10
0.0
 20
0.0
 30
0.0
  3
*Paper_Space
  1

  0
ENDBLK
  5
1D
100
AcDbEntity
  8
0
100
AcDbBlockEnd
  0
BLOCK
  5
215
100
AcDbEntity
  8
0
100
AcDbBlockBegin
  2
_FILLED
 70
64
 10
0.0
 20
0.0
  3
_FILLED
  1

  0
SOLID
  5
216
100
AcDbEntity
  8
0
  6
BYBLOCK
 62
0
100
AcDbTrace
 10
0.0
 20
0.0
 11
-1.0
 21
0.3166666667
 12
-1.0
 22
-0.3166666667
 13
-1.0
 23
-0.3166666667
  0
ENDBLK
  5
217
100
AcDbEntity
  8
0
  6
BYBLOCK
 62
0
100
AcDbBlockEnd
  0
ENDSEC
  0
SECTION
  2
ENTITIES
  0
LINE
  5
218
100
AcDbEntity
  8
DRAFT
100
AcDbLine
 62
7
  6
CONTINUOUS
 10
-3.0
 20
-23.5
 11
-2.7812783412
 21
-23.4563623377
  0
LINE
  5
219
100
AcDbEntity
  8
DRAFT
100
AcDbLine
 62
7
  6
CONTINUOUS
 10
-3.9733373476
 20
-23.5
 11
-3.0
 21
-23.5
  0
LINE
  5
21A
100
AcDbEntity
  8
DRAFT
100
AcDbLine
 62
7
  6
CONTINUOUS
 10
3.0
 20
-23.5
 11
3.9733373476
 21
-23.5
  0
LINE
  5
21B
100
AcDbEntity
  8
DRAFT
100
AcDbLine
 62
7
  6
CONTINUOUS
 10
-2.7812783412
 20
-23.4563623377
 11
2.7812783412
 21
-23.4563623377
  0
LINE
  5
21C
100
AcDbEntity
  8
DRAFT
100
AcDbLine
 62
7
  6
CONTINUOUS
 10
-3.9526845545
 20
-23.4301797403
 11
3.9526845545
 21
-23.4301797403
  0
LINE
  5
21D
100
AcDbEntity
  8
DRAFT
100
AcDbLine
 62
7
  6
CONTINUOUS
 10
-10.6503805997
 20
-22.4
 11
-5.55
 21
-22.4
  0
LINE
  5
21E
100
AcDbEntity
  8
0
100
AcDbLine
 62
7
  6
CONTINUOUS
 10
3.1
 20
-22.4
 11
-3.1
 21
-22.4
  0
LINE
  5
21F
100
AcDbEntity
  8
DRAFT
100
AcDbLine
 62
7
  6
CONTINUOUS
 10
5.55
 20
-22.4
 11
10.6503805997
 21
-22.4
  0
LINE
  5
220
100
AcDbEntity
  8
DRAFT
100
AcDbLine
 62
7
  6
CONTINUOUS
 10
3.0
 20
-23.5
 11
2.7812783412
 21
-23.4563623377
  0
LINE
  5
221
100
AcDbEntity
  8
RACCORDO
100
AcDbLine
 62
7
  6
CONTINUOUS
 10
-7.2269247239
 20
20.8478512967
 11
-7.220580698
 21
20.8531402184
  0
LWPOLYLINE
  5
222
100
AcDbEntity
  8
RACCORDO
100
AcDbPolyline
 62
7
  6
CONTINUOUS
 90
5
 70
0
 10
7.2419286989
 20
-20.8366629075
 10
7.2410711055
 20
-20.8368010859
 10
7.2391819589
 20
-20.8380636212
 10
7.2362200437
 20
-20.8403931379
 10
7.2269247239
 20
-20.8478512967
  0
LWPOLYLINE
  5
223
100
AcDbEntity
  8
RACCORDO
100
AcDbPolyline
 62
250
  6
CONTINUOUS
 90
13
 70
0
 10
7.0294001425
 20
-20.2585786438
 10
7.0553235464
 20
-20.257159202
 10
7.0808217567
 20
-20.2533749129
 10
7.1054631376
 20
-20.2472862956
 10
7.128834401
 20
-20.2389909837
 10
7.1505322297
 20
-20.2286273937
 10
7.170174151
 20
-20.2163768226
 10
7.1874402364
 20
-20.2024368699
 10
7.2020236077
 20
-20.1870530906
 10
7.2136494171
 20
-20.1705357589
 10
7.2221423768
 20
-20.1531896548
 10
7.2274017151
 20
-20.1352963416
 10
7.2293696815
 20
-20.1171572875
  0
LINE
  5
224
100
AcDbEntity
  8
DRAFT
100
AcDbLine
 62
7
  6
CONTINUOUS
 10
-6.9339198284
 20
-21.2
 11
6.9339198284
 21
-21.2
  0
LINE
  5
225
100
AcDbEntity
  8
DRAFT
100
AcDbLine
 62
7
  6
CONTINUOUS
 10
6.8667670239
 20
-21.1647852141
 11
3.75
 21
-21.1647852141
  0
LINE
  5
226
100
AcDbEntity
  8
DRAFT
100
AcDbLine
 62
7
  6
CONTINUOUS
 10
-3.75
 20
-21.1647852141
 11
-6.8667670239
 21
-21.1647852141
  0
LINE
  5
227
100
AcDbEntity
  8
DRAFT
100
AcDbLine
 62
7
  6
CONTINUOUS
 10
-9.65
 20
-20.9
 11
-7.3830351795
 21
-20.9
  0
LINE
  5
228
100
AcDbEntity
  8
DRAFT
100
AcDbLine
 62
7
  6
CONTINUOUS
 10
7.3830351795
 20
-20.9
 11
9.65
 21
-20.9
  0
LINE
  5
229
100
AcDbEntity
  8
RACCORDO
100
AcDbLine
 62
250
  6
CONTINUOUS
 10
-6.8556039598
 20
-20.7438927334
 11
6.8556039598
 21
-20.7438927334
  0
LWPOLYLINE
  5
22A
100
AcDbEntity
  8
RACCORDO
100
AcDbPolyline
 62
7
  6
CONTINUOUS
 90
4
 70
0
 10
-7.2359625226
 20
-20.8405916279
 10
-7.2390584774
 20
-20.8381523097
 10
-7.2410348192
 20
-20.8368223095
 10
-7.2419286989
 20
-20.8366629075
  0
LWPOLYLINE
  5
22B
100
AcDbEntity
  8
RACCORDO
100
AcDbPolyline
 62
7
  6
CONTINUOUS
 90
3
 70
0
 10
-7.2196903262
 20
-20.8538879834
 10
-7.2262675205
 20
-20.8484063534
 10
-7.2359625226
 20
-20.8405916279
  0
LINE
  5
22C
100
AcDbEntity
  8
RACCORDO
100
AcDbLine
 62
7
  6
CONTINUOUS
 10
-7.0558748026
 20
20.9974535597
 11
-7.0425072881
 21
21.0094865114
  0
LINE
  5
22D
100
AcDbEntity
  8
RACCORDO
100
AcDbLine
 62
7
  6
CONTINUOUS
 10
-7.1094912508
 20
20.9499376597
 11
-7.0558748026
 21
20.9974535597
  0
LWPOLYLINE
  5
22E
100
AcDbEntity
  8
RACCORDO
100
AcDbPolyline
 62
7
  6
CONTINUOUS
 90
3
 70
0
 10
-7.1948944821
 20
20.8750755787
 10
-7.1610166096
 20
20.9045842936
 10
-7.1094912508
 20
20.9499376597
  0
LINE
  5
22F
100
AcDbEntity
  8
RACCORDO
100
AcDbLine
 62
7
  6
CONTINUOUS
 10
-7.220580698
 20
20.8531402184
 11
-7.1948944821
 21
20.8750755787
  0
LWPOLYLINE
  5
230
100
AcDbEntity
  8
RACCORDO
100
AcDbPolyline
 62
7
  6
CONTINUOUS
 90
6
 70
0
 10
-6.7481955371
 20
18.5323321563
 10
-6.7572249791
 20
18.5267949192
 10
-6.7806873992
 20
18.5152240935
 10
-6.8054593334
 20
18.5068148347
 10
-6.8311169269
 20
18.5017110277
 10
-6.8572211714
 20
18.5
  0
LWPOLYLINE
  5
231
100
AcDbEntity
  8
RACCORDO
100
AcDbPolyline
 62
7
  6
CONTINUOUS
 90
3
 70
0
 10
-6.7432991968
 20
18.5154061091
 10
-6.7681744471
 20
18.5069073744
 10
-6.7939855153
 20
18.5017370046
  0
LINE
  5
232
100
AcDbEntity
  8
RACCORDO
100
AcDbLine
 62
7
  6
CONTINUOUS
 10
6.7939855153
 20
-18.5017370046
 11
6.8202886235
 21
-18.5
  0
LWPOLYLINE
  5
233
100
AcDbEntity
  8
RACCORDO
100
AcDbPolyline
 62
250
  6
CONTINUOUS
 90
13
 70
0
 10
-6.8598392317
 20
-20.2585786438
 10
-6.8338112531
 20
-20.2572623286
 10
-6.8082132153
 20
-20.2535604456
 10
-6.7834819673
 20
-20.2475324589
 10
-6.7600355757
 20
-20.2392755665
 10
-6.7382822012
 20
-20.2289285414
 10
-6.7186088814
 20
-20.2166740213
 10
-6.7013382517
 20
-20.2027109185
 10
-6.6867803067
 20
-20.1872875146
 10
-6.67521242
 20
-20.1707191451
 10
-6.6668092065
 20
-20.1533149498
 10
-6.66166905
 20
-20.1353593577
 10
-6.6598468471
 20
-20.1171572875
  0
LINE
  5
234
100
AcDbEntity
  8
RACCORDO
100
AcDbLine
 62
7
  6
CONTINUOUS
 10
-6.6582893563
 20
-20.5731858629
 11
6.6582893563
 21
-20.5731858629
  0
LINE
  5
235
100
AcDbEntity
  8
DRAFT
100
AcDbLine
 62
7
  6
CONTINUOUS
 10
-9.5838661374
 20
-20.5028438891
 11
-7.5153129787
 21
-20.5028438891
  0
LINE
  5
236
100
AcDbEntity
  8
DRAFT
100
AcDbLine
 62
7
  6
CONTINUOUS
 10
7.5153129787
 20
-20.5028438891
 11
9.5838661374
 21
-20.5028438891
  0
LINE
  5
237
100
AcDbEntity
  8
DRAFT
100
AcDbLine
 62
7
  6
CONTINUOUS
 10
-6.5168765708
 20
-20.4338413913
 11
-0.3972163531
 21
-20.4338413913
  0
LINE
  5
238
100
AcDbEntity
  8
DRAFT
100
AcDbLine
 62
7
  6
CONTINUOUS
 10
0.3972163531
 20
-20.4338413913
 11
6.5168765708
 21
-20.4338413913
  0
LINE
  5
239
100
AcDbEntity
  8
RACCORDO
100
AcDbLine
 62
250
  6
CONTINUOUS
 10
-7.0294001425
 20
-20.2585786438
 11
-6.8598392317
 21
-20.2585786438
  0
LINE
  5
23A
100
AcDbEntity
  8
RACCORDO
100
AcDbLine
 62
250
  6
CONTINUOUS
 10
6.8598392317
 20
-20.2585786438
 11
7.0294001425
 21
-20.2585786438
  0
LINE
  5
23B
100
AcDbEntity
  8
RACCORDO
100
AcDbLine
 62
250
  6
CONTINUOUS
 10
-7.2293696815
 20
-20.1171572875
 11
-6.6598468471
 21
-20.1171572875
  0
LINE
  5
23C
100
AcDbEntity
  8
RACCORDO
100
AcDbLine
 62
250
  6
CONTINUOUS
 10
6.6598468471
 20
-20.1171572875
 11
7.2293696815
 21
-20.1171572875
  0
LINE
  5
23D
100
AcDbEntity
  8
RACCORDO
100
AcDbLine
 62
250
  6
CONTINUOUS
 10
0.2629729446
 20
-19.883663494
 11
-0.2629729446
 21
-19.883663494
  0
LINE
  5
23E
100
AcDbEntity
  8
RACCORDO
100
AcDbLine
 62
250
  6
CONTINUOUS
 10
-0.0649210165
 20
-19.4007005808
 11
0.0649210165
 21
-19.4007005808
  0
LINE
  5
23F
100
AcDbEntity
  8
RACCORDO
100
AcDbLine
 62
250
  6
CONTINUOUS
 10
-6.6598468471
 20
-19.0
 11
-7.2293696815
 21
-19.0
  0
LINE
  5
240
100
AcDbEntity
  8
RACCORDO
100
AcDbLine
 62
250
  6
CONTINUOUS
 10
6.6598468471
 20
-19.0
 11
7.2293696815
 21
-19.0
  0
LWPOLYLINE
  5
241
100
AcDbEntity
  8
RACCORDO
100
AcDbPolyline
 62
7
  6
CONTINUOUS
 90
6
 70
0
 10
-6.8572211714
 20
-18.5
 10
-6.8311169269
 20
-18.5017110277
 10
-6.8054593333
 20
-18.5068148348
 10
-6.7806873991
 20
-18.5152240935
 10
-6.757224979
 20
-18.5267949193
 10
-6.7451222574
 20
-18.5343712692
  0
LINE
  5
242
100
AcDbEntity
  8
RACCORDO
100
AcDbLine
 62
7
  6
CONTINUOUS
 10
-6.7936861374
 20
-18.5017851593
 11
-6.8198368876
 21
-18.5
  0
LWPOLYLINE
  5
243
100
AcDbEntity
  8
RACCORDO
100
AcDbPolyline
 62
7
  6
CONTINUOUS
 90
3
 70
0
 10
-6.7432134297
 20
-18.5154418811
 10
-6.7679982835
 20
-18.5069623748
 10
-6.7936861374
 20
-18.5017851593
  0
LWPOLYLINE
  5
244
100
AcDbEntity
  8
RACCORDO
100
AcDbPolyline
 62
250
  6
CONTINUOUS
 90
9
 70
0
 10
-6.7451222574
 20
-18.5343712692
 10
-6.7354735214
 20
-18.541329332
 10
-6.7158052
 20
-18.5585786439
 10
-6.698556545
 20
-18.5782477143
 10
-6.6840226857
 20
-18.6000000001
 10
-6.6724523006
 20
-18.6234633136
 10
-6.664043362
 20
-18.648236191
 10
-6.6589397493
 20
-18.6738947616
 10
-6.6572287868
 20
-18.7
  0
LINE
  5
245
100
AcDbEntity
  8
RACCORDO
100
AcDbLine
 62
7
  6
CONTINUOUS
 10
-7.1933978083
 20
-20.8763693999
 11
-7.2196903262
 21
-20.8538879834
  0
LWPOLYLINE
  5
246
100
AcDbEntity
  8
RACCORDO
100
AcDbPolyline
 62
7
  6
CONTINUOUS
 90
3
 70
0
 10
-7.0684513851
 20
-20.9862689473
 10
-7.0949472841
 20
-20.9628966875
 10
-7.108222735
 20
-20.9510743434
  0
LWPOLYLINE
  5
247
100
AcDbEntity
  8
RACCORDO
100
AcDbPolyline
 62
7
  6
CONTINUOUS
 90
3
 70
0
 10
-7.108222735
 20
-20.9510743434
 10
-7.1472234175
 20
-20.9166738754
 10
-7.1933978083
 20
-20.8763693999
  0
LWPOLYLINE
  5
248
100
AcDbEntity
  8
RACCORDO
100
AcDbPolyline
 62
7
  6
CONTINUOUS
 90
3
 70
0
 10
-7.0425072881
 20
-21.0094865114
 10
-7.0553773713
 20
-20.9978705969
 10
-7.0684513851
 20
-20.9862689473
  0
LINE
  5
249
100
AcDbEntity
  8
0
100
AcDbLine
 62
7
  6
CONTINUOUS
 10
-2.2348011665
 20
19.0493123953
 11
-1.474963
 21
19.443173
  0
LINE
  5
24A
100
AcDbEntity
  8
0
100
AcDbLine
 62
7
  6
CONTINUOUS
 10
-2.190302
 20
18.65561
 11
-1.474958
 21
19.02641
  0
LINE
  5
24B
100
AcDbEntity
  8
0
100
AcDbLine
 62
7
  6
CONTINUOUS
 10
-3.325042
 20
17.121932
 11
-1.474954
 21
17.715935
  0
LINE
  5
24C
100
AcDbEntity
  8
RACCORDO
100
AcDbLine
 62
7
  6
CONTINUOUS
 10
-7.1348648826
 20
-18.5017443099
 11
-7.1085073836
 21
-18.5
  0
LINE
  5
24D
100
AcDbEntity
  8
RACCORDO
100
AcDbLine
 62
250
  6
CONTINUOUS
 10
6.6572287868
 20
-18.7
 11
6.6200664561
 21
-18.7
  0
LINE
  5
24E
100
AcDbEntity
  8
RACCORDO
100
AcDbLine
 62
250
  6
CONTINUOUS
 10
-6.6572287868
 20
-18.7
 11
-6.6200664561
 21
-18.7
  0
LINE
  5
24F
100
AcDbEntity
  8
RACCORDO
100
AcDbLine
 62
250
  6
CONTINUOUS
 10
7.234606201
 20
-18.7
 11
7.3089365232
 21
-18.7
  0
LINE
  5
250
100
AcDbEntity
  8
RACCORDO
100
AcDbLine
 62
250
  6
CONTINUOUS
 10
-7.234606201
 20
-18.7
 11
-7.3089365232
 21
-18.7
  0
LINE
  5
251
100
AcDbEntity
  8
RACCORDO
100
AcDbLine
 62
7
  6
CONTINUOUS
 10
6.8202886235
 20
-18.5
 11
7.1085073836
 21
-18.5
  0
LINE
  5
252
100
AcDbEntity
  8
RACCORDO
100
AcDbLine
 62
7
  6
CONTINUOUS
 10
-6.8202886235
 20
-18.5
 11
-7.1085073836
 21
-18.5
  0
LWPOLYLINE
  5
253
100
AcDbEntity
  8
RACCORDO
100
AcDbPolyline
 62
7
  6
CONTINUOUS
 90
6
 70
0
 10
7.034636662
 20
-18.5
 10
7.0607379245
 20
-18.5017110277
 10
7.0863925872
 20
-18.5068148348
 10
7.1111616916
 20
-18.5152240935
 10
7.1346214316
 20
-18.5267949193
 10
7.1457306636
 20
-18.5337039914
  0
LINE
  5
254
100
AcDbEntity
  8
RACCORDO
100
AcDbLine
 62
7
  6
CONTINUOUS
 10
7.1354636732
 20
-18.5018319132
 11
7.1094109243
 21
-18.5
  0
LINE
  5
255
100
AcDbEntity
  8
DRAFT
100
AcDbLine
 62
7
  6
CONTINUOUS
 10
6.9339198284
 20
21.2
 11
6.8667670239
 21
21.1647852141
  0
LINE
  5
256
100
AcDbEntity
  8
RACCORDO
100
AcDbLine
 62
7
  6
CONTINUOUS
 10
7.3830351795
 20
20.9
 11
7.2419286989
 21
20.8366629075
  0
LINE
  5
257
100
AcDbEntity
  8
0
100
AcDbLine
 62
7
  6
CONTINUOUS
 10
-1.838789
 20
17.229107
 11
-1.474958
 21
17.345916
  0
LINE
  5
258
100
AcDbEntity
  8
0
100
AcDbLine
 62
7
  6
CONTINUOUS
 10
-2.748836
 20
16.936914
 11
-2.190302
 21
17.116239
  0
LWPOLYLINE
  5
259
100
AcDbEntity
  8
RACCORDO
100
AcDbPolyline
 62
7
  6
CONTINUOUS
 90
16
 70
0
 10
-6.9988692386
 20
-15.1988502001
 10
-7.0509520865
 20
-15.196131188
 10
-7.1025530945
 20
-15.1879856028
 10
-7.1531049333
 20
-15.1744759699
 10
-7.2021153054
 20
-15.155694238
 10
-7.2489617473
 20
-15.1318376392
 10
-7.2929333646
 20
-15.1032770493
 10
-7.3334372192
 20
-15.0704825725
 10
-7.3702153806
 20
-15.0337543415
 10
-7.403085202
 20
-14.9932658405
 10
-7.4317485295
 20
-14.9492470034
 10
-7.4557063755
 20
-14.9023047586
 10
-7.4745512846
 20
-14.8532176614
 10
-7.4880897283
 20
-14.8026390754
 10
-7.4962502297
 20
-14.7510434362
 10
-7.4989810696
 20
-14.699000108
  0
LWPOLYLINE
  5
25A
100
AcDbEntity
  8
RACCORDO
100
AcDbPolyline
 62
7
  6
CONTINUOUS
 90
13
 70
0
 10
-6.7148190698
 20
-15.2755396155
 10
-6.6892152491
 20
-15.2772689045
 10
-6.6639347522
 20
-15.2824239732
 10
-6.6394055691
 20
-15.2909646937
 10
-6.6160314747
 20
-15.3028251148
 10
-6.5942500332
 20
-15.3178327493
 10
-6.5745074607
 20
-15.3356839057
 10
-6.5571737495
 20
-15.3560877535
 10
-6.5425282199
 20
-15.3787409919
 10
-6.53081924
 20
-15.4032420842
 10
-6.5222705553
 20
-15.4291951873
 10
-6.5170642143
 20
-15.4562082555
 10
-6.5153193024
 20
-15.4838500694
  0
LINE
  5
25B
100
AcDbEntity
  8
RACCORDO
100
AcDbLine
 62
7
  6
CONTINUOUS
 10
7.2419286989
 20
-20.8366629075
 11
7.3830351795
 21
-20.9
  0
LINE
  5
25C
100
AcDbEntity
  8
RACCORDO
100
AcDbLine
 62
7
  6
CONTINUOUS
 10
-6.5140249785
 20
-15.1118281743
 11
-6.5
 21
-15.1188401295
  0
LINE
  5
25D
100
AcDbEntity
  8
DRAFT
100
AcDbLine
 62
7
  6
CONTINUOUS
 10
6.9339198284
 20
-21.2
 11
6.8667670239
 21
-21.1647852141
  0
LINE
  5
25E
100
AcDbEntity
  8
DRAFT
100
AcDbLine
 62
7
  6
CONTINUOUS
 10
-9.65
 20
-13.7310577445
 11
-9.5818521307
 21
-13.7992056137
  0
LINE
  5
25F
100
AcDbEntity
  8
RACCORDO
100
AcDbLine
 62
7
  6
CONTINUOUS
 10
-0.3972163531
 20
20.4338413913
 11
-0.2629729446
 21
20.5680847998
  0
LWPOLYLINE
  5
260
100
AcDbEntity
  8
RACCORDO
100
AcDbPolyline
 62
7
  6
CONTINUOUS
 90
22
 70
0
 10
6.8556039598
 20
20.7438927334
 10
6.8439789166
 20
20.7378805695
 10
6.8321363463
 20
20.7312003704
 10
6.820076249
 20
20.7238550262
 10
6.8076750808
 20
20.7158333532
 10
6.7950563856
 20
20.7071884375
 10
6.782590795
 20
20.6980495296
 10
6.7702734199
 20
20.6884737495
 10
6.7581091494
 20
20.6785497722
 10
6.7464832829
 20
20.6684860341
 10
6.7355401483
 20
20.658535236
 10
6.7251354177
 20
20.648647055
 10
6.7152214069
 20
20.6386064488
 10
6.7056972023
 20
20.6285495879
 10
6.6966637174
 20
20.6186691032
 10
6.6883760089
 20
20.6089416263
 10
6.6807906443
 20
20.5995512936
 10
6.6739510561
 20
20.590990769
 10
6.6682425977
 20
20.5837458796
 10
6.6637937206
 20
20.5781702512
 10
6.6604759735
 20
20.5745483309
 10
6.6582893563
 20
20.5731858629
  0
LWPOLYLINE
  5
261
100
AcDbEntity
  8
0
100
AcDbPolyline
 62
7
  6
CONTINUOUS
 90
22
 70
0
 10
8.0977489829
 20
19.2845839307
 10
8.1163352062
 20
19.2920326023
 10
8.1351020398
 20
19.298880648
 10
8.1540494835
 20
19.3051280689
 10
8.1732188575
 20
19.3107308281
 10
8.1925688417
 20
19.3157329641
 10
8.2119754757
 20
19.3202665906
 10
8.2314143896
 20
19.3243411243
 10
8.2509099534
 20
19.3279471494
 10
8.2704113168
 20
19.3311885306
 10
8.2898578795
 20
19.3340713791
 10
8.3093102418
 20
19.3365895842
 10
8.3288993549
 20
19.338828678
 10
8.3486002449
 20
19.340801756
 10
8.3684378857
 20
19.3424957228
 10
8.3886181493
 20
19.3439568241
 10
8.4091356707
 20
19.3451969197
 10
8.4299958149
 20
19.3462041498
 10
8.4514205496
 20
19.3469891812
 10
8.4734838639
 20
19.3475555695
 10
8.4961117685
 20
19.3478997591
 10
8.5193042636
 20
19.3480217502
  0
LINE
  5
262
100
AcDbEntity
  8
0
100
AcDbLine
 62
7
  6
CONTINUOUS
 10
-3.325037
 20
14.660905
 11
-2.120197
 21
15.006388
  0
LINE
  5
263
100
AcDbEntity
  8
0
100
AcDbLine
 62
7
  6
CONTINUOUS
 10
-2.694959
 20
14.471557
 11
-1.474954
 21
14.821383
  0
LWPOLYLINE
  5
264
100
AcDbEntity
  8
RACCORDO
100
AcDbPolyline
 62
250
  6
CONTINUOUS
 90
19
 70
0
 10
9.5099578574
 20
-13.7240610039
 10
9.5175319667
 20
-13.7231220537
 10
9.5252662744
 20
-13.7207663842
 10
9.5330429413
 20
-13.7169602737
 10
9.540698867
 20
-13.7116612754
 10
9.5481401811
 20
-13.7048701743
 10
9.5553594844
 20
-13.6966748096
 10
9.5622258932
 20
-13.6871635379
 10
9.5686456363
 20
-13.6763736416
 10
9.5746841511
 20
-13.6643664568
 10
9.5802642867
 20
-13.6511846125
 10
9.5852515445
 20
-13.6369511514
 10
9.5896554787
 20
-13.621879036
 10
9.5934475276
 20
-13.6061198998
 10
9.5965565494
 20
-13.589780647
 10
9.5989796022
 20
-13.5730369591
 10
9.6007157325
 20
-13.5560394111
 10
9.6017543796
 20
-13.5389074436
 10
9.6021053835
 20
-13.5217718508
  0
LWPOLYLINE
  5
265
100
AcDbEntity
  8
RACCORDO
100
AcDbPolyline
 62
250
  6
CONTINUOUS
 90
16
 70
0
 10
-6.3140554395
 20
-14.2860054824
 10
-6.3570576095
 20
-14.2885163937
 10
-6.3985731702
 20
-14.2951451129
 10
-6.4386021216
 20
-14.3058916402
 10
-6.4775191101
 20
-14.3209866923
 10
-6.5149494892
 20
-14.3401995525
 10
-6.5497693201
 20
-14.36283807
 10
-6.5818794786
 20
-14.388952556
 10
-6.6113790888
 20
-14.4184926994
 10
-6.6374415844
 20
-14.4506154166
 10
-6.6600132767
 20
-14.4854083848
 10
-6.6791478545
 20
-14.5227839267
 10
-6.6941798174
 20
-14.5616359269
 10
-6.7048873322
 20
-14.6015956799
 10
-6.7114922323
 20
-14.6430318911
 10
-6.7139945176
 20
-14.6859445605
  0
LWPOLYLINE
  5
266
100
AcDbEntity
  8
RACCORDO
100
AcDbPolyline
 62
7
  6
CONTINUOUS
 90
19
 70
0
 10
10.25
 20
-13.7240610192
 10
10.286952748
 20
-13.7226936602
 10
10.3253956059
 20
-13.7183438132
 10
10.3650531633
 20
-13.7106436638
 10
10.4058434134
 20
-13.6991532611
 10
10.447088109
 20
-13.6835781435
 10
10.4875942413
 20
-13.664002576
 10
10.5269163839
 20
-13.6403743374
 10
10.5646087522
 20
-13.6126747925
 10
10.5996435797
 20
-13.581480367
 10
10.6317012523
 20
-13.5470212059
 10
10.6604534791
 20
-13.5095903556
 10
10.6852051803
 20
-13.4702225487
 10
10.7058750868
 20
-13.4294313818
 10
10.7225041302
 20
-13.3875816804
 10
10.7349859006
 20
-13.3456668373
 10
10.7435186693
 20
-13.3043032368
 10
10.7484289374
 20
-13.2636630234
 10
10.75
 20
-13.224057211
  0
LWPOLYLINE
  5
267
100
AcDbEntity
  8
RACCORDO
100
AcDbPolyline
 62
250
  6
CONTINUOUS
 90
19
 70
0
 10
9.5099603365
 20
-13.7240610192
 10
9.5335095198
 20
-13.7232259044
 10
9.5568071421
 20
-13.7209820493
 10
9.5798532033
 20
-13.7172966937
 10
9.6028962679
 20
-13.7121303894
 10
9.6256877715
 20
-13.7054826364
 10
9.6474820211
 20
-13.6974346555
 10
9.668181876
 20
-13.6880723616
 10
9.6878844769
 20
-13.6774338419
 10
9.7061355528
 20
-13.6655783334
 10
9.7229356377
 20
-13.6525491613
 10
9.7382841976
 20
-13.6384681634
 10
9.7517253598
 20
-13.6235436207
 10
9.7631579351
 20
-13.6079272672
 10
9.7726831127
 20
-13.5917237946
 10
9.7801485876
 20
-13.5750995681
 10
9.7855035913
 20
-13.5582005457
 10
9.7887988922
 20
-13.5411471008
 10
9.7900344904
 20
-13.5240686345
  0
LWPOLYLINE
  5
268
100
AcDbEntity
  8
RACCORDO
100
AcDbPolyline
 62
250
  6
CONTINUOUS
 90
19
 70
0
 10
10.25
 20
-13.5240686345
 10
10.2725171765
 20
-13.5235999993
 10
10.295533658
 20
-13.5209150134
 10
10.3190494444
 20
-13.5160136769
 10
10.3434648267
 20
-13.5089545664
 10
10.368379514
 20
-13.4996791053
 10
10.3925926338
 20
-13.4880115638
 10
10.4160592218
 20
-13.4737340687
 10
10.4388242423
 20
-13.4570644931
 10
10.4598217161
 20
-13.4384807265
 10
10.4789022541
 20
-13.4177989229
 10
10.4962152454
 20
-13.3952029282
 10
10.5111428776
 20
-13.3717221689
 10
10.5234562693
 20
-13.347339017
 10
10.533384302
 20
-13.3220711005
 10
10.5409958082
 20
-13.2970007305
 10
10.546313732
 20
-13.2724886775
 10
10.5493151292
 20
-13.248174171
 10
10.55
 20
-13.224057211
  0
LINE
  5
269
100
AcDbEntity
  8
RACCORDO
100
AcDbLine
 62
250
  6
CONTINUOUS
 10
-8.961952514
 20
-13.7118880414
 11
-8.9980295642
 21
-13.7120736115
  0
LINE
  5
26A
100
AcDbEntity
  8
RACCORDO
100
AcDbLine
 62
250
  6
CONTINUOUS
 10
-8.9303794106
 20
-13.7118434042
 11
-8.961952514
 21
-13.7118880414
  0
LINE
  5
26B
100
AcDbEntity
  8
RACCORDO
100
AcDbLine
 62
7
  6
CONTINUOUS
 10
-7.319462557
 20
-15.2755396155
 11
-6.7148190698
 21
-15.2755396155
  0
LINE
  5
26C
100
AcDbEntity
  8
RACCORDO
100
AcDbLine
 62
7
  6
CONTINUOUS
 10
-0.1992738542
 20
-15.2755396155
 11
0.1992738542
 21
-15.2755396155
  0
LINE
  5
26D
100
AcDbEntity
  8
RACCORDO
100
AcDbLine
 62
7
  6
CONTINUOUS
 10
6.7148190698
 20
-15.2755396155
 11
7.319462557
 21
-15.2755396155
  0
LINE
  5
26E
100
AcDbEntity
  8
RACCORDO
100
AcDbLine
 62
7
  6
CONTINUOUS
 10
-6.9988692386
 20
-15.1988502001
 11
6.9988692386
 21
-15.1988502001
  0
LINE
  5
26F
100
AcDbEntity
  8
DRAFT
100
AcDbLine
 62
7
  6
CONTINUOUS
 10
6.5
 20
-15.1188401295
 11
-6.5
 21
-15.1188401295
  0
LINE
  5
270
100
AcDbEntity
  8
RACCORDO
100
AcDbLine
 62
7
  6
CONTINUOUS
 10
6.9101323002
 20
-15.1101132618
 11
6.7139945176
 21
-15.1101132618
  0
LINE
  5
271
100
AcDbEntity
  8
RACCORDO
100
AcDbLine
 62
7
  6
CONTINUOUS
 10
-6.7139945176
 20
-15.1101132618
 11
-6.9101323002
 21
-15.1101132618
  0
LINE
  5
272
100
AcDbEntity
  8
RACCORDO
100
AcDbLine
 62
250
  6
CONTINUOUS
 10
-6.7139945176
 20
-14.6859445605
 11
-6.5140249785
 21
-14.6859445604
  0
LINE
  5
273
100
AcDbEntity
  8
RACCORDO
100
AcDbLine
 62
250
  6
CONTINUOUS
 10
6.7139945176
 20
-14.6859445603
 11
6.5140249785
 21
-14.6859445604
  0
LINE
  5
274
100
AcDbEntity
  8
RACCORDO
100
AcDbLine
 62
7
  6
CONTINUOUS
 10
6.300030461
 20
-14.5
 11
-6.300030461
 21
-14.5
  0
LINE
  5
275
100
AcDbEntity
  8
RACCORDO
100
AcDbLine
 62
250
  6
CONTINUOUS
 10
-6.3140554395
 20
-14.4859750215
 11
6.3140554395
 21
-14.4859750215
  0
LINE
  5
276
100
AcDbEntity
  8
RACCORDO
100
AcDbLine
 62
250
  6
CONTINUOUS
 10
-6.3140554395
 20
-14.2860054824
 11
6.3140554395
 21
-14.2860054824
  0
LINE
  5
277
100
AcDbEntity
  8
DRAFT
100
AcDbLine
 62
7
  6
CONTINUOUS
 10
9.5818521307
 20
-13.7992056137
 11
7.4992056137
 21
-13.7992056137
  0
LINE
  5
278
100
AcDbEntity
  8
DRAFT
100
AcDbLine
 62
7
  6
CONTINUOUS
 10
-7.4992056137
 20
-13.7992056137
 11
-9.5818521307
 21
-13.7992056137
  0
LINE
  5
279
100
AcDbEntity
  8
RACCORDO
100
AcDbLine
 62
7
  6
CONTINUOUS
 10
10.25
 20
-13.7310577445
 11
9.65
 21
-13.7310577445
  0
LINE
  5
27A
100
AcDbEntity
  8
RACCORDO
100
AcDbLine
 62
7
  6
CONTINUOUS
 10
-9.65
 20
-13.7310577445
 11
-10.25
 21
-13.7310577445
  0
LINE
  5
27B
100
AcDbEntity
  8
RACCORDO
100
AcDbLine
 62
7
  6
CONTINUOUS
 10
-10.25
 20
-13.7240610192
 11
-9.5099584924
 21
-13.7240610192
  0
LINE
  5
27C
100
AcDbEntity
  8
RACCORDO
100
AcDbLine
 62
7
  6
CONTINUOUS
 10
9.5099584924
 20
-13.7240610192
 11
10.25
 21
-13.7240610192
  0
LINE
  5
27D
100
AcDbEntity
  8
RACCORDO
100
AcDbLine
 62
7
  6
CONTINUOUS
 10
7.4118434042
 20
-13.7118434042
 11
8.9303794106
 21
-13.7118434042
  0
LINE
  5
27E
100
AcDbEntity
  8
RACCORDO
100
AcDbLine
 62
7
  6
CONTINUOUS
 10
-7.4118434042
 20
-13.7118434042
 11
-8.9303794106
 21
-13.7118434042
  0
LINE
  5
27F
100
AcDbEntity
  8
RACCORDO
100
AcDbLine
 62
250
  6
CONTINUOUS
 10
8.9303794106
 20
-13.7118434042
 11
8.9755832567
 21
-13.7119378447
  0
LINE
  5
280
100
AcDbEntity
  8
RACCORDO
100
AcDbLine
 62
250
  6
CONTINUOUS
 10
8.9755832567
 20
-13.7119378447
 11
8.9988739059
 21
-13.7120804957
  0
LWPOLYLINE
  5
281
100
AcDbEntity
  8
RACCORDO
100
AcDbPolyline
 62
250
  6
CONTINUOUS
 90
13
 70
0
 10
6.3140554395
 20
-14.4859750215
 10
6.3402689774
 20
-14.4876914132
 10
6.3660019393
 20
-14.4928207415
 10
6.3908139424
 20
-14.5012641225
 10
6.4142804289
 20
-14.512864999
 10
6.4360067448
 20
-14.5274157835
 10
6.4556328454
 20
-14.5446646506
 10
6.4728224134
 20
-14.5643035724
 10
6.4872965873
 20
-14.5859992593
 10
6.4988303726
 20
-14.6094139932
 10
6.5072239649
 20
-14.6341647613
 10
6.5123203827
 20
-14.6598205931
 10
6.5140249785
 20
-14.6859445605
  0
LWPOLYLINE
  5
282
100
AcDbEntity
  8
RACCORDO
100
AcDbPolyline
 62
7
  6
CONTINUOUS
 90
13
 70
0
 10
7.319462557
 20
-15.2755396155
 10
7.3450382138
 20
-15.2772639035
 10
7.3702803713
 20
-15.2824077141
 10
7.3947628174
 20
-15.2909290282
 10
7.4180826207
 20
-15.302759043
 10
7.439805836
 20
-15.3177252699
 10
7.4594919121
 20
-15.3355278816
 10
7.4767719555
 20
-15.3558765063
 10
7.4913687433
 20
-15.3784690175
 10
7.5030389782
 20
-15.4029109818
 10
7.5115595483
 20
-15.428810679
 10
7.5167459172
 20
-15.4557762905
 10
7.5184775044
 20
-15.483378525
  0
LWPOLYLINE
  5
283
100
AcDbEntity
  8
RACCORDO
100
AcDbPolyline
 62
7
  6
CONTINUOUS
 90
13
 70
0
 10
0.1992738542
 20
-15.2755396155
 10
0.2248776749
 20
-15.2772689045
 10
0.2501581718
 20
-15.2824239732
 10
0.2746873548
 20
-15.2909646937
 10
0.2980614492
 20
-15.3028251148
 10
0.3198428908
 20
-15.3178327493
 10
0.3395854632
 20
-15.3356839057
 10
0.3569191744
 20
-15.3560877535
 10
0.3715647041
 20
-15.3787409919
 10
0.3832736839
 20
-15.4032420842
 10
0.3918223687
 20
-15.4291951873
 10
0.3970287097
 20
-15.4562082555
 10
0.3987736215
 20
-15.4838500694
  0
LWPOLYLINE
  5
284
100
AcDbEntity
  8
RACCORDO
100
AcDbPolyline
 62
250
  6
CONTINUOUS
 90
13
 70
0
 10
-9.0243486726
 20
-13.7124176146
 10
-9.0488333365
 20
-13.7106353733
 10
-9.0729006492
 20
-13.7054745591
 10
-9.0961403736
 20
-13.69702314
 10
-9.118156379
 20
-13.685425174
 10
-9.1385733937
 20
-13.6708783531
 10
-9.1570434013
 20
-13.6536306339
 10
-9.173251573
 20
-13.6339760108
 10
-9.1869216337
 20
-13.6122495048
 10
-9.1978205718
 20
-13.5888214533
 10
-9.2057626104
 20
-13.5640911968
 10
-9.2106123741
 20
-13.5384802728
 10
-9.2122871968
 20
-13.51242523
  0
LWPOLYLINE
  5
285
100
AcDbEntity
  8
RACCORDO
100
AcDbPolyline
 62
7
  6
CONTINUOUS
 90
22
 70
0
 10
6.6582893563
 20
-20.5731858629
 10
6.660484049
 20
-20.574556117
 10
6.6638174652
 20
-20.5781990699
 10
6.6682896049
 20
-20.5838064515
 10
6.6740318146
 20
-20.5910923351
 10
6.6809127478
 20
-20.5996995287
 10
6.6885383648
 20
-20.6091344402
 10
6.6968644919
 20
-20.6188983843
 10
6.7059353029
 20
-20.6288065536
 10
6.7154892787
 20
-20.6388819884
 10
6.7254271847
 20
-20.6489332736
 10
6.7358482556
 20
-20.6588217898
 10
6.7467886764
 20
-20.6687569888
 10
6.7583832459
 20
-20.6787825197
 10
6.7704971654
 20
-20.68865368
 10
6.7827622233
 20
-20.6981785437
 10
6.7951736862
 20
-20.7072714614
 10
6.8077362875
 20
-20.7158745051
 10
6.8200960166
 20
-20.7238673752
 10
6.8321348699
 20
-20.7311986851
 10
6.843970851
 20
-20.7378753507
 10
6.8556039598
 20
-20.7438927334
  0
LINE
  5
286
100
AcDbEntity
  8
RACCORDO
100
AcDbLine
 62
250
  6
CONTINUOUS
 10
-6.5140249785
 20
-14.6859445605
 11
-6.5
 21
-14.699969539
  0
LINE
  5
287
100
AcDbEntity
  8
RACCORDO
100
AcDbLine
 62
7
  6
CONTINUOUS
 10
-0.3972163531
 20
-20.4338413913
 11
-0.2629729446
 21
-20.5680847998
  0
LINE
  5
288
100
AcDbEntity
  8
RACCORDO
100
AcDbLine
 62
250
  6
CONTINUOUS
 10
-6.3140554395
 20
-14.4859750215
 11
-6.300030461
 21
-14.5
  0
LINE
  5
289
100
AcDbEntity
  8
DRAFT
100
AcDbLine
 62
7
  6
CONTINUOUS
 10
-7.5
 20
-12.8
 11
-7.4825462644
 21
-12.8174537356
  0
LINE
  5
28A
100
AcDbEntity
  8
DRAFT
100
AcDbLine
 62
7
  6
CONTINUOUS
 10
-7.5153129787
 20
20.5028438891
 11
-7.3830351795
 21
20.9
  0
LINE
  5
28B
100
AcDbEntity
  8
DRAFT
100
AcDbLine
 62
7
  6
CONTINUOUS
 10
-9.65
 20
7.5310577445
 11
-9.5806907165
 21
7.6003670279
  0
LWPOLYLINE
  5
28C
100
AcDbEntity
  8
RACCORDO
100
AcDbPolyline
 62
7
  6
CONTINUOUS
 90
6
 70
0
 10
7.1443368656
 20
18.5327809856
 10
7.1346214315
 20
18.5267949192
 10
7.1111616916
 20
18.5152240935
 10
7.0863925871
 20
18.5068148347
 10
7.0607379245
 20
18.5017110277
 10
7.034636662
 20
18.5
  0
LINE
  5
28D
100
AcDbEntity
  8
0
100
AcDbLine
 62
7
  6
CONTINUOUS
 10
1.850364
 20
14.219293
 11
3.350372
 21
14.748703
  0
LINE
  5
28E
100
AcDbEntity
  8
0
100
AcDbLine
 62
7
  6
CONTINUOUS
 10
1.850364
 20
14.43565
 11
3.150795
 21
14.8663585
  0
LINE
  5
28F
100
AcDbEntity
  8
0
100
AcDbLine
 62
7
  6
CONTINUOUS
 10
-3.325037
 20
11.926845
 11
-2.051155
 21
12.335843
  0
LINE
  5
290
100
AcDbEntity
  8
0
100
AcDbLine
 62
7
  6
CONTINUOUS
 10
-3.325037
 20
11.556827
 11
-1.474949
 21
12.150825
  0
LINE
  5
291
100
AcDbEntity
  8
RACCORDO
100
AcDbLine
 62
7
  6
CONTINUOUS
 10
9.2122871968
 20
-12.8881641073
 11
9.6021029835
 21
-12.878817544
  0
LINE
  5
292
100
AcDbEntity
  8
RACCORDO
100
AcDbLine
 62
250
  6
CONTINUOUS
 10
-9.0219421425
 20
-13.7123644868
 11
-9.5099584924
 21
-13.7240610192
  0
LINE
  5
293
100
AcDbEntity
  8
RACCORDO
100
AcDbLine
 62
250
  6
CONTINUOUS
 10
-9.6130921016
 20
-13.5220121027
 11
-9.2122871968
 21
-13.51242523
  0
LINE
  5
294
100
AcDbEntity
  8
RACCORDO
100
AcDbLine
 62
250
  6
CONTINUOUS
 10
-9.0157646587
 20
-13.7122618519
 11
-9.0219421425
 21
-13.7123644868
  0
LINE
  5
295
100
AcDbEntity
  8
RACCORDO
100
AcDbLine
 62
250
  6
CONTINUOUS
 10
-9.6644878929
 20
-13.5227823609
 11
-9.6130921016
 21
-13.5220121027
  0
LINE
  5
296
100
AcDbEntity
  8
RACCORDO
100
AcDbLine
 62
250
  6
CONTINUOUS
 10
-9.7900415076
 20
-13.5240686345
 11
-9.6644878929
 21
-13.5227823609
  0
LWPOLYLINE
  5
297
100
AcDbEntity
  8
RACCORDO
100
AcDbPolyline
 62
250
  6
CONTINUOUS
 90
3
 70
0
 10
-8.9980295642
 20
-13.7120736115
 10
-9.0030873745
 20
-13.7121169515
 10
-9.0157646587
 20
-13.7122618519
  0
LINE
  5
298
100
AcDbEntity
  8
RACCORDO
100
AcDbLine
 62
250
  6
CONTINUOUS
 10
-9.1484908663
 20
-13.5121245945
 11
-9.2122871968
 21
-13.51242523
  0
LINE
  5
299
100
AcDbEntity
  8
0
100
AcDbLine
 62
7
  6
CONTINUOUS
 10
-6.5
 20
-13.6
 11
6.5
 21
-13.6
  0
LINE
  5
29A
100
AcDbEntity
  8
RACCORDO
100
AcDbLine
 62
250
  6
CONTINUOUS
 10
-10.25
 20
-13.5240686345
 11
-9.7900415076
 21
-13.5240686345
  0
LINE
  5
29B
100
AcDbEntity
  8
RACCORDO
100
AcDbLine
 62
250
  6
CONTINUOUS
 10
9.7900415076
 20
-13.5240686345
 11
10.25
 21
-13.5240686345
  0
LINE
  5
29C
100
AcDbEntity
  8
RACCORDO
100
AcDbLine
 62
250
  6
CONTINUOUS
 10
-7.4101132618
 20
-13.5118510196
 11
-9.1484908663
 21
-13.5121245945
  0
LINE
  5
29D
100
AcDbEntity
  8
RACCORDO
100
AcDbLine
 62
250
  6
CONTINUOUS
 10
10.55
 20
-13.224057211
 11
10.75
 21
-13.224057211
  0
LINE
  5
29E
100
AcDbEntity
  8
RACCORDO
100
AcDbLine
 62
250
  6
CONTINUOUS
 10
-10.55
 20
-13.224057211
 11
-10.75
 21
-13.2240572111
  0
LINE
  5
29F
100
AcDbEntity
  8
RACCORDO
100
AcDbLine
 62
7
  6
CONTINUOUS
 10
-8.9303794106
 20
-12.8898867382
 11
-6.5
 21
-12.8898867382
  0
LINE
  5
2A0
100
AcDbEntity
  8
RACCORDO
100
AcDbLine
 62
7
  6
CONTINUOUS
 10
6.5
 20
-12.8898867382
 11
8.9303794106
 21
-12.8898867382
  0
LINE
  5
2A1
100
AcDbEntity
  8
RACCORDO
100
AcDbLine
 62
7
  6
CONTINUOUS
 10
-9.7900415076
 20
-12.8776691233
 11
-9.6587268678
 21
-12.8776691233
  0
LINE
  5
2A2
100
AcDbEntity
  8
RACCORDO
100
AcDbLine
 62
7
  6
CONTINUOUS
 10
9.7900415076
 20
-12.8776691233
 11
9.6587268678
 21
-12.8776691233
  0
LINE
  5
2A3
100
AcDbEntity
  8
DRAFT
100
AcDbLine
 62
7
  6
CONTINUOUS
 10
-7.4825462644
 20
-12.8174537356
 11
-6.5
 21
-12.8174537356
  0
LINE
  5
2A4
100
AcDbEntity
  8
DRAFT
100
AcDbLine
 62
7
  6
CONTINUOUS
 10
6.5
 20
-12.8174537356
 11
7.4825462644
 21
-12.8174537356
  0
LINE
  5
2A5
100
AcDbEntity
  8
DRAFT
100
AcDbLine
 62
7
  6
CONTINUOUS
 10
-9.5810577445
 20
-12.8
 11
-7.5
 21
-12.8
  0
LINE
  5
2A6
100
AcDbEntity
  8
DRAFT
100
AcDbLine
 62
7
  6
CONTINUOUS
 10
7.5
 20
-12.8
 11
9.5810577445
 21
-12.8
  0
LINE
  5
2A7
100
AcDbEntity
  8
0
100
AcDbLine
 62
7
  6
CONTINUOUS
 10
-6.5
 20
-12.5
 11
6.5
 21
-12.5
  0
LINE
  5
2A8
100
AcDbEntity
  8
RACCORDO
100
AcDbLine
 62
250
  6
CONTINUOUS
 10
7.4101132618
 20
-13.5118510196
 11
9.1767453719
 21
-13.5122258899
  0
LINE
  5
2A9
100
AcDbEntity
  8
RACCORDO
100
AcDbLine
 62
250
  6
CONTINUOUS
 10
9.1767453719
 20
-13.5122258899
 11
9.2122871968
 21
-13.51242523
  0
LINE
  5
2AA
100
AcDbEntity
  8
RACCORDO
100
AcDbLine
 62
250
  6
CONTINUOUS
 10
8.9988739059
 20
-13.7120804957
 11
9.0124855161
 21
-13.7122182742
  0
LINE
  5
2AB
100
AcDbEntity
  8
RACCORDO
100
AcDbLine
 62
250
  6
CONTINUOUS
 10
9.7900415076
 20
-13.5240686345
 11
9.6445667807
 21
-13.5225374053
  0
LINE
  5
2AC
100
AcDbEntity
  8
RACCORDO
100
AcDbLine
 62
250
  6
CONTINUOUS
 10
9.0124855161
 20
-13.7122182742
 11
9.0193354607
 21
-13.7123166704
  0
LINE
  5
2AD
100
AcDbEntity
  8
RACCORDO
100
AcDbLine
 62
250
  6
CONTINUOUS
 10
9.6445667807
 20
-13.5225374053
 11
9.6130891488
 21
-13.5220269976
  0
LINE
  5
2AE
100
AcDbEntity
  8
RACCORDO
100
AcDbLine
 62
250
  6
CONTINUOUS
 10
9.0193354607
 20
-13.7123166704
 11
9.0243486726
 21
-13.7124176146
  0
LINE
  5
2AF
100
AcDbEntity
  8
RACCORDO
100
AcDbLine
 62
250
  6
CONTINUOUS
 10
9.0243486726
 20
-13.7124176146
 11
9.5099584924
 21
-13.7240610192
  0
LINE
  5
2B0
100
AcDbEntity
  8
RACCORDO
100
AcDbLine
 62
250
  6
CONTINUOUS
 10
9.2122871968
 20
-13.51242523
 11
9.6130891488
 21
-13.5220269976
  0
LINE
  5
2B1
100
AcDbEntity
  8
RACCORDO
100
AcDbLine
 62
7
  6
CONTINUOUS
 10
-9.6021029835
 20
-12.878817544
 11
-9.2122871968
 21
-12.8881641073
  0
LINE
  5
2B2
100
AcDbEntity
  8
DRAFT
100
AcDbLine
 62
7
  6
CONTINUOUS
 10
-9.5810577445
 20
-9.5
 11
-9.6587268678
 21
-9.4223308767
  0
LINE
  5
2B3
100
AcDbEntity
  8
RACCORDO
100
AcDbLine
 62
7
  6
CONTINUOUS
 10
-7.4372915245
 20
-9.4127084755
 11
-7.3674537356
 21
-9.4825462644
  0
LINE
  5
2B4
100
AcDbEntity
  8
DRAFT
100
AcDbLine
 62
7
  6
CONTINUOUS
 10
-7.5153129787
 20
-20.5028438891
 11
-7.3830351795
 21
-20.9
  0
LWPOLYLINE
  5
2B5
100
AcDbEntity
  8
RACCORDO
100
AcDbPolyline
 62
250
  6
CONTINUOUS
 90
19
 70
0
 10
-9.7900344904
 20
-13.5240686345
 10
-9.7888647829
 20
-13.540661855
 10
-9.7857419799
 20
-13.5572453606
 10
-9.7806660815
 20
-13.5737000244
 10
-9.7735859315
 20
-13.5899255695
 10
-9.764552686
 20
-13.6057750817
 10
-9.7537198134
 20
-13.6210631689
 10
-9.7410162931
 20
-13.6356723313
 10
-9.7265131458
 20
-13.6494921447
 10
-9.7105769023
 20
-13.6623695371
 10
-9.6932763592
 20
-13.6741579837
 10
-9.6745427199
 20
-13.6848431146
 10
-9.6545361249
 20
-13.6944536892
 10
-9.6332404331
 20
-13.7028864359
 10
-9.6106717856
 20
-13.7100360161
 10
-9.5870387467
 20
-13.7158565487
 10
-9.562410838
 20
-13.7202273433
 10
-9.5367185379
 20
-13.7230011801
 10
-9.5099618465
 20
-13.7240610192
  0
LWPOLYLINE
  5
2B6
100
AcDbEntity
  8
RACCORDO
100
AcDbPolyline
 62
7
  6
CONTINUOUS
 90
19
 70
0
 10
-10.75
 20
-13.224057211
 10
-10.7486300982
 20
-13.2610443424
 10
-10.7442725581
 20
-13.2995206351
 10
-10.7365593831
 20
-13.3392100173
 10
-10.7250499133
 20
-13.3800314047
 10
-10.7094500227
 20
-13.4213039408
 10
-10.6898469731
 20
-13.4618291643
 10
-10.6661905244
 20
-13.5011611843
 10
-10.6384635239
 20
-13.5388549262
 10
-10.6072469622
 20
-13.5738806987
 10
-10.572774778
 20
-13.6059193007
 10
-10.5353406491
 20
-13.6346461503
 10
-10.4959789828
 20
-13.6593700029
 10
-10.45520511
 20
-13.6800111824
 10
-10.4133830543
 20
-13.6966134194
 10
-10.3715003611
 20
-13.7090739586
 10
-10.3301706395
 20
-13.7175918034
 10
-10.2895671009
 20
-13.7224930126
 10
-10.25
 20
-13.7240610192
  0
LWPOLYLINE
  5
2B7
100
AcDbEntity
  8
RACCORDO
100
AcDbPolyline
 62
250
  6
CONTINUOUS
 90
19
 70
0
 10
-10.55
 20
-13.224057211
 10
-10.5495299284
 20
-13.2465964513
 10
-10.5468403671
 20
-13.2696335712
 10
-10.541931316
 20
-13.2931685707
 10
-10.5348604201
 20
-13.317602964
 10
-10.5255700346
 20
-13.3425352368
 10
-10.5138872247
 20
-13.3667608468
 10
-10.4995934099
 20
-13.3902335778
 10
-10.4829071707
 20
-13.412999646
 10
-10.4643113145
 20
-13.4339931577
 10
-10.4436232185
 20
-13.4530632012
 10
-10.4210255054
 20
-13.4703606883
 10
-10.397548851
 20
-13.4852724611
 10
-10.3731772771
 20
-13.4975699909
 10
-10.3479267619
 20
-13.5074818064
 10
-10.3228759156
 20
-13.5150803358
 10
-10.2983842749
 20
-13.5203897216
 10
-10.274092303
 20
-13.5233858212
 10
-10.25
 20
-13.5240686345
  0
LINE
  5
2B8
100
AcDbEntity
  8
0
100
AcDbLine
 62
7
  6
CONTINUOUS
 10
-11.15
 20
21.8997711479
 11
-11.15
 21
-21.8997711479
  0
LINE
  5
2B9
100
AcDbEntity
  8
RACCORDO
100
AcDbLine
 62
7
  6
CONTINUOUS
 10
-10.75
 20
7.024057211
 11
-10.75
 21
-13.224057211
  0
LINE
  5
2BA
100
AcDbEntity
  8
RACCORDO
100
AcDbLine
 62
250
  6
CONTINUOUS
 10
-10.55
 20
7.024057211
 11
-10.55
 21
-13.224057211
  0
LINE
  5
2BB
100
AcDbEntity
  8
RACCORDO
100
AcDbLine
 62
250
  6
CONTINUOUS
 10
-10.25
 20
-13.5240686345
 11
-10.25
 21
-13.7240610192
  0
LINE
  5
2BC
100
AcDbEntity
  8
RACCORDO
100
AcDbLine
 62
250
  6
CONTINUOUS
 10
-10.25
 20
7.3240686345
 11
-10.2500000001
 21
7.5240610192
  0
LINE
  5
2BD
100
AcDbEntity
  8
RACCORDO
100
AcDbLine
 62
250
  6
CONTINUOUS
 10
-6.5140249785
 20
8.7859445605
 11
-6.5
 21
8.799969539
  0
LINE
  5
2BE
100
AcDbEntity
  8
DRAFT
100
AcDbLine
 62
7
  6
CONTINUOUS
 10
-8.5
 20
6.6
 11
-8.4101132618
 21
6.6898867382
  0
LINE
  5
2BF
100
AcDbEntity
  8
RACCORDO
100
AcDbLine
 62
250
  6
CONTINUOUS
 10
-6.3140554395
 20
8.5859750215
 11
-6.300030461
 21
8.6
  0
LWPOLYLINE
  5
2C0
100
AcDbEntity
  8
0
100
AcDbPolyline
 62
7
  6
CONTINUOUS
 90
7
 70
0
 10
8.6154843865
 20
18.1058663235
 10
8.650084127
 20
18.1286672982
 10
8.6869421936
 20
18.1472591751
 10
8.7260585864
 20
18.1616419714
 10
8.7674333054
 20
18.1718157002
 10
8.8110663505
 20
18.1777803711
 10
8.8569577217
 20
18.1795359895
  0
LWPOLYLINE
  5
2C1
100
AcDbEntity
  8
0
100
AcDbPolyline
 62
7
  6
CONTINUOUS
 90
7
 70
0
 10
7.9904513216
 20
18.0503876958
 10
8.0205425402
 20
18.0671215118
 10
8.0514803268
 20
18.080860374
 10
8.0832646813
 20
18.0916042916
 10
8.1158956037
 20
18.0993532715
 10
8.149373094
 20
18.1041073188
 10
8.1836971521
 20
18.1058664367
  0
LWPOLYLINE
  5
2C2
100
AcDbEntity
  8
0
100
AcDbPolyline
 62
7
  6
CONTINUOUS
 90
7
 70
0
 10
7.9904513216
 20
16.8849714551
 10
8.0205427547
 20
16.9017053328
 10
8.0514806699
 20
16.9154442327
 10
8.0832650673
 20
16.9261881633
 10
8.1158959468
 20
16.9339371312
 10
8.1493733084
 20
16.9386911411
 10
8.1836971521
 20
16.940450196
  0
LINE
  5
2C3
100
AcDbEntity
  8
RACCORDO
100
AcDbLine
 62
7
  6
CONTINUOUS
 10
-6.5140249785
 20
9.5118281743
 11
-6.5
 21
9.5188401295
  0
LWPOLYLINE
  5
2C4
100
AcDbEntity
  8
0
100
AcDbPolyline
 62
7
  6
CONTINUOUS
 90
22
 70
0
 10
8.0977489504
 20
15.7883356416
 10
8.1163355554
 20
15.795784457
 10
8.1351026958
 20
15.802632611
 10
8.1540503715
 20
15.8088801043
 10
8.1732198938
 20
15.8144828913
 10
8.1925699514
 20
15.8194850191
 10
8.2119766107
 20
15.8240186275
 10
8.2314155003
 20
15.8280931382
 10
8.2509109915
 20
15.8316991303
 10
8.2704122642
 20
15.8349404799
 10
8.2898587228
 20
15.8378233009
 10
8.309310963
 20
15.8403414797
 10
8.3288999519
 20
15.8425805507
 10
8.3486007158
 20
15.8445536103
 10
8.3684382286
 20
15.8462475622
 10
8.3886183788
 20
15.8477086521
 10
8.4091358028
 20
15.8489487402
 10
8.4299958643
 20
15.8499559662
 10
8.4514205432
 20
15.8507409952
 10
8.4734838327
 20
15.851307382
 10
8.4961117395
 20
15.8516515718
 10
8.5193042636
 20
15.8517735645
  0
LINE
  5
2C5
100
AcDbEntity
  8
DRAFT
100
AcDbLine
 62
7
  6
CONTINUOUS
 10
8.35
 20
-10.9
 11
7.5
 21
-10.9
  0
LINE
  5
2C6
100
AcDbEntity
  8
DRAFT
100
AcDbLine
 62
7
  6
CONTINUOUS
 10
-7.5
 20
-10.9
 11
-8.35
 21
-10.9
  0
LINE
  5
2C7
100
AcDbEntity
  8
DRAFT
100
AcDbLine
 62
7
  6
CONTINUOUS
 10
8.3325462644
 20
-10.8825462644
 11
7.4825462644
 21
-10.8825462644
  0
LINE
  5
2C8
100
AcDbEntity
  8
DRAFT
100
AcDbLine
 62
7
  6
CONTINUOUS
 10
-7.4825462644
 20
-10.8825462644
 11
-8.3325462644
 21
-10.8825462644
  0
LINE
  5
2C9
100
AcDbEntity
  8
RACCORDO
100
AcDbLine
 62
250
  6
CONTINUOUS
 10
7.3674537356
 20
-10.5043838508
 11
6.5
 21
-10.5043838508
  0
LINE
  5
2CA
100
AcDbEntity
  8
RACCORDO
100
AcDbLine
 62
250
  6
CONTINUOUS
 10
-6.5
 20
-10.5043838508
 11
-7.3674537356
 21
-10.5043838508
  0
LINE
  5
2CB
100
AcDbEntity
  8
RACCORDO
100
AcDbLine
 62
250
  6
CONTINUOUS
 10
7.3652902967
 20
-10.2089415249
 11
6.5
 21
-10.2089415249
  0
LINE
  5
2CC
100
AcDbEntity
  8
RACCORDO
100
AcDbLine
 62
250
  6
CONTINUOUS
 10
-6.5
 20
-10.2089415249
 11
-7.3652902967
 21
-10.2089415249
  0
LINE
  5
2CD
100
AcDbEntity
  8
RACCORDO
100
AcDbLine
 62
250
  6
CONTINUOUS
 10
7.1457306636
 20
-18.5337039914
 11
7.1563704044
 21
-18.541329332
  0
LWPOLYLINE
  5
2CE
100
AcDbEntity
  8
RACCORDO
100
AcDbPolyline
 62
250
  6
CONTINUOUS
 90
13
 70
0
 10
-7.2293696815
 20
-20.1171572875
 10
-7.2274017151
 20
-20.1352963416
 10
-7.2221423768
 20
-20.1531896548
 10
-7.2136494171
 20
-20.1705357589
 10
-7.2020236077
 20
-20.1870530906
 10
-7.1874402364
 20
-20.2024368699
 10
-7.170174151
 20
-20.2163768226
 10
-7.1505322297
 20
-20.2286273937
 10
-7.128834401
 20
-20.2389909837
 10
-7.1054631376
 20
-20.2472862956
 10
-7.0808217567
 20
-20.2533749129
 10
-7.0553235464
 20
-20.257159202
 10
-7.0294001425
 20
-20.2585786438
  0
LINE
  5
2CF
100
AcDbEntity
  8
RACCORDO
100
AcDbLine
 62
250
  6
CONTINUOUS
 10
-7.3089365232
 20
-18.7
 11
-7.5184775044
 21
-15.483378525
  0
LWPOLYLINE
  5
2D0
100
AcDbEntity
  8
RACCORDO
100
AcDbPolyline
 62
250
  6
CONTINUOUS
 90
19
 70
0
 10
-9.6021053835
 20
-13.5217718508
 10
-9.6017732562
 20
-13.5384194489
 10
-9.6007937695
 20
-13.5550780735
 10
-9.5991549083
 20
-13.5716273212
 10
-9.5968613636
 20
-13.5879673274
 10
-9.5939107626
 20
-13.6039473739
 10
-9.5903124216
 20
-13.6193746567
 10
-9.5861414874
 20
-13.6341308956
 10
-9.5814235613
 20
-13.6481036729
 10
-9.5761377792
 20
-13.6611321371
 10
-9.5704074501
 20
-13.6730669605
 10
-9.5642944826
 20
-13.6838970533
 10
-9.557679085
 20
-13.693652433
 10
-9.5506367949
 20
-13.7022297865
 10
-9.5432577069
 20
-13.7095220969
 10
-9.5354139416
 20
-13.7154806959
 10
-9.5271290119
 20
-13.7199832286
 10
-9.5185973618
 20
-13.7228824868
 10
-9.5099573388
 20
-13.7240609915
  0
LINE
  5
2D1
100
AcDbEntity
  8
RACCORDO
100
AcDbLine
 62
250
  6
CONTINUOUS
 10
-9.7900415076
 20
7.3240686345
 11
-9.7900415076
 21
6.6776691233
  0
LINE
  5
2D2
100
AcDbEntity
  8
RACCORDO
100
AcDbLine
 62
250
  6
CONTINUOUS
 10
-9.7900415076
 20
-0.8776691233
 11
-9.7900415076
 21
-1.7223308767
  0
LINE
  5
2D3
100
AcDbEntity
  8
RACCORDO
100
AcDbLine
 62
250
  6
CONTINUOUS
 10
-9.7900415076
 20
-8.5776691233
 11
-9.7900415076
 21
-9.4223308767
  0
LINE
  5
2D4
100
AcDbEntity
  8
RACCORDO
100
AcDbLine
 62
250
  6
CONTINUOUS
 10
-9.7900415076
 20
-12.8776691233
 11
-9.7900415076
 21
-13.5240686345
  0
LINE
  5
2D5
100
AcDbEntity
  8
DRAFT
100
AcDbLine
 62
7
  6
CONTINUOUS
 10
-9.6587268678
 20
6.6776691233
 11
-9.6587268678
 21
-0.8776691233
  0
LINE
  5
2D6
100
AcDbEntity
  8
DRAFT
100
AcDbLine
 62
7
  6
CONTINUOUS
 10
-9.6587268678
 20
-1.7223308767
 11
-9.6587268678
 21
-8.5776691233
  0
LINE
  5
2D7
100
AcDbEntity
  8
DRAFT
100
AcDbLine
 62
7
  6
CONTINUOUS
 10
-9.6587268678
 20
-9.4223308767
 11
-9.6587268678
 21
-12.8776691233
  0
LINE
  5
2D8
100
AcDbEntity
  8
DRAFT
100
AcDbLine
 62
7
  6
CONTINUOUS
 10
-9.65
 20
-20.9
 11
-9.65
 21
-13.7310577445
  0
LINE
  5
2D9
100
AcDbEntity
  8
DRAFT
100
AcDbLine
 62
7
  6
CONTINUOUS
 10
-9.65
 20
7.5310577445
 11
-9.65
 21
20.9
  0
LINE
  5
2DA
100
AcDbEntity
  8
RACCORDO
100
AcDbLine
 62
250
  6
CONTINUOUS
 10
-9.6021029835
 20
7.3217717933
 11
-9.6021029835
 21
6.678817544
  0
LINE
  5
2DB
100
AcDbEntity
  8
RACCORDO
100
AcDbLine
 62
250
  6
CONTINUOUS
 10
-9.6021029835
 20
-0.878817544
 11
-9.6021029835
 21
-1.721182456
  0
LINE
  5
2DC
100
AcDbEntity
  8
RACCORDO
100
AcDbLine
 62
250
  6
CONTINUOUS
 10
-9.6021029835
 20
-8.578817544
 11
-9.6021029835
 21
-9.421182456
  0
LINE
  5
2DD
100
AcDbEntity
  8
RACCORDO
100
AcDbLine
 62
250
  6
CONTINUOUS
 10
-9.6021029835
 20
-12.878817544
 11
-9.6021029835
 21
-13.5217717933
  0
LINE
  5
2DE
100
AcDbEntity
  8
DRAFT
100
AcDbLine
 62
7
  6
CONTINUOUS
 10
-9.5810577445
 20
-12.8
 11
-9.5810577445
 21
-9.5
  0
LINE
  5
2DF
100
AcDbEntity
  8
DRAFT
100
AcDbLine
 62
7
  6
CONTINUOUS
 10
-9.5810577445
 20
-8.5
 11
-9.5810577445
 21
-1.8
  0
LINE
  5
2E0
100
AcDbEntity
  8
DRAFT
100
AcDbLine
 62
7
  6
CONTINUOUS
 10
-9.5810577445
 20
-0.8
 11
-9.5810577445
 21
6.6
  0
LINE
  5
2E1
100
AcDbEntity
  8
RACCORDO
100
AcDbLine
 62
250
  6
CONTINUOUS
 10
-9.2122871968
 20
7.31242523
 11
-9.2122871968
 21
6.6881641073
  0
LINE
  5
2E2
100
AcDbEntity
  8
RACCORDO
100
AcDbLine
 62
250
  6
CONTINUOUS
 10
-9.2122871968
 20
-0.8881641073
 11
-9.2122871968
 21
-1.7118358927
  0
LINE
  5
2E3
100
AcDbEntity
  8
RACCORDO
100
AcDbLine
 62
250
  6
CONTINUOUS
 10
-9.2122871968
 20
-8.5881641073
 11
-9.2122871968
 21
-9.4118358927
  0
LINE
  5
2E4
100
AcDbEntity
  8
RACCORDO
100
AcDbLine
 62
250
  6
CONTINUOUS
 10
-9.2122871968
 20
-12.8881641073
 11
-9.2122871968
 21
-13.51242523
  0
LINE
  5
2E5
100
AcDbEntity
  8
RACCORDO
100
AcDbLine
 62
250
  6
CONTINUOUS
 10
-8.9303794106
 20
7.5118434042
 11
-8.9303794106
 21
6.6898867382
  0
LINE
  5
2E6
100
AcDbEntity
  8
RACCORDO
100
AcDbLine
 62
250
  6
CONTINUOUS
 10
-8.9303794106
 20
-0.8898867382
 11
-8.9303794106
 21
-1.7101132618
  0
LINE
  5
2E7
100
AcDbEntity
  8
RACCORDO
100
AcDbLine
 62
250
  6
CONTINUOUS
 10
-8.9303794106
 20
-8.5898867382
 11
-8.9303794106
 21
-9.4101132618
  0
LINE
  5
2E8
100
AcDbEntity
  8
RACCORDO
100
AcDbLine
 62
250
  6
CONTINUOUS
 10
-8.9303794106
 20
-13.7118434042
 11
-8.9303794106
 21
-12.8898867382
  0
LINE
  5
2E9
100
AcDbEntity
  8
DRAFT
100
AcDbLine
 62
7
  6
CONTINUOUS
 10
-8.5
 20
4.6
 11
-8.5
 21
6.6
  0
LINE
  5
2EA
100
AcDbEntity
  8
RACCORDO
100
AcDbLine
 62
250
  6
CONTINUOUS
 10
-7.5184775044
 20
15.483378525
 11
-7.3089365232
 21
18.7
  0
LINE
  5
2EB
100
AcDbEntity
  8
RACCORDO
100
AcDbLine
 62
7
  6
CONTINUOUS
 10
-4.4999340873
 20
9.6000659127
 11
-4.5743642455
 21
9.5256357545
  0
LINE
  5
2EC
100
AcDbEntity
  8
RACCORDO
100
AcDbLine
 62
7
  6
CONTINUOUS
 10
6.6558702077
 20
20.5728350282
 11
6.5168765708
 21
20.4338413913
  0
LINE
  5
2ED
100
AcDbEntity
  8
RACCORDO
100
AcDbLine
 62
7
  6
CONTINUOUS
 10
-8.4127084755
 20
4.6872915245
 11
-8.5
 21
4.6
  0
LWPOLYLINE
  5
2EE
100
AcDbEntity
  8
0
100
AcDbPolyline
 62
7
  6
CONTINUOUS
 90
7
 70
0
 10
8.6154843003
 20
16.940450196
 10
8.6500837611
 20
16.9632511681
 10
8.6869416658
 20
16.981843061
 10
8.7260580141
 20
16.9962258907
 10
8.7674328063
 20
17.0063996696
 10
8.8110660421
 20
17.0123644064
 10
8.8569577217
 20
17.0141201064
  0
LINE
  5
2EF
100
AcDbEntity
  8
0
100
AcDbLine
 62
7
  6
CONTINUOUS
 10
2.14659
 20
11.582765
 11
3.350368
 21
12.370609
  0
LINE
  5
2F0
100
AcDbEntity
  8
0
100
AcDbLine
 62
7
  6
CONTINUOUS
 10
1.850359
 20
11.605888
 11
3.066765
 21
12.400016
  0
LINE
  5
2F1
100
AcDbEntity
  8
RACCORDO
100
AcDbLine
 62
7
  6
CONTINUOUS
 10
-9.6021029835
 20
-9.421182456
 11
-9.2122871968
 21
-9.4118358927
  0
LINE
  5
2F2
100
AcDbEntity
  8
RACCORDO
100
AcDbLine
 62
7
  6
CONTINUOUS
 10
9.2122871968
 20
-8.5881641073
 11
9.6021029835
 21
-8.578817544
  0
LINE
  5
2F3
100
AcDbEntity
  8
0
100
AcDbLine
 62
7
  6
CONTINUOUS
 10
7.35
 20
-9.9
 11
-7.35
 21
-9.9
  0
LINE
  5
2F4
100
AcDbEntity
  8
DRAFT
100
AcDbLine
 62
7
  6
CONTINUOUS
 10
-9.5810577445
 20
-9.5
 11
-8.35
 21
-9.5
  0
LINE
  5
2F5
100
AcDbEntity
  8
DRAFT
100
AcDbLine
 62
7
  6
CONTINUOUS
 10
9.5810577445
 20
-9.5
 11
8.35
 21
-9.5
  0
LINE
  5
2F6
100
AcDbEntity
  8
DRAFT
100
AcDbLine
 62
7
  6
CONTINUOUS
 10
-8.3325462644
 20
-9.4825462644
 11
-7.3674537356
 21
-9.4825462644
  0
LINE
  5
2F7
100
AcDbEntity
  8
DRAFT
100
AcDbLine
 62
7
  6
CONTINUOUS
 10
8.3325462644
 20
-9.4825462644
 11
7.3674537356
 21
-9.4825462644
  0
LINE
  5
2F8
100
AcDbEntity
  8
RACCORDO
100
AcDbLine
 62
7
  6
CONTINUOUS
 10
-9.7900415076
 20
-9.4223308767
 11
-9.6587268678
 21
-9.4223308767
  0
LINE
  5
2F9
100
AcDbEntity
  8
RACCORDO
100
AcDbLine
 62
7
  6
CONTINUOUS
 10
9.7900415076
 20
-9.4223308767
 11
9.6587268678
 21
-9.4223308767
  0
LINE
  5
2FA
100
AcDbEntity
  8
RACCORDO
100
AcDbLine
 62
7
  6
CONTINUOUS
 10
8.9303794106
 20
-9.4101132618
 11
7.7372801014
 21
-9.4101132618
  0
LINE
  5
2FB
100
AcDbEntity
  8
RACCORDO
100
AcDbLine
 62
7
  6
CONTINUOUS
 10
-7.7372801014
 20
-9.4101132618
 11
-8.9303794106
 21
-9.4101132618
  0
LINE
  5
2FC
100
AcDbEntity
  8
RACCORDO
100
AcDbLine
 62
7
  6
CONTINUOUS
 10
-8.9303794106
 20
-8.5898867382
 11
-7.7372801014
 21
-8.5898867382
  0
LINE
  5
2FD
100
AcDbEntity
  8
RACCORDO
100
AcDbLine
 62
7
  6
CONTINUOUS
 10
7.7372801014
 20
-8.5898867382
 11
8.9303794106
 21
-8.5898867382
  0
LINE
  5
2FE
100
AcDbEntity
  8
RACCORDO
100
AcDbLine
 62
7
  6
CONTINUOUS
 10
-9.7900415076
 20
-8.5776691233
 11
-9.6587268678
 21
-8.5776691233
  0
LINE
  5
2FF
100
AcDbEntity
  8
RACCORDO
100
AcDbLine
 62
7
  6
CONTINUOUS
 10
9.7900415076
 20
-8.5776691233
 11
9.6587268678
 21
-8.5776691233
  0
LINE
  5
300
100
AcDbEntity
  8
DRAFT
100
AcDbLine
 62
7
  6
CONTINUOUS
 10
-9.5810577445
 20
-8.5
 11
-7.35
 21
-8.5
  0
LINE
  5
301
100
AcDbEntity
  8
DRAFT
100
AcDbLine
 62
7
  6
CONTINUOUS
 10
9.5810577445
 20
-8.5
 11
7.35
 21
-8.5
  0
LINE
  5
302
100
AcDbEntity
  8
RACCORDO
100
AcDbLine
 62
7
  6
CONTINUOUS
 10
9.2122871968
 20
-9.4118358927
 11
9.6021029835
 21
-9.421182456
  0
LINE
  5
303
100
AcDbEntity
  8
RACCORDO
100
AcDbLine
 62
7
  6
CONTINUOUS
 10
-9.6021029835
 20
-8.578817544
 11
-9.2122871968
 21
-8.5881641073
  0
LWPOLYLINE
  5
304
100
AcDbEntity
  8
RACCORDO
100
AcDbPolyline
 62
250
  6
CONTINUOUS
 90
8
 70
0
 10
7.1563704044
 20
-18.541329332
 10
7.1760364792
 20
-18.5585786439
 10
7.1932831638
 20
-18.5782477143
 10
7.2078153628
 20
-18.6000000001
 10
7.2193844262
 20
-18.6234633136
 10
7.2277924042
 20
-18.648236191
 10
7.2328954339
 20
-18.6738947616
 10
7.234606201
 20
-18.7
  0
LINE
  5
305
100
AcDbEntity
  8
RACCORDO
100
AcDbLine
 62
7
  6
CONTINUOUS
 10
6.5168765708
 20
-20.4338413913
 11
6.6558702077
 21
-20.5728350282
  0
LWPOLYLINE
  5
306
100
AcDbEntity
  8
RACCORDO
100
AcDbPolyline
 62
7
  6
CONTINUOUS
 90
10
 70
0
 10
-6.6200664561
 20
-18.7
 10
-6.621788861
 20
-18.6740052246
 10
-6.6268735856
 20
-18.6484644063
 10
-6.6352396652
 20
-18.6237969742
 10
-6.6467477188
 20
-18.6004004561
 10
-6.6612085203
 20
-18.5786699409
 10
-6.6783904723
 20
-18.5589942658
 10
-6.6980161506
 20
-18.5417022105
 10
-6.7197508472
 20
-18.5270906564
 10
-6.7432134297
 20
-18.5154418811
  0
LINE
  5
307
100
AcDbEntity
  8
RACCORDO
100
AcDbLine
 62
250
  6
CONTINUOUS
 10
-7.1094109243
 20
-18.5
 11
-7.319462557
 21
-15.2755396155
  0
LWPOLYLINE
  5
308
100
AcDbEntity
  8
RACCORDO
100
AcDbPolyline
 62
250
  6
CONTINUOUS
 90
8
 70
0
 10
-7.2316159776
 20
-18.7539032018
 10
-7.2320259031
 20
-18.7389509379
 10
-7.2324517745
 20
-18.7266130286
 10
-7.2328932409
 20
-18.7166600603
 10
-7.2333313154
 20
-18.709028615
 10
-7.2337596691
 20
-18.7036975536
 10
-7.234184631
 20
-18.7006880153
 10
-7.234606201
 20
-18.7
  0
LWPOLYLINE
  5
309
100
AcDbEntity
  8
RACCORDO
100
AcDbPolyline
 62
250
  6
CONTINUOUS
 90
6
 70
0
 10
-7.032481887
 20
-18.5442382838
 10
-7.032923437
 20
-18.5275687838
 10
-7.0333615908
 20
-18.5150549436
 10
-7.0337900106
 20
-18.5064996111
 10
-7.0342150344
 20
-18.5015756509
 10
-7.034636662
 20
-18.5
  0
LINE
  5
30A
100
AcDbEntity
  8
RACCORDO
100
AcDbLine
 62
250
  6
CONTINUOUS
 10
-7.230860845
 20
-18.7903377297
 11
-7.2316159776
 21
-18.7539032018
  0
LINE
  5
30B
100
AcDbEntity
  8
RACCORDO
100
AcDbLine
 62
250
  6
CONTINUOUS
 10
-7.2419286989
 20
20.8366629075
 11
-7.2293696815
 21
20.1171572875
  0
LINE
  5
30C
100
AcDbEntity
  8
RACCORDO
100
AcDbLine
 62
250
  6
CONTINUOUS
 10
-7.0316459995
 20
-18.5897453035
 11
-7.032481887
 21
-18.5442382838
  0
LINE
  5
30D
100
AcDbEntity
  8
RACCORDO
100
AcDbLine
 62
250
  6
CONTINUOUS
 10
-7.2302463082
 20
-18.8341069364
 11
-7.230860845
 21
-18.7903377297
  0
LINE
  5
30E
100
AcDbEntity
  8
RACCORDO
100
AcDbLine
 62
250
  6
CONTINUOUS
 10
-7.0308908793
 20
-18.6506224131
 11
-7.0316459995
 21
-18.5897453035
  0
LINE
  5
30F
100
AcDbEntity
  8
RACCORDO
100
AcDbLine
 62
250
  6
CONTINUOUS
 10
-6.8556039598
 20
-20.7438927334
 11
-6.8598392317
 21
-20.2585786438
  0
LINE
  5
310
100
AcDbEntity
  8
RACCORDO
100
AcDbLine
 62
250
  6
CONTINUOUS
 10
-6.6558702077
 20
-20.5728350282
 11
-6.6598468471
 21
-20.1171572875
  0
LINE
  5
311
100
AcDbEntity
  8
RACCORDO
100
AcDbLine
 62
250
  6
CONTINUOUS
 10
-7.2296328074
 20
-18.9066510269
 11
-7.2302463082
 21
-18.8341069364
  0
LINE
  5
312
100
AcDbEntity
  8
RACCORDO
100
AcDbLine
 62
250
  6
CONTINUOUS
 10
-7.0298246198
 20
-18.8031472409
 11
-7.0308908793
 21
-18.6506224131
  0
LINE
  5
313
100
AcDbEntity
  8
RACCORDO
100
AcDbLine
 62
250
  6
CONTINUOUS
 10
-6.8592547018
 20
18.6853912478
 11
-6.8585099766
 21
18.5647948197
  0
LINE
  5
314
100
AcDbEntity
  8
RACCORDO
100
AcDbLine
 62
250
  6
CONTINUOUS
 10
-7.2293778235
 20
-18.9775145438
 11
-7.2296328074
 21
-18.9066510269
  0
LINE
  5
315
100
AcDbEntity
  8
RACCORDO
100
AcDbLine
 62
7
  6
CONTINUOUS
 10
-8.4101132618
 20
4.9872801014
 11
-8.4101132618
 21
6.6898867382
  0
LINE
  5
316
100
AcDbEntity
  8
DRAFT
100
AcDbLine
 62
7
  6
CONTINUOUS
 10
-8.35
 20
-10.9
 11
-8.35
 21
-9.5
  0
LINE
  5
317
100
AcDbEntity
  8
DRAFT
100
AcDbLine
 62
7
  6
CONTINUOUS
 10
-8.3325462644
 20
-10.8825462644
 11
-8.3325462644
 21
-9.4825462644
  0
LINE
  5
318
100
AcDbEntity
  8
RACCORDO
100
AcDbLine
 62
250
  6
CONTINUOUS
 10
-7.7372801014
 20
-9.4101132618
 11
-7.7372801014
 21
-8.5898867382
  0
LINE
  5
319
100
AcDbEntity
  8
RACCORDO
100
AcDbLine
 62
250
  6
CONTINUOUS
 10
-7.7372801014
 20
-1.7101132618
 11
-7.7372801014
 21
-0.8898867382
  0
LINE
  5
31A
100
AcDbEntity
  8
RACCORDO
100
AcDbLine
 62
250
  6
CONTINUOUS
 10
-7.7372801014
 20
4.6872915245
 11
-7.7372801014
 21
6.6898867382
  0
LINE
  5
31B
100
AcDbEntity
  8
DRAFT
100
AcDbLine
 62
7
  6
CONTINUOUS
 10
-7.5
 20
-12.8
 11
-7.5
 21
-10.9
  0
LINE
  5
31C
100
AcDbEntity
  8
DRAFT
100
AcDbLine
 62
7
  6
CONTINUOUS
 10
-7.4825462644
 20
-12.8174537356
 11
-7.4825462644
 21
-10.8825462644
  0
LINE
  5
31D
100
AcDbEntity
  8
RACCORDO
100
AcDbLine
 62
7
  6
CONTINUOUS
 10
-7.4372915245
 20
-9.4127084755
 11
-7.4372915245
 21
-8.5872915245
  0
LINE
  5
31E
100
AcDbEntity
  8
RACCORDO
100
AcDbLine
 62
7
  6
CONTINUOUS
 10
-7.4372915245
 20
-1.7127084755
 11
-7.4372915245
 21
-0.8872915245
  0
LINE
  5
31F
100
AcDbEntity
  8
RACCORDO
100
AcDbLine
 62
7
  6
CONTINUOUS
 10
-7.4372915245
 20
4.9872801014
 11
-7.4372915245
 21
6.6872915245
  0
LINE
  5
320
100
AcDbEntity
  8
RACCORDO
100
AcDbLine
 62
7
  6
CONTINUOUS
 10
-7.4101132618
 20
9.0101323002
 11
-7.4101132618
 21
7.3118510196
  0
LINE
  5
321
100
AcDbEntity
  8
RACCORDO
100
AcDbLine
 62
7
  6
CONTINUOUS
 10
-7.4101132618
 20
-13.5118510196
 11
-7.4101132618
 21
-14.6101323002
  0
LINE
  5
322
100
AcDbEntity
  8
RACCORDO
100
AcDbLine
 62
7
  6
CONTINUOUS
 10
-7.3674537356
 20
-10.5043838508
 11
-7.3674537356
 21
-9.4825462644
  0
LINE
  5
323
100
AcDbEntity
  8
RACCORDO
100
AcDbLine
 62
7
  6
CONTINUOUS
 10
-7.35
 20
6.6
 11
-7.35
 21
4.8999885769
  0
LINE
  5
324
100
AcDbEntity
  8
DRAFT
100
AcDbLine
 62
7
  6
CONTINUOUS
 10
-7.35
 20
-0.8
 11
-7.35
 21
-1.8
  0
LINE
  5
325
100
AcDbEntity
  8
DRAFT
100
AcDbLine
 62
7
  6
CONTINUOUS
 10
-7.35
 20
-8.5
 11
-7.35
 21
-9.9
  0
LINE
  5
326
100
AcDbEntity
  8
RACCORDO
100
AcDbLine
 62
250
  6
CONTINUOUS
 10
-7.2293696815
 20
-20.1171572875
 11
-7.2293778235
 21
-18.9775145438
  0
LINE
  5
327
100
AcDbEntity
  8
RACCORDO
100
AcDbLine
 62
250
  6
CONTINUOUS
 10
-7.0294001425
 20
-20.2585786438
 11
-7.0298246198
 21
-18.8031472409
  0
LINE
  5
328
100
AcDbEntity
  8
RACCORDO
100
AcDbLine
 62
250
  6
CONTINUOUS
 10
-6.8598392317
 20
20.2585786438
 11
-6.8592547018
 21
18.6853912478
  0
LINE
  5
329
100
AcDbEntity
  8
0
100
AcDbLine
 62
7
  6
CONTINUOUS
 10
-6.85
 20
-9.6000114231
 11
-6.85
 21
5.9000114231
  0
LINE
  5
32A
100
AcDbEntity
  8
RACCORDO
100
AcDbLine
 62
250
  6
CONTINUOUS
 10
-6.7139945176
 20
-15.1101132618
 11
-6.7139945176
 21
-14.6859445605
  0
LINE
  5
32B
100
AcDbEntity
  8
RACCORDO
100
AcDbLine
 62
250
  6
CONTINUOUS
 10
-6.7139945176
 20
8.7859445605
 11
-6.7139945176
 21
9.5101132618
  0
LINE
  5
32C
100
AcDbEntity
  8
RACCORDO
100
AcDbLine
 62
250
  6
CONTINUOUS
 10
-7.2293696815
 20
20.1171572875
 11
-7.2295241191
 21
18.9276857314
  0
LINE
  5
32D
100
AcDbEntity
  8
RACCORDO
100
AcDbLine
 62
250
  6
CONTINUOUS
 10
-6.8598392317
 20
-20.2585786438
 11
-6.8592321097
 21
-18.680119168
  0
LINE
  5
32E
100
AcDbEntity
  8
RACCORDO
100
AcDbLine
 62
250
  6
CONTINUOUS
 10
-7.0294001425
 20
20.2585786438
 11
-7.0298548336
 21
18.7965852095
  0
LINE
  5
32F
100
AcDbEntity
  8
RACCORDO
100
AcDbLine
 62
250
  6
CONTINUOUS
 10
-6.8592321097
 20
-18.680119168
 11
-6.858694955
 21
-18.5868922558
  0
LINE
  5
330
100
AcDbEntity
  8
RACCORDO
100
AcDbLine
 62
250
  6
CONTINUOUS
 10
-7.2295241191
 20
18.9276857314
 11
-7.2300346566
 21
18.8537040704
  0
LINE
  5
331
100
AcDbEntity
  8
RACCORDO
100
AcDbLine
 62
250
  6
CONTINUOUS
 10
-6.8598392317
 20
20.2585786438
 11
-6.8556039598
 21
20.7438927334
  0
LINE
  5
332
100
AcDbEntity
  8
RACCORDO
100
AcDbLine
 62
250
  6
CONTINUOUS
 10
-6.6558702077
 20
20.5728350282
 11
-6.6598468471
 21
20.1171572875
  0
LINE
  5
333
100
AcDbEntity
  8
RACCORDO
100
AcDbLine
 62
250
  6
CONTINUOUS
 10
-7.0298548336
 20
18.7965852095
 11
-7.0309370361
 21
18.6461659176
  0
LINE
  5
334
100
AcDbEntity
  8
RACCORDO
100
AcDbLine
 62
250
  6
CONTINUOUS
 10
-7.2300346566
 20
18.8537040704
 11
-7.2305820071
 21
18.8081854913
  0
LINE
  5
335
100
AcDbEntity
  8
RACCORDO
100
AcDbLine
 62
250
  6
CONTINUOUS
 10
-7.0309370361
 20
18.6461659176
 11
-7.0316859465
 21
18.5870834675
  0
LINE
  5
336
100
AcDbEntity
  8
RACCORDO
100
AcDbLine
 62
250
  6
CONTINUOUS
 10
-7.2419286989
 20
-20.8366629075
 11
-7.2293696815
 21
-20.1171572875
  0
LWPOLYLINE
  5
337
100
AcDbEntity
  8
RACCORDO
100
AcDbPolyline
 62
250
  6
CONTINUOUS
 90
10
 70
0
 10
-7.2305820071
 20
18.8081854913
 10
-7.2312659314
 20
18.7690824558
 10
-7.2316560751
 20
18.7522973642
 10
-7.2320612452
 20
18.73782095
 10
-7.2324822779
 20
18.7258402582
 10
-7.2329183369
 20
18.7161682438
 10
-7.2333506372
 20
18.708753365
 10
-7.2337729172
 20
18.7035784411
 10
-7.2341914384
 20
18.7006606528
 10
-7.234606201
 20
18.7
  0
LWPOLYLINE
  5
338
100
AcDbEntity
  8
RACCORDO
100
AcDbPolyline
 62
250
  6
CONTINUOUS
 90
7
 70
0
 10
-7.0316859465
 20
18.5870834675
 10
-7.0325118959
 20
18.5429494166
 10
-7.0329477296
 20
18.5267597088
 10
-7.0333799803
 20
18.514609783
 10
-7.0338024571
 20
18.5063070275
 10
-7.034221351
 20
18.5015289254
 10
-7.034636662
 20
18.5
  0
LINE
  5
339
100
AcDbEntity
  8
RACCORDO
100
AcDbLine
 62
7
  6
CONTINUOUS
 10
-7.3652902967
 20
-10.2089415249
 11
-7.35
 21
-9.9
  0
LWPOLYLINE
  5
33A
100
AcDbEntity
  8
RACCORDO
100
AcDbPolyline
 62
7
  6
CONTINUOUS
 90
16
 70
0
 10
-7.5001477533
 20
9.1001667918
 10
-7.4974224372
 20
9.152212196
 10
-7.4892678677
 20
9.2038102614
 10
-7.4757356198
 20
9.2543916914
 10
-7.4568970634
 20
9.3034821851
 10
-7.4329455248
 20
9.35042829
 10
-7.4042882036
 20
9.3944511555
 10
-7.3714240221
 20
9.4349437147
 10
-7.3346510068
 20
9.4716761142
 10
-7.2941514538
 20
9.5044748448
 10
-7.2501832706
 20
9.5330395935
 10
-7.2033392262
 20
9.5569001772
 10
-7.1543295652
 20
9.5756856248
 10
-7.1037764834
 20
9.5891983754
 10
-7.0521724765
 20
9.5973460943
 10
-7.0000849512
 20
9.6000659127
  0
LWPOLYLINE
  5
33B
100
AcDbEntity
  8
RACCORDO
100
AcDbPolyline
 62
7
  6
CONTINUOUS
 90
13
 70
0
 10
-6.5153193024
 20
15.4838500694
 10
-6.5170644077
 20
15.4562067425
 10
-6.5222712161
 20
15.4291926459
 10
-6.5308204697
 20
15.4032390196
 10
-6.5425299038
 20
15.3787379785
 10
-6.5571756464
 20
15.3560852013
 10
-6.5745094037
 20
15.3356819
 10
-6.5942518661
 20
15.3178312955
 10
-6.6160329962
 20
15.3028242083
 10
-6.6394067097
 20
15.2909642083
 10
-6.6639355174
 20
15.2824237631
 10
-6.6892156267
 20
15.2772688539
 10
-6.7148190698
 20
15.2755396155
  0
LINE
  5
33C
100
AcDbEntity
  8
RACCORDO
100
AcDbLine
 62
250
  6
CONTINUOUS
 10
-7.319462557
 20
15.2755396155
 11
-7.1094109243
 21
18.5
  0
LWPOLYLINE
  5
33D
100
AcDbEntity
  8
RACCORDO
100
AcDbPolyline
 62
250
  6
CONTINUOUS
 90
9
 70
0
 10
-6.6572287868
 20
18.7
 10
-6.6589397493
 20
18.6738947616
 10
-6.664043362
 20
18.648236191
 10
-6.6724523006
 20
18.6234633135
 10
-6.6840226857
 20
18.6
 10
-6.698556545
 20
18.5782477142
 10
-6.7158052
 20
18.5585786438
 10
-6.7354735215
 20
18.5413293319
 10
-6.7481955371
 20
18.5323321563
  0
LWPOLYLINE
  5
33E
100
AcDbEntity
  8
RACCORDO
100
AcDbPolyline
 62
7
  6
CONTINUOUS
 90
10
 70
0
 10
-6.6200664561
 20
18.7
 10
-6.6217837243
 20
18.6740798342
 10
-6.6268536167
 20
18.6485625367
 10
-6.6352044001
 20
18.6238823695
 10
-6.6467097823
 20
18.60045995
 10
-6.6611858003
 20
18.5787024009
 10
-6.678390465
 20
18.5589942732
 10
-6.6980324725
 20
18.5416836961
 10
-6.7197873722
 20
18.5270694334
 10
-6.7432991968
 20
18.5154061091
  0
LWPOLYLINE
  5
33F
100
AcDbEntity
  8
RACCORDO
100
AcDbPolyline
 62
250
  6
CONTINUOUS
 90
3
 70
0
 10
-7.4398981132
 20
4.947842643
 10
-7.4388857693
 20
4.9564164305
 10
-7.4372915245
 20
4.9872801014
  0
LWPOLYLINE
  5
340
100
AcDbEntity
  8
0
100
AcDbPolyline
 62
7
  6
CONTINUOUS
 90
10
 70
0
 10
8.039657996
 20
19.0582032229
 10
8.02087248
 20
19.0400627935
 10
8.0040970755
 20
19.0207528448
 10
7.9893317826
 20
19.0002733714
 10
7.9764520049
 20
18.9785121374
 10
7.9655823389
 20
18.9555813672
 10
7.9570965733
 20
18.9318177471
 10
7.9511193046
 20
18.9073335037
 10
7.9475259364
 20
18.8820164018
 10
7.9463164687
 20
18.8558664367
  0
LWPOLYLINE
  5
341
100
AcDbEntity
  8
0
100
AcDbPolyline
 62
7
  6
CONTINUOUS
 90
10
 70
0
 10
8.6564120935
 20
18.4905866574
 10
8.6244577104
 20
18.4628732566
 10
8.5903413528
 20
18.4385201466
 10
8.5540630204
 20
18.4175273459
 10
8.5152764357
 20
18.3999124005
 10
8.4743278763
 20
18.3856577934
 10
8.4322561755
 20
18.3747109439
 10
8.389407611
 20
18.3670543298
 10
8.3454359051
 20
18.3627054871
 10
8.3003410578
 20
18.3616644189
  0
LWPOLYLINE
  5
342
100
AcDbEntity
  8
0
100
AcDbPolyline
 62
7
  6
CONTINUOUS
 90
37
 70
0
 10
4.666435305
 20
14.357411108
 10
4.6356745532
 20
14.3332687653
 10
4.6094560368
 20
14.3076381718
 10
4.5877797559
 20
14.280519321
 10
4.5708176896
 20
14.2514162677
 10
4.5583978588
 20
14.2208249412
 10
4.5500043259
 20
14.1902331538
 10
4.545607169
 20
14.159889682
 10
4.5452363099
 20
14.1295457505
 10
4.5484655764
 20
14.099942855
 10
4.5552209911
 20
14.0709660111
 10
4.5655765314
 20
14.0427302104
 10
4.5793279578
 20
14.0163219226
 10
4.5969959668
 20
13.9918369438
 10
4.6180598618
 20
13.969179494
 10
4.6407533136
 20
13.9491486859
 10
4.664964609
 20
13.9321920369
 10
4.6908054611
 20
13.917862047
 10
4.716844681
 20
13.9056153031
 10
4.7427254531
 20
13.8956004444
 10
4.768804593
 20
13.8876688397
 10
4.7947213577
 20
13.8808311668
 10
4.8204139321
 20
13.874926464
 10
4.8459441313
 20
13.8701156951
 10
4.8711366586
 20
13.8658924245
 10
4.8959032146
 20
13.8621426561
 10
4.9203320987
 20
13.8589803867
 10
4.9445129122
 20
13.8562411692
 10
4.9684197791
 20
13.8539060709
 10
4.9920785755
 20
13.8519940248
 10
5.0156565303
 20
13.8503973822
 10
5.0391830775
 20
13.8491060634
 10
5.0626287832
 20
13.8481301481
 10
5.0860725748
 20
13.8473922263
 10
5.1095407613
 20
13.8468664945
 10
5.1330070337
 20
13.8465787562
 10
5.1798169843
 20
13.8465658242
  0
LWPOLYLINE
  5
343
100
AcDbEntity
  8
0
100
AcDbPolyline
 62
7
  6
CONTINUOUS
 90
16
 70
0
 10
5.6465074628
 20
13.932569744
 10
5.676605883
 20
13.9558635671
 10
5.7024397314
 20
13.9808843285
 10
5.7240090078
 20
14.0076320208
 10
5.7413652056
 20
14.0364746779
 10
5.7544568315
 20
14.0670442484
 10
5.7631294058
 20
14.0982366017
 10
5.7673107804
 20
14.13014605
 10
5.7670731034
 20
14.1626782738
 10
5.7624783398
 20
14.1944462086
 10
5.7534557623
 20
14.2253237877
 10
5.7400760981
 20
14.2554370861
 10
5.7226134947
 20
14.2837772647
 10
5.7011593344
 20
14.3100080513
 10
5.6756222349
 20
14.3344657357
 10
5.646002196
 20
14.3571503252
  0
LWPOLYLINE
  5
344
100
AcDbEntity
  8
0
100
AcDbPolyline
 62
7
  6
CONTINUOUS
 90
10
 70
0
 10
8.0682457235
 20
14.4016688469
 10
8.0446460594
 20
14.3841242522
 10
8.0233863867
 20
14.3650286618
 10
8.0044667056
 20
14.3443820704
 10
7.9876563482
 20
14.3222174942
 10
7.9731859822
 20
14.2985019058
 10
7.961747611
 20
14.2731362335
 10
7.9535719022
 20
14.2460874483
 10
7.9484281881
 20
14.2173885643
 10
7.9463164687
 20
14.1870395735
  0
LWPOLYLINE
  5
345
100
AcDbEntity
  8
0
100
AcDbPolyline
 62
7
  6
CONTINUOUS
 90
7
 70
0
 10
7.9833850173
 20
14.5509343323
 10
8.016067446
 20
14.5704768696
 10
8.0505317244
 20
14.5884338662
 10
8.0867778527
 20
14.6048053271
 10
8.1248058309
 20
14.6195912567
 10
8.1646156588
 20
14.6327916594
 10
8.2062073366
 20
14.6444065387
  0
LINE
  5
346
100
AcDbEntity
  8
DRAFT
100
AcDbLine
 62
7
  6
CONTINUOUS
 10
-9.6587268678
 20
-1.7223308767
 11
-9.5810577445
 21
-1.8
  0
LWPOLYLINE
  5
347
100
AcDbEntity
  8
RACCORDO
100
AcDbPolyline
 62
7
  6
CONTINUOUS
 90
12
 70
0
 10
-7.3089365232
 20
18.7
 10
-7.3071842988
 20
18.6739981974
 10
-7.3020705504
 20
18.6484605873
 10
-7.2936811322
 20
18.6238056948
 10
-7.2821620547
 20
18.6004322166
 10
-7.2677050687
 20
18.5787289921
 10
-7.250536297
 20
18.5590736936
 10
-7.2309257685
 20
18.5417887896
 10
-7.209212759
 20
18.5271768639
 10
-7.1857903053
 20
18.5155248943
 10
-7.1610692283
 20
18.5070349419
 10
-7.1354636732
 20
18.5018319132
  0
LWPOLYLINE
  5
348
100
AcDbEntity
  8
RACCORDO
100
AcDbPolyline
 62
250
  6
CONTINUOUS
 90
16
 70
0
 10
-6.7139945176
 20
8.7859445605
 10
-6.7114836063
 20
8.7429423905
 10
-6.7048548871
 20
8.7014268298
 10
-6.6941083598
 20
8.6613978784
 10
-6.6790133077
 20
8.6224808899
 10
-6.6598004475
 20
8.5850505108
 10
-6.63716193
 20
8.5502306799
 10
-6.611047444
 20
8.5181205214
 10
-6.5815073006
 20
8.4886209112
 10
-6.5493845834
 20
8.4625584156
 10
-6.5145916152
 20
8.4399867233
 10
-6.4772160733
 20
8.4208521455
 10
-6.4383640731
 20
8.4058201826
 10
-6.3984043201
 20
8.3951126678
 10
-6.3569681089
 20
8.3885077677
 10
-6.3140554395
 20
8.3860054824
  0
LINE
  5
349
100
AcDbEntity
  8
RACCORDO
100
AcDbLine
 62
250
  6
CONTINUOUS
 10
-6.8198368876
 20
18.5
 11
-6.7148190698
 21
15.2755396155
  0
LINE
  5
34A
100
AcDbEntity
  8
RACCORDO
100
AcDbLine
 62
250
  6
CONTINUOUS
 10
-6.6200664561
 20
18.7
 11
-6.5153193024
 21
15.4838500694
  0
LWPOLYLINE
  5
34B
100
AcDbEntity
  8
RACCORDO
100
AcDbPolyline
 62
250
  6
CONTINUOUS
 90
4
 70
0
 10
-6.8578578063
 20
18.5150140994
 10
-6.8576438685
 20
18.5064813307
 10
-6.8574316569
 20
18.5015710626
 10
-6.8572211714
 20
18.5
  0
LINE
  5
34C
100
AcDbEntity
  8
RACCORDO
100
AcDbLine
 62
250
  6
CONTINUOUS
 10
-5.4256357545
 20
9.5256357545
 11
-5.4994816014
 21
12.6055139921
  0
LINE
  5
34D
100
AcDbEntity
  8
RACCORDO
100
AcDbLine
 62
250
  6
CONTINUOUS
 10
-5.2210122031
 20
9.5204228659
 11
-5.3000241398
 21
12.8157624759
  0
LWPOLYLINE
  5
34E
100
AcDbEntity
  8
RACCORDO
100
AcDbPolyline
 62
250
  6
CONTINUOUS
 90
6
 70
0
 10
-6.6583046098
 20
18.7265437307
 10
-6.6580841085
 20
18.716615698
 10
-6.657865331
 20
18.7090041918
 10
-6.6576514257
 20
18.703686268
 10
-6.6574392443
 20
18.7006848708
 10
-6.6572287868
 20
18.7
  0
LINE
  5
34F
100
AcDbEntity
  8
RACCORDO
100
AcDbLine
 62
250
  6
CONTINUOUS
 10
-7.0425072881
 20
21.0094865114
 11
-7.0294001425
 21
20.2585786438
  0
LINE
  5
350
100
AcDbEntity
  8
RACCORDO
100
AcDbLine
 62
250
  6
CONTINUOUS
 10
-6.6587222959
 20
18.7537847546
 11
-6.6583046098
 21
18.7265437307
  0
LWPOLYLINE
  5
351
100
AcDbEntity
  8
RACCORDO
100
AcDbPolyline
 62
250
  6
CONTINUOUS
 90
3
 70
0
 10
-6.8585099766
 20
18.5647948197
 10
-6.8582971659
 20
18.5441249132
 10
-6.8578578063
 20
18.5150140994
  0
LINE
  5
352
100
AcDbEntity
  8
RACCORDO
100
AcDbLine
 62
250
  6
CONTINUOUS
 10
-6.6592621331
 20
18.8111757577
 11
-6.6587222959
 21
18.7537847546
  0
LINE
  5
353
100
AcDbEntity
  8
RACCORDO
100
AcDbLine
 62
250
  6
CONTINUOUS
 10
-6.6597765552
 20
18.9309505556
 11
-6.6592621331
 21
18.8111757577
  0
LINE
  5
354
100
AcDbEntity
  8
RACCORDO
100
AcDbLine
 62
250
  6
CONTINUOUS
 10
-6.6598468471
 20
19.0
 11
-6.6597765552
 21
18.9309505556
  0
LINE
  5
355
100
AcDbEntity
  8
RACCORDO
100
AcDbLine
 62
7
  6
CONTINUOUS
 10
-6.6598468471
 20
20.1171572875
 11
-6.6598468471
 21
19.0
  0
LINE
  5
356
100
AcDbEntity
  8
RACCORDO
100
AcDbLine
 62
7
  6
CONTINUOUS
 10
-6.6598468471
 20
-20.1171572875
 11
-6.6598468471
 21
-19.0
  0
LINE
  5
357
100
AcDbEntity
  8
RACCORDO
100
AcDbLine
 62
250
  6
CONTINUOUS
 10
-6.5140249785
 20
-15.1118281743
 11
-6.5140249785
 21
-14.6859445605
  0
LINE
  5
358
100
AcDbEntity
  8
RACCORDO
100
AcDbLine
 62
250
  6
CONTINUOUS
 10
-6.5140249785
 20
8.7859445605
 11
-6.5140249785
 21
9.5118281743
  0
LINE
  5
359
100
AcDbEntity
  8
RACCORDO
100
AcDbLine
 62
7
  6
CONTINUOUS
 10
-6.5
 20
9.5188401295
 11
-6.5
 21
8.799969539
  0
LINE
  5
35A
100
AcDbEntity
  8
RACCORDO
100
AcDbLine
 62
7
  6
CONTINUOUS
 10
-6.5
 20
-10.2089415249
 11
-6.5
 21
-12.5
  0
LINE
  5
35B
100
AcDbEntity
  8
DRAFT
100
AcDbLine
 62
7
  6
CONTINUOUS
 10
-6.5
 20
-12.8898867382
 11
-6.5
 21
-13.6
  0
LINE
  5
35C
100
AcDbEntity
  8
RACCORDO
100
AcDbLine
 62
7
  6
CONTINUOUS
 10
-6.5
 20
-14.699969539
 11
-6.5
 21
-15.1188401295
  0
LINE
  5
35D
100
AcDbEntity
  8
DRAFT
100
AcDbLine
 62
7
  6
CONTINUOUS
 10
-6.5
 20
-12.8836351166
 11
-6.5
 21
-12.5
  0
LINE
  5
35E
100
AcDbEntity
  8
0
100
AcDbLine
 62
7
  6
CONTINUOUS
 10
-6.5
 20
-10.2089415249
 11
-6.5
 21
-9.9
  0
LINE
  5
35F
100
AcDbEntity
  8
DRAFT
100
AcDbLine
 62
7
  6
CONTINUOUS
 10
-6.5
 20
6.6
 11
-6.5
 21
6.675051063
  0
LINE
  5
360
100
AcDbEntity
  8
DRAFT
100
AcDbLine
 62
7
  6
CONTINUOUS
 10
-6.5
 20
6.6898867382
 11
-6.5
 21
7.3
  0
LINE
  5
361
100
AcDbEntity
  8
RACCORDO
100
AcDbLine
 62
250
  6
CONTINUOUS
 10
-6.3140554397
 20
-14.2860054824
 11
-6.3140554396
 21
-14.4859750215
  0
LINE
  5
362
100
AcDbEntity
  8
RACCORDO
100
AcDbLine
 62
250
  6
CONTINUOUS
 10
-6.3140554395
 20
8.3860054824
 11
-6.3140554396
 21
8.5859750215
  0
LINE
  5
363
100
AcDbEntity
  8
RACCORDO
100
AcDbLine
 62
250
  6
CONTINUOUS
 10
-6.6598468471
 20
-19.0
 11
-6.6595136005
 21
-18.8535433431
  0
LINE
  5
364
100
AcDbEntity
  8
RACCORDO
100
AcDbLine
 62
250
  6
CONTINUOUS
 10
-6.6595136005
 20
-18.8535433431
 11
-6.6588973716
 21
-18.7689459352
  0
LINE
  5
365
100
AcDbEntity
  8
RACCORDO
100
AcDbLine
 62
250
  6
CONTINUOUS
 10
-6.858694955
 20
-18.5868922558
 11
-6.8582822013
 21
-18.5428412415
  0
LWPOLYLINE
  5
366
100
AcDbEntity
  8
RACCORDO
100
AcDbPolyline
 62
250
  6
CONTINUOUS
 90
8
 70
0
 10
-6.6588973716
 20
-18.7689459352
 10
-6.6584997794
 20
-18.7377324992
 10
-6.6582894158
 20
-18.7257751843
 10
-6.6580716079
 20
-18.716126526
 10
-6.657855706
 20
-18.7087303008
 10
-6.6576448269
 20
-18.7035677674
 10
-6.6574358538
 20
-18.7006576672
 10
-6.6572287868
 20
-18.7
  0
LINE
  5
367
100
AcDbEntity
  8
RACCORDO
100
AcDbLine
 62
250
  6
CONTINUOUS
 10
-7.0425072881
 20
-21.0094865114
 11
-7.0294001425
 21
-20.2585786438
  0
LWPOLYLINE
  5
368
100
AcDbEntity
  8
RACCORDO
100
AcDbPolyline
 62
250
  6
CONTINUOUS
 90
5
 70
0
 10
-6.8582822013
 20
-18.5428412415
 10
-6.8578486339
 20
-18.5145705883
 10
-6.8576376605
 20
-18.5062894614
 10
-6.8574285063
 20
-18.5015245103
 10
-6.8572211714
 20
-18.5
  0
LINE
  5
369
100
AcDbEntity
  8
RACCORDO
100
AcDbLine
 62
250
  6
CONTINUOUS
 10
-4.6999758602
 20
12.8157624759
 11
-4.7789877969
 21
9.5204228659
  0
LINE
  5
36A
100
AcDbEntity
  8
RACCORDO
100
AcDbLine
 62
250
  6
CONTINUOUS
 10
-6.7148190698
 20
-15.2755396155
 11
-6.8198368876
 21
-18.5
  0
LINE
  5
36B
100
AcDbEntity
  8
RACCORDO
100
AcDbLine
 62
250
  6
CONTINUOUS
 10
-6.5153193024
 20
-15.4838500694
 11
-6.6200664561
 21
-18.7
  0
LWPOLYLINE
  5
36C
100
AcDbEntity
  8
RACCORDO
100
AcDbPolyline
 62
7
  6
CONTINUOUS
 90
13
 70
0
 10
-7.5184775044
 20
-15.483378525
 10
-7.5167459172
 20
-15.4557762905
 10
-7.5115595483
 20
-15.428810679
 10
-7.5030389782
 20
-15.4029109818
 10
-7.4913687433
 20
-15.3784690175
 10
-7.4767719555
 20
-15.3558765063
 10
-7.4594919121
 20
-15.3355278816
 10
-7.439805836
 20
-15.3177252699
 10
-7.4180826207
 20
-15.302759043
 10
-7.3947628174
 20
-15.2909290282
 10
-7.3702803713
 20
-15.2824077141
 10
-7.3450382138
 20
-15.2772639035
 10
-7.319462557
 20
-15.2755396155
  0
LWPOLYLINE
  5
36D
100
AcDbEntity
  8
RACCORDO
100
AcDbPolyline
 62
7
  6
CONTINUOUS
 90
13
 70
0
 10
-5.4994816014
 20
12.6055139921
 10
-5.4977101444
 20
12.6335600218
 10
-5.4924578564
 20
12.6609091392
 10
-5.483854214
 20
12.6871399703
 10
-5.472093435
 20
12.7118811896
 10
-5.4574076415
 20
12.7347414304
 10
-5.4400453256
 20
12.755304661
 10
-5.4202833981
 20
12.7732792014
 10
-5.3984997267
 20
12.7883850794
 10
-5.3751535225
 20
12.8003033263
 10
-5.3506882326
 20
12.8088663423
 10
-5.3255034932
 20
12.8140293097
 10
-5.3000241398
 20
12.8157624759
  0
LWPOLYLINE
  5
36E
100
AcDbEntity
  8
RACCORDO
100
AcDbPolyline
 62
250
  6
CONTINUOUS
 90
9
 70
0
 10
-7.234606201
 20
-18.7
 10
-7.2328954339
 20
-18.6738947616
 10
-7.2277924042
 20
-18.648236191
 10
-7.2193844262
 20
-18.6234633135
 10
-7.2078153628
 20
-18.6
 10
-7.1932831637
 20
-18.5782477142
 10
-7.1760364791
 20
-18.5585786438
 10
-7.1563704043
 20
-18.5413293319
 10
-7.1443368656
 20
-18.5327809856
  0
LWPOLYLINE
  5
36F
100
AcDbEntity
  8
RACCORDO
100
AcDbPolyline
 62
250
  6
CONTINUOUS
 90
13
 70
0
 10
-6.5140249785
 20
-14.6859445605
 10
-6.5123085868
 20
-14.6597310226
 10
-6.5071792585
 20
-14.6339980607
 10
-6.4987358775
 20
-14.6091860576
 10
-6.487135001
 20
-14.5857195711
 10
-6.4725842165
 20
-14.5639932552
 10
-6.4553353494
 20
-14.5443671546
 10
-6.4356964276
 20
-14.5271775866
 10
-6.4140007407
 20
-14.5127034127
 10
-6.3905860068
 20
-14.5011696274
 10
-6.3658352387
 20
-14.4927760351
 10
-6.3401794069
 20
-14.4876796173
 10
-6.3140554395
 20
-14.4859750215
  0
LWPOLYLINE
  5
370
100
AcDbEntity
  8
RACCORDO
100
AcDbPolyline
 62
7
  6
CONTINUOUS
 90
12
 70
0
 10
-7.3089365232
 20
-18.7
 10
-7.3071946849
 20
-18.6741235681
 10
-7.3021106415
 20
-18.6486379494
 10
-7.293751803
 20
-18.6239765047
 10
-7.2822380187
 20
-18.6005570772
 10
-7.2677505446
 20
-18.5787914426
 10
-7.2505363116
 20
-18.5590737083
 10
-7.2308931205
 20
-18.5417572449
 10
-7.2091397129
 20
-18.5271341059
 10
-7.1856187697
 20
-18.5154532061
 10
-7.1607168843
 20
-18.5069324742
 10
-7.1348648826
 20
-18.5017443099
  0
LINE
  5
371
100
AcDbEntity
  8
DRAFT
100
AcDbLine
 62
7
  6
CONTINUOUS
 10
-9.65
 20
-20.9
 11
-9.5838661374
 21
-20.5028438891
  0
LWPOLYLINE
  5
372
100
AcDbEntity
  8
0
100
AcDbPolyline
 62
7
  6
CONTINUOUS
 90
7
 70
0
 10
8.0123151858
 20
17.8475131918
 10
7.9912642565
 20
17.8218983735
 10
7.9741655729
 20
17.7947625849
 10
7.961019135
 20
17.7661058173
 10
7.9518249428
 20
17.7359280613
 10
7.9465829962
 20
17.7042293073
 10
7.9452932954
 20
17.671009545
  0
LWPOLYLINE
  5
373
100
AcDbEntity
  8
0
100
AcDbPolyline
 62
7
  6
CONTINUOUS
 90
10
 70
0
 10
8.6523192555
 20
17.9012278363
 10
8.6345600945
 20
17.8817678476
 10
8.6189454298
 20
17.861180836
 10
8.6054752613
 20
17.8394667966
 10
8.5941587751
 20
17.8164429284
 10
8.5849867851
 20
17.792292021
 10
8.5779317335
 20
17.7675624578
 10
8.5729844343
 20
17.7424370327
 10
8.5701540734
 20
17.7167329465
 10
8.5694406509
 20
17.690450196
  0
LWPOLYLINE
  5
374
100
AcDbEntity
  8
0
100
AcDbPolyline
 62
7
  6
CONTINUOUS
 90
10
 70
0
 10
8.5397680879
 20
18.636903052
 10
8.5584553953
 20
18.6564557108
 10
8.5749696414
 20
18.6771840827
 10
8.5893108263
 20
18.6990881622
 10
8.6015136842
 20
18.7223328315
 10
8.6115434809
 20
18.7467531957
 10
8.6192960133
 20
18.7718545858
 10
8.624736547
 20
18.7974721108
 10
8.6278998166
 20
18.8237706544
 10
8.6287858218
 20
18.8507502124
  0
LWPOLYLINE
  5
375
100
AcDbEntity
  8
0
100
AcDbPolyline
 62
7
  6
CONTINUOUS
 90
10
 70
0
 10
9.2286299686
 20
18.5231041718
 10
9.2047982486
 20
18.4985064808
 10
9.1790754964
 20
18.4763387244
 10
9.1514617119
 20
18.4566009148
 10
9.1216950266
 20
18.4392898402
 10
9.0900373091
 20
18.4244087326
 10
9.0572741652
 20
18.4119672676
 10
9.0236674634
 20
18.4019686744
 10
8.9889553353
 20
18.394409736
 10
8.9531377807
 20
18.3892904565
  0
LWPOLYLINE
  5
376
100
AcDbEntity
  8
0
100
AcDbPolyline
 62
7
  6
CONTINUOUS
 90
10
 70
0
 10
9.209218029
 20
17.3453795834
 10
9.1819704808
 20
17.317541474
 10
9.1528488455
 20
17.2925225689
 10
9.121853123
 20
17.270322883
 10
9.0887054768
 20
17.2509075271
 10
9.0536837435
 20
17.2343114149
 10
9.0176214326
 20
17.2206392631
 10
8.9807963808
 20
17.2099259823
 10
8.9429307513
 20
17.2021366769
 10
8.9040245444
 20
17.1972713515
  0
LINE
  5
377
100
AcDbEntity
  8
DRAFT
100
AcDbLine
 62
7
  6
CONTINUOUS
 10
-9.6587268678
 20
-0.8776691233
 11
-9.5810577445
 21
-0.8
  0
LWPOLYLINE
  5
378
100
AcDbEntity
  8
0
100
AcDbPolyline
 62
7
  6
CONTINUOUS
 90
10
 70
0
 10
8.039657996
 20
15.5619550372
 10
8.0208734958
 20
15.5438159303
 10
8.0040987659
 20
15.524506983
 10
7.9893338061
 20
15.5040281909
 10
7.9764539038
 20
15.4822673416
 10
7.9655837717
 20
15.4593366381
 10
7.9570975483
 20
15.4355727004
 10
7.9511199464
 20
15.4110877335
 10
7.9475262532
 20
15.3857695254
 10
7.9463164687
 20
15.3596180722
  0
LWPOLYLINE
  5
379
100
AcDbEntity
  8
0
100
AcDbPolyline
 62
7
  6
CONTINUOUS
 90
10
 70
0
 10
8.6564120042
 20
14.9943382971
 10
8.6244582098
 20
14.9666252896
 10
8.5903423866
 20
14.942272458
 10
8.5540645347
 20
14.921279817
 10
8.5152784971
 20
14.9036648793
 10
8.4743304308
 20
14.8894101558
 10
8.4322588066
 20
14.8784631559
 10
8.3894097815
 20
14.8708063865
 10
8.3454371986
 20
14.8664573518
 10
8.3003410578
 20
14.8654160544
  0
LWPOLYLINE
  5
37A
100
AcDbEntity
  8
0
100
AcDbPolyline
 62
7
  6
CONTINUOUS
 90
10
 70
0
 10
9.0523874386
 20
13.9752387525
 10
9.0759815271
 20
13.9926042318
 10
9.0972599992
 20
14.0116325765
 10
9.116222855
 20
14.0323237813
 10
9.133137676
 20
14.0547632016
 10
9.1477368807
 20
14.0788654695
 10
9.1592177244
 20
14.1043744944
 10
9.1673126254
 20
14.131204909
 10
9.1722891654
 20
14.1594420681
 10
9.1741473444
 20
14.1890859649
  0
LWPOLYLINE
  5
37B
100
AcDbEntity
  8
0
100
AcDbPolyline
 62
7
  6
CONTINUOUS
 90
25
 70
0
 10
9.1703516419
 20
13.8479855431
 10
9.1494484404
 20
13.8326321836
 10
9.1279143814
 20
13.8183478745
 10
9.1057494648
 20
13.8051326185
 10
9.0828489478
 20
13.7930345605
 10
9.0593175732
 20
13.7820055602
 10
9.0354695701
 20
13.7719011914
 10
9.011350037
 20
13.7627323456
 10
8.9869138753
 20
13.7544881343
 10
8.9623400181
 20
13.7469914608
 10
8.937680505
 20
13.7402374857
 10
8.9128832964
 20
13.7342310502
 10
8.8879712058
 20
13.7288095779
 10
8.8630223219
 20
13.723962346
 10
8.837958556
 20
13.7197000783
 10
8.8125684553
 20
13.7158923692
 10
8.7868567693
 20
13.7125154319
 10
8.7608187486
 20
13.7095930536
 10
8.7342286918
 20
13.7070661895
 10
8.7071007088
 20
13.7049185919
 10
8.6794206898
 20
13.7031665087
 10
8.6509206038
 20
13.7017996379
 10
8.621511107
 20
13.7008145455
 10
8.5912815431
 20
13.7002146655
 10
8.5602319121
 20
13.6999999981
  0
LINE
  5
37C
100
AcDbEntity
  8
RACCORDO
100
AcDbLine
 62
7
  6
CONTINUOUS
 10
-7.4372915245
 20
-1.7127084755
 11
-7.35
 21
-1.8
  0
LINE
  5
37D
100
AcDbEntity
  8
RACCORDO
100
AcDbLine
 62
250
  6
CONTINUOUS
 10
6.9988692386
 20
-15.1988502001
 11
6.9101323002
 21
-15.1101132618
  0
LINE
  5
37E
100
AcDbEntity
  8
RACCORDO
100
AcDbLine
 62
250
  6
CONTINUOUS
 10
7.4989810696
 20
-14.699000108
 11
7.4101132618
 21
-14.6101323002
  0
LINE
  5
37F
100
AcDbEntity
  8
DRAFT
100
AcDbLine
 62
7
  6
CONTINUOUS
 10
-9.65
 20
20.9
 11
-9.5838661374
 21
20.5028438891
  0
LWPOLYLINE
  5
380
100
AcDbEntity
  8
RACCORDO
100
AcDbPolyline
 62
250
  6
CONTINUOUS
 90
13
 70
0
 10
-6.6598468471
 20
20.1171572875
 10
-6.66166905
 20
20.1353593577
 10
-6.6668092065
 20
20.1533149498
 10
-6.67521242
 20
20.1707191451
 10
-6.6867803067
 20
20.1872875146
 10
-6.7013382517
 20
20.2027109185
 10
-6.7186088814
 20
20.2166740213
 10
-6.7382822012
 20
20.2289285414
 10
-6.7600355757
 20
20.2392755665
 10
-6.7834819673
 20
20.2475324589
 10
-6.8082132153
 20
20.2535604456
 10
-6.8338112531
 20
20.2572623286
 10
-6.8598392317
 20
20.2585786438
  0
LINE
  5
381
100
AcDbEntity
  8
DRAFT
100
AcDbLine
 62
7
  6
CONTINUOUS
 10
-3.75
 20
21.2
 11
-3.75
 21
21.1647852141
  0
LINE
  5
382
100
AcDbEntity
  8
DRAFT
100
AcDbLine
 62
7
  6
CONTINUOUS
 10
-3.75
 20
-21.2
 11
-3.75
 21
-21.1647852141
  0
LINE
  5
383
100
AcDbEntity
  8
0
100
AcDbLine
 62
7
  6
CONTINUOUS
 10
-3.325042
 20
16.7519
 11
-3.325042
 21
17.121932
  0
LINE
  5
384
100
AcDbEntity
  8
0
100
AcDbLine
 62
7
  6
CONTINUOUS
 10
-3.325042
 20
17.962609
 11
-3.325042
 21
18.829056
  0
LINE
  5
385
100
AcDbEntity
  8
0
100
AcDbLine
 62
7
  6
CONTINUOUS
 10
-3.325037
 20
11.556827
 11
-3.325037
 21
11.926845
  0
LINE
  5
386
100
AcDbEntity
  8
0
100
AcDbLine
 62
7
  6
CONTINUOUS
 10
-3.325037
 20
12.744837
 11
-3.325037
 21
13.114855
  0
LINE
  5
387
100
AcDbEntity
  8
0
100
AcDbLine
 62
7
  6
CONTINUOUS
 10
-3.325037
 20
13.361529
 11
-3.325037
 21
13.731543
  0
LINE
  5
388
100
AcDbEntity
  8
0
100
AcDbLine
 62
7
  6
CONTINUOUS
 10
-3.325037
 20
14.101543
 11
-3.325037
 21
14.660905
  0
LINE
  5
389
100
AcDbEntity
  8
0
100
AcDbLine
 62
7
  6
CONTINUOUS
 10
-3.325037
 20
15.35187
 11
-3.325037
 21
15.911232
  0
LINE
  5
38A
100
AcDbEntity
  8
RACCORDO
100
AcDbLine
 62
250
  6
CONTINUOUS
 10
-4.5005183986
 20
12.6055139921
 11
-4.5743642455
 21
9.5256357545
  0
LWPOLYLINE
  5
38B
100
AcDbEntity
  8
0
100
AcDbPolyline
 62
7
  6
CONTINUOUS
 90
34
 70
0
 10
4.4290482617
 20
18.9812302943
 10
4.4468948491
 20
19.0178346604
 10
4.4681011293
 20
19.0518059827
 10
4.4913881109
 20
19.0826343184
 10
4.5168202017
 20
19.1102112716
 10
4.544332994
 20
19.1346452809
 10
4.5724542734
 20
19.1557516567
 10
4.6009745068
 20
19.1732971973
 10
4.6301032275
 20
19.187515135
 10
4.6589968205
 20
19.1989204272
 10
4.6876350178
 20
19.2074063296
 10
4.7160380875
 20
19.2130795997
 10
4.7434232197
 20
19.2167754427
 10
4.7695026068
 20
19.2186100165
 10
4.7945640565
 20
19.2184671656
 10
4.818688181
 20
19.2168336221
 10
4.8419315952
 20
19.2138225072
 10
4.8642376844
 20
19.2093206981
 10
4.8855172166
 20
19.2034755599
 10
4.9057829813
 20
19.1962476012
 10
4.925022189
 20
19.1876763093
 10
4.9431072388
 20
19.1780275165
 10
4.9599467811
 20
19.1673089227
 10
4.9756321655
 20
19.155512823
 10
4.9903098406
 20
19.1428819437
 10
5.0039642795
 20
19.1294359377
 10
5.0166110091
 20
19.1151551472
 10
5.0284430578
 20
19.1002233334
 10
5.0395130491
 20
19.0846290543
 10
5.0497683597
 20
19.0683837473
 10
5.059244148
 20
19.0517054939
 10
5.0679521339
 20
19.0346669869
 10
5.0758805975
 20
19.0171955304
 10
5.0830295391
 20
18.9992911224
  0
LWPOLYLINE
  5
38C
100
AcDbEntity
  8
0
100
AcDbPolyline
 62
7
  6
CONTINUOUS
 90
7
 70
0
 10
9.1184169609
 20
18.6517776285
 10
9.1362334377
 20
18.6762358217
 10
9.1506386827
 20
18.7017881332
 10
9.1616326959
 20
18.7284345566
 10
9.1692154772
 20
18.7561750854
 10
9.1733870267
 20
18.7850097124
 10
9.1741473444
 20
18.8149384305
  0
LWPOLYLINE
  5
38D
100
AcDbEntity
  8
0
100
AcDbPolyline
 62
7
  6
CONTINUOUS
 90
7
 70
0
 10
7.8730061024
 20
19.1001759657
 10
7.9019168304
 20
19.139627802
 10
7.9342461259
 20
19.1755927323
 10
7.9699939888
 20
19.2080707856
 10
8.0091604194
 20
19.2370619879
 10
8.0517454174
 20
19.2625663627
 10
8.0977489829
 20
19.2845839307
  0
LWPOLYLINE
  5
38E
100
AcDbEntity
  8
0
100
AcDbPolyline
 62
7
  6
CONTINUOUS
 90
7
 70
0
 10
8.0123153626
 20
16.682097132
 10
7.9912645836
 20
16.656482837
 10
7.9741659784
 20
16.6293473615
 10
7.961019547
 20
16.6006906973
 10
7.9518252894
 20
16.5705128356
 10
7.9465832055
 20
16.5388137674
 10
7.9452932954
 20
16.5055934832
  0
LWPOLYLINE
  5
38F
100
AcDbEntity
  8
0
100
AcDbPolyline
 62
7
  6
CONTINUOUS
 90
10
 70
0
 10
9.1055935379
 20
17.4888813904
 10
9.1202518638
 20
17.5065357802
 10
9.1331446076
 20
17.5250333589
 10
9.1442717693
 20
17.544374123
 10
9.1536263181
 20
17.5646700389
 10
9.1612152848
 20
17.5858091328
 10
9.1670597616
 20
17.6074554927
 10
9.1711667791
 20
17.6294971472
 10
9.1735293067
 20
17.6520460632
 10
9.1741473444
 20
17.6751022384
  0
LWPOLYLINE
  5
390
100
AcDbEntity
  8
0
100
AcDbPolyline
 62
7
  6
CONTINUOUS
 90
10
 70
0
 10
9.105593449
 20
16.3234652298
 10
9.1202515869
 20
16.3411193073
 10
9.1331442103
 20
16.3596166501
 10
9.1442713193
 20
16.378957255
 10
9.1536259072
 20
16.3992530834
 10
9.1612149806
 20
16.420392167
 10
9.1670595591
 20
16.4420386094
 10
9.1711666491
 20
16.4640804445
 10
9.1735292442
 20
16.4866296343
 10
9.1741473444
 20
16.5096861765
  0
LWPOLYLINE
  5
391
100
AcDbEntity
  8
0
100
AcDbPolyline
 62
7
  6
CONTINUOUS
 90
10
 70
0
 10
8.6523191661
 20
16.735811685
 10
8.6345602699
 20
16.7163521502
 10
8.6189457835
 20
16.6957654828
 10
8.605475707
 20
16.674051678
 10
8.594159196
 20
16.651027938
 10
8.5849870948
 20
16.62687705
 10
8.5779319364
 20
16.6021473901
 10
8.5729845651
 20
16.5770217494
 10
8.5701541366
 20
16.5513173317
 10
8.5694406509
 20
16.5250341341
  0
LWPOLYLINE
  5
392
100
AcDbEntity
  8
0
100
AcDbPolyline
 62
7
  6
CONTINUOUS
 90
10
 70
0
 10
8.5397680879
 20
15.1406548664
 10
8.558454471
 20
15.1602061598
 10
8.5749681069
 20
15.1809334875
 10
8.5893089958
 20
15.2028368448
 10
8.6015119827
 20
15.2260810913
 10
8.6115422224
 20
15.2505013571
 10
8.6192951797
 20
15.2756030458
 10
8.6247360095
 20
15.3012212905
 10
8.6278995569
 20
15.3275209519
 10
8.6287858218
 20
15.3545020267
  0
LWPOLYLINE
  5
393
100
AcDbEntity
  8
0
100
AcDbPolyline
 62
7
  6
CONTINUOUS
 90
10
 70
0
 10
9.2286299687
 20
15.0268559859
 10
9.2047983798
 20
15.0022584269
 10
9.1790757777
 20
14.9800907748
 10
9.1514621626
 20
14.9603530394
 10
9.121695735
 20
14.9430420081
 10
9.0900382943
 20
14.9281609098
 10
9.0572752387
 20
14.9157194156
 10
9.0236683676
 20
14.9057207523
 10
8.9889558816
 20
14.898161703
 10
8.9531377807
 20
14.8930422708
  0
LWPOLYLINE
  5
394
100
AcDbEntity
  8
0
100
AcDbPolyline
 62
7
  6
CONTINUOUS
 90
10
 70
0
 10
9.2092181177
 20
16.1799634413
 10
9.1819705218
 20
16.152125303
 10
9.152848864
 20
16.1271063921
 10
9.1218531443
 20
16.1049067224
 10
9.0887055472
 20
16.0854914127
 10
9.0536838882
 20
16.0688953671
 10
9.0176216137
 20
16.0552232748
 10
8.9807965393
 20
16.0445100372
 10
8.9429308496
 20
16.036720767
 10
8.9040245444
 20
16.0318554685
  0
LINE
  5
395
100
AcDbEntity
  8
RACCORDO
100
AcDbLine
 62
7
  6
CONTINUOUS
 10
-7.4372915245
 20
-0.8872915245
 11
-7.35
 21
-0.8
  0
LINE
  5
396
100
AcDbEntity
  8
RACCORDO
100
AcDbLine
 62
7
  6
CONTINUOUS
 10
7.4118434042
 20
-13.7118434042
 11
7.4992056137
 21
-13.7992056137
  0
LINE
  5
397
100
AcDbEntity
  8
DRAFT
100
AcDbLine
 62
7
  6
CONTINUOUS
 10
-3.1
 20
-21.2
 11
-3.1
 21
-22.4
  0
LINE
  5
398
100
AcDbEntity
  8
DRAFT
100
AcDbLine
 62
7
  6
CONTINUOUS
 10
-3.1
 20
21.2
 11
-3.1
 21
22.4
  0
LINE
  5
399
100
AcDbEntity
  8
0
100
AcDbLine
 62
7
  6
CONTINUOUS
 10
-2.982778
 20
18.327522
 11
-2.982778
 21
18.777699
  0
LINE
  5
39A
100
AcDbEntity
  8
0
100
AcDbLine
 62
7
  6
CONTINUOUS
 10
-2.532571
 20
18.327526
 11
-2.532571
 21
18.777699
  0
LINE
  5
39B
100
AcDbEntity
  8
0
100
AcDbLine
 62
7
  6
CONTINUOUS
 10
-2.190307
 20
18.332669
 11
-2.190302
 21
18.65561
  0
LINE
  5
39C
100
AcDbEntity
  8
0
100
AcDbLine
 62
7
  6
CONTINUOUS
 10
-2.190302
 20
16.757598
 11
-2.190302
 21
17.116239
  0
LINE
  5
39D
100
AcDbEntity
  8
0
100
AcDbLine
 62
7
  6
CONTINUOUS
 10
-1.838789
 20
16.644734
 11
-1.838789
 21
17.229107
  0
LINE
  5
39E
100
AcDbEntity
  8
DRAFT
100
AcDbLine
 62
7
  6
CONTINUOUS
 10
3.0118365096
 20
22.4
 11
2.6768152463
 21
21.2
  0
LINE
  5
39F
100
AcDbEntity
  8
DRAFT
100
AcDbLine
 62
7
  6
CONTINUOUS
 10
3.9733373476
 20
23.5
 11
3.9526845545
 21
23.4301797403
  0
LWPOLYLINE
  5
3A0
100
AcDbEntity
  8
0
100
AcDbPolyline
 62
7
  6
CONTINUOUS
 90
42
 70
0
 10
5.0830295391
 20
18.9992911224
 10
5.090858976
 20
19.0213692481
 10
5.0997319765
 20
19.0429068249
 10
5.1096485406
 20
19.0639038556
 10
5.120623114
 20
19.0844444534
 10
5.1326412509
 20
19.1044445098
 10
5.1456596141
 20
19.1236516957
 10
5.1596090029
 20
19.1420371818
 10
5.1745586179
 20
19.1596298043
 10
5.1906727236
 20
19.1762637337
 10
5.2079342815
 20
19.1919589288
 10
5.2263603301
 20
19.2066954378
 10
5.2461662496
 20
19.2202475664
 10
5.2674429572
 20
19.2326304463
 10
5.2900995357
 20
19.2438289529
 10
5.3140786131
 20
19.2535720088
 10
5.3393664477
 20
19.2618506305
 10
5.3659767812
 20
19.2686738077
 10
5.3938934661
 20
19.2737974229
 10
5.4230795962
 20
19.2773298241
 10
5.4535720778
 20
19.2791626668
 10
5.4854654825
 20
19.2787267941
 10
5.5190976666
 20
19.2762386453
 10
5.5541307738
 20
19.2714817797
 10
5.5896458079
 20
19.2632377181
 10
5.6257448967
 20
19.2513873988
 10
5.6623259125
 20
19.2360498671
 10
5.6981634751
 20
19.2163637952
 10
5.7335268642
 20
19.191910017
 10
5.7681468002
 20
19.1631076527
 10
5.7999900641
 20
19.1303527972
 10
5.8289083289
 20
19.0935221324
 10
5.8550499215
 20
19.0527389124
 10
5.8768266033
 20
19.0087690958
 10
5.8937288176
 20
18.9611726066
 10
5.9062661211
 20
18.9103894513
 10
5.9143789453
 20
18.8585057394
 10
5.9180676832
 20
18.8053847482
 10
5.9173319419
 20
18.7511631743
 10
5.9121109737
 20
18.6983373106
 10
5.9023023198
 20
18.6470831108
 10
5.8880084391
 20
18.5972246566
  0
LWPOLYLINE
  5
3A1
100
AcDbEntity
  8
0
100
AcDbPolyline
 62
7
  6
CONTINUOUS
 90
43
 70
0
 10
5.0830295391
 20
18.5813277944
 10
5.0761021207
 20
18.5633855667
 10
5.0684208955
 20
18.5458601804
 10
5.0599858632
 20
18.5287516369
 10
5.0508203704
 20
18.5119966275
 10
5.0409010707
 20
18.4956584642
 10
5.030157925
 20
18.47992708
 10
5.0186450518
 20
18.464803544
 10
5.0063083326
 20
18.4502867915
 10
4.9929153735
 20
18.4365635568
 10
4.9784386821
 20
18.4236007238
 10
4.9629057506
 20
18.4114314133
 10
4.9461666627
 20
18.4003417158
 10
4.9281251775
 20
18.3903417165
 10
4.9088775357
 20
18.3814213352
 10
4.8885625429
 20
18.3738364154
 10
4.8672098088
 20
18.3676241082
 10
4.8447897237
 20
18.3627472666
 10
4.8213522636
 20
18.3593502866
 10
4.7969245581
 20
18.3573200633
 10
4.7714794775
 20
18.3567697033
 10
4.7449856092
 20
18.3581829197
 10
4.7171802693
 20
18.3614072614
 10
4.6883261417
 20
18.3665951775
 10
4.6591798645
 20
18.3746877286
 10
4.629669479
 20
18.3858003166
 10
4.5998669439
 20
18.3998175271
 10
4.5707447741
 20
18.4173341901
 10
4.5420982103
 20
18.4386311118
 10
4.5141320116
 20
18.4634274549
 10
4.4884329709
 20
18.4914755791
 10
4.4651193912
 20
18.5229187092
 10
4.4440729694
 20
18.5576135763
 10
4.4265255883
 20
18.5948828022
 10
4.4128967376
 20
18.6350589247
 10
4.4027669277
 20
18.6778093586
 10
4.3961095723
 20
18.7214590605
 10
4.3929152744
 20
18.7661038095
 10
4.3931934311
 20
18.8116478071
 10
4.3969456476
 20
18.8561286787
 10
4.4042105815
 20
18.8994156508
 10
4.4149495752
 20
18.9416395183
 10
4.4290482617
 20
18.9812302943
  0
LWPOLYLINE
  5
3A2
100
AcDbEntity
  8
0
100
AcDbPolyline
 62
7
  6
CONTINUOUS
 90
7
 70
0
 10
7.8472726317
 20
17.8929391869
 10
7.8649897749
 20
17.925036056
 10
7.8851653069
 20
17.9547907258
 10
7.9077992275
 20
17.9822032114
 10
7.9328915368
 20
18.0072735267
 10
7.9604422348
 20
18.0300016843
 10
7.9904513216
 20
18.0503876958
  0
LWPOLYLINE
  5
3A3
100
AcDbEntity
  8
0
100
AcDbPolyline
 62
7
  6
CONTINUOUS
 90
7
 70
0
 10
9.1184169166
 20
15.1555293031
 10
9.1362330152
 20
15.1799862793
 10
9.1506380363
 20
15.2055378684
 10
9.1616319797
 20
15.232184065
 10
9.1692148456
 20
15.2599248638
 10
9.1733866338
 20
15.288760259
 10
9.1741473444
 20
15.3186902449
  0
LWPOLYLINE
  5
3A4
100
AcDbEntity
  8
0
100
AcDbPolyline
 62
7
  6
CONTINUOUS
 90
7
 70
0
 10
7.873006184
 20
15.6039277269
 10
7.9019168598
 20
15.6433794495
 10
7.9342461164
 20
15.6793443149
 10
7.9699939538
 20
15.7118223465
 10
8.0091603719
 20
15.7408135658
 10
8.0517453708
 20
15.7663179919
 10
8.0977489504
 20
15.7883356416
  0
LINE
  5
3A5
100
AcDbEntity
  8
RACCORDO
100
AcDbLine
 62
7
  6
CONTINUOUS
 10
5.5000659127
 20
9.6000659127
 11
5.4256357545
 21
9.5256357545
  0
LINE
  5
3A6
100
AcDbEntity
  8
RACCORDO
100
AcDbLine
 62
250
  6
CONTINUOUS
 10
6.9101323002
 20
9.5101132618
 11
7.0000849512
 21
9.6000659127
  0
LINE
  5
3A7
100
AcDbEntity
  8
DRAFT
100
AcDbLine
 62
7
  6
CONTINUOUS
 10
-9.5810577445
 20
-1.8
 11
-7.35
 21
-1.8
  0
LINE
  5
3A8
100
AcDbEntity
  8
DRAFT
100
AcDbLine
 62
7
  6
CONTINUOUS
 10
9.5810577445
 20
-1.8
 11
7.35
 21
-1.8
  0
LINE
  5
3A9
100
AcDbEntity
  8
RACCORDO
100
AcDbLine
 62
7
  6
CONTINUOUS
 10
-9.7900415076
 20
-1.7223308767
 11
-9.6587268678
 21
-1.7223308767
  0
LINE
  5
3AA
100
AcDbEntity
  8
RACCORDO
100
AcDbLine
 62
7
  6
CONTINUOUS
 10
9.7900415076
 20
-1.7223308767
 11
9.6587268678
 21
-1.7223308767
  0
LINE
  5
3AB
100
AcDbEntity
  8
RACCORDO
100
AcDbLine
 62
7
  6
CONTINUOUS
 10
8.9303794106
 20
-1.7101132618
 11
7.7372801014
 21
-1.7101132618
  0
LINE
  5
3AC
100
AcDbEntity
  8
RACCORDO
100
AcDbLine
 62
7
  6
CONTINUOUS
 10
-7.7372801014
 20
-1.7101132618
 11
-8.9303794106
 21
-1.7101132618
  0
LINE
  5
3AD
100
AcDbEntity
  8
DRAFT
100
AcDbLine
 62
7
  6
CONTINUOUS
 10
7.4825462644
 20
-10.8825462644
 11
7.5
 21
-10.9
  0
LINE
  5
3AE
100
AcDbEntity
  8
DRAFT
100
AcDbLine
 62
7
  6
CONTINUOUS
 10
9.6587268678
 20
-12.8776691233
 11
9.5810577445
 21
-12.8
  0
LINE
  5
3AF
100
AcDbEntity
  8
RACCORDO
100
AcDbLine
 62
250
  6
CONTINUOUS
 10
-7.6499885769
 20
4.6
 11
-7.7372801014
 21
4.6872915245
  0
LINE
  5
3B0
100
AcDbEntity
  8
DRAFT
100
AcDbLine
 62
7
  6
CONTINUOUS
 10
-9.6587268678
 20
6.6776691233
 11
-9.5810577445
 21
6.6
  0
LINE
  5
3B1
100
AcDbEntity
  8
DRAFT
100
AcDbLine
 62
7
  6
CONTINUOUS
 10
8.3325462644
 20
-10.8825462644
 11
8.35
 21
-10.9
  0
LINE
  5
3B2
100
AcDbEntity
  8
RACCORDO
100
AcDbLine
 62
250
  6
CONTINUOUS
 10
-7.35
 20
4.8999885769
 11
-7.4372915245
 21
4.9872801014
  0
LINE
  5
3B3
100
AcDbEntity
  8
DRAFT
100
AcDbLine
 62
7
  6
CONTINUOUS
 10
3.9733373476
 20
-23.5
 11
3.9526845545
 21
-23.4301797403
  0
LINE
  5
3B4
100
AcDbEntity
  8
DRAFT
100
AcDbLine
 62
7
  6
CONTINUOUS
 10
2.6768152463
 20
-21.2
 11
3.0118365096
 21
-22.4
  0
LWPOLYLINE
  5
3B5
100
AcDbEntity
  8
RACCORDO
100
AcDbPolyline
 62
250
  6
CONTINUOUS
 90
13
 70
0
 10
0.2649134011
 20
-19.5938857461
 10
0.2631488246
 20
-19.5687085423
 10
0.2580027931
 20
-19.5439603064
 10
0.249562886
 20
-19.5200632434
 10
0.2379728705
 20
-19.4974250586
 10
0.223430291
 20
-19.4764320693
 10
0.2061831349
 20
-19.4574425926
 10
0.1865255069
 20
-19.4407807098
 10
0.1647926978
 20
-19.4267308484
 10
0.1413555591
 20
-19.4155329292
 10
0.1166139877
 20
-19.4073781356
 10
0.0909900701
 20
-19.4024056991
 10
0.0649210165
 20
-19.4007005801
  0
LINE
  5
3B6
100
AcDbEntity
  8
RACCORDO
100
AcDbLine
 62
250
  6
CONTINUOUS
 10
-0.2649134011
 20
-19.5938857461
 11
-0.3987736215
 21
-15.4838500694
  0
LINE
  5
3B7
100
AcDbEntity
  8
RACCORDO
100
AcDbLine
 62
250
  6
CONTINUOUS
 10
-0.0649210165
 20
-19.4007005808
 11
-0.1992738542
 21
-15.2755396155
  0
LWPOLYLINE
  5
3B8
100
AcDbEntity
  8
RACCORDO
100
AcDbPolyline
 62
250
  6
CONTINUOUS
 90
3
 70
0
 10
-0.2643828219
 20
-19.6175022913
 10
-0.264640027
 20
-19.6041911109
 10
-0.2649134011
 20
-19.5938857461
  0
LINE
  5
3B9
100
AcDbEntity
  8
RACCORDO
100
AcDbLine
 62
250
  6
CONTINUOUS
 10
-0.0646458243
 20
-19.4175833679
 11
-0.0649210165
 21
-19.4007005808
  0
LINE
  5
3BA
100
AcDbEntity
  8
RACCORDO
100
AcDbLine
 62
250
  6
CONTINUOUS
 10
-0.2639141051
 20
-19.6534136761
 11
-0.2643828219
 21
-19.6175022913
  0
LINE
  5
3BB
100
AcDbEntity
  8
RACCORDO
100
AcDbLine
 62
250
  6
CONTINUOUS
 10
-0.0641459597
 20
-19.4677006561
 11
-0.0646458243
 21
-19.4175833679
  0
LINE
  5
3BC
100
AcDbEntity
  8
RACCORDO
100
AcDbLine
 62
250
  6
CONTINUOUS
 10
-0.2633545402
 20
-19.7278964333
 11
-0.2639141051
 21
-19.6534136761
  0
LINE
  5
3BD
100
AcDbEntity
  8
RACCORDO
100
AcDbLine
 62
250
  6
CONTINUOUS
 10
-0.0632256648
 20
-19.6725733935
 11
-0.0641459597
 21
-19.4677006561
  0
LINE
  5
3BE
100
AcDbEntity
  8
RACCORDO
100
AcDbLine
 62
250
  6
CONTINUOUS
 10
0.0632251651
 20
19.6727093349
 11
0.064145624
 21
19.4677300809
  0
LINE
  5
3BF
100
AcDbEntity
  8
RACCORDO
100
AcDbLine
 62
250
  6
CONTINUOUS
 10
-0.2629729446
 20
-19.883663494
 11
-0.2633545402
 21
-19.7278964333
  0
LINE
  5
3C0
100
AcDbEntity
  8
0
100
AcDbLine
 62
7
  6
CONTINUOUS
 10
-1.474958
 20
17.345916
 11
-1.474954
 21
17.715935
  0
LINE
  5
3C1
100
AcDbEntity
  8
0
100
AcDbLine
 62
7
  6
CONTINUOUS
 10
-1.474958
 20
17.962609
 11
-1.474958
 21
18.332628
  0
LINE
  5
3C2
100
AcDbEntity
  8
0
100
AcDbLine
 62
7
  6
CONTINUOUS
 10
-1.474954
 20
14.101543
 11
-1.474954
 21
14.471557
  0
LINE
  5
3C3
100
AcDbEntity
  8
0
100
AcDbLine
 62
7
  6
CONTINUOUS
 10
-1.474954
 20
15.541218
 11
-1.474954
 21
15.911232
  0
LINE
  5
3C4
100
AcDbEntity
  8
0
100
AcDbLine
 62
7
  6
CONTINUOUS
 10
-1.474954
 20
14.821383
 11
-1.474958
 21
15.191388
  0
LINE
  5
3C5
100
AcDbEntity
  8
0
100
AcDbLine
 62
7
  6
CONTINUOUS
 10
-1.474949
 20
12.150825
 11
-1.474954
 21
12.520852
  0
LINE
  5
3C6
100
AcDbEntity
  8
0
100
AcDbLine
 62
7
  6
CONTINUOUS
 10
-1.474954
 20
16.157906
 11
-1.474958
 21
16.52792
  0
LINE
  5
3C7
100
AcDbEntity
  8
0
100
AcDbLine
 62
7
  6
CONTINUOUS
 10
-1.474949
 20
13.361525
 11
-1.474954
 21
13.731539
  0
LINE
  5
3C8
100
AcDbEntity
  8
0
100
AcDbLine
 62
7
  6
CONTINUOUS
 10
-1.474958
 20
19.02641
 11
-1.474963
 21
19.443173
  0
LINE
  5
3C9
100
AcDbEntity
  8
RACCORDO
100
AcDbLine
 62
7
  6
CONTINUOUS
 10
-0.2629729446
 20
-20.5680847998
 11
-0.2629729446
 21
-19.883663494
  0
LINE
  5
3CA
100
AcDbEntity
  8
RACCORDO
100
AcDbLine
 62
7
  6
CONTINUOUS
 10
-0.2629729446
 20
19.883663494
 11
-0.2629729446
 21
20.5680847998
  0
LINE
  5
3CB
100
AcDbEntity
  8
RACCORDO
100
AcDbLine
 62
250
  6
CONTINUOUS
 10
-0.06298056
 20
-20.5698149423
 11
-0.0632256648
 21
-19.6725733935
  0
LINE
  5
3CC
100
AcDbEntity
  8
RACCORDO
100
AcDbLine
 62
250
  6
CONTINUOUS
 10
0.06298056
 20
20.5698149423
 11
0.0632251651
 21
19.6727093349
  0
LINE
  5
3CD
100
AcDbEntity
  8
RACCORDO
100
AcDbLine
 62
250
  6
CONTINUOUS
 10
-0.0635212212
 20
19.5794139546
 11
-0.06298056
 21
20.5698149423
  0
LINE
  5
3CE
100
AcDbEntity
  8
RACCORDO
100
AcDbLine
 62
250
  6
CONTINUOUS
 10
0.0635224622
 20
-19.5791554642
 11
0.06298056
 21
-20.5698149423
  0
LINE
  5
3CF
100
AcDbEntity
  8
RACCORDO
100
AcDbLine
 62
250
  6
CONTINUOUS
 10
-0.2633518506
 20
19.7283925668
 11
-0.2629729446
 21
19.883663494
  0
LINE
  5
3D0
100
AcDbEntity
  8
RACCORDO
100
AcDbLine
 62
250
  6
CONTINUOUS
 10
0.0641459596
 20
-19.4677006561
 11
0.0635224622
 21
-19.5791554642
  0
LINE
  5
3D1
100
AcDbEntity
  8
RACCORDO
100
AcDbLine
 62
250
  6
CONTINUOUS
 10
-0.2639106098
 20
19.653747198
 11
-0.2633518506
 21
19.7283925668
  0
LWPOLYLINE
  5
3D2
100
AcDbEntity
  8
RACCORDO
100
AcDbPolyline
 62
250
  6
CONTINUOUS
 90
4
 70
0
 10
-0.0649210165
 20
19.4007005808
 10
-0.0646457757
 20
19.4175809263
 10
-0.0643873115
 20
19.4400028908
 10
-0.0635212212
 20
19.5794139546
  0
LWPOLYLINE
  5
3D3
100
AcDbEntity
  8
RACCORDO
100
AcDbPolyline
 62
250
  6
CONTINUOUS
 90
4
 70
0
 10
-0.2649134011
 20
19.5938857461
 10
-0.2646386284
 20
19.6042715123
 10
-0.2643803683
 20
19.6176631565
 10
-0.2639106098
 20
19.653747198
  0
LINE
  5
3D4
100
AcDbEntity
  8
RACCORDO
100
AcDbLine
 62
250
  6
CONTINUOUS
 10
-0.3987736215
 20
15.4838500694
 11
-0.2649134011
 21
19.5938857461
  0
LINE
  5
3D5
100
AcDbEntity
  8
RACCORDO
100
AcDbLine
 62
250
  6
CONTINUOUS
 10
-0.1992738542
 20
15.2755396155
 11
-0.0649210165
 21
19.4007005808
  0
LWPOLYLINE
  5
3D6
100
AcDbEntity
  8
RACCORDO
100
AcDbPolyline
 62
7
  6
CONTINUOUS
 90
13
 70
0
 10
0.3987736215
 20
15.4838500694
 10
0.3970285163
 20
15.4562067425
 10
0.3918217078
 20
15.4291926459
 10
0.3832724542
 20
15.4032390196
 10
0.3715630201
 20
15.3787379785
 10
0.3569172775
 20
15.3560852013
 10
0.3395835202
 20
15.3356819
 10
0.3198410578
 20
15.3178312955
 10
0.2980599277
 20
15.3028242083
 10
0.2746862143
 20
15.2909642083
 10
0.2501574065
 20
15.2824237631
 10
0.2248772972
 20
15.2772688539
 10
0.1992738542
 20
15.2755396155
  0
LWPOLYLINE
  5
3D7
100
AcDbEntity
  8
RACCORDO
100
AcDbPolyline
 62
250
  6
CONTINUOUS
 90
13
 70
0
 10
0.2649134011
 20
19.5938857461
 10
0.2631484735
 20
19.568706008
 10
0.2580015521
 20
19.543955866
 10
0.2495604493
 20
19.5200575866
 10
0.2379691803
 20
19.4974189027
 10
0.2234255058
 20
19.4764260567
 10
0.206177558
 20
19.4574372114
 10
0.1865196071
 20
19.4407763388
 10
0.164787041
 20
19.4267276931
 10
0.1413506427
 20
19.4155309604
 10
0.1166102649
 20
19.4073771702
 10
0.0909880075
 20
19.4024054358
 10
0.0649210165
 20
19.4007005808
  0
LWPOLYLINE
  5
3D8
100
AcDbEntity
  8
0
100
AcDbPolyline
 62
7
  6
CONTINUOUS
 90
31
 70
0
 10
5.1069484923
 20
17.8145325847
 10
5.1180813305
 20
17.8550969781
 10
5.1338945653
 20
17.8936418776
 10
5.1543881968
 20
17.9301672998
 10
5.1798478932
 20
17.9656016227
 10
5.2099879862
 20
17.9990164946
 10
5.2439514715
 20
18.0276268564
 10
5.2820442964
 20
18.0505307177
 10
5.3239605135
 20
18.0686301261
 10
5.3679252763
 20
18.0818460927
 10
5.4139702901
 20
18.0901571361
 10
5.4620638497
 20
18.0935847608
 10
5.5103359934
 20
18.0921144486
 10
5.5588501994
 20
18.0859187655
 10
5.6075429896
 20
18.0748251373
 10
5.6543539676
 20
18.0583013267
 10
5.6990556243
 20
18.035833876
 10
5.7418754688
 20
18.0079361953
 10
5.7814356325
 20
17.9756163433
 10
5.8178809963
 20
17.9384565852
 10
5.8510666791
 20
17.8968745871
 10
5.8791801696
 20
17.8531315301
 10
5.90143007
 20
17.8070667655
 10
5.918607778
 20
17.7588408997
 10
5.9312749755
 20
17.7111970432
 10
5.9391583055
 20
17.664784353
 10
5.9425311249
 20
17.6189536892
 10
5.9427751865
 20
17.574500752
 10
5.9403098958
 20
17.5315490539
 10
5.9347158472
 20
17.4899751095
 10
5.9261165771
 20
17.4502041342
  0
LWPOLYLINE
  5
3D9
100
AcDbEntity
  8
0
100
AcDbPolyline
 62
7
  6
CONTINUOUS
 90
35
 70
0
 10
5.8880084391
 20
18.5972246566
 10
5.8694759601
 20
18.5507304851
 10
5.8462176049
 20
18.5080387397
 10
5.8187206515
 20
18.4687113479
 10
5.7886935628
 20
18.4334025457
 10
5.7560340229
 20
18.402237859
 10
5.7208443476
 20
18.3750918223
 10
5.6851399476
 20
18.3522421866
 10
5.6492168762
 20
18.3341259035
 10
5.6127790801
 20
18.3203060619
 10
5.5769538099
 20
18.3097496108
 10
5.541848977
 20
18.3025132413
 10
5.50735667
 20
18.2985402753
 10
5.4742804054
 20
18.2966276009
 10
5.4429530362
 20
18.2965143516
 10
5.4130417093
 20
18.2984613949
 10
5.3843513821
 20
18.302048217
 10
5.3567923638
 20
18.3071930874
 10
5.3304543452
 20
18.3139777335
 10
5.3054113554
 20
18.3222268283
 10
5.2816502361
 20
18.3319572985
 10
5.2591841457
 20
18.3431522114
 10
5.2381265883
 20
18.3555854517
 10
5.2185773593
 20
18.3692485653
 10
5.2004366634
 20
18.3841499991
 10
5.1835186181
 20
18.4000889894
 10
5.1678026425
 20
18.4170673241
 10
5.1533093177
 20
18.4350832078
 10
5.1399145049
 20
18.4539305032
 10
5.1275522526
 20
18.4736417432
 10
5.1162885124
 20
18.4941843875
 10
5.1061969994
 20
18.5152546914
 10
5.0973022854
 20
18.5367514053
 10
5.0895797986
 20
18.5587757738
 10
5.0830295391
 20
18.5813277944
  0
LWPOLYLINE
  5
3DA
100
AcDbEntity
  8
0
100
AcDbPolyline
 62
7
  6
CONTINUOUS
 90
7
 70
0
 10
7.8472725594
 20
16.7275229826
 10
7.8649895576
 20
16.7596197222
 10
7.8851650074
 20
16.7893743132
 10
7.9077989087
 20
16.8167867695
 10
7.9328912615
 20
16.8418571042
 10
7.9604420658
 20
16.8645853291
 10
7.9904513216
 20
16.8849714551
  0
LWPOLYLINE
  5
3DB
100
AcDbEntity
  8
0
100
AcDbPolyline
 62
7
  6
CONTINUOUS
 90
7
 70
0
 10
7.8431877142
 20
14.4007723644
 10
7.861049799
 20
14.4307593768
 10
7.8811135367
 20
14.4587623699
 10
7.9033789274
 20
14.4847813533
 10
7.9278459711
 20
14.5088163361
 10
7.9545146677
 20
14.5308673266
 10
7.9833850173
 20
14.5509343323
  0
LINE
  5
3DC
100
AcDbEntity
  8
RACCORDO
100
AcDbLine
 62
250
  6
CONTINUOUS
 10
7.4101132618
 20
9.0101323002
 11
7.5001477533
 21
9.1001667918
  0
LINE
  5
3DD
100
AcDbEntity
  8
DRAFT
100
AcDbLine
 62
7
  6
CONTINUOUS
 10
-9.6587268678
 20
-8.5776691233
 11
-9.5810577445
 21
-8.5
  0
LINE
  5
3DE
100
AcDbEntity
  8
RACCORDO
100
AcDbLine
 62
7
  6
CONTINUOUS
 10
7.4118434042
 20
7.5118434042
 11
7.5003670279
 21
7.6003670279
  0
LINE
  5
3DF
100
AcDbEntity
  8
RACCORDO
100
AcDbLine
 62
7
  6
CONTINUOUS
 10
-9.6021029835
 20
-1.721182456
 11
-9.2122871968
 21
-1.7118358927
  0
LINE
  5
3E0
100
AcDbEntity
  8
RACCORDO
100
AcDbLine
 62
7
  6
CONTINUOUS
 10
9.2122871968
 20
-0.8881641073
 11
9.6021029835
 21
-0.878817544
  0
LINE
  5
3E1
100
AcDbEntity
  8
RACCORDO
100
AcDbLine
 62
7
  6
CONTINUOUS
 10
-8.9303794106
 20
-0.8898867382
 11
-7.7372801014
 21
-0.8898867382
  0
LINE
  5
3E2
100
AcDbEntity
  8
RACCORDO
100
AcDbLine
 62
7
  6
CONTINUOUS
 10
7.7372801014
 20
-0.8898867382
 11
8.9303794106
 21
-0.8898867382
  0
LINE
  5
3E3
100
AcDbEntity
  8
RACCORDO
100
AcDbLine
 62
7
  6
CONTINUOUS
 10
-9.7900415076
 20
-0.8776691233
 11
-9.6587268678
 21
-0.8776691233
  0
LINE
  5
3E4
100
AcDbEntity
  8
RACCORDO
100
AcDbLine
 62
7
  6
CONTINUOUS
 10
9.7900415076
 20
-0.8776691233
 11
9.6587268678
 21
-0.8776691233
  0
LINE
  5
3E5
100
AcDbEntity
  8
DRAFT
100
AcDbLine
 62
7
  6
CONTINUOUS
 10
-9.5810577445
 20
-0.8
 11
-7.35
 21
-0.8
  0
LINE
  5
3E6
100
AcDbEntity
  8
DRAFT
100
AcDbLine
 62
7
  6
CONTINUOUS
 10
9.5810577445
 20
-0.8
 11
7.35
 21
-0.8
  0
LINE
  5
3E7
100
AcDbEntity
  8
RACCORDO
100
AcDbLine
 62
7
  6
CONTINUOUS
 10
9.2122871968
 20
-1.7118358927
 11
9.6021029835
 21
-1.721182456
  0
LINE
  5
3E8
100
AcDbEntity
  8
RACCORDO
100
AcDbLine
 62
7
  6
CONTINUOUS
 10
-9.6021029835
 20
-0.878817544
 11
-9.2122871968
 21
-0.8881641073
  0
LINE
  5
3E9
100
AcDbEntity
  8
RACCORDO
100
AcDbLine
 62
7
  6
CONTINUOUS
 10
7.35
 20
-8.5
 11
7.4372915245
 21
-8.5872915245
  0
LINE
  5
3EA
100
AcDbEntity
  8
DRAFT
100
AcDbLine
 62
7
  6
CONTINUOUS
 10
8.3325462644
 20
-9.4825462644
 11
8.35
 21
-9.5
  0
LINE
  5
3EB
100
AcDbEntity
  8
RACCORDO
100
AcDbLine
 62
7
  6
CONTINUOUS
 10
-7.4372915245
 20
6.6872915245
 11
-7.35
 21
6.6
  0
LINE
  5
3EC
100
AcDbEntity
  8
RACCORDO
100
AcDbLine
 62
7
  6
CONTINUOUS
 10
-7.4118434042
 20
7.5118434042
 11
-7.5003670279
 21
7.6003670279
  0
LWPOLYLINE
  5
3ED
100
AcDbEntity
  8
RACCORDO
100
AcDbPolyline
 62
250
  6
CONTINUOUS
 90
13
 70
0
 10
-0.2649134011
 20
19.5938857461
 10
-0.2631487481
 20
19.5687079866
 10
-0.2580025227
 20
19.5439593332
 10
-0.2495623553
 20
19.5200620045
 10
-0.2379720678
 20
19.4974237119
 10
-0.223429252
 20
19.4764307557
 10
-0.2061819258
 20
19.4574414183
 10
-0.1865242297
 20
19.4407797572
 10
-0.1647914758
 20
19.426730162
 10
-0.141354499
 20
19.415532502
 10
-0.1166131859
 20
19.4073779272
 10
-0.0909896263
 20
19.4024056443
 10
-0.0649210163
 20
19.4007005848
  0
LINE
  5
3EE
100
AcDbEntity
  8
RACCORDO
100
AcDbLine
 62
250
  6
CONTINUOUS
 10
0.0649210165
 20
19.4007005808
 11
0.1992738542
 21
15.2755396155
  0
LINE
  5
3EF
100
AcDbEntity
  8
RACCORDO
100
AcDbLine
 62
250
  6
CONTINUOUS
 10
0.2649134011
 20
19.5938857461
 11
0.3987736215
 21
15.4838500694
  0
LWPOLYLINE
  5
3F0
100
AcDbEntity
  8
RACCORDO
100
AcDbPolyline
 62
250
  6
CONTINUOUS
 90
3
 70
0
 10
0.2643803683
 20
19.6176631592
 10
0.2646386284
 20
19.604271514
 10
0.2649134011
 20
19.5938857461
  0
LINE
  5
3F1
100
AcDbEntity
  8
RACCORDO
100
AcDbLine
 62
250
  6
CONTINUOUS
 10
0.0646457757
 20
19.4175809263
 11
0.0649210165
 21
19.4007005808
  0
LINE
  5
3F2
100
AcDbEntity
  8
RACCORDO
100
AcDbLine
 62
250
  6
CONTINUOUS
 10
0.2639106098
 20
19.6537472006
 11
0.2643803683
 21
19.6176631592
  0
LINE
  5
3F3
100
AcDbEntity
  8
RACCORDO
100
AcDbLine
 62
250
  6
CONTINUOUS
 10
0.064145624
 20
19.4677300809
 11
0.0646457757
 21
19.4175809263
  0
LINE
  5
3F4
100
AcDbEntity
  8
RACCORDO
100
AcDbLine
 62
250
  6
CONTINUOUS
 10
0.2633518505
 20
19.7283925662
 11
0.2639106098
 21
19.6537472006
  0
LINE
  5
3F5
100
AcDbEntity
  8
RACCORDO
100
AcDbLine
 62
250
  6
CONTINUOUS
 10
0.2629729446
 20
19.883663494
 11
0.2633518505
 21
19.7283925662
  0
LINE
  5
3F6
100
AcDbEntity
  8
RACCORDO
100
AcDbLine
 62
7
  6
CONTINUOUS
 10
0.2629729446
 20
20.5680847998
 11
0.2629729446
 21
19.883663494
  0
LINE
  5
3F7
100
AcDbEntity
  8
RACCORDO
100
AcDbLine
 62
7
  6
CONTINUOUS
 10
0.2629729446
 20
-19.883663494
 11
0.2629729446
 21
-20.5680847998
  0
LINE
  5
3F8
100
AcDbEntity
  8
0
100
AcDbLine
 62
7
  6
CONTINUOUS
 10
1.8489555797
 20
17.3192159826
 11
1.8489555797
 21
17.4118168282
  0
LINE
  5
3F9
100
AcDbEntity
  8
0
100
AcDbLine
 62
7
  6
CONTINUOUS
 10
1.8489555797
 20
18.3757750279
 11
1.8489555797
 21
18.4683750056
  0
LINE
  5
3FA
100
AcDbEntity
  8
0
100
AcDbLine
 62
7
  6
CONTINUOUS
 10
1.8489599193
 20
18.7334347608
 11
1.8489599193
 21
19.373277416
  0
LINE
  5
3FB
100
AcDbEntity
  8
0
100
AcDbLine
 62
7
  6
CONTINUOUS
 10
1.850359
 20
11.393697
 11
1.850359
 21
11.605888
  0
LINE
  5
3FC
100
AcDbEntity
  8
0
100
AcDbLine
 62
7
  6
CONTINUOUS
 10
1.850359
 20
12.400016
 11
1.850359
 21
12.589099
  0
LINE
  5
3FD
100
AcDbEntity
  8
0
100
AcDbLine
 62
7
  6
CONTINUOUS
 10
1.850359
 20
13.007122
 11
1.850359
 21
14.042849
  0
LINE
  5
3FE
100
AcDbEntity
  8
0
100
AcDbLine
 62
7
  6
CONTINUOUS
 10
1.850359
 20
15.763409
 11
1.850359
 21
16.799122
  0
LINE
  5
3FF
100
AcDbEntity
  8
0
100
AcDbLine
 62
7
  6
CONTINUOUS
 10
1.850364
 20
14.219293
 11
1.850364
 21
14.43565
  0
LINE
  5
400
100
AcDbEntity
  8
0
100
AcDbLine
 62
7
  6
CONTINUOUS
 10
1.850364
 20
15.30122
 11
1.850364
 21
15.509216
  0
LINE
  5
401
100
AcDbEntity
  8
0
100
AcDbLine
 62
7
  6
CONTINUOUS
 10
1.9289473031
 20
18.826092889
 11
1.9289473031
 21
19.366949421
  0
LINE
  5
402
100
AcDbEntity
  8
RACCORDO
100
AcDbLine
 62
250
  6
CONTINUOUS
 10
0.2633545402
 20
-19.7278964342
 11
0.2629729446
 21
-19.883663494
  0
LINE
  5
403
100
AcDbEntity
  8
RACCORDO
100
AcDbLine
 62
250
  6
CONTINUOUS
 10
0.263914105
 20
-19.6534136726
 11
0.2633545402
 21
-19.7278964342
  0
LWPOLYLINE
  5
404
100
AcDbEntity
  8
0
100
AcDbPolyline
 62
7
  6
CONTINUOUS
 90
22
 70
0
 10
1.8489599193
 20
19.373277416
 10
1.849446594
 20
19.405195394
 10
1.8516806093
 20
19.436973235
 10
1.8556619654
 20
19.4686109398
 10
1.861259603
 20
19.5003431594
 10
1.8686045814
 20
19.5319352436
 10
1.8780900781
 20
19.5626832466
 10
1.8898086663
 20
19.592667857
 10
1.9036677729
 20
19.6218083977
 10
1.919782857
 20
19.6491588864
 10
1.9382807057
 20
19.6745006747
 10
1.9590345317
 20
19.6980524342
 10
1.9817794322
 20
19.7195241688
 10
2.0064958524
 20
19.7389237521
 10
2.033203347
 20
19.7562433307
 10
2.0616956765
 20
19.7711693193
 10
2.0918979249
 20
19.7835519803
 10
2.123885008
 20
19.7935410673
 10
2.1576754344
 20
19.80127223
 10
2.1932753734
 20
19.8067906873
 10
2.2306786556
 20
19.8100512276
 10
2.269885281
 20
19.8110538524
  0
LWPOLYLINE
  5
405
100
AcDbEntity
  8
RACCORDO
100
AcDbPolyline
 62
250
  6
CONTINUOUS
 90
3
 70
0
 10
0.0649210165
 20
-19.4007005808
 10
0.0646458243
 20
-19.4175833679
 10
0.0641459596
 20
-19.4677006561
  0
LWPOLYLINE
  5
406
100
AcDbEntity
  8
RACCORDO
100
AcDbPolyline
 62
250
  6
CONTINUOUS
 90
4
 70
0
 10
0.2649134011
 20
-19.5938857461
 10
0.264640027
 20
-19.6041911084
 10
0.2643828219
 20
-19.6175022873
 10
0.263914105
 20
-19.6534136726
  0
LINE
  5
407
100
AcDbEntity
  8
RACCORDO
100
AcDbLine
 62
250
  6
CONTINUOUS
 10
0.1992738542
 20
-15.2755396155
 11
0.0649210165
 21
-19.4007005808
  0
LINE
  5
408
100
AcDbEntity
  8
RACCORDO
100
AcDbLine
 62
250
  6
CONTINUOUS
 10
0.3987736215
 20
-15.4838500694
 11
0.2649134011
 21
-19.5938857461
  0
LWPOLYLINE
  5
409
100
AcDbEntity
  8
RACCORDO
100
AcDbPolyline
 62
7
  6
CONTINUOUS
 90
13
 70
0
 10
-0.3987736215
 20
-15.4838500694
 10
-0.3970285163
 20
-15.4562067425
 10
-0.3918217078
 20
-15.4291926459
 10
-0.3832724542
 20
-15.4032390196
 10
-0.3715630201
 20
-15.3787379785
 10
-0.3569172775
 20
-15.3560852013
 10
-0.3395835202
 20
-15.3356819
 10
-0.3198410578
 20
-15.3178312955
 10
-0.2980599277
 20
-15.3028242083
 10
-0.2746862143
 20
-15.2909642083
 10
-0.2501574065
 20
-15.2824237631
 10
-0.2248772972
 20
-15.2772688539
 10
-0.1992738542
 20
-15.2755396155
  0
LWPOLYLINE
  5
40A
100
AcDbEntity
  8
RACCORDO
100
AcDbPolyline
 62
250
  6
CONTINUOUS
 90
13
 70
0
 10
-0.2649134011
 20
-19.5938857461
 10
-0.2631484735
 20
-19.5687060081
 10
-0.2580015521
 20
-19.5439558661
 10
-0.2495604494
 20
-19.5200575867
 10
-0.2379691805
 20
-19.4974189026
 10
-0.2234255062
 20
-19.4764260564
 10
-0.2061775585
 20
-19.4574372108
 10
-0.1865196078
 20
-19.4407763378
 10
-0.1647870417
 20
-19.4267276916
 10
-0.1413506434
 20
-19.4155309587
 10
-0.1166102654
 20
-19.4073771687
 10
-0.0909880078
 20
-19.4024054348
 10
-0.0649210165
 20
-19.4007005808
  0
LINE
  5
40B
100
AcDbEntity
  8
0
100
AcDbLine
 62
7
  6
CONTINUOUS
 10
4.8059769277
 20
17.1336716024
 11
4.8393569746
 21
17.3172598605
  0
LINE
  5
40C
100
AcDbEntity
  8
0
100
AcDbLine
 62
7
  6
CONTINUOUS
 10
4.7809500026
 20
15.997433014
 11
4.8143300515
 21
16.1810212831
  0
LWPOLYLINE
  5
40D
100
AcDbEntity
  8
0
100
AcDbPolyline
 62
7
  6
CONTINUOUS
 90
31
 70
0
 10
5.081921212
 20
16.678294061
 10
5.0930533364
 20
16.7188567806
 10
5.1088658081
 20
16.7574004395
 10
5.1293586272
 20
16.7939250532
 10
5.1548174551
 20
16.8293590834
 10
5.1849566303
 20
16.862774093
 10
5.2189191685
 20
16.8913847675
 10
5.2570109855
 20
16.9142890551
 10
5.2989261655
 20
16.9323890611
 10
5.3428899774
 20
16.9456057191
 10
5.3889341217
 20
16.9539175069
 10
5.4370268979
 20
16.9573459682
 10
5.4852984733
 20
16.9558766281
 10
5.533812344
 20
16.9496821413
 10
5.5825050139
 20
16.9385898456
 10
5.6293161616
 20
16.9220672828
 10
5.6740183386
 20
16.8996010075
 10
5.7168389934
 20
16.8717044204
 10
5.7564001507
 20
16.8393853287
 10
5.79284674
 20
16.8022259279
 10
5.8260338317
 20
16.7606439583
 10
5.8541486616
 20
16.7169005627
 10
5.8763998164
 20
16.6708350105
 10
5.8935787093
 20
16.6226079929
 10
5.9062468163
 20
16.5749628291
 10
5.9141306958
 20
16.5285486761
 10
5.9175037894
 20
16.4827163929
 10
5.9177478978
 20
16.4382618851
 10
5.9152824209
 20
16.395308672
 10
5.9096879588
 20
16.3537332598
 10
5.9010881123
 20
16.3139610445
  0
LWPOLYLINE
  5
40E
100
AcDbEntity
  8
0
100
AcDbPolyline
 62
7
  6
CONTINUOUS
 90
16
 70
0
 10
5.9261165771
 20
17.4502041342
 10
5.9143852351
 20
17.4122770022
 10
5.8996486717
 20
17.3761528696
 10
5.882410974
 20
17.3421343794
 10
5.8627165981
 20
17.3103059981
 10
5.8405210879
 20
17.280583289
 10
5.8161951633
 20
17.2530155412
 10
5.7897284202
 20
17.227476206
 10
5.7611312627
 20
17.2040918556
 10
5.7308056224
 20
17.1832914611
 10
5.6985819002
 20
17.1651704341
 10
5.6646296954
 20
17.1496333841
 10
5.6298597372
 20
17.13682308
 10
5.5945756023
 20
17.1267871157
 10
5.5584737141
 20
17.1194779102
 10
5.5215540726
 20
17.1148954677
  0
LWPOLYLINE
  5
40F
100
AcDbEntity
  8
0
100
AcDbPolyline
 62
7
  6
CONTINUOUS
 90
16
 70
0
 10
5.9010881123
 20
16.3139610445
 10
5.8893559804
 20
16.2760329361
 10
5.8746184642
 20
16.2399080531
 10
5.8573798672
 20
16.2058891087
 10
5.8376846658
 20
16.1740606212
 10
5.8154883837
 20
16.1443381003
 10
5.7911618954
 20
16.116770748
 10
5.7646948216
 20
16.0912320421
 10
5.7360975416
 20
16.0678485268
 10
5.7057720677
 20
16.0470490054
 10
5.6735488545
 20
16.0289288964
 10
5.6395974473
 20
16.013392801
 10
5.604828494
 20
16.0005832971
 10
5.5695455437
 20
15.9905479148
 10
5.5334450473
 20
15.9832391361
 10
5.4965270048
 20
15.9786569649
  0
LINE
  5
410
100
AcDbEntity
  8
RACCORDO
100
AcDbLine
 62
7
  6
CONTINUOUS
 10
7.35
 20
6.6
 11
7.4372915245
 21
6.6872915245
  0
LINE
  5
411
100
AcDbEntity
  8
DRAFT
100
AcDbLine
 62
7
  6
CONTINUOUS
 10
-8.3325462644
 20
-9.4825462644
 11
-8.35
 21
-9.5
  0
LINE
  5
412
100
AcDbEntity
  8
RACCORDO
100
AcDbLine
 62
7
  6
CONTINUOUS
 10
-7.4372915245
 20
-8.5872915245
 11
-7.35
 21
-8.5
  0
LINE
  5
413
100
AcDbEntity
  8
RACCORDO
100
AcDbLine
 62
250
  6
CONTINUOUS
 10
7.4372915245
 20
4.9872801014
 11
7.35
 21
4.8999885769
  0
LINE
  5
414
100
AcDbEntity
  8
DRAFT
100
AcDbLine
 62
7
  6
CONTINUOUS
 10
-8.3325462644
 20
-10.8825462644
 11
-8.35
 21
-10.9
  0
LINE
  5
415
100
AcDbEntity
  8
DRAFT
100
AcDbLine
 62
7
  6
CONTINUOUS
 10
9.5810577445
 20
-8.5
 11
9.6587268678
 21
-8.5776691233
  0
LINE
  5
416
100
AcDbEntity
  8
RACCORDO
100
AcDbLine
 62
250
  6
CONTINUOUS
 10
-7.5001477533
 20
9.1001667918
 11
-7.4101132618
 21
9.0101323002
  0
LINE
  5
417
100
AcDbEntity
  8
RACCORDO
100
AcDbLine
 62
250
  6
CONTINUOUS
 10
-7.0000849512
 20
9.6000659127
 11
-6.9101323002
 21
9.5101132618
  0
LWPOLYLINE
  5
418
100
AcDbEntity
  8
0
100
AcDbPolyline
 62
7
  6
CONTINUOUS
 90
28
 70
0
 10
2.6024478439
 20
19.3543359591
 10
2.6006036243
 20
19.4026691907
 10
2.5946437145
 20
19.4479965978
 10
2.5845681147
 20
19.4903182121
 10
2.5702927288
 20
19.5298223262
 10
2.5519016527
 20
19.5663207036
 10
2.5296471745
 20
19.5992485846
 10
2.5032296878
 20
19.6286623103
 10
2.4729487988
 20
19.6545055917
 10
2.4399556139
 20
19.6760447289
 10
2.4040400191
 20
19.6930425255
 10
2.3654121284
 20
19.705736218
 10
2.3258533903
 20
19.7141037528
 10
2.2853257113
 20
19.7180425726
 10
2.2438671848
 20
19.7176552474
 10
2.2033735397
 20
19.713227408
 10
2.1639026993
 20
19.7048799483
 10
2.1253967403
 20
19.6924919622
 10
2.0895776217
 20
19.6759863745
 10
2.0566005084
 20
19.6551107853
 10
2.0263102356
 20
19.6301175572
 10
1.9999632672
 20
19.6016867566
 10
1.9779138496
 20
19.5697977369
 10
1.9598077365
 20
19.5344710955
 10
1.9458386527
 20
19.4964487706
 10
1.9360711734
 20
19.4559780612
 10
1.9304407235
 20
19.4128116203
 10
1.9289473031
 20
19.366949421
  0
LWPOLYLINE
  5
419
100
AcDbEntity
  8
0
100
AcDbPolyline
 62
7
  6
CONTINUOUS
 90
34
 70
0
 10
3.3075273882
 20
17.8832936783
 10
3.3073653898
 20
17.9092685048
 10
3.3062711021
 20
17.9351610072
 10
3.3042445252
 20
17.9609711859
 10
3.3013880934
 20
17.9867706031
 10
3.2975993723
 20
18.0124876971
 10
3.2925710591
 20
18.037907784
 10
3.2862852736
 20
18.0630389033
 10
3.2787598959
 20
18.0878730185
 10
3.2697412642
 20
18.1121713345
 10
3.2591360825
 20
18.1359790009
 10
3.2470376468
 20
18.1592508734
 10
3.2334721831
 20
18.181612719
 10
3.2184051866
 20
18.2030876541
 10
3.2018711623
 20
18.2236525709
 10
3.1839998509
 20
18.2428639036
 10
3.1647106507
 20
18.2606255734
 10
3.1440841635
 20
18.2770336705
 10
3.1224919362
 20
18.2919328843
 10
3.0998838027
 20
18.3051987223
 10
3.0763099291
 20
18.3169556866
 10
3.05229236
 20
18.3274219583
 10
3.0278979923
 20
18.3365789802
 10
3.0030599291
 20
18.344445315
 10
2.9780995247
 20
18.3512948215
 10
2.9531143431
 20
18.3571438619
 10
2.9280068202
 20
18.3619760769
 10
2.9028056184
 20
18.3660162408
 10
2.8775164811
 20
18.369276268
 10
2.8521336648
 20
18.3717442455
 10
2.8266686012
 20
18.3736092067
 10
2.8011251006
 20
18.3749341629
 10
2.7754993526
 20
18.3756561033
 10
2.7497913572
 20
18.3757750279
  0
LINE
  5
41A
100
AcDbEntity
  8
0
100
AcDbLine
 62
7
  6
CONTINUOUS
 10
2.018425
 20
13.206714
 11
2.018425
 21
14.042849
  0
LINE
  5
41B
100
AcDbEntity
  8
0
100
AcDbLine
 62
7
  6
CONTINUOUS
 10
2.018425
 20
15.962987
 11
2.018425
 21
16.799122
  0
LINE
  5
41C
100
AcDbEntity
  8
0
100
AcDbLine
 62
7
  6
CONTINUOUS
 10
2.49532
 20
13.206714
 11
2.49532
 21
13.986125
  0
LINE
  5
41D
100
AcDbEntity
  8
0
100
AcDbLine
 62
7
  6
CONTINUOUS
 10
2.49532
 20
15.962987
 11
2.49532
 21
16.742441
  0
LINE
  5
41E
100
AcDbEntity
  8
0
100
AcDbLine
 62
7
  6
CONTINUOUS
 10
2.6024478439
 20
18.826092889
 11
2.6024478439
 21
19.3543359591
  0
LINE
  5
41F
100
AcDbEntity
  8
0
100
AcDbLine
 62
7
  6
CONTINUOUS
 10
2.663401
 20
13.206714
 11
2.663401
 21
13.986125
  0
LINE
  5
420
100
AcDbEntity
  8
0
100
AcDbLine
 62
7
  6
CONTINUOUS
 10
2.663401
 20
15.962987
 11
2.663401
 21
16.742441
  0
LINE
  5
421
100
AcDbEntity
  8
0
100
AcDbLine
 62
7
  6
CONTINUOUS
 10
2.6824352277
 20
18.826092889
 11
2.6824352277
 21
19.3396186624
  0
LINE
  5
422
100
AcDbEntity
  8
DRAFT
100
AcDbLine
 62
7
  6
CONTINUOUS
 10
3.1
 20
-21.2
 11
3.1
 21
-22.4
  0
LINE
  5
423
100
AcDbEntity
  8
DRAFT
100
AcDbLine
 62
7
  6
CONTINUOUS
 10
3.1
 20
21.2
 11
3.1
 21
22.4
  0
LINE
  5
424
100
AcDbEntity
  8
0
100
AcDbLine
 62
7
  6
CONTINUOUS
 10
3.182302
 20
13.206714
 11
3.182302
 21
14.049148
  0
LINE
  5
425
100
AcDbEntity
  8
0
100
AcDbLine
 62
7
  6
CONTINUOUS
 10
3.182302
 20
15.962987
 11
3.182302
 21
16.80545
  0
LINE
  5
426
100
AcDbEntity
  8
0
100
AcDbLine
 62
7
  6
CONTINUOUS
 10
3.350368
 20
11.393697
 11
3.350368
 21
11.582765
  0
LINE
  5
427
100
AcDbEntity
  8
0
100
AcDbLine
 62
7
  6
CONTINUOUS
 10
3.350368
 20
12.370609
 11
3.350368
 21
12.589099
  0
LINE
  5
428
100
AcDbEntity
  8
0
100
AcDbLine
 62
7
  6
CONTINUOUS
 10
3.350368
 20
13.007122
 11
3.350368
 21
14.049148
  0
LINE
  5
429
100
AcDbEntity
  8
0
100
AcDbLine
 62
7
  6
CONTINUOUS
 10
3.350368
 20
15.763409
 11
3.350368
 21
16.80545
  0
LINE
  5
42A
100
AcDbEntity
  8
0
100
AcDbLine
 62
7
  6
CONTINUOUS
 10
3.350372
 20
14.748703
 11
3.350372
 21
14.975583
  0
LINE
  5
42B
100
AcDbEntity
  8
0
100
AcDbLine
 62
7
  6
CONTINUOUS
 10
3.3517129103
 20
18.7334347608
 11
3.3517129103
 21
18.826092889
  0
LWPOLYLINE
  5
42C
100
AcDbEntity
  8
RACCORDO
100
AcDbPolyline
 62
7
  6
CONTINUOUS
 90
13
 70
0
 10
4.5005183986
 20
12.6055139921
 10
4.5022898556
 20
12.6335600218
 10
4.5075421436
 20
12.6609091392
 10
4.516145786
 20
12.6871399703
 10
4.527906565
 20
12.7118811896
 10
4.5425923585
 20
12.7347414304
 10
4.5599546744
 20
12.755304661
 10
4.5797166019
 20
12.7732792014
 10
4.6015002733
 20
12.7883850794
 10
4.6248464775
 20
12.8003033263
 10
4.6493117674
 20
12.8088663423
 10
4.6744965068
 20
12.8140293097
 10
4.6999758602
 20
12.8157624759
  0
LWPOLYLINE
  5
42D
100
AcDbEntity
  8
0
100
AcDbPolyline
 62
7
  6
CONTINUOUS
 90
7
 70
0
 10
5.047979909
 20
17.4973930116
 10
5.0485241971
 20
17.5020824117
 10
5.0489855047
 20
17.5068714444
 10
5.049363832
 20
17.5117601095
 10
5.0496591788
 20
17.5167484069
 10
5.0498715452
 20
17.5218363364
 10
5.0500009312
 20
17.527023898
  0
LWPOLYLINE
  5
42E
100
AcDbEntity
  8
0
100
AcDbPolyline
 62
7
  6
CONTINUOUS
 90
7
 70
0
 10
5.022952581
 20
16.3611540532
 10
5.0234968794
 20
16.3658435041
 10
5.0239581964
 20
16.3706325962
 10
5.0243365321
 20
16.3755213294
 10
5.0246318864
 20
16.3805097035
 10
5.0248442594
 20
16.3855977185
 10
5.024973651
 20
16.3907853743
  0
LINE
  5
42F
100
AcDbEntity
  8
DRAFT
100
AcDbLine
 62
7
  6
CONTINUOUS
 10
-2.6768152463
 20
-21.2
 11
-3.0118365096
 21
-22.4
  0
LINE
  5
430
100
AcDbEntity
  8
DRAFT
100
AcDbLine
 62
7
  6
CONTINUOUS
 10
-3.9733373476
 20
-23.5
 11
-3.9526845545
 21
-23.4301797403
  0
LINE
  5
431
100
AcDbEntity
  8
DRAFT
100
AcDbLine
 62
7
  6
CONTINUOUS
 10
9.5810577445
 20
6.6
 11
9.6587268678
 21
6.6776691233
  0
LINE
  5
432
100
AcDbEntity
  8
RACCORDO
100
AcDbLine
 62
250
  6
CONTINUOUS
 10
7.7372801014
 20
4.6872915245
 11
7.6499885769
 21
4.6
  0
LINE
  5
433
100
AcDbEntity
  8
DRAFT
100
AcDbLine
 62
7
  6
CONTINUOUS
 10
-9.5810577445
 20
-12.8
 11
-9.6587268678
 21
-12.8776691233
  0
LINE
  5
434
100
AcDbEntity
  8
DRAFT
100
AcDbLine
 62
7
  6
CONTINUOUS
 10
-7.4825462644
 20
-10.8825462644
 11
-7.5
 21
-10.9
  0
LINE
  5
435
100
AcDbEntity
  8
RACCORDO
100
AcDbLine
 62
7
  6
CONTINUOUS
 10
-5.5000659127
 20
9.6000659127
 11
-5.4256357545
 21
9.5256357545
  0
LINE
  5
436
100
AcDbEntity
  8
DRAFT
100
AcDbLine
 62
7
  6
CONTINUOUS
 10
-3.9733373476
 20
23.5
 11
-3.9526845545
 21
23.4301797403
  0
LINE
  5
437
100
AcDbEntity
  8
DRAFT
100
AcDbLine
 62
7
  6
CONTINUOUS
 10
-3.0118365096
 20
22.4
 11
-2.6768152463
 21
21.2
  0
LWPOLYLINE
  5
438
100
AcDbEntity
  8
RACCORDO
100
AcDbPolyline
 62
250
  6
CONTINUOUS
 90
13
 70
0
 10
6.6598468471
 20
-20.1171572875
 10
6.66166905
 20
-20.1353593577
 10
6.6668092065
 20
-20.1533149498
 10
6.67521242
 20
-20.1707191451
 10
6.6867803067
 20
-20.1872875146
 10
6.7013382517
 20
-20.2027109185
 10
6.7186088814
 20
-20.2166740213
 10
6.7382822012
 20
-20.2289285414
 10
6.7600355757
 20
-20.2392755665
 10
6.7834819673
 20
-20.2475324589
 10
6.8082132153
 20
-20.2535604456
 10
6.8338112531
 20
-20.2572623286
 10
6.8598392317
 20
-20.2585786438
  0
LINE
  5
439
100
AcDbEntity
  8
RACCORDO
100
AcDbLine
 62
250
  6
CONTINUOUS
 10
4.5743642455
 20
9.5256357545
 11
4.5005183986
 21
12.6055139921
  0
LINE
  5
43A
100
AcDbEntity
  8
RACCORDO
100
AcDbLine
 62
250
  6
CONTINUOUS
 10
4.7789877969
 20
9.5204228659
 11
4.6999758602
 21
12.8157624759
  0
LINE
  5
43B
100
AcDbEntity
  8
DRAFT
100
AcDbLine
 62
7
  6
CONTINUOUS
 10
3.75
 20
21.2
 11
3.75
 21
21.1647852141
  0
LINE
  5
43C
100
AcDbEntity
  8
DRAFT
100
AcDbLine
 62
7
  6
CONTINUOUS
 10
3.75
 20
-21.2
 11
3.75
 21
-21.1647852141
  0
LINE
  5
43D
100
AcDbEntity
  8
RACCORDO
100
AcDbLine
 62
250
  6
CONTINUOUS
 10
5.3000241398
 20
12.8157624759
 11
5.2210122031
 21
9.5204228659
  0
LINE
  5
43E
100
AcDbEntity
  8
RACCORDO
100
AcDbLine
 62
250
  6
CONTINUOUS
 10
5.4994816014
 20
12.6055139921
 11
5.4256357545
 21
9.5256357545
  0
LINE
  5
43F
100
AcDbEntity
  8
0
100
AcDbLine
 62
7
  6
CONTINUOUS
 10
8.1826739788
 20
17.2156888291
 11
8.2154160619
 21
17.3998636052
  0
LINE
  5
440
100
AcDbEntity
  8
0
100
AcDbLine
 62
7
  6
CONTINUOUS
 10
8.1826739788
 20
16.0502727672
 11
8.2154160619
 21
16.2344475433
  0
LWPOLYLINE
  5
441
100
AcDbEntity
  8
0
100
AcDbPolyline
 62
7
  6
CONTINUOUS
 90
10
 70
0
 10
8.4875852644
 20
17.8991814896
 10
8.4946743781
 20
17.9264878403
 10
8.5035572425
 20
17.9528263407
 10
8.5142338577
 20
17.9781969962
 10
8.5267219247
 20
18.0027564853
 10
8.5410037425
 20
18.0263481394
 10
8.5570262079
 20
18.0485019453
 10
8.5747716198
 20
18.0690612372
 10
8.5942576793
 20
18.0881826946
 10
8.6154843865
 20
18.1058663235
  0
LWPOLYLINE
  5
442
100
AcDbEntity
  8
0
100
AcDbPolyline
 62
7
  6
CONTINUOUS
 90
10
 70
0
 10
8.4875852644
 20
16.733765249
 10
8.4946742829
 20
16.7610714447
 10
8.5035570743
 20
16.7874098423
 10
8.5142336388
 20
16.8127804468
 10
8.5267216785
 20
16.8373399489
 10
8.5410034913
 20
16.8609316671
 10
8.5570259705
 20
16.88308555
 10
8.574771414
 20
16.9036449191
 10
8.5942575239
 20
16.9227664659
 10
8.6154843003
 20
16.940450196
  0
LINE
  5
443
100
AcDbEntity
  8
RACCORDO
100
AcDbLine
 62
7
  6
CONTINUOUS
 10
-7.4118434042
 20
-13.7118434042
 11
-7.4992056137
 21
-13.7992056137
  0
LINE
  5
444
100
AcDbEntity
  8
RACCORDO
100
AcDbLine
 62
250
  6
CONTINUOUS
 10
-7.4101132618
 20
-14.6101323002
 11
-7.4989810696
 21
-14.699000108
  0
LWPOLYLINE
  5
445
100
AcDbEntity
  8
RACCORDO
100
AcDbPolyline
 62
7
  6
CONTINUOUS
 90
15
 70
0
 10
-7.734662139
 20
4.6873031474
 10
-7.7058234815
 20
4.6889477397
 10
-7.6747124661
 20
4.6938935961
 10
-7.6442901712
 20
4.7020749475
 10
-7.6148880968
 20
4.7134037823
 10
-7.586835119
 20
4.7277545595
 10
-7.5604517671
 20
4.7449613849
 10
-7.5360334618
 20
4.7648253467
 10
-7.5138388545
 20
4.7871292981
 10
-7.4941014952
 20
4.8116361252
 10
-7.477012826
 20
4.8381218667
 10
-7.4627967555
 20
4.8662553946
 10
-7.4516544309
 20
4.8955896771
 10
-7.4436760233
 20
4.9257411729
 10
-7.4398981132
 20
4.947842643
  0
LINE
  5
446
100
AcDbEntity
  8
RACCORDO
100
AcDbLine
 62
250
  6
CONTINUOUS
 10
-7.7372801014
 20
4.6872915245
 11
-7.734662139
 21
4.6873031474
  0
LINE
  5
447
100
AcDbEntity
  8
RACCORDO
100
AcDbLine
 62
7
  6
CONTINUOUS
 10
8.5
 20
4.6
 11
7.6499885769
 21
4.6
  0
LINE
  5
448
100
AcDbEntity
  8
RACCORDO
100
AcDbLine
 62
7
  6
CONTINUOUS
 10
-7.6499885769
 20
4.6
 11
-8.5
 21
4.6
  0
LINE
  5
449
100
AcDbEntity
  8
RACCORDO
100
AcDbLine
 62
7
  6
CONTINUOUS
 10
-8.4127084755
 20
4.6872915245
 11
-7.7372801014
 21
4.6872915245
  0
LINE
  5
44A
100
AcDbEntity
  8
RACCORDO
100
AcDbLine
 62
7
  6
CONTINUOUS
 10
7.7372801014
 20
4.6872915245
 11
8.4127084755
 21
4.6872915245
  0
LINE
  5
44B
100
AcDbEntity
  8
RACCORDO
100
AcDbLine
 62
250
  6
CONTINUOUS
 10
-8.4101132618
 20
4.9872801014
 11
-7.4372915245
 21
4.9872801014
  0
LINE
  5
44C
100
AcDbEntity
  8
RACCORDO
100
AcDbLine
 62
250
  6
CONTINUOUS
 10
7.4372915245
 20
4.9872801014
 11
8.4101132618
 21
4.9872801014
  0
LWPOLYLINE
  5
44D
100
AcDbEntity
  8
RACCORDO
100
AcDbPolyline
 62
250
  6
CONTINUOUS
 90
16
 70
0
 10
7.7372801014
 20
4.6872915245
 10
7.705924271
 20
4.6889371219
 10
7.6749119484
 20
4.6938511109
 10
7.6445828781
 20
4.7019796578
 10
7.6152693196
 20
4.7132337133
 10
7.5872924073
 20
4.7274899875
 10
7.5609586324
 20
4.7445923008
 10
7.5365564852
 20
4.764353295
 10
7.514353295
 20
4.7865564852
 10
7.4945923008
 20
4.8109586324
 10
7.4774899875
 20
4.8372924073
 10
7.4632337133
 20
4.8652693196
 10
7.4519796578
 20
4.8945828781
 10
7.4438511109
 20
4.9249119484
 10
7.4389371219
 20
4.955924271
 10
7.4372915245
 20
4.9872801014
  0
LINE
  5
44E
100
AcDbEntity
  8
RACCORDO
100
AcDbLine
 62
7
  6
CONTINUOUS
 10
7.4372915245
 20
-0.8872915245
 11
7.35
 21
-0.8
  0
LINE
  5
44F
100
AcDbEntity
  8
0
100
AcDbLine
 62
7
  6
CONTINUOUS
 10
5.5465970284
 20
14.8458336597
 11
5.5319929997
 21
15.0210770037
  0
LWPOLYLINE
  5
450
100
AcDbEntity
  8
0
100
AcDbPolyline
 62
7
  6
CONTINUOUS
 90
27
 70
0
 10
5.0241793071
 20
16.414094556
 10
5.022323363
 20
16.4367147489
 10
5.0194058189
 20
16.4586459562
 10
5.0153525373
 20
16.4799699265
 10
5.0102376555
 20
16.5006049167
 10
5.0042835859
 20
16.5203056932
 10
4.9974804694
 20
16.5390743494
 10
4.989838165
 20
16.5569087991
 10
4.9816086621
 20
16.5735575407
 10
4.9728200381
 20
16.5889029136
 10
4.9634442155
 20
16.6030625862
 10
4.9536489508
 20
16.6161380514
 10
4.9434407999
 20
16.6281581174
 10
4.9328132068
 20
16.6390939814
 10
4.9219142607
 20
16.6489607181
 10
4.9107664927
 20
16.6577378371
 10
4.8993473716
 20
16.6654458329
 10
4.8877373928
 20
16.6721612576
 10
4.8759558233
 20
16.6778268382
 10
4.8639833962
 20
16.6824998502
 10
4.8518428051
 20
16.6864286673
 10
4.8395261843
 20
16.6896423723
 10
4.8270413996
 20
16.6921118836
 10
4.8144347425
 20
16.693998328
 10
4.8017216435
 20
16.6953554145
 10
4.788886672
 20
16.6961294346
 10
4.7759298282
 20
16.6963203882
  0
LWPOLYLINE
  5
451
100
AcDbEntity
  8
0
100
AcDbPolyline
 62
7
  6
CONTINUOUS
 90
27
 70
0
 10
5.0492065848
 20
17.5503328332
 10
5.047350691
 20
17.5729527213
 10
5.04443325
 20
17.5948835657
 10
5.0403801251
 20
17.6162070845
 10
5.0352654529
 20
17.6368415656
 10
5.0293116433
 20
17.6565418679
 10
5.0225088552
 20
17.6753100921
 10
5.0148669297
 20
17.6931441452
 10
5.0066378007
 20
17.7097925973
 10
4.9978495439
 20
17.7251378151
 10
4.9884740836
 20
17.7392974403
 10
4.9786791258
 20
17.7523729548
 10
4.9684712168
 20
17.7643931791
 10
4.9578438103
 20
17.7753292985
 10
4.9469449738
 20
17.7851963414
 10
4.9357972294
 20
17.7939738252
 10
4.9243780551
 20
17.8016822369
 10
4.9127679516
 20
17.8083980583
 10
4.9009861768
 20
17.8140640041
 10
4.889013473
 20
17.8187373624
 10
4.8768725675
 20
17.8226664747
 10
4.8645556011
 20
17.8258804102
 10
4.8520704331
 20
17.8283501009
 10
4.8394633693
 20
17.8302366827
 10
4.8267498448
 20
17.8315938676
 10
4.8139144246
 20
17.832367944
 10
4.8009571084
 20
17.8325589119
  0
LWPOLYLINE
  5
452
100
AcDbEntity
  8
RACCORDO
100
AcDbPolyline
 62
7
  6
CONTINUOUS
 90
12
 70
0
 10
7.3089365232
 20
-18.7
 10
7.3071842988
 20
-18.6739981974
 10
7.3020705504
 20
-18.6484605873
 10
7.2936811322
 20
-18.6238056948
 10
7.2821620547
 20
-18.6004322166
 10
7.2677050687
 20
-18.5787289921
 10
7.250536297
 20
-18.5590736936
 10
7.2309257685
 20
-18.5417887896
 10
7.209212759
 20
-18.5271768639
 10
7.1857903053
 20
-18.5155248943
 10
7.1610692283
 20
-18.5070349419
 10
7.1354636732
 20
-18.5018319132
  0
LWPOLYLINE
  5
453
100
AcDbEntity
  8
RACCORDO
100
AcDbPolyline
 62
250
  6
CONTINUOUS
 90
16
 70
0
 10
6.7139945176
 20
-14.6859445605
 10
6.7114836063
 20
-14.6429423905
 10
6.7048548871
 20
-14.6014268298
 10
6.6941083598
 20
-14.5613978784
 10
6.6790133077
 20
-14.5224808899
 10
6.6598004475
 20
-14.4850505108
 10
6.63716193
 20
-14.4502306799
 10
6.611047444
 20
-14.4181205214
 10
6.5815073006
 20
-14.3886209112
 10
6.5493845834
 20
-14.3625584156
 10
6.5145916152
 20
-14.3399867233
 10
6.4772160733
 20
-14.3208521455
 10
6.4383640731
 20
-14.3058201826
 10
6.3984043201
 20
-14.2951126678
 10
6.3569681089
 20
-14.2885077677
 10
6.3140554395
 20
-14.2860054824
  0
LINE
  5
454
100
AcDbEntity
  8
RACCORDO
100
AcDbLine
 62
7
  6
CONTINUOUS
 10
7.3652902967
 20
-10.2089415249
 11
7.35
 21
-9.9
  0
LWPOLYLINE
  5
455
100
AcDbEntity
  8
0
100
AcDbPolyline
 62
7
  6
CONTINUOUS
 90
7
 70
0
 10
5.1632190205
 20
16.4703229305
 10
5.1641218293
 20
16.4494815149
 10
5.1660217482
 20
16.428338334
 10
5.1689187771
 20
16.4068933867
 10
5.172812916
 20
16.3851466717
 10
5.177704165
 20
16.3630981877
 10
5.183592524
 20
16.3407479334
  0
LWPOLYLINE
  5
456
100
AcDbEntity
  8
0
100
AcDbPolyline
 62
7
  6
CONTINUOUS
 90
7
 70
0
 10
5.1882463007
 20
17.6065614542
 10
5.1891490945
 20
17.5857201654
 10
5.1910489941
 20
17.5645771
 10
5.1939459994
 20
17.5431322565
 10
5.1978401105
 20
17.5213856336
 10
5.2027313274
 20
17.4993372301
 10
5.20861965
 20
17.4769870445
  0
LINE
  5
457
100
AcDbEntity
  8
0
100
AcDbLine
 62
7
  6
CONTINUOUS
 10
5.024973651
 20
16.3907853743
 11
5.0241793071
 21
16.414094556
  0
LINE
  5
458
100
AcDbEntity
  8
0
100
AcDbLine
 62
7
  6
CONTINUOUS
 10
5.0500009312
 20
17.527023898
 11
5.0492065848
 21
17.5503328332
  0
LINE
  5
459
100
AcDbEntity
  8
RACCORDO
100
AcDbLine
 62
250
  6
CONTINUOUS
 10
6.6200664561
 20
-18.7
 11
6.5153193024
 21
-15.4838500694
  0
LINE
  5
45A
100
AcDbEntity
  8
RACCORDO
100
AcDbLine
 62
250
  6
CONTINUOUS
 10
6.8198368876
 20
-18.5
 11
6.7148190698
 21
-15.2755396155
  0
LWPOLYLINE
  5
45B
100
AcDbEntity
  8
RACCORDO
100
AcDbPolyline
 62
250
  6
CONTINUOUS
 90
4
 70
0
 10
6.8578578063
 20
-18.5150140994
 10
6.8576438685
 20
-18.5064813307
 10
6.8574316569
 20
-18.5015710626
 10
6.8572211714
 20
-18.5
  0
LWPOLYLINE
  5
45C
100
AcDbEntity
  8
RACCORDO
100
AcDbPolyline
 62
250
  6
CONTINUOUS
 90
6
 70
0
 10
6.6583046098
 20
-18.7265437307
 10
6.6580841085
 20
-18.716615698
 10
6.657865331
 20
-18.7090041918
 10
6.6576514257
 20
-18.703686268
 10
6.6574392443
 20
-18.7006848708
 10
6.6572287868
 20
-18.7
  0
LINE
  5
45D
100
AcDbEntity
  8
RACCORDO
100
AcDbLine
 62
250
  6
CONTINUOUS
 10
7.0425072881
 20
-21.0094865114
 11
7.0294001425
 21
-20.2585786438
  0
LINE
  5
45E
100
AcDbEntity
  8
RACCORDO
100
AcDbLine
 62
250
  6
CONTINUOUS
 10
7.2419286989
 20
-20.8366629075
 11
7.2293696815
 21
-20.1171572875
  0
LINE
  5
45F
100
AcDbEntity
  8
RACCORDO
100
AcDbLine
 62
250
  6
CONTINUOUS
 10
6.6587222959
 20
-18.7537847546
 11
6.6583046098
 21
-18.7265437307
  0
LINE
  5
460
100
AcDbEntity
  8
RACCORDO
100
AcDbLine
 62
250
  6
CONTINUOUS
 10
6.8582971659
 20
-18.5441249132
 11
6.8578578063
 21
-18.5150140994
  0
LINE
  5
461
100
AcDbEntity
  8
RACCORDO
100
AcDbLine
 62
250
  6
CONTINUOUS
 10
6.6558702077
 20
20.5728350282
 11
6.6598468471
 21
20.1171572875
  0
LINE
  5
462
100
AcDbEntity
  8
RACCORDO
100
AcDbLine
 62
250
  6
CONTINUOUS
 10
6.8556039598
 20
20.7438927334
 11
6.8598392317
 21
20.2585786438
  0
LINE
  5
463
100
AcDbEntity
  8
RACCORDO
100
AcDbLine
 62
250
  6
CONTINUOUS
 10
6.6592621331
 20
-18.8111757577
 11
6.6587222959
 21
-18.7537847546
  0
LINE
  5
464
100
AcDbEntity
  8
RACCORDO
100
AcDbLine
 62
250
  6
CONTINUOUS
 10
6.8589120864
 20
-18.6182987477
 11
6.8582971659
 21
-18.5441249132
  0
LINE
  5
465
100
AcDbEntity
  8
RACCORDO
100
AcDbLine
 62
250
  6
CONTINUOUS
 10
6.6597765552
 20
-18.9309505556
 11
6.6592621331
 21
-18.8111757577
  0
LINE
  5
466
100
AcDbEntity
  8
RACCORDO
100
AcDbLine
 62
250
  6
CONTINUOUS
 10
7.0294550094
 20
18.9247049701
 11
7.0302764824
 21
18.7233617167
  0
LINE
  5
467
100
AcDbEntity
  8
RACCORDO
100
AcDbLine
 62
250
  6
CONTINUOUS
 10
6.8597689629
 20
-18.8849468367
 11
6.8589120864
 21
-18.6182987477
  0
LINE
  5
468
100
AcDbEntity
  8
RACCORDO
100
AcDbLine
 62
250
  6
CONTINUOUS
 10
6.6598468471
 20
-19.0
 11
6.6597765552
 21
-18.9309505556
  0
LINE
  5
469
100
AcDbEntity
  8
RACCORDO
100
AcDbLine
 62
250
  6
CONTINUOUS
 10
6.3140554395
 20
-14.2860054824
 11
6.3140554396
 21
-14.4859750215
  0
LINE
  5
46A
100
AcDbEntity
  8
RACCORDO
100
AcDbLine
 62
250
  6
CONTINUOUS
 10
6.3140554397
 20
8.3860054824
 11
6.3140554396
 21
8.5859750215
  0
LINE
  5
46B
100
AcDbEntity
  8
DRAFT
100
AcDbLine
 62
7
  6
CONTINUOUS
 10
6.5
 20
-12.8898867382
 11
6.5
 21
-13.6
  0
LINE
  5
46C
100
AcDbEntity
  8
RACCORDO
100
AcDbLine
 62
7
  6
CONTINUOUS
 10
6.5
 20
-15.1188401295
 11
6.5
 21
-14.699969539
  0
LINE
  5
46D
100
AcDbEntity
  8
DRAFT
100
AcDbLine
 62
7
  6
CONTINUOUS
 10
6.5
 20
-12.8836351166
 11
6.5
 21
-12.5
  0
LINE
  5
46E
100
AcDbEntity
  8
RACCORDO
100
AcDbLine
 62
7
  6
CONTINUOUS
 10
6.5
 20
-12.5
 11
6.5
 21
-10.2089415249
  0
LINE
  5
46F
100
AcDbEntity
  8
0
100
AcDbLine
 62
7
  6
CONTINUOUS
 10
6.5
 20
-10.2089415249
 11
6.5
 21
-9.9
  0
LINE
  5
470
100
AcDbEntity
  8
DRAFT
100
AcDbLine
 62
7
  6
CONTINUOUS
 10
6.5
 20
6.6
 11
6.5
 21
6.675051063
  0
LINE
  5
471
100
AcDbEntity
  8
DRAFT
100
AcDbLine
 62
7
  6
CONTINUOUS
 10
6.5
 20
6.6898867382
 11
6.5
 21
7.3
  0
LINE
  5
472
100
AcDbEntity
  8
RACCORDO
100
AcDbLine
 62
7
  6
CONTINUOUS
 10
6.5
 20
8.799969539
 11
6.5
 21
9.5188401295
  0
LINE
  5
473
100
AcDbEntity
  8
RACCORDO
100
AcDbLine
 62
250
  6
CONTINUOUS
 10
6.5140249785
 20
9.5118281743
 11
6.5140249785
 21
8.7859445605
  0
LINE
  5
474
100
AcDbEntity
  8
RACCORDO
100
AcDbLine
 62
250
  6
CONTINUOUS
 10
6.5140249785
 20
-14.6859445605
 11
6.5140249785
 21
-15.1118281743
  0
LINE
  5
475
100
AcDbEntity
  8
RACCORDO
100
AcDbLine
 62
7
  6
CONTINUOUS
 10
6.6598468471
 20
20.1171572875
 11
6.6598468471
 21
19.0
  0
LINE
  5
476
100
AcDbEntity
  8
RACCORDO
100
AcDbLine
 62
7
  6
CONTINUOUS
 10
6.6598468471
 20
-20.1171572875
 11
6.6598468471
 21
-19.0
  0
LINE
  5
477
100
AcDbEntity
  8
RACCORDO
100
AcDbLine
 62
250
  6
CONTINUOUS
 10
6.7139945176
 20
9.5101132618
 11
6.7139945176
 21
8.7859445605
  0
LINE
  5
478
100
AcDbEntity
  8
RACCORDO
100
AcDbLine
 62
250
  6
CONTINUOUS
 10
6.7139945176
 20
-14.6859445605
 11
6.7139945176
 21
-15.1101132618
  0
LINE
  5
479
100
AcDbEntity
  8
0
100
AcDbLine
 62
7
  6
CONTINUOUS
 10
6.85
 20
5.9000114231
 11
6.85
 21
-9.6000114231
  0
LINE
  5
47A
100
AcDbEntity
  8
RACCORDO
100
AcDbLine
 62
250
  6
CONTINUOUS
 10
6.8598392317
 20
-20.2585786438
 11
6.8597689629
 21
-18.8849468367
  0
LINE
  5
47B
100
AcDbEntity
  8
RACCORDO
100
AcDbLine
 62
250
  6
CONTINUOUS
 10
7.0294550094
 20
18.9247049701
 11
7.0294001425
 21
20.2585786438
  0
LINE
  5
47C
100
AcDbEntity
  8
RACCORDO
100
AcDbLine
 62
250
  6
CONTINUOUS
 10
6.8598392317
 20
20.2585786438
 11
6.8592321097
 21
18.680119168
  0
LINE
  5
47D
100
AcDbEntity
  8
RACCORDO
100
AcDbLine
 62
250
  6
CONTINUOUS
 10
7.0294001425
 20
-20.2585786438
 11
7.0298548336
 21
-18.7965852095
  0
LINE
  5
47E
100
AcDbEntity
  8
RACCORDO
100
AcDbLine
 62
250
  6
CONTINUOUS
 10
6.6598468471
 20
19.0
 11
6.6595136005
 21
18.8535433431
  0
LINE
  5
47F
100
AcDbEntity
  8
RACCORDO
100
AcDbLine
 62
250
  6
CONTINUOUS
 10
7.0298548336
 20
-18.7965852095
 11
7.0303183743
 21
-18.7173757426
  0
LINE
  5
480
100
AcDbEntity
  8
RACCORDO
100
AcDbLine
 62
250
  6
CONTINUOUS
 10
6.8592321097
 20
18.680119168
 11
6.8584924692
 21
18.5629094242
  0
LINE
  5
481
100
AcDbEntity
  8
RACCORDO
100
AcDbLine
 62
250
  6
CONTINUOUS
 10
6.6558702077
 20
-20.5728350282
 11
6.6598468471
 21
-20.1171572875
  0
LINE
  5
482
100
AcDbEntity
  8
RACCORDO
100
AcDbLine
 62
250
  6
CONTINUOUS
 10
6.8598392317
 20
-20.2585786438
 11
6.8556039598
 21
-20.7438927334
  0
LINE
  5
483
100
AcDbEntity
  8
RACCORDO
100
AcDbLine
 62
250
  6
CONTINUOUS
 10
6.6595136005
 20
18.8535433431
 11
6.6588973716
 21
18.7689459352
  0
LWPOLYLINE
  5
484
100
AcDbEntity
  8
RACCORDO
100
AcDbPolyline
 62
250
  6
CONTINUOUS
 90
6
 70
0
 10
6.8584924692
 20
18.5629094242
 10
6.858064508
 20
18.5266899656
 10
6.8578486339
 20
18.5145705883
 10
6.8576376605
 20
18.5062894614
 10
6.8574285063
 20
18.5015245103
 10
6.8572211714
 20
18.5
  0
LWPOLYLINE
  5
485
100
AcDbEntity
  8
RACCORDO
100
AcDbPolyline
 62
250
  6
CONTINUOUS
 90
8
 70
0
 10
6.6588973716
 20
18.7689459352
 10
6.6584997794
 20
18.7377324992
 10
6.6582894158
 20
18.7257751843
 10
6.6580716079
 20
18.716126526
 10
6.657855706
 20
18.7087303008
 10
6.6576448269
 20
18.7035677674
 10
6.6574358538
 20
18.7006576672
 10
6.6572287868
 20
18.7
  0
LINE
  5
486
100
AcDbEntity
  8
RACCORDO
100
AcDbLine
 62
250
  6
CONTINUOUS
 10
7.0425072881
 20
21.0094865114
 11
7.0294001425
 21
20.2585786438
  0
LINE
  5
487
100
AcDbEntity
  8
RACCORDO
100
AcDbLine
 62
250
  6
CONTINUOUS
 10
7.2419286989
 20
20.8366629075
 11
7.2293696815
 21
20.1171572875
  0
LINE
  5
488
100
AcDbEntity
  8
RACCORDO
100
AcDbLine
 62
250
  6
CONTINUOUS
 10
6.5153193024
 20
15.4838500694
 11
6.6200664561
 21
18.7
  0
LINE
  5
489
100
AcDbEntity
  8
RACCORDO
100
AcDbLine
 62
250
  6
CONTINUOUS
 10
6.7148190698
 20
15.2755396155
 11
6.8198368876
 21
18.5
  0
LWPOLYLINE
  5
48A
100
AcDbEntity
  8
0
100
AcDbPolyline
 62
7
  6
CONTINUOUS
 90
7
 70
0
 10
7.7938607812
 20
17.6669168517
 10
7.7952848762
 20
17.7063768673
 10
7.7997001233
 20
17.7451210249
 10
7.8071065223
 20
17.78314933
 10
7.8175040734
 20
17.8204617884
 10
7.8308927765
 20
17.8570584055
 10
7.8472726317
 20
17.8929391869
  0
LWPOLYLINE
  5
48B
100
AcDbEntity
  8
0
100
AcDbPolyline
 62
7
  6
CONTINUOUS
 90
7
 70
0
 10
7.7938607812
 20
18.8333559081
 10
7.7960654499
 20
18.8811508195
 10
7.8026646058
 20
18.9276157523
 10
7.8136582491
 20
18.97275072
 10
7.8290463796
 20
19.0165557362
 10
7.8488289974
 20
19.0590308139
 10
7.8730061024
 20
19.1001759657
  0
LWPOLYLINE
  5
48C
100
AcDbEntity
  8
0
100
AcDbPolyline
 62
7
  6
CONTINUOUS
 90
7
 70
0
 10
7.7938607812
 20
15.3371077225
 10
7.7960658696
 20
15.384903984
 10
7.8026652828
 20
15.4313697266
 10
7.8136590209
 20
15.4765049615
 10
7.8290470838
 20
15.5203096995
 10
7.8488294715
 20
15.5627839512
 10
7.873006184
 20
15.6039277269
  0
LWPOLYLINE
  5
48D
100
AcDbEntity
  8
RACCORDO
100
AcDbPolyline
 62
7
  6
CONTINUOUS
 90
13
 70
0
 10
7.5184775044
 20
15.483378525
 10
7.5167459172
 20
15.4557762905
 10
7.5115595483
 20
15.428810679
 10
7.5030389782
 20
15.4029109818
 10
7.4913687433
 20
15.3784690175
 10
7.4767719555
 20
15.3558765063
 10
7.4594919121
 20
15.3355278816
 10
7.439805836
 20
15.3177252699
 10
7.4180826207
 20
15.302759043
 10
7.3947628174
 20
15.2909290282
 10
7.3702803713
 20
15.2824077141
 10
7.3450382138
 20
15.2772639035
 10
7.319462557
 20
15.2755396155
  0
LWPOLYLINE
  5
48E
100
AcDbEntity
  8
RACCORDO
100
AcDbPolyline
 62
250
  6
CONTINUOUS
 90
13
 70
0
 10
6.5140249785
 20
8.7859445605
 10
6.5123085868
 20
8.7597310226
 10
6.5071792585
 20
8.7339980607
 10
6.4987358775
 20
8.7091860576
 10
6.487135001
 20
8.6857195711
 10
6.4725842165
 20
8.6639932552
 10
6.4553353494
 20
8.6443671546
 10
6.4356964276
 20
8.6271775866
 10
6.4140007407
 20
8.6127034127
 10
6.3905860068
 20
8.6011696274
 10
6.3658352387
 20
8.5927760351
 10
6.3401794069
 20
8.5876796173
 10
6.3140554395
 20
8.5859750215
  0
LWPOLYLINE
  5
48F
100
AcDbEntity
  8
RACCORDO
100
AcDbPolyline
 62
250
  6
CONTINUOUS
 90
9
 70
0
 10
7.234606201
 20
18.7
 10
7.2328954339
 20
18.6738947616
 10
7.2277924042
 20
18.648236191
 10
7.2193844262
 20
18.6234633135
 10
7.2078153628
 20
18.6
 10
7.1932831637
 20
18.5782477142
 10
7.1760364791
 20
18.5585786438
 10
7.1563704043
 20
18.5413293319
 10
7.1443368656
 20
18.5327809856
  0
LWPOLYLINE
  5
490
100
AcDbEntity
  8
RACCORDO
100
AcDbPolyline
 62
7
  6
CONTINUOUS
 90
12
 70
0
 10
7.3089365232
 20
18.7
 10
7.3071946849
 20
18.6741235681
 10
7.3021106415
 20
18.6486379494
 10
7.293751803
 20
18.6239765047
 10
7.2822380187
 20
18.6005570772
 10
7.2677505446
 20
18.5787914426
 10
7.2505363116
 20
18.5590737083
 10
7.2308931205
 20
18.5417572449
 10
7.2091397129
 20
18.5271341059
 10
7.1856187697
 20
18.5154532061
 10
7.1607168843
 20
18.5069324742
 10
7.1348648826
 20
18.5017443099
  0
LINE
  5
491
100
AcDbEntity
  8
DRAFT
100
AcDbLine
 62
7
  6
CONTINUOUS
 10
9.65
 20
20.9
 11
9.5838661374
 21
20.5028438891
  0
LINE
  5
492
100
AcDbEntity
  8
RACCORDO
100
AcDbLine
 62
250
  6
CONTINUOUS
 10
-6.9101323002
 20
-15.1101132618
 11
-6.9988692386
 21
-15.1988502001
  0
LINE
  5
493
100
AcDbEntity
  8
RACCORDO
100
AcDbLine
 62
7
  6
CONTINUOUS
 10
7.4372915245
 20
-1.7127084755
 11
7.35
 21
-1.8
  0
LINE
  5
494
100
AcDbEntity
  8
RACCORDO
100
AcDbLine
 62
7
  6
CONTINUOUS
 10
-9.6021029835
 20
6.678817544
 11
-9.2122871968
 21
6.6881641073
  0
LWPOLYLINE
  5
495
100
AcDbEntity
  8
RACCORDO
100
AcDbPolyline
 62
250
  6
CONTINUOUS
 90
3
 70
0
 10
9.6273374654
 20
7.3222604695
 10
9.6130922327
 20
7.3220124758
 10
9.2122871968
 20
7.31242523
  0
LINE
  5
496
100
AcDbEntity
  8
0
100
AcDbLine
 62
7
  6
CONTINUOUS
 10
-6.5500114231
 20
6.2
 11
6.5500114231
 21
6.2
  0
LINE
  5
497
100
AcDbEntity
  8
DRAFT
100
AcDbLine
 62
7
  6
CONTINUOUS
 10
-9.5810577445
 20
6.6
 11
-8.5
 21
6.6
  0
LINE
  5
498
100
AcDbEntity
  8
DRAFT
100
AcDbLine
 62
7
  6
CONTINUOUS
 10
-7.35
 20
6.6
 11
-6.5
 21
6.6
  0
LINE
  5
499
100
AcDbEntity
  8
DRAFT
100
AcDbLine
 62
7
  6
CONTINUOUS
 10
6.5
 20
6.6
 11
7.35
 21
6.6
  0
LINE
  5
49A
100
AcDbEntity
  8
DRAFT
100
AcDbLine
 62
7
  6
CONTINUOUS
 10
8.5
 20
6.6
 11
9.5810577445
 21
6.6
  0
LINE
  5
49B
100
AcDbEntity
  8
DRAFT
100
AcDbLine
 62
7
  6
CONTINUOUS
 10
-6.5
 20
6.675051063
 11
6.5
 21
6.675051063
  0
LINE
  5
49C
100
AcDbEntity
  8
RACCORDO
100
AcDbLine
 62
7
  6
CONTINUOUS
 10
-9.7900415076
 20
6.6776691233
 11
-9.6587268678
 21
6.6776691233
  0
LINE
  5
49D
100
AcDbEntity
  8
RACCORDO
100
AcDbLine
 62
7
  6
CONTINUOUS
 10
9.7900415076
 20
6.6776691233
 11
9.6587268678
 21
6.6776691233
  0
LINE
  5
49E
100
AcDbEntity
  8
DRAFT
100
AcDbLine
 62
7
  6
CONTINUOUS
 10
-6.5
 20
6.6845154863
 11
6.5
 21
6.6845154863
  0
LINE
  5
49F
100
AcDbEntity
  8
RACCORDO
100
AcDbLine
 62
7
  6
CONTINUOUS
 10
8.9303794106
 20
6.6898867382
 11
8.4101132618
 21
6.6898867382
  0
LINE
  5
4A0
100
AcDbEntity
  8
RACCORDO
100
AcDbLine
 62
7
  6
CONTINUOUS
 10
-7.7372801014
 20
6.6898867382
 11
-6.5
 21
6.6898867382
  0
LINE
  5
4A1
100
AcDbEntity
  8
RACCORDO
100
AcDbLine
 62
7
  6
CONTINUOUS
 10
6.5
 20
6.6898867382
 11
7.7372801014
 21
6.6898867382
  0
LINE
  5
4A2
100
AcDbEntity
  8
RACCORDO
100
AcDbLine
 62
7
  6
CONTINUOUS
 10
-8.4101132618
 20
6.6898867382
 11
-8.9303794106
 21
6.6898867382
  0
LINE
  5
4A3
100
AcDbEntity
  8
RACCORDO
100
AcDbLine
 62
250
  6
CONTINUOUS
 10
10.55
 20
7.024057211
 11
10.75
 21
7.0240572111
  0
LINE
  5
4A4
100
AcDbEntity
  8
RACCORDO
100
AcDbLine
 62
250
  6
CONTINUOUS
 10
-10.55
 20
7.024057211
 11
-10.75
 21
7.024057211
  0
LINE
  5
4A5
100
AcDbEntity
  8
RACCORDO
100
AcDbLine
 62
7
  6
CONTINUOUS
 10
9.2122871968
 20
6.6881641073
 11
9.6021029835
 21
6.678817544
  0
LINE
  5
4A6
100
AcDbEntity
  8
RACCORDO
100
AcDbLine
 62
250
  6
CONTINUOUS
 10
-9.6130891487
 20
7.3220269976
 11
-9.2122871968
 21
7.31242523
  0
LINE
  5
4A7
100
AcDbEntity
  8
DRAFT
100
AcDbLine
 62
7
  6
CONTINUOUS
 10
9.6587268678
 20
-0.8776691233
 11
9.5810577445
 21
-0.8
  0
LINE
  5
4A8
100
AcDbEntity
  8
DRAFT
100
AcDbLine
 62
7
  6
CONTINUOUS
 10
9.65
 20
-20.9
 11
9.5838661374
 21
-20.5028438891
  0
LINE
  5
4A9
100
AcDbEntity
  8
RACCORDO
100
AcDbLine
 62
250
  6
CONTINUOUS
 10
7.1094109243
 20
18.5
 11
7.319462557
 21
15.2755396155
  0
LINE
  5
4AA
100
AcDbEntity
  8
RACCORDO
100
AcDbLine
 62
250
  6
CONTINUOUS
 10
7.3089365232
 20
18.7
 11
7.5184775044
 21
15.483378525
  0
LWPOLYLINE
  5
4AB
100
AcDbEntity
  8
0
100
AcDbPolyline
 62
7
  6
CONTINUOUS
 90
10
 70
0
 10
7.9463164687
 20
14.1870395735
 10
7.9477329356
 20
14.1588345354
 10
7.9518574399
 20
14.1320290628
 10
7.9586899818
 20
14.1066231619
 10
7.9683265618
 20
14.0825735008
 10
7.9806711793
 20
14.0599234233
 10
7.9954358325
 20
14.03880295
 10
8.0125245205
 20
14.0192554247
 10
8.0320332442
 20
14.0012375142
 10
8.0539620035
 20
13.9847492233
  0
LWPOLYLINE
  5
4AC
100
AcDbEntity
  8
0
100
AcDbPolyline
 62
7
  6
CONTINUOUS
 90
10
 70
0
 10
7.9463164687
 20
15.3596180722
 10
7.9476560782
 20
15.3320802229
 10
7.951562905
 20
15.3053887997
 10
7.9580369491
 20
15.2795438069
 10
7.9672347555
 20
15.254415768
 10
7.9789997792
 20
15.2301341672
 10
7.9928623849
 20
15.2070874507
 10
8.0086660274
 20
15.1854051047
 10
8.026567252
 20
15.1649576536
 10
8.0465660586
 20
15.145745102
  0
LWPOLYLINE
  5
4AD
100
AcDbEntity
  8
0
100
AcDbPolyline
 62
7
  6
CONTINUOUS
 90
10
 70
0
 10
7.9463164687
 20
18.8558664367
 10
7.947655746
 20
18.8283300977
 10
7.9515622163
 20
18.8016398066
 10
7.9580358798
 20
18.7757955687
 10
7.9672331435
 20
18.7506679095
 10
7.9789976003
 20
18.7263863128
 10
7.992860029
 20
18.7033392229
 10
8.0086640226
 20
18.6816561264
 10
8.0265659881
 20
18.6612075497
 10
8.0465659255
 20
18.6419934986
  0
LWPOLYLINE
  5
4AE
100
AcDbEntity
  8
RACCORDO
100
AcDbPolyline
 62
250
  6
CONTINUOUS
 90
8
 70
0
 10
7.2316159776
 20
18.7539032018
 10
7.2320259031
 20
18.7389509379
 10
7.2324517745
 20
18.7266130286
 10
7.2328932409
 20
18.7166600603
 10
7.2333313154
 20
18.709028615
 10
7.2337596691
 20
18.7036975536
 10
7.234184631
 20
18.7006880153
 10
7.234606201
 20
18.7
  0
LWPOLYLINE
  5
4AF
100
AcDbEntity
  8
0
100
AcDbPolyline
 62
7
  6
CONTINUOUS
 90
10
 70
0
 10
7.9452932954
 20
16.5055934832
 10
7.9458907267
 20
16.4834197456
 10
7.9481823438
 20
16.4617200807
 10
7.9521681469
 20
16.4404944905
 10
7.9578144918
 20
16.4196246152
 10
7.9651550226
 20
16.3992288184
 10
7.9742906715
 20
16.3796621879
 10
7.9852550827
 20
16.3610430892
 10
7.9980146121
 20
16.3432531635
 10
8.0125692596
 20
16.3262924137
  0
LWPOLYLINE
  5
4B0
100
AcDbEntity
  8
0
100
AcDbPolyline
 62
7
  6
CONTINUOUS
 90
10
 70
0
 10
7.9452932954
 20
17.671009545
 10
7.945890668
 20
17.6488361962
 10
7.9481822199
 20
17.6271368201
 10
7.9521679512
 20
17.6059114191
 10
7.9578141925
 20
17.5850416272
 10
7.9651546131
 20
17.5646458142
 10
7.9742902205
 20
17.5450790879
 10
7.9852546838
 20
17.5264598203
 10
7.9980143339
 20
17.5086696464
 10
8.0125691708
 20
17.4917085694
  0
LWPOLYLINE
  5
4B1
100
AcDbEntity
  8
RACCORDO
100
AcDbPolyline
 62
250
  6
CONTINUOUS
 90
6
 70
0
 10
7.032481887
 20
18.5442382838
 10
7.032923437
 20
18.5275687838
 10
7.0333615908
 20
18.5150549436
 10
7.0337900106
 20
18.5064996111
 10
7.0342150344
 20
18.5015756509
 10
7.034636662
 20
18.5
  0
LINE
  5
4B2
100
AcDbEntity
  8
RACCORDO
100
AcDbLine
 62
250
  6
CONTINUOUS
 10
7.230860845
 20
18.7903377297
 11
7.2316159776
 21
18.7539032018
  0
LINE
  5
4B3
100
AcDbEntity
  8
RACCORDO
100
AcDbLine
 62
250
  6
CONTINUOUS
 10
7.0316459995
 20
18.5897453035
 11
7.032481887
 21
18.5442382838
  0
LINE
  5
4B4
100
AcDbEntity
  8
RACCORDO
100
AcDbLine
 62
250
  6
CONTINUOUS
 10
7.2302463082
 20
18.8341069364
 11
7.230860845
 21
18.7903377297
  0
LINE
  5
4B5
100
AcDbEntity
  8
RACCORDO
100
AcDbLine
 62
250
  6
CONTINUOUS
 10
7.0308908793
 20
18.6506224131
 11
7.0316459995
 21
18.5897453035
  0
LINE
  5
4B6
100
AcDbEntity
  8
RACCORDO
100
AcDbLine
 62
250
  6
CONTINUOUS
 10
7.0302764824
 20
18.7233617167
 11
7.0308908793
 21
18.6506224131
  0
LINE
  5
4B7
100
AcDbEntity
  8
RACCORDO
100
AcDbLine
 62
250
  6
CONTINUOUS
 10
7.2296328074
 20
18.9066510269
 11
7.2302463082
 21
18.8341069364
  0
LWPOLYLINE
  5
4B8
100
AcDbEntity
  8
0
100
AcDbPolyline
 62
7
  6
CONTINUOUS
 90
7
 70
0
 10
8.430286485
 20
16.4452251837
 10
8.4301071923
 20
16.4821630404
 10
8.4258912465
 20
16.5184356856
 10
8.4176386474
 20
16.554043124
 10
8.405349395
 20
16.58898536
 10
8.3890234894
 20
16.6232623981
 10
8.3686609306
 20
16.6568742428
  0
LWPOLYLINE
  5
4B9
100
AcDbEntity
  8
0
100
AcDbPolyline
 62
7
  6
CONTINUOUS
 90
7
 70
0
 10
8.430286485
 20
17.6106412455
 10
8.430107315
 20
17.6475787394
 10
8.4258914372
 20
17.6838511749
 10
8.4176388516
 20
17.7194585568
 10
8.4053495583
 20
17.7544008901
 10
8.3890235572
 20
17.7886781796
 10
8.3686608484
 20
17.82229043
  0
LINE
  5
4BA
100
AcDbEntity
  8
RACCORDO
100
AcDbLine
 62
250
  6
CONTINUOUS
 10
7.2293778235
 20
18.9775145438
 11
7.2296328074
 21
18.9066510269
  0
LINE
  5
4BB
100
AcDbEntity
  8
RACCORDO
100
AcDbLine
 62
250
  6
CONTINUOUS
 10
7.2293696815
 20
20.1171572875
 11
7.2293778235
 21
18.9775145438
  0
LINE
  5
4BC
100
AcDbEntity
  8
DRAFT
100
AcDbLine
 62
7
  6
CONTINUOUS
 10
7.35
 20
-9.9
 11
7.35
 21
-8.5
  0
LINE
  5
4BD
100
AcDbEntity
  8
DRAFT
100
AcDbLine
 62
7
  6
CONTINUOUS
 10
7.35
 20
-1.8
 11
7.35
 21
-0.8
  0
LINE
  5
4BE
100
AcDbEntity
  8
RACCORDO
100
AcDbLine
 62
7
  6
CONTINUOUS
 10
7.35
 20
4.8999885769
 11
7.35
 21
6.6
  0
LINE
  5
4BF
100
AcDbEntity
  8
RACCORDO
100
AcDbLine
 62
7
  6
CONTINUOUS
 10
7.3674537356
 20
-9.4825462644
 11
7.3674537356
 21
-10.5043838508
  0
LINE
  5
4C0
100
AcDbEntity
  8
RACCORDO
100
AcDbLine
 62
7
  6
CONTINUOUS
 10
7.4101132618
 20
-14.6101323002
 11
7.4101132618
 21
-13.5118510196
  0
LINE
  5
4C1
100
AcDbEntity
  8
RACCORDO
100
AcDbLine
 62
7
  6
CONTINUOUS
 10
7.4101132618
 20
7.3118510196
 11
7.4101132618
 21
9.0101323002
  0
LINE
  5
4C2
100
AcDbEntity
  8
RACCORDO
100
AcDbLine
 62
7
  6
CONTINUOUS
 10
7.4372915245
 20
6.6872915245
 11
7.4372915245
 21
4.9872801014
  0
LINE
  5
4C3
100
AcDbEntity
  8
RACCORDO
100
AcDbLine
 62
7
  6
CONTINUOUS
 10
7.4372915245
 20
-0.8872915245
 11
7.4372915245
 21
-1.7127084755
  0
LINE
  5
4C4
100
AcDbEntity
  8
RACCORDO
100
AcDbLine
 62
7
  6
CONTINUOUS
 10
7.4372915245
 20
-8.5872915245
 11
7.4372915245
 21
-9.4127084755
  0
LINE
  5
4C5
100
AcDbEntity
  8
DRAFT
100
AcDbLine
 62
7
  6
CONTINUOUS
 10
7.4825462644
 20
-10.8825462644
 11
7.4825462644
 21
-12.8174537356
  0
LINE
  5
4C6
100
AcDbEntity
  8
DRAFT
100
AcDbLine
 62
7
  6
CONTINUOUS
 10
7.5
 20
-10.9
 11
7.5
 21
-12.8
  0
LINE
  5
4C7
100
AcDbEntity
  8
RACCORDO
100
AcDbLine
 62
250
  6
CONTINUOUS
 10
7.7372801014
 20
6.6898867382
 11
7.7372801014
 21
4.6872915245
  0
LINE
  5
4C8
100
AcDbEntity
  8
RACCORDO
100
AcDbLine
 62
250
  6
CONTINUOUS
 10
7.7372801014
 20
-0.8898867382
 11
7.7372801014
 21
-1.7101132618
  0
LINE
  5
4C9
100
AcDbEntity
  8
RACCORDO
100
AcDbLine
 62
250
  6
CONTINUOUS
 10
7.7372801014
 20
-8.5898867382
 11
7.7372801014
 21
-9.4101132618
  0
LINE
  5
4CA
100
AcDbEntity
  8
DRAFT
100
AcDbLine
 62
7
  6
CONTINUOUS
 10
8.3325462644
 20
-9.4825462644
 11
8.3325462644
 21
-10.8825462644
  0
LINE
  5
4CB
100
AcDbEntity
  8
DRAFT
100
AcDbLine
 62
7
  6
CONTINUOUS
 10
8.35
 20
-9.5
 11
8.35
 21
-10.9
  0
LINE
  5
4CC
100
AcDbEntity
  8
RACCORDO
100
AcDbLine
 62
7
  6
CONTINUOUS
 10
8.4101132618
 20
6.6898867382
 11
8.4101132618
 21
4.9872801014
  0
LINE
  5
4CD
100
AcDbEntity
  8
DRAFT
100
AcDbLine
 62
7
  6
CONTINUOUS
 10
8.5
 20
6.6
 11
8.5
 21
4.6
  0
LINE
  5
4CE
100
AcDbEntity
  8
RACCORDO
100
AcDbLine
 62
250
  6
CONTINUOUS
 10
7.2293696815
 20
-20.1171572875
 11
7.2295241191
 21
-18.9276857314
  0
LINE
  5
4CF
100
AcDbEntity
  8
RACCORDO
100
AcDbLine
 62
250
  6
CONTINUOUS
 10
7.2295241191
 20
-18.9276857314
 11
7.2300346566
 21
-18.8537040704
  0
LINE
  5
4D0
100
AcDbEntity
  8
RACCORDO
100
AcDbLine
 62
250
  6
CONTINUOUS
 10
7.0303183743
 20
-18.7173757426
 11
7.0312958308
 21
-18.614969787
  0
LINE
  5
4D1
100
AcDbEntity
  8
RACCORDO
100
AcDbLine
 62
250
  6
CONTINUOUS
 10
7.2300346566
 20
-18.8537040704
 11
7.2305820071
 21
-18.8081854913
  0
LWPOLYLINE
  5
4D2
100
AcDbEntity
  8
RACCORDO
100
AcDbPolyline
 62
250
  6
CONTINUOUS
 90
8
 70
0
 10
7.0312958308
 20
-18.614969787
 10
7.0320910524
 20
-18.5630592308
 10
7.0325118959
 20
-18.5429494166
 10
7.0329477296
 20
-18.5267597088
 10
7.0333799803
 20
-18.514609783
 10
7.0338024571
 20
-18.5063070275
 10
7.034221351
 20
-18.5015289254
 10
7.034636662
 20
-18.5
  0
LWPOLYLINE
  5
4D3
100
AcDbEntity
  8
RACCORDO
100
AcDbPolyline
 62
250
  6
CONTINUOUS
 90
10
 70
0
 10
7.2305820071
 20
-18.8081854913
 10
7.2312659314
 20
-18.7690824558
 10
7.2316560751
 20
-18.7522973642
 10
7.2320612452
 20
-18.73782095
 10
7.2324822779
 20
-18.7258402582
 10
7.2329183369
 20
-18.7161682438
 10
7.2333506372
 20
-18.708753365
 10
7.2337729172
 20
-18.7035784411
 10
7.2341914384
 20
-18.7006606528
 10
7.234606201
 20
-18.7
  0
LWPOLYLINE
  5
4D4
100
AcDbEntity
  8
0
100
AcDbPolyline
 62
7
  6
CONTINUOUS
 90
7
 70
0
 10
7.7938607812
 20
14.1890859649
 10
7.7951214738
 20
14.2278194649
 10
7.7991663515
 20
14.2651719803
 10
7.8059954144
 20
14.3011435197
 10
7.8156086625
 20
14.3357340915
 10
7.8280060958
 20
14.3689437038
 10
7.8431877142
 20
14.4007723644
  0
LWPOLYLINE
  5
4D5
100
AcDbEntity
  8
0
100
AcDbPolyline
 62
7
  6
CONTINUOUS
 90
10
 70
0
 10
8.7914733768
 20
18.8057298705
 10
8.7901001664
 20
18.7658821301
 10
8.7852396461
 20
18.7270512471
 10
8.7768918158
 20
18.6892372308
 10
8.7649514619
 20
18.6521853212
 10
8.7495237979
 20
18.6161502944
 10
8.730924465
 20
18.5818964696
 10
8.7092586768
 20
18.5496786314
 10
8.6844212196
 20
18.5192420232
 10
8.6564120935
 20
18.4905866574
  0
LWPOLYLINE
  5
4D6
100
AcDbEntity
  8
0
100
AcDbPolyline
 62
7
  6
CONTINUOUS
 90
10
 70
0
 10
8.7914733768
 20
15.309481506
 10
8.7900997716
 20
15.2696315201
 10
8.7852388122
 20
15.2307989651
 10
8.7768904983
 20
15.1929838485
 10
8.764949429
 20
15.1559314192
 10
8.7495210054
 20
15.1198964415
 10
8.7309214308
 20
15.0856432011
 10
8.7092561062
 20
15.0534264695
 10
8.6844196307
 20
15.0229914982
 10
8.6564120042
 20
14.9943382971
  0
LWPOLYLINE
  5
4D7
100
AcDbEntity
  8
0
100
AcDbPolyline
 62
7
  6
CONTINUOUS
 90
7
 70
0
 10
7.7938607812
 20
16.501500611
 10
7.7952849356
 20
16.5409609005
 10
7.7997002135
 20
16.5797052254
 10
7.8071066148
 20
16.6177335908
 10
7.8175041395
 20
16.655046002
 10
7.8308927877
 20
16.6916424643
 10
7.8472725594
 20
16.7275229826
  0
LWPOLYLINE
  5
4D8
100
AcDbEntity
  8
RACCORDO
100
AcDbPolyline
 62
7
  6
CONTINUOUS
 90
16
 70
0
 10
7.4989810696
 20
-14.699000108
 10
7.4962502297
 20
-14.7510434362
 10
7.4880897283
 20
-14.8026390754
 10
7.4745512846
 20
-14.8532176614
 10
7.4557063755
 20
-14.9023047586
 10
7.4317485295
 20
-14.9492470034
 10
7.403085202
 20
-14.9932658405
 10
7.3702153806
 20
-15.0337543415
 10
7.3334372192
 20
-15.0704825725
 10
7.2929333646
 20
-15.1032770493
 10
7.2489617473
 20
-15.1318376392
 10
7.2021153054
 20
-15.155694238
 10
7.1531049333
 20
-15.1744759699
 10
7.1025530945
 20
-15.1879856028
 10
7.0509520865
 20
-15.196131188
 10
6.9988692386
 20
-15.1988502001
  0
LWPOLYLINE
  5
4D9
100
AcDbEntity
  8
RACCORDO
100
AcDbPolyline
 62
7
  6
CONTINUOUS
 90
13
 70
0
 10
6.5153193024
 20
-15.4838500694
 10
6.5170644077
 20
-15.4562067425
 10
6.5222712161
 20
-15.4291926459
 10
6.5308204697
 20
-15.4032390196
 10
6.5425299038
 20
-15.3787379785
 10
6.5571756464
 20
-15.3560852013
 10
6.5745094037
 20
-15.3356819
 10
6.5942518661
 20
-15.3178312955
 10
6.6160329962
 20
-15.3028242083
 10
6.6394067097
 20
-15.2909642083
 10
6.6639355174
 20
-15.2824237631
 10
6.6892156267
 20
-15.2772688539
 10
6.7148190698
 20
-15.2755396155
  0
LINE
  5
4DA
100
AcDbEntity
  8
RACCORDO
100
AcDbLine
 62
250
  6
CONTINUOUS
 10
7.319462557
 20
-15.2755396155
 11
7.1094109243
 21
-18.5
  0
LINE
  5
4DB
100
AcDbEntity
  8
RACCORDO
100
AcDbLine
 62
250
  6
CONTINUOUS
 10
7.5184775044
 20
-15.483378525
 11
7.3089365232
 21
-18.7
  0
LWPOLYLINE
  5
4DC
100
AcDbEntity
  8
RACCORDO
100
AcDbPolyline
 62
250
  6
CONTINUOUS
 90
9
 70
0
 10
6.6572287868
 20
-18.7
 10
6.6589397493
 20
-18.6738947616
 10
6.664043362
 20
-18.648236191
 10
6.6724523006
 20
-18.6234633135
 10
6.6840226857
 20
-18.6
 10
6.698556545
 20
-18.5782477142
 10
6.7158052
 20
-18.5585786438
 10
6.7354735215
 20
-18.5413293319
 10
6.7481955371
 20
-18.5323321563
  0
LWPOLYLINE
  5
4DD
100
AcDbEntity
  8
RACCORDO
100
AcDbPolyline
 62
7
  6
CONTINUOUS
 90
10
 70
0
 10
6.6200664561
 20
-18.7
 10
6.6217837243
 20
-18.6740798342
 10
6.6268536167
 20
-18.6485625367
 10
6.6352044001
 20
-18.6238823695
 10
6.6467097823
 20
-18.60045995
 10
6.6611858003
 20
-18.5787024009
 10
6.678390465
 20
-18.5589942732
 10
6.6980324725
 20
-18.5416836961
 10
6.7197873722
 20
-18.5270694334
 10
6.7432991968
 20
-18.5154061091
  0
LINE
  5
4DE
100
AcDbEntity
  8
0
100
AcDbLine
 62
7
  6
CONTINUOUS
 10
8.4282401383
 20
17.5809685037
 11
8.430286485
 21
17.6106412455
  0
LINE
  5
4DF
100
AcDbEntity
  8
0
100
AcDbLine
 62
7
  6
CONTINUOUS
 10
8.4282401383
 20
16.4155524418
 11
8.430286485
 21
16.4452251837
  0
LINE
  5
4E0
100
AcDbEntity
  8
DRAFT
100
AcDbLine
 62
7
  6
CONTINUOUS
 10
9.6587268678
 20
-1.7223308767
 11
9.5810577445
 21
-1.8
  0
LWPOLYLINE
  5
4E1
100
AcDbEntity
  8
RACCORDO
100
AcDbPolyline
 62
250
  6
CONTINUOUS
 90
19
 70
0
 10
-9.5099573271
 20
7.5240609912
 10
-9.5186334616
 20
7.5228738322
 10
-9.5271942316
 20
7.5199541707
 10
-9.5355003303
 20
7.5154240284
 10
-9.5433572095
 20
7.5094354081
 10
-9.5507418771
 20
7.502114583
 10
-9.5577829153
 20
7.4935124642
 10
-9.5643911153
 20
7.4837399172
 10
-9.570493207
 20
7.4729020691
 10
-9.5762109401
 20
7.4609656114
 10
-9.5814833444
 20
7.4479413244
 10
-9.5861883139
 20
7.4339798603
 10
-9.5903473667
 20
7.4192389863
 10
-9.5939351141
 20
7.4038298335
 10
-9.5968769572
 20
7.3878710721
 10
-9.5991636918
 20
7.3715541314
 10
-9.6007976554
 20
7.3550288418
 10
-9.6017742302
 20
7.3383947952
 10
-9.6021053835
 20
7.3217718508
  0
LWPOLYLINE
  5
4E2
100
AcDbEntity
  8
RACCORDO
100
AcDbPolyline
 62
250
  6
CONTINUOUS
 90
13
 70
0
 10
-9.0243486726
 20
7.5124176146
 10
-9.0488331928
 20
7.5106353939
 10
-9.0729003934
 20
7.5054746327
 10
-9.0961400415
 20
7.4970232873
 10
-9.1181560056
 20
7.4854254043
 10
-9.1385730147
 20
7.4708786634
 10
-9.1570430527
 20
7.4536310054
 10
-9.1732512859
 20
7.433976409
 10
-9.1869214244
 20
7.4122498903
 10
-9.19782044
 20
7.3888217909
 10
-9.2057625452
 20
7.3640914542
 10
-9.2106123561
 20
7.3384804163
 10
-9.2122871968
 20
7.31242523
  0
LWPOLYLINE
  5
4E3
100
AcDbEntity
  8
RACCORDO
100
AcDbPolyline
 62
250
  6
CONTINUOUS
 90
16
 70
0
 10
6.3140554395
 20
8.3860054824
 10
6.3570576095
 20
8.3885163937
 10
6.3985731702
 20
8.3951451129
 10
6.4386021216
 20
8.4058916402
 10
6.4775191101
 20
8.4209866923
 10
6.5149494892
 20
8.4401995525
 10
6.5497693201
 20
8.46283807
 10
6.5818794786
 20
8.488952556
 10
6.6113790888
 20
8.5184926994
 10
6.6374415844
 20
8.5506154166
 10
6.6600132767
 20
8.5854083848
 10
6.6791478545
 20
8.6227839267
 10
6.6941798174
 20
8.6616359269
 10
6.7048873322
 20
8.7015956799
 10
6.7114922323
 20
8.7430318911
 10
6.7139945176
 20
8.7859445605
  0
LWPOLYLINE
  5
4E4
100
AcDbEntity
  8
RACCORDO
100
AcDbPolyline
 62
250
  6
CONTINUOUS
 90
19
 70
0
 10
-9.5099618806
 20
7.5240610192
 10
-9.5368286599
 20
7.5229930474
 10
-9.5626080339
 20
7.520199321
 10
-9.5873000026
 20
7.5158013767
 10
-9.6109718306
 20
7.5099511585
 10
-9.6335562534
 20
7.5027732465
 10
-9.6548514773
 20
7.4943157971
 10
-9.6748391258
 20
7.4846879342
 10
-9.6935375755
 20
7.473994749
 10
-9.7108001618
 20
7.4622043819
 10
-9.7266978605
 20
7.4493310105
 10
-9.7411596958
 20
7.4355224028
 10
-9.7538260756
 20
7.4209284529
 10
-9.764627733
 20
7.4056582078
 10
-9.7736339349
 20
7.3898296274
 10
-9.7806928906
 20
7.373626878
 10
-9.7857540033
 20
7.3571960494
 10
-9.7888678699
 20
7.3406371058
 10
-9.7900344904
 20
7.3240686345
  0
LWPOLYLINE
  5
4E5
100
AcDbEntity
  8
RACCORDO
100
AcDbPolyline
 62
7
  6
CONTINUOUS
 90
19
 70
0
 10
-10.25
 20
7.5240610192
 10
-10.286952748
 20
7.5226936602
 10
-10.3253956059
 20
7.5183438132
 10
-10.3650531633
 20
7.5106436638
 10
-10.4058434134
 20
7.4991532611
 10
-10.447088109
 20
7.4835781435
 10
-10.4875942413
 20
7.464002576
 10
-10.5269163839
 20
7.4403743374
 10
-10.5646087522
 20
7.4126747925
 10
-10.5996435797
 20
7.381480367
 10
-10.6317012523
 20
7.3470212059
 10
-10.6604534791
 20
7.3095903556
 10
-10.6852051803
 20
7.2702225487
 10
-10.7058750868
 20
7.2294313818
 10
-10.7225041302
 20
7.1875816804
 10
-10.7349859006
 20
7.1456668373
 10
-10.7435186693
 20
7.1043032368
 10
-10.7484289374
 20
7.0636630234
 10
-10.75
 20
7.024057211
  0
LINE
  5
4E6
100
AcDbEntity
  8
RACCORDO
100
AcDbLine
 62
250
  6
CONTINUOUS
 10
9.5099584924
 20
7.5240610192
 11
9.0220900722
 21
7.5123671274
  0
LWPOLYLINE
  5
4E7
100
AcDbEntity
  8
RACCORDO
100
AcDbPolyline
 62
250
  6
CONTINUOUS
 90
19
 70
0
 10
-10.25
 20
7.3240686345
 10
-10.2725171765
 20
7.3235999993
 10
-10.295533658
 20
7.3209150134
 10
-10.3190494444
 20
7.3160136769
 10
-10.3434648267
 20
7.3089545664
 10
-10.368379514
 20
7.2996791053
 10
-10.3925926338
 20
7.2880115638
 10
-10.4160592218
 20
7.2737340687
 10
-10.4388242423
 20
7.2570644931
 10
-10.4598217161
 20
7.2384807265
 10
-10.4789022541
 20
7.2177989229
 10
-10.4962152454
 20
7.1952029282
 10
-10.5111428776
 20
7.1717221689
 10
-10.5234562693
 20
7.147339017
 10
-10.533384302
 20
7.1220711005
 10
-10.5409958082
 20
7.0970007305
 10
-10.546313732
 20
7.0724886775
 10
-10.5493151292
 20
7.048174171
 10
-10.55
 20
7.024057211
  0
LINE
  5
4E8
100
AcDbEntity
  8
RACCORDO
100
AcDbLine
 62
250
  6
CONTINUOUS
 10
9.0220900722
 20
7.5123671274
 11
9.0162081803
 21
7.512268265
  0
LINE
  5
4E9
100
AcDbEntity
  8
RACCORDO
100
AcDbLine
 62
250
  6
CONTINUOUS
 10
9.7108306233
 20
7.3233255567
 11
9.6273374654
 21
7.3222604695
  0
LINE
  5
4EA
100
AcDbEntity
  8
RACCORDO
100
AcDbLine
 62
250
  6
CONTINUOUS
 10
9.0162081803
 20
7.512268265
 11
9.0039736149
 21
7.5121252515
  0
LINE
  5
4EB
100
AcDbEntity
  8
RACCORDO
100
AcDbLine
 62
250
  6
CONTINUOUS
 10
9.7900415076
 20
7.3240686345
 11
9.7108306233
 21
7.3233255567
  0
LINE
  5
4EC
100
AcDbEntity
  8
RACCORDO
100
AcDbLine
 62
250
  6
CONTINUOUS
 10
9.0039736149
 20
7.5121252515
 11
8.9757672084
 21
7.5119386577
  0
LINE
  5
4ED
100
AcDbEntity
  8
RACCORDO
100
AcDbLine
 62
250
  6
CONTINUOUS
 10
9.2122871968
 20
7.31242523
 11
9.1511640533
 21
7.312132881
  0
LINE
  5
4EE
100
AcDbEntity
  8
RACCORDO
100
AcDbLine
 62
250
  6
CONTINUOUS
 10
8.9757672084
 20
7.5119386577
 11
8.9303794106
 21
7.5118434042
  0
LINE
  5
4EF
100
AcDbEntity
  8
0
100
AcDbLine
 62
7
  6
CONTINUOUS
 10
-6.5
 20
7.3
 11
6.5
 21
7.3
  0
LINE
  5
4F0
100
AcDbEntity
  8
RACCORDO
100
AcDbLine
 62
250
  6
CONTINUOUS
 10
9.1511640533
 20
7.312132881
 11
7.4101132618
 21
7.3118510196
  0
LINE
  5
4F1
100
AcDbEntity
  8
RACCORDO
100
AcDbLine
 62
250
  6
CONTINUOUS
 10
10.25
 20
7.3240686345
 11
9.7900415076
 21
7.3240686345
  0
LINE
  5
4F2
100
AcDbEntity
  8
RACCORDO
100
AcDbLine
 62
250
  6
CONTINUOUS
 10
-9.7900415076
 20
7.3240686345
 11
-10.25
 21
7.3240686345
  0
LINE
  5
4F3
100
AcDbEntity
  8
RACCORDO
100
AcDbLine
 62
7
  6
CONTINUOUS
 10
-8.9303794106
 20
7.5118434042
 11
-7.4118434042
 21
7.5118434042
  0
LINE
  5
4F4
100
AcDbEntity
  8
RACCORDO
100
AcDbLine
 62
7
  6
CONTINUOUS
 10
8.9303794106
 20
7.5118434042
 11
7.4118434042
 21
7.5118434042
  0
LINE
  5
4F5
100
AcDbEntity
  8
RACCORDO
100
AcDbLine
 62
7
  6
CONTINUOUS
 10
10.25
 20
7.5240610192
 11
9.5099584924
 21
7.5240610192
  0
LINE
  5
4F6
100
AcDbEntity
  8
RACCORDO
100
AcDbLine
 62
7
  6
CONTINUOUS
 10
-9.5099584924
 20
7.5240610192
 11
-10.25
 21
7.5240610192
  0
LINE
  5
4F7
100
AcDbEntity
  8
RACCORDO
100
AcDbLine
 62
7
  6
CONTINUOUS
 10
-10.25
 20
7.5310577445
 11
-9.65
 21
7.5310577445
  0
LINE
  5
4F8
100
AcDbEntity
  8
RACCORDO
100
AcDbLine
 62
7
  6
CONTINUOUS
 10
9.65
 20
7.5310577445
 11
10.25
 21
7.5310577445
  0
LINE
  5
4F9
100
AcDbEntity
  8
DRAFT
100
AcDbLine
 62
7
  6
CONTINUOUS
 10
-9.5806907165
 20
7.6003670279
 11
-7.5003670279
 21
7.6003670279
  0
LINE
  5
4FA
100
AcDbEntity
  8
DRAFT
100
AcDbLine
 62
7
  6
CONTINUOUS
 10
7.5003670279
 20
7.6003670279
 11
9.5806907165
 21
7.6003670279
  0
LINE
  5
4FB
100
AcDbEntity
  8
RACCORDO
100
AcDbLine
 62
250
  6
CONTINUOUS
 10
6.3140554395
 20
8.3860054824
 11
-6.3140554395
 21
8.3860054824
  0
LINE
  5
4FC
100
AcDbEntity
  8
RACCORDO
100
AcDbLine
 62
250
  6
CONTINUOUS
 10
6.3140554395
 20
8.5859750215
 11
-6.3140554395
 21
8.5859750215
  0
LINE
  5
4FD
100
AcDbEntity
  8
RACCORDO
100
AcDbLine
 62
7
  6
CONTINUOUS
 10
-6.300030461
 20
8.6
 11
6.300030461
 21
8.6
  0
LINE
  5
4FE
100
AcDbEntity
  8
RACCORDO
100
AcDbLine
 62
250
  6
CONTINUOUS
 10
-6.7139945176
 20
8.7859445603
 11
-6.5140249785
 21
8.7859445604
  0
LINE
  5
4FF
100
AcDbEntity
  8
RACCORDO
100
AcDbLine
 62
250
  6
CONTINUOUS
 10
6.7139945176
 20
8.7859445605
 11
6.5140249785
 21
8.7859445604
  0
LINE
  5
500
100
AcDbEntity
  8
RACCORDO
100
AcDbLine
 62
250
  6
CONTINUOUS
 10
-9.1754058121
 20
7.3122203904
 11
-7.4101132618
 21
7.3118510196
  0
LINE
  5
501
100
AcDbEntity
  8
RACCORDO
100
AcDbLine
 62
250
  6
CONTINUOUS
 10
-8.9748170109
 20
7.5119344918
 11
-8.9303794106
 21
7.5118434042
  0
LINE
  5
502
100
AcDbEntity
  8
RACCORDO
100
AcDbLine
 62
250
  6
CONTINUOUS
 10
-9.2122871968
 20
7.31242523
 11
-9.1754058121
 21
7.3122203904
  0
LINE
  5
503
100
AcDbEntity
  8
RACCORDO
100
AcDbLine
 62
250
  6
CONTINUOUS
 10
-9.0031976599
 20
7.5121179729
 11
-8.9748170109
 21
7.5119344918
  0
LWPOLYLINE
  5
504
100
AcDbEntity
  8
RACCORDO
100
AcDbPolyline
 62
250
  6
CONTINUOUS
 90
4
 70
0
 10
-9.7900415076
 20
7.3240686345
 10
-9.6445667805
 20
7.3225374063
 10
-9.6273310946
 20
7.3222822019
 10
-9.6130891487
 20
7.3220269976
  0
LINE
  5
505
100
AcDbEntity
  8
RACCORDO
100
AcDbLine
 62
250
  6
CONTINUOUS
 10
-9.0158162863
 20
7.5122625921
 11
-9.0031976599
 21
7.5121179729
  0
LINE
  5
506
100
AcDbEntity
  8
RACCORDO
100
AcDbLine
 62
250
  6
CONTINUOUS
 10
-9.0219585705
 20
7.5123647845
 11
-9.0158162863
 21
7.5122625921
  0
LINE
  5
507
100
AcDbEntity
  8
RACCORDO
100
AcDbLine
 62
250
  6
CONTINUOUS
 10
-9.5099584924
 20
7.5240610192
 11
-9.0219585705
 21
7.5123647845
  0
LWPOLYLINE
  5
508
100
AcDbEntity
  8
RACCORDO
100
AcDbPolyline
 62
250
  6
CONTINUOUS
 90
13
 70
0
 10
-6.3140554395
 20
8.5859750215
 10
-6.3402689774
 20
8.5876914132
 10
-6.3660019393
 20
8.5928207415
 10
-6.3908139424
 20
8.6012641225
 10
-6.4142804289
 20
8.612864999
 10
-6.4360067448
 20
8.6274157835
 10
-6.4556328454
 20
8.6446646506
 10
-6.4728224134
 20
8.6643035724
 10
-6.4872965873
 20
8.6859992593
 10
-6.4988303726
 20
8.7094139932
 10
-6.5072239649
 20
8.7341647613
 10
-6.5123203827
 20
8.7598205931
 10
-6.5140249785
 20
8.7859445605
  0
LINE
  5
509
100
AcDbEntity
  8
0
100
AcDbLine
 62
7
  6
CONTINUOUS
 10
5.4965270048
 20
15.9786569649
 11
5.4714919691
 21
16.1622452262
  0
LINE
  5
50A
100
AcDbEntity
  8
0
100
AcDbLine
 62
7
  6
CONTINUOUS
 10
5.5215540726
 20
17.1148954677
 11
5.496520013
 21
17.2984839045
  0
LWPOLYLINE
  5
50B
100
AcDbEntity
  8
RACCORDO
100
AcDbPolyline
 62
250
  6
CONTINUOUS
 90
13
 70
0
 10
7.2293696815
 20
20.1171572875
 10
7.2274017151
 20
20.1352963416
 10
7.2221423768
 20
20.1531896548
 10
7.2136494171
 20
20.1705357589
 10
7.2020236077
 20
20.1870530906
 10
7.1874402364
 20
20.2024368699
 10
7.170174151
 20
20.2163768226
 10
7.1505322297
 20
20.2286273937
 10
7.128834401
 20
20.2389909837
 10
7.1054631376
 20
20.2472862956
 10
7.0808217567
 20
20.2533749129
 10
7.0553235464
 20
20.257159202
 10
7.0294001425
 20
20.2585786438
  0
LINE
  5
50C
100
AcDbEntity
  8
0
100
AcDbLine
 62
7
  6
CONTINUOUS
 10
8.9531377807
 20
14.8930422708
 11
8.9367667168
 21
15.0700545654
  0
LINE
  5
50D
100
AcDbEntity
  8
0
100
AcDbLine
 62
7
  6
CONTINUOUS
 10
8.9531377807
 20
18.3892904565
 11
8.9367667168
 21
18.5663030192
  0
LWPOLYLINE
  5
50E
100
AcDbEntity
  8
RACCORDO
100
AcDbPolyline
 62
250
  6
CONTINUOUS
 90
19
 70
0
 10
9.7900344904
 20
7.3240686345
 10
9.7888066789
 20
7.3410972861
 10
9.7855291048
 20
7.3581035326
 10
9.7802017682
 20
7.374958997
 10
9.772773888
 20
7.3915454605
 10
9.7632962453
 20
7.4077165549
 10
9.7519211825
 20
7.4233033257
 10
9.7385531511
 20
7.4381978636
 10
9.7232876998
 20
7.4522545763
 10
9.706563817
 20
7.4652749573
 10
9.6883898871
 20
7.4771334449
 10
9.6687575259
 20
7.4877880354
 10
9.6480805687
 20
7.4971893014
 10
9.6262358291
 20
7.505299359
 10
9.6033464935
 20
7.512012956
 10
9.5801959569
 20
7.5172313695
 10
9.5570453508
 20
7.5209522346
 10
9.5336335436
 20
7.5232180213
 10
9.5099605353
 20
7.5240610192
  0
LWPOLYLINE
  5
50F
100
AcDbEntity
  8
RACCORDO
100
AcDbPolyline
 62
250
  6
CONTINUOUS
 90
13
 70
0
 10
9.2122871968
 20
7.31242523
 10
9.2106123657
 20
7.3384803371
 10
9.2057625805
 20
7.3640913121
 10
9.1978205119
 20
7.3888216045
 10
9.186921539
 20
7.4122496774
 10
9.1732514434
 20
7.4339761889
 10
9.1570432442
 20
7.4536308
 10
9.1385732232
 20
7.4708784917
 10
9.1181562113
 20
7.4854252767
 10
9.0961402246
 20
7.4970232056
 10
9.0729005345
 20
7.5054745919
 10
9.0488332721
 20
7.5106353825
 10
9.0243486726
 20
7.5124176146
  0
LWPOLYLINE
  5
510
100
AcDbEntity
  8
0
100
AcDbPolyline
 62
7
  6
CONTINUOUS
 90
13
 70
0
 10
9.1741473444
 20
14.1890859649
 10
9.1727744342
 20
14.21269601
 10
9.1695815705
 20
14.2351576209
 10
9.1645687533
 20
14.256470802
 10
9.1576234515
 20
14.2765638662
 10
9.1488581962
 20
14.2955085089
 10
9.1386105807
 20
14.3135198075
 10
9.1268192939
 20
14.3306882605
 10
9.1135456469
 20
14.3469233748
 10
9.0993111666
 20
14.3621687399
 10
9.0842896955
 20
14.376405554
 10
9.0683073911
 20
14.3896526239
 10
9.0513642535
 20
14.4019099519
  0
LWPOLYLINE
  5
511
100
AcDbEntity
  8
0
100
AcDbPolyline
 62
7
  6
CONTINUOUS
 90
10
 70
0
 10
9.1741473444
 20
16.5096861765
 10
9.1732459844
 20
16.5371481618
 10
9.1700559111
 20
16.5639522751
 10
9.1645771247
 20
16.59009852
 10
9.156783031
 20
16.6157445018
 10
9.1467002241
 20
16.6407326212
 10
9.1344084859
 20
16.6645900771
 10
9.1199344104
 20
16.6871592737
 10
9.1032514035
 20
16.7085978178
 10
9.0843594653
 20
16.7289057141
  0
LWPOLYLINE
  5
512
100
AcDbEntity
  8
0
100
AcDbPolyline
 62
7
  6
CONTINUOUS
 90
10
 70
0
 10
9.1741473444
 20
17.6751022384
 10
9.1732460679
 20
17.7025637849
 10
9.1700560864
 20
17.7293675745
 10
9.1645773998
 20
17.7555136107
 10
9.1567834529
 20
17.7811595004
 10
9.146700801
 20
17.8061476433
 10
9.1344091097
 20
17.8300052351
 10
9.1199349343
 20
17.8525746793
 10
9.1032517195
 20
17.8740135841
 10
9.0843594653
 20
17.8943219548
  0
LWPOLYLINE
  5
513
100
AcDbEntity
  8
0
100
AcDbPolyline
 62
7
  6
CONTINUOUS
 90
10
 70
0
 10
8.6287858218
 20
15.3545020267
 10
8.627951083
 20
15.3811174844
 10
8.6248389405
 20
15.4070228042
 10
8.6194493943
 20
15.4322179897
 10
8.6117646127
 20
15.45685934
 10
8.6018024275
 20
15.4807905619
 10
8.5896163329
 20
15.5035427719
 10
8.5752241605
 20
15.5249596795
 10
8.5586080788
 20
15.5451975853
 10
8.5397680879
 20
15.5642564937
  0
LWPOLYLINE
  5
514
100
AcDbEntity
  8
0
100
AcDbPolyline
 62
7
  6
CONTINUOUS
 90
10
 70
0
 10
8.6287858218
 20
18.8507502124
 10
8.6279513383
 20
18.8773642374
 10
8.6248394756
 20
18.9032684901
 10
8.6194502338
 20
18.9284629747
 10
8.6117658991
 20
18.9531040035
 10
8.6018041853
 20
18.9770352717
 10
8.5896182332
 20
18.9997878595
 10
8.5752257564
 20
19.0212054655
 10
8.5586090413
 20
19.0414444037
 10
8.5397680879
 20
19.0605046794
  0
LWPOLYLINE
  5
515
100
AcDbEntity
  8
0
100
AcDbPolyline
 62
7
  6
CONTINUOUS
 90
7
 70
0
 10
9.1741473444
 20
15.3186902449
 10
9.1734545814
 20
15.3451492286
 10
9.1704716884
 20
15.3709307174
 10
9.1651986652
 20
15.3960347143
 10
9.1576355119
 20
15.4204612225
 10
9.1477822285
 20
15.444210245
 10
9.135638815
 20
15.4672817848
  0
LWPOLYLINE
  5
516
100
AcDbEntity
  8
0
100
AcDbPolyline
 62
7
  6
CONTINUOUS
 90
7
 70
0
 10
9.1741473444
 20
18.8149384305
 10
9.1734547422
 20
18.8413967986
 10
9.1704719483
 20
18.8671779186
 10
9.1651989625
 20
18.8922817945
 10
9.1576357848
 20
18.91670843
 10
9.1477824154
 20
18.940457829
 10
9.1356388541
 20
18.963529995
  0
LWPOLYLINE
  5
517
100
AcDbEntity
  8
0
100
AcDbPolyline
 62
7
  6
CONTINUOUS
 90
16
 70
0
 10
8.5694406509
 20
16.5250341341
 10
8.5696371542
 20
16.5161783094
 10
8.570040008
 20
16.5073658574
 10
8.5706492123
 20
16.4985967782
 10
8.571485451
 20
16.4898704852
 10
8.5725280402
 20
16.4811875652
 10
8.5737149282
 20
16.4725497781
 10
8.5750353842
 20
16.4639696163
 10
8.5765001389
 20
16.4554345877
 10
8.5780793339
 20
16.4469089755
 10
8.5797627756
 20
16.4384102443
 10
8.5815606575
 20
16.4299209296
 10
8.5834737008
 20
16.4213529207
 10
8.5855021458
 20
16.4126768475
 10
8.5876457522
 20
16.4039220797
 10
8.5899045199
 20
16.3950886175
  0
LWPOLYLINE
  5
518
100
AcDbEntity
  8
0
100
AcDbPolyline
 62
7
  6
CONTINUOUS
 90
16
 70
0
 10
8.5694406509
 20
17.690450196
 10
8.5696371523
 20
17.681594402
 10
8.5700400039
 20
17.6727819758
 10
8.5706492056
 20
17.6640129175
 10
8.5714854411
 20
17.6552866403
 10
8.5725280268
 20
17.6466037312
 10
8.573714912
 20
17.6379659508
 10
8.5750353658
 20
17.6293857913
 10
8.5765001191
 20
17.6208507607
 10
8.5780793136
 20
17.6123251429
 10
8.579762756
 20
17.6038264022
 10
8.5815606395
 20
17.5953370743
 10
8.5834736855
 20
17.5867690492
 10
8.5855021345
 20
17.5780929568
 10
8.587645746
 20
17.5693381669
 10
8.5899045199
 20
17.5605046794
  0
LWPOLYLINE
  5
519
100
AcDbEntity
  8
RACCORDO
100
AcDbPolyline
 62
250
  6
CONTINUOUS
 90
19
 70
0
 10
9.6021053835
 20
7.3217718508
 10
9.6017560025
 20
7.3388570855
 10
9.6007234117
 20
7.3559413772
 10
9.5989972624
 20
7.3728949665
 10
9.5965871227
 20
7.3896005872
 10
9.593493401
 20
7.4059072391
 10
9.5897199083
 20
7.4216366059
 10
9.5853386057
 20
7.4366786299
 10
9.580377594
 20
7.4508877231
 10
9.5748245295
 20
7.464060468
 10
9.568811405
 20
7.476069837
 10
9.5624133052
 20
7.4868749523
 10
9.5555570758
 20
7.4964249896
 10
9.5483250432
 20
7.5046830466
 10
9.5408506573
 20
7.5115409322
 10
9.5331561178
 20
7.516892923
 10
9.525342718
 20
7.5207352835
 10
9.5175700977
 20
7.5231135631
 10
9.509957789
 20
7.5240610023
  0
LINE
  5
51A
100
AcDbEntity
  8
RACCORDO
100
AcDbLine
 62
250
  6
CONTINUOUS
 10
8.9303794106
 20
-13.7118434042
 11
8.9303794106
 21
-12.8898867382
  0
LINE
  5
51B
100
AcDbEntity
  8
RACCORDO
100
AcDbLine
 62
250
  6
CONTINUOUS
 10
8.9303794106
 20
-9.4101132618
 11
8.9303794106
 21
-8.5898867382
  0
LINE
  5
51C
100
AcDbEntity
  8
RACCORDO
100
AcDbLine
 62
250
  6
CONTINUOUS
 10
8.9303794106
 20
-1.7101132618
 11
8.9303794106
 21
-0.8898867382
  0
LINE
  5
51D
100
AcDbEntity
  8
RACCORDO
100
AcDbLine
 62
250
  6
CONTINUOUS
 10
8.9303794106
 20
6.6898867382
 11
8.9303794106
 21
7.5118434042
  0
LINE
  5
51E
100
AcDbEntity
  8
RACCORDO
100
AcDbLine
 62
250
  6
CONTINUOUS
 10
9.2122871968
 20
-13.51242523
 11
9.2122871968
 21
-12.8881641073
  0
LINE
  5
51F
100
AcDbEntity
  8
RACCORDO
100
AcDbLine
 62
250
  6
CONTINUOUS
 10
9.2122871968
 20
-9.4118358927
 11
9.2122871968
 21
-8.5881641073
  0
LINE
  5
520
100
AcDbEntity
  8
RACCORDO
100
AcDbLine
 62
250
  6
CONTINUOUS
 10
9.2122871968
 20
-1.7118358927
 11
9.2122871968
 21
-0.8881641073
  0
LINE
  5
521
100
AcDbEntity
  8
RACCORDO
100
AcDbLine
 62
250
  6
CONTINUOUS
 10
9.2122871968
 20
6.6881641073
 11
9.2122871968
 21
7.31242523
  0
LINE
  5
522
100
AcDbEntity
  8
DRAFT
100
AcDbLine
 62
7
  6
CONTINUOUS
 10
9.5810577445
 20
6.6
 11
9.5810577445
 21
-0.8
  0
LINE
  5
523
100
AcDbEntity
  8
DRAFT
100
AcDbLine
 62
7
  6
CONTINUOUS
 10
9.5810577445
 20
-1.8
 11
9.5810577445
 21
-8.5
  0
LINE
  5
524
100
AcDbEntity
  8
DRAFT
100
AcDbLine
 62
7
  6
CONTINUOUS
 10
9.5810577445
 20
-9.5
 11
9.5810577445
 21
-12.8
  0
LINE
  5
525
100
AcDbEntity
  8
RACCORDO
100
AcDbLine
 62
250
  6
CONTINUOUS
 10
9.6021029835
 20
-13.5217717933
 11
9.6021029835
 21
-12.878817544
  0
LINE
  5
526
100
AcDbEntity
  8
RACCORDO
100
AcDbLine
 62
250
  6
CONTINUOUS
 10
9.6021029835
 20
-9.421182456
 11
9.6021029835
 21
-8.578817544
  0
LINE
  5
527
100
AcDbEntity
  8
RACCORDO
100
AcDbLine
 62
250
  6
CONTINUOUS
 10
9.6021029835
 20
-1.721182456
 11
9.6021029835
 21
-0.878817544
  0
LINE
  5
528
100
AcDbEntity
  8
RACCORDO
100
AcDbLine
 62
250
  6
CONTINUOUS
 10
9.6021029835
 20
6.678817544
 11
9.6021029835
 21
7.3217717933
  0
LINE
  5
529
100
AcDbEntity
  8
DRAFT
100
AcDbLine
 62
7
  6
CONTINUOUS
 10
9.65
 20
20.9
 11
9.65
 21
7.5310577445
  0
LINE
  5
52A
100
AcDbEntity
  8
DRAFT
100
AcDbLine
 62
7
  6
CONTINUOUS
 10
9.65
 20
-13.7310577445
 11
9.65
 21
-20.9
  0
LINE
  5
52B
100
AcDbEntity
  8
DRAFT
100
AcDbLine
 62
7
  6
CONTINUOUS
 10
9.6587268678
 20
-12.8776691233
 11
9.6587268678
 21
-9.4223308767
  0
LINE
  5
52C
100
AcDbEntity
  8
DRAFT
100
AcDbLine
 62
7
  6
CONTINUOUS
 10
9.6587268678
 20
-8.5776691233
 11
9.6587268678
 21
-1.7223308767
  0
LINE
  5
52D
100
AcDbEntity
  8
DRAFT
100
AcDbLine
 62
7
  6
CONTINUOUS
 10
9.6587268678
 20
-0.8776691233
 11
9.6587268678
 21
6.6776691233
  0
LINE
  5
52E
100
AcDbEntity
  8
RACCORDO
100
AcDbLine
 62
250
  6
CONTINUOUS
 10
9.7900415076
 20
-13.5240686345
 11
9.7900415076
 21
-12.8776691233
  0
LINE
  5
52F
100
AcDbEntity
  8
RACCORDO
100
AcDbLine
 62
250
  6
CONTINUOUS
 10
9.7900415076
 20
-9.4223308767
 11
9.7900415076
 21
-8.5776691233
  0
LINE
  5
530
100
AcDbEntity
  8
RACCORDO
100
AcDbLine
 62
250
  6
CONTINUOUS
 10
9.7900415076
 20
-1.7223308767
 11
9.7900415076
 21
-0.8776691233
  0
LINE
  5
531
100
AcDbEntity
  8
RACCORDO
100
AcDbLine
 62
250
  6
CONTINUOUS
 10
9.7900415076
 20
6.6776691233
 11
9.7900415076
 21
7.3240686345
  0
LINE
  5
532
100
AcDbEntity
  8
RACCORDO
100
AcDbLine
 62
250
  6
CONTINUOUS
 10
10.25
 20
-13.5240686345
 11
10.2500000001
 21
-13.7240610192
  0
LINE
  5
533
100
AcDbEntity
  8
RACCORDO
100
AcDbLine
 62
250
  6
CONTINUOUS
 10
10.25
 20
7.3240686345
 11
10.25
 21
7.5240610192
  0
LINE
  5
534
100
AcDbEntity
  8
RACCORDO
100
AcDbLine
 62
250
  6
CONTINUOUS
 10
10.55
 20
-13.224057211
 11
10.55
 21
7.024057211
  0
LWPOLYLINE
  5
535
100
AcDbEntity
  8
0
100
AcDbPolyline
 62
7
  6
CONTINUOUS
 90
10
 70
0
 10
9.3255798083
 20
18.8108457372
 10
9.3248267291
 20
18.7748339739
 10
9.321610771
 20
18.7396524916
 10
9.3159319339
 20
18.7053012971
 10
9.3078460875
 20
18.6715406354
 10
9.2972973621
 20
18.6386102733
 10
9.2841181485
 20
18.6072295059
 10
9.2682525768
 20
18.5776381074
 10
9.2497565168
 20
18.5495963261
 10
9.2286299686
 20
18.5231041718
  0
LWPOLYLINE
  5
536
100
AcDbEntity
  8
0
100
AcDbPolyline
 62
7
  6
CONTINUOUS
 90
10
 70
0
 10
9.3255798083
 20
15.3145975515
 10
9.3248268981
 20
15.2785868625
 10
9.3216110847
 20
15.243406115
 10
9.3159323682
 20
15.2090553146
 10
9.3078466422
 20
15.175294606
 10
9.297298013
 20
15.1423638542
 10
9.2841187992
 20
15.1109826487
 10
9.268253107
 20
15.0813908604
 10
9.2497568301
 20
15.0533486368
 10
9.2286299687
 20
15.0268559859
  0
LWPOLYLINE
  5
537
100
AcDbEntity
  8
0
100
AcDbPolyline
 62
7
  6
CONTINUOUS
 90
10
 70
0
 10
9.3266030012
 20
17.674079065
 10
9.3256519302
 20
17.633548068
 10
9.3217044918
 20
17.5938119323
 10
9.3147606858
 20
17.5548706647
 10
9.3048559236
 20
17.5164478339
 10
9.2919547939
 20
17.4788198834
 10
9.275951063
 20
17.4428161383
 10
9.2568093196
 20
17.4087130517
 10
9.2345649749
 20
17.3762341963
 10
9.209218029
 20
17.3453795834
  0
LWPOLYLINE
  5
538
100
AcDbEntity
  8
0
100
AcDbPolyline
 62
7
  6
CONTINUOUS
 90
10
 70
0
 10
9.3266030012
 20
16.5086630031
 10
9.3256519727
 20
16.4681322353
 10
9.3217045687
 20
16.4283962452
 10
9.3147607892
 20
16.3894550395
 10
9.3048560455
 20
16.351032153
 10
9.2919549264
 20
16.3134040622
 10
9.2759511974
 20
16.2774001917
 10
9.2568094473
 20
16.2432970269
 10
9.2345650874
 20
16.2108181066
 10
9.2092181177
 20
16.1799634413
  0
LWPOLYLINE
  5
539
100
AcDbEntity
  8
0
100
AcDbPolyline
 62
7
  6
CONTINUOUS
 90
10
 70
0
 10
9.3255798083
 20
14.1890859649
 10
9.324482379
 20
14.1451354801
 10
9.3193510494
 20
14.1023694403
 10
9.3101858195
 20
14.0607878543
 10
9.2969915373
 20
14.019953209
 10
9.2797633548
 20
13.9803030326
 10
9.2584867284
 20
13.9431499047
 10
9.2331568101
 20
13.9089313657
 10
9.203778448
 20
13.8772099074
 10
9.1703516419
 20
13.8479855431
  0
LWPOLYLINE
  5
53A
100
AcDbEntity
  8
RACCORDO
100
AcDbPolyline
 62
250
  6
CONTINUOUS
 90
13
 70
0
 10
9.2122871968
 20
-13.51242523
 10
9.2106123741
 20
-13.5384802728
 10
9.2057626103
 20
-13.5640911968
 10
9.1978205718
 20
-13.5888214533
 10
9.1869216337
 20
-13.6122495048
 10
9.173251573
 20
-13.6339760108
 10
9.1570434013
 20
-13.6536306339
 10
9.1385733937
 20
-13.6708783531
 10
9.118156379
 20
-13.685425174
 10
9.0961403736
 20
-13.69702314
 10
9.0729006492
 20
-13.7054745591
 10
9.0488333365
 20
-13.7106353733
 10
9.0243486726
 20
-13.7124176146
  0
LINE
  5
53B
100
AcDbEntity
  8
RACCORDO
100
AcDbLine
 62
7
  6
CONTINUOUS
 10
-6.6558702077
 20
-20.5728350282
 11
-6.5168765708
 21
-20.4338413913
  0
LINE
  5
53C
100
AcDbEntity
  8
RACCORDO
100
AcDbLine
 62
7
  6
CONTINUOUS
 10
-6.9101323002
 20
9.5101132618
 11
-6.7139945176
 21
9.5101132618
  0
LINE
  5
53D
100
AcDbEntity
  8
RACCORDO
100
AcDbLine
 62
7
  6
CONTINUOUS
 10
6.7139945176
 20
9.5101132618
 11
6.9101323002
 21
9.5101132618
  0
LINE
  5
53E
100
AcDbEntity
  8
DRAFT
100
AcDbLine
 62
7
  6
CONTINUOUS
 10
6.5
 20
9.5188401295
 11
-6.5
 21
9.5188401295
  0
LINE
  5
53F
100
AcDbEntity
  8
RACCORDO
100
AcDbLine
 62
7
  6
CONTINUOUS
 10
-7.0000849512
 20
9.6000659127
 11
-5.5000659127
 21
9.6000659127
  0
LINE
  5
540
100
AcDbEntity
  8
DRAFT
100
AcDbLine
 62
7
  6
CONTINUOUS
 10
-4.4999340873
 20
9.6000659127
 11
4.4999340873
 21
9.6000659127
  0
LINE
  5
541
100
AcDbEntity
  8
RACCORDO
100
AcDbLine
 62
7
  6
CONTINUOUS
 10
5.5000659127
 20
9.6000659127
 11
7.0000849512
 21
9.6000659127
  0
LWPOLYLINE
  5
542
100
AcDbEntity
  8
RACCORDO
100
AcDbPolyline
 62
7
  6
CONTINUOUS
 90
16
 70
0
 10
7.0000849512
 20
9.6000659127
 10
7.0521724765
 20
9.5973460943
 10
7.1037764834
 20
9.5891983754
 10
7.1543295652
 20
9.5756856248
 10
7.2033392262
 20
9.5569001772
 10
7.2501832706
 20
9.5330395935
 10
7.2941514538
 20
9.5044748448
 10
7.3346510068
 20
9.4716761142
 10
7.3714240221
 20
9.4349437147
 10
7.4042882036
 20
9.3944511555
 10
7.4329455248
 20
9.35042829
 10
7.4568970634
 20
9.3034821851
 10
7.4757356198
 20
9.2543916914
 10
7.4892678677
 20
9.2038102614
 10
7.4974224372
 20
9.152212196
 10
7.5001477533
 20
9.1001667918
  0
LWPOLYLINE
  5
543
100
AcDbEntity
  8
RACCORDO
100
AcDbPolyline
 62
250
  6
CONTINUOUS
 90
8
 70
0
 10
-7.1563704044
 20
18.541329332
 10
-7.1760364792
 20
18.5585786439
 10
-7.1932831638
 20
18.5782477143
 10
-7.2078153628
 20
18.6000000001
 10
-7.2193844262
 20
18.6234633136
 10
-7.2277924042
 20
18.648236191
 10
-7.2328954339
 20
18.6738947616
 10
-7.234606201
 20
18.7
  0
LINE
  5
544
100
AcDbEntity
  8
RACCORDO
100
AcDbLine
 62
7
  6
CONTINUOUS
 10
8.4127084755
 20
4.6872915245
 11
8.5
 21
4.6
  0
LINE
  5
545
100
AcDbEntity
  8
RACCORDO
100
AcDbLine
 62
7
  6
CONTINUOUS
 10
-6.5168765708
 20
20.4338413913
 11
-6.6558702077
 21
20.5728350282
  0
LINE
  5
546
100
AcDbEntity
  8
RACCORDO
100
AcDbLine
 62
7
  6
CONTINUOUS
 10
4.4999340873
 20
9.6000659127
 11
4.5743642455
 21
9.5256357545
  0
LINE
  5
547
100
AcDbEntity
  8
RACCORDO
100
AcDbLine
 62
250
  6
CONTINUOUS
 10
6.3140554395
 20
8.5859750215
 11
6.300030461
 21
8.6
  0
LWPOLYLINE
  5
548
100
AcDbEntity
  8
RACCORDO
100
AcDbPolyline
 62
7
  6
CONTINUOUS
 90
19
 70
0
 10
10.75
 20
7.024057211
 10
10.7486300982
 20
7.0610443424
 10
10.7442725581
 20
7.0995206351
 10
10.7365593831
 20
7.1392100173
 10
10.7250499133
 20
7.1800314047
 10
10.7094500227
 20
7.2213039408
 10
10.6898469731
 20
7.2618291643
 10
10.6661905244
 20
7.3011611843
 10
10.6384635239
 20
7.3388549262
 10
10.6072469622
 20
7.3738806987
 10
10.572774778
 20
7.4059193007
 10
10.5353406491
 20
7.4346461503
 10
10.4959789828
 20
7.4593700029
 10
10.45520511
 20
7.4800111824
 10
10.4133830543
 20
7.4966134194
 10
10.3715003611
 20
7.5090739586
 10
10.3301706395
 20
7.5175918034
 10
10.2895671009
 20
7.5224930126
 10
10.25
 20
7.5240610192
  0
LWPOLYLINE
  5
549
100
AcDbEntity
  8
RACCORDO
100
AcDbPolyline
 62
250
  6
CONTINUOUS
 90
19
 70
0
 10
10.55
 20
7.024057211
 10
10.5495299284
 20
7.0465964513
 10
10.5468403671
 20
7.0696335712
 10
10.541931316
 20
7.0931685707
 10
10.5348604201
 20
7.117602964
 10
10.5255700346
 20
7.1425352368
 10
10.5138872247
 20
7.1667608468
 10
10.4995934099
 20
7.1902335778
 10
10.4829071707
 20
7.212999646
 10
10.4643113145
 20
7.2339931577
 10
10.4436232185
 20
7.2530632012
 10
10.4210255054
 20
7.2703606883
 10
10.397548851
 20
7.2852724611
 10
10.3731772771
 20
7.2975699909
 10
10.3479267619
 20
7.3074818064
 10
10.3228759156
 20
7.3150803358
 10
10.2983842749
 20
7.3203897216
 10
10.274092303
 20
7.3233858212
 10
10.25
 20
7.3240686345
  0
LINE
  5
54A
100
AcDbEntity
  8
RACCORDO
100
AcDbLine
 62
7
  6
CONTINUOUS
 10
10.75
 20
-13.224057211
 11
10.75
 21
7.024057211
  0
LINE
  5
54B
100
AcDbEntity
  8
0
100
AcDbLine
 62
7
  6
CONTINUOUS
 10
11.15
 20
-21.8997711479
 11
11.15
 21
21.8997711479
  0
LINE
  5
54C
100
AcDbEntity
  8
RACCORDO
100
AcDbLine
 62
7
  6
CONTINUOUS
 10
7.4372915245
 20
-9.4127084755
 11
7.3674537356
 21
-9.4825462644
  0
LWPOLYLINE
  5
54D
100
AcDbEntity
  8
RACCORDO
100
AcDbPolyline
 62
7
  6
CONTINUOUS
 90
6
 70
0
 10
-7.1443368656
 20
-18.5327809856
 10
-7.1346214315
 20
-18.5267949192
 10
-7.1111616916
 20
-18.5152240935
 10
-7.0863925871
 20
-18.5068148347
 10
-7.0607379245
 20
-18.5017110277
 10
-7.034636662
 20
-18.5
  0
LWPOLYLINE
  5
54E
100
AcDbEntity
  8
0
100
AcDbPolyline
 62
7
  6
CONTINUOUS
 90
19
 70
0
 10
8.2062073366
 20
14.6444065387
 10
8.2256356487
 20
14.6490007997
 10
8.2451297635
 20
14.6531789971
 10
8.264689681
 20
14.656941131
 10
8.2843309724
 20
14.6602527746
 10
8.3040380665
 20
14.6631483553
 10
8.3237642493
 20
14.6657311548
 10
8.3435024966
 20
14.6680122894
 10
8.3632598326
 20
14.6699806432
 10
8.3830106159
 20
14.6717061496
 10
8.4027490625
 20
14.6731956426
 10
8.4224809564
 20
14.6744422885
 10
8.442198008
 20
14.6754955194
 10
8.461895237
 20
14.6763599653
 10
8.4815776238
 20
14.6770309964
 10
8.5012518195
 20
14.6775441549
 10
8.5209200414
 20
14.6779112882
 10
8.5405800723
 20
14.678120549
 10
8.5602319121
 20
14.6781719372
  0
LINE
  5
54F
100
AcDbEntity
  8
0
100
AcDbLine
 62
7
  6
CONTINUOUS
 10
1.850359
 20
11.393697
 11
3.350368
 21
11.393697
  0
LINE
  5
550
100
AcDbEntity
  8
0
100
AcDbLine
 62
7
  6
CONTINUOUS
 10
2.14659
 20
11.582765
 11
3.350368
 21
11.582765
  0
LINE
  5
551
100
AcDbEntity
  8
0
100
AcDbLine
 62
7
  6
CONTINUOUS
 10
-2.051155
 20
12.335843
 11
-3.325037
 21
12.744837
  0
LINE
  5
552
100
AcDbEntity
  8
0
100
AcDbLine
 62
7
  6
CONTINUOUS
 10
-1.474954
 20
12.520852
 11
-3.325037
 21
13.114855
  0
LINE
  5
553
100
AcDbEntity
  8
RACCORDO
100
AcDbLine
 62
7
  6
CONTINUOUS
 10
6.5140249785
 20
9.5118281743
 11
6.5
 21
9.5188401295
  0
LINE
  5
554
100
AcDbEntity
  8
RACCORDO
100
AcDbLine
 62
250
  6
CONTINUOUS
 10
-7.1457306636
 20
18.5337039914
 11
-7.1563704044
 21
18.541329332
  0
LINE
  5
555
100
AcDbEntity
  8
DRAFT
100
AcDbLine
 62
7
  6
CONTINUOUS
 10
8.4101132618
 20
6.6898867382
 11
8.5
 21
6.6
  0
LINE
  5
556
100
AcDbEntity
  8
RACCORDO
100
AcDbLine
 62
250
  6
CONTINUOUS
 10
6.5140249785
 20
8.7859445605
 11
6.5
 21
8.799969539
  0
LINE
  5
557
100
AcDbEntity
  8
DRAFT
100
AcDbLine
 62
7
  6
CONTINUOUS
 10
9.65
 20
7.5310577445
 11
9.5806907165
 21
7.6003670279
  0
LINE
  5
558
100
AcDbEntity
  8
0
100
AcDbLine
 62
7
  6
CONTINUOUS
 10
8.9040245444
 20
16.0318554685
 11
8.8794679374
 21
16.2160300657
  0
LINE
  5
559
100
AcDbEntity
  8
0
100
AcDbLine
 62
7
  6
CONTINUOUS
 10
8.9040245444
 20
17.1972713515
 11
8.8794679374
 21
17.3814461276
  0
LINE
  5
55A
100
AcDbEntity
  8
DRAFT
100
AcDbLine
 62
7
  6
CONTINUOUS
 10
7.5153129787
 20
-20.5028438891
 11
7.3830351795
 21
-20.9
  0
LINE
  5
55B
100
AcDbEntity
  8
DRAFT
100
AcDbLine
 62
7
  6
CONTINUOUS
 10
9.6587268678
 20
-9.4223308767
 11
9.5810577445
 21
-9.5
  0
LWPOLYLINE
  5
55C
100
AcDbEntity
  8
0
100
AcDbPolyline
 62
7
  6
CONTINUOUS
 90
19
 70
0
 10
8.8794679374
 20
16.2160300657
 10
8.894795681
 20
16.2191840473
 10
8.9097445667
 20
16.2225831987
 10
8.9243145945
 20
16.22622752
 10
8.9384783799
 20
16.2300997584
 10
8.9522633074
 20
16.2342171662
 10
8.9657515306
 20
16.2386315004
 10
8.978946251
 20
16.2433269552
 10
8.991844267
 20
16.2483193358
 10
9.0045181272
 20
16.2537078159
 10
9.0170142323
 20
16.2594948712
 10
9.0292861815
 20
16.2656780251
 10
9.0412673209
 20
16.2723490225
 10
9.0529843362
 20
16.279513924
 10
9.0644105417
 20
16.2871666676
 10
9.0753992268
 20
16.2953808148
 10
9.085901488
 20
16.3041808852
 10
9.0959662287
 20
16.3135423572
 10
9.105593449
 20
16.3234652298
  0
LWPOLYLINE
  5
55D
100
AcDbEntity
  8
0
100
AcDbPolyline
 62
7
  6
CONTINUOUS
 90
26
 70
0
 10
5.5319929997
 20
15.0210770037
 10
5.5534273641
 20
15.0251707758
 10
5.5744875938
 20
15.0303753291
 10
5.5951736887
 20
15.0366906625
 10
5.6156952122
 20
15.0440326391
 10
5.635842601
 20
15.052485393
 10
5.6549871652
 20
15.0623013294
 10
5.673073652
 20
15.0734440085
 10
5.6901573142
 20
15.0859498648
 10
5.7057752202
 20
15.1001806136
 10
5.7198951108
 20
15.116234073
 10
5.7325492452
 20
15.1340124151
 10
5.7433714692
 20
15.1535838835
 10
5.7523630924
 20
15.1750737508
 10
5.7595228051
 20
15.1983567306
 10
5.7644805248
 20
15.2231252286
 10
5.7673126779
 20
15.2496365004
 10
5.7679428378
 20
15.2776332754
 10
5.765771643
 20
15.3060361765
 10
5.7607257226
 20
15.3349793878
 10
5.7528784473
 20
15.3643287201
 10
5.7418505682
 20
15.39260225
 10
5.7269961197
 20
15.4197963508
 10
5.7089610673
 20
15.4459146601
 10
5.6893040586
 20
15.4694861657
 10
5.6680803349
 20
15.4899258342
  0
LWPOLYLINE
  5
55E
100
AcDbEntity
  8
0
100
AcDbPolyline
 62
7
  6
CONTINUOUS
 90
16
 70
0
 10
8.9367667168
 20
15.0700545654
 10
8.9513096393
 20
15.0727067454
 10
8.9654876442
 20
15.0757064569
 10
8.9793007314
 20
15.0790536997
 10
8.9927271549
 20
15.0827196377
 10
9.0057886608
 20
15.0867331066
 10
9.0185504874
 20
15.0911806136
 10
9.0310321787
 20
15.0960431892
 10
9.0432141907
 20
15.1013398022
 10
9.0551031297
 20
15.1072138668
 10
9.0667707732
 20
15.1136888254
 10
9.0781453437
 20
15.1207412343
 10
9.0890181158
 20
15.1284441789
 10
9.0993195144
 20
15.1368220202
 10
9.1091191147
 20
15.1458503953
 10
9.1184169166
 20
15.1555293031
  0
LWPOLYLINE
  5
55F
100
AcDbEntity
  8
0
100
AcDbPolyline
 62
7
  6
CONTINUOUS
 90
21
 70
0
 10
5.1798169843
 20
13.8465658242
 10
5.2031583615
 20
13.8468194012
 10
5.2264955234
 20
13.8472897423
 10
5.2498293771
 20
13.8479535115
 10
5.2731590157
 20
13.8488340449
 10
5.2964817174
 20
13.8500013503
 10
5.3197947239
 20
13.8514562331
 10
5.3431007936
 20
13.8531978878
 10
5.366405481
 20
13.8552939066
 10
5.3896939963
 20
13.8577356177
 10
5.4129811294
 20
13.8605316926
 10
5.4363168039
 20
13.8637757389
 10
5.4597108377
 20
13.8673556626
 10
5.483153413
 20
13.8713835571
 10
5.5066650003
 20
13.8762893111
 10
5.5303530624
 20
13.8819365475
 10
5.5541101366
 20
13.8884616418
 10
5.5776343054
 20
13.8967036098
 10
5.6008249299
 20
13.906942121
 10
5.623782649
 20
13.9188975002
 10
5.6465074628
 20
13.932569744
  0
LWPOLYLINE
  5
560
100
AcDbEntity
  8
0
100
AcDbPolyline
 62
7
  6
CONTINUOUS
 90
25
 70
0
 10
8.5602319121
 20
13.8892905906
 10
8.5872985095
 20
13.8894246472
 10
8.6133804199
 20
13.8897701868
 10
8.6384776433
 20
13.8903272094
 10
8.6624970515
 20
13.8910986294
 10
8.6855317727
 20
13.8920815323
 10
8.7078611914
 20
13.8932671744
 10
8.7294871867
 20
13.8946441956
 10
8.7504078795
 20
13.8962239559
 10
8.770897017
 20
13.8980317914
 10
8.790965568
 20
13.9000518012
 10
8.8106025638
 20
13.9022998861
 10
8.8300488446
 20
13.9048490852
 10
8.8493390419
 20
13.907678537
 10
8.8684385243
 20
13.9108091026
 10
8.8874842377
 20
13.914376405
 10
8.9065496255
 20
13.9183578917
 10
8.9255612443
 20
13.9227761145
 10
8.9444357099
 20
13.9278343526
 10
8.9632284899
 20
13.9334815452
 10
8.9818841168
 20
13.9397687519
 10
9.0001528037
 20
13.9470524314
 10
9.0179512886
 20
13.9554514023
 10
9.0353628336
 20
13.9648468431
 10
9.0523874386
 20
13.9752387525
  0
LINE
  5
561
100
AcDbEntity
  8
0
100
AcDbLine
 62
7
  6
CONTINUOUS
 10
1.850359
 20
12.400016
 11
3.066765
 21
12.400016
  0
LINE
  5
562
100
AcDbEntity
  8
0
100
AcDbLine
 62
7
  6
CONTINUOUS
 10
1.850359
 20
12.589099
 11
3.350368
 21
12.589099
  0
LINE
  5
563
100
AcDbEntity
  8
RACCORDO
100
AcDbLine
 62
7
  6
CONTINUOUS
 10
-5.3000241398
 20
12.8157624759
 11
-4.6999758602
 21
12.8157624759
  0
LINE
  5
564
100
AcDbEntity
  8
RACCORDO
100
AcDbLine
 62
7
  6
CONTINUOUS
 10
4.6999758602
 20
12.8157624759
 11
5.3000241398
 21
12.8157624759
  0
LINE
  5
565
100
AcDbEntity
  8
0
100
AcDbLine
 62
7
  6
CONTINUOUS
 10
1.850359
 20
13.007122
 11
3.350368
 21
13.007122
  0
LINE
  5
566
100
AcDbEntity
  8
0
100
AcDbLine
 62
7
  6
CONTINUOUS
 10
2.018425
 20
13.206714
 11
2.49532
 21
13.206714
  0
LINE
  5
567
100
AcDbEntity
  8
0
100
AcDbLine
 62
7
  6
CONTINUOUS
 10
2.663401
 20
13.206714
 11
3.182302
 21
13.206714
  0
LINE
  5
568
100
AcDbEntity
  8
0
100
AcDbLine
 62
7
  6
CONTINUOUS
 10
-3.325037
 20
13.361529
 11
-1.474949
 21
13.361525
  0
LINE
  5
569
100
AcDbEntity
  8
0
100
AcDbLine
 62
7
  6
CONTINUOUS
 10
-3.325037
 20
13.731543
 11
-1.474954
 21
13.731539
  0
LINE
  5
56A
100
AcDbEntity
  8
0
100
AcDbLine
 62
7
  6
CONTINUOUS
 10
2.49532
 20
13.986125
 11
2.663401
 21
13.986125
  0
LINE
  5
56B
100
AcDbEntity
  8
0
100
AcDbLine
 62
7
  6
CONTINUOUS
 10
1.850359
 20
14.042849
 11
2.018425
 21
14.042849
  0
LINE
  5
56C
100
AcDbEntity
  8
0
100
AcDbLine
 62
7
  6
CONTINUOUS
 10
3.182302
 20
14.049148
 11
3.350368
 21
14.049148
  0
LINE
  5
56D
100
AcDbEntity
  8
0
100
AcDbLine
 62
7
  6
CONTINUOUS
 10
-3.325037
 20
14.101543
 11
-1.474954
 21
14.101543
  0
LWPOLYLINE
  5
56E
100
AcDbEntity
  8
0
100
AcDbPolyline
 62
7
  6
CONTINUOUS
 90
19
 70
0
 10
8.5602319121
 20
13.6999999981
 10
8.5362603826
 20
13.7000827916
 10
8.5123003964
 20
13.7004214711
 10
8.4883519535
 20
13.7010160366
 10
8.4644177797
 20
13.7018472032
 10
8.4404951491
 20
13.7029342557
 10
8.4165758846
 20
13.7043350489
 10
8.3926534578
 20
13.70604245
 10
8.368734397
 20
13.7080635917
 10
8.3448301098
 20
13.7104777271
 10
8.3209266752
 20
13.7132764132
 10
8.2970380143
 20
13.7164680926
 10
8.2732172977
 20
13.7201573477
 10
8.2494559032
 20
13.7243317018
 10
8.225762453
 20
13.729003631
 10
8.2022159846
 20
13.7343151458
 10
8.1788428436
 20
13.7403135829
 10
8.1556166843
 20
13.7469516044
 10
8.1325375067
 20
13.7542292098
  0
LWPOLYLINE
  5
56F
100
AcDbEntity
  8
0
100
AcDbPolyline
 62
7
  6
CONTINUOUS
 90
42
 70
0
 10
5.1559498262
 20
13.6587682325
 10
5.1070569605
 20
13.6589500954
 10
5.0579900083
 20
13.6605401287
 10
5.0087489697
 20
13.6635383317
 10
4.9589501659
 20
13.6677538728
 10
4.9089772756
 20
13.6733775821
 10
4.8599813351
 20
13.6809819516
 10
4.8120781365
 20
13.6905740128
 10
4.7651518877
 20
13.7021467286
 10
4.7200062483
 20
13.7162514857
 10
4.6767916913
 20
13.732841565
 10
4.6353577438
 20
13.7519636729
 10
4.5960566468
 20
13.7743093296
 10
4.5585737827
 20
13.7997194235
 10
4.5232237692
 20
13.8283530409
 10
4.4913027007
 20
13.8613789885
 10
4.4625560898
 20
13.8996007382
 10
4.4372384239
 20
13.942214762
 10
4.4174092589
 20
13.9879793653
 10
4.4037960527
 20
14.0375006717
 10
4.3956713475
 20
14.0901725026
 10
4.3929123261
 20
14.1429347438
 10
4.3954544636
 20
14.1958316518
 10
4.4033622848
 20
14.248818967
 10
4.4167065469
 20
14.2987038568
 10
4.4361180627
 20
14.3448831629
 10
4.4609660194
 20
14.3879600976
 10
4.4894287353
 20
14.4265514215
 10
4.5213732723
 20
14.4597861888
 10
4.5569325686
 20
14.4885354048
 10
4.5946837571
 20
14.5140287558
 10
4.6343273028
 20
14.5363665258
 10
4.6761627406
 20
14.5554484578
 10
4.7196658083
 20
14.5722034142
 10
4.764896119
 20
14.5869069304
 10
4.8117940595
 20
14.5992834834
 10
4.8596565284
 20
14.6094353435
 10
4.9086380037
 20
14.6171329126
 10
4.9585840073
 20
14.6226057961
 10
5.0083280034
 20
14.6266450662
 10
5.0574811468
 20
14.629514414
 10
5.1064322827
 20
14.63095015
  0
LWPOLYLINE
  5
570
100
AcDbEntity
  8
RACCORDO
100
AcDbPolyline
 62
7
  6
CONTINUOUS
 90
13
 70
0
 10
-4.6999758602
 20
12.8157624759
 10
-4.6744965068
 20
12.8140293097
 10
-4.6493117674
 20
12.8088663423
 10
-4.6248464775
 20
12.8003033263
 10
-4.6015002733
 20
12.7883850794
 10
-4.5797166019
 20
12.7732792014
 10
-4.5599546744
 20
12.755304661
 10
-4.5425923585
 20
12.7347414304
 10
-4.527906565
 20
12.7118811896
 10
-4.516145786
 20
12.6871399703
 10
-4.5075421436
 20
12.6609091392
 10
-4.5022898556
 20
12.6335600218
 10
-4.5005183986
 20
12.6055139921
  0
LWPOLYLINE
  5
571
100
AcDbEntity
  8
RACCORDO
100
AcDbPolyline
 62
7
  6
CONTINUOUS
 90
13
 70
0
 10
5.3000241398
 20
12.8157624759
 10
5.3255034932
 20
12.8140293097
 10
5.3506882326
 20
12.8088663423
 10
5.3751535225
 20
12.8003033263
 10
5.3984997267
 20
12.7883850794
 10
5.4202833981
 20
12.7732792014
 10
5.4400453256
 20
12.755304661
 10
5.4574076415
 20
12.7347414304
 10
5.472093435
 20
12.7118811896
 10
5.483854214
 20
12.6871399703
 10
5.4924578564
 20
12.6609091392
 10
5.4977101444
 20
12.6335600218
 10
5.4994816014
 20
12.6055139921
  0
LINE
  5
572
100
AcDbEntity
  8
0
100
AcDbLine
 62
7
  6
CONTINUOUS
 10
-2.120197
 20
15.006388
 11
-3.325037
 21
15.35187
  0
LWPOLYLINE
  5
573
100
AcDbEntity
  8
RACCORDO
100
AcDbPolyline
 62
7
  6
CONTINUOUS
 90
22
 70
0
 10
-6.6582893563
 20
20.5731858629
 10
-6.660484049
 20
20.574556117
 10
-6.6638174652
 20
20.5781990699
 10
-6.6682896049
 20
20.5838064515
 10
-6.6740318146
 20
20.5910923351
 10
-6.6809127478
 20
20.5996995287
 10
-6.6885383648
 20
20.6091344402
 10
-6.6968644919
 20
20.6188983843
 10
-6.7059353029
 20
20.6288065536
 10
-6.7154892787
 20
20.6388819884
 10
-6.7254271847
 20
20.6489332736
 10
-6.7358482556
 20
20.6588217898
 10
-6.7467886764
 20
20.6687569888
 10
-6.7583832459
 20
20.6787825197
 10
-6.7704971654
 20
20.68865368
 10
-6.7827622233
 20
20.6981785437
 10
-6.7951736862
 20
20.7072714614
 10
-6.8077362875
 20
20.7158745051
 10
-6.8200960166
 20
20.7238673752
 10
-6.8321348699
 20
20.7311986851
 10
-6.843970851
 20
20.7378753507
 10
-6.8556039598
 20
20.7438927334
  0
LWPOLYLINE
  5
574
100
AcDbEntity
  8
0
100
AcDbPolyline
 62
7
  6
CONTINUOUS
 90
26
 70
0
 10
5.2928369754
 20
15.5225439414
 10
5.3210419831
 20
15.4825707489
 10
5.345737365
 20
15.438430958
 10
5.3647577976
 20
15.3919359889
 10
5.3774503793
 20
15.3427738845
 10
5.3844680116
 20
15.2912565591
 10
5.3856040758
 20
15.2401312797
 10
5.3807890541
 20
15.1896977255
 10
5.3700924642
 20
15.1396562277
 10
5.3535162398
 20
15.0918550743
 10
5.3308763502
 20
15.0464846639
 10
5.3023568262
 20
15.0033546379
 10
5.2685116933
 20
14.9637421738
 10
5.2290757955
 20
14.9273448651
 10
5.1843142889
 20
14.8944651657
 10
5.1355766676
 20
14.8672875635
 10
5.0823476044
 20
14.8465832151
 10
5.0251424265
 20
14.8315810153
 10
4.9668566092
 20
14.8221520622
 10
4.9073913182
 20
14.8183163925
 10
4.8468453879
 20
14.8200539826
 10
4.7884107964
 20
14.8271758325
 10
4.7324709821
 20
14.8397955554
 10
4.6786425067
 20
14.8577995187
 10
4.6289670337
 20
14.8806578467
 10
4.5839982273
 20
14.9085966592
  0
LINE
  5
575
100
AcDbEntity
  8
DRAFT
100
AcDbLine
 62
7
  6
CONTINUOUS
 10
7.5153129787
 20
20.5028438891
 11
7.3830351795
 21
20.9
  0
LINE
  5
576
100
AcDbEntity
  8
DRAFT
100
AcDbLine
 62
7
  6
CONTINUOUS
 10
7.5
 20
-12.8
 11
7.4825462644
 21
-12.8174537356
  0
LINE
  5
577
100
AcDbEntity
  8
RACCORDO
100
AcDbLine
 62
250
  6
CONTINUOUS
 10
6.3140554395
 20
-14.4859750215
 11
6.300030461
 21
-14.5
  0
LINE
  5
578
100
AcDbEntity
  8
RACCORDO
100
AcDbLine
 62
7
  6
CONTINUOUS
 10
0.3972163531
 20
-20.4338413913
 11
0.2629729446
 21
-20.5680847998
  0
LINE
  5
579
100
AcDbEntity
  8
RACCORDO
100
AcDbLine
 62
250
  6
CONTINUOUS
 10
6.5140249785
 20
-14.6859445605
 11
6.5
 21
-14.699969539
  0
LINE
  5
57A
100
AcDbEntity
  8
DRAFT
100
AcDbLine
 62
7
  6
CONTINUOUS
 10
-6.8667670239
 20
-21.1647852141
 11
-6.9339198284
 21
-21.2
  0
LWPOLYLINE
  5
57B
100
AcDbEntity
  8
RACCORDO
100
AcDbPolyline
 62
7
  6
CONTINUOUS
 90
22
 70
0
 10
-6.8556039598
 20
-20.7438927334
 10
-6.8439789166
 20
-20.7378805695
 10
-6.8321363463
 20
-20.7312003704
 10
-6.820076249
 20
-20.7238550262
 10
-6.8076750808
 20
-20.7158333532
 10
-6.7950563856
 20
-20.7071884375
 10
-6.782590795
 20
-20.6980495296
 10
-6.7702734199
 20
-20.6884737495
 10
-6.7581091494
 20
-20.6785497722
 10
-6.7464832829
 20
-20.6684860341
 10
-6.7355401483
 20
-20.658535236
 10
-6.7251354177
 20
-20.648647055
 10
-6.7152214069
 20
-20.6386064488
 10
-6.7056972023
 20
-20.6285495879
 10
-6.6966637174
 20
-20.6186691032
 10
-6.6883760089
 20
-20.6089416263
 10
-6.6807906443
 20
-20.5995512936
 10
-6.6739510561
 20
-20.590990769
 10
-6.6682425977
 20
-20.5837458796
 10
-6.6637937206
 20
-20.5781702512
 10
-6.6604759735
 20
-20.5745483309
 10
-6.6582893563
 20
-20.5731858629
  0
LWPOLYLINE
  5
57C
100
AcDbEntity
  8
0
100
AcDbPolyline
 62
7
  6
CONTINUOUS
 90
12
 70
0
 10
5.3990674961
 20
16.758646213
 10
5.3626376916
 20
16.7505439152
 10
5.3283871907
 20
16.7381871637
 10
5.2964821355
 20
16.7211797771
 10
5.2667563839
 20
16.6999179108
 10
5.2403852409
 20
16.6754274673
 10
5.2174544285
 20
16.647769393
 10
5.1978782247
 20
16.6168827078
 10
5.1825747681
 20
16.5836104308
 10
5.171850105
 20
16.5482335597
 10
5.1653981891
 20
16.5104710655
 10
5.1632190205
 20
16.4703229305
  0
LWPOLYLINE
  5
57D
100
AcDbEntity
  8
0
100
AcDbPolyline
 62
7
  6
CONTINUOUS
 90
32
 70
0
 10
5.4714919691
 20
16.1622452262
 10
5.4977298502
 20
16.1676844977
 10
5.523616279
 20
16.1743958376
 10
5.5491512555
 20
16.1823792442
 10
5.5746158714
 20
16.1915274905
 10
5.5997290349
 20
16.2019477994
 10
5.6236474717
 20
16.2139618433
 10
5.6462877708
 20
16.2275532939
 10
5.6677333431
 20
16.2427384715
 10
5.6873911466
 20
16.2598880181
 10
5.7052390941
 20
16.2790828433
 10
5.7212992728
 20
16.3002420232
 10
5.7350449019
 20
16.323493446
 10
5.7465160558
 20
16.3489299667
 10
5.7556726601
 20
16.3764587098
 10
5.7618677116
 20
16.4059289663
 10
5.765248001
 20
16.4377648759
 10
5.7656667375
 20
16.4715422734
 10
5.7620365457
 20
16.5058380019
 10
5.7541088778
 20
16.5410026851
 10
5.7421322816
 20
16.5766856902
 10
5.7257650257
 20
16.6104120021
 10
5.7043934021
 20
16.641965175
 10
5.6786311188
 20
16.6715616811
 10
5.6499775689
 20
16.6973759104
 10
5.6183523864
 20
16.7190410654
 10
5.5838359371
 20
16.7369239808
 10
5.5481687121
 20
16.7502995044
 10
5.5113787588
 20
16.7587874197
 10
5.4734380298
 20
16.7627679636
 10
5.4360028736
 20
16.7626566597
 10
5.3990674961
 20
16.758646213
  0
LWPOLYLINE
  5
57E
100
AcDbEntity
  8
0
100
AcDbPolyline
 62
7
  6
CONTINUOUS
 90
32
 70
0
 10
5.496520013
 20
17.2984839045
 10
5.522758615
 20
17.303923364
 10
5.5486456737
 20
17.3106349419
 10
5.5741811891
 20
17.3186186364
 10
5.5996462962
 20
17.3277672548
 10
5.6247598601
 20
17.3381879854
 10
5.6486784759
 20
17.3502023962
 10
5.6713186598
 20
17.3637941818
 10
5.6927638956
 20
17.3789796392
 10
5.71242123
 20
17.3961292379
 10
5.7302685158
 20
17.4153237981
 10
5.7463279001
 20
17.4364824843
 10
5.7600728711
 20
17.4597332799
 10
5.7715435841
 20
17.4851689726
 10
5.7806998837
 20
17.5126967527
 10
5.7868947918
 20
17.5421662065
 10
5.7902751958
 20
17.5740014907
 10
5.7906942084
 20
17.6077784214
 10
5.7870641894
 20
17.6420740837
 10
5.7791365092
 20
17.6772393635
 10
5.7671597975
 20
17.7129233652
 10
5.7507923034
 20
17.7466505302
 10
5.7294201649
 20
17.7782042718
 10
5.7036572442
 20
17.8078012049
 10
5.675003377
 20
17.8336156026
 10
5.6433783693
 20
17.8552804964
 10
5.6088624151
 20
17.8731628946
 10
5.5731959329
 20
17.8865380453
 10
5.5364070822
 20
17.8950258311
 10
5.4984677033
 20
17.8990063913
 10
5.4610337355
 20
17.8988953546
 10
5.4240993144
 20
17.8948855448
  0
LWPOLYLINE
  5
57F
100
AcDbEntity
  8
0
100
AcDbPolyline
 62
7
  6
CONTINUOUS
 90
19
 70
0
 10
8.8794679374
 20
17.3814461276
 10
8.8947957474
 20
17.384600121
 10
8.9097447139
 20
17.3879992937
 10
8.9243148366
 20
17.3916436454
 10
8.9384787382
 20
17.3955159246
 10
8.9522637961
 20
17.3996333825
 10
8.9657521428
 20
17.4040477729
 10
8.9789469794
 20
17.408743292
 10
8.9918451047
 20
17.4137357431
 10
9.0045190478
 20
17.4191242907
 10
9.0170152069
 20
17.4249114132
 10
9.0292871839
 20
17.4310946313
 10
9.0412683129
 20
17.4377656726
 10
9.0529852762
 20
17.4449306027
 10
9.0644113916
 20
17.4525833545
 10
9.0753999467
 20
17.4607974572
 10
9.0859020374
 20
17.4695974198
 10
9.0959665678
 20
17.4789587313
 10
9.1055935379
 20
17.4888813904
  0
LINE
  5
580
100
AcDbEntity
  8
0
100
AcDbLine
 62
7
  6
CONTINUOUS
 10
8.6211550816
 20
15.6683568294
 11
8.6119196792
 21
15.6679679129
  0
LWPOLYLINE
  5
581
100
AcDbEntity
  8
0
100
AcDbPolyline
 62
7
  6
CONTINUOUS
 90
7
 70
0
 10
8.6119196792
 20
15.6679679129
 10
8.6073222795
 20
15.6678103717
 10
8.6049757603
 20
15.6677427473
 10
8.60248113
 20
15.6676873247
 10
8.5998012838
 20
15.6676456705
 10
8.5969733265
 20
15.667616218
 10
8.5939972579
 20
15.6675989673
  0
LWPOLYLINE
  5
582
100
AcDbEntity
  8
0
100
AcDbPolyline
 62
7
  6
CONTINUOUS
 90
10
 70
0
 10
8.3064801872
 20
15.0547066972
 10
8.3351974129
 20
15.0553037449
 10
8.363380626
 20
15.0580858098
 10
8.3910298264
 20
15.0630528907
 10
8.4183651133
 20
15.0701340844
 10
8.4451663875
 20
15.0794002894
 10
8.4707733518
 20
15.0910642054
 10
8.494965907
 20
15.1051967285
 10
8.5179641524
 20
15.1217269513
 10
8.5397680879
 20
15.1406548664
  0
LWPOLYLINE
  5
583
100
AcDbEntity
  8
0
100
AcDbPolyline
 62
7
  6
CONTINUOUS
 90
5
 70
0
 10
8.6308322132
 20
15.6686221406
 10
8.6283808909
 20
15.6685776063
 10
8.6259513966
 20
15.6685194885
 10
8.6235437303
 20
15.6684477873
 10
8.6211550816
 20
15.6683568294
  0
LWPOLYLINE
  5
584
100
AcDbEntity
  8
0
100
AcDbPolyline
 62
7
  6
CONTINUOUS
 90
31
 70
0
 10
4.9030269223
 20
15.0064733785
 10
4.9258094618
 20
15.0068618593
 10
4.9483730391
 20
15.0086300365
 10
4.9707176542
 20
15.0117779094
 10
4.9929814431
 20
15.0162465333
 10
5.0150262698
 20
15.0220948512
 10
5.0364377263
 20
15.029499694
 10
5.0571798411
 20
15.0385644742
 10
5.0772885856
 20
15.0491857746
 10
5.0964574669
 20
15.0612301809
 10
5.1146949316
 20
15.0747268255
 10
5.131992533
 20
15.0896465694
 10
5.1480184377
 20
15.1057685906
 10
5.1627809423
 20
15.1231020521
 10
5.1762717502
 20
15.1416377837
 10
5.1881341376
 20
15.1611274646
 10
5.1983000453
 20
15.1816915175
 10
5.2068375325
 20
15.2032095124
 10
5.2135940532
 20
15.2250718525
 10
5.218428462
 20
15.2472239233
 10
5.2214819042
 20
15.2697203366
 10
5.2230252695
 20
15.2921153395
 10
5.2232241341
 20
15.3142304956
 10
5.2219129218
 20
15.3362442424
 10
5.2188657934
 20
15.3582461399
 10
5.2142497545
 20
15.3802773925
 10
5.2078977995
 20
15.4022967956
 10
5.1990830733
 20
15.4242702952
 10
5.1877184538
 20
15.4465380117
 10
5.173891063
 20
15.4687598239
 10
5.1571354118
 20
15.4898813199
  0
LWPOLYLINE
  5
585
100
AcDbEntity
  8
0
100
AcDbPolyline
 62
7
  6
CONTINUOUS
 90
34
 70
0
 10
4.8877713491
 20
15.5947904856
 10
4.8631752159
 20
15.5944627742
 10
4.8387556687
 20
15.5927954402
 10
4.8145127076
 20
15.589788483
 10
4.7902640813
 20
15.5855081133
 10
4.7661920411
 20
15.5798881186
 10
4.7428433404
 20
15.5727298636
 10
4.720293329
 20
15.5640162198
 10
4.6984666571
 20
15.5537643111
 10
4.6776840293
 20
15.5418268786
 10
4.6579824498
 20
15.5282362933
 10
4.6393249142
 20
15.5129601761
 10
4.6219211138
 20
15.4957541416
 10
4.6056585794
 20
15.4765919637
 10
4.59064978
 20
15.4554998553
 10
4.5774418137
 20
15.4323120868
 10
4.5657405968
 20
15.406676431
 10
4.5558402129
 20
15.378945095
 10
4.5491700103
 20
15.3500090037
 10
4.5459432973
 20
15.3197610003
 10
4.5459467656
 20
15.2883082281
 10
4.5499698389
 20
15.2568630733
 10
4.558234375
 20
15.2253870437
 10
4.5705185161
 20
15.1939186315
 10
4.5869461119
 20
15.1637857144
 10
4.607707388
 20
15.1349848715
 10
4.6326121188
 20
15.1075195382
 10
4.6612134768
 20
15.0827278895
 10
4.6936043797
 20
15.0605496604
 10
4.72969191
 20
15.0410451388
 10
4.7687504873
 20
15.025733339
 10
4.8105382518
 20
15.0151206081
 10
4.8552970635
 20
15.0087006196
 10
4.9030269223
 20
15.0064733785
  0
LWPOLYLINE
  5
586
100
AcDbEntity
  8
0
100
AcDbPolyline
 62
7
  6
CONTINUOUS
 90
16
 70
0
 10
8.291132319
 20
15.647135143
 10
8.2735089469
 20
15.6469336887
 10
8.2559312418
 20
15.6460786846
 10
8.2383992038
 20
15.6445701307
 10
8.2208874477
 20
15.6424552688
 10
8.2034213586
 20
15.6396868566
 10
8.1860770918
 20
15.6361231671
 10
8.1688561487
 20
15.6317769192
 10
8.151757028
 20
15.6266353929
 10
8.1348513806
 20
15.6205187021
 10
8.1180877474
 20
15.6134048546
 10
8.1015175876
 20
15.6053158402
 10
8.0853669297
 20
15.5961377446
 10
8.0697111166
 20
15.5858325948
 10
8.0544748053
 20
15.5744383598
 10
8.039657996
 20
15.5619550372
  0
LWPOLYLINE
  5
587
100
AcDbEntity
  8
0
100
AcDbPolyline
 62
7
  6
CONTINUOUS
 90
7
 70
0
 10
5.2260015339
 20
15.6166959257
 10
5.2199414347
 20
15.6166324073
 10
5.2138605743
 20
15.6165247542
 10
5.2077589526
 20
15.6163729664
 10
5.2016365697
 20
15.6161770438
 10
5.1954934256
 20
15.6159369864
 10
5.1893295202
 20
15.6156527944
  0
LWPOLYLINE
  5
588
100
AcDbEntity
  8
0
100
AcDbPolyline
 62
7
  6
CONTINUOUS
 90
25
 70
0
 10
8.5602319121
 20
14.4888812944
 10
8.5331588021
 20
14.4887417282
 10
8.5070706442
 20
14.4883844653
 10
8.4819674383
 20
14.4878095055
 10
8.4579422375
 20
14.4870133946
 10
8.4349019887
 20
14.4859995868
 10
8.4125675332
 20
14.4847784453
 10
8.3909368381
 20
14.4833616029
 10
8.3700119363
 20
14.4817374266
 10
8.3495197671
 20
14.4798813811
 10
8.3294493874
 20
14.4778095342
 10
8.3098117404
 20
14.4755058179
 10
8.2903665953
 20
14.4728974928
 10
8.271079269
 20
14.4700053323
 10
8.2519844446
 20
14.4668085626
 10
8.2329459411
 20
14.4631721234
 10
8.2138903405
 20
14.459117982
 10
8.1948910608
 20
14.4546241704
 10
8.176032175
 20
14.4494897242
 10
8.1572583575
 20
14.4437646512
 10
8.1386249338
 20
14.4373989424
 10
8.1203819536
 20
14.4300416079
 10
8.1026127667
 20
14.42157565
 10
8.0852340234
 20
14.4121180635
 10
8.0682457235
 20
14.4016688469
  0
LINE
  5
589
100
AcDbEntity
  8
0
100
AcDbLine
 62
7
  6
CONTINUOUS
 10
-2.694959
 20
14.471557
 11
-1.474954
 21
14.471557
  0
LINE
  5
58A
100
AcDbEntity
  8
RACCORDO
100
AcDbLine
 62
7
  6
CONTINUOUS
 10
-7.319462557
 20
15.2755396155
 11
-6.7148190698
 21
15.2755396155
  0
LINE
  5
58B
100
AcDbEntity
  8
RACCORDO
100
AcDbLine
 62
7
  6
CONTINUOUS
 10
-0.1992738542
 20
15.2755396155
 11
0.1992738542
 21
15.2755396155
  0
LINE
  5
58C
100
AcDbEntity
  8
RACCORDO
100
AcDbLine
 62
7
  6
CONTINUOUS
 10
6.7148190698
 20
15.2755396155
 11
7.319462557
 21
15.2755396155
  0
LINE
  5
58D
100
AcDbEntity
  8
0
100
AcDbLine
 62
7
  6
CONTINUOUS
 10
-2.694959
 20
15.541213
 11
-1.474954
 21
15.541218
  0
LINE
  5
58E
100
AcDbEntity
  8
0
100
AcDbLine
 62
7
  6
CONTINUOUS
 10
1.850359
 20
15.763409
 11
3.350368
 21
15.763409
  0
LWPOLYLINE
  5
58F
100
AcDbEntity
  8
0
100
AcDbPolyline
 62
7
  6
CONTINUOUS
 90
43
 70
0
 10
5.1064322827
 20
14.63095015
 10
5.2038270999
 20
14.6307934925
 10
5.2526443149
 20
14.6292444812
 10
5.3016330562
 20
14.6263052405
 10
5.3511662525
 20
14.6221696193
 10
5.4008709751
 20
14.6166437669
 10
5.4496284379
 20
14.6091461333
 10
5.4973297361
 20
14.5996581601
 10
5.5440837744
 20
14.5881983996
 10
5.5890984812
 20
14.5742409652
 10
5.6322376809
 20
14.557836589
 10
5.673637549
 20
14.5389345257
 10
5.712914541
 20
14.5168566676
 10
5.7503530011
 20
14.4917623951
 10
5.7856685852
 20
14.4634923022
 10
5.8176247159
 20
14.4308900906
 10
5.8464916893
 20
14.3932255909
 10
5.8719992093
 20
14.3512289168
 10
5.892099811
 20
14.3059341918
 10
5.9060975609
 20
14.2567111584
 10
5.9146883923
 20
14.2041900177
 10
5.91791264
 20
14.1512956125
 10
5.9158812743
 20
14.0978740919
 10
5.9084833249
 20
14.0440793003
 10
5.895426215
 20
13.9932976802
 10
5.875947194
 20
13.9461389638
 10
5.8508090125
 20
13.9019934732
 10
5.8220073451
 20
13.8624185755
 10
5.7897270672
 20
13.8282378562
 10
5.7537833035
 20
13.7986277902
 10
5.7156171019
 20
13.7726750799
 10
5.6754756991
 20
13.7504705951
 10
5.6331118584
 20
13.7319234959
 10
5.5892249174
 20
13.7158479082
 10
5.5438067558
 20
13.7020422241
 10
5.4968654939
 20
13.6907080635
 10
5.4491248304
 20
13.681264388
 10
5.400507146
 20
13.6736794577
 10
5.35109006
 20
13.6679850178
 10
5.3018301294
 20
13.6636952559
 10
5.2530462063
 20
13.660648235
 10
5.2044194386
 20
13.6590058937
 10
5.1559498262
 20
13.6587682325
  0
LWPOLYLINE
  5
590
100
AcDbEntity
  8
0
100
AcDbPolyline
 62
7
  6
CONTINUOUS
 90
19
 70
0
 10
8.5602319121
 20
14.6781719372
 10
8.5841012168
 20
14.6780807777
 10
8.6079646118
 20
14.677723797
 10
8.631822097
 20
14.677100995
 10
8.6556714776
 20
14.6762301186
 10
8.6795149485
 20
14.6750934209
 10
8.7033590941
 20
14.6736376607
 10
8.727210379
 20
14.6718691643
 10
8.7510623386
 20
14.6697816053
 10
8.7749021631
 20
14.6673027629
 10
8.798743202
 20
14.6644399469
 10
8.8225721058
 20
14.6611858472
 10
8.8463360158
 20
14.6574463133
 10
8.870043194
 20
14.6532323417
 10
8.8936853784
 20
14.6485329352
 10
8.9171849241
 20
14.6432209523
 10
8.9405159496
 20
14.637254012
 10
8.9637043365
 20
14.6306744941
 10
8.9867500848
 20
14.6234823978
  0
LWPOLYLINE
  5
591
100
AcDbEntity
  8
0
100
AcDbPolyline
 62
7
  6
CONTINUOUS
 90
10
 70
0
 10
8.3003410578
 20
14.8654160544
 10
8.2539679798
 20
14.866453595
 10
8.2087260671
 20
14.8709268604
 10
8.1646153195
 20
14.878835848
 10
8.1212817358
 20
14.8901334855
 10
8.0790793173
 20
14.9048668333
 10
8.0390700677
 20
14.9231770838
 10
8.0016079884
 20
14.9451112924
 10
7.966339078
 20
14.9706223775
 10
7.9332633365
 20
14.9997103227
  0
LWPOLYLINE
  5
592
100
AcDbEntity
  8
RACCORDO
100
AcDbPolyline
 62
7
  6
CONTINUOUS
 90
13
 70
0
 10
-7.319462557
 20
15.2755396155
 10
-7.3450382138
 20
15.2772639035
 10
-7.3702803713
 20
15.2824077141
 10
-7.3947628174
 20
15.2909290282
 10
-7.4180826207
 20
15.302759043
 10
-7.439805836
 20
15.3177252699
 10
-7.4594919121
 20
15.3355278816
 10
-7.4767719555
 20
15.3558765063
 10
-7.4913687433
 20
15.3784690175
 10
-7.5030389782
 20
15.4029109818
 10
-7.5115595483
 20
15.428810679
 10
-7.5167459172
 20
15.4557762905
 10
-7.5184775044
 20
15.483378525
  0
LWPOLYLINE
  5
593
100
AcDbEntity
  8
RACCORDO
100
AcDbPolyline
 62
7
  6
CONTINUOUS
 90
13
 70
0
 10
-0.1992738542
 20
15.2755396155
 10
-0.2248776749
 20
15.2772689045
 10
-0.2501581718
 20
15.2824239732
 10
-0.2746873548
 20
15.2909646937
 10
-0.2980614492
 20
15.3028251148
 10
-0.3198428908
 20
15.3178327493
 10
-0.3395854632
 20
15.3356839057
 10
-0.3569191744
 20
15.3560877535
 10
-0.3715647041
 20
15.3787409919
 10
-0.3832736839
 20
15.4032420842
 10
-0.3918223687
 20
15.4291951873
 10
-0.3970287097
 20
15.4562082555
 10
-0.3987736215
 20
15.4838500694
  0
LWPOLYLINE
  5
594
100
AcDbEntity
  8
RACCORDO
100
AcDbPolyline
 62
7
  6
CONTINUOUS
 90
13
 70
0
 10
6.7148190698
 20
15.2755396155
 10
6.6892152491
 20
15.2772689045
 10
6.6639347522
 20
15.2824239732
 10
6.6394055691
 20
15.2909646937
 10
6.6160314747
 20
15.3028251148
 10
6.5942500332
 20
15.3178327493
 10
6.5745074607
 20
15.3356839057
 10
6.5571737495
 20
15.3560877535
 10
6.5425282199
 20
15.3787409919
 10
6.53081924
 20
15.4032420842
 10
6.5222705553
 20
15.4291951873
 10
6.5170642143
 20
15.4562082555
 10
6.5153193024
 20
15.4838500694
  0
LINE
  5
595
100
AcDbEntity
  8
0
100
AcDbLine
 62
7
  6
CONTINUOUS
 10
-1.474958
 20
15.191388
 11
-2.694959
 21
15.541213
  0
LINE
  5
596
100
AcDbEntity
  8
0
100
AcDbLine
 62
7
  6
CONTINUOUS
 10
-1.474954
 20
16.157906
 11
-3.325042
 21
16.7519
  0
LINE
  5
597
100
AcDbEntity
  8
0
100
AcDbLine
 62
7
  6
CONTINUOUS
 10
-1.474958
 20
16.52792
 11
-1.838789
 21
16.644734
  0
LINE
  5
598
100
AcDbEntity
  8
0
100
AcDbLine
 62
7
  6
CONTINUOUS
 10
-2.190302
 20
16.757598
 11
-2.748836
 21
16.936914
  0
LINE
  5
599
100
AcDbEntity
  8
0
100
AcDbLine
 62
7
  6
CONTINUOUS
 10
3.150795
 20
14.8663585
 11
1.850364
 21
15.30122
  0
LINE
  5
59A
100
AcDbEntity
  8
0
100
AcDbLine
 62
7
  6
CONTINUOUS
 10
3.350372
 20
14.975583
 11
1.850364
 21
15.509216
  0
LWPOLYLINE
  5
59B
100
AcDbEntity
  8
0
100
AcDbPolyline
 62
7
  6
CONTINUOUS
 90
7
 70
0
 10
8.1325375067
 20
13.7542292098
 10
8.0814006668
 20
13.7735092051
 10
8.0340267504
 20
13.7959398292
 10
7.9904157575
 20
13.8215210704
 10
7.9505676879
 20
13.850252915
 10
7.9144825419
 20
13.882135348
 10
7.8821603193
 20
13.9171683522
  0
LINE
  5
59C
100
AcDbEntity
  8
DRAFT
100
AcDbLine
 62
7
  6
CONTINUOUS
 10
-6.9339198284
 20
21.2
 11
-6.8667670239
 21
21.1647852141
  0
LWPOLYLINE
  5
59D
100
AcDbEntity
  8
0
100
AcDbPolyline
 62
7
  6
CONTINUOUS
 90
34
 70
0
 10
5.646002196
 20
14.3571503252
 10
5.6131250585
 20
14.3754903126
 10
5.5787392193
 20
14.3911727446
 10
5.5428446786
 20
14.4041976284
 10
5.5048487809
 20
14.4141145372
 10
5.4653441815
 20
14.4213739091
 10
5.4261088465
 20
14.4273270446
 10
5.387547313
 20
14.4322584517
 10
5.3492550438
 20
14.4358836247
 10
5.3117963932
 20
14.4387003415
 10
5.2751892324
 20
14.4407552641
 10
5.2394156902
 20
14.4420017312
 10
5.2049865073
 20
14.4427975345
 10
5.1721045276
 20
14.4432116703
 10
5.1405669071
 20
14.4431751425
 10
5.1102758543
 20
14.4428387547
 10
5.0813321571
 20
14.4422522858
 10
5.0536350276
 20
14.4413659567
 10
5.0267843104
 20
14.4401812351
 10
5.000800649
 20
14.4387185798
 10
4.9756634
 20
14.4369575317
 10
4.9509104778
 20
14.4348381807
 10
4.9265330115
 20
14.4323815707
 10
4.9025398721
 20
14.4295666576
 10
4.8784955859
 20
14.4262703989
 10
4.8542034561
 20
14.4225852358
 10
4.8298601795
 20
14.4184187265
 10
4.8056203743
 20
14.4133705046
 10
4.7813958895
 20
14.4075424207
 10
4.757274876
 20
14.4008326226
 10
4.7336764038
 20
14.392535187
 10
4.7107401629
 20
14.3824148044
 10
4.6883264633
 20
14.3707067792
 10
4.666435305
 20
14.357411108
  0
LWPOLYLINE
  5
59E
100
AcDbEntity
  8
0
100
AcDbPolyline
 62
7
  6
CONTINUOUS
 90
4
 70
0
 10
5.1893295202
 20
15.6156527944
 10
5.2273416311
 20
15.588783031
 10
5.2618441162
 20
15.5577467548
 10
5.2928369754
 20
15.5225439414
  0
LINE
  5
59F
100
AcDbEntity
  8
0
100
AcDbLine
 62
7
  6
CONTINUOUS
 10
5.6680803349
 20
15.4899258342
 11
5.6452346548
 21
15.5078187216
  0
LWPOLYLINE
  5
5A0
100
AcDbEntity
  8
0
100
AcDbPolyline
 62
7
  6
CONTINUOUS
 90
42
 70
0
 10
4.5839982273
 20
14.9085966592
 10
4.5431824234
 20
14.9413897911
 10
4.5069002931
 20
14.9778289418
 10
4.4749735532
 20
15.0178183266
 10
4.447580487
 20
15.0614536797
 10
4.4256366156
 20
15.1078139886
 10
4.4094369259
 20
15.1573918503
 10
4.398686431
 20
15.2096946163
 10
4.393415691
 20
15.262323434
 10
4.3936893395
 20
15.3152348978
 10
4.3994427429
 20
15.368472406
 10
4.4105125606
 20
15.419767357
 10
4.4270612926
 20
15.4687335667
 10
4.4489264389
 20
15.5157572569
 10
4.4754571591
 20
15.5597284655
 10
4.5067956088
 20
15.6006535118
 10
4.5427996325
 20
15.6385261246
 10
4.5823919232
 20
15.6722174708
 10
4.6258342657
 20
15.7013566363
 10
4.6728648752
 20
15.7263145864
 10
4.7216210909
 20
15.7470753106
 10
4.7719913577
 20
15.7631054992
 10
4.8240872306
 20
15.7749384926
 10
4.8763807139
 20
15.784158247
 10
4.9284608005
 20
15.7909070451
 10
4.9807384973
 20
15.795042612
 10
5.0329188302
 20
15.7977220612
 10
5.0848792636
 20
15.7992663885
 10
5.1367423329
 20
15.7993545992
 10
5.1885806703
 20
15.7981808188
 10
5.2404023945
 20
15.7960258062
 10
5.2921993868
 20
15.7926088019
 10
5.3440199225
 20
15.7872816533
 10
5.3962855347
 20
15.7801332814
 10
5.4485746904
 20
15.7710747608
 10
5.4996710661
 20
15.7591911662
 10
5.5498833701
 20
15.7440978727
 10
5.5989028941
 20
15.7261794899
 10
5.644587189
 20
15.705674942
 10
5.6864228527
 20
15.6822984626
 10
5.7249232872
 20
15.6563357958
 10
5.7594862504
 20
15.6288831355
  0
LWPOLYLINE
  5
5A1
100
AcDbEntity
  8
0
100
AcDbPolyline
 62
7
  6
CONTINUOUS
 90
37
 70
0
 10
5.7594862504
 20
15.6288831355
 10
5.7897902053
 20
15.5998621258
 10
5.8161566887
 20
15.5693511067
 10
5.8389480694
 20
15.5386813279
 10
5.8579595634
 20
15.5081032747
 10
5.8733959547
 20
15.4773664611
 10
5.8862339632
 20
15.4470506907
 10
5.8965326069
 20
15.4173282766
 10
5.9042328678
 20
15.3880269113
 10
5.9101344123
 20
15.3592094711
 10
5.9143354956
 20
15.3309019429
 10
5.9167378624
 20
15.3030783451
 10
5.9178464125
 20
15.2757236022
 10
5.9178399
 20
15.2488857788
 10
5.9165395709
 20
15.2225168152
 10
5.9139140622
 20
15.1964574484
 10
5.9100435917
 20
15.1706350649
 10
5.9048479418
 20
15.145122281
 10
5.8980550962
 20
15.1199776782
 10
5.8895850493
 20
15.0950399237
 10
5.8795178066
 20
15.0704703533
 10
5.8678213696
 20
15.0468115535
 10
5.854452838
 20
15.0241050123
 10
5.8394551119
 20
15.0023092496
 10
5.8229248931
 20
14.9818424043
 10
5.8047086559
 20
14.9627904566
 10
5.7849599258
 20
14.945067436
 10
5.7642359811
 20
14.9288335575
 10
5.742614604
 20
14.914191973
 10
5.7200180122
 20
14.9010395391
 10
5.6967701372
 20
14.889227027
 10
5.67289217
 20
14.8787179668
 10
5.6483629195
 20
14.8695488338
 10
5.6234427443
 20
14.8616798163
 10
5.5982184304
 20
14.8550976448
 10
5.5726031918
 20
14.8498155922
 10
5.5465970284
 20
14.8458336597
  0
LINE
  5
5A2
100
AcDbEntity
  8
RACCORDO
100
AcDbLine
 62
7
  6
CONTINUOUS
 10
0.3972163531
 20
20.4338413913
 11
0.2629729446
 21
20.5680847998
  0
LWPOLYLINE
  5
5A3
100
AcDbEntity
  8
0
100
AcDbPolyline
 62
7
  6
CONTINUOUS
 90
5
 70
0
 10
5.1571354118
 20
15.4898813199
 10
5.1371891999
 20
15.509907877
 10
5.1143147276
 20
15.5288341262
 10
5.0888334073
 20
15.5455895445
 10
5.0606328634
 20
15.5599507559
  0
LWPOLYLINE
  5
5A4
100
AcDbEntity
  8
0
100
AcDbPolyline
 62
7
  6
CONTINUOUS
 90
10
 70
0
 10
7.8821603193
 20
13.9171683522
 10
7.8633137119
 20
13.9422802431
 10
7.8467306829
 20
13.9688203681
 10
7.8324112324
 20
13.9967887209
 10
7.8203616158
 20
14.0263891943
 10
7.8105755777
 20
14.0574178807
 10
7.8030343518
 20
14.089263075
 10
7.7977316827
 20
14.1217208738
 10
7.7946738259
 20
14.154995172
 10
7.7938607812
 20
14.1890859649
  0
LWPOLYLINE
  5
5A5
100
AcDbEntity
  8
0
100
AcDbPolyline
 62
7
  6
CONTINUOUS
 90
7
 70
0
 10
8.7372442067
 20
15.5161664531
 10
8.7538659353
 20
15.4841981518
 10
8.7674542504
 20
15.4512381827
 10
8.7780091522
 20
15.4172865398
 10
8.7855306404
 20
15.3823432169
 10
8.7900187153
 20
15.3464082078
 10
8.7914733768
 20
15.309481506
  0
LINE
  5
5A6
100
AcDbEntity
  8
DRAFT
100
AcDbLine
 62
7
  6
CONTINUOUS
 10
9.65
 20
-13.7310577445
 11
9.5818521307
 21
-13.7992056137
  0
LINE
  5
5A7
100
AcDbEntity
  8
RACCORDO
100
AcDbLine
 62
7
  6
CONTINUOUS
 10
6.5140249785
 20
-15.1118281743
 11
6.5
 21
-15.1188401295
  0
LINE
  5
5A8
100
AcDbEntity
  8
RACCORDO
100
AcDbLine
 62
7
  6
CONTINUOUS
 10
-7.2419286989
 20
-20.8366629075
 11
-7.3830351795
 21
-20.9
  0
LWPOLYLINE
  5
5A9
100
AcDbEntity
  8
0
100
AcDbPolyline
 62
7
  6
CONTINUOUS
 90
12
 70
0
 10
5.4240993144
 20
17.8948855448
 10
5.3876703044
 20
17.8867841345
 10
5.3534202371
 20
17.8744282692
 10
5.3215151439
 20
17.8574217976
 10
5.2917889934
 20
17.8361608432
 10
5.2654172238
 20
17.8116709627
 10
5.2424854692
 20
17.7840129967
 10
5.2229080954
 20
17.7531260686
 10
5.207603638
 20
17.7198531663
 10
5.1968782758
 20
17.6844752763
 10
5.19042583
 20
17.6467113787
 10
5.1882463007
 20
17.6065614542
  0
LWPOLYLINE
  5
5AA
100
AcDbEntity
  8
0
100
AcDbPolyline
 62
7
  6
CONTINUOUS
 90
16
 70
0
 10
8.9367667168
 20
18.5663030192
 10
8.9513099085
 20
18.5689552021
 10
8.9654882079
 20
18.5719549545
 10
8.9793016152
 20
18.5753022761
 10
8.9927284159
 20
18.57896834
 10
9.0057903244
 20
18.5829819726
 10
9.0185524843
 20
18.5874296538
 10
9.0310344245
 20
18.5922924233
 10
9.043216616
 20
18.5975892405
 10
9.0551056153
 20
18.6034634637
 10
9.0667731901
 20
18.6099385586
 10
9.0781475726
 20
18.6169910579
 10
9.0890200156
 20
18.6246939198
 10
9.0993209369
 20
18.6330714629
 10
9.1091199186
 20
18.6420993663
 10
9.1184169609
 20
18.6517776285
  0
LWPOLYLINE
  5
5AB
100
AcDbEntity
  8
0
100
AcDbPolyline
 62
7
  6
CONTINUOUS
 90
37
 70
0
 10
4.7759298282
 20
16.6963203882
 10
4.748169461
 20
16.694474645
 10
4.7213335325
 20
16.6896680918
 10
4.6954220427
 20
16.6819007259
 10
4.6699007616
 20
16.6708999308
 10
4.6453039191
 20
16.6569383113
 10
4.6232342056
 20
16.640833696
 10
4.604119456
 20
16.6222669243
 10
4.5875318353
 20
16.6015571411
 10
4.5737905282
 20
16.580479641
 10
4.563320527
 20
16.5593734289
 10
4.5556968395
 20
16.5378994978
 10
4.5499636732
 20
16.5168161352
 10
4.5460014554
 20
16.496491998
 10
4.5439297589
 20
16.4765584337
 10
4.5431515107
 20
16.4566677674
 10
4.5433872917
 20
16.4367007508
 10
4.5449165211
 20
16.4167766324
 10
4.5479803826
 20
16.3969054817
 10
4.5526333301
 20
16.3768523919
 10
4.5588209098
 20
16.3568522696
 10
4.5666209437
 20
16.3376199083
 10
4.5761400805
 20
16.3192542752
 10
4.5872716715
 20
16.3016564089
 10
4.5997735932
 20
16.2852442139
 10
4.6137511102
 20
16.2701104117
 10
4.6290989579
 20
16.2561622882
 10
4.6452592188
 20
16.2435395958
 10
4.6621601673
 20
16.2323782
 10
4.679873529
 20
16.2225422417
 10
4.6980565633
 20
16.2137638852
 10
4.7166691847
 20
16.2060185383
 10
4.7357514787
 20
16.1993307968
 10
4.7550809608
 20
16.1935066052
 10
4.7745834696
 20
16.1884812791
 10
4.7943331665
 20
16.1843195048
 10
4.8143300515
 20
16.1810212831
  0
LWPOLYLINE
  5
5AC
100
AcDbEntity
  8
0
100
AcDbPolyline
 62
7
  6
CONTINUOUS
 90
37
 70
0
 10
4.8009571084
 20
17.8325589119
 10
4.7731969586
 20
17.8307132411
 10
4.7463611673
 20
17.8259067374
 10
4.7204497344
 20
17.8181393978
 10
4.6949283927
 20
17.8071385932
 10
4.6703314095
 20
17.7931769403
 10
4.6482615865
 20
17.7770723041
 10
4.6291468002
 20
17.7585055117
 10
4.6125591741
 20
17.7377957194
 10
4.59881788
 20
17.7167182943
 10
4.5883479232
 20
17.6956122542
 10
4.5807242985
 20
17.6741385792
 10
4.5749911612
 20
17.653055591
 10
4.5710289383
 20
17.63273199
 10
4.5689572028
 20
17.6127990805
 10
4.5681788301
 20
17.5929090925
 10
4.5684143895
 20
17.5729427902
 10
4.5699433115
 20
17.5530194094
 10
4.5730067632
 20
17.5331488857
 10
4.5776591558
 20
17.5130962898
 10
4.5838460781
 20
17.4930965507
 10
4.5916454628
 20
17.4738643944
 10
4.6011639525
 20
17.4554987551
 10
4.6122949046
 20
17.437900705
 10
4.624796325
 20
17.4214881805
 10
4.6387735068
 20
17.4063538656
 10
4.6541211569
 20
17.3924050843
 10
4.6702814012
 20
17.3797817344
 10
4.6871825574
 20
17.3686197079
 10
4.7048963078
 20
17.3587831196
 10
4.7230798257
 20
17.3500042005
 10
4.7416930363
 20
17.3422583776
 10
4.7607760145
 20
17.3355702276
 10
4.7801061576
 20
17.3297457046
 10
4.7996092649
 20
17.3247201273
 10
4.8193595373
 20
17.320558179
 10
4.8393569746
 20
17.3172598605
  0
LWPOLYLINE
  5
5AD
100
AcDbEntity
  8
0
100
AcDbPolyline
 62
7
  6
CONTINUOUS
 90
7
 70
0
 10
8.1796043694
 20
16.7511595532
 10
8.1476308016
 20
16.7494249586
 10
8.1172940604
 20
16.7437800495
 10
8.0885941459
 20
16.7342248214
 10
8.0615310581
 20
16.7207592667
 10
8.036104797
 20
16.7033833748
 10
8.0123153626
 20
16.682097132
  0
LWPOLYLINE
  5
5AE
100
AcDbEntity
  8
0
100
AcDbPolyline
 62
7
  6
CONTINUOUS
 90
7
 70
0
 10
8.1796043694
 20
17.9165757939
 10
8.1476301681
 20
17.9148409445
 10
8.1172930351
 20
17.909195871
 10
8.0885929703
 20
17.8996405688
 10
8.0615299739
 20
17.8861750296
 10
8.0361040457
 20
17.8687992422
 10
8.0123151858
 20
17.8475131918
  0
LWPOLYLINE
  5
5AF
100
AcDbEntity
  8
0
100
AcDbPolyline
 62
7
  6
CONTINUOUS
 90
10
 70
0
 10
8.8610504597
 20
16.8186904237
 10
8.8349722176
 20
16.817949997
 10
8.8094989355
 20
16.8150993502
 10
8.7846306137
 20
16.8101384819
 10
8.7602119069
 20
16.8030765293
 10
8.7363981602
 20
16.7939043501
 10
8.7136554092
 20
16.7825945232
 10
8.6921389991
 20
16.7691379046
 10
8.6716935848
 20
16.7535436274
 10
8.6523191661
 20
16.735811685
  0
LWPOLYLINE
  5
5B0
100
AcDbEntity
  8
0
100
AcDbPolyline
 62
7
  6
CONTINUOUS
 90
37
 70
0
 10
2.7497913572
 20
17.4118168282
 10
2.7829365685
 20
17.4123687806
 10
2.8146475636
 20
17.4137092332
 10
2.8449243426
 20
17.4158381858
 10
2.8736526762
 20
17.4187839561
 10
2.9009467936
 20
17.4225182255
 10
2.9271493827
 20
17.426956039
 10
2.9523237255
 20
17.4320638993
 10
2.97640654
 20
17.4378753023
 10
2.9995506682
 20
17.444405782
 10
3.0217622378
 20
17.4516437979
 10
3.0430351212
 20
17.4596008884
 10
3.0635037768
 20
17.4683272051
 10
3.0831595674
 20
17.4778113103
 10
3.1020111302
 20
17.4880646387
 10
3.1202188356
 20
17.4991716503
 10
3.1378538876
 20
17.5111560969
 10
3.1548450822
 20
17.5239942225
 10
3.1711391785
 20
17.5376992249
 10
3.1868011632
 20
17.5523085288
 10
3.2017660496
 20
17.5677847042
 10
3.2157856371
 20
17.5840286674
 10
3.2288287717
 20
17.6010632281
 10
3.2409266073
 20
17.6188655711
 10
3.2519244052
 20
17.637268176
 10
3.2617440749
 20
17.6563146783
 10
3.2704637069
 20
17.6759614375
 10
3.2781628336
 20
17.695910021
 10
3.2848117543
 20
17.716110655
 10
3.2904401697
 20
17.7366131108
 10
3.2952167148
 20
17.7572682743
 10
3.2991530303
 20
17.7780565956
 10
3.3022374756
 20
17.7989976234
 10
3.3046037627
 20
17.8200008923
 10
3.3062964626
 20
17.8410362472
 10
3.3072710044
 20
17.8621338426
 10
3.3075273882
 20
17.8832936783
  0
LINE
  5
5B1
100
AcDbEntity
  8
0
100
AcDbLine
 62
7
  6
CONTINUOUS
 10
-3.325037
 20
15.911232
 11
-1.474954
 21
15.911232
  0
LINE
  5
5B2
100
AcDbEntity
  8
0
100
AcDbLine
 62
7
  6
CONTINUOUS
 10
2.018425
 20
15.962987
 11
2.49532
 21
15.962987
  0
LINE
  5
5B3
100
AcDbEntity
  8
0
100
AcDbLine
 62
7
  6
CONTINUOUS
 10
2.663401
 20
15.962987
 11
3.182302
 21
15.962987
  0
LINE
  5
5B4
100
AcDbEntity
  8
0
100
AcDbLine
 62
7
  6
CONTINUOUS
 10
2.49532
 20
16.742441
 11
2.663401
 21
16.742441
  0
LINE
  5
5B5
100
AcDbEntity
  8
0
100
AcDbLine
 62
7
  6
CONTINUOUS
 10
1.850359
 20
16.799122
 11
2.018425
 21
16.799122
  0
LINE
  5
5B6
100
AcDbEntity
  8
0
100
AcDbLine
 62
7
  6
CONTINUOUS
 10
3.182302
 20
16.80545
 11
3.350368
 21
16.80545
  0
LINE
  5
5B7
100
AcDbEntity
  8
0
100
AcDbLine
 62
7
  6
CONTINUOUS
 10
1.8489555797
 20
17.3192159826
 11
2.7972065049
 21
17.3192874557
  0
LINE
  5
5B8
100
AcDbEntity
  8
0
100
AcDbLine
 62
7
  6
CONTINUOUS
 10
1.8489555797
 20
17.4118168282
 11
2.7497913572
 21
17.4118168282
  0
LWPOLYLINE
  5
5B9
100
AcDbEntity
  8
0
100
AcDbPolyline
 62
7
  6
CONTINUOUS
 90
19
 70
0
 10
8.5193042636
 20
15.8517735645
 10
8.5449975885
 20
15.8516712192
 10
8.5706816744
 20
15.8512667424
 10
8.5963565212
 20
15.8505601341
 10
8.6220195475
 20
15.8495723379
 10
8.6476733348
 20
15.8482824102
 10
8.6733256278
 20
15.8466275193
 10
8.698984427
 20
15.8446155096
 10
8.7246417319
 20
15.8422385365
 10
8.7502812862
 20
15.8394102352
 10
8.7759192672
 20
15.8361398565
 10
8.8015394977
 20
15.832418149
 10
8.8270771893
 20
15.8281309938
 10
8.852544444
 20
15.8232921427
 10
8.8779291599
 20
15.817887843
 10
8.9031302435
 20
15.8117627181
 10
8.928113997
 20
15.8048649754
 10
8.9529141181
 20
15.7972464059
 10
8.977530607
 20
15.7889070083
  0
LWPOLYLINE
  5
5BA
100
AcDbEntity
  8
0
100
AcDbPolyline
 62
7
  6
CONTINUOUS
 90
10
 70
0
 10
8.8569577217
 20
17.0141201064
 10
8.8991058697
 20
17.0125901934
 10
8.940181022
 20
17.0073657556
 10
8.9801831787
 20
16.998446789
 10
9.0193864118
 20
16.9857117269
 10
9.0575166492
 20
16.9692821194
 10
9.0937516744
 20
16.9495226342
 10
9.1278174154
 20
16.926554818
 10
9.1599879441
 20
16.9002570954
 10
9.1902632608
 20
16.8706294485
  0
LWPOLYLINE
  5
5BB
100
AcDbEntity
  8
0
100
AcDbPolyline
 62
7
  6
CONTINUOUS
 90
7
 70
0
 10
8.1836971521
 20
16.940450196
 10
8.2154022695
 20
16.9391051656
 10
8.246226165
 20
16.9348193001
 10
8.2761688387
 20
16.9275925969
 10
8.3052302905
 20
16.9174250516
 10
8.3334105204
 20
16.904316658
 10
8.3607095286
 20
16.8882674084
  0
LWPOLYLINE
  5
5BC
100
AcDbEntity
  8
0
100
AcDbPolyline
 62
7
  6
CONTINUOUS
 90
3
 70
0
 10
8.7070331939
 20
15.6655348928
 10
8.669078564
 20
15.667843702
 10
8.6308322132
 20
15.6686221406
  0
LWPOLYLINE
  5
5BD
100
AcDbEntity
  8
0
100
AcDbPolyline
 62
7
  6
CONTINUOUS
 90
5
 70
0
 10
5.3126761159
 20
15.6126794416
 10
5.2910483991
 20
15.6144491867
 10
5.269394497
 20
15.6157094441
 10
5.2477122086
 20
15.6164583571
 10
5.2260015339
 20
15.6166959257
  0
LINE
  5
5BE
100
AcDbEntity
  8
0
100
AcDbLine
 62
7
  6
CONTINUOUS
 10
8.5899045199
 20
16.3950886175
 11
8.4282401383
 21
16.4155524418
  0
LINE
  5
5BF
100
AcDbEntity
  8
0
100
AcDbLine
 62
7
  6
CONTINUOUS
 10
5.183592524
 20
16.3407479334
 11
5.022952581
 21
16.3611540532
  0
LWPOLYLINE
  5
5C0
100
AcDbEntity
  8
0
100
AcDbPolyline
 62
7
  6
CONTINUOUS
 90
10
 70
0
 10
8.1826739788
 20
16.0502727672
 10
8.1444377751
 20
16.0582085716
 10
8.1076310515
 20
16.0684474438
 10
8.0722538081
 20
16.0809893792
 10
8.0380775006
 20
16.0958659747
 10
8.0053306733
 20
16.1130456211
 10
7.9746989589
 20
16.1324335029
 10
7.9464109015
 20
16.1539980093
 10
7.9202379571
 20
16.1777707336
 10
7.8961801255
 20
16.2037516654
  0
LWPOLYLINE
  5
5C1
100
AcDbEntity
  8
0
100
AcDbPolyline
 62
7
  6
CONTINUOUS
 90
33
 70
0
 10
4.7809500026
 20
15.997433014
 10
4.7412951023
 20
16.0059386849
 10
4.7027072386
 20
16.0172811428
 10
4.6651864114
 20
16.0314603816
 10
4.6283168407
 20
16.0484599378
 10
4.5925143066
 20
16.0682962576
 10
4.5590261488
 20
16.0910186973
 10
4.5279549903
 20
16.1167188539
 10
4.499198208
 20
16.1453051027
 10
4.4736952727
 20
16.1765519662
 10
4.4516516889
 20
16.2106069297
 10
4.432861952
 20
16.2473224729
 10
4.4176490189
 20
16.2860306139
 10
4.4060975408
 20
16.3268674724
 10
4.3981228666
 20
16.3696968962
 10
4.3937939992
 20
16.4134425082
 10
4.3929009968
 20
16.4581349651
 10
4.3956538012
 20
16.5037435933
 10
4.4027512414
 20
16.5491000399
 10
4.4143293668
 20
16.5945279622
 10
4.4302521279
 20
16.6397037048
 10
4.4508102048
 20
16.6824879748
 10
4.4766042966
 20
16.7229537535
 10
4.507033704
 20
16.7610280989
 10
4.54058701
 20
16.7943528694
 10
4.5774856321
 20
16.8223582295
 10
4.6175081528
 20
16.845614076
 10
4.6584789022
 20
16.8634718799
 10
4.7001301553
 20
16.8756370661
 10
4.7427296371
 20
16.8824042433
 10
4.7849048536
 20
16.8840086518
 10
4.8267847628
 20
16.880525871
 10
4.8682404067
 20
16.8718803194
  0
LWPOLYLINE
  5
5C2
100
AcDbEntity
  8
0
100
AcDbPolyline
 62
7
  6
CONTINUOUS
 90
5
 70
0
 10
8.855934505
 20
15.6409959294
 10
8.8191467585
 20
15.6494262323
 10
8.7820672912
 20
15.6563261593
 10
8.744696103
 20
15.6616957122
 10
8.7070331939
 20
15.6655348928
  0
LWPOLYLINE
  5
5C3
100
AcDbEntity
  8
0
100
AcDbPolyline
 62
7
  6
CONTINUOUS
 90
8
 70
0
 10
4.8682404067
 20
16.8718803194
 10
4.907512417
 20
16.8580804881
 10
4.9444531609
 20
16.8387130293
 10
4.9792102714
 20
16.8141912548
 10
5.0104672787
 20
16.7857636435
 10
5.0377853596
 20
16.7538463416
 10
5.0616033374
 20
16.7180231568
 10
5.081921212
 20
16.678294061
  0
LWPOLYLINE
  5
5C4
100
AcDbEntity
  8
0
100
AcDbPolyline
 62
7
  6
CONTINUOUS
 90
7
 70
0
 10
8.9867500848
 20
14.6234823978
 10
9.0378019183
 20
14.604445217
 10
9.0851553651
 20
14.5822077736
 10
9.1288104253
 20
14.5567700549
 10
9.1687670989
 20
14.5281320467
 10
9.2050253858
 20
14.496293733
 10
9.2375852861
 20
14.461255096
  0
LWPOLYLINE
  5
5C5
100
AcDbEntity
  8
0
100
AcDbPolyline
 62
7
  6
CONTINUOUS
 90
6
 70
0
 10
5.0606328634
 20
15.5599507559
 10
5.0298254715
 20
15.5721411494
 10
4.9970697702
 20
15.5817603527
 10
4.9625852725
 20
15.5886749116
 10
4.9261524655
 20
15.5930182886
 10
4.8877713491
 20
15.5947904856
  0
LINE
  5
5C6
100
AcDbEntity
  8
RACCORDO
100
AcDbLine
 62
7
  6
CONTINUOUS
 10
-7.2419286989
 20
20.8366629075
 11
-7.3830351795
 21
20.9
  0
LWPOLYLINE
  5
5C7
100
AcDbEntity
  8
0
100
AcDbPolyline
 62
7
  6
CONTINUOUS
 90
25
 70
0
 10
9.0513642535
 20
14.4019099519
 10
9.0340314038
 20
14.4124924205
 10
9.0162616432
 20
14.4220693657
 10
8.9980549717
 20
14.4306407892
 10
8.9793022713
 20
14.4380935368
 10
8.96011266
 20
14.4445407655
 10
8.9408134918
 20
14.4503219431
 10
8.921480156
 20
14.4554794291
 10
8.9020372633
 20
14.4599708652
 10
8.8825859998
 20
14.4640086418
 10
8.8631920411
 20
14.4676172098
 10
8.8437897117
 20
14.4707721188
 10
8.8242831704
 20
14.4736124068
 10
8.8047156173
 20
14.4761576186
 10
8.7850438524
 20
14.4783882096
 10
8.7650424349
 20
14.4803845835
 10
8.7447215703
 20
14.4821630185
 10
8.7240710531
 20
14.4837072365
 10
8.7028348263
 20
14.4850488071
 10
8.6810154464
 20
14.48619916
 10
8.6586103568
 20
14.4871468654
 10
8.6353558313
 20
14.4878892035
 10
8.6111639609
 20
14.4884252678
 10
8.5861226546
 20
14.4887559647
 10
8.5602319121
 20
14.4888812944
  0
LWPOLYLINE
  5
5C8
100
AcDbEntity
  8
0
100
AcDbPolyline
 62
7
  6
CONTINUOUS
 90
25
 70
0
 10
8.0539620035
 20
13.9847492233
 10
8.0719034879
 20
13.9736217447
 10
8.0902772561
 20
13.9634743556
 10
8.109083308
 20
13.9543070576
 10
8.128415286
 20
13.9462148219
 10
8.1481795479
 20
13.9391026804
 10
8.1680951662
 20
13.9326857248
 10
8.1881154931
 20
13.9269335025
 10
8.2082871765
 20
13.9218764677
 10
8.2284692336
 20
13.9173210719
 10
8.2485870142
 20
13.9132515006
 10
8.2687151685
 20
13.9096835691
 10
8.2889366639
 20
13.906471173
 10
8.3092058418
 20
13.9035951952
 10
8.3295683608
 20
13.9010747532
 10
8.3502441647
 20
13.8988210942
 10
8.3712226908
 20
13.8968168573
 10
8.3925145019
 20
13.8950794036
 10
8.4143712295
 20
13.893572063
 10
8.4367895728
 20
13.8922824814
 10
8.4597728326
 20
13.891223013
 10
8.4835825431
 20
13.8903940504
 10
8.5083058822
 20
13.8897957246
 10
8.5338556718
 20
13.8894279046
 10
8.5602319121
 20
13.8892905906
  0
LWPOLYLINE
  5
5C9
100
AcDbEntity
  8
0
100
AcDbPolyline
 62
7
  6
CONTINUOUS
 90
16
 70
0
 10
5.6452346548
 20
15.5078187216
 10
5.6221599425
 20
15.523448954
 10
5.5991757438
 20
15.5365588318
 10
5.5759625128
 20
15.5474060672
 10
5.5529545363
 20
15.5570478998
 10
5.5302880326
 20
15.5656738077
 10
5.5078267833
 20
15.5730943168
 10
5.4855964199
 20
15.5797982358
 10
5.463652683
 20
15.5858874146
 10
5.4419398319
 20
15.5912600048
 10
5.4203162759
 20
15.5960992668
 10
5.3987762462
 20
15.600460817
 10
5.3773255116
 20
15.6042890398
 10
5.355839788
 20
15.6076003468
 10
5.3342754465
 20
15.6103983518
 10
5.3126761159
 20
15.6126794416
  0
LWPOLYLINE
  5
5CA
100
AcDbEntity
  8
0
100
AcDbPolyline
 62
7
  6
CONTINUOUS
 90
18
 70
0
 10
8.5285260833
 20
15.5741232718
 10
8.5168506158
 20
15.58332735
 10
8.5047416854
 20
15.5918687294
 10
8.4921480654
 20
15.5997475223
 10
8.4791209824
 20
15.6069636184
 10
8.4658141172
 20
15.6135166854
 10
8.4522341054
 20
15.6193853726
 10
8.4383743114
 20
15.6245910321
 10
8.424368509
 20
15.6291973855
 10
8.4102712005
 20
15.6331921072
 10
8.3960278836
 20
15.6365875239
 10
8.3816088249
 20
15.6394843353
 10
8.3670119694
 20
15.6418961365
 10
8.3522393722
 20
15.643809333
 10
8.3372674654
 20
15.6452838402
 10
8.3220883929
 20
15.6463396302
 10
8.3067100108
 20
15.6469567311
 10
8.291132319
 20
15.647135143
  0
LWPOLYLINE
  5
5CB
100
AcDbEntity
  8
0
100
AcDbPolyline
 62
7
  6
CONTINUOUS
 90
10
 70
0
 10
8.0465660586
 20
15.145745102
 10
8.0708672289
 20
15.1257480346
 10
8.0964981752
 20
15.1082686329
 10
8.1234588976
 20
15.093306905
 10
8.1519963717
 20
15.0809258686
 10
8.1818636219
 20
15.0710625187
 10
8.2123197212
 20
15.0635278271
 10
8.2431176941
 20
15.0582587863
 10
8.2745045161
 20
15.0553184092
 10
8.3064801872
 20
15.0547066972
  0
LINE
  5
5CC
100
AcDbEntity
  8
0
100
AcDbLine
 62
7
  6
CONTINUOUS
 10
8.5397680879
 20
15.5642564937
 11
8.5285260833
 21
15.5741232718
  0
LINE
  5
5CD
100
AcDbEntity
  8
0
100
AcDbLine
 62
7
  6
CONTINUOUS
 10
8.6489857542
 20
15.626269771
 11
8.6737651848
 21
15.602174573
  0
LWPOLYLINE
  5
5CE
100
AcDbEntity
  8
0
100
AcDbPolyline
 62
7
  6
CONTINUOUS
 90
19
 70
0
 10
8.0125692596
 20
16.3262924137
 10
8.0215373709
 20
16.3173741298
 10
8.0308780887
 20
16.3089532836
 10
8.0405914129
 20
16.3010298759
 10
8.0507188699
 20
16.293610473
 10
8.0612189333
 20
16.2866885102
 10
8.0719670245
 20
16.2802442911
 10
8.0829572761
 20
16.2742884401
 10
8.0941955556
 20
16.2688103339
 10
8.1055748864
 20
16.2637584047
 10
8.1170465858
 20
16.2591452937
 10
8.1286593366
 20
16.2549583605
 10
8.1404522104
 20
16.2511081143
 10
8.1524254206
 20
16.2475814119
 10
8.1645787539
 20
16.2443913971
 10
8.1769506415
 20
16.2414880087
 10
8.189553894
 20
16.2388545601
 10
8.2023757007
 20
16.2365077382
 10
8.2154160619
 20
16.2344475433
  0
LWPOLYLINE
  5
5CF
100
AcDbEntity
  8
0
100
AcDbPolyline
 62
7
  6
CONTINUOUS
 90
10
 70
0
 10
7.9332633365
 20
14.9997103227
 10
7.9039909709
 20
15.030511948
 10
7.8781147362
 20
15.0632208895
 10
7.8556346326
 20
15.0978371356
 10
7.836484437
 20
15.1346747357
 10
7.8207303723
 20
15.1734196139
 10
7.8085711076
 20
15.2131295764
 10
7.8000728656
 20
15.2534905566
 10
7.7951694235
 20
15.2948166078
 10
7.7938607812
 20
15.3371077225
  0
LWPOLYLINE
  5
5D0
100
AcDbEntity
  8
0
100
AcDbPolyline
 62
7
  6
CONTINUOUS
 90
4
 70
0
 10
8.6737651848
 20
15.602174573
 10
8.6967347371
 20
15.5757922951
 10
8.717894411
 20
15.5471229258
 10
8.7372442067
 20
15.5161664531
  0
LWPOLYLINE
  5
5D1
100
AcDbEntity
  8
0
100
AcDbPolyline
 62
7
  6
CONTINUOUS
 90
10
 70
0
 10
7.8961801255
 20
16.2037516654
 10
7.8743826637
 20
16.2317876788
 10
7.8551916027
 20
16.2612577979
 10
7.8386069426
 20
16.2921620145
 10
7.824627669
 20
16.3247300343
 10
7.8132547963
 20
16.3587321323
 10
7.8044913668
 20
16.393479158
 10
7.798338395
 20
16.4287413929
 10
7.7947948664
 20
16.4647485457
 10
7.7938607812
 20
16.501500611
  0
LWPOLYLINE
  5
5D2
100
AcDbEntity
  8
0
100
AcDbPolyline
 62
7
  6
CONTINUOUS
 90
10
 70
0
 10
7.8961800814
 20
17.36916769
 10
7.8743827602
 20
17.3972034754
 10
7.8551917984
 20
17.4266734095
 10
7.8386071962
 20
17.4575774835
 10
7.8246279292
 20
17.490145374
 10
7.8132550218
 20
17.5241473838
 10
7.804491546
 20
17.5588944471
 10
7.7983385261
 20
17.594156874
 10
7.7947949378
 20
17.6301643441
 10
7.7938607812
 20
17.6669168517
  0
LWPOLYLINE
  5
5D3
100
AcDbEntity
  8
0
100
AcDbPolyline
 62
7
  6
CONTINUOUS
 90
10
 70
0
 10
9.2375852861
 20
14.461255096
 10
9.2565708225
 20
14.436081612
 10
9.2732333182
 20
14.409480896
 10
9.2875727733
 20
14.3814529413
 10
9.2995612561
 20
14.3517839222
 10
9.3092266982
 20
14.3206876495
 10
9.3166528949
 20
14.2888055754
 10
9.321867778
 20
14.2563515159
 10
9.3248434158
 20
14.2231116471
 10
9.3255798083
 20
14.1890859649
  0
LWPOLYLINE
  5
5D4
100
AcDbEntity
  8
0
100
AcDbPolyline
 62
7
  6
CONTINUOUS
 90
10
 70
0
 10
8.3686609306
 20
16.6568742428
 10
8.3531205478
 20
16.6777186587
 10
8.336091685
 20
16.6958978473
 10
8.317574342
 20
16.7114118185
 10
8.2974058462
 20
16.7241630579
 10
8.2757488702
 20
16.7342490951
 10
8.2530914328
 20
16.7419625034
 10
8.2295962065
 20
16.7474008089
 10
8.2051005187
 20
16.7504664917
 10
8.1796043694
 20
16.7511595532
  0
LWPOLYLINE
  5
5D5
100
AcDbEntity
  8
0
100
AcDbPolyline
 62
7
  6
CONTINUOUS
 90
10
 70
0
 10
8.3686608484
 20
17.82229043
 10
8.3531211216
 20
17.8431342493
 10
8.3360927579
 20
17.8613130502
 10
8.3175757575
 20
17.8768268433
 10
8.2974074541
 20
17.889578194
 10
8.2757505139
 20
17.8996645533
 10
8.2530929355
 20
17.9073782567
 10
8.229597385
 20
17.9128167512
 10
8.2051011963
 20
17.9158825964
 10
8.1796043694
 20
17.9165757939
  0
LWPOLYLINE
  5
5D6
100
AcDbEntity
  8
0
100
AcDbPolyline
 62
7
  6
CONTINUOUS
 90
7
 70
0
 10
9.135638815
 20
15.4672817848
 10
9.1217993021
 20
15.4880835955
 10
9.1065657519
 20
15.5075510316
 10
9.0899381644
 20
15.525684098
 10
9.0719165395
 20
15.542482799
 10
9.0525008773
 20
15.557947139
 10
9.0316911777
 20
15.5720771217
  0
LWPOLYLINE
  5
5D7
100
AcDbEntity
  8
0
100
AcDbPolyline
 62
7
  6
CONTINUOUS
 90
7
 70
0
 10
9.2365620325
 20
15.6031377653
 10
9.2640440405
 20
15.5600957421
 10
9.2864677637
 20
15.5150345369
 10
9.3038332021
 20
15.467954133
 10
9.3161403556
 20
15.4188545129
 10
9.3233892244
 20
15.3677356586
 10
9.3255798083
 20
15.3145975515
  0
LWPOLYLINE
  5
5D8
100
AcDbEntity
  8
0
100
AcDbPolyline
 62
7
  6
CONTINUOUS
 90
7
 70
0
 10
8.737244129
 20
19.0124147724
 10
8.7538657737
 20
18.980446881
 10
8.7674540437
 20
18.9474871626
 10
8.7780089389
 20
18.9135356101
 10
8.7855304596
 20
18.8785922157
 10
8.7900186055
 20
18.8426569719
 10
8.7914733768
 20
18.8057298705
  0
LINE
  5
5D9
100
AcDbEntity
  8
RACCORDO
100
AcDbLine
 62
7
  6
CONTINUOUS
 10
7.1348648826
 20
18.5017443099
 11
7.1085073836
 21
18.5
  0
LINE
  5
5DA
100
AcDbEntity
  8
RACCORDO
100
AcDbLine
 62
7
  6
CONTINUOUS
 10
-6.7939855153
 20
18.5017370046
 11
-6.8202886235
 21
18.5
  0
LWPOLYLINE
  5
5DB
100
AcDbEntity
  8
0
100
AcDbPolyline
 62
7
  6
CONTINUOUS
 90
28
 70
0
 10
5.462169395
 20
18.4842202492
 10
5.4985673455
 20
18.4862839997
 10
5.5337479575
 20
18.4920386923
 10
5.567711231
 20
18.5014843222
 10
5.60106891
 20
18.5146575708
 10
5.6332092506
 20
18.5315217379
 10
5.6622970204
 20
18.5519667423
 10
5.6879283603
 20
18.5763827465
 10
5.7105071296
 20
18.6043795504
 10
5.729409674
 20
18.6346765332
 10
5.7444760021
 20
18.6672935709
 10
5.7558661053
 20
18.7022107544
 10
5.7634363039
 20
18.7380878011
 10
5.7672647525
 20
18.7751337172
 10
5.7672732964
 20
18.8131394792
 10
5.7630837919
 20
18.8501377865
 10
5.7543269294
 20
18.8860726064
 10
5.7413720185
 20
18.9209999883
 10
5.7249488441
 20
18.9531207857
 10
5.704854308
 20
18.9820623606
 10
5.6812915084
 20
19.0081973917
 10
5.6555995261
 20
19.0308447233
 10
5.6279184357
 20
19.0498074103
 10
5.5981081625
 20
19.0652824317
 10
5.5670875626
 20
19.0771795185
 10
5.5351629212
 20
19.0854685866
 10
5.5020279531
 20
19.0901797368
 10
5.4676826582
 20
19.0913129729
  0
LINE
  5
5DC
100
AcDbEntity
  8
0
100
AcDbLine
 62
7
  6
CONTINUOUS
 10
8.6211554583
 20
19.1646052089
 11
8.6119200454
 21
19.1642162912
  0
LWPOLYLINE
  5
5DD
100
AcDbEntity
  8
0
100
AcDbPolyline
 62
7
  6
CONTINUOUS
 90
28
 70
0
 10
5.4676826582
 20
19.0913129729
 10
5.433377684
 20
19.0901685806
 10
5.4001113876
 20
19.0853220083
 10
5.3678837692
 20
19.076773252
 10
5.3363298492
 20
19.0644831957
 10
5.3058146071
 20
19.0484909375
 10
5.2774329814
 20
19.0289137899
 10
5.2510575085
 20
19.0055527958
 10
5.226815652
 20
18.9786068764
 10
5.2061847412
 20
18.9487901614
 10
5.18944326
 20
18.9157274783
 10
5.1763127245
 20
18.8797939568
 10
5.1674350128
 20
18.842829197
 10
5.1630480427
 20
18.804651994
 10
5.1629138964
 20
18.7654435344
 10
5.1669606994
 20
18.7275870412
 10
5.1754010348
 20
18.6913756809
 10
5.1880223195
 20
18.6565163117
 10
5.20411493
 20
18.6245127264
 10
5.2238782465
 20
18.5957146341
 10
5.2471128889
 20
18.5697723666
 10
5.2725110934
 20
18.5471406625
 10
5.2998425016
 20
18.5278808256
 10
5.3293374719
 20
18.5119315835
 10
5.3603793153
 20
18.49956381
 10
5.3927624688
 20
18.4908678026
 10
5.4266924954
 20
18.485753281
 10
5.462169395
 20
18.4842202492
  0
LWPOLYLINE
  5
5DE
100
AcDbEntity
  8
0
100
AcDbPolyline
 62
7
  6
CONTINUOUS
 90
7
 70
0
 10
8.6119200454
 20
19.1642162912
 10
8.6073225215
 20
19.1640587438
 10
8.6049759228
 20
19.1639911162
 10
8.6024812261
 20
19.1639356911
 10
8.5998013347
 20
19.1638940355
 10
8.5969733453
 20
19.1638645824
 10
8.5939972579
 20
19.1638473317
  0
LWPOLYLINE
  5
5DF
100
AcDbEntity
  8
0
100
AcDbPolyline
 62
7
  6
CONTINUOUS
 90
28
 70
0
 10
4.7716921707
 20
18.5447209446
 10
4.7993298611
 20
18.5455966582
 10
4.8262855183
 20
18.5495603864
 10
4.8525591425
 20
18.5566121265
 10
4.8786614472
 20
18.5668399173
 10
4.9040817188
 20
18.5801557078
 10
4.9272878164
 20
18.5962953582
 10
4.9480498412
 20
18.6154646147
 10
4.966597692
 20
18.6374577079
 10
4.9820889253
 20
18.6613932274
 10
4.9942316216
 20
18.6873647303
 10
5.0033177004
 20
18.7152786371
 10
5.0093804766
 20
18.7439728418
 10
5.012450991
 20
18.7735835915
 10
5.0124982028
 20
18.8039746281
 10
5.0094623049
 20
18.8335751058
 10
5.0032249113
 20
18.8623197334
 10
4.9939044081
 20
18.8902738128
 10
4.9817961459
 20
18.9160624074
 10
4.966630747
 20
18.9394007673
 10
4.9486775891
 20
18.9605736677
 10
4.9290401562
 20
18.9790604695
 10
4.9078128183
 20
18.9947525572
 10
4.8849012054
 20
19.0077585675
 10
4.8611256918
 20
19.0178837403
 10
4.8367597356
 20
19.0250631595
 10
4.8115298788
 20
19.0293617528
 10
4.7854361213
 20
19.0307795229
  0
LWPOLYLINE
  5
5E0
100
AcDbEntity
  8
0
100
AcDbPolyline
 62
7
  6
CONTINUOUS
 90
10
 70
0
 10
8.8610504597
 20
17.9841063067
 10
8.8349718049
 20
17.9833658352
 10
8.8094982164
 20
17.9805151434
 10
8.7846296941
 20
17.9755542298
 10
8.7602108936
 20
17.9684922058
 10
8.7363971592
 20
17.9593199545
 10
8.7136545249
 20
17.9480101317
 10
8.6921383351
 20
17.9345536187
 10
8.6716932453
 20
17.9189595226
 10
8.6523192555
 20
17.9012278363
  0
LWPOLYLINE
  5
5E1
100
AcDbEntity
  8
0
100
AcDbPolyline
 62
7
  6
CONTINUOUS
 90
10
 70
0
 10
8.3064801872
 20
18.5509550616
 10
8.3351968562
 20
18.5515519978
 10
8.3633797055
 20
18.5543339723
 10
8.3910287349
 20
18.5593009838
 10
8.4183641152
 20
18.5663821245
 10
8.4451656757
 20
18.5756482964
 10
8.4707729044
 20
18.5873122105
 10
8.4949656307
 20
18.6014447658
 10
8.5179640252
 20
18.6179750493
 10
8.5397680879
 20
18.636903052
  0
LWPOLYLINE
  5
5E2
100
AcDbEntity
  8
0
100
AcDbPolyline
 62
7
  6
CONTINUOUS
 90
5
 70
0
 10
8.6308322132
 20
19.164870505
 10
8.6283810181
 20
19.1648259755
 10
8.6259516288
 20
19.1647678617
 10
8.6235440452
 20
19.1646961638
 10
8.6211554583
 20
19.1646052089
  0
LWPOLYLINE
  5
5E3
100
AcDbEntity
  8
0
100
AcDbPolyline
 62
7
  6
CONTINUOUS
 90
28
 70
0
 10
4.7854361213
 20
19.0307795229
 10
4.7590794395
 20
19.0303249588
 10
4.7332687633
 20
19.0268324687
 10
4.7080040927
 20
19.0203020499
 10
4.6829136025
 20
19.010689576
 10
4.6583691179
 20
18.9980391622
 10
4.6354861145
 20
18.9824831657
 10
4.6142133044
 20
18.9638740594
 10
4.5946019754
 20
18.9423593473
 10
4.5779214672
 20
18.9185139336
 10
4.5644188102
 20
18.8920435084
 10
4.5538469738
 20
18.8632423538
 10
4.5467342056
 20
18.8335682729
 10
4.5433025784
 20
18.8028600171
 10
4.5433300194
 20
18.7712788224
 10
4.5466785568
 20
18.7407662421
 10
4.5535402219
 20
18.7115483299
 10
4.5637229834
 20
18.6833990476
 10
4.5765127763
 20
18.6575818321
 10
4.5920423912
 20
18.6344043813
 10
4.6101790374
 20
18.6135590243
 10
4.6298102779
 20
18.5953861513
 10
4.6507529725
 20
18.5799411371
 10
4.6731902614
 20
18.5671686273
 10
4.6965591273
 20
18.5572429188
 10
4.720671898
 20
18.5502221143
 10
4.7457162458
 20
18.546048122
 10
4.7716921707
 20
18.5447209446
  0
LWPOLYLINE
  5
5E4
100
AcDbEntity
  8
0
100
AcDbPolyline
 62
7
  6
CONTINUOUS
 90
16
 70
0
 10
8.291132319
 20
19.1433835074
 10
8.2735083016
 20
19.1431820326
 10
8.2559299877
 20
19.1423269624
 10
8.2383973773
 20
19.1408182966
 10
8.2208850585
 20
19.1387032678
 10
8.2034184431
 20
19.1359346429
 10
8.1860737673
 20
19.1323707235
 10
8.1688525432
 20
19.1280242122
 10
8.1517532585
 20
19.1228824048
 10
8.1348476125
 20
19.1167654919
 10
8.1180841547
 20
19.1096514564
 10
8.1015143354
 20
19.1015623123
 10
8.0853642049
 20
19.0923842956
 10
8.0697091132
 20
19.0820794832
 10
8.0544737102
 20
19.0706857933
 10
8.039657996
 20
19.0582032229
  0
LINE
  5
5E5
100
AcDbEntity
  8
0
100
AcDbLine
 62
7
  6
CONTINUOUS
 10
-3.325042
 20
17.962609
 11
-1.474958
 21
17.962609
  0
LINE
  5
5E6
100
AcDbEntity
  8
0
100
AcDbLine
 62
7
  6
CONTINUOUS
 10
-2.982778
 20
18.327522
 11
-2.532571
 21
18.327526
  0
LINE
  5
5E7
100
AcDbEntity
  8
0
100
AcDbLine
 62
7
  6
CONTINUOUS
 10
1.8489555797
 20
18.3757750279
 11
2.7497913572
 21
18.3757750279
  0
LINE
  5
5E8
100
AcDbEntity
  8
0
100
AcDbLine
 62
7
  6
CONTINUOUS
 10
1.8489555797
 20
18.4683750056
 11
2.7497913572
 21
18.4683750056
  0
LINE
  5
5E9
100
AcDbEntity
  8
RACCORDO
100
AcDbLine
 62
7
  6
CONTINUOUS
 10
6.8202886235
 20
18.5
 11
7.1085073836
 21
18.5
  0
LINE
  5
5EA
100
AcDbEntity
  8
RACCORDO
100
AcDbLine
 62
7
  6
CONTINUOUS
 10
-6.8202886235
 20
18.5
 11
-7.1085073836
 21
18.5
  0
LINE
  5
5EB
100
AcDbEntity
  8
RACCORDO
100
AcDbLine
 62
250
  6
CONTINUOUS
 10
6.6572287868
 20
18.7
 11
6.6200664561
 21
18.7
  0
LINE
  5
5EC
100
AcDbEntity
  8
RACCORDO
100
AcDbLine
 62
250
  6
CONTINUOUS
 10
-6.6572287868
 20
18.7
 11
-6.6200664561
 21
18.7
  0
LINE
  5
5ED
100
AcDbEntity
  8
RACCORDO
100
AcDbLine
 62
250
  6
CONTINUOUS
 10
7.234606201
 20
18.7
 11
7.3089365232
 21
18.7
  0
LINE
  5
5EE
100
AcDbEntity
  8
RACCORDO
100
AcDbLine
 62
250
  6
CONTINUOUS
 10
-7.234606201
 20
18.7
 11
-7.3089365232
 21
18.7
  0
LINE
  5
5EF
100
AcDbEntity
  8
0
100
AcDbLine
 62
7
  6
CONTINUOUS
 10
1.8489599193
 20
18.7334347608
 11
3.3517129103
 21
18.7334347608
  0
LINE
  5
5F0
100
AcDbEntity
  8
0
100
AcDbLine
 62
7
  6
CONTINUOUS
 10
1.9289473031
 20
18.826092889
 11
2.6024478439
 21
18.826092889
  0
LINE
  5
5F1
100
AcDbEntity
  8
0
100
AcDbLine
 62
7
  6
CONTINUOUS
 10
2.6824352277
 20
18.826092889
 11
3.3517129103
 21
18.826092889
  0
LINE
  5
5F2
100
AcDbEntity
  8
RACCORDO
100
AcDbLine
 62
250
  6
CONTINUOUS
 10
6.6598468471
 20
19.0
 11
7.2293696815
 21
19.0
  0
LINE
  5
5F3
100
AcDbEntity
  8
RACCORDO
100
AcDbLine
 62
250
  6
CONTINUOUS
 10
-6.6598468471
 20
19.0
 11
-7.2293696815
 21
19.0
  0
LINE
  5
5F4
100
AcDbEntity
  8
0
100
AcDbLine
 62
7
  6
CONTINUOUS
 10
-2.190307
 20
18.332669
 11
-1.474958
 21
18.332628
  0
LWPOLYLINE
  5
5F5
100
AcDbEntity
  8
0
100
AcDbPolyline
 62
7
  6
CONTINUOUS
 90
39
 70
0
 10
2.7497913572
 20
18.4683750056
 10
2.7973275872
 20
18.4681004974
 10
2.8447565668
 20
18.4654395785
 10
2.892078296
 20
18.4603922476
 10
2.9397247551
 20
18.4532105491
 10
2.9872639637
 20
18.4436424323
 10
3.0333999812
 20
18.4309317494
 10
3.0780918338
 20
18.4150193543
 10
3.1213804952
 20
18.3959643729
 10
3.1620929461
 20
18.3731880591
 10
3.2000713816
 20
18.3467224182
 10
3.2354736068
 20
18.3165354043
 10
3.267600017
 20
18.2819521823
 10
3.2965008776
 20
18.2426790598
 10
3.3221259233
 20
18.1990096561
 10
3.3436247538
 20
18.1511500953
 10
3.3607414231
 20
18.0983502391
 10
3.373731877
 20
18.0413601288
 10
3.3825135533
 20
17.9826361845
 10
3.3871146428
 20
17.9217999851
 10
3.3875069546
 20
17.8592299051
 10
3.3835233535
 20
17.7985176366
 10
3.3750643983
 20
17.740068314
 10
3.3622295303
 20
17.6834768558
 10
3.3451499384
 20
17.631119705
 10
3.3235519297
 20
17.5837513125
 10
3.2977091971
 20
17.5406173238
 10
3.2685740076
 20
17.5018309977
 10
3.2362189309
 20
17.4676470125
 10
3.2005713973
 20
17.4378107587
 10
3.1623659646
 20
17.4116715537
 10
3.1214429996
 20
17.3891871533
 10
3.0779621355
 20
17.3703998395
 10
3.0331368295
 20
17.3547857085
 10
2.9869488738
 20
17.3424469594
 10
2.9394164762
 20
17.3332814119
 10
2.8918077176
 20
17.3264585864
 10
2.8445452918
 20
17.3217016574
 10
2.7972065049
 20
17.3192874557
  0
LWPOLYLINE
  5
5F6
100
AcDbEntity
  8
0
100
AcDbPolyline
 62
7
  6
CONTINUOUS
 90
10
 70
0
 10
8.3003410578
 20
18.3616644189
 10
8.2539693291
 20
18.3627017152
 10
8.2087283328
 20
18.367174774
 10
8.1646180688
 20
18.3750835917
 10
8.1212844093
 20
18.3863810602
 10
8.0790814821
 20
18.401114273
 10
8.0390716707
 20
18.4194245253
 10
8.0016091029
 20
18.4413589045
 10
7.9663396509
 20
18.4668702909
 10
7.9332633146
 20
18.4959586641
  0
LWPOLYLINE
  5
5F7
100
AcDbEntity
  8
0
100
AcDbPolyline
 62
7
  6
CONTINUOUS
 90
10
 70
0
 10
8.8569577217
 20
18.1795359895
 10
8.8991066401
 20
18.1780059549
 10
8.9401823667
 20
18.1727813935
 10
8.9801849016
 20
18.1638623011
 10
9.0193883123
 20
18.1511270526
 10
9.0575185313
 20
18.1346972554
 10
9.093753356
 20
18.1149377504
 10
9.1278187186
 20
18.0919701415
 10
9.1599886869
 20
18.0656727941
 10
9.1902632608
 20
18.0360456892
  0
LWPOLYLINE
  5
5F8
100
AcDbEntity
  8
0
100
AcDbPolyline
 62
7
  6
CONTINUOUS
 90
7
 70
0
 10
8.1836971521
 20
18.1058664367
 10
8.2154025516
 20
18.1045213295
 10
8.246226611
 20
18.1002354099
 10
8.2761693301
 20
18.0930086752
 10
8.3052307091
 20
18.0828411206
 10
8.333410748
 20
18.0697327396
 10
8.3607094467
 20
18.0536835238
  0
LWPOLYLINE
  5
5F9
100
AcDbEntity
  8
RACCORDO
100
AcDbPolyline
 62
7
  6
CONTINUOUS
 90
6
 70
0
 10
-7.034636662
 20
18.5
 10
-7.0607379245
 20
18.5017110277
 10
-7.0863925872
 20
18.5068148348
 10
-7.1111616916
 20
18.5152240935
 10
-7.1346214316
 20
18.5267949193
 10
-7.1457306636
 20
18.5337039914
  0
LWPOLYLINE
  5
5FA
100
AcDbEntity
  8
RACCORDO
100
AcDbPolyline
 62
7
  6
CONTINUOUS
 90
6
 70
0
 10
6.8572211714
 20
18.5
 10
6.8311169269
 20
18.5017110277
 10
6.8054593333
 20
18.5068148348
 10
6.7806873991
 20
18.5152240935
 10
6.757224979
 20
18.5267949193
 10
6.7451222574
 20
18.5343712692
  0
LWPOLYLINE
  5
5FB
100
AcDbEntity
  8
RACCORDO
100
AcDbPolyline
 62
7
  6
CONTINUOUS
 90
4
 70
0
 10
6.8202886235
 20
18.5
 10
6.7939855153
 20
18.5017370046
 10
6.7681744471
 20
18.5069073744
 10
6.7432991968
 20
18.5154061091
  0
LINE
  5
5FC
100
AcDbEntity
  8
RACCORDO
100
AcDbLine
 62
7
  6
CONTINUOUS
 10
-7.1354636732
 20
18.5018319132
 11
-7.1094109243
 21
18.5
  0
LINE
  5
5FD
100
AcDbEntity
  8
0
100
AcDbLine
 62
7
  6
CONTINUOUS
 10
8.5899045199
 20
17.5605046794
 11
8.4282401383
 21
17.5809685037
  0
LINE
  5
5FE
100
AcDbEntity
  8
0
100
AcDbLine
 62
7
  6
CONTINUOUS
 10
5.20861965
 20
17.4769870445
 11
5.047979909
 21
17.4973930116
  0
LWPOLYLINE
  5
5FF
100
AcDbEntity
  8
0
100
AcDbPolyline
 62
7
  6
CONTINUOUS
 90
10
 70
0
 10
8.1826739788
 20
17.2156888291
 10
8.1444380103
 20
17.2236245905
 10
8.1076314444
 20
17.2338634274
 10
8.072254281
 20
17.2464053347
 10
8.0380779525
 20
17.261281905
 10
8.0053310266
 20
17.2784615326
 10
7.9746992062
 20
17.2978494138
 10
7.946411059
 20
17.3194139414
 10
7.9202380174
 20
17.3431867038
 10
7.8961800814
 20
17.36916769
  0
LWPOLYLINE
  5
600
100
AcDbEntity
  8
0
100
AcDbPolyline
 62
7
  6
CONTINUOUS
 90
33
 70
0
 10
4.8059769277
 20
17.1336716024
 10
4.7663207548
 20
17.1421776818
 10
4.7277318672
 20
17.1535205919
 10
4.6902102648
 20
17.167700326
 10
4.6533401769
 20
17.1847004562
 10
4.6175373742
 20
17.2045373921
 10
4.5840491689
 20
17.2272603808
 10
4.552978222
 20
17.2529610235
 10
4.5242218725
 20
17.2815476895
 10
4.4987194491
 20
17.3127947767
 10
4.4766764629
 20
17.3468497088
 10
4.457887403
 20
17.3835650247
 10
4.442675065
 20
17.4222727994
 10
4.4311240533
 20
17.463109096
 10
4.4231497636
 20
17.5059378167
 10
4.4188211795
 20
17.5496828073
 10
4.4179282953
 20
17.5943747408
 10
4.4206811167
 20
17.6399829261
 10
4.4277786436
 20
17.6853391841
 10
4.4393569644
 20
17.7307673282
 10
4.4552799906
 20
17.775943547
 10
4.4758384576
 20
17.8187282558
 10
4.5016332007
 20
17.8591944174
 10
4.5320633845
 20
17.897269111
 10
4.565617238
 20
17.930593964
 10
4.6025160858
 20
17.9585989598
 10
4.6425386033
 20
17.9818541805
 10
4.6835090458
 20
17.9997114177
 10
4.7251595195
 20
18.0118761613
 10
4.7677579181
 20
18.0186429573
 10
4.8099321784
 20
18.0202471745
 10
4.851811375
 20
18.0167644928
 10
4.8932664334
 20
18.0081192301
  0
LWPOLYLINE
  5
601
100
AcDbEntity
  8
0
100
AcDbPolyline
 62
7
  6
CONTINUOUS
 90
8
 70
0
 10
4.8932664334
 20
18.0081192301
 10
4.9325380668
 20
17.9943197035
 10
4.9694786935
 20
17.9749525965
 10
5.0042358953
 20
17.9504311873
 10
5.0354931303
 20
17.9220036828
 10
5.0628115511
 20
17.8900861379
 10
5.0866300051
 20
17.8542624486
 10
5.1069484923
 20
17.8145325847
  0
LWPOLYLINE
  5
602
100
AcDbEntity
  8
0
100
AcDbPolyline
 62
7
  6
CONTINUOUS
 90
7
 70
0
 10
8.977530607
 20
15.7889070083
 10
9.0310397548
 20
15.7670653846
 10
9.0804140052
 20
15.7415758201
 10
9.1256533581
 20
15.7124382973
 10
9.1667578137
 20
15.679652796
 10
9.2037273718
 20
15.6432192936
 10
9.2365620325
 20
15.6031377653
  0
LWPOLYLINE
  5
603
100
AcDbEntity
  8
0
100
AcDbPolyline
 62
7
  6
CONTINUOUS
 90
16
 70
0
 10
9.0316911777
 20
15.5720771217
 10
9.0207141665
 20
15.5786365116
 10
9.009591479
 20
15.5848627369
 10
8.9983231152
 20
15.590755798
 10
8.9868909837
 20
15.5962913476
 10
8.9753131759
 20
15.6014937337
 10
8.9636439658
 20
15.6064359997
 10
8.9518875944
 20
15.611127217
 10
8.9400398206
 20
15.6155583146
 10
8.9281421954
 20
15.6197751223
 10
8.9162033154
 20
15.6237807546
 10
8.904214584
 20
15.6275720973
 10
8.8921917612
 20
15.6311856374
 10
8.8801401004
 20
15.6346335371
 10
8.8680543484
 20
15.6379036345
 10
8.855934505
 20
15.6409959294
  0
LWPOLYLINE
  5
604
100
AcDbEntity
  8
0
100
AcDbPolyline
 62
7
  6
CONTINUOUS
 90
3
 70
0
 10
8.5939972579
 20
15.6675989673
 10
8.6223964452
 20
15.6480778992
 10
8.6489857542
 20
15.626269771
  0
LWPOLYLINE
  5
605
100
AcDbEntity
  8
RACCORDO
100
AcDbPolyline
 62
250
  6
CONTINUOUS
 90
9
 70
0
 10
6.7451222574
 20
18.5343712692
 10
6.7354735214
 20
18.541329332
 10
6.7158052
 20
18.5585786439
 10
6.698556545
 20
18.5782477143
 10
6.6840226857
 20
18.6000000001
 10
6.6724523006
 20
18.6234633136
 10
6.664043362
 20
18.648236191
 10
6.6589397493
 20
18.6738947616
 10
6.6572287868
 20
18.7
  0
LWPOLYLINE
  5
606
100
AcDbEntity
  8
0
100
AcDbPolyline
 62
7
  6
CONTINUOUS
 90
7
 70
0
 10
8.3607095286
 20
16.8882674084
 10
8.386581251
 20
16.8692943812
 10
8.4105626668
 20
16.8476104382
 10
8.4326537761
 20
16.8232155677
 10
8.4528545788
 20
16.7961097561
 10
8.4711650749
 20
16.7662929886
 10
8.4875852644
 20
16.733765249
  0
LWPOLYLINE
  5
607
100
AcDbEntity
  8
RACCORDO
100
AcDbPolyline
 62
7
  6
CONTINUOUS
 90
8
 70
0
 10
6.6980324725
 20
18.5416836961
 10
6.678390465
 20
18.5589942732
 10
6.6611858003
 20
18.5787024009
 10
6.6467097823
 20
18.60045995
 10
6.6352044001
 20
18.6238823695
 10
6.6268536167
 20
18.6485625367
 10
6.6217837243
 20
18.6740798342
 10
6.6200664561
 20
18.7
  0
LWPOLYLINE
  5
608
100
AcDbEntity
  8
0
100
AcDbPolyline
 62
7
  6
CONTINUOUS
 90
10
 70
0
 10
9.0843594653
 20
16.7289057141
 10
9.0637447049
 20
16.747763604
 10
9.0419499176
 20
16.7644258455
 10
9.0189751034
 20
16.7788924461
 10
8.9946460101
 20
16.7911965033
 10
8.96913689
 20
16.8013049314
 10
8.9429704992
 20
16.8091184617
 10
8.91632109
 20
16.8146040068
 10
8.8890144102
 20
16.8177946603
 10
8.8610504597
 20
16.8186904237
  0
LWPOLYLINE
  5
609
100
AcDbEntity
  8
0
100
AcDbPolyline
 62
7
  6
CONTINUOUS
 90
19
 70
0
 10
8.0125691708
 20
17.4917085694
 10
8.0215370561
 20
17.4827904796
 10
8.0308775808
 20
17.4743697834
 10
8.0405907447
 20
17.4664464816
 10
8.0507180735
 20
17.4590271332
 10
8.0612180416
 20
17.4521051809
 10
8.0719660725
 20
17.4456609514
 10
8.0829563023
 20
17.4397050717
 10
8.0941945951
 20
17.434226916
 10
8.1055739657
 20
17.4291749317
 10
8.1170457344
 20
17.4245617625
 10
8.128658581
 20
17.4203747655
 10
8.1404515608
 20
17.416524458
 10
8.1524248878
 20
17.412997699
 10
8.164578348
 20
17.4098076301
 10
8.1769503542
 20
17.406904192
 10
8.1895537107
 20
17.4042706985
 10
8.2023756133
 20
17.4019238362
 10
8.2154160619
 20
17.3998636052
  0
LWPOLYLINE
  5
60A
100
AcDbEntity
  8
0
100
AcDbPolyline
 62
7
  6
CONTINUOUS
 90
10
 70
0
 10
7.9332633146
 20
18.4959586641
 10
7.9039894149
 20
18.5267625904
 10
7.8781121741
 20
18.5594732565
 10
7.8556315924
 20
18.5940906483
 10
7.8364816385
 20
18.6309288085
 10
7.8207283436
 20
18.6696736617
 10
7.8085698011
 20
18.7093830232
 10
7.8000720421
 20
18.7497428291
 10
7.7951690354
 20
18.7910671272
 10
7.7938607812
 20
18.8333559081
  0
LWPOLYLINE
  5
60B
100
AcDbEntity
  8
0
100
AcDbPolyline
 62
7
  6
CONTINUOUS
 90
10
 70
0
 10
9.1902632608
 20
16.8706294485
 10
9.2194880738
 20
16.8370981753
 10
9.2451881279
 20
16.8016406884
 10
9.2673634232
 20
16.7642569743
 10
9.2860062654
 20
16.7246077663
 10
9.3011243488
 20
16.6830322996
 10
9.3127407558
 20
16.6405483204
 10
9.3208631806
 20
16.5974950761
 10
9.3254839291
 20
16.5535333063
 10
9.3266030012
 20
16.5086630031
  0
LWPOLYLINE
  5
60C
100
AcDbEntity
  8
0
100
AcDbPolyline
 62
7
  6
CONTINUOUS
 90
10
 70
0
 10
9.1902632608
 20
18.0360456892
 10
9.2194879912
 20
18.0025145268
 10
9.2451879855
 20
17.9670571505
 10
9.2673632435
 20
17.9296735455
 10
9.2860060739
 20
17.8900244847
 10
9.301124168
 20
17.8484491616
 10
9.3127406003
 20
17.805965201
 10
9.3208630624
 20
17.7629118099
 10
9.3254838627
 20
17.7189497673
 10
9.3266030012
 20
17.674079065
  0
LWPOLYLINE
  5
60D
100
AcDbEntity
  8
0
100
AcDbPolyline
 62
7
  6
CONTINUOUS
 90
4
 70
0
 10
8.6737648318
 20
19.0984232299
 10
8.6967344061
 20
19.0720409128
 10
8.7178941718
 20
19.043371432
 10
8.737244129
 20
19.0124147724
  0
LWPOLYLINE
  5
60E
100
AcDbEntity
  8
0
100
AcDbPolyline
 62
7
  6
CONTINUOUS
 90
7
 70
0
 10
9.1356388541
 20
18.963529995
 10
9.1218000215
 20
18.9843311015
 10
9.1065668714
 20
19.0037981155
 10
9.0899394038
 20
19.0219310428
 10
9.0719176187
 20
19.0387298892
 10
9.0525015161
 20
19.0541946596
 10
9.0316910959
 20
19.0683253589
  0
LWPOLYLINE
  5
60F
100
AcDbEntity
  8
0
100
AcDbPolyline
 62
7
  6
CONTINUOUS
 90
7
 70
0
 10
9.23656216
 20
19.0993860434
 10
9.2640438545
 20
19.0563449249
 10
9.286467381
 20
19.0112842617
 10
9.3038327397
 20
18.9642040332
 10
9.3161399305
 20
18.9151042179
 10
9.3233889533
 20
18.8639847935
 10
9.3255798083
 20
18.8108457372
  0
LINE
  5
610
100
AcDbEntity
  8
RACCORDO
100
AcDbLine
 62
7
  6
CONTINUOUS
 10
7.0558748026
 20
-20.9974535597
 11
7.0425072881
 21
-21.0094865114
  0
LINE
  5
611
100
AcDbEntity
  8
RACCORDO
100
AcDbLine
 62
7
  6
CONTINUOUS
 10
7.1094912508
 20
-20.9499376597
 11
7.0558748026
 21
-20.9974535597
  0
LWPOLYLINE
  5
612
100
AcDbEntity
  8
RACCORDO
100
AcDbPolyline
 62
7
  6
CONTINUOUS
 90
3
 70
0
 10
7.1948944821
 20
-20.8750755787
 10
7.1610166096
 20
-20.9045842936
 10
7.1094912508
 20
-20.9499376597
  0
LINE
  5
613
100
AcDbEntity
  8
RACCORDO
100
AcDbLine
 62
7
  6
CONTINUOUS
 10
7.220580698
 20
-20.8531402184
 11
7.1948944821
 21
-20.8750755787
  0
LINE
  5
614
100
AcDbEntity
  8
RACCORDO
100
AcDbLine
 62
7
  6
CONTINUOUS
 10
7.2269247239
 20
-20.8478512967
 11
7.220580698
 21
-20.8531402184
  0
LWPOLYLINE
  5
615
100
AcDbEntity
  8
RACCORDO
100
AcDbPolyline
 62
7
  6
CONTINUOUS
 90
6
 70
0
 10
6.7481955371
 20
-18.5323321563
 10
6.7572249791
 20
-18.5267949192
 10
6.7806873992
 20
-18.5152240935
 10
6.8054593334
 20
-18.5068148347
 10
6.8311169269
 20
-18.5017110277
 10
6.8572211714
 20
-18.5
  0
LWPOLYLINE
  5
616
100
AcDbEntity
  8
RACCORDO
100
AcDbPolyline
 62
7
  6
CONTINUOUS
 90
3
 70
0
 10
6.7432991968
 20
-18.5154061091
 10
6.7681744471
 20
-18.5069073744
 10
6.7939855153
 20
-18.5017370046
  0
LWPOLYLINE
  5
617
100
AcDbEntity
  8
RACCORDO
100
AcDbPolyline
 62
250
  6
CONTINUOUS
 90
13
 70
0
 10
-7.0294001425
 20
20.2585786438
 10
-7.0553235464
 20
20.257159202
 10
-7.0808217567
 20
20.2533749129
 10
-7.1054631376
 20
20.2472862956
 10
-7.128834401
 20
20.2389909837
 10
-7.1505322297
 20
20.2286273937
 10
-7.170174151
 20
20.2163768226
 10
-7.1874402364
 20
20.2024368699
 10
-7.2020236077
 20
20.1870530906
 10
-7.2136494171
 20
20.1705357589
 10
-7.2221423768
 20
20.1531896548
 10
-7.2274017151
 20
20.1352963416
 10
-7.2293696815
 20
20.1171572875
  0
LWPOLYLINE
  5
618
100
AcDbEntity
  8
RACCORDO
100
AcDbPolyline
 62
250
  6
CONTINUOUS
 90
13
 70
0
 10
6.8598392317
 20
20.2585786438
 10
6.8338112531
 20
20.2572623286
 10
6.8082132153
 20
20.2535604456
 10
6.7834819673
 20
20.2475324589
 10
6.7600355757
 20
20.2392755665
 10
6.7382822012
 20
20.2289285414
 10
6.7186088814
 20
20.2166740213
 10
6.7013382517
 20
20.2027109185
 10
6.6867803067
 20
20.1872875146
 10
6.67521242
 20
20.1707191451
 10
6.6668092065
 20
20.1533149498
 10
6.66166905
 20
20.1353593577
 10
6.6598468471
 20
20.1171572875
  0
LINE
  5
619
100
AcDbEntity
  8
RACCORDO
100
AcDbLine
 62
250
  6
CONTINUOUS
 10
-0.0649210165
 20
19.4007005808
 11
0.0649210165
 21
19.4007005808
  0
LINE
  5
61A
100
AcDbEntity
  8
RACCORDO
100
AcDbLine
 62
250
  6
CONTINUOUS
 10
-0.2629729446
 20
19.883663494
 11
0.2629729446
 21
19.883663494
  0
LINE
  5
61B
100
AcDbEntity
  8
RACCORDO
100
AcDbLine
 62
250
  6
CONTINUOUS
 10
7.2293696815
 20
20.1171572875
 11
6.6598468471
 21
20.1171572875
  0
LINE
  5
61C
100
AcDbEntity
  8
RACCORDO
100
AcDbLine
 62
250
  6
CONTINUOUS
 10
-6.6598468471
 20
20.1171572875
 11
-7.2293696815
 21
20.1171572875
  0
LINE
  5
61D
100
AcDbEntity
  8
RACCORDO
100
AcDbLine
 62
250
  6
CONTINUOUS
 10
7.0294001425
 20
20.2585786438
 11
6.8598392317
 21
20.2585786438
  0
LINE
  5
61E
100
AcDbEntity
  8
RACCORDO
100
AcDbLine
 62
250
  6
CONTINUOUS
 10
-6.8598392317
 20
20.2585786438
 11
-7.0294001425
 21
20.2585786438
  0
LINE
  5
61F
100
AcDbEntity
  8
DRAFT
100
AcDbLine
 62
7
  6
CONTINUOUS
 10
-6.5168765708
 20
20.4338413913
 11
-0.3972163531
 21
20.4338413913
  0
LINE
  5
620
100
AcDbEntity
  8
DRAFT
100
AcDbLine
 62
7
  6
CONTINUOUS
 10
0.3972163531
 20
20.4338413913
 11
6.5168765708
 21
20.4338413913
  0
LINE
  5
621
100
AcDbEntity
  8
DRAFT
100
AcDbLine
 62
7
  6
CONTINUOUS
 10
-9.5838661374
 20
20.5028438891
 11
-7.5153129787
 21
20.5028438891
  0
LINE
  5
622
100
AcDbEntity
  8
DRAFT
100
AcDbLine
 62
7
  6
CONTINUOUS
 10
7.5153129787
 20
20.5028438891
 11
9.5838661374
 21
20.5028438891
  0
LINE
  5
623
100
AcDbEntity
  8
RACCORDO
100
AcDbLine
 62
7
  6
CONTINUOUS
 10
6.6582893563
 20
20.5731858629
 11
-6.6582893563
 21
20.5731858629
  0
LINE
  5
624
100
AcDbEntity
  8
RACCORDO
100
AcDbLine
 62
250
  6
CONTINUOUS
 10
6.8556039598
 20
20.7438927334
 11
-6.8556039598
 21
20.7438927334
  0
LINE
  5
625
100
AcDbEntity
  8
DRAFT
100
AcDbLine
 62
7
  6
CONTINUOUS
 10
9.65
 20
20.9
 11
7.3830351795
 21
20.9
  0
LINE
  5
626
100
AcDbEntity
  8
DRAFT
100
AcDbLine
 62
7
  6
CONTINUOUS
 10
-7.3830351795
 20
20.9
 11
-9.65
 21
20.9
  0
LWPOLYLINE
  5
627
100
AcDbEntity
  8
0
100
AcDbPolyline
 62
7
  6
CONTINUOUS
 90
19
 70
0
 10
8.5193042636
 20
19.3480217502
 10
8.544997898
 20
19.3479194008
 10
8.5706822633
 20
19.347514915
 10
8.5963573596
 20
19.3468082928
 10
8.6220206055
 20
19.3458204772
 10
8.6476745823
 20
19.3445305251
 10
8.673327034
 20
19.3428756073
 10
8.6989859618
 20
19.3408635674
 10
8.7246433645
 20
19.3384865615
 10
8.7502829818
 20
19.3356582285
 10
8.7759209961
 20
19.3323878171
 10
8.8015412249
 20
19.328666078
 10
8.8270788615
 20
19.3243789032
 10
8.8525460088
 20
19.3195400399
 10
8.8779305638
 20
19.3141357397
 10
8.90313141
 20
19.3080106511
 10
8.9281148418
 20
19.3011129896
 10
8.9529145647
 20
19.2934945375
 10
8.9775305788
 20
19.2851552935
  0
LWPOLYLINE
  5
628
100
AcDbEntity
  8
0
100
AcDbPolyline
 62
7
  6
CONTINUOUS
 90
19
 70
0
 10
2.269885281
 20
19.8110538524
 10
2.3171396981
 20
19.8090053832
 10
2.361535961
 20
19.8033154902
 10
2.4030740698
 20
19.7939841685
 10
2.4417592052
 20
19.7808486587
 10
2.4775861865
 20
19.7640717004
 10
2.5105394716
 20
19.7441415333
 10
2.5407015248
 20
19.720990754
 10
2.5679898819
 20
19.6946867333
 10
2.5921416074
 20
19.665919876
 10
2.6129457851
 20
19.634532028
 10
2.6306133313
 20
19.6006813075
 10
2.6455140601
 20
19.5655325394
 10
2.6575904901
 20
19.5291070157
 10
2.6669001028
 20
19.4913834229
 10
2.673985157
 20
19.453462697
 10
2.6790264057
 20
19.4157118199
 10
2.6818430959
 20
19.3777638089
 10
2.6824352277
 20
19.3396186624
  0
LWPOLYLINE
  5
629
100
AcDbEntity
  8
0
100
AcDbPolyline
 62
7
  6
CONTINUOUS
 90
3
 70
0
 10
8.7070321618
 20
19.1617833241
 10
8.6690779189
 20
19.1640921155
 10
8.6308322132
 20
19.164870505
  0
LWPOLYLINE
  5
62A
100
AcDbEntity
  8
0
100
AcDbPolyline
 62
7
  6
CONTINUOUS
 90
5
 70
0
 10
8.855934505
 20
19.1372441151
 10
8.8191461135
 20
19.1456745276
 10
8.7820662591
 20
19.1525745318
 10
8.7446949419
 20
19.15794413
 10
8.7070321618
 20
19.1617833241
  0
LWPOLYLINE
  5
62B
100
AcDbEntity
  8
RACCORDO
100
AcDbPolyline
 62
7
  6
CONTINUOUS
 90
3
 70
0
 10
6.7432991968
 20
18.5154061091
 10
6.7197873722
 20
18.5270694334
 10
6.6980324725
 20
18.5416836961
  0
LWPOLYLINE
  5
62C
100
AcDbEntity
  8
0
100
AcDbPolyline
 62
7
  6
CONTINUOUS
 90
16
 70
0
 10
9.0316910959
 20
19.0683253589
 10
9.0207145497
 20
19.0748844987
 10
9.0095922517
 20
19.0811105274
 10
8.9983242018
 20
19.0870034457
 10
8.9868923056
 20
19.0925389152
 10
8.9753146576
 20
19.0977412751
 10
8.9636455414
 20
19.1026835418
 10
8.951889196
 20
19.1073747833
 10
8.9400413823
 20
19.1118059322
 10
8.9281436668
 20
19.1160228024
 10
8.9162046479
 20
19.1200285056
 10
8.9042157272
 20
19.1238199304
 10
8.8921926755
 20
19.1274335557
 10
8.8801407497
 20
19.1308815413
 10
8.8680546928
 20
19.1341517277
 10
8.855934505
 20
19.1372441151
  0
LWPOLYLINE
  5
62D
100
AcDbEntity
  8
0
100
AcDbPolyline
 62
7
  6
CONTINUOUS
 90
3
 70
0
 10
8.5939972579
 20
19.1638473317
 10
8.6223962578
 20
19.1443264273
 10
8.648985449
 20
19.1225183972
  0
LWPOLYLINE
  5
62E
100
AcDbEntity
  8
0
100
AcDbPolyline
 62
7
  6
CONTINUOUS
 90
7
 70
0
 10
8.3607094467
 20
18.0536835238
 10
8.386581094
 20
18.0347105219
 10
8.4105624702
 20
18.0130266037
 10
8.4326535754
 20
17.9886317565
 10
8.4528544095
 20
17.9615259659
 10
8.4711649725
 20
17.9317092161
 10
8.4875852644
 20
17.8991814896
  0
LWPOLYLINE
  5
62F
100
AcDbEntity
  8
RACCORDO
100
AcDbPolyline
 62
7
  6
CONTINUOUS
 90
4
 70
0
 10
7.2359625226
 20
20.8405916279
 10
7.2390584774
 20
20.8381523097
 10
7.2410348192
 20
20.8368223095
 10
7.2419286989
 20
20.8366629075
  0
LWPOLYLINE
  5
630
100
AcDbEntity
  8
0
100
AcDbPolyline
 62
7
  6
CONTINUOUS
 90
18
 70
0
 10
8.5285269446
 20
19.0703708156
 10
8.5168522104
 20
19.0795744123
 10
8.5047438851
 20
19.0881154708
 10
8.4921507434
 20
19.0959941355
 10
8.4791240107
 20
19.1032102646
 10
8.4658173632
 20
19.1097634302
 10
8.4522374229
 20
19.1156322721
 10
8.4383775679
 20
19.1208381524
 10
8.4243716083
 20
19.1254447272
 10
8.4102740361
 20
19.1294396591
 10
8.3960303593
 20
19.1328352866
 10
8.3816109117
 20
19.1357322799
 10
8.3670136337
 20
19.138144224
 10
8.3522405849
 20
19.1400575345
 10
8.3372682778
 20
19.1415321264
 10
8.3220888831
 20
19.1425879716
 10
8.3067102302
 20
19.1432050986
 10
8.291132319
 20
19.1433835074
  0
LWPOLYLINE
  5
631
100
AcDbEntity
  8
0
100
AcDbPolyline
 62
7
  6
CONTINUOUS
 90
10
 70
0
 10
8.0465659255
 20
18.6419934986
 10
8.0708673633
 20
18.6219962237
 10
8.0964985779
 20
18.6045166709
 10
8.1234595691
 20
18.5895548501
 10
8.1519973979
 20
18.5771737926
 10
8.1818650034
 20
18.5673104827
 10
8.2123212034
 20
18.5597758582
 10
8.2431189369
 20
18.5545069002
 10
8.2745052648
 20
18.5515666342
 10
8.3064801872
 20
18.5509550616
  0
LWPOLYLINE
  5
632
100
AcDbEntity
  8
RACCORDO
100
AcDbPolyline
 62
7
  6
CONTINUOUS
 90
3
 70
0
 10
7.2196903262
 20
20.8538879834
 10
7.2262675205
 20
20.8484063534
 10
7.2359625226
 20
20.8405916279
  0
LINE
  5
633
100
AcDbEntity
  8
RACCORDO
100
AcDbLine
 62
7
  6
CONTINUOUS
 10
7.1933978083
 20
20.8763693999
 11
7.2196903262
 21
20.8538879834
  0
LINE
  5
634
100
AcDbEntity
  8
0
100
AcDbLine
 62
7
  6
CONTINUOUS
 10
8.5397680879
 20
19.0605046794
 11
8.5285269446
 21
19.0703708156
  0
LWPOLYLINE
  5
635
100
AcDbEntity
  8
RACCORDO
100
AcDbPolyline
 62
7
  6
CONTINUOUS
 90
3
 70
0
 10
7.108222735
 20
20.9510743434
 10
7.1472234175
 20
20.9166738754
 10
7.1933978083
 20
20.8763693999
  0
LWPOLYLINE
  5
636
100
AcDbEntity
  8
RACCORDO
100
AcDbPolyline
 62
7
  6
CONTINUOUS
 90
3
 70
0
 10
7.0684513851
 20
20.9862689473
 10
7.0949472841
 20
20.9628966875
 10
7.108222735
 20
20.9510743434
  0
LWPOLYLINE
  5
637
100
AcDbEntity
  8
RACCORDO
100
AcDbPolyline
 62
7
  6
CONTINUOUS
 90
3
 70
0
 10
7.0425072881
 20
21.0094865114
 10
7.0553773713
 20
20.9978705969
 10
7.0684513851
 20
20.9862689473
  0
LWPOLYLINE
  5
638
100
AcDbEntity
  8
0
100
AcDbPolyline
 62
7
  6
CONTINUOUS
 90
10
 70
0
 10
9.0843594653
 20
17.8943219548
 10
9.0637451505
 20
17.9131795323
 10
9.0419506988
 20
17.9298415511
 10
9.0189761101
 20
17.9443080189
 10
8.9946471341
 20
17.9566120637
 10
8.9691380212
 20
17.9667205703
 10
8.9429715222
 20
17.9745341809
 10
8.9163218874
 20
17.9800197784
 10
8.8890148666
 20
17.9832104865
 10
8.8610504597
 20
17.9841063067
  0
LINE
  5
639
100
AcDbEntity
  8
0
100
AcDbLine
 62
7
  6
CONTINUOUS
 10
8.648985449
 20
19.1225183972
 11
8.6737648318
 21
19.0984232299
  0
LINE
  5
63A
100
AcDbEntity
  8
DRAFT
100
AcDbLine
 62
7
  6
CONTINUOUS
 10
3.0
 20
23.5
 11
2.7812783412
 21
23.4563623377
  0
LWPOLYLINE
  5
63B
100
AcDbEntity
  8
RACCORDO
100
AcDbPolyline
 62
7
  6
CONTINUOUS
 90
5
 70
0
 10
-7.2419286989
 20
20.8366629075
 10
-7.2410711055
 20
20.8368010859
 10
-7.2391819589
 20
20.8380636212
 10
-7.2362200437
 20
20.8403931379
 10
-7.2269247239
 20
20.8478512967
  0
LINE
  5
63C
100
AcDbEntity
  8
DRAFT
100
AcDbLine
 62
7
  6
CONTINUOUS
 10
-6.8667670239
 20
21.1647852141
 11
-3.75
 21
21.1647852141
  0
LINE
  5
63D
100
AcDbEntity
  8
DRAFT
100
AcDbLine
 62
7
  6
CONTINUOUS
 10
3.75
 20
21.1647852141
 11
6.8667670239
 21
21.1647852141
  0
LINE
  5
63E
100
AcDbEntity
  8
DRAFT
100
AcDbLine
 62
7
  6
CONTINUOUS
 10
-6.9339198284
 20
21.2
 11
6.9339198284
 21
21.2
  0
LINE
  5
63F
100
AcDbEntity
  8
DRAFT
100
AcDbLine
 62
7
  6
CONTINUOUS
 10
10.6503805997
 20
22.4
 11
5.55
 21
22.4
  0
LINE
  5
640
100
AcDbEntity
  8
0
100
AcDbLine
 62
7
  6
CONTINUOUS
 10
3.1
 20
22.4
 11
-3.1
 21
22.4
  0
LINE
  5
641
100
AcDbEntity
  8
DRAFT
100
AcDbLine
 62
7
  6
CONTINUOUS
 10
-5.55
 20
22.4
 11
-10.6503805997
 21
22.4
  0
LINE
  5
642
100
AcDbEntity
  8
DRAFT
100
AcDbLine
 62
7
  6
CONTINUOUS
 10
-3.0
 20
23.5
 11
-2.7812783412
 21
23.4563623377
  0
LWPOLYLINE
  5
643
100
AcDbEntity
  8
0
100
AcDbPolyline
 62
7
  6
CONTINUOUS
 90
7
 70
0
 10
8.9775305788
 20
19.2851552935
 10
9.0310392665
 20
19.2633140638
 10
9.0804132511
 20
19.2378247412
 10
9.1256525328
 20
19.2086873039
 10
9.1667571115
 20
19.1759017274
 10
9.2037269873
 20
19.1394679841
 10
9.23656216
 20
19.0993860434
  0
LINE
  5
644
100
AcDbEntity
  8
DRAFT
100
AcDbLine
 62
7
  6
CONTINUOUS
 10
3.9526845545
 20
23.4301797403
 11
-3.9526845545
 21
23.4301797403
  0
LINE
  5
645
100
AcDbEntity
  8
DRAFT
100
AcDbLine
 62
7
  6
CONTINUOUS
 10
-2.7812783412
 20
23.4563623377
 11
2.7812783412
 21
23.4563623377
  0
LINE
  5
646
100
AcDbEntity
  8
DRAFT
100
AcDbLine
 62
7
  6
CONTINUOUS
 10
3.9733373476
 20
23.5
 11
3.0
 21
23.5
  0
LINE
  5
647
100
AcDbEntity
  8
DRAFT
100
AcDbLine
 62
7
  6
CONTINUOUS
 10
-3.0
 20
23.5
 11
-3.9733373476
 21
23.5
  0
ARC
  5
648
100
AcDbEntity
  8
DRAFT
100
AcDbCircle
 62
7
  6
CONTINUOUS
 10
11.25
 20
-0.0
 40
28.0
100
AcDbArc
 50
122.9352304972
 51
124.1210936517
  0
ARC
  5
649
100
AcDbEntity
  8
DRAFT
100
AcDbCircle
 62
7
  6
CONTINUOUS
 10
11.25
 20
-0.0
 40
28.0
100
AcDbArc
 50
235.8789063483
 51
237.0647695028
  0
ARC
  5
64A
100
AcDbEntity
  8
DRAFT
100
AcDbCircle
 62
7
  6
CONTINUOUS
 10
-11.25
 20
-0.0
 40
28.0
100
AcDbArc
 50
55.8789063483
 51
57.0647695028
  0
ARC
  5
64B
100
AcDbEntity
  8
DRAFT
100
AcDbCircle
 62
7
  6
CONTINUOUS
 10
-11.25
 20
-0.0
 40
28.0
100
AcDbArc
 50
302.9352304972
 51
304.1210936517
  0
ARC
  5
64C
100
AcDbEntity
  8
DRAFT
100
AcDbCircle
 62
7
  6
CONTINUOUS
 10
11.25
 20
-0.0
 40
28.0
100
AcDbArc
 50
228.2819495688
 51
234.0372348486
  0
ARC
  5
64D
100
AcDbEntity
  8
DRAFT
100
AcDbCircle
 62
7
  6
CONTINUOUS
 10
11.25
 20
-0.0
 40
28.0
100
AcDbArc
 50
125.9627651514
 51
131.7180504312
  0
ARC
  5
64E
100
AcDbEntity
  8
DRAFT
100
AcDbCircle
 62
7
  6
CONTINUOUS
 10
-11.25
 20
-0.0
 40
28.0
100
AcDbArc
 50
48.2819495688
 51
54.0372348486
  0
ARC
  5
64F
100
AcDbEntity
  8
DRAFT
100
AcDbCircle
 62
7
  6
CONTINUOUS
 10
-11.25
 20
-0.0
 40
28.0
100
AcDbArc
 50
305.9627651514
 51
311.7180504312
  0
ARC
  5
650
100
AcDbEntity
  8
DRAFT
100
AcDbCircle
 62
7
  6
CONTINUOUS
 10
11.25
 20
-0.0
 40
27.9301797403
100
AcDbArc
 50
122.9775446409
 51
124.2022576811
  0
ARC
  5
651
100
AcDbEntity
  8
DRAFT
100
AcDbCircle
 62
7
  6
CONTINUOUS
 10
11.25
 20
-0.0
 40
27.9301797403
100
AcDbArc
 50
125.881601122
 51
130.6207502002
  0
ARC
  5
652
100
AcDbEntity
  8
DRAFT
100
AcDbCircle
 62
7
  6
CONTINUOUS
 10
-11.25
 20
0.0
 40
27.9301797403
100
AcDbArc
 50
55.7977423189
 51
57.0224553591
  0
ARC
  5
653
100
AcDbEntity
  8
DRAFT
100
AcDbCircle
 62
7
  6
CONTINUOUS
 10
-11.25
 20
0.0
 40
27.9301797403
100
AcDbArc
 50
49.3792497998
 51
54.118398878
  0
ARC
  5
654
100
AcDbEntity
  8
DRAFT
100
AcDbCircle
 62
7
  6
CONTINUOUS
 10
-11.25
 20
0.0
 40
27.9301797403
100
AcDbArc
 50
305.881601122
 51
310.6207502002
  0
ARC
  5
655
100
AcDbEntity
  8
DRAFT
100
AcDbCircle
 62
7
  6
CONTINUOUS
 10
-11.25
 20
0.0
 40
27.9301797403
100
AcDbArc
 50
302.9775446409
 51
304.2022576811
  0
ARC
  5
656
100
AcDbEntity
  8
DRAFT
100
AcDbCircle
 62
7
  6
CONTINUOUS
 10
11.25
 20
-0.0
 40
27.9301797403
100
AcDbArc
 50
235.7977423189
 51
237.0224553591
  0
ARC
  5
657
100
AcDbEntity
  8
DRAFT
100
AcDbCircle
 62
7
  6
CONTINUOUS
 10
11.25
 20
-0.0
 40
27.9301797403
100
AcDbArc
 50
229.3792497998
 51
234.118398878
  0
ARC
  5
658
100
AcDbEntity
  8
0
100
AcDbCircle
 62
7
  6
CONTINUOUS
 10
-2.757674
 20
18.829056
 40
0.5673701434
100
AcDbArc
 50
22.8429066477
 51
180.0
  0
ARC
  5
659
100
AcDbEntity
  8
DRAFT
100
AcDbCircle
 62
7
  6
CONTINUOUS
 10
-4.95
 20
23.1
 40
0.5
100
AcDbArc
 50
240.887577224
 51
9.1962815791
  0
ARC
  5
65A
100
AcDbEntity
  8
DRAFT
100
AcDbCircle
 62
7
  6
CONTINUOUS
 10
-4.95
 20
-23.1
 40
0.5
100
AcDbArc
 50
350.803718421
 51
119.112422776
  0
ARC
  5
65B
100
AcDbEntity
  8
DRAFT
100
AcDbCircle
 62
7
  6
CONTINUOUS
 10
4.95
 20
23.1
 40
0.5
100
AcDbArc
 50
170.803718421
 51
299.112422776
  0
ARC
  5
65C
100
AcDbEntity
  8
DRAFT
100
AcDbCircle
 62
7
  6
CONTINUOUS
 10
4.95
 20
-23.1
 40
0.5
100
AcDbArc
 50
60.887577224
 51
189.196281579
  0
ARC
  5
65D
100
AcDbEntity
  8
0
100
AcDbCircle
 62
7
  6
CONTINUOUS
 10
-2.757674
 20
18.777699
 40
0.225104
100
AcDbArc
 50
0.0
 51
180.0
  0
ELLIPSE
  5
65E
100
AcDbEntity
  8
0
100
AcDbEllipse
 62
7
  6
CONTINUOUS
 10
-6.5499885765
 20
-9.5999885765
 30
0.0
 11
0.2121481893
 21
0.2121481893
 31
0.0
 40
0.9999238505
 41
-3.9269527408
 42
-2.3562325664
  0
ELLIPSE
  5
65F
100
AcDbEntity
  8
0
100
AcDbEllipse
 62
7
  6
CONTINUOUS
 10
6.5499885765
 20
-9.5999885765
 30
0.0
 11
0.2121481893
 21
-0.2121481893
 31
0.0
 40
0.9999238505
 41
-0.7853600872
 42
0.7853600872
  0
ELLIPSE
  5
660
100
AcDbEntity
  8
0
100
AcDbEllipse
 62
7
  6
CONTINUOUS
 10
6.5499885765
 20
5.8999885765
 30
0.0
 11
0.2121481893
 21
0.2121481893
 31
0.0
 40
0.9999238505
 41
-0.7853600872
 42
0.7853600872
  0
ELLIPSE
  5
661
100
AcDbEntity
  8
0
100
AcDbEllipse
 62
7
  6
CONTINUOUS
 10
-6.5499885765
 20
5.8999885765
 30
0.0
 11
0.2121481893
 21
-0.2121481893
 31
0.0
 40
0.9999238505
 41
2.3562325664
 42
3.9269527408
  0
ELLIPSE
  5
662
100
AcDbEntity
  8
0
100
AcDbEllipse
 62
7
  6
CONTINUOUS
 10
10.649923836
 20
21.899313827
 30
0.0
 11
0.1582391023
 21
0.4751033573
 31
0.0
 40
0.9984778551
 41
-1.2488325878
 42
0.3210503505
  0
ELLIPSE
  5
663
100
AcDbEntity
  8
0
100
AcDbEllipse
 62
7
  6
CONTINUOUS
 10
10.649923836
 20
-21.899313827
 30
0.0
 11
-0.1582391023
 21
0.4751033573
 31
0.0
 40
0.9984778551
 41
2.8205423031
 42
4.3904252414
  0
ELLIPSE
  5
664
100
AcDbEntity
  8
0
100
AcDbEllipse
 62
7
  6
CONTINUOUS
 10
-10.649923836
 20
21.899313827
 30
0.0
 11
-0.1582391023
 21
0.4751033573
 31
0.0
 40
0.9984778551
 41
-0.3210503505
 42
1.2488325878
  0
ELLIPSE
  5
665
100
AcDbEntity
  8
0
100
AcDbEllipse
 62
7
  6
CONTINUOUS
 10
-10.649923836
 20
-21.899313827
 30
0.0
 11
0.1582391023
 21
0.4751033573
 31
0.0
 40
0.9984778551
 41
1.8927600658
 42
3.4626430041
  0
ELLIPSE
  5
666
100
AcDbEntity
  8
RACCORDO
100
AcDbEllipse
 62
7
  6
CONTINUOUS
 10
1.1786741678
 20
0.0
 30
0.0
 11
0.0
 21
498.5
 31
0.0
 40
0.0174550649
 41
-4.6813240473
 42
-4.6712483009
  0
ELLIPSE
  5
667
100
AcDbEntity
  8
RACCORDO
100
AcDbEllipse
 62
7
  6
CONTINUOUS
 10
-8.9303794106
 20
6.6872686779
 30
0.0
 11
0.3
 21
0.0
 31
0.0
 40
0.0087268678
 41
1.5707963268
 42
2.7925268032
  0
ELLIPSE
  5
668
100
AcDbEntity
  8
RACCORDO
100
AcDbEllipse
 62
7
  6
CONTINUOUS
 10
8.9303794106
 20
6.6872686779
 30
0.0
 11
0.3
 21
-0.0
 31
0.0
 40
0.0087268678
 41
0.3490658504
 42
1.5707963268
  0
ELLIPSE
  5
669
100
AcDbEntity
  8
RACCORDO
100
AcDbEllipse
 62
7
  6
CONTINUOUS
 10
11.25
 20
0.4799914261
 30
0.0
 11
0.0
 21
27.4986903856
 31
0.0
 40
0.9998476487
 41
0.7193864675
 42
0.7279158383
  0
ELLIPSE
  5
66A
100
AcDbEntity
  8
RACCORDO
100
AcDbEllipse
 62
7
  6
CONTINUOUS
 10
6.9100942226
 20
-14.6100942226
 30
0.0
 11
0.3535803156
 21
-0.3535803156
 31
0.0
 40
0.9999238505
 41
-0.7853600872
 42
0.7853600872
  0
ELLIPSE
  5
66B
100
AcDbEntity
  8
RACCORDO
100
AcDbEllipse
 62
7
  6
CONTINUOUS
 10
-6.9100942226
 20
-14.6100942226
 30
0.0
 11
0.3535803156
 21
0.3535803156
 31
0.0
 40
0.9999238505
 41
2.3562325664
 42
3.9269527408
  0
ELLIPSE
  5
66C
100
AcDbEntity
  8
RACCORDO
100
AcDbEllipse
 62
7
  6
CONTINUOUS
 10
-11.25
 20
0.4799914261
 30
0.0
 11
0.0
 21
27.4986903856
 31
0.0
 40
0.9998476487
 41
-0.7279158383
 42
-0.7193864675
  0
ELLIPSE
  5
66D
100
AcDbEntity
  8
RACCORDO
100
AcDbEllipse
 62
7
  6
CONTINUOUS
 10
6.7139945176
 20
-15.1118586353
 30
0.0
 11
0.2
 21
0.0
 31
0.0
 40
0.0087268678
 41
1.5707963268
 42
3.1241393611
  0
ELLIPSE
  5
66E
100
AcDbEntity
  8
RACCORDO
100
AcDbEllipse
 62
7
  6
CONTINUOUS
 10
-6.7139945176
 20
-15.1118586353
 30
0.0
 11
0.2
 21
-0.0
 31
0.0
 40
0.0087268678
 41
0.0174532925
 42
1.5707963268
  0
ELLIPSE
  5
66F
100
AcDbEntity
  8
RACCORDO
100
AcDbEllipse
 62
7
  6
CONTINUOUS
 10
-8.9303794106
 20
-12.8872686779
 30
0.0
 11
0.3
 21
-0.0
 31
0.0
 40
0.0087268678
 41
-2.7925268032
 42
-1.5707963268
  0
ELLIPSE
  5
670
100
AcDbEntity
  8
RACCORDO
100
AcDbEllipse
 62
7
  6
CONTINUOUS
 10
8.9303794106
 20
-12.8872686779
 30
0.0
 11
0.3
 21
-0.0
 31
0.0
 40
0.0087268678
 41
-1.5707963268
 42
-0.3490658504
  0
ELLIPSE
  5
671
100
AcDbEntity
  8
RACCORDO
100
AcDbEllipse
 62
7
  6
CONTINUOUS
 10
-3.1505290931
 20
0.0
 30
0.0
 11
0.0
 21
498.5
 31
0.0
 40
0.0087268678
 41
1.5525402138
 42
1.5555492626
  0
ELLIPSE
  5
672
100
AcDbEntity
  8
DRAFT
100
AcDbEllipse
 62
7
  6
CONTINUOUS
 10
-13.9305286514
 20
0.0
 30
0.0
 11
0.0
 21
498.5
 31
0.0
 40
0.0087268678
 41
-1.5555492626
 42
-1.5296556473
  0
ELLIPSE
  5
673
100
AcDbEntity
  8
RACCORDO
100
AcDbEllipse
 62
7
  6
CONTINUOUS
 10
-10.8635638309
 20
0.0
 30
0.0
 11
0.0
 21
498.5
 31
0.0
 40
0.0087268678
 41
-1.5397304474
 42
-1.5297941844
  0
ELLIPSE
  5
674
100
AcDbEntity
  8
RACCORDO
100
AcDbEllipse
 62
7
  6
CONTINUOUS
 10
10.8635638309
 20
0.0
 30
0.0
 11
0.0
 21
498.5
 31
0.0
 40
0.0087268678
 41
1.5297941844
 42
1.5397304474
  0
ELLIPSE
  5
675
100
AcDbEntity
  8
DRAFT
100
AcDbEllipse
 62
7
  6
CONTINUOUS
 10
13.9305286514
 20
0.0
 30
0.0
 11
0.0
 21
498.5
 31
0.0
 40
0.0087268678
 41
1.5296556473
 42
1.5555492626
  0
ELLIPSE
  5
676
100
AcDbEntity
  8
RACCORDO
100
AcDbEllipse
 62
7
  6
CONTINUOUS
 10
3.1505290931
 20
0.0
 30
0.0
 11
0.0
 21
498.5
 31
0.0
 40
0.0087268678
 41
-1.5555492626
 42
-1.5525402138
  0
ELLIPSE
  5
677
100
AcDbEntity
  8
RACCORDO
100
AcDbEllipse
 62
7
  6
CONTINUOUS
 10
1.1505290931
 20
0.0
 30
0.0
 11
0.0
 21
498.5
 31
0.0
 40
0.0087268678
 41
-1.5515372307
 42
-1.5455067425
  0
ELLIPSE
  5
678
100
AcDbEntity
  8
RACCORDO
100
AcDbEllipse
 62
7
  6
CONTINUOUS
 10
8.8494709069
 20
0.0
 30
0.0
 11
0.0
 21
498.5
 31
0.0
 40
0.0087268678
 41
1.5455067425
 42
1.5515372307
  0
ELLIPSE
  5
679
100
AcDbEntity
  8
RACCORDO
100
AcDbEllipse
 62
7
  6
CONTINUOUS
 10
-8.8494709069
 20
0.0
 30
0.0
 11
0.0
 21
498.5
 31
0.0
 40
0.0087268678
 41
-1.5515372307
 42
-1.5455067425
  0
ELLIPSE
  5
67A
100
AcDbEntity
  8
RACCORDO
100
AcDbEllipse
 62
7
  6
CONTINUOUS
 10
-1.1505290931
 20
0.0
 30
0.0
 11
0.0
 21
498.5
 31
0.0
 40
0.0087268678
 41
1.5455067425
 42
1.5515372307
  0
ELLIPSE
  5
67B
100
AcDbEntity
  8
RACCORDO
100
AcDbEllipse
 62
7
  6
CONTINUOUS
 10
-3.1505290931
 20
-0.0
 30
0.0
 11
0.0
 21
498.5
 31
0.0
 40
0.0087268678
 41
-4.6847039884
 42
-4.6828982463
  0
ELLIPSE
  5
67C
100
AcDbEntity
  8
RACCORDO
100
AcDbEllipse
 62
7
  6
CONTINUOUS
 10
3.1505290931
 20
0.0
 30
0.0
 11
0.0
 21
498.5
 31
0.0
 40
0.0087268678
 41
-1.6002870609
 42
-1.5984813188
  0
ELLIPSE
  5
67D
100
AcDbEntity
  8
DRAFT
100
AcDbEllipse
 62
7
  6
CONTINUOUS
 10
13.9305286514
 20
0.0
 30
0.0
 11
0.0
 21
498.5
 31
0.0
 40
0.0087268678
 41
-4.6847039884
 42
-4.6712483009
  0
ELLIPSE
  5
67E
100
AcDbEntity
  8
RACCORDO
100
AcDbEllipse
 62
7
  6
CONTINUOUS
 10
10.8635638309
 20
0.0
 30
0.0
 11
0.0
 21
498.5
 31
0.0
 40
0.0087268678
 41
-4.6813231009
 42
-4.671386838
  0
ELLIPSE
  5
67F
100
AcDbEntity
  8
RACCORDO
100
AcDbEllipse
 62
7
  6
CONTINUOUS
 10
-10.8635638309
 20
0.0
 30
0.0
 11
0.0
 21
498.5
 31
0.0
 40
0.0087268678
 41
-1.6117984692
 42
-1.6018622062
  0
ELLIPSE
  5
680
100
AcDbEntity
  8
DRAFT
100
AcDbEllipse
 62
7
  6
CONTINUOUS
 10
-13.9305286514
 20
0.0
 30
0.0
 11
0.0
 21
498.5
 31
0.0
 40
0.0087268678
 41
-1.6119370063
 42
-1.5984813188
  0
ELLIPSE
  5
681
100
AcDbEntity
  8
RACCORDO
100
AcDbEllipse
 62
7
  6
CONTINUOUS
 10
-3.9494709069
 20
0.0
 30
0.0
 11
0.0
 21
498.5
 31
0.0
 40
0.0087268678
 41
-1.5397304474
 42
-1.5297941844
  0
ELLIPSE
  5
682
100
AcDbEntity
  8
RACCORDO
100
AcDbEllipse
 62
7
  6
CONTINUOUS
 10
-3.9494709069
 20
0.0
 30
0.0
 11
0.0
 21
498.5
 31
0.0
 40
0.0087268678
 41
-1.6117984692
 42
-1.6018622062
  0
ELLIPSE
  5
683
100
AcDbEntity
  8
RACCORDO
100
AcDbEllipse
 62
7
  6
CONTINUOUS
 10
3.9494709069
 20
0.0
 30
0.0
 11
0.0
 21
498.5
 31
0.0
 40
0.0087268678
 41
1.5297941844
 42
1.5397304474
  0
ELLIPSE
  5
684
100
AcDbEntity
  8
RACCORDO
100
AcDbEllipse
 62
7
  6
CONTINUOUS
 10
3.9494709069
 20
0.0
 30
0.0
 11
0.0
 21
498.5
 31
0.0
 40
0.0087268678
 41
-4.6813231009
 42
-4.671386838
  0
ELLIPSE
  5
685
100
AcDbEntity
  8
RACCORDO
100
AcDbEllipse
 62
7
  6
CONTINUOUS
 10
-11.25
 20
-0.4799914261
 30
0.0
 11
0.0
 21
27.4986903856
 31
0.0
 40
0.9998476487
 41
-2.4222061861
 42
-2.4136768153
  0
ELLIPSE
  5
686
100
AcDbEntity
  8
RACCORDO
100
AcDbEllipse
 62
7
  6
CONTINUOUS
 10
11.25
 20
-0.4799914261
 30
0.0
 11
0.0
 21
27.4986903856
 31
0.0
 40
0.9998476487
 41
-3.8695084919
 42
-3.8609791211
  0
ELLIPSE
  5
687
100
AcDbEntity
  8
RACCORDO
100
AcDbEllipse
 62
7
  6
CONTINUOUS
 10
-1.1786741678
 20
0.0
 30
0.0
 11
0.0
 21
498.5
 31
0.0
 40
0.0174550649
 41
-1.5397313937
 42
-1.5296556473
  0
ELLIPSE
  5
688
100
AcDbEntity
  8
RACCORDO
100
AcDbEllipse
 62
7
  6
CONTINUOUS
 10
-1.1786741678
 20
0.0
 30
0.0
 11
0.0
 21
498.5
 31
0.0
 40
0.0174550649
 41
-1.6119370063
 42
-1.6018612598
  0
ELLIPSE
  5
689
100
AcDbEntity
  8
RACCORDO
100
AcDbEllipse
 62
7
  6
CONTINUOUS
 10
6.7139945176
 20
9.5118586353
 30
0.0
 11
0.2
 21
-0.0
 31
0.0
 40
0.0087268678
 41
-3.1241393611
 42
-1.5707963268
  0
ELLIPSE
  5
68A
100
AcDbEntity
  8
RACCORDO
100
AcDbEllipse
 62
7
  6
CONTINUOUS
 10
-6.7139945176
 20
9.5118586353
 30
0.0
 11
0.2
 21
-0.0
 31
0.0
 40
0.0087268678
 41
-1.5707963268
 42
-0.0174532925
  0
ELLIPSE
  5
68B
100
AcDbEntity
  8
RACCORDO
100
AcDbEllipse
 62
7
  6
CONTINUOUS
 10
1.1786741678
 20
0.0
 30
0.0
 11
0.0
 21
498.5
 31
0.0
 40
0.0174550649
 41
1.5296556473
 42
1.5397313937
  0
ELLIPSE
  5
68C
100
AcDbEntity
  8
RACCORDO
100
AcDbEllipse
 62
7
  6
CONTINUOUS
 10
9.7900415076
 20
-12.8794144969
 30
0.0
 11
0.2
 21
-0.0
 31
0.0
 40
0.0087268678
 41
1.5707963268
 42
2.7925268032
  0
ELLIPSE
  5
68D
100
AcDbEntity
  8
RACCORDO
100
AcDbEllipse
 62
7
  6
CONTINUOUS
 10
9.7900415076
 20
-8.5794144969
 30
0.0
 11
0.2
 21
-0.0
 31
0.0
 40
0.0087268678
 41
1.5707963268
 42
2.7925268032
  0
ELLIPSE
  5
68E
100
AcDbEntity
  8
RACCORDO
100
AcDbEllipse
 62
7
  6
CONTINUOUS
 10
9.7900415076
 20
-9.4205855031
 30
0.0
 11
0.2
 21
-0.0
 31
0.0
 40
0.0087268678
 41
-2.7925268032
 42
-1.5707963268
  0
ELLIPSE
  5
68F
100
AcDbEntity
  8
RACCORDO
100
AcDbEllipse
 62
7
  6
CONTINUOUS
 10
9.7900415076
 20
-0.8794144969
 30
0.0
 11
0.2
 21
-0.0
 31
0.0
 40
0.0087268678
 41
1.5707963268
 42
2.7925268032
  0
ELLIPSE
  5
690
100
AcDbEntity
  8
RACCORDO
100
AcDbEllipse
 62
7
  6
CONTINUOUS
 10
9.7900415076
 20
-1.7205855031
 30
0.0
 11
0.2
 21
-0.0
 31
0.0
 40
0.0087268678
 41
-2.7925268032
 42
-1.5707963268
  0
ELLIPSE
  5
691
100
AcDbEntity
  8
RACCORDO
100
AcDbEllipse
 62
7
  6
CONTINUOUS
 10
9.7900415076
 20
6.6794144969
 30
0.0
 11
0.2
 21
-0.0
 31
0.0
 40
0.0087268678
 41
-2.7925268032
 42
-1.5707963268
  0
ELLIPSE
  5
692
100
AcDbEntity
  8
RACCORDO
100
AcDbEllipse
 62
7
  6
CONTINUOUS
 10
-9.7900415076
 20
6.6794144969
 30
0.0
 11
0.2
 21
-0.0
 31
0.0
 40
0.0087268678
 41
-1.5707963268
 42
-0.3490658504
  0
ELLIPSE
  5
693
100
AcDbEntity
  8
RACCORDO
100
AcDbEllipse
 62
7
  6
CONTINUOUS
 10
-9.7900415076
 20
-1.7205855031
 30
0.0
 11
0.2
 21
0.0
 31
0.0
 40
0.0087268678
 41
-1.5707963268
 42
-0.3490658504
  0
ELLIPSE
  5
694
100
AcDbEntity
  8
RACCORDO
100
AcDbEllipse
 62
7
  6
CONTINUOUS
 10
-9.7900415076
 20
-0.8794144969
 30
0.0
 11
0.2
 21
0.0
 31
0.0
 40
0.0087268678
 41
0.3490658504
 42
1.5707963268
  0
ELLIPSE
  5
695
100
AcDbEntity
  8
RACCORDO
100
AcDbEllipse
 62
7
  6
CONTINUOUS
 10
-9.7900415076
 20
-9.4205855031
 30
0.0
 11
0.2
 21
-0.0
 31
0.0
 40
0.0087268678
 41
-1.5707963268
 42
-0.3490658504
  0
ELLIPSE
  5
696
100
AcDbEntity
  8
RACCORDO
100
AcDbEllipse
 62
7
  6
CONTINUOUS
 10
-9.7900415076
 20
-8.5794144969
 30
0.0
 11
0.2
 21
0.0
 31
0.0
 40
0.0087268678
 41
0.3490658504
 42
1.5707963268
  0
ELLIPSE
  5
697
100
AcDbEntity
  8
RACCORDO
100
AcDbEllipse
 62
7
  6
CONTINUOUS
 10
-9.7900415076
 20
-12.8794144969
 30
0.0
 11
0.2
 21
0.0
 31
0.0
 40
0.0087268678
 41
0.3490658504
 42
1.5707963268
  0
ELLIPSE
  5
698
100
AcDbEntity
  8
RACCORDO
100
AcDbEllipse
 62
7
  6
CONTINUOUS
 10
7.6500114235
 20
4.9000114235
 30
0.0
 11
0.2121481893
 21
0.2121481893
 31
0.0
 40
0.9999238505
 41
2.3562325664
 42
3.9269527408
  0
ELLIPSE
  5
699
100
AcDbEntity
  8
RACCORDO
100
AcDbEllipse
 62
7
  6
CONTINUOUS
 10
-7.6500114235
 20
4.9000114235
 30
0.0
 11
0.2121481893
 21
-0.2121481893
 31
0.0
 40
0.9999238505
 41
-0.7853600872
 42
0.7853600872
  0
ELLIPSE
  5
69A
100
AcDbEntity
  8
RACCORDO
100
AcDbEllipse
 62
7
  6
CONTINUOUS
 10
-10.25
 20
-13.2310387053
 30
0.0
 11
0.0
 21
0.5000190392
 31
0.0
 40
0.9999619231
 41
1.5707963268
 42
3.1415926536
  0
ELLIPSE
  5
69B
100
AcDbEntity
  8
RACCORDO
100
AcDbEllipse
 62
7
  6
CONTINUOUS
 10
-10.25
 20
7.0310387053
 30
0.0
 11
-0.0
 21
0.5000190392
 31
0.0
 40
0.9999619231
 41
0.0
 42
1.5707963268
  0
ELLIPSE
  5
69C
100
AcDbEntity
  8
RACCORDO
100
AcDbEllipse
 62
7
  6
CONTINUOUS
 10
10.25
 20
7.0310387053
 30
0.0
 11
0.0
 21
0.5000190392
 31
0.0
 40
0.9999619231
 41
-1.5707963268
 42
0.0
  0
ELLIPSE
  5
69D
100
AcDbEntity
  8
RACCORDO
100
AcDbEllipse
 62
7
  6
CONTINUOUS
 10
10.25
 20
-13.2310387053
 30
0.0
 11
0.0
 21
0.5000190392
 31
0.0
 40
0.9999619231
 41
-3.1415926536
 42
-1.5707963268
  0
ELLIPSE
  5
69E
100
AcDbEntity
  8
RACCORDO
100
AcDbEllipse
 62
7
  6
CONTINUOUS
 10
-8.4127313221
 20
4.9872801014
 30
0.0
 11
0.0
 21
0.3
 31
0.0
 40
0.0087268678
 41
-3.1328660073
 42
-1.5707963268
  0
ELLIPSE
  5
69F
100
AcDbEntity
  8
RACCORDO
100
AcDbEllipse
 62
7
  6
CONTINUOUS
 10
-8.9303794106
 20
-9.4127313221
 30
0.0
 11
0.3
 21
-0.0
 31
0.0
 40
0.0087268678
 41
1.5707963268
 42
2.7925268032
  0
ELLIPSE
  5
6A0
100
AcDbEntity
  8
RACCORDO
100
AcDbEllipse
 62
7
  6
CONTINUOUS
 10
-7.7372801014
 20
-9.4127313221
 30
0.0
 11
0.3
 21
-0.0
 31
0.0
 40
0.0087268678
 41
0.0087266463
 42
1.5707963268
  0
ELLIPSE
  5
6A1
100
AcDbEntity
  8
RACCORDO
100
AcDbEllipse
 62
7
  6
CONTINUOUS
 10
-7.7372801014
 20
-8.5872686779
 30
0.0
 11
0.3
 21
-0.0
 31
0.0
 40
0.0087268678
 41
-1.5707963268
 42
-0.0087266463
  0
ELLIPSE
  5
6A2
100
AcDbEntity
  8
RACCORDO
100
AcDbEllipse
 62
7
  6
CONTINUOUS
 10
-8.9303794106
 20
-8.5872686779
 30
0.0
 11
0.3
 21
0.0
 31
0.0
 40
0.0087268678
 41
-2.7925268032
 42
-1.5707963268
  0
ELLIPSE
  5
6A3
100
AcDbEntity
  8
RACCORDO
100
AcDbEllipse
 62
7
  6
CONTINUOUS
 10
8.4127313221
 20
4.9872801014
 30
0.0
 11
-0.0
 21
0.3
 31
0.0
 40
0.0087268678
 41
-4.7123889804
 42
-3.1503192998
  0
ELLIPSE
  5
6A4
100
AcDbEntity
  8
RACCORDO
100
AcDbEllipse
 62
7
  6
CONTINUOUS
 10
8.9303794106
 20
-8.5872686779
 30
0.0
 11
0.3
 21
0.0
 31
0.0
 40
0.0087268678
 41
-1.5707963268
 42
-0.3490658504
  0
ELLIPSE
  5
6A5
100
AcDbEntity
  8
RACCORDO
100
AcDbEllipse
 62
7
  6
CONTINUOUS
 10
7.7372801014
 20
-8.5872686779
 30
0.0
 11
0.3
 21
0.0
 31
0.0
 40
0.0087268678
 41
-3.1328660073
 42
-1.5707963268
  0
ELLIPSE
  5
6A6
100
AcDbEntity
  8
RACCORDO
100
AcDbEllipse
 62
7
  6
CONTINUOUS
 10
7.7372801014
 20
-9.4127313221
 30
0.0
 11
0.3
 21
0.0
 31
0.0
 40
0.0087268678
 41
1.5707963268
 42
3.1328660073
  0
ELLIPSE
  5
6A7
100
AcDbEntity
  8
RACCORDO
100
AcDbEllipse
 62
7
  6
CONTINUOUS
 10
8.9303794106
 20
-9.4127313221
 30
0.0
 11
0.3
 21
-0.0
 31
0.0
 40
0.0087268678
 41
0.3490658504
 42
1.5707963268
  0
ELLIPSE
  5
6A8
100
AcDbEntity
  8
RACCORDO
100
AcDbEllipse
 62
7
  6
CONTINUOUS
 10
-6.2999695344
 20
8.8000304656
 30
0.0
 11
0.1414644378
 21
0.1414644378
 31
0.0
 40
0.9996954599
 41
2.3563467834
 42
3.9268385237
  0
ELLIPSE
  5
6A9
100
AcDbEntity
  8
RACCORDO
100
AcDbEllipse
 62
7
  6
CONTINUOUS
 10
6.2999695344
 20
8.8000304656
 30
0.0
 11
-0.1414644378
 21
0.1414644378
 31
0.0
 40
0.9996954599
 41
2.3563467834
 42
3.9268385237
  0
ELLIPSE
  5
6AA
100
AcDbEntity
  8
RACCORDO
100
AcDbEllipse
 62
7
  6
CONTINUOUS
 10
6.2999695344
 20
-14.7000304656
 30
0.0
 11
-0.1414644378
 21
-0.1414644378
 31
0.0
 40
0.9996954599
 41
2.3563467834
 42
3.9268385237
  0
ELLIPSE
  5
6AB
100
AcDbEntity
  8
RACCORDO
100
AcDbEllipse
 62
7
  6
CONTINUOUS
 10
-6.2999695344
 20
-14.7000304656
 30
0.0
 11
0.1414644378
 21
-0.1414644378
 31
0.0
 40
0.9996954599
 41
2.3563467834
 42
3.9268385237
  0
ELLIPSE
  5
6AC
100
AcDbEntity
  8
RACCORDO
100
AcDbEllipse
 62
7
  6
CONTINUOUS
 10
-7.7372801014
 20
-0.8872686779
 30
0.0
 11
0.3
 21
-0.0
 31
0.0
 40
0.0087268678
 41
-1.5707963268
 42
-0.0087266463
  0
ELLIPSE
  5
6AD
100
AcDbEntity
  8
RACCORDO
100
AcDbEllipse
 62
7
  6
CONTINUOUS
 10
-8.9303794106
 20
-0.8872686779
 30
0.0
 11
0.3
 21
0.0
 31
0.0
 40
0.0087268678
 41
-2.7925268032
 42
-1.5707963268
  0
ELLIPSE
  5
6AE
100
AcDbEntity
  8
RACCORDO
100
AcDbEllipse
 62
7
  6
CONTINUOUS
 10
-8.9303794106
 20
-1.7127313221
 30
0.0
 11
0.3
 21
0.0
 31
0.0
 40
0.0087268678
 41
1.5707963268
 42
2.7925268032
  0
ELLIPSE
  5
6AF
100
AcDbEntity
  8
RACCORDO
100
AcDbEllipse
 62
7
  6
CONTINUOUS
 10
-7.7372801014
 20
-1.7127313221
 30
0.0
 11
0.3
 21
-0.0
 31
0.0
 40
0.0087268678
 41
0.0087266463
 42
1.5707963268
  0
ELLIPSE
  5
6B0
100
AcDbEntity
  8
RACCORDO
100
AcDbEllipse
 62
7
  6
CONTINUOUS
 10
8.9303794106
 20
-0.8872686779
 30
0.0
 11
0.3
 21
-0.0
 31
0.0
 40
0.0087268678
 41
-1.5707963268
 42
-0.3490658504
  0
ELLIPSE
  5
6B1
100
AcDbEntity
  8
RACCORDO
100
AcDbEllipse
 62
7
  6
CONTINUOUS
 10
7.7372801014
 20
-0.8872686779
 30
0.0
 11
0.3
 21
0.0
 31
0.0
 40
0.0087268678
 41
-3.1328660073
 42
-1.5707963268
  0
ELLIPSE
  5
6B2
100
AcDbEntity
  8
RACCORDO
100
AcDbEllipse
 62
7
  6
CONTINUOUS
 10
7.7372801014
 20
-1.7127313221
 30
0.0
 11
0.3
 21
0.0
 31
0.0
 40
0.0087268678
 41
1.5707963268
 42
3.1328660073
  0
ELLIPSE
  5
6B3
100
AcDbEntity
  8
RACCORDO
100
AcDbEllipse
 62
7
  6
CONTINUOUS
 10
8.9303794106
 20
-1.7127313221
 30
0.0
 11
0.3
 21
0.0
 31
0.0
 40
0.0087268678
 41
0.3490658504
 42
1.5707963268
  0
ELLIPSE
  5
6B4
100
AcDbEntity
  8
RACCORDO
100
AcDbEllipse
 62
7
  6
CONTINUOUS
 10
-6.8558627241
 20
20.5728199289
 30
0.0
 11
0.200007485
 21
-0.0000148403
 31
0.0
 40
0.0122341997
 41
0.0122354048
 42
0.1561732272
  0
ELLIPSE
  5
6B5
100
AcDbEntity
  8
RACCORDO
100
AcDbEllipse
 62
7
  6
CONTINUOUS
 10
6.8558627241
 20
-20.5728199289
 30
0.0
 11
0.200007485
 21
-0.0000148403
 31
0.0
 40
0.0122341997
 41
-3.1293572488
 42
-2.9854194263
  0
ELLIPSE
  5
6B6
100
AcDbEntity
  8
RACCORDO
100
AcDbEllipse
 62
7
  6
CONTINUOUS
 10
-6.9100942226
 20
9.0100942226
 30
0.0
 11
-0.3535803156
 21
0.3535803156
 31
0.0
 40
0.9999238505
 41
-0.7853600872
 42
0.7853600872
  0
ELLIPSE
  5
6B7
100
AcDbEntity
  8
RACCORDO
100
AcDbEllipse
 62
7
  6
CONTINUOUS
 10
6.9100942226
 20
9.0100942226
 30
0.0
 11
-0.3535803156
 21
-0.3535803156
 31
0.0
 40
0.9999238505
 41
2.3562325664
 42
3.9269527408
  0
ENDSEC
  0
SECTION
  2
OBJECTS
  0
DICTIONARY
  5
C
100
AcDbDictionary
280
0
281
1
  3
ACAD_GROUP
350
D
  3
ACAD_MLINESTYLE
350
17
  3
ACAD_LAYOUT
350
1A
  3
ACAD_PLOTSETTINGS
350
19
  3
ACAD_PLOTSTYLENAME
350
E
  0
DICTIONARY
  5
D
102
{ACAD_REACTORS
330
C
102
}
100
AcDbDictionary
280
0
281
1
  0
ACDBDICTIONARYWDFLT
  5
E
102
{ACAD_REACTORS
330
C
102
}
100
AcDbDictionary
281
1
  3
Normal
350
F
100
AcDbDictionaryWithDefault
340
F
  0
DICTIONARY
  5
17
102
{ACAD_REACTORS
330
C
102
}
100
AcDbDictionary
280
0
281
1
  3
Standard
350
18
  0
DICTIONARY
  5
19
102
{ACAD_REACTORS
330
C
102
}
100
AcDbDictionary
281
1
  0
DICTIONARY
  5
1A
102
{ACAD_REACTORS
330
C
102
}
100
AcDbDictionary
281
1
  3
Model
350
6B8
  3
Layout1
350
6B9
  0
ACDBPLACEHOLDER
  5
F
102
{ACAD_REACTORS
330
E
102
}
  0
MLINESTYLE
  5
18
102
{ACAD_REACTORS
330
17
102
}
100
AcDbMlineStyle
  2
STANDARD
 70
0
  3

 62
256
 51
90.0
 52
90.0
 71
2
 49
0.5
 62
256
  6
BYLAYER
 49
-0.5
 62
256
  6
BYLAYER
  0
LAYOUT
  5
6B8
102
{ACAD_REACTORS
330
1A
102
}
100
AcDbPlotSettings
  1

  2
none_device
  4
ISO_A4_(297.00_x_210.00_MM)
  6

 40
0.0
 41
0.0
 42
0.0
 43
0.0
 44
297.0
 45
210.0
 46
0.0
 47
0.0
 48
0.0
 49
0.0
140
0.0
141
0.0
142
1.0
143
1.0
 70
1024
 72
1
 73
0
 74
0
  7

 75
0
147
1.0
148
0.0
149
0.0
100
AcDbLayout
  1
Model
 70
0
 71
0
 10
0.0
 20
0.0
 11
297.0
 21
210.0
 12
0.0
 22
0.0
 32
0.0
 14
0.0
 24
0.0
 34
0.0
 15
0.0
 25
0.0
 35
0.0
146
0.0
 13
0.0
 23
0.0
 33
0.0
 16
1.0
 26
0.0
 36
0.0
 17
0.0
 27
1.0
 37
0.0
 76
0
330
211
345
0
346
0
  0
LAYOUT
  5
6B9
102
{ACAD_REACTORS
330
1A
102
}
100
AcDbPlotSettings
  1

  2
none_device
  4
ISO_A4_(297.00_x_210.00_MM)
  6

 40
0.0
 41
0.0
 42
0.0
 43
0.0
 44
297.0
 45
210.0
 46
0.0
 47
0.0
 48
0.0
 49
0.0
140
0.0
141
0.0
142
1.0
143
1.0
 70
0
 72
1
 73
0
 74
0
  7

 75
0
147
1.0
148
0.0
149
0.0
100
AcDbLayout
  1
Layout1
 70
0
 71
1
 10
0.0
 20
0.0
 11
297.0
 21
210.0
 12
0.0
 22
0.0
 32
0.0
 14
0.0
 24
0.0
 34
0.0
 15
0.0
 25
0.0
 35
0.0
146
0.0
 13
0.0
 23
0.0
 33
0.0
 16
1.0
 26
0.0
 36
0.0
 17
0.0
 27
1.0
 37
0.0
 76
0
330
212
345
0
346
0
  0
ENDSEC
  0
EOF
