  0
SECTION
  2
HEADER
  9
$ACADVER
  1
AC1024
  9
$DWGCODEPAGE
  3
ANSI_1252
  9
$EXTMAX
 10
297.0
 20
210.0
 30
0.0
  9
$EXTMIN
 10
0.0
 20
0.0
 30
0.0
  9
$LIMMIN
 10
0.0
 20
0.0
  9
$LIMMAX
 10
297.0
 20
210.0
  9
$VIEWCTR
 10
148.5
 20
105.0
  9
$VIEWSIZE
 40
210.0
  9
$CLAYER
  8
0
  9
$LTSCALE
 40
16.335
  9
$CELTYPE
  6
BYLAYER
  9
$DIMSCALE
 40
1.0
  9
$DIMASZ
 40
3.0
  9
$DIMEXO
 40
0.5
  9
$DIMDLI
 40
11.286
  9
$DIMEXE
 40
1.5
  9
$DIMCEN
 40
2.673
  9
$DIMLFAC
 40
1.0
  9
$DIMBLK
  1
_FILLED
  9
$DIMALT
 70
0
  9
$DIMALTF
 40
0.0393700787
  9
$DIMTXT
 40
3.0
  9
$DIMTOL
 70
1
  9
$DIMLIM
 70
0
  9
$DIMTFAC
 40
1.0
  9
$DIMTP
 40
0.01
  9
$DIMTM
 40
0.01
  9
$DIMGAP
 40
0.625
  9
$DIMDSEP
 70
44
  9
$AUNITS
 70
0
  9
$PDMODE
 70
3
  9
$PDSIZE
 40
3.0
  9
$HANDSEED
  5
66E
  9
$TILEMODE
 70
1
  9
$MEASUREMENT
 70
1
  9
$INSUNITS
 70
4
  0
ENDSEC
  0
SECTION
  2
CLASSES
  0
CLASS
  1
ACDBDICTIONARYWDFLT
  2
AcDbDictionaryWithDefault
  3
AutoCAD 2000
 90
0
 91
1
280
0
281
0
  0
CLASS
  1
ACDBPLACEHOLDER
  2
AcDbPlaceHolder
  3
AutoCAD 2000
 90
0
 91
1
280
0
281
0
  0
CLASS
  1
LAYOUT
  2
AcDbLayout
  3
AutoCAD 2000
 90
0
 91
0
280
0
281
0
  0
ENDSEC
  0
SECTION
  2
TABLES
  0
TABLE
  2
VPORT
  5
8
100
AcDbSymbolTable
 70
2
  0
VPORT
  5
1F4
100
AcDbSymbolTableRecord
100
AcDbViewportTableRecord
  2
*ACTIVE
 70
0
 10
0.0
 20
0.0
 11
1.0
 21
1.0
 12
148.5
 22
105.0
 13
0.0
 23
0.0
 14
1.0
 24
1.0
 15
0.0
 25
0.0
 16
0.0
 26
0.0
 36
1.0
 17
0.0
 27
0.0
 37
0.0
 40
210.0
 41
1.4142857143
 42
50.0
 43
0.0
 44
0.0
 50
0.0
 51
0.0
 71
0
 72
100
 73
1
 74
1
 75
0
 76
0
 77
0
 78
0
  0
ENDTAB
  0
TABLE
  2
LTYPE
  5
5
100
AcDbSymbolTable
 70
6
  0
LTYPE
  5
14
100
AcDbSymbolTableRecord
100
AcDbLinetypeTableRecord
  2
BYBLOCK
 70
0
  3

 72
65
 73
0
 40
0.0
  0
LTYPE
  5
15
100
AcDbSymbolTableRecord
100
AcDbLinetypeTableRecord
  2
BYLAYER
 70
0
  3

 72
65
 73
0
 40
0.0
  0
LTYPE
  5
16
100
AcDbSymbolTableRecord
100
AcDbLinetypeTableRecord
  2
CONTINUOUS
 70
64
  3
Solid line
 72
65
 73
0
 40
0.0
  0
LTYPE
  5
1F5
100
AcDbSymbolTableRecord
100
AcDbLinetypeTableRecord
  2
CENTER
 70
64
  3
____ _ ____ _ ____ _ ____ _ ____ _ ____ _ ____
 72
65
 73
4
 40
0.6
 49
0.375
 74
0
 49
-0.075
 74
0
 49
0.075
 74
0
 49
-0.075
 74
0
  0
LTYPE
  5
1F6
100
AcDbSymbolTableRecord
100
AcDbLinetypeTableRecord
  2
HIDDEN
 70
64
  3
- - - - - - - - - - - - - - - - - - - -
 72
65
 73
2
 40
0.2
 49
0.1
 74
0
 49
-0.1
 74
0
  0
LTYPE
  5
1F7
100
AcDbSymbolTableRecord
100
AcDbLinetypeTableRecord
  2
PHANTOM
 70
64
  3
_____ _ _ _____ _ _ _____ _ _ _____
 72
65
 73
6
 40
0.8
 49
0.45
 74
0
 49
-0.05
 74
0
 49
0.1
 74
0
 49
-0.05
 74
0
 49
0.1
 74
0
 49
-0.05
 74
0
  0
LTYPE
  5
1F8
100
AcDbSymbolTableRecord
100
AcDbLinetypeTableRecord
  2
DOT
 70
64
  3
. . . . . . . . . . . . . . . . . . . .
 72
65
 73
2
 40
0.2
 49
0.1
 74
0
 49
-0.1
 74
0
  0
LTYPE
  5
1F9
100
AcDbSymbolTableRecord
100
AcDbLinetypeTableRecord
  2
DASHED
 70
64
  3
- - - - - - - - - - - - - - - - - - - -
 72
65
 73
2
 40
0.2
 49
0.1
 74
0
 49
-0.1
 74
0
  0
ENDTAB
  0
TABLE
  2
LAYER
  5
2
100
AcDbSymbolTable
 70
36
  0
LAYER
  5
10
100
AcDbSymbolTableRecord
100
AcDbLayerTableRecord
  2
0
 70
0
 62
7
  6
CONTINUOUS
370
-3
390
F
  0
LAYER
  5
1FA
100
AcDbSymbolTableRecord
100
AcDbLayerTableRecord
  2
DEFAULT_1
 70
0
 62
7
  6
CENTER
370
-3
390
F
  0
LAYER
  5
1FB
100
AcDbSymbolTableRecord
100
AcDbLayerTableRecord
  2
DEFAULT_2
 70
0
 62
7
  6
HIDDEN
370
-3
390
F
  0
LAYER
  5
1FC
100
AcDbSymbolTableRecord
100
AcDbLayerTableRecord
  2
DEFAULT_3
 70
0
 62
7
  6
PHANTOM
370
-3
390
F
  0
LAYER
  5
1FD
100
AcDbSymbolTableRecord
100
AcDbLayerTableRecord
  2
ASSI
 70
0
 62
7
  6
CONTINUOUS
370
-3
390
F
  0
LAYER
  5
1FE
100
AcDbSymbolTableRecord
100
AcDbLayerTableRecord
  2
COORDINATE
 70
0
 62
7
  6
CONTINUOUS
370
-3
390
F
  0
LAYER
  5
1FF
100
AcDbSymbolTableRecord
100
AcDbLayerTableRecord
  2
COORD_ORIGINE
 70
0
 62
7
  6
CONTINUOUS
370
-3
390
F
  0
LAYER
  5
200
100
AcDbSymbolTableRecord
100
AcDbLayerTableRecord
  2
COSMETICI
 70
0
 62
7
  6
CONTINUOUS
370
-3
390
F
  0
LAYER
  5
201
100
AcDbSymbolTableRecord
100
AcDbLayerTableRecord
  2
CURVE
 70
0
 62
7
  6
CONTINUOUS
370
-3
390
F
  0
LAYER
  5
202
100
AcDbSymbolTableRecord
100
AcDbLayerTableRecord
  2
DRAFT
 70
0
 62
7
  6
CONTINUOUS
370
-3
390
F
  0
LAYER
  5
203
100
AcDbSymbolTableRecord
100
AcDbLayerTableRecord
  2
IMPORT_FEATURES
 70
0
 62
7
  6
CONTINUOUS
370
-3
390
F
  0
LAYER
  5
204
100
AcDbSymbolTableRecord
100
AcDbLayerTableRecord
  2
INTF_1
 70
0
 62
7
  6
CONTINUOUS
370
-3
390
F
  0
LAYER
  5
205
100
AcDbSymbolTableRecord
100
AcDbLayerTableRecord
  2
INTF_8
 70
0
 62
7
  6
CONTINUOUS
370
-3
390
F
  0
LAYER
  5
206
100
AcDbSymbolTableRecord
100
AcDbLayerTableRecord
  2
NOTE
 70
0
 62
7
  6
CONTINUOUS
370
-3
390
F
  0
LAYER
  5
207
100
AcDbSymbolTableRecord
100
AcDbLayerTableRecord
  2
PIANI
 70
0
 62
7
  6
CONTINUOUS
370
-3
390
F
  0
LAYER
  5
208
100
AcDbSymbolTableRecord
100
AcDbLayerTableRecord
  2
PIANI_ORIGINE
 70
0
 62
7
  6
CONTINUOUS
370
-3
390
F
  0
LAYER
  5
209
100
AcDbSymbolTableRecord
100
AcDbLayerTableRecord
  2
PUNTI
 70
0
 62
7
  6
CONTINUOUS
370
-3
390
F
  0
LAYER
  5
20A
100
AcDbSymbolTableRecord
100
AcDbLayerTableRecord
  2
RACCORDO
 70
0
 62
7
  6
CONTINUOUS
370
-3
390
F
  0
LAYER
  5
20B
100
AcDbSymbolTableRecord
100
AcDbLayerTableRecord
  2
SIMBOLI
 70
0
 62
7
  6
CONTINUOUS
370
-3
390
F
  0
LAYER
  5
20C
100
AcDbSymbolTableRecord
100
AcDbLayerTableRecord
  2
SMUSSO
 70
0
 62
7
  6
CONTINUOUS
370
-3
390
F
  0
LAYER
  5
20D
100
AcDbSymbolTableRecord
100
AcDbLayerTableRecord
  2
SNAPLINE
 70
0
 62
7
  6
CONTINUOUS
370
-3
390
F
  0
LAYER
  5
20E
100
AcDbSymbolTableRecord
100
AcDbLayerTableRecord
  2
SUPERFICI
 70
0
 62
7
  6
CONTINUOUS
370
-3
390
F
  0
LAYER
  5
20F
100
AcDbSymbolTableRecord
100
AcDbLayerTableRecord
  2
TRASH
 70
0
 62
7
  6
CONTINUOUS
370
-3
390
F
  0
LAYER
  5
210
100
AcDbSymbolTableRecord
100
AcDbLayerTableRecord
  2
XSEC_DATUMS
 70
0
 62
7
  6
CONTINUOUS
370
-3
390
F
  0
LAYER
  5
211
100
AcDbSymbolTableRecord
100
AcDbLayerTableRecord
  2
Z030100_COP
 70
0
 62
7
  6
CONTINUOUS
370
-3
390
F
  0
ENDTAB
  0
TABLE
  2
STYLE
  5
3
100
AcDbSymbolTable
 70
1
  0
STYLE
  5
11
100
AcDbSymbolTableRecord
100
AcDbTextStyleTableRecord
  2
STANDARD
 70
0
 40
0.0
 41
0.8
 50
0.0
 71
0
 42
0.2
  3
txt
  4

  0
STYLE
  5
212
100
AcDbSymbolTableRecord
100
AcDbTextStyleTableRecord
  2
TEXTSTYLE_1
 70
0
 40
0.0
 41
0.8
 50
0.0
 71
0
 42
0.2
  3
gdt
  4

  0
ENDTAB
  0
TABLE
  2
VIEW
  5
6
100
AcDbSymbolTable
 70
0
  0
ENDTAB
  0
TABLE
  2
UCS
  5
7
100
AcDbSymbolTable
 70
0
  0
ENDTAB
  0
TABLE
  2
APPID
  5
9
100
AcDbSymbolTable
 70
1
  0
APPID
  5
213
100
AcDbSymbolTableRecord
100
AcDbRegAppTableRecord
  2
ACAD
 70
0
  0
ENDTAB
  0
TABLE
  2
BLOCK_RECORD
  5
1
100
AcDbSymbolTable
 70
0
  0
BLOCK_RECORD
  5
214
100
AcDbSymbolTableRecord
100
AcDbBlockTableRecord
  2
*Model_Space
  0
BLOCK_RECORD
  5
215
100
AcDbSymbolTableRecord
100
AcDbBlockTableRecord
  2
*Paper_Space
  0
BLOCK_RECORD
  5
216
100
AcDbSymbolTableRecord
100
AcDbBlockTableRecord
  2
_FILLED
  0
ENDTAB
  0
TABLE
  2
DIMSTYLE
  5
A
100
AcDbSymbolTable
 70
1
100
AcDbDimStyleTable
 71
0
  0
DIMSTYLE
105
217
100
AcDbSymbolTableRecord
100
AcDbDimStyleTableRecord
  2
STANDARD
 70
0
  3

  4

 40
1.0
 41
3.0
 42
0.5
 43
0.38
 44
1.5
 45
0.0
 46
0.0
 47
0.01
 48
0.01
140
3.0
141
0.09
142
0.0
143
25.4
144
1.0
145
0.0
146
1.0
147
0.625
 71
1
 72
0
 73
0
 74
0
 75
0
 76
0
 77
1
 78
8
 79
2
170
0
171
1
172
0
173
0
174
0
175
0
176
0
177
0
178
0
270
2
179
2
271
2
272
2
273
2
274
2
275
0
280
0
281
0
282
0
283
1
284
8
285
0
286
0
287
3
288
0
340
11
278
44
341
216
342
216
343
216
344
216
  0
ENDTAB
  0
ENDSEC
  0
SECTION
  2
BLOCKS
  0
BLOCK
  5
20
100
AcDbEntity
  8
0
100
AcDbBlockBegin
  2
*Model_Space
 70
0
 10
0.0
 20
0.0
 30
0.0
  3
*Model_Space
  1

  0
ENDBLK
  5
21
100
AcDbEntity
  8
0
100
AcDbBlockEnd
  0
BLOCK
  5
1C
100
AcDbEntity
  8
0
100
AcDbBlockBegin
  2
*Paper_Space
 70
0
 10
0.0
 20
0.0
 30
0.0
  3
*Paper_Space
  1

  0
ENDBLK
  5
1D
100
AcDbEntity
  8
0
100
AcDbBlockEnd
  0
BLOCK
  5
218
100
AcDbEntity
  8
0
100
AcDbBlockBegin
  2
_FILLED
 70
64
 10
0.0
 20
0.0
  3
_FILLED
  1

  0
SOLID
  5
219
100
AcDbEntity
  8
0
  6
BYBLOCK
 62
0
100
AcDbTrace
 10
0.0
 20
0.0
 11
-1.0
 21
0.3166666667
 12
-1.0
 22
-0.3166666667
 13
-1.0
 23
-0.3166666667
  0
ENDBLK
  5
21A
100
AcDbEntity
  8
0
  6
BYBLOCK
 62
0
100
AcDbBlockEnd
  0
ENDSEC
  0
SECTION
  2
ENTITIES
  0
LINE
  5
21B
100
AcDbEntity
  8
DRAFT
100
AcDbLine
 62
7
  6
CONTINUOUS
 10
-2.5949998708
 20
-21.3499161626
 11
-2.376278212
 21
-21.3062785002
  0
LINE
  5
21C
100
AcDbEntity
  8
DRAFT
100
AcDbLine
 62
7
  6
CONTINUOUS
 10
-3.5683372184
 20
-21.3499161626
 11
-2.5949998708
 21
-21.3499161626
  0
LINE
  5
21D
100
AcDbEntity
  8
DRAFT
100
AcDbLine
 62
7
  6
CONTINUOUS
 10
3.4050001292
 20
-21.3499161626
 11
4.3783374769
 21
-21.3499161626
  0
LINE
  5
21E
100
AcDbEntity
  8
DRAFT
100
AcDbLine
 62
7
  6
CONTINUOUS
 10
-2.376278212
 20
-21.3062785002
 11
3.1862784704
 21
-21.3062785002
  0
LINE
  5
21F
100
AcDbEntity
  8
DRAFT
100
AcDbLine
 62
7
  6
CONTINUOUS
 10
-3.5476844252
 20
-21.2800959028
 11
4.3576846837
 21
-21.2800959028
  0
LINE
  5
220
100
AcDbEntity
  8
DRAFT
100
AcDbLine
 62
7
  6
CONTINUOUS
 10
-10.2453804705
 20
-20.2499161626
 11
-5.1449998708
 21
-20.2499161626
  0
LINE
  5
221
100
AcDbEntity
  8
0
100
AcDbLine
 62
7
  6
CONTINUOUS
 10
-2.6949998708
 20
-20.2499161626
 11
3.5050001292
 21
-20.2499161626
  0
LINE
  5
222
100
AcDbEntity
  8
DRAFT
100
AcDbLine
 62
7
  6
CONTINUOUS
 10
5.9550001292
 20
-20.2499161626
 11
11.055380729
 21
-20.2499161626
  0
LINE
  5
223
100
AcDbEntity
  8
DRAFT
100
AcDbLine
 62
7
  6
CONTINUOUS
 10
3.4050001292
 20
-21.3499161626
 11
3.1862784704
 21
-21.3062785002
  0
LINE
  5
224
100
AcDbEntity
  8
RACCORDO
100
AcDbLine
 62
7
  6
CONTINUOUS
 10
-6.8219245947
 20
22.9979351341
 11
-6.8155805688
 21
23.0032240558
  0
LWPOLYLINE
  5
225
100
AcDbEntity
  8
RACCORDO
100
AcDbPolyline
 62
7
  6
CONTINUOUS
 90
5
 70
0
 10
7.6469288281
 20
-18.68657907
 10
7.6460712347
 20
-18.6867172485
 10
7.6441820881
 20
-18.6879797838
 10
7.6412201729
 20
-18.6903093005
 10
7.6319248532
 20
-18.6977674592
  0
LWPOLYLINE
  5
226
100
AcDbEntity
  8
RACCORDO
100
AcDbPolyline
 62
250
  6
CONTINUOUS
 90
13
 70
0
 10
7.4344002717
 20
-18.1084948063
 10
7.4603236756
 20
-18.1070753646
 10
7.485821886
 20
-18.1032910754
 10
7.5104632668
 20
-18.0972024582
 10
7.5338345303
 20
-18.0889071462
 10
7.5555323589
 20
-18.0785435563
 10
7.5751742802
 20
-18.0662929851
 10
7.5924403656
 20
-18.0523530324
 10
7.6070237369
 20
-18.0369692531
 10
7.6186495464
 20
-18.0204519215
 10
7.6271425061
 20
-18.0031058173
 10
7.6324018443
 20
-17.9852125041
 10
7.6343698108
 20
-17.9670734501
  0
LINE
  5
227
100
AcDbEntity
  8
DRAFT
100
AcDbLine
 62
7
  6
CONTINUOUS
 10
-6.5289196991
 20
-19.0499161626
 11
7.3389199576
 21
-19.0499161626
  0
LINE
  5
228
100
AcDbEntity
  8
DRAFT
100
AcDbLine
 62
7
  6
CONTINUOUS
 10
7.2717671531
 20
-19.0147013766
 11
4.1550001292
 21
-19.0147013766
  0
LINE
  5
229
100
AcDbEntity
  8
DRAFT
100
AcDbLine
 62
7
  6
CONTINUOUS
 10
-3.3449998708
 20
-19.0147013766
 11
-6.4617668947
 21
-19.0147013766
  0
LINE
  5
22A
100
AcDbEntity
  8
DRAFT
100
AcDbLine
 62
7
  6
CONTINUOUS
 10
-9.2449998708
 20
-18.7499161626
 11
-6.9780350503
 21
-18.7499161626
  0
LINE
  5
22B
100
AcDbEntity
  8
DRAFT
100
AcDbLine
 62
7
  6
CONTINUOUS
 10
7.7880353087
 20
-18.7499161626
 11
10.0550001292
 21
-18.7499161626
  0
LINE
  5
22C
100
AcDbEntity
  8
RACCORDO
100
AcDbLine
 62
250
  6
CONTINUOUS
 10
-6.4506038306
 20
-18.5938088959
 11
7.2606040891
 21
-18.5938088959
  0
LWPOLYLINE
  5
22D
100
AcDbEntity
  8
RACCORDO
100
AcDbPolyline
 62
7
  6
CONTINUOUS
 90
4
 70
0
 10
-6.8309623934
 20
-18.6905077905
 10
-6.8340583481
 20
-18.6880684723
 10
-6.83603469
 20
-18.6867384721
 10
-6.8369285696
 20
-18.68657907
  0
LWPOLYLINE
  5
22E
100
AcDbEntity
  8
RACCORDO
100
AcDbPolyline
 62
7
  6
CONTINUOUS
 90
3
 70
0
 10
-6.8146901971
 20
-18.7038041458
 10
-6.8212673913
 20
-18.6983225159
 10
-6.8309623934
 20
-18.6905077905
  0
LINE
  5
22F
100
AcDbEntity
  8
RACCORDO
100
AcDbLine
 62
7
  6
CONTINUOUS
 10
-6.6508746737
 20
23.1475373968
 11
-6.6375071589
 21
23.1595703488
  0
LINE
  5
230
100
AcDbEntity
  8
RACCORDO
100
AcDbLine
 62
7
  6
CONTINUOUS
 10
-6.7044911228
 20
23.1000214961
 11
-6.6508746737
 21
23.1475373968
  0
LWPOLYLINE
  5
231
100
AcDbEntity
  8
RACCORDO
100
AcDbPolyline
 62
7
  6
CONTINUOUS
 90
3
 70
0
 10
-6.7898943534
 20
23.0251594157
 10
-6.7560164815
 20
23.0546681301
 10
-6.7044911228
 20
23.1000214961
  0
LINE
  5
232
100
AcDbEntity
  8
RACCORDO
100
AcDbLine
 62
7
  6
CONTINUOUS
 10
-6.8155805688
 20
23.0032240558
 11
-6.7898943534
 21
23.0251594157
  0
LWPOLYLINE
  5
233
100
AcDbEntity
  8
RACCORDO
100
AcDbPolyline
 62
7
  6
CONTINUOUS
 90
6
 70
0
 10
-6.3431954601
 20
20.6824159598
 10
-6.3522248498
 20
20.6768787567
 10
-6.37568727
 20
20.6653079309
 10
-6.4004592041
 20
20.6568986722
 10
-6.4261167977
 20
20.6517948652
 10
-6.4522210422
 20
20.6500838374
  0
LWPOLYLINE
  5
234
100
AcDbEntity
  8
RACCORDO
100
AcDbPolyline
 62
7
  6
CONTINUOUS
 90
3
 70
0
 10
-6.3382990676
 20
20.6654899465
 10
-6.3631743178
 20
20.6569912119
 10
-6.388985386
 20
20.6518208421
  0
LINE
  5
235
100
AcDbEntity
  8
RACCORDO
100
AcDbLine
 62
7
  6
CONTINUOUS
 10
7.1989856445
 20
-16.3516531672
 11
7.2252887527
 21
-16.3499161626
  0
LWPOLYLINE
  5
236
100
AcDbEntity
  8
RACCORDO
100
AcDbPolyline
 62
250
  6
CONTINUOUS
 90
13
 70
0
 10
-6.4548391025
 20
-18.1084948063
 10
-6.4288111238
 20
-18.1071784911
 10
-6.403213086
 20
-18.1034766082
 10
-6.3784818381
 20
-18.0974486214
 10
-6.3550354465
 20
-18.0891917291
 10
-6.333282072
 20
-18.078844704
 10
-6.3136087522
 20
-18.0665901839
 10
-6.2963381224
 20
-18.052627081
 10
-6.2817801775
 20
-18.0372036772
 10
-6.2702122908
 20
-18.0206353077
 10
-6.2618090773
 20
-18.0032311123
 10
-6.2566689207
 20
-17.9852755203
 10
-6.2548467179
 20
-17.9670734501
  0
LINE
  5
237
100
AcDbEntity
  8
RACCORDO
100
AcDbLine
 62
7
  6
CONTINUOUS
 10
-6.2532892271
 20
-18.4231020255
 11
7.0632894856
 21
-18.4231020255
  0
LINE
  5
238
100
AcDbEntity
  8
DRAFT
100
AcDbLine
 62
7
  6
CONTINUOUS
 10
-9.1788660082
 20
-18.3527600516
 11
-7.1103128494
 21
-18.3527600516
  0
LINE
  5
239
100
AcDbEntity
  8
DRAFT
100
AcDbLine
 62
7
  6
CONTINUOUS
 10
7.9203131079
 20
-18.3527600516
 11
9.9888662667
 21
-18.3527600516
  0
LINE
  5
23A
100
AcDbEntity
  8
DRAFT
100
AcDbLine
 62
7
  6
CONTINUOUS
 10
-6.1118764416
 20
-18.2837575539
 11
0.0077837761
 21
-18.2837575539
  0
LINE
  5
23B
100
AcDbEntity
  8
DRAFT
100
AcDbLine
 62
7
  6
CONTINUOUS
 10
0.8022164824
 20
-18.2837575539
 11
6.9218767
 21
-18.2837575539
  0
LINE
  5
23C
100
AcDbEntity
  8
RACCORDO
100
AcDbLine
 62
250
  6
CONTINUOUS
 10
-6.6244000133
 20
-18.1084948063
 11
-6.4548391025
 21
-18.1084948063
  0
LINE
  5
23D
100
AcDbEntity
  8
RACCORDO
100
AcDbLine
 62
250
  6
CONTINUOUS
 10
7.264839361
 20
-18.1084948063
 11
7.4344002717
 21
-18.1084948063
  0
LINE
  5
23E
100
AcDbEntity
  8
RACCORDO
100
AcDbLine
 62
250
  6
CONTINUOUS
 10
-6.8243695523
 20
-17.9670734501
 11
-6.2548467179
 21
-17.9670734501
  0
LINE
  5
23F
100
AcDbEntity
  8
RACCORDO
100
AcDbLine
 62
250
  6
CONTINUOUS
 10
7.0648469763
 20
-17.9670734501
 11
7.6343698108
 21
-17.9670734501
  0
LINE
  5
240
100
AcDbEntity
  8
RACCORDO
100
AcDbLine
 62
250
  6
CONTINUOUS
 10
0.1420271846
 20
-17.7335796566
 11
0.6679730739
 21
-17.7335796566
  0
LINE
  5
241
100
AcDbEntity
  8
RACCORDO
100
AcDbLine
 62
250
  6
CONTINUOUS
 10
0.3400791128
 20
-17.2506167434
 11
0.4699211457
 21
-17.2506167434
  0
LINE
  5
242
100
AcDbEntity
  8
RACCORDO
100
AcDbLine
 62
250
  6
CONTINUOUS
 10
-6.2548467179
 20
-16.8499161626
 11
-6.8243695523
 21
-16.8499161626
  0
LINE
  5
243
100
AcDbEntity
  8
RACCORDO
100
AcDbLine
 62
250
  6
CONTINUOUS
 10
7.0648469763
 20
-16.8499161626
 11
7.6343698108
 21
-16.8499161626
  0
LWPOLYLINE
  5
244
100
AcDbEntity
  8
RACCORDO
100
AcDbPolyline
 62
7
  6
CONTINUOUS
 90
6
 70
0
 10
-6.4522210422
 20
-16.3499161626
 10
-6.4261167977
 20
-16.3516271903
 10
-6.4004592041
 20
-16.3567309973
 10
-6.3756872699
 20
-16.3651402561
 10
-6.3522248497
 20
-16.3767110819
 10
-6.3401221786
 20
-16.3842873976
  0
LINE
  5
245
100
AcDbEntity
  8
RACCORDO
100
AcDbLine
 62
7
  6
CONTINUOUS
 10
-6.3886860082
 20
-16.3517013219
 11
-6.4148367584
 21
-16.3499161626
  0
LWPOLYLINE
  5
246
100
AcDbEntity
  8
RACCORDO
100
AcDbPolyline
 62
7
  6
CONTINUOUS
 90
3
 70
0
 10
-6.3382133004
 20
-16.3653580437
 10
-6.3629981543
 20
-16.3568785374
 10
-6.3886860082
 20
-16.3517013219
  0
LWPOLYLINE
  5
247
100
AcDbEntity
  8
RACCORDO
100
AcDbPolyline
 62
250
  6
CONTINUOUS
 90
9
 70
0
 10
-6.3401221786
 20
-16.3842873976
 10
-6.3304733922
 20
-16.3912454946
 10
-6.3108050707
 20
-16.4084948064
 10
-6.2935564157
 20
-16.4281638769
 10
-6.2790225565
 20
-16.4499161626
 10
-6.2674521713
 20
-16.4733794762
 10
-6.2590432328
 20
-16.4981523536
 10
-6.2539396201
 20
-16.5238109241
 10
-6.2522286575
 20
-16.5499161626
  0
LINE
  5
248
100
AcDbEntity
  8
RACCORDO
100
AcDbLine
 62
7
  6
CONTINUOUS
 10
-6.7883976796
 20
-18.7262855619
 11
-6.8146901971
 21
-18.7038041458
  0
LWPOLYLINE
  5
249
100
AcDbEntity
  8
RACCORDO
100
AcDbPolyline
 62
7
  6
CONTINUOUS
 90
3
 70
0
 10
-6.6634512565
 20
-18.8361851092
 10
-6.689947156
 20
-18.812812849
 10
-6.703222607
 20
-18.8009905049
  0
LWPOLYLINE
  5
24A
100
AcDbEntity
  8
RACCORDO
100
AcDbPolyline
 62
7
  6
CONTINUOUS
 90
3
 70
0
 10
-6.703222607
 20
-18.8009905049
 10
-6.7422232895
 20
-18.7665900369
 10
-6.7883976796
 20
-18.7262855619
  0
LWPOLYLINE
  5
24B
100
AcDbEntity
  8
RACCORDO
100
AcDbPolyline
 62
7
  6
CONTINUOUS
 90
3
 70
0
 10
-6.6375071589
 20
-18.8594026739
 10
-6.6503772424
 20
-18.8477867592
 10
-6.6634512565
 20
-18.8361851092
  0
LINE
  5
24C
100
AcDbEntity
  8
0
100
AcDbLine
 62
7
  6
CONTINUOUS
 10
-1.8298010373
 20
21.1993962328
 11
-1.0699628708
 21
21.5932568374
  0
LINE
  5
24D
100
AcDbEntity
  8
0
100
AcDbLine
 62
7
  6
CONTINUOUS
 10
-1.7853018708
 20
20.8056938374
 11
-1.0699578708
 21
21.1764938374
  0
LINE
  5
24E
100
AcDbEntity
  8
0
100
AcDbLine
 62
7
  6
CONTINUOUS
 10
-2.9200418708
 20
19.2720158374
 11
-1.0699538708
 21
19.8660188374
  0
LINE
  5
24F
100
AcDbEntity
  8
RACCORDO
100
AcDbLine
 62
7
  6
CONTINUOUS
 10
-6.7298647534
 20
-16.3516604725
 11
-6.7035072544
 21
-16.3499161626
  0
LINE
  5
250
100
AcDbEntity
  8
RACCORDO
100
AcDbLine
 62
250
  6
CONTINUOUS
 10
7.062228916
 20
-16.5499161626
 11
7.0250665853
 21
-16.5499161626
  0
LINE
  5
251
100
AcDbEntity
  8
RACCORDO
100
AcDbLine
 62
250
  6
CONTINUOUS
 10
-6.2522286575
 20
-16.5499161626
 11
-6.2150663269
 21
-16.5499161626
  0
LINE
  5
252
100
AcDbEntity
  8
RACCORDO
100
AcDbLine
 62
250
  6
CONTINUOUS
 10
-6.8296060718
 20
-16.5499161626
 11
-6.903936394
 21
-16.5499161626
  0
LINE
  5
253
100
AcDbEntity
  8
RACCORDO
100
AcDbLine
 62
250
  6
CONTINUOUS
 10
7.6396063303
 20
-16.5499161626
 11
7.7139366525
 21
-16.5499161626
  0
LINE
  5
254
100
AcDbEntity
  8
RACCORDO
100
AcDbLine
 62
7
  6
CONTINUOUS
 10
-6.4152884943
 20
-16.3499161626
 11
-6.7035072544
 21
-16.3499161626
  0
LINE
  5
255
100
AcDbEntity
  8
RACCORDO
100
AcDbLine
 62
7
  6
CONTINUOUS
 10
7.2252887527
 20
-16.3499161626
 11
7.5135075128
 21
-16.3499161626
  0
LWPOLYLINE
  5
256
100
AcDbEntity
  8
RACCORDO
100
AcDbPolyline
 62
7
  6
CONTINUOUS
 90
6
 70
0
 10
7.4396367912
 20
-16.3499161626
 10
7.4657380537
 20
-16.3516271903
 10
7.4913927164
 20
-16.3567309973
 10
7.5161618209
 20
-16.3651402561
 10
7.5396215608
 20
-16.3767110819
 10
7.5507307417
 20
-16.3836201198
  0
LINE
  5
257
100
AcDbEntity
  8
RACCORDO
100
AcDbLine
 62
7
  6
CONTINUOUS
 10
7.5404638024
 20
-16.3517480757
 11
7.5144110535
 21
-16.3499161626
  0
LINE
  5
258
100
AcDbEntity
  8
DRAFT
100
AcDbLine
 62
7
  6
CONTINUOUS
 10
7.3389199576
 20
23.3500838374
 11
7.2717671531
 21
23.3148690515
  0
LINE
  5
259
100
AcDbEntity
  8
RACCORDO
100
AcDbLine
 62
7
  6
CONTINUOUS
 10
7.7880353087
 20
23.0500838374
 11
7.6469288281
 21
22.9867467449
  0
LINE
  5
25A
100
AcDbEntity
  8
0
100
AcDbLine
 62
7
  6
CONTINUOUS
 10
-1.4337888708
 20
19.3791908374
 11
-1.0699578708
 21
19.4959998374
  0
LINE
  5
25B
100
AcDbEntity
  8
0
100
AcDbLine
 62
7
  6
CONTINUOUS
 10
-2.3438358708
 20
19.0869978374
 11
-1.7853018708
 21
19.2663228374
  0
LWPOLYLINE
  5
25C
100
AcDbEntity
  8
RACCORDO
100
AcDbPolyline
 62
7
  6
CONTINUOUS
 90
16
 70
0
 10
-6.5938691093
 20
-13.0487663627
 10
-6.6459519572
 20
-13.0460473506
 10
-6.6975529652
 20
-13.0379017654
 10
-6.748104804
 20
-13.0243921325
 10
-6.7971151762
 20
-13.0056104006
 10
-6.8439616181
 20
-12.9817538017
 10
-6.8879332354
 20
-12.9531932118
 10
-6.92843709
 20
-12.9203987351
 10
-6.9652152514
 20
-12.8836705041
 10
-6.9980850728
 20
-12.8431820031
 10
-7.0267484003
 20
-12.799163166
 10
-7.0507062463
 20
-12.7522209212
 10
-7.0695511554
 20
-12.7031338239
 10
-7.0830895991
 20
-12.652555238
 10
-7.0912501004
 20
-12.6009595988
 10
-7.0939809403
 20
-12.5489162706
  0
LWPOLYLINE
  5
25D
100
AcDbEntity
  8
RACCORDO
100
AcDbPolyline
 62
7
  6
CONTINUOUS
 90
13
 70
0
 10
-6.3098189406
 20
-13.1254557781
 10
-6.2842151198
 20
-13.127185067
 10
-6.2589346229
 20
-13.1323401358
 10
-6.2344054399
 20
-13.1408808563
 10
-6.2110313455
 20
-13.1527412774
 10
-6.1892499039
 20
-13.1677489118
 10
-6.1695073315
 20
-13.1856000682
 10
-6.1521736203
 20
-13.2060039161
 10
-6.1375280906
 20
-13.2286571545
 10
-6.1258191108
 20
-13.2531582467
 10
-6.117270426
 20
-13.2791113499
 10
-6.112064085
 20
-13.306124418
 10
-6.1103191732
 20
-13.333766232
  0
LINE
  5
25E
100
AcDbEntity
  8
RACCORDO
100
AcDbLine
 62
7
  6
CONTINUOUS
 10
7.6469288281
 20
-18.68657907
 11
7.7880353087
 21
-18.7499161626
  0
LINE
  5
25F
100
AcDbEntity
  8
RACCORDO
100
AcDbLine
 62
7
  6
CONTINUOUS
 10
-6.1090248493
 20
-12.9617443369
 11
-6.0949998708
 21
-12.9687562921
  0
LINE
  5
260
100
AcDbEntity
  8
DRAFT
100
AcDbLine
 62
7
  6
CONTINUOUS
 10
7.3389199576
 20
-19.0499161626
 11
7.2717671531
 21
-19.0147013766
  0
LINE
  5
261
100
AcDbEntity
  8
DRAFT
100
AcDbLine
 62
7
  6
CONTINUOUS
 10
-9.2449998708
 20
-11.580973907
 11
-9.1768520015
 21
-11.6491217763
  0
LINE
  5
262
100
AcDbEntity
  8
RACCORDO
100
AcDbLine
 62
7
  6
CONTINUOUS
 10
0.0077837761
 20
22.5839252288
 11
0.1420271846
 21
22.7181686373
  0
LWPOLYLINE
  5
263
100
AcDbEntity
  8
RACCORDO
100
AcDbPolyline
 62
7
  6
CONTINUOUS
 90
22
 70
0
 10
7.2606040891
 20
22.8939765708
 10
7.2489790453
 20
22.8879644067
 10
7.2371364746
 20
22.8812842073
 10
7.2250763769
 20
22.8739388628
 10
7.2126752083
 20
22.8659171894
 10
7.2000565126
 20
22.8572722734
 10
7.1875909217
 20
22.8481333651
 10
7.1752735461
 20
22.8385575846
 10
7.1631092752
 20
22.8286336068
 10
7.1514834085
 20
22.8185698683
 10
7.1405402737
 20
22.80861907
 10
7.1301355431
 20
22.7987308886
 10
7.1202215323
 20
22.7886902822
 10
7.1106973276
 20
22.778633421
 10
7.1016638428
 20
22.7687529361
 10
7.0933761346
 20
22.7590254595
 10
7.0857907706
 20
22.7496351275
 10
7.0789511832
 20
22.7410746038
 10
7.0732427256
 20
22.7338297153
 10
7.0687938491
 20
22.7282540877
 10
7.0654761024
 20
22.7246321681
 10
7.0632894856
 20
22.7232697004
  0
LWPOLYLINE
  5
264
100
AcDbEntity
  8
0
100
AcDbPolyline
 62
7
  6
CONTINUOUS
 90
22
 70
0
 10
8.5027491121
 20
21.4346677681
 10
8.5213353355
 20
21.4421164397
 10
8.540102169
 20
21.4489644854
 10
8.5590496127
 20
21.4552119063
 10
8.5782189867
 20
21.4608146655
 10
8.5975689709
 20
21.4658168015
 10
8.6169756049
 20
21.470350428
 10
8.6364145188
 20
21.4744249617
 10
8.6559100826
 20
21.4780309868
 10
8.675411446
 20
21.4812723681
 10
8.6948580086
 20
21.4841552165
 10
8.714310371
 20
21.4866734217
 10
8.7338994841
 20
21.4889125154
 10
8.7536003741
 20
21.4908855934
 10
8.7734380148
 20
21.4925795602
 10
8.7936182785
 20
21.4940406616
 10
8.8141357999
 20
21.4952807571
 10
8.8349959441
 20
21.4962879872
 10
8.8564206788
 20
21.4970730187
 10
8.8784839931
 20
21.4976394069
 10
8.9011118977
 20
21.4979835966
 10
8.9243043928
 20
21.4981055876
  0
LINE
  5
265
100
AcDbEntity
  8
0
100
AcDbLine
 62
7
  6
CONTINUOUS
 10
-2.9200368708
 20
16.8109888374
 11
-1.7151968708
 21
17.1564718374
  0
LINE
  5
266
100
AcDbEntity
  8
0
100
AcDbLine
 62
7
  6
CONTINUOUS
 10
-2.2899588708
 20
16.6216408374
 11
-1.0699538708
 21
16.9714668374
  0
LWPOLYLINE
  5
267
100
AcDbEntity
  8
RACCORDO
100
AcDbPolyline
 62
250
  6
CONTINUOUS
 90
19
 70
0
 10
9.9149579866
 20
-11.5739771665
 10
9.9225320968
 20
-11.5730382161
 10
9.9302664052
 20
-11.5706825461
 10
9.9380430727
 20
-11.566876435
 10
9.9456989988
 20
-11.561577436
 10
9.9531403132
 20
-11.554786334
 10
9.9603596166
 20
-11.5465909685
 10
9.9672260253
 20
-11.5370796962
 10
9.9736457681
 20
-11.5262897995
 10
9.9796842827
 20
-11.5142826143
 10
9.9852644179
 20
-11.5011007699
 10
9.9902516753
 20
-11.486867309
 10
9.9946556092
 20
-11.471795194
 10
9.9984476577
 20
-11.4560360582
 10
10.0015566792
 20
-11.4396968061
 10
10.0039797317
 20
-11.4229531189
 10
10.0057158619
 20
-11.4059555717
 10
10.0067545089
 20
-11.3888236052
 10
10.0071055128
 20
-11.3716880134
  0
LWPOLYLINE
  5
268
100
AcDbEntity
  8
RACCORDO
100
AcDbPolyline
 62
250
  6
CONTINUOUS
 90
16
 70
0
 10
-5.9090553103
 20
-12.135921645
 10
-5.9520574803
 20
-12.1384325562
 10
-5.993573041
 20
-12.1450612755
 10
-6.0336019924
 20
-12.1558078027
 10
-6.0725189808
 20
-12.1709028549
 10
-6.10994936
 20
-12.190115715
 10
-6.1447691909
 20
-12.2127542326
 10
-6.1768793494
 20
-12.2388687186
 10
-6.2063789596
 20
-12.268408862
 10
-6.2324414552
 20
-12.3005315791
 10
-6.2550131475
 20
-12.3353245474
 10
-6.2741477252
 20
-12.3727000893
 10
-6.2891796882
 20
-12.4115520894
 10
-6.299887203
 20
-12.4515118425
 10
-6.3064921031
 20
-12.4929480537
 10
-6.3089943883
 20
-12.5358607231
  0
LWPOLYLINE
  5
269
100
AcDbEntity
  8
RACCORDO
100
AcDbPolyline
 62
7
  6
CONTINUOUS
 90
19
 70
0
 10
10.6550001292
 20
-11.5739771817
 10
10.6919528788
 20
-11.5726098227
 10
10.7303957378
 20
-11.5682599753
 10
10.7700532959
 20
-11.5605598255
 10
10.8108435463
 20
-11.5490694225
 10
10.8520882417
 20
-11.5334943046
 10
10.8925943736
 20
-11.5139187369
 10
10.9319165156
 20
-11.4902904984
 10
10.9696088831
 20
-11.4625909537
 10
11.0046437099
 20
-11.4313965286
 10
11.0367013819
 20
-11.396937368
 10
11.0654536082
 20
-11.3595065184
 10
11.0902053091
 20
-11.3201387121
 10
11.1108752154
 20
-11.2793475458
 10
11.1275042588
 20
-11.2374978447
 10
11.1399860294
 20
-11.1955830017
 10
11.1485187983
 20
-11.1542194009
 10
11.1534290666
 20
-11.1135791869
 10
11.1550001292
 20
-11.0739733736
  0
LWPOLYLINE
  5
26A
100
AcDbEntity
  8
RACCORDO
100
AcDbPolyline
 62
250
  6
CONTINUOUS
 90
19
 70
0
 10
9.9149604658
 20
-11.5739771817
 10
9.9385096516
 20
-11.5731420668
 10
9.961807276
 20
-11.5708982113
 10
9.984853339
 20
-11.567212855
 10
10.0078964048
 20
-11.56204655
 10
10.0306879092
 20
-11.5553987961
 10
10.0524821591
 20
-11.5473508145
 10
10.0731820138
 20
-11.5379885199
 10
10.092884614
 20
-11.5273499997
 10
10.1111356891
 20
-11.515494491
 10
10.1279357729
 20
-11.5024653188
 10
10.1432843317
 20
-11.488384321
 10
10.1567254928
 20
-11.4734597786
 10
10.1681580671
 20
-11.4578434256
 10
10.1776832437
 20
-11.4416399537
 10
10.1851487178
 20
-11.425015728
 10
10.190503721
 20
-11.4081167063
 10
10.1937990216
 20
-11.3910632624
 10
10.1950346196
 20
-11.3739847971
  0
LWPOLYLINE
  5
26B
100
AcDbEntity
  8
RACCORDO
100
AcDbPolyline
 62
250
  6
CONTINUOUS
 90
19
 70
0
 10
10.6550001292
 20
-11.3739847971
 10
10.6775173066
 20
-11.3735161617
 10
10.7005337888
 20
-11.3708311756
 10
10.7240495757
 20
-11.365929839
 10
10.7484649581
 20
-11.3588707283
 10
10.7733796452
 20
-11.349595267
 10
10.7975927648
 20
-11.3379277254
 10
10.8210593524
 20
-11.3236502303
 10
10.8438243725
 20
-11.3069806549
 10
10.8648218459
 20
-11.2883968885
 10
10.8839023836
 20
-11.2677150852
 10
10.9012153745
 20
-11.245119091
 10
10.9161430065
 20
-11.2216383321
 10
10.9284563982
 20
-11.1972551804
 10
10.9383844309
 20
-11.1719872641
 10
10.9459959371
 20
-11.1469168942
 10
10.951313861
 20
-11.122404841
 10
10.9543152584
 20
-11.0980903341
 10
10.9550001292
 20
-11.0739733736
  0
LINE
  5
26C
100
AcDbEntity
  8
RACCORDO
100
AcDbLine
 62
250
  6
CONTINUOUS
 10
-8.5569523848
 20
-11.561804204
 11
-8.593029435
 21
-11.561989774
  0
LINE
  5
26D
100
AcDbEntity
  8
RACCORDO
100
AcDbLine
 62
250
  6
CONTINUOUS
 10
-8.5253792813
 20
-11.5617595668
 11
-8.5569523848
 21
-11.561804204
  0
LINE
  5
26E
100
AcDbEntity
  8
RACCORDO
100
AcDbLine
 62
7
  6
CONTINUOUS
 10
-6.9144624278
 20
-13.1254557781
 11
-6.3098189406
 21
-13.1254557781
  0
LINE
  5
26F
100
AcDbEntity
  8
RACCORDO
100
AcDbLine
 62
7
  6
CONTINUOUS
 10
0.2057262751
 20
-13.1254557781
 11
0.6042739834
 21
-13.1254557781
  0
LINE
  5
270
100
AcDbEntity
  8
RACCORDO
100
AcDbLine
 62
7
  6
CONTINUOUS
 10
7.119819199
 20
-13.1254557781
 11
7.7244626863
 21
-13.1254557781
  0
LINE
  5
271
100
AcDbEntity
  8
RACCORDO
100
AcDbLine
 62
7
  6
CONTINUOUS
 10
-6.5938691093
 20
-13.0487663627
 11
7.4038693678
 21
-13.0487663627
  0
LINE
  5
272
100
AcDbEntity
  8
DRAFT
100
AcDbLine
 62
7
  6
CONTINUOUS
 10
6.9050001292
 20
-12.9687562921
 11
-6.0949998708
 21
-12.9687562921
  0
LINE
  5
273
100
AcDbEntity
  8
RACCORDO
100
AcDbLine
 62
7
  6
CONTINUOUS
 10
7.3151324295
 20
-12.9600294243
 11
7.1189946468
 21
-12.9600294243
  0
LINE
  5
274
100
AcDbEntity
  8
RACCORDO
100
AcDbLine
 62
7
  6
CONTINUOUS
 10
-6.3089943883
 20
-12.9600294243
 11
-6.505132171
 21
-12.9600294243
  0
LINE
  5
275
100
AcDbEntity
  8
RACCORDO
100
AcDbLine
 62
250
  6
CONTINUOUS
 10
7.1189946468
 20
-12.5358607229
 11
6.9190251078
 21
-12.535860723
  0
LINE
  5
276
100
AcDbEntity
  8
RACCORDO
100
AcDbLine
 62
250
  6
CONTINUOUS
 10
-6.3089943883
 20
-12.535860723
 11
-6.1090248493
 21
-12.535860723
  0
LINE
  5
277
100
AcDbEntity
  8
RACCORDO
100
AcDbLine
 62
7
  6
CONTINUOUS
 10
6.7050305902
 20
-12.3499161626
 11
-5.8950303317
 21
-12.3499161626
  0
LINE
  5
278
100
AcDbEntity
  8
RACCORDO
100
AcDbLine
 62
250
  6
CONTINUOUS
 10
-5.9090553103
 20
-12.335891184
 11
6.7190555687
 21
-12.335891184
  0
LINE
  5
279
100
AcDbEntity
  8
RACCORDO
100
AcDbLine
 62
250
  6
CONTINUOUS
 10
-5.9090553103
 20
-12.135921645
 11
6.7190555687
 21
-12.135921645
  0
LINE
  5
27A
100
AcDbEntity
  8
DRAFT
100
AcDbLine
 62
7
  6
CONTINUOUS
 10
9.98685226
 20
-11.6491217763
 11
7.904205743
 21
-11.6491217763
  0
LINE
  5
27B
100
AcDbEntity
  8
DRAFT
100
AcDbLine
 62
7
  6
CONTINUOUS
 10
-7.0942054845
 20
-11.6491217763
 11
-9.1768520015
 21
-11.6491217763
  0
LINE
  5
27C
100
AcDbEntity
  8
RACCORDO
100
AcDbLine
 62
7
  6
CONTINUOUS
 10
10.6550001292
 20
-11.580973907
 11
10.0550001292
 21
-11.580973907
  0
LINE
  5
27D
100
AcDbEntity
  8
RACCORDO
100
AcDbLine
 62
7
  6
CONTINUOUS
 10
-9.2449998708
 20
-11.580973907
 11
-9.8449998708
 21
-11.580973907
  0
LINE
  5
27E
100
AcDbEntity
  8
RACCORDO
100
AcDbLine
 62
7
  6
CONTINUOUS
 10
-9.8449998708
 20
-11.5739771817
 11
-9.1049583631
 21
-11.5739771817
  0
LINE
  5
27F
100
AcDbEntity
  8
RACCORDO
100
AcDbLine
 62
7
  6
CONTINUOUS
 10
9.9149586216
 20
-11.5739771817
 11
10.6550001292
 21
-11.5739771817
  0
LINE
  5
280
100
AcDbEntity
  8
RACCORDO
100
AcDbLine
 62
7
  6
CONTINUOUS
 10
7.8168435335
 20
-11.5617595668
 11
9.3353795398
 21
-11.5617595668
  0
LINE
  5
281
100
AcDbEntity
  8
RACCORDO
100
AcDbLine
 62
7
  6
CONTINUOUS
 10
-7.006843275
 20
-11.5617595668
 11
-8.5253792813
 21
-11.5617595668
  0
LINE
  5
282
100
AcDbEntity
  8
RACCORDO
100
AcDbLine
 62
250
  6
CONTINUOUS
 10
9.3353795398
 20
-11.5617595668
 11
9.380583386
 21
-11.5618540072
  0
LINE
  5
283
100
AcDbEntity
  8
RACCORDO
100
AcDbLine
 62
250
  6
CONTINUOUS
 10
9.380583386
 20
-11.5618540072
 11
9.4038740351
 21
-11.5619966583
  0
LWPOLYLINE
  5
284
100
AcDbEntity
  8
RACCORDO
100
AcDbPolyline
 62
250
  6
CONTINUOUS
 90
13
 70
0
 10
6.7190555687
 20
-12.335891184
 10
6.7452691067
 20
-12.3376075758
 10
6.7710020685
 20
-12.342736904
 10
6.7958140717
 20
-12.3511802851
 10
6.8192805581
 20
-12.3627811616
 10
6.841006874
 20
-12.377331946
 10
6.8606329747
 20
-12.3945808132
 10
6.8778225426
 20
-12.414219735
 10
6.8922967165
 20
-12.4359154218
 10
6.9038305018
 20
-12.4593301558
 10
6.9122240941
 20
-12.4840809239
 10
6.9173205119
 20
-12.5097367557
 10
6.9190251078
 20
-12.5358607231
  0
LWPOLYLINE
  5
285
100
AcDbEntity
  8
RACCORDO
100
AcDbPolyline
 62
7
  6
CONTINUOUS
 90
13
 70
0
 10
7.7244626863
 20
-13.1254557781
 10
7.750038343
 20
-13.1271800661
 10
7.7752805005
 20
-13.1323238766
 10
7.7997629466
 20
-13.1408451907
 10
7.8230827499
 20
-13.1526752056
 10
7.8448059652
 20
-13.1676414325
 10
7.8644920413
 20
-13.1854440442
 10
7.8817720847
 20
-13.2057926689
 10
7.8963688725
 20
-13.2283851801
 10
7.9080391074
 20
-13.2528271444
 10
7.9165596775
 20
-13.2787268416
 10
7.9217460464
 20
-13.3056924531
 10
7.9234776337
 20
-13.3332946876
  0
LWPOLYLINE
  5
286
100
AcDbEntity
  8
RACCORDO
100
AcDbPolyline
 62
7
  6
CONTINUOUS
 90
13
 70
0
 10
0.6042739834
 20
-13.1254557781
 10
0.6298778041
 20
-13.127185067
 10
0.655158301
 20
-13.1323401358
 10
0.6796874841
 20
-13.1408808563
 10
0.7030615785
 20
-13.1527412774
 10
0.72484302
 20
-13.1677489118
 10
0.7445855925
 20
-13.1856000682
 10
0.7619193037
 20
-13.2060039161
 10
0.7765648333
 20
-13.2286571545
 10
0.7882738131
 20
-13.2531582467
 10
0.7968224979
 20
-13.2791113499
 10
0.8020288389
 20
-13.306124418
 10
0.8037737508
 20
-13.333766232
  0
LWPOLYLINE
  5
287
100
AcDbEntity
  8
RACCORDO
100
AcDbPolyline
 62
250
  6
CONTINUOUS
 90
13
 70
0
 10
-8.6193485434
 20
-11.5623337771
 10
-8.6438332072
 20
-11.5605515359
 10
-8.6679005199
 20
-11.5553907216
 10
-8.6911402443
 20
-11.5469393026
 10
-8.7131562498
 20
-11.5353413365
 10
-8.7335732645
 20
-11.5207945157
 10
-8.7520432721
 20
-11.5035467965
 10
-8.7682514437
 20
-11.4838921733
 10
-8.7819215045
 20
-11.4621656674
 10
-8.7928204426
 20
-11.4387376159
 10
-8.8007624811
 20
-11.4140073594
 10
-8.8056122449
 20
-11.3883964354
 10
-8.8072870676
 20
-11.3623413925
  0
LWPOLYLINE
  5
288
100
AcDbEntity
  8
RACCORDO
100
AcDbPolyline
 62
7
  6
CONTINUOUS
 90
22
 70
0
 10
7.0632894856
 20
-18.4231020255
 10
7.0654841779
 20
-18.4244722793
 10
7.0688175937
 20
-18.4281152316
 10
7.0732897328
 20
-18.4337226124
 10
7.0790319417
 20
-18.4410084949
 10
7.0859128741
 20
-18.4496156876
 10
7.0935384904
 20
-18.4590505984
 10
7.1018646173
 20
-18.4688145424
 10
7.1109354282
 20
-18.4787227119
 10
7.120489404
 20
-18.488798147
 10
7.1304273101
 20
-18.4988494324
 10
7.140848381
 20
-18.5087379489
 10
7.151788802
 20
-18.5186731482
 10
7.1633833718
 20
-18.5286986795
 10
7.1754972917
 20
-18.5385698402
 10
7.18776235
 20
-18.5480947043
 10
7.2001738133
 20
-18.5571876225
 10
7.212736415
 20
-18.5657906665
 10
7.2250961445
 20
-18.5737835369
 10
7.2371349983
 20
-18.5811148472
 10
7.2489709798
 20
-18.587791513
 10
7.2606040891
 20
-18.5938088959
  0
LINE
  5
289
100
AcDbEntity
  8
RACCORDO
100
AcDbLine
 62
250
  6
CONTINUOUS
 10
-6.1090248493
 20
-12.5358607231
 11
-6.0949998708
 21
-12.5498857016
  0
LINE
  5
28A
100
AcDbEntity
  8
RACCORDO
100
AcDbLine
 62
7
  6
CONTINUOUS
 10
0.0077837761
 20
-18.2837575539
 11
0.1420271846
 21
-18.4180009624
  0
LINE
  5
28B
100
AcDbEntity
  8
RACCORDO
100
AcDbLine
 62
250
  6
CONTINUOUS
 10
-5.9090553103
 20
-12.335891184
 11
-5.8950303317
 21
-12.3499161626
  0
LINE
  5
28C
100
AcDbEntity
  8
DRAFT
100
AcDbLine
 62
7
  6
CONTINUOUS
 10
-7.0949998708
 20
-10.6499161626
 11
-7.0775461352
 21
-10.6673698981
  0
LINE
  5
28D
100
AcDbEntity
  8
DRAFT
100
AcDbLine
 62
7
  6
CONTINUOUS
 10
-7.1103128494
 20
22.6529277265
 11
-6.9780350503
 21
23.0500838374
  0
LINE
  5
28E
100
AcDbEntity
  8
DRAFT
100
AcDbLine
 62
7
  6
CONTINUOUS
 10
-9.2449998708
 20
9.6811415819
 11
-9.1756905873
 21
9.7504508654
  0
LWPOLYLINE
  5
28F
100
AcDbEntity
  8
RACCORDO
100
AcDbPolyline
 62
7
  6
CONTINUOUS
 90
6
 70
0
 10
7.549336943
 20
20.682864789
 10
7.5396215607
 20
20.6768787567
 10
7.5161618208
 20
20.6653079309
 10
7.4913927164
 20
20.6568986722
 10
7.4657380537
 20
20.6517948652
 10
7.4396367912
 20
20.6500838374
  0
LINE
  5
290
100
AcDbEntity
  8
0
100
AcDbLine
 62
7
  6
CONTINUOUS
 10
2.2553641292
 20
16.3693768374
 11
3.7553721292
 21
16.8987868374
  0
LINE
  5
291
100
AcDbEntity
  8
0
100
AcDbLine
 62
7
  6
CONTINUOUS
 10
2.2553641292
 20
16.5857338374
 11
3.5557951292
 21
17.0164423374
  0
LINE
  5
292
100
AcDbEntity
  8
0
100
AcDbLine
 62
7
  6
CONTINUOUS
 10
-2.9200368708
 20
14.0769288374
 11
-1.6461548708
 21
14.4859268374
  0
LINE
  5
293
100
AcDbEntity
  8
0
100
AcDbLine
 62
7
  6
CONTINUOUS
 10
-2.9200368708
 20
13.7069108374
 11
-1.0699488708
 21
14.3009088374
  0
LINE
  5
294
100
AcDbEntity
  8
RACCORDO
100
AcDbLine
 62
7
  6
CONTINUOUS
 10
9.617287326
 20
-10.7380802698
 11
10.0071031127
 21
-10.7287337065
  0
LINE
  5
295
100
AcDbEntity
  8
RACCORDO
100
AcDbLine
 62
250
  6
CONTINUOUS
 10
-8.6169420132
 20
-11.5622806493
 11
-9.1049583631
 21
-11.5739771817
  0
LINE
  5
296
100
AcDbEntity
  8
RACCORDO
100
AcDbLine
 62
250
  6
CONTINUOUS
 10
-9.2080919724
 20
-11.3719282652
 11
-8.8072870676
 21
-11.3623413925
  0
LINE
  5
297
100
AcDbEntity
  8
RACCORDO
100
AcDbLine
 62
250
  6
CONTINUOUS
 10
-8.6107645295
 20
-11.5621780145
 11
-8.6169420132
 21
-11.5622806493
  0
LINE
  5
298
100
AcDbEntity
  8
RACCORDO
100
AcDbLine
 62
250
  6
CONTINUOUS
 10
-9.2594877637
 20
-11.3726985235
 11
-9.2080919724
 21
-11.3719282652
  0
LINE
  5
299
100
AcDbEntity
  8
RACCORDO
100
AcDbLine
 62
250
  6
CONTINUOUS
 10
-9.3850413784
 20
-11.3739847971
 11
-9.2594877637
 21
-11.3726985235
  0
LWPOLYLINE
  5
29A
100
AcDbEntity
  8
RACCORDO
100
AcDbPolyline
 62
250
  6
CONTINUOUS
 90
3
 70
0
 10
-8.593029435
 20
-11.561989774
 10
-8.5980872453
 20
-11.562033114
 10
-8.6107645295
 20
-11.5621780145
  0
LINE
  5
29B
100
AcDbEntity
  8
RACCORDO
100
AcDbLine
 62
250
  6
CONTINUOUS
 10
-8.7434907371
 20
-11.3620407571
 11
-8.8072870676
 21
-11.3623413925
  0
LINE
  5
29C
100
AcDbEntity
  8
0
100
AcDbLine
 62
7
  6
CONTINUOUS
 10
-6.0949998708
 20
-11.4499161626
 11
6.9050001292
 21
-11.4499161626
  0
LINE
  5
29D
100
AcDbEntity
  8
RACCORDO
100
AcDbLine
 62
250
  6
CONTINUOUS
 10
-9.8449998708
 20
-11.3739847971
 11
-9.3850413784
 21
-11.3739847971
  0
LINE
  5
29E
100
AcDbEntity
  8
RACCORDO
100
AcDbLine
 62
250
  6
CONTINUOUS
 10
10.1950416369
 20
-11.3739847971
 11
10.6550001292
 21
-11.3739847971
  0
LINE
  5
29F
100
AcDbEntity
  8
RACCORDO
100
AcDbLine
 62
250
  6
CONTINUOUS
 10
-7.0051131325
 20
-11.3617671822
 11
-8.7434907371
 21
-11.3620407571
  0
LINE
  5
2A0
100
AcDbEntity
  8
RACCORDO
100
AcDbLine
 62
250
  6
CONTINUOUS
 10
-10.1449998708
 20
-11.0739733736
 11
-10.3449998708
 21
-11.0739733737
  0
LINE
  5
2A1
100
AcDbEntity
  8
RACCORDO
100
AcDbLine
 62
250
  6
CONTINUOUS
 10
10.9550001292
 20
-11.0739733736
 11
11.1550001292
 21
-11.0739733736
  0
LINE
  5
2A2
100
AcDbEntity
  8
RACCORDO
100
AcDbLine
 62
7
  6
CONTINUOUS
 10
-5.5949998708
 20
-10.8499161626
 11
6.4050001292
 21
-10.8499161626
  0
LINE
  5
2A3
100
AcDbEntity
  8
RACCORDO
100
AcDbLine
 62
7
  6
CONTINUOUS
 10
-8.5253792813
 20
-10.7398029008
 11
-6.0949998708
 21
-10.7398029008
  0
LINE
  5
2A4
100
AcDbEntity
  8
RACCORDO
100
AcDbLine
 62
7
  6
CONTINUOUS
 10
6.9050001292
 20
-10.7398029008
 11
9.3353795398
 21
-10.7398029008
  0
LINE
  5
2A5
100
AcDbEntity
  8
RACCORDO
100
AcDbLine
 62
7
  6
CONTINUOUS
 10
10.1950416369
 20
-10.7275852859
 11
10.063726997
 21
-10.7275852859
  0
LINE
  5
2A6
100
AcDbEntity
  8
RACCORDO
100
AcDbLine
 62
7
  6
CONTINUOUS
 10
-9.3850413784
 20
-10.7275852859
 11
-9.2537267386
 21
-10.7275852859
  0
LINE
  5
2A7
100
AcDbEntity
  8
DRAFT
100
AcDbLine
 62
7
  6
CONTINUOUS
 10
-7.0775461352
 20
-10.6673698981
 11
-6.0949998708
 21
-10.6673698981
  0
LINE
  5
2A8
100
AcDbEntity
  8
DRAFT
100
AcDbLine
 62
7
  6
CONTINUOUS
 10
6.9050001292
 20
-10.6673698981
 11
7.8875463936
 21
-10.6673698981
  0
LINE
  5
2A9
100
AcDbEntity
  8
DRAFT
100
AcDbLine
 62
7
  6
CONTINUOUS
 10
-9.1760576152
 20
-10.6499161626
 11
-7.0949998708
 21
-10.6499161626
  0
LINE
  5
2AA
100
AcDbEntity
  8
DRAFT
100
AcDbLine
 62
7
  6
CONTINUOUS
 10
7.9050001292
 20
-10.6499161626
 11
9.9860578737
 21
-10.6499161626
  0
LINE
  5
2AB
100
AcDbEntity
  8
RACCORDO
100
AcDbLine
 62
250
  6
CONTINUOUS
 10
-5.5949998708
 20
-10.3776511724
 11
6.4050001292
 21
-10.3776511724
  0
LINE
  5
2AC
100
AcDbEntity
  8
0
100
AcDbLine
 62
7
  6
CONTINUOUS
 10
-6.0949998708
 20
-10.3499161626
 11
-5.5949998708
 21
-10.3499161626
  0
LINE
  5
2AD
100
AcDbEntity
  8
0
100
AcDbLine
 62
7
  6
CONTINUOUS
 10
6.4050001292
 20
-10.3499161626
 11
6.9050001292
 21
-10.3499161626
  0
LINE
  5
2AE
100
AcDbEntity
  8
RACCORDO
100
AcDbLine
 62
7
  6
CONTINUOUS
 10
-6.9949998708
 20
-10.0999161626
 11
-5.4949998708
 21
-10.0999161626
  0
LINE
  5
2AF
100
AcDbEntity
  8
RACCORDO
100
AcDbLine
 62
7
  6
CONTINUOUS
 10
6.3050001292
 20
-10.0999161626
 11
7.8050001292
 21
-10.0999161626
  0
LINE
  5
2B0
100
AcDbEntity
  8
RACCORDO
100
AcDbLine
 62
250
  6
CONTINUOUS
 10
7.815113391
 20
-11.3617671822
 11
9.5817455013
 21
-11.3621420525
  0
LINE
  5
2B1
100
AcDbEntity
  8
RACCORDO
100
AcDbLine
 62
250
  6
CONTINUOUS
 10
9.5817455013
 20
-11.3621420525
 11
9.617287326
 21
-11.3623413925
  0
LINE
  5
2B2
100
AcDbEntity
  8
RACCORDO
100
AcDbLine
 62
250
  6
CONTINUOUS
 10
9.4038740351
 20
-11.5619966583
 11
9.4174856454
 21
-11.5621344368
  0
LINE
  5
2B3
100
AcDbEntity
  8
RACCORDO
100
AcDbLine
 62
250
  6
CONTINUOUS
 10
10.1950416369
 20
-11.3739847971
 11
10.0495669099
 21
-11.3724535679
  0
LINE
  5
2B4
100
AcDbEntity
  8
RACCORDO
100
AcDbLine
 62
250
  6
CONTINUOUS
 10
9.4174856454
 20
-11.5621344368
 11
9.42433559
 21
-11.562232833
  0
LINE
  5
2B5
100
AcDbEntity
  8
RACCORDO
100
AcDbLine
 62
250
  6
CONTINUOUS
 10
10.0495669099
 20
-11.3724535679
 11
10.0180892781
 21
-11.3719431601
  0
LINE
  5
2B6
100
AcDbEntity
  8
RACCORDO
100
AcDbLine
 62
250
  6
CONTINUOUS
 10
9.42433559
 20
-11.562232833
 11
9.4293488019
 21
-11.5623337771
  0
LINE
  5
2B7
100
AcDbEntity
  8
RACCORDO
100
AcDbLine
 62
250
  6
CONTINUOUS
 10
9.4293488019
 20
-11.5623337771
 11
9.9149586216
 21
-11.5739771817
  0
LINE
  5
2B8
100
AcDbEntity
  8
RACCORDO
100
AcDbLine
 62
250
  6
CONTINUOUS
 10
9.617287326
 20
-11.3623413925
 11
10.0180892781
 21
-11.3719431601
  0
LINE
  5
2B9
100
AcDbEntity
  8
RACCORDO
100
AcDbLine
 62
7
  6
CONTINUOUS
 10
-9.1971028543
 20
-10.7287337065
 11
-8.8072870676
 21
-10.7380802698
  0
LINE
  5
2BA
100
AcDbEntity
  8
DRAFT
100
AcDbLine
 62
7
  6
CONTINUOUS
 10
-9.1760576152
 20
-7.3499161626
 11
-9.2537267386
 21
-7.2722470392
  0
LINE
  5
2BB
100
AcDbEntity
  8
DRAFT
100
AcDbLine
 62
7
  6
CONTINUOUS
 10
-7.1103128494
 20
-18.3527600516
 11
-6.9780350503
 21
-18.7499161626
  0
LWPOLYLINE
  5
2BC
100
AcDbEntity
  8
RACCORDO
100
AcDbPolyline
 62
250
  6
CONTINUOUS
 90
19
 70
0
 10
-9.3850343611
 20
-11.3739847971
 10
-9.3838646538
 20
-11.3905780171
 10
-9.380741851
 20
-11.4071615221
 10
-9.3756659528
 20
-11.4236161856
 10
-9.3685858031
 20
-11.4398417303
 10
-9.359552558
 20
-11.4556912422
 10
-9.3487196859
 20
-11.4709793294
 10
-9.336016166
 20
-11.4855884917
 10
-9.321513019
 20
-11.4994083051
 10
-9.3055767757
 20
-11.5122856977
 10
-9.2882762328
 20
-11.5240741445
 10
-9.2695425936
 20
-11.5347592756
 10
-9.2495359986
 20
-11.5443698505
 10
-9.2282403066
 20
-11.5528025975
 10
-9.2056716588
 20
-11.5599521779
 10
-9.1820386196
 20
-11.5657727108
 10
-9.1574107103
 20
-11.5701435057
 10
-9.1317184095
 20
-11.5729173426
 10
-9.1049617173
 20
-11.5739771817
  0
LWPOLYLINE
  5
2BD
100
AcDbEntity
  8
RACCORDO
100
AcDbPolyline
 62
7
  6
CONTINUOUS
 90
19
 70
0
 10
-10.3449998708
 20
-11.0739733736
 10
-10.3436299689
 20
-11.1109605066
 10
-10.3392724285
 20
-11.1494368003
 10
-10.3315592531
 20
-11.1891261833
 10
-10.3200497828
 20
-11.2299475709
 10
-10.304449892
 20
-11.2712201068
 10
-10.2848468423
 20
-11.3117453299
 10
-10.2611903936
 20
-11.3510773493
 10
-10.2334633933
 20
-11.3887710905
 10
-10.202246832
 20
-11.4237968623
 10
-10.1677746483
 20
-11.4558354637
 10
-10.1303405201
 20
-11.4845623127
 10
-10.0909788544
 20
-11.509286165
 10
-10.0502049821
 20
-11.5299273443
 10
-10.0083829268
 20
-11.5465295813
 10
-9.9665002337
 20
-11.5589901207
 10
-9.9251705118
 20
-11.5675079657
 10
-9.8845669726
 20
-11.5724091751
 10
-9.8449998708
 20
-11.5739771817
  0
LWPOLYLINE
  5
2BE
100
AcDbEntity
  8
RACCORDO
100
AcDbPolyline
 62
250
  6
CONTINUOUS
 90
19
 70
0
 10
-10.1449998708
 20
-11.0739733736
 10
-10.144529799
 20
-11.0965126148
 10
-10.1418402375
 20
-11.1195497354
 10
-10.1369311863
 20
-11.1430847353
 10
-10.1298602902
 20
-11.1675191287
 10
-10.1205699045
 20
-11.1924514014
 10
-10.1088870945
 20
-11.2166770112
 10
-10.0945932797
 20
-11.2401497418
 10
-10.0779070407
 20
-11.2629158095
 10
-10.0593111847
 20
-11.2839093209
 10
-10.038623089
 20
-11.302979364
 10
-10.0160253764
 20
-11.3202768507
 10
-9.9925487223
 20
-11.3351886233
 10
-9.9681771488
 20
-11.3474861531
 10
-9.9429266338
 20
-11.3573979687
 10
-9.9178757875
 20
-11.364996498
 10
-9.8933841466
 20
-11.3703058839
 10
-9.8690921743
 20
-11.3733019836
 10
-9.8449998708
 20
-11.3739847971
  0
LINE
  5
2BF
100
AcDbEntity
  8
0
100
AcDbLine
 62
7
  6
CONTINUOUS
 10
-10.7449998708
 20
24.0498549854
 11
-10.7449998708
 21
-19.7496873105
  0
LINE
  5
2C0
100
AcDbEntity
  8
RACCORDO
100
AcDbLine
 62
7
  6
CONTINUOUS
 10
-10.3449998708
 20
9.1741410485
 11
-10.3449998708
 21
-11.0739733736
  0
LINE
  5
2C1
100
AcDbEntity
  8
RACCORDO
100
AcDbLine
 62
250
  6
CONTINUOUS
 10
-10.1449998708
 20
9.1741410485
 11
-10.1449998708
 21
-11.0739733736
  0
LINE
  5
2C2
100
AcDbEntity
  8
RACCORDO
100
AcDbLine
 62
250
  6
CONTINUOUS
 10
-9.8449998708
 20
-11.3739847971
 11
-9.8449998708
 21
-11.5739771817
  0
LINE
  5
2C3
100
AcDbEntity
  8
RACCORDO
100
AcDbLine
 62
250
  6
CONTINUOUS
 10
-9.8449998708
 20
9.474152472
 11
-9.8449998708
 21
9.6741448566
  0
LINE
  5
2C4
100
AcDbEntity
  8
0
100
AcDbLine
 62
7
  6
CONTINUOUS
 10
-7.7699998708
 20
10.0500838374
 11
-7.0699998708
 21
10.7500838374
  0
LWPOLYLINE
  5
2C5
100
AcDbEntity
  8
0
100
AcDbPolyline
 62
7
  6
CONTINUOUS
 90
7
 70
0
 10
9.0204845157
 20
20.255950161
 10
9.055084256
 20
20.2787511356
 10
9.0919423225
 20
20.2973430125
 10
9.1310587153
 20
20.3117258087
 10
9.1724334343
 20
20.3218995376
 10
9.2160664795
 20
20.3278642084
 10
9.2619578509
 20
20.3296198269
  0
LWPOLYLINE
  5
2C6
100
AcDbEntity
  8
0
100
AcDbPolyline
 62
7
  6
CONTINUOUS
 90
7
 70
0
 10
8.3954514508
 20
20.2004715332
 10
8.4255426696
 20
20.2172053492
 10
8.4564804563
 20
20.2309442115
 10
8.4882648108
 20
20.2416881291
 10
8.5208957331
 20
20.249437109
 10
8.5543732233
 20
20.2541911563
 10
8.5886972814
 20
20.2559502741
  0
LWPOLYLINE
  5
2C7
100
AcDbEntity
  8
0
100
AcDbPolyline
 62
7
  6
CONTINUOUS
 90
7
 70
0
 10
8.3954514508
 20
19.0350552926
 10
8.425542884
 20
19.0517891702
 10
8.4564807994
 20
19.0655280702
 10
8.4882651967
 20
19.0762720008
 10
8.5208960762
 20
19.0840209687
 10
8.5543734378
 20
19.0887749786
 10
8.5886972814
 20
19.0905340334
  0
LWPOLYLINE
  5
2C8
100
AcDbEntity
  8
0
100
AcDbPolyline
 62
7
  6
CONTINUOUS
 90
22
 70
0
 10
8.5027490796
 20
17.938419479
 10
8.5213356846
 20
17.9458682944
 10
8.540102825
 20
17.9527164484
 10
8.5590505007
 20
17.9589639417
 10
8.578220023
 20
17.9645667287
 10
8.5975700806
 20
17.9695688565
 10
8.6169767399
 20
17.9741024649
 10
8.6364156294
 20
17.9781769756
 10
8.6559111206
 20
17.9817829677
 10
8.6754123934
 20
17.9850243173
 10
8.694858852
 20
17.9879071383
 10
8.7143110921
 20
17.9904253171
 10
8.7339000811
 20
17.9926643881
 10
8.753600845
 20
17.9946374477
 10
8.7734383577
 20
17.9963313997
 10
8.793618508
 20
17.9977924895
 10
8.814135932
 20
17.9990325776
 10
8.8349959935
 20
18.0000398037
 10
8.8564206724
 20
18.0008248326
 10
8.8784839619
 20
18.0013912194
 10
8.9011118687
 20
18.0017354092
 10
8.9243043928
 20
18.001857402
  0
LINE
  5
2C9
100
AcDbEntity
  8
RACCORDO
100
AcDbLine
 62
250
  6
CONTINUOUS
 10
-6.9949998708
 20
-9.0999161626
 11
-5.4949998708
 21
-9.0999161626
  0
LINE
  5
2CA
100
AcDbEntity
  8
RACCORDO
100
AcDbLine
 62
250
  6
CONTINUOUS
 10
6.3050001292
 20
-9.0999161626
 11
7.8050001292
 21
-9.0999161626
  0
LINE
  5
2CB
100
AcDbEntity
  8
RACCORDO
100
AcDbLine
 62
7
  6
CONTINUOUS
 10
9.4050001292
 20
-9.0499161626
 11
7.8050001292
 21
-9.0499161626
  0
LINE
  5
2CC
100
AcDbEntity
  8
0
100
AcDbLine
 62
7
  6
CONTINUOUS
 10
6.3050001292
 20
-9.0499161626
 11
4.6550001292
 21
-9.0499161626
  0
LINE
  5
2CD
100
AcDbEntity
  8
0
100
AcDbLine
 62
7
  6
CONTINUOUS
 10
-3.8449998708
 20
-9.0499161626
 11
-5.4949998708
 21
-9.0499161626
  0
LINE
  5
2CE
100
AcDbEntity
  8
RACCORDO
100
AcDbLine
 62
7
  6
CONTINUOUS
 10
-6.9949998708
 20
-9.0499161626
 11
-8.5949998708
 21
-9.0499161626
  0
LINE
  5
2CF
100
AcDbEntity
  8
RACCORDO
100
AcDbLine
 62
250
  6
CONTINUOUS
 10
7.5507307417
 20
-16.3836201198
 11
7.5613705337
 21
-16.3912454946
  0
LWPOLYLINE
  5
2D0
100
AcDbEntity
  8
RACCORDO
100
AcDbPolyline
 62
250
  6
CONTINUOUS
 90
13
 70
0
 10
-6.8243695523
 20
-17.9670734501
 10
-6.8224015858
 20
-17.9852125041
 10
-6.8171422476
 20
-18.0031058173
 10
-6.8086492879
 20
-18.0204519215
 10
-6.7970234785
 20
-18.0369692531
 10
-6.7824401071
 20
-18.0523530324
 10
-6.7651740218
 20
-18.0662929851
 10
-6.7455321005
 20
-18.0785435563
 10
-6.7238342718
 20
-18.0889071462
 10
-6.7004630083
 20
-18.0972024582
 10
-6.6758216275
 20
-18.1032910754
 10
-6.6503234171
 20
-18.1070753646
 10
-6.6244000133
 20
-18.1084948063
  0
LINE
  5
2D1
100
AcDbEntity
  8
RACCORDO
100
AcDbLine
 62
250
  6
CONTINUOUS
 10
-6.903936394
 20
-16.5499161626
 11
-7.1134773752
 21
-13.3332946876
  0
LWPOLYLINE
  5
2D2
100
AcDbEntity
  8
RACCORDO
100
AcDbPolyline
 62
250
  6
CONTINUOUS
 90
19
 70
0
 10
-9.1971052543
 20
-11.3716880134
 10
-9.196773127
 20
-11.388335611
 10
-9.1957936403
 20
-11.4049942351
 10
-9.1941547792
 20
-11.4215434824
 10
-9.1918612346
 20
-11.4378834882
 10
-9.1889106337
 20
-11.4538635344
 10
-9.185312293
 20
-11.4692908171
 10
-9.1811413589
 20
-11.4840470559
 10
-9.1764234329
 20
-11.4980198333
 10
-9.1711376508
 20
-11.5110482976
 10
-9.1654073218
 20
-11.5229831213
 10
-9.1592943543
 20
-11.5338132143
 10
-9.1526789567
 20
-11.5435685943
 10
-9.1456366666
 20
-11.552145948
 10
-9.1382575785
 20
-11.5594382587
 10
-9.130413813
 20
-11.565396858
 10
-9.1221288832
 20
-11.5698993909
 10
-9.1135972328
 20
-11.5727986493
 10
-9.1049572096
 20
-11.5739771541
  0
LINE
  5
2D3
100
AcDbEntity
  8
RACCORDO
100
AcDbLine
 62
250
  6
CONTINUOUS
 10
-9.3850413784
 20
9.474152472
 11
-9.3850413784
 21
8.8277529608
  0
LINE
  5
2D4
100
AcDbEntity
  8
RACCORDO
100
AcDbLine
 62
250
  6
CONTINUOUS
 10
-9.3850413784
 20
1.2724147141
 11
-9.3850413784
 21
0.4277529608
  0
LINE
  5
2D5
100
AcDbEntity
  8
RACCORDO
100
AcDbLine
 62
250
  6
CONTINUOUS
 10
-9.3850413784
 20
-6.4275852859
 11
-9.3850413784
 21
-7.2722470392
  0
LINE
  5
2D6
100
AcDbEntity
  8
RACCORDO
100
AcDbLine
 62
250
  6
CONTINUOUS
 10
-9.3850413784
 20
-10.7275852859
 11
-9.3850413784
 21
-11.3739847971
  0
LINE
  5
2D7
100
AcDbEntity
  8
DRAFT
100
AcDbLine
 62
7
  6
CONTINUOUS
 10
-9.2537267386
 20
8.8277529608
 11
-9.2537267386
 21
1.2724147141
  0
LINE
  5
2D8
100
AcDbEntity
  8
DRAFT
100
AcDbLine
 62
7
  6
CONTINUOUS
 10
-9.2537267386
 20
0.4277529608
 11
-9.2537267386
 21
-6.4275852859
  0
LINE
  5
2D9
100
AcDbEntity
  8
DRAFT
100
AcDbLine
 62
7
  6
CONTINUOUS
 10
-9.2537267386
 20
-7.2722470392
 11
-9.2537267386
 21
-10.7275852859
  0
LINE
  5
2DA
100
AcDbEntity
  8
DRAFT
100
AcDbLine
 62
7
  6
CONTINUOUS
 10
-9.2449998708
 20
-18.7499161626
 11
-9.2449998708
 21
-11.580973907
  0
LINE
  5
2DB
100
AcDbEntity
  8
DRAFT
100
AcDbLine
 62
7
  6
CONTINUOUS
 10
-9.2449998708
 20
9.6811415819
 11
-9.2449998708
 21
23.0500838374
  0
LINE
  5
2DC
100
AcDbEntity
  8
RACCORDO
100
AcDbLine
 62
250
  6
CONTINUOUS
 10
-9.1971028543
 20
9.4718556307
 11
-9.1971028543
 21
8.8289013814
  0
LINE
  5
2DD
100
AcDbEntity
  8
RACCORDO
100
AcDbLine
 62
250
  6
CONTINUOUS
 10
-9.1971028543
 20
1.2712662935
 11
-9.1971028543
 21
0.4289013814
  0
LINE
  5
2DE
100
AcDbEntity
  8
RACCORDO
100
AcDbLine
 62
250
  6
CONTINUOUS
 10
-9.1971028543
 20
-6.4287337065
 11
-9.1971028543
 21
-7.2710986186
  0
LINE
  5
2DF
100
AcDbEntity
  8
RACCORDO
100
AcDbLine
 62
250
  6
CONTINUOUS
 10
-9.1971028543
 20
-10.7287337065
 11
-9.1971028543
 21
-11.3716879558
  0
LINE
  5
2E0
100
AcDbEntity
  8
DRAFT
100
AcDbLine
 62
7
  6
CONTINUOUS
 10
-9.1760576152
 20
-10.6499161626
 11
-9.1760576152
 21
-7.3499161626
  0
LINE
  5
2E1
100
AcDbEntity
  8
DRAFT
100
AcDbLine
 62
7
  6
CONTINUOUS
 10
-9.1760576152
 20
-6.3499161626
 11
-9.1760576152
 21
0.3500838374
  0
LINE
  5
2E2
100
AcDbEntity
  8
DRAFT
100
AcDbLine
 62
7
  6
CONTINUOUS
 10
-9.1760576152
 20
1.3500838374
 11
-9.1760576152
 21
8.7500838374
  0
LINE
  5
2E3
100
AcDbEntity
  8
RACCORDO
100
AcDbLine
 62
250
  6
CONTINUOUS
 10
-8.8072870676
 20
9.4625090674
 11
-8.8072870676
 21
8.8382479447
  0
LINE
  5
2E4
100
AcDbEntity
  8
RACCORDO
100
AcDbLine
 62
250
  6
CONTINUOUS
 10
-8.8072870676
 20
1.2619197302
 11
-8.8072870676
 21
0.4382479447
  0
LINE
  5
2E5
100
AcDbEntity
  8
RACCORDO
100
AcDbLine
 62
250
  6
CONTINUOUS
 10
-8.8072870676
 20
-6.4380802698
 11
-8.8072870676
 21
-7.2617520553
  0
LINE
  5
2E6
100
AcDbEntity
  8
RACCORDO
100
AcDbLine
 62
250
  6
CONTINUOUS
 10
-8.8072870676
 20
-10.7380802698
 11
-8.8072870676
 21
-11.3623413925
  0
LINE
  5
2E7
100
AcDbEntity
  8
0
100
AcDbLine
 62
7
  6
CONTINUOUS
 10
-8.5949998708
 20
8.8500838374
 11
-8.5949998708
 21
1.4500838374
  0
LINE
  5
2E8
100
AcDbEntity
  8
RACCORDO
100
AcDbLine
 62
7
  6
CONTINUOUS
 10
-8.5949998708
 20
1.4500838374
 11
-8.5949998708
 21
-9.0499161626
  0
LINE
  5
2E9
100
AcDbEntity
  8
Z030100_COP
100
AcDbLine
 62
7
  6
CONTINUOUS
 10
-8.5449998708
 20
12.1500838374
 11
-8.5449998708
 21
5.2500838374
  0
LINE
  5
2EA
100
AcDbEntity
  8
RACCORDO
100
AcDbLine
 62
250
  6
CONTINUOUS
 10
-8.5253792813
 20
-11.5617595668
 11
-8.5253792813
 21
-10.7398029008
  0
LINE
  5
2EB
100
AcDbEntity
  8
0
100
AcDbLine
 62
7
  6
CONTINUOUS
 10
-8.4949998708
 20
1.5500838374
 11
-8.4949998708
 21
5.1500838374
  0
LINE
  5
2EC
100
AcDbEntity
  8
Z030100_COP
100
AcDbLine
 62
250
  6
CONTINUOUS
 10
-8.2449998708
 20
12.4500838374
 11
-8.2449998708
 21
5.5500838374
  0
LINE
  5
2ED
100
AcDbEntity
  8
RACCORDO
100
AcDbLine
 62
250
  6
CONTINUOUS
 10
-7.1134773752
 20
17.6334623625
 11
-6.903936394
 21
20.8500838374
  0
LINE
  5
2EE
100
AcDbEntity
  8
Z030100_COP
100
AcDbLine
 62
7
  6
CONTINUOUS
 10
-8.3449998708
 20
5.2500838374
 11
-7.7699998708
 21
6.9750838374
  0
LINE
  5
2EF
100
AcDbEntity
  8
RACCORDO
100
AcDbLine
 62
7
  6
CONTINUOUS
 10
7.0608703369
 20
22.7229188657
 11
6.9218767
 21
22.5839252288
  0
LWPOLYLINE
  5
2F0
100
AcDbEntity
  8
0
100
AcDbPolyline
 62
7
  6
CONTINUOUS
 90
7
 70
0
 10
9.0204844295
 20
19.0905340334
 10
9.0550838902
 20
19.1133350055
 10
9.0919417947
 20
19.1319268984
 10
9.131058143
 20
19.146309728
 10
9.1724329351
 20
19.1564835069
 10
9.2160661711
 20
19.1624482438
 10
9.2619578509
 20
19.1642039438
  0
LINE
  5
2F1
100
AcDbEntity
  8
0
100
AcDbLine
 62
7
  6
CONTINUOUS
 10
2.5515901292
 20
13.7328488374
 11
3.7553681292
 21
14.5206928374
  0
LINE
  5
2F2
100
AcDbEntity
  8
0
100
AcDbLine
 62
7
  6
CONTINUOUS
 10
2.2553591292
 20
13.7559718374
 11
3.4717651292
 21
14.5500998374
  0
LINE
  5
2F3
100
AcDbEntity
  8
RACCORDO
100
AcDbLine
 62
7
  6
CONTINUOUS
 10
-9.1971028543
 20
-7.2710986186
 11
-8.8072870676
 21
-7.2617520553
  0
LINE
  5
2F4
100
AcDbEntity
  8
RACCORDO
100
AcDbLine
 62
7
  6
CONTINUOUS
 10
9.617287326
 20
-6.4380802698
 11
10.0071031127
 21
-6.4287337065
  0
LINE
  5
2F5
100
AcDbEntity
  8
DRAFT
100
AcDbLine
 62
7
  6
CONTINUOUS
 10
9.9860578737
 20
-7.3499161626
 11
9.4050001292
 21
-7.3499161626
  0
LINE
  5
2F6
100
AcDbEntity
  8
DRAFT
100
AcDbLine
 62
7
  6
CONTINUOUS
 10
-9.1760576152
 20
-7.3499161626
 11
-8.5949998708
 21
-7.3499161626
  0
LINE
  5
2F7
100
AcDbEntity
  8
RACCORDO
100
AcDbLine
 62
7
  6
CONTINUOUS
 10
10.1950416369
 20
-7.2722470392
 11
10.063726997
 21
-7.2722470392
  0
LINE
  5
2F8
100
AcDbEntity
  8
RACCORDO
100
AcDbLine
 62
7
  6
CONTINUOUS
 10
-9.3850413784
 20
-7.2722470392
 11
-9.2537267386
 21
-7.2722470392
  0
LINE
  5
2F9
100
AcDbEntity
  8
0
100
AcDbLine
 62
7
  6
CONTINUOUS
 10
-3.8449998708
 20
-7.2499161626
 11
4.6550001292
 21
-7.2499161626
  0
LINE
  5
2FA
100
AcDbEntity
  8
RACCORDO
100
AcDbLine
 62
7
  6
CONTINUOUS
 10
10.1950416369
 20
-6.4275852859
 11
10.063726997
 21
-6.4275852859
  0
LINE
  5
2FB
100
AcDbEntity
  8
RACCORDO
100
AcDbLine
 62
7
  6
CONTINUOUS
 10
-9.3850413784
 20
-6.4275852859
 11
-9.2537267386
 21
-6.4275852859
  0
LINE
  5
2FC
100
AcDbEntity
  8
DRAFT
100
AcDbLine
 62
7
  6
CONTINUOUS
 10
9.9860578737
 20
-6.3499161626
 11
9.4050001292
 21
-6.3499161626
  0
LINE
  5
2FD
100
AcDbEntity
  8
DRAFT
100
AcDbLine
 62
7
  6
CONTINUOUS
 10
-9.1760576152
 20
-6.3499161626
 11
-8.5949998708
 21
-6.3499161626
  0
LINE
  5
2FE
100
AcDbEntity
  8
RACCORDO
100
AcDbLine
 62
7
  6
CONTINUOUS
 10
9.617287326
 20
-7.2617520553
 11
10.0071031127
 21
-7.2710986186
  0
LINE
  5
2FF
100
AcDbEntity
  8
RACCORDO
100
AcDbLine
 62
7
  6
CONTINUOUS
 10
-9.1971028543
 20
-6.4287337065
 11
-8.8072870676
 21
-6.4380802698
  0
LWPOLYLINE
  5
300
100
AcDbEntity
  8
RACCORDO
100
AcDbPolyline
 62
250
  6
CONTINUOUS
 90
8
 70
0
 10
7.5613705337
 20
-16.3912454946
 10
7.5810366084
 20
-16.4084948064
 10
7.598283293
 20
-16.4281638769
 10
7.612815492
 20
-16.4499161626
 10
7.6243845555
 20
-16.4733794762
 10
7.6327925335
 20
-16.4981523536
 10
7.6378955631
 20
-16.5238109241
 10
7.6396063303
 20
-16.5499161626
  0
LINE
  5
301
100
AcDbEntity
  8
RACCORDO
100
AcDbLine
 62
7
  6
CONTINUOUS
 10
6.9218767
 20
-18.2837575539
 11
7.0608703369
 21
-18.4227511908
  0
LWPOLYLINE
  5
302
100
AcDbEntity
  8
RACCORDO
100
AcDbPolyline
 62
7
  6
CONTINUOUS
 90
10
 70
0
 10
-6.2150663269
 20
-16.5499161626
 10
-6.2167887317
 20
-16.5239213872
 10
-6.2218734563
 20
-16.4983805689
 10
-6.230239536
 20
-16.4737131367
 10
-6.2417475896
 20
-16.4503166187
 10
-6.2562083911
 20
-16.4285861035
 10
-6.2733903431
 20
-16.4089104284
 10
-6.2930160213
 20
-16.3916183731
 10
-6.314750718
 20
-16.377006819
 10
-6.3382133004
 20
-16.3653580437
  0
LINE
  5
303
100
AcDbEntity
  8
RACCORDO
100
AcDbLine
 62
250
  6
CONTINUOUS
 10
-6.704410795
 20
-16.3499161626
 11
-6.9144624278
 21
-13.1254557781
  0
LWPOLYLINE
  5
304
100
AcDbEntity
  8
RACCORDO
100
AcDbPolyline
 62
250
  6
CONTINUOUS
 90
8
 70
0
 10
-6.8266158484
 20
-16.6038193645
 10
-6.8270257739
 20
-16.5888671008
 10
-6.8274516453
 20
-16.5765291915
 10
-6.8278931117
 20
-16.5665762232
 10
-6.8283311862
 20
-16.5589447779
 10
-6.8287595399
 20
-16.5536137164
 10
-6.8291845018
 20
-16.5506041779
 10
-6.8296060718
 20
-16.5499161626
  0
LWPOLYLINE
  5
305
100
AcDbEntity
  8
RACCORDO
100
AcDbPolyline
 62
250
  6
CONTINUOUS
 90
6
 70
0
 10
-6.6274817577
 20
-16.3941544469
 10
-6.6279233077
 20
-16.3774849469
 10
-6.6283614616
 20
-16.3649711067
 10
-6.6287898814
 20
-16.3564157739
 10
-6.6292149051
 20
-16.3514918135
 10
-6.6296365328
 20
-16.3499161626
  0
LINE
  5
306
100
AcDbEntity
  8
RACCORDO
100
AcDbLine
 62
250
  6
CONTINUOUS
 10
-6.8258607158
 20
-16.6402538917
 11
-6.8266158484
 21
-16.6038193645
  0
LINE
  5
307
100
AcDbEntity
  8
RACCORDO
100
AcDbLine
 62
250
  6
CONTINUOUS
 10
-6.8369285696
 20
22.9867467449
 11
-6.8243695523
 21
22.267241125
  0
LINE
  5
308
100
AcDbEntity
  8
RACCORDO
100
AcDbLine
 62
250
  6
CONTINUOUS
 10
-6.6266458703
 20
-16.4396614662
 11
-6.6274817577
 21
-16.3941544469
  0
LINE
  5
309
100
AcDbEntity
  8
RACCORDO
100
AcDbLine
 62
250
  6
CONTINUOUS
 10
-6.825246179
 20
-16.6840230976
 11
-6.8258607158
 21
-16.6402538917
  0
LINE
  5
30A
100
AcDbEntity
  8
RACCORDO
100
AcDbLine
 62
250
  6
CONTINUOUS
 10
-6.62589075
 20
-16.5005385747
 11
-6.6266458703
 21
-16.4396614662
  0
LINE
  5
30B
100
AcDbEntity
  8
RACCORDO
100
AcDbLine
 62
250
  6
CONTINUOUS
 10
-6.4506038306
 20
-18.5938088959
 11
-6.4548391025
 21
-18.1084948063
  0
LINE
  5
30C
100
AcDbEntity
  8
RACCORDO
100
AcDbLine
 62
250
  6
CONTINUOUS
 10
-6.2508700785
 20
-18.4227511908
 11
-6.2548467179
 21
-17.9670734501
  0
LINE
  5
30D
100
AcDbEntity
  8
RACCORDO
100
AcDbLine
 62
250
  6
CONTINUOUS
 10
-6.8246326782
 20
-16.7565671873
 11
-6.825246179
 21
-16.6840230976
  0
LINE
  5
30E
100
AcDbEntity
  8
RACCORDO
100
AcDbLine
 62
250
  6
CONTINUOUS
 10
-6.6248244906
 20
-16.6530634
 11
-6.62589075
 21
-16.5005385747
  0
LINE
  5
30F
100
AcDbEntity
  8
RACCORDO
100
AcDbLine
 62
250
  6
CONTINUOUS
 10
-6.4542545725
 20
20.8354750835
 11
-6.4535098474
 21
20.7148786576
  0
LINE
  5
310
100
AcDbEntity
  8
RACCORDO
100
AcDbLine
 62
250
  6
CONTINUOUS
 10
-6.8243776943
 20
-16.8274307055
 11
-6.8246326782
 21
-16.7565671873
  0
LINE
  5
311
100
AcDbEntity
  8
RACCORDO
100
AcDbLine
 62
250
  6
CONTINUOUS
 10
-7.7949998708
 20
1.4500838374
 11
-7.7949998708
 21
-9.0499161626
  0
LINE
  5
312
100
AcDbEntity
  8
0
100
AcDbLine
 62
7
  6
CONTINUOUS
 10
-7.7699998708
 20
5.1500838374
 11
-7.7699998708
 21
10.0500838374
  0
LINE
  5
313
100
AcDbEntity
  8
Z030100_COP
100
AcDbLine
 62
7
  6
CONTINUOUS
 10
-7.7449998708
 20
10.0750838374
 11
-7.7449998708
 21
10.9500838374
  0
LINE
  5
314
100
AcDbEntity
  8
DRAFT
100
AcDbLine
 62
7
  6
CONTINUOUS
 10
-7.0949998708
 20
-10.6499161626
 11
-7.0949998708
 21
-9.0499161626
  0
LINE
  5
315
100
AcDbEntity
  8
DRAFT
100
AcDbLine
 62
7
  6
CONTINUOUS
 10
-7.0775461352
 20
-10.6673698981
 11
-7.0775461352
 21
-9.0499161626
  0
LINE
  5
316
100
AcDbEntity
  8
RACCORDO
100
AcDbLine
 62
7
  6
CONTINUOUS
 10
-7.0051131325
 20
-11.3617671822
 11
-7.0051131325
 21
-12.4600484628
  0
LINE
  5
317
100
AcDbEntity
  8
RACCORDO
100
AcDbLine
 62
7
  6
CONTINUOUS
 10
-6.9949998708
 20
-10.0999161626
 11
-6.9949998708
 21
-9.0499161626
  0
LINE
  5
318
100
AcDbEntity
  8
RACCORDO
100
AcDbLine
 62
250
  6
CONTINUOUS
 10
-6.8243695523
 20
-17.9670734501
 11
-6.8243776943
 21
-16.8274307055
  0
LINE
  5
319
100
AcDbEntity
  8
RACCORDO
100
AcDbLine
 62
250
  6
CONTINUOUS
 10
-6.6244000133
 20
-18.1084948063
 11
-6.6248244906
 21
-16.6530634
  0
LINE
  5
31A
100
AcDbEntity
  8
RACCORDO
100
AcDbLine
 62
250
  6
CONTINUOUS
 10
-6.4548391025
 20
22.4086624812
 11
-6.4542545725
 21
20.8354750835
  0
LINE
  5
31B
100
AcDbEntity
  8
RACCORDO
100
AcDbLine
 62
250
  6
CONTINUOUS
 10
-6.3089943883
 20
-12.9600294243
 11
-6.3089943883
 21
-12.5358607231
  0
LINE
  5
31C
100
AcDbEntity
  8
RACCORDO
100
AcDbLine
 62
250
  6
CONTINUOUS
 10
-6.8243695523
 20
22.267241125
 11
-6.8245239899
 21
21.0777695668
  0
LINE
  5
31D
100
AcDbEntity
  8
RACCORDO
100
AcDbLine
 62
250
  6
CONTINUOUS
 10
-6.4548391025
 20
-18.1084948063
 11
-6.4542319805
 21
-16.53003533
  0
LINE
  5
31E
100
AcDbEntity
  8
RACCORDO
100
AcDbLine
 62
250
  6
CONTINUOUS
 10
-6.6244000133
 20
22.4086624812
 11
-6.6248547043
 21
20.9466690438
  0
LINE
  5
31F
100
AcDbEntity
  8
RACCORDO
100
AcDbLine
 62
250
  6
CONTINUOUS
 10
-6.4542319805
 20
-16.53003533
 11
-6.4536948258
 21
-16.4368084198
  0
LINE
  5
320
100
AcDbEntity
  8
RACCORDO
100
AcDbLine
 62
250
  6
CONTINUOUS
 10
-6.8245239899
 20
21.0777695668
 11
-6.8250345273
 21
21.0037879064
  0
LINE
  5
321
100
AcDbEntity
  8
RACCORDO
100
AcDbLine
 62
250
  6
CONTINUOUS
 10
-6.4548391025
 20
22.4086624812
 11
-6.4506038306
 21
22.8939765708
  0
LINE
  5
322
100
AcDbEntity
  8
RACCORDO
100
AcDbLine
 62
250
  6
CONTINUOUS
 10
-6.2508700785
 20
22.7229188657
 11
-6.2548467179
 21
22.267241125
  0
LINE
  5
323
100
AcDbEntity
  8
RACCORDO
100
AcDbLine
 62
250
  6
CONTINUOUS
 10
-6.6248547043
 20
20.9466690438
 11
-6.6259369069
 21
20.7962497553
  0
LINE
  5
324
100
AcDbEntity
  8
RACCORDO
100
AcDbLine
 62
250
  6
CONTINUOUS
 10
-6.8250345273
 20
21.0037879064
 11
-6.8255818778
 21
20.9582693284
  0
LINE
  5
325
100
AcDbEntity
  8
RACCORDO
100
AcDbLine
 62
250
  6
CONTINUOUS
 10
-6.6259369069
 20
20.7962497553
 11
-6.6266858173
 21
20.7371673064
  0
LINE
  5
326
100
AcDbEntity
  8
RACCORDO
100
AcDbLine
 62
250
  6
CONTINUOUS
 10
-6.8369285696
 20
-18.68657907
 11
-6.8243695523
 21
-17.9670734501
  0
LWPOLYLINE
  5
327
100
AcDbEntity
  8
RACCORDO
100
AcDbPolyline
 62
250
  6
CONTINUOUS
 90
10
 70
0
 10
-6.8255818778
 20
20.9582693284
 10
-6.8262658021
 20
20.9191662938
 10
-6.8266559459
 20
20.9023812025
 10
-6.8270611159
 20
20.8879047884
 10
-6.8274821486
 20
20.8759240965
 10
-6.8279182076
 20
20.866252082
 10
-6.8283505079
 20
20.858837203
 10
-6.8287727879
 20
20.8536622789
 10
-6.8291913092
 20
20.8507444904
 10
-6.8296060718
 20
20.8500838374
  0
LWPOLYLINE
  5
328
100
AcDbEntity
  8
RACCORDO
100
AcDbPolyline
 62
250
  6
CONTINUOUS
 90
7
 70
0
 10
-6.6266858173
 20
20.7371673064
 10
-6.6275117666
 20
20.6930332556
 10
-6.6279476003
 20
20.6768435477
 10
-6.628379851
 20
20.6646936215
 10
-6.6288023278
 20
20.6563908655
 10
-6.6292212218
 20
20.651612763
 10
-6.6296365328
 20
20.6500838374
  0
LWPOLYLINE
  5
329
100
AcDbEntity
  8
RACCORDO
100
AcDbPolyline
 62
7
  6
CONTINUOUS
 90
13
 70
0
 10
-6.1103191732
 20
17.6339339069
 10
-6.1120642784
 20
17.6062905799
 10
-6.1172710869
 20
17.5792764833
 10
-6.1258203405
 20
17.553322857
 10
-6.1375297746
 20
17.5288218159
 10
-6.1521755172
 20
17.5061690387
 10
-6.1695092745
 20
17.4857657374
 10
-6.1892517369
 20
17.4679151329
 10
-6.211032867
 20
17.4529080457
 10
-6.2344065804
 20
17.4410480457
 10
-6.2589353882
 20
17.4325076005
 10
-6.2842154975
 20
17.4273526914
 10
-6.3098189406
 20
17.425623453
  0
LINE
  5
32A
100
AcDbEntity
  8
RACCORDO
100
AcDbLine
 62
250
  6
CONTINUOUS
 10
-6.9144624278
 20
17.425623453
 11
-6.704410795
 21
20.6500838374
  0
LWPOLYLINE
  5
32B
100
AcDbEntity
  8
RACCORDO
100
AcDbPolyline
 62
250
  6
CONTINUOUS
 90
9
 70
0
 10
-6.2522286575
 20
20.8500838374
 10
-6.2539396201
 20
20.823978599
 10
-6.2590432328
 20
20.7983200284
 10
-6.2674521714
 20
20.773547151
 10
-6.2790225565
 20
20.7500838374
 10
-6.2935564158
 20
20.7283315516
 10
-6.3108050708
 20
20.7086624812
 10
-6.3304733923
 20
20.6914131694
 10
-6.3431954601
 20
20.6824159598
  0
LWPOLYLINE
  5
32C
100
AcDbEntity
  8
RACCORDO
100
AcDbPolyline
 62
7
  6
CONTINUOUS
 90
10
 70
0
 10
-6.2150663269
 20
20.8500838374
 10
-6.2167835951
 20
20.8241636717
 10
-6.2218534875
 20
20.7986463741
 10
-6.2302042709
 20
20.7739662069
 10
-6.2417096531
 20
20.7505437874
 10
-6.2561856711
 20
20.7287862383
 10
-6.2733903357
 20
20.7090781106
 10
-6.2930323433
 20
20.6917675335
 10
-6.3147872429
 20
20.6771532708
 10
-6.3382990676
 20
20.6654899465
  0
LWPOLYLINE
  5
32D
100
AcDbEntity
  8
0
100
AcDbPolyline
 62
7
  6
CONTINUOUS
 90
10
 70
0
 10
8.4446581252
 20
21.2082870603
 10
8.4258726092
 20
21.190146631
 10
8.4090972047
 20
21.1708366822
 10
8.3943319118
 20
21.1503572088
 10
8.3814521342
 20
21.1285959749
 10
8.3705824681
 20
21.1056652046
 10
8.3620967025
 20
21.0819015846
 10
8.3561194338
 20
21.0574173412
 10
8.3525260656
 20
21.0321002393
 10
8.3513165979
 20
21.0059502741
  0
LWPOLYLINE
  5
32E
100
AcDbEntity
  8
0
100
AcDbPolyline
 62
7
  6
CONTINUOUS
 90
10
 70
0
 10
9.0614122227
 20
20.6406704948
 10
9.0294578399
 20
20.6129570942
 10
8.9953414824
 20
20.5886039843
 10
8.9590631502
 20
20.5676111836
 10
8.9202765656
 20
20.5499962382
 10
8.8793280063
 20
20.535741631
 10
8.8372563054
 20
20.5247947815
 10
8.7944077408
 20
20.5171381673
 10
8.7504360346
 20
20.5127893245
 10
8.705341187
 20
20.5117482563
  0
LWPOLYLINE
  5
32F
100
AcDbEntity
  8
0
100
AcDbPolyline
 62
7
  6
CONTINUOUS
 90
37
 70
0
 10
5.0714354343
 20
16.5074949454
 10
5.040674685
 20
16.483352605
 10
5.0144561703
 20
16.457722014
 10
4.9927798904
 20
16.430603166
 10
4.9758178243
 20
16.4015001159
 10
4.9633979928
 20
16.3709087929
 10
4.9550044586
 20
16.3403170087
 10
4.9506072997
 20
16.3099735401
 10
4.9502364381
 20
16.2796296114
 10
4.9534657015
 20
16.2500267182
 10
4.9602211121
 20
16.2210498757
 10
4.9705766477
 20
16.1928140759
 10
4.9843280697
 20
16.166405788
 10
5.0019960747
 20
16.1419208078
 10
5.023059966
 20
16.1192633556
 10
5.0457534152
 20
16.0992325449
 10
5.0699647095
 20
16.0822758926
 10
5.0958055618
 20
16.0679458992
 10
5.1218447822
 20
16.0556991522
 10
5.1477255554
 20
16.0456842911
 10
5.1738046967
 20
16.0377526845
 10
5.1997214632
 20
16.03091501
 10
5.2254140395
 20
16.0250103059
 10
5.250944241
 20
16.0201995361
 10
5.2761367704
 20
16.0159762648
 10
5.3009033286
 20
16.0122264957
 10
5.3253322148
 20
16.0090642258
 10
5.3495130302
 20
16.0063250078
 10
5.3734198987
 20
16.0039899092
 10
5.3970786965
 20
16.0020778629
 10
5.4206566527
 20
16.00048122
 10
5.4441832011
 20
15.9991899011
 10
5.467628908
 20
15.9982139857
 10
5.4910727006
 20
15.9974760638
 10
5.5145408883
 20
15.996950332
 10
5.5380071618
 20
15.9966625936
 10
5.5848171136
 20
15.9966496616
  0
LWPOLYLINE
  5
330
100
AcDbEntity
  8
0
100
AcDbPolyline
 62
7
  6
CONTINUOUS
 90
16
 70
0
 10
6.051507592
 20
16.0826535814
 10
6.0816060124
 20
16.1059474047
 10
6.1074398608
 20
16.1309681662
 10
6.1290091373
 20
16.1577158586
 10
6.146365335
 20
16.1865585157
 10
6.1594569608
 20
16.2171280861
 10
6.1681295351
 20
16.2483204393
 10
6.1723109096
 20
16.2802298875
 10
6.1720732327
 20
16.3127621111
 10
6.1674784691
 20
16.3445300458
 10
6.1584558916
 20
16.3754076248
 10
6.1450762276
 20
16.4055209232
 10
6.1276136242
 20
16.4338611017
 10
6.1061594639
 20
16.4600918884
 10
6.0806223642
 20
16.4845495729
 10
6.0510023253
 20
16.5072341626
  0
LWPOLYLINE
  5
331
100
AcDbEntity
  8
0
100
AcDbPolyline
 62
7
  6
CONTINUOUS
 90
10
 70
0
 10
8.4732458528
 20
16.5517526843
 10
8.4496461886
 20
16.5342080897
 10
8.428386516
 20
16.5151124992
 10
8.4094668348
 20
16.4944659078
 10
8.3926564774
 20
16.4723013317
 10
8.3781861114
 20
16.4485857432
 10
8.3667477402
 20
16.4232200709
 10
8.3585720314
 20
16.3961712857
 10
8.3534283173
 20
16.3674724017
 10
8.3513165979
 20
16.3371234109
  0
LWPOLYLINE
  5
332
100
AcDbEntity
  8
0
100
AcDbPolyline
 62
7
  6
CONTINUOUS
 90
7
 70
0
 10
8.3883851465
 20
16.7010181697
 10
8.4210675749
 20
16.7205607069
 10
8.4555318532
 20
16.7385177034
 10
8.4917779814
 20
16.7548891643
 10
8.5298059596
 20
16.769675094
 10
8.5696157877
 20
16.7828754967
 10
8.6112074658
 20
16.7944903761
  0
LINE
  5
333
100
AcDbEntity
  8
DRAFT
100
AcDbLine
 62
7
  6
CONTINUOUS
 10
-9.2537267386
 20
0.4277529608
 11
-9.1760576152
 21
0.3500838374
  0
LINE
  5
334
100
AcDbEntity
  8
0
100
AcDbLine
 62
7
  6
CONTINUOUS
 10
-8.3949998708
 20
1.4500838374
 11
-8.4949998708
 21
1.5500838374
  0
LWPOLYLINE
  5
335
100
AcDbEntity
  8
RACCORDO
100
AcDbPolyline
 62
7
  6
CONTINUOUS
 90
12
 70
0
 10
-6.903936394
 20
20.8500838374
 10
-6.9021841696
 20
20.8240820348
 10
-6.8970704212
 20
20.7985444248
 10
-6.888681003
 20
20.7738895322
 10
-6.8771619255
 20
20.750516054
 10
-6.8627049395
 20
20.7288128295
 10
-6.8455361677
 20
20.709157531
 10
-6.8259256393
 20
20.6918726271
 10
-6.8042126297
 20
20.6772607014
 10
-6.7807901761
 20
20.6656087317
 10
-6.756069099
 20
20.6571187794
 10
-6.730463544
 20
20.6519157506
  0
LINE
  5
336
100
AcDbEntity
  8
RACCORDO
100
AcDbLine
 62
250
  6
CONTINUOUS
 10
-6.4148367584
 20
20.6500838374
 11
-6.3098189406
 21
17.425623453
  0
LINE
  5
337
100
AcDbEntity
  8
RACCORDO
100
AcDbLine
 62
250
  6
CONTINUOUS
 10
-6.2150663269
 20
20.8500838374
 11
-6.1103191732
 21
17.6339339069
  0
LWPOLYLINE
  5
338
100
AcDbEntity
  8
RACCORDO
100
AcDbPolyline
 62
250
  6
CONTINUOUS
 90
4
 70
0
 10
-6.4528576771
 20
20.6650979373
 10
-6.4526437393
 20
20.6565651684
 10
-6.4524315277
 20
20.6516549001
 10
-6.4522210422
 20
20.6500838374
  0
LINE
  5
339
100
AcDbEntity
  8
RACCORDO
100
AcDbLine
 62
250
  6
CONTINUOUS
 10
-5.0392024578
 20
12.4500838374
 11
-5.0944814721
 21
14.7555978295
  0
LINE
  5
33A
100
AcDbEntity
  8
RACCORDO
100
AcDbLine
 62
250
  6
CONTINUOUS
 10
-4.8347038952
 20
12.4500838374
 11
-4.8950240106
 21
14.9658463134
  0
LWPOLYLINE
  5
33B
100
AcDbEntity
  8
RACCORDO
100
AcDbPolyline
 62
250
  6
CONTINUOUS
 90
6
 70
0
 10
-6.2533044806
 20
20.8766275685
 10
-6.2530839792
 20
20.8666995358
 10
-6.2528652018
 20
20.8590880295
 10
-6.2526512965
 20
20.8537701057
 10
-6.2524391151
 20
20.8507687083
 10
-6.2522286575
 20
20.8500838374
  0
LINE
  5
33C
100
AcDbEntity
  8
RACCORDO
100
AcDbLine
 62
250
  6
CONTINUOUS
 10
-6.6375071589
 20
23.1595703488
 11
-6.6244000133
 21
22.4086624812
  0
LINE
  5
33D
100
AcDbEntity
  8
RACCORDO
100
AcDbLine
 62
250
  6
CONTINUOUS
 10
-6.2537221667
 20
20.9038685922
 11
-6.2533044806
 21
20.8766275685
  0
LWPOLYLINE
  5
33E
100
AcDbEntity
  8
RACCORDO
100
AcDbPolyline
 62
250
  6
CONTINUOUS
 90
3
 70
0
 10
-6.4535098474
 20
20.7148786576
 10
-6.4532970367
 20
20.6942087513
 10
-6.4528576771
 20
20.6650979373
  0
LINE
  5
33F
100
AcDbEntity
  8
RACCORDO
100
AcDbLine
 62
250
  6
CONTINUOUS
 10
-6.2542620039
 20
20.9612595941
 11
-6.2537221667
 21
20.9038685922
  0
LINE
  5
340
100
AcDbEntity
  8
RACCORDO
100
AcDbLine
 62
250
  6
CONTINUOUS
 10
-6.254776426
 20
21.081034391
 11
-6.2542620039
 21
20.9612595941
  0
LINE
  5
341
100
AcDbEntity
  8
RACCORDO
100
AcDbLine
 62
250
  6
CONTINUOUS
 10
-6.2548467179
 20
21.1500838374
 11
-6.254776426
 21
21.081034391
  0
LINE
  5
342
100
AcDbEntity
  8
RACCORDO
100
AcDbLine
 62
7
  6
CONTINUOUS
 10
-6.2548467179
 20
22.267241125
 11
-6.2548467179
 21
21.1500838374
  0
LINE
  5
343
100
AcDbEntity
  8
RACCORDO
100
AcDbLine
 62
7
  6
CONTINUOUS
 10
-6.2548467179
 20
-17.9670734501
 11
-6.2548467179
 21
-16.8499161626
  0
LINE
  5
344
100
AcDbEntity
  8
RACCORDO
100
AcDbLine
 62
250
  6
CONTINUOUS
 10
-6.1090248493
 20
-12.9617443369
 11
-6.1090248493
 21
-12.5358607231
  0
LINE
  5
345
100
AcDbEntity
  8
RACCORDO
100
AcDbLine
 62
7
  6
CONTINUOUS
 10
-6.0949998708
 20
1.4500838374
 11
-6.0949998708
 21
-0.9499161626
  0
LINE
  5
346
100
AcDbEntity
  8
RACCORDO
100
AcDbLine
 62
7
  6
CONTINUOUS
 10
-6.0949998708
 20
-10.0999161626
 11
-6.0949998708
 21
-10.3499161626
  0
LINE
  5
347
100
AcDbEntity
  8
DRAFT
100
AcDbLine
 62
7
  6
CONTINUOUS
 10
-6.0949998708
 20
-10.7398029008
 11
-6.0949998708
 21
-11.4499161626
  0
LINE
  5
348
100
AcDbEntity
  8
RACCORDO
100
AcDbLine
 62
7
  6
CONTINUOUS
 10
-6.0949998708
 20
-12.5498857016
 11
-6.0949998708
 21
-12.9687562921
  0
LINE
  5
349
100
AcDbEntity
  8
DRAFT
100
AcDbLine
 62
7
  6
CONTINUOUS
 10
-6.0949998708
 20
-10.7335512792
 11
-6.0949998708
 21
-10.3499161626
  0
LINE
  5
34A
100
AcDbEntity
  8
Z030100_COP
100
AcDbLine
 62
7
  6
CONTINUOUS
 10
-5.9449998708
 20
10.9500838374
 11
-5.9449998708
 21
10.7500838374
  0
LINE
  5
34B
100
AcDbEntity
  8
RACCORDO
100
AcDbLine
 62
250
  6
CONTINUOUS
 10
-5.9090553105
 20
-12.135921645
 11
-5.9090553104
 21
-12.335891184
  0
LINE
  5
34C
100
AcDbEntity
  8
RACCORDO
100
AcDbLine
 62
250
  6
CONTINUOUS
 10
-5.5949998708
 20
1.4500838374
 11
-5.5949998708
 21
-0.9499161626
  0
LINE
  5
34D
100
AcDbEntity
  8
RACCORDO
100
AcDbLine
 62
7
  6
CONTINUOUS
 10
-5.5949998708
 20
-10.8499161626
 11
-5.5949998708
 21
-10.0999161626
  0
LINE
  5
34E
100
AcDbEntity
  8
RACCORDO
100
AcDbLine
 62
7
  6
CONTINUOUS
 10
-5.4949998708
 20
-10.0999161626
 11
-5.4949998708
 21
-9.0499161626
  0
LINE
  5
34F
100
AcDbEntity
  8
Z030100_COP
100
AcDbLine
 62
7
  6
CONTINUOUS
 10
-5.0449998708
 20
10.9500838374
 11
-5.0449998708
 21
10.7500838374
  0
LINE
  5
350
100
AcDbEntity
  8
RACCORDO
100
AcDbLine
 62
250
  6
CONTINUOUS
 10
-6.2548467179
 20
-16.8499161626
 11
-6.2545134712
 21
-16.7034595043
  0
LINE
  5
351
100
AcDbEntity
  8
RACCORDO
100
AcDbLine
 62
250
  6
CONTINUOUS
 10
-6.2545134712
 20
-16.7034595043
 11
-6.2538972424
 21
-16.6188620983
  0
LINE
  5
352
100
AcDbEntity
  8
RACCORDO
100
AcDbLine
 62
250
  6
CONTINUOUS
 10
-6.4536948258
 20
-16.4368084198
 11
-6.4532820721
 21
-16.3927574057
  0
LWPOLYLINE
  5
353
100
AcDbEntity
  8
RACCORDO
100
AcDbPolyline
 62
250
  6
CONTINUOUS
 90
8
 70
0
 10
-6.2538972424
 20
-16.6188620983
 10
-6.2534996502
 20
-16.5876486627
 10
-6.2532892866
 20
-16.5756913478
 10
-6.2530714787
 20
-16.5660426893
 10
-6.2528555768
 20
-16.5586464639
 10
-6.2526446977
 20
-16.5534839304
 10
-6.2524357246
 20
-16.55057383
 10
-6.2522286575
 20
-16.5499161626
  0
LINE
  5
354
100
AcDbEntity
  8
RACCORDO
100
AcDbLine
 62
250
  6
CONTINUOUS
 10
-6.6375071589
 20
-18.8594026739
 11
-6.6244000133
 21
-18.1084948063
  0
LWPOLYLINE
  5
355
100
AcDbEntity
  8
RACCORDO
100
AcDbPolyline
 62
250
  6
CONTINUOUS
 90
5
 70
0
 10
-6.4532820721
 20
-16.3927574057
 10
-6.4528485047
 20
-16.3644867519
 10
-6.4526375313
 20
-16.3562056245
 10
-6.4524283771
 20
-16.351440673
 10
-6.4522210422
 20
-16.3499161626
  0
LINE
  5
356
100
AcDbEntity
  8
RACCORDO
100
AcDbLine
 62
250
  6
CONTINUOUS
 10
-4.294975731
 20
14.9658463134
 11
-4.3552958463
 21
12.4500838374
  0
LINE
  5
357
100
AcDbEntity
  8
RACCORDO
100
AcDbLine
 62
250
  6
CONTINUOUS
 10
-6.3098189406
 20
-13.1254557781
 11
-6.4148367584
 21
-16.3499161626
  0
LINE
  5
358
100
AcDbEntity
  8
RACCORDO
100
AcDbLine
 62
250
  6
CONTINUOUS
 10
-6.1103191732
 20
-13.333766232
 11
-6.2150663269
 21
-16.5499161626
  0
LWPOLYLINE
  5
359
100
AcDbEntity
  8
RACCORDO
100
AcDbPolyline
 62
7
  6
CONTINUOUS
 90
13
 70
0
 10
-7.1134773752
 20
-13.3332946876
 10
-7.111745788
 20
-13.3056924531
 10
-7.106559419
 20
-13.2787268416
 10
-7.0980388489
 20
-13.2528271444
 10
-7.0863686141
 20
-13.2283851801
 10
-7.0717718263
 20
-13.2057926689
 10
-7.0544917829
 20
-13.1854440442
 10
-7.0348057068
 20
-13.1676414325
 10
-7.0130824915
 20
-13.1526752056
 10
-6.9897626881
 20
-13.1408451907
 10
-6.9652802421
 20
-13.1323238766
 10
-6.9400380846
 20
-13.1271800661
 10
-6.9144624278
 20
-13.1254557781
  0
LWPOLYLINE
  5
35A
100
AcDbEntity
  8
RACCORDO
100
AcDbPolyline
 62
7
  6
CONTINUOUS
 90
13
 70
0
 10
-5.0944814721
 20
14.7555978295
 10
-5.0927100152
 20
14.7836438593
 10
-5.0874577272
 20
14.8109929767
 10
-5.0788540847
 20
14.8372238077
 10
-5.0670933058
 20
14.861965027
 10
-5.0524075123
 20
14.8848252678
 10
-5.0350451964
 20
14.9053884984
 10
-5.0152832688
 20
14.9233630388
 10
-4.9934995975
 20
14.9384689168
 10
-4.9701533933
 20
14.9503871637
 10
-4.9456881034
 20
14.9589501797
 10
-4.9205033639
 20
14.9641131472
 10
-4.8950240106
 20
14.9658463134
  0
LWPOLYLINE
  5
35B
100
AcDbEntity
  8
RACCORDO
100
AcDbPolyline
 62
250
  6
CONTINUOUS
 90
9
 70
0
 10
-6.8296060718
 20
-16.5499161626
 10
-6.8278953047
 20
-16.5238109241
 10
-6.822792275
 20
-16.4981523535
 10
-6.814384297
 20
-16.4733794761
 10
-6.8028152335
 20
-16.4499161626
 10
-6.7882830345
 20
-16.4281638768
 10
-6.7710363498
 20
-16.4084948063
 10
-6.7513702751
 20
-16.3912454945
 10
-6.7393366845
 20
-16.3826971141
  0
LWPOLYLINE
  5
35C
100
AcDbEntity
  8
RACCORDO
100
AcDbPolyline
 62
250
  6
CONTINUOUS
 90
13
 70
0
 10
-6.1090248493
 20
-12.5358607231
 10
-6.1073084575
 20
-12.5096471851
 10
-6.1021791293
 20
-12.4839142233
 10
-6.0937357482
 20
-12.4591022201
 10
-6.0821348717
 20
-12.4356357337
 10
-6.0675840873
 20
-12.4139094178
 10
-6.0503352201
 20
-12.3942833171
 10
-6.0306962983
 20
-12.3770937492
 10
-6.0090006115
 20
-12.3626195753
 10
-5.9855858776
 20
-12.35108579
 10
-5.9608351094
 20
-12.3426921977
 10
-5.9351792776
 20
-12.3375957799
 10
-5.9090553103
 20
-12.335891184
  0
LWPOLYLINE
  5
35D
100
AcDbEntity
  8
RACCORDO
100
AcDbPolyline
 62
7
  6
CONTINUOUS
 90
12
 70
0
 10
-6.903936394
 20
-16.5499161626
 10
-6.9021945557
 20
-16.5240397307
 10
-6.8971105123
 20
-16.4985541119
 10
-6.8887516738
 20
-16.4738926673
 10
-6.8772378894
 20
-16.4504732397
 10
-6.8627504154
 20
-16.4287076052
 10
-6.8455361824
 20
-16.4089898709
 10
-6.8258929913
 20
-16.3916734075
 10
-6.8041395836
 20
-16.3770502684
 10
-6.7806186404
 20
-16.3653693687
 10
-6.755716755
 20
-16.3568486368
 10
-6.7298647534
 20
-16.3516604725
  0
LINE
  5
35E
100
AcDbEntity
  8
DRAFT
100
AcDbLine
 62
7
  6
CONTINUOUS
 10
-9.2449998708
 20
-18.7499161626
 11
-9.1788660082
 21
-18.3527600516
  0
LWPOLYLINE
  5
35F
100
AcDbEntity
  8
0
100
AcDbPolyline
 62
7
  6
CONTINUOUS
 90
7
 70
0
 10
8.4173153151
 20
19.9975970293
 10
8.3962643858
 20
19.9719822109
 10
8.3791657022
 20
19.9448464223
 10
8.3660192643
 20
19.9161896547
 10
8.356825072
 20
19.8860118988
 10
8.3515831255
 20
19.8543131448
 10
8.3502934246
 20
19.8210933825
  0
LWPOLYLINE
  5
360
100
AcDbEntity
  8
0
100
AcDbPolyline
 62
7
  6
CONTINUOUS
 90
10
 70
0
 10
9.0573193847
 20
20.0513116737
 10
9.0395602237
 20
20.031851685
 10
9.023945559
 20
20.0112646734
 10
9.0104753905
 20
19.989550634
 10
8.9991589043
 20
19.9665267658
 10
8.9899869143
 20
19.9423758584
 10
8.9829318627
 20
19.9176462953
 10
8.9779845635
 20
19.8925208702
 10
8.9751542027
 20
19.8668167839
 10
8.9744407802
 20
19.8405340334
  0
LWPOLYLINE
  5
361
100
AcDbEntity
  8
0
100
AcDbPolyline
 62
7
  6
CONTINUOUS
 90
10
 70
0
 10
8.9447682171
 20
20.7869868895
 10
8.9634555245
 20
20.8065395483
 10
8.9799697706
 20
20.8272679202
 10
8.9943109555
 20
20.8491719997
 10
9.0065138134
 20
20.8724166689
 10
9.0165436101
 20
20.8968370331
 10
9.0242961425
 20
20.9219384233
 10
9.0297366763
 20
20.9475559482
 10
9.0328999458
 20
20.9738544918
 10
9.033785951
 20
21.0008340498
  0
LWPOLYLINE
  5
362
100
AcDbEntity
  8
0
100
AcDbPolyline
 62
7
  6
CONTINUOUS
 90
10
 70
0
 10
9.6336300979
 20
20.6731880093
 10
9.609798378
 20
20.6485903183
 10
9.5840756259
 20
20.626422562
 10
9.5564618415
 20
20.6066847525
 10
9.5266951563
 20
20.5893736779
 10
9.4950374388
 20
20.5744925703
 10
9.4622742949
 20
20.5620511052
 10
9.428667593
 20
20.5520525119
 10
9.3939554647
 20
20.5444935735
 10
9.35813791
 20
20.5393742939
  0
LWPOLYLINE
  5
363
100
AcDbEntity
  8
0
100
AcDbPolyline
 62
7
  6
CONTINUOUS
 90
10
 70
0
 10
9.6142181583
 20
19.4954634209
 10
9.5869706103
 20
19.4676253116
 10
9.5578489751
 20
19.4426064066
 10
9.5268532527
 20
19.4204067207
 10
9.4937056066
 20
19.4009913649
 10
9.4586838733
 20
19.3843952526
 10
9.4226215624
 20
19.3707231007
 10
9.3857965104
 20
19.3600098199
 10
9.3479308808
 20
19.3522205144
 10
9.3090246736
 20
19.347355189
  0
LINE
  5
364
100
AcDbEntity
  8
DRAFT
100
AcDbLine
 62
7
  6
CONTINUOUS
 10
-9.2537267386
 20
1.2724147141
 11
-9.1760576152
 21
1.3500838374
  0
LWPOLYLINE
  5
365
100
AcDbEntity
  8
0
100
AcDbPolyline
 62
7
  6
CONTINUOUS
 90
10
 70
0
 10
8.4446581252
 20
17.7120388747
 10
8.425873625
 20
17.6938997678
 10
8.4090988951
 20
17.6745908204
 10
8.3943339354
 20
17.6541120283
 10
8.3814540331
 20
17.632351179
 10
8.370583901
 20
17.6094204755
 10
8.3620976776
 20
17.5856565379
 10
8.3561200757
 20
17.561171571
 10
8.3525263825
 20
17.5358533628
 10
8.3513165979
 20
17.5097019096
  0
LWPOLYLINE
  5
366
100
AcDbEntity
  8
0
100
AcDbPolyline
 62
7
  6
CONTINUOUS
 90
10
 70
0
 10
9.0614121334
 20
17.1444221345
 10
9.0294583392
 20
17.1167091272
 10
8.9953425163
 20
17.0923562957
 10
8.9590646645
 20
17.0713636548
 10
8.920278627
 20
17.053748717
 10
8.8793305607
 20
17.0394939934
 10
8.8372589365
 20
17.0285469935
 10
8.7944099112
 20
17.020890224
 10
8.7504373281
 20
17.0165411893
 10
8.705341187
 20
17.0154998919
  0
LWPOLYLINE
  5
367
100
AcDbEntity
  8
0
100
AcDbPolyline
 62
7
  6
CONTINUOUS
 90
10
 70
0
 10
9.4573875679
 20
16.1253225899
 10
9.4809816563
 20
16.1426880692
 10
9.5022601284
 20
16.161716414
 10
9.5212229842
 20
16.1824076187
 10
9.5381378052
 20
16.2048470391
 10
9.5527370099
 20
16.2289493069
 10
9.5642178536
 20
16.2544583318
 10
9.5723127547
 20
16.2812887464
 10
9.5772892947
 20
16.3095259055
 10
9.5791474736
 20
16.3391698023
  0
LWPOLYLINE
  5
368
100
AcDbEntity
  8
0
100
AcDbPolyline
 62
7
  6
CONTINUOUS
 90
25
 70
0
 10
9.5753517712
 20
15.9980693805
 10
9.5544485696
 20
15.982716021
 10
9.5329145106
 20
15.9684317119
 10
9.510749594
 20
15.9552164559
 10
9.4878490769
 20
15.9431183979
 10
9.4643177023
 20
15.9320893976
 10
9.4404696991
 20
15.9219850288
 10
9.416350166
 20
15.9128161829
 10
9.3919140044
 20
15.9045719717
 10
9.3673401471
 20
15.8970752982
 10
9.342680634
 20
15.8903213231
 10
9.3178834254
 20
15.8843148875
 10
9.2929713348
 20
15.8788934153
 10
9.2680224509
 20
15.8740461834
 10
9.242958685
 20
15.8697839157
 10
9.2175685843
 20
15.8659762066
 10
9.1918568984
 20
15.8625992693
 10
9.1658188776
 20
15.859676891
 10
9.1392288209
 20
15.8571500269
 10
9.112100838
 20
15.8550024293
 10
9.084420819
 20
15.8532503462
 10
9.055920733
 20
15.8518834754
 10
9.0265112362
 20
15.8508983829
 10
8.9962816723
 20
15.850298503
 10
8.9652320414
 20
15.8500838356
  0
LINE
  5
369
100
AcDbEntity
  8
RACCORDO
100
AcDbLine
 62
250
  6
CONTINUOUS
 10
7.4038693678
 20
-13.0487663627
 11
7.3151324295
 21
-12.9600294243
  0
LINE
  5
36A
100
AcDbEntity
  8
RACCORDO
100
AcDbLine
 62
250
  6
CONTINUOUS
 10
7.9039811988
 20
-12.5489162706
 11
7.815113391
 21
-12.4600484628
  0
LINE
  5
36B
100
AcDbEntity
  8
DRAFT
100
AcDbLine
 62
7
  6
CONTINUOUS
 10
-9.2449998708
 20
23.0500838374
 11
-9.1788660082
 21
22.6529277265
  0
LWPOLYLINE
  5
36C
100
AcDbEntity
  8
RACCORDO
100
AcDbPolyline
 62
250
  6
CONTINUOUS
 90
13
 70
0
 10
-6.2548467179
 20
22.267241125
 10
-6.2566689207
 20
22.2854431952
 10
-6.2618090773
 20
22.3033987872
 10
-6.2702122908
 20
22.3208029826
 10
-6.2817801775
 20
22.337371352
 10
-6.2963381224
 20
22.3527947559
 10
-6.3136087522
 20
22.3667578588
 10
-6.333282072
 20
22.3790123789
 10
-6.3550354465
 20
22.389359404
 10
-6.3784818381
 20
22.3976162963
 10
-6.403213086
 20
22.4036442831
 10
-6.4288111238
 20
22.407346166
 10
-6.4548391025
 20
22.4086624812
  0
LINE
  5
36D
100
AcDbEntity
  8
0
100
AcDbLine
 62
7
  6
CONTINUOUS
 10
-3.8449998708
 20
-7.2499161626
 11
-3.8449998708
 21
-9.0499161626
  0
LINE
  5
36E
100
AcDbEntity
  8
DRAFT
100
AcDbLine
 62
7
  6
CONTINUOUS
 10
-3.3449998708
 20
23.3500838374
 11
-3.3449998708
 21
23.3148690515
  0
LINE
  5
36F
100
AcDbEntity
  8
DRAFT
100
AcDbLine
 62
7
  6
CONTINUOUS
 10
-3.3449998708
 20
-19.0499161626
 11
-3.3449998708
 21
-19.0147013766
  0
LINE
  5
370
100
AcDbEntity
  8
Z030100_COP
100
AcDbLine
 62
7
  6
CONTINUOUS
 10
-3.2449998708
 20
10.1250838374
 11
-3.2449998708
 21
10.9500838374
  0
LINE
  5
371
100
AcDbEntity
  8
0
100
AcDbLine
 62
7
  6
CONTINUOUS
 10
-3.1699998708
 20
10.0500838374
 11
-3.1699998708
 21
5.1500838374
  0
LINE
  5
372
100
AcDbEntity
  8
0
100
AcDbLine
 62
7
  6
CONTINUOUS
 10
-2.9449998708
 20
6.7000838374
 11
-2.9449998708
 21
5.1500838374
  0
LINE
  5
373
100
AcDbEntity
  8
0
100
AcDbLine
 62
7
  6
CONTINUOUS
 10
-2.9200418708
 20
18.9019838374
 11
-2.9200418708
 21
19.2720158374
  0
LINE
  5
374
100
AcDbEntity
  8
0
100
AcDbLine
 62
7
  6
CONTINUOUS
 10
-2.9200418708
 20
20.1126928374
 11
-2.9200418708
 21
20.9791398374
  0
LINE
  5
375
100
AcDbEntity
  8
0
100
AcDbLine
 62
7
  6
CONTINUOUS
 10
-2.9200368708
 20
13.7069108374
 11
-2.9200368708
 21
14.0769288374
  0
LINE
  5
376
100
AcDbEntity
  8
0
100
AcDbLine
 62
7
  6
CONTINUOUS
 10
-2.9200368708
 20
14.8949208374
 11
-2.9200368708
 21
15.2649388374
  0
LINE
  5
377
100
AcDbEntity
  8
0
100
AcDbLine
 62
7
  6
CONTINUOUS
 10
-2.9200368708
 20
15.5116128374
 11
-2.9200368708
 21
15.8816268374
  0
LINE
  5
378
100
AcDbEntity
  8
0
100
AcDbLine
 62
7
  6
CONTINUOUS
 10
-2.9200368708
 20
16.2516268374
 11
-2.9200368708
 21
16.8109888374
  0
LINE
  5
379
100
AcDbEntity
  8
0
100
AcDbLine
 62
7
  6
CONTINUOUS
 10
-2.9200368708
 20
17.5019538374
 11
-2.9200368708
 21
18.0613158374
  0
LINE
  5
37A
100
AcDbEntity
  8
RACCORDO
100
AcDbLine
 62
250
  6
CONTINUOUS
 10
-4.0955182694
 20
14.7555978295
 11
-4.1507972837
 21
12.4500838374
  0
LWPOLYLINE
  5
37B
100
AcDbEntity
  8
0
100
AcDbPolyline
 62
7
  6
CONTINUOUS
 90
34
 70
0
 10
4.8340483925
 20
21.1313141355
 10
4.8518949805
 20
21.1679185019
 10
4.8731012615
 20
21.2018898244
 10
4.8963882438
 20
21.2327181602
 10
4.9218203352
 20
21.2602951132
 10
4.949333128
 20
21.2847291222
 10
4.9774544078
 20
21.3058354977
 10
5.0059746416
 20
21.3233810378
 10
5.0351033625
 20
21.3375989749
 10
5.0639969557
 20
21.3490042667
 10
5.092635153
 20
21.3574901685
 10
5.1210382226
 20
21.3631634382
 10
5.1484233546
 20
21.3668592807
 10
5.1745027415
 20
21.3686938541
 10
5.1995641908
 20
21.3685510029
 10
5.223688315
 20
21.3669174591
 10
5.246931729
 20
21.3639063439
 10
5.2692378178
 20
21.3594045346
 10
5.2905173496
 20
21.3535593961
 10
5.3107831139
 20
21.3463314373
 10
5.3300223212
 20
21.3377601452
 10
5.3481073707
 20
21.3281113524
 10
5.3649469126
 20
21.3173927586
 10
5.3806322967
 20
21.3055966589
 10
5.3953099714
 20
21.2929657797
 10
5.40896441
 20
21.2795197738
 10
5.4216111394
 20
21.2652389834
 10
5.4334431879
 20
21.2503071697
 10
5.444513179
 20
21.2347128908
 10
5.4547684894
 20
21.218467584
 10
5.4642442776
 20
21.2017893307
 10
5.4729522633
 20
21.1847508239
 10
5.4808807269
 20
21.1672793676
 10
5.4880296683
 20
21.1493749599
  0
LWPOLYLINE
  5
37C
100
AcDbEntity
  8
0
100
AcDbPolyline
 62
7
  6
CONTINUOUS
 90
7
 70
0
 10
9.5234170902
 20
20.8018614659
 10
9.541233567
 20
20.8263196591
 10
9.555638812
 20
20.8518719706
 10
9.5666328251
 20
20.8785183941
 10
9.5742156065
 20
20.9062589228
 10
9.5783871559
 20
20.9350935499
 10
9.5791474736
 20
20.9650222679
  0
LWPOLYLINE
  5
37D
100
AcDbEntity
  8
0
100
AcDbPolyline
 62
7
  6
CONTINUOUS
 90
7
 70
0
 10
8.2780062317
 20
21.2502598031
 10
8.3069169594
 20
21.2897116392
 10
8.3392462548
 20
21.3256765695
 10
8.3749941177
 20
21.3581546227
 10
8.4141605483
 20
21.3871458251
 10
8.4567455464
 20
21.4126502
 10
8.5027491121
 20
21.4346677681
  0
LWPOLYLINE
  5
37E
100
AcDbEntity
  8
0
100
AcDbPolyline
 62
7
  6
CONTINUOUS
 90
7
 70
0
 10
8.4173154918
 20
18.8321809694
 10
8.3962647129
 20
18.8065666744
 10
8.3791661077
 20
18.7794311989
 10
8.3660196762
 20
18.7507745347
 10
8.3568254186
 20
18.720596673
 10
8.3515833347
 20
18.6888976048
 10
8.3502934246
 20
18.6556773206
  0
LWPOLYLINE
  5
37F
100
AcDbEntity
  8
0
100
AcDbPolyline
 62
7
  6
CONTINUOUS
 90
10
 70
0
 10
9.5105936671
 20
19.6389652279
 10
9.5252519931
 20
19.6566196177
 10
9.5381447369
 20
19.6751171963
 10
9.5492718985
 20
19.6944579604
 10
9.5586264474
 20
19.7147538763
 10
9.566215414
 20
19.7358929702
 10
9.5720598908
 20
19.7575393302
 10
9.5761669083
 20
19.7795809846
 10
9.5785294359
 20
19.8021299006
 10
9.5791474736
 20
19.8251860758
  0
LWPOLYLINE
  5
380
100
AcDbEntity
  8
0
100
AcDbPolyline
 62
7
  6
CONTINUOUS
 90
10
 70
0
 10
9.5105935782
 20
18.4735490672
 10
9.5252517161
 20
18.4912031447
 10
9.5381443396
 20
18.5097004875
 10
9.5492714485
 20
18.5290410925
 10
9.5586260364
 20
18.5493369209
 10
9.5662151098
 20
18.5704760044
 10
9.5720596883
 20
18.5921224469
 10
9.5761667784
 20
18.6141642819
 10
9.5785293735
 20
18.6367134717
 10
9.5791474736
 20
18.6597700139
  0
LWPOLYLINE
  5
381
100
AcDbEntity
  8
0
100
AcDbPolyline
 62
7
  6
CONTINUOUS
 90
10
 70
0
 10
9.0573192953
 20
18.8858955225
 10
9.0395603991
 20
18.8664359876
 10
9.0239459127
 20
18.8458493202
 10
9.0104758362
 20
18.8241355155
 10
8.9991593252
 20
18.8011117754
 10
8.989987224
 20
18.7769608874
 10
8.9829320656
 20
18.7522312275
 10
8.9779846943
 20
18.7271055868
 10
8.9751542658
 20
18.7014011692
 10
8.9744407802
 20
18.6751179715
  0
LWPOLYLINE
  5
382
100
AcDbEntity
  8
0
100
AcDbPolyline
 62
7
  6
CONTINUOUS
 90
10
 70
0
 10
8.9447682171
 20
17.2907387038
 10
8.9634546002
 20
17.3102899973
 10
8.9799682362
 20
17.3310173249
 10
8.994309125
 20
17.3529206822
 10
9.0065121119
 20
17.3761649287
 10
9.0165423516
 20
17.4005851946
 10
9.0242953089
 20
17.4256868832
 10
9.0297361387
 20
17.4513051279
 10
9.0328996861
 20
17.4776047894
 10
9.033785951
 20
17.5045858642
  0
LWPOLYLINE
  5
383
100
AcDbEntity
  8
0
100
AcDbPolyline
 62
7
  6
CONTINUOUS
 90
10
 70
0
 10
9.6336300979
 20
17.1769398233
 10
9.6097985092
 20
17.1523422644
 10
9.5840759073
 20
17.1301746124
 10
9.5564622923
 20
17.1104368771
 10
9.5266958647
 20
17.0931258458
 10
9.495038424
 20
17.0782447475
 10
9.4622753684
 20
17.0658032532
 10
9.4286684972
 20
17.0558045899
 10
9.3939560111
 20
17.0482455405
 10
9.35813791
 20
17.0431261083
  0
LWPOLYLINE
  5
384
100
AcDbEntity
  8
0
100
AcDbPolyline
 62
7
  6
CONTINUOUS
 90
10
 70
0
 10
9.6142182469
 20
18.3300472787
 10
9.5869706512
 20
18.3022091406
 10
9.5578489936
 20
18.2771902298
 10
9.526853274
 20
18.2549905601
 10
9.493705677
 20
18.2355752504
 10
9.458684018
 20
18.2189792047
 10
9.4226217435
 20
18.2053071125
 10
9.385796669
 20
18.1945938748
 10
9.347930979
 20
18.1868046045
 10
9.3090246736
 20
18.1819393059
  0
LINE
  5
385
100
AcDbEntity
  8
RACCORDO
100
AcDbLine
 62
7
  6
CONTINUOUS
 10
7.8168435335
 20
-11.5617595668
 11
7.904205743
 21
-11.6491217763
  0
LINE
  5
386
100
AcDbEntity
  8
DRAFT
100
AcDbLine
 62
7
  6
CONTINUOUS
 10
-2.6949998708
 20
-19.0499161626
 11
-2.6949998708
 21
-20.2499161626
  0
LINE
  5
387
100
AcDbEntity
  8
DRAFT
100
AcDbLine
 62
7
  6
CONTINUOUS
 10
-2.6949998708
 20
23.3500838374
 11
-2.6949998708
 21
24.5500838374
  0
LINE
  5
388
100
AcDbEntity
  8
0
100
AcDbLine
 62
7
  6
CONTINUOUS
 10
-2.5777778708
 20
20.4776058374
 11
-2.5777778708
 21
20.9277828374
  0
LINE
  5
389
100
AcDbEntity
  8
0
100
AcDbLine
 62
7
  6
CONTINUOUS
 10
-2.4449998708
 20
5.1500838374
 11
-2.4449998708
 21
1.5500838374
  0
LINE
  5
38A
100
AcDbEntity
  8
Z030100_COP
100
AcDbLine
 62
7
  6
CONTINUOUS
 10
-2.2199998708
 20
7.0500838374
 11
-2.2199998708
 21
9.4500838374
  0
LINE
  5
38B
100
AcDbEntity
  8
0
100
AcDbLine
 62
7
  6
CONTINUOUS
 10
-2.1275708708
 20
20.4776098374
 11
-2.1275708708
 21
20.9277828374
  0
LINE
  5
38C
100
AcDbEntity
  8
0
100
AcDbLine
 62
7
  6
CONTINUOUS
 10
-1.7853068708
 20
20.4827528374
 11
-1.7853018708
 21
20.8056938374
  0
LINE
  5
38D
100
AcDbEntity
  8
0
100
AcDbLine
 62
7
  6
CONTINUOUS
 10
-1.7853018708
 20
18.9076818374
 11
-1.7853018708
 21
19.2663228374
  0
LINE
  5
38E
100
AcDbEntity
  8
SMUSSO
100
AcDbLine
 62
7
  6
CONTINUOUS
 10
-1.6449998708
 20
6.4000838374
 11
-1.6449998708
 21
7.8000838374
  0
LINE
  5
38F
100
AcDbEntity
  8
0
100
AcDbLine
 62
7
  6
CONTINUOUS
 10
-1.4337888708
 20
18.7948178374
 11
-1.4337888708
 21
19.3791908374
  0
LINE
  5
390
100
AcDbEntity
  8
DRAFT
100
AcDbLine
 62
7
  6
CONTINUOUS
 10
3.4168366389
 20
24.5500838374
 11
3.0818153755
 21
23.3500838374
  0
LINE
  5
391
100
AcDbEntity
  8
DRAFT
100
AcDbLine
 62
7
  6
CONTINUOUS
 10
4.3783374769
 20
25.6500838374
 11
4.3576846837
 21
25.5802635777
  0
LWPOLYLINE
  5
392
100
AcDbEntity
  8
0
100
AcDbPolyline
 62
7
  6
CONTINUOUS
 90
42
 70
0
 10
5.4880296683
 20
21.1493749599
 10
5.4958591055
 20
21.1714530862
 10
5.5047321063
 20
21.1929906636
 10
5.5146486707
 20
21.2139876948
 10
5.5256232445
 20
21.2345282931
 10
5.5376413819
 20
21.25452835
 10
5.5506597456
 20
21.2737355363
 10
5.5646091349
 20
21.2921210227
 10
5.5795587504
 20
21.3097136455
 10
5.5956728568
 20
21.326347575
 10
5.6129344153
 20
21.3420427701
 10
5.6313604646
 20
21.3567792791
 10
5.6511663849
 20
21.3703314077
 10
5.6724430935
 20
21.3827142875
 10
5.695099673
 20
21.3939127939
 10
5.7190787515
 20
21.4036558496
 10
5.7443665875
 20
21.411934471
 10
5.7709769225
 20
21.4187576478
 10
5.7988936093
 20
21.4238812624
 10
5.8280797416
 20
21.427413663
 10
5.8585722257
 20
21.4292465047
 10
5.8904656329
 20
21.4288106308
 10
5.9240978194
 20
21.4263224801
 10
5.9591309291
 20
21.4215656122
 10
5.9946459652
 20
21.4133215479
 10
6.0307450553
 20
21.4014712253
 10
6.0673260717
 20
21.3861336898
 10
6.1031636343
 20
21.3664476143
 10
6.1385270225
 20
21.3419938324
 10
6.1731469567
 20
21.3131914646
 10
6.2049902179
 20
21.2804366069
 10
6.2339084787
 20
21.2436059412
 10
6.2600500664
 20
21.2028227216
 10
6.2818267437
 20
21.158852907
 10
6.298728954
 20
21.1112564218
 10
6.3112662538
 20
21.0604732722
 10
6.3193790756
 20
21.0085895668
 10
6.3230678126
 20
20.955468583
 10
6.3223320715
 20
20.9012470172
 10
6.3171111046
 20
20.8484211607
 10
6.3073024537
 20
20.797166967
 10
6.293008577
 20
20.7473085179
  0
LWPOLYLINE
  5
393
100
AcDbEntity
  8
0
100
AcDbPolyline
 62
7
  6
CONTINUOUS
 90
43
 70
0
 10
5.4880296683
 20
20.7314116318
 10
5.4811022501
 20
20.7134694044
 10
5.4734210249
 20
20.6959440182
 10
5.4649859928
 20
20.678835475
 10
5.4558205001
 20
20.6620804658
 10
5.4459012005
 20
20.6457423026
 10
5.4351580551
 20
20.6300109186
 10
5.423645182
 20
20.6148873828
 10
5.4113084631
 20
20.6003706304
 10
5.3979155043
 20
20.5866473958
 10
5.3834388132
 20
20.5736845629
 10
5.3679058821
 20
20.5615152524
 10
5.3511667946
 20
20.5504255549
 10
5.3331253097
 20
20.5404255555
 10
5.3138776684
 20
20.5315051741
 10
5.2935626759
 20
20.5239202541
 10
5.2722099422
 20
20.5177079467
 10
5.2497898574
 20
20.5128311048
 10
5.2263523976
 20
20.5094341245
 10
5.2019246924
 20
20.5074039009
 10
5.1764796122
 20
20.5068535407
 10
5.1499857441
 20
20.5082667567
 10
5.1221804044
 20
20.511491098
 10
5.0933262768
 20
20.5166790136
 10
5.0641799996
 20
20.5247715641
 10
5.0346696139
 20
20.5358841517
 10
5.0048670786
 20
20.5499013617
 10
4.9757449084
 20
20.5674180242
 10
4.947098344
 20
20.5887149456
 10
4.9191321448
 20
20.6135112884
 10
4.8934331035
 20
20.6415594125
 10
4.8701195231
 20
20.6730025428
 10
4.8490731005
 20
20.7076974102
 10
4.8315257188
 20
20.7449666365
 10
4.8178968676
 20
20.7851427595
 10
4.8077670573
 20
20.8278931942
 10
4.8011097016
 20
20.8715428969
 10
4.7979154036
 20
20.9161876468
 10
4.7981935603
 20
20.9617316454
 10
4.8019457771
 20
21.0062125179
 10
4.8092107112
 20
21.0494994907
 10
4.8199497054
 20
21.0917233589
 10
4.8340483925
 20
21.1313141355
  0
LWPOLYLINE
  5
394
100
AcDbEntity
  8
0
100
AcDbPolyline
 62
7
  6
CONTINUOUS
 90
7
 70
0
 10
8.2522727609
 20
20.0430230243
 10
8.2699899042
 20
20.0751198935
 10
8.2901654363
 20
20.1048745634
 10
8.3127993569
 20
20.1322870491
 10
8.3378916662
 20
20.1573573643
 10
8.3654423642
 20
20.1800855218
 10
8.3954514508
 20
20.2004715332
  0
LWPOLYLINE
  5
395
100
AcDbEntity
  8
0
100
AcDbPolyline
 62
7
  6
CONTINUOUS
 90
7
 70
0
 10
9.5234170458
 20
17.3056131405
 10
9.5412331445
 20
17.3300701168
 10
9.5556381655
 20
17.3556217058
 10
9.566632109
 20
17.3822679024
 10
9.5742149748
 20
17.4100087012
 10
9.578386763
 20
17.4388440965
 10
9.5791474736
 20
17.4687740823
  0
LWPOLYLINE
  5
396
100
AcDbEntity
  8
0
100
AcDbPolyline
 62
7
  6
CONTINUOUS
 90
7
 70
0
 10
8.2780063132
 20
17.7540115643
 10
8.3069169889
 20
17.7934632868
 10
8.3392462453
 20
17.8294281521
 10
8.3749940827
 20
17.8619061837
 10
8.4141605008
 20
17.890897403
 10
8.4567454998
 20
17.9164018292
 10
8.5027490796
 20
17.938419479
  0
LINE
  5
397
100
AcDbEntity
  8
0
100
AcDbLine
 62
7
  6
CONTINUOUS
 10
3.9800001292
 20
10.0500838374
 11
4.6800001292
 21
10.7500838374
  0
LINE
  5
398
100
AcDbEntity
  8
0
100
AcDbLine
 62
7
  6
CONTINUOUS
 10
-2.4449998708
 20
1.5500838374
 11
-2.5449998708
 21
1.4500838374
  0
LINE
  5
399
100
AcDbEntity
  8
RACCORDO
100
AcDbLine
 62
7
  6
CONTINUOUS
 10
6.9050001292
 20
-0.9499161626
 11
-6.0949998708
 21
-0.9499161626
  0
LINE
  5
39A
100
AcDbEntity
  8
DRAFT
100
AcDbLine
 62
7
  6
CONTINUOUS
 10
9.9860578737
 20
0.3500838374
 11
9.4050001292
 21
0.3500838374
  0
LINE
  5
39B
100
AcDbEntity
  8
DRAFT
100
AcDbLine
 62
7
  6
CONTINUOUS
 10
-9.1760576152
 20
0.3500838374
 11
-8.5949998708
 21
0.3500838374
  0
LINE
  5
39C
100
AcDbEntity
  8
RACCORDO
100
AcDbLine
 62
7
  6
CONTINUOUS
 10
10.1950416369
 20
0.4277529608
 11
10.063726997
 21
0.4277529608
  0
LINE
  5
39D
100
AcDbEntity
  8
RACCORDO
100
AcDbLine
 62
7
  6
CONTINUOUS
 10
-9.3850413784
 20
0.4277529608
 11
-9.2537267386
 21
0.4277529608
  0
LINE
  5
39E
100
AcDbEntity
  8
DRAFT
100
AcDbLine
 62
7
  6
CONTINUOUS
 10
10.063726997
 20
-10.7275852859
 11
9.9860578737
 21
-10.6499161626
  0
LINE
  5
39F
100
AcDbEntity
  8
DRAFT
100
AcDbLine
 62
7
  6
CONTINUOUS
 10
-9.2537267386
 20
8.8277529608
 11
-9.1760576152
 21
8.7500838374
  0
LINE
  5
3A0
100
AcDbEntity
  8
DRAFT
100
AcDbLine
 62
7
  6
CONTINUOUS
 10
4.3783374769
 20
-21.3499161626
 11
4.3576846837
 21
-21.2800959028
  0
LINE
  5
3A1
100
AcDbEntity
  8
DRAFT
100
AcDbLine
 62
7
  6
CONTINUOUS
 10
3.0818153755
 20
-19.0499161626
 11
3.4168366389
 21
-20.2499161626
  0
LWPOLYLINE
  5
3A2
100
AcDbEntity
  8
RACCORDO
100
AcDbPolyline
 62
250
  6
CONTINUOUS
 90
13
 70
0
 10
0.6699135303
 20
-17.4438019087
 10
0.6681489538
 20
-17.4186247049
 10
0.6630029223
 20
-17.393876469
 10
0.6545630152
 20
-17.369979406
 10
0.6429729997
 20
-17.3473412212
 10
0.6284304203
 20
-17.3263482318
 10
0.6111832642
 20
-17.3073587551
 10
0.5915256361
 20
-17.2906968724
 10
0.569792827
 20
-17.2766470109
 10
0.5463556883
 20
-17.2654490918
 10
0.5216141169
 20
-17.2572942982
 10
0.4959901993
 20
-17.2523218617
 10
0.4699211457
 20
-17.2506167426
  0
LINE
  5
3A3
100
AcDbEntity
  8
RACCORDO
100
AcDbLine
 62
250
  6
CONTINUOUS
 10
0.1400867281
 20
-17.4438019087
 11
0.0062265077
 21
-13.333766232
  0
LINE
  5
3A4
100
AcDbEntity
  8
RACCORDO
100
AcDbLine
 62
250
  6
CONTINUOUS
 10
0.3400791128
 20
-17.2506167434
 11
0.2057262751
 21
-13.1254557781
  0
LWPOLYLINE
  5
3A5
100
AcDbEntity
  8
RACCORDO
100
AcDbPolyline
 62
250
  6
CONTINUOUS
 90
3
 70
0
 10
0.1406173073
 20
-17.4674184538
 10
0.1403601022
 20
-17.4541072735
 10
0.1400867281
 20
-17.4438019087
  0
LINE
  5
3A6
100
AcDbEntity
  8
RACCORDO
100
AcDbLine
 62
250
  6
CONTINUOUS
 10
0.340354305
 20
-17.2674995305
 11
0.3400791128
 21
-17.2506167434
  0
LINE
  5
3A7
100
AcDbEntity
  8
RACCORDO
100
AcDbLine
 62
250
  6
CONTINUOUS
 10
0.1410860242
 20
-17.5033298386
 11
0.1406173073
 21
-17.4674184538
  0
LINE
  5
3A8
100
AcDbEntity
  8
RACCORDO
100
AcDbLine
 62
250
  6
CONTINUOUS
 10
0.3408541696
 20
-17.3176168187
 11
0.340354305
 21
-17.2674995305
  0
LINE
  5
3A9
100
AcDbEntity
  8
RACCORDO
100
AcDbLine
 62
250
  6
CONTINUOUS
 10
0.1416455891
 20
-17.5778125958
 11
0.1410860242
 21
-17.5033298386
  0
LINE
  5
3AA
100
AcDbEntity
  8
RACCORDO
100
AcDbLine
 62
250
  6
CONTINUOUS
 10
0.3417744644
 20
-17.522489556
 11
0.3408541696
 21
-17.3176168187
  0
LINE
  5
3AB
100
AcDbEntity
  8
RACCORDO
100
AcDbLine
 62
250
  6
CONTINUOUS
 10
0.4682252944
 20
21.8227931723
 11
0.4691457532
 21
21.6178139183
  0
LINE
  5
3AC
100
AcDbEntity
  8
RACCORDO
100
AcDbLine
 62
250
  6
CONTINUOUS
 10
0.1420271846
 20
-17.7335796566
 11
0.1416455891
 21
-17.5778125958
  0
LINE
  5
3AD
100
AcDbEntity
  8
0
100
AcDbLine
 62
7
  6
CONTINUOUS
 10
-1.0699578708
 20
19.4959998374
 11
-1.0699538708
 21
19.8660188374
  0
LINE
  5
3AE
100
AcDbEntity
  8
0
100
AcDbLine
 62
7
  6
CONTINUOUS
 10
-1.0699578708
 20
20.1126928374
 11
-1.0699578708
 21
20.4827118374
  0
LINE
  5
3AF
100
AcDbEntity
  8
0
100
AcDbLine
 62
7
  6
CONTINUOUS
 10
-1.0699538708
 20
16.2516268374
 11
-1.0699538708
 21
16.6216408374
  0
LINE
  5
3B0
100
AcDbEntity
  8
0
100
AcDbLine
 62
7
  6
CONTINUOUS
 10
-1.0699538708
 20
17.6913018374
 11
-1.0699538708
 21
18.0613158374
  0
LINE
  5
3B1
100
AcDbEntity
  8
0
100
AcDbLine
 62
7
  6
CONTINUOUS
 10
-1.0699538708
 20
16.9714668374
 11
-1.0699578708
 21
17.3414718374
  0
LINE
  5
3B2
100
AcDbEntity
  8
0
100
AcDbLine
 62
7
  6
CONTINUOUS
 10
-1.0699488708
 20
14.3009088374
 11
-1.0699538708
 21
14.6709358374
  0
LINE
  5
3B3
100
AcDbEntity
  8
0
100
AcDbLine
 62
7
  6
CONTINUOUS
 10
-1.0699538708
 20
18.3079898374
 11
-1.0699578708
 21
18.6780038374
  0
LINE
  5
3B4
100
AcDbEntity
  8
0
100
AcDbLine
 62
7
  6
CONTINUOUS
 10
-1.0699488708
 20
15.5116088374
 11
-1.0699538708
 21
15.8816228374
  0
LINE
  5
3B5
100
AcDbEntity
  8
0
100
AcDbLine
 62
7
  6
CONTINUOUS
 10
-1.0699578708
 20
21.1764938374
 11
-1.0699628708
 21
21.5932568374
  0
LINE
  5
3B6
100
AcDbEntity
  8
RACCORDO
100
AcDbLine
 62
7
  6
CONTINUOUS
 10
0.1420271846
 20
-18.4180009624
 11
0.1420271846
 21
-17.7335796566
  0
LINE
  5
3B7
100
AcDbEntity
  8
RACCORDO
100
AcDbLine
 62
7
  6
CONTINUOUS
 10
0.1420271846
 20
22.0337473314
 11
0.1420271846
 21
22.7181686373
  0
LINE
  5
3B8
100
AcDbEntity
  8
RACCORDO
100
AcDbLine
 62
250
  6
CONTINUOUS
 10
0.3420195692
 20
-18.4197311049
 11
0.3417744644
 21
-17.522489556
  0
LINE
  5
3B9
100
AcDbEntity
  8
RACCORDO
100
AcDbLine
 62
250
  6
CONTINUOUS
 10
0.4679806892
 20
22.7198987798
 11
0.4682252944
 21
21.8227931723
  0
LINE
  5
3BA
100
AcDbEntity
  8
RACCORDO
100
AcDbLine
 62
250
  6
CONTINUOUS
 10
0.341478908
 20
21.729497792
 11
0.3420195692
 21
22.7198987798
  0
LINE
  5
3BB
100
AcDbEntity
  8
RACCORDO
100
AcDbLine
 62
250
  6
CONTINUOUS
 10
0.4685225914
 20
-17.4290716268
 11
0.4679806892
 21
-18.4197311049
  0
LINE
  5
3BC
100
AcDbEntity
  8
RACCORDO
100
AcDbLine
 62
250
  6
CONTINUOUS
 10
0.1416482787
 20
21.8784764042
 11
0.1420271846
 21
22.0337473314
  0
LINE
  5
3BD
100
AcDbEntity
  8
RACCORDO
100
AcDbLine
 62
250
  6
CONTINUOUS
 10
0.4691460889
 20
-17.3176168187
 11
0.4685225914
 21
-17.4290716268
  0
LINE
  5
3BE
100
AcDbEntity
  8
RACCORDO
100
AcDbLine
 62
250
  6
CONTINUOUS
 10
0.1410895194
 20
21.8038310355
 11
0.1416482787
 21
21.8784764042
  0
LWPOLYLINE
  5
3BF
100
AcDbEntity
  8
RACCORDO
100
AcDbPolyline
 62
250
  6
CONTINUOUS
 90
4
 70
0
 10
0.3400791128
 20
21.5507844183
 10
0.3403543536
 20
21.5676647637
 10
0.3406128177
 20
21.5900867282
 10
0.341478908
 20
21.729497792
  0
LWPOLYLINE
  5
3C0
100
AcDbEntity
  8
RACCORDO
100
AcDbPolyline
 62
250
  6
CONTINUOUS
 90
4
 70
0
 10
0.1400867281
 20
21.7439695835
 10
0.1403615008
 20
21.7543553497
 10
0.1406197609
 20
21.7677469939
 10
0.1410895194
 20
21.8038310355
  0
LINE
  5
3C1
100
AcDbEntity
  8
RACCORDO
100
AcDbLine
 62
250
  6
CONTINUOUS
 10
0.0062265077
 20
17.6339339069
 11
0.1400867281
 21
21.7439695835
  0
LINE
  5
3C2
100
AcDbEntity
  8
RACCORDO
100
AcDbLine
 62
250
  6
CONTINUOUS
 10
0.2057262751
 20
17.425623453
 11
0.3400791128
 21
21.5507844183
  0
LWPOLYLINE
  5
3C3
100
AcDbEntity
  8
RACCORDO
100
AcDbPolyline
 62
7
  6
CONTINUOUS
 90
13
 70
0
 10
0.8037737508
 20
17.6339339069
 10
0.8020286455
 20
17.6062905799
 10
0.7968218371
 20
17.5792764833
 10
0.7882725834
 20
17.553322857
 10
0.7765631494
 20
17.5288218159
 10
0.7619174068
 20
17.5061690387
 10
0.7445836495
 20
17.4857657374
 10
0.724841187
 20
17.4679151329
 10
0.7030600569
 20
17.4529080457
 10
0.6796863435
 20
17.4410480457
 10
0.6551575357
 20
17.4325076005
 10
0.6298774265
 20
17.4273526914
 10
0.6042739834
 20
17.425623453
  0
LWPOLYLINE
  5
3C4
100
AcDbEntity
  8
RACCORDO
100
AcDbPolyline
 62
250
  6
CONTINUOUS
 90
13
 70
0
 10
0.6699135303
 20
21.7439695835
 10
0.6681486028
 20
21.7187898455
 10
0.6630016813
 20
21.6940397035
 10
0.6545605785
 20
21.6701414241
 10
0.6429693095
 20
21.6475027401
 10
0.628425635
 20
21.6265098942
 10
0.6111776872
 20
21.6075210488
 10
0.5915197364
 20
21.5908601762
 10
0.5697871702
 20
21.5768115305
 10
0.546350772
 20
21.5656147978
 10
0.5216103942
 20
21.5574610076
 10
0.4959881368
 20
21.5524892732
 10
0.4699211457
 20
21.5507844183
  0
LWPOLYLINE
  5
3C5
100
AcDbEntity
  8
0
100
AcDbPolyline
 62
7
  6
CONTINUOUS
 90
31
 70
0
 10
5.5119486215
 20
19.9646164221
 10
5.5230814586
 20
20.005180812
 10
5.5388946916
 20
20.0437257085
 10
5.5593883206
 20
20.0802511283
 10
5.5848480136
 20
20.1156854493
 10
5.6149881026
 20
20.14910032
 10
5.6489515832
 20
20.1777106814
 10
5.6870444027
 20
20.2006145433
 10
5.7289606139
 20
20.2187139532
 10
5.7729253708
 20
20.2319299221
 10
5.8189703785
 20
20.2402409685
 10
5.867063932
 20
20.2436685969
 10
5.9153360707
 20
20.2421982896
 10
5.9638502731
 20
20.2360026128
 10
6.0125430606
 20
20.2249089922
 10
6.0593540373
 20
20.2083851894
 10
6.1040556941
 20
20.1859177473
 10
6.14687554
 20
20.1580200754
 10
6.1864357065
 20
20.1257002314
 10
6.2228810748
 20
20.0885404801
 10
6.2560667636
 20
20.0469584882
 10
6.2841802609
 20
20.0032154354
 10
6.3064301691
 20
19.9571506725
 10
6.3236078857
 20
19.9089248065
 10
6.3362750908
 20
19.8612809486
 10
6.3441584268
 20
19.8148682556
 10
6.3475312512
 20
19.7690375877
 10
6.3477753171
 20
19.7245846462
 10
6.3453100303
 20
19.6816329438
 10
6.3397159849
 20
19.640058995
 10
6.3311167176
 20
19.6002880151
  0
LWPOLYLINE
  5
3C6
100
AcDbEntity
  8
0
100
AcDbPolyline
 62
7
  6
CONTINUOUS
 90
35
 70
0
 10
6.293008577
 20
20.7473085179
 10
6.2744761023
 20
20.7008143498
 10
6.2512177516
 20
20.658122606
 10
6.223720803
 20
20.618795214
 10
6.1936937181
 20
20.5834864105
 10
6.1610341805
 20
20.5523217211
 10
6.1258445066
 20
20.5251756806
 10
6.0901401072
 20
20.5023260412
 10
6.0542170356
 20
20.4842097544
 10
6.0177792385
 20
20.4703899092
 10
5.9819539668
 20
20.459833455
 10
5.9468491319
 20
20.4525970829
 10
5.9123568223
 20
20.4486241149
 10
5.8792805551
 20
20.4467114388
 10
5.8479531835
 20
20.4465981884
 10
5.8180418543
 20
20.4485452309
 10
5.7893515249
 20
20.4521320524
 10
5.7617925049
 20
20.4572769222
 10
5.7354544848
 20
20.4640615679
 10
5.7104114938
 20
20.4723106624
 10
5.6866503733
 20
20.4820411323
 10
5.6641842819
 20
20.4932360451
 10
5.6431267236
 20
20.5056692853
 10
5.6235774938
 20
20.5193323988
 10
5.6054367971
 20
20.5342338325
 10
5.5885187513
 20
20.5501728229
 10
5.5728027751
 20
20.5671511578
 10
5.5583094497
 20
20.5851670416
 10
5.5449146363
 20
20.6040143373
 10
5.5325523836
 20
20.6237255777
 10
5.5212886428
 20
20.6442682226
 10
5.5111971294
 20
20.665338527
 10
5.5023024151
 20
20.6868352414
 10
5.4945799281
 20
20.7088596106
 10
5.4880296683
 20
20.7314116318
  0
LWPOLYLINE
  5
3C7
100
AcDbEntity
  8
0
100
AcDbPolyline
 62
7
  6
CONTINUOUS
 90
7
 70
0
 10
8.2522726886
 20
18.87760682
 10
8.269989687
 20
18.9097035598
 10
8.2901651368
 20
18.9394581508
 10
8.3127990381
 20
18.9668706072
 10
8.3378913909
 20
18.9919409418
 10
8.3654421951
 20
19.0146691667
 10
8.3954514508
 20
19.0350552926
  0
LWPOLYLINE
  5
3C8
100
AcDbEntity
  8
0
100
AcDbPolyline
 62
7
  6
CONTINUOUS
 90
7
 70
0
 10
8.2481878435
 20
16.5508562019
 10
8.2660499282
 20
16.5808432142
 10
8.2861136659
 20
16.6088462073
 10
8.3083790566
 20
16.6348651908
 10
8.3328461003
 20
16.6589001736
 10
8.3595147969
 20
16.680951164
 10
8.3883851465
 20
16.7010181697
  0
LINE
  5
3C9
100
AcDbEntity
  8
DRAFT
100
AcDbLine
 62
7
  6
CONTINUOUS
 10
-9.2537267386
 20
-6.4275852859
 11
-9.1760576152
 21
-6.3499161626
  0
LINE
  5
3CA
100
AcDbEntity
  8
RACCORDO
100
AcDbLine
 62
7
  6
CONTINUOUS
 10
-9.1971028543
 20
0.4289013814
 11
-8.8072870676
 21
0.4382479447
  0
LINE
  5
3CB
100
AcDbEntity
  8
RACCORDO
100
AcDbLine
 62
7
  6
CONTINUOUS
 10
9.617287326
 20
1.2619197302
 11
10.0071031127
 21
1.2712662935
  0
LINE
  5
3CC
100
AcDbEntity
  8
RACCORDO
100
AcDbLine
 62
7
  6
CONTINUOUS
 10
10.1950416369
 20
1.2724147141
 11
10.063726997
 21
1.2724147141
  0
LINE
  5
3CD
100
AcDbEntity
  8
RACCORDO
100
AcDbLine
 62
7
  6
CONTINUOUS
 10
-9.3850413784
 20
1.2724147141
 11
-9.2537267386
 21
1.2724147141
  0
LINE
  5
3CE
100
AcDbEntity
  8
DRAFT
100
AcDbLine
 62
7
  6
CONTINUOUS
 10
9.9860578737
 20
1.3500838374
 11
9.4050001292
 21
1.3500838374
  0
LINE
  5
3CF
100
AcDbEntity
  8
DRAFT
100
AcDbLine
 62
7
  6
CONTINUOUS
 10
-9.1760576152
 20
1.3500838374
 11
-8.5949998708
 21
1.3500838374
  0
LINE
  5
3D0
100
AcDbEntity
  8
RACCORDO
100
AcDbLine
 62
7
  6
CONTINUOUS
 10
-8.5949998708
 20
1.4500838374
 11
9.4050001292
 21
1.4500838374
  0
LINE
  5
3D1
100
AcDbEntity
  8
RACCORDO
100
AcDbLine
 62
7
  6
CONTINUOUS
 10
9.617287326
 20
0.4382479447
 11
10.0071031127
 21
0.4289013814
  0
LINE
  5
3D2
100
AcDbEntity
  8
RACCORDO
100
AcDbLine
 62
7
  6
CONTINUOUS
 10
-9.1971028543
 20
1.2712662935
 11
-8.8072870676
 21
1.2619197302
  0
LWPOLYLINE
  5
3D3
100
AcDbEntity
  8
RACCORDO
100
AcDbPolyline
 62
250
  6
CONTINUOUS
 90
13
 70
0
 10
0.1400867281
 20
21.7439695835
 10
0.1418513812
 20
21.718791824
 10
0.1469976066
 20
21.6940431707
 10
0.1554377739
 20
21.670145842
 10
0.1670280614
 20
21.6475075493
 10
0.1815708773
 20
21.6265145932
 10
0.1988182035
 20
21.6075252557
 10
0.2184758995
 20
21.5908635946
 10
0.2402086535
 20
21.5768139995
 10
0.2636456302
 20
21.5656163394
 10
0.2883869433
 20
21.5574617646
 10
0.3140105029
 20
21.5524894818
 10
0.3400791129
 20
21.5507844222
  0
LINE
  5
3D4
100
AcDbEntity
  8
RACCORDO
100
AcDbLine
 62
250
  6
CONTINUOUS
 10
0.4699211457
 20
21.5507844183
 11
0.6042739834
 21
17.425623453
  0
LINE
  5
3D5
100
AcDbEntity
  8
RACCORDO
100
AcDbLine
 62
250
  6
CONTINUOUS
 10
0.6699135303
 20
21.7439695835
 11
0.8037737508
 21
17.6339339069
  0
LWPOLYLINE
  5
3D6
100
AcDbEntity
  8
RACCORDO
100
AcDbPolyline
 62
250
  6
CONTINUOUS
 90
3
 70
0
 10
0.6693804976
 20
21.7677469967
 10
0.6696387577
 20
21.7543553514
 10
0.6699135303
 20
21.7439695835
  0
LINE
  5
3D7
100
AcDbEntity
  8
RACCORDO
100
AcDbLine
 62
250
  6
CONTINUOUS
 10
0.4696459049
 20
21.5676647637
 11
0.4699211457
 21
21.5507844183
  0
LINE
  5
3D8
100
AcDbEntity
  8
RACCORDO
100
AcDbLine
 62
250
  6
CONTINUOUS
 10
0.6689107391
 20
21.803831038
 11
0.6693804976
 21
21.7677469967
  0
LINE
  5
3D9
100
AcDbEntity
  8
RACCORDO
100
AcDbLine
 62
250
  6
CONTINUOUS
 10
0.4691457532
 20
21.6178139183
 11
0.4696459049
 21
21.5676647637
  0
LINE
  5
3DA
100
AcDbEntity
  8
RACCORDO
100
AcDbLine
 62
250
  6
CONTINUOUS
 10
0.6683519798
 20
21.8784764036
 11
0.6689107391
 21
21.803831038
  0
LINE
  5
3DB
100
AcDbEntity
  8
RACCORDO
100
AcDbLine
 62
250
  6
CONTINUOUS
 10
0.6679730739
 20
22.0337473314
 11
0.6683519798
 21
21.8784764036
  0
LINE
  5
3DC
100
AcDbEntity
  8
RACCORDO
100
AcDbLine
 62
7
  6
CONTINUOUS
 10
0.6679730739
 20
22.7181686373
 11
0.6679730739
 21
22.0337473314
  0
LINE
  5
3DD
100
AcDbEntity
  8
RACCORDO
100
AcDbLine
 62
7
  6
CONTINUOUS
 10
0.6679730739
 20
-17.7335796566
 11
0.6679730739
 21
-18.4180009624
  0
LINE
  5
3DE
100
AcDbEntity
  8
0
100
AcDbLine
 62
7
  6
CONTINUOUS
 10
2.253955709
 20
19.46929982
 11
2.253955709
 21
19.5619006656
  0
LINE
  5
3DF
100
AcDbEntity
  8
0
100
AcDbLine
 62
7
  6
CONTINUOUS
 10
2.253955709
 20
20.5258588654
 11
2.253955709
 21
20.6184588431
  0
LINE
  5
3E0
100
AcDbEntity
  8
0
100
AcDbLine
 62
7
  6
CONTINUOUS
 10
2.2539600486
 20
20.8835185982
 11
2.2539600486
 21
21.5233612534
  0
LINE
  5
3E1
100
AcDbEntity
  8
0
100
AcDbLine
 62
7
  6
CONTINUOUS
 10
2.2553591292
 20
13.5437808374
 11
2.2553591292
 21
13.7559718374
  0
LINE
  5
3E2
100
AcDbEntity
  8
0
100
AcDbLine
 62
7
  6
CONTINUOUS
 10
2.2553591292
 20
14.5500998374
 11
2.2553591292
 21
14.7391828374
  0
LINE
  5
3E3
100
AcDbEntity
  8
0
100
AcDbLine
 62
7
  6
CONTINUOUS
 10
2.2553591292
 20
15.1572058374
 11
2.2553591292
 21
16.1929328374
  0
LINE
  5
3E4
100
AcDbEntity
  8
0
100
AcDbLine
 62
7
  6
CONTINUOUS
 10
2.2553591292
 20
17.9134928374
 11
2.2553591292
 21
18.9492058374
  0
LINE
  5
3E5
100
AcDbEntity
  8
0
100
AcDbLine
 62
7
  6
CONTINUOUS
 10
2.2553641292
 20
16.3693768374
 11
2.2553641292
 21
16.5857338374
  0
LINE
  5
3E6
100
AcDbEntity
  8
0
100
AcDbLine
 62
7
  6
CONTINUOUS
 10
2.2553641292
 20
17.4513038374
 11
2.2553641292
 21
17.6592998374
  0
LINE
  5
3E7
100
AcDbEntity
  8
0
100
AcDbLine
 62
7
  6
CONTINUOUS
 10
2.3339474323
 20
20.9761767265
 11
2.3339474323
 21
21.5170332584
  0
LINE
  5
3E8
100
AcDbEntity
  8
RACCORDO
100
AcDbLine
 62
250
  6
CONTINUOUS
 10
0.6683546694
 20
-17.5778125967
 11
0.6679730739
 21
-17.7335796566
  0
LINE
  5
3E9
100
AcDbEntity
  8
RACCORDO
100
AcDbLine
 62
250
  6
CONTINUOUS
 10
0.6689142343
 20
-17.5033298352
 11
0.6683546694
 21
-17.5778125967
  0
LWPOLYLINE
  5
3EA
100
AcDbEntity
  8
0
100
AcDbPolyline
 62
7
  6
CONTINUOUS
 90
22
 70
0
 10
2.2539600486
 20
21.5233612534
 10
2.2544467232
 20
21.5552792314
 10
2.2566807386
 20
21.5870570723
 10
2.2606620946
 20
21.6186947771
 10
2.2662597322
 20
21.6504269967
 10
2.2736047105
 20
21.6820190808
 10
2.2830902073
 20
21.7127670838
 10
2.2948087954
 20
21.7427516941
 10
2.308667902
 20
21.7718922348
 10
2.324782986
 20
21.7992427235
 10
2.3432808346
 20
21.8245845118
 10
2.3640346606
 20
21.8481362713
 10
2.3867795609
 20
21.8696080058
 10
2.411495981
 20
21.8890075891
 10
2.4382034756
 20
21.9063271678
 10
2.4666958049
 20
21.9212531564
 10
2.4968980532
 20
21.9336358175
 10
2.5288851364
 20
21.9436249045
 10
2.5626755629
 20
21.9513560673
 10
2.5982755021
 20
21.9568745247
 10
2.6356787845
 20
21.960135065
 10
2.6748854103
 20
21.9611376898
  0
LWPOLYLINE
  5
3EB
100
AcDbEntity
  8
RACCORDO
100
AcDbPolyline
 62
250
  6
CONTINUOUS
 90
3
 70
0
 10
0.4699211457
 20
-17.2506167434
 10
0.4696459535
 20
-17.2674995305
 10
0.4691460889
 20
-17.3176168187
  0
LWPOLYLINE
  5
3EC
100
AcDbEntity
  8
RACCORDO
100
AcDbPolyline
 62
250
  6
CONTINUOUS
 90
4
 70
0
 10
0.6699135303
 20
-17.4438019087
 10
0.6696401563
 20
-17.4541072709
 10
0.6693829511
 20
-17.4674184498
 10
0.6689142343
 20
-17.5033298352
  0
LINE
  5
3ED
100
AcDbEntity
  8
RACCORDO
100
AcDbLine
 62
250
  6
CONTINUOUS
 10
0.6042739834
 20
-13.1254557781
 11
0.4699211457
 21
-17.2506167434
  0
LINE
  5
3EE
100
AcDbEntity
  8
RACCORDO
100
AcDbLine
 62
250
  6
CONTINUOUS
 10
0.8037737508
 20
-13.333766232
 11
0.6699135303
 21
-17.4438019087
  0
LWPOLYLINE
  5
3EF
100
AcDbEntity
  8
RACCORDO
100
AcDbPolyline
 62
7
  6
CONTINUOUS
 90
13
 70
0
 10
0.0062265077
 20
-13.333766232
 10
0.007971613
 20
-13.3061229051
 10
0.0131784214
 20
-13.2791088084
 10
0.021727675
 20
-13.2531551822
 10
0.0334371091
 20
-13.228654141
 10
0.0480828517
 20
-13.2060013639
 10
0.065416609
 20
-13.1855980626
 10
0.0851590714
 20
-13.1677474581
 10
0.1069402015
 20
-13.1527403709
 10
0.1303139149
 20
-13.1408803708
 10
0.1548427227
 20
-13.1323399256
 10
0.180122832
 20
-13.1271850165
 10
0.2057262751
 20
-13.1254557781
  0
LWPOLYLINE
  5
3F0
100
AcDbEntity
  8
RACCORDO
100
AcDbPolyline
 62
250
  6
CONTINUOUS
 90
13
 70
0
 10
0.1400867281
 20
-17.4438019087
 10
0.1418516557
 20
-17.4186221707
 10
0.1469985771
 20
-17.3938720287
 10
0.1554396798
 20
-17.3699737492
 10
0.1670309487
 20
-17.3473350651
 10
0.181574623
 20
-17.326342219
 10
0.1988225707
 20
-17.3073533734
 10
0.2184805215
 20
-17.2906925004
 10
0.2402130876
 20
-17.2766438541
 10
0.2636494859
 20
-17.2654471212
 10
0.2883898638
 20
-17.2572933312
 10
0.3140121214
 20
-17.2523215974
 10
0.3400791128
 20
-17.2506167434
  0
LINE
  5
3F1
100
AcDbEntity
  8
0
100
AcDbLine
 62
7
  6
CONTINUOUS
 10
5.2109770569
 20
19.2837554398
 11
5.2443571039
 21
19.4673436979
  0
LINE
  5
3F2
100
AcDbEntity
  8
0
100
AcDbLine
 62
7
  6
CONTINUOUS
 10
5.1859501318
 20
18.1475168515
 11
5.2193301807
 21
18.3311051205
  0
LWPOLYLINE
  5
3F3
100
AcDbEntity
  8
0
100
AcDbPolyline
 62
7
  6
CONTINUOUS
 90
31
 70
0
 10
5.4869213413
 20
18.8283778984
 10
5.4980534645
 20
18.8689406144
 10
5.5138659344
 20
18.9074842704
 10
5.534358751
 20
18.9440088817
 10
5.5598175755
 20
18.97944291
 10
5.5899567466
 20
19.0128579184
 10
5.6239192802
 20
19.0414685925
 10
5.6620110918
 20
19.0643728807
 10
5.7039262659
 20
19.0824728883
 10
5.7478900719
 20
19.0956895486
 10
5.7939342101
 20
19.1040013393
 10
5.8420269802
 20
19.1074298043
 10
5.8902985506
 20
19.1059604691
 10
5.9388124177
 20
19.0997659887
 10
5.9875050849
 20
19.0886737005
 10
6.0343162314
 20
19.0721511456
 10
6.0790184084
 20
19.0496848787
 10
6.1218390646
 20
19.0217883005
 10
6.1614002247
 20
18.9894692167
 10
6.1978468185
 20
18.9523098229
 10
6.2310339163
 20
18.9107278594
 10
6.2591487529
 20
18.8669844679
 10
6.2813999155
 20
18.8209189175
 10
6.298578817
 20
18.7726918997
 10
6.3112469317
 20
18.7250467345
 10
6.3191308171
 20
18.6786325787
 10
6.3225039157
 20
18.6328002914
 10
6.3227480285
 20
18.5883457793
 10
6.3202825554
 20
18.545392562
 10
6.3146880966
 20
18.5038171453
 10
6.3060882528
 20
18.4640449254
  0
LWPOLYLINE
  5
3F4
100
AcDbEntity
  8
0
100
AcDbPolyline
 62
7
  6
CONTINUOUS
 90
16
 70
0
 10
6.3311167176
 20
19.6002880151
 10
6.3193853778
 20
19.5623608781
 10
6.304648816
 20
19.5262367403
 10
6.2874111194
 20
19.4922182452
 10
6.2677167437
 20
19.4603898596
 10
6.2455212333
 20
19.4306671464
 10
6.2211953081
 20
19.4030993949
 10
6.1947285643
 20
19.3775600565
 10
6.1661314057
 20
19.3541757034
 10
6.1358057642
 20
19.3333753064
 10
6.1035820404
 20
19.3152542771
 10
6.0696298337
 20
19.2997172253
 10
6.0348598735
 20
19.2869069197
 10
5.9995757364
 20
19.2768709543
 10
5.9634738458
 20
19.269561748
 10
5.9265542018
 20
19.2649793051
  0
LWPOLYLINE
  5
3F5
100
AcDbEntity
  8
0
100
AcDbPolyline
 62
7
  6
CONTINUOUS
 90
16
 70
0
 10
6.3060882528
 20
18.4640449254
 10
6.2943561231
 20
18.426116812
 10
6.2796186085
 20
18.3899919238
 10
6.2623800126
 20
18.3559729746
 10
6.2426848115
 20
18.3241444827
 10
6.2204885291
 20
18.2944219577
 10
6.1961620402
 20
18.2668546017
 10
6.1696949657
 20
18.2413158926
 10
6.1410976847
 20
18.2179323746
 10
6.1107722094
 20
18.1971328507
 10
6.0785489946
 20
18.1790127395
 10
6.0445975856
 20
18.1634766422
 10
6.0098286302
 20
18.1506671368
 10
5.9745456778
 20
18.1406317533
 10
5.9384451791
 20
18.1333229739
 10
5.901527134
 20
18.1287408023
  0
LINE
  5
3F6
100
AcDbEntity
  8
0
100
AcDbLine
 62
7
  6
CONTINUOUS
 10
-2.4449998708
 20
4.1000838374
 11
3.2550001292
 21
4.1000838374
  0
LINE
  5
3F7
100
AcDbEntity
  8
DRAFT
100
AcDbLine
 62
7
  6
CONTINUOUS
 10
9.9860578737
 20
-6.3499161626
 11
10.063726997
 21
-6.4275852859
  0
LINE
  5
3F8
100
AcDbEntity
  8
0
100
AcDbLine
 62
7
  6
CONTINUOUS
 10
3.3550001292
 20
1.4500838374
 11
3.2550001292
 21
1.5500838374
  0
LWPOLYLINE
  5
3F9
100
AcDbEntity
  8
0
100
AcDbPolyline
 62
7
  6
CONTINUOUS
 90
28
 70
0
 10
3.0074479731
 20
21.5044197966
 10
3.0056037532
 20
21.5527530296
 10
2.9996438432
 20
21.5980804379
 10
2.9895682429
 20
21.6404020529
 10
2.9752928564
 20
21.6799061673
 10
2.9569017798
 20
21.7164045447
 10
2.934647301
 20
21.7493324255
 10
2.9082298139
 20
21.7787461508
 10
2.8779489246
 20
21.8045894317
 10
2.8449557396
 20
21.8261285683
 10
2.8090401448
 20
21.8431263644
 10
2.7704122542
 20
21.8558200564
 10
2.7308535162
 20
21.8641875907
 10
2.6903258375
 20
21.8681264101
 10
2.6488673114
 20
21.8677390847
 10
2.6083736666
 20
21.8633112451
 10
2.5689028266
 20
21.8549637852
 10
2.5303968679
 20
21.842575799
 10
2.4945777496
 20
21.8260702112
 10
2.4616006367
 20
21.8051946221
 10
2.4313103643
 20
21.7802013942
 10
2.4049633962
 20
21.7517705936
 10
2.3829139787
 20
21.7198815741
 10
2.3648078657
 20
21.684554933
 10
2.350838782
 20
21.6465326082
 10
2.3410713027
 20
21.6060618988
 10
2.3354408528
 20
21.5628954579
 10
2.3339474323
 20
21.5170332584
  0
LWPOLYLINE
  5
3FA
100
AcDbEntity
  8
0
100
AcDbPolyline
 62
7
  6
CONTINUOUS
 90
34
 70
0
 10
3.7125275175
 20
20.0333775158
 10
3.712365519
 20
20.0593523422
 10
3.7112712313
 20
20.0852448446
 10
3.7092446544
 20
20.1110550233
 10
3.7063882226
 20
20.1368544405
 10
3.7025995015
 20
20.1625715345
 10
3.6975711884
 20
20.1879916213
 10
3.6912854028
 20
20.2131227406
 10
3.6837600252
 20
20.2379568558
 10
3.6747413935
 20
20.2622551718
 10
3.6641362118
 20
20.2860628382
 10
3.6520377761
 20
20.3093347107
 10
3.6384723124
 20
20.3316965563
 10
3.6234053159
 20
20.3531714915
 10
3.6068712915
 20
20.3737364083
 10
3.5889999801
 20
20.3929477411
 10
3.5697107799
 20
20.4107094109
 10
3.5490842926
 20
20.427117508
 10
3.5274920652
 20
20.4420167218
 10
3.5048839317
 20
20.4552825598
 10
3.4813100581
 20
20.4670395242
 10
3.457292489
 20
20.4775057959
 10
3.4328981212
 20
20.4866628178
 10
3.408060058
 20
20.4945291526
 10
3.3830996536
 20
20.501378659
 10
3.358114472
 20
20.5072276994
 10
3.3330069491
 20
20.5120599144
 10
3.3078057473
 20
20.5161000783
 10
3.2825166101
 20
20.5193601055
 10
3.2571337939
 20
20.5218280829
 10
3.2316687303
 20
20.5236930442
 10
3.2061252297
 20
20.5250180004
 10
3.1804994818
 20
20.5257399407
 10
3.1547914864
 20
20.5258588654
  0
LINE
  5
3FB
100
AcDbEntity
  8
0
100
AcDbLine
 62
7
  6
CONTINUOUS
 10
2.4234251292
 20
15.3567978374
 11
2.4234251292
 21
16.1929328374
  0
LINE
  5
3FC
100
AcDbEntity
  8
0
100
AcDbLine
 62
7
  6
CONTINUOUS
 10
2.4234251292
 20
18.1130708374
 11
2.4234251292
 21
18.9492058374
  0
LINE
  5
3FD
100
AcDbEntity
  8
SMUSSO
100
AcDbLine
 62
7
  6
CONTINUOUS
 10
2.4550001292
 20
7.8000838374
 11
2.4550001292
 21
6.4000838374
  0
LINE
  5
3FE
100
AcDbEntity
  8
0
100
AcDbLine
 62
7
  6
CONTINUOUS
 10
2.9003201292
 20
15.3567978374
 11
2.9003201292
 21
16.1362088374
  0
LINE
  5
3FF
100
AcDbEntity
  8
0
100
AcDbLine
 62
7
  6
CONTINUOUS
 10
2.9003201292
 20
18.1130708374
 11
2.9003201292
 21
18.8925248374
  0
LINE
  5
400
100
AcDbEntity
  8
0
100
AcDbLine
 62
7
  6
CONTINUOUS
 10
3.0074479731
 20
20.9761767265
 11
3.0074479731
 21
21.5044197966
  0
LINE
  5
401
100
AcDbEntity
  8
Z030100_COP
100
AcDbLine
 62
7
  6
CONTINUOUS
 10
3.0300001292
 20
7.0500838374
 11
3.0300001292
 21
9.4500838374
  0
LINE
  5
402
100
AcDbEntity
  8
0
100
AcDbLine
 62
7
  6
CONTINUOUS
 10
3.0684011292
 20
15.3567978374
 11
3.0684011292
 21
16.1362088374
  0
LINE
  5
403
100
AcDbEntity
  8
0
100
AcDbLine
 62
7
  6
CONTINUOUS
 10
3.0684011292
 20
18.1130708374
 11
3.0684011292
 21
18.8925248374
  0
LINE
  5
404
100
AcDbEntity
  8
0
100
AcDbLine
 62
7
  6
CONTINUOUS
 10
3.0874353569
 20
20.9761767265
 11
3.0874353569
 21
21.4897024998
  0
LINE
  5
405
100
AcDbEntity
  8
0
100
AcDbLine
 62
7
  6
CONTINUOUS
 10
3.2550001292
 20
1.5500838374
 11
3.2550001292
 21
5.1500838374
  0
LINE
  5
406
100
AcDbEntity
  8
DRAFT
100
AcDbLine
 62
7
  6
CONTINUOUS
 10
3.5050001292
 20
-19.0499161626
 11
3.5050001292
 21
-20.2499161626
  0
LINE
  5
407
100
AcDbEntity
  8
DRAFT
100
AcDbLine
 62
7
  6
CONTINUOUS
 10
3.5050001292
 20
23.3500838374
 11
3.5050001292
 21
24.5500838374
  0
LINE
  5
408
100
AcDbEntity
  8
0
100
AcDbLine
 62
7
  6
CONTINUOUS
 10
3.5873021292
 20
15.3567978374
 11
3.5873021292
 21
16.1992318374
  0
LINE
  5
409
100
AcDbEntity
  8
0
100
AcDbLine
 62
7
  6
CONTINUOUS
 10
3.5873021292
 20
18.1130708374
 11
3.5873021292
 21
18.9555338374
  0
LINE
  5
40A
100
AcDbEntity
  8
0
100
AcDbLine
 62
7
  6
CONTINUOUS
 10
3.7550001292
 20
5.1500838374
 11
3.7550001292
 21
6.7000838374
  0
LINE
  5
40B
100
AcDbEntity
  8
0
100
AcDbLine
 62
7
  6
CONTINUOUS
 10
3.7553681292
 20
13.5437808374
 11
3.7553681292
 21
13.7328488374
  0
LINE
  5
40C
100
AcDbEntity
  8
0
100
AcDbLine
 62
7
  6
CONTINUOUS
 10
3.7553681292
 20
14.5206928374
 11
3.7553681292
 21
14.7391828374
  0
LINE
  5
40D
100
AcDbEntity
  8
0
100
AcDbLine
 62
7
  6
CONTINUOUS
 10
3.7553681292
 20
15.1572058374
 11
3.7553681292
 21
16.1992318374
  0
LINE
  5
40E
100
AcDbEntity
  8
0
100
AcDbLine
 62
7
  6
CONTINUOUS
 10
3.7553681292
 20
17.9134928374
 11
3.7553681292
 21
18.9555338374
  0
LINE
  5
40F
100
AcDbEntity
  8
0
100
AcDbLine
 62
7
  6
CONTINUOUS
 10
3.7553721292
 20
16.8987868374
 11
3.7553721292
 21
17.1256668374
  0
LINE
  5
410
100
AcDbEntity
  8
0
100
AcDbLine
 62
7
  6
CONTINUOUS
 10
3.7567130395
 20
20.8835185982
 11
3.7567130395
 21
20.9761767265
  0
LINE
  5
411
100
AcDbEntity
  8
0
100
AcDbLine
 62
7
  6
CONTINUOUS
 10
3.9800001292
 20
5.1500838374
 11
3.9800001292
 21
10.0500838374
  0
LINE
  5
412
100
AcDbEntity
  8
Z030100_COP
100
AcDbLine
 62
7
  6
CONTINUOUS
 10
4.0550001292
 20
10.1250838374
 11
4.0550001292
 21
10.9500838374
  0
LWPOLYLINE
  5
413
100
AcDbEntity
  8
RACCORDO
100
AcDbPolyline
 62
7
  6
CONTINUOUS
 90
13
 70
0
 10
4.9055185279
 20
14.7555978295
 10
4.9072899848
 20
14.7836438593
 10
4.9125422728
 20
14.8109929767
 10
4.9211459153
 20
14.8372238077
 10
4.9329066942
 20
14.861965027
 10
4.9475924877
 20
14.8848252678
 10
4.9649548036
 20
14.9053884984
 10
4.9847167312
 20
14.9233630388
 10
5.0065004025
 20
14.9384689168
 10
5.0298466067
 20
14.9503871637
 10
5.0543118966
 20
14.9589501797
 10
5.0794966361
 20
14.9641131472
 10
5.1049759894
 20
14.9658463134
  0
LWPOLYLINE
  5
414
100
AcDbEntity
  8
0
100
AcDbPolyline
 62
7
  6
CONTINUOUS
 90
7
 70
0
 10
5.4529800382
 20
19.647476849
 10
5.4535243263
 20
19.6521662492
 10
5.453985634
 20
19.6569552819
 10
5.4543639612
 20
19.6618439469
 10
5.454659308
 20
19.6668322443
 10
5.4548716745
 20
19.6719201739
 10
5.4550010604
 20
19.6771077355
  0
LWPOLYLINE
  5
415
100
AcDbEntity
  8
0
100
AcDbPolyline
 62
7
  6
CONTINUOUS
 90
7
 70
0
 10
5.4279527102
 20
18.5112378907
 10
5.4284970086
 20
18.5159273416
 10
5.4289583257
 20
18.5207164336
 10
5.4293366614
 20
18.5256051668
 10
5.4296320157
 20
18.5305935409
 10
5.4298443886
 20
18.535681556
 10
5.4299737802
 20
18.5408692118
  0
LINE
  5
416
100
AcDbEntity
  8
DRAFT
100
AcDbLine
 62
7
  6
CONTINUOUS
 10
-2.2718151171
 20
-19.0499161626
 11
-2.6068363804
 21
-20.2499161626
  0
LINE
  5
417
100
AcDbEntity
  8
DRAFT
100
AcDbLine
 62
7
  6
CONTINUOUS
 10
-3.5683372184
 20
-21.3499161626
 11
-3.5476844252
 21
-21.2800959028
  0
LINE
  5
418
100
AcDbEntity
  8
DRAFT
100
AcDbLine
 62
7
  6
CONTINUOUS
 10
9.9860578737
 20
8.7500838374
 11
10.063726997
 21
8.8277529608
  0
LINE
  5
419
100
AcDbEntity
  8
DRAFT
100
AcDbLine
 62
7
  6
CONTINUOUS
 10
-9.1760576152
 20
-10.6499161626
 11
-9.2537267386
 21
-10.7275852859
  0
LINE
  5
41A
100
AcDbEntity
  8
0
100
AcDbLine
 62
7
  6
CONTINUOUS
 10
-8.4949998708
 20
5.1500838374
 11
-7.7699998708
 21
5.1500838374
  0
LINE
  5
41B
100
AcDbEntity
  8
0
100
AcDbLine
 62
7
  6
CONTINUOUS
 10
-3.1699998708
 20
5.1500838374
 11
-2.4449998708
 21
5.1500838374
  0
LINE
  5
41C
100
AcDbEntity
  8
0
100
AcDbLine
 62
7
  6
CONTINUOUS
 10
3.2550001292
 20
5.1500838374
 11
3.9800001292
 21
5.1500838374
  0
LINE
  5
41D
100
AcDbEntity
  8
0
100
AcDbLine
 62
7
  6
CONTINUOUS
 10
8.5800001292
 20
5.1500838374
 11
9.3050001292
 21
5.1500838374
  0
LINE
  5
41E
100
AcDbEntity
  8
Z030100_COP
100
AcDbLine
 62
7
  6
CONTINUOUS
 10
9.3550001292
 20
5.2500838374
 11
9.1550001292
 21
5.2500838374
  0
LINE
  5
41F
100
AcDbEntity
  8
Z030100_COP
100
AcDbLine
 62
7
  6
CONTINUOUS
 10
-8.3449998708
 20
5.2500838374
 11
-8.5449998708
 21
5.2500838374
  0
LINE
  5
420
100
AcDbEntity
  8
0
100
AcDbLine
 62
7
  6
CONTINUOUS
 10
-3.8699998708
 20
10.7500838374
 11
-3.1699998708
 21
10.0500838374
  0
LINE
  5
421
100
AcDbEntity
  8
DRAFT
100
AcDbLine
 62
7
  6
CONTINUOUS
 10
-3.5683372184
 20
25.6500838374
 11
-3.5476844252
 21
25.5802635777
  0
LINE
  5
422
100
AcDbEntity
  8
DRAFT
100
AcDbLine
 62
7
  6
CONTINUOUS
 10
-2.6068363804
 20
24.5500838374
 11
-2.2718151171
 21
23.3500838374
  0
LWPOLYLINE
  5
423
100
AcDbEntity
  8
RACCORDO
100
AcDbPolyline
 62
250
  6
CONTINUOUS
 90
13
 70
0
 10
7.0648469763
 20
-17.9670734501
 10
7.0666691792
 20
-17.9852755203
 10
7.0718093358
 20
-18.0032311123
 10
7.0802125492
 20
-18.0206353077
 10
7.0917804359
 20
-18.0372036772
 10
7.1063383809
 20
-18.052627081
 10
7.1236090106
 20
-18.0665901839
 10
7.1432823304
 20
-18.078844704
 10
7.165035705
 20
-18.0891917291
 10
7.1884820965
 20
-18.0974486214
 10
7.2132133445
 20
-18.1034766082
 10
7.2388113823
 20
-18.1071784911
 10
7.264839361
 20
-18.1084948063
  0
LINE
  5
424
100
AcDbEntity
  8
RACCORDO
100
AcDbLine
 62
250
  6
CONTINUOUS
 10
4.9607975422
 20
12.4500838374
 11
4.9055185279
 21
14.7555978295
  0
LINE
  5
425
100
AcDbEntity
  8
RACCORDO
100
AcDbLine
 62
250
  6
CONTINUOUS
 10
5.1652961048
 20
12.4500838374
 11
5.1049759894
 21
14.9658463134
  0
LINE
  5
426
100
AcDbEntity
  8
DRAFT
100
AcDbLine
 62
7
  6
CONTINUOUS
 10
4.1550001292
 20
23.3500838374
 11
4.1550001292
 21
23.3148690515
  0
LINE
  5
427
100
AcDbEntity
  8
DRAFT
100
AcDbLine
 62
7
  6
CONTINUOUS
 10
4.1550001292
 20
-19.0499161626
 11
4.1550001292
 21
-19.0147013766
  0
LINE
  5
428
100
AcDbEntity
  8
0
100
AcDbLine
 62
7
  6
CONTINUOUS
 10
4.6550001292
 20
-7.2499161626
 11
4.6550001292
 21
-9.0499161626
  0
LINE
  5
429
100
AcDbEntity
  8
RACCORDO
100
AcDbLine
 62
250
  6
CONTINUOUS
 10
5.705024269
 20
14.9658463134
 11
5.6447041537
 21
12.4500838374
  0
LINE
  5
42A
100
AcDbEntity
  8
RACCORDO
100
AcDbLine
 62
250
  6
CONTINUOUS
 10
5.9044817306
 20
14.7555978295
 11
5.8492027163
 21
12.4500838374
  0
LINE
  5
42B
100
AcDbEntity
  8
0
100
AcDbLine
 62
7
  6
CONTINUOUS
 10
8.587674108
 20
19.3657726666
 11
8.6204161911
 21
19.5499474426
  0
LINE
  5
42C
100
AcDbEntity
  8
0
100
AcDbLine
 62
7
  6
CONTINUOUS
 10
8.587674108
 20
18.2003566047
 11
8.6204161911
 21
18.3845313808
  0
LWPOLYLINE
  5
42D
100
AcDbEntity
  8
0
100
AcDbPolyline
 62
7
  6
CONTINUOUS
 90
10
 70
0
 10
8.8925853937
 20
20.0492653271
 10
8.8996745074
 20
20.0765716779
 10
8.9085573718
 20
20.1029101784
 10
8.9192339871
 20
20.1282808339
 10
8.9317220541
 20
20.1528403231
 10
8.946003872
 20
20.1764319772
 10
8.9620263373
 20
20.198585783
 10
8.9797717492
 20
20.2191450748
 10
8.9992578087
 20
20.2382665321
 10
9.0204845157
 20
20.255950161
  0
LWPOLYLINE
  5
42E
100
AcDbEntity
  8
0
100
AcDbPolyline
 62
7
  6
CONTINUOUS
 90
10
 70
0
 10
8.8925853937
 20
18.8838490864
 10
8.8996744122
 20
18.9111552823
 10
8.9085572037
 20
18.93749368
 10
8.9192337682
 20
18.9628642845
 10
8.9317218079
 20
18.9874237866
 10
8.9460036207
 20
19.0110155048
 10
8.9620260999
 20
19.0331693877
 10
8.9797715433
 20
19.0537287567
 10
8.9992576532
 20
19.0728503034
 10
9.0204844295
 20
19.0905340334
  0
LINE
  5
42F
100
AcDbEntity
  8
RACCORDO
100
AcDbLine
 62
7
  6
CONTINUOUS
 10
-7.006843275
 20
-11.5617595668
 11
-7.0942054845
 21
-11.6491217763
  0
LINE
  5
430
100
AcDbEntity
  8
RACCORDO
100
AcDbLine
 62
250
  6
CONTINUOUS
 10
-7.0051131325
 20
-12.4600484628
 11
-7.0939809403
 21
-12.5489162706
  0
LINE
  5
431
100
AcDbEntity
  8
0
100
AcDbLine
 62
7
  6
CONTINUOUS
 10
-2.9449998708
 20
6.4000838374
 11
-1.6449998708
 21
6.4000838374
  0
LINE
  5
432
100
AcDbEntity
  8
0
100
AcDbLine
 62
7
  6
CONTINUOUS
 10
2.4550001292
 20
6.4000838374
 11
3.7550001292
 21
6.4000838374
  0
LINE
  5
433
100
AcDbEntity
  8
0
100
AcDbLine
 62
7
  6
CONTINUOUS
 10
-3.1699998708
 20
6.7000838374
 11
-2.9449998708
 21
6.7000838374
  0
LINE
  5
434
100
AcDbEntity
  8
0
100
AcDbLine
 62
7
  6
CONTINUOUS
 10
3.7550001292
 20
6.7000838374
 11
3.9800001292
 21
6.7000838374
  0
LINE
  5
435
100
AcDbEntity
  8
Z030100_COP
100
AcDbLine
 62
7
  6
CONTINUOUS
 10
-3.1699998708
 20
7.0500838374
 11
-2.2199998708
 21
7.0500838374
  0
LINE
  5
436
100
AcDbEntity
  8
Z030100_COP
100
AcDbLine
 62
7
  6
CONTINUOUS
 10
3.0300001292
 20
7.0500838374
 11
3.9800001292
 21
7.0500838374
  0
LINE
  5
437
100
AcDbEntity
  8
0
100
AcDbLine
 62
7
  6
CONTINUOUS
 10
5.9515971576
 20
16.9959174972
 11
5.9369931289
 21
17.1711608411
  0
LWPOLYLINE
  5
438
100
AcDbEntity
  8
0
100
AcDbPolyline
 62
7
  6
CONTINUOUS
 90
27
 70
0
 10
5.4291794363
 20
18.5641783934
 10
5.4273234923
 20
18.5867985863
 10
5.4244059482
 20
18.6087297936
 10
5.4203526665
 20
18.6300537638
 10
5.4152377847
 20
18.6506887541
 10
5.4092837151
 20
18.6703895306
 10
5.4024805986
 20
18.6891581868
 10
5.3948382943
 20
18.7069926364
 10
5.3866087913
 20
18.723641378
 10
5.3778201674
 20
18.7389867509
 10
5.3684443448
 20
18.7531464235
 10
5.3586490802
 20
18.7662218887
 10
5.3484409292
 20
18.7782419547
 10
5.3378133362
 20
18.7891778187
 10
5.32691439
 20
18.7990445554
 10
5.3157666221
 20
18.8078216744
 10
5.304347501
 20
18.8155296703
 10
5.2927375222
 20
18.8222450949
 10
5.2809559527
 20
18.8279106756
 10
5.2689835255
 20
18.8325836876
 10
5.2568429345
 20
18.8365125047
 10
5.2445263137
 20
18.8397262098
 10
5.232041529
 20
18.842195721
 10
5.2194348718
 20
18.8440821654
 10
5.2067217728
 20
18.845439252
 10
5.1938868013
 20
18.846213272
 10
5.1809299574
 20
18.8464042257
  0
LWPOLYLINE
  5
439
100
AcDbEntity
  8
0
100
AcDbPolyline
 62
7
  6
CONTINUOUS
 90
27
 70
0
 10
5.454206714
 20
19.7004166706
 10
5.4523508203
 20
19.7230365587
 10
5.4494333793
 20
19.7449674031
 10
5.4453802543
 20
19.7662909219
 10
5.4402655821
 20
19.7869254029
 10
5.4343117726
 20
19.8066257052
 10
5.4275089845
 20
19.8253939295
 10
5.419867059
 20
19.8432279826
 10
5.41163793
 20
19.8598764346
 10
5.4028496732
 20
19.8752216525
 10
5.3934742129
 20
19.8893812776
 10
5.3836792552
 20
19.9024567921
 10
5.3734713461
 20
19.9144770164
 10
5.3628439396
 20
19.9254131358
 10
5.3519451031
 20
19.9352801787
 10
5.3407973588
 20
19.9440576626
 10
5.3293781845
 20
19.9517660742
 10
5.317768081
 20
19.9584818957
 10
5.3059863062
 20
19.9641478415
 10
5.2940136024
 20
19.9688211997
 10
5.2818726969
 20
19.9727503121
 10
5.2695557305
 20
19.9759642476
 10
5.2570705625
 20
19.9784339383
 10
5.2444634986
 20
19.9803205201
 10
5.2317499741
 20
19.981677705
 10
5.2189145538
 20
19.9824517814
 10
5.2059572377
 20
19.9826427494
  0
LWPOLYLINE
  5
43A
100
AcDbEntity
  8
RACCORDO
100
AcDbPolyline
 62
7
  6
CONTINUOUS
 90
12
 70
0
 10
7.7139366525
 20
-16.5499161626
 10
7.712184428
 20
-16.52391436
 10
7.7070706796
 20
-16.4983767499
 10
7.6986812614
 20
-16.4737218573
 10
7.687162184
 20
-16.4503483792
 10
7.6727051979
 20
-16.4286451547
 10
7.6555364262
 20
-16.4089898562
 10
7.6359258978
 20
-16.3917049522
 10
7.6142128882
 20
-16.3770930265
 10
7.5907904345
 20
-16.3654410569
 10
7.5660693575
 20
-16.3569511045
 10
7.5404638024
 20
-16.3517480757
  0
LWPOLYLINE
  5
43B
100
AcDbEntity
  8
RACCORDO
100
AcDbPolyline
 62
250
  6
CONTINUOUS
 90
16
 70
0
 10
7.1189946468
 20
-12.5358607231
 10
7.1164837356
 20
-12.4928585531
 10
7.1098550163
 20
-12.4513429924
 10
7.0991084891
 20
-12.4113140409
 10
7.0840134369
 20
-12.3723970525
 10
7.0648005768
 20
-12.3349666733
 10
7.0421620592
 20
-12.3001468424
 10
7.0160475732
 20
-12.268036684
 10
6.9865074298
 20
-12.2385370738
 10
6.9543847126
 20
-12.2124745782
 10
6.9195917444
 20
-12.1899028858
 10
6.8822162025
 20
-12.1707683081
 10
6.8433642024
 20
-12.1557363451
 10
6.8034044493
 20
-12.1450288303
 10
6.7619682381
 20
-12.1384239303
 10
6.7190555687
 20
-12.135921645
  0
LWPOLYLINE
  5
43C
100
AcDbEntity
  8
0
100
AcDbPolyline
 62
7
  6
CONTINUOUS
 90
7
 70
0
 10
5.5682191497
 20
18.6204067679
 10
5.5691219585
 20
18.5995653524
 10
5.5710218774
 20
18.5784221717
 10
5.5739189063
 20
18.5569772244
 10
5.5778130452
 20
18.5352305093
 10
5.5827042942
 20
18.5131820252
 10
5.5885926533
 20
18.4908317709
  0
LWPOLYLINE
  5
43D
100
AcDbEntity
  8
0
100
AcDbPolyline
 62
7
  6
CONTINUOUS
 90
7
 70
0
 10
5.59324643
 20
19.7566452916
 10
5.5941492238
 20
19.735804003
 10
5.5960491233
 20
19.7146609376
 10
5.5989461286
 20
19.6932160941
 10
5.6028402397
 20
19.6714694713
 10
5.6077314566
 20
19.6494210676
 10
5.6136197792
 20
19.6270708819
  0
LINE
  5
43E
100
AcDbEntity
  8
0
100
AcDbLine
 62
7
  6
CONTINUOUS
 10
5.4299737802
 20
18.5408692118
 11
5.4291794363
 21
18.5641783934
  0
LINE
  5
43F
100
AcDbEntity
  8
0
100
AcDbLine
 62
7
  6
CONTINUOUS
 10
5.4550010604
 20
19.6771077355
 11
5.454206714
 21
19.7004166706
  0
LINE
  5
440
100
AcDbEntity
  8
RACCORDO
100
AcDbLine
 62
250
  6
CONTINUOUS
 10
7.0250665853
 20
-16.5499161626
 11
6.9203194316
 21
-13.333766232
  0
LINE
  5
441
100
AcDbEntity
  8
RACCORDO
100
AcDbLine
 62
250
  6
CONTINUOUS
 10
7.2248370168
 20
-16.3499161626
 11
7.119819199
 21
-13.1254557781
  0
LWPOLYLINE
  5
442
100
AcDbEntity
  8
RACCORDO
100
AcDbPolyline
 62
250
  6
CONTINUOUS
 90
4
 70
0
 10
7.2628579356
 20
-16.3649302624
 10
7.2626439978
 20
-16.3563974935
 10
7.2624317861
 20
-16.3514872252
 10
7.2622213006
 20
-16.3499161626
  0
LWPOLYLINE
  5
443
100
AcDbEntity
  8
RACCORDO
100
AcDbPolyline
 62
250
  6
CONTINUOUS
 90
6
 70
0
 10
7.0633047391
 20
-16.5764598936
 10
7.0630842377
 20
-16.5665318609
 10
7.0628654602
 20
-16.5589203547
 10
7.0626515549
 20
-16.5536024308
 10
7.0624393735
 20
-16.5506010334
 10
7.062228916
 20
-16.5499161626
  0
LINE
  5
444
100
AcDbEntity
  8
RACCORDO
100
AcDbLine
 62
250
  6
CONTINUOUS
 10
7.4475074173
 20
-18.8594026739
 11
7.4344002717
 21
-18.1084948063
  0
LINE
  5
445
100
AcDbEntity
  8
RACCORDO
100
AcDbLine
 62
250
  6
CONTINUOUS
 10
7.6469288281
 20
-18.68657907
 11
7.6343698108
 21
-17.9670734501
  0
LINE
  5
446
100
AcDbEntity
  8
RACCORDO
100
AcDbLine
 62
250
  6
CONTINUOUS
 10
7.0637224252
 20
-16.6037009173
 11
7.0633047391
 21
-16.5764598936
  0
LINE
  5
447
100
AcDbEntity
  8
RACCORDO
100
AcDbLine
 62
250
  6
CONTINUOUS
 10
7.2632972951
 20
-16.3940410764
 11
7.2628579356
 21
-16.3649302624
  0
LINE
  5
448
100
AcDbEntity
  8
RACCORDO
100
AcDbLine
 62
250
  6
CONTINUOUS
 10
7.0608703369
 20
22.7229188657
 11
7.0648469763
 21
22.267241125
  0
LINE
  5
449
100
AcDbEntity
  8
RACCORDO
100
AcDbLine
 62
250
  6
CONTINUOUS
 10
7.2606040891
 20
22.8939765708
 11
7.264839361
 21
22.4086624812
  0
LINE
  5
44A
100
AcDbEntity
  8
RACCORDO
100
AcDbLine
 62
250
  6
CONTINUOUS
 10
7.0642622623
 20
-16.6610919193
 11
7.0637224252
 21
-16.6037009173
  0
LINE
  5
44B
100
AcDbEntity
  8
RACCORDO
100
AcDbLine
 62
250
  6
CONTINUOUS
 10
7.2639122156
 20
-16.4682149099
 11
7.2632972951
 21
-16.3940410764
  0
LINE
  5
44C
100
AcDbEntity
  8
RACCORDO
100
AcDbLine
 62
250
  6
CONTINUOUS
 10
7.0647766845
 20
-16.7808667161
 11
7.0642622623
 21
-16.6610919193
  0
LINE
  5
44D
100
AcDbEntity
  8
RACCORDO
100
AcDbLine
 62
250
  6
CONTINUOUS
 10
7.4344551386
 20
21.0747888048
 11
7.4352766117
 21
20.8734455517
  0
LINE
  5
44E
100
AcDbEntity
  8
RACCORDO
100
AcDbLine
 62
250
  6
CONTINUOUS
 10
7.2647690922
 20
-16.7348629959
 11
7.2639122156
 21
-16.4682149099
  0
LINE
  5
44F
100
AcDbEntity
  8
RACCORDO
100
AcDbLine
 62
250
  6
CONTINUOUS
 10
7.0648469763
 20
-16.8499161626
 11
7.0647766845
 21
-16.7808667161
  0
LINE
  5
450
100
AcDbEntity
  8
Z030100_COP
100
AcDbLine
 62
7
  6
CONTINUOUS
 10
5.8550001292
 20
10.9500838374
 11
5.8550001292
 21
10.7500838374
  0
LINE
  5
451
100
AcDbEntity
  8
RACCORDO
100
AcDbLine
 62
7
  6
CONTINUOUS
 10
6.3050001292
 20
-10.0999161626
 11
6.3050001292
 21
-9.0499161626
  0
LINE
  5
452
100
AcDbEntity
  8
RACCORDO
100
AcDbLine
 62
250
  6
CONTINUOUS
 10
6.4050001292
 20
1.4500838374
 11
6.4050001292
 21
-0.9499161626
  0
LINE
  5
453
100
AcDbEntity
  8
RACCORDO
100
AcDbLine
 62
7
  6
CONTINUOUS
 10
6.4050001292
 20
-10.8499161626
 11
6.4050001292
 21
-10.0999161626
  0
LINE
  5
454
100
AcDbEntity
  8
RACCORDO
100
AcDbLine
 62
250
  6
CONTINUOUS
 10
6.7190555687
 20
-12.135921645
 11
6.7190555688
 21
-12.335891184
  0
LINE
  5
455
100
AcDbEntity
  8
Z030100_COP
100
AcDbLine
 62
7
  6
CONTINUOUS
 10
6.7550001292
 20
10.9500838374
 11
6.7550001292
 21
10.7500838374
  0
LINE
  5
456
100
AcDbEntity
  8
RACCORDO
100
AcDbLine
 62
7
  6
CONTINUOUS
 10
6.9050001292
 20
1.4500838374
 11
6.9050001292
 21
-0.9499161626
  0
LINE
  5
457
100
AcDbEntity
  8
DRAFT
100
AcDbLine
 62
7
  6
CONTINUOUS
 10
6.9050001292
 20
-10.7398029008
 11
6.9050001292
 21
-11.4499161626
  0
LINE
  5
458
100
AcDbEntity
  8
RACCORDO
100
AcDbLine
 62
7
  6
CONTINUOUS
 10
6.9050001292
 20
-12.9687562921
 11
6.9050001292
 21
-12.5498857016
  0
LINE
  5
459
100
AcDbEntity
  8
DRAFT
100
AcDbLine
 62
7
  6
CONTINUOUS
 10
6.9050001292
 20
-10.7335512792
 11
6.9050001292
 21
-10.3499161626
  0
LINE
  5
45A
100
AcDbEntity
  8
RACCORDO
100
AcDbLine
 62
7
  6
CONTINUOUS
 10
6.9050001292
 20
-10.3499161626
 11
6.9050001292
 21
-10.0999161626
  0
LINE
  5
45B
100
AcDbEntity
  8
RACCORDO
100
AcDbLine
 62
250
  6
CONTINUOUS
 10
6.9190251078
 20
-12.5358607231
 11
6.9190251078
 21
-12.9617443369
  0
LINE
  5
45C
100
AcDbEntity
  8
RACCORDO
100
AcDbLine
 62
7
  6
CONTINUOUS
 10
7.0648469763
 20
22.267241125
 11
7.0648469763
 21
21.1500838374
  0
LINE
  5
45D
100
AcDbEntity
  8
RACCORDO
100
AcDbLine
 62
7
  6
CONTINUOUS
 10
7.0648469763
 20
-17.9670734501
 11
7.0648469763
 21
-16.8499161626
  0
LINE
  5
45E
100
AcDbEntity
  8
RACCORDO
100
AcDbLine
 62
250
  6
CONTINUOUS
 10
7.1189946468
 20
-12.5358607231
 11
7.1189946468
 21
-12.9600294243
  0
LINE
  5
45F
100
AcDbEntity
  8
RACCORDO
100
AcDbLine
 62
250
  6
CONTINUOUS
 10
7.264839361
 20
-18.1084948063
 11
7.2647690922
 21
-16.7348629959
  0
LINE
  5
460
100
AcDbEntity
  8
RACCORDO
100
AcDbLine
 62
250
  6
CONTINUOUS
 10
7.4344551386
 20
21.0747888048
 11
7.4344002717
 21
22.4086624812
  0
LINE
  5
461
100
AcDbEntity
  8
RACCORDO
100
AcDbLine
 62
250
  6
CONTINUOUS
 10
7.264839361
 20
22.4086624812
 11
7.2642322389
 21
20.8302030049
  0
LINE
  5
462
100
AcDbEntity
  8
RACCORDO
100
AcDbLine
 62
250
  6
CONTINUOUS
 10
7.4344002717
 20
-18.1084948063
 11
7.4348549628
 21
-16.646501369
  0
LINE
  5
463
100
AcDbEntity
  8
RACCORDO
100
AcDbLine
 62
250
  6
CONTINUOUS
 10
7.0648469763
 20
21.1500838374
 11
7.0645137297
 21
21.0036271792
  0
LINE
  5
464
100
AcDbEntity
  8
RACCORDO
100
AcDbLine
 62
250
  6
CONTINUOUS
 10
7.4348549628
 20
-16.646501369
 11
7.4353185035
 21
-16.5672919036
  0
LINE
  5
465
100
AcDbEntity
  8
RACCORDO
100
AcDbLine
 62
250
  6
CONTINUOUS
 10
7.2642322389
 20
20.8302030049
 11
7.2634925984
 21
20.7129932633
  0
LINE
  5
466
100
AcDbEntity
  8
RACCORDO
100
AcDbLine
 62
250
  6
CONTINUOUS
 10
7.0608703369
 20
-18.4227511908
 11
7.0648469763
 21
-17.9670734501
  0
LINE
  5
467
100
AcDbEntity
  8
RACCORDO
100
AcDbLine
 62
250
  6
CONTINUOUS
 10
7.264839361
 20
-18.1084948063
 11
7.2606040891
 21
-18.5938088959
  0
LINE
  5
468
100
AcDbEntity
  8
RACCORDO
100
AcDbLine
 62
250
  6
CONTINUOUS
 10
7.0645137297
 20
21.0036271792
 11
7.0638975008
 21
20.9190297732
  0
LWPOLYLINE
  5
469
100
AcDbEntity
  8
RACCORDO
100
AcDbPolyline
 62
250
  6
CONTINUOUS
 90
6
 70
0
 10
7.2634925984
 20
20.7129932633
 10
7.2630646372
 20
20.6767738044
 10
7.2628487631
 20
20.6646544267
 10
7.2626377897
 20
20.6563732994
 10
7.2624286356
 20
20.6516083479
 10
7.2622213006
 20
20.6500838374
  0
LWPOLYLINE
  5
46A
100
AcDbEntity
  8
RACCORDO
100
AcDbPolyline
 62
250
  6
CONTINUOUS
 90
8
 70
0
 10
7.0638975008
 20
20.9190297732
 10
7.0634999086
 20
20.8878163376
 10
7.0632895451
 20
20.8758590227
 10
7.0630717372
 20
20.8662103642
 10
7.0628558353
 20
20.8588141388
 10
7.0626449562
 20
20.8536516053
 10
7.0624359831
 20
20.8507415048
 10
7.062228916
 20
20.8500838374
  0
LINE
  5
46B
100
AcDbEntity
  8
RACCORDO
100
AcDbLine
 62
250
  6
CONTINUOUS
 10
7.4475074173
 20
23.1595703488
 11
7.4344002717
 21
22.4086624812
  0
LINE
  5
46C
100
AcDbEntity
  8
RACCORDO
100
AcDbLine
 62
250
  6
CONTINUOUS
 10
7.6469288281
 20
22.9867467449
 11
7.6343698108
 21
22.267241125
  0
LINE
  5
46D
100
AcDbEntity
  8
RACCORDO
100
AcDbLine
 62
250
  6
CONTINUOUS
 10
6.9203194316
 20
17.6339339069
 11
7.0250665853
 21
20.8500838374
  0
LINE
  5
46E
100
AcDbEntity
  8
RACCORDO
100
AcDbLine
 62
250
  6
CONTINUOUS
 10
7.119819199
 20
17.425623453
 11
7.2248370168
 21
20.6500838374
  0
LWPOLYLINE
  5
46F
100
AcDbEntity
  8
0
100
AcDbPolyline
 62
7
  6
CONTINUOUS
 90
7
 70
0
 10
8.1988609104
 20
19.8170006891
 10
8.2002850055
 20
19.8564607048
 10
8.2047002525
 20
19.8952048623
 10
8.2121066516
 20
19.9332331674
 10
8.2225042027
 20
19.9705456258
 10
8.2358929058
 20
20.007142243
 10
8.2522727609
 20
20.0430230243
  0
LWPOLYLINE
  5
470
100
AcDbEntity
  8
0
100
AcDbPolyline
 62
7
  6
CONTINUOUS
 90
7
 70
0
 10
8.1988609104
 20
20.9834397455
 10
8.2010655791
 20
21.031234657
 10
8.2076647351
 20
21.0776995897
 10
8.2186583783
 20
21.1228345575
 10
8.2340465088
 20
21.1666395737
 10
8.2538291266
 20
21.2091146513
 10
8.2780062317
 20
21.2502598031
  0
LWPOLYLINE
  5
471
100
AcDbEntity
  8
0
100
AcDbPolyline
 62
7
  6
CONTINUOUS
 90
7
 70
0
 10
8.1988609104
 20
17.4871915599
 10
8.2010659988
 20
17.5349878214
 10
8.2076654121
 20
17.5814535641
 10
8.2186591501
 20
17.626588799
 10
8.234047213
 20
17.670393537
 10
8.2538296007
 20
17.7128677886
 10
8.2780063132
 20
17.7540115643
  0
LWPOLYLINE
  5
472
100
AcDbEntity
  8
RACCORDO
100
AcDbPolyline
 62
7
  6
CONTINUOUS
 90
13
 70
0
 10
7.9234776337
 20
17.6334623625
 10
7.9217460464
 20
17.605860128
 10
7.9165596775
 20
17.5788945164
 10
7.9080391074
 20
17.5529948192
 10
7.8963688725
 20
17.528552855
 10
7.8817720847
 20
17.5059603438
 10
7.8644920413
 20
17.4856117191
 10
7.8448059652
 20
17.4678091073
 10
7.8230827499
 20
17.4528428804
 10
7.7997629466
 20
17.4410128656
 10
7.7752805005
 20
17.4324915515
 10
7.750038343
 20
17.4273477409
 10
7.7244626863
 20
17.425623453
  0
LWPOLYLINE
  5
473
100
AcDbEntity
  8
RACCORDO
100
AcDbPolyline
 62
250
  6
CONTINUOUS
 90
9
 70
0
 10
7.6396063303
 20
20.8500838374
 10
7.6378955631
 20
20.823978599
 10
7.6327925334
 20
20.7983200284
 10
7.6243845555
 20
20.773547151
 10
7.612815492
 20
20.7500838374
 10
7.598283293
 20
20.7283315516
 10
7.5810366083
 20
20.7086624812
 10
7.5613705336
 20
20.6914131694
 10
7.549336943
 20
20.682864789
  0
LWPOLYLINE
  5
474
100
AcDbEntity
  8
RACCORDO
100
AcDbPolyline
 62
7
  6
CONTINUOUS
 90
12
 70
0
 10
7.7139366525
 20
20.8500838374
 10
7.7121948142
 20
20.8242074056
 10
7.7071107707
 20
20.7987217868
 10
7.6987519323
 20
20.7740603421
 10
7.6872381479
 20
20.7506409146
 10
7.6727506739
 20
20.72887528
 10
7.6555364408
 20
20.7091575457
 10
7.6358932497
 20
20.6918410824
 10
7.6141398421
 20
20.6772179433
 10
7.5906188989
 20
20.6655370435
 10
7.5657170135
 20
20.6570163117
 10
7.5398650119
 20
20.6518281474
  0
LINE
  5
475
100
AcDbEntity
  8
DRAFT
100
AcDbLine
 62
7
  6
CONTINUOUS
 10
10.0550001292
 20
23.0500838374
 11
9.9888662667
 21
22.6529277265
  0
LINE
  5
476
100
AcDbEntity
  8
RACCORDO
100
AcDbLine
 62
250
  6
CONTINUOUS
 10
-6.505132171
 20
-12.9600294243
 11
-6.5938691093
 21
-13.0487663627
  0
LINE
  5
477
100
AcDbEntity
  8
0
100
AcDbLine
 62
7
  6
CONTINUOUS
 10
9.3050001292
 20
1.5500838374
 11
9.2050001292
 21
1.4500838374
  0
LINE
  5
478
100
AcDbEntity
  8
RACCORDO
100
AcDbLine
 62
7
  6
CONTINUOUS
 10
-9.1971028543
 20
8.8289013814
 11
-8.8072870676
 21
8.8382479447
  0
LWPOLYLINE
  5
479
100
AcDbEntity
  8
RACCORDO
100
AcDbPolyline
 62
250
  6
CONTINUOUS
 90
3
 70
0
 10
10.0323375947
 20
9.472344307
 10
10.018092362
 20
9.4720963132
 10
9.617287326
 20
9.4625090674
  0
LINE
  5
47A
100
AcDbEntity
  8
0
100
AcDbLine
 62
7
  6
CONTINUOUS
 10
3.0300001292
 20
7.8000838374
 11
-2.2199998708
 21
7.8000838374
  0
LINE
  5
47B
100
AcDbEntity
  8
DRAFT
100
AcDbLine
 62
7
  6
CONTINUOUS
 10
-9.1760576152
 20
8.7500838374
 11
-8.5949998708
 21
8.7500838374
  0
LINE
  5
47C
100
AcDbEntity
  8
DRAFT
100
AcDbLine
 62
7
  6
CONTINUOUS
 10
9.4050001292
 20
8.7500838374
 11
9.9860578737
 21
8.7500838374
  0
LINE
  5
47D
100
AcDbEntity
  8
RACCORDO
100
AcDbLine
 62
7
  6
CONTINUOUS
 10
10.1950416369
 20
8.8277529608
 11
10.063726997
 21
8.8277529608
  0
LINE
  5
47E
100
AcDbEntity
  8
RACCORDO
100
AcDbLine
 62
7
  6
CONTINUOUS
 10
-9.3850413784
 20
8.8277529608
 11
-9.2537267386
 21
8.8277529608
  0
LINE
  5
47F
100
AcDbEntity
  8
0
100
AcDbLine
 62
7
  6
CONTINUOUS
 10
9.4050001292
 20
8.8500838374
 11
9.3550001292
 21
8.8500838374
  0
LINE
  5
480
100
AcDbEntity
  8
0
100
AcDbLine
 62
7
  6
CONTINUOUS
 10
3.0300001292
 20
8.8500838374
 11
-2.2199998708
 21
8.8500838374
  0
LINE
  5
481
100
AcDbEntity
  8
0
100
AcDbLine
 62
7
  6
CONTINUOUS
 10
-8.5449998708
 20
8.8500838374
 11
-8.5949998708
 21
8.8500838374
  0
LINE
  5
482
100
AcDbEntity
  8
RACCORDO
100
AcDbLine
 62
250
  6
CONTINUOUS
 10
-10.1449998708
 20
9.1741410485
 11
-10.3449998708
 21
9.1741410485
  0
LINE
  5
483
100
AcDbEntity
  8
RACCORDO
100
AcDbLine
 62
250
  6
CONTINUOUS
 10
10.9550001292
 20
9.1741410485
 11
11.1550001292
 21
9.1741410485
  0
LINE
  5
484
100
AcDbEntity
  8
RACCORDO
100
AcDbLine
 62
7
  6
CONTINUOUS
 10
9.617287326
 20
8.8382479447
 11
10.0071031127
 21
8.8289013814
  0
LINE
  5
485
100
AcDbEntity
  8
RACCORDO
100
AcDbLine
 62
250
  6
CONTINUOUS
 10
-9.2080890195
 20
9.472110835
 11
-8.8072870676
 21
9.4625090674
  0
LINE
  5
486
100
AcDbEntity
  8
DRAFT
100
AcDbLine
 62
7
  6
CONTINUOUS
 10
10.063726997
 20
1.2724147141
 11
9.9860578737
 21
1.3500838374
  0
LINE
  5
487
100
AcDbEntity
  8
DRAFT
100
AcDbLine
 62
7
  6
CONTINUOUS
 10
10.0550001292
 20
-18.7499161626
 11
9.9888662667
 21
-18.3527600516
  0
LINE
  5
488
100
AcDbEntity
  8
RACCORDO
100
AcDbLine
 62
250
  6
CONTINUOUS
 10
7.5144110535
 20
20.6500838374
 11
7.7244626863
 21
17.425623453
  0
LINE
  5
489
100
AcDbEntity
  8
RACCORDO
100
AcDbLine
 62
250
  6
CONTINUOUS
 10
7.7139366525
 20
20.8500838374
 11
7.9234776337
 21
17.6334623625
  0
LWPOLYLINE
  5
48A
100
AcDbEntity
  8
0
100
AcDbPolyline
 62
7
  6
CONTINUOUS
 90
10
 70
0
 10
8.3513165979
 20
16.3371234109
 10
8.3527330648
 20
16.3089183729
 10
8.3568575692
 20
16.2821129002
 10
8.363690111
 20
16.2567069993
 10
8.373326691
 20
16.2326573382
 10
8.3856713086
 20
16.2100072607
 10
8.4004359617
 20
16.1888867874
 10
8.4175246498
 20
16.1693392621
 10
8.4370333735
 20
16.1513213517
 10
8.4589621327
 20
16.1348330608
  0
LWPOLYLINE
  5
48B
100
AcDbEntity
  8
0
100
AcDbPolyline
 62
7
  6
CONTINUOUS
 90
10
 70
0
 10
8.3513165979
 20
17.5097019096
 10
8.3526562075
 20
17.4821640604
 10
8.3565630343
 20
17.4554726372
 10
8.3630370783
 20
17.4296276443
 10
8.3722348847
 20
17.4044996055
 10
8.3839999084
 20
17.3802180047
 10
8.3978625141
 20
17.3571712881
 10
8.4136661567
 20
17.3354889421
 10
8.4315673813
 20
17.315041491
 10
8.4515661879
 20
17.2958289394
  0
LWPOLYLINE
  5
48C
100
AcDbEntity
  8
0
100
AcDbPolyline
 62
7
  6
CONTINUOUS
 90
10
 70
0
 10
8.3513165979
 20
21.0059502741
 10
8.3526558752
 20
20.9784139351
 10
8.3565623456
 20
20.9517236441
 10
8.3630360091
 20
20.9258794061
 10
8.3722332727
 20
20.9007517469
 10
8.3839977295
 20
20.8764701502
 10
8.3978601582
 20
20.8534230603
 10
8.4136641518
 20
20.8317399638
 10
8.4315661173
 20
20.8112913872
 10
8.4515660548
 20
20.7920773361
  0
LWPOLYLINE
  5
48D
100
AcDbEntity
  8
RACCORDO
100
AcDbPolyline
 62
250
  6
CONTINUOUS
 90
8
 70
0
 10
7.6366161068
 20
20.9039870394
 10
7.6370260323
 20
20.8890347756
 10
7.6374519038
 20
20.8766968664
 10
7.6378933701
 20
20.866743898
 10
7.6383314446
 20
20.8591124528
 10
7.6387597984
 20
20.8537813912
 10
7.6391847602
 20
20.8507718528
 10
7.6396063303
 20
20.8500838374
  0
LWPOLYLINE
  5
48E
100
AcDbEntity
  8
0
100
AcDbPolyline
 62
7
  6
CONTINUOUS
 90
10
 70
0
 10
8.3502934246
 20
18.6556773206
 10
8.3508908559
 20
18.6335035831
 10
8.3531824731
 20
18.6118039182
 10
8.3571682761
 20
18.5905783279
 10
8.362814621
 20
18.5697084527
 10
8.3701551518
 20
18.5493126558
 10
8.3792908007
 20
18.5297460254
 10
8.3902552119
 20
18.5111269266
 10
8.4030147413
 20
18.4933370009
 10
8.4175693888
 20
18.4763762511
  0
LWPOLYLINE
  5
48F
100
AcDbEntity
  8
0
100
AcDbPolyline
 62
7
  6
CONTINUOUS
 90
10
 70
0
 10
8.3502934246
 20
19.8210933825
 10
8.3508907973
 20
19.7989200336
 10
8.3531823492
 20
19.7772206576
 10
8.3571680804
 20
19.7559952566
 10
8.3628143217
 20
19.7351254646
 10
8.3701547424
 20
19.7147296517
 10
8.3792903498
 20
19.6951629254
 10
8.3902548131
 20
19.6765436578
 10
8.4030144632
 20
19.6587534839
 10
8.4175693
 20
19.6417924069
  0
LWPOLYLINE
  5
490
100
AcDbEntity
  8
RACCORDO
100
AcDbPolyline
 62
250
  6
CONTINUOUS
 90
6
 70
0
 10
7.4374820162
 20
20.6943221218
 10
7.4379235662
 20
20.6776526218
 10
7.43836172
 20
20.6651387815
 10
7.4387901399
 20
20.6565834487
 10
7.4392151636
 20
20.6516594884
 10
7.4396367912
 20
20.6500838374
  0
LINE
  5
491
100
AcDbEntity
  8
RACCORDO
100
AcDbLine
 62
250
  6
CONTINUOUS
 10
7.6358609743
 20
20.9404215666
 11
7.6366161068
 21
20.9039870394
  0
LINE
  5
492
100
AcDbEntity
  8
RACCORDO
100
AcDbLine
 62
250
  6
CONTINUOUS
 10
7.4366461288
 20
20.7398291411
 11
7.4374820162
 21
20.6943221218
  0
LINE
  5
493
100
AcDbEntity
  8
RACCORDO
100
AcDbLine
 62
250
  6
CONTINUOUS
 10
7.6352464375
 20
20.9841907724
 11
7.6358609743
 21
20.9404215666
  0
LINE
  5
494
100
AcDbEntity
  8
RACCORDO
100
AcDbLine
 62
250
  6
CONTINUOUS
 10
7.4358910085
 20
20.8007062495
 11
7.4366461288
 21
20.7398291411
  0
LINE
  5
495
100
AcDbEntity
  8
RACCORDO
100
AcDbLine
 62
250
  6
CONTINUOUS
 10
7.4352766117
 20
20.8734455517
 11
7.4358910085
 21
20.8007062495
  0
LINE
  5
496
100
AcDbEntity
  8
RACCORDO
100
AcDbLine
 62
250
  6
CONTINUOUS
 10
7.6346329366
 20
21.0567348621
 11
7.6352464375
 21
20.9841907724
  0
LWPOLYLINE
  5
497
100
AcDbEntity
  8
0
100
AcDbPolyline
 62
7
  6
CONTINUOUS
 90
7
 70
0
 10
8.8352866142
 20
18.5953090211
 10
8.8351073216
 20
18.6322468777
 10
8.8308913758
 20
18.6685195228
 10
8.8226387767
 20
18.7041269611
 10
8.8103495243
 20
18.7390691972
 10
8.7940236187
 20
18.7733462354
 10
8.7736610598
 20
18.8069580802
  0
LWPOLYLINE
  5
498
100
AcDbEntity
  8
0
100
AcDbPolyline
 62
7
  6
CONTINUOUS
 90
7
 70
0
 10
8.8352866142
 20
19.760725083
 10
8.8351074442
 20
19.7976625767
 10
8.8308915665
 20
19.8339350121
 10
8.8226389809
 20
19.869542394
 10
8.8103496876
 20
19.9044847273
 10
8.7940236865
 20
19.9387620169
 10
8.7736609776
 20
19.9723742675
  0
LINE
  5
499
100
AcDbEntity
  8
RACCORDO
100
AcDbLine
 62
250
  6
CONTINUOUS
 10
7.6343779528
 20
21.1275983804
 11
7.6346329366
 21
21.0567348621
  0
LINE
  5
49A
100
AcDbEntity
  8
RACCORDO
100
AcDbLine
 62
250
  6
CONTINUOUS
 10
7.6343698108
 20
22.267241125
 11
7.6343779528
 21
21.1275983804
  0
LINE
  5
49B
100
AcDbEntity
  8
RACCORDO
100
AcDbLine
 62
7
  6
CONTINUOUS
 10
7.8050001292
 20
-10.0999161626
 11
7.8050001292
 21
-9.0499161626
  0
LINE
  5
49C
100
AcDbEntity
  8
RACCORDO
100
AcDbLine
 62
7
  6
CONTINUOUS
 10
7.815113391
 20
-12.4600484628
 11
7.815113391
 21
-11.3617671822
  0
LINE
  5
49D
100
AcDbEntity
  8
DRAFT
100
AcDbLine
 62
7
  6
CONTINUOUS
 10
7.8875463936
 20
-9.0499161626
 11
7.8875463936
 21
-10.6673698981
  0
LINE
  5
49E
100
AcDbEntity
  8
DRAFT
100
AcDbLine
 62
7
  6
CONTINUOUS
 10
7.9050001292
 20
-9.0499161626
 11
7.9050001292
 21
-10.6499161626
  0
LINE
  5
49F
100
AcDbEntity
  8
Z030100_COP
100
AcDbLine
 62
7
  6
CONTINUOUS
 10
8.5550001292
 20
10.0750838374
 11
8.5550001292
 21
10.9500838374
  0
LINE
  5
4A0
100
AcDbEntity
  8
0
100
AcDbLine
 62
7
  6
CONTINUOUS
 10
8.5800001292
 20
10.0500838374
 11
8.5800001292
 21
5.1500838374
  0
LINE
  5
4A1
100
AcDbEntity
  8
RACCORDO
100
AcDbLine
 62
250
  6
CONTINUOUS
 10
8.6050001292
 20
1.4500838374
 11
8.6050001292
 21
-9.0499161626
  0
LINE
  5
4A2
100
AcDbEntity
  8
Z030100_COP
100
AcDbLine
 62
250
  6
CONTINUOUS
 10
9.0550001292
 20
12.4500838374
 11
9.0550001292
 21
5.5500838374
  0
LINE
  5
4A3
100
AcDbEntity
  8
0
100
AcDbLine
 62
7
  6
CONTINUOUS
 10
9.3050001292
 20
5.1500838374
 11
9.3050001292
 21
1.5500838374
  0
LINE
  5
4A4
100
AcDbEntity
  8
RACCORDO
100
AcDbLine
 62
250
  6
CONTINUOUS
 10
7.6343698108
 20
-17.9670734501
 11
7.6345242483
 21
-16.7776018919
  0
LINE
  5
4A5
100
AcDbEntity
  8
RACCORDO
100
AcDbLine
 62
250
  6
CONTINUOUS
 10
7.6345242483
 20
-16.7776018919
 11
7.6350347858
 21
-16.7036202315
  0
LINE
  5
4A6
100
AcDbEntity
  8
RACCORDO
100
AcDbLine
 62
250
  6
CONTINUOUS
 10
7.4353185035
 20
-16.5672919036
 11
7.43629596
 21
-16.4648859505
  0
LINE
  5
4A7
100
AcDbEntity
  8
RACCORDO
100
AcDbLine
 62
250
  6
CONTINUOUS
 10
7.6350347858
 20
-16.7036202315
 11
7.6355821363
 21
-16.6581016536
  0
LWPOLYLINE
  5
4A8
100
AcDbEntity
  8
RACCORDO
100
AcDbPolyline
 62
250
  6
CONTINUOUS
 90
8
 70
0
 10
7.43629596
 20
-16.4648859505
 10
7.4370911816
 20
-16.4129753951
 10
7.4375120251
 20
-16.3928655808
 10
7.4379478587
 20
-16.3766758728
 10
7.4383801095
 20
-16.3645259466
 10
7.4388025863
 20
-16.3562231906
 10
7.4392214802
 20
-16.3514450881
 10
7.4396367912
 20
-16.3499161626
  0
LWPOLYLINE
  5
4A9
100
AcDbEntity
  8
RACCORDO
100
AcDbPolyline
 62
250
  6
CONTINUOUS
 90
10
 70
0
 10
7.6355821363
 20
-16.6581016536
 10
7.6362660606
 20
-16.618998619
 10
7.6366562043
 20
-16.6022135276
 10
7.6370613744
 20
-16.5877371135
 10
7.6374824071
 20
-16.5757564217
 10
7.6379184661
 20
-16.5660844071
 10
7.6383507664
 20
-16.5586695281
 10
7.6387730464
 20
-16.5534946041
 10
7.6391915677
 20
-16.5505768156
 10
7.6396063303
 20
-16.5499161626
  0
LWPOLYLINE
  5
4AA
100
AcDbEntity
  8
0
100
AcDbPolyline
 62
7
  6
CONTINUOUS
 90
7
 70
0
 10
8.1988609104
 20
16.3391698023
 10
8.200121603
 20
16.3779033025
 10
8.2041664808
 20
16.415255818
 10
8.2109955437
 20
16.4512273574
 10
8.2206087918
 20
16.4858179292
 10
8.233006225
 20
16.5190275414
 10
8.2481878435
 20
16.5508562019
  0
LWPOLYLINE
  5
4AB
100
AcDbEntity
  8
0
100
AcDbPolyline
 62
7
  6
CONTINUOUS
 90
10
 70
0
 10
9.196473506
 20
20.9558137079
 10
9.1951002957
 20
20.9159659675
 10
9.1902397754
 20
20.8771350845
 10
9.1818919451
 20
20.8393210682
 10
9.1699515911
 20
20.8022691586
 10
9.1545239272
 20
20.7662341319
 10
9.1359245942
 20
20.731980307
 10
9.114258806
 20
20.6997624688
 10
9.0894213488
 20
20.6693258606
 10
9.0614122227
 20
20.6406704948
  0
LWPOLYLINE
  5
4AC
100
AcDbEntity
  8
0
100
AcDbPolyline
 62
7
  6
CONTINUOUS
 90
10
 70
0
 10
9.196473506
 20
17.4595653435
 10
9.1950999009
 20
17.4197153576
 10
9.1902389414
 20
17.3808828026
 10
9.1818906276
 20
17.343067686
 10
9.1699495583
 20
17.3060152566
 10
9.1545211346
 20
17.2699802789
 10
9.13592156
 20
17.2357270386
 10
9.1142562355
 20
17.203510307
 10
9.0894197599
 20
17.1730753356
 10
9.0614121334
 20
17.1444221345
  0
LWPOLYLINE
  5
4AD
100
AcDbEntity
  8
0
100
AcDbPolyline
 62
7
  6
CONTINUOUS
 90
7
 70
0
 10
8.1988609104
 20
18.6515844484
 10
8.2002850648
 20
18.691044738
 10
8.2047003427
 20
18.7297890628
 10
8.212106744
 20
18.7678174282
 10
8.2225042688
 20
18.8051298394
 10
8.235892917
 20
18.8417263017
 10
8.2522726886
 20
18.87760682
  0
LWPOLYLINE
  5
4AE
100
AcDbEntity
  8
RACCORDO
100
AcDbPolyline
 62
7
  6
CONTINUOUS
 90
16
 70
0
 10
7.9039811988
 20
-12.5489162706
 10
7.9012503589
 20
-12.6009595988
 10
7.8930898576
 20
-12.652555238
 10
7.8795514138
 20
-12.7031338239
 10
7.8607065047
 20
-12.7522209212
 10
7.8367486587
 20
-12.799163166
 10
7.8080853312
 20
-12.8431820031
 10
7.7752155098
 20
-12.8836705041
 10
7.7384373484
 20
-12.9203987351
 10
7.6979334938
 20
-12.9531932118
 10
7.6539618766
 20
-12.9817538017
 10
7.6071154347
 20
-13.0056104006
 10
7.5581050625
 20
-13.0243921325
 10
7.5075532237
 20
-13.0379017654
 10
7.4559522157
 20
-13.0460473506
 10
7.4038693678
 20
-13.0487663627
  0
LWPOLYLINE
  5
4AF
100
AcDbEntity
  8
RACCORDO
100
AcDbPolyline
 62
7
  6
CONTINUOUS
 90
13
 70
0
 10
6.9203194316
 20
-13.333766232
 10
6.9220645369
 20
-13.3061229051
 10
6.9272713453
 20
-13.2791088084
 10
6.935820599
 20
-13.2531551822
 10
6.947530033
 20
-13.228654141
 10
6.9621757756
 20
-13.2060013639
 10
6.9795095329
 20
-13.1855980626
 10
6.9992519954
 20
-13.1677474581
 10
7.0210331255
 20
-13.1527403709
 10
7.0444068389
 20
-13.1408803708
 10
7.0689356467
 20
-13.1323399256
 10
7.0942157559
 20
-13.1271850165
 10
7.119819199
 20
-13.1254557781
  0
LINE
  5
4B0
100
AcDbEntity
  8
RACCORDO
100
AcDbLine
 62
250
  6
CONTINUOUS
 10
7.7244626863
 20
-13.1254557781
 11
7.5144110535
 21
-16.3499161626
  0
LINE
  5
4B1
100
AcDbEntity
  8
RACCORDO
100
AcDbLine
 62
250
  6
CONTINUOUS
 10
7.9234776337
 20
-13.3332946876
 11
7.7139366525
 21
-16.5499161626
  0
LWPOLYLINE
  5
4B2
100
AcDbEntity
  8
RACCORDO
100
AcDbPolyline
 62
250
  6
CONTINUOUS
 90
9
 70
0
 10
7.062228916
 20
-16.5499161626
 10
7.0639398786
 20
-16.5238109241
 10
7.0690434913
 20
-16.4981523535
 10
7.0774524298
 20
-16.4733794761
 10
7.089022815
 20
-16.4499161626
 10
7.1035566742
 20
-16.4281638768
 10
7.1208053293
 20
-16.4084948063
 10
7.1404736508
 20
-16.3912454945
 10
7.1531957185
 20
-16.3822482849
  0
LWPOLYLINE
  5
4B3
100
AcDbEntity
  8
RACCORDO
100
AcDbPolyline
 62
7
  6
CONTINUOUS
 90
10
 70
0
 10
7.0250665853
 20
-16.5499161626
 10
7.0267838535
 20
-16.5239959968
 10
7.0318537459
 20
-16.4984786993
 10
7.0402045293
 20
-16.4737985321
 10
7.0517099115
 20
-16.4503761126
 10
7.0661859295
 20
-16.4286185634
 10
7.0833905942
 20
-16.4089104358
 10
7.1030326018
 20
-16.3915998586
 10
7.1247875014
 20
-16.376985596
 10
7.148299326
 20
-16.3653222716
  0
LINE
  5
4B4
100
AcDbEntity
  8
0
100
AcDbLine
 62
7
  6
CONTINUOUS
 10
8.8332402675
 20
19.7310523411
 11
8.8352866142
 21
19.760725083
  0
LINE
  5
4B5
100
AcDbEntity
  8
0
100
AcDbLine
 62
7
  6
CONTINUOUS
 10
8.8332402675
 20
18.5656362792
 11
8.8352866142
 21
18.5953090211
  0
LINE
  5
4B6
100
AcDbEntity
  8
DRAFT
100
AcDbLine
 62
7
  6
CONTINUOUS
 10
10.063726997
 20
0.4277529608
 11
9.9860578737
 21
0.3500838374
  0
LWPOLYLINE
  5
4B7
100
AcDbEntity
  8
RACCORDO
100
AcDbPolyline
 62
250
  6
CONTINUOUS
 90
19
 70
0
 10
-9.1049571979
 20
9.6741448287
 10
-9.1136333325
 20
9.6729576696
 10
-9.1221941028
 20
9.670038008
 10
-9.1305002016
 20
9.6655078655
 10
-9.138357081
 20
9.659519245
 10
-9.1457417486
 20
9.6521984196
 10
-9.1527827869
 20
9.6435963007
 10
-9.1593909868
 20
9.6338237533
 10
-9.1654930786
 20
9.622985905
 10
-9.1712108116
 20
9.6110494472
 10
-9.1764832158
 20
9.59802516
 10
-9.1811881853
 20
9.5840636958
 10
-9.185347238
 20
9.5693228218
 10
-9.1889349853
 20
9.5539136691
 10
-9.1918768282
 20
9.537954908
 10
-9.1941635627
 20
9.5216379675
 10
-9.1957975262
 20
9.5051126783
 10
-9.196774101
 20
9.4884786322
 10
-9.1971052543
 20
9.4718556882
  0
LWPOLYLINE
  5
4B8
100
AcDbEntity
  8
RACCORDO
100
AcDbPolyline
 62
250
  6
CONTINUOUS
 90
13
 70
0
 10
-8.6193485434
 20
9.662501452
 10
-8.6438330635
 20
9.6607192313
 10
-8.6679002642
 20
9.6555584702
 10
-8.6911399122
 20
9.6471071247
 10
-8.7131558764
 20
9.6355092418
 10
-8.7335728854
 20
9.6209625008
 10
-8.7520429234
 20
9.6037148428
 10
-8.7682511567
 20
9.5840602464
 10
-8.7819212951
 20
9.5623337277
 10
-8.7928203108
 20
9.5389056283
 10
-8.800762416
 20
9.5141752916
 10
-8.8056122269
 20
9.4885642537
 10
-8.8072870676
 20
9.4625090674
  0
LWPOLYLINE
  5
4B9
100
AcDbEntity
  8
RACCORDO
100
AcDbPolyline
 62
250
  6
CONTINUOUS
 90
19
 70
0
 10
-9.1049617514
 20
9.6741448566
 10
-9.1318285313
 20
9.6730768848
 10
-9.1576079058
 20
9.6702831583
 10
-9.182299875
 20
9.6658852138
 10
-9.2059717033
 20
9.6600349954
 10
-9.2285561263
 20
9.6528570831
 10
-9.2498513503
 20
9.6443996336
 10
-9.269838999
 20
9.6347717704
 10
-9.2885374486
 20
9.6240785849
 10
-9.3058000348
 20
9.6122882177
 10
-9.3216977333
 20
9.5994148461
 10
-9.3361595683
 20
9.5856062383
 10
-9.3488259479
 20
9.5710122885
 10
-9.3596276049
 20
9.5557420434
 10
-9.3686338064
 20
9.5399134633
 10
-9.3756927618
 20
9.5237107142
 10
-9.3807538744
 20
9.507279886
 10
-9.3838677408
 20
9.4907209428
 10
-9.3850343611
 20
9.474152472
  0
LWPOLYLINE
  5
4BA
100
AcDbEntity
  8
RACCORDO
100
AcDbPolyline
 62
7
  6
CONTINUOUS
 90
19
 70
0
 10
-9.8449998708
 20
9.6741448566
 10
-9.8819526203
 20
9.6727774976
 10
-9.9203954794
 20
9.6684276502
 10
-9.9600530375
 20
9.6607275004
 10
-10.0008432879
 20
9.6492370974
 10
-10.0420879832
 20
9.6336619795
 10
-10.0825941151
 20
9.6140864118
 10
-10.1219162571
 20
9.5904581732
 10
-10.1596086247
 20
9.5627586286
 10
-10.1946434515
 20
9.5315642035
 10
-10.2267011234
 20
9.4971050429
 10
-10.2554533497
 20
9.4596741933
 10
-10.2802050506
 20
9.420306387
 10
-10.3008749569
 20
9.3795152206
 10
-10.3175040003
 20
9.3376655196
 10
-10.3299857709
 20
9.2957506766
 10
-10.3385185398
 20
9.2543870758
 10
-10.3434288081
 20
9.2137468618
 10
-10.3449998708
 20
9.1741410485
  0
LINE
  5
4BB
100
AcDbEntity
  8
RACCORDO
100
AcDbLine
 62
250
  6
CONTINUOUS
 10
9.9149586216
 20
9.6741448566
 11
9.4270902015
 21
9.6624509648
  0
LWPOLYLINE
  5
4BC
100
AcDbEntity
  8
RACCORDO
100
AcDbPolyline
 62
250
  6
CONTINUOUS
 90
19
 70
0
 10
-9.8449998708
 20
9.474152472
 10
-9.8675170482
 20
9.4736838366
 10
-9.8905335303
 20
9.4709988505
 10
-9.9140493172
 20
9.4660975139
 10
-9.9384646996
 20
9.4590384032
 10
-9.9633793868
 20
9.4497629419
 10
-9.9875925063
 20
9.4380954003
 10
-10.011059094
 20
9.4238179052
 10
-10.0338241141
 20
9.4071483298
 10
-10.0548215874
 20
9.3885645634
 10
-10.0739021251
 20
9.3678827601
 10
-10.091215116
 20
9.3452867658
 10
-10.1061427481
 20
9.3218060069
 10
-10.1184561397
 20
9.2974228553
 10
-10.1283841724
 20
9.272154939
 10
-10.1359956787
 20
9.2470845691
 10
-10.1413136025
 20
9.2225725159
 10
-10.1443149999
 20
9.198258009
 10
-10.1449998708
 20
9.1741410485
  0
LINE
  5
4BD
100
AcDbEntity
  8
RACCORDO
100
AcDbLine
 62
250
  6
CONTINUOUS
 10
9.4270902015
 20
9.6624509648
 11
9.4212083096
 21
9.6623521024
  0
LINE
  5
4BE
100
AcDbEntity
  8
RACCORDO
100
AcDbLine
 62
250
  6
CONTINUOUS
 10
10.1158307526
 20
9.4734093942
 11
10.0323375947
 21
9.472344307
  0
LINE
  5
4BF
100
AcDbEntity
  8
RACCORDO
100
AcDbLine
 62
250
  6
CONTINUOUS
 10
9.4212083096
 20
9.6623521024
 11
9.4089737441
 21
9.6622090889
  0
LINE
  5
4C0
100
AcDbEntity
  8
RACCORDO
100
AcDbLine
 62
250
  6
CONTINUOUS
 10
10.1950416369
 20
9.474152472
 11
10.1158307526
 21
9.4734093942
  0
LINE
  5
4C1
100
AcDbEntity
  8
RACCORDO
100
AcDbLine
 62
250
  6
CONTINUOUS
 10
9.4089737441
 20
9.6622090889
 11
9.3807673376
 21
9.6620224952
  0
LINE
  5
4C2
100
AcDbEntity
  8
RACCORDO
100
AcDbLine
 62
250
  6
CONTINUOUS
 10
9.617287326
 20
9.4625090674
 11
9.5561641824
 21
9.4622167184
  0
LINE
  5
4C3
100
AcDbEntity
  8
RACCORDO
100
AcDbLine
 62
250
  6
CONTINUOUS
 10
9.3807673376
 20
9.6620224952
 11
9.3550001292
 21
9.6619443207
  0
LINE
  5
4C4
100
AcDbEntity
  8
RACCORDO
100
AcDbLine
 62
250
  6
CONTINUOUS
 10
9.5561641824
 20
9.4622167184
 11
9.3550001292
 21
9.4619364678
  0
LINE
  5
4C5
100
AcDbEntity
  8
Z030100_COP
100
AcDbLine
 62
7
  6
CONTINUOUS
 10
-3.1699998708
 20
9.4500838374
 11
-1.9929156324
 21
9.4500838374
  0
LINE
  5
4C6
100
AcDbEntity
  8
0
100
AcDbLine
 62
7
  6
CONTINUOUS
 10
-1.9929156324
 20
9.4500838374
 11
2.8029158909
 21
9.4500838374
  0
LINE
  5
4C7
100
AcDbEntity
  8
Z030100_COP
100
AcDbLine
 62
7
  6
CONTINUOUS
 10
2.8029158909
 20
9.4500838374
 11
3.9800001292
 21
9.4500838374
  0
LINE
  5
4C8
100
AcDbEntity
  8
RACCORDO
100
AcDbLine
 62
250
  6
CONTINUOUS
 10
10.6550001292
 20
9.474152472
 11
10.1950416369
 21
9.474152472
  0
LINE
  5
4C9
100
AcDbEntity
  8
RACCORDO
100
AcDbLine
 62
250
  6
CONTINUOUS
 10
-9.3850413784
 20
9.474152472
 11
-9.8449998708
 21
9.474152472
  0
LINE
  5
4CA
100
AcDbEntity
  8
RACCORDO
100
AcDbLine
 62
7
  6
CONTINUOUS
 10
10.6550001292
 20
9.6741448566
 11
9.9149586216
 21
9.6741448566
  0
LINE
  5
4CB
100
AcDbEntity
  8
RACCORDO
100
AcDbLine
 62
7
  6
CONTINUOUS
 10
-9.1049583631
 20
9.6741448566
 11
-9.8449998708
 21
9.6741448566
  0
LINE
  5
4CC
100
AcDbEntity
  8
RACCORDO
100
AcDbLine
 62
7
  6
CONTINUOUS
 10
-9.8449998708
 20
9.6811415819
 11
-9.2449998708
 21
9.6811415819
  0
LINE
  5
4CD
100
AcDbEntity
  8
RACCORDO
100
AcDbLine
 62
7
  6
CONTINUOUS
 10
10.0550001292
 20
9.6811415819
 11
10.6550001292
 21
9.6811415819
  0
LINE
  5
4CE
100
AcDbEntity
  8
DRAFT
100
AcDbLine
 62
7
  6
CONTINUOUS
 10
-9.1756905873
 20
9.7504508654
 11
-8.5449998708
 21
9.7504508654
  0
LINE
  5
4CF
100
AcDbEntity
  8
DRAFT
100
AcDbLine
 62
7
  6
CONTINUOUS
 10
9.3550001292
 20
9.7504508654
 11
9.9856908458
 21
9.7504508654
  0
LINE
  5
4D0
100
AcDbEntity
  8
0
100
AcDbLine
 62
7
  6
CONTINUOUS
 10
-7.0699998708
 20
10.7500838374
 11
-3.8699998708
 21
10.7500838374
  0
LINE
  5
4D1
100
AcDbEntity
  8
0
100
AcDbLine
 62
7
  6
CONTINUOUS
 10
4.6800001292
 20
10.7500838374
 11
7.8800001292
 21
10.7500838374
  0
LINE
  5
4D2
100
AcDbEntity
  8
Z030100_COP
100
AcDbLine
 62
7
  6
CONTINUOUS
 10
8.5550001292
 20
10.9500838374
 11
4.0550001292
 21
10.9500838374
  0
LINE
  5
4D3
100
AcDbEntity
  8
Z030100_COP
100
AcDbLine
 62
7
  6
CONTINUOUS
 10
-3.2449998708
 20
10.9500838374
 11
-7.7449998708
 21
10.9500838374
  0
LINE
  5
4D4
100
AcDbEntity
  8
RACCORDO
100
AcDbLine
 62
250
  6
CONTINUOUS
 10
-8.7816868887
 20
9.462354076
 11
-8.5449998708
 21
9.461936507
  0
LINE
  5
4D5
100
AcDbEntity
  8
RACCORDO
100
AcDbLine
 62
250
  6
CONTINUOUS
 10
-8.5820208976
 20
9.6620807358
 11
-8.5449998708
 21
9.6619444423
  0
LINE
  5
4D6
100
AcDbEntity
  8
RACCORDO
100
AcDbLine
 62
250
  6
CONTINUOUS
 10
-8.8072870676
 20
9.4625090674
 11
-8.7816868887
 21
9.462354076
  0
LINE
  5
4D7
100
AcDbEntity
  8
RACCORDO
100
AcDbLine
 62
250
  6
CONTINUOUS
 10
-8.6028186377
 20
9.6622478874
 11
-8.5820208976
 21
9.6620807358
  0
LWPOLYLINE
  5
4D8
100
AcDbEntity
  8
RACCORDO
100
AcDbPolyline
 62
250
  6
CONTINUOUS
 90
4
 70
0
 10
-9.3850413784
 20
9.474152472
 10
-9.2395666512
 20
9.4726212437
 10
-9.2223309653
 20
9.4723660394
 10
-9.2080890195
 20
9.472110835
  0
LINE
  5
4D9
100
AcDbEntity
  8
RACCORDO
100
AcDbLine
 62
250
  6
CONTINUOUS
 10
-8.6141143125
 20
9.6623969478
 11
-8.6028186377
 21
9.6622478874
  0
LINE
  5
4DA
100
AcDbEntity
  8
RACCORDO
100
AcDbLine
 62
250
  6
CONTINUOUS
 10
-8.6193485434
 20
9.662501452
 11
-8.6141143125
 21
9.6623969478
  0
LINE
  5
4DB
100
AcDbEntity
  8
RACCORDO
100
AcDbLine
 62
250
  6
CONTINUOUS
 10
-9.1049583631
 20
9.6741448566
 11
-8.6193485434
 21
9.662501452
  0
LINE
  5
4DC
100
AcDbEntity
  8
0
100
AcDbLine
 62
7
  6
CONTINUOUS
 10
5.901527134
 20
18.1287408023
 11
5.8764920984
 21
18.3123290637
  0
LINE
  5
4DD
100
AcDbEntity
  8
0
100
AcDbLine
 62
7
  6
CONTINUOUS
 10
5.9265542018
 20
19.2649793051
 11
5.9015201423
 21
19.4485677419
  0
LWPOLYLINE
  5
4DE
100
AcDbEntity
  8
RACCORDO
100
AcDbPolyline
 62
250
  6
CONTINUOUS
 90
13
 70
0
 10
7.6343698108
 20
22.267241125
 10
7.6324018443
 20
22.285380179
 10
7.6271425061
 20
22.3032734922
 10
7.6186495464
 20
22.3206195963
 10
7.6070237369
 20
22.337136928
 10
7.5924403656
 20
22.3525207073
 10
7.5751742802
 20
22.36646066
 10
7.5555323589
 20
22.3787112312
 10
7.5338345303
 20
22.3890748211
 10
7.5104632668
 20
22.3973701331
 10
7.485821886
 20
22.4034587503
 10
7.4603236756
 20
22.4072430395
 10
7.4344002717
 20
22.4086624812
  0
LINE
  5
4DF
100
AcDbEntity
  8
0
100
AcDbLine
 62
7
  6
CONTINUOUS
 10
9.35813791
 20
17.0431261083
 11
9.3417668461
 21
17.2201384028
  0
LINE
  5
4E0
100
AcDbEntity
  8
0
100
AcDbLine
 62
7
  6
CONTINUOUS
 10
9.35813791
 20
20.5393742939
 11
9.3417668461
 21
20.7163868567
  0
LWPOLYLINE
  5
4E1
100
AcDbEntity
  8
RACCORDO
100
AcDbPolyline
 62
250
  6
CONTINUOUS
 90
19
 70
0
 10
10.1950346196
 20
9.474152472
 10
10.1938068083
 20
9.4911811226
 10
10.1905292346
 20
9.5081873681
 10
10.1852018984
 20
9.5250428316
 10
10.1777740191
 20
9.5416292944
 10
10.1682963773
 20
9.5578003882
 10
10.1569213156
 20
9.5733871584
 10
10.1435532853
 20
9.5882816961
 10
10.1282878351
 20
9.6023384085
 10
10.1115639534
 20
9.6153587897
 10
10.0933900244
 20
9.6272172775
 10
10.0737576639
 20
9.6378718685
 10
10.0530807069
 20
9.6472731351
 10
10.0312359669
 20
9.6553831935
 10
10.0083466306
 20
9.6620967914
 10
9.9851960927
 20
9.6673152056
 10
9.9620454849
 20
9.6710360714
 10
9.9386336755
 20
9.6733018586
 10
9.9149606645
 20
9.6741448566
  0
LWPOLYLINE
  5
4E2
100
AcDbEntity
  8
RACCORDO
100
AcDbPolyline
 62
250
  6
CONTINUOUS
 90
13
 70
0
 10
9.617287326
 20
9.4625090674
 10
9.6156124949
 20
9.4885641745
 10
9.6107627098
 20
9.5141751496
 10
9.6028206412
 20
9.5389054419
 10
9.5919216682
 20
9.5623335148
 10
9.5782515726
 20
9.5840600264
 10
9.5620433734
 20
9.6037146374
 10
9.5435733524
 20
9.6209623292
 10
9.5231563405
 20
9.6355091142
 10
9.5011403538
 20
9.6471070431
 10
9.4779006638
 20
9.6555584293
 10
9.4538334013
 20
9.6607192199
 10
9.4293488019
 20
9.662501452
  0
LWPOLYLINE
  5
4E3
100
AcDbEntity
  8
0
100
AcDbPolyline
 62
7
  6
CONTINUOUS
 90
13
 70
0
 10
9.5791474736
 20
16.3391698023
 10
9.5777745634
 20
16.3627798474
 10
9.5745816997
 20
16.3852414584
 10
9.5695688825
 20
16.4065546395
 10
9.5626235807
 20
16.4266477037
 10
9.5538583254
 20
16.4455923464
 10
9.5436107099
 20
16.463603645
 10
9.5318194231
 20
16.4807720979
 10
9.5185457761
 20
16.4970072123
 10
9.5043112958
 20
16.5122525774
 10
9.4892898247
 20
16.5264893914
 10
9.4733075203
 20
16.5397364613
 10
9.4563643827
 20
16.5519937893
  0
LWPOLYLINE
  5
4E4
100
AcDbEntity
  8
0
100
AcDbPolyline
 62
7
  6
CONTINUOUS
 90
10
 70
0
 10
9.5791474736
 20
18.6597700139
 10
9.5782461136
 20
18.6872319992
 10
9.5750560404
 20
18.7140361126
 10
9.5695772539
 20
18.7401823575
 10
9.5617831603
 20
18.7658283392
 10
9.5517003534
 20
18.7908164586
 10
9.5394086152
 20
18.8146739146
 10
9.5249345396
 20
18.8372431111
 10
9.5082515327
 20
18.8586816552
 10
9.4893595945
 20
18.8789895516
  0
LWPOLYLINE
  5
4E5
100
AcDbEntity
  8
0
100
AcDbPolyline
 62
7
  6
CONTINUOUS
 90
10
 70
0
 10
9.5791474736
 20
19.8251860758
 10
9.5782461971
 20
19.8526476224
 10
9.5750562156
 20
19.8794514119
 10
9.569577529
 20
19.9055974482
 10
9.5617835821
 20
19.9312433378
 10
9.5517009302
 20
19.9562314807
 10
9.5394092389
 20
19.9800890726
 10
9.5249350635
 20
20.0026585167
 10
9.5082518487
 20
20.0240974216
 10
9.4893595945
 20
20.0444057923
  0
LWPOLYLINE
  5
4E6
100
AcDbEntity
  8
0
100
AcDbPolyline
 62
7
  6
CONTINUOUS
 90
10
 70
0
 10
9.033785951
 20
17.5045858642
 10
9.0329512123
 20
17.5312013218
 10
9.0298390698
 20
17.5571066417
 10
9.0244495235
 20
17.5823018271
 10
9.016764742
 20
17.6069431774
 10
9.0068025567
 20
17.6308743994
 10
8.9946164621
 20
17.6536266093
 10
8.9802242898
 20
17.675043517
 10
8.9636082081
 20
17.6952814228
 10
8.9447682171
 20
17.7143403312
  0
LWPOLYLINE
  5
4E7
100
AcDbEntity
  8
0
100
AcDbPolyline
 62
7
  6
CONTINUOUS
 90
10
 70
0
 10
9.033785951
 20
21.0008340498
 10
9.0329514675
 20
21.0274480748
 10
9.0298396048
 20
21.0533523275
 10
9.024450363
 20
21.0785468121
 10
9.0167660283
 20
21.103187841
 10
9.0068043145
 20
21.1271191091
 10
8.9946183624
 20
21.1498716969
 10
8.9802258856
 20
21.1712893029
 10
8.9636091705
 20
21.1915282411
 10
8.9447682171
 20
21.2105885168
  0
LWPOLYLINE
  5
4E8
100
AcDbEntity
  8
0
100
AcDbPolyline
 62
7
  6
CONTINUOUS
 90
7
 70
0
 10
9.5791474736
 20
17.4687740823
 10
9.5784547107
 20
17.4952330661
 10
9.5754718176
 20
17.5210145548
 10
9.5701987944
 20
17.5461185517
 10
9.5626356411
 20
17.57054506
 10
9.5527823578
 20
17.5942940825
 10
9.5406389443
 20
17.6173656222
  0
LWPOLYLINE
  5
4E9
100
AcDbEntity
  8
0
100
AcDbPolyline
 62
7
  6
CONTINUOUS
 90
7
 70
0
 10
9.5791474736
 20
20.9650222679
 10
9.5784548715
 20
20.991480636
 10
9.5754720775
 20
21.017261756
 10
9.5701990917
 20
21.0423656319
 10
9.5626359141
 20
21.0667922675
 10
9.5527825446
 20
21.0905416665
 10
9.5406389833
 20
21.1136138325
  0
LWPOLYLINE
  5
4EA
100
AcDbEntity
  8
0
100
AcDbPolyline
 62
7
  6
CONTINUOUS
 90
16
 70
0
 10
8.9744407802
 20
18.6751179715
 10
8.9746372834
 20
18.6662621468
 10
8.9750401372
 20
18.6574496948
 10
8.9756493415
 20
18.6486806156
 10
8.9764855802
 20
18.6399543226
 10
8.9775281694
 20
18.6312714026
 10
8.9787150575
 20
18.6226336155
 10
8.9800355134
 20
18.6140534537
 10
8.9815002682
 20
18.6055184251
 10
8.9830794631
 20
18.5969928129
 10
8.9847629049
 20
18.5884940817
 10
8.9865607868
 20
18.580004767
 10
8.98847383
 20
18.5714367582
 10
8.990502275
 20
18.5627606849
 10
8.9926458814
 20
18.5540059172
 10
8.9949046491
 20
18.5451724549
  0
LWPOLYLINE
  5
4EB
100
AcDbEntity
  8
0
100
AcDbPolyline
 62
7
  6
CONTINUOUS
 90
16
 70
0
 10
8.9744407802
 20
19.8405340334
 10
8.9746372815
 20
19.8316782394
 10
8.9750401331
 20
19.8228658132
 10
8.9756493349
 20
19.8140967549
 10
8.9764855704
 20
19.8053704777
 10
8.9775281561
 20
19.7966875686
 10
8.9787150412
 20
19.7880497882
 10
8.9800354951
 20
19.7794696287
 10
8.9815002484
 20
19.7709345981
 10
8.9830794428
 20
19.7624089803
 10
8.9847628852
 20
19.7539102396
 10
8.9865607687
 20
19.7454209117
 10
8.9884738148
 20
19.7368528867
 10
8.9905022637
 20
19.7281767943
 10
8.9926458752
 20
19.7194220044
 10
8.9949046491
 20
19.7105885168
  0
LWPOLYLINE
  5
4EC
100
AcDbEntity
  8
RACCORDO
100
AcDbPolyline
 62
250
  6
CONTINUOUS
 90
19
 70
0
 10
10.0071055128
 20
9.4718556882
 10
10.0067561318
 20
9.488940922
 10
10.005723541
 20
9.5060252127
 10
10.003997392
 20
9.5229788011
 10
10.0015872525
 20
9.5396844211
 10
9.9984935311
 20
9.5559910723
 10
9.9947200387
 20
9.5717204386
 10
9.9903387365
 20
9.5867624623
 10
9.9853777253
 20
9.6009715553
 10
9.979824661
 20
9.6141443003
 10
9.9738115369
 20
9.6261536696
 10
9.9674134373
 20
9.6369587853
 10
9.960557208
 20
9.6465088233
 10
9.9533251753
 20
9.6547668811
 10
9.9458507891
 20
9.6616247676
 10
9.9381562492
 20
9.6669767591
 10
9.9303428488
 20
9.6708191203
 10
9.9225702278
 20
9.6731974004
 10
9.9149579182
 20
9.6741448397
  0
LINE
  5
4ED
100
AcDbEntity
  8
RACCORDO
100
AcDbLine
 62
250
  6
CONTINUOUS
 10
9.3353795398
 20
-11.5617595668
 11
9.3353795398
 21
-10.7398029008
  0
LINE
  5
4EE
100
AcDbEntity
  8
Z030100_COP
100
AcDbLine
 62
7
  6
CONTINUOUS
 10
9.3550001292
 20
12.1500838374
 11
9.3550001292
 21
5.2500838374
  0
LINE
  5
4EF
100
AcDbEntity
  8
RACCORDO
100
AcDbLine
 62
7
  6
CONTINUOUS
 10
9.4050001292
 20
1.4500838374
 11
9.4050001292
 21
-9.0499161626
  0
LINE
  5
4F0
100
AcDbEntity
  8
0
100
AcDbLine
 62
7
  6
CONTINUOUS
 10
9.4050001292
 20
1.4500838374
 11
9.4050001292
 21
8.8500838374
  0
LINE
  5
4F1
100
AcDbEntity
  8
RACCORDO
100
AcDbLine
 62
250
  6
CONTINUOUS
 10
9.617287326
 20
-11.3623413925
 11
9.617287326
 21
-10.7380802698
  0
LINE
  5
4F2
100
AcDbEntity
  8
RACCORDO
100
AcDbLine
 62
250
  6
CONTINUOUS
 10
9.617287326
 20
-7.2617520553
 11
9.617287326
 21
-6.4380802698
  0
LINE
  5
4F3
100
AcDbEntity
  8
RACCORDO
100
AcDbLine
 62
250
  6
CONTINUOUS
 10
9.617287326
 20
0.4382479447
 11
9.617287326
 21
1.2619197302
  0
LINE
  5
4F4
100
AcDbEntity
  8
RACCORDO
100
AcDbLine
 62
250
  6
CONTINUOUS
 10
9.617287326
 20
8.8382479447
 11
9.617287326
 21
9.4625090674
  0
LINE
  5
4F5
100
AcDbEntity
  8
DRAFT
100
AcDbLine
 62
7
  6
CONTINUOUS
 10
9.9860578737
 20
8.7500838374
 11
9.9860578737
 21
1.3500838374
  0
LINE
  5
4F6
100
AcDbEntity
  8
DRAFT
100
AcDbLine
 62
7
  6
CONTINUOUS
 10
9.9860578737
 20
0.3500838374
 11
9.9860578737
 21
-6.3499161626
  0
LINE
  5
4F7
100
AcDbEntity
  8
DRAFT
100
AcDbLine
 62
7
  6
CONTINUOUS
 10
9.9860578737
 20
-7.3499161626
 11
9.9860578737
 21
-10.6499161626
  0
LINE
  5
4F8
100
AcDbEntity
  8
RACCORDO
100
AcDbLine
 62
250
  6
CONTINUOUS
 10
10.0071031127
 20
-11.3716879558
 11
10.0071031127
 21
-10.7287337065
  0
LINE
  5
4F9
100
AcDbEntity
  8
RACCORDO
100
AcDbLine
 62
250
  6
CONTINUOUS
 10
10.0071031127
 20
-7.2710986186
 11
10.0071031127
 21
-6.4287337065
  0
LINE
  5
4FA
100
AcDbEntity
  8
RACCORDO
100
AcDbLine
 62
250
  6
CONTINUOUS
 10
10.0071031127
 20
0.4289013814
 11
10.0071031127
 21
1.2712662935
  0
LINE
  5
4FB
100
AcDbEntity
  8
RACCORDO
100
AcDbLine
 62
250
  6
CONTINUOUS
 10
10.0071031127
 20
8.8289013814
 11
10.0071031127
 21
9.4718556307
  0
LINE
  5
4FC
100
AcDbEntity
  8
DRAFT
100
AcDbLine
 62
7
  6
CONTINUOUS
 10
10.0550001292
 20
23.0500838374
 11
10.0550001292
 21
9.6811415819
  0
LINE
  5
4FD
100
AcDbEntity
  8
DRAFT
100
AcDbLine
 62
7
  6
CONTINUOUS
 10
10.0550001292
 20
-11.580973907
 11
10.0550001292
 21
-18.7499161626
  0
LINE
  5
4FE
100
AcDbEntity
  8
DRAFT
100
AcDbLine
 62
7
  6
CONTINUOUS
 10
10.063726997
 20
-10.7275852859
 11
10.063726997
 21
-7.2722470392
  0
LINE
  5
4FF
100
AcDbEntity
  8
DRAFT
100
AcDbLine
 62
7
  6
CONTINUOUS
 10
10.063726997
 20
-6.4275852859
 11
10.063726997
 21
0.4277529608
  0
LINE
  5
500
100
AcDbEntity
  8
DRAFT
100
AcDbLine
 62
7
  6
CONTINUOUS
 10
10.063726997
 20
1.2724147141
 11
10.063726997
 21
8.8277529608
  0
LINE
  5
501
100
AcDbEntity
  8
RACCORDO
100
AcDbLine
 62
250
  6
CONTINUOUS
 10
10.1950416369
 20
-11.3739847971
 11
10.1950416369
 21
-10.7275852859
  0
LINE
  5
502
100
AcDbEntity
  8
RACCORDO
100
AcDbLine
 62
250
  6
CONTINUOUS
 10
10.1950416369
 20
-7.2722470392
 11
10.1950416369
 21
-6.4275852859
  0
LINE
  5
503
100
AcDbEntity
  8
RACCORDO
100
AcDbLine
 62
250
  6
CONTINUOUS
 10
10.1950416369
 20
0.4277529608
 11
10.1950416369
 21
1.2724147141
  0
LINE
  5
504
100
AcDbEntity
  8
RACCORDO
100
AcDbLine
 62
250
  6
CONTINUOUS
 10
10.1950416369
 20
8.8277529608
 11
10.1950416369
 21
9.474152472
  0
LINE
  5
505
100
AcDbEntity
  8
RACCORDO
100
AcDbLine
 62
250
  6
CONTINUOUS
 10
10.6550001292
 20
-11.3739847971
 11
10.6550001293
 21
-11.5739771817
  0
LINE
  5
506
100
AcDbEntity
  8
RACCORDO
100
AcDbLine
 62
250
  6
CONTINUOUS
 10
10.6550001292
 20
9.474152472
 11
10.6550001292
 21
9.6741448566
  0
LINE
  5
507
100
AcDbEntity
  8
RACCORDO
100
AcDbLine
 62
250
  6
CONTINUOUS
 10
10.9550001292
 20
-11.0739733736
 11
10.9550001292
 21
9.1741410485
  0
LWPOLYLINE
  5
508
100
AcDbEntity
  8
0
100
AcDbPolyline
 62
7
  6
CONTINUOUS
 90
10
 70
0
 10
9.7305799375
 20
20.9609295746
 10
9.7298268583
 20
20.9249178111
 10
9.7266109002
 20
20.8897363286
 10
9.720932063
 20
20.8553851341
 10
9.7128462166
 20
20.8216244723
 10
9.7022974912
 20
20.7886941103
 10
9.6891182775
 20
20.7573133429
 10
9.6732527059
 20
20.7277219446
 10
9.654756646
 20
20.6996801634
 10
9.6336300979
 20
20.6731880093
  0
LWPOLYLINE
  5
509
100
AcDbEntity
  8
0
100
AcDbPolyline
 62
7
  6
CONTINUOUS
 90
10
 70
0
 10
9.7305799375
 20
17.464681389
 10
9.7298270273
 20
17.4286706998
 10
9.7266112139
 20
17.3934899521
 10
9.7209324973
 20
17.3591391515
 10
9.7128467713
 20
17.325378443
 10
9.7022981421
 20
17.2924476912
 10
9.6891189283
 20
17.2610664858
 10
9.6732532361
 20
17.2314746976
 10
9.6547569593
 20
17.2034324741
 10
9.6336300979
 20
17.1769398233
  0
LWPOLYLINE
  5
50A
100
AcDbEntity
  8
0
100
AcDbPolyline
 62
7
  6
CONTINUOUS
 90
10
 70
0
 10
9.7316031304
 20
19.8241629025
 10
9.7306520594
 20
19.7836319052
 10
9.7267046209
 20
19.7438957692
 10
9.7197608149
 20
19.7049545015
 10
9.7098560527
 20
19.6665316707
 10
9.6969549229
 20
19.6289037202
 10
9.680951192
 20
19.5928999753
 10
9.6618094486
 20
19.5587968887
 10
9.639565104
 20
19.5263180335
 10
9.6142181583
 20
19.4954634209
  0
LWPOLYLINE
  5
50B
100
AcDbEntity
  8
0
100
AcDbPolyline
 62
7
  6
CONTINUOUS
 90
10
 70
0
 10
9.7316031304
 20
18.6587468406
 10
9.7306521019
 20
18.6182160724
 10
9.7267046978
 20
18.5784800822
 10
9.7197609183
 20
18.5395388764
 10
9.7098561746
 20
18.5011159898
 10
9.6969550553
 20
18.463487899
 10
9.6809513264
 20
18.4274840286
 10
9.6618095763
 20
18.393380864
 10
9.6395652165
 20
18.3609019438
 10
9.6142182469
 20
18.3300472787
  0
LWPOLYLINE
  5
50C
100
AcDbEntity
  8
0
100
AcDbPolyline
 62
7
  6
CONTINUOUS
 90
10
 70
0
 10
9.7305799375
 20
16.3391698023
 10
9.7294825082
 20
16.2952193176
 10
9.7243511786
 20
16.2524532777
 10
9.7151859488
 20
16.2108716917
 10
9.7019916665
 20
16.1700370464
 10
9.684763484
 20
16.1303868701
 10
9.6634868576
 20
16.0932337422
 10
9.6381569394
 20
16.0590152032
 10
9.6087785772
 20
16.0272937448
 10
9.5753517712
 20
15.9980693805
  0
LWPOLYLINE
  5
50D
100
AcDbEntity
  8
RACCORDO
100
AcDbPolyline
 62
250
  6
CONTINUOUS
 90
13
 70
0
 10
9.617287326
 20
-11.3623413925
 10
9.6156125033
 20
-11.3883964354
 10
9.6107627396
 20
-11.4140073594
 10
9.602820701
 20
-11.4387376158
 10
9.5919217629
 20
-11.4621656674
 10
9.5782517022
 20
-11.4838921733
 10
9.5620435306
 20
-11.5035467964
 10
9.543573523
 20
-11.5207945157
 10
9.5231565083
 20
-11.5353413365
 10
9.5011405028
 20
-11.5469393026
 10
9.4779007784
 20
-11.5553907216
 10
9.4538334657
 20
-11.5605515359
 10
9.4293488019
 20
-11.5623337771
  0
LINE
  5
50E
100
AcDbEntity
  8
RACCORDO
100
AcDbLine
 62
7
  6
CONTINUOUS
 10
-6.2508700785
 20
-18.4227511908
 11
-6.1118764416
 21
-18.2837575539
  0
LINE
  5
50F
100
AcDbEntity
  8
Z030100_COP
100
AcDbLine
 62
250
  6
CONTINUOUS
 10
9.3550001292
 20
12.1500838374
 11
-8.5449998708
 21
12.1500838374
  0
LINE
  5
510
100
AcDbEntity
  8
Z030100_COP
100
AcDbLine
 62
7
  6
CONTINUOUS
 10
-8.2449998708
 20
12.4500838374
 11
9.0550001292
 21
12.4500838374
  0
LWPOLYLINE
  5
511
100
AcDbEntity
  8
RACCORDO
100
AcDbPolyline
 62
250
  6
CONTINUOUS
 90
8
 70
0
 10
-6.7513702752
 20
20.6914131695
 10
-6.7710363499
 20
20.7086624813
 10
-6.7882830346
 20
20.7283315517
 10
-6.8028152336
 20
20.7500838375
 10
-6.814384297
 20
20.773547151
 10
-6.822792275
 20
20.7983200285
 10
-6.8278953047
 20
20.823978599
 10
-6.8296060718
 20
20.8500838374
  0
LINE
  5
512
100
AcDbEntity
  8
RACCORDO
100
AcDbLine
 62
7
  6
CONTINUOUS
 10
-6.1118764416
 20
22.5839252288
 11
-6.2508700785
 21
22.7229188657
  0
LINE
  5
513
100
AcDbEntity
  8
Z030100_COP
100
AcDbLine
 62
7
  6
CONTINUOUS
 10
9.1550001292
 20
5.2500838374
 11
8.5800001292
 21
6.9750838374
  0
LWPOLYLINE
  5
514
100
AcDbEntity
  8
RACCORDO
100
AcDbPolyline
 62
7
  6
CONTINUOUS
 90
19
 70
0
 10
11.1550001292
 20
9.1741410485
 10
11.1536302274
 20
9.2111281814
 10
11.1492726869
 20
9.2496044752
 10
11.1415595115
 20
9.2892938582
 10
11.1300500413
 20
9.3301152457
 10
11.1144501505
 20
9.3713877817
 10
11.0948471007
 20
9.4119130048
 10
11.071190652
 20
9.4512450242
 10
11.0434636518
 20
9.4889387654
 10
11.0122470904
 20
9.5239645371
 10
10.9777749068
 20
9.5560031385
 10
10.9403407785
 20
9.5847299876
 10
10.9009791129
 20
9.6094538399
 10
10.8602052406
 20
9.6300950192
 10
10.8183831853
 20
9.6466972562
 10
10.7765004922
 20
9.6591577956
 10
10.7351707703
 20
9.6676756405
 10
10.6945672311
 20
9.67257685
 10
10.6550001292
 20
9.6741448566
  0
LWPOLYLINE
  5
515
100
AcDbEntity
  8
RACCORDO
100
AcDbPolyline
 62
250
  6
CONTINUOUS
 90
19
 70
0
 10
10.9550001292
 20
9.1741410485
 10
10.9545300574
 20
9.1966802897
 10
10.951840496
 20
9.2197174103
 10
10.9469314448
 20
9.2432524102
 10
10.9398605487
 20
9.2676868035
 10
10.9305701629
 20
9.2926190762
 10
10.918887353
 20
9.316844686
 10
10.9045935382
 20
9.3403174167
 10
10.8879072992
 20
9.3630834844
 10
10.8693114432
 20
9.3840769957
 10
10.8486233475
 20
9.4031470388
 10
10.8260256348
 20
9.4204445256
 10
10.8025489808
 20
9.4353562982
 10
10.7781774072
 20
9.4476538279
 10
10.7529268923
 20
9.4575656435
 10
10.727876046
 20
9.4651641729
 10
10.7033844051
 20
9.4704735588
 10
10.6790924328
 20
9.4734696585
 10
10.6550001292
 20
9.474152472
  0
LINE
  5
516
100
AcDbEntity
  8
RACCORDO
100
AcDbLine
 62
7
  6
CONTINUOUS
 10
11.1550001292
 20
-11.0739733736
 11
11.1550001292
 21
9.1741410485
  0
LINE
  5
517
100
AcDbEntity
  8
0
100
AcDbLine
 62
7
  6
CONTINUOUS
 10
11.5550001292
 20
-19.7496873105
 11
11.5550001292
 21
24.0498549854
  0
LWPOLYLINE
  5
518
100
AcDbEntity
  8
RACCORDO
100
AcDbPolyline
 62
7
  6
CONTINUOUS
 90
6
 70
0
 10
-6.7393366845
 20
-16.3826971141
 10
-6.7296213023
 20
-16.3767110818
 10
-6.7061615623
 20
-16.3651402561
 10
-6.6813924579
 20
-16.3567309973
 10
-6.6557377953
 20
-16.3516271903
 10
-6.6296365328
 20
-16.3499161626
  0
LWPOLYLINE
  5
519
100
AcDbEntity
  8
0
100
AcDbPolyline
 62
7
  6
CONTINUOUS
 90
19
 70
0
 10
8.6112074658
 20
16.7944903761
 10
8.6306357779
 20
16.7990846372
 10
8.6501298928
 20
16.8032628345
 10
8.6696898102
 20
16.8070249684
 10
8.6893311016
 20
16.810336612
 10
8.7090381957
 20
16.8132321927
 10
8.7287643785
 20
16.8158149923
 10
8.7485026258
 20
16.8180961269
 10
8.7682599618
 20
16.8200644806
 10
8.7880107451
 20
16.821789987
 10
8.8077491917
 20
16.82327948
 10
8.8274810856
 20
16.8245261259
 10
8.8471981372
 20
16.8255793568
 10
8.8668953662
 20
16.8264438028
 10
8.886577753
 20
16.8271148338
 10
8.9062519487
 20
16.8276279923
 10
8.9259201706
 20
16.8279951257
 10
8.9455802015
 20
16.8282043864
 10
8.9652320414
 20
16.8282557746
  0
LINE
  5
51A
100
AcDbEntity
  8
0
100
AcDbLine
 62
7
  6
CONTINUOUS
 10
2.2553591292
 20
13.5437808374
 11
3.7553681292
 21
13.5437808374
  0
LINE
  5
51B
100
AcDbEntity
  8
0
100
AcDbLine
 62
7
  6
CONTINUOUS
 10
2.5515901292
 20
13.7328488374
 11
3.7553681292
 21
13.7328488374
  0
LINE
  5
51C
100
AcDbEntity
  8
0
100
AcDbLine
 62
7
  6
CONTINUOUS
 10
-1.6461548708
 20
14.4859268374
 11
-2.9200368708
 21
14.8949208374
  0
LINE
  5
51D
100
AcDbEntity
  8
0
100
AcDbLine
 62
7
  6
CONTINUOUS
 10
-1.0699538708
 20
14.6709358374
 11
-2.9200368708
 21
15.2649388374
  0
LINE
  5
51E
100
AcDbEntity
  8
RACCORDO
100
AcDbLine
 62
250
  6
CONTINUOUS
 10
-6.7407304833
 20
20.6837877947
 11
-6.7513702752
 21
20.6914131695
  0
LINE
  5
51F
100
AcDbEntity
  8
0
100
AcDbLine
 62
7
  6
CONTINUOUS
 10
7.8800001292
 20
10.7500838374
 11
8.5800001292
 21
10.0500838374
  0
LINE
  5
520
100
AcDbEntity
  8
DRAFT
100
AcDbLine
 62
7
  6
CONTINUOUS
 10
10.0550001292
 20
9.6811415819
 11
9.9856908458
 21
9.7504508654
  0
LINE
  5
521
100
AcDbEntity
  8
0
100
AcDbLine
 62
7
  6
CONTINUOUS
 10
9.3090246736
 20
18.1819393059
 11
9.2844680666
 21
18.3661139032
  0
LINE
  5
522
100
AcDbEntity
  8
0
100
AcDbLine
 62
7
  6
CONTINUOUS
 10
9.3090246736
 20
19.347355189
 11
9.2844680666
 21
19.531529965
  0
LINE
  5
523
100
AcDbEntity
  8
DRAFT
100
AcDbLine
 62
7
  6
CONTINUOUS
 10
7.9203131079
 20
-18.3527600516
 11
7.7880353087
 21
-18.7499161626
  0
LINE
  5
524
100
AcDbEntity
  8
DRAFT
100
AcDbLine
 62
7
  6
CONTINUOUS
 10
10.063726997
 20
-7.2722470392
 11
9.9860578737
 21
-7.3499161626
  0
LWPOLYLINE
  5
525
100
AcDbEntity
  8
0
100
AcDbPolyline
 62
7
  6
CONTINUOUS
 90
19
 70
0
 10
9.2844680666
 20
18.3661139032
 10
9.2997958102
 20
18.3692678847
 10
9.3147446959
 20
18.3726670362
 10
9.3293147236
 20
18.3763113574
 10
9.343478509
 20
18.3801835958
 10
9.3572634365
 20
18.3843010036
 10
9.3707516596
 20
18.3887153378
 10
9.38394638
 20
18.3934107925
 10
9.396844396
 20
18.3984031731
 10
9.4095182562
 20
18.4037916532
 10
9.4220143613
 20
18.4095787085
 10
9.4342863105
 20
18.4157618624
 10
9.44626745
 20
18.4224328598
 10
9.4579844653
 20
18.4295977613
 10
9.4694106708
 20
18.4372505049
 10
9.480399356
 20
18.4454646521
 10
9.4909016171
 20
18.4542647226
 10
9.5009663579
 20
18.4636261946
 10
9.5105935782
 20
18.4735490672
  0
LWPOLYLINE
  5
526
100
AcDbEntity
  8
0
100
AcDbPolyline
 62
7
  6
CONTINUOUS
 90
26
 70
0
 10
5.9369931289
 20
17.1711608411
 10
5.9584274933
 20
17.1752546133
 10
5.979487723
 20
17.1804591666
 10
6.0001738179
 20
17.1867745
 10
6.0206953414
 20
17.1941164765
 10
6.0408427302
 20
17.2025692304
 10
6.0599872943
 20
17.2123851668
 10
6.0780737811
 20
17.2235278458
 10
6.0951574433
 20
17.2360337021
 10
6.1107753492
 20
17.2502644508
 10
6.1248952399
 20
17.2663179102
 10
6.1375493743
 20
17.2840962522
 10
6.1483715984
 20
17.3036677207
 10
6.1573632216
 20
17.3251575881
 10
6.1645229344
 20
17.3484405681
 10
6.1694806541
 20
17.3732090663
 10
6.1723128071
 20
17.3997203384
 10
6.172942967
 20
17.4277171138
 10
6.1707717721
 20
17.4561200153
 10
6.1657258514
 20
17.4850632268
 10
6.1578785759
 20
17.5144125594
 10
6.1468506965
 20
17.5426860894
 10
6.1319962477
 20
17.5698801902
 10
6.1139611951
 20
17.5959984994
 10
6.0943041862
 20
17.6195700049
 10
6.0730804623
 20
17.6400096733
  0
LWPOLYLINE
  5
527
100
AcDbEntity
  8
0
100
AcDbPolyline
 62
7
  6
CONTINUOUS
 90
16
 70
0
 10
9.3417668461
 20
17.2201384028
 10
9.3563097685
 20
17.2227905828
 10
9.3704877733
 20
17.2257902943
 10
9.3843008605
 20
17.2291375371
 10
9.397727284
 20
17.2328034751
 10
9.4107887899
 20
17.236816944
 10
9.4235506165
 20
17.2412644509
 10
9.4360323077
 20
17.2461270265
 10
9.4482143197
 20
17.2514236395
 10
9.4601032588
 20
17.2572977042
 10
9.4717709022
 20
17.2637726627
 10
9.4831454728
 20
17.2708250716
 10
9.494018245
 20
17.2785280162
 10
9.5043196436
 20
17.2869058576
 10
9.5141192439
 20
17.2959342327
 10
9.5234170458
 20
17.3056131405
  0
LWPOLYLINE
  5
528
100
AcDbEntity
  8
0
100
AcDbPolyline
 62
7
  6
CONTINUOUS
 90
21
 70
0
 10
5.5848171136
 20
15.9966496616
 10
5.6081584908
 20
15.9969032386
 10
5.6314956528
 20
15.9973735797
 10
5.6548295066
 20
15.998037349
 10
5.6781591452
 20
15.9989178823
 10
5.701481847
 20
16.0000851878
 10
5.7247948536
 20
16.0015400705
 10
5.7481009234
 20
16.0032817253
 10
5.7714056111
 20
16.0053777442
 10
5.7946941268
 20
16.0078194553
 10
5.8179812602
 20
16.0106155303
 10
5.8413169352
 20
16.0138595767
 10
5.8647109694
 20
16.0174395004
 10
5.8881535451
 20
16.0214673951
 10
5.9116651328
 20
16.0263731492
 10
5.9353531949
 20
16.0320203858
 10
5.9591102689
 20
16.0385454803
 10
5.9826344374
 20
16.0467874482
 10
6.0058250612
 20
16.0570259593
 10
6.0287827794
 20
16.0689813382
 10
6.051507592
 20
16.0826535814
  0
LWPOLYLINE
  5
529
100
AcDbEntity
  8
0
100
AcDbPolyline
 62
7
  6
CONTINUOUS
 90
25
 70
0
 10
8.9652320414
 20
16.039374428
 10
8.9922986387
 20
16.0395084847
 10
9.018380549
 20
16.0398540243
 10
9.0434777723
 20
16.0404110468
 10
9.0674971805
 20
16.0411824668
 10
9.0905319017
 20
16.0421653697
 10
9.1128613204
 20
16.0433510118
 10
9.1344873156
 20
16.044728033
 10
9.1554080084
 20
16.0463077933
 10
9.1758971458
 20
16.0481156288
 10
9.1959656968
 20
16.0501356386
 10
9.2156026926
 20
16.0523837235
 10
9.2350489734
 20
16.0549329226
 10
9.2543391707
 20
16.0577623743
 10
9.2734386531
 20
16.06089294
 10
9.2924843665
 20
16.0644602424
 10
9.3115497543
 20
16.0684417291
 10
9.3305613731
 20
16.0728599519
 10
9.3494358388
 20
16.07791819
 10
9.3682286189
 20
16.0835653826
 10
9.3868842458
 20
16.0898525893
 10
9.4051529328
 20
16.0971362688
 10
9.4229514177
 20
16.1055352397
 10
9.4403629628
 20
16.1149306805
 10
9.4573875679
 20
16.1253225899
  0
LINE
  5
52A
100
AcDbEntity
  8
0
100
AcDbLine
 62
7
  6
CONTINUOUS
 10
2.2553591292
 20
14.5500998374
 11
3.4717651292
 21
14.5500998374
  0
LINE
  5
52B
100
AcDbEntity
  8
0
100
AcDbLine
 62
7
  6
CONTINUOUS
 10
2.2553591292
 20
14.7391828374
 11
3.7553681292
 21
14.7391828374
  0
LINE
  5
52C
100
AcDbEntity
  8
RACCORDO
100
AcDbLine
 62
7
  6
CONTINUOUS
 10
-4.8950240106
 20
14.9658463134
 11
-4.294975731
 21
14.9658463134
  0
LINE
  5
52D
100
AcDbEntity
  8
RACCORDO
100
AcDbLine
 62
7
  6
CONTINUOUS
 10
5.1049759894
 20
14.9658463134
 11
5.705024269
 21
14.9658463134
  0
LINE
  5
52E
100
AcDbEntity
  8
0
100
AcDbLine
 62
7
  6
CONTINUOUS
 10
2.2553591292
 20
15.1572058374
 11
3.7553681292
 21
15.1572058374
  0
LINE
  5
52F
100
AcDbEntity
  8
0
100
AcDbLine
 62
7
  6
CONTINUOUS
 10
2.4234251292
 20
15.3567978374
 11
2.9003201292
 21
15.3567978374
  0
LINE
  5
530
100
AcDbEntity
  8
0
100
AcDbLine
 62
7
  6
CONTINUOUS
 10
3.0684011292
 20
15.3567978374
 11
3.5873021292
 21
15.3567978374
  0
LINE
  5
531
100
AcDbEntity
  8
0
100
AcDbLine
 62
7
  6
CONTINUOUS
 10
-2.9200368708
 20
15.5116128374
 11
-1.0699488708
 21
15.5116088374
  0
LINE
  5
532
100
AcDbEntity
  8
0
100
AcDbLine
 62
7
  6
CONTINUOUS
 10
-2.9200368708
 20
15.8816268374
 11
-1.0699538708
 21
15.8816228374
  0
LINE
  5
533
100
AcDbEntity
  8
0
100
AcDbLine
 62
7
  6
CONTINUOUS
 10
2.9003201292
 20
16.1362088374
 11
3.0684011292
 21
16.1362088374
  0
LINE
  5
534
100
AcDbEntity
  8
0
100
AcDbLine
 62
7
  6
CONTINUOUS
 10
2.2553591292
 20
16.1929328374
 11
2.4234251292
 21
16.1929328374
  0
LINE
  5
535
100
AcDbEntity
  8
0
100
AcDbLine
 62
7
  6
CONTINUOUS
 10
3.5873021292
 20
16.1992318374
 11
3.7553681292
 21
16.1992318374
  0
LINE
  5
536
100
AcDbEntity
  8
0
100
AcDbLine
 62
7
  6
CONTINUOUS
 10
-2.9200368708
 20
16.2516268374
 11
-1.0699538708
 21
16.2516268374
  0
LWPOLYLINE
  5
537
100
AcDbEntity
  8
0
100
AcDbPolyline
 62
7
  6
CONTINUOUS
 90
19
 70
0
 10
8.9652320414
 20
15.8500838356
 10
8.9412605119
 20
15.8501666291
 10
8.9173005256
 20
15.8505053086
 10
8.8933520827
 20
15.8510998741
 10
8.8694179089
 20
15.8519310406
 10
8.8454952783
 20
15.8530180931
 10
8.8215760138
 20
15.8544188863
 10
8.797653587
 20
15.8561262874
 10
8.7737345262
 20
15.8581474291
 10
8.749830239
 20
15.8605615646
 10
8.7259268044
 20
15.8633602506
 10
8.7020381435
 20
15.8665519301
 10
8.6782174269
 20
15.8702411851
 10
8.6544560324
 20
15.8744155393
 10
8.6307625822
 20
15.8790874684
 10
8.6072161138
 20
15.8843989833
 10
8.5838429728
 20
15.8903974203
 10
8.5606168135
 20
15.8970354419
 10
8.5375376359
 20
15.9043130472
  0
LWPOLYLINE
  5
538
100
AcDbEntity
  8
0
100
AcDbPolyline
 62
7
  6
CONTINUOUS
 90
42
 70
0
 10
5.5609499554
 20
15.8088520699
 10
5.5120570867
 20
15.8090339329
 10
5.4629901315
 20
15.8106239663
 10
5.4137490898
 20
15.8136221698
 10
5.3639502826
 20
15.8178377115
 10
5.3139773889
 20
15.8234614216
 10
5.2649814455
 20
15.8310657923
 10
5.2170782446
 20
15.840657855
 10
5.170151994
 20
15.8522305725
 10
5.1250063536
 20
15.8663353315
 10
5.0817917964
 20
15.8829254127
 10
5.0403578494
 20
15.9020475225
 10
5.0010567537
 20
15.9243931809
 10
4.9635738916
 20
15.9498032762
 10
4.9282238809
 20
15.9784368947
 10
4.8963028153
 20
16.0114628426
 10
4.867556208
 20
16.0496845916
 10
4.8422385458
 20
16.0922986139
 10
4.8224093839
 20
16.1380632148
 10
4.8087961799
 20
16.1875845176
 10
4.8006714762
 20
16.240256344
 10
4.7979124553
 20
16.2930185807
 10
4.8004545922
 20
16.3459154841
 10
4.8083624118
 20
16.3989027947
 10
4.8217066716
 20
16.4487876809
 10
4.8411181842
 20
16.4949669847
 10
4.8659661371
 20
16.538043918
 10
4.8944288495
 20
16.5766352415
 10
4.9263733834
 20
16.6098700093
 10
4.9619326769
 20
16.6386192267
 10
4.9996838632
 20
16.6641125792
 10
5.0393274078
 20
16.6864503509
 10
5.0811628453
 20
16.7055322847
 10
5.1246659134
 20
16.722287243
 10
5.1698962252
 20
16.736990761
 10
5.2167941677
 20
16.7493673159
 10
5.2646566389
 20
16.7595191775
 10
5.3136381171
 20
16.7672167479
 10
5.3635841242
 20
16.7726896323
 10
5.4133281237
 20
16.776728903
 10
5.4624812701
 20
16.7795982513
 10
5.511432409
 20
16.7810339875
  0
LWPOLYLINE
  5
539
100
AcDbEntity
  8
RACCORDO
100
AcDbPolyline
 62
7
  6
CONTINUOUS
 90
13
 70
0
 10
-4.294975731
 20
14.9658463134
 10
-4.2694963776
 20
14.9641131472
 10
-4.2443116382
 20
14.9589501797
 10
-4.2198463482
 20
14.9503871637
 10
-4.1965001441
 20
14.9384689168
 10
-4.1747164727
 20
14.9233630388
 10
-4.1549545452
 20
14.9053884984
 10
-4.1375922293
 20
14.8848252678
 10
-4.1229064357
 20
14.861965027
 10
-4.1111456568
 20
14.8372238077
 10
-4.1025420144
 20
14.8109929767
 10
-4.0972897264
 20
14.7836438593
 10
-4.0955182694
 20
14.7555978295
  0
LWPOLYLINE
  5
53A
100
AcDbEntity
  8
RACCORDO
100
AcDbPolyline
 62
7
  6
CONTINUOUS
 90
13
 70
0
 10
5.705024269
 20
14.9658463134
 10
5.7305036224
 20
14.9641131472
 10
5.7556883618
 20
14.9589501797
 10
5.7801536518
 20
14.9503871637
 10
5.8034998559
 20
14.9384689168
 10
5.8252835273
 20
14.9233630388
 10
5.8450454548
 20
14.9053884984
 10
5.8624077707
 20
14.8848252678
 10
5.8770935643
 20
14.861965027
 10
5.8888543432
 20
14.8372238077
 10
5.8974579856
 20
14.8109929767
 10
5.9027102736
 20
14.7836438593
 10
5.9044817306
 20
14.7555978295
  0
LINE
  5
53B
100
AcDbEntity
  8
0
100
AcDbLine
 62
7
  6
CONTINUOUS
 10
-1.7151968708
 20
17.1564718374
 11
-2.9200368708
 21
17.5019538374
  0
LWPOLYLINE
  5
53C
100
AcDbEntity
  8
RACCORDO
100
AcDbPolyline
 62
7
  6
CONTINUOUS
 90
22
 70
0
 10
-6.2532892271
 20
22.7232697004
 10
-6.2554839195
 20
22.7246399542
 10
-6.2588173352
 20
22.7282829065
 10
-6.2632894743
 20
22.7338902872
 10
-6.2690316833
 20
22.7411761698
 10
-6.2759126156
 20
22.7497833625
 10
-6.2835382319
 20
22.7592182733
 10
-6.2918643588
 20
22.7689822173
 10
-6.3009351697
 20
22.7788903867
 10
-6.3104891456
 20
22.7889658219
 10
-6.3204270516
 20
22.7990171072
 10
-6.3308481226
 20
22.8089056238
 10
-6.3417885435
 20
22.8188408231
 10
-6.3533831134
 20
22.8288663544
 10
-6.3654970332
 20
22.838737515
 10
-6.3777620915
 20
22.8482623792
 10
-6.3901735548
 20
22.8573552974
 10
-6.4027361565
 20
22.8659583414
 10
-6.4150958861
 20
22.8739512118
 10
-6.4271347398
 20
22.881282522
 10
-6.4389707213
 20
22.8879591879
 10
-6.4506038306
 20
22.8939765708
  0
LWPOLYLINE
  5
53D
100
AcDbEntity
  8
0
100
AcDbPolyline
 62
7
  6
CONTINUOUS
 90
26
 70
0
 10
5.6978370964
 20
17.6726277891
 10
5.7260421029
 20
17.6326546018
 10
5.7507374842
 20
17.588514817
 10
5.7697579175
 20
17.5420198538
 10
5.7824505016
 20
17.4928577548
 10
5.7894681377
 20
17.4413404346
 10
5.7906042067
 20
17.39021516
 10
5.785789191
 20
17.3397816103
 10
5.7750926081
 20
17.2897401164
 10
5.7585163917
 20
17.2419389658
 10
5.7358765111
 20
17.1965685569
 10
5.707356997
 20
17.1534385313
 10
5.6735118748
 20
17.1138260661
 10
5.6340759887
 20
17.0774287545
 10
5.5893144944
 20
17.0445490508
 10
5.5405768846
 20
17.0173714423
 10
5.4873478323
 20
16.9966670854
 10
5.4301426646
 20
16.9816648753
 10
5.3718568553
 20
16.9722359116
 10
5.3123915699
 20
16.9684002315
 10
5.251845643
 20
16.970137811
 10
5.1934110527
 20
16.977259649
 10
5.1374712371
 20
16.9898793583
 10
5.0836427581
 20
17.0078833068
 10
5.03396728
 20
17.0307416203
 10
4.9889984672
 20
17.0586804192
  0
LINE
  5
53E
100
AcDbEntity
  8
DRAFT
100
AcDbLine
 62
7
  6
CONTINUOUS
 10
7.9203131079
 20
22.6529277265
 11
7.7880353087
 21
23.0500838374
  0
LINE
  5
53F
100
AcDbEntity
  8
DRAFT
100
AcDbLine
 62
7
  6
CONTINUOUS
 10
7.9050001292
 20
-10.6499161626
 11
7.8875463936
 21
-10.6673698981
  0
LINE
  5
540
100
AcDbEntity
  8
RACCORDO
100
AcDbLine
 62
250
  6
CONTINUOUS
 10
6.7190555687
 20
-12.335891184
 11
6.7050305902
 21
-12.3499161626
  0
LINE
  5
541
100
AcDbEntity
  8
RACCORDO
100
AcDbLine
 62
7
  6
CONTINUOUS
 10
0.8022164824
 20
-18.2837575539
 11
0.6679730739
 21
-18.4180009624
  0
LINE
  5
542
100
AcDbEntity
  8
RACCORDO
100
AcDbLine
 62
250
  6
CONTINUOUS
 10
6.9190251078
 20
-12.5358607231
 11
6.9050001292
 21
-12.5498857016
  0
LINE
  5
543
100
AcDbEntity
  8
DRAFT
100
AcDbLine
 62
7
  6
CONTINUOUS
 10
-6.4617668947
 20
-19.0147013766
 11
-6.5289196991
 21
-19.0499161626
  0
LWPOLYLINE
  5
544
100
AcDbEntity
  8
RACCORDO
100
AcDbPolyline
 62
7
  6
CONTINUOUS
 90
22
 70
0
 10
-6.4506038306
 20
-18.5938088959
 10
-6.4389787869
 20
-18.5877967318
 10
-6.4271362162
 20
-18.5811165325
 10
-6.4150761184
 20
-18.573771188
 10
-6.4026749498
 20
-18.5657495145
 10
-6.3900562542
 20
-18.5571045985
 10
-6.3775906632
 20
-18.5479656902
 10
-6.3652732877
 20
-18.5383899097
 10
-6.3531090168
 20
-18.5284659319
 10
-6.34148315
 20
-18.5184021934
 10
-6.3305400153
 20
-18.5084513951
 10
-6.3201352846
 20
-18.4985632137
 10
-6.3102212738
 20
-18.4885226074
 10
-6.3006970692
 20
-18.4784657462
 10
-6.2916635844
 20
-18.4685852612
 10
-6.2833758761
 20
-18.4588577846
 10
-6.2757905121
 20
-18.4494674526
 10
-6.2689509247
 20
-18.4409069289
 10
-6.2632424672
 20
-18.4336620404
 10
-6.2587935906
 20
-18.4280864129
 10
-6.2554758439
 20
-18.4244644932
 10
-6.2532892271
 20
-18.4231020255
  0
LWPOLYLINE
  5
545
100
AcDbEntity
  8
0
100
AcDbPolyline
 62
7
  6
CONTINUOUS
 90
12
 70
0
 10
5.8040676009
 20
18.9087300464
 10
5.7676377995
 20
18.9006277462
 10
5.7333873018
 20
18.8882709931
 10
5.7014822497
 20
18.8712636054
 10
5.6717565013
 20
18.8500017386
 10
5.6453853611
 20
18.8255112952
 10
5.6224545514
 20
18.7978532216
 10
5.6028783499
 20
18.7669665378
 10
5.5875748951
 20
18.7336942623
 10
5.5768502332
 20
18.6983173929
 10
5.5703983181
 20
18.6605549008
 10
5.5682191497
 20
18.6204067679
  0
LWPOLYLINE
  5
546
100
AcDbEntity
  8
0
100
AcDbPolyline
 62
7
  6
CONTINUOUS
 90
32
 70
0
 10
5.8764920984
 20
18.3123290637
 10
5.9027299818
 20
18.3177683356
 10
5.9286164128
 20
18.3244796762
 10
5.9541513915
 20
18.3324630839
 10
5.9796160094
 20
18.3416113314
 10
6.0047291749
 20
18.3520316418
 10
6.0286476133
 20
18.3640456875
 10
6.0512879137
 20
18.3776371403
 10
6.072733487
 20
18.3928223205
 10
6.092391291
 20
18.4099718701
 10
6.1102392387
 20
18.4291666991
 10
6.1262994172
 20
18.4503258832
 10
6.1400450454
 20
18.4735773105
 10
6.1515161974
 20
18.4990138362
 10
6.1606727992
 20
18.5265425845
 10
6.1668678474
 20
18.5560128456
 10
6.1702481327
 20
18.587848759
 10
6.1706668644
 20
18.6216261596
 10
6.1670366675
 20
18.6559218895
 10
6.1591089935
 20
18.691086572
 10
6.1471323909
 20
18.7267695746
 10
6.1307651296
 20
18.760495883
 10
6.109393502
 20
18.7920490512
 10
6.0836312159
 20
18.8216455515
 10
6.054977664
 20
18.8474597749
 10
6.0233524806
 20
18.869124924
 10
5.9888360316
 20
18.8870078334
 10
5.9531688075
 20
18.9003833516
 10
5.9163788558
 20
18.9088712626
 10
5.878438129
 20
18.9128518029
 10
5.8410029754
 20
18.9127404958
 10
5.8040676009
 20
18.9087300464
  0
LWPOLYLINE
  5
547
100
AcDbEntity
  8
0
100
AcDbPolyline
 62
7
  6
CONTINUOUS
 90
32
 70
0
 10
5.9015201423
 20
19.4485677419
 10
5.9277587466
 20
19.4540072019
 10
5.9536458075
 20
19.4607187805
 10
5.979181325
 20
19.468702476
 10
6.0046464342
 20
19.4778510956
 10
6.0297600001
 20
19.4882718277
 10
6.0536786175
 20
19.5002862404
 10
6.0763188027
 20
19.5138780282
 10
6.0977640395
 20
19.5290634881
 10
6.1174213744
 20
19.5462130899
 10
6.1352686604
 20
19.5654076538
 10
6.1513280446
 20
19.5865663443
 10
6.1650730146
 20
19.6098171444
 10
6.1765437257
 20
19.6352528421
 10
6.1857000227
 20
19.6627806274
 10
6.1918949276
 20
19.6922500858
 10
6.1952753275
 20
19.7240853739
 10
6.1956943353
 20
19.7578623076
 10
6.1920643112
 20
19.7921579713
 10
6.1841366249
 20
19.8273232503
 10
6.1721599067
 20
19.8630072496
 10
6.1557924073
 20
19.8967344111
 10
6.1344202649
 20
19.928288148
 10
6.1086573412
 20
19.9578850753
 10
6.0800034721
 20
19.9836994671
 10
6.0483784636
 20
20.005364355
 10
6.0138625096
 20
20.0232467472
 10
5.9781960282
 20
20.0366218926
 10
5.9414071791
 20
20.0451096741
 10
5.9034678026
 20
20.0490902306
 10
5.8660338374
 20
20.0489791907
 10
5.8290994192
 20
20.0449693782
  0
LWPOLYLINE
  5
548
100
AcDbEntity
  8
0
100
AcDbPolyline
 62
7
  6
CONTINUOUS
 90
19
 70
0
 10
9.2844680666
 20
19.531529965
 10
9.2997958766
 20
19.5346839585
 10
9.314744843
 20
19.5380831311
 10
9.3293149657
 20
19.5417274828
 10
9.3434788673
 20
19.545599762
 10
9.3572639252
 20
19.5497172199
 10
9.3707522718
 20
19.5541316103
 10
9.3839471084
 20
19.5588271294
 10
9.3968452337
 20
19.5638195805
 10
9.4095191768
 20
19.569208128
 10
9.4220153359
 20
19.5749952505
 10
9.4342873129
 20
19.5811784686
 10
9.4462684419
 20
19.58784951
 10
9.4579854053
 20
19.59501444
 10
9.4694115207
 20
19.6026671918
 10
9.4804000758
 20
19.6108812946
 10
9.4909021666
 20
19.6196812572
 10
9.500966697
 20
19.6290425687
 10
9.5105936671
 20
19.6389652279
  0
LINE
  5
549
100
AcDbEntity
  8
0
100
AcDbLine
 62
7
  6
CONTINUOUS
 10
9.026155211
 20
17.8184406669
 11
9.0169198086
 21
17.8180517504
  0
LWPOLYLINE
  5
54A
100
AcDbEntity
  8
0
100
AcDbPolyline
 62
7
  6
CONTINUOUS
 90
7
 70
0
 10
9.0169198086
 20
17.8180517504
 10
9.0123224089
 20
17.8178942091
 10
9.0099758898
 20
17.8178265848
 10
9.0074812594
 20
17.8177711621
 10
9.0048014132
 20
17.817729508
 10
9.0019734558
 20
17.8177000555
 10
8.9989973872
 20
17.8176828047
  0
LWPOLYLINE
  5
54B
100
AcDbEntity
  8
0
100
AcDbPolyline
 62
7
  6
CONTINUOUS
 90
10
 70
0
 10
8.7114803164
 20
17.2047905346
 10
8.7401975423
 20
17.2053875824
 10
8.7683807555
 20
17.2081696473
 10
8.796029956
 20
17.2131367282
 10
8.8233652429
 20
17.2202179219
 10
8.850166517
 20
17.229484127
 10
8.8757734813
 20
17.241148043
 10
8.8999660365
 20
17.2552805661
 10
8.9229642818
 20
17.2718107888
 10
8.9447682171
 20
17.2907387038
  0
LWPOLYLINE
  5
54C
100
AcDbEntity
  8
0
100
AcDbPolyline
 62
7
  6
CONTINUOUS
 90
5
 70
0
 10
9.0358323424
 20
17.818705978
 10
9.0333810202
 20
17.8186614438
 10
9.0309515259
 20
17.818603326
 10
9.0285438597
 20
17.8185316247
 10
9.026155211
 20
17.8184406669
  0
LWPOLYLINE
  5
54D
100
AcDbEntity
  8
0
100
AcDbPolyline
 62
7
  6
CONTINUOUS
 90
31
 70
0
 10
5.3080270516
 20
17.1565572159
 10
5.3308095909
 20
17.1569456968
 10
5.3533731681
 20
17.1587138739
 10
5.375717783
 20
17.1618617468
 10
5.3979815718
 20
17.1663303706
 10
5.4200263984
 20
17.1721786884
 10
5.4414378548
 20
17.1795835311
 10
5.4621799695
 20
17.1886483112
 10
5.482288714
 20
17.1992696115
 10
5.5014575952
 20
17.2113140177
 10
5.5196950599
 20
17.2248106622
 10
5.5369926613
 20
17.2397304059
 10
5.5530185659
 20
17.2558524269
 10
5.5677810706
 20
17.2731858883
 10
5.5812718785
 20
17.2917216197
 10
5.593134266
 20
17.3112113005
 10
5.6033001738
 20
17.3317753533
 10
5.6118376611
 20
17.353293348
 10
5.6185941819
 20
17.375155688
 10
5.6234285908
 20
17.3973077587
 10
5.6264820332
 20
17.4198041719
 10
5.6280253987
 20
17.4421991747
 10
5.6282242634
 20
17.4643143306
 10
5.6269130513
 20
17.4863280773
 10
5.6238659231
 20
17.5083299746
 10
5.6192498844
 20
17.5303612271
 10
5.6128979298
 20
17.5523806301
 10
5.6040832039
 20
17.5743541297
 10
5.5927185846
 20
17.5966218462
 10
5.5788911942
 20
17.6188436585
 10
5.5621355433
 20
17.6399651547
  0
LWPOLYLINE
  5
54E
100
AcDbEntity
  8
0
100
AcDbPolyline
 62
7
  6
CONTINUOUS
 90
34
 70
0
 10
5.2927714783
 20
17.744874323
 10
5.2681753435
 20
17.7445466117
 10
5.2437557947
 20
17.7428792774
 10
5.219512832
 20
17.7398723198
 10
5.1952642041
 20
17.7355919494
 10
5.1711921623
 20
17.7299719539
 10
5.1478434602
 20
17.7228136978
 10
5.1252934475
 20
17.7141000527
 10
5.1034667746
 20
17.7038481425
 10
5.0826841458
 20
17.6919107081
 10
5.0629825654
 20
17.6783201204
 10
5.0443250291
 20
17.6630440005
 10
5.0269212282
 20
17.6458379631
 10
5.0106586938
 20
17.626675782
 10
4.9956498949
 20
17.6055836702
 10
4.9824419295
 20
17.5823958986
 10
4.9707407146
 20
17.5567602399
 10
4.9608403332
 20
17.5290289015
 10
4.9541701337
 20
17.5000928087
 10
4.9509434245
 20
17.4698448051
 10
4.950946897
 20
17.4383920337
 10
4.954969974
 20
17.4069468806
 10
4.9632345131
 20
17.3754708537
 10
4.9755186566
 20
17.3440024451
 10
4.9919462539
 20
17.3138695316
 10
5.0127075307
 20
17.2850686922
 10
5.0376122614
 20
17.2576033624
 10
5.0662136189
 20
17.2328117169
 10
5.0986045207
 20
17.2106334907
 10
5.1346920493
 20
17.1911289716
 10
5.1737506247
 20
17.1758171739
 10
5.2155383869
 20
17.1652044444
 10
5.2602971958
 20
17.1587844568
 10
5.3080270516
 20
17.1565572159
  0
LWPOLYLINE
  5
54F
100
AcDbEntity
  8
0
100
AcDbPolyline
 62
7
  6
CONTINUOUS
 90
16
 70
0
 10
8.6961324482
 20
17.7972189804
 10
8.6785090762
 20
17.7970175262
 10
8.6609313711
 20
17.7961625221
 10
8.6433993331
 20
17.7946539681
 10
8.625887577
 20
17.7925391063
 10
8.6084214879
 20
17.7897706941
 10
8.5910772211
 20
17.7862070045
 10
8.5738562781
 20
17.7818607567
 10
8.5567571573
 20
17.7767192304
 10
8.5398515099
 20
17.7706025395
 10
8.5230878767
 20
17.7634886921
 10
8.5065177169
 20
17.7553996777
 10
8.490367059
 20
17.746221582
 10
8.4747112459
 20
17.7359164323
 10
8.4594749346
 20
17.7245221973
 10
8.4446581252
 20
17.7120388747
  0
LWPOLYLINE
  5
550
100
AcDbEntity
  8
0
100
AcDbPolyline
 62
7
  6
CONTINUOUS
 90
7
 70
0
 10
5.6310016631
 20
17.7667797631
 10
5.6249415639
 20
17.7667162448
 10
5.6188607035
 20
17.7666085917
 10
5.6127590818
 20
17.7664568038
 10
5.6066366989
 20
17.7662608812
 10
5.6004935548
 20
17.7660208239
 10
5.5943296494
 20
17.7657366318
  0
LWPOLYLINE
  5
551
100
AcDbEntity
  8
0
100
AcDbPolyline
 62
7
  6
CONTINUOUS
 90
25
 70
0
 10
8.9652320414
 20
16.6389651319
 10
8.9381589314
 20
16.6388255657
 10
8.9120707735
 20
16.6384683027
 10
8.8869675677
 20
16.637893343
 10
8.8629423669
 20
16.637097232
 10
8.8399021182
 20
16.6360834243
 10
8.8175676627
 20
16.6348622828
 10
8.7959369677
 20
16.6334454403
 10
8.7750120659
 20
16.6318212641
 10
8.7545198968
 20
16.6299652186
 10
8.7344495171
 20
16.6278933717
 10
8.7148118701
 20
16.6255896554
 10
8.695366725
 20
16.6229813303
 10
8.6760793987
 20
16.6200891698
 10
8.6569845742
 20
16.6168924002
 10
8.6379460707
 20
16.6132559609
 10
8.6188904701
 20
16.6092018195
 10
8.5998911904
 20
16.6047080079
 10
8.5810323045
 20
16.5995735618
 10
8.5622584869
 20
16.5938484887
 10
8.5436250632
 20
16.5874827799
 10
8.525382083
 20
16.5801254454
 10
8.5076128961
 20
16.5716594875
 10
8.4902341527
 20
16.562201901
 10
8.4732458528
 20
16.5517526843
  0
LINE
  5
552
100
AcDbEntity
  8
0
100
AcDbLine
 62
7
  6
CONTINUOUS
 10
-2.2899588708
 20
16.6216408374
 11
-1.0699538708
 21
16.6216408374
  0
LINE
  5
553
100
AcDbEntity
  8
RACCORDO
100
AcDbLine
 62
7
  6
CONTINUOUS
 10
-6.9144624278
 20
17.425623453
 11
-6.3098189406
 21
17.425623453
  0
LINE
  5
554
100
AcDbEntity
  8
RACCORDO
100
AcDbLine
 62
7
  6
CONTINUOUS
 10
0.2057262751
 20
17.425623453
 11
0.6042739834
 21
17.425623453
  0
LINE
  5
555
100
AcDbEntity
  8
RACCORDO
100
AcDbLine
 62
7
  6
CONTINUOUS
 10
7.119819199
 20
17.425623453
 11
7.7244626863
 21
17.425623453
  0
LINE
  5
556
100
AcDbEntity
  8
0
100
AcDbLine
 62
7
  6
CONTINUOUS
 10
-2.2899588708
 20
17.6912968374
 11
-1.0699538708
 21
17.6913018374
  0
LINE
  5
557
100
AcDbEntity
  8
0
100
AcDbLine
 62
7
  6
CONTINUOUS
 10
2.2553591292
 20
17.9134928374
 11
3.7553681292
 21
17.9134928374
  0
LWPOLYLINE
  5
558
100
AcDbEntity
  8
0
100
AcDbPolyline
 62
7
  6
CONTINUOUS
 90
43
 70
0
 10
5.511432409
 20
16.7810339875
 10
5.608827232
 20
16.7808773299
 10
5.65764445
 20
16.7793283184
 10
5.7066331944
 20
16.7763890774
 10
5.7561663941
 20
16.7722534555
 10
5.80587112
 20
16.7667276023
 10
5.8546285857
 20
16.7592299676
 10
5.9023298862
 20
16.7497419928
 10
5.9490839264
 20
16.7382822306
 10
5.9940986343
 20
16.7243247944
 10
6.0372378341
 20
16.7079204164
 10
6.0786377017
 20
16.6890183511
 10
6.1179146925
 20
16.6669404914
 10
6.1553531507
 20
16.6418462176
 10
6.190668732
 20
16.6135761236
 10
6.2226248597
 20
16.5809739117
 10
6.2514918296
 20
16.5433094126
 10
6.276999346
 20
16.5013127399
 10
6.2970999445
 20
16.4560180173
 10
6.3110976922
 20
16.4067949875
 10
6.3196885221
 20
16.3542738514
 10
6.3229127692
 20
16.3013794507
 10
6.3208814042
 20
16.2479579347
 10
6.3134834563
 20
16.1941631477
 10
6.3004263487
 20
16.1433815313
 10
6.280947331
 20
16.0962228173
 10
6.2558091534
 20
16.0520773282
 10
6.2270074896
 20
16.012502431
 10
6.1947272149
 20
15.9783217111
 10
6.158783454
 20
15.9487116434
 10
6.1206172544
 20
15.9227589313
 10
6.0804758527
 20
15.9005544447
 10
6.0381120123
 20
15.8820073433
 10
5.9942250709
 20
15.8659317537
 10
5.9488069079
 20
15.8521260678
 10
5.901865644
 20
15.8407919055
 10
5.854124978
 20
15.8313482287
 10
5.8055072906
 20
15.8237632972
 10
5.7560902013
 20
15.8180688565
 10
5.7068302674
 20
15.813779094
 10
5.6580463413
 20
15.8107320726
 10
5.6094195707
 20
15.8090897311
 10
5.5609499554
 20
15.8088520699
  0
LWPOLYLINE
  5
559
100
AcDbEntity
  8
0
100
AcDbPolyline
 62
7
  6
CONTINUOUS
 90
19
 70
0
 10
8.9652320414
 20
16.8282557746
 10
8.9891013461
 20
16.8281646152
 10
9.012964741
 20
16.8278076344
 10
9.0368222262
 20
16.8271848324
 10
9.0606716069
 20
16.8263139561
 10
9.0845150778
 20
16.8251772584
 10
9.1083592233
 20
16.8237214981
 10
9.1322105083
 20
16.8219530018
 10
9.1560624679
 20
16.8198654427
 10
9.1799022923
 20
16.8173866003
 10
9.2037433313
 20
16.8145237843
 10
9.2275722351
 20
16.8112696846
 10
9.251336145
 20
16.8075301507
 10
9.2750433232
 20
16.8033161791
 10
9.2986855076
 20
16.7986167726
 10
9.3221850534
 20
16.7933047897
 10
9.3455160789
 20
16.7873378494
 10
9.3687044658
 20
16.7807583315
 10
9.391750214
 20
16.7735662352
  0
LWPOLYLINE
  5
55A
100
AcDbEntity
  8
0
100
AcDbPolyline
 62
7
  6
CONTINUOUS
 90
10
 70
0
 10
8.705341187
 20
17.0154998919
 10
8.6589681088
 20
17.0165374325
 10
8.6137261958
 20
17.021010698
 10
8.569615448
 20
17.0289196856
 10
8.5262818643
 20
17.0402173231
 10
8.4840794458
 20
17.054950671
 10
8.4440701964
 20
17.0732609215
 10
8.4066081172
 20
17.0951951301
 10
8.3713392069
 20
17.1207062151
 10
8.3382634657
 20
17.1497941601
  0
LWPOLYLINE
  5
55B
100
AcDbEntity
  8
RACCORDO
100
AcDbPolyline
 62
7
  6
CONTINUOUS
 90
13
 70
0
 10
-6.9144624278
 20
17.425623453
 10
-6.9400380846
 20
17.4273477409
 10
-6.9652802421
 20
17.4324915515
 10
-6.9897626881
 20
17.4410128656
 10
-7.0130824915
 20
17.4528428804
 10
-7.0348057068
 20
17.4678091073
 10
-7.0544917829
 20
17.4856117191
 10
-7.0717718263
 20
17.5059603438
 10
-7.0863686141
 20
17.528552855
 10
-7.0980388489
 20
17.5529948192
 10
-7.106559419
 20
17.5788945164
 10
-7.111745788
 20
17.605860128
 10
-7.1134773752
 20
17.6334623625
  0
LWPOLYLINE
  5
55C
100
AcDbEntity
  8
RACCORDO
100
AcDbPolyline
 62
7
  6
CONTINUOUS
 90
13
 70
0
 10
0.2057262751
 20
17.425623453
 10
0.1801224544
 20
17.4273527419
 10
0.1548419575
 20
17.4325078106
 10
0.1303127744
 20
17.4410485312
 10
0.10693868
 20
17.4529089523
 10
0.0851572384
 20
17.4679165867
 10
0.065414666
 20
17.4857677431
 10
0.0480809548
 20
17.506171591
 10
0.0334354252
 20
17.5288248294
 10
0.0217264453
 20
17.5533259216
 10
0.0131777606
 20
17.5792790248
 10
0.0079714195
 20
17.6062920929
 10
0.0062265077
 20
17.6339339069
  0
LWPOLYLINE
  5
55D
100
AcDbEntity
  8
RACCORDO
100
AcDbPolyline
 62
7
  6
CONTINUOUS
 90
13
 70
0
 10
7.119819199
 20
17.425623453
 10
7.0942153783
 20
17.4273527419
 10
7.0689348814
 20
17.4325078106
 10
7.0444056983
 20
17.4410485312
 10
7.0210316039
 20
17.4529089523
 10
6.9992501624
 20
17.4679165867
 10
6.97950759
 20
17.4857677431
 10
6.9621738787
 20
17.506171591
 10
6.9475283491
 20
17.5288248294
 10
6.9358193693
 20
17.5533259216
 10
6.9272706845
 20
17.5792790248
 10
6.9220643435
 20
17.6062920929
 10
6.9203194316
 20
17.6339339069
  0
LINE
  5
55E
100
AcDbEntity
  8
0
100
AcDbLine
 62
7
  6
CONTINUOUS
 10
-1.0699578708
 20
17.3414718374
 11
-2.2899588708
 21
17.6912968374
  0
LINE
  5
55F
100
AcDbEntity
  8
0
100
AcDbLine
 62
7
  6
CONTINUOUS
 10
-1.0699538708
 20
18.3079898374
 11
-2.9200418708
 21
18.9019838374
  0
LINE
  5
560
100
AcDbEntity
  8
0
100
AcDbLine
 62
7
  6
CONTINUOUS
 10
-1.0699578708
 20
18.6780038374
 11
-1.4337888708
 21
18.7948178374
  0
LINE
  5
561
100
AcDbEntity
  8
0
100
AcDbLine
 62
7
  6
CONTINUOUS
 10
-1.7853018708
 20
18.9076818374
 11
-2.3438358708
 21
19.0869978374
  0
LINE
  5
562
100
AcDbEntity
  8
0
100
AcDbLine
 62
7
  6
CONTINUOUS
 10
3.5557951292
 20
17.0164423374
 11
2.2553641292
 21
17.4513038374
  0
LINE
  5
563
100
AcDbEntity
  8
0
100
AcDbLine
 62
7
  6
CONTINUOUS
 10
3.7553721292
 20
17.1256668374
 11
2.2553641292
 21
17.6592998374
  0
LWPOLYLINE
  5
564
100
AcDbEntity
  8
0
100
AcDbPolyline
 62
7
  6
CONTINUOUS
 90
7
 70
0
 10
8.5375376359
 20
15.9043130472
 10
8.4864007958
 20
15.9235930426
 10
8.4390268793
 20
15.9460236669
 10
8.3954158863
 20
15.971604908
 10
8.3555678168
 20
16.0003367527
 10
8.3194826709
 20
16.0322191855
 10
8.2871604485
 20
16.0672521896
  0
LINE
  5
565
100
AcDbEntity
  8
DRAFT
100
AcDbLine
 62
7
  6
CONTINUOUS
 10
-6.5289196991
 20
23.3500838374
 11
-6.4617668947
 21
23.3148690515
  0
LWPOLYLINE
  5
566
100
AcDbEntity
  8
0
100
AcDbPolyline
 62
7
  6
CONTINUOUS
 90
34
 70
0
 10
6.0510023253
 20
16.5072341626
 10
6.0181251919
 20
16.5255741485
 10
5.9837393566
 20
16.5412565794
 10
5.9478448194
 20
16.5542814625
 10
5.9098489252
 20
16.5641983711
 10
5.870344329
 20
16.5714577432
 10
5.8311089965
 20
16.5774108791
 10
5.7925474646
 20
16.5823422866
 10
5.7542551963
 20
16.5859674602
 10
5.716796546
 20
16.5887841774
 10
5.680189385
 20
16.5908391005
 10
5.644415842
 20
16.5920855679
 10
5.6099866581
 20
16.5928813716
 10
5.5771046771
 20
16.5932955076
 10
5.5455670552
 20
16.59325898
 10
5.5152760009
 20
16.5929225925
 10
5.4863323024
 20
16.5923361236
 10
5.4586351715
 20
16.5914497947
 10
5.431784453
 20
16.5902650732
 10
5.4058007904
 20
16.588802418
 10
5.3806635402
 20
16.58704137
 10
5.3559106168
 20
16.584922019
 10
5.3315331496
 20
16.5824654091
 10
5.3075400092
 20
16.579650496
 10
5.2834957221
 20
16.5763542374
 10
5.2592035914
 20
16.5726690742
 10
5.2348603141
 20
16.568502565
 10
5.210620508
 20
16.563454343
 10
5.1863960225
 20
16.5576262591
 10
5.1622750081
 20
16.5509164609
 10
5.1386765351
 20
16.5426190253
 10
5.1157402935
 20
16.5324986425
 10
5.0933265932
 20
16.5207906169
 10
5.0714354343
 20
16.5074949454
  0
LWPOLYLINE
  5
567
100
AcDbEntity
  8
0
100
AcDbPolyline
 62
7
  6
CONTINUOUS
 90
4
 70
0
 10
5.5943296494
 20
17.7657366318
 10
5.6323417569
 20
17.7388668711
 10
5.6668442392
 20
17.7078305983
 10
5.6978370964
 20
17.6726277891
  0
LINE
  5
568
100
AcDbEntity
  8
0
100
AcDbLine
 62
7
  6
CONTINUOUS
 10
6.0730804623
 20
17.6400096733
 11
6.0502347822
 21
17.6579025604
  0
LWPOLYLINE
  5
569
100
AcDbEntity
  8
0
100
AcDbPolyline
 62
7
  6
CONTINUOUS
 90
42
 70
0
 10
4.9889984672
 20
17.0586804192
 10
4.9481826554
 20
17.0914735379
 10
4.911900516
 20
17.1279126749
 10
4.879973766
 20
17.167902045
 10
4.8525806884
 20
17.211537383
 10
4.8306368038
 20
17.2578976782
 10
4.8144370986
 20
17.3074755274
 10
4.8036865862
 20
17.3597782824
 10
4.7984158281
 20
17.4124070923
 10
4.7986894579
 20
17.4653185525
 10
4.8044428418
 20
17.5185560604
 10
4.8155126402
 20
17.5698510139
 10
4.8320613527
 20
17.6188172292
 10
4.8539264796
 20
17.6658409278
 10
4.8804571821
 20
17.7098121469
 10
4.9117956159
 20
17.7507372061
 10
4.9477996253
 20
17.7886098338
 10
4.9873919039
 20
17.8223011958
 10
5.0308342364
 20
17.8514403782
 10
5.0778648382
 20
17.8763983458
 10
5.126621049
 20
17.8971590862
 10
5.176991315
 20
17.9131892889
 10
5.2290871901
 20
17.925022295
 10
5.2813806761
 20
17.93424206
 10
5.3334607651
 20
17.940990866
 10
5.385738465
 20
17.9451264386
 10
5.4379188011
 20
17.9478058926
 10
5.4898792378
 20
17.949350224
 10
5.5417423106
 20
17.9494384378
 10
5.5935806512
 20
17.9482646608
 10
5.6454023781
 20
17.9461096518
 10
5.6971993727
 20
17.9426926512
 10
5.7490199112
 20
17.937365507
 10
5.8012855264
 20
17.9302171404
 10
5.8535746855
 20
17.9211586258
 10
5.9046710662
 20
17.9092750372
 10
5.9548833776
 20
17.89418175
 10
6.0039029106
 20
17.8762633737
 10
6.0495872154
 20
17.8557588312
 10
6.0914228899
 20
17.8323823558
 10
6.1299233363
 20
17.8064196921
 10
6.1644863107
 20
17.7789670336
  0
LWPOLYLINE
  5
56A
100
AcDbEntity
  8
0
100
AcDbPolyline
 62
7
  6
CONTINUOUS
 90
37
 70
0
 10
6.1644863107
 20
17.7789670336
 10
6.1947902759
 20
17.7499460246
 10
6.2211567692
 20
17.719435005
 10
6.2439481587
 20
17.6887652249
 10
6.2629596605
 20
17.6581871695
 10
6.2783960585
 20
17.6274503529
 10
6.2912340728
 20
17.5971345796
 10
6.3015327213
 20
17.5674121631
 10
6.3092329861
 20
17.5381107954
 10
6.3151345339
 20
17.5092933528
 10
6.31933562
 20
17.4809858221
 10
6.321737989
 20
17.4531622219
 10
6.3228465411
 20
17.4258074767
 10
6.3228400303
 20
17.3989696511
 10
6.3215397025
 20
17.3726006855
 10
6.3189141952
 20
17.3465413169
 10
6.3150437262
 20
17.3207189316
 10
6.3098480776
 20
17.2952061461
 10
6.3030552333
 20
17.2700615416
 10
6.2945851874
 20
17.2451237851
 10
6.2845179458
 20
17.2205542127
 10
6.2728215095
 20
17.1968954109
 10
6.2594529785
 20
17.1741888675
 10
6.2444552529
 20
17.1523931027
 10
6.2279250342
 20
17.1319262554
 10
6.2097087969
 20
17.1128743056
 10
6.1899600665
 20
17.0951512831
 10
6.1692361212
 20
17.0789174028
 10
6.1476147433
 20
17.0642758167
 10
6.1250181505
 20
17.0511233815
 10
6.1017702745
 20
17.0393108682
 10
6.0778923061
 20
17.028801807
 10
6.0533630543
 20
17.0196326732
 10
6.0284428777
 20
17.011763655
 10
6.0032185625
 20
17.0051814829
 10
5.9776033225
 20
16.9998994299
 10
5.9515971576
 20
16.9959174972
  0
LINE
  5
56B
100
AcDbEntity
  8
RACCORDO
100
AcDbLine
 62
7
  6
CONTINUOUS
 10
0.8022164824
 20
22.5839252288
 11
0.6679730739
 21
22.7181686373
  0
LWPOLYLINE
  5
56C
100
AcDbEntity
  8
0
100
AcDbPolyline
 62
7
  6
CONTINUOUS
 90
5
 70
0
 10
5.5621355433
 20
17.6399651547
 10
5.5421893316
 20
17.6599917121
 10
5.5193148595
 20
17.6789179617
 10
5.4938335392
 20
17.6956733804
 10
5.4656329952
 20
17.7100345922
  0
LWPOLYLINE
  5
56D
100
AcDbEntity
  8
0
100
AcDbPolyline
 62
7
  6
CONTINUOUS
 90
10
 70
0
 10
8.2871604485
 20
16.0672521896
 10
8.2683138412
 20
16.0923640804
 10
8.2517308123
 20
16.1189042053
 10
8.2374113618
 20
16.146872558
 10
8.2253617452
 20
16.1764730313
 10
8.2155757071
 20
16.2075017177
 10
8.2080344811
 20
16.239346912
 10
8.202731812
 20
16.2718047109
 10
8.1996739551
 20
16.3050790092
 10
8.1988609104
 20
16.3391698023
  0
LWPOLYLINE
  5
56E
100
AcDbEntity
  8
0
100
AcDbPolyline
 62
7
  6
CONTINUOUS
 90
7
 70
0
 10
9.1422443359
 20
17.6662502905
 10
9.1588660645
 20
17.6342819894
 10
9.1724543796
 20
17.6013220204
 10
9.1830092813
 20
17.5673703775
 10
9.1905307696
 20
17.5324270546
 10
9.1950188445
 20
17.4964920454
 10
9.196473506
 20
17.4595653435
  0
LINE
  5
56F
100
AcDbEntity
  8
DRAFT
100
AcDbLine
 62
7
  6
CONTINUOUS
 10
10.0550001292
 20
-11.580973907
 11
9.98685226
 21
-11.6491217763
  0
LINE
  5
570
100
AcDbEntity
  8
RACCORDO
100
AcDbLine
 62
7
  6
CONTINUOUS
 10
6.9190251078
 20
-12.9617443369
 11
6.9050001292
 21
-12.9687562921
  0
LINE
  5
571
100
AcDbEntity
  8
RACCORDO
100
AcDbLine
 62
7
  6
CONTINUOUS
 10
-6.8369285696
 20
-18.68657907
 11
-6.9780350503
 21
-18.7499161626
  0
LWPOLYLINE
  5
572
100
AcDbEntity
  8
0
100
AcDbPolyline
 62
7
  6
CONTINUOUS
 90
12
 70
0
 10
5.8290994192
 20
20.0449693782
 10
5.7926704123
 20
20.0368679655
 10
5.7584203482
 20
20.0245120986
 10
5.7265152581
 20
20.0075056259
 10
5.6967891108
 20
19.986244671
 10
5.670417344
 20
19.9617547906
 10
5.647485592
 20
19.9340968253
 10
5.6279082205
 20
19.9032098986
 10
5.612603765
 20
19.8699369978
 10
5.601878404
 20
19.8345591096
 10
5.595425959
 20
19.7967952139
 10
5.59324643
 20
19.7566452916
  0
LWPOLYLINE
  5
573
100
AcDbEntity
  8
0
100
AcDbPolyline
 62
7
  6
CONTINUOUS
 90
16
 70
0
 10
9.3417668461
 20
20.7163868567
 10
9.3563100376
 20
20.7190390395
 10
9.3704883371
 20
20.7220387919
 10
9.3843017444
 20
20.7253861135
 10
9.397728545
 20
20.7290521774
 10
9.4107904535
 20
20.73306581
 10
9.4235526133
 20
20.7375134911
 10
9.4360345535
 20
20.7423762607
 10
9.4482167451
 20
20.7476730779
 10
9.4601057443
 20
20.753547301
 10
9.4717733192
 20
20.7600223959
 10
9.4831477017
 20
20.7670748952
 10
9.4940201448
 20
20.7747777572
 10
9.504321066
 20
20.7831553003
 10
9.5141200478
 20
20.7921832037
 10
9.5234170902
 20
20.8018614659
  0
LWPOLYLINE
  5
574
100
AcDbEntity
  8
0
100
AcDbPolyline
 62
7
  6
CONTINUOUS
 90
37
 70
0
 10
5.1809299574
 20
18.8464042257
 10
5.1531695929
 20
18.844558483
 10
5.1263336665
 20
18.8397519306
 10
5.1004221781
 20
18.8319845655
 10
5.0749008977
 20
18.8209837716
 10
5.0503040554
 20
18.8070221534
 10
5.0282343415
 20
18.7909175391
 10
5.0091195911
 20
18.7723507679
 10
4.9925319691
 20
18.7516409848
 10
4.9787906608
 20
18.7305634845
 10
4.9683206587
 20
18.7094572718
 10
4.9606969702
 20
18.6879833398
 10
4.9549638033
 20
18.6668999765
 10
4.951001585
 20
18.646575839
 10
4.9489298883
 20
18.6266422745
 10
4.9481516399
 20
18.6067516082
 10
4.9483874208
 20
18.5867845915
 10
4.9499166499
 20
18.5668604731
 10
4.9529805112
 20
18.5469893224
 10
4.9576334585
 20
18.5269362323
 10
4.963821038
 20
18.5069361098
 10
4.9716210718
 20
18.4877037481
 10
4.9811402085
 20
18.4693381147
 10
4.9922717995
 20
18.4517402482
 10
5.0047737211
 20
18.4353280528
 10
5.0187512382
 20
18.4201942503
 10
5.0340990859
 20
18.4062461267
 10
5.0502593469
 20
18.393623434
 10
5.0671602955
 20
18.3824620381
 10
5.0848736573
 20
18.3726260796
 10
5.1030566917
 20
18.3638477229
 10
5.1216693133
 20
18.356102376
 10
5.1407516074
 20
18.3494146344
 10
5.1600810897
 20
18.3435904428
 10
5.1795835986
 20
18.3385651166
 10
5.1993332956
 20
18.3344033423
 10
5.2193301807
 20
18.3311051205
  0
LWPOLYLINE
  5
575
100
AcDbEntity
  8
0
100
AcDbPolyline
 62
7
  6
CONTINUOUS
 90
37
 70
0
 10
5.2059572377
 20
19.9826427494
 10
5.1781970905
 20
19.9807970792
 10
5.1513613013
 20
19.9759905762
 10
5.1254498698
 20
19.9682232374
 10
5.0999285289
 20
19.957222434
 10
5.0753315458
 20
19.9432607824
 10
5.0532617224
 20
19.9271561471
 10
5.0341469353
 20
19.9085893553
 10
5.0175593079
 20
19.887879563
 10
5.0038180125
 20
19.8668021378
 10
4.9933480548
 20
19.8456960971
 10
4.9857244292
 20
19.8242224211
 10
4.9799912913
 20
19.8031394323
 10
4.9760290679
 20
19.782815831
 10
4.9739573323
 20
19.7628829213
 10
4.9731789594
 20
19.7429929332
 10
4.9734145185
 20
19.7230266309
 10
4.9749434404
 20
19.7031032501
 10
4.9780068918
 20
19.6832327263
 10
4.9826592843
 20
19.6631801302
 10
4.9888462063
 20
19.6431803909
 10
4.996645591
 20
19.6239482342
 10
5.0061640805
 20
19.6055825947
 10
5.0172950326
 20
19.5879845443
 10
5.029796453
 20
19.5715720194
 10
5.0437736348
 20
19.5564377043
 10
5.0591212849
 20
19.5424889228
 10
5.0752815293
 20
19.5298655727
 10
5.0921826856
 20
19.518703546
 10
5.1098964361
 20
19.5088669575
 10
5.1280799541
 20
19.5000880383
 10
5.1466931649
 20
19.4923422153
 10
5.1657761432
 20
19.4856540652
 10
5.1851062864
 20
19.4798295422
 10
5.2046093939
 20
19.4748039648
 10
5.2243596664
 20
19.4706420165
 10
5.2443571039
 20
19.4673436979
  0
LWPOLYLINE
  5
576
100
AcDbEntity
  8
0
100
AcDbPolyline
 62
7
  6
CONTINUOUS
 90
7
 70
0
 10
8.5846044986
 20
18.9012433907
 10
8.5526309308
 20
18.8995087961
 10
8.5222941896
 20
18.893863887
 10
8.4935942751
 20
18.8843086588
 10
8.4665311874
 20
18.8708431041
 10
8.4411049263
 20
18.8534672122
 10
8.4173154918
 20
18.8321809694
  0
LWPOLYLINE
  5
577
100
AcDbEntity
  8
0
100
AcDbPolyline
 62
7
  6
CONTINUOUS
 90
7
 70
0
 10
8.5846044986
 20
20.0666596314
 10
8.5526302973
 20
20.0649247819
 10
8.5222931643
 20
20.0592797085
 10
8.4935930996
 20
20.0497244062
 10
8.4665301031
 20
20.0362588671
 10
8.4411041749
 20
20.0188830796
 10
8.4173153151
 20
19.9975970293
  0
LWPOLYLINE
  5
578
100
AcDbEntity
  8
0
100
AcDbPolyline
 62
7
  6
CONTINUOUS
 90
10
 70
0
 10
9.266050589
 20
18.9687742611
 10
9.2399723468
 20
18.9680338344
 10
9.2144990648
 20
18.9651831876
 10
9.1896307429
 20
18.9602223194
 10
9.1652120361
 20
18.9531603667
 10
9.1413982894
 20
18.9439881876
 10
9.1186555385
 20
18.9326783607
 10
9.0971391284
 20
18.919221742
 10
9.076693714
 20
18.9036274648
 10
9.0573192953
 20
18.8858955225
  0
LWPOLYLINE
  5
579
100
AcDbEntity
  8
0
100
AcDbPolyline
 62
7
  6
CONTINUOUS
 90
37
 70
0
 10
3.1547914864
 20
19.5619006656
 10
3.1879366976
 20
19.562452618
 10
3.2196476927
 20
19.5637930706
 10
3.2499244717
 20
19.5659220232
 10
3.2786528052
 20
19.5688677935
 10
3.3059469225
 20
19.5726020629
 10
3.3321495115
 20
19.5770398763
 10
3.3573238543
 20
19.5821477367
 10
3.3814066687
 20
19.5879591396
 10
3.4045507968
 20
19.5944896192
 10
3.4267623665
 20
19.6017276351
 10
3.4480352498
 20
19.6096847256
 10
3.4685039054
 20
19.6184110423
 10
3.488159696
 20
19.6278951474
 10
3.5070112588
 20
19.6381484758
 10
3.5252189643
 20
19.6492554874
 10
3.5428540162
 20
19.661239934
 10
3.5598452108
 20
19.6740780595
 10
3.5761393072
 20
19.6877830619
 10
3.591801292
 20
19.7023923658
 10
3.6067661785
 20
19.7178685412
 10
3.620785766
 20
19.7341125044
 10
3.6338289007
 20
19.7511470652
 10
3.6459267363
 20
19.7689494082
 10
3.6569245343
 20
19.7873520131
 10
3.666744204
 20
19.8063985155
 10
3.675463836
 20
19.8260452748
 10
3.6831629627
 20
19.8459938582
 10
3.6898118834
 20
19.8661944923
 10
3.6954402989
 20
19.8866969481
 10
3.700216844
 20
19.9073521116
 10
3.7041531596
 20
19.928140433
 10
3.7072376048
 20
19.9490814608
 10
3.7096038919
 20
19.9700847297
 10
3.7112965918
 20
19.9911200846
 10
3.7122711337
 20
20.01221768
 10
3.7125275175
 20
20.0333775158
  0
LINE
  5
57A
100
AcDbEntity
  8
0
100
AcDbLine
 62
7
  6
CONTINUOUS
 10
-2.9200368708
 20
18.0613158374
 11
-1.0699538708
 21
18.0613158374
  0
LINE
  5
57B
100
AcDbEntity
  8
0
100
AcDbLine
 62
7
  6
CONTINUOUS
 10
2.4234251292
 20
18.1130708374
 11
2.9003201292
 21
18.1130708374
  0
LINE
  5
57C
100
AcDbEntity
  8
0
100
AcDbLine
 62
7
  6
CONTINUOUS
 10
3.0684011292
 20
18.1130708374
 11
3.5873021292
 21
18.1130708374
  0
LINE
  5
57D
100
AcDbEntity
  8
0
100
AcDbLine
 62
7
  6
CONTINUOUS
 10
2.9003201292
 20
18.8925248374
 11
3.0684011292
 21
18.8925248374
  0
LINE
  5
57E
100
AcDbEntity
  8
0
100
AcDbLine
 62
7
  6
CONTINUOUS
 10
2.2553591292
 20
18.9492058374
 11
2.4234251292
 21
18.9492058374
  0
LINE
  5
57F
100
AcDbEntity
  8
0
100
AcDbLine
 62
7
  6
CONTINUOUS
 10
3.5873021292
 20
18.9555338374
 11
3.7553681292
 21
18.9555338374
  0
LINE
  5
580
100
AcDbEntity
  8
0
100
AcDbLine
 62
7
  6
CONTINUOUS
 10
2.253955709
 20
19.46929982
 11
3.202206634
 21
19.4693712931
  0
LINE
  5
581
100
AcDbEntity
  8
0
100
AcDbLine
 62
7
  6
CONTINUOUS
 10
2.253955709
 20
19.5619006656
 11
3.1547914864
 21
19.5619006656
  0
LWPOLYLINE
  5
582
100
AcDbEntity
  8
0
100
AcDbPolyline
 62
7
  6
CONTINUOUS
 90
19
 70
0
 10
8.9243043928
 20
18.001857402
 10
8.9499977177
 20
18.0017550567
 10
8.9756818036
 20
18.0013505799
 10
9.0013566505
 20
18.0006439715
 10
9.0270196768
 20
17.9996561754
 10
9.052673464
 20
17.9983662476
 10
9.0783257571
 20
17.9967113567
 10
9.1039845563
 20
17.994699347
 10
9.1296418612
 20
17.992322374
 10
9.1552814155
 20
17.9894940726
 10
9.1809193965
 20
17.9862236939
 10
9.2065396269
 20
17.9825019864
 10
9.2320773185
 20
17.9782148312
 10
9.2575445732
 20
17.9733759802
 10
9.2829292891
 20
17.9679716804
 10
9.3081303727
 20
17.9618465556
 10
9.3331141262
 20
17.9549488129
 10
9.3579142474
 20
17.9473302433
 10
9.3825307363
 20
17.9389908458
  0
LWPOLYLINE
  5
583
100
AcDbEntity
  8
0
100
AcDbPolyline
 62
7
  6
CONTINUOUS
 90
10
 70
0
 10
9.2619578509
 20
19.1642039438
 10
9.3041059989
 20
19.1626740309
 10
9.3451811513
 20
19.1574495931
 10
9.3851833079
 20
19.1485306264
 10
9.424386541
 20
19.1357955643
 10
9.4625167784
 20
19.1193659568
 10
9.4987518036
 20
19.0996064716
 10
9.5328175446
 20
19.0766386555
 10
9.5649880734
 20
19.0503409329
 10
9.59526339
 20
19.0207132859
  0
LWPOLYLINE
  5
584
100
AcDbEntity
  8
0
100
AcDbPolyline
 62
7
  6
CONTINUOUS
 90
7
 70
0
 10
8.5886972814
 20
19.0905340334
 10
8.6204023987
 20
19.0891890031
 10
8.6512262942
 20
19.0849031376
 10
8.6811689679
 20
19.0776764343
 10
8.7102304197
 20
19.067508889
 10
8.7384106497
 20
19.0544004955
 10
8.7657096578
 20
19.0383512458
  0
LWPOLYLINE
  5
585
100
AcDbEntity
  8
0
100
AcDbPolyline
 62
7
  6
CONTINUOUS
 90
3
 70
0
 10
9.1120333232
 20
17.8156187302
 10
9.0740786932
 20
17.8179275394
 10
9.0358323424
 20
17.818705978
  0
LWPOLYLINE
  5
586
100
AcDbEntity
  8
0
100
AcDbPolyline
 62
7
  6
CONTINUOUS
 90
5
 70
0
 10
5.7176762451
 20
17.7627632791
 10
5.6960485283
 20
17.7645330242
 10
5.6743946262
 20
17.7657932815
 10
5.6527123378
 20
17.7665421945
 10
5.6310016631
 20
17.7667797631
  0
LINE
  5
587
100
AcDbEntity
  8
0
100
AcDbLine
 62
7
  6
CONTINUOUS
 10
8.9949046491
 20
18.5451724549
 11
8.8332402675
 21
18.5656362792
  0
LINE
  5
588
100
AcDbEntity
  8
0
100
AcDbLine
 62
7
  6
CONTINUOUS
 10
5.5885926533
 20
18.4908317709
 11
5.4279527102
 21
18.5112378907
  0
LWPOLYLINE
  5
589
100
AcDbEntity
  8
0
100
AcDbPolyline
 62
7
  6
CONTINUOUS
 90
10
 70
0
 10
8.587674108
 20
18.2003566047
 10
8.5494379041
 20
18.2082924091
 10
8.5126311803
 20
18.2185312814
 10
8.4772539368
 20
18.2310732168
 10
8.4430776293
 20
18.2459498124
 10
8.4103308021
 20
18.2631294588
 10
8.3796990877
 20
18.2825173406
 10
8.3514110305
 20
18.304081847
 10
8.3252380861
 20
18.3278545712
 10
8.3011802547
 20
18.3538355028
  0
LWPOLYLINE
  5
58A
100
AcDbEntity
  8
0
100
AcDbPolyline
 62
7
  6
CONTINUOUS
 90
33
 70
0
 10
5.1859501318
 20
18.1475168515
 10
5.1462952277
 20
18.1560225232
 10
5.1077073604
 20
18.1673649826
 10
5.0701865299
 20
18.1815442235
 10
5.0333169561
 20
18.1985437823
 10
4.997514419
 20
18.2183801054
 10
4.964026259
 20
18.2411025489
 10
4.9329550992
 20
18.2668027098
 10
4.9041983165
 20
18.2953889634
 10
4.8786953816
 20
18.3266358318
 10
4.856651799
 20
18.3606908003
 10
4.8378620641
 20
18.3974063487
 10
4.8226491336
 20
18.4361144944
 10
4.8110976589
 20
18.4769513571
 10
4.8031229886
 20
18.5197807847
 10
4.7987941254
 20
18.5635263996
 10
4.7979011274
 20
18.608218858
 10
4.8006539365
 20
18.6538274867
 10
4.8077513815
 20
18.6991839327
 10
4.8193295121
 20
18.7446118532
 10
4.8352522786
 20
18.7897875929
 10
4.8558103599
 20
18.832571859
 10
4.881604455
 20
18.8730376324
 10
4.9120338649
 20
18.9111119714
 10
4.9455871722
 20
18.9444367355
 10
4.9824857942
 20
18.9724420894
 10
5.0225083137
 20
18.9956979296
 10
5.0634790616
 20
19.013555728
 10
5.1051303127
 20
19.0257209098
 10
5.1477297922
 20
19.0324880833
 10
5.1899050061
 20
19.0340924887
 10
5.2317849124
 20
19.0306097054
 10
5.2732405531
 20
19.0219641521
  0
LWPOLYLINE
  5
58B
100
AcDbEntity
  8
0
100
AcDbPolyline
 62
7
  6
CONTINUOUS
 90
5
 70
0
 10
9.2609346342
 20
17.7910797669
 10
9.2241468878
 20
17.7995100698
 10
9.1870674205
 20
17.8064099967
 10
9.1496962323
 20
17.8117795497
 10
9.1120333232
 20
17.8156187302
  0
LWPOLYLINE
  5
58C
100
AcDbEntity
  8
0
100
AcDbPolyline
 62
7
  6
CONTINUOUS
 90
8
 70
0
 10
5.2732405531
 20
19.0219641521
 10
5.3125125603
 20
19.0081643196
 10
5.3494533012
 20
18.9887968602
 10
5.3842104086
 20
18.9642750859
 10
5.4154674132
 20
18.9358474753
 10
5.442785492
 20
18.9039301747
 10
5.466603468
 20
18.8681069918
 10
5.4869213413
 20
18.8283778984
  0
LWPOLYLINE
  5
58D
100
AcDbEntity
  8
0
100
AcDbPolyline
 62
7
  6
CONTINUOUS
 90
7
 70
0
 10
9.391750214
 20
16.7735662352
 10
9.4428020477
 20
16.7545290543
 10
9.4901554947
 20
16.7322916108
 10
9.5338105549
 20
16.7068538921
 10
9.5737672285
 20
16.6782158839
 10
9.6100255153
 20
16.6463775703
 10
9.6425854153
 20
16.6113389334
  0
LWPOLYLINE
  5
58E
100
AcDbEntity
  8
0
100
AcDbPolyline
 62
7
  6
CONTINUOUS
 90
6
 70
0
 10
5.4656329952
 20
17.7100345922
 10
5.434825603
 20
17.722224986
 10
5.4020699013
 20
17.7318441897
 10
5.3675854031
 20
17.7387587488
 10
5.3311525955
 20
17.7431021259
 10
5.2927714783
 20
17.744874323
  0
LINE
  5
58F
100
AcDbEntity
  8
RACCORDO
100
AcDbLine
 62
7
  6
CONTINUOUS
 10
-6.8369285696
 20
22.9867467449
 11
-6.9780350503
 21
23.0500838374
  0
LWPOLYLINE
  5
590
100
AcDbEntity
  8
0
100
AcDbPolyline
 62
7
  6
CONTINUOUS
 90
25
 70
0
 10
9.4563643827
 20
16.5519937893
 10
9.439031533
 20
16.5625762579
 10
9.4212617724
 20
16.5721532032
 10
9.4030551009
 20
16.5807246266
 10
9.3843024005
 20
16.5881773742
 10
9.3651127893
 20
16.5946246029
 10
9.3458136211
 20
16.6004057805
 10
9.3264802853
 20
16.6055632665
 10
9.3070373926
 20
16.6100547027
 10
9.2875861291
 20
16.6140924792
 10
9.2681921705
 20
16.6177010472
 10
9.248789841
 20
16.6208559562
 10
9.2292832998
 20
16.6236962442
 10
9.2097157467
 20
16.626241456
 10
9.1900439818
 20
16.628472047
 10
9.1700425643
 20
16.6304684209
 10
9.1497216997
 20
16.6322468559
 10
9.1290711826
 20
16.633791074
 10
9.1078349558
 20
16.6351326445
 10
9.0860155758
 20
16.6362829974
 10
9.0636104863
 20
16.6372307028
 10
9.0403559607
 20
16.637973041
 10
9.0161640903
 20
16.6385091052
 10
8.9911227839
 20
16.6388398022
 10
8.9652320414
 20
16.6389651319
  0
LWPOLYLINE
  5
591
100
AcDbEntity
  8
0
100
AcDbPolyline
 62
7
  6
CONTINUOUS
 90
25
 70
0
 10
8.4589621327
 20
16.1348330608
 10
8.4769036171
 20
16.1237055822
 10
8.4952773853
 20
16.1135581931
 10
8.5140834372
 20
16.1043908951
 10
8.5334154153
 20
16.0962986594
 10
8.5531796771
 20
16.0891865178
 10
8.5730952954
 20
16.0827695623
 10
8.5931156223
 20
16.07701734
 10
8.6132873057
 20
16.0719603051
 10
8.6334693627
 20
16.0674049093
 10
8.6535871434
 20
16.0633353381
 10
8.6737152976
 20
16.0597674066
 10
8.6939367931
 20
16.0565550105
 10
8.7142059709
 20
16.0536790327
 10
8.7345684899
 20
16.0511585907
 10
8.7552442938
 20
16.0489049316
 10
8.77622282
 20
16.0469006947
 10
8.7975146311
 20
16.045163241
 10
8.8193713587
 20
16.0436559005
 10
8.841789702
 20
16.0423663188
 10
8.8647729618
 20
16.0413068504
 10
8.8885826723
 20
16.0404778879
 10
8.9133060113
 20
16.039879562
 10
8.938855801
 20
16.0395117421
 10
8.9652320414
 20
16.039374428
  0
LWPOLYLINE
  5
592
100
AcDbEntity
  8
0
100
AcDbPolyline
 62
7
  6
CONTINUOUS
 90
16
 70
0
 10
6.0502347822
 20
17.6579025604
 10
6.0271600699
 20
17.6735327926
 10
6.0041758712
 20
17.6866426701
 10
5.9809626404
 20
17.6974899053
 10
5.957954664
 20
17.7071317379
 10
5.9352881605
 20
17.7157576456
 10
5.9128269114
 20
17.7231781547
 10
5.8905965481
 20
17.7298820735
 10
5.8686528114
 20
17.7359712522
 10
5.8469399605
 20
17.7413438424
 10
5.8253164047
 20
17.7461831043
 10
5.8037763751
 20
17.7505446545
 10
5.7823256406
 20
17.7543728773
 10
5.760839917
 20
17.7576841842
 10
5.7392755756
 20
17.7604821893
 10
5.7176762451
 20
17.7627632791
  0
LWPOLYLINE
  5
593
100
AcDbEntity
  8
0
100
AcDbPolyline
 62
7
  6
CONTINUOUS
 90
18
 70
0
 10
8.9335262125
 20
17.7242071092
 10
8.921850745
 20
17.7334111874
 10
8.9097418146
 20
17.7419525668
 10
8.8971481945
 20
17.7498313597
 10
8.8841211116
 20
17.7570474559
 10
8.8708142464
 20
17.7636005229
 10
8.8572342346
 20
17.76946921
 10
8.8433744406
 20
17.7746748695
 10
8.8293686382
 20
17.779281223
 10
8.8152713297
 20
17.7832759447
 10
8.8010280127
 20
17.7866713613
 10
8.7866089541
 20
17.7895681727
 10
8.7720120986
 20
17.7919799739
 10
8.7572395014
 20
17.7938931704
 10
8.7422675946
 20
17.7953676777
 10
8.7270885221
 20
17.7964234676
 10
8.71171014
 20
17.7970405685
 10
8.6961324482
 20
17.7972189804
  0
LWPOLYLINE
  5
594
100
AcDbEntity
  8
0
100
AcDbPolyline
 62
7
  6
CONTINUOUS
 90
10
 70
0
 10
8.4515661879
 20
17.2958289394
 10
8.4758673579
 20
17.2758318721
 10
8.5014983041
 20
17.2583524705
 10
8.5284590264
 20
17.2433907426
 10
8.5569965005
 20
17.2310097062
 10
8.5868637507
 20
17.2211463562
 10
8.6173198501
 20
17.2136116646
 10
8.648117823
 20
17.2083426238
 10
8.6795046451
 20
17.2054022467
 10
8.7114803164
 20
17.2047905346
  0
LINE
  5
595
100
AcDbEntity
  8
0
100
AcDbLine
 62
7
  6
CONTINUOUS
 10
8.9447682171
 20
17.7143403312
 11
8.9335262125
 21
17.7242071092
  0
LINE
  5
596
100
AcDbEntity
  8
0
100
AcDbLine
 62
7
  6
CONTINUOUS
 10
9.0539858832
 20
17.7763536086
 11
9.0787653138
 21
17.7522584106
  0
LWPOLYLINE
  5
597
100
AcDbEntity
  8
0
100
AcDbPolyline
 62
7
  6
CONTINUOUS
 90
19
 70
0
 10
8.4175693888
 20
18.4763762511
 10
8.4265375001
 20
18.4674579672
 10
8.4358782179
 20
18.459037121
 10
8.4455915422
 20
18.4511137133
 10
8.4557189991
 20
18.4436943105
 10
8.4662190625
 20
18.4367723477
 10
8.4769671538
 20
18.4303281285
 10
8.4879574054
 20
18.4243722775
 10
8.4991956849
 20
18.4188941713
 10
8.5105750157
 20
18.4138422421
 10
8.5220467151
 20
18.4092291311
 10
8.5336594659
 20
18.4050421979
 10
8.5454523397
 20
18.4011919517
 10
8.5574255499
 20
18.3976652494
 10
8.5695788832
 20
18.3944752345
 10
8.5819507708
 20
18.3915718462
 10
8.5945540232
 20
18.3889383975
 10
8.60737583
 20
18.3865915756
 10
8.6204161911
 20
18.3845313808
  0
LWPOLYLINE
  5
598
100
AcDbEntity
  8
0
100
AcDbPolyline
 62
7
  6
CONTINUOUS
 90
10
 70
0
 10
8.3382634657
 20
17.1497941601
 10
8.3089911001
 20
17.1805957854
 10
8.2831148655
 20
17.2133047269
 10
8.2606347618
 20
17.2479209731
 10
8.2414845662
 20
17.2847585732
 10
8.2257305016
 20
17.3235034514
 10
8.2135712368
 20
17.3632134138
 10
8.2050729948
 20
17.403574394
 10
8.2001695527
 20
17.4449004452
 10
8.1988609104
 20
17.4871915599
  0
LWPOLYLINE
  5
599
100
AcDbEntity
  8
0
100
AcDbPolyline
 62
7
  6
CONTINUOUS
 90
4
 70
0
 10
9.0787653138
 20
17.7522584106
 10
9.1017348662
 20
17.7258761327
 10
9.1228945402
 20
17.6972067634
 10
9.1422443359
 20
17.6662502905
  0
LWPOLYLINE
  5
59A
100
AcDbEntity
  8
0
100
AcDbPolyline
 62
7
  6
CONTINUOUS
 90
10
 70
0
 10
8.3011802547
 20
18.3538355028
 10
8.279382793
 20
18.381871516
 10
8.2601917322
 20
18.411341635
 10
8.243607072
 20
18.4422458515
 10
8.2296277985
 20
18.4748138712
 10
8.2182549256
 20
18.5088159693
 10
8.2094914962
 20
18.5435629949
 10
8.2033385242
 20
18.5788252299
 10
8.1997949957
 20
18.6148323829
 10
8.1988609104
 20
18.6515844484
  0
LWPOLYLINE
  5
59B
100
AcDbEntity
  8
0
100
AcDbPolyline
 62
7
  6
CONTINUOUS
 90
10
 70
0
 10
8.3011802106
 20
19.5192515274
 10
8.2793828895
 20
19.5472873126
 10
8.2601919279
 20
19.5767572466
 10
8.2436073256
 20
19.6076613205
 10
8.2296280587
 20
19.6402292109
 10
8.2182551512
 20
19.6742312207
 10
8.2094916754
 20
19.7089782841
 10
8.2033386553
 20
19.744240711
 10
8.199795067
 20
19.7802481813
 10
8.1988609104
 20
19.8170006891
  0
LWPOLYLINE
  5
59C
100
AcDbEntity
  8
0
100
AcDbPolyline
 62
7
  6
CONTINUOUS
 90
10
 70
0
 10
9.6425854153
 20
16.6113389334
 10
9.6615709516
 20
16.5861654496
 10
9.6782334473
 20
16.5595647337
 10
9.6925729024
 20
16.5315367791
 10
9.7045613851
 20
16.50186776
 10
9.7142268273
 20
16.4707714874
 10
9.721653024
 20
16.4388894133
 10
9.7268679072
 20
16.4064353536
 10
9.729843545
 20
16.3731954847
 10
9.7305799375
 20
16.3391698023
  0
LWPOLYLINE
  5
59D
100
AcDbEntity
  8
0
100
AcDbPolyline
 62
7
  6
CONTINUOUS
 90
10
 70
0
 10
8.7736610598
 20
18.8069580802
 10
8.758120677
 20
18.8278024961
 10
8.7410918142
 20
18.8459816848
 10
8.7225744713
 20
18.8614956559
 10
8.7024059754
 20
18.8742468953
 10
8.6807489995
 20
18.8843329325
 10
8.658091562
 20
18.8920463408
 10
8.6345963358
 20
18.8974846464
 10
8.610100648
 20
18.9005503292
 10
8.5846044986
 20
18.9012433907
  0
LWPOLYLINE
  5
59E
100
AcDbEntity
  8
0
100
AcDbPolyline
 62
7
  6
CONTINUOUS
 90
10
 70
0
 10
8.7736609776
 20
19.9723742675
 10
8.7581212508
 20
19.9932180867
 10
8.7410928872
 20
20.0113968877
 10
8.7225758868
 20
20.0269106807
 10
8.7024075834
 20
20.0396620314
 10
8.6807506432
 20
20.0497483908
 10
8.6580930647
 20
20.0574620941
 10
8.6345975143
 20
20.0629005886
 10
8.6101013256
 20
20.0659664339
 10
8.5846044986
 20
20.0666596314
  0
LWPOLYLINE
  5
59F
100
AcDbEntity
  8
0
100
AcDbPolyline
 62
7
  6
CONTINUOUS
 90
7
 70
0
 10
9.5406389443
 20
17.6173656222
 10
9.5267994314
 20
17.638167433
 10
9.5115658811
 20
17.6576348691
 10
9.4949382936
 20
17.6757679354
 10
9.4769166687
 20
17.6925666364
 10
9.4575010065
 20
17.7080309764
 10
9.436691307
 20
17.7221609591
  0
LWPOLYLINE
  5
5A0
100
AcDbEntity
  8
0
100
AcDbPolyline
 62
7
  6
CONTINUOUS
 90
7
 70
0
 10
9.6415621618
 20
17.7532216028
 10
9.6690441697
 20
17.7101795799
 10
9.6914678928
 20
17.6651183748
 10
9.7088333312
 20
17.6180379709
 10
9.7211404847
 20
17.5689383508
 10
9.7283893535
 20
17.5178194963
 10
9.7305799375
 20
17.464681389
  0
LWPOLYLINE
  5
5A1
100
AcDbEntity
  8
0
100
AcDbPolyline
 62
7
  6
CONTINUOUS
 90
7
 70
0
 10
9.1422442582
 20
21.1624986099
 10
9.1588659029
 20
21.1305307186
 10
9.1724541728
 20
21.0975710003
 10
9.1830090681
 20
21.0636194478
 10
9.1905305887
 20
21.0286760534
 10
9.1950187347
 20
20.9927408094
 10
9.196473506
 20
20.9558137079
  0
LINE
  5
5A2
100
AcDbEntity
  8
RACCORDO
100
AcDbLine
 62
7
  6
CONTINUOUS
 10
7.5398650119
 20
20.6518281474
 11
7.5135075128
 21
20.6500838374
  0
LINE
  5
5A3
100
AcDbEntity
  8
RACCORDO
100
AcDbLine
 62
7
  6
CONTINUOUS
 10
-6.388985386
 20
20.6518208421
 11
-6.4152884943
 21
20.6500838374
  0
LWPOLYLINE
  5
5A4
100
AcDbEntity
  8
0
100
AcDbPolyline
 62
7
  6
CONTINUOUS
 90
28
 70
0
 10
5.8671695243
 20
20.6343040866
 10
5.9035674748
 20
20.6363678371
 10
5.9387480868
 20
20.6421225297
 10
5.9727113603
 20
20.6515681596
 10
6.0060690393
 20
20.6647414082
 10
6.0382093798
 20
20.6816055753
 10
6.0672971496
 20
20.7020505797
 10
6.0929284896
 20
20.7264665839
 10
6.1155072588
 20
20.7544633879
 10
6.1344098032
 20
20.7847603706
 10
6.1494761313
 20
20.8173774083
 10
6.1608662345
 20
20.8522945918
 10
6.1684364331
 20
20.8881716385
 10
6.1722648817
 20
20.9252175547
 10
6.1722734256
 20
20.9632233166
 10
6.1680839212
 20
21.0002216239
 10
6.1593270586
 20
21.0361564438
 10
6.1463721477
 20
21.0710838258
 10
6.1299489734
 20
21.1032046231
 10
6.1098544372
 20
21.132146198
 10
6.0862916377
 20
21.1582812291
 10
6.0605996553
 20
21.1809285608
 10
6.032918565
 20
21.1998912477
 10
6.0031082918
 20
21.2153662691
 10
5.9720876918
 20
21.2272633559
 10
5.9401630505
 20
21.235552424
 10
5.9070280823
 20
21.2402635742
 10
5.8726827875
 20
21.2413968104
  0
LINE
  5
5A5
100
AcDbEntity
  8
0
100
AcDbLine
 62
7
  6
CONTINUOUS
 10
9.0261555877
 20
21.3146890464
 11
9.0169201748
 21
21.3143001286
  0
LWPOLYLINE
  5
5A6
100
AcDbEntity
  8
0
100
AcDbPolyline
 62
7
  6
CONTINUOUS
 90
28
 70
0
 10
5.8726827875
 20
21.2413968104
 10
5.8383778134
 20
21.240252418
 10
5.8051115173
 20
21.2354058458
 10
5.772883899
 20
21.2268570896
 10
5.7413299792
 20
21.2145670335
 10
5.7108147373
 20
21.1985747755
 10
5.6824331117
 20
21.1789976281
 10
5.6560576387
 20
21.1556366342
 10
5.631815782
 20
21.1286907149
 10
5.6111848711
 20
21.0988739999
 10
5.5944433897
 20
21.0658113167
 10
5.5813128539
 20
21.029877795
 10
5.5724351421
 20
20.9929130349
 10
5.5680481719
 20
20.9547358316
 10
5.5679140256
 20
20.9155273716
 10
5.5719608287
 20
20.877670878
 10
5.5804011643
 20
20.8414595175
 10
5.5930224492
 20
20.8066001481
 10
5.6091150599
 20
20.7745965628
 10
5.6288783766
 20
20.7457984705
 10
5.652113019
 20
20.7198562032
 10
5.6775112235
 20
20.6972244993
 10
5.7048426317
 20
20.6779646625
 10
5.7343376018
 20
20.6620154206
 10
5.7653794451
 20
20.6496476473
 10
5.7977625984
 20
20.64095164
 10
5.8316926248
 20
20.6358371184
 10
5.8671695243
 20
20.6343040866
  0
LWPOLYLINE
  5
5A7
100
AcDbEntity
  8
0
100
AcDbPolyline
 62
7
  6
CONTINUOUS
 90
7
 70
0
 10
9.0169201748
 20
21.3143001286
 10
9.0123226509
 20
21.3141425812
 10
9.0099760522
 20
21.3140749537
 10
9.0074813556
 20
21.3140195286
 10
9.0048014641
 20
21.313977873
 10
9.0019734747
 20
21.3139484198
 10
8.9989973872
 20
21.3139311691
  0
LWPOLYLINE
  5
5A8
100
AcDbEntity
  8
0
100
AcDbPolyline
 62
7
  6
CONTINUOUS
 90
28
 70
0
 10
5.1766922999
 20
20.694804782
 10
5.2043299901
 20
20.6956804956
 10
5.2312856472
 20
20.6996442237
 10
5.2575592712
 20
20.7066959637
 10
5.2836615757
 20
20.7169237544
 10
5.3090818472
 20
20.7302395447
 10
5.3322879448
 20
20.746379195
 10
5.3530499696
 20
20.7655484513
 10
5.3715978206
 20
20.7875415445
 10
5.3870890541
 20
20.811477064
 10
5.3992317505
 20
20.837448567
 10
5.4083178295
 20
20.865362474
 10
5.4143806058
 20
20.894056679
 10
5.4174511202
 20
20.923667429
 10
5.417498332
 20
20.9540584658
 10
5.414462434
 20
20.9836589438
 10
5.4082250403
 20
21.0124035716
 10
5.3989045369
 20
21.0403576511
 10
5.3867962746
 20
21.0661462458
 10
5.3716308755
 20
21.0894846057
 10
5.3536777175
 20
21.110657506
 10
5.3340402846
 20
21.1291443076
 10
5.3128129468
 20
21.1448363951
 10
5.289901334
 20
21.1578424053
 10
5.2661258205
 20
21.1679675779
 10
5.2417598645
 20
21.1751469971
 10
5.2165300078
 20
21.1794455902
 10
5.1904362505
 20
21.1808633603
  0
LWPOLYLINE
  5
5A9
100
AcDbEntity
  8
0
100
AcDbPolyline
 62
7
  6
CONTINUOUS
 90
10
 70
0
 10
9.266050589
 20
20.1341901442
 10
9.2399719342
 20
20.1334496727
 10
9.2144983456
 20
20.1305989808
 10
9.1896298234
 20
20.1256380673
 10
9.1652110228
 20
20.1185760432
 10
9.1413972885
 20
20.109403792
 10
9.1186546541
 20
20.0980939692
 10
9.0971384643
 20
20.0846374562
 10
9.0766933745
 20
20.0690433601
 10
9.0573193847
 20
20.0513116737
  0
LWPOLYLINE
  5
5AA
100
AcDbEntity
  8
0
100
AcDbPolyline
 62
7
  6
CONTINUOUS
 90
10
 70
0
 10
8.7114803164
 20
20.7010388991
 10
8.7401969856
 20
20.7016358352
 10
8.768379835
 20
20.7044178098
 10
8.7960288645
 20
20.7093848213
 10
8.8233642448
 20
20.7164659621
 10
8.8501658053
 20
20.725732134
 10
8.875773034
 20
20.7373960481
 10
8.8999657602
 20
20.7515286034
 10
8.9229641545
 20
20.7680588868
 10
8.9447682171
 20
20.7869868895
  0
LWPOLYLINE
  5
5AB
100
AcDbEntity
  8
0
100
AcDbPolyline
 62
7
  6
CONTINUOUS
 90
5
 70
0
 10
9.0358323424
 20
21.3149543425
 10
9.0333811474
 20
21.3149098129
 10
9.0309517581
 20
21.3148516991
 10
9.0285441746
 20
21.3147800012
 10
9.0261555877
 20
21.3146890464
  0
LWPOLYLINE
  5
5AC
100
AcDbEntity
  8
0
100
AcDbPolyline
 62
7
  6
CONTINUOUS
 90
28
 70
0
 10
5.1904362505
 20
21.1808633603
 10
5.1640795689
 20
21.1804087963
 10
5.1382688929
 20
21.1769163062
 10
5.1130042225
 20
21.1703858875
 10
5.0879137324
 20
21.1607734138
 10
5.0633692479
 20
21.1481230002
 10
5.0404862446
 20
21.1325670039
 10
5.0192134344
 20
21.1139578977
 10
4.9996021054
 20
21.0924431856
 10
4.9829215969
 20
21.0685977719
 10
4.9694189398
 20
21.0421273466
 10
4.9588471033
 20
21.0133261918
 10
4.9517343349
 20
20.9836521107
 10
4.9483027077
 20
20.9529438546
 10
4.9483301486
 20
20.9213626596
 10
4.9516786861
 20
20.890850079
 10
4.9585403513
 20
20.8616321665
 10
4.9687231131
 20
20.8334828842
 10
4.9815129061
 20
20.8076656686
 10
4.9970425211
 20
20.7844882179
 10
5.0151791674
 20
20.7636428609
 10
5.0348104079
 20
20.7454699881
 10
5.0557531025
 20
20.730024974
 10
5.0781903912
 20
20.7172524644
 10
5.1015592571
 20
20.7073267561
 10
5.1256720276
 20
20.7003059517
 10
5.1507163752
 20
20.6961319594
 10
5.1766922999
 20
20.694804782
  0
LWPOLYLINE
  5
5AD
100
AcDbEntity
  8
0
100
AcDbPolyline
 62
7
  6
CONTINUOUS
 90
16
 70
0
 10
8.6961324482
 20
21.2934673449
 10
8.6785084308
 20
21.29326587
 10
8.6609301169
 20
21.2924107998
 10
8.6433975066
 20
21.2909021341
 10
8.6258851877
 20
21.2887871053
 10
8.6084185724
 20
21.2860184804
 10
8.5910738966
 20
21.2824545609
 10
8.5738526725
 20
21.2781080496
 10
8.5567533879
 20
21.2729662423
 10
8.5398477418
 20
21.2668493294
 10
8.523084284
 20
21.2597352939
 10
8.5065144647
 20
21.2516461498
 10
8.4903643342
 20
21.2424681331
 10
8.4747092425
 20
21.2321633207
 10
8.4594738395
 20
21.2207696307
 10
8.4446581252
 20
21.2082870603
  0
LINE
  5
5AE
100
AcDbEntity
  8
0
100
AcDbLine
 62
7
  6
CONTINUOUS
 10
-2.9200418708
 20
20.1126928374
 11
-1.0699578708
 21
20.1126928374
  0
LINE
  5
5AF
100
AcDbEntity
  8
0
100
AcDbLine
 62
7
  6
CONTINUOUS
 10
-2.5777778708
 20
20.4776058374
 11
-2.1275708708
 21
20.4776098374
  0
LINE
  5
5B0
100
AcDbEntity
  8
0
100
AcDbLine
 62
7
  6
CONTINUOUS
 10
2.253955709
 20
20.5258588654
 11
3.1547914864
 21
20.5258588654
  0
LINE
  5
5B1
100
AcDbEntity
  8
0
100
AcDbLine
 62
7
  6
CONTINUOUS
 10
2.253955709
 20
20.6184588431
 11
3.1547914864
 21
20.6184588431
  0
LINE
  5
5B2
100
AcDbEntity
  8
RACCORDO
100
AcDbLine
 62
7
  6
CONTINUOUS
 10
-6.4152884943
 20
20.6500838374
 11
-6.7035072544
 21
20.6500838374
  0
LINE
  5
5B3
100
AcDbEntity
  8
RACCORDO
100
AcDbLine
 62
7
  6
CONTINUOUS
 10
7.2252887527
 20
20.6500838374
 11
7.5135075128
 21
20.6500838374
  0
LINE
  5
5B4
100
AcDbEntity
  8
RACCORDO
100
AcDbLine
 62
250
  6
CONTINUOUS
 10
7.062228916
 20
20.8500838374
 11
7.0250665853
 21
20.8500838374
  0
LINE
  5
5B5
100
AcDbEntity
  8
RACCORDO
100
AcDbLine
 62
250
  6
CONTINUOUS
 10
-6.2522286575
 20
20.8500838374
 11
-6.2150663269
 21
20.8500838374
  0
LINE
  5
5B6
100
AcDbEntity
  8
RACCORDO
100
AcDbLine
 62
250
  6
CONTINUOUS
 10
-6.8296060718
 20
20.8500838374
 11
-6.903936394
 21
20.8500838374
  0
LINE
  5
5B7
100
AcDbEntity
  8
RACCORDO
100
AcDbLine
 62
250
  6
CONTINUOUS
 10
7.6396063303
 20
20.8500838374
 11
7.7139366525
 21
20.8500838374
  0
LINE
  5
5B8
100
AcDbEntity
  8
0
100
AcDbLine
 62
7
  6
CONTINUOUS
 10
2.2539600486
 20
20.8835185982
 11
3.7567130395
 21
20.8835185982
  0
LINE
  5
5B9
100
AcDbEntity
  8
0
100
AcDbLine
 62
7
  6
CONTINUOUS
 10
2.3339474323
 20
20.9761767265
 11
3.0074479731
 21
20.9761767265
  0
LINE
  5
5BA
100
AcDbEntity
  8
0
100
AcDbLine
 62
7
  6
CONTINUOUS
 10
3.0874353569
 20
20.9761767265
 11
3.7567130395
 21
20.9761767265
  0
LINE
  5
5BB
100
AcDbEntity
  8
RACCORDO
100
AcDbLine
 62
250
  6
CONTINUOUS
 10
-6.2548467179
 20
21.1500838374
 11
-6.8243695523
 21
21.1500838374
  0
LINE
  5
5BC
100
AcDbEntity
  8
RACCORDO
100
AcDbLine
 62
250
  6
CONTINUOUS
 10
7.0648469763
 20
21.1500838374
 11
7.6343698108
 21
21.1500838374
  0
LINE
  5
5BD
100
AcDbEntity
  8
0
100
AcDbLine
 62
7
  6
CONTINUOUS
 10
-1.7853068708
 20
20.4827528374
 11
-1.0699578708
 21
20.4827118374
  0
LWPOLYLINE
  5
5BE
100
AcDbEntity
  8
0
100
AcDbPolyline
 62
7
  6
CONTINUOUS
 90
39
 70
0
 10
3.1547914864
 20
20.6184588431
 10
3.2023277163
 20
20.6181843348
 10
3.2497566957
 20
20.615523416
 10
3.2970784248
 20
20.6104760851
 10
3.3447248837
 20
20.6032943866
 10
3.3922640923
 20
20.5937262699
 10
3.4384001096
 20
20.5810155871
 10
3.4830919621
 20
20.5651031921
 10
3.5263806233
 20
20.5460482109
 10
3.5670930742
 20
20.5232718972
 10
3.6050715096
 20
20.4968062566
 10
3.6404737347
 20
20.4666192431
 10
3.6726001449
 20
20.4320360213
 10
3.7015010057
 20
20.392762899
 10
3.7271260516
 20
20.3490934955
 10
3.7486248823
 20
20.3012339347
 10
3.7657415518
 20
20.2484340783
 10
3.778732006
 20
20.1914439676
 10
3.7875136825
 20
20.1327200229
 10
3.792114772
 20
20.0718838228
 10
3.7925070838
 20
20.0093137421
 10
3.7885234827
 20
19.948601473
 10
3.7800645273
 20
19.89015215
 10
3.767229659
 20
19.8335606914
 10
3.7501500668
 20
19.7812035404
 10
3.728552058
 20
19.7338351479
 10
3.7027093251
 20
19.6907011595
 10
3.6735741355
 20
19.6519148336
 10
3.6412190588
 20
19.6177308486
 10
3.6055715253
 20
19.5878945952
 10
3.5673660927
 20
19.5617553904
 10
3.5264431278
 20
19.5392709902
 10
3.4829622638
 20
19.5204836766
 10
3.4381369579
 20
19.5048695457
 10
3.3919490023
 20
19.4925307967
 10
3.3444166048
 20
19.4833652493
 10
3.2968078464
 20
19.4765424238
 10
3.2495454207
 20
19.4717854948
 10
3.202206634
 20
19.4693712931
  0
LWPOLYLINE
  5
5BF
100
AcDbEntity
  8
0
100
AcDbPolyline
 62
7
  6
CONTINUOUS
 90
10
 70
0
 10
8.705341187
 20
20.5117482563
 10
8.658969458
 20
20.5127855527
 10
8.6137284614
 20
20.5172586115
 10
8.5696181973
 20
20.5251674293
 10
8.5262845378
 20
20.5364648978
 10
8.4840816106
 20
20.5511981107
 10
8.4440717993
 20
20.569508363
 10
8.4066092317
 20
20.5914427422
 10
8.3713397798
 20
20.6169541285
 10
8.3382634438
 20
20.6460425015
  0
LWPOLYLINE
  5
5C0
100
AcDbEntity
  8
0
100
AcDbPolyline
 62
7
  6
CONTINUOUS
 90
10
 70
0
 10
9.2619578509
 20
20.3296198269
 10
9.3041067693
 20
20.3280897923
 10
9.3451824959
 20
20.3228652309
 10
9.3851850308
 20
20.3139461385
 10
9.4243884416
 20
20.30121089
 10
9.4625186606
 20
20.2847810928
 10
9.4987534852
 20
20.2650215878
 10
9.5328188479
 20
20.2420539789
 10
9.5649888161
 20
20.2157566316
 10
9.59526339
 20
20.1861295266
  0
LWPOLYLINE
  5
5C1
100
AcDbEntity
  8
0
100
AcDbPolyline
 62
7
  6
CONTINUOUS
 90
7
 70
0
 10
8.5886972814
 20
20.2559502741
 10
8.6204026809
 20
20.2546051669
 10
8.6512267402
 20
20.2503192474
 10
8.6811694594
 20
20.2430925126
 10
8.7102308384
 20
20.232924958
 10
8.7384108772
 20
20.219816577
 10
8.7657095759
 20
20.2037673613
  0
LWPOLYLINE
  5
5C2
100
AcDbEntity
  8
RACCORDO
100
AcDbPolyline
 62
7
  6
CONTINUOUS
 90
6
 70
0
 10
-6.6296365328
 20
20.6500838374
 10
-6.6557377953
 20
20.6517948652
 10
-6.681392458
 20
20.6568986722
 10
-6.7061615624
 20
20.665307931
 10
-6.7296213024
 20
20.6768787567
 10
-6.7407304833
 20
20.6837877947
  0
LWPOLYLINE
  5
5C3
100
AcDbEntity
  8
RACCORDO
100
AcDbPolyline
 62
7
  6
CONTINUOUS
 90
6
 70
0
 10
7.2622213006
 20
20.6500838374
 10
7.2361170561
 20
20.6517948652
 10
7.2104594625
 20
20.6568986722
 10
7.1856875283
 20
20.665307931
 10
7.1622251082
 20
20.6768787567
 10
7.1501224371
 20
20.6844550725
  0
LWPOLYLINE
  5
5C4
100
AcDbEntity
  8
RACCORDO
100
AcDbPolyline
 62
7
  6
CONTINUOUS
 90
4
 70
0
 10
7.2252887527
 20
20.6500838374
 10
7.1989856445
 20
20.6518208421
 10
7.1731745763
 20
20.6569912119
 10
7.148299326
 20
20.6654899465
  0
LINE
  5
5C5
100
AcDbEntity
  8
RACCORDO
100
AcDbLine
 62
7
  6
CONTINUOUS
 10
-6.730463544
 20
20.6519157506
 11
-6.704410795
 21
20.6500838374
  0
LINE
  5
5C6
100
AcDbEntity
  8
0
100
AcDbLine
 62
7
  6
CONTINUOUS
 10
8.9949046491
 20
19.7105885168
 11
8.8332402675
 21
19.7310523411
  0
LINE
  5
5C7
100
AcDbEntity
  8
0
100
AcDbLine
 62
7
  6
CONTINUOUS
 10
5.6136197792
 20
19.6270708819
 11
5.4529800382
 21
19.647476849
  0
LWPOLYLINE
  5
5C8
100
AcDbEntity
  8
0
100
AcDbPolyline
 62
7
  6
CONTINUOUS
 90
10
 70
0
 10
8.587674108
 20
19.3657726666
 10
8.5494381394
 20
19.3737084281
 10
8.5126315733
 20
19.383947265
 10
8.4772544098
 20
19.3964891723
 10
8.4430780813
 20
19.4113657427
 10
8.4103311553
 20
19.4285453703
 10
8.379699335
 20
19.4479332515
 10
8.3514111879
 20
19.4694977791
 10
8.3252381465
 20
19.4932705414
 10
8.3011802106
 20
19.5192515274
  0
LWPOLYLINE
  5
5C9
100
AcDbEntity
  8
0
100
AcDbPolyline
 62
7
  6
CONTINUOUS
 90
33
 70
0
 10
5.2109770569
 20
19.2837554398
 10
5.1713208803
 20
19.2922615201
 10
5.132731989
 20
19.3036044317
 10
5.0952103833
 20
19.3177841679
 10
5.0583402922
 20
19.3347843008
 10
5.0225374866
 20
19.3546212399
 10
4.989049279
 20
19.3773442323
 10
4.9579783309
 20
19.4030448793
 10
4.929221981
 20
19.4316315501
 10
4.903719558
 20
19.4628786422
 10
4.881676573
 20
19.4969335794
 10
4.862887515
 20
19.5336489005
 10
4.8476751797
 20
19.5723566799
 10
4.8361241713
 20
19.6131929808
 10
4.8281498856
 20
19.6560217052
 10
4.8238213057
 20
19.6997666986
 10
4.8229284259
 20
19.7444586336
 10
4.825681252
 20
19.7900668195
 10
4.8327787837
 20
19.8354230769
 10
4.8443571097
 20
19.8808512192
 10
4.8602801413
 20
19.9260274351
 10
4.8808386127
 20
19.9688121399
 10
4.9066333591
 20
20.0092782963
 10
4.9370635453
 20
20.0473529835
 10
4.9706174002
 20
20.0806778302
 10
5.0075162479
 20
20.1086828197
 10
5.0475387643
 20
20.1319380341
 10
5.0885092052
 20
20.1497952658
 10
5.1301596769
 20
20.161960005
 10
5.1727580731
 20
20.1687267973
 10
5.2149323309
 20
20.1703310115
 10
5.2568115246
 20
20.1668483273
 10
5.2982665798
 20
20.1582030628
  0
LWPOLYLINE
  5
5CA
100
AcDbEntity
  8
0
100
AcDbPolyline
 62
7
  6
CONTINUOUS
 90
8
 70
0
 10
5.2982665798
 20
20.1582030628
 10
5.3375382101
 20
20.1444035349
 10
5.3744788337
 20
20.1250364274
 10
5.4092360325
 20
20.1005150184
 10
5.4404932648
 20
20.0720875146
 10
5.4678116835
 20
20.040169971
 10
5.4916301357
 20
20.0043462835
 10
5.5119486215
 20
19.9646164221
  0
LWPOLYLINE
  5
5CB
100
AcDbEntity
  8
0
100
AcDbPolyline
 62
7
  6
CONTINUOUS
 90
7
 70
0
 10
9.3825307363
 20
17.9389908458
 10
9.4360398843
 20
17.9171492218
 10
9.4854141348
 20
17.8916596572
 10
9.5306534878
 20
17.8625221344
 10
9.5717579433
 20
17.8297366331
 10
9.6087275013
 20
17.7933031309
 10
9.6415621618
 20
17.7532216028
  0
LWPOLYLINE
  5
5CC
100
AcDbEntity
  8
0
100
AcDbPolyline
 62
7
  6
CONTINUOUS
 90
16
 70
0
 10
9.436691307
 20
17.7221609591
 10
9.4257142958
 20
17.728720349
 10
9.4145916082
 20
17.7349465743
 10
9.4033232444
 20
17.7408396354
 10
9.3918911129
 20
17.746375185
 10
9.3803133051
 20
17.7515775712
 10
9.3686440949
 20
17.7565198372
 10
9.3568877235
 20
17.7612110545
 10
9.3450399498
 20
17.7656421521
 10
9.3331423246
 20
17.7698589598
 10
9.3212034446
 20
17.7738645921
 10
9.3092147132
 20
17.7776559348
 10
9.2971918904
 20
17.7812694748
 10
9.2851402296
 20
17.7847173746
 10
9.2730544776
 20
17.7879874719
 10
9.2609346342
 20
17.7910797669
  0
LWPOLYLINE
  5
5CD
100
AcDbEntity
  8
0
100
AcDbPolyline
 62
7
  6
CONTINUOUS
 90
3
 70
0
 10
8.9989973872
 20
17.8176828047
 10
9.0273965744
 20
17.7981617368
 10
9.0539858832
 20
17.7763536086
  0
LWPOLYLINE
  5
5CE
100
AcDbEntity
  8
RACCORDO
100
AcDbPolyline
 62
250
  6
CONTINUOUS
 90
9
 70
0
 10
7.1501224371
 20
20.6844550725
 10
7.1404736507
 20
20.6914131695
 10
7.1208053292
 20
20.7086624813
 10
7.1035566742
 20
20.7283315517
 10
7.0890228149
 20
20.7500838375
 10
7.0774524298
 20
20.773547151
 10
7.0690434912
 20
20.7983200285
 10
7.0639398786
 20
20.823978599
 10
7.062228916
 20
20.8500838374
  0
LWPOLYLINE
  5
5CF
100
AcDbEntity
  8
0
100
AcDbPolyline
 62
7
  6
CONTINUOUS
 90
7
 70
0
 10
8.7657096578
 20
19.0383512458
 10
8.7915813801
 20
19.0193782187
 10
8.8155627959
 20
18.9976942759
 10
8.8376539052
 20
18.9732994053
 10
8.8578547079
 20
18.9461935937
 10
8.876165204
 20
18.9163768262
 10
8.8925853937
 20
18.8838490864
  0
LWPOLYLINE
  5
5D0
100
AcDbEntity
  8
RACCORDO
100
AcDbPolyline
 62
7
  6
CONTINUOUS
 90
8
 70
0
 10
7.1030326018
 20
20.6917675335
 10
7.0833905942
 20
20.7090781106
 10
7.0661859295
 20
20.7287862383
 10
7.0517099115
 20
20.7505437874
 10
7.0402045293
 20
20.7739662069
 10
7.0318537459
 20
20.7986463741
 10
7.0267838535
 20
20.8241636717
 10
7.0250665853
 20
20.8500838374
  0
LWPOLYLINE
  5
5D1
100
AcDbEntity
  8
0
100
AcDbPolyline
 62
7
  6
CONTINUOUS
 90
10
 70
0
 10
9.4893595945
 20
18.8789895516
 10
9.4687448341
 20
18.8978474414
 10
9.4469500468
 20
18.9145096829
 10
9.4239752326
 20
18.9289762835
 10
9.3996461394
 20
18.9412803407
 10
9.3741370192
 20
18.9513887689
 10
9.3479706285
 20
18.9592022992
 10
9.3213212192
 20
18.9646878442
 10
9.2940145394
 20
18.9678784977
 10
9.266050589
 20
18.9687742611
  0
LWPOLYLINE
  5
5D2
100
AcDbEntity
  8
0
100
AcDbPolyline
 62
7
  6
CONTINUOUS
 90
19
 70
0
 10
8.4175693
 20
19.6417924069
 10
8.4265371854
 20
19.632874317
 10
8.43587771
 20
19.6244536208
 10
8.445590874
 20
19.6165303191
 10
8.4557182028
 20
19.6091109706
 10
8.4662181708
 20
19.6021890183
 10
8.4769662017
 20
19.5957447888
 10
8.4879564316
 20
19.5897889091
 10
8.4991947244
 20
19.5843107534
 10
8.5105740951
 20
19.5792587691
 10
8.5220458637
 20
19.5746455999
 10
8.5336587103
 20
19.5704586029
 10
8.5454516901
 20
19.5666082954
 10
8.5574250171
 20
19.5630815365
 10
8.5695784772
 20
19.5598914675
 10
8.5819504834
 20
19.5569880294
 10
8.5945538399
 20
19.5543545359
 10
8.6073757425
 20
19.5520076736
 10
8.6204161911
 20
19.5499474426
  0
LWPOLYLINE
  5
5D3
100
AcDbEntity
  8
0
100
AcDbPolyline
 62
7
  6
CONTINUOUS
 90
10
 70
0
 10
8.3382634438
 20
20.6460425015
 10
8.3089895441
 20
20.6768464278
 10
8.2831123034
 20
20.7095570939
 10
8.2606317216
 20
20.7441744857
 10
8.2414817677
 20
20.7810126459
 10
8.2257284728
 20
20.8197574991
 10
8.2135699303
 20
20.8594668606
 10
8.2050721713
 20
20.8998266665
 10
8.2001691647
 20
20.9411509646
 10
8.1988609104
 20
20.9834397455
  0
LWPOLYLINE
  5
5D4
100
AcDbEntity
  8
0
100
AcDbPolyline
 62
7
  6
CONTINUOUS
 90
10
 70
0
 10
9.59526339
 20
19.0207132859
 10
9.6244882028
 20
18.987182013
 10
9.6501882569
 20
18.9517245263
 10
9.6723635521
 20
18.9143408123
 10
9.6910063944
 20
18.8746916044
 10
9.7061244778
 20
18.8331161378
 10
9.7177408849
 20
18.7906321585
 10
9.7258633098
 20
18.7475789141
 10
9.7304840583
 20
18.703617144
 10
9.7316031304
 20
18.6587468406
  0
LWPOLYLINE
  5
5D5
100
AcDbEntity
  8
0
100
AcDbPolyline
 62
7
  6
CONTINUOUS
 90
10
 70
0
 10
9.59526339
 20
20.1861295266
 10
9.6244881203
 20
20.1525983645
 10
9.6501881145
 20
20.1171409884
 10
9.6723633725
 20
20.0797573836
 10
9.6910062028
 20
20.0401083228
 10
9.706124297
 20
19.9985329997
 10
9.7177407294
 20
19.9560490391
 10
9.7258631915
 20
19.9129956479
 10
9.7304839918
 20
19.8690336051
 10
9.7316031304
 20
19.8241629025
  0
LWPOLYLINE
  5
5D6
100
AcDbEntity
  8
0
100
AcDbPolyline
 62
7
  6
CONTINUOUS
 90
4
 70
0
 10
9.0787649609
 20
21.2485070675
 10
9.1017345351
 20
21.2221247504
 10
9.1228943009
 20
21.1934552695
 10
9.1422442582
 20
21.1624986099
  0
LWPOLYLINE
  5
5D7
100
AcDbEntity
  8
0
100
AcDbPolyline
 62
7
  6
CONTINUOUS
 90
7
 70
0
 10
9.5406389833
 20
21.1136138325
 10
9.5268001507
 20
21.1344149389
 10
9.5115670006
 20
21.1538819529
 10
9.494939533
 20
21.1720148803
 10
9.4769177479
 20
21.1888137266
 10
9.4575016453
 20
21.2042784971
 10
9.4366912252
 20
21.2184091964
  0
LWPOLYLINE
  5
5D8
100
AcDbEntity
  8
0
100
AcDbPolyline
 62
7
  6
CONTINUOUS
 90
7
 70
0
 10
9.6415622892
 20
21.2494698808
 10
9.6690439836
 20
21.2064287626
 10
9.6914675101
 20
21.1613680996
 10
9.7088328688
 20
21.1142878711
 10
9.7211400596
 20
21.0651880557
 10
9.7283890825
 20
21.0140686313
 10
9.7305799375
 20
20.9609295746
  0
LINE
  5
5D9
100
AcDbEntity
  8
RACCORDO
100
AcDbLine
 62
7
  6
CONTINUOUS
 10
7.4608749321
 20
-18.8473697219
 11
7.4475074173
 21
-18.8594026739
  0
LINE
  5
5DA
100
AcDbEntity
  8
RACCORDO
100
AcDbLine
 62
7
  6
CONTINUOUS
 10
7.5144913813
 20
-18.7998538212
 11
7.4608749321
 21
-18.8473697219
  0
LWPOLYLINE
  5
5DB
100
AcDbEntity
  8
RACCORDO
100
AcDbPolyline
 62
7
  6
CONTINUOUS
 90
3
 70
0
 10
7.5998946118
 20
-18.7249917409
 10
7.5660167399
 20
-18.7545004552
 10
7.5144913813
 20
-18.7998538212
  0
LINE
  5
5DC
100
AcDbEntity
  8
RACCORDO
100
AcDbLine
 62
7
  6
CONTINUOUS
 10
7.6255808273
 20
-18.7030563809
 11
7.5998946118
 21
-18.7249917409
  0
LINE
  5
5DD
100
AcDbEntity
  8
RACCORDO
100
AcDbLine
 62
7
  6
CONTINUOUS
 10
7.6319248532
 20
-18.6977674592
 11
7.6255808273
 21
-18.7030563809
  0
LWPOLYLINE
  5
5DE
100
AcDbEntity
  8
RACCORDO
100
AcDbPolyline
 62
7
  6
CONTINUOUS
 90
6
 70
0
 10
7.1531957185
 20
-16.3822482849
 10
7.1622251083
 20
-16.3767110818
 10
7.1856875284
 20
-16.3651402561
 10
7.2104594626
 20
-16.3567309973
 10
7.2361170562
 20
-16.3516271903
 10
7.2622213006
 20
-16.3499161626
  0
LWPOLYLINE
  5
5DF
100
AcDbEntity
  8
RACCORDO
100
AcDbPolyline
 62
7
  6
CONTINUOUS
 90
3
 70
0
 10
7.148299326
 20
-16.3653222716
 10
7.1731745763
 20
-16.356823537
 10
7.1989856445
 20
-16.3516531672
  0
LWPOLYLINE
  5
5E0
100
AcDbEntity
  8
RACCORDO
100
AcDbPolyline
 62
250
  6
CONTINUOUS
 90
13
 70
0
 10
-6.6244000133
 20
22.4086624812
 10
-6.6503234171
 20
22.4072430395
 10
-6.6758216275
 20
22.4034587503
 10
-6.7004630083
 20
22.3973701331
 10
-6.7238342718
 20
22.3890748211
 10
-6.7455321005
 20
22.3787112312
 10
-6.7651740218
 20
22.36646066
 10
-6.7824401071
 20
22.3525207073
 10
-6.7970234785
 20
22.337136928
 10
-6.8086492879
 20
22.3206195963
 10
-6.8171422476
 20
22.3032734922
 10
-6.8224015858
 20
22.285380179
 10
-6.8243695523
 20
22.267241125
  0
LWPOLYLINE
  5
5E1
100
AcDbEntity
  8
RACCORDO
100
AcDbPolyline
 62
250
  6
CONTINUOUS
 90
13
 70
0
 10
7.264839361
 20
22.4086624812
 10
7.2388113823
 20
22.407346166
 10
7.2132133445
 20
22.4036442831
 10
7.1884820965
 20
22.3976162963
 10
7.165035705
 20
22.389359404
 10
7.1432823304
 20
22.3790123789
 10
7.1236090106
 20
22.3667578588
 10
7.1063383809
 20
22.3527947559
 10
7.0917804359
 20
22.337371352
 10
7.0802125492
 20
22.3208029826
 10
7.0718093358
 20
22.3033987872
 10
7.0666691792
 20
22.2854431952
 10
7.0648469763
 20
22.267241125
  0
LINE
  5
5E2
100
AcDbEntity
  8
RACCORDO
100
AcDbLine
 62
250
  6
CONTINUOUS
 10
0.3400791128
 20
21.5507844183
 11
0.4699211457
 21
21.5507844183
  0
LINE
  5
5E3
100
AcDbEntity
  8
RACCORDO
100
AcDbLine
 62
250
  6
CONTINUOUS
 10
0.1420271846
 20
22.0337473314
 11
0.6679730739
 21
22.0337473314
  0
LINE
  5
5E4
100
AcDbEntity
  8
RACCORDO
100
AcDbLine
 62
250
  6
CONTINUOUS
 10
7.6343698108
 20
22.267241125
 11
7.0648469763
 21
22.267241125
  0
LINE
  5
5E5
100
AcDbEntity
  8
RACCORDO
100
AcDbLine
 62
250
  6
CONTINUOUS
 10
-6.2548467179
 20
22.267241125
 11
-6.8243695523
 21
22.267241125
  0
LINE
  5
5E6
100
AcDbEntity
  8
RACCORDO
100
AcDbLine
 62
250
  6
CONTINUOUS
 10
7.4344002717
 20
22.4086624812
 11
7.264839361
 21
22.4086624812
  0
LINE
  5
5E7
100
AcDbEntity
  8
RACCORDO
100
AcDbLine
 62
250
  6
CONTINUOUS
 10
-6.4548391025
 20
22.4086624812
 11
-6.6244000133
 21
22.4086624812
  0
LINE
  5
5E8
100
AcDbEntity
  8
DRAFT
100
AcDbLine
 62
7
  6
CONTINUOUS
 10
-6.1118764416
 20
22.5839252288
 11
0.0077837761
 21
22.5839252288
  0
LINE
  5
5E9
100
AcDbEntity
  8
DRAFT
100
AcDbLine
 62
7
  6
CONTINUOUS
 10
0.8022164824
 20
22.5839252288
 11
6.9218767
 21
22.5839252288
  0
LINE
  5
5EA
100
AcDbEntity
  8
DRAFT
100
AcDbLine
 62
7
  6
CONTINUOUS
 10
-9.1788660082
 20
22.6529277265
 11
-7.1103128494
 21
22.6529277265
  0
LINE
  5
5EB
100
AcDbEntity
  8
DRAFT
100
AcDbLine
 62
7
  6
CONTINUOUS
 10
7.9203131079
 20
22.6529277265
 11
9.9888662667
 21
22.6529277265
  0
LINE
  5
5EC
100
AcDbEntity
  8
RACCORDO
100
AcDbLine
 62
7
  6
CONTINUOUS
 10
7.0632894856
 20
22.7232697004
 11
-6.2532892271
 21
22.7232697004
  0
LINE
  5
5ED
100
AcDbEntity
  8
RACCORDO
100
AcDbLine
 62
250
  6
CONTINUOUS
 10
7.2606040891
 20
22.8939765708
 11
-6.4506038306
 21
22.8939765708
  0
LINE
  5
5EE
100
AcDbEntity
  8
DRAFT
100
AcDbLine
 62
7
  6
CONTINUOUS
 10
10.0550001292
 20
23.0500838374
 11
7.7880353087
 21
23.0500838374
  0
LINE
  5
5EF
100
AcDbEntity
  8
DRAFT
100
AcDbLine
 62
7
  6
CONTINUOUS
 10
-6.9780350503
 20
23.0500838374
 11
-9.2449998708
 21
23.0500838374
  0
LWPOLYLINE
  5
5F0
100
AcDbEntity
  8
0
100
AcDbPolyline
 62
7
  6
CONTINUOUS
 90
19
 70
0
 10
8.9243043928
 20
21.4981055876
 10
8.9499980272
 20
21.4980032382
 10
8.9756823926
 20
21.4975987524
 10
9.0013574888
 20
21.4968921303
 10
9.0270207347
 20
21.4959043147
 10
9.0526747115
 20
21.4946143626
 10
9.0783271632
 20
21.4929594447
 10
9.1039860911
 20
21.4909474048
 10
9.1296434937
 20
21.4885703989
 10
9.1552831111
 20
21.4857420659
 10
9.1809211253
 20
21.4824716545
 10
9.2065413542
 20
21.4787499154
 10
9.2320789907
 20
21.4744627407
 10
9.2575461381
 20
21.4696238773
 10
9.282930693
 20
21.4642195771
 10
9.3081315392
 20
21.4580944886
 10
9.333114971
 20
21.451196827
 10
9.3579146939
 20
21.4435783749
 10
9.3825307081
 20
21.435239131
  0
LWPOLYLINE
  5
5F1
100
AcDbEntity
  8
0
100
AcDbPolyline
 62
7
  6
CONTINUOUS
 90
19
 70
0
 10
2.6748854103
 20
21.9611376898
 10
2.7221398278
 20
21.9590892206
 10
2.766536091
 20
21.9533993275
 10
2.8080742
 20
21.9440680056
 10
2.8467593355
 20
21.9309324958
 10
2.8825863167
 20
21.9141555373
 10
2.9155396016
 20
21.8942253702
 10
2.9457016548
 20
21.8710745908
 10
2.9729900116
 20
21.8447705702
 10
2.9971417371
 20
21.8160037129
 10
3.0179459146
 20
21.7846158649
 10
3.0356134607
 20
21.7507651444
 10
3.0505141895
 20
21.7156163765
 10
3.0625906194
 20
21.6791908528
 10
3.0719002321
 20
21.64146726
 10
3.0789852863
 20
21.6035465342
 10
3.0840265349
 20
21.5657956572
 10
3.0868432251
 20
21.5278476463
 10
3.0874353569
 20
21.4897024998
  0
LWPOLYLINE
  5
5F2
100
AcDbEntity
  8
0
100
AcDbPolyline
 62
7
  6
CONTINUOUS
 90
3
 70
0
 10
9.1120322911
 20
21.3118671615
 10
9.0740780481
 20
21.3141759529
 10
9.0358323424
 20
21.3149543425
  0
LWPOLYLINE
  5
5F3
100
AcDbEntity
  8
0
100
AcDbPolyline
 62
7
  6
CONTINUOUS
 90
5
 70
0
 10
9.2609346342
 20
21.2873279525
 10
9.2241462427
 20
21.2957583651
 10
9.1870663883
 20
21.3026583692
 10
9.1496950711
 20
21.3080279674
 10
9.1120322911
 20
21.3118671615
  0
LWPOLYLINE
  5
5F4
100
AcDbEntity
  8
RACCORDO
100
AcDbPolyline
 62
7
  6
CONTINUOUS
 90
3
 70
0
 10
7.148299326
 20
20.6654899465
 10
7.1247875014
 20
20.6771532708
 10
7.1030326018
 20
20.6917675335
  0
LWPOLYLINE
  5
5F5
100
AcDbEntity
  8
0
100
AcDbPolyline
 62
7
  6
CONTINUOUS
 90
16
 70
0
 10
9.4366912252
 20
21.2184091964
 10
9.4257146789
 20
21.2249683361
 10
9.4145923809
 20
21.2311943649
 10
9.403324331
 20
21.2370872831
 10
9.3918924348
 20
21.2426227526
 10
9.3803147868
 20
21.2478251125
 10
9.3686456706
 20
21.2527673793
 10
9.3568893251
 20
21.2574586208
 10
9.3450415115
 20
21.2618897697
 10
9.333143796
 20
21.2661066399
 10
9.3212047771
 20
21.270112343
 10
9.3092158564
 20
21.2739037679
 10
9.2971928047
 20
21.2775173932
 10
9.2851408789
 20
21.2809653788
 10
9.2730548221
 20
21.2842355652
 10
9.2609346342
 20
21.2873279525
  0
LWPOLYLINE
  5
5F6
100
AcDbEntity
  8
0
100
AcDbPolyline
 62
7
  6
CONTINUOUS
 90
3
 70
0
 10
8.9989973872
 20
21.3139311691
 10
9.0273963869
 20
21.2944102648
 10
9.0539855781
 20
21.2726022348
  0
LWPOLYLINE
  5
5F7
100
AcDbEntity
  8
0
100
AcDbPolyline
 62
7
  6
CONTINUOUS
 90
7
 70
0
 10
8.7657095759
 20
20.2037673613
 10
8.7915812231
 20
20.1847943594
 10
8.8155625993
 20
20.1631104413
 10
8.8376537045
 20
20.1387155941
 10
8.8578545386
 20
20.1116098036
 10
8.8761651016
 20
20.0817930537
 10
8.8925853937
 20
20.0492653271
  0
LWPOLYLINE
  5
5F8
100
AcDbEntity
  8
RACCORDO
100
AcDbPolyline
 62
7
  6
CONTINUOUS
 90
4
 70
0
 10
7.6409626518
 20
22.9906754654
 10
7.6440586066
 20
22.9882361472
 10
7.6460349484
 20
22.9869061469
 10
7.6469288281
 20
22.9867467449
  0
LWPOLYLINE
  5
5F9
100
AcDbEntity
  8
0
100
AcDbPolyline
 62
7
  6
CONTINUOUS
 90
18
 70
0
 10
8.9335270739
 20
21.220454653
 10
8.9218523396
 20
21.2296582497
 10
8.9097440143
 20
21.2381993083
 10
8.8971508726
 20
21.246077973
 10
8.8841241399
 20
21.2532941021
 10
8.8708174923
 20
21.2598472677
 10
8.8572375521
 20
21.2657161095
 10
8.8433776971
 20
21.2709219899
 10
8.8293717374
 20
21.2755285647
 10
8.8152741653
 20
21.2795234965
 10
8.8010304885
 20
21.2829191241
 10
8.7866110409
 20
21.2858161174
 10
8.7720137629
 20
21.2882280615
 10
8.7572407141
 20
21.2901413719
 10
8.742268407
 20
21.2916159638
 10
8.7270890124
 20
21.2926718091
 10
8.7117103594
 20
21.2932889361
 10
8.6961324482
 20
21.2934673449
  0
LWPOLYLINE
  5
5FA
100
AcDbEntity
  8
0
100
AcDbPolyline
 62
7
  6
CONTINUOUS
 90
10
 70
0
 10
8.4515660548
 20
20.7920773361
 10
8.4758674924
 20
20.7720800612
 10
8.5014987068
 20
20.7546005084
 10
8.528459698
 20
20.7396386877
 10
8.5569975267
 20
20.7272576302
 10
8.5868651322
 20
20.7173943203
 10
8.6173213322
 20
20.7098596957
 10
8.6481190658
 20
20.7045907377
 10
8.6795053939
 20
20.7016504716
 10
8.7114803164
 20
20.7010388991
  0
LWPOLYLINE
  5
5FB
100
AcDbEntity
  8
RACCORDO
100
AcDbPolyline
 62
7
  6
CONTINUOUS
 90
3
 70
0
 10
7.6246904556
 20
23.0039718207
 10
7.6312676498
 20
22.9984901908
 10
7.6409626518
 20
22.9906754654
  0
LINE
  5
5FC
100
AcDbEntity
  8
RACCORDO
100
AcDbLine
 62
7
  6
CONTINUOUS
 10
7.5983979381
 20
23.0264532368
 11
7.6246904556
 21
23.0039718207
  0
LINE
  5
5FD
100
AcDbEntity
  8
0
100
AcDbLine
 62
7
  6
CONTINUOUS
 10
8.9447682171
 20
21.2105885168
 11
8.9335270739
 21
21.220454653
  0
LWPOLYLINE
  5
5FE
100
AcDbEntity
  8
RACCORDO
100
AcDbPolyline
 62
7
  6
CONTINUOUS
 90
3
 70
0
 10
7.5132228655
 20
23.1011581798
 10
7.5522235479
 20
23.0667577118
 10
7.5983979381
 20
23.0264532368
  0
LWPOLYLINE
  5
5FF
100
AcDbEntity
  8
RACCORDO
100
AcDbPolyline
 62
7
  6
CONTINUOUS
 90
3
 70
0
 10
7.473451515
 20
23.1363527841
 10
7.4999474145
 20
23.1129805239
 10
7.5132228655
 20
23.1011581798
  0
LWPOLYLINE
  5
600
100
AcDbEntity
  8
RACCORDO
100
AcDbPolyline
 62
7
  6
CONTINUOUS
 90
3
 70
0
 10
7.4475074173
 20
23.1595703488
 10
7.4603775009
 20
23.147954434
 10
7.473451515
 20
23.1363527841
  0
LWPOLYLINE
  5
601
100
AcDbEntity
  8
0
100
AcDbPolyline
 62
7
  6
CONTINUOUS
 90
10
 70
0
 10
9.4893595945
 20
20.0444057923
 10
9.4687452797
 20
20.0632633698
 10
9.446950828
 20
20.0799253885
 10
9.4239762393
 20
20.0943918564
 10
9.3996472633
 20
20.1066959012
 10
9.3741381504
 20
20.1168044078
 10
9.3479716514
 20
20.1246180183
 10
9.3213220167
 20
20.1301036158
 10
9.2940149959
 20
20.1332943239
 10
9.266050589
 20
20.1341901442
  0
LINE
  5
602
100
AcDbEntity
  8
0
100
AcDbLine
 62
7
  6
CONTINUOUS
 10
9.0539855781
 20
21.2726022348
 11
9.0787649609
 21
21.2485070675
  0
LINE
  5
603
100
AcDbEntity
  8
DRAFT
100
AcDbLine
 62
7
  6
CONTINUOUS
 10
3.4050001292
 20
25.6500838374
 11
3.1862784704
 21
25.6064461751
  0
LWPOLYLINE
  5
604
100
AcDbEntity
  8
RACCORDO
100
AcDbPolyline
 62
7
  6
CONTINUOUS
 90
5
 70
0
 10
-6.8369285696
 20
22.9867467449
 10
-6.8360709763
 20
22.9868849234
 10
-6.8341818296
 20
22.9881474587
 10
-6.8312199144
 20
22.9904769753
 10
-6.8219245947
 20
22.9979351341
  0
LINE
  5
605
100
AcDbEntity
  8
DRAFT
100
AcDbLine
 62
7
  6
CONTINUOUS
 10
-6.4617668947
 20
23.3148690515
 11
-3.3449998708
 21
23.3148690515
  0
LINE
  5
606
100
AcDbEntity
  8
DRAFT
100
AcDbLine
 62
7
  6
CONTINUOUS
 10
4.1550001292
 20
23.3148690515
 11
7.2717671531
 21
23.3148690515
  0
LINE
  5
607
100
AcDbEntity
  8
DRAFT
100
AcDbLine
 62
7
  6
CONTINUOUS
 10
-6.5289196991
 20
23.3500838374
 11
7.3389199576
 21
23.3500838374
  0
LINE
  5
608
100
AcDbEntity
  8
DRAFT
100
AcDbLine
 62
7
  6
CONTINUOUS
 10
11.055380729
 20
24.5500838374
 11
5.9550001292
 21
24.5500838374
  0
LINE
  5
609
100
AcDbEntity
  8
0
100
AcDbLine
 62
7
  6
CONTINUOUS
 10
-2.6949998708
 20
24.5500838374
 11
3.5050001292
 21
24.5500838374
  0
LINE
  5
60A
100
AcDbEntity
  8
DRAFT
100
AcDbLine
 62
7
  6
CONTINUOUS
 10
-5.1449998708
 20
24.5500838374
 11
-10.2453804705
 21
24.5500838374
  0
LINE
  5
60B
100
AcDbEntity
  8
DRAFT
100
AcDbLine
 62
7
  6
CONTINUOUS
 10
-2.5949998708
 20
25.6500838374
 11
-2.376278212
 21
25.6064461751
  0
LWPOLYLINE
  5
60C
100
AcDbEntity
  8
0
100
AcDbPolyline
 62
7
  6
CONTINUOUS
 90
7
 70
0
 10
9.3825307081
 20
21.435239131
 10
9.436039396
 20
21.4133979011
 10
9.4854133808
 20
21.3879085783
 10
9.5306526625
 20
21.358771141
 10
9.5717572412
 20
21.3259855646
 10
9.6087271167
 20
21.2895518214
 10
9.6415622892
 20
21.2494698808
  0
LINE
  5
60D
100
AcDbEntity
  8
DRAFT
100
AcDbLine
 62
7
  6
CONTINUOUS
 10
4.3576846837
 20
25.5802635777
 11
-3.5476844252
 21
25.5802635777
  0
LINE
  5
60E
100
AcDbEntity
  8
DRAFT
100
AcDbLine
 62
7
  6
CONTINUOUS
 10
-2.376278212
 20
25.6064461751
 11
3.1862784704
 21
25.6064461751
  0
LINE
  5
60F
100
AcDbEntity
  8
DRAFT
100
AcDbLine
 62
7
  6
CONTINUOUS
 10
4.3783374769
 20
25.6500838374
 11
3.4050001292
 21
25.6500838374
  0
LINE
  5
610
100
AcDbEntity
  8
DRAFT
100
AcDbLine
 62
7
  6
CONTINUOUS
 10
-2.5949998708
 20
25.6500838374
 11
-3.5683372184
 21
25.6500838374
  0
ARC
  5
611
100
AcDbEntity
  8
DRAFT
100
AcDbCircle
 62
7
  6
CONTINUOUS
 10
11.6550001292
 20
2.1500838374
 40
28.0
100
AcDbArc
 50
122.9352304972
 51
124.1210936517
  0
ARC
  5
612
100
AcDbEntity
  8
DRAFT
100
AcDbCircle
 62
7
  6
CONTINUOUS
 10
11.6550001292
 20
2.1500838374
 40
28.0
100
AcDbArc
 50
235.8789063483
 51
237.0647695028
  0
ARC
  5
613
100
AcDbEntity
  8
DRAFT
100
AcDbCircle
 62
7
  6
CONTINUOUS
 10
-10.8449998708
 20
2.1500838374
 40
28.0
100
AcDbArc
 50
55.8789063483
 51
57.0647695028
  0
ARC
  5
614
100
AcDbEntity
  8
DRAFT
100
AcDbCircle
 62
7
  6
CONTINUOUS
 10
-10.8449998708
 20
2.1500838374
 40
28.0
100
AcDbArc
 50
302.9352304972
 51
304.1210936517
  0
ARC
  5
615
100
AcDbEntity
  8
DRAFT
100
AcDbCircle
 62
7
  6
CONTINUOUS
 10
11.6550001292
 20
2.1500838374
 40
28.0
100
AcDbArc
 50
125.9627651514
 51
131.7180504312
  0
ARC
  5
616
100
AcDbEntity
  8
DRAFT
100
AcDbCircle
 62
7
  6
CONTINUOUS
 10
-10.8449998708
 20
2.1500838374
 40
28.0
100
AcDbArc
 50
48.2819495688
 51
54.0372348486
  0
ARC
  5
617
100
AcDbEntity
  8
DRAFT
100
AcDbCircle
 62
7
  6
CONTINUOUS
 10
-10.8449998708
 20
2.1500838374
 40
28.0
100
AcDbArc
 50
305.9627651514
 51
311.7180504312
  0
ARC
  5
618
100
AcDbEntity
  8
DRAFT
100
AcDbCircle
 62
7
  6
CONTINUOUS
 10
11.6550001292
 20
2.1500838374
 40
28.0
100
AcDbArc
 50
228.2819495688
 51
234.0372348486
  0
ARC
  5
619
100
AcDbEntity
  8
DRAFT
100
AcDbCircle
 62
7
  6
CONTINUOUS
 10
-10.8449998708
 20
2.1500838374
 40
27.9301797403
100
AcDbArc
 50
305.881601122
 51
310.6207502002
  0
ARC
  5
61A
100
AcDbEntity
  8
DRAFT
100
AcDbCircle
 62
7
  6
CONTINUOUS
 10
-10.8449998708
 20
2.1500838374
 40
27.9301797403
100
AcDbArc
 50
302.9775446409
 51
304.2022576811
  0
ARC
  5
61B
100
AcDbEntity
  8
DRAFT
100
AcDbCircle
 62
7
  6
CONTINUOUS
 10
11.6550001292
 20
2.1500838374
 40
27.9301797403
100
AcDbArc
 50
235.7977423189
 51
237.0224553591
  0
ARC
  5
61C
100
AcDbEntity
  8
DRAFT
100
AcDbCircle
 62
7
  6
CONTINUOUS
 10
11.6550001292
 20
2.1500838374
 40
27.9301797403
100
AcDbArc
 50
229.3792497998
 51
234.118398878
  0
ARC
  5
61D
100
AcDbEntity
  8
DRAFT
100
AcDbCircle
 62
7
  6
CONTINUOUS
 10
11.6550001292
 20
2.1500838374
 40
27.9301797403
100
AcDbArc
 50
122.9775446409
 51
124.2022576811
  0
ARC
  5
61E
100
AcDbEntity
  8
DRAFT
100
AcDbCircle
 62
7
  6
CONTINUOUS
 10
11.6550001292
 20
2.1500838374
 40
27.9301797403
100
AcDbArc
 50
125.881601122
 51
130.6207502002
  0
ARC
  5
61F
100
AcDbEntity
  8
DRAFT
100
AcDbCircle
 62
7
  6
CONTINUOUS
 10
-10.8449998708
 20
2.1500838374
 40
27.9301797403
100
AcDbArc
 50
55.7977423189
 51
57.0224553591
  0
ARC
  5
620
100
AcDbEntity
  8
DRAFT
100
AcDbCircle
 62
7
  6
CONTINUOUS
 10
-10.8449998708
 20
2.1500838374
 40
27.9301797403
100
AcDbArc
 50
49.3792497998
 51
54.118398878
  0
ARC
  5
621
100
AcDbEntity
  8
Z030100_COP
100
AcDbCircle
 62
7
  6
CONTINUOUS
 10
0.4050001292
 20
3.9500838374
 40
6.0
100
AcDbArc
 50
66.4435356909
 51
113.5564643091
  0
ARC
  5
622
100
AcDbEntity
  8
0
100
AcDbCircle
 62
7
  6
CONTINUOUS
 10
-2.3526738708
 20
20.9791398374
 40
0.5673701434
100
AcDbArc
 50
22.8429066477
 51
180.0
  0
ARC
  5
623
100
AcDbEntity
  8
DRAFT
100
AcDbCircle
 62
7
  6
CONTINUOUS
 10
-4.5449998708
 20
25.2500838374
 40
0.5
100
AcDbArc
 50
240.887577224
 51
9.1962815791
  0
ARC
  5
624
100
AcDbEntity
  8
DRAFT
100
AcDbCircle
 62
7
  6
CONTINUOUS
 10
-4.5449998708
 20
-20.9499161626
 40
0.5
100
AcDbArc
 50
350.803718421
 51
119.112422776
  0
ARC
  5
625
100
AcDbEntity
  8
DRAFT
100
AcDbCircle
 62
7
  6
CONTINUOUS
 10
5.3550001292
 20
25.2500838374
 40
0.5
100
AcDbArc
 50
170.803718421
 51
299.112422776
  0
ARC
  5
626
100
AcDbEntity
  8
DRAFT
100
AcDbCircle
 62
7
  6
CONTINUOUS
 10
5.3550001292
 20
-20.9499161626
 40
0.5
100
AcDbArc
 50
60.887577224
 51
189.196281579
  0
ARC
  5
627
100
AcDbEntity
  8
Z030100_COP
100
AcDbCircle
 62
7
  6
CONTINUOUS
 10
9.0550001292
 20
12.1500838374
 40
0.3
100
AcDbArc
 50
0.0
 51
90.0
  0
ARC
  5
628
100
AcDbEntity
  8
Z030100_COP
100
AcDbCircle
 62
7
  6
CONTINUOUS
 10
-8.2449998708
 20
12.1500838374
 40
0.3
100
AcDbArc
 50
90.0
 51
180.0
  0
ARC
  5
629
100
AcDbEntity
  8
0
100
AcDbCircle
 62
7
  6
CONTINUOUS
 10
-2.3526738708
 20
20.9277828374
 40
0.225104
100
AcDbArc
 50
0.0
 51
180.0
  0
ELLIPSE
  5
62A
100
AcDbEntity
  8
0
100
AcDbEllipse
 62
7
  6
CONTINUOUS
 10
11.0549239652
 20
24.0493976644
 30
0.0
 11
0.1582391023
 21
0.4751033573
 31
0.0
 40
0.9984778551
 41
-1.2488325878
 42
0.3210503505
  0
ELLIPSE
  5
62B
100
AcDbEntity
  8
0
100
AcDbEllipse
 62
7
  6
CONTINUOUS
 10
11.0549239652
 20
-19.7492299896
 30
0.0
 11
-0.1582391023
 21
0.4751033573
 31
0.0
 40
0.9984778551
 41
2.8205423031
 42
4.3904252414
  0
ELLIPSE
  5
62C
100
AcDbEntity
  8
0
100
AcDbEllipse
 62
7
  6
CONTINUOUS
 10
-10.2449237067
 20
24.0493976644
 30
0.0
 11
-0.1582391023
 21
0.4751033573
 31
0.0
 40
0.9984778551
 41
-0.3210503505
 42
1.2488325878
  0
ELLIPSE
  5
62D
100
AcDbEntity
  8
0
100
AcDbEllipse
 62
7
  6
CONTINUOUS
 10
-10.2449237067
 20
-19.7492299896
 30
0.0
 11
0.1582391023
 21
0.4751033573
 31
0.0
 40
0.9984778551
 41
1.8927600658
 42
3.4626430041
  0
ELLIPSE
  5
62E
100
AcDbEntity
  8
RACCORDO
100
AcDbEllipse
 62
7
  6
CONTINUOUS
 10
-8.5253792813
 20
8.8373525153
 30
0.0
 11
0.3
 21
0.0
 31
0.0
 40
0.0087268678
 41
1.8766838692
 42
2.7925268032
  0
ELLIPSE
  5
62F
100
AcDbEntity
  8
RACCORDO
100
AcDbEllipse
 62
7
  6
CONTINUOUS
 10
9.3353795398
 20
8.8373525153
 30
0.0
 11
0.3
 21
0.0
 31
0.0
 40
0.0087268678
 41
0.3490658504
 42
1.3363191046
  0
ELLIPSE
  5
630
100
AcDbEntity
  8
RACCORDO
100
AcDbEllipse
 62
7
  6
CONTINUOUS
 10
7.3150943518
 20
-12.4600103851
 30
0.0
 11
0.3535803156
 21
-0.3535803156
 31
0.0
 40
0.9999238505
 41
-0.7853600872
 42
0.7853600872
  0
ELLIPSE
  5
631
100
AcDbEntity
  8
RACCORDO
100
AcDbEllipse
 62
7
  6
CONTINUOUS
 10
-6.5050940933
 20
-12.4600103851
 30
0.0
 11
0.3535803156
 21
0.3535803156
 31
0.0
 40
0.9999238505
 41
2.3562325664
 42
3.9269527408
  0
ELLIPSE
  5
632
100
AcDbEntity
  8
RACCORDO
100
AcDbEllipse
 62
7
  6
CONTINUOUS
 10
7.1189946468
 20
-12.9617747979
 30
0.0
 11
0.2
 21
-0.0
 31
0.0
 40
0.0087268678
 41
1.5707963268
 42
3.1241393611
  0
ELLIPSE
  5
633
100
AcDbEntity
  8
RACCORDO
100
AcDbEllipse
 62
7
  6
CONTINUOUS
 10
-6.3089943883
 20
-12.9617747979
 30
0.0
 11
0.2
 21
-0.0
 31
0.0
 40
0.0087268678
 41
0.0174532925
 42
1.5707963268
  0
ELLIPSE
  5
634
100
AcDbEntity
  8
RACCORDO
100
AcDbEllipse
 62
7
  6
CONTINUOUS
 10
-8.5253792813
 20
-10.7371848405
 30
0.0
 11
0.3
 21
0.0
 31
0.0
 40
0.0087268678
 41
-2.7925268032
 42
-1.5707963268
  0
ELLIPSE
  5
635
100
AcDbEntity
  8
RACCORDO
100
AcDbEllipse
 62
7
  6
CONTINUOUS
 10
9.3353795398
 20
-10.7371848405
 30
0.0
 11
0.3
 21
-0.0
 31
0.0
 40
0.0087268678
 41
-1.5707963268
 42
-0.3490658504
  0
ELLIPSE
  5
636
100
AcDbEntity
  8
DRAFT
100
AcDbEllipse
 62
7
  6
CONTINUOUS
 10
-13.5255285221
 20
2.1500838374
 30
0.0
 11
0.0
 21
498.5
 31
0.0
 40
0.0087268678
 41
-1.5555492626
 42
-1.5296556473
  0
ELLIPSE
  5
637
100
AcDbEntity
  8
RACCORDO
100
AcDbEllipse
 62
7
  6
CONTINUOUS
 10
-10.4585637016
 20
2.1500838374
 30
0.0
 11
0.0
 21
498.5
 31
0.0
 40
0.0087268678
 41
-1.5397304474
 42
-1.5297941844
  0
ELLIPSE
  5
638
100
AcDbEntity
  8
RACCORDO
100
AcDbEllipse
 62
7
  6
CONTINUOUS
 10
11.2685639601
 20
2.1500838374
 30
0.0
 11
0.0
 21
498.5
 31
0.0
 40
0.0087268678
 41
1.5297941844
 42
1.5397304474
  0
ELLIPSE
  5
639
100
AcDbEntity
  8
DRAFT
100
AcDbEllipse
 62
7
  6
CONTINUOUS
 10
14.3355287806
 20
2.1500838374
 30
0.0
 11
0.0
 21
498.5
 31
0.0
 40
0.0087268678
 41
1.5296556473
 42
1.5555492626
  0
ELLIPSE
  5
63A
100
AcDbEntity
  8
RACCORDO
100
AcDbEllipse
 62
7
  6
CONTINUOUS
 10
1.5555292223
 20
2.1500838374
 30
0.0
 11
0.0
 21
498.5
 31
0.0
 40
0.0087268678
 41
-1.55013287
 42
-1.5455067425
  0
ELLIPSE
  5
63B
100
AcDbEntity
  8
RACCORDO
100
AcDbEllipse
 62
7
  6
CONTINUOUS
 10
9.2544710361
 20
2.1500838374
 30
0.0
 11
0.0
 21
498.5
 31
0.0
 40
0.0087268678
 41
1.5455067425
 42
1.55013287
  0
ELLIPSE
  5
63C
100
AcDbEntity
  8
RACCORDO
100
AcDbEllipse
 62
7
  6
CONTINUOUS
 10
-8.4444707777
 20
2.1500838374
 30
0.0
 11
0.0
 21
498.5
 31
0.0
 40
0.0087268678
 41
-1.55013287
 42
-1.5455067425
  0
ELLIPSE
  5
63D
100
AcDbEntity
  8
RACCORDO
100
AcDbEllipse
 62
7
  6
CONTINUOUS
 10
-0.7455289639
 20
2.1500838374
 30
0.0
 11
0.0
 21
498.5
 31
0.0
 40
0.0087268678
 41
1.5455067425
 42
1.55013287
  0
ELLIPSE
  5
63E
100
AcDbEntity
  8
RACCORDO
100
AcDbEllipse
 62
7
  6
CONTINUOUS
 10
-2.7455289639
 20
2.1500838374
 30
0.0
 11
0.0
 21
498.5
 31
0.0
 40
0.0087268678
 41
-4.6847039884
 42
-4.6828982463
  0
ELLIPSE
  5
63F
100
AcDbEntity
  8
RACCORDO
100
AcDbEllipse
 62
7
  6
CONTINUOUS
 10
3.5555292223
 20
2.1500838374
 30
0.0
 11
0.0
 21
498.5
 31
0.0
 40
0.0087268678
 41
-1.6002870609
 42
-1.5984813188
  0
ELLIPSE
  5
640
100
AcDbEntity
  8
DRAFT
100
AcDbEllipse
 62
7
  6
CONTINUOUS
 10
14.3355287806
 20
2.1500838374
 30
0.0
 11
0.0
 21
498.5
 31
0.0
 40
0.0087268678
 41
-4.6847039884
 42
-4.6712483009
  0
ELLIPSE
  5
641
100
AcDbEntity
  8
RACCORDO
100
AcDbEllipse
 62
7
  6
CONTINUOUS
 10
11.2685639601
 20
2.1500838374
 30
0.0
 11
0.0
 21
498.5
 31
0.0
 40
0.0087268678
 41
-4.6813231009
 42
-4.671386838
  0
ELLIPSE
  5
642
100
AcDbEntity
  8
RACCORDO
100
AcDbEllipse
 62
7
  6
CONTINUOUS
 10
-10.4585637016
 20
2.1500838374
 30
0.0
 11
0.0
 21
498.5
 31
0.0
 40
0.0087268678
 41
-1.6117984692
 42
-1.6018622062
  0
ELLIPSE
  5
643
100
AcDbEntity
  8
DRAFT
100
AcDbEllipse
 62
7
  6
CONTINUOUS
 10
-13.5255285221
 20
2.1500838374
 30
0.0
 11
0.0
 21
498.5
 31
0.0
 40
0.0087268678
 41
-1.6119370063
 42
-1.5984813188
  0
ELLIPSE
  5
644
100
AcDbEntity
  8
RACCORDO
100
AcDbEllipse
 62
7
  6
CONTINUOUS
 10
-3.5444707777
 20
2.1500838374
 30
0.0
 11
0.0
 21
498.5
 31
0.0
 40
0.0087268678
 41
-1.5397304474
 42
-1.5297941844
  0
ELLIPSE
  5
645
100
AcDbEntity
  8
RACCORDO
100
AcDbEllipse
 62
7
  6
CONTINUOUS
 10
-3.5444707777
 20
2.1500838374
 30
0.0
 11
0.0
 21
498.5
 31
0.0
 40
0.0087268678
 41
-1.6117984692
 42
-1.6018622062
  0
ELLIPSE
  5
646
100
AcDbEntity
  8
RACCORDO
100
AcDbEllipse
 62
7
  6
CONTINUOUS
 10
4.3544710361
 20
2.1500838374
 30
0.0
 11
0.0
 21
498.5
 31
0.0
 40
0.0087268678
 41
1.5297941844
 42
1.5397304474
  0
ELLIPSE
  5
647
100
AcDbEntity
  8
RACCORDO
100
AcDbEllipse
 62
7
  6
CONTINUOUS
 10
4.3544710361
 20
2.1500838374
 30
0.0
 11
0.0
 21
498.5
 31
0.0
 40
0.0087268678
 41
-4.6813231009
 42
-4.671386838
  0
ELLIPSE
  5
648
100
AcDbEntity
  8
RACCORDO
100
AcDbEllipse
 62
7
  6
CONTINUOUS
 10
-10.8449998708
 20
1.6700924113
 30
0.0
 11
0.0
 21
27.4986903856
 31
0.0
 40
0.9998476487
 41
-2.4222061861
 42
-2.4136768153
  0
ELLIPSE
  5
649
100
AcDbEntity
  8
RACCORDO
100
AcDbEllipse
 62
7
  6
CONTINUOUS
 10
11.6550001292
 20
1.6700924113
 30
0.0
 11
0.0
 21
27.4986903856
 31
0.0
 40
0.9998476487
 41
-3.8695084919
 42
-3.8609791211
  0
ELLIPSE
  5
64A
100
AcDbEntity
  8
RACCORDO
100
AcDbEllipse
 62
7
  6
CONTINUOUS
 10
-0.7736740386
 20
2.1500838374
 30
0.0
 11
0.0
 21
498.5
 31
0.0
 40
0.0174550649
 41
-1.5397313937
 42
-1.5296556473
  0
ELLIPSE
  5
64B
100
AcDbEntity
  8
RACCORDO
100
AcDbEllipse
 62
7
  6
CONTINUOUS
 10
-0.7736740386
 20
2.1500838374
 30
0.0
 11
0.0
 21
498.5
 31
0.0
 40
0.0174550649
 41
-1.6119370063
 42
-1.6018612598
  0
ELLIPSE
  5
64C
100
AcDbEntity
  8
RACCORDO
100
AcDbEllipse
 62
7
  6
CONTINUOUS
 10
1.583674297
 20
2.1500838374
 30
0.0
 11
0.0
 21
498.5
 31
0.0
 40
0.0174550649
 41
1.5296556473
 42
1.5397313937
  0
ELLIPSE
  5
64D
100
AcDbEntity
  8
RACCORDO
100
AcDbEllipse
 62
7
  6
CONTINUOUS
 10
1.583674297
 20
2.1500838374
 30
0.0
 11
0.0
 21
498.5
 31
0.0
 40
0.0174550649
 41
-4.6813240473
 42
-4.6712483009
  0
ELLIPSE
  5
64E
100
AcDbEntity
  8
RACCORDO
100
AcDbEllipse
 62
7
  6
CONTINUOUS
 10
10.1950416369
 20
-10.7293306595
 30
0.0
 11
0.2
 21
-0.0
 31
0.0
 40
0.0087268678
 41
1.5707963268
 42
2.7925268032
  0
ELLIPSE
  5
64F
100
AcDbEntity
  8
RACCORDO
100
AcDbEllipse
 62
7
  6
CONTINUOUS
 10
10.1950416369
 20
-6.4293306595
 30
0.0
 11
0.2
 21
-0.0
 31
0.0
 40
0.0087268678
 41
1.5707963268
 42
2.7925268032
  0
ELLIPSE
  5
650
100
AcDbEntity
  8
RACCORDO
100
AcDbEllipse
 62
7
  6
CONTINUOUS
 10
10.1950416369
 20
-7.2705016657
 30
0.0
 11
0.2
 21
-0.0
 31
0.0
 40
0.0087268678
 41
-2.7925268032
 42
-1.5707963268
  0
ELLIPSE
  5
651
100
AcDbEntity
  8
RACCORDO
100
AcDbEllipse
 62
7
  6
CONTINUOUS
 10
10.1950416369
 20
1.2706693405
 30
0.0
 11
0.2
 21
-0.0
 31
0.0
 40
0.0087268678
 41
1.5707963268
 42
2.7925268032
  0
ELLIPSE
  5
652
100
AcDbEntity
  8
RACCORDO
100
AcDbEllipse
 62
7
  6
CONTINUOUS
 10
10.1950416369
 20
0.4294983343
 30
0.0
 11
0.2
 21
-0.0
 31
0.0
 40
0.0087268678
 41
-2.7925268032
 42
-1.5707963268
  0
ELLIPSE
  5
653
100
AcDbEntity
  8
RACCORDO
100
AcDbEllipse
 62
7
  6
CONTINUOUS
 10
10.1950416369
 20
8.8294983343
 30
0.0
 11
0.2
 21
-0.0
 31
0.0
 40
0.0087268678
 41
-2.7925268032
 42
-1.5707963268
  0
ELLIPSE
  5
654
100
AcDbEntity
  8
RACCORDO
100
AcDbEllipse
 62
7
  6
CONTINUOUS
 10
-9.3850413784
 20
8.8294983343
 30
0.0
 11
0.2
 21
-0.0
 31
0.0
 40
0.0087268678
 41
-1.5707963268
 42
-0.3490658504
  0
ELLIPSE
  5
655
100
AcDbEntity
  8
RACCORDO
100
AcDbEllipse
 62
7
  6
CONTINUOUS
 10
-9.3850413784
 20
0.4294983343
 30
0.0
 11
0.2
 21
-0.0
 31
0.0
 40
0.0087268678
 41
-1.5707963268
 42
-0.3490658504
  0
ELLIPSE
  5
656
100
AcDbEntity
  8
RACCORDO
100
AcDbEllipse
 62
7
  6
CONTINUOUS
 10
-9.3850413784
 20
1.2706693405
 30
0.0
 11
0.2
 21
0.0
 31
0.0
 40
0.0087268678
 41
0.3490658504
 42
1.5707963268
  0
ELLIPSE
  5
657
100
AcDbEntity
  8
RACCORDO
100
AcDbEllipse
 62
7
  6
CONTINUOUS
 10
-9.3850413784
 20
-7.2705016657
 30
0.0
 11
0.2
 21
-0.0
 31
0.0
 40
0.0087268678
 41
-1.5707963268
 42
-0.3490658504
  0
ELLIPSE
  5
658
100
AcDbEntity
  8
RACCORDO
100
AcDbEllipse
 62
7
  6
CONTINUOUS
 10
-9.3850413784
 20
-6.4293306595
 30
0.0
 11
0.2
 21
0.0
 31
0.0
 40
0.0087268678
 41
0.3490658504
 42
1.5707963268
  0
ELLIPSE
  5
659
100
AcDbEntity
  8
RACCORDO
100
AcDbEllipse
 62
7
  6
CONTINUOUS
 10
-9.3850413784
 20
-10.7293306595
 30
0.0
 11
0.2
 21
0.0
 31
0.0
 40
0.0087268678
 41
0.3490658504
 42
1.5707963268
  0
ELLIPSE
  5
65A
100
AcDbEntity
  8
RACCORDO
100
AcDbEllipse
 62
7
  6
CONTINUOUS
 10
-9.8449998708
 20
-11.0809548678
 30
0.0
 11
0.0
 21
0.5000190392
 31
0.0
 40
0.9999619231
 41
1.5707963268
 42
3.1415926536
  0
ELLIPSE
  5
65B
100
AcDbEntity
  8
RACCORDO
100
AcDbEllipse
 62
7
  6
CONTINUOUS
 10
-9.8449998708
 20
9.1811225427
 30
0.0
 11
0.0
 21
0.5000190392
 31
0.0
 40
0.9999619231
 41
0.0
 42
1.5707963268
  0
ELLIPSE
  5
65C
100
AcDbEntity
  8
RACCORDO
100
AcDbEllipse
 62
7
  6
CONTINUOUS
 10
10.6550001292
 20
9.1811225427
 30
0.0
 11
0.0
 21
0.5000190392
 31
0.0
 40
0.9999619231
 41
-1.5707963268
 42
0.0
  0
ELLIPSE
  5
65D
100
AcDbEntity
  8
RACCORDO
100
AcDbEllipse
 62
7
  6
CONTINUOUS
 10
10.6550001292
 20
-11.0809548678
 30
0.0
 11
-0.0
 21
0.5000190392
 31
0.0
 40
0.9999619231
 41
-3.1415926536
 42
-1.5707963268
  0
ELLIPSE
  5
65E
100
AcDbEntity
  8
RACCORDO
100
AcDbEllipse
 62
7
  6
CONTINUOUS
 10
7.2608628533
 20
-18.4227360915
 30
0.0
 11
0.200007485
 21
-0.0000148403
 31
0.0
 40
0.0122341997
 41
-3.1293572488
 42
-2.9854194263
  0
ELLIPSE
  5
65F
100
AcDbEntity
  8
RACCORDO
100
AcDbEllipse
 62
7
  6
CONTINUOUS
 10
-8.5253792813
 20
-7.2626474847
 30
0.0
 11
0.3
 21
-0.0
 31
0.0
 40
0.0087268678
 41
1.805273549
 42
2.7925268032
  0
ELLIPSE
  5
660
100
AcDbEntity
  8
RACCORDO
100
AcDbEllipse
 62
7
  6
CONTINUOUS
 10
-8.5253792813
 20
-6.4371848405
 30
0.0
 11
0.3
 21
0.0
 31
0.0
 40
0.0087268678
 41
-2.7925268032
 42
-1.805273549
  0
ELLIPSE
  5
661
100
AcDbEntity
  8
RACCORDO
100
AcDbEllipse
 62
7
  6
CONTINUOUS
 10
9.3353795398
 20
-6.4371848405
 30
0.0
 11
0.3
 21
0.0
 31
0.0
 40
0.0087268678
 41
-1.3363191046
 42
-0.3490658504
  0
ELLIPSE
  5
662
100
AcDbEntity
  8
RACCORDO
100
AcDbEllipse
 62
7
  6
CONTINUOUS
 10
9.3353795398
 20
-7.2626474847
 30
0.0
 11
0.3
 21
-0.0
 31
0.0
 40
0.0087268678
 41
0.3490658504
 42
1.3363191046
  0
ELLIPSE
  5
663
100
AcDbEntity
  8
RACCORDO
100
AcDbEllipse
 62
7
  6
CONTINUOUS
 10
6.7049696636
 20
-12.5499466282
 30
0.0
 11
-0.1414644378
 21
-0.1414644378
 31
0.0
 40
0.9996954599
 41
2.3563467834
 42
3.9268385237
  0
ELLIPSE
  5
664
100
AcDbEntity
  8
RACCORDO
100
AcDbEllipse
 62
7
  6
CONTINUOUS
 10
-5.8949694052
 20
-12.5499466282
 30
0.0
 11
0.1414644378
 21
-0.1414644378
 31
0.0
 40
0.9996954599
 41
2.3563467834
 42
3.9268385237
  0
ELLIPSE
  5
665
100
AcDbEntity
  8
RACCORDO
100
AcDbEllipse
 62
7
  6
CONTINUOUS
 10
-8.5253792813
 20
1.2628151595
 30
0.0
 11
0.3
 21
0.0
 31
0.0
 40
0.0087268678
 41
-2.7925268032
 42
-1.805273549
  0
ELLIPSE
  5
666
100
AcDbEntity
  8
RACCORDO
100
AcDbEllipse
 62
7
  6
CONTINUOUS
 10
-8.5253792813
 20
0.4373525153
 30
0.0
 11
0.3
 21
0.0
 31
0.0
 40
0.0087268678
 41
1.805273549
 42
2.7925268032
  0
ELLIPSE
  5
667
100
AcDbEntity
  8
RACCORDO
100
AcDbEllipse
 62
7
  6
CONTINUOUS
 10
9.3353795398
 20
1.2628151595
 30
0.0
 11
0.3
 21
0.0
 31
0.0
 40
0.0087268678
 41
-1.3363191046
 42
-0.3490658504
  0
ELLIPSE
  5
668
100
AcDbEntity
  8
RACCORDO
100
AcDbEllipse
 62
7
  6
CONTINUOUS
 10
9.3353795398
 20
0.4373525153
 30
0.0
 11
0.3
 21
0.0
 31
0.0
 40
0.0087268678
 41
0.3490658504
 42
1.3363191046
  0
ELLIPSE
  5
669
100
AcDbEntity
  8
RACCORDO
100
AcDbEllipse
 62
7
  6
CONTINUOUS
 10
11.6550001292
 20
2.6300752636
 30
0.0
 11
0.0
 21
27.4986903856
 31
0.0
 40
0.9998476487
 41
0.7193864675
 42
0.7279158383
  0
ELLIPSE
  5
66A
100
AcDbEntity
  8
RACCORDO
100
AcDbEllipse
 62
7
  6
CONTINUOUS
 10
-6.4508625949
 20
22.7229037664
 30
0.0
 11
0.200007485
 21
-0.0000148403
 31
0.0
 40
0.0122341997
 41
0.0122354048
 42
0.1561732273
  0
ELLIPSE
  5
66B
100
AcDbEntity
  8
RACCORDO
100
AcDbEllipse
 62
7
  6
CONTINUOUS
 10
-10.8449998708
 20
2.6300752636
 30
0.0
 11
-0.0
 21
27.4986903856
 31
0.0
 40
0.9998476487
 41
-0.7279158383
 42
-0.7193864675
  0
ENDSEC
  0
SECTION
  2
OBJECTS
  0
DICTIONARY
  5
C
100
AcDbDictionary
280
0
281
1
  3
ACAD_GROUP
350
D
  3
ACAD_MLINESTYLE
350
17
  3
ACAD_LAYOUT
350
1A
  3
ACAD_PLOTSETTINGS
350
19
  3
ACAD_PLOTSTYLENAME
350
E
  0
DICTIONARY
  5
D
102
{ACAD_REACTORS
330
C
102
}
100
AcDbDictionary
280
0
281
1
  0
ACDBDICTIONARYWDFLT
  5
E
102
{ACAD_REACTORS
330
C
102
}
100
AcDbDictionary
281
1
  3
Normal
350
F
100
AcDbDictionaryWithDefault
340
F
  0
DICTIONARY
  5
17
102
{ACAD_REACTORS
330
C
102
}
100
AcDbDictionary
280
0
281
1
  3
Standard
350
18
  0
DICTIONARY
  5
19
102
{ACAD_REACTORS
330
C
102
}
100
AcDbDictionary
281
1
  0
DICTIONARY
  5
1A
102
{ACAD_REACTORS
330
C
102
}
100
AcDbDictionary
281
1
  3
Model
350
66C
  3
Layout1
350
66D
  0
ACDBPLACEHOLDER
  5
F
102
{ACAD_REACTORS
330
E
102
}
  0
MLINESTYLE
  5
18
102
{ACAD_REACTORS
330
17
102
}
100
AcDbMlineStyle
  2
STANDARD
 70
0
  3

 62
256
 51
90.0
 52
90.0
 71
2
 49
0.5
 62
256
  6
BYLAYER
 49
-0.5
 62
256
  6
BYLAYER
  0
LAYOUT
  5
66C
102
{ACAD_REACTORS
330
1A
102
}
100
AcDbPlotSettings
  1

  2
none_device
  4
ISO_A4_(297.00_x_210.00_MM)
  6

 40
0.0
 41
0.0
 42
0.0
 43
0.0
 44
297.0
 45
210.0
 46
0.0
 47
0.0
 48
0.0
 49
0.0
140
0.0
141
0.0
142
1.0
143
1.0
 70
1024
 72
1
 73
0
 74
0
  7

 75
0
147
1.0
148
0.0
149
0.0
100
AcDbLayout
  1
Model
 70
0
 71
0
 10
0.0
 20
0.0
 11
297.0
 21
210.0
 12
0.0
 22
0.0
 32
0.0
 14
0.0
 24
0.0
 34
0.0
 15
0.0
 25
0.0
 35
0.0
146
0.0
 13
0.0
 23
0.0
 33
0.0
 16
1.0
 26
0.0
 36
0.0
 17
0.0
 27
1.0
 37
0.0
 76
0
330
214
345
0
346
0
  0
LAYOUT
  5
66D
102
{ACAD_REACTORS
330
1A
102
}
100
AcDbPlotSettings
  1

  2
none_device
  4
ISO_A4_(297.00_x_210.00_MM)
  6

 40
0.0
 41
0.0
 42
0.0
 43
0.0
 44
297.0
 45
210.0
 46
0.0
 47
0.0
 48
0.0
 49
0.0
140
0.0
141
0.0
142
1.0
143
1.0
 70
0
 72
1
 73
0
 74
0
  7

 75
0
147
1.0
148
0.0
149
0.0
100
AcDbLayout
  1
Layout1
 70
0
 71
1
 10
0.0
 20
0.0
 11
297.0
 21
210.0
 12
0.0
 22
0.0
 32
0.0
 14
0.0
 24
0.0
 34
0.0
 15
0.0
 25
0.0
 35
0.0
146
0.0
 13
0.0
 23
0.0
 33
0.0
 16
1.0
 26
0.0
 36
0.0
 17
0.0
 27
1.0
 37
0.0
 76
0
330
215
345
0
346
0
  0
ENDSEC
  0
EOF
