  0
SECTION
  2
HEADER
  9
$ACADVER
  1
AC1024
  9
$DWGCODEPAGE
  3
ANSI_1252
  9
$EXTMAX
 10
297.0
 20
210.0
 30
0.0
  9
$EXTMIN
 10
0.0
 20
0.0
 30
0.0
  9
$LIMMIN
 10
0.0
 20
0.0
  9
$LIMMAX
 10
297.0
 20
210.0
  9
$VIEWCTR
 10
148.5
 20
105.0
  9
$VIEWSIZE
 40
210.0
  9
$CLAYER
  8
0
  9
$LTSCALE
 40
16.335
  9
$CELTYPE
  6
BYLAYER
  9
$DIMSCALE
 40
1.0
  9
$DIMASZ
 40
3.0
  9
$DIMEXO
 40
0.5
  9
$DIMDLI
 40
11.286
  9
$DIMEXE
 40
1.5
  9
$DIMCEN
 40
2.673
  9
$DIMLFAC
 40
1.0
  9
$DIMBLK
  1
_FILLED
  9
$DIMALT
 70
0
  9
$DIMALTF
 40
0.0393700787
  9
$DIMTXT
 40
3.0
  9
$DIMTOL
 70
1
  9
$DIMLIM
 70
0
  9
$DIMTFAC
 40
1.0
  9
$DIMTP
 40
0.01
  9
$DIMTM
 40
0.01
  9
$DIMGAP
 40
0.625
  9
$DIMDSEP
 70
44
  9
$AUNITS
 70
0
  9
$PDMODE
 70
3
  9
$PDSIZE
 40
3.0
  9
$HANDSEED
  5
6E9
  9
$TILEMODE
 70
1
  9
$MEASUREMENT
 70
1
  9
$INSUNITS
 70
4
  0
ENDSEC
  0
SECTION
  2
CLASSES
  0
CLASS
  1
ACDBDICTIONARYWDFLT
  2
AcDbDictionaryWithDefault
  3
AutoCAD 2000
 90
0
 91
1
280
0
281
0
  0
CLASS
  1
ACDBPLACEHOLDER
  2
AcDbPlaceHolder
  3
AutoCAD 2000
 90
0
 91
1
280
0
281
0
  0
CLASS
  1
LAYOUT
  2
AcDbLayout
  3
AutoCAD 2000
 90
0
 91
0
280
0
281
0
  0
ENDSEC
  0
SECTION
  2
TABLES
  0
TABLE
  2
VPORT
  5
8
100
AcDbSymbolTable
 70
2
  0
VPORT
  5
1F4
100
AcDbSymbolTableRecord
100
AcDbViewportTableRecord
  2
*ACTIVE
 70
0
 10
0.0
 20
0.0
 11
1.0
 21
1.0
 12
148.5
 22
105.0
 13
0.0
 23
0.0
 14
1.0
 24
1.0
 15
0.0
 25
0.0
 16
0.0
 26
0.0
 36
1.0
 17
0.0
 27
0.0
 37
0.0
 40
210.0
 41
1.4142857143
 42
50.0
 43
0.0
 44
0.0
 50
0.0
 51
0.0
 71
0
 72
100
 73
1
 74
1
 75
0
 76
0
 77
0
 78
0
  0
ENDTAB
  0
TABLE
  2
LTYPE
  5
5
100
AcDbSymbolTable
 70
6
  0
LTYPE
  5
14
100
AcDbSymbolTableRecord
100
AcDbLinetypeTableRecord
  2
BYBLOCK
 70
0
  3

 72
65
 73
0
 40
0.0
  0
LTYPE
  5
15
100
AcDbSymbolTableRecord
100
AcDbLinetypeTableRecord
  2
BYLAYER
 70
0
  3

 72
65
 73
0
 40
0.0
  0
LTYPE
  5
16
100
AcDbSymbolTableRecord
100
AcDbLinetypeTableRecord
  2
CONTINUOUS
 70
64
  3
Solid line
 72
65
 73
0
 40
0.0
  0
LTYPE
  5
1F5
100
AcDbSymbolTableRecord
100
AcDbLinetypeTableRecord
  2
CENTER
 70
64
  3
____ _ ____ _ ____ _ ____ _ ____ _ ____ _ ____
 72
65
 73
4
 40
0.6
 49
0.375
 74
0
 49
-0.075
 74
0
 49
0.075
 74
0
 49
-0.075
 74
0
  0
LTYPE
  5
1F6
100
AcDbSymbolTableRecord
100
AcDbLinetypeTableRecord
  2
HIDDEN
 70
64
  3
- - - - - - - - - - - - - - - - - - - -
 72
65
 73
2
 40
0.2
 49
0.1
 74
0
 49
-0.1
 74
0
  0
LTYPE
  5
1F7
100
AcDbSymbolTableRecord
100
AcDbLinetypeTableRecord
  2
PHANTOM
 70
64
  3
_____ _ _ _____ _ _ _____ _ _ _____
 72
65
 73
6
 40
0.8
 49
0.45
 74
0
 49
-0.05
 74
0
 49
0.1
 74
0
 49
-0.05
 74
0
 49
0.1
 74
0
 49
-0.05
 74
0
  0
LTYPE
  5
1F8
100
AcDbSymbolTableRecord
100
AcDbLinetypeTableRecord
  2
DOT
 70
64
  3
. . . . . . . . . . . . . . . . . . . .
 72
65
 73
2
 40
0.2
 49
0.1
 74
0
 49
-0.1
 74
0
  0
LTYPE
  5
1F9
100
AcDbSymbolTableRecord
100
AcDbLinetypeTableRecord
  2
DASHED
 70
64
  3
- - - - - - - - - - - - - - - - - - - -
 72
65
 73
2
 40
0.2
 49
0.1
 74
0
 49
-0.1
 74
0
  0
ENDTAB
  0
TABLE
  2
LAYER
  5
2
100
AcDbSymbolTable
 70
36
  0
LAYER
  5
10
100
AcDbSymbolTableRecord
100
AcDbLayerTableRecord
  2
0
 70
0
 62
7
  6
CONTINUOUS
370
-3
390
F
  0
LAYER
  5
1FA
100
AcDbSymbolTableRecord
100
AcDbLayerTableRecord
  2
DEFAULT_1
 70
0
 62
7
  6
CENTER
370
-3
390
F
  0
LAYER
  5
1FB
100
AcDbSymbolTableRecord
100
AcDbLayerTableRecord
  2
DEFAULT_2
 70
0
 62
7
  6
HIDDEN
370
-3
390
F
  0
LAYER
  5
1FC
100
AcDbSymbolTableRecord
100
AcDbLayerTableRecord
  2
DEFAULT_3
 70
0
 62
7
  6
PHANTOM
370
-3
390
F
  0
LAYER
  5
1FD
100
AcDbSymbolTableRecord
100
AcDbLayerTableRecord
  2
ASSI
 70
0
 62
7
  6
CONTINUOUS
370
-3
390
F
  0
LAYER
  5
1FE
100
AcDbSymbolTableRecord
100
AcDbLayerTableRecord
  2
COLOR5
 70
0
 62
7
  6
CONTINUOUS
370
-3
390
F
  0
LAYER
  5
1FF
100
AcDbSymbolTableRecord
100
AcDbLayerTableRecord
  2
COORDINATE
 70
0
 62
7
  6
CONTINUOUS
370
-3
390
F
  0
LAYER
  5
200
100
AcDbSymbolTableRecord
100
AcDbLayerTableRecord
  2
COORD_ORIGINE
 70
0
 62
7
  6
CONTINUOUS
370
-3
390
F
  0
LAYER
  5
201
100
AcDbSymbolTableRecord
100
AcDbLayerTableRecord
  2
COPY_PUBLISH
 70
0
 62
7
  6
CONTINUOUS
370
-3
390
F
  0
LAYER
  5
202
100
AcDbSymbolTableRecord
100
AcDbLayerTableRecord
  2
COSMETIC
 70
0
 62
7
  6
CONTINUOUS
370
-3
390
F
  0
LAYER
  5
203
100
AcDbSymbolTableRecord
100
AcDbLayerTableRecord
  2
COSMETICHE
 70
0
 62
7
  6
CONTINUOUS
370
-3
390
F
  0
LAYER
  5
204
100
AcDbSymbolTableRecord
100
AcDbLayerTableRecord
  2
COSMETICI
 70
0
 62
7
  6
CONTINUOUS
370
-3
390
F
  0
LAYER
  5
205
100
AcDbSymbolTableRecord
100
AcDbLayerTableRecord
  2
CURVE
 70
0
 62
7
  6
CONTINUOUS
370
-3
390
F
  0
LAYER
  5
206
100
AcDbSymbolTableRecord
100
AcDbLayerTableRecord
  2
DRAFT
 70
0
 62
7
  6
CONTINUOUS
370
-3
390
F
  0
LAYER
  5
207
100
AcDbSymbolTableRecord
100
AcDbLayerTableRecord
  2
IMPORT_FEATURES
 70
0
 62
7
  6
CONTINUOUS
370
-3
390
F
  0
LAYER
  5
208
100
AcDbSymbolTableRecord
100
AcDbLayerTableRecord
  2
IMPORT_IGES
 70
0
 62
7
  6
CONTINUOUS
370
-3
390
F
  0
LAYER
  5
209
100
AcDbSymbolTableRecord
100
AcDbLayerTableRecord
  2
INTF_YELLOW
 70
0
 62
7
  6
CONTINUOUS
370
-3
390
F
  0
LAYER
  5
20A
100
AcDbSymbolTableRecord
100
AcDbLayerTableRecord
  2
NOTE
 70
0
 62
7
  6
CONTINUOUS
370
-3
390
F
  0
LAYER
  5
20B
100
AcDbSymbolTableRecord
100
AcDbLayerTableRecord
  2
PIANI
 70
0
 62
7
  6
CONTINUOUS
370
-3
390
F
  0
LAYER
  5
20C
100
AcDbSymbolTableRecord
100
AcDbLayerTableRecord
  2
PIANI_ORIGINE
 70
0
 62
7
  6
CONTINUOUS
370
-3
390
F
  0
LAYER
  5
20D
100
AcDbSymbolTableRecord
100
AcDbLayerTableRecord
  2
PUNTI
 70
0
 62
7
  6
CONTINUOUS
370
-3
390
F
  0
LAYER
  5
20E
100
AcDbSymbolTableRecord
100
AcDbLayerTableRecord
  2
RACCORDO
 70
0
 62
7
  6
CONTINUOUS
370
-3
390
F
  0
LAYER
  5
20F
100
AcDbSymbolTableRecord
100
AcDbLayerTableRecord
  2
SIMBOLI
 70
0
 62
7
  6
CONTINUOUS
370
-3
390
F
  0
LAYER
  5
210
100
AcDbSymbolTableRecord
100
AcDbLayerTableRecord
  2
SMUSSO
 70
0
 62
7
  6
CONTINUOUS
370
-3
390
F
  0
LAYER
  5
211
100
AcDbSymbolTableRecord
100
AcDbLayerTableRecord
  2
SNAPLINE
 70
0
 62
7
  6
CONTINUOUS
370
-3
390
F
  0
LAYER
  5
212
100
AcDbSymbolTableRecord
100
AcDbLayerTableRecord
  2
SUPERFICI
 70
0
 62
7
  6
CONTINUOUS
370
-3
390
F
  0
LAYER
  5
213
100
AcDbSymbolTableRecord
100
AcDbLayerTableRecord
  2
TRASH
 70
0
 62
7
  6
CONTINUOUS
370
-3
390
F
  0
LAYER
  5
214
100
AcDbSymbolTableRecord
100
AcDbLayerTableRecord
  2
XSEC_DATUMS
 70
0
 62
7
  6
CONTINUOUS
370
-3
390
F
  0
ENDTAB
  0
TABLE
  2
STYLE
  5
3
100
AcDbSymbolTable
 70
1
  0
STYLE
  5
11
100
AcDbSymbolTableRecord
100
AcDbTextStyleTableRecord
  2
STANDARD
 70
0
 40
0.0
 41
0.8
 50
0.0
 71
0
 42
0.2
  3
txt
  4

  0
STYLE
  5
215
100
AcDbSymbolTableRecord
100
AcDbTextStyleTableRecord
  2
TEXTSTYLE_1
 70
0
 40
0.0
 41
0.8
 50
0.0
 71
0
 42
0.2
  3
gdt
  4

  0
ENDTAB
  0
TABLE
  2
VIEW
  5
6
100
AcDbSymbolTable
 70
0
  0
ENDTAB
  0
TABLE
  2
UCS
  5
7
100
AcDbSymbolTable
 70
0
  0
ENDTAB
  0
TABLE
  2
APPID
  5
9
100
AcDbSymbolTable
 70
1
  0
APPID
  5
216
100
AcDbSymbolTableRecord
100
AcDbRegAppTableRecord
  2
ACAD
 70
0
  0
ENDTAB
  0
TABLE
  2
BLOCK_RECORD
  5
1
100
AcDbSymbolTable
 70
0
  0
BLOCK_RECORD
  5
217
100
AcDbSymbolTableRecord
100
AcDbBlockTableRecord
  2
*Model_Space
  0
BLOCK_RECORD
  5
218
100
AcDbSymbolTableRecord
100
AcDbBlockTableRecord
  2
*Paper_Space
  0
BLOCK_RECORD
  5
219
100
AcDbSymbolTableRecord
100
AcDbBlockTableRecord
  2
_FILLED
  0
ENDTAB
  0
TABLE
  2
DIMSTYLE
  5
A
100
AcDbSymbolTable
 70
1
100
AcDbDimStyleTable
 71
0
  0
DIMSTYLE
105
21A
100
AcDbSymbolTableRecord
100
AcDbDimStyleTableRecord
  2
STANDARD
 70
0
  3

  4

 40
1.0
 41
3.0
 42
0.5
 43
0.38
 44
1.5
 45
0.0
 46
0.0
 47
0.01
 48
0.01
140
3.0
141
0.09
142
0.0
143
25.4
144
1.0
145
0.0
146
1.0
147
0.625
 71
1
 72
0
 73
0
 74
0
 75
0
 76
0
 77
1
 78
8
 79
2
170
0
171
1
172
0
173
0
174
0
175
0
176
0
177
0
178
0
270
2
179
2
271
2
272
2
273
2
274
2
275
0
280
0
281
0
282
0
283
1
284
8
285
0
286
0
287
3
288
0
340
11
278
44
341
219
342
219
343
219
344
219
  0
ENDTAB
  0
ENDSEC
  0
SECTION
  2
BLOCKS
  0
BLOCK
  5
20
100
AcDbEntity
  8
0
100
AcDbBlockBegin
  2
*Model_Space
 70
0
 10
0.0
 20
0.0
 30
0.0
  3
*Model_Space
  1

  0
ENDBLK
  5
21
100
AcDbEntity
  8
0
100
AcDbBlockEnd
  0
BLOCK
  5
1C
100
AcDbEntity
  8
0
100
AcDbBlockBegin
  2
*Paper_Space
 70
0
 10
0.0
 20
0.0
 30
0.0
  3
*Paper_Space
  1

  0
ENDBLK
  5
1D
100
AcDbEntity
  8
0
100
AcDbBlockEnd
  0
BLOCK
  5
21B
100
AcDbEntity
  8
0
100
AcDbBlockBegin
  2
_FILLED
 70
64
 10
0.0
 20
0.0
  3
_FILLED
  1

  0
SOLID
  5
21C
100
AcDbEntity
  8
0
  6
BYBLOCK
 62
0
100
AcDbTrace
 10
0.0
 20
0.0
 11
-1.0
 21
0.3166666667
 12
-1.0
 22
-0.3166666667
 13
-1.0
 23
-0.3166666667
  0
ENDBLK
  5
21D
100
AcDbEntity
  8
0
  6
BYBLOCK
 62
0
100
AcDbBlockEnd
  0
ENDSEC
  0
SECTION
  2
ENTITIES
  0
LINE
  5
21E
100
AcDbEntity
  8
DRAFT
100
AcDbLine
 62
7
  6
CONTINUOUS
 10
-3.0
 20
-23.4998840322
 11
-2.7812783412
 21
-23.4702130017
  0
LINE
  5
21F
100
AcDbEntity
  8
DRAFT
100
AcDbLine
 62
7
  6
CONTINUOUS
 10
-3.9733373476
 20
-23.4998840322
 11
-3.0
 21
-23.4998840322
  0
LINE
  5
220
100
AcDbEntity
  8
DRAFT
100
AcDbLine
 62
7
  6
CONTINUOUS
 10
3.0
 20
-23.4998840322
 11
3.9733373476
 21
-23.4998840322
  0
LINE
  5
221
100
AcDbEntity
  8
DRAFT
100
AcDbLine
 62
7
  6
CONTINUOUS
 10
2.7812783412
 20
-23.4702130017
 11
-2.7812783412
 21
-23.4702130017
  0
LINE
  5
222
100
AcDbEntity
  8
DRAFT
100
AcDbLine
 62
7
  6
CONTINUOUS
 10
-3.9630152422
 20
-23.4524103834
 11
3.9630152422
 21
-23.4524103834
  0
LINE
  5
223
100
AcDbEntity
  8
DRAFT
100
AcDbLine
 62
7
  6
CONTINUOUS
 10
-10.6503805997
 20
-22.3998894605
 11
-5.55
 21
-22.3998894605
  0
LINE
  5
224
100
AcDbEntity
  8
DRAFT
100
AcDbLine
 62
7
  6
CONTINUOUS
 10
5.55
 20
-22.3998894605
 11
10.6503805997
 21
-22.3998894605
  0
LINE
  5
225
100
AcDbEntity
  8
DRAFT
100
AcDbLine
 62
7
  6
CONTINUOUS
 10
3.0
 20
-23.4998840322
 11
2.7812783412
 21
-23.4702130017
  0
LWPOLYLINE
  5
226
100
AcDbEntity
  8
DRAFT
100
AcDbPolyline
 62
7
  6
CONTINUOUS
 90
10
 70
0
 10
-5.55
 20
22.3998894605
 10
-5.759885255
 20
22.2409282825
 10
-5.9682303453
 20
22.0800298865
 10
-6.1750352708
 20
21.9171942726
 10
-6.3803180384
 20
21.7524067056
 10
-6.5840606411
 20
21.5856819207
 10
-6.7862090587
 20
21.4170641234
 10
-6.9867452842
 20
21.2465680489
 10
-7.1856873244
 20
21.074178962
 10
-7.3830351795
 20
20.8998968627
  0
LINE
  5
227
100
AcDbEntity
  8
DRAFT
100
AcDbLine
 62
7
  6
CONTINUOUS
 10
-5.4315509764
 20
22.4882383864
 11
-5.55
 21
22.3998894605
  0
LINE
  5
228
100
AcDbEntity
  8
DRAFT
100
AcDbLine
 62
7
  6
CONTINUOUS
 10
-5.3126373422
 20
22.5759609753
 11
-5.4315509764
 21
22.4882383864
  0
LWPOLYLINE
  5
229
100
AcDbEntity
  8
DRAFT
100
AcDbPolyline
 62
7
  6
CONTINUOUS
 90
10
 70
0
 10
-5.1582525237
 20
22.6578878975
 10
-5.3654880111
 20
22.506275177
 10
-5.5712885741
 20
22.3527927125
 10
-5.7756542128
 20
22.197440504
 10
-5.9786019092
 20
22.0402051432
 10
-6.1801146812
 20
21.8811000384
 10
-6.3801415825
 20
21.7201654144
 10
-6.5786656312
 20
21.5574146794
 10
-6.7757038093
 20
21.3928344252
 10
-6.9712561167
 20
21.2264246518
  0
LINE
  5
22A
100
AcDbEntity
  8
DRAFT
100
AcDbLine
 62
7
  6
CONTINUOUS
 10
-5.1932624094
 20
22.6630547838
 11
-5.3126373422
 21
22.5759609753
  0
LINE
  5
22B
100
AcDbEntity
  8
DRAFT
100
AcDbLine
 62
7
  6
CONTINUOUS
 10
-4.343676456
 20
23.2263195177
 11
-4.4516798704
 21
23.1534039364
  0
LINE
  5
22C
100
AcDbEntity
  8
DRAFT
100
AcDbLine
 62
7
  6
CONTINUOUS
 10
-4.3496473086
 20
23.2517884863
 11
-4.4564266805
 21
23.1797941736
  0
LINE
  5
22D
100
AcDbEntity
  8
DRAFT
100
AcDbLine
 62
7
  6
CONTINUOUS
 10
-4.2353353219
 20
23.298730445
 11
-4.343676456
 21
23.2263195177
  0
LINE
  5
22E
100
AcDbEntity
  8
DRAFT
100
AcDbLine
 62
7
  6
CONTINUOUS
 10
-4.2425387863
 20
23.3232903559
 11
-4.3496473086
 21
23.2517884863
  0
LINE
  5
22F
100
AcDbEntity
  8
DRAFT
100
AcDbLine
 62
7
  6
CONTINUOUS
 10
-4.1266573523
 20
23.3706361317
 11
-4.2353353219
 21
23.298730445
  0
LINE
  5
230
100
AcDbEntity
  8
DRAFT
100
AcDbLine
 62
7
  6
CONTINUOUS
 10
-4.1351019652
 20
23.3942992183
 11
-4.2425387863
 21
23.3232903559
  0
LWPOLYLINE
  5
231
100
AcDbEntity
  8
DRAFT
100
AcDbPolyline
 62
7
  6
CONTINUOUS
 90
3
 70
0
 10
-3.9630152422
 20
23.4775430833
 10
-4.0176460842
 20
23.4420342317
 10
-4.1266573523
 20
23.3706361317
  0
LWPOLYLINE
  5
232
100
AcDbEntity
  8
DRAFT
100
AcDbPolyline
 62
7
  6
CONTINUOUS
 90
3
 70
0
 10
-3.9733373476
 20
23.4998840322
 10
-4.0273402518
 20
23.4648128163
 10
-4.1351019652
 20
23.3942992183
  0
LINE
  5
233
100
AcDbEntity
  8
DRAFT
100
AcDbLine
 62
7
  6
CONTINUOUS
 10
-7.3830351795
 20
20.8998968627
 11
-7.238215003
 21
20.9576718579
  0
LINE
  5
234
100
AcDbEntity
  8
DRAFT
100
AcDbLine
 62
7
  6
CONTINUOUS
 10
-3.434596365
 20
-21.2012919519
 11
-3.1516814075
 21
-21.1821989104
  0
LINE
  5
235
100
AcDbEntity
  8
DRAFT
100
AcDbLine
 62
7
  6
CONTINUOUS
 10
-3.0104834329
 20
-22.1762722771
 11
-3.1
 21
-22.1822975576
  0
LINE
  5
236
100
AcDbEntity
  8
DRAFT
100
AcDbLine
 62
7
  6
CONTINUOUS
 10
-2.700388948
 20
-21.1554050279
 11
-3.0984611006
 21
-21.1821989104
  0
LINE
  5
237
100
AcDbEntity
  8
DRAFT
100
AcDbLine
 62
7
  6
CONTINUOUS
 10
7.3830351795
 20
-20.8998968627
 11
7.238215003
 21
-20.905541974
  0
LINE
  5
238
100
AcDbEntity
  8
DRAFT
100
AcDbLine
 62
7
  6
CONTINUOUS
 10
3.3821231691
 20
-22.1873240975
 11
-3.3821231691
 21
-22.1873240975
  0
LINE
  5
239
100
AcDbEntity
  8
DRAFT
100
AcDbLine
 62
7
  6
CONTINUOUS
 10
-3.1
 20
-22.1822975576
 11
3.1
 21
-22.1822975576
  0
LINE
  5
23A
100
AcDbEntity
  8
DRAFT
100
AcDbLine
 62
7
  6
CONTINUOUS
 10
-3.0104834329
 20
-22.1762722771
 11
3.0104834329
 21
-22.1762722771
  0
LINE
  5
23B
100
AcDbEntity
  8
DRAFT
100
AcDbLine
 62
7
  6
CONTINUOUS
 10
6.9712561167
 20
-21.2012919519
 11
3.434596365
 21
-21.2012919519
  0
LINE
  5
23C
100
AcDbEntity
  8
DRAFT
100
AcDbLine
 62
7
  6
CONTINUOUS
 10
-3.434596365
 20
-21.2012919519
 11
-6.9712561167
 21
-21.2012919519
  0
LINE
  5
23D
100
AcDbEntity
  8
DRAFT
100
AcDbLine
 62
7
  6
CONTINUOUS
 10
-3.1516814075
 20
-21.1821989104
 11
-3.0984611006
 21
-21.1821989104
  0
LINE
  5
23E
100
AcDbEntity
  8
DRAFT
100
AcDbLine
 62
7
  6
CONTINUOUS
 10
3.0984611006
 20
-21.1821989104
 11
3.1516814075
 21
-21.1821989104
  0
LINE
  5
23F
100
AcDbEntity
  8
DRAFT
100
AcDbLine
 62
7
  6
CONTINUOUS
 10
6.9587505924
 20
-21.1554050279
 11
2.700388948
 21
-21.1554050279
  0
LINE
  5
240
100
AcDbEntity
  8
DRAFT
100
AcDbLine
 62
7
  6
CONTINUOUS
 10
-2.700388948
 20
-21.1554050279
 11
-6.9587505924
 21
-21.1554050279
  0
LINE
  5
241
100
AcDbEntity
  8
DRAFT
100
AcDbLine
 62
7
  6
CONTINUOUS
 10
9.65
 20
-20.8998968627
 11
7.3830351795
 21
-20.8998968627
  0
LINE
  5
242
100
AcDbEntity
  8
DRAFT
100
AcDbLine
 62
7
  6
CONTINUOUS
 10
-7.3830351795
 20
-20.8998968627
 11
-9.65
 21
-20.8998968627
  0
LINE
  5
243
100
AcDbEntity
  8
DRAFT
100
AcDbLine
 62
7
  6
CONTINUOUS
 10
9.5103594806
 20
-20.7853897323
 11
7.5226756989
 21
-20.7853897323
  0
LINE
  5
244
100
AcDbEntity
  8
DRAFT
100
AcDbLine
 62
7
  6
CONTINUOUS
 10
-7.5226756989
 20
-20.7853897323
 11
-9.5103594806
 21
-20.7853897323
  0
LINE
  5
245
100
AcDbEntity
  8
DRAFT
100
AcDbLine
 62
7
  6
CONTINUOUS
 10
-7.3830351795
 20
-20.8998968627
 11
-7.238215003
 21
-20.905541974
  0
LINE
  5
246
100
AcDbEntity
  8
DRAFT
100
AcDbLine
 62
7
  6
CONTINUOUS
 10
3.1
 20
-22.1822975576
 11
3.0104834329
 21
-22.1762722771
  0
LINE
  5
247
100
AcDbEntity
  8
DRAFT
100
AcDbLine
 62
7
  6
CONTINUOUS
 10
3.0984611006
 20
-21.1821989104
 11
2.700388948
 21
-21.1554050279
  0
LINE
  5
248
100
AcDbEntity
  8
DRAFT
100
AcDbLine
 62
7
  6
CONTINUOUS
 10
3.434596365
 20
-21.2012919519
 11
3.1516814075
 21
-21.1821989104
  0
LINE
  5
249
100
AcDbEntity
  8
DRAFT
100
AcDbLine
 62
7
  6
CONTINUOUS
 10
-4.081261791
 20
-23.4296178784
 11
-3.9733373476
 21
-23.4998840322
  0
LINE
  5
24A
100
AcDbEntity
  8
DRAFT
100
AcDbLine
 62
7
  6
CONTINUOUS
 10
-4.0721934543
 20
-23.3812658813
 11
-3.9630152422
 21
-23.4524103834
  0
LINE
  5
24B
100
AcDbEntity
  8
DRAFT
100
AcDbLine
 62
7
  6
CONTINUOUS
 10
-4.1888610582
 20
-23.3588566482
 11
-4.081261791
 21
-23.4296178784
  0
LINE
  5
24C
100
AcDbEntity
  8
DRAFT
100
AcDbLine
 62
7
  6
CONTINUOUS
 10
-4.1810380731
 20
-23.3096139879
 11
-4.0721934543
 21
-23.3812658813
  0
LINE
  5
24D
100
AcDbEntity
  8
DRAFT
100
AcDbLine
 62
7
  6
CONTINUOUS
 10
-4.2961342977
 20
-23.2876009059
 11
-4.1888610582
 21
-23.3588566482
  0
LINE
  5
24E
100
AcDbEntity
  8
DRAFT
100
AcDbLine
 62
7
  6
CONTINUOUS
 10
-4.2895482145
 20
-23.2374552899
 11
-4.1810380731
 21
-23.3096139879
  0
LWPOLYLINE
  5
24F
100
AcDbEntity
  8
DRAFT
100
AcDbPolyline
 62
7
  6
CONTINUOUS
 90
3
 70
0
 10
-4.4564266805
 20
-23.1797941736
 10
-4.4030781028
 20
-23.2158529088
 10
-4.2961342977
 20
-23.2876009059
  0
LWPOLYLINE
  5
250
100
AcDbEntity
  8
DRAFT
100
AcDbPolyline
 62
7
  6
CONTINUOUS
 90
3
 70
0
 10
-4.4516798704
 20
-23.1282712365
 10
-4.3977203414
 20
-23.1647921333
 10
-4.2895482145
 20
-23.2374552899
  0
LINE
  5
251
100
AcDbEntity
  8
DRAFT
100
AcDbLine
 62
7
  6
CONTINUOUS
 10
-5.3126373422
 20
-22.5759609753
 11
-5.1932624094
 21
-22.6630547838
  0
LINE
  5
252
100
AcDbEntity
  8
DRAFT
100
AcDbLine
 62
7
  6
CONTINUOUS
 10
-5.4315509764
 20
-22.4882383864
 11
-5.3126373422
 21
-22.5759609753
  0
LINE
  5
253
100
AcDbEntity
  8
DRAFT
100
AcDbLine
 62
7
  6
CONTINUOUS
 10
-5.55
 20
-22.3998894605
 11
-5.4315509764
 21
-22.4882383864
  0
LINE
  5
254
100
AcDbEntity
  8
DRAFT
100
AcDbLine
 62
7
  6
CONTINUOUS
 10
-7.5226756989
 20
-20.7853897323
 11
-7.3830351795
 21
-20.8998968627
  0
LWPOLYLINE
  5
255
100
AcDbEntity
  8
DRAFT
100
AcDbPolyline
 62
7
  6
CONTINUOUS
 90
10
 70
0
 10
-6.9712561167
 20
-21.2012919519
 10
-6.7757038093
 20
-21.3677017253
 10
-6.5786656312
 20
-21.5322819795
 10
-6.3801415825
 20
-21.6950327145
 10
-6.1801146812
 20
-21.8559673385
 10
-5.9786019092
 20
-22.0150724433
 10
-5.7756542128
 20
-22.1723078041
 10
-5.5712885741
 20
-22.3276600126
 10
-5.3654880111
 20
-22.4811424771
 10
-5.1582525237
 20
-22.6327551976
  0
LINE
  5
256
100
AcDbEntity
  8
DRAFT
100
AcDbLine
 62
7
  6
CONTINUOUS
 10
-7.5226756989
 20
20.7351243325
 11
-7.3830351795
 21
20.8998968627
  0
LWPOLYLINE
  5
257
100
AcDbEntity
  8
RACCORDO
100
AcDbPolyline
 62
7
  6
CONTINUOUS
 90
10
 70
0
 10
-10.0282587846
 20
18.1641977396
 10
-10.1296417499
 20
18.0447279436
 10
-10.2303471869
 20
17.9247004604
 10
-10.3303750957
 20
17.80411529
 10
-10.4297281795
 20
17.6829690996
 10
-10.528403735
 20
17.5612652221
 10
-10.6263936522
 20
17.4390136553
 10
-10.7236952277
 20
17.3162177319
 10
-10.8203111648
 20
17.1928741192
 10
-10.9162414635
 20
17.0689828172
  0
LWPOLYLINE
  5
258
100
AcDbEntity
  8
RACCORDO
100
AcDbPolyline
 62
7
  6
CONTINUOUS
 90
10
 70
0
 10
-10.001744595
 20
18.2307452229
 10
-10.1093241659
 20
18.1045858778
 10
-10.2161468869
 20
17.9778014451
 10
-10.3222127583
 20
17.850391925
 10
-10.4275250683
 20
17.7223532702
 10
-10.5320805286
 20
17.5936895278
 10
-10.6358692736
 20
17.4644128397
 10
-10.7388880148
 20
17.3345272529
 10
-10.8411400408
 20
17.2040287204
 10
-10.9426253515
 20
17.072917242
  0
LWPOLYLINE
  5
259
100
AcDbEntity
  8
RACCORDO
100
AcDbPolyline
 62
7
  6
CONTINUOUS
 90
10
 70
0
 10
-10.001744595
 20
18.2307452229
 10
-9.9820200823
 20
18.250467984
 10
-9.9607472828
 20
18.2669410348
 10
-9.9379261963
 20
18.2801643754
 10
-9.9131034604
 20
18.2902492179
 10
-9.8867324377
 20
18.2970843501
 10
-9.8601732158
 20
18.3003361357
 10
-9.8334020108
 20
18.2998221148
 10
-9.8064426068
 20
18.2957247472
 10
-9.8025284278
 20
18.2945882222
  0
LINE
  5
25A
100
AcDbEntity
  8
DRAFT
100
AcDbLine
 62
7
  6
CONTINUOUS
 10
-7.3568525821
 20
19.0046186201
 11
-7.2195044567
 21
19.0980072253
  0
LWPOLYLINE
  5
25B
100
AcDbEntity
  8
DRAFT
100
AcDbPolyline
 62
7
  6
CONTINUOUS
 90
19
 70
0
 10
5.1582525237
 20
22.6578878975
 10
5.1031192395
 20
22.6367062536
 10
5.047437038
 20
22.622128833
 10
4.9912059191
 20
22.6141556357
 10
4.9336621028
 20
22.6128577032
 10
4.8755693691
 20
22.618163994
 10
4.8192190584
 20
22.6298613836
 10
4.7646885216
 20
22.6482024578
 10
4.7119004078
 20
22.6729346307
 10
4.6629140047
 20
22.7030870213
 10
4.6178780774
 20
22.7388706203
 10
4.5766438608
 20
22.7800744369
 10
4.5408243474
 20
22.8250946168
 10
4.5106298736
 20
22.8740909005
 10
4.4858501031
 20
22.9269035475
 10
4.4674670191
 20
22.9814494822
 10
4.4558079496
 20
23.0370343459
 10
4.4505455667
 20
23.0943524973
 10
4.4502131038
 20
23.1124526584
  0
LINE
  5
25C
100
AcDbEntity
  8
DRAFT
100
AcDbLine
 62
7
  6
CONTINUOUS
 10
3.2635064284
 20
-19.0182475478
 11
3.5699041346
 21
-19.0085677559
  0
LINE
  5
25D
100
AcDbEntity
  8
DRAFT
100
AcDbLine
 62
7
  6
CONTINUOUS
 10
-7.2084845302
 20
-19.9168196343
 11
7.2084845302
 21
-19.9168196343
  0
LINE
  5
25E
100
AcDbEntity
  8
DRAFT
100
AcDbLine
 62
7
  6
CONTINUOUS
 10
7.2084845302
 20
-19.6684869096
 11
-7.2084845302
 21
-19.6684869096
  0
LINE
  5
25F
100
AcDbEntity
  8
DRAFT
100
AcDbLine
 62
7
  6
CONTINUOUS
 10
7.2195044567
 20
-19.0391422398
 11
-7.2195044567
 21
-19.0391422398
  0
LINE
  5
260
100
AcDbEntity
  8
DRAFT
100
AcDbLine
 62
7
  6
CONTINUOUS
 10
6.0819690456
 20
-19.0342845637
 11
0.6248835365
 21
-19.0342845637
  0
LINE
  5
261
100
AcDbEntity
  8
DRAFT
100
AcDbLine
 62
7
  6
CONTINUOUS
 10
-0.6248835365
 20
-19.0342845637
 11
-6.0819690456
 21
-19.0342845637
  0
LINE
  5
262
100
AcDbEntity
  8
DRAFT
100
AcDbLine
 62
7
  6
CONTINUOUS
 10
2.7459745197
 20
-19.0282132236
 11
0.6247179508
 21
-19.0282132236
  0
LINE
  5
263
100
AcDbEntity
  8
DRAFT
100
AcDbLine
 62
7
  6
CONTINUOUS
 10
-0.6247179508
 20
-19.0282132236
 11
-2.7459745197
 21
-19.0282132236
  0
LINE
  5
264
100
AcDbEntity
  8
DRAFT
100
AcDbLine
 62
7
  6
CONTINUOUS
 10
-4.218841225
 20
-19.0203755642
 11
-3.7086189729
 21
-19.0203755642
  0
LINE
  5
265
100
AcDbEntity
  8
DRAFT
100
AcDbLine
 62
7
  6
CONTINUOUS
 10
3.7086189729
 20
-19.0203755642
 11
4.218841225
 21
-19.0203755642
  0
LINE
  5
266
100
AcDbEntity
  8
DRAFT
100
AcDbLine
 62
7
  6
CONTINUOUS
 10
3.2635064284
 20
-19.0182475478
 11
2.8188847576
 21
-19.0182475478
  0
LINE
  5
267
100
AcDbEntity
  8
DRAFT
100
AcDbLine
 62
7
  6
CONTINUOUS
 10
-2.8188847576
 20
-19.0182475478
 11
-3.2635064284
 21
-19.0182475478
  0
LINE
  5
268
100
AcDbEntity
  8
DRAFT
100
AcDbLine
 62
7
  6
CONTINUOUS
 10
3.5699041346
 20
-19.0085677559
 11
2.8190167476
 21
-19.0085677559
  0
LINE
  5
269
100
AcDbEntity
  8
DRAFT
100
AcDbLine
 62
7
  6
CONTINUOUS
 10
-2.8190167476
 20
-19.0085677559
 11
-3.5699041346
 21
-19.0085677559
  0
LINE
  5
26A
100
AcDbEntity
  8
DRAFT
100
AcDbLine
 62
7
  6
CONTINUOUS
 10
4.2127354653
 20
-19.0057917715
 11
3.7025132132
 21
-19.0057917715
  0
LINE
  5
26B
100
AcDbEntity
  8
DRAFT
100
AcDbLine
 62
7
  6
CONTINUOUS
 10
-3.7025132132
 20
-19.0057917715
 11
-4.2127354653
 21
-19.0057917715
  0
LINE
  5
26C
100
AcDbEntity
  8
RACCORDO
100
AcDbLine
 62
7
  6
CONTINUOUS
 10
-7.8004873755
 20
-18.9951938576
 11
-4.8671444325
 21
-18.9951938576
  0
LINE
  5
26D
100
AcDbEntity
  8
RACCORDO
100
AcDbLine
 62
7
  6
CONTINUOUS
 10
7.8004873755
 20
-18.9951938576
 11
4.8671444325
 21
-18.9951938576
  0
LINE
  5
26E
100
AcDbEntity
  8
DRAFT
100
AcDbLine
 62
7
  6
CONTINUOUS
 10
2.7295886809
 20
-18.9890751492
 11
2.5
 21
-18.9890751492
  0
LINE
  5
26F
100
AcDbEntity
  8
DRAFT
100
AcDbLine
 62
7
  6
CONTINUOUS
 10
-2.5
 20
-18.9890751492
 11
-2.7295886809
 21
-18.9890751492
  0
LINE
  5
270
100
AcDbEntity
  8
DRAFT
100
AcDbLine
 62
7
  6
CONTINUOUS
 10
-4.25
 20
-18.9231058756
 11
-2.5
 21
-18.9231058756
  0
LINE
  5
271
100
AcDbEntity
  8
DRAFT
100
AcDbLine
 62
7
  6
CONTINUOUS
 10
2.5
 20
-18.9231058756
 11
4.25
 21
-18.9231058756
  0
LINE
  5
272
100
AcDbEntity
  8
RACCORDO
100
AcDbLine
 62
7
  6
CONTINUOUS
 10
-1.4966457887
 20
-18.8990440706
 11
1.4966457887
 21
-18.8990440706
  0
LINE
  5
273
100
AcDbEntity
  8
DRAFT
100
AcDbLine
 62
7
  6
CONTINUOUS
 10
-3.5699041346
 20
-19.0085677559
 11
-3.2635064284
 21
-19.0182475478
  0
LINE
  5
274
100
AcDbEntity
  8
DRAFT
100
AcDbLine
 62
7
  6
CONTINUOUS
 10
-7.2195044567
 20
-19.0391422398
 11
-7.3568525821
 21
-18.9951938576
  0
LWPOLYLINE
  5
275
100
AcDbEntity
  8
RACCORDO
100
AcDbPolyline
 62
250
  6
CONTINUOUS
 90
13
 70
0
 10
-6.099527855
 20
-18.4812142958
 10
-6.0941996523
 20
-18.4839159247
 10
-6.0838003172
 20
-18.4865789543
 10
-6.0683298498
 20
-18.4892033843
 10
-6.0476841378
 20
-18.4917890934
 10
-6.0219672935
 20
-18.4943362031
 10
-5.9914916529
 20
-18.4968450777
 10
-5.9563296682
 20
-18.4993158059
 10
-5.9164088872
 20
-18.5017482989
 10
-5.8718242898
 20
-18.5041426559
 10
-5.8226472278
 20
-18.5064992389
 10
-5.7688063493
 20
-18.5088176858
 10
-5.6471126711
 20
-18.5133322626
  0
LWPOLYLINE
  5
276
100
AcDbEntity
  8
DRAFT
100
AcDbPolyline
 62
7
  6
CONTINUOUS
 90
10
 70
0
 10
-7.3830351795
 20
-20.8998968627
 10
-7.1856873244
 20
-21.074178962
 10
-6.9867452842
 20
-21.2465680489
 10
-6.7862090587
 20
-21.4170641234
 10
-6.5840606411
 20
-21.5856819207
 10
-6.3803180384
 20
-21.7524067056
 10
-6.1750352708
 20
-21.9171942726
 10
-5.9682303453
 20
-22.0800298865
 10
-5.759885255
 20
-22.2409282825
 10
-5.55
 20
-22.3998894605
  0
LWPOLYLINE
  5
277
100
AcDbEntity
  8
RACCORDO
100
AcDbPolyline
 62
7
  6
CONTINUOUS
 90
8
 70
0
 10
-10.0282587846
 20
-18.1547729772
 10
-10.0085542751
 20
-18.174570239
 10
-9.9872927728
 20
-18.1911127742
 10
-9.9644742777
 20
-18.204400583
 10
-9.9396443954
 20
-18.2145455418
 10
-9.9132575203
 20
-18.221435774
 10
-9.8866768348
 20
-18.2247356501
 10
-9.8721393484
 20
-18.2244789393
  0
LWPOLYLINE
  5
278
100
AcDbEntity
  8
RACCORDO
100
AcDbPolyline
 62
7
  6
CONTINUOUS
 90
10
 70
0
 10
-10.9162414635
 20
-17.0595580548
 10
-10.8203111648
 20
-17.1834493567
 10
-10.7236952277
 20
-17.3067929694
 10
-10.6263936522
 20
-17.4295888928
 10
-10.528403735
 20
-17.5518404596
 10
-10.4297281795
 20
-17.6735443372
 10
-10.3303750957
 20
-17.7946905275
 10
-10.2303471869
 20
-17.915275698
 10
-10.1296417499
 20
-18.0353031812
 10
-10.0282587846
 20
-18.1547729772
  0
LWPOLYLINE
  5
279
100
AcDbEntity
  8
RACCORDO
100
AcDbPolyline
 62
7
  6
CONTINUOUS
 90
10
 70
0
 10
-10.9426253515
 20
-17.072917242
 10
-10.8411400408
 20
-17.2040287204
 10
-10.7388880148
 20
-17.3345272529
 10
-10.6358692736
 20
-17.4644128397
 10
-10.5320805286
 20
-17.5936895278
 10
-10.4275250683
 20
-17.7223532702
 10
-10.3222127583
 20
-17.850391925
 10
-10.2161468869
 20
-17.9778014451
 10
-10.1093241659
 20
-18.1045858778
 10
-10.001744595
 20
-18.2307452229
  0
LWPOLYLINE
  5
27A
100
AcDbEntity
  8
RACCORDO
100
AcDbPolyline
 62
7
  6
CONTINUOUS
 90
10
 70
0
 10
-10.9162414635
 20
17.0689828172
 10
-10.9586823142
 20
17.0094966831
 10
-10.9964088005
 20
16.9475548363
 10
-11.0294209226
 20
16.8831572767
 10
-11.0578918137
 20
16.815790481
 10
-11.0816483406
 20
16.7459679726
 10
-11.1001711029
 20
16.6752303212
 10
-11.1132869673
 20
16.6040910503
 10
-11.1211690672
 20
16.5320366366
 10
-11.1238174026
 20
16.45906708
  0
LINE
  5
27B
100
AcDbEntity
  8
DRAFT
100
AcDbLine
 62
7
  6
CONTINUOUS
 10
-4.8671444325
 20
-18.9951938576
 11
-4.25
 21
-18.9231058756
  0
LWPOLYLINE
  5
27C
100
AcDbEntity
  8
RACCORDO
100
AcDbPolyline
 62
7
  6
CONTINUOUS
 90
10
 70
0
 10
-6.1877475416
 20
-18.3771171395
 10
-6.1133399717
 20
-18.3704188439
 10
-6.0420214776
 20
-18.3525684177
 10
-5.9737920592
 20
-18.322751936
 10
-5.9061660583
 20
-18.2810439601
 10
-5.8416291333
 20
-18.2270832062
 10
-5.7876382584
 20
-18.1589947425
 10
-5.746679092
 20
-18.0761913021
 10
-5.7162659759
 20
-17.9807991273
 10
-5.69639891
 20
-17.8756523793
  0
LWPOLYLINE
  5
27D
100
AcDbEntity
  8
RACCORDO
100
AcDbPolyline
 62
250
  6
CONTINUOUS
 90
31
 70
0
 10
7.2766831112
 20
-17.8756523793
 10
7.3895801995
 20
-17.8731847011
 10
7.5014877633
 20
-17.8662010813
 10
7.6124058025
 20
-17.8547015197
 10
7.7223495851
 20
-17.8386621118
 10
7.8313038431
 20
-17.8181067622
 10
7.9392227726
 20
-17.7931071851
 10
8.0459665399
 20
-17.763807047
 10
8.1516749786
 20
-17.7300626813
 10
8.2567217853
 20
-17.6915148026
 10
8.3609183085
 20
-17.6484991882
 10
8.4644531997
 20
-17.6006800608
 10
8.5682661091
 20
-17.5466908033
 10
8.6729177357
 20
-17.4865208214
 10
8.7778473806
 20
-17.4201807094
 10
8.8823125972
 20
-17.3463356332
 10
8.9866633219
 20
-17.2648892526
 10
9.0905496183
 20
-17.1759379076
 10
9.1921792307
 20
-17.078435785
 10
9.2917413108
 20
-16.9723518134
 10
9.3890467069
 20
-16.8577170642
 10
9.4817357081
 20
-16.7335789371
 10
9.5700964995
 20
-16.5997789794
 10
9.6538408961
 20
-16.4564756438
 10
9.7297446313
 20
-16.3031916889
 10
9.7981326807
 20
-16.1396518693
 10
9.8586800687
 20
-15.9661314304
 10
9.9071876028
 20
-15.7829788669
 10
9.9422555519
 20
-15.5903103439
 10
9.965283647
 20
-15.3880096964
 10
9.9762718881
 20
-15.1760769243
  0
LWPOLYLINE
  5
27E
100
AcDbEntity
  8
RACCORDO
100
AcDbPolyline
 62
250
  6
CONTINUOUS
 90
31
 70
0
 10
7.2767497206
 20
-18.3771171337
 10
7.4101057961
 20
-18.3743273067
 10
7.542748698
 20
-18.366023074
 10
7.6744534639
 20
-18.3522786484
 10
7.8048083945
 20
-18.3332092991
 10
7.9337956722
 20
-18.3088898987
 10
8.0617768081
 20
-18.279275846
 10
8.1883243637
 20
-18.2444668078
 10
8.3134354734
 20
-18.204464222
 10
8.4380504392
 20
-18.1588734239
 10
8.5615198114
 20
-18.107781906
 10
8.6839543239
 20
-18.0509895605
 10
8.8072404996
 20
-17.9872586143
 10
8.9313167143
 20
-17.9160273637
 10
9.0552616238
 20
-17.8371989589
 10
9.1794002662
 20
-17.7498526474
 10
9.3032089732
 20
-17.6534870622
 10
9.4257786809
 20
-17.5478785798
 10
9.5466430409
 20
-17.4323987391
 10
9.6648258221
 20
-17.3068277105
 10
9.7794235097
 20
-17.1708705524
 10
9.8898379405
 20
-17.0237454617
 10
9.99484083
 20
-16.8653326764
 10
10.093171078
 20
-16.6955628457
 10
10.1838421879
 20
-16.5137250341
 10
10.2652641458
 20
-16.3200432877
 10
10.3358586285
 20
-16.1147413493
 10
10.3942086341
 20
-15.8971991222
 10
10.4384262289
 20
-15.6676790263
 10
10.4664180803
 20
-15.4274322411
 10
10.4761957357
 20
-15.1776203039
  0
LWPOLYLINE
  5
27F
100
AcDbEntity
  8
RACCORDO
100
AcDbPolyline
 62
250
  6
CONTINUOUS
 90
14
 70
0
 10
-2.4372766475
 20
-18.0410186568
 10
-2.2333450085
 20
-18.0397151579
 10
-2.0271864178
 20
-18.0379484528
 10
-1.820894996
 20
-18.0357163185
 10
-1.6158776527
 20
-18.0329256703
 10
-1.4153492394
 20
-18.0295671704
 10
-1.2221912919
 20
-18.0256439487
 10
-1.0383916186
 20
-18.0210806282
 10
-0.8675345262
 20
-18.0158115247
 10
-0.7155277567
 20
-18.0099011366
 10
-0.5882472831
 20
-18.0034719599
 10
-0.4904766049
 20
-17.9965706851
 10
-0.4264179389
 20
-17.9891671694
 10
-0.4003818199
 20
-17.98127372
  0
LWPOLYLINE
  5
280
100
AcDbEntity
  8
RACCORDO
100
AcDbPolyline
 62
250
  6
CONTINUOUS
 90
14
 70
0
 10
-2.3267920706
 20
-18.5424431393
 10
-2.0847185885
 20
-18.5411024506
 10
-1.8390643918
 20
-18.5392860734
 10
-1.5909725363
 20
-18.5369963658
 10
-1.3481958613
 20
-18.5341297589
 10
-1.1094463009
 20
-18.5306782968
 10
-0.876011921
 20
-18.5266499355
 10
-0.6595097582
 20
-18.5219649735
 10
-0.4578430937
 20
-18.5165484318
 10
-0.2731086462
 20
-18.5104752894
 10
-0.1232136084
 20
-18.5038907811
 10
-0.0141270443
 20
-18.4968433185
 10
0.0601201101
 20
-18.4892844901
 10
0.099527855
 20
-18.4812142958
  0
LINE
  5
281
100
AcDbEntity
  8
RACCORDO
100
AcDbLine
 62
250
  6
CONTINUOUS
 10
-2.8324101397
 20
-18.0423548711
 11
-2.4372766475
 21
-18.0410186568
  0
LINE
  5
282
100
AcDbEntity
  8
RACCORDO
100
AcDbLine
 62
250
  6
CONTINUOUS
 10
-2.7993023865
 20
-18.5438151694
 11
-2.3267920706
 21
-18.5424431393
  0
LINE
  5
283
100
AcDbEntity
  8
RACCORDO
100
AcDbLine
 62
250
  6
CONTINUOUS
 10
-7.2766831112
 20
-18.3771171395
 11
-6.1877475416
 21
-18.3771171395
  0
LINE
  5
284
100
AcDbEntity
  8
RACCORDO
100
AcDbLine
 62
250
  6
CONTINUOUS
 10
0.1877475416
 20
-18.3771171395
 11
7.2767497248
 21
-18.3771171395
  0
LINE
  5
285
100
AcDbEntity
  8
RACCORDO
100
AcDbLine
 62
250
  6
CONTINUOUS
 10
-7.2766831112
 20
-17.8756523793
 11
-5.69639891
 21
-17.8756523793
  0
LINE
  5
286
100
AcDbEntity
  8
RACCORDO
100
AcDbLine
 62
250
  6
CONTINUOUS
 10
-0.30360109
 20
-17.8756523793
 11
7.2766831112
 21
-17.8756523793
  0
LINE
  5
287
100
AcDbEntity
  8
DRAFT
100
AcDbLine
 62
7
  6
CONTINUOUS
 10
-5.69639891
 20
-17.1332146874
 11
-0.30360109
 21
-17.1332146874
  0
LINE
  5
288
100
AcDbEntity
  8
RACCORDO
100
AcDbLine
 62
250
  6
CONTINUOUS
 10
-3.2433025181
 20
-18.5437437595
 11
-2.7993023865
 21
-18.5438151694
  0
LINE
  5
289
100
AcDbEntity
  8
RACCORDO
100
AcDbLine
 62
250
  6
CONTINUOUS
 10
-3.2046596653
 20
-18.0422840642
 11
-2.8324101397
 21
-18.0423548711
  0
LINE
  5
28A
100
AcDbEntity
  8
RACCORDO
100
AcDbLine
 62
250
  6
CONTINUOUS
 10
-3.6533747635
 20
-18.5425262706
 11
-3.2433025181
 21
-18.5437437595
  0
LINE
  5
28B
100
AcDbEntity
  8
RACCORDO
100
AcDbLine
 62
250
  6
CONTINUOUS
 10
-3.5487853538
 20
-18.0410925133
 11
-3.2046596653
 21
-18.0422840642
  0
LINE
  5
28C
100
AcDbEntity
  8
RACCORDO
100
AcDbLine
 62
250
  6
CONTINUOUS
 10
-4.0267766243
 20
-18.5403452238
 11
-3.6533747635
 21
-18.5425262706
  0
LINE
  5
28D
100
AcDbEntity
  8
RACCORDO
100
AcDbLine
 62
250
  6
CONTINUOUS
 10
-3.8615143078
 20
-18.0389662549
 11
-3.5487853538
 21
-18.0410925133
  0
LINE
  5
28E
100
AcDbEntity
  8
RACCORDO
100
AcDbLine
 62
250
  6
CONTINUOUS
 10
-4.3615630286
 20
-18.5374556652
 11
-4.0267766243
 21
-18.5403452238
  0
LINE
  5
28F
100
AcDbEntity
  8
RACCORDO
100
AcDbLine
 62
250
  6
CONTINUOUS
 10
-4.1422891337
 20
-18.0361482205
 11
-3.8615143078
 21
-18.0389662549
  0
LINE
  5
290
100
AcDbEntity
  8
RACCORDO
100
AcDbLine
 62
250
  6
CONTINUOUS
 10
-4.659091113
 20
-18.5340434604
 11
-4.3615630286
 21
-18.5374556652
  0
LINE
  5
291
100
AcDbEntity
  8
RACCORDO
100
AcDbLine
 62
250
  6
CONTINUOUS
 10
-4.3917472266
 20
-18.0328183485
 11
-4.1422891337
 21
-18.0361482205
  0
LINE
  5
292
100
AcDbEntity
  8
RACCORDO
100
AcDbLine
 62
250
  6
CONTINUOUS
 10
-5.037682295
 20
-18.52822547
 11
-4.659091113
 21
-18.5340434604
  0
LWPOLYLINE
  5
293
100
AcDbEntity
  8
RACCORDO
100
AcDbPolyline
 62
7
  6
CONTINUOUS
 90
8
 70
0
 10
9.8721393092
 20
-18.2244789386
 10
9.8866768348
 20
-18.2247356501
 10
9.9132575203
 20
-18.221435774
 10
9.9396443954
 20
-18.2145455418
 10
9.9644742777
 20
-18.204400583
 10
9.9872927728
 20
-18.1911127742
 10
10.0085542751
 20
-18.174570239
 10
10.0282587846
 20
-18.1547729772
  0
LINE
  5
294
100
AcDbEntity
  8
RACCORDO
100
AcDbLine
 62
250
  6
CONTINUOUS
 10
-4.7091248456
 20
-18.0271441315
 11
-4.3917472266
 21
-18.0328183485
  0
LINE
  5
295
100
AcDbEntity
  8
RACCORDO
100
AcDbLine
 62
250
  6
CONTINUOUS
 10
-5.3406806716
 20
-18.5219740811
 11
-5.037682295
 21
-18.52822547
  0
LINE
  5
296
100
AcDbEntity
  8
RACCORDO
100
AcDbLine
 62
250
  6
CONTINUOUS
 10
-4.9630858669
 20
-18.0210471807
 11
-4.7091248456
 21
-18.0271441315
  0
LINE
  5
297
100
AcDbEntity
  8
RACCORDO
100
AcDbLine
 62
250
  6
CONTINUOUS
 10
-5.5054948383
 20
-18.5176992489
 11
-5.3406806716
 21
-18.5219740811
  0
LINE
  5
298
100
AcDbEntity
  8
RACCORDO
100
AcDbLine
 62
250
  6
CONTINUOUS
 10
-5.1014295864
 20
-18.0168787649
 11
-4.9630858669
 21
-18.0210471807
  0
LINE
  5
299
100
AcDbEntity
  8
RACCORDO
100
AcDbLine
 62
250
  6
CONTINUOUS
 10
-5.6471126711
 20
-18.5133322626
 11
-5.5054948383
 21
-18.5176992489
  0
LINE
  5
29A
100
AcDbEntity
  8
RACCORDO
100
AcDbLine
 62
250
  6
CONTINUOUS
 10
-5.2201087281
 20
-18.0126194247
 11
-5.1014295864
 21
-18.0168787649
  0
LWPOLYLINE
  5
29B
100
AcDbEntity
  8
RACCORDO
100
AcDbPolyline
 62
7
  6
CONTINUOUS
 90
10
 70
0
 10
0.1877475416
 20
-18.3771171395
 10
0.1176914561
 20
-18.3704543629
 10
0.0460239118
 20
-18.3528198819
 10
-0.0253207789
 20
-18.3232060035
 10
-0.0931770123
 20
-18.2814604813
 10
-0.1560312876
 20
-18.2270842056
 10
-0.2130175293
 20
-18.1580426981
 10
-0.2602448294
 20
-18.0735243262
 10
-0.2920833665
 20
-17.9755566494
 10
-0.30360109
 20
-17.8670772056
  0
LINE
  5
29C
100
AcDbEntity
  8
DRAFT
100
AcDbLine
 62
7
  6
CONTINUOUS
 10
4.25
 20
-18.9231058756
 11
4.8671444325
 21
-18.9951938576
  0
LWPOLYLINE
  5
29D
100
AcDbEntity
  8
DRAFT
100
AcDbPolyline
 62
7
  6
CONTINUOUS
 90
35
 70
0
 10
5.1932624094
 20
-22.6630547838
 10
5.1654535884
 20
-22.6487108368
 10
5.1370357436
 20
-22.6361964783
 10
5.108008875
 20
-22.6255117083
 10
5.0782565053
 20
-22.6166294918
 10
5.0478951117
 20
-22.6095768637
 10
5.0172741261
 20
-22.6044349296
 10
4.9863903565
 20
-22.6012257142
 10
4.9552469947
 20
-22.5999271927
 10
4.9242030482
 20
-22.6005543965
 10
4.8932599914
 20
-22.6031294767
 10
4.8624163498
 20
-22.6076302823
 10
4.8320267073
 20
-22.614005391
 10
4.8020958903
 20
-22.6222764857
 10
4.7726190723
 20
-22.6324218834
 10
4.7439363579
 20
-22.6443251133
 10
4.7160570181
 20
-22.658006452
 10
4.6889717819
 20
-22.6734456229
 10
4.6629929413
 20
-22.6904653254
 10
4.6381330684
 20
-22.7090840109
 10
4.6143795911
 20
-22.7292832281
 10
4.5920070855
 20
-22.750830322
 10
4.5710314399
 20
-22.7737412599
 10
4.551436766
 20
-22.7980000744
 10
4.533449975
 20
-22.8233262083
 10
4.5170900443
 20
-22.849731637
 10
4.5023379965
 20
-22.877204385
 10
4.4893638114
 20
-22.9054279683
 10
4.4781878494
 20
-22.9344154908
 10
4.46878975
 20
-22.9641538485
 10
4.461278411
 20
-22.994287245
 10
4.4556761855
 20
-23.0248036621
 10
4.4519607203
 20
-23.055715118
 10
4.4501738534
 20
-23.0867018712
 10
4.4501659161
 20
-23.0873193519
  0
LWPOLYLINE
  5
29E
100
AcDbEntity
  8
RACCORDO
100
AcDbPolyline
 62
250
  6
CONTINUOUS
 90
13
 70
0
 10
-5.599603415
 20
-17.9812937252
 10
-5.595368657
 20
-17.9839274701
 10
-5.5866028537
 20
-17.9865247528
 10
-5.5734405137
 20
-17.9890850064
 10
-5.5560520294
 20
-17.9916071171
 10
-5.5345657435
 20
-17.9940911726
 10
-5.5090016765
 20
-17.99653842
 10
-5.4794558854
 20
-17.9989484181
 10
-5.4460297422
 20
-18.0013206576
 10
-5.4086438211
 20
-18.003656214
 10
-5.3673587558
 20
-18.0059548713
 10
-5.3222340237
 20
-18.0082158546
 10
-5.2201087281
 20
-18.0126194247
  0
LINE
  5
29F
100
AcDbEntity
  8
DRAFT
100
AcDbLine
 62
7
  6
CONTINUOUS
 10
-5.6702163126
 20
-17.1510173057
 11
-5.5996040074
 21
-17.1990294986
  0
LWPOLYLINE
  5
2A0
100
AcDbEntity
  8
RACCORDO
100
AcDbPolyline
 62
7
  6
CONTINUOUS
 90
10
 70
0
 10
-10.9426253515
 20
-17.072917242
 10
-10.9849983628
 20
-17.0135000973
 10
-11.0226704521
 20
-16.9516183188
 10
-11.0556416195
 20
-16.8872719065
 10
-11.0840877635
 20
-16.8199487469
 10
-11.1078329855
 20
-16.7501609535
 10
-11.1263495897
 20
-16.6794448664
 10
-11.1394616776
 20
-16.6083125987
 10
-11.1473451477
 20
-16.5362520373
 10
-11.15
 20
-16.4632631821
  0
LINE
  5
2A1
100
AcDbEntity
  8
RACCORDO
100
AcDbLine
 62
250
  6
CONTINUOUS
 10
-10.0282587846
 20
18.1641977396
 11
-10.0017445951
 21
18.2307452228
  0
LWPOLYLINE
  5
2A2
100
AcDbEntity
  8
RACCORDO
100
AcDbPolyline
 62
7
  6
CONTINUOUS
 90
31
 70
0
 10
-0.75
 20
-15.6021794614
 10
-0.3485447513
 20
-15.5752280255
 10
0.0457842349
 20
-15.4948357526
 10
0.4259003911
 20
-15.3624140606
 10
0.7852964713
 20
-15.1801137372
 10
1.1171157902
 20
-14.95128973
 10
1.4145623898
 20
-14.680869546
 10
1.6735446016
 20
-14.3727195402
 10
1.8884809443
 20
-14.0336490229
 10
2.053756821
 20
-13.6755236769
 10
2.169090329
 20
-13.3054175368
 10
2.2350210299
 20
-12.9305438998
 10
2.2532000149
 20
-12.5641699062
 10
2.2287437665
 20
-12.2147460326
 10
2.1670927772
 20
-11.8839702582
 10
2.0730759886
 20
-11.5737869327
 10
1.9516454347
 20
-11.2867336051
 10
1.8076269906
 20
-11.0243331721
 10
1.6446577586
 20
-10.7860643817
 10
1.4667565999
 20
-10.5723793698
 10
1.2777378005
 20
-10.3832495239
 10
1.0798331243
 20
-10.2171851111
 10
0.8759356527
 20
-10.0735858356
 10
0.6688124947
 20
-9.951662016
 10
0.4596501147
 20
-9.8497800538
 10
0.2503250657
 20
-9.7668907235
 10
0.0428030364
 20
-9.7019360477
 10
-0.1621536939
 20
-9.653500039
 10
-0.3634831949
 20
-9.6203845962
 10
-0.5597576446
 20
-9.6014410811
 10
-0.75
 20
-9.5954098575
  0
LINE
  5
2A3
100
AcDbEntity
  8
RACCORDO
100
AcDbLine
 62
7
  6
CONTINUOUS
 10
-5.25
 20
-15.6021794614
 11
-0.75
 21
-15.6021794614
  0
LINE
  5
2A4
100
AcDbEntity
  8
RACCORDO
100
AcDbLine
 62
250
  6
CONTINUOUS
 10
-5.25
 20
-14.9978238913
 11
-5.6256856287
 21
-14.9650421392
  0
LWPOLYLINE
  5
2A5
100
AcDbEntity
  8
RACCORDO
100
AcDbPolyline
 62
250
  6
CONTINUOUS
 90
9
 70
0
 10
-5.6256856287
 20
-14.9650421392
 10
-5.9774148649
 20
-14.8835360466
 10
-6.3051877086
 20
-14.7533056132
 10
-6.6152764218
 20
-14.5692474931
 10
-6.9014087425
 20
-14.3364650324
 10
-7.1447678844
 20
-14.0702682692
 10
-7.3422625789
 20
-13.7670816985
 10
-7.4969840946
 20
-13.4304808253
 10
-7.5993894521
 20
-13.086502203
  0
LINE
  5
2A6
100
AcDbEntity
  8
RACCORDO
100
AcDbLine
 62
250
  6
CONTINUOUS
 10
-6.1877475416
 20
-18.3771171395
 11
-6.099527855
 21
-18.4812142958
  0
LINE
  5
2A7
100
AcDbEntity
  8
RACCORDO
100
AcDbLine
 62
250
  6
CONTINUOUS
 10
-5.69639891
 20
-17.8670772056
 11
-5.5996034152
 21
-17.981293614
  0
LINE
  5
2A8
100
AcDbEntity
  8
RACCORDO
100
AcDbLine
 62
250
  6
CONTINUOUS
 10
-10.0017445951
 20
-18.2307452228
 11
-10.0282587846
 21
-18.1547729772
  0
LINE
  5
2A9
100
AcDbEntity
  8
RACCORDO
100
AcDbLine
 62
250
  6
CONTINUOUS
 10
-0.099527855
 20
18.6474333256
 11
-0.1877475416
 21
18.5750919793
  0
LINE
  5
2AA
100
AcDbEntity
  8
RACCORDO
100
AcDbLine
 62
250
  6
CONTINUOUS
 10
0.4003772708
 20
18.1474965929
 11
0.30360109
 21
18.0681388047
  0
LWPOLYLINE
  5
2AB
100
AcDbEntity
  8
DRAFT
100
AcDbPolyline
 62
7
  6
CONTINUOUS
 90
5
 70
0
 10
0.1173540417
 20
14.4261296855
 10
0.3634458398
 20
14.5025208534
 10
0.618378065
 20
14.5395882158
 10
0.881621935
 20
14.5395882158
 10
1.1365541602
 20
14.5025208534
  0
LWPOLYLINE
  5
2AC
100
AcDbEntity
  8
RACCORDO
100
AcDbPolyline
 62
7
  6
CONTINUOUS
 90
10
 70
0
 10
9.8025284143
 20
18.2945882183
 10
9.8064426068
 20
18.2957247472
 10
9.8334020108
 20
18.2998221148
 10
9.8601732158
 20
18.3003361357
 10
9.8867324377
 20
18.2970843501
 10
9.9131034604
 20
18.2902492179
 10
9.9379261963
 20
18.2801643754
 10
9.9607472828
 20
18.2669410348
 10
9.9820200823
 20
18.250467984
 10
10.001744595
 20
18.2307452229
  0
LINE
  5
2AD
100
AcDbEntity
  8
0
100
AcDbLine
 62
7
  6
CONTINUOUS
 10
6.1316941083
 20
-13.8523185059
 11
6.0005080312
 21
-13.8895440274
  0
LWPOLYLINE
  5
2AE
100
AcDbEntity
  8
0
100
AcDbPolyline
 62
7
  6
CONTINUOUS
 90
3
 70
0
 10
6.3260133991
 20
-13.7975354213
 10
6.196750994
 20
-13.8338000903
 10
6.1316941083
 20
-13.8523185059
  0
LINE
  5
2AF
100
AcDbEntity
  8
0
100
AcDbLine
 62
7
  6
CONTINUOUS
 10
6.3421480473
 20
-14.1814749044
 11
6.5147156472
 21
-14.1354273136
  0
LINE
  5
2B0
100
AcDbEntity
  8
0
100
AcDbLine
 62
7
  6
CONTINUOUS
 10
6.0005080312
 20
-14.2709986301
 11
6.3421480473
 21
-14.1814749044
  0
LWPOLYLINE
  5
2B1
100
AcDbEntity
  8
0
100
AcDbPolyline
 62
7
  6
CONTINUOUS
 90
10
 70
0
 10
6.5147156472
 20
-14.1354273136
 10
6.5699677866
 20
-14.1212519723
 10
6.6225893859
 20
-14.1044493498
 10
6.6725804451
 20
-14.0850194461
 10
6.7208142046
 20
-14.0635051741
 10
6.766417424
 20
-14.039363621
 10
6.8067703822
 20
-14.0109660478
 10
6.8409998388
 20
-13.9777695417
 10
6.8699790341
 20
-13.9403170155
 10
6.8937079683
 20
-13.8986084694
  0
LWPOLYLINE
  5
2B2
100
AcDbEntity
  8
RACCORDO
100
AcDbPolyline
 62
250
  6
CONTINUOUS
 90
31
 70
0
 10
-0.75
 20
-15.3012677084
 10
-0.3796658217
 20
-15.2738994887
 10
-0.0277307951
 20
-15.2023393751
 10
0.3058050799
 20
-15.0865873677
 10
0.6264318631
 20
-14.92270872
 10
0.9286594946
 20
-14.7146381785
 10
1.1960177952
 20
-14.4741799823
 10
1.4260429521
 20
-14.1980575073
 10
1.621198778
 20
-13.8895473776
 10
1.7724065313
 20
-13.5702837048
 10
1.8746696338
 20
-13.2398884194
 10
1.9329846637
 20
-12.8987395909
 10
1.9532626135
 20
-12.5696055399
 10
1.9330926478
 20
-12.2573155162
 10
1.874885602
 20
-11.9570402699
 10
1.7917849749
 20
-11.6770603719
 10
1.684430034
 20
-11.4195937421
 10
1.5521815117
 20
-11.1824224607
 10
1.4062651043
 20
-10.9671733389
 10
1.2477143374
 20
-10.7749706549
 10
1.0754956854
 20
-10.6046901305
 10
0.8977342671
 20
-10.4545857424
 10
0.7153444814
 20
-10.3250907087
 10
0.5274119293
 20
-10.2157718113
 10
0.3393185331
 20
-10.1235833718
 10
0.151678425
 20
-10.0486100617
 10
-0.0361225272
 20
-9.9907672096
 10
-0.2205447983
 20
-9.9467551227
 10
-0.4004085466
 20
-9.9154739036
 10
-0.5768936138
 20
-9.8980234497
 10
-0.75
 20
-9.8944037612
  0
LWPOLYLINE
  5
2B3
100
AcDbEntity
  8
RACCORDO
100
AcDbPolyline
 62
250
  6
CONTINUOUS
 90
3
 70
0
 10
-10.4437534504
 20
-15.1770904866
 10
-10.4672695391
 20
-15.1773509865
 10
-10.4761957357
 20
-15.177620304
  0
LINE
  5
2B4
100
AcDbEntity
  8
0
100
AcDbLine
 62
7
  6
CONTINUOUS
 10
-4.8501149091
 20
-14.3067458643
 11
-5.6403991182
 21
-14.309690475
  0
LINE
  5
2B5
100
AcDbEntity
  8
RACCORDO
100
AcDbLine
 62
250
  6
CONTINUOUS
 10
-10.2237481124
 20
-15.1762828232
 11
-10.4437534504
 21
-15.1770904866
  0
LINE
  5
2B6
100
AcDbEntity
  8
RACCORDO
100
AcDbLine
 62
250
  6
CONTINUOUS
 10
-9.9762718881
 20
-15.1760769243
 11
-10.2237481124
 21
-15.1762828232
  0
LINE
  5
2B7
100
AcDbEntity
  8
RACCORDO
100
AcDbLine
 62
250
  6
CONTINUOUS
 10
-5.25
 20
-15.3012677084
 11
-0.75
 21
-15.3012677084
  0
LINE
  5
2B8
100
AcDbEntity
  8
RACCORDO
100
AcDbLine
 62
250
  6
CONTINUOUS
 10
-0.75
 20
-14.9978238913
 11
-5.25
 21
-14.9978238913
  0
LINE
  5
2B9
100
AcDbEntity
  8
RACCORDO
100
AcDbLine
 62
7
  6
CONTINUOUS
 10
-0.75
 20
-14.6987678479
 11
-5.25
 21
-14.6987678479
  0
LINE
  5
2BA
100
AcDbEntity
  8
0
100
AcDbLine
 62
7
  6
CONTINUOUS
 10
-0.3421312567
 20
-14.3042676
 11
-1.1578687433
 21
-14.3042676
  0
LINE
  5
2BB
100
AcDbEntity
  8
0
100
AcDbLine
 62
7
  6
CONTINUOUS
 10
-4.8421312567
 20
-14.3042676
 11
-5.6578687433
 21
-14.3042676
  0
LINE
  5
2BC
100
AcDbEntity
  8
0
100
AcDbLine
 62
7
  6
CONTINUOUS
 10
0.5214968618
 20
-13.8042700674
 11
-2.0214968618
 21
-13.8042700674
  0
LINE
  5
2BD
100
AcDbEntity
  8
0
100
AcDbLine
 62
7
  6
CONTINUOUS
 10
-3.9785031382
 20
-13.8042700674
 11
-6.5214968618
 21
-13.8042700674
  0
LINE
  5
2BE
100
AcDbEntity
  8
RACCORDO
100
AcDbLine
 62
250
  6
CONTINUOUS
 10
9.9762718881
 20
-15.1760769243
 11
10.2946849406
 21
-15.1764366269
  0
LINE
  5
2BF
100
AcDbEntity
  8
0
100
AcDbLine
 62
7
  6
CONTINUOUS
 10
-0.3596008818
 20
-14.309690475
 11
-1.1498850909
 21
-14.3067458643
  0
LWPOLYLINE
  5
2C0
100
AcDbEntity
  8
RACCORDO
100
AcDbPolyline
 62
250
  6
CONTINUOUS
 90
4
 70
0
 10
10.2946849406
 20
-15.1764366269
 10
10.4437535546
 20
-15.1770904915
 10
10.4672695702
 20
-15.1773509895
 10
10.4761957357
 20
-15.1776203039
  0
LWPOLYLINE
  5
2C1
100
AcDbEntity
  8
RACCORDO
100
AcDbPolyline
 62
7
  6
CONTINUOUS
 90
12
 70
0
 10
-5.25
 20
-14.6987678479
 10
-5.5674547709
 20
-14.6746346459
 10
-5.8775986895
 20
-14.6027942408
 10
-6.1733055879
 20
-14.484904315
 10
-6.4477121638
 20
-14.3237292845
 10
-6.6946020386
 20
-14.1229507806
 10
-6.9084682672
 20
-13.8869810787
 10
-7.0849345405
 20
-13.620054343
 10
-7.2188818733
 20
-13.3291883038
 10
-7.3063715407
 20
-13.0246118604
 10
-7.3469122191
 20
-12.7126158919
 10
-7.35
 20
-12.598778211
  0
LWPOLYLINE
  5
2C2
100
AcDbEntity
  8
DRAFT
100
AcDbPolyline
 62
7
  6
CONTINUOUS
 90
9
 70
0
 10
-10.6993779273
 20
9.7766570583
 10
-10.7016882824
 20
9.7615608846
 10
-10.7038036969
 20
9.7282830347
 10
-10.7057241709
 20
9.6768235086
 10
-10.7074927365
 20
9.6045167304
 10
-10.7090663616
 20
9.5140282759
 10
-10.7103159493
 20
9.4133548728
 10
-10.7112135236
 20
9.301768965
 10
-10.7119913924
 20
9.0582216987
  0
LINE
  5
2C3
100
AcDbEntity
  8
DRAFT
100
AcDbLine
 62
7
  6
CONTINUOUS
 10
-9.2469208341
 20
9.6619151985
 11
-9.3518065102
 21
9.5361482779
  0
LINE
  5
2C4
100
AcDbEntity
  8
RACCORDO
100
AcDbLine
 62
7
  6
CONTINUOUS
 10
2.5
 20
18.9545217505
 11
2.4969744882
 21
18.9520407896
  0
LINE
  5
2C5
100
AcDbEntity
  8
RACCORDO
100
AcDbLine
 62
7
  6
CONTINUOUS
 10
-10.6993779273
 20
9.7766570583
 11
-10.4761957357
 21
9.8907762393
  0
LWPOLYLINE
  5
2C6
100
AcDbEntity
  8
DRAFT
100
AcDbPolyline
 62
7
  6
CONTINUOUS
 90
5
 70
0
 10
4.6173540417
 20
14.4261296855
 10
4.8634458398
 20
14.5025208534
 10
5.118378065
 20
14.5395882158
 10
5.381621935
 20
14.5395882158
 10
5.6365541602
 20
14.5025208534
  0
LINE
  5
2C7
100
AcDbEntity
  8
0
100
AcDbLine
 62
7
  6
CONTINUOUS
 10
6.379785
 20
-12.2501219316
 11
6.000508
 21
-12.3528554246
  0
LINE
  5
2C8
100
AcDbEntity
  8
0
100
AcDbLine
 62
7
  6
CONTINUOUS
 10
7.378325
 20
-11.9886392219
 11
6.673268
 21
-12.1708683227
  0
LWPOLYLINE
  5
2C9
100
AcDbEntity
  8
0
100
AcDbPolyline
 62
7
  6
CONTINUOUS
 90
3
 70
0
 10
-4.75
 20
-13.3141685353
 10
-4.7166715219
 20
-13.313100678
 10
-4.6156178799
 20
-13.3120557649
  0
LWPOLYLINE
  5
2CA
100
AcDbEntity
  8
RACCORDO
100
AcDbPolyline
 62
250
  6
CONTINUOUS
 90
7
 70
0
 10
-6.4044089061
 20
-12.3060053427
 10
-6.420623773
 20
-12.3062022211
 10
-6.4367254327
 20
-12.3067688724
 10
-6.4527138852
 20
-12.3077052968
 10
-6.4685891306
 20
-12.3090114943
 10
-6.4843511689
 20
-12.3106874647
 10
-6.5
 20
-12.3127332081
  0
LINE
  5
2CB
100
AcDbEntity
  8
RACCORDO
100
AcDbLine
 62
250
  6
CONTINUOUS
 10
-6.9716890725
 20
-12.3137728385
 11
-6.9129879702
 21
-12.3134051114
  0
LINE
  5
2CC
100
AcDbEntity
  8
0
100
AcDbLine
 62
7
  6
CONTINUOUS
 10
-4.6156178799
 20
-13.3120557649
 11
-4.2331098674
 21
-13.3102674729
  0
LINE
  5
2CD
100
AcDbEntity
  8
0
100
AcDbLine
 62
7
  6
CONTINUOUS
 10
-4.2331098674
 20
-13.3102674729
 11
-3.6527428022
 21
-13.3090675154
  0
LINE
  5
2CE
100
AcDbEntity
  8
RACCORDO
100
AcDbLine
 62
250
  6
CONTINUOUS
 10
-6.9129879702
 20
-12.3134051114
 11
-6.6469402503
 21
-12.3127891454
  0
LINE
  5
2CF
100
AcDbEntity
  8
ASSI
100
AcDbLine
 62
7
  6
CONTINUOUS
 10
-1.25
 20
-13.3223366628
 11
0.0610565082
 21
-13.3222551324
  0
LINE
  5
2D0
100
AcDbEntity
  8
ASSI
100
AcDbLine
 62
7
  6
CONTINUOUS
 10
0.0397368307
 20
-13.3060004079
 11
-2.3485974945
 21
-13.3060004079
  0
LINE
  5
2D1
100
AcDbEntity
  8
ASSI
100
AcDbLine
 62
7
  6
CONTINUOUS
 10
-3.6514025055
 20
-13.3060004079
 11
-6.0397368307
 21
-13.3060004079
  0
LINE
  5
2D2
100
AcDbEntity
  8
0
100
AcDbLine
 62
7
  6
CONTINUOUS
 10
6.0005080312
 20
-13.2822512039
 11
6.7440026937
 21
-13.2822512039
  0
LINE
  5
2D3
100
AcDbEntity
  8
0
100
AcDbLine
 62
7
  6
CONTINUOUS
 10
7.055151513
 20
-13.269101527
 11
7.5766962005
 21
-13.269101527
  0
LINE
  5
2D4
100
AcDbEntity
  8
0
100
AcDbLine
 62
7
  6
CONTINUOUS
 10
7.8781572359
 20
-12.8872765109
 11
6.0005080312
 21
-12.8872765109
  0
LINE
  5
2D5
100
AcDbEntity
  8
RACCORDO
100
AcDbLine
 62
250
  6
CONTINUOUS
 10
-6.6469402503
 20
-12.3127891454
 11
-6.5
 21
-12.3127197826
  0
LINE
  5
2D6
100
AcDbEntity
  8
RACCORDO
100
AcDbLine
 62
250
  6
CONTINUOUS
 10
0.4044089061
 20
-12.3060053427
 11
-2.4698965123
 21
-12.3060053427
  0
LINE
  5
2D7
100
AcDbEntity
  8
RACCORDO
100
AcDbLine
 62
250
  6
CONTINUOUS
 10
-3.5301034877
 20
-12.3060053427
 11
-6.4044089061
 21
-12.3060053427
  0
LINE
  5
2D8
100
AcDbEntity
  8
0
100
AcDbLine
 62
7
  6
CONTINUOUS
 10
-2.3472571382
 20
-13.3090675155
 11
-1.7733978391
 21
-13.3102472764
  0
LINE
  5
2D9
100
AcDbEntity
  8
RACCORDO
100
AcDbLine
 62
250
  6
CONTINUOUS
 10
0.5
 20
-12.3127197826
 11
0.8402769651
 21
-12.3131396589
  0
LINE
  5
2DA
100
AcDbEntity
  8
ASSI
100
AcDbLine
 62
7
  6
CONTINUOUS
 10
-6.0610565902
 20
-13.3222551321
 11
-4.75
 21
-13.3223366628
  0
LWPOLYLINE
  5
2DB
100
AcDbEntity
  8
0
100
AcDbPolyline
 62
7
  6
CONTINUOUS
 90
4
 70
0
 10
-1.7733978391
 20
-13.3102472764
 10
-1.3879195672
 20
-13.3120292626
 10
-1.2851287067
 20
-13.3130725019
 10
-1.25
 20
-13.3141685355
  0
LWPOLYLINE
  5
2DC
100
AcDbEntity
  8
RACCORDO
100
AcDbPolyline
 62
250
  6
CONTINUOUS
 90
3
 70
0
 10
0.8402769651
 20
-12.3131396589
 10
0.9655769872
 20
-12.3137178237
 10
0.9716890728
 20
-12.3137728399
  0
LWPOLYLINE
  5
2DD
100
AcDbEntity
  8
0
100
AcDbPolyline
 62
7
  6
CONTINUOUS
 90
6
 70
0
 10
7.3503867227
 20
-13.8037933177
 10
7.2904200558
 20
-13.7992971595
 10
7.2368057148
 20
-13.7867024461
 10
7.1895436997
 20
-13.7660091776
 10
7.1480495267
 20
-13.7363300334
 10
7.1129076796
 20
-13.6985523341
  0
LWPOLYLINE
  5
2DE
100
AcDbEntity
  8
RACCORDO
100
AcDbPolyline
 62
250
  6
CONTINUOUS
 90
7
 70
0
 10
0.5
 20
-12.3127332081
 10
0.4843511689
 20
-12.3106874647
 10
0.4685891306
 20
-12.3090114943
 10
0.4527138852
 20
-12.3077052968
 10
0.4367254327
 20
-12.3067688724
 10
0.420623773
 20
-12.3062022211
 10
0.4044089061
 20
-12.3060053427
  0
LINE
  5
2DF
100
AcDbEntity
  8
DRAFT
100
AcDbLine
 62
7
  6
CONTINUOUS
 10
-9.2469208341
 20
-9.4702783619
 11
-9.3518065102
 21
-9.4200270868
  0
LWPOLYLINE
  5
2E0
100
AcDbEntity
  8
DRAFT
100
AcDbPolyline
 62
7
  6
CONTINUOUS
 90
10
 70
0
 10
5.1932624094
 20
-22.6630547838
 10
5.1894875525
 20
-22.6595693385
 10
5.1856839356
 20
-22.6561127343
 10
5.1818516899
 20
-22.6526854085
 10
5.1779914079
 20
-22.6492880304
 10
5.1741027808
 20
-22.6459208
 10
5.1701845782
 20
-22.6425834873
 10
5.1662364755
 20
-22.6392763499
 10
5.1622590739
 20
-22.6360000935
 10
5.1582525237
 20
-22.6327551976
  0
LWPOLYLINE
  5
2E1
100
AcDbEntity
  8
RACCORDO
100
AcDbPolyline
 62
7
  6
CONTINUOUS
 90
10
 70
0
 10
-11.1238174026
 20
-16.4496423175
 10
-11.1211597977
 20
-16.5226679663
 10
-11.1132685454
 20
-16.5947637003
 10
-11.1001436456
 20
-16.6659295197
 10
-11.0816090312
 20
-16.7366779491
 10
-11.0578407694
 20
-16.8064964637
 10
-11.0293670616
 20
-16.8738474891
 10
-10.9963639749
 20
-16.9382185003
 10
-10.9586554422
 20
-17.0001220222
 10
-10.9162414635
 20
-17.0595580548
  0
LWPOLYLINE
  5
2E2
100
AcDbEntity
  8
RACCORDO
100
AcDbPolyline
 62
250
  6
CONTINUOUS
 90
31
 70
0
 10
-9.9762718881
 20
-15.1760769243
 10
-9.9738041978
 20
-15.2889734555
 10
-9.9668205434
 20
-15.400880467
 10
-9.9553209252
 20
-15.5117979588
 10
-9.9392814381
 20
-15.6217411989
 10
-9.9187259871
 20
-15.7306949193
 10
-9.8937262866
 20
-15.8386133162
 10
-9.8644260039
 20
-15.9453565568
 10
-9.8306814717
 20
-16.0510644738
 10
-9.7921334028
 20
-16.1561107621
 10
-9.7491175761
 20
-16.2603067711
 10
-9.7012982127
 20
-16.3638411514
 10
-9.6473086887
 20
-16.4676535485
 10
-9.5871384099
 20
-16.5723046587
 10
-9.5207979706
 20
-16.6772337858
 10
-9.44695253
 20
-16.7816984869
 10
-9.3655057474
 20
-16.8860486966
 10
-9.2765539635
 20
-16.9899344804
 10
-9.1790513597
 20
-17.0915635912
 10
-9.0729668646
 20
-17.19112518
 10
-8.9583315497
 20
-17.2884300959
 10
-8.83419281
 20
-17.3811186397
 10
-8.700392192
 20
-17.4694789951
 10
-8.5570881492
 20
-17.5532229784
 10
-8.4038034379
 20
-17.6291263391
 10
-8.2402628112
 20
-17.6975140509
 10
-8.066741516
 20
-17.7580611402
 10
-7.8835880488
 20
-17.8065684349
 10
-7.690918575
 20
-17.841636211
 10
-7.4886169291
 20
-17.8646641924
 10
-7.2766831112
 20
-17.8756523793
  0
LWPOLYLINE
  5
2E3
100
AcDbEntity
  8
RACCORDO
100
AcDbPolyline
 62
250
  6
CONTINUOUS
 90
31
 70
0
 10
-10.4761957307
 20
-15.1776869122
 10
-10.4734069975
 20
-15.3110412221
 10
-10.4651037909
 20
-15.4436824023
 10
-10.4513603158
 20
-15.5753855
 10
-10.4322918259
 20
-15.7057388337
 10
-10.4079731972
 20
-15.8347245832
 10
-10.3783598451
 20
-15.9627042409
 10
-10.3435514188
 20
-16.0892503883
 10
-10.3035493563
 20
-16.2143601599
 10
-10.2579590201
 20
-16.3389738239
 10
-10.2068678641
 20
-16.4624419727
 10
-10.1500757827
 20
-16.5848753367
 10
-10.0863450557
 20
-16.7081603704
 10
-10.015113912
 20
-16.8322355143
 10
-9.9362854759
 20
-16.9561794545
 10
-9.8489390714
 20
-17.0803171462
 10
-9.7525732589
 20
-17.204124994
 10
-9.6469643657
 20
-17.3266939865
 10
-9.5314840232
 20
-17.4475576821
 10
-9.4059123263
 20
-17.5657399286
 10
-9.2699542751
 20
-17.6803372729
 10
-9.1228281685
 20
-17.7907514486
 10
-8.9644141631
 20
-17.8957542583
 10
-8.7946428417
 20
-17.994084674
 10
-8.6128033754
 20
-18.0847560938
 10
-8.4191197331
 20
-18.1661785901
 10
-8.2138155876
 20
-18.2367739183
 10
-7.9962709406
 20
-18.2951249824
 10
-7.766748195
 20
-18.3393438761
 10
-7.5264984193
 20
-18.3673373942
 10
-7.2766831112
 20
-18.3771171395
  0
LWPOLYLINE
  5
2E4
100
AcDbEntity
  8
DRAFT
100
AcDbPolyline
 62
7
  6
CONTINUOUS
 90
7
 70
0
 10
-10.7975838055
 20
-5.7202184304
 10
-10.7963129058
 20
-5.8230971856
 10
-10.7947086136
 20
-5.9155615652
 10
-10.7929003615
 20
-5.989329749
 10
-10.7909312938
 20
-6.0416411302
 10
-10.7887582662
 20
-6.0752563156
 10
-10.7863812788
 20
-6.0901753052
  0
LWPOLYLINE
  5
2E5
100
AcDbEntity
  8
DRAFT
100
AcDbPolyline
 62
7
  6
CONTINUOUS
 90
7
 70
0
 10
-10.710315957
 20
-9.2996538544
 10
-10.7090663761
 20
-9.3998773099
 10
-10.707492759
 20
-9.489799294
 10
-10.7057241965
 20
-9.5614695341
 10
-10.7038037188
 20
-9.6122379391
 10
-10.7016882958
 20
-9.6447546
 10
-10.6993779273
 20
-9.6590195169
  0
LWPOLYLINE
  5
2E6
100
AcDbEntity
  8
DRAFT
100
AcDbPolyline
 62
7
  6
CONTINUOUS
 90
7
 70
0
 10
-10.7975551472
 20
5.0768849539
 10
-10.7962786157
 20
4.974500328
 10
-10.79467106
 20
4.8826394157
 10
-10.7928643605
 20
4.8094238985
 10
-10.7909024771
 20
4.7575610035
 10
-10.7887414499
 20
4.7243435037
 10
-10.7863812788
 20
4.7097713989
  0
LWPOLYLINE
  5
2E7
100
AcDbEntity
  8
DRAFT
100
AcDbPolyline
 62
7
  6
CONTINUOUS
 90
7
 70
0
 10
-10.7103439895
 20
8.7030385464
 10
-10.7090999088
 20
8.6023312783
 10
-10.7075294724
 20
8.5118187206
 10
-10.7057593855
 20
8.4396077881
 10
-10.7038318833
 20
8.3884007858
 10
-10.7017047305
 20
8.3554954087
 10
-10.6993779273
 20
8.3408916567
  0
LWPOLYLINE
  5
2E8
100
AcDbEntity
  8
DRAFT
100
AcDbPolyline
 62
7
  6
CONTINUOUS
 90
3
 70
0
 10
-10.7992667162
 20
-5.3573777305
 10
-10.7990683192
 20
-5.4817922868
 10
-10.7975838055
 20
-5.7202184304
  0
LWPOLYLINE
  5
2E9
100
AcDbEntity
  8
DRAFT
100
AcDbPolyline
 62
7
  6
CONTINUOUS
 90
3
 70
0
 10
-10.7992667162
 20
5.4390594317
 10
-10.7990579786
 20
5.3147324088
 10
-10.7975551472
 20
5.0768849539
  0
LWPOLYLINE
  5
2EA
100
AcDbEntity
  8
DRAFT
100
AcDbPolyline
 62
7
  6
CONTINUOUS
 90
3
 70
0
 10
-10.7119913924
 20
-8.9451249317
 10
-10.7117870612
 20
-9.0668273841
 10
-10.710315957
 20
-9.2996538544
  0
LWPOLYLINE
  5
2EB
100
AcDbEntity
  8
DRAFT
100
AcDbPolyline
 62
7
  6
CONTINUOUS
 90
3
 70
0
 10
-10.7119913924
 20
9.0582216987
 10
-10.71179718
 20
8.9364327799
 10
-10.7103439895
 20
8.7030385464
  0
LINE
  5
2EC
100
AcDbEntity
  8
RACCORDO
100
AcDbLine
 62
7
  6
CONTINUOUS
 10
-11.15
 20
-21.899663077
 11
-11.15
 21
21.899663077
  0
LINE
  5
2ED
100
AcDbEntity
  8
RACCORDO
100
AcDbLine
 62
7
  6
CONTINUOUS
 10
-11.1238174026
 20
16.45906708
 11
-11.1238174026
 21
-16.4496423175
  0
LINE
  5
2EE
100
AcDbEntity
  8
RACCORDO
100
AcDbLine
 62
7
  6
CONTINUOUS
 10
-11.0
 20
-15.7956970221
 11
-11.0
 21
15.8051217845
  0
LINE
  5
2EF
100
AcDbEntity
  8
RACCORDO
100
AcDbLine
 62
250
  6
CONTINUOUS
 10
-10.4761957357
 20
15.3755951438
 11
-10.4761957357
 21
9.8907762393
  0
LINE
  5
2F0
100
AcDbEntity
  8
RACCORDO
100
AcDbLine
 62
250
  6
CONTINUOUS
 10
-10.4761957357
 20
8.3071097742
 11
-10.4761957357
 21
6.3351012548
  0
LINE
  5
2F1
100
AcDbEntity
  8
RACCORDO
100
AcDbLine
 62
250
  6
CONTINUOUS
 10
-10.4761957357
 20
4.6628202892
 11
-10.4761957357
 21
2.7794262704
  0
LINE
  5
2F2
100
AcDbEntity
  8
RACCORDO
100
AcDbLine
 62
250
  6
CONTINUOUS
 10
-10.4761957357
 20
1.0185308042
 11
-10.4761957357
 21
-0.8205559643
  0
LINE
  5
2F3
100
AcDbEntity
  8
RACCORDO
100
AcDbLine
 62
250
  6
CONTINUOUS
 10
-10.4761957357
 20
-2.5814514306
 11
-10.4761957357
 21
-4.4648454493
  0
LINE
  5
2F4
100
AcDbEntity
  8
RACCORDO
100
AcDbLine
 62
250
  6
CONTINUOUS
 10
-10.4761957357
 20
-6.137126415
 11
-10.4761957357
 21
-8.1091349344
  0
LINE
  5
2F5
100
AcDbEntity
  8
RACCORDO
100
AcDbLine
 62
250
  6
CONTINUOUS
 10
-10.4761957357
 20
-9.6928013994
 11
-10.4761957357
 21
-15.1776869172
  0
LWPOLYLINE
  5
2F6
100
AcDbEntity
  8
RACCORDO
100
AcDbPolyline
 62
7
  6
CONTINUOUS
 90
10
 70
0
 10
-11.15
 20
16.4632632131
 10
-11.1473544403
 20
16.5361959327
 10
-11.1394801106
 20
16.6082151967
 10
-11.126377011
 20
16.6793210049
 10
-11.1078721374
 20
16.7500265443
 10
-11.0841384939
 20
16.819818628
 10
-11.0556950924
 20
16.8871576956
 10
-11.0227149368
 20
16.9515305604
 10
-10.9850250232
 20
17.0134504092
 10
-10.9426253515
 20
17.072917242
  0
LWPOLYLINE
  5
2F7
100
AcDbEntity
  8
DRAFT
100
AcDbPolyline
 62
7
  6
CONTINUOUS
 90
9
 70
0
 10
-10.7863812788
 20
6.1764948721
 10
-10.7887582527
 20
6.1607206105
 10
-10.7909312713
 20
6.1263235193
 10
-10.7929003345
 20
6.0733035983
 10
-10.794708588
 20
5.9988847445
 10
-10.7963128863
 20
5.905843061
 10
-10.7975837919
 20
5.802506857
 10
-10.7984927504
 20
5.6881735827
 10
-10.7992667162
 20
5.4390594317
  0
LWPOLYLINE
  5
2F8
100
AcDbEntity
  8
DRAFT
100
AcDbPolyline
 62
7
  6
CONTINUOUS
 90
19
 70
0
 10
-10.8733846303
 20
-1.0236495489
 10
-10.8758117884
 20
-1.0397571116
 10
-10.8780306817
 20
-1.0748805236
 10
-10.8800413104
 20
-1.1290197848
 10
-10.8818877292
 20
-1.2050096272
 10
-10.8835258833
 20
-1.300015319
 10
-10.8848236079
 20
-1.4055326638
 10
-10.8857517464
 20
-1.5222789653
 10
-10.8863394554
 20
-1.6495369198
 10
-10.8865420401
 20
-1.7766504209
 10
-10.8863288973
 20
-1.9036011865
 10
-10.8857306301
 20
-2.0304074986
 10
-10.884794353
 20
-2.1464680972
 10
-10.883490885
 20
-2.2510136027
 10
-10.881849407
 20
-2.3448133948
 10
-10.8800045768
 20
-2.419574352
 10
-10.8780012802
 20
-2.4725321007
 10
-10.8757946313
 20
-2.5064510145
 10
-10.8733846303
 20
-2.5213310936
  0
LWPOLYLINE
  5
2F9
100
AcDbEntity
  8
DRAFT
100
AcDbPolyline
 62
7
  6
CONTINUOUS
 90
19
 70
0
 10
-10.8733846303
 20
2.5763326858
 10
-10.8757946174
 20
2.5605855026
 10
-10.8780012573
 20
2.5258725741
 10
-10.8800045501
 20
2.4721939003
 10
-10.8818493836
 20
2.3967689547
 10
-10.8834908698
 20
2.3023782639
 10
-10.884794345
 20
2.1973634072
 10
-10.8857306264
 20
2.0809654534
 10
-10.8863288966
 20
1.9539433339
 10
-10.8865420401
 20
1.8269154217
 10
-10.8863394525
 20
1.699874461
 10
-10.8857517382
 20
1.5728277076
 10
-10.8848235944
 20
1.4564153028
 10
-10.8835258638
 20
1.3513651207
 10
-10.8818877037
 20
1.2569492871
 10
-10.8800412833
 20
1.1816243205
 10
-10.8780306592
 20
1.1282090604
 10
-10.8758117748
 20
1.0938846673
 10
-10.8733846303
 20
1.0786511411
  0
LINE
  5
2FA
100
AcDbEntity
  8
DRAFT
100
AcDbLine
 62
7
  6
CONTINUOUS
 10
-9.2469208341
 20
6.1062402141
 11
-9.3953727601
 21
5.9282336236
  0
LINE
  5
2FB
100
AcDbEntity
  8
RACCORDO
100
AcDbLine
 62
7
  6
CONTINUOUS
 10
-10.7863812788
 20
6.1764948721
 11
-10.4761957357
 21
6.3351012548
  0
LINE
  5
2FC
100
AcDbEntity
  8
RACCORDO
100
AcDbLine
 62
7
  6
CONTINUOUS
 10
10.6993779273
 20
-9.6590195169
 11
10.4761957357
 21
-9.6928013994
  0
LWPOLYLINE
  5
2FD
100
AcDbEntity
  8
RACCORDO
100
AcDbPolyline
 62
250
  6
CONTINUOUS
 90
3
 70
0
 10
-6.5151365932
 20
-11.8134734213
 10
-6.5426285293
 20
-11.8168035219
 10
-6.5700080354
 20
-11.8208678314
  0
LINE
  5
2FE
100
AcDbEntity
  8
RACCORDO
100
AcDbLine
 62
250
  6
CONTINUOUS
 10
-6.4875503869
 20
-11.8108821105
 11
-6.5151365932
 21
-11.8134734213
  0
LINE
  5
2FF
100
AcDbEntity
  8
0
100
AcDbLine
 62
7
  6
CONTINUOUS
 10
6.000508
 20
-11.1460913798
 11
7.900354
 21
-10.9684352565
  0
LINE
  5
300
100
AcDbEntity
  8
0
100
AcDbLine
 62
7
  6
CONTINUOUS
 10
7.2359
 20
-10.6766626963
 11
6.000508
 21
-10.7581402942
  0
LWPOLYLINE
  5
301
100
AcDbEntity
  8
ASSI
100
AcDbPolyline
 62
7
  6
CONTINUOUS
 90
12
 70
0
 10
-0.2
 20
-11.1245466306
 10
-0.3131201551
 20
-11.1289348268
 10
-0.4243806221
 20
-11.1414708088
 10
-0.5337814009
 20
-11.1621545767
 10
-0.6419113035
 20
-11.1911921637
 10
-0.748181518
 20
-11.2283775365
 10
-0.8508256087
 20
-11.2730925957
 10
-0.949782966
 20
-11.3254631979
 10
-1.0451141996
 20
-11.3853634865
 10
-1.1352347028
 20
-11.451797792
 10
-1.2200573797
 20
-11.5248753287
 10
-1.25
 20
-11.5548178012
  0
LWPOLYLINE
  5
302
100
AcDbEntity
  8
DRAFT
100
AcDbPolyline
 62
7
  6
CONTINUOUS
 90
9
 70
0
 10
-5.8
 20
-11.1245466306
 10
-5.8716622061
 20
-11.1262820374
 10
-5.9428275755
 20
-11.1313724344
 10
-6.013496108
 20
-11.1398178218
 10
-6.0838120461
 20
-11.1516486103
 10
-6.1536311473
 20
-11.1668343891
 10
-6.2225206849
 20
-11.1852839257
 10
-6.2905070602
 20
-11.2070310597
 10
-6.3100210478
 20
-11.2143093991
  0
LWPOLYLINE
  5
303
100
AcDbEntity
  8
RACCORDO
100
AcDbPolyline
 62
250
  6
CONTINUOUS
 90
4
 70
0
 10
-6.4106397502
 20
-11.80759245
 10
-6.4321682061
 20
-11.8079314813
 10
-6.4598881541
 20
-11.8090336317
 10
-6.4875503869
 20
-11.8108821105
  0
LINE
  5
304
100
AcDbEntity
  8
RACCORDO
100
AcDbLine
 62
7
  6
CONTINUOUS
 10
-6.5028870438
 20
-11.8080876521
 11
-6.5028484677
 21
-11.8080874266
  0
LINE
  5
305
100
AcDbEntity
  8
0
100
AcDbLine
 62
7
  6
CONTINUOUS
 10
-6.5027963616
 20
-11.808087131
 11
-6.4105028817
 21
-11.8075917394
  0
LINE
  5
306
100
AcDbEntity
  8
RACCORDO
100
AcDbLine
 62
7
  6
CONTINUOUS
 10
-3.6944398051
 20
-11.8075761364
 11
-6.4106506658
 21
-11.8075902911
  0
LINE
  5
307
100
AcDbEntity
  8
RACCORDO
100
AcDbLine
 62
7
  6
CONTINUOUS
 10
-5.25
 20
-10.4987885741
 11
-0.75
 21
-10.4987885741
  0
LINE
  5
308
100
AcDbEntity
  8
RACCORDO
100
AcDbLine
 62
250
  6
CONTINUOUS
 10
-5.25
 20
-10.1978475783
 11
-0.75
 21
-10.1978475783
  0
LINE
  5
309
100
AcDbEntity
  8
RACCORDO
100
AcDbLine
 62
7
  6
CONTINUOUS
 10
0.4106506657
 20
-11.8075902911
 11
-2.3055601949
 21
-11.8075761364
  0
LINE
  5
30A
100
AcDbEntity
  8
RACCORDO
100
AcDbLine
 62
7
  6
CONTINUOUS
 10
0.4106397501
 20
-11.80759245
 11
0.4105014315
 21
-11.807591732
  0
LINE
  5
30B
100
AcDbEntity
  8
0
100
AcDbLine
 62
7
  6
CONTINUOUS
 10
0.4105028761
 20
-11.8075917393
 11
0.5027966321
 21
-11.8080871325
  0
LINE
  5
30C
100
AcDbEntity
  8
RACCORDO
100
AcDbLine
 62
7
  6
CONTINUOUS
 10
0.5028483878
 20
-11.8080874261
 11
0.5028866473
 21
-11.8080876497
  0
LWPOLYLINE
  5
30D
100
AcDbEntity
  8
RACCORDO
100
AcDbPolyline
 62
250
  6
CONTINUOUS
 90
7
 70
0
 10
0.5028866473
 20
-11.8080876497
 10
0.5120626032
 20
-11.8083641468
 10
0.5239721244
 20
-11.8093943919
 10
0.5357244183
 20
-11.8111717999
 10
0.5473160526
 20
-11.8136846666
 10
0.5587442868
 20
-11.8169208251
 10
0.5700070512
 20
-11.8208676721
  0
LWPOLYLINE
  5
30E
100
AcDbEntity
  8
RACCORDO
100
AcDbPolyline
 62
250
  6
CONTINUOUS
 90
4
 70
0
 10
0.4875503869
 20
-11.8108821105
 10
0.4598882639
 20
-11.8090336376
 10
0.4321683158
 20
-11.8079314842
 10
0.4106397501
 20
-11.80759245
  0
LWPOLYLINE
  5
30F
100
AcDbEntity
  8
RACCORDO
100
AcDbPolyline
 62
250
  6
CONTINUOUS
 90
12
 70
0
 10
-0.75
 20
-10.4987885741
 10
-0.4325452291
 20
-10.5229217761
 10
-0.1224013105
 20
-10.5947621812
 10
0.1733055879
 20
-10.712652107
 10
0.4477121638
 20
-10.8738271375
 10
0.6946020386
 20
-11.0746056414
 10
0.9084682672
 20
-11.3105753434
 10
1.0849345405
 20
-11.577502079
 10
1.2188818733
 20
-11.8683681182
 10
1.3063715407
 20
-12.1729445616
 10
1.3469122191
 20
-12.4849405301
 10
1.35
 20
-12.598778211
  0
LWPOLYLINE
  5
310
100
AcDbEntity
  8
RACCORDO
100
AcDbPolyline
 62
250
  6
CONTINUOUS
 90
25
 70
0
 10
-0.75
 20
-10.1978475783
 10
-0.3743143713
 20
-10.2306293303
 10
-0.0225851351
 20
-10.312135423
 10
0.3051877086
 20
-10.4423658563
 10
0.6152764218
 20
-10.6264239764
 10
0.9014087425
 20
-10.8592064371
 10
1.1447678844
 20
-11.1254032003
 10
1.3422625789
 20
-11.4285897711
 10
1.4969840946
 20
-11.7651906443
 10
1.5993894521
 20
-12.1091692666
 10
1.6431053159
 20
-12.4612828596
 10
1.6345050214
 20
-12.8207742018
 10
1.5831655952
 20
-13.1593350747
 10
1.485574047
 20
-13.471143382
 10
1.3452433672
 20
-13.7620212199
 10
1.1822895533
 20
-14.0211266596
 10
0.9983873576
 20
-14.2441164654
 10
0.7918620279
 20
-14.435333873
 10
0.577805305
 20
-14.5969666599
 10
0.3581177391
 20
-14.7279677155
 10
0.1308987801
 20
-14.8293841504
 10
-0.0944614823
 20
-14.9065450745
 10
-0.3148330182
 20
-14.9612268576
 10
-0.5333458574
 20
-14.9916531299
 10
-0.75
 20
-14.9978238913
  0
LINE
  5
311
100
AcDbEntity
  8
RACCORDO
100
AcDbLine
 62
250
  6
CONTINUOUS
 10
0.5151363738
 20
-11.8134733976
 11
0.4875503869
 21
-11.8108821105
  0
LWPOLYLINE
  5
312
100
AcDbEntity
  8
RACCORDO
100
AcDbPolyline
 62
250
  6
CONTINUOUS
 90
3
 70
0
 10
0.5700070512
 20
-11.8208676721
 10
0.5426279815
 20
-11.8168034481
 10
0.5151363738
 20
-11.8134733976
  0
LINE
  5
313
100
AcDbEntity
  8
RACCORDO
100
AcDbLine
 62
7
  6
CONTINUOUS
 10
-10.6993779273
 20
-9.6590195169
 11
-10.4761957357
 21
-9.6928013994
  0
LWPOLYLINE
  5
314
100
AcDbEntity
  8
ASSI
100
AcDbPolyline
 62
7
  6
CONTINUOUS
 90
6
 70
0
 10
0.3122528421
 20
-11.2158056111
 10
0.2419113035
 20
-11.1911921637
 10
0.1337814009
 20
-11.1621545767
 10
0.0243806221
 20
-11.1414708088
 10
-0.0868798449
 20
-11.1289348268
 10
-0.2
 20
-11.1245466306
  0
LINE
  5
315
100
AcDbEntity
  8
RACCORDO
100
AcDbLine
 62
250
  6
CONTINUOUS
 10
10.9162414635
 20
-17.0595580548
 11
10.9426253515
 21
-17.072917242
  0
LWPOLYLINE
  5
316
100
AcDbEntity
  8
RACCORDO
100
AcDbPolyline
 62
7
  6
CONTINUOUS
 90
5
 70
0
 10
0.583118982
 20
-13.728911346
 10
0.5728240776
 20
-13.7215983182
 10
0.5490363383
 20
-13.7040821756
 10
0.5247438299
 20
-13.6855641727
 10
0.5
 20
-13.6660445024
  0
LINE
  5
317
100
AcDbEntity
  8
ASSI
100
AcDbLine
 62
7
  6
CONTINUOUS
 10
-1.1352347028
 20
-13.7972806648
 11
-1.1257533292
 21
-13.8042700674
  0
LINE
  5
318
100
AcDbEntity
  8
RACCORDO
100
AcDbLine
 62
7
  6
CONTINUOUS
 10
0.0397368307
 20
-13.3223366628
 11
0.1378779282
 21
-13.3974142121
  0
LINE
  5
319
100
AcDbEntity
  8
RACCORDO
100
AcDbLine
 62
7
  6
CONTINUOUS
 10
0.1379115065
 20
-13.3811038889
 11
0.0397368307
 21
-13.3060004079
  0
LINE
  5
31A
100
AcDbEntity
  8
RACCORDO
100
AcDbLine
 62
7
  6
CONTINUOUS
 10
0.1378779282
 20
-13.3974142121
 11
0.2383496487
 21
-13.4752761814
  0
LINE
  5
31B
100
AcDbEntity
  8
RACCORDO
100
AcDbLine
 62
7
  6
CONTINUOUS
 10
0.2384032647
 20
-13.458981743
 11
0.1379115065
 21
-13.3811038889
  0
LINE
  5
31C
100
AcDbEntity
  8
RACCORDO
100
AcDbLine
 62
7
  6
CONTINUOUS
 10
0.2383496487
 20
-13.4752761814
 11
0.3411756115
 21
-13.5559456086
  0
LINE
  5
31D
100
AcDbEntity
  8
RACCORDO
100
AcDbLine
 62
7
  6
CONTINUOUS
 10
0.3412318991
 20
-13.5396537759
 11
0.2384032647
 21
-13.458981743
  0
LWPOLYLINE
  5
31E
100
AcDbEntity
  8
RACCORDO
100
AcDbPolyline
 62
7
  6
CONTINUOUS
 90
5
 70
0
 10
0.5
 20
-13.6823807574
 10
0.5247386025
 20
-13.7018926553
 10
0.5490268564
 20
-13.7203962949
 10
0.5728113328
 20
-13.7378918687
 10
0.5747569129
 20
-13.7392718599
  0
LINE
  5
31F
100
AcDbEntity
  8
RACCORDO
100
AcDbLine
 62
7
  6
CONTINUOUS
 10
0.3411756115
 20
-13.5559456086
 11
0.4464502938
 21
-13.6395146451
  0
LINE
  5
320
100
AcDbEntity
  8
RACCORDO
100
AcDbLine
 62
7
  6
CONTINUOUS
 10
0.4464502938
 20
-13.6395146451
 11
0.5
 21
-13.6823807574
  0
LWPOLYLINE
  5
321
100
AcDbEntity
  8
RACCORDO
100
AcDbPolyline
 62
7
  6
CONTINUOUS
 90
3
 70
0
 10
0.5
 20
-13.6660445024
 10
0.4464765857
 20
-13.6231992107
 10
0.3412318991
 20
-13.5396537759
  0
LWPOLYLINE
  5
322
100
AcDbEntity
  8
ASSI
100
AcDbPolyline
 62
7
  6
CONTINUOUS
 90
12
 70
0
 10
-4.75
 20
-11.5548178012
 10
-4.7799426203
 20
-11.5248753287
 10
-4.8647652972
 20
-11.451797792
 10
-4.9548858004
 20
-11.3853634865
 10
-5.050217034
 20
-11.3254631979
 10
-5.1491743913
 20
-11.2730925957
 10
-5.251818482
 20
-11.2283775365
 10
-5.3580886965
 20
-11.1911921637
 10
-5.4662185991
 20
-11.1621545767
 10
-5.5756193779
 20
-11.1414708088
 10
-5.6868798449
 20
-11.1289348268
 10
-5.8
 20
-11.1245466306
  0
LWPOLYLINE
  5
323
100
AcDbEntity
  8
ASSI
100
AcDbPolyline
 62
7
  6
CONTINUOUS
 90
3
 70
0
 10
-1.25
 20
-13.6942606556
 10
-1.2200573797
 20
-13.7242031281
 10
-1.1352347028
 20
-13.7972806648
  0
LINE
  5
324
100
AcDbEntity
  8
RACCORDO
100
AcDbLine
 62
7
  6
CONTINUOUS
 10
2.5
 20
-18.9231058756
 11
2.4969744882
 21
-18.9195358429
  0
LWPOLYLINE
  5
325
100
AcDbEntity
  8
DRAFT
100
AcDbPolyline
 62
7
  6
CONTINUOUS
 90
4
 70
0
 10
-9.3543227329
 20
-9.3245786886
 10
-9.3535982461
 20
-9.3721675918
 10
-9.3527595052
 20
-9.4039837245
 10
-9.3518065102
 20
-9.4200270868
  0
LWPOLYLINE
  5
326
100
AcDbEntity
  8
DRAFT
100
AcDbPolyline
 62
7
  6
CONTINUOUS
 90
4
 70
0
 10
-9.3979299098
 20
-5.7464719949
 10
-9.3971936514
 20
-5.7948378543
 10
-9.3963412682
 20
-5.8271736175
 10
-9.3953727601
 20
-5.8434792846
  0
LWPOLYLINE
  5
327
100
AcDbEntity
  8
DRAFT
100
AcDbPolyline
 62
7
  6
CONTINUOUS
 90
4
 70
0
 10
-9.4415368014
 20
-2.1683895097
 10
-9.4407888277
 20
-2.2175208409
 10
-9.4399228972
 20
-2.2503681651
 10
-9.4389390101
 20
-2.2669314824
  0
LWPOLYLINE
  5
328
100
AcDbEntity
  8
DRAFT
100
AcDbPolyline
 62
7
  6
CONTINUOUS
 90
4
 70
0
 10
-9.4415366314
 20
1.4315783065
 10
-9.4407886912
 20
1.3824538078
 10
-9.4399228174
 20
1.3496112897
 10
-9.4389390101
 20
1.3330507523
  0
LWPOLYLINE
  5
329
100
AcDbEntity
  8
DRAFT
100
AcDbPolyline
 62
7
  6
CONTINUOUS
 90
4
 70
0
 10
-9.3979299168
 20
5.0534752994
 10
-9.397193657
 20
5.0051091599
 10
-9.3963412715
 20
4.9727732
 10
-9.3953727601
 20
4.9564674196
  0
LWPOLYLINE
  5
32A
100
AcDbEntity
  8
DRAFT
100
AcDbPolyline
 62
7
  6
CONTINUOUS
 90
4
 70
0
 10
-9.3543226119
 20
8.6753222143
 10
-9.3535981489
 20
8.6277381792
 10
-9.3527594484
 20
8.59592547
 10
-9.3518065102
 20
8.5798840868
  0
LINE
  5
32B
100
AcDbEntity
  8
DRAFT
100
AcDbLine
 62
7
  6
CONTINUOUS
 10
-9.4427139211
 20
-2.0142244908
 11
-9.4415368014
 21
-2.1683895097
  0
LINE
  5
32C
100
AcDbEntity
  8
DRAFT
100
AcDbLine
 62
7
  6
CONTINUOUS
 10
-9.3990885455
 20
-5.5947070481
 11
-9.3979299098
 21
-5.7464719949
  0
LINE
  5
32D
100
AcDbEntity
  8
DRAFT
100
AcDbLine
 62
7
  6
CONTINUOUS
 10
-9.4427137525
 20
1.5857198097
 11
-9.4415366314
 21
1.4315783065
  0
LINE
  5
32E
100
AcDbEntity
  8
DRAFT
100
AcDbLine
 62
7
  6
CONTINUOUS
 10
-9.3554628865
 20
-9.1752533747
 11
-9.3543227329
 21
-9.3245786886
  0
LINE
  5
32F
100
AcDbEntity
  8
DRAFT
100
AcDbLine
 62
7
  6
CONTINUOUS
 10
-9.3990885524
 20
5.2052412114
 11
-9.3979299168
 21
5.0534752994
  0
LINE
  5
330
100
AcDbEntity
  8
DRAFT
100
AcDbLine
 62
7
  6
CONTINUOUS
 10
-9.3554627664
 20
8.8246307701
 11
-9.3543226119
 21
8.6753222143
  0
LINE
  5
331
100
AcDbEntity
  8
DRAFT
100
AcDbLine
 62
7
  6
CONTINUOUS
 10
-9.4432440963
 20
-1.82642424
 11
-9.4427139211
 21
-2.0142244908
  0
LINE
  5
332
100
AcDbEntity
  8
DRAFT
100
AcDbLine
 62
7
  6
CONTINUOUS
 10
-9.4432440439
 20
1.7735072955
 11
-9.4427137525
 21
1.5857198097
  0
LINE
  5
333
100
AcDbEntity
  8
DRAFT
100
AcDbLine
 62
7
  6
CONTINUOUS
 10
-9.3996102941
 20
-5.409844425
 11
-9.3990885455
 21
-5.5947070481
  0
LINE
  5
334
100
AcDbEntity
  8
DRAFT
100
AcDbLine
 62
7
  6
CONTINUOUS
 10
-9.3996102962
 20
5.390104359
 11
-9.3990885524
 21
5.2052412114
  0
LINE
  5
335
100
AcDbEntity
  8
DRAFT
100
AcDbLine
 62
7
  6
CONTINUOUS
 10
-9.3559764039
 20
-8.9933498683
 11
-9.3554628865
 21
-9.1752533747
  0
LINE
  5
336
100
AcDbEntity
  8
DRAFT
100
AcDbLine
 62
7
  6
CONTINUOUS
 10
-9.3559763666
 20
9.0065251786
 11
-9.3554627664
 21
8.8246307701
  0
LINE
  5
337
100
AcDbEntity
  8
RACCORDO
100
AcDbLine
 62
250
  6
CONTINUOUS
 10
-9.9762718881
 20
15.3771385234
 11
-9.9762718881
 21
9.8085233895
  0
LINE
  5
338
100
AcDbEntity
  8
RACCORDO
100
AcDbLine
 62
250
  6
CONTINUOUS
 10
-9.9762718881
 20
8.3924493833
 11
-9.9762718881
 21
6.2528484051
  0
LINE
  5
339
100
AcDbEntity
  8
RACCORDO
100
AcDbLine
 62
250
  6
CONTINUOUS
 10
-9.9762718881
 20
4.7481598982
 11
-9.9762718881
 21
2.6971734206
  0
LINE
  5
33A
100
AcDbEntity
  8
RACCORDO
100
AcDbLine
 62
250
  6
CONTINUOUS
 10
-9.9762718881
 20
1.1038704132
 11
-9.9762718881
 21
-0.9028088141
  0
LINE
  5
33B
100
AcDbEntity
  8
RACCORDO
100
AcDbLine
 62
250
  6
CONTINUOUS
 10
-9.9762718881
 20
-2.4961118215
 11
-9.9762718881
 21
-4.5470982991
  0
LINE
  5
33C
100
AcDbEntity
  8
RACCORDO
100
AcDbLine
 62
250
  6
CONTINUOUS
 10
-9.9762718881
 20
-6.051786806
 11
-9.9762718881
 21
-8.1913877842
  0
LINE
  5
33D
100
AcDbEntity
  8
RACCORDO
100
AcDbLine
 62
250
  6
CONTINUOUS
 10
-9.9762718881
 20
-9.6074617904
 11
-9.9762718881
 21
-15.1760769243
  0
LINE
  5
33E
100
AcDbEntity
  8
RACCORDO
100
AcDbLine
 62
7
  6
CONTINUOUS
 10
-9.65
 20
20.8998968627
 11
-9.65
 21
18.4073214275
  0
LINE
  5
33F
100
AcDbEntity
  8
RACCORDO
100
AcDbLine
 62
7
  6
CONTINUOUS
 10
-9.65
 20
-18.3978968038
 11
-9.65
 21
-20.8998968627
  0
LINE
  5
340
100
AcDbEntity
  8
DRAFT
100
AcDbLine
 62
7
  6
CONTINUOUS
 10
-9.5103594806
 20
20.7351243325
 11
-9.5103594806
 21
18.5006246432
  0
LINE
  5
341
100
AcDbEntity
  8
DRAFT
100
AcDbLine
 62
7
  6
CONTINUOUS
 10
-9.5103594806
 20
-18.491199908
 11
-9.5103594806
 21
-20.7853897323
  0
LINE
  5
342
100
AcDbEntity
  8
0
100
AcDbLine
 62
7
  6
CONTINUOUS
 10
-9.2338305324
 20
-9.4765499938
 11
-9.2338305324
 21
-8.3222995808
  0
LINE
  5
343
100
AcDbEntity
  8
0
100
AcDbLine
 62
7
  6
CONTINUOUS
 10
-9.2338305324
 20
-5.9208750094
 11
-9.2338305324
 21
-4.6780100957
  0
LINE
  5
344
100
AcDbEntity
  8
0
100
AcDbLine
 62
7
  6
CONTINUOUS
 10
-9.2338305324
 20
-2.365200025
 11
-9.2338305324
 21
-1.0337206107
  0
LINE
  5
345
100
AcDbEntity
  8
0
100
AcDbLine
 62
7
  6
CONTINUOUS
 10
-9.2338305324
 20
1.2347822098
 11
-9.2338305324
 21
2.5662616241
  0
LINE
  5
346
100
AcDbEntity
  8
0
100
AcDbLine
 62
7
  6
CONTINUOUS
 10
-9.2338305324
 20
4.8790716948
 11
-9.2338305324
 21
6.1219366085
  0
LINE
  5
347
100
AcDbEntity
  8
0
100
AcDbLine
 62
7
  6
CONTINUOUS
 10
-9.2338305324
 20
8.5233611799
 11
-9.2338305324
 21
9.6776115929
  0
LINE
  5
348
100
AcDbEntity
  8
DRAFT
100
AcDbLine
 62
7
  6
CONTINUOUS
 10
-9.4427160004
 20
2.0644234431
 11
-9.4432440439
 21
1.7735072955
  0
LINE
  5
349
100
AcDbEntity
  8
DRAFT
100
AcDbLine
 62
7
  6
CONTINUOUS
 10
-9.4427158337
 20
-1.5355209484
 11
-9.4432440963
 21
-1.82642424
  0
LINE
  5
34A
100
AcDbEntity
  8
DRAFT
100
AcDbLine
 62
7
  6
CONTINUOUS
 10
-9.3990901273
 20
5.6764281326
 11
-9.3996102962
 21
5.390104359
  0
LINE
  5
34B
100
AcDbEntity
  8
DRAFT
100
AcDbLine
 62
7
  6
CONTINUOUS
 10
-9.355464834
 20
9.2883012316
 11
-9.3559763666
 21
9.0065251786
  0
LINE
  5
34C
100
AcDbEntity
  8
DRAFT
100
AcDbLine
 62
7
  6
CONTINUOUS
 10
-9.3990901341
 20
-5.1235201252
 11
-9.3996102941
 21
-5.409844425
  0
LINE
  5
34D
100
AcDbEntity
  8
DRAFT
100
AcDbLine
 62
7
  6
CONTINUOUS
 10
-9.3554647152
 20
-8.7115829732
 11
-9.3559764039
 21
-8.9933498683
  0
LWPOLYLINE
  5
34E
100
AcDbEntity
  8
DRAFT
100
AcDbPolyline
 62
7
  6
CONTINUOUS
 90
5
 70
0
 10
-9.3518065102
 20
9.5361482779
 10
-9.3527604196
 20
9.5193868102
 10
-9.3535998107
 20
9.4869111386
 10
-9.3543246834
 20
9.4387212634
 10
-9.355464834
 20
9.2883012316
  0
LWPOLYLINE
  5
34F
100
AcDbEntity
  8
DRAFT
100
AcDbPolyline
 62
7
  6
CONTINUOUS
 90
5
 70
0
 10
-9.3953727601
 20
5.9282336236
 10
-9.3963420112
 20
5.9112046455
 10
-9.3971949227
 20
5.878209959
 10
-9.3979314946
 20
5.8292495641
 10
-9.3990901273
 20
5.6764281326
  0
LWPOLYLINE
  5
350
100
AcDbEntity
  8
DRAFT
100
AcDbPolyline
 62
7
  6
CONTINUOUS
 90
5
 70
0
 10
-9.4389390101
 20
2.3203189693
 10
-9.4399238733
 20
2.3030131594
 10
-9.4407904978
 20
2.2694829611
 10
-9.4415388836
 20
2.2197283742
 10
-9.4427160004
 20
2.0644234431
  0
LWPOLYLINE
  5
351
100
AcDbEntity
  8
DRAFT
100
AcDbPolyline
 62
7
  6
CONTINUOUS
 90
5
 70
0
 10
-9.4389390101
 20
-1.2796632654
 10
-9.4399237956
 20
-1.2969664013
 10
-9.4407903648
 20
-1.330491859
 10
-9.4415387175
 20
-1.3802396386
 10
-9.4427158337
 20
-1.5355209484
  0
LWPOLYLINE
  5
352
100
AcDbEntity
  8
DRAFT
100
AcDbPolyline
 62
7
  6
CONTINUOUS
 90
5
 70
0
 10
-9.3953727601
 20
-4.8717130806
 10
-9.3963420144
 20
-4.8887421692
 10
-9.3971949282
 20
-4.9217370507
 10
-9.3979315014
 20
-4.9706977251
 10
-9.3990901341
 20
-5.1235201252
  0
LWPOLYLINE
  5
353
100
AcDbEntity
  8
DRAFT
100
AcDbPolyline
 62
7
  6
CONTINUOUS
 90
5
 70
0
 10
-9.3518065102
 20
-8.4637628958
 10
-9.3527603642
 20
-8.4805224561
 10
-9.3535997158
 20
-8.5129947482
 10
-9.3543245651
 20
-8.5611797721
 10
-9.3554647152
 20
-8.7115829732
  0
LWPOLYLINE
  5
354
100
AcDbEntity
  8
DRAFT
100
AcDbPolyline
 62
7
  6
CONTINUOUS
 90
9
 70
0
 10
-10.6993779273
 20
-8.2232541153
 10
-10.7017047435
 20
-8.23869577
 10
-10.7038319049
 20
-8.2723671334
 10
-10.7057594114
 20
-8.3242682057
 10
-10.7075294969
 20
-8.3971165272
 10
-10.7090999275
 20
-8.4881945576
 10
-10.7103440024
 20
-8.5893496753
 10
-10.7112337705
 20
-8.7012695297
 10
-10.7119913924
 20
-8.9451249317
  0
LWPOLYLINE
  5
355
100
AcDbEntity
  8
DRAFT
100
AcDbPolyline
 62
7
  6
CONTINUOUS
 90
9
 70
0
 10
-10.7863812788
 20
-4.6234518321
 10
-10.7887414639
 20
-4.6388739182
 10
-10.7909025
 20
-4.6728696051
 10
-10.7928643872
 20
-4.7254388927
 10
-10.7946710835
 20
-4.7993048368
 10
-10.7962786309
 20
-4.8917443816
 10
-10.7975551552
 20
-4.9945883601
 10
-10.7984720787
 20
-5.10857996
 10
-10.7992667162
 20
-5.3573777305
  0
LINE
  5
356
100
AcDbEntity
  8
DRAFT
100
AcDbLine
 62
7
  6
CONTINUOUS
 10
-9.2469208341
 20
2.5505652297
 11
-9.4389390101
 21
2.3203189693
  0
LINE
  5
357
100
AcDbEntity
  8
RACCORDO
100
AcDbLine
 62
250
  6
CONTINUOUS
 10
7.8004873755
 20
19.0046186201
 11
7.2766831112
 21
18.5750919793
  0
LWPOLYLINE
  5
358
100
AcDbEntity
  8
RACCORDO
100
AcDbPolyline
 62
250
  6
CONTINUOUS
 90
6
 70
0
 10
6.5700080354
 20
12.0058568097
 10
6.5587445965
 20
12.0017007304
 10
6.5473158793
 20
11.9982528293
 10
6.5357239637
 20
11.9955258044
 10
6.5239715995
 20
11.993531918
 10
6.5120622275
 20
11.9922829701
  0
LINE
  5
359
100
AcDbEntity
  8
0
100
AcDbLine
 62
7
  6
CONTINUOUS
 10
6.592631
 20
-7.6925984221
 11
7.900354
 21
-7.3304552093
  0
LINE
  5
35A
100
AcDbEntity
  8
DRAFT
100
AcDbLine
 62
250
  6
CONTINUOUS
 10
9.3518065102
 20
-8.4637628958
 11
10.6993779273
 21
-8.2232541153
  0
LINE
  5
35B
100
AcDbEntity
  8
RACCORDO
100
AcDbLine
 62
7
  6
CONTINUOUS
 10
9.9762718881
 20
-8.1913877842
 11
9.2338305324
 21
-8.3222995808
  0
LWPOLYLINE
  5
35C
100
AcDbEntity
  8
0
100
AcDbPolyline
 62
7
  6
CONTINUOUS
 90
10
 70
0
 10
-5.25
 20
-10.4994168916
 10
-5.6312607391
 20
-10.5390537249
 10
-5.9812607391
 20
-10.6328354795
 10
-6.3
 20
-10.7807621553
 10
-6.5951066715
 20
-10.9904618644
 10
-6.858952604
 20
-11.2543064948
 10
-7.0686533479
 20
-11.5494117101
 10
-7.2193728503
 20
-11.878569593
 10
-7.3159471643
 20
-12.2389880607
 10
-7.35
 20
-12.5994065285
  0
LWPOLYLINE
  5
35D
100
AcDbEntity
  8
RACCORDO
100
AcDbPolyline
 62
250
  6
CONTINUOUS
 90
31
 70
0
 10
-5.25
 20
-9.8944037612
 10
-5.6203341783
 20
-9.9217719809
 10
-5.9722692049
 20
-9.9933320944
 10
-6.3058050799
 20
-10.1090841018
 10
-6.6264318631
 20
-10.2729627495
 10
-6.9286594946
 20
-10.481033291
 10
-7.1960177952
 20
-10.7214914872
 10
-7.4260429521
 20
-10.9976139623
 10
-7.621198778
 20
-11.306124092
 10
-7.7724065313
 20
-11.6253877647
 10
-7.8746696338
 20
-11.9557830501
 10
-7.9329846637
 20
-12.2969318786
 10
-7.9532626135
 20
-12.6260659296
 10
-7.9330926478
 20
-12.9383559534
 10
-7.874885602
 20
-13.2386311997
 10
-7.7917849749
 20
-13.5186110976
 10
-7.684430034
 20
-13.7760777274
 10
-7.5521815117
 20
-14.0132490088
 10
-7.4062651043
 20
-14.2284981307
 10
-7.2477143374
 20
-14.4207008146
 10
-7.0754956854
 20
-14.590981339
 10
-6.8977342671
 20
-14.7410857272
 10
-6.7153444814
 20
-14.8705807608
 10
-6.5274119293
 20
-14.9798996583
 10
-6.3393185331
 20
-15.0720880978
 10
-6.151678425
 20
-15.1470614079
 10
-5.9638774728
 20
-15.20490426
 10
-5.7794552017
 20
-15.2489163468
 10
-5.5995914534
 20
-15.280197566
 10
-5.4231063862
 20
-15.2976480198
 10
-5.25
 20
-15.3012677084
  0
LWPOLYLINE
  5
35E
100
AcDbEntity
  8
RACCORDO
100
AcDbPolyline
 62
7
  6
CONTINUOUS
 90
31
 70
0
 10
-5.25
 20
-9.5954098575
 10
-5.6514552487
 20
-9.6223612905
 10
-6.0457842349
 20
-9.7027535633
 10
-6.4259003911
 20
-9.8351752578
 10
-6.7852964713
 20
-10.0174755887
 10
-7.1171157902
 20
-10.2462996061
 10
-7.4145623898
 20
-10.5167197962
 10
-7.6735446016
 20
-10.8248698002
 10
-7.8884809443
 20
-11.1639403117
 10
-8.053756821
 20
-11.5220656527
 10
-8.169090329
 20
-11.8921717902
 10
-8.2350210299
 20
-12.2670454254
 10
-8.2532000149
 20
-12.6334194177
 10
-8.2287437665
 20
-12.9828432902
 10
-8.1670927772
 20
-13.3136190641
 10
-8.0730759886
 20
-13.6238023891
 10
-7.9516454347
 20
-13.9108557161
 10
-7.8076269906
 20
-14.1732561486
 10
-7.6446577586
 20
-14.4115249386
 10
-7.4667565999
 20
-14.6252099502
 10
-7.2777378005
 20
-14.8143397959
 10
-7.0798331243
 20
-14.9804042085
 10
-6.8759356527
 20
-15.1240034839
 10
-6.6688124947
 20
-15.2459273034
 10
-6.4596501147
 20
-15.3478092656
 10
-6.2503250657
 20
-15.4306985957
 10
-6.0428030364
 20
-15.4956532713
 10
-5.8378463061
 20
-15.5440892799
 10
-5.6365168052
 20
-15.5772047226
 10
-5.4402423554
 20
-15.5961482378
 10
-5.25
 20
-15.6021794614
  0
LINE
  5
35F
100
AcDbEntity
  8
RACCORDO
100
AcDbLine
 62
250
  6
CONTINUOUS
 10
-0.75
 20
-9.8944037612
 11
-5.25
 21
-9.8944037612
  0
LINE
  5
360
100
AcDbEntity
  8
RACCORDO
100
AcDbLine
 62
7
  6
CONTINUOUS
 10
-0.75
 20
-9.5954098575
 11
-5.25
 21
-9.5954098575
  0
LINE
  5
361
100
AcDbEntity
  8
0
100
AcDbLine
 62
7
  6
CONTINUOUS
 10
6.000508
 20
-9.0058419415
 11
7.900468
 21
-9.0058419415
  0
LINE
  5
362
100
AcDbEntity
  8
0
100
AcDbLine
 62
7
  6
CONTINUOUS
 10
7.900468
 20
-8.6092718985
 11
6.000508
 21
-8.6092718985
  0
LINE
  5
363
100
AcDbEntity
  8
0
100
AcDbLine
 62
7
  6
CONTINUOUS
 10
6.000508
 20
-9.5987170158
 11
7.241072
 21
-9.6842965935
  0
LINE
  5
364
100
AcDbEntity
  8
0
100
AcDbLine
 62
7
  6
CONTINUOUS
 10
7.900354
 20
-9.3908730415
 11
6.000508
 21
-9.219328888
  0
LINE
  5
365
100
AcDbEntity
  8
RACCORDO
100
AcDbLine
 62
7
  6
CONTINUOUS
 10
-9.2338305324
 20
-8.3222995808
 11
-9.9762718881
 21
-8.1913877842
  0
LINE
  5
366
100
AcDbEntity
  8
DRAFT
100
AcDbLine
 62
250
  6
CONTINUOUS
 10
-9.3518065102
 20
-8.4637628958
 11
-10.6993779273
 21
-8.2232541153
  0
LINE
  5
367
100
AcDbEntity
  8
0
100
AcDbLine
 62
7
  6
CONTINUOUS
 10
6.673268
 20
-11.7911801964
 11
7.378325
 21
-11.9886392219
  0
LINE
  5
368
100
AcDbEntity
  8
0
100
AcDbLine
 62
7
  6
CONTINUOUS
 10
6.000508
 20
-11.6006311367
 11
6.379785
 21
-11.7100595967
  0
LINE
  5
369
100
AcDbEntity
  8
0
100
AcDbLine
 62
7
  6
CONTINUOUS
 10
7.900354
 20
-11.8042731318
 11
6.000508
 21
-11.2083630725
  0
LINE
  5
36A
100
AcDbEntity
  8
DRAFT
100
AcDbLine
 62
7
  6
CONTINUOUS
 10
-9.2469208341
 20
-5.9146033775
 11
-9.3953727601
 21
-5.8434792846
  0
LINE
  5
36B
100
AcDbEntity
  8
RACCORDO
100
AcDbLine
 62
250
  6
CONTINUOUS
 10
11.1238174026
 20
-16.4496423175
 11
11.15
 21
-16.463263065
  0
LINE
  5
36C
100
AcDbEntity
  8
DRAFT
100
AcDbLine
 62
7
  6
CONTINUOUS
 10
9.65
 20
-20.8998968627
 11
9.5103594806
 21
-20.7853897323
  0
LWPOLYLINE
  5
36D
100
AcDbEntity
  8
RACCORDO
100
AcDbPolyline
 62
250
  6
CONTINUOUS
 90
16
 70
0
 10
-7.5993894521
 20
-13.086502203
 10
-7.6431053159
 20
-12.7343886099
 10
-7.6345050214
 20
-12.3748972677
 10
-7.5831655952
 20
-12.0363363948
 10
-7.485574047
 20
-11.7245280876
 10
-7.3452433672
 20
-11.4336502496
 10
-7.1822895533
 20
-11.1745448099
 10
-6.9983873576
 20
-10.9515550041
 10
-6.7918620279
 20
-10.7603375966
 10
-6.577805305
 20
-10.5987048097
 10
-6.3581177391
 20
-10.4677037541
 10
-6.1308987801
 20
-10.3662873191
 10
-5.9055385177
 20
-10.2891263951
 10
-5.6851669818
 20
-10.2344446119
 10
-5.4666541426
 20
-10.2040183397
 10
-5.25
 20
-10.1978475783
  0
LINE
  5
36E
100
AcDbEntity
  8
DRAFT
100
AcDbLine
 62
7
  6
CONTINUOUS
 10
-7.2195044567
 20
-19.0391422398
 11
-7.2084845302
 21
-19.6684869096
  0
LINE
  5
36F
100
AcDbEntity
  8
DRAFT
100
AcDbLine
 62
7
  6
CONTINUOUS
 10
-7.5226756989
 20
-20.7853897323
 11
-7.5226756989
 21
-18.9951938576
  0
LINE
  5
370
100
AcDbEntity
  8
DRAFT
100
AcDbLine
 62
7
  6
CONTINUOUS
 10
-7.5226756989
 20
19.0046186201
 11
-7.5226756989
 21
20.7351243325
  0
LINE
  5
371
100
AcDbEntity
  8
RACCORDO
100
AcDbLine
 62
250
  6
CONTINUOUS
 10
-7.2766831112
 20
-17.8756523793
 11
-7.2766831112
 21
-18.3771171395
  0
LINE
  5
372
100
AcDbEntity
  8
RACCORDO
100
AcDbLine
 62
250
  6
CONTINUOUS
 10
-7.2766831112
 20
18.0767139784
 11
-7.2766831113
 21
18.5750919793
  0
LINE
  5
373
100
AcDbEntity
  8
DRAFT
100
AcDbLine
 62
7
  6
CONTINUOUS
 10
-7.2084845302
 20
19.979651384
 11
-7.2084845302
 21
19.7313186593
  0
LINE
  5
374
100
AcDbEntity
  8
DRAFT
100
AcDbLine
 62
7
  6
CONTINUOUS
 10
-7.2084845302
 20
-19.6684869096
 11
-7.2084845302
 21
-19.9168196343
  0
LINE
  5
375
100
AcDbEntity
  8
DRAFT
100
AcDbLine
 62
7
  6
CONTINUOUS
 10
-7.2084845302
 20
19.7313186593
 11
-7.2195044567
 21
19.0980072253
  0
LWPOLYLINE
  5
376
100
AcDbEntity
  8
RACCORDO
100
AcDbPolyline
 62
250
  6
CONTINUOUS
 90
15
 70
0
 10
-7.35
 20
-12.598778211
 10
-7.3407028651
 20
-12.4013924328
 10
-7.290960287
 20
-12.104330343
 10
-7.2036315246
 20
-11.8285068235
 10
-7.0841679071
 20
-11.5761258914
 10
-6.9391350262
 20
-11.3510572894
 10
-6.7753948687
 20
-11.1554660707
 10
-6.5979872859
 20
-10.9885283279
 10
-6.410211802
 20
-10.8483844453
 10
-6.2160710238
 20
-10.7341944871
 10
-6.0194864821
 20
-10.6448455426
 10
-5.8222571225
 20
-10.5782630557
 10
-5.6265618666
 20
-10.5328258797
 10
-5.4351730663
 20
-10.5069685282
 10
-5.25
 20
-10.4987885741
  0
LINE
  5
377
100
AcDbEntity
  8
RACCORDO
100
AcDbLine
 62
7
  6
CONTINUOUS
 10
6.393508831
 20
13.7689002722
 11
6.5
 21
13.8539114341
  0
LWPOLYLINE
  5
378
100
AcDbEntity
  8
RACCORDO
100
AcDbPolyline
 62
7
  6
CONTINUOUS
 90
5
 70
0
 10
6.5
 20
13.8539114341
 10
6.5247386025
 20
13.873423332
 10
6.5490268564
 20
13.8919269716
 10
6.5728113328
 20
13.9094225454
 10
6.5850768415
 20
13.9181224157
  0
LINE
  5
379
100
AcDbEntity
  8
RACCORDO
100
AcDbLine
 62
7
  6
CONTINUOUS
 10
6.2894585084
 20
13.6867810404
 11
6.393508831
 21
13.7689002722
  0
LINE
  5
37A
100
AcDbEntity
  8
RACCORDO
100
AcDbLine
 62
7
  6
CONTINUOUS
 10
6.187825413
 20
13.6075307007
 11
6.2894585084
 21
13.6867810404
  0
LWPOLYLINE
  5
37B
100
AcDbEntity
  8
RACCORDO
100
AcDbPolyline
 62
7
  6
CONTINUOUS
 90
3
 70
0
 10
6.0397368307
 20
13.4938673395
 10
6.0885150674
 20
13.5310571018
 10
6.187825413
 20
13.6075307007
  0
LWPOLYLINE
  5
37C
100
AcDbEntity
  8
ASSI
100
AcDbPolyline
 62
7
  6
CONTINUOUS
 90
4
 70
0
 10
4.9055623081
 20
13.9781512755
 10
4.8647652972
 20
13.9480768642
 10
4.7799426203
 20
13.8749993274
 10
4.75
 20
13.8450568549
  0
LINE
  5
37D
100
AcDbEntity
  8
RACCORDO
100
AcDbLine
 62
7
  6
CONTINUOUS
 10
-10.8733846303
 20
2.5763326858
 11
-10.4761957357
 21
2.7794262704
  0
LINE
  5
37E
100
AcDbEntity
  8
DRAFT
100
AcDbLine
 62
250
  6
CONTINUOUS
 10
-9.3518065102
 20
-9.4200270868
 11
-10.6993779273
 21
-9.6590195169
  0
LINE
  5
37F
100
AcDbEntity
  8
RACCORDO
100
AcDbLine
 62
7
  6
CONTINUOUS
 10
-9.9762718881
 20
-9.6074617904
 11
-9.2338305324
 21
-9.4765499938
  0
LINE
  5
380
100
AcDbEntity
  8
RACCORDO
100
AcDbLine
 62
7
  6
CONTINUOUS
 10
10.7863812788
 20
-6.0901753052
 11
10.4761957357
 21
-6.137126415
  0
LWPOLYLINE
  5
381
100
AcDbEntity
  8
0
100
AcDbPolyline
 62
7
  6
CONTINUOUS
 90
25
 70
0
 10
0.0
 20
-6.8104307065
 10
0.5288555378
 20
-6.7707846641
 10
1.0309444551
 20
-6.6699126443
 10
1.506266752
 20
-6.5078146472
 10
1.9618304263
 20
-6.2791451862
 10
2.3906274802
 20
-5.9892497478
 10
2.7716339195
 20
-5.6541647913
 10
3.1019906965
 20
-5.2724320302
 10
3.384556859
 20
-4.845509751
 10
3.6068855558
 20
-4.3938092718
 10
3.7664608621
 20
-3.9158749653
 10
3.8657987026
 20
-3.4131624588
 10
3.9
 20
-2.9104499523
 10
3.8657987026
 20
-2.4077374457
 10
3.7664608621
 20
-1.9050249392
 10
3.6068855558
 20
-1.4270906327
 10
3.384556859
 20
-0.9753901535
 10
3.1019906965
 20
-0.5484678743
 10
2.7716339195
 20
-0.1667351132
 10
2.3906274802
 20
0.1683498433
 10
1.9618304263
 20
0.4582452817
 10
1.506266752
 20
0.6869147427
 10
1.0309444551
 20
0.8490127398
 10
0.5288555378
 20
0.9498847596
 10
0.0
 20
0.989530802
  0
LWPOLYLINE
  5
382
100
AcDbEntity
  8
0
100
AcDbPolyline
 62
250
  6
CONTINUOUS
 90
25
 70
0
 10
0.0
 20
-6.853495782
 10
-0.5159097492
 20
-6.8196812597
 10
-1.0229909291
 20
-6.7188165741
 10
-1.5125672762
 20
-6.5526280014
 10
-1.9762617356
 20
-6.3239597371
 10
-2.4061410501
 20
-6.0367246256
 10
-2.7948511642
 20
-5.6958366894
 10
-3.1357415619
 20
-5.3071279454
 10
-3.4229789198
 20
-4.8772496434
 10
-3.6516481996
 20
-4.4135576993
 10
-3.8178368715
 20
-3.9239865196
 10
-3.91870185
 20
-3.4169123623
 10
-3.9525175112
 20
-2.901010595
 10
-3.9187051063
 20
-2.3851079231
 10
-3.8178430107
 20
-1.8780319435
 10
-3.6516570872
 20
-1.3884593085
 10
-3.4229912637
 20
-0.9247672883
 10
-3.1357579274
 20
-0.4948889339
 10
-2.7948705371
 20
-0.1061782349
 10
-2.4061609382
 20
0.2347138135
 10
-1.9762799723
 20
0.5219536568
 10
-1.5125824635
 20
0.7506261592
 10
-1.0230021028
 20
0.9168180288
 10
-0.5159157855
 20
1.0176849136
 10
0.0
 20
1.0515002307
  0
LWPOLYLINE
  5
383
100
AcDbEntity
  8
0
100
AcDbPolyline
 62
250
  6
CONTINUOUS
 90
25
 70
0
 10
0.0
 20
-7.351873783
 10
-0.5842929114
 20
-7.3129432706
 10
-1.1440740886
 20
-7.2033285054
 10
-1.6793435316
 20
-7.0230294874
 10
-2.1999566128
 20
-6.7663187192
 10
-2.6960579597
 20
-6.4389236982
 10
-3.1380814553
 20
-6.0580269167
 10
-3.5214685404
 20
-5.6213502597
 10
-3.8507777741
 20
-5.1311718422
 10
-4.1101187165
 20
-4.6115085017
 10
-4.2962244636
 20
-4.0605392915
 10
-4.4123619194
 20
-3.4800851583
 10
-4.4524413555
 20
-2.8996257794
 10
-4.4124010105
 20
-2.3191558652
 10
-4.2963026458
 20
-1.7386807052
 10
-4.1102418176
 20
-1.1876958456
 10
-3.8509524221
 20
-0.6680319388
 10
-3.5217005631
 20
-0.1778583324
 10
-3.1383801077
 20
0.2588213845
 10
-2.6964669594
 20
0.639730306
 10
-2.2004852147
 20
0.9671453381
 10
-1.6799010307
 20
1.2238936097
 10
-1.1445364598
 20
1.4042508305
 10
-0.5845694496
 20
1.5139412909
 10
0.0
 20
1.5529649908
  0
LINE
  5
384
100
AcDbEntity
  8
RACCORDO
100
AcDbLine
 62
7
  6
CONTINUOUS
 10
-10.7863812788
 20
-6.0901753052
 11
-10.4761957357
 21
-6.137126415
  0
LINE
  5
385
100
AcDbEntity
  8
RACCORDO
100
AcDbLine
 62
7
  6
CONTINUOUS
 10
9.2338305324
 20
-9.4765499938
 11
9.9762718881
 21
-9.6074617904
  0
LINE
  5
386
100
AcDbEntity
  8
DRAFT
100
AcDbLine
 62
250
  6
CONTINUOUS
 10
9.3518065102
 20
-9.4200270868
 11
10.6993779273
 21
-9.6590195169
  0
LINE
  5
387
100
AcDbEntity
  8
0
100
AcDbLine
 62
7
  6
CONTINUOUS
 10
7.900354
 20
-10.5760671927
 11
6.845554
 21
-10.1794971497
  0
LINE
  5
388
100
AcDbEntity
  8
0
100
AcDbLine
 62
7
  6
CONTINUOUS
 10
6.000508
 20
-10.2051410232
 11
7.2359
 21
-10.6766626963
  0
LWPOLYLINE
  5
389
100
AcDbEntity
  8
RACCORDO
100
AcDbPolyline
 62
250
  6
CONTINUOUS
 90
11
 70
0
 10
0.8866276172
 20
-11.9988812649
 10
0.8775009693
 20
-11.9875266974
 10
0.8502854325
 20
-11.958693364
 10
0.820859405
 20
-11.932104044
 10
0.7894085847
 20
-11.9079265308
 10
0.7561314466
 20
-11.8863133985
 10
0.7212379871
 20
-11.8674010347
 10
0.6849484018
 20
-11.8513087817
 10
0.6474916975
 20
-11.8381381892
 10
0.6091042473
 20
-11.8279723725
 10
0.5700282971
 20
-11.8208754836
  0
LINE
  5
38A
100
AcDbEntity
  8
RACCORDO
100
AcDbLine
 62
250
  6
CONTINUOUS
 10
-6.5
 20
-12.3127197826
 11
-6.5700282971
 21
-11.8208754836
  0
LWPOLYLINE
  5
38B
100
AcDbEntity
  8
DRAFT
100
AcDbPolyline
 62
7
  6
CONTINUOUS
 90
33
 70
0
 10
-4.4519602424
 20
-23.0557193738
 10
-4.455675071
 20
-23.0248105905
 10
-4.4612763548
 20
-22.9942967614
 10
-4.4687862867
 20
-22.9641658597
 10
-4.4781826739
 20
-22.9344299122
 10
-4.4893570108
 20
-22.9054440782
 10
-4.5023295974
 20
-22.8772212798
 10
-4.5170801336
 20
-22.849748595
 10
-4.5334392138
 20
-22.8233424172
 10
-4.5514259753
 20
-22.7980144874
 10
-4.5710212808
 20
-22.7737530648
 10
-4.5919983123
 20
-22.75083932
 10
-4.6143731416
 20
-22.729289217
 10
-4.6381296968
 20
-22.7090867919
 10
-4.6629929446
 20
-22.6904653231
 10
-4.6889755516
 20
-22.6734433979
 10
-4.7160648512
 20
-22.6580024291
 10
-4.7439478099
 20
-22.6443199335
 10
-4.7726336326
 20
-22.6324163587
 10
-4.8021131144
 20
-22.6222712571
 10
-4.8320456071
 20
-22.6140008025
 10
-4.8624356625
 20
-22.6076267482
 10
-4.8932787288
 20
-22.603127341
 10
-4.924220503
 20
-22.600553495
 10
-4.9552623095
 20
-22.5999272427
 10
-4.9864028238
 20
-22.6012265517
 10
-5.0172837694
 20
-22.6044362391
 10
-5.0479019998
 20
-22.6095781757
 10
-5.0782606614
 20
-22.6166304906
 10
-5.1080109169
 20
-22.6255123885
 10
-5.1370364872
 20
-22.6361969374
 10
-5.1654536514
 20
-22.6487110691
 10
-5.1932624094
 20
-22.6630547838
  0
LINE
  5
38C
100
AcDbEntity
  8
DRAFT
100
AcDbLine
 62
7
  6
CONTINUOUS
 10
-7.238215003
 20
20.9576718579
 11
-7.2084845302
 21
19.979651384
  0
LINE
  5
38D
100
AcDbEntity
  8
DRAFT
100
AcDbLine
 62
7
  6
CONTINUOUS
 10
-6.0830351795
 20
-18.9951938576
 11
-6.0819690456
 21
-19.0342845637
  0
LINE
  5
38E
100
AcDbEntity
  8
RACCORDO
100
AcDbLine
 62
250
  6
CONTINUOUS
 10
-6.5
 20
-13.6660445024
 11
-6.5
 21
-12.3127332081
  0
LINE
  5
38F
100
AcDbEntity
  8
RACCORDO
100
AcDbLine
 62
250
  6
CONTINUOUS
 10
-6.4044089061
 20
-12.3060053427
 11
-6.4044089073
 21
-11.8075761364
  0
LINE
  5
390
100
AcDbEntity
  8
RACCORDO
100
AcDbLine
 62
7
  6
CONTINUOUS
 10
-5.69639891
 20
-17.8670772056
 11
-5.69639891
 21
-17.1332146874
  0
LINE
  5
391
100
AcDbEntity
  8
RACCORDO
100
AcDbLine
 62
250
  6
CONTINUOUS
 10
-5.5996040074
 20
-17.1990294986
 11
-5.5996034152
 21
-17.981293614
  0
LINE
  5
392
100
AcDbEntity
  8
RACCORDO
100
AcDbLine
 62
250
  6
CONTINUOUS
 10
-5.25
 20
-14.9978238913
 11
-5.2500000907
 21
-14.6987678479
  0
LINE
  5
393
100
AcDbEntity
  8
RACCORDO
100
AcDbLine
 62
250
  6
CONTINUOUS
 10
-5.25
 20
-10.1978475783
 11
-5.25
 21
-10.4987885741
  0
LINE
  5
394
100
AcDbEntity
  8
RACCORDO
100
AcDbLine
 62
250
  6
CONTINUOUS
 10
-5.25
 20
-15.3012677084
 11
-5.25
 21
-15.6021794614
  0
LINE
  5
395
100
AcDbEntity
  8
RACCORDO
100
AcDbLine
 62
250
  6
CONTINUOUS
 10
-5.25
 20
-9.8944037612
 11
-5.2499996304
 21
-9.5954098577
  0
LINE
  5
396
100
AcDbEntity
  8
DRAFT
100
AcDbLine
 62
7
  6
CONTINUOUS
 10
-6.0819690456
 20
19.0876848522
 11
-6.0830351795
 21
19.0046186201
  0
LINE
  5
397
100
AcDbEntity
  8
DRAFT
100
AcDbLine
 62
7
  6
CONTINUOUS
 10
-7.238215003
 20
-20.905541974
 11
-7.2084845302
 21
-19.9168196343
  0
LWPOLYLINE
  5
398
100
AcDbEntity
  8
DRAFT
100
AcDbPolyline
 62
7
  6
CONTINUOUS
 90
22
 70
0
 10
-7.0261825974
 20
-12.5994065285
 10
-7.0014033934
 20
-12.3218603514
 10
-6.9415334962
 20
-12.0624221557
 10
-6.8465729059
 20
-11.8210919413
 10
-6.7127267307
 20
-11.593657336
 10
-6.5437898623
 20
-11.384330712
 10
-6.3511469761
 20
-11.2057491867
 10
-6.1335040574
 20
-11.0598313922
 10
-5.892155121
 20
-10.9446586963
 10
-5.6423668864
 20
-10.867112319
 10
-5.3836020615
 20
-10.8294860003
 10
-5.1163979385
 20
-10.8294860003
 10
-4.8576331136
 20
-10.867112319
 10
-4.607844879
 20
-10.9446586963
 10
-4.3664959426
 20
-11.0598313922
 10
-4.1488530239
 20
-11.2057491867
 10
-3.9562101377
 20
-11.384330712
 10
-3.7872732693
 20
-11.593657336
 10
-3.6534270941
 20
-11.8210919413
 10
-3.5584665038
 20
-12.0624221557
 10
-3.4985966066
 20
-12.3218603514
 10
-3.4738174026
 20
-12.5994065285
  0
LWPOLYLINE
  5
399
100
AcDbEntity
  8
DRAFT
100
AcDbPolyline
 62
7
  6
CONTINUOUS
 90
22
 70
0
 10
-7.0
 20
-12.6041189097
 10
-6.9755846437
 20
-12.3306530707
 10
-6.9165926083
 20
-12.0750296443
 10
-6.8230238938
 20
-11.8372486305
 10
-6.6911358035
 20
-11.6131581557
 10
-6.524671034
 20
-11.4069100934
 10
-6.3348576759
 20
-11.2309600649
 10
-6.1204261114
 20
-11.0872035009
 10
-5.8826459583
 20
-10.9737449706
 10
-5.6365541602
 20
-10.8973538027
 10
-5.381621935
 20
-10.8602864403
 10
-5.118378065
 20
-10.8602864403
 10
-4.8634458398
 20
-10.8973538027
 10
-4.6173540417
 20
-10.9737449706
 10
-4.3795738886
 20
-11.0872035009
 10
-4.1651423241
 20
-11.2309600649
 10
-3.975328966
 20
-11.4069100934
 10
-3.8088641965
 20
-11.6131581557
 10
-3.6769761062
 20
-11.8372486305
 10
-3.5834073917
 20
-12.0750296443
 10
-3.5244153563
 20
-12.3306530707
 10
-3.5
 20
-12.6041189097
  0
LINE
  5
39A
100
AcDbEntity
  8
DRAFT
100
AcDbLine
 62
7
  6
CONTINUOUS
 10
3.9733373476
 20
23.4998840322
 11
3.9630152422
 21
23.4775430833
  0
LINE
  5
39B
100
AcDbEntity
  8
DRAFT
100
AcDbLine
 62
7
  6
CONTINUOUS
 10
-9.2469208341
 20
-1.049417005
 11
-9.4389390101
 21
-1.2796632654
  0
LINE
  5
39C
100
AcDbEntity
  8
DRAFT
100
AcDbLine
 62
7
  6
CONTINUOUS
 10
9.5103594806
 20
20.7351243325
 11
9.65
 21
20.8998968627
  0
LINE
  5
39D
100
AcDbEntity
  8
RACCORDO
100
AcDbLine
 62
250
  6
CONTINUOUS
 10
11.0
 20
15.8051217845
 11
10.4761957357
 21
15.3756617571
  0
LINE
  5
39E
100
AcDbEntity
  8
DRAFT
100
AcDbLine
 62
250
  6
CONTINUOUS
 10
9.3953727601
 20
-4.8717130806
 11
10.7863812788
 21
-4.6234518321
  0
LINE
  5
39F
100
AcDbEntity
  8
RACCORDO
100
AcDbLine
 62
7
  6
CONTINUOUS
 10
9.9762718881
 20
-4.5470982991
 11
9.2338305324
 21
-4.6780100957
  0
LWPOLYLINE
  5
3A0
100
AcDbEntity
  8
0
100
AcDbPolyline
 62
250
  6
CONTINUOUS
 90
34
 70
0
 10
0.0
 20
-5.9941496639
 10
0.1296167174
 20
-5.9914308305
 10
0.2593791734
 20
-5.9832476615
 10
0.3890547865
 20
-5.9695674257
 10
0.5184444409
 20
-5.9503610569
 10
0.6472723914
 20
-5.9256189958
 10
0.7751896653
 20
-5.8953668998
 10
0.9019661868
 20
-5.8596240304
 10
1.0273534104
 20
-5.8184248485
 10
1.150982561
 20
-5.7718644254
 10
1.2726183002
 20
-5.7200147208
 10
1.3920358647
 20
-5.6629545684
 10
1.5088988107
 20
-5.60083612
 10
1.6229653287
 20
-5.5337906957
 10
1.7340557021
 20
-5.4619267825
 10
1.8419432978
 20
-5.3853936434
 10
1.9464192344
 20
-5.3043458522
 10
2.0473093949
 20
-5.2189250834
 10
2.1444490109
 20
-5.1292741991
 10
2.237662773
 20
-5.0355561982
 10
2.3267791722
 20
-4.9379447718
 10
2.4116464358
 20
-4.8366061171
 10
2.4921127071
 20
-4.7317191507
 10
2.568025277
 20
-4.6234803815
 10
2.6392419967
 20
-4.5120910911
 10
2.7056323759
 20
-4.3977543733
 10
2.7670742375
 20
-4.2806795618
 10
2.8234522654
 20
-4.161086116
 10
2.8746626787
 20
-4.039195143
 10
2.920613068
 20
-3.9152276523
 10
2.9612199047
 20
-3.7894095461
 10
2.9964091048
 20
-3.661970712
 10
3.0261163009
 20
-3.5331446517
 10
3.0502872693
 20
-3.4031670722
  0
LINE
  5
3A1
100
AcDbEntity
  8
RACCORDO
100
AcDbLine
 62
7
  6
CONTINUOUS
 10
-9.2338305324
 20
-4.6780100957
 11
-9.9762718881
 21
-4.5470982991
  0
LINE
  5
3A2
100
AcDbEntity
  8
DRAFT
100
AcDbLine
 62
250
  6
CONTINUOUS
 10
-9.3953727601
 20
-4.8717130806
 11
-10.7863812788
 21
-4.6234518321
  0
LINE
  5
3A3
100
AcDbEntity
  8
0
100
AcDbLine
 62
7
  6
CONTINUOUS
 10
7.900354
 20
-8.0658035804
 11
6.592631
 21
-7.6925984221
  0
LINE
  5
3A4
100
AcDbEntity
  8
0
100
AcDbLine
 62
7
  6
CONTINUOUS
 10
6.000508
 20
-7.8514196384
 11
7.900354
 21
-8.4621036248
  0
LINE
  5
3A5
100
AcDbEntity
  8
DRAFT
100
AcDbLine
 62
7
  6
CONTINUOUS
 10
-9.2469208341
 20
-2.3589283931
 11
-9.4389390101
 21
-2.2669314824
  0
LINE
  5
3A6
100
AcDbEntity
  8
RACCORDO
100
AcDbLine
 62
250
  6
CONTINUOUS
 10
7.8004873755
 20
-18.9951938576
 11
7.2767497248
 21
-18.3771171395
  0
LINE
  5
3A7
100
AcDbEntity
  8
DRAFT
100
AcDbLine
 62
7
  6
CONTINUOUS
 10
-3.434596365
 20
-21.2012919519
 11
-3.3821231691
 21
-22.1873240975
  0
LINE
  5
3A8
100
AcDbEntity
  8
DRAFT
100
AcDbLine
 62
7
  6
CONTINUOUS
 10
-4.4516798704
 20
23.1534039364
 11
-4.4502131038
 21
23.1124526584
  0
LINE
  5
3A9
100
AcDbEntity
  8
DRAFT
100
AcDbLine
 62
7
  6
CONTINUOUS
 10
-4.9
 20
19.0283554445
 11
-4.9
 21
19.0876848522
  0
LINE
  5
3AA
100
AcDbEntity
  8
0
100
AcDbLine
 62
7
  6
CONTINUOUS
 10
-4.75
 20
-10.9325693616
 11
-4.75
 21
-11.8075761364
  0
LINE
  5
3AB
100
AcDbEntity
  8
0
100
AcDbLine
 62
7
  6
CONTINUOUS
 10
-4.75
 20
-13.3141685353
 11
-4.75
 21
-13.8042700674
  0
LINE
  5
3AC
100
AcDbEntity
  8
DRAFT
100
AcDbLine
 62
250
  6
CONTINUOUS
 10
-4.4
 20
19.0627738399
 11
-4.4
 21
19.0876848522
  0
LINE
  5
3AD
100
AcDbEntity
  8
0
100
AcDbLine
 62
7
  6
CONTINUOUS
 10
-4.381939
 20
-13.8042700674
 11
-4.381939
 21
-13.3130819338
  0
LINE
  5
3AE
100
AcDbEntity
  8
0
100
AcDbLine
 62
7
  6
CONTINUOUS
 10
-4.381939
 20
-11.8075761364
 11
-4.381939
 21
-11.0860749708
  0
LWPOLYLINE
  5
3AF
100
AcDbEntity
  8
DRAFT
100
AcDbPolyline
 62
7
  6
CONTINUOUS
 90
19
 70
0
 10
-4.4502131038
 20
23.1124526584
 10
-4.4505455667
 20
23.0943524973
 10
-4.4558079496
 20
23.0370343459
 10
-4.4674670191
 20
22.9814494822
 10
-4.4858501031
 20
22.9269035475
 10
-4.5106298736
 20
22.8740909005
 10
-4.5408243474
 20
22.8250946168
 10
-4.5766438608
 20
22.7800744369
 10
-4.6178780774
 20
22.7388706203
 10
-4.6629140047
 20
22.7030870213
 10
-4.7119004078
 20
22.6729346307
 10
-4.7646885216
 20
22.6482024578
 10
-4.8192190584
 20
22.6298613836
 10
-4.8755693691
 20
22.618163994
 10
-4.9336621028
 20
22.6128577032
 10
-4.9912059191
 20
22.6141556357
 10
-5.047437038
 20
22.622128833
 10
-5.1031192395
 20
22.6367062536
 10
-5.1582525237
 20
22.6578878975
  0
LINE
  5
3B0
100
AcDbEntity
  8
DRAFT
100
AcDbLine
 62
7
  6
CONTINUOUS
 10
-4.4502131038
 20
-23.0873199585
 11
-4.4516798704
 21
-23.1282712365
  0
LINE
  5
3B1
100
AcDbEntity
  8
DRAFT
100
AcDbLine
 62
7
  6
CONTINUOUS
 10
-3.434596365
 20
21.2264246518
 11
-3.3821231691
 21
22.2124567974
  0
LWPOLYLINE
  5
3B2
100
AcDbEntity
  8
RACCORDO
100
AcDbPolyline
 62
250
  6
CONTINUOUS
 90
10
 70
0
 10
-5.5996040074
 20
-17.9812929152
 10
-5.6072224727
 20
-18.0680823524
 10
-5.6297936021
 20
-18.1522365892
 10
-5.6666318486
 20
-18.2311996305
 10
-5.7166183337
 20
-18.3025731523
 10
-5.7782348306
 20
-18.3641893452
 10
-5.8496098776
 20
-18.4141767564
 10
-5.9285756187
 20
-18.4510171312
 10
-6.0127336478
 20
-18.4735915264
 10
-6.099527855
 20
-18.4812142958
  0
LINE
  5
3B3
100
AcDbEntity
  8
DRAFT
100
AcDbLine
 62
7
  6
CONTINUOUS
 10
2.700388948
 20
21.2048304105
 11
3.0104834329
 21
22.2146478595
  0
LINE
  5
3B4
100
AcDbEntity
  8
DRAFT
100
AcDbLine
 62
7
  6
CONTINUOUS
 10
6.9712561167
 20
21.2264246518
 11
6.9587505924
 21
21.2048304105
  0
LINE
  5
3B5
100
AcDbEntity
  8
DRAFT
100
AcDbLine
 62
7
  6
CONTINUOUS
 10
-9.2469208341
 20
-4.6937064901
 11
-9.3953727601
 21
-4.8717130806
  0
LINE
  5
3B6
100
AcDbEntity
  8
RACCORDO
100
AcDbLine
 62
7
  6
CONTINUOUS
 10
-10.8733846303
 20
-1.0236495489
 11
-10.4761957357
 21
-0.8205559643
  0
LINE
  5
3B7
100
AcDbEntity
  8
DRAFT
100
AcDbLine
 62
7
  6
CONTINUOUS
 10
9.2469208341
 20
8.5296328117
 11
9.3518065102
 21
8.5798840868
  0
LINE
  5
3B8
100
AcDbEntity
  8
0
100
AcDbLine
 62
7
  6
CONTINUOUS
 10
1.1583083851
 20
-3.1667858869
 11
1.3221474366
 21
-3.1345272795
  0
LWPOLYLINE
  5
3B9
100
AcDbEntity
  8
0
100
AcDbPolyline
 62
7
  6
CONTINUOUS
 90
10
 70
0
 10
0.238823006
 20
-4.0296898256
 10
0.1862019499
 20
-4.0395987749
 10
0.133199209
 20
-4.0470435482
 10
0.0799299419
 20
-4.0520111671
 10
0.0265102557
 20
-4.0544962664
 10
-0.0269451055
 20
-4.0544944049
 10
-0.0803219538
 20
-4.0520017919
 10
-0.1335046286
 20
-4.0470243958
 10
-0.1863773031
 20
-4.0395781748
 10
-0.2388255598
 20
-4.0296821585
  0
LINE
  5
3BA
100
AcDbEntity
  8
DRAFT
100
AcDbLine
 62
250
  6
CONTINUOUS
 10
-9.3953727601
 20
-5.8434792846
 11
-10.7863812788
 21
-6.0901753052
  0
LINE
  5
3BB
100
AcDbEntity
  8
RACCORDO
100
AcDbLine
 62
7
  6
CONTINUOUS
 10
-9.9762718881
 20
-6.051786806
 11
-9.2338305324
 21
-5.9208750094
  0
LINE
  5
3BC
100
AcDbEntity
  8
RACCORDO
100
AcDbLine
 62
7
  6
CONTINUOUS
 10
10.8733846303
 20
-2.5213310936
 11
10.4761957357
 21
-2.5814514306
  0
LINE
  5
3BD
100
AcDbEntity
  8
0
100
AcDbLine
 62
7
  6
CONTINUOUS
 10
-3.0502872693
 20
-3.4031670722
 11
-3.1404550116
 21
-3.4063634211
  0
LINE
  5
3BE
100
AcDbEntity
  8
0
100
AcDbLine
 62
7
  6
CONTINUOUS
 10
-3.0484962815
 20
-3.403122522
 11
-3.0502872693
 21
-3.4031670722
  0
LINE
  5
3BF
100
AcDbEntity
  8
0
100
AcDbLine
 62
7
  6
CONTINUOUS
 10
0.6957835058
 20
-3.4063634211
 11
0.9590083865
 21
-3.4025935161
  0
LINE
  5
3C0
100
AcDbEntity
  8
0
100
AcDbLine
 62
7
  6
CONTINUOUS
 10
-3.0420159076
 20
-3.4030362497
 11
-3.0484962815
 21
-3.403122522
  0
LINE
  5
3C1
100
AcDbEntity
  8
0
100
AcDbLine
 62
7
  6
CONTINUOUS
 10
-3.0175990786
 20
-3.4028760716
 11
-3.0420159076
 21
-3.4030362497
  0
LINE
  5
3C2
100
AcDbEntity
  8
0
100
AcDbLine
 62
7
  6
CONTINUOUS
 10
-0.959008459
 20
-3.4025935161
 11
-3.0175990786
 21
-3.4028760716
  0
LINE
  5
3C3
100
AcDbEntity
  8
0
100
AcDbLine
 62
7
  6
CONTINUOUS
 10
3.0174315975
 20
-3.4028752869
 11
0.9590083865
 21
-3.4025935161
  0
LINE
  5
3C4
100
AcDbEntity
  8
0
100
AcDbLine
 62
7
  6
CONTINUOUS
 10
3.0419804383
 20
-3.4030358944
 11
3.0174315975
 21
-3.4028752869
  0
LINE
  5
3C5
100
AcDbEntity
  8
0
100
AcDbLine
 62
7
  6
CONTINUOUS
 10
-0.959008459
 20
-3.4025935161
 11
-0.6957849968
 21
-3.4063634211
  0
LWPOLYLINE
  5
3C6
100
AcDbEntity
  8
0
100
AcDbPolyline
 62
7
  6
CONTINUOUS
 90
3
 70
0
 10
3.0502872693
 20
-3.4031670722
 10
3.0484910281
 20
-3.4031224042
 10
3.0419804383
 20
-3.4030358944
  0
LINE
  5
3C7
100
AcDbEntity
  8
0
100
AcDbLine
 62
7
  6
CONTINUOUS
 10
3.1404550116
 20
-3.4063634211
 11
3.0502872693
 21
-3.4031670722
  0
LWPOLYLINE
  5
3C8
100
AcDbEntity
  8
0
100
AcDbPolyline
 62
7
  6
CONTINUOUS
 90
7
 70
0
 10
-0.228093211
 20
-4.8291187347
 10
-0.1520748554
 20
-4.8365930688
 10
-0.0760564103
 20
-4.8410782607
 10
-0.0000378759
 20
-4.8425743104
 10
0.0759807481
 20
-4.8410812179
 10
0.1519994615
 20
-4.8365989833
 10
0.2280182644
 20
-4.8291276065
  0
LINE
  5
3C9
100
AcDbEntity
  8
RACCORDO
100
AcDbLine
 62
7
  6
CONTINUOUS
 10
-10.8733846303
 20
-2.5213310936
 11
-10.4761957357
 21
-2.5814514306
  0
LINE
  5
3CA
100
AcDbEntity
  8
RACCORDO
100
AcDbLine
 62
7
  6
CONTINUOUS
 10
9.2338305324
 20
-5.9208750094
 11
9.9762718881
 21
-6.051786806
  0
LINE
  5
3CB
100
AcDbEntity
  8
DRAFT
100
AcDbLine
 62
250
  6
CONTINUOUS
 10
9.3953727601
 20
-5.8434792846
 11
10.7863812788
 21
-6.0901753052
  0
LINE
  5
3CC
100
AcDbEntity
  8
0
100
AcDbLine
 62
7
  6
CONTINUOUS
 10
-1.3221579868
 20
-3.1344661354
 11
-1.1584236733
 21
-3.1667079568
  0
LINE
  5
3CD
100
AcDbEntity
  8
0
100
AcDbLine
 62
7
  6
CONTINUOUS
 10
0.2755058959
 20
-4.070986199
 11
0.2281482281
 21
-4.0524550333
  0
LINE
  5
3CE
100
AcDbEntity
  8
0
100
AcDbLine
 62
7
  6
CONTINUOUS
 10
0.3227523623
 20
-4.0897267132
 11
0.2755058959
 21
-4.070986199
  0
LINE
  5
3CF
100
AcDbEntity
  8
0
100
AcDbLine
 62
7
  6
CONTINUOUS
 10
0.3698876273
 20
-4.1086765759
 11
0.3227523623
 21
-4.0897267132
  0
LINE
  5
3D0
100
AcDbEntity
  8
0
100
AcDbLine
 62
7
  6
CONTINUOUS
 10
0.3816641739
 20
-4.0912580183
 11
0.2388223825
 21
-4.0296918625
  0
LINE
  5
3D1
100
AcDbEntity
  8
0
100
AcDbLine
 62
7
  6
CONTINUOUS
 10
-0.5197300801
 20
-3.4279885511
 11
-1.0713351687
 21
-3.1702738285
  0
LINE
  5
3D2
100
AcDbEntity
  8
0
100
AcDbLine
 62
7
  6
CONTINUOUS
 10
-1.0713351687
 20
-3.1702738285
 11
-1.1449972769
 21
-3.135610509
  0
LINE
  5
3D3
100
AcDbEntity
  8
0
100
AcDbLine
 62
7
  6
CONTINUOUS
 10
-0.6536727773
 20
-3.5562657004
 11
-0.7553694325
 21
-3.5057162701
  0
LINE
  5
3D4
100
AcDbEntity
  8
0
100
AcDbLine
 62
7
  6
CONTINUOUS
 10
-0.7553694325
 20
-3.5057162701
 11
-0.8569845634
 21
-3.454527886
  0
LINE
  5
3D5
100
AcDbEntity
  8
0
100
AcDbLine
 62
7
  6
CONTINUOUS
 10
-0.6957849968
 20
-3.4063634211
 11
-0.842330409
 21
-3.3324411586
  0
LINE
  5
3D6
100
AcDbEntity
  8
0
100
AcDbLine
 62
7
  6
CONTINUOUS
 10
-0.8569845634
 20
-3.454527886
 11
-0.959008459
 21
-3.4025935161
  0
LINE
  5
3D7
100
AcDbEntity
  8
0
100
AcDbLine
 62
7
  6
CONTINUOUS
 10
-0.842330409
 20
-3.3324411586
 11
-0.9899115688
 21
-3.2569493563
  0
LINE
  5
3D8
100
AcDbEntity
  8
0
100
AcDbLine
 62
7
  6
CONTINUOUS
 10
-0.9899115688
 20
-3.2569493563
 11
-1.1384059624
 21
-3.1802416365
  0
LINE
  5
3D9
100
AcDbEntity
  8
0
100
AcDbLine
 62
7
  6
CONTINUOUS
 10
-1.1584236733
 20
-3.1667079568
 11
-1.1384059624
 21
-3.1802416365
  0
LINE
  5
3DA
100
AcDbEntity
  8
DRAFT
100
AcDbLine
 62
7
  6
CONTINUOUS
 10
3.6977679175
 20
-18.9944574882
 11
3.7025132132
 21
-19.0057917715
  0
LWPOLYLINE
  5
3DB
100
AcDbEntity
  8
0
100
AcDbPolyline
 62
7
  6
CONTINUOUS
 90
37
 70
0
 10
-3.1705677725
 20
-3.6230184772
 10
-3.1802477464
 20
-3.5919280093
 10
-3.1896369025
 20
-3.5595033072
 10
-3.1987352409
 20
-3.5258024067
 10
-3.2075915459
 20
-3.4908973871
 10
-3.2161570332
 20
-3.4548410331
 10
-3.2242853492
 20
-3.4176632756
 10
-3.2319725248
 20
-3.3794207802
 10
-3.2392225292
 20
-3.3401903444
 10
-3.2459009157
 20
-3.3000323758
 10
-3.251999236
 20
-3.2590183423
 10
-3.2575259384
 20
-3.2172250331
 10
-3.2623719221
 20
-3.1747236071
 10
-3.2665262989
 20
-3.1315759012
 10
-3.2699999569
 20
-3.0878816373
 10
-3.2727164595
 20
-3.0437731223
 10
-3.2746592093
 20
-2.9993358742
 10
-3.2758448036
 20
-2.9546593472
 10
-3.2762465983
 20
-2.9098853433
 10
-3.2758469314
 20
-2.8651033092
 10
-3.2746634648
 20
-2.8204034552
 10
-3.27272254
 20
-2.7759288059
 10
-3.2700074622
 20
-2.7317689222
 10
-3.2665349262
 20
-2.6880095824
 10
-3.2623813575
 20
-2.6447846494
 10
-3.2575358406
 20
-2.602194476
 10
-3.2520092909
 20
-2.5603008339
 10
-3.24591088
 20
-2.5191754161
 10
-3.2392321686
 20
-2.4788954515
 10
-3.2319815961
 20
-2.4395326049
 10
-3.224293651
 20
-2.4011474608
 10
-3.216164362
 20
-2.3638171998
 10
-3.2075977005
 20
-2.3275988441
 10
-3.1987400704
 20
-2.292522466
 10
-3.189640273
 20
-2.2586411504
 10
-3.180249507
 20
-2.2260274582
 10
-3.1705677725
 20
-2.1947398398
  0
LINE
  5
3DC
100
AcDbEntity
  8
DRAFT
100
AcDbLine
 62
7
  6
CONTINUOUS
 10
3.0104834329
 20
-22.1762722771
 11
2.700388948
 21
-21.1554050279
  0
LWPOLYLINE
  5
3DD
100
AcDbEntity
  8
0
100
AcDbPolyline
 62
7
  6
CONTINUOUS
 90
37
 70
0
 10
-3.1705677725
 20
-3.6230184772
 10
-3.1465955608
 20
-3.7221311091
 10
-3.1195939132
 20
-3.8202545148
 10
-3.0895628296
 20
-3.9173886943
 10
-3.0564669421
 20
-4.0136268534
 10
-3.0203416186
 20
-4.1088757862
 10
-2.9812929628
 20
-4.2028558757
 10
-2.9393123372
 20
-4.2955635115
 10
-2.8944083793
 20
-4.3870023039
 10
-2.8467131054
 20
-4.476903466
 10
-2.7962183168
 20
-4.5652624431
 10
-2.7429322121
 20
-4.65208379
 10
-2.6870114042
 20
-4.7371123835
 10
-2.6284481447
 20
-4.82034295
 10
-2.567250182
 20
-4.9017807632
 10
-2.5035973733
 20
-4.9811865217
 10
-2.4374824994
 20
-5.058554248
 10
-2.3689127796
 20
-5.1338899195
 10
-2.2980897288
 20
-5.2069721668
 10
-2.2250067204
 20
-5.2777943616
 10
-2.149670381
 20
-5.3463631323
 10
-2.0723021054
 20
-5.4124769938
 10
-1.9928959181
 20
-5.4761287256
 10
-1.9114577945
 20
-5.5373255484
 10
-1.8282270559
 20
-5.5958876387
 10
-1.7431984306
 20
-5.6518072475
 10
-1.6563771904
 20
-5.705092124
 10
-1.5680184718
 20
-5.7555856925
 10
-1.4781177533
 20
-5.8032797436
 10
-1.3866795564
 20
-5.8481824869
 10
-1.2939725823
 20
-5.8901619754
 10
-1.1999931009
 20
-5.9292096114
 10
-1.1047448423
 20
-5.9653339928
 10
-1.0085076981
 20
-5.9984289661
 10
-0.9113749653
 20
-6.0284591471
 10
-0.8132533469
 20
-6.05545992
 10
-0.7141428429
 20
-6.0794312849
  0
LWPOLYLINE
  5
3DE
100
AcDbEntity
  8
0
100
AcDbPolyline
 62
250
  6
CONTINUOUS
 90
49
 70
0
 10
-2.8482021167
 20
-3.4025935161
 10
-2.814144919
 20
-3.5678751006
 10
-2.7708692737
 20
-3.7299580753
 10
-2.718375181
 20
-3.8888424401
 10
-2.6564133327
 20
-4.0450913292
 10
-2.5852330369
 20
-4.1981416084
 10
-2.5055822176
 20
-4.3463038755
 10
-2.4173849978
 20
-4.4894791413
 10
-2.3207172544
 20
-4.627766395
 10
-2.2165545418
 20
-4.7597732016
 10
-2.1048206629
 20
-4.8854374021
 10
-1.9855918147
 20
-5.0048211556
 10
-1.8600721434
 20
-5.1167185037
 10
-1.728197033
 20
-5.221054202
 10
-1.5900310995
 20
-5.3179034948
 10
-1.4469723369
 20
-5.4062861573
 10
-1.2989717216
 20
-5.4861158587
 10
-1.1460782772
 20
-5.5574789297
 10
-0.989837069
 20
-5.6196541376
 10
-0.8302141141
 20
-5.6725484657
 10
-0.6672433954
 20
-5.7162549307
 10
-0.502571926
 20
-5.7503313501
 10
-0.3361817918
 20
-5.7746800768
 10
-0.1680909068
 20
-5.7893987578
 10
-0.000000026
 20
-5.7943381515
 10
0.1680908486
 20
-5.7893987623
 10
0.336181719
 20
-5.7746800856
 10
0.502571836
 20
-5.7503313659
 10
0.6672432842
 20
-5.7162549584
 10
0.830213979
 20
-5.6725485078
 10
0.9898369179
 20
-5.6196541927
 10
1.1460781232
 20
-5.5574789952
 10
1.2989715724
 20
-5.4861159334
 10
1.4469721954
 20
-5.4062862391
 10
1.5900309676
 20
-5.317903581
 10
1.7281969136
 20
-5.2210542906
 10
1.860072036
 20
-5.1167185939
 10
1.985591718
 20
-5.0048212471
 10
2.1048205764
 20
-4.885437494
 10
2.2165544655
 20
-4.7597732926
 10
2.3207171884
 20
-4.6277664834
 10
2.4173849418
 20
-4.4894792259
 10
2.5055821704
 20
-4.3463039574
 10
2.5852329959
 20
-4.1981416929
 10
2.6564132965
 20
-4.0450914173
 10
2.718375151
 20
-3.8888425226
 10
2.7708692523
 20
-3.7299581395
 10
2.8141449076
 20
-3.5678751374
 10
2.8482021167
 20
-3.4025935161
  0
LWPOLYLINE
  5
3DF
100
AcDbEntity
  8
0
100
AcDbPolyline
 62
250
  6
CONTINUOUS
 90
34
 70
0
 10
-3.0502872693
 20
-3.4031670722
 10
-3.0261155173
 20
-3.5331484155
 10
-2.9964072138
 20
-3.6619781792
 10
-2.9612165858
 20
-3.7894206356
 10
-2.9206079993
 20
-3.9152422793
 10
-2.8746555488
 20
-4.0392131846
 10
-2.8234427922
 20
-4.1611073784
 10
-2.7670621577
 20
-4.2807038266
 10
-2.7056174382
 20
-4.3977814143
 10
-2.6392239811
 20
-4.5121206429
 10
-2.5680040178
 20
-4.6235121159
 10
-2.4920880293
 20
-4.731752783
 10
-2.4116180878
 20
-4.8366414757
 10
-2.3267469183
 20
-4.9379816534
 10
-2.2376263756
 20
-5.0355943915
 10
-2.1444080952
 20
-5.129313613
 10
-2.0472634431
 20
-5.2189657072
 10
-1.9463678496
 20
-5.3043875039
 10
-1.841886354
 20
-5.3854358973
 10
-1.733992895
 20
-5.461969345
 10
-1.6228965767
 20
-5.5338331108
 10
-1.5088250086
 20
-5.6008773983
 10
-1.3919580492
 20
-5.6629938167
 10
-1.2725375475
 20
-5.7200512022
 10
-1.1509008814
 20
-5.7718971954
 10
-1.0272732563
 20
-5.8184530937
 10
-0.9018897623
 20
-5.8596473449
 10
-0.7751190838
 20
-5.8953851843
 10
-0.6472100631
 20
-5.9256323429
 10
-0.5183925224
 20
-5.9503698897
 10
-0.3890144551
 20
-5.9695725425
 10
-0.259351236
 20
-5.983250014
 10
-0.1296022455
 20
-5.9914314379
 10
0.0
 20
-5.9941496639
  0
LWPOLYLINE
  5
3E0
100
AcDbEntity
  8
0
100
AcDbPolyline
 62
7
  6
CONTINUOUS
 90
7
 70
0
 10
-3.1404550116
 20
-3.4063634211
 10
-3.162429488
 20
-3.2396975769
 10
-3.1756141739
 20
-3.0730317327
 10
-3.1800090692
 20
-2.9063658885
 10
-3.1756141739
 20
-2.7397000443
 10
-3.162429488
 20
-2.5730342001
 10
-3.1404550116
 20
-2.4063683559
  0
LWPOLYLINE
  5
3E1
100
AcDbEntity
  8
RACCORDO
100
AcDbPolyline
 62
250
  6
CONTINUOUS
 90
10
 70
0
 10
-0.4003959926
 20
-17.9812929152
 10
-0.3927775216
 20
-18.068082381
 10
-0.3702063799
 20
-18.1522366349
 10
-0.33336812
 20
-18.2311996816
 10
-0.2833816276
 20
-18.3025731964
 10
-0.2217651324
 20
-18.3641893753
 10
-0.1503900916
 20
-18.4141767739
 10
-0.0714243581
 20
-18.4510171397
 10
0.0127336605
 20
-18.4735915287
 10
0.099527855
 20
-18.4812142958
  0
LINE
  5
3E2
100
AcDbEntity
  8
DRAFT
100
AcDbLine
 62
7
  6
CONTINUOUS
 10
-3.2715098257
 20
18.9935263559
 11
-3.2708289944
 21
18.9545217505
  0
LINE
  5
3E3
100
AcDbEntity
  8
DRAFT
100
AcDbLine
 62
7
  6
CONTINUOUS
 10
-2.5779831763
 20
-18.9890751492
 11
-2.5791105763
 21
-18.9244867627
  0
LINE
  5
3E4
100
AcDbEntity
  8
DRAFT
100
AcDbLine
 62
7
  6
CONTINUOUS
 10
-3.2223183883
 20
18.9931570193
 11
-3.2216440039
 21
18.9545217505
  0
LINE
  5
3E5
100
AcDbEntity
  8
DRAFT
100
AcDbLine
 62
7
  6
CONTINUOUS
 10
-2.5294123588
 20
-18.9890751492
 11
-2.5305545531
 21
-18.92363921
  0
LINE
  5
3E6
100
AcDbEntity
  8
DRAFT
100
AcDbLine
 62
7
  6
CONTINUOUS
 10
-2.5601365214
 20
-17.2288977406
 11
-2.5614959362
 21
-17.1510173057
  0
LINE
  5
3E7
100
AcDbEntity
  8
DRAFT
100
AcDbLine
 62
7
  6
CONTINUOUS
 10
-2.8188092697
 20
-19.0237836218
 11
-2.8188847576
 21
-19.0182475478
  0
LINE
  5
3E8
100
AcDbEntity
  8
DRAFT
100
AcDbLine
 62
7
  6
CONTINUOUS
 10
-2.8189322647
 20
-19.0182479624
 11
-2.8190167476
 21
-19.0085677559
  0
LINE
  5
3E9
100
AcDbEntity
  8
DRAFT
100
AcDbLine
 62
7
  6
CONTINUOUS
 10
-2.5967206403
 20
-17.2289542705
 11
-2.5974029327
 21
-17.1510173057
  0
LINE
  5
3EA
100
AcDbEntity
  8
RACCORDO
100
AcDbLine
 62
250
  6
CONTINUOUS
 10
-1.4966457887
 20
-18.8990440706
 11
-1.4962257926
 21
-19.0342845637
  0
LINE
  5
3EB
100
AcDbEntity
  8
RACCORDO
100
AcDbLine
 62
250
  6
CONTINUOUS
 10
-2.4969744882
 20
-18.9195358429
 11
-2.4966206466
 21
-19.0342845637
  0
LINE
  5
3EC
100
AcDbEntity
  8
DRAFT
100
AcDbLine
 62
7
  6
CONTINUOUS
 10
-3.0984611006
 20
21.2174395269
 11
-3.1
 21
22.2174833374
  0
LINE
  5
3ED
100
AcDbEntity
  8
0
100
AcDbLine
 62
7
  6
CONTINUOUS
 10
-1.618061
 20
-13.8042700674
 11
-1.618061
 21
-13.3130819338
  0
LINE
  5
3EE
100
AcDbEntity
  8
0
100
AcDbLine
 62
7
  6
CONTINUOUS
 10
-1.618061
 20
-11.8075761364
 11
-1.618061
 21
-11.0860749708
  0
LINE
  5
3EF
100
AcDbEntity
  8
DRAFT
100
AcDbLine
 62
7
  6
CONTINUOUS
 10
-3.0984611006
 20
-21.1821989104
 11
-3.1
 21
-22.1822975576
  0
LINE
  5
3F0
100
AcDbEntity
  8
RACCORDO
100
AcDbLine
 62
250
  6
CONTINUOUS
 10
-2.4965572322
 20
19.0876848522
 11
-2.4969744882
 21
18.9520407896
  0
LINE
  5
3F1
100
AcDbEntity
  8
RACCORDO
100
AcDbLine
 62
250
  6
CONTINUOUS
 10
-1.4961847271
 20
19.0876848522
 11
-1.4966457887
 21
18.9378002239
  0
LINE
  5
3F2
100
AcDbEntity
  8
DRAFT
100
AcDbLine
 62
7
  6
CONTINUOUS
 10
-3.2032818837
 20
-17.2292425801
 11
-3.2025970673
 21
-17.1510173057
  0
LINE
  5
3F3
100
AcDbEntity
  8
DRAFT
100
AcDbLine
 62
7
  6
CONTINUOUS
 10
-2.8382546653
 20
19.0160312025
 11
-2.838036392
 21
19.0330376345
  0
LINE
  5
3F4
100
AcDbEntity
  8
DRAFT
100
AcDbLine
 62
7
  6
CONTINUOUS
 10
-2.8377723918
 20
19.0536068163
 11
-2.8376185395
 21
19.0655939947
  0
LINE
  5
3F5
100
AcDbEntity
  8
DRAFT
100
AcDbLine
 62
7
  6
CONTINUOUS
 10
-2.8376774025
 20
19.0536051583
 11
-2.838036392
 21
19.0330376345
  0
LINE
  5
3F6
100
AcDbEntity
  8
DRAFT
100
AcDbLine
 62
7
  6
CONTINUOUS
 10
-3.2385040638
 20
-17.1510173057
 11
-3.2398688728
 21
-17.2292067733
  0
LINE
  5
3F7
100
AcDbEntity
  8
DRAFT
100
AcDbLine
 62
7
  6
CONTINUOUS
 10
-3.2694361375
 20
-18.9231058756
 11
-3.2706031887
 21
-18.9899658612
  0
LINE
  5
3F8
100
AcDbEntity
  8
DRAFT
100
AcDbLine
 62
7
  6
CONTINUOUS
 10
-2.5777084999
 20
18.9916166023
 11
-2.5783321297
 21
18.9558890497
  0
LINE
  5
3F9
100
AcDbEntity
  8
DRAFT
100
AcDbLine
 62
7
  6
CONTINUOUS
 10
-3.222029479
 20
-18.9898001679
 11
-3.2208653201
 21
-18.9231058756
  0
LINE
  5
3FA
100
AcDbEntity
  8
DRAFT
100
AcDbLine
 62
7
  6
CONTINUOUS
 10
-2.5291621204
 20
18.9550307797
 11
-2.5285235094
 21
18.9916166023
  0
LWPOLYLINE
  5
3FB
100
AcDbEntity
  8
RACCORDO
100
AcDbPolyline
 62
250
  6
CONTINUOUS
 90
15
 70
0
 10
-1.35
 20
12.8010964451
 10
-1.3407028651
 20
12.9984822233
 10
-1.290960287
 20
13.2955443131
 10
-1.2036315246
 20
13.5713678326
 10
-1.0841679071
 20
13.8237487647
 10
-0.9391350262
 20
14.0488173667
 10
-0.7753948687
 20
14.2444085854
 10
-0.5979872859
 20
14.4113463282
 10
-0.410211802
 20
14.5514902108
 10
-0.2160710238
 20
14.665680169
 10
-0.0194864821
 20
14.7550291136
 10
0.1777428775
 20
14.8216116005
 10
0.3734381334
 20
14.8670487764
 10
0.5648269337
 20
14.8929061279
 10
0.75
 20
14.901086082
  0
LWPOLYLINE
  5
3FC
100
AcDbEntity
  8
DRAFT
100
AcDbPolyline
 62
7
  6
CONTINUOUS
 90
22
 70
0
 10
-3.4738174026
 20
-12.5994065285
 10
-3.4985966066
 20
-12.8769527056
 10
-3.5584665038
 20
-13.1363909014
 10
-3.6534270941
 20
-13.3777211157
 10
-3.7872732693
 20
-13.605155721
 10
-3.9562101377
 20
-13.814482345
 10
-4.1488530239
 20
-13.9930638704
 10
-4.3664959426
 20
-14.1389816649
 10
-4.607844879
 20
-14.2541543608
 10
-4.8576331136
 20
-14.3317007381
 10
-5.1163979385
 20
-14.3693270567
 10
-5.3836020615
 20
-14.3693270567
 10
-5.6423668864
 20
-14.3317007381
 10
-5.892155121
 20
-14.2541543608
 10
-6.1335040574
 20
-14.1389816649
 10
-6.3511469761
 20
-13.9930638704
 10
-6.5437898623
 20
-13.814482345
 10
-6.7127267307
 20
-13.605155721
 10
-6.8465729059
 20
-13.3777211157
 10
-6.9415334962
 20
-13.1363909014
 10
-7.0014033934
 20
-12.8769527056
 10
-7.0261825974
 20
-12.5994065285
  0
LWPOLYLINE
  5
3FD
100
AcDbEntity
  8
DRAFT
100
AcDbPolyline
 62
7
  6
CONTINUOUS
 90
22
 70
0
 10
-1.0261825974
 20
12.8004681276
 10
-1.0014033934
 20
13.0780143047
 10
-0.9415334962
 20
13.3374525005
 10
-0.8465729059
 20
13.5787827148
 10
-0.7127267307
 20
13.8062173201
 10
-0.5437898623
 20
14.0155439441
 10
-0.3511469761
 20
14.1941254695
 10
-0.1335040574
 20
14.340043264
 10
0.107844879
 20
14.4552159599
 10
0.3576331136
 20
14.5327623372
 10
0.6163979385
 20
14.5703886558
 10
0.8836020615
 20
14.5703886558
 10
1.1423668864
 20
14.5327623372
 10
1.392155121
 20
14.4552159599
 10
1.6335040574
 20
14.340043264
 10
1.8511469761
 20
14.1941254695
 10
2.0437898623
 20
14.0155439441
 10
2.2127267307
 20
13.8062173201
 10
2.3465729059
 20
13.5787827148
 10
2.4415334962
 20
13.3374525005
 10
2.5014033934
 20
13.0780143047
 10
2.5261825974
 20
12.8004681276
  0
LWPOLYLINE
  5
3FE
100
AcDbEntity
  8
DRAFT
100
AcDbPolyline
 62
7
  6
CONTINUOUS
 90
9
 70
0
 10
-1.0
 20
12.7957557464
 10
-0.9755846437
 20
13.0692215854
 10
-0.9165926083
 20
13.3248450118
 10
-0.8230238938
 20
13.5626260256
 10
-0.6911358035
 20
13.7867165005
 10
-0.524671034
 20
13.9929645627
 10
-0.3348576759
 20
14.1689145912
 10
-0.1204261114
 20
14.3126711552
 10
0.1173540417
 20
14.4261296855
  0
LWPOLYLINE
  5
3FF
100
AcDbEntity
  8
DRAFT
100
AcDbPolyline
 62
7
  6
CONTINUOUS
 90
10
 70
0
 10
-4.4564266805
 20
-23.1797941736
 10
-4.455756152
 20
-23.1741316775
 10
-4.4551205804
 20
-23.1684533382
 10
-4.4545203321
 20
-23.162759428
 10
-4.4539558365
 20
-23.1570507306
 10
-4.4534273849
 20
-23.1513270251
 10
-4.4529351738
 20
-23.1455870809
 10
-4.4524795541
 20
-23.1398306818
 10
-4.4520609864
 20
-23.1340586321
 10
-4.4516798704
 20
-23.1282712365
  0
LINE
  5
400
100
AcDbEntity
  8
RACCORDO
100
AcDbLine
 62
250
  6
CONTINUOUS
 10
-0.5695131255
 20
12.0101897696
 11
-0.5700282971
 21
12.0058648278
  0
LINE
  5
401
100
AcDbEntity
  8
RACCORDO
100
AcDbLine
 62
250
  6
CONTINUOUS
 10
-0.5
 20
12.5005867142
 11
-0.5047514079
 21
12.4655701624
  0
LWPOLYLINE
  5
402
100
AcDbEntity
  8
RACCORDO
100
AcDbPolyline
 62
250
  6
CONTINUOUS
 90
3
 70
0
 10
-0.5637706652
 20
12.0511862832
 10
-0.5672252758
 20
12.0259014173
 10
-0.5695131255
 20
12.0101897696
  0
LINE
  5
403
100
AcDbEntity
  8
RACCORDO
100
AcDbLine
 62
250
  6
CONTINUOUS
 10
-0.545814907
 20
12.1780287358
 11
-0.5493767606
 21
12.1521425128
  0
LWPOLYLINE
  5
404
100
AcDbEntity
  8
RACCORDO
100
AcDbPolyline
 62
250
  6
CONTINUOUS
 90
3
 70
0
 10
-0.5335137146
 20
12.2647735785
 10
-0.5377102023
 20
12.234480994
 10
-0.545814907
 20
12.1780287358
  0
LWPOLYLINE
  5
405
100
AcDbEntity
  8
RACCORDO
100
AcDbPolyline
 62
250
  6
CONTINUOUS
 90
3
 70
0
 10
-0.5560583112
 20
12.1057516522
 10
-0.5614435438
 20
12.0672344193
 10
-0.5637706652
 20
12.0511862832
  0
LINE
  5
406
100
AcDbEntity
  8
RACCORDO
100
AcDbLine
 62
250
  6
CONTINUOUS
 10
-0.5243422248
 20
12.3287415649
 11
-0.5335137146
 21
12.2647735785
  0
LINE
  5
407
100
AcDbEntity
  8
RACCORDO
100
AcDbLine
 62
250
  6
CONTINUOUS
 10
-0.5493767606
 20
12.1521425128
 11
-0.5560583112
 21
12.1057516522
  0
LWPOLYLINE
  5
408
100
AcDbEntity
  8
RACCORDO
100
AcDbPolyline
 62
250
  6
CONTINUOUS
 90
3
 70
0
 10
-0.5047514079
 20
12.4655701624
 10
-0.5148427973
 20
12.3961030644
 10
-0.5243422248
 20
12.3287415649
  0
LINE
  5
409
100
AcDbEntity
  8
DRAFT
100
AcDbLine
 62
250
  6
CONTINUOUS
 10
2.7494285387
 20
19.0876848522
 11
2.7459745197
 21
19.0747834903
  0
LWPOLYLINE
  5
40A
100
AcDbEntity
  8
RACCORDO
100
AcDbPolyline
 62
250
  6
CONTINUOUS
 90
11
 70
0
 10
6.8814434447
 20
12.1773438499
 10
6.8772576093
 20
12.1721479862
 10
6.8499548592
 20
12.1432946013
 10
6.8204487045
 20
12.1166885333
 10
6.7890396975
 20
12.0926087619
 10
6.7556620532
 20
12.0710003994
 10
6.7205685062
 20
12.0520405528
 10
6.6844545773
 20
12.0360862704
 10
6.6475016415
 20
12.023131484
 10
6.6094020842
 20
12.0130384801
 10
6.5700282971
 20
12.0058648278
  0
LINE
  5
40B
100
AcDbEntity
  8
DRAFT
100
AcDbLine
 62
7
  6
CONTINUOUS
 10
-9.2469208341
 20
-8.3379959751
 11
-9.3518065102
 21
-8.4637628958
  0
LWPOLYLINE
  5
40C
100
AcDbEntity
  8
RACCORDO
100
AcDbPolyline
 62
250
  6
CONTINUOUS
 90
11
 70
0
 10
6.8754630747
 20
12.1621462656
 10
6.8535533906
 20
12.138236159
 10
6.8213938048
 20
12.1087674735
 10
6.7867882182
 20
12.0822138039
 10
6.75
 20
12.0587772398
 10
6.7113091309
 20
12.0386361476
 10
6.6710100717
 20
12.0219438131
 10
6.6294095226
 20
12.0088272751
 10
6.5868240888
 20
11.9993863583
 10
6.5435778714
 20
11.9936929138
 10
6.5
 20
11.9917902723
  0
LWPOLYLINE
  5
40D
100
AcDbEntity
  8
RACCORDO
100
AcDbPolyline
 62
250
  6
CONTINUOUS
 90
10
 70
0
 10
6.8670714867
 20
12.1408211857
 10
6.8535531692
 20
12.1260686222
 10
6.8213935686
 20
12.0965999598
 10
6.7867879761
 20
12.0700463189
 10
6.7499997618
 20
12.0466097868
 10
6.7113089073
 20
12.0264687278
 10
6.6710098737
 20
12.0097764254
 10
6.6294093604
 20
11.9966599159
 10
6.586823972
 20
11.9872190219
 10
6.5435778089
 20
11.9815255925
  0
LINE
  5
40E
100
AcDbEntity
  8
0
100
AcDbLine
 62
7
  6
CONTINUOUS
 10
-1.1583083962
 20
-2.6459458977
 11
-1.3221474376
 21
-2.6782045029
  0
LWPOLYLINE
  5
40F
100
AcDbEntity
  8
0
100
AcDbPolyline
 62
7
  6
CONTINUOUS
 90
10
 70
0
 10
-0.238823006
 20
-1.7854924078
 10
-0.1862019499
 20
-1.7755835012
 10
-0.133199209
 20
-1.7681387548
 10
-0.0799299419
 20
-1.7631711471
 10
-0.0265102557
 20
-1.7606860359
 10
0.0269451055
 20
-1.7606878697
 10
0.0803219538
 20
-1.763180462
 10
0.1335046286
 20
-1.768157852
 10
0.1863773031
 20
-1.775604074
 10
0.2388255598
 20
-1.7855000983
  0
LINE
  5
410
100
AcDbEntity
  8
DRAFT
100
AcDbLine
 62
250
  6
CONTINUOUS
 10
9.4389390101
 20
-1.2796632654
 11
10.8733846303
 21
-1.0236495489
  0
LINE
  5
411
100
AcDbEntity
  8
RACCORDO
100
AcDbLine
 62
7
  6
CONTINUOUS
 10
9.9762718881
 20
-0.9028088141
 11
9.2338305324
 21
-1.0337206107
  0
LINE
  5
412
100
AcDbEntity
  8
0
100
AcDbLine
 62
7
  6
CONTINUOUS
 10
-3.1404550116
 20
-2.4063683559
 11
-3.0502872693
 21
-2.403172007
  0
LINE
  5
413
100
AcDbEntity
  8
0
100
AcDbLine
 62
7
  6
CONTINUOUS
 10
-3.0502872693
 20
-2.403172007
 11
-3.0484910281
 21
-2.403127339
  0
LINE
  5
414
100
AcDbEntity
  8
0
100
AcDbLine
 62
7
  6
CONTINUOUS
 10
0.959008459
 20
-2.4025984509
 11
0.6957849968
 21
-2.4063683559
  0
LINE
  5
415
100
AcDbEntity
  8
0
100
AcDbLine
 62
7
  6
CONTINUOUS
 10
-3.0484910281
 20
-2.403127339
 11
-3.0419804383
 21
-2.4030408292
  0
LINE
  5
416
100
AcDbEntity
  8
0
100
AcDbLine
 62
7
  6
CONTINUOUS
 10
1.1450498459
 20
-3.1358680215
 11
1.3221474366
 21
-3.1345272795
  0
LINE
  5
417
100
AcDbEntity
  8
0
100
AcDbLine
 62
7
  6
CONTINUOUS
 10
-3.0419804383
 20
-2.4030408292
 11
-3.0174315975
 21
-2.4028802217
  0
LINE
  5
418
100
AcDbEntity
  8
0
100
AcDbLine
 62
7
  6
CONTINUOUS
 10
1.1450395831
 20
-2.6791113266
 11
1.3221579868
 21
-2.6782656417
  0
LINE
  5
419
100
AcDbEntity
  8
0
100
AcDbLine
 62
7
  6
CONTINUOUS
 10
3.1404550116
 20
-2.4063683559
 11
0.6957849968
 21
-2.4063683559
  0
LINE
  5
41A
100
AcDbEntity
  8
0
100
AcDbLine
 62
7
  6
CONTINUOUS
 10
-0.6957835058
 20
-2.4063683559
 11
-3.1404550116
 21
-2.4063683559
  0
LINE
  5
41B
100
AcDbEntity
  8
0
100
AcDbLine
 62
7
  6
CONTINUOUS
 10
-3.0174315975
 20
-2.4028802217
 11
-0.9590083865
 21
-2.4025984509
  0
LINE
  5
41C
100
AcDbEntity
  8
0
100
AcDbLine
 62
7
  6
CONTINUOUS
 10
0.959008459
 20
-2.4025984509
 11
3.0175990786
 21
-2.4028810064
  0
LINE
  5
41D
100
AcDbEntity
  8
0
100
AcDbLine
 62
7
  6
CONTINUOUS
 10
-1.1450498445
 20
-2.6790589599
 11
-1.3221474376
 21
-2.6782045029
  0
LINE
  5
41E
100
AcDbEntity
  8
0
100
AcDbLine
 62
7
  6
CONTINUOUS
 10
-1.1450395831
 20
-3.1358156151
 11
-1.3221579868
 21
-3.1344661354
  0
LINE
  5
41F
100
AcDbEntity
  8
0
100
AcDbLine
 62
7
  6
CONTINUOUS
 10
3.0175990786
 20
-2.4028810064
 11
3.0420159076
 21
-2.4030411845
  0
LINE
  5
420
100
AcDbEntity
  8
0
100
AcDbLine
 62
7
  6
CONTINUOUS
 10
-0.6957835058
 20
-2.4063683559
 11
-0.9590083865
 21
-2.4025984509
  0
LWPOLYLINE
  5
421
100
AcDbEntity
  8
0
100
AcDbPolyline
 62
7
  6
CONTINUOUS
 90
3
 70
0
 10
3.0420159076
 20
-2.4030411845
 10
3.0484962815
 20
-2.4031274568
 10
3.0502872693
 20
-2.403172007
  0
LINE
  5
422
100
AcDbEntity
  8
0
100
AcDbLine
 62
7
  6
CONTINUOUS
 10
3.0502872693
 20
-2.403172007
 11
3.1404550116
 21
-2.4063683559
  0
LINE
  5
423
100
AcDbEntity
  8
RACCORDO
100
AcDbLine
 62
7
  6
CONTINUOUS
 10
-9.2338305324
 20
-1.0337206107
 11
-9.9762718881
 21
-0.9028088141
  0
LINE
  5
424
100
AcDbEntity
  8
DRAFT
100
AcDbLine
 62
250
  6
CONTINUOUS
 10
-9.4389390101
 20
-1.2796632654
 11
-10.8733846303
 21
-1.0236495489
  0
LINE
  5
425
100
AcDbEntity
  8
0
100
AcDbLine
 62
7
  6
CONTINUOUS
 10
1.3221579868
 20
-2.6782656417
 11
1.1584236733
 21
-2.6460238202
  0
LINE
  5
426
100
AcDbEntity
  8
0
100
AcDbLine
 62
7
  6
CONTINUOUS
 10
1.1221062937
 20
-2.6687699022
 11
1.1449972769
 21
-2.6793163046
  0
LINE
  5
427
100
AcDbEntity
  8
0
100
AcDbLine
 62
7
  6
CONTINUOUS
 10
-0.2281482281
 20
-1.7624717802
 11
-0.2755058959
 21
-1.7406973087
  0
LINE
  5
428
100
AcDbEntity
  8
0
100
AcDbLine
 62
7
  6
CONTINUOUS
 10
-0.2755058959
 20
-1.7406973087
 11
-0.3227523623
 21
-1.7187118457
  0
LINE
  5
429
100
AcDbEntity
  8
0
100
AcDbLine
 62
7
  6
CONTINUOUS
 10
1.0713351687
 20
-2.6450560224
 11
1.1220965674
 21
-2.6687667472
  0
LINE
  5
42A
100
AcDbEntity
  8
0
100
AcDbLine
 62
7
  6
CONTINUOUS
 10
0.5197300801
 20
-2.3885709087
 11
1.0713351687
 21
-2.6450560224
  0
LINE
  5
42B
100
AcDbEntity
  8
0
100
AcDbLine
 62
7
  6
CONTINUOUS
 10
-0.3227523623
 20
-1.7187118457
 11
-0.3698876273
 21
-1.6965153912
  0
LINE
  5
42C
100
AcDbEntity
  8
DRAFT
100
AcDbLine
 62
7
  6
CONTINUOUS
 10
-9.2469208341
 20
1.2410538416
 11
-9.4389390101
 21
1.3330507523
  0
LINE
  5
42D
100
AcDbEntity
  8
0
100
AcDbLine
 62
7
  6
CONTINUOUS
 10
0.6536727773
 20
-2.2489262666
 11
0.7553694325
 21
-2.299475697
  0
LINE
  5
42E
100
AcDbEntity
  8
0
100
AcDbLine
 62
7
  6
CONTINUOUS
 10
-0.3816641739
 20
-1.7139339488
 11
-0.2388223825
 21
-1.7854903498
  0
LINE
  5
42F
100
AcDbEntity
  8
0
100
AcDbLine
 62
7
  6
CONTINUOUS
 10
0.7553694325
 20
-2.299475697
 11
0.8569845634
 21
-2.3506640811
  0
LINE
  5
430
100
AcDbEntity
  8
0
100
AcDbLine
 62
7
  6
CONTINUOUS
 10
0.6957849968
 20
-2.4063683559
 11
0.8422669258
 21
-2.4802583456
  0
LINE
  5
431
100
AcDbEntity
  8
0
100
AcDbLine
 62
7
  6
CONTINUOUS
 10
0.8569845634
 20
-2.3506640811
 11
0.959008459
 21
-2.4025984509
  0
LINE
  5
432
100
AcDbEntity
  8
RACCORDO
100
AcDbLine
 62
7
  6
CONTINUOUS
 10
10.6993779273
 20
-8.2232541153
 11
10.4761957357
 21
-8.1091349344
  0
LINE
  5
433
100
AcDbEntity
  8
0
100
AcDbLine
 62
7
  6
CONTINUOUS
 10
0.8422669258
 20
-2.4802583456
 11
0.9898571621
 21
-2.5557544372
  0
LINE
  5
434
100
AcDbEntity
  8
0
100
AcDbLine
 62
7
  6
CONTINUOUS
 10
0.9898571621
 20
-2.5557544372
 11
1.1384059624
 21
-2.6324901406
  0
LINE
  5
435
100
AcDbEntity
  8
0
100
AcDbLine
 62
7
  6
CONTINUOUS
 10
1.1584236733
 20
-2.6460238202
 11
1.1384059624
 21
-2.6324901406
  0
LINE
  5
436
100
AcDbEntity
  8
0
100
AcDbLine
 62
7
  6
CONTINUOUS
 10
0.5197234842
 20
-3.4280006429
 11
0.6536731201
 21
-3.5562658723
  0
LINE
  5
437
100
AcDbEntity
  8
0
100
AcDbLine
 62
7
  6
CONTINUOUS
 10
-0.6536731201
 20
-2.2489260948
 11
-0.5197234842
 21
-2.388558804
  0
LINE
  5
438
100
AcDbEntity
  8
RACCORDO
100
AcDbLine
 62
250
  6
CONTINUOUS
 10
11.0
 20
-15.7956970221
 11
10.4761957357
 21
-15.1776203039
  0
LINE
  5
439
100
AcDbEntity
  8
0
100
AcDbLine
 62
7
  6
CONTINUOUS
 10
-0.3816642219
 20
-4.0912579257
 11
-0.3699670946
 21
-4.1085590151
  0
LINE
  5
43A
100
AcDbEntity
  8
0
100
AcDbLine
 62
7
  6
CONTINUOUS
 10
-0.3816642219
 20
-4.0912579257
 11
-0.4744500681
 21
-3.9114717136
  0
LINE
  5
43B
100
AcDbEntity
  8
0
100
AcDbLine
 62
7
  6
CONTINUOUS
 10
-0.4744500681
 20
-3.9114717136
 11
-0.5395110024
 21
-3.7840708439
  0
LINE
  5
43C
100
AcDbEntity
  8
0
100
AcDbLine
 62
7
  6
CONTINUOUS
 10
-0.5395110024
 20
-3.7840708439
 11
-0.590665729
 21
-3.6828014071
  0
LWPOLYLINE
  5
43D
100
AcDbEntity
  8
0
100
AcDbPolyline
 62
7
  6
CONTINUOUS
 90
3
 70
0
 10
-0.590665729
 20
-3.6828014071
 10
-0.6411374095
 20
-3.5816201991
 10
-0.6536727773
 20
-3.5562657004
  0
LINE
  5
43E
100
AcDbEntity
  8
0
100
AcDbLine
 62
7
  6
CONTINUOUS
 10
-0.4728200502
 20
-3.5285085773
 11
-0.5197113858
 21
-3.4280072453
  0
LINE
  5
43F
100
AcDbEntity
  8
0
100
AcDbLine
 62
7
  6
CONTINUOUS
 10
-0.2281482181
 20
-4.0524550266
 11
-0.4728200502
 21
-3.5285085773
  0
LINE
  5
440
100
AcDbEntity
  8
0
100
AcDbLine
 62
7
  6
CONTINUOUS
 10
-1.122106287
 20
-2.6687699121
 11
-1.1384058698
 21
-2.6324900926
  0
LWPOLYLINE
  5
441
100
AcDbEntity
  8
0
100
AcDbPolyline
 62
7
  6
CONTINUOUS
 90
7
 70
0
 10
-1.1583083962
 20
-2.6459458977
 10
-1.1559327111
 20
-2.6514027944
 10
-1.1536198915
 20
-2.6569016269
 10
-1.1513699377
 20
-2.6624423952
 10
-1.1491828495
 20
-2.6680250992
 10
-1.147058627
 20
-2.673649739
 10
-1.1449972701
 20
-2.6793163145
  0
LINE
  5
442
100
AcDbEntity
  8
DRAFT
100
AcDbLine
 62
7
  6
CONTINUOUS
 10
4.5079397808
 20
-19.0187532933
 11
4.5031892363
 21
-19.0074064732
  0
LWPOLYLINE
  5
443
100
AcDbEntity
  8
0
100
AcDbPolyline
 62
7
  6
CONTINUOUS
 90
10
 70
0
 10
-1.1220965674
 20
-3.1464155096
 10
-1.1319968157
 20
-3.0939416845
 10
-1.1394441063
 20
-3.0410496287
 10
-1.144420301
 20
-2.9878540097
 10
-1.1469103603
 20
-2.9344708455
 10
-1.146909226
 20
-2.8810158506
 10
-1.1444215745
 20
-2.8276031353
 10
-1.1394527441
 20
-2.7743473366
 10
-1.1320090132
 20
-2.7213644189
 10
-1.1221042462
 20
-2.6687692892
  0
LINE
  5
444
100
AcDbEntity
  8
DRAFT
100
AcDbLine
 62
7
  6
CONTINUOUS
 10
0.6248835365
 20
-19.0342845637
 11
0.6247179508
 21
-19.0282132236
  0
LINE
  5
445
100
AcDbEntity
  8
DRAFT
100
AcDbLine
 62
7
  6
CONTINUOUS
 10
-0.6248835365
 20
19.0876848522
 11
-0.6247179508
 21
19.0747834903
  0
LINE
  5
446
100
AcDbEntity
  8
0
100
AcDbLine
 62
7
  6
CONTINUOUS
 10
-1.381939
 20
-2.9308702709
 11
-1.381939
 21
-2.9622861458
  0
LINE
  5
447
100
AcDbEntity
  8
0
100
AcDbLine
 62
7
  6
CONTINUOUS
 10
-1.25
 20
-10.9325693616
 11
-1.25
 21
-11.8075761364
  0
LINE
  5
448
100
AcDbEntity
  8
0
100
AcDbLine
 62
7
  6
CONTINUOUS
 10
-1.25
 20
-13.3141685353
 11
-1.25
 21
-13.8042700674
  0
LINE
  5
449
100
AcDbEntity
  8
RACCORDO
100
AcDbLine
 62
250
  6
CONTINUOUS
 10
-0.75
 20
-10.1978475783
 11
-0.7499999093
 21
-10.4987885741
  0
LINE
  5
44A
100
AcDbEntity
  8
RACCORDO
100
AcDbLine
 62
250
  6
CONTINUOUS
 10
-0.75
 20
-14.9978238913
 11
-0.75
 21
-14.6987678479
  0
LINE
  5
44B
100
AcDbEntity
  8
RACCORDO
100
AcDbLine
 62
250
  6
CONTINUOUS
 10
-0.75
 20
-9.8944037612
 11
-0.75
 21
-9.5954098575
  0
LINE
  5
44C
100
AcDbEntity
  8
RACCORDO
100
AcDbLine
 62
250
  6
CONTINUOUS
 10
-0.75
 20
-15.3012677084
 11
-0.7500003696
 21
-15.6021794613
  0
LINE
  5
44D
100
AcDbEntity
  8
RACCORDO
100
AcDbLine
 62
250
  6
CONTINUOUS
 10
-0.5
 20
13.8539114341
 11
-0.5
 21
12.5006001398
  0
LINE
  5
44E
100
AcDbEntity
  8
RACCORDO
100
AcDbLine
 62
250
  6
CONTINUOUS
 10
-0.5
 20
11.9796229563
 11
-0.5
 21
11.9917902723
  0
LINE
  5
44F
100
AcDbEntity
  8
RACCORDO
100
AcDbLine
 62
250
  6
CONTINUOUS
 10
-0.4044089061
 20
12.4938722743
 11
-0.4044089061
 21
11.992303948
  0
LINE
  5
450
100
AcDbEntity
  8
RACCORDO
100
AcDbLine
 62
250
  6
CONTINUOUS
 10
-0.4003959926
 20
-17.1990294986
 11
-0.4003816907
 21
-17.9812760393
  0
LINE
  5
451
100
AcDbEntity
  8
RACCORDO
100
AcDbLine
 62
7
  6
CONTINUOUS
 10
-0.30360109
 20
-17.1332146874
 11
-0.30360109
 21
-17.8670772056
  0
LINE
  5
452
100
AcDbEntity
  8
0
100
AcDbLine
 62
7
  6
CONTINUOUS
 10
-0.2284056601
 20
-4.0525076822
 11
-0.2280138585
 21
-4.5663798056
  0
LINE
  5
453
100
AcDbEntity
  8
0
100
AcDbLine
 62
7
  6
CONTINUOUS
 10
0.2284056554
 20
-1.7624192931
 11
0.2280138585
 21
-1.2421004973
  0
LINE
  5
454
100
AcDbEntity
  8
0
100
AcDbLine
 62
7
  6
CONTINUOUS
 10
-0.2280138585
 20
-4.5663798056
 11
-0.228093211
 21
-4.8291187347
  0
LINE
  5
455
100
AcDbEntity
  8
0
100
AcDbLine
 62
7
  6
CONTINUOUS
 10
0.2280138585
 20
-1.2421004973
 11
0.2280932124
 21
-0.9760732326
  0
LINE
  5
456
100
AcDbEntity
  8
0
100
AcDbLine
 62
7
  6
CONTINUOUS
 10
0.2281175934
 20
-4.214899499
 11
0.2280182644
 21
-4.8291276065
  0
LINE
  5
457
100
AcDbEntity
  8
0
100
AcDbLine
 62
7
  6
CONTINUOUS
 10
-0.2283532711
 20
-1.7624295383
 11
-0.2280182644
 21
-0.9760643606
  0
LINE
  5
458
100
AcDbEntity
  8
DRAFT
100
AcDbLine
 62
7
  6
CONTINUOUS
 10
-0.6247179508
 20
-19.0282132236
 11
-0.6248835365
 21
-19.0342845637
  0
LWPOLYLINE
  5
459
100
AcDbEntity
  8
DRAFT
100
AcDbPolyline
 62
7
  6
CONTINUOUS
 90
22
 70
0
 10
-2.5261825974
 20
-12.5994065285
 10
-2.5014033934
 20
-12.3218603514
 10
-2.4415334962
 20
-12.0624221557
 10
-2.3465729059
 20
-11.8210919413
 10
-2.2127267307
 20
-11.593657336
 10
-2.0437898623
 20
-11.384330712
 10
-1.8511469761
 20
-11.2057491867
 10
-1.6335040574
 20
-11.0598313922
 10
-1.392155121
 20
-10.9446586963
 10
-1.1423668864
 20
-10.867112319
 10
-0.8836020615
 20
-10.8294860003
 10
-0.6163979385
 20
-10.8294860003
 10
-0.3576331136
 20
-10.867112319
 10
-0.107844879
 20
-10.9446586963
 10
0.1335040574
 20
-11.0598313922
 10
0.3511469761
 20
-11.2057491867
 10
0.5437898623
 20
-11.384330712
 10
0.7127267307
 20
-11.593657336
 10
0.8465729059
 20
-11.8210919413
 10
0.9415334962
 20
-12.0624221557
 10
1.0014033934
 20
-12.3218603514
 10
1.0261825974
 20
-12.5994065285
  0
LWPOLYLINE
  5
45A
100
AcDbEntity
  8
DRAFT
100
AcDbPolyline
 62
7
  6
CONTINUOUS
 90
22
 70
0
 10
-2.5
 20
-12.6041189097
 10
-2.4755846437
 20
-12.3306530707
 10
-2.4165926083
 20
-12.0750296443
 10
-2.3230238938
 20
-11.8372486305
 10
-2.1911358035
 20
-11.6131581557
 10
-2.024671034
 20
-11.4069100934
 10
-1.8348576759
 20
-11.2309600649
 10
-1.6204261114
 20
-11.0872035009
 10
-1.3826459583
 20
-10.9737449706
 10
-1.1365541602
 20
-10.8973538027
 10
-0.881621935
 20
-10.8602864403
 10
-0.618378065
 20
-10.8602864403
 10
-0.3634458398
 20
-10.8973538027
 10
-0.1173540417
 20
-10.9737449706
 10
0.1204261114
 20
-11.0872035009
 10
0.3348576759
 20
-11.2309600649
 10
0.524671034
 20
-11.4069100934
 10
0.6911358035
 20
-11.6131581557
 10
0.8230238938
 20
-11.8372486305
 10
0.9165926083
 20
-12.0750296443
 10
0.9755846437
 20
-12.3306530707
 10
1.0
 20
-12.6041189097
  0
LWPOLYLINE
  5
45B
100
AcDbEntity
  8
0
100
AcDbPolyline
 62
7
  6
CONTINUOUS
 90
10
 70
0
 10
-1.3221474376
 20
-2.6782045029
 10
-1.3298621129
 20
-2.7286057904
 10
-1.3356484132
 20
-2.77915427
 10
-1.3395063383
 20
-2.8298499417
 10
-1.3414358892
 20
-2.8807909117
 10
-1.341437065
 20
-2.9318790739
 10
-1.3395098629
 20
-2.9828201093
 10
-1.335654282
 20
-3.0335159115
 10
-1.3298703234
 20
-3.0840645869
 10
-1.3221579868
 20
-3.1344661354
  0
LINE
  5
45C
100
AcDbEntity
  8
0
100
AcDbLine
 62
7
  6
CONTINUOUS
 10
-0.2280182644
 20
-0.9760643606
 11
-0.3698876273
 21
-1.6965153912
  0
LINE
  5
45D
100
AcDbEntity
  8
DRAFT
100
AcDbLine
 62
7
  6
CONTINUOUS
 10
3.7015837471
 20
19.0224212384
 11
3.6977679175
 21
19.0030538638
  0
LINE
  5
45E
100
AcDbEntity
  8
DRAFT
100
AcDbLine
 62
7
  6
CONTINUOUS
 10
3.7096363724
 20
19.0632926147
 11
3.7095341615
 21
19.0627738399
  0
LWPOLYLINE
  5
45F
100
AcDbEntity
  8
DRAFT
100
AcDbPolyline
 62
7
  6
CONTINUOUS
 90
10
 70
0
 10
4.4564266805
 20
23.1797941736
 10
4.455756152
 20
23.17694086
 10
4.4551205804
 20
23.1740675415
 10
4.4545203321
 20
23.1711744902
 10
4.4539558365
 20
23.1682624944
 10
4.4534273849
 20
23.1653313288
 10
4.4529351738
 20
23.1623797493
 10
4.4524795541
 20
23.1594075357
 10
4.4520609864
 20
23.1564154965
 10
4.4516798704
 20
23.1534039364
  0
LINE
  5
460
100
AcDbEntity
  8
DRAFT
100
AcDbLine
 62
7
  6
CONTINUOUS
 10
3.7161667878
 20
19.0876848522
 11
3.7096363724
 21
19.0632926147
  0
LINE
  5
461
100
AcDbEntity
  8
DRAFT
100
AcDbLine
 62
7
  6
CONTINUOUS
 10
-6.9712561167
 20
-21.2012919519
 11
-6.9587505924
 21
-21.1554050279
  0
LWPOLYLINE
  5
462
100
AcDbEntity
  8
0
100
AcDbPolyline
 62
7
  6
CONTINUOUS
 90
7
 70
0
 10
-1.1450395831
 20
-3.1358156151
 10
-1.147134063
 20
-3.1409927064
 10
-1.1492830236
 20
-3.1461584506
 10
-1.1514864649
 20
-3.1513128477
 10
-1.153744387
 20
-3.1564558978
 10
-1.1560567898
 20
-3.1615876009
 10
-1.1584236733
 20
-3.1667079568
  0
LINE
  5
463
100
AcDbEntity
  8
RACCORDO
100
AcDbLine
 62
7
  6
CONTINUOUS
 10
-10.7863812788
 20
-4.6234518321
 11
-10.4761957357
 21
-4.4648454493
  0
LINE
  5
464
100
AcDbEntity
  8
DRAFT
100
AcDbLine
 62
7
  6
CONTINUOUS
 10
9.2469208341
 20
4.8853433267
 11
9.3953727601
 21
4.9564674196
  0
LINE
  5
465
100
AcDbEntity
  8
DRAFT
100
AcDbLine
 62
250
  6
CONTINUOUS
 10
-9.4389390101
 20
-2.2669314824
 11
-10.8733846303
 21
-2.5213310936
  0
LINE
  5
466
100
AcDbEntity
  8
RACCORDO
100
AcDbLine
 62
7
  6
CONTINUOUS
 10
-9.9762718881
 20
-2.4961118215
 11
-9.2338305324
 21
-2.365200025
  0
LINE
  5
467
100
AcDbEntity
  8
RACCORDO
100
AcDbLine
 62
7
  6
CONTINUOUS
 10
10.8733846303
 20
1.0786511411
 11
10.4761957357
 21
1.0185308042
  0
LWPOLYLINE
  5
468
100
AcDbEntity
  8
0
100
AcDbPolyline
 62
250
  6
CONTINUOUS
 90
34
 70
0
 10
0.0
 20
0.1878105848
 10
-0.1296167174
 20
0.1850917514
 10
-0.2593791734
 20
0.1769085824
 10
-0.3890547865
 20
0.1632283466
 10
-0.5184444409
 20
0.1440219778
 10
-0.6472723914
 20
0.1192799166
 10
-0.7751896653
 20
0.0890278207
 10
-0.9019661868
 20
0.0532849512
 10
-1.0273534104
 20
0.0120857693
 10
-1.150982561
 20
-0.0344746537
 10
-1.2726183002
 20
-0.0863243583
 10
-1.3920358647
 20
-0.1433845107
 10
-1.5088988107
 20
-0.2055029592
 10
-1.6229653287
 20
-0.2725483834
 10
-1.7340557021
 20
-0.3444122966
 10
-1.8419432978
 20
-0.4209454357
 10
-1.9464192344
 20
-0.501993227
 10
-2.0473093949
 20
-0.5874139957
 10
-2.1444490109
 20
-0.67706488
 10
-2.237662773
 20
-0.770782881
 10
-2.3267791722
 20
-0.8683943073
 10
-2.4116464358
 20
-0.969732962
 10
-2.4921127071
 20
-1.0746199284
 10
-2.568025277
 20
-1.1828586976
 10
-2.6392419967
 20
-1.294247988
 10
-2.7056323759
 20
-1.4085847058
 10
-2.7670742375
 20
-1.5256595173
 10
-2.8234522654
 20
-1.6452529632
 10
-2.8746626787
 20
-1.7671439361
 10
-2.920613068
 20
-1.8911114269
 10
-2.9612199047
 20
-2.016929533
 10
-2.9964091048
 20
-2.1443683672
 10
-3.0261163009
 20
-2.2731944274
 10
-3.0502872693
 20
-2.403172007
  0
LWPOLYLINE
  5
469
100
AcDbEntity
  8
0
100
AcDbPolyline
 62
7
  6
CONTINUOUS
 90
7
 70
0
 10
0.2280932124
 20
-0.9760732326
 10
0.1520748566
 20
-0.9685988984
 10
0.0760564113
 20
-0.9641137065
 10
0.0000378766
 20
-0.9626176567
 10
-0.0759807476
 20
-0.9641107491
 10
-0.1519994613
 20
-0.9685929838
 10
-0.2280182644
 20
-0.9760643606
  0
LINE
  5
46A
100
AcDbEntity
  8
RACCORDO
100
AcDbLine
 62
7
  6
CONTINUOUS
 10
-10.8733846303
 20
1.0786511411
 11
-10.4761957357
 21
1.0185308042
  0
LINE
  5
46B
100
AcDbEntity
  8
RACCORDO
100
AcDbLine
 62
7
  6
CONTINUOUS
 10
9.2338305324
 20
-2.365200025
 11
9.9762718881
 21
-2.4961118215
  0
LINE
  5
46C
100
AcDbEntity
  8
DRAFT
100
AcDbLine
 62
250
  6
CONTINUOUS
 10
9.4389390101
 20
-2.2669314824
 11
10.8733846303
 21
-2.5213310936
  0
LINE
  5
46D
100
AcDbEntity
  8
0
100
AcDbLine
 62
7
  6
CONTINUOUS
 10
0.3816642219
 20
-1.7139340414
 11
0.3699670959
 21
-1.6966329539
  0
LWPOLYLINE
  5
46E
100
AcDbEntity
  8
0
100
AcDbPolyline
 62
7
  6
CONTINUOUS
 90
5
 70
0
 10
7.1129076796
 20
-13.6985523341
 10
7.0858716096
 20
-13.6553380411
 10
7.0675258003
 20
-13.6075744748
 10
7.0572857681
 20
-13.554374315
 10
7.055151513
 20
-13.4957375614
  0
LINE
  5
46F
100
AcDbEntity
  8
0
100
AcDbLine
 62
7
  6
CONTINUOUS
 10
0.3816642219
 20
-1.7139340414
 11
0.4744500681
 21
-1.8937202535
  0
LINE
  5
470
100
AcDbEntity
  8
0
100
AcDbLine
 62
7
  6
CONTINUOUS
 10
0.4744500681
 20
-1.8937202535
 11
0.5395110024
 21
-2.0211211232
  0
LINE
  5
471
100
AcDbEntity
  8
0
100
AcDbLine
 62
7
  6
CONTINUOUS
 10
0.5395110024
 20
-2.0211211232
 11
0.590665729
 21
-2.12239056
  0
LWPOLYLINE
  5
472
100
AcDbEntity
  8
0
100
AcDbPolyline
 62
7
  6
CONTINUOUS
 90
3
 70
0
 10
0.590665729
 20
-2.12239056
 10
0.6411374095
 20
-2.223571768
 10
0.6536727773
 20
-2.2489262666
  0
LINE
  5
473
100
AcDbEntity
  8
0
100
AcDbLine
 62
7
  6
CONTINUOUS
 10
1.122106287
 20
-3.1464123002
 11
1.1384058698
 21
-3.1802416845
  0
LINE
  5
474
100
AcDbEntity
  8
0
100
AcDbLine
 62
7
  6
CONTINUOUS
 10
0.4728200503
 20
-2.2879006621
 11
0.5197113858
 21
-2.3885522145
  0
LINE
  5
475
100
AcDbEntity
  8
0
100
AcDbLine
 62
7
  6
CONTINUOUS
 10
0.2281482181
 20
-1.762471787
 11
0.4728200503
 21
-2.2879006621
  0
LWPOLYLINE
  5
476
100
AcDbEntity
  8
0
100
AcDbPolyline
 62
7
  6
CONTINUOUS
 90
7
 70
0
 10
1.1449972701
 20
-3.135610499
 10
1.1470586208
 20
-3.1409113127
 10
1.1491828389
 20
-3.1461701601
 10
1.1513699244
 20
-3.1513870413
 10
1.1536198772
 20
-3.1565619561
 10
1.1559326974
 20
-3.1616949046
 10
1.1583083851
 20
-3.1667858869
  0
LINE
  5
477
100
AcDbEntity
  8
DRAFT
100
AcDbLine
 62
7
  6
CONTINUOUS
 10
3.7096363724
 20
-19.0228056539
 11
3.7127147429
 21
-19.0342845637
  0
LINE
  5
478
100
AcDbEntity
  8
DRAFT
100
AcDbLine
 62
250
  6
CONTINUOUS
 10
4.218841225
 20
-19.0203755642
 11
4.2225710936
 21
-19.0342845637
  0
LINE
  5
479
100
AcDbEntity
  8
DRAFT
100
AcDbLine
 62
7
  6
CONTINUOUS
 10
4.5079397808
 20
-19.0187532933
 11
4.5121048994
 21
-19.0342845637
  0
LINE
  5
47A
100
AcDbEntity
  8
DRAFT
100
AcDbLine
 62
7
  6
CONTINUOUS
 10
3.9733373476
 20
-23.4998840322
 11
3.9630152422
 21
-23.4524103834
  0
LINE
  5
47B
100
AcDbEntity
  8
0
100
AcDbLine
 62
7
  6
CONTINUOUS
 10
-0.3699670946
 20
-4.1085590151
 11
-0.228093211
 21
-4.8291187347
  0
LINE
  5
47C
100
AcDbEntity
  8
0
100
AcDbLine
 62
7
  6
CONTINUOUS
 10
0.3699670959
 20
-1.6966329539
 11
0.2280932124
 21
-0.9760732326
  0
LINE
  5
47D
100
AcDbEntity
  8
DRAFT
100
AcDbLine
 62
7
  6
CONTINUOUS
 10
-3.7096363724
 20
19.0632926147
 11
-3.7095341615
 21
19.0627738399
  0
LINE
  5
47E
100
AcDbEntity
  8
DRAFT
100
AcDbLine
 62
7
  6
CONTINUOUS
 10
-3.6977679175
 20
19.0030538638
 11
-3.7015837471
 21
19.0224212384
  0
LWPOLYLINE
  5
47F
100
AcDbEntity
  8
RACCORDO
100
AcDbPolyline
 62
250
  6
CONTINUOUS
 90
16
 70
0
 10
-1.5993894521
 20
12.3133724531
 10
-1.6431053159
 20
12.6654860462
 10
-1.6345050214
 20
13.0249773884
 10
-1.5831655952
 20
13.3635382613
 10
-1.485574047
 20
13.6753465685
 10
-1.3452433672
 20
13.9662244065
 10
-1.1822895533
 20
14.2253298462
 10
-0.9983873576
 20
14.448319652
 10
-0.7918620279
 20
14.6395370596
 10
-0.577805305
 20
14.8011698465
 10
-0.3581177391
 20
14.932170902
 10
-0.1308987801
 20
15.033587337
 10
0.0944614823
 20
15.1107482611
 10
0.3148330182
 20
15.1654300442
 10
0.5333458574
 20
15.1958563165
 10
0.75
 20
15.2020270778
  0
LINE
  5
480
100
AcDbEntity
  8
RACCORDO
100
AcDbLine
 62
250
  6
CONTINUOUS
 10
1.4961834989
 20
19.0876848522
 11
1.4966457887
 21
18.9378002239
  0
LINE
  5
481
100
AcDbEntity
  8
RACCORDO
100
AcDbLine
 62
7
  6
CONTINUOUS
 10
0.30360109
 20
17.3342762865
 11
0.30360109
 21
18.0681388047
  0
LINE
  5
482
100
AcDbEntity
  8
RACCORDO
100
AcDbLine
 62
250
  6
CONTINUOUS
 10
0.4003772708
 20
18.1474965929
 11
0.4003959926
 21
17.3652485284
  0
LINE
  5
483
100
AcDbEntity
  8
RACCORDO
100
AcDbLine
 62
250
  6
CONTINUOUS
 10
0.4044089061
 20
-12.3060053427
 11
0.4044089061
 21
-11.8075761364
  0
LINE
  5
484
100
AcDbEntity
  8
RACCORDO
100
AcDbLine
 62
250
  6
CONTINUOUS
 10
0.5
 20
-13.6660445024
 11
0.5
 21
-12.3127332081
  0
LINE
  5
485
100
AcDbEntity
  8
RACCORDO
100
AcDbLine
 62
250
  6
CONTINUOUS
 10
0.75
 20
15.505470895
 11
0.7500003696
 21
15.8044647984
  0
LINE
  5
486
100
AcDbEntity
  8
RACCORDO
100
AcDbLine
 62
250
  6
CONTINUOUS
 10
0.75
 20
15.2020270778
 11
0.75
 21
14.901086082
  0
LINE
  5
487
100
AcDbEntity
  8
RACCORDO
100
AcDbLine
 62
250
  6
CONTINUOUS
 10
0.75
 20
10.0986069477
 11
0.75
 21
9.7976951947
  0
LINE
  5
488
100
AcDbEntity
  8
RACCORDO
100
AcDbLine
 62
250
  6
CONTINUOUS
 10
0.75
 20
10.4020507649
 11
0.7499999093
 21
10.7011068082
  0
LINE
  5
489
100
AcDbEntity
  8
0
100
AcDbLine
 62
7
  6
CONTINUOUS
 10
1.25
 20
11.1242061982
 11
1.25
 21
11.9857066143
  0
LINE
  5
48A
100
AcDbEntity
  8
0
100
AcDbLine
 62
7
  6
CONTINUOUS
 10
1.25
 20
13.4938673395
 11
1.25
 21
13.9856967447
  0
LINE
  5
48B
100
AcDbEntity
  8
0
100
AcDbLine
 62
7
  6
CONTINUOUS
 10
1.381939
 20
-2.9308702709
 11
1.381939
 21
-2.9622861458
  0
LINE
  5
48C
100
AcDbEntity
  8
0
100
AcDbLine
 62
7
  6
CONTINUOUS
 10
1.618061
 20
13.9856967447
 11
1.618061
 21
13.4938673395
  0
LINE
  5
48D
100
AcDbEntity
  8
0
100
AcDbLine
 62
7
  6
CONTINUOUS
 10
1.618061
 20
11.9867932158
 11
1.618061
 21
11.2777118074
  0
LINE
  5
48E
100
AcDbEntity
  8
0
100
AcDbLine
 62
7
  6
CONTINUOUS
 10
0.2283532711
 20
-4.0524974034
 11
0.2281175934
 21
-4.214899499
  0
LINE
  5
48F
100
AcDbEntity
  8
RACCORDO
100
AcDbLine
 62
250
  6
CONTINUOUS
 10
1.4962293129
 20
-19.0342845637
 11
1.4966457887
 21
-18.8990440706
  0
LINE
  5
490
100
AcDbEntity
  8
DRAFT
100
AcDbLine
 62
7
  6
CONTINUOUS
 10
0.6247179508
 20
19.0747834903
 11
0.6248835365
 21
19.0876848522
  0
LWPOLYLINE
  5
491
100
AcDbEntity
  8
DRAFT
100
AcDbPolyline
 62
7
  6
CONTINUOUS
 90
22
 70
0
 10
2.5261825974
 20
12.8004681276
 10
2.5014033934
 20
12.5229219505
 10
2.4415334962
 20
12.2634837548
 10
2.3465729059
 20
12.0221535404
 10
2.2127267307
 20
11.7947189351
 10
2.0437898623
 20
11.5853923111
 10
1.8511469761
 20
11.4068107857
 10
1.6335040574
 20
11.2608929913
 10
1.392155121
 20
11.1457202954
 10
1.1423668864
 20
11.0681739181
 10
0.8836020615
 20
11.0305475994
 10
0.6163979385
 20
11.0305475994
 10
0.3576331136
 20
11.0681739181
 10
0.107844879
 20
11.1457202954
 10
-0.1335040574
 20
11.2608929913
 10
-0.3511469761
 20
11.4068107857
 10
-0.5437898623
 20
11.5853923111
 10
-0.7127267307
 20
11.7947189351
 10
-0.8465729059
 20
12.0221535404
 10
-0.9415334962
 20
12.2634837548
 10
-1.0014033934
 20
12.5229219505
 10
-1.0261825974
 20
12.8004681276
  0
LWPOLYLINE
  5
492
100
AcDbEntity
  8
0
100
AcDbPolyline
 62
7
  6
CONTINUOUS
 90
10
 70
0
 10
1.3221474366
 20
-3.1345272795
 10
1.3298621123
 20
-3.0841259915
 10
1.3356484128
 20
-3.0335775113
 10
1.3395063381
 20
-2.982881839
 10
1.3414358891
 20
-2.9319408684
 10
1.341437065
 20
-2.8808527056
 10
1.339509863
 20
-2.8299116696
 10
1.3356542822
 20
-2.7792158668
 10
1.3298703234
 20
-2.7286671908
 10
1.3221579868
 20
-2.6782656417
  0
LINE
  5
493
100
AcDbEntity
  8
0
100
AcDbLine
 62
7
  6
CONTINUOUS
 10
0.2280182644
 20
-4.8291276065
 11
0.3698876273
 21
-4.1086765759
  0
LINE
  5
494
100
AcDbEntity
  8
DRAFT
100
AcDbLine
 62
7
  6
CONTINUOUS
 10
-3.9733373476
 20
-23.4998840322
 11
-3.9630152422
 21
-23.4524103834
  0
LINE
  5
495
100
AcDbEntity
  8
DRAFT
100
AcDbLine
 62
7
  6
CONTINUOUS
 10
-4.5079397808
 20
-19.0187532933
 11
-4.5121048987
 21
-19.0342845637
  0
LINE
  5
496
100
AcDbEntity
  8
DRAFT
100
AcDbLine
 62
7
  6
CONTINUOUS
 10
-3.7127147431
 20
-19.0342845637
 11
-3.7096363724
 21
-19.0228056539
  0
LINE
  5
497
100
AcDbEntity
  8
DRAFT
100
AcDbLine
 62
250
  6
CONTINUOUS
 10
-4.218841225
 20
-19.0203755642
 11
-4.2225718346
 21
-19.0342845637
  0
LINE
  5
498
100
AcDbEntity
  8
0
100
AcDbLine
 62
7
  6
CONTINUOUS
 10
-0.5197234835
 20
-2.3885588046
 11
-0.2281482281
 21
-1.7624717802
  0
LINE
  5
499
100
AcDbEntity
  8
0
100
AcDbLine
 62
7
  6
CONTINUOUS
 10
0.5197234835
 20
-3.4280006422
 11
0.2626242911
 21
-3.9789787912
  0
LINE
  5
49A
100
AcDbEntity
  8
0
100
AcDbLine
 62
7
  6
CONTINUOUS
 10
0.2626242911
 20
-3.9789787912
 11
0.2281482281
 21
-4.0524550333
  0
LINE
  5
49B
100
AcDbEntity
  8
0
100
AcDbLine
 62
7
  6
CONTINUOUS
 10
-1.1384059624
 20
-3.1802416365
 11
-1.1221062937
 21
-3.1464123101
  0
LINE
  5
49C
100
AcDbEntity
  8
0
100
AcDbLine
 62
7
  6
CONTINUOUS
 10
-0.6536731201
 20
-2.2489260948
 11
-0.6031295056
 21
-2.1472434798
  0
LINE
  5
49D
100
AcDbEntity
  8
0
100
AcDbLine
 62
7
  6
CONTINUOUS
 10
-0.6031295056
 20
-2.1472434798
 11
-0.5519686505
 21
-2.0456829042
  0
LINE
  5
49E
100
AcDbEntity
  8
0
100
AcDbLine
 62
7
  6
CONTINUOUS
 10
-0.5519686505
 20
-2.0456829042
 11
-0.4871827668
 21
-1.9185488532
  0
LWPOLYLINE
  5
49F
100
AcDbEntity
  8
0
100
AcDbPolyline
 62
7
  6
CONTINUOUS
 90
3
 70
0
 10
-0.4871827668
 20
-1.9185488532
 10
-0.3949723936
 20
-1.739609786
 10
-0.3816641739
 20
-1.7139339488
  0
LINE
  5
4A0
100
AcDbEntity
  8
0
100
AcDbLine
 62
7
  6
CONTINUOUS
 10
-0.3698876273
 20
-1.6965153912
 11
-0.3816641739
 21
-1.7139339488
  0
LINE
  5
4A1
100
AcDbEntity
  8
RACCORDO
100
AcDbLine
 62
250
  6
CONTINUOUS
 10
-11.0
 20
-15.7956970221
 11
-10.4761957357
 21
-15.1776869172
  0
LINE
  5
4A2
100
AcDbEntity
  8
0
100
AcDbLine
 62
7
  6
CONTINUOUS
 10
-1.1384058698
 20
-2.6324900926
 11
-1.1583083962
 21
-2.6459458977
  0
LINE
  5
4A3
100
AcDbEntity
  8
0
100
AcDbLine
 62
7
  6
CONTINUOUS
 10
-1.1384058698
 20
-2.6324900926
 11
-0.9901855482
 21
-2.5559234113
  0
LINE
  5
4A4
100
AcDbEntity
  8
0
100
AcDbLine
 62
7
  6
CONTINUOUS
 10
-0.9901855482
 20
-2.5559234113
 11
-0.8425374618
 21
-2.4803958521
  0
LINE
  5
4A5
100
AcDbEntity
  8
0
100
AcDbLine
 62
7
  6
CONTINUOUS
 10
-0.9590083865
 20
-2.4025984509
 11
-0.8315160519
 21
-2.3377780439
  0
LINE
  5
4A6
100
AcDbEntity
  8
0
100
AcDbLine
 62
7
  6
CONTINUOUS
 10
-0.8425374618
 20
-2.4803958521
 11
-0.6957835058
 21
-2.4063683559
  0
LINE
  5
4A7
100
AcDbEntity
  8
0
100
AcDbLine
 62
7
  6
CONTINUOUS
 10
0.2388223726
 20
-1.7854903565
 11
0.3816642219
 21
-1.7139340414
  0
LINE
  5
4A8
100
AcDbEntity
  8
0
100
AcDbLine
 62
7
  6
CONTINUOUS
 10
-0.8315160519
 20
-2.3377780439
 11
-0.7299647539
 21
-2.2867796465
  0
LINE
  5
4A9
100
AcDbEntity
  8
0
100
AcDbLine
 62
7
  6
CONTINUOUS
 10
-0.7299647539
 20
-2.2867796465
 11
-0.6536731201
 21
-2.2489260948
  0
LINE
  5
4AA
100
AcDbEntity
  8
0
100
AcDbLine
 62
7
  6
CONTINUOUS
 10
0.3228393422
 20
-1.7188413621
 11
0.3699670959
 21
-1.6966329539
  0
LINE
  5
4AB
100
AcDbEntity
  8
0
100
AcDbLine
 62
7
  6
CONTINUOUS
 10
-1.1221042462
 20
-2.6687692892
 11
-0.5197234835
 21
-2.3885588046
  0
LINE
  5
4AC
100
AcDbEntity
  8
0
100
AcDbLine
 62
7
  6
CONTINUOUS
 10
0.2755663829
 20
-1.7407876397
 11
0.3228393422
 21
-1.7188413621
  0
LINE
  5
4AD
100
AcDbEntity
  8
0
100
AcDbLine
 62
7
  6
CONTINUOUS
 10
-1.1449972701
 20
-2.6793163145
 11
-1.122106287
 21
-2.6687699121
  0
LINE
  5
4AE
100
AcDbEntity
  8
0
100
AcDbLine
 62
7
  6
CONTINUOUS
 10
0.2281482181
 20
-1.762471787
 11
0.2755663829
 21
-1.7407876397
  0
LWPOLYLINE
  5
4AF
100
AcDbEntity
  8
0
100
AcDbPolyline
 62
7
  6
CONTINUOUS
 90
37
 70
0
 10
-0.7141428429
 20
0.2616729679
 10
-0.8132533469
 20
0.237701603
 10
-0.9113749653
 20
0.21070083
 10
-1.0085076981
 20
0.1806706491
 10
-1.1047448423
 20
0.1475756758
 10
-1.1999931009
 20
0.1114512944
 10
-1.2939725823
 20
0.0724036584
 10
-1.3866795564
 20
0.0304241698
 10
-1.4781177533
 20
-0.0144785734
 10
-1.5680184718
 20
-0.0621726245
 10
-1.6563771904
 20
-0.112666193
 10
-1.7431984306
 20
-0.1659510695
 10
-1.8282270559
 20
-0.2218706783
 10
-1.9114577945
 20
-0.2804327687
 10
-1.9928959181
 20
-0.3416295914
 10
-2.0723021054
 20
-0.4052813233
 10
-2.149670381
 20
-0.4713951848
 10
-2.2250067204
 20
-0.5399639554
 10
-2.2980897288
 20
-0.6107861503
 10
-2.3689127796
 20
-0.6838683976
 10
-2.4374824994
 20
-0.7592040691
 10
-2.5035973733
 20
-0.8365717954
 10
-2.567250182
 20
-0.9159775538
 10
-2.6284481447
 20
-0.997415367
 10
-2.6870114042
 20
-1.0806459335
 10
-2.7429322121
 20
-1.1656745271
 10
-2.7962183168
 20
-1.2524958739
 10
-2.8467131054
 20
-1.340854851
 10
-2.8944083793
 20
-1.4307560131
 10
-2.9393123372
 20
-1.5221948055
 10
-2.9812929628
 20
-1.6149024414
 10
-3.0203416186
 20
-1.7088825308
 10
-3.0564669421
 20
-1.8041314637
 10
-3.0895628296
 20
-1.9003696227
 10
-3.1195939132
 20
-1.9975038022
 10
-3.1465955608
 20
-2.0956272079
 10
-3.1705677725
 20
-2.1947398398
  0
LINE
  5
4B0
100
AcDbEntity
  8
DRAFT
100
AcDbLine
 62
250
  6
CONTINUOUS
 10
9.4389390101
 20
2.3203189693
 11
10.8733846303
 21
2.5763326858
  0
LINE
  5
4B1
100
AcDbEntity
  8
RACCORDO
100
AcDbLine
 62
7
  6
CONTINUOUS
 10
9.9762718881
 20
2.6971734206
 11
9.2338305324
 21
2.5662616241
  0
LWPOLYLINE
  5
4B2
100
AcDbEntity
  8
0
100
AcDbPolyline
 62
7
  6
CONTINUOUS
 90
25
 70
0
 10
0.0
 20
0.989530802
 10
-0.5288555378
 20
0.9498847596
 10
-1.0309444551
 20
0.8490127398
 10
-1.506266752
 20
0.6869147427
 10
-1.9618304263
 20
0.4582452817
 10
-2.3906274802
 20
0.1683498433
 10
-2.7716339195
 20
-0.1667351132
 10
-3.1019906965
 20
-0.5484678743
 10
-3.384556859
 20
-0.9753901535
 10
-3.6068855558
 20
-1.4270906327
 10
-3.7664608621
 20
-1.9050249392
 10
-3.8657987026
 20
-2.4077374457
 10
-3.9
 20
-2.9104499523
 10
-3.8657987026
 20
-3.4131624588
 10
-3.7664608621
 20
-3.9158749653
 10
-3.6068855558
 20
-4.3938092718
 10
-3.384556859
 20
-4.845509751
 10
-3.1019906965
 20
-5.2724320302
 10
-2.7716339195
 20
-5.6541647913
 10
-2.3906274802
 20
-5.9892497478
 10
-1.9618304263
 20
-6.2791451862
 10
-1.506266752
 20
-6.5078146472
 10
-1.0309444551
 20
-6.6699126443
 10
-0.5288555378
 20
-6.7707846641
 10
0.0
 20
-6.8104307065
  0
LWPOLYLINE
  5
4B3
100
AcDbEntity
  8
0
100
AcDbPolyline
 62
250
  6
CONTINUOUS
 90
25
 70
0
 10
0.0
 20
1.0515002307
 10
0.5159097492
 20
1.0176857083
 10
1.0229909291
 20
0.9168210228
 10
1.5125672762
 20
0.7506324501
 10
1.9762617356
 20
0.5219641857
 10
2.4061410501
 20
0.2347290742
 10
2.7948511642
 20
-0.106158862
 10
3.1357415619
 20
-0.494867606
 10
3.4229789198
 20
-0.924745908
 10
3.6516481996
 20
-1.388437852
 10
3.8178368715
 20
-1.8780090317
 10
3.91870185
 20
-2.385083189
 10
3.9525175112
 20
-2.9009849564
 10
3.9187051063
 20
-3.4168876282
 10
3.8178430107
 20
-3.9239636079
 10
3.6516570872
 20
-4.4135362428
 10
3.4229912637
 20
-4.877228263
 10
3.1357579274
 20
-5.3071066174
 10
2.7948705371
 20
-5.6958173164
 10
2.4061609382
 20
-6.0367093649
 10
1.9762799723
 20
-6.3239492081
 10
1.5125824635
 20
-6.5526217106
 10
1.0230021028
 20
-6.7188135801
 10
0.5159157855
 20
-6.819680465
 10
0.0
 20
-6.853495782
  0
LWPOLYLINE
  5
4B4
100
AcDbEntity
  8
0
100
AcDbPolyline
 62
250
  6
CONTINUOUS
 90
25
 70
0
 10
0.0
 20
1.5529649908
 10
0.5842929114
 20
1.5140344785
 10
1.1440740886
 20
1.4044197133
 10
1.6793435316
 20
1.2241206953
 10
2.1999566128
 20
0.9674099271
 10
2.6960579597
 20
0.640014906
 10
3.1380814553
 20
0.2591181246
 10
3.5214685404
 20
-0.1775585325
 10
3.8507777741
 20
-0.6677369499
 10
4.1101187165
 20
-1.1874002905
 10
4.2962244636
 20
-1.7383695006
 10
4.4123619194
 20
-2.3188236338
 10
4.4524413555
 20
-2.8992830127
 10
4.4124010105
 20
-3.4797529269
 10
4.2963026458
 20
-4.0602280869
 10
4.1102418176
 20
-4.6112129465
 10
3.8509524221
 20
-5.1308768533
 10
3.5217005631
 20
-5.6210504597
 10
3.1383801077
 20
-6.0577301766
 10
2.6964669594
 20
-6.4386390981
 10
2.2004852147
 20
-6.7660541302
 10
1.6799010307
 20
-7.0228024018
 10
1.1445364598
 20
-7.2031596226
 10
0.5845694496
 20
-7.312850083
 10
0.0
 20
-7.351873783
  0
LINE
  5
4B5
100
AcDbEntity
  8
RACCORDO
100
AcDbLine
 62
7
  6
CONTINUOUS
 10
-9.2338305324
 20
2.5662616241
 11
-9.9762718881
 21
2.6971734206
  0
LINE
  5
4B6
100
AcDbEntity
  8
DRAFT
100
AcDbLine
 62
250
  6
CONTINUOUS
 10
-9.4389390101
 20
2.3203189693
 11
-10.8733846303
 21
2.5763326858
  0
LWPOLYLINE
  5
4B7
100
AcDbEntity
  8
0
100
AcDbPolyline
 62
7
  6
CONTINUOUS
 90
37
 70
0
 10
0.7141428429
 20
0.2616729679
 10
0.8132533469
 20
0.237701603
 10
0.9113749653
 20
0.21070083
 10
1.0085076981
 20
0.1806706491
 10
1.1047448423
 20
0.1475756758
 10
1.1999931009
 20
0.1114512944
 10
1.2939725823
 20
0.0724036584
 10
1.3866795564
 20
0.0304241698
 10
1.4781177533
 20
-0.0144785734
 10
1.5680184718
 20
-0.0621726245
 10
1.6563771904
 20
-0.112666193
 10
1.7431984306
 20
-0.1659510695
 10
1.8282270559
 20
-0.2218706783
 10
1.9114577945
 20
-0.2804327687
 10
1.9928959181
 20
-0.3416295914
 10
2.0723021054
 20
-0.4052813233
 10
2.149670381
 20
-0.4713951848
 10
2.2250067204
 20
-0.5399639554
 10
2.2980897288
 20
-0.6107861503
 10
2.3689127796
 20
-0.6838683976
 10
2.4374824994
 20
-0.7592040691
 10
2.5035973733
 20
-0.8365717954
 10
2.567250182
 20
-0.9159775538
 10
2.6284481447
 20
-0.997415367
 10
2.6870114042
 20
-1.0806459335
 10
2.7429322121
 20
-1.1656745271
 10
2.7962183168
 20
-1.2524958739
 10
2.8467131054
 20
-1.340854851
 10
2.8944083793
 20
-1.4307560131
 10
2.9393123372
 20
-1.5221948055
 10
2.9812929628
 20
-1.6149024414
 10
3.0203416186
 20
-1.7088825308
 10
3.0564669421
 20
-1.8041314637
 10
3.0895628296
 20
-1.9003696227
 10
3.1195939132
 20
-1.9975038022
 10
3.1465955608
 20
-2.0956272079
 10
3.1705677725
 20
-2.1947398398
  0
LWPOLYLINE
  5
4B8
100
AcDbEntity
  8
0
100
AcDbPolyline
 62
7
  6
CONTINUOUS
 90
37
 70
0
 10
0.7141428429
 20
0.2616729679
 10
0.6829565309
 20
0.2712572046
 10
0.6504402501
 20
0.2805549001
 10
0.6166522232
 20
0.2895662412
 10
0.5816647336
 20
0.2983402173
 10
0.5455307094
 20
0.3068281866
 10
0.5082801804
 20
0.3148838913
 10
0.4699699663
 20
0.3225035163
 10
0.4306770432
 20
0.3296912085
 10
0.3904619599
 20
0.3363126595
 10
0.3493963308
 20
0.3423595656
 10
0.3075570846
 20
0.3478405151
 10
0.2650155044
 20
0.3526465295
 10
0.221833536
 20
0.3567668274
 10
0.1781110277
 20
0.3602124242
 10
0.1339804033
 20
0.3629070029
 10
0.0895272476
 20
0.3648340321
 10
0.0448410695
 20
0.3660101638
 10
0.0000637096
 20
0.3664087959
 10
-0.0447153782
 20
0.3660122738
 10
-0.0894059889
 20
0.3648382534
 10
-0.1338651421
 20
0.3629130344
 10
-0.1780033312
 20
0.3602198683
 10
-0.221734842
 20
0.3567753843
 10
-0.2649259323
 20
0.3526558877
 10
-0.307476377
 20
0.3478503355
 10
-0.3493245093
 20
0.3423695366
 10
-0.3903987556
 20
0.3363225397
 10
-0.4306220265
 20
0.3297007657
 10
-0.4699228013
 20
0.3225125087
 10
-0.5082406294
 20
0.3148921199
 10
-0.5454985075
 20
0.3068354496
 10
-0.5816395673
 20
0.2983463154
 10
-0.6166338296
 20
0.2895710254
 10
-0.6504283511
 20
0.2805582385
 10
-0.6829507767
 20
0.2712589484
 10
-0.7141428429
 20
0.2616729679
  0
LINE
  5
4B9
100
AcDbEntity
  8
DRAFT
100
AcDbLine
 62
7
  6
CONTINUOUS
 10
-9.2469208341
 20
4.8853433267
 11
-9.3953727601
 21
4.9564674196
  0
LINE
  5
4BA
100
AcDbEntity
  8
RACCORDO
100
AcDbLine
 62
7
  6
CONTINUOUS
 10
10.7863812788
 20
-4.6234518321
 11
10.4761957357
 21
-4.4648454493
  0
LINE
  5
4BB
100
AcDbEntity
  8
DRAFT
100
AcDbLine
 62
7
  6
CONTINUOUS
 10
9.2469208341
 20
-8.3379959751
 11
9.3518065102
 21
-8.4637628958
  0
LWPOLYLINE
  5
4BC
100
AcDbEntity
  8
0
100
AcDbPolyline
 62
7
  6
CONTINUOUS
 90
22
 70
0
 10
6.8937079683
 20
-13.8986084694
 10
6.9103672328
 20
-13.9391125557
 10
6.9324118141
 20
-13.9764661231
 10
6.9598417123
 20
-14.0106691718
 10
6.9937710933
 20
-14.0415400251
 10
7.0330857913
 20
-14.0692603596
 10
7.0744433083
 20
-14.0943752047
 10
7.1162967729
 20
-14.1176450598
 10
7.1601930566
 20
-14.1383094255
 10
7.2074302766
 20
-14.1546318325
 10
7.2589321813
 20
-14.1664026009
 10
7.3137750222
 20
-14.1738314107
 10
7.3704856713
 20
-14.1758108319
 10
7.4293698461
 20
-14.1727639845
 10
7.4901218291
 20
-14.1642677485
 10
7.5503513395
 20
-14.1479453344
 10
7.6106623986
 20
-14.1235584044
 10
7.6704509851
 20
-14.0913452961
 10
7.7255147541
 20
-14.0496442333
 10
7.7744529241
 20
-13.9979012905
 10
7.8186662767
 20
-13.9366703931
 10
7.8581548119
 20
-13.8659515411
  0
LINE
  5
4BD
100
AcDbEntity
  8
DRAFT
100
AcDbLine
 62
7
  6
CONTINUOUS
 10
6.9712561167
 20
-21.2012919519
 11
6.9587505924
 21
-21.1554050279
  0
LINE
  5
4BE
100
AcDbEntity
  8
DRAFT
100
AcDbLine
 62
7
  6
CONTINUOUS
 10
-3.7096363724
 20
19.0632926147
 11
-3.7161667878
 21
19.0876848522
  0
LWPOLYLINE
  5
4BF
100
AcDbEntity
  8
DRAFT
100
AcDbPolyline
 62
7
  6
CONTINUOUS
 90
10
 70
0
 10
-4.4564266805
 20
23.1797941736
 10
-4.455756152
 20
23.17694086
 10
-4.4551205804
 20
23.1740675415
 10
-4.4545203321
 20
23.1711744902
 10
-4.4539558365
 20
23.1682624944
 10
-4.4534273849
 20
23.1653313288
 10
-4.4529351738
 20
23.1623797493
 10
-4.4524795541
 20
23.1594075357
 10
-4.4520609864
 20
23.1564154965
 10
-4.4516798704
 20
23.1534039364
  0
LWPOLYLINE
  5
4C0
100
AcDbEntity
  8
0
100
AcDbPolyline
 62
7
  6
CONTINUOUS
 90
10
 70
0
 10
1.1220965674
 20
-2.6687667472
 10
1.1319968157
 20
-2.7212405645
 10
1.1394441063
 20
-2.7741326195
 10
1.144420301
 20
-2.8273282446
 10
1.1469103603
 20
-2.8807114294
 10
1.146909226
 20
-2.9341664518
 10
1.1444215745
 20
-2.9875791789
 10
1.1394527441
 20
-3.0408349663
 10
1.1320090132
 20
-3.0938178571
 10
1.1221042462
 20
-3.1464129442
  0
LWPOLYLINE
  5
4C1
100
AcDbEntity
  8
DRAFT
100
AcDbPolyline
 62
7
  6
CONTINUOUS
 90
10
 70
0
 10
4.4564266805
 20
-23.1797941736
 10
4.455756152
 20
-23.1741316775
 10
4.4551205804
 20
-23.1684533382
 10
4.4545203321
 20
-23.162759428
 10
4.4539558365
 20
-23.1570507306
 10
4.4534273849
 20
-23.1513270251
 10
4.4529351738
 20
-23.1455870809
 10
4.4524795541
 20
-23.1398306818
 10
4.4520609864
 20
-23.1340586321
 10
4.4516798704
 20
-23.1282712365
  0
LWPOLYLINE
  5
4C2
100
AcDbEntity
  8
RACCORDO
100
AcDbPolyline
 62
250
  6
CONTINUOUS
 90
10
 70
0
 10
0.4003959926
 20
18.147511945
 10
0.3927775211
 20
18.2343100959
 10
0.3702063785
 20
18.3184711054
 10
0.3333681177
 20
18.3974387729
 10
0.2833816246
 20
18.4688146333
 10
0.2217651291
 20
18.5304308116
 10
0.1503900885
 20
18.5804158637
 10
0.0714243555
 20
18.6172516083
 10
-0.0127336621
 20
18.6398192422
 10
-0.099527855
 20
18.6474333256
  0
LINE
  5
4C3
100
AcDbEntity
  8
DRAFT
100
AcDbLine
 62
7
  6
CONTINUOUS
 10
4.4516798704
 20
-23.1282712365
 11
4.4502131038
 21
-23.0873199585
  0
LINE
  5
4C4
100
AcDbEntity
  8
DRAFT
100
AcDbLine
 62
7
  6
CONTINUOUS
 10
2.5285235094
 20
18.9916166023
 11
2.5291621204
 21
18.9550307797
  0
LINE
  5
4C5
100
AcDbEntity
  8
DRAFT
100
AcDbLine
 62
7
  6
CONTINUOUS
 10
3.2220294594
 20
-18.9897990437
 11
3.2208653201
 21
-18.9231058756
  0
LINE
  5
4C6
100
AcDbEntity
  8
DRAFT
100
AcDbLine
 62
7
  6
CONTINUOUS
 10
2.5777084999
 20
18.9916166023
 11
2.5783321297
 21
18.9558890497
  0
LINE
  5
4C7
100
AcDbEntity
  8
DRAFT
100
AcDbLine
 62
7
  6
CONTINUOUS
 10
3.2706032726
 20
-18.9899706701
 11
3.2694361375
 21
-18.9231058756
  0
LINE
  5
4C8
100
AcDbEntity
  8
DRAFT
100
AcDbLine
 62
7
  6
CONTINUOUS
 10
2.8376774025
 20
19.0536051583
 11
2.838036392
 21
19.0330376345
  0
LINE
  5
4C9
100
AcDbEntity
  8
DRAFT
100
AcDbLine
 62
7
  6
CONTINUOUS
 10
2.8376185395
 20
19.0655939947
 11
2.8377723918
 21
19.0536068163
  0
LINE
  5
4CA
100
AcDbEntity
  8
DRAFT
100
AcDbLine
 62
7
  6
CONTINUOUS
 10
2.838036392
 20
19.0330376345
 11
2.8382546653
 21
19.0160312025
  0
LINE
  5
4CB
100
AcDbEntity
  8
RACCORDO
100
AcDbLine
 62
250
  6
CONTINUOUS
 10
2.4965572322
 20
19.0876848522
 11
2.4969744882
 21
18.9520407896
  0
LINE
  5
4CC
100
AcDbEntity
  8
DRAFT
100
AcDbLine
 62
7
  6
CONTINUOUS
 10
3.0984611006
 20
-21.1821989104
 11
3.1
 21
-22.1822975576
  0
LINE
  5
4CD
100
AcDbEntity
  8
DRAFT
100
AcDbLine
 62
7
  6
CONTINUOUS
 10
3.0984611006
 20
21.2174395269
 11
3.1
 21
22.2174833374
  0
LINE
  5
4CE
100
AcDbEntity
  8
RACCORDO
100
AcDbLine
 62
250
  6
CONTINUOUS
 10
2.4966211172
 20
-19.0342845637
 11
2.4969744882
 21
-18.9195358429
  0
LINE
  5
4CF
100
AcDbEntity
  8
DRAFT
100
AcDbLine
 62
7
  6
CONTINUOUS
 10
2.8189322647
 20
-19.0182479624
 11
2.8190167476
 21
-19.0085677559
  0
LINE
  5
4D0
100
AcDbEntity
  8
DRAFT
100
AcDbLine
 62
7
  6
CONTINUOUS
 10
2.8188847576
 20
-19.0182475478
 11
2.8188092697
 21
-19.0237836218
  0
LINE
  5
4D1
100
AcDbEntity
  8
DRAFT
100
AcDbLine
 62
7
  6
CONTINUOUS
 10
2.5305545531
 20
-18.92363921
 11
2.5294123588
 21
-18.9890751492
  0
LINE
  5
4D2
100
AcDbEntity
  8
DRAFT
100
AcDbLine
 62
7
  6
CONTINUOUS
 10
3.2223184286
 20
18.9931593279
 11
3.2216440039
 21
18.9545217505
  0
LINE
  5
4D3
100
AcDbEntity
  8
DRAFT
100
AcDbLine
 62
7
  6
CONTINUOUS
 10
2.5779831763
 20
-18.9890751492
 11
2.5791105763
 21
-18.9244867627
  0
LINE
  5
4D4
100
AcDbEntity
  8
DRAFT
100
AcDbLine
 62
7
  6
CONTINUOUS
 10
3.2708289944
 20
18.9545217505
 11
3.2715096612
 21
18.9935169333
  0
LINE
  5
4D5
100
AcDbEntity
  8
DRAFT
100
AcDbLine
 62
7
  6
CONTINUOUS
 10
4.4502131038
 20
23.1124526584
 11
4.4516798704
 21
23.1534039364
  0
LWPOLYLINE
  5
4D6
100
AcDbEntity
  8
DRAFT
100
AcDbPolyline
 62
7
  6
CONTINUOUS
 90
22
 70
0
 10
1.0261825974
 20
-12.5994065285
 10
1.0014033934
 20
-12.8769527056
 10
0.9415334962
 20
-13.1363909014
 10
0.8465729059
 20
-13.3777211157
 10
0.7127267307
 20
-13.605155721
 10
0.5437898623
 20
-13.814482345
 10
0.3511469761
 20
-13.9930638704
 10
0.1335040574
 20
-14.1389816649
 10
-0.107844879
 20
-14.2541543608
 10
-0.3576331136
 20
-14.3317007381
 10
-0.6163979385
 20
-14.3693270567
 10
-0.8836020615
 20
-14.3693270567
 10
-1.1423668864
 20
-14.3317007381
 10
-1.392155121
 20
-14.2541543608
 10
-1.6335040574
 20
-14.1389816649
 10
-1.8511469761
 20
-13.9930638704
 10
-2.0437898623
 20
-13.814482345
 10
-2.2127267307
 20
-13.605155721
 10
-2.3465729059
 20
-13.3777211157
 10
-2.4415334962
 20
-13.1363909014
 10
-2.5014033934
 20
-12.8769527056
 10
-2.5261825974
 20
-12.5994065285
  0
LWPOLYLINE
  5
4D7
100
AcDbEntity
  8
DRAFT
100
AcDbPolyline
 62
7
  6
CONTINUOUS
 90
22
 70
0
 10
3.4738174026
 20
12.8004681276
 10
3.4985966066
 20
13.0780143047
 10
3.5584665038
 20
13.3374525005
 10
3.6534270941
 20
13.5787827148
 10
3.7872732693
 20
13.8062173201
 10
3.9562101377
 20
14.0155439441
 10
4.1488530239
 20
14.1941254695
 10
4.3664959426
 20
14.340043264
 10
4.607844879
 20
14.4552159599
 10
4.8576331136
 20
14.5327623372
 10
5.1163979385
 20
14.5703886558
 10
5.3836020615
 20
14.5703886558
 10
5.6423668864
 20
14.5327623372
 10
5.892155121
 20
14.4552159599
 10
6.1335040574
 20
14.340043264
 10
6.3511469761
 20
14.1941254695
 10
6.5437898623
 20
14.0155439441
 10
6.7127267307
 20
13.8062173201
 10
6.8465729059
 20
13.5787827148
 10
6.9415334962
 20
13.3374525005
 10
7.0014033934
 20
13.0780143047
 10
7.0261825974
 20
12.8004681276
  0
LWPOLYLINE
  5
4D8
100
AcDbEntity
  8
DRAFT
100
AcDbPolyline
 62
7
  6
CONTINUOUS
 90
9
 70
0
 10
3.5
 20
12.7957557464
 10
3.5244153563
 20
13.0692215854
 10
3.5834073917
 20
13.3248450118
 10
3.6769761062
 20
13.5626260256
 10
3.8088641965
 20
13.7867165005
 10
3.975328966
 20
13.9929645627
 10
4.1651423241
 20
14.1689145912
 10
4.3795738886
 20
14.3126711552
 10
4.6173540417
 20
14.4261296855
  0
LINE
  5
4D9
100
AcDbEntity
  8
RACCORDO
100
AcDbLine
 62
250
  6
CONTINUOUS
 10
0.5695131255
 20
-11.8249786646
 11
0.5700282971
 21
-11.8208754836
  0
LINE
  5
4DA
100
AcDbEntity
  8
RACCORDO
100
AcDbLine
 62
250
  6
CONTINUOUS
 10
0.5
 20
-12.3127197826
 11
0.5047514079
 21
-12.2777110849
  0
LINE
  5
4DB
100
AcDbEntity
  8
RACCORDO
100
AcDbLine
 62
250
  6
CONTINUOUS
 10
0.545814907
 20
-11.9909182652
 11
0.5493767606
 21
-11.9651827663
  0
LWPOLYLINE
  5
4DC
100
AcDbEntity
  8
RACCORDO
100
AcDbPolyline
 62
250
  6
CONTINUOUS
 90
3
 70
0
 10
0.5335137146
 20
-12.0772853678
 10
0.5377102023
 20
-12.047105552
 10
0.545814907
 20
-11.9909182652
  0
LWPOLYLINE
  5
4DD
100
AcDbEntity
  8
RACCORDO
100
AcDbPolyline
 62
250
  6
CONTINUOUS
 90
3
 70
0
 10
0.5637706652
 20
-11.8651312787
 10
0.5672252758
 20
-11.8402610543
 10
0.5695131255
 20
-11.8249786646
  0
LINE
  5
4DE
100
AcDbEntity
  8
RACCORDO
100
AcDbLine
 62
250
  6
CONTINUOUS
 10
0.5243422248
 20
-12.1410697538
 11
0.5335137146
 21
-12.0772853678
  0
LWPOLYLINE
  5
4DF
100
AcDbEntity
  8
RACCORDO
100
AcDbPolyline
 62
250
  6
CONTINUOUS
 90
3
 70
0
 10
0.5493767606
 20
-11.9651827663
 10
0.5560583112
 20
-11.9191262214
 10
0.5588601102
 20
-11.8989673185
  0
LINE
  5
4E0
100
AcDbEntity
  8
RACCORDO
100
AcDbLine
 62
250
  6
CONTINUOUS
 10
0.5588601102
 20
-11.8989673185
 11
0.5637706652
 21
-11.8651312787
  0
LWPOLYLINE
  5
4E1
100
AcDbEntity
  8
RACCORDO
100
AcDbPolyline
 62
250
  6
CONTINUOUS
 90
3
 70
0
 10
0.5047514079
 20
-12.2777110849
 10
0.5148427973
 20
-12.2083068598
 10
0.5243422248
 20
-12.1410697538
  0
LINE
  5
4E2
100
AcDbEntity
  8
DRAFT
100
AcDbLine
 62
7
  6
CONTINUOUS
 10
-3.0104834329
 20
-22.1762722771
 11
-2.700388948
 21
-21.1554050279
  0
LWPOLYLINE
  5
4E3
100
AcDbEntity
  8
0
100
AcDbPolyline
 62
7
  6
CONTINUOUS
 90
7
 70
0
 10
1.1449972769
 20
-2.6793163046
 10
1.147109712
 20
-2.6736841648
 10
1.1492722662
 20
-2.6680853819
 10
1.1514849394
 20
-2.662519956
 10
1.1537477317
 20
-2.6569878871
 10
1.156060643
 20
-2.6514891752
 10
1.1584236733
 20
-2.6460238202
  0
LINE
  5
4E4
100
AcDbEntity
  8
DRAFT
100
AcDbLine
 62
7
  6
CONTINUOUS
 10
-4.5031892363
 20
-19.0074064732
 11
-4.5079397808
 21
-19.0187532933
  0
LINE
  5
4E5
100
AcDbEntity
  8
0
100
AcDbLine
 62
7
  6
CONTINUOUS
 10
1.1384059624
 20
-2.6324901406
 11
1.1221062937
 21
-2.6687699022
  0
LINE
  5
4E6
100
AcDbEntity
  8
0
100
AcDbLine
 62
7
  6
CONTINUOUS
 10
0.6536731201
 20
-3.5562658723
 11
0.6031295056
 21
-3.6579484873
  0
LINE
  5
4E7
100
AcDbEntity
  8
0
100
AcDbLine
 62
7
  6
CONTINUOUS
 10
0.6031295056
 20
-3.6579484873
 11
0.5519686505
 21
-3.7595090629
  0
LINE
  5
4E8
100
AcDbEntity
  8
0
100
AcDbLine
 62
7
  6
CONTINUOUS
 10
0.5519686505
 20
-3.7595090629
 11
0.4871827668
 21
-3.8866431139
  0
LWPOLYLINE
  5
4E9
100
AcDbEntity
  8
0
100
AcDbPolyline
 62
7
  6
CONTINUOUS
 90
3
 70
0
 10
0.4871827668
 20
-3.8866431139
 10
0.3949723936
 20
-4.0655821811
 10
0.3816641739
 20
-4.0912580183
  0
LINE
  5
4EA
100
AcDbEntity
  8
0
100
AcDbLine
 62
7
  6
CONTINUOUS
 10
0.3698876273
 20
-4.1086765759
 11
0.3816641739
 21
-4.0912580183
  0
LWPOLYLINE
  5
4EB
100
AcDbEntity
  8
RACCORDO
100
AcDbPolyline
 62
250
  6
CONTINUOUS
 90
11
 70
0
 10
-6.8866305029
 20
-11.9988885982
 10
-6.8772576093
 20
-11.9872476375
 10
-6.8499548592
 20
-11.9583781913
 10
-6.8204487045
 20
-11.9317587418
 10
-6.7890396975
 20
-11.9076658343
 10
-6.7556620532
 20
-11.8860451061
 10
-6.7205685062
 20
-11.8670756642
 10
-6.6844545773
 20
-11.8511130959
 10
-6.6475016415
 20
-11.8381506507
 10
-6.6094020842
 20
-11.8280519616
 10
-6.5700282971
 20
-11.8208754836
  0
LINE
  5
4EC
100
AcDbEntity
  8
0
100
AcDbLine
 62
7
  6
CONTINUOUS
 10
0.5197234842
 20
-2.388558804
 11
0.6536727773
 21
-2.2489262666
  0
LINE
  5
4ED
100
AcDbEntity
  8
0
100
AcDbLine
 62
7
  6
CONTINUOUS
 10
-0.5197234842
 20
-3.4280006429
 11
-0.6536727773
 21
-3.5562657004
  0
LINE
  5
4EE
100
AcDbEntity
  8
0
100
AcDbLine
 62
7
  6
CONTINUOUS
 10
1.1384058698
 20
-3.1802416845
 11
1.1583083851
 21
-3.1667858869
  0
LINE
  5
4EF
100
AcDbEntity
  8
0
100
AcDbLine
 62
7
  6
CONTINUOUS
 10
1.1384058698
 20
-3.1802416845
 11
0.9902310542
 21
-3.25678496
  0
LINE
  5
4F0
100
AcDbEntity
  8
RACCORDO
100
AcDbLine
 62
7
  6
CONTINUOUS
 10
-10.6993779273
 20
-8.2232541153
 11
-10.4761957357
 21
-8.1091349344
  0
LINE
  5
4F1
100
AcDbEntity
  8
0
100
AcDbLine
 62
7
  6
CONTINUOUS
 10
0.9902310542
 20
-3.25678496
 11
0.8425808445
 21
-3.3323138702
  0
LINE
  5
4F2
100
AcDbEntity
  8
0
100
AcDbLine
 62
7
  6
CONTINUOUS
 10
0.9590083865
 20
-3.4025935161
 11
0.8315160519
 21
-3.4674139232
  0
LINE
  5
4F3
100
AcDbEntity
  8
0
100
AcDbLine
 62
7
  6
CONTINUOUS
 10
0.8425808445
 20
-3.3323138702
 11
0.6957835058
 21
-3.4063634211
  0
LINE
  5
4F4
100
AcDbEntity
  8
0
100
AcDbLine
 62
7
  6
CONTINUOUS
 10
0.8315160519
 20
-3.4674139232
 11
0.7299647539
 21
-3.5184123206
  0
LINE
  5
4F5
100
AcDbEntity
  8
0
100
AcDbLine
 62
7
  6
CONTINUOUS
 10
0.7299647539
 20
-3.5184123206
 11
0.6536731201
 21
-3.5562658723
  0
LINE
  5
4F6
100
AcDbEntity
  8
DRAFT
100
AcDbLine
 62
7
  6
CONTINUOUS
 10
9.2469208341
 20
1.2410538416
 11
9.4389390101
 21
1.3330507523
  0
LINE
  5
4F7
100
AcDbEntity
  8
0
100
AcDbLine
 62
7
  6
CONTINUOUS
 10
1.1449972701
 20
-3.135610499
 11
1.0223577174
 21
-3.1931624564
  0
LINE
  5
4F8
100
AcDbEntity
  8
0
100
AcDbLine
 62
7
  6
CONTINUOUS
 10
1.0223577174
 20
-3.1931624564
 11
0.5197234835
 21
-3.4280006422
  0
LINE
  5
4F9
100
AcDbEntity
  8
0
100
AcDbLine
 62
7
  6
CONTINUOUS
 10
-0.2388223726
 20
-4.0296918557
 11
-0.3816642219
 21
-4.0912579257
  0
LINE
  5
4FA
100
AcDbEntity
  8
0
100
AcDbLine
 62
7
  6
CONTINUOUS
 10
-0.3699670946
 20
-4.1085590151
 11
-0.3228393444
 21
-4.0895972234
  0
LINE
  5
4FB
100
AcDbEntity
  8
0
100
AcDbLine
 62
7
  6
CONTINUOUS
 10
-0.3228393444
 20
-4.0895972234
 11
-0.2755663856
 21
-4.0708958939
  0
LINE
  5
4FC
100
AcDbEntity
  8
0
100
AcDbLine
 62
7
  6
CONTINUOUS
 10
-0.2755663856
 20
-4.0708958939
 11
-0.2281482181
 21
-4.0524550266
  0
LINE
  5
4FD
100
AcDbEntity
  8
DRAFT
100
AcDbLine
 62
250
  6
CONTINUOUS
 10
-9.4389390101
 20
1.3330507523
 11
-10.8733846303
 21
1.0786511411
  0
LINE
  5
4FE
100
AcDbEntity
  8
RACCORDO
100
AcDbLine
 62
7
  6
CONTINUOUS
 10
-9.9762718881
 20
1.1038704132
 11
-9.2338305324
 21
1.2347822098
  0
LINE
  5
4FF
100
AcDbEntity
  8
RACCORDO
100
AcDbLine
 62
7
  6
CONTINUOUS
 10
10.7863812788
 20
4.7097713989
 11
10.4761957357
 21
4.6628202892
  0
LINE
  5
500
100
AcDbEntity
  8
RACCORDO
100
AcDbLine
 62
7
  6
CONTINUOUS
 10
-10.7863812788
 20
4.7097713989
 11
-10.4761957357
 21
4.6628202892
  0
LINE
  5
501
100
AcDbEntity
  8
RACCORDO
100
AcDbLine
 62
7
  6
CONTINUOUS
 10
9.2338305324
 20
1.2347822098
 11
9.9762718881
 21
1.1038704132
  0
LINE
  5
502
100
AcDbEntity
  8
DRAFT
100
AcDbLine
 62
250
  6
CONTINUOUS
 10
9.4389390101
 20
1.3330507523
 11
10.8733846303
 21
1.0786511411
  0
LINE
  5
503
100
AcDbEntity
  8
DRAFT
100
AcDbLine
 62
7
  6
CONTINUOUS
 10
-9.2469208341
 20
8.5296328117
 11
-9.3518065102
 21
8.5798840868
  0
LINE
  5
504
100
AcDbEntity
  8
DRAFT
100
AcDbLine
 62
7
  6
CONTINUOUS
 10
-2.700388948
 20
21.2048304105
 11
-3.0104834329
 21
22.2146478595
  0
LINE
  5
505
100
AcDbEntity
  8
DRAFT
100
AcDbLine
 62
250
  6
CONTINUOUS
 10
-2.7459745197
 20
19.0747834903
 11
-2.7494285387
 21
19.0876848522
  0
LWPOLYLINE
  5
506
100
AcDbEntity
  8
0
100
AcDbPolyline
 62
250
  6
CONTINUOUS
 90
49
 70
0
 10
2.8482021167
 20
-2.4025984509
 10
2.814144919
 20
-2.2373168665
 10
2.7708692737
 20
-2.0752338918
 10
2.718375181
 20
-1.916349527
 10
2.6564133327
 20
-1.7601006379
 10
2.5852330369
 20
-1.6070503587
 10
2.5055822176
 20
-1.4588880916
 10
2.4173849978
 20
-1.3157128258
 10
2.3207172544
 20
-1.1774255721
 10
2.2165545418
 20
-1.0454187655
 10
2.1048206629
 20
-0.9197545649
 10
1.9855918147
 20
-0.8003708115
 10
1.8600721434
 20
-0.6884734634
 10
1.728197033
 20
-0.5841377651
 10
1.5900310995
 20
-0.4872884723
 10
1.4469723369
 20
-0.3989058098
 10
1.2989717216
 20
-0.3190761084
 10
1.1460782772
 20
-0.2477130374
 10
0.989837069
 20
-0.1855378295
 10
0.8302141141
 20
-0.1326435014
 10
0.6672433954
 20
-0.0889370364
 10
0.502571926
 20
-0.054860617
 10
0.3361817918
 20
-0.0305118903
 10
0.1680909068
 20
-0.0157932092
 10
0.000000026
 20
-0.0108538156
 10
-0.1680908486
 20
-0.0157932048
 10
-0.336181719
 20
-0.0305118814
 10
-0.502571836
 20
-0.0548606011
 10
-0.6672432842
 20
-0.0889370087
 10
-0.830213979
 20
-0.1326434593
 10
-0.9898369179
 20
-0.1855377744
 10
-1.1460781232
 20
-0.2477129718
 10
-1.2989715724
 20
-0.3190760337
 10
-1.4469721954
 20
-0.398905728
 10
-1.5900309676
 20
-0.487288386
 10
-1.7281969136
 20
-0.5841376765
 10
-1.860072036
 20
-0.6884733732
 10
-1.985591718
 20
-0.80037072
 10
-2.1048205764
 20
-0.9197544731
 10
-2.2165544655
 20
-1.0454186744
 10
-2.3207171884
 20
-1.1774254837
 10
-2.4173849418
 20
-1.3157127412
 10
-2.5055821704
 20
-1.4588880097
 10
-2.5852329959
 20
-1.6070502742
 10
-2.6564132965
 20
-1.7601005498
 10
-2.718375151
 20
-1.9163494445
 10
-2.7708692523
 20
-2.0752338275
 10
-2.8141449076
 20
-2.2373168297
 10
-2.8482021167
 20
-2.4025984509
  0
LWPOLYLINE
  5
507
100
AcDbEntity
  8
0
100
AcDbPolyline
 62
250
  6
CONTINUOUS
 90
34
 70
0
 10
3.0502872693
 20
-2.403172007
 10
3.0261155173
 20
-2.2731906636
 10
2.9964072138
 20
-2.1443608999
 10
2.9612165858
 20
-2.0169184435
 10
2.9206079993
 20
-1.8910967998
 10
2.8746555488
 20
-1.7671258945
 10
2.8234427922
 20
-1.6452317007
 10
2.7670621577
 20
-1.5256352525
 10
2.7056174382
 20
-1.4085576648
 10
2.6392239811
 20
-1.2942184362
 10
2.5680040178
 20
-1.1828269633
 10
2.4920880293
 20
-1.0745862962
 10
2.4116180878
 20
-0.9696976034
 10
2.3267469183
 20
-0.8683574257
 10
2.2376263756
 20
-0.7707446877
 10
2.1444080952
 20
-0.6770254662
 10
2.0472634431
 20
-0.587373372
 10
1.9463678496
 20
-0.5019515752
 10
1.841886354
 20
-0.4209031818
 10
1.733992895
 20
-0.3443697341
 10
1.6228965767
 20
-0.2725059684
 10
1.5088250086
 20
-0.2054616808
 10
1.3919580492
 20
-0.1433452624
 10
1.2725375475
 20
-0.0862878769
 10
1.1509008814
 20
-0.0344418838
 10
1.0272732563
 20
0.0121140146
 10
0.9018897623
 20
0.0533082658
 10
0.7751190838
 20
0.0890461052
 10
0.6472100631
 20
0.1192932637
 10
0.5183925224
 20
0.1440308106
 10
0.3890144551
 20
0.1632334633
 10
0.259351236
 20
0.1769109349
 10
0.1296022455
 20
0.1850923588
 10
0.0
 20
0.1878105848
  0
LWPOLYLINE
  5
508
100
AcDbEntity
  8
0
100
AcDbPolyline
 62
7
  6
CONTINUOUS
 90
7
 70
0
 10
3.1404550116
 20
-2.4063683559
 10
3.162429488
 20
-2.5730342001
 10
3.1756141739
 20
-2.7397000443
 10
3.1800090692
 20
-2.9063658885
 10
3.1756141739
 20
-3.0730317327
 10
3.162429488
 20
-3.2396975769
 10
3.1404550116
 20
-3.4063634211
  0
LINE
  5
509
100
AcDbEntity
  8
DRAFT
100
AcDbLine
 62
7
  6
CONTINUOUS
 10
3.434596365
 20
21.2264246518
 11
3.3821231691
 21
22.2124567974
  0
LINE
  5
50A
100
AcDbEntity
  8
0
100
AcDbLine
 62
7
  6
CONTINUOUS
 10
4.381939
 20
13.9856967447
 11
4.381939
 21
13.4938673395
  0
LINE
  5
50B
100
AcDbEntity
  8
0
100
AcDbLine
 62
7
  6
CONTINUOUS
 10
4.381939
 20
11.9867932158
 11
4.381939
 21
11.2777118074
  0
LINE
  5
50C
100
AcDbEntity
  8
DRAFT
100
AcDbLine
 62
250
  6
CONTINUOUS
 10
4.4
 20
19.0627738399
 11
4.4
 21
19.0876848522
  0
LINE
  5
50D
100
AcDbEntity
  8
0
100
AcDbLine
 62
7
  6
CONTINUOUS
 10
4.75
 20
11.1242061982
 11
4.75
 21
11.9857066143
  0
LINE
  5
50E
100
AcDbEntity
  8
0
100
AcDbLine
 62
7
  6
CONTINUOUS
 10
4.75
 20
13.4938673395
 11
4.75
 21
13.9856967447
  0
LINE
  5
50F
100
AcDbEntity
  8
DRAFT
100
AcDbLine
 62
7
  6
CONTINUOUS
 10
4.9
 20
19.0283554445
 11
4.9
 21
19.0876848522
  0
LINE
  5
510
100
AcDbEntity
  8
RACCORDO
100
AcDbLine
 62
250
  6
CONTINUOUS
 10
5.25
 20
10.0986069477
 11
5.2499996304
 21
9.7976951948
  0
LINE
  5
511
100
AcDbEntity
  8
RACCORDO
100
AcDbLine
 62
250
  6
CONTINUOUS
 10
5.25
 20
10.4020507649
 11
5.25
 21
10.7011068082
  0
LINE
  5
512
100
AcDbEntity
  8
RACCORDO
100
AcDbLine
 62
250
  6
CONTINUOUS
 10
5.25
 20
15.505470895
 11
5.25
 21
15.8044647986
  0
LINE
  5
513
100
AcDbEntity
  8
RACCORDO
100
AcDbLine
 62
250
  6
CONTINUOUS
 10
5.25
 20
15.2020270778
 11
5.2500000907
 21
14.901086082
  0
LWPOLYLINE
  5
514
100
AcDbEntity
  8
DRAFT
100
AcDbPolyline
 62
7
  6
CONTINUOUS
 90
19
 70
0
 10
4.4502131038
 20
-23.0873199585
 10
4.4505455667
 20
-23.0692197974
 10
4.4558079496
 20
-23.0119016461
 10
4.4674670191
 20
-22.9563167823
 10
4.4858501031
 20
-22.9017708476
 10
4.5106298736
 20
-22.8489582006
 10
4.5408243474
 20
-22.7999619169
 10
4.5766438608
 20
-22.754941737
 10
4.6178780774
 20
-22.7137379204
 10
4.6629140047
 20
-22.6779543214
 10
4.7119004078
 20
-22.6478019309
 10
4.7646885216
 20
-22.6230697579
 10
4.8192190584
 20
-22.6047286837
 10
4.8755693691
 20
-22.5930312941
 10
4.9336621028
 20
-22.5877250033
 10
4.9912059191
 20
-22.5890229358
 10
5.047437038
 20
-22.5969961331
 10
5.1031192395
 20
-22.6115735537
 10
5.1582525237
 20
-22.6327551976
  0
LINE
  5
515
100
AcDbEntity
  8
DRAFT
100
AcDbLine
 62
7
  6
CONTINUOUS
 10
3.434596365
 20
-21.2012919519
 11
3.3821231691
 21
-22.1873240975
  0
LWPOLYLINE
  5
516
100
AcDbEntity
  8
RACCORDO
100
AcDbPolyline
 62
250
  6
CONTINUOUS
 90
10
 70
0
 10
5.5996040074
 20
18.147511945
 10
5.6072154693
 20
18.2342703736
 10
5.6297690026
 20
18.3184034735
 10
5.6665844316
 20
18.3973565757
 10
5.7165470465
 20
18.4687296039
 10
5.7781442173
 20
18.5303547136
 10
5.8495133529
 20
18.5803600833
 10
5.9284923914
 20
18.6172212799
 10
6.0126829661
 20
18.6398102877
 10
6.0995277137
 20
18.6474333249
  0
LWPOLYLINE
  5
517
100
AcDbEntity
  8
0
100
AcDbPolyline
 62
7
  6
CONTINUOUS
 90
37
 70
0
 10
3.1705677725
 20
-3.6230184772
 10
3.1465955608
 20
-3.7221311091
 10
3.1195939132
 20
-3.8202545148
 10
3.0895628296
 20
-3.9173886943
 10
3.0564669421
 20
-4.0136268534
 10
3.0203416186
 20
-4.1088757862
 10
2.9812929628
 20
-4.2028558757
 10
2.9393123372
 20
-4.2955635115
 10
2.8944083793
 20
-4.3870023039
 10
2.8467131054
 20
-4.476903466
 10
2.7962183168
 20
-4.5652624431
 10
2.7429322121
 20
-4.65208379
 10
2.6870114042
 20
-4.7371123835
 10
2.6284481447
 20
-4.82034295
 10
2.567250182
 20
-4.9017807632
 10
2.5035973733
 20
-4.9811865217
 10
2.4374824994
 20
-5.058554248
 10
2.3689127796
 20
-5.1338899195
 10
2.2980897288
 20
-5.2069721668
 10
2.2250067204
 20
-5.2777943616
 10
2.149670381
 20
-5.3463631323
 10
2.0723021054
 20
-5.4124769938
 10
1.9928959181
 20
-5.4761287256
 10
1.9114577945
 20
-5.5373255484
 10
1.8282270559
 20
-5.5958876387
 10
1.7431984306
 20
-5.6518072475
 10
1.6563771904
 20
-5.705092124
 10
1.5680184718
 20
-5.7555856925
 10
1.4781177533
 20
-5.8032797436
 10
1.3866795564
 20
-5.8481824869
 10
1.2939725823
 20
-5.8901619754
 10
1.1999931009
 20
-5.9292096114
 10
1.1047448423
 20
-5.9653339928
 10
1.0085076981
 20
-5.9984289661
 10
0.9113749653
 20
-6.0284591471
 10
0.8132533469
 20
-6.05545992
 10
0.7141428429
 20
-6.0794312849
  0
LWPOLYLINE
  5
518
100
AcDbEntity
  8
0
100
AcDbPolyline
 62
7
  6
CONTINUOUS
 90
37
 70
0
 10
3.1705677725
 20
-3.6230184772
 10
3.1802477464
 20
-3.5919280093
 10
3.1896369025
 20
-3.5595033072
 10
3.1987352409
 20
-3.5258024067
 10
3.2075915459
 20
-3.4908973871
 10
3.2161570332
 20
-3.4548410331
 10
3.2242853492
 20
-3.4176632756
 10
3.2319725248
 20
-3.3794207802
 10
3.2392225292
 20
-3.3401903444
 10
3.2459009157
 20
-3.3000323758
 10
3.251999236
 20
-3.2590183423
 10
3.2575259384
 20
-3.2172250331
 10
3.2623719221
 20
-3.1747236071
 10
3.2665262989
 20
-3.1315759012
 10
3.2699999569
 20
-3.0878816373
 10
3.2727164595
 20
-3.0437731223
 10
3.2746592093
 20
-2.9993358742
 10
3.2758448036
 20
-2.9546593472
 10
3.2762465983
 20
-2.9098853433
 10
3.2758469314
 20
-2.8651033092
 10
3.2746634648
 20
-2.8204034552
 10
3.27272254
 20
-2.7759288059
 10
3.2700074622
 20
-2.7317689222
 10
3.2665349262
 20
-2.6880095824
 10
3.2623813575
 20
-2.6447846494
 10
3.2575358406
 20
-2.602194476
 10
3.2520092909
 20
-2.5603008339
 10
3.24591088
 20
-2.5191754161
 10
3.2392321686
 20
-2.4788954515
 10
3.2319815961
 20
-2.4395326049
 10
3.224293651
 20
-2.4011474608
 10
3.216164362
 20
-2.3638171998
 10
3.2075977005
 20
-2.3275988441
 10
3.1987400704
 20
-2.292522466
 10
3.189640273
 20
-2.2586411504
 10
3.180249507
 20
-2.2260274582
 10
3.1705677725
 20
-2.1947398398
  0
LINE
  5
519
100
AcDbEntity
  8
DRAFT
100
AcDbLine
 62
7
  6
CONTINUOUS
 10
-3.7025132132
 20
-19.0057917715
 11
-3.6977679175
 21
-18.9944574882
  0
LINE
  5
51A
100
AcDbEntity
  8
DRAFT
100
AcDbLine
 62
250
  6
CONTINUOUS
 10
9.3953727601
 20
5.9282336236
 11
10.7863812788
 21
6.1764948721
  0
LINE
  5
51B
100
AcDbEntity
  8
RACCORDO
100
AcDbLine
 62
7
  6
CONTINUOUS
 10
9.9762718881
 20
6.2528484051
 11
9.2338305324
 21
6.1219366085
  0
LINE
  5
51C
100
AcDbEntity
  8
RACCORDO
100
AcDbLine
 62
7
  6
CONTINUOUS
 10
-9.2338305324
 20
6.1219366085
 11
-9.9762718881
 21
6.2528484051
  0
LINE
  5
51D
100
AcDbEntity
  8
DRAFT
100
AcDbLine
 62
250
  6
CONTINUOUS
 10
-9.3953727601
 20
5.9282336236
 11
-10.7863812788
 21
6.1764948721
  0
LINE
  5
51E
100
AcDbEntity
  8
RACCORDO
100
AcDbLine
 62
7
  6
CONTINUOUS
 10
10.8733846303
 20
-1.0236495489
 11
10.4761957357
 21
-0.8205559643
  0
LINE
  5
51F
100
AcDbEntity
  8
RACCORDO
100
AcDbLine
 62
250
  6
CONTINUOUS
 10
-11.0
 20
15.8051217845
 11
-10.4761957357
 21
15.3755951438
  0
LINE
  5
520
100
AcDbEntity
  8
DRAFT
100
AcDbLine
 62
7
  6
CONTINUOUS
 10
9.2469208341
 20
-4.6937064901
 11
9.3953727601
 21
-4.8717130806
  0
LINE
  5
521
100
AcDbEntity
  8
DRAFT
100
AcDbLine
 62
7
  6
CONTINUOUS
 10
-6.9712561167
 20
21.2264246518
 11
-6.9587505924
 21
21.2048304105
  0
LINE
  5
522
100
AcDbEntity
  8
0
100
AcDbLine
 62
7
  6
CONTINUOUS
 10
7.5766962005
 20
-13.269101527
 11
7.5869248961
 21
-13.3315125904
  0
LINE
  5
523
100
AcDbEntity
  8
0
100
AcDbLine
 62
7
  6
CONTINUOUS
 10
7.5869248961
 20
-13.3315125904
 11
7.593170494
 21
-13.3924024553
  0
LWPOLYLINE
  5
524
100
AcDbEntity
  8
0
100
AcDbPolyline
 62
7
  6
CONTINUOUS
 90
3
 70
0
 10
7.593170494
 20
-13.3924024553
 10
7.595432994
 20
-13.4517711217
 10
7.5954082336
 20
-13.4810351346
  0
LINE
  5
525
100
AcDbEntity
  8
DRAFT
100
AcDbLine
 62
7
  6
CONTINUOUS
 10
7.238215003
 20
-20.905541974
 11
7.2084845302
 21
-19.9168196343
  0
LINE
  5
526
100
AcDbEntity
  8
DRAFT
100
AcDbLine
 62
7
  6
CONTINUOUS
 10
6.0830351795
 20
19.0046186201
 11
6.0819690456
 21
19.0876848522
  0
LINE
  5
527
100
AcDbEntity
  8
RACCORDO
100
AcDbLine
 62
250
  6
CONTINUOUS
 10
5.5996040074
 20
18.147511945
 11
5.5996040074
 21
17.3652485284
  0
LINE
  5
528
100
AcDbEntity
  8
RACCORDO
100
AcDbLine
 62
7
  6
CONTINUOUS
 10
5.69639891
 20
18.0681388047
 11
5.69639891
 21
17.3342762865
  0
LINE
  5
529
100
AcDbEntity
  8
0
100
AcDbLine
 62
7
  6
CONTINUOUS
 10
6.000508
 20
-7.501942363
 11
6.000508
 21
-7.8514196384
  0
LINE
  5
52A
100
AcDbEntity
  8
0
100
AcDbLine
 62
7
  6
CONTINUOUS
 10
6.000508
 20
-8.6092718985
 11
6.000508
 21
-9.0058419415
  0
LINE
  5
52B
100
AcDbEntity
  8
0
100
AcDbLine
 62
7
  6
CONTINUOUS
 10
6.000508
 20
-9.219328888
 11
6.000508
 21
-9.5987170158
  0
LINE
  5
52C
100
AcDbEntity
  8
0
100
AcDbLine
 62
7
  6
CONTINUOUS
 10
6.000508
 20
-10.1495222977
 11
6.000508
 21
-10.2051410232
  0
LINE
  5
52D
100
AcDbEntity
  8
0
100
AcDbLine
 62
7
  6
CONTINUOUS
 10
6.000508
 20
-10.7581402942
 11
6.000508
 21
-11.1460913798
  0
LINE
  5
52E
100
AcDbEntity
  8
0
100
AcDbLine
 62
7
  6
CONTINUOUS
 10
6.000508
 20
-11.2083630725
 11
6.000508
 21
-11.6006311367
  0
LINE
  5
52F
100
AcDbEntity
  8
0
100
AcDbLine
 62
7
  6
CONTINUOUS
 10
6.000508
 20
-12.3528554246
 11
6.000508
 21
-12.770824362
  0
LINE
  5
530
100
AcDbEntity
  8
0
100
AcDbLine
 62
7
  6
CONTINUOUS
 10
6.0005080312
 20
-12.8872765109
 11
6.0005080312
 21
-13.2822512039
  0
LINE
  5
531
100
AcDbEntity
  8
0
100
AcDbLine
 62
7
  6
CONTINUOUS
 10
6.0005080312
 20
-13.8895440274
 11
6.0005080312
 21
-14.2709986301
  0
LINE
  5
532
100
AcDbEntity
  8
0
100
AcDbLine
 62
7
  6
CONTINUOUS
 10
6.379785
 20
-11.7100595967
 11
6.379785
 21
-12.2501219316
  0
LINE
  5
533
100
AcDbEntity
  8
RACCORDO
100
AcDbLine
 62
250
  6
CONTINUOUS
 10
6.4044089061
 20
12.4938722743
 11
6.4044089061
 21
11.992303948
  0
LINE
  5
534
100
AcDbEntity
  8
RACCORDO
100
AcDbLine
 62
250
  6
CONTINUOUS
 10
6.5
 20
13.8539114341
 11
6.5
 21
12.5006001398
  0
LINE
  5
535
100
AcDbEntity
  8
RACCORDO
100
AcDbLine
 62
250
  6
CONTINUOUS
 10
6.5
 20
11.9917902723
 11
6.5
 21
11.9796229563
  0
LINE
  5
536
100
AcDbEntity
  8
0
100
AcDbLine
 62
7
  6
CONTINUOUS
 10
6.673268
 20
-12.1708683227
 11
6.673268
 21
-11.7911801964
  0
LINE
  5
537
100
AcDbEntity
  8
0
100
AcDbLine
 62
7
  6
CONTINUOUS
 10
6.7440026937
 20
-13.2822512039
 11
6.7440026937
 21
-13.4948827612
  0
LINE
  5
538
100
AcDbEntity
  8
0
100
AcDbLine
 62
7
  6
CONTINUOUS
 10
7.055151513
 20
-13.4957375614
 11
7.055151513
 21
-13.269101527
  0
LINE
  5
539
100
AcDbEntity
  8
DRAFT
100
AcDbLine
 62
7
  6
CONTINUOUS
 10
6.0819690456
 20
-19.0342845637
 11
6.0830351795
 21
-18.9951938576
  0
LINE
  5
53A
100
AcDbEntity
  8
DRAFT
100
AcDbLine
 62
7
  6
CONTINUOUS
 10
7.238215003
 20
20.9576718579
 11
7.2084845302
 21
19.979651384
  0
LWPOLYLINE
  5
53B
100
AcDbEntity
  8
DRAFT
100
AcDbPolyline
 62
7
  6
CONTINUOUS
 90
22
 70
0
 10
7.0261825974
 20
12.8004681276
 10
7.0014033934
 20
12.5229219505
 10
6.9415334962
 20
12.2634837548
 10
6.8465729059
 20
12.0221535404
 10
6.7127267307
 20
11.7947189351
 10
6.5437898623
 20
11.5853923111
 10
6.3511469761
 20
11.4068107857
 10
6.1335040574
 20
11.2608929913
 10
5.892155121
 20
11.1457202954
 10
5.6423668864
 20
11.0681739181
 10
5.3836020615
 20
11.0305475994
 10
5.1163979385
 20
11.0305475994
 10
4.8576331136
 20
11.0681739181
 10
4.607844879
 20
11.1457202954
 10
4.3664959426
 20
11.2608929913
 10
4.1488530239
 20
11.4068107857
 10
3.9562101377
 20
11.5853923111
 10
3.7872732693
 20
11.7947189351
 10
3.6534270941
 20
12.0221535404
 10
3.5584665038
 20
12.2634837548
 10
3.4985966066
 20
12.5229219505
 10
3.4738174026
 20
12.8004681276
  0
LINE
  5
53C
100
AcDbEntity
  8
RACCORDO
100
AcDbLine
 62
250
  6
CONTINUOUS
 10
-7.8004873755
 20
-18.9951938576
 11
-7.2766831112
 21
-18.3771171395
  0
LINE
  5
53D
100
AcDbEntity
  8
RACCORDO
100
AcDbLine
 62
7
  6
CONTINUOUS
 10
-6.393508831
 20
-13.5810333406
 11
-6.5
 21
-13.6660445024
  0
LINE
  5
53E
100
AcDbEntity
  8
RACCORDO
100
AcDbLine
 62
7
  6
CONTINUOUS
 10
-6.5
 20
-13.6823807574
 11
-6.3935538854
 21
-13.5974052235
  0
LWPOLYLINE
  5
53F
100
AcDbEntity
  8
RACCORDO
100
AcDbPolyline
 62
7
  6
CONTINUOUS
 90
5
 70
0
 10
-6.5
 20
-13.6660445024
 10
-6.5247386025
 20
-13.685560248
 10
-6.5490268564
 20
-13.7040751789
 10
-6.5728113328
 20
-13.7215891024
 10
-6.5831189701
 20
-13.7289113607
  0
LINE
  5
540
100
AcDbEntity
  8
RACCORDO
100
AcDbLine
 62
7
  6
CONTINUOUS
 10
-6.2894585084
 20
-13.4989141087
 11
-6.393508831
 21
-13.5810333406
  0
LINE
  5
541
100
AcDbEntity
  8
RACCORDO
100
AcDbLine
 62
7
  6
CONTINUOUS
 10
-6.3935538854
 20
-13.5974052235
 11
-6.2895172249
 21
-13.5152964896
  0
LINE
  5
542
100
AcDbEntity
  8
RACCORDO
100
AcDbLine
 62
7
  6
CONTINUOUS
 10
-6.187825413
 20
-13.419663769
 11
-6.2894585084
 21
-13.4989141087
  0
LINE
  5
543
100
AcDbEntity
  8
RACCORDO
100
AcDbLine
 62
7
  6
CONTINUOUS
 10
-6.2895172249
 20
-13.5152964896
 11
-6.1878702246
 21
-13.43603475
  0
LWPOLYLINE
  5
544
100
AcDbEntity
  8
RACCORDO
100
AcDbPolyline
 62
7
  6
CONTINUOUS
 90
3
 70
0
 10
-6.1878702246
 20
-13.43603475
 10
-6.0885337086
 20
-13.3595407815
 10
-6.0397368307
 20
-13.3223366628
  0
LWPOLYLINE
  5
545
100
AcDbEntity
  8
RACCORDO
100
AcDbPolyline
 62
7
  6
CONTINUOUS
 90
3
 70
0
 10
-6.0397368307
 20
-13.3060004079
 10
-6.0885150674
 20
-13.3431901701
 10
-6.187825413
 20
-13.419663769
  0
LINE
  5
546
100
AcDbEntity
  8
DRAFT
100
AcDbLine
 62
7
  6
CONTINUOUS
 10
9.2469208341
 20
-2.3589283931
 11
9.4389390101
 21
-2.2669314824
  0
LWPOLYLINE
  5
547
100
AcDbEntity
  8
0
100
AcDbPolyline
 62
7
  6
CONTINUOUS
 90
37
 70
0
 10
0.7141428429
 20
-6.0794312849
 10
0.6829565309
 20
-6.089206901
 10
0.6504402501
 20
-6.0986874268
 10
0.6166522232
 20
-6.1078726753
 10
0.5816647336
 20
-6.1168112263
 10
0.5455307094
 20
-6.1254541525
 10
0.5082801804
 20
-6.1336550044
 10
0.4699699663
 20
-6.1414096588
 10
0.4306770432
 20
-6.1487219069
 10
0.3904619599
 20
-6.1554571647
 10
0.3493963308
 20
-6.1616068382
 10
0.3075570846
 20
-6.1671792368
 10
0.2650155044
 20
-6.1720651387
 10
0.221833536
 20
-6.1762535488
 10
0.1781110277
 20
-6.1797552282
 10
0.1339804033
 20
-6.1824936232
 10
0.0895272476
 20
-6.1844520707
 10
0.0448410695
 20
-6.1856471133
 10
0.0000637096
 20
-6.1860520654
 10
-0.0447153782
 20
-6.1856492587
 10
-0.0894059889
 20
-6.1844563605
 10
-0.1338651421
 20
-6.1824997526
 10
-0.1780033312
 20
-6.1797627948
 10
-0.221734842
 20
-6.1762622468
 10
-0.2649259323
 20
-6.1720746516
 10
-0.307476377
 20
-6.1671892211
 10
-0.3493245093
 20
-6.1616169774
 10
-0.3903987556
 20
-6.1554672133
 10
-0.4306220265
 20
-6.148731629
 10
-0.4699228013
 20
-6.141418809
 10
-0.5082406294
 20
-6.1336633797
 10
-0.5454985075
 20
-6.1254615472
 10
-0.5816395673
 20
-6.1168174374
 10
-0.6166338296
 20
-6.1078775501
 10
-0.6504283511
 20
-6.0986908293
 10
-0.6829507767
 20
-6.0892086785
 10
-0.7141428429
 20
-6.0794312849
  0
LINE
  5
548
100
AcDbEntity
  8
DRAFT
100
AcDbLine
 62
250
  6
CONTINUOUS
 10
-9.3953727601
 20
4.9564674196
 11
-10.7863812788
 21
4.7097713989
  0
LINE
  5
549
100
AcDbEntity
  8
RACCORDO
100
AcDbLine
 62
7
  6
CONTINUOUS
 10
-9.9762718881
 20
4.7481598982
 11
-9.2338305324
 21
4.8790716948
  0
LINE
  5
54A
100
AcDbEntity
  8
RACCORDO
100
AcDbLine
 62
7
  6
CONTINUOUS
 10
10.6993779273
 20
8.3408916567
 11
10.4761957357
 21
8.3071097742
  0
LINE
  5
54B
100
AcDbEntity
  8
RACCORDO
100
AcDbLine
 62
7
  6
CONTINUOUS
 10
-10.6993779273
 20
8.3408916567
 11
-10.4761957357
 21
8.3071097742
  0
LINE
  5
54C
100
AcDbEntity
  8
RACCORDO
100
AcDbLine
 62
7
  6
CONTINUOUS
 10
9.2338305324
 20
4.8790716948
 11
9.9762718881
 21
4.7481598982
  0
LINE
  5
54D
100
AcDbEntity
  8
DRAFT
100
AcDbLine
 62
250
  6
CONTINUOUS
 10
9.3953727601
 20
4.9564674196
 11
10.7863812788
 21
4.7097713989
  0
LINE
  5
54E
100
AcDbEntity
  8
DRAFT
100
AcDbLine
 62
7
  6
CONTINUOUS
 10
-9.65
 20
20.8998968627
 11
-9.5103594806
 21
20.7351243325
  0
LINE
  5
54F
100
AcDbEntity
  8
DRAFT
100
AcDbLine
 62
7
  6
CONTINUOUS
 10
9.2469208341
 20
-1.049417005
 11
9.4389390101
 21
-1.2796632654
  0
LWPOLYLINE
  5
550
100
AcDbEntity
  8
RACCORDO
100
AcDbPolyline
 62
250
  6
CONTINUOUS
 90
11
 70
0
 10
-0.8814321191
 20
12.1773150687
 10
-0.8775009693
 20
12.1724268969
 10
-0.8502854325
 20
12.1436089905
 10
-0.820859405
 20
12.1170338961
 10
-0.7894085847
 20
12.0928693176
 10
-0.7561314466
 20
12.0712677475
 10
-0.7212379871
 20
12.0523655002
 10
-0.6849484018
 20
12.0362818544
 10
-0.6474916975
 20
12.0231183052
 10
-0.6091042473
 20
12.0129579236
 10
-0.5700282971
 20
12.0058648278
  0
LINE
  5
551
100
AcDbEntity
  8
DRAFT
100
AcDbLine
 62
7
  6
CONTINUOUS
 10
-3.9733373476
 20
23.4998840322
 11
-3.9630152422
 21
23.4775430833
  0
LWPOLYLINE
  5
552
100
AcDbEntity
  8
0
100
AcDbPolyline
 62
7
  6
CONTINUOUS
 90
6
 70
0
 10
7.9260309323
 20
-13.4113709106
 10
7.9248413268
 20
-13.3489797176
 10
7.9194284754
 20
-13.2363874238
 10
7.910228313
 20
-13.1221240823
 10
7.8964712332
 20
-13.005753778
 10
7.8781572359
 20
-12.8872765109
  0
LINE
  5
553
100
AcDbEntity
  8
DRAFT
100
AcDbLine
 62
7
  6
CONTINUOUS
 10
7.2084845302
 20
19.7313186593
 11
7.2195044567
 21
19.0980072253
  0
LINE
  5
554
100
AcDbEntity
  8
DRAFT
100
AcDbLine
 62
7
  6
CONTINUOUS
 10
7.2084845302
 20
-19.9168196343
 11
7.2084845302
 21
-19.6684869096
  0
LINE
  5
555
100
AcDbEntity
  8
DRAFT
100
AcDbLine
 62
7
  6
CONTINUOUS
 10
7.2084845302
 20
19.7313186593
 11
7.2084845302
 21
19.979651384
  0
LINE
  5
556
100
AcDbEntity
  8
RACCORDO
100
AcDbLine
 62
250
  6
CONTINUOUS
 10
7.2766831112
 20
-17.8756523793
 11
7.2766831113
 21
-18.3771171395
  0
LINE
  5
557
100
AcDbEntity
  8
RACCORDO
100
AcDbLine
 62
250
  6
CONTINUOUS
 10
7.2766831112
 20
18.0767139784
 11
7.2766831112
 21
18.5750919793
  0
LINE
  5
558
100
AcDbEntity
  8
DRAFT
100
AcDbLine
 62
7
  6
CONTINUOUS
 10
7.5226756989
 20
20.7351243325
 11
7.5226756989
 21
19.0046186201
  0
LINE
  5
559
100
AcDbEntity
  8
DRAFT
100
AcDbLine
 62
7
  6
CONTINUOUS
 10
7.5226756989
 20
-18.9951938576
 11
7.5226756989
 21
-20.7853897323
  0
LINE
  5
55A
100
AcDbEntity
  8
0
100
AcDbLine
 62
7
  6
CONTINUOUS
 10
7.900354
 20
-12.1879072386
 11
7.900354
 21
-11.8042731318
  0
LINE
  5
55B
100
AcDbEntity
  8
0
100
AcDbLine
 62
7
  6
CONTINUOUS
 10
7.900354
 20
-10.9684352565
 11
7.900354
 21
-10.5760671927
  0
LINE
  5
55C
100
AcDbEntity
  8
0
100
AcDbLine
 62
7
  6
CONTINUOUS
 10
7.900354
 20
-9.7871150861
 11
7.900354
 21
-9.3908730415
  0
LINE
  5
55D
100
AcDbEntity
  8
0
100
AcDbLine
 62
7
  6
CONTINUOUS
 10
7.900354
 20
-8.4621036248
 11
7.900354
 21
-8.0658035804
  0
LINE
  5
55E
100
AcDbEntity
  8
0
100
AcDbLine
 62
7
  6
CONTINUOUS
 10
7.900354
 20
-7.3304552093
 11
7.900354
 21
-6.8996573352
  0
LINE
  5
55F
100
AcDbEntity
  8
0
100
AcDbLine
 62
7
  6
CONTINUOUS
 10
7.900468
 20
-9.0058419415
 11
7.900468
 21
-8.6092718985
  0
LINE
  5
560
100
AcDbEntity
  8
0
100
AcDbLine
 62
7
  6
CONTINUOUS
 10
7.9262347804
 20
-13.4123146435
 11
7.9262350101
 21
-13.4113698086
  0
LINE
  5
561
100
AcDbEntity
  8
DRAFT
100
AcDbLine
 62
7
  6
CONTINUOUS
 10
7.2195044567
 20
-19.0391422398
 11
7.2084845302
 21
-19.6684869096
  0
LWPOLYLINE
  5
562
100
AcDbEntity
  8
0
100
AcDbPolyline
 62
7
  6
CONTINUOUS
 90
6
 70
0
 10
7.5954082336
 20
-13.4810351346
 10
7.5947893808
 20
-13.5105055975
 10
7.5901626698
 20
-13.5677188748
 10
7.5783219072
 20
-13.6207499305
 10
7.558150613
 20
-13.6702670991
 10
7.5307652672
 20
-13.715602046
  0
LWPOLYLINE
  5
563
100
AcDbEntity
  8
DRAFT
100
AcDbPolyline
 62
7
  6
CONTINUOUS
 90
5
 70
0
 10
9.3518065102
 20
8.5798840868
 10
9.3527603055
 20
8.5959549094
 10
9.3535996154
 20
8.6278193382
 10
9.3543244398
 20
8.6754773732
 10
9.3554645895
 20
8.8250419061
  0
LWPOLYLINE
  5
564
100
AcDbEntity
  8
0
100
AcDbPolyline
 62
7
  6
CONTINUOUS
 90
10
 70
0
 10
6.7440026937
 20
-13.4948827612
 10
6.7413961275
 20
-13.5268136067
 10
6.7344139935
 20
-13.5572020449
 10
6.7230562918
 20
-13.5860480757
 10
6.7068200472
 20
-13.6137442976
 10
6.6862082349
 20
-13.6398981121
 10
6.6627297804
 20
-13.6633317245
 10
6.6368876588
 20
-13.6836525365
 10
6.6081788951
 20
-13.7012531463
 10
6.5766034892
 20
-13.7161335541
  0
LWPOLYLINE
  5
565
100
AcDbEntity
  8
ASSI
100
AcDbPolyline
 62
7
  6
CONTINUOUS
 90
3
 70
0
 10
-4.8647652972
 20
-13.7972806648
 10
-4.7799426203
 20
-13.7242031281
 10
-4.75
 20
-13.6942606556
  0
LINE
  5
566
100
AcDbEntity
  8
ASSI
100
AcDbLine
 62
7
  6
CONTINUOUS
 10
-4.8742466708
 20
-13.8042700674
 11
-4.8647652972
 21
-13.7972806648
  0
LWPOLYLINE
  5
567
100
AcDbEntity
  8
RACCORDO
100
AcDbPolyline
 62
7
  6
CONTINUOUS
 90
5
 70
0
 10
-6.5747568467
 20
-13.7392719419
 10
-6.5728240776
 20
-13.7379010726
 10
-6.5490363383
 20
-13.7204032857
 10
-6.5247438299
 20
-13.7018965783
 10
-6.5
 20
-13.6823807574
  0
LINE
  5
568
100
AcDbEntity
  8
DRAFT
100
AcDbLine
 62
250
  6
CONTINUOUS
 10
9.3518065102
 20
9.5361482779
 11
10.6993779273
 21
9.7766570583
  0
LINE
  5
569
100
AcDbEntity
  8
RACCORDO
100
AcDbLine
 62
7
  6
CONTINUOUS
 10
9.9762718881
 20
9.8085233895
 11
9.2338305324
 21
9.6776115929
  0
LINE
  5
56A
100
AcDbEntity
  8
RACCORDO
100
AcDbLine
 62
7
  6
CONTINUOUS
 10
-9.2338305324
 20
9.6776115929
 11
-9.9762718881
 21
9.8085233895
  0
LINE
  5
56B
100
AcDbEntity
  8
DRAFT
100
AcDbLine
 62
250
  6
CONTINUOUS
 10
-9.3518065102
 20
9.5361482779
 11
-10.6993779273
 21
9.7766570583
  0
LINE
  5
56C
100
AcDbEntity
  8
RACCORDO
100
AcDbLine
 62
7
  6
CONTINUOUS
 10
10.8733846303
 20
2.5763326858
 11
10.4761957357
 21
2.7794262704
  0
LWPOLYLINE
  5
56D
100
AcDbEntity
  8
RACCORDO
100
AcDbPolyline
 62
250
  6
CONTINUOUS
 90
10
 70
0
 10
-0.8670714851
 20
12.1408211817
 10
-0.8535533906
 20
12.126068843
 10
-0.8213938048
 20
12.0966001574
 10
-0.7867882182
 20
12.0700464879
 10
-0.75
 20
12.0466099238
 10
-0.7113091309
 20
12.0264688316
 10
-0.6710100717
 20
12.0097764971
 10
-0.6294095226
 20
11.996659959
 10
-0.5868240888
 20
11.9872190423
 10
-0.5435778714
 20
11.9815255978
  0
LWPOLYLINE
  5
56E
100
AcDbEntity
  8
RACCORDO
100
AcDbPolyline
 62
250
  6
CONTINUOUS
 90
11
 70
0
 10
-0.8754630677
 20
12.1621462477
 10
-0.8535531692
 20
12.1382359371
 10
-0.8213935686
 20
12.1087672747
 10
-0.7867879761
 20
12.0822136339
 10
-0.7499997618
 20
12.0587771018
 10
-0.7113089073
 20
12.0386360429
 10
-0.6710098737
 20
12.0219437407
 10
-0.6294093604
 20
12.0088272313
 10
-0.586823972
 20
11.9993863375
 10
-0.5435778089
 20
11.9936929083
 10
-0.5
 20
11.9917902723
  0
LINE
  5
56F
100
AcDbEntity
  8
DRAFT
100
AcDbLine
 62
7
  6
CONTINUOUS
 10
9.2469208341
 20
2.5505652297
 11
9.4389390101
 21
2.3203189693
  0
LINE
  5
570
100
AcDbEntity
  8
RACCORDO
100
AcDbLine
 62
250
  6
CONTINUOUS
 10
6.5
 20
12.5005867142
 11
6.5700282971
 21
12.0058648278
  0
LWPOLYLINE
  5
571
100
AcDbEntity
  8
RACCORDO
100
AcDbPolyline
 62
250
  6
CONTINUOUS
 90
31
 70
0
 10
9.9762718881
 20
15.3771385234
 10
9.9738041978
 20
15.4900350546
 10
9.9668205434
 20
15.6019420661
 10
9.9553209252
 20
15.7128595579
 10
9.9392814381
 20
15.822802798
 10
9.9187259871
 20
15.9317565184
 10
9.8937262866
 20
16.0396749153
 10
9.8644260039
 20
16.1464181559
 10
9.8306814717
 20
16.2521260729
 10
9.7921334028
 20
16.3571723612
 10
9.7491175761
 20
16.4613683702
 10
9.7012982127
 20
16.5649027505
 10
9.6473086887
 20
16.6687151476
 10
9.5871384099
 20
16.7733662578
 10
9.5207979706
 20
16.8782953849
 10
9.44695253
 20
16.982760086
 10
9.3655057474
 20
17.0871102957
 10
9.2765539635
 20
17.1909960795
 10
9.1790513597
 20
17.2926251903
 10
9.0729668646
 20
17.3921867791
 10
8.9583315497
 20
17.489491695
 10
8.83419281
 20
17.5821802388
 10
8.700392192
 20
17.6705405942
 10
8.5570881492
 20
17.7542845775
 10
8.4038034379
 20
17.8301879382
 10
8.2402628112
 20
17.89857565
 10
8.066741516
 20
17.9591227393
 10
7.8835880488
 20
18.007630034
 10
7.690918575
 20
18.0426978101
 10
7.4886169291
 20
18.0657257915
 10
7.2766831112
 20
18.0767139784
  0
LWPOLYLINE
  5
572
100
AcDbEntity
  8
DRAFT
100
AcDbPolyline
 62
7
  6
CONTINUOUS
 90
4
 70
0
 10
9.3543226206
 20
-8.5610133171
 10
9.3535981559
 20
-8.5129073294
 10
9.3527594525
 20
-8.4804905222
 10
9.3518065102
 20
-8.4637628958
  0
LWPOLYLINE
  5
573
100
AcDbEntity
  8
DRAFT
100
AcDbPolyline
 62
7
  6
CONTINUOUS
 90
4
 70
0
 10
9.3979296549
 20
-4.9705396578
 10
9.3971934468
 20
-4.9216539986
 10
9.3963411485
 20
-4.8887118062
 10
9.3953727601
 20
-4.8717130806
  0
LWPOLYLINE
  5
574
100
AcDbEntity
  8
DRAFT
100
AcDbPolyline
 62
7
  6
CONTINUOUS
 90
4
 70
0
 10
9.4415366808
 20
-1.3800652814
 10
9.4407887309
 20
-1.3304002889
 10
9.4399228406
 20
-1.2969329502
 10
9.4389390101
 20
-1.2796632654
  0
LWPOLYLINE
  5
575
100
AcDbEntity
  8
DRAFT
100
AcDbPolyline
 62
7
  6
CONTINUOUS
 90
4
 70
0
 10
9.4415366872
 20
2.2199164048
 10
9.440788736
 20
2.2695816559
 10
9.4399228436
 20
2.3030491774
 10
9.4389390101
 20
2.3203189693
  0
LWPOLYLINE
  5
576
100
AcDbEntity
  8
DRAFT
100
AcDbPolyline
 62
7
  6
CONTINUOUS
 90
4
 70
0
 10
9.3979298757
 20
5.8293881509
 10
9.3971936241
 20
5.8782827254
 10
9.3963412522
 20
5.9112312163
 10
9.3953727601
 20
5.9282336236
  0
LWPOLYLINE
  5
577
100
AcDbEntity
  8
DRAFT
100
AcDbPolyline
 62
7
  6
CONTINUOUS
 90
4
 70
0
 10
9.3543228607
 20
9.4388773156
 10
9.3535983487
 20
9.4869929961
 10
9.3527595652
 20
9.5194166502
 10
9.3518065102
 20
9.5361482779
  0
LWPOLYLINE
  5
578
100
AcDbEntity
  8
DRAFT
100
AcDbPolyline
 62
7
  6
CONTINUOUS
 90
7
 70
0
 10
10.7103439895
 20
-8.58934838
 10
10.7090999088
 20
-8.488193289
 10
10.7075294724
 20
-8.3971154325
 10
10.7057593855
 20
-8.3242673346
 10
10.7038318833
 20
-8.272366503
 10
10.7017047305
 20
-8.2386954299
 10
10.6993779273
 20
-8.2232541153
  0
LINE
  5
579
100
AcDbEntity
  8
DRAFT
100
AcDbLine
 62
7
  6
CONTINUOUS
 10
9.355462775
 20
-8.7111439738
 11
9.3543226206
 21
-8.5610133171
  0
LINE
  5
57A
100
AcDbEntity
  8
DRAFT
100
AcDbLine
 62
7
  6
CONTINUOUS
 10
9.3990882924
 20
-5.1231034831
 11
9.3979296549
 21
-4.9705396578
  0
LINE
  5
57B
100
AcDbEntity
  8
DRAFT
100
AcDbLine
 62
7
  6
CONTINUOUS
 10
9.3554630134
 20
9.2887133985
 11
9.3543228607
 21
9.4388773156
  0
LINE
  5
57C
100
AcDbEntity
  8
DRAFT
100
AcDbLine
 62
7
  6
CONTINUOUS
 10
9.4427138015
 20
-1.5350611162
 11
9.4415366808
 21
-1.3800652814
  0
LINE
  5
57D
100
AcDbEntity
  8
DRAFT
100
AcDbLine
 62
7
  6
CONTINUOUS
 10
9.3990885117
 20
5.6767937355
 11
9.3979298757
 21
5.8293881509
  0
LINE
  5
57E
100
AcDbEntity
  8
DRAFT
100
AcDbLine
 62
7
  6
CONTINUOUS
 10
9.4427138078
 20
2.0649196832
 11
9.4415366872
 21
2.2199164048
  0
LINE
  5
57F
100
AcDbEntity
  8
DRAFT
100
AcDbLine
 62
7
  6
CONTINUOUS
 10
9.3559763693
 20
-8.8934088179
 11
9.355462775
 21
-8.7111439738
  0
LINE
  5
580
100
AcDbEntity
  8
DRAFT
100
AcDbLine
 62
7
  6
CONTINUOUS
 10
9.3559764433
 20
9.1064306096
 11
9.3554630134
 21
9.2887133985
  0
LINE
  5
581
100
AcDbEntity
  8
DRAFT
100
AcDbLine
 62
7
  6
CONTINUOUS
 10
9.3996102155
 20
-5.3083227009
 11
9.3990882924
 21
-5.1231034831
  0
LINE
  5
582
100
AcDbEntity
  8
DRAFT
100
AcDbLine
 62
7
  6
CONTINUOUS
 10
9.3996102835
 20
5.4915580148
 11
9.3990885117
 21
5.6767937355
  0
LINE
  5
583
100
AcDbEntity
  8
DRAFT
100
AcDbLine
 62
7
  6
CONTINUOUS
 10
9.4432440591
 20
-1.7232340825
 11
9.4427138015
 21
-1.5350611162
  0
LINE
  5
584
100
AcDbEntity
  8
DRAFT
100
AcDbLine
 62
7
  6
CONTINUOUS
 10
9.4432440611
 20
1.8767462387
 11
9.4427138078
 21
2.0649196832
  0
LINE
  5
585
100
AcDbEntity
  8
0
100
AcDbLine
 62
7
  6
CONTINUOUS
 10
9.2338305324
 20
9.6776115929
 11
9.2338305324
 21
8.5233611799
  0
LINE
  5
586
100
AcDbEntity
  8
0
100
AcDbLine
 62
7
  6
CONTINUOUS
 10
9.2338305324
 20
6.1219366085
 11
9.2338305324
 21
4.8790716948
  0
LINE
  5
587
100
AcDbEntity
  8
0
100
AcDbLine
 62
7
  6
CONTINUOUS
 10
9.2338305324
 20
2.5662616241
 11
9.2338305324
 21
1.2347822098
  0
LINE
  5
588
100
AcDbEntity
  8
0
100
AcDbLine
 62
7
  6
CONTINUOUS
 10
9.2338305324
 20
-1.0337206107
 11
9.2338305324
 21
-2.365200025
  0
LINE
  5
589
100
AcDbEntity
  8
0
100
AcDbLine
 62
7
  6
CONTINUOUS
 10
9.2338305324
 20
-4.6780100957
 11
9.2338305324
 21
-5.9208750094
  0
LINE
  5
58A
100
AcDbEntity
  8
0
100
AcDbLine
 62
7
  6
CONTINUOUS
 10
9.2338305324
 20
-8.3222995808
 11
9.2338305324
 21
-9.4765499938
  0
LINE
  5
58B
100
AcDbEntity
  8
DRAFT
100
AcDbLine
 62
7
  6
CONTINUOUS
 10
9.5103594806
 20
20.7351243325
 11
9.5103594806
 21
18.5006246705
  0
LINE
  5
58C
100
AcDbEntity
  8
DRAFT
100
AcDbLine
 62
7
  6
CONTINUOUS
 10
9.5103594806
 20
-18.4911998808
 11
9.5103594806
 21
-20.7853897323
  0
LINE
  5
58D
100
AcDbEntity
  8
RACCORDO
100
AcDbLine
 62
7
  6
CONTINUOUS
 10
9.65
 20
-20.8998968627
 11
9.65
 21
-18.3978966651
  0
LINE
  5
58E
100
AcDbEntity
  8
RACCORDO
100
AcDbLine
 62
7
  6
CONTINUOUS
 10
9.65
 20
18.4073215663
 11
9.65
 21
20.8998968627
  0
LINE
  5
58F
100
AcDbEntity
  8
RACCORDO
100
AcDbLine
 62
250
  6
CONTINUOUS
 10
9.9762718881
 20
-15.1760769243
 11
9.9762718881
 21
-9.6074617904
  0
LINE
  5
590
100
AcDbEntity
  8
RACCORDO
100
AcDbLine
 62
250
  6
CONTINUOUS
 10
9.9762718881
 20
-8.1913877842
 11
9.9762718881
 21
-6.051786806
  0
LINE
  5
591
100
AcDbEntity
  8
RACCORDO
100
AcDbLine
 62
250
  6
CONTINUOUS
 10
9.9762718881
 20
-4.5470982991
 11
9.9762718881
 21
-2.4961118215
  0
LINE
  5
592
100
AcDbEntity
  8
RACCORDO
100
AcDbLine
 62
250
  6
CONTINUOUS
 10
9.9762718881
 20
-0.9028088141
 11
9.9762718881
 21
1.1038704132
  0
LINE
  5
593
100
AcDbEntity
  8
RACCORDO
100
AcDbLine
 62
250
  6
CONTINUOUS
 10
9.9762718881
 20
2.6971734206
 11
9.9762718881
 21
4.7481598982
  0
LINE
  5
594
100
AcDbEntity
  8
RACCORDO
100
AcDbLine
 62
250
  6
CONTINUOUS
 10
9.9762718881
 20
6.2528484051
 11
9.9762718881
 21
8.3924493833
  0
LINE
  5
595
100
AcDbEntity
  8
RACCORDO
100
AcDbLine
 62
250
  6
CONTINUOUS
 10
9.9762718881
 20
9.8085233895
 11
9.9762718881
 21
15.3771385234
  0
LINE
  5
596
100
AcDbEntity
  8
RACCORDO
100
AcDbLine
 62
250
  6
CONTINUOUS
 10
10.4761957357
 20
-15.1776203039
 11
10.4761957357
 21
-9.6928013994
  0
LINE
  5
597
100
AcDbEntity
  8
RACCORDO
100
AcDbLine
 62
250
  6
CONTINUOUS
 10
10.4761957357
 20
-8.1091349344
 11
10.4761957357
 21
-6.137126415
  0
LINE
  5
598
100
AcDbEntity
  8
RACCORDO
100
AcDbLine
 62
250
  6
CONTINUOUS
 10
10.4761957357
 20
-4.4648454493
 11
10.4761957357
 21
-2.5814514306
  0
LINE
  5
599
100
AcDbEntity
  8
RACCORDO
100
AcDbLine
 62
250
  6
CONTINUOUS
 10
10.4761957357
 20
-0.8205559643
 11
10.4761957357
 21
1.0185308042
  0
LINE
  5
59A
100
AcDbEntity
  8
RACCORDO
100
AcDbLine
 62
250
  6
CONTINUOUS
 10
10.4761957357
 20
2.7794262704
 11
10.4761957357
 21
4.6628202892
  0
LINE
  5
59B
100
AcDbEntity
  8
RACCORDO
100
AcDbLine
 62
250
  6
CONTINUOUS
 10
10.4761957357
 20
6.3351012548
 11
10.4761957357
 21
8.3071097742
  0
LINE
  5
59C
100
AcDbEntity
  8
RACCORDO
100
AcDbLine
 62
250
  6
CONTINUOUS
 10
10.4761957357
 20
9.8907762393
 11
10.4761957357
 21
15.3756617571
  0
LINE
  5
59D
100
AcDbEntity
  8
DRAFT
100
AcDbLine
 62
7
  6
CONTINUOUS
 10
9.3554645895
 20
8.8250419061
 11
9.3559764433
 21
9.1064306096
  0
LINE
  5
59E
100
AcDbEntity
  8
DRAFT
100
AcDbLine
 62
7
  6
CONTINUOUS
 10
9.3990901677
 20
5.2056056108
 11
9.3996102835
 21
5.4915580148
  0
LINE
  5
59F
100
AcDbEntity
  8
DRAFT
100
AcDbLine
 62
7
  6
CONTINUOUS
 10
9.3554648254
 20
-9.1748159066
 11
9.3559763693
 21
-8.8934088179
  0
LINE
  5
5A0
100
AcDbEntity
  8
DRAFT
100
AcDbLine
 62
7
  6
CONTINUOUS
 10
9.3990903846
 20
-5.5942920171
 11
9.3996102155
 21
-5.3083227009
  0
LINE
  5
5A1
100
AcDbEntity
  8
DRAFT
100
AcDbLine
 62
7
  6
CONTINUOUS
 10
9.4427159457
 20
1.5862145442
 11
9.4432440611
 21
1.8767462387
  0
LINE
  5
5A2
100
AcDbEntity
  8
DRAFT
100
AcDbLine
 62
7
  6
CONTINUOUS
 10
9.442715952
 20
-2.013766268
 11
9.4432440591
 21
-1.7232340825
  0
LWPOLYLINE
  5
5A3
100
AcDbEntity
  8
DRAFT
100
AcDbPolyline
 62
7
  6
CONTINUOUS
 90
5
 70
0
 10
9.3953727601
 20
4.9564674196
 10
9.3963420301
 20
4.9727991934
 10
9.397194955
 20
5.0051809403
 10
9.3979315349
 20
5.0536126602
 10
9.3990901677
 20
5.2056056108
  0
LWPOLYLINE
  5
5A4
100
AcDbEntity
  8
DRAFT
100
AcDbPolyline
 62
7
  6
CONTINUOUS
 90
5
 70
0
 10
9.4389390101
 20
1.3330507523
 10
9.4399238479
 20
1.3496466223
 10
9.4407904542
 20
1.3825513265
 10
9.4415388291
 20
1.431764865
 10
9.4427159457
 20
1.5862145442
  0
LWPOLYLINE
  5
5A5
100
AcDbEntity
  8
DRAFT
100
AcDbPolyline
 62
7
  6
CONTINUOUS
 90
5
 70
0
 10
9.4389390101
 20
-2.2669314824
 10
9.4399238508
 20
-2.2503355138
 10
9.4407904592
 20
-2.2174306323
 10
9.4415388354
 20
-2.168216838
 10
9.442715952
 20
-2.013766268
  0
LWPOLYLINE
  5
5A6
100
AcDbEntity
  8
DRAFT
100
AcDbPolyline
 62
7
  6
CONTINUOUS
 90
5
 70
0
 10
9.3953727601
 20
-5.8434792846
 10
9.3963421313
 20
-5.8271440964
 10
9.3971951282
 20
-5.7947562295
 10
9.397931751
 20
-5.7463156838
 10
9.3990903846
 20
-5.5942920171
  0
LWPOLYLINE
  5
5A7
100
AcDbEntity
  8
DRAFT
100
AcDbPolyline
 62
7
  6
CONTINUOUS
 90
5
 70
0
 10
9.3518065102
 20
-9.4200270868
 10
9.3527604156
 20
-9.4039525501
 10
9.3535998038
 20
-9.3720814661
 10
9.3543246749
 20
-9.3244138347
 10
9.3554648254
 20
-9.1748159066
  0
LWPOLYLINE
  5
5A8
100
AcDbEntity
  8
DRAFT
100
AcDbPolyline
 62
7
  6
CONTINUOUS
 90
9
 70
0
 10
10.7863812788
 20
4.7097713989
 10
10.7887582527
 20
4.7246900382
 10
10.7909312713
 20
4.7583049235
 10
10.7929003345
 20
4.8106160548
 10
10.794708588
 20
4.8843840045
 10
10.7963128863
 20
4.9768482002
 10
10.7975837919
 20
5.0797269254
 10
10.7984927504
 20
5.1937330084
 10
10.7992667162
 20
5.4425685605
  0
LWPOLYLINE
  5
5A9
100
AcDbEntity
  8
DRAFT
100
AcDbPolyline
 62
7
  6
CONTINUOUS
 90
9
 70
0
 10
10.6993779273
 20
8.3408916567
 10
10.7016882961
 20
8.3551565826
 10
10.7038037193
 20
8.3876732502
 10
10.7057241971
 20
8.4384416594
 10
10.7074927595
 20
8.5101119013
 10
10.7090663764
 20
8.6000338849
 10
10.7103159572
 20
8.7002573371
 10
10.7112135273
 20
8.8115198291
 10
10.7119913924
 20
9.0547862326
  0
LWPOLYLINE
  5
5AA
100
AcDbEntity
  8
DRAFT
100
AcDbPolyline
 62
7
  6
CONTINUOUS
 90
19
 70
0
 10
10.8733846303
 20
1.0786511411
 10
10.8757946174
 20
1.0935308184
 10
10.8780012573
 20
1.1274494385
 10
10.8800045501
 20
1.1804070012
 10
10.8818493836
 20
1.2551678753
 10
10.8834908698
 20
1.3489676921
 10
10.884794345
 20
1.4535133461
 10
10.8857306264
 20
1.5695742734
 10
10.8863288966
 20
1.696381038
 10
10.8865420401
 20
1.8233322265
 10
10.8863394525
 20
1.9504461113
 10
10.8857517382
 20
2.07770442
 10
10.8848235944
 20
2.1944509222
 10
10.8835258638
 20
2.2999682391
 10
10.8818877037
 20
2.3949737494
 10
10.8800412833
 20
2.4709633587
 10
10.8780306592
 20
2.5251023688
 10
10.8758117748
 20
2.5602254778
 10
10.8733846303
 20
2.5763326858
  0
LINE
  5
5AB
100
AcDbEntity
  8
RACCORDO
100
AcDbLine
 62
7
  6
CONTINUOUS
 10
-2.5
 20
-18.9231058756
 11
-2.4969744882
 21
-18.9195358429
  0
LINE
  5
5AC
100
AcDbEntity
  8
DRAFT
100
AcDbLine
 62
7
  6
CONTINUOUS
 10
-9.5103594806
 20
-20.7853897323
 11
-9.65
 21
-20.8998968627
  0
LINE
  5
5AD
100
AcDbEntity
  8
RACCORDO
100
AcDbLine
 62
250
  6
CONTINUOUS
 10
-11.1238174026
 20
-16.4496423175
 11
-11.15
 21
-16.463263065
  0
LINE
  5
5AE
100
AcDbEntity
  8
RACCORDO
100
AcDbLine
 62
250
  6
CONTINUOUS
 10
-10.9162414635
 20
-17.0595580548
 11
-10.9426253515
 21
-17.072917242
  0
LINE
  5
5AF
100
AcDbEntity
  8
DRAFT
100
AcDbLine
 62
7
  6
CONTINUOUS
 10
9.2469208341
 20
-5.9146033775
 11
9.3953727601
 21
-5.8434792846
  0
LWPOLYLINE
  5
5B0
100
AcDbEntity
  8
RACCORDO
100
AcDbPolyline
 62
250
  6
CONTINUOUS
 90
7
 70
0
 10
-6.5700080354
 20
-11.8208678314
 10
-6.5587445965
 20
-11.8169208256
 10
-6.5473158793
 20
-11.8136845966
 10
-6.5357239637
 20
-11.8111717216
 10
-6.5239715995
 20
-11.8093943406
 10
-6.5120622275
 20
-11.8083641307
 10
-6.5028870438
 20
-11.8080876521
  0
LINE
  5
5B1
100
AcDbEntity
  8
0
100
AcDbLine
 62
7
  6
CONTINUOUS
 10
7.900354
 20
-6.8996573352
 11
6.000508
 21
-7.501942363
  0
LINE
  5
5B2
100
AcDbEntity
  8
DRAFT
100
AcDbLine
 62
250
  6
CONTINUOUS
 10
-9.3518065102
 20
8.5798840868
 11
-10.6993779273
 21
8.3408916567
  0
LINE
  5
5B3
100
AcDbEntity
  8
RACCORDO
100
AcDbLine
 62
7
  6
CONTINUOUS
 10
-9.9762718881
 20
8.3924493833
 11
-9.2338305324
 21
8.5233611799
  0
LWPOLYLINE
  5
5B4
100
AcDbEntity
  8
RACCORDO
100
AcDbPolyline
 62
250
  6
CONTINUOUS
 90
31
 70
0
 10
5.25
 20
10.0986069477
 10
5.6203341783
 20
10.1259751674
 10
5.9722692049
 20
10.197535281
 10
6.30580508
 20
10.3132872884
 10
6.6264318631
 20
10.4771659361
 10
6.9286594946
 20
10.6852364776
 10
7.1960177952
 20
10.9256946738
 10
7.4260429521
 20
11.2018171489
 10
7.621198778
 20
11.5103272786
 10
7.7724065313
 20
11.8295909513
 10
7.8746696338
 20
12.1599862367
 10
7.9329846637
 20
12.5011350652
 10
7.9532626135
 20
12.8302691162
 10
7.9330926478
 20
13.14255914
 10
7.874885602
 20
13.4428343863
 10
7.7917849749
 20
13.7228142842
 10
7.684430034
 20
13.980280914
 10
7.5521815117
 20
14.2174521954
 10
7.4062651043
 20
14.4327013172
 10
7.2477143374
 20
14.6249040012
 10
7.0754956854
 20
14.7951845256
 10
6.8977342671
 20
14.9452889138
 10
6.7153444814
 20
15.0747839474
 10
6.5274119293
 20
15.1841028449
 10
6.3393185331
 20
15.2762912844
 10
6.151678425
 20
15.3512645944
 10
5.9638774728
 20
15.4091074466
 10
5.7794552017
 20
15.4531195334
 10
5.5995914534
 20
15.4844007525
 10
5.4231063862
 20
15.5018512064
 10
5.25
 20
15.505470895
  0
LWPOLYLINE
  5
5B5
100
AcDbEntity
  8
RACCORDO
100
AcDbPolyline
 62
7
  6
CONTINUOUS
 90
31
 70
0
 10
5.25
 20
9.7976951947
 10
5.6514552487
 20
9.8246466306
 10
6.0457842349
 20
9.9050389035
 10
6.4259003911
 20
10.0374605955
 10
6.7852964713
 20
10.219760919
 10
7.1171157902
 20
10.4485849261
 10
7.4145623898
 20
10.7190051102
 10
7.6735446016
 20
11.0271551159
 10
7.8884809443
 20
11.3662256332
 10
8.053756821
 20
11.7243509792
 10
8.169090329
 20
12.0944571193
 10
8.2350210299
 20
12.4693307563
 10
8.2532000149
 20
12.83570475
 10
8.2287437665
 20
13.1851286235
 10
8.1670927772
 20
13.5159043979
 10
8.0730759886
 20
13.8260877234
 10
7.9516454347
 20
14.113141051
 10
7.8076269906
 20
14.3755414841
 10
7.6446577585
 20
14.6138102744
 10
7.4667565999
 20
14.8274952864
 10
7.2777378005
 20
15.0166251323
 10
7.0798331243
 20
15.1826895451
 10
6.8759356527
 20
15.3262888206
 10
6.6688124947
 20
15.4482126401
 10
6.4596501147
 20
15.5500946023
 10
6.2503250657
 20
15.6329839326
 10
6.0428030364
 20
15.6979386084
 10
5.8378463061
 20
15.7463746171
 10
5.6365168051
 20
15.7794900599
 10
5.4402423554
 20
15.798433575
 10
5.25
 20
15.8044647986
  0
LINE
  5
5B6
100
AcDbEntity
  8
RACCORDO
100
AcDbLine
 62
7
  6
CONTINUOUS
 10
0.75
 20
9.7976951947
 11
5.25
 21
9.7976951947
  0
LINE
  5
5B7
100
AcDbEntity
  8
RACCORDO
100
AcDbLine
 62
250
  6
CONTINUOUS
 10
0.75
 20
10.0986069477
 11
5.25
 21
10.0986069477
  0
LINE
  5
5B8
100
AcDbEntity
  8
RACCORDO
100
AcDbLine
 62
250
  6
CONTINUOUS
 10
5.25
 20
10.4020507649
 11
0.75
 21
10.4020507649
  0
LINE
  5
5B9
100
AcDbEntity
  8
RACCORDO
100
AcDbLine
 62
250
  6
CONTINUOUS
 10
0.75
 20
10.4020507649
 11
0.3743143713
 21
10.4348325169
  0
LINE
  5
5BA
100
AcDbEntity
  8
RACCORDO
100
AcDbLine
 62
7
  6
CONTINUOUS
 10
9.2338305324
 20
8.5233611799
 11
9.9762718881
 21
8.3924493833
  0
LINE
  5
5BB
100
AcDbEntity
  8
DRAFT
100
AcDbLine
 62
250
  6
CONTINUOUS
 10
9.3518065102
 20
8.5798840868
 11
10.6993779273
 21
8.3408916567
  0
LWPOLYLINE
  5
5BC
100
AcDbEntity
  8
RACCORDO
100
AcDbPolyline
 62
250
  6
CONTINUOUS
 90
9
 70
0
 10
0.3743143713
 20
10.4348325169
 10
0.0225851351
 20
10.5163386096
 10
-0.3051877086
 20
10.6465690429
 10
-0.6152764218
 20
10.830627163
 10
-0.9014087425
 20
11.0634096237
 10
-1.1447678844
 20
11.3296063869
 10
-1.3422625789
 20
11.6327929576
 10
-1.4969840946
 20
11.9693938308
 10
-1.5993894521
 20
12.3133724531
  0
LINE
  5
5BD
100
AcDbEntity
  8
RACCORDO
100
AcDbLine
 62
7
  6
CONTINUOUS
 10
10.7863812788
 20
6.1764948721
 11
10.4761957357
 21
6.3351012548
  0
LINE
  5
5BE
100
AcDbEntity
  8
RACCORDO
100
AcDbLine
 62
7
  6
CONTINUOUS
 10
-0.2895172249
 20
13.6868271664
 11
-0.1878702246
 21
13.6075654267
  0
LINE
  5
5BF
100
AcDbEntity
  8
RACCORDO
100
AcDbLine
 62
7
  6
CONTINUOUS
 10
-0.3935538854
 20
13.7689359002
 11
-0.2895172249
 21
13.6868271664
  0
LINE
  5
5C0
100
AcDbEntity
  8
RACCORDO
100
AcDbLine
 62
7
  6
CONTINUOUS
 10
-0.5
 20
13.8539114341
 11
-0.3935538854
 21
13.7689359002
  0
LINE
  5
5C1
100
AcDbEntity
  8
RACCORDO
100
AcDbLine
 62
250
  6
CONTINUOUS
 10
-7.8004873755
 20
19.0046186201
 11
-7.2767497248
 21
18.5750919793
  0
LWPOLYLINE
  5
5C2
100
AcDbEntity
  8
RACCORDO
100
AcDbPolyline
 62
7
  6
CONTINUOUS
 90
10
 70
0
 10
11.1238174026
 20
16.45906708
 10
11.1211597977
 20
16.5320927288
 10
11.1132685454
 20
16.6041884628
 10
11.1001436456
 20
16.6753542821
 10
11.0816090312
 20
16.7461027115
 10
11.0578407694
 20
16.8159212262
 10
11.0293670616
 20
16.8832722516
 10
10.9963639749
 20
16.9476432628
 10
10.9586554422
 20
17.0095467846
 10
10.9162414635
 20
17.0689828172
  0
LWPOLYLINE
  5
5C3
100
AcDbEntity
  8
RACCORDO
100
AcDbPolyline
 62
250
  6
CONTINUOUS
 90
31
 70
0
 10
10.4761957307
 20
15.3756617536
 10
10.4734069975
 20
15.5090182786
 10
10.4651037909
 20
15.641661593
 10
10.4513603158
 20
15.7733667273
 10
10.4322918259
 20
15.9037219681
 10
10.4079731972
 20
16.032709501
 10
10.3783598451
 20
16.160690852
 10
10.3435514188
 20
16.2872385669
 10
10.3035493563
 20
16.4123497799
 10
10.2579590201
 20
16.5369648176
 10
10.2068678641
 20
16.6604341945
 10
10.1500757827
 20
16.7828686472
 10
10.0863450557
 20
16.9061547482
 10
10.015113912
 20
17.030230809
 10
9.9362854759
 20
17.1541754645
 10
9.8489390714
 20
17.2783138323
 10
9.7525732589
 20
17.4021221767
 10
9.6469643657
 20
17.5246913898
 10
9.5314840232
 20
17.6455552215
 10
9.4059123263
 20
17.7637373708
 10
9.2699542751
 20
17.8783342707
 10
9.1228281685
 20
17.9887478669
 10
8.9644141631
 20
18.0937497998
 10
8.7946428417
 20
18.1920789097
 10
8.6128033754
 20
18.2827488147
 10
8.4191197331
 20
18.3641694307
 10
8.2138155876
 20
18.4347623711
 10
7.9962709406
 20
18.4931107425
 10
7.766748195
 20
18.537326602
 10
7.5264984193
 20
18.5653165102
 10
7.2766831112
 20
18.5750919793
  0
LWPOLYLINE
  5
5C4
100
AcDbEntity
  8
DRAFT
100
AcDbPolyline
 62
7
  6
CONTINUOUS
 90
7
 70
0
 10
10.7975551472
 20
5.8053591395
 10
10.7962786157
 20
5.9082032694
 10
10.79467106
 20
6.000642842
 10
10.7928643605
 20
6.0745087039
 10
10.7909024771
 20
6.127077804
 10
10.7887414499
 20
6.1610731934
 10
10.7863812788
 20
6.1764948721
  0
LWPOLYLINE
  5
5C5
100
AcDbEntity
  8
DRAFT
100
AcDbPolyline
 62
7
  6
CONTINUOUS
 90
7
 70
0
 10
10.7975837919
 20
-4.9974398463
 10
10.7963128863
 20
-4.8941036423
 10
10.794708588
 20
-4.8010619589
 10
10.7929003344
 20
-4.7266431053
 10
10.7909312712
 20
-4.6736231845
 10
10.7887582527
 20
-4.6392260934
 10
10.7863812788
 20
-4.6234518321
  0
LWPOLYLINE
  5
5C6
100
AcDbEntity
  8
DRAFT
100
AcDbPolyline
 62
7
  6
CONTINUOUS
 90
7
 70
0
 10
10.7103440027
 20
9.4105614679
 10
10.7090999279
 20
9.5117165863
 10
10.7075294974
 20
9.6027946207
 10
10.7057594121
 20
9.6756429475
 10
10.7038319054
 20
9.7275440254
 10
10.7017047438
 20
9.7612153957
 10
10.6993779273
 20
9.7766570583
  0
LWPOLYLINE
  5
5C7
100
AcDbEntity
  8
DRAFT
100
AcDbPolyline
 62
7
  6
CONTINUOUS
 90
3
 70
0
 10
10.7119913924
 20
-8.9451245361
 10
10.71179718
 20
-8.8232657081
 10
10.7103439895
 20
-8.58934838
  0
LWPOLYLINE
  5
5C8
100
AcDbEntity
  8
DRAFT
100
AcDbPolyline
 62
7
  6
CONTINUOUS
 90
3
 70
0
 10
10.7119913924
 20
9.0547862326
 10
10.7117971829
 20
9.1766446843
 10
10.7103440027
 20
9.4105614679
  0
LWPOLYLINE
  5
5C9
100
AcDbEntity
  8
DRAFT
100
AcDbPolyline
 62
7
  6
CONTINUOUS
 90
3
 70
0
 10
10.7992667162
 20
-5.3608872722
 10
10.7990683163
 20
-5.2364009158
 10
10.7975837919
 20
-4.9974398463
  0
LWPOLYLINE
  5
5CA
100
AcDbEntity
  8
DRAFT
100
AcDbPolyline
 62
7
  6
CONTINUOUS
 90
3
 70
0
 10
10.7992667162
 20
5.4425685605
 10
10.7990579786
 20
5.5669707211
 10
10.7975551472
 20
5.8053591395
  0
LINE
  5
5CB
100
AcDbEntity
  8
RACCORDO
100
AcDbLine
 62
7
  6
CONTINUOUS
 10
11.0
 20
-15.7956970221
 11
11.0
 21
15.8051217845
  0
LINE
  5
5CC
100
AcDbEntity
  8
RACCORDO
100
AcDbLine
 62
7
  6
CONTINUOUS
 10
11.1238174026
 20
-16.4496423175
 11
11.1238174026
 21
16.45906708
  0
LINE
  5
5CD
100
AcDbEntity
  8
RACCORDO
100
AcDbLine
 62
7
  6
CONTINUOUS
 10
11.15
 20
-21.899663077
 11
11.15
 21
21.899663077
  0
LWPOLYLINE
  5
5CE
100
AcDbEntity
  8
RACCORDO
100
AcDbPolyline
 62
7
  6
CONTINUOUS
 90
10
 70
0
 10
11.15
 20
-16.4632632131
 10
11.1473544403
 20
-16.5361959327
 10
11.1394801106
 20
-16.6082151967
 10
11.126377011
 20
-16.6793210049
 10
11.1078721374
 20
-16.7500265443
 10
11.084138494
 20
-16.8198186279
 10
11.0556950924
 20
-16.8871576956
 10
11.0227149368
 20
-16.9515305604
 10
10.9850250232
 20
-17.0134504092
 10
10.9426253515
 20
-17.072917242
  0
LWPOLYLINE
  5
5CF
100
AcDbEntity
  8
DRAFT
100
AcDbPolyline
 62
7
  6
CONTINUOUS
 90
19
 70
0
 10
10.8733846303
 20
-2.5213310936
 10
10.8757946174
 20
-2.5064514163
 10
10.8780012573
 20
-2.4725327963
 10
10.8800045501
 20
-2.4195752335
 10
10.8818493836
 20
-2.3448143594
 10
10.8834908698
 20
-2.2510145426
 10
10.884794345
 20
-2.1464688886
 10
10.8857306264
 20
-2.0304079613
 10
10.8863288966
 20
-1.9036011968
 10
10.8865420401
 20
-1.7766500083
 10
10.8863394525
 20
-1.6495361235
 10
10.8857517382
 20
-1.5222778148
 10
10.8848235944
 20
-1.4055313126
 10
10.8835258638
 20
-1.3000139957
 10
10.8818877037
 20
-1.2050084853
 10
10.8800412833
 20
-1.129018876
 10
10.8780306592
 20
-1.074879866
 10
10.8758117748
 20
-1.0397567569
 10
10.8733846303
 20
-1.0236495489
  0
LWPOLYLINE
  5
5D0
100
AcDbEntity
  8
DRAFT
100
AcDbPolyline
 62
7
  6
CONTINUOUS
 90
9
 70
0
 10
10.7863812788
 20
-6.0901753052
 10
10.7887414499
 20
-6.0756032008
 10
10.7909024771
 20
-6.0423857011
 10
10.7928643605
 20
-5.9905228063
 10
10.79467106
 20
-5.9173072891
 10
10.7962786157
 20
-5.8254463768
 10
10.7975551472
 20
-5.7230617508
 10
10.798472075
 20
-5.6093998799
 10
10.7992667162
 20
-5.3608872722
  0
LWPOLYLINE
  5
5D1
100
AcDbEntity
  8
DRAFT
100
AcDbPolyline
 62
7
  6
CONTINUOUS
 90
9
 70
0
 10
10.6993779273
 20
-9.6590195169
 10
10.7016882824
 20
-9.6447549852
 10
10.7038036969
 20
-9.6122386059
 10
10.7057241709
 20
-9.5614703791
 10
10.7074927365
 20
-9.4898002188
 10
10.7090663616
 20
-9.399878211
 10
10.7103159493
 20
-9.299654613
 10
10.7112135236
 20
-9.1883917985
 10
10.7119913924
 20
-8.9451245361
  0
LWPOLYLINE
  5
5D2
100
AcDbEntity
  8
0
100
AcDbPolyline
 62
7
  6
CONTINUOUS
 90
6
 70
0
 10
7.8581548119
 20
-13.8659515411
 10
7.8855314305
 20
-13.7695609597
 10
7.9060423127
 20
-13.6697556697
 10
7.9196874582
 20
-13.5665356711
 10
7.9256972608
 20
-13.4594650487
 10
7.9260309323
 20
-13.4113709106
  0
LINE
  5
5D3
100
AcDbEntity
  8
RACCORDO
100
AcDbLine
 62
250
  6
CONTINUOUS
 10
-0.4003816907
 20
-17.9812760393
 11
-0.30360109
 21
-17.8670772056
  0
LINE
  5
5D4
100
AcDbEntity
  8
RACCORDO
100
AcDbLine
 62
250
  6
CONTINUOUS
 10
0.099527855
 20
-18.4812142958
 11
0.1877475416
 21
-18.3771171395
  0
LINE
  5
5D5
100
AcDbEntity
  8
0
100
AcDbLine
 62
7
  6
CONTINUOUS
 10
7.241072
 20
-9.6842965935
 11
6.000508
 21
-10.1495222977
  0
LINE
  5
5D6
100
AcDbEntity
  8
0
100
AcDbLine
 62
7
  6
CONTINUOUS
 10
6.845554
 20
-10.1794971497
 11
7.900354
 21
-9.7871150861
  0
LINE
  5
5D7
100
AcDbEntity
  8
RACCORDO
100
AcDbLine
 62
250
  6
CONTINUOUS
 10
6.5435778089
 20
11.9815255925
 11
6.5
 21
11.9796229563
  0
LWPOLYLINE
  5
5D8
100
AcDbEntity
  8
ASSI
100
AcDbPolyline
 62
7
  6
CONTINUOUS
 90
5
 70
0
 10
5.8
 20
11.2753428299
 10
5.9131201551
 20
11.2797310261
 10
6.0243806221
 20
11.2922670081
 10
6.1337814009
 20
11.3129507761
 10
6.1963820381
 20
11.3297617729
  0
LWPOLYLINE
  5
5D9
100
AcDbEntity
  8
ASSI
100
AcDbPolyline
 62
7
  6
CONTINUOUS
 90
12
 70
0
 10
0.2
 20
11.2753428299
 10
0.3131201551
 20
11.2797310261
 10
0.4243806221
 20
11.2922670081
 10
0.5337814009
 20
11.3129507761
 10
0.6419113035
 20
11.341988363
 10
0.748181518
 20
11.3791737358
 10
0.8508256087
 20
11.423888795
 10
0.949782966
 20
11.4762593972
 10
1.0451141996
 20
11.5361596858
 10
1.1352347028
 20
11.6025939913
 10
1.2200573797
 20
11.6756715281
 10
1.25
 20
11.7056140006
  0
LWPOLYLINE
  5
5DA
100
AcDbEntity
  8
RACCORDO
100
AcDbPolyline
 62
250
  6
CONTINUOUS
 90
7
 70
0
 10
6.4044089061
 20
11.992303948
 10
6.4321682061
 20
11.992701863
 10
6.4598881541
 20
11.9938486834
 10
6.4875503869
 20
11.9957414098
 10
6.5151365932
 20
11.9983764921
 10
6.5426285293
 20
12.001749836
 10
6.5700080354
 20
12.0058568097
  0
LWPOLYLINE
  5
5DB
100
AcDbEntity
  8
0
100
AcDbPolyline
 62
7
  6
CONTINUOUS
 90
3
 70
0
 10
1.3801608002
 20
11.9877872395
 10
1.2835519386
 20
11.986778011
 10
1.25
 20
11.9857066142
  0
LINE
  5
5DC
100
AcDbEntity
  8
RACCORDO
100
AcDbLine
 62
7
  6
CONTINUOUS
 10
6.5028483878
 20
11.9796181028
 11
6.5028866473
 21
11.9796183265
  0
LINE
  5
5DD
100
AcDbEntity
  8
0
100
AcDbLine
 62
7
  6
CONTINUOUS
 10
6.4105028761
 20
11.9791224161
 11
6.5027966321
 21
11.9796178093
  0
LINE
  5
5DE
100
AcDbEntity
  8
RACCORDO
100
AcDbLine
 62
250
  6
CONTINUOUS
 10
-0.4044089061
 20
11.992303948
 11
-0.5
 21
11.9917902723
  0
LINE
  5
5DF
100
AcDbEntity
  8
0
100
AcDbLine
 62
7
  6
CONTINUOUS
 10
1.7504766886
 20
11.9895557853
 11
1.3801608002
 21
11.9877872395
  0
LINE
  5
5E0
100
AcDbEntity
  8
RACCORDO
100
AcDbLine
 62
250
  6
CONTINUOUS
 10
6.5
 20
11.9796229563
 11
6.4106506657
 21
11.9791209678
  0
LINE
  5
5E1
100
AcDbEntity
  8
RACCORDO
100
AcDbLine
 62
250
  6
CONTINUOUS
 10
-0.5028484677
 20
11.9796181033
 11
-0.5
 21
11.9796229563
  0
LINE
  5
5E2
100
AcDbEntity
  8
0
100
AcDbLine
 62
7
  6
CONTINUOUS
 10
2.3004418459
 20
11.9907460167
 11
1.7504766886
 21
11.9895557853
  0
LINE
  5
5E3
100
AcDbEntity
  8
RACCORDO
100
AcDbLine
 62
7
  6
CONTINUOUS
 10
5.25
 20
10.7011068082
 11
0.75
 21
10.7011068082
  0
LINE
  5
5E4
100
AcDbEntity
  8
RACCORDO
100
AcDbLine
 62
7
  6
CONTINUOUS
 10
6.4106506657
 20
11.9791209678
 11
4.75
 21
11.9791068131
  0
LINE
  5
5E5
100
AcDbEntity
  8
RACCORDO
100
AcDbLine
 62
250
  6
CONTINUOUS
 10
-0.4044089061
 20
11.992303948
 11
2.3014938993
 21
11.992303948
  0
LINE
  5
5E6
100
AcDbEntity
  8
RACCORDO
100
AcDbLine
 62
250
  6
CONTINUOUS
 10
3.6985061007
 20
11.992303948
 11
6.4044089061
 21
11.992303948
  0
LINE
  5
5E7
100
AcDbEntity
  8
RACCORDO
100
AcDbLine
 62
250
  6
CONTINUOUS
 10
6.5
 20
11.9796229563
 11
6.5028483878
 21
11.9796181028
  0
LINE
  5
5E8
100
AcDbEntity
  8
RACCORDO
100
AcDbLine
 62
7
  6
CONTINUOUS
 10
-0.4106506658
 20
11.9791209678
 11
1.25
 21
11.9791068131
  0
LINE
  5
5E9
100
AcDbEntity
  8
0
100
AcDbLine
 62
7
  6
CONTINUOUS
 10
4.2545935634
 20
11.9895394733
 11
3.6995581345
 21
11.9907460167
  0
LINE
  5
5EA
100
AcDbEntity
  8
RACCORDO
100
AcDbLine
 62
7
  6
CONTINUOUS
 10
-0.4105014372
 20
11.9791224088
 11
-0.4106397502
 21
11.9791231267
  0
LINE
  5
5EB
100
AcDbEntity
  8
0
100
AcDbLine
 62
7
  6
CONTINUOUS
 10
-0.5027963616
 20
11.9796178077
 11
-0.4105028817
 21
11.9791224161
  0
LINE
  5
5EC
100
AcDbEntity
  8
RACCORDO
100
AcDbLine
 62
250
  6
CONTINUOUS
 10
6.5
 20
11.9917902723
 11
6.4044089061
 21
11.992303948
  0
LINE
  5
5ED
100
AcDbEntity
  8
RACCORDO
100
AcDbLine
 62
250
  6
CONTINUOUS
 10
-0.5
 20
11.9796229563
 11
-0.4044089061
 21
11.9791092805
  0
LINE
  5
5EE
100
AcDbEntity
  8
RACCORDO
100
AcDbLine
 62
7
  6
CONTINUOUS
 10
-0.5028870438
 20
11.9796183288
 11
-0.5028484677
 21
11.9796181033
  0
LWPOLYLINE
  5
5EF
100
AcDbEntity
  8
0
100
AcDbPolyline
 62
7
  6
CONTINUOUS
 90
4
 70
0
 10
4.75
 20
11.9857066143
 10
4.717847571
 20
11.9867556398
 10
4.6225717455
 20
11.9877661182
 10
4.2545935634
 20
11.9895394733
  0
LINE
  5
5F0
100
AcDbEntity
  8
RACCORDO
100
AcDbLine
 62
250
  6
CONTINUOUS
 10
-0.5435778714
 20
11.9815255978
 11
-0.5
 21
11.9796229563
  0
LWPOLYLINE
  5
5F1
100
AcDbEntity
  8
RACCORDO
100
AcDbPolyline
 62
7
  6
CONTINUOUS
 90
12
 70
0
 10
0.75
 20
10.7011068082
 10
0.4325452291
 20
10.7252400102
 10
0.1224013105
 20
10.7970804153
 10
-0.1733055879
 20
10.9149703411
 10
-0.4477121638
 20
11.0761453716
 10
-0.6946020386
 20
11.2769238755
 10
-0.9084682672
 20
11.5128935775
 10
-1.0849345405
 20
11.7798203131
 10
-1.2188818733
 20
12.0706863523
 10
-1.3063715407
 20
12.3752627957
 10
-1.3469122191
 20
12.6872587642
 10
-1.35
 20
12.8010964451
  0
LWPOLYLINE
  5
5F2
100
AcDbEntity
  8
RACCORDO
100
AcDbPolyline
 62
250
  6
CONTINUOUS
 90
6
 70
0
 10
-0.5120626032
 20
11.9922829905
 10
-0.5239721244
 20
11.9935319762
 10
-0.5357244183
 20
11.9955258903
 10
-0.5473160526
 20
11.9982529056
 10
-0.5587442868
 20
12.0017007333
 10
-0.5700070512
 20
12.005856649
  0
LWPOLYLINE
  5
5F3
100
AcDbEntity
  8
RACCORDO
100
AcDbPolyline
 62
250
  6
CONTINUOUS
 90
7
 70
0
 10
-0.5
 20
12.5006001398
 10
-0.4843511689
 20
12.4985543964
 10
-0.4685891306
 20
12.4968784259
 10
-0.4527138852
 20
12.4955722285
 10
-0.4367254327
 20
12.4946358041
 10
-0.420623773
 20
12.4940691527
 10
-0.4044089061
 20
12.4938722743
  0
LWPOLYLINE
  5
5F4
100
AcDbEntity
  8
RACCORDO
100
AcDbPolyline
 62
250
  6
CONTINUOUS
 90
7
 70
0
 10
-0.5700070512
 20
12.005856649
 10
-0.5426279815
 20
12.0017497614
 10
-0.5151363738
 20
11.9983764681
 10
-0.4875503869
 20
11.9957414098
 10
-0.4598882639
 20
11.9938486894
 10
-0.4321683158
 20
11.992701866
 10
-0.4044089061
 20
11.992303948
  0
LWPOLYLINE
  5
5F5
100
AcDbEntity
  8
ASSI
100
AcDbPolyline
 62
7
  6
CONTINUOUS
 90
5
 70
0
 10
-0.1963820381
 20
11.3297617729
 10
-0.1337814009
 20
11.3129507761
 10
-0.0243806221
 20
11.2922670081
 10
0.0868798449
 20
11.2797310261
 10
0.2
 20
11.2753428299
  0
LWPOLYLINE
  5
5F6
100
AcDbEntity
  8
RACCORDO
100
AcDbPolyline
 62
7
  6
CONTINUOUS
 90
5
 70
0
 10
-0.5850768717
 20
13.9181223783
 10
-0.5728240776
 20
13.9094317494
 10
-0.5490363383
 20
13.8919339625
 10
-0.5247438299
 20
13.8734272551
 10
-0.5
 20
13.8539114341
  0
LWPOLYLINE
  5
5F7
100
AcDbEntity
  8
RACCORDO
100
AcDbPolyline
 62
7
  6
CONTINUOUS
 90
3
 70
0
 10
-0.1878702246
 20
13.6075654267
 10
-0.1379115065
 20
13.5689708206
 10
-0.0397368307
 20
13.4938673395
  0
LWPOLYLINE
  5
5F8
100
AcDbEntity
  8
ASSI
100
AcDbPolyline
 62
7
  6
CONTINUOUS
 90
4
 70
0
 10
1.25
 20
13.8450568549
 10
1.2200573797
 20
13.8749993274
 10
1.1352347028
 20
13.9480768642
 10
1.0944376919
 20
13.9781512755
  0
LWPOLYLINE
  5
5F9
100
AcDbEntity
  8
ASSI
100
AcDbPolyline
 62
7
  6
CONTINUOUS
 90
12
 70
0
 10
4.75
 20
11.7056140006
 10
4.7799426203
 20
11.6756715281
 10
4.8647652972
 20
11.6025939913
 10
4.9548858004
 20
11.5361596858
 10
5.050217034
 20
11.4762593972
 10
5.1491743913
 20
11.423888795
 10
5.251818482
 20
11.3791737358
 10
5.3580886965
 20
11.341988363
 10
5.4662185991
 20
11.3129507761
 10
5.5756193779
 20
11.2922670081
 10
5.6868798449
 20
11.2797310261
 10
5.8
 20
11.2753428299
  0
LINE
  5
5FA
100
AcDbEntity
  8
DRAFT
100
AcDbLine
 62
7
  6
CONTINUOUS
 10
9.2469208341
 20
6.1062402141
 11
9.3953727601
 21
5.9282336236
  0
LWPOLYLINE
  5
5FB
100
AcDbEntity
  8
DRAFT
100
AcDbPolyline
 62
7
  6
CONTINUOUS
 90
10
 70
0
 10
-5.1932624094
 20
-22.6630547838
 10
-5.1894875525
 20
-22.6595693385
 10
-5.1856839356
 20
-22.6561127343
 10
-5.1818516899
 20
-22.6526854085
 10
-5.1779914079
 20
-22.6492880304
 10
-5.1741027808
 20
-22.6459208
 10
-5.1701845782
 20
-22.6425834873
 10
-5.1662364755
 20
-22.6392763499
 10
-5.1622590739
 20
-22.6360000935
 10
-5.1582525237
 20
-22.6327551976
  0
LINE
  5
5FC
100
AcDbEntity
  8
DRAFT
100
AcDbLine
 62
7
  6
CONTINUOUS
 10
-0.3297836874
 20
-17.1510173057
 11
-0.4003959926
 21
-17.1990294986
  0
LINE
  5
5FD
100
AcDbEntity
  8
DRAFT
100
AcDbLine
 62
7
  6
CONTINUOUS
 10
9.2469208341
 20
-9.4702783619
 11
9.3518065102
 21
-9.4200270868
  0
LINE
  5
5FE
100
AcDbEntity
  8
0
100
AcDbLine
 62
7
  6
CONTINUOUS
 10
6.000508
 20
-12.770824362
 11
7.900354
 21
-12.1879072386
  0
LWPOLYLINE
  5
5FF
100
AcDbEntity
  8
ASSI
100
AcDbPolyline
 62
7
  6
CONTINUOUS
 90
4
 70
0
 10
4.8711347307
 20
13.9846602359
 10
4.8870735407
 20
13.9850022395
 10
4.8966952971
 20
13.9853477424
 10
4.9
 20
13.9856967447
  0
LWPOLYLINE
  5
600
100
AcDbEntity
  8
ASSI
100
AcDbPolyline
 62
7
  6
CONTINUOUS
 90
4
 70
0
 10
1.1288652693
 20
13.9867332535
 10
1.1129264593
 20
13.9863912498
 10
1.1033047029
 20
13.9860457469
 10
1.1
 20
13.9856967447
  0
LWPOLYLINE
  5
601
100
AcDbEntity
  8
RACCORDO
100
AcDbPolyline
 62
250
  6
CONTINUOUS
 90
7
 70
0
 10
6.4044089061
 20
12.4938722743
 10
6.420623773
 20
12.4940691527
 10
6.4367254327
 20
12.4946358041
 10
6.4527138852
 20
12.4955722285
 10
6.4685891306
 20
12.4968784259
 10
6.4843511689
 20
12.4985543964
 10
6.5
 20
12.5006001398
  0
LINE
  5
602
100
AcDbEntity
  8
ASSI
100
AcDbLine
 62
7
  6
CONTINUOUS
 10
4.8201130226
 20
13.9839844646
 11
4.8711347307
 21
13.9846602359
  0
LINE
  5
603
100
AcDbEntity
  8
ASSI
100
AcDbLine
 62
7
  6
CONTINUOUS
 10
1.1798869774
 20
13.9874090248
 11
1.1288652693
 21
13.9867332535
  0
LINE
  5
604
100
AcDbEntity
  8
ASSI
100
AcDbLine
 62
7
  6
CONTINUOUS
 10
4.7500183419
 20
13.9833755152
 11
4.8201130226
 21
13.9839844646
  0
LINE
  5
605
100
AcDbEntity
  8
RACCORDO
100
AcDbLine
 62
250
  6
CONTINUOUS
 10
-0.9133028905
 20
12.4998999339
 11
-0.970335833
 21
12.4995458377
  0
LINE
  5
606
100
AcDbEntity
  8
ASSI
100
AcDbLine
 62
7
  6
CONTINUOUS
 10
1.4999854512
 20
13.9893565327
 11
1.1798869774
 21
13.9874090248
  0
LINE
  5
607
100
AcDbEntity
  8
ASSI
100
AcDbLine
 62
7
  6
CONTINUOUS
 10
2.026401681
 20
13.9908203097
 11
1.4999854512
 21
13.9893565327
  0
LINE
  5
608
100
AcDbEntity
  8
RACCORDO
100
AcDbLine
 62
250
  6
CONTINUOUS
 10
-0.4044089061
 20
12.4938722743
 11
2.4690265045
 21
12.4938722743
  0
LINE
  5
609
100
AcDbEntity
  8
RACCORDO
100
AcDbLine
 62
250
  6
CONTINUOUS
 10
3.5309734955
 20
12.4938722743
 11
6.4044089061
 21
12.4938722743
  0
LINE
  5
60A
100
AcDbEntity
  8
RACCORDO
100
AcDbLine
 62
250
  6
CONTINUOUS
 10
-0.5
 20
12.5005867142
 11
-0.9133028905
 21
12.4998999339
  0
LINE
  5
60B
100
AcDbEntity
  8
ASSI
100
AcDbLine
 62
7
  6
CONTINUOUS
 10
-0.0397368307
 20
13.4938673395
 11
2.350080982
 21
13.4938673395
  0
LINE
  5
60C
100
AcDbEntity
  8
ASSI
100
AcDbLine
 62
7
  6
CONTINUOUS
 10
3.649919018
 20
13.4938673395
 11
6.0397368307
 21
13.4938673395
  0
LINE
  5
60D
100
AcDbEntity
  8
0
100
AcDbLine
 62
7
  6
CONTINUOUS
 10
-0.538524115
 20
13.9758007441
 11
1.25
 21
13.9758007441
  0
LINE
  5
60E
100
AcDbEntity
  8
0
100
AcDbLine
 62
7
  6
CONTINUOUS
 10
4.75
 20
13.9758007441
 11
6.538524115
 21
13.9758007441
  0
LINE
  5
60F
100
AcDbEntity
  8
0
100
AcDbLine
 62
7
  6
CONTINUOUS
 10
-0.5218357736
 20
13.9955927453
 11
2.0218357736
 21
13.9955927453
  0
LINE
  5
610
100
AcDbEntity
  8
0
100
AcDbLine
 62
7
  6
CONTINUOUS
 10
3.9781642264
 20
13.9955927453
 11
6.5218357736
 21
13.9955927453
  0
LINE
  5
611
100
AcDbEntity
  8
RACCORDO
100
AcDbLine
 62
250
  6
CONTINUOUS
 10
6.9129879702
 20
12.4999013853
 11
6.5
 21
12.5005867142
  0
LINE
  5
612
100
AcDbEntity
  8
ASSI
100
AcDbLine
 62
7
  6
CONTINUOUS
 10
4.6978168078
 20
13.9883759393
 11
3.973598319
 21
13.9908203097
  0
LINE
  5
613
100
AcDbEntity
  8
RACCORDO
100
AcDbLine
 62
250
  6
CONTINUOUS
 10
6.9703358238
 20
12.4995457975
 11
6.9129879702
 21
12.4999013853
  0
LWPOLYLINE
  5
614
100
AcDbEntity
  8
ASSI
100
AcDbPolyline
 62
7
  6
CONTINUOUS
 90
6
 70
0
 10
1.1
 20
13.9856967447
 10
1.1033047029
 20
13.9853477424
 10
1.1129264593
 20
13.9850022395
 10
1.1288652693
 20
13.9846602359
 10
1.1512175965
 20
13.9843206006
 10
1.2499816581
 20
13.9833755152
  0
LINE
  5
615
100
AcDbEntity
  8
RACCORDO
100
AcDbLine
 62
7
  6
CONTINUOUS
 10
10.6993779273
 20
9.7766570583
 11
10.4761957357
 21
9.8907762393
  0
LINE
  5
616
100
AcDbEntity
  8
RACCORDO
100
AcDbLine
 62
7
  6
CONTINUOUS
 10
-2.5
 20
18.9545217505
 11
-2.4969744882
 21
18.9520407896
  0
LINE
  5
617
100
AcDbEntity
  8
DRAFT
100
AcDbLine
 62
7
  6
CONTINUOUS
 10
9.2469208341
 20
9.6619151985
 11
9.3518065102
 21
9.5361482779
  0
LINE
  5
618
100
AcDbEntity
  8
RACCORDO
100
AcDbLine
 62
250
  6
CONTINUOUS
 10
10.0282587846
 20
-18.1547729772
 11
10.0017445951
 21
-18.2307452228
  0
LWPOLYLINE
  5
619
100
AcDbEntity
  8
0
100
AcDbPolyline
 62
7
  6
CONTINUOUS
 90
5
 70
0
 10
7.5307652672
 20
-13.715602046
 10
7.4962843567
 20
-13.752088744
 10
7.4547473768
 20
-13.7781718508
 10
7.4061148322
 20
-13.7954067087
 10
7.3503867227
 20
-13.8037933177
  0
LWPOLYLINE
  5
61A
100
AcDbEntity
  8
0
100
AcDbPolyline
 62
7
  6
CONTINUOUS
 90
5
 70
0
 10
6.5766034892
 20
-13.7161335541
 10
6.5150168502
 20
-13.7377754221
 10
6.4527413671
 20
-13.7586049786
 10
6.3897770399
 20
-13.7786222237
 10
6.3260133991
 20
-13.7975354213
  0
LWPOLYLINE
  5
61B
100
AcDbEntity
  8
RACCORDO
100
AcDbPolyline
 62
7
  6
CONTINUOUS
 90
10
 70
0
 10
-9.7944184968
 20
-18.2922334144
 10
-9.8064426068
 20
-18.2957247472
 10
-9.8334020108
 20
-18.2998221148
 10
-9.8601732158
 20
-18.3003361357
 10
-9.8867324377
 20
-18.2970843501
 10
-9.9131034604
 20
-18.2902492179
 10
-9.9379261963
 20
-18.2801643754
 10
-9.9607472828
 20
-18.2669410348
 10
-9.9820200823
 20
-18.250467984
 10
-10.001744595
 20
-18.2307452229
  0
LINE
  5
61C
100
AcDbEntity
  8
RACCORDO
100
AcDbLine
 62
250
  6
CONTINUOUS
 10
11.1238174026
 20
16.45906708
 11
11.15
 21
16.463263065
  0
LINE
  5
61D
100
AcDbEntity
  8
RACCORDO
100
AcDbLine
 62
250
  6
CONTINUOUS
 10
10.9162414635
 20
17.0689828172
 11
10.9426253515
 21
17.072917242
  0
LWPOLYLINE
  5
61E
100
AcDbEntity
  8
0
100
AcDbPolyline
 62
7
  6
CONTINUOUS
 90
10
 70
0
 10
0.75
 20
14.9004577645
 10
0.3687392609
 20
14.8608209312
 10
0.0187392609
 20
14.7670391767
 10
-0.3
 20
14.6191125009
 10
-0.5951066715
 20
14.4094127917
 10
-0.858952604
 20
14.1455681613
 10
-1.0686533479
 20
13.8504629461
 10
-1.2193728503
 20
13.5213050632
 10
-1.3159471643
 20
13.1608865954
 10
-1.35
 20
12.8004681276
  0
LWPOLYLINE
  5
61F
100
AcDbEntity
  8
RACCORDO
100
AcDbPolyline
 62
250
  6
CONTINUOUS
 90
31
 70
0
 10
0.75
 20
15.505470895
 10
0.3796658217
 20
15.4781026753
 10
0.0277307951
 20
15.4065425617
 10
-0.30580508
 20
15.2907905543
 10
-0.6264318631
 20
15.1269119066
 10
-0.9286594946
 20
14.9188413651
 10
-1.1960177952
 20
14.6783831689
 10
-1.4260429521
 20
14.4022606939
 10
-1.621198778
 20
14.0937505642
 10
-1.7724065313
 20
13.7744868914
 10
-1.8746696338
 20
13.444091606
 10
-1.9329846637
 20
13.1029427775
 10
-1.9532626135
 20
12.7738087265
 10
-1.9330926478
 20
12.4615187027
 10
-1.874885602
 20
12.1612434565
 10
-1.7917849749
 20
11.8812635585
 10
-1.684430034
 20
11.6237969287
 10
-1.5521815117
 20
11.3866256473
 10
-1.4062651043
 20
11.1713765255
 10
-1.2477143374
 20
10.9791738415
 10
-1.0754956854
 20
10.8088933171
 10
-0.8977342671
 20
10.658788929
 10
-0.7153444814
 20
10.5292938953
 10
-0.5274119293
 20
10.4199749978
 10
-0.3393185331
 20
10.3277865583
 10
-0.151678425
 20
10.2528132483
 10
0.0361225272
 20
10.1949703962
 10
0.2205447983
 20
10.1509583093
 10
0.4004085466
 20
10.1196770902
 10
0.5768936138
 20
10.1022266363
 10
0.75
 20
10.0986069477
  0
LWPOLYLINE
  5
620
100
AcDbEntity
  8
RACCORDO
100
AcDbPolyline
 62
7
  6
CONTINUOUS
 90
31
 70
0
 10
0.75
 20
15.8044647986
 10
0.3485447513
 20
15.7775133656
 10
-0.0457842349
 20
15.6971210929
 10
-0.4259003911
 20
15.5646993984
 10
-0.7852964713
 20
15.3823990674
 10
-1.1171157902
 20
15.1535750501
 10
-1.4145623898
 20
14.8831548599
 10
-1.6735446016
 20
14.5750048559
 10
-1.8884809443
 20
14.2359343444
 10
-2.053756821
 20
13.8778090034
 10
-2.169090329
 20
13.5077028659
 10
-2.2350210299
 20
13.1328292307
 10
-2.2532000149
 20
12.7664552384
 10
-2.2287437665
 20
12.4170313659
 10
-2.1670927772
 20
12.086255592
 10
-2.0730759886
 20
11.776072267
 10
-1.9516454347
 20
11.48901894
 10
-1.8076269906
 20
11.2266185075
 10
-1.6446577585
 20
10.9883497176
 10
-1.4667565999
 20
10.7746647059
 10
-1.2777378005
 20
10.5855348603
 10
-1.0798331243
 20
10.4194704476
 10
-0.8759356527
 20
10.2758711722
 10
-0.6688124947
 20
10.1539473527
 10
-0.4596501147
 20
10.0520653905
 10
-0.2503250657
 20
9.9691760604
 10
-0.0428030364
 20
9.9042213848
 10
0.1621536939
 20
9.8557853763
 10
0.3634831949
 20
9.8226699335
 10
0.5597576446
 20
9.8037264183
 10
0.75
 20
9.7976951947
  0
LWPOLYLINE
  5
621
100
AcDbEntity
  8
RACCORDO
100
AcDbPolyline
 62
250
  6
CONTINUOUS
 90
3
 70
0
 10
-10.4437535546
 20
15.3761249636
 10
-10.4672695702
 20
15.3758644627
 10
-10.4761957357
 20
15.3755951438
  0
LINE
  5
622
100
AcDbEntity
  8
RACCORDO
100
AcDbLine
 62
250
  6
CONTINUOUS
 10
-10.2237485036
 20
15.3769326245
 11
-10.4437535546
 21
15.3761249636
  0
LINE
  5
623
100
AcDbEntity
  8
RACCORDO
100
AcDbLine
 62
250
  6
CONTINUOUS
 10
-9.9762718881
 20
15.3771385234
 11
-10.2237485036
 21
15.3769326245
  0
LINE
  5
624
100
AcDbEntity
  8
0
100
AcDbLine
 62
7
  6
CONTINUOUS
 10
0.3411192039
 20
14.4955902779
 11
1.1588807961
 21
14.4955902779
  0
LINE
  5
625
100
AcDbEntity
  8
0
100
AcDbLine
 62
7
  6
CONTINUOUS
 10
4.8411192039
 20
14.4955902779
 11
5.6588807961
 21
14.4955902779
  0
LINE
  5
626
100
AcDbEntity
  8
RACCORDO
100
AcDbLine
 62
7
  6
CONTINUOUS
 10
0.75
 20
14.901086082
 11
5.25
 21
14.901086082
  0
LINE
  5
627
100
AcDbEntity
  8
RACCORDO
100
AcDbLine
 62
250
  6
CONTINUOUS
 10
0.75
 20
15.2020270778
 11
5.25
 21
15.2020270778
  0
LINE
  5
628
100
AcDbEntity
  8
RACCORDO
100
AcDbLine
 62
250
  6
CONTINUOUS
 10
5.25
 20
15.505470895
 11
0.75
 21
15.505470895
  0
LINE
  5
629
100
AcDbEntity
  8
RACCORDO
100
AcDbLine
 62
7
  6
CONTINUOUS
 10
5.25
 20
15.8044647986
 11
0.75
 21
15.8044647986
  0
LINE
  5
62A
100
AcDbEntity
  8
RACCORDO
100
AcDbLine
 62
250
  6
CONTINUOUS
 10
9.9762718881
 20
15.3771385234
 11
10.2946845713
 21
15.3767788237
  0
LWPOLYLINE
  5
62B
100
AcDbEntity
  8
RACCORDO
100
AcDbPolyline
 62
250
  6
CONTINUOUS
 90
4
 70
0
 10
10.2946845713
 20
15.3767788237
 10
10.4437534504
 20
15.3761249604
 10
10.4672695391
 20
15.3758644608
 10
10.4761957357
 20
15.3755951439
  0
LWPOLYLINE
  5
62C
100
AcDbEntity
  8
RACCORDO
100
AcDbPolyline
 62
250
  6
CONTINUOUS
 90
12
 70
0
 10
5.25
 20
14.901086082
 10
5.5674547709
 20
14.87695288
 10
5.8775986895
 20
14.8051124749
 10
6.1733055879
 20
14.6872225491
 10
6.4477121638
 20
14.5260475186
 10
6.6946020386
 20
14.3252690147
 10
6.9084682672
 20
14.0892993128
 10
7.0849345405
 20
13.8223725771
 10
7.2188818733
 20
13.5315065379
 10
7.3063715407
 20
13.2269300945
 10
7.3469122191
 20
12.914934126
 10
7.35
 20
12.8010964451
  0
LWPOLYLINE
  5
62D
100
AcDbEntity
  8
RACCORDO
100
AcDbPolyline
 62
250
  6
CONTINUOUS
 90
25
 70
0
 10
5.25
 20
15.2020270778
 10
5.6256856287
 20
15.1692453258
 10
5.9774148649
 20
15.0877392331
 10
6.3051877086
 20
14.9575087998
 10
6.6152764218
 20
14.7734506797
 10
6.9014087425
 20
14.540668219
 10
7.1447678844
 20
14.2744714558
 10
7.3422625789
 20
13.9712848851
 10
7.4969840946
 20
13.6346840119
 10
7.5993894521
 20
13.2907053896
 10
7.6431053159
 20
12.9385917965
 10
7.6345050214
 20
12.5791004543
 10
7.5831655952
 20
12.2405395814
 10
7.485574047
 20
11.9287312742
 10
7.3452433672
 20
11.6378534362
 10
7.1822895533
 20
11.3787479965
 10
6.9983873576
 20
11.1557581907
 10
6.7918620279
 20
10.9645407832
 10
6.577805305
 20
10.8029079963
 10
6.3581177391
 20
10.6719069407
 10
6.1308987801
 20
10.5704905057
 10
5.9055385177
 20
10.4933295816
 10
5.6851669818
 20
10.4386477985
 10
5.4666541426
 20
10.4082215263
 10
5.25
 20
10.4020507649
  0
LWPOLYLINE
  5
62E
100
AcDbEntity
  8
ASSI
100
AcDbPolyline
 62
7
  6
CONTINUOUS
 90
6
 70
0
 10
4.9
 20
13.9856967447
 10
4.8966952971
 20
13.9860457469
 10
4.8870735407
 20
13.9863912498
 10
4.8711347307
 20
13.9867332535
 10
4.8487824035
 20
13.9870728888
 10
4.6978168078
 20
13.9883759393
  0
LINE
  5
62F
100
AcDbEntity
  8
RACCORDO
100
AcDbLine
 62
250
  6
CONTINUOUS
 10
-10.9162414635
 20
17.0689828172
 11
-10.9426253515
 21
17.072917242
  0
LINE
  5
630
100
AcDbEntity
  8
RACCORDO
100
AcDbLine
 62
250
  6
CONTINUOUS
 10
-11.1238174026
 20
16.45906708
 11
-11.15
 21
16.463263065
  0
LWPOLYLINE
  5
631
100
AcDbEntity
  8
DRAFT
100
AcDbPolyline
 62
7
  6
CONTINUOUS
 90
10
 70
0
 10
1.1365541602
 20
14.5025208534
 10
1.3826459583
 20
14.4261296855
 10
1.6204261114
 20
14.3126711552
 10
1.8348576759
 20
14.1689145912
 10
2.024671034
 20
13.9929645627
 10
2.1911358035
 20
13.7867165005
 10
2.3230238938
 20
13.5626260256
 10
2.4165926083
 20
13.3248450118
 10
2.4755846437
 20
13.0692215854
 10
2.5
 20
12.7957557464
  0
LWPOLYLINE
  5
632
100
AcDbEntity
  8
DRAFT
100
AcDbPolyline
 62
7
  6
CONTINUOUS
 90
10
 70
0
 10
5.6365541602
 20
14.5025208534
 10
5.8826459583
 20
14.4261296855
 10
6.1204261114
 20
14.3126711552
 10
6.3348576759
 20
14.1689145912
 10
6.524671034
 20
13.9929645627
 10
6.6911358035
 20
13.7867165005
 10
6.8230238938
 20
13.5626260256
 10
6.9165926083
 20
13.3248450118
 10
6.9755846437
 20
13.0692215854
 10
7.0
 20
12.7957557464
  0
LINE
  5
633
100
AcDbEntity
  8
DRAFT
100
AcDbLine
 62
7
  6
CONTINUOUS
 10
0.30360109
 20
17.3342762865
 11
5.69639891
 21
17.3342762865
  0
LINE
  5
634
100
AcDbEntity
  8
RACCORDO
100
AcDbLine
 62
250
  6
CONTINUOUS
 10
10.0017445951
 20
18.2307452228
 11
10.0282587846
 21
18.1641977396
  0
LWPOLYLINE
  5
635
100
AcDbEntity
  8
RACCORDO
100
AcDbPolyline
 62
7
  6
CONTINUOUS
 90
10
 70
0
 10
10.9162414635
 20
-17.0595580548
 10
10.9586823142
 20
-17.0000719207
 10
10.9964088005
 20
-16.9381300738
 10
11.0294209226
 20
-16.8737325142
 10
11.0578918137
 20
-16.8063657185
 10
11.0816483406
 20
-16.7365432101
 10
11.1001711029
 20
-16.6658055588
 10
11.1132869673
 20
-16.5946662879
 10
11.1211690672
 20
-16.5226118741
 10
11.1238174026
 20
-16.4496423175
  0
LWPOLYLINE
  5
636
100
AcDbEntity
  8
DRAFT
100
AcDbPolyline
 62
7
  6
CONTINUOUS
 90
19
 70
0
 10
-5.1582525237
 20
-22.6327551976
 10
-5.1031192395
 20
-22.6115735537
 10
-5.047437038
 20
-22.5969961331
 10
-4.9912059191
 20
-22.5890229358
 10
-4.9336621028
 20
-22.5877250033
 10
-4.8755693691
 20
-22.5930312941
 10
-4.8192190584
 20
-22.6047286837
 10
-4.7646885216
 20
-22.6230697579
 10
-4.7119004078
 20
-22.6478019309
 10
-4.6629140047
 20
-22.6779543214
 10
-4.6178780774
 20
-22.7137379204
 10
-4.5766438608
 20
-22.754941737
 10
-4.5408243474
 20
-22.7999619169
 10
-4.5106298736
 20
-22.8489582006
 10
-4.4858501031
 20
-22.9017708476
 10
-4.4674670191
 20
-22.9563167823
 10
-4.4558079496
 20
-23.0119016461
 10
-4.4505455667
 20
-23.0692197974
 10
-4.4502131038
 20
-23.0873199585
  0
LWPOLYLINE
  5
637
100
AcDbEntity
  8
RACCORDO
100
AcDbPolyline
 62
7
  6
CONTINUOUS
 90
10
 70
0
 10
6.1877475416
 20
18.5750919793
 10
6.1133399717
 20
18.5688456402
 10
6.0420214776
 20
18.5514533775
 10
5.9737920592
 20
18.5220890826
 10
5.9061660583
 20
18.480808503
 10
5.8416291333
 20
18.4272407047
 10
5.7876382584
 20
18.3595044029
 10
5.746679092
 20
18.2769895054
 10
5.7162659759
 20
18.1817905219
 10
5.69639891
 20
18.0767139784
  0
LINE
  5
638
100
AcDbEntity
  8
DRAFT
100
AcDbLine
 62
7
  6
CONTINUOUS
 10
4.25
 20
18.9545217505
 11
4.8671444325
 21
19.0046186201
  0
LINE
  5
639
100
AcDbEntity
  8
DRAFT
100
AcDbLine
 62
7
  6
CONTINUOUS
 10
-3.2635064284
 20
19.0536068163
 11
-3.5699041346
 21
19.0330376345
  0
LWPOLYLINE
  5
63A
100
AcDbEntity
  8
RACCORDO
100
AcDbPolyline
 62
250
  6
CONTINUOUS
 90
31
 70
0
 10
-7.2766831112
 20
18.0767139784
 10
-7.3895801995
 20
18.0742463002
 10
-7.5014877633
 20
18.0672626804
 10
-7.6124058025
 20
18.0557631188
 10
-7.7223495851
 20
18.0397237109
 10
-7.8313038431
 20
18.0191683613
 10
-7.9392227726
 20
17.9941687842
 10
-8.0459665399
 20
17.9648686461
 10
-8.1516749786
 20
17.9311242804
 10
-8.2567217853
 20
17.8925764017
 10
-8.3609183085
 20
17.8495607873
 10
-8.4644531997
 20
17.8017416599
 10
-8.5682661091
 20
17.7477524024
 10
-8.6729177357
 20
17.6875824205
 10
-8.7778473806
 20
17.6212423085
 10
-8.8823125972
 20
17.5473972323
 10
-8.9866633219
 20
17.4659508517
 10
-9.0905496183
 20
17.3769995067
 10
-9.1921792307
 20
17.2794973841
 10
-9.2917413108
 20
17.1734134125
 10
-9.3890467069
 20
17.0587786633
 10
-9.4817357081
 20
16.9346405362
 10
-9.5700964995
 20
16.8008405785
 10
-9.6538408961
 20
16.6575372429
 10
-9.7297446313
 20
16.504253288
 10
-9.7981326807
 20
16.3407134684
 10
-9.8586800687
 20
16.1671930295
 10
-9.9071876028
 20
15.984040466
 10
-9.9422555519
 20
15.791371943
 10
-9.965283647
 20
15.5890712955
 10
-9.9762718881
 20
15.3771385234
  0
LWPOLYLINE
  5
63B
100
AcDbEntity
  8
RACCORDO
100
AcDbPolyline
 62
250
  6
CONTINUOUS
 90
31
 70
0
 10
-7.2767497206
 20
18.5750919751
 10
-7.4101057961
 20
18.5723043632
 10
-7.542748698
 20
18.5640022646
 10
-7.6744534639
 20
18.5502598757
 10
-7.8048083945
 20
18.5311924335
 10
-7.9337956722
 20
18.5068748165
 10
-8.0617768081
 20
18.4772624572
 10
-8.1883243637
 20
18.4424549864
 10
-8.3134354734
 20
18.4024538421
 10
-8.4380504392
 20
18.3568644176
 10
-8.5615198114
 20
18.3057741277
 10
-8.6839543239
 20
18.2489828711
 10
-8.8072404996
 20
18.1852529921
 10
-8.9313167143
 20
18.1140226584
 10
-9.0552616238
 20
18.0351949689
 10
-9.1794002662
 20
17.9478493336
 10
-9.3032089732
 20
17.8514842448
 10
-9.4257786809
 20
17.7458759832
 10
-9.5466430409
 20
17.6303962786
 10
-9.6648258221
 20
17.5048251528
 10
-9.7794235097
 20
17.3688675503
 10
-9.8898379405
 20
17.22174188
 10
-9.99484083
 20
17.0633282178
 10
-10.093171078
 20
16.8935570814
 10
-10.1838421879
 20
16.711717755
 10
-10.2652641458
 20
16.5180341283
 10
-10.3358586285
 20
16.3127298021
 10
-10.3942086341
 20
16.0951848823
 10
-10.4384262289
 20
15.8656617522
 10
-10.4664180803
 20
15.6254113572
 10
-10.4761957357
 20
15.3755951438
  0
LINE
  5
63C
100
AcDbEntity
  8
RACCORDO
100
AcDbLine
 62
250
  6
CONTINUOUS
 10
7.2766831112
 20
18.0767139784
 11
5.69639891
 21
18.0767139784
  0
LINE
  5
63D
100
AcDbEntity
  8
RACCORDO
100
AcDbLine
 62
250
  6
CONTINUOUS
 10
0.30360109
 20
18.0767139784
 11
-7.2766831112
 21
18.0767139784
  0
LINE
  5
63E
100
AcDbEntity
  8
RACCORDO
100
AcDbLine
 62
250
  6
CONTINUOUS
 10
7.2766831112
 20
18.5750919793
 11
6.1877475416
 21
18.5750919793
  0
LINE
  5
63F
100
AcDbEntity
  8
RACCORDO
100
AcDbLine
 62
250
  6
CONTINUOUS
 10
-0.1877475416
 20
18.5750919793
 11
-7.2767497248
 21
18.5750919793
  0
LINE
  5
640
100
AcDbEntity
  8
RACCORDO
100
AcDbLine
 62
7
  6
CONTINUOUS
 10
-1.4966457887
 20
18.9378002239
 11
1.4966457887
 21
18.9378002239
  0
LINE
  5
641
100
AcDbEntity
  8
DRAFT
100
AcDbLine
 62
7
  6
CONTINUOUS
 10
-4.25
 20
18.9545217505
 11
-2.5
 21
18.9545217505
  0
LINE
  5
642
100
AcDbEntity
  8
DRAFT
100
AcDbLine
 62
7
  6
CONTINUOUS
 10
2.5
 20
18.9545217505
 11
4.25
 21
18.9545217505
  0
LINE
  5
643
100
AcDbEntity
  8
DRAFT
100
AcDbLine
 62
7
  6
CONTINUOUS
 10
2.7295886809
 20
18.9916166023
 11
2.5
 21
18.9916166023
  0
LINE
  5
644
100
AcDbEntity
  8
DRAFT
100
AcDbLine
 62
7
  6
CONTINUOUS
 10
-2.5
 20
18.9916166023
 11
-2.7295886809
 21
18.9916166023
  0
LINE
  5
645
100
AcDbEntity
  8
RACCORDO
100
AcDbLine
 62
7
  6
CONTINUOUS
 10
7.8004873755
 20
19.0046186201
 11
4.8671444325
 21
19.0046186201
  0
LINE
  5
646
100
AcDbEntity
  8
RACCORDO
100
AcDbLine
 62
7
  6
CONTINUOUS
 10
-7.8004873755
 20
19.0046186201
 11
-4.8671444325
 21
19.0046186201
  0
LINE
  5
647
100
AcDbEntity
  8
DRAFT
100
AcDbLine
 62
7
  6
CONTINUOUS
 10
-4.4
 20
19.0224212384
 11
-3.7015837471
 21
19.0224212384
  0
LINE
  5
648
100
AcDbEntity
  8
DRAFT
100
AcDbLine
 62
7
  6
CONTINUOUS
 10
3.7015837471
 20
19.0224212384
 11
4.4
 21
19.0224212384
  0
LINE
  5
649
100
AcDbEntity
  8
DRAFT
100
AcDbLine
 62
7
  6
CONTINUOUS
 10
-3.5699041346
 20
19.0330376345
 11
-2.838036392
 21
19.0330376345
  0
LINE
  5
64A
100
AcDbEntity
  8
DRAFT
100
AcDbLine
 62
7
  6
CONTINUOUS
 10
2.838036392
 20
19.0330376345
 11
3.5699041346
 21
19.0330376345
  0
LINE
  5
64B
100
AcDbEntity
  8
DRAFT
100
AcDbLine
 62
7
  6
CONTINUOUS
 10
-3.2635064284
 20
19.0536068163
 11
-2.8377723918
 21
19.0536068163
  0
LINE
  5
64C
100
AcDbEntity
  8
DRAFT
100
AcDbLine
 62
7
  6
CONTINUOUS
 10
2.8377723918
 20
19.0536068163
 11
3.2635064284
 21
19.0536068163
  0
LINE
  5
64D
100
AcDbEntity
  8
DRAFT
100
AcDbLine
 62
7
  6
CONTINUOUS
 10
4.4
 20
19.0627738399
 11
3.7095341615
 21
19.0627738399
  0
LINE
  5
64E
100
AcDbEntity
  8
DRAFT
100
AcDbLine
 62
7
  6
CONTINUOUS
 10
-3.7095341615
 20
19.0627738399
 11
-4.4
 21
19.0627738399
  0
LINE
  5
64F
100
AcDbEntity
  8
DRAFT
100
AcDbLine
 62
7
  6
CONTINUOUS
 10
2.8376185395
 20
19.0655939947
 11
1.0874172576
 21
19.0655939947
  0
LINE
  5
650
100
AcDbEntity
  8
DRAFT
100
AcDbLine
 62
7
  6
CONTINUOUS
 10
-1.0874172576
 20
19.0655939947
 11
-2.8376185395
 21
19.0655939947
  0
LINE
  5
651
100
AcDbEntity
  8
DRAFT
100
AcDbLine
 62
7
  6
CONTINUOUS
 10
-2.7459745197
 20
19.0747834903
 11
-0.6247179508
 21
19.0747834903
  0
LINE
  5
652
100
AcDbEntity
  8
DRAFT
100
AcDbLine
 62
7
  6
CONTINUOUS
 10
0.6247179508
 20
19.0747834903
 11
2.7459745197
 21
19.0747834903
  0
LINE
  5
653
100
AcDbEntity
  8
DRAFT
100
AcDbLine
 62
7
  6
CONTINUOUS
 10
-6.0819690456
 20
19.0876848522
 11
-0.6248835365
 21
19.0876848522
  0
LINE
  5
654
100
AcDbEntity
  8
DRAFT
100
AcDbLine
 62
7
  6
CONTINUOUS
 10
0.6248835365
 20
19.0876848522
 11
6.0819690456
 21
19.0876848522
  0
LINE
  5
655
100
AcDbEntity
  8
DRAFT
100
AcDbLine
 62
7
  6
CONTINUOUS
 10
7.2195044567
 20
19.0980072253
 11
-7.2195044567
 21
19.0980072253
  0
LWPOLYLINE
  5
656
100
AcDbEntity
  8
RACCORDO
100
AcDbPolyline
 62
7
  6
CONTINUOUS
 90
8
 70
0
 10
-9.8721393092
 20
18.233903701
 10
-9.8866768348
 20
18.2341604126
 10
-9.9132575203
 20
18.2308605365
 10
-9.9396443954
 20
18.2239703042
 10
-9.9644742777
 20
18.2138253454
 10
-9.9872927728
 20
18.2005375367
 10
-10.0085542751
 20
18.1839950014
 10
-10.0282587846
 20
18.1641977396
  0
LINE
  5
657
100
AcDbEntity
  8
DRAFT
100
AcDbLine
 62
7
  6
CONTINUOUS
 10
3.5699041346
 20
19.0330376345
 11
3.2635064284
 21
19.0536068163
  0
LINE
  5
658
100
AcDbEntity
  8
DRAFT
100
AcDbLine
 62
7
  6
CONTINUOUS
 10
-4.8671444325
 20
19.0046186201
 11
-4.25
 21
18.9545217505
  0
LWPOLYLINE
  5
659
100
AcDbEntity
  8
RACCORDO
100
AcDbPolyline
 62
7
  6
CONTINUOUS
 90
10
 70
0
 10
-0.1877475416
 20
18.5750919793
 10
-0.1176914561
 20
18.5689002837
 10
-0.0460239118
 20
18.5517181379
 10
0.0253207789
 20
18.5225375264
 10
0.0931770123
 20
18.4812225224
 10
0.1560312876
 20
18.427257112
 10
0.2130175293
 20
18.3585564478
 10
0.2602448294
 20
18.2742916981
 10
0.2920833665
 20
18.1765067107
 10
0.30360109
 20
18.0681388047
  0
LWPOLYLINE
  5
65A
100
AcDbEntity
  8
RACCORDO
100
AcDbPolyline
 62
250
  6
CONTINUOUS
 90
25
 70
0
 10
5.5996040074
 20
18.147511945
 10
5.5718505647
 20
18.1536376115
 10
5.5007712747
 20
18.1594278862
 10
5.3875143597
 20
18.1649002599
 10
5.233899411
 20
18.1701685742
 10
5.0424972092
 20
18.1751519352
 10
4.8166772063
 20
18.1795742484
 10
4.5603867791
 20
18.1834149251
 10
4.2778975615
 20
18.1867192313
 10
3.9738712491
 20
18.1893073132
 10
3.6533754333
 20
18.1911456493
 10
3.3218561876
 20
18.1922811836
 10
2.9849289516
 20
18.1926516731
 10
2.6482949009
 20
18.1922131714
 10
2.3176021427
 20
18.19100936
 10
1.9983830337
 20
18.1891060121
 10
1.6960937607
 20
18.1864574225
 10
1.4157463431
 20
18.1830955555
 10
1.1618563942
 20
18.1791998632
 10
0.9378901918
 20
18.1747006542
 10
0.7489361024
 20
18.1696435428
 10
0.5999166249
 20
18.16437586
 10
0.4923677183
 20
18.159000322
 10
0.4259717705
 20
18.1533785133
 10
0.4003774922
 20
18.147493592
  0
LINE
  5
65B
100
AcDbEntity
  8
RACCORDO
100
AcDbLine
 62
250
  6
CONTINUOUS
 10
5.69639891
 20
18.0681388047
 11
5.5996040074
 21
18.147511945
  0
LINE
  5
65C
100
AcDbEntity
  8
RACCORDO
100
AcDbLine
 62
250
  6
CONTINUOUS
 10
6.1877475416
 20
18.5750919793
 11
6.099527855
 21
18.6474333256
  0
LINE
  5
65D
100
AcDbEntity
  8
DRAFT
100
AcDbLine
 62
7
  6
CONTINUOUS
 10
7.5226756989
 20
20.7351243325
 11
7.3830351795
 21
20.8998968627
  0
LWPOLYLINE
  5
65E
100
AcDbEntity
  8
RACCORDO
100
AcDbPolyline
 62
7
  6
CONTINUOUS
 90
10
 70
0
 10
10.9162414635
 20
17.0689828172
 10
10.8203111648
 20
17.1928741192
 10
10.7236952277
 20
17.3162177319
 10
10.6263936522
 20
17.4390136553
 10
10.528403735
 20
17.5612652221
 10
10.4297281795
 20
17.6829690996
 10
10.3303750957
 20
17.80411529
 10
10.2303471869
 20
17.9247004604
 10
10.1296417499
 20
18.0447279436
 10
10.0282587846
 20
18.1641977396
  0
LWPOLYLINE
  5
65F
100
AcDbEntity
  8
RACCORDO
100
AcDbPolyline
 62
7
  6
CONTINUOUS
 90
10
 70
0
 10
10.9426253515
 20
17.072917242
 10
10.8411400408
 20
17.2040287204
 10
10.7388880148
 20
17.3345272529
 10
10.6358692736
 20
17.4644128397
 10
10.5320805286
 20
17.5936895278
 10
10.4275250683
 20
17.7223532702
 10
10.3222127583
 20
17.850391925
 10
10.2161468869
 20
17.9778014451
 10
10.1093241659
 20
18.1045858778
 10
10.001744595
 20
18.2307452229
  0
LWPOLYLINE
  5
660
100
AcDbEntity
  8
RACCORDO
100
AcDbPolyline
 62
7
  6
CONTINUOUS
 90
10
 70
0
 10
10.9426253515
 20
17.072917242
 10
10.9849983618
 20
17.0135000989
 10
11.0226704503
 20
16.9516183221
 10
11.0556416171
 20
16.8872719116
 10
11.0840877608
 20
16.819948754
 10
11.1078329827
 20
16.7501609626
 10
11.1263495872
 20
16.6794448775
 10
11.1394616756
 20
16.6083126119
 10
11.1473451466
 20
16.5362520526
 10
11.15
 20
16.4632631995
  0
LWPOLYLINE
  5
661
100
AcDbEntity
  8
RACCORDO
100
AcDbPolyline
 62
7
  6
CONTINUOUS
 90
10
 70
0
 10
10.0282587846
 20
-18.1547729772
 10
10.1296417499
 20
-18.0353031812
 10
10.2303471869
 20
-17.915275698
 10
10.3303750957
 20
-17.7946905275
 10
10.4297281795
 20
-17.6735443372
 10
10.528403735
 20
-17.5518404596
 10
10.6263936522
 20
-17.4295888928
 10
10.7236952277
 20
-17.3067929694
 10
10.8203111648
 20
-17.1834493567
 10
10.9162414635
 20
-17.0595580548
  0
LWPOLYLINE
  5
662
100
AcDbEntity
  8
RACCORDO
100
AcDbPolyline
 62
7
  6
CONTINUOUS
 90
10
 70
0
 10
10.001744595
 20
-18.2307452229
 10
10.1093241659
 20
-18.1045858778
 10
10.2161468869
 20
-17.9778014451
 10
10.3222127583
 20
-17.850391925
 10
10.4275250683
 20
-17.7223532702
 10
10.5320805286
 20
-17.5936895278
 10
10.6358692736
 20
-17.4644128397
 10
10.7388880148
 20
-17.3345272529
 10
10.8411400408
 20
-17.2040287204
 10
10.9426253515
 20
-17.072917242
  0
LWPOLYLINE
  5
663
100
AcDbEntity
  8
RACCORDO
100
AcDbPolyline
 62
7
  6
CONTINUOUS
 90
10
 70
0
 10
10.001744595
 20
-18.2307452229
 10
9.9820200823
 20
-18.250467984
 10
9.9607472828
 20
-18.2669410348
 10
9.9379261963
 20
-18.2801643754
 10
9.9131034604
 20
-18.2902492179
 10
9.8867324377
 20
-18.2970843501
 10
9.8601732158
 20
-18.3003361357
 10
9.8334020108
 20
-18.2998221148
 10
9.8064426068
 20
-18.2957247472
 10
9.7944185154
 20
-18.2922334198
  0
LINE
  5
664
100
AcDbEntity
  8
DRAFT
100
AcDbLine
 62
7
  6
CONTINUOUS
 10
7.5226756989
 20
-20.7853897323
 11
7.3830351795
 21
-20.8998968627
  0
LINE
  5
665
100
AcDbEntity
  8
DRAFT
100
AcDbLine
 62
7
  6
CONTINUOUS
 10
7.3568525821
 20
-18.9951938576
 11
7.2195044567
 21
-19.0391422398
  0
LINE
  5
666
100
AcDbEntity
  8
DRAFT
100
AcDbLine
 62
7
  6
CONTINUOUS
 10
7.2084845302
 20
19.7313186593
 11
-7.2084845302
 21
19.7313186593
  0
LINE
  5
667
100
AcDbEntity
  8
DRAFT
100
AcDbLine
 62
7
  6
CONTINUOUS
 10
7.2084845302
 20
19.979651384
 11
-7.2084845302
 21
19.979651384
  0
LINE
  5
668
100
AcDbEntity
  8
DRAFT
100
AcDbLine
 62
7
  6
CONTINUOUS
 10
9.5103594806
 20
20.7351243325
 11
7.5226756989
 21
20.7351243325
  0
LINE
  5
669
100
AcDbEntity
  8
DRAFT
100
AcDbLine
 62
7
  6
CONTINUOUS
 10
-7.5226756989
 20
20.7351243325
 11
-9.5103594806
 21
20.7351243325
  0
LINE
  5
66A
100
AcDbEntity
  8
DRAFT
100
AcDbLine
 62
7
  6
CONTINUOUS
 10
-9.65
 20
20.8998968627
 11
-7.3830351795
 21
20.8998968627
  0
LINE
  5
66B
100
AcDbEntity
  8
DRAFT
100
AcDbLine
 62
7
  6
CONTINUOUS
 10
7.3830351795
 20
20.8998968627
 11
9.65
 21
20.8998968627
  0
LWPOLYLINE
  5
66C
100
AcDbEntity
  8
RACCORDO
100
AcDbPolyline
 62
250
  6
CONTINUOUS
 90
25
 70
0
 10
6.099527855
 20
18.6474333256
 10
6.0632970995
 20
18.6532997003
 10
5.9794988355
 20
18.6588814945
 10
5.8481330631
 20
18.6641787081
 10
5.6653995014
 20
18.6692728301
 10
5.4350984313
 20
18.6740823715
 10
5.1686306949
 20
18.6783628653
 10
4.8642732335
 20
18.6820853105
 10
4.5237491058
 20
18.6852787081
 10
4.1636283311
 20
18.6877855941
 10
3.7828039295
 20
18.6895721141
 10
3.3823828809
 20
18.6906721226
 10
2.9822561441
 20
18.6910297193
 10
2.5824469357
 20
18.6906066866
 10
2.1829320391
 20
18.6894412421
 10
1.8035327636
 20
18.6875921386
 10
1.4453770452
 20
18.6850263584
 10
1.1073369478
 20
18.6817769192
 10
0.8058499722
 20
18.6780016266
 10
0.5425784903
 20
18.6736489804
 10
0.3158601302
 20
18.6687704808
 10
0.1371452771
 20
18.6636784349
 10
0.0102507261
 20
18.6584769448
 10
-0.0686403179
 20
18.6530619084
 10
-0.099527855
 20
18.6474333256
  0
LINE
  5
66D
100
AcDbEntity
  8
DRAFT
100
AcDbLine
 62
7
  6
CONTINUOUS
 10
7.2195044567
 20
19.0980072253
 11
7.3568525821
 21
19.0046186201
  0
LWPOLYLINE
  5
66E
100
AcDbEntity
  8
DRAFT
100
AcDbPolyline
 62
7
  6
CONTINUOUS
 90
10
 70
0
 10
6.9712561167
 20
21.2264246518
 10
6.7757038093
 20
21.3928344252
 10
6.5786656312
 20
21.5574146794
 10
6.3801415825
 20
21.7201654144
 10
6.1801146812
 20
21.8811000384
 10
5.9786019092
 20
22.0402051432
 10
5.7756542128
 20
22.197440504
 10
5.5712885741
 20
22.3527927125
 10
5.3654880111
 20
22.506275177
 10
5.1582525237
 20
22.6578878975
  0
LWPOLYLINE
  5
66F
100
AcDbEntity
  8
DRAFT
100
AcDbPolyline
 62
7
  6
CONTINUOUS
 90
10
 70
0
 10
7.3830351795
 20
20.8998968627
 10
7.1856873244
 20
21.074178962
 10
6.9867452842
 20
21.2465680489
 10
6.7862090587
 20
21.4170641234
 10
6.5840606411
 20
21.5856819207
 10
6.3803180384
 20
21.7524067056
 10
6.1750352708
 20
21.9171942726
 10
5.9682303453
 20
22.0800298865
 10
5.759885255
 20
22.2409282825
 10
5.55
 20
22.3998894605
  0
LWPOLYLINE
  5
670
100
AcDbEntity
  8
RACCORDO
100
AcDbPolyline
 62
7
  6
CONTINUOUS
 90
8
 70
0
 10
10.0282587846
 20
18.1641977396
 10
10.0085542751
 20
18.1839950014
 10
9.9872927728
 20
18.2005375367
 10
9.9644742777
 20
18.2138253454
 10
9.9396443954
 20
18.2239703042
 10
9.9132575203
 20
18.2308605365
 10
9.8866768348
 20
18.2341604126
 10
9.8721393484
 20
18.2339037017
  0
LWPOLYLINE
  5
671
100
AcDbEntity
  8
DRAFT
100
AcDbPolyline
 62
7
  6
CONTINUOUS
 90
10
 70
0
 10
5.55
 20
-22.3998894605
 10
5.759885255
 20
-22.2409282825
 10
5.9682303453
 20
-22.0800298865
 10
6.1750352708
 20
-21.9171942726
 10
6.3803180384
 20
-21.7524067056
 10
6.5840606411
 20
-21.5856819207
 10
6.7862090587
 20
-21.4170641234
 10
6.9867452842
 20
-21.2465680489
 10
7.1856873244
 20
-21.074178962
 10
7.3830351795
 20
-20.8998968627
  0
LINE
  5
672
100
AcDbEntity
  8
DRAFT
100
AcDbLine
 62
7
  6
CONTINUOUS
 10
5.4315509764
 20
-22.4882383864
 11
5.55
 21
-22.3998894605
  0
LINE
  5
673
100
AcDbEntity
  8
DRAFT
100
AcDbLine
 62
7
  6
CONTINUOUS
 10
5.3126373422
 20
-22.5759609753
 11
5.4315509764
 21
-22.4882383864
  0
LWPOLYLINE
  5
674
100
AcDbEntity
  8
DRAFT
100
AcDbPolyline
 62
7
  6
CONTINUOUS
 90
10
 70
0
 10
5.1582525237
 20
-22.6327551976
 10
5.3654880111
 20
-22.4811424771
 10
5.5712885741
 20
-22.3276600126
 10
5.7756542128
 20
-22.1723078041
 10
5.9786019092
 20
-22.0150724433
 10
6.1801146812
 20
-21.8559673385
 10
6.3801415825
 20
-21.6950327145
 10
6.5786656312
 20
-21.5322819795
 10
6.7757038093
 20
-21.3677017253
 10
6.9712561167
 20
-21.2012919519
  0
LINE
  5
675
100
AcDbEntity
  8
DRAFT
100
AcDbLine
 62
7
  6
CONTINUOUS
 10
5.1932624094
 20
-22.6630547838
 11
5.3126373422
 21
-22.5759609753
  0
LINE
  5
676
100
AcDbEntity
  8
DRAFT
100
AcDbLine
 62
7
  6
CONTINUOUS
 10
4.343676456
 20
-23.2011868178
 11
4.4516798704
 21
-23.1282712365
  0
LINE
  5
677
100
AcDbEntity
  8
DRAFT
100
AcDbLine
 62
7
  6
CONTINUOUS
 10
4.3496473086
 20
-23.2517884863
 11
4.4564266805
 21
-23.1797941736
  0
LINE
  5
678
100
AcDbEntity
  8
DRAFT
100
AcDbLine
 62
7
  6
CONTINUOUS
 10
4.2353353219
 20
-23.2735977451
 11
4.343676456
 21
-23.2011868178
  0
LINE
  5
679
100
AcDbEntity
  8
DRAFT
100
AcDbLine
 62
7
  6
CONTINUOUS
 10
4.2425387863
 20
-23.3232903559
 11
4.3496473086
 21
-23.2517884863
  0
LINE
  5
67A
100
AcDbEntity
  8
DRAFT
100
AcDbLine
 62
7
  6
CONTINUOUS
 10
4.1266573523
 20
-23.3455034318
 11
4.2353353219
 21
-23.2735977451
  0
LINE
  5
67B
100
AcDbEntity
  8
DRAFT
100
AcDbLine
 62
7
  6
CONTINUOUS
 10
4.1351019652
 20
-23.3942992183
 11
4.2425387863
 21
-23.3232903559
  0
LWPOLYLINE
  5
67C
100
AcDbEntity
  8
DRAFT
100
AcDbPolyline
 62
7
  6
CONTINUOUS
 90
3
 70
0
 10
3.9630152422
 20
-23.4524103834
 10
4.0176460842
 20
-23.4169015318
 10
4.1266573523
 20
-23.3455034318
  0
LWPOLYLINE
  5
67D
100
AcDbEntity
  8
DRAFT
100
AcDbPolyline
 62
7
  6
CONTINUOUS
 90
3
 70
0
 10
3.9733373476
 20
-23.4998840322
 10
4.0273402518
 20
-23.4648128163
 10
4.1351019652
 20
-23.3942992183
  0
LWPOLYLINE
  5
67E
100
AcDbEntity
  8
DRAFT
100
AcDbPolyline
 62
7
  6
CONTINUOUS
 90
10
 70
0
 10
5.1932624094
 20
22.6630547838
 10
5.1894875525
 20
22.662378521
 10
5.1856839356
 20
22.6617269375
 10
5.1818516899
 20
22.6611004707
 10
5.1779914079
 20
22.6604997942
 10
5.1741027808
 20
22.6599251037
 10
5.1701845782
 20
22.6593761557
 10
5.1662364755
 20
22.6588532038
 10
5.1622590739
 20
22.6583569579
 10
5.1582525237
 20
22.6578878975
  0
LINE
  5
67F
100
AcDbEntity
  8
DRAFT
100
AcDbLine
 62
7
  6
CONTINUOUS
 10
3.434596365
 20
21.2264246518
 11
3.1516814075
 21
21.2174395269
  0
LINE
  5
680
100
AcDbEntity
  8
DRAFT
100
AcDbLine
 62
7
  6
CONTINUOUS
 10
2.8003015662
 20
21.2079951881
 11
3.0984611006
 21
21.2174395269
  0
LINE
  5
681
100
AcDbEntity
  8
DRAFT
100
AcDbLine
 62
7
  6
CONTINUOUS
 10
3.1
 20
22.2174833374
 11
3.0104834329
 21
22.2146478595
  0
LINE
  5
682
100
AcDbEntity
  8
DRAFT
100
AcDbLine
 62
7
  6
CONTINUOUS
 10
-6.9587505924
 20
21.2048304105
 11
-2.700388948
 21
21.2048304105
  0
LINE
  5
683
100
AcDbEntity
  8
DRAFT
100
AcDbLine
 62
7
  6
CONTINUOUS
 10
2.700388948
 20
21.2048304105
 11
6.9587505924
 21
21.2048304105
  0
LINE
  5
684
100
AcDbEntity
  8
DRAFT
100
AcDbLine
 62
7
  6
CONTINUOUS
 10
-3.1516814075
 20
21.2174395269
 11
-3.0984611006
 21
21.2174395269
  0
LINE
  5
685
100
AcDbEntity
  8
DRAFT
100
AcDbLine
 62
7
  6
CONTINUOUS
 10
3.0984611006
 20
21.2174395269
 11
3.1516814075
 21
21.2174395269
  0
LINE
  5
686
100
AcDbEntity
  8
DRAFT
100
AcDbLine
 62
7
  6
CONTINUOUS
 10
-6.9712561167
 20
21.2264246518
 11
-3.434596365
 21
21.2264246518
  0
LINE
  5
687
100
AcDbEntity
  8
DRAFT
100
AcDbLine
 62
7
  6
CONTINUOUS
 10
3.434596365
 20
21.2264246518
 11
6.9712561167
 21
21.2264246518
  0
LINE
  5
688
100
AcDbEntity
  8
DRAFT
100
AcDbLine
 62
7
  6
CONTINUOUS
 10
-3.3821231691
 20
22.2124567974
 11
-3.1
 21
22.2124567974
  0
LINE
  5
689
100
AcDbEntity
  8
DRAFT
100
AcDbLine
 62
7
  6
CONTINUOUS
 10
3.1
 20
22.2124567974
 11
3.3821231691
 21
22.2124567974
  0
LINE
  5
68A
100
AcDbEntity
  8
DRAFT
100
AcDbLine
 62
7
  6
CONTINUOUS
 10
-3.0104834329
 20
22.2146478595
 11
3.0104834329
 21
22.2146478595
  0
LINE
  5
68B
100
AcDbEntity
  8
DRAFT
100
AcDbLine
 62
7
  6
CONTINUOUS
 10
10.6503805997
 20
22.3998894605
 11
5.55
 21
22.3998894605
  0
LINE
  5
68C
100
AcDbEntity
  8
DRAFT
100
AcDbLine
 62
7
  6
CONTINUOUS
 10
-5.55
 20
22.3998894605
 11
-10.6503805997
 21
22.3998894605
  0
LINE
  5
68D
100
AcDbEntity
  8
DRAFT
100
AcDbLine
 62
7
  6
CONTINUOUS
 10
-3.434596365
 20
21.2264246518
 11
-3.1516814075
 21
21.2174395269
  0
LINE
  5
68E
100
AcDbEntity
  8
DRAFT
100
AcDbLine
 62
7
  6
CONTINUOUS
 10
-3.0984611006
 20
21.2174395269
 11
-2.8003015662
 21
21.2079951881
  0
LINE
  5
68F
100
AcDbEntity
  8
DRAFT
100
AcDbLine
 62
7
  6
CONTINUOUS
 10
-3.0104834329
 20
22.2146478595
 11
-3.1
 21
22.2174833374
  0
LWPOLYLINE
  5
690
100
AcDbEntity
  8
DRAFT
100
AcDbPolyline
 62
7
  6
CONTINUOUS
 90
10
 70
0
 10
-5.1932624094
 20
22.6630547838
 10
-5.1894875525
 20
22.662378521
 10
-5.1856839356
 20
22.6617269375
 10
-5.1818516899
 20
22.6611004707
 10
-5.1779914079
 20
22.6604997942
 10
-5.1741027808
 20
22.6599251037
 10
-5.1701845782
 20
22.6593761557
 10
-5.1662364755
 20
22.6588532038
 10
-5.1622590739
 20
22.6583569579
 10
-5.1582525237
 20
22.6578878975
  0
LINE
  5
691
100
AcDbEntity
  8
DRAFT
100
AcDbLine
 62
7
  6
CONTINUOUS
 10
7.3830351795
 20
20.8998968627
 11
7.238215003
 21
20.9576718579
  0
LINE
  5
692
100
AcDbEntity
  8
DRAFT
100
AcDbLine
 62
7
  6
CONTINUOUS
 10
4.081261791
 20
23.4296178784
 11
3.9733373476
 21
23.4998840322
  0
LINE
  5
693
100
AcDbEntity
  8
DRAFT
100
AcDbLine
 62
7
  6
CONTINUOUS
 10
4.0721934543
 20
23.4063985812
 11
3.9630152422
 21
23.4775430833
  0
LINE
  5
694
100
AcDbEntity
  8
DRAFT
100
AcDbLine
 62
7
  6
CONTINUOUS
 10
4.1888610582
 20
23.3588566482
 11
4.081261791
 21
23.4296178784
  0
LINE
  5
695
100
AcDbEntity
  8
DRAFT
100
AcDbLine
 62
7
  6
CONTINUOUS
 10
4.1810380731
 20
23.3347466878
 11
4.0721934543
 21
23.4063985812
  0
LINE
  5
696
100
AcDbEntity
  8
DRAFT
100
AcDbLine
 62
7
  6
CONTINUOUS
 10
4.2961342977
 20
23.2876009059
 11
4.1888610582
 21
23.3588566482
  0
LINE
  5
697
100
AcDbEntity
  8
DRAFT
100
AcDbLine
 62
7
  6
CONTINUOUS
 10
4.2895482145
 20
23.2625879898
 11
4.1810380731
 21
23.3347466878
  0
LWPOLYLINE
  5
698
100
AcDbEntity
  8
DRAFT
100
AcDbPolyline
 62
7
  6
CONTINUOUS
 90
3
 70
0
 10
4.4564266805
 20
23.1797941736
 10
4.4030781028
 20
23.2158529088
 10
4.2961342977
 20
23.2876009059
  0
LWPOLYLINE
  5
699
100
AcDbEntity
  8
DRAFT
100
AcDbPolyline
 62
7
  6
CONTINUOUS
 90
3
 70
0
 10
4.4516798704
 20
23.1534039364
 10
4.3977203414
 20
23.1899248332
 10
4.2895482145
 20
23.2625879898
  0
LINE
  5
69A
100
AcDbEntity
  8
DRAFT
100
AcDbLine
 62
7
  6
CONTINUOUS
 10
5.3126373422
 20
22.5759609753
 11
5.1932624094
 21
22.6630547838
  0
LINE
  5
69B
100
AcDbEntity
  8
DRAFT
100
AcDbLine
 62
7
  6
CONTINUOUS
 10
5.4315509764
 20
22.4882383864
 11
5.3126373422
 21
22.5759609753
  0
LINE
  5
69C
100
AcDbEntity
  8
DRAFT
100
AcDbLine
 62
7
  6
CONTINUOUS
 10
5.55
 20
22.3998894605
 11
5.4315509764
 21
22.4882383864
  0
LINE
  5
69D
100
AcDbEntity
  8
DRAFT
100
AcDbLine
 62
7
  6
CONTINUOUS
 10
3.0
 20
23.4998840322
 11
2.7812783412
 21
23.4859209391
  0
LINE
  5
69E
100
AcDbEntity
  8
DRAFT
100
AcDbLine
 62
7
  6
CONTINUOUS
 10
3.9630152422
 20
23.4775430833
 11
-3.9630152422
 21
23.4775430833
  0
LINE
  5
69F
100
AcDbEntity
  8
DRAFT
100
AcDbLine
 62
7
  6
CONTINUOUS
 10
2.7812783412
 20
23.4859209391
 11
-2.7812783412
 21
23.4859209391
  0
LINE
  5
6A0
100
AcDbEntity
  8
DRAFT
100
AcDbLine
 62
7
  6
CONTINUOUS
 10
3.9733373476
 20
23.4998840322
 11
3.0
 21
23.4998840322
  0
LINE
  5
6A1
100
AcDbEntity
  8
DRAFT
100
AcDbLine
 62
7
  6
CONTINUOUS
 10
-3.0
 20
23.4998840322
 11
-3.9733373476
 21
23.4998840322
  0
LINE
  5
6A2
100
AcDbEntity
  8
DRAFT
100
AcDbLine
 62
7
  6
CONTINUOUS
 10
-3.0
 20
23.4998840322
 11
-2.7812783412
 21
23.4859209391
  0
ARC
  5
6A3
100
AcDbEntity
  8
RACCORDO
100
AcDbCircle
 62
7
  6
CONTINUOUS
 10
6.5
 20
12.4796098218
 40
0.5
100
AcDbArc
 50
270.3303444477
 51
317.2387890043
  0
ARC
  5
6A4
100
AcDbEntity
  8
RACCORDO
100
AcDbCircle
 62
7
  6
CONTINUOUS
 10
-0.5
 20
12.4796098124
 40
0.5
100
AcDbArc
 50
222.7612125342
 51
269.6696054557
  0
ARC
  5
6A5
100
AcDbEntity
  8
RACCORDO
100
AcDbCircle
 62
7
  6
CONTINUOUS
 10
-6.5
 20
-12.3080791357
 40
0.5
100
AcDbArc
 50
90.3303945174
 51
139.6734915119
  0
ARC
  5
6A6
100
AcDbEntity
  8
RACCORDO
100
AcDbCircle
 62
7
  6
CONTINUOUS
 10
0.5
 20
-12.3080791451
 40
0.5
100
AcDbArc
 50
40.3265069056
 51
89.6696555261
  0
ELLIPSE
  5
6A7
100
AcDbEntity
  8
0
100
AcDbEllipse
 62
7
  6
CONTINUOUS
 10
-10.649923836
 20
-21.8992057583
 30
0.0
 11
0.1587009568
 21
0.4749469369
 31
0.0
 40
0.9984817956
 41
-4.3894514875
 42
-2.8195685492
  0
ELLIPSE
  5
6A8
100
AcDbEntity
  8
0
100
AcDbEllipse
 62
7
  6
CONTINUOUS
 10
-10.649923836
 20
21.8992057583
 30
0.0
 11
-0.1587009568
 21
0.4749469369
 31
0.0
 40
0.9984817956
 41
-0.3220241044
 42
1.2478588339
  0
ELLIPSE
  5
6A9
100
AcDbEntity
  8
0
100
AcDbEllipse
 62
7
  6
CONTINUOUS
 10
10.649923836
 20
-21.8992057583
 30
0.0
 11
-0.1587009568
 21
0.4749469369
 31
0.0
 40
0.9984817956
 41
-3.463616758
 42
-1.8937338197
  0
ELLIPSE
  5
6AA
100
AcDbEntity
  8
DRAFT
100
AcDbEllipse
 62
7
  6
CONTINUOUS
 10
-2.6626535246
 20
19.0038750222
 30
0.0
 11
1.0351171978
 21
0.0007927932
 31
0.0
 40
0.0118177505
 41
3.1439116239
 42
4.6476704525
  0
ELLIPSE
  5
6AB
100
AcDbEntity
  8
DRAFT
100
AcDbEllipse
 62
7
  6
CONTINUOUS
 10
2.6626535246
 20
19.0038750222
 30
0.0
 11
1.0351171978
 21
-0.0007927932
 31
0.0
 40
0.0118177505
 41
4.7771075082
 42
6.2808663368
  0
ELLIPSE
  5
6AC
100
AcDbEntity
  8
0
100
AcDbEllipse
 62
7
  6
CONTINUOUS
 10
10.649923836
 20
21.8992057583
 30
0.0
 11
0.1587009568
 21
0.4749469369
 31
0.0
 40
0.9984817956
 41
-1.2478588339
 42
0.3220241044
  0
ELLIPSE
  5
6AD
100
AcDbEntity
  8
DRAFT
100
AcDbEllipse
 62
7
  6
CONTINUOUS
 10
2.6626535246
 20
-18.9948439228
 30
0.0
 11
1.0351171978
 21
0.0003730454
 31
0.0
 40
0.0055613985
 41
6.2855113244
 42
7.789270153
  0
ELLIPSE
  5
6AE
100
AcDbEntity
  8
DRAFT
100
AcDbEllipse
 62
7
  6
CONTINUOUS
 10
-2.6626535246
 20
-18.9948439228
 30
0.0
 11
1.0351171978
 21
-0.0003730454
 31
0.0
 40
0.0055613985
 41
7.9186931149
 42
9.4224519435
  0
ELLIPSE
  5
6AF
100
AcDbEntity
  8
DRAFT
100
AcDbEllipse
 62
7
  6
CONTINUOUS
 10
-0.0
 20
-19.0566340116
 30
0.0
 11
5.9816386486
 21
-0.0
 31
0.0
 40
0.0055852373
 41
1.3876934244
 42
1.7538992292
  0
ELLIPSE
  5
6B0
100
AcDbEntity
  8
DRAFT
100
AcDbEllipse
 62
7
  6
CONTINUOUS
 10
0.0
 20
19.1351819353
 30
0.0
 11
5.9632745348
 21
-0.0
 31
0.0
 40
0.0118684123
 41
-1.7541747362
 42
-1.3874179174
  0
ELLIPSE
  5
6B1
100
AcDbEntity
  8
DRAFT
100
AcDbEllipse
 62
7
  6
CONTINUOUS
 10
-4.4
 20
19.0283554445
 30
0.0
 11
0.5
 21
0.0
 31
0.0
 40
0.0118684122
 41
3.1415926536
 42
4.7123889804
  0
ELLIPSE
  5
6B2
100
AcDbEntity
  8
DRAFT
100
AcDbEllipse
 62
7
  6
CONTINUOUS
 10
4.4
 20
19.0283554445
 30
0.0
 11
0.5
 21
0.0
 31
0.0
 40
0.0118684122
 41
-1.5707963268
 42
0.0
  0
ELLIPSE
  5
6B3
100
AcDbEntity
  8
DRAFT
100
AcDbEllipse
 62
7
  6
CONTINUOUS
 10
4.1926549184
 20
-19.0075224036
 30
0.0
 11
0.3105351593
 21
0.0001119136
 31
0.0
 40
0.0055613985
 41
0.0023260173
 42
1.5060848458
  0
ELLIPSE
  5
6B4
100
AcDbEntity
  8
DRAFT
100
AcDbEllipse
 62
7
  6
CONTINUOUS
 10
-4.1926549184
 20
-19.0075224036
 30
0.0
 11
0.3105351593
 21
-0.0001119136
 31
0.0
 40
0.0055613985
 41
1.6355078077
 42
3.1392666363
  0
ELLIPSE
  5
6B5
100
AcDbEntity
  8
DRAFT
100
AcDbEllipse
 62
7
  6
CONTINUOUS
 10
-11.25
 20
0.555138143
 30
0.0
 11
27.6143594769
 21
-0.0
 31
0.0
 40
0.9946673107
 41
0.8372412958
 42
0.8507835512
  0
ELLIPSE
  5
6B6
100
AcDbEntity
  8
DRAFT
100
AcDbEllipse
 62
7
  6
CONTINUOUS
 10
11.25
 20
0.555138143
 30
0.0
 11
27.6143594769
 21
-0.0
 31
0.0
 40
0.9946673107
 41
2.2908091023
 42
2.3043513578
  0
ELLIPSE
  5
6B7
100
AcDbEntity
  8
DRAFT
100
AcDbEllipse
 62
7
  6
CONTINUOUS
 10
-11.25
 20
-0.2797561047
 30
0.0
 11
0.0
 21
27.7676559655
 31
0.0
 40
0.9944793148
 41
-2.421579878
 42
-2.4080376226
  0
ELLIPSE
  5
6B8
100
AcDbEntity
  8
DRAFT
100
AcDbEllipse
 62
7
  6
CONTINUOUS
 10
11.25
 20
-0.2797561047
 30
0.0
 11
0.0
 21
27.7676559655
 31
0.0
 40
0.9944793148
 41
-3.8751476846
 42
-3.8616054291
  0
ELLIPSE
  5
6B9
100
AcDbEntity
  8
DRAFT
100
AcDbEllipse
 62
7
  6
CONTINUOUS
 10
1.8381022908
 20
19.0160348186
 30
0.0
 11
1.0001523861
 21
-0.0000054255
 31
0.0
 40
0.0118702185
 41
5.4363511699
 42
6.2833377228
  0
ELLIPSE
  5
6BA
100
AcDbEntity
  8
DRAFT
100
AcDbEllipse
 62
7
  6
CONTINUOUS
 10
-1.8381022908
 20
19.0160348186
 30
0.0
 11
1.0001523861
 21
0.0000054255
 31
0.0
 40
0.0118702185
 41
3.141440238
 42
3.9884267909
  0
ELLIPSE
  5
6BB
100
AcDbEntity
  8
DRAFT
100
AcDbEllipse
 62
7
  6
CONTINUOUS
 10
-4.4
 20
19.0568396338
 30
0.0
 11
0.5
 21
0.0
 31
0.0
 40
0.0118684122
 41
1.5707963268
 42
3.1415926536
  0
ELLIPSE
  5
6BC
100
AcDbEntity
  8
DRAFT
100
AcDbEllipse
 62
7
  6
CONTINUOUS
 10
4.4
 20
19.0568396338
 30
0.0
 11
0.5
 21
0.0
 31
0.0
 40
0.0118684122
 41
0.0
 42
1.5707963268
  0
ELLIPSE
  5
6BD
100
AcDbEntity
  8
DRAFT
100
AcDbEllipse
 62
7
  6
CONTINUOUS
 10
-1.8190863261
 20
-19.0006724932
 30
0.0
 11
1.0000380871
 21
-0.0000008508
 31
0.0
 40
0.0055856625
 41
2.3206550423
 42
3.1416688224
  0
ELLIPSE
  5
6BE
100
AcDbEntity
  8
DRAFT
100
AcDbEllipse
 62
7
  6
CONTINUOUS
 10
1.8190863261
 20
-19.0006724932
 30
0.0
 11
1.0000380871
 21
0.0000008508
 31
0.0
 40
0.0055856625
 41
6.2831091384
 42
7.1041229184
  0
ELLIPSE
  5
6BF
100
AcDbEntity
  8
DRAFT
100
AcDbEllipse
 62
7
  6
CONTINUOUS
 10
4.1973081629
 20
-19.0186368195
 30
0.0
 11
0.3106324671
 21
-0.0001205337
 31
0.0
 40
0.0055839684
 41
-1.50141846
 42
0.0023403686
  0
ELLIPSE
  5
6C0
100
AcDbEntity
  8
DRAFT
100
AcDbEllipse
 62
7
  6
CONTINUOUS
 10
-4.1973081629
 20
-19.0186368195
 30
0.0
 11
0.3106324671
 21
0.0001205337
 31
0.0
 40
0.0055839684
 41
3.139252285
 42
4.6430111136
  0
ELLIPSE
  5
6C1
100
AcDbEntity
  8
DRAFT
100
AcDbEllipse
 62
7
  6
CONTINUOUS
 10
-2.674197646
 20
19.0624676069
 30
0.0
 11
1.0354415568
 21
-0.000853858
 31
0.0
 40
0.0118657096
 41
1.6401818117
 42
3.1439406403
  0
ELLIPSE
  5
6C2
100
AcDbEntity
  8
DRAFT
100
AcDbEllipse
 62
7
  6
CONTINUOUS
 10
2.674197646
 20
19.0624676069
 30
0.0
 11
1.0354415568
 21
0.000853858
 31
0.0
 40
0.0118657096
 41
-0.0023479867
 42
1.5014108419
  0
ELLIPSE
  5
6C3
100
AcDbEntity
  8
DRAFT
100
AcDbEllipse
 62
7
  6
CONTINUOUS
 10
2.674197646
 20
-19.0224174078
 30
0.0
 11
1.0354415569
 21
-0.0004017788
 31
0.0
 40
0.0055839684
 41
-1.50141846
 42
0.0023403686
  0
ELLIPSE
  5
6C4
100
AcDbEntity
  8
DRAFT
100
AcDbEllipse
 62
7
  6
CONTINUOUS
 10
-2.674197646
 20
-19.0224174078
 30
0.0
 11
1.0354415569
 21
0.0004017788
 31
0.0
 40
0.0055839684
 41
3.139252285
 42
4.6430111136
  0
ELLIPSE
  5
6C5
100
AcDbEntity
  8
RACCORDO
100
AcDbEllipse
 62
7
  6
CONTINUOUS
 10
-7.7995125503
 20
15.8041469641
 30
0.0
 11
2.2816850458
 21
-2.2450173786
 31
0.0
 40
0.9996954199
 41
2.3482466567
 42
3.918738397
  0
ELLIPSE
  5
6C6
100
AcDbEntity
  8
RACCORDO
100
AcDbEllipse
 62
7
  6
CONTINUOUS
 10
-7.7995125503
 20
-15.7947222016
 30
0.0
 11
2.2816850458
 21
2.2450173786
 31
0.0
 40
0.9996954199
 41
2.3644469102
 42
3.9349386505
  0
ELLIPSE
  5
6C7
100
AcDbEntity
  8
RACCORDO
100
AcDbEllipse
 62
7
  6
CONTINUOUS
 10
7.7995125503
 20
-15.7947222016
 30
0.0
 11
2.2816850458
 21
-2.2450173786
 31
0.0
 40
0.9996954199
 41
-0.7933459969
 42
0.7771457434
  0
ELLIPSE
  5
6C8
100
AcDbEntity
  8
RACCORDO
100
AcDbEllipse
 62
7
  6
CONTINUOUS
 10
7.7995125503
 20
15.8041469641
 30
0.0
 11
2.2816850458
 21
2.2450173786
 31
0.0
 40
0.9996954199
 41
-0.7771457434
 42
0.7933459969
  0
ELLIPSE
  5
6C9
100
AcDbEntity
  8
DRAFT
100
AcDbEllipse
 62
7
  6
CONTINUOUS
 10
-3.0
 20
-17.1984909545
 30
0.0
 11
2.6
 21
-0.0
 31
0.0
 40
0.0118684122
 41
-3.1241393611
 42
-0.0174532925
  0
ELLIPSE
  5
6CA
100
AcDbEntity
  8
DRAFT
100
AcDbEllipse
 62
7
  6
CONTINUOUS
 10
3.0
 20
17.3649950913
 30
0.0
 11
2.6
 21
0.0
 31
0.0
 40
0.0055852372
 41
6.3006385997
 42
9.4073246682
  0
ELLIPSE
  5
6CB
100
AcDbEntity
  8
RACCORDO
100
AcDbEllipse
 62
7
  6
CONTINUOUS
 10
-1.4971258583
 20
18.9522898262
 30
0.0
 11
1.0000047088
 21
-0.0000069574
 31
0.0
 40
0.0144895325
 41
-3.1239243739
 42
-1.5703161586
  0
ELLIPSE
  5
6CC
100
AcDbEntity
  8
RACCORDO
100
AcDbEllipse
 62
7
  6
CONTINUOUS
 10
1.4971258583
 20
18.9522898262
 30
0.0
 11
1.0000047088
 21
0.0000069574
 31
0.0
 40
0.0144895325
 41
-1.571276495
 42
-0.0176682796
  0
ELLIPSE
  5
6CD
100
AcDbEntity
  8
RACCORDO
100
AcDbEllipse
 62
7
  6
CONTINUOUS
 10
-1.4971258583
 20
-18.9198941996
 30
0.0
 11
1.0000047088
 21
0.0000100138
 31
0.0
 40
0.0208500284
 41
1.5703160506
 42
3.123924266
  0
ELLIPSE
  5
6CE
100
AcDbEntity
  8
RACCORDO
100
AcDbEllipse
 62
7
  6
CONTINUOUS
 10
1.4971258583
 20
-18.9198941996
 30
0.0
 11
1.0000047088
 21
-0.0000100138
 31
0.0
 40
0.0208500284
 41
0.0176683876
 42
1.5712766029
  0
ELLIPSE
  5
6CF
100
AcDbEntity
  8
RACCORDO
100
AcDbEllipse
 62
7
  6
CONTINUOUS
 10
9.9762718881
 20
-2.4932518903
 30
0.0
 11
0.4999997608
 21
-0.0881658106
 31
0.0
 40
0.005547384
 41
-1.5698181474
 42
-0.0164751132
  0
ELLIPSE
  5
6D0
100
AcDbEntity
  8
RACCORDO
100
AcDbEllipse
 62
7
  6
CONTINUOUS
 10
9.9762718881
 20
-0.9088103329
 30
0.0
 11
0.4999989464
 21
0.0881751901
 31
0.0
 40
0.0116410561
 41
0.0154003864
 42
1.5687434207
  0
ELLIPSE
  5
6D1
100
AcDbEntity
  8
RACCORDO
100
AcDbEllipse
 62
7
  6
CONTINUOUS
 10
9.9762718881
 20
1.1067303445
 30
0.0
 11
0.4999997608
 21
-0.0881658106
 31
0.0
 40
0.005547384
 41
-1.5698181474
 42
-0.0164751132
  0
ELLIPSE
  5
6D2
100
AcDbEntity
  8
RACCORDO
100
AcDbEllipse
 62
7
  6
CONTINUOUS
 10
9.9762718881
 20
2.6911719019
 30
0.0
 11
0.4999989464
 21
0.0881751901
 31
0.0
 40
0.0116410561
 41
0.0154003864
 42
1.5687434207
  0
ELLIPSE
  5
6D3
100
AcDbEntity
  8
RACCORDO
100
AcDbEllipse
 62
7
  6
CONTINUOUS
 10
9.9762718881
 20
4.7510198295
 30
0.0
 11
0.4999997608
 21
-0.0881658106
 31
0.0
 40
0.005547384
 41
-1.5698181474
 42
-0.0164751132
  0
ELLIPSE
  5
6D4
100
AcDbEntity
  8
RACCORDO
100
AcDbEllipse
 62
7
  6
CONTINUOUS
 10
9.9762718881
 20
6.2468468863
 30
0.0
 11
0.4999989464
 21
0.0881751901
 31
0.0
 40
0.0116410561
 41
0.0154003864
 42
1.5687434207
  0
ELLIPSE
  5
6D5
100
AcDbEntity
  8
RACCORDO
100
AcDbEllipse
 62
7
  6
CONTINUOUS
 10
9.9762718881
 20
8.3953093146
 30
0.0
 11
0.4999997608
 21
-0.0881658106
 31
0.0
 40
0.005547384
 41
-1.5698181474
 42
-0.0164751132
  0
ELLIPSE
  5
6D6
100
AcDbEntity
  8
RACCORDO
100
AcDbEllipse
 62
7
  6
CONTINUOUS
 10
9.9762718881
 20
9.8025218707
 30
0.0
 11
0.4999989464
 21
0.0881751901
 31
0.0
 40
0.0116410561
 41
0.0154003864
 42
1.5687434207
  0
ELLIPSE
  5
6D7
100
AcDbEntity
  8
RACCORDO
100
AcDbEllipse
 62
7
  6
CONTINUOUS
 10
9.9762718881
 20
-9.6046018591
 30
0.0
 11
0.4999997608
 21
-0.0881658106
 31
0.0
 40
0.005547384
 41
-1.5698181474
 42
-0.0164751132
  0
ELLIPSE
  5
6D8
100
AcDbEntity
  8
RACCORDO
100
AcDbEllipse
 62
7
  6
CONTINUOUS
 10
-9.9762718881
 20
-6.0489268747
 30
0.0
 11
0.4999997608
 21
0.0881658106
 31
0.0
 40
0.005547384
 41
-3.1251175404
 42
-1.5717745062
  0
ELLIPSE
  5
6D9
100
AcDbEntity
  8
RACCORDO
100
AcDbEllipse
 62
7
  6
CONTINUOUS
 10
-9.9762718881
 20
-4.5530998179
 30
0.0
 11
0.4999989464
 21
-0.0881751901
 31
0.0
 40
0.0116410561
 41
1.5728492329
 42
3.1261922672
  0
ELLIPSE
  5
6DA
100
AcDbEntity
  8
RACCORDO
100
AcDbEllipse
 62
7
  6
CONTINUOUS
 10
-9.9762718881
 20
-2.4932518903
 30
0.0
 11
0.4999997608
 21
0.0881658106
 31
0.0
 40
0.005547384
 41
-3.1251175404
 42
-1.5717745062
  0
ELLIPSE
  5
6DB
100
AcDbEntity
  8
RACCORDO
100
AcDbEllipse
 62
7
  6
CONTINUOUS
 10
-9.9762718881
 20
-0.9088103329
 30
0.0
 11
0.4999989464
 21
-0.0881751901
 31
0.0
 40
0.0116410561
 41
1.5728492329
 42
3.1261922672
  0
ELLIPSE
  5
6DC
100
AcDbEntity
  8
RACCORDO
100
AcDbEllipse
 62
7
  6
CONTINUOUS
 10
-9.9762718881
 20
1.1067303445
 30
0.0
 11
0.4999997608
 21
0.0881658106
 31
0.0
 40
0.005547384
 41
-3.1251175404
 42
-1.5717745062
  0
ELLIPSE
  5
6DD
100
AcDbEntity
  8
RACCORDO
100
AcDbEllipse
 62
7
  6
CONTINUOUS
 10
-9.9762718881
 20
2.6911719019
 30
0.0
 11
0.4999989464
 21
-0.0881751901
 31
0.0
 40
0.0116410561
 41
1.5728492329
 42
3.1261922672
  0
ELLIPSE
  5
6DE
100
AcDbEntity
  8
RACCORDO
100
AcDbEllipse
 62
7
  6
CONTINUOUS
 10
-9.9762718881
 20
4.7510198295
 30
0.0
 11
0.4999997608
 21
0.0881658106
 31
0.0
 40
0.005547384
 41
-3.1251175404
 42
-1.5717745062
  0
ELLIPSE
  5
6DF
100
AcDbEntity
  8
RACCORDO
100
AcDbEllipse
 62
7
  6
CONTINUOUS
 10
-9.9762718881
 20
6.2468468863
 30
0.0
 11
0.4999989464
 21
-0.0881751901
 31
0.0
 40
0.0116410561
 41
1.5728492329
 42
3.1261922672
  0
ELLIPSE
  5
6E0
100
AcDbEntity
  8
RACCORDO
100
AcDbEllipse
 62
7
  6
CONTINUOUS
 10
-9.9762718881
 20
8.3953093146
 30
0.0
 11
0.4999997608
 21
0.0881658106
 31
0.0
 40
0.005547384
 41
-3.1251175404
 42
-1.5717745062
  0
ELLIPSE
  5
6E1
100
AcDbEntity
  8
RACCORDO
100
AcDbEllipse
 62
7
  6
CONTINUOUS
 10
-9.9762718881
 20
9.8025218707
 30
0.0
 11
0.4999989464
 21
-0.0881751901
 31
0.0
 40
0.0116410561
 41
1.5728492329
 42
3.1261922672
  0
ELLIPSE
  5
6E2
100
AcDbEntity
  8
RACCORDO
100
AcDbEllipse
 62
7
  6
CONTINUOUS
 10
-9.9762718881
 20
-9.6046018591
 30
0.0
 11
0.4999997608
 21
0.0881658106
 31
0.0
 40
0.005547384
 41
-3.1251175404
 42
-1.5717745062
  0
ELLIPSE
  5
6E3
100
AcDbEntity
  8
RACCORDO
100
AcDbEllipse
 62
7
  6
CONTINUOUS
 10
-9.9762718881
 20
-8.1973893029
 30
0.0
 11
0.4999989464
 21
-0.0881751901
 31
0.0
 40
0.0116410561
 41
1.5728492329
 42
3.1261922672
  0
ELLIPSE
  5
6E4
100
AcDbEntity
  8
RACCORDO
100
AcDbEllipse
 62
7
  6
CONTINUOUS
 10
9.9762718881
 20
-4.5530998179
 30
0.0
 11
0.4999989464
 21
0.0881751901
 31
0.0
 40
0.0116410561
 41
0.0154003864
 42
1.5687434207
  0
ELLIPSE
  5
6E5
100
AcDbEntity
  8
RACCORDO
100
AcDbEllipse
 62
7
  6
CONTINUOUS
 10
9.9762718881
 20
-6.0489268747
 30
0.0
 11
0.4999997608
 21
-0.0881658106
 31
0.0
 40
0.005547384
 41
-1.5698181474
 42
-0.0164751132
  0
ELLIPSE
  5
6E6
100
AcDbEntity
  8
RACCORDO
100
AcDbEllipse
 62
7
  6
CONTINUOUS
 10
9.9762718881
 20
-8.1973893029
 30
0.0
 11
0.4999989464
 21
0.0881751901
 31
0.0
 40
0.0116410561
 41
0.0154003864
 42
1.5687434207
  0
ENDSEC
  0
SECTION
  2
OBJECTS
  0
DICTIONARY
  5
C
100
AcDbDictionary
280
0
281
1
  3
ACAD_GROUP
350
D
  3
ACAD_MLINESTYLE
350
17
  3
ACAD_LAYOUT
350
1A
  3
ACAD_PLOTSETTINGS
350
19
  3
ACAD_PLOTSTYLENAME
350
E
  0
DICTIONARY
  5
D
102
{ACAD_REACTORS
330
C
102
}
100
AcDbDictionary
280
0
281
1
  0
ACDBDICTIONARYWDFLT
  5
E
102
{ACAD_REACTORS
330
C
102
}
100
AcDbDictionary
281
1
  3
Normal
350
F
100
AcDbDictionaryWithDefault
340
F
  0
DICTIONARY
  5
17
102
{ACAD_REACTORS
330
C
102
}
100
AcDbDictionary
280
0
281
1
  3
Standard
350
18
  0
DICTIONARY
  5
19
102
{ACAD_REACTORS
330
C
102
}
100
AcDbDictionary
281
1
  0
DICTIONARY
  5
1A
102
{ACAD_REACTORS
330
C
102
}
100
AcDbDictionary
281
1
  3
Model
350
6E7
  3
Layout1
350
6E8
  0
ACDBPLACEHOLDER
  5
F
102
{ACAD_REACTORS
330
E
102
}
  0
MLINESTYLE
  5
18
102
{ACAD_REACTORS
330
17
102
}
100
AcDbMlineStyle
  2
STANDARD
 70
0
  3

 62
256
 51
90.0
 52
90.0
 71
2
 49
0.5
 62
256
  6
BYLAYER
 49
-0.5
 62
256
  6
BYLAYER
  0
LAYOUT
  5
6E7
102
{ACAD_REACTORS
330
1A
102
}
100
AcDbPlotSettings
  1

  2
none_device
  4
ISO_A4_(297.00_x_210.00_MM)
  6

 40
0.0
 41
0.0
 42
0.0
 43
0.0
 44
297.0
 45
210.0
 46
0.0
 47
0.0
 48
0.0
 49
0.0
140
0.0
141
0.0
142
1.0
143
1.0
 70
1024
 72
1
 73
0
 74
0
  7

 75
0
147
1.0
148
0.0
149
0.0
100
AcDbLayout
  1
Model
 70
0
 71
0
 10
0.0
 20
0.0
 11
297.0
 21
210.0
 12
0.0
 22
0.0
 32
0.0
 14
0.0
 24
0.0
 34
0.0
 15
0.0
 25
0.0
 35
0.0
146
0.0
 13
0.0
 23
0.0
 33
0.0
 16
1.0
 26
0.0
 36
0.0
 17
0.0
 27
1.0
 37
0.0
 76
0
330
217
345
0
346
0
  0
LAYOUT
  5
6E8
102
{ACAD_REACTORS
330
1A
102
}
100
AcDbPlotSettings
  1

  2
none_device
  4
ISO_A4_(297.00_x_210.00_MM)
  6

 40
0.0
 41
0.0
 42
0.0
 43
0.0
 44
297.0
 45
210.0
 46
0.0
 47
0.0
 48
0.0
 49
0.0
140
0.0
141
0.0
142
1.0
143
1.0
 70
0
 72
1
 73
0
 74
0
  7

 75
0
147
1.0
148
0.0
149
0.0
100
AcDbLayout
  1
Layout1
 70
0
 71
1
 10
0.0
 20
0.0
 11
297.0
 21
210.0
 12
0.0
 22
0.0
 32
0.0
 14
0.0
 24
0.0
 34
0.0
 15
0.0
 25
0.0
 35
0.0
146
0.0
 13
0.0
 23
0.0
 33
0.0
 16
1.0
 26
0.0
 36
0.0
 17
0.0
 27
1.0
 37
0.0
 76
0
330
218
345
0
346
0
  0
ENDSEC
  0
EOF
