  0
SECTION
  2
HEADER
  9
$ACADVER
  1
AC1024
  9
$DWGCODEPAGE
  3
ANSI_1252
  9
$EXTMAX
 10
297.0
 20
210.0
 30
0.0
  9
$EXTMIN
 10
0.0
 20
0.0
 30
0.0
  9
$LIMMIN
 10
0.0
 20
0.0
  9
$LIMMAX
 10
297.0
 20
210.0
  9
$VIEWCTR
 10
148.5
 20
105.0
  9
$VIEWSIZE
 40
210.0
  9
$CLAYER
  8
0
  9
$LTSCALE
 40
16.335
  9
$CELTYPE
  6
BYLAYER
  9
$DIMSCALE
 40
1.0
  9
$DIMASZ
 40
3.0
  9
$DIMEXO
 40
0.5
  9
$DIMDLI
 40
11.286
  9
$DIMEXE
 40
1.5
  9
$DIMCEN
 40
2.673
  9
$DIMLFAC
 40
1.0
  9
$DIMBLK
  1
_FILLED
  9
$DIMALT
 70
0
  9
$DIMALTF
 40
0.0393700787
  9
$DIMTXT
 40
3.0
  9
$DIMTOL
 70
1
  9
$DIMLIM
 70
0
  9
$DIMTFAC
 40
1.0
  9
$DIMTP
 40
0.01
  9
$DIMTM
 40
0.01
  9
$DIMGAP
 40
0.625
  9
$DIMDSEP
 70
44
  9
$AUNITS
 70
0
  9
$PDMODE
 70
3
  9
$PDSIZE
 40
3.0
  9
$HANDSEED
  5
4A3
  9
$TILEMODE
 70
1
  9
$MEASUREMENT
 70
1
  9
$INSUNITS
 70
4
  0
ENDSEC
  0
SECTION
  2
CLASSES
  0
CLASS
  1
ACDBDICTIONARYWDFLT
  2
AcDbDictionaryWithDefault
  3
AutoCAD 2000
 90
0
 91
1
280
0
281
0
  0
CLASS
  1
ACDBPLACEHOLDER
  2
AcDbPlaceHolder
  3
AutoCAD 2000
 90
0
 91
1
280
0
281
0
  0
CLASS
  1
LAYOUT
  2
AcDbLayout
  3
AutoCAD 2000
 90
0
 91
0
280
0
281
0
  0
ENDSEC
  0
SECTION
  2
TABLES
  0
TABLE
  2
VPORT
  5
8
100
AcDbSymbolTable
 70
2
  0
VPORT
  5
1F4
100
AcDbSymbolTableRecord
100
AcDbViewportTableRecord
  2
*ACTIVE
 70
0
 10
0.0
 20
0.0
 11
1.0
 21
1.0
 12
148.5
 22
105.0
 13
0.0
 23
0.0
 14
1.0
 24
1.0
 15
0.0
 25
0.0
 16
0.0
 26
0.0
 36
1.0
 17
0.0
 27
0.0
 37
0.0
 40
210.0
 41
1.4142857143
 42
50.0
 43
0.0
 44
0.0
 50
0.0
 51
0.0
 71
0
 72
100
 73
1
 74
1
 75
0
 76
0
 77
0
 78
0
  0
ENDTAB
  0
TABLE
  2
LTYPE
  5
5
100
AcDbSymbolTable
 70
6
  0
LTYPE
  5
14
100
AcDbSymbolTableRecord
100
AcDbLinetypeTableRecord
  2
BYBLOCK
 70
0
  3

 72
65
 73
0
 40
0.0
  0
LTYPE
  5
15
100
AcDbSymbolTableRecord
100
AcDbLinetypeTableRecord
  2
BYLAYER
 70
0
  3

 72
65
 73
0
 40
0.0
  0
LTYPE
  5
16
100
AcDbSymbolTableRecord
100
AcDbLinetypeTableRecord
  2
CONTINUOUS
 70
64
  3
Solid line
 72
65
 73
0
 40
0.0
  0
LTYPE
  5
1F5
100
AcDbSymbolTableRecord
100
AcDbLinetypeTableRecord
  2
CENTER
 70
64
  3
____ _ ____ _ ____ _ ____ _ ____ _ ____ _ ____
 72
65
 73
4
 40
0.6
 49
0.375
 74
0
 49
-0.075
 74
0
 49
0.075
 74
0
 49
-0.075
 74
0
  0
LTYPE
  5
1F6
100
AcDbSymbolTableRecord
100
AcDbLinetypeTableRecord
  2
HIDDEN
 70
64
  3
- - - - - - - - - - - - - - - - - - - -
 72
65
 73
2
 40
0.2
 49
0.1
 74
0
 49
-0.1
 74
0
  0
LTYPE
  5
1F7
100
AcDbSymbolTableRecord
100
AcDbLinetypeTableRecord
  2
PHANTOM
 70
64
  3
_____ _ _ _____ _ _ _____ _ _ _____
 72
65
 73
6
 40
0.8
 49
0.45
 74
0
 49
-0.05
 74
0
 49
0.1
 74
0
 49
-0.05
 74
0
 49
0.1
 74
0
 49
-0.05
 74
0
  0
LTYPE
  5
1F8
100
AcDbSymbolTableRecord
100
AcDbLinetypeTableRecord
  2
DOT
 70
64
  3
. . . . . . . . . . . . . . . . . . . .
 72
65
 73
2
 40
0.2
 49
0.1
 74
0
 49
-0.1
 74
0
  0
LTYPE
  5
1F9
100
AcDbSymbolTableRecord
100
AcDbLinetypeTableRecord
  2
DASHED
 70
64
  3
- - - - - - - - - - - - - - - - - - - -
 72
65
 73
2
 40
0.2
 49
0.1
 74
0
 49
-0.1
 74
0
  0
ENDTAB
  0
TABLE
  2
LAYER
  5
2
100
AcDbSymbolTable
 70
36
  0
LAYER
  5
10
100
AcDbSymbolTableRecord
100
AcDbLayerTableRecord
  2
0
 70
0
 62
7
  6
CONTINUOUS
370
-3
390
F
  0
LAYER
  5
1FA
100
AcDbSymbolTableRecord
100
AcDbLayerTableRecord
  2
DEFAULT_1
 70
0
 62
7
  6
CENTER
370
-3
390
F
  0
LAYER
  5
1FB
100
AcDbSymbolTableRecord
100
AcDbLayerTableRecord
  2
DEFAULT_2
 70
0
 62
7
  6
HIDDEN
370
-3
390
F
  0
LAYER
  5
1FC
100
AcDbSymbolTableRecord
100
AcDbLayerTableRecord
  2
DEFAULT_3
 70
0
 62
7
  6
PHANTOM
370
-3
390
F
  0
LAYER
  5
1FD
100
AcDbSymbolTableRecord
100
AcDbLayerTableRecord
  2
ASSI
 70
0
 62
7
  6
CONTINUOUS
370
-3
390
F
  0
LAYER
  5
1FE
100
AcDbSymbolTableRecord
100
AcDbLayerTableRecord
  2
COORDINATE
 70
0
 62
7
  6
CONTINUOUS
370
-3
390
F
  0
LAYER
  5
1FF
100
AcDbSymbolTableRecord
100
AcDbLayerTableRecord
  2
COORD_ORIGINE
 70
0
 62
7
  6
CONTINUOUS
370
-3
390
F
  0
LAYER
  5
200
100
AcDbSymbolTableRecord
100
AcDbLayerTableRecord
  2
COPY_PUBLISH
 70
0
 62
7
  6
CONTINUOUS
370
-3
390
F
  0
LAYER
  5
201
100
AcDbSymbolTableRecord
100
AcDbLayerTableRecord
  2
COSMETIC
 70
0
 62
7
  6
CONTINUOUS
370
-3
390
F
  0
LAYER
  5
202
100
AcDbSymbolTableRecord
100
AcDbLayerTableRecord
  2
COSMETICHE
 70
0
 62
7
  6
CONTINUOUS
370
-3
390
F
  0
LAYER
  5
203
100
AcDbSymbolTableRecord
100
AcDbLayerTableRecord
  2
COSMETICI
 70
0
 62
7
  6
CONTINUOUS
370
-3
390
F
  0
LAYER
  5
204
100
AcDbSymbolTableRecord
100
AcDbLayerTableRecord
  2
CURVE
 70
0
 62
7
  6
CONTINUOUS
370
-3
390
F
  0
LAYER
  5
205
100
AcDbSymbolTableRecord
100
AcDbLayerTableRecord
  2
DRAFT
 70
0
 62
7
  6
CONTINUOUS
370
-3
390
F
  0
LAYER
  5
206
100
AcDbSymbolTableRecord
100
AcDbLayerTableRecord
  2
IMPORT_FEATURES
 70
0
 62
7
  6
CONTINUOUS
370
-3
390
F
  0
LAYER
  5
207
100
AcDbSymbolTableRecord
100
AcDbLayerTableRecord
  2
IMPORT_IGES
 70
0
 62
7
  6
CONTINUOUS
370
-3
390
F
  0
LAYER
  5
208
100
AcDbSymbolTableRecord
100
AcDbLayerTableRecord
  2
IMPORT_LASER
 70
0
 62
7
  6
CONTINUOUS
370
-3
390
F
  0
LAYER
  5
209
100
AcDbSymbolTableRecord
100
AcDbLayerTableRecord
  2
INTF_1
 70
0
 62
7
  6
CONTINUOUS
370
-3
390
F
  0
LAYER
  5
20A
100
AcDbSymbolTableRecord
100
AcDbLayerTableRecord
  2
INTF_2
 70
0
 62
7
  6
CONTINUOUS
370
-3
390
F
  0
LAYER
  5
20B
100
AcDbSymbolTableRecord
100
AcDbLayerTableRecord
  2
INTF_8
 70
0
 62
7
  6
CONTINUOUS
370
-3
390
F
  0
LAYER
  5
20C
100
AcDbSymbolTableRecord
100
AcDbLayerTableRecord
  2
NOTE
 70
0
 62
7
  6
CONTINUOUS
370
-3
390
F
  0
LAYER
  5
20D
100
AcDbSymbolTableRecord
100
AcDbLayerTableRecord
  2
PIANI
 70
0
 62
7
  6
CONTINUOUS
370
-3
390
F
  0
LAYER
  5
20E
100
AcDbSymbolTableRecord
100
AcDbLayerTableRecord
  2
PIANI_ORIGINE
 70
0
 62
7
  6
CONTINUOUS
370
-3
390
F
  0
LAYER
  5
20F
100
AcDbSymbolTableRecord
100
AcDbLayerTableRecord
  2
PUNTI
 70
0
 62
7
  6
CONTINUOUS
370
-3
390
F
  0
LAYER
  5
210
100
AcDbSymbolTableRecord
100
AcDbLayerTableRecord
  2
RACCORDO
 70
0
 62
7
  6
CONTINUOUS
370
-3
390
F
  0
LAYER
  5
211
100
AcDbSymbolTableRecord
100
AcDbLayerTableRecord
  2
SMUSSO
 70
0
 62
7
  6
CONTINUOUS
370
-3
390
F
  0
LAYER
  5
212
100
AcDbSymbolTableRecord
100
AcDbLayerTableRecord
  2
SNAPLINE
 70
0
 62
7
  6
CONTINUOUS
370
-3
390
F
  0
LAYER
  5
213
100
AcDbSymbolTableRecord
100
AcDbLayerTableRecord
  2
SUPERFICI
 70
0
 62
7
  6
CONTINUOUS
370
-3
390
F
  0
LAYER
  5
214
100
AcDbSymbolTableRecord
100
AcDbLayerTableRecord
  2
TRASH
 70
0
 62
7
  6
CONTINUOUS
370
-3
390
F
  0
LAYER
  5
215
100
AcDbSymbolTableRecord
100
AcDbLayerTableRecord
  2
XSEC_DATUMS
 70
0
 62
7
  6
CONTINUOUS
370
-3
390
F
  0
ENDTAB
  0
TABLE
  2
STYLE
  5
3
100
AcDbSymbolTable
 70
1
  0
STYLE
  5
11
100
AcDbSymbolTableRecord
100
AcDbTextStyleTableRecord
  2
STANDARD
 70
0
 40
0.0
 41
0.8
 50
0.0
 71
0
 42
0.2
  3
txt
  4

  0
STYLE
  5
216
100
AcDbSymbolTableRecord
100
AcDbTextStyleTableRecord
  2
TEXTSTYLE_1
 70
0
 40
0.0
 41
0.8
 50
0.0
 71
0
 42
0.2
  3
gdt
  4

  0
ENDTAB
  0
TABLE
  2
VIEW
  5
6
100
AcDbSymbolTable
 70
0
  0
ENDTAB
  0
TABLE
  2
UCS
  5
7
100
AcDbSymbolTable
 70
0
  0
ENDTAB
  0
TABLE
  2
APPID
  5
9
100
AcDbSymbolTable
 70
1
  0
APPID
  5
217
100
AcDbSymbolTableRecord
100
AcDbRegAppTableRecord
  2
ACAD
 70
0
  0
ENDTAB
  0
TABLE
  2
BLOCK_RECORD
  5
1
100
AcDbSymbolTable
 70
0
  0
BLOCK_RECORD
  5
218
100
AcDbSymbolTableRecord
100
AcDbBlockTableRecord
  2
*Model_Space
  0
BLOCK_RECORD
  5
219
100
AcDbSymbolTableRecord
100
AcDbBlockTableRecord
  2
*Paper_Space
  0
BLOCK_RECORD
  5
21A
100
AcDbSymbolTableRecord
100
AcDbBlockTableRecord
  2
_FILLED
  0
ENDTAB
  0
TABLE
  2
DIMSTYLE
  5
A
100
AcDbSymbolTable
 70
1
100
AcDbDimStyleTable
 71
0
  0
DIMSTYLE
105
21B
100
AcDbSymbolTableRecord
100
AcDbDimStyleTableRecord
  2
STANDARD
 70
0
  3

  4

 40
1.0
 41
3.0
 42
0.5
 43
0.38
 44
1.5
 45
0.0
 46
0.0
 47
0.01
 48
0.01
140
3.0
141
0.09
142
0.0
143
25.4
144
1.0
145
0.0
146
1.0
147
0.625
 71
1
 72
0
 73
0
 74
0
 75
0
 76
0
 77
1
 78
8
 79
2
170
0
171
1
172
0
173
0
174
0
175
0
176
0
177
0
178
0
270
2
179
2
271
2
272
2
273
2
274
2
275
0
280
0
281
0
282
0
283
1
284
8
285
0
286
0
287
3
288
0
340
11
278
44
341
21A
342
21A
343
21A
344
21A
  0
ENDTAB
  0
ENDSEC
  0
SECTION
  2
BLOCKS
  0
BLOCK
  5
20
100
AcDbEntity
  8
0
100
AcDbBlockBegin
  2
*Model_Space
 70
0
 10
0.0
 20
0.0
 30
0.0
  3
*Model_Space
  1

  0
ENDBLK
  5
21
100
AcDbEntity
  8
0
100
AcDbBlockEnd
  0
BLOCK
  5
1C
100
AcDbEntity
  8
0
100
AcDbBlockBegin
  2
*Paper_Space
 70
0
 10
0.0
 20
0.0
 30
0.0
  3
*Paper_Space
  1

  0
ENDBLK
  5
1D
100
AcDbEntity
  8
0
100
AcDbBlockEnd
  0
BLOCK
  5
21C
100
AcDbEntity
  8
0
100
AcDbBlockBegin
  2
_FILLED
 70
64
 10
0.0
 20
0.0
  3
_FILLED
  1

  0
SOLID
  5
21D
100
AcDbEntity
  8
0
  6
BYBLOCK
 62
0
100
AcDbTrace
 10
0.0
 20
0.0
 11
-1.0
 21
0.3166666667
 12
-1.0
 22
-0.3166666667
 13
-1.0
 23
-0.3166666667
  0
ENDBLK
  5
21E
100
AcDbEntity
  8
0
  6
BYBLOCK
 62
0
100
AcDbBlockEnd
  0
ENDSEC
  0
SECTION
  2
ENTITIES
  0
LINE
  5
21F
100
AcDbEntity
  8
DRAFT
100
AcDbLine
 62
7
  6
CONTINUOUS
 10
-3.0
 20
-23.5
 11
-2.7812783412
 21
-23.4781828305
  0
LINE
  5
220
100
AcDbEntity
  8
DRAFT
100
AcDbLine
 62
7
  6
CONTINUOUS
 10
-3.9733373476
 20
-23.5
 11
-3.0
 21
-23.5
  0
LINE
  5
221
100
AcDbEntity
  8
DRAFT
100
AcDbLine
 62
7
  6
CONTINUOUS
 10
3.0
 20
-23.5
 11
3.9733373476
 21
-23.5
  0
LINE
  5
222
100
AcDbEntity
  8
DRAFT
100
AcDbLine
 62
7
  6
CONTINUOUS
 10
-2.7812783412
 20
-23.4781828305
 11
2.7812783412
 21
-23.4781828305
  0
LINE
  5
223
100
AcDbEntity
  8
DRAFT
100
AcDbLine
 62
7
  6
CONTINUOUS
 10
-3.9630152422
 20
-23.4650925288
 11
3.9630152422
 21
-23.4650925288
  0
LINE
  5
224
100
AcDbEntity
  8
DRAFT
100
AcDbLine
 62
7
  6
CONTINUOUS
 10
-10.6503805997
 20
-22.4
 11
-5.55
 21
-22.4
  0
LINE
  5
225
100
AcDbEntity
  8
DRAFT
100
AcDbLine
 62
7
  6
CONTINUOUS
 10
5.55
 20
-22.4
 11
10.6503805997
 21
-22.4
  0
LINE
  5
226
100
AcDbEntity
  8
DRAFT
100
AcDbLine
 62
7
  6
CONTINUOUS
 10
3.0
 20
-23.5
 11
2.7812783412
 21
-23.4781828305
  0
LINE
  5
227
100
AcDbEntity
  8
DRAFT
100
AcDbLine
 62
7
  6
CONTINUOUS
 10
7.3830351795
 20
-20.9
 11
7.238215003
 21
-20.9317102097
  0
LINE
  5
228
100
AcDbEntity
  8
DRAFT
100
AcDbLine
 62
7
  6
CONTINUOUS
 10
-3.434596365
 20
-21.2139629885
 11
-3.1516814075
 21
-21.199923836
  0
LINE
  5
229
100
AcDbEntity
  8
DRAFT
100
AcDbLine
 62
7
  6
CONTINUOUS
 10
-3.1
 20
-22.2
 11
-3.0104834329
 21
-22.1955695989
  0
LINE
  5
22A
100
AcDbEntity
  8
DRAFT
100
AcDbLine
 62
7
  6
CONTINUOUS
 10
-2.700388948
 20
-21.1802222394
 11
-3.0984611006
 21
-21.199923836
  0
LINE
  5
22B
100
AcDbEntity
  8
DRAFT
100
AcDbLine
 62
7
  6
CONTINUOUS
 10
3.3821231691
 20
-22.2
 11
-3.3821231691
 21
-22.2
  0
LINE
  5
22C
100
AcDbEntity
  8
DRAFT
100
AcDbLine
 62
7
  6
CONTINUOUS
 10
3.0104834329
 20
-22.1955695989
 11
-3.0104834329
 21
-22.1955695989
  0
LINE
  5
22D
100
AcDbEntity
  8
DRAFT
100
AcDbLine
 62
7
  6
CONTINUOUS
 10
6.9712561167
 20
-21.2139629885
 11
3.434596365
 21
-21.2139629885
  0
LINE
  5
22E
100
AcDbEntity
  8
DRAFT
100
AcDbLine
 62
7
  6
CONTINUOUS
 10
-3.434596365
 20
-21.2139629885
 11
-6.9712561167
 21
-21.2139629885
  0
LINE
  5
22F
100
AcDbEntity
  8
DRAFT
100
AcDbLine
 62
7
  6
CONTINUOUS
 10
3.1516814075
 20
-21.199923836
 11
3.0984611006
 21
-21.199923836
  0
LINE
  5
230
100
AcDbEntity
  8
DRAFT
100
AcDbLine
 62
7
  6
CONTINUOUS
 10
-3.0984611006
 20
-21.199923836
 11
-3.1516814075
 21
-21.199923836
  0
LINE
  5
231
100
AcDbEntity
  8
DRAFT
100
AcDbLine
 62
7
  6
CONTINUOUS
 10
6.9587505924
 20
-21.1802222394
 11
2.700388948
 21
-21.1802222394
  0
LINE
  5
232
100
AcDbEntity
  8
DRAFT
100
AcDbLine
 62
7
  6
CONTINUOUS
 10
-2.700388948
 20
-21.1802222394
 11
-6.9587505924
 21
-21.1802222394
  0
LINE
  5
233
100
AcDbEntity
  8
DRAFT
100
AcDbLine
 62
7
  6
CONTINUOUS
 10
9.65
 20
-20.9
 11
7.3830351795
 21
-20.9
  0
LINE
  5
234
100
AcDbEntity
  8
DRAFT
100
AcDbLine
 62
7
  6
CONTINUOUS
 10
-7.3830351795
 20
-20.9
 11
-9.65
 21
-20.9
  0
LINE
  5
235
100
AcDbEntity
  8
DRAFT
100
AcDbLine
 62
7
  6
CONTINUOUS
 10
-9.5103594806
 20
-20.7603594806
 11
-7.5226756989
 21
-20.7603594806
  0
LINE
  5
236
100
AcDbEntity
  8
DRAFT
100
AcDbLine
 62
7
  6
CONTINUOUS
 10
7.5226756989
 20
-20.7603594806
 11
9.5103594806
 21
-20.7603594806
  0
LINE
  5
237
100
AcDbEntity
  8
DRAFT
100
AcDbLine
 62
7
  6
CONTINUOUS
 10
3.0104834329
 20
-22.1955695989
 11
3.1
 21
-22.2
  0
LINE
  5
238
100
AcDbEntity
  8
DRAFT
100
AcDbLine
 62
7
  6
CONTINUOUS
 10
3.0984611006
 20
-21.199923836
 11
2.700388948
 21
-21.1802222394
  0
LINE
  5
239
100
AcDbEntity
  8
DRAFT
100
AcDbLine
 62
7
  6
CONTINUOUS
 10
3.434596365
 20
-21.2139629885
 11
3.1516814075
 21
-21.199923836
  0
LINE
  5
23A
100
AcDbEntity
  8
DRAFT
100
AcDbLine
 62
7
  6
CONTINUOUS
 10
-7.3830351795
 20
-20.9
 11
-7.238215003
 21
-20.9317102097
  0
LINE
  5
23B
100
AcDbEntity
  8
DRAFT
100
AcDbLine
 62
7
  6
CONTINUOUS
 10
-7.5226756989
 20
20.7603594806
 11
-7.3830351795
 21
20.9
  0
LWPOLYLINE
  5
23C
100
AcDbEntity
  8
RACCORDO
100
AcDbPolyline
 62
7
  6
CONTINUOUS
 90
15
 70
0
 10
-10.001744595
 20
18.2308351884
 10
-9.9820200823
 20
18.2505580468
 10
-9.9607472828
 20
18.267031179
 10
-9.9379261963
 20
18.2802545848
 10
-9.9131034604
 20
18.290339477
 10
-9.8867324377
 20
18.297174643
 10
-9.8601732158
 20
18.3004264446
 10
-9.8334020108
 20
18.2999124211
 10
-9.8064426068
 20
18.2958150333
 10
-9.7807264436
 20
18.2883480253
 10
-9.7563231348
 20
18.2773301624
 10
-9.733163067
 20
18.2629426793
 10
-9.7124688394
 20
18.2459430241
 10
-9.6943713673
 20
18.226212183
 10
-9.6915939475
 20
18.2222422886
  0
LINE
  5
23D
100
AcDbEntity
  8
DRAFT
100
AcDbLine
 62
7
  6
CONTINUOUS
 10
-7.3568525821
 20
19.0
 11
-7.2195044567
 21
19.0686688326
  0
LINE
  5
23E
100
AcDbEntity
  8
DRAFT
100
AcDbLine
 62
7
  6
CONTINUOUS
 10
3.2635064284
 20
-19.0360211209
 11
3.5699041346
 21
-19.0208965595
  0
LINE
  5
23F
100
AcDbEntity
  8
DRAFT
100
AcDbLine
 62
7
  6
CONTINUOUS
 10
-7.2084845302
 20
-19.9483339502
 11
7.2084845302
 21
-19.9483339502
  0
LINE
  5
240
100
AcDbEntity
  8
DRAFT
100
AcDbLine
 62
7
  6
CONTINUOUS
 10
-7.2084845302
 20
-19.7
 11
7.2084845302
 21
-19.7
  0
LINE
  5
241
100
AcDbEntity
  8
DRAFT
100
AcDbLine
 62
7
  6
CONTINUOUS
 10
-7.2195044567
 20
-19.0686688326
 11
7.2195044567
 21
-19.0686688326
  0
LINE
  5
242
100
AcDbEntity
  8
DRAFT
100
AcDbLine
 62
7
  6
CONTINUOUS
 10
6.0819690456
 20
-19.0610787705
 11
0.6248835365
 21
-19.0610787705
  0
LINE
  5
243
100
AcDbEntity
  8
DRAFT
100
AcDbLine
 62
7
  6
CONTINUOUS
 10
-0.6248835365
 20
-19.0610787705
 11
-6.0819690456
 21
-19.0610787705
  0
LINE
  5
244
100
AcDbEntity
  8
DRAFT
100
AcDbLine
 62
7
  6
CONTINUOUS
 10
2.7459745197
 20
-19.0515923727
 11
0.6247179508
 21
-19.0515923727
  0
LINE
  5
245
100
AcDbEntity
  8
DRAFT
100
AcDbLine
 62
7
  6
CONTINUOUS
 10
-0.6247179508
 20
-19.0515923727
 11
-2.7459745197
 21
-19.0515923727
  0
LINE
  5
246
100
AcDbEntity
  8
DRAFT
100
AcDbLine
 62
7
  6
CONTINUOUS
 10
-2.8376185395
 20
-19.0448353178
 11
-1.0874172576
 21
-19.0448353178
  0
LINE
  5
247
100
AcDbEntity
  8
DRAFT
100
AcDbLine
 62
7
  6
CONTINUOUS
 10
1.0874172576
 20
-19.0448353178
 11
2.8376185395
 21
-19.0448353178
  0
LINE
  5
248
100
AcDbEntity
  8
DRAFT
100
AcDbLine
 62
7
  6
CONTINUOUS
 10
-4.4
 20
-19.0427616522
 11
-3.7095341615
 21
-19.0427616522
  0
LINE
  5
249
100
AcDbEntity
  8
DRAFT
100
AcDbLine
 62
7
  6
CONTINUOUS
 10
3.7095341615
 20
-19.0427616522
 11
4.4
 21
-19.0427616522
  0
LINE
  5
24A
100
AcDbEntity
  8
DRAFT
100
AcDbLine
 62
7
  6
CONTINUOUS
 10
3.2635064284
 20
-19.0360211209
 11
2.8377723918
 21
-19.0360211209
  0
LINE
  5
24B
100
AcDbEntity
  8
DRAFT
100
AcDbLine
 62
7
  6
CONTINUOUS
 10
-2.8377723918
 20
-19.0360211209
 11
-3.2635064284
 21
-19.0360211209
  0
LINE
  5
24C
100
AcDbEntity
  8
DRAFT
100
AcDbLine
 62
7
  6
CONTINUOUS
 10
3.5699041346
 20
-19.0208965595
 11
2.838036392
 21
-19.0208965595
  0
LINE
  5
24D
100
AcDbEntity
  8
DRAFT
100
AcDbLine
 62
7
  6
CONTINUOUS
 10
-2.838036392
 20
-19.0208965595
 11
-3.5699041346
 21
-19.0208965595
  0
LINE
  5
24E
100
AcDbEntity
  8
DRAFT
100
AcDbLine
 62
7
  6
CONTINUOUS
 10
4.4
 20
-19.0130903017
 11
3.7015837471
 21
-19.0130903017
  0
LINE
  5
24F
100
AcDbEntity
  8
DRAFT
100
AcDbLine
 62
7
  6
CONTINUOUS
 10
-3.7015837471
 20
-19.0130903017
 11
-4.4
 21
-19.0130903017
  0
LINE
  5
250
100
AcDbEntity
  8
RACCORDO
100
AcDbLine
 62
7
  6
CONTINUOUS
 10
-7.500533067
 20
-19.0
 11
-4.5673885653
 21
-19.0
  0
LINE
  5
251
100
AcDbEntity
  8
RACCORDO
100
AcDbLine
 62
7
  6
CONTINUOUS
 10
7.500533067
 20
-19.0
 11
4.5673885653
 21
-19.0
  0
LINE
  5
252
100
AcDbEntity
  8
DRAFT
100
AcDbLine
 62
7
  6
CONTINUOUS
 10
-2.7295886809
 20
-18.9904395897
 11
-2.5
 21
-18.9904395897
  0
LINE
  5
253
100
AcDbEntity
  8
DRAFT
100
AcDbLine
 62
7
  6
CONTINUOUS
 10
2.5
 20
-18.9904395897
 11
2.7295886809
 21
-18.9904395897
  0
LINE
  5
254
100
AcDbEntity
  8
DRAFT
100
AcDbLine
 62
7
  6
CONTINUOUS
 10
-4.25
 20
-18.9685808831
 11
-2.5
 21
-18.9685808831
  0
LINE
  5
255
100
AcDbEntity
  8
DRAFT
100
AcDbLine
 62
7
  6
CONTINUOUS
 10
2.5
 20
-18.9685808831
 11
4.25
 21
-18.9685808831
  0
LINE
  5
256
100
AcDbEntity
  8
RACCORDO
100
AcDbLine
 62
7
  6
CONTINUOUS
 10
-1.4669721784
 20
-18.9185155063
 11
1.4669721784
 21
-18.9185155063
  0
LINE
  5
257
100
AcDbEntity
  8
DRAFT
100
AcDbLine
 62
7
  6
CONTINUOUS
 10
-3.5699041346
 20
-19.0208965595
 11
-3.2635064284
 21
-19.0360211209
  0
LWPOLYLINE
  5
258
100
AcDbEntity
  8
RACCORDO
100
AcDbPolyline
 62
250
  6
CONTINUOUS
 90
25
 70
0
 10
-6.4998667307
 20
-18.5481423133
 10
-6.4628539573
 20
-18.5562451438
 10
-6.3716643296
 20
-18.5639622882
 10
-6.2262978476
 20
-18.5712937463
 10
-6.0224786928
 20
-18.578353494
 10
-5.7644826837
 20
-18.5850275555
 10
-5.4651372761
 20
-18.5909740039
 10
-5.1224545576
 20
-18.5961524606
 10
-4.7384224405
 20
-18.6006033042
 10
-4.3318321173
 20
-18.6041057434
 10
-3.9013762099
 20
-18.6066125382
 10
-3.4483620963
 20
-18.6081709286
 10
-2.9955031038
 20
-18.6087018437
 10
-2.5428780173
 20
-18.6081520798
 10
-2.0904080519
 20
-18.6065748407
 10
-1.6605701793
 20
-18.6040506657
 10
-1.2546030199
 20
-18.600532946
 10
-0.8712679533
 20
-18.5960682905
 10
-0.5293260914
 20
-18.5908770654
 10
-0.230746737
 20
-18.5849131026
 10
0.0264394127
 20
-18.57822257
 10
0.2293791547
 20
-18.5711643379
 10
0.3737880878
 20
-18.5638580294
 10
0.4639506132
 20
-18.5561840212
 10
0.4998667307
 20
-18.5481423133
  0
LINE
  5
259
100
AcDbEntity
  8
DRAFT
100
AcDbLine
 62
7
  6
CONTINUOUS
 10
-7.2195044567
 20
-19.0686688326
 11
-7.3568525821
 21
-19.0
  0
LINE
  5
25A
100
AcDbEntity
  8
DRAFT
100
AcDbLine
 62
7
  6
CONTINUOUS
 10
-7.5226756989
 20
-20.7603594806
 11
-7.3830351795
 21
-20.9
  0
LWPOLYLINE
  5
25B
100
AcDbEntity
  8
RACCORDO
100
AcDbPolyline
 62
7
  6
CONTINUOUS
 90
13
 70
0
 10
-10.0282587846
 20
-18.1595749722
 10
-10.0085542751
 20
-18.1793723317
 10
-9.9872927728
 20
-18.1959149486
 10
-9.9644742777
 20
-18.2092028229
 10
-9.9396443954
 20
-18.2193478318
 10
-9.9132575203
 20
-18.2262380981
 10
-9.8866768348
 20
-18.2295379904
 10
-9.8598782579
 20
-18.2290647642
 10
-9.8328858706
 20
-18.2250011642
 10
-9.8071350985
 20
-18.2175597926
 10
-9.782695415
 20
-18.2065586767
 10
-9.7594973468
 20
-18.1921797893
 10
-9.7422764847
 20
-18.1780586899
  0
LWPOLYLINE
  5
25C
100
AcDbEntity
  8
RACCORDO
100
AcDbPolyline
 62
7
  6
CONTINUOUS
 90
10
 70
0
 10
-10.9162414635
 20
17.0643546451
 10
-10.9586823142
 20
17.0048682175
 10
-10.9964088005
 20
16.942926065
 10
-11.0294209226
 20
16.8785281876
 10
-11.0578918137
 20
16.8111610595
 10
-11.0816483406
 20
16.7413382064
 10
-11.1001711029
 20
16.6706002061
 10
-11.1132869673
 20
16.5994605841
 10
-11.1211690672
 20
16.5274058148
 10
-11.1238174026
 20
16.4544358981
  0
LINE
  5
25D
100
AcDbEntity
  8
DRAFT
100
AcDbLine
 62
7
  6
CONTINUOUS
 10
-4.5673885653
 20
-19.0
 11
-4.25
 21
-18.9685808831
  0
LWPOLYLINE
  5
25E
100
AcDbEntity
  8
RACCORDO
100
AcDbPolyline
 62
7
  6
CONTINUOUS
 90
13
 70
0
 10
-6.5394041794
 20
-18.4690613933
 10
-6.4293150794
 20
-18.4612929786
 10
-6.3211160643
 20
-18.4412265319
 10
-6.2148071342
 20
-18.4082265337
 10
-6.1087537079
 20
-18.3620993925
 10
-6.0045903665
 20
-18.3024710806
 10
-5.9072208533
 20
-18.2282319151
 10
-5.8155904413
 20
-18.1395079501
 10
-5.7307538574
 20
-18.0363109273
 10
-5.6607790258
 20
-17.9167382214
 10
-5.6083552545
 20
-17.7806311137
 10
-5.5707932355
 20
-17.6305249554
 10
-5.5480929688
 20
-17.4692136981
  0
LWPOLYLINE
  5
25F
100
AcDbEntity
  8
RACCORDO
100
AcDbPolyline
 62
250
  6
CONTINUOUS
 90
16
 70
0
 10
6.9695944602
 20
-17.4692136981
 10
7.2350138258
 20
-17.4544904255
 10
7.492260031
 20
-17.4138026276
 10
7.7413330759
 20
-17.3471503046
 10
7.9848433908
 20
-17.2532612371
 10
8.2201805453
 20
-17.1334076444
 10
8.4395132484
 20
-16.9914061845
 10
8.6423020623
 20
-16.8264088109
 10
8.8290864248
 20
-16.6392635701
 10
8.9936533579
 20
-16.4363312601
 10
9.1351485089
 20
-16.2171520018
 10
9.2544262304
 20
-15.9821856743
 10
9.3478366022
 20
-15.7391727129
 10
9.414162984
 20
-15.4906932626
 10
9.454622016
 20
-15.2341671784
 10
9.4692136981
 20
-14.9695944602
  0
LWPOLYLINE
  5
260
100
AcDbEntity
  8
RACCORDO
100
AcDbPolyline
 62
250
  6
CONTINUOUS
 90
16
 70
0
 10
6.9695944602
 20
-18.4690613933
 10
7.3360287188
 20
-18.4497965857
 10
7.6982634036
 20
-18.39230907
 10
8.052330015
 20
-18.2972822772
 10
8.3942822211
 20
-18.1658441409
 10
8.7204747182
 20
-17.9994658399
 10
9.027563741
 20
-17.7998660408
 10
9.3122832989
 20
-17.5691075814
 10
9.5713654779
 20
-17.3097754134
 10
9.8018330235
 20
-17.0248558199
 10
10.0011595247
 20
-16.7175404922
 10
10.1672274125
 20
-16.3911748523
 10
10.2982396352
 20
-16.0493834983
 10
10.3928044114
 20
-15.6959334563
 10
10.4499377401
 20
-15.3346868217
 10
10.4690613933
 20
-14.9695944602
  0
LINE
  5
261
100
AcDbEntity
  8
RACCORDO
100
AcDbLine
 62
250
  6
CONTINUOUS
 10
-6.9695944602
 20
-18.4690613933
 11
-6.5394041794
 21
-18.4690613933
  0
LINE
  5
262
100
AcDbEntity
  8
RACCORDO
100
AcDbLine
 62
250
  6
CONTINUOUS
 10
0.5394041794
 20
-18.4690613933
 11
6.9695944602
 21
-18.4690613933
  0
LINE
  5
263
100
AcDbEntity
  8
RACCORDO
100
AcDbLine
 62
250
  6
CONTINUOUS
 10
-6.9695944602
 20
-17.4692136981
 11
-5.5480929688
 21
-17.4692136981
  0
LINE
  5
264
100
AcDbEntity
  8
RACCORDO
100
AcDbLine
 62
250
  6
CONTINUOUS
 10
-0.4519070312
 20
-17.4692136981
 11
6.9695944602
 21
-17.4692136981
  0
LWPOLYLINE
  5
265
100
AcDbEntity
  8
RACCORDO
100
AcDbPolyline
 62
7
  6
CONTINUOUS
 90
13
 70
0
 10
0.5394041794
 20
-18.4690613933
 10
0.4334423732
 20
-18.4614153388
 10
0.3255165707
 20
-18.4417000277
 10
0.2171266121
 20
-18.4090748544
 10
0.1103729483
 20
-18.3630226287
 10
0.0067244441
 20
-18.3030392478
 10
-0.0927628153
 20
-18.2282458399
 10
-0.1849013126
 20
-18.1391036412
 10
-0.2678088202
 20
-18.035299414
 10
-0.340615765
 20
-17.9140109598
 10
-0.3992482616
 20
-17.7745041253
 10
-0.437992938
 20
-17.6194930523
 10
-0.4519070312
 20
-17.4519109555
  0
LINE
  5
266
100
AcDbEntity
  8
DRAFT
100
AcDbLine
 62
7
  6
CONTINUOUS
 10
4.25
 20
-18.9685808831
 11
4.5673885653
 21
-19.0
  0
LWPOLYLINE
  5
267
100
AcDbEntity
  8
RACCORDO
100
AcDbPolyline
 62
250
  6
CONTINUOUS
 90
25
 70
0
 10
-5.4999048077
 20
-17.5482946182
 10
-5.4759284848
 20
-17.556429871
 10
-5.4100320556
 20
-17.5641696217
 10
-5.3032796253
 20
-17.5715138702
 10
-5.1573876075
 20
-17.5785737114
 10
-4.9748067857
 20
-17.5852380505
 10
-4.7587742635
 20
-17.5911736032
 10
-4.513091546
 20
-17.5963419297
 10
-4.2418734976
 20
-17.6007814698
 10
-3.9496191785
 20
-17.6042742596
 10
-3.6412261222
 20
-17.6067731777
 10
-3.3219613473
 20
-17.6083253454
 10
-2.9972578639
 20
-17.6088541619
 10
-2.6726349382
 20
-17.6083083181
 10
-2.3535707484
 20
-17.6067391232
 10
-2.0454375805
 20
-17.6042239041
 10
-1.7534887592
 20
-17.6007158901
 10
-1.4826338029
 20
-17.5962618521
 10
-1.2373594386
 20
-17.5910794296
 10
-1.0216524992
 20
-17.5851246827
 10
-0.8395044601
 20
-17.5784415515
 10
-0.6944145008
 20
-17.5713794959
 10
-0.5886650454
 20
-17.5640550025
 10
-0.5236179874
 20
-17.5563515847
 10
-0.5000861093
 20
-17.5482692425
  0
LWPOLYLINE
  5
268
100
AcDbEntity
  8
RACCORDO
100
AcDbPolyline
 62
7
  6
CONTINUOUS
 90
10
 70
0
 10
-10.9426253515
 20
-17.0730014938
 10
-10.9849983618
 20
-17.0135840575
 10
-11.0226704503
 20
-16.9517019754
 10
-11.0556416171
 20
-16.8873552473
 10
-11.0840877608
 20
-16.8200317574
 10
-11.1078329827
 20
-16.7502436217
 10
-11.1263495872
 20
-16.6795271876
 10
-11.1394616756
 20
-16.608394571
 10
-11.1473451466
 20
-16.536333656
 10
-11.15
 20
-16.4633444428
  0
LINE
  5
269
100
AcDbEntity
  8
RACCORDO
100
AcDbLine
 62
250
  6
CONTINUOUS
 10
-10.0282587846
 20
18.1595749722
 11
-10.0017445951
 21
18.2308351883
  0
LINE
  5
26A
100
AcDbEntity
  8
0
100
AcDbLine
 62
7
  6
CONTINUOUS
 10
6.3995498471
 20
-14.2675039035
 11
6.5147156472
 21
-14.2366566857
  0
LINE
  5
26B
100
AcDbEntity
  8
0
100
AcDbLine
 62
7
  6
CONTINUOUS
 10
6.0005080312
 20
-14.3722286712
 11
6.170691925
 21
-14.3274077398
  0
LWPOLYLINE
  5
26C
100
AcDbEntity
  8
0
100
AcDbPolyline
 62
7
  6
CONTINUOUS
 90
3
 70
0
 10
6.170691925
 20
-14.3274077398
 10
6.2848689738
 20
-14.2977001871
 10
6.3995498471
 20
-14.2675039035
  0
LWPOLYLINE
  5
26D
100
AcDbEntity
  8
0
100
AcDbPolyline
 62
7
  6
CONTINUOUS
 90
10
 70
0
 10
6.5147156472
 20
-14.2366566857
 10
6.5699572002
 20
-14.2224847288
 10
6.6225713124
 20
-14.2056850014
 10
6.6725579838
 20
-14.1862575036
 10
6.7207910892
 20
-14.1647456029
 10
6.7663967537
 20
-14.1406059318
 10
6.8067533534
 20
-14.1122083873
 10
6.8409870136
 20
-14.0790096016
 10
6.869971609
 20
-14.0415529424
 10
6.8937071395
 20
-13.9998384098
  0
LINE
  5
26E
100
AcDbEntity
  8
DRAFT
100
AcDbLine
 62
7
  6
CONTINUOUS
 10
-5.5306392332
 20
-16.9868210911
 11
-0.4693607668
 21
-16.9868210911
  0
LINE
  5
26F
100
AcDbEntity
  8
DRAFT
100
AcDbLine
 62
7
  6
CONTINUOUS
 10
-5.5480929688
 20
-16.9519109613
 11
-0.4519070312
 21
-16.9519109613
  0
LINE
  5
270
100
AcDbEntity
  8
RACCORDO
100
AcDbLine
 62
7
  6
CONTINUOUS
 10
-5.25
 20
-15.7033996231
 11
-0.75
 21
-15.7033996231
  0
LINE
  5
271
100
AcDbEntity
  8
RACCORDO
100
AcDbLine
 62
250
  6
CONTINUOUS
 10
-5.25
 20
-15.4034453146
 11
-0.75
 21
-15.4034453146
  0
LINE
  5
272
100
AcDbEntity
  8
RACCORDO
100
AcDbLine
 62
250
  6
CONTINUOUS
 10
-10.0017445951
 20
-18.2308351883
 11
-10.0282587846
 21
-18.1595749722
  0
LINE
  5
273
100
AcDbEntity
  8
0
100
AcDbLine
 62
7
  6
CONTINUOUS
 10
6.1316887177
 20
-13.9535479592
 11
6.0005080312
 21
-13.9907721861
  0
LWPOLYLINE
  5
274
100
AcDbEntity
  8
0
100
AcDbPolyline
 62
7
  6
CONTINUOUS
 90
3
 70
0
 10
6.3260056442
 20
-13.8987654127
 10
6.196744055
 20
-13.9350299012
 10
6.1316887177
 20
-13.9535479592
  0
LINE
  5
275
100
AcDbEntity
  8
RACCORDO
100
AcDbLine
 62
250
  6
CONTINUOUS
 10
-0.75
 20
-15.1
 11
-5.25
 21
-15.1
  0
LINE
  5
276
100
AcDbEntity
  8
RACCORDO
100
AcDbLine
 62
250
  6
CONTINUOUS
 10
-9.4692136981
 20
-14.9695944602
 11
-10.4690613933
 21
-14.969594292
  0
LINE
  5
277
100
AcDbEntity
  8
RACCORDO
100
AcDbLine
 62
250
  6
CONTINUOUS
 10
9.4692136981
 20
-14.9695944602
 11
10.4690613933
 21
-14.9695944602
  0
LINE
  5
278
100
AcDbEntity
  8
RACCORDO
100
AcDbLine
 62
7
  6
CONTINUOUS
 10
-0.75
 20
-14.8
 11
-5.25
 21
-14.8
  0
LINE
  5
279
100
AcDbEntity
  8
0
100
AcDbLine
 62
7
  6
CONTINUOUS
 10
0.3595490716
 20
-14.05
 11
-1.8595490716
 21
-14.05
  0
LINE
  5
27A
100
AcDbEntity
  8
0
100
AcDbLine
 62
7
  6
CONTINUOUS
 10
-4.1404509284
 20
-14.05
 11
-6.3595490716
 21
-14.05
  0
LINE
  5
27B
100
AcDbEntity
  8
RACCORDO
100
AcDbLine
 62
250
  6
CONTINUOUS
 10
-6.5394041794
 20
-18.4690613933
 11
-6.4998667307
 21
-18.5481423133
  0
LINE
  5
27C
100
AcDbEntity
  8
RACCORDO
100
AcDbLine
 62
250
  6
CONTINUOUS
 10
11.1238174026
 20
16.4544358981
 11
11.15
 21
16.4633443083
  0
LINE
  5
27D
100
AcDbEntity
  8
RACCORDO
100
AcDbLine
 62
250
  6
CONTINUOUS
 10
10.9162414635
 20
17.0643546451
 11
10.9426253515
 21
17.0730014938
  0
LINE
  5
27E
100
AcDbEntity
  8
0
100
AcDbLine
 62
7
  6
CONTINUOUS
 10
6.379785
 20
-12.351342
 11
6.000508
 21
-12.454076
  0
LINE
  5
27F
100
AcDbEntity
  8
0
100
AcDbLine
 62
7
  6
CONTINUOUS
 10
7.378325
 20
-12.089858
 11
6.673268
 21
-12.272088
  0
LWPOLYLINE
  5
280
100
AcDbEntity
  8
RACCORDO
100
AcDbPolyline
 62
250
  6
CONTINUOUS
 90
7
 70
0
 10
-6.4544089061
 20
-12.05
 10
-6.4821682061
 20
-12.0503753981
 10
-6.5098881541
 20
-12.0514998891
 10
-6.5375503869
 20
-12.0533705009
 10
-6.5651365932
 20
-12.0559837103
 10
-6.5926285293
 20
-12.0593354491
 10
-6.6200080354
 20
-12.0634211109
  0
LWPOLYLINE
  5
281
100
AcDbEntity
  8
RACCORDO
100
AcDbPolyline
 62
250
  6
CONTINUOUS
 90
7
 70
0
 10
-6.4544089061
 20
-12.55
 10
-6.470623773
 20
-12.5501968793
 10
-6.4867254327
 20
-12.5507635335
 10
-6.5027138852
 20
-12.5516999626
 10
-6.5185891306
 20
-12.5530061664
 10
-6.5343511689
 20
-12.5546821451
 10
-6.55
 20
-12.5567278987
  0
LINE
  5
282
100
AcDbEntity
  8
ASSI
100
AcDbLine
 62
7
  6
CONTINUOUS
 10
-0.0102631693
 20
-13.55
 11
-2.2761847246
 21
-13.55
  0
LINE
  5
283
100
AcDbEntity
  8
ASSI
100
AcDbLine
 62
7
  6
CONTINUOUS
 10
-3.7238152754
 20
-13.55
 11
-6.0897368307
 21
-13.55
  0
LINE
  5
284
100
AcDbEntity
  8
0
100
AcDbLine
 62
7
  6
CONTINUOUS
 10
6.0005080312
 20
-13.3834763657
 11
6.7440026937
 21
-13.3834763657
  0
LINE
  5
285
100
AcDbEntity
  8
0
100
AcDbLine
 62
7
  6
CONTINUOUS
 10
7.055151513
 20
-13.3703266239
 11
7.5766962005
 21
-13.3703266239
  0
LINE
  5
286
100
AcDbEntity
  8
0
100
AcDbLine
 62
7
  6
CONTINUOUS
 10
7.8781572359
 20
-12.9884997236
 11
6.0005080312
 21
-12.9884997236
  0
LINE
  5
287
100
AcDbEntity
  8
RACCORDO
100
AcDbLine
 62
250
  6
CONTINUOUS
 10
-6.9843104223
 20
-12.556714473
 11
-6.55
 21
-12.556714473
  0
LINE
  5
288
100
AcDbEntity
  8
RACCORDO
100
AcDbLine
 62
250
  6
CONTINUOUS
 10
0.45
 20
-12.556714473
 11
0.95
 21
-12.556714473
  0
LINE
  5
289
100
AcDbEntity
  8
RACCORDO
100
AcDbLine
 62
250
  6
CONTINUOUS
 10
0.3544089061
 20
-12.55
 11
-2.4835751963
 21
-12.55
  0
LINE
  5
28A
100
AcDbEntity
  8
RACCORDO
100
AcDbLine
 62
250
  6
CONTINUOUS
 10
-3.5164248037
 20
-12.55
 11
-6.4544089061
 21
-12.55
  0
LINE
  5
28B
100
AcDbEntity
  8
RACCORDO
100
AcDbLine
 62
7
  6
CONTINUOUS
 10
0.45
 20
-12.05
 11
-2.3694122535
 21
-12.05
  0
LINE
  5
28C
100
AcDbEntity
  8
RACCORDO
100
AcDbLine
 62
7
  6
CONTINUOUS
 10
-3.6305877465
 20
-12.05
 11
-6.55
 21
-12.05
  0
LWPOLYLINE
  5
28D
100
AcDbEntity
  8
RACCORDO
100
AcDbPolyline
 62
250
  6
CONTINUOUS
 90
7
 70
0
 10
0.45
 20
-12.05
 10
0.4620626032
 20
-12.0503822947
 10
0.4739721244
 20
-12.0515219157
 10
0.4857244183
 20
-12.053407586
 10
0.4973160526
 20
-12.0560275399
 10
0.5087442868
 20
-12.0593695495
 10
0.5200070512
 20
-12.0634209509
  0
LWPOLYLINE
  5
28E
100
AcDbEntity
  8
0
100
AcDbPolyline
 62
7
  6
CONTINUOUS
 90
10
 70
0
 10
7.3503867227
 20
-13.9050210532
 10
7.2904229581
 20
-13.900526667
 10
7.2368102727
 20
-13.887932773
 10
7.1895486666
 20
-13.8672393709
 10
7.1480529613
 20
-13.8375585171
 10
7.1129083352
 20
-13.7997781553
 10
7.0858703238
 20
-13.7565621172
 10
7.0675241055
 20
-13.7087983467
 10
7.0572845019
 20
-13.6555988998
 10
7.055151513
 20
-13.5969637767
  0
LWPOLYLINE
  5
28F
100
AcDbEntity
  8
RACCORDO
100
AcDbPolyline
 62
250
  6
CONTINUOUS
 90
7
 70
0
 10
0.45
 20
-12.5567278987
 10
0.4343511689
 20
-12.5546821451
 10
0.4185891306
 20
-12.5530061664
 10
0.4027138852
 20
-12.5516999626
 10
0.3867254327
 20
-12.5507635335
 10
0.370623773
 20
-12.5501968793
 10
0.3544089061
 20
-12.55
  0
LINE
  5
290
100
AcDbEntity
  8
RACCORDO
100
AcDbLine
 62
250
  6
CONTINUOUS
 10
10.9162414635
 20
-17.0643546451
 11
10.9426253515
 21
-17.0730014938
  0
LINE
  5
291
100
AcDbEntity
  8
RACCORDO
100
AcDbLine
 62
250
  6
CONTINUOUS
 10
11.1238174026
 20
-16.4544358981
 11
11.15
 21
-16.4633443083
  0
LINE
  5
292
100
AcDbEntity
  8
RACCORDO
100
AcDbLine
 62
250
  6
CONTINUOUS
 10
-5.5480929688
 20
-17.4519109555
 11
-5.4999048077
 21
-17.5482946182
  0
LINE
  5
293
100
AcDbEntity
  8
DRAFT
100
AcDbLine
 62
7
  6
CONTINUOUS
 10
-5.5306392332
 20
-16.9868210911
 11
-5.4999048077
 21
-17.048294624
  0
LWPOLYLINE
  5
294
100
AcDbEntity
  8
RACCORDO
100
AcDbPolyline
 62
250
  6
CONTINUOUS
 90
16
 70
0
 10
-9.4692136981
 20
-14.9695944602
 10
-9.4544904255
 20
-15.2350138258
 10
-9.4138026276
 20
-15.492260031
 10
-9.3471503046
 20
-15.7413330759
 10
-9.2532612371
 20
-15.9848433908
 10
-9.1334076444
 20
-16.2201805453
 10
-8.9914061845
 20
-16.4395132484
 10
-8.8264088109
 20
-16.6423020623
 10
-8.6392635701
 20
-16.8290864248
 10
-8.4363312601
 20
-16.9936533579
 10
-8.2171520018
 20
-17.1351485089
 10
-7.9821856743
 20
-17.2544262304
 10
-7.7391727129
 20
-17.3478366022
 10
-7.4906932626
 20
-17.414162984
 10
-7.2341671784
 20
-17.454622016
 10
-6.9695944602
 20
-17.4692136981
  0
LWPOLYLINE
  5
295
100
AcDbEntity
  8
RACCORDO
100
AcDbPolyline
 62
250
  6
CONTINUOUS
 90
16
 70
0
 10
-10.4690613933
 20
-14.9695944602
 10
-10.4497965857
 20
-15.3360287188
 10
-10.39230907
 20
-15.6982634036
 10
-10.2972822772
 20
-16.052330015
 10
-10.1658441409
 20
-16.3942822211
 10
-9.9994658399
 20
-16.7204747182
 10
-9.7998660408
 20
-17.027563741
 10
-9.5691075814
 20
-17.3122832989
 10
-9.3097754134
 20
-17.5713654779
 10
-9.0248558199
 20
-17.8018330235
 10
-8.7175404922
 20
-18.0011595247
 10
-8.3911748523
 20
-18.1672274125
 10
-8.0493834983
 20
-18.2982396352
 10
-7.6959334563
 20
-18.3928044114
 10
-7.3346868217
 20
-18.4499377401
 10
-6.9695944602
 20
-18.4690613933
  0
LWPOLYLINE
  5
296
100
AcDbEntity
  8
RACCORDO
100
AcDbPolyline
 62
7
  6
CONTINUOUS
 90
10
 70
0
 10
-11.1238174026
 20
-16.4544358981
 10
-11.1211597977
 20
-16.5274619072
 10
-11.1132685454
 20
-16.599557997
 10
-11.1001436456
 20
-16.6707241675
 10
-11.0816090312
 20
-16.7414729461
 10
-11.0578407694
 20
-16.8112918053
 10
-11.0293670616
 20
-16.878643163
 10
-10.9963639749
 20
-16.9430144919
 10
-10.9586554422
 20
-17.0049183193
 10
-10.9162414635
 20
-17.0643546451
  0
LINE
  5
297
100
AcDbEntity
  8
RACCORDO
100
AcDbLine
 62
7
  6
CONTINUOUS
 10
-11.15
 20
-21.8997711479
 11
-11.15
 21
21.8997711479
  0
LINE
  5
298
100
AcDbEntity
  8
RACCORDO
100
AcDbLine
 62
7
  6
CONTINUOUS
 10
-11.1238174026
 20
16.4544358981
 11
-11.1238174026
 21
-16.4544358981
  0
LINE
  5
299
100
AcDbEntity
  8
RACCORDO
100
AcDbLine
 62
7
  6
CONTINUOUS
 10
-11.0
 20
-15.500533067
 11
-11.0
 21
15.500533067
  0
LINE
  5
29A
100
AcDbEntity
  8
RACCORDO
100
AcDbLine
 62
250
  6
CONTINUOUS
 10
-10.4690613933
 20
14.9695944602
 11
-10.4690613933
 21
-14.9695944602
  0
LWPOLYLINE
  5
29B
100
AcDbEntity
  8
RACCORDO
100
AcDbPolyline
 62
7
  6
CONTINUOUS
 90
10
 70
0
 10
-11.15
 20
16.4633444564
 10
-11.1473544403
 20
16.5362775359
 10
-11.1394801106
 20
16.6082971552
 10
-11.126377011
 20
16.6794033144
 10
-11.1078721374
 20
16.7501092027
 10
-11.084138494
 20
16.8199016308
 10
-11.0556950924
 20
16.8872410307
 10
-11.0227149368
 20
16.9516142132
 10
-10.9850250232
 20
17.0135343676
 10
-10.9426253515
 20
17.0730014938
  0
LINE
  5
29C
100
AcDbEntity
  8
0
100
AcDbLine
 62
7
  6
CONTINUOUS
 10
6.000508
 20
-11.247306
 11
7.900354
 21
-11.069649
  0
LINE
  5
29D
100
AcDbEntity
  8
0
100
AcDbLine
 62
7
  6
CONTINUOUS
 10
7.2359
 20
-10.777875
 11
6.000508
 21
-10.859353
  0
LINE
  5
29E
100
AcDbEntity
  8
RACCORDO
100
AcDbLine
 62
7
  6
CONTINUOUS
 10
-5.25
 20
-10.6
 11
-0.75
 21
-10.6
  0
LINE
  5
29F
100
AcDbEntity
  8
RACCORDO
100
AcDbLine
 62
250
  6
CONTINUOUS
 10
-5.25
 20
-10.3
 11
-0.75
 21
-10.3
  0
LWPOLYLINE
  5
2A0
100
AcDbEntity
  8
RACCORDO
100
AcDbPolyline
 62
250
  6
CONTINUOUS
 90
7
 70
0
 10
0.5200070512
 20
-12.0634209509
 10
0.4926279815
 20
-12.0593353749
 10
0.4651363738
 20
-12.0559836865
 10
0.4375503869
 20
-12.0533705009
 10
0.4098882639
 20
-12.051499895
 10
0.3821683158
 20
-12.0503754011
 10
0.3544089061
 20
-12.05
  0
LWPOLYLINE
  5
2A1
100
AcDbEntity
  8
RACCORDO
100
AcDbPolyline
 62
7
  6
CONTINUOUS
 90
3
 70
0
 10
0.4794345412
 20
-13.9331383355
 10
0.4747438299
 20
-13.9295637132
 10
0.45
 20
-13.9100458713
  0
LINE
  5
2A2
100
AcDbEntity
  8
RACCORDO
100
AcDbLine
 62
7
  6
CONTINUOUS
 10
0.0879115065
 20
-13.6251038517
 11
-0.0102631693
 21
-13.55
  0
LINE
  5
2A3
100
AcDbEntity
  8
RACCORDO
100
AcDbLine
 62
7
  6
CONTINUOUS
 10
0.1884032647
 20
-13.7029820901
 11
0.0879115065
 21
-13.6251038517
  0
LINE
  5
2A4
100
AcDbEntity
  8
RACCORDO
100
AcDbLine
 62
7
  6
CONTINUOUS
 10
0.2912318991
 20
-13.7836545211
 11
0.1884032647
 21
-13.7029820901
  0
LWPOLYLINE
  5
2A5
100
AcDbEntity
  8
RACCORDO
100
AcDbPolyline
 62
7
  6
CONTINUOUS
 90
3
 70
0
 10
0.45
 20
-13.9100458713
 10
0.3964765857
 20
-13.8672003682
 10
0.2912318991
 20
-13.7836545211
  0
LINE
  5
2A6
100
AcDbEntity
  8
RACCORDO
100
AcDbLine
 62
7
  6
CONTINUOUS
 10
-9.65
 20
20.9
 11
-9.65
 21
18.2585027295
  0
LINE
  5
2A7
100
AcDbEntity
  8
RACCORDO
100
AcDbLine
 62
7
  6
CONTINUOUS
 10
-9.65
 20
-18.258502683
 11
-9.65
 21
-20.9
  0
LINE
  5
2A8
100
AcDbEntity
  8
DRAFT
100
AcDbLine
 62
7
  6
CONTINUOUS
 10
-9.5103594806
 20
-20.7603594806
 11
-9.5103594806
 21
-18.3554414599
  0
LINE
  5
2A9
100
AcDbEntity
  8
DRAFT
100
AcDbLine
 62
7
  6
CONTINUOUS
 10
-9.5103594806
 20
18.3554413186
 11
-9.5103594806
 21
20.7603594806
  0
LINE
  5
2AA
100
AcDbEntity
  8
RACCORDO
100
AcDbLine
 62
250
  6
CONTINUOUS
 10
-9.4692136981
 20
14.9695944602
 11
-9.4692136981
 21
-14.9695944602
  0
LINE
  5
2AB
100
AcDbEntity
  8
RACCORDO
100
AcDbLine
 62
250
  6
CONTINUOUS
 10
-0.4998667307
 20
18.5481423133
 11
-0.5394041794
 21
18.4690613933
  0
LWPOLYLINE
  5
2AC
100
AcDbEntity
  8
RACCORDO
100
AcDbPolyline
 62
250
  6
CONTINUOUS
 90
7
 70
0
 10
6.6200080354
 20
12.0634211109
 10
6.6087445965
 20
12.0593695483
 10
6.5973158793
 20
12.0560274668
 10
6.5857239637
 20
12.0534075039
 10
6.5739715995
 20
12.0515218609
 10
6.5620622275
 20
12.0503822764
 10
6.55
 20
12.05
  0
LINE
  5
2AD
100
AcDbEntity
  8
0
100
AcDbLine
 62
7
  6
CONTINUOUS
 10
6.592631
 20
-7.793796
 11
7.900354
 21
-7.431651
  0
LINE
  5
2AE
100
AcDbEntity
  8
RACCORDO
100
AcDbLine
 62
250
  6
CONTINUOUS
 10
-0.75
 20
-9.9965546854
 11
-5.25
 21
-9.9965546854
  0
LINE
  5
2AF
100
AcDbEntity
  8
RACCORDO
100
AcDbLine
 62
7
  6
CONTINUOUS
 10
-0.75
 20
-9.6966003769
 11
-5.25
 21
-9.6966003769
  0
LINE
  5
2B0
100
AcDbEntity
  8
0
100
AcDbLine
 62
7
  6
CONTINUOUS
 10
6.000508
 20
-9.107046
 11
7.900468
 21
-9.107046
  0
LINE
  5
2B1
100
AcDbEntity
  8
0
100
AcDbLine
 62
7
  6
CONTINUOUS
 10
7.900468
 20
-8.710474
 11
6.000508
 21
-8.710474
  0
LINE
  5
2B2
100
AcDbEntity
  8
0
100
AcDbLine
 62
7
  6
CONTINUOUS
 10
6.000508
 20
-9.699924
 11
7.241072
 21
-9.785504
  0
LINE
  5
2B3
100
AcDbEntity
  8
0
100
AcDbLine
 62
7
  6
CONTINUOUS
 10
7.900354
 20
-9.492079
 11
6.000508
 21
-9.320534
  0
LINE
  5
2B4
100
AcDbEntity
  8
0
100
AcDbLine
 62
7
  6
CONTINUOUS
 10
6.673268
 20
-11.892398
 11
7.378325
 21
-12.089858
  0
LINE
  5
2B5
100
AcDbEntity
  8
0
100
AcDbLine
 62
7
  6
CONTINUOUS
 10
6.000508
 20
-11.701848
 11
6.379785
 21
-11.811277
  0
LINE
  5
2B6
100
AcDbEntity
  8
0
100
AcDbLine
 62
7
  6
CONTINUOUS
 10
7.900354
 20
-11.905491
 11
6.000508
 21
-11.309578
  0
LINE
  5
2B7
100
AcDbEntity
  8
DRAFT
100
AcDbLine
 62
7
  6
CONTINUOUS
 10
-7.2084845302
 20
-19.7
 11
-7.2195044567
 21
-19.0686688326
  0
LINE
  5
2B8
100
AcDbEntity
  8
DRAFT
100
AcDbLine
 62
7
  6
CONTINUOUS
 10
-7.5226756989
 20
-20.7603594806
 11
-7.5226756989
 21
-19.0
  0
LINE
  5
2B9
100
AcDbEntity
  8
DRAFT
100
AcDbLine
 62
7
  6
CONTINUOUS
 10
-7.5226756989
 20
19.0
 11
-7.5226756989
 21
20.7603594806
  0
LINE
  5
2BA
100
AcDbEntity
  8
DRAFT
100
AcDbLine
 62
7
  6
CONTINUOUS
 10
-7.2084845302
 20
19.9483339502
 11
-7.2084845302
 21
19.7
  0
LINE
  5
2BB
100
AcDbEntity
  8
DRAFT
100
AcDbLine
 62
7
  6
CONTINUOUS
 10
-7.2084845302
 20
-19.7
 11
-7.2084845302
 21
-19.9483339502
  0
LINE
  5
2BC
100
AcDbEntity
  8
RACCORDO
100
AcDbLine
 62
250
  6
CONTINUOUS
 10
-6.9695944602
 20
17.4692136981
 11
-6.969594292
 21
18.4690613933
  0
LINE
  5
2BD
100
AcDbEntity
  8
RACCORDO
100
AcDbLine
 62
250
  6
CONTINUOUS
 10
-6.9695944602
 20
-17.4692136981
 11
-6.9695944602
 21
-18.4690613933
  0
LINE
  5
2BE
100
AcDbEntity
  8
DRAFT
100
AcDbLine
 62
7
  6
CONTINUOUS
 10
-7.2195044567
 20
19.0686688326
 11
-7.2084845302
 21
19.7
  0
LINE
  5
2BF
100
AcDbEntity
  8
RACCORDO
100
AcDbLine
 62
250
  6
CONTINUOUS
 10
0.5000951923
 20
17.5482946182
 11
0.4519070312
 21
17.4519109555
  0
LINE
  5
2C0
100
AcDbEntity
  8
DRAFT
100
AcDbLine
 62
7
  6
CONTINUOUS
 10
0.4693607668
 20
16.9868210911
 11
0.5000951923
 21
17.048294624
  0
LINE
  5
2C1
100
AcDbEntity
  8
RACCORDO
100
AcDbLine
 62
250
  6
CONTINUOUS
 10
7.500533067
 20
19.0
 11
6.9695944602
 21
18.4690613933
  0
LINE
  5
2C2
100
AcDbEntity
  8
DRAFT
100
AcDbLine
 62
7
  6
CONTINUOUS
 10
9.5103594806
 20
20.7603594806
 11
9.65
 21
20.9
  0
LINE
  5
2C3
100
AcDbEntity
  8
RACCORDO
100
AcDbLine
 62
7
  6
CONTINUOUS
 10
6.443508831
 20
13.8250342899
 11
6.5239292066
 21
13.8891763063
  0
LINE
  5
2C4
100
AcDbEntity
  8
RACCORDO
100
AcDbLine
 62
7
  6
CONTINUOUS
 10
6.3394585084
 20
13.7429146528
 11
6.443508831
 21
13.8250342899
  0
LINE
  5
2C5
100
AcDbEntity
  8
RACCORDO
100
AcDbLine
 62
7
  6
CONTINUOUS
 10
6.237825413
 20
13.6636639221
 11
6.3394585084
 21
13.7429146528
  0
LWPOLYLINE
  5
2C6
100
AcDbEntity
  8
RACCORDO
100
AcDbPolyline
 62
7
  6
CONTINUOUS
 90
3
 70
0
 10
6.0897368307
 20
13.55
 10
6.1385150674
 20
13.5871899457
 10
6.237825413
 20
13.6636639221
  0
LINE
  5
2C7
100
AcDbEntity
  8
0
100
AcDbLine
 62
7
  6
CONTINUOUS
 10
7.900354
 20
-10.677279
 11
6.845554
 21
-10.280707
  0
LINE
  5
2C8
100
AcDbEntity
  8
0
100
AcDbLine
 62
7
  6
CONTINUOUS
 10
6.000508
 20
-10.306351
 11
7.2359
 21
-10.777875
  0
LWPOLYLINE
  5
2C9
100
AcDbEntity
  8
RACCORDO
100
AcDbPolyline
 62
7
  6
CONTINUOUS
 90
13
 70
0
 10
9.7422764726
 20
-18.1780586799
 10
9.7594973468
 20
-18.1921797893
 10
9.782695415
 20
-18.2065586767
 10
9.8071350985
 20
-18.2175597926
 10
9.8328858706
 20
-18.2250011642
 10
9.8598782579
 20
-18.2290647642
 10
9.8866768348
 20
-18.2295379904
 10
9.9132575203
 20
-18.2262380981
 10
9.9396443954
 20
-18.2193478318
 10
9.9644742777
 20
-18.2092028229
 10
9.9872927728
 20
-18.1959149486
 10
10.0085542751
 20
-18.1793723317
 10
10.0282587846
 20
-18.1595749722
  0
LINE
  5
2CA
100
AcDbEntity
  8
RACCORDO
100
AcDbLine
 62
250
  6
CONTINUOUS
 10
7.500533067
 20
-19.0
 11
6.9695944602
 21
-18.4690613933
  0
LINE
  5
2CB
100
AcDbEntity
  8
DRAFT
100
AcDbLine
 62
7
  6
CONTINUOUS
 10
9.65
 20
-20.9
 11
9.5103594806
 21
-20.7603594806
  0
LINE
  5
2CC
100
AcDbEntity
  8
RACCORDO
100
AcDbLine
 62
250
  6
CONTINUOUS
 10
-6.55
 20
-12.556714473
 11
-6.6200282971
 21
-12.063428946
  0
LINE
  5
2CD
100
AcDbEntity
  8
DRAFT
100
AcDbLine
 62
7
  6
CONTINUOUS
 10
-7.238215003
 20
20.9317102097
 11
-7.2084845302
 21
19.9483339502
  0
LINE
  5
2CE
100
AcDbEntity
  8
DRAFT
100
AcDbLine
 62
7
  6
CONTINUOUS
 10
-6.0830351795
 20
-19.0
 11
-6.0819690456
 21
-19.0610787705
  0
LINE
  5
2CF
100
AcDbEntity
  8
RACCORDO
100
AcDbLine
 62
250
  6
CONTINUOUS
 10
-6.55
 20
-13.8634176008
 11
-6.55
 21
-12.5567278987
  0
LINE
  5
2D0
100
AcDbEntity
  8
RACCORDO
100
AcDbLine
 62
250
  6
CONTINUOUS
 10
-6.4544089061
 20
-12.55
 11
-6.4544089061
 21
-12.05
  0
LINE
  5
2D1
100
AcDbEntity
  8
RACCORDO
100
AcDbLine
 62
7
  6
CONTINUOUS
 10
-5.5480929688
 20
-17.4519109555
 11
-5.5480929688
 21
-16.9519109613
  0
LINE
  5
2D2
100
AcDbEntity
  8
RACCORDO
100
AcDbLine
 62
7
  6
CONTINUOUS
 10
-5.4999048077
 20
-17.048294624
 11
-5.4999048077
 21
-17.5482946182
  0
LINE
  5
2D3
100
AcDbEntity
  8
RACCORDO
100
AcDbLine
 62
250
  6
CONTINUOUS
 10
-5.25
 20
-15.1
 11
-5.2500001027
 21
-14.8
  0
LINE
  5
2D4
100
AcDbEntity
  8
RACCORDO
100
AcDbLine
 62
250
  6
CONTINUOUS
 10
-5.25
 20
-10.3
 11
-5.25
 21
-10.6
  0
LINE
  5
2D5
100
AcDbEntity
  8
RACCORDO
100
AcDbLine
 62
250
  6
CONTINUOUS
 10
-5.25
 20
-15.4034453146
 11
-5.25
 21
-15.7033996231
  0
LINE
  5
2D6
100
AcDbEntity
  8
RACCORDO
100
AcDbLine
 62
250
  6
CONTINUOUS
 10
-5.25
 20
-9.9965546854
 11
-5.2499996249
 21
-9.696600377
  0
LINE
  5
2D7
100
AcDbEntity
  8
DRAFT
100
AcDbLine
 62
7
  6
CONTINUOUS
 10
-6.0819690456
 20
19.0610787705
 11
-6.0830351795
 21
19.0
  0
LINE
  5
2D8
100
AcDbEntity
  8
DRAFT
100
AcDbLine
 62
7
  6
CONTINUOUS
 10
-7.238215003
 20
-20.9317102097
 11
-7.2084845302
 21
-19.9483339502
  0
LINE
  5
2D9
100
AcDbEntity
  8
0
100
AcDbLine
 62
7
  6
CONTINUOUS
 10
7.900354
 20
-8.167003
 11
6.592631
 21
-7.793796
  0
LINE
  5
2DA
100
AcDbEntity
  8
0
100
AcDbLine
 62
7
  6
CONTINUOUS
 10
6.000508
 20
-7.952618
 11
7.900354
 21
-8.563305
  0
LINE
  5
2DB
100
AcDbEntity
  8
DRAFT
100
AcDbLine
 62
7
  6
CONTINUOUS
 10
-3.434596365
 20
-21.2139629885
 11
-3.3821231691
 21
-22.2
  0
LINE
  5
2DC
100
AcDbEntity
  8
DRAFT
100
AcDbLine
 62
7
  6
CONTINUOUS
 10
-4.9
 20
-19.0174537356
 11
-4.9
 21
-19.0610787705
  0
LINE
  5
2DD
100
AcDbEntity
  8
0
100
AcDbLine
 62
7
  6
CONTINUOUS
 10
-4.8
 20
-11.0182321592
 11
-4.8
 21
-12.05
  0
LINE
  5
2DE
100
AcDbEntity
  8
0
100
AcDbLine
 62
7
  6
CONTINUOUS
 10
-4.8
 20
-13.55
 11
-4.8
 21
-14.05
  0
LINE
  5
2DF
100
AcDbEntity
  8
0
100
AcDbLine
 62
7
  6
CONTINUOUS
 10
-4.431939
 20
-14.05
 11
-4.431939
 21
-13.55
  0
LINE
  5
2E0
100
AcDbEntity
  8
0
100
AcDbLine
 62
7
  6
CONTINUOUS
 10
-4.431939
 20
-12.05
 11
-4.431939
 21
-11.1579214812
  0
LINE
  5
2E1
100
AcDbEntity
  8
DRAFT
100
AcDbLine
 62
250
  6
CONTINUOUS
 10
-4.4
 20
-19.0427616522
 11
-4.4
 21
-19.0610787705
  0
LINE
  5
2E2
100
AcDbEntity
  8
DRAFT
100
AcDbLine
 62
7
  6
CONTINUOUS
 10
-3.434596365
 20
21.2139629885
 11
-3.3821231691
 21
22.2
  0
LWPOLYLINE
  5
2E3
100
AcDbEntity
  8
RACCORDO
100
AcDbPolyline
 62
250
  6
CONTINUOUS
 90
10
 70
0
 10
-5.4999048077
 20
-17.5482946182
 10
-5.5151115463
 20
-17.7218518741
 10
-5.5602208114
 20
-17.8901495942
 10
-5.633868142
 20
-18.0480759239
 10
-5.7338205991
 20
-18.1908309008
 10
-5.8570476101
 20
-18.3140775215
 10
-5.9998152305
 20
-18.4140712466
 10
-6.1577928297
 20
-18.4877677188
 10
-6.3261818662
 20
-18.5329182934
 10
-6.4998665793
 20
-18.5481423106
  0
LINE
  5
2E4
100
AcDbEntity
  8
DRAFT
100
AcDbLine
 62
7
  6
CONTINUOUS
 10
3.0104834329
 20
22.1955695989
 11
2.700388948
 21
21.1802222394
  0
LWPOLYLINE
  5
2E5
100
AcDbEntity
  8
RACCORDO
100
AcDbPolyline
 62
250
  6
CONTINUOUS
 90
10
 70
0
 10
6.9235343033
 20
12.2258215406
 10
6.8999548592
 20
12.2008958651
 10
6.8704487045
 20
12.1742829749
 10
6.8390396975
 20
12.1501965166
 10
6.8056620532
 20
12.1285818646
 10
6.7705685062
 20
12.1096171268
 10
6.7344545773
 20
12.0936586227
 10
6.6975016415
 20
12.0806999429
 10
6.6594020842
 20
12.0706040466
 10
6.6200282971
 20
12.063428946
  0
LINE
  5
2E6
100
AcDbEntity
  8
DRAFT
100
AcDbLine
 62
7
  6
CONTINUOUS
 10
2.700388948
 20
-21.1802222394
 11
3.0104834329
 21
-22.1955695989
  0
LWPOLYLINE
  5
2E7
100
AcDbEntity
  8
RACCORDO
100
AcDbPolyline
 62
250
  6
CONTINUOUS
 90
10
 70
0
 10
-0.5000951923
 20
-17.5482946182
 10
-0.484880013
 20
-17.7218997197
 10
-0.4397495823
 20
-17.8902309248
 10
-0.3660749069
 20
-18.0481745647
 10
-0.2660941316
 20
-18.190932528
 10
-0.1428445369
 20
-18.3141680348
 10
-0.0000702636
 20
-18.4141373743
 10
0.1578914109
 20
-18.4878036168
 10
0.3262418264
 20
-18.5329288782
 10
0.4998667307
 20
-18.5481423133
  0
LINE
  5
2E8
100
AcDbEntity
  8
DRAFT
100
AcDbLine
 62
7
  6
CONTINUOUS
 10
-2.8376185395
 20
-19.0448353178
 11
-2.8382546653
 21
-19.0083916952
  0
LINE
  5
2E9
100
AcDbEntity
  8
DRAFT
100
AcDbLine
 62
7
  6
CONTINUOUS
 10
-3.2710565334
 20
18.991841333
 11
-3.2706505207
 21
18.9685808831
  0
LINE
  5
2EA
100
AcDbEntity
  8
DRAFT
100
AcDbLine
 62
7
  6
CONTINUOUS
 10
-2.5778458381
 20
-18.9904395897
 11
-2.5782035562
 21
-18.9699459313
  0
LINE
  5
2EB
100
AcDbEntity
  8
DRAFT
100
AcDbLine
 62
7
  6
CONTINUOUS
 10
-2.5979090928
 20
-17.0909593757
 11
-2.5997268334
 21
-16.9868210911
  0
LINE
  5
2EC
100
AcDbEntity
  8
DRAFT
100
AcDbLine
 62
7
  6
CONTINUOUS
 10
-3.2221739189
 20
18.9915714639
 11
-3.2217726168
 21
18.9685808831
  0
LINE
  5
2ED
100
AcDbEntity
  8
DRAFT
100
AcDbLine
 62
7
  6
CONTINUOUS
 10
-2.5289679341
 20
-18.9904395897
 11
-2.5293405398
 21
-18.9690930242
  0
LINE
  5
2EE
100
AcDbEntity
  8
DRAFT
100
AcDbLine
 62
7
  6
CONTINUOUS
 10
-2.5621250618
 20
-17.0908690177
 11
-2.5639412251
 21
-16.9868210911
  0
LINE
  5
2EF
100
AcDbEntity
  8
RACCORDO
100
AcDbLine
 62
250
  6
CONTINUOUS
 10
-1.4669721784
 20
-18.9185155063
 11
-1.4665295598
 21
-19.0610787705
  0
LINE
  5
2F0
100
AcDbEntity
  8
RACCORDO
100
AcDbLine
 62
250
  6
CONTINUOUS
 10
-2.4673008778
 20
-18.935881761
 11
-2.466915022
 21
-19.0610787705
  0
LINE
  5
2F1
100
AcDbEntity
  8
DRAFT
100
AcDbLine
 62
7
  6
CONTINUOUS
 10
-3.0984611006
 20
21.199923836
 11
-3.1
 21
22.2
  0
LINE
  5
2F2
100
AcDbEntity
  8
RACCORDO
100
AcDbLine
 62
7
  6
CONTINUOUS
 10
-2.5
 20
19.0610787705
 11
-2.5
 21
18.9685808831
  0
LINE
  5
2F3
100
AcDbEntity
  8
RACCORDO
100
AcDbLine
 62
7
  6
CONTINUOUS
 10
-2.5
 20
-18.9685808831
 11
-2.5
 21
-19.0610787705
  0
LINE
  5
2F4
100
AcDbEntity
  8
0
100
AcDbLine
 62
7
  6
CONTINUOUS
 10
-1.668061
 20
-14.05
 11
-1.668061
 21
-13.55
  0
LINE
  5
2F5
100
AcDbEntity
  8
0
100
AcDbLine
 62
7
  6
CONTINUOUS
 10
-1.668061
 20
-12.05
 11
-1.668061
 21
-11.2153977088
  0
LINE
  5
2F6
100
AcDbEntity
  8
DRAFT
100
AcDbLine
 62
7
  6
CONTINUOUS
 10
-3.0984611006
 20
-21.199923836
 11
-3.1
 21
-22.2
  0
LINE
  5
2F7
100
AcDbEntity
  8
RACCORDO
100
AcDbLine
 62
250
  6
CONTINUOUS
 10
-1.4665838366
 20
19.0610787705
 11
-1.4669721784
 21
18.9185155063
  0
LINE
  5
2F8
100
AcDbEntity
  8
RACCORDO
100
AcDbLine
 62
250
  6
CONTINUOUS
 10
-2.4669155466
 20
19.0610787705
 11
-2.4673008778
 21
18.935881761
  0
LINE
  5
2F9
100
AcDbEntity
  8
DRAFT
100
AcDbLine
 62
7
  6
CONTINUOUS
 10
-2.8191244103
 20
19.0085596393
 11
-2.8188092697
 21
19.0446711717
  0
LINE
  5
2FA
100
AcDbEntity
  8
DRAFT
100
AcDbLine
 62
7
  6
CONTINUOUS
 10
-3.2360587749
 20
-16.9868210911
 11
-3.2378830667
 21
-17.0913346984
  0
LINE
  5
2FB
100
AcDbEntity
  8
DRAFT
100
AcDbLine
 62
7
  6
CONTINUOUS
 10
-3.2706505207
 20
-18.9685808831
 11
-3.2710564074
 21
-18.9918341118
  0
LINE
  5
2FC
100
AcDbEntity
  8
DRAFT
100
AcDbLine
 62
7
  6
CONTINUOUS
 10
-2.5778458381
 20
18.9904395897
 11
-2.5782035562
 21
18.9699459313
  0
LINE
  5
2FD
100
AcDbEntity
  8
DRAFT
100
AcDbLine
 62
7
  6
CONTINUOUS
 10
-3.2020985146
 20
-17.0913952084
 11
-3.2002731666
 21
-16.9868210911
  0
LINE
  5
2FE
100
AcDbEntity
  8
DRAFT
100
AcDbLine
 62
7
  6
CONTINUOUS
 10
-3.222173949
 20
-18.991573191
 11
-3.2217726168
 21
-18.9685808831
  0
LINE
  5
2FF
100
AcDbEntity
  8
DRAFT
100
AcDbLine
 62
7
  6
CONTINUOUS
 10
-2.5293405398
 20
18.9690930242
 11
-2.5289679341
 21
18.9904395897
  0
LINE
  5
300
100
AcDbEntity
  8
RACCORDO
100
AcDbLine
 62
250
  6
CONTINUOUS
 10
-0.5195131255
 20
12.0676430283
 11
-0.5200282971
 21
12.063428946
  0
LINE
  5
301
100
AcDbEntity
  8
RACCORDO
100
AcDbLine
 62
250
  6
CONTINUOUS
 10
-0.45
 20
12.556714473
 11
-0.4547514079
 21
12.5217016755
  0
LWPOLYLINE
  5
302
100
AcDbEntity
  8
RACCORDO
100
AcDbPolyline
 62
250
  6
CONTINUOUS
 90
3
 70
0
 10
-0.5137706652
 20
12.1082177923
 10
-0.5172252758
 20
12.0831401234
 10
-0.5195131255
 20
12.0676430283
  0
LWPOLYLINE
  5
303
100
AcDbEntity
  8
RACCORDO
100
AcDbPolyline
 62
250
  6
CONTINUOUS
 90
5
 70
0
 10
-0.4835137146
 20
12.321089535
 10
-0.4877102023
 20
12.2908531857
 10
-0.4918692484
 20
12.2619636962
 10
-0.495814907
 20
12.2345331352
 10
-0.4993767606
 20
12.2087221469
  0
LINE
  5
304
100
AcDbEntity
  8
RACCORDO
100
AcDbLine
 62
250
  6
CONTINUOUS
 10
-0.4743422248
 20
12.3849660364
 11
-0.4835137146
 21
12.321089535
  0
LWPOLYLINE
  5
305
100
AcDbEntity
  8
RACCORDO
100
AcDbPolyline
 62
250
  6
CONTINUOUS
 90
3
 70
0
 10
-0.4993767606
 20
12.2087221469
 10
-0.5060583112
 20
12.162498216
 10
-0.5088601102
 20
12.1422481119
  0
LINE
  5
306
100
AcDbEntity
  8
RACCORDO
100
AcDbLine
 62
250
  6
CONTINUOUS
 10
-0.5088601102
 20
12.1422481119
 11
-0.5137706652
 21
12.1082177923
  0
LWPOLYLINE
  5
307
100
AcDbEntity
  8
RACCORDO
100
AcDbPolyline
 62
250
  6
CONTINUOUS
 90
3
 70
0
 10
-0.4547514079
 20
12.5217016755
 10
-0.4648427973
 20
12.4522656713
 10
-0.4743422248
 20
12.3849660364
  0
LINE
  5
308
100
AcDbEntity
  8
DRAFT
100
AcDbLine
 62
250
  6
CONTINUOUS
 10
2.7485157949
 20
19.0610787705
 11
2.7459745197
 21
19.0515923727
  0
LINE
  5
309
100
AcDbEntity
  8
DRAFT
100
AcDbLine
 62
7
  6
CONTINUOUS
 10
3.9733373476
 20
23.5
 11
3.9630152422
 21
23.4650925288
  0
LWPOLYLINE
  5
30A
100
AcDbEntity
  8
RACCORDO
100
AcDbPolyline
 62
7
  6
CONTINUOUS
 90
15
 70
0
 10
9.6915939405
 20
18.2222422785
 10
9.6943713673
 20
18.226212183
 10
9.7124688394
 20
18.2459430241
 10
9.733163067
 20
18.2629426793
 10
9.7563231348
 20
18.2773301624
 10
9.7807264436
 20
18.2883480253
 10
9.8064426068
 20
18.2958150333
 10
9.8334020108
 20
18.2999124211
 10
9.8601732158
 20
18.3004264446
 10
9.8867324377
 20
18.297174643
 10
9.9131034604
 20
18.290339477
 10
9.9379261963
 20
18.2802545848
 10
9.9607472828
 20
18.267031179
 10
9.9820200823
 20
18.2505580468
 10
10.001744595
 20
18.2308351884
  0
LINE
  5
30B
100
AcDbEntity
  8
RACCORDO
100
AcDbLine
 62
250
  6
CONTINUOUS
 10
11.0
 20
15.500533067
 11
10.4690613933
 21
14.9695944602
  0
LINE
  5
30C
100
AcDbEntity
  8
RACCORDO
100
AcDbLine
 62
250
  6
CONTINUOUS
 10
11.0
 20
-15.500533067
 11
10.4690613933
 21
-14.9695944602
  0
LINE
  5
30D
100
AcDbEntity
  8
DRAFT
100
AcDbLine
 62
7
  6
CONTINUOUS
 10
3.9733373476
 20
-23.5
 11
3.9630152422
 21
-23.4650925288
  0
LINE
  5
30E
100
AcDbEntity
  8
DRAFT
100
AcDbLine
 62
250
  6
CONTINUOUS
 10
2.7459745197
 20
-19.0515923727
 11
2.7485163923
 21
-19.0610787705
  0
LWPOLYLINE
  5
30F
100
AcDbEntity
  8
RACCORDO
100
AcDbPolyline
 62
250
  6
CONTINUOUS
 90
19
 70
0
 10
-0.95
 20
12.556714473
 10
-0.9484223607
 20
12.5171695602
 10
-0.9436993986
 20
12.4778741956
 10
-0.9358609182
 20
12.4390763531
 10
-0.9249563846
 20
12.4010208656
 10
-0.9110546116
 20
12.3639478842
 10
-0.8942433274
 20
12.3280913628
 10
-0.8746286198
 20
12.293677575
 10
-0.8523342695
 20
12.2609236908
 10
-0.8275009693
 20
12.2300364097
 10
-0.8002854325
 20
12.2012106476
 10
-0.770859405
 20
12.1746283092
 10
-0.7394085847
 20
12.150457144
 10
-0.7061314466
 20
12.1288496862
 10
-0.6712379871
 20
12.1099422874
 10
-0.6349484018
 20
12.0938542585
 10
-0.5974916975
 20
12.0806871227
 10
-0.5591042473
 20
12.0705239734
 10
-0.5200282971
 20
12.063428946
  0
LINE
  5
310
100
AcDbEntity
  8
DRAFT
100
AcDbLine
 62
7
  6
CONTINUOUS
 10
-0.6248835365
 20
19.0610787705
 11
-0.6247179508
 21
19.0515923727
  0
LINE
  5
311
100
AcDbEntity
  8
0
100
AcDbLine
 62
7
  6
CONTINUOUS
 10
-1.3
 20
-11.0448233905
 11
-1.3
 21
-12.05
  0
LINE
  5
312
100
AcDbEntity
  8
0
100
AcDbLine
 62
7
  6
CONTINUOUS
 10
-1.3
 20
-13.55
 11
-1.3
 21
-14.05
  0
LINE
  5
313
100
AcDbEntity
  8
RACCORDO
100
AcDbLine
 62
7
  6
CONTINUOUS
 10
-0.95
 20
13.0765441139
 11
-0.95
 21
12.55
  0
LINE
  5
314
100
AcDbEntity
  8
RACCORDO
100
AcDbLine
 62
250
  6
CONTINUOUS
 10
-0.75
 20
-10.3
 11
-0.7499998973
 21
-10.6
  0
LINE
  5
315
100
AcDbEntity
  8
RACCORDO
100
AcDbLine
 62
250
  6
CONTINUOUS
 10
-0.75
 20
-15.1
 11
-0.75
 21
-14.8
  0
LINE
  5
316
100
AcDbEntity
  8
RACCORDO
100
AcDbLine
 62
250
  6
CONTINUOUS
 10
-0.75
 20
-9.9965546854
 11
-0.75
 21
-9.6966003769
  0
LINE
  5
317
100
AcDbEntity
  8
RACCORDO
100
AcDbLine
 62
250
  6
CONTINUOUS
 10
-0.75
 20
-15.4034453146
 11
-0.7500003751
 21
-15.703399623
  0
LINE
  5
318
100
AcDbEntity
  8
RACCORDO
100
AcDbLine
 62
7
  6
CONTINUOUS
 10
-0.5000951923
 20
-17.048294624
 11
-0.5000858815
 21
-17.5482759951
  0
LINE
  5
319
100
AcDbEntity
  8
RACCORDO
100
AcDbLine
 62
7
  6
CONTINUOUS
 10
-0.4519070312
 20
-16.9519109613
 11
-0.4519070312
 21
-17.4519109555
  0
LINE
  5
31A
100
AcDbEntity
  8
RACCORDO
100
AcDbLine
 62
250
  6
CONTINUOUS
 10
-0.45
 20
13.9100458713
 11
-0.45
 21
12.5567278987
  0
LINE
  5
31B
100
AcDbEntity
  8
0
100
AcDbLine
 62
7
  6
CONTINUOUS
 10
-0.4
 20
3.4770677301
 11
-0.4
 21
-3.4770677301
  0
LINE
  5
31C
100
AcDbEntity
  8
RACCORDO
100
AcDbLine
 62
250
  6
CONTINUOUS
 10
-0.3544089061
 20
12.55
 11
-0.3544089061
 21
12.05
  0
LINE
  5
31D
100
AcDbEntity
  8
0
100
AcDbLine
 62
7
  6
CONTINUOUS
 10
0.0
 20
3.75
 11
0.0
 21
3.4997140449
  0
LINE
  5
31E
100
AcDbEntity
  8
0
100
AcDbLine
 62
7
  6
CONTINUOUS
 10
0.0
 20
-3.75
 11
0.0
 21
-3.4997140449
  0
LINE
  5
31F
100
AcDbEntity
  8
DRAFT
100
AcDbLine
 62
7
  6
CONTINUOUS
 10
-0.6247179508
 20
-19.0515923727
 11
-0.6248835365
 21
-19.0610787705
  0
LINE
  5
320
100
AcDbEntity
  8
DRAFT
100
AcDbLine
 62
7
  6
CONTINUOUS
 10
3.7025132132
 20
19.0165591163
 11
3.6977679175
 21
18.9988494315
  0
LINE
  5
321
100
AcDbEntity
  8
DRAFT
100
AcDbLine
 62
7
  6
CONTINUOUS
 10
3.7144422186
 20
19.0610787705
 11
3.7096363724
 21
19.0431431083
  0
LINE
  5
322
100
AcDbEntity
  8
DRAFT
100
AcDbLine
 62
250
  6
CONTINUOUS
 10
4.218841225
 20
19.0393461217
 11
4.2246653232
 21
19.0610787705
  0
LINE
  5
323
100
AcDbEntity
  8
DRAFT
100
AcDbLine
 62
7
  6
CONTINUOUS
 10
4.5031892363
 20
19.0190820689
 11
4.5144422186
 21
19.0610787705
  0
LINE
  5
324
100
AcDbEntity
  8
DRAFT
100
AcDbLine
 62
7
  6
CONTINUOUS
 10
6.9712561167
 20
21.2139629885
 11
6.9587505924
 21
21.1802222394
  0
LINE
  5
325
100
AcDbEntity
  8
0
100
AcDbLine
 62
7
  6
CONTINUOUS
 10
3.2475952642
 20
1.875
 11
3.0310888529
 21
1.7499999652
  0
LINE
  5
326
100
AcDbEntity
  8
0
100
AcDbLine
 62
7
  6
CONTINUOUS
 10
-3.2475952642
 20
-1.875
 11
-3.0301467945
 21
-1.7494560675
  0
LINE
  5
327
100
AcDbEntity
  8
0
100
AcDbLine
 62
7
  6
CONTINUOUS
 10
-3.2475952642
 20
1.875
 11
-3.0301467996
 21
1.7494560704
  0
LINE
  5
328
100
AcDbEntity
  8
0
100
AcDbLine
 62
7
  6
CONTINUOUS
 10
3.2475952642
 20
-1.875
 11
3.0301467994
 21
-1.7494560703
  0
LINE
  5
329
100
AcDbEntity
  8
DRAFT
100
AcDbLine
 62
7
  6
CONTINUOUS
 10
6.9712561167
 20
-21.2139629885
 11
6.9587505924
 21
-21.1802222394
  0
LINE
  5
32A
100
AcDbEntity
  8
DRAFT
100
AcDbLine
 62
7
  6
CONTINUOUS
 10
3.6977679175
 20
-18.9988494315
 11
3.7015837471
 21
-19.0130903017
  0
LINE
  5
32B
100
AcDbEntity
  8
DRAFT
100
AcDbLine
 62
7
  6
CONTINUOUS
 10
3.7096363724
 20
-19.0431431083
 11
3.7144422186
 21
-19.0610787705
  0
LWPOLYLINE
  5
32C
100
AcDbEntity
  8
RACCORDO
100
AcDbPolyline
 62
250
  6
CONTINUOUS
 90
19
 70
0
 10
0.95
 20
-12.556714473
 10
0.9484223607
 20
-12.5171695602
 10
0.9436993986
 20
-12.4778741956
 10
0.9358609182
 20
-12.4390763531
 10
0.9249563846
 20
-12.4010208656
 10
0.9110546116
 20
-12.3639478842
 10
0.8942433274
 20
-12.3280913628
 10
0.8746286198
 20
-12.293677575
 10
0.8523342695
 20
-12.2609236908
 10
0.8275009693
 20
-12.2300364097
 10
0.8002854325
 20
-12.2012106476
 10
0.770859405
 20
-12.1746283092
 10
0.7394085847
 20
-12.150457144
 10
0.7061314466
 20
-12.1288496862
 10
0.6712379871
 20
-12.1099422874
 10
0.6349484018
 20
-12.0938542585
 10
0.5974916975
 20
-12.0806871227
 10
0.5591042473
 20
-12.0705239734
 10
0.5200282971
 20
-12.063428946
  0
LINE
  5
32D
100
AcDbEntity
  8
DRAFT
100
AcDbLine
 62
7
  6
CONTINUOUS
 10
0.6248835365
 20
-19.0610787705
 11
0.6247179508
 21
-19.0515923727
  0
LINE
  5
32E
100
AcDbEntity
  8
RACCORDO
100
AcDbLine
 62
250
  6
CONTINUOUS
 10
1.4665318072
 20
19.0610787705
 11
1.4669721784
 21
18.9185155063
  0
LINE
  5
32F
100
AcDbEntity
  8
RACCORDO
100
AcDbLine
 62
250
  6
CONTINUOUS
 10
0.3544089061
 20
-12.55
 11
0.3544089061
 21
-12.05
  0
LINE
  5
330
100
AcDbEntity
  8
0
100
AcDbLine
 62
7
  6
CONTINUOUS
 10
0.4
 20
-3.4770677301
 11
0.4
 21
3.4770677301
  0
LINE
  5
331
100
AcDbEntity
  8
RACCORDO
100
AcDbLine
 62
250
  6
CONTINUOUS
 10
0.45
 20
-13.9100458713
 11
0.45
 21
-12.5567278987
  0
LINE
  5
332
100
AcDbEntity
  8
RACCORDO
100
AcDbLine
 62
7
  6
CONTINUOUS
 10
0.4519070312
 20
16.9519109613
 11
0.4519070312
 21
17.4519109555
  0
LINE
  5
333
100
AcDbEntity
  8
RACCORDO
100
AcDbLine
 62
7
  6
CONTINUOUS
 10
0.5000951923
 20
17.5482946182
 11
0.5000951923
 21
17.048294624
  0
LINE
  5
334
100
AcDbEntity
  8
RACCORDO
100
AcDbLine
 62
250
  6
CONTINUOUS
 10
0.75
 20
15.4034453146
 11
0.7500003751
 21
15.703399623
  0
LINE
  5
335
100
AcDbEntity
  8
RACCORDO
100
AcDbLine
 62
250
  6
CONTINUOUS
 10
0.75
 20
15.1
 11
0.75
 21
14.8
  0
LINE
  5
336
100
AcDbEntity
  8
RACCORDO
100
AcDbLine
 62
250
  6
CONTINUOUS
 10
0.75
 20
9.9965546854
 11
0.75
 21
9.6966003769
  0
LINE
  5
337
100
AcDbEntity
  8
RACCORDO
100
AcDbLine
 62
250
  6
CONTINUOUS
 10
0.75
 20
10.3
 11
0.7499998973
 21
10.6
  0
LINE
  5
338
100
AcDbEntity
  8
RACCORDO
100
AcDbLine
 62
7
  6
CONTINUOUS
 10
0.95
 20
-13.0765441139
 11
0.95
 21
-12.55
  0
LINE
  5
339
100
AcDbEntity
  8
0
100
AcDbLine
 62
7
  6
CONTINUOUS
 10
1.3
 20
11.0448233905
 11
1.3
 21
12.05
  0
LINE
  5
33A
100
AcDbEntity
  8
0
100
AcDbLine
 62
7
  6
CONTINUOUS
 10
1.3
 20
13.55
 11
1.3
 21
14.05
  0
LINE
  5
33B
100
AcDbEntity
  8
0
100
AcDbLine
 62
7
  6
CONTINUOUS
 10
1.668061
 20
14.05
 11
1.668061
 21
13.55
  0
LINE
  5
33C
100
AcDbEntity
  8
0
100
AcDbLine
 62
7
  6
CONTINUOUS
 10
1.668061
 20
12.05
 11
1.668061
 21
11.2153977088
  0
LINE
  5
33D
100
AcDbEntity
  8
RACCORDO
100
AcDbLine
 62
250
  6
CONTINUOUS
 10
1.4665838366
 20
-19.0610787705
 11
1.4669721784
 21
-18.9185155063
  0
LINE
  5
33E
100
AcDbEntity
  8
DRAFT
100
AcDbLine
 62
7
  6
CONTINUOUS
 10
0.6247179508
 20
19.0515923727
 11
0.6248835365
 21
19.0610787705
  0
LINE
  5
33F
100
AcDbEntity
  8
DRAFT
100
AcDbLine
 62
7
  6
CONTINUOUS
 10
-3.7015837471
 20
-19.0130903017
 11
-3.6977679175
 21
-18.9988494315
  0
LINE
  5
340
100
AcDbEntity
  8
DRAFT
100
AcDbLine
 62
7
  6
CONTINUOUS
 10
-3.7144422186
 20
-19.0610787705
 11
-3.7096363724
 21
-19.0431431083
  0
LINE
  5
341
100
AcDbEntity
  8
DRAFT
100
AcDbLine
 62
7
  6
CONTINUOUS
 10
-6.9712561167
 20
-21.2139629885
 11
-6.9587505924
 21
-21.1802222394
  0
LWPOLYLINE
  5
342
100
AcDbEntity
  8
0
100
AcDbPolyline
 62
7
  6
CONTINUOUS
 90
22
 70
0
 10
6.8937071395
 20
-13.9998384098
 10
6.9103841203
 20
-14.0403619107
 10
6.9324463762
 20
-14.0777313464
 10
6.9598939072
 20
-14.1119467169
 10
6.9938410773
 20
-14.1428264896
 10
7.0331735224
 20
-14.170552197
 10
7.0745481504
 20
-14.1956684372
 10
7.1164184641
 20
-14.2189351642
 10
7.1603309606
 20
-14.239592424
 10
7.2075820386
 20
-14.2559049522
 10
7.2590959392
 20
-14.2676626561
 10
7.3139484213
 20
-14.2750756284
 10
7.3706631605
 20
-14.2770388837
 10
7.4295446485
 20
-14.2739752936
 10
7.4902883935
 20
-14.2654619865
 10
7.5505045958
 20
-14.2491253616
 10
7.610796248
 20
-14.2247256691
 10
7.6705603574
 20
-14.1925026588
 10
7.7255981463
 20
-14.1508019801
 10
7.774510022
 20
-14.0990721829
 10
7.8186955772
 20
-14.0378647173
 10
7.8581548119
 20
-13.9671795833
  0
LINE
  5
343
100
AcDbEntity
  8
DRAFT
100
AcDbLine
 62
7
  6
CONTINUOUS
 10
-6.9712561167
 20
21.2139629885
 11
-6.9587505924
 21
21.1802222394
  0
LINE
  5
344
100
AcDbEntity
  8
DRAFT
100
AcDbLine
 62
7
  6
CONTINUOUS
 10
-4.5031892363
 20
19.0190820689
 11
-4.5144422186
 21
19.0610787705
  0
LINE
  5
345
100
AcDbEntity
  8
DRAFT
100
AcDbLine
 62
250
  6
CONTINUOUS
 10
-4.218841225
 20
19.0393461217
 11
-4.2246641665
 21
19.0610787705
  0
LINE
  5
346
100
AcDbEntity
  8
DRAFT
100
AcDbLine
 62
7
  6
CONTINUOUS
 10
-3.6977679175
 20
18.9988494315
 11
-3.7025132132
 21
19.0165591163
  0
LINE
  5
347
100
AcDbEntity
  8
DRAFT
100
AcDbLine
 62
7
  6
CONTINUOUS
 10
-3.7096363724
 20
19.0431431083
 11
-3.7144422186
 21
19.0610787705
  0
LWPOLYLINE
  5
348
100
AcDbEntity
  8
RACCORDO
100
AcDbPolyline
 62
250
  6
CONTINUOUS
 90
10
 70
0
 10
0.5000951923
 20
17.5482946182
 10
0.4848800137
 20
17.7218997151
 10
0.4397495847
 20
17.8902309177
 10
0.3660749111
 20
18.0481745572
 10
0.2660941359
 20
18.1909325227
 10
0.1428445395
 20
18.3141680325
 10
0.0000702643
 20
18.4141373739
 10
-0.1578914111
 20
18.4878036168
 10
-0.3262418268
 20
18.5329288783
 10
-0.4998667307
 20
18.5481423133
  0
LINE
  5
349
100
AcDbEntity
  8
DRAFT
100
AcDbLine
 62
7
  6
CONTINUOUS
 10
2.5289679341
 20
18.9904395897
 11
2.5293405398
 21
18.9690930242
  0
LINE
  5
34A
100
AcDbEntity
  8
DRAFT
100
AcDbLine
 62
7
  6
CONTINUOUS
 10
2.5621250618
 20
17.0908690195
 11
2.5639412251
 21
16.9868210911
  0
LINE
  5
34B
100
AcDbEntity
  8
DRAFT
100
AcDbLine
 62
7
  6
CONTINUOUS
 10
3.2221739189
 20
-18.9915714639
 11
3.2217726168
 21
-18.9685808831
  0
LINE
  5
34C
100
AcDbEntity
  8
DRAFT
100
AcDbLine
 62
7
  6
CONTINUOUS
 10
2.5979090929
 20
17.0909593741
 11
2.5997268334
 21
16.9868210911
  0
LINE
  5
34D
100
AcDbEntity
  8
DRAFT
100
AcDbLine
 62
7
  6
CONTINUOUS
 10
2.5778458381
 20
18.9904395897
 11
2.5782035562
 21
18.9699459313
  0
LINE
  5
34E
100
AcDbEntity
  8
DRAFT
100
AcDbLine
 62
7
  6
CONTINUOUS
 10
3.2710565334
 20
-18.991841333
 11
3.2706505207
 21
-18.9685808831
  0
LINE
  5
34F
100
AcDbEntity
  8
DRAFT
100
AcDbLine
 62
7
  6
CONTINUOUS
 10
2.8188092697
 20
19.0446711717
 11
2.8191244103
 21
19.0085596393
  0
LINE
  5
350
100
AcDbEntity
  8
RACCORDO
100
AcDbLine
 62
250
  6
CONTINUOUS
 10
2.4669155466
 20
19.0610787705
 11
2.4673008778
 21
18.935881761
  0
LINE
  5
351
100
AcDbEntity
  8
DRAFT
100
AcDbLine
 62
7
  6
CONTINUOUS
 10
3.0984611006
 20
-21.199923836
 11
3.1
 21
-22.2
  0
LINE
  5
352
100
AcDbEntity
  8
RACCORDO
100
AcDbLine
 62
7
  6
CONTINUOUS
 10
2.5
 20
19.0610787705
 11
2.5
 21
18.9685808831
  0
LINE
  5
353
100
AcDbEntity
  8
RACCORDO
100
AcDbLine
 62
7
  6
CONTINUOUS
 10
2.5
 20
-18.9685808831
 11
2.5
 21
-19.0610787705
  0
LINE
  5
354
100
AcDbEntity
  8
DRAFT
100
AcDbLine
 62
7
  6
CONTINUOUS
 10
3.0984611006
 20
21.199923836
 11
3.1
 21
22.2
  0
LINE
  5
355
100
AcDbEntity
  8
RACCORDO
100
AcDbLine
 62
250
  6
CONTINUOUS
 10
2.4669155466
 20
-19.0610787705
 11
2.4673008778
 21
-18.935881761
  0
LINE
  5
356
100
AcDbEntity
  8
DRAFT
100
AcDbLine
 62
7
  6
CONTINUOUS
 10
2.5293405398
 20
-18.9690930242
 11
2.5289679341
 21
-18.9904395897
  0
LINE
  5
357
100
AcDbEntity
  8
DRAFT
100
AcDbLine
 62
7
  6
CONTINUOUS
 10
3.222173949
 20
18.991573191
 11
3.2217726168
 21
18.9685808831
  0
LINE
  5
358
100
AcDbEntity
  8
DRAFT
100
AcDbLine
 62
7
  6
CONTINUOUS
 10
3.2020985147
 20
17.0913952102
 11
3.2002731666
 21
16.9868210911
  0
LINE
  5
359
100
AcDbEntity
  8
DRAFT
100
AcDbLine
 62
7
  6
CONTINUOUS
 10
2.5778458381
 20
-18.9904395897
 11
2.5782035562
 21
-18.9699459313
  0
LINE
  5
35A
100
AcDbEntity
  8
DRAFT
100
AcDbLine
 62
7
  6
CONTINUOUS
 10
3.2360587749
 20
16.9868210911
 11
3.2378830667
 21
17.091334697
  0
LINE
  5
35B
100
AcDbEntity
  8
DRAFT
100
AcDbLine
 62
7
  6
CONTINUOUS
 10
3.2706505207
 20
18.9685808831
 11
3.2710564074
 21
18.9918341118
  0
LINE
  5
35C
100
AcDbEntity
  8
DRAFT
100
AcDbLine
 62
7
  6
CONTINUOUS
 10
2.8376185395
 20
-19.0448353178
 11
2.8382546653
 21
-19.0083916952
  0
LINE
  5
35D
100
AcDbEntity
  8
RACCORDO
100
AcDbLine
 62
250
  6
CONTINUOUS
 10
0.5195131255
 20
-12.0676430283
 11
0.5200282971
 21
-12.063428946
  0
LINE
  5
35E
100
AcDbEntity
  8
RACCORDO
100
AcDbLine
 62
250
  6
CONTINUOUS
 10
0.45
 20
-12.556714473
 11
0.4547514079
 21
-12.5217016755
  0
LWPOLYLINE
  5
35F
100
AcDbEntity
  8
RACCORDO
100
AcDbPolyline
 62
250
  6
CONTINUOUS
 90
3
 70
0
 10
0.5137706652
 20
-12.1082177923
 10
0.5172252758
 20
-12.0831401234
 10
0.5195131255
 20
-12.0676430283
  0
LWPOLYLINE
  5
360
100
AcDbEntity
  8
RACCORDO
100
AcDbPolyline
 62
250
  6
CONTINUOUS
 90
5
 70
0
 10
0.4835137146
 20
-12.321089535
 10
0.4877102023
 20
-12.2908531857
 10
0.4918692484
 20
-12.2619636962
 10
0.495814907
 20
-12.2345331352
 10
0.4993767606
 20
-12.2087221469
  0
LINE
  5
361
100
AcDbEntity
  8
RACCORDO
100
AcDbLine
 62
250
  6
CONTINUOUS
 10
0.4743422248
 20
-12.3849660364
 11
0.4835137146
 21
-12.321089535
  0
LWPOLYLINE
  5
362
100
AcDbEntity
  8
RACCORDO
100
AcDbPolyline
 62
250
  6
CONTINUOUS
 90
3
 70
0
 10
0.4993767606
 20
-12.2087221469
 10
0.5060583112
 20
-12.162498216
 10
0.5088601102
 20
-12.1422481119
  0
LINE
  5
363
100
AcDbEntity
  8
RACCORDO
100
AcDbLine
 62
250
  6
CONTINUOUS
 10
0.5088601102
 20
-12.1422481119
 11
0.5137706652
 21
-12.1082177923
  0
LWPOLYLINE
  5
364
100
AcDbEntity
  8
RACCORDO
100
AcDbPolyline
 62
250
  6
CONTINUOUS
 90
3
 70
0
 10
0.4547514079
 20
-12.5217016755
 10
0.4648427973
 20
-12.4522656713
 10
0.4743422248
 20
-12.3849660364
  0
LINE
  5
365
100
AcDbEntity
  8
DRAFT
100
AcDbLine
 62
250
  6
CONTINUOUS
 10
-2.7485163923
 20
-19.0610787705
 11
-2.7459745197
 21
-19.0515923727
  0
LINE
  5
366
100
AcDbEntity
  8
DRAFT
100
AcDbLine
 62
7
  6
CONTINUOUS
 10
-3.9733373476
 20
-23.5
 11
-3.9630152422
 21
-23.4650925288
  0
LINE
  5
367
100
AcDbEntity
  8
DRAFT
100
AcDbLine
 62
7
  6
CONTINUOUS
 10
-2.700388948
 20
-21.1802222394
 11
-3.0104834329
 21
-22.1955695989
  0
LWPOLYLINE
  5
368
100
AcDbEntity
  8
RACCORDO
100
AcDbPolyline
 62
7
  6
CONTINUOUS
 90
15
 70
0
 10
-9.6915939405
 20
-18.2222422785
 10
-9.6943713673
 20
-18.226212183
 10
-9.7124688394
 20
-18.2459430241
 10
-9.733163067
 20
-18.2629426793
 10
-9.7563231348
 20
-18.2773301624
 10
-9.7807264436
 20
-18.2883480253
 10
-9.8064426068
 20
-18.2958150333
 10
-9.8334020108
 20
-18.2999124211
 10
-9.8601732158
 20
-18.3004264446
 10
-9.8867324377
 20
-18.297174643
 10
-9.9131034604
 20
-18.290339477
 10
-9.9379261963
 20
-18.2802545848
 10
-9.9607472828
 20
-18.267031179
 10
-9.9820200823
 20
-18.2505580468
 10
-10.001744595
 20
-18.2308351884
  0
LWPOLYLINE
  5
369
100
AcDbEntity
  8
RACCORDO
100
AcDbPolyline
 62
250
  6
CONTINUOUS
 90
10
 70
0
 10
-6.9235343033
 20
-12.2258215406
 10
-6.8999548592
 20
-12.2008958651
 10
-6.8704487045
 20
-12.1742829749
 10
-6.8390396975
 20
-12.1501965166
 10
-6.8056620532
 20
-12.1285818646
 10
-6.7705685062
 20
-12.1096171268
 10
-6.7344545773
 20
-12.0936586227
 10
-6.6975016415
 20
-12.0806999429
 10
-6.6594020842
 20
-12.0706040466
 10
-6.6200282971
 20
-12.063428946
  0
LINE
  5
36A
100
AcDbEntity
  8
RACCORDO
100
AcDbLine
 62
250
  6
CONTINUOUS
 10
-11.0
 20
-15.500533067
 11
-10.4690613933
 21
-14.9695944602
  0
LINE
  5
36B
100
AcDbEntity
  8
RACCORDO
100
AcDbLine
 62
250
  6
CONTINUOUS
 10
-11.0
 20
15.500533067
 11
-10.4690613933
 21
14.9695944602
  0
LINE
  5
36C
100
AcDbEntity
  8
DRAFT
100
AcDbLine
 62
7
  6
CONTINUOUS
 10
-3.0104834329
 20
22.1955695989
 11
-2.700388948
 21
21.1802222394
  0
LINE
  5
36D
100
AcDbEntity
  8
DRAFT
100
AcDbLine
 62
7
  6
CONTINUOUS
 10
-3.9733373476
 20
23.5
 11
-3.9630152422
 21
23.4650925288
  0
LINE
  5
36E
100
AcDbEntity
  8
DRAFT
100
AcDbLine
 62
250
  6
CONTINUOUS
 10
-2.7459745197
 20
19.0515923727
 11
-2.748515785
 21
19.0610787705
  0
LINE
  5
36F
100
AcDbEntity
  8
DRAFT
100
AcDbLine
 62
7
  6
CONTINUOUS
 10
3.434596365
 20
21.2139629885
 11
3.3821231691
 21
22.2
  0
LINE
  5
370
100
AcDbEntity
  8
DRAFT
100
AcDbLine
 62
250
  6
CONTINUOUS
 10
4.4
 20
-19.0427616522
 11
4.4
 21
-19.0610787705
  0
LINE
  5
371
100
AcDbEntity
  8
0
100
AcDbLine
 62
7
  6
CONTINUOUS
 10
4.431939
 20
14.05
 11
4.431939
 21
13.55
  0
LINE
  5
372
100
AcDbEntity
  8
0
100
AcDbLine
 62
7
  6
CONTINUOUS
 10
4.431939
 20
12.05
 11
4.431939
 21
11.1579214812
  0
LINE
  5
373
100
AcDbEntity
  8
0
100
AcDbLine
 62
7
  6
CONTINUOUS
 10
4.8
 20
11.0182321592
 11
4.8
 21
12.05
  0
LINE
  5
374
100
AcDbEntity
  8
0
100
AcDbLine
 62
7
  6
CONTINUOUS
 10
4.8
 20
13.55
 11
4.8
 21
14.05
  0
LINE
  5
375
100
AcDbEntity
  8
DRAFT
100
AcDbLine
 62
7
  6
CONTINUOUS
 10
4.9
 20
-19.0610787705
 11
4.9
 21
-19.0174537356
  0
LINE
  5
376
100
AcDbEntity
  8
RACCORDO
100
AcDbLine
 62
250
  6
CONTINUOUS
 10
5.25
 20
9.9965546854
 11
5.2499996249
 21
9.696600377
  0
LINE
  5
377
100
AcDbEntity
  8
RACCORDO
100
AcDbLine
 62
250
  6
CONTINUOUS
 10
5.25
 20
10.3
 11
5.25
 21
10.6
  0
LINE
  5
378
100
AcDbEntity
  8
RACCORDO
100
AcDbLine
 62
250
  6
CONTINUOUS
 10
5.25
 20
15.4034453146
 11
5.25
 21
15.7033996231
  0
LINE
  5
379
100
AcDbEntity
  8
RACCORDO
100
AcDbLine
 62
250
  6
CONTINUOUS
 10
5.25
 20
15.1
 11
5.2500001027
 21
14.8
  0
LINE
  5
37A
100
AcDbEntity
  8
DRAFT
100
AcDbLine
 62
7
  6
CONTINUOUS
 10
3.434596365
 20
-21.2139629885
 11
3.3821231691
 21
-22.2
  0
LWPOLYLINE
  5
37B
100
AcDbEntity
  8
RACCORDO
100
AcDbPolyline
 62
250
  6
CONTINUOUS
 90
10
 70
0
 10
5.4999048077
 20
17.5482946182
 10
5.515110872
 20
17.7218480531
 10
5.5602184486
 20
17.8901431046
 10
5.6338636021
 20
18.0480680616
 10
5.7338138169
 20
18.1908228179
 10
5.8570390542
 20
18.3140703411
 10
5.9998061618
 20
18.4140660093
 10
6.1577850254
 20
18.487764877
 10
6.3261771162
 20
18.5329174552
 10
6.4998665537
 20
18.5481423107
  0
LWPOLYLINE
  5
37C
100
AcDbEntity
  8
0
100
AcDbPolyline
 62
7
  6
CONTINUOUS
 90
13
 70
0
 10
7.5766962005
 20
-13.3703266239
 10
7.5869226733
 20
-13.4327213775
 10
7.5931678369
 20
-13.4935984709
 10
7.5954316913
 20
-13.552957904
 10
7.5947920156
 20
-13.6116865505
 10
7.5901710308
 20
-13.6688975367
 10
7.5783353992
 20
-13.7219302418
 10
7.5581688467
 20
-13.771454839
 10
7.5307876475
 20
-13.816801155
 10
7.496307287
 20
-13.8532980486
 10
7.4547662602
 20
-13.8793884726
 10
7.4061260721
 20
-13.8966294741
 10
7.3503867227
 20
-13.9050210532
  0
LINE
  5
37D
100
AcDbEntity
  8
DRAFT
100
AcDbLine
 62
7
  6
CONTINUOUS
 10
7.238215003
 20
-20.9317102097
 11
7.2084845302
 21
-19.9483339502
  0
LINE
  5
37E
100
AcDbEntity
  8
DRAFT
100
AcDbLine
 62
7
  6
CONTINUOUS
 10
6.0830351795
 20
19.0
 11
6.0819690456
 21
19.0610787705
  0
LINE
  5
37F
100
AcDbEntity
  8
RACCORDO
100
AcDbLine
 62
7
  6
CONTINUOUS
 10
5.4999145275
 20
17.5482751771
 11
5.4999048077
 21
17.048294624
  0
LINE
  5
380
100
AcDbEntity
  8
RACCORDO
100
AcDbLine
 62
7
  6
CONTINUOUS
 10
5.5480929688
 20
17.4519109555
 11
5.5480929688
 21
16.9519109613
  0
LINE
  5
381
100
AcDbEntity
  8
0
100
AcDbLine
 62
7
  6
CONTINUOUS
 10
6.000508
 20
-7.603139
 11
6.000508
 21
-7.952618
  0
LINE
  5
382
100
AcDbEntity
  8
0
100
AcDbLine
 62
7
  6
CONTINUOUS
 10
6.000508
 20
-8.710474
 11
6.000508
 21
-9.107046
  0
LINE
  5
383
100
AcDbEntity
  8
0
100
AcDbLine
 62
7
  6
CONTINUOUS
 10
6.000508
 20
-9.320534
 11
6.000508
 21
-9.699924
  0
LINE
  5
384
100
AcDbEntity
  8
0
100
AcDbLine
 62
7
  6
CONTINUOUS
 10
6.000508
 20
-10.250732
 11
6.000508
 21
-10.306351
  0
LINE
  5
385
100
AcDbEntity
  8
0
100
AcDbLine
 62
7
  6
CONTINUOUS
 10
6.000508
 20
-10.859353
 11
6.000508
 21
-11.247306
  0
LINE
  5
386
100
AcDbEntity
  8
0
100
AcDbLine
 62
7
  6
CONTINUOUS
 10
6.000508
 20
-11.309578
 11
6.000508
 21
-11.701848
  0
LINE
  5
387
100
AcDbEntity
  8
0
100
AcDbLine
 62
7
  6
CONTINUOUS
 10
6.000508
 20
-12.454076
 11
6.000508
 21
-12.872047
  0
LINE
  5
388
100
AcDbEntity
  8
0
100
AcDbLine
 62
7
  6
CONTINUOUS
 10
6.0005080312
 20
-12.9884997236
 11
6.0005080312
 21
-13.3834763657
  0
LINE
  5
389
100
AcDbEntity
  8
0
100
AcDbLine
 62
7
  6
CONTINUOUS
 10
6.0005080312
 20
-13.9907721861
 11
6.0005080312
 21
-14.3722286712
  0
LINE
  5
38A
100
AcDbEntity
  8
0
100
AcDbLine
 62
7
  6
CONTINUOUS
 10
6.379785
 20
-11.811277
 11
6.379785
 21
-12.351342
  0
LINE
  5
38B
100
AcDbEntity
  8
RACCORDO
100
AcDbLine
 62
250
  6
CONTINUOUS
 10
6.4544089061
 20
12.55
 11
6.4544089061
 21
12.05
  0
LINE
  5
38C
100
AcDbEntity
  8
RACCORDO
100
AcDbLine
 62
250
  6
CONTINUOUS
 10
6.55
 20
13.8634176008
 11
6.55
 21
12.5567278987
  0
LINE
  5
38D
100
AcDbEntity
  8
0
100
AcDbLine
 62
7
  6
CONTINUOUS
 10
6.673268
 20
-12.272088
 11
6.673268
 21
-11.892398
  0
LINE
  5
38E
100
AcDbEntity
  8
0
100
AcDbLine
 62
7
  6
CONTINUOUS
 10
6.7440026937
 20
-13.3834763657
 11
6.7440026937
 21
-13.5961089723
  0
LINE
  5
38F
100
AcDbEntity
  8
RACCORDO
100
AcDbLine
 62
250
  6
CONTINUOUS
 10
6.9695944602
 20
17.4692136981
 11
6.9695944602
 21
18.4690613933
  0
LINE
  5
390
100
AcDbEntity
  8
RACCORDO
100
AcDbLine
 62
250
  6
CONTINUOUS
 10
6.9695944602
 20
-17.4692136981
 11
6.969594292
 21
-18.4690613933
  0
LINE
  5
391
100
AcDbEntity
  8
0
100
AcDbLine
 62
7
  6
CONTINUOUS
 10
7.055151513
 20
-13.5969637767
 11
7.055151513
 21
-13.3703266239
  0
LINE
  5
392
100
AcDbEntity
  8
DRAFT
100
AcDbLine
 62
7
  6
CONTINUOUS
 10
6.0819690456
 20
-19.0610787705
 11
6.0830351795
 21
-19.0
  0
LINE
  5
393
100
AcDbEntity
  8
DRAFT
100
AcDbLine
 62
7
  6
CONTINUOUS
 10
7.238215003
 20
20.9317102097
 11
7.2084845302
 21
19.9483339502
  0
LINE
  5
394
100
AcDbEntity
  8
RACCORDO
100
AcDbLine
 62
7
  6
CONTINUOUS
 10
-6.443508831
 20
-13.8250342899
 11
-6.5239292066
 21
-13.8891763063
  0
LINE
  5
395
100
AcDbEntity
  8
RACCORDO
100
AcDbLine
 62
7
  6
CONTINUOUS
 10
-6.3394585084
 20
-13.7429146528
 11
-6.443508831
 21
-13.8250342899
  0
LINE
  5
396
100
AcDbEntity
  8
RACCORDO
100
AcDbLine
 62
7
  6
CONTINUOUS
 10
-6.237825413
 20
-13.6636639221
 11
-6.3394585084
 21
-13.7429146528
  0
LWPOLYLINE
  5
397
100
AcDbEntity
  8
RACCORDO
100
AcDbPolyline
 62
7
  6
CONTINUOUS
 90
3
 70
0
 10
-6.0897368307
 20
-13.55
 10
-6.1385150674
 20
-13.5871899457
 10
-6.237825413
 20
-13.6636639221
  0
LINE
  5
398
100
AcDbEntity
  8
DRAFT
100
AcDbLine
 62
7
  6
CONTINUOUS
 10
7.2195044567
 20
19.0686688326
 11
7.2084845302
 21
19.7
  0
LINE
  5
399
100
AcDbEntity
  8
DRAFT
100
AcDbLine
 62
7
  6
CONTINUOUS
 10
7.2084845302
 20
-19.9483339502
 11
7.2084845302
 21
-19.7
  0
LINE
  5
39A
100
AcDbEntity
  8
DRAFT
100
AcDbLine
 62
7
  6
CONTINUOUS
 10
7.2084845302
 20
19.7
 11
7.2084845302
 21
19.9483339502
  0
LINE
  5
39B
100
AcDbEntity
  8
DRAFT
100
AcDbLine
 62
7
  6
CONTINUOUS
 10
7.5226756989
 20
20.7603594806
 11
7.5226756989
 21
19.0
  0
LINE
  5
39C
100
AcDbEntity
  8
DRAFT
100
AcDbLine
 62
7
  6
CONTINUOUS
 10
7.5226756989
 20
-19.0
 11
7.5226756989
 21
-20.7603594806
  0
LINE
  5
39D
100
AcDbEntity
  8
0
100
AcDbLine
 62
7
  6
CONTINUOUS
 10
7.900354
 20
-12.289127
 11
7.900354
 21
-11.905491
  0
LINE
  5
39E
100
AcDbEntity
  8
0
100
AcDbLine
 62
7
  6
CONTINUOUS
 10
7.900354
 20
-11.069649
 11
7.900354
 21
-10.677279
  0
LINE
  5
39F
100
AcDbEntity
  8
0
100
AcDbLine
 62
7
  6
CONTINUOUS
 10
7.900354
 20
-9.888323
 11
7.900354
 21
-9.492079
  0
LINE
  5
3A0
100
AcDbEntity
  8
0
100
AcDbLine
 62
7
  6
CONTINUOUS
 10
7.900354
 20
-8.563305
 11
7.900354
 21
-8.167003
  0
LINE
  5
3A1
100
AcDbEntity
  8
0
100
AcDbLine
 62
7
  6
CONTINUOUS
 10
7.900354
 20
-7.431651
 11
7.900354
 21
-7.000851
  0
LINE
  5
3A2
100
AcDbEntity
  8
0
100
AcDbLine
 62
7
  6
CONTINUOUS
 10
7.900468
 20
-9.107046
 11
7.900468
 21
-8.710474
  0
LINE
  5
3A3
100
AcDbEntity
  8
DRAFT
100
AcDbLine
 62
7
  6
CONTINUOUS
 10
7.2084845302
 20
-19.7
 11
7.2195044567
 21
-19.0686688326
  0
LWPOLYLINE
  5
3A4
100
AcDbEntity
  8
0
100
AcDbPolyline
 62
7
  6
CONTINUOUS
 90
10
 70
0
 10
6.7440026937
 20
-13.5961089723
 10
6.7413961028
 20
-13.6280400464
 10
6.7344139421
 20
-13.6584286877
 10
6.7230562118
 20
-13.6872748963
 10
6.7068199258
 20
-13.7149712721
 10
6.6862080701
 20
-13.7411252151
 10
6.6627296028
 20
-13.7645589251
 10
6.6368875099
 20
-13.784879802
 10
6.6081788054
 20
-13.802480446
 10
6.5766034892
 20
-13.817360857
  0
LINE
  5
3A5
100
AcDbEntity
  8
DRAFT
100
AcDbLine
 62
7
  6
CONTINUOUS
 10
-0.4693607668
 20
-16.9868210911
 11
-0.5000951923
 21
-17.048294624
  0
LINE
  5
3A6
100
AcDbEntity
  8
RACCORDO
100
AcDbLine
 62
250
  6
CONTINUOUS
 10
-0.5000858815
 20
-17.5482759951
 11
-0.4519070312
 21
-17.4519109555
  0
LINE
  5
3A7
100
AcDbEntity
  8
RACCORDO
100
AcDbLine
 62
250
  6
CONTINUOUS
 10
0.4998667307
 20
-18.5481423133
 11
0.5394041794
 21
-18.4690613933
  0
LINE
  5
3A8
100
AcDbEntity
  8
DRAFT
100
AcDbLine
 62
7
  6
CONTINUOUS
 10
-9.5103594806
 20
-20.7603594806
 11
-9.65
 21
-20.9
  0
LINE
  5
3A9
100
AcDbEntity
  8
RACCORDO
100
AcDbLine
 62
250
  6
CONTINUOUS
 10
-7.500533067
 20
-19.0
 11
-6.9695944602
 21
-18.4690613933
  0
LWPOLYLINE
  5
3AA
100
AcDbEntity
  8
RACCORDO
100
AcDbPolyline
 62
7
  6
CONTINUOUS
 90
13
 70
0
 10
-9.7422764726
 20
18.1780586799
 10
-9.7594973468
 20
18.1921797893
 10
-9.782695415
 20
18.2065586767
 10
-9.8071350985
 20
18.2175597926
 10
-9.8328858706
 20
18.2250011642
 10
-9.8598782579
 20
18.2290647642
 10
-9.8866768348
 20
18.2295379904
 10
-9.9132575203
 20
18.2262380981
 10
-9.9396443954
 20
18.2193478318
 10
-9.9644742777
 20
18.2092028229
 10
-9.9872927728
 20
18.1959149486
 10
-10.0085542751
 20
18.1793723317
 10
-10.0282587846
 20
18.1595749722
  0
LINE
  5
3AB
100
AcDbEntity
  8
DRAFT
100
AcDbLine
 62
7
  6
CONTINUOUS
 10
-9.65
 20
20.9
 11
-9.5103594806
 21
20.7603594806
  0
LINE
  5
3AC
100
AcDbEntity
  8
RACCORDO
100
AcDbLine
 62
250
  6
CONTINUOUS
 10
-7.500533067
 20
19.0
 11
-6.9695944602
 21
18.4690613933
  0
LINE
  5
3AD
100
AcDbEntity
  8
RACCORDO
100
AcDbLine
 62
250
  6
CONTINUOUS
 10
6.55
 20
12.556714473
 11
6.6200282971
 21
12.063428946
  0
LWPOLYLINE
  5
3AE
100
AcDbEntity
  8
RACCORDO
100
AcDbPolyline
 62
250
  6
CONTINUOUS
 90
16
 70
0
 10
9.4692136981
 20
14.9695944602
 10
9.4544904255
 20
15.2350138258
 10
9.4138026276
 20
15.492260031
 10
9.3471503046
 20
15.7413330759
 10
9.2532612371
 20
15.9848433908
 10
9.1334076444
 20
16.2201805453
 10
8.9914061845
 20
16.4395132484
 10
8.8264088109
 20
16.6423020623
 10
8.6392635701
 20
16.8290864248
 10
8.4363312601
 20
16.9936533579
 10
8.2171520018
 20
17.1351485089
 10
7.9821856743
 20
17.2544262304
 10
7.7391727129
 20
17.3478366022
 10
7.4906932626
 20
17.414162984
 10
7.2341671784
 20
17.454622016
 10
6.9695944602
 20
17.4692136981
  0
LINE
  5
3AF
100
AcDbEntity
  8
RACCORDO
100
AcDbLine
 62
250
  6
CONTINUOUS
 10
9.4692136981
 20
-14.9695944602
 11
9.4692136981
 21
14.9695944602
  0
LINE
  5
3B0
100
AcDbEntity
  8
DRAFT
100
AcDbLine
 62
7
  6
CONTINUOUS
 10
9.5103594806
 20
-20.7603594806
 11
9.5103594806
 21
-18.3554413186
  0
LINE
  5
3B1
100
AcDbEntity
  8
DRAFT
100
AcDbLine
 62
7
  6
CONTINUOUS
 10
9.5103594806
 20
18.3554414599
 11
9.5103594806
 21
20.7603594806
  0
LINE
  5
3B2
100
AcDbEntity
  8
RACCORDO
100
AcDbLine
 62
7
  6
CONTINUOUS
 10
9.65
 20
-20.9
 11
9.65
 21
-18.2585027295
  0
LINE
  5
3B3
100
AcDbEntity
  8
RACCORDO
100
AcDbLine
 62
7
  6
CONTINUOUS
 10
9.65
 20
18.258502683
 11
9.65
 21
20.9
  0
LINE
  5
3B4
100
AcDbEntity
  8
RACCORDO
100
AcDbLine
 62
250
  6
CONTINUOUS
 10
10.4690613933
 20
-14.9695944602
 11
10.4690613933
 21
14.9695944602
  0
LWPOLYLINE
  5
3B5
100
AcDbEntity
  8
RACCORDO
100
AcDbPolyline
 62
250
  6
CONTINUOUS
 90
7
 70
0
 10
-6.6200080354
 20
-12.0634211109
 10
-6.6087445965
 20
-12.0593695483
 10
-6.5973158793
 20
-12.0560274668
 10
-6.5857239637
 20
-12.0534075039
 10
-6.5739715995
 20
-12.0515218609
 10
-6.5620622275
 20
-12.0503822764
 10
-6.55
 20
-12.05
  0
LINE
  5
3B6
100
AcDbEntity
  8
0
100
AcDbLine
 62
7
  6
CONTINUOUS
 10
7.900354
 20
-7.000851
 11
6.000508
 21
-7.603139
  0
LINE
  5
3B7
100
AcDbEntity
  8
RACCORDO
100
AcDbLine
 62
7
  6
CONTINUOUS
 10
0.75
 20
9.6966003769
 11
5.25
 21
9.6966003769
  0
LINE
  5
3B8
100
AcDbEntity
  8
RACCORDO
100
AcDbLine
 62
250
  6
CONTINUOUS
 10
0.75
 20
9.9965546854
 11
5.25
 21
9.9965546854
  0
LINE
  5
3B9
100
AcDbEntity
  8
RACCORDO
100
AcDbLine
 62
250
  6
CONTINUOUS
 10
5.25
 20
10.3
 11
0.75
 21
10.3
  0
LINE
  5
3BA
100
AcDbEntity
  8
RACCORDO
100
AcDbLine
 62
7
  6
CONTINUOUS
 10
5.25
 20
10.6
 11
0.75
 21
10.6
  0
LWPOLYLINE
  5
3BB
100
AcDbEntity
  8
RACCORDO
100
AcDbPolyline
 62
7
  6
CONTINUOUS
 90
3
 70
0
 10
-0.45
 20
13.9100458713
 10
-0.3964765857
 20
13.8672003682
 10
-0.2912318991
 20
13.7836545211
  0
LWPOLYLINE
  5
3BC
100
AcDbEntity
  8
RACCORDO
100
AcDbPolyline
 62
250
  6
CONTINUOUS
 90
16
 70
0
 10
10.4690613933
 20
14.9695944602
 10
10.4497965857
 20
15.3360287188
 10
10.39230907
 20
15.6982634036
 10
10.2972822772
 20
16.052330015
 10
10.1658441409
 20
16.3942822211
 10
9.9994658399
 20
16.7204747182
 10
9.7998660408
 20
17.027563741
 10
9.5691075814
 20
17.3122832989
 10
9.3097754134
 20
17.5713654779
 10
9.0248558199
 20
17.8018330235
 10
8.7175404922
 20
18.0011595247
 10
8.3911748523
 20
18.1672274125
 10
8.0493834983
 20
18.2982396352
 10
7.6959334563
 20
18.3928044114
 10
7.3346868217
 20
18.4499377401
 10
6.9695944602
 20
18.4690613933
  0
LWPOLYLINE
  5
3BD
100
AcDbEntity
  8
RACCORDO
100
AcDbPolyline
 62
7
  6
CONTINUOUS
 90
10
 70
0
 10
11.1238174026
 20
16.4544358981
 10
11.1211597977
 20
16.5274619072
 10
11.1132685454
 20
16.599557997
 10
11.1001436456
 20
16.6707241675
 10
11.0816090312
 20
16.7414729461
 10
11.0578407694
 20
16.8112918053
 10
11.0293670616
 20
16.878643163
 10
10.9963639749
 20
16.9430144919
 10
10.9586554422
 20
17.0049183193
 10
10.9162414635
 20
17.0643546451
  0
LINE
  5
3BE
100
AcDbEntity
  8
RACCORDO
100
AcDbLine
 62
7
  6
CONTINUOUS
 10
11.0
 20
-15.500533067
 11
11.0
 21
15.500533067
  0
LINE
  5
3BF
100
AcDbEntity
  8
RACCORDO
100
AcDbLine
 62
7
  6
CONTINUOUS
 10
11.1238174026
 20
-16.4544358981
 11
11.1238174026
 21
16.4544358981
  0
LINE
  5
3C0
100
AcDbEntity
  8
RACCORDO
100
AcDbLine
 62
7
  6
CONTINUOUS
 10
11.15
 20
-21.8997711479
 11
11.15
 21
21.8997711479
  0
LWPOLYLINE
  5
3C1
100
AcDbEntity
  8
RACCORDO
100
AcDbPolyline
 62
7
  6
CONTINUOUS
 90
10
 70
0
 10
11.15
 20
-16.4633444564
 10
11.1473544403
 20
-16.5362775359
 10
11.1394801106
 20
-16.6082971553
 10
11.126377011
 20
-16.6794033144
 10
11.1078721374
 20
-16.7501092027
 10
11.0841384939
 20
-16.8199016308
 10
11.0556950924
 20
-16.8872410307
 10
11.0227149368
 20
-16.9516142132
 10
10.9850250232
 20
-17.0135343676
 10
10.9426253515
 20
-17.0730014938
  0
LWPOLYLINE
  5
3C2
100
AcDbEntity
  8
0
100
AcDbPolyline
 62
7
  6
CONTINUOUS
 90
10
 70
0
 10
7.8581548119
 20
-13.9671795833
 10
7.8855338226
 20
-13.8707702089
 10
7.9060459288
 20
-13.770950563
 10
7.9196911305
 20
-13.6677206457
 10
7.9256990612
 20
-13.5606443724
 10
7.9248400875
 20
-13.4501578278
 10
7.9194253082
 20
-13.3375692652
 10
7.9102250897
 20
-13.2233147692
 10
7.8964690656
 20
-13.1069582553
 10
7.8781572359
 20
-12.9884997236
  0
LINE
  5
3C3
100
AcDbEntity
  8
0
100
AcDbLine
 62
7
  6
CONTINUOUS
 10
7.241072
 20
-9.785504
 11
6.000508
 21
-10.250732
  0
LINE
  5
3C4
100
AcDbEntity
  8
0
100
AcDbLine
 62
7
  6
CONTINUOUS
 10
6.845554
 20
-10.280707
 11
7.900354
 21
-9.888323
  0
LINE
  5
3C5
100
AcDbEntity
  8
RACCORDO
100
AcDbLine
 62
250
  6
CONTINUOUS
 10
-11.1238174026
 20
-16.4544358981
 11
-11.15
 21
-16.4633443083
  0
LWPOLYLINE
  5
3C6
100
AcDbEntity
  8
RACCORDO
100
AcDbPolyline
 62
250
  6
CONTINUOUS
 90
7
 70
0
 10
6.4544089061
 20
12.05
 10
6.4821682061
 20
12.0503753981
 10
6.5098881541
 20
12.0514998891
 10
6.5375503869
 20
12.0533705009
 10
6.5651365932
 20
12.0559837103
 10
6.5926285293
 20
12.0593354491
 10
6.6200080354
 20
12.0634211109
  0
LINE
  5
3C7
100
AcDbEntity
  8
RACCORDO
100
AcDbLine
 62
7
  6
CONTINUOUS
 10
2.3694122535
 20
12.05
 11
-0.45
 21
12.05
  0
LINE
  5
3C8
100
AcDbEntity
  8
RACCORDO
100
AcDbLine
 62
7
  6
CONTINUOUS
 10
3.6305877465
 20
12.05
 11
6.55
 21
12.05
  0
LWPOLYLINE
  5
3C9
100
AcDbEntity
  8
RACCORDO
100
AcDbPolyline
 62
250
  6
CONTINUOUS
 90
7
 70
0
 10
-0.45
 20
12.05
 10
-0.4620626032
 20
12.0503822947
 10
-0.4739721244
 20
12.0515219157
 10
-0.4857244183
 20
12.053407586
 10
-0.4973160526
 20
12.0560275399
 10
-0.5087442868
 20
12.0593695495
 10
-0.5200070512
 20
12.0634209509
  0
LWPOLYLINE
  5
3CA
100
AcDbEntity
  8
RACCORDO
100
AcDbPolyline
 62
250
  6
CONTINUOUS
 90
7
 70
0
 10
-0.5200070512
 20
12.0634209509
 10
-0.4926279815
 20
12.0593353749
 10
-0.4651363738
 20
12.0559836865
 10
-0.4375503869
 20
12.0533705009
 10
-0.4098882639
 20
12.051499895
 10
-0.3821683158
 20
12.0503754011
 10
-0.3544089061
 20
12.05
  0
LINE
  5
3CB
100
AcDbEntity
  8
RACCORDO
100
AcDbLine
 62
250
  6
CONTINUOUS
 10
-11.1238174026
 20
16.4544358981
 11
-11.15
 21
16.4633443083
  0
LWPOLYLINE
  5
3CC
100
AcDbEntity
  8
RACCORDO
100
AcDbPolyline
 62
7
  6
CONTINUOUS
 90
3
 70
0
 10
-0.4794345412
 20
13.9331383355
 10
-0.4747438299
 20
13.9295637132
 10
-0.45
 20
13.9100458713
  0
LINE
  5
3CD
100
AcDbEntity
  8
RACCORDO
100
AcDbLine
 62
7
  6
CONTINUOUS
 10
-0.0879115065
 20
13.6251038517
 11
0.0102631693
 21
13.55
  0
LINE
  5
3CE
100
AcDbEntity
  8
RACCORDO
100
AcDbLine
 62
7
  6
CONTINUOUS
 10
-0.1884032647
 20
13.7029820901
 11
-0.0879115065
 21
13.6251038517
  0
LINE
  5
3CF
100
AcDbEntity
  8
RACCORDO
100
AcDbLine
 62
7
  6
CONTINUOUS
 10
-0.2912318991
 20
13.7836545211
 11
-0.1884032647
 21
13.7029820901
  0
LINE
  5
3D0
100
AcDbEntity
  8
RACCORDO
100
AcDbLine
 62
250
  6
CONTINUOUS
 10
-10.9162414635
 20
-17.0643546451
 11
-10.9426253515
 21
-17.0730014938
  0
LINE
  5
3D1
100
AcDbEntity
  8
0
100
AcDbLine
 62
7
  6
CONTINUOUS
 10
6.000508
 20
-12.872047
 11
7.900354
 21
-12.289127
  0
LWPOLYLINE
  5
3D2
100
AcDbEntity
  8
RACCORDO
100
AcDbPolyline
 62
250
  6
CONTINUOUS
 90
7
 70
0
 10
6.4544089061
 20
12.55
 10
6.470623773
 20
12.5501968793
 10
6.4867254327
 20
12.5507635335
 10
6.5027138852
 20
12.5516999626
 10
6.5185891306
 20
12.5530061664
 10
6.5343511689
 20
12.5546821451
 10
6.55
 20
12.5567278987
  0
LINE
  5
3D3
100
AcDbEntity
  8
RACCORDO
100
AcDbLine
 62
250
  6
CONTINUOUS
 10
-0.3544089061
 20
12.55
 11
2.4835751963
 21
12.55
  0
LINE
  5
3D4
100
AcDbEntity
  8
RACCORDO
100
AcDbLine
 62
250
  6
CONTINUOUS
 10
3.5164248037
 20
12.55
 11
6.4544089061
 21
12.55
  0
LINE
  5
3D5
100
AcDbEntity
  8
RACCORDO
100
AcDbLine
 62
250
  6
CONTINUOUS
 10
6.9843104223
 20
12.556714473
 11
6.55
 21
12.556714473
  0
LINE
  5
3D6
100
AcDbEntity
  8
RACCORDO
100
AcDbLine
 62
250
  6
CONTINUOUS
 10
-0.45
 20
12.556714473
 11
-0.95
 21
12.556714473
  0
LINE
  5
3D7
100
AcDbEntity
  8
ASSI
100
AcDbLine
 62
7
  6
CONTINUOUS
 10
0.0102631693
 20
13.55
 11
2.2761847246
 21
13.55
  0
LINE
  5
3D8
100
AcDbEntity
  8
ASSI
100
AcDbLine
 62
7
  6
CONTINUOUS
 10
3.7238152754
 20
13.55
 11
6.0897368307
 21
13.55
  0
LINE
  5
3D9
100
AcDbEntity
  8
0
100
AcDbLine
 62
7
  6
CONTINUOUS
 10
-0.3595490716
 20
14.05
 11
1.8595490716
 21
14.05
  0
LINE
  5
3DA
100
AcDbEntity
  8
0
100
AcDbLine
 62
7
  6
CONTINUOUS
 10
4.1404509284
 20
14.05
 11
6.3595490716
 21
14.05
  0
LWPOLYLINE
  5
3DB
100
AcDbEntity
  8
RACCORDO
100
AcDbPolyline
 62
250
  6
CONTINUOUS
 90
7
 70
0
 10
-0.45
 20
12.5567278987
 10
-0.4343511689
 20
12.5546821451
 10
-0.4185891306
 20
12.5530061664
 10
-0.4027138852
 20
12.5516999626
 10
-0.3867254327
 20
12.5507635335
 10
-0.370623773
 20
12.5501968793
 10
-0.3544089061
 20
12.55
  0
LINE
  5
3DC
100
AcDbEntity
  8
RACCORDO
100
AcDbLine
 62
250
  6
CONTINUOUS
 10
-10.9162414635
 20
17.0643546451
 11
-10.9426253515
 21
17.0730014938
  0
LINE
  5
3DD
100
AcDbEntity
  8
DRAFT
100
AcDbLine
 62
7
  6
CONTINUOUS
 10
5.5306392332
 20
16.9868210911
 11
5.4999048077
 21
17.048294624
  0
LINE
  5
3DE
100
AcDbEntity
  8
RACCORDO
100
AcDbLine
 62
250
  6
CONTINUOUS
 10
5.5480929688
 20
17.4519109555
 11
5.4999145275
 21
17.5482751771
  0
LINE
  5
3DF
100
AcDbEntity
  8
RACCORDO
100
AcDbLine
 62
250
  6
CONTINUOUS
 10
10.0282587846
 20
-18.1595749722
 11
10.0017445951
 21
-18.2308351883
  0
LWPOLYLINE
  5
3E0
100
AcDbEntity
  8
0
100
AcDbPolyline
 62
7
  6
CONTINUOUS
 90
5
 70
0
 10
6.5766034892
 20
-13.817360857
 10
6.5150137341
 20
-13.8390037922
 10
6.4527359188
 20
-13.8598341562
 10
6.3897700432
 20
-13.8798519491
 10
6.3260056442
 20
-13.8987654127
  0
LINE
  5
3E1
100
AcDbEntity
  8
RACCORDO
100
AcDbLine
 62
7
  6
CONTINUOUS
 10
0.75
 20
14.8
 11
5.25
 21
14.8
  0
LINE
  5
3E2
100
AcDbEntity
  8
RACCORDO
100
AcDbLine
 62
250
  6
CONTINUOUS
 10
-9.4692136981
 20
14.9695944602
 11
-10.4690613933
 21
14.9695944602
  0
LINE
  5
3E3
100
AcDbEntity
  8
RACCORDO
100
AcDbLine
 62
250
  6
CONTINUOUS
 10
9.4692136981
 20
14.9695944602
 11
10.4690613933
 21
14.969594292
  0
LINE
  5
3E4
100
AcDbEntity
  8
RACCORDO
100
AcDbLine
 62
250
  6
CONTINUOUS
 10
0.75
 20
15.1
 11
5.25
 21
15.1
  0
LINE
  5
3E5
100
AcDbEntity
  8
RACCORDO
100
AcDbLine
 62
250
  6
CONTINUOUS
 10
5.25
 20
15.4034453146
 11
0.75
 21
15.4034453146
  0
LINE
  5
3E6
100
AcDbEntity
  8
RACCORDO
100
AcDbLine
 62
7
  6
CONTINUOUS
 10
5.25
 20
15.7033996231
 11
0.75
 21
15.7033996231
  0
LINE
  5
3E7
100
AcDbEntity
  8
RACCORDO
100
AcDbLine
 62
250
  6
CONTINUOUS
 10
6.5394041794
 20
18.4690613933
 11
6.4998667307
 21
18.5481423133
  0
LINE
  5
3E8
100
AcDbEntity
  8
RACCORDO
100
AcDbLine
 62
250
  6
CONTINUOUS
 10
10.0017445951
 20
18.2308351883
 11
10.0282587846
 21
18.1595749722
  0
LINE
  5
3E9
100
AcDbEntity
  8
DRAFT
100
AcDbLine
 62
7
  6
CONTINUOUS
 10
0.4519070312
 20
16.9519109613
 11
5.5480929688
 21
16.9519109613
  0
LINE
  5
3EA
100
AcDbEntity
  8
DRAFT
100
AcDbLine
 62
7
  6
CONTINUOUS
 10
0.4693607668
 20
16.9868210911
 11
5.5306392332
 21
16.9868210911
  0
LINE
  5
3EB
100
AcDbEntity
  8
RACCORDO
100
AcDbLine
 62
250
  6
CONTINUOUS
 10
6.9695944602
 20
17.4692136981
 11
5.5480929688
 21
17.4692136981
  0
LINE
  5
3EC
100
AcDbEntity
  8
RACCORDO
100
AcDbLine
 62
250
  6
CONTINUOUS
 10
0.4519070312
 20
17.4692136981
 11
-6.9695944602
 21
17.4692136981
  0
LWPOLYLINE
  5
3ED
100
AcDbEntity
  8
RACCORDO
100
AcDbPolyline
 62
7
  6
CONTINUOUS
 90
10
 70
0
 10
10.9162414635
 20
-17.0643546451
 10
10.9586823142
 20
-17.0048682175
 10
10.9964088005
 20
-16.942926065
 10
11.0294209226
 20
-16.8785281876
 10
11.0578918137
 20
-16.8111610595
 10
11.0816483406
 20
-16.7413382064
 10
11.1001711029
 20
-16.6706002061
 10
11.1132869673
 20
-16.5994605841
 10
11.1211690672
 20
-16.5274058148
 10
11.1238174026
 20
-16.4544358981
  0
LINE
  5
3EE
100
AcDbEntity
  8
DRAFT
100
AcDbLine
 62
7
  6
CONTINUOUS
 10
4.25
 20
18.9685808831
 11
4.5673885653
 21
19.0
  0
LWPOLYLINE
  5
3EF
100
AcDbEntity
  8
RACCORDO
100
AcDbPolyline
 62
7
  6
CONTINUOUS
 90
13
 70
0
 10
6.5394041794
 20
18.4690613933
 10
6.4293150794
 20
18.4612929786
 10
6.3211160643
 20
18.4412265319
 10
6.2148071342
 20
18.4082265337
 10
6.1087537079
 20
18.3620993925
 10
6.0045903665
 20
18.3024710806
 10
5.9072208533
 20
18.2282319151
 10
5.8155904413
 20
18.1395079501
 10
5.7307538574
 20
18.0363109273
 10
5.6607790258
 20
17.9167382214
 10
5.6083552545
 20
17.7806311137
 10
5.5707932355
 20
17.6305249554
 10
5.5480929688
 20
17.4692136981
  0
LWPOLYLINE
  5
3F0
100
AcDbEntity
  8
RACCORDO
100
AcDbPolyline
 62
250
  6
CONTINUOUS
 90
16
 70
0
 10
-6.9695944602
 20
17.4692136981
 10
-7.2350138258
 20
17.4544904255
 10
-7.492260031
 20
17.4138026276
 10
-7.7413330759
 20
17.3471503046
 10
-7.9848433908
 20
17.2532612371
 10
-8.2201805453
 20
17.1334076444
 10
-8.4395132484
 20
16.9914061845
 10
-8.6423020623
 20
16.8264088109
 10
-8.8290864248
 20
16.6392635701
 10
-8.9936533579
 20
16.4363312601
 10
-9.1351485089
 20
16.2171520018
 10
-9.2544262304
 20
15.9821856743
 10
-9.3478366022
 20
15.7391727129
 10
-9.414162984
 20
15.4906932626
 10
-9.454622016
 20
15.2341671784
 10
-9.4692136981
 20
14.9695944602
  0
LWPOLYLINE
  5
3F1
100
AcDbEntity
  8
RACCORDO
100
AcDbPolyline
 62
250
  6
CONTINUOUS
 90
16
 70
0
 10
-6.9695944602
 20
18.4690613933
 10
-7.3360287188
 20
18.4497965857
 10
-7.6982634036
 20
18.39230907
 10
-8.052330015
 20
18.2972822772
 10
-8.3942822211
 20
18.1658441409
 10
-8.7204747182
 20
17.9994658399
 10
-9.027563741
 20
17.7998660408
 10
-9.3122832989
 20
17.5691075814
 10
-9.5713654779
 20
17.3097754134
 10
-9.8018330235
 20
17.0248558199
 10
-10.0011595247
 20
16.7175404922
 10
-10.1672274125
 20
16.3911748523
 10
-10.2982396352
 20
16.0493834983
 10
-10.3928044114
 20
15.6959334563
 10
-10.4499377401
 20
15.3346868217
 10
-10.4690613933
 20
14.9695944602
  0
LINE
  5
3F2
100
AcDbEntity
  8
DRAFT
100
AcDbLine
 62
7
  6
CONTINUOUS
 10
-3.2635064284
 20
19.0360211209
 11
-3.5699041346
 21
19.0208965595
  0
LINE
  5
3F3
100
AcDbEntity
  8
RACCORDO
100
AcDbLine
 62
250
  6
CONTINUOUS
 10
6.9695944602
 20
18.4690613933
 11
6.5394041794
 21
18.4690613933
  0
LINE
  5
3F4
100
AcDbEntity
  8
RACCORDO
100
AcDbLine
 62
250
  6
CONTINUOUS
 10
-0.5394041794
 20
18.4690613933
 11
-6.9695944602
 21
18.4690613933
  0
LINE
  5
3F5
100
AcDbEntity
  8
RACCORDO
100
AcDbLine
 62
7
  6
CONTINUOUS
 10
-1.4669721784
 20
18.9185155063
 11
1.4669721784
 21
18.9185155063
  0
LINE
  5
3F6
100
AcDbEntity
  8
DRAFT
100
AcDbLine
 62
7
  6
CONTINUOUS
 10
-4.25
 20
18.9685808831
 11
-2.5
 21
18.9685808831
  0
LINE
  5
3F7
100
AcDbEntity
  8
DRAFT
100
AcDbLine
 62
7
  6
CONTINUOUS
 10
2.5
 20
18.9685808831
 11
4.25
 21
18.9685808831
  0
LINE
  5
3F8
100
AcDbEntity
  8
DRAFT
100
AcDbLine
 62
7
  6
CONTINUOUS
 10
-2.7295886809
 20
18.9904395897
 11
-2.5
 21
18.9904395897
  0
LINE
  5
3F9
100
AcDbEntity
  8
DRAFT
100
AcDbLine
 62
7
  6
CONTINUOUS
 10
2.5
 20
18.9904395897
 11
2.7295886809
 21
18.9904395897
  0
LINE
  5
3FA
100
AcDbEntity
  8
RACCORDO
100
AcDbLine
 62
7
  6
CONTINUOUS
 10
-7.500533067
 20
19.0
 11
-4.5673885653
 21
19.0
  0
LINE
  5
3FB
100
AcDbEntity
  8
RACCORDO
100
AcDbLine
 62
7
  6
CONTINUOUS
 10
7.500533067
 20
19.0
 11
4.5673885653
 21
19.0
  0
LINE
  5
3FC
100
AcDbEntity
  8
DRAFT
100
AcDbLine
 62
7
  6
CONTINUOUS
 10
-4.2127354653
 20
19.0165591163
 11
-3.7025132132
 21
19.0165591163
  0
LINE
  5
3FD
100
AcDbEntity
  8
DRAFT
100
AcDbLine
 62
7
  6
CONTINUOUS
 10
3.7025132132
 20
19.0165591163
 11
4.2127354653
 21
19.0165591163
  0
LINE
  5
3FE
100
AcDbEntity
  8
DRAFT
100
AcDbLine
 62
7
  6
CONTINUOUS
 10
-3.5699041346
 20
19.0208965595
 11
-2.8190167476
 21
19.0208965595
  0
LINE
  5
3FF
100
AcDbEntity
  8
DRAFT
100
AcDbLine
 62
7
  6
CONTINUOUS
 10
2.8190167476
 20
19.0208965595
 11
3.5699041346
 21
19.0208965595
  0
LINE
  5
400
100
AcDbEntity
  8
DRAFT
100
AcDbLine
 62
7
  6
CONTINUOUS
 10
-3.2635064284
 20
19.0360211209
 11
-2.8188847576
 21
19.0360211209
  0
LINE
  5
401
100
AcDbEntity
  8
DRAFT
100
AcDbLine
 62
7
  6
CONTINUOUS
 10
2.8188847576
 20
19.0360211209
 11
3.2635064284
 21
19.0360211209
  0
LINE
  5
402
100
AcDbEntity
  8
DRAFT
100
AcDbLine
 62
7
  6
CONTINUOUS
 10
4.218841225
 20
19.0393461217
 11
3.7086189729
 21
19.0393461217
  0
LINE
  5
403
100
AcDbEntity
  8
DRAFT
100
AcDbLine
 62
7
  6
CONTINUOUS
 10
-3.7086189729
 20
19.0393461217
 11
-4.218841225
 21
19.0393461217
  0
LINE
  5
404
100
AcDbEntity
  8
DRAFT
100
AcDbLine
 62
7
  6
CONTINUOUS
 10
2.8188092697
 20
19.0446711717
 11
1.0891456037
 21
19.0446711717
  0
LINE
  5
405
100
AcDbEntity
  8
DRAFT
100
AcDbLine
 62
7
  6
CONTINUOUS
 10
-1.0891456037
 20
19.0446711717
 11
-2.8188092697
 21
19.0446711717
  0
LINE
  5
406
100
AcDbEntity
  8
DRAFT
100
AcDbLine
 62
7
  6
CONTINUOUS
 10
-2.7459745197
 20
19.0515923727
 11
-0.6247179508
 21
19.0515923727
  0
LINE
  5
407
100
AcDbEntity
  8
DRAFT
100
AcDbLine
 62
7
  6
CONTINUOUS
 10
0.6247179508
 20
19.0515923727
 11
2.7459745197
 21
19.0515923727
  0
LINE
  5
408
100
AcDbEntity
  8
DRAFT
100
AcDbLine
 62
7
  6
CONTINUOUS
 10
-6.0819690456
 20
19.0610787705
 11
-0.6248835365
 21
19.0610787705
  0
LINE
  5
409
100
AcDbEntity
  8
DRAFT
100
AcDbLine
 62
7
  6
CONTINUOUS
 10
0.6248835365
 20
19.0610787705
 11
6.0819690456
 21
19.0610787705
  0
LINE
  5
40A
100
AcDbEntity
  8
DRAFT
100
AcDbLine
 62
7
  6
CONTINUOUS
 10
-7.2195044567
 20
19.0686688326
 11
7.2195044567
 21
19.0686688326
  0
LINE
  5
40B
100
AcDbEntity
  8
DRAFT
100
AcDbLine
 62
7
  6
CONTINUOUS
 10
3.5699041346
 20
19.0208965595
 11
3.2635064284
 21
19.0360211209
  0
LWPOLYLINE
  5
40C
100
AcDbEntity
  8
RACCORDO
100
AcDbPolyline
 62
7
  6
CONTINUOUS
 90
13
 70
0
 10
-0.5394041794
 20
18.4690613933
 10
-0.4334423732
 20
18.4614153388
 10
-0.3255165707
 20
18.4417000277
 10
-0.2171266121
 20
18.4090748544
 10
-0.1103729483
 20
18.3630226287
 10
-0.0067244441
 20
18.3030392478
 10
0.0927628153
 20
18.2282458399
 10
0.1849013126
 20
18.1391036412
 10
0.2678088202
 20
18.035299414
 10
0.340615765
 20
17.9140109598
 10
0.3992482616
 20
17.7745041253
 10
0.437992938
 20
17.6194930523
 10
0.4519070312
 20
17.4519109555
  0
LINE
  5
40D
100
AcDbEntity
  8
DRAFT
100
AcDbLine
 62
7
  6
CONTINUOUS
 10
-4.5673885653
 20
19.0
 11
-4.25
 21
18.9685808831
  0
LWPOLYLINE
  5
40E
100
AcDbEntity
  8
RACCORDO
100
AcDbPolyline
 62
250
  6
CONTINUOUS
 90
25
 70
0
 10
5.4999142792
 20
17.5482681332
 10
5.4761448251
 20
17.5563924787
 10
5.4105378454
 20
17.5641249835
 10
5.3041071493
 20
17.5714656475
 10
5.1585010907
 20
17.5785265696
 10
4.976134682
 20
17.5851956509
 10
4.7602837152
 20
17.5911365951
 10
4.5147750125
 20
17.5963100654
 10
4.2436981311
 20
17.6007553984
 10
3.9515523775
 20
17.6042543074
 10
3.6432348373
 20
17.6067596978
 10
3.3240106802
 20
17.608318664
 10
2.999312601
 20
17.608854203
 10
2.674660323
 20
17.6083149995
 10
2.355532789
 20
17.6067523687
 10
2.0473033501
 20
17.6042432529
 10
1.7552273115
 20
17.6007408187
 10
1.4842169688
 20
17.5962918996
 10
1.2387620998
 20
17.5911139382
 10
1.022871282
 20
17.5851637321
 10
0.8405151056
 20
17.5784844838
 10
0.6951618193
 20
17.5714232433
 10
0.5891233194
 20
17.5640956938
 10
0.5238166809
 20
17.5563861521
 10
0.5000951923
 20
17.5482946182
  0
LWPOLYLINE
  5
40F
100
AcDbEntity
  8
RACCORDO
100
AcDbPolyline
 62
7
  6
CONTINUOUS
 90
10
 70
0
 10
10.9426253515
 20
17.0730014938
 10
10.9849983628
 20
17.0135840559
 10
11.0226704521
 20
16.951701972
 10
11.0556416195
 20
16.8873552421
 10
11.0840877635
 20
16.8200317504
 10
11.1078329855
 20
16.7502436126
 10
11.1263495897
 20
16.6795271765
 10
11.1394616776
 20
16.6083945578
 10
11.1473451477
 20
16.5363336408
 10
11.15
 20
16.4633444254
  0
LWPOLYLINE
  5
410
100
AcDbEntity
  8
RACCORDO
100
AcDbPolyline
 62
7
  6
CONTINUOUS
 90
15
 70
0
 10
10.001744595
 20
-18.2308351884
 10
9.9820200823
 20
-18.2505580468
 10
9.9607472828
 20
-18.267031179
 10
9.9379261963
 20
-18.2802545848
 10
9.9131034604
 20
-18.290339477
 10
9.8867324377
 20
-18.297174643
 10
9.8601732158
 20
-18.3004264446
 10
9.8334020108
 20
-18.2999124211
 10
9.8064426068
 20
-18.2958150333
 10
9.7807264436
 20
-18.2883480253
 10
9.7563231348
 20
-18.2773301624
 10
9.733163067
 20
-18.2629426793
 10
9.7124688394
 20
-18.2459430241
 10
9.6943713673
 20
-18.226212183
 10
9.6915939475
 20
-18.2222422886
  0
LINE
  5
411
100
AcDbEntity
  8
DRAFT
100
AcDbLine
 62
7
  6
CONTINUOUS
 10
7.5226756989
 20
-20.7603594806
 11
7.3830351795
 21
-20.9
  0
LINE
  5
412
100
AcDbEntity
  8
DRAFT
100
AcDbLine
 62
7
  6
CONTINUOUS
 10
7.3568525821
 20
-19.0
 11
7.2195044567
 21
-19.0686688326
  0
LINE
  5
413
100
AcDbEntity
  8
DRAFT
100
AcDbLine
 62
7
  6
CONTINUOUS
 10
3.434596365
 20
21.2139629885
 11
3.1516814075
 21
21.199923836
  0
LINE
  5
414
100
AcDbEntity
  8
DRAFT
100
AcDbLine
 62
7
  6
CONTINUOUS
 10
2.700388948
 20
21.1802222394
 11
3.0984611006
 21
21.199923836
  0
LINE
  5
415
100
AcDbEntity
  8
DRAFT
100
AcDbLine
 62
7
  6
CONTINUOUS
 10
-7.2084845302
 20
19.7
 11
7.2084845302
 21
19.7
  0
LINE
  5
416
100
AcDbEntity
  8
DRAFT
100
AcDbLine
 62
7
  6
CONTINUOUS
 10
7.2084845302
 20
19.9483339502
 11
-7.2084845302
 21
19.9483339502
  0
LINE
  5
417
100
AcDbEntity
  8
DRAFT
100
AcDbLine
 62
7
  6
CONTINUOUS
 10
-9.5103594806
 20
20.7603594806
 11
-7.5226756989
 21
20.7603594806
  0
LINE
  5
418
100
AcDbEntity
  8
DRAFT
100
AcDbLine
 62
7
  6
CONTINUOUS
 10
7.5226756989
 20
20.7603594806
 11
9.5103594806
 21
20.7603594806
  0
LINE
  5
419
100
AcDbEntity
  8
DRAFT
100
AcDbLine
 62
7
  6
CONTINUOUS
 10
-9.65
 20
20.9
 11
-7.3830351795
 21
20.9
  0
LINE
  5
41A
100
AcDbEntity
  8
DRAFT
100
AcDbLine
 62
7
  6
CONTINUOUS
 10
7.3830351795
 20
20.9
 11
9.65
 21
20.9
  0
LINE
  5
41B
100
AcDbEntity
  8
DRAFT
100
AcDbLine
 62
7
  6
CONTINUOUS
 10
-3.434596365
 20
21.2139629885
 11
-3.1516814075
 21
21.199923836
  0
LINE
  5
41C
100
AcDbEntity
  8
DRAFT
100
AcDbLine
 62
7
  6
CONTINUOUS
 10
-3.0984611006
 20
21.199923836
 11
-2.700388948
 21
21.1802222394
  0
LWPOLYLINE
  5
41D
100
AcDbEntity
  8
RACCORDO
100
AcDbPolyline
 62
250
  6
CONTINUOUS
 90
25
 70
0
 10
6.4998667307
 20
18.5481423133
 10
6.4632027049
 20
18.5562243923
 10
6.3723710377
 20
18.5639264536
 10
6.2273717291
 20
18.5712484972
 10
6.0239341694
 20
18.578306037
 10
5.7663289684
 20
18.5849835591
 10
5.4673679555
 20
18.5909345215
 10
5.125068991
 20
18.5961170238
 10
4.7414142146
 20
18.6005729664
 10
4.3351618759
 20
18.6040815093
 10
3.9050397266
 20
18.6065957606
 10
3.4523200149
 20
18.6081626123
 10
2.9995777352
 20
18.6087018997
 10
2.5467972135
 20
18.6081604031
 10
2.0939941239
 20
18.6065913423
 10
1.6637904821
 20
18.6040742119
 10
1.2574612643
 20
18.6005620336
 10
0.8737314944
 20
18.5961017858
 10
0.5313982606
 20
18.5909138972
 10
0.2324378895
 20
18.5849534981
 10
-0.0251259454
 20
18.5782654583
 10
-0.2284251358
 20
18.5712048161
 10
-0.373170312
 20
18.5638899176
 10
-0.4636508437
 20
18.5562024166
 10
-0.4998667307
 20
18.5481423133
  0
LINE
  5
41E
100
AcDbEntity
  8
DRAFT
100
AcDbLine
 62
7
  6
CONTINUOUS
 10
7.2195044567
 20
19.0686688326
 11
7.3568525821
 21
19.0
  0
LINE
  5
41F
100
AcDbEntity
  8
DRAFT
100
AcDbLine
 62
7
  6
CONTINUOUS
 10
7.5226756989
 20
20.7603594806
 11
7.3830351795
 21
20.9
  0
LWPOLYLINE
  5
420
100
AcDbEntity
  8
RACCORDO
100
AcDbPolyline
 62
7
  6
CONTINUOUS
 90
13
 70
0
 10
10.0282587846
 20
18.1595749722
 10
10.0085542751
 20
18.1793723317
 10
9.9872927728
 20
18.1959149486
 10
9.9644742777
 20
18.2092028229
 10
9.9396443954
 20
18.2193478318
 10
9.9132575203
 20
18.2262380981
 10
9.8866768348
 20
18.2295379904
 10
9.8598782579
 20
18.2290647642
 10
9.8328858706
 20
18.2250011642
 10
9.8071350985
 20
18.2175597926
 10
9.782695415
 20
18.2065586767
 10
9.7594973468
 20
18.1921797893
 10
9.7422764847
 20
18.1780586899
  0
LINE
  5
421
100
AcDbEntity
  8
DRAFT
100
AcDbLine
 62
7
  6
CONTINUOUS
 10
-7.3830351795
 20
20.9
 11
-7.238215003
 21
20.9317102097
  0
LINE
  5
422
100
AcDbEntity
  8
DRAFT
100
AcDbLine
 62
7
  6
CONTINUOUS
 10
3.0104834329
 20
22.1955695989
 11
3.1
 21
22.2
  0
LINE
  5
423
100
AcDbEntity
  8
DRAFT
100
AcDbLine
 62
7
  6
CONTINUOUS
 10
-6.9587505924
 20
21.1802222394
 11
-2.700388948
 21
21.1802222394
  0
LINE
  5
424
100
AcDbEntity
  8
DRAFT
100
AcDbLine
 62
7
  6
CONTINUOUS
 10
2.700388948
 20
21.1802222394
 11
6.9587505924
 21
21.1802222394
  0
LINE
  5
425
100
AcDbEntity
  8
DRAFT
100
AcDbLine
 62
7
  6
CONTINUOUS
 10
3.1516814075
 20
21.199923836
 11
3.0984611006
 21
21.199923836
  0
LINE
  5
426
100
AcDbEntity
  8
DRAFT
100
AcDbLine
 62
7
  6
CONTINUOUS
 10
-3.0984611006
 20
21.199923836
 11
-3.1516814075
 21
21.199923836
  0
LINE
  5
427
100
AcDbEntity
  8
DRAFT
100
AcDbLine
 62
7
  6
CONTINUOUS
 10
-6.9712561167
 20
21.2139629885
 11
-3.434596365
 21
21.2139629885
  0
LINE
  5
428
100
AcDbEntity
  8
DRAFT
100
AcDbLine
 62
7
  6
CONTINUOUS
 10
3.434596365
 20
21.2139629885
 11
6.9712561167
 21
21.2139629885
  0
LINE
  5
429
100
AcDbEntity
  8
DRAFT
100
AcDbLine
 62
7
  6
CONTINUOUS
 10
3.0104834329
 20
22.1955695989
 11
-3.0104834329
 21
22.1955695989
  0
LINE
  5
42A
100
AcDbEntity
  8
DRAFT
100
AcDbLine
 62
7
  6
CONTINUOUS
 10
3.3821231691
 20
22.2
 11
-3.3821231691
 21
22.2
  0
LINE
  5
42B
100
AcDbEntity
  8
DRAFT
100
AcDbLine
 62
7
  6
CONTINUOUS
 10
10.6503805997
 20
22.4
 11
5.55
 21
22.4
  0
LINE
  5
42C
100
AcDbEntity
  8
DRAFT
100
AcDbLine
 62
7
  6
CONTINUOUS
 10
-5.55
 20
22.4
 11
-10.6503805997
 21
22.4
  0
LINE
  5
42D
100
AcDbEntity
  8
DRAFT
100
AcDbLine
 62
7
  6
CONTINUOUS
 10
-3.1
 20
22.2
 11
-3.0104834329
 21
22.1955695989
  0
LINE
  5
42E
100
AcDbEntity
  8
DRAFT
100
AcDbLine
 62
7
  6
CONTINUOUS
 10
7.3830351795
 20
20.9
 11
7.238215003
 21
20.9317102097
  0
LINE
  5
42F
100
AcDbEntity
  8
DRAFT
100
AcDbLine
 62
7
  6
CONTINUOUS
 10
3.0
 20
23.5
 11
2.7812783412
 21
23.4781828305
  0
LINE
  5
430
100
AcDbEntity
  8
DRAFT
100
AcDbLine
 62
7
  6
CONTINUOUS
 10
3.9630152422
 20
23.4650925288
 11
-3.9630152422
 21
23.4650925288
  0
LINE
  5
431
100
AcDbEntity
  8
DRAFT
100
AcDbLine
 62
7
  6
CONTINUOUS
 10
-2.7812783412
 20
23.4781828305
 11
2.7812783412
 21
23.4781828305
  0
LINE
  5
432
100
AcDbEntity
  8
DRAFT
100
AcDbLine
 62
7
  6
CONTINUOUS
 10
3.9733373476
 20
23.5
 11
3.0
 21
23.5
  0
LINE
  5
433
100
AcDbEntity
  8
DRAFT
100
AcDbLine
 62
7
  6
CONTINUOUS
 10
-3.0
 20
23.5
 11
-3.9733373476
 21
23.5
  0
LINE
  5
434
100
AcDbEntity
  8
DRAFT
100
AcDbLine
 62
7
  6
CONTINUOUS
 10
-3.0
 20
23.5
 11
-2.7812783412
 21
23.4781828305
  0
ARC
  5
435
100
AcDbEntity
  8
RACCORDO
100
AcDbCircle
 62
7
  6
CONTINUOUS
 10
-0.75
 20
-12.7
 40
3.0033996099
100
AcDbArc
 50
270.0
 51
90.0
  0
ARC
  5
436
100
AcDbEntity
  8
RACCORDO
100
AcDbCircle
 62
7
  6
CONTINUOUS
 10
-5.25
 20
-12.7
 40
3.0033996099
100
AcDbArc
 50
90.0
 51
270.0
  0
ARC
  5
437
100
AcDbEntity
  8
RACCORDO
100
AcDbCircle
 62
250
  6
CONTINUOUS
 10
-5.25
 20
-12.7
 40
2.7034109283
100
AcDbArc
 50
90.0
 51
270.0
  0
ARC
  5
438
100
AcDbEntity
  8
RACCORDO
100
AcDbCircle
 62
250
  6
CONTINUOUS
 10
-0.75
 20
-12.7
 40
2.7034109283
100
AcDbArc
 50
270.0
 51
90.0
  0
ARC
  5
439
100
AcDbEntity
  8
RACCORDO
100
AcDbCircle
 62
250
  6
CONTINUOUS
 10
-5.25
 20
-12.7
 40
2.3998262144
100
AcDbArc
 50
90.0
 51
270.0
  0
ARC
  5
43A
100
AcDbEntity
  8
RACCORDO
100
AcDbCircle
 62
250
  6
CONTINUOUS
 10
-0.75
 20
-12.7
 40
2.3998262144
100
AcDbArc
 50
270.0
 51
90.0
  0
ARC
  5
43B
100
AcDbEntity
  8
RACCORDO
100
AcDbCircle
 62
7
  6
CONTINUOUS
 10
-5.25
 20
-12.7
 40
2.1
100
AcDbArc
 50
90.0
 51
270.0
  0
ARC
  5
43C
100
AcDbEntity
  8
RACCORDO
100
AcDbCircle
 62
7
  6
CONTINUOUS
 10
-0.75
 20
-12.7
 40
2.1
100
AcDbArc
 50
270.0
 51
90.0
  0
CIRCLE
  5
43D
100
AcDbEntity
  8
DRAFT
100
AcDbCircle
 62
7
  6
CONTINUOUS
 10
-0.75
 20
-12.7
 40
1.7849101299
  0
CIRCLE
  5
43E
100
AcDbEntity
  8
DRAFT
100
AcDbCircle
 62
7
  6
CONTINUOUS
 10
-5.25
 20
-12.7
 40
1.7849101299
  0
CIRCLE
  5
43F
100
AcDbEntity
  8
DRAFT
100
AcDbCircle
 62
7
  6
CONTINUOUS
 10
-0.75
 20
-12.7
 40
1.75
  0
CIRCLE
  5
440
100
AcDbEntity
  8
DRAFT
100
AcDbCircle
 62
7
  6
CONTINUOUS
 10
-5.25
 20
-12.7
 40
1.75
  0
ARC
  5
441
100
AcDbEntity
  8
DRAFT
100
AcDbCircle
 62
7
  6
CONTINUOUS
 10
-5.85
 20
-12.7
 40
1.5
100
AcDbArc
 50
90.0
 51
103.870045496
  0
ARC
  5
442
100
AcDbEntity
  8
ASSI
100
AcDbCircle
 62
7
  6
CONTINUOUS
 10
-5.85
 20
-12.7
 40
1.5
100
AcDbArc
 50
295.7525319727
 51
314.4643904116
  0
ARC
  5
443
100
AcDbEntity
  8
ASSI
100
AcDbCircle
 62
7
  6
CONTINUOUS
 10
-5.85
 20
-12.7
 40
1.5
100
AcDbArc
 50
45.5356095884
 51
90.0
  0
ARC
  5
444
100
AcDbEntity
  8
ASSI
100
AcDbCircle
 62
7
  6
CONTINUOUS
 10
-0.25
 20
-12.7
 40
1.5
100
AcDbArc
 50
225.5356095884
 51
244.2474680273
  0
ARC
  5
445
100
AcDbEntity
  8
ASSI
100
AcDbCircle
 62
7
  6
CONTINUOUS
 10
-0.25
 20
-12.7
 40
1.5
100
AcDbArc
 50
68.7738814152
 51
134.4643904116
  0
ARC
  5
446
100
AcDbEntity
  8
RACCORDO
100
AcDbCircle
 62
7
  6
CONTINUOUS
 10
-6.55
 20
-12.55
 40
0.5
100
AcDbArc
 50
90.0
 51
137.8957791763
  0
ARC
  5
447
100
AcDbEntity
  8
DRAFT
100
AcDbCircle
 62
7
  6
CONTINUOUS
 10
-4.95
 20
-23.1
 40
0.5
100
AcDbArc
 50
350.803718421
 51
119.112422776
  0
ARC
  5
448
100
AcDbEntity
  8
DRAFT
100
AcDbCircle
 62
7
  6
CONTINUOUS
 10
-11.25
 20
-0.0
 40
28.0
100
AcDbArc
 50
55.8789063483
 51
57.0647695028
  0
ARC
  5
449
100
AcDbEntity
  8
DRAFT
100
AcDbCircle
 62
7
  6
CONTINUOUS
 10
-11.25
 20
-0.0
 40
28.0
100
AcDbArc
 50
302.9352304972
 51
304.1210936517
  0
ARC
  5
44A
100
AcDbEntity
  8
RACCORDO
100
AcDbCircle
 62
7
  6
CONTINUOUS
 10
-11.25
 20
-0.0
 40
28.0
100
AcDbArc
 50
37.5714323886
 51
40.6246834584
  0
ARC
  5
44B
100
AcDbEntity
  8
DRAFT
100
AcDbCircle
 62
7
  6
CONTINUOUS
 10
-11.25
 20
-0.0
 40
28.0
100
AcDbArc
 50
48.2819495688
 51
54.0372348486
  0
ARC
  5
44C
100
AcDbEntity
  8
RACCORDO
100
AcDbCircle
 62
7
  6
CONTINUOUS
 10
-11.25
 20
-0.0
 40
28.0
100
AcDbArc
 50
319.3753165416
 51
322.4285676114
  0
ARC
  5
44D
100
AcDbEntity
  8
DRAFT
100
AcDbCircle
 62
7
  6
CONTINUOUS
 10
-11.25
 20
-0.0
 40
28.0
100
AcDbArc
 50
305.9627651514
 51
311.7180504312
  0
ARC
  5
44E
100
AcDbEntity
  8
RACCORDO
100
AcDbCircle
 62
7
  6
CONTINUOUS
 10
-11.25
 20
-0.0
 40
27.9738174026
100
AcDbArc
 50
37.5903456883
 51
40.4785462054
  0
ARC
  5
44F
100
AcDbEntity
  8
RACCORDO
100
AcDbCircle
 62
7
  6
CONTINUOUS
 10
-11.25
 20
-0.0
 40
27.9738174026
100
AcDbArc
 50
319.5214537946
 51
322.4096543117
  0
ARC
  5
450
100
AcDbEntity
  8
DRAFT
100
AcDbCircle
 62
7
  6
CONTINUOUS
 10
-11.25
 20
-0.0
 40
27.9650925288
100
AcDbArc
 50
55.8421853344
 51
57.0436344285
  0
ARC
  5
451
100
AcDbEntity
  8
DRAFT
100
AcDbCircle
 62
7
  6
CONTINUOUS
 10
-11.25
 20
-0.0
 40
27.9650925288
100
AcDbArc
 50
49.3398118699
 51
54.0739558625
  0
ARC
  5
452
100
AcDbEntity
  8
DRAFT
100
AcDbCircle
 62
7
  6
CONTINUOUS
 10
-11.25
 20
-0.0
 40
27.9650925288
100
AcDbArc
 50
305.9260441375
 51
310.6601881301
  0
ARC
  5
453
100
AcDbEntity
  8
DRAFT
100
AcDbCircle
 62
7
  6
CONTINUOUS
 10
-11.25
 20
-0.0
 40
27.9650925288
100
AcDbArc
 50
302.9563655715
 51
304.1578146656
  0
ARC
  5
454
100
AcDbEntity
  8
RACCORDO
100
AcDbCircle
 62
7
  6
CONTINUOUS
 10
-0.45
 20
12.55
 40
0.5
100
AcDbArc
 50
180.0
 51
270.0
  0
ARC
  5
455
100
AcDbEntity
  8
DRAFT
100
AcDbCircle
 62
7
  6
CONTINUOUS
 10
-4.95
 20
23.1
 40
0.5
100
AcDbArc
 50
240.887577224
 51
9.1962815791
  0
ARC
  5
456
100
AcDbEntity
  8
RACCORDO
100
AcDbCircle
 62
7
  6
CONTINUOUS
 10
0.45
 20
-12.55
 40
0.5
100
AcDbArc
 50
0.0
 51
90.0
  0
ARC
  5
457
100
AcDbEntity
  8
DRAFT
100
AcDbCircle
 62
7
  6
CONTINUOUS
 10
4.95
 20
-23.1
 40
0.5
100
AcDbArc
 50
60.887577224
 51
189.196281579
  0
CIRCLE
  5
458
100
AcDbEntity
  8
0
100
AcDbCircle
 62
7
  6
CONTINUOUS
 10
0.0
 20
-0.0
 40
3.75
  0
CIRCLE
  5
459
100
AcDbEntity
  8
0
100
AcDbCircle
 62
7
  6
CONTINUOUS
 10
0.0
 20
-0.0
 40
3.5
  0
ARC
  5
45A
100
AcDbEntity
  8
RACCORDO
100
AcDbCircle
 62
7
  6
CONTINUOUS
 10
5.25
 20
12.7
 40
3.0033996099
100
AcDbArc
 50
270.0
 51
90.0
  0
ARC
  5
45B
100
AcDbEntity
  8
RACCORDO
100
AcDbCircle
 62
7
  6
CONTINUOUS
 10
0.75
 20
12.7
 40
3.0033996099
100
AcDbArc
 50
90.0
 51
270.0
  0
ARC
  5
45C
100
AcDbEntity
  8
RACCORDO
100
AcDbCircle
 62
250
  6
CONTINUOUS
 10
5.25
 20
12.7
 40
2.7034109283
100
AcDbArc
 50
270.0
 51
90.0
  0
ARC
  5
45D
100
AcDbEntity
  8
RACCORDO
100
AcDbCircle
 62
250
  6
CONTINUOUS
 10
0.75
 20
12.7
 40
2.7034109283
100
AcDbArc
 50
90.0
 51
270.0
  0
ARC
  5
45E
100
AcDbEntity
  8
RACCORDO
100
AcDbCircle
 62
250
  6
CONTINUOUS
 10
0.75
 20
12.7
 40
2.3998262144
100
AcDbArc
 50
90.0
 51
270.0
  0
ARC
  5
45F
100
AcDbEntity
  8
RACCORDO
100
AcDbCircle
 62
250
  6
CONTINUOUS
 10
5.25
 20
12.7
 40
2.3998262144
100
AcDbArc
 50
270.0
 51
90.0
  0
ARC
  5
460
100
AcDbEntity
  8
RACCORDO
100
AcDbCircle
 62
7
  6
CONTINUOUS
 10
5.25
 20
12.7
 40
2.1
100
AcDbArc
 50
270.0
 51
90.0
  0
ARC
  5
461
100
AcDbEntity
  8
RACCORDO
100
AcDbCircle
 62
7
  6
CONTINUOUS
 10
0.75
 20
12.7
 40
2.1
100
AcDbArc
 50
90.0
 51
270.0
  0
CIRCLE
  5
462
100
AcDbEntity
  8
DRAFT
100
AcDbCircle
 62
7
  6
CONTINUOUS
 10
5.25
 20
12.7
 40
1.7849101299
  0
CIRCLE
  5
463
100
AcDbEntity
  8
DRAFT
100
AcDbCircle
 62
7
  6
CONTINUOUS
 10
0.75
 20
12.7
 40
1.7849101299
  0
CIRCLE
  5
464
100
AcDbEntity
  8
DRAFT
100
AcDbCircle
 62
7
  6
CONTINUOUS
 10
5.25
 20
12.7
 40
1.75
  0
CIRCLE
  5
465
100
AcDbEntity
  8
DRAFT
100
AcDbCircle
 62
7
  6
CONTINUOUS
 10
0.75
 20
12.7
 40
1.75
  0
ARC
  5
466
100
AcDbEntity
  8
ASSI
100
AcDbCircle
 62
7
  6
CONTINUOUS
 10
0.25
 20
12.7
 40
1.5
100
AcDbArc
 50
248.7738814152
 51
314.4643904116
  0
ARC
  5
467
100
AcDbEntity
  8
ASSI
100
AcDbCircle
 62
7
  6
CONTINUOUS
 10
0.25
 20
12.7
 40
1.5
100
AcDbArc
 50
45.5356095884
 51
64.2474680273
  0
ARC
  5
468
100
AcDbEntity
  8
DRAFT
100
AcDbCircle
 62
7
  6
CONTINUOUS
 10
4.95
 20
23.1
 40
0.5
100
AcDbArc
 50
170.803718421
 51
299.112422776
  0
ARC
  5
469
100
AcDbEntity
  8
DRAFT
100
AcDbCircle
 62
7
  6
CONTINUOUS
 10
11.25
 20
-0.0
 40
28.0
100
AcDbArc
 50
122.9352304972
 51
124.1210936517
  0
ARC
  5
46A
100
AcDbEntity
  8
DRAFT
100
AcDbCircle
 62
7
  6
CONTINUOUS
 10
11.25
 20
-0.0
 40
28.0
100
AcDbArc
 50
235.8789063483
 51
237.0647695028
  0
ARC
  5
46B
100
AcDbEntity
  8
RACCORDO
100
AcDbCircle
 62
7
  6
CONTINUOUS
 10
11.25
 20
-0.0
 40
28.0
100
AcDbArc
 50
139.3753165416
 51
142.4285676114
  0
ARC
  5
46C
100
AcDbEntity
  8
DRAFT
100
AcDbCircle
 62
7
  6
CONTINUOUS
 10
11.25
 20
-0.0
 40
28.0
100
AcDbArc
 50
125.9627651514
 51
131.7180504312
  0
ARC
  5
46D
100
AcDbEntity
  8
RACCORDO
100
AcDbCircle
 62
7
  6
CONTINUOUS
 10
11.25
 20
-0.0
 40
28.0
100
AcDbArc
 50
217.5714323886
 51
220.6246834584
  0
ARC
  5
46E
100
AcDbEntity
  8
DRAFT
100
AcDbCircle
 62
7
  6
CONTINUOUS
 10
11.25
 20
-0.0
 40
28.0
100
AcDbArc
 50
228.2819495688
 51
234.0372348486
  0
ARC
  5
46F
100
AcDbEntity
  8
RACCORDO
100
AcDbCircle
 62
7
  6
CONTINUOUS
 10
11.25
 20
-0.0
 40
27.9738174026
100
AcDbArc
 50
217.5903456883
 51
220.4785462054
  0
ARC
  5
470
100
AcDbEntity
  8
RACCORDO
100
AcDbCircle
 62
7
  6
CONTINUOUS
 10
11.25
 20
-0.0
 40
27.9738174026
100
AcDbArc
 50
139.5214537946
 51
142.4096543117
  0
ARC
  5
471
100
AcDbEntity
  8
DRAFT
100
AcDbCircle
 62
7
  6
CONTINUOUS
 10
11.25
 20
-0.0
 40
27.9650925288
100
AcDbArc
 50
122.9563655715
 51
124.1578146656
  0
ARC
  5
472
100
AcDbEntity
  8
DRAFT
100
AcDbCircle
 62
7
  6
CONTINUOUS
 10
11.25
 20
-0.0
 40
27.9650925288
100
AcDbArc
 50
125.9260441375
 51
130.6601881301
  0
ARC
  5
473
100
AcDbEntity
  8
DRAFT
100
AcDbCircle
 62
7
  6
CONTINUOUS
 10
11.25
 20
-0.0
 40
27.9650925288
100
AcDbArc
 50
235.8421853344
 51
237.0436344285
  0
ARC
  5
474
100
AcDbEntity
  8
DRAFT
100
AcDbCircle
 62
7
  6
CONTINUOUS
 10
11.25
 20
-0.0
 40
27.9650925288
100
AcDbArc
 50
229.3398118699
 51
234.0739558625
  0
ARC
  5
475
100
AcDbEntity
  8
DRAFT
100
AcDbCircle
 62
7
  6
CONTINUOUS
 10
5.85
 20
12.7
 40
1.5
100
AcDbArc
 50
270.0
 51
283.870045496
  0
ARC
  5
476
100
AcDbEntity
  8
ASSI
100
AcDbCircle
 62
7
  6
CONTINUOUS
 10
5.85
 20
12.7
 40
1.5
100
AcDbArc
 50
115.7525319727
 51
134.4643904116
  0
ARC
  5
477
100
AcDbEntity
  8
ASSI
100
AcDbCircle
 62
7
  6
CONTINUOUS
 10
5.85
 20
12.7
 40
1.5
100
AcDbArc
 50
225.5356095884
 51
270.0
  0
ARC
  5
478
100
AcDbEntity
  8
RACCORDO
100
AcDbCircle
 62
7
  6
CONTINUOUS
 10
6.55
 20
12.55
 40
0.5
100
AcDbArc
 50
270.0
 51
317.8957791763
  0
ELLIPSE
  5
479
100
AcDbEntity
  8
0
100
AcDbEllipse
 62
7
  6
CONTINUOUS
 10
10.649923836
 20
21.899313827
 30
0.0
 11
0.1582391023
 21
0.4751033573
 31
0.0
 40
0.9984778551
 41
-1.2488325878
 42
0.3210503505
  0
ELLIPSE
  5
47A
100
AcDbEntity
  8
DRAFT
100
AcDbEllipse
 62
7
  6
CONTINUOUS
 10
2.6626535246
 20
-18.999453231
 30
0.0
 11
1.0351171978
 21
0.0005829051
 31
0.0
 40
0.0086896184
 41
6.2855084353
 42
7.7892672639
  0
ELLIPSE
  5
47B
100
AcDbEntity
  8
DRAFT
100
AcDbEllipse
 62
7
  6
CONTINUOUS
 10
-2.6626535246
 20
-18.999453231
 30
0.0
 11
1.0351171978
 21
-0.0005829051
 31
0.0
 40
0.0086896184
 41
7.918696004
 42
9.4224548326
  0
ELLIPSE
  5
47C
100
AcDbEntity
  8
0
100
AcDbEllipse
 62
7
  6
CONTINUOUS
 10
10.649923836
 20
-21.899313827
 30
0.0
 11
-0.1582391023
 21
0.4751033573
 31
0.0
 40
0.9984778551
 41
2.8205423031
 42
4.3904252414
  0
ELLIPSE
  5
47D
100
AcDbEntity
  8
0
100
AcDbEllipse
 62
7
  6
CONTINUOUS
 10
-10.649923836
 20
21.899313827
 30
0.0
 11
-0.1582391023
 21
0.4751033573
 31
0.0
 40
0.9984778551
 41
-0.3210503505
 42
1.2488325878
  0
ELLIPSE
  5
47E
100
AcDbEntity
  8
DRAFT
100
AcDbEllipse
 62
7
  6
CONTINUOUS
 10
-2.6626535246
 20
18.999453231
 30
0.0
 11
1.0351171978
 21
0.0005829051
 31
0.0
 40
0.0086896184
 41
3.1439157817
 42
4.6476746103
  0
ELLIPSE
  5
47F
100
AcDbEntity
  8
DRAFT
100
AcDbEllipse
 62
7
  6
CONTINUOUS
 10
2.6626535246
 20
18.999453231
 30
0.0
 11
1.0351171978
 21
-0.0005829051
 31
0.0
 40
0.0086896184
 41
4.7771033504
 42
6.280862179
  0
ELLIPSE
  5
480
100
AcDbEntity
  8
0
100
AcDbEllipse
 62
7
  6
CONTINUOUS
 10
-10.649923836
 20
-21.899313827
 30
0.0
 11
0.1582391023
 21
0.4751033573
 31
0.0
 40
0.9984778551
 41
1.8927600658
 42
3.4626430041
  0
ELLIPSE
  5
481
100
AcDbEntity
  8
DRAFT
100
AcDbEllipse
 62
7
  6
CONTINUOUS
 10
4.4
 20
-19.0174537356
 30
0.0
 11
0.5
 21
0.0
 31
0.0
 40
0.0087268678
 41
-0.0
 42
1.5707963268
  0
ELLIPSE
  5
482
100
AcDbEntity
  8
DRAFT
100
AcDbEllipse
 62
7
  6
CONTINUOUS
 10
-4.4
 20
-19.0174537356
 30
0.0
 11
0.5
 21
0.0
 31
0.0
 40
0.0087268678
 41
1.5707963268
 42
3.1415926536
  0
ELLIPSE
  5
483
100
AcDbEntity
  8
DRAFT
100
AcDbEllipse
 62
7
  6
CONTINUOUS
 10
0.0
 20
19.0959995212
 30
0.0
 11
5.9816386486
 21
-0.0
 31
0.0
 40
0.0087268678
 41
-1.7538992292
 42
-1.3876934244
  0
ELLIPSE
  5
484
100
AcDbEntity
  8
DRAFT
100
AcDbEllipse
 62
7
  6
CONTINUOUS
 10
-0.0
 20
-19.096003473
 30
0.0
 11
5.9632745348
 21
-0.0
 31
0.0
 40
0.0087268679
 41
1.3874179174
 42
1.7541747362
  0
ELLIPSE
  5
485
100
AcDbEntity
  8
DRAFT
100
AcDbEllipse
 62
7
  6
CONTINUOUS
 10
-4.1926549184
 20
19.0192632087
 30
0.0
 11
0.3105351593
 21
0.0001748715
 31
0.0
 40
0.0086896184
 41
-3.1392695254
 42
-1.6355106969
  0
ELLIPSE
  5
486
100
AcDbEntity
  8
DRAFT
100
AcDbEllipse
 62
7
  6
CONTINUOUS
 10
4.1926549184
 20
19.0192632087
 30
0.0
 11
0.3105351593
 21
-0.0001748715
 31
0.0
 40
0.0086896184
 41
-1.5060819567
 42
-0.0023231281
  0
ELLIPSE
  5
487
100
AcDbEntity
  8
DRAFT
100
AcDbEllipse
 62
7
  6
CONTINUOUS
 10
11.25
 20
-0.4174491839
 30
0.0
 11
0.0
 21
27.6175146083
 31
0.0
 40
0.9998857561
 41
-3.8751476846
 42
-3.8616054291
  0
ELLIPSE
  5
488
100
AcDbEntity
  8
DRAFT
100
AcDbEllipse
 62
7
  6
CONTINUOUS
 10
-11.25
 20
-0.4174491839
 30
0.0
 11
0.0
 21
27.6175146083
 31
0.0
 40
0.9998857561
 41
-2.421579878
 42
-2.4080376226
  0
ELLIPSE
  5
489
100
AcDbEntity
  8
DRAFT
100
AcDbEllipse
 62
7
  6
CONTINUOUS
 10
11.25
 20
0.4174491839
 30
0.0
 11
-0.0
 21
27.6175146083
 31
0.0
 40
0.9998857561
 41
0.7200127755
 42
0.733555031
  0
ELLIPSE
  5
48A
100
AcDbEntity
  8
DRAFT
100
AcDbEllipse
 62
7
  6
CONTINUOUS
 10
-11.25
 20
0.4174491839
 30
0.0
 11
0.0
 21
27.6175146083
 31
0.0
 40
0.9998857561
 41
-0.733555031
 42
-0.7200127755
  0
ELLIPSE
  5
48B
100
AcDbEntity
  8
DRAFT
100
AcDbEllipse
 62
7
  6
CONTINUOUS
 10
-1.8381022908
 20
-19.0083943541
 30
0.0
 11
1.0001523861
 21
-0.0000039892
 31
0.0
 40
0.0087281959
 41
8.5779437939
 42
9.4249303468
  0
ELLIPSE
  5
48C
100
AcDbEntity
  8
DRAFT
100
AcDbEllipse
 62
7
  6
CONTINUOUS
 10
1.8381022908
 20
-19.0083943541
 30
0.0
 11
1.0001523861
 21
0.0000039892
 31
0.0
 40
0.0087281959
 41
6.2830329211
 42
7.1300194741
  0
ELLIPSE
  5
48D
100
AcDbEntity
  8
DRAFT
100
AcDbEllipse
 62
7
  6
CONTINUOUS
 10
1.8190863261
 20
19.0085603039
 30
0.0
 11
1.0000380871
 21
-0.0000013295
 31
0.0
 40
0.0087275323
 41
5.4622477028
 42
6.2832614828
  0
ELLIPSE
  5
48E
100
AcDbEntity
  8
DRAFT
100
AcDbEllipse
 62
7
  6
CONTINUOUS
 10
-1.8190863261
 20
19.0085603039
 30
0.0
 11
1.0000380871
 21
0.0000013295
 31
0.0
 40
0.0087275323
 41
3.141516478
 42
3.962530258
  0
ELLIPSE
  5
48F
100
AcDbEntity
  8
DRAFT
100
AcDbEllipse
 62
7
  6
CONTINUOUS
 10
4.4
 20
-19.0383982183
 30
0.0
 11
0.5
 21
-0.0
 31
0.0
 40
0.0087268678
 41
-1.5707963268
 42
-0.0
  0
ELLIPSE
  5
490
100
AcDbEntity
  8
DRAFT
100
AcDbEllipse
 62
7
  6
CONTINUOUS
 10
-4.4
 20
-19.0383982183
 30
0.0
 11
0.5
 21
0.0
 31
0.0
 40
0.0087268678
 41
-3.1415926536
 42
-1.5707963268
  0
ELLIPSE
  5
491
100
AcDbEntity
  8
DRAFT
100
AcDbEllipse
 62
7
  6
CONTINUOUS
 10
-4.1973081629
 20
19.0366293534
 30
0.0
 11
0.3106324671
 21
-0.0001883409
 31
0.0
 40
0.0087248833
 41
1.6401773169
 42
3.1439361455
  0
ELLIPSE
  5
492
100
AcDbEntity
  8
DRAFT
100
AcDbEllipse
 62
7
  6
CONTINUOUS
 10
4.1973081629
 20
19.0366293534
 30
0.0
 11
0.3106324671
 21
0.0001883409
 31
0.0
 40
0.0087248833
 41
-0.0023434919
 42
1.5014153367
  0
ELLIPSE
  5
493
100
AcDbEntity
  8
DRAFT
100
AcDbEllipse
 62
7
  6
CONTINUOUS
 10
2.674197646
 20
-19.0425364784
 30
0.0
 11
1.0354415569
 21
-0.0006278029
 31
0.0
 40
0.0087248833
 41
-1.5014153367
 42
0.0023434919
  0
ELLIPSE
  5
494
100
AcDbEntity
  8
DRAFT
100
AcDbEllipse
 62
7
  6
CONTINUOUS
 10
-2.674197646
 20
-19.0425364784
 30
0.0
 11
1.0354415569
 21
0.0006278029
 31
0.0
 40
0.0087248833
 41
3.1392491617
 42
4.6430079903
  0
ELLIPSE
  5
495
100
AcDbEntity
  8
DRAFT
100
AcDbEllipse
 62
7
  6
CONTINUOUS
 10
-2.674197646
 20
19.0425364784
 30
0.0
 11
1.0354415569
 21
-0.0006278029
 31
0.0
 40
0.0087248833
 41
1.6401773169
 42
3.1439361455
  0
ELLIPSE
  5
496
100
AcDbEntity
  8
DRAFT
100
AcDbEllipse
 62
7
  6
CONTINUOUS
 10
2.674197646
 20
19.0425364784
 30
0.0
 11
1.0354415569
 21
0.0006278029
 31
0.0
 40
0.0087248833
 41
-0.0023434919
 42
1.5014153367
  0
ELLIPSE
  5
497
100
AcDbEntity
  8
RACCORDO
100
AcDbEllipse
 62
7
  6
CONTINUOUS
 10
7.4994668518
 20
-15.4994668518
 30
0.0
 11
2.4756276621
 21
-2.4756276621
 31
0.0
 40
0.9996954599
 41
-0.7852458701
 42
0.7852458701
  0
ELLIPSE
  5
498
100
AcDbEntity
  8
RACCORDO
100
AcDbEllipse
 62
7
  6
CONTINUOUS
 10
7.4994668518
 20
15.4994668518
 30
0.0
 11
2.4756276621
 21
2.4756276621
 31
0.0
 40
0.9996954599
 41
-0.7852458701
 42
0.7852458701
  0
ELLIPSE
  5
499
100
AcDbEntity
  8
RACCORDO
100
AcDbEllipse
 62
7
  6
CONTINUOUS
 10
-7.4994668518
 20
15.4994668518
 30
0.0
 11
2.4756276621
 21
-2.4756276621
 31
0.0
 40
0.9996954599
 41
2.3563467834
 42
3.9268385237
  0
ELLIPSE
  5
49A
100
AcDbEntity
  8
RACCORDO
100
AcDbEllipse
 62
7
  6
CONTINUOUS
 10
-7.4994668518
 20
-15.4994668518
 30
0.0
 11
2.4756276621
 21
2.4756276621
 31
0.0
 40
0.9996954599
 41
-3.9268385237
 42
-2.3563467834
  0
ELLIPSE
  5
49B
100
AcDbEntity
  8
DRAFT
100
AcDbEllipse
 62
7
  6
CONTINUOUS
 10
3.0
 20
17.0479138184
 30
0.0
 11
2.5
 21
0.0
 31
0.0
 40
0.0174550649
 41
6.2919119534
 42
9.4160513145
  0
ELLIPSE
  5
49C
100
AcDbEntity
  8
DRAFT
100
AcDbEllipse
 62
7
  6
CONTINUOUS
 10
-3.0
 20
-17.0479138184
 30
0.0
 11
2.5
 21
-0.0
 31
0.0
 40
0.0174550649
 41
-3.1328660073
 42
-0.0087266463
  0
ELLIPSE
  5
49D
100
AcDbEntity
  8
RACCORDO
100
AcDbEllipse
 62
7
  6
CONTINUOUS
 10
-1.467452248
 20
18.9361854591
 30
0.0
 11
1.0000047088
 21
-0.0000084854
 31
0.0
 40
0.0176698676
 41
-3.1239243248
 42
-1.5703161095
  0
ELLIPSE
  5
49E
100
AcDbEntity
  8
RACCORDO
100
AcDbEllipse
 62
7
  6
CONTINUOUS
 10
1.467452248
 20
18.9361854591
 30
0.0
 11
1.0000047088
 21
0.0000084854
 31
0.0
 40
0.0176698676
 41
-1.5712765441
 42
-0.0176683288
  0
ELLIPSE
  5
49F
100
AcDbEntity
  8
RACCORDO
100
AcDbEllipse
 62
7
  6
CONTINUOUS
 10
-1.467452248
 20
-18.9361854591
 30
0.0
 11
1.0000047088
 21
0.0000084854
 31
0.0
 40
0.0176698676
 41
1.5703161095
 42
3.1239243248
  0
ELLIPSE
  5
4A0
100
AcDbEntity
  8
RACCORDO
100
AcDbEllipse
 62
7
  6
CONTINUOUS
 10
1.467452248
 20
-18.9361854591
 30
0.0
 11
1.0000047088
 21
-0.0000084854
 31
0.0
 40
0.0176698676
 41
0.0176683288
 42
1.5712765441
  0
ENDSEC
  0
SECTION
  2
OBJECTS
  0
DICTIONARY
  5
C
100
AcDbDictionary
280
0
281
1
  3
ACAD_GROUP
350
D
  3
ACAD_MLINESTYLE
350
17
  3
ACAD_LAYOUT
350
1A
  3
ACAD_PLOTSETTINGS
350
19
  3
ACAD_PLOTSTYLENAME
350
E
  0
DICTIONARY
  5
D
102
{ACAD_REACTORS
330
C
102
}
100
AcDbDictionary
280
0
281
1
  0
ACDBDICTIONARYWDFLT
  5
E
102
{ACAD_REACTORS
330
C
102
}
100
AcDbDictionary
281
1
  3
Normal
350
F
100
AcDbDictionaryWithDefault
340
F
  0
DICTIONARY
  5
17
102
{ACAD_REACTORS
330
C
102
}
100
AcDbDictionary
280
0
281
1
  3
Standard
350
18
  0
DICTIONARY
  5
19
102
{ACAD_REACTORS
330
C
102
}
100
AcDbDictionary
281
1
  0
DICTIONARY
  5
1A
102
{ACAD_REACTORS
330
C
102
}
100
AcDbDictionary
281
1
  3
Model
350
4A1
  3
Layout1
350
4A2
  0
ACDBPLACEHOLDER
  5
F
102
{ACAD_REACTORS
330
E
102
}
  0
MLINESTYLE
  5
18
102
{ACAD_REACTORS
330
17
102
}
100
AcDbMlineStyle
  2
STANDARD
 70
0
  3

 62
256
 51
90.0
 52
90.0
 71
2
 49
0.5
 62
256
  6
BYLAYER
 49
-0.5
 62
256
  6
BYLAYER
  0
LAYOUT
  5
4A1
102
{ACAD_REACTORS
330
1A
102
}
100
AcDbPlotSettings
  1

  2
none_device
  4
ISO_A4_(297.00_x_210.00_MM)
  6

 40
0.0
 41
0.0
 42
0.0
 43
0.0
 44
297.0
 45
210.0
 46
0.0
 47
0.0
 48
0.0
 49
0.0
140
0.0
141
0.0
142
1.0
143
1.0
 70
1024
 72
1
 73
0
 74
0
  7

 75
0
147
1.0
148
0.0
149
0.0
100
AcDbLayout
  1
Model
 70
0
 71
0
 10
0.0
 20
0.0
 11
297.0
 21
210.0
 12
0.0
 22
0.0
 32
0.0
 14
0.0
 24
0.0
 34
0.0
 15
0.0
 25
0.0
 35
0.0
146
0.0
 13
0.0
 23
0.0
 33
0.0
 16
1.0
 26
0.0
 36
0.0
 17
0.0
 27
1.0
 37
0.0
 76
0
330
218
345
0
346
0
  0
LAYOUT
  5
4A2
102
{ACAD_REACTORS
330
1A
102
}
100
AcDbPlotSettings
  1

  2
none_device
  4
ISO_A4_(297.00_x_210.00_MM)
  6

 40
0.0
 41
0.0
 42
0.0
 43
0.0
 44
297.0
 45
210.0
 46
0.0
 47
0.0
 48
0.0
 49
0.0
140
0.0
141
0.0
142
1.0
143
1.0
 70
0
 72
1
 73
0
 74
0
  7

 75
0
147
1.0
148
0.0
149
0.0
100
AcDbLayout
  1
Layout1
 70
0
 71
1
 10
0.0
 20
0.0
 11
297.0
 21
210.0
 12
0.0
 22
0.0
 32
0.0
 14
0.0
 24
0.0
 34
0.0
 15
0.0
 25
0.0
 35
0.0
146
0.0
 13
0.0
 23
0.0
 33
0.0
 16
1.0
 26
0.0
 36
0.0
 17
0.0
 27
1.0
 37
0.0
 76
0
330
219
345
0
346
0
  0
ENDSEC
  0
EOF
