  0
SECTION
  2
HEADER
  9
$ACADVER
  1
AC1024
  9
$DWGCODEPAGE
  3
ANSI_1252
  9
$EXTMAX
 10
297.0
 20
210.0
 30
0.0
  9
$EXTMIN
 10
0.0
 20
0.0
 30
0.0
  9
$LIMMIN
 10
0.0
 20
0.0
  9
$LIMMAX
 10
297.0
 20
210.0
  9
$VIEWCTR
 10
148.5
 20
105.0
  9
$VIEWSIZE
 40
210.0
  9
$CLAYER
  8
0
  9
$LTSCALE
 40
16.335
  9
$CELTYPE
  6
BYLAYER
  9
$DIMSCALE
 40
1.0
  9
$DIMASZ
 40
3.0
  9
$DIMEXO
 40
0.5
  9
$DIMDLI
 40
11.286
  9
$DIMEXE
 40
1.5
  9
$DIMCEN
 40
2.673
  9
$DIMLFAC
 40
1.0
  9
$DIMBLK
  1
_FILLED
  9
$DIMALT
 70
0
  9
$DIMALTF
 40
0.0393700787
  9
$DIMTXT
 40
3.0
  9
$DIMTOL
 70
1
  9
$DIMLIM
 70
0
  9
$DIMTFAC
 40
1.0
  9
$DIMTP
 40
0.01
  9
$DIMTM
 40
0.01
  9
$DIMGAP
 40
0.625
  9
$DIMDSEP
 70
44
  9
$AUNITS
 70
0
  9
$PDMODE
 70
3
  9
$PDSIZE
 40
3.0
  9
$HANDSEED
  5
805
  9
$TILEMODE
 70
1
  9
$MEASUREMENT
 70
1
  9
$INSUNITS
 70
4
  0
ENDSEC
  0
SECTION
  2
CLASSES
  0
CLASS
  1
ACDBDICTIONARYWDFLT
  2
AcDbDictionaryWithDefault
  3
AutoCAD 2000
 90
0
 91
1
280
0
281
0
  0
CLASS
  1
ACDBPLACEHOLDER
  2
AcDbPlaceHolder
  3
AutoCAD 2000
 90
0
 91
1
280
0
281
0
  0
CLASS
  1
LAYOUT
  2
AcDbLayout
  3
AutoCAD 2000
 90
0
 91
0
280
0
281
0
  0
ENDSEC
  0
SECTION
  2
TABLES
  0
TABLE
  2
VPORT
  5
8
100
AcDbSymbolTable
 70
2
  0
VPORT
  5
1F4
100
AcDbSymbolTableRecord
100
AcDbViewportTableRecord
  2
*ACTIVE
 70
0
 10
0.0
 20
0.0
 11
1.0
 21
1.0
 12
148.5
 22
105.0
 13
0.0
 23
0.0
 14
1.0
 24
1.0
 15
0.0
 25
0.0
 16
0.0
 26
0.0
 36
1.0
 17
0.0
 27
0.0
 37
0.0
 40
210.0
 41
1.4142857143
 42
50.0
 43
0.0
 44
0.0
 50
0.0
 51
0.0
 71
0
 72
100
 73
1
 74
1
 75
0
 76
0
 77
0
 78
0
  0
ENDTAB
  0
TABLE
  2
LTYPE
  5
5
100
AcDbSymbolTable
 70
6
  0
LTYPE
  5
14
100
AcDbSymbolTableRecord
100
AcDbLinetypeTableRecord
  2
BYBLOCK
 70
0
  3

 72
65
 73
0
 40
0.0
  0
LTYPE
  5
15
100
AcDbSymbolTableRecord
100
AcDbLinetypeTableRecord
  2
BYLAYER
 70
0
  3

 72
65
 73
0
 40
0.0
  0
LTYPE
  5
16
100
AcDbSymbolTableRecord
100
AcDbLinetypeTableRecord
  2
CONTINUOUS
 70
64
  3
Solid line
 72
65
 73
0
 40
0.0
  0
LTYPE
  5
1F5
100
AcDbSymbolTableRecord
100
AcDbLinetypeTableRecord
  2
CENTER
 70
64
  3
____ _ ____ _ ____ _ ____ _ ____ _ ____ _ ____
 72
65
 73
4
 40
0.6
 49
0.375
 74
0
 49
-0.075
 74
0
 49
0.075
 74
0
 49
-0.075
 74
0
  0
LTYPE
  5
1F6
100
AcDbSymbolTableRecord
100
AcDbLinetypeTableRecord
  2
HIDDEN
 70
64
  3
- - - - - - - - - - - - - - - - - - - -
 72
65
 73
2
 40
0.2
 49
0.1
 74
0
 49
-0.1
 74
0
  0
LTYPE
  5
1F7
100
AcDbSymbolTableRecord
100
AcDbLinetypeTableRecord
  2
PHANTOM
 70
64
  3
_____ _ _ _____ _ _ _____ _ _ _____
 72
65
 73
6
 40
0.8
 49
0.45
 74
0
 49
-0.05
 74
0
 49
0.1
 74
0
 49
-0.05
 74
0
 49
0.1
 74
0
 49
-0.05
 74
0
  0
LTYPE
  5
1F8
100
AcDbSymbolTableRecord
100
AcDbLinetypeTableRecord
  2
DOT
 70
64
  3
. . . . . . . . . . . . . . . . . . . .
 72
65
 73
2
 40
0.2
 49
0.1
 74
0
 49
-0.1
 74
0
  0
LTYPE
  5
1F9
100
AcDbSymbolTableRecord
100
AcDbLinetypeTableRecord
  2
DASHED
 70
64
  3
- - - - - - - - - - - - - - - - - - - -
 72
65
 73
2
 40
0.2
 49
0.1
 74
0
 49
-0.1
 74
0
  0
ENDTAB
  0
TABLE
  2
LAYER
  5
2
100
AcDbSymbolTable
 70
36
  0
LAYER
  5
10
100
AcDbSymbolTableRecord
100
AcDbLayerTableRecord
  2
0
 70
0
 62
7
  6
CONTINUOUS
370
-3
390
F
  0
LAYER
  5
1FA
100
AcDbSymbolTableRecord
100
AcDbLayerTableRecord
  2
DEFAULT_1
 70
0
 62
7
  6
CENTER
370
-3
390
F
  0
LAYER
  5
1FB
100
AcDbSymbolTableRecord
100
AcDbLayerTableRecord
  2
DEFAULT_2
 70
0
 62
7
  6
HIDDEN
370
-3
390
F
  0
LAYER
  5
1FC
100
AcDbSymbolTableRecord
100
AcDbLayerTableRecord
  2
DEFAULT_3
 70
0
 62
7
  6
PHANTOM
370
-3
390
F
  0
LAYER
  5
1FD
100
AcDbSymbolTableRecord
100
AcDbLayerTableRecord
  2
ASSI
 70
0
 62
7
  6
CONTINUOUS
370
-3
390
F
  0
LAYER
  5
1FE
100
AcDbSymbolTableRecord
100
AcDbLayerTableRecord
  2
COORDINATE
 70
0
 62
7
  6
CONTINUOUS
370
-3
390
F
  0
LAYER
  5
1FF
100
AcDbSymbolTableRecord
100
AcDbLayerTableRecord
  2
COORD_ORIGINE
 70
0
 62
7
  6
CONTINUOUS
370
-3
390
F
  0
LAYER
  5
200
100
AcDbSymbolTableRecord
100
AcDbLayerTableRecord
  2
COPY_PUBLISH
 70
0
 62
7
  6
CONTINUOUS
370
-3
390
F
  0
LAYER
  5
201
100
AcDbSymbolTableRecord
100
AcDbLayerTableRecord
  2
COSMETIC
 70
0
 62
7
  6
CONTINUOUS
370
-3
390
F
  0
LAYER
  5
202
100
AcDbSymbolTableRecord
100
AcDbLayerTableRecord
  2
COSMETICHE
 70
0
 62
7
  6
CONTINUOUS
370
-3
390
F
  0
LAYER
  5
203
100
AcDbSymbolTableRecord
100
AcDbLayerTableRecord
  2
COSMETICI
 70
0
 62
7
  6
CONTINUOUS
370
-3
390
F
  0
LAYER
  5
204
100
AcDbSymbolTableRecord
100
AcDbLayerTableRecord
  2
CURVE
 70
0
 62
7
  6
CONTINUOUS
370
-3
390
F
  0
LAYER
  5
205
100
AcDbSymbolTableRecord
100
AcDbLayerTableRecord
  2
DRAFT
 70
0
 62
7
  6
CONTINUOUS
370
-3
390
F
  0
LAYER
  5
206
100
AcDbSymbolTableRecord
100
AcDbLayerTableRecord
  2
IMPORT_FEATURES
 70
0
 62
7
  6
CONTINUOUS
370
-3
390
F
  0
LAYER
  5
207
100
AcDbSymbolTableRecord
100
AcDbLayerTableRecord
  2
IMPORT_IGES
 70
0
 62
7
  6
CONTINUOUS
370
-3
390
F
  0
LAYER
  5
208
100
AcDbSymbolTableRecord
100
AcDbLayerTableRecord
  2
IMPORT_LASER
 70
0
 62
7
  6
CONTINUOUS
370
-3
390
F
  0
LAYER
  5
209
100
AcDbSymbolTableRecord
100
AcDbLayerTableRecord
  2
INTF_1
 70
0
 62
7
  6
CONTINUOUS
370
-3
390
F
  0
LAYER
  5
20A
100
AcDbSymbolTableRecord
100
AcDbLayerTableRecord
  2
INTF_2
 70
0
 62
7
  6
CONTINUOUS
370
-3
390
F
  0
LAYER
  5
20B
100
AcDbSymbolTableRecord
100
AcDbLayerTableRecord
  2
INTF_8
 70
0
 62
7
  6
CONTINUOUS
370
-3
390
F
  0
LAYER
  5
20C
100
AcDbSymbolTableRecord
100
AcDbLayerTableRecord
  2
NOTE
 70
0
 62
7
  6
CONTINUOUS
370
-3
390
F
  0
LAYER
  5
20D
100
AcDbSymbolTableRecord
100
AcDbLayerTableRecord
  2
PIANI
 70
0
 62
7
  6
CONTINUOUS
370
-3
390
F
  0
LAYER
  5
20E
100
AcDbSymbolTableRecord
100
AcDbLayerTableRecord
  2
PIANI_ORIGINE
 70
0
 62
7
  6
CONTINUOUS
370
-3
390
F
  0
LAYER
  5
20F
100
AcDbSymbolTableRecord
100
AcDbLayerTableRecord
  2
PUNTI
 70
0
 62
7
  6
CONTINUOUS
370
-3
390
F
  0
LAYER
  5
210
100
AcDbSymbolTableRecord
100
AcDbLayerTableRecord
  2
RACCORDO
 70
0
 62
7
  6
CONTINUOUS
370
-3
390
F
  0
LAYER
  5
211
100
AcDbSymbolTableRecord
100
AcDbLayerTableRecord
  2
SMUSSO
 70
0
 62
7
  6
CONTINUOUS
370
-3
390
F
  0
LAYER
  5
212
100
AcDbSymbolTableRecord
100
AcDbLayerTableRecord
  2
SNAPLINE
 70
0
 62
7
  6
CONTINUOUS
370
-3
390
F
  0
LAYER
  5
213
100
AcDbSymbolTableRecord
100
AcDbLayerTableRecord
  2
SUPERFICI
 70
0
 62
7
  6
CONTINUOUS
370
-3
390
F
  0
LAYER
  5
214
100
AcDbSymbolTableRecord
100
AcDbLayerTableRecord
  2
TRASH
 70
0
 62
7
  6
CONTINUOUS
370
-3
390
F
  0
LAYER
  5
215
100
AcDbSymbolTableRecord
100
AcDbLayerTableRecord
  2
XSEC_DATUMS
 70
0
 62
7
  6
CONTINUOUS
370
-3
390
F
  0
ENDTAB
  0
TABLE
  2
STYLE
  5
3
100
AcDbSymbolTable
 70
1
  0
STYLE
  5
11
100
AcDbSymbolTableRecord
100
AcDbTextStyleTableRecord
  2
STANDARD
 70
0
 40
0.0
 41
0.8
 50
0.0
 71
0
 42
0.2
  3
txt
  4

  0
STYLE
  5
216
100
AcDbSymbolTableRecord
100
AcDbTextStyleTableRecord
  2
TEXTSTYLE_1
 70
0
 40
0.0
 41
0.8
 50
0.0
 71
0
 42
0.2
  3
gdt
  4

  0
ENDTAB
  0
TABLE
  2
VIEW
  5
6
100
AcDbSymbolTable
 70
0
  0
ENDTAB
  0
TABLE
  2
UCS
  5
7
100
AcDbSymbolTable
 70
0
  0
ENDTAB
  0
TABLE
  2
APPID
  5
9
100
AcDbSymbolTable
 70
1
  0
APPID
  5
217
100
AcDbSymbolTableRecord
100
AcDbRegAppTableRecord
  2
ACAD
 70
0
  0
ENDTAB
  0
TABLE
  2
BLOCK_RECORD
  5
1
100
AcDbSymbolTable
 70
0
  0
BLOCK_RECORD
  5
218
100
AcDbSymbolTableRecord
100
AcDbBlockTableRecord
  2
*Model_Space
  0
BLOCK_RECORD
  5
219
100
AcDbSymbolTableRecord
100
AcDbBlockTableRecord
  2
*Paper_Space
  0
BLOCK_RECORD
  5
21A
100
AcDbSymbolTableRecord
100
AcDbBlockTableRecord
  2
_FILLED
  0
ENDTAB
  0
TABLE
  2
DIMSTYLE
  5
A
100
AcDbSymbolTable
 70
1
100
AcDbDimStyleTable
 71
0
  0
DIMSTYLE
105
21B
100
AcDbSymbolTableRecord
100
AcDbDimStyleTableRecord
  2
STANDARD
 70
0
  3

  4

 40
1.0
 41
3.0
 42
0.5
 43
0.38
 44
1.5
 45
0.0
 46
0.0
 47
0.01
 48
0.01
140
3.0
141
0.09
142
0.0
143
25.4
144
1.0
145
0.0
146
1.0
147
0.625
 71
1
 72
0
 73
0
 74
0
 75
0
 76
0
 77
1
 78
8
 79
2
170
0
171
1
172
0
173
0
174
0
175
0
176
0
177
0
178
0
270
2
179
2
271
2
272
2
273
2
274
2
275
0
280
0
281
0
282
0
283
1
284
8
285
0
286
0
287
3
288
0
340
11
278
44
341
21A
342
21A
343
21A
344
21A
  0
ENDTAB
  0
ENDSEC
  0
SECTION
  2
BLOCKS
  0
BLOCK
  5
20
100
AcDbEntity
  8
0
100
AcDbBlockBegin
  2
*Model_Space
 70
0
 10
0.0
 20
0.0
 30
0.0
  3
*Model_Space
  1

  0
ENDBLK
  5
21
100
AcDbEntity
  8
0
100
AcDbBlockEnd
  0
BLOCK
  5
1C
100
AcDbEntity
  8
0
100
AcDbBlockBegin
  2
*Paper_Space
 70
0
 10
0.0
 20
0.0
 30
0.0
  3
*Paper_Space
  1

  0
ENDBLK
  5
1D
100
AcDbEntity
  8
0
100
AcDbBlockEnd
  0
BLOCK
  5
21C
100
AcDbEntity
  8
0
100
AcDbBlockBegin
  2
_FILLED
 70
64
 10
0.0
 20
0.0
  3
_FILLED
  1

  0
SOLID
  5
21D
100
AcDbEntity
  8
0
  6
BYBLOCK
 62
0
100
AcDbTrace
 10
0.0
 20
0.0
 11
-1.0
 21
0.3166666667
 12
-1.0
 22
-0.3166666667
 13
-1.0
 23
-0.3166666667
  0
ENDBLK
  5
21E
100
AcDbEntity
  8
0
  6
BYBLOCK
 62
0
100
AcDbBlockEnd
  0
ENDSEC
  0
SECTION
  2
ENTITIES
  0
LINE
  5
21F
100
AcDbEntity
  8
DRAFT
100
AcDbLine
 62
7
  6
CONTINUOUS
 10
-2.0
 20
-23.5
 11
-1.7812783412
 21
-23.4781828305
  0
LINE
  5
220
100
AcDbEntity
  8
DRAFT
100
AcDbLine
 62
7
  6
CONTINUOUS
 10
-2.9733373476
 20
-23.5
 11
-2.0
 21
-23.5
  0
LINE
  5
221
100
AcDbEntity
  8
DRAFT
100
AcDbLine
 62
7
  6
CONTINUOUS
 10
4.0
 20
-23.5
 11
4.9733373476
 21
-23.5
  0
LINE
  5
222
100
AcDbEntity
  8
DRAFT
100
AcDbLine
 62
7
  6
CONTINUOUS
 10
-1.7812783412
 20
-23.4781828305
 11
3.7812783412
 21
-23.4781828305
  0
LINE
  5
223
100
AcDbEntity
  8
DRAFT
100
AcDbLine
 62
7
  6
CONTINUOUS
 10
-2.9630152422
 20
-23.4650925288
 11
4.9630152422
 21
-23.4650925288
  0
LINE
  5
224
100
AcDbEntity
  8
RACCORDO
100
AcDbLine
 62
7
  6
CONTINUOUS
 10
-9.6503805997
 20
-22.4
 11
-4.55
 21
-22.4
  0
LINE
  5
225
100
AcDbEntity
  8
DRAFT
100
AcDbLine
 62
7
  6
CONTINUOUS
 10
-9.6503805997
 20
-22.4
 11
-4.55
 21
-22.4
  0
LINE
  5
226
100
AcDbEntity
  8
RACCORDO
100
AcDbLine
 62
7
  6
CONTINUOUS
 10
6.55
 20
-22.4
 11
11.6503805997
 21
-22.4
  0
LINE
  5
227
100
AcDbEntity
  8
DRAFT
100
AcDbLine
 62
7
  6
CONTINUOUS
 10
6.55
 20
-22.4
 11
11.6503805997
 21
-22.4
  0
LINE
  5
228
100
AcDbEntity
  8
DRAFT
100
AcDbLine
 62
7
  6
CONTINUOUS
 10
4.0
 20
-23.5
 11
3.7812783412
 21
-23.4781828305
  0
LINE
  5
229
100
AcDbEntity
  8
DRAFT
100
AcDbLine
 62
7
  6
CONTINUOUS
 10
8.3830351795
 20
-20.9
 11
8.238215003
 21
-20.9317102097
  0
LINE
  5
22A
100
AcDbEntity
  8
DRAFT
100
AcDbLine
 62
7
  6
CONTINUOUS
 10
-2.434596365
 20
-21.2139629885
 11
-2.1516814075
 21
-21.199923836
  0
LINE
  5
22B
100
AcDbEntity
  8
DRAFT
100
AcDbLine
 62
7
  6
CONTINUOUS
 10
-2.1
 20
-22.2
 11
-2.0104834329
 21
-22.1955695989
  0
LINE
  5
22C
100
AcDbEntity
  8
DRAFT
100
AcDbLine
 62
7
  6
CONTINUOUS
 10
-1.700388948
 20
-21.1802222394
 11
-2.0984611006
 21
-21.199923836
  0
LINE
  5
22D
100
AcDbEntity
  8
DRAFT
100
AcDbLine
 62
7
  6
CONTINUOUS
 10
4.3821231691
 20
-22.2
 11
-2.3821231691
 21
-22.2
  0
LINE
  5
22E
100
AcDbEntity
  8
DRAFT
100
AcDbLine
 62
7
  6
CONTINUOUS
 10
4.0104834329
 20
-22.1955695989
 11
-2.0104834329
 21
-22.1955695989
  0
LINE
  5
22F
100
AcDbEntity
  8
DRAFT
100
AcDbLine
 62
7
  6
CONTINUOUS
 10
7.9712561167
 20
-21.2139629885
 11
4.434596365
 21
-21.2139629885
  0
LINE
  5
230
100
AcDbEntity
  8
DRAFT
100
AcDbLine
 62
7
  6
CONTINUOUS
 10
-2.434596365
 20
-21.2139629885
 11
-5.9712561167
 21
-21.2139629885
  0
LINE
  5
231
100
AcDbEntity
  8
DRAFT
100
AcDbLine
 62
7
  6
CONTINUOUS
 10
4.1516814075
 20
-21.199923836
 11
4.0984611006
 21
-21.199923836
  0
LINE
  5
232
100
AcDbEntity
  8
DRAFT
100
AcDbLine
 62
7
  6
CONTINUOUS
 10
-2.0984611006
 20
-21.199923836
 11
-2.1516814075
 21
-21.199923836
  0
LINE
  5
233
100
AcDbEntity
  8
DRAFT
100
AcDbLine
 62
7
  6
CONTINUOUS
 10
7.9587505924
 20
-21.1802222394
 11
3.700388948
 21
-21.1802222394
  0
LINE
  5
234
100
AcDbEntity
  8
DRAFT
100
AcDbLine
 62
7
  6
CONTINUOUS
 10
-1.700388948
 20
-21.1802222394
 11
-5.9587505924
 21
-21.1802222394
  0
LINE
  5
235
100
AcDbEntity
  8
DRAFT
100
AcDbLine
 62
7
  6
CONTINUOUS
 10
10.65
 20
-20.9
 11
8.3830351795
 21
-20.9
  0
LINE
  5
236
100
AcDbEntity
  8
DRAFT
100
AcDbLine
 62
7
  6
CONTINUOUS
 10
-6.3830351795
 20
-20.9
 11
-8.65
 21
-20.9
  0
LINE
  5
237
100
AcDbEntity
  8
DRAFT
100
AcDbLine
 62
7
  6
CONTINUOUS
 10
4.0104834329
 20
-22.1955695989
 11
4.1
 21
-22.2
  0
LINE
  5
238
100
AcDbEntity
  8
DRAFT
100
AcDbLine
 62
7
  6
CONTINUOUS
 10
4.0984611006
 20
-21.199923836
 11
3.700388948
 21
-21.1802222394
  0
LINE
  5
239
100
AcDbEntity
  8
DRAFT
100
AcDbLine
 62
7
  6
CONTINUOUS
 10
4.434596365
 20
-21.2139629885
 11
4.1516814075
 21
-21.199923836
  0
LINE
  5
23A
100
AcDbEntity
  8
DRAFT
100
AcDbLine
 62
7
  6
CONTINUOUS
 10
-6.3830351795
 20
-20.9
 11
-6.238215003
 21
-20.9317102097
  0
LINE
  5
23B
100
AcDbEntity
  8
DRAFT
100
AcDbLine
 62
7
  6
CONTINUOUS
 10
-6.5226756989
 20
20.7603594806
 11
-6.3830351795
 21
20.9
  0
LWPOLYLINE
  5
23C
100
AcDbEntity
  8
RACCORDO
100
AcDbPolyline
 62
7
  6
CONTINUOUS
 90
15
 70
0
 10
-9.001744595
 20
18.2308351884
 10
-8.9820200823
 20
18.2505580468
 10
-8.9607472828
 20
18.267031179
 10
-8.9379261963
 20
18.2802545848
 10
-8.9131034604
 20
18.290339477
 10
-8.8867324377
 20
18.297174643
 10
-8.8601732158
 20
18.3004264446
 10
-8.8334020108
 20
18.2999124211
 10
-8.8064426068
 20
18.2958150333
 10
-8.7807264436
 20
18.2883480253
 10
-8.7563231348
 20
18.2773301624
 10
-8.733163067
 20
18.2629426793
 10
-8.7124688394
 20
18.2459430241
 10
-8.6943713673
 20
18.226212183
 10
-8.6915939475
 20
18.2222422886
  0
LINE
  5
23D
100
AcDbEntity
  8
DRAFT
100
AcDbLine
 62
7
  6
CONTINUOUS
 10
-6.3568525821
 20
19.0
 11
-6.2195044567
 21
19.0686688326
  0
LINE
  5
23E
100
AcDbEntity
  8
DRAFT
100
AcDbLine
 62
7
  6
CONTINUOUS
 10
4.2635064284
 20
-19.0360211209
 11
4.5699041346
 21
-19.0208965595
  0
LINE
  5
23F
100
AcDbEntity
  8
DRAFT
100
AcDbLine
 62
7
  6
CONTINUOUS
 10
-6.2084845302
 20
-19.9483339502
 11
8.2084845302
 21
-19.9483339502
  0
LINE
  5
240
100
AcDbEntity
  8
DRAFT
100
AcDbLine
 62
7
  6
CONTINUOUS
 10
-6.2084845302
 20
-19.7
 11
8.2084845302
 21
-19.7
  0
LINE
  5
241
100
AcDbEntity
  8
DRAFT
100
AcDbLine
 62
7
  6
CONTINUOUS
 10
-6.2195044567
 20
-19.0686688326
 11
8.2195044567
 21
-19.0686688326
  0
LINE
  5
242
100
AcDbEntity
  8
DRAFT
100
AcDbLine
 62
7
  6
CONTINUOUS
 10
7.0819690456
 20
-19.0610787705
 11
1.6248835365
 21
-19.0610787705
  0
LINE
  5
243
100
AcDbEntity
  8
DRAFT
100
AcDbLine
 62
7
  6
CONTINUOUS
 10
0.3751164635
 20
-19.0610787705
 11
-5.0819690456
 21
-19.0610787705
  0
LINE
  5
244
100
AcDbEntity
  8
DRAFT
100
AcDbLine
 62
7
  6
CONTINUOUS
 10
3.7459745197
 20
-19.0515923727
 11
1.6247179508
 21
-19.0515923727
  0
LINE
  5
245
100
AcDbEntity
  8
DRAFT
100
AcDbLine
 62
7
  6
CONTINUOUS
 10
0.3752820492
 20
-19.0515923727
 11
-1.7459745197
 21
-19.0515923727
  0
LINE
  5
246
100
AcDbEntity
  8
DRAFT
100
AcDbLine
 62
7
  6
CONTINUOUS
 10
-1.8376185395
 20
-19.0448353178
 11
-0.0874172576
 21
-19.0448353178
  0
LINE
  5
247
100
AcDbEntity
  8
DRAFT
100
AcDbLine
 62
7
  6
CONTINUOUS
 10
2.0874172576
 20
-19.0448353178
 11
3.8376185395
 21
-19.0448353178
  0
LINE
  5
248
100
AcDbEntity
  8
DRAFT
100
AcDbLine
 62
7
  6
CONTINUOUS
 10
-3.4
 20
-19.0427616522
 11
-2.7095341615
 21
-19.0427616522
  0
LINE
  5
249
100
AcDbEntity
  8
DRAFT
100
AcDbLine
 62
7
  6
CONTINUOUS
 10
4.7095341615
 20
-19.0427616522
 11
5.4
 21
-19.0427616522
  0
LINE
  5
24A
100
AcDbEntity
  8
DRAFT
100
AcDbLine
 62
7
  6
CONTINUOUS
 10
4.2635064284
 20
-19.0360211209
 11
3.8377723918
 21
-19.0360211209
  0
LINE
  5
24B
100
AcDbEntity
  8
DRAFT
100
AcDbLine
 62
7
  6
CONTINUOUS
 10
-1.8377723918
 20
-19.0360211209
 11
-2.2635064284
 21
-19.0360211209
  0
LINE
  5
24C
100
AcDbEntity
  8
DRAFT
100
AcDbLine
 62
7
  6
CONTINUOUS
 10
4.5699041346
 20
-19.0208965595
 11
3.838036392
 21
-19.0208965595
  0
LINE
  5
24D
100
AcDbEntity
  8
DRAFT
100
AcDbLine
 62
7
  6
CONTINUOUS
 10
-1.838036392
 20
-19.0208965595
 11
-2.5699041346
 21
-19.0208965595
  0
LINE
  5
24E
100
AcDbEntity
  8
DRAFT
100
AcDbLine
 62
7
  6
CONTINUOUS
 10
5.4
 20
-19.0130903017
 11
4.7015837471
 21
-19.0130903017
  0
LINE
  5
24F
100
AcDbEntity
  8
DRAFT
100
AcDbLine
 62
7
  6
CONTINUOUS
 10
-2.7015837471
 20
-19.0130903017
 11
-3.4
 21
-19.0130903017
  0
LINE
  5
250
100
AcDbEntity
  8
RACCORDO
100
AcDbLine
 62
7
  6
CONTINUOUS
 10
8.500533067
 20
-19.0
 11
5.5673885653
 21
-19.0
  0
LINE
  5
251
100
AcDbEntity
  8
ASSI
100
AcDbLine
 62
7
  6
CONTINUOUS
 10
8.500533067
 20
-19.0
 11
5.5673885653
 21
-19.0
  0
LINE
  5
252
100
AcDbEntity
  8
RACCORDO
100
AcDbLine
 62
7
  6
CONTINUOUS
 10
-6.500533067
 20
-19.0
 11
-3.5673885653
 21
-19.0
  0
LINE
  5
253
100
AcDbEntity
  8
ASSI
100
AcDbLine
 62
7
  6
CONTINUOUS
 10
-6.500533067
 20
-19.0
 11
-3.5673885653
 21
-19.0
  0
LINE
  5
254
100
AcDbEntity
  8
DRAFT
100
AcDbLine
 62
7
  6
CONTINUOUS
 10
-1.7295886809
 20
-18.9904395897
 11
-1.5
 21
-18.9904395897
  0
LINE
  5
255
100
AcDbEntity
  8
DRAFT
100
AcDbLine
 62
7
  6
CONTINUOUS
 10
3.5
 20
-18.9904395897
 11
3.7295886809
 21
-18.9904395897
  0
LINE
  5
256
100
AcDbEntity
  8
DRAFT
100
AcDbLine
 62
7
  6
CONTINUOUS
 10
-3.25
 20
-18.9685808831
 11
-1.5
 21
-18.9685808831
  0
LINE
  5
257
100
AcDbEntity
  8
ASSI
100
AcDbLine
 62
7
  6
CONTINUOUS
 10
-3.25
 20
-18.9685808831
 11
-1.5
 21
-18.9685808831
  0
LINE
  5
258
100
AcDbEntity
  8
DRAFT
100
AcDbLine
 62
7
  6
CONTINUOUS
 10
3.5
 20
-18.9685808831
 11
5.25
 21
-18.9685808831
  0
LINE
  5
259
100
AcDbEntity
  8
ASSI
100
AcDbLine
 62
7
  6
CONTINUOUS
 10
3.5
 20
-18.9685808831
 11
5.25
 21
-18.9685808831
  0
LINE
  5
25A
100
AcDbEntity
  8
RACCORDO
100
AcDbLine
 62
7
  6
CONTINUOUS
 10
-0.4669721784
 20
-18.9185155063
 11
2.4669721784
 21
-18.9185155063
  0
LINE
  5
25B
100
AcDbEntity
  8
ASSI
100
AcDbLine
 62
7
  6
CONTINUOUS
 10
-0.4669721784
 20
-18.9185155063
 11
2.4669721784
 21
-18.9185155063
  0
LINE
  5
25C
100
AcDbEntity
  8
DRAFT
100
AcDbLine
 62
7
  6
CONTINUOUS
 10
-2.5699041346
 20
-19.0208965595
 11
-2.2635064284
 21
-19.0360211209
  0
LWPOLYLINE
  5
25D
100
AcDbEntity
  8
RACCORDO
100
AcDbPolyline
 62
250
  6
CONTINUOUS
 90
25
 70
0
 10
-5.4998667307
 20
-18.5481423133
 10
-5.4628539573
 20
-18.5562451438
 10
-5.3716643296
 20
-18.5639622882
 10
-5.2262978476
 20
-18.5712937463
 10
-5.0224786928
 20
-18.578353494
 10
-4.7644826837
 20
-18.5850275555
 10
-4.4651372761
 20
-18.5909740039
 10
-4.1224545576
 20
-18.5961524606
 10
-3.7384224405
 20
-18.6006033042
 10
-3.3318321173
 20
-18.6041057434
 10
-2.9013762099
 20
-18.6066125382
 10
-2.4483620963
 20
-18.6081709286
 10
-1.9955031038
 20
-18.6087018437
 10
-1.5428780173
 20
-18.6081520798
 10
-1.0904080519
 20
-18.6065748407
 10
-0.6605701793
 20
-18.6040506657
 10
-0.2546030199
 20
-18.600532946
 10
0.1287320467
 20
-18.5960682905
 10
0.4706739086
 20
-18.5908770654
 10
0.769253263
 20
-18.5849131026
 10
1.0264394127
 20
-18.57822257
 10
1.2293791547
 20
-18.5711643379
 10
1.3737880878
 20
-18.5638580294
 10
1.4639506132
 20
-18.5561840212
 10
1.4998667307
 20
-18.5481423133
  0
LWPOLYLINE
  5
25E
100
AcDbEntity
  8
ASSI
100
AcDbPolyline
 62
250
  6
CONTINUOUS
 90
25
 70
0
 10
-5.4998667307
 20
-18.5481423133
 10
-5.4628539573
 20
-18.5562451438
 10
-5.3716643296
 20
-18.5639622882
 10
-5.2262978476
 20
-18.5712937463
 10
-5.0224786928
 20
-18.578353494
 10
-4.7644826837
 20
-18.5850275555
 10
-4.4651372761
 20
-18.5909740039
 10
-4.1224545576
 20
-18.5961524606
 10
-3.7384224405
 20
-18.6006033042
 10
-3.3318321173
 20
-18.6041057434
 10
-2.9013762099
 20
-18.6066125382
 10
-2.4483620963
 20
-18.6081709286
 10
-1.9955031038
 20
-18.6087018437
 10
-1.5428780173
 20
-18.6081520798
 10
-1.0904080519
 20
-18.6065748407
 10
-0.6605701793
 20
-18.6040506657
 10
-0.2546030199
 20
-18.600532946
 10
0.1287320467
 20
-18.5960682905
 10
0.4706739086
 20
-18.5908770654
 10
0.769253263
 20
-18.5849131026
 10
1.0264394127
 20
-18.57822257
 10
1.2293791547
 20
-18.5711643379
 10
1.3737880878
 20
-18.5638580294
 10
1.4639506132
 20
-18.5561840212
 10
1.4998667307
 20
-18.5481423133
  0
LINE
  5
25F
100
AcDbEntity
  8
DRAFT
100
AcDbLine
 62
7
  6
CONTINUOUS
 10
-6.2195044567
 20
-19.0686688326
 11
-6.3568525821
 21
-19.0
  0
LINE
  5
260
100
AcDbEntity
  8
DRAFT
100
AcDbLine
 62
7
  6
CONTINUOUS
 10
-6.5226756989
 20
-20.7603594806
 11
-6.3830351795
 21
-20.9
  0
LWPOLYLINE
  5
261
100
AcDbEntity
  8
RACCORDO
100
AcDbPolyline
 62
7
  6
CONTINUOUS
 90
13
 70
0
 10
-9.0282587846
 20
-18.1595749722
 10
-9.0085542751
 20
-18.1793723317
 10
-8.9872927728
 20
-18.1959149486
 10
-8.9644742777
 20
-18.2092028229
 10
-8.9396443954
 20
-18.2193478318
 10
-8.9132575203
 20
-18.2262380981
 10
-8.8866768348
 20
-18.2295379904
 10
-8.8598782579
 20
-18.2290647642
 10
-8.8328858706
 20
-18.2250011642
 10
-8.8071350985
 20
-18.2175597926
 10
-8.782695415
 20
-18.2065586767
 10
-8.7594973468
 20
-18.1921797893
 10
-8.7422764847
 20
-18.1780586899
  0
LWPOLYLINE
  5
262
100
AcDbEntity
  8
RACCORDO
100
AcDbPolyline
 62
7
  6
CONTINUOUS
 90
10
 70
0
 10
-9.9162414635
 20
17.0643546451
 10
-9.9586823142
 20
17.0048682175
 10
-9.9964088005
 20
16.942926065
 10
-10.0294209226
 20
16.8785281876
 10
-10.0578918137
 20
16.8111610595
 10
-10.0816483406
 20
16.7413382064
 10
-10.1001711029
 20
16.6706002061
 10
-10.1132869673
 20
16.5994605841
 10
-10.1211690672
 20
16.5274058148
 10
-10.1238174026
 20
16.4544358981
  0
LINE
  5
263
100
AcDbEntity
  8
DRAFT
100
AcDbLine
 62
7
  6
CONTINUOUS
 10
-3.5673885653
 20
-19.0
 11
-3.25
 21
-18.9685808831
  0
LINE
  5
264
100
AcDbEntity
  8
ASSI
100
AcDbLine
 62
7
  6
CONTINUOUS
 10
-3.5673885653
 20
-19.0
 11
-3.25
 21
-18.9685808831
  0
LWPOLYLINE
  5
265
100
AcDbEntity
  8
RACCORDO
100
AcDbPolyline
 62
7
  6
CONTINUOUS
 90
13
 70
0
 10
-5.5394041794
 20
-18.4690613933
 10
-5.4293150794
 20
-18.4612929786
 10
-5.3211160643
 20
-18.4412265319
 10
-5.2148071342
 20
-18.4082265337
 10
-5.1087537079
 20
-18.3620993925
 10
-5.0045903665
 20
-18.3024710806
 10
-4.9072208533
 20
-18.2282319151
 10
-4.8155904413
 20
-18.1395079501
 10
-4.7307538574
 20
-18.0363109273
 10
-4.6607790258
 20
-17.9167382214
 10
-4.6083552545
 20
-17.7806311137
 10
-4.5707932355
 20
-17.6305249554
 10
-4.5480929688
 20
-17.4692136981
  0
LWPOLYLINE
  5
266
100
AcDbEntity
  8
ASSI
100
AcDbPolyline
 62
7
  6
CONTINUOUS
 90
13
 70
0
 10
-5.5394041794
 20
-18.4690613933
 10
-5.4293150794
 20
-18.4612929786
 10
-5.3211160643
 20
-18.4412265319
 10
-5.2148071342
 20
-18.4082265337
 10
-5.1087537079
 20
-18.3620993925
 10
-5.0045903665
 20
-18.3024710806
 10
-4.9072208533
 20
-18.2282319151
 10
-4.8155904413
 20
-18.1395079501
 10
-4.7307538574
 20
-18.0363109273
 10
-4.6607790258
 20
-17.9167382214
 10
-4.6083552545
 20
-17.7806311137
 10
-4.5707932355
 20
-17.6305249554
 10
-4.5480929688
 20
-17.4692136981
  0
LWPOLYLINE
  5
267
100
AcDbEntity
  8
RACCORDO
100
AcDbPolyline
 62
250
  6
CONTINUOUS
 90
16
 70
0
 10
7.9695944602
 20
-17.4692136981
 10
8.2350138258
 20
-17.4544904255
 10
8.492260031
 20
-17.4138026276
 10
8.7413330759
 20
-17.3471503046
 10
8.9848433908
 20
-17.2532612371
 10
9.2201805453
 20
-17.1334076444
 10
9.4395132484
 20
-16.9914061845
 10
9.6423020623
 20
-16.8264088109
 10
9.8290864248
 20
-16.6392635701
 10
9.9936533579
 20
-16.4363312601
 10
10.1351485089
 20
-16.2171520018
 10
10.2544262304
 20
-15.9821856743
 10
10.3478366022
 20
-15.7391727129
 10
10.414162984
 20
-15.4906932626
 10
10.454622016
 20
-15.2341671784
 10
10.4692136981
 20
-14.9695944602
  0
LWPOLYLINE
  5
268
100
AcDbEntity
  8
ASSI
100
AcDbPolyline
 62
250
  6
CONTINUOUS
 90
16
 70
0
 10
7.9695944602
 20
-17.4692136981
 10
8.2350138258
 20
-17.4544904255
 10
8.492260031
 20
-17.4138026276
 10
8.7413330759
 20
-17.3471503046
 10
8.9848433908
 20
-17.2532612371
 10
9.2201805453
 20
-17.1334076444
 10
9.4395132484
 20
-16.9914061845
 10
9.6423020623
 20
-16.8264088109
 10
9.8290864248
 20
-16.6392635701
 10
9.9936533579
 20
-16.4363312601
 10
10.1351485089
 20
-16.2171520018
 10
10.2544262304
 20
-15.9821856743
 10
10.3478366022
 20
-15.7391727129
 10
10.414162984
 20
-15.4906932626
 10
10.454622016
 20
-15.2341671784
 10
10.4692136981
 20
-14.9695944602
  0
LWPOLYLINE
  5
269
100
AcDbEntity
  8
RACCORDO
100
AcDbPolyline
 62
250
  6
CONTINUOUS
 90
16
 70
0
 10
7.9695944602
 20
-18.4690613933
 10
8.3360287188
 20
-18.4497965857
 10
8.6982634036
 20
-18.39230907
 10
9.052330015
 20
-18.2972822772
 10
9.3942822211
 20
-18.1658441409
 10
9.7204747182
 20
-17.9994658399
 10
10.027563741
 20
-17.7998660408
 10
10.3122832989
 20
-17.5691075814
 10
10.5713654779
 20
-17.3097754134
 10
10.8018330235
 20
-17.0248558199
 10
11.0011595247
 20
-16.7175404922
 10
11.1672274125
 20
-16.3911748523
 10
11.2982396352
 20
-16.0493834983
 10
11.3928044114
 20
-15.6959334563
 10
11.4499377401
 20
-15.3346868217
 10
11.4690613933
 20
-14.9695944602
  0
LWPOLYLINE
  5
26A
100
AcDbEntity
  8
ASSI
100
AcDbPolyline
 62
250
  6
CONTINUOUS
 90
16
 70
0
 10
7.9695944602
 20
-18.4690613933
 10
8.3360287188
 20
-18.4497965857
 10
8.6982634036
 20
-18.39230907
 10
9.052330015
 20
-18.2972822772
 10
9.3942822211
 20
-18.1658441409
 10
9.7204747182
 20
-17.9994658399
 10
10.027563741
 20
-17.7998660408
 10
10.3122832989
 20
-17.5691075814
 10
10.5713654779
 20
-17.3097754134
 10
10.8018330235
 20
-17.0248558199
 10
11.0011595247
 20
-16.7175404922
 10
11.1672274125
 20
-16.3911748523
 10
11.2982396352
 20
-16.0493834983
 10
11.3928044114
 20
-15.6959334563
 10
11.4499377401
 20
-15.3346868217
 10
11.4690613933
 20
-14.9695944602
  0
LINE
  5
26B
100
AcDbEntity
  8
RACCORDO
100
AcDbLine
 62
250
  6
CONTINUOUS
 10
-5.9695944602
 20
-18.4690613933
 11
-5.5394041794
 21
-18.4690613933
  0
LINE
  5
26C
100
AcDbEntity
  8
ASSI
100
AcDbLine
 62
250
  6
CONTINUOUS
 10
-5.9695944602
 20
-18.4690613933
 11
-5.5394041794
 21
-18.4690613933
  0
LINE
  5
26D
100
AcDbEntity
  8
RACCORDO
100
AcDbLine
 62
250
  6
CONTINUOUS
 10
1.5394041794
 20
-18.4690613933
 11
7.9695944602
 21
-18.4690613933
  0
LINE
  5
26E
100
AcDbEntity
  8
ASSI
100
AcDbLine
 62
250
  6
CONTINUOUS
 10
1.5394041794
 20
-18.4690613933
 11
7.9695944602
 21
-18.4690613933
  0
LINE
  5
26F
100
AcDbEntity
  8
RACCORDO
100
AcDbLine
 62
250
  6
CONTINUOUS
 10
-5.9695944602
 20
-17.4692136981
 11
-4.5480929688
 21
-17.4692136981
  0
LINE
  5
270
100
AcDbEntity
  8
ASSI
100
AcDbLine
 62
250
  6
CONTINUOUS
 10
-5.9695944602
 20
-17.4692136981
 11
-4.5480929688
 21
-17.4692136981
  0
LINE
  5
271
100
AcDbEntity
  8
RACCORDO
100
AcDbLine
 62
250
  6
CONTINUOUS
 10
0.5480929688
 20
-17.4692136981
 11
7.9695944602
 21
-17.4692136981
  0
LINE
  5
272
100
AcDbEntity
  8
ASSI
100
AcDbLine
 62
250
  6
CONTINUOUS
 10
0.5480929688
 20
-17.4692136981
 11
7.9695944602
 21
-17.4692136981
  0
LWPOLYLINE
  5
273
100
AcDbEntity
  8
RACCORDO
100
AcDbPolyline
 62
7
  6
CONTINUOUS
 90
13
 70
0
 10
1.5394041794
 20
-18.4690613933
 10
1.4334423732
 20
-18.4614153388
 10
1.3255165707
 20
-18.4417000277
 10
1.2171266121
 20
-18.4090748544
 10
1.1103729483
 20
-18.3630226287
 10
1.0067244441
 20
-18.3030392478
 10
0.9072371847
 20
-18.2282458399
 10
0.8150986874
 20
-18.1391036412
 10
0.7321911798
 20
-18.035299414
 10
0.659384235
 20
-17.9140109598
 10
0.6007517384
 20
-17.7745041253
 10
0.562007062
 20
-17.6194930523
 10
0.5480929688
 20
-17.4519109555
  0
LWPOLYLINE
  5
274
100
AcDbEntity
  8
ASSI
100
AcDbPolyline
 62
7
  6
CONTINUOUS
 90
13
 70
0
 10
1.5394041794
 20
-18.4690613933
 10
1.4334423732
 20
-18.4614153388
 10
1.3255165707
 20
-18.4417000277
 10
1.2171266121
 20
-18.4090748544
 10
1.1103729483
 20
-18.3630226287
 10
1.0067244441
 20
-18.3030392478
 10
0.9072371847
 20
-18.2282458399
 10
0.8150986874
 20
-18.1391036412
 10
0.7321911798
 20
-18.035299414
 10
0.659384235
 20
-17.9140109598
 10
0.6007517384
 20
-17.7745041253
 10
0.562007062
 20
-17.6194930523
 10
0.5480929688
 20
-17.4519109555
  0
LINE
  5
275
100
AcDbEntity
  8
DRAFT
100
AcDbLine
 62
7
  6
CONTINUOUS
 10
5.25
 20
-18.9685808831
 11
5.5673885653
 21
-19.0
  0
LINE
  5
276
100
AcDbEntity
  8
ASSI
100
AcDbLine
 62
7
  6
CONTINUOUS
 10
5.25
 20
-18.9685808831
 11
5.5673885653
 21
-19.0
  0
LWPOLYLINE
  5
277
100
AcDbEntity
  8
RACCORDO
100
AcDbPolyline
 62
250
  6
CONTINUOUS
 90
25
 70
0
 10
-4.4999048077
 20
-17.5482946182
 10
-4.4759284848
 20
-17.556429871
 10
-4.4100320556
 20
-17.5641696217
 10
-4.3032796253
 20
-17.5715138702
 10
-4.1573876075
 20
-17.5785737114
 10
-3.9748067857
 20
-17.5852380505
 10
-3.7587742635
 20
-17.5911736032
 10
-3.513091546
 20
-17.5963419297
 10
-3.2418734976
 20
-17.6007814698
 10
-2.9496191785
 20
-17.6042742596
 10
-2.6412261222
 20
-17.6067731777
 10
-2.3219613473
 20
-17.6083253454
 10
-1.9972578639
 20
-17.6088541619
 10
-1.6726349382
 20
-17.6083083181
 10
-1.3535707484
 20
-17.6067391232
 10
-1.0454375805
 20
-17.6042239041
 10
-0.7534887592
 20
-17.6007158901
 10
-0.4826338029
 20
-17.5962618521
 10
-0.2373594386
 20
-17.5910794296
 10
-0.0216524992
 20
-17.5851246827
 10
0.1604955399
 20
-17.5784415515
 10
0.3055854992
 20
-17.5713794959
 10
0.4113349546
 20
-17.5640550025
 10
0.4763820126
 20
-17.5563515847
 10
0.4999138907
 20
-17.5482692425
  0
LWPOLYLINE
  5
278
100
AcDbEntity
  8
ASSI
100
AcDbPolyline
 62
250
  6
CONTINUOUS
 90
25
 70
0
 10
-4.4999048077
 20
-17.5482946182
 10
-4.4759284848
 20
-17.556429871
 10
-4.4100320556
 20
-17.5641696217
 10
-4.3032796253
 20
-17.5715138702
 10
-4.1573876075
 20
-17.5785737114
 10
-3.9748067857
 20
-17.5852380505
 10
-3.7587742635
 20
-17.5911736032
 10
-3.513091546
 20
-17.5963419297
 10
-3.2418734976
 20
-17.6007814698
 10
-2.9496191785
 20
-17.6042742596
 10
-2.6412261222
 20
-17.6067731777
 10
-2.3219613473
 20
-17.6083253454
 10
-1.9972578639
 20
-17.6088541619
 10
-1.6726349382
 20
-17.6083083181
 10
-1.3535707484
 20
-17.6067391232
 10
-1.0454375805
 20
-17.6042239041
 10
-0.7534887592
 20
-17.6007158901
 10
-0.4826338029
 20
-17.5962618521
 10
-0.2373594386
 20
-17.5910794296
 10
-0.0216524992
 20
-17.5851246827
 10
0.1604955399
 20
-17.5784415515
 10
0.3055854992
 20
-17.5713794959
 10
0.4113349546
 20
-17.5640550025
 10
0.4763820126
 20
-17.5563515847
 10
0.4999138907
 20
-17.5482692425
  0
LWPOLYLINE
  5
279
100
AcDbEntity
  8
RACCORDO
100
AcDbPolyline
 62
7
  6
CONTINUOUS
 90
10
 70
0
 10
-9.9426253515
 20
-17.0730014938
 10
-9.9849983618
 20
-17.0135840575
 10
-10.0226704503
 20
-16.9517019754
 10
-10.0556416171
 20
-16.8873552473
 10
-10.0840877608
 20
-16.8200317574
 10
-10.1078329827
 20
-16.7502436217
 10
-10.1263495872
 20
-16.6795271876
 10
-10.1394616756
 20
-16.608394571
 10
-10.1473451466
 20
-16.536333656
 10
-10.15
 20
-16.4633444428
  0
LINE
  5
27A
100
AcDbEntity
  8
RACCORDO
100
AcDbLine
 62
250
  6
CONTINUOUS
 10
-9.0282587846
 20
18.1595749722
 11
-9.0017445951
 21
18.2308351883
  0
LINE
  5
27B
100
AcDbEntity
  8
0
100
AcDbLine
 62
7
  6
CONTINUOUS
 10
7.3995498471
 20
-14.2675039035
 11
7.5147156472
 21
-14.2366566857
  0
LINE
  5
27C
100
AcDbEntity
  8
ASSI
100
AcDbLine
 62
7
  6
CONTINUOUS
 10
7.3995498471
 20
-14.2675039035
 11
7.5147156472
 21
-14.2366566857
  0
LINE
  5
27D
100
AcDbEntity
  8
0
100
AcDbLine
 62
7
  6
CONTINUOUS
 10
7.0005080312
 20
-14.3722286712
 11
7.170691925
 21
-14.3274077398
  0
LINE
  5
27E
100
AcDbEntity
  8
ASSI
100
AcDbLine
 62
7
  6
CONTINUOUS
 10
7.0005080312
 20
-14.3722286712
 11
7.170691925
 21
-14.3274077398
  0
LWPOLYLINE
  5
27F
100
AcDbEntity
  8
0
100
AcDbPolyline
 62
7
  6
CONTINUOUS
 90
3
 70
0
 10
7.170691925
 20
-14.3274077398
 10
7.2848689738
 20
-14.2977001871
 10
7.3995498471
 20
-14.2675039035
  0
LWPOLYLINE
  5
280
100
AcDbEntity
  8
ASSI
100
AcDbPolyline
 62
7
  6
CONTINUOUS
 90
3
 70
0
 10
7.170691925
 20
-14.3274077398
 10
7.2848689738
 20
-14.2977001871
 10
7.3995498471
 20
-14.2675039035
  0
LWPOLYLINE
  5
281
100
AcDbEntity
  8
0
100
AcDbPolyline
 62
7
  6
CONTINUOUS
 90
7
 70
0
 10
7.5147156472
 20
-14.2366566857
 10
7.5699572002
 20
-14.2224847288
 10
7.6225713124
 20
-14.2056850014
 10
7.6725579838
 20
-14.1862575036
 10
7.7207910892
 20
-14.1647456029
 10
7.7663967537
 20
-14.1406059318
 10
7.8067533534
 20
-14.1122083873
  0
LWPOLYLINE
  5
282
100
AcDbEntity
  8
ASSI
100
AcDbPolyline
 62
7
  6
CONTINUOUS
 90
7
 70
0
 10
7.5147156472
 20
-14.2366566857
 10
7.5699572002
 20
-14.2224847288
 10
7.6225713124
 20
-14.2056850014
 10
7.6725579838
 20
-14.1862575036
 10
7.7207910892
 20
-14.1647456029
 10
7.7663967537
 20
-14.1406059318
 10
7.8067533534
 20
-14.1122083873
  0
LINE
  5
283
100
AcDbEntity
  8
DRAFT
100
AcDbLine
 62
7
  6
CONTINUOUS
 10
-4.5306392332
 20
-16.9868210911
 11
0.5306392332
 21
-16.9868210911
  0
LINE
  5
284
100
AcDbEntity
  8
ASSI
100
AcDbLine
 62
7
  6
CONTINUOUS
 10
-4.5306392332
 20
-16.9868210911
 11
0.5306392332
 21
-16.9868210911
  0
LINE
  5
285
100
AcDbEntity
  8
DRAFT
100
AcDbLine
 62
7
  6
CONTINUOUS
 10
-4.5480929688
 20
-16.9519109613
 11
0.5480929688
 21
-16.9519109613
  0
LINE
  5
286
100
AcDbEntity
  8
ASSI
100
AcDbLine
 62
7
  6
CONTINUOUS
 10
-4.5480929688
 20
-16.9519109613
 11
0.5480929688
 21
-16.9519109613
  0
LINE
  5
287
100
AcDbEntity
  8
RACCORDO
100
AcDbLine
 62
7
  6
CONTINUOUS
 10
-4.25
 20
-15.7033996231
 11
0.25
 21
-15.7033996231
  0
LINE
  5
288
100
AcDbEntity
  8
ASSI
100
AcDbLine
 62
7
  6
CONTINUOUS
 10
-4.25
 20
-15.7033996231
 11
0.25
 21
-15.7033996231
  0
LINE
  5
289
100
AcDbEntity
  8
RACCORDO
100
AcDbLine
 62
250
  6
CONTINUOUS
 10
-4.25
 20
-15.4034453146
 11
0.25
 21
-15.4034453146
  0
LINE
  5
28A
100
AcDbEntity
  8
ASSI
100
AcDbLine
 62
250
  6
CONTINUOUS
 10
-4.25
 20
-15.4034453146
 11
0.25
 21
-15.4034453146
  0
LINE
  5
28B
100
AcDbEntity
  8
RACCORDO
100
AcDbLine
 62
250
  6
CONTINUOUS
 10
-9.0017445951
 20
-18.2308351883
 11
-9.0282587846
 21
-18.1595749722
  0
LINE
  5
28C
100
AcDbEntity
  8
0
100
AcDbLine
 62
7
  6
CONTINUOUS
 10
7.1316887177
 20
-13.9535479592
 11
7.0005080312
 21
-13.9907721861
  0
LINE
  5
28D
100
AcDbEntity
  8
ASSI
100
AcDbLine
 62
7
  6
CONTINUOUS
 10
7.1316887177
 20
-13.9535479592
 11
7.0005080312
 21
-13.9907721861
  0
LWPOLYLINE
  5
28E
100
AcDbEntity
  8
0
100
AcDbPolyline
 62
7
  6
CONTINUOUS
 90
3
 70
0
 10
7.3260056442
 20
-13.8987654127
 10
7.196744055
 20
-13.9350299012
 10
7.1316887177
 20
-13.9535479592
  0
LWPOLYLINE
  5
28F
100
AcDbEntity
  8
ASSI
100
AcDbPolyline
 62
7
  6
CONTINUOUS
 90
3
 70
0
 10
7.3260056442
 20
-13.8987654127
 10
7.196744055
 20
-13.9350299012
 10
7.1316887177
 20
-13.9535479592
  0
LINE
  5
290
100
AcDbEntity
  8
RACCORDO
100
AcDbLine
 62
250
  6
CONTINUOUS
 10
0.25
 20
-15.1
 11
-4.25
 21
-15.1
  0
LINE
  5
291
100
AcDbEntity
  8
ASSI
100
AcDbLine
 62
250
  6
CONTINUOUS
 10
0.25
 20
-15.1
 11
-4.25
 21
-15.1
  0
LINE
  5
292
100
AcDbEntity
  8
RACCORDO
100
AcDbLine
 62
250
  6
CONTINUOUS
 10
-8.4692136981
 20
-14.9695944602
 11
-9.4690613933
 21
-14.969594292
  0
LINE
  5
293
100
AcDbEntity
  8
ASSI
100
AcDbLine
 62
250
  6
CONTINUOUS
 10
-8.4692136981
 20
-14.9695944602
 11
-9.4690613933
 21
-14.969594292
  0
LINE
  5
294
100
AcDbEntity
  8
RACCORDO
100
AcDbLine
 62
250
  6
CONTINUOUS
 10
10.4692136981
 20
-14.9695944602
 11
11.4690613933
 21
-14.9695944602
  0
LINE
  5
295
100
AcDbEntity
  8
ASSI
100
AcDbLine
 62
250
  6
CONTINUOUS
 10
10.4692136981
 20
-14.9695944602
 11
11.4690613933
 21
-14.9695944602
  0
LINE
  5
296
100
AcDbEntity
  8
RACCORDO
100
AcDbLine
 62
7
  6
CONTINUOUS
 10
0.25
 20
-14.8
 11
-4.25
 21
-14.8
  0
LINE
  5
297
100
AcDbEntity
  8
ASSI
100
AcDbLine
 62
7
  6
CONTINUOUS
 10
0.25
 20
-14.8
 11
-4.25
 21
-14.8
  0
LINE
  5
298
100
AcDbEntity
  8
0
100
AcDbLine
 62
7
  6
CONTINUOUS
 10
1.3595490716
 20
-14.05
 11
-0.8595490716
 21
-14.05
  0
LINE
  5
299
100
AcDbEntity
  8
0
100
AcDbLine
 62
7
  6
CONTINUOUS
 10
-3.1404509284
 20
-14.05
 11
-5.3595490716
 21
-14.05
  0
LINE
  5
29A
100
AcDbEntity
  8
CURVE
100
AcDbLine
 62
250
  6
CONTINUOUS
 10
11.8469960833
 20
-13.9999998808
 11
11.8544745468
 21
-13.9999998808
  0
LINE
  5
29B
100
AcDbEntity
  8
CURVE
100
AcDbLine
 62
250
  6
CONTINUOUS
 10
11.8600833942
 20
-13.9285712242
 11
11.8656922423
 21
-13.9285712242
  0
LINE
  5
29C
100
AcDbEntity
  8
RACCORDO
100
AcDbLine
 62
250
  6
CONTINUOUS
 10
-5.5394041794
 20
-18.4690613933
 11
-5.4998667307
 21
-18.5481423133
  0
LINE
  5
29D
100
AcDbEntity
  8
ASSI
100
AcDbLine
 62
250
  6
CONTINUOUS
 10
-5.5394041794
 20
-18.4690613933
 11
-5.4998667307
 21
-18.5481423133
  0
LINE
  5
29E
100
AcDbEntity
  8
RACCORDO
100
AcDbLine
 62
250
  6
CONTINUOUS
 10
12.1238174026
 20
16.4544358981
 11
12.15
 21
16.4633443083
  0
LINE
  5
29F
100
AcDbEntity
  8
RACCORDO
100
AcDbLine
 62
250
  6
CONTINUOUS
 10
11.9162414635
 20
17.0643546451
 11
11.9426253515
 21
17.0730014938
  0
LINE
  5
2A0
100
AcDbEntity
  8
0
100
AcDbLine
 62
7
  6
CONTINUOUS
 10
7.379785
 20
-12.351342
 11
7.000508
 21
-12.454076
  0
LINE
  5
2A1
100
AcDbEntity
  8
ASSI
100
AcDbLine
 62
7
  6
CONTINUOUS
 10
7.379785
 20
-12.351342
 11
7.000508
 21
-12.454076
  0
LINE
  5
2A2
100
AcDbEntity
  8
0
100
AcDbLine
 62
7
  6
CONTINUOUS
 10
8.378325
 20
-12.089858
 11
7.673268
 21
-12.272088
  0
LINE
  5
2A3
100
AcDbEntity
  8
ASSI
100
AcDbLine
 62
7
  6
CONTINUOUS
 10
8.378325
 20
-12.089858
 11
7.673268
 21
-12.272088
  0
LWPOLYLINE
  5
2A4
100
AcDbEntity
  8
RACCORDO
100
AcDbPolyline
 62
250
  6
CONTINUOUS
 90
7
 70
0
 10
-5.4544089061
 20
-12.05
 10
-5.4821682061
 20
-12.0503753981
 10
-5.5098881541
 20
-12.0514998891
 10
-5.5375503869
 20
-12.0533705009
 10
-5.5651365932
 20
-12.0559837103
 10
-5.5926285293
 20
-12.0593354491
 10
-5.6200080354
 20
-12.0634211109
  0
LWPOLYLINE
  5
2A5
100
AcDbEntity
  8
RACCORDO
100
AcDbPolyline
 62
250
  6
CONTINUOUS
 90
7
 70
0
 10
-5.4544089061
 20
-12.55
 10
-5.470623773
 20
-12.5501968793
 10
-5.4867254327
 20
-12.5507635335
 10
-5.5027138852
 20
-12.5516999626
 10
-5.5185891306
 20
-12.5530061664
 10
-5.5343511689
 20
-12.5546821451
 10
-5.55
 20
-12.5567278987
  0
LINE
  5
2A6
100
AcDbEntity
  8
ASSI
100
AcDbLine
 62
7
  6
CONTINUOUS
 10
0.9897368307
 20
-13.55
 11
-1.2761847246
 21
-13.55
  0
LINE
  5
2A7
100
AcDbEntity
  8
ASSI
100
AcDbLine
 62
7
  6
CONTINUOUS
 10
-2.7238152754
 20
-13.55
 11
-5.0897368307
 21
-13.55
  0
LINE
  5
2A8
100
AcDbEntity
  8
0
100
AcDbLine
 62
7
  6
CONTINUOUS
 10
7.0005080312
 20
-13.3834763657
 11
7.7440026937
 21
-13.3834763657
  0
LINE
  5
2A9
100
AcDbEntity
  8
ASSI
100
AcDbLine
 62
7
  6
CONTINUOUS
 10
7.0005080312
 20
-13.3834763657
 11
7.7440026937
 21
-13.3834763657
  0
LINE
  5
2AA
100
AcDbEntity
  8
0
100
AcDbLine
 62
7
  6
CONTINUOUS
 10
8.055151513
 20
-13.3703266239
 11
8.5766962005
 21
-13.3703266239
  0
LINE
  5
2AB
100
AcDbEntity
  8
ASSI
100
AcDbLine
 62
7
  6
CONTINUOUS
 10
8.055151513
 20
-13.3703266239
 11
8.5766962005
 21
-13.3703266239
  0
LINE
  5
2AC
100
AcDbEntity
  8
CURVE
100
AcDbLine
 62
250
  6
CONTINUOUS
 10
11.8656922423
 20
-13.3214285374
 11
11.8600833942
 21
-13.3214285374
  0
LINE
  5
2AD
100
AcDbEntity
  8
CURVE
100
AcDbLine
 62
250
  6
CONTINUOUS
 10
11.8544745468
 20
-13.2499998808
 11
11.8469960833
 21
-13.2499998808
  0
LINE
  5
2AE
100
AcDbEntity
  8
0
100
AcDbLine
 62
7
  6
CONTINUOUS
 10
8.8781572359
 20
-12.9884997236
 11
7.0005080312
 21
-12.9884997236
  0
LINE
  5
2AF
100
AcDbEntity
  8
ASSI
100
AcDbLine
 62
7
  6
CONTINUOUS
 10
8.8781572359
 20
-12.9884997236
 11
7.0005080312
 21
-12.9884997236
  0
LINE
  5
2B0
100
AcDbEntity
  8
CURVE
100
AcDbLine
 62
250
  6
CONTINUOUS
 10
11.9163134032
 20
-12.8167794885
 11
11.9022105053
 21
-12.8167794885
  0
LINE
  5
2B1
100
AcDbEntity
  8
CURVE
100
AcDbLine
 62
250
  6
CONTINUOUS
 10
11.9005355936
 20
-12.8167794885
 11
11.886521121
 21
-12.8167794885
  0
LINE
  5
2B2
100
AcDbEntity
  8
CURVE
100
AcDbLine
 62
250
  6
CONTINUOUS
 10
11.886521121
 20
-12.7055897345
 11
11.9179883149
 21
-12.7055897345
  0
LINE
  5
2B3
100
AcDbEntity
  8
RACCORDO
100
AcDbLine
 62
250
  6
CONTINUOUS
 10
-5.9843104223
 20
-12.556714473
 11
-5.55
 21
-12.556714473
  0
LINE
  5
2B4
100
AcDbEntity
  8
RACCORDO
100
AcDbLine
 62
250
  6
CONTINUOUS
 10
1.45
 20
-12.556714473
 11
1.95
 21
-12.556714473
  0
LINE
  5
2B5
100
AcDbEntity
  8
RACCORDO
100
AcDbLine
 62
250
  6
CONTINUOUS
 10
1.3544089061
 20
-12.55
 11
-1.4835751963
 21
-12.55
  0
LINE
  5
2B6
100
AcDbEntity
  8
RACCORDO
100
AcDbLine
 62
250
  6
CONTINUOUS
 10
-2.5164248037
 20
-12.55
 11
-5.4544089061
 21
-12.55
  0
LINE
  5
2B7
100
AcDbEntity
  8
CURVE
100
AcDbLine
 62
250
  6
CONTINUOUS
 10
11.9179884057
 20
-12.3875180284
 11
11.8991251766
 21
-12.3875180284
  0
LINE
  5
2B8
100
AcDbEntity
  8
CURVE
100
AcDbLine
 62
250
  6
CONTINUOUS
 10
11.8991251766
 20
-12.2763980551
 11
11.9179884057
 21
-12.2763980551
  0
LINE
  5
2B9
100
AcDbEntity
  8
CURVE
100
AcDbLine
 62
250
  6
CONTINUOUS
 10
11.8694314739
 20
-12.0714286566
 11
11.8638226257
 21
-12.0714286566
  0
LINE
  5
2BA
100
AcDbEntity
  8
RACCORDO
100
AcDbLine
 62
7
  6
CONTINUOUS
 10
1.45
 20
-12.05
 11
-1.3694122535
 21
-12.05
  0
LINE
  5
2BB
100
AcDbEntity
  8
RACCORDO
100
AcDbLine
 62
7
  6
CONTINUOUS
 10
-2.6305877465
 20
-12.05
 11
-5.55
 21
-12.05
  0
LWPOLYLINE
  5
2BC
100
AcDbEntity
  8
RACCORDO
100
AcDbPolyline
 62
250
  6
CONTINUOUS
 90
7
 70
0
 10
1.45
 20
-12.05
 10
1.4620626032
 20
-12.0503822947
 10
1.4739721244
 20
-12.0515219157
 10
1.4857244183
 20
-12.053407586
 10
1.4973160526
 20
-12.0560275399
 10
1.5087442868
 20
-12.0593695495
 10
1.5200070512
 20
-12.0634209509
  0
LWPOLYLINE
  5
2BD
100
AcDbEntity
  8
0
100
AcDbPolyline
 62
7
  6
CONTINUOUS
 90
6
 70
0
 10
8.3503867227
 20
-13.9050210532
 10
8.2904229581
 20
-13.900526667
 10
8.2368102727
 20
-13.887932773
 10
8.1895486666
 20
-13.8672393709
 10
8.1480529613
 20
-13.8375585171
 10
8.1129083352
 20
-13.7997781553
  0
LWPOLYLINE
  5
2BE
100
AcDbEntity
  8
ASSI
100
AcDbPolyline
 62
7
  6
CONTINUOUS
 90
6
 70
0
 10
8.3503867227
 20
-13.9050210532
 10
8.2904229581
 20
-13.900526667
 10
8.2368102727
 20
-13.887932773
 10
8.1895486666
 20
-13.8672393709
 10
8.1480529613
 20
-13.8375585171
 10
8.1129083352
 20
-13.7997781553
  0
LWPOLYLINE
  5
2BF
100
AcDbEntity
  8
RACCORDO
100
AcDbPolyline
 62
250
  6
CONTINUOUS
 90
7
 70
0
 10
1.45
 20
-12.5567278987
 10
1.4343511689
 20
-12.5546821451
 10
1.4185891306
 20
-12.5530061664
 10
1.4027138852
 20
-12.5516999626
 10
1.3867254327
 20
-12.5507635335
 10
1.370623773
 20
-12.5501968793
 10
1.3544089061
 20
-12.55
  0
LINE
  5
2C0
100
AcDbEntity
  8
RACCORDO
100
AcDbLine
 62
250
  6
CONTINUOUS
 10
11.9162414635
 20
-17.0643546451
 11
11.9426253515
 21
-17.0730014938
  0
LINE
  5
2C1
100
AcDbEntity
  8
RACCORDO
100
AcDbLine
 62
250
  6
CONTINUOUS
 10
12.1238174026
 20
-16.4544358981
 11
12.15
 21
-16.4633443083
  0
LINE
  5
2C2
100
AcDbEntity
  8
RACCORDO
100
AcDbLine
 62
250
  6
CONTINUOUS
 10
-4.5480929688
 20
-17.4519109555
 11
-4.4999048077
 21
-17.5482946182
  0
LINE
  5
2C3
100
AcDbEntity
  8
ASSI
100
AcDbLine
 62
250
  6
CONTINUOUS
 10
-4.5480929688
 20
-17.4519109555
 11
-4.4999048077
 21
-17.5482946182
  0
LINE
  5
2C4
100
AcDbEntity
  8
DRAFT
100
AcDbLine
 62
7
  6
CONTINUOUS
 10
-4.5306392332
 20
-16.9868210911
 11
-4.4999048077
 21
-17.048294624
  0
LINE
  5
2C5
100
AcDbEntity
  8
ASSI
100
AcDbLine
 62
7
  6
CONTINUOUS
 10
-4.5306392332
 20
-16.9868210911
 11
-4.4999048077
 21
-17.048294624
  0
LWPOLYLINE
  5
2C6
100
AcDbEntity
  8
RACCORDO
100
AcDbPolyline
 62
250
  6
CONTINUOUS
 90
16
 70
0
 10
-8.4692136981
 20
-14.9695944602
 10
-8.4544904255
 20
-15.2350138258
 10
-8.4138026276
 20
-15.492260031
 10
-8.3471503046
 20
-15.7413330759
 10
-8.2532612371
 20
-15.9848433908
 10
-8.1334076444
 20
-16.2201805453
 10
-7.9914061845
 20
-16.4395132484
 10
-7.8264088109
 20
-16.6423020623
 10
-7.6392635701
 20
-16.8290864248
 10
-7.4363312601
 20
-16.9936533579
 10
-7.2171520018
 20
-17.1351485089
 10
-6.9821856743
 20
-17.2544262304
 10
-6.7391727129
 20
-17.3478366022
 10
-6.4906932626
 20
-17.414162984
 10
-6.2341671784
 20
-17.454622016
 10
-5.9695944602
 20
-17.4692136981
  0
LWPOLYLINE
  5
2C7
100
AcDbEntity
  8
ASSI
100
AcDbPolyline
 62
250
  6
CONTINUOUS
 90
16
 70
0
 10
-8.4692136981
 20
-14.9695944602
 10
-8.4544904255
 20
-15.2350138258
 10
-8.4138026276
 20
-15.492260031
 10
-8.3471503046
 20
-15.7413330759
 10
-8.2532612371
 20
-15.9848433908
 10
-8.1334076444
 20
-16.2201805453
 10
-7.9914061845
 20
-16.4395132484
 10
-7.8264088109
 20
-16.6423020623
 10
-7.6392635701
 20
-16.8290864248
 10
-7.4363312601
 20
-16.9936533579
 10
-7.2171520018
 20
-17.1351485089
 10
-6.9821856743
 20
-17.2544262304
 10
-6.7391727129
 20
-17.3478366022
 10
-6.4906932626
 20
-17.414162984
 10
-6.2341671784
 20
-17.454622016
 10
-5.9695944602
 20
-17.4692136981
  0
LWPOLYLINE
  5
2C8
100
AcDbEntity
  8
RACCORDO
100
AcDbPolyline
 62
250
  6
CONTINUOUS
 90
16
 70
0
 10
-9.4690613933
 20
-14.9695944602
 10
-9.4497965857
 20
-15.3360287188
 10
-9.39230907
 20
-15.6982634036
 10
-9.2972822772
 20
-16.052330015
 10
-9.1658441409
 20
-16.3942822211
 10
-8.9994658399
 20
-16.7204747182
 10
-8.7998660408
 20
-17.027563741
 10
-8.5691075814
 20
-17.3122832989
 10
-8.3097754134
 20
-17.5713654779
 10
-8.0248558199
 20
-17.8018330235
 10
-7.7175404922
 20
-18.0011595247
 10
-7.3911748523
 20
-18.1672274125
 10
-7.0493834983
 20
-18.2982396352
 10
-6.6959334563
 20
-18.3928044114
 10
-6.3346868217
 20
-18.4499377401
 10
-5.9695944602
 20
-18.4690613933
  0
LWPOLYLINE
  5
2C9
100
AcDbEntity
  8
ASSI
100
AcDbPolyline
 62
250
  6
CONTINUOUS
 90
16
 70
0
 10
-9.4690613933
 20
-14.9695944602
 10
-9.4497965857
 20
-15.3360287188
 10
-9.39230907
 20
-15.6982634036
 10
-9.2972822772
 20
-16.052330015
 10
-9.1658441409
 20
-16.3942822211
 10
-8.9994658399
 20
-16.7204747182
 10
-8.7998660408
 20
-17.027563741
 10
-8.5691075814
 20
-17.3122832989
 10
-8.3097754134
 20
-17.5713654779
 10
-8.0248558199
 20
-17.8018330235
 10
-7.7175404922
 20
-18.0011595247
 10
-7.3911748523
 20
-18.1672274125
 10
-7.0493834983
 20
-18.2982396352
 10
-6.6959334563
 20
-18.3928044114
 10
-6.3346868217
 20
-18.4499377401
 10
-5.9695944602
 20
-18.4690613933
  0
LWPOLYLINE
  5
2CA
100
AcDbEntity
  8
RACCORDO
100
AcDbPolyline
 62
7
  6
CONTINUOUS
 90
10
 70
0
 10
-10.1238174026
 20
-16.4544358981
 10
-10.1211597977
 20
-16.5274619072
 10
-10.1132685454
 20
-16.599557997
 10
-10.1001436456
 20
-16.6707241675
 10
-10.0816090312
 20
-16.7414729461
 10
-10.0578407694
 20
-16.8112918053
 10
-10.0293670616
 20
-16.878643163
 10
-9.9963639749
 20
-16.9430144919
 10
-9.9586554422
 20
-17.0049183193
 10
-9.9162414635
 20
-17.0643546451
  0
LINE
  5
2CB
100
AcDbEntity
  8
RACCORDO
100
AcDbLine
 62
7
  6
CONTINUOUS
 10
-10.15
 20
21.8997711479
 11
-10.15
 21
-21.8997711479
  0
LINE
  5
2CC
100
AcDbEntity
  8
RACCORDO
100
AcDbLine
 62
7
  6
CONTINUOUS
 10
-10.1238174026
 20
16.4544358981
 11
-10.1238174026
 21
-16.4544358981
  0
LINE
  5
2CD
100
AcDbEntity
  8
RACCORDO
100
AcDbLine
 62
7
  6
CONTINUOUS
 10
-10.0
 20
-15.500533067
 11
-10.0
 21
15.500533067
  0
LINE
  5
2CE
100
AcDbEntity
  8
ASSI
100
AcDbLine
 62
7
  6
CONTINUOUS
 10
-10.0
 20
-15.500533067
 11
-10.0
 21
15.500533067
  0
LINE
  5
2CF
100
AcDbEntity
  8
RACCORDO
100
AcDbLine
 62
250
  6
CONTINUOUS
 10
-9.4690613933
 20
14.9695944602
 11
-9.4690613933
 21
-14.9695944602
  0
LINE
  5
2D0
100
AcDbEntity
  8
ASSI
100
AcDbLine
 62
250
  6
CONTINUOUS
 10
-9.4690613933
 20
14.9695944602
 11
-9.4690613933
 21
-14.9695944602
  0
LWPOLYLINE
  5
2D1
100
AcDbEntity
  8
RACCORDO
100
AcDbPolyline
 62
7
  6
CONTINUOUS
 90
10
 70
0
 10
-10.15
 20
16.4633444564
 10
-10.1473544403
 20
16.5362775359
 10
-10.1394801106
 20
16.6082971552
 10
-10.126377011
 20
16.6794033144
 10
-10.1078721374
 20
16.7501092027
 10
-10.084138494
 20
16.8199016308
 10
-10.0556950924
 20
16.8872410307
 10
-10.0227149368
 20
16.9516142132
 10
-9.9850250232
 20
17.0135343676
 10
-9.9426253515
 20
17.0730014938
  0
LINE
  5
2D2
100
AcDbEntity
  8
0
100
AcDbLine
 62
7
  6
CONTINUOUS
 10
7.000508
 20
-11.247306
 11
8.900354
 21
-11.069649
  0
LINE
  5
2D3
100
AcDbEntity
  8
ASSI
100
AcDbLine
 62
7
  6
CONTINUOUS
 10
7.000508
 20
-11.247306
 11
8.900354
 21
-11.069649
  0
LINE
  5
2D4
100
AcDbEntity
  8
0
100
AcDbLine
 62
7
  6
CONTINUOUS
 10
8.2359
 20
-10.777875
 11
7.000508
 21
-10.859353
  0
LINE
  5
2D5
100
AcDbEntity
  8
ASSI
100
AcDbLine
 62
7
  6
CONTINUOUS
 10
8.2359
 20
-10.777875
 11
7.000508
 21
-10.859353
  0
LINE
  5
2D6
100
AcDbEntity
  8
CURVE
100
AcDbLine
 62
250
  6
CONTINUOUS
 10
11.8544745468
 20
-11.6428570747
 11
11.8451264673
 21
-11.6428570747
  0
LINE
  5
2D7
100
AcDbEntity
  8
CURVE
100
AcDbLine
 62
250
  6
CONTINUOUS
 10
11.8656922423
 20
-11.6071427464
 11
11.8600833942
 21
-11.6071427464
  0
LINE
  5
2D8
100
AcDbEntity
  8
CURVE
100
AcDbLine
 62
250
  6
CONTINUOUS
 10
11.9179884057
 20
-11.1196482155
 11
11.8991251766
 21
-11.1196482155
  0
LINE
  5
2D9
100
AcDbEntity
  8
CURVE
100
AcDbLine
 62
250
  6
CONTINUOUS
 10
11.8991251766
 20
-11.0085272007
 11
11.9179884057
 21
-11.0085272007
  0
LINE
  5
2DA
100
AcDbEntity
  8
RACCORDO
100
AcDbLine
 62
7
  6
CONTINUOUS
 10
-4.25
 20
-10.6
 11
0.25
 21
-10.6
  0
LINE
  5
2DB
100
AcDbEntity
  8
ASSI
100
AcDbLine
 62
7
  6
CONTINUOUS
 10
-4.25
 20
-10.6
 11
0.25
 21
-10.6
  0
LINE
  5
2DC
100
AcDbEntity
  8
CURVE
100
AcDbLine
 62
250
  6
CONTINUOUS
 10
11.8656922423
 20
-10.5714284778
 11
11.8582137792
 21
-10.5714284778
  0
LINE
  5
2DD
100
AcDbEntity
  8
CURVE
100
AcDbLine
 62
250
  6
CONTINUOUS
 10
11.8900685325
 20
-10.392007
 11
11.8865492847
 21
-10.392007
  0
LINE
  5
2DE
100
AcDbEntity
  8
CURVE
100
AcDbLine
 62
250
  6
CONTINUOUS
 10
11.9179590237
 20
-10.384415
 11
11.9144397759
 21
-10.384415
  0
LINE
  5
2DF
100
AcDbEntity
  8
CURVE
100
AcDbLine
 62
250
  6
CONTINUOUS
 10
11.9044537212
 20
-10.316398
 11
11.9009341767
 21
-10.316398
  0
LINE
  5
2E0
100
AcDbEntity
  8
RACCORDO
100
AcDbLine
 62
250
  6
CONTINUOUS
 10
-4.25
 20
-10.3
 11
0.25
 21
-10.3
  0
LINE
  5
2E1
100
AcDbEntity
  8
ASSI
100
AcDbLine
 62
250
  6
CONTINUOUS
 10
-4.25
 20
-10.3
 11
0.25
 21
-10.3
  0
LWPOLYLINE
  5
2E2
100
AcDbEntity
  8
RACCORDO
100
AcDbPolyline
 62
250
  6
CONTINUOUS
 90
7
 70
0
 10
1.5200070512
 20
-12.0634209509
 10
1.4926279815
 20
-12.0593353749
 10
1.4651363738
 20
-12.0559836865
 10
1.4375503869
 20
-12.0533705009
 10
1.4098882639
 20
-12.051499895
 10
1.3821683158
 20
-12.0503754011
 10
1.3544089061
 20
-12.05
  0
LWPOLYLINE
  5
2E3
100
AcDbEntity
  8
RACCORDO
100
AcDbPolyline
 62
7
  6
CONTINUOUS
 90
3
 70
0
 10
1.4794345412
 20
-13.9331383355
 10
1.4747438299
 20
-13.9295637132
 10
1.45
 20
-13.9100458713
  0
LINE
  5
2E4
100
AcDbEntity
  8
RACCORDO
100
AcDbLine
 62
7
  6
CONTINUOUS
 10
1.0879115065
 20
-13.6251038517
 11
0.9897368307
 21
-13.55
  0
LINE
  5
2E5
100
AcDbEntity
  8
RACCORDO
100
AcDbLine
 62
7
  6
CONTINUOUS
 10
1.1884032647
 20
-13.7029820901
 11
1.0879115065
 21
-13.6251038517
  0
LINE
  5
2E6
100
AcDbEntity
  8
RACCORDO
100
AcDbLine
 62
7
  6
CONTINUOUS
 10
1.2912318991
 20
-13.7836545211
 11
1.1884032647
 21
-13.7029820901
  0
LWPOLYLINE
  5
2E7
100
AcDbEntity
  8
RACCORDO
100
AcDbPolyline
 62
7
  6
CONTINUOUS
 90
3
 70
0
 10
1.45
 20
-13.9100458713
 10
1.3964765857
 20
-13.8672003682
 10
1.2912318991
 20
-13.7836545211
  0
LINE
  5
2E8
100
AcDbEntity
  8
0
100
AcDbLine
 62
7
  6
CONTINUOUS
 10
-8.65
 20
20.9
 11
-8.65
 21
18.2585027295
  0
LINE
  5
2E9
100
AcDbEntity
  8
RACCORDO
100
AcDbLine
 62
7
  6
CONTINUOUS
 10
-8.65
 20
20.9
 11
-8.65
 21
18.2585027295
  0
LINE
  5
2EA
100
AcDbEntity
  8
0
100
AcDbLine
 62
7
  6
CONTINUOUS
 10
-8.65
 20
-18.258502683
 11
-8.65
 21
-20.9
  0
LINE
  5
2EB
100
AcDbEntity
  8
RACCORDO
100
AcDbLine
 62
7
  6
CONTINUOUS
 10
-8.65
 20
-18.258502683
 11
-8.65
 21
-20.9
  0
LINE
  5
2EC
100
AcDbEntity
  8
RACCORDO
100
AcDbLine
 62
250
  6
CONTINUOUS
 10
-8.4692136981
 20
14.9695944602
 11
-8.4692136981
 21
-14.9695944602
  0
LINE
  5
2ED
100
AcDbEntity
  8
ASSI
100
AcDbLine
 62
250
  6
CONTINUOUS
 10
-8.4692136981
 20
14.9695944602
 11
-8.4692136981
 21
-14.9695944602
  0
LINE
  5
2EE
100
AcDbEntity
  8
RACCORDO
100
AcDbLine
 62
250
  6
CONTINUOUS
 10
0.5001332693
 20
18.5481423133
 11
0.4605958206
 21
18.4690613933
  0
LINE
  5
2EF
100
AcDbEntity
  8
ASSI
100
AcDbLine
 62
250
  6
CONTINUOUS
 10
0.5001332693
 20
18.5481423133
 11
0.4605958206
 21
18.4690613933
  0
LWPOLYLINE
  5
2F0
100
AcDbEntity
  8
RACCORDO
100
AcDbPolyline
 62
250
  6
CONTINUOUS
 90
7
 70
0
 10
7.6200080354
 20
12.0634211109
 10
7.6087445965
 20
12.0593695483
 10
7.5973158793
 20
12.0560274668
 10
7.5857239637
 20
12.0534075039
 10
7.5739715995
 20
12.0515218609
 10
7.5620622275
 20
12.0503822764
 10
7.55
 20
12.05
  0
LINE
  5
2F1
100
AcDbEntity
  8
0
100
AcDbLine
 62
7
  6
CONTINUOUS
 10
7.592631
 20
-7.793796
 11
8.900354
 21
-7.431651
  0
LINE
  5
2F2
100
AcDbEntity
  8
ASSI
100
AcDbLine
 62
7
  6
CONTINUOUS
 10
7.592631
 20
-7.793796
 11
8.900354
 21
-7.431651
  0
LINE
  5
2F3
100
AcDbEntity
  8
RACCORDO
100
AcDbLine
 62
250
  6
CONTINUOUS
 10
0.25
 20
-9.9965546854
 11
-4.25
 21
-9.9965546854
  0
LINE
  5
2F4
100
AcDbEntity
  8
ASSI
100
AcDbLine
 62
250
  6
CONTINUOUS
 10
0.25
 20
-9.9965546854
 11
-4.25
 21
-9.9965546854
  0
LINE
  5
2F5
100
AcDbEntity
  8
CURVE
100
AcDbLine
 62
250
  6
CONTINUOUS
 10
11.8582137792
 20
-9.8214284778
 11
11.8656922423
 21
-9.8214284778
  0
LINE
  5
2F6
100
AcDbEntity
  8
RACCORDO
100
AcDbLine
 62
7
  6
CONTINUOUS
 10
0.25
 20
-9.6966003769
 11
-4.25
 21
-9.6966003769
  0
LINE
  5
2F7
100
AcDbEntity
  8
ASSI
100
AcDbLine
 62
7
  6
CONTINUOUS
 10
0.25
 20
-9.6966003769
 11
-4.25
 21
-9.6966003769
  0
LINE
  5
2F8
100
AcDbEntity
  8
CURVE
100
AcDbLine
 62
250
  6
CONTINUOUS
 10
11.8507353152
 20
-9.3928570747
 11
11.8619530107
 21
-9.3928570747
  0
LINE
  5
2F9
100
AcDbEntity
  8
CURVE
100
AcDbLine
 62
250
  6
CONTINUOUS
 10
11.9144397759
 20
-9.381053
 11
11.9044537212
 21
-9.381053
  0
LINE
  5
2FA
100
AcDbEntity
  8
CURVE
100
AcDbLine
 62
250
  6
CONTINUOUS
 10
11.9009341767
 20
-9.381053
 11
11.8900685325
 21
-9.381053
  0
LINE
  5
2FB
100
AcDbEntity
  8
CURVE
100
AcDbLine
 62
250
  6
CONTINUOUS
 10
11.8865492847
 20
-9.14156
 11
11.9179590237
 21
-9.14156
  0
LINE
  5
2FC
100
AcDbEntity
  8
0
100
AcDbLine
 62
7
  6
CONTINUOUS
 10
7.000508
 20
-9.107046
 11
8.900468
 21
-9.107046
  0
LINE
  5
2FD
100
AcDbEntity
  8
ASSI
100
AcDbLine
 62
7
  6
CONTINUOUS
 10
7.000508
 20
-9.107046
 11
8.900468
 21
-9.107046
  0
LINE
  5
2FE
100
AcDbEntity
  8
0
100
AcDbLine
 62
7
  6
CONTINUOUS
 10
8.900468
 20
-8.710474
 11
7.000508
 21
-8.710474
  0
LINE
  5
2FF
100
AcDbEntity
  8
ASSI
100
AcDbLine
 62
7
  6
CONTINUOUS
 10
8.900468
 20
-8.710474
 11
7.000508
 21
-8.710474
  0
LINE
  5
300
100
AcDbEntity
  8
CURVE
100
AcDbLine
 62
250
  6
CONTINUOUS
 10
11.8619530107
 20
-8.6428570747
 11
11.8507353152
 21
-8.6428570747
  0
LINE
  5
301
100
AcDbEntity
  8
0
100
AcDbLine
 62
7
  6
CONTINUOUS
 10
7.000508
 20
-9.699924
 11
8.241072
 21
-9.785504
  0
LINE
  5
302
100
AcDbEntity
  8
ASSI
100
AcDbLine
 62
7
  6
CONTINUOUS
 10
7.000508
 20
-9.699924
 11
8.241072
 21
-9.785504
  0
LINE
  5
303
100
AcDbEntity
  8
0
100
AcDbLine
 62
7
  6
CONTINUOUS
 10
8.900354
 20
-9.492079
 11
7.000508
 21
-9.320534
  0
LINE
  5
304
100
AcDbEntity
  8
ASSI
100
AcDbLine
 62
7
  6
CONTINUOUS
 10
8.900354
 20
-9.492079
 11
7.000508
 21
-9.320534
  0
LWPOLYLINE
  5
305
100
AcDbEntity
  8
CURVE
100
AcDbPolyline
 62
250
  6
CONTINUOUS
 90
20
 70
0
 10
11.8991251766
 20
-12.2763980551
 10
11.8988291053
 20
-12.2763175544
 10
11.8985308125
 20
-12.2760670663
 10
11.8982306193
 20
-12.2756331123
 10
11.8979288468
 20
-12.2750022136
 10
11.8976258162
 20
-12.2741608915
 10
11.8973218487
 20
-12.2730956674
 10
11.8970172654
 20
-12.2717930625
 10
11.8967123874
 20
-12.2702395983
 10
11.8964075359
 20
-12.2684217959
 10
11.896103032
 20
-12.2663261768
 10
11.8957991969
 20
-12.2639392621
 10
11.8954963517
 20
-12.2612475733
 10
11.8951948176
 20
-12.2582376317
 10
11.8948949158
 20
-12.2548959586
 10
11.8945969673
 20
-12.2512090752
 10
11.8943012933
 20
-12.2471635029
 10
11.894008215
 20
-12.242745763
 10
11.8937180535
 20
-12.2379423769
 10
11.89343113
 20
-12.2327398658
  0
LINE
  5
306
100
AcDbEntity
  8
0
100
AcDbLine
 62
7
  6
CONTINUOUS
 10
7.673268
 20
-11.892398
 11
8.378325
 21
-12.089858
  0
LINE
  5
307
100
AcDbEntity
  8
ASSI
100
AcDbLine
 62
7
  6
CONTINUOUS
 10
7.673268
 20
-11.892398
 11
8.378325
 21
-12.089858
  0
LINE
  5
308
100
AcDbEntity
  8
0
100
AcDbLine
 62
7
  6
CONTINUOUS
 10
7.000508
 20
-11.701848
 11
7.379785
 21
-11.811277
  0
LINE
  5
309
100
AcDbEntity
  8
ASSI
100
AcDbLine
 62
7
  6
CONTINUOUS
 10
7.000508
 20
-11.701848
 11
7.379785
 21
-11.811277
  0
LINE
  5
30A
100
AcDbEntity
  8
0
100
AcDbLine
 62
7
  6
CONTINUOUS
 10
8.900354
 20
-11.905491
 11
7.000508
 21
-11.309578
  0
LINE
  5
30B
100
AcDbEntity
  8
ASSI
100
AcDbLine
 62
7
  6
CONTINUOUS
 10
8.900354
 20
-11.905491
 11
7.000508
 21
-11.309578
  0
LINE
  5
30C
100
AcDbEntity
  8
DRAFT
100
AcDbLine
 62
7
  6
CONTINUOUS
 10
-6.2084845302
 20
-19.7
 11
-6.2195044567
 21
-19.0686688326
  0
LINE
  5
30D
100
AcDbEntity
  8
DRAFT
100
AcDbLine
 62
7
  6
CONTINUOUS
 10
-6.2084845302
 20
19.9483339502
 11
-6.2084845302
 21
19.7
  0
LINE
  5
30E
100
AcDbEntity
  8
DRAFT
100
AcDbLine
 62
7
  6
CONTINUOUS
 10
-6.2084845302
 20
-19.7
 11
-6.2084845302
 21
-19.9483339502
  0
LINE
  5
30F
100
AcDbEntity
  8
RACCORDO
100
AcDbLine
 62
250
  6
CONTINUOUS
 10
-5.9695944602
 20
17.4692136981
 11
-5.969594292
 21
18.4690613933
  0
LINE
  5
310
100
AcDbEntity
  8
ASSI
100
AcDbLine
 62
250
  6
CONTINUOUS
 10
-5.9695944602
 20
17.4692136981
 11
-5.969594292
 21
18.4690613933
  0
LINE
  5
311
100
AcDbEntity
  8
RACCORDO
100
AcDbLine
 62
250
  6
CONTINUOUS
 10
-5.9695944602
 20
-17.4692136981
 11
-5.9695944602
 21
-18.4690613933
  0
LINE
  5
312
100
AcDbEntity
  8
ASSI
100
AcDbLine
 62
250
  6
CONTINUOUS
 10
-5.9695944602
 20
-17.4692136981
 11
-5.9695944602
 21
-18.4690613933
  0
LINE
  5
313
100
AcDbEntity
  8
DRAFT
100
AcDbLine
 62
7
  6
CONTINUOUS
 10
-6.2195044567
 20
19.0686688326
 11
-6.2084845302
 21
19.7
  0
LINE
  5
314
100
AcDbEntity
  8
RACCORDO
100
AcDbLine
 62
250
  6
CONTINUOUS
 10
1.5000951923
 20
17.5482946182
 11
1.4519070312
 21
17.4519109555
  0
LINE
  5
315
100
AcDbEntity
  8
ASSI
100
AcDbLine
 62
250
  6
CONTINUOUS
 10
1.5000951923
 20
17.5482946182
 11
1.4519070312
 21
17.4519109555
  0
LINE
  5
316
100
AcDbEntity
  8
DRAFT
100
AcDbLine
 62
7
  6
CONTINUOUS
 10
1.4693607668
 20
16.9868210911
 11
1.5000951923
 21
17.048294624
  0
LINE
  5
317
100
AcDbEntity
  8
ASSI
100
AcDbLine
 62
7
  6
CONTINUOUS
 10
1.4693607668
 20
16.9868210911
 11
1.5000951923
 21
17.048294624
  0
LINE
  5
318
100
AcDbEntity
  8
RACCORDO
100
AcDbLine
 62
250
  6
CONTINUOUS
 10
8.500533067
 20
19.0
 11
7.9695944602
 21
18.4690613933
  0
LINE
  5
319
100
AcDbEntity
  8
ASSI
100
AcDbLine
 62
250
  6
CONTINUOUS
 10
8.500533067
 20
19.0
 11
7.9695944602
 21
18.4690613933
  0
LINE
  5
31A
100
AcDbEntity
  8
DRAFT
100
AcDbLine
 62
7
  6
CONTINUOUS
 10
10.5103594806
 20
20.7603594806
 11
10.65
 21
20.9
  0
LINE
  5
31B
100
AcDbEntity
  8
RACCORDO
100
AcDbLine
 62
7
  6
CONTINUOUS
 10
7.443508831
 20
13.8250342899
 11
7.5239292066
 21
13.8891763063
  0
LINE
  5
31C
100
AcDbEntity
  8
RACCORDO
100
AcDbLine
 62
7
  6
CONTINUOUS
 10
7.3394585084
 20
13.7429146528
 11
7.443508831
 21
13.8250342899
  0
LINE
  5
31D
100
AcDbEntity
  8
RACCORDO
100
AcDbLine
 62
7
  6
CONTINUOUS
 10
7.237825413
 20
13.6636639221
 11
7.3394585084
 21
13.7429146528
  0
LWPOLYLINE
  5
31E
100
AcDbEntity
  8
RACCORDO
100
AcDbPolyline
 62
7
  6
CONTINUOUS
 90
3
 70
0
 10
7.0897368307
 20
13.55
 10
7.1385150674
 20
13.5871899457
 10
7.237825413
 20
13.6636639221
  0
LINE
  5
31F
100
AcDbEntity
  8
CURVE
100
AcDbLine
 62
250
  6
CONTINUOUS
 10
11.8900685325
 20
-7.084446
 11
11.8865492847
 21
-7.084446
  0
LINE
  5
320
100
AcDbEntity
  8
CURVE
100
AcDbLine
 62
250
  6
CONTINUOUS
 10
11.9179590237
 20
-7.076887
 11
11.9144397759
 21
-7.076887
  0
LINE
  5
321
100
AcDbEntity
  8
CURVE
100
AcDbLine
 62
250
  6
CONTINUOUS
 10
11.9044537212
 20
-7.008818
 11
11.9009341767
 21
-7.008818
  0
LINE
  5
322
100
AcDbEntity
  8
0
100
AcDbLine
 62
7
  6
CONTINUOUS
 10
8.900354
 20
-10.677279
 11
7.845554
 21
-10.280707
  0
LINE
  5
323
100
AcDbEntity
  8
ASSI
100
AcDbLine
 62
7
  6
CONTINUOUS
 10
8.900354
 20
-10.677279
 11
7.845554
 21
-10.280707
  0
LINE
  5
324
100
AcDbEntity
  8
0
100
AcDbLine
 62
7
  6
CONTINUOUS
 10
7.000508
 20
-10.306351
 11
8.2359
 21
-10.777875
  0
LINE
  5
325
100
AcDbEntity
  8
ASSI
100
AcDbLine
 62
7
  6
CONTINUOUS
 10
7.000508
 20
-10.306351
 11
8.2359
 21
-10.777875
  0
LWPOLYLINE
  5
326
100
AcDbEntity
  8
0
100
AcDbPolyline
 62
7
  6
CONTINUOUS
 90
17
 70
0
 10
7.9938410773
 20
-14.1428264896
 10
8.0331735224
 20
-14.170552197
 10
8.0745481504
 20
-14.1956684372
 10
8.1164184641
 20
-14.2189351642
 10
8.1603309606
 20
-14.239592424
 10
8.2075820386
 20
-14.2559049522
 10
8.2590959392
 20
-14.2676626561
 10
8.3139484213
 20
-14.2750756284
 10
8.3706631605
 20
-14.2770388837
 10
8.4295446485
 20
-14.2739752936
 10
8.4902883935
 20
-14.2654619865
 10
8.5505045958
 20
-14.2491253616
 10
8.610796248
 20
-14.2247256691
 10
8.6705603574
 20
-14.1925026588
 10
8.7255981463
 20
-14.1508019801
 10
8.774510022
 20
-14.0990721829
 10
8.8186955772
 20
-14.0378647173
  0
LWPOLYLINE
  5
327
100
AcDbEntity
  8
ASSI
100
AcDbPolyline
 62
7
  6
CONTINUOUS
 90
17
 70
0
 10
7.9938410773
 20
-14.1428264896
 10
8.0331735224
 20
-14.170552197
 10
8.0745481504
 20
-14.1956684372
 10
8.1164184641
 20
-14.2189351642
 10
8.1603309606
 20
-14.239592424
 10
8.2075820386
 20
-14.2559049522
 10
8.2590959392
 20
-14.2676626561
 10
8.3139484213
 20
-14.2750756284
 10
8.3706631605
 20
-14.2770388837
 10
8.4295446485
 20
-14.2739752936
 10
8.4902883935
 20
-14.2654619865
 10
8.5505045958
 20
-14.2491253616
 10
8.610796248
 20
-14.2247256691
 10
8.6705603574
 20
-14.1925026588
 10
8.7255981463
 20
-14.1508019801
 10
8.774510022
 20
-14.0990721829
 10
8.8186955772
 20
-14.0378647173
  0
LWPOLYLINE
  5
328
100
AcDbEntity
  8
RACCORDO
100
AcDbPolyline
 62
7
  6
CONTINUOUS
 90
13
 70
0
 10
10.7422764726
 20
-18.1780586799
 10
10.7594973468
 20
-18.1921797893
 10
10.782695415
 20
-18.2065586767
 10
10.8071350985
 20
-18.2175597926
 10
10.8328858706
 20
-18.2250011642
 10
10.8598782579
 20
-18.2290647642
 10
10.8866768348
 20
-18.2295379904
 10
10.9132575203
 20
-18.2262380981
 10
10.9396443954
 20
-18.2193478318
 10
10.9644742777
 20
-18.2092028229
 10
10.9872927728
 20
-18.1959149486
 10
11.0085542751
 20
-18.1793723317
 10
11.0282587846
 20
-18.1595749722
  0
LINE
  5
329
100
AcDbEntity
  8
RACCORDO
100
AcDbLine
 62
250
  6
CONTINUOUS
 10
8.500533067
 20
-19.0
 11
7.9695944602
 21
-18.4690613933
  0
LINE
  5
32A
100
AcDbEntity
  8
ASSI
100
AcDbLine
 62
250
  6
CONTINUOUS
 10
8.500533067
 20
-19.0
 11
7.9695944602
 21
-18.4690613933
  0
LINE
  5
32B
100
AcDbEntity
  8
DRAFT
100
AcDbLine
 62
7
  6
CONTINUOUS
 10
10.65
 20
-20.9
 11
10.5103594806
 21
-20.7603594806
  0
LINE
  5
32C
100
AcDbEntity
  8
RACCORDO
100
AcDbLine
 62
250
  6
CONTINUOUS
 10
-5.55
 20
-12.556714473
 11
-5.6200282971
 21
-12.063428946
  0
LINE
  5
32D
100
AcDbEntity
  8
DRAFT
100
AcDbLine
 62
7
  6
CONTINUOUS
 10
-6.238215003
 20
20.9317102097
 11
-6.2084845302
 21
19.9483339502
  0
LINE
  5
32E
100
AcDbEntity
  8
DRAFT
100
AcDbLine
 62
7
  6
CONTINUOUS
 10
-5.0830351795
 20
-19.0
 11
-5.0819690456
 21
-19.0610787705
  0
LINE
  5
32F
100
AcDbEntity
  8
RACCORDO
100
AcDbLine
 62
250
  6
CONTINUOUS
 10
-5.55
 20
-13.8634176008
 11
-5.55
 21
-12.5567278987
  0
LINE
  5
330
100
AcDbEntity
  8
RACCORDO
100
AcDbLine
 62
250
  6
CONTINUOUS
 10
-5.4544089061
 20
-12.55
 11
-5.4544089061
 21
-12.05
  0
LINE
  5
331
100
AcDbEntity
  8
RACCORDO
100
AcDbLine
 62
7
  6
CONTINUOUS
 10
-4.5480929688
 20
-17.4519109555
 11
-4.5480929688
 21
-16.9519109613
  0
LINE
  5
332
100
AcDbEntity
  8
ASSI
100
AcDbLine
 62
7
  6
CONTINUOUS
 10
-4.5480929688
 20
-17.4519109555
 11
-4.5480929688
 21
-16.9519109613
  0
LINE
  5
333
100
AcDbEntity
  8
RACCORDO
100
AcDbLine
 62
7
  6
CONTINUOUS
 10
-4.4999048077
 20
-17.048294624
 11
-4.4999048077
 21
-17.5482946182
  0
LINE
  5
334
100
AcDbEntity
  8
ASSI
100
AcDbLine
 62
7
  6
CONTINUOUS
 10
-4.4999048077
 20
-17.048294624
 11
-4.4999048077
 21
-17.5482946182
  0
LINE
  5
335
100
AcDbEntity
  8
RACCORDO
100
AcDbLine
 62
250
  6
CONTINUOUS
 10
-4.25
 20
-15.1
 11
-4.2500001027
 21
-14.8
  0
LINE
  5
336
100
AcDbEntity
  8
ASSI
100
AcDbLine
 62
250
  6
CONTINUOUS
 10
-4.25
 20
-15.1
 11
-4.2500001027
 21
-14.8
  0
LINE
  5
337
100
AcDbEntity
  8
RACCORDO
100
AcDbLine
 62
250
  6
CONTINUOUS
 10
-4.25
 20
-10.3
 11
-4.25
 21
-10.6
  0
LINE
  5
338
100
AcDbEntity
  8
ASSI
100
AcDbLine
 62
250
  6
CONTINUOUS
 10
-4.25
 20
-10.3
 11
-4.25
 21
-10.6
  0
LINE
  5
339
100
AcDbEntity
  8
RACCORDO
100
AcDbLine
 62
250
  6
CONTINUOUS
 10
-4.25
 20
-15.4034453146
 11
-4.25
 21
-15.7033996231
  0
LINE
  5
33A
100
AcDbEntity
  8
ASSI
100
AcDbLine
 62
250
  6
CONTINUOUS
 10
-4.25
 20
-15.4034453146
 11
-4.25
 21
-15.7033996231
  0
LINE
  5
33B
100
AcDbEntity
  8
RACCORDO
100
AcDbLine
 62
250
  6
CONTINUOUS
 10
-4.25
 20
-9.9965546854
 11
-4.2499996249
 21
-9.696600377
  0
LINE
  5
33C
100
AcDbEntity
  8
ASSI
100
AcDbLine
 62
250
  6
CONTINUOUS
 10
-4.25
 20
-9.9965546854
 11
-4.2499996249
 21
-9.696600377
  0
LINE
  5
33D
100
AcDbEntity
  8
DRAFT
100
AcDbLine
 62
7
  6
CONTINUOUS
 10
-5.0819690456
 20
19.0610787705
 11
-5.0830351795
 21
19.0
  0
LINE
  5
33E
100
AcDbEntity
  8
DRAFT
100
AcDbLine
 62
7
  6
CONTINUOUS
 10
-6.238215003
 20
-20.9317102097
 11
-6.2084845302
 21
-19.9483339502
  0
LINE
  5
33F
100
AcDbEntity
  8
CURVE
100
AcDbLine
 62
250
  6
CONTINUOUS
 10
11.9009341767
 20
-6.073526
 11
11.8900685325
 21
-6.073526
  0
LINE
  5
340
100
AcDbEntity
  8
CURVE
100
AcDbLine
 62
250
  6
CONTINUOUS
 10
11.9144397759
 20
-6.073526
 11
11.9044537212
 21
-6.073526
  0
LINE
  5
341
100
AcDbEntity
  8
CURVE
100
AcDbLine
 62
250
  6
CONTINUOUS
 10
11.8865492847
 20
-5.834015
 11
11.9179590237
 21
-5.834015
  0
LINE
  5
342
100
AcDbEntity
  8
CURVE
100
AcDbLine
 62
250
  6
CONTINUOUS
 10
11.9179590237
 20
-5.332387
 11
11.8865492847
 21
-5.332387
  0
LINE
  5
343
100
AcDbEntity
  8
CURVE
100
AcDbLine
 62
250
  6
CONTINUOUS
 10
11.8924878529
 20
-5.105488
 11
11.9179590237
 21
-5.105488
  0
LINE
  5
344
100
AcDbEntity
  8
0
100
AcDbLine
 62
7
  6
CONTINUOUS
 10
8.900354
 20
-8.167003
 11
7.592631
 21
-7.793796
  0
LINE
  5
345
100
AcDbEntity
  8
ASSI
100
AcDbLine
 62
7
  6
CONTINUOUS
 10
8.900354
 20
-8.167003
 11
7.592631
 21
-7.793796
  0
LINE
  5
346
100
AcDbEntity
  8
0
100
AcDbLine
 62
7
  6
CONTINUOUS
 10
7.000508
 20
-7.952618
 11
8.900354
 21
-8.563305
  0
LINE
  5
347
100
AcDbEntity
  8
ASSI
100
AcDbLine
 62
7
  6
CONTINUOUS
 10
7.000508
 20
-7.952618
 11
8.900354
 21
-8.563305
  0
LINE
  5
348
100
AcDbEntity
  8
DRAFT
100
AcDbLine
 62
7
  6
CONTINUOUS
 10
-2.434596365
 20
-21.2139629885
 11
-2.3821231691
 21
-22.2
  0
LINE
  5
349
100
AcDbEntity
  8
DRAFT
100
AcDbLine
 62
7
  6
CONTINUOUS
 10
-3.9
 20
-19.0174537356
 11
-3.9
 21
-19.0610787705
  0
LINE
  5
34A
100
AcDbEntity
  8
0
100
AcDbLine
 62
7
  6
CONTINUOUS
 10
-3.8
 20
-11.0182321592
 11
-3.8
 21
-12.05
  0
LINE
  5
34B
100
AcDbEntity
  8
0
100
AcDbLine
 62
7
  6
CONTINUOUS
 10
-3.8
 20
-13.55
 11
-3.8
 21
-14.05
  0
LINE
  5
34C
100
AcDbEntity
  8
0
100
AcDbLine
 62
7
  6
CONTINUOUS
 10
-3.431939
 20
-14.05
 11
-3.431939
 21
-13.55
  0
LINE
  5
34D
100
AcDbEntity
  8
0
100
AcDbLine
 62
7
  6
CONTINUOUS
 10
-3.431939
 20
-12.05
 11
-3.431939
 21
-11.1579214812
  0
LINE
  5
34E
100
AcDbEntity
  8
DRAFT
100
AcDbLine
 62
250
  6
CONTINUOUS
 10
-3.4
 20
-19.0427616522
 11
-3.4
 21
-19.0610787705
  0
LINE
  5
34F
100
AcDbEntity
  8
DRAFT
100
AcDbLine
 62
7
  6
CONTINUOUS
 10
-2.434596365
 20
21.2139629885
 11
-2.3821231691
 21
22.2
  0
LWPOLYLINE
  5
350
100
AcDbEntity
  8
RACCORDO
100
AcDbPolyline
 62
250
  6
CONTINUOUS
 90
10
 70
0
 10
-4.4999048077
 20
-17.5482946182
 10
-4.5151115463
 20
-17.7218518741
 10
-4.5602208114
 20
-17.8901495942
 10
-4.633868142
 20
-18.0480759239
 10
-4.7338205991
 20
-18.1908309008
 10
-4.8570476101
 20
-18.3140775215
 10
-4.9998152305
 20
-18.4140712466
 10
-5.1577928297
 20
-18.4877677188
 10
-5.3261818662
 20
-18.5329182934
 10
-5.4998665793
 20
-18.5481423106
  0
LWPOLYLINE
  5
351
100
AcDbEntity
  8
ASSI
100
AcDbPolyline
 62
250
  6
CONTINUOUS
 90
10
 70
0
 10
-4.4999048077
 20
-17.5482946182
 10
-4.5151115463
 20
-17.7218518741
 10
-4.5602208114
 20
-17.8901495942
 10
-4.633868142
 20
-18.0480759239
 10
-4.7338205991
 20
-18.1908309008
 10
-4.8570476101
 20
-18.3140775215
 10
-4.9998152305
 20
-18.4140712466
 10
-5.1577928297
 20
-18.4877677188
 10
-5.3261818662
 20
-18.5329182934
 10
-5.4998665793
 20
-18.5481423106
  0
LINE
  5
352
100
AcDbEntity
  8
DRAFT
100
AcDbLine
 62
7
  6
CONTINUOUS
 10
4.0104834329
 20
22.1955695989
 11
3.700388948
 21
21.1802222394
  0
LWPOLYLINE
  5
353
100
AcDbEntity
  8
RACCORDO
100
AcDbPolyline
 62
250
  6
CONTINUOUS
 90
10
 70
0
 10
7.9235343033
 20
12.2258215406
 10
7.8999548592
 20
12.2008958651
 10
7.8704487045
 20
12.1742829749
 10
7.8390396975
 20
12.1501965166
 10
7.8056620532
 20
12.1285818646
 10
7.7705685062
 20
12.1096171268
 10
7.7344545773
 20
12.0936586227
 10
7.6975016415
 20
12.0806999429
 10
7.6594020842
 20
12.0706040466
 10
7.6200282971
 20
12.063428946
  0
LINE
  5
354
100
AcDbEntity
  8
CURVE
100
AcDbLine
 62
250
  6
CONTINUOUS
 10
11.9117560395
 20
-4.124786
 11
11.8865492847
 21
-4.124786
  0
LINE
  5
355
100
AcDbEntity
  8
CURVE
100
AcDbLine
 62
250
  6
CONTINUOUS
 10
11.8865492847
 20
-3.897904
 11
11.9179590237
 21
-3.897904
  0
LINE
  5
356
100
AcDbEntity
  8
DRAFT
100
AcDbLine
 62
7
  6
CONTINUOUS
 10
3.700388948
 20
-21.1802222394
 11
4.0104834329
 21
-22.1955695989
  0
LWPOLYLINE
  5
357
100
AcDbEntity
  8
RACCORDO
100
AcDbPolyline
 62
250
  6
CONTINUOUS
 90
10
 70
0
 10
0.4999048077
 20
-17.5482946182
 10
0.515119987
 20
-17.7218997197
 10
0.5602504177
 20
-17.8902309248
 10
0.6339250931
 20
-18.0481745647
 10
0.7339058684
 20
-18.190932528
 10
0.8571554631
 20
-18.3141680348
 10
0.9999297364
 20
-18.4141373743
 10
1.1578914109
 20
-18.4878036168
 10
1.3262418264
 20
-18.5329288782
 10
1.4998667307
 20
-18.5481423133
  0
LWPOLYLINE
  5
358
100
AcDbEntity
  8
ASSI
100
AcDbPolyline
 62
250
  6
CONTINUOUS
 90
10
 70
0
 10
0.4999048077
 20
-17.5482946182
 10
0.515119987
 20
-17.7218997197
 10
0.5602504177
 20
-17.8902309248
 10
0.6339250931
 20
-18.0481745647
 10
0.7339058684
 20
-18.190932528
 10
0.8571554631
 20
-18.3141680348
 10
0.9999297364
 20
-18.4141373743
 10
1.1578914109
 20
-18.4878036168
 10
1.3262418264
 20
-18.5329288782
 10
1.4998667307
 20
-18.5481423133
  0
LINE
  5
359
100
AcDbEntity
  8
DRAFT
100
AcDbLine
 62
7
  6
CONTINUOUS
 10
-1.8376185395
 20
-19.0448353178
 11
-1.8382546653
 21
-19.0083916952
  0
LINE
  5
35A
100
AcDbEntity
  8
DRAFT
100
AcDbLine
 62
7
  6
CONTINUOUS
 10
-1.5778458381
 20
-18.9904395897
 11
-1.5782035562
 21
-18.9699459313
  0
LINE
  5
35B
100
AcDbEntity
  8
DRAFT
100
AcDbLine
 62
7
  6
CONTINUOUS
 10
-1.5979090928
 20
-17.0909593757
 11
-1.5997268334
 21
-16.9868210911
  0
LINE
  5
35C
100
AcDbEntity
  8
DRAFT
100
AcDbLine
 62
7
  6
CONTINUOUS
 10
-2.2221739189
 20
18.9915714639
 11
-2.2217726168
 21
18.9685808831
  0
LINE
  5
35D
100
AcDbEntity
  8
DRAFT
100
AcDbLine
 62
7
  6
CONTINUOUS
 10
-1.5621250618
 20
-17.0908690177
 11
-1.5639412251
 21
-16.9868210911
  0
LINE
  5
35E
100
AcDbEntity
  8
RACCORDO
100
AcDbLine
 62
250
  6
CONTINUOUS
 10
-0.4669721784
 20
-18.9185155063
 11
-0.4665295598
 21
-19.0610787705
  0
LINE
  5
35F
100
AcDbEntity
  8
ASSI
100
AcDbLine
 62
250
  6
CONTINUOUS
 10
-0.4669721784
 20
-18.9185155063
 11
-0.4665295598
 21
-19.0610787705
  0
LINE
  5
360
100
AcDbEntity
  8
RACCORDO
100
AcDbLine
 62
250
  6
CONTINUOUS
 10
-1.4673008778
 20
-18.935881761
 11
-1.466915022
 21
-19.0610787705
  0
LINE
  5
361
100
AcDbEntity
  8
ASSI
100
AcDbLine
 62
250
  6
CONTINUOUS
 10
-1.4673008778
 20
-18.935881761
 11
-1.466915022
 21
-19.0610787705
  0
LINE
  5
362
100
AcDbEntity
  8
DRAFT
100
AcDbLine
 62
7
  6
CONTINUOUS
 10
-2.0984611006
 20
21.199923836
 11
-2.1
 21
22.2
  0
LINE
  5
363
100
AcDbEntity
  8
RACCORDO
100
AcDbLine
 62
7
  6
CONTINUOUS
 10
-1.5
 20
19.0610787705
 11
-1.5
 21
18.9685808831
  0
LINE
  5
364
100
AcDbEntity
  8
ASSI
100
AcDbLine
 62
7
  6
CONTINUOUS
 10
-1.5
 20
19.0610787705
 11
-1.5
 21
18.9685808831
  0
LINE
  5
365
100
AcDbEntity
  8
RACCORDO
100
AcDbLine
 62
7
  6
CONTINUOUS
 10
-1.5
 20
-18.9685808831
 11
-1.5
 21
-19.0610787705
  0
LINE
  5
366
100
AcDbEntity
  8
ASSI
100
AcDbLine
 62
7
  6
CONTINUOUS
 10
-1.5
 20
-18.9685808831
 11
-1.5
 21
-19.0610787705
  0
LINE
  5
367
100
AcDbEntity
  8
0
100
AcDbLine
 62
7
  6
CONTINUOUS
 10
-0.668061
 20
-14.05
 11
-0.668061
 21
-13.55
  0
LINE
  5
368
100
AcDbEntity
  8
0
100
AcDbLine
 62
7
  6
CONTINUOUS
 10
-0.668061
 20
-12.05
 11
-0.668061
 21
-11.2153977088
  0
LINE
  5
369
100
AcDbEntity
  8
DRAFT
100
AcDbLine
 62
7
  6
CONTINUOUS
 10
-2.0984611006
 20
-21.199923836
 11
-2.1
 21
-22.2
  0
LINE
  5
36A
100
AcDbEntity
  8
RACCORDO
100
AcDbLine
 62
250
  6
CONTINUOUS
 10
-0.4665838366
 20
19.0610787705
 11
-0.4669721784
 21
18.9185155063
  0
LINE
  5
36B
100
AcDbEntity
  8
ASSI
100
AcDbLine
 62
250
  6
CONTINUOUS
 10
-0.4665838366
 20
19.0610787705
 11
-0.4669721784
 21
18.9185155063
  0
LINE
  5
36C
100
AcDbEntity
  8
RACCORDO
100
AcDbLine
 62
250
  6
CONTINUOUS
 10
-1.4669155466
 20
19.0610787705
 11
-1.4673008778
 21
18.935881761
  0
LINE
  5
36D
100
AcDbEntity
  8
ASSI
100
AcDbLine
 62
250
  6
CONTINUOUS
 10
-1.4669155466
 20
19.0610787705
 11
-1.4673008778
 21
18.935881761
  0
LINE
  5
36E
100
AcDbEntity
  8
DRAFT
100
AcDbLine
 62
7
  6
CONTINUOUS
 10
-1.8191244103
 20
19.0085596393
 11
-1.8188092697
 21
19.0446711717
  0
LINE
  5
36F
100
AcDbEntity
  8
DRAFT
100
AcDbLine
 62
7
  6
CONTINUOUS
 10
-2.2360587749
 20
-16.9868210911
 11
-2.2378830667
 21
-17.0913346984
  0
LINE
  5
370
100
AcDbEntity
  8
DRAFT
100
AcDbLine
 62
7
  6
CONTINUOUS
 10
-1.5778458381
 20
18.9904395897
 11
-1.5782035562
 21
18.9699459313
  0
LINE
  5
371
100
AcDbEntity
  8
DRAFT
100
AcDbLine
 62
7
  6
CONTINUOUS
 10
-2.2020985146
 20
-17.0913952084
 11
-2.2002731666
 21
-16.9868210911
  0
LINE
  5
372
100
AcDbEntity
  8
DRAFT
100
AcDbLine
 62
7
  6
CONTINUOUS
 10
-2.222173949
 20
-18.991573191
 11
-2.2217726168
 21
-18.9685808831
  0
LINE
  5
373
100
AcDbEntity
  8
RACCORDO
100
AcDbLine
 62
250
  6
CONTINUOUS
 10
0.4804868745
 20
12.0676430283
 11
0.4799717029
 21
12.063428946
  0
LINE
  5
374
100
AcDbEntity
  8
RACCORDO
100
AcDbLine
 62
250
  6
CONTINUOUS
 10
0.55
 20
12.556714473
 11
0.5452485921
 21
12.5217016755
  0
LWPOLYLINE
  5
375
100
AcDbEntity
  8
RACCORDO
100
AcDbPolyline
 62
250
  6
CONTINUOUS
 90
3
 70
0
 10
0.4862293348
 20
12.1082177923
 10
0.4827747242
 20
12.0831401234
 10
0.4804868745
 20
12.0676430283
  0
LWPOLYLINE
  5
376
100
AcDbEntity
  8
RACCORDO
100
AcDbPolyline
 62
250
  6
CONTINUOUS
 90
5
 70
0
 10
0.5164862854
 20
12.321089535
 10
0.5122897977
 20
12.2908531857
 10
0.5081307516
 20
12.2619636962
 10
0.504185093
 20
12.2345331352
 10
0.5006232394
 20
12.2087221469
  0
LINE
  5
377
100
AcDbEntity
  8
RACCORDO
100
AcDbLine
 62
250
  6
CONTINUOUS
 10
0.5256577752
 20
12.3849660364
 11
0.5164862854
 21
12.321089535
  0
LWPOLYLINE
  5
378
100
AcDbEntity
  8
RACCORDO
100
AcDbPolyline
 62
250
  6
CONTINUOUS
 90
3
 70
0
 10
0.5006232394
 20
12.2087221469
 10
0.4939416888
 20
12.162498216
 10
0.4911398898
 20
12.1422481119
  0
LINE
  5
379
100
AcDbEntity
  8
RACCORDO
100
AcDbLine
 62
250
  6
CONTINUOUS
 10
0.4911398898
 20
12.1422481119
 11
0.4862293348
 21
12.1082177923
  0
LWPOLYLINE
  5
37A
100
AcDbEntity
  8
RACCORDO
100
AcDbPolyline
 62
250
  6
CONTINUOUS
 90
3
 70
0
 10
0.5452485921
 20
12.5217016755
 10
0.5351572027
 20
12.4522656713
 10
0.5256577752
 20
12.3849660364
  0
LINE
  5
37B
100
AcDbEntity
  8
DRAFT
100
AcDbLine
 62
250
  6
CONTINUOUS
 10
3.7485157949
 20
19.0610787705
 11
3.7459745197
 21
19.0515923727
  0
LINE
  5
37C
100
AcDbEntity
  8
DRAFT
100
AcDbLine
 62
7
  6
CONTINUOUS
 10
4.9733373476
 20
23.5
 11
4.9630152422
 21
23.4650925288
  0
LWPOLYLINE
  5
37D
100
AcDbEntity
  8
RACCORDO
100
AcDbPolyline
 62
7
  6
CONTINUOUS
 90
15
 70
0
 10
10.6915939405
 20
18.2222422785
 10
10.6943713673
 20
18.226212183
 10
10.7124688394
 20
18.2459430241
 10
10.733163067
 20
18.2629426793
 10
10.7563231348
 20
18.2773301624
 10
10.7807264436
 20
18.2883480253
 10
10.8064426068
 20
18.2958150333
 10
10.8334020108
 20
18.2999124211
 10
10.8601732158
 20
18.3004264446
 10
10.8867324377
 20
18.297174643
 10
10.9131034604
 20
18.290339477
 10
10.9379261963
 20
18.2802545848
 10
10.9607472828
 20
18.267031179
 10
10.9820200823
 20
18.2505580468
 10
11.001744595
 20
18.2308351884
  0
LINE
  5
37E
100
AcDbEntity
  8
RACCORDO
100
AcDbLine
 62
250
  6
CONTINUOUS
 10
12.0
 20
15.500533067
 11
11.4690613933
 21
14.9695944602
  0
LINE
  5
37F
100
AcDbEntity
  8
ASSI
100
AcDbLine
 62
250
  6
CONTINUOUS
 10
12.0
 20
15.500533067
 11
11.4690613933
 21
14.9695944602
  0
LINE
  5
380
100
AcDbEntity
  8
0
100
AcDbLine
 62
7
  6
CONTINUOUS
 10
11.5636233768
 20
14.5900680687
 11
11.5659173081
 21
14.592362
  0
LINE
  5
381
100
AcDbEntity
  8
0
100
AcDbLine
 62
7
  6
CONTINUOUS
 10
11.9173785302
 20
14.9062423948
 11
11.9416190073
 21
14.9304828719
  0
LINE
  5
382
100
AcDbEntity
  8
0
100
AcDbLine
 62
7
  6
CONTINUOUS
 10
11.5636233768
 20
14.3800573546
 11
11.5814075884
 21
14.3978415662
  0
LINE
  5
383
100
AcDbEntity
  8
0
100
AcDbLine
 62
7
  6
CONTINUOUS
 10
11.9083988823
 20
14.6872520328
 11
11.9505124339
 21
14.7293655845
  0
LINE
  5
384
100
AcDbEntity
  8
0
100
AcDbLine
 62
7
  6
CONTINUOUS
 10
11.5636233768
 20
14.1700466406
 11
11.5814075884
 21
14.1878308522
  0
LINE
  5
385
100
AcDbEntity
  8
0
100
AcDbLine
 62
7
  6
CONTINUOUS
 10
11.9026845281
 20
14.4715269646
 11
11.9563179385
 21
14.5251603751
  0
LINE
  5
386
100
AcDbEntity
  8
0
100
AcDbLine
 62
7
  6
CONTINUOUS
 10
11.5636233768
 20
13.9600359266
 11
11.5814075884
 21
13.9778201382
  0
LINE
  5
387
100
AcDbEntity
  8
0
100
AcDbLine
 62
7
  6
CONTINUOUS
 10
11.8985345837
 20
14.2573663062
 11
11.9606331986
 21
14.3194649212
  0
LINE
  5
388
100
AcDbEntity
  8
0
100
AcDbLine
 62
7
  6
CONTINUOUS
 10
11.5636233768
 20
13.7500252126
 11
11.5814075884
 21
13.7678094242
  0
LINE
  5
389
100
AcDbEntity
  8
0
100
AcDbLine
 62
7
  6
CONTINUOUS
 10
11.9436401108
 20
14.0924611193
 11
11.9640446374
 21
14.1128656459
  0
LINE
  5
38A
100
AcDbEntity
  8
0
100
AcDbLine
 62
7
  6
CONTINUOUS
 10
11.8953072203
 20
14.0441282289
 11
11.9157710517
 21
14.0645920602
  0
LINE
  5
38B
100
AcDbEntity
  8
0
100
AcDbLine
 62
7
  6
CONTINUOUS
 10
11.5636233768
 20
13.5400144986
 11
11.5814075884
 21
13.5577987102
  0
LINE
  5
38C
100
AcDbEntity
  8
0
100
AcDbLine
 62
7
  6
CONTINUOUS
 10
11.949361439
 20
13.8881717335
 11
11.9668384744
 21
13.9056487689
  0
LINE
  5
38D
100
AcDbEntity
  8
0
100
AcDbLine
 62
7
  6
CONTINUOUS
 10
11.8927017505
 20
13.8315120451
 11
11.9100978157
 21
13.8489081102
  0
LINE
  5
38E
100
AcDbEntity
  8
0
100
AcDbLine
 62
7
  6
CONTINUOUS
 10
11.5636233768
 20
13.3300037846
 11
11.5814075884
 21
13.3477879962
  0
LINE
  5
38F
100
AcDbEntity
  8
0
100
AcDbLine
 62
7
  6
CONTINUOUS
 10
11.953321415
 20
13.6821209956
 11
11.9691338546
 21
13.6979334351
  0
LINE
  5
390
100
AcDbEntity
  8
0
100
AcDbLine
 62
7
  6
CONTINUOUS
 10
11.8905549472
 20
13.6193545277
 11
11.9063166821
 21
13.6351162626
  0
LINE
  5
391
100
AcDbEntity
  8
0
100
AcDbLine
 62
7
  6
CONTINUOUS
 10
11.5636233768
 20
13.1199930706
 11
11.5814075884
 21
13.1377772822
  0
LINE
  5
392
100
AcDbEntity
  8
0
100
AcDbLine
 62
7
  6
CONTINUOUS
 10
11.9562066535
 20
13.47499552
 11
11.9708436728
 21
13.4896325394
  0
LINE
  5
393
100
AcDbEntity
  8
0
100
AcDbLine
 62
7
  6
CONTINUOUS
 10
11.8888590691
 20
13.4076479356
 11
11.9036152345
 21
13.422404101
  0
LINE
  5
394
100
AcDbEntity
  8
0
100
AcDbLine
 62
7
  6
CONTINUOUS
 10
11.5636233768
 20
12.9099823566
 11
11.5814075884
 21
12.9277665681
  0
LINE
  5
395
100
AcDbEntity
  8
0
100
AcDbLine
 62
7
  6
CONTINUOUS
 10
11.9583108168
 20
13.2670889693
 11
11.9722658287
 21
13.2810439812
  0
LINE
  5
396
100
AcDbEntity
  8
0
100
AcDbLine
 62
7
  6
CONTINUOUS
 10
11.8876430197
 20
13.1964211722
 11
11.9016307292
 21
13.2104088817
  0
LINE
  5
397
100
AcDbEntity
  8
0
100
AcDbLine
 62
7
  6
CONTINUOUS
 10
11.5636233768
 20
12.6999716425
 11
11.5814075884
 21
12.7177558541
  0
LINE
  5
398
100
AcDbEntity
  8
RACCORDO
100
AcDbLine
 62
250
  6
CONTINUOUS
 10
12.0
 20
-15.500533067
 11
11.4690613933
 21
-14.9695944602
  0
LINE
  5
399
100
AcDbEntity
  8
ASSI
100
AcDbLine
 62
250
  6
CONTINUOUS
 10
12.0
 20
-15.500533067
 11
11.4690613933
 21
-14.9695944602
  0
LINE
  5
39A
100
AcDbEntity
  8
DRAFT
100
AcDbLine
 62
7
  6
CONTINUOUS
 10
4.9733373476
 20
-23.5
 11
4.9630152422
 21
-23.4650925288
  0
LINE
  5
39B
100
AcDbEntity
  8
DRAFT
100
AcDbLine
 62
250
  6
CONTINUOUS
 10
3.7459745197
 20
-19.0515923727
 11
3.7485163923
 21
-19.0610787705
  0
LWPOLYLINE
  5
39C
100
AcDbEntity
  8
RACCORDO
100
AcDbPolyline
 62
250
  6
CONTINUOUS
 90
19
 70
0
 10
0.05
 20
12.556714473
 10
0.0515776393
 20
12.5171695602
 10
0.0563006014
 20
12.4778741956
 10
0.0641390818
 20
12.4390763531
 10
0.0750436154
 20
12.4010208656
 10
0.0889453884
 20
12.3639478842
 10
0.1057566726
 20
12.3280913628
 10
0.1253713802
 20
12.293677575
 10
0.1476657305
 20
12.2609236908
 10
0.1724990307
 20
12.2300364097
 10
0.1997145675
 20
12.2012106476
 10
0.229140595
 20
12.1746283092
 10
0.2605914153
 20
12.150457144
 10
0.2938685534
 20
12.1288496862
 10
0.3287620129
 20
12.1099422874
 10
0.3650515982
 20
12.0938542585
 10
0.4025083025
 20
12.0806871227
 10
0.4408957527
 20
12.0705239734
 10
0.4799717029
 20
12.063428946
  0
LINE
  5
39D
100
AcDbEntity
  8
DRAFT
100
AcDbLine
 62
7
  6
CONTINUOUS
 10
0.3751164635
 20
19.0610787705
 11
0.3752820492
 21
19.0515923727
  0
LINE
  5
39E
100
AcDbEntity
  8
0
100
AcDbLine
 62
7
  6
CONTINUOUS
 10
-0.3
 20
-11.0448233905
 11
-0.3
 21
-12.05
  0
LINE
  5
39F
100
AcDbEntity
  8
0
100
AcDbLine
 62
7
  6
CONTINUOUS
 10
-0.3
 20
-13.55
 11
-0.3
 21
-14.05
  0
LINE
  5
3A0
100
AcDbEntity
  8
RACCORDO
100
AcDbLine
 62
7
  6
CONTINUOUS
 10
0.05
 20
13.0765441139
 11
0.05
 21
12.55
  0
LINE
  5
3A1
100
AcDbEntity
  8
RACCORDO
100
AcDbLine
 62
250
  6
CONTINUOUS
 10
0.25
 20
-10.3
 11
0.2500001027
 21
-10.6
  0
LINE
  5
3A2
100
AcDbEntity
  8
ASSI
100
AcDbLine
 62
250
  6
CONTINUOUS
 10
0.25
 20
-10.3
 11
0.2500001027
 21
-10.6
  0
LINE
  5
3A3
100
AcDbEntity
  8
RACCORDO
100
AcDbLine
 62
250
  6
CONTINUOUS
 10
0.25
 20
-15.1
 11
0.25
 21
-14.8
  0
LINE
  5
3A4
100
AcDbEntity
  8
ASSI
100
AcDbLine
 62
250
  6
CONTINUOUS
 10
0.25
 20
-15.1
 11
0.25
 21
-14.8
  0
LINE
  5
3A5
100
AcDbEntity
  8
RACCORDO
100
AcDbLine
 62
250
  6
CONTINUOUS
 10
0.25
 20
-9.9965546854
 11
0.25
 21
-9.6966003769
  0
LINE
  5
3A6
100
AcDbEntity
  8
ASSI
100
AcDbLine
 62
250
  6
CONTINUOUS
 10
0.25
 20
-9.9965546854
 11
0.25
 21
-9.6966003769
  0
LINE
  5
3A7
100
AcDbEntity
  8
RACCORDO
100
AcDbLine
 62
250
  6
CONTINUOUS
 10
0.25
 20
-15.4034453146
 11
0.2499996249
 21
-15.703399623
  0
LINE
  5
3A8
100
AcDbEntity
  8
ASSI
100
AcDbLine
 62
250
  6
CONTINUOUS
 10
0.25
 20
-15.4034453146
 11
0.2499996249
 21
-15.703399623
  0
LINE
  5
3A9
100
AcDbEntity
  8
RACCORDO
100
AcDbLine
 62
7
  6
CONTINUOUS
 10
0.4999048077
 20
-17.048294624
 11
0.4999141185
 21
-17.5482759951
  0
LINE
  5
3AA
100
AcDbEntity
  8
ASSI
100
AcDbLine
 62
7
  6
CONTINUOUS
 10
0.4999048077
 20
-17.048294624
 11
0.4999141185
 21
-17.5482759951
  0
LINE
  5
3AB
100
AcDbEntity
  8
RACCORDO
100
AcDbLine
 62
7
  6
CONTINUOUS
 10
0.5480929688
 20
-16.9519109613
 11
0.5480929688
 21
-17.4519109555
  0
LINE
  5
3AC
100
AcDbEntity
  8
ASSI
100
AcDbLine
 62
7
  6
CONTINUOUS
 10
0.5480929688
 20
-16.9519109613
 11
0.5480929688
 21
-17.4519109555
  0
LINE
  5
3AD
100
AcDbEntity
  8
RACCORDO
100
AcDbLine
 62
250
  6
CONTINUOUS
 10
0.55
 20
13.9100458713
 11
0.55
 21
12.5567278987
  0
LINE
  5
3AE
100
AcDbEntity
  8
0
100
AcDbLine
 62
7
  6
CONTINUOUS
 10
0.6
 20
3.4770677301
 11
0.6
 21
-3.4770677301
  0
LINE
  5
3AF
100
AcDbEntity
  8
RACCORDO
100
AcDbLine
 62
250
  6
CONTINUOUS
 10
0.6455910939
 20
12.55
 11
0.6455910939
 21
12.05
  0
LINE
  5
3B0
100
AcDbEntity
  8
0
100
AcDbLine
 62
7
  6
CONTINUOUS
 10
1.0
 20
3.75
 11
1.0
 21
3.4997140449
  0
LINE
  5
3B1
100
AcDbEntity
  8
ASSI
100
AcDbLine
 62
7
  6
CONTINUOUS
 10
1.0
 20
3.75
 11
1.0
 21
3.4997140449
  0
LINE
  5
3B2
100
AcDbEntity
  8
0
100
AcDbLine
 62
7
  6
CONTINUOUS
 10
1.0
 20
-3.75
 11
1.0
 21
-3.4997140449
  0
LINE
  5
3B3
100
AcDbEntity
  8
ASSI
100
AcDbLine
 62
7
  6
CONTINUOUS
 10
1.0
 20
-3.75
 11
1.0
 21
-3.4997140449
  0
LINE
  5
3B4
100
AcDbEntity
  8
DRAFT
100
AcDbLine
 62
7
  6
CONTINUOUS
 10
0.3752820492
 20
-19.0515923727
 11
0.3751164635
 21
-19.0610787705
  0
LINE
  5
3B5
100
AcDbEntity
  8
DRAFT
100
AcDbLine
 62
7
  6
CONTINUOUS
 10
4.7144422186
 20
19.0610787705
 11
4.7096363724
 21
19.0431431083
  0
LINE
  5
3B6
100
AcDbEntity
  8
DRAFT
100
AcDbLine
 62
7
  6
CONTINUOUS
 10
4.7025132132
 20
19.0165591163
 11
4.6977679175
 21
18.9988494315
  0
LINE
  5
3B7
100
AcDbEntity
  8
DRAFT
100
AcDbLine
 62
250
  6
CONTINUOUS
 10
5.218841225
 20
19.0393461217
 11
5.2246653232
 21
19.0610787705
  0
LINE
  5
3B8
100
AcDbEntity
  8
DRAFT
100
AcDbLine
 62
7
  6
CONTINUOUS
 10
5.5031892363
 20
19.0190820689
 11
5.5144422186
 21
19.0610787705
  0
LINE
  5
3B9
100
AcDbEntity
  8
DRAFT
100
AcDbLine
 62
7
  6
CONTINUOUS
 10
7.9712561167
 20
21.2139629885
 11
7.9587505924
 21
21.1802222394
  0
LINE
  5
3BA
100
AcDbEntity
  8
0
100
AcDbLine
 62
7
  6
CONTINUOUS
 10
11.959847267
 20
13.0586147055
 11
11.9733782507
 21
13.0721456892
  0
LINE
  5
3BB
100
AcDbEntity
  8
0
100
AcDbLine
 62
7
  6
CONTINUOUS
 10
11.8866709623
 20
12.9854384008
 11
11.9002246195
 21
12.998992058
  0
LINE
  5
3BC
100
AcDbEntity
  8
0
100
AcDbLine
 62
7
  6
CONTINUOUS
 10
11.5636233768
 20
12.4899609285
 11
11.5814075884
 21
12.5077451401
  0
LINE
  5
3BD
100
AcDbEntity
  8
0
100
AcDbLine
 62
7
  6
CONTINUOUS
 10
11.9608554061
 20
12.8496121306
 11
11.9740383382
 21
12.8627950626
  0
LINE
  5
3BE
100
AcDbEntity
  8
0
100
AcDbLine
 62
7
  6
CONTINUOUS
 10
11.8860702279
 20
12.7748269523
 11
11.8993145911
 21
12.7880713155
  0
LINE
  5
3BF
100
AcDbEntity
  8
0
100
AcDbLine
 62
7
  6
CONTINUOUS
 10
11.5636233768
 20
12.2799502145
 11
11.5814075884
 21
12.2977344261
  0
LINE
  5
3C0
100
AcDbEntity
  8
0
100
AcDbLine
 62
7
  6
CONTINUOUS
 10
11.9614075254
 20
12.6401535359
 11
11.9745034255
 21
12.653249436
  0
LINE
  5
3C1
100
AcDbEntity
  8
0
100
AcDbLine
 62
7
  6
CONTINUOUS
 10
11.8858129073
 20
12.5645589177
 11
11.8988534183
 21
12.5775994288
  0
LINE
  5
3C2
100
AcDbEntity
  8
0
100
AcDbLine
 62
7
  6
CONTINUOUS
 10
11.5636233768
 20
12.0699395005
 11
11.5814075884
 21
12.0877237121
  0
LINE
  5
3C3
100
AcDbEntity
  8
0
100
AcDbLine
 62
7
  6
CONTINUOUS
 10
11.9615304125
 20
12.430265709
 11
11.9746054934
 21
12.4433407899
  0
LINE
  5
3C4
100
AcDbEntity
  8
0
100
AcDbLine
 62
7
  6
CONTINUOUS
 10
11.5636233768
 20
11.8599287865
 11
11.5814075884
 21
11.8777129981
  0
LINE
  5
3C5
100
AcDbEntity
  8
0
100
AcDbLine
 62
7
  6
CONTINUOUS
 10
11.5636233768
 20
11.6499180725
 11
11.5814075884
 21
11.6677022841
  0
LINE
  5
3C6
100
AcDbEntity
  8
0
100
AcDbLine
 62
7
  6
CONTINUOUS
 10
11.5636233768
 20
11.4399073585
 11
11.5814075884
 21
11.4576915701
  0
LINE
  5
3C7
100
AcDbEntity
  8
0
100
AcDbLine
 62
7
  6
CONTINUOUS
 10
11.5636233768
 20
11.2298966445
 11
11.5814075884
 21
11.247680856
  0
LINE
  5
3C8
100
AcDbEntity
  8
0
100
AcDbLine
 62
7
  6
CONTINUOUS
 10
11.5636233768
 20
11.0198859304
 11
11.5814075884
 21
11.037670142
  0
LINE
  5
3C9
100
AcDbEntity
  8
0
100
AcDbLine
 62
7
  6
CONTINUOUS
 10
11.5636233768
 20
10.8098752164
 11
11.5814075884
 21
10.827659428
  0
LINE
  5
3CA
100
AcDbEntity
  8
0
100
AcDbLine
 62
7
  6
CONTINUOUS
 10
11.5636233768
 20
10.5998645024
 11
11.5814075884
 21
10.617648714
  0
LINE
  5
3CB
100
AcDbEntity
  8
0
100
AcDbLine
 62
7
  6
CONTINUOUS
 10
4.2475952642
 20
1.875
 11
4.0310888529
 21
1.7499999652
  0
LINE
  5
3CC
100
AcDbEntity
  8
ASSI
100
AcDbLine
 62
7
  6
CONTINUOUS
 10
4.2475952642
 20
1.875
 11
4.0310888529
 21
1.7499999652
  0
LINE
  5
3CD
100
AcDbEntity
  8
0
100
AcDbLine
 62
7
  6
CONTINUOUS
 10
-2.2475952642
 20
-1.875
 11
-2.0301467945
 21
-1.7494560675
  0
LINE
  5
3CE
100
AcDbEntity
  8
ASSI
100
AcDbLine
 62
7
  6
CONTINUOUS
 10
-2.2475952642
 20
-1.875
 11
-2.0301467945
 21
-1.7494560675
  0
LINE
  5
3CF
100
AcDbEntity
  8
0
100
AcDbLine
 62
7
  6
CONTINUOUS
 10
-2.2475952642
 20
1.875
 11
-2.0301467996
 21
1.7494560704
  0
LINE
  5
3D0
100
AcDbEntity
  8
ASSI
100
AcDbLine
 62
7
  6
CONTINUOUS
 10
-2.2475952642
 20
1.875
 11
-2.0301467996
 21
1.7494560704
  0
LINE
  5
3D1
100
AcDbEntity
  8
0
100
AcDbLine
 62
7
  6
CONTINUOUS
 10
4.2475952642
 20
-1.875
 11
4.0301467994
 21
-1.7494560703
  0
LINE
  5
3D2
100
AcDbEntity
  8
ASSI
100
AcDbLine
 62
7
  6
CONTINUOUS
 10
4.2475952642
 20
-1.875
 11
4.0301467994
 21
-1.7494560703
  0
LINE
  5
3D3
100
AcDbEntity
  8
0
100
AcDbLine
 62
7
  6
CONTINUOUS
 10
8.1129083352
 20
-13.7997781553
 11
8.0858703238
 21
-13.7565621172
  0
LINE
  5
3D4
100
AcDbEntity
  8
ASSI
100
AcDbLine
 62
7
  6
CONTINUOUS
 10
8.1129083352
 20
-13.7997781553
 11
8.0858703238
 21
-13.7565621172
  0
LINE
  5
3D5
100
AcDbEntity
  8
DRAFT
100
AcDbLine
 62
7
  6
CONTINUOUS
 10
7.9712561167
 20
-21.2139629885
 11
7.9587505924
 21
-21.1802222394
  0
LINE
  5
3D6
100
AcDbEntity
  8
DRAFT
100
AcDbLine
 62
7
  6
CONTINUOUS
 10
4.6977679175
 20
-18.9988494315
 11
4.7015837471
 21
-19.0130903017
  0
LINE
  5
3D7
100
AcDbEntity
  8
DRAFT
100
AcDbLine
 62
7
  6
CONTINUOUS
 10
4.7096363724
 20
-19.0431431083
 11
4.7144422186
 21
-19.0610787705
  0
LWPOLYLINE
  5
3D8
100
AcDbEntity
  8
RACCORDO
100
AcDbPolyline
 62
250
  6
CONTINUOUS
 90
19
 70
0
 10
1.95
 20
-12.556714473
 10
1.9484223607
 20
-12.5171695602
 10
1.9436993986
 20
-12.4778741956
 10
1.9358609182
 20
-12.4390763531
 10
1.9249563846
 20
-12.4010208656
 10
1.9110546116
 20
-12.3639478842
 10
1.8942433274
 20
-12.3280913628
 10
1.8746286198
 20
-12.293677575
 10
1.8523342695
 20
-12.2609236908
 10
1.8275009693
 20
-12.2300364097
 10
1.8002854325
 20
-12.2012106476
 10
1.770859405
 20
-12.1746283092
 10
1.7394085847
 20
-12.150457144
 10
1.7061314466
 20
-12.1288496862
 10
1.6712379871
 20
-12.1099422874
 10
1.6349484018
 20
-12.0938542585
 10
1.5974916975
 20
-12.0806871227
 10
1.5591042473
 20
-12.0705239734
 10
1.5200282971
 20
-12.063428946
  0
LINE
  5
3D9
100
AcDbEntity
  8
DRAFT
100
AcDbLine
 62
7
  6
CONTINUOUS
 10
1.6248835365
 20
-19.0610787705
 11
1.6247179508
 21
-19.0515923727
  0
LINE
  5
3DA
100
AcDbEntity
  8
RACCORDO
100
AcDbLine
 62
250
  6
CONTINUOUS
 10
2.4665318072
 20
19.0610787705
 11
2.4669721784
 21
18.9185155063
  0
LINE
  5
3DB
100
AcDbEntity
  8
ASSI
100
AcDbLine
 62
250
  6
CONTINUOUS
 10
2.4665318072
 20
19.0610787705
 11
2.4669721784
 21
18.9185155063
  0
LINE
  5
3DC
100
AcDbEntity
  8
RACCORDO
100
AcDbLine
 62
250
  6
CONTINUOUS
 10
1.3544089061
 20
-12.55
 11
1.3544089061
 21
-12.05
  0
LINE
  5
3DD
100
AcDbEntity
  8
0
100
AcDbLine
 62
7
  6
CONTINUOUS
 10
1.4
 20
-3.4770677301
 11
1.4
 21
3.4770677301
  0
LINE
  5
3DE
100
AcDbEntity
  8
RACCORDO
100
AcDbLine
 62
250
  6
CONTINUOUS
 10
1.45
 20
-13.9100458713
 11
1.45
 21
-12.5567278987
  0
LINE
  5
3DF
100
AcDbEntity
  8
RACCORDO
100
AcDbLine
 62
7
  6
CONTINUOUS
 10
1.4519070312
 20
16.9519109613
 11
1.4519070312
 21
17.4519109555
  0
LINE
  5
3E0
100
AcDbEntity
  8
ASSI
100
AcDbLine
 62
7
  6
CONTINUOUS
 10
1.4519070312
 20
16.9519109613
 11
1.4519070312
 21
17.4519109555
  0
LINE
  5
3E1
100
AcDbEntity
  8
RACCORDO
100
AcDbLine
 62
7
  6
CONTINUOUS
 10
1.5000951923
 20
17.5482946182
 11
1.5000951923
 21
17.048294624
  0
LINE
  5
3E2
100
AcDbEntity
  8
ASSI
100
AcDbLine
 62
7
  6
CONTINUOUS
 10
1.5000951923
 20
17.5482946182
 11
1.5000951923
 21
17.048294624
  0
LINE
  5
3E3
100
AcDbEntity
  8
RACCORDO
100
AcDbLine
 62
250
  6
CONTINUOUS
 10
1.75
 20
15.4034453146
 11
1.7500003751
 21
15.703399623
  0
LINE
  5
3E4
100
AcDbEntity
  8
ASSI
100
AcDbLine
 62
250
  6
CONTINUOUS
 10
1.75
 20
15.4034453146
 11
1.7500003751
 21
15.703399623
  0
LINE
  5
3E5
100
AcDbEntity
  8
RACCORDO
100
AcDbLine
 62
250
  6
CONTINUOUS
 10
1.75
 20
15.1
 11
1.75
 21
14.8
  0
LINE
  5
3E6
100
AcDbEntity
  8
ASSI
100
AcDbLine
 62
250
  6
CONTINUOUS
 10
1.75
 20
15.1
 11
1.75
 21
14.8
  0
LINE
  5
3E7
100
AcDbEntity
  8
RACCORDO
100
AcDbLine
 62
250
  6
CONTINUOUS
 10
1.75
 20
9.9965546854
 11
1.75
 21
9.6966003769
  0
LINE
  5
3E8
100
AcDbEntity
  8
ASSI
100
AcDbLine
 62
250
  6
CONTINUOUS
 10
1.75
 20
9.9965546854
 11
1.75
 21
9.6966003769
  0
LINE
  5
3E9
100
AcDbEntity
  8
RACCORDO
100
AcDbLine
 62
250
  6
CONTINUOUS
 10
1.75
 20
10.3
 11
1.7499998973
 21
10.6
  0
LINE
  5
3EA
100
AcDbEntity
  8
ASSI
100
AcDbLine
 62
250
  6
CONTINUOUS
 10
1.75
 20
10.3
 11
1.7499998973
 21
10.6
  0
LINE
  5
3EB
100
AcDbEntity
  8
RACCORDO
100
AcDbLine
 62
7
  6
CONTINUOUS
 10
1.95
 20
-13.0765441139
 11
1.95
 21
-12.55
  0
LINE
  5
3EC
100
AcDbEntity
  8
0
100
AcDbLine
 62
7
  6
CONTINUOUS
 10
2.3
 20
11.0448233905
 11
2.3
 21
12.05
  0
LINE
  5
3ED
100
AcDbEntity
  8
0
100
AcDbLine
 62
7
  6
CONTINUOUS
 10
2.3
 20
13.55
 11
2.3
 21
14.05
  0
LINE
  5
3EE
100
AcDbEntity
  8
0
100
AcDbLine
 62
7
  6
CONTINUOUS
 10
2.668061
 20
14.05
 11
2.668061
 21
13.55
  0
LINE
  5
3EF
100
AcDbEntity
  8
0
100
AcDbLine
 62
7
  6
CONTINUOUS
 10
2.668061
 20
12.05
 11
2.668061
 21
11.2153977088
  0
LINE
  5
3F0
100
AcDbEntity
  8
RACCORDO
100
AcDbLine
 62
250
  6
CONTINUOUS
 10
2.4665838366
 20
-19.0610787705
 11
2.4669721784
 21
-18.9185155063
  0
LINE
  5
3F1
100
AcDbEntity
  8
ASSI
100
AcDbLine
 62
250
  6
CONTINUOUS
 10
2.4665838366
 20
-19.0610787705
 11
2.4669721784
 21
-18.9185155063
  0
LINE
  5
3F2
100
AcDbEntity
  8
DRAFT
100
AcDbLine
 62
7
  6
CONTINUOUS
 10
1.6247179508
 20
19.0515923727
 11
1.6248835365
 21
19.0610787705
  0
LINE
  5
3F3
100
AcDbEntity
  8
DRAFT
100
AcDbLine
 62
7
  6
CONTINUOUS
 10
-2.7015837471
 20
-19.0130903017
 11
-2.6977679175
 21
-18.9988494315
  0
LINE
  5
3F4
100
AcDbEntity
  8
DRAFT
100
AcDbLine
 62
7
  6
CONTINUOUS
 10
-2.7144422186
 20
-19.0610787705
 11
-2.7096363724
 21
-19.0431431083
  0
LINE
  5
3F5
100
AcDbEntity
  8
DRAFT
100
AcDbLine
 62
7
  6
CONTINUOUS
 10
-5.9712561167
 20
-21.2139629885
 11
-5.9587505924
 21
-21.1802222394
  0
LINE
  5
3F6
100
AcDbEntity
  8
0
100
AcDbLine
 62
7
  6
CONTINUOUS
 10
11.9160550802
 20
10.4946939505
 11
11.9429577241
 21
10.5215965945
  0
LINE
  5
3F7
100
AcDbEntity
  8
0
100
AcDbLine
 62
7
  6
CONTINUOUS
 10
11.9075044868
 20
10.2761326431
 11
11.9513473582
 21
10.3199755145
  0
LINE
  5
3F8
100
AcDbEntity
  8
0
100
AcDbLine
 62
7
  6
CONTINUOUS
 10
11.9021522319
 20
10.0607696742
 11
11.9569377089
 21
10.1155551512
  0
LINE
  5
3F9
100
AcDbEntity
  8
0
100
AcDbLine
 62
7
  6
CONTINUOUS
 10
11.8980579308
 20
9.8466646591
 11
11.9611060918
 21
9.9097128201
  0
LINE
  5
3FA
100
AcDbEntity
  8
0
100
AcDbLine
 62
7
  6
CONTINUOUS
 10
11.9444636356
 20
9.6830596499
 11
11.9644074817
 21
9.7030034959
  0
LINE
  5
3FB
100
AcDbEntity
  8
0
100
AcDbLine
 62
7
  6
CONTINUOUS
 10
11.9236360847
 20
9.6622320989
 11
11.9367233878
 21
9.6753194021
  0
LINE
  5
3FC
100
AcDbEntity
  8
0
100
AcDbLine
 62
7
  6
CONTINUOUS
 10
11.8949335787
 20
9.633529593
 11
11.914860694
 21
9.6534567083
  0
LINE
  5
3FD
100
AcDbEntity
  8
0
100
AcDbLine
 62
7
  6
CONTINUOUS
 10
11.9499490831
 20
9.4785343834
 11
11.9671129804
 21
9.4956982806
  0
LINE
  5
3FE
100
AcDbEntity
  8
0
100
AcDbLine
 62
7
  6
CONTINUOUS
 10
11.9236360847
 20
9.4522213849
 11
11.9367233891
 21
9.4653086894
  0
LINE
  5
3FF
100
AcDbEntity
  8
0
100
AcDbLine
 62
7
  6
CONTINUOUS
 10
11.8924211109
 20
9.4210064112
 11
11.9095218709
 21
9.4381071712
  0
LINE
  5
400
100
AcDbEntity
  8
0
100
AcDbLine
 62
7
  6
CONTINUOUS
 10
11.9537031822
 20
9.2722777684
 11
11.9693743391
 21
9.2879489253
  0
LINE
  5
401
100
AcDbEntity
  8
0
100
AcDbLine
 62
7
  6
CONTINUOUS
 10
11.9236360847
 20
9.2422106709
 11
11.9367233904
 21
9.2552979767
  0
LINE
  5
402
100
AcDbEntity
  8
0
100
AcDbLine
 62
7
  6
CONTINUOUS
 10
11.8903521367
 20
9.2089267229
 11
11.9059498462
 21
9.2245244324
  0
LINE
  5
403
100
AcDbEntity
  8
0
100
AcDbLine
 62
7
  6
CONTINUOUS
 10
11.9564595149
 20
9.0650233872
 11
11.9710432588
 21
9.079607131
  0
LINE
  5
404
100
AcDbEntity
  8
0
100
AcDbLine
 62
7
  6
CONTINUOUS
 10
11.9236360847
 20
9.0321999569
 11
11.9367233918
 21
9.045287264
  0
LINE
  5
405
100
AcDbEntity
  8
0
100
AcDbLine
 62
7
  6
CONTINUOUS
 10
11.8886562578
 20
8.9972201301
 11
11.9032959426
 21
9.0118598148
  0
LINE
  5
406
100
AcDbEntity
  8
0
100
AcDbLine
 62
7
  6
CONTINUOUS
 10
11.9585230669
 20
8.8570762252
 11
11.9723988653
 21
8.8709520235
  0
LINE
  5
407
100
AcDbEntity
  8
0
100
AcDbLine
 62
7
  6
CONTINUOUS
 10
11.9236360847
 20
8.8221892429
 11
11.9367233931
 21
8.8352765513
  0
LINE
  5
408
100
AcDbEntity
  8
0
100
AcDbLine
 62
7
  6
CONTINUOUS
 10
11.8875085595
 20
8.7860617178
 11
11.9014154776
 21
8.7999686358
  0
LINE
  5
409
100
AcDbEntity
  8
0
100
AcDbLine
 62
7
  6
CONTINUOUS
 10
11.9599611736
 20
8.6485036178
 11
11.9735112831
 21
8.6620537273
  0
LINE
  5
40A
100
AcDbEntity
  8
0
100
AcDbLine
 62
7
  6
CONTINUOUS
 10
11.9236360847
 20
8.6121785289
 11
11.9367233944
 21
8.6252658386
  0
LINE
  5
40B
100
AcDbEntity
  8
0
100
AcDbLine
 62
7
  6
CONTINUOUS
 10
11.8865991191
 20
8.5751415634
 11
11.9000767838
 21
8.588619228
  0
LINE
  5
40C
100
AcDbEntity
  8
0
100
AcDbLine
 62
7
  6
CONTINUOUS
 10
11.9609243852
 20
8.4394561154
 11
11.974109772
 21
8.4526415022
  0
LINE
  5
40D
100
AcDbEntity
  8
0
100
AcDbLine
 62
7
  6
CONTINUOUS
 10
11.9236360847
 20
8.4021678149
 11
11.9367233957
 21
8.4152551259
  0
LINE
  5
40E
100
AcDbEntity
  8
0
100
AcDbLine
 62
7
  6
CONTINUOUS
 10
11.8859983844
 20
8.3645301146
 11
11.8992198406
 21
8.3777515708
  0
LINE
  5
40F
100
AcDbEntity
  8
0
100
AcDbLine
 62
7
  6
CONTINUOUS
 10
11.9614463999
 20
8.2299674161
 11
11.9745156355
 21
8.2430366517
  0
LINE
  5
410
100
AcDbEntity
  8
0
100
AcDbLine
 62
7
  6
CONTINUOUS
 10
11.8858006844
 20
8.1543217006
 11
11.8988076781
 21
8.1673286943
  0
LINE
  5
411
100
AcDbEntity
  8
CURVE
100
AcDbLine
 62
250
  6
CONTINUOUS
 10
11.8432568513
 20
1.5357141495
 11
11.8694314739
 21
1.5357141495
  0
LWPOLYLINE
  5
412
100
AcDbEntity
  8
0
100
AcDbPolyline
 62
7
  6
CONTINUOUS
 90
5
 70
0
 10
7.8937071395
 20
-13.9998384098
 10
7.9103841203
 20
-14.0403619107
 10
7.9324463762
 20
-14.0777313464
 10
7.9598939072
 20
-14.1119467169
 10
7.9938410773
 20
-14.1428264896
  0
LWPOLYLINE
  5
413
100
AcDbEntity
  8
ASSI
100
AcDbPolyline
 62
7
  6
CONTINUOUS
 90
5
 70
0
 10
7.8937071395
 20
-13.9998384098
 10
7.9103841203
 20
-14.0403619107
 10
7.9324463762
 20
-14.0777313464
 10
7.9598939072
 20
-14.1119467169
 10
7.9938410773
 20
-14.1428264896
  0
LWPOLYLINE
  5
414
100
AcDbEntity
  8
0
100
AcDbPolyline
 62
7
  6
CONTINUOUS
 90
4
 70
0
 10
8.0858703238
 20
-13.7565621172
 10
8.0675241055
 20
-13.7087983467
 10
8.0572845019
 20
-13.6555988998
 10
8.055151513
 20
-13.5969637767
  0
LWPOLYLINE
  5
415
100
AcDbEntity
  8
ASSI
100
AcDbPolyline
 62
7
  6
CONTINUOUS
 90
4
 70
0
 10
8.0858703238
 20
-13.7565621172
 10
8.0675241055
 20
-13.7087983467
 10
8.0572845019
 20
-13.6555988998
 10
8.055151513
 20
-13.5969637767
  0
LINE
  5
416
100
AcDbEntity
  8
DRAFT
100
AcDbLine
 62
7
  6
CONTINUOUS
 10
-5.9712561167
 20
21.2139629885
 11
-5.9587505924
 21
21.1802222394
  0
LINE
  5
417
100
AcDbEntity
  8
DRAFT
100
AcDbLine
 62
7
  6
CONTINUOUS
 10
-3.5031892363
 20
19.0190820689
 11
-3.5144422186
 21
19.0610787705
  0
LINE
  5
418
100
AcDbEntity
  8
DRAFT
100
AcDbLine
 62
250
  6
CONTINUOUS
 10
-3.218841225
 20
19.0393461217
 11
-3.2246641665
 21
19.0610787705
  0
LINE
  5
419
100
AcDbEntity
  8
DRAFT
100
AcDbLine
 62
7
  6
CONTINUOUS
 10
-2.6977679175
 20
18.9988494315
 11
-2.7025132132
 21
19.0165591163
  0
LINE
  5
41A
100
AcDbEntity
  8
DRAFT
100
AcDbLine
 62
7
  6
CONTINUOUS
 10
-2.7096363724
 20
19.0431431083
 11
-2.7144422186
 21
19.0610787705
  0
LWPOLYLINE
  5
41B
100
AcDbEntity
  8
RACCORDO
100
AcDbPolyline
 62
250
  6
CONTINUOUS
 90
10
 70
0
 10
1.5000951923
 20
17.5482946182
 10
1.4848800137
 20
17.7218997151
 10
1.4397495847
 20
17.8902309177
 10
1.3660749111
 20
18.0481745572
 10
1.2660941359
 20
18.1909325227
 10
1.1428445395
 20
18.3141680325
 10
1.0000702643
 20
18.4141373739
 10
0.8421085889
 20
18.4878036168
 10
0.6737581732
 20
18.5329288783
 10
0.5001332693
 20
18.5481423133
  0
LWPOLYLINE
  5
41C
100
AcDbEntity
  8
ASSI
100
AcDbPolyline
 62
250
  6
CONTINUOUS
 90
10
 70
0
 10
1.5000951923
 20
17.5482946182
 10
1.4848800137
 20
17.7218997151
 10
1.4397495847
 20
17.8902309177
 10
1.3660749111
 20
18.0481745572
 10
1.2660941359
 20
18.1909325227
 10
1.1428445395
 20
18.3141680325
 10
1.0000702643
 20
18.4141373739
 10
0.8421085889
 20
18.4878036168
 10
0.6737581732
 20
18.5329288783
 10
0.5001332693
 20
18.5481423133
  0
LINE
  5
41D
100
AcDbEntity
  8
DRAFT
100
AcDbLine
 62
7
  6
CONTINUOUS
 10
3.5621250618
 20
17.0908690195
 11
3.5639412251
 21
16.9868210911
  0
LINE
  5
41E
100
AcDbEntity
  8
DRAFT
100
AcDbLine
 62
7
  6
CONTINUOUS
 10
4.2221739189
 20
-18.9915714639
 11
4.2217726168
 21
-18.9685808831
  0
LINE
  5
41F
100
AcDbEntity
  8
DRAFT
100
AcDbLine
 62
7
  6
CONTINUOUS
 10
3.5979090929
 20
17.0909593741
 11
3.5997268334
 21
16.9868210911
  0
LINE
  5
420
100
AcDbEntity
  8
DRAFT
100
AcDbLine
 62
7
  6
CONTINUOUS
 10
3.5778458381
 20
18.9904395897
 11
3.5782035562
 21
18.9699459313
  0
LINE
  5
421
100
AcDbEntity
  8
DRAFT
100
AcDbLine
 62
7
  6
CONTINUOUS
 10
3.8188092697
 20
19.0446711717
 11
3.8191244103
 21
19.0085596393
  0
LINE
  5
422
100
AcDbEntity
  8
RACCORDO
100
AcDbLine
 62
250
  6
CONTINUOUS
 10
3.4669155466
 20
19.0610787705
 11
3.4673008778
 21
18.935881761
  0
LINE
  5
423
100
AcDbEntity
  8
ASSI
100
AcDbLine
 62
250
  6
CONTINUOUS
 10
3.4669155466
 20
19.0610787705
 11
3.4673008778
 21
18.935881761
  0
LINE
  5
424
100
AcDbEntity
  8
DRAFT
100
AcDbLine
 62
7
  6
CONTINUOUS
 10
4.0984611006
 20
-21.199923836
 11
4.1
 21
-22.2
  0
LINE
  5
425
100
AcDbEntity
  8
RACCORDO
100
AcDbLine
 62
7
  6
CONTINUOUS
 10
3.5
 20
19.0610787705
 11
3.5
 21
18.9685808831
  0
LINE
  5
426
100
AcDbEntity
  8
ASSI
100
AcDbLine
 62
7
  6
CONTINUOUS
 10
3.5
 20
19.0610787705
 11
3.5
 21
18.9685808831
  0
LINE
  5
427
100
AcDbEntity
  8
RACCORDO
100
AcDbLine
 62
7
  6
CONTINUOUS
 10
3.5
 20
-18.9685808831
 11
3.5
 21
-19.0610787705
  0
LINE
  5
428
100
AcDbEntity
  8
ASSI
100
AcDbLine
 62
7
  6
CONTINUOUS
 10
3.5
 20
-18.9685808831
 11
3.5
 21
-19.0610787705
  0
LINE
  5
429
100
AcDbEntity
  8
DRAFT
100
AcDbLine
 62
7
  6
CONTINUOUS
 10
4.0984611006
 20
21.199923836
 11
4.1
 21
22.2
  0
LINE
  5
42A
100
AcDbEntity
  8
RACCORDO
100
AcDbLine
 62
250
  6
CONTINUOUS
 10
3.4669155466
 20
-19.0610787705
 11
3.4673008778
 21
-18.935881761
  0
LINE
  5
42B
100
AcDbEntity
  8
ASSI
100
AcDbLine
 62
250
  6
CONTINUOUS
 10
3.4669155466
 20
-19.0610787705
 11
3.4673008778
 21
-18.935881761
  0
LINE
  5
42C
100
AcDbEntity
  8
DRAFT
100
AcDbLine
 62
7
  6
CONTINUOUS
 10
4.222173949
 20
18.991573191
 11
4.2217726168
 21
18.9685808831
  0
LINE
  5
42D
100
AcDbEntity
  8
DRAFT
100
AcDbLine
 62
7
  6
CONTINUOUS
 10
4.2020985147
 20
17.0913952102
 11
4.2002731666
 21
16.9868210911
  0
LINE
  5
42E
100
AcDbEntity
  8
DRAFT
100
AcDbLine
 62
7
  6
CONTINUOUS
 10
3.5778458381
 20
-18.9904395897
 11
3.5782035562
 21
-18.9699459313
  0
LINE
  5
42F
100
AcDbEntity
  8
DRAFT
100
AcDbLine
 62
7
  6
CONTINUOUS
 10
4.2360587749
 20
16.9868210911
 11
4.2378830667
 21
17.091334697
  0
LINE
  5
430
100
AcDbEntity
  8
DRAFT
100
AcDbLine
 62
7
  6
CONTINUOUS
 10
3.8376185395
 20
-19.0448353178
 11
3.8382546653
 21
-19.0083916952
  0
LINE
  5
431
100
AcDbEntity
  8
RACCORDO
100
AcDbLine
 62
250
  6
CONTINUOUS
 10
1.5195131255
 20
-12.0676430283
 11
1.5200282971
 21
-12.063428946
  0
LINE
  5
432
100
AcDbEntity
  8
RACCORDO
100
AcDbLine
 62
250
  6
CONTINUOUS
 10
1.45
 20
-12.556714473
 11
1.4547514079
 21
-12.5217016755
  0
LWPOLYLINE
  5
433
100
AcDbEntity
  8
RACCORDO
100
AcDbPolyline
 62
250
  6
CONTINUOUS
 90
3
 70
0
 10
1.5137706652
 20
-12.1082177923
 10
1.5172252758
 20
-12.0831401234
 10
1.5195131255
 20
-12.0676430283
  0
LWPOLYLINE
  5
434
100
AcDbEntity
  8
RACCORDO
100
AcDbPolyline
 62
250
  6
CONTINUOUS
 90
5
 70
0
 10
1.4835137146
 20
-12.321089535
 10
1.4877102023
 20
-12.2908531857
 10
1.4918692484
 20
-12.2619636962
 10
1.495814907
 20
-12.2345331352
 10
1.4993767606
 20
-12.2087221469
  0
LINE
  5
435
100
AcDbEntity
  8
RACCORDO
100
AcDbLine
 62
250
  6
CONTINUOUS
 10
1.4743422248
 20
-12.3849660364
 11
1.4835137146
 21
-12.321089535
  0
LWPOLYLINE
  5
436
100
AcDbEntity
  8
RACCORDO
100
AcDbPolyline
 62
250
  6
CONTINUOUS
 90
3
 70
0
 10
1.4993767606
 20
-12.2087221469
 10
1.5060583112
 20
-12.162498216
 10
1.5088601102
 20
-12.1422481119
  0
LINE
  5
437
100
AcDbEntity
  8
RACCORDO
100
AcDbLine
 62
250
  6
CONTINUOUS
 10
1.5088601102
 20
-12.1422481119
 11
1.5137706652
 21
-12.1082177923
  0
LWPOLYLINE
  5
438
100
AcDbEntity
  8
RACCORDO
100
AcDbPolyline
 62
250
  6
CONTINUOUS
 90
3
 70
0
 10
1.4547514079
 20
-12.5217016755
 10
1.4648427973
 20
-12.4522656713
 10
1.4743422248
 20
-12.3849660364
  0
LINE
  5
439
100
AcDbEntity
  8
DRAFT
100
AcDbLine
 62
250
  6
CONTINUOUS
 10
-1.7485163923
 20
-19.0610787705
 11
-1.7459745197
 21
-19.0515923727
  0
LINE
  5
43A
100
AcDbEntity
  8
DRAFT
100
AcDbLine
 62
7
  6
CONTINUOUS
 10
-2.9733373476
 20
-23.5
 11
-2.9630152422
 21
-23.4650925288
  0
LINE
  5
43B
100
AcDbEntity
  8
DRAFT
100
AcDbLine
 62
7
  6
CONTINUOUS
 10
-1.700388948
 20
-21.1802222394
 11
-2.0104834329
 21
-22.1955695989
  0
LWPOLYLINE
  5
43C
100
AcDbEntity
  8
RACCORDO
100
AcDbPolyline
 62
7
  6
CONTINUOUS
 90
15
 70
0
 10
-8.6915939405
 20
-18.2222422785
 10
-8.6943713673
 20
-18.226212183
 10
-8.7124688394
 20
-18.2459430241
 10
-8.733163067
 20
-18.2629426793
 10
-8.7563231348
 20
-18.2773301624
 10
-8.7807264436
 20
-18.2883480253
 10
-8.8064426068
 20
-18.2958150333
 10
-8.8334020108
 20
-18.2999124211
 10
-8.8601732158
 20
-18.3004264446
 10
-8.8867324377
 20
-18.297174643
 10
-8.9131034604
 20
-18.290339477
 10
-8.9379261963
 20
-18.2802545848
 10
-8.9607472828
 20
-18.267031179
 10
-8.9820200823
 20
-18.2505580468
 10
-9.001744595
 20
-18.2308351884
  0
LWPOLYLINE
  5
43D
100
AcDbEntity
  8
RACCORDO
100
AcDbPolyline
 62
250
  6
CONTINUOUS
 90
10
 70
0
 10
-5.9235343033
 20
-12.2258215406
 10
-5.8999548592
 20
-12.2008958651
 10
-5.8704487045
 20
-12.1742829749
 10
-5.8390396975
 20
-12.1501965166
 10
-5.8056620532
 20
-12.1285818646
 10
-5.7705685062
 20
-12.1096171268
 10
-5.7344545773
 20
-12.0936586227
 10
-5.6975016415
 20
-12.0806999429
 10
-5.6594020842
 20
-12.0706040466
 10
-5.6200282971
 20
-12.063428946
  0
LINE
  5
43E
100
AcDbEntity
  8
0
100
AcDbLine
 62
7
  6
CONTINUOUS
 10
11.9615440549
 20
8.0200543571
 11
11.9746176992
 21
8.0331280014
  0
LINE
  5
43F
100
AcDbEntity
  8
RACCORDO
100
AcDbLine
 62
250
  6
CONTINUOUS
 10
-10.0
 20
-15.500533067
 11
-9.4690613933
 21
-14.9695944602
  0
LINE
  5
440
100
AcDbEntity
  8
ASSI
100
AcDbLine
 62
250
  6
CONTINUOUS
 10
-10.0
 20
-15.500533067
 11
-9.4690613933
 21
-14.9695944602
  0
LINE
  5
441
100
AcDbEntity
  8
CURVE
100
AcDbLine
 62
250
  6
CONTINUOUS
 10
11.8694314739
 20
2.2857141495
 11
11.8432568513
 21
2.2857141495
  0
LINE
  5
442
100
AcDbEntity
  8
0
100
AcDbLine
 62
250
  6
CONTINUOUS
 10
11.7249580489
 20
2.4952386856
 11
11.7119914287
 21
2.4952386856
  0
LINE
  5
443
100
AcDbEntity
  8
CURVE
100
AcDbLine
 62
250
  6
CONTINUOUS
 10
11.8507353152
 20
2.7142853737
 11
11.8619530107
 21
2.7142853737
  0
LINE
  5
444
100
AcDbEntity
  8
CURVE
100
AcDbLine
 62
250
  6
CONTINUOUS
 10
11.8619530107
 20
3.4642853737
 11
11.8507353152
 21
3.4642853737
  0
LINE
  5
445
100
AcDbEntity
  8
RACCORDO
100
AcDbLine
 62
250
  6
CONTINUOUS
 10
-10.0
 20
15.500533067
 11
-9.4690613933
 21
14.9695944602
  0
LINE
  5
446
100
AcDbEntity
  8
ASSI
100
AcDbLine
 62
250
  6
CONTINUOUS
 10
-10.0
 20
15.500533067
 11
-9.4690613933
 21
14.9695944602
  0
LINE
  5
447
100
AcDbEntity
  8
DRAFT
100
AcDbLine
 62
7
  6
CONTINUOUS
 10
-2.0104834329
 20
22.1955695989
 11
-1.700388948
 21
21.1802222394
  0
LINE
  5
448
100
AcDbEntity
  8
DRAFT
100
AcDbLine
 62
7
  6
CONTINUOUS
 10
-2.9733373476
 20
23.5
 11
-2.9630152422
 21
23.4650925288
  0
LINE
  5
449
100
AcDbEntity
  8
DRAFT
100
AcDbLine
 62
250
  6
CONTINUOUS
 10
-1.7459745197
 20
19.0515923727
 11
-1.748515785
 21
19.0610787705
  0
LINE
  5
44A
100
AcDbEntity
  8
DRAFT
100
AcDbLine
 62
7
  6
CONTINUOUS
 10
4.434596365
 20
21.2139629885
 11
4.3821231691
 21
22.2
  0
LINE
  5
44B
100
AcDbEntity
  8
DRAFT
100
AcDbLine
 62
250
  6
CONTINUOUS
 10
5.4
 20
-19.0427616522
 11
5.4
 21
-19.0610787705
  0
LINE
  5
44C
100
AcDbEntity
  8
0
100
AcDbLine
 62
7
  6
CONTINUOUS
 10
5.431939
 20
14.05
 11
5.431939
 21
13.55
  0
LINE
  5
44D
100
AcDbEntity
  8
0
100
AcDbLine
 62
7
  6
CONTINUOUS
 10
5.431939
 20
12.05
 11
5.431939
 21
11.1579214812
  0
LINE
  5
44E
100
AcDbEntity
  8
0
100
AcDbLine
 62
7
  6
CONTINUOUS
 10
5.8
 20
11.0182321592
 11
5.8
 21
12.05
  0
LINE
  5
44F
100
AcDbEntity
  8
0
100
AcDbLine
 62
7
  6
CONTINUOUS
 10
5.8
 20
13.55
 11
5.8
 21
14.05
  0
LINE
  5
450
100
AcDbEntity
  8
DRAFT
100
AcDbLine
 62
7
  6
CONTINUOUS
 10
5.9
 20
-19.0610787705
 11
5.9
 21
-19.0174537356
  0
LINE
  5
451
100
AcDbEntity
  8
RACCORDO
100
AcDbLine
 62
250
  6
CONTINUOUS
 10
6.25
 20
9.9965546854
 11
6.2499996249
 21
9.696600377
  0
LINE
  5
452
100
AcDbEntity
  8
ASSI
100
AcDbLine
 62
250
  6
CONTINUOUS
 10
6.25
 20
9.9965546854
 11
6.2499996249
 21
9.696600377
  0
LINE
  5
453
100
AcDbEntity
  8
RACCORDO
100
AcDbLine
 62
250
  6
CONTINUOUS
 10
6.25
 20
10.3
 11
6.25
 21
10.6
  0
LINE
  5
454
100
AcDbEntity
  8
ASSI
100
AcDbLine
 62
250
  6
CONTINUOUS
 10
6.25
 20
10.3
 11
6.25
 21
10.6
  0
LINE
  5
455
100
AcDbEntity
  8
RACCORDO
100
AcDbLine
 62
250
  6
CONTINUOUS
 10
6.25
 20
15.4034453146
 11
6.25
 21
15.7033996231
  0
LINE
  5
456
100
AcDbEntity
  8
ASSI
100
AcDbLine
 62
250
  6
CONTINUOUS
 10
6.25
 20
15.4034453146
 11
6.25
 21
15.7033996231
  0
LINE
  5
457
100
AcDbEntity
  8
RACCORDO
100
AcDbLine
 62
250
  6
CONTINUOUS
 10
6.25
 20
15.1
 11
6.2500001027
 21
14.8
  0
LINE
  5
458
100
AcDbEntity
  8
ASSI
100
AcDbLine
 62
250
  6
CONTINUOUS
 10
6.25
 20
15.1
 11
6.2500001027
 21
14.8
  0
LINE
  5
459
100
AcDbEntity
  8
DRAFT
100
AcDbLine
 62
7
  6
CONTINUOUS
 10
4.434596365
 20
-21.2139629885
 11
4.3821231691
 21
-22.2
  0
LWPOLYLINE
  5
45A
100
AcDbEntity
  8
RACCORDO
100
AcDbPolyline
 62
250
  6
CONTINUOUS
 90
10
 70
0
 10
6.4999048077
 20
17.5482946182
 10
6.515110872
 20
17.7218480531
 10
6.5602184486
 20
17.8901431046
 10
6.6338636021
 20
18.0480680616
 10
6.7338138169
 20
18.1908228179
 10
6.8570390542
 20
18.3140703411
 10
6.9998061618
 20
18.4140660093
 10
7.1577850254
 20
18.487764877
 10
7.3261771162
 20
18.5329174552
 10
7.4998665537
 20
18.5481423107
  0
LWPOLYLINE
  5
45B
100
AcDbEntity
  8
ASSI
100
AcDbPolyline
 62
250
  6
CONTINUOUS
 90
10
 70
0
 10
6.4999048077
 20
17.5482946182
 10
6.515110872
 20
17.7218480531
 10
6.5602184486
 20
17.8901431046
 10
6.6338636021
 20
18.0480680616
 10
6.7338138169
 20
18.1908228179
 10
6.8570390542
 20
18.3140703411
 10
6.9998061618
 20
18.4140660093
 10
7.1577850254
 20
18.487764877
 10
7.3261771162
 20
18.5329174552
 10
7.4998665537
 20
18.5481423107
  0
LINE
  5
45C
100
AcDbEntity
  8
0
100
AcDbLine
 62
250
  6
CONTINUOUS
 10
11.7346830131
 20
3.7023806572
 11
11.7119914287
 21
3.7023806572
  0
LINE
  5
45D
100
AcDbEntity
  8
CURVE
100
AcDbLine
 62
250
  6
CONTINUOUS
 10
11.8544745468
 20
3.8928573132
 11
11.8469960833
 21
3.8928573132
  0
LINE
  5
45E
100
AcDbEntity
  8
CURVE
100
AcDbLine
 62
250
  6
CONTINUOUS
 10
11.8469960833
 20
4.6428573132
 11
11.8563441626
 21
4.6428573132
  0
LWPOLYLINE
  5
45F
100
AcDbEntity
  8
0
100
AcDbPolyline
 62
7
  6
CONTINUOUS
 90
13
 70
0
 10
8.5766962005
 20
-13.3703266239
 10
8.5869226733
 20
-13.4327213775
 10
8.5931678369
 20
-13.4935984709
 10
8.5954316913
 20
-13.552957904
 10
8.5947920156
 20
-13.6116865505
 10
8.5901710308
 20
-13.6688975367
 10
8.5783353992
 20
-13.7219302418
 10
8.5581688467
 20
-13.771454839
 10
8.5307876475
 20
-13.816801155
 10
8.496307287
 20
-13.8532980486
 10
8.4547662602
 20
-13.8793884726
 10
8.4061260721
 20
-13.8966294741
 10
8.3503867227
 20
-13.9050210532
  0
LWPOLYLINE
  5
460
100
AcDbEntity
  8
ASSI
100
AcDbPolyline
 62
7
  6
CONTINUOUS
 90
13
 70
0
 10
8.5766962005
 20
-13.3703266239
 10
8.5869226733
 20
-13.4327213775
 10
8.5931678369
 20
-13.4935984709
 10
8.5954316913
 20
-13.552957904
 10
8.5947920156
 20
-13.6116865505
 10
8.5901710308
 20
-13.6688975367
 10
8.5783353992
 20
-13.7219302418
 10
8.5581688467
 20
-13.771454839
 10
8.5307876475
 20
-13.816801155
 10
8.496307287
 20
-13.8532980486
 10
8.4547662602
 20
-13.8793884726
 10
8.4061260721
 20
-13.8966294741
 10
8.3503867227
 20
-13.9050210532
  0
LINE
  5
461
100
AcDbEntity
  8
DRAFT
100
AcDbLine
 62
7
  6
CONTINUOUS
 10
8.238215003
 20
-20.9317102097
 11
8.2084845302
 21
-19.9483339502
  0
LINE
  5
462
100
AcDbEntity
  8
DRAFT
100
AcDbLine
 62
7
  6
CONTINUOUS
 10
7.0830351795
 20
19.0
 11
7.0819690456
 21
19.0610787705
  0
LINE
  5
463
100
AcDbEntity
  8
RACCORDO
100
AcDbLine
 62
7
  6
CONTINUOUS
 10
6.4999145275
 20
17.5482751771
 11
6.4999048077
 21
17.048294624
  0
LINE
  5
464
100
AcDbEntity
  8
ASSI
100
AcDbLine
 62
7
  6
CONTINUOUS
 10
6.4999145275
 20
17.5482751771
 11
6.4999048077
 21
17.048294624
  0
LINE
  5
465
100
AcDbEntity
  8
RACCORDO
100
AcDbLine
 62
7
  6
CONTINUOUS
 10
6.5480929688
 20
17.4519109555
 11
6.5480929688
 21
16.9519109613
  0
LINE
  5
466
100
AcDbEntity
  8
ASSI
100
AcDbLine
 62
7
  6
CONTINUOUS
 10
6.5480929688
 20
17.4519109555
 11
6.5480929688
 21
16.9519109613
  0
LINE
  5
467
100
AcDbEntity
  8
0
100
AcDbLine
 62
7
  6
CONTINUOUS
 10
7.000508
 20
-7.603139
 11
7.000508
 21
-7.952618
  0
LINE
  5
468
100
AcDbEntity
  8
ASSI
100
AcDbLine
 62
7
  6
CONTINUOUS
 10
7.000508
 20
-7.603139
 11
7.000508
 21
-7.952618
  0
LINE
  5
469
100
AcDbEntity
  8
0
100
AcDbLine
 62
7
  6
CONTINUOUS
 10
7.000508
 20
-8.710474
 11
7.000508
 21
-9.107046
  0
LINE
  5
46A
100
AcDbEntity
  8
ASSI
100
AcDbLine
 62
7
  6
CONTINUOUS
 10
7.000508
 20
-8.710474
 11
7.000508
 21
-9.107046
  0
LINE
  5
46B
100
AcDbEntity
  8
0
100
AcDbLine
 62
7
  6
CONTINUOUS
 10
7.000508
 20
-9.320534
 11
7.000508
 21
-9.699924
  0
LINE
  5
46C
100
AcDbEntity
  8
ASSI
100
AcDbLine
 62
7
  6
CONTINUOUS
 10
7.000508
 20
-9.320534
 11
7.000508
 21
-9.699924
  0
LINE
  5
46D
100
AcDbEntity
  8
0
100
AcDbLine
 62
7
  6
CONTINUOUS
 10
7.000508
 20
-10.250732
 11
7.000508
 21
-10.306351
  0
LINE
  5
46E
100
AcDbEntity
  8
ASSI
100
AcDbLine
 62
7
  6
CONTINUOUS
 10
7.000508
 20
-10.250732
 11
7.000508
 21
-10.306351
  0
LINE
  5
46F
100
AcDbEntity
  8
0
100
AcDbLine
 62
7
  6
CONTINUOUS
 10
7.000508
 20
-10.859353
 11
7.000508
 21
-11.247306
  0
LINE
  5
470
100
AcDbEntity
  8
ASSI
100
AcDbLine
 62
7
  6
CONTINUOUS
 10
7.000508
 20
-10.859353
 11
7.000508
 21
-11.247306
  0
LINE
  5
471
100
AcDbEntity
  8
0
100
AcDbLine
 62
7
  6
CONTINUOUS
 10
7.000508
 20
-11.309578
 11
7.000508
 21
-11.701848
  0
LINE
  5
472
100
AcDbEntity
  8
ASSI
100
AcDbLine
 62
7
  6
CONTINUOUS
 10
7.000508
 20
-11.309578
 11
7.000508
 21
-11.701848
  0
LINE
  5
473
100
AcDbEntity
  8
0
100
AcDbLine
 62
7
  6
CONTINUOUS
 10
7.000508
 20
-12.454076
 11
7.000508
 21
-12.872047
  0
LINE
  5
474
100
AcDbEntity
  8
ASSI
100
AcDbLine
 62
7
  6
CONTINUOUS
 10
7.000508
 20
-12.454076
 11
7.000508
 21
-12.872047
  0
LINE
  5
475
100
AcDbEntity
  8
0
100
AcDbLine
 62
7
  6
CONTINUOUS
 10
7.0005080312
 20
-12.9884997236
 11
7.0005080312
 21
-13.3834763657
  0
LINE
  5
476
100
AcDbEntity
  8
ASSI
100
AcDbLine
 62
7
  6
CONTINUOUS
 10
7.0005080312
 20
-12.9884997236
 11
7.0005080312
 21
-13.3834763657
  0
LINE
  5
477
100
AcDbEntity
  8
0
100
AcDbLine
 62
7
  6
CONTINUOUS
 10
7.0005080312
 20
-13.9907721861
 11
7.0005080312
 21
-14.3722286712
  0
LINE
  5
478
100
AcDbEntity
  8
ASSI
100
AcDbLine
 62
7
  6
CONTINUOUS
 10
7.0005080312
 20
-13.9907721861
 11
7.0005080312
 21
-14.3722286712
  0
LINE
  5
479
100
AcDbEntity
  8
0
100
AcDbLine
 62
7
  6
CONTINUOUS
 10
7.379785
 20
-11.811277
 11
7.379785
 21
-12.351342
  0
LINE
  5
47A
100
AcDbEntity
  8
ASSI
100
AcDbLine
 62
7
  6
CONTINUOUS
 10
7.379785
 20
-11.811277
 11
7.379785
 21
-12.351342
  0
LINE
  5
47B
100
AcDbEntity
  8
RACCORDO
100
AcDbLine
 62
250
  6
CONTINUOUS
 10
7.4544089061
 20
12.55
 11
7.4544089061
 21
12.05
  0
LINE
  5
47C
100
AcDbEntity
  8
RACCORDO
100
AcDbLine
 62
250
  6
CONTINUOUS
 10
7.55
 20
13.8634176008
 11
7.55
 21
12.5567278987
  0
LINE
  5
47D
100
AcDbEntity
  8
0
100
AcDbLine
 62
7
  6
CONTINUOUS
 10
7.673268
 20
-12.272088
 11
7.673268
 21
-11.892398
  0
LINE
  5
47E
100
AcDbEntity
  8
ASSI
100
AcDbLine
 62
7
  6
CONTINUOUS
 10
7.673268
 20
-12.272088
 11
7.673268
 21
-11.892398
  0
LINE
  5
47F
100
AcDbEntity
  8
0
100
AcDbLine
 62
7
  6
CONTINUOUS
 10
7.7440026937
 20
-13.3834763657
 11
7.7440026937
 21
-13.5961089723
  0
LINE
  5
480
100
AcDbEntity
  8
ASSI
100
AcDbLine
 62
7
  6
CONTINUOUS
 10
7.7440026937
 20
-13.3834763657
 11
7.7440026937
 21
-13.5961089723
  0
LINE
  5
481
100
AcDbEntity
  8
RACCORDO
100
AcDbLine
 62
250
  6
CONTINUOUS
 10
7.9695944602
 20
17.4692136981
 11
7.9695944602
 21
18.4690613933
  0
LINE
  5
482
100
AcDbEntity
  8
ASSI
100
AcDbLine
 62
250
  6
CONTINUOUS
 10
7.9695944602
 20
17.4692136981
 11
7.9695944602
 21
18.4690613933
  0
LINE
  5
483
100
AcDbEntity
  8
RACCORDO
100
AcDbLine
 62
250
  6
CONTINUOUS
 10
7.9695944602
 20
-17.4692136981
 11
7.969594292
 21
-18.4690613933
  0
LINE
  5
484
100
AcDbEntity
  8
ASSI
100
AcDbLine
 62
250
  6
CONTINUOUS
 10
7.9695944602
 20
-17.4692136981
 11
7.969594292
 21
-18.4690613933
  0
LINE
  5
485
100
AcDbEntity
  8
0
100
AcDbLine
 62
7
  6
CONTINUOUS
 10
8.055151513
 20
-13.5969637767
 11
8.055151513
 21
-13.3703266239
  0
LINE
  5
486
100
AcDbEntity
  8
ASSI
100
AcDbLine
 62
7
  6
CONTINUOUS
 10
8.055151513
 20
-13.5969637767
 11
8.055151513
 21
-13.3703266239
  0
LINE
  5
487
100
AcDbEntity
  8
DRAFT
100
AcDbLine
 62
7
  6
CONTINUOUS
 10
7.0819690456
 20
-19.0610787705
 11
7.0830351795
 21
-19.0
  0
LINE
  5
488
100
AcDbEntity
  8
DRAFT
100
AcDbLine
 62
7
  6
CONTINUOUS
 10
8.238215003
 20
20.9317102097
 11
8.2084845302
 21
19.9483339502
  0
LINE
  5
489
100
AcDbEntity
  8
RACCORDO
100
AcDbLine
 62
7
  6
CONTINUOUS
 10
-5.443508831
 20
-13.8250342899
 11
-5.5239292066
 21
-13.8891763063
  0
LINE
  5
48A
100
AcDbEntity
  8
RACCORDO
100
AcDbLine
 62
7
  6
CONTINUOUS
 10
-5.3394585084
 20
-13.7429146528
 11
-5.443508831
 21
-13.8250342899
  0
LINE
  5
48B
100
AcDbEntity
  8
RACCORDO
100
AcDbLine
 62
7
  6
CONTINUOUS
 10
-5.237825413
 20
-13.6636639221
 11
-5.3394585084
 21
-13.7429146528
  0
LWPOLYLINE
  5
48C
100
AcDbEntity
  8
RACCORDO
100
AcDbPolyline
 62
7
  6
CONTINUOUS
 90
3
 70
0
 10
-5.0897368307
 20
-13.55
 10
-5.1385150674
 20
-13.5871899457
 10
-5.237825413
 20
-13.6636639221
  0
LINE
  5
48D
100
AcDbEntity
  8
0
100
AcDbLine
 62
250
  6
CONTINUOUS
 10
11.5810784417
 20
5.5000000008
 11
11.5985281963
 21
5.5000000008
  0
LINE
  5
48E
100
AcDbEntity
  8
0
100
AcDbLine
 62
250
  6
CONTINUOUS
 10
11.668327196
 20
5.5000000008
 11
11.6857769318
 21
5.5000000008
  0
LINE
  5
48F
100
AcDbEntity
  8
0
100
AcDbLine
 62
250
  6
CONTINUOUS
 10
11.7119914287
 20
5.5595238686
 11
11.7346830131
 21
5.5595238686
  0
LINE
  5
490
100
AcDbEntity
  8
CURVE
100
AcDbLine
 62
250
  6
CONTINUOUS
 10
11.8507353152
 20
6.1428573132
 11
11.8619530107
 21
6.1428573132
  0
LINE
  5
491
100
AcDbEntity
  8
0
100
AcDbLine
 62
250
  6
CONTINUOUS
 10
11.7119914287
 20
6.5190477371
 11
11.7346830131
 21
6.5190477371
  0
LINE
  5
492
100
AcDbEntity
  8
CURVE
100
AcDbLine
 62
250
  6
CONTINUOUS
 10
11.8619530107
 20
6.8928573132
 11
11.8507353152
 21
6.8928573132
  0
LINE
  5
493
100
AcDbEntity
  8
DRAFT
100
AcDbLine
 62
7
  6
CONTINUOUS
 10
8.2195044567
 20
19.0686688326
 11
8.2084845302
 21
19.7
  0
LINE
  5
494
100
AcDbEntity
  8
DRAFT
100
AcDbLine
 62
7
  6
CONTINUOUS
 10
8.2084845302
 20
-19.9483339502
 11
8.2084845302
 21
-19.7
  0
LINE
  5
495
100
AcDbEntity
  8
DRAFT
100
AcDbLine
 62
7
  6
CONTINUOUS
 10
8.2084845302
 20
19.7
 11
8.2084845302
 21
19.9483339502
  0
LINE
  5
496
100
AcDbEntity
  8
0
100
AcDbLine
 62
7
  6
CONTINUOUS
 10
8.900354
 20
-12.289127
 11
8.900354
 21
-11.905491
  0
LINE
  5
497
100
AcDbEntity
  8
ASSI
100
AcDbLine
 62
7
  6
CONTINUOUS
 10
8.900354
 20
-12.289127
 11
8.900354
 21
-11.905491
  0
LINE
  5
498
100
AcDbEntity
  8
0
100
AcDbLine
 62
7
  6
CONTINUOUS
 10
8.900354
 20
-11.069649
 11
8.900354
 21
-10.677279
  0
LINE
  5
499
100
AcDbEntity
  8
ASSI
100
AcDbLine
 62
7
  6
CONTINUOUS
 10
8.900354
 20
-11.069649
 11
8.900354
 21
-10.677279
  0
LINE
  5
49A
100
AcDbEntity
  8
0
100
AcDbLine
 62
7
  6
CONTINUOUS
 10
8.900354
 20
-9.888323
 11
8.900354
 21
-9.492079
  0
LINE
  5
49B
100
AcDbEntity
  8
ASSI
100
AcDbLine
 62
7
  6
CONTINUOUS
 10
8.900354
 20
-9.888323
 11
8.900354
 21
-9.492079
  0
LINE
  5
49C
100
AcDbEntity
  8
0
100
AcDbLine
 62
7
  6
CONTINUOUS
 10
8.900354
 20
-8.563305
 11
8.900354
 21
-8.167003
  0
LINE
  5
49D
100
AcDbEntity
  8
ASSI
100
AcDbLine
 62
7
  6
CONTINUOUS
 10
8.900354
 20
-8.563305
 11
8.900354
 21
-8.167003
  0
LINE
  5
49E
100
AcDbEntity
  8
0
100
AcDbLine
 62
7
  6
CONTINUOUS
 10
8.900354
 20
-7.431651
 11
8.900354
 21
-7.000851
  0
LINE
  5
49F
100
AcDbEntity
  8
ASSI
100
AcDbLine
 62
7
  6
CONTINUOUS
 10
8.900354
 20
-7.431651
 11
8.900354
 21
-7.000851
  0
LINE
  5
4A0
100
AcDbEntity
  8
0
100
AcDbLine
 62
7
  6
CONTINUOUS
 10
8.900468
 20
-9.107046
 11
8.900468
 21
-8.710474
  0
LINE
  5
4A1
100
AcDbEntity
  8
ASSI
100
AcDbLine
 62
7
  6
CONTINUOUS
 10
8.900468
 20
-9.107046
 11
8.900468
 21
-8.710474
  0
LINE
  5
4A2
100
AcDbEntity
  8
DRAFT
100
AcDbLine
 62
7
  6
CONTINUOUS
 10
8.2084845302
 20
-19.7
 11
8.2195044567
 21
-19.0686688326
  0
LWPOLYLINE
  5
4A3
100
AcDbEntity
  8
0
100
AcDbPolyline
 62
7
  6
CONTINUOUS
 90
7
 70
0
 10
7.7440026937
 20
-13.5961089723
 10
7.7413961028
 20
-13.6280400464
 10
7.7344139421
 20
-13.6584286877
 10
7.7230562118
 20
-13.6872748963
 10
7.7068199258
 20
-13.7149712721
 10
7.6862080701
 20
-13.7411252151
 10
7.6627296028
 20
-13.7645589251
  0
LWPOLYLINE
  5
4A4
100
AcDbEntity
  8
ASSI
100
AcDbPolyline
 62
7
  6
CONTINUOUS
 90
7
 70
0
 10
7.7440026937
 20
-13.5961089723
 10
7.7413961028
 20
-13.6280400464
 10
7.7344139421
 20
-13.6584286877
 10
7.7230562118
 20
-13.6872748963
 10
7.7068199258
 20
-13.7149712721
 10
7.6862080701
 20
-13.7411252151
 10
7.6627296028
 20
-13.7645589251
  0
LWPOLYLINE
  5
4A5
100
AcDbEntity
  8
0
100
AcDbPolyline
 62
250
  6
CONTINUOUS
 90
7
 70
0
 10
11.6151189359
 20
11.952892
 10
11.6140423445
 20
11.9468435097
 10
11.6130067601
 20
11.9289284239
 10
11.6120516278
 20
11.8998291227
 10
11.6111996236
 20
11.8598714569
 10
11.6105130012
 20
11.8119750371
 10
11.6096855431
 20
11.69807439
  0
LWPOLYLINE
  5
4A6
100
AcDbEntity
  8
0
100
AcDbPolyline
 62
250
  6
CONTINUOUS
 90
7
 70
0
 10
11.6151189359
 20
11.77581
 10
11.6146426271
 20
11.7731340089
 10
11.6141844608
 20
11.7652079632
 10
11.6137618883
 20
11.7523337635
 10
11.613384942
 20
11.7346555738
 10
11.6130811645
 20
11.7134650969
 10
11.612715078
 20
11.6630728329
  0
LWPOLYLINE
  5
4A7
100
AcDbEntity
  8
0
100
AcDbPolyline
 62
250
  6
CONTINUOUS
 90
8
 70
0
 10
11.6151189359
 20
11.49479
 10
11.6155952447
 20
11.4974659911
 10
11.616053411
 20
11.5053920368
 10
11.6164759835
 20
11.5182662365
 10
11.6168529298
 20
11.5359444262
 10
11.6171567073
 20
11.5571349031
 10
11.6173828667
 20
11.5813026642
 10
11.6175711735
 20
11.6353
  0
LWPOLYLINE
  5
4A8
100
AcDbEntity
  8
0
100
AcDbPolyline
 62
250
  6
CONTINUOUS
 90
8
 70
0
 10
11.6151189359
 20
11.317708
 10
11.6161955273
 20
11.3237564903
 10
11.6172311117
 20
11.3416715761
 10
11.618186244
 20
11.3707708773
 10
11.6190382482
 20
11.4107285431
 10
11.6197248706
 20
11.4586249629
 10
11.6202360544
 20
11.5132508799
 10
11.6206616806
 20
11.6353
  0
LWPOLYLINE
  5
4A9
100
AcDbEntity
  8
0
100
AcDbPolyline
 62
250
  6
CONTINUOUS
 90
7
 70
0
 10
11.6735069041
 20
11.402669
 10
11.6728540787
 20
11.3990013057
 10
11.6722261192
 20
11.3881379242
 10
11.6716469444
 20
11.3704926384
 10
11.6711303045
 20
11.3462630381
 10
11.6707139492
 20
11.3172195222
 10
11.6702121937
 20
11.2481522459
  0
LWPOLYLINE
  5
4AA
100
AcDbEntity
  8
0
100
AcDbPolyline
 62
250
  6
CONTINUOUS
 90
7
 70
0
 10
11.6735069041
 20
11.017505
 10
11.6741597295
 20
11.0211726943
 10
11.674787689
 20
11.0320360758
 10
11.6753668638
 20
11.0496813616
 10
11.6758835036
 20
11.0739109619
 10
11.6762998589
 20
11.1029544778
 10
11.6768016144
 20
11.1720217541
  0
LINE
  5
4AB
100
AcDbEntity
  8
0
100
AcDbLine
 62
250
  6
CONTINUOUS
 10
11.671683529
 20
13.568876
 11
11.6130046816
 21
13.274826
  0
LINE
  5
4AC
100
AcDbEntity
  8
DRAFT
100
AcDbLine
 62
7
  6
CONTINUOUS
 10
0.5306392332
 20
-16.9868210911
 11
0.4999048077
 21
-17.048294624
  0
LINE
  5
4AD
100
AcDbEntity
  8
ASSI
100
AcDbLine
 62
7
  6
CONTINUOUS
 10
0.5306392332
 20
-16.9868210911
 11
0.4999048077
 21
-17.048294624
  0
LINE
  5
4AE
100
AcDbEntity
  8
RACCORDO
100
AcDbLine
 62
250
  6
CONTINUOUS
 10
0.4999141185
 20
-17.5482759951
 11
0.5480929688
 21
-17.4519109555
  0
LINE
  5
4AF
100
AcDbEntity
  8
ASSI
100
AcDbLine
 62
250
  6
CONTINUOUS
 10
0.4999141185
 20
-17.5482759951
 11
0.5480929688
 21
-17.4519109555
  0
LINE
  5
4B0
100
AcDbEntity
  8
RACCORDO
100
AcDbLine
 62
250
  6
CONTINUOUS
 10
1.4998667307
 20
-18.5481423133
 11
1.5394041794
 21
-18.4690613933
  0
LINE
  5
4B1
100
AcDbEntity
  8
ASSI
100
AcDbLine
 62
250
  6
CONTINUOUS
 10
1.4998667307
 20
-18.5481423133
 11
1.5394041794
 21
-18.4690613933
  0
LINE
  5
4B2
100
AcDbEntity
  8
DRAFT
100
AcDbLine
 62
7
  6
CONTINUOUS
 10
-8.5103594806
 20
-20.7603594806
 11
-8.65
 21
-20.9
  0
LINE
  5
4B3
100
AcDbEntity
  8
RACCORDO
100
AcDbLine
 62
250
  6
CONTINUOUS
 10
-6.500533067
 20
-19.0
 11
-5.9695944602
 21
-18.4690613933
  0
LINE
  5
4B4
100
AcDbEntity
  8
ASSI
100
AcDbLine
 62
250
  6
CONTINUOUS
 10
-6.500533067
 20
-19.0
 11
-5.9695944602
 21
-18.4690613933
  0
LINE
  5
4B5
100
AcDbEntity
  8
CURVE
100
AcDbLine
 62
250
  6
CONTINUOUS
 10
11.8544745468
 20
7.3214285374
 11
11.8469960833
 21
7.3214285374
  0
LINE
  5
4B6
100
AcDbEntity
  8
CURVE
100
AcDbLine
 62
250
  6
CONTINUOUS
 10
11.7634865735
 20
7.571428299
 11
11.7578777256
 21
7.571428299
  0
LINE
  5
4B7
100
AcDbEntity
  8
CURVE
100
AcDbLine
 62
250
  6
CONTINUOUS
 10
11.8694314739
 20
7.9642853737
 11
11.8582137792
 21
7.9642853737
  0
LINE
  5
4B8
100
AcDbEntity
  8
0
100
AcDbLine
 62
250
  6
CONTINUOUS
 10
11.9746423971
 20
7.982444
 11
11.961540777
 21
7.982444
  0
LINE
  5
4B9
100
AcDbEntity
  8
0
100
AcDbLine
 62
250
  6
CONTINUOUS
 10
11.8988187036
 20
7.982444
 11
11.8857170835
 21
7.982444
  0
LINE
  5
4BA
100
AcDbEntity
  8
0
100
AcDbLine
 62
250
  6
CONTINUOUS
 10
11.7119914287
 20
8.1595238686
 11
11.7346830131
 21
8.1595238686
  0
LINE
  5
4BB
100
AcDbEntity
  8
CURVE
100
AcDbLine
 62
250
  6
CONTINUOUS
 10
11.7728346524
 20
8.2142858505
 11
11.7672258051
 21
8.2142858505
  0
LINE
  5
4BC
100
AcDbEntity
  8
0
100
AcDbLine
 62
250
  6
CONTINUOUS
 10
11.9367233959
 20
8.382444
 11
11.9236360847
 21
8.382444
  0
LINE
  5
4BD
100
AcDbEntity
  8
CURVE
100
AcDbLine
 62
250
  6
CONTINUOUS
 10
11.7634865735
 20
8.6428570747
 11
11.774704269
 21
8.6428570747
  0
LINE
  5
4BE
100
AcDbEntity
  8
0
100
AcDbLine
 62
250
  6
CONTINUOUS
 10
11.7119914287
 20
8.8095238686
 11
11.7346830131
 21
8.8095238686
  0
LWPOLYLINE
  5
4BF
100
AcDbEntity
  8
RACCORDO
100
AcDbPolyline
 62
7
  6
CONTINUOUS
 90
13
 70
0
 10
-8.7422764726
 20
18.1780586799
 10
-8.7594973468
 20
18.1921797893
 10
-8.782695415
 20
18.2065586767
 10
-8.8071350985
 20
18.2175597926
 10
-8.8328858706
 20
18.2250011642
 10
-8.8598782579
 20
18.2290647642
 10
-8.8866768348
 20
18.2295379904
 10
-8.9132575203
 20
18.2262380981
 10
-8.9396443954
 20
18.2193478318
 10
-8.9644742777
 20
18.2092028229
 10
-8.9872927728
 20
18.1959149486
 10
-9.0085542751
 20
18.1793723317
 10
-9.0282587846
 20
18.1595749722
  0
LINE
  5
4C0
100
AcDbEntity
  8
DRAFT
100
AcDbLine
 62
7
  6
CONTINUOUS
 10
-8.65
 20
20.9
 11
-8.5103594806
 21
20.7603594806
  0
LINE
  5
4C1
100
AcDbEntity
  8
RACCORDO
100
AcDbLine
 62
250
  6
CONTINUOUS
 10
-6.500533067
 20
19.0
 11
-5.9695944602
 21
18.4690613933
  0
LINE
  5
4C2
100
AcDbEntity
  8
ASSI
100
AcDbLine
 62
250
  6
CONTINUOUS
 10
-6.500533067
 20
19.0
 11
-5.9695944602
 21
18.4690613933
  0
LINE
  5
4C3
100
AcDbEntity
  8
RACCORDO
100
AcDbLine
 62
250
  6
CONTINUOUS
 10
7.55
 20
12.556714473
 11
7.6200282971
 21
12.063428946
  0
LINE
  5
4C4
100
AcDbEntity
  8
CURVE
100
AcDbLine
 62
250
  6
CONTINUOUS
 10
11.8582137792
 20
-10.5714284778
 11
11.8507353152
 21
-10.4642856717
  0
LINE
  5
4C5
100
AcDbEntity
  8
CURVE
100
AcDbLine
 62
250
  6
CONTINUOUS
 10
11.8432568513
 20
-12.3928570747
 11
11.8694314739
 21
-12.8214286566
  0
LWPOLYLINE
  5
4C6
100
AcDbEntity
  8
RACCORDO
100
AcDbPolyline
 62
250
  6
CONTINUOUS
 90
16
 70
0
 10
10.4692136981
 20
14.9695944602
 10
10.4544904255
 20
15.2350138258
 10
10.4138026276
 20
15.492260031
 10
10.3471503046
 20
15.7413330759
 10
10.2532612371
 20
15.9848433908
 10
10.1334076444
 20
16.2201805453
 10
9.9914061845
 20
16.4395132484
 10
9.8264088109
 20
16.6423020623
 10
9.6392635701
 20
16.8290864248
 10
9.4363312601
 20
16.9936533579
 10
9.2171520018
 20
17.1351485089
 10
8.9821856743
 20
17.2544262304
 10
8.7391727129
 20
17.3478366022
 10
8.4906932626
 20
17.414162984
 10
8.2341671784
 20
17.454622016
 10
7.9695944602
 20
17.4692136981
  0
LWPOLYLINE
  5
4C7
100
AcDbEntity
  8
ASSI
100
AcDbPolyline
 62
250
  6
CONTINUOUS
 90
16
 70
0
 10
10.4692136981
 20
14.9695944602
 10
10.4544904255
 20
15.2350138258
 10
10.4138026276
 20
15.492260031
 10
10.3471503046
 20
15.7413330759
 10
10.2532612371
 20
15.9848433908
 10
10.1334076444
 20
16.2201805453
 10
9.9914061845
 20
16.4395132484
 10
9.8264088109
 20
16.6423020623
 10
9.6392635701
 20
16.8290864248
 10
9.4363312601
 20
16.9936533579
 10
9.2171520018
 20
17.1351485089
 10
8.9821856743
 20
17.2544262304
 10
8.7391727129
 20
17.3478366022
 10
8.4906932626
 20
17.414162984
 10
8.2341671784
 20
17.454622016
 10
7.9695944602
 20
17.4692136981
  0
LWPOLYLINE
  5
4C8
100
AcDbEntity
  8
CURVE
100
AcDbPolyline
 62
250
  6
CONTINUOUS
 90
13
 70
0
 10
11.9061517136
 20
-13.9695056768
 10
11.9063995182
 20
-13.9741196139
 10
11.9066491823
 20
-13.9783464547
 10
11.9069003703
 20
-13.9821835085
 10
11.9071527465
 20
-13.985628085
 10
11.9074059755
 20
-13.9886774934
 10
11.9076597216
 20
-13.9913290434
 10
11.9079136492
 20
-13.9935800443
 10
11.9081674227
 20
-13.9954278056
 10
11.9084207067
 20
-13.9968696368
 10
11.9086731654
 20
-13.9979028474
 10
11.9089244634
 20
-13.9985247468
 10
11.9091742649
 20
-13.9987326445
  0
LINE
  5
4C9
100
AcDbEntity
  8
CURVE
100
AcDbLine
 62
250
  6
CONTINUOUS
 10
11.89072829
 20
-8.067624
 11
11.9179589364
 21
-8.586932
  0
LINE
  5
4CA
100
AcDbEntity
  8
CURVE
100
AcDbLine
 62
250
  6
CONTINUOUS
 10
11.9179589364
 20
-8.836527
 11
11.8865491975
 21
-8.196167
  0
LWPOLYLINE
  5
4CB
100
AcDbEntity
  8
CURVE
100
AcDbPolyline
 62
250
  6
CONTINUOUS
 90
17
 70
0
 10
11.8923046381
 20
-12.32512456
 10
11.8927080774
 20
-12.3336252196
 10
11.8931179356
 20
-12.3413947786
 10
11.8935334899
 20
-12.3484584422
 10
11.8939540175
 20
-12.3548414159
 10
11.8943787956
 20
-12.3605689049
 10
11.8948071015
 20
-12.3656661146
 10
11.8952382124
 20
-12.3701582504
 10
11.8956714055
 20
-12.3740705177
 10
11.896105958
 20
-12.3774281217
 10
11.8965411472
 20
-12.3802562678
 10
11.8969762503
 20
-12.3825801614
 10
11.8974105444
 20
-12.3844250078
 10
11.8978433069
 20
-12.3858160123
 10
11.898273815
 20
-12.3867783804
 10
11.8987013458
 20
-12.3873373173
 10
11.8991251766
 20
-12.3875180284
  0
LINE
  5
4CC
100
AcDbEntity
  8
CURVE
100
AcDbLine
 62
250
  6
CONTINUOUS
 10
11.89343113
 20
-12.2327398658
 11
11.8928682814
 21
-12.221083554
  0
LINE
  5
4CD
100
AcDbEntity
  8
CURVE
100
AcDbLine
 62
250
  6
CONTINUOUS
 10
11.905663025
 20
-13.9591272755
 11
11.9061517136
 21
-13.9695056768
  0
LINE
  5
4CE
100
AcDbEntity
  8
CURVE
100
AcDbLine
 62
250
  6
CONTINUOUS
 10
11.9065291203
 20
-13.8592941005
 11
11.9060419065
 21
-13.8476951129
  0
LINE
  5
4CF
100
AcDbEntity
  8
CURVE
100
AcDbLine
 62
250
  6
CONTINUOUS
 10
11.8928682814
 20
-12.221083554
 11
11.8923222384
 21
-12.2076689981
  0
LINE
  5
4D0
100
AcDbEntity
  8
CURVE
100
AcDbLine
 62
250
  6
CONTINUOUS
 10
11.9051858013
 20
-13.9472327751
 11
11.905663025
 21
-13.9591272755
  0
LINE
  5
4D1
100
AcDbEntity
  8
CURVE
100
AcDbLine
 62
250
  6
CONTINUOUS
 10
11.8915199071
 20
-12.3058291174
 11
11.8923046381
 21
-12.32512456
  0
LINE
  5
4D2
100
AcDbEntity
  8
CURVE
100
AcDbLine
 62
250
  6
CONTINUOUS
 10
11.8469960833
 20
-9.285714224
 11
11.8507353152
 21
-9.3928570747
  0
LINE
  5
4D3
100
AcDbEntity
  8
CURVE
100
AcDbLine
 62
250
  6
CONTINUOUS
 10
11.8656922423
 20
-8.7499999367
 11
11.8619530107
 21
-8.6428570747
  0
LINE
  5
4D4
100
AcDbEntity
  8
CURVE
100
AcDbLine
 62
250
  6
CONTINUOUS
 10
11.9047227272
 20
-13.9338436999
 11
11.9051858013
 21
-13.9472327751
  0
LINE
  5
4D5
100
AcDbEntity
  8
CURVE
100
AcDbLine
 62
250
  6
CONTINUOUS
 10
11.9060419065
 20
-13.8476951129
 11
11.9055745487
 21
-13.8341579773
  0
LINE
  5
4D6
100
AcDbEntity
  8
CURVE
100
AcDbLine
 62
250
  6
CONTINUOUS
 10
11.8923222384
 20
-12.2076689981
 11
11.8917955703
 21
-12.1923883686
  0
LINE
  5
4D7
100
AcDbEntity
  8
CURVE
100
AcDbLine
 62
250
  6
CONTINUOUS
 10
11.890769525
 20
-12.2833068079
 11
11.8915199071
 21
-12.3058291174
  0
LINE
  5
4D8
100
AcDbEntity
  8
CURVE
100
AcDbLine
 62
250
  6
CONTINUOUS
 10
11.8917955703
 20
-12.1923883686
 11
11.8912908461
 21
-12.1751338361
  0
LINE
  5
4D9
100
AcDbEntity
  8
CURVE
100
AcDbLine
 62
250
  6
CONTINUOUS
 10
11.9055745487
 20
-13.8341579773
 11
11.905130311
 21
-13.8187004005
  0
LINE
  5
4DA
100
AcDbEntity
  8
CURVE
100
AcDbLine
 62
250
  6
CONTINUOUS
 10
11.904060519
 20
-13.9110048436
 11
11.9047227272
 21
-13.9338436999
  0
LINE
  5
4DB
100
AcDbEntity
  8
CURVE
100
AcDbLine
 62
250
  6
CONTINUOUS
 10
11.8694314739
 20
-13.4642854929
 11
11.8656922423
 21
-13.3214285374
  0
LINE
  5
4DC
100
AcDbEntity
  8
CURVE
100
AcDbLine
 62
250
  6
CONTINUOUS
 10
11.8900592738
 20
-12.2573559887
 11
11.890769525
 21
-12.2833068079
  0
LINE
  5
4DD
100
AcDbEntity
  8
CURVE
100
AcDbLine
 62
250
  6
CONTINUOUS
 10
11.9034452485
 20
-13.884924268
 11
11.904060519
 21
-13.9110048436
  0
LINE
  5
4DE
100
AcDbEntity
  8
CURVE
100
AcDbLine
 62
250
  6
CONTINUOUS
 10
11.8912908461
 20
-12.1751338361
 11
11.8905805249
 21
-12.1453150922
  0
LINE
  5
4DF
100
AcDbEntity
  8
CURVE
100
AcDbLine
 62
250
  6
CONTINUOUS
 10
11.8893949358
 20
-12.2277750171
 11
11.8900592738
 21
-12.2573559887
  0
LWPOLYLINE
  5
4E0
100
AcDbEntity
  8
CURVE
100
AcDbPolyline
 62
250
  6
CONTINUOUS
 90
3
 70
0
 10
11.905130311
 20
-13.8187004005
 10
11.9045144453
 20
-13.7919519417
 10
11.904324253
 20
-13.7820947504
  0
LINE
  5
4E1
100
AcDbEntity
  8
CURVE
100
AcDbLine
 62
250
  6
CONTINUOUS
 10
11.9030656191
 20
-13.8657721362
 11
11.9034452485
 21
-13.884924268
  0
LINE
  5
4E2
100
AcDbEntity
  8
CURVE
100
AcDbLine
 62
250
  6
CONTINUOUS
 10
11.8432568513
 20
-13.7857142687
 11
11.8469960833
 21
-13.9999998808
  0
LINE
  5
4E3
100
AcDbEntity
  8
CURVE
100
AcDbLine
 62
250
  6
CONTINUOUS
 10
11.8582137792
 20
-13.4642854929
 11
11.8544745468
 21
-13.2499998808
  0
LINE
  5
4E4
100
AcDbEntity
  8
0
100
AcDbLine
 62
250
  6
CONTINUOUS
 10
11.6073942116
 20
5.3445488527
 11
11.6086426189
 21
5.0185167429
  0
LINE
  5
4E5
100
AcDbEntity
  8
RACCORDO
100
AcDbLine
 62
250
  6
CONTINUOUS
 10
10.4692136981
 20
-14.9695944602
 11
10.4692136981
 21
14.9695944602
  0
LINE
  5
4E6
100
AcDbEntity
  8
ASSI
100
AcDbLine
 62
250
  6
CONTINUOUS
 10
10.4692136981
 20
-14.9695944602
 11
10.4692136981
 21
14.9695944602
  0
LINE
  5
4E7
100
AcDbEntity
  8
0
100
AcDbLine
 62
7
  6
CONTINUOUS
 10
10.65
 20
-20.9
 11
10.65
 21
-18.2585027295
  0
LINE
  5
4E8
100
AcDbEntity
  8
RACCORDO
100
AcDbLine
 62
7
  6
CONTINUOUS
 10
10.65
 20
-20.9
 11
10.65
 21
-18.2585027295
  0
LINE
  5
4E9
100
AcDbEntity
  8
0
100
AcDbLine
 62
7
  6
CONTINUOUS
 10
10.65
 20
18.258502683
 11
10.65
 21
20.9
  0
LINE
  5
4EA
100
AcDbEntity
  8
RACCORDO
100
AcDbLine
 62
7
  6
CONTINUOUS
 10
10.65
 20
18.258502683
 11
10.65
 21
20.9
  0
LINE
  5
4EB
100
AcDbEntity
  8
RACCORDO
100
AcDbLine
 62
250
  6
CONTINUOUS
 10
11.4690613933
 20
-14.9695944602
 11
11.4690613933
 21
14.9695944602
  0
LINE
  5
4EC
100
AcDbEntity
  8
ASSI
100
AcDbLine
 62
250
  6
CONTINUOUS
 10
11.4690613933
 20
-14.9695944602
 11
11.4690613933
 21
14.9695944602
  0
LINE
  5
4ED
100
AcDbEntity
  8
0
100
AcDbLine
 62
250
  6
CONTINUOUS
 10
11.5636233768
 20
10.407638
 11
11.5636233768
 21
14.592362
  0
LINE
  5
4EE
100
AcDbEntity
  8
0
100
AcDbLine
 62
250
  6
CONTINUOUS
 10
11.5810784417
 20
8.5
 11
11.5810784417
 21
7.500000718
  0
LINE
  5
4EF
100
AcDbEntity
  8
0
100
AcDbLine
 62
250
  6
CONTINUOUS
 10
11.5814075884
 20
14.592362
 11
11.5814075884
 21
10.407638
  0
LINE
  5
4F0
100
AcDbEntity
  8
0
100
AcDbLine
 62
250
  6
CONTINUOUS
 10
11.6095761912
 20
13.100497
 11
11.6095761912
 21
13.218117
  0
LINE
  5
4F1
100
AcDbEntity
  8
0
100
AcDbLine
 62
250
  6
CONTINUOUS
 10
11.6130046816
 20
13.274826
 11
11.6130046816
 21
11.928959
  0
LINE
  5
4F2
100
AcDbEntity
  8
0
100
AcDbLine
 62
250
  6
CONTINUOUS
 10
11.5985281963
 20
5.5000000008
 11
11.5987359977
 21
5.7181583026
  0
LINE
  5
4F3
100
AcDbEntity
  8
0
100
AcDbLine
 62
250
  6
CONTINUOUS
 10
11.6096855431
 20
11.69807439
 11
11.6096817519
 21
11.5736127239
  0
LINE
  5
4F4
100
AcDbEntity
  8
0
100
AcDbLine
 62
250
  6
CONTINUOUS
 10
11.612715078
 20
11.6630728329
 11
11.6127134008
 21
11.6080081313
  0
LINE
  5
4F5
100
AcDbEntity
  8
0
100
AcDbLine
 62
250
  6
CONTINUOUS
 10
11.6074383383
 20
5.6777538686
 11
11.6073942116
 21
5.3445488527
  0
LINE
  5
4F6
100
AcDbEntity
  8
0
100
AcDbLine
 62
250
  6
CONTINUOUS
 10
11.5987359977
 20
5.7181583026
 11
11.5993571724
 21
5.9344458877
  0
LINE
  5
4F7
100
AcDbEntity
  8
0
100
AcDbLine
 62
250
  6
CONTINUOUS
 10
11.58239879
 20
6.1719551472
 11
11.5810784417
 21
5.5000000008
  0
LINE
  5
4F8
100
AcDbEntity
  8
0
100
AcDbLine
 62
250
  6
CONTINUOUS
 10
11.5993571724
 20
5.9344458877
 11
11.600388376
 21
6.1458519175
  0
LINE
  5
4F9
100
AcDbEntity
  8
0
100
AcDbLine
 62
250
  6
CONTINUOUS
 10
11.6087717131
 20
6.0026840886
 11
11.6074383383
 21
5.6777538686
  0
LINE
  5
4FA
100
AcDbEntity
  8
0
100
AcDbLine
 62
250
  6
CONTINUOUS
 10
11.5858682914
 20
6.7551494953
 11
11.58239879
 21
6.1719551472
  0
LINE
  5
4FB
100
AcDbEntity
  8
0
100
AcDbLine
 62
250
  6
CONTINUOUS
 10
11.6570311403
 20
4.8518565645
 11
11.6589475674
 21
5.1688210821
  0
LINE
  5
4FC
100
AcDbEntity
  8
0
100
AcDbLine
 62
250
  6
CONTINUOUS
 10
11.600388376
 20
6.1458519175
 11
11.6018234817
 21
6.3493603441
  0
LINE
  5
4FD
100
AcDbEntity
  8
0
100
AcDbLine
 62
250
  6
CONTINUOUS
 10
11.6769669595
 20
11.6135195738
 11
11.6785589729
 21
11.8945897746
  0
LINE
  5
4FE
100
AcDbEntity
  8
0
100
AcDbLine
 62
250
  6
CONTINUOUS
 10
11.6018234817
 20
6.3493603441
 11
11.6036395036
 21
6.5424012281
  0
LINE
  5
4FF
100
AcDbEntity
  8
0
100
AcDbLine
 62
250
  6
CONTINUOUS
 10
11.6113418706
 20
6.3035312638
 11
11.6087717131
 21
6.0026840886
  0
LINE
  5
500
100
AcDbEntity
  8
0
100
AcDbLine
 62
250
  6
CONTINUOUS
 10
11.6546438314
 20
4.6213518876
 11
11.6570311403
 21
4.8518565645
  0
LINE
  5
501
100
AcDbEntity
  8
0
100
AcDbLine
 62
250
  6
CONTINUOUS
 10
11.5907041674
 20
7.2340457986
 11
11.5858682914
 21
6.7551494953
  0
LINE
  5
502
100
AcDbEntity
  8
0
100
AcDbLine
 62
250
  6
CONTINUOUS
 10
11.6756301647
 20
11.482419163
 11
11.6769669595
 21
11.6135195738
  0
LINE
  5
503
100
AcDbEntity
  8
CURVE
100
AcDbLine
 62
250
  6
CONTINUOUS
 10
11.8164590233
 20
14.9285714272
 11
11.8145894083
 21
14.7857142761
  0
LINE
  5
504
100
AcDbEntity
  8
0
100
AcDbLine
 62
250
  6
CONTINUOUS
 10
11.6036395036
 20
6.5424012281
 11
11.6058056659
 21
6.7225304717
  0
LINE
  5
505
100
AcDbEntity
  8
0
100
AcDbLine
 62
250
  6
CONTINUOUS
 10
11.6058056659
 20
6.7225304717
 11
11.6067632499
 21
6.790416534
  0
LWPOLYLINE
  5
506
100
AcDbEntity
  8
0
100
AcDbPolyline
 62
250
  6
CONTINUOUS
 90
3
 70
0
 10
11.6149686024
 20
6.5636291216
 10
11.6141680978
 20
6.5156381428
 10
11.6113418706
 20
6.3035312638
  0
LINE
  5
507
100
AcDbEntity
  8
0
100
AcDbLine
 62
250
  6
CONTINUOUS
 10
11.6743569338
 20
11.396457109
 11
11.6756301647
 21
11.482419163
  0
LINE
  5
508
100
AcDbEntity
  8
0
100
AcDbLine
 62
250
  6
CONTINUOUS
 10
11.7346830131
 20
12.3071429014
 11
11.7314413584
 21
12.1214287043
  0
LINE
  5
509
100
AcDbEntity
  8
CURVE
100
AcDbLine
 62
250
  6
CONTINUOUS
 10
11.7784435005
 20
14.25
 11
11.7821827321
 21
14.4642857015
  0
LINE
  5
50A
100
AcDbEntity
  8
CURVE
100
AcDbLine
 62
250
  6
CONTINUOUS
 10
11.8033717124
 20
15.0
 11
11.7996324805
 21
14.7857142761
  0
LINE
  5
50B
100
AcDbEntity
  8
CURVE
100
AcDbLine
 62
250
  6
CONTINUOUS
 10
11.7709650374
 20
12.3571429253
 11
11.7672258051
 21
12.1428571343
  0
LINE
  5
50C
100
AcDbEntity
  8
CURVE
100
AcDbLine
 62
250
  6
CONTINUOUS
 10
11.8108501759
 20
14.25
 11
11.8145894083
 21
14.4642857015
  0
LINE
  5
50D
100
AcDbEntity
  8
0
100
AcDbLine
 62
250
  6
CONTINUOUS
 10
11.6515816109
 20
4.4193056499
 11
11.6546438314
 21
4.6213518876
  0
LINE
  5
50E
100
AcDbEntity
  8
CURVE
100
AcDbLine
 62
250
  6
CONTINUOUS
 10
11.7560081096
 20
10.3571426868
 11
11.7597473415
 21
10.5714286566
  0
LINE
  5
50F
100
AcDbEntity
  8
CURVE
100
AcDbLine
 62
250
  6
CONTINUOUS
 10
11.7709650374
 20
10.0357142687
 11
11.7672258051
 21
9.8214286566
  0
LINE
  5
510
100
AcDbEntity
  8
CURVE
100
AcDbLine
 62
250
  6
CONTINUOUS
 10
11.7597473415
 20
9.2857142687
 11
11.7560081096
 21
9.0714286566
  0
LINE
  5
511
100
AcDbEntity
  8
CURVE
100
AcDbLine
 62
250
  6
CONTINUOUS
 10
11.7560081096
 20
8.1071426868
 11
11.7578777256
 21
8.2142858505
  0
LINE
  5
512
100
AcDbEntity
  8
CURVE
100
AcDbLine
 62
250
  6
CONTINUOUS
 10
11.8694314739
 20
14.4642857015
 11
11.8656922423
 21
14.25
  0
LINE
  5
513
100
AcDbEntity
  8
CURVE
100
AcDbLine
 62
250
  6
CONTINUOUS
 10
11.8582137792
 20
13.3928571939
 11
11.8544745468
 21
13.178571403
  0
LINE
  5
514
100
AcDbEntity
  8
CURVE
100
AcDbLine
 62
250
  6
CONTINUOUS
 10
11.7784435005
 20
8.7500002384
 11
11.7821827321
 21
8.9642858505
  0
LINE
  5
515
100
AcDbEntity
  8
CURVE
100
AcDbLine
 62
250
  6
CONTINUOUS
 10
11.8469960833
 20
12.6428571939
 11
11.8432568513
 21
12.428571403
  0
LINE
  5
516
100
AcDbEntity
  8
0
100
AcDbLine
 62
250
  6
CONTINUOUS
 10
11.6871222768
 20
15.00013
 11
11.6002566586
 21
10.268444
  0
LINE
  5
517
100
AcDbEntity
  8
CURVE
100
AcDbLine
 62
250
  6
CONTINUOUS
 10
11.8694314739
 20
13.3928571939
 11
11.8656922423
 21
13.2142857313
  0
LINE
  5
518
100
AcDbEntity
  8
0
100
AcDbLine
 62
250
  6
CONTINUOUS
 10
11.648902519
 20
4.2900530647
 11
11.6515816109
 21
4.4193056499
  0
LINE
  5
519
100
AcDbEntity
  8
CURVE
100
AcDbLine
 62
250
  6
CONTINUOUS
 10
11.8220678714
 20
14.3214285672
 11
11.825807103
 21
14.4642857015
  0
LINE
  5
51A
100
AcDbEntity
  8
0
100
AcDbLine
 62
250
  6
CONTINUOUS
 10
11.60602245
 20
8.0561327424
 11
11.6028741547
 21
7.9362962353
  0
LINE
  5
51B
100
AcDbEntity
  8
0
100
AcDbLine
 62
250
  6
CONTINUOUS
 10
11.646957994
 20
4.2158953061
 11
11.648902519
 21
4.2900530647
  0
LINE
  5
51C
100
AcDbEntity
  8
0
100
AcDbLine
 62
250
  6
CONTINUOUS
 10
11.6093328546
 20
8.1628114351
 11
11.60602245
 21
8.0561327424
  0
LINE
  5
51D
100
AcDbEntity
  8
0
100
AcDbLine
 62
250
  6
CONTINUOUS
 10
11.7346830131
 20
15.0
 11
11.7217163935
 21
14.628571412
  0
LINE
  5
51E
100
AcDbEntity
  8
CURVE
100
AcDbLine
 62
250
  6
CONTINUOUS
 10
11.8507353152
 20
12.75
 11
11.8469960833
 21
12.6428571939
  0
LINE
  5
51F
100
AcDbEntity
  8
0
100
AcDbLine
 62
250
  6
CONTINUOUS
 10
11.7346830131
 20
8.8095238686
 11
11.7119914287
 21
8.1595238686
  0
LINE
  5
520
100
AcDbEntity
  8
CURVE
100
AcDbLine
 62
250
  6
CONTINUOUS
 10
11.7634865735
 20
9.3928570747
 11
11.7597473415
 21
9.2857142687
  0
LINE
  5
521
100
AcDbEntity
  8
CURVE
100
AcDbLine
 62
250
  6
CONTINUOUS
 10
11.8619530107
 20
12.0
 11
11.8656922423
 21
12.1071428061
  0
LINE
  5
522
100
AcDbEntity
  8
CURVE
100
AcDbLine
 62
250
  6
CONTINUOUS
 10
11.774704269
 20
8.6428570747
 11
11.7784435005
 21
8.7500002384
  0
LINE
  5
523
100
AcDbEntity
  8
CURVE
100
AcDbLine
 62
250
  6
CONTINUOUS
 10
11.8507353152
 20
6.8928573132
 11
11.8469960833
 21
6.7857141495
  0
LWPOLYLINE
  5
524
100
AcDbEntity
  8
0
100
AcDbPolyline
 62
250
  6
CONTINUOUS
 90
21
 70
0
 10
11.6231534028
 20
7.4118127306
 10
11.6242624418
 20
7.4301811809
 10
11.6253839939
 20
7.4464167359
 10
11.6265165385
 20
7.4605109996
 10
11.627658555
 20
7.4724555763
 10
11.6288085227
 20
7.4822420699
 10
11.6299649212
 20
7.4898620846
 10
11.6311262297
 20
7.4953072245
 10
11.6322909278
 20
7.4985690937
 10
11.6334574947
 20
7.4996392963
 10
11.63462441
 20
7.4985094365
 10
11.635790153
 20
7.4951711182
 10
11.6369532032
 20
7.4896159456
 10
11.6381120399
 20
7.4818355229
 10
11.6392651426
 20
7.4718214541
 10
11.6404127716
 20
7.4595517732
 10
11.6415519761
 20
7.445064246
 10
11.6426816079
 20
7.4283898198
 10
11.643800519
 20
7.4095594421
 10
11.6449075613
 20
7.3886040602
 10
11.6460015867
 20
7.3655546214
  0
LINE
  5
525
100
AcDbEntity
  8
0
100
AcDbLine
 62
250
  6
CONTINUOUS
 10
11.7346830131
 20
13.5142856479
 11
11.7119914287
 21
13.1428570986
  0
LINE
  5
526
100
AcDbEntity
  8
CURVE
100
AcDbLine
 62
250
  6
CONTINUOUS
 10
11.7996324805
 20
13.3928571939
 11
11.825807103
 21
13.821428597
  0
LINE
  5
527
100
AcDbEntity
  8
CURVE
100
AcDbLine
 62
250
  6
CONTINUOUS
 10
11.7996324805
 20
11.7142857313
 11
11.825807103
 21
12.1428571343
  0
LINE
  5
528
100
AcDbEntity
  8
CURVE
100
AcDbLine
 62
250
  6
CONTINUOUS
 10
11.8432568513
 20
11.1428571939
 11
11.8694314739
 21
11.5714284182
  0
LINE
  5
529
100
AcDbEntity
  8
0
100
AcDbLine
 62
250
  6
CONTINUOUS
 10
11.7346830131
 20
4.4452386856
 11
11.7119914287
 21
4.0738090515
  0
LWPOLYLINE
  5
52A
100
AcDbEntity
  8
0
100
AcDbPolyline
 62
250
  6
CONTINUOUS
 90
17
 70
0
 10
11.6334275821
 20
5.9999288477
 10
11.6317329152
 20
5.9904078948
 10
11.6301027976
 20
5.962207686
 10
11.6285993201
 20
5.9164023586
 10
11.6272581767
 20
5.8535048357
 10
11.6261773616
 20
5.7781108883
 10
11.6253727052
 20
5.6921240121
 10
11.6248748565
 20
5.5988194205
 10
11.6247027254
 20
5.500006
 10
11.6248688889
 20
5.40290381
 10
11.6253610504
 20
5.3095002123
 10
11.6261604636
 20
5.2233529208
 10
11.6272581767
 20
5.1465071643
 10
11.6285739825
 20
5.0845778777
 10
11.6300746604
 20
5.0384721192
 10
11.6317030501
 20
5.0099460428
 10
11.6334275828
 20
5.0000831523
  0
LWPOLYLINE
  5
52B
100
AcDbEntity
  8
0
100
AcDbPolyline
 62
250
  6
CONTINUOUS
 90
17
 70
0
 10
11.6334275821
 20
5.0000831523
 10
11.635122249
 20
5.0096041052
 10
11.6367523665
 20
5.037804314
 10
11.6382558441
 20
5.0836096414
 10
11.6395969874
 20
5.1465071643
 10
11.6406778025
 20
5.2219011117
 10
11.641482459
 20
5.3078879879
 10
11.6419803076
 20
5.4011925795
 10
11.6421524388
 20
5.500006
 10
11.6419862753
 20
5.59710819
 10
11.6414941138
 20
5.6905117877
 10
11.6406947006
 20
5.7766590792
 10
11.6395969874
 20
5.8535048357
 10
11.6382811816
 20
5.9154341223
 10
11.6367805037
 20
5.9615398808
 10
11.6351521141
 20
5.9900659572
 10
11.6334275813
 20
5.9999288477
  0
LINE
  5
52C
100
AcDbEntity
  8
CURVE
100
AcDbLine
 62
7
  6
CONTINUOUS
 10
11.8865492847
 20
-4.0613729981
 11
11.9179590237
 21
-4.0299632591
  0
LWPOLYLINE
  5
52D
100
AcDbEntity
  8
RACCORDO
100
AcDbPolyline
 62
250
  6
CONTINUOUS
 90
7
 70
0
 10
-5.6200080354
 20
-12.0634211109
 10
-5.6087445965
 20
-12.0593695483
 10
-5.5973158793
 20
-12.0560274668
 10
-5.5857239637
 20
-12.0534075039
 10
-5.5739715995
 20
-12.0515218609
 10
-5.5620622275
 20
-12.0503822764
 10
-5.55
 20
-12.05
  0
LINE
  5
52E
100
AcDbEntity
  8
0
100
AcDbLine
 62
7
  6
CONTINUOUS
 10
8.900354
 20
-7.000851
 11
7.000508
 21
-7.603139
  0
LINE
  5
52F
100
AcDbEntity
  8
ASSI
100
AcDbLine
 62
7
  6
CONTINUOUS
 10
8.900354
 20
-7.000851
 11
7.000508
 21
-7.603139
  0
LINE
  5
530
100
AcDbEntity
  8
CURVE
100
AcDbLine
 62
250
  6
CONTINUOUS
 10
11.774704269
 20
9.3928570747
 11
11.7634865735
 21
9.3928570747
  0
LINE
  5
531
100
AcDbEntity
  8
0
100
AcDbLine
 62
250
  6
CONTINUOUS
 10
11.7119914287
 20
9.3976193428
 11
11.7346830131
 21
9.3976193428
  0
LINE
  5
532
100
AcDbEntity
  8
RACCORDO
100
AcDbLine
 62
7
  6
CONTINUOUS
 10
1.75
 20
9.6966003769
 11
6.25
 21
9.6966003769
  0
LINE
  5
533
100
AcDbEntity
  8
ASSI
100
AcDbLine
 62
7
  6
CONTINUOUS
 10
1.75
 20
9.6966003769
 11
6.25
 21
9.6966003769
  0
LINE
  5
534
100
AcDbEntity
  8
CURVE
100
AcDbLine
 62
250
  6
CONTINUOUS
 10
11.7672258051
 20
9.8214286566
 11
11.7597473415
 21
9.8214286566
  0
LINE
  5
535
100
AcDbEntity
  8
RACCORDO
100
AcDbLine
 62
250
  6
CONTINUOUS
 10
1.75
 20
9.9965546854
 11
6.25
 21
9.9965546854
  0
LINE
  5
536
100
AcDbEntity
  8
ASSI
100
AcDbLine
 62
250
  6
CONTINUOUS
 10
1.75
 20
9.9965546854
 11
6.25
 21
9.9965546854
  0
LINE
  5
537
100
AcDbEntity
  8
RACCORDO
100
AcDbLine
 62
250
  6
CONTINUOUS
 10
6.25
 20
10.3
 11
1.75
 21
10.3
  0
LINE
  5
538
100
AcDbEntity
  8
ASSI
100
AcDbLine
 62
250
  6
CONTINUOUS
 10
6.25
 20
10.3
 11
1.75
 21
10.3
  0
LINE
  5
539
100
AcDbEntity
  8
0
100
AcDbLine
 62
250
  6
CONTINUOUS
 10
11.5814075884
 20
10.407638
 11
11.5636233768
 21
10.407638
  0
LINE
  5
53A
100
AcDbEntity
  8
CURVE
100
AcDbLine
 62
250
  6
CONTINUOUS
 10
11.7597473415
 20
10.5714286566
 11
11.7690954208
 21
10.5714286566
  0
LINE
  5
53B
100
AcDbEntity
  8
RACCORDO
100
AcDbLine
 62
7
  6
CONTINUOUS
 10
6.25
 20
10.6
 11
1.75
 21
10.6
  0
LINE
  5
53C
100
AcDbEntity
  8
ASSI
100
AcDbLine
 62
7
  6
CONTINUOUS
 10
6.25
 20
10.6
 11
1.75
 21
10.6
  0
LWPOLYLINE
  5
53D
100
AcDbEntity
  8
RACCORDO
100
AcDbPolyline
 62
7
  6
CONTINUOUS
 90
3
 70
0
 10
0.55
 20
13.9100458713
 10
0.6035234143
 20
13.8672003682
 10
0.7087681009
 20
13.7836545211
  0
LINE
  5
53E
100
AcDbEntity
  8
0
100
AcDbLine
 62
250
  6
CONTINUOUS
 10
11.7119914287
 20
4.81666646
 11
11.7346830131
 21
4.4452386856
  0
LINE
  5
53F
100
AcDbEntity
  8
CURVE
100
AcDbLine
 62
250
  6
CONTINUOUS
 10
11.8694314739
 20
10.7142856121
 11
11.8432568513
 21
11.1428571939
  0
LINE
  5
540
100
AcDbEntity
  8
0
100
AcDbLine
 62
250
  6
CONTINUOUS
 10
11.7119914287
 20
13.8857142746
 11
11.7346830131
 21
13.5142856479
  0
LINE
  5
541
100
AcDbEntity
  8
CURVE
100
AcDbLine
 62
250
  6
CONTINUOUS
 10
11.825807103
 20
12.1428571343
 11
11.7996324805
 21
12.5714285374
  0
LINE
  5
542
100
AcDbEntity
  8
CURVE
100
AcDbLine
 62
250
  6
CONTINUOUS
 10
11.825807103
 20
12.9642857909
 11
11.7996324805
 21
13.3928571939
  0
LWPOLYLINE
  5
543
100
AcDbEntity
  8
RACCORDO
100
AcDbPolyline
 62
250
  6
CONTINUOUS
 90
16
 70
0
 10
11.4690613933
 20
14.9695944602
 10
11.4497965857
 20
15.3360287188
 10
11.39230907
 20
15.6982634036
 10
11.2972822772
 20
16.052330015
 10
11.1658441409
 20
16.3942822211
 10
10.9994658399
 20
16.7204747182
 10
10.7998660408
 20
17.027563741
 10
10.5691075814
 20
17.3122832989
 10
10.3097754134
 20
17.5713654779
 10
10.0248558199
 20
17.8018330235
 10
9.7175404922
 20
18.0011595247
 10
9.3911748523
 20
18.1672274125
 10
9.0493834983
 20
18.2982396352
 10
8.6959334563
 20
18.3928044114
 10
8.3346868217
 20
18.4499377401
 10
7.9695944602
 20
18.4690613933
  0
LWPOLYLINE
  5
544
100
AcDbEntity
  8
ASSI
100
AcDbPolyline
 62
250
  6
CONTINUOUS
 90
16
 70
0
 10
11.4690613933
 20
14.9695944602
 10
11.4497965857
 20
15.3360287188
 10
11.39230907
 20
15.6982634036
 10
11.2972822772
 20
16.052330015
 10
11.1658441409
 20
16.3942822211
 10
10.9994658399
 20
16.7204747182
 10
10.7998660408
 20
17.027563741
 10
10.5691075814
 20
17.3122832989
 10
10.3097754134
 20
17.5713654779
 10
10.0248558199
 20
17.8018330235
 10
9.7175404922
 20
18.0011595247
 10
9.3911748523
 20
18.1672274125
 10
9.0493834983
 20
18.2982396352
 10
8.6959334563
 20
18.3928044114
 10
8.3346868217
 20
18.4499377401
 10
7.9695944602
 20
18.4690613933
  0
LWPOLYLINE
  5
545
100
AcDbEntity
  8
0
100
AcDbPolyline
 62
250
  6
CONTINUOUS
 90
23
 70
0
 10
11.6520195857
 20
8.3049312167
 10
11.6502177351
 20
8.341873923
 10
11.6483932208
 20
8.3750391565
 10
11.646548496
 20
8.4043931276
 10
11.6446860136
 20
8.4299020468
 10
11.6428082267
 20
8.4515321246
 10
11.6409175881
 20
8.4692495715
 10
11.639016551
 20
8.483020598
 10
11.6371075682
 20
8.4928114146
 10
11.6351930929
 20
8.4985882317
 10
11.633275578
 20
8.5003172599
 10
11.6313574765
 20
8.4979647097
 10
11.6294412413
 20
8.4914967914
 10
11.6275360083
 20
8.4809399876
 10
11.6256378523
 20
8.4663266861
 10
11.6237495608
 20
8.4477208073
 10
11.6218739213
 20
8.4251862716
 10
11.6200137214
 20
8.3987869993
 10
11.6181717486
 20
8.3685869107
 10
11.6163507905
 20
8.3346499261
 10
11.6145536345
 20
8.297039966
 10
11.6127830681
 20
8.2558209505
 10
11.6093328546
 20
8.1628114351
  0
LWPOLYLINE
  5
546
100
AcDbEntity
  8
0
100
AcDbPolyline
 62
250
  6
CONTINUOUS
 90
21
 70
0
 10
11.623350038
 20
4.1152150365
 10
11.6244392089
 20
4.0908446129
 10
11.6255466369
 20
4.0693242063
 10
11.626669981
 20
4.0506724987
 10
11.6278068999
 20
4.034908172
 10
11.6289550522
 20
4.0220499081
 10
11.630112097
 20
4.012116389
 10
11.6312756928
 20
4.0051262968
 10
11.6324434984
 20
4.0010983132
 10
11.6336131727
 20
4.0000511204
 10
11.6347823744
 20
4.0020034001
 10
11.6359487622
 20
4.0069738345
 10
11.6371095127
 20
4.014966247
 10
11.6382628914
 20
4.025947156
 10
11.6394066771
 20
4.0398708532
 10
11.6405386487
 20
4.0566916303
 10
11.6416565849
 20
4.076363779
 10
11.6427582646
 20
4.098841591
 10
11.6438414665
 20
4.1240793581
 10
11.6449039695
 20
4.1520313718
 10
11.646957994
 20
4.2158953061
  0
LWPOLYLINE
  5
547
100
AcDbEntity
  8
0
100
AcDbPolyline
 62
250
  6
CONTINUOUS
 90
8
 70
0
 10
11.67297248
 20
13.5776619191
 10
11.6727942498
 20
13.581816907
 10
11.6726138612
 20
13.5854404929
 10
11.6724314281
 20
13.5884933753
 10
11.6722470642
 20
13.5909362529
 10
11.6720608834
 20
13.5927298243
 10
11.6718729995
 20
13.5938347881
 10
11.6716835263
 20
13.594211843
  0
LINE
  5
548
100
AcDbEntity
  8
0
100
AcDbLine
 62
250
  6
CONTINUOUS
 10
11.6555454844
 20
8.2198485434
 11
11.6520195857
 21
8.3049312167
  0
LINE
  5
549
100
AcDbEntity
  8
0
100
AcDbLine
 62
250
  6
CONTINUOUS
 10
11.6460015867
 20
7.3655546214
 11
11.6481459945
 21
7.3132973629
  0
LINE
  5
54A
100
AcDbEntity
  8
0
100
AcDbLine
 62
250
  6
CONTINUOUS
 10
11.6028741547
 20
7.9362962353
 11
11.5810784417
 21
8.5
  0
LWPOLYLINE
  5
54B
100
AcDbEntity
  8
RACCORDO
100
AcDbPolyline
 62
7
  6
CONTINUOUS
 90
10
 70
0
 10
12.1238174026
 20
16.4544358981
 10
12.1211597977
 20
16.5274619072
 10
12.1132685454
 20
16.599557997
 10
12.1001436456
 20
16.6707241675
 10
12.0816090312
 20
16.7414729461
 10
12.0578407694
 20
16.8112918053
 10
12.0293670616
 20
16.878643163
 10
11.9963639749
 20
16.9430144919
 10
11.9586554422
 20
17.0049183193
 10
11.9162414635
 20
17.0643546451
  0
LINE
  5
54C
100
AcDbEntity
  8
0
100
AcDbLine
 62
250
  6
CONTINUOUS
 10
11.5810784417
 20
7.500000718
 11
11.5907041674
 21
7.2340457986
  0
LINE
  5
54D
100
AcDbEntity
  8
0
100
AcDbLine
 62
250
  6
CONTINUOUS
 10
11.6067635693
 20
6.7903314832
 11
11.6149686024
 21
6.5636291216
  0
LINE
  5
54E
100
AcDbEntity
  8
0
100
AcDbLine
 62
250
  6
CONTINUOUS
 10
11.6212361728
 20
4.1723179273
 11
11.623350038
 21
4.1152150365
  0
LINE
  5
54F
100
AcDbEntity
  8
CURVE
100
AcDbLine
 62
250
  6
CONTINUOUS
 10
11.8469960833
 20
2.8214292526
 11
11.8507353152
 21
2.7142853737
  0
LINE
  5
550
100
AcDbEntity
  8
CURVE
100
AcDbLine
 62
250
  6
CONTINUOUS
 10
11.8656922423
 20
3.3571429253
 11
11.8619530107
 21
3.4642853737
  0
LINE
  5
551
100
AcDbEntity
  8
CURVE
100
AcDbLine
 62
250
  6
CONTINUOUS
 10
11.8563441626
 20
4.6428573132
 11
11.8638226257
 21
4.428571701
  0
LINE
  5
552
100
AcDbEntity
  8
CURVE
100
AcDbLine
 62
250
  6
CONTINUOUS
 10
11.7597473415
 20
8.7500002384
 11
11.7634865735
 21
8.6428570747
  0
LINE
  5
553
100
AcDbEntity
  8
CURVE
100
AcDbLine
 62
250
  6
CONTINUOUS
 10
11.8469960833
 20
6.2499997616
 11
11.8507353152
 21
6.1428573132
  0
LINE
  5
554
100
AcDbEntity
  8
CURVE
100
AcDbLine
 62
250
  6
CONTINUOUS
 10
11.8656922423
 20
6.7857141495
 11
11.8619530107
 21
6.8928573132
  0
LINE
  5
555
100
AcDbEntity
  8
CURVE
100
AcDbLine
 62
250
  6
CONTINUOUS
 10
11.7784435005
 20
9.2857142687
 11
11.774704269
 21
9.3928570747
  0
LINE
  5
556
100
AcDbEntity
  8
CURVE
100
AcDbLine
 62
250
  6
CONTINUOUS
 10
11.7690954208
 20
10.5714286566
 11
11.776573884
 21
10.3571426868
  0
LINE
  5
557
100
AcDbEntity
  8
0
100
AcDbLine
 62
250
  6
CONTINUOUS
 10
11.7217163935
 20
14.628571412
 11
11.7346830131
 21
14.2571428239
  0
LINE
  5
558
100
AcDbEntity
  8
CURVE
100
AcDbLine
 62
250
  6
CONTINUOUS
 10
11.8469960833
 20
12.1071428061
 11
11.8507353152
 21
12.0
  0
LINE
  5
559
100
AcDbEntity
  8
CURVE
100
AcDbLine
 62
250
  6
CONTINUOUS
 10
11.8656922423
 20
12.6428571939
 11
11.8619530107
 21
12.75
  0
LINE
  5
55A
100
AcDbEntity
  8
0
100
AcDbLine
 62
250
  6
CONTINUOUS
 10
11.6455091709
 20
6.8309200684
 11
11.6231534028
 21
7.4118127306
  0
LINE
  5
55B
100
AcDbEntity
  8
0
100
AcDbLine
 62
250
  6
CONTINUOUS
 10
11.6733220098
 20
13.5679149426
 11
11.67297248
 21
13.5776619191
  0
LINE
  5
55C
100
AcDbEntity
  8
0
100
AcDbLine
 62
250
  6
CONTINUOUS
 10
11.6481459945
 20
7.3132973629
 11
11.6502245577
 21
7.2530352456
  0
LINE
  5
55D
100
AcDbEntity
  8
0
100
AcDbLine
 62
250
  6
CONTINUOUS
 10
11.6589515896
 20
8.1200648243
 11
11.6555454844
 21
8.2198485434
  0
LINE
  5
55E
100
AcDbEntity
  8
CURVE
100
AcDbLine
 62
250
  6
CONTINUOUS
 10
11.8432568513
 20
1.1071429253
 11
11.8619530107
 21
0.4642853737
  0
LINE
  5
55F
100
AcDbEntity
  8
0
100
AcDbLine
 62
250
  6
CONTINUOUS
 10
11.6736615402
 20
13.5565139742
 11
11.6733220098
 21
13.5679149426
  0
LINE
  5
560
100
AcDbEntity
  8
0
100
AcDbLine
 62
250
  6
CONTINUOUS
 10
11.619219688
 20
4.2400795614
 11
11.6212361728
 21
4.1723179273
  0
LINE
  5
561
100
AcDbEntity
  8
0
100
AcDbLine
 62
250
  6
CONTINUOUS
 10
11.6474448147
 20
6.7666458401
 11
11.6455091709
 21
6.8309200684
  0
LINE
  5
562
100
AcDbEntity
  8
0
100
AcDbLine
 62
250
  6
CONTINUOUS
 10
11.6622203598
 20
8.0060892743
 11
11.6589515896
 21
8.1200648243
  0
LINE
  5
563
100
AcDbEntity
  8
CURVE
100
AcDbLine
 62
250
  6
CONTINUOUS
 10
11.7566313149
 20
11.7142857313
 11
11.7796899111
 21
10.8571429253
  0
LINE
  5
564
100
AcDbEntity
  8
0
100
AcDbLine
 62
250
  6
CONTINUOUS
 10
11.6502245577
 20
7.2530352456
 11
11.6531988527
 21
7.1481745383
  0
LINE
  5
565
100
AcDbEntity
  8
0
100
AcDbLine
 62
250
  6
CONTINUOUS
 10
11.7249580489
 20
2.4952386856
 11
11.7346830131
 21
2.1238090515
  0
LINE
  5
566
100
AcDbEntity
  8
CURVE
100
AcDbLine
 62
250
  6
CONTINUOUS
 10
11.825807103
 20
14.7857142761
 11
11.8220678714
 21
14.9285714272
  0
LINE
  5
567
100
AcDbEntity
  8
CURVE
100
AcDbLine
 62
250
  6
CONTINUOUS
 10
11.8638226257
 20
15.0
 11
11.8694314739
 21
14.7857142761
  0
LINE
  5
568
100
AcDbEntity
  8
CURVE
100
AcDbLine
 62
250
  6
CONTINUOUS
 10
11.8619530107
 20
14.25
 11
11.8432568513
 21
15.0
  0
LINE
  5
569
100
AcDbEntity
  8
0
100
AcDbLine
 62
250
  6
CONTINUOUS
 10
11.6653360796
 20
7.8786711919
 11
11.6622203598
 21
8.0060892743
  0
LINE
  5
56A
100
AcDbEntity
  8
0
100
AcDbLine
 62
250
  6
CONTINUOUS
 10
11.6743069602
 20
13.5300077059
 11
11.6736615402
 21
13.5565139742
  0
LINE
  5
56B
100
AcDbEntity
  8
0
100
AcDbLine
 62
250
  6
CONTINUOUS
 10
11.6498774235
 20
6.6661905971
 11
11.6474448147
 21
6.7666458401
  0
LINE
  5
56C
100
AcDbEntity
  8
0
100
AcDbLine
 62
250
  6
CONTINUOUS
 10
11.6164104969
 20
4.3602716715
 11
11.619219688
 21
4.2400795614
  0
LINE
  5
56D
100
AcDbEntity
  8
0
100
AcDbLine
 62
250
  6
CONTINUOUS
 10
11.6531988527
 20
7.1481745383
 11
11.6559734053
 21
7.0267406096
  0
LINE
  5
56E
100
AcDbEntity
  8
0
100
AcDbLine
 62
250
  6
CONTINUOUS
 10
11.6682833386
 20
7.738564158
 11
11.6653360796
 21
7.8786711919
  0
LINE
  5
56F
100
AcDbEntity
  8
0
100
AcDbLine
 62
250
  6
CONTINUOUS
 10
11.6000940545
 20
14.875622
 11
11.6875354625
 21
9.93899
  0
LINE
  5
570
100
AcDbEntity
  8
CURVE
100
AcDbLine
 62
250
  6
CONTINUOUS
 10
11.8451264673
 20
-11.6428570747
 11
11.8432568513
 21
-11.5357142687
  0
LINE
  5
571
100
AcDbEntity
  8
CURVE
100
AcDbLine
 62
250
  6
CONTINUOUS
 10
11.8507353152
 20
-10.4642856717
 11
11.8432568513
 21
-10.0357141793
  0
LINE
  5
572
100
AcDbEntity
  8
CURVE
100
AcDbLine
 62
250
  6
CONTINUOUS
 10
11.8432568513
 20
-9.0714285225
 11
11.8469960833
 21
-9.285714224
  0
LINE
  5
573
100
AcDbEntity
  8
CURVE
100
AcDbLine
 62
250
  6
CONTINUOUS
 10
11.8656922423
 20
-9.8214284778
 11
11.8694314739
 21
-10.0357141793
  0
LINE
  5
574
100
AcDbEntity
  8
CURVE
100
AcDbLine
 62
250
  6
CONTINUOUS
 10
11.8694314739
 20
-8.9642856494
 11
11.8656922423
 21
-8.7499999367
  0
LINE
  5
575
100
AcDbEntity
  8
0
100
AcDbLine
 62
250
  6
CONTINUOUS
 10
11.6559734053
 20
7.0267406096
 11
11.6585221845
 21
6.8899484242
  0
LINE
  5
576
100
AcDbEntity
  8
CURVE
100
AcDbLine
 62
250
  6
CONTINUOUS
 10
11.7578777256
 20
7.571428299
 11
11.7560081096
 21
7.6785714626
  0
LINE
  5
577
100
AcDbEntity
  8
CURVE
100
AcDbLine
 62
250
  6
CONTINUOUS
 10
11.8432568513
 20
3.0357141495
 11
11.8469960833
 21
2.8214292526
  0
LINE
  5
578
100
AcDbEntity
  8
0
100
AcDbLine
 62
250
  6
CONTINUOUS
 10
11.6752560622
 20
13.480490113
 11
11.6743069602
 21
13.5300077059
  0
LINE
  5
579
100
AcDbEntity
  8
CURVE
100
AcDbLine
 62
250
  6
CONTINUOUS
 10
11.7560081096
 20
8.9642858505
 11
11.7597473415
 21
8.7500002384
  0
LINE
  5
57A
100
AcDbEntity
  8
CURVE
100
AcDbLine
 62
250
  6
CONTINUOUS
 10
11.8469960833
 20
3.8928573132
 11
11.8432568513
 21
4.1071429253
  0
LINE
  5
57B
100
AcDbEntity
  8
CURVE
100
AcDbLine
 62
250
  6
CONTINUOUS
 10
11.774704269
 20
8.1071426868
 11
11.7728346524
 21
8.2142858505
  0
LINE
  5
57C
100
AcDbEntity
  8
CURVE
100
AcDbLine
 62
250
  6
CONTINUOUS
 10
11.8694314739
 20
3.1428573132
 11
11.8656922423
 21
3.3571429253
  0
LINE
  5
57D
100
AcDbEntity
  8
0
100
AcDbLine
 62
250
  6
CONTINUOUS
 10
11.7152330837
 20
12.1214287043
 11
11.7119914287
 21
12.3071429014
  0
LINE
  5
57E
100
AcDbEntity
  8
CURVE
100
AcDbLine
 62
250
  6
CONTINUOUS
 10
11.7597473415
 20
9.8214286566
 11
11.7560081096
 21
10.0357142687
  0
LINE
  5
57F
100
AcDbEntity
  8
CURVE
100
AcDbLine
 62
250
  6
CONTINUOUS
 10
11.7821827321
 20
9.0714286566
 11
11.7784435005
 21
9.2857142687
  0
LINE
  5
580
100
AcDbEntity
  8
CURVE
100
AcDbLine
 62
250
  6
CONTINUOUS
 10
11.8638226257
 20
4.428571701
 11
11.8694314739
 21
4.1071429253
  0
LINE
  5
581
100
AcDbEntity
  8
CURVE
100
AcDbLine
 62
250
  6
CONTINUOUS
 10
11.8432568513
 20
6.4642853737
 11
11.8469960833
 21
6.2499997616
  0
LINE
  5
582
100
AcDbEntity
  8
CURVE
100
AcDbLine
 62
250
  6
CONTINUOUS
 10
11.776573884
 20
10.3571426868
 11
11.7821827321
 21
10.0357142687
  0
LINE
  5
583
100
AcDbEntity
  8
CURVE
100
AcDbLine
 62
250
  6
CONTINUOUS
 10
11.7597473415
 20
12.1428571343
 11
11.7560081096
 21
12.3571429253
  0
LINE
  5
584
100
AcDbEntity
  8
CURVE
100
AcDbLine
 62
250
  6
CONTINUOUS
 10
11.8469960833
 20
7.3214285374
 11
11.8432568513
 21
7.5357141495
  0
LINE
  5
585
100
AcDbEntity
  8
CURVE
100
AcDbLine
 62
250
  6
CONTINUOUS
 10
11.8694314739
 20
6.5714285374
 11
11.8656922423
 21
6.7857141495
  0
LINE
  5
586
100
AcDbEntity
  8
CURVE
100
AcDbLine
 62
250
  6
CONTINUOUS
 10
11.7560081096
 20
14.4642857015
 11
11.7597473415
 21
14.25
  0
LINE
  5
587
100
AcDbEntity
  8
CURVE
100
AcDbLine
 62
250
  6
CONTINUOUS
 10
11.7821827321
 20
13.2142857313
 11
11.774704269
 21
13.6428571343
  0
LINE
  5
588
100
AcDbEntity
  8
CURVE
100
AcDbLine
 62
250
  6
CONTINUOUS
 10
11.7996324805
 20
14.4642857015
 11
11.8033717124
 21
14.25
  0
LINE
  5
589
100
AcDbEntity
  8
CURVE
100
AcDbLine
 62
250
  6
CONTINUOUS
 10
11.8432568513
 20
12.321428597
 11
11.8469960833
 21
12.1071428061
  0
LINE
  5
58A
100
AcDbEntity
  8
CURVE
100
AcDbLine
 62
250
  6
CONTINUOUS
 10
11.8145894083
 20
14.7857142761
 11
11.8108501759
 21
15.0
  0
LINE
  5
58B
100
AcDbEntity
  8
CURVE
100
AcDbLine
 62
250
  6
CONTINUOUS
 10
11.8451264673
 20
13.178571403
 11
11.8432568513
 21
13.2857142091
  0
LINE
  5
58C
100
AcDbEntity
  8
CURVE
100
AcDbLine
 62
250
  6
CONTINUOUS
 10
11.8694314739
 20
12.428571403
 11
11.8656922423
 21
12.6428571939
  0
LINE
  5
58D
100
AcDbEntity
  8
0
100
AcDbLine
 62
250
  6
CONTINUOUS
 10
11.6526280277
 20
6.5190432076
 11
11.6498774235
 21
6.6661905971
  0
LINE
  5
58E
100
AcDbEntity
  8
0
100
AcDbLine
 62
250
  6
CONTINUOUS
 10
11.6139051351
 20
4.5007547071
 11
11.6164104969
 21
4.3602716715
  0
LINE
  5
58F
100
AcDbEntity
  8
0
100
AcDbLine
 62
250
  6
CONTINUOUS
 10
11.6723546526
 20
7.5062602817
 11
11.6682833386
 21
7.738564158
  0
LINE
  5
590
100
AcDbEntity
  8
CURVE
100
AcDbLine
 62
250
  6
CONTINUOUS
 10
11.8884900302
 20
-12.1762064731
 11
11.8893949358
 21
-12.2277750171
  0
LINE
  5
591
100
AcDbEntity
  8
CURVE
100
AcDbLine
 62
250
  6
CONTINUOUS
 10
11.8905805249
 20
-12.1453150922
 11
11.8897342706
 21
-12.098180754
  0
LWPOLYLINE
  5
592
100
AcDbEntity
  8
0
100
AcDbPolyline
 62
250
  6
CONTINUOUS
 90
6
 70
0
 10
11.6105022661
 20
11.4595472711
 10
11.6111996236
 20
11.4107285431
 10
11.6120355313
 20
11.3713859804
 10
11.612988885
 20
11.3420958207
 10
11.6140233717
 20
11.3239737171
 10
11.6151189364
 20
11.317708
  0
LWPOLYLINE
  5
593
100
AcDbEntity
  8
0
100
AcDbPolyline
 62
250
  6
CONTINUOUS
 90
6
 70
0
 10
11.6130764151
 20
11.5575429534
 10
11.613384942
 20
11.5359444262
 10
11.6137547669
 20
11.5185383722
 10
11.6141765524
 20
11.5055797324
 10
11.6146342331
 20
11.4975620973
 10
11.6151189361
 20
11.49479
  0
LWPOLYLINE
  5
594
100
AcDbEntity
  8
0
100
AcDbPolyline
 62
250
  6
CONTINUOUS
 90
6
 70
0
 10
11.6171614567
 20
11.7130570466
 10
11.6168529298
 20
11.7346555738
 10
11.6164831049
 20
11.7520616278
 10
11.6160613193
 20
11.7650202676
 10
11.6156036387
 20
11.7730379027
 10
11.6151189357
 20
11.77581
  0
LWPOLYLINE
  5
595
100
AcDbEntity
  8
0
100
AcDbPolyline
 62
250
  6
CONTINUOUS
 90
6
 70
0
 10
11.6197356057
 20
11.8110527289
 10
11.6190382482
 20
11.8598714569
 10
11.6182023405
 20
11.8992140196
 10
11.6172489867
 20
11.9285041793
 10
11.6162145001
 20
11.9466262829
 10
11.6151189354
 20
11.952892
  0
LWPOLYLINE
  5
596
100
AcDbEntity
  8
0
100
AcDbPolyline
 62
250
  6
CONTINUOUS
 90
6
 70
0
 10
11.6707074397
 20
11.1035137487
 10
11.6711303045
 20
11.0739109619
 10
11.6716371837
 20
11.0500543489
 10
11.6722152801
 20
11.03229333
 10
11.6728425739
 20
11.0213044166
 10
11.6735069044
 20
11.017505
  0
LWPOLYLINE
  5
597
100
AcDbEntity
  8
0
100
AcDbPolyline
 62
250
  6
CONTINUOUS
 90
6
 70
0
 10
11.6763063685
 20
11.3166602513
 10
11.6758835036
 20
11.3462630381
 10
11.6753766244
 20
11.3701196511
 10
11.6747985281
 20
11.38788067
 10
11.6741712342
 20
11.3988695834
 10
11.6735069038
 20
11.402669
  0
LINE
  5
598
100
AcDbEntity
  8
CURVE
100
AcDbLine
 62
250
  6
CONTINUOUS
 10
11.9023901901
 20
-13.8232208039
 11
11.9030656191
 21
-13.8657721362
  0
LINE
  5
599
100
AcDbEntity
  8
0
100
AcDbLine
 62
250
  6
CONTINUOUS
 10
11.6585221845
 20
6.8899484242
 11
11.6608219359
 21
6.7392362206
  0
LINE
  5
59A
100
AcDbEntity
  8
CURVE
100
AcDbLine
 62
250
  6
CONTINUOUS
 10
11.904324253
 20
-13.7820947504
 11
11.9036457758
 21
-13.7377884655
  0
LINE
  5
59B
100
AcDbEntity
  8
CURVE
100
AcDbLine
 62
250
  6
CONTINUOUS
 10
11.8582137792
 20
-13.7857142687
 11
11.8600833942
 21
-13.9285712242
  0
LINE
  5
59C
100
AcDbEntity
  8
CURVE
100
AcDbLine
 62
250
  6
CONTINUOUS
 10
11.8145894083
 20
14.4642857015
 11
11.8164590233
 21
14.3214285672
  0
LINE
  5
59D
100
AcDbEntity
  8
0
100
AcDbLine
 62
250
  6
CONTINUOUS
 10
11.6759602459
 20
7.2496451578
 11
11.6723546526
 21
7.5062602817
  0
LINE
  5
59E
100
AcDbEntity
  8
0
100
AcDbLine
 62
250
  6
CONTINUOUS
 10
11.6763727619
 20
13.401464316
 11
11.6752560622
 21
13.480490113
  0
LINE
  5
59F
100
AcDbEntity
  8
0
100
AcDbLine
 62
250
  6
CONTINUOUS
 10
11.6554080417
 20
6.3147361333
 11
11.6526280277
 21
6.5190432076
  0
LINE
  5
5A0
100
AcDbEntity
  8
0
100
AcDbLine
 62
250
  6
CONTINUOUS
 10
11.6608219359
 20
6.7392362206
 11
11.6628492875
 21
6.5760524941
  0
LINE
  5
5A1
100
AcDbEntity
  8
0
100
AcDbLine
 62
250
  6
CONTINUOUS
 10
11.6111204491
 20
4.7156788475
 11
11.6139051351
 21
4.5007547071
  0
LINE
  5
5A2
100
AcDbEntity
  8
CURVE
100
AcDbLine
 62
250
  6
CONTINUOUS
 10
11.8874792405
 20
-12.0967270028
 11
11.8884900302
 21
-12.1762064731
  0
LINE
  5
5A3
100
AcDbEntity
  8
CURVE
100
AcDbLine
 62
250
  6
CONTINUOUS
 10
11.8897342706
 20
-12.098180754
 11
11.888852806
 21
-12.0293612391
  0
LINE
  5
5A4
100
AcDbEntity
  8
CURVE
100
AcDbLine
 62
250
  6
CONTINUOUS
 10
11.8600833942
 20
-11.6071427464
 11
11.8582137792
 21
-11.4285712838
  0
LINE
  5
5A5
100
AcDbEntity
  8
CURVE
100
AcDbLine
 62
250
  6
CONTINUOUS
 10
11.8600833942
 20
13.2142857313
 11
11.8582137792
 21
13.3928571939
  0
LINE
  5
5A6
100
AcDbEntity
  8
0
100
AcDbLine
 62
250
  6
CONTINUOUS
 10
11.6790489129
 20
6.9712131271
 11
11.6759602459
 21
7.2496451578
  0
LINE
  5
5A7
100
AcDbEntity
  8
0
100
AcDbLine
 62
250
  6
CONTINUOUS
 10
11.6628492875
 20
6.5760524941
 11
11.6645808674
 21
6.4018457397
  0
LINE
  5
5A8
100
AcDbEntity
  8
CURVE
100
AcDbLine
 62
250
  6
CONTINUOUS
 10
11.9015987335
 20
-13.749481997
 11
11.9023901901
 21
-13.8232208039
  0
LINE
  5
5A9
100
AcDbEntity
  8
CURVE
100
AcDbLine
 62
250
  6
CONTINUOUS
 10
11.9036457758
 20
-13.7377884655
 11
11.9029925342
 21
-13.6729878993
  0
LINE
  5
5AA
100
AcDbEntity
  8
0
100
AcDbLine
 62
250
  6
CONTINUOUS
 10
11.6815812758
 20
6.6741911156
 11
11.6790489129
 21
6.9712131271
  0
LINE
  5
5AB
100
AcDbEntity
  8
0
100
AcDbLine
 62
250
  6
CONTINUOUS
 10
11.6775470768
 20
13.2761270552
 11
11.6763727619
 21
13.401464316
  0
LINE
  5
5AC
100
AcDbEntity
  8
CURVE
100
AcDbLine
 62
250
  6
CONTINUOUS
 10
11.8532281363
 20
10.0357142687
 11
11.8513585205
 21
10.2857143879
  0
LINE
  5
5AD
100
AcDbEntity
  8
0
100
AcDbLine
 62
250
  6
CONTINUOUS
 10
11.6578021557
 20
6.0453584902
 11
11.6554080417
 21
6.3147361333
  0
LINE
  5
5AE
100
AcDbEntity
  8
0
100
AcDbLine
 62
250
  6
CONTINUOUS
 10
11.6645808674
 20
6.4018457397
 11
11.665996809
 21
6.218074627
  0
LINE
  5
5AF
100
AcDbEntity
  8
CURVE
100
AcDbLine
 62
250
  6
CONTINUOUS
 10
11.888852806
 20
-12.0293612391
 11
11.8880831856
 21
-11.9367702681
  0
LINE
  5
5B0
100
AcDbEntity
  8
CURVE
100
AcDbLine
 62
250
  6
CONTINUOUS
 10
11.8513585205
 20
9.4642857313
 11
11.8494889043
 21
9.75
  0
LWPOLYLINE
  5
5B1
100
AcDbEntity
  8
0
100
AcDbPolyline
 62
250
  6
CONTINUOUS
 90
3
 70
0
 10
11.6086426189
 20
5.0185167429
 10
11.609043726
 20
4.9555665627
 10
11.6111204491
 20
4.7156788475
  0
LINE
  5
5B2
100
AcDbEntity
  8
CURVE
100
AcDbLine
 62
250
  6
CONTINUOUS
 10
11.8864049353
 20
-11.9601933765
 11
11.8874792405
 21
-12.0967270028
  0
LINE
  5
5B3
100
AcDbEntity
  8
0
100
AcDbLine
 62
250
  6
CONTINUOUS
 10
11.683535456
 20
6.3631611119
 11
11.6815812758
 21
6.6741911156
  0
LINE
  5
5B4
100
AcDbEntity
  8
0
100
AcDbLine
 62
250
  6
CONTINUOUS
 10
11.6096817519
 20
11.5736127239
 11
11.6105022661
 21
11.4595472711
  0
LINE
  5
5B5
100
AcDbEntity
  8
0
100
AcDbLine
 62
250
  6
CONTINUOUS
 10
11.6127134008
 20
11.6080081313
 11
11.6130764151
 21
11.5575429534
  0
LINE
  5
5B6
100
AcDbEntity
  8
0
100
AcDbLine
 62
250
  6
CONTINUOUS
 10
11.6702098948
 20
11.1726809602
 11
11.6707074397
 21
11.1035137487
  0
LINE
  5
5B7
100
AcDbEntity
  8
0
100
AcDbLine
 62
250
  6
CONTINUOUS
 10
11.6768039133
 20
11.2474930398
 11
11.6763063685
 21
11.3166602513
  0
LINE
  5
5B8
100
AcDbEntity
  8
0
100
AcDbLine
 62
250
  6
CONTINUOUS
 10
11.665996809
 20
6.218074627
 11
11.6670852842
 21
6.0270532707
  0
LINE
  5
5B9
100
AcDbEntity
  8
CURVE
100
AcDbLine
 62
250
  6
CONTINUOUS
 10
11.9008639758
 20
-13.6241319874
 11
11.9015987335
 21
-13.749481997
  0
LINE
  5
5BA
100
AcDbEntity
  8
CURVE
100
AcDbLine
 62
250
  6
CONTINUOUS
 10
11.9029925342
 20
-13.6729878993
 11
11.9024228697
 21
-13.5713442077
  0
LINE
  5
5BB
100
AcDbEntity
  8
0
100
AcDbLine
 62
250
  6
CONTINUOUS
 10
11.6670852842
 20
6.0270532707
 11
11.6678384373
 21
5.8311199736
  0
LINE
  5
5BC
100
AcDbEntity
  8
0
100
AcDbLine
 62
250
  6
CONTINUOUS
 10
11.6852091342
 20
5.9345587188
 11
11.683535456
 21
6.3631611119
  0
LINE
  5
5BD
100
AcDbEntity
  8
0
100
AcDbLine
 62
250
  6
CONTINUOUS
 10
11.6787807803
 20
13.0135013122
 11
11.6775470768
 21
13.2761270552
  0
LINE
  5
5BE
100
AcDbEntity
  8
CURVE
100
AcDbLine
 62
250
  6
CONTINUOUS
 10
11.8880831856
 20
-11.9367702681
 11
11.8875762701
 21
-11.8126402852
  0
LINE
  5
5BF
100
AcDbEntity
  8
0
100
AcDbLine
 62
250
  6
CONTINUOUS
 10
11.6594284631
 20
5.6702063369
 11
11.6578021557
 21
6.0453584902
  0
LWPOLYLINE
  5
5C0
100
AcDbEntity
  8
0
100
AcDbPolyline
 62
250
  6
CONTINUOUS
 90
3
 70
0
 10
11.6175711735
 20
11.6353
 10
11.617524471
 20
11.6625918687
 10
11.6171614567
 20
11.7130570466
  0
LWPOLYLINE
  5
5C1
100
AcDbEntity
  8
0
100
AcDbPolyline
 62
250
  6
CONTINUOUS
 90
3
 70
0
 10
11.6206616806
 20
11.6353
 10
11.6205561198
 20
11.6969872761
 10
11.6197356057
 20
11.8110527289
  0
LINE
  5
5C2
100
AcDbEntity
  8
0
100
AcDbLine
 62
250
  6
CONTINUOUS
 10
11.6678384373
 20
5.8311199736
 11
11.6682484127
 21
5.6326130387
  0
LINE
  5
5C3
100
AcDbEntity
  8
CURVE
100
AcDbLine
 62
250
  6
CONTINUOUS
 10
11.8857968512
 20
-11.7493112951
 11
11.8864049353
 21
-11.9601933765
  0
LINE
  5
5C4
100
AcDbEntity
  8
0
100
AcDbLine
 62
250
  6
CONTINUOUS
 10
11.6792825045
 20
12.6569273296
 11
11.6787807803
 21
13.0135013122
  0
LINE
  5
5C5
100
AcDbEntity
  8
0
100
AcDbLine
 62
250
  6
CONTINUOUS
 10
11.6857769318
 20
5.5000000008
 11
11.6852091342
 21
5.9345587188
  0
LINE
  5
5C6
100
AcDbEntity
  8
0
100
AcDbLine
 62
250
  6
CONTINUOUS
 10
11.6682484127
 20
5.6326130387
 11
11.668327196
 21
5.5000000008
  0
LINE
  5
5C7
100
AcDbEntity
  8
0
100
AcDbLine
 62
250
  6
CONTINUOUS
 10
11.6534732344
 20
11.88859
 11
11.6534732344
 21
12.71193
  0
LINE
  5
5C8
100
AcDbEntity
  8
0
100
AcDbLine
 62
250
  6
CONTINUOUS
 10
11.6572366015
 20
12.71193
 11
11.6572366015
 21
11.88859
  0
LINE
  5
5C9
100
AcDbEntity
  8
0
100
AcDbLine
 62
250
  6
CONTINUOUS
 10
11.6588494831
 20
11.082053
 11
11.6588494831
 21
11.432113
  0
LINE
  5
5CA
100
AcDbEntity
  8
0
100
AcDbLine
 62
250
  6
CONTINUOUS
 10
11.6653498762
 20
11.432113
 11
11.6653498762
 21
11.082053
  0
LINE
  5
5CB
100
AcDbEntity
  8
0
100
AcDbLine
 62
250
  6
CONTINUOUS
 10
11.671683529
 20
13.809973
 11
11.671683529
 21
11.372066
  0
LINE
  5
5CC
100
AcDbEntity
  8
0
100
AcDbLine
 62
250
  6
CONTINUOUS
 10
11.6763876506
 20
12.083924
 11
11.6763973891
 21
12.656927
  0
LINE
  5
5CD
100
AcDbEntity
  8
0
100
AcDbLine
 62
250
  6
CONTINUOUS
 10
11.6785705627
 20
13.281784
 11
11.6785705627
 21
13.18241
  0
LINE
  5
5CE
100
AcDbEntity
  8
0
100
AcDbLine
 62
250
  6
CONTINUOUS
 10
11.6801931828
 20
12.656927
 11
11.6801834443
 21
12.083924
  0
LINE
  5
5CF
100
AcDbEntity
  8
0
100
AcDbLine
 62
250
  6
CONTINUOUS
 10
11.7119914287
 20
3.7023806572
 11
11.7119914287
 21
3.2380954742
  0
LINE
  5
5D0
100
AcDbEntity
  8
0
100
AcDbLine
 62
250
  6
CONTINUOUS
 10
11.7119914287
 20
11.0380951643
 11
11.7119914287
 21
11.5952380657
  0
LINE
  5
5D1
100
AcDbEntity
  8
0
100
AcDbLine
 62
250
  6
CONTINUOUS
 10
11.7119914287
 20
12.3071429014
 11
11.7119914287
 21
12.7714285493
  0
LINE
  5
5D2
100
AcDbEntity
  8
0
100
AcDbLine
 62
250
  6
CONTINUOUS
 10
11.7184747388
 20
13.7619047582
 11
11.7184747388
 21
13.266666615
  0
LINE
  5
5D3
100
AcDbEntity
  8
0
100
AcDbLine
 62
250
  6
CONTINUOUS
 10
11.7184747388
 20
4.6928574085
 11
11.7184747388
 21
4.1976193428
  0
LINE
  5
5D4
100
AcDbEntity
  8
0
100
AcDbLine
 62
250
  6
CONTINUOUS
 10
11.7249580489
 20
11.2238096714
 11
11.7249580489
 21
11.5952380657
  0
LINE
  5
5D5
100
AcDbEntity
  8
0
100
AcDbLine
 62
250
  6
CONTINUOUS
 10
11.7346830131
 20
12.7714285493
 11
11.7346830131
 21
12.3071429014
  0
LINE
  5
5D6
100
AcDbEntity
  8
0
100
AcDbLine
 62
250
  6
CONTINUOUS
 10
11.7346830131
 20
11.5952380657
 11
11.7346830131
 21
11.0380951643
  0
LINE
  5
5D7
100
AcDbEntity
  8
0
100
AcDbLine
 62
250
  6
CONTINUOUS
 10
11.7346830131
 20
5.9309522629
 11
11.7346830131
 21
5.1880954742
  0
LINE
  5
5D8
100
AcDbEntity
  8
CURVE
100
AcDbLine
 62
250
  6
CONTINUOUS
 10
11.7560081096
 20
15.0
 11
11.7560081096
 21
14.4642857015
  0
LINE
  5
5D9
100
AcDbEntity
  8
CURVE
100
AcDbLine
 62
250
  6
CONTINUOUS
 10
11.7560081096
 20
9.0714286566
 11
11.7560081096
 21
8.9642858505
  0
LINE
  5
5DA
100
AcDbEntity
  8
CURVE
100
AcDbLine
 62
250
  6
CONTINUOUS
 10
11.7560081096
 20
7.6785714626
 11
11.7560081096
 21
8.1071426868
  0
LINE
  5
5DB
100
AcDbEntity
  8
CURVE
100
AcDbLine
 62
250
  6
CONTINUOUS
 10
11.7560081096
 20
10.0357142687
 11
11.7560081096
 21
10.3571426868
  0
LINE
  5
5DC
100
AcDbEntity
  8
CURVE
100
AcDbLine
 62
250
  6
CONTINUOUS
 10
11.7560081096
 20
12.3571429253
 11
11.7560081096
 21
12.7857143283
  0
LINE
  5
5DD
100
AcDbEntity
  8
CURVE
100
AcDbLine
 62
250
  6
CONTINUOUS
 10
11.7709650374
 20
12.7857143283
 11
11.7709650374
 21
12.3571429253
  0
LINE
  5
5DE
100
AcDbEntity
  8
CURVE
100
AcDbLine
 62
250
  6
CONTINUOUS
 10
11.7709650374
 20
10.5
 11
11.7709650374
 21
10.0357142687
  0
LINE
  5
5DF
100
AcDbEntity
  8
CURVE
100
AcDbLine
 62
250
  6
CONTINUOUS
 10
11.774704269
 20
7.6785714626
 11
11.774704269
 21
8.1071426868
  0
LINE
  5
5E0
100
AcDbEntity
  8
CURVE
100
AcDbLine
 62
250
  6
CONTINUOUS
 10
11.7821827321
 20
8.9642858505
 11
11.7821827321
 21
9.0714286566
  0
LINE
  5
5E1
100
AcDbEntity
  8
CURVE
100
AcDbLine
 62
250
  6
CONTINUOUS
 10
11.7821827321
 20
12.1428571343
 11
11.7821827321
 21
12.7857143283
  0
LINE
  5
5E2
100
AcDbEntity
  8
CURVE
100
AcDbLine
 62
250
  6
CONTINUOUS
 10
11.7821827321
 20
14.4642857015
 11
11.7821827321
 21
15.0
  0
LINE
  5
5E3
100
AcDbEntity
  8
CURVE
100
AcDbLine
 62
250
  6
CONTINUOUS
 10
11.7996324805
 20
14.7857142761
 11
11.7996324805
 21
14.4642857015
  0
LINE
  5
5E4
100
AcDbEntity
  8
CURVE
100
AcDbLine
 62
250
  6
CONTINUOUS
 10
11.8071109444
 20
11.8571426868
 11
11.8071109444
 21
12.428571403
  0
LINE
  5
5E5
100
AcDbEntity
  8
CURVE
100
AcDbLine
 62
250
  6
CONTINUOUS
 10
11.8145894083
 20
14.4642857015
 11
11.8145894083
 21
14.7857142761
  0
LINE
  5
5E6
100
AcDbEntity
  8
CURVE
100
AcDbLine
 62
250
  6
CONTINUOUS
 10
11.825807103
 20
14.4642857015
 11
11.825807103
 21
14.7857142761
  0
LINE
  5
5E7
100
AcDbEntity
  8
CURVE
100
AcDbLine
 62
250
  6
CONTINUOUS
 10
11.8432568513
 20
15.0
 11
11.8432568513
 21
14.25
  0
LINE
  5
5E8
100
AcDbEntity
  8
CURVE
100
AcDbLine
 62
250
  6
CONTINUOUS
 10
11.8432568513
 20
12.428571403
 11
11.8432568513
 21
12.321428597
  0
LINE
  5
5E9
100
AcDbEntity
  8
CURVE
100
AcDbLine
 62
250
  6
CONTINUOUS
 10
11.8432568513
 20
6.5714285374
 11
11.8432568513
 21
6.4642853737
  0
LINE
  5
5EA
100
AcDbEntity
  8
CURVE
100
AcDbLine
 62
250
  6
CONTINUOUS
 10
11.8432568513
 20
3.1428573132
 11
11.8432568513
 21
3.0357141495
  0
LINE
  5
5EB
100
AcDbEntity
  8
CURVE
100
AcDbLine
 62
250
  6
CONTINUOUS
 10
11.8432568513
 20
-8.9642856494
 11
11.8432568513
 21
-9.0714285225
  0
LINE
  5
5EC
100
AcDbEntity
  8
CURVE
100
AcDbLine
 62
250
  6
CONTINUOUS
 10
11.8432568513
 20
-13.4642854929
 11
11.8432568513
 21
-13.7857142687
  0
LINE
  5
5ED
100
AcDbEntity
  8
CURVE
100
AcDbLine
 62
250
  6
CONTINUOUS
 10
11.8432568513
 20
-11.5357142687
 11
11.8432568513
 21
-10.9999998808
  0
LINE
  5
5EE
100
AcDbEntity
  8
CURVE
100
AcDbLine
 62
250
  6
CONTINUOUS
 10
11.8432568513
 20
0.4642853737
 11
11.8432568513
 21
1.1071429253
  0
LINE
  5
5EF
100
AcDbEntity
  8
CURVE
100
AcDbLine
 62
250
  6
CONTINUOUS
 10
11.8432568513
 20
4.1071429253
 11
11.8432568513
 21
4.428571701
  0
LINE
  5
5F0
100
AcDbEntity
  8
CURVE
100
AcDbLine
 62
250
  6
CONTINUOUS
 10
11.8432568513
 20
7.5357141495
 11
11.8432568513
 21
7.9642853737
  0
LINE
  5
5F1
100
AcDbEntity
  8
CURVE
100
AcDbLine
 62
250
  6
CONTINUOUS
 10
11.8432568513
 20
13.2857142091
 11
11.8432568513
 21
13.821428597
  0
LINE
  5
5F2
100
AcDbEntity
  8
CURVE
100
AcDbLine
 62
250
  6
CONTINUOUS
 10
11.852604931
 20
5.0714285374
 11
11.852604931
 21
5.7142853737
  0
LINE
  5
5F3
100
AcDbEntity
  8
CURVE
100
AcDbLine
 62
250
  6
CONTINUOUS
 10
11.8544745468
 20
-10.5
 11
11.8544745468
 21
-10.0357141793
  0
LINE
  5
5F4
100
AcDbEntity
  8
CURVE
100
AcDbLine
 62
250
  6
CONTINUOUS
 10
11.8582137792
 20
13.6071428955
 11
11.8582137792
 21
13.3928571939
  0
LINE
  5
5F5
100
AcDbEntity
  8
CURVE
100
AcDbLine
 62
250
  6
CONTINUOUS
 10
11.8582137792
 20
7.9642853737
 11
11.8582137792
 21
7.5357141495
  0
LINE
  5
5F6
100
AcDbEntity
  8
CURVE
100
AcDbLine
 62
250
  6
CONTINUOUS
 10
11.8582137792
 20
4.571428299
 11
11.8582137792
 21
4.1071429253
  0
LINE
  5
5F7
100
AcDbEntity
  8
CURVE
100
AcDbLine
 62
250
  6
CONTINUOUS
 10
11.8582137792
 20
-11.2142856717
 11
11.8582137792
 21
-11.4285712838
  0
LINE
  5
5F8
100
AcDbEntity
  8
CURVE
100
AcDbLine
 62
250
  6
CONTINUOUS
 10
11.8582137792
 20
-13.7857142687
 11
11.8582137792
 21
-13.4642854929
  0
LINE
  5
5F9
100
AcDbEntity
  8
CURVE
100
AcDbLine
 62
250
  6
CONTINUOUS
 10
11.8582137792
 20
1.5357141495
 11
11.8582137792
 21
2.2857141495
  0
LINE
  5
5FA
100
AcDbEntity
  8
CURVE
100
AcDbLine
 62
250
  6
CONTINUOUS
 10
11.8619530107
 20
0.4642853737
 11
11.8619530107
 21
1.1071429253
  0
LINE
  5
5FB
100
AcDbEntity
  8
CURVE
100
AcDbLine
 62
250
  6
CONTINUOUS
 10
11.8694314739
 20
14.7857142761
 11
11.8694314739
 21
14.4642857015
  0
LINE
  5
5FC
100
AcDbEntity
  8
CURVE
100
AcDbLine
 62
250
  6
CONTINUOUS
 10
11.8694314739
 20
13.821428597
 11
11.8694314739
 21
13.3928571939
  0
LINE
  5
5FD
100
AcDbEntity
  8
CURVE
100
AcDbLine
 62
250
  6
CONTINUOUS
 10
11.8694314739
 20
-10.0357141793
 11
11.8694314739
 21
-10.3571428657
  0
LINE
  5
5FE
100
AcDbEntity
  8
CURVE
100
AcDbLine
 62
250
  6
CONTINUOUS
 10
11.8694314739
 20
-10.9999998808
 11
11.8694314739
 21
-11.4285712838
  0
LINE
  5
5FF
100
AcDbEntity
  8
CURVE
100
AcDbLine
 62
250
  6
CONTINUOUS
 10
11.8694314739
 20
-13.7857142687
 11
11.8694314739
 21
-13.4642854929
  0
LINE
  5
600
100
AcDbEntity
  8
CURVE
100
AcDbLine
 62
250
  6
CONTINUOUS
 10
11.8694314739
 20
-12.8214286566
 11
11.8694314739
 21
-12.0714286566
  0
LINE
  5
601
100
AcDbEntity
  8
CURVE
100
AcDbLine
 62
250
  6
CONTINUOUS
 10
11.8694314739
 20
-9.0714285225
 11
11.8694314739
 21
-8.9642856494
  0
LINE
  5
602
100
AcDbEntity
  8
CURVE
100
AcDbLine
 62
250
  6
CONTINUOUS
 10
11.8694314739
 20
3.0357141495
 11
11.8694314739
 21
3.1428573132
  0
LINE
  5
603
100
AcDbEntity
  8
CURVE
100
AcDbLine
 62
250
  6
CONTINUOUS
 10
11.8694314739
 20
6.4642853737
 11
11.8694314739
 21
6.5714285374
  0
LINE
  5
604
100
AcDbEntity
  8
CURVE
100
AcDbLine
 62
250
  6
CONTINUOUS
 10
11.8694314739
 20
7.3214285374
 11
11.8694314739
 21
7.9642853737
  0
LINE
  5
605
100
AcDbEntity
  8
CURVE
100
AcDbLine
 62
250
  6
CONTINUOUS
 10
11.8694314739
 20
12.321428597
 11
11.8694314739
 21
12.428571403
  0
LINE
  5
606
100
AcDbEntity
  8
CURVE
100
AcDbLine
 62
250
  6
CONTINUOUS
 10
11.886521121
 20
-12.8167794885
 11
11.886521121
 21
-12.7055897345
  0
LINE
  5
607
100
AcDbEntity
  8
CURVE
100
AcDbLine
 62
250
  6
CONTINUOUS
 10
11.8865492847
 20
-10.392007
 11
11.8865492847
 21
-9.14156
  0
LINE
  5
608
100
AcDbEntity
  8
CURVE
100
AcDbLine
 62
250
  6
CONTINUOUS
 10
11.8865491975
 20
-8.196167
 11
11.8865491975
 21
-7.923912
  0
LINE
  5
609
100
AcDbEntity
  8
CURVE
100
AcDbLine
 62
250
  6
CONTINUOUS
 10
11.8865492847
 20
-7.084446
 11
11.8865492847
 21
-5.834015
  0
LINE
  5
60A
100
AcDbEntity
  8
CURVE
100
AcDbLine
 62
250
  6
CONTINUOUS
 10
11.8865492847
 20
-5.332387
 11
11.8865492847
 21
-5.070199
  0
LINE
  5
60B
100
AcDbEntity
  8
CURVE
100
AcDbLine
 62
250
  6
CONTINUOUS
 10
11.8865492847
 20
-4.124786
 11
11.8865492847
 21
-3.897904
  0
LINE
  5
60C
100
AcDbEntity
  8
CURVE
100
AcDbLine
 62
250
  6
CONTINUOUS
 10
11.8900685325
 20
-6.073526
 11
11.8900685325
 21
-7.084446
  0
LINE
  5
60D
100
AcDbEntity
  8
CURVE
100
AcDbLine
 62
250
  6
CONTINUOUS
 10
11.8900685325
 20
-9.381053
 11
11.8900685325
 21
-10.392007
  0
LINE
  5
60E
100
AcDbEntity
  8
CURVE
100
AcDbLine
 62
250
  6
CONTINUOUS
 10
11.9005355936
 20
-13.4330104165
 11
11.9008639758
 21
-13.6241319874
  0
LINE
  5
60F
100
AcDbEntity
  8
CURVE
100
AcDbLine
 62
250
  6
CONTINUOUS
 10
11.9005355936
 20
-13.4330104165
 11
11.9005355936
 21
-12.8167794885
  0
LINE
  5
610
100
AcDbEntity
  8
CURVE
100
AcDbLine
 62
250
  6
CONTINUOUS
 10
11.9009341767
 20
-10.316398
 11
11.9009341767
 21
-9.381053
  0
LINE
  5
611
100
AcDbEntity
  8
CURVE
100
AcDbLine
 62
250
  6
CONTINUOUS
 10
11.9009341767
 20
-7.008818
 11
11.9009341767
 21
-6.073526
  0
LINE
  5
612
100
AcDbEntity
  8
CURVE
100
AcDbLine
 62
250
  6
CONTINUOUS
 10
11.9022105053
 20
-12.8167794885
 11
11.9024228697
 21
-13.5713442077
  0
LINE
  5
613
100
AcDbEntity
  8
CURVE
100
AcDbLine
 62
250
  6
CONTINUOUS
 10
11.9044537212
 20
-6.073526
 11
11.9044537212
 21
-7.008818
  0
LINE
  5
614
100
AcDbEntity
  8
CURVE
100
AcDbLine
 62
250
  6
CONTINUOUS
 10
11.9044537212
 20
-9.381053
 11
11.9044537212
 21
-10.316398
  0
LINE
  5
615
100
AcDbEntity
  8
CURVE
100
AcDbLine
 62
250
  6
CONTINUOUS
 10
11.9144397759
 20
-10.384415
 11
11.9144397759
 21
-9.381053
  0
LINE
  5
616
100
AcDbEntity
  8
CURVE
100
AcDbLine
 62
250
  6
CONTINUOUS
 10
11.9144397759
 20
-7.076887
 11
11.9144397759
 21
-6.073526
  0
LINE
  5
617
100
AcDbEntity
  8
CURVE
100
AcDbLine
 62
250
  6
CONTINUOUS
 10
11.9179590237
 20
-3.897904
 11
11.9179590237
 21
-4.152533
  0
LINE
  5
618
100
AcDbEntity
  8
CURVE
100
AcDbLine
 62
250
  6
CONTINUOUS
 10
11.9179590237
 20
-5.105488
 11
11.9179590237
 21
-5.332387
  0
LINE
  5
619
100
AcDbEntity
  8
CURVE
100
AcDbLine
 62
250
  6
CONTINUOUS
 10
11.9179590237
 20
-5.834015
 11
11.9179590237
 21
-7.076887
  0
LINE
  5
61A
100
AcDbEntity
  8
CURVE
100
AcDbLine
 62
250
  6
CONTINUOUS
 10
11.9179589364
 20
-7.28862
 11
11.9179589364
 21
-7.548249
  0
LINE
  5
61B
100
AcDbEntity
  8
CURVE
100
AcDbLine
 62
250
  6
CONTINUOUS
 10
11.9179589364
 20
-8.586932
 11
11.9179589364
 21
-8.836527
  0
LINE
  5
61C
100
AcDbEntity
  8
CURVE
100
AcDbLine
 62
250
  6
CONTINUOUS
 10
11.9179590237
 20
-9.14156
 11
11.9179590237
 21
-10.384415
  0
LINE
  5
61D
100
AcDbEntity
  8
CURVE
100
AcDbLine
 62
250
  6
CONTINUOUS
 10
11.9179884057
 20
-11.0085272007
 11
11.9179884057
 21
-11.1196482155
  0
LINE
  5
61E
100
AcDbEntity
  8
CURVE
100
AcDbLine
 62
250
  6
CONTINUOUS
 10
11.9179884057
 20
-12.2763980551
 11
11.9179884057
 21
-12.3875180284
  0
LINE
  5
61F
100
AcDbEntity
  8
0
100
AcDbLine
 62
250
  6
CONTINUOUS
 10
11.9236360847
 20
8.382444
 11
11.9236360847
 21
9.842944
  0
LINE
  5
620
100
AcDbEntity
  8
0
100
AcDbLine
 62
250
  6
CONTINUOUS
 10
11.9367233959
 20
9.842944
 11
11.9367233959
 21
8.382444
  0
LINE
  5
621
100
AcDbEntity
  8
RACCORDO
100
AcDbLine
 62
7
  6
CONTINUOUS
 10
12.0
 20
-15.500533067
 11
12.0
 21
15.500533067
  0
LINE
  5
622
100
AcDbEntity
  8
ASSI
100
AcDbLine
 62
7
  6
CONTINUOUS
 10
12.0
 20
-15.500533067
 11
12.0
 21
15.500533067
  0
LINE
  5
623
100
AcDbEntity
  8
RACCORDO
100
AcDbLine
 62
7
  6
CONTINUOUS
 10
12.1238174026
 20
-16.4544358981
 11
12.1238174026
 21
16.4544358981
  0
LINE
  5
624
100
AcDbEntity
  8
RACCORDO
100
AcDbLine
 62
7
  6
CONTINUOUS
 10
12.15
 20
-21.8997711479
 11
12.15
 21
21.8997711479
  0
LINE
  5
625
100
AcDbEntity
  8
CURVE
100
AcDbLine
 62
250
  6
CONTINUOUS
 10
11.8875762701
 20
-11.8126402852
 11
11.8874566194
 21
-11.652104628
  0
LINE
  5
626
100
AcDbEntity
  8
0
100
AcDbLine
 62
250
  6
CONTINUOUS
 10
11.6594964034
 20
5.3670591341
 11
11.6594284631
 21
5.6702063369
  0
LINE
  5
627
100
AcDbEntity
  8
0
100
AcDbLine
 62
250
  6
CONTINUOUS
 10
11.6702121937
 20
11.2481522459
 11
11.6702098948
 21
11.1726809602
  0
LINE
  5
628
100
AcDbEntity
  8
0
100
AcDbLine
 62
250
  6
CONTINUOUS
 10
11.6768016144
 20
11.1720217541
 11
11.6768039133
 21
11.2474930398
  0
LINE
  5
629
100
AcDbEntity
  8
CURVE
100
AcDbLine
 62
250
  6
CONTINUOUS
 10
11.7659793945
 20
8.1071426868
 11
11.764732984
 21
7.6785714626
  0
LINE
  5
62A
100
AcDbEntity
  8
CURVE
100
AcDbLine
 62
250
  6
CONTINUOUS
 10
11.9163134032
 20
-12.8167794885
 11
11.9161299088
 21
-13.5821214996
  0
LINE
  5
62B
100
AcDbEntity
  8
0
100
AcDbLine
 62
250
  6
CONTINUOUS
 10
11.6785589729
 20
11.8945897746
 11
11.6791058643
 21
12.0839235619
  0
LINE
  5
62C
100
AcDbEntity
  8
0
100
AcDbLine
 62
250
  6
CONTINUOUS
 10
11.6589475674
 20
5.1688210821
 11
11.6594964034
 21
5.3670591341
  0
LINE
  5
62D
100
AcDbEntity
  8
CURVE
100
AcDbLine
 62
250
  6
CONTINUOUS
 10
11.8861250867
 20
-11.4822225826
 11
11.8857968512
 21
-11.7493112951
  0
LINE
  5
62E
100
AcDbEntity
  8
CURVE
100
AcDbLine
 62
250
  6
CONTINUOUS
 10
11.8874566194
 20
-11.652104628
 11
11.887750326
 21
-11.5194278449
  0
LINE
  5
62F
100
AcDbEntity
  8
CURVE
100
AcDbLine
 62
250
  6
CONTINUOUS
 10
11.917616143
 20
-13.6505866677
 11
11.9179883149
 21
-12.7055897345
  0
LINE
  5
630
100
AcDbEntity
  8
CURVE
100
AcDbLine
 62
250
  6
CONTINUOUS
 10
11.9161299088
 20
-13.5821214996
 11
11.9156186832
 21
-13.6730879659
  0
LINE
  5
631
100
AcDbEntity
  8
CURVE
100
AcDbLine
 62
250
  6
CONTINUOUS
 10
11.8870265815
 20
-11.3373318381
 11
11.8861250867
 21
-11.4822225826
  0
LINE
  5
632
100
AcDbEntity
  8
CURVE
100
AcDbLine
 62
250
  6
CONTINUOUS
 10
11.9169010187
 20
-13.7625689746
 11
11.917616143
 21
-13.6505866677
  0
LINE
  5
633
100
AcDbEntity
  8
CURVE
100
AcDbLine
 62
250
  6
CONTINUOUS
 10
11.887750326
 20
-11.5194278449
 11
11.8884405893
 21
-11.4099661049
  0
LINE
  5
634
100
AcDbEntity
  8
CURVE
100
AcDbLine
 62
250
  6
CONTINUOUS
 10
11.7672258051
 20
8.2142858505
 11
11.7659793945
 21
8.1071426868
  0
LINE
  5
635
100
AcDbEntity
  8
CURVE
100
AcDbLine
 62
250
  6
CONTINUOUS
 10
11.764732984
 20
7.6785714626
 11
11.7634865735
 21
7.571428299
  0
LINE
  5
636
100
AcDbEntity
  8
CURVE
100
AcDbLine
 62
250
  6
CONTINUOUS
 10
11.9156186832
 20
-13.6730879659
 11
11.9149455734
 21
-13.7384192527
  0
LINE
  5
637
100
AcDbEntity
  8
CURVE
100
AcDbLine
 62
250
  6
CONTINUOUS
 10
11.8494889043
 20
9.75
 11
11.8532281363
 21
10.0357142687
  0
LINE
  5
638
100
AcDbEntity
  8
CURVE
100
AcDbLine
 62
250
  6
CONTINUOUS
 10
11.8600833942
 20
-13.3214285374
 11
11.8582137792
 21
-13.4642854929
  0
LINE
  5
639
100
AcDbEntity
  8
CURVE
100
AcDbLine
 62
250
  6
CONTINUOUS
 10
11.9160829918
 20
-13.8368101254
 11
11.9169010187
 21
-13.7625689746
  0
LINE
  5
63A
100
AcDbEntity
  8
CURVE
100
AcDbLine
 62
250
  6
CONTINUOUS
 10
11.8881951842
 20
-11.2339371791
 11
11.8870265815
 21
-11.3373318381
  0
LINE
  5
63B
100
AcDbEntity
  8
CURVE
100
AcDbLine
 62
250
  6
CONTINUOUS
 10
11.8884405893
 20
-11.4099661049
 11
11.8893887591
 21
-11.3264673064
  0
LINE
  5
63C
100
AcDbEntity
  8
CURVE
100
AcDbLine
 62
250
  6
CONTINUOUS
 10
11.7728346524
 20
7.571428299
 11
11.774704269
 21
7.6785714626
  0
LINE
  5
63D
100
AcDbEntity
  8
CURVE
100
AcDbLine
 62
250
  6
CONTINUOUS
 10
11.8656922423
 20
12.1071428061
 11
11.8694314739
 21
12.321428597
  0
LINE
  5
63E
100
AcDbEntity
  8
CURVE
100
AcDbLine
 62
250
  6
CONTINUOUS
 10
11.8582137792
 20
7.5357141495
 11
11.8544745468
 21
7.3214285374
  0
LINE
  5
63F
100
AcDbEntity
  8
CURVE
100
AcDbLine
 62
250
  6
CONTINUOUS
 10
11.8469960833
 20
6.7857141495
 11
11.8432568513
 21
6.5714285374
  0
LINE
  5
640
100
AcDbEntity
  8
CURVE
100
AcDbLine
 62
250
  6
CONTINUOUS
 10
11.8656922423
 20
6.2499997616
 11
11.8694314739
 21
6.4642853737
  0
LINE
  5
641
100
AcDbEntity
  8
CURVE
100
AcDbLine
 62
250
  6
CONTINUOUS
 10
11.8432568513
 20
4.428571701
 11
11.8469960833
 21
4.6428573132
  0
LINE
  5
642
100
AcDbEntity
  8
CURVE
100
AcDbLine
 62
250
  6
CONTINUOUS
 10
11.8582137792
 20
4.1071429253
 11
11.8544745468
 21
3.8928573132
  0
LINE
  5
643
100
AcDbEntity
  8
CURVE
100
AcDbLine
 62
250
  6
CONTINUOUS
 10
11.8469960833
 20
3.3571429253
 11
11.8432568513
 21
3.1428573132
  0
LINE
  5
644
100
AcDbEntity
  8
CURVE
100
AcDbLine
 62
250
  6
CONTINUOUS
 10
11.8656922423
 20
2.8214292526
 11
11.8694314739
 21
3.0357141495
  0
LINE
  5
645
100
AcDbEntity
  8
CURVE
100
AcDbLine
 62
250
  6
CONTINUOUS
 10
11.8469960833
 20
-8.7499999367
 11
11.8432568513
 21
-8.9642856494
  0
LINE
  5
646
100
AcDbEntity
  8
CURVE
100
AcDbLine
 62
250
  6
CONTINUOUS
 10
11.8656922423
 20
-9.285714224
 11
11.8694314739
 21
-9.0714285225
  0
LINE
  5
647
100
AcDbEntity
  8
CURVE
100
AcDbLine
 62
250
  6
CONTINUOUS
 10
11.8544745468
 20
-10.0357141793
 11
11.8582137792
 21
-9.8214284778
  0
LINE
  5
648
100
AcDbEntity
  8
CURVE
100
AcDbLine
 62
250
  6
CONTINUOUS
 10
11.8694314739
 20
-10.3571428657
 11
11.8656922423
 21
-10.5714284778
  0
LINE
  5
649
100
AcDbEntity
  8
CURVE
100
AcDbLine
 62
250
  6
CONTINUOUS
 10
11.8582137792
 20
-11.4285712838
 11
11.8544745468
 21
-11.6428570747
  0
LINE
  5
64A
100
AcDbEntity
  8
CURVE
100
AcDbLine
 62
250
  6
CONTINUOUS
 10
11.8469960833
 20
-13.2499998808
 11
11.8432568513
 21
-13.4642854929
  0
LINE
  5
64B
100
AcDbEntity
  8
CURVE
100
AcDbLine
 62
250
  6
CONTINUOUS
 10
11.8544745468
 20
-13.9999998808
 11
11.8582137792
 21
-13.7857142687
  0
LINE
  5
64C
100
AcDbEntity
  8
CURVE
100
AcDbLine
 62
250
  6
CONTINUOUS
 10
11.9149455734
 20
-13.7384192527
 11
11.9142491468
 21
-13.7833717404
  0
LINE
  5
64D
100
AcDbEntity
  8
CURVE
100
AcDbLine
 62
250
  6
CONTINUOUS
 10
11.8890701189
 20
-11.1802810585
 11
11.8881951842
 21
-11.2339371791
  0
LINE
  5
64E
100
AcDbEntity
  8
CURVE
100
AcDbLine
 62
250
  6
CONTINUOUS
 10
11.8893887591
 20
-11.3264673064
 11
11.8901786308
 21
-11.2777642677
  0
LINE
  5
64F
100
AcDbEntity
  8
CURVE
100
AcDbLine
 62
250
  6
CONTINUOUS
 10
11.9154139465
 20
-13.8783710705
 11
11.9160829918
 21
-13.8368101254
  0
LINE
  5
650
100
AcDbEntity
  8
CURVE
100
AcDbLine
 62
250
  6
CONTINUOUS
 10
11.8694314739
 20
-11.4285712838
 11
11.8656922423
 21
-11.6071427464
  0
LINE
  5
651
100
AcDbEntity
  8
CURVE
100
AcDbLine
 62
250
  6
CONTINUOUS
 10
11.8897171331
 20
-11.1491091048
 11
11.8890701189
 21
-11.1802810585
  0
LINE
  5
652
100
AcDbEntity
  8
CURVE
100
AcDbLine
 62
250
  6
CONTINUOUS
 10
11.8901786308
 20
-11.2777642677
 11
11.8908408151
 21
-11.2457244769
  0
LINE
  5
653
100
AcDbEntity
  8
CURVE
100
AcDbLine
 62
250
  6
CONTINUOUS
 10
11.9148615175
 20
-13.904878744
 11
11.9154139465
 21
-13.8783710705
  0
LINE
  5
654
100
AcDbEntity
  8
CURVE
100
AcDbLine
 62
250
  6
CONTINUOUS
 10
11.9142491468
 20
-13.7833717404
 11
11.9136515889
 21
-13.8115497595
  0
LINE
  5
655
100
AcDbEntity
  8
0
100
AcDbLine
 62
250
  6
CONTINUOUS
 10
11.7346830131
 20
2.8666670799
 11
11.7249580489
 21
2.4952386856
  0
LINE
  5
656
100
AcDbEntity
  8
CURVE
100
AcDbLine
 62
250
  6
CONTINUOUS
 10
11.8656922423
 20
-13.9285712242
 11
11.8694314739
 21
-13.7857142687
  0
LINE
  5
657
100
AcDbEntity
  8
CURVE
100
AcDbLine
 62
250
  6
CONTINUOUS
 10
11.8904092597
 20
-11.1218078988
 11
11.8897171331
 21
-11.1491091048
  0
LINE
  5
658
100
AcDbEntity
  8
CURVE
100
AcDbLine
 62
250
  6
CONTINUOUS
 10
11.8865492847
 20
-5.070199
 11
11.9117560395
 21
-4.129854
  0
LINE
  5
659
100
AcDbEntity
  8
CURVE
100
AcDbLine
 62
250
  6
CONTINUOUS
 10
11.9179590237
 20
-4.152533
 11
11.8924878529
 21
-5.100455
  0
LINE
  5
65A
100
AcDbEntity
  8
CURVE
100
AcDbLine
 62
250
  6
CONTINUOUS
 10
11.9136515889
 20
-13.8115497595
 11
11.9132188482
 21
-13.8279199589
  0
LINE
  5
65B
100
AcDbEntity
  8
CURVE
100
AcDbLine
 62
250
  6
CONTINUOUS
 10
11.9142630386
 20
-13.9281187581
 11
11.9148615175
 21
-13.904878744
  0
LINE
  5
65C
100
AcDbEntity
  8
CURVE
100
AcDbLine
 62
250
  6
CONTINUOUS
 10
11.8908408151
 20
-11.2457244769
 11
11.891604561
 21
-11.2162151683
  0
LINE
  5
65D
100
AcDbEntity
  8
CURVE
100
AcDbLine
 62
250
  6
CONTINUOUS
 10
11.9138427355
 20
-13.9417441809
 11
11.9142630386
 21
-13.9281187581
  0
LINE
  5
65E
100
AcDbEntity
  8
CURVE
100
AcDbLine
 62
250
  6
CONTINUOUS
 10
11.8911432681
 20
-11.0980531687
 11
11.8904092597
 21
-11.1218078988
  0
LINE
  5
65F
100
AcDbEntity
  8
CURVE
100
AcDbLine
 62
250
  6
CONTINUOUS
 10
11.891604561
 20
-11.2162151683
 11
11.8921420637
 21
-11.1991591209
  0
LINE
  5
660
100
AcDbEntity
  8
CURVE
100
AcDbLine
 62
250
  6
CONTINUOUS
 10
11.9132188482
 20
-13.8279199589
 11
11.9127621467
 21
-13.8423420387
  0
LINE
  5
661
100
AcDbEntity
  8
CURVE
100
AcDbLine
 62
250
  6
CONTINUOUS
 10
11.8619530107
 20
6.1428573132
 11
11.8656922423
 21
6.2499997616
  0
LINE
  5
662
100
AcDbEntity
  8
CURVE
100
AcDbLine
 62
250
  6
CONTINUOUS
 10
11.8507353152
 20
3.4642853737
 11
11.8469960833
 21
3.3571429253
  0
LINE
  5
663
100
AcDbEntity
  8
CURVE
100
AcDbLine
 62
250
  6
CONTINUOUS
 10
11.8619530107
 20
2.7142853737
 11
11.8656922423
 21
2.8214292526
  0
LINE
  5
664
100
AcDbEntity
  8
CURVE
100
AcDbLine
 62
250
  6
CONTINUOUS
 10
11.8507353152
 20
-8.6428570747
 11
11.8469960833
 21
-8.7499999367
  0
LINE
  5
665
100
AcDbEntity
  8
CURVE
100
AcDbLine
 62
250
  6
CONTINUOUS
 10
11.8619530107
 20
-9.3928570747
 11
11.8656922423
 21
-9.285714224
  0
LWPOLYLINE
  5
666
100
AcDbEntity
  8
RACCORDO
100
AcDbPolyline
 62
7
  6
CONTINUOUS
 90
10
 70
0
 10
12.15
 20
-16.4633444564
 10
12.1473544403
 20
-16.5362775359
 10
12.1394801106
 20
-16.6082971553
 10
12.126377011
 20
-16.6794033144
 10
12.1078721374
 20
-16.7501092027
 10
12.0841384939
 20
-16.8199016308
 10
12.0556950924
 20
-16.8872410307
 10
12.0227149368
 20
-16.9516142132
 10
11.9850250232
 20
-17.0135343676
 10
11.9426253515
 20
-17.0730014938
  0
LINE
  5
667
100
AcDbEntity
  8
CURVE
100
AcDbLine
 62
250
  6
CONTINUOUS
 10
11.9134083647
 20
-13.9538384799
 11
11.9138427355
 21
-13.9417441809
  0
LINE
  5
668
100
AcDbEntity
  8
CURVE
100
AcDbLine
 62
250
  6
CONTINUOUS
 10
11.8921420637
 20
-11.1991591209
 11
11.8926993586
 21
-11.1840788506
  0
LWPOLYLINE
  5
669
100
AcDbEntity
  8
CURVE
100
AcDbPolyline
 62
250
  6
CONTINUOUS
 90
24
 70
0
 10
11.9127621467
 20
-13.8423420387
 10
11.9122845134
 20
-13.8548022825
 10
11.912038794
 20
-13.8602924297
 10
11.9117889777
 20
-13.8652869743
 10
11.9115354429
 20
-13.8697842018
 10
11.9112785685
 20
-13.8737823976
 10
11.9110187331
 20
-13.8772798473
 10
11.9107563152
 20
-13.8802748363
 10
11.9104916937
 20
-13.88276565
 10
11.910225247
 20
-13.8847505739
 10
11.9099573539
 20
-13.8862278936
 10
11.909688393
 20
-13.8871958944
 10
11.9094187429
 20
-13.8876528619
 10
11.9091487823
 20
-13.8875970814
 10
11.9088797791
 20
-13.8870302003
 10
11.9086112515
 20
-13.8859544354
 10
11.9083436077
 20
-13.884372
 10
11.9080772557
 20
-13.8822851075
 10
11.9078126035
 20
-13.8796959713
 10
11.9075500591
 20
-13.8766068046
 10
11.9072900306
 20
-13.8730198208
 10
11.9070329259
 20
-13.8689372333
 10
11.9067791532
 20
-13.8643612554
 10
11.9065291203
 20
-13.8592941005
  0
LWPOLYLINE
  5
66A
100
AcDbEntity
  8
CURVE
100
AcDbPolyline
 62
250
  6
CONTINUOUS
 90
21
 70
0
 10
11.8926993586
 20
-11.1840788506
 10
11.8932739782
 20
-11.1708734865
 10
11.8935670137
 20
-11.1649423722
 10
11.893863455
 20
-11.1594421578
 10
11.8941629938
 20
-11.1543602345
 10
11.8944653215
 20
-11.1496839935
 10
11.8947701298
 20
-11.1454008258
 10
11.8950771102
 20
-11.1414981226
 10
11.8953859542
 20
-11.137963275
 10
11.8956963535
 20
-11.1347836742
 10
11.8960079995
 20
-11.1319467112
 10
11.8963205839
 20
-11.1294397773
 10
11.8966337982
 20
-11.1272502636
 10
11.896947334
 20
-11.1253655612
 10
11.8972608828
 20
-11.1237730611
 10
11.8975741362
 20
-11.1224601547
 10
11.8978867857
 20
-11.1214142329
 10
11.898198523
 20
-11.120622687
 10
11.8985090395
 20
-11.120072908
 10
11.8988180268
 20
-11.1197522871
 10
11.8991251766
 20
-11.1196482155
  0
LINE
  5
66B
100
AcDbEntity
  8
CURVE
100
AcDbLine
 62
250
  6
CONTINUOUS
 10
11.8865491975
 20
-7.923912
 11
11.9179589364
 21
-7.28862
  0
LINE
  5
66C
100
AcDbEntity
  8
CURVE
100
AcDbLine
 62
250
  6
CONTINUOUS
 10
11.9179589364
 20
-7.548249
 11
11.89072829
 21
-8.062573
  0
LWPOLYLINE
  5
66D
100
AcDbEntity
  8
0
100
AcDbPolyline
 62
7
  6
CONTINUOUS
 90
10
 70
0
 10
8.8581548119
 20
-13.9671795833
 10
8.8855338226
 20
-13.8707702089
 10
8.9060459288
 20
-13.770950563
 10
8.9196911305
 20
-13.6677206457
 10
8.9256990612
 20
-13.5606443724
 10
8.9248400875
 20
-13.4501578278
 10
8.9194253082
 20
-13.3375692652
 10
8.9102250897
 20
-13.2233147692
 10
8.8964690656
 20
-13.1069582553
 10
8.8781572359
 20
-12.9884997236
  0
LWPOLYLINE
  5
66E
100
AcDbEntity
  8
ASSI
100
AcDbPolyline
 62
7
  6
CONTINUOUS
 90
10
 70
0
 10
8.8581548119
 20
-13.9671795833
 10
8.8855338226
 20
-13.8707702089
 10
8.9060459288
 20
-13.770950563
 10
8.9196911305
 20
-13.6677206457
 10
8.9256990612
 20
-13.5606443724
 10
8.9248400875
 20
-13.4501578278
 10
8.9194253082
 20
-13.3375692652
 10
8.9102250897
 20
-13.2233147692
 10
8.8964690656
 20
-13.1069582553
 10
8.8781572359
 20
-12.9884997236
  0
LINE
  5
66F
100
AcDbEntity
  8
CURVE
100
AcDbLine
 62
7
  6
CONTINUOUS
 10
11.9085520162
 20
-4.2493809806
 11
11.9155445601
 21
-4.2423884367
  0
LINE
  5
670
100
AcDbEntity
  8
CURVE
100
AcDbLine
 62
7
  6
CONTINUOUS
 10
11.9027674382
 20
-4.4651762726
 11
11.9097456399
 21
-4.458198071
  0
LINE
  5
671
100
AcDbEntity
  8
CURVE
100
AcDbLine
 62
7
  6
CONTINUOUS
 10
11.8969828602
 20
-4.6809715647
 11
11.9039467196
 21
-4.6740077052
  0
LINE
  5
672
100
AcDbEntity
  8
CURVE
100
AcDbLine
 62
7
  6
CONTINUOUS
 10
11.8911982822
 20
-4.8967668567
 11
11.8981477994
 21
-4.8898173395
  0
LINE
  5
673
100
AcDbEntity
  8
CURVE
100
AcDbLine
 62
7
  6
CONTINUOUS
 10
11.8865492847
 20
-5.1114265682
 11
11.8924878529
 21
-5.105488
  0
LINE
  5
674
100
AcDbEntity
  8
CURVE
100
AcDbLine
 62
7
  6
CONTINUOUS
 10
11.8865492847
 20
-5.3214372822
 11
11.9179590237
 21
-5.2900275432
  0
LINE
  5
675
100
AcDbEntity
  8
CURVE
100
AcDbLine
 62
7
  6
CONTINUOUS
 10
11.8865492847
 20
-5.9514694242
 11
11.9179590237
 21
-5.9200596852
  0
LINE
  5
676
100
AcDbEntity
  8
CURVE
100
AcDbLine
 62
7
  6
CONTINUOUS
 10
11.8865492847
 20
-6.1614801382
 11
11.8900685325
 21
-6.1579608904
  0
LINE
  5
677
100
AcDbEntity
  8
CURVE
100
AcDbLine
 62
7
  6
CONTINUOUS
 10
11.9144397759
 20
-6.133589647
 11
11.9179590237
 21
-6.1300703992
  0
LINE
  5
678
100
AcDbEntity
  8
CURVE
100
AcDbLine
 62
7
  6
CONTINUOUS
 10
11.9009341767
 20
-6.1470952462
 11
11.9044537212
 21
-6.1435757018
  0
LINE
  5
679
100
AcDbEntity
  8
CURVE
100
AcDbLine
 62
7
  6
CONTINUOUS
 10
11.9144397759
 20
-6.3436003611
 11
11.9179590237
 21
-6.3400811133
  0
LINE
  5
67A
100
AcDbEntity
  8
CURVE
100
AcDbLine
 62
7
  6
CONTINUOUS
 10
11.9009341767
 20
-6.3571059602
 11
11.9044537212
 21
-6.3535864158
  0
LINE
  5
67B
100
AcDbEntity
  8
CURVE
100
AcDbLine
 62
7
  6
CONTINUOUS
 10
11.8865492847
 20
-6.3714908522
 11
11.8900685325
 21
-6.3679716044
  0
LINE
  5
67C
100
AcDbEntity
  8
CURVE
100
AcDbLine
 62
7
  6
CONTINUOUS
 10
11.8865492847
 20
-6.5815015662
 11
11.8900685325
 21
-6.5779823184
  0
LINE
  5
67D
100
AcDbEntity
  8
CURVE
100
AcDbLine
 62
7
  6
CONTINUOUS
 10
11.9144397759
 20
-6.5536110751
 11
11.9179590237
 21
-6.5500918273
  0
LINE
  5
67E
100
AcDbEntity
  8
CURVE
100
AcDbLine
 62
7
  6
CONTINUOUS
 10
11.9009341767
 20
-6.5671166742
 11
11.9044537212
 21
-6.5635971298
  0
LINE
  5
67F
100
AcDbEntity
  8
0
100
AcDbLine
 62
7
  6
CONTINUOUS
 10
8.241072
 20
-9.785504
 11
7.000508
 21
-10.250732
  0
LINE
  5
680
100
AcDbEntity
  8
ASSI
100
AcDbLine
 62
7
  6
CONTINUOUS
 10
8.241072
 20
-9.785504
 11
7.000508
 21
-10.250732
  0
LINE
  5
681
100
AcDbEntity
  8
0
100
AcDbLine
 62
7
  6
CONTINUOUS
 10
7.845554
 20
-10.280707
 11
8.900354
 21
-9.888323
  0
LINE
  5
682
100
AcDbEntity
  8
ASSI
100
AcDbLine
 62
7
  6
CONTINUOUS
 10
7.845554
 20
-10.280707
 11
8.900354
 21
-9.888323
  0
LINE
  5
683
100
AcDbEntity
  8
RACCORDO
100
AcDbLine
 62
250
  6
CONTINUOUS
 10
-10.1238174026
 20
-16.4544358981
 11
-10.15
 21
-16.4633443083
  0
LWPOLYLINE
  5
684
100
AcDbEntity
  8
RACCORDO
100
AcDbPolyline
 62
250
  6
CONTINUOUS
 90
7
 70
0
 10
7.4544089061
 20
12.05
 10
7.4821682061
 20
12.0503753981
 10
7.5098881541
 20
12.0514998891
 10
7.5375503869
 20
12.0533705009
 10
7.5651365932
 20
12.0559837103
 10
7.5926285293
 20
12.0593354491
 10
7.6200080354
 20
12.0634211109
  0
LINE
  5
685
100
AcDbEntity
  8
0
100
AcDbLine
 62
250
  6
CONTINUOUS
 10
11.6653498762
 20
11.082053
 11
11.6588494831
 21
11.082053
  0
LINE
  5
686
100
AcDbEntity
  8
0
100
AcDbLine
 62
250
  6
CONTINUOUS
 10
11.6588494831
 20
11.432113
 11
11.6653498762
 21
11.432113
  0
LINE
  5
687
100
AcDbEntity
  8
0
100
AcDbLine
 62
250
  6
CONTINUOUS
 10
11.7119914287
 20
11.5952380657
 11
11.7346830131
 21
11.5952380657
  0
LINE
  5
688
100
AcDbEntity
  8
0
100
AcDbLine
 62
250
  6
CONTINUOUS
 10
11.6572366015
 20
11.88859
 11
11.6534732344
 21
11.88859
  0
LINE
  5
689
100
AcDbEntity
  8
CURVE
100
AcDbLine
 62
250
  6
CONTINUOUS
 10
11.8507353152
 20
12.0
 11
11.8619530107
 21
12.0
  0
LINE
  5
68A
100
AcDbEntity
  8
RACCORDO
100
AcDbLine
 62
7
  6
CONTINUOUS
 10
0.55
 20
12.05
 11
3.3694122535
 21
12.05
  0
LINE
  5
68B
100
AcDbEntity
  8
RACCORDO
100
AcDbLine
 62
7
  6
CONTINUOUS
 10
4.6305877465
 20
12.05
 11
7.55
 21
12.05
  0
LINE
  5
68C
100
AcDbEntity
  8
0
100
AcDbLine
 62
250
  6
CONTINUOUS
 10
11.6801834443
 20
12.083924
 11
11.6763876506
 21
12.083924
  0
LINE
  5
68D
100
AcDbEntity
  8
0
100
AcDbLine
 62
250
  6
CONTINUOUS
 10
11.7314413584
 20
12.1214287043
 11
11.7152330837
 21
12.1214287043
  0
LINE
  5
68E
100
AcDbEntity
  8
CURVE
100
AcDbLine
 62
250
  6
CONTINUOUS
 10
11.7672258051
 20
12.1428571343
 11
11.7597473415
 21
12.1428571343
  0
LINE
  5
68F
100
AcDbEntity
  8
0
100
AcDbLine
 62
250
  6
CONTINUOUS
 10
11.9746423971
 20
12.367554
 11
11.961540777
 21
12.367554
  0
LINE
  5
690
100
AcDbEntity
  8
0
100
AcDbLine
 62
250
  6
CONTINUOUS
 10
11.8988187036
 20
12.367554
 11
11.8857170835
 21
12.367554
  0
LWPOLYLINE
  5
691
100
AcDbEntity
  8
RACCORDO
100
AcDbPolyline
 62
250
  6
CONTINUOUS
 90
7
 70
0
 10
0.55
 20
12.05
 10
0.5379373968
 20
12.0503822947
 10
0.5260278756
 20
12.0515219157
 10
0.5142755817
 20
12.053407586
 10
0.5026839474
 20
12.0560275399
 10
0.4912557132
 20
12.0593695495
 10
0.4799929488
 20
12.0634209509
  0
LWPOLYLINE
  5
692
100
AcDbEntity
  8
RACCORDO
100
AcDbPolyline
 62
250
  6
CONTINUOUS
 90
7
 70
0
 10
0.4799929488
 20
12.0634209509
 10
0.5073720185
 20
12.0593353749
 10
0.5348636262
 20
12.0559836865
 10
0.5624496131
 20
12.0533705009
 10
0.5901117361
 20
12.051499895
 10
0.6178316842
 20
12.0503754011
 10
0.6455910939
 20
12.05
  0
LINE
  5
693
100
AcDbEntity
  8
RACCORDO
100
AcDbLine
 62
250
  6
CONTINUOUS
 10
-10.1238174026
 20
16.4544358981
 11
-10.15
 21
16.4633443083
  0
LWPOLYLINE
  5
694
100
AcDbEntity
  8
RACCORDO
100
AcDbPolyline
 62
7
  6
CONTINUOUS
 90
3
 70
0
 10
0.5205654588
 20
13.9331383355
 10
0.5252561701
 20
13.9295637132
 10
0.55
 20
13.9100458713
  0
LINE
  5
695
100
AcDbEntity
  8
RACCORDO
100
AcDbLine
 62
7
  6
CONTINUOUS
 10
0.9120884935
 20
13.6251038517
 11
1.0102631693
 21
13.55
  0
LINE
  5
696
100
AcDbEntity
  8
RACCORDO
100
AcDbLine
 62
7
  6
CONTINUOUS
 10
0.8115967353
 20
13.7029820901
 11
0.9120884935
 21
13.6251038517
  0
LINE
  5
697
100
AcDbEntity
  8
RACCORDO
100
AcDbLine
 62
7
  6
CONTINUOUS
 10
0.7087681009
 20
13.7836545211
 11
0.8115967353
 21
13.7029820901
  0
LINE
  5
698
100
AcDbEntity
  8
0
100
AcDbLine
 62
7
  6
CONTINUOUS
 10
8.8186955772
 20
-14.0378647173
 11
8.8581548119
 21
-13.9671795833
  0
LINE
  5
699
100
AcDbEntity
  8
ASSI
100
AcDbLine
 62
7
  6
CONTINUOUS
 10
8.8186955772
 20
-14.0378647173
 11
8.8581548119
 21
-13.9671795833
  0
LINE
  5
69A
100
AcDbEntity
  8
CURVE
100
AcDbLine
 62
7
  6
CONTINUOUS
 10
11.9144397759
 20
-6.7636217891
 11
11.9179590237
 21
-6.7601025413
  0
LINE
  5
69B
100
AcDbEntity
  8
CURVE
100
AcDbLine
 62
7
  6
CONTINUOUS
 10
11.9009341767
 20
-6.7771273883
 11
11.9044537212
 21
-6.7736078438
  0
LINE
  5
69C
100
AcDbEntity
  8
CURVE
100
AcDbLine
 62
7
  6
CONTINUOUS
 10
11.8865492847
 20
-6.7915122803
 11
11.8900685325
 21
-6.7879930325
  0
LINE
  5
69D
100
AcDbEntity
  8
CURVE
100
AcDbLine
 62
7
  6
CONTINUOUS
 10
11.8865492847
 20
-7.0015229943
 11
11.8900685325
 21
-6.9980037465
  0
LINE
  5
69E
100
AcDbEntity
  8
CURVE
100
AcDbLine
 62
7
  6
CONTINUOUS
 10
11.9144397759
 20
-6.9736325031
 11
11.9179590237
 21
-6.9701132553
  0
LINE
  5
69F
100
AcDbEntity
  8
CURVE
100
AcDbLine
 62
7
  6
CONTINUOUS
 10
11.9009341767
 20
-6.9871381023
 11
11.9044537212
 21
-6.9836185578
  0
LINE
  5
6A0
100
AcDbEntity
  8
CURVE
100
AcDbLine
 62
7
  6
CONTINUOUS
 10
11.9126788468
 20
-7.3954148602
 11
11.9179589364
 21
-7.3901347706
  0
LINE
  5
6A1
100
AcDbEntity
  8
CURVE
100
AcDbLine
 62
7
  6
CONTINUOUS
 10
11.9017555558
 20
-7.6163488652
 11
11.9150576962
 21
-7.6030467248
  0
LINE
  5
6A2
100
AcDbEntity
  8
CURVE
100
AcDbLine
 62
7
  6
CONTINUOUS
 10
11.8908322647
 20
-7.8372828703
 11
11.9033171799
 21
-7.8247979552
  0
LINE
  5
6A3
100
AcDbEntity
  8
CURVE
100
AcDbLine
 62
7
  6
CONTINUOUS
 10
11.8865491975
 20
-8.0515766516
 11
11.8915766635
 21
-8.0465491856
  0
LINE
  5
6A4
100
AcDbEntity
  8
CURVE
100
AcDbLine
 62
7
  6
CONTINUOUS
 10
11.8896080381
 20
-8.2585285249
 11
11.9001840686
 21
-8.2479524944
  0
LINE
  5
6A5
100
AcDbEntity
  8
CURVE
100
AcDbLine
 62
7
  6
CONTINUOUS
 10
11.899427447
 20
-8.4587198301
 11
11.9106476059
 21
-8.4474996712
  0
LINE
  5
6A6
100
AcDbEntity
  8
CURVE
100
AcDbLine
 62
7
  6
CONTINUOUS
 10
11.9092468558
 20
-8.6589111353
 11
11.9179589364
 21
-8.6501990546
  0
LINE
  5
6A7
100
AcDbEntity
  8
RACCORDO
100
AcDbLine
 62
250
  6
CONTINUOUS
 10
-9.9162414635
 20
-17.0643546451
 11
-9.9426253515
 21
-17.0730014938
  0
LINE
  5
6A8
100
AcDbEntity
  8
0
100
AcDbLine
 62
7
  6
CONTINUOUS
 10
7.000508
 20
-12.872047
 11
8.900354
 21
-12.289127
  0
LINE
  5
6A9
100
AcDbEntity
  8
ASSI
100
AcDbLine
 62
7
  6
CONTINUOUS
 10
7.000508
 20
-12.872047
 11
8.900354
 21
-12.289127
  0
LWPOLYLINE
  5
6AA
100
AcDbEntity
  8
RACCORDO
100
AcDbPolyline
 62
250
  6
CONTINUOUS
 90
7
 70
0
 10
7.4544089061
 20
12.55
 10
7.470623773
 20
12.5501968793
 10
7.4867254327
 20
12.5507635335
 10
7.5027138852
 20
12.5516999626
 10
7.5185891306
 20
12.5530061664
 10
7.5343511689
 20
12.5546821451
 10
7.55
 20
12.5567278987
  0
LINE
  5
6AB
100
AcDbEntity
  8
RACCORDO
100
AcDbLine
 62
250
  6
CONTINUOUS
 10
0.6455910939
 20
12.55
 11
3.4835751963
 21
12.55
  0
LINE
  5
6AC
100
AcDbEntity
  8
RACCORDO
100
AcDbLine
 62
250
  6
CONTINUOUS
 10
4.5164248037
 20
12.55
 11
7.4544089061
 21
12.55
  0
LINE
  5
6AD
100
AcDbEntity
  8
RACCORDO
100
AcDbLine
 62
250
  6
CONTINUOUS
 10
7.9843104223
 20
12.556714473
 11
7.55
 21
12.556714473
  0
LINE
  5
6AE
100
AcDbEntity
  8
RACCORDO
100
AcDbLine
 62
250
  6
CONTINUOUS
 10
0.55
 20
12.556714473
 11
0.05
 21
12.556714473
  0
LINE
  5
6AF
100
AcDbEntity
  8
0
100
AcDbLine
 62
250
  6
CONTINUOUS
 10
11.6763973891
 20
12.656927
 11
11.6801931828
 21
12.656927
  0
LINE
  5
6B0
100
AcDbEntity
  8
0
100
AcDbLine
 62
250
  6
CONTINUOUS
 10
11.6534732344
 20
12.71193
 11
11.6572366015
 21
12.71193
  0
LINE
  5
6B1
100
AcDbEntity
  8
CURVE
100
AcDbLine
 62
250
  6
CONTINUOUS
 10
11.8619530107
 20
12.75
 11
11.8507353152
 21
12.75
  0
LINE
  5
6B2
100
AcDbEntity
  8
0
100
AcDbLine
 62
250
  6
CONTINUOUS
 10
11.7119914287
 20
12.7714285493
 11
11.7346830131
 21
12.7714285493
  0
LINE
  5
6B3
100
AcDbEntity
  8
CURVE
100
AcDbLine
 62
250
  6
CONTINUOUS
 10
11.7821827321
 20
12.7857143283
 11
11.7709650374
 21
12.7857143283
  0
LINE
  5
6B4
100
AcDbEntity
  8
0
100
AcDbLine
 62
250
  6
CONTINUOUS
 10
11.6130046816
 20
13.100497
 11
11.6095761912
 21
13.100497
  0
LINE
  5
6B5
100
AcDbEntity
  8
CURVE
100
AcDbLine
 62
250
  6
CONTINUOUS
 10
11.8544745468
 20
13.178571403
 11
11.8451264673
 21
13.178571403
  0
LINE
  5
6B6
100
AcDbEntity
  8
0
100
AcDbLine
 62
250
  6
CONTINUOUS
 10
11.6785705627
 20
13.18241
 11
11.671683529
 21
13.18241
  0
LINE
  5
6B7
100
AcDbEntity
  8
CURVE
100
AcDbLine
 62
250
  6
CONTINUOUS
 10
11.8656922423
 20
13.2142857313
 11
11.8600833942
 21
13.2142857313
  0
LINE
  5
6B8
100
AcDbEntity
  8
CURVE
100
AcDbLine
 62
250
  6
CONTINUOUS
 10
11.7560081096
 20
13.2142857313
 11
11.7821827321
 21
13.2142857313
  0
LINE
  5
6B9
100
AcDbEntity
  8
0
100
AcDbLine
 62
250
  6
CONTINUOUS
 10
11.6095761912
 20
13.218117
 11
11.6130046816
 21
13.218117
  0
LINE
  5
6BA
100
AcDbEntity
  8
0
100
AcDbLine
 62
250
  6
CONTINUOUS
 10
11.671683529
 20
13.281784
 11
11.6785705627
 21
13.281784
  0
LINE
  5
6BB
100
AcDbEntity
  8
ASSI
100
AcDbLine
 62
7
  6
CONTINUOUS
 10
1.0102631693
 20
13.55
 11
3.2761847246
 21
13.55
  0
LINE
  5
6BC
100
AcDbEntity
  8
ASSI
100
AcDbLine
 62
7
  6
CONTINUOUS
 10
4.7238152754
 20
13.55
 11
7.0897368307
 21
13.55
  0
LINE
  5
6BD
100
AcDbEntity
  8
0
100
AcDbLine
 62
7
  6
CONTINUOUS
 10
0.6404509284
 20
14.05
 11
2.8595490716
 21
14.05
  0
LINE
  5
6BE
100
AcDbEntity
  8
0
100
AcDbLine
 62
7
  6
CONTINUOUS
 10
5.1404509284
 20
14.05
 11
7.3595490716
 21
14.05
  0
LWPOLYLINE
  5
6BF
100
AcDbEntity
  8
RACCORDO
100
AcDbPolyline
 62
250
  6
CONTINUOUS
 90
7
 70
0
 10
0.55
 20
12.5567278987
 10
0.5656488311
 20
12.5546821451
 10
0.5814108694
 20
12.5530061664
 10
0.5972861148
 20
12.5516999626
 10
0.6132745673
 20
12.5507635335
 10
0.629376227
 20
12.5501968793
 10
0.6455910939
 20
12.55
  0
LINE
  5
6C0
100
AcDbEntity
  8
RACCORDO
100
AcDbLine
 62
250
  6
CONTINUOUS
 10
-9.9162414635
 20
17.0643546451
 11
-9.9426253515
 21
17.0730014938
  0
LINE
  5
6C1
100
AcDbEntity
  8
DRAFT
100
AcDbLine
 62
7
  6
CONTINUOUS
 10
6.5306392332
 20
16.9868210911
 11
6.4999048077
 21
17.048294624
  0
LINE
  5
6C2
100
AcDbEntity
  8
ASSI
100
AcDbLine
 62
7
  6
CONTINUOUS
 10
6.5306392332
 20
16.9868210911
 11
6.4999048077
 21
17.048294624
  0
LINE
  5
6C3
100
AcDbEntity
  8
RACCORDO
100
AcDbLine
 62
250
  6
CONTINUOUS
 10
6.5480929688
 20
17.4519109555
 11
6.4999145275
 21
17.5482751771
  0
LINE
  5
6C4
100
AcDbEntity
  8
ASSI
100
AcDbLine
 62
250
  6
CONTINUOUS
 10
6.5480929688
 20
17.4519109555
 11
6.4999145275
 21
17.5482751771
  0
LINE
  5
6C5
100
AcDbEntity
  8
0
100
AcDbLine
 62
250
  6
CONTINUOUS
 10
11.6206513487
 20
11.619407
 11
11.6712005489
 21
11.3501723524
  0
LINE
  5
6C6
100
AcDbEntity
  8
RACCORDO
100
AcDbLine
 62
250
  6
CONTINUOUS
 10
11.0282587846
 20
-18.1595749722
 11
11.0017445951
 21
-18.2308351883
  0
LINE
  5
6C7
100
AcDbEntity
  8
CURVE
100
AcDbLine
 62
7
  6
CONTINUOUS
 10
11.8865492847
 20
-9.3116408484
 11
11.9179590237
 21
-9.2802311094
  0
LINE
  5
6C8
100
AcDbEntity
  8
CURVE
100
AcDbLine
 62
7
  6
CONTINUOUS
 10
11.8865492847
 20
-9.5216515624
 11
11.8900685325
 21
-9.5181323146
  0
LINE
  5
6C9
100
AcDbEntity
  8
CURVE
100
AcDbLine
 62
7
  6
CONTINUOUS
 10
11.9144397759
 20
-9.4937610712
 11
11.9179590237
 21
-9.4902418234
  0
LINE
  5
6CA
100
AcDbEntity
  8
CURVE
100
AcDbLine
 62
7
  6
CONTINUOUS
 10
11.9009341767
 20
-9.5072666704
 11
11.9044537212
 21
-9.503747126
  0
LINE
  5
6CB
100
AcDbEntity
  8
CURVE
100
AcDbLine
 62
7
  6
CONTINUOUS
 10
11.9144397759
 20
-9.7037717852
 11
11.9179590237
 21
-9.7002525375
  0
LINE
  5
6CC
100
AcDbEntity
  8
CURVE
100
AcDbLine
 62
7
  6
CONTINUOUS
 10
11.9009341767
 20
-9.7172773844
 11
11.9044537212
 21
-9.71375784
  0
LINE
  5
6CD
100
AcDbEntity
  8
CURVE
100
AcDbLine
 62
7
  6
CONTINUOUS
 10
11.8865492847
 20
-9.7316622764
 11
11.8900685325
 21
-9.7281430286
  0
LINE
  5
6CE
100
AcDbEntity
  8
CURVE
100
AcDbLine
 62
7
  6
CONTINUOUS
 10
11.8865492847
 20
-9.9416729904
 11
11.8900685325
 21
-9.9381537426
  0
LINE
  5
6CF
100
AcDbEntity
  8
CURVE
100
AcDbLine
 62
7
  6
CONTINUOUS
 10
11.9144397759
 20
-9.9137824993
 11
11.9179590237
 21
-9.9102632515
  0
LINE
  5
6D0
100
AcDbEntity
  8
CURVE
100
AcDbLine
 62
7
  6
CONTINUOUS
 10
11.9009341767
 20
-9.9272880984
 11
11.9044537212
 21
-9.923768554
  0
LINE
  5
6D1
100
AcDbEntity
  8
CURVE
100
AcDbLine
 62
7
  6
CONTINUOUS
 10
11.9144397759
 20
-10.1237932133
 11
11.9179590237
 21
-10.1202739655
  0
LINE
  5
6D2
100
AcDbEntity
  8
CURVE
100
AcDbLine
 62
7
  6
CONTINUOUS
 10
11.9009341767
 20
-10.1372988125
 11
11.9044537212
 21
-10.133779268
  0
LINE
  5
6D3
100
AcDbEntity
  8
CURVE
100
AcDbLine
 62
7
  6
CONTINUOUS
 10
11.8865492847
 20
-10.1516837045
 11
11.8900685325
 21
-10.1481644567
  0
LINE
  5
6D4
100
AcDbEntity
  8
CURVE
100
AcDbLine
 62
7
  6
CONTINUOUS
 10
11.8865492847
 20
-10.3616944185
 11
11.8900685325
 21
-10.3581751707
  0
LINE
  5
6D5
100
AcDbEntity
  8
CURVE
100
AcDbLine
 62
7
  6
CONTINUOUS
 10
11.9144397759
 20
-10.3338039273
 11
11.9179590237
 21
-10.3302846795
  0
LINE
  5
6D6
100
AcDbEntity
  8
CURVE
100
AcDbLine
 62
7
  6
CONTINUOUS
 10
11.8887544783
 20
-11.1995320809
 11
11.8922712682
 21
-11.196015291
  0
LINE
  5
6D7
100
AcDbEntity
  8
CURVE
100
AcDbLine
 62
7
  6
CONTINUOUS
 10
11.8864805053
 20
-11.4118167679
 11
11.8884532186
 21
-11.4098440547
  0
LWPOLYLINE
  5
6D8
100
AcDbEntity
  8
0
100
AcDbPolyline
 62
7
  6
CONTINUOUS
 90
4
 70
0
 10
7.8067533534
 20
-14.1122083873
 10
7.8409870136
 20
-14.0790096016
 10
7.869971609
 20
-14.0415529424
 10
7.8937071395
 20
-13.9998384098
  0
LWPOLYLINE
  5
6D9
100
AcDbEntity
  8
ASSI
100
AcDbPolyline
 62
7
  6
CONTINUOUS
 90
4
 70
0
 10
7.8067533534
 20
-14.1122083873
 10
7.8409870136
 20
-14.0790096016
 10
7.869971609
 20
-14.0415529424
 10
7.8937071395
 20
-13.9998384098
  0
LWPOLYLINE
  5
6DA
100
AcDbEntity
  8
0
100
AcDbPolyline
 62
7
  6
CONTINUOUS
 90
3
 70
0
 10
7.6627296028
 20
-13.7645589251
 10
7.6368875099
 20
-13.784879802
 10
7.6081788054
 20
-13.802480446
  0
LWPOLYLINE
  5
6DB
100
AcDbEntity
  8
ASSI
100
AcDbPolyline
 62
7
  6
CONTINUOUS
 90
3
 70
0
 10
7.6627296028
 20
-13.7645589251
 10
7.6368875099
 20
-13.784879802
 10
7.6081788054
 20
-13.802480446
  0
LINE
  5
6DC
100
AcDbEntity
  8
0
100
AcDbLine
 62
7
  6
CONTINUOUS
 10
7.6081788054
 20
-13.802480446
 11
7.5766034892
 21
-13.817360857
  0
LINE
  5
6DD
100
AcDbEntity
  8
ASSI
100
AcDbLine
 62
7
  6
CONTINUOUS
 10
7.6081788054
 20
-13.802480446
 11
7.5766034892
 21
-13.817360857
  0
LWPOLYLINE
  5
6DE
100
AcDbEntity
  8
CURVE
100
AcDbPolyline
 62
250
  6
CONTINUOUS
 90
19
 70
0
 10
11.8991251766
 20
-11.0085272007
 10
11.8987019328
 20
-11.0086952935
 10
11.8982750368
 20
-11.0092173276
 10
11.8978451949
 20
-11.0101199369
 10
11.8974131131
 20
-11.0114297554
 10
11.8969794975
 20
-11.013173417
 10
11.8965450543
 20
-11.0153775554
 10
11.8961104897
 20
-11.0180688046
 10
11.8956765096
 20
-11.0212737985
 10
11.8952438204
 20
-11.0250191709
 10
11.894813128
 20
-11.0293315558
 10
11.8943851386
 20
-11.0342375869
 10
11.8939605584
 20
-11.0397638982
 10
11.8935400935
 20
-11.0459371236
 10
11.89312445
 20
-11.052783897
 10
11.8927143341
 20
-11.0603308521
 10
11.8923104518
 20
-11.068604623
 10
11.8919135092
 20
-11.0776318435
 10
11.8911432681
 20
-11.0980531687
  0
LWPOLYLINE
  5
6DF
100
AcDbEntity
  8
0
100
AcDbPolyline
 62
7
  6
CONTINUOUS
 90
4
 70
0
 10
7.5766034892
 20
-13.817360857
 10
7.5150137341
 20
-13.8390037922
 10
7.4527359188
 20
-13.8598341562
 10
7.3897700432
 20
-13.8798519491
  0
LWPOLYLINE
  5
6E0
100
AcDbEntity
  8
ASSI
100
AcDbPolyline
 62
7
  6
CONTINUOUS
 90
4
 70
0
 10
7.5766034892
 20
-13.817360857
 10
7.5150137341
 20
-13.8390037922
 10
7.4527359188
 20
-13.8598341562
 10
7.3897700432
 20
-13.8798519491
  0
LINE
  5
6E1
100
AcDbEntity
  8
0
100
AcDbLine
 62
7
  6
CONTINUOUS
 10
7.3897700432
 20
-13.8798519491
 11
7.3260056442
 21
-13.8987654127
  0
LINE
  5
6E2
100
AcDbEntity
  8
ASSI
100
AcDbLine
 62
7
  6
CONTINUOUS
 10
7.3897700432
 20
-13.8798519491
 11
7.3260056442
 21
-13.8987654127
  0
LINE
  5
6E3
100
AcDbEntity
  8
CURVE
100
AcDbLine
 62
250
  6
CONTINUOUS
 10
11.8656922423
 20
14.25
 11
11.8619530107
 21
14.25
  0
LINE
  5
6E4
100
AcDbEntity
  8
CURVE
100
AcDbLine
 62
250
  6
CONTINUOUS
 10
11.8033717124
 20
14.25
 11
11.8108501759
 21
14.25
  0
LINE
  5
6E5
100
AcDbEntity
  8
CURVE
100
AcDbLine
 62
250
  6
CONTINUOUS
 10
11.7597473415
 20
14.25
 11
11.7784435005
 21
14.25
  0
LINE
  5
6E6
100
AcDbEntity
  8
0
100
AcDbLine
 62
250
  6
CONTINUOUS
 10
11.7346830131
 20
14.2571428239
 11
11.7119914287
 21
14.2571428239
  0
LINE
  5
6E7
100
AcDbEntity
  8
CURVE
100
AcDbLine
 62
250
  6
CONTINUOUS
 10
11.8164590233
 20
14.3214285672
 11
11.8220678714
 21
14.3214285672
  0
LINE
  5
6E8
100
AcDbEntity
  8
0
100
AcDbLine
 62
250
  6
CONTINUOUS
 10
11.5636233768
 20
14.592362
 11
11.5814075884
 21
14.592362
  0
LINE
  5
6E9
100
AcDbEntity
  8
RACCORDO
100
AcDbLine
 62
7
  6
CONTINUOUS
 10
1.75
 20
14.8
 11
6.25
 21
14.8
  0
LINE
  5
6EA
100
AcDbEntity
  8
ASSI
100
AcDbLine
 62
7
  6
CONTINUOUS
 10
1.75
 20
14.8
 11
6.25
 21
14.8
  0
LINE
  5
6EB
100
AcDbEntity
  8
CURVE
100
AcDbLine
 62
250
  6
CONTINUOUS
 10
11.8220678714
 20
14.9285714272
 11
11.8164590233
 21
14.9285714272
  0
LINE
  5
6EC
100
AcDbEntity
  8
RACCORDO
100
AcDbLine
 62
250
  6
CONTINUOUS
 10
-8.4692136981
 20
14.9695944602
 11
-9.4690613933
 21
14.9695944602
  0
LINE
  5
6ED
100
AcDbEntity
  8
ASSI
100
AcDbLine
 62
250
  6
CONTINUOUS
 10
-8.4692136981
 20
14.9695944602
 11
-9.4690613933
 21
14.9695944602
  0
LINE
  5
6EE
100
AcDbEntity
  8
RACCORDO
100
AcDbLine
 62
250
  6
CONTINUOUS
 10
10.4692136981
 20
14.9695944602
 11
11.4690613933
 21
14.969594292
  0
LINE
  5
6EF
100
AcDbEntity
  8
ASSI
100
AcDbLine
 62
250
  6
CONTINUOUS
 10
10.4692136981
 20
14.9695944602
 11
11.4690613933
 21
14.969594292
  0
LINE
  5
6F0
100
AcDbEntity
  8
CURVE
100
AcDbLine
 62
250
  6
CONTINUOUS
 10
11.8108501759
 20
15.0
 11
11.8033717124
 21
15.0
  0
LINE
  5
6F1
100
AcDbEntity
  8
CURVE
100
AcDbLine
 62
250
  6
CONTINUOUS
 10
11.7821827321
 20
15.0
 11
11.7560081096
 21
15.0
  0
LINE
  5
6F2
100
AcDbEntity
  8
0
100
AcDbLine
 62
250
  6
CONTINUOUS
 10
11.7119914287
 20
15.0
 11
11.7346830131
 21
15.0
  0
LINE
  5
6F3
100
AcDbEntity
  8
RACCORDO
100
AcDbLine
 62
250
  6
CONTINUOUS
 10
1.75
 20
15.1
 11
6.25
 21
15.1
  0
LINE
  5
6F4
100
AcDbEntity
  8
ASSI
100
AcDbLine
 62
250
  6
CONTINUOUS
 10
1.75
 20
15.1
 11
6.25
 21
15.1
  0
LINE
  5
6F5
100
AcDbEntity
  8
RACCORDO
100
AcDbLine
 62
250
  6
CONTINUOUS
 10
6.25
 20
15.4034453146
 11
1.75
 21
15.4034453146
  0
LINE
  5
6F6
100
AcDbEntity
  8
ASSI
100
AcDbLine
 62
250
  6
CONTINUOUS
 10
6.25
 20
15.4034453146
 11
1.75
 21
15.4034453146
  0
LINE
  5
6F7
100
AcDbEntity
  8
RACCORDO
100
AcDbLine
 62
7
  6
CONTINUOUS
 10
6.25
 20
15.7033996231
 11
1.75
 21
15.7033996231
  0
LINE
  5
6F8
100
AcDbEntity
  8
ASSI
100
AcDbLine
 62
7
  6
CONTINUOUS
 10
6.25
 20
15.7033996231
 11
1.75
 21
15.7033996231
  0
LINE
  5
6F9
100
AcDbEntity
  8
RACCORDO
100
AcDbLine
 62
250
  6
CONTINUOUS
 10
7.5394041794
 20
18.4690613933
 11
7.4998667307
 21
18.5481423133
  0
LINE
  5
6FA
100
AcDbEntity
  8
ASSI
100
AcDbLine
 62
250
  6
CONTINUOUS
 10
7.5394041794
 20
18.4690613933
 11
7.4998667307
 21
18.5481423133
  0
LINE
  5
6FB
100
AcDbEntity
  8
RACCORDO
100
AcDbLine
 62
250
  6
CONTINUOUS
 10
11.0017445951
 20
18.2308351883
 11
11.0282587846
 21
18.1595749722
  0
LINE
  5
6FC
100
AcDbEntity
  8
CURVE
100
AcDbLine
 62
7
  6
CONTINUOUS
 10
11.8858018372
 20
-11.62250615
 11
11.8874925105
 21
-11.6208154768
  0
LINE
  5
6FD
100
AcDbEntity
  8
CURVE
100
AcDbLine
 62
7
  6
CONTINUOUS
 10
11.8859294374
 20
-11.8323892638
 11
11.8876253723
 21
-11.8306933289
  0
LINE
  5
6FE
100
AcDbEntity
  8
CURVE
100
AcDbLine
 62
7
  6
CONTINUOUS
 10
11.8869717581
 20
-12.0413576572
 11
11.8889715689
 21
-12.0393578464
  0
LINE
  5
6FF
100
AcDbEntity
  8
CURVE
100
AcDbLine
 62
7
  6
CONTINUOUS
 10
11.8898827245
 20
-12.2484574048
 11
11.8941330853
 21
-12.244207044
  0
LINE
  5
700
100
AcDbEntity
  8
CURVE
100
AcDbLine
 62
7
  6
CONTINUOUS
 10
11.9163134032
 20
-12.8520588681
 11
11.9179883149
 21
-12.8503839565
  0
LINE
  5
701
100
AcDbEntity
  8
CURVE
100
AcDbLine
 62
7
  6
CONTINUOUS
 10
11.9005355936
 20
-12.8678366777
 11
11.9022105053
 21
-12.8661617661
  0
LINE
  5
702
100
AcDbEntity
  8
CURVE
100
AcDbLine
 62
7
  6
CONTINUOUS
 10
11.9163134032
 20
-13.0620695821
 11
11.9179883149
 21
-13.0603946705
  0
LINE
  5
703
100
AcDbEntity
  8
CURVE
100
AcDbLine
 62
7
  6
CONTINUOUS
 10
11.9005355936
 20
-13.0778473917
 11
11.9022105053
 21
-13.0761724801
  0
LINE
  5
704
100
AcDbEntity
  8
CURVE
100
AcDbLine
 62
7
  6
CONTINUOUS
 10
11.9163134032
 20
-13.2720802961
 11
11.9179883149
 21
-13.2704053845
  0
LINE
  5
705
100
AcDbEntity
  8
CURVE
100
AcDbLine
 62
7
  6
CONTINUOUS
 10
11.9005355936
 20
-13.2878581057
 11
11.9022105053
 21
-13.2861831941
  0
LINE
  5
706
100
AcDbEntity
  8
CURVE
100
AcDbLine
 62
7
  6
CONTINUOUS
 10
11.9163053553
 20
-13.4820990581
 11
11.9179846861
 21
-13.4804197273
  0
LINE
  5
707
100
AcDbEntity
  8
CURVE
100
AcDbLine
 62
7
  6
CONTINUOUS
 10
11.9005738754
 20
-13.497830538
 11
11.9022410909
 21
-13.4961633225
  0
LINE
  5
708
100
AcDbEntity
  8
CURVE
100
AcDbLine
 62
7
  6
CONTINUOUS
 10
11.9154354891
 20
-13.6929796383
 11
11.917405619
 21
-13.6910095084
  0
LINE
  5
709
100
AcDbEntity
  8
CURVE
100
AcDbLine
 62
7
  6
CONTINUOUS
 10
11.9012890525
 20
-13.7071260748
 11
11.903293364
 21
-13.7051217634
  0
LINE
  5
70A
100
AcDbEntity
  8
CURVE
100
AcDbLine
 62
7
  6
CONTINUOUS
 10
11.9041649881
 20
-13.9142608533
 11
11.914877968
 21
-13.9035478734
  0
LWPOLYLINE
  5
70B
100
AcDbEntity
  8
CURVE
100
AcDbPolyline
 62
250
  6
CONTINUOUS
 90
16
 70
0
 10
11.9091742649
 20
-13.9987326445
 10
11.9094514038
 20
-13.9986011026
 10
11.9097289224
 20
-13.9981917589
 10
11.9100065739
 20
-13.9974825367
 10
11.9102841109
 20
-13.9964513592
 10
11.9105612866
 20
-13.9950761494
 10
11.9108378537
 20
-13.9933348307
 10
11.9111135652
 20
-13.9912053261
 10
11.9113881741
 20
-13.9886655589
 10
11.9116614333
 20
-13.9856934522
 10
11.9119330956
 20
-13.9822669293
 10
11.912202914
 20
-13.9783639132
 10
11.9124706414
 20
-13.9739623273
 10
11.9127360308
 20
-13.9690400946
 10
11.9129624858
 20
-13.9643701229
 10
11.9134083647
 20
-13.9538384799
  0
LINE
  5
70C
100
AcDbEntity
  8
DRAFT
100
AcDbLine
 62
7
  6
CONTINUOUS
 10
1.4519070312
 20
16.9519109613
 11
6.5480929688
 21
16.9519109613
  0
LINE
  5
70D
100
AcDbEntity
  8
ASSI
100
AcDbLine
 62
7
  6
CONTINUOUS
 10
1.4519070312
 20
16.9519109613
 11
6.5480929688
 21
16.9519109613
  0
LINE
  5
70E
100
AcDbEntity
  8
DRAFT
100
AcDbLine
 62
7
  6
CONTINUOUS
 10
1.4693607668
 20
16.9868210911
 11
6.5306392332
 21
16.9868210911
  0
LINE
  5
70F
100
AcDbEntity
  8
ASSI
100
AcDbLine
 62
7
  6
CONTINUOUS
 10
1.4693607668
 20
16.9868210911
 11
6.5306392332
 21
16.9868210911
  0
LINE
  5
710
100
AcDbEntity
  8
RACCORDO
100
AcDbLine
 62
250
  6
CONTINUOUS
 10
7.9695944602
 20
17.4692136981
 11
6.5480929688
 21
17.4692136981
  0
LINE
  5
711
100
AcDbEntity
  8
ASSI
100
AcDbLine
 62
250
  6
CONTINUOUS
 10
7.9695944602
 20
17.4692136981
 11
6.5480929688
 21
17.4692136981
  0
LINE
  5
712
100
AcDbEntity
  8
RACCORDO
100
AcDbLine
 62
250
  6
CONTINUOUS
 10
1.4519070312
 20
17.4692136981
 11
-5.9695944602
 21
17.4692136981
  0
LINE
  5
713
100
AcDbEntity
  8
ASSI
100
AcDbLine
 62
250
  6
CONTINUOUS
 10
1.4519070312
 20
17.4692136981
 11
-5.9695944602
 21
17.4692136981
  0
LWPOLYLINE
  5
714
100
AcDbEntity
  8
RACCORDO
100
AcDbPolyline
 62
7
  6
CONTINUOUS
 90
10
 70
0
 10
11.9162414635
 20
-17.0643546451
 10
11.9586823142
 20
-17.0048682175
 10
11.9964088005
 20
-16.942926065
 10
12.0294209226
 20
-16.8785281876
 10
12.0578918137
 20
-16.8111610595
 10
12.0816483406
 20
-16.7413382064
 10
12.1001711029
 20
-16.6706002061
 10
12.1132869673
 20
-16.5994605841
 10
12.1211690672
 20
-16.5274058148
 10
12.1238174026
 20
-16.4544358981
  0
LINE
  5
715
100
AcDbEntity
  8
DRAFT
100
AcDbLine
 62
7
  6
CONTINUOUS
 10
5.25
 20
18.9685808831
 11
5.5673885653
 21
19.0
  0
LINE
  5
716
100
AcDbEntity
  8
ASSI
100
AcDbLine
 62
7
  6
CONTINUOUS
 10
5.25
 20
18.9685808831
 11
5.5673885653
 21
19.0
  0
LWPOLYLINE
  5
717
100
AcDbEntity
  8
RACCORDO
100
AcDbPolyline
 62
7
  6
CONTINUOUS
 90
13
 70
0
 10
7.5394041794
 20
18.4690613933
 10
7.4293150794
 20
18.4612929786
 10
7.3211160643
 20
18.4412265319
 10
7.2148071342
 20
18.4082265337
 10
7.1087537079
 20
18.3620993925
 10
7.0045903665
 20
18.3024710806
 10
6.9072208533
 20
18.2282319151
 10
6.8155904413
 20
18.1395079501
 10
6.7307538574
 20
18.0363109273
 10
6.6607790258
 20
17.9167382214
 10
6.6083552545
 20
17.7806311137
 10
6.5707932355
 20
17.6305249554
 10
6.5480929688
 20
17.4692136981
  0
LWPOLYLINE
  5
718
100
AcDbEntity
  8
ASSI
100
AcDbPolyline
 62
7
  6
CONTINUOUS
 90
13
 70
0
 10
7.5394041794
 20
18.4690613933
 10
7.4293150794
 20
18.4612929786
 10
7.3211160643
 20
18.4412265319
 10
7.2148071342
 20
18.4082265337
 10
7.1087537079
 20
18.3620993925
 10
7.0045903665
 20
18.3024710806
 10
6.9072208533
 20
18.2282319151
 10
6.8155904413
 20
18.1395079501
 10
6.7307538574
 20
18.0363109273
 10
6.6607790258
 20
17.9167382214
 10
6.6083552545
 20
17.7806311137
 10
6.5707932355
 20
17.6305249554
 10
6.5480929688
 20
17.4692136981
  0
LWPOLYLINE
  5
719
100
AcDbEntity
  8
RACCORDO
100
AcDbPolyline
 62
250
  6
CONTINUOUS
 90
16
 70
0
 10
-5.9695944602
 20
17.4692136981
 10
-6.2350138258
 20
17.4544904255
 10
-6.492260031
 20
17.4138026276
 10
-6.7413330759
 20
17.3471503046
 10
-6.9848433908
 20
17.2532612371
 10
-7.2201805453
 20
17.1334076444
 10
-7.4395132484
 20
16.9914061845
 10
-7.6423020623
 20
16.8264088109
 10
-7.8290864248
 20
16.6392635701
 10
-7.9936533579
 20
16.4363312601
 10
-8.1351485089
 20
16.2171520018
 10
-8.2544262304
 20
15.9821856743
 10
-8.3478366022
 20
15.7391727129
 10
-8.414162984
 20
15.4906932626
 10
-8.454622016
 20
15.2341671784
 10
-8.4692136981
 20
14.9695944602
  0
LWPOLYLINE
  5
71A
100
AcDbEntity
  8
ASSI
100
AcDbPolyline
 62
250
  6
CONTINUOUS
 90
16
 70
0
 10
-5.9695944602
 20
17.4692136981
 10
-6.2350138258
 20
17.4544904255
 10
-6.492260031
 20
17.4138026276
 10
-6.7413330759
 20
17.3471503046
 10
-6.9848433908
 20
17.2532612371
 10
-7.2201805453
 20
17.1334076444
 10
-7.4395132484
 20
16.9914061845
 10
-7.6423020623
 20
16.8264088109
 10
-7.8290864248
 20
16.6392635701
 10
-7.9936533579
 20
16.4363312601
 10
-8.1351485089
 20
16.2171520018
 10
-8.2544262304
 20
15.9821856743
 10
-8.3478366022
 20
15.7391727129
 10
-8.414162984
 20
15.4906932626
 10
-8.454622016
 20
15.2341671784
 10
-8.4692136981
 20
14.9695944602
  0
LWPOLYLINE
  5
71B
100
AcDbEntity
  8
RACCORDO
100
AcDbPolyline
 62
250
  6
CONTINUOUS
 90
16
 70
0
 10
-5.9695944602
 20
18.4690613933
 10
-6.3360287188
 20
18.4497965857
 10
-6.6982634036
 20
18.39230907
 10
-7.052330015
 20
18.2972822772
 10
-7.3942822211
 20
18.1658441409
 10
-7.7204747182
 20
17.9994658399
 10
-8.027563741
 20
17.7998660408
 10
-8.3122832989
 20
17.5691075814
 10
-8.5713654779
 20
17.3097754134
 10
-8.8018330235
 20
17.0248558199
 10
-9.0011595247
 20
16.7175404922
 10
-9.1672274125
 20
16.3911748523
 10
-9.2982396352
 20
16.0493834983
 10
-9.3928044114
 20
15.6959334563
 10
-9.4499377401
 20
15.3346868217
 10
-9.4690613933
 20
14.9695944602
  0
LWPOLYLINE
  5
71C
100
AcDbEntity
  8
ASSI
100
AcDbPolyline
 62
250
  6
CONTINUOUS
 90
16
 70
0
 10
-5.9695944602
 20
18.4690613933
 10
-6.3360287188
 20
18.4497965857
 10
-6.6982634036
 20
18.39230907
 10
-7.052330015
 20
18.2972822772
 10
-7.3942822211
 20
18.1658441409
 10
-7.7204747182
 20
17.9994658399
 10
-8.027563741
 20
17.7998660408
 10
-8.3122832989
 20
17.5691075814
 10
-8.5713654779
 20
17.3097754134
 10
-8.8018330235
 20
17.0248558199
 10
-9.0011595247
 20
16.7175404922
 10
-9.1672274125
 20
16.3911748523
 10
-9.2982396352
 20
16.0493834983
 10
-9.3928044114
 20
15.6959334563
 10
-9.4499377401
 20
15.3346868217
 10
-9.4690613933
 20
14.9695944602
  0
LINE
  5
71D
100
AcDbEntity
  8
DRAFT
100
AcDbLine
 62
7
  6
CONTINUOUS
 10
-2.2635064284
 20
19.0360211209
 11
-2.5699041346
 21
19.0208965595
  0
LINE
  5
71E
100
AcDbEntity
  8
RACCORDO
100
AcDbLine
 62
250
  6
CONTINUOUS
 10
7.9695944602
 20
18.4690613933
 11
7.5394041794
 21
18.4690613933
  0
LINE
  5
71F
100
AcDbEntity
  8
ASSI
100
AcDbLine
 62
250
  6
CONTINUOUS
 10
7.9695944602
 20
18.4690613933
 11
7.5394041794
 21
18.4690613933
  0
LINE
  5
720
100
AcDbEntity
  8
RACCORDO
100
AcDbLine
 62
250
  6
CONTINUOUS
 10
0.4605958206
 20
18.4690613933
 11
-5.9695944602
 21
18.4690613933
  0
LINE
  5
721
100
AcDbEntity
  8
ASSI
100
AcDbLine
 62
250
  6
CONTINUOUS
 10
0.4605958206
 20
18.4690613933
 11
-5.9695944602
 21
18.4690613933
  0
LINE
  5
722
100
AcDbEntity
  8
RACCORDO
100
AcDbLine
 62
7
  6
CONTINUOUS
 10
-0.4669721784
 20
18.9185155063
 11
2.4669721784
 21
18.9185155063
  0
LINE
  5
723
100
AcDbEntity
  8
ASSI
100
AcDbLine
 62
7
  6
CONTINUOUS
 10
-0.4669721784
 20
18.9185155063
 11
2.4669721784
 21
18.9185155063
  0
LINE
  5
724
100
AcDbEntity
  8
DRAFT
100
AcDbLine
 62
7
  6
CONTINUOUS
 10
-3.25
 20
18.9685808831
 11
-1.5
 21
18.9685808831
  0
LINE
  5
725
100
AcDbEntity
  8
ASSI
100
AcDbLine
 62
7
  6
CONTINUOUS
 10
-3.25
 20
18.9685808831
 11
-1.5
 21
18.9685808831
  0
LINE
  5
726
100
AcDbEntity
  8
DRAFT
100
AcDbLine
 62
7
  6
CONTINUOUS
 10
3.5
 20
18.9685808831
 11
5.25
 21
18.9685808831
  0
LINE
  5
727
100
AcDbEntity
  8
ASSI
100
AcDbLine
 62
7
  6
CONTINUOUS
 10
3.5
 20
18.9685808831
 11
5.25
 21
18.9685808831
  0
LINE
  5
728
100
AcDbEntity
  8
DRAFT
100
AcDbLine
 62
7
  6
CONTINUOUS
 10
-1.7295886809
 20
18.9904395897
 11
-1.5
 21
18.9904395897
  0
LINE
  5
729
100
AcDbEntity
  8
DRAFT
100
AcDbLine
 62
7
  6
CONTINUOUS
 10
3.5
 20
18.9904395897
 11
3.7295886809
 21
18.9904395897
  0
LINE
  5
72A
100
AcDbEntity
  8
RACCORDO
100
AcDbLine
 62
7
  6
CONTINUOUS
 10
8.500533067
 20
19.0
 11
5.5673885653
 21
19.0
  0
LINE
  5
72B
100
AcDbEntity
  8
ASSI
100
AcDbLine
 62
7
  6
CONTINUOUS
 10
8.500533067
 20
19.0
 11
5.5673885653
 21
19.0
  0
LINE
  5
72C
100
AcDbEntity
  8
RACCORDO
100
AcDbLine
 62
7
  6
CONTINUOUS
 10
-6.500533067
 20
19.0
 11
-3.5673885653
 21
19.0
  0
LINE
  5
72D
100
AcDbEntity
  8
ASSI
100
AcDbLine
 62
7
  6
CONTINUOUS
 10
-6.500533067
 20
19.0
 11
-3.5673885653
 21
19.0
  0
LINE
  5
72E
100
AcDbEntity
  8
DRAFT
100
AcDbLine
 62
7
  6
CONTINUOUS
 10
-3.2127354653
 20
19.0165591163
 11
-2.7025132132
 21
19.0165591163
  0
LINE
  5
72F
100
AcDbEntity
  8
DRAFT
100
AcDbLine
 62
7
  6
CONTINUOUS
 10
4.7025132132
 20
19.0165591163
 11
5.2127354653
 21
19.0165591163
  0
LINE
  5
730
100
AcDbEntity
  8
DRAFT
100
AcDbLine
 62
7
  6
CONTINUOUS
 10
-2.5699041346
 20
19.0208965595
 11
-1.8190167476
 21
19.0208965595
  0
LINE
  5
731
100
AcDbEntity
  8
DRAFT
100
AcDbLine
 62
7
  6
CONTINUOUS
 10
3.8190167476
 20
19.0208965595
 11
4.5699041346
 21
19.0208965595
  0
LINE
  5
732
100
AcDbEntity
  8
DRAFT
100
AcDbLine
 62
7
  6
CONTINUOUS
 10
-2.2635064284
 20
19.0360211209
 11
-1.8188847576
 21
19.0360211209
  0
LINE
  5
733
100
AcDbEntity
  8
DRAFT
100
AcDbLine
 62
7
  6
CONTINUOUS
 10
3.8188847576
 20
19.0360211209
 11
4.2635064284
 21
19.0360211209
  0
LINE
  5
734
100
AcDbEntity
  8
DRAFT
100
AcDbLine
 62
7
  6
CONTINUOUS
 10
5.218841225
 20
19.0393461217
 11
4.7086189729
 21
19.0393461217
  0
LINE
  5
735
100
AcDbEntity
  8
DRAFT
100
AcDbLine
 62
7
  6
CONTINUOUS
 10
-2.7086189729
 20
19.0393461217
 11
-3.218841225
 21
19.0393461217
  0
LINE
  5
736
100
AcDbEntity
  8
DRAFT
100
AcDbLine
 62
7
  6
CONTINUOUS
 10
3.8188092697
 20
19.0446711717
 11
2.0891456037
 21
19.0446711717
  0
LINE
  5
737
100
AcDbEntity
  8
DRAFT
100
AcDbLine
 62
7
  6
CONTINUOUS
 10
-0.0891456037
 20
19.0446711717
 11
-1.8188092697
 21
19.0446711717
  0
LINE
  5
738
100
AcDbEntity
  8
DRAFT
100
AcDbLine
 62
7
  6
CONTINUOUS
 10
-1.7459745197
 20
19.0515923727
 11
0.3752820492
 21
19.0515923727
  0
LINE
  5
739
100
AcDbEntity
  8
DRAFT
100
AcDbLine
 62
7
  6
CONTINUOUS
 10
1.6247179508
 20
19.0515923727
 11
3.7459745197
 21
19.0515923727
  0
LINE
  5
73A
100
AcDbEntity
  8
DRAFT
100
AcDbLine
 62
7
  6
CONTINUOUS
 10
-5.0819690456
 20
19.0610787705
 11
0.3751164635
 21
19.0610787705
  0
LINE
  5
73B
100
AcDbEntity
  8
DRAFT
100
AcDbLine
 62
7
  6
CONTINUOUS
 10
1.6248835365
 20
19.0610787705
 11
7.0819690456
 21
19.0610787705
  0
LINE
  5
73C
100
AcDbEntity
  8
DRAFT
100
AcDbLine
 62
7
  6
CONTINUOUS
 10
-6.2195044567
 20
19.0686688326
 11
8.2195044567
 21
19.0686688326
  0
LINE
  5
73D
100
AcDbEntity
  8
DRAFT
100
AcDbLine
 62
7
  6
CONTINUOUS
 10
4.5699041346
 20
19.0208965595
 11
4.2635064284
 21
19.0360211209
  0
LWPOLYLINE
  5
73E
100
AcDbEntity
  8
RACCORDO
100
AcDbPolyline
 62
7
  6
CONTINUOUS
 90
13
 70
0
 10
0.4605958206
 20
18.4690613933
 10
0.5665576268
 20
18.4614153388
 10
0.6744834293
 20
18.4417000277
 10
0.7828733879
 20
18.4090748544
 10
0.8896270517
 20
18.3630226287
 10
0.9932755559
 20
18.3030392478
 10
1.0927628153
 20
18.2282458399
 10
1.1849013126
 20
18.1391036412
 10
1.2678088202
 20
18.035299414
 10
1.340615765
 20
17.9140109598
 10
1.3992482616
 20
17.7745041253
 10
1.437992938
 20
17.6194930523
 10
1.4519070312
 20
17.4519109555
  0
LWPOLYLINE
  5
73F
100
AcDbEntity
  8
ASSI
100
AcDbPolyline
 62
7
  6
CONTINUOUS
 90
13
 70
0
 10
0.4605958206
 20
18.4690613933
 10
0.5665576268
 20
18.4614153388
 10
0.6744834293
 20
18.4417000277
 10
0.7828733879
 20
18.4090748544
 10
0.8896270517
 20
18.3630226287
 10
0.9932755559
 20
18.3030392478
 10
1.0927628153
 20
18.2282458399
 10
1.1849013126
 20
18.1391036412
 10
1.2678088202
 20
18.035299414
 10
1.340615765
 20
17.9140109598
 10
1.3992482616
 20
17.7745041253
 10
1.437992938
 20
17.6194930523
 10
1.4519070312
 20
17.4519109555
  0
LINE
  5
740
100
AcDbEntity
  8
DRAFT
100
AcDbLine
 62
7
  6
CONTINUOUS
 10
-3.5673885653
 20
19.0
 11
-3.25
 21
18.9685808831
  0
LINE
  5
741
100
AcDbEntity
  8
ASSI
100
AcDbLine
 62
7
  6
CONTINUOUS
 10
-3.5673885653
 20
19.0
 11
-3.25
 21
18.9685808831
  0
LWPOLYLINE
  5
742
100
AcDbEntity
  8
RACCORDO
100
AcDbPolyline
 62
250
  6
CONTINUOUS
 90
25
 70
0
 10
6.4999142792
 20
17.5482681332
 10
6.4761448251
 20
17.5563924787
 10
6.4105378454
 20
17.5641249835
 10
6.3041071493
 20
17.5714656475
 10
6.1585010907
 20
17.5785265696
 10
5.976134682
 20
17.5851956509
 10
5.7602837152
 20
17.5911365951
 10
5.5147750125
 20
17.5963100654
 10
5.2436981311
 20
17.6007553984
 10
4.9515523775
 20
17.6042543074
 10
4.6432348373
 20
17.6067596978
 10
4.3240106802
 20
17.608318664
 10
3.999312601
 20
17.608854203
 10
3.674660323
 20
17.6083149995
 10
3.355532789
 20
17.6067523687
 10
3.0473033501
 20
17.6042432529
 10
2.7552273115
 20
17.6007408187
 10
2.4842169688
 20
17.5962918996
 10
2.2387620998
 20
17.5911139382
 10
2.022871282
 20
17.5851637321
 10
1.8405151056
 20
17.5784844838
 10
1.6951618193
 20
17.5714232433
 10
1.5891233194
 20
17.5640956938
 10
1.5238166809
 20
17.5563861521
 10
1.5000951923
 20
17.5482946182
  0
LWPOLYLINE
  5
743
100
AcDbEntity
  8
ASSI
100
AcDbPolyline
 62
250
  6
CONTINUOUS
 90
25
 70
0
 10
6.4999142792
 20
17.5482681332
 10
6.4761448251
 20
17.5563924787
 10
6.4105378454
 20
17.5641249835
 10
6.3041071493
 20
17.5714656475
 10
6.1585010907
 20
17.5785265696
 10
5.976134682
 20
17.5851956509
 10
5.7602837152
 20
17.5911365951
 10
5.5147750125
 20
17.5963100654
 10
5.2436981311
 20
17.6007553984
 10
4.9515523775
 20
17.6042543074
 10
4.6432348373
 20
17.6067596978
 10
4.3240106802
 20
17.608318664
 10
3.999312601
 20
17.608854203
 10
3.674660323
 20
17.6083149995
 10
3.355532789
 20
17.6067523687
 10
3.0473033501
 20
17.6042432529
 10
2.7552273115
 20
17.6007408187
 10
2.4842169688
 20
17.5962918996
 10
2.2387620998
 20
17.5911139382
 10
2.022871282
 20
17.5851637321
 10
1.8405151056
 20
17.5784844838
 10
1.6951618193
 20
17.5714232433
 10
1.5891233194
 20
17.5640956938
 10
1.5238166809
 20
17.5563861521
 10
1.5000951923
 20
17.5482946182
  0
LWPOLYLINE
  5
744
100
AcDbEntity
  8
RACCORDO
100
AcDbPolyline
 62
7
  6
CONTINUOUS
 90
10
 70
0
 10
11.9426253515
 20
17.0730014938
 10
11.9849983628
 20
17.0135840559
 10
12.0226704521
 20
16.951701972
 10
12.0556416195
 20
16.8873552421
 10
12.0840877635
 20
16.8200317504
 10
12.1078329855
 20
16.7502436126
 10
12.1263495897
 20
16.6795271765
 10
12.1394616776
 20
16.6083945578
 10
12.1473451477
 20
16.5363336408
 10
12.15
 20
16.4633444254
  0
LWPOLYLINE
  5
745
100
AcDbEntity
  8
RACCORDO
100
AcDbPolyline
 62
7
  6
CONTINUOUS
 90
15
 70
0
 10
11.001744595
 20
-18.2308351884
 10
10.9820200823
 20
-18.2505580468
 10
10.9607472828
 20
-18.267031179
 10
10.9379261963
 20
-18.2802545848
 10
10.9131034604
 20
-18.290339477
 10
10.8867324377
 20
-18.297174643
 10
10.8601732158
 20
-18.3004264446
 10
10.8334020108
 20
-18.2999124211
 10
10.8064426068
 20
-18.2958150333
 10
10.7807264436
 20
-18.2883480253
 10
10.7563231348
 20
-18.2773301624
 10
10.733163067
 20
-18.2629426793
 10
10.7124688394
 20
-18.2459430241
 10
10.6943713673
 20
-18.226212183
 10
10.6915939475
 20
-18.2222422886
  0
LINE
  5
746
100
AcDbEntity
  8
DRAFT
100
AcDbLine
 62
7
  6
CONTINUOUS
 10
8.5226756989
 20
-20.7603594806
 11
8.3830351795
 21
-20.9
  0
LINE
  5
747
100
AcDbEntity
  8
DRAFT
100
AcDbLine
 62
7
  6
CONTINUOUS
 10
8.3568525821
 20
-19.0
 11
8.2195044567
 21
-19.0686688326
  0
LINE
  5
748
100
AcDbEntity
  8
DRAFT
100
AcDbLine
 62
7
  6
CONTINUOUS
 10
4.434596365
 20
21.2139629885
 11
4.1516814075
 21
21.199923836
  0
LINE
  5
749
100
AcDbEntity
  8
DRAFT
100
AcDbLine
 62
7
  6
CONTINUOUS
 10
3.700388948
 20
21.1802222394
 11
4.0984611006
 21
21.199923836
  0
LINE
  5
74A
100
AcDbEntity
  8
DRAFT
100
AcDbLine
 62
7
  6
CONTINUOUS
 10
-6.2084845302
 20
19.7
 11
8.2084845302
 21
19.7
  0
LINE
  5
74B
100
AcDbEntity
  8
DRAFT
100
AcDbLine
 62
7
  6
CONTINUOUS
 10
8.2084845302
 20
19.9483339502
 11
-6.2084845302
 21
19.9483339502
  0
LINE
  5
74C
100
AcDbEntity
  8
DRAFT
100
AcDbLine
 62
7
  6
CONTINUOUS
 10
-8.65
 20
20.9
 11
-6.3830351795
 21
20.9
  0
LINE
  5
74D
100
AcDbEntity
  8
DRAFT
100
AcDbLine
 62
7
  6
CONTINUOUS
 10
8.3830351795
 20
20.9
 11
10.65
 21
20.9
  0
LINE
  5
74E
100
AcDbEntity
  8
DRAFT
100
AcDbLine
 62
7
  6
CONTINUOUS
 10
-2.434596365
 20
21.2139629885
 11
-2.1516814075
 21
21.199923836
  0
LINE
  5
74F
100
AcDbEntity
  8
DRAFT
100
AcDbLine
 62
7
  6
CONTINUOUS
 10
-2.0984611006
 20
21.199923836
 11
-1.700388948
 21
21.1802222394
  0
LWPOLYLINE
  5
750
100
AcDbEntity
  8
RACCORDO
100
AcDbPolyline
 62
250
  6
CONTINUOUS
 90
25
 70
0
 10
7.4998667307
 20
18.5481423133
 10
7.4632027049
 20
18.5562243923
 10
7.3723710377
 20
18.5639264536
 10
7.2273717291
 20
18.5712484972
 10
7.0239341694
 20
18.578306037
 10
6.7663289684
 20
18.5849835591
 10
6.4673679555
 20
18.5909345215
 10
6.125068991
 20
18.5961170238
 10
5.7414142146
 20
18.6005729664
 10
5.3351618759
 20
18.6040815093
 10
4.9050397266
 20
18.6065957606
 10
4.4523200149
 20
18.6081626123
 10
3.9995777352
 20
18.6087018997
 10
3.5467972135
 20
18.6081604031
 10
3.0939941239
 20
18.6065913423
 10
2.6637904821
 20
18.6040742119
 10
2.2574612643
 20
18.6005620336
 10
1.8737314944
 20
18.5961017858
 10
1.5313982606
 20
18.5909138972
 10
1.2324378895
 20
18.5849534981
 10
0.9748740546
 20
18.5782654583
 10
0.7715748642
 20
18.5712048161
 10
0.626829688
 20
18.5638899176
 10
0.5363491563
 20
18.5562024166
 10
0.5001332693
 20
18.5481423133
  0
LWPOLYLINE
  5
751
100
AcDbEntity
  8
ASSI
100
AcDbPolyline
 62
250
  6
CONTINUOUS
 90
25
 70
0
 10
7.4998667307
 20
18.5481423133
 10
7.4632027049
 20
18.5562243923
 10
7.3723710377
 20
18.5639264536
 10
7.2273717291
 20
18.5712484972
 10
7.0239341694
 20
18.578306037
 10
6.7663289684
 20
18.5849835591
 10
6.4673679555
 20
18.5909345215
 10
6.125068991
 20
18.5961170238
 10
5.7414142146
 20
18.6005729664
 10
5.3351618759
 20
18.6040815093
 10
4.9050397266
 20
18.6065957606
 10
4.4523200149
 20
18.6081626123
 10
3.9995777352
 20
18.6087018997
 10
3.5467972135
 20
18.6081604031
 10
3.0939941239
 20
18.6065913423
 10
2.6637904821
 20
18.6040742119
 10
2.2574612643
 20
18.6005620336
 10
1.8737314944
 20
18.5961017858
 10
1.5313982606
 20
18.5909138972
 10
1.2324378895
 20
18.5849534981
 10
0.9748740546
 20
18.5782654583
 10
0.7715748642
 20
18.5712048161
 10
0.626829688
 20
18.5638899176
 10
0.5363491563
 20
18.5562024166
 10
0.5001332693
 20
18.5481423133
  0
LINE
  5
752
100
AcDbEntity
  8
DRAFT
100
AcDbLine
 62
7
  6
CONTINUOUS
 10
8.2195044567
 20
19.0686688326
 11
8.3568525821
 21
19.0
  0
LINE
  5
753
100
AcDbEntity
  8
DRAFT
100
AcDbLine
 62
7
  6
CONTINUOUS
 10
8.5226756989
 20
20.7603594806
 11
8.3830351795
 21
20.9
  0
LWPOLYLINE
  5
754
100
AcDbEntity
  8
RACCORDO
100
AcDbPolyline
 62
7
  6
CONTINUOUS
 90
13
 70
0
 10
11.0282587846
 20
18.1595749722
 10
11.0085542751
 20
18.1793723317
 10
10.9872927728
 20
18.1959149486
 10
10.9644742777
 20
18.2092028229
 10
10.9396443954
 20
18.2193478318
 10
10.9132575203
 20
18.2262380981
 10
10.8866768348
 20
18.2295379904
 10
10.8598782579
 20
18.2290647642
 10
10.8328858706
 20
18.2250011642
 10
10.8071350985
 20
18.2175597926
 10
10.782695415
 20
18.2065586767
 10
10.7594973468
 20
18.1921797893
 10
10.7422764847
 20
18.1780586899
  0
LINE
  5
755
100
AcDbEntity
  8
DRAFT
100
AcDbLine
 62
7
  6
CONTINUOUS
 10
-6.3830351795
 20
20.9
 11
-6.238215003
 21
20.9317102097
  0
LINE
  5
756
100
AcDbEntity
  8
DRAFT
100
AcDbLine
 62
7
  6
CONTINUOUS
 10
4.0104834329
 20
22.1955695989
 11
4.1
 21
22.2
  0
LINE
  5
757
100
AcDbEntity
  8
DRAFT
100
AcDbLine
 62
7
  6
CONTINUOUS
 10
-5.9587505924
 20
21.1802222394
 11
-1.700388948
 21
21.1802222394
  0
LINE
  5
758
100
AcDbEntity
  8
DRAFT
100
AcDbLine
 62
7
  6
CONTINUOUS
 10
3.700388948
 20
21.1802222394
 11
7.9587505924
 21
21.1802222394
  0
LINE
  5
759
100
AcDbEntity
  8
DRAFT
100
AcDbLine
 62
7
  6
CONTINUOUS
 10
4.1516814075
 20
21.199923836
 11
4.0984611006
 21
21.199923836
  0
LINE
  5
75A
100
AcDbEntity
  8
DRAFT
100
AcDbLine
 62
7
  6
CONTINUOUS
 10
-2.0984611006
 20
21.199923836
 11
-2.1516814075
 21
21.199923836
  0
LINE
  5
75B
100
AcDbEntity
  8
DRAFT
100
AcDbLine
 62
7
  6
CONTINUOUS
 10
-5.9712561167
 20
21.2139629885
 11
-2.434596365
 21
21.2139629885
  0
LINE
  5
75C
100
AcDbEntity
  8
DRAFT
100
AcDbLine
 62
7
  6
CONTINUOUS
 10
4.434596365
 20
21.2139629885
 11
7.9712561167
 21
21.2139629885
  0
LINE
  5
75D
100
AcDbEntity
  8
DRAFT
100
AcDbLine
 62
7
  6
CONTINUOUS
 10
4.0104834329
 20
22.1955695989
 11
-2.0104834329
 21
22.1955695989
  0
LINE
  5
75E
100
AcDbEntity
  8
DRAFT
100
AcDbLine
 62
7
  6
CONTINUOUS
 10
-2.3821231691
 20
22.2
 11
4.3821231691
 21
22.2
  0
LINE
  5
75F
100
AcDbEntity
  8
RACCORDO
100
AcDbLine
 62
7
  6
CONTINUOUS
 10
11.6503805997
 20
22.4
 11
6.55
 21
22.4
  0
LINE
  5
760
100
AcDbEntity
  8
DRAFT
100
AcDbLine
 62
7
  6
CONTINUOUS
 10
11.6503805997
 20
22.4
 11
6.55
 21
22.4
  0
LINE
  5
761
100
AcDbEntity
  8
RACCORDO
100
AcDbLine
 62
7
  6
CONTINUOUS
 10
-4.55
 20
22.4
 11
-9.6503805997
 21
22.4
  0
LINE
  5
762
100
AcDbEntity
  8
DRAFT
100
AcDbLine
 62
7
  6
CONTINUOUS
 10
-4.55
 20
22.4
 11
-9.6503805997
 21
22.4
  0
LINE
  5
763
100
AcDbEntity
  8
DRAFT
100
AcDbLine
 62
7
  6
CONTINUOUS
 10
-2.1
 20
22.2
 11
-2.0104834329
 21
22.1955695989
  0
LINE
  5
764
100
AcDbEntity
  8
DRAFT
100
AcDbLine
 62
7
  6
CONTINUOUS
 10
8.3830351795
 20
20.9
 11
8.238215003
 21
20.9317102097
  0
LINE
  5
765
100
AcDbEntity
  8
DRAFT
100
AcDbLine
 62
7
  6
CONTINUOUS
 10
4.0
 20
23.5
 11
3.7812783412
 21
23.4781828305
  0
LINE
  5
766
100
AcDbEntity
  8
DRAFT
100
AcDbLine
 62
7
  6
CONTINUOUS
 10
4.9630152422
 20
23.4650925288
 11
-2.9630152422
 21
23.4650925288
  0
LINE
  5
767
100
AcDbEntity
  8
DRAFT
100
AcDbLine
 62
7
  6
CONTINUOUS
 10
-1.7812783412
 20
23.4781828305
 11
3.7812783412
 21
23.4781828305
  0
LINE
  5
768
100
AcDbEntity
  8
DRAFT
100
AcDbLine
 62
7
  6
CONTINUOUS
 10
4.9733373476
 20
23.5
 11
4.0
 21
23.5
  0
LINE
  5
769
100
AcDbEntity
  8
DRAFT
100
AcDbLine
 62
7
  6
CONTINUOUS
 10
-2.0
 20
23.5
 11
-2.9733373476
 21
23.5
  0
LINE
  5
76A
100
AcDbEntity
  8
DRAFT
100
AcDbLine
 62
7
  6
CONTINUOUS
 10
-2.0
 20
23.5
 11
-1.7812783412
 21
23.4781828305
  0
ARC
  5
76B
100
AcDbEntity
  8
DRAFT
100
AcDbCircle
 62
7
  6
CONTINUOUS
 10
-3.95
 20
-23.1
 40
0.5
100
AcDbArc
 50
350.803718421
 51
119.112422776
  0
ARC
  5
76C
100
AcDbEntity
  8
RACCORDO
100
AcDbCircle
 62
7
  6
CONTINUOUS
 10
-4.25
 20
-12.7
 40
3.0033996099
100
AcDbArc
 50
90.0
 51
270.0
  0
ARC
  5
76D
100
AcDbEntity
  8
ASSI
100
AcDbCircle
 62
7
  6
CONTINUOUS
 10
-4.25
 20
-12.7
 40
3.0033996099
100
AcDbArc
 50
90.0
 51
270.0
  0
ARC
  5
76E
100
AcDbEntity
  8
RACCORDO
100
AcDbCircle
 62
250
  6
CONTINUOUS
 10
-4.25
 20
-12.7
 40
2.7034109283
100
AcDbArc
 50
90.0
 51
270.0
  0
ARC
  5
76F
100
AcDbEntity
  8
ASSI
100
AcDbCircle
 62
250
  6
CONTINUOUS
 10
-4.25
 20
-12.7
 40
2.7034109283
100
AcDbArc
 50
90.0
 51
270.0
  0
ARC
  5
770
100
AcDbEntity
  8
RACCORDO
100
AcDbCircle
 62
250
  6
CONTINUOUS
 10
-4.25
 20
-12.7
 40
2.3998262144
100
AcDbArc
 50
90.0
 51
270.0
  0
ARC
  5
771
100
AcDbEntity
  8
ASSI
100
AcDbCircle
 62
250
  6
CONTINUOUS
 10
-4.25
 20
-12.7
 40
2.3998262144
100
AcDbArc
 50
90.0
 51
270.0
  0
ARC
  5
772
100
AcDbEntity
  8
RACCORDO
100
AcDbCircle
 62
7
  6
CONTINUOUS
 10
-4.25
 20
-12.7
 40
2.1
100
AcDbArc
 50
90.0
 51
270.0
  0
ARC
  5
773
100
AcDbEntity
  8
ASSI
100
AcDbCircle
 62
7
  6
CONTINUOUS
 10
-4.25
 20
-12.7
 40
2.1
100
AcDbArc
 50
90.0
 51
270.0
  0
CIRCLE
  5
774
100
AcDbEntity
  8
DRAFT
100
AcDbCircle
 62
7
  6
CONTINUOUS
 10
-4.25
 20
-12.7
 40
1.7849101299
  0
CIRCLE
  5
775
100
AcDbEntity
  8
ASSI
100
AcDbCircle
 62
7
  6
CONTINUOUS
 10
-4.25
 20
-12.7
 40
1.7849101299
  0
CIRCLE
  5
776
100
AcDbEntity
  8
DRAFT
100
AcDbCircle
 62
7
  6
CONTINUOUS
 10
-4.25
 20
-12.7
 40
1.75
  0
CIRCLE
  5
777
100
AcDbEntity
  8
ASSI
100
AcDbCircle
 62
7
  6
CONTINUOUS
 10
-4.25
 20
-12.7
 40
1.75
  0
ARC
  5
778
100
AcDbEntity
  8
DRAFT
100
AcDbCircle
 62
7
  6
CONTINUOUS
 10
-4.85
 20
-12.7
 40
1.5
100
AcDbArc
 50
90.0
 51
103.870045496
  0
ARC
  5
779
100
AcDbEntity
  8
ASSI
100
AcDbCircle
 62
7
  6
CONTINUOUS
 10
-4.85
 20
-12.7
 40
1.5
100
AcDbArc
 50
295.7525319727
 51
314.4643904116
  0
ARC
  5
77A
100
AcDbEntity
  8
ASSI
100
AcDbCircle
 62
7
  6
CONTINUOUS
 10
-4.85
 20
-12.7
 40
1.5
100
AcDbArc
 50
45.5356095884
 51
90.0
  0
ARC
  5
77B
100
AcDbEntity
  8
RACCORDO
100
AcDbCircle
 62
7
  6
CONTINUOUS
 10
-5.55
 20
-12.55
 40
0.5
100
AcDbArc
 50
90.0
 51
137.8957791763
  0
ARC
  5
77C
100
AcDbEntity
  8
RACCORDO
100
AcDbCircle
 62
7
  6
CONTINUOUS
 10
0.25
 20
-12.7
 40
3.0033996099
100
AcDbArc
 50
270.0
 51
90.0
  0
ARC
  5
77D
100
AcDbEntity
  8
ASSI
100
AcDbCircle
 62
7
  6
CONTINUOUS
 10
0.25
 20
-12.7
 40
3.0033996099
100
AcDbArc
 50
270.0
 51
90.0
  0
ARC
  5
77E
100
AcDbEntity
  8
RACCORDO
100
AcDbCircle
 62
250
  6
CONTINUOUS
 10
0.25
 20
-12.7
 40
2.7034109283
100
AcDbArc
 50
270.0
 51
90.0
  0
ARC
  5
77F
100
AcDbEntity
  8
ASSI
100
AcDbCircle
 62
250
  6
CONTINUOUS
 10
0.25
 20
-12.7
 40
2.7034109283
100
AcDbArc
 50
270.0
 51
90.0
  0
ARC
  5
780
100
AcDbEntity
  8
RACCORDO
100
AcDbCircle
 62
250
  6
CONTINUOUS
 10
0.25
 20
-12.7
 40
2.3998262144
100
AcDbArc
 50
270.0
 51
90.0
  0
ARC
  5
781
100
AcDbEntity
  8
ASSI
100
AcDbCircle
 62
250
  6
CONTINUOUS
 10
0.25
 20
-12.7
 40
2.3998262144
100
AcDbArc
 50
270.0
 51
90.0
  0
ARC
  5
782
100
AcDbEntity
  8
RACCORDO
100
AcDbCircle
 62
7
  6
CONTINUOUS
 10
0.25
 20
-12.7
 40
2.1
100
AcDbArc
 50
270.0
 51
90.0
  0
ARC
  5
783
100
AcDbEntity
  8
ASSI
100
AcDbCircle
 62
7
  6
CONTINUOUS
 10
0.25
 20
-12.7
 40
2.1
100
AcDbArc
 50
270.0
 51
90.0
  0
CIRCLE
  5
784
100
AcDbEntity
  8
DRAFT
100
AcDbCircle
 62
7
  6
CONTINUOUS
 10
0.25
 20
-12.7
 40
1.7849101299
  0
CIRCLE
  5
785
100
AcDbEntity
  8
ASSI
100
AcDbCircle
 62
7
  6
CONTINUOUS
 10
0.25
 20
-12.7
 40
1.7849101299
  0
CIRCLE
  5
786
100
AcDbEntity
  8
DRAFT
100
AcDbCircle
 62
7
  6
CONTINUOUS
 10
0.25
 20
-12.7
 40
1.75
  0
CIRCLE
  5
787
100
AcDbEntity
  8
ASSI
100
AcDbCircle
 62
7
  6
CONTINUOUS
 10
0.25
 20
-12.7
 40
1.75
  0
ARC
  5
788
100
AcDbEntity
  8
ASSI
100
AcDbCircle
 62
7
  6
CONTINUOUS
 10
0.75
 20
-12.7
 40
1.5
100
AcDbArc
 50
225.5356095884
 51
244.2474680273
  0
ARC
  5
789
100
AcDbEntity
  8
ASSI
100
AcDbCircle
 62
7
  6
CONTINUOUS
 10
0.75
 20
-12.7
 40
1.5
100
AcDbArc
 50
68.7738814152
 51
134.4643904116
  0
ARC
  5
78A
100
AcDbEntity
  8
DRAFT
100
AcDbCircle
 62
7
  6
CONTINUOUS
 10
-10.25
 20
0.0
 40
28.0
100
AcDbArc
 50
55.8789063483
 51
57.0647695028
  0
ARC
  5
78B
100
AcDbEntity
  8
DRAFT
100
AcDbCircle
 62
7
  6
CONTINUOUS
 10
-10.25
 20
0.0
 40
28.0
100
AcDbArc
 50
302.9352304972
 51
304.1210936517
  0
ARC
  5
78C
100
AcDbEntity
  8
RACCORDO
100
AcDbCircle
 62
7
  6
CONTINUOUS
 10
-10.25
 20
0.0
 40
28.0
100
AcDbArc
 50
37.5714323886
 51
40.6246834584
  0
ARC
  5
78D
100
AcDbEntity
  8
DRAFT
100
AcDbCircle
 62
7
  6
CONTINUOUS
 10
-10.25
 20
0.0
 40
28.0
100
AcDbArc
 50
48.2819495688
 51
54.0372348486
  0
ARC
  5
78E
100
AcDbEntity
  8
RACCORDO
100
AcDbCircle
 62
7
  6
CONTINUOUS
 10
-10.25
 20
0.0
 40
28.0
100
AcDbArc
 50
319.3753165416
 51
322.4285676114
  0
ARC
  5
78F
100
AcDbEntity
  8
DRAFT
100
AcDbCircle
 62
7
  6
CONTINUOUS
 10
-10.25
 20
0.0
 40
28.0
100
AcDbArc
 50
305.9627651514
 51
311.7180504312
  0
ARC
  5
790
100
AcDbEntity
  8
RACCORDO
100
AcDbCircle
 62
7
  6
CONTINUOUS
 10
-10.25
 20
0.0
 40
27.9738174026
100
AcDbArc
 50
37.5903456883
 51
40.4785462054
  0
ARC
  5
791
100
AcDbEntity
  8
RACCORDO
100
AcDbCircle
 62
7
  6
CONTINUOUS
 10
-10.25
 20
0.0
 40
27.9738174026
100
AcDbArc
 50
319.5214537946
 51
322.4096543117
  0
ARC
  5
792
100
AcDbEntity
  8
DRAFT
100
AcDbCircle
 62
7
  6
CONTINUOUS
 10
-10.25
 20
0.0
 40
27.9650925288
100
AcDbArc
 50
55.8421853344
 51
57.0436344285
  0
ARC
  5
793
100
AcDbEntity
  8
DRAFT
100
AcDbCircle
 62
7
  6
CONTINUOUS
 10
-10.25
 20
0.0
 40
27.9650925288
100
AcDbArc
 50
49.3398118699
 51
54.0739558625
  0
ARC
  5
794
100
AcDbEntity
  8
DRAFT
100
AcDbCircle
 62
7
  6
CONTINUOUS
 10
-10.25
 20
0.0
 40
27.9650925288
100
AcDbArc
 50
305.9260441375
 51
310.6601881301
  0
ARC
  5
795
100
AcDbEntity
  8
DRAFT
100
AcDbCircle
 62
7
  6
CONTINUOUS
 10
-10.25
 20
0.0
 40
27.9650925288
100
AcDbArc
 50
302.9563655715
 51
304.1578146656
  0
ARC
  5
796
100
AcDbEntity
  8
RACCORDO
100
AcDbCircle
 62
7
  6
CONTINUOUS
 10
0.55
 20
12.55
 40
0.5
100
AcDbArc
 50
180.0
 51
270.0
  0
ARC
  5
797
100
AcDbEntity
  8
DRAFT
100
AcDbCircle
 62
7
  6
CONTINUOUS
 10
-3.95
 20
23.1
 40
0.5
100
AcDbArc
 50
240.887577224
 51
9.1962815791
  0
ARC
  5
798
100
AcDbEntity
  8
RACCORDO
100
AcDbCircle
 62
7
  6
CONTINUOUS
 10
1.45
 20
-12.55
 40
0.5
100
AcDbArc
 50
0.0
 51
90.0
  0
ARC
  5
799
100
AcDbEntity
  8
DRAFT
100
AcDbCircle
 62
7
  6
CONTINUOUS
 10
5.95
 20
-23.1
 40
0.5
100
AcDbArc
 50
60.887577224
 51
189.196281579
  0
CIRCLE
  5
79A
100
AcDbEntity
  8
0
100
AcDbCircle
 62
7
  6
CONTINUOUS
 10
1.0
 20
0.0
 40
3.75
  0
CIRCLE
  5
79B
100
AcDbEntity
  8
ASSI
100
AcDbCircle
 62
7
  6
CONTINUOUS
 10
1.0
 20
0.0
 40
3.75
  0
CIRCLE
  5
79C
100
AcDbEntity
  8
0
100
AcDbCircle
 62
7
  6
CONTINUOUS
 10
1.0
 20
0.0
 40
3.5
  0
ARC
  5
79D
100
AcDbEntity
  8
RACCORDO
100
AcDbCircle
 62
7
  6
CONTINUOUS
 10
1.75
 20
12.7
 40
3.0033996099
100
AcDbArc
 50
90.0
 51
270.0
  0
ARC
  5
79E
100
AcDbEntity
  8
ASSI
100
AcDbCircle
 62
7
  6
CONTINUOUS
 10
1.75
 20
12.7
 40
3.0033996099
100
AcDbArc
 50
90.0
 51
270.0
  0
ARC
  5
79F
100
AcDbEntity
  8
RACCORDO
100
AcDbCircle
 62
250
  6
CONTINUOUS
 10
1.75
 20
12.7
 40
2.7034109283
100
AcDbArc
 50
90.0
 51
270.0
  0
ARC
  5
7A0
100
AcDbEntity
  8
ASSI
100
AcDbCircle
 62
250
  6
CONTINUOUS
 10
1.75
 20
12.7
 40
2.7034109283
100
AcDbArc
 50
90.0
 51
270.0
  0
ARC
  5
7A1
100
AcDbEntity
  8
RACCORDO
100
AcDbCircle
 62
250
  6
CONTINUOUS
 10
1.75
 20
12.7
 40
2.3998262144
100
AcDbArc
 50
90.0
 51
270.0
  0
ARC
  5
7A2
100
AcDbEntity
  8
ASSI
100
AcDbCircle
 62
250
  6
CONTINUOUS
 10
1.75
 20
12.7
 40
2.3998262144
100
AcDbArc
 50
90.0
 51
270.0
  0
ARC
  5
7A3
100
AcDbEntity
  8
RACCORDO
100
AcDbCircle
 62
7
  6
CONTINUOUS
 10
1.75
 20
12.7
 40
2.1
100
AcDbArc
 50
90.0
 51
270.0
  0
ARC
  5
7A4
100
AcDbEntity
  8
ASSI
100
AcDbCircle
 62
7
  6
CONTINUOUS
 10
1.75
 20
12.7
 40
2.1
100
AcDbArc
 50
90.0
 51
270.0
  0
CIRCLE
  5
7A5
100
AcDbEntity
  8
DRAFT
100
AcDbCircle
 62
7
  6
CONTINUOUS
 10
1.75
 20
12.7
 40
1.7849101299
  0
CIRCLE
  5
7A6
100
AcDbEntity
  8
ASSI
100
AcDbCircle
 62
7
  6
CONTINUOUS
 10
1.75
 20
12.7
 40
1.7849101299
  0
CIRCLE
  5
7A7
100
AcDbEntity
  8
DRAFT
100
AcDbCircle
 62
7
  6
CONTINUOUS
 10
1.75
 20
12.7
 40
1.75
  0
CIRCLE
  5
7A8
100
AcDbEntity
  8
ASSI
100
AcDbCircle
 62
7
  6
CONTINUOUS
 10
1.75
 20
12.7
 40
1.75
  0
ARC
  5
7A9
100
AcDbEntity
  8
ASSI
100
AcDbCircle
 62
7
  6
CONTINUOUS
 10
1.25
 20
12.7
 40
1.5
100
AcDbArc
 50
248.7738814152
 51
314.4643904116
  0
ARC
  5
7AA
100
AcDbEntity
  8
ASSI
100
AcDbCircle
 62
7
  6
CONTINUOUS
 10
1.25
 20
12.7
 40
1.5
100
AcDbArc
 50
45.5356095884
 51
64.2474680273
  0
ARC
  5
7AB
100
AcDbEntity
  8
RACCORDO
100
AcDbCircle
 62
7
  6
CONTINUOUS
 10
6.25
 20
12.7
 40
3.0033996099
100
AcDbArc
 50
270.0
 51
90.0
  0
ARC
  5
7AC
100
AcDbEntity
  8
ASSI
100
AcDbCircle
 62
7
  6
CONTINUOUS
 10
6.25
 20
12.7
 40
3.0033996099
100
AcDbArc
 50
270.0
 51
90.0
  0
ARC
  5
7AD
100
AcDbEntity
  8
RACCORDO
100
AcDbCircle
 62
250
  6
CONTINUOUS
 10
6.25
 20
12.7
 40
2.7034109283
100
AcDbArc
 50
270.0
 51
90.0
  0
ARC
  5
7AE
100
AcDbEntity
  8
ASSI
100
AcDbCircle
 62
250
  6
CONTINUOUS
 10
6.25
 20
12.7
 40
2.7034109283
100
AcDbArc
 50
270.0
 51
90.0
  0
ARC
  5
7AF
100
AcDbEntity
  8
RACCORDO
100
AcDbCircle
 62
250
  6
CONTINUOUS
 10
6.25
 20
12.7
 40
2.3998262144
100
AcDbArc
 50
270.0
 51
90.0
  0
ARC
  5
7B0
100
AcDbEntity
  8
ASSI
100
AcDbCircle
 62
250
  6
CONTINUOUS
 10
6.25
 20
12.7
 40
2.3998262144
100
AcDbArc
 50
270.0
 51
90.0
  0
ARC
  5
7B1
100
AcDbEntity
  8
RACCORDO
100
AcDbCircle
 62
7
  6
CONTINUOUS
 10
6.25
 20
12.7
 40
2.1
100
AcDbArc
 50
270.0
 51
90.0
  0
ARC
  5
7B2
100
AcDbEntity
  8
ASSI
100
AcDbCircle
 62
7
  6
CONTINUOUS
 10
6.25
 20
12.7
 40
2.1
100
AcDbArc
 50
270.0
 51
90.0
  0
CIRCLE
  5
7B3
100
AcDbEntity
  8
DRAFT
100
AcDbCircle
 62
7
  6
CONTINUOUS
 10
6.25
 20
12.7
 40
1.7849101299
  0
CIRCLE
  5
7B4
100
AcDbEntity
  8
ASSI
100
AcDbCircle
 62
7
  6
CONTINUOUS
 10
6.25
 20
12.7
 40
1.7849101299
  0
CIRCLE
  5
7B5
100
AcDbEntity
  8
DRAFT
100
AcDbCircle
 62
7
  6
CONTINUOUS
 10
6.25
 20
12.7
 40
1.75
  0
CIRCLE
  5
7B6
100
AcDbEntity
  8
ASSI
100
AcDbCircle
 62
7
  6
CONTINUOUS
 10
6.25
 20
12.7
 40
1.75
  0
ARC
  5
7B7
100
AcDbEntity
  8
DRAFT
100
AcDbCircle
 62
7
  6
CONTINUOUS
 10
5.95
 20
23.1
 40
0.5
100
AcDbArc
 50
170.803718421
 51
299.112422776
  0
ARC
  5
7B8
100
AcDbEntity
  8
DRAFT
100
AcDbCircle
 62
7
  6
CONTINUOUS
 10
12.25
 20
0.0
 40
28.0
100
AcDbArc
 50
122.9352304972
 51
124.1210936517
  0
ARC
  5
7B9
100
AcDbEntity
  8
DRAFT
100
AcDbCircle
 62
7
  6
CONTINUOUS
 10
12.25
 20
0.0
 40
28.0
100
AcDbArc
 50
235.8789063483
 51
237.0647695028
  0
ARC
  5
7BA
100
AcDbEntity
  8
RACCORDO
100
AcDbCircle
 62
7
  6
CONTINUOUS
 10
12.25
 20
0.0
 40
28.0
100
AcDbArc
 50
139.3753165416
 51
142.4285676114
  0
ARC
  5
7BB
100
AcDbEntity
  8
DRAFT
100
AcDbCircle
 62
7
  6
CONTINUOUS
 10
12.25
 20
0.0
 40
28.0
100
AcDbArc
 50
125.9627651514
 51
131.7180504312
  0
ARC
  5
7BC
100
AcDbEntity
  8
RACCORDO
100
AcDbCircle
 62
7
  6
CONTINUOUS
 10
12.25
 20
0.0
 40
28.0
100
AcDbArc
 50
217.5714323886
 51
220.6246834584
  0
ARC
  5
7BD
100
AcDbEntity
  8
DRAFT
100
AcDbCircle
 62
7
  6
CONTINUOUS
 10
12.25
 20
0.0
 40
28.0
100
AcDbArc
 50
228.2819495688
 51
234.0372348486
  0
ARC
  5
7BE
100
AcDbEntity
  8
RACCORDO
100
AcDbCircle
 62
7
  6
CONTINUOUS
 10
12.25
 20
0.0
 40
27.9738174026
100
AcDbArc
 50
217.5903456883
 51
220.4785462054
  0
ARC
  5
7BF
100
AcDbEntity
  8
RACCORDO
100
AcDbCircle
 62
7
  6
CONTINUOUS
 10
12.25
 20
0.0
 40
27.9738174026
100
AcDbArc
 50
139.5214537946
 51
142.4096543117
  0
ARC
  5
7C0
100
AcDbEntity
  8
DRAFT
100
AcDbCircle
 62
7
  6
CONTINUOUS
 10
12.25
 20
0.0
 40
27.9650925288
100
AcDbArc
 50
122.9563655715
 51
124.1578146656
  0
ARC
  5
7C1
100
AcDbEntity
  8
DRAFT
100
AcDbCircle
 62
7
  6
CONTINUOUS
 10
12.25
 20
0.0
 40
27.9650925288
100
AcDbArc
 50
125.9260441375
 51
130.6601881301
  0
ARC
  5
7C2
100
AcDbEntity
  8
DRAFT
100
AcDbCircle
 62
7
  6
CONTINUOUS
 10
12.25
 20
0.0
 40
27.9650925288
100
AcDbArc
 50
235.8421853344
 51
237.0436344285
  0
ARC
  5
7C3
100
AcDbEntity
  8
DRAFT
100
AcDbCircle
 62
7
  6
CONTINUOUS
 10
12.25
 20
0.0
 40
27.9650925288
100
AcDbArc
 50
229.3398118699
 51
234.0739558625
  0
ARC
  5
7C4
100
AcDbEntity
  8
DRAFT
100
AcDbCircle
 62
7
  6
CONTINUOUS
 10
6.85
 20
12.7
 40
1.5
100
AcDbArc
 50
270.0
 51
283.870045496
  0
ARC
  5
7C5
100
AcDbEntity
  8
ASSI
100
AcDbCircle
 62
7
  6
CONTINUOUS
 10
6.85
 20
12.7
 40
1.5
100
AcDbArc
 50
115.7525319727
 51
134.4643904116
  0
ARC
  5
7C6
100
AcDbEntity
  8
ASSI
100
AcDbCircle
 62
7
  6
CONTINUOUS
 10
6.85
 20
12.7
 40
1.5
100
AcDbArc
 50
225.5356095884
 51
270.0
  0
ARC
  5
7C7
100
AcDbEntity
  8
RACCORDO
100
AcDbCircle
 62
7
  6
CONTINUOUS
 10
7.55
 20
12.55
 40
0.5
100
AcDbArc
 50
270.0
 51
317.8957791763
  0
ELLIPSE
  5
7C8
100
AcDbEntity
  8
RACCORDO
100
AcDbEllipse
 62
7
  6
CONTINUOUS
 10
-9.649923836
 20
-21.899313827
 30
0.0
 11
0.1582391023
 21
0.4751033573
 31
0.0
 40
0.9984778551
 41
1.8927600658
 42
3.4626430041
  0
ELLIPSE
  5
7C9
100
AcDbEntity
  8
RACCORDO
100
AcDbEllipse
 62
7
  6
CONTINUOUS
 10
-9.649923836
 20
21.899313827
 30
0.0
 11
-0.1582391023
 21
0.4751033573
 31
0.0
 40
0.9984778551
 41
-0.3210503505
 42
1.2488325878
  0
ELLIPSE
  5
7CA
100
AcDbEntity
  8
RACCORDO
100
AcDbEllipse
 62
7
  6
CONTINUOUS
 10
11.649923836
 20
-21.899313827
 30
0.0
 11
-0.1582391023
 21
0.4751033573
 31
0.0
 40
0.9984778551
 41
2.8205423031
 42
4.3904252414
  0
ELLIPSE
  5
7CB
100
AcDbEntity
  8
RACCORDO
100
AcDbEllipse
 62
7
  6
CONTINUOUS
 10
11.649923836
 20
21.899313827
 30
0.0
 11
0.1582391023
 21
0.4751033573
 31
0.0
 40
0.9984778551
 41
-1.2488325878
 42
0.3210503505
  0
ELLIPSE
  5
7CC
100
AcDbEntity
  8
0
100
AcDbEllipse
 62
7
  6
CONTINUOUS
 10
11.649923836
 20
21.899313827
 30
0.0
 11
0.1582391023
 21
0.4751033573
 31
0.0
 40
0.9984778551
 41
-1.2488325878
 42
0.3210503505
  0
ELLIPSE
  5
7CD
100
AcDbEntity
  8
DRAFT
100
AcDbEllipse
 62
7
  6
CONTINUOUS
 10
3.6626535246
 20
-18.999453231
 30
0.0
 11
1.0351171978
 21
0.0005829051
 31
0.0
 40
0.0086896184
 41
6.2855084353
 42
7.7892672639
  0
ELLIPSE
  5
7CE
100
AcDbEntity
  8
DRAFT
100
AcDbEllipse
 62
7
  6
CONTINUOUS
 10
-1.6626535246
 20
-18.999453231
 30
0.0
 11
1.0351171978
 21
-0.0005829051
 31
0.0
 40
0.0086896184
 41
7.918696004
 42
9.4224548326
  0
ELLIPSE
  5
7CF
100
AcDbEntity
  8
0
100
AcDbEllipse
 62
7
  6
CONTINUOUS
 10
11.649923836
 20
-21.899313827
 30
0.0
 11
-0.1582391023
 21
0.4751033573
 31
0.0
 40
0.9984778551
 41
2.8205423031
 42
4.3904252414
  0
ELLIPSE
  5
7D0
100
AcDbEntity
  8
0
100
AcDbEllipse
 62
7
  6
CONTINUOUS
 10
-9.649923836
 20
21.899313827
 30
0.0
 11
-0.1582391023
 21
0.4751033573
 31
0.0
 40
0.9984778551
 41
-0.3210503505
 42
1.2488325878
  0
ELLIPSE
  5
7D1
100
AcDbEntity
  8
DRAFT
100
AcDbEllipse
 62
7
  6
CONTINUOUS
 10
-1.6626535246
 20
18.999453231
 30
0.0
 11
1.0351171978
 21
0.0005829051
 31
0.0
 40
0.0086896184
 41
3.1439157817
 42
4.6476746103
  0
ELLIPSE
  5
7D2
100
AcDbEntity
  8
DRAFT
100
AcDbEllipse
 62
7
  6
CONTINUOUS
 10
3.6626535246
 20
18.999453231
 30
0.0
 11
1.0351171978
 21
-0.0005829051
 31
0.0
 40
0.0086896184
 41
4.7771033504
 42
6.280862179
  0
ELLIPSE
  5
7D3
100
AcDbEntity
  8
0
100
AcDbEllipse
 62
7
  6
CONTINUOUS
 10
-9.649923836
 20
-21.899313827
 30
0.0
 11
0.1582391023
 21
0.4751033573
 31
0.0
 40
0.9984778551
 41
1.8927600658
 42
3.4626430041
  0
ELLIPSE
  5
7D4
100
AcDbEntity
  8
DRAFT
100
AcDbEllipse
 62
7
  6
CONTINUOUS
 10
5.4
 20
-19.0174537356
 30
0.0
 11
0.5
 21
0.0
 31
0.0
 40
0.0087268678
 41
-0.0
 42
1.5707963268
  0
ELLIPSE
  5
7D5
100
AcDbEntity
  8
DRAFT
100
AcDbEllipse
 62
7
  6
CONTINUOUS
 10
-3.4
 20
-19.0174537356
 30
0.0
 11
0.5
 21
0.0
 31
0.0
 40
0.0087268678
 41
1.5707963268
 42
3.1415926536
  0
ELLIPSE
  5
7D6
100
AcDbEntity
  8
DRAFT
100
AcDbEllipse
 62
7
  6
CONTINUOUS
 10
1.0
 20
19.0959995212
 30
0.0
 11
5.9816386486
 21
-0.0
 31
0.0
 40
0.0087268678
 41
-1.7538992292
 42
-1.3876934244
  0
ELLIPSE
  5
7D7
100
AcDbEntity
  8
DRAFT
100
AcDbEllipse
 62
7
  6
CONTINUOUS
 10
1.0
 20
-19.096003473
 30
0.0
 11
5.9632745348
 21
0.0
 31
0.0
 40
0.0087268679
 41
1.3874179174
 42
1.7541747362
  0
ELLIPSE
  5
7D8
100
AcDbEntity
  8
DRAFT
100
AcDbEllipse
 62
7
  6
CONTINUOUS
 10
-3.1926549184
 20
19.0192632087
 30
0.0
 11
0.3105351593
 21
0.0001748715
 31
0.0
 40
0.0086896184
 41
-3.1392695254
 42
-1.6355106969
  0
ELLIPSE
  5
7D9
100
AcDbEntity
  8
DRAFT
100
AcDbEllipse
 62
7
  6
CONTINUOUS
 10
5.1926549184
 20
19.0192632087
 30
0.0
 11
0.3105351593
 21
-0.0001748715
 31
0.0
 40
0.0086896184
 41
-1.5060819567
 42
-0.0023231281
  0
ELLIPSE
  5
7DA
100
AcDbEntity
  8
DRAFT
100
AcDbEllipse
 62
7
  6
CONTINUOUS
 10
12.25
 20
-0.4174491839
 30
0.0
 11
0.0
 21
27.6175146083
 31
0.0
 40
0.9998857561
 41
-3.8751476846
 42
-3.8616054291
  0
ELLIPSE
  5
7DB
100
AcDbEntity
  8
DRAFT
100
AcDbEllipse
 62
7
  6
CONTINUOUS
 10
-10.25
 20
-0.4174491839
 30
0.0
 11
0.0
 21
27.6175146083
 31
0.0
 40
0.9998857561
 41
-2.421579878
 42
-2.4080376226
  0
ELLIPSE
  5
7DC
100
AcDbEntity
  8
DRAFT
100
AcDbEllipse
 62
7
  6
CONTINUOUS
 10
12.25
 20
0.4174491839
 30
0.0
 11
0.0
 21
27.6175146083
 31
0.0
 40
0.9998857561
 41
0.7200127755
 42
0.733555031
  0
ELLIPSE
  5
7DD
100
AcDbEntity
  8
DRAFT
100
AcDbEllipse
 62
7
  6
CONTINUOUS
 10
-10.25
 20
0.4174491839
 30
0.0
 11
0.0
 21
27.6175146083
 31
0.0
 40
0.9998857561
 41
-0.733555031
 42
-0.7200127755
  0
ELLIPSE
  5
7DE
100
AcDbEntity
  8
DRAFT
100
AcDbEllipse
 62
7
  6
CONTINUOUS
 10
-0.8381022908
 20
-19.0083943541
 30
0.0
 11
1.0001523861
 21
-0.0000039892
 31
0.0
 40
0.0087281959
 41
8.5779437939
 42
9.4249303468
  0
ELLIPSE
  5
7DF
100
AcDbEntity
  8
DRAFT
100
AcDbEllipse
 62
7
  6
CONTINUOUS
 10
2.8381022908
 20
-19.0083943541
 30
0.0
 11
1.0001523861
 21
0.0000039892
 31
0.0
 40
0.0087281959
 41
6.2830329211
 42
7.1300194741
  0
ELLIPSE
  5
7E0
100
AcDbEntity
  8
DRAFT
100
AcDbEllipse
 62
7
  6
CONTINUOUS
 10
2.8190863261
 20
19.0085603039
 30
0.0
 11
1.0000380871
 21
-0.0000013295
 31
0.0
 40
0.0087275323
 41
5.4622477028
 42
6.2832614828
  0
ELLIPSE
  5
7E1
100
AcDbEntity
  8
DRAFT
100
AcDbEllipse
 62
7
  6
CONTINUOUS
 10
-0.8190863261
 20
19.0085603039
 30
0.0
 11
1.0000380871
 21
0.0000013295
 31
0.0
 40
0.0087275323
 41
3.141516478
 42
3.962530258
  0
ELLIPSE
  5
7E2
100
AcDbEntity
  8
DRAFT
100
AcDbEllipse
 62
7
  6
CONTINUOUS
 10
5.4
 20
-19.0383982183
 30
0.0
 11
0.5
 21
-0.0
 31
0.0
 40
0.0087268678
 41
-1.5707963268
 42
-0.0
  0
ELLIPSE
  5
7E3
100
AcDbEntity
  8
DRAFT
100
AcDbEllipse
 62
7
  6
CONTINUOUS
 10
-3.4
 20
-19.0383982183
 30
0.0
 11
0.5
 21
0.0
 31
0.0
 40
0.0087268678
 41
-3.1415926536
 42
-1.5707963268
  0
ELLIPSE
  5
7E4
100
AcDbEntity
  8
DRAFT
100
AcDbEllipse
 62
7
  6
CONTINUOUS
 10
-3.1973081629
 20
19.0366293534
 30
0.0
 11
0.3106324671
 21
-0.0001883409
 31
0.0
 40
0.0087248833
 41
1.6401773169
 42
3.1439361455
  0
ELLIPSE
  5
7E5
100
AcDbEntity
  8
DRAFT
100
AcDbEllipse
 62
7
  6
CONTINUOUS
 10
5.1973081629
 20
19.0366293534
 30
0.0
 11
0.3106324671
 21
0.0001883409
 31
0.0
 40
0.0087248833
 41
-0.0023434919
 42
1.5014153367
  0
ELLIPSE
  5
7E6
100
AcDbEntity
  8
DRAFT
100
AcDbEllipse
 62
7
  6
CONTINUOUS
 10
3.674197646
 20
-19.0425364784
 30
0.0
 11
1.0354415569
 21
-0.0006278029
 31
0.0
 40
0.0087248833
 41
-1.5014153367
 42
0.0023434919
  0
ELLIPSE
  5
7E7
100
AcDbEntity
  8
DRAFT
100
AcDbEllipse
 62
7
  6
CONTINUOUS
 10
-1.674197646
 20
-19.0425364784
 30
0.0
 11
1.0354415569
 21
0.0006278029
 31
0.0
 40
0.0087248833
 41
3.1392491617
 42
4.6430079903
  0
ELLIPSE
  5
7E8
100
AcDbEntity
  8
DRAFT
100
AcDbEllipse
 62
7
  6
CONTINUOUS
 10
-1.674197646
 20
19.0425364784
 30
0.0
 11
1.0354415569
 21
-0.0006278029
 31
0.0
 40
0.0087248833
 41
1.6401773169
 42
3.1439361455
  0
ELLIPSE
  5
7E9
100
AcDbEntity
  8
DRAFT
100
AcDbEllipse
 62
7
  6
CONTINUOUS
 10
3.674197646
 20
19.0425364784
 30
0.0
 11
1.0354415569
 21
0.0006278029
 31
0.0
 40
0.0087248833
 41
-0.0023434919
 42
1.5014153367
  0
ELLIPSE
  5
7EA
100
AcDbEntity
  8
RACCORDO
100
AcDbEllipse
 62
7
  6
CONTINUOUS
 10
8.4994668518
 20
-15.4994668518
 30
0.0
 11
2.4756276621
 21
-2.4756276621
 31
0.0
 40
0.9996954599
 41
-0.7852458701
 42
0.7852458701
  0
ELLIPSE
  5
7EB
100
AcDbEntity
  8
RACCORDO
100
AcDbEllipse
 62
7
  6
CONTINUOUS
 10
8.4994668518
 20
15.4994668518
 30
0.0
 11
2.4756276621
 21
2.4756276621
 31
0.0
 40
0.9996954599
 41
-0.7852458701
 42
0.7852458701
  0
ELLIPSE
  5
7EC
100
AcDbEntity
  8
RACCORDO
100
AcDbEllipse
 62
7
  6
CONTINUOUS
 10
-6.4994668518
 20
15.4994668518
 30
0.0
 11
2.4756276621
 21
-2.4756276621
 31
0.0
 40
0.9996954599
 41
2.3563467834
 42
3.9268385237
  0
ELLIPSE
  5
7ED
100
AcDbEntity
  8
RACCORDO
100
AcDbEllipse
 62
7
  6
CONTINUOUS
 10
-6.4994668518
 20
-15.4994668518
 30
0.0
 11
2.4756276621
 21
2.4756276621
 31
0.0
 40
0.9996954599
 41
-3.9268385237
 42
-2.3563467834
  0
ELLIPSE
  5
7EE
100
AcDbEntity
  8
DRAFT
100
AcDbEllipse
 62
7
  6
CONTINUOUS
 10
4.0
 20
17.0479138184
 30
0.0
 11
2.5
 21
0.0
 31
0.0
 40
0.0174550649
 41
6.2919119534
 42
9.4160513145
  0
ELLIPSE
  5
7EF
100
AcDbEntity
  8
DRAFT
100
AcDbEllipse
 62
7
  6
CONTINUOUS
 10
-2.0
 20
-17.0479138184
 30
0.0
 11
2.5
 21
-0.0
 31
0.0
 40
0.0174550649
 41
-3.1328660073
 42
-0.0087266463
  0
ELLIPSE
  5
7F0
100
AcDbEntity
  8
RACCORDO
100
AcDbEllipse
 62
7
  6
CONTINUOUS
 10
-0.467452248
 20
18.9361854591
 30
0.0
 11
1.0000047088
 21
-0.0000084854
 31
0.0
 40
0.0176698676
 41
-3.1239243248
 42
-1.5703161095
  0
ELLIPSE
  5
7F1
100
AcDbEntity
  8
RACCORDO
100
AcDbEllipse
 62
7
  6
CONTINUOUS
 10
2.467452248
 20
18.9361854591
 30
0.0
 11
1.0000047088
 21
0.0000084854
 31
0.0
 40
0.0176698676
 41
-1.5712765441
 42
-0.0176683288
  0
ELLIPSE
  5
7F2
100
AcDbEntity
  8
RACCORDO
100
AcDbEllipse
 62
7
  6
CONTINUOUS
 10
-0.467452248
 20
-18.9361854591
 30
0.0
 11
1.0000047088
 21
0.0000084854
 31
0.0
 40
0.0176698676
 41
1.5703161095
 42
3.1239243248
  0
ELLIPSE
  5
7F3
100
AcDbEntity
  8
RACCORDO
100
AcDbEllipse
 62
7
  6
CONTINUOUS
 10
2.467452248
 20
-18.9361854591
 30
0.0
 11
1.0000047088
 21
-0.0000084854
 31
0.0
 40
0.0176698676
 41
0.0176683288
 42
1.5712765441
  0
ELLIPSE
  5
7F4
100
AcDbEntity
  8
ASSI
100
AcDbEllipse
 62
7
  6
CONTINUOUS
 10
8.4994668518
 20
-15.4994668518
 30
0.0
 11
2.4756276621
 21
-2.4756276621
 31
0.0
 40
0.9996954599
 41
-0.7852458701
 42
0.7852458701
  0
ELLIPSE
  5
7F5
100
AcDbEntity
  8
ASSI
100
AcDbEllipse
 62
7
  6
CONTINUOUS
 10
8.4994668518
 20
15.4994668518
 30
0.0
 11
2.4756276621
 21
2.4756276621
 31
0.0
 40
0.9996954599
 41
-0.7852458701
 42
0.7852458701
  0
ELLIPSE
  5
7F6
100
AcDbEntity
  8
ASSI
100
AcDbEllipse
 62
7
  6
CONTINUOUS
 10
-6.4994668518
 20
15.4994668518
 30
0.0
 11
2.4756276621
 21
-2.4756276621
 31
0.0
 40
0.9996954599
 41
2.3563467834
 42
3.9268385237
  0
ELLIPSE
  5
7F7
100
AcDbEntity
  8
ASSI
100
AcDbEllipse
 62
7
  6
CONTINUOUS
 10
-6.4994668518
 20
-15.4994668518
 30
0.0
 11
2.4756276621
 21
2.4756276621
 31
0.0
 40
0.9996954599
 41
-3.9268385237
 42
-2.3563467834
  0
ELLIPSE
  5
7F8
100
AcDbEntity
  8
ASSI
100
AcDbEllipse
 62
7
  6
CONTINUOUS
 10
-2.0
 20
-17.0479138184
 30
0.0
 11
2.5
 21
-0.0
 31
0.0
 40
0.0174550649
 41
-3.1328660073
 42
-0.0087266463
  0
ELLIPSE
  5
7F9
100
AcDbEntity
  8
ASSI
100
AcDbEllipse
 62
7
  6
CONTINUOUS
 10
4.0
 20
17.0479138184
 30
0.0
 11
2.5
 21
0.0
 31
0.0
 40
0.0174550649
 41
6.2919119534
 42
9.4160513145
  0
ELLIPSE
  5
7FA
100
AcDbEntity
  8
ASSI
100
AcDbEllipse
 62
7
  6
CONTINUOUS
 10
2.467452248
 20
-18.9361854591
 30
0.0
 11
1.0000047088
 21
-0.0000084854
 31
0.0
 40
0.0176698676
 41
0.0176683288
 42
1.5712765441
  0
ELLIPSE
  5
7FB
100
AcDbEntity
  8
ASSI
100
AcDbEllipse
 62
7
  6
CONTINUOUS
 10
-0.467452248
 20
-18.9361854591
 30
0.0
 11
1.0000047088
 21
0.0000084854
 31
0.0
 40
0.0176698676
 41
1.5703161095
 42
3.1239243248
  0
ELLIPSE
  5
7FC
100
AcDbEntity
  8
ASSI
100
AcDbEllipse
 62
7
  6
CONTINUOUS
 10
2.467452248
 20
18.9361854591
 30
0.0
 11
1.0000047088
 21
0.0000084854
 31
0.0
 40
0.0176698676
 41
-1.5712765441
 42
-0.0176683288
  0
ELLIPSE
  5
7FD
100
AcDbEntity
  8
ASSI
100
AcDbEllipse
 62
7
  6
CONTINUOUS
 10
-0.467452248
 20
18.9361854591
 30
0.0
 11
1.0000047088
 21
-0.0000084854
 31
0.0
 40
0.0176698676
 41
-3.1239243248
 42
-1.5703161095
  0
ELLIPSE
  5
7FE
100
AcDbEntity
  8
0
100
AcDbEllipse
 62
250
  6
CONTINUOUS
 10
11.9301797403
 20
12.467554
 30
0.0
 11
-0.0
 21
1.7999999246
 31
0.0
 40
0.0174497484
 41
-1.6263805024
 42
1.6263804407
  0
ELLIPSE
  5
7FF
100
AcDbEntity
  8
0
100
AcDbEllipse
 62
250
  6
CONTINUOUS
 10
11.9301797403
 20
12.467554
 30
0.0
 11
0.0
 21
2.5499985399
 31
0.0
 40
0.0174497484
 41
-1.6100220939
 42
1.6100220478
  0
ELLIPSE
  5
800
100
AcDbEntity
  8
0
100
AcDbEllipse
 62
250
  6
CONTINUOUS
 10
11.9301797403
 20
8.082444
 30
0.0
 11
-0.0
 21
1.7999968808
 31
0.0
 40
0.0174497484
 41
0.2098709614
 42
1.6263821356
  0
ELLIPSE
  5
801
100
AcDbEntity
  8
0
100
AcDbEllipse
 62
250
  6
CONTINUOUS
 10
11.9301797403
 20
8.082444
 30
0.0
 11
0.0
 21
1.7999999246
 31
0.0
 40
0.0174497484
 41
-1.6263805024
 42
-0.2098703023
  0
ELLIPSE
  5
802
100
AcDbEntity
  8
0
100
AcDbEllipse
 62
250
  6
CONTINUOUS
 10
11.9301797403
 20
8.082444
 30
0.0
 11
0.0
 21
2.5499986575
 31
0.0
 40
0.0174497484
 41
-1.6100232695
 42
1.6100220478
  0
ENDSEC
  0
SECTION
  2
OBJECTS
  0
DICTIONARY
  5
C
100
AcDbDictionary
280
0
281
1
  3
ACAD_GROUP
350
D
  3
ACAD_MLINESTYLE
350
17
  3
ACAD_LAYOUT
350
1A
  3
ACAD_PLOTSETTINGS
350
19
  3
ACAD_PLOTSTYLENAME
350
E
  0
DICTIONARY
  5
D
102
{ACAD_REACTORS
330
C
102
}
100
AcDbDictionary
280
0
281
1
  0
ACDBDICTIONARYWDFLT
  5
E
102
{ACAD_REACTORS
330
C
102
}
100
AcDbDictionary
281
1
  3
Normal
350
F
100
AcDbDictionaryWithDefault
340
F
  0
DICTIONARY
  5
17
102
{ACAD_REACTORS
330
C
102
}
100
AcDbDictionary
280
0
281
1
  3
Standard
350
18
  0
DICTIONARY
  5
19
102
{ACAD_REACTORS
330
C
102
}
100
AcDbDictionary
281
1
  0
DICTIONARY
  5
1A
102
{ACAD_REACTORS
330
C
102
}
100
AcDbDictionary
281
1
  3
Model
350
803
  3
Layout1
350
804
  0
ACDBPLACEHOLDER
  5
F
102
{ACAD_REACTORS
330
E
102
}
  0
MLINESTYLE
  5
18
102
{ACAD_REACTORS
330
17
102
}
100
AcDbMlineStyle
  2
STANDARD
 70
0
  3

 62
256
 51
90.0
 52
90.0
 71
2
 49
0.5
 62
256
  6
BYLAYER
 49
-0.5
 62
256
  6
BYLAYER
  0
LAYOUT
  5
803
102
{ACAD_REACTORS
330
1A
102
}
100
AcDbPlotSettings
  1

  2
none_device
  4
ISO_A4_(297.00_x_210.00_MM)
  6

 40
0.0
 41
0.0
 42
0.0
 43
0.0
 44
297.0
 45
210.0
 46
0.0
 47
0.0
 48
0.0
 49
0.0
140
0.0
141
0.0
142
1.0
143
1.0
 70
1024
 72
1
 73
0
 74
0
  7

 75
0
147
1.0
148
0.0
149
0.0
100
AcDbLayout
  1
Model
 70
0
 71
0
 10
0.0
 20
0.0
 11
297.0
 21
210.0
 12
0.0
 22
0.0
 32
0.0
 14
0.0
 24
0.0
 34
0.0
 15
0.0
 25
0.0
 35
0.0
146
0.0
 13
0.0
 23
0.0
 33
0.0
 16
1.0
 26
0.0
 36
0.0
 17
0.0
 27
1.0
 37
0.0
 76
0
330
218
345
0
346
0
  0
LAYOUT
  5
804
102
{ACAD_REACTORS
330
1A
102
}
100
AcDbPlotSettings
  1

  2
none_device
  4
ISO_A4_(297.00_x_210.00_MM)
  6

 40
0.0
 41
0.0
 42
0.0
 43
0.0
 44
297.0
 45
210.0
 46
0.0
 47
0.0
 48
0.0
 49
0.0
140
0.0
141
0.0
142
1.0
143
1.0
 70
0
 72
1
 73
0
 74
0
  7

 75
0
147
1.0
148
0.0
149
0.0
100
AcDbLayout
  1
Layout1
 70
0
 71
1
 10
0.0
 20
0.0
 11
297.0
 21
210.0
 12
0.0
 22
0.0
 32
0.0
 14
0.0
 24
0.0
 34
0.0
 15
0.0
 25
0.0
 35
0.0
146
0.0
 13
0.0
 23
0.0
 33
0.0
 16
1.0
 26
0.0
 36
0.0
 17
0.0
 27
1.0
 37
0.0
 76
0
330
219
345
0
346
0
  0
ENDSEC
  0
EOF
