0
SECTION
2
HEADER
9
$ACADVER
1
AC1015
9
$DWGCODEPAGE
3
ANSI_1252
9
$EXTMAX
10
297.0000000000
20
210.0000000000
30
0.0000000000
9
$EXTMIN
10
0.0000000000
20
0.0000000000
30
0.0000000000
9
$LIMMIN
10
0.0000000000
20
0.0000000000
9
$LIMMAX
10
297.0000000000
20
210.0000000000
9
$VIEWCTR
10
148.5000000000
20
105.0000000000
9
$VIEWSIZE
40
210.0000000000
9
$CLAYER
8
0
9
$LTSCALE
40
16.3350000000
9
$CELTYPE
6
BYLAYER
9
$DIMSCALE
40
1
9
$DIMASZ
40
3.0000000000
9
$DIMEXO
40
1.8562500000
9
$DIMDLI
40
11.2860000000
9
$DIMEXE
40
5.3460000000
9
$DIMCEN
40
2.6730000000
9
$DIMLFAC
40
1.0000000000
9
$DIMBLK
1
_FILLED
9
$DIMTXT
40
3.0000000000
9
$DIMTOL
70
1
9
$DIMLIM
70
0
9
$DIMTFAC
40
1.0000000000
9
$DIMTP
40
0.0100000000
9
$DIMTM
40
0.0100000000
9
$PDMODE
70
3
9
$PDSIZE
40
3.0000000000
9
$HANDSEED
5
52C
9
$MEASUREMENT
70
1
9
$INSUNITS
70
4
0
ENDSEC
0
SECTION
2
CLASSES
0
CLASS
1
ACDBDICTIONARYWDFLT
2
AcDbDictionaryWithDefault
3
AutoCAD 2000
90
0
280
0
281
0
0
CLASS
1
ACDBPLACEHOLDER
2
AcDbPlaceHolder
3
AutoCAD 2000
90
0
280
0
281
0
0
CLASS
1
LAYOUT
2
AcDbLayout
3
AutoCAD 2000
90
0
280
0
281
0
0
ENDSEC
0
SECTION
2
TABLES
0
TABLE
2
VPORT
5
8
100
AcDbSymbolTable
70
2
0
VPORT
5
1F4
100
AcDbSymbolTableRecord
100
AcDbViewportTableRecord
2
*ACTIVE
70
0
10
0.0
20
0.0
11
1.0
21
1.0
12
148.5000000000
22
105.0000000000
13
0.0
23
0.0
14
1.0
24
1.0
15
0.0
25
0.0
16
0.0
26
0.0
36
1.0
17
0.0
27
0.0
37
0.0
40
210.0000000000
41
1.4142857143
42
50.0
43
0.0
44
0.0
50
0.0
51
0.0
71
0
72
100
73
1
74
1
75
0
76
0
77
0
78
0
0
ENDTAB
0
TABLE
2
LTYPE
5
5
100
AcDbSymbolTable
70
6
0
LTYPE
5
14
100
AcDbSymbolTableRecord
100
AcDbLinetypeTableRecord
2
BYBLOCK
70
0
3

72
65
73
0
40
0.0
0
LTYPE
5
15
100
AcDbSymbolTableRecord
100
AcDbLinetypeTableRecord
2
BYLAYER
70
0
3

72
65
73
0
40
0.0
0
LTYPE
5
16
100
AcDbSymbolTableRecord
100
AcDbLinetypeTableRecord
2
CONTINUOUS
70
64
3
Solid line
72
65
73
0
40
0
0
LTYPE
5
1F5
100
AcDbSymbolTableRecord
100
AcDbLinetypeTableRecord
2
CENTER
70
64
3
____ _ ____ _ ____ _ ____ _ ____ _ ____ _ ____
72
65
73
4
40
0.6
49
0.375
74
0
49
-0.075
74
0
49
0.075
74
0
49
-0.075
74
0
0
LTYPE
5
1F6
100
AcDbSymbolTableRecord
100
AcDbLinetypeTableRecord
2
HIDDEN
70
64
3
- - - - - - - - - - - - - - - - - - - -
72
65
73
2
40
0.2
49
0.1
74
0
49
-0.1
74
0
0
LTYPE
5
1F7
100
AcDbSymbolTableRecord
100
AcDbLinetypeTableRecord
2
PHANTOM
70
64
3
_____ _ _ _____ _ _ _____ _ _ _____
72
65
73
6
40
0.8
49
0.45
74
0
49
-0.05
74
0
49
0.1
74
0
49
-0.05
74
0
49
0.1
74
0
49
-0.05
74
0
0
LTYPE
5
1F8
100
AcDbSymbolTableRecord
100
AcDbLinetypeTableRecord
2
DOT
70
64
3
. . . . . . . . . . . . . . . . . . . .
72
65
73
2
40
0.2
49
0.1
74
0
49
-0.1
74
0
0
LTYPE
5
1F9
100
AcDbSymbolTableRecord
100
AcDbLinetypeTableRecord
2
DASHED
70
64
3
- - - - - - - - - - - - - - - - - - - -
72
65
73
2
40
0.2
49
0.1
74
0
49
-0.1
74
0
0
ENDTAB
0
TABLE
2
LAYER
5
2
100
AcDbSymbolTable
70
36
0
LAYER
5
10
100
AcDbSymbolTableRecord
100
AcDbLayerTableRecord
2
0
70
0
62
7
6
CONTINUOUS
370
-3
390
F
0
LAYER
5
1FA
100
AcDbSymbolTableRecord
100
AcDbLayerTableRecord
2
DEFAULT_1
70
0
62
7
6
CENTER
370
-3
390
F
0
LAYER
5
1FB
100
AcDbSymbolTableRecord
100
AcDbLayerTableRecord
2
DEFAULT_2
70
0
62
9
6
HIDDEN
370
-3
390
F
0
LAYER
5
1FC
100
AcDbSymbolTableRecord
100
AcDbLayerTableRecord
2
DEFAULT_3
70
0
62
7
6
PHANTOM
370
-3
390
F
0
LAYER
5
1FD
100
AcDbSymbolTableRecord
100
AcDbLayerTableRecord
2
_BLACK_HOLE
70
0
62
7
6
CONTINUOUS
370
-3
390
F
0
LAYER
5
1FE
100
AcDbSymbolTableRecord
100
AcDbLayerTableRecord
2
ASSI
70
0
62
7
6
CONTINUOUS
370
-3
390
F
0
LAYER
5
1FF
100
AcDbSymbolTableRecord
100
AcDbLayerTableRecord
2
COORDINATE
70
0
62
7
6
CONTINUOUS
370
-3
390
F
0
LAYER
5
200
100
AcDbSymbolTableRecord
100
AcDbLayerTableRecord
2
COORD_ORIGINE
70
0
62
7
6
CONTINUOUS
370
-3
390
F
0
LAYER
5
201
100
AcDbSymbolTableRecord
100
AcDbLayerTableRecord
2
COPY_PUBLISH
70
0
62
7
6
CONTINUOUS
370
-3
390
F
0
LAYER
5
202
100
AcDbSymbolTableRecord
100
AcDbLayerTableRecord
2
COSMETIC
70
0
62
7
6
CONTINUOUS
370
-3
390
F
0
LAYER
5
203
100
AcDbSymbolTableRecord
100
AcDbLayerTableRecord
2
COSMETICHE
70
0
62
7
6
CONTINUOUS
370
-3
390
F
0
LAYER
5
204
100
AcDbSymbolTableRecord
100
AcDbLayerTableRecord
2
COSMETICI
70
0
62
7
6
CONTINUOUS
370
-3
390
F
0
LAYER
5
205
100
AcDbSymbolTableRecord
100
AcDbLayerTableRecord
2
CURVE
70
0
62
7
6
CONTINUOUS
370
-3
390
F
0
LAYER
5
206
100
AcDbSymbolTableRecord
100
AcDbLayerTableRecord
2
DRAFT
70
0
62
7
6
CONTINUOUS
370
-3
390
F
0
LAYER
5
207
100
AcDbSymbolTableRecord
100
AcDbLayerTableRecord
2
IMPORT_FEATURES
70
0
62
7
6
CONTINUOUS
370
-3
390
F
0
LAYER
5
208
100
AcDbSymbolTableRecord
100
AcDbLayerTableRecord
2
IMPORT_IGES
70
0
62
7
6
CONTINUOUS
370
-3
390
F
0
LAYER
5
209
100
AcDbSymbolTableRecord
100
AcDbLayerTableRecord
2
IMPORT_LASER
70
0
62
7
6
CONTINUOUS
370
-3
390
F
0
LAYER
5
20A
100
AcDbSymbolTableRecord
100
AcDbLayerTableRecord
2
NOTE
70
0
62
7
6
CONTINUOUS
370
-3
390
F
0
LAYER
5
20B
100
AcDbSymbolTableRecord
100
AcDbLayerTableRecord
2
PIANI
70
0
62
7
6
CONTINUOUS
370
-3
390
F
0
LAYER
5
20C
100
AcDbSymbolTableRecord
100
AcDbLayerTableRecord
2
PIANI_ORIGINE
70
0
62
7
6
CONTINUOUS
370
-3
390
F
0
LAYER
5
20D
100
AcDbSymbolTableRecord
100
AcDbLayerTableRecord
2
PUNTI
70
0
62
7
6
CONTINUOUS
370
-3
390
F
0
LAYER
5
20E
100
AcDbSymbolTableRecord
100
AcDbLayerTableRecord
2
RACCORDO
70
0
62
7
6
CONTINUOUS
370
-3
390
F
0
LAYER
5
20F
100
AcDbSymbolTableRecord
100
AcDbLayerTableRecord
2
SMUSSO
70
0
62
7
6
CONTINUOUS
370
-3
390
F
0
LAYER
5
210
100
AcDbSymbolTableRecord
100
AcDbLayerTableRecord
2
SUPERFICI
70
0
62
7
6
CONTINUOUS
370
-3
390
F
0
LAYER
5
211
100
AcDbSymbolTableRecord
100
AcDbLayerTableRecord
2
TRASH
70
0
62
7
6
CONTINUOUS
370
-3
390
F
0
LAYER
5
212
100
AcDbSymbolTableRecord
100
AcDbLayerTableRecord
2
XSEC_DATUMS
70
0
62
7
6
CONTINUOUS
370
-3
390
F
0
ENDTAB
0
TABLE
2
STYLE
5
3
100
AcDbSymbolTable
70
1
0
STYLE
5
11
100
AcDbSymbolTableRecord
100
AcDbTextStyleTableRecord
2
STANDARD
70
0
40
0.0
41
0.8000000000
50
0.0
71
0
42
0.2
3
txt
4

0
ENDTAB
0
TABLE
2
VIEW
5
6
100
AcDbSymbolTable
70
0
0
ENDTAB
0
TABLE
2
UCS
5
7
100
AcDbSymbolTable
70
0
0
ENDTAB
0
TABLE
2
APPID
5
9
100
AcDbSymbolTable
70
1
0
APPID
5
213
100
AcDbSymbolTableRecord
100
AcDbRegAppTableRecord
2
ACAD
70
0
0
ENDTAB
0
TABLE
2
BLOCK_RECORD
5
1
100
AcDbSymbolTable
70
0
0
BLOCK_RECORD
5
1F
100
AcDbSymbolTableRecord
100
AcDbBlockTableRecord
2
*MODEL_SPACE
0
BLOCK_RECORD
5
1B
100
AcDbSymbolTableRecord
100
AcDbBlockTableRecord
2
*PAPER_SPACE
0
ENDTAB
0
TABLE
2
DIMSTYLE
5
A
100
AcDbSymbolTable
70
1
100
AcDbDimStyleTable
71
0
0
DIMSTYLE
105
214
100
AcDbSymbolTableRecord
100
AcDbDimStyleTableRecord
2
STANDARD
70
0
3

4

40
1.0
41
3.0000000000
42
0.0625
43
0.38
44
0.18
45
0.0
46
0.0
47
0.0100000000
48
0.0100000000
140
3.0000000000
141
0.09
142
0.0
143
25.4
144
1.0000000000
145
0.0
146
1.0000000000
147
0.09
71
1
72
0
73
0
74
0
75
0
76
0
77
1
78
8
170
0
171
2
172
0
173
0
174
0
175
0
176
0
177
0
178
0
270
2
271
2
272
2
273
2
274
2
275
0
280
0
281
0
282
0
283
1
284
8
285
0
286
0
287
3
288
0
340
11
0
ENDTAB
0
ENDSEC
0
SECTION
2
BLOCKS
0
BLOCK
5
20
100
AcDbEntity
8
0
100
AcDbBlockBegin
2
*MODEL_SPACE
70
0
10
0.0
20
0.0
30
0.0
3
*MODEL_SPACE
1

0
ENDBLK
5
21
100
AcDbEntity
8
0
100
AcDbBlockEnd
0
BLOCK
5
1C
100
AcDbEntity
8
0
100
AcDbBlockBegin
2
*PAPER_SPACE
70
0
10
0.0
20
0.0
30
0.0
3
*PAPER_SPACE
1

0
ENDBLK
5
1D
100
AcDbEntity
8
0
100
AcDbBlockEnd
0
ENDSEC
0
SECTION
2
ENTITIES
0
LINE
5
215
100
AcDbEntity
8
0
100
AcDbLine
62
9
6
CONTINUOUS
10
-3.0000000000
20
-23.5000000000
11
-2.7812783412
21
-23.4781828305
0
LINE
5
216
100
AcDbEntity
8
0
100
AcDbLine
62
9
6
CONTINUOUS
10
-3.9733373476
20
-23.5000000000
11
-3.0000000000
21
-23.5000000000
0
LINE
5
217
100
AcDbEntity
8
0
100
AcDbLine
62
9
6
CONTINUOUS
10
3.0000000000
20
-23.5000000000
11
3.9733373476
21
-23.5000000000
0
LINE
5
218
100
AcDbEntity
8
0
100
AcDbLine
62
9
6
CONTINUOUS
10
2.7812783412
20
-23.4781828305
11
-2.7812783412
21
-23.4781828305
0
LINE
5
219
100
AcDbEntity
8
0
100
AcDbLine
62
9
6
CONTINUOUS
10
-3.9630152422
20
-23.4650925288
11
3.9630152422
21
-23.4650925288
0
LINE
5
21A
100
AcDbEntity
8
0
100
AcDbLine
62
9
6
CONTINUOUS
10
-10.6503805997
20
-22.4000000000
11
-5.5500000000
21
-22.4000000000
0
LINE
5
21B
100
AcDbEntity
8
0
100
AcDbLine
62
9
6
CONTINUOUS
10
5.5500000000
20
-22.4000000000
11
10.6503805997
21
-22.4000000000
0
LINE
5
21C
100
AcDbEntity
8
0
100
AcDbLine
62
9
6
CONTINUOUS
10
3.0000000000
20
-23.5000000000
11
2.7812783412
21
-23.4781828305
0
LINE
5
21D
100
AcDbEntity
8
0
100
AcDbLine
62
9
6
CONTINUOUS
10
7.3830351795
20
-20.9000000000
11
7.2382150030
21
-20.9317102097
0
LINE
5
21E
100
AcDbEntity
8
0
100
AcDbLine
62
9
6
CONTINUOUS
10
-3.4345963649
20
-21.2139629885
11
-3.1516814075
21
-21.1999238360
0
LINE
5
21F
100
AcDbEntity
8
0
100
AcDbLine
62
9
6
CONTINUOUS
10
-3.0104834329
20
-22.1955695989
11
-3.1000000000
21
-22.2000000000
0
LINE
5
220
100
AcDbEntity
8
0
100
AcDbLine
62
9
6
CONTINUOUS
10
-2.7003889480
20
-21.1802222394
11
-3.0984611006
21
-21.1999238360
0
LINE
5
221
100
AcDbEntity
8
0
100
AcDbLine
62
9
6
CONTINUOUS
10
3.3821231691
20
-22.2000000000
11
-3.3821231691
21
-22.2000000000
0
LINE
5
222
100
AcDbEntity
8
0
100
AcDbLine
62
9
6
CONTINUOUS
10
-3.0104834329
20
-22.1955695989
11
3.0104834329
21
-22.1955695989
0
LINE
5
223
100
AcDbEntity
8
0
100
AcDbLine
62
9
6
CONTINUOUS
10
6.9712561167
20
-21.2139629885
11
3.4345963650
21
-21.2139629885
0
LINE
5
224
100
AcDbEntity
8
0
100
AcDbLine
62
9
6
CONTINUOUS
10
-3.4345963649
20
-21.2139629885
11
-6.9712561167
21
-21.2139629885
0
LINE
5
225
100
AcDbEntity
8
0
100
AcDbLine
62
9
6
CONTINUOUS
10
-3.1516814075
20
-21.1999238360
11
-3.0984611006
21
-21.1999238360
0
LINE
5
226
100
AcDbEntity
8
0
100
AcDbLine
62
9
6
CONTINUOUS
10
3.0984611006
20
-21.1999238360
11
3.1516814075
21
-21.1999238360
0
LINE
5
227
100
AcDbEntity
8
0
100
AcDbLine
62
9
6
CONTINUOUS
10
6.9587505924
20
-21.1802222394
11
2.7003889480
21
-21.1802222394
0
LINE
5
228
100
AcDbEntity
8
0
100
AcDbLine
62
9
6
CONTINUOUS
10
-2.7003889480
20
-21.1802222394
11
-6.9587505924
21
-21.1802222394
0
LINE
5
229
100
AcDbEntity
8
0
100
AcDbLine
62
9
6
CONTINUOUS
10
9.6500000000
20
-20.9000000000
11
7.3830351795
21
-20.9000000000
0
LINE
5
22A
100
AcDbEntity
8
0
100
AcDbLine
62
9
6
CONTINUOUS
10
-7.3830351795
20
-20.9000000000
11
-9.6500000000
21
-20.9000000000
0
LINE
5
22B
100
AcDbEntity
8
0
100
AcDbLine
62
9
6
CONTINUOUS
10
9.5103594806
20
-20.7603594806
11
7.5226756989
21
-20.7603594806
0
LINE
5
22C
100
AcDbEntity
8
0
100
AcDbLine
62
9
6
CONTINUOUS
10
-7.5226756989
20
-20.7603594806
11
-9.5103594806
21
-20.7603594806
0
LINE
5
22D
100
AcDbEntity
8
0
100
AcDbLine
62
9
6
CONTINUOUS
10
3.1000000000
20
-22.2000000000
11
3.0104834329
21
-22.1955695989
0
LINE
5
22E
100
AcDbEntity
8
0
100
AcDbLine
62
9
6
CONTINUOUS
10
3.0984611006
20
-21.1999238360
11
2.7003889480
21
-21.1802222394
0
LINE
5
22F
100
AcDbEntity
8
0
100
AcDbLine
62
9
6
CONTINUOUS
10
3.4345963650
20
-21.2139629885
11
3.1516814075
21
-21.1999238360
0
LINE
5
230
100
AcDbEntity
8
0
100
AcDbLine
62
9
6
CONTINUOUS
10
-7.3830351795
20
-20.9000000000
11
-7.2382150030
21
-20.9317102097
0
LINE
5
231
100
AcDbEntity
8
0
100
AcDbLine
62
9
6
CONTINUOUS
10
-7.5226756989
20
20.7603594806
11
-7.3830351795
21
20.9000000000
0
LINE
5
232
100
AcDbEntity
8
0
100
AcDbLine
62
9
6
CONTINUOUS
10
-7.3568525821
20
19.0000000000
11
-7.2195044567
21
19.0686688326
0
LINE
5
233
100
AcDbEntity
8
0
100
AcDbLine
62
9
6
CONTINUOUS
10
3.2635064284
20
-19.0360211209
11
3.5699041346
21
-19.0208965595
0
LINE
5
234
100
AcDbEntity
8
0
100
AcDbLine
62
9
6
CONTINUOUS
10
-7.2084845302
20
-19.9483339502
11
7.2084845302
21
-19.9483339502
0
LINE
5
235
100
AcDbEntity
8
0
100
AcDbLine
62
9
6
CONTINUOUS
10
7.2084845302
20
-19.7000000000
11
-7.2084845302
21
-19.7000000000
0
LINE
5
236
100
AcDbEntity
8
0
100
AcDbLine
62
9
6
CONTINUOUS
10
7.2195044567
20
-19.0686688326
11
-7.2195044567
21
-19.0686688326
0
LINE
5
237
100
AcDbEntity
8
0
100
AcDbLine
62
9
6
CONTINUOUS
10
6.0819690456
20
-19.0610787705
11
0.6248835365
21
-19.0610787705
0
LINE
5
238
100
AcDbEntity
8
0
100
AcDbLine
62
9
6
CONTINUOUS
10
-0.6248835365
20
-19.0610787705
11
-6.0819690456
21
-19.0610787705
0
LINE
5
239
100
AcDbEntity
8
0
100
AcDbLine
62
9
6
CONTINUOUS
10
2.7459745197
20
-19.0515923727
11
0.6247179508
21
-19.0515923727
0
LINE
5
23A
100
AcDbEntity
8
0
100
AcDbLine
62
9
6
CONTINUOUS
10
-0.6247179508
20
-19.0515923727
11
-2.7459745197
21
-19.0515923727
0
LINE
5
23B
100
AcDbEntity
8
0
100
AcDbLine
62
9
6
CONTINUOUS
10
-2.8188092697
20
-19.0446711717
11
-1.0891456037
21
-19.0446711717
0
LINE
5
23C
100
AcDbEntity
8
0
100
AcDbLine
62
9
6
CONTINUOUS
10
1.0891456037
20
-19.0446711717
11
2.8188092697
21
-19.0446711717
0
LINE
5
23D
100
AcDbEntity
8
0
100
AcDbLine
62
9
6
CONTINUOUS
10
-4.2188412250
20
-19.0393461217
11
-3.7086189729
21
-19.0393461217
0
LINE
5
23E
100
AcDbEntity
8
0
100
AcDbLine
62
9
6
CONTINUOUS
10
3.7086189729
20
-19.0393461217
11
4.2188412250
21
-19.0393461217
0
LINE
5
23F
100
AcDbEntity
8
0
100
AcDbLine
62
9
6
CONTINUOUS
10
3.2635064284
20
-19.0360211209
11
2.8188847576
21
-19.0360211209
0
LINE
5
240
100
AcDbEntity
8
0
100
AcDbLine
62
9
6
CONTINUOUS
10
-2.8188847576
20
-19.0360211209
11
-3.2635064284
21
-19.0360211209
0
LINE
5
241
100
AcDbEntity
8
0
100
AcDbLine
62
9
6
CONTINUOUS
10
3.5699041346
20
-19.0208965595
11
2.8190167476
21
-19.0208965595
0
LINE
5
242
100
AcDbEntity
8
0
100
AcDbLine
62
9
6
CONTINUOUS
10
-2.8190167476
20
-19.0208965595
11
-3.5699041346
21
-19.0208965595
0
LINE
5
243
100
AcDbEntity
8
0
100
AcDbLine
62
9
6
CONTINUOUS
10
4.2127354653
20
-19.0165591163
11
3.7025132132
21
-19.0165591163
0
LINE
5
244
100
AcDbEntity
8
0
100
AcDbLine
62
9
6
CONTINUOUS
10
-3.7025132132
20
-19.0165591163
11
-4.2127354653
21
-19.0165591163
0
LINE
5
245
100
AcDbEntity
8
0
100
AcDbLine
62
9
6
CONTINUOUS
10
-7.5005330670
20
-19.0000000000
11
-4.5673885653
21
-19.0000000000
0
LINE
5
246
100
AcDbEntity
8
0
100
AcDbLine
62
9
6
CONTINUOUS
10
7.5005330670
20
-19.0000000000
11
4.5673885653
21
-19.0000000000
0
LINE
5
247
100
AcDbEntity
8
0
100
AcDbLine
62
9
6
CONTINUOUS
10
2.7295886809
20
-18.9904395897
11
2.5000000000
21
-18.9904395897
0
LINE
5
248
100
AcDbEntity
8
0
100
AcDbLine
62
9
6
CONTINUOUS
10
-2.5000000000
20
-18.9904395897
11
-2.7295886809
21
-18.9904395897
0
LINE
5
249
100
AcDbEntity
8
0
100
AcDbLine
62
9
6
CONTINUOUS
10
4.2500000000
20
-18.9685808831
11
2.5000000000
21
-18.9685808831
0
LINE
5
24A
100
AcDbEntity
8
0
100
AcDbLine
62
9
6
CONTINUOUS
10
-2.5000000000
20
-18.9685808831
11
-4.2500000000
21
-18.9685808831
0
LINE
5
24B
100
AcDbEntity
8
0
100
AcDbLine
62
9
6
CONTINUOUS
10
1.4669721784
20
-18.9185155063
11
-1.4669721784
21
-18.9185155063
0
LINE
5
24C
100
AcDbEntity
8
0
100
AcDbLine
62
9
6
CONTINUOUS
10
-3.5699041346
20
-19.0208965595
11
-3.2635064284
21
-19.0360211209
0
LINE
5
24D
100
AcDbEntity
8
0
100
AcDbLine
62
9
6
CONTINUOUS
10
-7.2195044567
20
-19.0686688326
11
-7.3568525821
21
-19.0000000000
0
LINE
5
24E
100
AcDbEntity
8
0
100
AcDbLine
62
9
6
CONTINUOUS
10
-7.5226756989
20
-20.7603594806
11
-7.3830351795
21
-20.9000000000
0
LINE
5
24F
100
AcDbEntity
8
0
100
AcDbLine
62
9
6
CONTINUOUS
10
-4.2500000000
20
-18.9685808831
11
-4.5673885653
21
-19.0000000000
0
LINE
5
250
100
AcDbEntity
8
0
100
AcDbLine
62
9
6
CONTINUOUS
10
-7.0202141485
20
-18.5196810816
11
-6.5394041794
21
-18.5196810816
0
LINE
5
251
100
AcDbEntity
8
0
100
AcDbLine
62
9
6
CONTINUOUS
10
0.5394041794
20
-18.5196810816
11
7.0202141485
21
-18.5196810816
0
LINE
5
252
100
AcDbEntity
8
0
100
AcDbLine
62
9
6
CONTINUOUS
10
-7.0202141485
20
-17.5198333864
11
-5.5480929688
21
-17.5198333864
0
LINE
5
253
100
AcDbEntity
8
0
100
AcDbLine
62
9
6
CONTINUOUS
10
-0.4519070312
20
-17.5198333864
11
7.0202141485
21
-17.5198333864
0
LINE
5
254
100
AcDbEntity
8
0
100
AcDbLine
62
9
6
CONTINUOUS
10
4.5673885653
20
-19.0000000000
11
4.2500000000
21
-18.9685808831
0
LINE
5
255
100
AcDbEntity
8
0
100
AcDbLine
62
9
6
CONTINUOUS
10
-2.6117363541
20
-17.1000000000
11
-3.1882636459
21
-17.1000000000
0
LINE
5
256
100
AcDbEntity
8
0
100
AcDbLine
62
9
6
CONTINUOUS
10
-0.4693607668
20
-17.0374407794
11
-5.5306392332
21
-17.0374407794
0
LINE
5
257
100
AcDbEntity
8
0
100
AcDbLine
62
9
6
CONTINUOUS
10
-0.4519070312
20
-17.0025306495
11
-5.5480929688
21
-17.0025306495
0
LINE
5
258
100
AcDbEntity
8
0
100
AcDbLine
62
9
6
CONTINUOUS
10
-5.2500000000
20
-15.7034453146
11
-0.7500003448
21
-15.7034453146
0
LINE
5
259
100
AcDbEntity
8
0
100
AcDbLine
62
9
6
CONTINUOUS
10
-5.2500000000
20
-15.4034453146
11
-0.7500000000
21
-15.4034453146
0
LINE
5
25A
100
AcDbEntity
8
0
100
AcDbLine
62
9
6
CONTINUOUS
10
-5.0152600000
20
13.8225420000
11
-4.0000000000
21
14.4615080000
0
LINE
5
25B
100
AcDbEntity
8
0
100
AcDbLine
62
9
6
CONTINUOUS
10
-4.2346470000
20
14.4875640000
11
-5.2500000000
21
13.8591590000
0
LINE
5
25C
100
AcDbEntity
8
0
100
AcDbLine
62
9
6
CONTINUOUS
10
-6.0005080000
20
12.8720470000
11
-7.9003540000
21
12.2891270000
0
LINE
5
25D
100
AcDbEntity
8
0
100
AcDbLine
62
9
6
CONTINUOUS
10
-0.7500000000
20
-15.1000000000
11
-5.2500000000
21
-15.1000000000
0
LINE
5
25E
100
AcDbEntity
8
0
100
AcDbLine
62
9
6
CONTINUOUS
10
-9.5198333864
20
-15.0202141485
11
-10.5196810816
21
-15.0202139867
0
LINE
5
25F
100
AcDbEntity
8
0
100
AcDbLine
62
9
6
CONTINUOUS
10
9.5198333864
20
-15.0202141485
11
10.5196810816
21
-15.0202141485
0
LINE
5
260
100
AcDbEntity
8
0
100
AcDbLine
62
9
6
CONTINUOUS
10
-0.7500000000
20
-14.8000000000
11
-5.2500000000
21
-14.8000000000
0
LINE
5
261
100
AcDbEntity
8
0
100
AcDbLine
62
9
6
CONTINUOUS
10
0.3598484229
20
-14.0500000000
11
-1.8598484229
21
-14.0500000000
0
LINE
5
262
100
AcDbEntity
8
0
100
AcDbLine
62
9
6
CONTINUOUS
10
-4.1401515771
20
-14.0500000000
11
-6.3598484229
21
-14.0500000000
0
LINE
5
263
100
AcDbEntity
8
0
100
AcDbLine
62
9
6
CONTINUOUS
10
-6.5394041794
20
-18.5196810816
11
-6.4998667307
21
-18.5987620016
0
LINE
5
264
100
AcDbEntity
8
0
100
AcDbLine
62
9
6
CONTINUOUS
10
-6.8455540000
20
10.2807070000
11
-7.9003540000
21
9.8883230000
0
LINE
5
265
100
AcDbEntity
8
0
100
AcDbLine
62
9
6
CONTINUOUS
10
11.1238174026
20
16.4544358981
11
11.1500000000
21
16.4633443083
0
LINE
5
266
100
AcDbEntity
8
0
100
AcDbLine
62
9
6
CONTINUOUS
10
10.9162414635
20
17.0643546451
11
10.9426253515
21
17.0730014938
0
LINE
5
267
100
AcDbEntity
8
0
100
AcDbLine
62
9
6
CONTINUOUS
10
-0.0102631693
20
-13.5500000000
11
-2.2741004984
21
-13.5500000000
0
LINE
5
268
100
AcDbEntity
8
0
100
AcDbLine
62
9
6
CONTINUOUS
10
-3.7258995016
20
-13.5500000000
11
-6.0897368307
21
-13.5500000000
0
LINE
5
269
100
AcDbEntity
8
0
100
AcDbLine
62
9
6
CONTINUOUS
10
-6.9872073604
20
-12.5567144730
11
-6.5500000000
21
-12.5567144730
0
LINE
5
26A
100
AcDbEntity
8
0
100
AcDbLine
62
9
6
CONTINUOUS
10
0.4500000000
20
-12.5567144730
11
0.9500000000
21
-12.5567144730
0
LINE
5
26B
100
AcDbEntity
8
0
100
AcDbLine
62
9
6
CONTINUOUS
10
0.3544089061
20
-12.5500000000
11
-2.4866078872
21
-12.5500000000
0
LINE
5
26C
100
AcDbEntity
8
0
100
AcDbLine
62
9
6
CONTINUOUS
10
-3.5133921128
20
-12.5500000000
11
-6.4544089061
21
-12.5500000000
0
LINE
5
26D
100
AcDbEntity
8
0
100
AcDbLine
62
9
6
CONTINUOUS
10
0.4500000000
20
-12.0500000000
11
-2.3690145377
21
-12.0500000000
0
LINE
5
26E
100
AcDbEntity
8
0
100
AcDbLine
62
9
6
CONTINUOUS
10
-3.6309854623
20
-12.0500000000
11
-6.5500000000
21
-12.0500000000
0
LINE
5
26F
100
AcDbEntity
8
0
100
AcDbLine
62
9
6
CONTINUOUS
10
10.9162414635
20
-17.0643546451
11
10.9426253515
21
-17.0730014938
0
LINE
5
270
100
AcDbEntity
8
0
100
AcDbLine
62
9
6
CONTINUOUS
10
11.1238174026
20
-16.4544358981
11
11.1500000000
21
-16.4633443083
0
LINE
5
271
100
AcDbEntity
8
0
100
AcDbLine
62
9
6
CONTINUOUS
10
-5.5480929688
20
-17.5025306437
11
-5.4999048077
21
-17.5989143065
0
LINE
5
272
100
AcDbEntity
8
0
100
AcDbLine
62
9
6
CONTINUOUS
10
-5.5480929688
20
-17.0025306495
11
-5.4999048077
21
-17.0989143123
0
LINE
5
273
100
AcDbEntity
8
0
100
AcDbLine
62
9
6
CONTINUOUS
10
-11.1500000000
20
-21.8997711479
11
-11.1500000000
21
21.8997711479
0
LINE
5
274
100
AcDbEntity
8
0
100
AcDbLine
62
9
6
CONTINUOUS
10
-11.1238174026
20
16.4544358981
11
-11.1238174026
21
-16.4544358981
0
LINE
5
275
100
AcDbEntity
8
0
100
AcDbLine
62
9
6
CONTINUOUS
10
-11.0000000000
20
15.5005330670
11
-11.0000000000
21
-15.5005330670
0
LINE
5
276
100
AcDbEntity
8
0
100
AcDbLine
62
9
6
CONTINUOUS
10
-10.5196810816
20
15.0202141485
11
-10.5196810816
21
-15.0202141485
0
LINE
5
277
100
AcDbEntity
8
0
100
AcDbLine
62
9
6
CONTINUOUS
10
2.5000000000
20
18.9685808831
11
2.4673008778
21
18.9358817610
0
LINE
5
278
100
AcDbEntity
8
0
100
AcDbLine
62
9
6
CONTINUOUS
10
-7.2410720000
20
9.7855040000
11
-6.0005080000
21
10.2507320000
0
LINE
5
279
100
AcDbEntity
8
0
100
AcDbLine
62
9
6
CONTINUOUS
10
-5.2500000000
20
-10.6000000000
11
-0.7500000000
21
-10.6000000000
0
LINE
5
27A
100
AcDbEntity
8
0
100
AcDbLine
62
9
6
CONTINUOUS
10
-5.2500000000
20
-10.3000000000
11
-0.7500000000
21
-10.3000000000
0
LINE
5
27B
100
AcDbEntity
8
0
100
AcDbLine
62
9
6
CONTINUOUS
10
2.5000000000
20
-18.9685808831
11
2.4673008778
21
-18.9358817610
0
LINE
5
27C
100
AcDbEntity
8
0
100
AcDbLine
62
9
6
CONTINUOUS
10
-9.6500000000
20
20.9000000000
11
-9.6500000000
21
18.2585027295
0
LINE
5
27D
100
AcDbEntity
8
0
100
AcDbLine
62
9
6
CONTINUOUS
10
-9.6500000000
20
-18.2585026830
11
-9.6500000000
21
-20.9000000000
0
LINE
5
27E
100
AcDbEntity
8
0
100
AcDbLine
62
9
6
CONTINUOUS
10
-9.5198333864
20
15.0202141485
11
-9.5198333864
21
-15.0202141485
0
LINE
5
27F
100
AcDbEntity
8
0
100
AcDbLine
62
9
6
CONTINUOUS
10
-9.5103594806
20
20.7603594806
11
-9.5103594806
21
18.3554413186
0
LINE
5
280
100
AcDbEntity
8
0
100
AcDbLine
62
9
6
CONTINUOUS
10
-9.5103594806
20
-18.3554414599
11
-9.5103594806
21
-20.7603594806
0
LINE
5
281
100
AcDbEntity
8
0
100
AcDbLine
62
9
6
CONTINUOUS
10
-0.4998667307
20
18.5987620016
11
-0.5394041794
21
18.5196810816
0
LINE
5
282
100
AcDbEntity
8
0
100
AcDbLine
62
9
6
CONTINUOUS
10
-4.0000000000
20
9.1500200000
11
-5.2500000000
21
8.6973940000
0
LINE
5
283
100
AcDbEntity
8
0
100
AcDbLine
62
9
6
CONTINUOUS
10
-4.3638970000
20
8.8418870000
11
-4.0000000000
21
8.9655550000
0
LINE
5
284
100
AcDbEntity
8
0
100
AcDbLine
62
9
6
CONTINUOUS
10
-5.0686980000
20
8.5946710000
11
-4.5136200000
21
8.7808920000
0
LINE
5
285
100
AcDbEntity
8
0
100
AcDbLine
62
9
6
CONTINUOUS
10
-7.9003540000
20
7.0008510000
11
-6.0005080000
21
7.6031390000
0
LINE
5
286
100
AcDbEntity
8
0
100
AcDbLine
62
9
6
CONTINUOUS
10
-0.7500000000
20
-9.9965546854
11
-5.2500000000
21
-9.9965546854
0
LINE
5
287
100
AcDbEntity
8
0
100
AcDbLine
62
9
6
CONTINUOUS
10
-0.7500000000
20
-9.6965546854
11
-5.2499996552
21
-9.6965546854
0
LINE
5
288
100
AcDbEntity
8
0
100
AcDbLine
62
9
6
CONTINUOUS
10
-7.2195044567
20
-19.0686688326
11
-7.2084845302
21
-19.7000000000
0
LINE
5
289
100
AcDbEntity
8
0
100
AcDbLine
62
9
6
CONTINUOUS
10
-7.9004680000
20
9.1070460000
11
-7.9004680000
21
8.7104740000
0
LINE
5
28A
100
AcDbEntity
8
0
100
AcDbLine
62
9
6
CONTINUOUS
10
-7.9003540000
20
12.2891270000
11
-7.9003540000
21
11.9054910000
0
LINE
5
28B
100
AcDbEntity
8
0
100
AcDbLine
62
9
6
CONTINUOUS
10
-7.9003540000
20
11.0696490000
11
-7.9003540000
21
10.6772790000
0
LINE
5
28C
100
AcDbEntity
8
0
100
AcDbLine
62
9
6
CONTINUOUS
10
-7.9003540000
20
9.8883230000
11
-7.9003540000
21
9.4920790000
0
LINE
5
28D
100
AcDbEntity
8
0
100
AcDbLine
62
9
6
CONTINUOUS
10
-7.9003540000
20
8.5633050000
11
-7.9003540000
21
8.1670030000
0
LINE
5
28E
100
AcDbEntity
8
0
100
AcDbLine
62
9
6
CONTINUOUS
10
-7.9003540000
20
7.4316510000
11
-7.9003540000
21
7.0008510000
0
LINE
5
28F
100
AcDbEntity
8
0
100
AcDbLine
62
9
6
CONTINUOUS
10
-7.8646138101
20
1.9000000000
11
-7.8646138101
21
1.5000000000
0
LINE
5
290
100
AcDbEntity
8
0
100
AcDbLine
62
9
6
CONTINUOUS
10
-7.5226756989
20
-20.7603594806
11
-7.5226756989
21
-19.0000000000
0
LINE
5
291
100
AcDbEntity
8
0
100
AcDbLine
62
9
6
CONTINUOUS
10
-7.5226756989
20
19.0000000000
11
-7.5226756989
21
20.7603594806
0
LINE
5
292
100
AcDbEntity
8
0
100
AcDbLine
62
9
6
CONTINUOUS
10
-7.2084845302
20
19.9483339502
11
-7.2084845302
21
19.7000000000
0
LINE
5
293
100
AcDbEntity
8
0
100
AcDbLine
62
9
6
CONTINUOUS
10
-7.2084845302
20
-19.7000000000
11
-7.2084845302
21
-19.9483339502
0
LINE
5
294
100
AcDbEntity
8
0
100
AcDbLine
62
9
6
CONTINUOUS
10
-7.0551515130
20
13.5969637767
11
-7.0551515130
21
13.3703266239
0
LINE
5
295
100
AcDbEntity
8
0
100
AcDbLine
62
9
6
CONTINUOUS
10
-7.0202141485
20
17.5198333864
11
-7.0202139867
21
18.5196810816
0
LINE
5
296
100
AcDbEntity
8
0
100
AcDbLine
62
9
6
CONTINUOUS
10
-7.0202141485
20
-17.5198333864
11
-7.0202141485
21
-18.5196810816
0
LINE
5
297
100
AcDbEntity
8
0
100
AcDbLine
62
9
6
CONTINUOUS
10
-6.9646138101
20
2.8000000000
11
-6.9646138101
21
1.9000000000
0
LINE
5
298
100
AcDbEntity
8
0
100
AcDbLine
62
9
6
CONTINUOUS
10
-6.9646138101
20
1.5000000000
11
-6.9646138101
21
0.6000000000
0
LINE
5
299
100
AcDbEntity
8
0
100
AcDbLine
62
9
6
CONTINUOUS
10
-6.7440026937
20
13.3834763657
11
-6.7440026937
21
13.5961089723
0
LINE
5
29A
100
AcDbEntity
8
0
100
AcDbLine
62
9
6
CONTINUOUS
10
-7.2084845302
20
19.7000000000
11
-7.2195044567
21
19.0686688326
0
LINE
5
29B
100
AcDbEntity
8
0
100
AcDbLine
62
9
6
CONTINUOUS
10
0.5000854695
20
17.5988948592
11
0.4519070312
21
17.5025306437
0
LINE
5
29C
100
AcDbEntity
8
0
100
AcDbLine
62
9
6
CONTINUOUS
10
0.4519070312
20
17.0025306495
11
0.5000951923
21
17.0989143123
0
LINE
5
29D
100
AcDbEntity
8
0
100
AcDbLine
62
9
6
CONTINUOUS
10
7.5005330670
20
19.0000000000
11
7.0202141485
21
18.5196810816
0
LINE
5
29E
100
AcDbEntity
8
0
100
AcDbLine
62
9
6
CONTINUOUS
10
9.5103594806
20
20.7603594806
11
9.6500000000
21
20.9000000000
0
LINE
5
29F
100
AcDbEntity
8
0
100
AcDbLine
62
9
6
CONTINUOUS
10
1.0000000000
20
-7.8646138101
11
1.4000000000
21
-7.8646138101
0
LINE
5
2A0
100
AcDbEntity
8
0
100
AcDbLine
62
9
6
CONTINUOUS
10
7.5005330670
20
-19.0000000000
11
7.0202141485
21
-18.5196810816
0
LINE
5
2A1
100
AcDbEntity
8
0
100
AcDbLine
62
9
6
CONTINUOUS
10
9.6500000000
20
-20.9000000000
11
9.5103594806
21
-20.7603594806
0
LINE
5
2A2
100
AcDbEntity
8
0
100
AcDbLine
62
9
6
CONTINUOUS
10
-6.5500000000
20
-12.5567144730
11
-6.6200282971
21
-12.0634289460
0
LINE
5
2A3
100
AcDbEntity
8
0
100
AcDbLine
62
9
6
CONTINUOUS
10
-7.2382150030
20
20.9317102097
11
-7.2084845302
21
19.9483339502
0
LINE
5
2A4
100
AcDbEntity
8
0
100
AcDbLine
62
9
6
CONTINUOUS
10
-6.0830351795
20
-19.0000000000
11
-6.0819690456
21
-19.0610787705
0
LINE
5
2A5
100
AcDbEntity
8
0
100
AcDbLine
62
9
6
CONTINUOUS
10
-6.6732680000
20
12.2720880000
11
-6.6732680000
21
11.8923980000
0
LINE
5
2A6
100
AcDbEntity
8
0
100
AcDbLine
62
9
6
CONTINUOUS
10
-6.5646138101
20
0.6000000000
11
-6.5646138101
21
1.5000000000
0
LINE
5
2A7
100
AcDbEntity
8
0
100
AcDbLine
62
9
6
CONTINUOUS
10
-6.5646138101
20
1.9000000000
11
-6.5646138101
21
2.8000000000
0
LINE
5
2A8
100
AcDbEntity
8
0
100
AcDbLine
62
9
6
CONTINUOUS
10
-6.5500000000
20
-13.8658322525
11
-6.5500000000
21
-12.5567278987
0
LINE
5
2A9
100
AcDbEntity
8
0
100
AcDbLine
62
9
6
CONTINUOUS
10
-6.4544089061
20
-12.5500000000
11
-6.4544089061
21
-12.0500000000
0
LINE
5
2AA
100
AcDbEntity
8
0
100
AcDbLine
62
9
6
CONTINUOUS
10
-6.3797850000
20
11.8112770000
11
-6.3797850000
21
12.3513420000
0
LINE
5
2AB
100
AcDbEntity
8
CURVE
100
AcDbLine
62
9
6
CONTINUOUS
10
-6.0500000000
20
-14.0500000000
11
-6.0500000000
21
-13.5500000000
0
LINE
5
2AC
100
AcDbEntity
8
CURVE
100
AcDbLine
62
9
6
CONTINUOUS
10
-6.0500000000
20
-12.0500000000
11
-6.0500000000
21
-11.1494726081
0
LINE
5
2AD
100
AcDbEntity
8
0
100
AcDbLine
62
9
6
CONTINUOUS
10
-6.0005080000
20
7.6031390000
11
-6.0005080000
21
7.9526180000
0
LINE
5
2AE
100
AcDbEntity
8
0
100
AcDbLine
62
9
6
CONTINUOUS
10
-6.0005080000
20
8.7104740000
11
-6.0005080000
21
9.1070460000
0
LINE
5
2AF
100
AcDbEntity
8
0
100
AcDbLine
62
9
6
CONTINUOUS
10
-6.0005080000
20
9.3205340000
11
-6.0005080000
21
9.6999240000
0
LINE
5
2B0
100
AcDbEntity
8
0
100
AcDbLine
62
9
6
CONTINUOUS
10
-6.0005080000
20
10.2507320000
11
-6.0005080000
21
10.3063510000
0
LINE
5
2B1
100
AcDbEntity
8
0
100
AcDbLine
62
9
6
CONTINUOUS
10
-6.0005080000
20
10.8593530000
11
-6.0005080000
21
11.2473060000
0
LINE
5
2B2
100
AcDbEntity
8
0
100
AcDbLine
62
9
6
CONTINUOUS
10
-6.0005080000
20
11.3095780000
11
-6.0005080000
21
11.7018480000
0
LINE
5
2B3
100
AcDbEntity
8
0
100
AcDbLine
62
9
6
CONTINUOUS
10
-6.0005080000
20
12.4540760000
11
-6.0005080000
21
12.8720470000
0
LINE
5
2B4
100
AcDbEntity
8
0
100
AcDbLine
62
9
6
CONTINUOUS
10
-6.0005080312
20
12.9884997236
11
-6.0005080312
21
13.3834763657
0
LINE
5
2B5
100
AcDbEntity
8
0
100
AcDbLine
62
9
6
CONTINUOUS
10
-6.0005080312
20
13.9907721861
11
-6.0005080312
21
14.3722286712
0
LINE
5
2B6
100
AcDbEntity
8
0
100
AcDbLine
62
9
6
CONTINUOUS
10
-5.6646138101
20
1.5000000000
11
-5.6646138101
21
1.9000000000
0
LINE
5
2B7
100
AcDbEntity
8
0
100
AcDbLine
62
9
6
CONTINUOUS
10
-5.5480929688
20
-17.5025306437
11
-5.5480929688
21
-17.0025306495
0
LINE
5
2B8
100
AcDbEntity
8
0
100
AcDbLine
62
9
6
CONTINUOUS
10
-5.4999048077
20
-17.5989143065
11
-5.4999048077
21
-17.0989143123
0
LINE
5
2B9
100
AcDbEntity
8
0
100
AcDbLine
62
9
6
CONTINUOUS
10
-5.2500000000
20
-15.1000000000
11
-5.2500000570
21
-14.8000000000
0
LINE
5
2BA
100
AcDbEntity
8
0
100
AcDbLine
62
9
6
CONTINUOUS
10
-5.2500000000
20
15.4311093565
11
-5.2500000000
21
14.9244970000
0
LINE
5
2BB
100
AcDbEntity
8
0
100
AcDbLine
62
9
6
CONTINUOUS
10
-5.2500000000
20
14.6512040000
11
-5.2500000000
21
14.4875640000
0
LINE
5
2BC
100
AcDbEntity
8
0
100
AcDbLine
62
9
6
CONTINUOUS
10
-5.2500000000
20
13.8591590000
11
-5.2500000000
21
13.6589020000
0
LINE
5
2BD
100
AcDbEntity
8
0
100
AcDbLine
62
9
6
CONTINUOUS
10
-5.2500000000
20
13.4256810000
11
-5.2500000000
21
12.5151010000
0
LINE
5
2BE
100
AcDbEntity
8
0
100
AcDbLine
62
9
6
CONTINUOUS
10
-5.2500000000
20
11.9162060797
11
-5.2500000000
21
11.3539280000
0
LINE
5
2BF
100
AcDbEntity
8
0
100
AcDbLine
62
9
6
CONTINUOUS
10
-5.2500000000
20
10.2119030000
11
-5.2500000000
21
9.1970000000
0
LINE
5
2C0
100
AcDbEntity
8
0
100
AcDbLine
62
9
6
CONTINUOUS
10
-5.2500000000
20
8.6973940000
11
-5.2500000000
21
8.5059220000
0
LINE
5
2C1
100
AcDbEntity
8
0
100
AcDbLine
62
9
6
CONTINUOUS
10
-5.2500000000
20
7.5622779313
11
-5.2500000000
21
7.0000000000
0
LINE
5
2C2
100
AcDbEntity
8
0
100
AcDbLine
62
9
6
CONTINUOUS
10
-5.2500000000
20
-10.3000000000
11
-5.2500000000
21
-10.6000000000
0
LINE
5
2C3
100
AcDbEntity
8
0
100
AcDbLine
62
9
6
CONTINUOUS
10
-5.2500000000
20
-15.4034453146
11
-5.2500000000
21
-15.7034453146
0
LINE
5
2C4
100
AcDbEntity
8
0
100
AcDbLine
62
9
6
CONTINUOUS
10
-5.2500000000
20
-9.9965546854
11
-5.2499996608
21
-9.6965546854
0
LINE
5
2C5
100
AcDbEntity
8
0
100
AcDbLine
62
9
6
CONTINUOUS
10
-5.1055070000
20
7.1688710000
11
-5.1055070000
21
7.5118456015
0
LINE
5
2C6
100
AcDbEntity
8
0
100
AcDbLine
62
9
6
CONTINUOUS
10
-5.1055070000
20
11.5227990000
11
-5.1055070000
21
11.8657737520
0
LINE
5
2C7
100
AcDbEntity
8
0
100
AcDbLine
62
9
6
CONTINUOUS
10
-5.1055070000
20
15.0933680000
11
-5.1055070000
21
15.4085087825
0
LINE
5
2C8
100
AcDbEntity
8
0
100
AcDbLine
62
9
6
CONTINUOUS
10
-5.1002760000
20
9.1970000000
11
-5.1002760000
21
9.6200160000
0
LINE
5
2C9
100
AcDbEntity
8
0
100
AcDbLine
62
9
6
CONTINUOUS
10
-5.1002760000
20
9.7888870000
11
-5.1002760000
21
10.2119030000
0
LINE
5
2CA
100
AcDbEntity
8
0
100
AcDbLine
62
9
6
CONTINUOUS
10
-5.1002760000
20
12.6839720000
11
-5.1002760000
21
13.4256810000
0
LINE
5
2CB
100
AcDbEntity
8
0
100
AcDbLine
62
9
6
CONTINUOUS
10
-6.0819690456
20
19.0610787705
11
-6.0830351795
21
19.0000000000
0
LINE
5
2CC
100
AcDbEntity
8
0
100
AcDbLine
62
9
6
CONTINUOUS
10
-7.2382150030
20
-20.9317102097
11
-7.2084845302
21
-19.9483339502
0
LINE
5
2CD
100
AcDbEntity
8
0
100
AcDbLine
62
9
6
CONTINUOUS
10
-6.7646138101
20
0.0000000000
11
-7.3646138101
21
-1.8000000000
0
LINE
5
2CE
100
AcDbEntity
8
0
100
AcDbLine
62
9
6
CONTINUOUS
10
1.4000000000
20
-5.6646138101
11
1.0000000000
21
-5.6646138101
0
LINE
5
2CF
100
AcDbEntity
8
0
100
AcDbLine
62
9
6
CONTINUOUS
10
0.0000000000
20
-6.7646138101
11
-1.8000000000
21
-6.1646138101
0
LINE
5
2D0
100
AcDbEntity
8
0
100
AcDbLine
62
9
6
CONTINUOUS
10
-6.1646138101
20
-1.8000000000
11
-6.7646138101
21
0.0000000000
0
LINE
5
2D1
100
AcDbEntity
8
0
100
AcDbLine
62
9
6
CONTINUOUS
10
-3.4345963649
20
-21.2139629885
11
-3.3821231691
21
-22.2000000000
0
LINE
5
2D2
100
AcDbEntity
8
0
100
AcDbLine
62
9
6
CONTINUOUS
10
-3.1875294058
20
-17.1420261637
11
-3.1882636459
21
-17.1000000000
0
LINE
5
2D3
100
AcDbEntity
8
0
100
AcDbLine
62
9
6
CONTINUOUS
10
-4.9000000000
20
19.0174537356
11
-4.9000000000
21
19.0610787705
0
LINE
5
2D4
100
AcDbEntity
8
0
100
AcDbLine
62
9
6
CONTINUOUS
10
-4.8000000000
20
-14.0500000000
11
-4.8000000000
21
-13.5500000000
0
LINE
5
2D5
100
AcDbEntity
8
0
100
AcDbLine
62
9
6
CONTINUOUS
10
-4.8000000000
20
-12.0500000000
11
-4.8000000000
21
-11.0129212581
0
LINE
5
2D6
100
AcDbEntity
8
0
100
AcDbLine
62
9
6
CONTINUOUS
10
-4.7172330000
20
13.3682390000
11
-4.7172330000
21
12.6839720000
0
LINE
5
2D7
100
AcDbEntity
8
0
100
AcDbLine
62
9
6
CONTINUOUS
10
-4.6720290000
20
11.8657704437
11
-4.6720290000
21
11.5227990000
0
LINE
5
2D8
100
AcDbEntity
8
0
100
AcDbLine
62
9
6
CONTINUOUS
10
-4.6720290000
20
7.5118422939
11
-4.6720290000
21
7.1688710000
0
LINE
5
2D9
100
AcDbEntity
8
0
100
AcDbLine
62
9
6
CONTINUOUS
10
-4.5675090000
20
12.6839720000
11
-4.5675090000
21
13.3682390000
0
LINE
5
2DA
100
AcDbEntity
8
0
100
AcDbLine
62
9
6
CONTINUOUS
10
-4.5275370000
20
7.1688710000
11
-4.5275370000
21
7.5622800339
0
LINE
5
2DB
100
AcDbEntity
8
0
100
AcDbLine
62
9
6
CONTINUOUS
10
-4.5275370000
20
11.5227990000
11
-4.5275370000
21
11.9162081823
0
LINE
5
2DC
100
AcDbEntity
8
0
100
AcDbLine
62
9
6
CONTINUOUS
10
-4.5136200000
20
8.7808920000
11
-4.5136200000
21
8.3927160000
0
LINE
5
2DD
100
AcDbEntity
8
0
100
AcDbLine
62
9
6
CONTINUOUS
10
-4.4319390000
20
-14.0500000000
11
-4.4319390000
21
-13.5500000000
0
LINE
5
2DE
100
AcDbEntity
8
0
100
AcDbLine
62
9
6
CONTINUOUS
10
-4.4319390000
20
-12.0500000000
11
-4.4319390000
21
-11.1580905882
0
LINE
5
2DF
100
AcDbEntity
8
0
100
AcDbLine
62
9
6
CONTINUOUS
10
-4.4000000000
20
19.0427616522
11
-4.4000000000
21
19.0610787705
0
LINE
5
2E0
100
AcDbEntity
8
0
100
AcDbLine
62
9
6
CONTINUOUS
10
-4.3638970000
20
8.3405050000
11
-4.3638970000
21
8.8418870000
0
LINE
5
2E1
100
AcDbEntity
8
0
100
AcDbLine
62
9
6
CONTINUOUS
10
-4.1845640000
20
16.3729770000
11
-4.1845640000
21
16.1918670000
0
LINE
5
2E2
100
AcDbEntity
8
0
100
AcDbLine
62
9
6
CONTINUOUS
10
-4.1845640000
20
10.5687920000
11
-4.1845640000
21
10.3877810000
0
LINE
5
2E3
100
AcDbEntity
8
0
100
AcDbLine
62
9
6
CONTINUOUS
10
-4.1497240000
20
13.4378210000
11
-4.1497240000
21
12.6839720000
0
LINE
5
2E4
100
AcDbEntity
8
0
100
AcDbLine
62
9
6
CONTINUOUS
10
-4.1444930000
20
15.4085087814
11
-4.1444930000
21
15.0933680000
0
LINE
5
2E5
100
AcDbEntity
8
0
100
AcDbLine
62
9
6
CONTINUOUS
10
-4.0000000000
20
7.0000000000
11
-4.0000000000
21
7.1688710000
0
LINE
5
2E6
100
AcDbEntity
8
0
100
AcDbLine
62
9
6
CONTINUOUS
10
-4.0000000000
20
8.0358270000
11
-4.0000000000
21
8.2099290000
0
LINE
5
2E7
100
AcDbEntity
8
0
100
AcDbLine
62
9
6
CONTINUOUS
10
-4.0000000000
20
8.9655550000
11
-4.0000000000
21
9.1500200000
0
LINE
5
2E8
100
AcDbEntity
8
0
100
AcDbLine
62
9
6
CONTINUOUS
10
-4.0000000000
20
9.6200160000
11
-4.0000000000
21
9.7888870000
0
LINE
5
2E9
100
AcDbEntity
8
0
100
AcDbLine
62
9
6
CONTINUOUS
10
-4.0000000000
20
10.3877810000
11
-4.0000000000
21
10.5687920000
0
LINE
5
2EA
100
AcDbEntity
8
0
100
AcDbLine
62
9
6
CONTINUOUS
10
-4.0000000000
20
11.3539280000
11
-4.0000000000
21
11.5227990000
0
LINE
5
2EB
100
AcDbEntity
8
0
100
AcDbLine
62
9
6
CONTINUOUS
10
-4.0000000000
20
12.5151010000
11
-4.0000000000
21
13.4378210000
0
LINE
5
2EC
100
AcDbEntity
8
0
100
AcDbLine
62
9
6
CONTINUOUS
10
-4.0000000000
20
13.6589020000
11
-4.0000000000
21
13.8225420000
0
LINE
5
2ED
100
AcDbEntity
8
0
100
AcDbLine
62
9
6
CONTINUOUS
10
-4.0000000000
20
14.4615080000
11
-4.0000000000
21
14.6512040000
0
LINE
5
2EE
100
AcDbEntity
8
0
100
AcDbLine
62
9
6
CONTINUOUS
10
-4.0000000000
20
14.9244970000
11
-4.0000000000
21
15.4311093565
0
LINE
5
2EF
100
AcDbEntity
8
0
100
AcDbLine
62
9
6
CONTINUOUS
10
-4.0000000000
20
16.1918670000
11
-4.0000000000
21
16.3729770000
0
LINE
5
2F0
100
AcDbEntity
8
0
100
AcDbLine
62
9
6
CONTINUOUS
10
-3.4345963649
20
21.2139629885
11
-3.3821231691
21
22.2000000000
0
LINE
5
2F1
100
AcDbEntity
8
0
100
AcDbLine
62
9
6
CONTINUOUS
10
2.7003889480
20
21.1802222394
11
3.0104834329
21
22.1955695989
0
LINE
5
2F2
100
AcDbEntity
8
0
100
AcDbLine
62
9
6
CONTINUOUS
10
3.0104834329
20
-22.1955695989
11
2.7003889480
21
-21.1802222394
0
LINE
5
2F3
100
AcDbEntity
8
0
100
AcDbLine
62
9
6
CONTINUOUS
10
-2.6311277417
20
-18.9904395897
11
-2.6315092868
21
-18.9685808831
0
LINE
5
2F4
100
AcDbEntity
8
0
100
AcDbLine
62
9
6
CONTINUOUS
10
-3.2631964084
20
18.9917979391
11
-3.2627911532
21
18.9685808831
0
LINE
5
2F5
100
AcDbEntity
8
0
100
AcDbLine
62
9
6
CONTINUOUS
10
-2.6117363541
20
-17.1000000000
11
-2.6128283294
21
-17.0374407794
0
LINE
5
2F6
100
AcDbEntity
8
0
100
AcDbLine
62
9
6
CONTINUOUS
10
-2.5368273016
20
-18.9904395897
11
-2.5371975135
21
-18.9692301681
0
LINE
5
2F7
100
AcDbEntity
8
0
100
AcDbLine
62
9
6
CONTINUOUS
10
-2.5691004316
20
-17.1415132153
11
-2.5709170227
21
-17.0374407794
0
LINE
5
2F8
100
AcDbEntity
8
0
100
AcDbLine
62
9
6
CONTINUOUS
10
-3.1688878077
20
18.9913304149
11
-3.1684907132
21
18.9685808831
0
LINE
5
2F9
100
AcDbEntity
8
0
100
AcDbLine
62
9
6
CONTINUOUS
10
-2.8188092697
20
-19.0446711717
11
-2.8191244103
21
-19.0085596393
0
LINE
5
2FA
100
AcDbEntity
8
0
100
AcDbLine
62
9
6
CONTINUOUS
10
-2.4669155466
20
-19.0610787705
11
-2.4673008778
21
-18.9358817610
0
LINE
5
2FB
100
AcDbEntity
8
0
100
AcDbLine
62
9
6
CONTINUOUS
10
-1.4665330643
20
-19.0610787705
11
-1.4669721784
21
-18.9185155063
0
LINE
5
2FC
100
AcDbEntity
8
0
100
AcDbLine
62
9
6
CONTINUOUS
10
-3.0984611006
20
21.1999238360
11
-3.1000000000
21
22.2000000000
0
LINE
5
2FD
100
AcDbEntity
8
0
100
AcDbLine
62
9
6
CONTINUOUS
10
-2.5000000000
20
-19.0610787705
11
-2.5000000000
21
-18.9685808831
0
LINE
5
2FE
100
AcDbEntity
8
0
100
AcDbLine
62
9
6
CONTINUOUS
10
-2.5000000000
20
18.9685808831
11
-2.5000000000
21
19.0610787705
0
LINE
5
2FF
100
AcDbEntity
8
0
100
AcDbLine
62
9
6
CONTINUOUS
10
-1.8000000000
20
-6.1646138101
11
-1.8000000000
21
-6.5646138101
0
LINE
5
300
100
AcDbEntity
8
0
100
AcDbLine
62
9
6
CONTINUOUS
10
-1.8000000000
20
-6.9646138101
11
-1.8000000000
21
-7.3646138101
0
LINE
5
301
100
AcDbEntity
8
0
100
AcDbLine
62
9
6
CONTINUOUS
10
-1.6680610000
20
-14.0500000000
11
-1.6680610000
21
-13.5500000000
0
LINE
5
302
100
AcDbEntity
8
0
100
AcDbLine
62
9
6
CONTINUOUS
10
-1.6680610000
20
-12.0500000000
11
-1.6680610000
21
-11.2150120574
0
LINE
5
303
100
AcDbEntity
8
0
100
AcDbLine
62
9
6
CONTINUOUS
10
-3.0984611006
20
-21.1999238360
11
-3.1000000000
21
-22.2000000000
0
LINE
5
304
100
AcDbEntity
8
0
100
AcDbLine
62
9
6
CONTINUOUS
10
-2.4669155466
20
19.0610787705
11
-2.4673008778
21
18.9358817610
0
LINE
5
305
100
AcDbEntity
8
0
100
AcDbLine
62
9
6
CONTINUOUS
10
-1.4665333973
20
19.0610787705
11
-1.4669721784
21
18.9185155063
0
LINE
5
306
100
AcDbEntity
8
0
100
AcDbLine
62
9
6
CONTINUOUS
10
-2.8380363920
20
19.0208965595
11
-2.8376185395
21
19.0448353178
0
LINE
5
307
100
AcDbEntity
8
0
100
AcDbLine
62
9
6
CONTINUOUS
10
-2.6311277417
20
18.9904395897
11
-2.6315092868
21
18.9685808831
0
LINE
5
308
100
AcDbEntity
8
0
100
AcDbLine
62
9
6
CONTINUOUS
10
-3.2290829773
20
-17.0374407794
11
-3.2309075474
21
-17.1419703289
0
LINE
5
309
100
AcDbEntity
8
0
100
AcDbLine
62
9
6
CONTINUOUS
10
-3.2627911532
20
-18.9685808831
11
-3.2631962917
21
-18.9917912512
0
LINE
5
30A
100
AcDbEntity
8
0
100
AcDbLine
62
9
6
CONTINUOUS
10
-3.1882636459
20
-17.1000000000
11
-3.1871716706
21
-17.0374407794
0
LINE
5
30B
100
AcDbEntity
8
0
100
AcDbLine
62
9
6
CONTINUOUS
10
-2.5371975135
20
18.9692301681
11
-2.5368273016
21
18.9904395897
0
LINE
5
30C
100
AcDbEntity
8
0
100
AcDbLine
62
9
6
CONTINUOUS
10
-3.1688877277
20
-18.9913258283
11
-3.1684907132
21
-18.9685808831
0
LINE
5
30D
100
AcDbEntity
8
0
100
AcDbLine
62
9
6
CONTINUOUS
10
-2.6124633641
20
-17.1416123285
11
-2.6117363541
21
-17.1000000000
0
LINE
5
30E
100
AcDbEntity
8
0
100
AcDbLine
62
9
6
CONTINUOUS
10
-0.4500000000
20
12.5567144730
11
-0.5200282971
21
12.0634289460
0
LINE
5
30F
100
AcDbEntity
8
0
100
AcDbLine
62
9
6
CONTINUOUS
10
2.7485163923
20
19.0610787705
11
2.7459745197
21
19.0515923727
0
LINE
5
310
100
AcDbEntity
8
0
100
AcDbLine
62
9
6
CONTINUOUS
10
3.9733373476
20
23.5000000000
11
3.9630152422
21
23.4650925288
0
LINE
5
311
100
AcDbEntity
8
0
100
AcDbLine
62
9
6
CONTINUOUS
10
11.0000000000
20
15.5005330670
11
10.5196810816
21
15.0202141485
0
LINE
5
312
100
AcDbEntity
8
0
100
AcDbLine
62
9
6
CONTINUOUS
10
-7.3646138101
20
-1.8000000000
11
-6.9646138101
21
-1.8000000000
0
LINE
5
313
100
AcDbEntity
8
0
100
AcDbLine
62
9
6
CONTINUOUS
10
-6.5646138101
20
-1.8000000000
11
-6.1646138101
21
-1.8000000000
0
LINE
5
314
100
AcDbEntity
8
0
100
AcDbLine
62
9
6
CONTINUOUS
10
11.0000000000
20
-15.5005330670
11
10.5196810816
21
-15.0202141485
0
LINE
5
315
100
AcDbEntity
8
0
100
AcDbLine
62
9
6
CONTINUOUS
10
3.9733373476
20
-23.5000000000
11
3.9630152422
21
-23.4650925288
0
LINE
5
316
100
AcDbEntity
8
0
100
AcDbLine
62
9
6
CONTINUOUS
10
2.7459745197
20
-19.0515923727
11
2.7485157850
21
-19.0610787705
0
LINE
5
317
100
AcDbEntity
8
0
100
AcDbLine
62
9
6
CONTINUOUS
10
-0.6248835365
20
19.0610787705
11
-0.6247179508
21
19.0515923727
0
LINE
5
318
100
AcDbEntity
8
0
100
AcDbLine
62
9
6
CONTINUOUS
10
-1.3000000000
20
-14.0500000000
11
-1.3000000000
21
-13.5500000000
0
LINE
5
319
100
AcDbEntity
8
0
100
AcDbLine
62
9
6
CONTINUOUS
10
-1.3000000000
20
-12.0500000000
11
-1.3000000000
21
-11.0439631479
0
LINE
5
31A
100
AcDbEntity
8
0
100
AcDbLine
62
9
6
CONTINUOUS
10
-0.9500000000
20
13.0843307401
11
-0.9500000000
21
12.5500000000
0
LINE
5
31B
100
AcDbEntity
8
0
100
AcDbLine
62
9
6
CONTINUOUS
10
-0.7500000000
20
-10.3000000000
11
-0.7499999430
21
-10.6000000000
0
LINE
5
31C
100
AcDbEntity
8
0
100
AcDbLine
62
9
6
CONTINUOUS
10
-0.7500000000
20
-15.1000000000
11
-0.7500000000
21
-14.8000000000
0
LINE
5
31D
100
AcDbEntity
8
0
100
AcDbLine
62
9
6
CONTINUOUS
10
-0.7500000000
20
-9.9965546854
11
-0.7500000000
21
-9.6965546854
0
LINE
5
31E
100
AcDbEntity
8
0
100
AcDbLine
62
9
6
CONTINUOUS
10
-0.7500000000
20
-15.4034453146
11
-0.7500003392
21
-15.7034453146
0
LINE
5
31F
100
AcDbEntity
8
0
100
AcDbLine
62
9
6
CONTINUOUS
10
-0.5000951923
20
-17.5989143065
11
-0.5000951923
21
-17.0989143123
0
LINE
5
320
100
AcDbEntity
8
0
100
AcDbLine
62
9
6
CONTINUOUS
10
-0.4519070312
20
-17.0025306495
11
-0.4519070312
21
-17.5025306437
0
LINE
5
321
100
AcDbEntity
8
0
100
AcDbLine
62
9
6
CONTINUOUS
10
-0.4500000000
20
13.9100458713
11
-0.4500000000
21
12.5567278987
0
LINE
5
322
100
AcDbEntity
8
0
100
AcDbLine
62
9
6
CONTINUOUS
10
-0.4000000000
20
3.4770677301
11
-0.4000000000
21
-3.4770677301
0
LINE
5
323
100
AcDbEntity
8
0
100
AcDbLine
62
9
6
CONTINUOUS
10
-0.3544089061
20
12.5500000000
11
-0.3544089061
21
12.0500000000
0
LINE
5
324
100
AcDbEntity
8
0
100
AcDbLine
62
9
6
CONTINUOUS
10
0.0000000000
20
3.7500000000
11
0.0000000000
21
3.4997140449
0
LINE
5
325
100
AcDbEntity
8
0
100
AcDbLine
62
9
6
CONTINUOUS
10
0.0000000000
20
-3.7500000000
11
0.0000000000
21
-3.4997140449
0
LINE
5
326
100
AcDbEntity
8
0
100
AcDbLine
62
9
6
CONTINUOUS
10
-0.6247179508
20
-19.0515923727
11
-0.6248835365
21
-19.0610787705
0
LINE
5
327
100
AcDbEntity
8
0
100
AcDbLine
62
9
6
CONTINUOUS
10
3.7015837471
20
19.0130903017
11
3.6977679175
21
18.9988494315
0
LINE
5
328
100
AcDbEntity
8
0
100
AcDbLine
62
9
6
CONTINUOUS
10
3.7144422186
20
19.0610787705
11
3.7096363724
21
19.0431431083
0
LINE
5
329
100
AcDbEntity
8
0
100
AcDbLine
62
9
6
CONTINUOUS
10
6.9712561167
20
21.2139629885
11
6.9587505924
21
21.1802222394
0
LINE
5
32A
100
AcDbEntity
8
0
100
AcDbLine
62
9
6
CONTINUOUS
10
3.2475952642
20
1.8750000000
11
3.0301467945
21
1.7494560675
0
LINE
5
32B
100
AcDbEntity
8
0
100
AcDbLine
62
9
6
CONTINUOUS
10
-3.2475952642
20
-1.8750000000
11
-3.0310888529
21
-1.7499999652
0
LINE
5
32C
100
AcDbEntity
8
0
100
AcDbLine
62
9
6
CONTINUOUS
10
-3.2475952642
20
1.8750000000
11
-3.0301467994
21
1.7494560703
0
LINE
5
32D
100
AcDbEntity
8
0
100
AcDbLine
62
9
6
CONTINUOUS
10
3.2475952642
20
-1.8750000000
11
3.0301467996
21
-1.7494560704
0
LINE
5
32E
100
AcDbEntity
8
0
100
AcDbLine
62
9
6
CONTINUOUS
10
6.9712561167
20
-21.2139629885
11
6.9587505924
21
-21.1802222394
0
LINE
5
32F
100
AcDbEntity
8
0
100
AcDbLine
62
9
6
CONTINUOUS
10
3.6977679175
20
-18.9988494315
11
3.7025132132
21
-19.0165591163
0
LINE
5
330
100
AcDbEntity
8
0
100
AcDbLine
62
9
6
CONTINUOUS
10
3.7096363724
20
-19.0431431083
11
3.7144422186
21
-19.0610787705
0
LINE
5
331
100
AcDbEntity
8
0
100
AcDbLine
62
9
6
CONTINUOUS
10
4.2188412250
20
-19.0393461217
11
4.2246641665
21
-19.0610787705
0
LINE
5
332
100
AcDbEntity
8
0
100
AcDbLine
62
9
6
CONTINUOUS
10
4.5144422186
20
-19.0610787705
11
4.5031892363
21
-19.0190820689
0
LINE
5
333
100
AcDbEntity
8
0
100
AcDbLine
62
9
6
CONTINUOUS
10
0.6248835365
20
-19.0610787705
11
0.6247179508
21
-19.0515923727
0
LINE
5
334
100
AcDbEntity
8
0
100
AcDbLine
62
9
6
CONTINUOUS
10
1.4669721784
20
18.9185155063
11
1.4665299065
21
19.0610787705
0
LINE
5
335
100
AcDbEntity
8
0
100
AcDbLine
62
9
6
CONTINUOUS
10
0.3544089061
20
-12.5500000000
11
0.3544089061
21
-12.0500000000
0
LINE
5
336
100
AcDbEntity
8
0
100
AcDbLine
62
9
6
CONTINUOUS
10
0.4000000000
20
-3.4770677301
11
0.4000000000
21
3.4770677301
0
LINE
5
337
100
AcDbEntity
8
0
100
AcDbLine
62
9
6
CONTINUOUS
10
0.4500000000
20
-13.9100458713
11
0.4500000000
21
-12.5567278987
0
LINE
5
338
100
AcDbEntity
8
0
100
AcDbLine
62
9
6
CONTINUOUS
10
0.4519070312
20
17.0025306495
11
0.4519070312
21
17.5025306437
0
LINE
5
339
100
AcDbEntity
8
0
100
AcDbLine
62
9
6
CONTINUOUS
10
0.5000951923
20
17.0989143123
11
0.5000854695
21
17.5988948592
0
LINE
5
33A
100
AcDbEntity
8
0
100
AcDbLine
62
9
6
CONTINUOUS
10
0.7500000000
20
15.4034453146
11
0.7500003392
21
15.7034453146
0
LINE
5
33B
100
AcDbEntity
8
0
100
AcDbLine
62
9
6
CONTINUOUS
10
0.7500000000
20
15.1000000000
11
0.7500000000
21
14.8000000000
0
LINE
5
33C
100
AcDbEntity
8
0
100
AcDbLine
62
9
6
CONTINUOUS
10
0.7500000000
20
9.9965546854
11
0.7500000000
21
9.6965546854
0
LINE
5
33D
100
AcDbEntity
8
0
100
AcDbLine
62
9
6
CONTINUOUS
10
0.7500000000
20
10.3000000000
11
0.7499999430
21
10.6000000000
0
LINE
5
33E
100
AcDbEntity
8
0
100
AcDbLine
62
9
6
CONTINUOUS
10
0.9500000000
20
-13.0843307401
11
0.9500000000
21
-12.5500000000
0
LINE
5
33F
100
AcDbEntity
8
0
100
AcDbLine
62
9
6
CONTINUOUS
10
1.0000000000
20
-5.6646138101
11
1.0000000000
21
-7.8646138101
0
LINE
5
340
100
AcDbEntity
8
0
100
AcDbLine
62
9
6
CONTINUOUS
10
1.3000000000
20
14.0500000000
11
1.3000000000
21
13.5500000000
0
LINE
5
341
100
AcDbEntity
8
0
100
AcDbLine
62
9
6
CONTINUOUS
10
1.3000000000
20
12.0500000000
11
1.3000000000
21
11.0439631479
0
LINE
5
342
100
AcDbEntity
8
0
100
AcDbLine
62
9
6
CONTINUOUS
10
1.4000000000
20
-7.8646138101
11
1.4000000000
21
-5.6646138101
0
LINE
5
343
100
AcDbEntity
8
0
100
AcDbLine
62
9
6
CONTINUOUS
10
1.6680610000
20
14.0500000000
11
1.6680610000
21
13.5500000000
0
LINE
5
344
100
AcDbEntity
8
0
100
AcDbLine
62
9
6
CONTINUOUS
10
1.6680610000
20
12.0500000000
11
1.6680610000
21
11.2150120574
0
LINE
5
345
100
AcDbEntity
8
0
100
AcDbLine
62
9
6
CONTINUOUS
10
1.4665333973
20
-19.0610787705
11
1.4669721784
21
-18.9185155063
0
LINE
5
346
100
AcDbEntity
8
0
100
AcDbLine
62
9
6
CONTINUOUS
10
0.6247179508
20
19.0515923727
11
0.6248835365
21
19.0610787705
0
LINE
5
347
100
AcDbEntity
8
0
100
AcDbLine
62
9
6
CONTINUOUS
10
-4.5031892363
20
-19.0190820689
11
-4.5144422186
21
-19.0610787705
0
LINE
5
348
100
AcDbEntity
8
0
100
AcDbLine
62
9
6
CONTINUOUS
10
-4.2188412250
20
-19.0393461217
11
-4.2246653232
21
-19.0610787705
0
LINE
5
349
100
AcDbEntity
8
0
100
AcDbLine
62
9
6
CONTINUOUS
10
-3.7144422186
20
-19.0610787705
11
-3.7096363724
21
-19.0431431083
0
LINE
5
34A
100
AcDbEntity
8
0
100
AcDbLine
62
9
6
CONTINUOUS
10
-3.7025132132
20
-19.0165591163
11
-3.6977679175
21
-18.9988494315
0
LINE
5
34B
100
AcDbEntity
8
0
100
AcDbLine
62
9
6
CONTINUOUS
10
-6.9712561167
20
-21.2139629885
11
-6.9587505924
21
-21.1802222394
0
LINE
5
34C
100
AcDbEntity
8
0
100
AcDbLine
62
9
6
CONTINUOUS
10
-6.9646138101
20
0.6000000000
11
-6.5646138101
21
0.6000000000
0
LINE
5
34D
100
AcDbEntity
8
0
100
AcDbLine
62
9
6
CONTINUOUS
10
-7.8646138101
20
1.5000000000
11
-6.9646138101
21
1.5000000000
0
LINE
5
34E
100
AcDbEntity
8
0
100
AcDbLine
62
9
6
CONTINUOUS
10
-6.5646138101
20
1.5000000000
11
-5.6646138101
21
1.5000000000
0
LINE
5
34F
100
AcDbEntity
8
0
100
AcDbLine
62
9
6
CONTINUOUS
10
-5.6646138101
20
1.9000000000
11
-6.5646138101
21
1.9000000000
0
LINE
5
350
100
AcDbEntity
8
0
100
AcDbLine
62
9
6
CONTINUOUS
10
-6.9646138101
20
1.9000000000
11
-7.8646138101
21
1.9000000000
0
LINE
5
351
100
AcDbEntity
8
0
100
AcDbLine
62
9
6
CONTINUOUS
10
-6.9712561167
20
21.2139629885
11
-6.9587505924
21
21.1802222394
0
LINE
5
352
100
AcDbEntity
8
0
100
AcDbLine
62
9
6
CONTINUOUS
10
-3.6977679175
20
18.9988494315
11
-3.7015837471
21
19.0130903017
0
LINE
5
353
100
AcDbEntity
8
0
100
AcDbLine
62
9
6
CONTINUOUS
10
-3.7096363724
20
19.0431431083
11
-3.7144422186
21
19.0610787705
0
LINE
5
354
100
AcDbEntity
8
0
100
AcDbLine
62
9
6
CONTINUOUS
10
3.1688878077
20
-18.9913304149
11
3.1684907132
21
-18.9685808831
0
LINE
5
355
100
AcDbEntity
8
0
100
AcDbLine
62
9
6
CONTINUOUS
10
2.5368273016
20
18.9904395897
11
2.5371975135
21
18.9692301681
0
LINE
5
356
100
AcDbEntity
8
0
100
AcDbLine
62
9
6
CONTINUOUS
10
2.5691004315
20
17.1415132174
11
2.5709170227
21
17.0374407794
0
LINE
5
357
100
AcDbEntity
8
0
100
AcDbLine
62
9
6
CONTINUOUS
10
2.6117363541
20
17.1000000000
11
2.6128283294
21
17.0374407794
0
LINE
5
358
100
AcDbEntity
8
0
100
AcDbLine
62
9
6
CONTINUOUS
10
3.2631964084
20
-18.9917979391
11
3.2627911532
21
-18.9685808831
0
LINE
5
359
100
AcDbEntity
8
0
100
AcDbLine
62
9
6
CONTINUOUS
10
2.6311277417
20
18.9904395897
11
2.6315092868
21
18.9685808831
0
LINE
5
35A
100
AcDbEntity
8
0
100
AcDbLine
62
9
6
CONTINUOUS
10
2.8376185395
20
19.0448353178
11
2.8382546653
21
19.0083916952
0
LINE
5
35B
100
AcDbEntity
8
0
100
AcDbLine
62
9
6
CONTINUOUS
10
2.4673008778
20
18.9358817610
11
2.4669150310
21
19.0610787705
0
LINE
5
35C
100
AcDbEntity
8
0
100
AcDbLine
62
9
6
CONTINUOUS
10
3.0984611006
20
-21.1999238360
11
3.1000000000
21
-22.2000000000
0
LINE
5
35D
100
AcDbEntity
8
0
100
AcDbLine
62
9
6
CONTINUOUS
10
2.5000000000
20
-19.0610787705
11
2.5000000000
21
-18.9685808831
0
LINE
5
35E
100
AcDbEntity
8
0
100
AcDbLine
62
9
6
CONTINUOUS
10
2.5000000000
20
18.9685808831
11
2.5000000000
21
19.0610787705
0
LINE
5
35F
100
AcDbEntity
8
0
100
AcDbLine
62
9
6
CONTINUOUS
10
3.0984611006
20
21.1999238360
11
3.1000000000
21
22.2000000000
0
LINE
5
360
100
AcDbEntity
8
0
100
AcDbLine
62
9
6
CONTINUOUS
10
2.4669155466
20
-19.0610787705
11
2.4673008778
21
-18.9358817610
0
LINE
5
361
100
AcDbEntity
8
0
100
AcDbLine
62
9
6
CONTINUOUS
10
2.8188092697
20
-19.0446711717
11
2.8190167476
21
-19.0208965595
0
LINE
5
362
100
AcDbEntity
8
0
100
AcDbLine
62
9
6
CONTINUOUS
10
3.1688877277
20
18.9913258283
11
3.1684907132
21
18.9685808831
0
LINE
5
363
100
AcDbEntity
8
0
100
AcDbLine
62
9
6
CONTINUOUS
10
2.5371975135
20
-18.9692301681
11
2.5368273016
21
-18.9904395897
0
LINE
5
364
100
AcDbEntity
8
0
100
AcDbLine
62
9
6
CONTINUOUS
10
3.1882636459
20
17.1000000000
11
3.1871716706
21
17.0374407794
0
LINE
5
365
100
AcDbEntity
8
0
100
AcDbLine
62
9
6
CONTINUOUS
10
3.2290829773
20
17.0374407794
11
3.2309075474
21
17.1419703304
0
LINE
5
366
100
AcDbEntity
8
0
100
AcDbLine
62
9
6
CONTINUOUS
10
3.2627911532
20
18.9685808831
11
3.2631962917
21
18.9917912512
0
LINE
5
367
100
AcDbEntity
8
0
100
AcDbLine
62
9
6
CONTINUOUS
10
2.6311277417
20
-18.9904395897
11
2.6315092868
21
-18.9685808831
0
LINE
5
368
100
AcDbEntity
8
0
100
AcDbLine
62
9
6
CONTINUOUS
10
0.4500000000
20
-12.5567144730
11
0.5200282971
21
-12.0634289460
0
LINE
5
369
100
AcDbEntity
8
0
100
AcDbLine
62
9
6
CONTINUOUS
10
-2.7485157949
20
-19.0610787705
11
-2.7459745197
21
-19.0515923727
0
LINE
5
36A
100
AcDbEntity
8
0
100
AcDbLine
62
9
6
CONTINUOUS
10
-3.9733373476
20
-23.5000000000
11
-3.9630152422
21
-23.4650925288
0
LINE
5
36B
100
AcDbEntity
8
0
100
AcDbLine
62
9
6
CONTINUOUS
10
-3.0104834329
20
-22.1955695989
11
-2.7003889480
21
-21.1802222394
0
LINE
5
36C
100
AcDbEntity
8
0
100
AcDbLine
62
9
6
CONTINUOUS
10
-11.0000000000
20
-15.5005330670
11
-10.5196810816
21
-15.0202141485
0
LINE
5
36D
100
AcDbEntity
8
0
100
AcDbLine
62
9
6
CONTINUOUS
10
-6.5646138101
20
2.8000000000
11
-6.9646138101
21
2.8000000000
0
LINE
5
36E
100
AcDbEntity
8
0
100
AcDbLine
62
9
6
CONTINUOUS
10
-11.0000000000
20
15.5005330670
11
-10.5196810816
21
15.0202141485
0
LINE
5
36F
100
AcDbEntity
8
0
100
AcDbLine
62
9
6
CONTINUOUS
10
-2.7003889480
20
21.1802222394
11
-3.0104834329
21
22.1955695989
0
LINE
5
370
100
AcDbEntity
8
0
100
AcDbLine
62
9
6
CONTINUOUS
10
-3.9733373476
20
23.5000000000
11
-3.9630152422
21
23.4650925288
0
LINE
5
371
100
AcDbEntity
8
0
100
AcDbLine
62
9
6
CONTINUOUS
10
-2.7459745197
20
19.0515923727
11
-2.7485163923
21
19.0610787705
0
LINE
5
372
100
AcDbEntity
8
0
100
AcDbLine
62
9
6
CONTINUOUS
10
3.4345963650
20
21.2139629885
11
3.3821231691
21
22.2000000000
0
LINE
5
373
100
AcDbEntity
8
0
100
AcDbLine
62
9
6
CONTINUOUS
10
4.4000000000
20
19.0427616522
11
4.4000000000
21
19.0610787705
0
LINE
5
374
100
AcDbEntity
8
0
100
AcDbLine
62
9
6
CONTINUOUS
10
4.4319390000
20
14.0500000000
11
4.4319390000
21
13.5500000000
0
LINE
5
375
100
AcDbEntity
8
0
100
AcDbLine
62
9
6
CONTINUOUS
10
4.4319390000
20
12.0500000000
11
4.4319390000
21
11.1580905882
0
LINE
5
376
100
AcDbEntity
8
0
100
AcDbLine
62
9
6
CONTINUOUS
10
4.8000000000
20
14.0500000000
11
4.8000000000
21
13.5500000000
0
LINE
5
377
100
AcDbEntity
8
0
100
AcDbLine
62
9
6
CONTINUOUS
10
4.8000000000
20
12.0500000000
11
4.8000000000
21
11.0129212581
0
LINE
5
378
100
AcDbEntity
8
0
100
AcDbLine
62
9
6
CONTINUOUS
10
4.9000000000
20
19.0174537356
11
4.9000000000
21
19.0610787705
0
LINE
5
379
100
AcDbEntity
8
0
100
AcDbLine
62
9
6
CONTINUOUS
10
5.2500000000
20
9.9965546854
11
5.2499996608
21
9.6965546854
0
LINE
5
37A
100
AcDbEntity
8
0
100
AcDbLine
62
9
6
CONTINUOUS
10
5.2500000000
20
10.3000000000
11
5.2500000000
21
10.6000000000
0
LINE
5
37B
100
AcDbEntity
8
0
100
AcDbLine
62
9
6
CONTINUOUS
10
5.2500000000
20
15.4034453146
11
5.2500000000
21
15.7034453146
0
LINE
5
37C
100
AcDbEntity
8
0
100
AcDbLine
62
9
6
CONTINUOUS
10
5.2500000000
20
15.1000000000
11
5.2500000570
21
14.8000000000
0
LINE
5
37D
100
AcDbEntity
8
0
100
AcDbLine
62
9
6
CONTINUOUS
10
3.4345963650
20
-21.2139629885
11
3.3821231691
21
-22.2000000000
0
LINE
5
37E
100
AcDbEntity
8
0
100
AcDbLine
62
9
6
CONTINUOUS
10
7.2382150030
20
-20.9317102097
11
7.2084845302
21
-19.9483339502
0
LINE
5
37F
100
AcDbEntity
8
0
100
AcDbLine
62
9
6
CONTINUOUS
10
6.0830351795
20
19.0000000000
11
6.0819690456
21
19.0610787705
0
LINE
5
380
100
AcDbEntity
8
0
100
AcDbLine
62
9
6
CONTINUOUS
10
5.4999048077
20
17.0989143123
11
5.4999048077
21
17.5989143065
0
LINE
5
381
100
AcDbEntity
8
0
100
AcDbLine
62
9
6
CONTINUOUS
10
5.5480929688
20
17.5025306437
11
5.5480929688
21
17.0025306495
0
LINE
5
382
100
AcDbEntity
8
CURVE
100
AcDbLine
62
9
6
CONTINUOUS
10
6.0500000000
20
14.0500000000
11
6.0500000000
21
13.5500000000
0
LINE
5
383
100
AcDbEntity
8
CURVE
100
AcDbLine
62
9
6
CONTINUOUS
10
6.0500000000
20
12.0500000000
11
6.0500000000
21
11.1494726081
0
LINE
5
384
100
AcDbEntity
8
0
100
AcDbLine
62
9
6
CONTINUOUS
10
6.4544089061
20
12.5500000000
11
6.4544089061
21
12.0500000000
0
LINE
5
385
100
AcDbEntity
8
0
100
AcDbLine
62
9
6
CONTINUOUS
10
6.5500000000
20
13.8658322525
11
6.5500000000
21
12.5567278987
0
LINE
5
386
100
AcDbEntity
8
0
100
AcDbLine
62
9
6
CONTINUOUS
10
7.0202141485
20
17.5198333864
11
7.0202141485
21
18.5196810816
0
LINE
5
387
100
AcDbEntity
8
0
100
AcDbLine
62
9
6
CONTINUOUS
10
7.0202141485
20
-17.5198333864
11
7.0202139867
21
-18.5196810816
0
LINE
5
388
100
AcDbEntity
8
0
100
AcDbLine
62
9
6
CONTINUOUS
10
6.0819690456
20
-19.0610787705
11
6.0830351795
21
-19.0000000000
0
LINE
5
389
100
AcDbEntity
8
0
100
AcDbLine
62
9
6
CONTINUOUS
10
7.2382150030
20
20.9317102097
11
7.2084845302
21
19.9483339502
0
LINE
5
38A
100
AcDbEntity
8
0
100
AcDbLine
62
9
6
CONTINUOUS
10
-1.8000000000
20
-7.3646138101
11
0.0000000000
21
-6.7646138101
0
LINE
5
38B
100
AcDbEntity
8
0
100
AcDbLine
62
9
6
CONTINUOUS
10
-5.2500000000
20
7.0000000000
11
-4.0000000000
21
7.0000000000
0
LINE
5
38C
100
AcDbEntity
8
0
100
AcDbLine
62
9
6
CONTINUOUS
10
-4.0000000000
20
7.1688710000
11
-4.5275370000
21
7.1688710000
0
LINE
5
38D
100
AcDbEntity
8
0
100
AcDbLine
62
9
6
CONTINUOUS
10
-4.6720290000
20
7.1688710000
11
-5.1055070000
21
7.1688710000
0
LINE
5
38E
100
AcDbEntity
8
0
100
AcDbLine
62
9
6
CONTINUOUS
10
-7.9003540000
20
8.1670030000
11
-6.5926310000
21
7.7937960000
0
LINE
5
38F
100
AcDbEntity
8
0
100
AcDbLine
62
9
6
CONTINUOUS
10
-6.0005080000
20
7.9526180000
11
-7.9003540000
21
8.5633050000
0
LINE
5
390
100
AcDbEntity
8
0
100
AcDbLine
62
9
6
CONTINUOUS
10
-4.0000000000
20
8.2099290000
11
-4.3638970000
21
8.3405050000
0
LINE
5
391
100
AcDbEntity
8
0
100
AcDbLine
62
9
6
CONTINUOUS
10
-4.5136200000
20
8.3927160000
11
-5.0686980000
21
8.5946710000
0
LINE
5
392
100
AcDbEntity
8
0
100
AcDbLine
62
9
6
CONTINUOUS
10
-5.2500000000
20
8.5059220000
11
-4.0000000000
21
8.0358270000
0
LINE
5
393
100
AcDbEntity
8
0
100
AcDbLine
62
9
6
CONTINUOUS
10
7.2084845302
20
19.7000000000
11
7.2195044567
21
19.0686688326
0
LINE
5
394
100
AcDbEntity
8
0
100
AcDbLine
62
9
6
CONTINUOUS
10
7.2084845302
20
-19.9483339502
11
7.2084845302
21
-19.7000000000
0
LINE
5
395
100
AcDbEntity
8
0
100
AcDbLine
62
9
6
CONTINUOUS
10
7.2084845302
20
19.7000000000
11
7.2084845302
21
19.9483339502
0
LINE
5
396
100
AcDbEntity
8
0
100
AcDbLine
62
9
6
CONTINUOUS
10
7.5226756989
20
20.7603594806
11
7.5226756989
21
19.0000000000
0
LINE
5
397
100
AcDbEntity
8
0
100
AcDbLine
62
9
6
CONTINUOUS
10
7.5226756989
20
-19.0000000000
11
7.5226756989
21
-20.7603594806
0
LINE
5
398
100
AcDbEntity
8
0
100
AcDbLine
62
9
6
CONTINUOUS
10
7.2195044567
20
-19.0686688326
11
7.2084845302
21
-19.7000000000
0
LINE
5
399
100
AcDbEntity
8
0
100
AcDbLine
62
9
6
CONTINUOUS
10
-0.5000951923
20
-17.0989143123
11
-0.4519070312
21
-17.0025306495
0
LINE
5
39A
100
AcDbEntity
8
0
100
AcDbLine
62
9
6
CONTINUOUS
10
-0.5000951923
20
-17.5989143065
11
-0.4519070312
21
-17.5025306437
0
LINE
5
39B
100
AcDbEntity
8
0
100
AcDbLine
62
9
6
CONTINUOUS
10
0.4998667307
20
-18.5987620016
11
0.5394041794
21
-18.5196810816
0
LINE
5
39C
100
AcDbEntity
8
0
100
AcDbLine
62
9
6
CONTINUOUS
10
-9.5103594806
20
-20.7603594806
11
-9.6500000000
21
-20.9000000000
0
LINE
5
39D
100
AcDbEntity
8
0
100
AcDbLine
62
9
6
CONTINUOUS
10
-7.5005330670
20
-19.0000000000
11
-7.0202141485
21
-18.5196810816
0
LINE
5
39E
100
AcDbEntity
8
0
100
AcDbLine
62
9
6
CONTINUOUS
10
-7.9004680000
20
8.7104740000
11
-6.0005080000
21
8.7104740000
0
LINE
5
39F
100
AcDbEntity
8
0
100
AcDbLine
62
9
6
CONTINUOUS
10
-7.9003540000
20
9.4920790000
11
-6.0005080000
21
9.3205340000
0
LINE
5
3A0
100
AcDbEntity
8
0
100
AcDbLine
62
9
6
CONTINUOUS
10
-7.9003540000
20
10.6772790000
11
-6.8455540000
21
10.2807070000
0
LINE
5
3A1
100
AcDbEntity
8
0
100
AcDbLine
62
9
6
CONTINUOUS
10
-6.0005080000
20
10.3063510000
11
-7.2359000000
21
10.7778750000
0
LINE
5
3A2
100
AcDbEntity
8
0
100
AcDbLine
62
9
6
CONTINUOUS
10
-9.6500000000
20
20.9000000000
11
-9.5103594806
21
20.7603594806
0
LINE
5
3A3
100
AcDbEntity
8
0
100
AcDbLine
62
9
6
CONTINUOUS
10
-7.5005330670
20
19.0000000000
11
-7.0202141485
21
18.5196810816
0
LINE
5
3A4
100
AcDbEntity
8
0
100
AcDbLine
62
9
6
CONTINUOUS
10
6.5500000000
20
12.5567144730
11
6.6200282971
21
12.0634289460
0
LINE
5
3A5
100
AcDbEntity
8
0
100
AcDbLine
62
9
6
CONTINUOUS
10
9.5103594806
20
20.7603594806
11
9.5103594806
21
18.3554414599
0
LINE
5
3A6
100
AcDbEntity
8
0
100
AcDbLine
62
9
6
CONTINUOUS
10
9.5103594806
20
-18.3554413186
11
9.5103594806
21
-20.7603594806
0
LINE
5
3A7
100
AcDbEntity
8
0
100
AcDbLine
62
9
6
CONTINUOUS
10
9.5198333864
20
-15.0202141485
11
9.5198333864
21
15.0202141485
0
LINE
5
3A8
100
AcDbEntity
8
0
100
AcDbLine
62
9
6
CONTINUOUS
10
9.6500000000
20
-20.9000000000
11
9.6500000000
21
-18.2585027295
0
LINE
5
3A9
100
AcDbEntity
8
0
100
AcDbLine
62
9
6
CONTINUOUS
10
9.6500000000
20
18.2585026830
11
9.6500000000
21
20.9000000000
0
LINE
5
3AA
100
AcDbEntity
8
0
100
AcDbLine
62
9
6
CONTINUOUS
10
10.5196810816
20
-15.0202141485
11
10.5196810816
21
15.0202141485
0
LINE
5
3AB
100
AcDbEntity
8
0
100
AcDbLine
62
9
6
CONTINUOUS
10
-6.5926310000
20
7.7937960000
11
-7.9003540000
21
7.4316510000
0
LINE
5
3AC
100
AcDbEntity
8
0
100
AcDbLine
62
9
6
CONTINUOUS
10
-6.0005080000
20
9.1070460000
11
-7.9004680000
21
9.1070460000
0
LINE
5
3AD
100
AcDbEntity
8
0
100
AcDbLine
62
9
6
CONTINUOUS
10
-5.2500000000
20
9.1970000000
11
-5.1002760000
21
9.1970000000
0
LINE
5
3AE
100
AcDbEntity
8
0
100
AcDbLine
62
9
6
CONTINUOUS
10
-5.1002760000
20
9.6200160000
11
-4.0000000000
21
9.6200160000
0
LINE
5
3AF
100
AcDbEntity
8
0
100
AcDbLine
62
9
6
CONTINUOUS
10
0.7500000000
20
9.6965546854
11
5.2499996552
21
9.6965546854
0
LINE
5
3B0
100
AcDbEntity
8
0
100
AcDbLine
62
9
6
CONTINUOUS
10
-4.0000000000
20
9.7888870000
11
-5.1002760000
21
9.7888870000
0
LINE
5
3B1
100
AcDbEntity
8
0
100
AcDbLine
62
9
6
CONTINUOUS
10
0.7500000000
20
9.9965546854
11
5.2500000000
21
9.9965546854
0
LINE
5
3B2
100
AcDbEntity
8
0
100
AcDbLine
62
9
6
CONTINUOUS
10
-5.1002760000
20
10.2119030000
11
-5.2500000000
21
10.2119030000
0
LINE
5
3B3
100
AcDbEntity
8
0
100
AcDbLine
62
9
6
CONTINUOUS
10
5.2500000000
20
10.3000000000
11
0.7500000000
21
10.3000000000
0
LINE
5
3B4
100
AcDbEntity
8
0
100
AcDbLine
62
9
6
CONTINUOUS
10
-4.1845640000
20
10.3877810000
11
-4.0000000000
21
10.3877810000
0
LINE
5
3B5
100
AcDbEntity
8
0
100
AcDbLine
62
9
6
CONTINUOUS
10
-4.0000000000
20
10.5687920000
11
-4.1845640000
21
10.5687920000
0
LINE
5
3B6
100
AcDbEntity
8
0
100
AcDbLine
62
9
6
CONTINUOUS
10
5.2500000000
20
10.6000000000
11
0.7500000000
21
10.6000000000
0
LINE
5
3B7
100
AcDbEntity
8
0
100
AcDbLine
62
9
6
CONTINUOUS
10
-6.0005080000
20
9.6999240000
11
-7.2410720000
21
9.7855040000
0
LINE
5
3B8
100
AcDbEntity
8
0
100
AcDbLine
62
9
6
CONTINUOUS
10
-6.6732680000
20
11.8923980000
11
-7.3783250000
21
12.0898580000
0
LINE
5
3B9
100
AcDbEntity
8
0
100
AcDbLine
62
9
6
CONTINUOUS
10
-6.0005080000
20
11.7018480000
11
-6.3797850000
21
11.8112770000
0
LINE
5
3BA
100
AcDbEntity
8
0
100
AcDbLine
62
9
6
CONTINUOUS
10
-7.9003540000
20
11.9054910000
11
-6.0005080000
21
11.3095780000
0
LINE
5
3BB
100
AcDbEntity
8
0
100
AcDbLine
62
9
6
CONTINUOUS
10
11.0000000000
20
15.5005330670
11
11.0000000000
21
-15.5005330670
0
LINE
5
3BC
100
AcDbEntity
8
0
100
AcDbLine
62
9
6
CONTINUOUS
10
11.1238174026
20
-16.4544358981
11
11.1238174026
21
16.4544358981
0
LINE
5
3BD
100
AcDbEntity
8
0
100
AcDbLine
62
9
6
CONTINUOUS
10
11.1500000000
20
-21.8997711479
11
11.1500000000
21
21.8997711479
0
LINE
5
3BE
100
AcDbEntity
8
0
100
AcDbLine
62
9
6
CONTINUOUS
10
-2.5000000000
20
-18.9685808831
11
-2.4673008778
21
-18.9358817610
0
LINE
5
3BF
100
AcDbEntity
8
0
100
AcDbLine
62
9
6
CONTINUOUS
10
-11.1238174026
20
-16.4544358981
11
-11.1500000000
21
-16.4633443083
0
LINE
5
3C0
100
AcDbEntity
8
0
100
AcDbLine
62
9
6
CONTINUOUS
10
-6.0005080000
20
11.2473060000
11
-7.9003540000
21
11.0696490000
0
LINE
5
3C1
100
AcDbEntity
8
0
100
AcDbLine
62
9
6
CONTINUOUS
10
-7.2359000000
20
10.7778750000
11
-6.0005080000
21
10.8593530000
0
LINE
5
3C2
100
AcDbEntity
8
0
100
AcDbLine
62
9
6
CONTINUOUS
10
-5.2500000000
20
11.3539280000
11
-4.0000000000
21
11.3539280000
0
LINE
5
3C3
100
AcDbEntity
8
0
100
AcDbLine
62
9
6
CONTINUOUS
10
-4.0000000000
20
11.5227990000
11
-4.5275370000
21
11.5227990000
0
LINE
5
3C4
100
AcDbEntity
8
0
100
AcDbLine
62
9
6
CONTINUOUS
10
-4.6720290000
20
11.5227990000
11
-5.1055070000
21
11.5227990000
0
LINE
5
3C5
100
AcDbEntity
8
0
100
AcDbLine
62
9
6
CONTINUOUS
10
2.3690145377
20
12.0500000000
11
-0.4500000000
21
12.0500000000
0
LINE
5
3C6
100
AcDbEntity
8
0
100
AcDbLine
62
9
6
CONTINUOUS
10
3.6309854623
20
12.0500000000
11
6.5500000000
21
12.0500000000
0
LINE
5
3C7
100
AcDbEntity
8
0
100
AcDbLine
62
9
6
CONTINUOUS
10
-11.1238174026
20
16.4544358981
11
-11.1500000000
21
16.4633443083
0
LINE
5
3C8
100
AcDbEntity
8
0
100
AcDbLine
62
9
6
CONTINUOUS
10
-2.5000000000
20
18.9685808831
11
-2.4673008778
21
18.9358817610
0
LINE
5
3C9
100
AcDbEntity
8
0
100
AcDbLine
62
9
6
CONTINUOUS
10
-10.9162414635
20
-17.0643546451
11
-10.9426253515
21
-17.0730014938
0
LINE
5
3CA
100
AcDbEntity
8
0
100
AcDbLine
62
9
6
CONTINUOUS
10
-6.3797850000
20
12.3513420000
11
-6.0005080000
21
12.4540760000
0
LINE
5
3CB
100
AcDbEntity
8
0
100
AcDbLine
62
9
6
CONTINUOUS
10
-7.3783250000
20
12.0898580000
11
-6.6732680000
21
12.2720880000
0
LINE
5
3CC
100
AcDbEntity
8
0
100
AcDbLine
62
9
6
CONTINUOUS
10
-5.2500000000
20
12.5151010000
11
-4.0000000000
21
12.5151010000
0
LINE
5
3CD
100
AcDbEntity
8
0
100
AcDbLine
62
9
6
CONTINUOUS
10
-0.3544089061
20
12.5500000000
11
2.4866078872
21
12.5500000000
0
LINE
5
3CE
100
AcDbEntity
8
0
100
AcDbLine
62
9
6
CONTINUOUS
10
3.5133921128
20
12.5500000000
11
6.4544089061
21
12.5500000000
0
LINE
5
3CF
100
AcDbEntity
8
0
100
AcDbLine
62
9
6
CONTINUOUS
10
6.9872073604
20
12.5567144730
11
6.5500000000
21
12.5567144730
0
LINE
5
3D0
100
AcDbEntity
8
0
100
AcDbLine
62
9
6
CONTINUOUS
10
-0.4500000000
20
12.5567144730
11
-0.9500000000
21
12.5567144730
0
LINE
5
3D1
100
AcDbEntity
8
0
100
AcDbLine
62
9
6
CONTINUOUS
10
-4.1497240000
20
12.6839720000
11
-4.5675090000
21
12.6839720000
0
LINE
5
3D2
100
AcDbEntity
8
0
100
AcDbLine
62
9
6
CONTINUOUS
10
-4.7172330000
20
12.6839720000
11
-5.1002760000
21
12.6839720000
0
LINE
5
3D3
100
AcDbEntity
8
0
100
AcDbLine
62
9
6
CONTINUOUS
10
-7.8781572359
20
12.9884997236
11
-6.0005080312
21
12.9884997236
0
LINE
5
3D4
100
AcDbEntity
8
0
100
AcDbLine
62
9
6
CONTINUOUS
10
-4.5675090000
20
13.3682390000
11
-4.7172330000
21
13.3682390000
0
LINE
5
3D5
100
AcDbEntity
8
0
100
AcDbLine
62
9
6
CONTINUOUS
10
-7.0551515130
20
13.3703266239
11
-7.5766962005
21
13.3703266239
0
LINE
5
3D6
100
AcDbEntity
8
0
100
AcDbLine
62
9
6
CONTINUOUS
10
-6.0005080312
20
13.3834763657
11
-6.7440026937
21
13.3834763657
0
LINE
5
3D7
100
AcDbEntity
8
0
100
AcDbLine
62
9
6
CONTINUOUS
10
-5.1002760000
20
13.4256810000
11
-5.2500000000
21
13.4256810000
0
LINE
5
3D8
100
AcDbEntity
8
0
100
AcDbLine
62
9
6
CONTINUOUS
10
-4.0000000000
20
13.4378210000
11
-4.1497240000
21
13.4378210000
0
LINE
5
3D9
100
AcDbEntity
8
0
100
AcDbLine
62
9
6
CONTINUOUS
10
0.0102631693
20
13.5500000000
11
2.2741004984
21
13.5500000000
0
LINE
5
3DA
100
AcDbEntity
8
0
100
AcDbLine
62
9
6
CONTINUOUS
10
3.7258995016
20
13.5500000000
11
6.0897368307
21
13.5500000000
0
LINE
5
3DB
100
AcDbEntity
8
0
100
AcDbLine
62
9
6
CONTINUOUS
10
-5.2500000000
20
13.6589020000
11
-4.0000000000
21
13.6589020000
0
LINE
5
3DC
100
AcDbEntity
8
0
100
AcDbLine
62
9
6
CONTINUOUS
10
-4.0000000000
20
13.8225420000
11
-5.0152600000
21
13.8225420000
0
LINE
5
3DD
100
AcDbEntity
8
0
100
AcDbLine
62
9
6
CONTINUOUS
10
-0.3598484229
20
14.0500000000
11
1.8598484229
21
14.0500000000
0
LINE
5
3DE
100
AcDbEntity
8
0
100
AcDbLine
62
9
6
CONTINUOUS
10
4.1401515771
20
14.0500000000
11
6.3598484229
21
14.0500000000
0
LINE
5
3DF
100
AcDbEntity
8
0
100
AcDbLine
62
9
6
CONTINUOUS
10
-10.9162414635
20
17.0643546451
11
-10.9426253515
21
17.0730014938
0
LINE
5
3E0
100
AcDbEntity
8
0
100
AcDbLine
62
9
6
CONTINUOUS
10
5.5480929688
20
17.0025306495
11
5.4999048077
21
17.0989143123
0
LINE
5
3E1
100
AcDbEntity
8
0
100
AcDbLine
62
9
6
CONTINUOUS
10
5.5480929688
20
17.5025306437
11
5.4999048077
21
17.5989143065
0
LINE
5
3E2
100
AcDbEntity
8
0
100
AcDbLine
62
9
6
CONTINUOUS
10
-5.2500000000
20
14.4875640000
11
-4.2346470000
21
14.4875640000
0
LINE
5
3E3
100
AcDbEntity
8
0
100
AcDbLine
62
9
6
CONTINUOUS
10
-4.0000000000
20
14.6512040000
11
-5.2500000000
21
14.6512040000
0
LINE
5
3E4
100
AcDbEntity
8
0
100
AcDbLine
62
9
6
CONTINUOUS
10
0.7500000000
20
14.8000000000
11
5.2500000000
21
14.8000000000
0
LINE
5
3E5
100
AcDbEntity
8
0
100
AcDbLine
62
9
6
CONTINUOUS
10
-5.2500000000
20
14.9244970000
11
-4.0000000000
21
14.9244970000
0
LINE
5
3E6
100
AcDbEntity
8
0
100
AcDbLine
62
9
6
CONTINUOUS
10
-9.5198333864
20
15.0202141485
11
-10.5196810816
21
15.0202141485
0
LINE
5
3E7
100
AcDbEntity
8
0
100
AcDbLine
62
9
6
CONTINUOUS
10
9.5198333864
20
15.0202141485
11
10.5196810816
21
15.0202139867
0
LINE
5
3E8
100
AcDbEntity
8
0
100
AcDbLine
62
9
6
CONTINUOUS
10
-4.1444930000
20
15.0933680000
11
-5.1055070000
21
15.0933680000
0
LINE
5
3E9
100
AcDbEntity
8
0
100
AcDbLine
62
9
6
CONTINUOUS
10
0.7500000000
20
15.1000000000
11
5.2500000000
21
15.1000000000
0
LINE
5
3EA
100
AcDbEntity
8
0
100
AcDbLine
62
9
6
CONTINUOUS
10
5.2500000000
20
15.4034453146
11
0.7500000000
21
15.4034453146
0
LINE
5
3EB
100
AcDbEntity
8
0
100
AcDbLine
62
9
6
CONTINUOUS
10
5.2500000000
20
15.7034453146
11
0.7500003448
21
15.7034453146
0
LINE
5
3EC
100
AcDbEntity
8
0
100
AcDbLine
62
9
6
CONTINUOUS
10
6.5394041794
20
18.5196810816
11
6.4998667307
21
18.5987620016
0
LINE
5
3ED
100
AcDbEntity
8
0
100
AcDbLine
62
9
6
CONTINUOUS
10
-4.1845640000
20
16.1918670000
11
-4.0000000000
21
16.1918670000
0
LINE
5
3EE
100
AcDbEntity
8
0
100
AcDbLine
62
9
6
CONTINUOUS
10
-4.0000000000
20
16.3729770000
11
-4.1845640000
21
16.3729770000
0
LINE
5
3EF
100
AcDbEntity
8
0
100
AcDbLine
62
9
6
CONTINUOUS
10
5.5480929688
20
17.0025306495
11
0.4519070312
21
17.0025306495
0
LINE
5
3F0
100
AcDbEntity
8
0
100
AcDbLine
62
9
6
CONTINUOUS
10
5.5306392332
20
17.0374407794
11
0.4693607668
21
17.0374407794
0
LINE
5
3F1
100
AcDbEntity
8
0
100
AcDbLine
62
9
6
CONTINUOUS
10
2.6117363541
20
17.1000000000
11
3.1882636459
21
17.1000000000
0
LINE
5
3F2
100
AcDbEntity
8
0
100
AcDbLine
62
9
6
CONTINUOUS
10
7.0202141485
20
17.5198333864
11
5.5480929688
21
17.5198333864
0
LINE
5
3F3
100
AcDbEntity
8
0
100
AcDbLine
62
9
6
CONTINUOUS
10
0.4519070312
20
17.5198333864
11
-7.0202141485
21
17.5198333864
0
LINE
5
3F4
100
AcDbEntity
8
0
100
AcDbLine
62
9
6
CONTINUOUS
10
4.5673885653
20
19.0000000000
11
4.2500000000
21
18.9685808831
0
LINE
5
3F5
100
AcDbEntity
8
0
100
AcDbLine
62
9
6
CONTINUOUS
10
-3.2635064284
20
19.0360211209
11
-3.5699041346
21
19.0208965595
0
LINE
5
3F6
100
AcDbEntity
8
0
100
AcDbLine
62
9
6
CONTINUOUS
10
7.0202141485
20
18.5196810816
11
6.5394041794
21
18.5196810816
0
LINE
5
3F7
100
AcDbEntity
8
0
100
AcDbLine
62
9
6
CONTINUOUS
10
-0.5394041794
20
18.5196810816
11
-7.0202141485
21
18.5196810816
0
LINE
5
3F8
100
AcDbEntity
8
0
100
AcDbLine
62
9
6
CONTINUOUS
10
1.4669721784
20
18.9185155063
11
-1.4669721784
21
18.9185155063
0
LINE
5
3F9
100
AcDbEntity
8
0
100
AcDbLine
62
9
6
CONTINUOUS
10
4.2500000000
20
18.9685808831
11
2.5000000000
21
18.9685808831
0
LINE
5
3FA
100
AcDbEntity
8
0
100
AcDbLine
62
9
6
CONTINUOUS
10
-2.5000000000
20
18.9685808831
11
-4.2500000000
21
18.9685808831
0
LINE
5
3FB
100
AcDbEntity
8
0
100
AcDbLine
62
9
6
CONTINUOUS
10
2.7295886809
20
18.9904395897
11
2.5000000000
21
18.9904395897
0
LINE
5
3FC
100
AcDbEntity
8
0
100
AcDbLine
62
9
6
CONTINUOUS
10
-2.5000000000
20
18.9904395897
11
-2.7295886809
21
18.9904395897
0
LINE
5
3FD
100
AcDbEntity
8
0
100
AcDbLine
62
9
6
CONTINUOUS
10
-7.5005330670
20
19.0000000000
11
-4.5673885653
21
19.0000000000
0
LINE
5
3FE
100
AcDbEntity
8
0
100
AcDbLine
62
9
6
CONTINUOUS
10
7.5005330670
20
19.0000000000
11
4.5673885653
21
19.0000000000
0
LINE
5
3FF
100
AcDbEntity
8
0
100
AcDbLine
62
9
6
CONTINUOUS
10
-4.4000000000
20
19.0130903017
11
-3.7015837471
21
19.0130903017
0
LINE
5
400
100
AcDbEntity
8
0
100
AcDbLine
62
9
6
CONTINUOUS
10
3.7015837471
20
19.0130903017
11
4.4000000000
21
19.0130903017
0
LINE
5
401
100
AcDbEntity
8
0
100
AcDbLine
62
9
6
CONTINUOUS
10
-3.5699041346
20
19.0208965595
11
-2.8380363920
21
19.0208965595
0
LINE
5
402
100
AcDbEntity
8
0
100
AcDbLine
62
9
6
CONTINUOUS
10
2.8380363920
20
19.0208965595
11
3.5699041346
21
19.0208965595
0
LINE
5
403
100
AcDbEntity
8
0
100
AcDbLine
62
9
6
CONTINUOUS
10
-3.2635064284
20
19.0360211209
11
-2.8377723918
21
19.0360211209
0
LINE
5
404
100
AcDbEntity
8
0
100
AcDbLine
62
9
6
CONTINUOUS
10
2.8377723918
20
19.0360211209
11
3.2635064284
21
19.0360211209
0
LINE
5
405
100
AcDbEntity
8
0
100
AcDbLine
62
9
6
CONTINUOUS
10
4.4000000000
20
19.0427616522
11
3.7095341615
21
19.0427616522
0
LINE
5
406
100
AcDbEntity
8
0
100
AcDbLine
62
9
6
CONTINUOUS
10
-3.7095341615
20
19.0427616522
11
-4.4000000000
21
19.0427616522
0
LINE
5
407
100
AcDbEntity
8
0
100
AcDbLine
62
9
6
CONTINUOUS
10
2.8376185395
20
19.0448353178
11
1.0874172576
21
19.0448353178
0
LINE
5
408
100
AcDbEntity
8
0
100
AcDbLine
62
9
6
CONTINUOUS
10
-1.0874172576
20
19.0448353178
11
-2.8376185395
21
19.0448353178
0
LINE
5
409
100
AcDbEntity
8
0
100
AcDbLine
62
9
6
CONTINUOUS
10
-2.7459745197
20
19.0515923727
11
-0.6247179508
21
19.0515923727
0
LINE
5
40A
100
AcDbEntity
8
0
100
AcDbLine
62
9
6
CONTINUOUS
10
0.6247179508
20
19.0515923727
11
2.7459745197
21
19.0515923727
0
LINE
5
40B
100
AcDbEntity
8
0
100
AcDbLine
62
9
6
CONTINUOUS
10
-6.0819690456
20
19.0610787705
11
-0.6248835365
21
19.0610787705
0
LINE
5
40C
100
AcDbEntity
8
0
100
AcDbLine
62
9
6
CONTINUOUS
10
0.6248835365
20
19.0610787705
11
6.0819690456
21
19.0610787705
0
LINE
5
40D
100
AcDbEntity
8
0
100
AcDbLine
62
9
6
CONTINUOUS
10
7.2195044567
20
19.0686688326
11
-7.2195044567
21
19.0686688326
0
LINE
5
40E
100
AcDbEntity
8
0
100
AcDbLine
62
9
6
CONTINUOUS
10
3.5699041346
20
19.0208965595
11
3.2635064284
21
19.0360211209
0
LINE
5
40F
100
AcDbEntity
8
0
100
AcDbLine
62
9
6
CONTINUOUS
10
-4.2500000000
20
18.9685808831
11
-4.5673885653
21
19.0000000000
0
LINE
5
410
100
AcDbEntity
8
0
100
AcDbLine
62
9
6
CONTINUOUS
10
7.5226756989
20
-20.7603594806
11
7.3830351795
21
-20.9000000000
0
LINE
5
411
100
AcDbEntity
8
0
100
AcDbLine
62
9
6
CONTINUOUS
10
7.3568525821
20
-19.0000000000
11
7.2195044567
21
-19.0686688326
0
LINE
5
412
100
AcDbEntity
8
0
100
AcDbLine
62
9
6
CONTINUOUS
10
3.4345963650
20
21.2139629885
11
3.1516814075
21
21.1999238360
0
LINE
5
413
100
AcDbEntity
8
0
100
AcDbLine
62
9
6
CONTINUOUS
10
2.7003889480
20
21.1802222394
11
3.0984611006
21
21.1999238360
0
LINE
5
414
100
AcDbEntity
8
0
100
AcDbLine
62
9
6
CONTINUOUS
10
7.2084845302
20
19.7000000000
11
-7.2084845302
21
19.7000000000
0
LINE
5
415
100
AcDbEntity
8
0
100
AcDbLine
62
9
6
CONTINUOUS
10
7.2084845302
20
19.9483339502
11
-7.2084845302
21
19.9483339502
0
LINE
5
416
100
AcDbEntity
8
0
100
AcDbLine
62
9
6
CONTINUOUS
10
9.5103594806
20
20.7603594806
11
7.5226756989
21
20.7603594806
0
LINE
5
417
100
AcDbEntity
8
0
100
AcDbLine
62
9
6
CONTINUOUS
10
-7.5226756989
20
20.7603594806
11
-9.5103594806
21
20.7603594806
0
LINE
5
418
100
AcDbEntity
8
0
100
AcDbLine
62
9
6
CONTINUOUS
10
-9.6500000000
20
20.9000000000
11
-7.3830351795
21
20.9000000000
0
LINE
5
419
100
AcDbEntity
8
0
100
AcDbLine
62
9
6
CONTINUOUS
10
7.3830351795
20
20.9000000000
11
9.6500000000
21
20.9000000000
0
LINE
5
41A
100
AcDbEntity
8
0
100
AcDbLine
62
9
6
CONTINUOUS
10
-3.4345963649
20
21.2139629885
11
-3.1516814075
21
21.1999238360
0
LINE
5
41B
100
AcDbEntity
8
0
100
AcDbLine
62
9
6
CONTINUOUS
10
-3.0984611006
20
21.1999238360
11
-2.7003889480
21
21.1802222394
0
LINE
5
41C
100
AcDbEntity
8
0
100
AcDbLine
62
9
6
CONTINUOUS
10
7.2195044567
20
19.0686688326
11
7.3568525821
21
19.0000000000
0
LINE
5
41D
100
AcDbEntity
8
0
100
AcDbLine
62
9
6
CONTINUOUS
10
7.5226756989
20
20.7603594806
11
7.3830351795
21
20.9000000000
0
LINE
5
41E
100
AcDbEntity
8
0
100
AcDbLine
62
9
6
CONTINUOUS
10
-7.3830351795
20
20.9000000000
11
-7.2382150030
21
20.9317102097
0
LINE
5
41F
100
AcDbEntity
8
0
100
AcDbLine
62
9
6
CONTINUOUS
10
3.1000000000
20
22.2000000000
11
3.0104834329
21
22.1955695989
0
LINE
5
420
100
AcDbEntity
8
0
100
AcDbLine
62
9
6
CONTINUOUS
10
-6.9587505924
20
21.1802222394
11
-2.7003889480
21
21.1802222394
0
LINE
5
421
100
AcDbEntity
8
0
100
AcDbLine
62
9
6
CONTINUOUS
10
2.7003889480
20
21.1802222394
11
6.9587505924
21
21.1802222394
0
LINE
5
422
100
AcDbEntity
8
0
100
AcDbLine
62
9
6
CONTINUOUS
10
-3.1516814075
20
21.1999238360
11
-3.0984611006
21
21.1999238360
0
LINE
5
423
100
AcDbEntity
8
0
100
AcDbLine
62
9
6
CONTINUOUS
10
3.0984611006
20
21.1999238360
11
3.1516814075
21
21.1999238360
0
LINE
5
424
100
AcDbEntity
8
0
100
AcDbLine
62
9
6
CONTINUOUS
10
-6.9712561167
20
21.2139629885
11
-3.4345963649
21
21.2139629885
0
LINE
5
425
100
AcDbEntity
8
0
100
AcDbLine
62
9
6
CONTINUOUS
10
3.4345963650
20
21.2139629885
11
6.9712561167
21
21.2139629885
0
LINE
5
426
100
AcDbEntity
8
0
100
AcDbLine
62
9
6
CONTINUOUS
10
-3.0104834329
20
22.1955695989
11
3.0104834329
21
22.1955695989
0
LINE
5
427
100
AcDbEntity
8
0
100
AcDbLine
62
9
6
CONTINUOUS
10
-3.3821231691
20
22.2000000000
11
3.3821231691
21
22.2000000000
0
LINE
5
428
100
AcDbEntity
8
0
100
AcDbLine
62
9
6
CONTINUOUS
10
10.6503805997
20
22.4000000000
11
5.5500000000
21
22.4000000000
0
LINE
5
429
100
AcDbEntity
8
0
100
AcDbLine
62
9
6
CONTINUOUS
10
-5.5500000000
20
22.4000000000
11
-10.6503805997
21
22.4000000000
0
LINE
5
42A
100
AcDbEntity
8
0
100
AcDbLine
62
9
6
CONTINUOUS
10
-3.0104834329
20
22.1955695989
11
-3.1000000000
21
22.2000000000
0
LINE
5
42B
100
AcDbEntity
8
0
100
AcDbLine
62
9
6
CONTINUOUS
10
7.3830351795
20
20.9000000000
11
7.2382150030
21
20.9317102097
0
LINE
5
42C
100
AcDbEntity
8
0
100
AcDbLine
62
9
6
CONTINUOUS
10
3.0000000000
20
23.5000000000
11
2.7812783412
21
23.4781828305
0
LINE
5
42D
100
AcDbEntity
8
0
100
AcDbLine
62
9
6
CONTINUOUS
10
3.9630152422
20
23.4650925288
11
-3.9630152422
21
23.4650925288
0
LINE
5
42E
100
AcDbEntity
8
0
100
AcDbLine
62
9
6
CONTINUOUS
10
2.7812783412
20
23.4781828305
11
-2.7812783412
21
23.4781828305
0
LINE
5
42F
100
AcDbEntity
8
0
100
AcDbLine
62
9
6
CONTINUOUS
10
3.9733373476
20
23.5000000000
11
3.0000000000
21
23.5000000000
0
LINE
5
430
100
AcDbEntity
8
0
100
AcDbLine
62
9
6
CONTINUOUS
10
-3.0000000000
20
23.5000000000
11
-3.9733373476
21
23.5000000000
0
LINE
5
431
100
AcDbEntity
8
0
100
AcDbLine
62
9
6
CONTINUOUS
10
-3.0000000000
20
23.5000000000
11
-2.7812783412
21
23.4781828305
0
ARC
5
432
100
AcDbEntity
8
0
100
AcDbCircle
62
9
6
CONTINUOUS
10
-6.5500000000
20
-12.5500000000
40
0.5000000000
100
AcDbArc
50
90.0000000000
51
139.2937223668
0
ARC
5
433
100
AcDbEntity
8
0
100
AcDbCircle
62
9
6
CONTINUOUS
10
0.4500000000
20
-12.5500000000
40
0.5000000000
100
AcDbArc
50
0.0000000000
51
90.0000000000
0
ARC
5
434
100
AcDbEntity
8
0
100
AcDbCircle
62
9
6
CONTINUOUS
10
6.5500000000
20
12.5500000000
40
0.5000000000
100
AcDbArc
50
270.0000000000
51
319.2937223668
0
ARC
5
435
100
AcDbEntity
8
0
100
AcDbCircle
62
9
6
CONTINUOUS
10
-0.4500000000
20
12.5500000000
40
0.5000000000
100
AcDbArc
50
180.0000000000
51
270.0000000000
0
CIRCLE
5
436
100
AcDbEntity
8
0
100
AcDbCircle
62
9
6
CONTINUOUS
10
0.0000000000
20
0.0000000000
40
3.5000000000
0
ARC
5
437
100
AcDbEntity
8
0
100
AcDbCircle
62
9
6
CONTINUOUS
10
-5.8500000000
20
-12.7000000000
40
1.5000000000
100
AcDbArc
50
295.7525319727
51
314.4643904116
0
ARC
5
438
100
AcDbEntity
8
0
100
AcDbCircle
62
9
6
CONTINUOUS
10
-5.8500000000
20
-12.7000000000
40
1.5000000000
100
AcDbArc
50
45.5356095884
51
104.0404687907
0
ARC
5
439
100
AcDbEntity
8
0
100
AcDbCircle
62
9
6
CONTINUOUS
10
-0.2500000000
20
-12.7000000000
40
1.5000000000
100
AcDbArc
50
68.1510922011
51
134.4643904116
0
ARC
5
43A
100
AcDbEntity
8
0
100
AcDbCircle
62
9
6
CONTINUOUS
10
-0.2500000000
20
-12.7000000000
40
1.5000000000
100
AcDbArc
50
225.5356095884
51
244.2474680273
0
ARC
5
43B
100
AcDbEntity
8
0
100
AcDbCircle
62
9
6
CONTINUOUS
10
5.8500000000
20
12.7000000000
40
1.5000000000
100
AcDbArc
50
115.7525319727
51
134.4643904116
0
ARC
5
43C
100
AcDbEntity
8
0
100
AcDbCircle
62
9
6
CONTINUOUS
10
5.8500000000
20
12.7000000000
40
1.5000000000
100
AcDbArc
50
225.5356095884
51
284.0404687907
0
ARC
5
43D
100
AcDbEntity
8
0
100
AcDbCircle
62
9
6
CONTINUOUS
10
0.2500000000
20
12.7000000000
40
1.5000000000
100
AcDbArc
50
45.5356095884
51
64.2474680273
0
ARC
5
43E
100
AcDbEntity
8
0
100
AcDbCircle
62
9
6
CONTINUOUS
10
0.2500000000
20
12.7000000000
40
1.5000000000
100
AcDbArc
50
248.1510922011
51
314.4643904116
0
ARC
5
43F
100
AcDbEntity
8
0
100
AcDbCircle
62
9
6
CONTINUOUS
10
-11.2500000000
20
0.0000000000
40
28.0000000000
100
AcDbArc
50
302.9352304972
51
304.1210936517
0
ARC
5
440
100
AcDbEntity
8
0
100
AcDbCircle
62
9
6
CONTINUOUS
10
-11.2500000000
20
0.0000000000
40
28.0000000000
100
AcDbArc
50
55.8789063483
51
57.0647695028
0
ARC
5
441
100
AcDbEntity
8
0
100
AcDbCircle
62
9
6
CONTINUOUS
10
11.2500000000
20
0.0000000000
40
28.0000000000
100
AcDbArc
50
235.8789063483
51
237.0647695028
0
ARC
5
442
100
AcDbEntity
8
0
100
AcDbCircle
62
9
6
CONTINUOUS
10
11.2500000000
20
0.0000000000
40
28.0000000000
100
AcDbArc
50
122.9352304972
51
124.1210936517
0
ARC
5
443
100
AcDbEntity
8
0
100
AcDbCircle
62
9
6
CONTINUOUS
10
4.9500000000
20
-23.1000000000
40
0.5000000000
100
AcDbArc
50
60.8875772240
51
189.1962815790
0
ARC
5
444
100
AcDbEntity
8
0
100
AcDbCircle
62
9
6
CONTINUOUS
10
4.9500000000
20
23.1000000000
40
0.5000000000
100
AcDbArc
50
170.8037184209
51
299.1124227760
0
ARC
5
445
100
AcDbEntity
8
0
100
AcDbCircle
62
9
6
CONTINUOUS
10
-4.9500000000
20
-23.1000000000
40
0.5000000000
100
AcDbArc
50
350.8037184210
51
119.1124227760
0
ARC
5
446
100
AcDbEntity
8
0
100
AcDbCircle
62
9
6
CONTINUOUS
10
-4.9500000000
20
23.1000000000
40
0.5000000000
100
AcDbArc
50
240.8875772240
51
9.1962815791
0
ARC
5
447
100
AcDbEntity
8
0
100
AcDbCircle
62
9
6
CONTINUOUS
10
-11.2500000000
20
0.0000000000
40
27.9650925288
100
AcDbArc
50
302.9563655715
51
304.1578146656
0
ARC
5
448
100
AcDbEntity
8
0
100
AcDbCircle
62
9
6
CONTINUOUS
10
11.2500000000
20
0.0000000000
40
28.0000000000
100
AcDbArc
50
228.2819495688
51
234.0372348486
0
ARC
5
449
100
AcDbEntity
8
0
100
AcDbCircle
62
9
6
CONTINUOUS
10
-11.2500000000
20
0.0000000000
40
27.9650925288
100
AcDbArc
50
305.9260441375
51
310.6601881301
0
ARC
5
44A
100
AcDbEntity
8
0
100
AcDbCircle
62
9
6
CONTINUOUS
10
-11.2500000000
20
0.0000000000
40
27.9738174026
100
AcDbArc
50
37.5903456883
51
40.4785462054
0
ARC
5
44B
100
AcDbEntity
8
0
100
AcDbCircle
62
9
6
CONTINUOUS
10
-11.2500000000
20
0.0000000000
40
27.9738174026
100
AcDbArc
50
319.5214537946
51
322.4096543117
0
ARC
5
44C
100
AcDbEntity
8
0
100
AcDbCircle
62
9
6
CONTINUOUS
10
11.2500000000
20
0.0000000000
40
27.9738174026
100
AcDbArc
50
217.5903456883
51
220.4785462054
0
ARC
5
44D
100
AcDbEntity
8
0
100
AcDbCircle
62
9
6
CONTINUOUS
10
11.2500000000
20
0.0000000000
40
27.9738174026
100
AcDbArc
50
139.5214537946
51
142.4096543117
0
ARC
5
44E
100
AcDbEntity
8
0
100
AcDbCircle
62
9
6
CONTINUOUS
10
11.2500000000
20
0.0000000000
40
28.0000000000
100
AcDbArc
50
139.3753165416
51
142.4285676114
0
ARC
5
44F
100
AcDbEntity
8
0
100
AcDbCircle
62
9
6
CONTINUOUS
10
11.2500000000
20
0.0000000000
40
27.9650925288
100
AcDbArc
50
235.8421853344
51
237.0436344285
0
ARC
5
450
100
AcDbEntity
8
0
100
AcDbCircle
62
9
6
CONTINUOUS
10
11.2500000000
20
0.0000000000
40
27.9650925288
100
AcDbArc
50
229.3398118699
51
234.0739558625
0
ARC
5
451
100
AcDbEntity
8
0
100
AcDbCircle
62
9
6
CONTINUOUS
10
11.2500000000
20
0.0000000000
40
28.0000000000
100
AcDbArc
50
125.9627651514
51
131.7180504312
0
ARC
5
452
100
AcDbEntity
8
0
100
AcDbCircle
62
9
6
CONTINUOUS
10
-11.2500000000
20
0.0000000000
40
28.0000000000
100
AcDbArc
50
37.5714323886
51
40.6246834584
0
ARC
5
453
100
AcDbEntity
8
0
100
AcDbCircle
62
9
6
CONTINUOUS
10
-11.2500000000
20
0.0000000000
40
28.0000000000
100
AcDbArc
50
48.2819495688
51
54.0372348486
0
ARC
5
454
100
AcDbEntity
8
0
100
AcDbCircle
62
9
6
CONTINUOUS
10
-11.2500000000
20
0.0000000000
40
28.0000000000
100
AcDbArc
50
319.3753165416
51
322.4285676114
0
ARC
5
455
100
AcDbEntity
8
0
100
AcDbCircle
62
9
6
CONTINUOUS
10
-11.2500000000
20
0.0000000000
40
28.0000000000
100
AcDbArc
50
305.9627651514
51
311.7180504312
0
ARC
5
456
100
AcDbEntity
8
0
100
AcDbCircle
62
9
6
CONTINUOUS
10
11.2500000000
20
0.0000000000
40
27.9650925288
100
AcDbArc
50
125.9260441375
51
130.6601881301
0
ARC
5
457
100
AcDbEntity
8
0
100
AcDbCircle
62
9
6
CONTINUOUS
10
11.2500000000
20
0.0000000000
40
27.9650925288
100
AcDbArc
50
122.9563655715
51
124.1578146656
0
ARC
5
458
100
AcDbEntity
8
0
100
AcDbCircle
62
9
6
CONTINUOUS
10
-11.2500000000
20
0.0000000000
40
27.9650925288
100
AcDbArc
50
55.8421853344
51
57.0436344285
0
ARC
5
459
100
AcDbEntity
8
0
100
AcDbCircle
62
9
6
CONTINUOUS
10
-11.2500000000
20
0.0000000000
40
27.9650925288
100
AcDbArc
50
49.3398118699
51
54.0739558625
0
ARC
5
45A
100
AcDbEntity
8
0
100
AcDbCircle
62
9
6
CONTINUOUS
10
11.2500000000
20
0.0000000000
40
28.0000000000
100
AcDbArc
50
217.5714323886
51
220.6246834584
0
CIRCLE
5
45B
100
AcDbEntity
8
0
100
AcDbCircle
62
9
6
CONTINUOUS
10
0.0000000000
20
0.0000000000
40
3.7500000000
0
ARC
5
45C
100
AcDbEntity
8
0
100
AcDbCircle
62
9
6
CONTINUOUS
10
-5.2500000000
20
-12.7000000000
40
3.0034453146
100
AcDbArc
50
89.9999934208
51
269.9999999950
0
ARC
5
45D
100
AcDbEntity
8
0
100
AcDbCircle
62
9
6
CONTINUOUS
10
-0.7500000000
20
-12.7000000000
40
3.0034453146
100
AcDbArc
50
269.9999934208
51
89.9999999950
0
ARC
5
45E
100
AcDbEntity
8
0
100
AcDbCircle
62
9
6
CONTINUOUS
10
0.7500000000
20
12.7000000000
40
3.0034453146
100
AcDbArc
50
89.9999934208
51
269.9999999950
0
ARC
5
45F
100
AcDbEntity
8
0
100
AcDbCircle
62
9
6
CONTINUOUS
10
5.2500000000
20
12.7000000000
40
3.0034453146
100
AcDbArc
50
269.9999934208
51
89.9999999950
0
CIRCLE
5
460
100
AcDbEntity
8
0
100
AcDbCircle
62
9
6
CONTINUOUS
10
-5.2500000000
20
-12.7000000000
40
1.7500000000
0
CIRCLE
5
461
100
AcDbEntity
8
0
100
AcDbCircle
62
9
6
CONTINUOUS
10
-0.7500000000
20
-12.7000000000
40
1.7500000000
0
CIRCLE
5
462
100
AcDbEntity
8
0
100
AcDbCircle
62
9
6
CONTINUOUS
10
0.7500000000
20
12.7000000000
40
1.7500000000
0
CIRCLE
5
463
100
AcDbEntity
8
0
100
AcDbCircle
62
9
6
CONTINUOUS
10
5.2500000000
20
12.7000000000
40
1.7500000000
0
ARC
5
464
100
AcDbEntity
8
0
100
AcDbCircle
62
9
6
CONTINUOUS
10
5.2500000000
20
12.7000000000
40
2.1000000000
100
AcDbArc
50
270.0000000000
51
90.0000000000
0
ARC
5
465
100
AcDbEntity
8
0
100
AcDbCircle
62
9
6
CONTINUOUS
10
0.7500000000
20
12.7000000000
40
2.1000000000
100
AcDbArc
50
90.0000000000
51
270.0000000000
0
ARC
5
466
100
AcDbEntity
8
0
100
AcDbCircle
62
9
6
CONTINUOUS
10
-5.2500000000
20
-12.7000000000
40
2.1000000000
100
AcDbArc
50
90.0000000000
51
270.0000000000
0
ARC
5
467
100
AcDbEntity
8
0
100
AcDbCircle
62
9
6
CONTINUOUS
10
-0.7500000000
20
-12.7000000000
40
2.1000000000
100
AcDbArc
50
270.0000000000
51
90.0000000000
0
ARC
5
468
100
AcDbEntity
8
0
100
AcDbCircle
62
9
6
CONTINUOUS
10
0.0000000000
20
0.0000000000
40
6.8069196026
100
AcDbArc
50
228.8289812682
51
254.6665102716
0
ARC
5
469
100
AcDbEntity
8
0
100
AcDbCircle
62
9
6
CONTINUOUS
10
0.0000000000
20
0.0000000000
40
7.1934585231
100
AcDbArc
50
228.7233685817
51
255.5090345323
0
ARC
5
46A
100
AcDbEntity
8
0
100
AcDbCircle
62
9
6
CONTINUOUS
10
-4.9497474683
20
-4.9497474683
40
0.5000000000
100
AcDbArc
50
155.8884310261
51
294.1115689739
0
ARC
5
46B
100
AcDbEntity
8
0
100
AcDbCircle
62
9
6
CONTINUOUS
10
0.0000000000
20
0.0000000000
40
7.1934585231
100
AcDbArc
50
194.4909654677
51
221.2766314183
0
ARC
5
46C
100
AcDbEntity
8
0
100
AcDbCircle
62
9
6
CONTINUOUS
10
0.0000000000
20
0.0000000000
40
6.8069196026
100
AcDbArc
50
195.3334897284
51
221.1710187318
0
ARC
5
46D
100
AcDbEntity
8
0
100
AcDbCircle
62
9
6
CONTINUOUS
10
-4.9497474683
20
-4.9497474683
40
0.5000000000
100
AcDbArc
50
339.6169250559
51
110.3830749441
0
ARC
5
46E
100
AcDbEntity
8
0
100
AcDbCircle
62
9
6
CONTINUOUS
10
5.2500000000
20
12.7000000000
40
2.3998291731
100
AcDbArc
50
270.0000000000
51
90.0000000000
0
ARC
5
46F
100
AcDbEntity
8
0
100
AcDbCircle
62
9
6
CONTINUOUS
10
0.7500000000
20
12.7000000000
40
2.3998291731
100
AcDbArc
50
90.0000000000
51
270.0000000000
0
ARC
5
470
100
AcDbEntity
8
0
100
AcDbCircle
62
9
6
CONTINUOUS
10
5.2500000000
20
12.7000000000
40
2.7034104582
100
AcDbArc
50
270.0000000000
51
90.0000000000
0
ARC
5
471
100
AcDbEntity
8
0
100
AcDbCircle
62
9
6
CONTINUOUS
10
0.7500000000
20
12.7000000000
40
2.7034104582
100
AcDbArc
50
90.0000000000
51
270.0000000000
0
ARC
5
472
100
AcDbEntity
8
0
100
AcDbCircle
62
9
6
CONTINUOUS
10
-5.2500000000
20
-12.7000000000
40
2.7034104582
100
AcDbArc
50
90.0000000000
51
270.0000000000
0
ARC
5
473
100
AcDbEntity
8
0
100
AcDbCircle
62
9
6
CONTINUOUS
10
-0.7500000000
20
-12.7000000000
40
2.7034104582
100
AcDbArc
50
270.0000000000
51
90.0000000000
0
ARC
5
474
100
AcDbEntity
8
0
100
AcDbCircle
62
9
6
CONTINUOUS
10
-0.7500000000
20
-12.7000000000
40
2.3998291731
100
AcDbArc
50
270.0000000000
51
90.0000000000
0
ARC
5
475
100
AcDbEntity
8
0
100
AcDbCircle
62
9
6
CONTINUOUS
10
-5.2500000000
20
-12.7000000000
40
2.3998291731
100
AcDbArc
50
90.0000000000
51
270.0000000000
0
CIRCLE
5
476
100
AcDbEntity
8
0
100
AcDbCircle
62
9
6
CONTINUOUS
10
-5.2500000000
20
-12.7000000000
40
1.7849101299
0
CIRCLE
5
477
100
AcDbEntity
8
0
100
AcDbCircle
62
9
6
CONTINUOUS
10
-0.7500000000
20
-12.7000000000
40
1.7849101299
0
CIRCLE
5
478
100
AcDbEntity
8
0
100
AcDbCircle
62
9
6
CONTINUOUS
10
0.7500000000
20
12.7000000000
40
1.7849101299
0
CIRCLE
5
479
100
AcDbEntity
8
0
100
AcDbCircle
62
9
6
CONTINUOUS
10
5.2500000000
20
12.7000000000
40
1.7849101299
0
SPLINE
5
47A
100
AcDbEntity
8
0
100
AcDbSpline
62
9
6
CONTINUOUS
70
0
71
3
72
10
73
6
74
4
42
0.0000001000
43
0.0000001000
44
0.0000000001
12
-0.4557088873
22
0.3658175057
32
0.0000000000
13
-0.4652712771
23
0.3535755593
33
0.0000000000
40
0.0000000000
40
0.0000000000
40
0.0000000000
40
0.0000000000
40
0.3472667715
40
0.6804487225
40
1.0000000000
40
1.0000000000
40
1.0000000000
40
1.0000000000
10
0.4500000000
20
-13.9100458713
30
0.0000000000
10
0.3972491487
20
-13.8677004499
30
0.0000000000
10
0.2935611392
20
-13.7851317282
30
0.0000000000
10
0.1401469272
20
-13.6650957473
30
0.0000000000
10
0.0392961744
20
-13.5876618406
30
0.0000000000
10
-0.0102631693
20
-13.5500000000
30
0.0000000000
11
0.4500000000
21
-13.9100458713
31
0.0000000000
11
0.2912318991
21
-13.7836545211
31
0.0000000000
11
0.1378702246
21
-13.6636986483
31
0.0000000000
11
-0.0102631693
21
-13.5500000000
31
0.0000000000
0
SPLINE
5
47B
100
AcDbEntity
8
0
100
AcDbSpline
62
9
6
CONTINUOUS
70
0
71
3
72
10
73
6
74
4
42
0.0000001000
43
0.0000001000
44
0.0000000001
12
-0.4431619128
22
-0.3367738971
32
0.0000000000
13
-0.4344309581
23
-0.3479651758
33
0.0000000000
40
0.0000000000
40
0.0000000000
40
0.0000000000
40
0.0000000000
40
0.3353918504
40
0.6851692885
40
1.0000000000
40
1.0000000000
40
1.0000000000
40
1.0000000000
10
-6.0897368307
20
-13.5500000000
30
0.0000000000
10
-6.1392811287
20
-13.5876504068
30
0.0000000000
10
-6.2401130388
20
-13.6650696047
30
0.0000000000
10
-6.3862374498
20
-13.7794011320
30
0.0000000000
10
-6.4827449140
20
-13.8561574375
30
0.0000000000
10
-6.5283356499
20
-13.8926741455
30
0.0000000000
11
-6.0897368307
21
-13.5500000000
31
0.0000000000
11
-6.2378254130
21
-13.6636639221
31
0.0000000000
11
-6.3911756115
21
-13.7836100986
31
0.0000000000
11
-6.5283356499
21
-13.8926741455
31
0.0000000000
0
SPLINE
5
47C
100
AcDbEntity
8
0
100
AcDbSpline
62
9
6
CONTINUOUS
70
0
71
3
72
8
73
4
74
2
42
0.0000001000
43
0.0000001000
44
0.0000000001
12
-0.0332471806
22
0.0254803984
32
0.0000000000
13
-0.0326614187
23
0.0262187529
33
0.0000000000
40
0.0000000000
40
0.0000000000
40
0.0000000000
40
0.0000000000
40
1.0000000000
40
1.0000000000
40
1.0000000000
40
1.0000000000
10
0.4829537248
20
-13.9358999076
30
0.0000000000
10
0.4718713312
20
-13.9274064415
30
0.0000000000
10
0.4608871396
20
-13.9187854556
30
0.0000000000
10
0.4500000000
20
-13.9100458713
30
0.0000000000
11
0.4829537248
21
-13.9358999076
31
0.0000000000
11
0.4500000000
21
-13.9100458713
31
0.0000000000
0
SPLINE
5
47D
100
AcDbEntity
8
0
100
AcDbSpline
62
9
6
CONTINUOUS
70
0
71
3
72
13
73
9
74
7
42
0.0000001000
43
0.0000001000
44
0.0000000001
12
0.0000000000
22
0.7120342742
32
0.0000000000
13
-0.7050657813
23
0.0993732941
33
0.0000000000
40
0.0000000000
40
0.0000000000
40
0.0000000000
40
0.0000000000
40
0.1664031845
40
0.3328718515
40
0.4994567374
40
0.6661825317
40
0.8330424791
40
1.0000000000
40
1.0000000000
40
1.0000000000
40
1.0000000000
10
0.9500000000
20
-12.5567144730
30
0.0000000000
10
0.9500000000
20
-12.5172195494
30
0.0000000000
10
0.9404799600
20
-12.4378900421
30
0.0000000000
10
0.8984509660
20
-12.3258893740
30
0.0000000000
10
0.8310625573
20
-12.2268862468
30
0.0000000000
10
0.7421108888
20
-12.1465626308
30
0.0000000000
10
0.6367174258
20
-12.0894433422
30
0.0000000000
10
0.5592669754
20
-12.0689593190
30
0.0000000000
10
0.5200282971
20
-12.0634289460
30
0.0000000000
11
0.9500000000
21
-12.5567144730
31
0.0000000000
11
0.9358609182
21
-12.4390763531
31
0.0000000000
11
0.8942433274
21
-12.3280913628
31
0.0000000000
11
0.8275009693
21
-12.2300364097
31
0.0000000000
11
0.7394085847
21
-12.1504571440
31
0.0000000000
11
0.6349484018
21
-12.0938542585
31
0.0000000000
11
0.5200282971
21
-12.0634289460
31
0.0000000000
0
SPLINE
5
47E
100
AcDbEntity
8
0
100
AcDbSpline
62
9
6
CONTINUOUS
70
0
71
3
72
9
73
5
74
3
42
0.0000001000
43
0.0000001000
44
0.0000000001
12
-0.0958875565
22
-0.0000008633
32
0.0000000000
13
-0.0949352501
23
-0.0134804224
33
0.0000000000
40
0.0000000000
40
0.0000000000
40
0.0000000000
40
0.0000000000
40
0.5040787815
40
1.0000000000
40
1.0000000000
40
1.0000000000
40
1.0000000000
10
-6.4544089061
20
-12.5500000000
30
0.0000000000
10
-6.4705205337
20
-12.5500001451
30
0.0000000000
10
-6.5024939048
20
-12.5511133285
30
0.0000000000
10
-6.5343065317
20
-12.5544994895
30
0.0000000000
10
-6.5500000000
20
-12.5567278987
30
0.0000000000
11
-6.4544089061
21
-12.5500000000
31
0.0000000000
11
-6.5027138852
21
-12.5516999626
31
0.0000000000
11
-6.5500000000
21
-12.5567278987
31
0.0000000000
0
SPLINE
5
47F
100
AcDbEntity
8
0
100
AcDbSpline
62
9
6
CONTINUOUS
70
0
71
3
72
9
73
5
74
3
42
0.0000001000
43
0.0000001000
44
0.0000000001
12
-0.0949352501
22
0.0134804224
32
0.0000000000
13
-0.0958875565
23
0.0000008633
33
0.0000000000
40
0.0000000000
40
0.0000000000
40
0.0000000000
40
0.0000000000
40
0.4959212185
40
1.0000000000
40
1.0000000000
40
1.0000000000
40
1.0000000000
10
0.4500000000
20
-12.5567278987
30
0.0000000000
10
0.4343065317
20
-12.5544994895
30
0.0000000000
10
0.4024939048
20
-12.5511133285
30
0.0000000000
10
0.3705205337
20
-12.5500001451
30
0.0000000000
10
0.3544089061
20
-12.5500000000
30
0.0000000000
11
0.4500000000
21
-12.5567278987
31
0.0000000000
11
0.4027138852
21
-12.5516999626
31
0.0000000000
11
0.3544089061
21
-12.5500000000
31
0.0000000000
0
SPLINE
5
480
100
AcDbEntity
8
0
100
AcDbSpline
62
9
6
CONTINUOUS
70
0
71
3
72
9
73
5
74
3
42
0.0000001000
43
0.0000001000
44
0.0000000001
12
0.0666102375
22
0.0262680914
32
0.0000000000
13
0.0716026279
23
-0.0000061445
33
0.0000000000
40
0.0000000000
40
0.0000000000
40
0.0000000000
40
0.0000000000
40
0.4988157873
40
1.0000000000
40
1.0000000000
40
1.0000000000
40
1.0000000000
10
-6.6200080354
20
-12.0634211109
30
0.0000000000
10
-6.6089326227
20
-12.0590534646
30
0.0000000000
10
-6.5858893544
20
-12.0522673312
30
0.0000000000
10
-6.5619620356
20
-12.0499989735
30
0.0000000000
10
-6.5500000000
20
-12.0500000000
30
0.0000000000
11
-6.6200080354
21
-12.0634211109
31
0.0000000000
11
-6.5857239637
21
-12.0534075039
31
0.0000000000
11
-6.5500000000
21
-12.0500000000
31
0.0000000000
0
SPLINE
5
481
100
AcDbEntity
8
0
100
AcDbSpline
62
9
6
CONTINUOUS
70
0
71
3
72
11
73
7
74
5
42
0.0000001000
43
0.0000001000
44
0.0000000001
12
0.2353800932
22
0.2768849658
32
0.0000000000
13
0.3589526753
23
0.0508354099
33
0.0000000000
40
0.0000000000
40
0.0000000000
40
0.0000000000
40
0.0000000000
40
0.0179242165
40
0.3456043732
40
0.6735426630
40
1.0000000000
40
1.0000000000
40
1.0000000000
40
1.0000000000
10
-6.9315090431
20
-12.2346925347
30
0.0000000000
10
-6.9301027085
20
-12.2330382194
30
0.0000000000
10
-6.9027774666
20
-12.2013185655
30
0.0000000000
10
-6.8417425404
20
-12.1462980346
30
0.0000000000
10
-6.7364012437
20
-12.0893246667
30
0.0000000000
10
-6.6590892086
20
-12.0689608102
30
0.0000000000
10
-6.6200282971
20
-12.0634289460
30
0.0000000000
11
-6.9315090431
21
-12.2346925347
31
0.0000000000
11
-6.9272576093
21
-12.2297574230
31
0.0000000000
11
-6.8390396975
21
-12.1501965166
31
0.0000000000
11
-6.7344545773
21
-12.0936586227
31
0.0000000000
11
-6.6200282971
21
-12.0634289460
31
0.0000000000
0
SPLINE
5
482
100
AcDbEntity
8
0
100
AcDbSpline
62
9
6
CONTINUOUS
70
0
71
3
72
9
73
5
74
3
42
0.0000001000
43
0.0000001000
44
0.0000000001
12
-0.1662776870
22
0.0000020490
32
0.0000000000
13
-0.1641095556
23
-0.0267642107
33
0.0000000000
40
0.0000000000
40
0.0000000000
40
0.0000000000
40
0.0000000000
40
0.5004265647
40
1.0000000000
40
1.0000000000
40
1.0000000000
40
1.0000000000
10
-6.4544089061
20
-12.0500000000
30
0.0000000000
10
-6.4821454967
20
-12.0499996582
30
0.0000000000
10
-6.5375938369
20
-12.0522514158
30
0.0000000000
10
-6.5926797773
20
-12.0589642146
30
0.0000000000
10
-6.6200080354
20
-12.0634211109
30
0.0000000000
11
-6.4544089061
21
-12.0500000000
31
0.0000000000
11
-6.5375503869
21
-12.0533705009
31
0.0000000000
11
-6.6200080354
21
-12.0634211109
31
0.0000000000
0
SPLINE
5
483
100
AcDbEntity
8
0
100
AcDbSpline
62
9
6
CONTINUOUS
70
0
71
3
72
9
73
5
74
3
42
0.0000001000
43
0.0000001000
44
0.0000000001
12
-0.1641085851
22
0.0267639718
32
0.0000000000
13
-0.1662766907
23
-0.0000020490
33
0.0000000000
40
0.0000000000
40
0.0000000000
40
0.0000000000
40
0.0000000000
40
0.4995704369
40
1.0000000000
40
1.0000000000
40
1.0000000000
40
1.0000000000
10
0.5200070512
20
-12.0634209509
30
0.0000000000
10
0.4926791187
20
-12.0589641212
30
0.0000000000
10
0.4375935039
20
-12.0522514088
30
0.0000000000
10
0.3821454967
20
-12.0499996582
30
0.0000000000
10
0.3544089061
20
-12.0500000000
30
0.0000000000
11
0.5200070512
21
-12.0634209509
31
0.0000000000
11
0.4375503869
21
-12.0533705009
31
0.0000000000
11
0.3544089061
21
-12.0500000000
31
0.0000000000
0
SPLINE
5
484
100
AcDbEntity
8
0
100
AcDbSpline
62
9
6
CONTINUOUS
70
0
71
3
72
9
73
5
74
3
42
0.0000001000
43
0.0000001000
44
0.0000000001
12
0.0716016394
22
0.0000061002
32
0.0000000000
13
0.0666099360
23
-0.0262661612
33
0.0000000000
40
0.0000000000
40
0.0000000000
40
0.0000000000
40
0.0000000000
40
0.5011975621
40
1.0000000000
40
1.0000000000
40
1.0000000000
40
1.0000000000
10
0.4500000000
20
-12.0500000000
30
0.0000000000
10
0.4619621890
20
-12.0499989809
30
0.0000000000
10
0.4858892536
20
-12.0522671101
30
0.0000000000
10
0.5089319851
20
-12.0590537424
30
0.0000000000
10
0.5200070512
20
-12.0634209509
30
0.0000000000
11
0.4500000000
21
-12.0500000000
31
0.0000000000
11
0.4857244183
21
-12.0534075860
31
0.0000000000
11
0.5200070512
21
-12.0634209509
31
0.0000000000
0
SPLINE
5
485
100
AcDbEntity
8
0
100
AcDbSpline
62
9
6
CONTINUOUS
70
0
71
3
72
10
73
6
74
4
42
0.0000001000
43
0.0000001000
44
0.0000000001
12
0.4557088873
22
-0.3658175057
32
0.0000000000
13
0.4652712771
23
-0.3535755593
33
0.0000000000
40
0.0000000000
40
0.0000000000
40
0.0000000000
40
0.0000000000
40
0.3472667715
40
0.6804487225
40
1.0000000000
40
1.0000000000
40
1.0000000000
40
1.0000000000
10
-0.4500000000
20
13.9100458713
30
0.0000000000
10
-0.3972491487
20
13.8677004499
30
0.0000000000
10
-0.2935611392
20
13.7851317282
30
0.0000000000
10
-0.1401469272
20
13.6650957473
30
0.0000000000
10
-0.0392961744
20
13.5876618406
30
0.0000000000
10
0.0102631693
20
13.5500000000
30
0.0000000000
11
-0.4500000000
21
13.9100458713
31
0.0000000000
11
-0.2912318991
21
13.7836545211
31
0.0000000000
11
-0.1378702246
21
13.6636986483
31
0.0000000000
11
0.0102631693
21
13.5500000000
31
0.0000000000
0
SPLINE
5
486
100
AcDbEntity
8
0
100
AcDbSpline
62
9
6
CONTINUOUS
70
0
71
3
72
10
73
6
74
4
42
0.0000001000
43
0.0000001000
44
0.0000000001
12
0.4431619128
22
0.3367738971
32
0.0000000000
13
0.4344309581
23
0.3479651758
33
0.0000000000
40
0.0000000000
40
0.0000000000
40
0.0000000000
40
0.0000000000
40
0.3353918504
40
0.6851692885
40
1.0000000000
40
1.0000000000
40
1.0000000000
40
1.0000000000
10
6.0897368307
20
13.5500000000
30
0.0000000000
10
6.1392811287
20
13.5876504068
30
0.0000000000
10
6.2401130388
20
13.6650696047
30
0.0000000000
10
6.3862374498
20
13.7794011320
30
0.0000000000
10
6.4827449140
20
13.8561574375
30
0.0000000000
10
6.5283356499
20
13.8926741455
30
0.0000000000
11
6.0897368307
21
13.5500000000
31
0.0000000000
11
6.2378254130
21
13.6636639221
31
0.0000000000
11
6.3911756115
21
13.7836100986
31
0.0000000000
11
6.5283356499
21
13.8926741455
31
0.0000000000
0
SPLINE
5
487
100
AcDbEntity
8
0
100
AcDbSpline
62
9
6
CONTINUOUS
70
0
71
3
72
8
73
4
74
2
42
0.0000001000
43
0.0000001000
44
0.0000000001
12
0.0332471806
22
-0.0254803984
32
0.0000000000
13
0.0326614187
23
-0.0262187529
33
0.0000000000
40
0.0000000000
40
0.0000000000
40
0.0000000000
40
0.0000000000
40
1.0000000000
40
1.0000000000
40
1.0000000000
40
1.0000000000
10
-0.4829537248
20
13.9358999076
30
0.0000000000
10
-0.4718713312
20
13.9274064415
30
0.0000000000
10
-0.4608871396
20
13.9187854556
30
0.0000000000
10
-0.4500000000
20
13.9100458713
30
0.0000000000
11
-0.4829537248
21
13.9358999076
31
0.0000000000
11
-0.4500000000
21
13.9100458713
31
0.0000000000
0
SPLINE
5
488
100
AcDbEntity
8
0
100
AcDbSpline
62
9
6
CONTINUOUS
70
0
71
3
72
13
73
9
74
7
42
0.0000001000
43
0.0000001000
44
0.0000000001
12
-0.0000000000
22
-0.7120342742
32
0.0000000000
13
0.7050657813
23
-0.0993732941
33
0.0000000000
40
0.0000000000
40
0.0000000000
40
0.0000000000
40
0.0000000000
40
0.1664031845
40
0.3328718515
40
0.4994567374
40
0.6661825317
40
0.8330424791
40
1.0000000000
40
1.0000000000
40
1.0000000000
40
1.0000000000
10
-0.9500000000
20
12.5567144730
30
0.0000000000
10
-0.9500000000
20
12.5172195495
30
0.0000000000
10
-0.9404799600
20
12.4378900421
30
0.0000000000
10
-0.8984509660
20
12.3258893740
30
0.0000000000
10
-0.8310625573
20
12.2268862468
30
0.0000000000
10
-0.7421108888
20
12.1465626308
30
0.0000000000
10
-0.6367174258
20
12.0894433422
30
0.0000000000
10
-0.5592669754
20
12.0689593190
30
0.0000000000
10
-0.5200282971
20
12.0634289460
30
0.0000000000
11
-0.9500000000
21
12.5567144730
31
0.0000000000
11
-0.9358609182
21
12.4390763531
31
0.0000000000
11
-0.8942433274
21
12.3280913628
31
0.0000000000
11
-0.8275009693
21
12.2300364097
31
0.0000000000
11
-0.7394085847
21
12.1504571440
31
0.0000000000
11
-0.6349484018
21
12.0938542585
31
0.0000000000
11
-0.5200282971
21
12.0634289460
31
0.0000000000
0
SPLINE
5
489
100
AcDbEntity
8
0
100
AcDbSpline
62
9
6
CONTINUOUS
70
0
71
3
72
9
73
5
74
3
42
0.0000001000
43
0.0000001000
44
0.0000000001
12
0.0958875565
22
0.0000008633
32
0.0000000000
13
0.0949352501
23
0.0134804224
33
0.0000000000
40
0.0000000000
40
0.0000000000
40
0.0000000000
40
0.0000000000
40
0.5040787815
40
1.0000000000
40
1.0000000000
40
1.0000000000
40
1.0000000000
10
6.4544089061
20
12.5500000000
30
0.0000000000
10
6.4705205337
20
12.5500001451
30
0.0000000000
10
6.5024939048
20
12.5511133285
30
0.0000000000
10
6.5343065317
20
12.5544994895
30
0.0000000000
10
6.5500000000
20
12.5567278987
30
0.0000000000
11
6.4544089061
21
12.5500000000
31
0.0000000000
11
6.5027138852
21
12.5516999626
31
0.0000000000
11
6.5500000000
21
12.5567278987
31
0.0000000000
0
SPLINE
5
48A
100
AcDbEntity
8
0
100
AcDbSpline
62
9
6
CONTINUOUS
70
0
71
3
72
9
73
5
74
3
42
0.0000001000
43
0.0000001000
44
0.0000000001
12
0.0949352501
22
-0.0134804224
32
0.0000000000
13
0.0958875565
23
-0.0000008633
33
0.0000000000
40
0.0000000000
40
0.0000000000
40
0.0000000000
40
0.0000000000
40
0.4959212185
40
1.0000000000
40
1.0000000000
40
1.0000000000
40
1.0000000000
10
-0.4500000000
20
12.5567278987
30
0.0000000000
10
-0.4343065317
20
12.5544994895
30
0.0000000000
10
-0.4024939048
20
12.5511133285
30
0.0000000000
10
-0.3705205337
20
12.5500001451
30
0.0000000000
10
-0.3544089061
20
12.5500000000
30
0.0000000000
11
-0.4500000000
21
12.5567278987
31
0.0000000000
11
-0.4027138852
21
12.5516999626
31
0.0000000000
11
-0.3544089061
21
12.5500000000
31
0.0000000000
0
SPLINE
5
48B
100
AcDbEntity
8
0
100
AcDbSpline
62
9
6
CONTINUOUS
70
0
71
3
72
9
73
5
74
3
42
0.0000001000
43
0.0000001000
44
0.0000000001
12
-0.0666102375
22
-0.0262680914
32
0.0000000000
13
-0.0716026279
23
0.0000061445
33
0.0000000000
40
0.0000000000
40
0.0000000000
40
0.0000000000
40
0.0000000000
40
0.4988157873
40
1.0000000000
40
1.0000000000
40
1.0000000000
40
1.0000000000
10
6.6200080354
20
12.0634211109
30
0.0000000000
10
6.6089326227
20
12.0590534646
30
0.0000000000
10
6.5858893544
20
12.0522673312
30
0.0000000000
10
6.5619620356
20
12.0499989735
30
0.0000000000
10
6.5500000000
20
12.0500000000
30
0.0000000000
11
6.6200080354
21
12.0634211109
31
0.0000000000
11
6.5857239637
21
12.0534075039
31
0.0000000000
11
6.5500000000
21
12.0500000000
31
0.0000000000
0
SPLINE
5
48C
100
AcDbEntity
8
0
100
AcDbSpline
62
9
6
CONTINUOUS
70
0
71
3
72
11
73
7
74
5
42
0.0000001000
43
0.0000001000
44
0.0000000001
12
-0.2353800932
22
-0.2768849658
32
0.0000000000
13
-0.3589526753
23
-0.0508354099
33
0.0000000000
40
0.0000000000
40
0.0000000000
40
0.0000000000
40
0.0000000000
40
0.0179242165
40
0.3456043732
40
0.6735426630
40
1.0000000000
40
1.0000000000
40
1.0000000000
40
1.0000000000
10
6.9315090431
20
12.2346925347
30
0.0000000000
10
6.9301027085
20
12.2330382194
30
0.0000000000
10
6.9027774666
20
12.2013185655
30
0.0000000000
10
6.8417425404
20
12.1462980346
30
0.0000000000
10
6.7364012437
20
12.0893246667
30
0.0000000000
10
6.6590892086
20
12.0689608102
30
0.0000000000
10
6.6200282971
20
12.0634289460
30
0.0000000000
11
6.9315090431
21
12.2346925347
31
0.0000000000
11
6.9272576093
21
12.2297574230
31
0.0000000000
11
6.8390396975
21
12.1501965166
31
0.0000000000
11
6.7344545773
21
12.0936586227
31
0.0000000000
11
6.6200282971
21
12.0634289460
31
0.0000000000
0
SPLINE
5
48D
100
AcDbEntity
8
0
100
AcDbSpline
62
9
6
CONTINUOUS
70
0
71
3
72
9
73
5
74
3
42
0.0000001000
43
0.0000001000
44
0.0000000001
12
0.1662776870
22
-0.0000020490
32
0.0000000000
13
0.1641095556
23
0.0267642107
33
0.0000000000
40
0.0000000000
40
0.0000000000
40
0.0000000000
40
0.0000000000
40
0.5004265647
40
1.0000000000
40
1.0000000000
40
1.0000000000
40
1.0000000000
10
6.4544089061
20
12.0500000000
30
0.0000000000
10
6.4821454967
20
12.0499996582
30
0.0000000000
10
6.5375938369
20
12.0522514158
30
0.0000000000
10
6.5926797773
20
12.0589642146
30
0.0000000000
10
6.6200080354
20
12.0634211109
30
0.0000000000
11
6.4544089061
21
12.0500000000
31
0.0000000000
11
6.5375503869
21
12.0533705009
31
0.0000000000
11
6.6200080354
21
12.0634211109
31
0.0000000000
0
SPLINE
5
48E
100
AcDbEntity
8
0
100
AcDbSpline
62
9
6
CONTINUOUS
70
0
71
3
72
9
73
5
74
3
42
0.0000001000
43
0.0000001000
44
0.0000000001
12
0.1641085851
22
-0.0267639718
32
0.0000000000
13
0.1662766907
23
0.0000020490
33
0.0000000000
40
0.0000000000
40
0.0000000000
40
0.0000000000
40
0.0000000000
40
0.4995704369
40
1.0000000000
40
1.0000000000
40
1.0000000000
40
1.0000000000
10
-0.5200070512
20
12.0634209509
30
0.0000000000
10
-0.4926791187
20
12.0589641212
30
0.0000000000
10
-0.4375935039
20
12.0522514088
30
0.0000000000
10
-0.3821454967
20
12.0499996582
30
0.0000000000
10
-0.3544089061
20
12.0500000000
30
0.0000000000
11
-0.5200070512
21
12.0634209509
31
0.0000000000
11
-0.4375503869
21
12.0533705009
31
0.0000000000
11
-0.3544089061
21
12.0500000000
31
0.0000000000
0
SPLINE
5
48F
100
AcDbEntity
8
0
100
AcDbSpline
62
9
6
CONTINUOUS
70
0
71
3
72
9
73
5
74
3
42
0.0000001000
43
0.0000001000
44
0.0000000001
12
-0.0716016394
22
-0.0000061002
32
0.0000000000
13
-0.0666099360
23
0.0262661612
33
0.0000000000
40
0.0000000000
40
0.0000000000
40
0.0000000000
40
0.0000000000
40
0.5011975621
40
1.0000000000
40
1.0000000000
40
1.0000000000
40
1.0000000000
10
-0.4500000000
20
12.0500000000
30
0.0000000000
10
-0.4619621890
20
12.0499989809
30
0.0000000000
10
-0.4858892536
20
12.0522671101
30
0.0000000000
10
-0.5089319851
20
12.0590537424
30
0.0000000000
10
-0.5200070512
20
12.0634209509
30
0.0000000000
11
-0.4500000000
21
12.0500000000
31
0.0000000000
11
-0.4857244183
21
12.0534075860
31
0.0000000000
11
-0.5200070512
21
12.0634209509
31
0.0000000000
0
SPLINE
5
490
100
AcDbEntity
8
0
100
AcDbSpline
62
9
6
CONTINUOUS
70
0
71
3
72
9
73
5
74
3
42
0.0000001000
43
0.0000001000
44
0.0000000001
12
0.0000000000
22
-0.0390671064
32
0.0000000000
13
-0.0450650681
23
0.0045370562
33
0.0000000000
40
0.0000000000
40
0.0000000000
40
0.0000000000
40
0.0000000000
40
0.6273786735
40
1.0000000000
40
1.0000000000
40
1.0000000000
40
1.0000000000
10
4.9000000000
20
19.0174537356
30
0.0000000000
10
4.9000000000
20
19.0092837791
30
0.0000000000
10
4.8790411832
20
19.0159948730
30
0.0000000000
10
4.8627202233
20
19.0186428979
30
0.0000000000
10
4.8571228215
20
19.0192064325
30
0.0000000000
11
4.9000000000
21
19.0174537356
31
0.0000000000
11
4.8755272497
21
19.0161053333
31
0.0000000000
11
4.8571228215
21
19.0192064325
31
0.0000000000
0
SPLINE
5
491
100
AcDbEntity
8
0
100
AcDbSpline
62
9
6
CONTINUOUS
70
0
71
3
72
11
73
7
74
5
42
0.0000001000
43
0.0000001000
44
0.0000000001
12
-0.4705484561
22
0.0473738286
32
0.0000000000
13
-0.4092399664
23
0.0007992254
33
0.0000000000
40
0.0000000000
40
0.0000000000
40
0.0000000000
40
0.0000000000
40
0.1384461749
40
0.4096295210
40
0.7513243561
40
1.0000000000
40
1.0000000000
40
1.0000000000
40
1.0000000000
10
4.8571228215
20
19.0192064325
30
0.0000000000
10
4.8354076102
20
19.0213926743
30
0.0000000000
10
4.7927166360
20
19.0090166714
30
0.0000000000
10
4.6815801342
20
19.0162134795
30
0.0000000000
10
4.5676233318
20
19.0128742744
30
0.0000000000
10
4.4871045299
20
19.0129447311
30
0.0000000000
10
4.4531818592
20
19.0130109804
30
0.0000000000
11
4.8571228215
21
19.0192064325
31
0.0000000000
11
4.8045053911
21
19.0148889362
31
0.0000000000
11
4.6938883480
21
19.0139236163
31
0.0000000000
11
4.5545053866
21
19.0133038545
31
0.0000000000
11
4.4531818592
21
19.0130109804
31
0.0000000000
0
SPLINE
5
492
100
AcDbEntity
8
0
100
AcDbSpline
62
9
6
CONTINUOUS
70
0
71
3
72
8
73
4
74
2
42
0.0000001000
43
0.0000001000
44
0.0000000001
12
-0.0532372756
22
0.0001039698
32
0.0000000000
13
-0.0530656330
23
0.0000000000
33
0.0000000000
40
0.0000000000
40
0.0000000000
40
0.0000000000
40
0.0000000000
40
1.0000000000
40
1.0000000000
40
1.0000000000
40
1.0000000000
10
4.4531818592
20
19.0130109804
30
0.0000000000
10
4.4354361007
20
19.0130456370
30
0.0000000000
10
4.4176885443
20
19.0130903017
30
0.0000000000
10
4.4000000000
20
19.0130903017
30
0.0000000000
11
4.4531818592
21
19.0130109804
31
0.0000000000
11
4.4000000000
21
19.0130903017
31
0.0000000000
0
SPLINE
5
493
100
AcDbEntity
8
0
100
AcDbSpline
62
9
6
CONTINUOUS
70
0
71
3
72
15
73
11
74
9
42
0.0000001000
43
0.0000001000
44
0.0000000001
12
0.0000000000
22
-0.7840504605
32
0.0000000000
13
0.7840504605
23
-0.0000000000
33
0.0000000000
40
0.0000000000
40
0.0000000000
40
0.0000000000
40
0.0000000000
40
0.1250035856
40
0.2500003382
40
0.3749971738
40
0.4999931596
40
0.6249941993
40
0.7499962985
40
0.8749988330
40
1.0000000000
40
1.0000000000
40
1.0000000000
40
1.0000000000
10
-11.1500000000
20
-21.8997711479
30
0.0000000000
10
-11.1500000000
20
-21.9324408542
30
0.0000000000
10
-11.1435720625
20
-21.9979588343
30
0.0000000000
10
-11.1150028885
20
-22.0923353736
30
0.0000000000
10
-11.0685863853
20
-22.1793736183
30
0.0000000000
10
-11.0060858443
20
-22.2556795571
30
0.0000000000
10
-10.9298940235
20
-22.3183228818
30
0.0000000000
10
-10.8429223671
20
-22.3648787971
30
0.0000000000
10
-10.7485697898
20
-22.3935479377
30
0.0000000000
10
-10.6830496739
20
-22.4000000000
30
0.0000000000
10
-10.6503805997
20
-22.4000000000
30
0.0000000000
11
-11.1500000000
21
-21.8997711479
31
0.0000000000
11
-11.1404171274
21
-21.9973106575
31
0.0000000000
11
-11.1120282390
21
-22.0911126206
31
0.0000000000
11
-11.0659057104
21
-22.1775849419
31
0.0000000000
11
-11.0038050670
21
-22.2534013617
31
0.0000000000
11
-10.9280978412
21
-22.3156413172
31
0.0000000000
11
-10.8416923200
21
-22.3618976126
31
0.0000000000
11
-10.7479148288
21
-22.3903828363
31
0.0000000000
11
-10.6503805997
21
-22.4000000000
31
0.0000000000
0
SPLINE
5
494
100
AcDbEntity
8
0
100
AcDbSpline
62
9
6
CONTINUOUS
70
0
71
3
72
8
73
4
74
2
42
0.0000001000
43
0.0000001000
44
0.0000000001
12
0.0087310046
22
-0.0325845526
32
0.0000000000
13
0.0432955405
23
0.0098101369
33
0.0000000000
40
0.0000000000
40
0.0000000000
40
0.0000000000
40
0.0000000000
40
1.0000000000
40
1.0000000000
40
1.0000000000
40
1.0000000000
10
-3.6977679175
20
18.9988494315
30
0.0000000000
10
-3.6948575826
20
18.9879879140
30
0.0000000000
10
-3.6785398952
20
18.9933440509
30
0.0000000000
10
-3.6641080484
20
18.9966140965
30
0.0000000000
11
-3.6977679175
21
18.9988494315
31
0.0000000000
11
-3.6641080484
21
18.9966140965
31
0.0000000000
0
SPLINE
5
495
100
AcDbEntity
8
0
100
AcDbSpline
62
9
6
CONTINUOUS
70
0
71
3
72
12
73
8
74
6
42
0.0000001000
43
0.0000001000
44
0.0000000001
12
1.0856283616
22
0.2459875250
32
0.0000000000
13
0.8452802037
23
-0.0013126163
33
0.0000000000
40
0.0000000000
40
0.0000000000
40
0.0000000000
40
0.0000000000
40
0.1129857625
40
0.2914066284
40
0.5242845958
40
0.8001063210
40
1.0000000000
40
1.0000000000
40
1.0000000000
40
1.0000000000
10
-3.6641080484
20
18.9966140965
30
0.0000000000
10
-3.6232211989
20
19.0058784592
30
0.0000000000
10
-3.5568075902
20
18.9865876345
30
0.0000000000
10
-3.3994644039
20
18.9958262056
30
0.0000000000
10
-3.2095714767
20
18.9902505744
30
0.0000000000
10
-3.0085939451
20
18.9909086557
30
0.0000000000
10
-2.8745504362
20
18.9906081146
30
0.0000000000
10
-2.8182283796
20
18.9905206533
30
0.0000000000
11
-3.6641080484
21
18.9966140965
31
0.0000000000
11
-3.5685576666
21
18.9945913254
31
0.0000000000
11
-3.4176457460
21
18.9928746848
31
0.0000000000
11
-3.2206645479
21
18.9915631310
31
0.0000000000
11
-2.9873554372
21
18.9907296150
31
0.0000000000
11
-2.8182283796
21
18.9905206533
31
0.0000000000
0
SPLINE
5
496
100
AcDbEntity
8
0
100
AcDbSpline
62
9
6
CONTINUOUS
70
0
71
3
72
8
73
4
74
2
42
0.0000001000
43
0.0000001000
44
0.0000000001
12
0.0886196079
22
-0.0001376154
32
0.0000000000
13
0.0886819278
23
0.0000000000
33
0.0000000000
40
0.0000000000
40
0.0000000000
40
0.0000000000
40
0.0000000000
40
1.0000000000
40
1.0000000000
40
1.0000000000
40
1.0000000000
10
-2.8182283796
20
18.9905206533
30
0.0000000000
10
-2.7886885103
20
18.9904747815
30
0.0000000000
10
-2.7591493235
20
18.9904395897
30
0.0000000000
10
-2.7295886809
20
18.9904395897
30
0.0000000000
11
-2.8182283796
21
18.9905206533
31
0.0000000000
11
-2.7295886809
21
18.9904395897
31
0.0000000000
0
SPLINE
5
497
100
AcDbEntity
8
0
100
AcDbSpline
62
9
6
CONTINUOUS
70
0
71
3
72
8
73
4
74
2
42
0.0000001000
43
0.0000001000
44
0.0000000001
12
0.1270233518
22
0.0000000000
32
0.0000000000
13
0.1270234742
23
0.0001389872
33
0.0000000000
40
0.0000000000
40
0.0000000000
40
0.0000000000
40
0.0000000000
40
1.0000000000
40
1.0000000000
40
1.0000000000
40
1.0000000000
10
2.7295886809
20
18.9904395897
30
0.0000000000
10
2.7719297981
20
18.9904395897
30
0.0000000000
10
2.8142660717
20
18.9904673212
30
0.0000000000
10
2.8566072298
20
18.9905136503
30
0.0000000000
11
2.7295886809
21
18.9904395897
31
0.0000000000
11
2.8566072298
21
18.9905136503
31
0.0000000000
0
SPLINE
5
498
100
AcDbEntity
8
0
100
AcDbSpline
62
9
6
CONTINUOUS
70
0
71
3
72
15
73
11
74
9
42
0.0000001000
43
0.0000001000
44
0.0000000001
12
0.8412796152
22
0.0009205155
32
0.0000000000
13
0.2177389768
23
0.8126129241
33
0.0000000000
40
0.0000000000
40
0.0000000000
40
0.0000000000
40
0.0000000000
40
0.0741029832
40
0.2908985354
40
0.4911325137
40
0.6663268537
40
0.8092284475
40
0.9143479524
40
0.9782951374
40
1.0000000000
40
1.0000000000
40
1.0000000000
40
1.0000000000
10
2.8566072298
20
18.9905136503
30
0.0000000000
10
2.8773876729
20
18.9905363880
30
0.0000000000
10
2.9589679607
20
18.9906432320
30
0.0000000000
10
3.0967628805
20
18.9909120754
30
0.0000000000
10
3.2625456871
20
18.9919614606
30
0.0000000000
10
3.4087784218
20
18.9920085382
30
0.0000000000
10
3.5250351722
20
18.9958150808
30
0.0000000000
10
3.6182043200
20
18.9910296561
30
0.0000000000
10
3.6614834694
20
19.0033324993
30
0.0000000000
10
3.6961925859
20
18.9929702142
30
0.0000000000
10
3.6977679175
20
18.9988494315
30
0.0000000000
11
2.8566072298
21
18.9905136503
31
0.0000000000
11
2.9189532386
21
18.9905942223
31
0.0000000000
11
3.1013381489
21
18.9910591505
31
0.0000000000
11
3.2697890039
21
18.9918262957
31
0.0000000000
11
3.4171725892
21
18.9928705705
31
0.0000000000
11
3.5373858482
21
18.9941513778
31
0.0000000000
11
3.6258085355
21
18.9956157018
31
0.0000000000
11
3.6795825589
21
18.9972018506
31
0.0000000000
11
3.6977679175
21
18.9988494315
31
0.0000000000
0
SPLINE
5
499
100
AcDbEntity
8
0
100
AcDbSpline
62
9
6
CONTINUOUS
70
0
71
3
72
15
73
11
74
9
42
0.0000001000
43
0.0000001000
44
0.0000000001
12
-0.7840504604
22
0.0000000000
32
0.0000000000
13
0.0000000000
23
-0.7840504604
33
0.0000000000
40
0.0000000000
40
0.0000000000
40
0.0000000000
40
0.0000000000
40
0.1250026133
40
0.2500082844
40
0.3750136098
40
0.5000160060
40
0.6250106349
40
0.7500042447
40
0.8749978606
40
1.0000000000
40
1.0000000000
40
1.0000000000
40
1.0000000000
10
-10.6503805997
20
22.4000000000
30
0.0000000000
10
-10.6830500519
20
22.4000000000
30
0.0000000000
10
-10.7485713718
20
22.3935477443
30
0.0000000000
10
-10.8429258085
20
22.3648775487
30
0.0000000000
10
-10.9298988298
20
22.3183198083
30
0.0000000000
10
-11.0060904776
20
22.2556749149
30
0.0000000000
10
-11.0685894502
20
22.1793688070
30
0.0000000000
10
-11.1150041327
20
22.0923319310
30
0.0000000000
10
-11.1435722551
20
21.9979572524
30
0.0000000000
10
-11.1500000000
20
21.9324404763
30
0.0000000000
10
-11.1500000000
20
21.8997711479
30
0.0000000000
11
-10.6503805997
21
22.4000000000
31
0.0000000000
11
-10.7479159463
21
22.3903826137
31
0.0000000000
11
-10.8416956551
21
22.3618962291
31
0.0000000000
11
-10.9281029540
21
22.3156378952
31
0.0000000000
11
-11.0038101683
21
22.2533962508
31
0.0000000000
11
-11.0659091235
21
22.1775798235
31
0.0000000000
11
-11.1120296181
21
22.0911092838
31
0.0000000000
11
-11.1404173492
21
21.9973095399
31
0.0000000000
11
-11.1500000000
21
21.8997711479
31
0.0000000000
0
SPLINE
5
49A
100
AcDbEntity
8
0
100
AcDbSpline
62
9
6
CONTINUOUS
70
0
71
3
72
15
73
11
74
9
42
0.0000001000
43
0.0000001000
44
0.0000000001
12
0.7840504604
22
0.0000000000
32
0.0000000000
13
0.0000000000
23
0.7840504604
33
0.0000000000
40
0.0000000000
40
0.0000000000
40
0.0000000000
40
0.0000000000
40
0.1250026133
40
0.2500082844
40
0.3750136098
40
0.5000160060
40
0.6250106349
40
0.7500042447
40
0.8749978606
40
1.0000000000
40
1.0000000000
40
1.0000000000
40
1.0000000000
10
10.6503805997
20
-22.4000000000
30
0.0000000000
10
10.6830500519
20
-22.4000000000
30
0.0000000000
10
10.7485713718
20
-22.3935477443
30
0.0000000000
10
10.8429258085
20
-22.3648775487
30
0.0000000000
10
10.9298988298
20
-22.3183198083
30
0.0000000000
10
11.0060904776
20
-22.2556749149
30
0.0000000000
10
11.0685894502
20
-22.1793688070
30
0.0000000000
10
11.1150041327
20
-22.0923319310
30
0.0000000000
10
11.1435722551
20
-21.9979572524
30
0.0000000000
10
11.1500000000
20
-21.9324404763
30
0.0000000000
10
11.1500000000
20
-21.8997711479
30
0.0000000000
11
10.6503805997
21
-22.4000000000
31
0.0000000000
11
10.7479159463
21
-22.3903826137
31
0.0000000000
11
10.8416956551
21
-22.3618962291
31
0.0000000000
11
10.9281029540
21
-22.3156378952
31
0.0000000000
11
11.0038101683
21
-22.2533962508
31
0.0000000000
11
11.0659091235
21
-22.1775798235
31
0.0000000000
11
11.1120296181
21
-22.0911092838
31
0.0000000000
11
11.1404173492
21
-21.9973095399
31
0.0000000000
11
11.1500000000
21
-21.8997711479
31
0.0000000000
0
SPLINE
5
49B
100
AcDbEntity
8
0
100
AcDbSpline
62
9
6
CONTINUOUS
70
0
71
3
72
8
73
4
74
2
42
0.0000001000
43
0.0000001000
44
0.0000000001
12
-0.0087311981
22
0.0325845008
32
0.0000000000
13
-0.0432954658
23
-0.0098101169
33
0.0000000000
40
0.0000000000
40
0.0000000000
40
0.0000000000
40
0.0000000000
40
1.0000000000
40
1.0000000000
40
1.0000000000
40
1.0000000000
10
3.6977679175
20
-18.9988494315
30
0.0000000000
10
3.6948575181
20
-18.9879879312
30
0.0000000000
10
3.6785398703
20
-18.9933440576
30
0.0000000000
10
3.6641080484
20
-18.9966140965
30
0.0000000000
11
3.6977679175
21
-18.9988494315
31
0.0000000000
11
3.6641080484
21
-18.9966140965
31
0.0000000000
0
SPLINE
5
49C
100
AcDbEntity
8
0
100
AcDbSpline
62
9
6
CONTINUOUS
70
0
71
3
72
12
73
8
74
6
42
0.0000001000
43
0.0000001000
44
0.0000000001
12
-1.0856264895
22
-0.2459870234
32
0.0000000000
13
-0.8452802086
23
0.0013126151
33
0.0000000000
40
0.0000000000
40
0.0000000000
40
0.0000000000
40
0.0000000000
40
0.1129857625
40
0.2914066283
40
0.5242845956
40
0.8001063207
40
1.0000000000
40
1.0000000000
40
1.0000000000
40
1.0000000000
10
3.6641080484
20
-18.9966140965
30
0.0000000000
10
3.6232212695
20
-19.0058784403
30
0.0000000000
10
3.5568075380
20
-18.9865876485
30
0.0000000000
10
3.3994644260
20
-18.9958261997
30
0.0000000000
10
3.2095714687
20
-18.9902505766
30
0.0000000000
10
3.0085939463
20
-18.9909086553
30
0.0000000000
10
2.8745504366
20
-18.9906081144
30
0.0000000000
10
2.8182283796
20
-18.9905206532
30
0.0000000000
11
3.6641080484
21
-18.9966140965
31
0.0000000000
11
3.5685576666
21
-18.9945913254
31
0.0000000000
11
3.4176457460
21
-18.9928746848
31
0.0000000000
11
3.2206645479
21
-18.9915631310
31
0.0000000000
11
2.9873554372
21
-18.9907296150
31
0.0000000000
11
2.8182283796
21
-18.9905206532
31
0.0000000000
0
SPLINE
5
49D
100
AcDbEntity
8
0
100
AcDbSpline
62
9
6
CONTINUOUS
70
0
71
3
72
8
73
4
74
2
42
0.0000001000
43
0.0000001000
44
0.0000000001
12
-0.0886196081
22
0.0001376152
32
0.0000000000
13
-0.0886819275
23
0.0000000000
33
0.0000000000
40
0.0000000000
40
0.0000000000
40
0.0000000000
40
0.0000000000
40
1.0000000000
40
1.0000000000
40
1.0000000000
40
1.0000000000
10
2.8182283796
20
-18.9905206532
30
0.0000000000
10
2.7886885103
20
-18.9904747815
30
0.0000000000
10
2.7591493234
20
-18.9904395897
30
0.0000000000
10
2.7295886809
20
-18.9904395897
30
0.0000000000
11
2.8182283796
21
-18.9905206532
31
0.0000000000
11
2.7295886809
21
-18.9904395897
31
0.0000000000
0
SPLINE
5
49E
100
AcDbEntity
8
0
100
AcDbSpline
62
9
6
CONTINUOUS
70
0
71
3
72
15
73
11
74
9
42
0.0000001000
43
0.0000001000
44
0.0000000001
12
0.0000000000
22
0.7840504605
32
0.0000000000
13
-0.7840504605
23
0.0000000000
33
0.0000000000
40
0.0000000000
40
0.0000000000
40
0.0000000000
40
0.0000000000
40
0.1250035856
40
0.2500003382
40
0.3749971738
40
0.4999931596
40
0.6249941993
40
0.7499962985
40
0.8749988330
40
1.0000000000
40
1.0000000000
40
1.0000000000
40
1.0000000000
10
11.1500000000
20
21.8997711479
30
0.0000000000
10
11.1500000000
20
21.9324408542
30
0.0000000000
10
11.1435720625
20
21.9979588343
30
0.0000000000
10
11.1150028885
20
22.0923353736
30
0.0000000000
10
11.0685863853
20
22.1793736183
30
0.0000000000
10
11.0060858443
20
22.2556795571
30
0.0000000000
10
10.9298940235
20
22.3183228818
30
0.0000000000
10
10.8429223671
20
22.3648787971
30
0.0000000000
10
10.7485697898
20
22.3935479377
30
0.0000000000
10
10.6830496739
20
22.4000000000
30
0.0000000000
10
10.6503805997
20
22.4000000000
30
0.0000000000
11
11.1500000000
21
21.8997711479
31
0.0000000000
11
11.1404171274
21
21.9973106575
31
0.0000000000
11
11.1120282390
21
22.0911126206
31
0.0000000000
11
11.0659057104
21
22.1775849419
31
0.0000000000
11
11.0038050670
21
22.2534013617
31
0.0000000000
11
10.9280978412
21
22.3156413172
31
0.0000000000
11
10.8416923200
21
22.3618976126
31
0.0000000000
11
10.7479148288
21
22.3903828363
31
0.0000000000
11
10.6503805997
21
22.4000000000
31
0.0000000000
0
SPLINE
5
49F
100
AcDbEntity
8
0
100
AcDbSpline
62
9
6
CONTINUOUS
70
0
71
3
72
8
73
4
74
2
42
0.0000001000
43
0.0000001000
44
0.0000000001
12
-0.1270233517
22
0.0000000000
32
0.0000000000
13
-0.1270234742
23
-0.0001389872
33
0.0000000000
40
0.0000000000
40
0.0000000000
40
0.0000000000
40
0.0000000000
40
1.0000000000
40
1.0000000000
40
1.0000000000
40
1.0000000000
10
-2.7295886809
20
-18.9904395897
30
0.0000000000
10
-2.7719297981
20
-18.9904395897
30
0.0000000000
10
-2.8142660717
20
-18.9904673212
30
0.0000000000
10
-2.8566072298
20
-18.9905136503
30
0.0000000000
11
-2.7295886809
21
-18.9904395897
31
0.0000000000
11
-2.8566072298
21
-18.9905136503
31
0.0000000000
0
SPLINE
5
4A0
100
AcDbEntity
8
0
100
AcDbSpline
62
9
6
CONTINUOUS
70
0
71
3
72
15
73
11
74
9
42
0.0000001000
43
0.0000001000
44
0.0000000001
12
-0.8412796153
22
-0.0009205155
32
0.0000000000
13
-0.2177437734
23
-0.8126116388
33
0.0000000000
40
0.0000000000
40
0.0000000000
40
0.0000000000
40
0.0000000000
40
0.0741029833
40
0.2908985354
40
0.4911325138
40
0.6663268537
40
0.8092284475
40
0.9143479524
40
0.9782951374
40
1.0000000000
40
1.0000000000
40
1.0000000000
40
1.0000000000
10
-2.8566072298
20
-18.9905136503
30
0.0000000000
10
-2.8773876729
20
-18.9905363879
30
0.0000000000
10
-2.9589679607
20
-18.9906432320
30
0.0000000000
10
-3.0967628800
20
-18.9909120755
30
0.0000000000
10
-3.2625456888
20
-18.9919614601
30
0.0000000000
10
-3.4087784166
20
-18.9920085396
30
0.0000000000
10
-3.5250351859
20
-18.9958150771
30
0.0000000000
10
-3.6182042893
20
-18.9910296644
30
0.0000000000
10
-3.6614835183
20
-19.0033324862
30
0.0000000000
10
-3.6961925512
20
-18.9929702235
30
0.0000000000
10
-3.6977679175
20
-18.9988494315
30
0.0000000000
11
-2.8566072298
21
-18.9905136503
31
0.0000000000
11
-2.9189532386
21
-18.9905942223
31
0.0000000000
11
-3.1013381489
21
-18.9910591505
31
0.0000000000
11
-3.2697890039
21
-18.9918262957
31
0.0000000000
11
-3.4171725892
21
-18.9928705705
31
0.0000000000
11
-3.5373858482
21
-18.9941513778
31
0.0000000000
11
-3.6258085355
21
-18.9956157018
31
0.0000000000
11
-3.6795825589
21
-18.9972018506
31
0.0000000000
11
-3.6977679175
21
-18.9988494315
31
0.0000000000
0
SPLINE
5
4A1
100
AcDbEntity
8
0
100
AcDbSpline
62
9
6
CONTINUOUS
70
0
71
3
72
10
73
6
74
4
42
0.0000001000
43
0.0000001000
44
0.0000000001
12
-0.3693625938
22
0.0000000000
32
0.0000000000
13
-0.3633344422
23
0.0089215876
33
0.0000000000
40
0.0000000000
40
0.0000000000
40
0.0000000000
40
0.0000000000
40
0.4183031625
40
0.7956676757
40
1.0000000000
40
1.0000000000
40
1.0000000000
40
1.0000000000
10
-4.4000000000
20
19.0130903017
30
0.0000000000
10
-4.4515018470
20
19.0130903017
30
0.0000000000
10
-4.5504167130
20
19.0123700795
30
0.0000000000
10
-4.6701831653
20
19.0158795210
30
0.0000000000
10
-4.7469359382
20
19.0118305566
30
0.0000000000
10
-4.7716829285
20
19.0124382128
30
0.0000000000
11
-4.4000000000
21
19.0130903017
31
0.0000000000
11
-4.5545053935
21
19.0133038545
31
0.0000000000
11
-4.6938883511
21
19.0139236163
31
0.0000000000
11
-4.7716829285
21
19.0124382128
31
0.0000000000
0
SPLINE
5
4A2
100
AcDbEntity
8
0
100
AcDbSpline
62
9
6
CONTINUOUS
70
0
71
3
72
10
73
6
74
4
42
0.0000001000
43
0.0000001000
44
0.0000000001
12
-0.1285577521
22
0.0031567039
32
0.0000000000
13
0.0000000000
23
0.1306906785
33
0.0000000000
40
0.0000000000
40
0.0000000000
40
0.0000000000
40
0.0000000000
40
0.2689444484
40
0.8124589151
40
1.0000000000
40
1.0000000000
40
1.0000000000
40
1.0000000000
10
-4.7716829285
20
19.0124382128
30
0.0000000000
10
-4.7832078931
20
19.0127212055
30
0.0000000000
10
-4.8165733031
20
19.0149061135
30
0.0000000000
10
-4.8487433156
20
19.0256963665
30
0.0000000000
10
-4.9000000000
20
19.0092837784
30
0.0000000000
10
-4.9000000000
20
19.0174537356
30
0.0000000000
11
-4.7716829285
21
19.0124382128
31
0.0000000000
11
-4.8045053889
21
19.0148889362
31
0.0000000000
11
-4.8755272474
21
19.0161053332
31
0.0000000000
11
-4.9000000000
21
19.0174537356
31
0.0000000000
0
SPLINE
5
4A3
100
AcDbEntity
8
0
100
AcDbSpline
62
9
6
CONTINUOUS
70
0
71
3
72
10
73
6
74
4
42
0.0000001000
43
0.0000001000
44
0.0000000001
12
0.2681701033
22
0.0000000000
32
0.0000000000
13
0.3440895584
23
0.0848145736
33
0.0000000000
40
0.0000000000
40
0.0000000000
40
0.0000000000
40
0.0000000000
40
0.4230913424
40
0.7696128315
40
1.0000000000
40
1.0000000000
40
1.0000000000
40
1.0000000000
10
4.2127354653
20
-19.0165591163
30
0.0000000000
10
4.2505556150
20
-19.0165591163
30
0.0000000000
10
4.3176492122
20
-19.0186844037
30
0.0000000000
10
4.4128729976
20
-19.0122280013
30
0.0000000000
10
4.4544739654
20
-19.0246103682
30
0.0000000000
10
4.4808985717
20
-19.0180969717
30
0.0000000000
11
4.2127354653
21
-19.0165591163
31
0.0000000000
11
4.3261957507
21
-19.0167518348
31
0.0000000000
11
4.4191208995
21
-19.0172893692
31
0.0000000000
11
4.4808985717
21
-19.0180969717
31
0.0000000000
0
SPLINE
5
4A4
100
AcDbEntity
8
0
100
AcDbSpline
62
9
6
CONTINUOUS
70
0
71
3
72
8
73
4
74
2
42
0.0000001000
43
0.0000001000
44
0.0000000001
12
0.0255687982
22
0.0063024485
32
0.0000000000
13
0.0099426972
23
-0.0133132585
33
0.0000000000
40
0.0000000000
40
0.0000000000
40
0.0000000000
40
0.0000000000
40
1.0000000000
40
1.0000000000
40
1.0000000000
40
1.0000000000
10
4.4808985717
20
-19.0180969717
30
0.0000000000
10
4.4894215044
20
-19.0159961555
30
0.0000000000
10
4.4989651181
20
-19.0127033291
30
0.0000000000
10
4.5022793505
20
-19.0171410819
30
0.0000000000
11
4.4808985717
21
-19.0180969717
31
0.0000000000
11
4.5022793505
21
-19.0171410819
31
0.0000000000
0
SPLINE
5
4A5
100
AcDbEntity
8
0
100
AcDbSpline
62
9
6
CONTINUOUS
70
0
71
3
72
8
73
4
74
2
42
0.0000001000
43
0.0000001000
44
0.0000000001
12
0.0011900343
22
-0.0015934544
32
0.0000000000
13
0.0006173063
23
-0.0023038183
33
0.0000000000
40
0.0000000000
40
0.0000000000
40
0.0000000000
40
0.0000000000
40
1.0000000000
40
1.0000000000
40
1.0000000000
40
1.0000000000
10
4.5022793505
20
-19.0171410819
30
0.0000000000
10
4.5026760286
20
-19.0176722334
30
0.0000000000
10
4.5029834675
20
-19.0183141294
30
0.0000000000
10
4.5031892363
20
-19.0190820689
30
0.0000000000
11
4.5022793505
21
-19.0171410819
31
0.0000000000
11
4.5031892363
21
-19.0190820689
31
0.0000000000
0
SPLINE
5
4A6
100
AcDbEntity
8
0
100
AcDbSpline
62
9
6
CONTINUOUS
70
0
71
3
72
9
73
5
74
3
42
0.0000001000
43
0.0000001000
44
0.0000000001
12
0.0093158568
22
0.0347672510
32
0.0000000000
13
0.0396175488
23
-0.0037230831
33
0.0000000000
40
0.0000000000
40
0.0000000000
40
0.0000000000
40
0.0000000000
40
0.6201466970
40
1.0000000000
40
1.0000000000
40
1.0000000000
40
1.0000000000
10
-4.5031892363
20
-19.0190820689
30
0.0000000000
10
-4.5012635037
20
-19.0118951369
30
0.0000000000
10
-4.4838046288
20
-19.0181007781
30
0.0000000000
10
-4.4696746616
20
-19.0204186388
30
0.0000000000
10
-4.4646583760
20
-19.0208900472
30
0.0000000000
11
-4.5031892363
21
-19.0190820689
31
0.0000000000
11
-4.4808896142
21
-19.0180967825
31
0.0000000000
11
-4.4646583760
21
-19.0208900472
31
0.0000000000
0
SPLINE
5
4A7
100
AcDbEntity
8
0
100
AcDbSpline
62
9
6
CONTINUOUS
70
0
71
3
72
10
73
6
74
4
42
0.0000001000
43
0.0000001000
44
0.0000000001
12
0.2389060523
22
-0.0224513404
32
0.0000000000
13
0.2152635516
23
0.0023548764
33
0.0000000000
40
0.0000000000
40
0.0000000000
40
0.0000000000
40
0.0000000000
40
0.2217504598
40
0.6498369174
40
1.0000000000
40
1.0000000000
40
1.0000000000
40
1.0000000000
10
-4.4646583760
20
-19.0208900472
30
0.0000000000
10
-4.4469992004
20
-19.0225495789
30
0.0000000000
10
-4.4079977165
20
-19.0125575480
30
0.0000000000
10
-4.3309256959
20
-19.0177825084
30
0.0000000000
10
-4.2750921477
20
-19.0170965538
30
0.0000000000
10
-4.2499663648
20
-19.0168216902
30
0.0000000000
11
-4.4646583760
21
-19.0208900472
31
0.0000000000
11
-4.4190909240
21
-19.0172891085
31
0.0000000000
11
-4.3261749567
21
-19.0167517604
31
0.0000000000
11
-4.2499663648
21
-19.0168216902
31
0.0000000000
0
SPLINE
5
4A8
100
AcDbEntity
8
0
100
AcDbSpline
62
9
6
CONTINUOUS
70
0
71
3
72
8
73
4
74
2
42
0.0000001000
43
0.0000001000
44
0.0000000001
12
0.0371269902
22
0.0004061508
32
0.0000000000
13
0.0374356491
23
0.0000000000
33
0.0000000000
40
0.0000000000
40
0.0000000000
40
0.0000000000
40
0.0000000000
40
1.0000000000
40
1.0000000000
40
1.0000000000
40
1.0000000000
10
-4.2499663648
20
-19.0168216902
30
0.0000000000
10
-4.2375907014
20
-19.0166863066
30
0.0000000000
10
-4.2252140150
20
-19.0165591163
30
0.0000000000
10
-4.2127354653
20
-19.0165591163
30
0.0000000000
11
-4.2499663648
21
-19.0168216902
31
0.0000000000
11
-4.2127354653
21
-19.0165591163
31
0.0000000000
0
SPLINE
5
4A9
100
AcDbEntity
8
0
100
AcDbSpline
62
9
6
CONTINUOUS
70
0
71
3
72
10
73
6
74
4
42
0.0000001000
43
0.0000001000
44
0.0000000001
12
2.1782891933
22
0.0035201484
32
0.0000000000
13
2.1782891933
23
-0.0035201484
33
0.0000000000
40
0.0000000000
40
0.0000000000
40
0.0000000000
40
0.0000000000
40
0.3325025211
40
0.6674974793
40
1.0000000000
40
1.0000000000
40
1.0000000000
40
1.0000000000
10
-1.0891456037
20
-19.0446711717
30
0.0000000000
10
-0.8477167209
20
-19.0442810190
30
0.0000000000
10
-0.3630487329
20
-19.0437660431
30
0.0000000000
10
0.3630487336
20
-19.0437660431
30
0.0000000000
10
0.8477167212
20
-19.0442810190
30
0.0000000000
10
1.0891456037
20
-19.0446711717
30
0.0000000000
11
-1.0891456037
21
-19.0446711717
31
0.0000000000
11
-0.3648584246
21
-19.0438957504
31
0.0000000000
11
0.3648584256
21
-19.0438957504
31
0.0000000000
11
1.0891456037
21
-19.0446711717
31
0.0000000000
0
SPLINE
5
4AA
100
AcDbEntity
8
0
100
AcDbSpline
62
9
6
CONTINUOUS
70
0
71
3
72
10
73
6
74
4
42
0.0000001000
43
0.0000001000
44
0.0000000001
12
2.1748324980
22
-0.0035199709
32
0.0000000000
13
2.1748324980
23
0.0035199709
33
0.0000000000
40
0.0000000000
40
0.0000000000
40
0.0000000000
40
0.0000000000
40
0.3324999687
40
0.6675000320
40
1.0000000000
40
1.0000000000
40
1.0000000000
40
1.0000000000
10
-1.0874172576
20
19.0448353178
30
0.0000000000
10
-0.8463733451
20
19.0444451877
30
0.0000000000
10
-0.3624726177
20
19.0439302575
30
0.0000000000
10
0.3624726187
20
19.0439302575
30
0.0000000000
10
0.8463733456
20
19.0444451877
30
0.0000000000
10
1.0874172576
20
19.0448353178
30
0.0000000000
11
-1.0874172576
21
19.0448353178
31
0.0000000000
11
-0.3642849886
21
19.0440599562
31
0.0000000000
11
0.3642849900
21
19.0440599562
31
0.0000000000
11
1.0874172576
21
19.0448353178
31
0.0000000000
0
SPLINE
5
4AB
100
AcDbEntity
8
0
100
AcDbSpline
62
9
6
CONTINUOUS
70
0
71
3
72
9
73
5
74
3
42
0.0000001000
43
0.0000001000
44
0.0000000001
12
0.2060083093
22
-0.0008934568
32
0.0000000000
13
0.1770628556
23
0.0253473566
33
0.0000000000
40
0.0000000000
40
0.0000000000
40
0.0000000000
40
0.0000000000
40
0.2174495834
40
1.0000000000
40
1.0000000000
40
1.0000000000
40
1.0000000000
10
2.5000042291
20
19.0028323192
30
0.0000000000
10
2.5149363694
20
19.0027675586
30
0.0000000000
10
2.5843077609
20
19.0018988874
30
0.0000000000
10
2.6580801435
20
18.9974143863
30
0.0000000000
10
2.7042670139
20
19.0040262478
30
0.0000000000
11
2.5000042291
21
19.0028323192
31
0.0000000000
11
2.5453140276
21
19.0022188022
31
0.0000000000
11
2.7042670139
21
19.0040262478
31
0.0000000000
0
SPLINE
5
4AC
100
AcDbEntity
8
0
100
AcDbSpline
62
9
6
CONTINUOUS
70
0
71
3
72
9
73
5
74
3
42
0.0000001000
43
0.0000001000
44
0.0000000001
12
0.1157200352
22
0.0165658517
32
0.0000000000
13
0.0141670770
23
0.1176699564
33
0.0000000000
40
0.0000000000
40
0.0000000000
40
0.0000000000
40
0.0000000000
40
0.7528433760
40
1.0000000000
40
1.0000000000
40
1.0000000000
40
1.0000000000
10
2.7042670139
20
19.0040262478
30
0.0000000000
10
2.7333067013
20
19.0081834117
30
0.0000000000
10
2.7658184273
20
19.0190200112
30
0.0000000000
10
2.8370277381
20
18.9974481222
30
0.0000000000
10
2.8381949004
20
19.0071424253
30
0.0000000000
11
2.7042670139
21
19.0040262478
31
0.0000000000
11
2.8041919284
21
19.0061316749
31
0.0000000000
11
2.8381949004
21
19.0071424253
31
0.0000000000
0
SPLINE
5
4AD
100
AcDbEntity
8
0
100
AcDbSpline
62
9
6
CONTINUOUS
70
0
71
3
72
8
73
4
74
2
42
0.0000001000
43
0.0000001000
44
0.0000000001
12
0.0001414200
22
0.0011746170
32
0.0000000000
13
-0.0000231287
23
0.0013250433
33
0.0000000000
40
0.0000000000
40
0.0000000000
40
0.0000000000
40
0.0000000000
40
1.0000000000
40
1.0000000000
40
1.0000000000
40
1.0000000000
10
2.8381949004
20
19.0071424253
30
0.0000000000
10
2.8382420404
20
19.0075339643
30
0.0000000000
10
2.8382623748
20
19.0079500141
30
0.0000000000
10
2.8382546653
20
19.0083916952
30
0.0000000000
11
2.8381949004
21
19.0071424253
31
0.0000000000
11
2.8382546653
21
19.0083916952
31
0.0000000000
0
SPLINE
5
4AE
100
AcDbEntity
8
0
100
AcDbSpline
62
9
6
CONTINUOUS
70
0
71
3
72
9
73
5
74
3
42
0.0000001000
43
0.0000001000
44
0.0000000001
12
-0.0009499972
22
-0.0544253036
32
0.0000000000
13
0.0630575896
23
0.0060003121
33
0.0000000000
40
0.0000000000
40
0.0000000000
40
0.0000000000
40
0.0000000000
40
0.6271426657
40
1.0000000000
40
1.0000000000
40
1.0000000000
40
1.0000000000
10
-2.8382546653
20
19.0083916952
30
0.0000000000
10
-2.8384532599
20
18.9970142186
30
0.0000000000
10
-2.8090978721
20
19.0059916970
30
0.0000000000
10
-2.7862480762
20
19.0095208663
30
0.0000000000
10
-2.7784109146
20
19.0102666198
30
0.0000000000
11
-2.8382546653
21
19.0083916952
31
0.0000000000
11
-2.8041919284
21
19.0061316749
31
0.0000000000
11
-2.7784109146
21
19.0102666198
31
0.0000000000
0
SPLINE
5
4AF
100
AcDbEntity
8
0
100
AcDbSpline
62
9
6
CONTINUOUS
70
0
71
3
72
10
73
6
74
4
42
0.0000001000
43
0.0000001000
44
0.0000000001
12
0.3275881837
22
0.0311720026
32
0.0000000000
13
0.2867861479
23
0.0012437898
33
0.0000000000
40
0.0000000000
40
0.0000000000
40
0.0000000000
40
0.0000000000
40
0.2816657612
40
0.8437985190
40
1.0000000000
40
1.0000000000
40
1.0000000000
40
1.0000000000
10
-2.7784109146
20
19.0102666198
30
0.0000000000
10
-2.7476541229
20
19.0131933151
30
0.0000000000
10
-2.6870070040
20
18.9956559703
30
0.0000000000
10
-2.5843077609
20
19.0018988874
30
0.0000000000
10
-2.5149363694
20
19.0027675586
30
0.0000000000
10
-2.5000042291
20
19.0028323192
30
0.0000000000
11
-2.7784109146
21
19.0102666198
31
0.0000000000
11
-2.7042670139
21
19.0040262478
31
0.0000000000
11
-2.5453140276
21
19.0022188022
31
0.0000000000
11
-2.5000042291
21
19.0028323192
31
0.0000000000
0
SPLINE
5
4B0
100
AcDbEntity
8
0
100
AcDbSpline
62
9
6
CONTINUOUS
70
0
71
3
72
10
73
6
74
4
42
0.0000001000
43
0.0000001000
44
0.0000000001
12
-0.2777771758
22
0.2504003321
32
0.0000000000
13
-0.2811426313
23
0.2466157063
33
0.0000000000
40
0.0000000000
40
0.0000000000
40
0.0000000000
40
0.0000000000
40
0.3338155602
40
0.6671491873
40
1.0000000000
40
1.0000000000
40
1.0000000000
40
1.0000000000
10
7.2382150030
20
20.9317102097
30
0.0000000000
10
7.2073062218
20
20.9595727187
30
0.0000000000
10
7.1454073215
20
21.0151179690
30
0.0000000000
10
7.0522510596
20
21.0979555199
30
0.0000000000
10
6.9899434435
20
21.1528601599
30
0.0000000000
10
6.9587505924
20
21.1802222394
30
0.0000000000
11
7.2382150030
21
20.9317102097
31
0.0000000000
11
7.1452999607
21
21.0150879310
31
0.0000000000
11
7.0521439014
21
21.0979253015
31
0.0000000000
11
6.9587505924
21
21.1802222394
31
0.0000000000
0
SPLINE
5
4B1
100
AcDbEntity
8
0
100
AcDbSpline
62
9
6
CONTINUOUS
70
0
71
3
72
10
73
6
74
4
42
0.0000001000
43
0.0000001000
44
0.0000000001
12
-0.2811426313
22
-0.2466157063
32
0.0000000000
13
-0.2777771758
23
-0.2504003321
33
0.0000000000
40
0.0000000000
40
0.0000000000
40
0.0000000000
40
0.0000000000
40
0.3328508127
40
0.6661844398
40
1.0000000000
40
1.0000000000
40
1.0000000000
40
1.0000000000
10
-6.9587505924
20
21.1802222394
30
0.0000000000
10
-6.9899434435
20
21.1528601599
30
0.0000000000
10
-7.0522510596
20
21.0979555199
30
0.0000000000
10
-7.1454073215
20
21.0151179690
30
0.0000000000
10
-7.2073062218
20
20.9595727187
30
0.0000000000
10
-7.2382150030
20
20.9317102097
30
0.0000000000
11
-6.9587505924
21
21.1802222394
31
0.0000000000
11
-7.0521439014
21
21.0979253015
31
0.0000000000
11
-7.1452999607
21
21.0150879310
31
0.0000000000
11
-7.2382150030
21
20.9317102097
31
0.0000000000
0
SPLINE
5
4B2
100
AcDbEntity
8
0
100
AcDbSpline
62
9
6
CONTINUOUS
70
0
71
3
72
10
73
6
74
4
42
0.0000001000
43
0.0000001000
44
0.0000000001
12
0.2811426313
22
0.2466157063
32
0.0000000000
13
0.2777771758
23
0.2504003321
33
0.0000000000
40
0.0000000000
40
0.0000000000
40
0.0000000000
40
0.0000000000
40
0.3328508127
40
0.6661844398
40
1.0000000000
40
1.0000000000
40
1.0000000000
40
1.0000000000
10
6.9587505924
20
-21.1802222394
30
0.0000000000
10
6.9899434435
20
-21.1528601599
30
0.0000000000
10
7.0522510596
20
-21.0979555199
30
0.0000000000
10
7.1454073215
20
-21.0151179690
30
0.0000000000
10
7.2073062218
20
-20.9595727187
30
0.0000000000
10
7.2382150030
20
-20.9317102097
30
0.0000000000
11
6.9587505924
21
-21.1802222394
31
0.0000000000
11
7.0521439014
21
-21.0979253015
31
0.0000000000
11
7.1452999607
21
-21.0150879310
31
0.0000000000
11
7.2382150030
21
-20.9317102097
31
0.0000000000
0
SPLINE
5
4B3
100
AcDbEntity
8
0
100
AcDbSpline
62
9
6
CONTINUOUS
70
0
71
3
72
10
73
6
74
4
42
0.0000001000
43
0.0000001000
44
0.0000000001
12
0.2777771758
22
-0.2504003321
32
0.0000000000
13
0.2811426313
23
-0.2466157063
33
0.0000000000
40
0.0000000000
40
0.0000000000
40
0.0000000000
40
0.0000000000
40
0.3338155602
40
0.6671491873
40
1.0000000000
40
1.0000000000
40
1.0000000000
40
1.0000000000
10
-7.2382150030
20
-20.9317102097
30
0.0000000000
10
-7.2073062218
20
-20.9595727187
30
0.0000000000
10
-7.1454073215
20
-21.0151179690
30
0.0000000000
10
-7.0522510596
20
-21.0979555199
30
0.0000000000
10
-6.9899434435
20
-21.1528601599
30
0.0000000000
10
-6.9587505924
20
-21.1802222394
30
0.0000000000
11
-7.2382150030
21
-20.9317102097
31
0.0000000000
11
-7.1452999607
21
-21.0150879310
31
0.0000000000
11
-7.0521439014
21
-21.0979253015
31
0.0000000000
11
-6.9587505924
21
-21.1802222394
31
0.0000000000
0
SPLINE
5
4B4
100
AcDbEntity
8
0
100
AcDbSpline
62
9
6
CONTINUOUS
70
0
71
3
72
10
73
6
74
4
42
0.0000001000
43
0.0000001000
44
0.0000000001
12
-0.2354636946
22
0.0027968085
32
0.0000000000
13
-0.2101561564
23
-0.0216764748
33
0.0000000000
40
0.0000000000
40
0.0000000000
40
0.0000000000
40
0.0000000000
40
0.1103015252
40
0.8013392229
40
1.0000000000
40
1.0000000000
40
1.0000000000
40
1.0000000000
10
-2.5000079443
20
-19.0028473772
30
0.0000000000
10
-2.5086652792
20
-19.0027445464
30
0.0000000000
10
-2.5719796217
20
-19.0016519910
30
0.0000000000
10
-2.6554745892
20
-18.9965713944
30
0.0000000000
10
-2.7107861796
20
-19.0088350048
30
0.0000000000
10
-2.7247027747
20
-19.0102704265
30
0.0000000000
11
-2.5000079443
21
-19.0028473772
31
0.0000000000
11
-2.5261633557
21
-19.0023873370
31
0.0000000000
11
-2.6851391274
21
-19.0041951359
31
0.0000000000
11
-2.7247027747
21
-19.0102704265
31
0.0000000000
0
SPLINE
5
4B5
100
AcDbEntity
8
0
100
AcDbSpline
62
9
6
CONTINUOUS
70
0
71
3
72
9
73
5
74
3
42
0.0000001000
43
0.0000001000
44
0.0000000001
12
-0.0794500777
22
-0.0081948473
32
0.0000000000
13
-0.0105266505
23
-0.0765664379
33
0.0000000000
40
0.0000000000
40
0.0000000000
40
0.0000000000
40
0.0000000000
40
0.6235846374
40
1.0000000000
40
1.0000000000
40
1.0000000000
40
1.0000000000
10
-2.7247027747
20
-19.0102704265
30
0.0000000000
10
-2.7412173907
20
-19.0119738202
30
0.0000000000
10
-2.7712373560
20
-19.0117630932
30
0.0000000000
10
-2.8177243551
20
-18.9976384301
30
0.0000000000
10
-2.8190451527
20
-19.0072453579
30
0.0000000000
11
-2.7247027747
21
-19.0102704265
31
0.0000000000
11
-2.7850607036
21
-19.0063004654
31
0.0000000000
11
-2.8190451527
21
-19.0072453579
31
0.0000000000
0
SPLINE
5
4B6
100
AcDbEntity
8
0
100
AcDbSpline
62
9
6
CONTINUOUS
70
0
71
3
72
8
73
4
74
2
42
0.0000001000
43
0.0000001000
44
0.0000000001
12
-0.0001692775
22
-0.0012312532
32
0.0000000000
13
0.0000122056
23
-0.0013986269
33
0.0000000000
40
0.0000000000
40
0.0000000000
40
0.0000000000
40
0.0000000000
40
1.0000000000
40
1.0000000000
40
1.0000000000
40
1.0000000000
10
-2.8190451527
20
-19.0072453579
30
0.0000000000
10
-2.8191015786
20
-19.0076557756
30
0.0000000000
10
-2.8191284788
20
-19.0080934303
30
0.0000000000
10
-2.8191244103
20
-19.0085596393
30
0.0000000000
11
-2.8190451527
21
-19.0072453579
31
0.0000000000
11
-2.8191244103
21
-19.0085596393
31
0.0000000000
0
SPLINE
5
4B7
100
AcDbEntity
8
0
100
AcDbSpline
62
9
6
CONTINUOUS
70
0
71
3
72
11
73
7
74
5
42
0.0000001000
43
0.0000001000
44
0.0000000001
12
0.0748318636
22
-0.2792763172
32
0.0000000000
13
-0.2891281189
23
-0.0000000000
33
0.0000000000
40
0.0000000000
40
0.0000000000
40
0.0000000000
40
0.0000000000
40
0.0758228142
40
0.2885400642
40
0.6086238147
40
1.0000000000
40
1.0000000000
40
1.0000000000
40
1.0000000000
10
4.5079397808
20
-19.0368113424
30
0.0000000000
10
4.5098311016
20
-19.0438698478
30
0.0000000000
10
4.4605348326
20
-19.0295725059
30
0.0000000000
10
4.4212158859
20
-19.0436550686
30
0.0000000000
10
4.3222318876
20
-19.0372266475
30
0.0000000000
10
4.2565605117
20
-19.0393461217
30
0.0000000000
10
4.2188412250
20
-19.0393461217
30
0.0000000000
11
4.5079397808
21
-19.0368113424
31
0.0000000000
11
4.4860397597
21
-19.0378040242
31
0.0000000000
11
4.4245425684
21
-19.0386150043
31
0.0000000000
11
4.3319989208
21
-19.0391532157
31
0.0000000000
11
4.2188412250
21
-19.0393461217
31
0.0000000000
0
SPLINE
5
4B8
100
AcDbEntity
8
0
100
AcDbSpline
62
9
6
CONTINUOUS
70
0
71
3
72
11
73
7
74
5
42
0.0000001000
43
0.0000001000
44
0.0000000001
12
-0.2891281214
22
0.0000000000
32
0.0000000000
13
0.0748318643
23
0.2792763196
33
0.0000000000
40
0.0000000000
40
0.0000000000
40
0.0000000000
40
0.0000000000
40
0.3914574025
40
0.7115724089
40
0.9242090125
40
1.0000000000
40
1.0000000000
40
1.0000000000
40
1.0000000000
10
-4.2188412250
20
-19.0393461217
30
0.0000000000
10
-4.2565683395
20
-19.0393461217
30
0.0000000000
10
-4.3222493962
20
-19.0372258458
30
0.0000000000
10
-4.4212385293
20
-19.0436554415
30
0.0000000000
10
-4.4605535063
20
-19.0295757650
30
0.0000000000
10
-4.5098303078
20
-19.0438668851
30
0.0000000000
10
-4.5079397808
20
-19.0368113424
30
0.0000000000
11
-4.2188412250
21
-19.0393461217
31
0.0000000000
11
-4.3320224039
21
-19.0391531313
31
0.0000000000
11
-4.4245750882
21
-19.0386147196
31
0.0000000000
11
-4.4860489620
21
-19.0378038274
31
0.0000000000
11
-4.5079397808
21
-19.0368113424
31
0.0000000000
0
SPLINE
5
4B9
100
AcDbEntity
8
0
100
AcDbSpline
62
9
6
CONTINUOUS
70
0
71
3
72
13
73
9
74
7
42
0.0000001000
43
0.0000001000
44
0.0000000001
12
-0.2494438696
22
0.9309371950
32
0.0000000000
13
0.9637771034
23
0.0000000000
33
0.0000000000
40
0.0000000000
40
0.0000000000
40
0.0000000000
40
0.0000000000
40
0.0341301573
40
0.1330056156
40
0.2885528119
40
0.4918423621
40
0.7329920232
40
1.0000000000
40
1.0000000000
40
1.0000000000
40
1.0000000000
10
-3.7096363724
20
19.0431431083
30
0.0000000000
10
-3.7124742252
20
19.0537341193
30
0.0000000000
10
-3.6370013499
20
19.0336318277
30
0.0000000000
10
-3.5747279784
20
19.0553702760
30
0.0000000000
10
-3.4115001594
20
19.0462341291
30
0.0000000000
10
-3.2252900687
20
19.0517723233
30
0.0000000000
10
-2.9944133095
20
19.0510275603
30
0.0000000000
10
-2.8317532445
20
19.0515923727
30
0.0000000000
10
-2.7459745197
20
19.0515923727
30
0.0000000000
11
-3.7096363724
21
19.0431431083
31
0.0000000000
11
-3.6768200801
21
19.0454008200
31
0.0000000000
11
-3.5815479768
21
19.0474390142
31
0.0000000000
11
-3.4316449756
21
19.0491553208
31
0.0000000000
11
-3.2357235539
21
19.0504672032
31
0.0000000000
11
-3.0033105299
21
19.0513016258
31
0.0000000000
11
-2.7459745197
21
19.0515923727
31
0.0000000000
0
SPLINE
5
4BA
100
AcDbEntity
8
0
100
AcDbSpline
62
9
6
CONTINUOUS
70
0
71
3
72
13
73
9
74
7
42
0.0000001000
43
0.0000001000
44
0.0000000001
12
0.2494438696
22
0.9309371950
32
0.0000000000
13
-0.9637771034
23
0.0000000000
33
0.0000000000
40
0.0000000000
40
0.0000000000
40
0.0000000000
40
0.0000000000
40
0.0341301573
40
0.1330056156
40
0.2885528119
40
0.4918423621
40
0.7329920232
40
1.0000000000
40
1.0000000000
40
1.0000000000
40
1.0000000000
10
3.7096363724
20
19.0431431083
30
0.0000000000
10
3.7124742252
20
19.0537341193
30
0.0000000000
10
3.6370013499
20
19.0336318277
30
0.0000000000
10
3.5747279784
20
19.0553702760
30
0.0000000000
10
3.4115001594
20
19.0462341291
30
0.0000000000
10
3.2252900687
20
19.0517723233
30
0.0000000000
10
2.9944133095
20
19.0510275603
30
0.0000000000
10
2.8317532445
20
19.0515923727
30
0.0000000000
10
2.7459745197
20
19.0515923727
30
0.0000000000
11
3.7096363724
21
19.0431431083
31
0.0000000000
11
3.6768200801
21
19.0454008200
31
0.0000000000
11
3.5815479768
21
19.0474390142
31
0.0000000000
11
3.4316449756
21
19.0491553208
31
0.0000000000
11
3.2357235539
21
19.0504672032
31
0.0000000000
11
3.0033105299
21
19.0513016258
31
0.0000000000
11
2.7459745197
21
19.0515923727
31
0.0000000000
0
SPLINE
5
4BB
100
AcDbEntity
8
0
100
AcDbSpline
62
9
6
CONTINUOUS
70
0
71
3
72
11
73
7
74
5
42
0.0000001000
43
0.0000001000
44
0.0000000001
12
-0.2061737719
22
0.2415815834
32
0.0000000000
13
-0.2372671391
23
-0.2141988194
33
0.0000000000
40
0.0000000000
40
0.0000000000
40
0.0000000000
40
0.0000000000
40
0.2544621734
40
0.5076466490
40
0.7609173306
40
1.0000000000
40
1.0000000000
40
1.0000000000
40
1.0000000000
10
10.0282587846
20
18.1595749722
30
0.0000000000
10
10.0107709759
20
18.1800660972
30
0.0000000000
10
9.9670007442
20
18.2141956470
30
0.0000000000
10
9.8869784140
20
18.2350552873
30
0.0000000000
10
9.8067436897
20
18.2230087688
30
0.0000000000
10
9.7610061145
20
18.1953275870
30
0.0000000000
10
9.7420972942
20
18.1782571785
30
0.0000000000
11
10.0282587846
21
18.1595749722
31
0.0000000000
11
9.9644742777
21
18.2092028229
31
0.0000000000
11
9.8866768348
21
18.2295379904
31
0.0000000000
11
9.8071350985
21
18.2175597926
31
0.0000000000
11
9.7420972942
21
18.1782571785
31
0.0000000000
0
SPLINE
5
4BC
100
AcDbEntity
8
0
100
AcDbSpline
62
9
6
CONTINUOUS
70
0
71
3
72
10
73
6
74
4
42
0.0000001000
43
0.0000001000
44
0.0000000001
12
0.0000000000
22
0.6546690428
32
0.0000000000
13
-0.3993557461
23
0.5187548010
33
0.0000000000
40
0.0000000000
40
0.0000000000
40
0.0000000000
40
0.0000000000
40
0.3323511565
40
0.6678416319
40
1.0000000000
40
1.0000000000
40
1.0000000000
40
1.0000000000
10
11.1238174026
20
16.4544358981
30
0.0000000000
10
11.1238174026
20
16.5269625692
30
0.0000000000
10
11.1078244603
20
16.6732108232
30
0.0000000000
10
11.0369833382
20
16.8813190901
30
0.0000000000
10
10.9604579145
20
17.0069183958
30
0.0000000000
10
10.9162414635
20
17.0643546451
30
0.0000000000
11
11.1238174026
21
16.4544358981
31
0.0000000000
11
11.1001436456
21
16.6707241675
31
0.0000000000
11
11.0293670616
21
16.8786431630
31
0.0000000000
11
10.9162414635
21
17.0643546451
31
0.0000000000
0
SPLINE
5
4BD
100
AcDbEntity
8
0
100
AcDbSpline
62
9
6
CONTINUOUS
70
0
71
3
72
10
73
6
74
4
42
0.0000001000
43
0.0000001000
44
0.0000000001
12
0.3993557461
22
0.5187548010
32
0.0000000000
13
0.0000000000
23
0.6546690428
33
0.0000000000
40
0.0000000000
40
0.0000000000
40
0.0000000000
40
0.0000000000
40
0.3323511565
40
0.6678416318
40
1.0000000000
40
1.0000000000
40
1.0000000000
40
1.0000000000
10
10.9162414635
20
-17.0643546451
30
0.0000000000
10
10.9604835782
20
-17.0068850591
30
0.0000000000
10
11.0370240310
20
-16.8812431669
30
0.0000000000
10
11.1078385296
20
-16.6731258391
30
0.0000000000
10
11.1238174026
20
-16.5269204984
30
0.0000000000
10
11.1238174026
20
-16.4544358981
30
0.0000000000
11
10.9162414635
21
-17.0643546451
31
0.0000000000
11
11.0294209226
21
-16.8785281876
31
0.0000000000
11
11.1001711029
21
-16.6706002061
31
0.0000000000
11
11.1238174026
21
-16.4544358981
31
0.0000000000
0
SPLINE
5
4BE
100
AcDbEntity
8
0
100
AcDbSpline
62
9
6
CONTINUOUS
70
0
71
3
72
11
73
7
74
5
42
0.0000001000
43
0.0000001000
44
0.0000000001
12
0.2372671337
22
-0.2141988486
32
0.0000000000
13
0.2061737820
23
0.2415815953
33
0.0000000000
40
0.0000000000
40
0.0000000000
40
0.0000000000
40
0.0000000000
40
0.2390827068
40
0.4923533760
40
0.7455378391
40
1.0000000000
40
1.0000000000
40
1.0000000000
40
1.0000000000
10
9.7420972825
20
-18.1782571680
30
0.0000000000
10
9.7610061054
20
-18.1953275815
30
0.0000000000
10
9.8067436844
20
-18.2230087680
30
0.0000000000
10
9.8869784140
20
-18.2350552873
30
0.0000000000
10
9.9670007442
20
-18.2141956470
30
0.0000000000
10
10.0107709759
20
-18.1800660972
30
0.0000000000
10
10.0282587846
20
-18.1595749722
30
0.0000000000
11
9.7420972825
21
-18.1782571680
31
0.0000000000
11
9.8071350985
21
-18.2175597926
31
0.0000000000
11
9.8866768348
21
-18.2295379904
31
0.0000000000
11
9.9644742777
21
-18.2092028229
31
0.0000000000
11
10.0282587846
21
-18.1595749722
31
0.0000000000
0
SPLINE
5
4BF
100
AcDbEntity
8
0
100
AcDbSpline
62
9
6
CONTINUOUS
70
0
71
3
72
11
73
7
74
5
42
0.0000001000
43
0.0000001000
44
0.0000000001
12
0.2061737719
22
-0.2415815834
32
0.0000000000
13
0.2372671391
23
0.2141988194
33
0.0000000000
40
0.0000000000
40
0.0000000000
40
0.0000000000
40
0.0000000000
40
0.2544621734
40
0.5076466490
40
0.7609173306
40
1.0000000000
40
1.0000000000
40
1.0000000000
40
1.0000000000
10
-10.0282587846
20
-18.1595749722
30
0.0000000000
10
-10.0107709759
20
-18.1800660972
30
0.0000000000
10
-9.9670007442
20
-18.2141956470
30
0.0000000000
10
-9.8869784140
20
-18.2350552873
30
0.0000000000
10
-9.8067436897
20
-18.2230087688
30
0.0000000000
10
-9.7610061145
20
-18.1953275870
30
0.0000000000
10
-9.7420972942
20
-18.1782571785
30
0.0000000000
11
-10.0282587846
21
-18.1595749722
31
0.0000000000
11
-9.9644742777
21
-18.2092028229
31
0.0000000000
11
-9.8866768348
21
-18.2295379904
31
0.0000000000
11
-9.8071350985
21
-18.2175597926
31
0.0000000000
11
-9.7420972942
21
-18.1782571785
31
0.0000000000
0
SPLINE
5
4C0
100
AcDbEntity
8
0
100
AcDbSpline
62
9
6
CONTINUOUS
70
0
71
3
72
10
73
6
74
4
42
0.0000001000
43
0.0000001000
44
0.0000000001
12
0.0000000000
22
-0.6546690428
32
0.0000000000
13
0.3993557461
23
-0.5187548010
33
0.0000000000
40
0.0000000000
40
0.0000000000
40
0.0000000000
40
0.0000000000
40
0.3323511565
40
0.6678416319
40
1.0000000000
40
1.0000000000
40
1.0000000000
40
1.0000000000
10
-11.1238174026
20
-16.4544358981
30
0.0000000000
10
-11.1238174026
20
-16.5269625692
30
0.0000000000
10
-11.1078244603
20
-16.6732108232
30
0.0000000000
10
-11.0369833382
20
-16.8813190901
30
0.0000000000
10
-10.9604579145
20
-17.0069183958
30
0.0000000000
10
-10.9162414635
20
-17.0643546451
30
0.0000000000
11
-11.1238174026
21
-16.4544358981
31
0.0000000000
11
-11.1001436456
21
-16.6707241675
31
0.0000000000
11
-11.0293670616
21
-16.8786431630
31
0.0000000000
11
-10.9162414635
21
-17.0643546451
31
0.0000000000
0
SPLINE
5
4C1
100
AcDbEntity
8
0
100
AcDbSpline
62
9
6
CONTINUOUS
70
0
71
3
72
10
73
6
74
4
42
0.0000001000
43
0.0000001000
44
0.0000000001
12
-0.3993557461
22
-0.5187548010
32
0.0000000000
13
0.0000000000
23
-0.6546690428
33
0.0000000000
40
0.0000000000
40
0.0000000000
40
0.0000000000
40
0.0000000000
40
0.3323511565
40
0.6678416318
40
1.0000000000
40
1.0000000000
40
1.0000000000
40
1.0000000000
10
-10.9162414635
20
17.0643546451
30
0.0000000000
10
-10.9604835782
20
17.0068850591
30
0.0000000000
10
-11.0370240310
20
16.8812431669
30
0.0000000000
10
-11.1078385296
20
16.6731258391
30
0.0000000000
10
-11.1238174026
20
16.5269204984
30
0.0000000000
10
-11.1238174026
20
16.4544358981
30
0.0000000000
11
-10.9162414635
21
17.0643546451
31
0.0000000000
11
-11.0294209226
21
16.8785281876
31
0.0000000000
11
-11.1001711029
21
16.6706002061
31
0.0000000000
11
-11.1238174026
21
16.4544358981
31
0.0000000000
0
SPLINE
5
4C2
100
AcDbEntity
8
0
100
AcDbSpline
62
9
6
CONTINUOUS
70
0
71
3
72
11
73
7
74
5
42
0.0000001000
43
0.0000001000
44
0.0000000001
12
-0.2372671337
22
0.2141988486
32
0.0000000000
13
-0.2061737820
23
-0.2415815953
33
0.0000000000
40
0.0000000000
40
0.0000000000
40
0.0000000000
40
0.0000000000
40
0.2390827068
40
0.4923533760
40
0.7455378391
40
1.0000000000
40
1.0000000000
40
1.0000000000
40
1.0000000000
10
-9.7420972825
20
18.1782571680
30
0.0000000000
10
-9.7610061054
20
18.1953275815
30
0.0000000000
10
-9.8067436844
20
18.2230087680
30
0.0000000000
10
-9.8869784140
20
18.2350552873
30
0.0000000000
10
-9.9670007442
20
18.2141956470
30
0.0000000000
10
-10.0107709759
20
18.1800660972
30
0.0000000000
10
-10.0282587846
20
18.1595749722
30
0.0000000000
11
-9.7420972825
21
18.1782571680
31
0.0000000000
11
-9.8071350985
21
18.2175597926
31
0.0000000000
11
-9.8866768348
21
18.2295379904
31
0.0000000000
11
-9.9644742777
21
18.2092028229
31
0.0000000000
11
-10.0282587846
21
18.1595749722
31
0.0000000000
0
SPLINE
5
4C3
100
AcDbEntity
8
0
100
AcDbSpline
62
9
6
CONTINUOUS
70
0
71
3
72
9
73
5
74
3
42
0.0000001000
43
0.0000001000
44
0.0000000001
12
0.0265597830
22
-0.0712432394
32
0.0000000000
13
0.0264685659
23
-0.0712771790
33
0.0000000000
40
0.0000000000
40
0.0000000000
40
0.0000000000
40
0.0000000000
40
0.4995098981
40
1.0000000000
40
1.0000000000
40
1.0000000000
40
1.0000000000
10
10.0017445951
20
18.2308351883
30
0.0000000000
10
10.0061668866
20
18.2189729539
30
0.0000000000
10
10.0150125600
20
18.1952223781
30
0.0000000000
10
10.0238430328
20
18.1714661464
30
0.0000000000
10
10.0282587846
20
18.1595749722
30
0.0000000000
11
10.0017445951
21
18.2308351883
31
0.0000000000
11
10.0150000967
21
18.1952442473
31
0.0000000000
11
10.0282587846
21
18.1595749722
31
0.0000000000
0
SPLINE
5
4C4
100
AcDbEntity
8
0
100
AcDbSpline
62
9
6
CONTINUOUS
70
0
71
3
72
9
73
5
74
3
42
0.0000001000
43
0.0000001000
44
0.0000000001
12
-0.0264685659
22
-0.0712771790
32
0.0000000000
13
-0.0265597830
23
-0.0712432394
33
0.0000000000
40
0.0000000000
40
0.0000000000
40
0.0000000000
40
0.0000000000
40
0.5004901019
40
1.0000000000
40
1.0000000000
40
1.0000000000
40
1.0000000000
10
10.0282587846
20
-18.1595749722
30
0.0000000000
10
10.0238430328
20
-18.1714661464
30
0.0000000000
10
10.0150125600
20
-18.1952223781
30
0.0000000000
10
10.0061668866
20
-18.2189729539
30
0.0000000000
10
10.0017445951
20
-18.2308351883
30
0.0000000000
11
10.0282587846
21
-18.1595749722
31
0.0000000000
11
10.0150000967
21
-18.1952442473
31
0.0000000000
11
10.0017445951
21
-18.2308351883
31
0.0000000000
0
SPLINE
5
4C5
100
AcDbEntity
8
0
100
AcDbSpline
62
9
6
CONTINUOUS
70
0
71
3
72
9
73
5
74
3
42
0.0000001000
43
0.0000001000
44
0.0000000001
12
-0.0265597830
22
0.0712432394
32
0.0000000000
13
-0.0264685659
23
0.0712771790
33
0.0000000000
40
0.0000000000
40
0.0000000000
40
0.0000000000
40
0.0000000000
40
0.4995098981
40
1.0000000000
40
1.0000000000
40
1.0000000000
40
1.0000000000
10
-10.0017445951
20
-18.2308351883
30
0.0000000000
10
-10.0061668866
20
-18.2189729539
30
0.0000000000
10
-10.0150125600
20
-18.1952223781
30
0.0000000000
10
-10.0238430328
20
-18.1714661464
30
0.0000000000
10
-10.0282587846
20
-18.1595749722
30
0.0000000000
11
-10.0017445951
21
-18.2308351883
31
0.0000000000
11
-10.0150000967
21
-18.1952442473
31
0.0000000000
11
-10.0282587846
21
-18.1595749722
31
0.0000000000
0
SPLINE
5
4C6
100
AcDbEntity
8
0
100
AcDbSpline
62
9
6
CONTINUOUS
70
0
71
3
72
9
73
5
74
3
42
0.0000001000
43
0.0000001000
44
0.0000000001
12
0.0264685659
22
0.0712771790
32
0.0000000000
13
0.0265597830
23
0.0712432394
33
0.0000000000
40
0.0000000000
40
0.0000000000
40
0.0000000000
40
0.0000000000
40
0.5004901019
40
1.0000000000
40
1.0000000000
40
1.0000000000
40
1.0000000000
10
-10.0282587846
20
18.1595749722
30
0.0000000000
10
-10.0238430328
20
18.1714661464
30
0.0000000000
10
-10.0150125600
20
18.1952223781
30
0.0000000000
10
-10.0061668866
20
18.2189729539
30
0.0000000000
10
-10.0017445951
20
18.2308351883
30
0.0000000000
11
-10.0282587846
21
18.1595749722
31
0.0000000000
11
-10.0150000967
21
18.1952442473
31
0.0000000000
11
-10.0017445951
21
18.2308351883
31
0.0000000000
0
SPLINE
5
4C7
100
AcDbEntity
8
0
100
AcDbSpline
62
9
6
CONTINUOUS
70
0
71
3
72
13
73
9
74
7
42
0.0000001000
43
0.0000001000
44
0.0000000001
12
0.2494438697
22
-0.9309371952
32
0.0000000000
13
-0.9637771036
23
-0.0000000000
33
0.0000000000
40
0.0000000000
40
0.0000000000
40
0.0000000000
40
0.0000000000
40
0.0341297454
40
0.1330051921
40
0.2885527102
40
0.4918428398
40
0.7329932648
40
1.0000000000
40
1.0000000000
40
1.0000000000
40
1.0000000000
10
3.7096363724
20
-19.0431431083
30
0.0000000000
10
3.7124741910
20
-19.0537339915
30
0.0000000000
10
3.6370016145
20
-19.0336318328
30
0.0000000000
10
3.5747283341
20
-19.0553703003
30
0.0000000000
10
3.4115001444
20
-19.0462341130
30
0.0000000000
10
3.2252895616
20
-19.0517723333
30
0.0000000000
10
2.9944127578
20
-19.0510275620
30
0.0000000000
10
2.8317528456
20
-19.0515923727
30
0.0000000000
10
2.7459745197
20
-19.0515923727
30
0.0000000000
11
3.7096363724
21
-19.0431431083
31
0.0000000000
11
3.6768204771
21
-19.0454008068
31
0.0000000000
11
3.5815483851
21
-19.0474390080
31
0.0000000000
11
3.4316450738
21
-19.0491553200
31
0.0000000000
11
3.2357230936
21
-19.0504672056
31
0.0000000000
11
3.0033093333
21
-19.0513016286
31
0.0000000000
11
2.7459745197
21
-19.0515923727
31
0.0000000000
0
SPLINE
5
4C8
100
AcDbEntity
8
0
100
AcDbSpline
62
9
6
CONTINUOUS
70
0
71
3
72
13
73
9
74
7
42
0.0000001000
43
0.0000001000
44
0.0000000001
12
-0.2494438696
22
-0.9309371951
32
0.0000000000
13
0.9637771036
23
0.0000000000
33
0.0000000000
40
0.0000000000
40
0.0000000000
40
0.0000000000
40
0.0000000000
40
0.0341298429
40
0.1330053327
40
0.2885528493
40
0.4918429432
40
0.7329933076
40
1.0000000000
40
1.0000000000
40
1.0000000000
40
1.0000000000
10
-3.7096363724
20
-19.0431431083
30
0.0000000000
10
-3.7124741991
20
-19.0537340217
30
0.0000000000
10
-3.6370015309
20
-19.0336318268
30
0.0000000000
10
-3.5747282066
20
-19.0553702996
30
0.0000000000
10
-3.4115000255
20
-19.0462341159
30
0.0000000000
10
-3.2252894681
20
-19.0517723328
30
0.0000000000
10
-2.9944127114
20
-19.0510275624
30
0.0000000000
10
-2.8317528319
20
-19.0515923727
30
0.0000000000
10
-2.7459745197
20
-19.0515923727
30
0.0000000000
11
-3.7096363724
21
-19.0431431083
31
0.0000000000
11
-3.6768203832
21
-19.0454008099
31
0.0000000000
11
-3.5815482495
21
-19.0474390101
31
0.0000000000
11
-3.4316449397
21
-19.0491553212
31
0.0000000000
11
-3.2357229938
21
-19.0504672061
31
0.0000000000
11
-3.0033092921
21
-19.0513016287
31
0.0000000000
11
-2.7459745197
21
-19.0515923727
31
0.0000000000
0
SPLINE
5
4C9
100
AcDbEntity
8
0
100
AcDbSpline
62
9
6
CONTINUOUS
70
0
71
3
72
9
73
5
74
3
42
0.0000001000
43
0.0000001000
44
0.0000000001
12
0.0004753698
22
0.0544719825
32
0.0000000000
13
-0.0630083705
23
-0.0059882816
33
0.0000000000
40
0.0000000000
40
0.0000000000
40
0.0000000000
40
0.0000000000
40
0.6266935696
40
1.0000000000
40
1.0000000000
40
1.0000000000
40
1.0000000000
10
2.8191244103
20
-19.0085596393
30
0.0000000000
10
2.8192237140
20
-18.9971805589
30
0.0000000000
10
2.7899432070
20
-19.0061669236
30
0.0000000000
10
2.7671218569
20
-19.0096955781
30
0.0000000000
10
2.7592813802
20
-19.0104407328
30
0.0000000000
11
2.8191244103
21
-19.0085596393
31
0.0000000000
11
2.7850607036
21
-19.0063004654
31
0.0000000000
11
2.7592813802
21
-19.0104407328
31
0.0000000000
0
SPLINE
5
4CA
100
AcDbEntity
8
0
100
AcDbSpline
62
9
6
CONTINUOUS
70
0
71
3
72
10
73
6
74
4
42
0.0000001000
43
0.0000001000
44
0.0000000001
12
-0.3053269071
22
-0.0290181047
32
0.0000000000
13
-0.2701613530
23
-0.0032089430
33
0.0000000000
40
0.0000000000
40
0.0000000000
40
0.0000000000
40
0.0000000000
40
0.3015792526
40
0.9038648410
40
1.0000000000
40
1.0000000000
40
1.0000000000
40
1.0000000000
10
2.7592813802
20
-19.0104407328
30
0.0000000000
10
2.7285879601
20
-19.0133578189
30
0.0000000000
10
2.6677783113
20
-18.9958227236
30
0.0000000000
10
2.5719796217
20
-19.0016519910
30
0.0000000000
10
2.5086652792
20
-19.0027445464
30
0.0000000000
10
2.5000079443
20
-19.0028473772
30
0.0000000000
11
2.7592813802
21
-19.0104407328
31
0.0000000000
11
2.6851391274
21
-19.0041951359
31
0.0000000000
11
2.5261633557
21
-19.0023873370
31
0.0000000000
11
2.5000079443
21
-19.0028473772
31
0.0000000000
0
SPLINE
5
4CB
100
AcDbEntity
8
0
100
AcDbSpline
62
9
6
CONTINUOUS
70
0
71
3
72
12
73
8
74
6
42
0.0000001000
43
0.0000001000
44
0.0000000001
12
0.0000000000
22
0.5000532724
32
0.0000000000
13
0.5000532724
23
0.0000000000
33
0.0000000000
40
0.0000000000
40
0.0000000000
40
0.0000000000
40
0.0000000000
40
0.0490145165
40
0.1910639308
40
0.4122828713
40
0.6910218517
40
1.0000000000
40
1.0000000000
40
1.0000000000
40
1.0000000000
10
-4.9000000000
20
19.0383982183
30
0.0000000000
10
-4.9000000000
20
19.0465681747
30
0.0000000000
10
-4.8487433171
20
19.0301555874
30
0.0000000000
10
-4.7979954048
20
19.0471771170
30
0.0000000000
10
-4.6815801342
20
19.0396384744
30
0.0000000000
10
-4.5504167097
20
19.0434818743
30
0.0000000000
10
-4.4515018447
20
19.0427616522
30
0.0000000000
10
-4.4000000000
20
19.0427616522
30
0.0000000000
11
-4.9000000000
21
19.0383982183
31
0.0000000000
11
-4.8755272497
21
19.0397466206
31
0.0000000000
11
-4.8045053911
21
19.0409630177
31
0.0000000000
11
-4.6938883480
21
19.0419283376
31
0.0000000000
11
-4.5545053866
21
19.0425480993
31
0.0000000000
11
-4.4000000000
21
19.0427616522
31
0.0000000000
0
SPLINE
5
4CC
100
AcDbEntity
8
0
100
AcDbSpline
62
9
6
CONTINUOUS
70
0
71
3
72
10
73
6
74
4
42
0.0000001000
43
0.0000001000
44
0.0000000001
12
-0.3989844365
22
0.5186265651
32
0.0000000000
13
0.0000000000
23
0.6543409620
33
0.0000000000
40
0.0000000000
40
0.0000000000
40
0.0000000000
40
0.0000000000
40
0.3321529204
40
0.6676463281
40
1.0000000000
40
1.0000000000
40
1.0000000000
40
1.0000000000
10
-10.9426253515
20
-17.0730014938
30
0.0000000000
10
-10.9867999668
20
-17.0155803844
30
0.0000000000
10
-11.0632516505
20
-16.8900247994
30
0.0000000000
10
-11.1340229672
20
-16.6820108377
30
0.0000000000
10
-11.1500000000
20
-16.5358351834
30
0.0000000000
10
-11.1500000000
20
-16.4633443096
30
0.0000000000
11
-10.9426253515
21
-17.0730014938
31
0.0000000000
11
-11.0556416356
21
-16.8873552079
31
0.0000000000
11
-11.1263496061
21
-16.6795271025
31
0.0000000000
11
-11.1500000000
21
-16.4633443096
31
0.0000000000
0
SPLINE
5
4CD
100
AcDbEntity
8
0
100
AcDbSpline
62
9
6
CONTINUOUS
70
0
71
3
72
10
73
6
74
4
42
0.0000001000
43
0.0000001000
44
0.0000000001
12
0.0000000000
22
-0.6543408188
32
0.0000000000
13
-0.3989843492
23
-0.5186264515
33
0.0000000000
40
0.0000000000
40
0.0000000000
40
0.0000000000
40
0.0000000000
40
0.3321609113
40
0.6676554779
40
1.0000000000
40
1.0000000000
40
1.0000000000
40
1.0000000000
10
11.1500000000
20
-16.4633444537
30
0.0000000000
10
11.1500000000
20
-16.5357932679
30
0.0000000000
10
11.1340369640
20
-16.6819262551
30
0.0000000000
10
11.0632921632
20
-16.8899491993
30
0.0000000000
10
10.9868254391
20
-17.0155472737
30
0.0000000000
10
10.9426253515
20
-17.0730014938
30
0.0000000000
11
11.1500000000
21
-16.4633444537
31
0.0000000000
11
11.1263770114
21
-16.6794033127
31
0.0000000000
11
11.0556950928
21
-16.8872410299
31
0.0000000000
11
10.9426253515
21
-17.0730014938
31
0.0000000000
0
SPLINE
5
4CE
100
AcDbEntity
8
0
100
AcDbSpline
62
9
6
CONTINUOUS
70
0
71
3
72
10
73
6
74
4
42
0.0000001000
43
0.0000001000
44
0.0000000001
12
0.3989843558
22
-0.5186264602
32
0.0000000000
13
0.0000000000
23
-0.6543408297
33
0.0000000000
40
0.0000000000
40
0.0000000000
40
0.0000000000
40
0.0000000000
40
0.3321529214
40
0.6676463308
40
1.0000000000
40
1.0000000000
40
1.0000000000
40
1.0000000000
10
10.9426253515
20
17.0730014938
30
0.0000000000
10
10.9867999580
20
17.0155803958
30
0.0000000000
10
11.0632516303
20
16.8900248378
30
0.0000000000
10
11.1340229402
20
16.6820109234
30
0.0000000000
10
11.1500000000
20
16.5358353013
30
0.0000000000
10
11.1500000000
20
16.4633444428
30
0.0000000000
11
10.9426253515
21
17.0730014938
31
0.0000000000
11
11.0556416171
21
16.8873552473
31
0.0000000000
11
11.1263495872
21
16.6795271876
31
0.0000000000
11
11.1500000000
21
16.4633444428
31
0.0000000000
0
SPLINE
5
4CF
100
AcDbEntity
8
0
100
AcDbSpline
62
9
6
CONTINUOUS
70
0
71
3
72
10
73
6
74
4
42
0.0000001000
43
0.0000001000
44
0.0000000001
12
0.0000000000
22
0.6543408161
32
0.0000000000
13
0.3989843475
23
0.5186264494
33
0.0000000000
40
0.0000000000
40
0.0000000000
40
0.0000000000
40
0.0000000000
40
0.3321609113
40
0.6676554779
40
1.0000000000
40
1.0000000000
40
1.0000000000
40
1.0000000000
10
-11.1500000000
20
16.4633444564
30
0.0000000000
10
-11.1500000000
20
16.5357932703
30
0.0000000000
10
-11.1340369634
20
16.6819262568
30
0.0000000000
10
-11.0632921628
20
16.8899492001
30
0.0000000000
10
-10.9868254390
20
17.0155472740
30
0.0000000000
10
-10.9426253515
20
17.0730014938
30
0.0000000000
11
-11.1500000000
21
16.4633444564
31
0.0000000000
11
-11.1263770110
21
16.6794033144
31
0.0000000000
11
-11.0556950924
21
16.8872410307
31
0.0000000000
11
-10.9426253515
21
17.0730014938
31
0.0000000000
0
SPLINE
5
4D0
100
AcDbEntity
8
0
100
AcDbSpline
62
9
6
CONTINUOUS
70
0
71
3
72
12
73
8
74
6
42
0.0000001000
43
0.0000001000
44
0.0000000001
12
0.2299709871
22
0.2680779442
32
0.0000000000
13
0.2162940880
23
-0.2821114197
33
0.0000000000
40
0.0000000000
40
0.0000000000
40
0.0000000000
40
0.0000000000
40
0.2285255935
40
0.4559500287
40
0.6834669303
40
0.9109769056
40
1.0000000000
40
1.0000000000
40
1.0000000000
40
1.0000000000
10
-10.0017445950
20
18.2308351884
30
0.0000000000
10
-9.9842265096
20
18.2512560788
30
0.0000000000
10
-9.9404318363
20
18.2852430304
30
0.0000000000
10
-9.8604634945
20
18.3059328463
30
0.0000000000
10
-9.7788065597
20
18.2935549720
30
0.0000000000
10
-9.7228953483
20
18.2587860835
30
0.0000000000
10
-9.6977321670
20
18.2308285715
30
0.0000000000
10
-9.6913137774
20
18.2224570944
30
0.0000000000
11
-10.0017445950
21
18.2308351884
31
0.0000000000
11
-9.9379261963
21
18.2802545848
31
0.0000000000
11
-9.8601732158
21
18.3004264446
31
0.0000000000
11
-9.7807264436
21
18.2883480253
31
0.0000000000
11
-9.7124688394
21
18.2459430241
31
0.0000000000
11
-9.6913137774
21
18.2224570944
31
0.0000000000
0
SPLINE
5
4D1
100
AcDbEntity
8
0
100
AcDbSpline
62
9
6
CONTINUOUS
70
0
71
3
72
12
73
8
74
6
42
0.0000001000
43
0.0000001000
44
0.0000000001
12
-0.2162940782
22
-0.2821114428
32
0.0000000000
13
-0.2299709951
23
0.2680779535
33
0.0000000000
40
0.0000000000
40
0.0000000000
40
0.0000000000
40
0.0000000000
40
0.0890231260
40
0.3165330934
40
0.5440499871
40
0.7714744145
40
1.0000000000
40
1.0000000000
40
1.0000000000
40
1.0000000000
10
-9.6913137699
20
-18.2224570846
30
0.0000000000
10
-9.6977321615
20
-18.2308285654
30
0.0000000000
10
-9.7228953447
20
-18.2587860813
30
0.0000000000
10
-9.7788065597
20
-18.2935549720
30
0.0000000000
10
-9.8604634945
20
-18.3059328463
30
0.0000000000
10
-9.9404318363
20
-18.2852430304
30
0.0000000000
10
-9.9842265096
20
-18.2512560788
30
0.0000000000
10
-10.0017445950
20
-18.2308351884
30
0.0000000000
11
-9.6913137699
21
-18.2224570846
31
0.0000000000
11
-9.7124688394
21
-18.2459430241
31
0.0000000000
11
-9.7807264436
21
-18.2883480253
31
0.0000000000
11
-9.8601732158
21
-18.3004264446
31
0.0000000000
11
-9.9379261963
21
-18.2802545848
31
0.0000000000
11
-10.0017445950
21
-18.2308351884
31
0.0000000000
0
SPLINE
5
4D2
100
AcDbEntity
8
0
100
AcDbSpline
62
9
6
CONTINUOUS
70
0
71
3
72
12
73
8
74
6
42
0.0000001000
43
0.0000001000
44
0.0000000001
12
-0.2299709871
22
-0.2680779442
32
0.0000000000
13
-0.2162940880
23
0.2821114197
33
0.0000000000
40
0.0000000000
40
0.0000000000
40
0.0000000000
40
0.0000000000
40
0.2285255935
40
0.4559500287
40
0.6834669303
40
0.9109769056
40
1.0000000000
40
1.0000000000
40
1.0000000000
40
1.0000000000
10
10.0017445950
20
-18.2308351884
30
0.0000000000
10
9.9842265096
20
-18.2512560788
30
0.0000000000
10
9.9404318363
20
-18.2852430304
30
0.0000000000
10
9.8604634945
20
-18.3059328463
30
0.0000000000
10
9.7788065597
20
-18.2935549720
30
0.0000000000
10
9.7228953483
20
-18.2587860835
30
0.0000000000
10
9.6977321670
20
-18.2308285715
30
0.0000000000
10
9.6913137774
20
-18.2224570944
30
0.0000000000
11
10.0017445950
21
-18.2308351884
31
0.0000000000
11
9.9379261963
21
-18.2802545848
31
0.0000000000
11
9.8601732158
21
-18.3004264446
31
0.0000000000
11
9.7807264436
21
-18.2883480253
31
0.0000000000
11
9.7124688394
21
-18.2459430241
31
0.0000000000
11
9.6913137774
21
-18.2224570944
31
0.0000000000
0
SPLINE
5
4D3
100
AcDbEntity
8
0
100
AcDbSpline
62
9
6
CONTINUOUS
70
0
71
3
72
12
73
8
74
6
42
0.0000001000
43
0.0000001000
44
0.0000000001
12
0.2162940782
22
0.2821114428
32
0.0000000000
13
0.2299709951
23
-0.2680779535
33
0.0000000000
40
0.0000000000
40
0.0000000000
40
0.0000000000
40
0.0000000000
40
0.0890231260
40
0.3165330934
40
0.5440499871
40
0.7714744145
40
1.0000000000
40
1.0000000000
40
1.0000000000
40
1.0000000000
10
9.6913137699
20
18.2224570846
30
0.0000000000
10
9.6977321615
20
18.2308285654
30
0.0000000000
10
9.7228953447
20
18.2587860813
30
0.0000000000
10
9.7788065597
20
18.2935549720
30
0.0000000000
10
9.8604634945
20
18.3059328463
30
0.0000000000
10
9.9404318363
20
18.2852430304
30
0.0000000000
10
9.9842265096
20
18.2512560788
30
0.0000000000
10
10.0017445950
20
18.2308351884
30
0.0000000000
11
9.6913137699
21
18.2224570846
31
0.0000000000
11
9.7124688394
21
18.2459430241
31
0.0000000000
11
9.7807264436
21
18.2883480253
31
0.0000000000
11
9.8601732158
21
18.3004264446
31
0.0000000000
11
9.9379261963
21
18.2802545848
31
0.0000000000
11
10.0017445950
21
18.2308351884
31
0.0000000000
0
SPLINE
5
4D4
100
AcDbEntity
8
0
100
AcDbSpline
62
9
6
CONTINUOUS
70
0
71
3
72
12
73
8
74
6
42
0.0000001000
43
0.0000001000
44
0.0000000001
12
0.5000532724
22
0.0000000000
32
0.0000000000
13
0.0000000000
23
-0.5000532724
33
0.0000000000
40
0.0000000000
40
0.0000000000
40
0.0000000000
40
0.0000000000
40
0.3089781623
40
0.5877171349
40
0.8089360647
40
0.9509854790
40
1.0000000000
40
1.0000000000
40
1.0000000000
40
1.0000000000
10
4.4000000000
20
19.0427616522
30
0.0000000000
10
4.4515018470
20
19.0427616522
30
0.0000000000
10
4.5504167130
20
19.0434818743
30
0.0000000000
10
4.6815801370
20
19.0396384745
30
0.0000000000
10
4.7979954039
20
19.0471771166
30
0.0000000000
10
4.8487433156
20
19.0301555873
30
0.0000000000
10
4.9000000000
20
19.0465681755
30
0.0000000000
10
4.9000000000
20
19.0383982183
30
0.0000000000
11
4.4000000000
21
19.0427616522
31
0.0000000000
11
4.5545053935
21
19.0425480993
31
0.0000000000
11
4.6938883511
21
19.0419283376
31
0.0000000000
11
4.8045053889
21
19.0409630177
31
0.0000000000
11
4.8755272474
21
19.0397466207
31
0.0000000000
11
4.9000000000
21
19.0383982183
31
0.0000000000
0
SPLINE
5
4D5
100
AcDbEntity
8
0
100
AcDbSpline
62
9
6
CONTINUOUS
70
0
71
3
72
10
73
6
74
4
42
0.0000001000
43
0.0000001000
44
0.0000000001
12
0.0000005981
22
0.2140435308
32
0.0000000000
13
0.1193817158
23
0.1785787178
33
0.0000000000
40
0.0000000000
40
0.0000000000
40
0.0000000000
40
0.0000000000
40
0.3830639751
40
0.8561114031
40
1.0000000000
40
1.0000000000
40
1.0000000000
40
1.0000000000
10
-5.1055073036
20
15.4085087825
30
0.0000000000
10
-5.1055072272
20
15.4358395711
30
0.0000000000
10
-5.0990522491
20
15.4969150307
30
0.0000000000
10
-5.0768451233
20
15.5658365133
30
0.0000000000
10
-5.0541580755
20
15.6037551018
30
0.0000000000
10
-5.0484321863
20
15.6123202488
30
0.0000000000
11
-5.1055073036
21
15.4085087825
31
0.0000000000
11
-5.0972167390
21
15.4900809317
31
0.0000000000
11
-5.0642518752
21
15.5858172128
31
0.0000000000
11
-5.0484321863
21
15.6123202488
31
0.0000000000
0
SPLINE
5
4D6
100
AcDbEntity
8
0
100
AcDbSpline
62
9
6
CONTINUOUS
70
0
71
3
72
12
73
8
74
6
42
0.0000001000
43
0.0000001000
44
0.0000000001
12
0.2146345747
22
0.3210639659
32
0.0000000000
13
0.3833593784
23
0.0341891019
33
0.0000000000
40
0.0000000000
40
0.0000000000
40
0.0000000000
40
0.0000000000
40
0.1757999911
40
0.3761889594
40
0.6733510904
40
0.9300282620
40
1.0000000000
40
1.0000000000
40
1.0000000000
40
1.0000000000
10
-5.0484321863
20
15.6123202488
30
0.0000000000
10
-5.0358546008
20
15.6311345963
30
0.0000000000
10
-5.0044532540
20
15.6685178117
30
0.0000000000
10
-4.9357763113
20
15.7219501348
30
0.0000000000
10
-4.8447476159
20
15.7587480311
30
0.0000000000
10
-4.7657999457
20
15.7731007359
30
0.0000000000
10
-4.7241122228
20
15.7774064951
30
0.0000000000
10
-4.7151707822
20
15.7782039187
30
0.0000000000
11
-5.0484321863
21
15.6123202488
31
0.0000000000
11
-5.0049842084
21
15.6644295302
31
0.0000000000
11
-4.9441373865
21
15.7118041848
31
0.0000000000
11
-4.8389261745
21
15.7566127122
31
0.0000000000
11
-4.7419561784
21
15.7754145282
31
0.0000000000
11
-4.7151707822
21
15.7782039187
31
0.0000000000
0
SPLINE
5
4D7
100
AcDbEntity
8
0
100
AcDbSpline
62
9
6
CONTINUOUS
70
0
71
3
72
9
73
5
74
3
42
0.0000001000
43
0.0000001000
44
0.0000000001
12
0.0899401141
22
0.0080211204
32
0.0000000000
13
0.0902841087
23
0.0000000000
33
0.0000000000
40
0.0000000000
40
0.0000000000
40
0.0000000000
40
0.0000000000
40
0.5046038410
40
1.0000000000
40
1.0000000000
40
1.0000000000
40
1.0000000000
10
-4.7151707822
20
15.7782039187
30
0.0000000000
10
-4.7000427398
20
15.7795530815
30
0.0000000000
10
-4.6699975865
20
15.7815181569
30
0.0000000000
10
-4.6399088002
20
15.7825043841
30
0.0000000000
10
-4.6250000000
20
15.7825043841
30
0.0000000000
11
-4.7151707822
21
15.7782039187
31
0.0000000000
11
-4.6697098302
21
15.7812870114
31
0.0000000000
11
-4.6250000000
21
15.7825043841
31
0.0000000000
0
SPLINE
5
4D8
100
AcDbEntity
8
0
100
AcDbSpline
62
9
6
CONTINUOUS
70
0
71
3
72
9
73
5
74
3
42
0.0000001000
43
0.0000001000
44
0.0000000001
12
0.0901447438
22
0.0000000000
32
0.0000000000
13
0.0898024723
23
-0.0079957583
33
0.0000000000
40
0.0000000000
40
0.0000000000
40
0.0000000000
40
0.0000000000
40
0.4961620475
40
1.0000000000
40
1.0000000000
40
1.0000000000
40
1.0000000000
10
-4.6250000000
20
15.7825043841
30
0.0000000000
10
-4.6100911998
20
15.7825043841
30
0.0000000000
10
-4.5800488593
20
15.7815196793
30
0.0000000000
10
-4.5500500172
20
15.7795591458
30
0.0000000000
10
-4.5349680526
20
15.7782162903
30
0.0000000000
11
-4.6250000000
21
15.7825043841
31
0.0000000000
11
-4.5802901698
21
15.7812870114
31
0.0000000000
11
-4.5349680526
21
15.7782162903
31
0.0000000000
0
SPLINE
5
4D9
100
AcDbEntity
8
0
100
AcDbSpline
62
9
6
CONTINUOUS
70
0
71
3
72
9
73
5
74
3
42
0.0000001000
43
0.0000001000
44
0.0000000001
12
0.0826995973
22
-0.0073633384
32
0.0000000000
13
0.0814402636
23
-0.0164313069
33
0.0000000000
40
0.0000000000
40
0.0000000000
40
0.0000000000
40
0.0000000000
40
0.3260416577
40
1.0000000000
40
1.0000000000
40
1.0000000000
40
1.0000000000
10
-4.5349680526
20
15.7782162903
30
0.0000000000
10
-4.5259802147
20
15.7774160386
30
0.0000000000
10
-4.4984491811
20
15.7745748441
30
0.0000000000
10
-4.4710699259
20
15.7703337397
30
0.0000000000
10
-4.4527741442
20
15.7666424010
30
0.0000000000
11
-4.5349680526
21
15.7782162903
31
0.0000000000
11
-4.5080438216
21
15.7754145282
31
0.0000000000
11
-4.4527741442
21
15.7666424010
31
0.0000000000
0
SPLINE
5
4DA
100
AcDbEntity
8
0
100
AcDbSpline
62
9
6
CONTINUOUS
70
0
71
3
72
13
73
9
74
7
42
0.0000001000
43
0.0000001000
44
0.0000000001
12
0.4317372701
22
-0.0871068837
32
0.0000000000
13
0.0809479226
23
-0.4343170348
33
0.0000000000
40
0.0000000000
40
0.0000000000
40
0.0000000000
40
0.0000000000
40
0.0973164349
40
0.3571657381
40
0.5323930917
40
0.7561019631
40
0.9861777481
40
1.0000000000
40
1.0000000000
40
1.0000000000
40
1.0000000000
10
-4.4527741442
20
15.7666424010
30
0.0000000000
10
-4.4387691002
20
15.7638167572
30
0.0000000000
10
-4.3877054962
20
15.7516547892
30
0.0000000000
10
-4.3142236887
20
15.7219501348
30
0.0000000000
10
-4.2373840448
20
15.6621670327
30
0.0000000000
10
-4.1801738416
20
15.5876203978
30
0.0000000000
10
-4.1588233910
20
15.5213576711
30
0.0000000000
10
-4.1519955225
20
15.4860852822
30
0.0000000000
10
-4.1516225616
20
15.4840842023
30
0.0000000000
11
-4.4527741442
21
15.7666424010
31
0.0000000000
11
-4.4110738255
21
15.7566127122
31
0.0000000000
11
-4.3058626135
21
15.7118041848
31
0.0000000000
11
-4.2450157916
21
15.6644295302
31
0.0000000000
11
-4.1857481248
21
15.5858172128
31
0.0000000000
11
-4.1527832610
21
15.4900809317
31
0.0000000000
11
-4.1516225616
21
15.4840842023
31
0.0000000000
0
SPLINE
5
4DB
100
AcDbEntity
8
0
100
AcDbSpline
62
9
6
CONTINUOUS
70
0
71
3
72
8
73
4
74
2
42
0.0000001000
43
0.0000001000
44
0.0000000001
12
0.0139625727
22
-0.0749146240
32
0.0000000000
13
0.0000002119
23
-0.0759094107
33
0.0000000000
40
0.0000000000
40
0.0000000000
40
0.0000000000
40
0.0000000000
40
1.0000000000
40
1.0000000000
40
1.0000000000
40
1.0000000000
10
-4.1516225616
20
15.4840842023
30
0.0000000000
10
-4.1469683707
20
15.4591126610
30
0.0000000000
10
-4.1444927670
20
15.4338119183
30
0.0000000000
10
-4.1444926964
20
15.4085087814
30
0.0000000000
11
-4.1516225616
21
15.4840842023
31
0.0000000000
11
-4.1444926964
21
15.4085087814
31
0.0000000000
0
SPLINE
5
4DC
100
AcDbEntity
8
0
100
AcDbSpline
62
9
6
CONTINUOUS
70
0
71
3
72
10
73
6
74
4
42
0.0000001000
43
0.0000001000
44
0.0000000001
12
-0.2251549511
22
0.0000000000
32
0.0000000000
13
-0.2175233503
23
-0.0587071037
33
0.0000000000
40
0.0000000000
40
0.0000000000
40
0.0000000000
40
0.0000000000
40
0.4668878278
40
0.8372955451
40
1.0000000000
40
1.0000000000
40
1.0000000000
40
1.0000000000
10
-4.6250000000
20
15.9562437428
30
0.0000000000
10
-4.6600407020
20
15.9562437428
30
0.0000000000
10
-4.7229876688
20
15.9553513783
30
0.0000000000
10
-4.7974837416
20
15.9445887559
30
0.0000000000
10
-4.8364055570
20
15.9351865771
30
0.0000000000
10
-4.8482028964
20
15.9320026080
30
0.0000000000
11
-4.6250000000
21
15.9562437428
31
0.0000000000
11
-4.7300631662
21
15.9527240426
31
0.0000000000
11
-4.8125740229
21
15.9405842874
31
0.0000000000
11
-4.8482028964
21
15.9320026080
31
0.0000000000
0
SPLINE
5
4DD
100
AcDbEntity
8
0
100
AcDbSpline
62
9
6
CONTINUOUS
70
0
71
3
72
11
73
7
74
5
42
0.0000001000
43
0.0000001000
44
0.0000000001
12
-0.3797510599
22
-0.1024905364
32
0.0000000000
13
-0.2133147522
23
-0.3311165831
33
0.0000000000
40
0.0000000000
40
0.0000000000
40
0.0000000000
40
0.0000000000
40
0.2048794515
40
0.4867413508
40
0.8429998663
40
1.0000000000
40
1.0000000000
40
1.0000000000
40
1.0000000000
10
-4.8482028964
20
15.9320026080
30
0.0000000000
10
-4.8741372927
20
15.9250032064
30
0.0000000000
10
-4.9348151205
20
15.9047641938
30
0.0000000000
10
-5.0352613730
20
15.8576488068
30
0.0000000000
10
-5.1164807843
20
15.7893659563
30
0.0000000000
10
-5.1567389287
20
15.7351525749
30
0.0000000000
10
-5.1679024102
20
15.7178241256
30
0.0000000000
11
-4.8482028964
21
15.9320026080
31
0.0000000000
11
-4.9247433873
21
15.9067311488
31
0.0000000000
11
-5.0242795105
21
15.8580734307
31
0.0000000000
11
-5.1309711804
21
15.7673707067
31
0.0000000000
11
-5.1679024102
21
15.7178241256
31
0.0000000000
0
SPLINE
5
4DE
100
AcDbEntity
8
0
100
AcDbSpline
62
9
6
CONTINUOUS
70
0
71
3
72
10
73
6
74
4
42
0.0000001000
43
0.0000001000
44
0.0000000001
12
-0.1635975766
22
-0.2539433865
32
0.0000000000
13
0.0000000000
23
-0.3014606197
33
0.0000000000
40
0.0000000000
40
0.0000000000
40
0.0000000000
40
0.0000000000
40
0.1397584814
40
0.6150389984
40
1.0000000000
40
1.0000000000
40
1.0000000000
40
1.0000000000
10
-5.1679024102
20
15.7178241256
30
0.0000000000
10
-5.1755237932
20
15.7059938783
30
0.0000000000
10
-5.2067024954
20
15.6524037304
30
0.0000000000
10
-5.2403798946
20
15.5563707650
30
0.0000000000
10
-5.2500000000
20
15.4697928839
30
0.0000000000
10
-5.2500000000
20
15.4311093565
30
0.0000000000
11
-5.1679024102
21
15.7178241256
31
0.0000000000
11
-5.1891531780
21
15.6813560995
31
0.0000000000
11
-5.2375148046
21
15.5464863798
31
0.0000000000
11
-5.2500000000
21
15.4311093565
31
0.0000000000
0
SPLINE
5
4DF
100
AcDbEntity
8
0
100
AcDbSpline
62
9
6
CONTINUOUS
70
0
71
3
72
9
73
5
74
3
42
0.0000001000
43
0.0000001000
44
0.0000000001
12
-0.0000000000
22
0.2072757188
32
0.0000000000
13
-0.0770789926
23
0.1930310822
33
0.0000000000
40
0.0000000000
40
0.0000000000
40
0.0000000000
40
0.0000000000
40
0.5598850786
40
1.0000000000
40
1.0000000000
40
1.0000000000
40
1.0000000000
10
-4.0000000000
20
15.4311093565
30
0.0000000000
10
-4.0000000000
20
15.4697928839
30
0.0000000000
10
-4.0076891312
20
15.5389926132
30
0.0000000000
10
-4.0277402737
20
15.6056584715
30
0.0000000000
10
-4.0390481453
20
15.6339770913
30
0.0000000000
11
-4.0000000000
21
15.4311093565
31
0.0000000000
11
-4.0124851954
21
15.5464863798
31
0.0000000000
11
-4.0390481453
21
15.6339770913
31
0.0000000000
0
SPLINE
5
4E0
100
AcDbEntity
8
0
100
AcDbSpline
62
9
6
CONTINUOUS
70
0
71
3
72
9
73
5
74
3
42
0.0000001000
43
0.0000001000
44
0.0000000001
12
-0.0350360580
22
0.0877417822
32
0.0000000000
13
-0.0511352024
23
0.0793623904
33
0.0000000000
40
0.0000000000
40
0.0000000000
40
0.0000000000
40
0.0000000000
40
0.5524843556
40
1.0000000000
40
1.0000000000
40
1.0000000000
40
1.0000000000
10
-4.0390481453
20
15.6339770913
30
0.0000000000
10
-4.0455004366
20
15.6501357453
30
0.0000000000
10
-4.0586424254
20
15.6787807167
30
0.0000000000
10
-4.0744868834
20
15.7060122285
30
0.0000000000
10
-4.0821148178
20
15.7178508656
30
0.0000000000
11
-4.0390481453
21
15.6339770913
31
0.0000000000
11
-4.0608468220
21
15.6813560995
31
0.0000000000
11
-4.0821148178
21
15.7178508656
31
0.0000000000
0
SPLINE
5
4E1
100
AcDbEntity
8
0
100
AcDbSpline
62
9
6
CONTINUOUS
70
0
71
3
72
12
73
8
74
6
42
0.0000001000
43
0.0000001000
44
0.0000000001
12
-0.2720079732
22
0.4221593333
32
0.0000000000
13
-0.4988069489
23
0.0514653390
33
0.0000000000
40
0.0000000000
40
0.0000000000
40
0.0000000000
40
0.0000000000
40
0.1230727459
40
0.4024882982
40
0.6235541671
40
0.8573379408
40
1.0000000000
40
1.0000000000
40
1.0000000000
40
1.0000000000
10
-4.0821148178
20
15.7178508656
30
0.0000000000
10
-4.0932737405
20
15.7351696351
30
0.0000000000
10
-4.1335274650
20
15.7893728917
30
0.0000000000
10
-4.2147386270
20
15.8576488068
30
0.0000000000
10
-4.3262897262
20
15.9099730407
30
0.0000000000
10
-4.4220645910
20
15.9395632889
30
0.0000000000
10
-4.4843638844
20
15.9491527111
30
0.0000000000
10
-4.5080841599
20
15.9516000948
30
0.0000000000
11
-4.0821148178
21
15.7178508656
31
0.0000000000
11
-4.1190288196
21
15.7673707067
31
0.0000000000
11
-4.2257204895
21
15.8580734307
31
0.0000000000
11
-4.3252566127
21
15.9067311488
31
0.0000000000
11
-4.4374259771
21
15.9405842874
31
0.0000000000
11
-4.5080841599
21
15.9516000948
31
0.0000000000
0
SPLINE
5
4E2
100
AcDbEntity
8
0
100
AcDbSpline
62
9
6
CONTINUOUS
70
0
71
3
72
9
73
5
74
3
42
0.0000001000
43
0.0000001000
44
0.0000000001
12
-0.1164696951
22
0.0120169784
32
0.0000000000
13
-0.1170225978
23
-0.0000000000
33
0.0000000000
40
0.0000000000
40
0.0000000000
40
0.0000000000
40
0.0000000000
40
0.1016939629
40
1.0000000000
40
1.0000000000
40
1.0000000000
40
1.0000000000
10
-4.5080841599
20
15.9516000948
30
0.0000000000
10
-4.5120322482
20
15.9520074462
30
0.0000000000
10
-4.5508856230
20
15.9556898168
30
0.0000000000
10
-4.5899592980
20
15.9562437428
30
0.0000000000
10
-4.6250000000
20
15.9562437428
30
0.0000000000
11
-4.5080841599
21
15.9516000948
31
0.0000000000
11
-4.5199368338
21
15.9527240426
31
0.0000000000
11
-4.6250000000
21
15.9562437428
31
0.0000000000
0
SPLINE
5
4E3
100
AcDbEntity
8
0
100
AcDbSpline
62
9
6
CONTINUOUS
70
0
71
3
72
11
73
7
74
5
42
0.0000001000
43
0.0000001000
44
0.0000000001
12
0.0000010014
22
0.2126585736
32
0.0000000000
13
0.1553033915
23
0.1465077637
33
0.0000000000
40
0.0000000000
40
0.0000000000
40
0.0000000000
40
0.0000000000
40
0.2372884822
40
0.6005787688
40
0.9282556867
40
1.0000000000
40
1.0000000000
40
1.0000000000
40
1.0000000000
10
-5.1055073036
20
11.8657737520
30
0.0000000000
10
-5.1055072244
20
11.8825942287
30
0.0000000000
10
-5.1028996165
20
11.9251027776
30
0.0000000000
10
-5.0914210694
20
11.9905295521
30
0.0000000000
10
-5.0643271446
20
12.0389762656
30
0.0000000000
10
-5.0445442394
20
12.0594169203
30
0.0000000000
10
-5.0408301944
20
12.0629206199
30
0.0000000000
11
-5.1055073036
21
11.8657737520
31
0.0000000000
11
-5.1026944335
21
11.9161567311
31
0.0000000000
11
-5.0865574418
21
11.9917094355
31
0.0000000000
11
-5.0514705882
21
12.0519147256
31
0.0000000000
11
-5.0408301944
21
12.0629206199
31
0.0000000000
0
SPLINE
5
4E4
100
AcDbEntity
8
0
100
AcDbSpline
62
9
6
CONTINUOUS
70
0
71
3
72
10
73
6
74
4
42
0.0000001000
43
0.0000001000
44
0.0000000001
12
0.0867467845
22
0.0818338691
32
0.0000000000
13
0.1184435138
23
0.0129223955
33
0.0000000000
40
0.0000000000
40
0.0000000000
40
0.0000000000
40
0.0000000000
40
0.3374983027
40
0.7168056457
40
1.0000000000
40
1.0000000000
40
1.0000000000
40
1.0000000000
10
-5.0408301944
20
12.0629206199
30
0.0000000000
10
-5.0310712302
20
12.0721268839
30
0.0000000000
10
-5.0079889980
20
12.0892183636
30
0.0000000000
10
-4.9710761757
20
12.1047644268
30
0.0000000000
10
-4.9451166754
20
12.1091586861
30
0.0000000000
10
-4.9339358306
20
12.1103785360
30
0.0000000000
11
-5.0408301944
21
12.0629206199
31
0.0000000000
11
-5.0085866561
21
12.0869028820
31
0.0000000000
11
-4.9670351362
21
12.1043229372
31
0.0000000000
11
-4.9339358306
21
12.1103785360
31
0.0000000000
0
SPLINE
5
4E5
100
AcDbEntity
8
0
100
AcDbSpline
62
9
6
CONTINUOUS
70
0
71
3
72
9
73
5
74
3
42
0.0000001000
43
0.0000001000
44
0.0000000001
12
0.0450561046
22
0.0049157002
32
0.0000000000
13
0.0451853604
23
0.0000000000
33
0.0000000000
40
0.0000000000
40
0.0000000000
40
0.0000000000
40
0.0000000000
40
0.4133117878
40
1.0000000000
40
1.0000000000
40
1.0000000000
40
1.0000000000
10
-4.9339358306
20
12.1103785360
30
0.0000000000
10
-4.9277284242
20
12.1110557749
30
0.0000000000
10
-4.9126469732
20
12.1122032432
30
0.0000000000
10
-4.8976048318
20
12.1125836972
30
0.0000000000
10
-4.8887682590
20
12.1125836972
30
0.0000000000
11
-4.9339358306
21
12.1103785360
31
0.0000000000
11
-4.9152684564
21
12.1118732728
31
0.0000000000
11
-4.8887682590
21
12.1125836972
31
0.0000000000
0
SPLINE
5
4E6
100
AcDbEntity
8
0
100
AcDbSpline
62
9
6
CONTINUOUS
70
0
71
3
72
14
73
10
74
8
42
0.0000001000
43
0.0000001000
44
0.0000000001
12
0.3293337848
22
0.0000000000
32
0.0000000000
13
0.0330298843
23
-0.3283622869
33
0.0000000000
40
0.0000000000
40
0.0000000000
40
0.0000000000
40
0.0000000000
40
0.0804949857
40
0.2393441682
40
0.3761518102
40
0.5442068666
40
0.7557955867
40
0.9903806997
40
1.0000000000
40
1.0000000000
40
1.0000000000
40
1.0000000000
10
-4.8887682590
20
12.1125836972
30
0.0000000000
10
-4.8799316862
20
12.1125836972
30
0.0000000000
10
-4.8536912498
20
12.1119200100
30
0.0000000000
10
-4.8122639413
20
12.1072086484
30
0.0000000000
10
-4.7648062762
20
12.0872215594
30
0.0000000000
10
-4.7199059934
20
12.0509505083
30
0.0000000000
10
-4.6861154485
20
11.9905295521
30
0.0000000000
10
-4.6773869325
20
11.9407777280
30
0.0000000000
10
-4.6746212360
20
11.9140513142
30
0.0000000000
10
-4.6745153279
20
11.9129984424
30
0.0000000000
11
-4.8887682590
21
12.1125836972
31
0.0000000000
11
-4.8622680616
21
12.1118732728
31
0.0000000000
11
-4.8105013818
21
12.1043229372
31
0.0000000000
11
-4.7689498618
21
12.0869028820
31
0.0000000000
11
-4.7260659297
21
12.0519147256
31
0.0000000000
11
-4.6909790762
21
11.9917094355
31
0.0000000000
11
-4.6748420845
21
11.9161567311
31
0.0000000000
11
-4.6745153279
21
11.9129984424
31
0.0000000000
0
SPLINE
5
4E7
100
AcDbEntity
8
0
100
AcDbSpline
62
9
6
CONTINUOUS
70
0
71
3
72
8
73
4
74
2
42
0.0000001000
43
0.0000001000
44
0.0000000001
12
0.0047435379
22
-0.0471572634
32
0.0000000000
13
-0.0000001571
23
-0.0472967875
33
0.0000000000
40
0.0000000000
40
0.0000000000
40
0.0000000000
40
0.0000000000
40
1.0000000000
40
1.0000000000
40
1.0000000000
40
1.0000000000
10
-4.6745153279
20
11.9129984424
30
0.0000000000
10
-4.6729341486
20
11.8972793546
30
0.0000000000
10
-4.6720291620
20
11.8815360396
30
0.0000000000
10
-4.6720292144
20
11.8657704437
30
0.0000000000
11
-4.6745153279
21
11.9129984424
31
0.0000000000
11
-4.6720292144
21
11.8657704437
31
0.0000000000
0
SPLINE
5
4E8
100
AcDbEntity
8
0
100
AcDbSpline
62
9
6
CONTINUOUS
70
0
71
3
72
8
73
4
74
2
42
0.0000001000
43
0.0000001000
44
0.0000000001
12
-0.0705279078
22
0.0016726402
32
0.0000000000
13
-0.0698931726
23
-0.0109090075
33
0.0000000000
40
0.0000000000
40
0.0000000000
40
0.0000000000
40
0.0000000000
40
1.0000000000
40
1.0000000000
40
1.0000000000
40
1.0000000000
10
-4.8887682590
20
12.2865596597
30
0.0000000000
10
-4.9122775616
20
12.2871172064
30
0.0000000000
10
-4.9358910397
20
12.2855863669
30
0.0000000000
10
-4.9591887639
20
12.2819500311
30
0.0000000000
11
-4.8887682590
21
12.2865596597
31
0.0000000000
11
-4.9591887639
21
12.2819500311
31
0.0000000000
0
SPLINE
5
4E9
100
AcDbEntity
8
0
100
AcDbSpline
62
9
6
CONTINUOUS
70
0
71
3
72
10
73
6
74
4
42
0.0000001000
43
0.0000001000
44
0.0000000001
12
-0.1251038962
22
-0.0195263613
32
0.0000000000
13
-0.1111503677
23
-0.0604140810
33
0.0000000000
40
0.0000000000
40
0.0000000000
40
0.0000000000
40
0.0000000000
40
0.0953016349
40
0.8247571777
40
1.0000000000
40
1.0000000000
40
1.0000000000
40
1.0000000000
10
-4.9591887639
20
12.2819500311
30
0.0000000000
10
-4.9631629659
20
12.2813297330
30
0.0000000000
10
-4.9974768966
20
12.2754313478
30
0.0000000000
10
-5.0380581551
20
12.2627084129
30
0.0000000000
10
-5.0721940597
20
12.2456083539
30
0.0000000000
10
-5.0786868277
20
12.2420793092
30
0.0000000000
11
-4.9591887639
21
12.2819500311
31
0.0000000000
11
-4.9710817213
21
12.2799052507
31
0.0000000000
11
-5.0588728780
21
12.2520232925
31
0.0000000000
11
-5.0786868277
21
12.2420793092
31
0.0000000000
0
SPLINE
5
4EA
100
AcDbEntity
8
0
100
AcDbSpline
62
9
6
CONTINUOUS
70
0
71
3
72
12
73
8
74
6
42
0.0000001000
43
0.0000001000
44
0.0000000001
12
-0.2761654115
22
-0.1501054822
32
0.0000000000
13
-0.0488106051
23
-0.3105580572
33
0.0000000000
40
0.0000000000
40
0.0000000000
40
0.0000000000
40
0.0000000000
40
0.1427888207
40
0.4275241215
40
0.6498516624
40
0.9676595461
40
1.0000000000
40
1.0000000000
40
1.0000000000
40
1.0000000000
10
-5.0786868277
20
12.2420793092
30
0.0000000000
10
-5.0918312722
20
12.2349348476
30
0.0000000000
10
-5.1297211276
20
12.2108842769
30
0.0000000000
10
-5.1780727861
20
12.1614340353
30
0.0000000000
10
-5.2204642401
20
12.0856645119
30
0.0000000000
10
-5.2375196740
20
12.0276363883
30
0.0000000000
10
-5.2436121017
20
11.9914453503
30
0.0000000000
10
-5.2441382874
20
11.9880974874
30
0.0000000000
11
-5.0786868277
21
12.2420793092
31
0.0000000000
11
-5.1164626925
21
12.2179234110
31
0.0000000000
11
-5.1790367154
21
12.1541650217
31
0.0000000000
11
-5.2135807343
21
12.0935649428
31
0.0000000000
11
-5.2424496644
21
11.9981247533
31
0.0000000000
11
-5.2441382874
21
11.9880974874
31
0.0000000000
0
SPLINE
5
4EB
100
AcDbEntity
8
0
100
AcDbSpline
62
9
6
CONTINUOUS
70
0
71
3
72
8
73
4
74
2
42
0.0000001000
43
0.0000001000
44
0.0000000001
12
-0.0112198650
22
-0.0713865248
32
0.0000000000
13
-0.0006808780
23
-0.0721160025
33
0.0000000000
40
0.0000000000
40
0.0000000000
40
0.0000000000
40
0.0000000000
40
1.0000000000
40
1.0000000000
40
1.0000000000
40
1.0000000000
10
-5.2441382874
20
11.9880974874
30
0.0000000000
10
-5.2478782424
20
11.9643019791
30
0.0000000000
10
-5.2497730407
20
11.9402447473
30
0.0000000000
10
-5.2500000000
20
11.9162060797
30
0.0000000000
11
-5.2441382874
21
11.9880974874
31
0.0000000000
11
-5.2500000000
21
11.9162060797
31
0.0000000000
0
SPLINE
5
4EC
100
AcDbEntity
8
0
100
AcDbSpline
62
9
6
CONTINUOUS
70
0
71
3
72
9
73
5
74
3
42
0.0000001000
43
0.0000001000
44
0.0000000001
12
-0.0013083333
22
0.1385141965
32
0.0000000000
13
-0.0419891685
23
0.1323547080
33
0.0000000000
40
0.0000000000
40
0.0000000000
40
0.0000000000
40
0.0000000000
40
0.5938750134
40
1.0000000000
40
1.0000000000
40
1.0000000000
40
1.0000000000
10
-4.5275365379
20
11.9162081867
30
0.0000000000
10
-4.5277955333
20
11.9436282268
30
0.0000000000
10
-4.5318857050
20
11.9898402802
30
0.0000000000
10
-4.5428749544
20
12.0349413185
30
0.0000000000
10
-4.5485592379
20
12.0528588365
30
0.0000000000
11
-4.5275365379
21
11.9162081867
31
0.0000000000
11
-4.5350868535
21
11.9981247533
31
0.0000000000
11
-4.5485592379
21
12.0528588365
31
0.0000000000
0
SPLINE
5
4ED
100
AcDbEntity
8
0
100
AcDbSpline
62
9
6
CONTINUOUS
70
0
71
3
72
13
73
9
74
7
42
0.0000001000
43
0.0000001000
44
0.0000000001
12
-0.1132533933
22
0.3569877741
32
0.0000000000
13
-0.3701512547
23
0.0577736375
33
0.0000000000
40
0.0000000000
40
0.0000000000
40
0.0000000000
40
0.0000000000
40
0.1163066218
40
0.3030061646
40
0.5421126210
40
0.7212481790
40
0.9677899084
40
1.0000000000
40
1.0000000000
40
1.0000000000
40
1.0000000000
10
-4.5485592379
20
12.0528588365
30
0.0000000000
10
-4.5529499445
20
12.0666988505
30
0.0000000000
10
-4.5662871263
20
12.1021349228
30
0.0000000000
10
-4.5994637319
20
12.1614340353
30
0.0000000000
10
-4.6530632112
20
12.2162513318
30
0.0000000000
10
-4.7250811608
20
12.2581946381
30
0.0000000000
10
-4.7800596214
20
12.2754313478
30
0.0000000000
10
-4.8143735521
20
12.2813297330
30
0.0000000000
10
-4.8183477541
20
12.2819500311
30
0.0000000000
11
-4.5485592379
21
12.0528588365
31
0.0000000000
11
-4.5639557837
21
12.0935649428
31
0.0000000000
11
-4.5984998026
21
12.1541650217
31
0.0000000000
11
-4.6610738255
21
12.2179234110
31
0.0000000000
11
-4.7186636400
21
12.2520232925
31
0.0000000000
11
-4.8064547967
21
12.2799052507
31
0.0000000000
11
-4.8183477541
21
12.2819500311
31
0.0000000000
0
SPLINE
5
4EE
100
AcDbEntity
8
0
100
AcDbSpline
62
9
6
CONTINUOUS
70
0
71
3
72
8
73
4
74
2
42
0.0000001000
43
0.0000001000
44
0.0000000001
12
-0.0698931726
22
0.0109090075
32
0.0000000000
13
-0.0705279078
23
-0.0016726402
33
0.0000000000
40
0.0000000000
40
0.0000000000
40
0.0000000000
40
0.0000000000
40
1.0000000000
40
1.0000000000
40
1.0000000000
40
1.0000000000
10
-4.8183477541
20
12.2819500311
30
0.0000000000
10
-4.8416454783
20
12.2855863669
30
0.0000000000
10
-4.8652589564
20
12.2871172064
30
0.0000000000
10
-4.8887682590
20
12.2865596597
30
0.0000000000
11
-4.8183477541
21
12.2819500311
31
0.0000000000
11
-4.8887682590
21
12.2865596597
31
0.0000000000
0
SPLINE
5
4EF
100
AcDbEntity
8
0
100
AcDbSpline
62
9
6
CONTINUOUS
70
0
71
3
72
11
73
7
74
5
42
0.0000001000
43
0.0000001000
44
0.0000000001
12
0.0000000000
22
5.4617718016
32
0.0000000000
13
5.4617718016
23
-0.0000000000
33
0.0000000000
40
0.0000000000
40
0.0000000000
40
0.0000000000
40
0.0000000000
40
0.2500212810
40
0.4999998122
40
0.7499785178
40
1.0000000000
40
1.0000000000
40
1.0000000000
40
1.0000000000
10
-11.0000000000
20
15.5005330670
30
0.0000000000
10
-11.0000000000
20
15.9557194610
30
0.0000000000
10
-10.8179259724
20
16.8759838892
30
0.0000000000
10
-10.0391592630
20
18.0391581927
30
0.0000000000
10
-8.8759849628
20
18.8179256828
30
0.0000000000
10
-7.9557198274
20
19.0000000000
30
0.0000000000
10
-7.5005330670
20
19.0000000000
30
0.0000000000
11
-11.0000000000
21
15.5005330670
31
0.0000000000
11
-10.7336163791
21
16.8398581383
31
0.0000000000
11
-9.9750952535
21
17.9750937744
31
0.0000000000
11
-8.8398591737
21
18.7336159502
31
0.0000000000
11
-7.5005330670
21
19.0000000000
31
0.0000000000
0
SPLINE
5
4F0
100
AcDbEntity
8
0
100
AcDbSpline
62
9
6
CONTINUOUS
70
0
71
3
72
11
73
7
74
5
42
0.0000001000
43
0.0000001000
44
0.0000000001
12
-5.4617718016
22
0.0000000000
32
0.0000000000
13
0.0000000000
23
5.4617718016
33
0.0000000000
40
0.0000000000
40
0.0000000000
40
0.0000000000
40
0.0000000000
40
0.2500212810
40
0.4999998122
40
0.7499785178
40
1.0000000000
40
1.0000000000
40
1.0000000000
40
1.0000000000
10
-7.5005330670
20
-19.0000000000
30
0.0000000000
10
-7.9557194610
20
-19.0000000000
30
0.0000000000
10
-8.8759838892
20
-18.8179259724
30
0.0000000000
10
-10.0391581927
20
-18.0391592630
30
0.0000000000
10
-10.8179256828
20
-16.8759849628
30
0.0000000000
10
-11.0000000000
20
-15.9557198274
30
0.0000000000
10
-11.0000000000
20
-15.5005330670
30
0.0000000000
11
-7.5005330670
21
-19.0000000000
31
0.0000000000
11
-8.8398581383
21
-18.7336163791
31
0.0000000000
11
-9.9750937744
21
-17.9750952535
31
0.0000000000
11
-10.7336159502
21
-16.8398591737
31
0.0000000000
11
-11.0000000000
21
-15.5005330670
31
0.0000000000
0
SPLINE
5
4F1
100
AcDbEntity
8
0
100
AcDbSpline
62
9
6
CONTINUOUS
70
0
71
3
72
11
73
7
74
5
42
0.0000001000
43
0.0000001000
44
0.0000000001
12
0.0000000000
22
-5.4617718016
32
0.0000000000
13
-5.4617718016
23
0.0000000000
33
0.0000000000
40
0.0000000000
40
0.0000000000
40
0.0000000000
40
0.0000000000
40
0.2500212810
40
0.4999998122
40
0.7499785178
40
1.0000000000
40
1.0000000000
40
1.0000000000
40
1.0000000000
10
11.0000000000
20
-15.5005330670
30
0.0000000000
10
11.0000000000
20
-15.9557194610
30
0.0000000000
10
10.8179259724
20
-16.8759838892
30
0.0000000000
10
10.0391592630
20
-18.0391581927
30
0.0000000000
10
8.8759849628
20
-18.8179256828
30
0.0000000000
10
7.9557198274
20
-19.0000000000
30
0.0000000000
10
7.5005330670
20
-19.0000000000
30
0.0000000000
11
11.0000000000
21
-15.5005330670
31
0.0000000000
11
10.7336163791
21
-16.8398581383
31
0.0000000000
11
9.9750952535
21
-17.9750937744
31
0.0000000000
11
8.8398591737
21
-18.7336159502
31
0.0000000000
11
7.5005330670
21
-19.0000000000
31
0.0000000000
0
SPLINE
5
4F2
100
AcDbEntity
8
0
100
AcDbSpline
62
9
6
CONTINUOUS
70
0
71
3
72
11
73
7
74
5
42
0.0000001000
43
0.0000001000
44
0.0000000001
12
5.4617718016
22
0.0000000000
32
0.0000000000
13
0.0000000000
23
-5.4617718016
33
0.0000000000
40
0.0000000000
40
0.0000000000
40
0.0000000000
40
0.0000000000
40
0.2500212810
40
0.4999998122
40
0.7499785178
40
1.0000000000
40
1.0000000000
40
1.0000000000
40
1.0000000000
10
7.5005330670
20
19.0000000000
30
0.0000000000
10
7.9557194610
20
19.0000000000
30
0.0000000000
10
8.8759838892
20
18.8179259724
30
0.0000000000
10
10.0391581927
20
18.0391592630
30
0.0000000000
10
10.8179256828
20
16.8759849628
30
0.0000000000
10
11.0000000000
20
15.9557198274
30
0.0000000000
10
11.0000000000
20
15.5005330670
30
0.0000000000
11
7.5005330670
21
19.0000000000
31
0.0000000000
11
8.8398581383
21
18.7336163791
31
0.0000000000
11
9.9750937744
21
17.9750952535
31
0.0000000000
11
10.7336159502
21
16.8398591737
31
0.0000000000
11
11.0000000000
21
15.5005330670
31
0.0000000000
0
SPLINE
5
4F3
100
AcDbEntity
8
0
100
AcDbSpline
62
9
6
CONTINUOUS
70
0
71
3
72
9
73
5
74
3
42
0.0000001000
43
0.0000001000
44
0.0000000001
12
-0.0013083333
22
0.1385141965
32
0.0000000000
13
-0.0419891685
23
0.1323547080
33
0.0000000000
40
0.0000000000
40
0.0000000000
40
0.0000000000
40
0.0000000000
40
0.5938750134
40
1.0000000000
40
1.0000000000
40
1.0000000000
40
1.0000000000
10
-4.5275365379
20
7.5622800383
30
0.0000000000
10
-4.5277955333
20
7.5897000783
30
0.0000000000
10
-4.5318857050
20
7.6359121317
30
0.0000000000
10
-4.5428749544
20
7.6810131700
30
0.0000000000
10
-4.5485592379
20
7.6989306880
30
0.0000000000
11
-4.5275365379
21
7.5622800383
31
0.0000000000
11
-4.5350868535
21
7.6441966048
31
0.0000000000
11
-4.5485592379
21
7.6989306880
31
0.0000000000
0
SPLINE
5
4F4
100
AcDbEntity
8
0
100
AcDbSpline
62
9
6
CONTINUOUS
70
0
71
3
72
13
73
9
74
7
42
0.0000001000
43
0.0000001000
44
0.0000000001
12
-0.1132533933
22
0.3569877741
32
0.0000000000
13
-0.3701512547
23
0.0577736374
33
0.0000000000
40
0.0000000000
40
0.0000000000
40
0.0000000000
40
0.0000000000
40
0.1163066218
40
0.3030061646
40
0.5421126210
40
0.7212481790
40
0.9677899084
40
1.0000000000
40
1.0000000000
40
1.0000000000
40
1.0000000000
10
-4.5485592379
20
7.6989306880
30
0.0000000000
10
-4.5529499445
20
7.7127707021
30
0.0000000000
10
-4.5662871263
20
7.7482067744
30
0.0000000000
10
-4.5994637319
20
7.8075058869
30
0.0000000000
10
-4.6530632112
20
7.8623231834
30
0.0000000000
10
-4.7250811608
20
7.9042664896
30
0.0000000000
10
-4.7800596214
20
7.9215031994
30
0.0000000000
10
-4.8143735521
20
7.9274015846
30
0.0000000000
10
-4.8183477541
20
7.9280218826
30
0.0000000000
11
-4.5485592379
21
7.6989306880
31
0.0000000000
11
-4.5639557837
21
7.7396367943
31
0.0000000000
11
-4.5984998026
21
7.8002368733
31
0.0000000000
11
-4.6610738255
21
7.8639952625
31
0.0000000000
11
-4.7186636400
21
7.8980951441
31
0.0000000000
11
-4.8064547967
21
7.9259771023
31
0.0000000000
11
-4.8183477541
21
7.9280218826
31
0.0000000000
0
SPLINE
5
4F5
100
AcDbEntity
8
0
100
AcDbSpline
62
9
6
CONTINUOUS
70
0
71
3
72
8
73
4
74
2
42
0.0000001000
43
0.0000001000
44
0.0000000001
12
-0.0698931726
22
0.0109090075
32
0.0000000000
13
-0.0705279078
23
-0.0016726402
33
0.0000000000
40
0.0000000000
40
0.0000000000
40
0.0000000000
40
0.0000000000
40
1.0000000000
40
1.0000000000
40
1.0000000000
40
1.0000000000
10
-4.8183477541
20
7.9280218826
30
0.0000000000
10
-4.8416454783
20
7.9316582185
30
0.0000000000
10
-4.8652589564
20
7.9331890580
30
0.0000000000
10
-4.8887682590
20
7.9326315112
30
0.0000000000
11
-4.8183477541
21
7.9280218826
31
0.0000000000
11
-4.8887682590
21
7.9326315112
31
0.0000000000
0
SPLINE
5
4F6
100
AcDbEntity
8
0
100
AcDbSpline
62
9
6
CONTINUOUS
70
0
71
3
72
10
73
6
74
4
42
0.0000001000
43
0.0000001000
44
0.0000000001
12
-0.1967679355
22
0.0046665493
32
0.0000000000
13
-0.1732479687
23
-0.0941662815
33
0.0000000000
40
0.0000000000
40
0.0000000000
40
0.0000000000
40
0.0000000000
40
0.4195744016
40
0.8875697979
40
1.0000000000
40
1.0000000000
40
1.0000000000
40
1.0000000000
10
-4.8887682590
20
7.9326315112
30
0.0000000000
10
-4.9162878552
20
7.9332841661
30
0.0000000000
10
-4.9748049176
20
7.9286112616
30
0.0000000000
10
-5.0380581551
20
7.9087802645
30
0.0000000000
10
-5.0721940597
20
7.8916802055
30
0.0000000000
10
-5.0786868277
20
7.8881511608
30
0.0000000000
11
-4.8887682590
21
7.9326315112
31
0.0000000000
11
-4.9710817213
21
7.9259771023
31
0.0000000000
11
-5.0588728780
21
7.8980951441
31
0.0000000000
11
-5.0786868277
21
7.8881511608
31
0.0000000000
0
SPLINE
5
4F7
100
AcDbEntity
8
0
100
AcDbSpline
62
9
6
CONTINUOUS
70
0
71
3
72
12
73
8
74
6
42
0.0000001000
43
0.0000001000
44
0.0000000001
12
-0.2761654115
22
-0.1501054822
32
0.0000000000
13
-0.0488106051
23
-0.3105580572
33
0.0000000000
40
0.0000000000
40
0.0000000000
40
0.0000000000
40
0.0000000000
40
0.1427888207
40
0.4275241215
40
0.6498516624
40
0.9676595461
40
1.0000000000
40
1.0000000000
40
1.0000000000
40
1.0000000000
10
-5.0786868277
20
7.8881511608
30
0.0000000000
10
-5.0918312722
20
7.8810066992
30
0.0000000000
10
-5.1297211276
20
7.8569561284
30
0.0000000000
10
-5.1780727861
20
7.8075058869
30
0.0000000000
10
-5.2204642401
20
7.7317363634
30
0.0000000000
10
-5.2375196740
20
7.6737082398
30
0.0000000000
10
-5.2436121017
20
7.6375172018
30
0.0000000000
10
-5.2441382874
20
7.6341693390
30
0.0000000000
11
-5.0786868277
21
7.8881511608
31
0.0000000000
11
-5.1164626925
21
7.8639952625
31
0.0000000000
11
-5.1790367154
21
7.8002368733
31
0.0000000000
11
-5.2135807343
21
7.7396367943
31
0.0000000000
11
-5.2424496644
21
7.6441966048
31
0.0000000000
11
-5.2441382874
21
7.6341693390
31
0.0000000000
0
SPLINE
5
4F8
100
AcDbEntity
8
0
100
AcDbSpline
62
9
6
CONTINUOUS
70
0
71
3
72
8
73
4
74
2
42
0.0000001000
43
0.0000001000
44
0.0000000001
12
-0.0112198650
22
-0.0713865248
32
0.0000000000
13
-0.0006808780
23
-0.0721160025
33
0.0000000000
40
0.0000000000
40
0.0000000000
40
0.0000000000
40
0.0000000000
40
1.0000000000
40
1.0000000000
40
1.0000000000
40
1.0000000000
10
-5.2441382874
20
7.6341693390
30
0.0000000000
10
-5.2478782424
20
7.6103738307
30
0.0000000000
10
-5.2497730407
20
7.5863165988
30
0.0000000000
10
-5.2500000000
20
7.5622779313
30
0.0000000000
11
-5.2441382874
21
7.6341693390
31
0.0000000000
11
-5.2500000000
21
7.5622779313
31
0.0000000000
0
SPLINE
5
4F9
100
AcDbEntity
8
0
100
AcDbSpline
62
9
6
CONTINUOUS
70
0
71
3
72
14
73
10
74
8
42
0.0000001000
43
0.0000001000
44
0.0000000001
12
0.3293836823
22
0.0000000000
32
0.0000000000
13
0.0330050750
23
-0.3284131051
33
0.0000000000
40
0.0000000000
40
0.0000000000
40
0.0000000000
40
0.0000000000
40
0.0804827917
40
0.2393079106
40
0.3760948280
40
0.5441244261
40
0.7556810933
40
0.9902306696
40
1.0000000000
40
1.0000000000
40
1.0000000000
40
1.0000000000
10
-4.8887682590
20
7.7586555487
30
0.0000000000
10
-4.8799316862
20
7.7586555487
30
0.0000000000
10
-4.8536912498
20
7.7579918615
30
0.0000000000
10
-4.8122639413
20
7.7532805000
30
0.0000000000
10
-4.7648062762
20
7.7332934110
30
0.0000000000
10
-4.7199059934
20
7.6970223599
30
0.0000000000
10
-4.6861154485
20
7.6366014037
30
0.0000000000
10
-4.6773840310
20
7.5868330416
30
0.0000000000
10
-4.6746178050
20
7.5600900023
30
0.0000000000
10
-4.6745103258
20
7.5590205436
30
0.0000000000
11
-4.8887682590
21
7.7586555487
31
0.0000000000
11
-4.8622680616
21
7.7579451244
31
0.0000000000
11
-4.8105013818
21
7.7503947888
31
0.0000000000
11
-4.7689498618
21
7.7329747335
31
0.0000000000
11
-4.7260659297
21
7.6979865772
31
0.0000000000
11
-4.6909790762
21
7.6377812870
31
0.0000000000
11
-4.6748420845
21
7.5622285827
31
0.0000000000
11
-4.6745103258
21
7.5590205436
31
0.0000000000
0
SPLINE
5
4FA
100
AcDbEntity
8
0
100
AcDbSpline
62
9
6
CONTINUOUS
70
0
71
3
72
8
73
4
74
2
42
0.0000001000
43
0.0000001000
44
0.0000000001
12
0.0047342572
22
-0.0471076678
32
0.0000000000
13
-0.0000001571
23
-0.0472468915
33
0.0000000000
40
0.0000000000
40
0.0000000000
40
0.0000000000
40
0.0000000000
40
1.0000000000
40
1.0000000000
40
1.0000000000
40
1.0000000000
10
-4.6745103258
20
7.5590205436
30
0.0000000000
10
-4.6729322401
20
7.5433179877
30
0.0000000000
10
-4.6720291620
20
7.5275912577
30
0.0000000000
10
-4.6720292144
20
7.5118422939
30
0.0000000000
11
-4.6745103258
21
7.5590205436
31
0.0000000000
11
-4.6720292144
21
7.5118422939
31
0.0000000000
0
SPLINE
5
4FB
100
AcDbEntity
8
0
100
AcDbSpline
62
9
6
CONTINUOUS
70
0
71
3
72
11
73
7
74
5
42
0.0000001000
43
0.0000001000
44
0.0000000001
12
0.0000010007
22
0.2127230607
32
0.0000000000
13
0.1554072650
23
0.1464928314
33
0.0000000000
40
0.0000000000
40
0.0000000000
40
0.0000000000
40
0.0000000000
40
0.2372165577
40
0.6003967127
40
0.9279742951
40
1.0000000000
40
1.0000000000
40
1.0000000000
40
1.0000000000
10
-5.1055073036
20
7.5118456015
30
0.0000000000
10
-5.1055072245
20
7.5286660789
30
0.0000000000
10
-5.1028996166
20
7.5711746285
30
0.0000000000
10
-5.0914210694
20
7.6366014037
30
0.0000000000
10
-5.0643163728
20
7.6850673783
30
0.0000000000
10
-5.0445141986
20
7.7055198053
30
0.0000000000
10
-5.0407830927
20
7.7090368884
30
0.0000000000
11
-5.1055073036
21
7.5118456015
31
0.0000000000
11
-5.1026944335
21
7.5622285827
31
0.0000000000
11
-5.0865574418
21
7.6377812870
31
0.0000000000
11
-5.0514705882
21
7.6979865772
31
0.0000000000
11
-5.0407830927
21
7.7090368884
31
0.0000000000
0
SPLINE
5
4FC
100
AcDbEntity
8
0
100
AcDbSpline
62
9
6
CONTINUOUS
70
0
71
3
72
10
73
6
74
4
42
0.0000001000
43
0.0000001000
44
0.0000000001
12
0.0867444521
22
0.0817686380
32
0.0000000000
13
0.1183980037
23
0.0129099092
33
0.0000000000
40
0.0000000000
40
0.0000000000
40
0.0000000000
40
0.0000000000
40
0.3370876398
40
0.7165438183
40
1.0000000000
40
1.0000000000
40
1.0000000000
40
1.0000000000
10
-5.0407830927
20
7.7090368884
30
0.0000000000
10
-5.0310362651
20
7.7182246208
30
0.0000000000
10
-5.0079689588
20
7.7352986548
30
0.0000000000
10
-4.9710706149
20
7.7508386203
30
0.0000000000
10
-4.9451048694
20
7.7552325358
30
0.0000000000
10
-4.9339179874
20
7.7564523337
30
0.0000000000
11
-5.0407830927
21
7.7090368884
31
0.0000000000
11
-5.0085866561
21
7.7329747335
31
0.0000000000
11
-4.9670351362
21
7.7503947888
31
0.0000000000
11
-4.9339179874
21
7.7564523337
31
0.0000000000
0
SPLINE
5
4FD
100
AcDbEntity
8
0
100
AcDbSpline
62
9
6
CONTINUOUS
70
0
71
3
72
9
73
5
74
3
42
0.0000001000
43
0.0000001000
44
0.0000000001
12
0.0450386219
22
0.0049109318
32
0.0000000000
13
0.0451674661
23
0.0000000000
33
0.0000000000
40
0.0000000000
40
0.0000000000
40
0.0000000000
40
0.0000000000
40
0.4130793558
40
1.0000000000
40
1.0000000000
40
1.0000000000
40
1.0000000000
10
-4.9339179874
20
7.7564523337
30
0.0000000000
10
-4.9277164791
20
7.7571285352
30
0.0000000000
10
-4.9126410162
20
7.7582752455
30
0.0000000000
10
-4.8976048318
20
7.7586555487
30
0.0000000000
10
-4.8887682590
20
7.7586555487
30
0.0000000000
11
-4.9339179874
21
7.7564523337
31
0.0000000000
11
-4.9152684564
21
7.7579451244
31
0.0000000000
11
-4.8887682590
21
7.7586555487
31
0.0000000000
0
SPLINE
5
4FE
100
AcDbEntity
8
0
100
AcDbSpline
62
9
6
CONTINUOUS
70
0
71
3
72
11
73
7
74
5
42
0.0000001000
43
0.0000001000
44
0.0000000001
12
-0.1113393507
22
0.6525022145
32
0.0000000000
13
0.6618522746
23
0.0103516932
33
0.0000000000
40
0.0000000000
40
0.0000000000
40
0.0000000000
40
0.0000000000
40
0.2429387748
40
0.4710498328
40
0.7362395484
40
1.0000000000
40
1.0000000000
40
1.0000000000
40
1.0000000000
10
-7.5766962005
20
13.3703266239
30
0.0000000000
10
-7.5857124156
20
13.4231659868
30
0.0000000000
10
-7.5971840981
20
13.5268623121
30
0.0000000000
10
-7.5968809378
20
13.6890971115
30
0.0000000000
10
-7.5318580517
20
13.8564848868
30
0.0000000000
10
-7.4085768743
20
13.9041109308
30
0.0000000000
10
-7.3503867227
20
13.9050210532
30
0.0000000000
11
-7.5766962005
21
13.3703266239
31
0.0000000000
11
-7.5944422970
21
13.5301536857
31
0.0000000000
11
-7.5878798920
21
13.6810053007
31
0.0000000000
11
-7.5121673688
21
13.8393756332
31
0.0000000000
11
-7.3503867227
21
13.9050210532
31
0.0000000000
0
SPLINE
5
4FF
100
AcDbEntity
8
0
100
AcDbSpline
62
9
6
CONTINUOUS
70
0
71
3
72
9
73
5
74
3
42
0.0000001000
43
0.0000001000
44
0.0000000001
12
0.2614953373
22
0.0040349529
32
0.0000000000
13
0.1548965677
23
-0.2096191535
33
0.0000000000
40
0.0000000000
40
0.0000000000
40
0.0000000000
40
0.0000000000
40
0.9422510357
40
1.0000000000
40
1.0000000000
40
1.0000000000
40
1.0000000000
10
-7.3503867227
20
13.9050210532
30
0.0000000000
10
-7.2682553052
20
13.9062883660
30
0.0000000000
10
-7.1691231922
20
13.8742296151
30
0.0000000000
10
-7.1149953349
20
13.8062489942
30
0.0000000000
10
-7.1120136294
20
13.8022138979
30
0.0000000000
11
-7.3503867227
21
13.9050210532
31
0.0000000000
11
-7.1213970769
21
13.8139808177
31
0.0000000000
11
-7.1120136294
21
13.8022138979
31
0.0000000000
0
SPLINE
5
500
100
AcDbEntity
8
0
100
AcDbSpline
62
9
6
CONTINUOUS
70
0
71
3
72
8
73
4
74
2
42
0.0000001000
43
0.0000001000
44
0.0000000001
12
0.0311214613
22
-0.0421161970
32
0.0000000000
13
0.0214078106
23
-0.0487252942
33
0.0000000000
40
0.0000000000
40
0.0000000000
40
0.0000000000
40
0.0000000000
40
1.0000000000
40
1.0000000000
40
1.0000000000
40
1.0000000000
10
-7.1120136294
20
13.8022138979
30
0.0000000000
10
-7.1016398090
20
13.7881751656
30
0.0000000000
10
-7.0930105208
20
13.7728135788
30
0.0000000000
10
-7.0858745840
20
13.7565718140
30
0.0000000000
11
-7.1120136294
21
13.8022138979
31
0.0000000000
11
-7.0858745840
21
13.7565718140
31
0.0000000000
0
SPLINE
5
501
100
AcDbEntity
8
0
100
AcDbSpline
62
9
6
CONTINUOUS
70
0
71
3
72
8
73
4
74
2
42
0.0000001000
43
0.0000001000
44
0.0000000001
12
0.0648829239
22
-0.1476769210
32
0.0000000000
13
0.0035561806
23
-0.1592148914
33
0.0000000000
40
0.0000000000
40
0.0000000000
40
0.0000000000
40
0.0000000000
40
1.0000000000
40
1.0000000000
40
1.0000000000
40
1.0000000000
10
-7.0858745840
20
13.7565718140
30
0.0000000000
10
-7.0642469426
20
13.7073461737
30
0.0000000000
10
-7.0563369065
20
13.6500354072
30
0.0000000000
10
-7.0551515130
20
13.5969637767
30
0.0000000000
11
-7.0858745840
21
13.7565718140
31
0.0000000000
11
-7.0551515130
21
13.5969637767
31
0.0000000000
0
SPLINE
5
502
100
AcDbEntity
8
0
100
AcDbSpline
62
9
6
CONTINUOUS
70
0
71
3
72
9
73
5
74
3
42
0.0000001000
43
0.0000001000
44
0.0000000001
12
-0.0106082971
22
0.1759796579
32
0.0000000000
13
-0.1482080547
23
0.1132150341
33
0.0000000000
40
0.0000000000
40
0.0000000000
40
0.0000000000
40
0.0000000000
40
0.0487271689
40
1.0000000000
40
1.0000000000
40
1.0000000000
40
1.0000000000
10
-6.8977641490
20
13.9995882599
30
0.0000000000
10
-6.8979364531
20
14.0024465900
30
0.0000000000
10
-6.9034467537
20
14.0604482101
30
0.0000000000
10
-6.9477590165
20
14.1052376966
30
0.0000000000
10
-6.9947544485
20
14.1411371586
30
0.0000000000
11
-6.8977641490
21
13.9995882599
31
0.0000000000
11
-6.8985655848
21
14.0080677295
31
0.0000000000
11
-6.9947544485
21
14.1411371586
31
0.0000000000
0
SPLINE
5
503
100
AcDbEntity
8
0
100
AcDbSpline
62
9
6
CONTINUOUS
70
0
71
3
72
13
73
9
74
7
42
0.0000001000
43
0.0000001000
44
0.0000000001
12
-0.7964243411
22
0.6083826490
32
0.0000000000
13
-0.4996599668
23
-0.7970284414
33
0.0000000000
40
0.0000000000
40
0.0000000000
40
0.0000000000
40
0.0000000000
40
0.0355257179
40
0.2288141283
40
0.4759590196
40
0.6795893759
40
0.8481065421
40
1.0000000000
40
1.0000000000
40
1.0000000000
40
1.0000000000
10
-6.9947544485
20
14.1411371586
30
0.0000000000
10
-7.0041856307
20
14.1483415687
30
0.0000000000
10
-7.0661860984
20
14.1930038457
30
0.0000000000
10
-7.1908712722
20
14.2662561988
30
0.0000000000
10
-7.3985181664
20
14.2876673583
30
0.0000000000
10
-7.5894442555
20
14.2458732289
30
0.0000000000
10
-7.7285854597
20
14.1575500464
30
0.0000000000
10
-7.7969645903
20
14.0806292751
30
0.0000000000
10
-7.8222629503
20
14.0402748065
30
0.0000000000
11
-6.9947544485
21
14.1411371586
31
0.0000000000
11
-7.0233884043
21
14.1619823938
31
0.0000000000
11
-7.1818891836
21
14.2477321911
31
0.0000000000
11
-7.4106361896
21
14.2754648077
31
0.0000000000
11
-7.5955027887
21
14.2322437577
31
0.0000000000
11
-7.7283812498
21
14.1484088115
31
0.0000000000
11
-7.8222629503
21
14.0402748065
31
0.0000000000
0
SPLINE
5
504
100
AcDbEntity
8
0
100
AcDbSpline
62
9
6
CONTINUOUS
70
0
71
3
72
8
73
4
74
2
42
0.0000001000
43
0.0000001000
44
0.0000000001
12
-0.0435630872
22
-0.0694892963
32
0.0000000000
13
-0.0275841903
23
-0.0764627032
33
0.0000000000
40
0.0000000000
40
0.0000000000
40
0.0000000000
40
0.0000000000
40
1.0000000000
40
1.0000000000
40
1.0000000000
40
1.0000000000
10
-7.8222629503
20
14.0402748065
30
0.0000000000
10
-7.8367839794
20
14.0171117077
30
0.0000000000
10
-7.8489600818
20
13.9926671511
30
0.0000000000
10
-7.8581548119
20
13.9671795833
30
0.0000000000
11
-7.8222629503
21
14.0402748065
31
0.0000000000
11
-7.8581548119
21
13.9671795833
31
0.0000000000
0
SPLINE
5
505
100
AcDbEntity
8
0
100
AcDbSpline
62
9
6
CONTINUOUS
70
0
71
3
72
9
73
5
74
3
42
0.0000001000
43
0.0000001000
44
0.0000000001
12
-0.3340288657
22
-0.9245779400
32
0.0000000000
13
0.1430856721
23
-0.9725976253
33
0.0000000000
40
0.0000000000
40
0.0000000000
40
0.0000000000
40
0.0000000000
40
0.1082046150
40
1.0000000000
40
1.0000000000
40
1.0000000000
40
1.0000000000
10
-7.8581548119
20
13.9671795833
30
0.0000000000
10
-7.8702026335
20
13.9338317167
30
0.0000000000
10
-7.9603549105
20
13.6176944015
30
0.0000000000
10
-7.9206916166
20
13.2776190815
30
0.0000000000
10
-7.8781572359
20
12.9884997236
30
0.0000000000
11
-7.8581548119
21
13.9671795833
31
0.0000000000
11
-7.8881925066
21
13.8651364119
31
0.0000000000
11
-7.8781572359
21
12.9884997236
31
0.0000000000
0
SPLINE
5
506
100
AcDbEntity
8
0
100
AcDbSpline
62
9
6
CONTINUOUS
70
0
71
3
72
9
73
5
74
3
42
0.0000001000
43
0.0000001000
44
0.0000000001
12
0.0000000000
22
0.1871672074
32
0.0000000000
13
0.1488180964
23
0.1326279895
33
0.0000000000
40
0.0000000000
40
0.0000000000
40
0.0000000000
40
0.0000000000
40
0.2183957715
40
1.0000000000
40
1.0000000000
40
1.0000000000
40
1.0000000000
10
-6.7440026937
20
13.5961089723
30
0.0000000000
10
-6.7440026937
20
13.6097344811
30
0.0000000000
10
-6.7395794769
20
13.6723042942
30
0.0000000000
10
-6.7015024756
20
13.7300042016
30
0.0000000000
10
-6.6627301911
20
13.7645584008
30
0.0000000000
11
-6.7440026937
21
13.5961089723
31
0.0000000000
11
-6.7404654951
21
13.6368321678
31
0.0000000000
11
-6.6627301911
21
13.7645584008
31
0.0000000000
0
SPLINE
5
507
100
AcDbEntity
8
0
100
AcDbSpline
62
9
6
CONTINUOUS
70
0
71
3
72
8
73
4
74
2
42
0.0000001000
43
0.0000001000
44
0.0000000001
12
0.0502492164
22
0.0447825413
32
0.0000000000
13
0.0575463789
23
0.0311447060
33
0.0000000000
40
0.0000000000
40
0.0000000000
40
0.0000000000
40
0.0000000000
40
1.0000000000
40
1.0000000000
40
1.0000000000
40
1.0000000000
10
-6.6627301911
20
13.7645584008
30
0.0000000000
10
-6.6459804523
20
13.7794859145
30
0.0000000000
10
-6.6275489962
20
13.7924455839
30
0.0000000000
10
-6.6083668699
20
13.8028271526
30
0.0000000000
11
-6.6627301911
21
13.7645584008
31
0.0000000000
11
-6.6083668699
21
13.8028271526
31
0.0000000000
0
SPLINE
5
508
100
AcDbEntity
8
0
100
AcDbSpline
62
9
6
CONTINUOUS
70
0
71
3
72
8
73
4
74
2
42
0.0000001000
43
0.0000001000
44
0.0000000001
12
0.0312484203
22
0.0169119740
32
0.0000000000
13
0.0321292671
23
0.0120577240
33
0.0000000000
40
0.0000000000
40
0.0000000000
40
0.0000000000
40
0.0000000000
40
1.0000000000
40
1.0000000000
40
1.0000000000
40
1.0000000000
10
-6.6083668699
20
13.8028271526
30
0.0000000000
10
-6.5979507298
20
13.8084644772
30
0.0000000000
10
-6.5873132449
20
13.8133416157
30
0.0000000000
10
-6.5766034892
20
13.8173608570
30
0.0000000000
11
-6.6083668699
21
13.8028271526
31
0.0000000000
11
-6.5766034892
21
13.8173608570
31
0.0000000000
0
SPLINE
5
509
100
AcDbEntity
8
0
100
AcDbSpline
62
9
6
CONTINUOUS
70
0
71
3
72
8
73
4
74
2
42
0.0000001000
43
0.0000001000
44
0.0000000001
12
0.1844788847
22
0.0693061616
32
0.0000000000
13
0.1886733645
23
0.0570087503
33
0.0000000000
40
0.0000000000
40
0.0000000000
40
0.0000000000
40
0.0000000000
40
1.0000000000
40
1.0000000000
40
1.0000000000
40
1.0000000000
10
-6.5766034892
20
13.8173608570
30
0.0000000000
10
-6.5151105277
20
13.8404629109
30
0.0000000000
10
-6.4526843508
20
13.8608420266
30
0.0000000000
10
-6.3897932293
20
13.8798449434
30
0.0000000000
11
-6.5766034892
21
13.8173608570
31
0.0000000000
11
-6.3897932293
21
13.8798449434
31
0.0000000000
0
SPLINE
5
50A
100
AcDbEntity
8
0
100
AcDbSpline
62
9
6
CONTINUOUS
70
0
71
3
72
9
73
5
74
3
42
0.0000001000
43
0.0000001000
44
0.0000000001
12
0.3873330009
22
0.1170349106
32
0.0000000000
13
0.3888161486
23
0.1117862040
33
0.0000000000
40
0.0000000000
40
0.0000000000
40
0.0000000000
40
0.0000000000
40
0.8003222648
40
1.0000000000
40
1.0000000000
40
1.0000000000
40
1.0000000000
10
-6.3897932293
20
13.8798449434
30
0.0000000000
10
-6.2864628211
20
13.9110668249
30
0.0000000000
10
-6.1557835757
20
13.9454365815
30
0.0000000000
10
-6.0263873405
20
13.9833317808
30
0.0000000000
10
-6.0005080312
20
13.9907721861
30
0.0000000000
11
-6.3897932293
21
13.8798449434
31
0.0000000000
11
-6.0781135901
21
13.9683386893
31
0.0000000000
11
-6.0005080312
21
13.9907721861
31
0.0000000000
0
SPLINE
5
50B
100
AcDbEntity
8
0
100
AcDbSpline
62
9
6
CONTINUOUS
70
0
71
3
72
9
73
5
74
3
42
0.0000001000
43
0.0000001000
44
0.0000000001
12
-0.5131885061
22
-0.1393805447
32
0.0000000000
13
-0.5130783543
23
-0.1397854835
33
0.0000000000
40
0.0000000000
40
0.0000000000
40
0.0000000000
40
0.0000000000
40
0.1980141723
40
1.0000000000
40
1.0000000000
40
1.0000000000
40
1.0000000000
10
-6.0005080312
20
14.3722286712
30
0.0000000000
10
-6.0343808970
20
14.3630288968
30
0.0000000000
10
-6.2058282365
20
14.3180001234
30
0.0000000000
10
-6.3775551243
20
14.2740253446
30
0.0000000000
10
-6.5147156472
20
14.2366566857
30
0.0000000000
11
-6.0005080312
21
14.3722286712
31
0.0000000000
11
-6.1022898640
21
14.3452375530
31
0.0000000000
11
-6.5147156472
21
14.2366566857
31
0.0000000000
0
SPLINE
5
50C
100
AcDbEntity
8
0
100
AcDbSpline
62
9
6
CONTINUOUS
70
0
71
3
72
8
73
4
74
2
42
0.0000001000
43
0.0000001000
44
0.0000000001
12
-0.3305334232
22
-0.0900472592
32
0.0000000000
13
-0.2353340379
23
-0.2434296295
33
0.0000000000
40
0.0000000000
40
0.0000000000
40
0.0000000000
40
0.0000000000
40
1.0000000000
40
1.0000000000
40
1.0000000000
40
1.0000000000
10
-6.5147156472
20
14.2366566857
30
0.0000000000
10
-6.6248934549
20
14.2066409326
30
0.0000000000
10
-6.7580796871
20
14.1664108783
30
0.0000000000
10
-6.8365243665
20
14.0852676685
30
0.0000000000
11
-6.5147156472
21
14.2366566857
31
0.0000000000
11
-6.8365243665
21
14.0852676685
31
0.0000000000
0
SPLINE
5
50D
100
AcDbEntity
8
0
100
AcDbSpline
62
9
6
CONTINUOUS
70
0
71
3
72
9
73
5
74
3
42
0.0000001000
43
0.0000001000
44
0.0000000001
12
-0.0717159417
22
-0.0741830007
32
0.0000000000
13
-0.0346127327
23
-0.0995862905
33
0.0000000000
40
0.0000000000
40
0.0000000000
40
0.0000000000
40
0.0000000000
40
0.9058739346
40
1.0000000000
40
1.0000000000
40
1.0000000000
40
1.0000000000
10
-6.8365243665
20
14.0852676685
30
0.0000000000
10
-6.8581795672
20
14.0628675196
30
0.0000000000
10
-6.8774796991
20
14.0346979969
30
0.0000000000
10
-6.8897028954
20
14.0019419733
30
0.0000000000
10
-6.8907888822
20
13.9988174181
30
0.0000000000
11
-6.8365243665
21
14.0852676685
31
0.0000000000
11
-6.8873391530
21
14.0080677295
31
0.0000000000
11
-6.8907888822
21
13.9988174181
31
0.0000000000
0
SPLINE
5
50E
100
AcDbEntity
8
0
100
AcDbSpline
62
9
6
CONTINUOUS
70
0
71
3
72
10
73
6
74
4
42
0.0000001000
43
0.0000001000
44
0.0000000001
12
0.2077674387
22
0.4155665262
32
0.0000000000
13
0.4596111027
23
0.0173800754
33
0.0000000000
40
0.0000000000
40
0.0000000000
40
0.0000000000
40
0.0000000000
40
0.1948691429
40
0.7381936645
40
1.0000000000
40
1.0000000000
40
1.0000000000
40
1.0000000000
10
0.5000951923
20
17.0989143123
30
0.0000000000
10
0.5135910132
20
17.1259080099
30
0.0000000000
10
0.6652138218
20
17.0879405919
30
0.0000000000
10
0.7985603575
20
17.1195168857
30
0.0000000000
10
0.9192164254
20
17.1277304234
30
0.0000000000
10
0.9593261249
20
17.1292471614
30
0.0000000000
11
0.5000951923
21
17.0989143123
31
0.0000000000
11
0.5899357055
21
17.1101327893
31
0.0000000000
11
0.8421541168
21
17.1205691082
31
0.0000000000
11
0.9593261249
21
17.1292471614
31
0.0000000000
0
SPLINE
5
50F
100
AcDbEntity
8
0
100
AcDbSpline
62
9
6
CONTINUOUS
70
0
71
3
72
15
73
11
74
9
42
0.0000001000
43
0.0000001000
44
0.0000000001
12
4.0289202056
22
0.1523525792
32
0.0000000000
13
4.0289201845
23
-0.1523527230
33
0.0000000000
40
0.0000000000
40
0.0000000000
40
0.0000000000
40
0.0000000000
40
0.0677923205
40
0.1945666846
40
0.3419538561
40
0.5000001997
40
0.6580465490
40
0.8054336324
40
0.9322078181
40
1.0000000000
40
1.0000000000
40
1.0000000000
40
1.0000000000
10
0.9593261249
20
17.1292471614
30
0.0000000000
10
1.0503694082
20
17.1326899397
30
0.0000000000
10
1.3246160578
20
17.1255053095
30
0.0000000000
10
1.7821816584
20
17.1394878230
30
0.0000000000
10
2.3713249596
20
17.1405040513
30
0.0000000000
10
3.0000012744
20
17.1430338208
30
0.0000000000
10
3.6286774689
20
17.1405040402
30
0.0000000000
10
4.2178204155
20
17.1394878011
30
0.0000000000
10
4.6753854741
20
17.1255052949
30
0.0000000000
10
4.9496316745
20
17.1326899004
30
0.0000000000
10
5.0406747711
20
17.1292471259
30
0.0000000000
11
0.9593261249
21
17.1292471614
31
0.0000000000
11
1.2397920695
21
17.1295213750
31
0.0000000000
11
1.7560659583
21
17.1363857642
31
0.0000000000
11
2.3563206622
21
17.1406999614
31
0.0000000000
11
3.0000012664
21
17.1421711690
31
0.0000000000
11
3.6436818942
21
17.1406999495
31
0.0000000000
11
4.2439362390
21
17.1363857422
31
0.0000000000
11
4.7602094010
21
17.1295213496
31
0.0000000000
11
5.0406747711
21
17.1292471259
31
0.0000000000
0
SPLINE
5
510
100
AcDbEntity
8
0
100
AcDbSpline
62
9
6
CONTINUOUS
70
0
71
3
72
10
73
6
74
4
42
0.0000001000
43
0.0000001000
44
0.0000000001
12
0.4596102039
22
-0.0173800579
32
0.0000000000
13
0.2077670335
23
-0.4155657158
33
0.0000000000
40
0.0000000000
40
0.0000000000
40
0.0000000000
40
0.0000000000
40
0.2618062728
40
0.8051307668
40
1.0000000000
40
1.0000000000
40
1.0000000000
40
1.0000000000
10
5.0406747711
20
17.1292471259
30
0.0000000000
10
5.0807843826
20
17.1277303898
30
0.0000000000
10
5.2014402016
20
17.1195168659
30
0.0000000000
10
5.3347864806
20
17.0879406372
30
0.0000000000
10
5.4864090068
20
17.1259079697
30
0.0000000000
10
5.4999048077
20
17.0989143123
30
0.0000000000
11
5.0406747711
21
17.1292471259
31
0.0000000000
11
5.1578465229
21
17.1205690891
31
0.0000000000
11
5.4100644291
21
17.1101327808
31
0.0000000000
11
5.4999048077
21
17.0989143123
31
0.0000000000
0
SPLINE
5
511
100
AcDbEntity
8
0
100
AcDbSpline
62
9
6
CONTINUOUS
70
0
71
3
72
10
73
6
74
4
42
0.0000001000
43
0.0000001000
44
0.0000000001
12
0.2077674387
22
-0.4155665262
32
0.0000000000
13
0.4596111027
23
-0.0173800754
33
0.0000000000
40
0.0000000000
40
0.0000000000
40
0.0000000000
40
0.0000000000
40
0.1948691429
40
0.7381936645
40
1.0000000000
40
1.0000000000
40
1.0000000000
40
1.0000000000
10
-5.4999048077
20
-17.0989143123
30
0.0000000000
10
-5.4864089868
20
-17.1259080099
30
0.0000000000
10
-5.3347861782
20
-17.0879405919
30
0.0000000000
10
-5.2014396425
20
-17.1195168857
30
0.0000000000
10
-5.0807835746
20
-17.1277304234
30
0.0000000000
10
-5.0406738751
20
-17.1292471614
30
0.0000000000
11
-5.4999048077
21
-17.0989143123
31
0.0000000000
11
-5.4100642945
21
-17.1101327893
31
0.0000000000
11
-5.1578458832
21
-17.1205691082
31
0.0000000000
11
-5.0406738751
21
-17.1292471614
31
0.0000000000
0
SPLINE
5
512
100
AcDbEntity
8
0
100
AcDbSpline
62
9
6
CONTINUOUS
70
0
71
3
72
15
73
11
74
9
42
0.0000001000
43
0.0000001000
44
0.0000000001
12
4.0289202056
22
-0.1523525792
32
0.0000000000
13
4.0289201845
23
0.1523527230
33
0.0000000000
40
0.0000000000
40
0.0000000000
40
0.0000000000
40
0.0000000000
40
0.0677923205
40
0.1945666846
40
0.3419538561
40
0.5000001997
40
0.6580465490
40
0.8054336324
40
0.9322078181
40
1.0000000000
40
1.0000000000
40
1.0000000000
40
1.0000000000
10
-5.0406738751
20
-17.1292471614
30
0.0000000000
10
-4.9496305918
20
-17.1326899397
30
0.0000000000
10
-4.6753839422
20
-17.1255053095
30
0.0000000000
10
-4.2178183416
20
-17.1394878230
30
0.0000000000
10
-3.6286750404
20
-17.1405040513
30
0.0000000000
10
-2.9999987256
20
-17.1430338208
30
0.0000000000
10
-2.3713225311
20
-17.1405040402
30
0.0000000000
10
-1.7821795845
20
-17.1394878011
30
0.0000000000
10
-1.3246145259
20
-17.1255052949
30
0.0000000000
10
-1.0503683255
20
-17.1326899004
30
0.0000000000
10
-0.9593252289
20
-17.1292471259
30
0.0000000000
11
-5.0406738751
21
-17.1292471614
31
0.0000000000
11
-4.7602079305
21
-17.1295213750
31
0.0000000000
11
-4.2439340417
21
-17.1363857642
31
0.0000000000
11
-3.6436793378
21
-17.1406999614
31
0.0000000000
11
-2.9999987336
21
-17.1421711690
31
0.0000000000
11
-2.3563181058
21
-17.1406999495
31
0.0000000000
11
-1.7560637610
21
-17.1363857422
31
0.0000000000
11
-1.2397905990
21
-17.1295213496
31
0.0000000000
11
-0.9593252289
21
-17.1292471259
31
0.0000000000
0
SPLINE
5
513
100
AcDbEntity
8
0
100
AcDbSpline
62
9
6
CONTINUOUS
70
0
71
3
72
10
73
6
74
4
42
0.0000001000
43
0.0000001000
44
0.0000000001
12
0.4596102039
22
0.0173800579
32
0.0000000000
13
0.2077670335
23
0.4155657158
33
0.0000000000
40
0.0000000000
40
0.0000000000
40
0.0000000000
40
0.0000000000
40
0.2618062728
40
0.8051307668
40
1.0000000000
40
1.0000000000
40
1.0000000000
40
1.0000000000
10
-0.9593252289
20
-17.1292471259
30
0.0000000000
10
-0.9192156174
20
-17.1277303898
30
0.0000000000
10
-0.7985597984
20
-17.1195168659
30
0.0000000000
10
-0.6652135194
20
-17.0879406372
30
0.0000000000
10
-0.5135909932
20
-17.1259079697
30
0.0000000000
10
-0.5000951923
20
-17.0989143123
30
0.0000000000
11
-0.9593252289
21
-17.1292471259
31
0.0000000000
11
-0.8421534771
21
-17.1205690891
31
0.0000000000
11
-0.5899355709
21
-17.1101327808
31
0.0000000000
11
-0.5000951923
21
-17.0989143123
31
0.0000000000
0
SPLINE
5
514
100
AcDbEntity
8
0
100
AcDbSpline
62
9
6
CONTINUOUS
70
0
71
3
72
15
73
11
74
9
42
0.0000001000
43
0.0000001000
44
0.0000000001
12
-1.7695236281
22
4.6801517460
32
0.0000000000
13
-1.7179353009
23
-4.6993332014
33
0.0000000000
40
0.0000000000
40
0.0000000000
40
0.0000000000
40
0.0000000000
40
0.0395680319
40
0.1484564537
40
0.3101998077
40
0.5005477126
40
0.6907873013
40
0.8523147408
40
0.9608962835
40
1.0000000000
40
1.0000000000
40
1.0000000000
40
1.0000000000
10
5.4999048077
20
17.5989143065
30
0.0000000000
10
5.4765659519
20
17.6606424377
30
0.0000000000
10
5.1333403553
20
17.5691594901
30
0.0000000000
10
4.7010693437
20
17.6796827431
30
0.0000000000
10
3.8913800791
20
17.6433956002
30
0.0000000000
10
2.9973678134
20
17.6681949617
30
0.0000000000
10
2.1040649832
20
17.6432945590
30
0.0000000000
10
1.2946929269
20
17.6797249277
30
0.0000000000
10
0.8653161791
20
17.5690526070
30
0.0000000000
10
0.5224782695
20
17.6601416053
30
0.0000000000
10
0.5000857179
20
17.5988878076
30
0.0000000000
11
5.4999048077
21
17.5989143065
31
0.0000000000
11
5.3032923061
21
17.6221329112
31
0.0000000000
11
4.7588236550
21
17.6417922102
31
0.0000000000
11
3.9496464854
21
17.6548937149
31
0.0000000000
11
2.9972513380
21
17.6594738513
31
0.0000000000
11
2.0453984013
21
17.6548432612
31
0.0000000000
11
1.2373024149
21
17.6416978512
31
0.0000000000
11
0.6943717521
21
17.6219967626
31
0.0000000000
11
0.5000857179
21
17.5988878076
31
0.0000000000
0
SPLINE
5
515
100
AcDbEntity
8
0
100
AcDbSpline
62
9
6
CONTINUOUS
70
0
71
3
72
15
73
11
74
9
42
0.0000001000
43
0.0000001000
44
0.0000000001
12
1.7585890288
22
-4.6842570078
32
0.0000000000
13
1.7664409209
23
4.6813016950
33
0.0000000000
40
0.0000000000
40
0.0000000000
40
0.0000000000
40
0.0000000000
40
0.0395530440
40
0.1483889908
40
0.3100648864
40
0.5003511495
40
0.6905591169
40
0.8521050194
40
0.9607639028
40
1.0000000000
40
1.0000000000
40
1.0000000000
40
1.0000000000
10
-5.4999048077
20
-17.5989143065
30
0.0000000000
10
-5.4767189579
20
-17.6606731809
30
0.0000000000
10
-5.1333162485
20
-17.5691141217
30
0.0000000000
10
-4.7015282758
20
-17.6796958235
30
0.0000000000
10
-3.8920018382
20
-17.6433825150
30
0.0000000000
10
-2.9983732110
20
-17.6681786397
30
0.0000000000
10
-2.1049448660
20
-17.6433667064
30
0.0000000000
10
-1.2961371806
20
-17.6795923375
30
0.0000000000
10
-0.8651032484
20
-17.5692812370
30
0.0000000000
10
-0.5231979416
20
-17.6601396425
30
0.0000000000
10
-0.5000951923
20
-17.5989143065
30
0.0000000000
11
-5.4999048077
21
-17.5989143065
31
0.0000000000
11
-5.3033678085
21
-17.6221282632
31
0.0000000000
11
-4.7591632118
21
-17.6417835115
31
0.0000000000
11
-3.9503258197
21
-17.6548863613
31
0.0000000000
11
-2.9982417065
21
-17.6594738774
31
0.0000000000
11
-2.0465494992
21
-17.6548554023
31
0.0000000000
11
-1.2383630741
21
-17.6417240697
31
0.0000000000
11
-0.6950461684
21
-17.6220362899
31
0.0000000000
11
-0.5000951923
21
-17.5989143065
31
0.0000000000
0
SPLINE
5
516
100
AcDbEntity
8
0
100
AcDbSpline
62
9
6
CONTINUOUS
70
0
71
3
72
15
73
11
74
9
42
0.0000001000
43
0.0000001000
44
0.0000000001
12
3.4048475615
22
-6.1188372744
32
0.0000000000
13
3.4309631528
23
6.1042320034
33
0.0000000000
40
0.0000000000
40
0.0000000000
40
0.0000000000
40
0.0000000000
40
0.0392008704
40
0.1478539797
40
0.3095773940
40
0.5002706062
40
0.6909623420
40
0.8526229264
40
0.9611195969
40
1.0000000000
40
1.0000000000
40
1.0000000000
40
1.0000000000
10
-6.4998667307
20
-18.5987620016
30
0.0000000000
10
-6.4553757347
20
-18.6787165840
30
0.0000000000
10
-6.0032259267
20
-18.5443327497
30
0.0000000000
10
-5.3760848417
20
-18.6934657283
30
0.0000000000
10
-4.2538393516
20
-18.6376662668
30
0.0000000000
10
-2.9981275832
20
-18.6710372481
30
0.0000000000
10
-1.7424470682
20
-18.6376776426
30
0.0000000000
10
-0.6210099182
20
-18.6932864761
30
0.0000000000
10
0.0056241908
20
-18.5447242487
30
0.0000000000
10
0.4554009872
20
-18.6778736686
30
0.0000000000
10
0.4998667307
20
-18.5987620016
30
0.0000000000
11
-6.4998667307
21
-18.5987620016
31
0.0000000000
11
-6.2263456491
21
-18.6219109476
31
0.0000000000
11
-5.4657709405
21
-18.6415820326
31
0.0000000000
11
-4.3334002335
21
-18.6547138975
31
0.0000000000
11
-2.9981041511
21
-18.6593215781
31
0.0000000000
11
-1.6628185006
21
-18.6546869152
31
0.0000000000
11
-0.5308881318
21
-18.6415248867
31
0.0000000000
11
0.2285898343
21
-18.6218177876
31
0.0000000000
11
0.4998667307
21
-18.5987620016
31
0.0000000000
0
SPLINE
5
517
100
AcDbEntity
8
0
100
AcDbSpline
62
9
6
CONTINUOUS
70
0
71
3
72
15
73
11
74
9
42
0.0000001000
43
0.0000001000
44
0.0000000001
12
-3.4416133403
22
6.0982344876
32
0.0000000000
13
-3.3941572566
23
-6.1247745075
33
0.0000000000
40
0.0000000000
40
0.0000000000
40
0.0000000000
40
0.0000000000
40
0.0392051933
40
0.1479411482
40
0.3098045523
40
0.5006399190
40
0.6912807786
40
0.8528525875
40
0.9612430651
40
1.0000000000
40
1.0000000000
40
1.0000000000
40
1.0000000000
10
6.4998667307
20
18.5987620016
30
0.0000000000
10
6.4548903587
20
18.6784561555
30
0.0000000000
10
6.0036016651
20
18.5446320225
30
0.0000000000
10
5.3750174863
20
18.6933299270
30
0.0000000000
10
4.2523748249
20
18.6377292252
30
0.0000000000
10
2.9959084537
20
18.6710431238
30
0.0000000000
10
1.7404524381
20
18.6375945386
30
0.0000000000
10
0.6190856606
20
18.6934392764
30
0.0000000000
10
-0.0058714968
20
18.5444539445
30
0.0000000000
10
-0.4560176868
20
18.6778878305
30
0.0000000000
10
-0.4998667307
20
18.5987620016
30
0.0000000000
11
6.4998667307
21
18.5987620016
31
0.0000000000
11
6.2263154035
21
18.6219128389
31
0.0000000000
11
5.4651605554
21
18.6415934332
31
0.0000000000
11
4.3318094135
21
18.6547256123
31
0.0000000000
11
2.9955177343
21
18.6593215336
31
0.0000000000
11
1.6605882640
21
18.6546705222
31
0.0000000000
11
0.5292796072
21
18.6414961262
31
0.0000000000
11
-0.2294543758
21
18.6217810652
31
0.0000000000
11
-0.4998667307
21
18.5987620016
31
0.0000000000
0
SPLINE
5
518
100
AcDbEntity
8
0
100
AcDbSpline
62
9
6
CONTINUOUS
70
0
71
3
72
12
73
8
74
6
42
0.0000001000
43
0.0000001000
44
0.0000000001
12
5.4742787637
22
0.0024526642
32
0.0000000000
13
0.0016492796
23
5.4742790647
33
0.0000000000
40
0.0000000000
40
0.0000000000
40
0.0000000000
40
0.0000000000
40
0.2002646868
40
0.4002516465
40
0.6003722885
40
0.8003125006
40
1.0000000000
40
1.0000000000
40
1.0000000000
40
1.0000000000
10
7.0202141485
20
-18.5196810816
30
0.0000000000
10
7.3856490559
20
-18.5195173542
30
0.0000000000
10
8.1211658157
20
-18.4033493526
30
0.0000000000
10
9.1123870266
20
-17.8973102559
30
0.0000000000
10
9.8993226029
20
-17.1096082567
30
0.0000000000
10
10.4038562044
20
-16.1189289776
30
0.0000000000
10
10.5195713014
20
-15.3845958477
30
0.0000000000
10
10.5196810816
20
-15.0202141485
30
0.0000000000
11
7.0202141485
21
-18.5196810816
31
0.0000000000
11
8.1029760235
21
-18.3478934010
31
0.0000000000
11
9.0782242593
21
-17.8504560398
31
0.0000000000
11
9.8524883829
21
-17.0754263565
31
0.0000000000
11
10.3488819203
21
-16.0999335376
31
0.0000000000
11
10.5196810816
21
-15.0202141485
31
0.0000000000
0
SPLINE
5
519
100
AcDbEntity
8
0
100
AcDbSpline
62
9
6
CONTINUOUS
70
0
71
3
72
12
73
8
74
6
42
0.0000001000
43
0.0000001000
44
0.0000000001
12
0.0024526642
22
-5.4742787637
32
0.0000000000
13
5.4742790647
23
-0.0016492796
33
0.0000000000
40
0.0000000000
40
0.0000000000
40
0.0000000000
40
0.0000000000
40
0.2002646868
40
0.4002516465
40
0.6003722885
40
0.8003125006
40
1.0000000000
40
1.0000000000
40
1.0000000000
40
1.0000000000
10
-10.5196810816
20
-15.0202141485
30
0.0000000000
10
-10.5195173542
20
-15.3856490559
30
0.0000000000
10
-10.4033493526
20
-16.1211658157
30
0.0000000000
10
-9.8973102559
20
-17.1123870266
30
0.0000000000
10
-9.1096082567
20
-17.8993226029
30
0.0000000000
10
-8.1189289776
20
-18.4038562044
30
0.0000000000
10
-7.3845958477
20
-18.5195713014
30
0.0000000000
10
-7.0202141485
20
-18.5196810816
30
0.0000000000
11
-10.5196810816
21
-15.0202141485
31
0.0000000000
11
-10.3478934010
21
-16.1029760235
31
0.0000000000
11
-9.8504560398
21
-17.0782242593
31
0.0000000000
11
-9.0754263565
21
-17.8524883829
31
0.0000000000
11
-8.0999335376
21
-18.3488819203
31
0.0000000000
11
-7.0202141485
21
-18.5196810816
31
0.0000000000
0
SPLINE
5
51A
100
AcDbEntity
8
0
100
AcDbSpline
62
9
6
CONTINUOUS
70
0
71
3
72
12
73
8
74
6
42
0.0000001000
43
0.0000001000
44
0.0000000001
12
-0.0024526642
22
5.4742787637
32
0.0000000000
13
-5.4742790647
23
0.0016492796
33
0.0000000000
40
0.0000000000
40
0.0000000000
40
0.0000000000
40
0.0000000000
40
0.2002646868
40
0.4002516465
40
0.6003722885
40
0.8003125006
40
1.0000000000
40
1.0000000000
40
1.0000000000
40
1.0000000000
10
10.5196810816
20
15.0202141485
30
0.0000000000
10
10.5195173542
20
15.3856490559
30
0.0000000000
10
10.4033493526
20
16.1211658157
30
0.0000000000
10
9.8973102559
20
17.1123870266
30
0.0000000000
10
9.1096082567
20
17.8993226029
30
0.0000000000
10
8.1189289776
20
18.4038562044
30
0.0000000000
10
7.3845958477
20
18.5195713014
30
0.0000000000
10
7.0202141485
20
18.5196810816
30
0.0000000000
11
10.5196810816
21
15.0202141485
31
0.0000000000
11
10.3478934010
21
16.1029760235
31
0.0000000000
11
9.8504560398
21
17.0782242593
31
0.0000000000
11
9.0754263565
21
17.8524883829
31
0.0000000000
11
8.0999335376
21
18.3488819203
31
0.0000000000
11
7.0202141485
21
18.5196810816
31
0.0000000000
0
SPLINE
5
51B
100
AcDbEntity
8
0
100
AcDbSpline
62
9
6
CONTINUOUS
70
0
71
3
72
12
73
8
74
6
42
0.0000001000
43
0.0000001000
44
0.0000000001
12
-5.4742787637
22
-0.0024526642
32
0.0000000000
13
-0.0016492796
23
-5.4742790647
33
0.0000000000
40
0.0000000000
40
0.0000000000
40
0.0000000000
40
0.0000000000
40
0.2002646868
40
0.4002516465
40
0.6003722885
40
0.8003125006
40
1.0000000000
40
1.0000000000
40
1.0000000000
40
1.0000000000
10
-7.0202141485
20
18.5196810816
30
0.0000000000
10
-7.3856490559
20
18.5195173542
30
0.0000000000
10
-8.1211658157
20
18.4033493526
30
0.0000000000
10
-9.1123870266
20
17.8973102559
30
0.0000000000
10
-9.8993226029
20
17.1096082567
30
0.0000000000
10
-10.4038562044
20
16.1189289776
30
0.0000000000
10
-10.5195713014
20
15.3845958477
30
0.0000000000
10
-10.5196810816
20
15.0202141485
30
0.0000000000
11
-7.0202141485
21
18.5196810816
31
0.0000000000
11
-8.1029760235
21
18.3478934010
31
0.0000000000
11
-9.0782242593
21
17.8504560398
31
0.0000000000
11
-9.8524883829
21
17.0754263565
31
0.0000000000
11
-10.3488819203
21
16.0999335376
31
0.0000000000
11
-10.5196810816
21
15.0202141485
31
0.0000000000
0
SPLINE
5
51C
100
AcDbEntity
8
0
100
AcDbSpline
62
9
6
CONTINUOUS
70
0
71
3
72
10
73
6
74
4
42
0.0000001000
43
0.0000001000
44
0.0000000001
12
-0.0002365061
22
1.5526981772
32
0.0000000000
13
-1.5526981773
23
0.0002364451
33
0.0000000000
40
0.0000000000
40
0.0000000000
40
0.0000000000
40
0.0000000000
40
0.3333126529
40
0.6666544157
40
1.0000000000
40
1.0000000000
40
1.0000000000
40
1.0000000000
10
0.5000951923
20
17.5989143065
30
0.0000000000
10
0.5000689155
20
17.7714256227
30
0.0000000000
10
0.4062773421
20
18.1230702779
30
0.0000000000
10
0.0243227208
20
18.5049675258
30
0.0000000000
10
-0.3273383704
20
18.5987357290
30
0.0000000000
10
-0.4998667307
20
18.5987620016
30
0.0000000000
11
0.5000951923
21
17.5989143065
31
0.0000000000
11
0.3660749087
21
18.0987942498
31
0.0000000000
11
0.0000702640
21
18.4647570624
31
0.0000000000
11
-0.4998667307
21
18.5987620016
31
0.0000000000
0
SPLINE
5
51D
100
AcDbEntity
8
0
100
AcDbSpline
62
9
6
CONTINUOUS
70
0
71
3
72
11
73
7
74
5
42
0.0000001000
43
0.0000001000
44
0.0000000001
12
1.5618921373
22
-0.0274976616
32
0.0000000000
13
-0.0000000000
23
-1.5621341716
33
0.0000000000
40
0.0000000000
40
0.0000000000
40
0.0000000000
40
0.0000000000
40
0.2098493079
40
0.4395289732
40
0.6957286348
40
1.0000000000
40
1.0000000000
40
1.0000000000
40
1.0000000000
10
-0.5394041794
20
18.5196810816
30
0.0000000000
10
-0.4301501847
20
18.5177576265
30
0.0000000000
10
-0.2003222539
20
18.4749178446
30
0.0000000000
10
0.1187855417
20
18.2879741400
30
0.0000000000
10
0.3803410741
20
17.9575088114
30
0.0000000000
10
0.4519070312
20
17.6609682094
30
0.0000000000
10
0.4519070312
20
17.5025306437
30
0.0000000000
11
-0.5394041794
21
18.5196810816
31
0.0000000000
11
-0.2171266121
21
18.4596945427
31
0.0000000000
11
0.0927628153
21
18.2788655282
31
0.0000000000
11
0.3406157650
21
17.9646306481
31
0.0000000000
11
0.4519070312
21
17.5025306437
31
0.0000000000
0
SPLINE
5
51E
100
AcDbEntity
8
0
100
AcDbSpline
62
9
6
CONTINUOUS
70
0
71
3
72
10
73
6
74
4
42
0.0000001000
43
0.0000001000
44
0.0000000001
12
0.0002365208
22
1.5526980338
32
0.0000000000
13
1.5526980337
23
0.0002366705
33
0.0000000000
40
0.0000000000
40
0.0000000000
40
0.0000000000
40
0.0000000000
40
0.3332442117
40
0.6665749723
40
1.0000000000
40
1.0000000000
40
1.0000000000
40
1.0000000000
10
5.4999048077
20
17.5989143065
30
0.0000000000
10
5.4999310807
20
17.7713901839
30
0.0000000000
10
5.5936902072
20
18.1229897954
30
0.0000000000
10
5.9755962127
20
18.5049326968
30
0.0000000000
10
6.3272971279
20
18.5987356950
30
0.0000000000
10
6.4998665895
20
18.5987619989
30
0.0000000000
11
5.4999048077
21
17.5989143065
31
0.0000000000
11
5.6338700588
21
18.0986989324
31
0.0000000000
11
5.9998190694
21
18.4646931521
31
0.0000000000
11
6.4998665895
21
18.5987619989
31
0.0000000000
0
SPLINE
5
51F
100
AcDbEntity
8
0
100
AcDbSpline
62
9
6
CONTINUOUS
70
0
71
3
72
11
73
7
74
5
42
0.0000001000
43
0.0000001000
44
0.0000000001
12
1.5450762202
22
0.0272016114
32
0.0000000000
13
0.0000000000
23
1.5453156487
33
0.0000000000
40
0.0000000000
40
0.0000000000
40
0.0000000000
40
0.0000000000
40
0.2137094620
40
0.4443296284
40
0.7013596516
40
1.0000000000
40
1.0000000000
40
1.0000000000
40
1.0000000000
10
-6.5394041794
20
-18.5196810816
30
0.0000000000
10
-6.4293383768
20
-18.5177433343
30
0.0000000000
10
-6.1995332117
20
-18.4745872651
30
0.0000000000
10
-5.8813348109
20
-18.2878527719
30
0.0000000000
10
-5.6248447837
20
-17.9629201953
30
0.0000000000
10
-5.5480929688
20
-17.6736645877
30
0.0000000000
10
-5.5480929688
20
-17.5198333864
30
0.0000000000
11
-6.5394041794
21
-18.5196810816
31
0.0000000000
11
-6.2148071342
21
-18.4588462219
31
0.0000000000
11
-5.9072208533
21
-18.2788516034
31
0.0000000000
11
-5.6607790258
21
-17.9673579097
31
0.0000000000
11
-5.5480929688
21
-17.5198333864
31
0.0000000000
0
SPLINE
5
520
100
AcDbEntity
8
0
100
AcDbSpline
62
9
6
CONTINUOUS
70
0
71
3
72
10
73
6
74
4
42
0.0000001000
43
0.0000001000
44
0.0000000001
12
-0.0002365197
22
-1.5526980098
32
0.0000000000
13
-1.5526980098
23
-0.0002367088
33
0.0000000000
40
0.0000000000
40
0.0000000000
40
0.0000000000
40
0.0000000000
40
0.3332385499
40
0.6665684445
40
1.0000000000
40
1.0000000000
40
1.0000000000
40
1.0000000000
10
-5.4999048077
20
-17.5989143065
30
0.0000000000
10
-5.4999310802
20
-17.7713872509
30
0.0000000000
10
-5.5936875257
20
-18.1229831566
30
0.0000000000
10
-5.9755895239
20
-18.5049298252
30
0.0000000000
10
-6.3272937271
20
-18.5987356903
30
0.0000000000
10
-6.4998665647
20
-18.5987619990
30
0.0000000000
11
-5.4999048077
21
-17.5989143065
31
0.0000000000
11
-5.6338655038
21
-18.0986910437
31
0.0000000000
11
-5.9998099683
21
-18.4646878961
31
0.0000000000
11
-6.4998665647
21
-18.5987619990
31
0.0000000000
0
SPLINE
5
521
100
AcDbEntity
8
0
100
AcDbSpline
62
9
6
CONTINUOUS
70
0
71
3
72
10
73
6
74
4
42
0.0000001000
43
0.0000001000
44
0.0000000001
12
0.0002365065
22
-1.5526981772
32
0.0000000000
13
1.5526981772
23
-0.0002364450
33
0.0000000000
40
0.0000000000
40
0.0000000000
40
0.0000000000
40
0.0000000000
40
0.3333126477
40
0.6666544152
40
1.0000000000
40
1.0000000000
40
1.0000000000
40
1.0000000000
10
-0.5000951923
20
-17.5989143065
30
0.0000000000
10
-0.5000689155
20
-17.7714256200
30
0.0000000000
10
-0.4062773437
20
-18.1230702746
30
0.0000000000
10
-0.0243227238
20
-18.5049675250
30
0.0000000000
10
0.3273383701
20
-18.5987357290
30
0.0000000000
10
0.4998667307
20
-18.5987620016
30
0.0000000000
11
-0.5000951923
21
-17.5989143065
31
0.0000000000
11
-0.3660749128
21
-18.0987942426
31
0.0000000000
11
-0.0000702647
21
-18.4647570619
31
0.0000000000
11
0.4998667307
21
-18.5987620016
31
0.0000000000
0
SPLINE
5
522
100
AcDbEntity
8
0
100
AcDbSpline
62
9
6
CONTINUOUS
70
0
71
3
72
11
73
7
74
5
42
0.0000001000
43
0.0000001000
44
0.0000000001
12
-1.5618921373
22
0.0274976616
32
0.0000000000
13
0.0000000000
23
1.5621341716
33
0.0000000000
40
0.0000000000
40
0.0000000000
40
0.0000000000
40
0.0000000000
40
0.2098493079
40
0.4395289732
40
0.6957286348
40
1.0000000000
40
1.0000000000
40
1.0000000000
40
1.0000000000
10
0.5394041794
20
-18.5196810816
30
0.0000000000
10
0.4301501847
20
-18.5177576265
30
0.0000000000
10
0.2003222539
20
-18.4749178446
30
0.0000000000
10
-0.1187855417
20
-18.2879741400
30
0.0000000000
10
-0.3803410741
20
-17.9575088114
30
0.0000000000
10
-0.4519070312
20
-17.6609682094
30
0.0000000000
10
-0.4519070312
20
-17.5025306437
30
0.0000000000
11
0.5394041794
21
-18.5196810816
31
0.0000000000
11
0.2171266121
21
-18.4596945427
31
0.0000000000
11
-0.0927628153
21
-18.2788655282
31
0.0000000000
11
-0.3406157650
21
-17.9646306481
31
0.0000000000
11
-0.4519070312
21
-17.5025306437
31
0.0000000000
0
SPLINE
5
523
100
AcDbEntity
8
0
100
AcDbSpline
62
9
6
CONTINUOUS
70
0
71
3
72
11
73
7
74
5
42
0.0000001000
43
0.0000001000
44
0.0000000001
12
-1.5450762202
22
-0.0272016114
32
0.0000000000
13
0.0000000000
23
-1.5453156487
33
0.0000000000
40
0.0000000000
40
0.0000000000
40
0.0000000000
40
0.0000000000
40
0.2137094620
40
0.4443296284
40
0.7013596516
40
1.0000000000
40
1.0000000000
40
1.0000000000
40
1.0000000000
10
6.5394041794
20
18.5196810816
30
0.0000000000
10
6.4293383768
20
18.5177433343
30
0.0000000000
10
6.1995332117
20
18.4745872651
30
0.0000000000
10
5.8813348109
20
18.2878527719
30
0.0000000000
10
5.6248447837
20
17.9629201953
30
0.0000000000
10
5.5480929688
20
17.6736645877
30
0.0000000000
10
5.5480929688
20
17.5198333864
30
0.0000000000
11
6.5394041794
21
18.5196810816
31
0.0000000000
11
6.2148071342
21
18.4588462219
31
0.0000000000
11
5.9072208533
21
18.2788516034
31
0.0000000000
11
5.6607790258
21
17.9673579097
31
0.0000000000
11
5.5480929688
21
17.5198333864
31
0.0000000000
0
SPLINE
5
524
100
AcDbEntity
8
0
100
AcDbSpline
62
9
6
CONTINUOUS
70
0
71
3
72
10
73
6
74
4
42
0.0000001000
43
0.0000001000
44
0.0000000001
12
-1.0006592567
22
0.0000000000
32
0.0000000000
13
-0.7075729460
23
0.7075729460
33
0.0000000000
40
0.0000000000
40
0.0000000000
40
0.0000000000
40
0.0000000000
40
0.4924209373
40
0.8585872867
40
1.0000000000
40
1.0000000000
40
1.0000000000
40
1.0000000000
10
-1.4669721784
20
18.9185155063
30
0.0000000000
10
-1.6312207014
20
18.9185155063
30
0.0000000000
10
-1.9264909233
20
18.9017170660
30
0.0000000000
10
-2.2342842262
20
18.9585002356
30
0.0000000000
10
-2.4339476078
20
18.9025284909
30
0.0000000000
10
-2.4673008778
20
18.9358817610
30
0.0000000000
11
-1.4669721784
21
18.9185155063
31
0.0000000000
11
-1.9597124106
21
18.9208088362
31
0.0000000000
11
-2.3260655490
21
18.9271345848
31
0.0000000000
11
-2.4673008778
21
18.9358817610
31
0.0000000000
0
SPLINE
5
525
100
AcDbEntity
8
0
100
AcDbSpline
62
9
6
CONTINUOUS
70
0
71
3
72
10
73
6
74
4
42
0.0000001000
43
0.0000001000
44
0.0000000001
12
-0.7075729460
22
-0.7075729460
32
0.0000000000
13
-1.0006592567
23
-0.0000000000
33
0.0000000000
40
0.0000000000
40
0.0000000000
40
0.0000000000
40
0.0000000000
40
0.1414127133
40
0.5075790627
40
1.0000000000
40
1.0000000000
40
1.0000000000
40
1.0000000000
10
2.4673008778
20
18.9358817610
30
0.0000000000
10
2.4339476078
20
18.9025284909
30
0.0000000000
10
2.2342842262
20
18.9585002356
30
0.0000000000
10
1.9264909233
20
18.9017170660
30
0.0000000000
10
1.6312207014
20
18.9185155063
30
0.0000000000
10
1.4669721784
20
18.9185155063
30
0.0000000000
11
2.4673008778
21
18.9358817610
31
0.0000000000
11
2.3260655490
21
18.9271345848
31
0.0000000000
11
1.9597124106
21
18.9208088362
31
0.0000000000
11
1.4669721784
21
18.9185155063
31
0.0000000000
0
SPLINE
5
526
100
AcDbEntity
8
0
100
AcDbSpline
62
9
6
CONTINUOUS
70
0
71
3
72
10
73
6
74
4
42
0.0000001000
43
0.0000001000
44
0.0000000001
12
0.7075729476
22
0.7075729476
32
0.0000000000
13
1.0006592589
23
0.0000000000
33
0.0000000000
40
0.0000000000
40
0.0000000000
40
0.0000000000
40
0.0000000000
40
0.1414074524
40
0.5075873873
40
1.0000000000
40
1.0000000000
40
1.0000000000
40
1.0000000000
10
-2.4673008778
20
-18.9358817610
30
0.0000000000
10
-2.4339488486
20
-18.9025297317
30
0.0000000000
10
-2.2342825356
20
-18.9585013942
30
0.0000000000
10
-1.9264899008
20
-18.9017171420
30
0.0000000000
10
-1.6312179250
20
-18.9185155063
30
0.0000000000
10
-1.4669721784
20
-18.9185155063
30
0.0000000000
11
-2.4673008778
21
-18.9358817610
31
0.0000000000
11
-2.3260708135
21
-18.9271347407
31
0.0000000000
11
-1.9597040819
21
-18.9208087529
31
0.0000000000
11
-1.4669721784
21
-18.9185155063
31
0.0000000000
0
SPLINE
5
527
100
AcDbEntity
8
0
100
AcDbSpline
62
9
6
CONTINUOUS
70
0
71
3
72
10
73
6
74
4
42
0.0000001000
43
0.0000001000
44
0.0000000001
12
1.0006592567
22
0.0000000000
32
0.0000000000
13
0.7075729460
23
-0.7075729460
33
0.0000000000
40
0.0000000000
40
0.0000000000
40
0.0000000000
40
0.0000000000
40
0.4924209373
40
0.8585872867
40
1.0000000000
40
1.0000000000
40
1.0000000000
40
1.0000000000
10
1.4669721784
20
-18.9185155063
30
0.0000000000
10
1.6312207014
20
-18.9185155063
30
0.0000000000
10
1.9264909233
20
-18.9017170660
30
0.0000000000
10
2.2342842262
20
-18.9585002356
30
0.0000000000
10
2.4339476078
20
-18.9025284909
30
0.0000000000
10
2.4673008778
20
-18.9358817610
30
0.0000000000
11
1.4669721784
21
-18.9185155063
31
0.0000000000
11
1.9597124106
21
-18.9208088362
31
0.0000000000
11
2.3260655490
21
-18.9271345848
31
0.0000000000
11
2.4673008778
21
-18.9358817610
31
0.0000000000
0
SPLINE
5
528
100
AcDbEntity
8
0
100
AcDbSpline
62
9
6
CONTINUOUS
70
0
71
3
72
12
73
8
74
6
42
0.0000001000
43
0.0000001000
44
0.0000000001
12
0.0029141916
22
-3.9103137040
32
0.0000000000
13
3.9103144352
23
-0.0016657059
33
0.0000000000
40
0.0000000000
40
0.0000000000
40
0.0000000000
40
0.0000000000
40
0.1998279164
40
0.4002134451
40
0.6007845058
40
0.8007731058
40
1.0000000000
40
1.0000000000
40
1.0000000000
40
1.0000000000
10
-9.5198333864
20
-15.0202141485
30
0.0000000000
10
-9.5196392742
20
-15.2806774286
30
0.0000000000
10
-9.4370983381
20
-15.8060010730
30
0.0000000000
10
-9.0755759508
20
-16.5147480311
30
0.0000000000
10
-8.5118183168
20
-17.0774923223
30
0.0000000000
10
-7.8038951319
20
-17.4375265280
30
0.0000000000
10
-7.2798940820
20
-17.5197227686
30
0.0000000000
10
-7.0202141485
20
-17.5198333864
30
0.0000000000
11
-9.5198333864
21
-15.0202141485
31
0.0000000000
11
-9.3977516067
21
-15.7920084607
31
0.0000000000
11
-9.0420015790
21
-16.4901664948
31
0.0000000000
11
-8.4869500734
21
-17.0442766090
31
0.0000000000
11
-7.7897431041
21
-17.3984731489
31
0.0000000000
11
-7.0202141485
21
-17.5198333864
31
0.0000000000
0
SPLINE
5
529
100
AcDbEntity
8
0
100
AcDbSpline
62
9
6
CONTINUOUS
70
0
71
3
72
12
73
8
74
6
42
0.0000001000
43
0.0000001000
44
0.0000000001
12
-3.9103137040
22
-0.0029141916
32
0.0000000000
13
-0.0016657059
23
-3.9103144352
33
0.0000000000
40
0.0000000000
40
0.0000000000
40
0.0000000000
40
0.0000000000
40
0.1998279164
40
0.4002134451
40
0.6007845058
40
0.8007731058
40
1.0000000000
40
1.0000000000
40
1.0000000000
40
1.0000000000
10
-7.0202141485
20
17.5198333864
30
0.0000000000
10
-7.2806774286
20
17.5196392742
30
0.0000000000
10
-7.8060010730
20
17.4370983381
30
0.0000000000
10
-8.5147480311
20
17.0755759508
30
0.0000000000
10
-9.0774923223
20
16.5118183168
30
0.0000000000
10
-9.4375265280
20
15.8038951319
30
0.0000000000
10
-9.5197227686
20
15.2798940820
30
0.0000000000
10
-9.5198333864
20
15.0202141485
30
0.0000000000
11
-7.0202141485
21
17.5198333864
31
0.0000000000
11
-7.7920084607
21
17.3977516067
31
0.0000000000
11
-8.4901664948
21
17.0420015790
31
0.0000000000
11
-9.0442766090
21
16.4869500734
31
0.0000000000
11
-9.3984731489
21
15.7897431041
31
0.0000000000
11
-9.5198333864
21
15.0202141485
31
0.0000000000
0
SPLINE
5
52A
100
AcDbEntity
8
0
100
AcDbSpline
62
9
6
CONTINUOUS
70
0
71
3
72
12
73
8
74
6
42
0.0000001000
43
0.0000001000
44
0.0000000001
12
-0.0029141916
22
3.9103137040
32
0.0000000000
13
-3.9103144352
23
0.0016657059
33
0.0000000000
40
0.0000000000
40
0.0000000000
40
0.0000000000
40
0.0000000000
40
0.1998279164
40
0.4002134451
40
0.6007845058
40
0.8007731058
40
1.0000000000
40
1.0000000000
40
1.0000000000
40
1.0000000000
10
9.5198333864
20
15.0202141485
30
0.0000000000
10
9.5196392742
20
15.2806774286
30
0.0000000000
10
9.4370983381
20
15.8060010730
30
0.0000000000
10
9.0755759508
20
16.5147480311
30
0.0000000000
10
8.5118183168
20
17.0774923223
30
0.0000000000
10
7.8038951319
20
17.4375265280
30
0.0000000000
10
7.2798940820
20
17.5197227686
30
0.0000000000
10
7.0202141485
20
17.5198333864
30
0.0000000000
11
9.5198333864
21
15.0202141485
31
0.0000000000
11
9.3977516067
21
15.7920084607
31
0.0000000000
11
9.0420015790
21
16.4901664948
31
0.0000000000
11
8.4869500734
21
17.0442766090
31
0.0000000000
11
7.7897431041
21
17.3984731489
31
0.0000000000
11
7.0202141485
21
17.5198333864
31
0.0000000000
0
SPLINE
5
52B
100
AcDbEntity
8
0
100
AcDbSpline
62
9
6
CONTINUOUS
70
0
71
3
72
12
73
8
74
6
42
0.0000001000
43
0.0000001000
44
0.0000000001
12
3.9103137040
22
0.0029141916
32
0.0000000000
13
0.0016657059
23
3.9103144352
33
0.0000000000
40
0.0000000000
40
0.0000000000
40
0.0000000000
40
0.0000000000
40
0.1998279164
40
0.4002134451
40
0.6007845058
40
0.8007731058
40
1.0000000000
40
1.0000000000
40
1.0000000000
40
1.0000000000
10
7.0202141485
20
-17.5198333864
30
0.0000000000
10
7.2806774286
20
-17.5196392742
30
0.0000000000
10
7.8060010730
20
-17.4370983381
30
0.0000000000
10
8.5147480311
20
-17.0755759508
30
0.0000000000
10
9.0774923223
20
-16.5118183168
30
0.0000000000
10
9.4375265280
20
-15.8038951319
30
0.0000000000
10
9.5197227686
20
-15.2798940820
30
0.0000000000
10
9.5198333864
20
-15.0202141485
30
0.0000000000
11
7.0202141485
21
-17.5198333864
31
0.0000000000
11
7.7920084607
21
-17.3977516067
31
0.0000000000
11
8.4901664948
21
-17.0420015790
31
0.0000000000
11
9.0442766090
21
-16.4869500734
31
0.0000000000
11
9.3984731489
21
-15.7897431041
31
0.0000000000
11
9.5198333864
21
-15.0202141485
31
0.0000000000
0
ENDSEC
0
SECTION
2
OBJECTS
0
DICTIONARY
5
C
100
AcDbDictionary
280
0
281
1
3
ACAD_GROUP
350
D
3
ACAD_MLINESTYLE
350
17
3
ACAD_LAYOUT
350
1A
3
ACAD_PLOTSETTINGS
350
19
3
ACAD_PLOTSTYLENAME
350
E
0
DICTIONARY
5
D
102
{ACAD_REACTORS
330
C
102
}
100
AcDbDictionary
280
0
281
1
0
ACDBDICTIONARYWDFLT
5
E
102
{ACAD_REACTORS
330
C
102
}
100
AcDbDictionary
281
1
3
Normal
350
F
100
AcDbDictionaryWithDefault
340
F
0
DICTIONARY
5
17
102
{ACAD_REACTORS
330
C
102
}
100
AcDbDictionary
280
0
281
1
3
Standard
350
18
0
DICTIONARY
5
19
102
{ACAD_REACTORS
330
C
102
}
100
AcDbDictionary
281
1
0
DICTIONARY
5
1A
102
{ACAD_REACTORS
330
C
102
}
100
AcDbDictionary
281
1
3
Layout1
350
1E
3
Model
350
22
0
ACDBPLACEHOLDER
5
F
102
{ACAD_REACTORS
330
E
102
}
0
MLINESTYLE
5
18
102
{ACAD_REACTORS
330
17
102
}
100
AcDbMlineStyle
2
STANDARD
70
0
3

62
256
51
90.0
52
90.0
71
2
49
0.5
62
256
6
BYLAYER
49
-0.5
62
256
6
BYLAYER
0
LAYOUT
5
1E
102
{ACAD_REACTORS
330
1A
102
}
100
AcDbPlotSettings
1

2

4

6

40
0.0
41
0.0
42
0.0
43
0.0
44
0.0
45
0.0
46
0.0
47
0.0
48
0.0
49
0.0
140
0.0
141
0.0
142
1.0
143
1.0
70
0
72
0
73
0
74
0
7

75
0
147
1.0
148
0.0
149
0.0
100
AcDbLayout
1
Layout1
70
0
71
0
10
0.0
20
0.0
11
0.0
21
0.0
12
0.0
22
0.0
32
0.0
14
0.0
24
0.0
34
0.0
15
0.0
25
0.0
35
0.0
146
0.0
13
0.0
23
0.0
33
0.0
16
0.0
26
0.0
36
0.0
17
0.0
27
0.0
37
0.0
76
0
330
1B
331
0
345
0
346
0
0
LAYOUT
5
22
102
{ACAD_REACTORS
330
1A
102
}
100
AcDbPlotSettings
1

2

4

6

40
0.0
41
0.0
42
0.0
43
0.0
44
0.0
45
0.0
46
0.0
47
0.0
48
0.0
49
0.0
140
0.0
141
0.0
142
1.0
143
1.0
70
0
72
0
73
0
74
0
7

75
0
147
1.0
148
0.0
149
0.0
100
AcDbLayout
1
Model
70
0
71
0
10
0.0
20
0.0
11
0.0
21
0.0
12
0.0
22
0.0
32
0.0
14
0.0
24
0.0
34
0.0
15
0.0
25
0.0
35
0.0
146
0.0
13
0.0
23
0.0
33
0.0
16
0.0
26
0.0
36
0.0
17
0.0
27
0.0
37
0.0
76
0
330
1F
331
0
345
0
346
0
0
ENDSEC
0
EOF
