  0
SECTION
  2
HEADER
  9
$ACADVER
  1
AC1024
  9
$DWGCODEPAGE
  3
ANSI_1252
  9
$EXTMAX
 10
297.0
 20
210.0
 30
0.0
  9
$EXTMIN
 10
0.0
 20
0.0
 30
0.0
  9
$LIMMIN
 10
0.0
 20
0.0
  9
$LIMMAX
 10
297.0
 20
210.0
  9
$VIEWCTR
 10
148.5
 20
105.0
  9
$VIEWSIZE
 40
210.0
  9
$CLAYER
  8
0
  9
$LTSCALE
 40
16.335
  9
$CELTYPE
  6
BYLAYER
  9
$DIMSCALE
 40
1.0
  9
$DIMASZ
 40
3.0
  9
$DIMEXO
 40
0.5
  9
$DIMDLI
 40
11.286
  9
$DIMEXE
 40
1.5
  9
$DIMCEN
 40
2.673
  9
$DIMLFAC
 40
1.0
  9
$DIMBLK
  1
_FILLED
  9
$DIMALT
 70
0
  9
$DIMALTF
 40
0.0393700787
  9
$DIMTXT
 40
3.0
  9
$DIMTOL
 70
1
  9
$DIMLIM
 70
0
  9
$DIMTFAC
 40
1.0
  9
$DIMTP
 40
0.01
  9
$DIMTM
 40
0.01
  9
$DIMGAP
 40
0.625
  9
$DIMDSEP
 70
44
  9
$AUNITS
 70
0
  9
$PDMODE
 70
3
  9
$PDSIZE
 40
3.0
  9
$HANDSEED
  5
3B5
  9
$TILEMODE
 70
1
  9
$MEASUREMENT
 70
1
  9
$INSUNITS
 70
4
  0
ENDSEC
  0
SECTION
  2
CLASSES
  0
CLASS
  1
ACDBDICTIONARYWDFLT
  2
AcDbDictionaryWithDefault
  3
AutoCAD 2000
 90
0
 91
1
280
0
281
0
  0
CLASS
  1
ACDBPLACEHOLDER
  2
AcDbPlaceHolder
  3
AutoCAD 2000
 90
0
 91
1
280
0
281
0
  0
CLASS
  1
LAYOUT
  2
AcDbLayout
  3
AutoCAD 2000
 90
0
 91
0
280
0
281
0
  0
ENDSEC
  0
SECTION
  2
TABLES
  0
TABLE
  2
VPORT
  5
8
100
AcDbSymbolTable
 70
2
  0
VPORT
  5
1F4
100
AcDbSymbolTableRecord
100
AcDbViewportTableRecord
  2
*ACTIVE
 70
0
 10
0.0
 20
0.0
 11
1.0
 21
1.0
 12
148.5
 22
105.0
 13
0.0
 23
0.0
 14
1.0
 24
1.0
 15
0.0
 25
0.0
 16
0.0
 26
0.0
 36
1.0
 17
0.0
 27
0.0
 37
0.0
 40
210.0
 41
1.4142857143
 42
50.0
 43
0.0
 44
0.0
 50
0.0
 51
0.0
 71
0
 72
100
 73
1
 74
1
 75
0
 76
0
 77
0
 78
0
  0
ENDTAB
  0
TABLE
  2
LTYPE
  5
5
100
AcDbSymbolTable
 70
6
  0
LTYPE
  5
14
100
AcDbSymbolTableRecord
100
AcDbLinetypeTableRecord
  2
BYBLOCK
 70
0
  3

 72
65
 73
0
 40
0.0
  0
LTYPE
  5
15
100
AcDbSymbolTableRecord
100
AcDbLinetypeTableRecord
  2
BYLAYER
 70
0
  3

 72
65
 73
0
 40
0.0
  0
LTYPE
  5
16
100
AcDbSymbolTableRecord
100
AcDbLinetypeTableRecord
  2
CONTINUOUS
 70
64
  3
Solid line
 72
65
 73
0
 40
0.0
  0
LTYPE
  5
1F5
100
AcDbSymbolTableRecord
100
AcDbLinetypeTableRecord
  2
CENTER
 70
64
  3
____ _ ____ _ ____ _ ____ _ ____ _ ____ _ ____
 72
65
 73
4
 40
0.6
 49
0.375
 74
0
 49
-0.075
 74
0
 49
0.075
 74
0
 49
-0.075
 74
0
  0
LTYPE
  5
1F6
100
AcDbSymbolTableRecord
100
AcDbLinetypeTableRecord
  2
HIDDEN
 70
64
  3
- - - - - - - - - - - - - - - - - - - -
 72
65
 73
2
 40
0.2
 49
0.1
 74
0
 49
-0.1
 74
0
  0
LTYPE
  5
1F7
100
AcDbSymbolTableRecord
100
AcDbLinetypeTableRecord
  2
PHANTOM
 70
64
  3
_____ _ _ _____ _ _ _____ _ _ _____
 72
65
 73
6
 40
0.8
 49
0.45
 74
0
 49
-0.05
 74
0
 49
0.1
 74
0
 49
-0.05
 74
0
 49
0.1
 74
0
 49
-0.05
 74
0
  0
LTYPE
  5
1F8
100
AcDbSymbolTableRecord
100
AcDbLinetypeTableRecord
  2
DOT
 70
64
  3
. . . . . . . . . . . . . . . . . . . .
 72
65
 73
2
 40
0.2
 49
0.1
 74
0
 49
-0.1
 74
0
  0
LTYPE
  5
1F9
100
AcDbSymbolTableRecord
100
AcDbLinetypeTableRecord
  2
DASHED
 70
64
  3
- - - - - - - - - - - - - - - - - - - -
 72
65
 73
2
 40
0.2
 49
0.1
 74
0
 49
-0.1
 74
0
  0
ENDTAB
  0
TABLE
  2
LAYER
  5
2
100
AcDbSymbolTable
 70
36
  0
LAYER
  5
10
100
AcDbSymbolTableRecord
100
AcDbLayerTableRecord
  2
0
 70
0
 62
7
  6
CONTINUOUS
370
-3
390
F
  0
LAYER
  5
1FA
100
AcDbSymbolTableRecord
100
AcDbLayerTableRecord
  2
DEFAULT_1
 70
0
 62
7
  6
CENTER
370
-3
390
F
  0
LAYER
  5
1FB
100
AcDbSymbolTableRecord
100
AcDbLayerTableRecord
  2
DEFAULT_2
 70
0
 62
7
  6
HIDDEN
370
-3
390
F
  0
LAYER
  5
1FC
100
AcDbSymbolTableRecord
100
AcDbLayerTableRecord
  2
DEFAULT_3
 70
0
 62
7
  6
PHANTOM
370
-3
390
F
  0
LAYER
  5
1FD
100
AcDbSymbolTableRecord
100
AcDbLayerTableRecord
  2
ASSI
 70
0
 62
7
  6
CONTINUOUS
370
-3
390
F
  0
LAYER
  5
1FE
100
AcDbSymbolTableRecord
100
AcDbLayerTableRecord
  2
COORDINATE
 70
0
 62
7
  6
CONTINUOUS
370
-3
390
F
  0
LAYER
  5
1FF
100
AcDbSymbolTableRecord
100
AcDbLayerTableRecord
  2
COPY_PUBLISH
 70
0
 62
7
  6
CONTINUOUS
370
-3
390
F
  0
LAYER
  5
200
100
AcDbSymbolTableRecord
100
AcDbLayerTableRecord
  2
COSMETIC
 70
0
 62
7
  6
CONTINUOUS
370
-3
390
F
  0
LAYER
  5
201
100
AcDbSymbolTableRecord
100
AcDbLayerTableRecord
  2
COSMETICI
 70
0
 62
7
  6
CONTINUOUS
370
-3
390
F
  0
LAYER
  5
202
100
AcDbSymbolTableRecord
100
AcDbLayerTableRecord
  2
CURVE
 70
0
 62
7
  6
CONTINUOUS
370
-3
390
F
  0
LAYER
  5
203
100
AcDbSymbolTableRecord
100
AcDbLayerTableRecord
  2
DRAFT
 70
0
 62
7
  6
CONTINUOUS
370
-3
390
F
  0
LAYER
  5
204
100
AcDbSymbolTableRecord
100
AcDbLayerTableRecord
  2
IMPORT_IGES
 70
0
 62
7
  6
CONTINUOUS
370
-3
390
F
  0
LAYER
  5
205
100
AcDbSymbolTableRecord
100
AcDbLayerTableRecord
  2
NOTE
 70
0
 62
7
  6
CONTINUOUS
370
-3
390
F
  0
LAYER
  5
206
100
AcDbSymbolTableRecord
100
AcDbLayerTableRecord
  2
PIANI
 70
0
 62
7
  6
CONTINUOUS
370
-3
390
F
  0
LAYER
  5
207
100
AcDbSymbolTableRecord
100
AcDbLayerTableRecord
  2
PUNTI
 70
0
 62
7
  6
CONTINUOUS
370
-3
390
F
  0
LAYER
  5
208
100
AcDbSymbolTableRecord
100
AcDbLayerTableRecord
  2
RACCORDO
 70
0
 62
7
  6
CONTINUOUS
370
-3
390
F
  0
LAYER
  5
209
100
AcDbSymbolTableRecord
100
AcDbLayerTableRecord
  2
SIMBOLI
 70
0
 62
7
  6
CONTINUOUS
370
-3
390
F
  0
LAYER
  5
20A
100
AcDbSymbolTableRecord
100
AcDbLayerTableRecord
  2
SMUSSO
 70
0
 62
7
  6
CONTINUOUS
370
-3
390
F
  0
LAYER
  5
20B
100
AcDbSymbolTableRecord
100
AcDbLayerTableRecord
  2
SUPERFICI
 70
0
 62
7
  6
CONTINUOUS
370
-3
390
F
  0
LAYER
  5
20C
100
AcDbSymbolTableRecord
100
AcDbLayerTableRecord
  2
TRASH
 70
0
 62
7
  6
CONTINUOUS
370
-3
390
F
  0
ENDTAB
  0
TABLE
  2
STYLE
  5
3
100
AcDbSymbolTable
 70
1
  0
STYLE
  5
11
100
AcDbSymbolTableRecord
100
AcDbTextStyleTableRecord
  2
STANDARD
 70
0
 40
0.0
 41
0.8
 50
0.0
 71
0
 42
0.2
  3
txt
  4

  0
STYLE
  5
20D
100
AcDbSymbolTableRecord
100
AcDbTextStyleTableRecord
  2
TEXTSTYLE_1
 70
0
 40
0.0
 41
0.8
 50
0.0
 71
0
 42
0.2
  3
gdt
  4

  0
ENDTAB
  0
TABLE
  2
VIEW
  5
6
100
AcDbSymbolTable
 70
0
  0
ENDTAB
  0
TABLE
  2
UCS
  5
7
100
AcDbSymbolTable
 70
0
  0
ENDTAB
  0
TABLE
  2
APPID
  5
9
100
AcDbSymbolTable
 70
1
  0
APPID
  5
20E
100
AcDbSymbolTableRecord
100
AcDbRegAppTableRecord
  2
ACAD
 70
0
  0
ENDTAB
  0
TABLE
  2
BLOCK_RECORD
  5
1
100
AcDbSymbolTable
 70
0
  0
BLOCK_RECORD
  5
20F
100
AcDbSymbolTableRecord
100
AcDbBlockTableRecord
  2
*Model_Space
  0
BLOCK_RECORD
  5
210
100
AcDbSymbolTableRecord
100
AcDbBlockTableRecord
  2
*Paper_Space
  0
BLOCK_RECORD
  5
211
100
AcDbSymbolTableRecord
100
AcDbBlockTableRecord
  2
_FILLED
  0
ENDTAB
  0
TABLE
  2
DIMSTYLE
  5
A
100
AcDbSymbolTable
 70
1
100
AcDbDimStyleTable
 71
0
  0
DIMSTYLE
105
212
100
AcDbSymbolTableRecord
100
AcDbDimStyleTableRecord
  2
STANDARD
 70
0
  3

  4

 40
1.0
 41
3.0
 42
0.5
 43
0.38
 44
1.5
 45
0.0
 46
0.0
 47
0.01
 48
0.01
140
3.0
141
0.09
142
0.0
143
25.4
144
1.0
145
0.0
146
1.0
147
0.625
 71
1
 72
0
 73
0
 74
0
 75
0
 76
0
 77
1
 78
8
 79
2
170
0
171
1
172
0
173
0
174
0
175
0
176
0
177
0
178
0
270
2
179
2
271
2
272
2
273
2
274
2
275
0
280
0
281
0
282
0
283
1
284
8
285
0
286
0
287
3
288
0
340
11
278
44
341
211
342
211
343
211
344
211
  0
ENDTAB
  0
ENDSEC
  0
SECTION
  2
BLOCKS
  0
BLOCK
  5
20
100
AcDbEntity
  8
0
100
AcDbBlockBegin
  2
*Model_Space
 70
0
 10
0.0
 20
0.0
 30
0.0
  3
*Model_Space
  1

  0
ENDBLK
  5
21
100
AcDbEntity
  8
0
100
AcDbBlockEnd
  0
BLOCK
  5
1C
100
AcDbEntity
  8
0
100
AcDbBlockBegin
  2
*Paper_Space
 70
0
 10
0.0
 20
0.0
 30
0.0
  3
*Paper_Space
  1

  0
ENDBLK
  5
1D
100
AcDbEntity
  8
0
100
AcDbBlockEnd
  0
BLOCK
  5
213
100
AcDbEntity
  8
0
100
AcDbBlockBegin
  2
_FILLED
 70
64
 10
0.0
 20
0.0
  3
_FILLED
  1

  0
SOLID
  5
214
100
AcDbEntity
  8
0
  6
BYBLOCK
 62
0
100
AcDbTrace
 10
0.0
 20
0.0
 11
-1.0
 21
0.3166666667
 12
-1.0
 22
-0.3166666667
 13
-1.0
 23
-0.3166666667
  0
ENDBLK
  5
215
100
AcDbEntity
  8
0
  6
BYBLOCK
 62
0
100
AcDbBlockEnd
  0
ENDSEC
  0
SECTION
  2
ENTITIES
  0
LINE
  5
216
100
AcDbEntity
  8
0
100
AcDbLine
 62
7
  6
CONTINUOUS
 10
128.1273084156
 20
127.240033091
 11
128.15
 21
127.2627246754
  0
LINE
  5
217
100
AcDbEntity
  8
0
100
AcDbLine
 62
7
  6
CONTINUOUS
 10
128.1273084156
 20
82.759966909
 11
128.15
 21
82.7372753246
  0
LINE
  5
218
100
AcDbEntity
  8
0
100
AcDbLine
 62
7
  6
CONTINUOUS
 10
119.0
 20
82.1502288521
 11
119.0
 21
127.8497711479
  0
LINE
  5
219
100
AcDbEntity
  8
0
100
AcDbLine
 62
7
  6
CONTINUOUS
 10
120.7
 20
84.6310194482
 11
120.7
 21
125.5999084592
  0
LINE
  5
21A
100
AcDbEntity
  8
0
100
AcDbLine
 62
7
  6
CONTINUOUS
 10
121.15
 20
124.4053556742
 11
121.15
 21
124.3137343213
  0
LINE
  5
21B
100
AcDbEntity
  8
0
100
AcDbLine
 62
250
  6
CONTINUOUS
 10
121.0804252556
 20
123.9843964523
 11
121.0528832369
 21
115.2593238267
  0
LINE
  5
21C
100
AcDbEntity
  8
0
100
AcDbLine
 62
250
  6
CONTINUOUS
 10
120.8804607506
 20
123.7902654017
 11
120.8490295134
 21
114.168503601
  0
LINE
  5
21D
100
AcDbEntity
  8
0
100
AcDbLine
 62
250
  6
CONTINUOUS
 10
121.0528832369
 20
115.2593238267
 11
121.0221841005
 21
106.6463204705
  0
LINE
  5
21E
100
AcDbEntity
  8
0
100
AcDbLine
 62
250
  6
CONTINUOUS
 10
120.8490295134
 20
114.168503601
 11
120.8136807922
 21
104.4190086989
  0
LINE
  5
21F
100
AcDbEntity
  8
0
100
AcDbLine
 62
250
  6
CONTINUOUS
 10
121.0221841005
 20
106.6463204705
 11
120.988377862
 21
97.9420537924
  0
LINE
  5
220
100
AcDbEntity
  8
0
100
AcDbLine
 62
250
  6
CONTINUOUS
 10
120.8136807922
 20
104.4190086989
 11
120.7743481722
 21
94.5711216876
  0
LWPOLYLINE
  5
221
100
AcDbEntity
  8
0
100
AcDbPolyline
 62
250
  6
CONTINUOUS
 90
3
 70
0
 10
120.988377862
 20
97.9420537924
 10
120.9516733387
 20
89.2357041627
 10
120.9322211693
 20
84.8774861377
  0
LINE
  5
222
100
AcDbEntity
  8
0
100
AcDbLine
 62
250
  6
CONTINUOUS
 10
120.7743481722
 20
94.5711216876
 11
120.7313275924
 21
84.7250786541
  0
LWPOLYLINE
  5
223
100
AcDbEntity
  8
0
100
AcDbPolyline
 62
7
  6
CONTINUOUS
 90
13
 70
0
 10
120.7680807752
 20
125.3955000394
 10
120.7698395507
 20
125.4212799701
 10
120.7749553683
 20
125.4466557965
 10
120.7833531926
 20
125.4711932392
 10
120.7949046213
 20
125.4944721734
 10
120.8094218522
 20
125.5160867645
 10
120.826655374
 20
125.5356558835
 10
120.8463063895
 20
125.5528334505
 10
120.8680506261
 20
125.5673287186
 10
120.8915374308
 20
125.5788993566
 10
120.9163766065
 20
125.5873366676
 10
120.942139993
 20
125.592477108
 10
120.9683859999
 20
125.5942180704
  0
LINE
  5
224
100
AcDbEntity
  8
0
100
AcDbLine
 62
250
  6
CONTINUOUS
 10
129.9013474924
 20
125.001339877
 11
130.0192371868
 21
125.1192295714
  0
LINE
  5
225
100
AcDbEntity
  8
0
100
AcDbLine
 62
250
  6
CONTINUOUS
 10
130.0192371868
 20
84.8807704286
 11
129.9383912673
 21
84.9616163481
  0
LINE
  5
226
100
AcDbEntity
  8
0
100
AcDbLine
 62
7
  6
CONTINUOUS
 10
127.6287089092
 20
84.7282186559
 11
127.700495996
 21
84.615715068
  0
LINE
  5
227
100
AcDbEntity
  8
0
100
AcDbLine
 62
7
  6
CONTINUOUS
 10
126.25
 20
84.6310194482
 11
126.359966909
 21
84.3008504387
  0
LINE
  5
228
100
AcDbEntity
  8
0
100
AcDbLine
 62
250
  6
CONTINUOUS
 10
120.7680807752
 20
125.3955000394
 11
120.8804607506
 21
123.7902654017
  0
LINE
  5
229
100
AcDbEntity
  8
0
100
AcDbLine
 62
250
  6
CONTINUOUS
 10
120.9677241529
 20
125.5942180704
 11
121.0804252556
 21
123.9843964523
  0
LWPOLYLINE
  5
22A
100
AcDbEntity
  8
0
100
AcDbPolyline
 62
7
  6
CONTINUOUS
 90
31
 70
0
 10
127.6860402013
 20
124.0860071484
 10
127.6898972508
 20
124.0963959486
 10
127.6978133104
 20
124.1064350874
 10
127.7097883801
 20
124.1161245647
 10
127.7260314697
 20
124.1255578969
 10
127.7463335693
 20
124.1346415676
 10
127.7700676496
 20
124.1430950281
 10
127.7973408097
 20
124.1508986119
 10
127.8280459505
 20
124.1580719856
 10
127.8612347451
 20
124.1643935997
 10
127.896984699
 20
124.1698368742
 10
127.9352183066
 20
124.1744283891
 10
127.9747547249
 20
124.1780263358
 10
128.0156346095
 20
124.1805997087
 10
128.0578173048
 20
124.1821795134
 10
128.1
 20
124.1827169577
 10
128.1421826952
 20
124.1821795134
 10
128.1843653905
 20
124.1805997087
 10
128.2252452751
 20
124.1780263358
 10
128.2647816934
 20
124.1744283891
 10
128.303015301
 20
124.1698368742
 10
128.3387652549
 20
124.1643935997
 10
128.3719540495
 20
124.1580719856
 10
128.4026591903
 20
124.1508986119
 10
128.4299323504
 20
124.1430950281
 10
128.4536664307
 20
124.1346415676
 10
128.4739685303
 20
124.1255578969
 10
128.4902116199
 20
124.1161245647
 10
128.5021866896
 20
124.1064350874
 10
128.5101027492
 20
124.0963959486
 10
128.5139597987
 20
124.0860071484
  0
LINE
  5
22B
100
AcDbEntity
  8
0
100
AcDbLine
 62
250
  6
CONTINUOUS
 10
130.0940859332
 20
124.7940935486
 11
130.2192295714
 21
124.9192371868
  0
LINE
  5
22C
100
AcDbEntity
  8
0
100
AcDbLine
 62
250
  6
CONTINUOUS
 10
130.2192295714
 20
85.0807628132
 11
130.1379282825
 21
85.1620641021
  0
LINE
  5
22D
100
AcDbEntity
  8
0
100
AcDbLine
 62
7
  6
CONTINUOUS
 10
126.25
 20
83.1499238476
 11
126.25
 21
84.6310194482
  0
LINE
  5
22E
100
AcDbEntity
  8
0
100
AcDbLine
 62
7
  6
CONTINUOUS
 10
126.25
 20
125.8
 11
126.25
 21
126.8500761524
  0
LINE
  5
22F
100
AcDbEntity
  8
0
100
AcDbLine
 62
7
  6
CONTINUOUS
 10
127.6713729729
 20
123.9843964523
 11
127.6860402013
 21
124.0860071484
  0
LINE
  5
230
100
AcDbEntity
  8
0
100
AcDbLine
 62
7
  6
CONTINUOUS
 10
177.5003805997
 20
81.65
 11
119.4996194003
 21
81.65
  0
LINE
  5
231
100
AcDbEntity
  8
0
100
AcDbLine
 62
7
  6
CONTINUOUS
 10
170.2500761524
 20
82.65
 11
167.5
 21
82.65
  0
LINE
  5
232
100
AcDbEntity
  8
0
100
AcDbLine
 62
7
  6
CONTINUOUS
 10
162.5
 20
82.65
 11
134.5
 21
82.65
  0
LINE
  5
233
100
AcDbEntity
  8
0
100
AcDbLine
 62
7
  6
CONTINUOUS
 10
129.5
 20
82.65
 11
126.7499238476
 21
82.65
  0
LINE
  5
234
100
AcDbEntity
  8
0
100
AcDbLine
 62
7
  6
CONTINUOUS
 10
167.5
 20
82.6761825974
 11
162.5
 21
82.6761825974
  0
LINE
  5
235
100
AcDbEntity
  8
0
100
AcDbLine
 62
7
  6
CONTINUOUS
 10
134.5
 20
82.6761825974
 11
129.5
 21
82.6761825974
  0
LINE
  5
236
100
AcDbEntity
  8
0
100
AcDbLine
 62
7
  6
CONTINUOUS
 10
128.15
 20
82.7372753246
 11
168.85
 21
82.7372753246
  0
LINE
  5
237
100
AcDbEntity
  8
0
100
AcDbLine
 62
7
  6
CONTINUOUS
 10
126.8598907566
 20
82.759966909
 11
128.1273084156
 21
82.759966909
  0
LINE
  5
238
100
AcDbEntity
  8
0
100
AcDbLine
 62
7
  6
CONTINUOUS
 10
168.8726915844
 20
82.759966909
 11
170.1401092434
 21
82.759966909
  0
LINE
  5
239
100
AcDbEntity
  8
0
100
AcDbLine
 62
250
  6
CONTINUOUS
 10
127.6860402013
 20
100.1253431362
 11
127.7001873023
 21
96.7407957156
  0
LINE
  5
23A
100
AcDbEntity
  8
0
100
AcDbLine
 62
7
  6
CONTINUOUS
 10
126.359966909
 20
126.7401092434
 11
126.359966909
 21
125.8
  0
LINE
  5
23B
100
AcDbEntity
  8
0
100
AcDbLine
 62
7
  6
CONTINUOUS
 10
126.359966909
 20
84.3008504387
 11
126.359966909
 21
83.2598907566
  0
LINE
  5
23C
100
AcDbEntity
  8
0
100
AcDbLine
 62
250
  6
CONTINUOUS
 10
127.6860402013
 20
124.0860071484
 11
127.6860402013
 21
100.1253431362
  0
LINE
  5
23D
100
AcDbEntity
  8
0
100
AcDbLine
 62
250
  6
CONTINUOUS
 10
127.7001873023
 20
96.7407957156
 11
127.700495996
 21
84.615715068
  0
LINE
  5
23E
100
AcDbEntity
  8
0
100
AcDbLine
 62
7
  6
CONTINUOUS
 10
128.1273084156
 20
127.240033091
 11
128.1273084156
 21
125.8
  0
LINE
  5
23F
100
AcDbEntity
  8
0
100
AcDbLine
 62
7
  6
CONTINUOUS
 10
128.1273084156
 20
84.3008504387
 11
128.1273084156
 21
82.759966909
  0
LINE
  5
240
100
AcDbEntity
  8
0
100
AcDbLine
 62
7
  6
CONTINUOUS
 10
128.15
 20
82.7372753246
 11
128.15
 21
84.3689805518
  0
LINE
  5
241
100
AcDbEntity
  8
0
100
AcDbLine
 62
7
  6
CONTINUOUS
 10
128.15
 20
125.8
 11
128.15
 21
127.2627246754
  0
LINE
  5
242
100
AcDbEntity
  8
0
100
AcDbLine
 62
250
  6
CONTINUOUS
 10
128.500544427
 20
96.9623659818
 11
128.499504004
 21
84.615715068
  0
LINE
  5
243
100
AcDbEntity
  8
0
100
AcDbLine
 62
250
  6
CONTINUOUS
 10
128.5139597987
 20
124.0860071484
 11
128.5127351998
 21
99.5470858832
  0
LINE
  5
244
100
AcDbEntity
  8
0
100
AcDbLine
 62
250
  6
CONTINUOUS
 10
128.5127351998
 20
99.5470858832
 11
128.500544427
 21
96.9623659818
  0
LWPOLYLINE
  5
245
100
AcDbEntity
  8
0
100
AcDbPolyline
 62
250
  6
CONTINUOUS
 90
6
 70
0
 10
130.2192295714
 20
124.9192371868
 10
130.2194576798
 20
124.9214735395
 10
130.219679553
 20
124.9273674953
 10
130.2198951911
 20
124.9368102522
 10
130.220105547
 20
124.9496382934
 10
130.2205046947
 20
124.9849975026
  0
LWPOLYLINE
  5
246
100
AcDbEntity
  8
0
100
AcDbPolyline
 62
250
  6
CONTINUOUS
 90
6
 70
0
 10
130.0192371868
 20
125.1192295714
 10
130.0194652302
 20
125.1207032389
 10
130.0196870674
 20
125.124217852
 10
130.0199026984
 20
125.1297734107
 10
130.0201130929
 20
125.1374357078
 10
130.0205123536
 20
125.1586857608
  0
LINE
  5
247
100
AcDbEntity
  8
0
100
AcDbLine
 62
7
  6
CONTINUOUS
 10
129.956365661
 20
125.8
 11
129.922099151
 21
125.5942180704
  0
LINE
  5
248
100
AcDbEntity
  8
0
100
AcDbLine
 62
7
  6
CONTINUOUS
 10
120.7313275924
 20
84.7250786541
 11
120.7
 21
84.6310194482
  0
LINE
  5
249
100
AcDbEntity
  8
0
100
AcDbLine
 62
7
  6
CONTINUOUS
 10
136.4022509221
 20
124.5697919907
 11
138.3700418495
 21
125.1544965522
  0
LWPOLYLINE
  5
24A
100
AcDbEntity
  8
0
100
AcDbPolyline
 62
250
  6
CONTINUOUS
 90
16
 70
0
 10
176.0677788307
 20
84.7282186559
 10
176.0887295582
 20
84.729336955
 10
176.1094444598
 20
84.7326402014
 10
176.1296959061
 20
84.7380904041
 10
176.149255657
 20
84.7456233432
 10
176.1679159021
 20
84.7551560957
 10
176.1854884735
 20
84.7665941173
 10
176.2017932202
 20
84.7798294023
 10
176.2166294228
 20
84.7947090196
 10
176.2298049191
 20
84.8110371036
 10
176.2411791425
 20
84.8286240313
 10
176.2506379168
 20
84.8472754511
 10
176.2580768946
 20
84.8667561107
 10
176.2634296845
 20
84.8868382937
 10
176.2666592865
 20
84.9073087931
 10
176.2677483698
 20
84.9279445628
  0
LINE
  5
24B
100
AcDbEntity
  8
0
100
AcDbLine
 62
7
  6
CONTINUOUS
 10
133.9829826078
 20
83.2
 11
130.0170173922
 21
83.2
  0
LINE
  5
24C
100
AcDbEntity
  8
0
100
AcDbLine
 62
7
  6
CONTINUOUS
 10
163.0170173922
 20
83.2
 11
166.9829826078
 21
83.2
  0
LINE
  5
24D
100
AcDbEntity
  8
0
100
AcDbLine
 62
7
  6
CONTINUOUS
 10
133.7781752148
 20
83.75
 11
130.2218247852
 21
83.75
  0
LINE
  5
24E
100
AcDbEntity
  8
0
100
AcDbLine
 62
7
  6
CONTINUOUS
 10
163.2218247852
 20
83.75
 11
166.7781752148
 21
83.75
  0
LINE
  5
24F
100
AcDbEntity
  8
0
100
AcDbLine
 62
7
  6
CONTINUOUS
 10
163.0143993319
 20
84.0
 11
163.0
 21
84.0
  0
LINE
  5
250
100
AcDbEntity
  8
0
100
AcDbLine
 62
7
  6
CONTINUOUS
 10
130.0143993319
 20
84.0
 11
130.0
 21
84.0
  0
LINE
  5
251
100
AcDbEntity
  8
0
100
AcDbLine
 62
7
  6
CONTINUOUS
 10
133.9856006681
 20
84.0
 11
134.0
 21
84.0
  0
LINE
  5
252
100
AcDbEntity
  8
0
100
AcDbLine
 62
7
  6
CONTINUOUS
 10
166.9856006681
 20
84.0
 11
167.0
 21
84.0
  0
LINE
  5
253
100
AcDbEntity
  8
0
100
AcDbLine
 62
7
  6
CONTINUOUS
 10
126.359966909
 20
84.3008504387
 11
128.1273084156
 21
84.3008504387
  0
LINE
  5
254
100
AcDbEntity
  8
0
100
AcDbLine
 62
7
  6
CONTINUOUS
 10
168.8726915844
 20
84.3008504387
 11
170.640033091
 21
84.3008504387
  0
LINE
  5
255
100
AcDbEntity
  8
0
100
AcDbLine
 62
7
  6
CONTINUOUS
 10
128.15
 20
84.3689805518
 11
130.0
 21
84.3689805518
  0
LINE
  5
256
100
AcDbEntity
  8
0
100
AcDbLine
 62
7
  6
CONTINUOUS
 10
134.0
 20
84.3689805518
 11
163.0
 21
84.3689805518
  0
LINE
  5
257
100
AcDbEntity
  8
0
100
AcDbLine
 62
7
  6
CONTINUOUS
 10
167.0
 20
84.3689805518
 11
168.85
 21
84.3689805518
  0
LINE
  5
258
100
AcDbEntity
  8
0
100
AcDbLine
 62
250
  6
CONTINUOUS
 10
130.0218324005
 20
84.5807818517
 11
133.9781675995
 21
84.5807818517
  0
LINE
  5
259
100
AcDbEntity
  8
0
100
AcDbLine
 62
250
  6
CONTINUOUS
 10
163.0218324005
 20
84.5807818517
 11
166.9781675995
 21
84.5807818517
  0
LINE
  5
25A
100
AcDbEntity
  8
0
100
AcDbLine
 62
7
  6
CONTINUOUS
 10
176.1001522399
 20
84.6310194482
 11
170.75
 21
84.6310194482
  0
LINE
  5
25B
100
AcDbEntity
  8
0
100
AcDbLine
 62
7
  6
CONTINUOUS
 10
126.25
 20
84.6310194482
 11
120.7
 21
84.6310194482
  0
LINE
  5
25C
100
AcDbEntity
  8
0
100
AcDbLine
 62
250
  6
CONTINUOUS
 10
120.7407667135
 20
84.7282186559
 11
127.6287089092
 21
84.7282186559
  0
LINE
  5
25D
100
AcDbEntity
  8
0
100
AcDbLine
 62
250
  6
CONTINUOUS
 10
128.5712910908
 20
84.7282186559
 11
129.9401801892
 21
84.7282186559
  0
LINE
  5
25E
100
AcDbEntity
  8
0
100
AcDbLine
 62
250
  6
CONTINUOUS
 10
134.0598198108
 20
84.7282186559
 11
148.0287089092
 21
84.7282186559
  0
LINE
  5
25F
100
AcDbEntity
  8
0
100
AcDbLine
 62
250
  6
CONTINUOUS
 10
148.9712910908
 20
84.7282186559
 11
162.9401801892
 21
84.7282186559
  0
LINE
  5
260
100
AcDbEntity
  8
0
100
AcDbLine
 62
250
  6
CONTINUOUS
 10
167.0598198108
 20
84.7282186559
 11
168.4287089092
 21
84.7282186559
  0
LINE
  5
261
100
AcDbEntity
  8
0
100
AcDbLine
 62
250
  6
CONTINUOUS
 10
169.3712910908
 20
84.7282186559
 11
176.0677788307
 21
84.7282186559
  0
LINE
  5
262
100
AcDbEntity
  8
0
100
AcDbLine
 62
250
  6
CONTINUOUS
 10
120.9322211693
 20
84.8774861377
 11
127.6237671242
 21
84.8774861377
  0
LINE
  5
263
100
AcDbEntity
  8
0
100
AcDbLine
 62
250
  6
CONTINUOUS
 10
128.5762328758
 20
84.8774861377
 11
129.9385826223
 21
84.8774861377
  0
LINE
  5
264
100
AcDbEntity
  8
0
100
AcDbLine
 62
250
  6
CONTINUOUS
 10
134.0614173777
 20
84.8774861377
 11
148.0237671242
 21
84.8774861377
  0
LINE
  5
265
100
AcDbEntity
  8
0
100
AcDbLine
 62
250
  6
CONTINUOUS
 10
148.9762328758
 20
84.8774861377
 11
162.9385826223
 21
84.8774861377
  0
LINE
  5
266
100
AcDbEntity
  8
0
100
AcDbLine
 62
250
  6
CONTINUOUS
 10
167.0614173777
 20
84.8774861377
 11
168.4237671242
 21
84.8774861377
  0
LINE
  5
267
100
AcDbEntity
  8
0
100
AcDbLine
 62
250
  6
CONTINUOUS
 10
169.3762328758
 20
84.8774861377
 11
176.0677722489
 21
84.8774861377
  0
LINE
  5
268
100
AcDbEntity
  8
0
100
AcDbLine
 62
7
  6
CONTINUOUS
 10
166.7807704286
 20
85.0807628132
 11
163.2192295714
 21
85.0807628132
  0
LINE
  5
269
100
AcDbEntity
  8
0
100
AcDbLine
 62
7
  6
CONTINUOUS
 10
133.7807704286
 20
85.0807628132
 11
130.2192295714
 21
85.0807628132
  0
LINE
  5
26A
100
AcDbEntity
  8
0
100
AcDbLine
 62
7
  6
CONTINUOUS
 10
166.8620717175
 20
85.1620641021
 11
163.1379282825
 21
85.1620641021
  0
LINE
  5
26B
100
AcDbEntity
  8
0
100
AcDbLine
 62
7
  6
CONTINUOUS
 10
133.8620717175
 20
85.1620641021
 11
130.1379282825
 21
85.1620641021
  0
LWPOLYLINE
  5
26C
100
AcDbEntity
  8
0
100
AcDbPolyline
 62
7
  6
CONTINUOUS
 90
16
 70
0
 10
133.8620717175
 20
85.1620641021
 10
133.8824676371
 20
85.1610188175
 10
133.9028090158
 20
85.1578598814
 10
133.9228723144
 20
85.1525700372
 10
133.9425198727
 20
85.1451154089
 10
133.9614177453
 20
85.1355500016
 10
133.979086336
 20
85.1241115575
 10
133.9951981364
 20
85.1111005887
 10
134.0097858917
 20
85.0965856431
 10
134.0229147423
 20
85.0804923255
 10
134.0344931972
 20
85.0627939327
 10
134.044215816
 20
85.0437954554
 10
134.0518446139
 20
85.0239209079
 10
134.0572942867
 20
85.0034821122
 10
134.0605549547
 20
84.9826360616
 10
134.0616087327
 20
84.9616163481
  0
LINE
  5
26D
100
AcDbEntity
  8
0
100
AcDbLine
 62
250
  6
CONTINUOUS
 10
120.7
 20
125.5999084592
 11
120.7680807752
 21
125.3955000394
  0
LINE
  5
26E
100
AcDbEntity
  8
0
100
AcDbLine
 62
7
  6
CONTINUOUS
 10
129.9401801892
 20
84.7282186559
 11
130.0
 21
84.3689805518
  0
LWPOLYLINE
  5
26F
100
AcDbEntity
  8
0
100
AcDbPolyline
 62
250
  6
CONTINUOUS
 90
5
 70
0
 10
130.0201743992
 20
84.8598783133
 10
130.0199520649
 20
84.8686253077
 10
130.0197224878
 20
84.8749342458
 10
130.0194841951
 20
84.8789826194
 10
130.0192371868
 20
84.8807704286
  0
LWPOLYLINE
  5
270
100
AcDbEntity
  8
0
100
AcDbPolyline
 62
250
  6
CONTINUOUS
 90
4
 70
0
 10
130.2199445835
 20
85.0605209452
 10
130.2197149955
 20
85.0713584032
 10
130.2194766582
 20
85.0781756302
 10
130.2192295714
 20
85.0807628132
  0
LINE
  5
271
100
AcDbEntity
  8
0
100
AcDbLine
 62
250
  6
CONTINUOUS
 10
130.0205885023
 20
84.8361351065
 11
130.0201743992
 21
84.8598783133
  0
LINE
  5
272
100
AcDbEntity
  8
0
100
AcDbLine
 62
250
  6
CONTINUOUS
 10
130.2203804194
 20
85.0277309092
 11
130.2199445835
 21
85.0605209452
  0
LINE
  5
273
100
AcDbEntity
  8
0
100
AcDbLine
 62
250
  6
CONTINUOUS
 10
130.021106732
 20
84.7880921038
 11
130.0205885023
 21
84.8361351065
  0
LINE
  5
274
100
AcDbEntity
  8
0
100
AcDbLine
 62
7
  6
CONTINUOUS
 10
130.0170173922
 20
127.0
 11
130.0218324005
 21
126.4482546929
  0
LINE
  5
275
100
AcDbEntity
  8
0
100
AcDbLine
 62
250
  6
CONTINUOUS
 10
130.2210991152
 20
84.9262989385
 11
130.2203804194
 21
85.0277309092
  0
LINE
  5
276
100
AcDbEntity
  8
0
100
AcDbLine
 62
250
  6
CONTINUOUS
 10
130.0216811722
 20
84.6813043443
 11
130.021106732
 21
84.7880921038
  0
LINE
  5
277
100
AcDbEntity
  8
0
100
AcDbLine
 62
7
  6
CONTINUOUS
 10
130.014643131
 20
83.2
 11
130.0143993319
 21
84.0
  0
LINE
  5
278
100
AcDbEntity
  8
0
100
AcDbLine
 62
250
  6
CONTINUOUS
 10
130.0218324005
 20
84.5807818517
 11
130.0216811722
 21
84.6813043443
  0
LINE
  5
279
100
AcDbEntity
  8
0
100
AcDbLine
 62
250
  6
CONTINUOUS
 10
130.2218247852
 20
84.5807818517
 11
130.2210991152
 21
84.9262989385
  0
LINE
  5
27A
100
AcDbEntity
  8
0
100
AcDbLine
 62
7
  6
CONTINUOUS
 10
129.5
 20
82.65
 11
129.5
 21
82.6761825974
  0
LINE
  5
27B
100
AcDbEntity
  8
0
100
AcDbLine
 62
7
  6
CONTINUOUS
 10
130.0
 20
84.3689805518
 11
130.0
 21
84.0
  0
LINE
  5
27C
100
AcDbEntity
  8
0
100
AcDbLine
 62
7
  6
CONTINUOUS
 10
130.0
 20
125.8
 11
130.0
 21
126.0
  0
LINE
  5
27D
100
AcDbEntity
  8
0
100
AcDbLine
 62
7
  6
CONTINUOUS
 10
130.0218324005
 20
83.6046132252
 11
130.0218324005
 21
84.5807818517
  0
LINE
  5
27E
100
AcDbEntity
  8
0
100
AcDbLine
 62
7
  6
CONTINUOUS
 10
130.0218324005
 20
125.4192181483
 11
130.0218324005
 21
126.4482546929
  0
LINE
  5
27F
100
AcDbEntity
  8
0
100
AcDbLine
 62
250
  6
CONTINUOUS
 10
130.2218247852
 20
83.75
 11
130.2218247852
 21
84.5807818517
  0
LINE
  5
280
100
AcDbEntity
  8
0
100
AcDbLine
 62
7
  6
CONTINUOUS
 10
130.0143993319
 20
126.0
 11
130.0147040808
 21
127.0
  0
LINE
  5
281
100
AcDbEntity
  8
0
100
AcDbLine
 62
250
  6
CONTINUOUS
 10
130.2211840317
 20
125.0915412491
 11
130.2218247852
 21
126.25
  0
LINE
  5
282
100
AcDbEntity
  8
0
100
AcDbLine
 62
250
  6
CONTINUOUS
 10
130.0214546874
 20
125.2639902991
 11
130.0218324005
 21
125.4192181483
  0
LINE
  5
283
100
AcDbEntity
  8
0
100
AcDbLine
 62
250
  6
CONTINUOUS
 10
130.2205046947
 20
124.9849975026
 11
130.2211840317
 21
125.0915412491
  0
LINE
  5
284
100
AcDbEntity
  8
0
100
AcDbLine
 62
250
  6
CONTINUOUS
 10
130.0208754965
 20
125.1873486095
 11
130.0214546874
 21
125.2639902991
  0
LINE
  5
285
100
AcDbEntity
  8
0
100
AcDbLine
 62
7
  6
CONTINUOUS
 10
130.0218324005
 20
83.6046132252
 11
130.0170173922
 21
83.2
  0
LINE
  5
286
100
AcDbEntity
  8
0
100
AcDbLine
 62
250
  6
CONTINUOUS
 10
130.0205123536
 20
125.1586857608
 11
130.0208754965
 21
125.1873486095
  0
LINE
  5
287
100
AcDbEntity
  8
0
100
AcDbLine
 62
7
  6
CONTINUOUS
 10
129.922099151
 20
125.5942180704
 11
129.9013474924
 21
125.001339877
  0
LWPOLYLINE
  5
288
100
AcDbEntity
  8
0
100
AcDbPolyline
 62
7
  6
CONTINUOUS
 90
16
 70
0
 10
129.9383912673
 20
84.9616163481
 10
129.9394450453
 20
84.9826360616
 10
129.9427057133
 20
85.0034821122
 10
129.9481553861
 20
85.0239209079
 10
129.955784184
 20
85.0437954554
 10
129.9655068028
 20
85.0627939327
 10
129.9770852577
 20
85.0804923255
 10
129.9902141083
 20
85.0965856431
 10
130.0048018636
 20
85.1111005887
 10
130.020913664
 20
85.1241115575
 10
130.0385822547
 20
85.1355500016
 10
130.0574801273
 20
85.1451154089
 10
130.0771276856
 20
85.1525700372
 10
130.0971909842
 20
85.1578598814
 10
130.1175323629
 20
85.1610188175
 10
130.1379282825
 20
85.1620641021
  0
LWPOLYLINE
  5
289
100
AcDbEntity
  8
0
100
AcDbPolyline
 62
250
  6
CONTINUOUS
 90
31
 70
0
 10
127.6874982793
 20
99.4953900279
 10
127.6911204241
 20
99.5106489362
 10
127.6990271776
 20
99.5256936707
 10
127.7111356857
 20
99.540366579
 10
127.7273190645
 20
99.5545139053
 10
127.74740773
 20
99.567987401
 10
127.771191175
 20
99.5806458787
 10
127.7984201753
 20
99.5923566915
 10
127.8288094007
 20
99.602997123
 10
127.8620404056
 20
99.6124556731
 10
127.8977649655
 20
99.6206332266
 10
127.9356087264
 20
99.6274440917
 10
127.9751751273
 20
99.6328168981
 10
128.0160495556
 20
99.6366953446
 10
128.0578036923
 20
99.6390387894
 10
128.1
 20
99.6398226758
 10
128.1421963077
 20
99.6390387894
 10
128.1839504444
 20
99.6366953446
 10
128.2248248727
 20
99.6328168981
 10
128.2643912736
 20
99.6274440917
 10
128.3022350345
 20
99.6206332266
 10
128.3379595944
 20
99.6124556731
 10
128.3711905993
 20
99.602997123
 10
128.4015798247
 20
99.5923566915
 10
128.428808825
 20
99.5806458787
 10
128.45259227
 20
99.567987401
 10
128.4726809355
 20
99.5545139053
 10
128.4888643143
 20
99.540366579
 10
128.5009728224
 20
99.5256936707
 10
128.5088795759
 20
99.5106489362
 10
128.5125017207
 20
99.4953900279
  0
LWPOLYLINE
  5
28A
100
AcDbEntity
  8
0
100
AcDbPolyline
 62
250
  6
CONTINUOUS
 90
31
 70
0
 10
127.6992571104
 20
97.0063108972
 10
127.7027759889
 20
97.0211347121
 10
127.7104573253
 20
97.0357504772
 10
127.7222206359
 20
97.0500050345
 10
127.7379426662
 20
97.0637490134
 10
127.7574586722
 20
97.0768383879
 10
127.7805641396
 20
97.0891359874
 10
127.8070169427
 20
97.1005129443
 10
127.83653989
 20
97.1108500425
 10
127.8688236131
 20
97.1200389603
 10
127.903529814
 20
97.127983408
 10
127.9402948097
 20
97.1346001362
 10
127.9787333428
 20
97.1398198083
 10
128.0184426192
 20
97.1435877282
 10
128.0590065289
 20
97.1458644121
 10
128.1000000057
 20
97.1466260021
 10
128.1409934825
 20
97.1458645183
 10
128.1815573923
 20
97.1435879402
 10
128.2212666686
 20
97.1398201232
 10
128.2597052015
 20
97.1346005506
 10
128.2964701971
 20
97.1279839183
 10
128.3311763977
 20
97.1200395604
 10
128.3634601205
 20
97.1108507261
 10
128.3929830675
 20
97.100513705
 10
128.4194358702
 20
97.0891368164
 10
128.4425413372
 20
97.0768392763
 10
128.4620573427
 20
97.0637499527
 10
128.4777793719
 20
97.0500060145
 10
128.489542681
 20
97.0357514877
 10
128.4972240161
 20
97.0211357436
 10
128.5007428941
 20
97.0063119405
  0
LWPOLYLINE
  5
28B
100
AcDbEntity
  8
0
100
AcDbPolyline
 62
250
  6
CONTINUOUS
 90
31
 70
0
 10
127.6860402013
 20
100.1253431362
 10
127.689685934
 20
100.135562519
 10
127.6976297627
 20
100.145637897
 10
127.7097884649
 20
100.1554637406
 10
127.7260346631
 20
100.1649370228
 10
127.74619817
 20
100.1739586223
 10
127.7700677805
 20
100.1824343613
 10
127.7973934644
 20
100.1902755633
 10
127.8278889771
 20
100.1973999832
 10
127.8612348755
 20
100.2037329918
 10
127.8970818579
 20
100.20920825
 10
127.935054424
 20
100.2137684047
 10
127.9747548083
 20
100.2173656881
 10
128.0157671459
 20
100.2199624178
 10
128.0576618288
 20
100.2215313931
 10
128.1000000077
 20
100.2220561797
 10
128.1423381866
 20
100.2215312795
 10
128.1842328693
 20
100.2199621906
 10
128.2252452064
 20
100.2173653508
 10
128.2649455902
 20
100.2137679609
 10
128.3029181555
 20
100.2092077033
 10
128.3387651372
 20
100.2037323488
 10
128.3721110345
 20
100.1973992508
 10
128.4026065461
 20
100.1902747482
 10
128.4299322288
 20
100.1824334728
 10
128.4538018383
 20
100.1739576286
 10
128.473965344
 20
100.1649359332
 10
128.4902115402
 20
100.1554626898
 10
128.5023702402
 20
100.1456370616
 10
128.5103140669
 20
100.1355620339
 10
128.5139597987
 20
100.1253431362
  0
LWPOLYLINE
  5
28C
100
AcDbEntity
  8
0
100
AcDbPolyline
 62
7
  6
CONTINUOUS
 90
16
 70
0
 10
166.8620717175
 20
85.1620641021
 10
166.8824676371
 20
85.1610188175
 10
166.9028090158
 20
85.1578598814
 10
166.9228723144
 20
85.1525700372
 10
166.9425198727
 20
85.1451154089
 10
166.9614177453
 20
85.1355500016
 10
166.979086336
 20
85.1241115575
 10
166.9951981364
 20
85.1111005887
 10
167.0097858917
 20
85.0965856431
 10
167.0229147423
 20
85.0804923255
 10
167.0344931972
 20
85.0627939327
 10
167.044215816
 20
85.0437954554
 10
167.0518446139
 20
85.0239209079
 10
167.0572942867
 20
85.0034821122
 10
167.0605549547
 20
84.9826360616
 10
167.0616087327
 20
84.9616163481
  0
LINE
  5
28D
100
AcDbEntity
  8
0
100
AcDbLine
 62
250
  6
CONTINUOUS
 10
120.8998477601
 20
125.8
 11
120.9683859999
 21
125.5942180704
  0
LWPOLYLINE
  5
28E
100
AcDbEntity
  8
0
100
AcDbPolyline
 62
250
  6
CONTINUOUS
 90
13
 70
0
 10
130.0192371868
 20
125.1192295714
 10
130.0209498268
 20
125.0931276838
 10
130.0260545307
 20
125.0674721098
 10
130.0344640557
 20
125.0427017684
 10
130.0460346217
 20
125.0192404429
 10
130.0605683541
 20
124.9974895604
 10
130.0778166536
 20
124.9778213148
 10
130.0974844894
 20
124.9605722453
 10
130.1192354103
 20
124.9460375275
 10
130.1426972611
 20
124.9344659229
 10
130.1674686285
 20
124.9260554638
 10
130.1931257228
 20
124.9209500851
 10
130.2192295714
 20
124.9192371868
  0
LWPOLYLINE
  5
28F
100
AcDbEntity
  8
0
100
AcDbPolyline
 62
250
  6
CONTINUOUS
 90
13
 70
0
 10
133.9807628132
 20
84.8807704286
 10
133.9790501084
 20
84.9068728088
 10
133.973945238
 20
84.932528753
 10
133.9655354891
 20
84.9572993305
 10
133.9539646882
 20
84.9807607523
 10
133.9394307508
 20
85.0025116061
 10
133.9221823031
 20
85.0221797285
 10
133.9025144071
 20
85.0394286015
 10
133.880763532
 20
85.0539630832
 10
133.85730182
 20
85.0655344577
 10
133.8325306759
 20
85.0739447226
 10
133.8068738919
 20
85.0790499657
 10
133.7807704286
 20
85.0807628132
  0
LINE
  5
290
100
AcDbEntity
  8
0
100
AcDbLine
 62
7
  6
CONTINUOUS
 10
133.9781675995
 20
83.6046132252
 11
133.9829826078
 21
83.2
  0
LINE
  5
291
100
AcDbEntity
  8
0
100
AcDbLine
 62
250
  6
CONTINUOUS
 10
133.7781752148
 20
126.25
 11
133.7781851278
 21
125.3771529624
  0
LINE
  5
292
100
AcDbEntity
  8
0
100
AcDbLine
 62
250
  6
CONTINUOUS
 10
133.7781848481
 20
84.6176893866
 11
133.7781752148
 21
83.75
  0
LWPOLYLINE
  5
293
100
AcDbEntity
  8
0
100
AcDbPolyline
 62
250
  6
CONTINUOUS
 90
13
 70
0
 10
130.0192371868
 20
84.8807704286
 10
130.0209499715
 20
84.9068734148
 10
130.0260550467
 20
84.9325298149
 10
130.0344650715
 20
84.9573006832
 10
130.0460361621
 20
84.9807622245
 10
130.060570353
 20
85.0025130441
 10
130.0778189842
 20
85.0221810155
 10
130.0974869556
 20
85.0394296468
 10
130.1192377752
 20
85.0539638378
 10
130.1426993165
 20
85.0655349284
 10
130.167470185
 20
85.0739449532
 10
130.1931265851
 20
85.0790500285
 10
130.2192295714
 20
85.0807628132
  0
LWPOLYLINE
  5
294
100
AcDbEntity
  8
0
100
AcDbPolyline
 62
250
  6
CONTINUOUS
 90
13
 70
0
 10
133.9807628132
 20
125.1192295714
 10
133.9790500285
 20
125.0931265853
 10
133.9739449533
 20
125.0674701853
 10
133.9655349286
 20
125.042699317
 10
133.9539638381
 20
125.0192377757
 10
133.9394296473
 20
124.9974869562
 10
133.9221810161
 20
124.9778189848
 10
133.9025130448
 20
124.9605703535
 10
133.8807622252
 20
124.9460361625
 10
133.8573006838
 20
124.9344650718
 10
133.8325298153
 20
124.9260550468
 10
133.806873415
 20
124.9209499716
 10
133.7807704286
 20
124.9192371868
  0
LWPOLYLINE
  5
295
100
AcDbEntity
  8
0
100
AcDbPolyline
 62
250
  6
CONTINUOUS
 90
31
 70
0
 10
127.700495996
 20
96.471060973
 10
127.7040144016
 20
96.4809221361
 10
127.711680795
 20
96.4906446485
 10
127.7234148702
 20
96.500126666
 10
127.7390937114
 20
96.5092688636
 10
127.7585530813
 20
96.5179754758
 10
127.7815891412
 20
96.5261553001
 10
127.8079605859
 20
96.5337226519
 10
127.8373911721
 20
96.5405982625
 10
127.8695726115
 20
96.5467101092
 10
127.9041678004
 20
96.5519941698
 10
127.9408143507
 20
96.5563950933
 10
127.9791283862
 20
96.5598667796
 10
128.0187085638
 20
96.5623728624
 10
128.0591402771
 20
96.5638870902
 10
128.1
 20
96.5643936014
 10
128.1408597229
 20
96.5638870902
 10
128.1812914362
 20
96.5623728624
 10
128.2208716138
 20
96.5598667796
 10
128.2591856493
 20
96.5563950933
 10
128.2958321996
 20
96.5519941698
 10
128.3304273885
 20
96.5467101092
 10
128.3626088279
 20
96.5405982625
 10
128.3920394141
 20
96.5337226519
 10
128.4184108588
 20
96.5261553001
 10
128.4414469138
 20
96.51797562
 10
128.4609062806
 20
96.5092691522
 10
128.4765851298
 20
96.500126666
 10
128.4883192182
 20
96.4906437817
 10
128.4959856175
 20
96.4809199684
 10
128.4995040127
 20
96.4710570707
  0
LWPOLYLINE
  5
296
100
AcDbEntity
  8
0
100
AcDbPolyline
 62
7
  6
CONTINUOUS
 90
7
 70
0
 10
120.7407667135
 20
84.7282186559
 10
120.7380638481
 20
84.7277144671
 10
120.7358128541
 20
84.7272026204
 10
120.7340137315
 20
84.7266831158
 10
120.7326664804
 20
84.7261559532
 10
120.7317711006
 20
84.7256211326
 10
120.7313275924
 20
84.7250786541
  0
LWPOLYLINE
  5
297
100
AcDbEntity
  8
0
100
AcDbPolyline
 62
250
  6
CONTINUOUS
 90
13
 70
0
 10
120.8804557166
 20
123.790337307
 10
120.8825730428
 20
123.785834566
 10
120.8880021052
 20
123.7814072524
 10
120.8966520306
 20
123.7771296831
 10
120.9083780339
 20
123.7730736963
 10
120.9229838403
 20
123.7693072389
 10
120.9402249711
 20
123.7658932065
 10
120.9598128365
 20
123.7628886172
 10
120.9814195666
 20
123.7603438906
 10
121.004683499
 20
123.7583017705
 10
121.0292152316
 20
123.7567963828
 10
121.0546041409
 20
123.755852687
 10
121.0804252556
 20
123.7554862685
  0
LINE
  5
298
100
AcDbEntity
  8
0
100
AcDbLine
 62
7
  6
CONTINUOUS
 10
128.5286270271
 20
123.9843964523
 11
128.5139597987
 21
124.0860071484
  0
LINE
  5
299
100
AcDbEntity
  8
0
100
AcDbLine
 62
7
  6
CONTINUOUS
 10
134.077900849
 20
125.5942180704
 11
134.0986525076
 21
125.001339877
  0
LWPOLYLINE
  5
29A
100
AcDbEntity
  8
0
100
AcDbPolyline
 62
250
  6
CONTINUOUS
 90
4
 70
0
 10
133.780214727
 20
124.9315757631
 10
133.7803909769
 20
124.925132628
 10
133.7805762108
 20
124.9209232339
 10
133.7807704286
 20
124.9192371868
  0
LWPOLYLINE
  5
29B
100
AcDbEntity
  8
0
100
AcDbPolyline
 62
250
  6
CONTINUOUS
 90
6
 70
0
 10
133.9798849771
 20
125.1374409649
 10
133.9800416054
 20
125.1314513339
 10
133.9802071951
 20
125.1266327172
 10
133.9803834396
 20
125.1229939878
 10
133.9805686456
 20
125.1205262725
 10
133.9807628132
 20
125.1192295714
  0
LINE
  5
29C
100
AcDbEntity
  8
0
100
AcDbLine
 62
250
  6
CONTINUOUS
 10
133.9795825165
 20
125.1526938916
 11
133.9798849771
 21
125.1374409649
  0
LINE
  5
29D
100
AcDbEntity
  8
0
100
AcDbLine
 62
250
  6
CONTINUOUS
 10
133.7798925918
 20
124.9497129063
 11
133.780214727
 21
124.9315757631
  0
LINE
  5
29E
100
AcDbEntity
  8
0
100
AcDbLine
 62
250
  6
CONTINUOUS
 10
133.9791465873
 20
125.1853547864
 11
133.9795825165
 21
125.1526938916
  0
LINE
  5
29F
100
AcDbEntity
  8
0
100
AcDbLine
 62
250
  6
CONTINUOUS
 10
133.7794443077
 20
124.9905936203
 11
133.7798925918
 21
124.9497129063
  0
LINE
  5
2A0
100
AcDbEntity
  8
0
100
AcDbLine
 62
250
  6
CONTINUOUS
 10
133.9786055683
 20
125.2532154983
 11
133.9791465873
 21
125.1853547864
  0
LINE
  5
2A1
100
AcDbEntity
  8
0
100
AcDbLine
 62
250
  6
CONTINUOUS
 10
133.7786131736
 20
125.1423726453
 11
133.7794443077
 21
124.9905936203
  0
LINE
  5
2A2
100
AcDbEntity
  8
0
100
AcDbLine
 62
250
  6
CONTINUOUS
 10
133.7781851278
 20
125.3771529624
 11
133.7786131736
 21
125.1423726453
  0
LWPOLYLINE
  5
2A3
100
AcDbEntity
  8
0
100
AcDbPolyline
 62
250
  6
CONTINUOUS
 90
3
 70
0
 10
133.9781675995
 20
125.4192181483
 10
133.9781774963
 20
125.3936912221
 10
133.9786055683
 20
125.2532154983
  0
LINE
  5
2A4
100
AcDbEntity
  8
0
100
AcDbLine
 62
7
  6
CONTINUOUS
 10
133.9856006681
 20
126.0
 11
133.9852959192
 21
127.0
  0
LINE
  5
2A5
100
AcDbEntity
  8
0
100
AcDbLine
 62
7
  6
CONTINUOUS
 10
133.9781675995
 20
126.4482546929
 11
133.9781675995
 21
125.4192181483
  0
LINE
  5
2A6
100
AcDbEntity
  8
0
100
AcDbLine
 62
7
  6
CONTINUOUS
 10
133.9781675995
 20
84.5807818517
 11
133.9781675995
 21
83.6046132252
  0
LINE
  5
2A7
100
AcDbEntity
  8
0
100
AcDbLine
 62
7
  6
CONTINUOUS
 10
134.0
 20
84.3689805518
 11
134.0
 21
84.0
  0
LINE
  5
2A8
100
AcDbEntity
  8
0
100
AcDbLine
 62
7
  6
CONTINUOUS
 10
134.0
 20
125.8
 11
134.0
 21
126.0
  0
LINE
  5
2A9
100
AcDbEntity
  8
0
100
AcDbLine
 62
7
  6
CONTINUOUS
 10
134.5
 20
82.65
 11
134.5
 21
82.6761825974
  0
LINE
  5
2AA
100
AcDbEntity
  8
0
100
AcDbLine
 62
7
  6
CONTINUOUS
 10
133.985356869
 20
83.2
 11
133.9856006681
 21
84.0
  0
LINE
  5
2AB
100
AcDbEntity
  8
0
100
AcDbLine
 62
250
  6
CONTINUOUS
 10
133.7788602062
 20
84.9179819056
 11
133.7781848481
 21
84.6176893866
  0
LINE
  5
2AC
100
AcDbEntity
  8
0
100
AcDbLine
 62
250
  6
CONTINUOUS
 10
133.978528889
 20
84.73310785
 11
133.9781675995
 21
84.5807818517
  0
LINE
  5
2AD
100
AcDbEntity
  8
0
100
AcDbLine
 62
250
  6
CONTINUOUS
 10
133.7795082667
 20
85.0164065855
 11
133.7788602062
 21
84.9179819056
  0
LINE
  5
2AE
100
AcDbEntity
  8
0
100
AcDbLine
 62
7
  6
CONTINUOUS
 10
133.9829826078
 20
127.0
 11
133.9781675995
 21
126.4482546929
  0
LINE
  5
2AF
100
AcDbEntity
  8
0
100
AcDbLine
 62
250
  6
CONTINUOUS
 10
133.97899048
 20
84.7991497459
 11
133.978528889
 21
84.73310785
  0
LINE
  5
2B0
100
AcDbEntity
  8
0
100
AcDbLine
 62
250
  6
CONTINUOUS
 10
133.9795006098
 20
84.8421566921
 11
133.97899048
 21
84.7991497459
  0
LWPOLYLINE
  5
2B1
100
AcDbEntity
  8
0
100
AcDbPolyline
 62
250
  6
CONTINUOUS
 90
6
 70
0
 10
133.7807704286
 20
85.0807628132
 10
133.7805476876
 20
85.0786230224
 10
133.7803298989
 20
85.0729593152
 10
133.7801170625
 20
85.0638207002
 10
133.7799071774
 20
85.0512259817
 10
133.7795082667
 20
85.0164065855
  0
LINE
  5
2B2
100
AcDbEntity
  8
0
100
AcDbLine
 62
7
  6
CONTINUOUS
 10
128.1273084156
 20
84.3008504387
 11
128.15
 21
84.3689805518
  0
LINE
  5
2B3
100
AcDbEntity
  8
0
100
AcDbLine
 62
250
  6
CONTINUOUS
 10
121.5872149856
 20
124.2069091473
 11
121.3615511917
 21
124.5616961363
  0
LWPOLYLINE
  5
2B4
100
AcDbEntity
  8
0
100
AcDbPolyline
 62
250
  6
CONTINUOUS
 90
6
 70
0
 10
133.9807628132
 20
84.8807704286
 10
133.9805401293
 20
84.8794134727
 10
133.9803223721
 20
84.8760250501
 10
133.9801095416
 20
84.8706051607
 10
133.9798996205
 20
84.8630158519
 10
133.9795006098
 20
84.8421566921
  0
LINE
  5
2B5
100
AcDbEntity
  8
0
100
AcDbLine
 62
7
  6
CONTINUOUS
 10
134.0598198108
 20
84.7282186559
 11
134.0
 21
84.3689805518
  0
LINE
  5
2B6
100
AcDbEntity
  8
0
100
AcDbLine
 62
7
  6
CONTINUOUS
 10
148.0287089092
 20
84.7282186559
 11
148.100495996
 21
84.615715068
  0
LINE
  5
2B7
100
AcDbEntity
  8
0
100
AcDbLine
 62
7
  6
CONTINUOUS
 10
134.043634339
 20
125.8
 11
134.077900849
 21
125.5942180704
  0
LWPOLYLINE
  5
2B8
100
AcDbEntity
  8
0
100
AcDbPolyline
 62
7
  6
CONTINUOUS
 90
31
 70
0
 10
148.0860402013
 20
124.0860071484
 10
148.0898972508
 20
124.0963959486
 10
148.0978133104
 20
124.1064350874
 10
148.1097883801
 20
124.1161245647
 10
148.1260314697
 20
124.1255578969
 10
148.1463335693
 20
124.1346415676
 10
148.1700676496
 20
124.1430950281
 10
148.1973408097
 20
124.1508986119
 10
148.2280459505
 20
124.1580719856
 10
148.2612347451
 20
124.1643935997
 10
148.296984699
 20
124.1698368742
 10
148.3352183066
 20
124.1744283891
 10
148.3747547249
 20
124.1780263358
 10
148.4156346095
 20
124.1805997087
 10
148.4578173048
 20
124.1821795134
 10
148.5
 20
124.1827169577
 10
148.5421826952
 20
124.1821795134
 10
148.5843653905
 20
124.1805997087
 10
148.6252452751
 20
124.1780263358
 10
148.6647816934
 20
124.1744283891
 10
148.703015301
 20
124.1698368742
 10
148.7387652549
 20
124.1643935997
 10
148.7719540495
 20
124.1580719856
 10
148.8026591903
 20
124.1508986119
 10
148.8299323504
 20
124.1430950281
 10
148.8536664307
 20
124.1346415676
 10
148.8739685303
 20
124.1255578969
 10
148.8902116199
 20
124.1161245647
 10
148.9021866896
 20
124.1064350874
 10
148.9101027492
 20
124.0963959486
 10
148.9139597987
 20
124.0860071484
  0
LINE
  5
2B9
100
AcDbEntity
  8
0
100
AcDbLine
 62
7
  6
CONTINUOUS
 10
128.5712910908
 20
84.7282186559
 11
128.499504004
 21
84.615715068
  0
LINE
  5
2BA
100
AcDbEntity
  8
0
100
AcDbLine
 62
7
  6
CONTINUOUS
 10
148.0713729729
 20
123.9843964523
 11
148.0860402013
 21
124.0860071484
  0
LINE
  5
2BB
100
AcDbEntity
  8
0
100
AcDbLine
 62
250
  6
CONTINUOUS
 10
162.9013474924
 20
125.001339877
 11
163.0192371868
 21
125.1192295714
  0
LINE
  5
2BC
100
AcDbEntity
  8
0
100
AcDbLine
 62
250
  6
CONTINUOUS
 10
163.0940859332
 20
124.7940935486
 11
163.2192295714
 21
124.9192371868
  0
LINE
  5
2BD
100
AcDbEntity
  8
0
100
AcDbLine
 62
250
  6
CONTINUOUS
 10
163.0192371868
 20
84.8807704286
 11
162.9383912673
 21
84.9616163481
  0
LINE
  5
2BE
100
AcDbEntity
  8
0
100
AcDbLine
 62
250
  6
CONTINUOUS
 10
163.2192295714
 20
85.0807628132
 11
163.1379282825
 21
85.1620641021
  0
LINE
  5
2BF
100
AcDbEntity
  8
0
100
AcDbLine
 62
250
  6
CONTINUOUS
 10
148.0860402013
 20
100.1253431362
 11
148.1001873023
 21
96.7407957156
  0
LINE
  5
2C0
100
AcDbEntity
  8
0
100
AcDbLine
 62
250
  6
CONTINUOUS
 10
148.0860402013
 20
124.0860071484
 11
148.0860402013
 21
100.1253431362
  0
LINE
  5
2C1
100
AcDbEntity
  8
0
100
AcDbLine
 62
250
  6
CONTINUOUS
 10
148.1001873023
 20
96.7407957156
 11
148.100495996
 21
84.615715068
  0
LINE
  5
2C2
100
AcDbEntity
  8
0
100
AcDbLine
 62
250
  6
CONTINUOUS
 10
170.1401092434
 20
127.240033091
 11
170.2500761524
 21
127.35
  0
LINE
  5
2C3
100
AcDbEntity
  8
0
100
AcDbLine
 62
250
  6
CONTINUOUS
 10
126.359966909
 20
83.2598907566
 11
126.25
 21
83.1499238476
  0
LINE
  5
2C4
100
AcDbEntity
  8
0
100
AcDbLine
 62
250
  6
CONTINUOUS
 10
170.640033091
 20
126.7401092434
 11
170.75
 21
126.8500761524
  0
LINE
  5
2C5
100
AcDbEntity
  8
0
100
AcDbLine
 62
250
  6
CONTINUOUS
 10
170.2500761524
 20
82.65
 11
170.1401092434
 21
82.759966909
  0
LINE
  5
2C6
100
AcDbEntity
  8
0
100
AcDbLine
 62
250
  6
CONTINUOUS
 10
126.25
 20
126.8500761524
 11
126.359966909
 21
126.7401092434
  0
LINE
  5
2C7
100
AcDbEntity
  8
0
100
AcDbLine
 62
250
  6
CONTINUOUS
 10
170.75
 20
83.1499238476
 11
170.640033091
 21
83.2598907566
  0
LINE
  5
2C8
100
AcDbEntity
  8
0
100
AcDbLine
 62
250
  6
CONTINUOUS
 10
148.900544427
 20
96.9623659818
 11
148.899504004
 21
84.615715068
  0
LINE
  5
2C9
100
AcDbEntity
  8
0
100
AcDbLine
 62
250
  6
CONTINUOUS
 10
148.9139597987
 20
124.0860071484
 11
148.9127351998
 21
99.5470858832
  0
LINE
  5
2CA
100
AcDbEntity
  8
0
100
AcDbLine
 62
250
  6
CONTINUOUS
 10
148.9127351998
 20
99.5470858832
 11
148.900544427
 21
96.9623659818
  0
LWPOLYLINE
  5
2CB
100
AcDbEntity
  8
0
100
AcDbPolyline
 62
250
  6
CONTINUOUS
 90
31
 70
0
 10
148.0874982793
 20
99.4953900279
 10
148.0911204241
 20
99.5106489362
 10
148.0990271776
 20
99.5256936707
 10
148.1111356857
 20
99.540366579
 10
148.1273190645
 20
99.5545139053
 10
148.14740773
 20
99.567987401
 10
148.171191175
 20
99.5806458787
 10
148.1984201753
 20
99.5923566915
 10
148.2288094007
 20
99.602997123
 10
148.2620404056
 20
99.6124556731
 10
148.2977649655
 20
99.6206332266
 10
148.3356087264
 20
99.6274440917
 10
148.3751751273
 20
99.6328168981
 10
148.4160495556
 20
99.6366953446
 10
148.4578036923
 20
99.6390387894
 10
148.5
 20
99.6398226758
 10
148.5421963077
 20
99.6390387894
 10
148.5839504444
 20
99.6366953446
 10
148.6248248727
 20
99.6328168981
 10
148.6643912736
 20
99.6274440917
 10
148.7022350345
 20
99.6206332266
 10
148.7379595944
 20
99.6124556731
 10
148.7711905993
 20
99.602997123
 10
148.8015798247
 20
99.5923566915
 10
148.828808825
 20
99.5806458787
 10
148.85259227
 20
99.567987401
 10
148.8726809355
 20
99.5545139053
 10
148.8888643143
 20
99.540366579
 10
148.9009728224
 20
99.5256936707
 10
148.9088795759
 20
99.5106489362
 10
148.9125017207
 20
99.4953900279
  0
LWPOLYLINE
  5
2CC
100
AcDbEntity
  8
0
100
AcDbPolyline
 62
250
  6
CONTINUOUS
 90
31
 70
0
 10
148.0992571104
 20
97.0063108972
 10
148.1027759889
 20
97.0211347121
 10
148.1104573253
 20
97.0357504772
 10
148.1222206359
 20
97.0500050345
 10
148.1379426662
 20
97.0637490134
 10
148.1574586722
 20
97.0768383879
 10
148.1805641396
 20
97.0891359874
 10
148.2070169427
 20
97.1005129443
 10
148.23653989
 20
97.1108500425
 10
148.2688236131
 20
97.1200389603
 10
148.303529814
 20
97.127983408
 10
148.3402948097
 20
97.1346001362
 10
148.3787333428
 20
97.1398198083
 10
148.4184426192
 20
97.1435877282
 10
148.4590065289
 20
97.1458644121
 10
148.5000000057
 20
97.1466260021
 10
148.5409934825
 20
97.1458645183
 10
148.5815573923
 20
97.1435879402
 10
148.6212666686
 20
97.1398201232
 10
148.6597052015
 20
97.1346005506
 10
148.6964701971
 20
97.1279839183
 10
148.7311763977
 20
97.1200395604
 10
148.7634601205
 20
97.1108507261
 10
148.7929830675
 20
97.100513705
 10
148.8194358702
 20
97.0891368164
 10
148.8425413372
 20
97.0768392763
 10
148.8620573427
 20
97.0637499527
 10
148.8777793719
 20
97.0500060145
 10
148.889542681
 20
97.0357514877
 10
148.8972240161
 20
97.0211357436
 10
148.9007428941
 20
97.0063119405
  0
LWPOLYLINE
  5
2CD
100
AcDbEntity
  8
0
100
AcDbPolyline
 62
250
  6
CONTINUOUS
 90
31
 70
0
 10
148.0860402013
 20
100.1253431362
 10
148.089685934
 20
100.135562519
 10
148.0976297627
 20
100.145637897
 10
148.1097884649
 20
100.1554637406
 10
148.1260346631
 20
100.1649370228
 10
148.14619817
 20
100.1739586223
 10
148.1700677805
 20
100.1824343613
 10
148.1973934644
 20
100.1902755633
 10
148.2278889771
 20
100.1973999832
 10
148.2612348755
 20
100.2037329918
 10
148.2970818579
 20
100.20920825
 10
148.335054424
 20
100.2137684047
 10
148.3747548083
 20
100.2173656881
 10
148.4157671459
 20
100.2199624178
 10
148.4576618288
 20
100.2215313931
 10
148.5000000077
 20
100.2220561797
 10
148.5423381866
 20
100.2215312795
 10
148.5842328693
 20
100.2199621906
 10
148.6252452064
 20
100.2173653508
 10
148.6649455902
 20
100.2137679609
 10
148.7029181555
 20
100.2092077033
 10
148.7387651372
 20
100.2037323488
 10
148.7721110345
 20
100.1973992508
 10
148.8026065461
 20
100.1902747482
 10
148.8299322288
 20
100.1824334728
 10
148.8538018383
 20
100.1739576286
 10
148.873965344
 20
100.1649359332
 10
148.8902115402
 20
100.1554626898
 10
148.9023702402
 20
100.1456370616
 10
148.9103140669
 20
100.1355620339
 10
148.9139597987
 20
100.1253431362
  0
LWPOLYLINE
  5
2CE
100
AcDbEntity
  8
0
100
AcDbPolyline
 62
250
  6
CONTINUOUS
 90
31
 70
0
 10
148.100495996
 20
96.471060973
 10
148.1040144016
 20
96.4809221361
 10
148.111680795
 20
96.4906446485
 10
148.1234148702
 20
96.500126666
 10
148.1390937114
 20
96.5092688636
 10
148.1585530813
 20
96.5179754758
 10
148.1815891412
 20
96.5261553001
 10
148.2079605859
 20
96.5337226519
 10
148.2373911721
 20
96.5405982625
 10
148.2695726115
 20
96.5467101092
 10
148.3041678004
 20
96.5519941698
 10
148.3408143507
 20
96.5563950933
 10
148.3791283862
 20
96.5598667796
 10
148.4187085638
 20
96.5623728624
 10
148.4591402771
 20
96.5638870902
 10
148.5
 20
96.5643936014
 10
148.5408597229
 20
96.5638870902
 10
148.5812914362
 20
96.5623728624
 10
148.6208716138
 20
96.5598667796
 10
148.6591856493
 20
96.5563950933
 10
148.6958321996
 20
96.5519941698
 10
148.7304273885
 20
96.5467101092
 10
148.7626088279
 20
96.5405982625
 10
148.7920394141
 20
96.5337226519
 10
148.8184108588
 20
96.5261553001
 10
148.8414469138
 20
96.51797562
 10
148.8609062806
 20
96.5092691522
 10
148.8765851298
 20
96.500126666
 10
148.8883192182
 20
96.4906437817
 10
148.8959856175
 20
96.4809199684
 10
148.8995040127
 20
96.4710570707
  0
LINE
  5
2CF
100
AcDbEntity
  8
0
100
AcDbLine
 62
250
  6
CONTINUOUS
 10
126.8598907566
 20
82.759966909
 11
126.7499238476
 21
82.65
  0
LINE
  5
2D0
100
AcDbEntity
  8
0
100
AcDbLine
 62
250
  6
CONTINUOUS
 10
126.7499238476
 20
127.35
 11
126.8598907566
 21
127.240033091
  0
LINE
  5
2D1
100
AcDbEntity
  8
0
100
AcDbLine
 62
250
  6
CONTINUOUS
 10
133.8620717175
 20
85.1620641021
 11
133.7807704286
 21
85.0807628132
  0
LINE
  5
2D2
100
AcDbEntity
  8
0
100
AcDbLine
 62
250
  6
CONTINUOUS
 10
134.0616087327
 20
84.9616163481
 11
133.9807628132
 21
84.8807704286
  0
LINE
  5
2D3
100
AcDbEntity
  8
0
100
AcDbLine
 62
250
  6
CONTINUOUS
 10
133.7807704286
 20
124.9192371868
 11
133.9059140668
 21
124.7940935486
  0
LINE
  5
2D4
100
AcDbEntity
  8
0
100
AcDbLine
 62
250
  6
CONTINUOUS
 10
133.9807628132
 20
125.1192295714
 11
134.0986525076
 21
125.001339877
  0
LINE
  5
2D5
100
AcDbEntity
  8
0
100
AcDbLine
 62
7
  6
CONTINUOUS
 10
148.9286270271
 20
123.9843964523
 11
148.9139597987
 21
124.0860071484
  0
LINE
  5
2D6
100
AcDbEntity
  8
0
100
AcDbLine
 62
7
  6
CONTINUOUS
 10
168.4287089092
 20
84.7282186559
 11
168.500495996
 21
84.615715068
  0
LWPOLYLINE
  5
2D7
100
AcDbEntity
  8
0
100
AcDbPolyline
 62
250
  6
CONTINUOUS
 90
6
 70
0
 10
163.2192295714
 20
124.9192371868
 10
163.2194576798
 20
124.9214735395
 10
163.219679553
 20
124.9273674953
 10
163.2198951911
 20
124.9368102522
 10
163.220105547
 20
124.9496382934
 10
163.2205046947
 20
124.9849975026
  0
LWPOLYLINE
  5
2D8
100
AcDbEntity
  8
0
100
AcDbPolyline
 62
250
  6
CONTINUOUS
 90
6
 70
0
 10
163.0192371868
 20
125.1192295714
 10
163.0194652302
 20
125.1207032389
 10
163.0196870674
 20
125.124217852
 10
163.0199026984
 20
125.1297734107
 10
163.0201130929
 20
125.1374357078
 10
163.0205123536
 20
125.1586857608
  0
LINE
  5
2D9
100
AcDbEntity
  8
0
100
AcDbLine
 62
7
  6
CONTINUOUS
 10
162.956365661
 20
125.8
 11
162.922099151
 21
125.5942180704
  0
LWPOLYLINE
  5
2DA
100
AcDbEntity
  8
0
100
AcDbPolyline
 62
7
  6
CONTINUOUS
 90
31
 70
0
 10
168.4860402013
 20
124.0860071484
 10
168.4898972508
 20
124.0963959486
 10
168.4978133104
 20
124.1064350874
 10
168.5097883801
 20
124.1161245647
 10
168.5260314697
 20
124.1255578969
 10
168.5463335693
 20
124.1346415676
 10
168.5700676496
 20
124.1430950281
 10
168.5973408097
 20
124.1508986119
 10
168.6280459505
 20
124.1580719856
 10
168.6612347451
 20
124.1643935997
 10
168.696984699
 20
124.1698368742
 10
168.7352183066
 20
124.1744283891
 10
168.7747547249
 20
124.1780263358
 10
168.8156346095
 20
124.1805997087
 10
168.8578173048
 20
124.1821795134
 10
168.9
 20
124.1827169577
 10
168.9421826952
 20
124.1821795134
 10
168.9843653905
 20
124.1805997087
 10
169.0252452751
 20
124.1780263358
 10
169.0647816934
 20
124.1744283891
 10
169.103015301
 20
124.1698368742
 10
169.1387652549
 20
124.1643935997
 10
169.1719540495
 20
124.1580719856
 10
169.2026591903
 20
124.1508986119
 10
169.2299323504
 20
124.1430950281
 10
169.2536664307
 20
124.1346415676
 10
169.2739685303
 20
124.1255578969
 10
169.2902116199
 20
124.1161245647
 10
169.3021866896
 20
124.1064350874
 10
169.3101027492
 20
124.0963959486
 10
169.3139597987
 20
124.0860071484
  0
LINE
  5
2DB
100
AcDbEntity
  8
0
100
AcDbLine
 62
250
  6
CONTINUOUS
 10
175.6384488083
 20
124.5616961363
 11
175.4127850144
 21
124.2069091473
  0
LINE
  5
2DC
100
AcDbEntity
  8
0
100
AcDbLine
 62
7
  6
CONTINUOUS
 10
148.9712910908
 20
84.7282186559
 11
148.899504004
 21
84.615715068
  0
LWPOLYLINE
  5
2DD
100
AcDbEntity
  8
0
100
AcDbPolyline
 62
7
  6
CONTINUOUS
 90
13
 70
0
 10
120.7407667135
 20
84.7282186559
 10
120.7478465964
 20
84.7302381716
 10
120.756691187
 20
84.7342427653
 10
120.7673004854
 20
84.7402393697
 10
120.7797720026
 20
84.7482061319
 10
120.7940082275
 20
84.7581097277
 10
120.8097166274
 20
84.7699190241
 10
120.8268765973
 20
84.7835044939
 10
120.8455087421
 20
84.7988112971
 10
120.8653823435
 20
84.8159575486
 10
120.8864204955
 20
84.834928289
 10
120.9087001041
 20
84.8555021274
 10
120.9322211693
 20
84.8774861377
  0
LINE
  5
2DE
100
AcDbEntity
  8
0
100
AcDbLine
 62
7
  6
CONTINUOUS
 10
168.8726915844
 20
84.3008504387
 11
168.85
 21
84.3689805518
  0
LINE
  5
2DF
100
AcDbEntity
  8
0
100
AcDbLine
 62
7
  6
CONTINUOUS
 10
162.9401801892
 20
84.7282186559
 11
163.0
 21
84.3689805518
  0
LWPOLYLINE
  5
2E0
100
AcDbEntity
  8
0
100
AcDbPolyline
 62
250
  6
CONTINUOUS
 90
5
 70
0
 10
163.0201743992
 20
84.8598783133
 10
163.0199520649
 20
84.8686253077
 10
163.0197224878
 20
84.8749342458
 10
163.0194841951
 20
84.8789826194
 10
163.0192371868
 20
84.8807704286
  0
LWPOLYLINE
  5
2E1
100
AcDbEntity
  8
0
100
AcDbPolyline
 62
250
  6
CONTINUOUS
 90
4
 70
0
 10
163.2199445835
 20
85.0605209452
 10
163.2197149955
 20
85.0713584032
 10
163.2194766582
 20
85.0781756302
 10
163.2192295714
 20
85.0807628132
  0
LINE
  5
2E2
100
AcDbEntity
  8
0
100
AcDbLine
 62
250
  6
CONTINUOUS
 10
163.0205885023
 20
84.8361351065
 11
163.0201743992
 21
84.8598783133
  0
LINE
  5
2E3
100
AcDbEntity
  8
0
100
AcDbLine
 62
250
  6
CONTINUOUS
 10
163.2203804194
 20
85.0277309092
 11
163.2199445835
 21
85.0605209452
  0
LINE
  5
2E4
100
AcDbEntity
  8
0
100
AcDbLine
 62
250
  6
CONTINUOUS
 10
163.021106732
 20
84.7880921038
 11
163.0205885023
 21
84.8361351065
  0
LINE
  5
2E5
100
AcDbEntity
  8
0
100
AcDbLine
 62
7
  6
CONTINUOUS
 10
163.0170173922
 20
127.0
 11
163.0218324005
 21
126.4482546929
  0
LINE
  5
2E6
100
AcDbEntity
  8
0
100
AcDbLine
 62
250
  6
CONTINUOUS
 10
163.2210991152
 20
84.9262989385
 11
163.2203804194
 21
85.0277309092
  0
LINE
  5
2E7
100
AcDbEntity
  8
0
100
AcDbLine
 62
250
  6
CONTINUOUS
 10
163.0216811722
 20
84.6813043443
 11
163.021106732
 21
84.7880921038
  0
LINE
  5
2E8
100
AcDbEntity
  8
0
100
AcDbLine
 62
7
  6
CONTINUOUS
 10
163.014643131
 20
83.2
 11
163.0143993319
 21
84.0
  0
LINE
  5
2E9
100
AcDbEntity
  8
0
100
AcDbLine
 62
250
  6
CONTINUOUS
 10
163.0218324005
 20
84.5807818517
 11
163.0216811722
 21
84.6813043443
  0
LINE
  5
2EA
100
AcDbEntity
  8
0
100
AcDbLine
 62
250
  6
CONTINUOUS
 10
163.2218247852
 20
84.5807818517
 11
163.2210991152
 21
84.9262989385
  0
LINE
  5
2EB
100
AcDbEntity
  8
0
100
AcDbLine
 62
7
  6
CONTINUOUS
 10
162.5
 20
82.65
 11
162.5
 21
82.6761825974
  0
LINE
  5
2EC
100
AcDbEntity
  8
0
100
AcDbLine
 62
7
  6
CONTINUOUS
 10
163.0
 20
84.3689805518
 11
163.0
 21
84.0
  0
LINE
  5
2ED
100
AcDbEntity
  8
0
100
AcDbLine
 62
7
  6
CONTINUOUS
 10
163.0
 20
125.8
 11
163.0
 21
126.0
  0
LINE
  5
2EE
100
AcDbEntity
  8
0
100
AcDbLine
 62
7
  6
CONTINUOUS
 10
163.0218324005
 20
83.6046132252
 11
163.0218324005
 21
84.5807818517
  0
LINE
  5
2EF
100
AcDbEntity
  8
0
100
AcDbLine
 62
7
  6
CONTINUOUS
 10
163.0218324005
 20
125.4192181483
 11
163.0218324005
 21
126.4482546929
  0
LINE
  5
2F0
100
AcDbEntity
  8
0
100
AcDbLine
 62
250
  6
CONTINUOUS
 10
163.2218247852
 20
83.75
 11
163.2218247852
 21
84.5807818517
  0
LINE
  5
2F1
100
AcDbEntity
  8
0
100
AcDbLine
 62
7
  6
CONTINUOUS
 10
163.0143993319
 20
126.0
 11
163.0147040808
 21
127.0
  0
LINE
  5
2F2
100
AcDbEntity
  8
0
100
AcDbLine
 62
250
  6
CONTINUOUS
 10
163.2211840317
 20
125.0915412491
 11
163.2218247852
 21
126.25
  0
LINE
  5
2F3
100
AcDbEntity
  8
0
100
AcDbLine
 62
250
  6
CONTINUOUS
 10
163.0214546874
 20
125.2639902991
 11
163.0218324005
 21
125.4192181483
  0
LINE
  5
2F4
100
AcDbEntity
  8
0
100
AcDbLine
 62
250
  6
CONTINUOUS
 10
163.2205046947
 20
124.9849975026
 11
163.2211840317
 21
125.0915412491
  0
LINE
  5
2F5
100
AcDbEntity
  8
0
100
AcDbLine
 62
250
  6
CONTINUOUS
 10
163.0208754965
 20
125.1873486095
 11
163.0214546874
 21
125.2639902991
  0
LINE
  5
2F6
100
AcDbEntity
  8
0
100
AcDbLine
 62
7
  6
CONTINUOUS
 10
163.0218324005
 20
83.6046132252
 11
163.0170173922
 21
83.2
  0
LINE
  5
2F7
100
AcDbEntity
  8
0
100
AcDbLine
 62
250
  6
CONTINUOUS
 10
163.0205123536
 20
125.1586857608
 11
163.0208754965
 21
125.1873486095
  0
LINE
  5
2F8
100
AcDbEntity
  8
0
100
AcDbLine
 62
7
  6
CONTINUOUS
 10
162.922099151
 20
125.5942180704
 11
162.9013474924
 21
125.001339877
  0
LWPOLYLINE
  5
2F9
100
AcDbEntity
  8
0
100
AcDbPolyline
 62
250
  6
CONTINUOUS
 90
13
 70
0
 10
163.0192371868
 20
125.1192295714
 10
163.0209498268
 20
125.0931276838
 10
163.0260545307
 20
125.0674721098
 10
163.0344640557
 20
125.0427017684
 10
163.0460346217
 20
125.0192404429
 10
163.0605683541
 20
124.9974895604
 10
163.0778166536
 20
124.9778213148
 10
163.0974844894
 20
124.9605722453
 10
163.1192354103
 20
124.9460375275
 10
163.1426972611
 20
124.9344659229
 10
163.1674686285
 20
124.9260554638
 10
163.1931257228
 20
124.9209500851
 10
163.2192295714
 20
124.9192371868
  0
LWPOLYLINE
  5
2FA
100
AcDbEntity
  8
0
100
AcDbPolyline
 62
250
  6
CONTINUOUS
 90
13
 70
0
 10
166.9807628132
 20
84.8807704286
 10
166.9790501084
 20
84.9068728088
 10
166.973945238
 20
84.932528753
 10
166.9655354891
 20
84.9572993305
 10
166.9539646882
 20
84.9807607523
 10
166.9394307508
 20
85.0025116061
 10
166.9221823031
 20
85.0221797285
 10
166.9025144071
 20
85.0394286015
 10
166.880763532
 20
85.0539630832
 10
166.85730182
 20
85.0655344577
 10
166.8325306759
 20
85.0739447226
 10
166.8068738919
 20
85.0790499657
 10
166.7807704286
 20
85.0807628132
  0
LWPOLYLINE
  5
2FB
100
AcDbEntity
  8
0
100
AcDbPolyline
 62
7
  6
CONTINUOUS
 90
16
 70
0
 10
162.9383912673
 20
84.9616163481
 10
162.9394450453
 20
84.9826360616
 10
162.9427057133
 20
85.0034821122
 10
162.9481553861
 20
85.0239209079
 10
162.955784184
 20
85.0437954554
 10
162.9655068028
 20
85.0627939327
 10
162.9770852577
 20
85.0804923255
 10
162.9902141083
 20
85.0965856431
 10
163.0048018636
 20
85.1111005887
 10
163.020913664
 20
85.1241115575
 10
163.0385822547
 20
85.1355500016
 10
163.0574801273
 20
85.1451154089
 10
163.0771276856
 20
85.1525700372
 10
163.0971909842
 20
85.1578598814
 10
163.1175323629
 20
85.1610188175
 10
163.1379282825
 20
85.1620641021
  0
LWPOLYLINE
  5
2FC
100
AcDbEntity
  8
0
100
AcDbPolyline
 62
250
  6
CONTINUOUS
 90
13
 70
0
 10
163.0192371868
 20
84.8807704286
 10
163.0209499715
 20
84.9068734148
 10
163.0260550467
 20
84.9325298149
 10
163.0344650715
 20
84.9573006832
 10
163.0460361621
 20
84.9807622245
 10
163.060570353
 20
85.0025130441
 10
163.0778189842
 20
85.0221810155
 10
163.0974869556
 20
85.0394296468
 10
163.1192377752
 20
85.0539638378
 10
163.1426993165
 20
85.0655349284
 10
163.167470185
 20
85.0739449532
 10
163.1931265851
 20
85.0790500285
 10
163.2192295714
 20
85.0807628132
  0
LWPOLYLINE
  5
2FD
100
AcDbEntity
  8
0
100
AcDbPolyline
 62
250
  6
CONTINUOUS
 90
13
 70
0
 10
166.9807628132
 20
125.1192295714
 10
166.9790500285
 20
125.0931265853
 10
166.9739449533
 20
125.0674701853
 10
166.9655349286
 20
125.042699317
 10
166.9539638381
 20
125.0192377757
 10
166.9394296473
 20
124.9974869562
 10
166.9221810161
 20
124.9778189848
 10
166.9025130448
 20
124.9605703535
 10
166.8807622252
 20
124.9460361625
 10
166.8573006838
 20
124.9344650718
 10
166.8325298153
 20
124.9260550468
 10
166.806873415
 20
124.9209499716
 10
166.7807704286
 20
124.9192371868
  0
LINE
  5
2FE
100
AcDbEntity
  8
0
100
AcDbLine
 62
7
  6
CONTINUOUS
 10
168.4713729729
 20
123.9843964523
 11
168.4860402013
 21
124.0860071484
  0
LINE
  5
2FF
100
AcDbEntity
  8
0
100
AcDbLine
 62
7
  6
CONTINUOUS
 10
167.077900849
 20
125.5942180704
 11
167.0986525076
 21
125.001339877
  0
LWPOLYLINE
  5
300
100
AcDbEntity
  8
0
100
AcDbPolyline
 62
250
  6
CONTINUOUS
 90
4
 70
0
 10
166.780214727
 20
124.9315757631
 10
166.7803909769
 20
124.925132628
 10
166.7805762108
 20
124.9209232339
 10
166.7807704286
 20
124.9192371868
  0
LWPOLYLINE
  5
301
100
AcDbEntity
  8
0
100
AcDbPolyline
 62
250
  6
CONTINUOUS
 90
6
 70
0
 10
166.9798849771
 20
125.1374409649
 10
166.9800416054
 20
125.1314513339
 10
166.9802071951
 20
125.1266327172
 10
166.9803834396
 20
125.1229939878
 10
166.9805686456
 20
125.1205262725
 10
166.9807628132
 20
125.1192295714
  0
LINE
  5
302
100
AcDbEntity
  8
0
100
AcDbLine
 62
250
  6
CONTINUOUS
 10
166.9795825165
 20
125.1526938916
 11
166.9798849771
 21
125.1374409649
  0
LINE
  5
303
100
AcDbEntity
  8
0
100
AcDbLine
 62
250
  6
CONTINUOUS
 10
166.7798925918
 20
124.9497129063
 11
166.780214727
 21
124.9315757631
  0
LINE
  5
304
100
AcDbEntity
  8
0
100
AcDbLine
 62
7
  6
CONTINUOUS
 10
166.9781675995
 20
83.6046132252
 11
166.9829826078
 21
83.2
  0
LINE
  5
305
100
AcDbEntity
  8
0
100
AcDbLine
 62
250
  6
CONTINUOUS
 10
166.9791465873
 20
125.1853547864
 11
166.9795825165
 21
125.1526938916
  0
LINE
  5
306
100
AcDbEntity
  8
0
100
AcDbLine
 62
250
  6
CONTINUOUS
 10
166.7794443077
 20
124.9905936203
 11
166.7798925918
 21
124.9497129063
  0
LINE
  5
307
100
AcDbEntity
  8
0
100
AcDbLine
 62
250
  6
CONTINUOUS
 10
166.9786055683
 20
125.2532154983
 11
166.9791465873
 21
125.1853547864
  0
LINE
  5
308
100
AcDbEntity
  8
0
100
AcDbLine
 62
250
  6
CONTINUOUS
 10
166.7786131736
 20
125.1423726453
 11
166.7794443077
 21
124.9905936203
  0
LWPOLYLINE
  5
309
100
AcDbEntity
  8
0
100
AcDbPolyline
 62
250
  6
CONTINUOUS
 90
3
 70
0
 10
166.9781675995
 20
125.4192181483
 10
166.9781774963
 20
125.3936912221
 10
166.9786055683
 20
125.2532154983
  0
LINE
  5
30A
100
AcDbEntity
  8
0
100
AcDbLine
 62
7
  6
CONTINUOUS
 10
166.9856006681
 20
126.0
 11
166.9852959192
 21
127.0
  0
LINE
  5
30B
100
AcDbEntity
  8
0
100
AcDbLine
 62
250
  6
CONTINUOUS
 10
168.4860402013
 20
100.1253431362
 11
168.5001873023
 21
96.7407957156
  0
LINE
  5
30C
100
AcDbEntity
  8
0
100
AcDbLine
 62
250
  6
CONTINUOUS
 10
166.7781752148
 20
126.25
 11
166.7786131736
 21
125.1423726453
  0
LINE
  5
30D
100
AcDbEntity
  8
0
100
AcDbLine
 62
7
  6
CONTINUOUS
 10
166.9781675995
 20
126.4482546929
 11
166.9781675995
 21
125.4192181483
  0
LINE
  5
30E
100
AcDbEntity
  8
0
100
AcDbLine
 62
7
  6
CONTINUOUS
 10
166.9781675995
 20
84.5807818517
 11
166.9781675995
 21
83.6046132252
  0
LINE
  5
30F
100
AcDbEntity
  8
0
100
AcDbLine
 62
7
  6
CONTINUOUS
 10
167.0
 20
84.3689805518
 11
167.0
 21
84.0
  0
LINE
  5
310
100
AcDbEntity
  8
0
100
AcDbLine
 62
7
  6
CONTINUOUS
 10
167.0
 20
125.8
 11
167.0
 21
126.0
  0
LINE
  5
311
100
AcDbEntity
  8
0
100
AcDbLine
 62
7
  6
CONTINUOUS
 10
167.5
 20
82.65
 11
167.5
 21
82.6761825974
  0
LINE
  5
312
100
AcDbEntity
  8
0
100
AcDbLine
 62
250
  6
CONTINUOUS
 10
168.4860402013
 20
124.0860071484
 11
168.4860402013
 21
100.1253431362
  0
LINE
  5
313
100
AcDbEntity
  8
0
100
AcDbLine
 62
250
  6
CONTINUOUS
 10
168.5001873023
 20
96.7407957156
 11
168.500495996
 21
84.615715068
  0
LINE
  5
314
100
AcDbEntity
  8
0
100
AcDbLine
 62
7
  6
CONTINUOUS
 10
168.85
 20
82.7372753246
 11
168.85
 21
84.3689805518
  0
LINE
  5
315
100
AcDbEntity
  8
0
100
AcDbLine
 62
7
  6
CONTINUOUS
 10
168.85
 20
125.8
 11
168.85
 21
127.2627246754
  0
LINE
  5
316
100
AcDbEntity
  8
0
100
AcDbLine
 62
7
  6
CONTINUOUS
 10
168.8726915844
 20
127.240033091
 11
168.8726915844
 21
125.8
  0
LINE
  5
317
100
AcDbEntity
  8
0
100
AcDbLine
 62
7
  6
CONTINUOUS
 10
168.8726915844
 20
84.3008504387
 11
168.8726915844
 21
82.759966909
  0
LINE
  5
318
100
AcDbEntity
  8
0
100
AcDbLine
 62
7
  6
CONTINUOUS
 10
166.985356869
 20
83.2
 11
166.9856006681
 21
84.0
  0
LINE
  5
319
100
AcDbEntity
  8
0
100
AcDbLine
 62
250
  6
CONTINUOUS
 10
166.7787381417
 20
84.8904514784
 11
166.7781752148
 21
83.75
  0
LINE
  5
31A
100
AcDbEntity
  8
0
100
AcDbLine
 62
250
  6
CONTINUOUS
 10
166.978528889
 20
84.73310785
 11
166.9781675995
 21
84.5807818517
  0
LINE
  5
31B
100
AcDbEntity
  8
0
100
AcDbLine
 62
250
  6
CONTINUOUS
 10
166.7795082667
 20
85.0164065855
 11
166.7787381417
 21
84.8904514784
  0
LINE
  5
31C
100
AcDbEntity
  8
0
100
AcDbLine
 62
7
  6
CONTINUOUS
 10
166.9829826078
 20
127.0
 11
166.9781675995
 21
126.4482546929
  0
LINE
  5
31D
100
AcDbEntity
  8
0
100
AcDbLine
 62
250
  6
CONTINUOUS
 10
166.97899048
 20
84.7991497459
 11
166.978528889
 21
84.73310785
  0
LINE
  5
31E
100
AcDbEntity
  8
0
100
AcDbLine
 62
250
  6
CONTINUOUS
 10
166.9795006098
 20
84.8421566921
 11
166.97899048
 21
84.7991497459
  0
LWPOLYLINE
  5
31F
100
AcDbEntity
  8
0
100
AcDbPolyline
 62
250
  6
CONTINUOUS
 90
6
 70
0
 10
166.7807704286
 20
85.0807628132
 10
166.7805476876
 20
85.0786230224
 10
166.7803298989
 20
85.0729593152
 10
166.7801170625
 20
85.0638207002
 10
166.7799071774
 20
85.0512259817
 10
166.7795082667
 20
85.0164065855
  0
LINE
  5
320
100
AcDbEntity
  8
0
100
AcDbLine
 62
250
  6
CONTINUOUS
 10
176.0316140001
 20
125.5942180704
 11
176.1001522399
 21
125.8
  0
LINE
  5
321
100
AcDbEntity
  8
0
100
AcDbLine
 62
250
  6
CONTINUOUS
 10
176.2319192248
 20
125.3955000394
 11
176.3
 21
125.5999084592
  0
LINE
  5
322
100
AcDbEntity
  8
0
100
AcDbLine
 62
250
  6
CONTINUOUS
 10
121.0804230666
 20
123.7554862685
 11
127.6644055331
 21
123.7554862685
  0
LINE
  5
323
100
AcDbEntity
  8
0
100
AcDbLine
 62
250
  6
CONTINUOUS
 10
128.5355944669
 20
123.7554862685
 11
148.0644055331
 21
123.7554862685
  0
LINE
  5
324
100
AcDbEntity
  8
0
100
AcDbLine
 62
250
  6
CONTINUOUS
 10
148.9355944669
 20
123.7554862685
 11
168.4644055331
 21
123.7554862685
  0
LINE
  5
325
100
AcDbEntity
  8
0
100
AcDbLine
 62
250
  6
CONTINUOUS
 10
169.3355944669
 20
123.7554862685
 11
175.9195759151
 21
123.7554862685
  0
LINE
  5
326
100
AcDbEntity
  8
0
100
AcDbLine
 62
250
  6
CONTINUOUS
 10
121.0804252556
 20
123.9843964523
 11
127.6713729729
 21
123.9843964523
  0
LINE
  5
327
100
AcDbEntity
  8
0
100
AcDbLine
 62
250
  6
CONTINUOUS
 10
128.5286270271
 20
123.9843964523
 11
148.0713729729
 21
123.9843964523
  0
LINE
  5
328
100
AcDbEntity
  8
0
100
AcDbLine
 62
250
  6
CONTINUOUS
 10
148.9286270271
 20
123.9843964523
 11
168.4713729729
 21
123.9843964523
  0
LINE
  5
329
100
AcDbEntity
  8
0
100
AcDbLine
 62
250
  6
CONTINUOUS
 10
169.3286270271
 20
123.9843964523
 11
175.9195747444
 21
123.9843964523
  0
LINE
  5
32A
100
AcDbEntity
  8
0
100
AcDbLine
 62
7
  6
CONTINUOUS
 10
121.5872149856
 20
124.2069091473
 11
175.4127850144
 21
124.2069091473
  0
LINE
  5
32B
100
AcDbEntity
  8
0
100
AcDbLine
 62
7
  6
CONTINUOUS
 10
121.4753388262
 20
124.5697919907
 11
136.4022509221
 21
124.5697919907
  0
LINE
  5
32C
100
AcDbEntity
  8
0
100
AcDbLine
 62
7
  6
CONTINUOUS
 10
160.5977490779
 20
124.5697919907
 11
175.5246611738
 21
124.5697919907
  0
LINE
  5
32D
100
AcDbEntity
  8
0
100
AcDbLine
 62
7
  6
CONTINUOUS
 10
133.9059140668
 20
124.7940935486
 11
130.0940859332
 21
124.7940935486
  0
LINE
  5
32E
100
AcDbEntity
  8
0
100
AcDbLine
 62
7
  6
CONTINUOUS
 10
163.0940859332
 20
124.7940935486
 11
166.9059140668
 21
124.7940935486
  0
LINE
  5
32F
100
AcDbEntity
  8
0
100
AcDbLine
 62
7
  6
CONTINUOUS
 10
166.7807704286
 20
124.9192371868
 11
163.2192295714
 21
124.9192371868
  0
LINE
  5
330
100
AcDbEntity
  8
0
100
AcDbLine
 62
7
  6
CONTINUOUS
 10
133.7807704286
 20
124.9192371868
 11
130.2192295714
 21
124.9192371868
  0
LINE
  5
331
100
AcDbEntity
  8
0
100
AcDbLine
 62
7
  6
CONTINUOUS
 10
138.7058336638
 20
125.1931119978
 11
158.2941663362
 21
125.1931119978
  0
LWPOLYLINE
  5
332
100
AcDbEntity
  8
0
100
AcDbPolyline
 62
250
  6
CONTINUOUS
 90
13
 70
0
 10
175.9195747444
 20
123.7554862685
 10
175.9452191467
 20
123.755256342
 10
175.9706458216
 20
123.756311852
 10
175.9953164979
 20
123.758301848
 10
176.0186352744
 20
123.7604270833
 10
176.040192582
 20
123.7627019757
 10
176.0597750251
 20
123.7658933108
 10
176.0771270055
 20
123.7695182932
 10
176.0917491915
 20
123.7730403923
 10
176.1033479675
 20
123.7771297602
 10
176.1118958128
 20
123.7818014609
 10
176.1173527175
 20
123.786331459
 10
176.1195442834
 20
123.790337307
  0
LINE
  5
333
100
AcDbEntity
  8
0
100
AcDbLine
 62
250
  6
CONTINUOUS
 10
176.1001522399
 20
84.6310194482
 11
176.0677788307
 21
84.7282186559
  0
LINE
  5
334
100
AcDbEntity
  8
0
100
AcDbLine
 62
250
  6
CONTINUOUS
 10
176.3
 20
84.831110989
 11
176.267741705
 21
84.9279645733
  0
LINE
  5
335
100
AcDbEntity
  8
0
100
AcDbLine
 62
7
  6
CONTINUOUS
 10
170.640033091
 20
126.7401092434
 11
170.640033091
 21
125.8
  0
LINE
  5
336
100
AcDbEntity
  8
0
100
AcDbLine
 62
7
  6
CONTINUOUS
 10
170.640033091
 20
84.3008504387
 11
170.640033091
 21
83.2598907566
  0
LINE
  5
337
100
AcDbEntity
  8
0
100
AcDbLine
 62
7
  6
CONTINUOUS
 10
170.75
 20
126.8500761524
 11
170.75
 21
125.8
  0
LINE
  5
338
100
AcDbEntity
  8
0
100
AcDbLine
 62
7
  6
CONTINUOUS
 10
170.75
 20
84.6310194482
 11
170.75
 21
83.1499238476
  0
LINE
  5
339
100
AcDbEntity
  8
0
100
AcDbLine
 62
250
  6
CONTINUOUS
 10
169.300544427
 20
96.9623659818
 11
169.299504004
 21
84.615715068
  0
LINE
  5
33A
100
AcDbEntity
  8
0
100
AcDbLine
 62
250
  6
CONTINUOUS
 10
169.3139597987
 20
124.0860071484
 11
169.3127351998
 21
99.5470858832
  0
LINE
  5
33B
100
AcDbEntity
  8
0
100
AcDbLine
 62
250
  6
CONTINUOUS
 10
169.3127351998
 20
99.5470858832
 11
169.300544427
 21
96.9623659818
  0
LWPOLYLINE
  5
33C
100
AcDbEntity
  8
0
100
AcDbPolyline
 62
250
  6
CONTINUOUS
 90
6
 70
0
 10
166.9807628132
 20
84.8807704286
 10
166.9805401293
 20
84.8794134727
 10
166.9803223721
 20
84.8760250501
 10
166.9801095416
 20
84.8706051607
 10
166.9798996205
 20
84.8630158519
 10
166.9795006098
 20
84.8421566921
  0
LINE
  5
33D
100
AcDbEntity
  8
0
100
AcDbLine
 62
7
  6
CONTINUOUS
 10
167.0598198108
 20
84.7282186559
 11
167.0
 21
84.3689805518
  0
LWPOLYLINE
  5
33E
100
AcDbEntity
  8
0
100
AcDbPolyline
 62
250
  6
CONTINUOUS
 90
31
 70
0
 10
168.4874982793
 20
99.4953900279
 10
168.4911204241
 20
99.5106489362
 10
168.4990271776
 20
99.5256936707
 10
168.5111356857
 20
99.540366579
 10
168.5273190645
 20
99.5545139053
 10
168.54740773
 20
99.567987401
 10
168.571191175
 20
99.5806458787
 10
168.5984201753
 20
99.5923566915
 10
168.6288094007
 20
99.602997123
 10
168.6620404056
 20
99.6124556731
 10
168.6977649655
 20
99.6206332266
 10
168.7356087264
 20
99.6274440917
 10
168.7751751273
 20
99.6328168981
 10
168.8160495556
 20
99.6366953446
 10
168.8578036923
 20
99.6390387894
 10
168.9
 20
99.6398226758
 10
168.9421963077
 20
99.6390387894
 10
168.9839504444
 20
99.6366953446
 10
169.0248248727
 20
99.6328168981
 10
169.0643912736
 20
99.6274440917
 10
169.1022350345
 20
99.6206332266
 10
169.1379595944
 20
99.6124556731
 10
169.1711905993
 20
99.602997123
 10
169.2015798247
 20
99.5923566915
 10
169.228808825
 20
99.5806458787
 10
169.25259227
 20
99.567987401
 10
169.2726809355
 20
99.5545139053
 10
169.2888643143
 20
99.540366579
 10
169.3009728224
 20
99.5256936707
 10
169.3088795759
 20
99.5106489362
 10
169.3125017207
 20
99.4953900279
  0
LWPOLYLINE
  5
33F
100
AcDbEntity
  8
0
100
AcDbPolyline
 62
250
  6
CONTINUOUS
 90
31
 70
0
 10
168.4992571104
 20
97.0063108972
 10
168.5027759889
 20
97.0211347121
 10
168.5104573253
 20
97.0357504772
 10
168.5222206359
 20
97.0500050345
 10
168.5379426662
 20
97.0637490134
 10
168.5574586722
 20
97.0768383879
 10
168.5805641396
 20
97.0891359874
 10
168.6070169427
 20
97.1005129443
 10
168.63653989
 20
97.1108500425
 10
168.6688236131
 20
97.1200389603
 10
168.703529814
 20
97.127983408
 10
168.7402948097
 20
97.1346001362
 10
168.7787333428
 20
97.1398198083
 10
168.8184426192
 20
97.1435877282
 10
168.8590065289
 20
97.1458644121
 10
168.9000000057
 20
97.1466260021
 10
168.9409934825
 20
97.1458645183
 10
168.9815573923
 20
97.1435879402
 10
169.0212666686
 20
97.1398201232
 10
169.0597052015
 20
97.1346005506
 10
169.0964701971
 20
97.1279839183
 10
169.1311763977
 20
97.1200395604
 10
169.1634601205
 20
97.1108507261
 10
169.1929830675
 20
97.100513705
 10
169.2194358702
 20
97.0891368164
 10
169.2425413372
 20
97.0768392763
 10
169.2620573427
 20
97.0637499527
 10
169.2777793719
 20
97.0500060145
 10
169.289542681
 20
97.0357514877
 10
169.2972240161
 20
97.0211357436
 10
169.3007428941
 20
97.0063119405
  0
LWPOLYLINE
  5
340
100
AcDbEntity
  8
0
100
AcDbPolyline
 62
250
  6
CONTINUOUS
 90
31
 70
0
 10
168.4860402013
 20
100.1253431362
 10
168.489685934
 20
100.135562519
 10
168.4976297627
 20
100.145637897
 10
168.5097884649
 20
100.1554637406
 10
168.5260346631
 20
100.1649370228
 10
168.54619817
 20
100.1739586223
 10
168.5700677805
 20
100.1824343613
 10
168.5973934644
 20
100.1902755633
 10
168.6278889771
 20
100.1973999832
 10
168.6612348755
 20
100.2037329918
 10
168.6970818579
 20
100.20920825
 10
168.735054424
 20
100.2137684047
 10
168.7747548083
 20
100.2173656881
 10
168.8157671459
 20
100.2199624178
 10
168.8576618288
 20
100.2215313931
 10
168.9000000077
 20
100.2220561797
 10
168.9423381866
 20
100.2215312795
 10
168.9842328693
 20
100.2199621906
 10
169.0252452064
 20
100.2173653508
 10
169.0649455902
 20
100.2137679609
 10
169.1029181555
 20
100.2092077033
 10
169.1387651372
 20
100.2037323488
 10
169.1721110345
 20
100.1973992508
 10
169.2026065461
 20
100.1902747482
 10
169.2299322288
 20
100.1824334728
 10
169.2538018383
 20
100.1739576286
 10
169.273965344
 20
100.1649359332
 10
169.2902115402
 20
100.1554626898
 10
169.3023702402
 20
100.1456370616
 10
169.3103140669
 20
100.1355620339
 10
169.3139597987
 20
100.1253431362
  0
LWPOLYLINE
  5
341
100
AcDbEntity
  8
0
100
AcDbPolyline
 62
250
  6
CONTINUOUS
 90
31
 70
0
 10
168.500495996
 20
96.471060973
 10
168.5040144016
 20
96.4809221361
 10
168.511680795
 20
96.4906446485
 10
168.5234148702
 20
96.500126666
 10
168.5390937114
 20
96.5092688636
 10
168.5585530813
 20
96.5179754758
 10
168.5815891412
 20
96.5261553001
 10
168.6079605859
 20
96.5337226519
 10
168.6373911721
 20
96.5405982625
 10
168.6695726115
 20
96.5467101092
 10
168.7041678004
 20
96.5519941698
 10
168.7408143507
 20
96.5563950933
 10
168.7791283862
 20
96.5598667796
 10
168.8187085638
 20
96.5623728624
 10
168.8591402771
 20
96.5638870902
 10
168.9
 20
96.5643936014
 10
168.9408597229
 20
96.5638870902
 10
168.9812914362
 20
96.5623728624
 10
169.0208716138
 20
96.5598667796
 10
169.0591856493
 20
96.5563950933
 10
169.0958321996
 20
96.5519941698
 10
169.1304273885
 20
96.5467101092
 10
169.1626088279
 20
96.5405982625
 10
169.1920394141
 20
96.5337226519
 10
169.2184108588
 20
96.5261553001
 10
169.2414469138
 20
96.51797562
 10
169.2609062806
 20
96.5092691522
 10
169.2765851298
 20
96.500126666
 10
169.2883192182
 20
96.4906437817
 10
169.2959856175
 20
96.4809199684
 10
169.2995040127
 20
96.4710570707
  0
LWPOLYLINE
  5
342
100
AcDbEntity
  8
0
100
AcDbPolyline
 62
250
  6
CONTINUOUS
 90
16
 70
0
 10
121.0804252556
 20
123.9843964523
 10
121.0594815909
 20
123.98324338
 10
121.0387740252
 20
123.9799696806
 10
121.0185299128
 20
123.9746131019
 10
120.9989818575
 20
123.9672388722
 10
120.9803322047
 20
123.9579271308
 10
120.9627562621
 20
123.9467614369
 10
120.9464216772
 20
123.9338302443
 10
120.931550623
 20
123.9192899089
 10
120.9183664294
 20
123.9033653104
 10
120.9070083318
 20
123.8862574208
 10
120.897574138
 20
123.8681513767
 10
120.8901620613
 20
123.8492883481
 10
120.8848263258
 20
123.8298946266
 10
120.8815893936
 20
123.8101732588
 10
120.8804557166
 20
123.790337307
  0
LINE
  5
343
100
AcDbEntity
  8
0
100
AcDbLine
 62
250
  6
CONTINUOUS
 10
130.0218324005
 20
125.4192181483
 11
133.9781675995
 21
125.4192181483
  0
LINE
  5
344
100
AcDbEntity
  8
0
100
AcDbLine
 62
250
  6
CONTINUOUS
 10
163.0218324005
 20
125.4192181483
 11
166.9781675995
 21
125.4192181483
  0
LINE
  5
345
100
AcDbEntity
  8
0
100
AcDbLine
 62
7
  6
CONTINUOUS
 10
176.0316140001
 20
125.5942180704
 11
167.077900849
 21
125.5942180704
  0
LINE
  5
346
100
AcDbEntity
  8
0
100
AcDbLine
 62
7
  6
CONTINUOUS
 10
162.922099151
 20
125.5942180704
 11
134.077900849
 21
125.5942180704
  0
LINE
  5
347
100
AcDbEntity
  8
0
100
AcDbLine
 62
7
  6
CONTINUOUS
 10
129.922099151
 20
125.5942180704
 11
120.9683859999
 21
125.5942180704
  0
LINE
  5
348
100
AcDbEntity
  8
0
100
AcDbLine
 62
7
  6
CONTINUOUS
 10
120.8998477601
 20
125.8
 11
130.0
 21
125.8
  0
LINE
  5
349
100
AcDbEntity
  8
0
100
AcDbLine
 62
7
  6
CONTINUOUS
 10
134.0
 20
125.8
 11
163.0
 21
125.8
  0
LINE
  5
34A
100
AcDbEntity
  8
0
100
AcDbLine
 62
7
  6
CONTINUOUS
 10
167.0
 20
125.8
 11
176.1001522399
 21
125.8
  0
LINE
  5
34B
100
AcDbEntity
  8
0
100
AcDbLine
 62
7
  6
CONTINUOUS
 10
167.0
 20
126.0
 11
166.9856006681
 21
126.0
  0
LINE
  5
34C
100
AcDbEntity
  8
0
100
AcDbLine
 62
7
  6
CONTINUOUS
 10
134.0
 20
126.0
 11
133.9856006681
 21
126.0
  0
LINE
  5
34D
100
AcDbEntity
  8
0
100
AcDbLine
 62
7
  6
CONTINUOUS
 10
130.0
 20
126.0
 11
130.0143993319
 21
126.0
  0
LINE
  5
34E
100
AcDbEntity
  8
0
100
AcDbLine
 62
7
  6
CONTINUOUS
 10
163.0
 20
126.0
 11
163.0143993319
 21
126.0
  0
LINE
  5
34F
100
AcDbEntity
  8
0
100
AcDbLine
 62
7
  6
CONTINUOUS
 10
133.7781752148
 20
126.25
 11
130.2218247852
 21
126.25
  0
LINE
  5
350
100
AcDbEntity
  8
0
100
AcDbLine
 62
7
  6
CONTINUOUS
 10
163.2218247852
 20
126.25
 11
166.7781752148
 21
126.25
  0
LINE
  5
351
100
AcDbEntity
  8
0
100
AcDbLine
 62
7
  6
CONTINUOUS
 10
133.9829826078
 20
127.0
 11
130.0170173922
 21
127.0
  0
LINE
  5
352
100
AcDbEntity
  8
0
100
AcDbLine
 62
7
  6
CONTINUOUS
 10
163.0170173922
 20
127.0
 11
166.9829826078
 21
127.0
  0
LINE
  5
353
100
AcDbEntity
  8
0
100
AcDbLine
 62
7
  6
CONTINUOUS
 10
126.8598907566
 20
127.240033091
 11
128.1273084156
 21
127.240033091
  0
LINE
  5
354
100
AcDbEntity
  8
0
100
AcDbLine
 62
7
  6
CONTINUOUS
 10
168.8726915844
 20
127.240033091
 11
170.1401092434
 21
127.240033091
  0
LINE
  5
355
100
AcDbEntity
  8
0
100
AcDbLine
 62
7
  6
CONTINUOUS
 10
128.15
 20
127.2627246754
 11
168.85
 21
127.2627246754
  0
LINE
  5
356
100
AcDbEntity
  8
0
100
AcDbLine
 62
7
  6
CONTINUOUS
 10
170.2500761524
 20
127.35
 11
126.7499238476
 21
127.35
  0
LINE
  5
357
100
AcDbEntity
  8
0
100
AcDbLine
 62
7
  6
CONTINUOUS
 10
158.6299581505
 20
125.1544965522
 11
160.5977490779
 21
124.5697919907
  0
LINE
  5
358
100
AcDbEntity
  8
0
100
AcDbLine
 62
7
  6
CONTINUOUS
 10
167.043634339
 20
125.8
 11
167.077900849
 21
125.5942180704
  0
LINE
  5
359
100
AcDbEntity
  8
0
100
AcDbLine
 62
7
  6
CONTINUOUS
 10
177.5003805997
 20
128.35
 11
119.4996194003
 21
128.35
  0
LINE
  5
35A
100
AcDbEntity
  8
0
100
AcDbLine
 62
7
  6
CONTINUOUS
 10
169.3286270271
 20
123.9843964523
 11
169.3139597987
 21
124.0860071484
  0
LINE
  5
35B
100
AcDbEntity
  8
0
100
AcDbLine
 62
250
  6
CONTINUOUS
 10
176.0677722489
 20
84.8774861377
 11
176.0307819239
 21
93.3051983416
  0
LINE
  5
35C
100
AcDbEntity
  8
0
100
AcDbLine
 62
250
  6
CONTINUOUS
 10
176.267741705
 20
84.9279645733
 11
176.2307514486
 21
93.352439966
  0
LINE
  5
35D
100
AcDbEntity
  8
0
100
AcDbLine
 62
250
  6
CONTINUOUS
 10
176.0307819239
 20
93.3051983416
 11
175.9958293615
 21
101.9204650912
  0
LINE
  5
35E
100
AcDbEntity
  8
0
100
AcDbLine
 62
250
  6
CONTINUOUS
 10
176.2307514486
 20
93.352439966
 11
176.1957989178
 21
101.9641868831
  0
LINE
  5
35F
100
AcDbEntity
  8
0
100
AcDbLine
 62
250
  6
CONTINUOUS
 10
175.9958293615
 20
101.9204650912
 11
175.9631049058
 21
110.6781602745
  0
LINE
  5
360
100
AcDbEntity
  8
0
100
AcDbLine
 62
250
  6
CONTINUOUS
 10
176.1957989178
 20
101.9641868831
 11
176.1630744565
 21
110.7182578831
  0
LINE
  5
361
100
AcDbEntity
  8
0
100
AcDbLine
 62
250
  6
CONTINUOUS
 10
175.9631049058
 20
110.6781602745
 11
175.9333699321
 21
119.3989233912
  0
LWPOLYLINE
  5
362
100
AcDbEntity
  8
0
100
AcDbPolyline
 62
250
  6
CONTINUOUS
 90
3
 70
0
 10
176.1630744565
 20
110.7182578831
 10
176.1333394403
 20
119.4348631995
 10
176.1195453881
 20
123.7903530867
  0
LINE
  5
363
100
AcDbEntity
  8
0
100
AcDbLine
 62
7
  6
CONTINUOUS
 10
175.85
 20
124.4053556742
 11
175.85
 21
124.3137343213
  0
LINE
  5
364
100
AcDbEntity
  8
0
100
AcDbLine
 62
250
  6
CONTINUOUS
 10
175.9195747444
 20
123.9843964523
 11
175.9333699321
 21
119.3989233912
  0
LINE
  5
365
100
AcDbEntity
  8
0
100
AcDbLine
 62
250
  6
CONTINUOUS
 10
176.0677788307
 20
84.8774861377
 11
176.0677788307
 21
84.7282186559
  0
LINE
  5
366
100
AcDbEntity
  8
0
100
AcDbLine
 62
7
  6
CONTINUOUS
 10
176.3
 20
84.831110989
 11
176.3
 21
125.5999084592
  0
LINE
  5
367
100
AcDbEntity
  8
0
100
AcDbLine
 62
250
  6
CONTINUOUS
 10
175.9195747444
 20
123.9843964523
 11
176.0322758471
 21
125.5942180704
  0
LINE
  5
368
100
AcDbEntity
  8
0
100
AcDbLine
 62
250
  6
CONTINUOUS
 10
176.1195453881
 20
123.7903530867
 11
176.2319192248
 21
125.3955000394
  0
LINE
  5
369
100
AcDbEntity
  8
0
100
AcDbLine
 62
7
  6
CONTINUOUS
 10
170.640033091
 20
84.3008504387
 11
170.75
 21
84.6310194482
  0
LINE
  5
36A
100
AcDbEntity
  8
0
100
AcDbLine
 62
250
  6
CONTINUOUS
 10
166.8620717175
 20
85.1620641021
 11
166.7807704286
 21
85.0807628132
  0
LINE
  5
36B
100
AcDbEntity
  8
0
100
AcDbLine
 62
250
  6
CONTINUOUS
 10
167.0616087327
 20
84.9616163481
 11
166.9807628132
 21
84.8807704286
  0
LINE
  5
36C
100
AcDbEntity
  8
0
100
AcDbLine
 62
250
  6
CONTINUOUS
 10
166.7807704286
 20
124.9192371868
 11
166.9059140668
 21
124.7940935486
  0
LINE
  5
36D
100
AcDbEntity
  8
0
100
AcDbLine
 62
250
  6
CONTINUOUS
 10
166.9807628132
 20
125.1192295714
 11
167.0986525076
 21
125.001339877
  0
LWPOLYLINE
  5
36E
100
AcDbEntity
  8
0
100
AcDbPolyline
 62
7
  6
CONTINUOUS
 90
13
 70
0
 10
176.2319192248
 20
125.3955000394
 10
176.230152761
 20
125.4213740065
 10
176.2250150494
 20
125.4467872894
 10
176.2165947177
 20
125.4713179855
 10
176.2050394211
 20
125.4945626763
 10
176.1905446677
 20
125.5161324915
 10
176.1733446203
 20
125.5356558892
 10
176.1537176221
 20
125.5528099618
 10
176.1320030206
 20
125.5672976259
 10
176.1085883979
 20
125.5788471989
 10
176.0838816772
 20
125.5872614176
 10
176.058298751
 20
125.5924125855
 10
176.0322758471
 20
125.5942180704
  0
LWPOLYLINE
  5
36F
100
AcDbEntity
  8
0
100
AcDbPolyline
 62
250
  6
CONTINUOUS
 90
16
 70
0
 10
176.1195442834
 20
123.790337307
 10
176.1183666877
 20
123.8105678671
 10
176.115022768
 20
123.8305779658
 10
176.1095489644
 20
123.8501495442
 10
176.1020049275
 20
123.8690693221
 10
176.092472868
 20
123.8871311223
 10
176.0810566609
 20
123.9041381174
 10
176.0678807137
 20
123.9199049745
 10
176.0530886105
 20
123.9342598753
 10
176.0368415475
 20
123.947046388
 10
176.0193165762
 20
123.9581251723
 10
176.0007046738
 20
123.9673754978
 10
175.9812086626
 20
123.9746965596
 10
175.9610409993
 20
123.9800085769
 10
175.9404214598
 20
123.9832536621
 10
175.9195747444
 20
123.9843964523
  0
LINE
  5
370
100
AcDbEntity
  8
0
100
AcDbLine
 62
7
  6
CONTINUOUS
 10
178.0
 20
127.8497711479
 11
178.0
 21
82.1502288521
  0
LINE
  5
371
100
AcDbEntity
  8
0
100
AcDbLine
 62
7
  6
CONTINUOUS
 10
169.3712910908
 20
84.7282186559
 11
169.299504004
 21
84.615715068
  0
LINE
  5
372
100
AcDbEntity
  8
0
100
AcDbLine
 62
7
  6
CONTINUOUS
 10
168.8726915844
 20
82.759966909
 11
168.85
 21
82.7372753246
  0
LINE
  5
373
100
AcDbEntity
  8
0
100
AcDbLine
 62
7
  6
CONTINUOUS
 10
168.8726915844
 20
127.240033091
 11
168.85
 21
127.2627246754
  0
LWPOLYLINE
  5
374
100
AcDbEntity
  8
0
100
AcDbPolyline
 62
250
  6
CONTINUOUS
 90
13
 70
0
 10
176.2677483698
 20
84.9279445629
 10
176.2656379856
 20
84.9214306048
 10
176.2602144827
 20
84.9150256607
 10
176.2515686774
 20
84.9088367609
 10
176.2398453431
 20
84.902967289
 10
176.2252407851
 20
84.89751547
 10
176.2079995536
 20
84.8925727492
 10
176.1884103494
 20
84.8882220246
 10
176.166801191
 20
84.8845360156
 10
176.1435339213
 20
84.8815762885
 10
176.1189981468
 20
84.8793924619
 10
176.093604714
 20
84.8780213521
 10
176.0677788307
 20
84.8774861377
  0
ELLIPSE
  5
375
100
AcDbEntity
  8
0
100
AcDbEllipse
 62
7
  6
CONTINUOUS
 10
177.499923836
 20
127.849313827
 30
0.0
 11
0.1582391023
 21
0.4751033573
 31
0.0
 40
0.9984778551
 41
-1.2488325878
 42
0.3210503505
  0
ELLIPSE
  5
376
100
AcDbEntity
  8
0
100
AcDbEllipse
 62
7
  6
CONTINUOUS
 10
177.499923836
 20
82.150686173
 30
0.0
 11
-0.1582391023
 21
0.4751033573
 31
0.0
 40
0.9984778551
 41
2.8205423031
 42
4.3904252414
  0
ELLIPSE
  5
377
100
AcDbEntity
  8
0
100
AcDbEllipse
 62
7
  6
CONTINUOUS
 10
119.500076164
 20
82.150686173
 30
0.0
 11
-0.1582391023
 21
-0.4751033573
 31
0.0
 40
0.9984778551
 41
-1.2488325878
 42
0.3210503505
  0
ELLIPSE
  5
378
100
AcDbEntity
  8
0
100
AcDbEllipse
 62
7
  6
CONTINUOUS
 10
119.500076164
 20
127.849313827
 30
0.0
 11
0.1582391023
 21
-0.4751033573
 31
0.0
 40
0.9984778551
 41
2.8205423031
 42
4.3904252414
  0
ELLIPSE
  5
379
100
AcDbEntity
  8
0
100
AcDbEllipse
 62
7
  6
CONTINUOUS
 10
138.7744448851
 20
125.0534383262
 30
0.0
 11
0.5184610347
 21
-0.0198987725
 31
0.0
 40
0.2666525449
 41
1.7137488789
 42
2.4756413315
  0
ELLIPSE
  5
37A
100
AcDbEntity
  8
0
100
AcDbEllipse
 62
7
  6
CONTINUOUS
 10
158.2255551149
 20
125.0534383262
 30
0.0
 11
0.5184610347
 21
0.0198987725
 31
0.0
 40
0.2666525449
 41
0.6659513221
 42
1.4278437747
  0
ELLIPSE
  5
37B
100
AcDbEntity
  8
0
100
AcDbEllipse
 62
7
  6
CONTINUOUS
 10
121.7162850253
 20
124.2835740045
 30
0.0
 11
0.5625171826
 21
-0.1508010893
 31
0.0
 40
0.4324648683
 41
2.1257159162
 42
3.2570136827
  0
ELLIPSE
  5
37C
100
AcDbEntity
  8
0
100
AcDbEllipse
 62
7
  6
CONTINUOUS
 10
175.2837149747
 20
124.2835740045
 30
0.0
 11
0.5625171826
 21
0.1508010893
 31
0.0
 40
0.4324648683
 41
-0.1154210291
 42
1.0158767374
  0
ELLIPSE
  5
37D
100
AcDbEntity
  8
0
100
AcDbEllipse
 62
7
  6
CONTINUOUS
 10
175.2837149747
 20
124.345270133
 30
0.0
 11
0.5662295817
 21
-0.0334178581
 31
0.0
 40
0.2371205997
 41
-1.3268576108
 42
0.0139935206
  0
ELLIPSE
  5
37E
100
AcDbEntity
  8
0
100
AcDbEllipse
 62
7
  6
CONTINUOUS
 10
120.9000304656
 20
125.5997255308
 30
0.0
 11
-0.0632956409
 21
0.1900413429
 31
0.0
 40
0.9984778551
 41
-0.3210503505
 42
1.2488325878
  0
ELLIPSE
  5
37F
100
AcDbEntity
  8
0
100
AcDbEllipse
 62
7
  6
CONTINUOUS
 10
126.8600430731
 20
126.7399569269
 30
0.0
 11
0.3536610946
 21
-0.3536610946
 31
0.0
 40
0.9996954599
 41
2.3563467834
 42
3.9268385237
  0
ELLIPSE
  5
380
100
AcDbEntity
  8
0
100
AcDbEllipse
 62
7
  6
CONTINUOUS
 10
170.1399569269
 20
126.7399569269
 30
0.0
 11
0.3536610946
 21
0.3536610946
 31
0.0
 40
0.9996954599
 41
-0.7852458701
 42
0.7852458701
  0
ELLIPSE
  5
381
100
AcDbEntity
  8
0
100
AcDbEllipse
 62
7
  6
CONTINUOUS
 10
126.8600430731
 20
83.2600430731
 30
0.0
 11
-0.3536610946
 21
-0.3536610946
 31
0.0
 40
0.9996954599
 41
-0.7852458701
 42
0.7852458701
  0
ELLIPSE
  5
382
100
AcDbEntity
  8
0
100
AcDbEllipse
 62
7
  6
CONTINUOUS
 10
170.1399569269
 20
83.2600430731
 30
0.0
 11
-0.3536610946
 21
0.3536610946
 31
0.0
 40
0.9996954599
 41
2.3563467834
 42
3.9268385237
  0
ELLIPSE
  5
383
100
AcDbEntity
  8
0
100
AcDbEllipse
 62
7
  6
CONTINUOUS
 10
176.0999695344
 20
125.5997255308
 30
0.0
 11
0.0632956409
 21
0.1900413429
 31
0.0
 40
0.9984778551
 41
-1.2488325878
 42
0.3210503505
  0
ELLIPSE
  5
384
100
AcDbEntity
  8
0
100
AcDbEllipse
 62
7
  6
CONTINUOUS
 10
176.0999695344
 20
84.8312939174
 30
0.0
 11
-0.0632956409
 21
0.1900413429
 31
0.0
 40
0.9984778551
 41
-3.4626430041
 42
-1.8927600658
  0
ELLIPSE
  5
385
100
AcDbEntity
  8
0
100
AcDbEllipse
 62
7
  6
CONTINUOUS
 10
166.8986443395
 20
125.0013556605
 30
0.0
 11
-0.0817242817
 21
0.1921446883
 31
0.0
 40
0.9508138638
 41
-3.5258920419
 42
-1.9551718675
  0
ELLIPSE
  5
386
100
AcDbEntity
  8
0
100
AcDbEllipse
 62
7
  6
CONTINUOUS
 10
163.1013556605
 20
125.0013556605
 30
0.0
 11
0.0817242817
 21
0.1921446883
 31
0.0
 40
0.9508138638
 41
-4.3280134397
 42
-2.7572932653
  0
ELLIPSE
  5
387
100
AcDbEntity
  8
0
100
AcDbEllipse
 62
7
  6
CONTINUOUS
 10
168.9
 20
84.6164785675
 30
0.0
 11
0.3997475194
 21
0.0
 31
0.0
 40
0.054727278
 41
-3.1066860685
 42
-0.034906585
  0
ELLIPSE
  5
388
100
AcDbEntity
  8
0
100
AcDbEllipse
 62
7
  6
CONTINUOUS
 10
148.5
 20
84.6164785675
 30
0.0
 11
0.3997475194
 21
0.0
 31
0.0
 40
0.054727278
 41
-3.1066860685
 42
-0.034906585
  0
ELLIPSE
  5
389
100
AcDbEntity
  8
0
100
AcDbEllipse
 62
7
  6
CONTINUOUS
 10
128.1
 20
84.6164785675
 30
0.0
 11
0.3997475194
 21
0.0
 31
0.0
 40
0.054727278
 41
-3.1066860685
 42
-0.034906585
  0
ELLIPSE
  5
38A
100
AcDbEntity
  8
0
100
AcDbEllipse
 62
7
  6
CONTINUOUS
 10
133.8986443395
 20
125.0013556605
 30
0.0
 11
-0.0817242817
 21
0.1921446883
 31
0.0
 40
0.9508138638
 41
-3.5258920419
 42
-1.9551718675
  0
ELLIPSE
  5
38B
100
AcDbEntity
  8
0
100
AcDbEllipse
 62
7
  6
CONTINUOUS
 10
130.1013556605
 20
125.0013556605
 30
0.0
 11
0.0817242817
 21
0.1921446883
 31
0.0
 40
0.9508138638
 41
-4.3280134397
 42
-2.7572932653
  0
ELLIPSE
  5
38C
100
AcDbEntity
  8
0
100
AcDbEllipse
 62
7
  6
CONTINUOUS
 10
162.940271535
 20
84.9279445628
 30
0.0
 11
0.0
 21
0.2
 31
0.0
 40
0.0087268678
 41
-4.4573407018
 42
-3.1939525312
  0
ELLIPSE
  5
38D
100
AcDbEntity
  8
0
100
AcDbEllipse
 62
7
  6
CONTINUOUS
 10
151.9797018334
 20
210.5694231657
 30
0.0
 11
-4.2136799623
 21
498.1999795448
 31
0.0
 40
0.0338810525
 41
-1.8261311648
 42
-1.746232224
  0
ELLIPSE
  5
38E
100
AcDbEntity
  8
0
100
AcDbEllipse
 62
7
  6
CONTINUOUS
 10
145.0202981666
 20
210.5694231657
 30
0.0
 11
4.2136799623
 21
498.1999795448
 31
0.0
 40
0.0338810525
 41
-4.5369530832
 42
-4.4570541424
  0
ELLIPSE
  5
38F
100
AcDbEntity
  8
0
100
AcDbEllipse
 62
7
  6
CONTINUOUS
 10
167.059728465
 20
84.9279445628
 30
0.0
 11
-0.0
 21
0.2
 31
0.0
 40
0.0087268678
 41
-3.089232776
 42
-1.8258446053
  0
ELLIPSE
  5
390
100
AcDbEntity
  8
0
100
AcDbEllipse
 62
7
  6
CONTINUOUS
 10
162.854335911
 20
210.5694231657
 30
0.0
 11
0.0
 21
498.2
 31
0.0
 40
0.0087268678
 41
-1.8258446053
 42
-1.8256700956
  0
ELLIPSE
  5
391
100
AcDbEntity
  8
0
100
AcDbEllipse
 62
7
  6
CONTINUOUS
 10
170.249923836
 20
126.849923836
 30
0.0
 11
0.3536610946
 21
0.3536610946
 31
0.0
 40
0.9996954599
 41
-0.7852458701
 42
0.7852458701
  0
ELLIPSE
  5
392
100
AcDbEntity
  8
0
100
AcDbEllipse
 62
7
  6
CONTINUOUS
 10
170.249923836
 20
83.150076164
 30
0.0
 11
-0.3536610946
 21
0.3536610946
 31
0.0
 40
0.9996954599
 41
-3.9268385237
 42
-2.3563467834
  0
ELLIPSE
  5
393
100
AcDbEntity
  8
0
100
AcDbEllipse
 62
7
  6
CONTINUOUS
 10
163.2218247852
 20
126.45
 30
0.0
 11
0.0
 21
0.2
 31
0.0
 40
1.0
 41
-4.7036623341
 42
-3.1415926536
  0
ELLIPSE
  5
394
100
AcDbEntity
  8
0
100
AcDbEllipse
 62
7
  6
CONTINUOUS
 10
166.7781752148
 20
126.45
 30
0.0
 11
0.0
 21
0.2
 31
0.0
 40
1.0
 41
-3.1415926536
 42
-1.5795229731
  0
ELLIPSE
  5
395
100
AcDbEntity
  8
0
100
AcDbEllipse
 62
7
  6
CONTINUOUS
 10
167.145664089
 20
210.5694231657
 30
0.0
 11
0.0
 21
498.2
 31
0.0
 40
0.0087268678
 41
-4.4575152115
 42
-4.4573407018
  0
ELLIPSE
  5
396
100
AcDbEntity
  8
0
100
AcDbEllipse
 62
7
  6
CONTINUOUS
 10
163.2218247852
 20
83.6033333333
 30
0.0
 11
0.2
 21
-0.0
 31
0.0
 40
0.7333333333
 41
1.5707963268
 42
3.1328660073
  0
ELLIPSE
  5
397
100
AcDbEntity
  8
0
100
AcDbEllipse
 62
7
  6
CONTINUOUS
 10
166.7781752148
 20
83.6033333333
 30
0.0
 11
0.2
 21
0.0
 31
0.0
 40
0.7333333333
 41
0.0087266463
 42
1.5707963268
  0
ELLIPSE
  5
398
100
AcDbEntity
  8
0
100
AcDbEllipse
 62
7
  6
CONTINUOUS
 10
131.5797018334
 20
210.5694231657
 30
0.0
 11
-4.2136799623
 21
498.1999795448
 31
0.0
 40
0.0338810525
 41
-1.8261311648
 42
-1.746232224
  0
ELLIPSE
  5
399
100
AcDbEntity
  8
0
100
AcDbEllipse
 62
7
  6
CONTINUOUS
 10
126.750076164
 20
83.150076164
 30
0.0
 11
0.3536610946
 21
0.3536610946
 31
0.0
 40
0.9996954599
 41
-3.9268385237
 42
-2.3563467834
  0
ELLIPSE
  5
39A
100
AcDbEntity
  8
0
100
AcDbEllipse
 62
7
  6
CONTINUOUS
 10
126.750076164
 20
126.849923836
 30
0.0
 11
0.3536610946
 21
-0.3536610946
 31
0.0
 40
0.9996954599
 41
2.3563467834
 42
3.9268385237
  0
ELLIPSE
  5
39B
100
AcDbEntity
  8
0
100
AcDbEllipse
 62
7
  6
CONTINUOUS
 10
185.8202981666
 20
210.5694231657
 30
0.0
 11
4.2136799623
 21
498.1999795448
 31
0.0
 40
0.0338810525
 41
-4.5369530832
 42
-4.4570541424
  0
ELLIPSE
  5
39C
100
AcDbEntity
  8
0
100
AcDbEllipse
 62
7
  6
CONTINUOUS
 10
134.145664089
 20
210.5694231657
 30
0.0
 11
0.0
 21
498.2
 31
0.0
 40
0.0087268678
 41
-4.4575152115
 42
-4.4573407018
  0
ELLIPSE
  5
39D
100
AcDbEntity
  8
0
100
AcDbEllipse
 62
7
  6
CONTINUOUS
 10
134.059728465
 20
84.9279445628
 30
0.0
 11
0.0
 21
0.2
 31
0.0
 40
0.0087268678
 41
-3.089232776
 42
-1.8258446053
  0
ELLIPSE
  5
39E
100
AcDbEntity
  8
0
100
AcDbEllipse
 62
7
  6
CONTINUOUS
 10
111.1797018334
 20
210.5694231657
 30
0.0
 11
-4.2136799623
 21
498.1999795448
 31
0.0
 40
0.0338810525
 41
-1.8261311648
 42
-1.746232224
  0
ELLIPSE
  5
39F
100
AcDbEntity
  8
0
100
AcDbEllipse
 62
7
  6
CONTINUOUS
 10
165.4202981666
 20
210.5694231657
 30
0.0
 11
4.2136799623
 21
498.1999795448
 31
0.0
 40
0.0338810525
 41
-4.5369530832
 42
-4.4570541424
  0
ELLIPSE
  5
3A0
100
AcDbEntity
  8
0
100
AcDbEllipse
 62
7
  6
CONTINUOUS
 10
129.854335911
 20
210.5694231657
 30
0.0
 11
0.0
 21
498.2
 31
0.0
 40
0.0087268678
 41
-1.8258446053
 42
-1.8256700956
  0
ELLIPSE
  5
3A1
100
AcDbEntity
  8
0
100
AcDbEllipse
 62
7
  6
CONTINUOUS
 10
129.940271535
 20
84.9279445628
 30
0.0
 11
-0.0
 21
0.2
 31
0.0
 40
0.0087268678
 41
-4.4573407018
 42
-3.1939525312
  0
ELLIPSE
  5
3A2
100
AcDbEntity
  8
0
100
AcDbEllipse
 62
7
  6
CONTINUOUS
 10
121.7162850253
 20
124.345270133
 30
0.0
 11
0.5662295817
 21
0.0334178581
 31
0.0
 40
0.2371205997
 41
3.127599133
 42
4.4684502644
  0
ELLIPSE
  5
3A3
100
AcDbEntity
  8
0
100
AcDbEllipse
 62
7
  6
CONTINUOUS
 10
130.2218247852
 20
126.45
 30
0.0
 11
0.2
 21
0.0
 31
0.0
 40
1.0
 41
-3.1328660073
 42
-1.5707963268
  0
ELLIPSE
  5
3A4
100
AcDbEntity
  8
0
100
AcDbEllipse
 62
7
  6
CONTINUOUS
 10
133.7781752148
 20
126.45
 30
0.0
 11
0.2
 21
0.0
 31
0.0
 40
1.0
 41
-1.5707963268
 42
-0.0087266463
  0
ELLIPSE
  5
3A5
100
AcDbEntity
  8
0
100
AcDbEllipse
 62
7
  6
CONTINUOUS
 10
130.2218247852
 20
83.6033333333
 30
0.0
 11
0.2
 21
0.0
 31
0.0
 40
0.7333333333
 41
1.5707963268
 42
3.1328660073
  0
ELLIPSE
  5
3A6
100
AcDbEntity
  8
0
100
AcDbEllipse
 62
7
  6
CONTINUOUS
 10
133.7781752148
 20
83.6033333333
 30
0.0
 11
0.2
 21
0.0
 31
0.0
 40
0.7333333333
 41
0.0087266463
 42
1.5707963268
  0
ELLIPSE
  5
3A7
100
AcDbEntity
  8
0
100
AcDbEllipse
 62
7
  6
CONTINUOUS
 10
128.5286270271
 20
123.790337307
 30
0.0
 11
-0.0016915616
 21
0.1999999918
 31
0.0
 40
0.0338810525
 41
-1.746232224
 42
-0.2446326547
  0
ELLIPSE
  5
3A8
100
AcDbEntity
  8
0
100
AcDbEllipse
 62
7
  6
CONTINUOUS
 10
128.5692491219
 20
84.9279445628
 30
0.0
 11
-0.0016915616
 21
0.1999999918
 31
0.0
 40
0.0338810525
 41
-3.0895193355
 42
-1.8261311648
  0
ELLIPSE
  5
3A9
100
AcDbEntity
  8
0
100
AcDbEllipse
 62
7
  6
CONTINUOUS
 10
127.6307508781
 20
84.9279445628
 30
0.0
 11
0.0016915616
 21
0.1999999918
 31
0.0
 40
0.0338810525
 41
-4.4570541424
 42
-3.1936659717
  0
ELLIPSE
  5
3AA
100
AcDbEntity
  8
0
100
AcDbEllipse
 62
7
  6
CONTINUOUS
 10
168.4307508781
 20
84.9279445628
 30
0.0
 11
0.0016915616
 21
0.1999999918
 31
0.0
 40
0.0338810525
 41
-4.4570541424
 42
-3.1936659717
  0
ELLIPSE
  5
3AB
100
AcDbEntity
  8
0
100
AcDbEllipse
 62
7
  6
CONTINUOUS
 10
168.4713729729
 20
123.790337307
 30
0.0
 11
0.0016915616
 21
0.1999999918
 31
0.0
 40
0.0338810525
 41
0.2446326547
 42
1.746232224
  0
ELLIPSE
  5
3AC
100
AcDbEntity
  8
0
100
AcDbEllipse
 62
7
  6
CONTINUOUS
 10
169.3286270271
 20
123.790337307
 30
0.0
 11
-0.0016915616
 21
0.1999999918
 31
0.0
 40
0.0338810525
 41
-1.746232224
 42
-0.2446326547
  0
ELLIPSE
  5
3AD
100
AcDbEntity
  8
0
100
AcDbEllipse
 62
7
  6
CONTINUOUS
 10
169.3692491219
 20
84.9279445628
 30
0.0
 11
-0.0016915616
 21
0.1999999918
 31
0.0
 40
0.0338810525
 41
-3.0895193355
 42
-1.8261311648
  0
ELLIPSE
  5
3AE
100
AcDbEntity
  8
0
100
AcDbEllipse
 62
7
  6
CONTINUOUS
 10
148.0307508781
 20
84.9279445628
 30
0.0
 11
0.0016915616
 21
0.1999999918
 31
0.0
 40
0.0338810525
 41
-4.4570541424
 42
-3.1936659717
  0
ELLIPSE
  5
3AF
100
AcDbEntity
  8
0
100
AcDbEllipse
 62
7
  6
CONTINUOUS
 10
148.0713729729
 20
123.790337307
 30
0.0
 11
0.0016915616
 21
0.1999999918
 31
0.0
 40
0.0338810525
 41
0.2446326547
 42
1.746232224
  0
ELLIPSE
  5
3B0
100
AcDbEntity
  8
0
100
AcDbEllipse
 62
7
  6
CONTINUOUS
 10
148.9692491219
 20
84.9279445628
 30
0.0
 11
-0.0016915616
 21
0.1999999918
 31
0.0
 40
0.0338810525
 41
-3.0895193355
 42
-1.8261311648
  0
ELLIPSE
  5
3B1
100
AcDbEntity
  8
0
100
AcDbEllipse
 62
7
  6
CONTINUOUS
 10
148.9286270271
 20
123.790337307
 30
0.0
 11
-0.0016915616
 21
0.1999999918
 31
0.0
 40
0.0338810525
 41
-1.746232224
 42
-0.2446326547
  0
ELLIPSE
  5
3B2
100
AcDbEntity
  8
0
100
AcDbEllipse
 62
7
  6
CONTINUOUS
 10
127.6713729729
 20
123.790337307
 30
0.0
 11
0.0016915616
 21
0.1999999918
 31
0.0
 40
0.0338810525
 41
0.2446326547
 42
1.746232224
  0
ENDSEC
  0
SECTION
  2
OBJECTS
  0
DICTIONARY
  5
C
100
AcDbDictionary
280
0
281
1
  3
ACAD_GROUP
350
D
  3
ACAD_MLINESTYLE
350
17
  3
ACAD_LAYOUT
350
1A
  3
ACAD_PLOTSETTINGS
350
19
  3
ACAD_PLOTSTYLENAME
350
E
  0
DICTIONARY
  5
D
102
{ACAD_REACTORS
330
C
102
}
100
AcDbDictionary
280
0
281
1
  0
ACDBDICTIONARYWDFLT
  5
E
102
{ACAD_REACTORS
330
C
102
}
100
AcDbDictionary
281
1
  3
Normal
350
F
100
AcDbDictionaryWithDefault
340
F
  0
DICTIONARY
  5
17
102
{ACAD_REACTORS
330
C
102
}
100
AcDbDictionary
280
0
281
1
  3
Standard
350
18
  0
DICTIONARY
  5
19
102
{ACAD_REACTORS
330
C
102
}
100
AcDbDictionary
281
1
  0
DICTIONARY
  5
1A
102
{ACAD_REACTORS
330
C
102
}
100
AcDbDictionary
281
1
  3
Model
350
3B3
  3
Layout1
350
3B4
  0
ACDBPLACEHOLDER
  5
F
102
{ACAD_REACTORS
330
E
102
}
  0
MLINESTYLE
  5
18
102
{ACAD_REACTORS
330
17
102
}
100
AcDbMlineStyle
  2
STANDARD
 70
0
  3

 62
256
 51
90.0
 52
90.0
 71
2
 49
0.5
 62
256
  6
BYLAYER
 49
-0.5
 62
256
  6
BYLAYER
  0
LAYOUT
  5
3B3
102
{ACAD_REACTORS
330
1A
102
}
100
AcDbPlotSettings
  1

  2
none_device
  4
ISO_A4_(297.00_x_210.00_MM)
  6

 40
0.0
 41
0.0
 42
0.0
 43
0.0
 44
297.0
 45
210.0
 46
0.0
 47
0.0
 48
0.0
 49
0.0
140
0.0
141
0.0
142
1.0
143
1.0
 70
1024
 72
1
 73
0
 74
0
  7

 75
0
147
1.0
148
0.0
149
0.0
100
AcDbLayout
  1
Model
 70
0
 71
0
 10
0.0
 20
0.0
 11
297.0
 21
210.0
 12
0.0
 22
0.0
 32
0.0
 14
0.0
 24
0.0
 34
0.0
 15
0.0
 25
0.0
 35
0.0
146
0.0
 13
0.0
 23
0.0
 33
0.0
 16
1.0
 26
0.0
 36
0.0
 17
0.0
 27
1.0
 37
0.0
 76
0
330
20F
345
0
346
0
  0
LAYOUT
  5
3B4
102
{ACAD_REACTORS
330
1A
102
}
100
AcDbPlotSettings
  1

  2
none_device
  4
ISO_A4_(297.00_x_210.00_MM)
  6

 40
0.0
 41
0.0
 42
0.0
 43
0.0
 44
297.0
 45
210.0
 46
0.0
 47
0.0
 48
0.0
 49
0.0
140
0.0
141
0.0
142
1.0
143
1.0
 70
0
 72
1
 73
0
 74
0
  7

 75
0
147
1.0
148
0.0
149
0.0
100
AcDbLayout
  1
Layout1
 70
0
 71
1
 10
0.0
 20
0.0
 11
297.0
 21
210.0
 12
0.0
 22
0.0
 32
0.0
 14
0.0
 24
0.0
 34
0.0
 15
0.0
 25
0.0
 35
0.0
146
0.0
 13
0.0
 23
0.0
 33
0.0
 16
1.0
 26
0.0
 36
0.0
 17
0.0
 27
1.0
 37
0.0
 76
0
330
210
345
0
346
0
  0
ENDSEC
  0
EOF
