  0
SECTION
  2
HEADER
  9
$ACADVER
  1
AC1024
  9
$DWGCODEPAGE
  3
ANSI_1252
  9
$EXTMAX
 10
297.0
 20
210.0
 30
0.0
  9
$EXTMIN
 10
0.0
 20
0.0
 30
0.0
  9
$LIMMIN
 10
0.0
 20
0.0
  9
$LIMMAX
 10
297.0
 20
210.0
  9
$VIEWCTR
 10
148.5
 20
105.0
  9
$VIEWSIZE
 40
210.0
  9
$CLAYER
  8
0
  9
$LTSCALE
 40
16.335
  9
$CELTYPE
  6
BYLAYER
  9
$DIMSCALE
 40
1.0
  9
$DIMASZ
 40
3.0
  9
$DIMEXO
 40
0.5
  9
$DIMDLI
 40
11.286
  9
$DIMEXE
 40
1.5
  9
$DIMCEN
 40
2.673
  9
$DIMLFAC
 40
1.0
  9
$DIMBLK
  1
_FILLED
  9
$DIMALT
 70
0
  9
$DIMALTF
 40
0.0393700787
  9
$DIMTXT
 40
3.0
  9
$DIMTOL
 70
1
  9
$DIMLIM
 70
0
  9
$DIMTFAC
 40
1.0
  9
$DIMTP
 40
0.01
  9
$DIMTM
 40
0.01
  9
$DIMGAP
 40
0.625
  9
$DIMDSEP
 70
44
  9
$AUNITS
 70
0
  9
$PDMODE
 70
3
  9
$PDSIZE
 40
3.0
  9
$HANDSEED
  5
384
  9
$TILEMODE
 70
1
  9
$MEASUREMENT
 70
1
  9
$INSUNITS
 70
4
  0
ENDSEC
  0
SECTION
  2
CLASSES
  0
CLASS
  1
ACDBDICTIONARYWDFLT
  2
AcDbDictionaryWithDefault
  3
AutoCAD 2000
 90
0
 91
1
280
0
281
0
  0
CLASS
  1
ACDBPLACEHOLDER
  2
AcDbPlaceHolder
  3
AutoCAD 2000
 90
0
 91
1
280
0
281
0
  0
CLASS
  1
LAYOUT
  2
AcDbLayout
  3
AutoCAD 2000
 90
0
 91
0
280
0
281
0
  0
ENDSEC
  0
SECTION
  2
TABLES
  0
TABLE
  2
VPORT
  5
8
100
AcDbSymbolTable
 70
2
  0
VPORT
  5
1F4
100
AcDbSymbolTableRecord
100
AcDbViewportTableRecord
  2
*ACTIVE
 70
0
 10
0.0
 20
0.0
 11
1.0
 21
1.0
 12
148.5
 22
105.0
 13
0.0
 23
0.0
 14
1.0
 24
1.0
 15
0.0
 25
0.0
 16
0.0
 26
0.0
 36
1.0
 17
0.0
 27
0.0
 37
0.0
 40
210.0
 41
1.4142857143
 42
50.0
 43
0.0
 44
0.0
 50
0.0
 51
0.0
 71
0
 72
100
 73
1
 74
1
 75
0
 76
0
 77
0
 78
0
  0
ENDTAB
  0
TABLE
  2
LTYPE
  5
5
100
AcDbSymbolTable
 70
6
  0
LTYPE
  5
14
100
AcDbSymbolTableRecord
100
AcDbLinetypeTableRecord
  2
BYBLOCK
 70
0
  3

 72
65
 73
0
 40
0.0
  0
LTYPE
  5
15
100
AcDbSymbolTableRecord
100
AcDbLinetypeTableRecord
  2
BYLAYER
 70
0
  3

 72
65
 73
0
 40
0.0
  0
LTYPE
  5
16
100
AcDbSymbolTableRecord
100
AcDbLinetypeTableRecord
  2
CONTINUOUS
 70
64
  3
Solid line
 72
65
 73
0
 40
0.0
  0
LTYPE
  5
1F5
100
AcDbSymbolTableRecord
100
AcDbLinetypeTableRecord
  2
CENTER
 70
64
  3
____ _ ____ _ ____ _ ____ _ ____ _ ____ _ ____
 72
65
 73
4
 40
0.6
 49
0.375
 74
0
 49
-0.075
 74
0
 49
0.075
 74
0
 49
-0.075
 74
0
  0
LTYPE
  5
1F6
100
AcDbSymbolTableRecord
100
AcDbLinetypeTableRecord
  2
HIDDEN
 70
64
  3
- - - - - - - - - - - - - - - - - - - -
 72
65
 73
2
 40
0.2
 49
0.1
 74
0
 49
-0.1
 74
0
  0
LTYPE
  5
1F7
100
AcDbSymbolTableRecord
100
AcDbLinetypeTableRecord
  2
PHANTOM
 70
64
  3
_____ _ _ _____ _ _ _____ _ _ _____
 72
65
 73
6
 40
0.8
 49
0.45
 74
0
 49
-0.05
 74
0
 49
0.1
 74
0
 49
-0.05
 74
0
 49
0.1
 74
0
 49
-0.05
 74
0
  0
LTYPE
  5
1F8
100
AcDbSymbolTableRecord
100
AcDbLinetypeTableRecord
  2
DOT
 70
64
  3
. . . . . . . . . . . . . . . . . . . .
 72
65
 73
2
 40
0.2
 49
0.1
 74
0
 49
-0.1
 74
0
  0
LTYPE
  5
1F9
100
AcDbSymbolTableRecord
100
AcDbLinetypeTableRecord
  2
DASHED
 70
64
  3
- - - - - - - - - - - - - - - - - - - -
 72
65
 73
2
 40
0.2
 49
0.1
 74
0
 49
-0.1
 74
0
  0
ENDTAB
  0
TABLE
  2
LAYER
  5
2
100
AcDbSymbolTable
 70
36
  0
LAYER
  5
10
100
AcDbSymbolTableRecord
100
AcDbLayerTableRecord
  2
0
 70
0
 62
7
  6
CONTINUOUS
370
-3
390
F
  0
LAYER
  5
1FA
100
AcDbSymbolTableRecord
100
AcDbLayerTableRecord
  2
DEFAULT_1
 70
0
 62
7
  6
CENTER
370
-3
390
F
  0
LAYER
  5
1FB
100
AcDbSymbolTableRecord
100
AcDbLayerTableRecord
  2
DEFAULT_2
 70
0
 62
7
  6
HIDDEN
370
-3
390
F
  0
LAYER
  5
1FC
100
AcDbSymbolTableRecord
100
AcDbLayerTableRecord
  2
DEFAULT_3
 70
0
 62
7
  6
PHANTOM
370
-3
390
F
  0
LAYER
  5
1FD
100
AcDbSymbolTableRecord
100
AcDbLayerTableRecord
  2
ASSI
 70
0
 62
7
  6
CONTINUOUS
370
-3
390
F
  0
LAYER
  5
1FE
100
AcDbSymbolTableRecord
100
AcDbLayerTableRecord
  2
COLOR6
 70
0
 62
7
  6
CONTINUOUS
370
-3
390
F
  0
LAYER
  5
1FF
100
AcDbSymbolTableRecord
100
AcDbLayerTableRecord
  2
COORDINATE
 70
0
 62
7
  6
CONTINUOUS
370
-3
390
F
  0
LAYER
  5
200
100
AcDbSymbolTableRecord
100
AcDbLayerTableRecord
  2
COORD_ORIGINE
 70
0
 62
7
  6
CONTINUOUS
370
-3
390
F
  0
LAYER
  5
201
100
AcDbSymbolTableRecord
100
AcDbLayerTableRecord
  2
COPY_PUBLISH
 70
0
 62
7
  6
CONTINUOUS
370
-3
390
F
  0
LAYER
  5
202
100
AcDbSymbolTableRecord
100
AcDbLayerTableRecord
  2
COSMETIC
 70
0
 62
7
  6
CONTINUOUS
370
-3
390
F
  0
LAYER
  5
203
100
AcDbSymbolTableRecord
100
AcDbLayerTableRecord
  2
COSMETICI
 70
0
 62
7
  6
CONTINUOUS
370
-3
390
F
  0
LAYER
  5
204
100
AcDbSymbolTableRecord
100
AcDbLayerTableRecord
  2
CURVE
 70
0
 62
7
  6
CONTINUOUS
370
-3
390
F
  0
LAYER
  5
205
100
AcDbSymbolTableRecord
100
AcDbLayerTableRecord
  2
DRAFT
 70
0
 62
7
  6
CONTINUOUS
370
-3
390
F
  0
LAYER
  5
206
100
AcDbSymbolTableRecord
100
AcDbLayerTableRecord
  2
IMPORT_IGES
 70
0
 62
7
  6
CONTINUOUS
370
-3
390
F
  0
LAYER
  5
207
100
AcDbSymbolTableRecord
100
AcDbLayerTableRecord
  2
INTFCLR_2
 70
0
 62
7
  6
CONTINUOUS
370
-3
390
F
  0
LAYER
  5
208
100
AcDbSymbolTableRecord
100
AcDbLayerTableRecord
  2
INTF_1
 70
0
 62
7
  6
CONTINUOUS
370
-3
390
F
  0
LAYER
  5
209
100
AcDbSymbolTableRecord
100
AcDbLayerTableRecord
  2
INTF_14
 70
0
 62
7
  6
CONTINUOUS
370
-3
390
F
  0
LAYER
  5
20A
100
AcDbSymbolTableRecord
100
AcDbLayerTableRecord
  2
INTF_8
 70
0
 62
7
  6
CONTINUOUS
370
-3
390
F
  0
LAYER
  5
20B
100
AcDbSymbolTableRecord
100
AcDbLayerTableRecord
  2
LINEA_CHIUSURA
 70
0
 62
7
  6
CONTINUOUS
370
-3
390
F
  0
LAYER
  5
20C
100
AcDbSymbolTableRecord
100
AcDbLayerTableRecord
  2
NOTE
 70
0
 62
7
  6
CONTINUOUS
370
-3
390
F
  0
LAYER
  5
20D
100
AcDbSymbolTableRecord
100
AcDbLayerTableRecord
  2
PIANI
 70
0
 62
7
  6
CONTINUOUS
370
-3
390
F
  0
LAYER
  5
20E
100
AcDbSymbolTableRecord
100
AcDbLayerTableRecord
  2
PIANI_ORIGINE
 70
0
 62
7
  6
CONTINUOUS
370
-3
390
F
  0
LAYER
  5
20F
100
AcDbSymbolTableRecord
100
AcDbLayerTableRecord
  2
PUNTI
 70
0
 62
7
  6
CONTINUOUS
370
-3
390
F
  0
LAYER
  5
210
100
AcDbSymbolTableRecord
100
AcDbLayerTableRecord
  2
RACCORDO
 70
0
 62
7
  6
CONTINUOUS
370
-3
390
F
  0
LAYER
  5
211
100
AcDbSymbolTableRecord
100
AcDbLayerTableRecord
  2
SIMBOLI
 70
0
 62
7
  6
CONTINUOUS
370
-3
390
F
  0
LAYER
  5
212
100
AcDbSymbolTableRecord
100
AcDbLayerTableRecord
  2
SMUSSO
 70
0
 62
7
  6
CONTINUOUS
370
-3
390
F
  0
LAYER
  5
213
100
AcDbSymbolTableRecord
100
AcDbLayerTableRecord
  2
SUPERFICI
 70
0
 62
7
  6
CONTINUOUS
370
-3
390
F
  0
LAYER
  5
214
100
AcDbSymbolTableRecord
100
AcDbLayerTableRecord
  2
TRASH
 70
0
 62
7
  6
CONTINUOUS
370
-3
390
F
  0
LAYER
  5
215
100
AcDbSymbolTableRecord
100
AcDbLayerTableRecord
  2
XSEC_DATUMS
 70
0
 62
7
  6
CONTINUOUS
370
-3
390
F
  0
LAYER
  5
216
100
AcDbSymbolTableRecord
100
AcDbLayerTableRecord
  2
___SHELL
 70
0
 62
7
  6
CONTINUOUS
370
-3
390
F
  0
ENDTAB
  0
TABLE
  2
STYLE
  5
3
100
AcDbSymbolTable
 70
1
  0
STYLE
  5
11
100
AcDbSymbolTableRecord
100
AcDbTextStyleTableRecord
  2
STANDARD
 70
0
 40
0.0
 41
0.8
 50
0.0
 71
0
 42
0.2
  3
txt
  4

  0
STYLE
  5
217
100
AcDbSymbolTableRecord
100
AcDbTextStyleTableRecord
  2
TEXTSTYLE_1
 70
0
 40
0.0
 41
0.8
 50
0.0
 71
0
 42
0.2
  3
gdt
  4

  0
ENDTAB
  0
TABLE
  2
VIEW
  5
6
100
AcDbSymbolTable
 70
0
  0
ENDTAB
  0
TABLE
  2
UCS
  5
7
100
AcDbSymbolTable
 70
0
  0
ENDTAB
  0
TABLE
  2
APPID
  5
9
100
AcDbSymbolTable
 70
1
  0
APPID
  5
218
100
AcDbSymbolTableRecord
100
AcDbRegAppTableRecord
  2
ACAD
 70
0
  0
ENDTAB
  0
TABLE
  2
BLOCK_RECORD
  5
1
100
AcDbSymbolTable
 70
0
  0
BLOCK_RECORD
  5
219
100
AcDbSymbolTableRecord
100
AcDbBlockTableRecord
  2
*Model_Space
  0
BLOCK_RECORD
  5
21A
100
AcDbSymbolTableRecord
100
AcDbBlockTableRecord
  2
*Paper_Space
  0
BLOCK_RECORD
  5
21B
100
AcDbSymbolTableRecord
100
AcDbBlockTableRecord
  2
_FILLED
  0
ENDTAB
  0
TABLE
  2
DIMSTYLE
  5
A
100
AcDbSymbolTable
 70
1
100
AcDbDimStyleTable
 71
0
  0
DIMSTYLE
105
21C
100
AcDbSymbolTableRecord
100
AcDbDimStyleTableRecord
  2
STANDARD
 70
0
  3

  4

 40
1.0
 41
3.0
 42
0.5
 43
0.38
 44
1.5
 45
0.0
 46
0.0
 47
0.01
 48
0.01
140
3.0
141
0.09
142
0.0
143
25.4
144
1.0
145
0.0
146
1.0
147
0.625
 71
1
 72
0
 73
0
 74
0
 75
0
 76
0
 77
1
 78
8
 79
2
170
0
171
1
172
0
173
0
174
0
175
0
176
0
177
0
178
0
270
2
179
2
271
2
272
2
273
2
274
2
275
0
280
0
281
0
282
0
283
1
284
8
285
0
286
0
287
3
288
0
340
11
278
44
341
21B
342
21B
343
21B
344
21B
  0
ENDTAB
  0
ENDSEC
  0
SECTION
  2
BLOCKS
  0
BLOCK
  5
20
100
AcDbEntity
  8
0
100
AcDbBlockBegin
  2
*Model_Space
 70
0
 10
0.0
 20
0.0
 30
0.0
  3
*Model_Space
  1

  0
ENDBLK
  5
21
100
AcDbEntity
  8
0
100
AcDbBlockEnd
  0
BLOCK
  5
1C
100
AcDbEntity
  8
0
100
AcDbBlockBegin
  2
*Paper_Space
 70
0
 10
0.0
 20
0.0
 30
0.0
  3
*Paper_Space
  1

  0
ENDBLK
  5
1D
100
AcDbEntity
  8
0
100
AcDbBlockEnd
  0
BLOCK
  5
21D
100
AcDbEntity
  8
0
100
AcDbBlockBegin
  2
_FILLED
 70
64
 10
0.0
 20
0.0
  3
_FILLED
  1

  0
SOLID
  5
21E
100
AcDbEntity
  8
0
  6
BYBLOCK
 62
0
100
AcDbTrace
 10
0.0
 20
0.0
 11
-1.0
 21
0.3166666667
 12
-1.0
 22
-0.3166666667
 13
-1.0
 23
-0.3166666667
  0
ENDBLK
  5
21F
100
AcDbEntity
  8
0
  6
BYBLOCK
 62
0
100
AcDbBlockEnd
  0
ENDSEC
  0
SECTION
  2
ENTITIES
  0
LWPOLYLINE
  5
220
100
AcDbEntity
  8
RACCORDO
100
AcDbPolyline
 62
250
  6
CONTINUOUS
 90
19
 70
0
 10
107.4867278354
 20
64.373098166
 10
107.4902389666
 20
64.3407898799
 10
107.4964199665
 20
64.3087062792
 10
107.5052278913
 20
64.2770711112
 10
107.5166014295
 20
64.2461051426
 10
107.5304614401
 20
64.2160242408
 10
107.5467115976
 20
64.1870379052
 10
107.5652389576
 20
64.1593481831
 10
107.5859143698
 20
64.1331485997
 10
107.6085934565
 20
64.1086223804
 10
107.6331181436
 20
64.0859406833
 10
107.659317415
 20
64.0652618657
 10
107.6870080659
 20
64.0467305852
 10
107.7159967457
 20
64.0304762094
 10
107.746081383
 20
64.0166120173
 10
107.7770520862
 20
64.0052347103
 10
107.8086927933
 20
63.996423653
 10
107.8407827781
 20
63.990240319
 10
107.873098175
 20
63.9867278445
  0
LINE
  5
221
100
AcDbEntity
  8
RACCORDO
100
AcDbLine
 62
7
  6
CONTINUOUS
 10
106.165441672
 20
102.1264662746
 11
106.165441672
 21
107.8735337254
  0
LINE
  5
222
100
AcDbEntity
  8
DRAFT
100
AcDbLine
 62
7
  6
CONTINUOUS
 10
106.675
 20
63.5613703305
 11
106.675
 21
146.4386296695
  0
LWPOLYLINE
  5
223
100
AcDbEntity
  8
RACCORDO
100
AcDbPolyline
 62
250
  6
CONTINUOUS
 90
19
 70
0
 10
189.126901834
 20
63.9867278354
 10
189.1592101201
 20
63.9902389666
 10
189.1912937208
 20
63.9964199665
 10
189.2229288888
 20
64.0052278913
 10
189.2538948574
 20
64.0166014295
 10
189.2839757592
 20
64.0304614401
 10
189.3129620948
 20
64.0467115976
 10
189.3406518169
 20
64.0652389576
 10
189.3668514003
 20
64.0859143698
 10
189.3913776196
 20
64.1085934565
 10
189.4140593167
 20
64.1331181436
 10
189.4347381343
 20
64.159317415
 10
189.4532694148
 20
64.1870080659
 10
189.4695237906
 20
64.2159967457
 10
189.4833879827
 20
64.246081383
 10
189.4947652897
 20
64.2770520862
 10
189.503576347
 20
64.3086927933
 10
189.509759681
 20
64.3407827781
 10
189.5132721555
 20
64.373098175
  0
LINE
  5
224
100
AcDbEntity
  8
RACCORDO
100
AcDbLine
 62
7
  6
CONTINUOUS
 10
107.0613703305
 20
63.175
 11
189.9386296695
 21
63.175
  0
LINE
  5
225
100
AcDbEntity
  8
RACCORDO
100
AcDbLine
 62
250
  6
CONTINUOUS
 10
107.4867278351
 20
145.6269018344
 11
107.4867278351
 21
64.3730981656
  0
LINE
  5
226
100
AcDbEntity
  8
RACCORDO
100
AcDbLine
 62
250
  6
CONTINUOUS
 10
107.9696907483
 20
145.5303092517
 11
107.9696907483
 21
64.4696907483
  0
LINE
  5
227
100
AcDbEntity
  8
ASSI
100
AcDbLine
 62
7
  6
CONTINUOUS
 10
121.0611865728
 20
135.9743473331
 11
117.5256526669
 21
132.4388134272
  0
LINE
  5
228
100
AcDbEntity
  8
ASSI
100
AcDbLine
 62
7
  6
CONTINUOUS
 10
114.5
 20
125.5
 11
114.5261825974
 21
125.5261825974
  0
LINE
  5
229
100
AcDbEntity
  8
ASSI
100
AcDbLine
 62
7
  6
CONTINUOUS
 10
114.4948548704
 20
124.9948548704
 11
114.4595017169
 21
124.9595017169
  0
LINE
  5
22A
100
AcDbEntity
  8
ASSI
100
AcDbLine
 62
7
  6
CONTINUOUS
 10
119.9388134272
 20
130.0256526669
 11
123.4743473331
 21
133.5611865728
  0
LINE
  5
22B
100
AcDbEntity
  8
RACCORDO
100
AcDbLine
 62
250
  6
CONTINUOUS
 10
107.8730981656
 20
63.9867278351
 11
189.1269018344
 21
63.9867278351
  0
LINE
  5
22C
100
AcDbEntity
  8
RACCORDO
100
AcDbLine
 62
250
  6
CONTINUOUS
 10
107.9696907483
 20
64.4696907483
 11
189.0303092517
 21
64.4696907483
  0
LINE
  5
22D
100
AcDbEntity
  8
ASSI
100
AcDbLine
 62
7
  6
CONTINUOUS
 10
117.5256526669
 20
77.5611865728
 11
121.0611865728
 21
74.0256526669
  0
LINE
  5
22E
100
AcDbEntity
  8
ASSI
100
AcDbLine
 62
7
  6
CONTINUOUS
 10
114.5
 20
84.5
 11
114.5261825974
 21
84.4738174026
  0
LINE
  5
22F
100
AcDbEntity
  8
ASSI
100
AcDbLine
 62
7
  6
CONTINUOUS
 10
114.4948548704
 20
85.0051451296
 11
114.4595017169
 21
85.0404982831
  0
LINE
  5
230
100
AcDbEntity
  8
ASSI
100
AcDbLine
 62
7
  6
CONTINUOUS
 10
123.4743473331
 20
76.4388134272
 11
119.9388134272
 21
79.9743473331
  0
LINE
  5
231
100
AcDbEntity
  8
ASSI
100
AcDbLine
 62
7
  6
CONTINUOUS
 10
112.4738174026
 20
125.5261825974
 11
112.4738174026
 21
118.4738174026
  0
LINE
  5
232
100
AcDbEntity
  8
ASSI
100
AcDbLine
 62
7
  6
CONTINUOUS
 10
112.4738174026
 20
84.4738174026
 11
112.4738174026
 21
91.5261825974
  0
LINE
  5
233
100
AcDbEntity
  8
ASSI
100
AcDbLine
 62
7
  6
CONTINUOUS
 10
112.5
 20
125.5
 11
112.5
 21
118.5
  0
LINE
  5
234
100
AcDbEntity
  8
ASSI
100
AcDbLine
 62
7
  6
CONTINUOUS
 10
112.5
 20
84.5
 11
112.5
 21
91.5
  0
LINE
  5
235
100
AcDbEntity
  8
ASSI
100
AcDbLine
 62
7
  6
CONTINUOUS
 10
113.4
 20
90.6274240403
 11
113.4
 21
85.3725759597
  0
LINE
  5
236
100
AcDbEntity
  8
ASSI
100
AcDbLine
 62
7
  6
CONTINUOUS
 10
113.4
 20
119.3725759597
 11
113.4
 21
124.6274240403
  0
LINE
  5
237
100
AcDbEntity
  8
ASSI
100
AcDbLine
 62
7
  6
CONTINUOUS
 10
114.4595017169
 20
90.9595017169
 11
114.4595017169
 21
85.0404982831
  0
LINE
  5
238
100
AcDbEntity
  8
ASSI
100
AcDbLine
 62
7
  6
CONTINUOUS
 10
114.4595017169
 20
119.0404982831
 11
114.4595017169
 21
124.9595017169
  0
LINE
  5
239
100
AcDbEntity
  8
ASSI
100
AcDbLine
 62
7
  6
CONTINUOUS
 10
114.5
 20
91.5
 11
114.5
 21
91.2948091789
  0
LINE
  5
23A
100
AcDbEntity
  8
ASSI
100
AcDbLine
 62
7
  6
CONTINUOUS
 10
114.5
 20
84.7051908211
 11
114.5
 21
84.5
  0
LINE
  5
23B
100
AcDbEntity
  8
ASSI
100
AcDbLine
 62
7
  6
CONTINUOUS
 10
114.5
 20
118.5
 11
114.5
 21
118.7051908211
  0
LINE
  5
23C
100
AcDbEntity
  8
ASSI
100
AcDbLine
 62
7
  6
CONTINUOUS
 10
114.5
 20
125.2948091789
 11
114.5
 21
125.5
  0
LINE
  5
23D
100
AcDbEntity
  8
ASSI
100
AcDbLine
 62
7
  6
CONTINUOUS
 10
114.5261825974
 20
91.5261825974
 11
114.5261825974
 21
84.4738174026
  0
LINE
  5
23E
100
AcDbEntity
  8
ASSI
100
AcDbLine
 62
7
  6
CONTINUOUS
 10
114.5261825974
 20
118.4738174026
 11
114.5261825974
 21
125.5261825974
  0
LINE
  5
23F
100
AcDbEntity
  8
ASSI
100
AcDbLine
 62
7
  6
CONTINUOUS
 10
112.5
 20
118.5
 11
112.4738174026
 21
118.4738174026
  0
LINE
  5
240
100
AcDbEntity
  8
ASSI
100
AcDbLine
 62
7
  6
CONTINUOUS
 10
112.5
 20
91.5
 11
112.4738174026
 21
91.5261825974
  0
LINE
  5
241
100
AcDbEntity
  8
RACCORDO
100
AcDbLine
 62
250
  6
CONTINUOUS
 10
107.8730981656
 20
63.9867278351
 11
107.9696907483
 21
64.4696907483
  0
LINE
  5
242
100
AcDbEntity
  8
ASSI
100
AcDbLine
 62
7
  6
CONTINUOUS
 10
125.9458892987
 20
123.7224133863
 11
129.7775866137
 21
127.5541107013
  0
LINE
  5
243
100
AcDbEntity
  8
ASSI
100
AcDbLine
 62
7
  6
CONTINUOUS
 10
125.9720718961
 20
123.7115681994
 11
129.7884318006
 21
127.5279281039
  0
LINE
  5
244
100
AcDbEntity
  8
RACCORDO
100
AcDbLine
 62
250
  6
CONTINUOUS
 10
107.8612377331
 20
64.4479755727
 11
107.4867278351
 21
64.3730981656
  0
LINE
  5
245
100
AcDbEntity
  8
RACCORDO
100
AcDbLine
 62
250
  6
CONTINUOUS
 10
107.9696907483
 20
64.4696907483
 11
107.8612377331
 21
64.4479755727
  0
LINE
  5
246
100
AcDbEntity
  8
RACCORDO
100
AcDbLine
 62
250
  6
CONTINUOUS
 10
189.5132721649
 20
64.3730981656
 11
189.0303092517
 21
64.4696907483
  0
LINE
  5
247
100
AcDbEntity
  8
ASSI
100
AcDbLine
 62
7
  6
CONTINUOUS
 10
129.7775866137
 20
82.4458892987
 11
125.9458892987
 21
86.2775866137
  0
LINE
  5
248
100
AcDbEntity
  8
ASSI
100
AcDbLine
 62
7
  6
CONTINUOUS
 10
129.7884318006
 20
82.4720718961
 11
125.9720718961
 21
86.2884318006
  0
LINE
  5
249
100
AcDbEntity
  8
RACCORDO
100
AcDbLine
 62
250
  6
CONTINUOUS
 10
107.9479755727
 20
145.6387622669
 11
107.8730981656
 21
146.0132721649
  0
LINE
  5
24A
100
AcDbEntity
  8
RACCORDO
100
AcDbLine
 62
250
  6
CONTINUOUS
 10
107.9696907483
 20
145.5303092517
 11
107.9479755727
 21
145.6387622669
  0
LINE
  5
24B
100
AcDbEntity
  8
ASSI
100
AcDbLine
 62
7
  6
CONTINUOUS
 10
134.7779281039
 20
129.0279281039
 11
134.75
 21
129.0
  0
LINE
  5
24C
100
AcDbEntity
  8
ASSI
100
AcDbLine
 62
7
  6
CONTINUOUS
 10
136.8390208311
 20
129.0890208311
 11
136.75
 21
129.0
  0
LINE
  5
24D
100
AcDbEntity
  8
ASSI
100
AcDbLine
 62
7
  6
CONTINUOUS
 10
136.8390208311
 20
127.5890208311
 11
136.75
 21
127.5
  0
LINE
  5
24E
100
AcDbEntity
  8
ASSI
100
AcDbLine
 62
7
  6
CONTINUOUS
 10
164.3315725627
 20
80.9109791689
 11
160.1609791689
 21
80.9109791689
  0
LINE
  5
24F
100
AcDbEntity
  8
ASSI
100
AcDbLine
 62
7
  6
CONTINUOUS
 10
159.3390208311
 20
80.9109791689
 11
155.1684274373
 21
80.9109791689
  0
LINE
  5
250
100
AcDbEntity
  8
ASSI
100
AcDbLine
 62
7
  6
CONTINUOUS
 10
141.8315725627
 20
80.9109791689
 11
137.6609791689
 21
80.9109791689
  0
LINE
  5
251
100
AcDbEntity
  8
ASSI
100
AcDbLine
 62
7
  6
CONTINUOUS
 10
136.8390208311
 20
80.9109791689
 11
132.6684274373
 21
80.9109791689
  0
LINE
  5
252
100
AcDbEntity
  8
ASSI
100
AcDbLine
 62
7
  6
CONTINUOUS
 10
164.2755913922
 20
80.9720718961
 11
162.2220718961
 21
80.9720718961
  0
LINE
  5
253
100
AcDbEntity
  8
ASSI
100
AcDbLine
 62
7
  6
CONTINUOUS
 10
157.2779281039
 20
80.9720718961
 11
155.2244086078
 21
80.9720718961
  0
LINE
  5
254
100
AcDbEntity
  8
ASSI
100
AcDbLine
 62
7
  6
CONTINUOUS
 10
141.7755913922
 20
80.9720718961
 11
139.7220718961
 21
80.9720718961
  0
LINE
  5
255
100
AcDbEntity
  8
ASSI
100
AcDbLine
 62
7
  6
CONTINUOUS
 10
134.7779281039
 20
80.9720718961
 11
132.7244086078
 21
80.9720718961
  0
LINE
  5
256
100
AcDbEntity
  8
ASSI
100
AcDbLine
 62
7
  6
CONTINUOUS
 10
134.75
 20
81.0
 11
136.75
 21
81.0
  0
LINE
  5
257
100
AcDbEntity
  8
ASSI
100
AcDbLine
 62
7
  6
CONTINUOUS
 10
137.75
 20
81.0
 11
139.75
 21
81.0
  0
LINE
  5
258
100
AcDbEntity
  8
ASSI
100
AcDbLine
 62
7
  6
CONTINUOUS
 10
157.25
 20
81.0
 11
159.25
 21
81.0
  0
LINE
  5
259
100
AcDbEntity
  8
ASSI
100
AcDbLine
 62
7
  6
CONTINUOUS
 10
160.25
 20
81.0
 11
162.25
 21
81.0
  0
LINE
  5
25A
100
AcDbEntity
  8
ASSI
100
AcDbLine
 62
7
  6
CONTINUOUS
 10
134.75
 20
81.0
 11
134.7779281039
 21
80.9720718961
  0
LINE
  5
25B
100
AcDbEntity
  8
ASSI
100
AcDbLine
 62
7
  6
CONTINUOUS
 10
136.75
 20
81.0
 11
136.8390208311
 21
80.9109791689
  0
LINE
  5
25C
100
AcDbEntity
  8
ASSI
100
AcDbLine
 62
7
  6
CONTINUOUS
 10
136.8390208311
 20
82.4109791689
 11
136.75
 21
82.5
  0
LINE
  5
25D
100
AcDbEntity
  8
ASSI
100
AcDbLine
 62
7
  6
CONTINUOUS
 10
125.9109791689
 20
82.4109791689
 11
125.9109791689
 21
127.5890208311
  0
LINE
  5
25E
100
AcDbEntity
  8
ASSI
100
AcDbLine
 62
7
  6
CONTINUOUS
 10
125.9458892987
 20
82.4458892987
 11
125.9458892987
 21
86.2775866137
  0
LINE
  5
25F
100
AcDbEntity
  8
ASSI
100
AcDbLine
 62
7
  6
CONTINUOUS
 10
125.9458892987
 20
123.7224133863
 11
125.9458892987
 21
127.5541107013
  0
LINE
  5
260
100
AcDbEntity
  8
ASSI
100
AcDbLine
 62
7
  6
CONTINUOUS
 10
126.0
 20
86.2605036967
 11
126.0
 21
123.7394963033
  0
LINE
  5
261
100
AcDbEntity
  8
ASSI
100
AcDbLine
 62
7
  6
CONTINUOUS
 10
141.8315725627
 20
129.0890208311
 11
141.7755913922
 21
129.0279281039
  0
LINE
  5
262
100
AcDbEntity
  8
ASSI
100
AcDbLine
 62
7
  6
CONTINUOUS
 10
141.8812329953
 20
127.5
 11
141.962805558
 21
127.5890208311
  0
LINE
  5
263
100
AcDbEntity
  8
ASSI
100
AcDbLine
 62
7
  6
CONTINUOUS
 10
144.3720718961
 20
127.5
 11
144.3825449351
 21
127.510473039
  0
LINE
  5
264
100
AcDbEntity
  8
ASSI
100
AcDbLine
 62
7
  6
CONTINUOUS
 10
182.5404982831
 20
85.0404982831
 11
183.3
 21
85.0634603435
  0
LINE
  5
265
100
AcDbEntity
  8
ASSI
100
AcDbLine
 62
7
  6
CONTINUOUS
 10
160.1609791689
 20
82.4109791689
 11
159.3390208311
 21
82.4109791689
  0
LINE
  5
266
100
AcDbEntity
  8
ASSI
100
AcDbLine
 62
7
  6
CONTINUOUS
 10
137.6609791689
 20
82.4109791689
 11
136.8390208311
 21
82.4109791689
  0
LINE
  5
267
100
AcDbEntity
  8
ASSI
100
AcDbLine
 62
7
  6
CONTINUOUS
 10
125.9109791689
 20
82.4109791689
 11
132.537194442
 21
82.4109791689
  0
LINE
  5
268
100
AcDbEntity
  8
ASSI
100
AcDbLine
 62
7
  6
CONTINUOUS
 10
141.962805558
 20
82.4109791689
 11
155.037194442
 21
82.4109791689
  0
LINE
  5
269
100
AcDbEntity
  8
ASSI
100
AcDbLine
 62
7
  6
CONTINUOUS
 10
164.462805558
 20
82.4109791689
 11
171.0890208311
 21
82.4109791689
  0
LINE
  5
26A
100
AcDbEntity
  8
ASSI
100
AcDbLine
 62
7
  6
CONTINUOUS
 10
171.0541107013
 20
82.4458892987
 11
167.2224133863
 21
82.4458892987
  0
LINE
  5
26B
100
AcDbEntity
  8
ASSI
100
AcDbLine
 62
7
  6
CONTINUOUS
 10
129.7775866137
 20
82.4458892987
 11
125.9458892987
 21
82.4458892987
  0
LINE
  5
26C
100
AcDbEntity
  8
ASSI
100
AcDbLine
 62
7
  6
CONTINUOUS
 10
167.2290232643
 20
82.489526961
 11
166.8825449351
 21
82.489526961
  0
LINE
  5
26D
100
AcDbEntity
  8
ASSI
100
AcDbLine
 62
7
  6
CONTINUOUS
 10
147.5174550649
 20
82.489526961
 11
144.3825449351
 21
82.489526961
  0
LINE
  5
26E
100
AcDbEntity
  8
ASSI
100
AcDbLine
 62
7
  6
CONTINUOUS
 10
129.7709767357
 20
82.489526961
 11
130.1174550649
 21
82.489526961
  0
LINE
  5
26F
100
AcDbEntity
  8
ASSI
100
AcDbLine
 62
7
  6
CONTINUOUS
 10
149.4825449351
 20
82.489526961
 11
152.6174550649
 21
82.489526961
  0
LINE
  5
270
100
AcDbEntity
  8
ASSI
100
AcDbLine
 62
7
  6
CONTINUOUS
 10
166.8720718961
 20
82.5
 11
164.3812329953
 21
82.5
  0
LINE
  5
271
100
AcDbEntity
  8
ASSI
100
AcDbLine
 62
7
  6
CONTINUOUS
 10
155.1187670047
 20
82.5
 11
152.6279281039
 21
82.5
  0
LINE
  5
272
100
AcDbEntity
  8
ASSI
100
AcDbLine
 62
7
  6
CONTINUOUS
 10
149.4720718961
 20
82.5
 11
147.5279281039
 21
82.5
  0
LINE
  5
273
100
AcDbEntity
  8
ASSI
100
AcDbLine
 62
7
  6
CONTINUOUS
 10
144.3720718961
 20
82.5
 11
141.8812329953
 21
82.5
  0
LINE
  5
274
100
AcDbEntity
  8
ASSI
100
AcDbLine
 62
7
  6
CONTINUOUS
 10
132.6187670047
 20
82.5
 11
130.1279281039
 21
82.5
  0
LINE
  5
275
100
AcDbEntity
  8
ASSI
100
AcDbLine
 62
7
  6
CONTINUOUS
 10
134.75
 20
82.5
 11
139.75
 21
82.5
  0
LINE
  5
276
100
AcDbEntity
  8
ASSI
100
AcDbLine
 62
7
  6
CONTINUOUS
 10
157.25
 20
82.5
 11
162.25
 21
82.5
  0
LINE
  5
277
100
AcDbEntity
  8
ASSI
100
AcDbLine
 62
7
  6
CONTINUOUS
 10
114.5261825974
 20
84.4738174026
 11
112.4738174026
 21
84.4738174026
  0
LINE
  5
278
100
AcDbEntity
  8
ASSI
100
AcDbLine
 62
7
  6
CONTINUOUS
 10
182.4738174026
 20
84.4738174026
 11
184.5261825974
 21
84.4738174026
  0
LINE
  5
279
100
AcDbEntity
  8
ASSI
100
AcDbLine
 62
7
  6
CONTINUOUS
 10
114.5
 20
84.5
 11
112.5
 21
84.5
  0
LINE
  5
27A
100
AcDbEntity
  8
ASSI
100
AcDbLine
 62
7
  6
CONTINUOUS
 10
182.5
 20
84.5
 11
184.5
 21
84.5
  0
LINE
  5
27B
100
AcDbEntity
  8
ASSI
100
AcDbLine
 62
7
  6
CONTINUOUS
 10
114.4595017169
 20
85.0404982831
 11
113.7
 21
85.0634603435
  0
LINE
  5
27C
100
AcDbEntity
  8
ASSI
100
AcDbLine
 62
7
  6
CONTINUOUS
 10
144.3720718961
 20
82.5
 11
144.3825449351
 21
82.489526961
  0
LINE
  5
27D
100
AcDbEntity
  8
ASSI
100
AcDbLine
 62
7
  6
CONTINUOUS
 10
141.8315725627
 20
80.9109791689
 11
141.7755913922
 21
80.9720718961
  0
LINE
  5
27E
100
AcDbEntity
  8
ASSI
100
AcDbLine
 62
7
  6
CONTINUOUS
 10
141.8812329953
 20
82.5
 11
141.962805558
 21
82.4109791689
  0
LINE
  5
27F
100
AcDbEntity
  8
ASSI
100
AcDbLine
 62
7
  6
CONTINUOUS
 10
132.537194442
 20
82.4109791689
 11
132.6684274373
 21
80.9109791689
  0
LINE
  5
280
100
AcDbEntity
  8
ASSI
100
AcDbLine
 62
7
  6
CONTINUOUS
 10
132.6187670047
 20
82.5
 11
132.7522304368
 21
80.9745059908
  0
LINE
  5
281
100
AcDbEntity
  8
ASSI
100
AcDbLine
 62
7
  6
CONTINUOUS
 10
134.75
 20
129.0279281039
 11
134.75
 21
127.5
  0
LINE
  5
282
100
AcDbEntity
  8
ASSI
100
AcDbLine
 62
7
  6
CONTINUOUS
 10
134.75
 20
82.5
 11
134.75
 21
80.9720718961
  0
LINE
  5
283
100
AcDbEntity
  8
ASSI
100
AcDbLine
 62
7
  6
CONTINUOUS
 10
132.537194442
 20
127.5890208311
 11
132.6684274373
 21
129.0890208311
  0
LINE
  5
284
100
AcDbEntity
  8
ASSI
100
AcDbLine
 62
7
  6
CONTINUOUS
 10
132.6187670047
 20
127.5
 11
132.7522304368
 21
129.0254940092
  0
LINE
  5
285
100
AcDbEntity
  8
ASSI
100
AcDbLine
 62
7
  6
CONTINUOUS
 10
149.4720718961
 20
127.5
 11
149.4825449351
 21
127.510473039
  0
LINE
  5
286
100
AcDbEntity
  8
ASSI
100
AcDbLine
 62
7
  6
CONTINUOUS
 10
114.5
 20
91.5
 11
114.5261825974
 21
91.5261825974
  0
LINE
  5
287
100
AcDbEntity
  8
ASSI
100
AcDbLine
 62
7
  6
CONTINUOUS
 10
114.4948548704
 20
90.9948548704
 11
114.4595017169
 21
90.9595017169
  0
LINE
  5
288
100
AcDbEntity
  8
ASSI
100
AcDbLine
 62
7
  6
CONTINUOUS
 10
149.4720718961
 20
82.5
 11
149.4825449351
 21
82.489526961
  0
LINE
  5
289
100
AcDbEntity
  8
ASSI
100
AcDbLine
 62
7
  6
CONTINUOUS
 10
114.5
 20
118.5
 11
114.5261825974
 21
118.4738174026
  0
LINE
  5
28A
100
AcDbEntity
  8
ASSI
100
AcDbLine
 62
7
  6
CONTINUOUS
 10
114.4948548704
 20
119.0051451296
 11
114.4595017169
 21
119.0404982831
  0
LINE
  5
28B
100
AcDbEntity
  8
ASSI
100
AcDbLine
 62
7
  6
CONTINUOUS
 10
136.75
 20
129.0
 11
136.75
 21
127.5
  0
LINE
  5
28C
100
AcDbEntity
  8
ASSI
100
AcDbLine
 62
7
  6
CONTINUOUS
 10
136.75
 20
82.5
 11
136.75
 21
81.0
  0
LINE
  5
28D
100
AcDbEntity
  8
ASSI
100
AcDbLine
 62
7
  6
CONTINUOUS
 10
136.8390208311
 20
82.4109791689
 11
136.8390208311
 21
80.9109791689
  0
LINE
  5
28E
100
AcDbEntity
  8
ASSI
100
AcDbLine
 62
7
  6
CONTINUOUS
 10
136.8390208311
 20
127.5890208311
 11
136.8390208311
 21
129.0890208311
  0
LINE
  5
28F
100
AcDbEntity
  8
ASSI
100
AcDbLine
 62
7
  6
CONTINUOUS
 10
137.6609791689
 20
82.4109791689
 11
137.6609791689
 21
80.9109791689
  0
LINE
  5
290
100
AcDbEntity
  8
ASSI
100
AcDbLine
 62
7
  6
CONTINUOUS
 10
137.6609791689
 20
127.5890208311
 11
137.6609791689
 21
129.0890208311
  0
LINE
  5
291
100
AcDbEntity
  8
ASSI
100
AcDbLine
 62
7
  6
CONTINUOUS
 10
137.75
 20
129.0
 11
137.75
 21
127.5
  0
LINE
  5
292
100
AcDbEntity
  8
ASSI
100
AcDbLine
 62
7
  6
CONTINUOUS
 10
137.75
 20
82.5
 11
137.75
 21
81.0
  0
LINE
  5
293
100
AcDbEntity
  8
ASSI
100
AcDbLine
 62
7
  6
CONTINUOUS
 10
112.5
 20
84.5
 11
112.4738174026
 21
84.4738174026
  0
LINE
  5
294
100
AcDbEntity
  8
ASSI
100
AcDbLine
 62
7
  6
CONTINUOUS
 10
157.2779281039
 20
129.0279281039
 11
157.25
 21
129.0
  0
LINE
  5
295
100
AcDbEntity
  8
ASSI
100
AcDbLine
 62
7
  6
CONTINUOUS
 10
159.3390208311
 20
129.0890208311
 11
159.25
 21
129.0
  0
LINE
  5
296
100
AcDbEntity
  8
RACCORDO
100
AcDbLine
 62
7
  6
CONTINUOUS
 10
190.325
 20
101.5
 11
190.651821852
 21
101.5785591907
  0
LINE
  5
297
100
AcDbEntity
  8
ASSI
100
AcDbLine
 62
7
  6
CONTINUOUS
 10
114.4595017169
 20
90.9595017169
 11
113.7
 21
90.9365396565
  0
LINE
  5
298
100
AcDbEntity
  8
ASSI
100
AcDbLine
 62
7
  6
CONTINUOUS
 10
184.5
 20
91.5
 11
182.5
 21
91.5
  0
LINE
  5
299
100
AcDbEntity
  8
ASSI
100
AcDbLine
 62
7
  6
CONTINUOUS
 10
112.5
 20
91.5
 11
114.5
 21
91.5
  0
LINE
  5
29A
100
AcDbEntity
  8
ASSI
100
AcDbLine
 62
7
  6
CONTINUOUS
 10
184.5261825974
 20
91.5261825974
 11
182.4738174026
 21
91.5261825974
  0
LINE
  5
29B
100
AcDbEntity
  8
ASSI
100
AcDbLine
 62
7
  6
CONTINUOUS
 10
112.4738174026
 20
91.5261825974
 11
114.5261825974
 21
91.5261825974
  0
LINE
  5
29C
100
AcDbEntity
  8
ASSI
100
AcDbLine
 62
7
  6
CONTINUOUS
 10
182.5404982831
 20
90.9595017169
 11
183.3
 21
90.9365396565
  0
LINE
  5
29D
100
AcDbEntity
  8
RACCORDO
100
AcDbLine
 62
7
  6
CONTINUOUS
 10
106.675
 20
101.5
 11
106.348178148
 21
101.5785591907
  0
LINE
  5
29E
100
AcDbEntity
  8
ASSI
100
AcDbLine
 62
7
  6
CONTINUOUS
 10
112.5
 20
125.5
 11
112.4738174026
 21
125.5261825974
  0
LINE
  5
29F
100
AcDbEntity
  8
ASSI
100
AcDbLine
 62
7
  6
CONTINUOUS
 10
157.25
 20
81.0
 11
157.2779281039
 21
80.9720718961
  0
LINE
  5
2A0
100
AcDbEntity
  8
ASSI
100
AcDbLine
 62
7
  6
CONTINUOUS
 10
159.25
 20
81.0
 11
159.3390208311
 21
80.9109791689
  0
LINE
  5
2A1
100
AcDbEntity
  8
ASSI
100
AcDbLine
 62
7
  6
CONTINUOUS
 10
141.8812329953
 20
127.5
 11
141.7477695632
 21
129.0254940092
  0
LINE
  5
2A2
100
AcDbEntity
  8
ASSI
100
AcDbLine
 62
7
  6
CONTINUOUS
 10
141.962805558
 20
127.5890208311
 11
141.8315725627
 21
129.0890208311
  0
LINE
  5
2A3
100
AcDbEntity
  8
ASSI
100
AcDbLine
 62
7
  6
CONTINUOUS
 10
139.75
 20
129.0279281039
 11
139.75
 21
127.5
  0
LINE
  5
2A4
100
AcDbEntity
  8
ASSI
100
AcDbLine
 62
7
  6
CONTINUOUS
 10
139.75
 20
82.5
 11
139.75
 21
80.9720718961
  0
LINE
  5
2A5
100
AcDbEntity
  8
ASSI
100
AcDbLine
 62
7
  6
CONTINUOUS
 10
141.8812329953
 20
82.5
 11
141.7477695632
 21
80.9745059908
  0
LINE
  5
2A6
100
AcDbEntity
  8
ASSI
100
AcDbLine
 62
7
  6
CONTINUOUS
 10
141.962805558
 20
82.4109791689
 11
141.8315725627
 21
80.9109791689
  0
LINE
  5
2A7
100
AcDbEntity
  8
ASSI
100
AcDbLine
 62
7
  6
CONTINUOUS
 10
129.7884318006
 20
82.4720718961
 11
129.7775866137
 21
82.4458892987
  0
LINE
  5
2A8
100
AcDbEntity
  8
ASSI
100
AcDbLine
 62
7
  6
CONTINUOUS
 10
164.3315725627
 20
129.0890208311
 11
164.2755913922
 21
129.0279281039
  0
LINE
  5
2A9
100
AcDbEntity
  8
ASSI
100
AcDbLine
 62
7
  6
CONTINUOUS
 10
159.3390208311
 20
127.5890208311
 11
159.25
 21
127.5
  0
LINE
  5
2AA
100
AcDbEntity
  8
ASSI
100
AcDbLine
 62
7
  6
CONTINUOUS
 10
171.0279281039
 20
123.7115681994
 11
171.0541107013
 21
123.7224133863
  0
LINE
  5
2AB
100
AcDbEntity
  8
ASSI
100
AcDbLine
 62
7
  6
CONTINUOUS
 10
171.0279281039
 20
86.2884318006
 11
171.0541107013
 21
86.2775866137
  0
LINE
  5
2AC
100
AcDbEntity
  8
ASSI
100
AcDbLine
 62
7
  6
CONTINUOUS
 10
159.3390208311
 20
82.4109791689
 11
159.25
 21
82.5
  0
LINE
  5
2AD
100
AcDbEntity
  8
ASSI
100
AcDbLine
 62
7
  6
CONTINUOUS
 10
164.3315725627
 20
80.9109791689
 11
164.2755913922
 21
80.9720718961
  0
LINE
  5
2AE
100
AcDbEntity
  8
ASSI
100
AcDbLine
 62
7
  6
CONTINUOUS
 10
129.7884318006
 20
127.5279281039
 11
129.7775866137
 21
127.5541107013
  0
LINE
  5
2AF
100
AcDbEntity
  8
ASSI
100
AcDbLine
 62
7
  6
CONTINUOUS
 10
164.3812329953
 20
127.5
 11
164.462805558
 21
127.5890208311
  0
LINE
  5
2B0
100
AcDbEntity
  8
ASSI
100
AcDbLine
 62
7
  6
CONTINUOUS
 10
166.8720718961
 20
127.5
 11
166.8825449351
 21
127.510473039
  0
LINE
  5
2B1
100
AcDbEntity
  8
RACCORDO
100
AcDbLine
 62
250
  6
CONTINUOUS
 10
107.4867278351
 20
64.3730981656
 11
106.675
 21
63.5613703305
  0
LINE
  5
2B2
100
AcDbEntity
  8
RACCORDO
100
AcDbLine
 62
250
  6
CONTINUOUS
 10
189.1269018344
 20
146.0132721649
 11
189.9386296695
 21
146.825
  0
LINE
  5
2B3
100
AcDbEntity
  8
ASSI
100
AcDbLine
 62
7
  6
CONTINUOUS
 10
125.9458892987
 20
82.4458892987
 11
125.9109791689
 21
82.4109791689
  0
LINE
  5
2B4
100
AcDbEntity
  8
ASSI
100
AcDbLine
 62
7
  6
CONTINUOUS
 10
171.0541107013
 20
127.5541107013
 11
171.0890208311
 21
127.5890208311
  0
LINE
  5
2B5
100
AcDbEntity
  8
RACCORDO
100
AcDbLine
 62
250
  6
CONTINUOUS
 10
107.8730981656
 20
63.9867278351
 11
107.0613703305
 21
63.175
  0
LINE
  5
2B6
100
AcDbEntity
  8
RACCORDO
100
AcDbLine
 62
250
  6
CONTINUOUS
 10
189.5132721649
 20
145.6269018344
 11
190.325
 21
146.4386296695
  0
LINE
  5
2B7
100
AcDbEntity
  8
ASSI
100
AcDbLine
 62
7
  6
CONTINUOUS
 10
166.8720718961
 20
82.5
 11
166.8825449351
 21
82.489526961
  0
LINE
  5
2B8
100
AcDbEntity
  8
RACCORDO
100
AcDbLine
 62
250
  6
CONTINUOUS
 10
107.4867278351
 20
145.6269018344
 11
106.675
 21
146.4386296695
  0
LINE
  5
2B9
100
AcDbEntity
  8
RACCORDO
100
AcDbLine
 62
250
  6
CONTINUOUS
 10
189.1269018344
 20
63.9867278351
 11
189.9386296695
 21
63.175
  0
LINE
  5
2BA
100
AcDbEntity
  8
ASSI
100
AcDbLine
 62
7
  6
CONTINUOUS
 10
125.9458892987
 20
127.5541107013
 11
125.9109791689
 21
127.5890208311
  0
LINE
  5
2BB
100
AcDbEntity
  8
ASSI
100
AcDbLine
 62
7
  6
CONTINUOUS
 10
171.0541107013
 20
82.4458892987
 11
171.0890208311
 21
82.4109791689
  0
LINE
  5
2BC
100
AcDbEntity
  8
RACCORDO
100
AcDbLine
 62
250
  6
CONTINUOUS
 10
107.8730981656
 20
146.0132721649
 11
107.0613703305
 21
146.825
  0
LINE
  5
2BD
100
AcDbEntity
  8
RACCORDO
100
AcDbLine
 62
250
  6
CONTINUOUS
 10
189.5132721649
 20
64.3730981656
 11
190.325
 21
63.5613703305
  0
LINE
  5
2BE
100
AcDbEntity
  8
ASSI
100
AcDbLine
 62
7
  6
CONTINUOUS
 10
164.3812329953
 20
82.5
 11
164.462805558
 21
82.4109791689
  0
LINE
  5
2BF
100
AcDbEntity
  8
ASSI
100
AcDbLine
 62
7
  6
CONTINUOUS
 10
155.037194442
 20
82.4109791689
 11
155.1684274373
 21
80.9109791689
  0
LINE
  5
2C0
100
AcDbEntity
  8
ASSI
100
AcDbLine
 62
7
  6
CONTINUOUS
 10
155.1187670047
 20
82.5
 11
155.2522304368
 21
80.9745059908
  0
LINE
  5
2C1
100
AcDbEntity
  8
ASSI
100
AcDbLine
 62
7
  6
CONTINUOUS
 10
155.037194442
 20
127.5890208311
 11
155.1684274373
 21
129.0890208311
  0
LINE
  5
2C2
100
AcDbEntity
  8
ASSI
100
AcDbLine
 62
7
  6
CONTINUOUS
 10
155.1187670047
 20
127.5
 11
155.2522304368
 21
129.0254940092
  0
LINE
  5
2C3
100
AcDbEntity
  8
ASSI
100
AcDbLine
 62
7
  6
CONTINUOUS
 10
132.6187670047
 20
82.5
 11
132.537194442
 21
82.4109791689
  0
LINE
  5
2C4
100
AcDbEntity
  8
ASSI
100
AcDbLine
 62
7
  6
CONTINUOUS
 10
132.6684274373
 20
80.9109791689
 11
132.7244086078
 21
80.9720718961
  0
LINE
  5
2C5
100
AcDbEntity
  8
ASSI
100
AcDbLine
 62
7
  6
CONTINUOUS
 10
130.1279281039
 20
82.5
 11
130.1174550649
 21
82.489526961
  0
LINE
  5
2C6
100
AcDbEntity
  8
ASSI
100
AcDbLine
 62
7
  6
CONTINUOUS
 10
130.1279281039
 20
127.5
 11
130.1174550649
 21
127.510473039
  0
LINE
  5
2C7
100
AcDbEntity
  8
ASSI
100
AcDbLine
 62
7
  6
CONTINUOUS
 10
132.6187670047
 20
127.5
 11
132.537194442
 21
127.5890208311
  0
LINE
  5
2C8
100
AcDbEntity
  8
ASSI
100
AcDbLine
 62
7
  6
CONTINUOUS
 10
132.6684274373
 20
129.0890208311
 11
132.7244086078
 21
129.0279281039
  0
LINE
  5
2C9
100
AcDbEntity
  8
ASSI
100
AcDbLine
 62
7
  6
CONTINUOUS
 10
157.25
 20
129.0279281039
 11
157.25
 21
127.5
  0
LINE
  5
2CA
100
AcDbEntity
  8
ASSI
100
AcDbLine
 62
7
  6
CONTINUOUS
 10
157.25
 20
82.5
 11
157.25
 21
80.9720718961
  0
LINE
  5
2CB
100
AcDbEntity
  8
ASSI
100
AcDbLine
 62
7
  6
CONTINUOUS
 10
167.2115681994
 20
127.5279281039
 11
167.2224133863
 21
127.5541107013
  0
LINE
  5
2CC
100
AcDbEntity
  8
ASSI
100
AcDbLine
 62
7
  6
CONTINUOUS
 10
137.75
 20
82.5
 11
137.6609791689
 21
82.4109791689
  0
LINE
  5
2CD
100
AcDbEntity
  8
ASSI
100
AcDbLine
 62
7
  6
CONTINUOUS
 10
137.75
 20
81.0
 11
137.6609791689
 21
80.9109791689
  0
LINE
  5
2CE
100
AcDbEntity
  8
ASSI
100
AcDbLine
 62
7
  6
CONTINUOUS
 10
125.9720718961
 20
86.2884318006
 11
125.9458892987
 21
86.2775866137
  0
LINE
  5
2CF
100
AcDbEntity
  8
ASSI
100
AcDbLine
 62
7
  6
CONTINUOUS
 10
125.9720718961
 20
123.7115681994
 11
125.9458892987
 21
123.7224133863
  0
LINE
  5
2D0
100
AcDbEntity
  8
ASSI
100
AcDbLine
 62
7
  6
CONTINUOUS
 10
137.75
 20
127.5
 11
137.6609791689
 21
127.5890208311
  0
LINE
  5
2D1
100
AcDbEntity
  8
ASSI
100
AcDbLine
 62
7
  6
CONTINUOUS
 10
137.6609791689
 20
129.0890208311
 11
137.75
 21
129.0
  0
LINE
  5
2D2
100
AcDbEntity
  8
ASSI
100
AcDbLine
 62
7
  6
CONTINUOUS
 10
167.2115681994
 20
82.4720718961
 11
167.2224133863
 21
82.4458892987
  0
LINE
  5
2D3
100
AcDbEntity
  8
ASSI
100
AcDbLine
 62
7
  6
CONTINUOUS
 10
159.25
 20
129.0
 11
159.25
 21
127.5
  0
LINE
  5
2D4
100
AcDbEntity
  8
ASSI
100
AcDbLine
 62
7
  6
CONTINUOUS
 10
159.25
 20
82.5
 11
159.25
 21
81.0
  0
LINE
  5
2D5
100
AcDbEntity
  8
ASSI
100
AcDbLine
 62
7
  6
CONTINUOUS
 10
159.3390208311
 20
82.4109791689
 11
159.3390208311
 21
80.9109791689
  0
LINE
  5
2D6
100
AcDbEntity
  8
ASSI
100
AcDbLine
 62
7
  6
CONTINUOUS
 10
159.3390208311
 20
127.5890208311
 11
159.3390208311
 21
129.0890208311
  0
LINE
  5
2D7
100
AcDbEntity
  8
ASSI
100
AcDbLine
 62
7
  6
CONTINUOUS
 10
160.1609791689
 20
82.4109791689
 11
160.1609791689
 21
80.9109791689
  0
LINE
  5
2D8
100
AcDbEntity
  8
ASSI
100
AcDbLine
 62
7
  6
CONTINUOUS
 10
160.1609791689
 20
127.5890208311
 11
160.1609791689
 21
129.0890208311
  0
LINE
  5
2D9
100
AcDbEntity
  8
ASSI
100
AcDbLine
 62
7
  6
CONTINUOUS
 10
160.25
 20
129.0
 11
160.25
 21
127.5
  0
LINE
  5
2DA
100
AcDbEntity
  8
ASSI
100
AcDbLine
 62
7
  6
CONTINUOUS
 10
160.25
 20
82.5
 11
160.25
 21
81.0
  0
LINE
  5
2DB
100
AcDbEntity
  8
ASSI
100
AcDbLine
 62
7
  6
CONTINUOUS
 10
162.25
 20
129.0279281039
 11
162.25
 21
127.5
  0
LINE
  5
2DC
100
AcDbEntity
  8
ASSI
100
AcDbLine
 62
7
  6
CONTINUOUS
 10
162.25
 20
82.5
 11
162.25
 21
80.9720718961
  0
LINE
  5
2DD
100
AcDbEntity
  8
ASSI
100
AcDbLine
 62
7
  6
CONTINUOUS
 10
139.75
 20
81.0
 11
139.7220718961
 21
80.9720718961
  0
LINE
  5
2DE
100
AcDbEntity
  8
ASSI
100
AcDbLine
 62
7
  6
CONTINUOUS
 10
184.5
 20
125.5
 11
184.5261825974
 21
125.5261825974
  0
LINE
  5
2DF
100
AcDbEntity
  8
ASSI
100
AcDbLine
 62
7
  6
CONTINUOUS
 10
182.5051451296
 20
119.0051451296
 11
182.5404982831
 21
119.0404982831
  0
LINE
  5
2E0
100
AcDbEntity
  8
ASSI
100
AcDbLine
 62
7
  6
CONTINUOUS
 10
182.5
 20
118.5
 11
182.4738174026
 21
118.4738174026
  0
LINE
  5
2E1
100
AcDbEntity
  8
RACCORDO
100
AcDbLine
 62
7
  6
CONTINUOUS
 10
106.675
 20
108.5
 11
106.348178148
 21
108.4214408093
  0
LINE
  5
2E2
100
AcDbEntity
  8
ASSI
100
AcDbLine
 62
7
  6
CONTINUOUS
 10
182.5404982831
 20
119.0404982831
 11
183.3
 21
119.0634603435
  0
LINE
  5
2E3
100
AcDbEntity
  8
ASSI
100
AcDbLine
 62
7
  6
CONTINUOUS
 10
184.5261825974
 20
118.4738174026
 11
182.4738174026
 21
118.4738174026
  0
LINE
  5
2E4
100
AcDbEntity
  8
ASSI
100
AcDbLine
 62
7
  6
CONTINUOUS
 10
112.4738174026
 20
118.4738174026
 11
114.5261825974
 21
118.4738174026
  0
LINE
  5
2E5
100
AcDbEntity
  8
ASSI
100
AcDbLine
 62
7
  6
CONTINUOUS
 10
184.5
 20
118.5
 11
182.5
 21
118.5
  0
LINE
  5
2E6
100
AcDbEntity
  8
ASSI
100
AcDbLine
 62
7
  6
CONTINUOUS
 10
112.5
 20
118.5
 11
114.5
 21
118.5
  0
LINE
  5
2E7
100
AcDbEntity
  8
ASSI
100
AcDbLine
 62
7
  6
CONTINUOUS
 10
114.4595017169
 20
119.0404982831
 11
113.7
 21
119.0634603435
  0
LINE
  5
2E8
100
AcDbEntity
  8
RACCORDO
100
AcDbLine
 62
7
  6
CONTINUOUS
 10
190.325
 20
108.5
 11
190.651821852
 21
108.4214408093
  0
LINE
  5
2E9
100
AcDbEntity
  8
ASSI
100
AcDbLine
 62
7
  6
CONTINUOUS
 10
139.7220718961
 20
129.0279281039
 11
139.75
 21
129.0
  0
LINE
  5
2EA
100
AcDbEntity
  8
ASSI
100
AcDbLine
 62
7
  6
CONTINUOUS
 10
184.5
 20
84.5
 11
184.5261825974
 21
84.4738174026
  0
LINE
  5
2EB
100
AcDbEntity
  8
ASSI
100
AcDbLine
 62
7
  6
CONTINUOUS
 10
182.5051451296
 20
90.9948548704
 11
182.5404982831
 21
90.9595017169
  0
LINE
  5
2EC
100
AcDbEntity
  8
ASSI
100
AcDbLine
 62
7
  6
CONTINUOUS
 10
182.5
 20
91.5
 11
182.4738174026
 21
91.5261825974
  0
LINE
  5
2ED
100
AcDbEntity
  8
ASSI
100
AcDbLine
 62
7
  6
CONTINUOUS
 10
164.3812329953
 20
127.5
 11
164.2477695632
 21
129.0254940092
  0
LINE
  5
2EE
100
AcDbEntity
  8
ASSI
100
AcDbLine
 62
7
  6
CONTINUOUS
 10
164.462805558
 20
127.5890208311
 11
164.3315725627
 21
129.0890208311
  0
LINE
  5
2EF
100
AcDbEntity
  8
ASSI
100
AcDbLine
 62
7
  6
CONTINUOUS
 10
164.3812329953
 20
82.5
 11
164.2477695632
 21
80.9745059908
  0
LINE
  5
2F0
100
AcDbEntity
  8
ASSI
100
AcDbLine
 62
7
  6
CONTINUOUS
 10
164.462805558
 20
82.4109791689
 11
164.3315725627
 21
80.9109791689
  0
LINE
  5
2F1
100
AcDbEntity
  8
ASSI
100
AcDbLine
 62
7
  6
CONTINUOUS
 10
147.5279281039
 20
82.5
 11
147.5174550649
 21
82.489526961
  0
LINE
  5
2F2
100
AcDbEntity
  8
ASSI
100
AcDbLine
 62
7
  6
CONTINUOUS
 10
152.6279281039
 20
82.5
 11
152.6174550649
 21
82.489526961
  0
LINE
  5
2F3
100
AcDbEntity
  8
ASSI
100
AcDbLine
 62
7
  6
CONTINUOUS
 10
147.5279281039
 20
127.5
 11
147.5174550649
 21
127.510473039
  0
LINE
  5
2F4
100
AcDbEntity
  8
ASSI
100
AcDbLine
 62
7
  6
CONTINUOUS
 10
152.6279281039
 20
127.5
 11
152.6174550649
 21
127.510473039
  0
LINE
  5
2F5
100
AcDbEntity
  8
ASSI
100
AcDbLine
 62
7
  6
CONTINUOUS
 10
171.0
 20
123.7394963033
 11
171.0
 21
86.2605036967
  0
LINE
  5
2F6
100
AcDbEntity
  8
ASSI
100
AcDbLine
 62
7
  6
CONTINUOUS
 10
171.0541107013
 20
127.5541107013
 11
171.0541107013
 21
123.7224133863
  0
LINE
  5
2F7
100
AcDbEntity
  8
ASSI
100
AcDbLine
 62
7
  6
CONTINUOUS
 10
171.0541107013
 20
86.2775866137
 11
171.0541107013
 21
82.4458892987
  0
LINE
  5
2F8
100
AcDbEntity
  8
ASSI
100
AcDbLine
 62
7
  6
CONTINUOUS
 10
171.0890208311
 20
127.5890208311
 11
171.0890208311
 21
82.4109791689
  0
LINE
  5
2F9
100
AcDbEntity
  8
ASSI
100
AcDbLine
 62
7
  6
CONTINUOUS
 10
155.1187670047
 20
82.5
 11
155.037194442
 21
82.4109791689
  0
LINE
  5
2FA
100
AcDbEntity
  8
ASSI
100
AcDbLine
 62
7
  6
CONTINUOUS
 10
155.1684274373
 20
80.9109791689
 11
155.2244086078
 21
80.9720718961
  0
LINE
  5
2FB
100
AcDbEntity
  8
ASSI
100
AcDbLine
 62
7
  6
CONTINUOUS
 10
114.4595017169
 20
124.9595017169
 11
113.7
 21
124.9365396565
  0
LINE
  5
2FC
100
AcDbEntity
  8
ASSI
100
AcDbLine
 62
7
  6
CONTINUOUS
 10
114.5
 20
125.5
 11
112.5
 21
125.5
  0
LINE
  5
2FD
100
AcDbEntity
  8
ASSI
100
AcDbLine
 62
7
  6
CONTINUOUS
 10
182.5
 20
125.5
 11
184.5
 21
125.5
  0
LINE
  5
2FE
100
AcDbEntity
  8
ASSI
100
AcDbLine
 62
7
  6
CONTINUOUS
 10
114.5261825974
 20
125.5261825974
 11
112.4738174026
 21
125.5261825974
  0
LINE
  5
2FF
100
AcDbEntity
  8
ASSI
100
AcDbLine
 62
7
  6
CONTINUOUS
 10
182.4738174026
 20
125.5261825974
 11
184.5261825974
 21
125.5261825974
  0
LINE
  5
300
100
AcDbEntity
  8
ASSI
100
AcDbLine
 62
7
  6
CONTINUOUS
 10
130.1279281039
 20
127.5
 11
132.6187670047
 21
127.5
  0
LINE
  5
301
100
AcDbEntity
  8
ASSI
100
AcDbLine
 62
7
  6
CONTINUOUS
 10
134.75
 20
127.5
 11
139.75
 21
127.5
  0
LINE
  5
302
100
AcDbEntity
  8
ASSI
100
AcDbLine
 62
7
  6
CONTINUOUS
 10
141.8812329953
 20
127.5
 11
144.3720718961
 21
127.5
  0
LINE
  5
303
100
AcDbEntity
  8
ASSI
100
AcDbLine
 62
7
  6
CONTINUOUS
 10
147.5279281039
 20
127.5
 11
149.4720718961
 21
127.5
  0
LINE
  5
304
100
AcDbEntity
  8
ASSI
100
AcDbLine
 62
7
  6
CONTINUOUS
 10
152.6279281039
 20
127.5
 11
155.1187670047
 21
127.5
  0
LINE
  5
305
100
AcDbEntity
  8
ASSI
100
AcDbLine
 62
7
  6
CONTINUOUS
 10
157.25
 20
127.5
 11
162.25
 21
127.5
  0
LINE
  5
306
100
AcDbEntity
  8
ASSI
100
AcDbLine
 62
7
  6
CONTINUOUS
 10
164.3812329953
 20
127.5
 11
166.8720718961
 21
127.5
  0
LINE
  5
307
100
AcDbEntity
  8
ASSI
100
AcDbLine
 62
7
  6
CONTINUOUS
 10
167.2290232643
 20
127.510473039
 11
166.8825449351
 21
127.510473039
  0
LINE
  5
308
100
AcDbEntity
  8
ASSI
100
AcDbLine
 62
7
  6
CONTINUOUS
 10
147.5174550649
 20
127.510473039
 11
144.3825449351
 21
127.510473039
  0
LINE
  5
309
100
AcDbEntity
  8
ASSI
100
AcDbLine
 62
7
  6
CONTINUOUS
 10
129.7709767357
 20
127.510473039
 11
130.1174550649
 21
127.510473039
  0
LINE
  5
30A
100
AcDbEntity
  8
ASSI
100
AcDbLine
 62
7
  6
CONTINUOUS
 10
149.4825449351
 20
127.510473039
 11
152.6174550649
 21
127.510473039
  0
LINE
  5
30B
100
AcDbEntity
  8
ASSI
100
AcDbLine
 62
7
  6
CONTINUOUS
 10
125.9458892987
 20
127.5541107013
 11
129.7775866137
 21
127.5541107013
  0
LINE
  5
30C
100
AcDbEntity
  8
ASSI
100
AcDbLine
 62
7
  6
CONTINUOUS
 10
167.2224133863
 20
127.5541107013
 11
171.0541107013
 21
127.5541107013
  0
LINE
  5
30D
100
AcDbEntity
  8
ASSI
100
AcDbLine
 62
7
  6
CONTINUOUS
 10
171.0890208311
 20
127.5890208311
 11
164.462805558
 21
127.5890208311
  0
LINE
  5
30E
100
AcDbEntity
  8
ASSI
100
AcDbLine
 62
7
  6
CONTINUOUS
 10
160.1609791689
 20
127.5890208311
 11
159.3390208311
 21
127.5890208311
  0
LINE
  5
30F
100
AcDbEntity
  8
ASSI
100
AcDbLine
 62
7
  6
CONTINUOUS
 10
155.037194442
 20
127.5890208311
 11
141.962805558
 21
127.5890208311
  0
LINE
  5
310
100
AcDbEntity
  8
ASSI
100
AcDbLine
 62
7
  6
CONTINUOUS
 10
137.6609791689
 20
127.5890208311
 11
136.8390208311
 21
127.5890208311
  0
LINE
  5
311
100
AcDbEntity
  8
ASSI
100
AcDbLine
 62
7
  6
CONTINUOUS
 10
132.537194442
 20
127.5890208311
 11
125.9109791689
 21
127.5890208311
  0
LINE
  5
312
100
AcDbEntity
  8
ASSI
100
AcDbLine
 62
7
  6
CONTINUOUS
 10
134.75
 20
129.0
 11
136.75
 21
129.0
  0
LINE
  5
313
100
AcDbEntity
  8
ASSI
100
AcDbLine
 62
7
  6
CONTINUOUS
 10
137.75
 20
129.0
 11
139.75
 21
129.0
  0
LINE
  5
314
100
AcDbEntity
  8
ASSI
100
AcDbLine
 62
7
  6
CONTINUOUS
 10
157.25
 20
129.0
 11
159.25
 21
129.0
  0
LINE
  5
315
100
AcDbEntity
  8
ASSI
100
AcDbLine
 62
7
  6
CONTINUOUS
 10
160.25
 20
129.0
 11
162.25
 21
129.0
  0
LINE
  5
316
100
AcDbEntity
  8
ASSI
100
AcDbLine
 62
7
  6
CONTINUOUS
 10
132.7244086078
 20
129.0279281039
 11
134.7779281039
 21
129.0279281039
  0
LINE
  5
317
100
AcDbEntity
  8
ASSI
100
AcDbLine
 62
7
  6
CONTINUOUS
 10
139.7220718961
 20
129.0279281039
 11
141.7755913922
 21
129.0279281039
  0
LINE
  5
318
100
AcDbEntity
  8
ASSI
100
AcDbLine
 62
7
  6
CONTINUOUS
 10
155.2244086078
 20
129.0279281039
 11
157.2779281039
 21
129.0279281039
  0
LINE
  5
319
100
AcDbEntity
  8
ASSI
100
AcDbLine
 62
7
  6
CONTINUOUS
 10
162.2220718961
 20
129.0279281039
 11
164.2755913922
 21
129.0279281039
  0
LINE
  5
31A
100
AcDbEntity
  8
ASSI
100
AcDbLine
 62
7
  6
CONTINUOUS
 10
132.6684274373
 20
129.0890208311
 11
136.8390208311
 21
129.0890208311
  0
LINE
  5
31B
100
AcDbEntity
  8
ASSI
100
AcDbLine
 62
7
  6
CONTINUOUS
 10
137.6609791689
 20
129.0890208311
 11
141.8315725627
 21
129.0890208311
  0
LINE
  5
31C
100
AcDbEntity
  8
ASSI
100
AcDbLine
 62
7
  6
CONTINUOUS
 10
155.1684274373
 20
129.0890208311
 11
159.3390208311
 21
129.0890208311
  0
LINE
  5
31D
100
AcDbEntity
  8
ASSI
100
AcDbLine
 62
7
  6
CONTINUOUS
 10
160.1609791689
 20
129.0890208311
 11
164.3315725627
 21
129.0890208311
  0
LINE
  5
31E
100
AcDbEntity
  8
ASSI
100
AcDbLine
 62
7
  6
CONTINUOUS
 10
182.5404982831
 20
124.9595017169
 11
183.3
 21
124.9365396565
  0
LINE
  5
31F
100
AcDbEntity
  8
ASSI
100
AcDbLine
 62
7
  6
CONTINUOUS
 10
155.1187670047
 20
127.5
 11
155.037194442
 21
127.5890208311
  0
LINE
  5
320
100
AcDbEntity
  8
ASSI
100
AcDbLine
 62
7
  6
CONTINUOUS
 10
155.1684274373
 20
129.0890208311
 11
155.2244086078
 21
129.0279281039
  0
LINE
  5
321
100
AcDbEntity
  8
ASSI
100
AcDbLine
 62
7
  6
CONTINUOUS
 10
160.25
 20
82.5
 11
160.1609791689
 21
82.4109791689
  0
LINE
  5
322
100
AcDbEntity
  8
ASSI
100
AcDbLine
 62
7
  6
CONTINUOUS
 10
160.25
 20
81.0
 11
160.1609791689
 21
80.9109791689
  0
LINE
  5
323
100
AcDbEntity
  8
ASSI
100
AcDbLine
 62
7
  6
CONTINUOUS
 10
162.25
 20
81.0
 11
162.2220718961
 21
80.9720718961
  0
LINE
  5
324
100
AcDbEntity
  8
ASSI
100
AcDbLine
 62
7
  6
CONTINUOUS
 10
160.25
 20
127.5
 11
160.1609791689
 21
127.5890208311
  0
LINE
  5
325
100
AcDbEntity
  8
ASSI
100
AcDbLine
 62
7
  6
CONTINUOUS
 10
160.1609791689
 20
129.0890208311
 11
160.25
 21
129.0
  0
LINE
  5
326
100
AcDbEntity
  8
ASSI
100
AcDbLine
 62
7
  6
CONTINUOUS
 10
162.2220718961
 20
129.0279281039
 11
162.25
 21
129.0
  0
LINE
  5
327
100
AcDbEntity
  8
RACCORDO
100
AcDbLine
 62
250
  6
CONTINUOUS
 10
189.1269018344
 20
146.0132721649
 11
189.0303092517
 21
145.5303092517
  0
LINE
  5
328
100
AcDbEntity
  8
ASSI
100
AcDbLine
 62
7
  6
CONTINUOUS
 10
171.0279281039
 20
86.2884318006
 11
167.2115681994
 21
82.4720718961
  0
LINE
  5
329
100
AcDbEntity
  8
ASSI
100
AcDbLine
 62
7
  6
CONTINUOUS
 10
171.0541107013
 20
86.2775866137
 11
167.2224133863
 21
82.4458892987
  0
LINE
  5
32A
100
AcDbEntity
  8
RACCORDO
100
AcDbLine
 62
250
  6
CONTINUOUS
 10
189.0303092517
 20
145.5303092517
 11
189.4744174705
 21
145.6191331633
  0
LINE
  5
32B
100
AcDbEntity
  8
RACCORDO
100
AcDbLine
 62
250
  6
CONTINUOUS
 10
189.4744174705
 20
145.6191331633
 11
189.5132721649
 21
145.6269018344
  0
LINE
  5
32C
100
AcDbEntity
  8
RACCORDO
100
AcDbLine
 62
250
  6
CONTINUOUS
 10
107.4867278351
 20
145.6269018344
 11
107.9696907483
 21
145.5303092517
  0
LINE
  5
32D
100
AcDbEntity
  8
ASSI
100
AcDbLine
 62
7
  6
CONTINUOUS
 10
167.2115681994
 20
127.5279281039
 11
171.0279281039
 21
123.7115681994
  0
LINE
  5
32E
100
AcDbEntity
  8
ASSI
100
AcDbLine
 62
7
  6
CONTINUOUS
 10
167.2224133863
 20
127.5541107013
 11
171.0541107013
 21
123.7224133863
  0
LINE
  5
32F
100
AcDbEntity
  8
RACCORDO
100
AcDbLine
 62
250
  6
CONTINUOUS
 10
189.0303092517
 20
64.4696907483
 11
189.1191331633
 21
64.0255825295
  0
LINE
  5
330
100
AcDbEntity
  8
RACCORDO
100
AcDbLine
 62
250
  6
CONTINUOUS
 10
189.1191331633
 20
64.0255825295
 11
189.1269018344
 21
63.9867278351
  0
LINE
  5
331
100
AcDbEntity
  8
ASSI
100
AcDbLine
 62
7
  6
CONTINUOUS
 10
182.4738174026
 20
91.5261825974
 11
182.4738174026
 21
84.4738174026
  0
LINE
  5
332
100
AcDbEntity
  8
ASSI
100
AcDbLine
 62
7
  6
CONTINUOUS
 10
182.4738174026
 20
118.4738174026
 11
182.4738174026
 21
125.5261825974
  0
LINE
  5
333
100
AcDbEntity
  8
ASSI
100
AcDbLine
 62
7
  6
CONTINUOUS
 10
182.5
 20
91.5
 11
182.5
 21
91.2948091789
  0
LINE
  5
334
100
AcDbEntity
  8
ASSI
100
AcDbLine
 62
7
  6
CONTINUOUS
 10
182.5
 20
84.7051908211
 11
182.5
 21
84.5
  0
LINE
  5
335
100
AcDbEntity
  8
ASSI
100
AcDbLine
 62
7
  6
CONTINUOUS
 10
182.5
 20
118.5
 11
182.5
 21
118.7051908211
  0
LINE
  5
336
100
AcDbEntity
  8
ASSI
100
AcDbLine
 62
7
  6
CONTINUOUS
 10
182.5
 20
125.2948091789
 11
182.5
 21
125.5
  0
LINE
  5
337
100
AcDbEntity
  8
ASSI
100
AcDbLine
 62
7
  6
CONTINUOUS
 10
182.5404982831
 20
90.9595017169
 11
182.5404982831
 21
85.0404982831
  0
LINE
  5
338
100
AcDbEntity
  8
ASSI
100
AcDbLine
 62
7
  6
CONTINUOUS
 10
182.5404982831
 20
119.0404982831
 11
182.5404982831
 21
124.9595017169
  0
LINE
  5
339
100
AcDbEntity
  8
ASSI
100
AcDbLine
 62
7
  6
CONTINUOUS
 10
183.6
 20
90.6274240403
 11
183.6
 21
85.3725759597
  0
LINE
  5
33A
100
AcDbEntity
  8
ASSI
100
AcDbLine
 62
7
  6
CONTINUOUS
 10
183.6
 20
119.3725759597
 11
183.6
 21
124.6274240403
  0
LINE
  5
33B
100
AcDbEntity
  8
ASSI
100
AcDbLine
 62
7
  6
CONTINUOUS
 10
184.5
 20
125.5
 11
184.5
 21
118.5
  0
LINE
  5
33C
100
AcDbEntity
  8
ASSI
100
AcDbLine
 62
7
  6
CONTINUOUS
 10
184.5
 20
84.5
 11
184.5
 21
91.5
  0
LINE
  5
33D
100
AcDbEntity
  8
ASSI
100
AcDbLine
 62
7
  6
CONTINUOUS
 10
184.5261825974
 20
125.5261825974
 11
184.5261825974
 21
118.4738174026
  0
LINE
  5
33E
100
AcDbEntity
  8
ASSI
100
AcDbLine
 62
7
  6
CONTINUOUS
 10
184.5261825974
 20
84.4738174026
 11
184.5261825974
 21
91.5261825974
  0
LINE
  5
33F
100
AcDbEntity
  8
ASSI
100
AcDbLine
 62
7
  6
CONTINUOUS
 10
184.5
 20
91.5
 11
184.5261825974
 21
91.5261825974
  0
LINE
  5
340
100
AcDbEntity
  8
ASSI
100
AcDbLine
 62
7
  6
CONTINUOUS
 10
177.0611865728
 20
79.9743473331
 11
173.5256526669
 21
76.4388134272
  0
LINE
  5
341
100
AcDbEntity
  8
ASSI
100
AcDbLine
 62
7
  6
CONTINUOUS
 10
182.5051451296
 20
85.0051451296
 11
182.5404982831
 21
85.0404982831
  0
LINE
  5
342
100
AcDbEntity
  8
ASSI
100
AcDbLine
 62
7
  6
CONTINUOUS
 10
184.5
 20
118.5
 11
184.5261825974
 21
118.4738174026
  0
LINE
  5
343
100
AcDbEntity
  8
ASSI
100
AcDbLine
 62
7
  6
CONTINUOUS
 10
173.5256526669
 20
133.5611865728
 11
177.0611865728
 21
130.0256526669
  0
LINE
  5
344
100
AcDbEntity
  8
ASSI
100
AcDbLine
 62
7
  6
CONTINUOUS
 10
182.5051451296
 20
124.9948548704
 11
182.5404982831
 21
124.9595017169
  0
LINE
  5
345
100
AcDbEntity
  8
RACCORDO
100
AcDbLine
 62
250
  6
CONTINUOUS
 10
189.0303092517
 20
64.4696907483
 11
189.0303092517
 21
145.5303092517
  0
LINE
  5
346
100
AcDbEntity
  8
RACCORDO
100
AcDbLine
 62
250
  6
CONTINUOUS
 10
189.5132721649
 20
64.3730981656
 11
189.5132721649
 21
145.6269018344
  0
LINE
  5
347
100
AcDbEntity
  8
DRAFT
100
AcDbLine
 62
7
  6
CONTINUOUS
 10
190.325
 20
63.5613703305
 11
190.325
 21
146.4386296695
  0
LINE
  5
348
100
AcDbEntity
  8
RACCORDO
100
AcDbLine
 62
7
  6
CONTINUOUS
 10
190.834558328
 20
107.8735337254
 11
190.834558328
 21
102.1264662746
  0
LINE
  5
349
100
AcDbEntity
  8
ASSI
100
AcDbLine
 62
7
  6
CONTINUOUS
 10
182.5
 20
84.5
 11
182.4738174026
 21
84.4738174026
  0
LINE
  5
34A
100
AcDbEntity
  8
ASSI
100
AcDbLine
 62
7
  6
CONTINUOUS
 10
175.9388134272
 20
74.0256526669
 11
179.4743473331
 21
77.5611865728
  0
LINE
  5
34B
100
AcDbEntity
  8
RACCORDO
100
AcDbLine
 62
250
  6
CONTINUOUS
 10
189.0303092517
 20
145.5303092517
 11
107.9696907483
 21
145.5303092517
  0
LINE
  5
34C
100
AcDbEntity
  8
RACCORDO
100
AcDbLine
 62
250
  6
CONTINUOUS
 10
189.1269018344
 20
146.0132721649
 11
107.8730981656
 21
146.0132721649
  0
LINE
  5
34D
100
AcDbEntity
  8
RACCORDO
100
AcDbLine
 62
7
  6
CONTINUOUS
 10
189.9386296695
 20
146.825
 11
107.0613703305
 21
146.825
  0
LINE
  5
34E
100
AcDbEntity
  8
ASSI
100
AcDbLine
 62
7
  6
CONTINUOUS
 10
182.5
 20
125.5
 11
182.4738174026
 21
125.5261825974
  0
LINE
  5
34F
100
AcDbEntity
  8
ASSI
100
AcDbLine
 62
7
  6
CONTINUOUS
 10
179.4743473331
 20
132.4388134272
 11
175.9388134272
 21
135.9743473331
  0
LWPOLYLINE
  5
350
100
AcDbEntity
  8
RACCORDO
100
AcDbPolyline
 62
250
  6
CONTINUOUS
 90
19
 70
0
 10
189.5132721646
 20
145.626901834
 10
189.5097610334
 20
145.6592101201
 10
189.5035800335
 20
145.6912937208
 10
189.4947721087
 20
145.7229288888
 10
189.4833985705
 20
145.7538948574
 10
189.4695385599
 20
145.7839757592
 10
189.4532884024
 20
145.8129620948
 10
189.4347610424
 20
145.8406518169
 10
189.4140856302
 20
145.8668514003
 10
189.3914065435
 20
145.8913776196
 10
189.3668818564
 20
145.9140593167
 10
189.340682585
 20
145.9347381343
 10
189.3129919341
 20
145.9532694148
 10
189.2840032543
 20
145.9695237906
 10
189.253918617
 20
145.9833879827
 10
189.2229479138
 20
145.9947652897
 10
189.1913072067
 20
146.003576347
 10
189.1592172219
 20
146.009759681
 10
189.126901825
 20
146.0132721555
  0
LWPOLYLINE
  5
351
100
AcDbEntity
  8
RACCORDO
100
AcDbPolyline
 62
250
  6
CONTINUOUS
 90
19
 70
0
 10
107.873098166
 20
146.0132721646
 10
107.8407898799
 20
146.0097610334
 10
107.8087062792
 20
146.0035800335
 10
107.7770711112
 20
145.9947721087
 10
107.7461051426
 20
145.9833985705
 10
107.7160242408
 20
145.9695385599
 10
107.6870379052
 20
145.9532884024
 10
107.6593481831
 20
145.9347610424
 10
107.6331485997
 20
145.9140856302
 10
107.6086223804
 20
145.8914065435
 10
107.5859406833
 20
145.8668818564
 10
107.5652618657
 20
145.840682585
 10
107.5467305852
 20
145.8129919341
 10
107.5304762094
 20
145.7840032543
 10
107.5166120173
 20
145.753918617
 10
107.5052347103
 20
145.7229479138
 10
107.496423653
 20
145.6913072067
 10
107.490240319
 20
145.6592172219
 10
107.4867278445
 20
145.626901825
  0
ARC
  5
352
100
AcDbEntity
  8
ASSI
100
AcDbCircle
 62
7
  6
CONTINUOUS
 10
148.5
 20
105.0
 40
31.6063623377
100
AcDbArc
 50
356.5590799622
 51
8.8201478292
  0
ARC
  5
353
100
AcDbEntity
  8
ASSI
100
AcDbCircle
 62
7
  6
CONTINUOUS
 10
148.5
 20
105.0
 40
31.6063623377
100
AcDbArc
 50
176.5590799622
 51
188.8201478292
  0
ARC
  5
354
100
AcDbEntity
  8
ASSI
100
AcDbCircle
 62
7
  6
CONTINUOUS
 10
148.5
 20
105.0
 40
31.6063623377
100
AcDbArc
 50
266.5590799622
 51
278.8201478292
  0
ARC
  5
355
100
AcDbEntity
  8
ASSI
100
AcDbCircle
 62
7
  6
CONTINUOUS
 10
148.5
 20
105.0
 40
31.6063623377
100
AcDbArc
 50
86.5590799622
 51
98.8201478292
  0
ARC
  5
356
100
AcDbEntity
  8
ASSI
100
AcDbCircle
 62
7
  6
CONTINUOUS
 10
148.5
 20
105.0
 40
28.3936376623
100
AcDbArc
 50
356.8554908542
 51
8.8201478292
  0
ARC
  5
357
100
AcDbEntity
  8
ASSI
100
AcDbCircle
 62
7
  6
CONTINUOUS
 10
148.5
 20
105.0
 40
28.3936376623
100
AcDbArc
 50
176.8554908542
 51
188.8201478292
  0
ARC
  5
358
100
AcDbEntity
  8
ASSI
100
AcDbCircle
 62
7
  6
CONTINUOUS
 10
148.5
 20
105.0
 40
28.3936376623
100
AcDbArc
 50
266.8554908542
 51
278.8201478292
  0
ARC
  5
359
100
AcDbEntity
  8
ASSI
100
AcDbCircle
 62
7
  6
CONTINUOUS
 10
148.5
 20
105.0
 40
28.3936376623
100
AcDbArc
 50
86.8554908542
 51
98.8201478292
  0
ARC
  5
35A
100
AcDbEntity
  8
ASSI
100
AcDbCircle
 62
7
  6
CONTINUOUS
 10
153.1
 20
134.6452357049
 40
3.3063623377
100
AcDbArc
 50
203.0461299817
 51
144.8370368861
  0
ARC
  5
35B
100
AcDbEntity
  8
ASSI
100
AcDbCircle
 62
7
  6
CONTINUOUS
 10
143.9
 20
75.3547642951
 40
3.3063623377
100
AcDbArc
 50
23.0461299817
 51
324.8370368861
  0
ARC
  5
35C
100
AcDbEntity
  8
ASSI
100
AcDbCircle
 62
7
  6
CONTINUOUS
 10
118.8547642951
 20
109.6
 40
3.3063623377
100
AcDbArc
 50
293.0461299817
 51
234.8370368861
  0
ARC
  5
35D
100
AcDbEntity
  8
ASSI
100
AcDbCircle
 62
7
  6
CONTINUOUS
 10
178.1452357049
 20
100.4
 40
3.3063623377
100
AcDbArc
 50
113.0461299817
 51
54.8370368861
  0
ARC
  5
35E
100
AcDbEntity
  8
ASSI
100
AcDbCircle
 62
7
  6
CONTINUOUS
 10
118.732233047
 20
131.232233047
 40
1.7063623377
100
AcDbArc
 50
135.0
 51
315.0
  0
ARC
  5
35F
100
AcDbEntity
  8
ASSI
100
AcDbCircle
 62
7
  6
CONTINUOUS
 10
122.267766953
 20
134.767766953
 40
1.7063623377
100
AcDbArc
 50
315.0
 51
135.0
  0
ARC
  5
360
100
AcDbEntity
  8
ASSI
100
AcDbCircle
 62
7
  6
CONTINUOUS
 10
174.732233047
 20
134.767766953
 40
1.7063623377
100
AcDbArc
 50
45.0
 51
225.0
  0
ARC
  5
361
100
AcDbEntity
  8
ASSI
100
AcDbCircle
 62
7
  6
CONTINUOUS
 10
178.267766953
 20
131.232233047
 40
1.7063623377
100
AcDbArc
 50
225.0
 51
45.0
  0
ARC
  5
362
100
AcDbEntity
  8
ASSI
100
AcDbCircle
 62
7
  6
CONTINUOUS
 10
122.267766953
 20
75.232233047
 40
1.7063623377
100
AcDbArc
 50
225.0
 51
45.0
  0
ARC
  5
363
100
AcDbEntity
  8
ASSI
100
AcDbCircle
 62
7
  6
CONTINUOUS
 10
118.732233047
 20
78.767766953
 40
1.7063623377
100
AcDbArc
 50
45.0
 51
225.0
  0
ARC
  5
364
100
AcDbEntity
  8
ASSI
100
AcDbCircle
 62
7
  6
CONTINUOUS
 10
178.267766953
 20
78.767766953
 40
1.7063623377
100
AcDbArc
 50
315.0
 51
135.0
  0
ARC
  5
365
100
AcDbEntity
  8
ASSI
100
AcDbCircle
 62
7
  6
CONTINUOUS
 10
174.732233047
 20
75.232233047
 40
1.7063623377
100
AcDbArc
 50
135.0
 51
315.0
  0
ARC
  5
366
100
AcDbEntity
  8
ASSI
100
AcDbCircle
 62
7
  6
CONTINUOUS
 10
178.1452357049
 20
109.6
 40
1.6063623377
100
AcDbArc
 50
8.8201478292
 51
188.8201478292
  0
ARC
  5
367
100
AcDbEntity
  8
ASSI
100
AcDbCircle
 62
7
  6
CONTINUOUS
 10
118.8547642951
 20
100.4
 40
1.6063623377
100
AcDbArc
 50
188.8201478292
 51
8.8201478292
  0
ARC
  5
368
100
AcDbEntity
  8
ASSI
100
AcDbCircle
 62
7
  6
CONTINUOUS
 10
153.1
 20
75.3547642951
 40
1.6063623377
100
AcDbArc
 50
278.8201478292
 51
98.8201478292
  0
ARC
  5
369
100
AcDbEntity
  8
ASSI
100
AcDbCircle
 62
7
  6
CONTINUOUS
 10
143.9
 20
134.6452357049
 40
1.6063623377
100
AcDbArc
 50
98.8201478292
 51
278.8201478292
  0
ELLIPSE
  5
36A
100
AcDbEntity
  8
RACCORDO
100
AcDbEllipse
 62
7
  6
CONTINUOUS
 10
190.6343746991
 20
102.1264662746
 30
0.0
 11
-0.0
 21
0.55
 31
0.0
 40
0.3639702343
 41
-3.054326191
 42
-1.5707963268
  0
ELLIPSE
  5
36B
100
AcDbEntity
  8
RACCORDO
100
AcDbEllipse
 62
7
  6
CONTINUOUS
 10
190.6343746991
 20
107.8735337254
 30
0.0
 11
-0.0
 21
0.55
 31
0.0
 40
0.3639702343
 41
-1.5707963268
 42
-0.0872664626
  0
ELLIPSE
  5
36C
100
AcDbEntity
  8
RACCORDO
100
AcDbEllipse
 62
7
  6
CONTINUOUS
 10
106.3656253009
 20
102.1264662746
 30
0.0
 11
0.0
 21
0.55
 31
0.0
 40
0.3639702343
 41
-4.7123889804
 42
-3.2288591162
  0
ELLIPSE
  5
36D
100
AcDbEntity
  8
RACCORDO
100
AcDbEllipse
 62
7
  6
CONTINUOUS
 10
106.3656253009
 20
107.8735337254
 30
0.0
 11
-0.0
 21
0.55
 31
0.0
 40
0.3639702343
 41
0.0872664626
 42
1.5707963268
  0
ELLIPSE
  5
36E
100
AcDbEntity
  8
RACCORDO
100
AcDbEllipse
 62
7
  6
CONTINUOUS
 10
107.0891104722
 20
146.4108895278
 30
0.0
 11
0.3024689788
 21
-0.3024689788
 31
0.0
 40
0.9351131265
 41
2.3897132393
 42
3.8934720679
  0
ELLIPSE
  5
36F
100
AcDbEntity
  8
RACCORDO
100
AcDbEllipse
 62
7
  6
CONTINUOUS
 10
189.9108895278
 20
146.4108895278
 30
0.0
 11
0.3024689788
 21
0.3024689788
 31
0.0
 40
0.9351131265
 41
-0.7518794143
 42
0.7518794143
  0
ELLIPSE
  5
370
100
AcDbEntity
  8
RACCORDO
100
AcDbEllipse
 62
7
  6
CONTINUOUS
 10
189.9108895278
 20
63.5891104722
 30
0.0
 11
0.3024689788
 21
-0.3024689788
 31
0.0
 40
0.9351131265
 41
-0.7518794143
 42
0.7518794143
  0
ELLIPSE
  5
371
100
AcDbEntity
  8
RACCORDO
100
AcDbEllipse
 62
7
  6
CONTINUOUS
 10
107.0891104722
 20
63.5891104722
 30
0.0
 11
0.3024689788
 21
0.3024689788
 31
0.0
 40
0.9351131265
 41
2.3897132393
 42
3.8934720679
  0
ELLIPSE
  5
372
100
AcDbEntity
  8
ASSI
100
AcDbEllipse
 62
7
  6
CONTINUOUS
 10
182.5052365195
 20
125.2948091789
 30
0.0
 11
0.0
 21
0.3
 31
0.0
 40
0.0174550649
 41
-4.7123889804
 42
-3.1590459461
  0
ELLIPSE
  5
373
100
AcDbEntity
  8
ASSI
100
AcDbEllipse
 62
7
  6
CONTINUOUS
 10
182.5052365195
 20
118.7051908211
 30
0.0
 11
0.0
 21
0.3
 31
0.0
 40
0.0174550649
 41
0.0174532925
 42
1.5707963268
  0
ELLIPSE
  5
374
100
AcDbEntity
  8
ASSI
100
AcDbEllipse
 62
7
  6
CONTINUOUS
 10
183.3
 20
124.6364939581
 30
0.0
 11
0.2131980389
 21
-0.2175384252
 31
0.0
 40
0.9702223669
 41
0.7803602581
 42
2.3511565849
  0
ELLIPSE
  5
375
100
AcDbEntity
  8
ASSI
100
AcDbEllipse
 62
7
  6
CONTINUOUS
 10
183.3
 20
119.3635060419
 30
0.0
 11
0.2131980389
 21
0.2175384252
 31
0.0
 40
0.9702223669
 41
-2.3511565849
 42
-0.7803602581
  0
ELLIPSE
  5
376
100
AcDbEntity
  8
ASSI
100
AcDbEllipse
 62
7
  6
CONTINUOUS
 10
182.5052365195
 20
84.7051908211
 30
0.0
 11
0.0
 21
0.3
 31
0.0
 40
0.0174550649
 41
0.0174532925
 42
1.5707963268
  0
ELLIPSE
  5
377
100
AcDbEntity
  8
ASSI
100
AcDbEllipse
 62
7
  6
CONTINUOUS
 10
182.5052365195
 20
91.2948091789
 30
0.0
 11
0.0
 21
0.3
 31
0.0
 40
0.0174550649
 41
-4.7123889804
 42
-3.1590459461
  0
ELLIPSE
  5
378
100
AcDbEntity
  8
ASSI
100
AcDbEllipse
 62
7
  6
CONTINUOUS
 10
183.3
 20
85.3635060419
 30
0.0
 11
0.2131980389
 21
0.2175384252
 31
0.0
 40
0.9702223669
 41
-2.3511565849
 42
-0.7803602581
  0
ELLIPSE
  5
379
100
AcDbEntity
  8
ASSI
100
AcDbEllipse
 62
7
  6
CONTINUOUS
 10
183.3
 20
90.6364939581
 30
0.0
 11
0.2131980389
 21
-0.2175384252
 31
0.0
 40
0.9702223669
 41
0.7803602581
 42
2.3511565849
  0
ELLIPSE
  5
37A
100
AcDbEntity
  8
ASSI
100
AcDbEllipse
 62
7
  6
CONTINUOUS
 10
114.4947634805
 20
125.2948091789
 30
0.0
 11
0.0
 21
0.3
 31
0.0
 40
0.0174550649
 41
-3.1241393611
 42
-1.5707963268
  0
ELLIPSE
  5
37B
100
AcDbEntity
  8
ASSI
100
AcDbEllipse
 62
7
  6
CONTINUOUS
 10
114.4947634805
 20
118.7051908211
 30
0.0
 11
0.0
 21
0.3
 31
0.0
 40
0.0174550649
 41
-1.5707963268
 42
-0.0174532925
  0
ELLIPSE
  5
37C
100
AcDbEntity
  8
ASSI
100
AcDbEllipse
 62
7
  6
CONTINUOUS
 10
113.7
 20
124.6364939581
 30
0.0
 11
0.2131980389
 21
0.2175384252
 31
0.0
 40
0.9702223669
 41
0.7904360687
 42
2.3612323955
  0
ELLIPSE
  5
37D
100
AcDbEntity
  8
ASSI
100
AcDbEllipse
 62
7
  6
CONTINUOUS
 10
113.7
 20
119.3635060419
 30
0.0
 11
0.2131980389
 21
-0.2175384252
 31
0.0
 40
0.9702223669
 41
-2.3612323955
 42
-0.7904360687
  0
ELLIPSE
  5
37E
100
AcDbEntity
  8
ASSI
100
AcDbEllipse
 62
7
  6
CONTINUOUS
 10
114.4947634805
 20
84.7051908211
 30
0.0
 11
0.0
 21
0.3
 31
0.0
 40
0.0174550649
 41
-1.5707963268
 42
-0.0174532925
  0
ELLIPSE
  5
37F
100
AcDbEntity
  8
ASSI
100
AcDbEllipse
 62
7
  6
CONTINUOUS
 10
114.4947634805
 20
91.2948091789
 30
0.0
 11
0.0
 21
0.3
 31
0.0
 40
0.0174550649
 41
-3.1241393611
 42
-1.5707963268
  0
ELLIPSE
  5
380
100
AcDbEntity
  8
ASSI
100
AcDbEllipse
 62
7
  6
CONTINUOUS
 10
113.7
 20
85.3635060419
 30
0.0
 11
0.2131980389
 21
-0.2175384252
 31
0.0
 40
0.9702223669
 41
-2.3612323955
 42
-0.7904360687
  0
ELLIPSE
  5
381
100
AcDbEntity
  8
ASSI
100
AcDbEllipse
 62
7
  6
CONTINUOUS
 10
113.7
 20
90.6364939581
 30
0.0
 11
0.2131980389
 21
0.2175384252
 31
0.0
 40
0.9702223669
 41
0.7904360687
 42
2.3612323955
  0
ENDSEC
  0
SECTION
  2
OBJECTS
  0
DICTIONARY
  5
C
100
AcDbDictionary
280
0
281
1
  3
ACAD_GROUP
350
D
  3
ACAD_MLINESTYLE
350
17
  3
ACAD_LAYOUT
350
1A
  3
ACAD_PLOTSETTINGS
350
19
  3
ACAD_PLOTSTYLENAME
350
E
  0
DICTIONARY
  5
D
102
{ACAD_REACTORS
330
C
102
}
100
AcDbDictionary
280
0
281
1
  0
ACDBDICTIONARYWDFLT
  5
E
102
{ACAD_REACTORS
330
C
102
}
100
AcDbDictionary
281
1
  3
Normal
350
F
100
AcDbDictionaryWithDefault
340
F
  0
DICTIONARY
  5
17
102
{ACAD_REACTORS
330
C
102
}
100
AcDbDictionary
280
0
281
1
  3
Standard
350
18
  0
DICTIONARY
  5
19
102
{ACAD_REACTORS
330
C
102
}
100
AcDbDictionary
281
1
  0
DICTIONARY
  5
1A
102
{ACAD_REACTORS
330
C
102
}
100
AcDbDictionary
281
1
  3
Model
350
382
  3
Layout1
350
383
  0
ACDBPLACEHOLDER
  5
F
102
{ACAD_REACTORS
330
E
102
}
  0
MLINESTYLE
  5
18
102
{ACAD_REACTORS
330
17
102
}
100
AcDbMlineStyle
  2
STANDARD
 70
0
  3

 62
256
 51
90.0
 52
90.0
 71
2
 49
0.5
 62
256
  6
BYLAYER
 49
-0.5
 62
256
  6
BYLAYER
  0
LAYOUT
  5
382
102
{ACAD_REACTORS
330
1A
102
}
100
AcDbPlotSettings
  1

  2
none_device
  4
ISO_A4_(297.00_x_210.00_MM)
  6

 40
0.0
 41
0.0
 42
0.0
 43
0.0
 44
297.0
 45
210.0
 46
0.0
 47
0.0
 48
0.0
 49
0.0
140
0.0
141
0.0
142
1.0
143
1.0
 70
1024
 72
1
 73
0
 74
0
  7

 75
0
147
1.0
148
0.0
149
0.0
100
AcDbLayout
  1
Model
 70
0
 71
0
 10
0.0
 20
0.0
 11
297.0
 21
210.0
 12
0.0
 22
0.0
 32
0.0
 14
0.0
 24
0.0
 34
0.0
 15
0.0
 25
0.0
 35
0.0
146
0.0
 13
0.0
 23
0.0
 33
0.0
 16
1.0
 26
0.0
 36
0.0
 17
0.0
 27
1.0
 37
0.0
 76
0
330
219
345
0
346
0
  0
LAYOUT
  5
383
102
{ACAD_REACTORS
330
1A
102
}
100
AcDbPlotSettings
  1

  2
none_device
  4
ISO_A4_(297.00_x_210.00_MM)
  6

 40
0.0
 41
0.0
 42
0.0
 43
0.0
 44
297.0
 45
210.0
 46
0.0
 47
0.0
 48
0.0
 49
0.0
140
0.0
141
0.0
142
1.0
143
1.0
 70
0
 72
1
 73
0
 74
0
  7

 75
0
147
1.0
148
0.0
149
0.0
100
AcDbLayout
  1
Layout1
 70
0
 71
1
 10
0.0
 20
0.0
 11
297.0
 21
210.0
 12
0.0
 22
0.0
 32
0.0
 14
0.0
 24
0.0
 34
0.0
 15
0.0
 25
0.0
 35
0.0
146
0.0
 13
0.0
 23
0.0
 33
0.0
 16
1.0
 26
0.0
 36
0.0
 17
0.0
 27
1.0
 37
0.0
 76
0
330
21A
345
0
346
0
  0
ENDSEC
  0
EOF
