  0
SECTION
  2
HEADER
  9
$ACADVER
  1
AC1024
  9
$DWGCODEPAGE
  3
ANSI_1252
  9
$EXTMAX
 10
297.0
 20
210.0
 30
0.0
  9
$EXTMIN
 10
0.0
 20
0.0
 30
0.0
  9
$LIMMIN
 10
0.0
 20
0.0
  9
$LIMMAX
 10
297.0
 20
210.0
  9
$VIEWCTR
 10
148.5
 20
105.0
  9
$VIEWSIZE
 40
210.0
  9
$CLAYER
  8
0
  9
$LTSCALE
 40
16.335
  9
$CELTYPE
  6
BYLAYER
  9
$DIMSCALE
 40
1.0
  9
$DIMASZ
 40
3.0
  9
$DIMEXO
 40
0.5
  9
$DIMDLI
 40
11.286
  9
$DIMEXE
 40
1.5
  9
$DIMCEN
 40
2.673
  9
$DIMLFAC
 40
1.0
  9
$DIMBLK
  1
_FILLED
  9
$DIMALT
 70
0
  9
$DIMALTF
 40
0.0393700787
  9
$DIMTXT
 40
3.0
  9
$DIMTOL
 70
1
  9
$DIMLIM
 70
0
  9
$DIMTFAC
 40
1.0
  9
$DIMTP
 40
0.01
  9
$DIMTM
 40
0.01
  9
$DIMGAP
 40
0.625
  9
$DIMDSEP
 70
44
  9
$AUNITS
 70
0
  9
$PDMODE
 70
3
  9
$PDSIZE
 40
3.0
  9
$HANDSEED
  5
7D3
  9
$TILEMODE
 70
1
  9
$MEASUREMENT
 70
1
  9
$INSUNITS
 70
4
  0
ENDSEC
  0
SECTION
  2
CLASSES
  0
CLASS
  1
ACDBDICTIONARYWDFLT
  2
AcDbDictionaryWithDefault
  3
AutoCAD 2000
 90
0
 91
1
280
0
281
0
  0
CLASS
  1
ACDBPLACEHOLDER
  2
AcDbPlaceHolder
  3
AutoCAD 2000
 90
0
 91
1
280
0
281
0
  0
CLASS
  1
LAYOUT
  2
AcDbLayout
  3
AutoCAD 2000
 90
0
 91
0
280
0
281
0
  0
ENDSEC
  0
SECTION
  2
TABLES
  0
TABLE
  2
VPORT
  5
8
100
AcDbSymbolTable
 70
2
  0
VPORT
  5
1F4
100
AcDbSymbolTableRecord
100
AcDbViewportTableRecord
  2
*ACTIVE
 70
0
 10
0.0
 20
0.0
 11
1.0
 21
1.0
 12
148.5
 22
105.0
 13
0.0
 23
0.0
 14
1.0
 24
1.0
 15
0.0
 25
0.0
 16
0.0
 26
0.0
 36
1.0
 17
0.0
 27
0.0
 37
0.0
 40
210.0
 41
1.4142857143
 42
50.0
 43
0.0
 44
0.0
 50
0.0
 51
0.0
 71
0
 72
100
 73
1
 74
1
 75
0
 76
0
 77
0
 78
0
  0
ENDTAB
  0
TABLE
  2
LTYPE
  5
5
100
AcDbSymbolTable
 70
6
  0
LTYPE
  5
14
100
AcDbSymbolTableRecord
100
AcDbLinetypeTableRecord
  2
BYBLOCK
 70
0
  3

 72
65
 73
0
 40
0.0
  0
LTYPE
  5
15
100
AcDbSymbolTableRecord
100
AcDbLinetypeTableRecord
  2
BYLAYER
 70
0
  3

 72
65
 73
0
 40
0.0
  0
LTYPE
  5
16
100
AcDbSymbolTableRecord
100
AcDbLinetypeTableRecord
  2
CONTINUOUS
 70
64
  3
Solid line
 72
65
 73
0
 40
0.0
  0
LTYPE
  5
1F5
100
AcDbSymbolTableRecord
100
AcDbLinetypeTableRecord
  2
CENTER
 70
64
  3
____ _ ____ _ ____ _ ____ _ ____ _ ____ _ ____
 72
65
 73
4
 40
0.6
 49
0.375
 74
0
 49
-0.075
 74
0
 49
0.075
 74
0
 49
-0.075
 74
0
  0
LTYPE
  5
1F6
100
AcDbSymbolTableRecord
100
AcDbLinetypeTableRecord
  2
HIDDEN
 70
64
  3
- - - - - - - - - - - - - - - - - - - -
 72
65
 73
2
 40
0.2
 49
0.1
 74
0
 49
-0.1
 74
0
  0
LTYPE
  5
1F7
100
AcDbSymbolTableRecord
100
AcDbLinetypeTableRecord
  2
PHANTOM
 70
64
  3
_____ _ _ _____ _ _ _____ _ _ _____
 72
65
 73
6
 40
0.8
 49
0.45
 74
0
 49
-0.05
 74
0
 49
0.1
 74
0
 49
-0.05
 74
0
 49
0.1
 74
0
 49
-0.05
 74
0
  0
LTYPE
  5
1F8
100
AcDbSymbolTableRecord
100
AcDbLinetypeTableRecord
  2
DOT
 70
64
  3
. . . . . . . . . . . . . . . . . . . .
 72
65
 73
2
 40
0.2
 49
0.1
 74
0
 49
-0.1
 74
0
  0
LTYPE
  5
1F9
100
AcDbSymbolTableRecord
100
AcDbLinetypeTableRecord
  2
DASHED
 70
64
  3
- - - - - - - - - - - - - - - - - - - -
 72
65
 73
2
 40
0.2
 49
0.1
 74
0
 49
-0.1
 74
0
  0
ENDTAB
  0
TABLE
  2
LAYER
  5
2
100
AcDbSymbolTable
 70
36
  0
LAYER
  5
10
100
AcDbSymbolTableRecord
100
AcDbLayerTableRecord
  2
0
 70
0
 62
7
  6
CONTINUOUS
370
-3
390
F
  0
LAYER
  5
1FA
100
AcDbSymbolTableRecord
100
AcDbLayerTableRecord
  2
DEFAULT_1
 70
0
 62
7
  6
CENTER
370
-3
390
F
  0
LAYER
  5
1FB
100
AcDbSymbolTableRecord
100
AcDbLayerTableRecord
  2
DEFAULT_2
 70
0
 62
7
  6
HIDDEN
370
-3
390
F
  0
LAYER
  5
1FC
100
AcDbSymbolTableRecord
100
AcDbLayerTableRecord
  2
DEFAULT_3
 70
0
 62
7
  6
PHANTOM
370
-3
390
F
  0
LAYER
  5
1FD
100
AcDbSymbolTableRecord
100
AcDbLayerTableRecord
  2
ASSI
 70
0
 62
7
  6
CONTINUOUS
370
-3
390
F
  0
LAYER
  5
1FE
100
AcDbSymbolTableRecord
100
AcDbLayerTableRecord
  2
COORDINATE
 70
0
 62
7
  6
CONTINUOUS
370
-3
390
F
  0
LAYER
  5
1FF
100
AcDbSymbolTableRecord
100
AcDbLayerTableRecord
  2
COORD_ORIGINE
 70
0
 62
7
  6
CONTINUOUS
370
-3
390
F
  0
LAYER
  5
200
100
AcDbSymbolTableRecord
100
AcDbLayerTableRecord
  2
CURVE
 70
0
 62
7
  6
CONTINUOUS
370
-3
390
F
  0
LAYER
  5
201
100
AcDbSymbolTableRecord
100
AcDbLayerTableRecord
  2
CURVE_CSTR
 70
0
 62
7
  6
CONTINUOUS
370
-3
390
F
  0
LAYER
  5
202
100
AcDbSymbolTableRecord
100
AcDbLayerTableRecord
  2
DRAFT
 70
0
 62
7
  6
CONTINUOUS
370
-3
390
F
  0
LAYER
  5
203
100
AcDbSymbolTableRecord
100
AcDbLayerTableRecord
  2
INTF_1
 70
0
 62
7
  6
CONTINUOUS
370
-3
390
F
  0
LAYER
  5
204
100
AcDbSymbolTableRecord
100
AcDbLayerTableRecord
  2
INTF_2
 70
0
 62
7
  6
CONTINUOUS
370
-3
390
F
  0
LAYER
  5
205
100
AcDbSymbolTableRecord
100
AcDbLayerTableRecord
  2
PIANI
 70
0
 62
7
  6
CONTINUOUS
370
-3
390
F
  0
LAYER
  5
206
100
AcDbSymbolTableRecord
100
AcDbLayerTableRecord
  2
PIANI_ORIGINE
 70
0
 62
7
  6
CONTINUOUS
370
-3
390
F
  0
LAYER
  5
207
100
AcDbSymbolTableRecord
100
AcDbLayerTableRecord
  2
PUNTI
 70
0
 62
7
  6
CONTINUOUS
370
-3
390
F
  0
LAYER
  5
208
100
AcDbSymbolTableRecord
100
AcDbLayerTableRecord
  2
RACCORDO
 70
0
 62
7
  6
CONTINUOUS
370
-3
390
F
  0
LAYER
  5
209
100
AcDbSymbolTableRecord
100
AcDbLayerTableRecord
  2
SMUSSO
 70
0
 62
7
  6
CONTINUOUS
370
-3
390
F
  0
LAYER
  5
20A
100
AcDbSymbolTableRecord
100
AcDbLayerTableRecord
  2
SNAPLINE
 70
0
 62
7
  6
CONTINUOUS
370
-3
390
F
  0
LAYER
  5
20B
100
AcDbSymbolTableRecord
100
AcDbLayerTableRecord
  2
SUPERFICI
 70
0
 62
7
  6
CONTINUOUS
370
-3
390
F
  0
LAYER
  5
20C
100
AcDbSymbolTableRecord
100
AcDbLayerTableRecord
  2
TRASH
 70
0
 62
7
  6
CONTINUOUS
370
-3
390
F
  0
LAYER
  5
20D
100
AcDbSymbolTableRecord
100
AcDbLayerTableRecord
  2
WHITE
 70
0
 62
7
  6
CONTINUOUS
370
-3
390
F
  0
LAYER
  5
20E
100
AcDbSymbolTableRecord
100
AcDbLayerTableRecord
  2
XSEC_DATUMS
 70
0
 62
7
  6
CONTINUOUS
370
-3
390
F
  0
ENDTAB
  0
TABLE
  2
STYLE
  5
3
100
AcDbSymbolTable
 70
1
  0
STYLE
  5
11
100
AcDbSymbolTableRecord
100
AcDbTextStyleTableRecord
  2
STANDARD
 70
0
 40
0.0
 41
0.8
 50
0.0
 71
0
 42
0.2
  3
txt
  4

  0
STYLE
  5
20F
100
AcDbSymbolTableRecord
100
AcDbTextStyleTableRecord
  2
TEXTSTYLE_1
 70
0
 40
0.0
 41
0.8
 50
0.0
 71
0
 42
0.2
  3
gdt
  4

  0
ENDTAB
  0
TABLE
  2
VIEW
  5
6
100
AcDbSymbolTable
 70
0
  0
ENDTAB
  0
TABLE
  2
UCS
  5
7
100
AcDbSymbolTable
 70
0
  0
ENDTAB
  0
TABLE
  2
APPID
  5
9
100
AcDbSymbolTable
 70
1
  0
APPID
  5
210
100
AcDbSymbolTableRecord
100
AcDbRegAppTableRecord
  2
ACAD
 70
0
  0
ENDTAB
  0
TABLE
  2
BLOCK_RECORD
  5
1
100
AcDbSymbolTable
 70
0
  0
BLOCK_RECORD
  5
211
100
AcDbSymbolTableRecord
100
AcDbBlockTableRecord
  2
*Model_Space
  0
BLOCK_RECORD
  5
212
100
AcDbSymbolTableRecord
100
AcDbBlockTableRecord
  2
*Paper_Space
  0
BLOCK_RECORD
  5
213
100
AcDbSymbolTableRecord
100
AcDbBlockTableRecord
  2
_FILLED
  0
ENDTAB
  0
TABLE
  2
DIMSTYLE
  5
A
100
AcDbSymbolTable
 70
1
100
AcDbDimStyleTable
 71
0
  0
DIMSTYLE
105
214
100
AcDbSymbolTableRecord
100
AcDbDimStyleTableRecord
  2
STANDARD
 70
0
  3

  4

 40
1.0
 41
3.0
 42
0.5
 43
0.38
 44
1.5
 45
0.0
 46
0.0
 47
0.01
 48
0.01
140
3.0
141
0.09
142
0.0
143
25.4
144
1.0
145
0.0
146
1.0
147
0.625
 71
1
 72
0
 73
0
 74
0
 75
0
 76
0
 77
1
 78
8
 79
2
170
0
171
1
172
0
173
0
174
0
175
0
176
0
177
0
178
0
270
2
179
2
271
2
272
2
273
2
274
2
275
0
280
0
281
0
282
0
283
1
284
8
285
0
286
0
287
3
288
0
340
11
278
44
341
213
342
213
343
213
344
213
  0
ENDTAB
  0
ENDSEC
  0
SECTION
  2
BLOCKS
  0
BLOCK
  5
20
100
AcDbEntity
  8
0
100
AcDbBlockBegin
  2
*Model_Space
 70
0
 10
0.0
 20
0.0
 30
0.0
  3
*Model_Space
  1

  0
ENDBLK
  5
21
100
AcDbEntity
  8
0
100
AcDbBlockEnd
  0
BLOCK
  5
1C
100
AcDbEntity
  8
0
100
AcDbBlockBegin
  2
*Paper_Space
 70
0
 10
0.0
 20
0.0
 30
0.0
  3
*Paper_Space
  1

  0
ENDBLK
  5
1D
100
AcDbEntity
  8
0
100
AcDbBlockEnd
  0
BLOCK
  5
215
100
AcDbEntity
  8
0
100
AcDbBlockBegin
  2
_FILLED
 70
64
 10
0.0
 20
0.0
  3
_FILLED
  1

  0
SOLID
  5
216
100
AcDbEntity
  8
0
  6
BYBLOCK
 62
0
100
AcDbTrace
 10
0.0
 20
0.0
 11
-1.0
 21
0.3166666667
 12
-1.0
 22
-0.3166666667
 13
-1.0
 23
-0.3166666667
  0
ENDBLK
  5
217
100
AcDbEntity
  8
0
  6
BYBLOCK
 62
0
100
AcDbBlockEnd
  0
ENDSEC
  0
SECTION
  2
ENTITIES
  0
LINE
  5
218
100
AcDbEntity
  8
RACCORDO
100
AcDbLine
 62
250
  6
CONTINUOUS
 10
116.5841899312
 20
136.3802917303
 11
116.3138545452
 21
136.1099563443
  0
LINE
  5
219
100
AcDbEntity
  8
RACCORDO
100
AcDbLine
 62
250
  6
CONTINUOUS
 10
122.7734613636
 20
142.5695631627
 11
123.048776106
 21
142.8448779051
  0
LINE
  5
21A
100
AcDbEntity
  8
RACCORDO
100
AcDbLine
 62
250
  6
CONTINUOUS
 10
117.0829719563
 20
135.8815097052
 11
116.8045684203
 21
135.6031061691
  0
LINE
  5
21B
100
AcDbEntity
  8
RACCORDO
100
AcDbLine
 62
250
  6
CONTINUOUS
 10
123.2722433888
 20
142.0707811376
 11
123.5557512058
 21
142.3542889546
  0
LINE
  5
21C
100
AcDbEntity
  8
RACCORDO
100
AcDbLine
 62
250
  6
CONTINUOUS
 10
116.5841899312
 20
85.8707811376
 11
116.3138545452
 21
86.1411165237
  0
LINE
  5
21D
100
AcDbEntity
  8
RACCORDO
100
AcDbLine
 62
250
  6
CONTINUOUS
 10
122.7734613636
 20
79.6815097052
 11
123.048776106
 21
79.4061949628
  0
LINE
  5
21E
100
AcDbEntity
  8
RACCORDO
100
AcDbLine
 62
250
  6
CONTINUOUS
 10
117.0829719563
 20
86.3695631627
 11
116.8045684203
 21
86.6479666988
  0
LINE
  5
21F
100
AcDbEntity
  8
RACCORDO
100
AcDbLine
 62
250
  6
CONTINUOUS
 10
123.2722433888
 20
80.1802917303
 11
123.5557512058
 21
79.8967839133
  0
LINE
  5
220
100
AcDbEntity
  8
ASSI
100
AcDbLine
 62
7
  6
CONTINUOUS
 10
111.02821666
 20
138.450536434
 11
111.02821666
 21
139.925536434
  0
LINE
  5
221
100
AcDbEntity
  8
ASSI
100
AcDbLine
 62
7
  6
CONTINUOUS
 10
111.02821666
 20
140.325536434
 11
111.02821666
 21
141.800536434
  0
LINE
  5
222
100
AcDbEntity
  8
RACCORDO
100
AcDbLine
 62
7
  6
CONTINUOUS
 10
112.62821666
 20
144.5331470378
 11
112.62821666
 21
144.1690802904
  0
LINE
  5
223
100
AcDbEntity
  8
DRAFT
100
AcDbLine
 62
7
  6
CONTINUOUS
 10
112.62821666
 20
120.125536434
 11
112.62821666
 21
102.125536434
  0
LINE
  5
224
100
AcDbEntity
  8
RACCORDO
100
AcDbLine
 62
7
  6
CONTINUOUS
 10
112.62821666
 20
78.2301761028
 11
112.62821666
 21
77.7179258301
  0
LINE
  5
225
100
AcDbEntity
  8
RACCORDO
100
AcDbLine
 62
7
  6
CONTINUOUS
 10
112.77821666
 20
91.125536434
 11
112.77821666
 21
97.125536434
  0
LINE
  5
226
100
AcDbEntity
  8
RACCORDO
100
AcDbLine
 62
7
  6
CONTINUOUS
 10
112.77821666
 20
125.125536434
 11
112.77821666
 21
131.125536434
  0
LINE
  5
227
100
AcDbEntity
  8
RACCORDO
100
AcDbLine
 62
250
  6
CONTINUOUS
 10
112.8953739475
 20
91.125536434
 11
112.8953739475
 21
97.125536434
  0
LINE
  5
228
100
AcDbEntity
  8
RACCORDO
100
AcDbLine
 62
250
  6
CONTINUOUS
 10
112.8953739475
 20
125.125536434
 11
112.8953739475
 21
131.125536434
  0
LINE
  5
229
100
AcDbEntity
  8
DRAFT
100
AcDbLine
 62
7
  6
CONTINUOUS
 10
113.62821666
 20
135.725536434
 11
113.62821666
 21
131.625536434
  0
LINE
  5
22A
100
AcDbEntity
  8
DRAFT
100
AcDbLine
 62
7
  6
CONTINUOUS
 10
113.62821666
 20
124.625536434
 11
113.62821666
 21
120.125536434
  0
LINE
  5
22B
100
AcDbEntity
  8
DRAFT
100
AcDbLine
 62
7
  6
CONTINUOUS
 10
113.62821666
 20
102.125536434
 11
113.62821666
 21
97.625536434
  0
LINE
  5
22C
100
AcDbEntity
  8
DRAFT
100
AcDbLine
 62
7
  6
CONTINUOUS
 10
113.62821666
 20
90.625536434
 11
113.62821666
 21
86.0654867645
  0
LINE
  5
22D
100
AcDbEntity
  8
DRAFT
100
AcDbLine
 62
7
  6
CONTINUOUS
 10
113.651376737
 20
90.625536434
 11
113.651376737
 21
91.125536434
  0
LINE
  5
22E
100
AcDbEntity
  8
DRAFT
100
AcDbLine
 62
7
  6
CONTINUOUS
 10
113.651376737
 20
97.125536434
 11
113.651376737
 21
97.625536434
  0
LINE
  5
22F
100
AcDbEntity
  8
DRAFT
100
AcDbLine
 62
7
  6
CONTINUOUS
 10
113.651376737
 20
124.625536434
 11
113.651376737
 21
125.125536434
  0
LINE
  5
230
100
AcDbEntity
  8
DRAFT
100
AcDbLine
 62
7
  6
CONTINUOUS
 10
113.651376737
 20
131.125536434
 11
113.651376737
 21
131.625536434
  0
LINE
  5
231
100
AcDbEntity
  8
DRAFT
100
AcDbLine
 62
7
  6
CONTINUOUS
 10
118.52821666
 20
132.575536434
 11
118.578725089
 21
132.676584079
  0
LWPOLYLINE
  5
232
100
AcDbEntity
  8
DRAFT
100
AcDbPolyline
 62
7
  6
CONTINUOUS
 90
10
 70
0
 10
121.82821666
 20
136.0262837987
 10
121.5564800058
 20
135.8637521409
 10
121.2597434666
 20
135.714011332
 10
120.9386534143
 20
135.5805641235
 10
120.5950866263
 20
135.4670851943
 10
120.2298010647
 20
135.3770917654
 10
119.8425117212
 20
135.31443361
 10
119.4351957201
 20
135.2833532607
 10
119.0120985878
 20
135.2878232156
 10
118.5773856889
 20
135.3315405772
  0
LINE
  5
233
100
AcDbEntity
  8
ASSI
100
AcDbLine
 62
7
  6
CONTINUOUS
 10
120.70321666
 20
74.125536434
 11
119.22821666
 21
74.125536434
  0
LINE
  5
234
100
AcDbEntity
  8
ASSI
100
AcDbLine
 62
7
  6
CONTINUOUS
 10
118.82821666
 20
74.125536434
 11
117.35321666
 21
74.125536434
  0
LINE
  5
235
100
AcDbEntity
  8
RACCORDO
100
AcDbLine
 62
7
  6
CONTINUOUS
 10
114.6206060562
 20
75.725536434
 11
114.9846728035
 21
75.725536434
  0
LINE
  5
236
100
AcDbEntity
  8
RACCORDO
100
AcDbLine
 62
7
  6
CONTINUOUS
 10
139.32821666
 20
75.725536434
 11
156.72821666
 21
75.725536434
  0
LINE
  5
237
100
AcDbEntity
  8
RACCORDO
100
AcDbLine
 62
7
  6
CONTINUOUS
 10
180.9235769911
 20
75.725536434
 11
181.4358272638
 21
75.725536434
  0
LINE
  5
238
100
AcDbEntity
  8
RACCORDO
100
AcDbLine
 62
7
  6
CONTINUOUS
 10
168.02821666
 20
75.875536434
 11
162.02821666
 21
75.875536434
  0
LINE
  5
239
100
AcDbEntity
  8
RACCORDO
100
AcDbLine
 62
7
  6
CONTINUOUS
 10
134.02821666
 20
75.875536434
 11
128.02821666
 21
75.875536434
  0
LINE
  5
23A
100
AcDbEntity
  8
RACCORDO
100
AcDbLine
 62
250
  6
CONTINUOUS
 10
168.02821666
 20
75.9926937215
 11
162.02821666
 21
75.9926937215
  0
LINE
  5
23B
100
AcDbEntity
  8
RACCORDO
100
AcDbLine
 62
250
  6
CONTINUOUS
 10
134.02821666
 20
75.9926937215
 11
128.02821666
 21
75.9926937215
  0
LINE
  5
23C
100
AcDbEntity
  8
DRAFT
100
AcDbLine
 62
7
  6
CONTINUOUS
 10
123.42821666
 20
76.725536434
 11
127.52821666
 21
76.725536434
  0
LINE
  5
23D
100
AcDbEntity
  8
DRAFT
100
AcDbLine
 62
7
  6
CONTINUOUS
 10
134.52821666
 20
76.725536434
 11
139.02821666
 21
76.725536434
  0
LINE
  5
23E
100
AcDbEntity
  8
DRAFT
100
AcDbLine
 62
7
  6
CONTINUOUS
 10
157.02821666
 20
76.725536434
 11
161.52821666
 21
76.725536434
  0
LINE
  5
23F
100
AcDbEntity
  8
DRAFT
100
AcDbLine
 62
7
  6
CONTINUOUS
 10
168.52821666
 20
76.725536434
 11
173.0882663294
 21
76.725536434
  0
LINE
  5
240
100
AcDbEntity
  8
DRAFT
100
AcDbLine
 62
7
  6
CONTINUOUS
 10
168.52821666
 20
76.748696511
 11
168.02821666
 21
76.748696511
  0
LINE
  5
241
100
AcDbEntity
  8
DRAFT
100
AcDbLine
 62
7
  6
CONTINUOUS
 10
162.02821666
 20
76.748696511
 11
161.52821666
 21
76.748696511
  0
LINE
  5
242
100
AcDbEntity
  8
DRAFT
100
AcDbLine
 62
7
  6
CONTINUOUS
 10
134.52821666
 20
76.748696511
 11
134.02821666
 21
76.748696511
  0
LINE
  5
243
100
AcDbEntity
  8
DRAFT
100
AcDbLine
 62
7
  6
CONTINUOUS
 10
128.02821666
 20
76.748696511
 11
127.52821666
 21
76.748696511
  0
LINE
  5
244
100
AcDbEntity
  8
DRAFT
100
AcDbLine
 62
7
  6
CONTINUOUS
 10
118.578725089
 20
89.5744887889
 11
118.52821666
 21
89.675536434
  0
LWPOLYLINE
  5
245
100
AcDbEntity
  8
RACCORDO
100
AcDbPolyline
 62
7
  6
CONTINUOUS
 90
13
 70
0
 10
115.2985533018
 20
120.6446551009
 10
115.3027312538
 20
120.58112579
 10
115.3152162091
 20
120.5183855044
 10
115.3359668822
 20
120.4574967197
 10
115.3648663292
 20
120.399439041
 10
115.4015451035
 20
120.3453773449
 10
115.4452556198
 20
120.2965595494
 10
115.4952282092
 20
120.2539235588
 10
115.5506838298
 20
120.2181690218
 10
115.6105642356
 20
120.1899400931
 10
115.6738083215
 20
120.1697342465
 10
115.7393915202
 20
120.1579260636
 10
115.8062056876
 20
120.1547434364
  0
LWPOLYLINE
  5
246
100
AcDbEntity
  8
RACCORDO
100
AcDbPolyline
 62
7
  6
CONTINUOUS
 90
13
 70
0
 10
116.7839518011
 20
101.58248955
 10
116.7797826575
 20
101.6471767688
 10
116.7673626189
 20
101.7110479521
 10
116.7468317185
 20
101.7730198151
 10
116.7184455534
 20
101.8320980287
 10
116.6826377019
 20
101.8871698527
 10
116.6400937075
 20
101.9370750486
 10
116.5915943194
 20
101.9809494905
 10
116.5379599511
 20
102.0180881157
 10
116.4801779433
 20
102.0478017112
 10
116.4192850514
 20
102.0696145618
 10
116.3563266134
 20
102.0832365049
 10
116.292389709
 20
102.0884915081
  0
LWPOLYLINE
  5
247
100
AcDbEntity
  8
RACCORDO
100
AcDbPolyline
 62
7
  6
CONTINUOUS
 90
13
 70
0
 10
115.2792696032
 20
86.6253714023
 10
115.2822721824
 20
86.5697970877
 10
115.2918608259
 20
86.5135943136
 10
115.3084104138
 20
86.4575759514
 10
115.3320539697
 20
86.4029033677
 10
115.3630228874
 20
86.3502936252
 10
115.4019325071
 20
86.3001830824
 10
115.449259184
 20
86.2536177052
 10
115.5045546433
 20
86.2124861792
 10
115.5668130731
 20
86.1786026176
 10
115.6349794622
 20
86.1533597
 10
115.7081081447
 20
86.1379000424
 10
115.7848051009
 20
86.1333428498
  0
LWPOLYLINE
  5
248
100
AcDbEntity
  8
RACCORDO
100
AcDbPolyline
 62
7
  6
CONTINUOUS
 90
13
 70
0
 10
116.8045684203
 20
135.6031061691
 10
116.801654958
 20
135.6587994363
 10
116.7923422494
 20
135.7153967534
 10
116.7762319711
 20
135.7720772986
 10
116.7531316203
 20
135.8277225063
 10
116.7228122604
 20
135.8815299923
 10
116.6847974129
 20
135.9328917369
 10
116.6387579798
 20
135.9807431832
 10
116.5851059163
 20
136.0232910563
 10
116.524746772
 20
136.0587509371
 10
116.4586947925
 20
136.0857491346
 10
116.3879363551
 20
136.1031795906
 10
116.3138545452
 20
136.1099563443
  0
LINE
  5
249
100
AcDbEntity
  8
RACCORDO
100
AcDbLine
 62
7
  6
CONTINUOUS
 10
116.8045684203
 20
86.6479666988
 11
116.7927235735
 21
93.6826388593
  0
LINE
  5
24A
100
AcDbEntity
  8
RACCORDO
100
AcDbLine
 62
7
  6
CONTINUOUS
 10
115.2792696032
 20
135.6257014656
 11
115.2957421934
 21
123.8924241513
  0
LWPOLYLINE
  5
24B
100
AcDbEntity
  8
RACCORDO
100
AcDbPolyline
 62
7
  6
CONTINUOUS
 90
3
 70
0
 10
116.7927235735
 20
93.6826388593
 10
116.785288086
 20
100.0157415558
 10
116.7839518011
 20
101.58248955
  0
LINE
  5
24C
100
AcDbEntity
  8
RACCORDO
100
AcDbLine
 62
7
  6
CONTINUOUS
 10
115.2957421934
 20
123.8924241513
 11
115.2985533018
 21
120.6446551009
  0
LINE
  5
24D
100
AcDbEntity
  8
0
100
AcDbLine
 62
7
  6
CONTINUOUS
 10
114.02821666
 20
90.625536434
 11
114.02821666
 21
97.625536434
  0
LINE
  5
24E
100
AcDbEntity
  8
0
100
AcDbLine
 62
7
  6
CONTINUOUS
 10
114.02821666
 20
124.625536434
 11
114.02821666
 21
131.625536434
  0
LINE
  5
24F
100
AcDbEntity
  8
ASSI
100
AcDbLine
 62
7
  6
CONTINUOUS
 10
114.22821666
 20
80.450536434
 11
114.22821666
 21
83.800536434
  0
LINE
  5
250
100
AcDbEntity
  8
RACCORDO
100
AcDbLine
 62
250
  6
CONTINUOUS
 10
114.7740703511
 20
86.3695631627
 11
114.7740703511
 21
101.8815097052
  0
LINE
  5
251
100
AcDbEntity
  8
RACCORDO
100
AcDbLine
 62
250
  6
CONTINUOUS
 10
114.7740703511
 20
120.3695631627
 11
114.7740703511
 21
135.8815097052
  0
LINE
  5
252
100
AcDbEntity
  8
RACCORDO
100
AcDbLine
 62
250
  6
CONTINUOUS
 10
115.0234613636
 20
86.3695631627
 11
115.0234613636
 21
101.8815097052
  0
LINE
  5
253
100
AcDbEntity
  8
RACCORDO
100
AcDbLine
 62
250
  6
CONTINUOUS
 10
115.0234613636
 20
120.3695631627
 11
115.0234613636
 21
135.8815097052
  0
LINE
  5
254
100
AcDbEntity
  8
RACCORDO
100
AcDbLine
 62
250
  6
CONTINUOUS
 10
115.5222433888
 20
136.6296827429
 11
115.5222433888
 21
136.3802917303
  0
LINE
  5
255
100
AcDbEntity
  8
RACCORDO
100
AcDbLine
 62
250
  6
CONTINUOUS
 10
115.5222433888
 20
102.6296827429
 11
115.5222433888
 21
102.3802917303
  0
LINE
  5
256
100
AcDbEntity
  8
RACCORDO
100
AcDbLine
 62
250
  6
CONTINUOUS
 10
115.5222433888
 20
85.621390125
 11
115.5222433884
 21
85.8707811376
  0
LINE
  5
257
100
AcDbEntity
  8
RACCORDO
100
AcDbLine
 62
250
  6
CONTINUOUS
 10
115.5222433888
 20
119.621390125
 11
115.5222433884
 21
119.8707811376
  0
LINE
  5
258
100
AcDbEntity
  8
RACCORDO
100
AcDbLine
 62
250
  6
CONTINUOUS
 10
116.5841899312
 20
136.6296827429
 11
116.5841899316
 21
136.3802917303
  0
LINE
  5
259
100
AcDbEntity
  8
RACCORDO
100
AcDbLine
 62
250
  6
CONTINUOUS
 10
116.5841899312
 20
102.6296827429
 11
116.5841899316
 21
102.3802917303
  0
LINE
  5
25A
100
AcDbEntity
  8
RACCORDO
100
AcDbLine
 62
250
  6
CONTINUOUS
 10
116.5841899312
 20
85.621390125
 11
116.5841899312
 21
85.8707811376
  0
LINE
  5
25B
100
AcDbEntity
  8
RACCORDO
100
AcDbLine
 62
250
  6
CONTINUOUS
 10
116.5841899312
 20
119.621390125
 11
116.5841899312
 21
119.8707811376
  0
LINE
  5
25C
100
AcDbEntity
  8
RACCORDO
100
AcDbLine
 62
250
  6
CONTINUOUS
 10
117.0829719563
 20
135.8815097052
 11
117.0829719563
 21
120.3695631627
  0
LINE
  5
25D
100
AcDbEntity
  8
RACCORDO
100
AcDbLine
 62
250
  6
CONTINUOUS
 10
117.0829719563
 20
101.8815097052
 11
117.0829719563
 21
86.3695631627
  0
LINE
  5
25E
100
AcDbEntity
  8
RACCORDO
100
AcDbLine
 62
250
  6
CONTINUOUS
 10
117.3323629689
 20
135.8815097052
 11
117.3323629689
 21
120.3695631627
  0
LINE
  5
25F
100
AcDbEntity
  8
RACCORDO
100
AcDbLine
 62
250
  6
CONTINUOUS
 10
117.3323629689
 20
101.8815097052
 11
117.3323629689
 21
86.3695631627
  0
LINE
  5
260
100
AcDbEntity
  8
RACCORDO
100
AcDbLine
 62
7
  6
CONTINUOUS
 10
115.2985533018
 20
101.606417767
 11
115.2922060222
 21
95.148859593
  0
LINE
  5
261
100
AcDbEntity
  8
RACCORDO
100
AcDbLine
 62
7
  6
CONTINUOUS
 10
115.2922060222
 20
95.148859593
 11
115.2830828233
 21
88.8413675975
  0
LINE
  5
262
100
AcDbEntity
  8
RACCORDO
100
AcDbLine
 62
7
  6
CONTINUOUS
 10
116.7839518011
 20
120.668583318
 11
116.7976903491
 21
131.7807985779
  0
LINE
  5
263
100
AcDbEntity
  8
RACCORDO
100
AcDbLine
 62
7
  6
CONTINUOUS
 10
115.2830828233
 20
88.8413675975
 11
115.2792696032
 21
86.6253714023
  0
LWPOLYLINE
  5
264
100
AcDbEntity
  8
RACCORDO
100
AcDbPolyline
 62
7
  6
CONTINUOUS
 90
3
 70
0
 10
116.7976903491
 20
131.7807985779
 10
116.8043442679
 20
135.5080752887
 10
116.8045684203
 20
135.6031061691
  0
LWPOLYLINE
  5
265
100
AcDbEntity
  8
RACCORDO
100
AcDbPolyline
 62
250
  6
CONTINUOUS
 90
22
 70
0
 10
115.0234613636
 20
135.8815097052
 10
115.0246987675
 20
135.9180083424
 10
115.0286129778
 20
135.9544603905
 10
115.0352186698
 20
135.9906685558
 10
115.044524923
 20
136.0264678449
 10
115.0565121003
 20
136.0616180754
 10
115.0711063658
 20
136.095813647
 10
115.0882320144
 20
136.1288470891
 10
115.1078108943
 20
136.1605453317
 10
115.1297096832
 20
136.1906761794
 10
115.1537811318
 20
136.2190436306
 10
115.1799131241
 20
136.2455232629
 10
115.208004276
 20
136.2700028404
 10
115.2379068523
 20
136.2923362646
 10
115.2694621659
 20
136.3123894785
 10
115.3025513038
 20
136.3300651592
 10
115.3370451201
 20
136.3452579289
 10
115.3727179612
 20
136.3578345143
 10
115.4092911607
 20
136.3676816798
 10
115.4465300094
 20
136.3747324014
 10
115.4842519672
 20
136.3789463913
 10
115.5222433888
 20
136.3802917303
  0
LWPOLYLINE
  5
266
100
AcDbEntity
  8
RACCORDO
100
AcDbPolyline
 62
250
  6
CONTINUOUS
 90
22
 70
0
 10
115.0234613636
 20
101.8815097052
 10
115.0246987675
 20
101.9180083424
 10
115.0286129778
 20
101.9544603905
 10
115.0352186698
 20
101.9906685558
 10
115.044524923
 20
102.0264678449
 10
115.0565121003
 20
102.0616180754
 10
115.0711063658
 20
102.095813647
 10
115.0882320144
 20
102.1288470891
 10
115.1078108943
 20
102.1605453317
 10
115.1297096832
 20
102.1906761794
 10
115.1537811318
 20
102.2190436306
 10
115.1799131241
 20
102.2455232629
 10
115.208004276
 20
102.2700028404
 10
115.2379068523
 20
102.2923362646
 10
115.2694621659
 20
102.3123894785
 10
115.3025513038
 20
102.3300651592
 10
115.3370451201
 20
102.3452579289
 10
115.3727179612
 20
102.3578345143
 10
115.4092911607
 20
102.3676816798
 10
115.4465300094
 20
102.3747324014
 10
115.4842519672
 20
102.3789463913
 10
115.5222433888
 20
102.3802917303
  0
LWPOLYLINE
  5
267
100
AcDbEntity
  8
RACCORDO
100
AcDbPolyline
 62
250
  6
CONTINUOUS
 90
22
 70
0
 10
117.0829719563
 20
120.3695631627
 10
117.0817345525
 20
120.3330645255
 10
117.0778203422
 20
120.2966124775
 10
117.0712146502
 20
120.2604043121
 10
117.0619083969
 20
120.224605023
 10
117.0499212197
 20
120.1894547925
 10
117.0353269542
 20
120.1552592209
 10
117.0182013056
 20
120.1222257788
 10
116.9986224257
 20
120.0905275362
 10
116.9767236368
 20
120.0603966886
 10
116.9526521882
 20
120.0320292373
 10
116.9265201959
 20
120.005549605
 10
116.898429044
 20
119.9810700275
 10
116.8685264676
 20
119.9587366033
 10
116.8369711541
 20
119.9386833894
 10
116.8038820162
 20
119.9210077087
 10
116.7693881999
 20
119.905814939
 10
116.7337153588
 20
119.8932383536
 10
116.6971421593
 20
119.8833911881
 10
116.6599033106
 20
119.8763404665
 10
116.6221813528
 20
119.8721264766
 10
116.5841899312
 20
119.8707811376
  0
LWPOLYLINE
  5
268
100
AcDbEntity
  8
RACCORDO
100
AcDbPolyline
 62
250
  6
CONTINUOUS
 90
22
 70
0
 10
117.0829719563
 20
86.3695631627
 10
117.0817345525
 20
86.3330645255
 10
117.0778203422
 20
86.2966124775
 10
117.0712146502
 20
86.2604043121
 10
117.0619083969
 20
86.224605023
 10
117.0499212197
 20
86.1894547925
 10
117.0353269542
 20
86.1552592209
 10
117.0182013056
 20
86.1222257788
 10
116.9986224257
 20
86.0905275362
 10
116.9767236368
 20
86.0603966886
 10
116.9526521882
 20
86.0320292373
 10
116.9265201959
 20
86.005549605
 10
116.898429044
 20
85.9810700275
 10
116.8685264676
 20
85.9587366033
 10
116.8369711541
 20
85.9386833894
 10
116.8038820162
 20
85.9210077087
 10
116.7693881999
 20
85.905814939
 10
116.7337153588
 20
85.8932383536
 10
116.6971421593
 20
85.8833911881
 10
116.6599033106
 20
85.8763404665
 10
116.6221813528
 20
85.8721264766
 10
116.5841899312
 20
85.8707811376
  0
LWPOLYLINE
  5
269
100
AcDbEntity
  8
RACCORDO
100
AcDbPolyline
 62
250
  6
CONTINUOUS
 90
22
 70
0
 10
114.7740703511
 20
135.8815097052
 10
114.7760592184
 20
135.9366354326
 10
114.7820578114
 20
135.9911013462
 10
114.7920661299
 20
136.044907446
 10
114.8061634086
 20
136.0984006549
 10
114.8242704129
 20
136.15123405
 10
114.8461494389
 20
136.2023668627
 10
114.8718891493
 20
136.2517433452
 10
114.9014008814
 20
136.2994192452
 10
114.9341809436
 20
136.3445210378
 10
114.9702527226
 20
136.3869650358
 10
115.0095928316
 20
136.4268349263
 10
115.0516274191
 20
136.4635082456
 10
115.0963909284
 20
136.4969544226
 10
115.1438489161
 20
136.5272040284
 10
115.1933242003
 20
136.553726312
 10
115.2449222158
 20
136.5764866529
 10
115.2985375277
 20
136.5955196716
 10
115.3531766496
 20
136.6103984789
 10
115.4085084193
 20
136.6209807783
 10
115.4648639991
 20
136.6274088663
 10
115.5222433888
 20
136.6296827429
  0
LWPOLYLINE
  5
26A
100
AcDbEntity
  8
RACCORDO
100
AcDbPolyline
 62
250
  6
CONTINUOUS
 90
22
 70
0
 10
114.7740703511
 20
101.8815097052
 10
114.7760592184
 20
101.9366354326
 10
114.7820578114
 20
101.9911013462
 10
114.7920661299
 20
102.044907446
 10
114.8061634086
 20
102.0984006549
 10
114.8242704129
 20
102.15123405
 10
114.8461494389
 20
102.2023668627
 10
114.8718891493
 20
102.2517433452
 10
114.9014008814
 20
102.2994192452
 10
114.9341809436
 20
102.3445210378
 10
114.9702527226
 20
102.3869650358
 10
115.0095928316
 20
102.4268349263
 10
115.0516274191
 20
102.4635082456
 10
115.0963909284
 20
102.4969544226
 10
115.1438489161
 20
102.5272040284
 10
115.1933242003
 20
102.553726312
 10
115.2449222158
 20
102.5764866529
 10
115.2985375277
 20
102.5955196716
 10
115.3531766496
 20
102.6103984789
 10
115.4085084193
 20
102.6209807783
 10
115.4648639991
 20
102.6274088663
 10
115.5222433888
 20
102.6296827429
  0
LWPOLYLINE
  5
26B
100
AcDbEntity
  8
RACCORDO
100
AcDbPolyline
 62
250
  6
CONTINUOUS
 90
22
 70
0
 10
117.3323629689
 20
120.3695631627
 10
117.3303741015
 20
120.3144374353
 10
117.3243755086
 20
120.2599715217
 10
117.3143671901
 20
120.2061654219
 10
117.3002699114
 20
120.152672213
 10
117.2821629071
 20
120.0998388179
 10
117.260283881
 20
120.0487060052
 10
117.2345441707
 20
119.9993295227
 10
117.2050324385
 20
119.9516536227
 10
117.1722523763
 20
119.9065518301
 10
117.1361805974
 20
119.8641078321
 10
117.0968404883
 20
119.8242379416
 10
117.0548059009
 20
119.7875646223
 10
117.0100423916
 20
119.7541184453
 10
116.9625844039
 20
119.7238688395
 10
116.9131091197
 20
119.6973465559
 10
116.8615111042
 20
119.674586215
 10
116.8078957923
 20
119.6555531963
 10
116.7532566704
 20
119.640674389
 10
116.6979249006
 20
119.6300920896
 10
116.6415693209
 20
119.6236640016
 10
116.5841899312
 20
119.621390125
  0
LINE
  5
26C
100
AcDbEntity
  8
DRAFT
100
AcDbLine
 62
7
  6
CONTINUOUS
 10
118.582000528
 20
124.4678865193
 11
118.52821666
 21
124.261932537
  0
LINE
  5
26D
100
AcDbEntity
  8
DRAFT
100
AcDbLine
 62
7
  6
CONTINUOUS
 10
118.5810179393
 20
127.3585213444
 11
118.52821666
 21
127.261932537
  0
LINE
  5
26E
100
AcDbEntity
  8
DRAFT
100
AcDbLine
 62
7
  6
CONTINUOUS
 10
119.2344840476
 20
125.125536434
 11
118.582000528
 21
124.4678865193
  0
LINE
  5
26F
100
AcDbEntity
  8
0
100
AcDbLine
 62
7
  6
CONTINUOUS
 10
121.82821666
 20
127.735010893
 11
120.02821666
 21
125.9249056461
  0
LINE
  5
270
100
AcDbEntity
  8
0
100
AcDbLine
 62
7
  6
CONTINUOUS
 10
130.72821666
 20
136.6100888145
 11
132.088901971
 21
137.9707741255
  0
LINE
  5
271
100
AcDbEntity
  8
0
100
AcDbLine
 62
7
  6
CONTINUOUS
 10
134.8918205569
 20
140.625536434
 11
134.02821666
 21
139.761932537
  0
LINE
  5
272
100
AcDbEntity
  8
DRAFT
100
AcDbLine
 62
7
  6
CONTINUOUS
 10
119.3918205569
 20
125.125536434
 11
118.52821666
 21
124.261932537
  0
LINE
  5
273
100
AcDbEntity
  8
0
100
AcDbLine
 62
7
  6
CONTINUOUS
 10
120.02821666
 20
125.761932537
 11
121.82821666
 21
127.561932537
  0
LINE
  5
274
100
AcDbEntity
  8
0
100
AcDbLine
 62
7
  6
CONTINUOUS
 10
130.72821666
 20
136.461932537
 11
132.3418205569
 21
138.075536434
  0
LINE
  5
275
100
AcDbEntity
  8
SUPERFICI
100
AcDbLine
 62
7
  6
CONTINUOUS
 10
133.2418205569
 20
138.975536434
 11
133.3918205569
 21
139.125536434
  0
LINE
  5
276
100
AcDbEntity
  8
0
100
AcDbLine
 62
7
  6
CONTINUOUS
 10
133.2275708822
 20
139.125536434
 11
133.1936534752
 21
139.0918220558
  0
LINE
  5
277
100
AcDbEntity
  8
0
100
AcDbLine
 62
7
  6
CONTINUOUS
 10
134.738014193
 20
140.625536434
 11
134.02821666
 21
139.9209877595
  0
LINE
  5
278
100
AcDbEntity
  8
0
100
AcDbLine
 62
7
  6
CONTINUOUS
 10
132.088901971
 20
137.9707741255
 11
132.3418205569
 21
138.075536434
  0
LWPOLYLINE
  5
279
100
AcDbEntity
  8
RACCORDO
100
AcDbPolyline
 62
7
  6
CONTINUOUS
 90
13
 70
0
 10
138.5049803514
 20
78.3999907174
 10
138.5686034355
 20
78.4041769449
 10
138.6314063772
 20
78.4166834951
 10
138.6923258843
 20
78.4374573009
 10
138.7503758503
 20
78.4663650541
 10
138.8044064482
 20
78.5030292273
 10
138.8531991129
 20
78.5467138767
 10
138.8958224187
 20
78.5966560164
 10
138.9315717065
 20
78.6520733317
 10
138.9598060471
 20
78.7119158835
 10
138.9800265278
 20
78.7751272971
 10
138.9918551826
 20
78.8406823104
 10
138.9950614777
 20
78.9074736413
  0
LWPOLYLINE
  5
27A
100
AcDbEntity
  8
RACCORDO
100
AcDbPolyline
 62
7
  6
CONTINUOUS
 90
13
 70
0
 10
157.5746863673
 20
79.8778487518
 10
157.510002648
 20
79.8736831499
 10
157.4461324466
 20
79.8612620539
 10
157.38415959
 20
79.8407228954
 10
157.3250770993
 20
79.8123167977
 10
157.2700025442
 20
79.7764766164
 10
157.2201046047
 20
79.7338947267
 10
157.1762471803
 20
79.6853530244
 10
157.1391351324
 20
79.6316740889
 10
157.1094596288
 20
79.5738592482
 10
157.0876914367
 20
79.5129522566
 10
157.0741134047
 20
79.4499955207
 10
157.0688954592
 20
79.3860756096
  0
LWPOLYLINE
  5
27B
100
AcDbEntity
  8
RACCORDO
100
AcDbPolyline
 62
7
  6
CONTINUOUS
 90
13
 70
0
 10
172.5230982894
 20
78.3818727794
 10
172.5769343515
 20
78.3846620885
 10
172.6322762217
 20
78.393835102
 10
172.6883025438
 20
78.4100433167
 10
172.7440742916
 20
78.4338516448
 10
172.7983863578
 20
78.465690253
 10
172.8498035573
 20
78.5057690885
 10
172.8971777215
 20
78.5544376542
 10
172.9386589147
 20
78.6111808255
 10
172.9721210382
 20
78.6741491135
 10
172.9964470307
 20
78.7418028246
 10
173.0110418297
 20
78.8133144057
 10
173.0152355264
 20
78.8872995927
  0
LWPOLYLINE
  5
27C
100
AcDbEntity
  8
RACCORDO
100
AcDbPolyline
 62
7
  6
CONTINUOUS
 90
16
 70
0
 10
123.5557512058
 20
79.8967839133
 10
123.5073471348
 20
79.8946210746
 10
123.4590505359
 20
79.8878205819
 10
123.4113249682
 20
79.8763610831
 10
123.364672149
 20
79.8602860355
 10
123.3195361684
 20
79.8396578397
 10
123.2763136655
 20
79.8145268554
 10
123.2357278665
 20
79.7852311853
 10
123.1979840291
 20
79.7518278889
 10
123.1629126051
 20
79.7137721077
 10
123.1308990185
 20
79.670713804
 10
123.1030896727
 20
79.6232876548
 10
123.0804934161
 20
79.5724693466
 10
123.06367784
 20
79.5190210346
 10
123.0529778741
 20
79.4633651614
 10
123.048776106
 20
79.4061949628
  0
LINE
  5
27D
100
AcDbEntity
  8
RACCORDO
100
AcDbLine
 62
7
  6
CONTINUOUS
 10
172.5006821142
 20
79.8967839133
 11
167.6014381926
 21
79.8884564045
  0
LINE
  5
27E
100
AcDbEntity
  8
RACCORDO
100
AcDbLine
 62
7
  6
CONTINUOUS
 10
123.5333350306
 20
78.3818727794
 11
131.3333545585
 21
78.3932618021
  0
LINE
  5
27F
100
AcDbEntity
  8
RACCORDO
100
AcDbLine
 62
7
  6
CONTINUOUS
 10
167.6014381926
 20
79.8884564045
 11
160.4405881079
 21
79.8801728683
  0
LINE
  5
280
100
AcDbEntity
  8
RACCORDO
100
AcDbLine
 62
7
  6
CONTINUOUS
 10
131.3333545585
 20
78.3932618021
 11
138.5049803514
 21
78.3999907174
  0
LINE
  5
281
100
AcDbEntity
  8
RACCORDO
100
AcDbLine
 62
7
  6
CONTINUOUS
 10
160.4405881079
 20
79.8801728683
 11
157.5746863673
 21
79.8778487518
  0
LINE
  5
282
100
AcDbEntity
  8
0
100
AcDbLine
 62
7
  6
CONTINUOUS
 10
168.52821666
 20
77.125536434
 11
161.52821666
 21
77.125536434
  0
LINE
  5
283
100
AcDbEntity
  8
0
100
AcDbLine
 62
7
  6
CONTINUOUS
 10
134.52821666
 20
77.125536434
 11
127.52821666
 21
77.125536434
  0
LINE
  5
284
100
AcDbEntity
  8
ASSI
100
AcDbLine
 62
7
  6
CONTINUOUS
 10
178.70321666
 20
77.325536434
 11
175.35321666
 21
77.325536434
  0
LINE
  5
285
100
AcDbEntity
  8
RACCORDO
100
AcDbLine
 62
250
  6
CONTINUOUS
 10
172.7841899312
 20
77.871390125
 11
157.2722433888
 21
77.871390125
  0
LINE
  5
286
100
AcDbEntity
  8
RACCORDO
100
AcDbLine
 62
250
  6
CONTINUOUS
 10
138.7841899312
 20
77.871390125
 11
123.2722433888
 21
77.871390125
  0
LINE
  5
287
100
AcDbEntity
  8
RACCORDO
100
AcDbLine
 62
250
  6
CONTINUOUS
 10
172.7841899312
 20
78.1207811376
 11
157.2722433888
 21
78.1207811376
  0
LINE
  5
288
100
AcDbEntity
  8
RACCORDO
100
AcDbLine
 62
250
  6
CONTINUOUS
 10
138.7841899312
 20
78.1207811376
 11
123.2722433888
 21
78.1207811376
  0
LINE
  5
289
100
AcDbEntity
  8
RACCORDO
100
AcDbLine
 62
250
  6
CONTINUOUS
 10
173.5323629689
 20
78.6195631627
 11
173.2829719563
 21
78.6195631624
  0
LINE
  5
28A
100
AcDbEntity
  8
RACCORDO
100
AcDbLine
 62
250
  6
CONTINUOUS
 10
139.5323629689
 20
78.6195631627
 11
139.2829719563
 21
78.6195631624
  0
LINE
  5
28B
100
AcDbEntity
  8
RACCORDO
100
AcDbLine
 62
250
  6
CONTINUOUS
 10
122.5240703511
 20
78.6195631627
 11
122.7734613636
 21
78.6195631627
  0
LINE
  5
28C
100
AcDbEntity
  8
RACCORDO
100
AcDbLine
 62
250
  6
CONTINUOUS
 10
156.5240703511
 20
78.6195631627
 11
156.7734613636
 21
78.6195631627
  0
LINE
  5
28D
100
AcDbEntity
  8
RACCORDO
100
AcDbLine
 62
250
  6
CONTINUOUS
 10
173.5323629689
 20
79.6815097052
 11
173.2829719563
 21
79.6815097052
  0
LINE
  5
28E
100
AcDbEntity
  8
RACCORDO
100
AcDbLine
 62
250
  6
CONTINUOUS
 10
139.5323629689
 20
79.6815097052
 11
139.2829719563
 21
79.6815097052
  0
LINE
  5
28F
100
AcDbEntity
  8
RACCORDO
100
AcDbLine
 62
250
  6
CONTINUOUS
 10
122.5240703511
 20
79.6815097052
 11
122.7734613636
 21
79.6815097055
  0
LINE
  5
290
100
AcDbEntity
  8
RACCORDO
100
AcDbLine
 62
250
  6
CONTINUOUS
 10
156.5240703511
 20
79.6815097052
 11
156.7734613636
 21
79.6815097055
  0
LINE
  5
291
100
AcDbEntity
  8
RACCORDO
100
AcDbLine
 62
250
  6
CONTINUOUS
 10
123.2722433888
 20
80.1802917303
 11
138.7841899312
 21
80.1802917303
  0
LINE
  5
292
100
AcDbEntity
  8
RACCORDO
100
AcDbLine
 62
250
  6
CONTINUOUS
 10
157.2722433888
 20
80.1802917303
 11
172.7841899312
 21
80.1802917303
  0
LINE
  5
293
100
AcDbEntity
  8
RACCORDO
100
AcDbLine
 62
250
  6
CONTINUOUS
 10
123.2722433888
 20
80.4296827429
 11
138.7841899312
 21
80.4296827429
  0
LINE
  5
294
100
AcDbEntity
  8
RACCORDO
100
AcDbLine
 62
250
  6
CONTINUOUS
 10
157.2722433888
 20
80.4296827429
 11
172.7841899312
 21
80.4296827429
  0
LINE
  5
295
100
AcDbEntity
  8
RACCORDO
100
AcDbLine
 62
7
  6
CONTINUOUS
 10
157.5514529686
 20
78.3999907174
 11
164.7224231581
 21
78.3932704622
  0
LINE
  5
296
100
AcDbEntity
  8
RACCORDO
100
AcDbLine
 62
7
  6
CONTINUOUS
 10
138.4817469527
 20
79.8778487518
 11
129.885511114
 21
79.8865465476
  0
LINE
  5
297
100
AcDbEntity
  8
RACCORDO
100
AcDbLine
 62
7
  6
CONTINUOUS
 10
164.7224231581
 20
78.3932704622
 11
172.5230982894
 21
78.3818727794
  0
LINE
  5
298
100
AcDbEntity
  8
RACCORDO
100
AcDbLine
 62
7
  6
CONTINUOUS
 10
129.885511114
 20
79.8865465476
 11
123.9974208281
 21
79.895695279
  0
LINE
  5
299
100
AcDbEntity
  8
RACCORDO
100
AcDbLine
 62
7
  6
CONTINUOUS
 10
123.9974208281
 20
79.895695279
 11
123.5557512058
 21
79.8967839133
  0
LWPOLYLINE
  5
29A
100
AcDbEntity
  8
RACCORDO
100
AcDbPolyline
 62
250
  6
CONTINUOUS
 90
22
 70
0
 10
123.2722433888
 20
78.1207811376
 10
123.2357447515
 20
78.1220185415
 10
123.1992927035
 20
78.1259327518
 10
123.1630845382
 20
78.1325384438
 10
123.1272852491
 20
78.141844697
 10
123.0921350186
 20
78.1538318743
 10
123.0579394469
 20
78.1684261397
 10
123.0249060048
 20
78.1855517884
 10
122.9932077622
 20
78.2051306682
 10
122.9630769146
 20
78.2270294572
 10
122.9347094633
 20
78.2511009058
 10
122.9082298311
 20
78.277232898
 10
122.8837502535
 20
78.3053240499
 10
122.8614168294
 20
78.3352266263
 10
122.8413636155
 20
78.3667819398
 10
122.8236879347
 20
78.3998710778
 10
122.808495165
 20
78.434364894
 10
122.7959185797
 20
78.4700377351
 10
122.7860714141
 20
78.5066109346
 10
122.7790206926
 20
78.5438497833
 10
122.7748067026
 20
78.5815717412
 10
122.7734613636
 20
78.6195631627
  0
LWPOLYLINE
  5
29B
100
AcDbEntity
  8
RACCORDO
100
AcDbPolyline
 62
250
  6
CONTINUOUS
 90
22
 70
0
 10
157.2722433888
 20
78.1207811376
 10
157.2357447515
 20
78.1220185415
 10
157.1992927035
 20
78.1259327518
 10
157.1630845382
 20
78.1325384438
 10
157.1272852491
 20
78.141844697
 10
157.0921350186
 20
78.1538318743
 10
157.0579394469
 20
78.1684261397
 10
157.0249060048
 20
78.1855517884
 10
156.9932077622
 20
78.2051306682
 10
156.9630769146
 20
78.2270294572
 10
156.9347094633
 20
78.2511009058
 10
156.9082298311
 20
78.277232898
 10
156.8837502535
 20
78.3053240499
 10
156.8614168294
 20
78.3352266263
 10
156.8413636155
 20
78.3667819398
 10
156.8236879347
 20
78.3998710778
 10
156.808495165
 20
78.434364894
 10
156.7959185797
 20
78.4700377351
 10
156.7860714141
 20
78.5066109346
 10
156.7790206926
 20
78.5438497833
 10
156.7748067026
 20
78.5815717412
 10
156.7734613636
 20
78.6195631627
  0
LWPOLYLINE
  5
29C
100
AcDbEntity
  8
RACCORDO
100
AcDbPolyline
 62
250
  6
CONTINUOUS
 90
22
 70
0
 10
138.7841899312
 20
80.1802917303
 10
138.8206885684
 20
80.1790543264
 10
138.8571406165
 20
80.1751401161
 10
138.8933487818
 20
80.1685344241
 10
138.9291480709
 20
80.1592281709
 10
138.9642983014
 20
80.1472409936
 10
138.9984938731
 20
80.1326467282
 10
139.0315273151
 20
80.1155210795
 10
139.0632255577
 20
80.0959421997
 10
139.0933564054
 20
80.0740434107
 10
139.1217238567
 20
80.0499719621
 10
139.1482034889
 20
80.0238399699
 10
139.1726830665
 20
79.995748818
 10
139.1950164906
 20
79.9658462416
 10
139.2150697045
 20
79.9342909281
 10
139.2327453853
 20
79.9012017901
 10
139.2479381549
 20
79.8667079739
 10
139.2605147403
 20
79.8310351328
 10
139.2703619059
 20
79.7944619333
 10
139.2774126274
 20
79.7572230846
 10
139.2816266173
 20
79.7195011267
 10
139.2829719563
 20
79.6815097052
  0
LWPOLYLINE
  5
29D
100
AcDbEntity
  8
RACCORDO
100
AcDbPolyline
 62
250
  6
CONTINUOUS
 90
22
 70
0
 10
172.7841899312
 20
80.1802917303
 10
172.8206885684
 20
80.1790543264
 10
172.8571406165
 20
80.1751401161
 10
172.8933487818
 20
80.1685344241
 10
172.9291480709
 20
80.1592281709
 10
172.9642983014
 20
80.1472409936
 10
172.9984938731
 20
80.1326467282
 10
173.0315273151
 20
80.1155210795
 10
173.0632255577
 20
80.0959421997
 10
173.0933564054
 20
80.0740434107
 10
173.1217238567
 20
80.0499719621
 10
173.1482034889
 20
80.0238399699
 10
173.1726830665
 20
79.995748818
 10
173.1950164906
 20
79.9658462416
 10
173.2150697045
 20
79.9342909281
 10
173.2327453853
 20
79.9012017901
 10
173.2479381549
 20
79.8667079739
 10
173.2605147403
 20
79.8310351328
 10
173.2703619059
 20
79.7944619333
 10
173.2774126274
 20
79.7572230846
 10
173.2816266173
 20
79.7195011267
 10
173.2829719563
 20
79.6815097052
  0
LWPOLYLINE
  5
29E
100
AcDbEntity
  8
RACCORDO
100
AcDbPolyline
 62
250
  6
CONTINUOUS
 90
22
 70
0
 10
123.2722433888
 20
77.871390125
 10
123.2171176614
 20
77.8733789924
 10
123.1626517477
 20
77.8793775853
 10
123.1088456479
 20
77.8893859039
 10
123.055352439
 20
77.9034831826
 10
123.0025190439
 20
77.9215901869
 10
122.9513862312
 20
77.9434692129
 10
122.9020097488
 20
77.9692089233
 10
122.8543338487
 20
77.9987206554
 10
122.8092320561
 20
78.0315007176
 10
122.7667880581
 20
78.0675724966
 10
122.7269181676
 20
78.1069126056
 10
122.6902448483
 20
78.1489471931
 10
122.6567986713
 20
78.1937107024
 10
122.6265490655
 20
78.2411686901
 10
122.6000267819
 20
78.2906439743
 10
122.5772664411
 20
78.3422419897
 10
122.5582334223
 20
78.3958573017
 10
122.543354615
 20
78.4504964236
 10
122.5327723156
 20
78.5058281933
 10
122.5263442276
 20
78.562183773
 10
122.5240703511
 20
78.6195631627
  0
LWPOLYLINE
  5
29F
100
AcDbEntity
  8
RACCORDO
100
AcDbPolyline
 62
250
  6
CONTINUOUS
 90
22
 70
0
 10
157.2722433888
 20
77.871390125
 10
157.2171176614
 20
77.8733789924
 10
157.1626517477
 20
77.8793775853
 10
157.1088456479
 20
77.8893859039
 10
157.055352439
 20
77.9034831826
 10
157.0025190439
 20
77.9215901869
 10
156.9513862312
 20
77.9434692129
 10
156.9020097488
 20
77.9692089233
 10
156.8543338487
 20
77.9987206554
 10
156.8092320561
 20
78.0315007176
 10
156.7667880581
 20
78.0675724966
 10
156.7269181676
 20
78.1069126056
 10
156.6902448483
 20
78.1489471931
 10
156.6567986713
 20
78.1937107024
 10
156.6265490655
 20
78.2411686901
 10
156.6000267819
 20
78.2906439743
 10
156.5772664411
 20
78.3422419897
 10
156.5582334223
 20
78.3958573017
 10
156.543354615
 20
78.4504964236
 10
156.5327723156
 20
78.5058281933
 10
156.5263442276
 20
78.562183773
 10
156.5240703511
 20
78.6195631627
  0
LWPOLYLINE
  5
2A0
100
AcDbEntity
  8
RACCORDO
100
AcDbPolyline
 62
250
  6
CONTINUOUS
 90
22
 70
0
 10
138.7841899312
 20
80.4296827429
 10
138.8393156586
 20
80.4276938755
 10
138.8937815722
 20
80.4216952826
 10
138.947587672
 20
80.411686964
 10
139.0010808809
 20
80.3975896853
 10
139.053914276
 20
80.379482681
 10
139.1050470887
 20
80.357603655
 10
139.1544235712
 20
80.3318639446
 10
139.2020994713
 20
80.3023522125
 10
139.2472012639
 20
80.2695721503
 10
139.2896452619
 20
80.2335003714
 10
139.3295151524
 20
80.1941602623
 10
139.3661884716
 20
80.1521256749
 10
139.3996346487
 20
80.1073621655
 10
139.4298842544
 20
80.0599041778
 10
139.456406538
 20
80.0104288936
 10
139.4791668789
 20
79.9588308782
 10
139.4981998976
 20
79.9052155662
 10
139.5130787049
 20
79.8505764443
 10
139.5236610044
 20
79.7952446746
 10
139.5300890924
 20
79.7388890949
 10
139.5323629689
 20
79.6815097052
  0
LINE
  5
2A1
100
AcDbEntity
  8
0
100
AcDbLine
 62
7
  6
CONTINUOUS
 10
132.3418205569
 20
84.175536434
 11
132.088901971
 21
84.2802987424
  0
LINE
  5
2A2
100
AcDbEntity
  8
0
100
AcDbLine
 62
7
  6
CONTINUOUS
 10
134.02821666
 20
82.3300851084
 11
134.738014193
 21
81.625536434
  0
LINE
  5
2A3
100
AcDbEntity
  8
0
100
AcDbLine
 62
7
  6
CONTINUOUS
 10
133.1936534752
 20
83.1592508121
 11
133.2275708822
 21
83.125536434
  0
LINE
  5
2A4
100
AcDbEntity
  8
0
100
AcDbLine
 62
7
  6
CONTINUOUS
 10
130.72821666
 20
85.6409840534
 11
132.088901971
 21
84.2802987424
  0
LINE
  5
2A5
100
AcDbEntity
  8
DRAFT
100
AcDbLine
 62
7
  6
CONTINUOUS
 10
118.52821666
 20
97.9891403309
 11
119.3918205569
 21
97.125536434
  0
LINE
  5
2A6
100
AcDbEntity
  8
0
100
AcDbLine
 62
7
  6
CONTINUOUS
 10
120.02821666
 20
96.4891403309
 11
121.82821666
 21
94.6891403309
  0
LINE
  5
2A7
100
AcDbEntity
  8
0
100
AcDbLine
 62
7
  6
CONTINUOUS
 10
130.72821666
 20
85.7891403309
 11
132.3418205569
 21
84.175536434
  0
LINE
  5
2A8
100
AcDbEntity
  8
SUPERFICI
100
AcDbLine
 62
7
  6
CONTINUOUS
 10
133.2418205569
 20
83.275536434
 11
133.3918205569
 21
83.125536434
  0
LINE
  5
2A9
100
AcDbEntity
  8
0
100
AcDbLine
 62
7
  6
CONTINUOUS
 10
134.02821666
 20
82.4891403309
 11
134.8918205569
 21
81.625536434
  0
LINE
  5
2AA
100
AcDbEntity
  8
0
100
AcDbLine
 62
7
  6
CONTINUOUS
 10
120.02821666
 20
96.3261672219
 11
121.82821666
 21
94.5160619749
  0
LINE
  5
2AB
100
AcDbEntity
  8
DRAFT
100
AcDbLine
 62
7
  6
CONTINUOUS
 10
118.582000528
 20
97.7831863486
 11
119.2344840476
 21
97.125536434
  0
LINE
  5
2AC
100
AcDbEntity
  8
DRAFT
100
AcDbLine
 62
7
  6
CONTINUOUS
 10
118.52821666
 20
94.9891403309
 11
118.5810179393
 21
94.8925515235
  0
LINE
  5
2AD
100
AcDbEntity
  8
DRAFT
100
AcDbLine
 62
7
  6
CONTINUOUS
 10
118.52821666
 20
97.9891403309
 11
118.582000528
 21
97.7831863486
  0
LWPOLYLINE
  5
2AE
100
AcDbEntity
  8
RACCORDO
100
AcDbPolyline
 62
7
  6
CONTINUOUS
 90
13
 70
0
 10
123.0411977936
 20
78.8872995927
 10
123.0450790526
 20
78.8157250695
 10
123.0588575735
 20
78.7458791367
 10
123.0821541197
 20
78.6790998795
 10
123.1147171076
 20
78.6161261549
 10
123.155651815
 20
78.5587421868
 10
123.2027631149
 20
78.5092602654
 10
123.2541638353
 20
78.4683488453
 10
123.3087944406
 20
78.4356614983
 10
123.3651495128
 20
78.4111119745
 10
123.4219743492
 20
78.3943330012
 10
123.4783223939
 20
78.3847913206
 10
123.5333350306
 20
78.3818727794
  0
LINE
  5
2AF
100
AcDbEntity
  8
DRAFT
100
AcDbLine
 62
7
  6
CONTINUOUS
 10
118.5474496468
 20
136.8755857553
 11
118.5773856889
 21
135.3315405772
  0
LINE
  5
2B0
100
AcDbEntity
  8
DRAFT
100
AcDbLine
 62
7
  6
CONTINUOUS
 10
118.578725089
 20
132.676584079
 11
118.5773856889
 21
135.3315405772
  0
LINE
  5
2B1
100
AcDbEntity
  8
DRAFT
100
AcDbLine
 62
7
  6
CONTINUOUS
 10
118.582000528
 20
124.4678865193
 11
118.5815761517
 21
125.7848114082
  0
LINE
  5
2B2
100
AcDbEntity
  8
DRAFT
100
AcDbLine
 62
7
  6
CONTINUOUS
 10
118.5810179393
 20
127.3585213444
 11
118.5792517743
 21
131.5734350972
  0
LINE
  5
2B3
100
AcDbEntity
  8
DRAFT
100
AcDbLine
 62
7
  6
CONTINUOUS
 10
118.5829037147
 20
121.1149516809
 11
118.5824574148
 21
122.8899183066
  0
LINE
  5
2B4
100
AcDbEntity
  8
DRAFT
100
AcDbLine
 62
7
  6
CONTINUOUS
 10
118.52821666
 20
136.875536434
 11
118.52821666
 21
132.575536434
  0
LINE
  5
2B5
100
AcDbEntity
  8
DRAFT
100
AcDbLine
 62
7
  6
CONTINUOUS
 10
118.52821666
 20
131.675536434
 11
118.52821666
 21
127.261932537
  0
LINE
  5
2B6
100
AcDbEntity
  8
DRAFT
100
AcDbLine
 62
7
  6
CONTINUOUS
 10
118.52821666
 20
125.9891403309
 11
118.52821666
 21
124.261932537
  0
LINE
  5
2B7
100
AcDbEntity
  8
DRAFT
100
AcDbLine
 62
7
  6
CONTINUOUS
 10
118.52821666
 20
122.9891403309
 11
118.52821666
 21
121.1207518919
  0
LINE
  5
2B8
100
AcDbEntity
  8
DRAFT
100
AcDbLine
 62
7
  6
CONTINUOUS
 10
118.52821666
 20
101.130320976
 11
118.52821666
 21
99.261932537
  0
LINE
  5
2B9
100
AcDbEntity
  8
DRAFT
100
AcDbLine
 62
7
  6
CONTINUOUS
 10
118.52821666
 20
97.9891403309
 11
118.52821666
 21
96.261932537
  0
LINE
  5
2BA
100
AcDbEntity
  8
DRAFT
100
AcDbLine
 62
7
  6
CONTINUOUS
 10
118.52821666
 20
94.9891403309
 11
118.52821666
 21
90.575536434
  0
LINE
  5
2BB
100
AcDbEntity
  8
DRAFT
100
AcDbLine
 62
7
  6
CONTINUOUS
 10
118.52821666
 20
89.675536434
 11
118.52821666
 21
85.375536434
  0
LINE
  5
2BC
100
AcDbEntity
  8
0
100
AcDbLine
 62
7
  6
CONTINUOUS
 10
120.02821666
 20
96.3261672219
 11
120.02821666
 21
96.4891403309
  0
LINE
  5
2BD
100
AcDbEntity
  8
0
100
AcDbLine
 62
7
  6
CONTINUOUS
 10
120.02821666
 20
97.761932537
 11
120.02821666
 21
97.926501189
  0
LINE
  5
2BE
100
AcDbEntity
  8
0
100
AcDbLine
 62
7
  6
CONTINUOUS
 10
120.02821666
 20
124.3245716789
 11
120.02821666
 21
124.4891403309
  0
LINE
  5
2BF
100
AcDbEntity
  8
0
100
AcDbLine
 62
7
  6
CONTINUOUS
 10
120.02821666
 20
125.761932537
 11
120.02821666
 21
125.9249056461
  0
LINE
  5
2C0
100
AcDbEntity
  8
0
100
AcDbLine
 62
7
  6
CONTINUOUS
 10
121.82821666
 20
136.2767751861
 11
121.82821666
 21
132.6802987424
  0
LINE
  5
2C1
100
AcDbEntity
  8
0
100
AcDbLine
 62
7
  6
CONTINUOUS
 10
121.82821666
 20
122.6891403309
 11
121.82821666
 21
119.3954300683
  0
LINE
  5
2C2
100
AcDbEntity
  8
0
100
AcDbLine
 62
7
  6
CONTINUOUS
 10
121.82821666
 20
102.8556427997
 11
121.82821666
 21
99.561932537
  0
LINE
  5
2C3
100
AcDbEntity
  8
0
100
AcDbLine
 62
7
  6
CONTINUOUS
 10
121.82821666
 20
89.5707741255
 11
121.82821666
 21
85.9742976818
  0
LINE
  5
2C4
100
AcDbEntity
  8
0
100
AcDbLine
 62
7
  6
CONTINUOUS
 10
121.82821666
 20
90.575536434
 11
121.82821666
 21
94.6891403309
  0
LINE
  5
2C5
100
AcDbEntity
  8
0
100
AcDbLine
 62
7
  6
CONTINUOUS
 10
121.82821666
 20
95.961932537
 11
121.82821666
 21
98.2891403309
  0
LINE
  5
2C6
100
AcDbEntity
  8
0
100
AcDbLine
 62
7
  6
CONTINUOUS
 10
121.82821666
 20
123.961932537
 11
121.82821666
 21
126.2891403309
  0
LINE
  5
2C7
100
AcDbEntity
  8
0
100
AcDbLine
 62
7
  6
CONTINUOUS
 10
121.82821666
 20
127.561932537
 11
121.82821666
 21
131.675536434
  0
LINE
  5
2C8
100
AcDbEntity
  8
DRAFT
100
AcDbLine
 62
7
  6
CONTINUOUS
 10
118.5824574148
 20
99.3611545613
 11
118.5829037147
 21
101.136121187
  0
LINE
  5
2C9
100
AcDbEntity
  8
DRAFT
100
AcDbLine
 62
7
  6
CONTINUOUS
 10
118.5815761517
 20
96.4662614597
 11
118.582000528
 21
97.7831863486
  0
LINE
  5
2CA
100
AcDbEntity
  8
DRAFT
100
AcDbLine
 62
7
  6
CONTINUOUS
 10
118.5792517743
 20
90.6776377707
 11
118.5810179393
 21
94.8925515235
  0
LINE
  5
2CB
100
AcDbEntity
  8
DRAFT
100
AcDbLine
 62
7
  6
CONTINUOUS
 10
118.5773856889
 20
86.9195322907
 11
118.578725089
 21
89.5744887889
  0
LINE
  5
2CC
100
AcDbEntity
  8
DRAFT
100
AcDbLine
 62
7
  6
CONTINUOUS
 10
118.5474496468
 20
85.3754871126
 11
118.5773856889
 21
86.9195322907
  0
LWPOLYLINE
  5
2CD
100
AcDbEntity
  8
RACCORDO
100
AcDbPolyline
 62
250
  6
CONTINUOUS
 90
22
 70
0
 10
122.7734613636
 20
143.6315097052
 10
122.7746987675
 20
143.6680083424
 10
122.7786129778
 20
143.7044603905
 10
122.7852186698
 20
143.7406685558
 10
122.794524923
 20
143.7764678449
 10
122.8065121003
 20
143.8116180754
 10
122.8211063658
 20
143.845813647
 10
122.8382320144
 20
143.8788470891
 10
122.8578108943
 20
143.9105453317
 10
122.8797096832
 20
143.9406761794
 10
122.9037811318
 20
143.9690436306
 10
122.9299131241
 20
143.9955232629
 10
122.958004276
 20
144.0200028404
 10
122.9879068523
 20
144.0423362646
 10
123.0194621659
 20
144.0623894785
 10
123.0525513038
 20
144.0800651592
 10
123.0870451201
 20
144.0952579289
 10
123.1227179612
 20
144.1078345143
 10
123.1592911607
 20
144.1176816798
 10
123.1965300094
 20
144.1247324014
 10
123.2342519672
 20
144.1289463913
 10
123.2722433888
 20
144.1302917303
  0
LWPOLYLINE
  5
2CE
100
AcDbEntity
  8
RACCORDO
100
AcDbPolyline
 62
250
  6
CONTINUOUS
 90
22
 70
0
 10
117.3323629689
 20
86.3695631627
 10
117.3303741015
 20
86.3144374353
 10
117.3243755086
 20
86.2599715217
 10
117.3143671901
 20
86.2061654219
 10
117.3002699114
 20
86.152672213
 10
117.2821629071
 20
86.0998388179
 10
117.260283881
 20
86.0487060052
 10
117.2345441707
 20
85.9993295227
 10
117.2050324385
 20
85.9516536227
 10
117.1722523763
 20
85.9065518301
 10
117.1361805974
 20
85.8641078321
 10
117.0968404883
 20
85.8242379416
 10
117.0548059009
 20
85.7875646223
 10
117.0100423916
 20
85.7541184453
 10
116.9625844039
 20
85.7238688395
 10
116.9131091197
 20
85.6973465559
 10
116.8615111042
 20
85.674586215
 10
116.8078957923
 20
85.6555531963
 10
116.7532566704
 20
85.640674389
 10
116.6979249006
 20
85.6300920896
 10
116.6415693209
 20
85.6236640016
 10
116.5841899312
 20
85.621390125
  0
LWPOLYLINE
  5
2CF
100
AcDbEntity
  8
RACCORDO
100
AcDbPolyline
 62
250
  6
CONTINUOUS
 90
22
 70
0
 10
122.5240703511
 20
143.6315097052
 10
122.5260592184
 20
143.6866354326
 10
122.5320578114
 20
143.7411013462
 10
122.5420661299
 20
143.794907446
 10
122.5561634086
 20
143.8484006549
 10
122.5742704129
 20
143.90123405
 10
122.5961494389
 20
143.9523668627
 10
122.6218891493
 20
144.0017433452
 10
122.6514008814
 20
144.0494192452
 10
122.6841809436
 20
144.0945210378
 10
122.7202527226
 20
144.1369650358
 10
122.7595928316
 20
144.1768349263
 10
122.8016274191
 20
144.2135082456
 10
122.8463909284
 20
144.2469544226
 10
122.8938489161
 20
144.2772040284
 10
122.9433242003
 20
144.303726312
 10
122.9949222158
 20
144.3264866529
 10
123.0485375277
 20
144.3455196716
 10
123.1031766496
 20
144.3603984789
 10
123.1585084193
 20
144.3709807783
 10
123.2148639991
 20
144.3774088663
 10
123.2722433888
 20
144.3796827429
  0
LWPOLYLINE
  5
2D0
100
AcDbEntity
  8
0
100
AcDbPolyline
 62
7
  6
CONTINUOUS
 90
7
 70
0
 10
123.8616236921
 20
139.0838920949
 10
123.8996443745
 20
139.3406250422
 10
123.9236845488
 20
139.5985629469
 10
123.9336710062
 20
139.8568689719
 10
123.9295827516
 20
140.114698904
 10
123.9114518057
 20
140.3712044199
 10
123.8793638069
 20
140.625536434
  0
LWPOLYLINE
  5
2D1
100
AcDbEntity
  8
RACCORDO
100
AcDbPolyline
 62
7
  6
CONTINUOUS
 90
10
 70
0
 10
125.5389599958
 20
128.1394523468
 10
125.5265668497
 20
128.121784123
 10
125.5154762525
 20
128.1032707123
 10
125.5057455769
 20
128.0840079298
 10
125.4974251756
 20
128.0640955073
 10
125.4905580678
 20
128.0436364553
 10
125.4851797472
 20
128.0227365196
 10
125.4813180556
 20
128.0015038048
 10
125.4789930086
 20
127.9800482257
 10
125.47821666
 20
127.9584808084
  0
LINE
  5
2D2
100
AcDbEntity
  8
0
100
AcDbLine
 62
7
  6
CONTINUOUS
 10
134.8301716472
 20
139.125536434
 11
136.3195177016
 21
140.625536434
  0
LINE
  5
2D3
100
AcDbEntity
  8
RACCORDO
100
AcDbLine
 62
250
  6
CONTINUOUS
 10
138.7841899312
 20
144.1302917303
 11
138.5049803514
 21
143.8510821505
  0
LINE
  5
2D4
100
AcDbEntity
  8
RACCORDO
100
AcDbLine
 62
250
  6
CONTINUOUS
 10
115.0234613636
 20
120.3695631627
 11
115.2985533018
 21
120.6446551009
  0
LINE
  5
2D5
100
AcDbEntity
  8
DRAFT
100
AcDbLine
 62
7
  6
CONTINUOUS
 10
118.52821666
 20
122.9891403309
 11
120.02821666
 21
124.4891403309
  0
LINE
  5
2D6
100
AcDbEntity
  8
0
100
AcDbLine
 62
7
  6
CONTINUOUS
 10
120.6646127631
 20
125.125536434
 11
121.82821666
 21
126.2891403309
  0
LINE
  5
2D7
100
AcDbEntity
  8
DRAFT
100
AcDbLine
 62
7
  6
CONTINUOUS
 10
131.4146127631
 20
135.875536434
 11
133.6146127631
 21
138.075536434
  0
LINE
  5
2D8
100
AcDbEntity
  8
0
100
AcDbLine
 62
7
  6
CONTINUOUS
 10
134.6646127631
 20
139.125536434
 11
136.1646127631
 21
140.625536434
  0
LINE
  5
2D9
100
AcDbEntity
  8
RACCORDO
100
AcDbLine
 62
250
  6
CONTINUOUS
 10
139.2829719563
 20
143.6315097052
 11
138.9950614777
 21
143.3435992266
  0
LINE
  5
2DA
100
AcDbEntity
  8
RACCORDO
100
AcDbLine
 62
250
  6
CONTINUOUS
 10
115.5222433888
 20
119.8707811376
 11
115.8062056876
 21
120.1547434364
  0
LINE
  5
2DB
100
AcDbEntity
  8
DRAFT
100
AcDbLine
 62
7
  6
CONTINUOUS
 10
131.6151342353
 20
135.9279016287
 11
133.6580067321
 21
137.9707741255
  0
LINE
  5
2DC
100
AcDbEntity
  8
0
100
AcDbLine
 62
7
  6
CONTINUOUS
 10
120.8343595645
 20
125.125536434
 11
121.82821666
 21
126.1140256498
  0
LINE
  5
2DD
100
AcDbEntity
  8
DRAFT
100
AcDbLine
 62
7
  6
CONTINUOUS
 10
118.5824574148
 20
122.8899183066
 11
120.02821666
 21
124.3245716789
  0
LWPOLYLINE
  5
2DE
100
AcDbEntity
  8
0
100
AcDbPolyline
 62
7
  6
CONTINUOUS
 90
10
 70
0
 10
131.5368680284
 20
135.430727255
 10
131.6048208457
 20
135.4851841387
 10
131.6730267901
 20
135.5348732318
 10
131.7414858616
 20
135.5797945343
 10
131.8102134806
 20
135.6208244282
 10
131.8791942267
 20
135.6570865315
 10
131.9483818391
 20
135.685951698
 10
132.0177608978
 20
135.7065435456
 10
132.0873468228
 20
135.7197384563
 10
132.1571396143
 20
135.7255364301
  0
LWPOLYLINE
  5
2DF
100
AcDbEntity
  8
RACCORDO
100
AcDbPolyline
 62
7
  6
CONTINUOUS
 90
7
 70
0
 10
129.3038399194
 20
132.3657921028
 10
129.333251601
 20
132.3884040732
 10
129.3641222655
 20
132.4069677728
 10
129.396451913
 20
132.4214832016
 10
129.4302405435
 20
132.4319503594
 10
129.465488157
 20
132.4383692464
 10
129.5021947535
 20
132.4407398625
  0
LINE
  5
2E0
100
AcDbEntity
  8
0
100
AcDbLine
 62
7
  6
CONTINUOUS
 10
136.9627690405
 20
136.975536434
 11
136.8920764372
 21
136.9368915848
  0
LWPOLYLINE
  5
2E1
100
AcDbEntity
  8
0
100
AcDbPolyline
 62
7
  6
CONTINUOUS
 90
9
 70
0
 10
163.5968723056
 20
86.7175876147
 10
163.6411823952
 20
86.7295099912
 10
163.6882538932
 20
86.7508486567
 10
163.731569409
 20
86.7804418845
 10
163.7694518887
 20
86.8175728116
 10
163.8002115429
 20
86.8608053134
 10
163.8228141518
 20
86.9086118801
 10
163.8366749685
 20
86.9596555486
 10
163.8413087818
 20
87.0071155772
  0
LINE
  5
2E2
100
AcDbEntity
  8
DRAFT
100
AcDbLine
 62
7
  6
CONTINUOUS
 10
164.4412990847
 20
86.3231712392
 11
164.6418205569
 21
86.375536434
  0
LWPOLYLINE
  5
2E3
100
AcDbEntity
  8
0
100
AcDbPolyline
 62
250
  6
CONTINUOUS
 90
9
 70
0
 10
163.7196871354
 20
86.53411165
 10
163.7717636603
 20
86.5386827292
 10
163.8222584781
 20
86.5522254071
 10
163.8696379226
 20
86.574328355
 10
163.9124629502
 20
86.6043202457
 10
163.9494328477
 20
86.6412901431
 10
163.9794247385
 20
86.6841151707
 10
164.0015276867
 20
86.7314946153
 10
164.0150703647
 20
86.7819894333
  0
LWPOLYLINE
  5
2E4
100
AcDbEntity
  8
0
100
AcDbPolyline
 62
250
  6
CONTINUOUS
 90
3
 70
0
 10
163.5414017668
 20
86.7123970186
 10
163.5917284537
 20
86.7166644205
 10
163.5968723056
 20
86.7175876147
  0
LWPOLYLINE
  5
2E5
100
AcDbEntity
  8
RACCORDO
100
AcDbPolyline
 62
7
  6
CONTINUOUS
 90
13
 70
0
 10
180.271628219
 20
86.1333428498
 10
180.3484341717
 20
86.1379140977
 10
180.4217046648
 20
86.1534317669
 10
180.4900327974
 20
86.1787905096
 10
180.5525269754
 20
86.2129041646
 10
180.6080296136
 20
86.2543573699
 10
180.6553485421
 20
86.3011418908
 10
180.6939912937
 20
86.3511492413
 10
180.7246433441
 20
86.4034200515
 10
180.7480978178
 20
86.4577833251
 10
180.7645836678
 20
86.5136478063
 10
180.7741577587
 20
86.5697786867
 10
180.7771637168
 20
86.6253714023
  0
LWPOLYLINE
  5
2E6
100
AcDbEntity
  8
0
100
AcDbPolyline
 62
7
  6
CONTINUOUS
 90
3
 70
0
 10
172.1948096279
 20
83.167180773
 10
173.9378852861
 20
83.2299695198
 10
174.142142847
 20
83.237058737
  0
LWPOLYLINE
  5
2E7
100
AcDbEntity
  8
0
100
AcDbPolyline
 62
7
  6
CONTINUOUS
 90
3
 70
0
 10
123.2983279246
 20
84.2802987424
 10
122.0827847844
 20
84.2397205631
 10
121.8518916091
 20
84.2323991938
  0
LWPOLYLINE
  5
2E8
100
AcDbEntity
  8
0
100
AcDbPolyline
 62
250
  6
CONTINUOUS
 90
25
 70
0
 10
162.2897241157
 20
85.3141812831
 10
162.3455591589
 20
85.3157549888
 10
162.4021105142
 20
85.3205446765
 10
162.4591831139
 20
85.3286868202
 10
162.5165726284
 20
85.3403093206
 10
162.5740436026
 20
85.3555256375
 10
162.6313309307
 20
85.3744287435
 10
162.6882549073
 20
85.3971338968
 10
162.7444603665
 20
85.4236805502
 10
162.7994209268
 20
85.4539712517
 10
162.8528638017
 20
85.4879831947
 10
162.9045163019
 20
85.5256764529
 10
162.9538979501
 20
85.566809459
 10
163.0006665392
 20
85.6111611287
 10
163.0446946508
 20
85.6586786345
 10
163.0858410858
 20
85.7093237725
 10
163.1236884731
 20
85.7626816606
 10
163.1582014898
 20
85.8188108752
 10
163.1896195544
 20
85.8784839574
 10
163.2175003856
 20
85.9415189725
 10
163.2414489039
 20
86.0077979291
 10
163.2613357015
 20
86.0783227752
 10
163.276528911
 20
86.1532940683
 10
163.2861815063
 20
86.232001133
 10
163.2895718108
 20
86.3140289783
  0
LINE
  5
2E9
100
AcDbEntity
  8
0
100
AcDbLine
 62
7
  6
CONTINUOUS
 10
162.8627798447
 20
83.1592508121
 11
172.1948096279
 21
83.167180773
  0
LINE
  5
2EA
100
AcDbEntity
  8
DRAFT
100
AcDbLine
 62
7
  6
CONTINUOUS
 10
157.6498817594
 20
83.156619975
 11
161.1932554786
 21
83.1582899632
  0
LINE
  5
2EB
100
AcDbEntity
  8
0
100
AcDbLine
 62
7
  6
CONTINUOUS
 10
122.27821666
 20
81.625536434
 11
131.8918205569
 21
81.625536434
  0
LINE
  5
2EC
100
AcDbEntity
  8
0
100
AcDbLine
 62
7
  6
CONTINUOUS
 10
133.1646127631
 20
81.625536434
 11
134.8918205569
 21
81.625536434
  0
LINE
  5
2ED
100
AcDbEntity
  8
DRAFT
100
AcDbLine
 62
7
  6
CONTINUOUS
 10
136.1646127631
 20
81.625536434
 11
138.033001202
 21
81.625536434
  0
LINE
  5
2EE
100
AcDbEntity
  8
DRAFT
100
AcDbLine
 62
7
  6
CONTINUOUS
 10
158.023432118
 20
81.625536434
 11
159.8918205569
 21
81.625536434
  0
LINE
  5
2EF
100
AcDbEntity
  8
0
100
AcDbLine
 62
7
  6
CONTINUOUS
 10
161.1646127631
 20
81.625536434
 11
162.8918205569
 21
81.625536434
  0
LINE
  5
2F0
100
AcDbEntity
  8
0
100
AcDbLine
 62
7
  6
CONTINUOUS
 10
164.1646127631
 20
81.625536434
 11
173.77821666
 21
81.625536434
  0
LINE
  5
2F1
100
AcDbEntity
  8
0
100
AcDbLine
 62
7
  6
CONTINUOUS
 10
133.2275708822
 20
83.125536434
 11
133.3918205569
 21
83.125536434
  0
LINE
  5
2F2
100
AcDbEntity
  8
0
100
AcDbLine
 62
7
  6
CONTINUOUS
 10
134.6646127631
 20
83.125536434
 11
134.8301716472
 21
83.125536434
  0
LINE
  5
2F3
100
AcDbEntity
  8
0
100
AcDbLine
 62
7
  6
CONTINUOUS
 10
161.2262616728
 20
83.125536434
 11
161.3918205569
 21
83.125536434
  0
LINE
  5
2F4
100
AcDbEntity
  8
0
100
AcDbLine
 62
7
  6
CONTINUOUS
 10
162.6646127631
 20
83.125536434
 11
162.8288624378
 21
83.125536434
  0
LINE
  5
2F5
100
AcDbEntity
  8
0
100
AcDbLine
 62
7
  6
CONTINUOUS
 10
174.1607250119
 20
83.275536434
 11
162.8146127631
 21
83.275536434
  0
LINE
  5
2F6
100
AcDbEntity
  8
DRAFT
100
AcDbLine
 62
7
  6
CONTINUOUS
 10
161.2418205569
 20
83.275536434
 11
157.5626393696
 21
83.275536434
  0
LINE
  5
2F7
100
AcDbEntity
  8
DRAFT
100
AcDbLine
 62
7
  6
CONTINUOUS
 10
138.4937939503
 20
83.275536434
 11
134.8146127631
 21
83.275536434
  0
LINE
  5
2F8
100
AcDbEntity
  8
0
100
AcDbLine
 62
7
  6
CONTINUOUS
 10
133.2418205569
 20
83.275536434
 11
121.8957083081
 21
83.275536434
  0
LINE
  5
2F9
100
AcDbEntity
  8
SUPERFICI
100
AcDbLine
 62
7
  6
CONTINUOUS
 10
174.3418205569
 20
84.175536434
 11
163.7146127631
 21
84.175536434
  0
LINE
  5
2FA
100
AcDbEntity
  8
SUPERFICI
100
AcDbLine
 62
7
  6
CONTINUOUS
 10
162.4418205569
 20
84.175536434
 11
161.6146127631
 21
84.175536434
  0
LINE
  5
2FB
100
AcDbEntity
  8
DRAFT
100
AcDbLine
 62
7
  6
CONTINUOUS
 10
160.3418205569
 20
84.175536434
 11
157.0105019996
 21
84.175536434
  0
LINE
  5
2FC
100
AcDbEntity
  8
DRAFT
100
AcDbLine
 62
7
  6
CONTINUOUS
 10
139.0459313204
 20
84.175536434
 11
135.7146127631
 21
84.175536434
  0
LINE
  5
2FD
100
AcDbEntity
  8
SUPERFICI
100
AcDbLine
 62
7
  6
CONTINUOUS
 10
134.4418205569
 20
84.175536434
 11
133.6146127631
 21
84.175536434
  0
LINE
  5
2FE
100
AcDbEntity
  8
SUPERFICI
100
AcDbLine
 62
7
  6
CONTINUOUS
 10
132.3418205569
 20
84.175536434
 11
121.7146127631
 21
84.175536434
  0
LINE
  5
2FF
100
AcDbEntity
  8
0
100
AcDbLine
 62
7
  6
CONTINUOUS
 10
123.2983279246
 20
84.2802987424
 11
132.088901971
 21
84.2802987424
  0
LINE
  5
300
100
AcDbEntity
  8
0
100
AcDbLine
 62
7
  6
CONTINUOUS
 10
133.6580067321
 20
84.2802987424
 11
134.3984265879
 21
84.2802987424
  0
LINE
  5
301
100
AcDbEntity
  8
DRAFT
100
AcDbLine
 62
7
  6
CONTINUOUS
 10
135.967531349
 20
84.2802987424
 11
139.095143193
 21
84.2802987424
  0
LINE
  5
302
100
AcDbEntity
  8
DRAFT
100
AcDbLine
 62
7
  6
CONTINUOUS
 10
156.961290127
 20
84.2802987424
 11
160.088901971
 21
84.2802987424
  0
LINE
  5
303
100
AcDbEntity
  8
0
100
AcDbLine
 62
7
  6
CONTINUOUS
 10
161.6580067321
 20
84.2802987424
 11
162.3984265879
 21
84.2802987424
  0
LINE
  5
304
100
AcDbEntity
  8
0
100
AcDbLine
 62
7
  6
CONTINUOUS
 10
163.967531349
 20
84.2802987424
 11
172.7581053954
 21
84.2802987424
  0
LINE
  5
305
100
AcDbEntity
  8
0
100
AcDbLine
 62
7
  6
CONTINUOUS
 10
133.7280643551
 20
85.275536434
 11
135.3936642794
 21
85.275536434
  0
LINE
  5
306
100
AcDbEntity
  8
0
100
AcDbLine
 62
7
  6
CONTINUOUS
 10
136.9627690405
 20
85.275536434
 11
140.1724505181
 21
85.275536434
  0
LINE
  5
307
100
AcDbEntity
  8
0
100
AcDbLine
 62
7
  6
CONTINUOUS
 10
155.8839828019
 20
85.275536434
 11
159.0936642794
 21
85.275536434
  0
LINE
  5
308
100
AcDbEntity
  8
0
100
AcDbLine
 62
7
  6
CONTINUOUS
 10
160.6627690405
 20
85.275536434
 11
162.3283689648
 21
85.275536434
  0
LINE
  5
309
100
AcDbEntity
  8
0
100
AcDbLine
 62
250
  6
CONTINUOUS
 10
133.7667092043
 20
85.3141812831
 11
135.541646581
 21
85.3141812831
  0
LINE
  5
30A
100
AcDbEntity
  8
0
100
AcDbLine
 62
250
  6
CONTINUOUS
 10
136.8920764372
 20
85.3141812831
 11
140.2649659331
 21
85.3141812831
  0
LINE
  5
30B
100
AcDbEntity
  8
0
100
AcDbLine
 62
250
  6
CONTINUOUS
 10
155.7914673869
 20
85.3141812831
 11
159.1643568827
 21
85.3141812831
  0
LINE
  5
30C
100
AcDbEntity
  8
0
100
AcDbLine
 62
250
  6
CONTINUOUS
 10
160.5147867389
 20
85.3141812831
 11
162.2897241157
 21
85.3141812831
  0
LINE
  5
30D
100
AcDbEntity
  8
DRAFT
100
AcDbLine
 62
7
  6
CONTINUOUS
 10
134.8631778414
 20
83.1582899632
 11
138.4065515606
 21
83.156619975
  0
LINE
  5
30E
100
AcDbEntity
  8
0
100
AcDbLine
 62
7
  6
CONTINUOUS
 10
123.8616236921
 20
83.167180773
 11
133.1936534752
 21
83.1592508121
  0
LWPOLYLINE
  5
30F
100
AcDbEntity
  8
RACCORDO
100
AcDbPolyline
 62
250
  6
CONTINUOUS
 90
22
 70
0
 10
115.5222433888
 20
85.8707811376
 10
115.4857447515
 20
85.8720185415
 10
115.4492927035
 20
85.8759327518
 10
115.4130845382
 20
85.8825384438
 10
115.3772852491
 20
85.891844697
 10
115.3421350186
 20
85.9038318743
 10
115.3079394469
 20
85.9184261397
 10
115.2749060048
 20
85.9355517884
 10
115.2432077622
 20
85.9551306682
 10
115.2130769146
 20
85.9770294572
 10
115.1847094633
 20
86.0011009058
 10
115.1582298311
 20
86.027232898
 10
115.1337502535
 20
86.0553240499
 10
115.1114168294
 20
86.0852266263
 10
115.0913636155
 20
86.1167819398
 10
115.0736879347
 20
86.1498710778
 10
115.058495165
 20
86.184364894
 10
115.0459185797
 20
86.2200377351
 10
115.0360714141
 20
86.2566109346
 10
115.0290206926
 20
86.2938497833
 10
115.0248067026
 20
86.3315717412
 10
115.0234613636
 20
86.3695631627
  0
LINE
  5
310
100
AcDbEntity
  8
0
100
AcDbLine
 62
7
  6
CONTINUOUS
 10
172.7581053954
 20
84.2802987424
 11
174.2045417109
 21
84.2323991938
  0
LWPOLYLINE
  5
311
100
AcDbEntity
  8
RACCORDO
100
AcDbPolyline
 62
250
  6
CONTINUOUS
 90
22
 70
0
 10
172.7841899312
 20
80.4296827429
 10
172.8393156586
 20
80.4276938755
 10
172.8937815722
 20
80.4216952826
 10
172.947587672
 20
80.411686964
 10
173.0010808809
 20
80.3975896853
 10
173.053914276
 20
80.379482681
 10
173.1050470887
 20
80.357603655
 10
173.1544235712
 20
80.3318639446
 10
173.2020994713
 20
80.3023522125
 10
173.2472012639
 20
80.2695721503
 10
173.2896452619
 20
80.2335003714
 10
173.3295151524
 20
80.1941602623
 10
173.3661884716
 20
80.1521256749
 10
173.3996346487
 20
80.1073621655
 10
173.4298842544
 20
80.0599041778
 10
173.456406538
 20
80.0104288936
 10
173.4791668789
 20
79.9588308782
 10
173.4981998976
 20
79.9052155662
 10
173.5130787049
 20
79.8505764443
 10
173.5236610044
 20
79.7952446746
 10
173.5300890924
 20
79.7388890949
 10
173.5323629689
 20
79.6815097052
  0
LWPOLYLINE
  5
312
100
AcDbEntity
  8
RACCORDO
100
AcDbPolyline
 62
250
  6
CONTINUOUS
 90
22
 70
0
 10
115.5222433888
 20
85.621390125
 10
115.4671176614
 20
85.6233789924
 10
115.4126517477
 20
85.6293775853
 10
115.3588456479
 20
85.6393859039
 10
115.305352439
 20
85.6534831826
 10
115.2525190439
 20
85.6715901869
 10
115.2013862312
 20
85.6934692129
 10
115.1520097488
 20
85.7192089233
 10
115.1043338487
 20
85.7487206554
 10
115.0592320561
 20
85.7815007176
 10
115.0167880581
 20
85.8175724966
 10
114.9769181676
 20
85.8569126056
 10
114.9402448483
 20
85.8989471931
 10
114.9067986713
 20
85.9437107024
 10
114.8765490655
 20
85.9911686901
 10
114.8500267819
 20
86.0406439743
 10
114.8272664411
 20
86.0922419897
 10
114.8082334223
 20
86.1458573017
 10
114.793354615
 20
86.2004964236
 10
114.7827723156
 20
86.2558281933
 10
114.7763442276
 20
86.312183773
 10
114.7740703511
 20
86.3695631627
  0
LINE
  5
313
100
AcDbEntity
  8
0
100
AcDbLine
 62
7
  6
CONTINUOUS
 10
123.8616236921
 20
83.167180773
 11
121.914290473
 21
83.237058737
  0
LWPOLYLINE
  5
314
100
AcDbEntity
  8
0
100
AcDbPolyline
 62
7
  6
CONTINUOUS
 90
3
 70
0
 10
132.1571396342
 20
86.525536434
 10
132.0885041276
 20
86.5309381308
 10
132.0196644606
 20
86.5438621264
  0
LWPOLYLINE
  5
315
100
AcDbEntity
  8
0
100
AcDbPolyline
 62
250
  6
CONTINUOUS
 90
3
 70
0
 10
132.5150315531
 20
86.7123970186
 10
132.4646549205
 20
86.7166729405
 10
132.4595610014
 20
86.7175876172
  0
LWPOLYLINE
  5
316
100
AcDbEntity
  8
0
100
AcDbPolyline
 62
250
  6
CONTINUOUS
 90
9
 70
0
 10
132.3367461846
 20
86.53411165
 10
132.2846682279
 20
86.5386829821
 10
132.2341724814
 20
86.5522262667
 10
132.1867926482
 20
86.5743299427
 10
132.1439677667
 20
86.6043224302
 10
132.1069983986
 20
86.6412926142
 10
132.0770071876
 20
86.6841175841
 10
132.0549049063
 20
86.7314966115
 10
132.0413627474
 20
86.7819906105
  0
LINE
  5
317
100
AcDbEntity
  8
DRAFT
100
AcDbLine
 62
7
  6
CONTINUOUS
 10
131.6151342353
 20
86.3231712392
 11
131.4146127631
 21
86.375536434
  0
LWPOLYLINE
  5
318
100
AcDbEntity
  8
0
100
AcDbPolyline
 62
7
  6
CONTINUOUS
 90
9
 70
0
 10
132.4595610014
 20
86.7175876172
 10
132.4151667444
 20
86.7295397249
 10
132.3680784543
 20
86.7509054066
 10
132.3247625418
 20
86.7805250553
 10
132.2868941925
 20
86.8176749887
 10
132.2561595828
 20
86.8609115421
 10
132.233585768
 20
86.9087024644
 10
132.219748588
 20
86.9597101959
 10
132.2151245382
 20
87.0071155771
  0
LWPOLYLINE
  5
319
100
AcDbEntity
  8
0
100
AcDbPolyline
 62
7
  6
CONTINUOUS
 90
8
 70
0
 10
132.0196644606
 20
86.5438621264
 10
131.9506206333
 20
86.564308421
 10
131.8811949519
 20
86.5931884533
 10
131.8115651101
 20
86.6295907846
 10
131.7422641888
 20
86.6707810979
 10
131.6734698816
 20
86.7158479542
 10
131.6050044948
 20
86.7657027925
 10
131.5368680284
 20
86.8203456129
  0
LINE
  5
31A
100
AcDbEntity
  8
0
100
AcDbLine
 62
7
  6
CONTINUOUS
 10
136.8920764372
 20
85.3141812831
 11
136.9627690405
 21
85.275536434
  0
LWPOLYLINE
  5
31B
100
AcDbEntity
  8
RACCORDO
100
AcDbPolyline
 62
7
  6
CONTINUOUS
 90
10
 70
0
 10
129.3470699364
 20
90.0007936641
 10
129.3657713278
 20
89.9855507581
 10
129.3856370311
 20
89.9718603034
 10
129.4065385501
 20
89.9598108102
 10
129.428340636
 20
89.9494802034
 10
129.4509023313
 20
89.9409352356
 10
129.4740779
 20
89.9342311024
 10
129.4977175299
 20
89.9294111769
 10
129.5216682841
 20
89.9265066811
 10
129.5457752715
 20
89.925536434
  0
LINE
  5
31C
100
AcDbEntity
  8
DRAFT
100
AcDbLine
 62
7
  6
CONTINUOUS
 10
120.02821666
 20
97.926501189
 11
118.5824574148
 21
99.3611545613
  0
LINE
  5
31D
100
AcDbEntity
  8
0
100
AcDbLine
 62
7
  6
CONTINUOUS
 10
121.82821666
 20
96.1370472181
 11
120.8343595645
 21
97.125536434
  0
LINE
  5
31E
100
AcDbEntity
  8
RACCORDO
100
AcDbLine
 62
250
  6
CONTINUOUS
 10
138.7841899312
 20
78.1207811376
 11
138.5049803514
 21
78.3999907174
  0
LINE
  5
31F
100
AcDbEntity
  8
RACCORDO
100
AcDbLine
 62
250
  6
CONTINUOUS
 10
115.0234613636
 20
101.8815097052
 11
115.2985533018
 21
101.606417767
  0
LINE
  5
320
100
AcDbEntity
  8
DRAFT
100
AcDbLine
 62
7
  6
CONTINUOUS
 10
120.02821666
 20
97.761932537
 11
118.52821666
 21
99.261932537
  0
LINE
  5
321
100
AcDbEntity
  8
0
100
AcDbLine
 62
7
  6
CONTINUOUS
 10
120.6646127631
 20
97.125536434
 11
121.82821666
 21
95.961932537
  0
LINE
  5
322
100
AcDbEntity
  8
DRAFT
100
AcDbLine
 62
7
  6
CONTINUOUS
 10
131.4146127631
 20
86.375536434
 11
133.6146127631
 21
84.175536434
  0
LINE
  5
323
100
AcDbEntity
  8
0
100
AcDbLine
 62
7
  6
CONTINUOUS
 10
134.6646127631
 20
83.125536434
 11
136.1646127631
 21
81.625536434
  0
LINE
  5
324
100
AcDbEntity
  8
RACCORDO
100
AcDbLine
 62
250
  6
CONTINUOUS
 10
139.2829719563
 20
78.6195631627
 11
138.9950614777
 21
78.9074736413
  0
LINE
  5
325
100
AcDbEntity
  8
RACCORDO
100
AcDbLine
 62
250
  6
CONTINUOUS
 10
115.5222433888
 20
102.3802917303
 11
115.8062056876
 21
102.0963294315
  0
LINE
  5
326
100
AcDbEntity
  8
DRAFT
100
AcDbLine
 62
7
  6
CONTINUOUS
 10
131.6151342353
 20
86.3231712392
 11
133.6580067321
 21
84.2802987424
  0
LINE
  5
327
100
AcDbEntity
  8
0
100
AcDbLine
 62
7
  6
CONTINUOUS
 10
136.3195177016
 20
81.625536434
 11
134.8301716472
 21
83.125536434
  0
LWPOLYLINE
  5
328
100
AcDbEntity
  8
RACCORDO
100
AcDbPolyline
 62
7
  6
CONTINUOUS
 90
10
 70
0
 10
125.5389599958
 20
94.1116205211
 10
125.5265668497
 20
94.1292887449
 10
125.5154762525
 20
94.1478021556
 10
125.5057455769
 20
94.1670649381
 10
125.4974251756
 20
94.1869773606
 10
125.4905580678
 20
94.2074364126
 10
125.4851797472
 20
94.2283363484
 10
125.4813180556
 20
94.2495690631
 10
125.4789930086
 20
94.2710246423
 10
125.47821666
 20
94.2925920595
  0
LWPOLYLINE
  5
329
100
AcDbEntity
  8
RACCORDO
100
AcDbPolyline
 62
7
  6
CONTINUOUS
 90
7
 70
0
 10
125.4235067804
 20
94.0733272968
 10
125.4051970572
 20
94.1008409041
 10
125.39017832
 20
94.1293917946
 10
125.3784505689
 20
94.1589799683
 10
125.3700138037
 20
94.1896054252
 10
125.3648680246
 20
94.2212681654
 10
125.3630132315
 20
94.2539681887
  0
LWPOLYLINE
  5
32A
100
AcDbEntity
  8
RACCORDO
100
AcDbPolyline
 62
7
  6
CONTINUOUS
 90
16
 70
0
 10
123.048776106
 20
142.8448779051
 10
123.053003067
 20
142.7875194555
 10
123.0637667126
 20
142.7317018728
 10
123.0806754947
 20
142.678123563
 10
123.1033927205
 20
142.6271964175
 10
123.1313372484
 20
142.5796993012
 10
123.1634598709
 20
142.5366429555
 10
123.1985912052
 20
142.4986516506
 10
123.2363334362
 20
142.4653578561
 10
123.276815433
 20
142.4362206902
 10
123.3197185071
 20
142.4113212292
 10
123.3644012685
 20
142.390895692
 10
123.4107569892
 20
142.3748776317
 10
123.4584678302
 20
142.3633626383
 10
123.5069528251
 20
142.3564876896
 10
123.5557512058
 20
142.3542889546
  0
LWPOLYLINE
  5
32B
100
AcDbEntity
  8
RACCORDO
100
AcDbPolyline
 62
7
  6
CONTINUOUS
 90
6
 70
0
 10
125.4057023751
 20
129.7769010294
 10
125.4065309801
 20
129.738847876
 10
125.4073924075
 20
129.7091553016
 10
125.4082760847
 20
129.6885343854
 10
125.4091925845
 20
129.6762740482
 10
125.4101419068
 20
129.67237429
  0
LINE
  5
32C
100
AcDbEntity
  8
RACCORDO
100
AcDbLine
 62
7
  6
CONTINUOUS
 10
123.0411977936
 20
143.3637732753
 11
123.048776106
 21
142.8448779051
  0
LINE
  5
32D
100
AcDbEntity
  8
RACCORDO
100
AcDbLine
 62
7
  6
CONTINUOUS
 10
125.4042462713
 20
129.8715173693
 11
125.4057023751
 21
129.7769010294
  0
LINE
  5
32E
100
AcDbEntity
  8
RACCORDO
100
AcDbLine
 62
7
  6
CONTINUOUS
 10
125.4025844744
 20
130.0548235498
 11
125.4042462713
 21
129.8715173693
  0
LINE
  5
32F
100
AcDbEntity
  8
0
100
AcDbLine
 62
250
  6
CONTINUOUS
 10
125.6403617206
 20
140.6255421433
 11
125.6487580195
 21
139.0861831103
  0
LINE
  5
330
100
AcDbEntity
  8
RACCORDO
100
AcDbLine
 62
7
  6
CONTINUOUS
 10
125.4014763777
 20
130.3566936078
 11
125.4025844744
 21
130.0548235498
  0
LINE
  5
331
100
AcDbEntity
  8
RACCORDO
100
AcDbLine
 62
250
  6
CONTINUOUS
 10
122.5240703511
 20
78.6195631627
 11
122.5240703511
 21
79.6815097052
  0
LINE
  5
332
100
AcDbEntity
  8
RACCORDO
100
AcDbLine
 62
250
  6
CONTINUOUS
 10
122.5240703511
 20
142.5695631627
 11
122.5240703511
 21
143.6315097052
  0
LINE
  5
333
100
AcDbEntity
  8
RACCORDO
100
AcDbLine
 62
250
  6
CONTINUOUS
 10
122.7734613636
 20
78.6195631627
 11
122.7734613636
 21
79.6815097052
  0
LINE
  5
334
100
AcDbEntity
  8
RACCORDO
100
AcDbLine
 62
250
  6
CONTINUOUS
 10
122.7734613636
 20
142.5695631627
 11
122.7734613636
 21
143.6315097052
  0
LINE
  5
335
100
AcDbEntity
  8
ASSI
100
AcDbLine
 62
7
  6
CONTINUOUS
 10
123.02821666
 20
116.1458147064
 11
123.02821666
 21
114.761932537
  0
LINE
  5
336
100
AcDbEntity
  8
DRAFT
100
AcDbLine
 62
7
  6
CONTINUOUS
 10
123.02821666
 20
113.4891403309
 11
123.02821666
 21
111.575536434
  0
LINE
  5
337
100
AcDbEntity
  8
DRAFT
100
AcDbLine
 62
7
  6
CONTINUOUS
 10
123.02821666
 20
110.675536434
 11
123.02821666
 21
108.761932537
  0
LINE
  5
338
100
AcDbEntity
  8
ASSI
100
AcDbLine
 62
7
  6
CONTINUOUS
 10
123.02821666
 20
107.4891403309
 11
123.02821666
 21
106.1052581615
  0
LINE
  5
339
100
AcDbEntity
  8
RACCORDO
100
AcDbLine
 62
250
  6
CONTINUOUS
 10
123.2722433888
 20
144.3796827429
 11
123.2722433888
 21
144.1302917303
  0
LINE
  5
33A
100
AcDbEntity
  8
RACCORDO
100
AcDbLine
 62
250
  6
CONTINUOUS
 10
123.2722433888
 20
80.4296827429
 11
123.2722433888
 21
80.1802917303
  0
LINE
  5
33B
100
AcDbEntity
  8
RACCORDO
100
AcDbLine
 62
250
  6
CONTINUOUS
 10
123.2722433888
 20
77.871390125
 11
123.2722433884
 21
78.1207811376
  0
LINE
  5
33C
100
AcDbEntity
  8
RACCORDO
100
AcDbLine
 62
250
  6
CONTINUOUS
 10
123.2722433888
 20
141.821390125
 11
123.2722433884
 21
142.0707811376
  0
LINE
  5
33D
100
AcDbEntity
  8
DRAFT
100
AcDbLine
 62
7
  6
CONTINUOUS
 10
123.42821666
 20
76.725536434
 11
123.42821666
 21
76.8306799971
  0
LINE
  5
33E
100
AcDbEntity
  8
RACCORDO
100
AcDbLine
 62
250
  6
CONTINUOUS
 10
123.77821666
 20
128.3592243736
 11
123.77821666
 21
118.125536434
  0
LINE
  5
33F
100
AcDbEntity
  8
RACCORDO
100
AcDbLine
 62
250
  6
CONTINUOUS
 10
123.77821666
 20
104.125536434
 11
123.77821666
 21
93.8918484943
  0
LINE
  5
340
100
AcDbEntity
  8
0
100
AcDbLine
 62
7
  6
CONTINUOUS
 10
124.27821666
 20
88.011932537
 11
124.27821666
 21
89.675536434
  0
LINE
  5
341
100
AcDbEntity
  8
0
100
AcDbLine
 62
7
  6
CONTINUOUS
 10
124.27821666
 20
94.052165355
 11
124.27821666
 21
128.1989075129
  0
LINE
  5
342
100
AcDbEntity
  8
0
100
AcDbLine
 62
7
  6
CONTINUOUS
 10
124.27821666
 20
132.575536434
 11
124.27821666
 21
134.2391403309
  0
LINE
  5
343
100
AcDbEntity
  8
RACCORDO
100
AcDbLine
 62
7
  6
CONTINUOUS
 10
125.3630132315
 20
94.2539681887
 11
125.3630132315
 21
127.9971046793
  0
LINE
  5
344
100
AcDbEntity
  8
RACCORDO
100
AcDbLine
 62
7
  6
CONTINUOUS
 10
125.4014143743
 20
133.4773200167
 11
125.4014763777
 21
130.3566936078
  0
LINE
  5
345
100
AcDbEntity
  8
RACCORDO
100
AcDbLine
 62
7
  6
CONTINUOUS
 10
125.47821666
 20
127.9584808084
 11
125.47821666
 21
122.125536434
  0
LINE
  5
346
100
AcDbEntity
  8
RACCORDO
100
AcDbLine
 62
7
  6
CONTINUOUS
 10
125.47821666
 20
100.125536434
 11
125.47821666
 21
94.2925920595
  0
LINE
  5
347
100
AcDbEntity
  8
0
100
AcDbLine
 62
7
  6
CONTINUOUS
 10
125.47821666
 20
100.125536434
 11
125.47821666
 21
122.125536434
  0
LINE
  5
348
100
AcDbEntity
  8
0
100
AcDbLine
 62
7
  6
CONTINUOUS
 10
125.52821666
 20
122.125536434
 11
125.52821666
 21
120.125536434
  0
LINE
  5
349
100
AcDbEntity
  8
0
100
AcDbLine
 62
7
  6
CONTINUOUS
 10
125.52821666
 20
102.125536434
 11
125.52821666
 21
100.125536434
  0
LINE
  5
34A
100
AcDbEntity
  8
0
100
AcDbLine
 62
7
  6
CONTINUOUS
 10
125.52821666
 20
110.125536434
 11
125.52821666
 21
112.125536434
  0
LINE
  5
34B
100
AcDbEntity
  8
RACCORDO
100
AcDbLine
 62
7
  6
CONTINUOUS
 10
125.4018584996
 20
92.052891115
 11
125.4014143743
 21
88.7737528513
  0
LINE
  5
34C
100
AcDbEntity
  8
0
100
AcDbLine
 62
250
  6
CONTINUOUS
 10
125.6477397898
 20
83.1648904511
 11
125.6392404874
 21
81.625538011
  0
LINE
  5
34D
100
AcDbEntity
  8
RACCORDO
100
AcDbLine
 62
7
  6
CONTINUOUS
 10
125.4030707475
 20
92.2625137771
 11
125.4018584996
 21
92.052891115
  0
LINE
  5
34E
100
AcDbEntity
  8
RACCORDO
100
AcDbLine
 62
7
  6
CONTINUOUS
 10
125.4042531752
 20
92.3801207263
 11
125.4030707475
 21
92.2625137771
  0
LINE
  5
34F
100
AcDbEntity
  8
RACCORDO
100
AcDbLine
 62
7
  6
CONTINUOUS
 10
123.048776106
 20
79.4061949628
 11
123.0411977936
 21
78.8872995927
  0
LWPOLYLINE
  5
350
100
AcDbEntity
  8
RACCORDO
100
AcDbPolyline
 62
250
  6
CONTINUOUS
 90
22
 70
0
 10
122.7734613636
 20
79.6815097052
 10
122.7746987675
 20
79.7180083424
 10
122.7786129778
 20
79.7544603905
 10
122.7852186698
 20
79.7906685558
 10
122.794524923
 20
79.8264678449
 10
122.8065121003
 20
79.8616180754
 10
122.8211063658
 20
79.895813647
 10
122.8382320144
 20
79.9288470891
 10
122.8578108943
 20
79.9605453317
 10
122.8797096832
 20
79.9906761794
 10
122.9037811318
 20
80.0190436306
 10
122.9299131241
 20
80.0455232629
 10
122.958004276
 20
80.0700028404
 10
122.9879068523
 20
80.0923362646
 10
123.0194621659
 20
80.1123894785
 10
123.0525513038
 20
80.1300651592
 10
123.0870451201
 20
80.1452579289
 10
123.1227179612
 20
80.1578345143
 10
123.1592911607
 20
80.1676816798
 10
123.1965300094
 20
80.1747324014
 10
123.2342519672
 20
80.1789463913
 10
123.2722433888
 20
80.1802917303
  0
LWPOLYLINE
  5
351
100
AcDbEntity
  8
RACCORDO
100
AcDbPolyline
 62
250
  6
CONTINUOUS
 90
22
 70
0
 10
122.5240703511
 20
79.6815097052
 10
122.5260592184
 20
79.7366354326
 10
122.5320578114
 20
79.7911013462
 10
122.5420661299
 20
79.844907446
 10
122.5561634086
 20
79.8984006549
 10
122.5742704129
 20
79.95123405
 10
122.5961494389
 20
80.0023668627
 10
122.6218891493
 20
80.0517433452
 10
122.6514008814
 20
80.0994192452
 10
122.6841809436
 20
80.1445210378
 10
122.7202527226
 20
80.1869650358
 10
122.7595928316
 20
80.2268349263
 10
122.8016274191
 20
80.2635082456
 10
122.8463909284
 20
80.2969544226
 10
122.8938489161
 20
80.3272040284
 10
122.9433242003
 20
80.353726312
 10
122.9949222158
 20
80.3764866529
 10
123.0485375277
 20
80.3955196716
 10
123.1031766496
 20
80.4103984789
 10
123.1585084193
 20
80.4209807783
 10
123.2148639991
 20
80.4274088663
 10
123.2722433888
 20
80.4296827429
  0
LWPOLYLINE
  5
352
100
AcDbEntity
  8
RACCORDO
100
AcDbPolyline
 62
7
  6
CONTINUOUS
 90
7
 70
0
 10
125.3630132315
 20
127.9971046793
 10
125.3648680246
 20
128.0298047026
 10
125.3700138037
 20
128.0614674427
 10
125.3784505689
 20
128.0920928996
 10
125.39017832
 20
128.1216810733
 10
125.4051970572
 20
128.1502319638
 10
125.4235067804
 20
128.1777455711
  0
LINE
  5
353
100
AcDbEntity
  8
DRAFT
100
AcDbLine
 62
7
  6
CONTINUOUS
 10
118.5815761517
 20
96.4662614597
 11
118.52821666
 21
96.261932537
  0
LINE
  5
354
100
AcDbEntity
  8
0
100
AcDbLine
 62
7
  6
CONTINUOUS
 10
134.8631778414
 20
139.0927829047
 11
134.8146127631
 21
138.975536434
  0
LINE
  5
355
100
AcDbEntity
  8
0
100
AcDbLine
 62
7
  6
CONTINUOUS
 10
134.4418205569
 20
138.075536434
 11
134.3984265879
 21
137.9707741255
  0
LINE
  5
356
100
AcDbEntity
  8
SMUSSO
100
AcDbLine
 62
7
  6
CONTINUOUS
 10
139.92821666
 20
133.425536434
 11
140.0091346383
 21
133.5064544123
  0
LINE
  5
357
100
AcDbEntity
  8
0
100
AcDbLine
 62
7
  6
CONTINUOUS
 10
135.3936642794
 20
85.275536434
 11
135.541646581
 21
85.3141812831
  0
LWPOLYLINE
  5
358
100
AcDbEntity
  8
RACCORDO
100
AcDbPolyline
 62
7
  6
CONTINUOUS
 90
13
 70
0
 10
116.3138545452
 20
86.1411165237
 10
116.3869422437
 20
86.1477253281
 10
116.4572846309
 20
86.1648642243
 10
116.5234734743
 20
86.1916921893
 10
116.5846622394
 20
86.2274779409
 10
116.6394169554
 20
86.2709311381
 10
116.6861046549
 20
86.3197388546
 10
116.7242407175
 20
86.3717633922
 10
116.7544156836
 20
86.4260083778
 10
116.7771618426
 20
86.4816955517
 10
116.7928384276
 20
86.5379356265
 10
116.8017964695
 20
86.5936276205
 10
116.8045684203
 20
86.6479666988
  0
LWPOLYLINE
  5
359
100
AcDbEntity
  8
0
100
AcDbPolyline
 62
250
  6
CONTINUOUS
 90
4
 70
0
 10
131.9905745928
 20
86.8284412509
 10
131.9765561092
 20
86.8276617968
 10
131.9613005013
 20
86.8269286368
 10
131.9449760629
 20
86.8262419818
  0
LWPOLYLINE
  5
35A
100
AcDbEntity
  8
RACCORDO
100
AcDbPolyline
 62
7
  6
CONTINUOUS
 90
10
 70
0
 10
166.5105890752
 20
89.925536434
 10
166.5347122377
 20
89.9265077212
 10
166.5586792187
 20
89.9294148768
 10
166.5823349565
 20
89.934239008
 10
166.6055264239
 20
89.9409488604
 10
166.628103625
 20
89.9495008856
 10
166.6499205423
 20
89.9598395858
 10
166.6708360757
 20
89.9718980229
 10
166.6907149775
 20
89.9855981937
 10
166.7094287178
 20
90.0008514409
  0
LINE
  5
35B
100
AcDbEntity
  8
DRAFT
100
AcDbLine
 62
250
  6
CONTINUOUS
 10
174.22821666
 20
87.0832522593
 11
177.4788825592
 21
87.2110445246
  0
LINE
  5
35C
100
AcDbEntity
  8
0
100
AcDbLine
 62
250
  6
CONTINUOUS
 10
131.9449760629
 20
86.8262419818
 11
131.9098376422
 21
86.8250101423
  0
LINE
  5
35D
100
AcDbEntity
  8
0
100
AcDbLine
 62
250
  6
CONTINUOUS
 10
132.2641501232
 20
86.5285359301
 11
132.2250701873
 21
86.5272355473
  0
LINE
  5
35E
100
AcDbEntity
  8
0
100
AcDbLine
 62
250
  6
CONTINUOUS
 10
131.9098376422
 20
86.8250101423
 11
131.872420598
 21
86.8239570448
  0
LINE
  5
35F
100
AcDbEntity
  8
0
100
AcDbLine
 62
250
  6
CONTINUOUS
 10
132.2250701873
 20
86.5272355473
 11
132.1810995998
 21
86.5260693699
  0
LWPOLYLINE
  5
360
100
AcDbEntity
  8
0
100
AcDbPolyline
 62
250
  6
CONTINUOUS
 90
25
 70
0
 10
162.2897241157
 20
86.1140594392
 10
162.3009643024
 20
86.1143296616
 10
162.3122640863
 20
86.1152941801
 10
162.3236234673
 20
86.1169529949
 10
162.3350924376
 20
86.1192870948
 10
162.346621005
 20
86.1223154909
 10
162.3580591934
 20
86.1260952165
 10
162.3694278058
 20
86.1306490062
 10
162.3807060392
 20
86.1359541252
 10
162.3916815081
 20
86.1419994027
 10
162.4023495078
 20
86.1488079171
 10
162.4127147431
 20
86.1563565899
 10
162.4225789424
 20
86.1645650146
 10
162.4319177296
 20
86.1734288303
 10
162.440755481
 20
86.1829523979
 10
162.4489670541
 20
86.1930683927
 10
162.4565396211
 20
86.2037244862
 10
162.4634860099
 20
86.2149730069
 10
162.4697195622
 20
86.2269036155
 10
162.4752959967
 20
86.2395077341
 10
162.4801595947
 20
86.2527939405
 10
162.484056541
 20
86.2668776287
 10
162.4869022306
 20
86.2817972634
 10
162.4887812685
 20
86.2975143799
 10
162.4896936547
 20
86.3140289783
  0
LINE
  5
361
100
AcDbEntity
  8
0
100
AcDbLine
 62
250
  6
CONTINUOUS
 10
132.1810995998
 20
86.5260693699
 11
132.1571396364
 21
86.525536434
  0
LWPOLYLINE
  5
362
100
AcDbEntity
  8
RACCORDO
100
AcDbPolyline
 62
7
  6
CONTINUOUS
 90
6
 70
0
 10
129.3465221653
 20
88.5280790113
 10
129.3844723991
 20
88.5289065297
 10
129.4140927066
 20
88.5297673341
 10
129.4346796681
 20
88.53065109
 10
129.4469367034
 20
88.5315681319
 10
129.4508638124
 20
88.5325184599
  0
LINE
  5
363
100
AcDbEntity
  8
0
100
AcDbLine
 62
250
  6
CONTINUOUS
 10
131.872420598
 20
86.8239570448
 11
131.8142706116
 21
86.8226912796
  0
LINE
  5
364
100
AcDbEntity
  8
RACCORDO
100
AcDbLine
 62
7
  6
CONTINUOUS
 10
115.7848051009
 20
86.1333428498
 11
116.3138545452
 21
86.1411165237
  0
LINE
  5
365
100
AcDbEntity
  8
0
100
AcDbLine
 62
250
  6
CONTINUOUS
 10
131.8142706116
 20
86.8226912796
 11
131.7556012494
 21
86.8217520092
  0
LINE
  5
366
100
AcDbEntity
  8
RACCORDO
100
AcDbLine
 62
7
  6
CONTINUOUS
 10
129.252132932
 20
88.5266240509
 11
129.3465221653
 21
88.5280790113
  0
LINE
  5
367
100
AcDbEntity
  8
0
100
AcDbLine
 62
250
  6
CONTINUOUS
 10
131.7556012494
 20
86.8217520092
 11
131.677707368
 21
86.8209106913
  0
LINE
  5
368
100
AcDbEntity
  8
RACCORDO
100
AcDbLine
 62
7
  6
CONTINUOUS
 10
129.0691591433
 20
88.5249620059
 11
129.252132932
 21
88.5266240509
  0
LINE
  5
369
100
AcDbEntity
  8
0
100
AcDbLine
 62
250
  6
CONTINUOUS
 10
131.677707368
 20
86.8209106913
 11
131.5986800632
 21
86.8204527258
  0
LINE
  5
36A
100
AcDbEntity
  8
DRAFT
100
AcDbLine
 62
7
  6
CONTINUOUS
 10
174.22821666
 20
89.558461589
 11
177.477708231
 21
89.5744887889
  0
LINE
  5
36B
100
AcDbEntity
  8
RACCORDO
100
AcDbLine
 62
7
  6
CONTINUOUS
 10
128.7676479195
 20
88.5238529734
 11
129.0691591433
 21
88.5249620059
  0
LINE
  5
36C
100
AcDbEntity
  8
0
100
AcDbLine
 62
250
  6
CONTINUOUS
 10
131.5986800632
 20
86.8204527258
 11
131.5368680284
 21
86.8203456129
  0
LINE
  5
36D
100
AcDbEntity
  8
RACCORDO
100
AcDbLine
 62
250
  6
CONTINUOUS
 10
180.5341899312
 20
85.621390125
 11
179.4722433888
 21
85.621390125
  0
LINE
  5
36E
100
AcDbEntity
  8
RACCORDO
100
AcDbLine
 62
250
  6
CONTINUOUS
 10
116.5841899312
 20
85.621390125
 11
115.5222433888
 21
85.621390125
  0
LINE
  5
36F
100
AcDbEntity
  8
RACCORDO
100
AcDbLine
 62
250
  6
CONTINUOUS
 10
180.5341899312
 20
85.8707811376
 11
179.4722433888
 21
85.8707811376
  0
LINE
  5
370
100
AcDbEntity
  8
RACCORDO
100
AcDbLine
 62
250
  6
CONTINUOUS
 10
116.5841899312
 20
85.8707811376
 11
115.5222433888
 21
85.8707811376
  0
LINE
  5
371
100
AcDbEntity
  8
0
100
AcDbLine
 62
250
  6
CONTINUOUS
 10
133.7667092043
 20
86.1140594392
 11
136.3803435622
 21
86.1140594392
  0
LINE
  5
372
100
AcDbEntity
  8
0
100
AcDbLine
 62
250
  6
CONTINUOUS
 10
137.6531357683
 20
86.1140594392
 11
141.02821666
 21
86.1140594392
  0
LINE
  5
373
100
AcDbEntity
  8
0
100
AcDbLine
 62
250
  6
CONTINUOUS
 10
155.02821666
 20
86.1140594392
 11
158.4032975516
 21
86.1140594392
  0
LINE
  5
374
100
AcDbEntity
  8
0
100
AcDbLine
 62
250
  6
CONTINUOUS
 10
159.6760897578
 20
86.1140594392
 11
162.2897241157
 21
86.1140594392
  0
LINE
  5
375
100
AcDbEntity
  8
0
100
AcDbLine
 62
250
  6
CONTINUOUS
 10
133.5667396653
 20
86.3140289783
 11
132.7668615091
 21
86.3140289782
  0
LINE
  5
376
100
AcDbEntity
  8
0
100
AcDbLine
 62
250
  6
CONTINUOUS
 10
162.4896936547
 20
86.3140289783
 11
163.2895718108
 21
86.3140289783
  0
LINE
  5
377
100
AcDbEntity
  8
0
100
AcDbLine
 62
7
  6
CONTINUOUS
 10
164.4412990847
 20
86.3231712392
 11
163.32821666
 21
86.3231712392
  0
LINE
  5
378
100
AcDbEntity
  8
0
100
AcDbLine
 62
7
  6
CONTINUOUS
 10
132.72821666
 20
86.3231712392
 11
131.6151342353
 21
86.3231712392
  0
LINE
  5
379
100
AcDbEntity
  8
RACCORDO
100
AcDbLine
 62
250
  6
CONTINUOUS
 10
181.2823629689
 20
86.3695631627
 11
181.0329719563
 21
86.3695631624
  0
LINE
  5
37A
100
AcDbEntity
  8
RACCORDO
100
AcDbLine
 62
250
  6
CONTINUOUS
 10
117.3323629689
 20
86.3695631627
 11
117.0829719563
 21
86.3695631624
  0
LINE
  5
37B
100
AcDbEntity
  8
RACCORDO
100
AcDbLine
 62
250
  6
CONTINUOUS
 10
114.7740703511
 20
86.3695631627
 11
115.0234613636
 21
86.3695631627
  0
LINE
  5
37C
100
AcDbEntity
  8
RACCORDO
100
AcDbLine
 62
250
  6
CONTINUOUS
 10
178.7240703511
 20
86.3695631627
 11
178.9734613636
 21
86.3695631627
  0
LINE
  5
37D
100
AcDbEntity
  8
0
100
AcDbLine
 62
7
  6
CONTINUOUS
 10
131.4146127631
 20
86.375536434
 11
133.5667396653
 21
86.375536434
  0
LINE
  5
37E
100
AcDbEntity
  8
0
100
AcDbLine
 62
7
  6
CONTINUOUS
 10
162.4896936547
 20
86.375536434
 11
164.6418205569
 21
86.375536434
  0
LINE
  5
37F
100
AcDbEntity
  8
0
100
AcDbLine
 62
7
  6
CONTINUOUS
 10
163.8992935618
 20
86.5255364378
 11
132.1571396364
 21
86.525536434
  0
LINE
  5
380
100
AcDbEntity
  8
DRAFT
100
AcDbLine
 62
7
  6
CONTINUOUS
 10
182.42821666
 20
86.525536434
 11
182.4735833538
 21
86.525536434
  0
LINE
  5
381
100
AcDbEntity
  8
0
100
AcDbLine
 62
7
  6
CONTINUOUS
 10
144.27821666
 20
86.575536434
 11
151.77821666
 21
86.575536434
  0
LINE
  5
382
100
AcDbEntity
  8
0
100
AcDbLine
 62
250
  6
CONTINUOUS
 10
132.5150315531
 20
86.7123970186
 11
144.27821666
 21
86.7123970186
  0
LINE
  5
383
100
AcDbEntity
  8
0
100
AcDbLine
 62
250
  6
CONTINUOUS
 10
151.77821666
 20
86.7123970186
 11
163.5414017668
 21
86.7123970186
  0
LINE
  5
384
100
AcDbEntity
  8
RACCORDO
100
AcDbLine
 62
250
  6
CONTINUOUS
 10
165.2619045996
 20
86.875536434
 11
164.5195652915
 21
86.875536434
  0
LINE
  5
385
100
AcDbEntity
  8
RACCORDO
100
AcDbLine
 62
250
  6
CONTINUOUS
 10
131.5368680284
 20
86.875536434
 11
130.7945287204
 21
86.875536434
  0
LINE
  5
386
100
AcDbEntity
  8
0
100
AcDbLine
 62
250
  6
CONTINUOUS
 10
132.2150772446
 20
87.0123513271
 11
144.27821666
 21
87.0123513271
  0
LINE
  5
387
100
AcDbEntity
  8
0
100
AcDbLine
 62
250
  6
CONTINUOUS
 10
151.77821666
 20
87.0123513271
 11
163.8413560754
 21
87.0123513271
  0
LINE
  5
388
100
AcDbEntity
  8
0
100
AcDbLine
 62
7
  6
CONTINUOUS
 10
124.9146127631
 20
87.375536434
 11
129.8637596078
 21
87.375536434
  0
LINE
  5
389
100
AcDbEntity
  8
0
100
AcDbLine
 62
7
  6
CONTINUOUS
 10
130.954845581
 20
87.375536434
 11
132.5150315531
 21
87.375536434
  0
LINE
  5
38A
100
AcDbEntity
  8
0
100
AcDbLine
 62
7
  6
CONTINUOUS
 10
163.5414017668
 20
87.375536434
 11
165.101587739
 21
87.375536434
  0
LINE
  5
38B
100
AcDbEntity
  8
0
100
AcDbLine
 62
7
  6
CONTINUOUS
 10
166.1926737122
 20
87.375536434
 11
171.1418205569
 21
87.375536434
  0
LINE
  5
38C
100
AcDbEntity
  8
SMUSSO
100
AcDbLine
 62
7
  6
CONTINUOUS
 10
162.5233467638
 20
87.9304063301
 11
156.0330865561
 21
87.9304063301
  0
LINE
  5
38D
100
AcDbEntity
  8
SMUSSO
100
AcDbLine
 62
7
  6
CONTINUOUS
 10
140.0233467638
 20
87.9304063301
 11
133.5330865561
 21
87.9304063301
  0
LINE
  5
38E
100
AcDbEntity
  8
SMUSSO
100
AcDbLine
 62
7
  6
CONTINUOUS
 10
144.87821666
 20
88.025536434
 11
151.17821666
 21
88.025536434
  0
LINE
  5
38F
100
AcDbEntity
  8
RACCORDO
100
AcDbLine
 62
7
  6
CONTINUOUS
 10
125.6513762981
 20
88.5237909275
 11
128.7676479195
 21
88.5238529734
  0
LINE
  5
390
100
AcDbEntity
  8
SMUSSO
100
AcDbLine
 62
7
  6
CONTINUOUS
 10
162.5091346383
 20
88.7446184556
 11
156.0472986816
 21
88.7446184556
  0
LINE
  5
391
100
AcDbEntity
  8
SMUSSO
100
AcDbLine
 62
7
  6
CONTINUOUS
 10
140.0091346383
 20
88.7446184556
 11
133.5472986816
 21
88.7446184556
  0
LINE
  5
392
100
AcDbEntity
  8
DRAFT
100
AcDbLine
 62
7
  6
CONTINUOUS
 10
162.42821666
 20
88.825536434
 11
156.12821666
 21
88.825536434
  0
LINE
  5
393
100
AcDbEntity
  8
DRAFT
100
AcDbLine
 62
7
  6
CONTINUOUS
 10
139.92821666
 20
88.825536434
 11
133.62821666
 21
88.825536434
  0
LINE
  5
394
100
AcDbEntity
  8
SMUSSO
100
AcDbLine
 62
7
  6
CONTINUOUS
 10
144.87821666
 20
88.825536434
 11
151.17821666
 21
88.825536434
  0
LINE
  5
395
100
AcDbEntity
  8
0
100
AcDbLine
 62
7
  6
CONTINUOUS
 10
121.82821666
 20
89.5707741255
 11
124.27821666
 21
89.5707741255
  0
LINE
  5
396
100
AcDbEntity
  8
0
100
AcDbLine
 62
7
  6
CONTINUOUS
 10
171.77821666
 20
89.5707741255
 11
174.22821666
 21
89.5707741255
  0
LINE
  5
397
100
AcDbEntity
  8
DRAFT
100
AcDbLine
 62
7
  6
CONTINUOUS
 10
177.52821666
 20
89.675536434
 11
171.77821666
 21
89.675536434
  0
LINE
  5
398
100
AcDbEntity
  8
DRAFT
100
AcDbLine
 62
7
  6
CONTINUOUS
 10
124.27821666
 20
89.675536434
 11
118.52821666
 21
89.675536434
  0
LINE
  5
399
100
AcDbEntity
  8
RACCORDO
100
AcDbLine
 62
7
  6
CONTINUOUS
 10
166.3794919406
 20
89.8103330054
 11
162.5233467638
 21
89.8103330054
  0
LINE
  5
39A
100
AcDbEntity
  8
DRAFT
100
AcDbLine
 62
7
  6
CONTINUOUS
 10
156.0330865561
 20
89.8103330054
 11
151.17821666
 21
89.8103330054
  0
LINE
  5
39B
100
AcDbEntity
  8
DRAFT
100
AcDbLine
 62
7
  6
CONTINUOUS
 10
144.87821666
 20
89.8103330054
 11
140.0233467638
 21
89.8103330054
  0
LINE
  5
39C
100
AcDbEntity
  8
RACCORDO
100
AcDbLine
 62
7
  6
CONTINUOUS
 10
133.5330865561
 20
89.8103330054
 11
129.5021947535
 21
89.8103330054
  0
LINE
  5
39D
100
AcDbEntity
  8
DRAFT
100
AcDbLine
 62
7
  6
CONTINUOUS
 10
151.17821666
 20
89.9054631093
 11
144.87821666
 21
89.9054631093
  0
LINE
  5
39E
100
AcDbEntity
  8
DRAFT
100
AcDbLine
 62
7
  6
CONTINUOUS
 10
133.62821666
 20
89.9054631093
 11
139.92821666
 21
89.9054631093
  0
LINE
  5
39F
100
AcDbEntity
  8
DRAFT
100
AcDbLine
 62
7
  6
CONTINUOUS
 10
156.12821666
 20
89.9054631093
 11
162.42821666
 21
89.9054631093
  0
LINE
  5
3A0
100
AcDbEntity
  8
RACCORDO
100
AcDbLine
 62
7
  6
CONTINUOUS
 10
167.1304596323
 20
88.5242353843
 11
170.4050570219
 21
88.5237909275
  0
LINE
  5
3A1
100
AcDbEntity
  8
0
100
AcDbLine
 62
250
  6
CONTINUOUS
 10
164.5195652915
 20
86.8203456129
 11
164.435313517
 21
86.8205310004
  0
LINE
  5
3A2
100
AcDbEntity
  8
DRAFT
100
AcDbLine
 62
7
  6
CONTINUOUS
 10
118.578725089
 20
89.5744887889
 11
121.82821666
 21
89.558461589
  0
LINE
  5
3A3
100
AcDbEntity
  8
RACCORDO
100
AcDbLine
 62
7
  6
CONTINUOUS
 10
166.9211184654
 20
88.5254484012
 11
167.1304596323
 21
88.5242353843
  0
LINE
  5
3A4
100
AcDbEntity
  8
0
100
AcDbLine
 62
250
  6
CONTINUOUS
 10
164.435313517
 20
86.8205310004
 11
164.3466428997
 21
86.8212129779
  0
LINE
  5
3A5
100
AcDbEntity
  8
RACCORDO
100
AcDbLine
 62
7
  6
CONTINUOUS
 10
166.803721472
 20
88.5266311287
 11
166.9211184654
 21
88.5254484012
  0
LINE
  5
3A6
100
AcDbEntity
  8
RACCORDO
100
AcDbLine
 62
7
  6
CONTINUOUS
 10
179.7425787748
 20
86.1411165237
 11
180.271628219
 21
86.1333428498
  0
LWPOLYLINE
  5
3A7
100
AcDbEntity
  8
0
100
AcDbPolyline
 62
250
  6
CONTINUOUS
 90
11
 70
0
 10
164.3466428997
 20
86.8212129779
 10
164.2575187552
 20
86.8224176239
 10
164.2140844244
 20
86.8232643943
 10
164.1726806225
 20
86.8242635637
 10
164.134783608
 20
86.8253936639
 10
164.1009472083
 20
86.826677721
 10
164.0721003422
 20
86.8280927088
 10
164.049540232
 20
86.8295480811
 10
164.0334562393
 20
86.8310136558
 10
164.0235340904
 20
86.8325196149
 10
164.019641444
 20
86.8340659585
  0
LWPOLYLINE
  5
3A8
100
AcDbEntity
  8
0
100
AcDbPolyline
 62
250
  6
CONTINUOUS
 90
7
 70
0
 10
163.8992935618
 20
86.5255364378
 10
163.8454244637
 20
86.5268683461
 10
163.8011292431
 20
86.528239172
 10
163.7664079
 20
86.5296489153
 10
163.7412604343
 20
86.531097576
 10
163.7256868461
 20
86.5325851543
 10
163.7196871354
 20
86.53411165
  0
LWPOLYLINE
  5
3A9
100
AcDbEntity
  8
RACCORDO
100
AcDbPolyline
 62
250
  6
CONTINUOUS
 90
22
 70
0
 10
179.4722433888
 20
85.8707811376
 10
179.4357447515
 20
85.8720185415
 10
179.3992927035
 20
85.8759327518
 10
179.3630845382
 20
85.8825384438
 10
179.3272852491
 20
85.891844697
 10
179.2921350186
 20
85.9038318743
 10
179.2579394469
 20
85.9184261397
 10
179.2249060048
 20
85.9355517884
 10
179.1932077622
 20
85.9551306682
 10
179.1630769146
 20
85.9770294572
 10
179.1347094633
 20
86.0011009058
 10
179.1082298311
 20
86.027232898
 10
179.0837502535
 20
86.0553240499
 10
179.0614168294
 20
86.0852266263
 10
179.0413636155
 20
86.1167819398
 10
179.0236879347
 20
86.1498710778
 10
179.008495165
 20
86.184364894
 10
178.9959185797
 20
86.2200377351
 10
178.9860714141
 20
86.2566109346
 10
178.9790206926
 20
86.2938497833
 10
178.9748067026
 20
86.3315717412
 10
178.9734613636
 20
86.3695631627
  0
LWPOLYLINE
  5
3AA
100
AcDbEntity
  8
RACCORDO
100
AcDbPolyline
 62
250
  6
CONTINUOUS
 90
22
 70
0
 10
179.4722433888
 20
85.621390125
 10
179.4171176614
 20
85.6233789924
 10
179.3626517477
 20
85.6293775853
 10
179.3088456479
 20
85.6393859039
 10
179.255352439
 20
85.6534831826
 10
179.2025190439
 20
85.6715901869
 10
179.1513862312
 20
85.6934692129
 10
179.1020097488
 20
85.7192089233
 10
179.0543338487
 20
85.7487206554
 10
179.0092320561
 20
85.7815007176
 10
178.9667880581
 20
85.8175724966
 10
178.9269181676
 20
85.8569126056
 10
178.8902448483
 20
85.8989471931
 10
178.8567986713
 20
85.9437107024
 10
178.8265490655
 20
85.9911686901
 10
178.8000267819
 20
86.0406439743
 10
178.7772664411
 20
86.0922419897
 10
178.7582334223
 20
86.1458573017
 10
178.743354615
 20
86.2004964236
 10
178.7327723156
 20
86.2558281933
 10
178.7263442276
 20
86.312183773
 10
178.7240703511
 20
86.3695631627
  0
LINE
  5
3AB
100
AcDbEntity
  8
DRAFT
100
AcDbLine
 62
250
  6
CONTINUOUS
 10
118.5771090151
 20
87.2118283329
 11
121.8280998514
 21
87.0851365731
  0
LWPOLYLINE
  5
3AC
100
AcDbEntity
  8
RACCORDO
100
AcDbPolyline
 62
7
  6
CONTINUOUS
 90
7
 70
0
 10
129.5021947535
 20
89.8103330054
 10
129.465488157
 20
89.8127036215
 10
129.4302405435
 20
89.8191225085
 10
129.396451913
 20
89.8295896663
 10
129.3641222655
 20
89.8441050951
 10
129.333251601
 20
89.8626687947
 10
129.3038399194
 20
89.8852807652
  0
LINE
  5
3AD
100
AcDbEntity
  8
0
100
AcDbLine
 62
7
  6
CONTINUOUS
 10
160.6627690405
 20
85.275536434
 11
160.5147867389
 21
85.3141812831
  0
LINE
  5
3AE
100
AcDbEntity
  8
SMUSSO
100
AcDbLine
 62
7
  6
CONTINUOUS
 10
139.92821666
 20
88.825536434
 11
140.0091346383
 21
88.7446184556
  0
LINE
  5
3AF
100
AcDbEntity
  8
0
100
AcDbLine
 62
7
  6
CONTINUOUS
 10
134.3984265879
 20
84.2802987424
 11
134.4418205569
 21
84.175536434
  0
LINE
  5
3B0
100
AcDbEntity
  8
0
100
AcDbLine
 62
7
  6
CONTINUOUS
 10
134.8146127631
 20
83.275536434
 11
134.8631778414
 21
83.1582899632
  0
LINE
  5
3B1
100
AcDbEntity
  8
DRAFT
100
AcDbLine
 62
7
  6
CONTINUOUS
 10
118.52821666
 20
125.9891403309
 11
118.5815761517
 21
125.7848114082
  0
LINE
  5
3B2
100
AcDbEntity
  8
0
100
AcDbLine
 62
250
  6
CONTINUOUS
 10
132.0413627474
 20
86.7819906105
 11
132.036791876
 21
86.8340659585
  0
LINE
  5
3B3
100
AcDbEntity
  8
DRAFT
100
AcDbLine
 62
7
  6
CONTINUOUS
 10
127.52821666
 20
76.725536434
 11
127.52821666
 21
77.125536434
  0
LINE
  5
3B4
100
AcDbEntity
  8
DRAFT
100
AcDbLine
 62
7
  6
CONTINUOUS
 10
127.52821666
 20
145.125536434
 11
127.52821666
 21
145.525536434
  0
LINE
  5
3B5
100
AcDbEntity
  8
RACCORDO
100
AcDbLine
 62
7
  6
CONTINUOUS
 10
128.02821666
 20
75.875536434
 11
128.02821666
 21
76.748696511
  0
LINE
  5
3B6
100
AcDbEntity
  8
RACCORDO
100
AcDbLine
 62
7
  6
CONTINUOUS
 10
128.02821666
 20
145.5023763569
 11
128.02821666
 21
146.375536434
  0
LINE
  5
3B7
100
AcDbEntity
  8
0
100
AcDbLine
 62
7
  6
CONTINUOUS
 10
130.72821666
 20
85.6409840534
 11
130.72821666
 21
86.7386547145
  0
LINE
  5
3B8
100
AcDbEntity
  8
0
100
AcDbLine
 62
7
  6
CONTINUOUS
 10
130.72821666
 20
135.5124181534
 11
130.72821666
 21
136.6100888145
  0
LINE
  5
3B9
100
AcDbEntity
  8
0
100
AcDbLine
 62
250
  6
CONTINUOUS
 10
132.0413629553
 20
135.4690834346
 11
132.036791876
 21
135.4170069094
  0
LWPOLYLINE
  5
3BA
100
AcDbEntity
  8
0
100
AcDbPolyline
 62
7
  6
CONTINUOUS
 90
7
 70
0
 10
123.8793638069
 20
81.625536434
 10
123.9114117205
 20
81.8793998812
 10
123.9295544253
 20
82.1356170808
 10
123.9336798911
 20
82.3933465488
 10
123.9237289646
 20
82.6517446208
 10
123.899695067
 20
82.9099687533
 10
123.8616236921
 20
83.167180773
  0
LWPOLYLINE
  5
3BB
100
AcDbEntity
  8
RACCORDO
100
AcDbPolyline
 62
7
  6
CONTINUOUS
 90
7
 70
0
 10
125.4101419068
 20
92.5786985779
 10
125.4091964244
 20
92.5748788772
 10
125.4082827192
 20
92.5626987164
 10
125.4074007912
 20
92.5421580956
 10
125.4065397441
 20
92.5125470491
 10
125.4057104743
 20
92.4745755426
 10
125.4042531752
 20
92.3801207263
  0
LINE
  5
3BC
100
AcDbEntity
  8
DRAFT
100
AcDbLine
 62
7
  6
CONTINUOUS
 10
118.52821666
 20
90.575536434
 11
118.5792517743
 21
90.6776377707
  0
LINE
  5
3BD
100
AcDbEntity
  8
DRAFT
100
AcDbLine
 62
7
  6
CONTINUOUS
 10
118.5824574148
 20
99.3611545613
 11
118.52821666
 21
99.261932537
  0
LINE
  5
3BE
100
AcDbEntity
  8
DRAFT
100
AcDbLine
 62
7
  6
CONTINUOUS
 10
140.0233467638
 20
132.4407398625
 11
139.92821666
 21
132.3456097586
  0
LINE
  5
3BF
100
AcDbEntity
  8
ASSI
100
AcDbLine
 62
7
  6
CONTINUOUS
 10
123.02821666
 20
114.9100888145
 11
124.27821666
 21
116.1600888145
  0
LINE
  5
3C0
100
AcDbEntity
  8
ASSI
100
AcDbLine
 62
7
  6
CONTINUOUS
 10
123.02821666
 20
114.761932537
 11
124.27821666
 21
116.011932537
  0
LINE
  5
3C1
100
AcDbEntity
  8
ASSI
100
AcDbLine
 62
7
  6
CONTINUOUS
 10
123.02821666
 20
113.4891403309
 11
124.27821666
 21
114.7391403309
  0
LINE
  5
3C2
100
AcDbEntity
  8
ASSI
100
AcDbLine
 62
7
  6
CONTINUOUS
 10
123.02821666
 20
113.3409840534
 11
124.27821666
 21
114.5909840534
  0
LINE
  5
3C3
100
AcDbEntity
  8
0
100
AcDbLine
 62
7
  6
CONTINUOUS
 10
172.62821666
 20
145.5709031278
 11
173.2709583167
 21
145.9419901963
  0
LINE
  5
3C4
100
AcDbEntity
  8
0
100
AcDbLine
 62
7
  6
CONTINUOUS
 10
160.088901971
 20
137.9707741255
 11
160.3418205569
 21
138.075536434
  0
LWPOLYLINE
  5
3C5
100
AcDbEntity
  8
0
100
AcDbPolyline
 62
250
  6
CONTINUOUS
 90
8
 70
0
 10
163.7196871354
 20
135.7169612179
 10
163.7226341182
 20
135.7178535431
 10
163.7281085389
 20
135.7187140097
 10
163.7361103974
 20
135.7195426178
 10
163.7468557903
 20
135.7203396605
 10
163.7601286212
 20
135.7211048446
 10
163.7752805998
 20
135.7218372907
 10
163.7922831967
 20
135.7225369378
  0
LWPOLYLINE
  5
3C6
100
AcDbEntity
  8
DRAFT
100
AcDbPolyline
 62
7
  6
CONTINUOUS
 90
10
 70
0
 10
118.5773856889
 20
86.9195322907
 10
119.0064392285
 20
86.9630189022
 10
119.425617222
 20
86.9681008057
 10
119.8308991604
 20
86.9380128193
 10
120.2186797437
 20
86.8761911575
 10
120.5863773326
 20
86.7864657303
 10
120.9324750099
 20
86.672814668
 10
121.2555984929
 20
86.5389592339
 10
121.5544072178
 20
86.3884472083
 10
121.82821666
 20
86.2247890692
  0
LINE
  5
3C7
100
AcDbEntity
  8
DRAFT
100
AcDbLine
 62
7
  6
CONTINUOUS
 10
121.82821666
 20
90.6939478331
 11
118.5792517743
 21
90.6776377707
  0
LINE
  5
3C8
100
AcDbEntity
  8
DRAFT
100
AcDbLine
 62
7
  6
CONTINUOUS
 10
177.52821666
 20
90.575536434
 11
174.22821666
 21
90.575536434
  0
LINE
  5
3C9
100
AcDbEntity
  8
DRAFT
100
AcDbLine
 62
7
  6
CONTINUOUS
 10
121.82821666
 20
90.575536434
 11
118.52821666
 21
90.575536434
  0
LINE
  5
3CA
100
AcDbEntity
  8
DRAFT
100
AcDbLine
 62
7
  6
CONTINUOUS
 10
113.62821666
 20
90.625536434
 11
114.02821666
 21
90.625536434
  0
LINE
  5
3CB
100
AcDbEntity
  8
DRAFT
100
AcDbLine
 62
7
  6
CONTINUOUS
 10
182.02821666
 20
90.625536434
 11
182.42821666
 21
90.625536434
  0
LINE
  5
3CC
100
AcDbEntity
  8
RACCORDO
100
AcDbLine
 62
7
  6
CONTINUOUS
 10
183.27821666
 20
91.125536434
 11
182.405056583
 21
91.125536434
  0
LINE
  5
3CD
100
AcDbEntity
  8
RACCORDO
100
AcDbLine
 62
7
  6
CONTINUOUS
 10
112.77821666
 20
91.125536434
 11
113.651376737
 21
91.125536434
  0
LINE
  5
3CE
100
AcDbEntity
  8
DRAFT
100
AcDbLine
 62
7
  6
CONTINUOUS
 10
177.4771815457
 20
90.6776377707
 11
174.22821666
 21
90.6939478331
  0
LWPOLYLINE
  5
3CF
100
AcDbEntity
  8
RACCORDO
100
AcDbPolyline
 62
7
  6
CONTINUOUS
 90
7
 70
0
 10
166.6055695076
 20
88.5325184599
 10
166.6093872151
 20
88.5315730651
 10
166.6215444943
 20
88.5306595048
 10
166.6420413451
 20
88.5297777792
 10
166.6715827672
 20
88.5289170567
 10
166.7094637609
 20
88.5280881688
 10
166.803721472
 20
88.5266311287
  0
LINE
  5
3D0
100
AcDbEntity
  8
0
100
AcDbLine
 62
7
  6
CONTINUOUS
 10
160.3418205569
 20
84.175536434
 11
160.088901971
 21
84.2802987424
  0
LINE
  5
3D1
100
AcDbEntity
  8
DRAFT
100
AcDbLine
 62
7
  6
CONTINUOUS
 10
140.0233467638
 20
89.8103330054
 11
139.92821666
 21
89.9054631093
  0
LINE
  5
3D2
100
AcDbEntity
  8
ASSI
100
AcDbLine
 62
7
  6
CONTINUOUS
 10
123.02821666
 20
107.3409840534
 11
124.27821666
 21
106.0909840534
  0
LINE
  5
3D3
100
AcDbEntity
  8
ASSI
100
AcDbLine
 62
7
  6
CONTINUOUS
 10
123.02821666
 20
107.4891403309
 11
124.27821666
 21
106.2391403309
  0
LINE
  5
3D4
100
AcDbEntity
  8
ASSI
100
AcDbLine
 62
7
  6
CONTINUOUS
 10
123.02821666
 20
108.761932537
 11
124.27821666
 21
107.511932537
  0
LINE
  5
3D5
100
AcDbEntity
  8
ASSI
100
AcDbLine
 62
7
  6
CONTINUOUS
 10
123.02821666
 20
108.9100888145
 11
124.27821666
 21
107.6600888145
  0
LINE
  5
3D6
100
AcDbEntity
  8
0
100
AcDbLine
 62
7
  6
CONTINUOUS
 10
113.5828499662
 20
135.725536434
 11
113.2117628976
 21
136.3682780907
  0
LINE
  5
3D7
100
AcDbEntity
  8
DRAFT
100
AcDbLine
 62
7
  6
CONTINUOUS
 10
118.52821666
 20
122.9891403309
 11
118.5824574148
 21
122.8899183066
  0
LINE
  5
3D8
100
AcDbEntity
  8
DRAFT
100
AcDbLine
 62
7
  6
CONTINUOUS
 10
118.5792517743
 20
131.5734350972
 11
118.52821666
 21
131.675536434
  0
LWPOLYLINE
  5
3D9
100
AcDbEntity
  8
0
100
AcDbPolyline
 62
250
  6
CONTINUOUS
 90
25
 70
0
 10
132.7668615091
 20
86.3140289783
 10
132.7684352149
 20
86.2581939351
 10
132.7732249025
 20
86.2016425798
 10
132.7813670462
 20
86.14456998
 10
132.7929895466
 20
86.0871804655
 10
132.8082058635
 20
86.0297094913
 10
132.8271089695
 20
85.9724221632
 10
132.8498141228
 20
85.9154981866
 10
132.8763607762
 20
85.8592927274
 10
132.9066514778
 20
85.8043321671
 10
132.9406634207
 20
85.7508892922
 10
132.978356679
 20
85.699236792
 10
133.0194896851
 20
85.6498551438
 10
133.0638413547
 20
85.6030865548
 10
133.1113588605
 20
85.5590584432
 10
133.1620039985
 20
85.5179120082
 10
133.2153618866
 20
85.4800646209
 10
133.2714911013
 20
85.4455516041
 10
133.3311641834
 20
85.4141335395
 10
133.3941991985
 20
85.3862527083
 10
133.4604781551
 20
85.36230419
 10
133.5310030012
 20
85.3424173925
 10
133.6059742943
 20
85.3272241829
 10
133.684681359
 20
85.3175715877
 10
133.7667092043
 20
85.3141812831
  0
LWPOLYLINE
  5
3DA
100
AcDbEntity
  8
0
100
AcDbPolyline
 62
250
  6
CONTINUOUS
 90
25
 70
0
 10
133.5667396653
 20
86.3140289783
 10
133.5670098876
 20
86.3027887916
 10
133.5679744061
 20
86.2914890077
 10
133.5696332209
 20
86.2801296266
 10
133.5719673208
 20
86.2686606564
 10
133.574995717
 20
86.2571320889
 10
133.5787754425
 20
86.2456939005
 10
133.5833292322
 20
86.2343252881
 10
133.5886343513
 20
86.2230470547
 10
133.5946796288
 20
86.2120715858
 10
133.6014881432
 20
86.2014035861
 10
133.609036816
 20
86.1910383509
 10
133.6172452406
 20
86.1811741515
 10
133.6261090564
 20
86.1718353643
 10
133.6356326239
 20
86.162997613
 10
133.6457486187
 20
86.1547860398
 10
133.6564047122
 20
86.1472134728
 10
133.667653233
 20
86.140267084
 10
133.6795838415
 20
86.1340335318
 10
133.6921879601
 20
86.1284570972
 10
133.7054741665
 20
86.1235934992
 10
133.7195578547
 20
86.1196965529
 10
133.7344774894
 20
86.1168508633
 10
133.750194606
 20
86.1149718254
 10
133.7667092043
 20
86.1140594392
  0
LINE
  5
3DB
100
AcDbEntity
  8
0
100
AcDbLine
 62
250
  6
CONTINUOUS
 10
132.2151245382
 20
87.0071155771
 11
132.2150772446
 21
87.0123513271
  0
LINE
  5
3DC
100
AcDbEntity
  8
0
100
AcDbLine
 62
250
  6
CONTINUOUS
 10
131.5368680284
 20
135.430727255
 11
131.5368680284
 21
135.375536434
  0
LINE
  5
3DD
100
AcDbEntity
  8
0
100
AcDbLine
 62
250
  6
CONTINUOUS
 10
131.5368680284
 20
86.875536434
 11
131.5368680284
 21
86.8203456129
  0
LINE
  5
3DE
100
AcDbEntity
  8
0
100
AcDbLine
 62
250
  6
CONTINUOUS
 10
132.036791876
 20
135.4170069094
 11
132.036791876
 21
134.875536434
  0
LINE
  5
3DF
100
AcDbEntity
  8
0
100
AcDbLine
 62
250
  6
CONTINUOUS
 10
132.036791876
 20
87.375536434
 11
132.036791876
 21
86.8340659585
  0
LINE
  5
3E0
100
AcDbEntity
  8
0
100
AcDbLine
 62
250
  6
CONTINUOUS
 10
132.2150772446
 20
135.2387215408
 11
132.2150772446
 21
134.875536434
  0
LINE
  5
3E1
100
AcDbEntity
  8
0
100
AcDbLine
 62
250
  6
CONTINUOUS
 10
132.2150772446
 20
87.375536434
 11
132.2150772446
 21
87.0123513271
  0
LINE
  5
3E2
100
AcDbEntity
  8
0
100
AcDbLine
 62
250
  6
CONTINUOUS
 10
132.5150315531
 20
135.5386758494
 11
132.5150315531
 21
134.875536434
  0
LINE
  5
3E3
100
AcDbEntity
  8
0
100
AcDbLine
 62
250
  6
CONTINUOUS
 10
132.5150315531
 20
87.375536434
 11
132.5150315531
 21
86.7123970186
  0
LINE
  5
3E4
100
AcDbEntity
  8
0
100
AcDbLine
 62
7
  6
CONTINUOUS
 10
132.72821666
 20
135.9756887388
 11
132.72821666
 21
135.9279016287
  0
LINE
  5
3E5
100
AcDbEntity
  8
0
100
AcDbLine
 62
7
  6
CONTINUOUS
 10
132.72821666
 20
86.3231712392
 11
132.72821666
 21
86.2753841291
  0
LINE
  5
3E6
100
AcDbEntity
  8
0
100
AcDbLine
 62
250
  6
CONTINUOUS
 10
132.7668615091
 20
135.9370438896
 11
132.7668615091
 21
135.8892567796
  0
LINE
  5
3E7
100
AcDbEntity
  8
0
100
AcDbLine
 62
250
  6
CONTINUOUS
 10
132.7668615091
 20
86.3618160883
 11
132.7668615091
 21
86.3140289783
  0
LINE
  5
3E8
100
AcDbEntity
  8
DRAFT
100
AcDbLine
 62
7
  6
CONTINUOUS
 10
133.5330865561
 20
87.9304063301
 11
133.5330865561
 21
89.8103330054
  0
LINE
  5
3E9
100
AcDbEntity
  8
DRAFT
100
AcDbLine
 62
7
  6
CONTINUOUS
 10
133.5330865561
 20
132.4407398625
 11
133.5330865561
 21
134.3206665378
  0
LINE
  5
3EA
100
AcDbEntity
  8
0
100
AcDbLine
 62
250
  6
CONTINUOUS
 10
133.5667396653
 20
135.9370438896
 11
133.5667396653
 21
135.875536434
  0
LINE
  5
3EB
100
AcDbEntity
  8
0
100
AcDbLine
 62
250
  6
CONTINUOUS
 10
133.5667396653
 20
86.375536434
 11
133.5667396653
 21
86.3140289783
  0
LINE
  5
3EC
100
AcDbEntity
  8
DRAFT
100
AcDbLine
 62
7
  6
CONTINUOUS
 10
133.62821666
 20
88.825536434
 11
133.62821666
 21
89.9054631093
  0
LINE
  5
3ED
100
AcDbEntity
  8
DRAFT
100
AcDbLine
 62
7
  6
CONTINUOUS
 10
133.62821666
 20
132.3456097586
 11
133.62821666
 21
133.425536434
  0
LINE
  5
3EE
100
AcDbEntity
  8
0
100
AcDbLine
 62
250
  6
CONTINUOUS
 10
133.7667092043
 20
86.1140594392
 11
133.7667092043
 21
85.3141812831
  0
LINE
  5
3EF
100
AcDbEntity
  8
0
100
AcDbLine
 62
250
  6
CONTINUOUS
 10
133.7667092043
 20
136.1370134287
 11
133.7667092043
 21
136.9368915848
  0
LINE
  5
3F0
100
AcDbEntity
  8
RACCORDO
100
AcDbLine
 62
7
  6
CONTINUOUS
 10
134.02821666
 20
76.748696511
 11
134.02821666
 21
75.875536434
  0
LINE
  5
3F1
100
AcDbEntity
  8
0
100
AcDbLine
 62
7
  6
CONTINUOUS
 10
134.02821666
 20
82.3300851084
 11
134.02821666
 21
82.4891403309
  0
LINE
  5
3F2
100
AcDbEntity
  8
0
100
AcDbLine
 62
7
  6
CONTINUOUS
 10
134.02821666
 20
139.761932537
 11
134.02821666
 21
139.9209877595
  0
LINE
  5
3F3
100
AcDbEntity
  8
RACCORDO
100
AcDbLine
 62
7
  6
CONTINUOUS
 10
134.02821666
 20
145.5023763569
 11
134.02821666
 21
146.375536434
  0
LINE
  5
3F4
100
AcDbEntity
  8
DRAFT
100
AcDbLine
 62
7
  6
CONTINUOUS
 10
134.52821666
 20
76.725536434
 11
134.52821666
 21
77.125536434
  0
LINE
  5
3F5
100
AcDbEntity
  8
DRAFT
100
AcDbLine
 62
7
  6
CONTINUOUS
 10
134.52821666
 20
145.125536434
 11
134.52821666
 21
145.525536434
  0
LINE
  5
3F6
100
AcDbEntity
  8
0
100
AcDbLine
 62
250
  6
CONTINUOUS
 10
132.2151245382
 20
135.2439572908
 11
132.2150772446
 21
135.2387215408
  0
LINE
  5
3F7
100
AcDbEntity
  8
RACCORDO
100
AcDbLine
 62
250
  6
CONTINUOUS
 10
116.5841899312
 20
102.3802917303
 11
116.292389709
 21
102.0884915081
  0
LINE
  5
3F8
100
AcDbEntity
  8
RACCORDO
100
AcDbLine
 62
250
  6
CONTINUOUS
 10
156.7734613636
 20
142.5695631627
 11
157.0688954592
 21
142.8649972583
  0
LINE
  5
3F9
100
AcDbEntity
  8
RACCORDO
100
AcDbLine
 62
250
  6
CONTINUOUS
 10
117.0829719563
 20
101.8815097052
 11
116.7839518011
 21
101.58248955
  0
LINE
  5
3FA
100
AcDbEntity
  8
RACCORDO
100
AcDbLine
 62
250
  6
CONTINUOUS
 10
157.2722433888
 20
142.0707811376
 11
157.5746863673
 21
142.3732241161
  0
LWPOLYLINE
  5
3FB
100
AcDbEntity
  8
0
100
AcDbPolyline
 62
250
  6
CONTINUOUS
 90
7
 70
0
 10
164.019641444
 20
135.4170069094
 10
164.0216844222
 20
135.4180534928
 10
164.0263265284
 20
135.4190564234
 10
164.0333162305
 20
135.4200157011
 10
164.0423865688
 20
135.4209322063
 10
164.0532955024
 20
135.4218050587
 10
164.0658587272
 20
135.4226316171
  0
LINE
  5
3FC
100
AcDbEntity
  8
0
100
AcDbLine
 62
7
  6
CONTINUOUS
 10
174.2045417109
 20
138.0186736741
 11
174.3418205569
 21
138.075536434
  0
LINE
  5
3FD
100
AcDbEntity
  8
0
100
AcDbLine
 62
7
  6
CONTINUOUS
 10
176.8219492724
 20
97.125536434
 11
176.6646127631
 21
97.125536434
  0
LINE
  5
3FE
100
AcDbEntity
  8
0
100
AcDbLine
 62
7
  6
CONTINUOUS
 10
175.3918205569
 20
97.125536434
 11
175.2220737555
 21
97.125536434
  0
LINE
  5
3FF
100
AcDbEntity
  8
0
100
AcDbLine
 62
7
  6
CONTINUOUS
 10
120.8343595645
 20
97.125536434
 11
120.6646127631
 21
97.125536434
  0
LINE
  5
400
100
AcDbEntity
  8
0
100
AcDbLine
 62
7
  6
CONTINUOUS
 10
119.3918205569
 20
97.125536434
 11
119.2344840476
 21
97.125536434
  0
LINE
  5
401
100
AcDbEntity
  8
RACCORDO
100
AcDbLine
 62
7
  6
CONTINUOUS
 10
112.77821666
 20
97.125536434
 11
113.651376737
 21
97.125536434
  0
LINE
  5
402
100
AcDbEntity
  8
RACCORDO
100
AcDbLine
 62
7
  6
CONTINUOUS
 10
182.405056583
 20
97.125536434
 11
183.27821666
 21
97.125536434
  0
LINE
  5
403
100
AcDbEntity
  8
DRAFT
100
AcDbLine
 62
7
  6
CONTINUOUS
 10
113.62821666
 20
97.625536434
 11
114.02821666
 21
97.625536434
  0
LINE
  5
404
100
AcDbEntity
  8
DRAFT
100
AcDbLine
 62
7
  6
CONTINUOUS
 10
182.02821666
 20
97.625536434
 11
182.42821666
 21
97.625536434
  0
LINE
  5
405
100
AcDbEntity
  8
0
100
AcDbLine
 62
7
  6
CONTINUOUS
 10
174.3418205569
 20
84.175536434
 11
174.2045417109
 21
84.2323991938
  0
LINE
  5
406
100
AcDbEntity
  8
RACCORDO
100
AcDbLine
 62
250
  6
CONTINUOUS
 10
116.5841899312
 20
119.8707811376
 11
116.292389709
 21
120.1625813598
  0
LINE
  5
407
100
AcDbEntity
  8
RACCORDO
100
AcDbLine
 62
250
  6
CONTINUOUS
 10
156.7734613636
 20
79.6815097052
 11
157.0688954592
 21
79.3860756096
  0
LINE
  5
408
100
AcDbEntity
  8
RACCORDO
100
AcDbLine
 62
250
  6
CONTINUOUS
 10
117.0829719563
 20
120.3695631627
 11
116.7839518011
 21
120.668583318
  0
LINE
  5
409
100
AcDbEntity
  8
RACCORDO
100
AcDbLine
 62
250
  6
CONTINUOUS
 10
157.2722433888
 20
80.1802917303
 11
157.5746863673
 21
79.8778487518
  0
LWPOLYLINE
  5
40A
100
AcDbEntity
  8
RACCORDO
100
AcDbPolyline
 62
7
  6
CONTINUOUS
 90
13
 70
0
 10
138.9875378608
 20
79.3860756096
 10
138.9822909109
 20
79.450190221
 10
138.9686363435
 20
79.5133209637
 10
138.9467507764
 20
79.5743728533
 10
138.9169081669
 20
79.6323247012
 10
138.87959789
 20
79.6860947815
 10
138.8355925892
 20
79.7346087188
 10
138.7856902377
 20
79.7770285563
 10
138.7307364479
 20
79.8126647721
 10
138.6718097306
 20
79.8409100353
 10
138.6099811265
 20
79.8613455005
 10
138.5462683855
 20
79.8737039496
 10
138.4817469527
 20
79.8778487518
  0
LINE
  5
40B
100
AcDbEntity
  8
RACCORDO
100
AcDbLine
 62
7
  6
CONTINUOUS
 10
138.9950614777
 20
78.9074736413
 11
138.9875378608
 21
79.3860756096
  0
LINE
  5
40C
100
AcDbEntity
  8
RACCORDO
100
AcDbLine
 62
250
  6
CONTINUOUS
 10
138.7841899312
 20
80.4296827429
 11
138.7841899316
 21
80.1802917303
  0
LINE
  5
40D
100
AcDbEntity
  8
RACCORDO
100
AcDbLine
 62
250
  6
CONTINUOUS
 10
138.7841899312
 20
77.871390125
 11
138.7841899312
 21
78.1207811376
  0
LINE
  5
40E
100
AcDbEntity
  8
RACCORDO
100
AcDbLine
 62
250
  6
CONTINUOUS
 10
138.7841899312
 20
141.821390125
 11
138.7841899312
 21
142.0707811376
  0
LINE
  5
40F
100
AcDbEntity
  8
RACCORDO
100
AcDbLine
 62
250
  6
CONTINUOUS
 10
138.7841899312
 20
144.3796827429
 11
138.7841899316
 21
144.1302917303
  0
LINE
  5
410
100
AcDbEntity
  8
RACCORDO
100
AcDbLine
 62
7
  6
CONTINUOUS
 10
139.02821666
 20
76.0266823852
 11
139.02821666
 21
76.725536434
  0
LINE
  5
411
100
AcDbEntity
  8
RACCORDO
100
AcDbLine
 62
7
  6
CONTINUOUS
 10
139.02821666
 20
145.525536434
 11
139.02821666
 21
146.2243904827
  0
LINE
  5
412
100
AcDbEntity
  8
RACCORDO
100
AcDbLine
 62
250
  6
CONTINUOUS
 10
139.2829719563
 20
143.6315097052
 11
139.2829719563
 21
142.5695631627
  0
LINE
  5
413
100
AcDbEntity
  8
RACCORDO
100
AcDbLine
 62
250
  6
CONTINUOUS
 10
139.2829719563
 20
79.6815097052
 11
139.2829719563
 21
78.6195631627
  0
LINE
  5
414
100
AcDbEntity
  8
RACCORDO
100
AcDbLine
 62
250
  6
CONTINUOUS
 10
139.5323629689
 20
143.6315097052
 11
139.5323629689
 21
142.5695631627
  0
LINE
  5
415
100
AcDbEntity
  8
RACCORDO
100
AcDbLine
 62
250
  6
CONTINUOUS
 10
139.5323629689
 20
79.6815097052
 11
139.5323629689
 21
78.6195631627
  0
LINE
  5
416
100
AcDbEntity
  8
RACCORDO
100
AcDbLine
 62
7
  6
CONTINUOUS
 10
138.9875378608
 20
142.8649972583
 11
138.9950614777
 21
143.3435992266
  0
LWPOLYLINE
  5
417
100
AcDbEntity
  8
RACCORDO
100
AcDbPolyline
 62
250
  6
CONTINUOUS
 90
22
 70
0
 10
139.2829719563
 20
142.5695631627
 10
139.2817345525
 20
142.5330645255
 10
139.2778203422
 20
142.4966124775
 10
139.2712146502
 20
142.4604043121
 10
139.2619083969
 20
142.424605023
 10
139.2499212197
 20
142.3894547925
 10
139.2353269542
 20
142.3552592209
 10
139.2182013056
 20
142.3222257788
 10
139.1986224257
 20
142.2905275362
 10
139.1767236368
 20
142.2603966886
 10
139.1526521882
 20
142.2320292373
 10
139.1265201959
 20
142.205549605
 10
139.098429044
 20
142.1810700275
 10
139.0685264676
 20
142.1587366033
 10
139.0369711541
 20
142.1386833894
 10
139.0038820162
 20
142.1210077087
 10
138.9693881999
 20
142.105814939
 10
138.9337153588
 20
142.0932383536
 10
138.8971421593
 20
142.0833911881
 10
138.8599033106
 20
142.0763404665
 10
138.8221813528
 20
142.0721264766
 10
138.7841899312
 20
142.0707811376
  0
LWPOLYLINE
  5
418
100
AcDbEntity
  8
RACCORDO
100
AcDbPolyline
 62
250
  6
CONTINUOUS
 90
22
 70
0
 10
139.5323629689
 20
142.5695631627
 10
139.5303741015
 20
142.5144374353
 10
139.5243755086
 20
142.4599715217
 10
139.5143671901
 20
142.4061654219
 10
139.5002699114
 20
142.352672213
 10
139.4821629071
 20
142.2998388179
 10
139.460283881
 20
142.2487060052
 10
139.4345441707
 20
142.1993295227
 10
139.4050324385
 20
142.1516536227
 10
139.3722523763
 20
142.1065518301
 10
139.3361805974
 20
142.0641078321
 10
139.2968404883
 20
142.0242379416
 10
139.2548059009
 20
141.9875646223
 10
139.2100423916
 20
141.9541184453
 10
139.1625844039
 20
141.9238688395
 10
139.1131091197
 20
141.8973465559
 10
139.0615111042
 20
141.874586215
 10
139.0078957923
 20
141.8555531963
 10
138.9532566704
 20
141.840674389
 10
138.8979249006
 20
141.8300920896
 10
138.8415693209
 20
141.8236640016
 10
138.7841899312
 20
141.821390125
  0
LWPOLYLINE
  5
419
100
AcDbEntity
  8
RACCORDO
100
AcDbPolyline
 62
7
  6
CONTINUOUS
 90
7
 70
0
 10
130.9323033825
 20
87.3055136346
 10
130.9159281914
 20
87.2542746036
 10
130.8954549678
 20
87.1919019404
 10
130.872878891
 20
87.1204806187
 10
130.8488650207
 20
87.0423068629
 10
130.8227482972
 20
86.959833461
 10
130.7945287204
 20
86.875536434
  0
LINE
  5
41A
100
AcDbEntity
  8
RACCORDO
100
AcDbLine
 62
250
  6
CONTINUOUS
 10
129.3038399194
 20
89.8852807652
 11
129.3468017514
 21
90.0000777968
  0
LINE
  5
41B
100
AcDbEntity
  8
RACCORDO
100
AcDbLine
 62
250
  6
CONTINUOUS
 10
129.5021947535
 20
89.8103330054
 11
129.5457752715
 21
89.925536434
  0
LINE
  5
41C
100
AcDbEntity
  8
DRAFT
100
AcDbLine
 62
7
  6
CONTINUOUS
 10
119.2344840476
 20
97.125536434
 11
118.5815761517
 21
96.4662614597
  0
LINE
  5
41D
100
AcDbEntity
  8
0
100
AcDbLine
 62
7
  6
CONTINUOUS
 10
162.8288624378
 20
139.125536434
 11
164.3159720213
 21
140.625536434
  0
LINE
  5
41E
100
AcDbEntity
  8
0
100
AcDbLine
 62
7
  6
CONTINUOUS
 10
121.82821666
 20
99.7408314952
 11
120.02821666
 21
97.926501189
  0
LINE
  5
41F
100
AcDbEntity
  8
0
100
AcDbLine
 62
7
  6
CONTINUOUS
 10
160.088901971
 20
137.9707741255
 11
159.0936642794
 21
136.975536434
  0
LINE
  5
420
100
AcDbEntity
  8
0
100
AcDbLine
 62
7
  6
CONTINUOUS
 10
162.8918205569
 20
140.625536434
 11
162.02821666
 21
139.761932537
  0
LINE
  5
421
100
AcDbEntity
  8
0
100
AcDbLine
 62
7
  6
CONTINUOUS
 10
160.3418205569
 20
138.075536434
 11
158.4032975516
 21
136.1370134287
  0
LINE
  5
422
100
AcDbEntity
  8
DRAFT
100
AcDbLine
 62
7
  6
CONTINUOUS
 10
119.3918205569
 20
97.125536434
 11
118.52821666
 21
96.261932537
  0
LINE
  5
423
100
AcDbEntity
  8
0
100
AcDbLine
 62
7
  6
CONTINUOUS
 10
120.02821666
 20
97.761932537
 11
121.82821666
 21
99.561932537
  0
LINE
  5
424
100
AcDbEntity
  8
SUPERFICI
100
AcDbLine
 62
7
  6
CONTINUOUS
 10
161.2418205569
 20
138.975536434
 11
161.3918205569
 21
139.125536434
  0
LINE
  5
425
100
AcDbEntity
  8
DRAFT
100
AcDbLine
 62
7
  6
CONTINUOUS
 10
118.52821666
 20
94.9891403309
 11
120.02821666
 21
96.4891403309
  0
LINE
  5
426
100
AcDbEntity
  8
0
100
AcDbLine
 62
7
  6
CONTINUOUS
 10
120.6646127631
 20
97.125536434
 11
121.82821666
 21
98.2891403309
  0
LINE
  5
427
100
AcDbEntity
  8
0
100
AcDbLine
 62
7
  6
CONTINUOUS
 10
159.6760897578
 20
136.1370134287
 11
161.6146127631
 21
138.075536434
  0
LINE
  5
428
100
AcDbEntity
  8
0
100
AcDbLine
 62
7
  6
CONTINUOUS
 10
162.6646127631
 20
139.125536434
 11
164.1646127631
 21
140.625536434
  0
LINE
  5
429
100
AcDbEntity
  8
0
100
AcDbLine
 62
7
  6
CONTINUOUS
 10
160.6627690405
 20
136.975536434
 11
161.6580067321
 21
137.9707741255
  0
LINE
  5
42A
100
AcDbEntity
  8
0
100
AcDbLine
 62
250
  6
CONTINUOUS
 10
162.2897241157
 20
136.9368915848
 11
162.3283689648
 21
136.975536434
  0
LINE
  5
42B
100
AcDbEntity
  8
0
100
AcDbLine
 62
7
  6
CONTINUOUS
 10
161.2262616728
 20
139.125536434
 11
161.1932554786
 21
139.0927829047
  0
LINE
  5
42C
100
AcDbEntity
  8
0
100
AcDbLine
 62
7
  6
CONTINUOUS
 10
120.8343595645
 20
97.125536434
 11
121.82821666
 21
98.1118248612
  0
LINE
  5
42D
100
AcDbEntity
  8
0
100
AcDbLine
 62
7
  6
CONTINUOUS
 10
162.7391149728
 20
140.625536434
 11
162.02821666
 21
139.9209877595
  0
LINE
  5
42E
100
AcDbEntity
  8
DRAFT
100
AcDbLine
 62
7
  6
CONTINUOUS
 10
118.5810179393
 20
94.8925515235
 11
120.02821666
 21
96.3261672219
  0
LINE
  5
42F
100
AcDbEntity
  8
RACCORDO
100
AcDbLine
 62
250
  6
CONTINUOUS
 10
170.57821666
 20
127.9584808084
 11
170.6806294871
 21
127.9928207839
  0
LINE
  5
430
100
AcDbEntity
  8
RACCORDO
100
AcDbLine
 62
250
  6
CONTINUOUS
 10
170.5174733242
 20
128.1394523468
 11
170.6201083122
 21
128.1734982891
  0
LWPOLYLINE
  5
431
100
AcDbEntity
  8
RACCORDO
100
AcDbPolyline
 62
7
  6
CONTINUOUS
 90
13
 70
0
 10
179.764043611
 20
102.0884915081
 10
179.6999071992
 20
102.0832066514
 10
179.6367713368
 20
102.0695063669
 10
179.5757316183
 20
102.0475739082
 10
179.5178126339
 20
102.0176913587
 10
179.4640883507
 20
101.9803533687
 10
179.4156176136
 20
101.9363297892
 10
179.3732353324
 20
101.8864173664
 10
179.3376314244
 20
101.8314628679
 10
179.3094078849
 20
101.7725392398
 10
179.2889836354
 20
101.7107141722
 10
179.27662879
 20
101.6470060057
 10
179.2724815189
 20
101.58248955
  0
LINE
  5
432
100
AcDbEntity
  8
RACCORDO
100
AcDbLine
 62
7
  6
CONTINUOUS
 10
180.2502276324
 20
102.0963294315
 11
179.764043611
 21
102.0884915081
  0
LINE
  5
433
100
AcDbEntity
  8
0
100
AcDbLine
 62
7
  6
CONTINUOUS
 10
170.57821666
 20
100.125536434
 11
170.52821666
 21
100.125536434
  0
LINE
  5
434
100
AcDbEntity
  8
0
100
AcDbLine
 62
7
  6
CONTINUOUS
 10
125.52821666
 20
100.125536434
 11
125.47821666
 21
100.125536434
  0
LINE
  5
435
100
AcDbEntity
  8
RACCORDO
100
AcDbLine
 62
250
  6
CONTINUOUS
 10
181.2823629689
 20
101.8815097052
 11
181.0329719563
 21
101.8815097052
  0
LINE
  5
436
100
AcDbEntity
  8
RACCORDO
100
AcDbLine
 62
250
  6
CONTINUOUS
 10
117.3323629689
 20
101.8815097052
 11
117.0829719563
 21
101.8815097052
  0
LINE
  5
437
100
AcDbEntity
  8
RACCORDO
100
AcDbLine
 62
250
  6
CONTINUOUS
 10
178.7240703511
 20
101.8815097052
 11
178.9734613636
 21
101.8815097055
  0
LINE
  5
438
100
AcDbEntity
  8
RACCORDO
100
AcDbLine
 62
250
  6
CONTINUOUS
 10
114.7740703511
 20
101.8815097052
 11
115.0234613636
 21
101.8815097055
  0
LINE
  5
439
100
AcDbEntity
  8
DRAFT
100
AcDbLine
 62
7
  6
CONTINUOUS
 10
183.42821666
 20
102.125536434
 11
182.42821666
 21
102.125536434
  0
LINE
  5
43A
100
AcDbEntity
  8
DRAFT
100
AcDbLine
 62
7
  6
CONTINUOUS
 10
113.62821666
 20
102.125536434
 11
112.62821666
 21
102.125536434
  0
LINE
  5
43B
100
AcDbEntity
  8
0
100
AcDbLine
 62
7
  6
CONTINUOUS
 10
125.47821666
 20
102.125536434
 11
125.52821666
 21
102.125536434
  0
LINE
  5
43C
100
AcDbEntity
  8
0
100
AcDbLine
 62
7
  6
CONTINUOUS
 10
170.52821666
 20
102.125536434
 11
170.57821666
 21
102.125536434
  0
LINE
  5
43D
100
AcDbEntity
  8
RACCORDO
100
AcDbLine
 62
250
  6
CONTINUOUS
 10
115.5222433888
 20
102.3802917303
 11
116.5841899312
 21
102.3802917303
  0
LINE
  5
43E
100
AcDbEntity
  8
RACCORDO
100
AcDbLine
 62
250
  6
CONTINUOUS
 10
179.4722433888
 20
102.3802917303
 11
180.5341899312
 21
102.3802917303
  0
LINE
  5
43F
100
AcDbEntity
  8
RACCORDO
100
AcDbLine
 62
250
  6
CONTINUOUS
 10
115.5222433888
 20
102.6296827429
 11
116.5841899312
 21
102.6296827429
  0
LINE
  5
440
100
AcDbEntity
  8
RACCORDO
100
AcDbLine
 62
250
  6
CONTINUOUS
 10
179.4722433888
 20
102.6296827429
 11
180.5341899312
 21
102.6296827429
  0
LINE
  5
441
100
AcDbEntity
  8
RACCORDO
100
AcDbLine
 62
7
  6
CONTINUOUS
 10
116.292389709
 20
102.0884915081
 11
115.8062056876
 21
102.0963294315
  0
LWPOLYLINE
  5
442
100
AcDbEntity
  8
RACCORDO
100
AcDbPolyline
 62
250
  6
CONTINUOUS
 90
22
 70
0
 10
116.5841899312
 20
102.3802917303
 10
116.6206885684
 20
102.3790543264
 10
116.6571406165
 20
102.3751401161
 10
116.6933487818
 20
102.3685344241
 10
116.7291480709
 20
102.3592281709
 10
116.7642983014
 20
102.3472409936
 10
116.7984938731
 20
102.3326467282
 10
116.8315273151
 20
102.3155210795
 10
116.8632255577
 20
102.2959421997
 10
116.8933564054
 20
102.2740434107
 10
116.9217238567
 20
102.2499719621
 10
116.9482034889
 20
102.2238399699
 10
116.9726830665
 20
102.195748818
 10
116.9950164906
 20
102.1658462416
 10
117.0150697045
 20
102.1342909281
 10
117.0327453853
 20
102.1012017901
 10
117.0479381549
 20
102.0667079739
 10
117.0605147403
 20
102.0310351328
 10
117.0703619059
 20
101.9944619333
 10
117.0774126274
 20
101.9572230846
 10
117.0816266173
 20
101.9195011267
 10
117.0829719563
 20
101.8815097052
  0
LWPOLYLINE
  5
443
100
AcDbEntity
  8
RACCORDO
100
AcDbPolyline
 62
250
  6
CONTINUOUS
 90
22
 70
0
 10
116.5841899312
 20
102.6296827429
 10
116.6393156586
 20
102.6276938755
 10
116.6937815722
 20
102.6216952826
 10
116.747587672
 20
102.611686964
 10
116.8010808809
 20
102.5975896853
 10
116.853914276
 20
102.579482681
 10
116.9050470887
 20
102.557603655
 10
116.9544235712
 20
102.5318639446
 10
117.0020994713
 20
102.5023522125
 10
117.0472012639
 20
102.4695721503
 10
117.0896452619
 20
102.4335003714
 10
117.1295151524
 20
102.3941602623
 10
117.1661884716
 20
102.3521256749
 10
117.1996346487
 20
102.3073621655
 10
117.2298842544
 20
102.2599041778
 10
117.256406538
 20
102.2104288936
 10
117.2791668789
 20
102.1588308782
 10
117.2981998976
 20
102.1052155662
 10
117.3130787049
 20
102.0505764443
 10
117.3236610044
 20
101.9952446746
 10
117.3300890924
 20
101.9388890949
 10
117.3323629689
 20
101.8815097052
  0
LWPOLYLINE
  5
444
100
AcDbEntity
  8
RACCORDO
100
AcDbPolyline
 62
7
  6
CONTINUOUS
 90
9
 70
0
 10
164.0194891275
 20
87.375536434
 10
164.0265833594
 20
87.3708461877
 10
164.0392426881
 20
87.3577271508
 10
164.0574671135
 20
87.337634612
 10
164.082089914
 20
87.3122482272
 10
164.1122778112
 20
87.282798035
 10
164.1455309704
 20
87.2495707551
 10
164.1815508742
 20
87.2131683033
 10
164.2206360398
 20
87.1745430149
  0
LINE
  5
445
100
AcDbEntity
  8
0
100
AcDbLine
 62
7
  6
CONTINUOUS
 10
162.02821666
 20
82.3300851084
 11
162.7391149728
 21
81.625536434
  0
LINE
  5
446
100
AcDbEntity
  8
DRAFT
100
AcDbLine
 62
7
  6
CONTINUOUS
 10
120.02821666
 20
125.9249056461
 11
118.5810179393
 21
127.3585213444
  0
LINE
  5
447
100
AcDbEntity
  8
0
100
AcDbLine
 62
7
  6
CONTINUOUS
 10
161.1932554786
 20
83.1582899632
 11
161.2262616728
 21
83.125536434
  0
LINE
  5
448
100
AcDbEntity
  8
0
100
AcDbLine
 62
7
  6
CONTINUOUS
 10
121.82821666
 20
124.1392480067
 11
120.8343595645
 21
125.125536434
  0
LINE
  5
449
100
AcDbEntity
  8
0
100
AcDbLine
 62
7
  6
CONTINUOUS
 10
160.088901971
 20
84.2802987424
 11
159.0936642794
 21
85.275536434
  0
LINE
  5
44A
100
AcDbEntity
  8
DRAFT
100
AcDbLine
 62
7
  6
CONTINUOUS
 10
118.52821666
 20
125.9891403309
 11
119.3918205569
 21
125.125536434
  0
LINE
  5
44B
100
AcDbEntity
  8
0
100
AcDbLine
 62
7
  6
CONTINUOUS
 10
120.02821666
 20
124.4891403309
 11
121.82821666
 21
122.6891403309
  0
LINE
  5
44C
100
AcDbEntity
  8
0
100
AcDbLine
 62
7
  6
CONTINUOUS
 10
158.4032975516
 20
86.1140594392
 11
160.3418205569
 21
84.175536434
  0
LINE
  5
44D
100
AcDbEntity
  8
SUPERFICI
100
AcDbLine
 62
7
  6
CONTINUOUS
 10
161.2418205569
 20
83.275536434
 11
161.3918205569
 21
83.125536434
  0
LINE
  5
44E
100
AcDbEntity
  8
0
100
AcDbLine
 62
7
  6
CONTINUOUS
 10
162.02821666
 20
82.4891403309
 11
162.8918205569
 21
81.625536434
  0
LINE
  5
44F
100
AcDbEntity
  8
0
100
AcDbLine
 62
7
  6
CONTINUOUS
 10
161.6146127631
 20
84.175536434
 11
159.6760897578
 21
86.1140594392
  0
LINE
  5
450
100
AcDbEntity
  8
DRAFT
100
AcDbLine
 62
7
  6
CONTINUOUS
 10
118.52821666
 20
127.261932537
 11
120.02821666
 21
125.761932537
  0
LINE
  5
451
100
AcDbEntity
  8
0
100
AcDbLine
 62
7
  6
CONTINUOUS
 10
120.6646127631
 20
125.125536434
 11
121.82821666
 21
123.961932537
  0
LINE
  5
452
100
AcDbEntity
  8
0
100
AcDbLine
 62
7
  6
CONTINUOUS
 10
162.6646127631
 20
83.125536434
 11
164.1646127631
 21
81.625536434
  0
LINE
  5
453
100
AcDbEntity
  8
0
100
AcDbLine
 62
7
  6
CONTINUOUS
 10
160.6627690405
 20
85.275536434
 11
161.6580067321
 21
84.2802987424
  0
LINE
  5
454
100
AcDbEntity
  8
0
100
AcDbLine
 62
250
  6
CONTINUOUS
 10
162.2897241157
 20
85.3141812831
 11
162.3283689648
 21
85.275536434
  0
LINE
  5
455
100
AcDbEntity
  8
0
100
AcDbLine
 62
7
  6
CONTINUOUS
 10
120.02821666
 20
124.3245716789
 11
121.82821666
 21
122.5102413727
  0
LINE
  5
456
100
AcDbEntity
  8
0
100
AcDbLine
 62
7
  6
CONTINUOUS
 10
164.3159720213
 20
81.625536434
 11
162.8288624378
 21
83.125536434
  0
LINE
  5
457
100
AcDbEntity
  8
DRAFT
100
AcDbLine
 62
7
  6
CONTINUOUS
 10
118.5815761517
 20
125.7848114082
 11
119.2344840476
 21
125.125536434
  0
LINE
  5
458
100
AcDbEntity
  8
RACCORDO
100
AcDbLine
 62
250
  6
CONTINUOUS
 10
129.5457752715
 20
132.325536434
 11
129.5070280212
 21
132.4279499201
  0
LINE
  5
459
100
AcDbEntity
  8
RACCORDO
100
AcDbLine
 62
250
  6
CONTINUOUS
 10
129.3470699364
 20
132.2502792038
 11
129.3086343733
 21
132.3529679355
  0
LWPOLYLINE
  5
45A
100
AcDbEntity
  8
RACCORDO
100
AcDbPolyline
 62
7
  6
CONTINUOUS
 90
7
 70
0
 10
130.9323033825
 20
134.9455592333
 10
130.9159281914
 20
134.9967982643
 10
130.8954549678
 20
135.0591709275
 10
130.872878891
 20
135.1305922492
 10
130.8488650207
 20
135.208766005
 10
130.8227482972
 20
135.2912394069
 10
130.7945287204
 20
135.375536434
  0
LWPOLYLINE
  5
45B
100
AcDbEntity
  8
RACCORDO
100
AcDbPolyline
 62
7
  6
CONTINUOUS
 90
13
 70
0
 10
138.9950614777
 20
143.3435992266
 10
138.9918179559
 20
143.4107168268
 10
138.9798804223
 20
143.4765318213
 10
138.9595024219
 20
143.5399271163
 10
138.9310736324
 20
143.5998934421
 10
138.8951231947
 20
143.655352456
 10
138.8523650847
 20
143.7052113145
 10
138.8035982498
 20
143.7486753874
 10
138.7497364049
 20
143.785081863
 10
138.6918808052
 20
143.8138008845
 10
138.631119601
 20
143.834466037
 10
138.5684682293
 20
143.846913389
 10
138.5049803514
 20
143.8510821505
  0
LINE
  5
45C
100
AcDbEntity
  8
DRAFT
100
AcDbLine
 62
7
  6
CONTINUOUS
 10
139.92821666
 20
133.425536434
 11
139.92821666
 21
132.3456097586
  0
LINE
  5
45D
100
AcDbEntity
  8
DRAFT
100
AcDbLine
 62
7
  6
CONTINUOUS
 10
139.92821666
 20
89.9054631093
 11
139.92821666
 21
88.825536434
  0
LINE
  5
45E
100
AcDbEntity
  8
DRAFT
100
AcDbLine
 62
7
  6
CONTINUOUS
 10
140.0233467638
 20
134.3206665378
 11
140.0233467638
 21
132.4407398625
  0
LINE
  5
45F
100
AcDbEntity
  8
DRAFT
100
AcDbLine
 62
7
  6
CONTINUOUS
 10
140.0233467638
 20
89.8103330054
 11
140.0233467638
 21
87.9304063301
  0
LINE
  5
460
100
AcDbEntity
  8
0
100
AcDbLine
 62
7
  6
CONTINUOUS
 10
141.02821666
 20
136.5341638852
 11
141.02821666
 21
136.1370134287
  0
LINE
  5
461
100
AcDbEntity
  8
0
100
AcDbLine
 62
7
  6
CONTINUOUS
 10
141.02821666
 20
86.1140594392
 11
141.02821666
 21
85.7169089827
  0
LWPOLYLINE
  5
462
100
AcDbEntity
  8
RACCORDO
100
AcDbPolyline
 62
250
  6
CONTINUOUS
 90
22
 70
0
 10
139.2829719563
 20
78.6195631627
 10
139.2817345525
 20
78.5830645255
 10
139.2778203422
 20
78.5466124775
 10
139.2712146502
 20
78.5104043121
 10
139.2619083969
 20
78.474605023
 10
139.2499212197
 20
78.4394547925
 10
139.2353269542
 20
78.4052592209
 10
139.2182013056
 20
78.3722257788
 10
139.1986224257
 20
78.3405275362
 10
139.1767236368
 20
78.3103966886
 10
139.1526521882
 20
78.2820292373
 10
139.1265201959
 20
78.255549605
 10
139.098429044
 20
78.2310700275
 10
139.0685264676
 20
78.2087366033
 10
139.0369711541
 20
78.1886833894
 10
139.0038820162
 20
78.1710077087
 10
138.9693881999
 20
78.155814939
 10
138.9337153588
 20
78.1432383536
 10
138.8971421593
 20
78.1333911881
 10
138.8599033106
 20
78.1263404665
 10
138.8221813528
 20
78.1221264766
 10
138.7841899312
 20
78.1207811376
  0
LWPOLYLINE
  5
463
100
AcDbEntity
  8
RACCORDO
100
AcDbPolyline
 62
250
  6
CONTINUOUS
 90
22
 70
0
 10
139.5323629689
 20
78.6195631627
 10
139.5303741015
 20
78.5644374353
 10
139.5243755086
 20
78.5099715217
 10
139.5143671901
 20
78.4561654219
 10
139.5002699114
 20
78.402672213
 10
139.4821629071
 20
78.3498388179
 10
139.460283881
 20
78.2987060052
 10
139.4345441707
 20
78.2493295227
 10
139.4050324385
 20
78.2016536227
 10
139.3722523763
 20
78.1565518301
 10
139.3361805974
 20
78.1141078321
 10
139.2968404883
 20
78.0742379416
 10
139.2548059009
 20
78.0375646223
 10
139.2100423916
 20
78.0041184453
 10
139.1625844039
 20
77.9738688395
 10
139.1131091197
 20
77.9473465559
 10
139.0615111042
 20
77.924586215
 10
139.0078957923
 20
77.9055531963
 10
138.9532566704
 20
77.890674389
 10
138.8979249006
 20
77.8800920896
 10
138.8415693209
 20
77.8736640016
 10
138.7841899312
 20
77.871390125
  0
LWPOLYLINE
  5
464
100
AcDbEntity
  8
RACCORDO
100
AcDbPolyline
 62
7
  6
CONTINUOUS
 90
4
 70
0
 10
130.954845581
 20
87.375536434
 10
130.9514295474
 20
87.3674657839
 10
130.9439154812
 20
87.3437564499
 10
130.9323033825
 20
87.3055136346
  0
LINE
  5
465
100
AcDbEntity
  8
0
100
AcDbLine
 62
250
  6
CONTINUOUS
 10
163.2895718108
 20
135.9370438896
 11
163.32821666
 21
135.9756887388
  0
LINE
  5
466
100
AcDbEntity
  8
0
100
AcDbLine
 62
7
  6
CONTINUOUS
 10
163.32821666
 20
135.9279016287
 11
163.2895718108
 21
135.8892567796
  0
LINE
  5
467
100
AcDbEntity
  8
0
100
AcDbLine
 62
250
  6
CONTINUOUS
 10
163.5665417434
 20
135.5638158259
 11
163.7196871354
 21
135.7169612179
  0
LINE
  5
468
100
AcDbEntity
  8
0
100
AcDbLine
 62
250
  6
CONTINUOUS
 10
163.8413560754
 20
135.2387215408
 11
164.019641444
 21
135.4170069094
  0
LINE
  5
469
100
AcDbEntity
  8
RACCORDO
100
AcDbLine
 62
250
  6
CONTINUOUS
 10
172.7841899312
 20
144.1302917303
 11
172.5230982894
 21
143.8692000885
  0
LINE
  5
46A
100
AcDbEntity
  8
RACCORDO
100
AcDbLine
 62
250
  6
CONTINUOUS
 10
115.0234613636
 20
86.3695631627
 11
115.2792696032
 21
86.6253714023
  0
LINE
  5
46B
100
AcDbEntity
  8
SMUSSO
100
AcDbLine
 62
7
  6
CONTINUOUS
 10
162.42821666
 20
133.425536434
 11
162.5091346383
 21
133.5064544123
  0
LINE
  5
46C
100
AcDbEntity
  8
RACCORDO
100
AcDbLine
 62
250
  6
CONTINUOUS
 10
173.2829719563
 20
143.6315097052
 11
173.0152355264
 21
143.3637732753
  0
LINE
  5
46D
100
AcDbEntity
  8
RACCORDO
100
AcDbLine
 62
250
  6
CONTINUOUS
 10
115.5222433888
 20
85.8707811376
 11
115.7848051009
 21
86.1333428498
  0
LINE
  5
46E
100
AcDbEntity
  8
DRAFT
100
AcDbLine
 62
7
  6
CONTINUOUS
 10
162.5233467638
 20
132.4407398625
 11
162.42821666
 21
132.3456097586
  0
LWPOLYLINE
  5
46F
100
AcDbEntity
  8
RACCORDO
100
AcDbPolyline
 62
7
  6
CONTINUOUS
 90
7
 70
0
 10
164.2203208768
 20
135.0763483725
 10
164.302435586
 20
135.1581719051
 10
164.3452541457
 20
135.2013122835
 10
164.3887700771
 20
135.2447412195
 10
164.4326282217
 20
135.2880510669
 10
164.4763496976
 20
135.3316494717
 10
164.5195652915
 20
135.375536434
  0
LWPOLYLINE
  5
470
100
AcDbEntity
  8
RACCORDO
100
AcDbPolyline
 62
7
  6
CONTINUOUS
 90
3
 70
0
 10
164.112758778
 20
134.9688421151
 10
164.1820907027
 20
135.0376652185
 10
164.2203208768
 20
135.0763483725
  0
LWPOLYLINE
  5
471
100
AcDbEntity
  8
RACCORDO
100
AcDbPolyline
 62
7
  6
CONTINUOUS
 90
10
 70
0
 10
171.77821666
 20
128.1989075129
 10
171.78628731
 20
128.2023235466
 10
171.809996644
 20
128.2098376128
 10
171.8482394593
 20
128.2214497115
 10
171.8994784904
 20
128.2378249025
 10
171.9618511535
 20
128.2582981261
 10
172.0332724752
 20
128.2808742029
 10
172.111446231
 20
128.3048880732
 10
172.193919633
 20
128.3310047968
 10
172.27821666
 20
128.3592243736
  0
LWPOLYLINE
  5
472
100
AcDbEntity
  8
RACCORDO
100
AcDbPolyline
 62
7
  6
CONTINUOUS
 90
13
 70
0
 10
115.8062056876
 20
102.0963294315
 10
115.7390624915
 20
102.0931093681
 10
115.6732185739
 20
102.0811918599
 10
115.6097917868
 20
102.0608285469
 10
115.5497911019
 20
102.032406777
 10
115.4942983269
 20
101.9964546517
 10
115.4444122577
 20
101.9536882476
 10
115.4009243664
 20
101.9049015121
 10
115.3645037988
 20
101.8510140626
 10
115.3357907729
 20
101.7931529692
 10
115.3151447476
 20
101.7324195734
 10
115.3027154003
 20
101.6698235216
 10
115.2985533018
 20
101.606417767
  0
LINE
  5
473
100
AcDbEntity
  8
RACCORDO
100
AcDbLine
 62
7
  6
CONTINUOUS
 10
122.6195892087
 20
104.125536434
 11
124.27821666
 21
104.125536434
  0
LINE
  5
474
100
AcDbEntity
  8
RACCORDO
100
AcDbLine
 62
7
  6
CONTINUOUS
 10
171.77821666
 20
104.125536434
 11
173.4368441112
 21
104.125536434
  0
LWPOLYLINE
  5
475
100
AcDbEntity
  8
RACCORDO
100
AcDbPolyline
 62
250
  6
CONTINUOUS
 90
22
 70
0
 10
180.5341899312
 20
102.3802917303
 10
180.5706885684
 20
102.3790543264
 10
180.6071406165
 20
102.3751401161
 10
180.6433487818
 20
102.3685344241
 10
180.6791480709
 20
102.3592281709
 10
180.7142983014
 20
102.3472409936
 10
180.7484938731
 20
102.3326467282
 10
180.7815273151
 20
102.3155210795
 10
180.8132255577
 20
102.2959421997
 10
180.8433564054
 20
102.2740434107
 10
180.8717238567
 20
102.2499719621
 10
180.8982034889
 20
102.2238399699
 10
180.9226830665
 20
102.195748818
 10
180.9450164906
 20
102.1658462416
 10
180.9650697045
 20
102.1342909281
 10
180.9827453853
 20
102.1012017901
 10
180.9979381549
 20
102.0667079739
 10
181.0105147403
 20
102.0310351328
 10
181.0203619059
 20
101.9944619333
 10
181.0274126274
 20
101.9572230846
 10
181.0316266173
 20
101.9195011267
 10
181.0329719563
 20
101.8815097052
  0
LWPOLYLINE
  5
476
100
AcDbEntity
  8
RACCORDO
100
AcDbPolyline
 62
250
  6
CONTINUOUS
 90
22
 70
0
 10
180.5341899312
 20
102.6296827429
 10
180.5893156586
 20
102.6276938755
 10
180.6437815722
 20
102.6216952826
 10
180.697587672
 20
102.611686964
 10
180.7510808809
 20
102.5975896853
 10
180.803914276
 20
102.579482681
 10
180.8550470887
 20
102.557603655
 10
180.9044235712
 20
102.5318639446
 10
180.9520994713
 20
102.5023522125
 10
180.9972012639
 20
102.4695721503
 10
181.0396452619
 20
102.4335003714
 10
181.0795151524
 20
102.3941602623
 10
181.1161884716
 20
102.3521256749
 10
181.1496346487
 20
102.3073621655
 10
181.1798842544
 20
102.2599041778
 10
181.206406538
 20
102.2104288936
 10
181.2291668789
 20
102.1588308782
 10
181.2481998976
 20
102.1052155662
 10
181.2630787049
 20
102.0505764443
 10
181.2736610044
 20
101.9952446746
 10
181.2800890924
 20
101.9388890949
 10
181.2823629689
 20
101.8815097052
  0
LWPOLYLINE
  5
477
100
AcDbEntity
  8
RACCORDO
100
AcDbPolyline
 62
7
  6
CONTINUOUS
 90
10
 70
0
 10
171.77821666
 20
94.052165355
 10
171.78628731
 20
94.0487493213
 10
171.809996644
 20
94.0412352552
 10
171.8482394593
 20
94.0296231564
 10
171.8994784904
 20
94.0132479654
 10
171.9618511535
 20
93.9927747418
 10
172.0332724752
 20
93.970198665
 10
172.111446231
 20
93.9461847947
 10
172.193919633
 20
93.9200680711
 10
172.27821666
 20
93.8918484943
  0
LINE
  5
478
100
AcDbEntity
  8
0
100
AcDbLine
 62
250
  6
CONTINUOUS
 10
163.2895718108
 20
86.3140289783
 11
163.32821666
 21
86.2753841291
  0
LINE
  5
479
100
AcDbEntity
  8
0
100
AcDbLine
 62
7
  6
CONTINUOUS
 10
163.32821666
 20
86.3231712392
 11
163.2895718108
 21
86.3618160883
  0
LINE
  5
47A
100
AcDbEntity
  8
0
100
AcDbLine
 62
250
  6
CONTINUOUS
 10
163.7196871354
 20
86.53411165
 11
163.5665417382
 21
86.6872570472
  0
LINE
  5
47B
100
AcDbEntity
  8
0
100
AcDbLine
 62
250
  6
CONTINUOUS
 10
164.019641444
 20
86.8340659585
 11
163.8413560754
 21
87.0123513271
  0
LINE
  5
47C
100
AcDbEntity
  8
RACCORDO
100
AcDbLine
 62
250
  6
CONTINUOUS
 10
172.7841899312
 20
78.1207811376
 11
172.5230982894
 21
78.3818727794
  0
LINE
  5
47D
100
AcDbEntity
  8
RACCORDO
100
AcDbLine
 62
250
  6
CONTINUOUS
 10
115.0234613636
 20
135.8815097052
 11
115.2792696032
 21
135.6257014656
  0
LINE
  5
47E
100
AcDbEntity
  8
SMUSSO
100
AcDbLine
 62
7
  6
CONTINUOUS
 10
162.42821666
 20
88.825536434
 11
162.5091346383
 21
88.7446184556
  0
LINE
  5
47F
100
AcDbEntity
  8
RACCORDO
100
AcDbLine
 62
250
  6
CONTINUOUS
 10
173.2829719563
 20
78.6195631627
 11
173.0152355264
 21
78.8872995927
  0
LINE
  5
480
100
AcDbEntity
  8
RACCORDO
100
AcDbLine
 62
250
  6
CONTINUOUS
 10
115.5222433888
 20
136.3802917303
 11
115.7848051009
 21
136.1177300181
  0
LINE
  5
481
100
AcDbEntity
  8
DRAFT
100
AcDbLine
 62
7
  6
CONTINUOUS
 10
162.5233467638
 20
89.8103330054
 11
162.42821666
 21
89.9054631093
  0
LWPOLYLINE
  5
482
100
AcDbEntity
  8
RACCORDO
100
AcDbPolyline
 62
7
  6
CONTINUOUS
 90
7
 70
0
 10
164.2206360398
 20
87.1745430149
 10
164.3031125369
 20
87.0917442395
 10
164.3465038682
 20
87.0486857244
 10
164.3899822066
 20
87.0051195189
 10
164.4330895613
 20
86.9614524091
 10
164.4762839229
 20
86.9181360869
 10
164.5195652915
 20
86.875536434
  0
LWPOLYLINE
  5
483
100
AcDbEntity
  8
RACCORDO
100
AcDbPolyline
 62
7
  6
CONTINUOUS
 90
4
 70
0
 10
130.954845581
 20
134.875536434
 10
130.9514295474
 20
134.883607084
 10
130.9439154812
 20
134.907316418
 10
130.9323033825
 20
134.9455592333
  0
LWPOLYLINE
  5
484
100
AcDbEntity
  8
DRAFT
100
AcDbPolyline
 62
7
  6
CONTINUOUS
 90
10
 70
0
 10
138.0053093852
 20
140.625536434
 10
138.0257450785
 20
140.4496975476
 10
138.0523460934
 20
140.27480007
 10
138.0850672019
 20
140.1010594231
 10
138.1238535062
 20
139.9286973278
 10
138.1686465052
 20
139.7579159895
 10
138.2193871643
 20
139.5888986604
 10
138.2760066394
 20
139.4218432716
 10
138.3384234339
 20
139.2569613705
 10
138.4065515606
 20
139.0944528929
  0
LINE
  5
485
100
AcDbEntity
  8
0
100
AcDbLine
 62
7
  6
CONTINUOUS
 10
144.27821666
 20
135.675536434
 11
144.27821666
 21
135.2387215408
  0
LINE
  5
486
100
AcDbEntity
  8
0
100
AcDbLine
 62
7
  6
CONTINUOUS
 10
144.27821666
 20
87.0123513271
 11
144.27821666
 21
86.575536434
  0
LINE
  5
487
100
AcDbEntity
  8
DRAFT
100
AcDbLine
 62
7
  6
CONTINUOUS
 10
144.87821666
 20
134.225536434
 11
144.87821666
 21
132.3456097586
  0
LINE
  5
488
100
AcDbEntity
  8
DRAFT
100
AcDbLine
 62
7
  6
CONTINUOUS
 10
144.87821666
 20
88.025536434
 11
144.87821666
 21
89.9054631093
  0
LINE
  5
489
100
AcDbEntity
  8
0
100
AcDbLine
 62
7
  6
CONTINUOUS
 10
133.6580067321
 20
84.2802987424
 11
133.6146127631
 21
84.175536434
  0
LINE
  5
48A
100
AcDbEntity
  8
0
100
AcDbLine
 62
7
  6
CONTINUOUS
 10
133.2418205569
 20
83.275536434
 11
133.1936534752
 21
83.1592508121
  0
LWPOLYLINE
  5
48B
100
AcDbEntity
  8
DRAFT
100
AcDbPolyline
 62
7
  6
CONTINUOUS
 90
10
 70
0
 10
157.6498817594
 20
139.0944528929
 10
157.7180191194
 20
139.2569845299
 10
157.7804413488
 20
139.4218841772
 10
157.8370630668
 20
139.5889515975
 10
157.8878033393
 20
139.7579747627
 10
157.9325940428
 20
139.9287557456
 10
157.9713769406
 20
140.101111804
 10
158.0040941669
 20
140.2748408519
 10
158.0306913715
 20
140.4497208774
 10
158.0511239348
 20
140.625536434
  0
LWPOLYLINE
  5
48C
100
AcDbEntity
  8
RACCORDO
100
AcDbPolyline
 62
7
  6
CONTINUOUS
 90
6
 70
0
 10
164.019641444
 20
134.875536434
 10
164.0250605781
 20
134.8828868291
 10
164.0382530446
 20
134.8957245228
 10
164.0580783727
 20
134.9140495151
 10
164.0832651089
 20
134.9387021659
 10
164.112758778
 20
134.9688421151
  0
LINE
  5
48D
100
AcDbEntity
  8
0
100
AcDbLine
 62
7
  6
CONTINUOUS
 10
121.9761203595
 20
85.857992514
 11
120.8118685402
 21
84.6000000982
  0
LINE
  5
48E
100
AcDbEntity
  8
0
100
AcDbLine
 62
7
  6
CONTINUOUS
 10
124.27821666
 20
88.1600888145
 11
121.9761203595
 21
85.857992514
  0
LINE
  5
48F
100
AcDbEntity
  8
0
100
AcDbLine
 62
7
  6
CONTINUOUS
 10
170.9936642794
 20
134.875536434
 11
173.2957605799
 21
137.1776327344
  0
LINE
  5
490
100
AcDbEntity
  8
0
100
AcDbLine
 62
7
  6
CONTINUOUS
 10
120.8425079247
 20
84.5762238017
 11
124.27821666
 21
88.011932537
  0
LINE
  5
491
100
AcDbEntity
  8
0
100
AcDbLine
 62
7
  6
CONTINUOUS
 10
171.1418205569
 20
134.875536434
 11
174.3418205569
 21
138.075536434
  0
LINE
  5
492
100
AcDbEntity
  8
0
100
AcDbLine
 62
7
  6
CONTINUOUS
 10
121.7146127631
 20
84.175536434
 11
124.9146127631
 21
87.375536434
  0
LINE
  5
493
100
AcDbEntity
  8
0
100
AcDbLine
 62
7
  6
CONTINUOUS
 10
171.77821666
 20
134.2391403309
 11
175.2139253953
 21
137.6748490662
  0
LINE
  5
494
100
AcDbEntity
  8
0
100
AcDbLine
 62
7
  6
CONTINUOUS
 10
174.0803129605
 20
136.3930803539
 11
171.77821666
 21
134.0909840534
  0
LINE
  5
495
100
AcDbEntity
  8
0
100
AcDbLine
 62
7
  6
CONTINUOUS
 10
122.7606727401
 20
85.0734401335
 11
125.0627690405
 21
87.375536434
  0
LINE
  5
496
100
AcDbEntity
  8
0
100
AcDbLine
 62
7
  6
CONTINUOUS
 10
174.2045417109
 20
138.0186736741
 11
173.2957605799
 21
137.1776327344
  0
LINE
  5
497
100
AcDbEntity
  8
0
100
AcDbLine
 62
7
  6
CONTINUOUS
 10
125.471234634
 20
110.125536434
 11
125.52821666
 21
110.125536434
  0
LINE
  5
498
100
AcDbEntity
  8
0
100
AcDbLine
 62
7
  6
CONTINUOUS
 10
170.52821666
 20
110.125536434
 11
170.585198686
 21
110.125536434
  0
LINE
  5
499
100
AcDbEntity
  8
DRAFT
100
AcDbLine
 62
7
  6
CONTINUOUS
 10
173.02821666
 20
110.5707741255
 11
171.77821666
 21
110.5707741255
  0
LINE
  5
49A
100
AcDbEntity
  8
DRAFT
100
AcDbLine
 62
7
  6
CONTINUOUS
 10
123.02821666
 20
110.5707741255
 11
124.27821666
 21
110.5707741255
  0
LINE
  5
49B
100
AcDbEntity
  8
DRAFT
100
AcDbLine
 62
7
  6
CONTINUOUS
 10
173.02821666
 20
110.675536434
 11
171.77821666
 21
110.675536434
  0
LINE
  5
49C
100
AcDbEntity
  8
DRAFT
100
AcDbLine
 62
7
  6
CONTINUOUS
 10
124.27821666
 20
110.675536434
 11
123.02821666
 21
110.675536434
  0
LINE
  5
49D
100
AcDbEntity
  8
DRAFT
100
AcDbLine
 62
7
  6
CONTINUOUS
 10
123.02821666
 20
111.575536434
 11
124.27821666
 21
111.575536434
  0
LINE
  5
49E
100
AcDbEntity
  8
DRAFT
100
AcDbLine
 62
7
  6
CONTINUOUS
 10
171.77821666
 20
111.575536434
 11
173.02821666
 21
111.575536434
  0
LINE
  5
49F
100
AcDbEntity
  8
DRAFT
100
AcDbLine
 62
7
  6
CONTINUOUS
 10
173.02821666
 20
111.6802987424
 11
171.77821666
 21
111.6802987424
  0
LINE
  5
4A0
100
AcDbEntity
  8
DRAFT
100
AcDbLine
 62
7
  6
CONTINUOUS
 10
123.02821666
 20
111.6802987424
 11
124.27821666
 21
111.6802987424
  0
LINE
  5
4A1
100
AcDbEntity
  8
0
100
AcDbLine
 62
7
  6
CONTINUOUS
 10
174.2045417109
 20
84.2323991938
 11
173.2957605799
 21
85.0734401335
  0
LINE
  5
4A2
100
AcDbEntity
  8
0
100
AcDbLine
 62
7
  6
CONTINUOUS
 10
124.27821666
 20
134.0909840534
 11
121.9761203595
 21
136.3930803539
  0
LINE
  5
4A3
100
AcDbEntity
  8
0
100
AcDbLine
 62
7
  6
CONTINUOUS
 10
170.9936642794
 20
87.375536434
 11
173.2957605799
 21
85.0734401335
  0
LINE
  5
4A4
100
AcDbEntity
  8
0
100
AcDbLine
 62
7
  6
CONTINUOUS
 10
120.8425079247
 20
137.6748490662
 11
124.27821666
 21
134.2391403309
  0
LINE
  5
4A5
100
AcDbEntity
  8
0
100
AcDbLine
 62
7
  6
CONTINUOUS
 10
171.1418205569
 20
87.375536434
 11
174.3418205569
 21
84.175536434
  0
LINE
  5
4A6
100
AcDbEntity
  8
0
100
AcDbLine
 62
7
  6
CONTINUOUS
 10
121.7146127631
 20
138.075536434
 11
124.9146127631
 21
134.875536434
  0
LINE
  5
4A7
100
AcDbEntity
  8
0
100
AcDbLine
 62
7
  6
CONTINUOUS
 10
171.77821666
 20
88.011932537
 11
175.2139253953
 21
84.5762238017
  0
LINE
  5
4A8
100
AcDbEntity
  8
0
100
AcDbLine
 62
7
  6
CONTINUOUS
 10
174.0803129605
 20
85.857992514
 11
171.77821666
 21
88.1600888145
  0
LINE
  5
4A9
100
AcDbEntity
  8
0
100
AcDbLine
 62
7
  6
CONTINUOUS
 10
122.7606727401
 20
137.1776327344
 11
125.0627690405
 21
134.875536434
  0
LINE
  5
4AA
100
AcDbEntity
  8
0
100
AcDbLine
 62
7
  6
CONTINUOUS
 10
121.9761203595
 20
136.3930803539
 11
120.8118685402
 21
137.6510727697
  0
LINE
  5
4AB
100
AcDbEntity
  8
0
100
AcDbLine
 62
7
  6
CONTINUOUS
 10
133.1936534752
 20
139.0918220558
 11
133.2418205569
 21
138.975536434
  0
LINE
  5
4AC
100
AcDbEntity
  8
0
100
AcDbLine
 62
7
  6
CONTINUOUS
 10
133.6146127631
 20
138.075536434
 11
133.6580067321
 21
137.9707741255
  0
LINE
  5
4AD
100
AcDbEntity
  8
DRAFT
100
AcDbLine
 62
7
  6
CONTINUOUS
 10
151.17821666
 20
88.025536434
 11
151.17821666
 21
89.9054631093
  0
LINE
  5
4AE
100
AcDbEntity
  8
DRAFT
100
AcDbLine
 62
7
  6
CONTINUOUS
 10
151.17821666
 20
132.3456097586
 11
151.17821666
 21
134.225536434
  0
LINE
  5
4AF
100
AcDbEntity
  8
0
100
AcDbLine
 62
7
  6
CONTINUOUS
 10
151.77821666
 20
86.575536434
 11
151.77821666
 21
87.0123513271
  0
LINE
  5
4B0
100
AcDbEntity
  8
0
100
AcDbLine
 62
7
  6
CONTINUOUS
 10
151.77821666
 20
135.2387215408
 11
151.77821666
 21
135.675536434
  0
LINE
  5
4B1
100
AcDbEntity
  8
0
100
AcDbLine
 62
7
  6
CONTINUOUS
 10
162.8627798447
 20
139.0918220558
 11
162.8146127631
 21
138.975536434
  0
LINE
  5
4B2
100
AcDbEntity
  8
0
100
AcDbLine
 62
7
  6
CONTINUOUS
 10
162.4418205569
 20
138.075536434
 11
162.3984265879
 21
137.9707741255
  0
LWPOLYLINE
  5
4B3
100
AcDbEntity
  8
DRAFT
100
AcDbPolyline
 62
7
  6
CONTINUOUS
 90
10
 70
0
 10
138.4065515606
 20
83.156619975
 10
138.3384142006
 20
82.9940883381
 10
138.2759919711
 20
82.8291886907
 10
138.2193702531
 20
82.6621212704
 10
138.1686299807
 20
82.4930981052
 10
138.1238392772
 20
82.3223171223
 10
138.0850563793
 20
82.149961064
 10
138.0523391531
 20
81.976232016
 10
138.0257419484
 20
81.8013519905
 10
138.0053093852
 20
81.625536434
  0
LWPOLYLINE
  5
4B4
100
AcDbEntity
  8
RACCORDO
100
AcDbPolyline
 62
7
  6
CONTINUOUS
 90
6
 70
0
 10
132.036791876
 20
87.375536434
 10
132.0313727419
 20
87.3681860388
 10
132.0181802754
 20
87.3553483451
 10
131.9983549473
 20
87.3370233528
 10
131.9731682111
 20
87.3123707021
 10
131.943674542
 20
87.2822307528
  0
LINE
  5
4B5
100
AcDbEntity
  8
0
100
AcDbLine
 62
7
  6
CONTINUOUS
 10
174.0803129605
 20
136.3930803539
 11
175.2445647797
 21
137.6510727697
  0
LINE
  5
4B6
100
AcDbEntity
  8
DRAFT
100
AcDbLine
 62
7
  6
CONTINUOUS
 10
133.5330865561
 20
89.8103330054
 11
133.62821666
 21
89.9054631093
  0
LINE
  5
4B7
100
AcDbEntity
  8
0
100
AcDbLine
 62
7
  6
CONTINUOUS
 10
121.8518916091
 20
84.2323991938
 11
122.7606727401
 21
85.0734401335
  0
LINE
  5
4B8
100
AcDbEntity
  8
0
100
AcDbLine
 62
7
  6
CONTINUOUS
 10
170.585198686
 20
112.125536434
 11
170.52821666
 21
112.125536434
  0
LINE
  5
4B9
100
AcDbEntity
  8
0
100
AcDbLine
 62
7
  6
CONTINUOUS
 10
125.52821666
 20
112.125536434
 11
125.471234634
 21
112.125536434
  0
LINE
  5
4BA
100
AcDbEntity
  8
0
100
AcDbLine
 62
7
  6
CONTINUOUS
 10
121.8518916091
 20
138.0186736741
 11
122.7606727401
 21
137.1776327344
  0
LINE
  5
4BB
100
AcDbEntity
  8
DRAFT
100
AcDbLine
 62
7
  6
CONTINUOUS
 10
133.5330865561
 20
132.4407398625
 11
133.62821666
 21
132.3456097586
  0
LINE
  5
4BC
100
AcDbEntity
  8
0
100
AcDbLine
 62
7
  6
CONTINUOUS
 10
174.0803129605
 20
85.857992514
 11
175.2445647797
 21
84.6000000982
  0
LINE
  5
4BD
100
AcDbEntity
  8
0
100
AcDbLine
 62
7
  6
CONTINUOUS
 10
162.3984265879
 20
84.2802987424
 11
162.4418205569
 21
84.175536434
  0
LINE
  5
4BE
100
AcDbEntity
  8
0
100
AcDbLine
 62
7
  6
CONTINUOUS
 10
162.8146127631
 20
83.275536434
 11
162.8627798447
 21
83.1592508121
  0
LWPOLYLINE
  5
4BF
100
AcDbEntity
  8
RACCORDO
100
AcDbPolyline
 62
7
  6
CONTINUOUS
 90
13
 70
0
 10
157.0613718422
 20
78.9074736413
 10
157.0646153641
 20
78.8403560411
 10
157.0765528976
 20
78.7745410466
 10
157.096930898
 20
78.7111457516
 10
157.1253596876
 20
78.6511794258
 10
157.1613101253
 20
78.5957204119
 10
157.2040682353
 20
78.5458615534
 10
157.2528350702
 20
78.5023974805
 10
157.306696915
 20
78.465991005
 10
157.3645525148
 20
78.4372719834
 10
157.425313719
 20
78.4166068309
 10
157.4879650907
 20
78.4041594789
 10
157.5514529686
 20
78.3999907174
  0
LINE
  5
4C0
100
AcDbEntity
  8
0
100
AcDbLine
 62
7
  6
CONTINUOUS
 10
155.02821666
 20
85.7169089827
 11
155.02821666
 21
86.1140594392
  0
LINE
  5
4C1
100
AcDbEntity
  8
0
100
AcDbLine
 62
7
  6
CONTINUOUS
 10
155.02821666
 20
136.1370134287
 11
155.02821666
 21
136.5341638852
  0
LINE
  5
4C2
100
AcDbEntity
  8
DRAFT
100
AcDbLine
 62
7
  6
CONTINUOUS
 10
156.0330865561
 20
87.9304063301
 11
156.0330865561
 21
89.8103330054
  0
LINE
  5
4C3
100
AcDbEntity
  8
DRAFT
100
AcDbLine
 62
7
  6
CONTINUOUS
 10
156.0330865561
 20
132.4407398625
 11
156.0330865561
 21
134.3206665378
  0
LINE
  5
4C4
100
AcDbEntity
  8
DRAFT
100
AcDbLine
 62
7
  6
CONTINUOUS
 10
156.12821666
 20
88.825536434
 11
156.12821666
 21
89.9054631093
  0
LINE
  5
4C5
100
AcDbEntity
  8
DRAFT
100
AcDbLine
 62
7
  6
CONTINUOUS
 10
156.12821666
 20
132.3456097586
 11
156.12821666
 21
133.425536434
  0
LINE
  5
4C6
100
AcDbEntity
  8
RACCORDO
100
AcDbLine
 62
250
  6
CONTINUOUS
 10
156.5240703511
 20
78.6195631627
 11
156.5240703511
 21
79.6815097052
  0
LINE
  5
4C7
100
AcDbEntity
  8
RACCORDO
100
AcDbLine
 62
250
  6
CONTINUOUS
 10
156.5240703511
 20
142.5695631627
 11
156.5240703511
 21
143.6315097052
  0
LINE
  5
4C8
100
AcDbEntity
  8
RACCORDO
100
AcDbLine
 62
250
  6
CONTINUOUS
 10
156.7734613636
 20
78.6195631627
 11
156.7734613636
 21
79.6815097052
  0
LINE
  5
4C9
100
AcDbEntity
  8
RACCORDO
100
AcDbLine
 62
250
  6
CONTINUOUS
 10
156.7734613636
 20
142.5695631627
 11
156.7734613636
 21
143.6315097052
  0
LINE
  5
4CA
100
AcDbEntity
  8
RACCORDO
100
AcDbLine
 62
7
  6
CONTINUOUS
 10
157.02821666
 20
146.2243904827
 11
157.02821666
 21
145.525536434
  0
LINE
  5
4CB
100
AcDbEntity
  8
RACCORDO
100
AcDbLine
 62
7
  6
CONTINUOUS
 10
157.02821666
 20
76.725536434
 11
157.02821666
 21
76.0266823852
  0
LINE
  5
4CC
100
AcDbEntity
  8
RACCORDO
100
AcDbLine
 62
250
  6
CONTINUOUS
 10
157.2722433888
 20
77.871390125
 11
157.2722433884
 21
78.1207811376
  0
LINE
  5
4CD
100
AcDbEntity
  8
RACCORDO
100
AcDbLine
 62
250
  6
CONTINUOUS
 10
157.2722433888
 20
144.3796827429
 11
157.2722433888
 21
144.1302917303
  0
LINE
  5
4CE
100
AcDbEntity
  8
RACCORDO
100
AcDbLine
 62
250
  6
CONTINUOUS
 10
157.2722433888
 20
80.4296827429
 11
157.2722433888
 21
80.1802917303
  0
LINE
  5
4CF
100
AcDbEntity
  8
RACCORDO
100
AcDbLine
 62
250
  6
CONTINUOUS
 10
157.2722433888
 20
141.821390125
 11
157.2722433884
 21
142.0707811376
  0
LWPOLYLINE
  5
4D0
100
AcDbEntity
  8
RACCORDO
100
AcDbPolyline
 62
250
  6
CONTINUOUS
 90
22
 70
0
 10
156.7734613636
 20
143.6315097052
 10
156.7746987675
 20
143.6680083424
 10
156.7786129778
 20
143.7044603905
 10
156.7852186698
 20
143.7406685558
 10
156.794524923
 20
143.7764678449
 10
156.8065121003
 20
143.8116180754
 10
156.8211063658
 20
143.845813647
 10
156.8382320144
 20
143.8788470891
 10
156.8578108943
 20
143.9105453317
 10
156.8797096832
 20
143.9406761794
 10
156.9037811318
 20
143.9690436306
 10
156.9299131241
 20
143.9955232629
 10
156.958004276
 20
144.0200028404
 10
156.9879068523
 20
144.0423362646
 10
157.0194621659
 20
144.0623894785
 10
157.0525513038
 20
144.0800651592
 10
157.0870451201
 20
144.0952579289
 10
157.1227179612
 20
144.1078345143
 10
157.1592911607
 20
144.1176816798
 10
157.1965300094
 20
144.1247324014
 10
157.2342519672
 20
144.1289463913
 10
157.2722433888
 20
144.1302917303
  0
LWPOLYLINE
  5
4D1
100
AcDbEntity
  8
RACCORDO
100
AcDbPolyline
 62
250
  6
CONTINUOUS
 90
22
 70
0
 10
156.5240703511
 20
143.6315097052
 10
156.5260592184
 20
143.6866354326
 10
156.5320578114
 20
143.7411013462
 10
156.5420661299
 20
143.794907446
 10
156.5561634086
 20
143.8484006549
 10
156.5742704129
 20
143.90123405
 10
156.5961494389
 20
143.9523668627
 10
156.6218891493
 20
144.0017433452
 10
156.6514008814
 20
144.0494192452
 10
156.6841809436
 20
144.0945210378
 10
156.7202527226
 20
144.1369650358
 10
156.7595928316
 20
144.1768349263
 10
156.8016274191
 20
144.2135082456
 10
156.8463909284
 20
144.2469544226
 10
156.8938489161
 20
144.2772040284
 10
156.9433242003
 20
144.303726312
 10
156.9949222158
 20
144.3264866529
 10
157.0485375277
 20
144.3455196716
 10
157.1031766496
 20
144.3603984789
 10
157.1585084193
 20
144.3709807783
 10
157.2148639991
 20
144.3774088663
 10
157.2722433888
 20
144.3796827429
  0
LWPOLYLINE
  5
4D2
100
AcDbEntity
  8
RACCORDO
100
AcDbPolyline
 62
7
  6
CONTINUOUS
 90
7
 70
0
 10
165.1241299375
 20
134.9455592333
 10
165.1405051286
 20
134.9967982643
 10
165.1609783521
 20
135.0591709275
 10
165.183554429
 20
135.1305922492
 10
165.2075682993
 20
135.208766005
 10
165.2336850228
 20
135.2912394069
 10
165.2619045996
 20
135.375536434
  0
LWPOLYLINE
  5
4D3
100
AcDbEntity
  8
RACCORDO
100
AcDbPolyline
 62
7
  6
CONTINUOUS
 90
4
 70
0
 10
165.101587739
 20
134.875536434
 10
165.1050037726
 20
134.883607084
 10
165.1125178388
 20
134.907316418
 10
165.1241299375
 20
134.9455592333
  0
LINE
  5
4D4
100
AcDbEntity
  8
0
100
AcDbLine
 62
7
  6
CONTINUOUS
 10
133.2275708822
 20
83.125536434
 11
131.7404612987
 21
81.625536434
  0
LINE
  5
4D5
100
AcDbEntity
  8
RACCORDO
100
AcDbLine
 62
250
  6
CONTINUOUS
 10
180.5341899312
 20
136.3802917303
 11
180.271628219
 21
136.1177300181
  0
LINE
  5
4D6
100
AcDbEntity
  8
RACCORDO
100
AcDbLine
 62
250
  6
CONTINUOUS
 10
122.7734613636
 20
78.6195631627
 11
123.0411977936
 21
78.8872995927
  0
LINE
  5
4D7
100
AcDbEntity
  8
SMUSSO
100
AcDbLine
 62
7
  6
CONTINUOUS
 10
133.62821666
 20
88.825536434
 11
133.5472986816
 21
88.7446184556
  0
LINE
  5
4D8
100
AcDbEntity
  8
RACCORDO
100
AcDbLine
 62
250
  6
CONTINUOUS
 10
181.0329719563
 20
135.8815097052
 11
180.7771637168
 21
135.6257014656
  0
LINE
  5
4D9
100
AcDbEntity
  8
RACCORDO
100
AcDbLine
 62
250
  6
CONTINUOUS
 10
123.2722433888
 20
78.1207811376
 11
123.5333350306
 21
78.3818727794
  0
LINE
  5
4DA
100
AcDbEntity
  8
0
100
AcDbLine
 62
250
  6
CONTINUOUS
 10
132.2150772446
 20
87.0123513271
 11
132.036791876
 21
86.8340659585
  0
LINE
  5
4DB
100
AcDbEntity
  8
0
100
AcDbLine
 62
250
  6
CONTINUOUS
 10
132.4898915766
 20
86.687257042
 11
132.3367461846
 21
86.53411165
  0
LINE
  5
4DC
100
AcDbEntity
  8
0
100
AcDbLine
 62
7
  6
CONTINUOUS
 10
132.72821666
 20
86.3231712392
 11
132.7668615091
 21
86.3618160883
  0
LINE
  5
4DD
100
AcDbEntity
  8
0
100
AcDbLine
 62
250
  6
CONTINUOUS
 10
132.7668615091
 20
86.3140289783
 11
132.72821666
 21
86.2753841291
  0
LINE
  5
4DE
100
AcDbEntity
  8
0
100
AcDbLine
 62
250
  6
CONTINUOUS
 10
133.7667092043
 20
85.3141812831
 11
133.7280643551
 21
85.275536434
  0
LWPOLYLINE
  5
4DF
100
AcDbEntity
  8
RACCORDO
100
AcDbPolyline
 62
7
  6
CONTINUOUS
 90
7
 70
0
 10
131.8361124432
 20
87.1747244954
 10
131.753997734
 20
87.0929009629
 10
131.7111791743
 20
87.0497605844
 10
131.6676632429
 20
87.0063316484
 10
131.6238050982
 20
86.9630218011
 10
131.5800836224
 20
86.9194233962
 10
131.5368680284
 20
86.875536434
  0
LINE
  5
4E0
100
AcDbEntity
  8
0
100
AcDbLine
 62
7
  6
CONTINUOUS
 10
175.2220737555
 20
125.125536434
 11
174.22821666
 21
124.1392480067
  0
LINE
  5
4E1
100
AcDbEntity
  8
DRAFT
100
AcDbLine
 62
7
  6
CONTINUOUS
 10
177.4754153807
 20
127.3585213444
 11
176.02821666
 21
125.9249056461
  0
LWPOLYLINE
  5
4E2
100
AcDbEntity
  8
RACCORDO
100
AcDbPolyline
 62
7
  6
CONTINUOUS
 90
3
 70
0
 10
131.943674542
 20
87.2822307528
 10
131.8743426172
 20
87.2134076494
 10
131.8361124432
 20
87.1747244954
  0
LWPOLYLINE
  5
4E3
100
AcDbEntity
  8
RACCORDO
100
AcDbPolyline
 62
7
  6
CONTINUOUS
 90
10
 70
0
 10
124.27821666
 20
94.052165355
 10
124.27014601
 20
94.0487493213
 10
124.2464366759
 20
94.0412352552
 10
124.2081938606
 20
94.0296231564
 10
124.1569548296
 20
94.0132479654
 10
124.0945821665
 20
93.9927747418
 10
124.0231608448
 20
93.970198665
 10
123.944987089
 20
93.9461847947
 10
123.862513687
 20
93.9200680711
 10
123.77821666
 20
93.8918484943
  0
LINE
  5
4E4
100
AcDbEntity
  8
RACCORDO
100
AcDbLine
 62
250
  6
CONTINUOUS
 10
125.47821666
 20
94.2925920595
 11
125.3758038328
 21
94.258252084
  0
LINE
  5
4E5
100
AcDbEntity
  8
RACCORDO
100
AcDbLine
 62
250
  6
CONTINUOUS
 10
125.5389599958
 20
94.1116205211
 11
125.4363250078
 21
94.0775745789
  0
LWPOLYLINE
  5
4E6
100
AcDbEntity
  8
RACCORDO
100
AcDbPolyline
 62
7
  6
CONTINUOUS
 90
13
 70
0
 10
180.2502276324
 20
120.1547434364
 10
180.3173708285
 20
120.1579634999
 10
180.383214746
 20
120.1698810081
 10
180.4466415332
 20
120.190244321
 10
180.5066422181
 20
120.2186660909
 10
180.5621349931
 20
120.2546182162
 10
180.6120210623
 20
120.2973846203
 10
180.6555089536
 20
120.3461713558
 10
180.6919295212
 20
120.4000588053
 10
180.7206425471
 20
120.4579198987
 10
180.7412885724
 20
120.5186532946
 10
180.7537179197
 20
120.5812493463
 10
180.7578800182
 20
120.6446551009
  0
LINE
  5
4E7
100
AcDbEntity
  8
RACCORDO
100
AcDbLine
 62
7
  6
CONTINUOUS
 10
122.6195892087
 20
118.125536434
 11
124.27821666
 21
118.125536434
  0
LINE
  5
4E8
100
AcDbEntity
  8
RACCORDO
100
AcDbLine
 62
7
  6
CONTINUOUS
 10
171.77821666
 20
118.125536434
 11
173.4368441112
 21
118.125536434
  0
LINE
  5
4E9
100
AcDbEntity
  8
RACCORDO
100
AcDbLine
 62
250
  6
CONTINUOUS
 10
180.5341899312
 20
119.621390125
 11
179.4722433888
 21
119.621390125
  0
LINE
  5
4EA
100
AcDbEntity
  8
RACCORDO
100
AcDbLine
 62
250
  6
CONTINUOUS
 10
116.5841899312
 20
119.621390125
 11
115.5222433888
 21
119.621390125
  0
LINE
  5
4EB
100
AcDbEntity
  8
RACCORDO
100
AcDbLine
 62
250
  6
CONTINUOUS
 10
180.5341899312
 20
119.8707811376
 11
179.4722433888
 21
119.8707811376
  0
LINE
  5
4EC
100
AcDbEntity
  8
RACCORDO
100
AcDbLine
 62
250
  6
CONTINUOUS
 10
116.5841899312
 20
119.8707811376
 11
115.5222433888
 21
119.8707811376
  0
LINE
  5
4ED
100
AcDbEntity
  8
0
100
AcDbLine
 62
7
  6
CONTINUOUS
 10
170.57821666
 20
120.125536434
 11
170.52821666
 21
120.125536434
  0
LINE
  5
4EE
100
AcDbEntity
  8
0
100
AcDbLine
 62
7
  6
CONTINUOUS
 10
125.52821666
 20
120.125536434
 11
125.47821666
 21
120.125536434
  0
LINE
  5
4EF
100
AcDbEntity
  8
DRAFT
100
AcDbLine
 62
7
  6
CONTINUOUS
 10
112.62821666
 20
120.125536434
 11
113.62821666
 21
120.125536434
  0
LINE
  5
4F0
100
AcDbEntity
  8
DRAFT
100
AcDbLine
 62
7
  6
CONTINUOUS
 10
182.42821666
 20
120.125536434
 11
183.42821666
 21
120.125536434
  0
LINE
  5
4F1
100
AcDbEntity
  8
RACCORDO
100
AcDbLine
 62
250
  6
CONTINUOUS
 10
181.2823629689
 20
120.3695631627
 11
181.0329719563
 21
120.3695631624
  0
LINE
  5
4F2
100
AcDbEntity
  8
RACCORDO
100
AcDbLine
 62
250
  6
CONTINUOUS
 10
117.3323629689
 20
120.3695631627
 11
117.0829719563
 21
120.3695631624
  0
LINE
  5
4F3
100
AcDbEntity
  8
RACCORDO
100
AcDbLine
 62
250
  6
CONTINUOUS
 10
114.7740703511
 20
120.3695631627
 11
115.0234613636
 21
120.3695631627
  0
LINE
  5
4F4
100
AcDbEntity
  8
RACCORDO
100
AcDbLine
 62
250
  6
CONTINUOUS
 10
178.7240703511
 20
120.3695631627
 11
178.9734613636
 21
120.3695631627
  0
LWPOLYLINE
  5
4F5
100
AcDbEntity
  8
RACCORDO
100
AcDbPolyline
 62
250
  6
CONTINUOUS
 90
22
 70
0
 10
115.5222433888
 20
119.8707811376
 10
115.4857447515
 20
119.8720185415
 10
115.4492927035
 20
119.8759327518
 10
115.4130845382
 20
119.8825384438
 10
115.3772852491
 20
119.891844697
 10
115.3421350186
 20
119.9038318743
 10
115.3079394469
 20
119.9184261397
 10
115.2749060048
 20
119.9355517884
 10
115.2432077622
 20
119.9551306682
 10
115.2130769146
 20
119.9770294572
 10
115.1847094633
 20
120.0011009058
 10
115.1582298311
 20
120.027232898
 10
115.1337502535
 20
120.0553240499
 10
115.1114168294
 20
120.0852266263
 10
115.0913636155
 20
120.1167819398
 10
115.0736879347
 20
120.1498710778
 10
115.058495165
 20
120.184364894
 10
115.0459185797
 20
120.2200377351
 10
115.0360714141
 20
120.2566109346
 10
115.0290206926
 20
120.2938497833
 10
115.0248067026
 20
120.3315717412
 10
115.0234613636
 20
120.3695631627
  0
LWPOLYLINE
  5
4F6
100
AcDbEntity
  8
RACCORDO
100
AcDbPolyline
 62
250
  6
CONTINUOUS
 90
22
 70
0
 10
115.5222433888
 20
119.621390125
 10
115.4671176614
 20
119.6233789924
 10
115.4126517477
 20
119.6293775853
 10
115.3588456479
 20
119.6393859039
 10
115.305352439
 20
119.6534831826
 10
115.2525190439
 20
119.6715901869
 10
115.2013862312
 20
119.6934692129
 10
115.1520097488
 20
119.7192089233
 10
115.1043338487
 20
119.7487206554
 10
115.0592320561
 20
119.7815007176
 10
115.0167880581
 20
119.8175724966
 10
114.9769181676
 20
119.8569126056
 10
114.9402448483
 20
119.8989471931
 10
114.9067986713
 20
119.9437107024
 10
114.8765490655
 20
119.9911686901
 10
114.8500267819
 20
120.0406439743
 10
114.8272664411
 20
120.0922419897
 10
114.8082334223
 20
120.1458573017
 10
114.793354615
 20
120.2004964236
 10
114.7827723156
 20
120.2558281933
 10
114.7763442276
 20
120.312183773
 10
114.7740703511
 20
120.3695631627
  0
LINE
  5
4F7
100
AcDbEntity
  8
RACCORDO
100
AcDbLine
 62
250
  6
CONTINUOUS
 10
125.4235067804
 20
128.1777455711
 11
125.5383663975
 21
128.1396494272
  0
LINE
  5
4F8
100
AcDbEntity
  8
RACCORDO
100
AcDbLine
 62
250
  6
CONTINUOUS
 10
125.3630132315
 20
127.9971046793
 11
125.47821666
 21
127.9584808084
  0
LWPOLYLINE
  5
4F9
100
AcDbEntity
  8
RACCORDO
100
AcDbPolyline
 62
7
  6
CONTINUOUS
 90
10
 70
0
 10
124.27821666
 20
128.1989075129
 10
124.27014601
 20
128.2023235466
 10
124.2464366759
 20
128.2098376128
 10
124.2081938606
 20
128.2214497115
 10
124.1569548296
 20
128.2378249025
 10
124.0945821665
 20
128.2582981261
 10
124.0231608448
 20
128.2808742029
 10
123.944987089
 20
128.3048880732
 10
123.862513687
 20
128.3310047968
 10
123.77821666
 20
128.3592243736
  0
LINE
  5
4FA
100
AcDbEntity
  8
DRAFT
100
AcDbLine
 62
7
  6
CONTINUOUS
 10
176.02821666
 20
96.3261672219
 11
177.4754153807
 21
94.8925515235
  0
LINE
  5
4FB
100
AcDbEntity
  8
0
100
AcDbLine
 62
7
  6
CONTINUOUS
 10
174.22821666
 20
98.1118248612
 11
175.2220737555
 21
97.125536434
  0
LINE
  5
4FC
100
AcDbEntity
  8
RACCORDO
100
AcDbLine
 62
250
  6
CONTINUOUS
 10
180.5341899312
 20
85.8707811376
 11
180.271628219
 21
86.1333428498
  0
LINE
  5
4FD
100
AcDbEntity
  8
RACCORDO
100
AcDbLine
 62
250
  6
CONTINUOUS
 10
122.7734613636
 20
143.6315097052
 11
123.0411977936
 21
143.3637732753
  0
LINE
  5
4FE
100
AcDbEntity
  8
SMUSSO
100
AcDbLine
 62
7
  6
CONTINUOUS
 10
133.62821666
 20
133.425536434
 11
133.5472986816
 21
133.5064544123
  0
LINE
  5
4FF
100
AcDbEntity
  8
RACCORDO
100
AcDbLine
 62
250
  6
CONTINUOUS
 10
181.0329719563
 20
86.3695631627
 11
180.7771637168
 21
86.6253714023
  0
LINE
  5
500
100
AcDbEntity
  8
RACCORDO
100
AcDbLine
 62
250
  6
CONTINUOUS
 10
123.2722433888
 20
144.1302917303
 11
123.5333350306
 21
143.8692000885
  0
LINE
  5
501
100
AcDbEntity
  8
0
100
AcDbLine
 62
250
  6
CONTINUOUS
 10
132.036791876
 20
135.4170069094
 11
132.2150772446
 21
135.2387215408
  0
LINE
  5
502
100
AcDbEntity
  8
0
100
AcDbLine
 62
250
  6
CONTINUOUS
 10
132.3367461846
 20
135.7169612179
 11
132.4898915818
 21
135.5638158207
  0
LINE
  5
503
100
AcDbEntity
  8
0
100
AcDbLine
 62
7
  6
CONTINUOUS
 10
132.72821666
 20
135.9279016287
 11
132.7668615091
 21
135.8892567796
  0
LINE
  5
504
100
AcDbEntity
  8
0
100
AcDbLine
 62
250
  6
CONTINUOUS
 10
132.7668615091
 20
135.9370438896
 11
132.72821666
 21
135.9756887388
  0
LINE
  5
505
100
AcDbEntity
  8
0
100
AcDbLine
 62
250
  6
CONTINUOUS
 10
133.7667092043
 20
136.9368915848
 11
133.7280643551
 21
136.975536434
  0
LWPOLYLINE
  5
506
100
AcDbEntity
  8
RACCORDO
100
AcDbPolyline
 62
7
  6
CONTINUOUS
 90
7
 70
0
 10
131.8357972801
 20
135.076529853
 10
131.7533207831
 20
135.1593286284
 10
131.7099294517
 20
135.2023871435
 10
131.6664511134
 20
135.245953349
 10
131.6233437587
 20
135.2896204588
 10
131.5801493971
 20
135.332936781
 10
131.5368680284
 20
135.375536434
  0
LINE
  5
507
100
AcDbEntity
  8
0
100
AcDbLine
 62
7
  6
CONTINUOUS
 10
131.7404612987
 20
140.625536434
 11
133.2275708822
 21
139.125536434
  0
LWPOLYLINE
  5
508
100
AcDbEntity
  8
RACCORDO
100
AcDbPolyline
 62
7
  6
CONTINUOUS
 90
4
 70
0
 10
165.101587739
 20
87.375536434
 10
165.1050037726
 20
87.3674657839
 10
165.1125178388
 20
87.3437564499
 10
165.1241299375
 20
87.3055136346
  0
LWPOLYLINE
  5
509
100
AcDbEntity
  8
RACCORDO
100
AcDbPolyline
 62
7
  6
CONTINUOUS
 90
7
 70
0
 10
165.1241299375
 20
87.3055136346
 10
165.1405051286
 20
87.2542746036
 10
165.1609783521
 20
87.1919019404
 10
165.183554429
 20
87.1204806187
 10
165.2075682993
 20
87.0423068629
 10
165.2336850228
 20
86.959833461
 10
165.2619045996
 20
86.875536434
  0
LWPOLYLINE
  5
50A
100
AcDbEntity
  8
DRAFT
100
AcDbPolyline
 62
7
  6
CONTINUOUS
 90
10
 70
0
 10
158.0511239348
 20
81.625536434
 10
158.0306882415
 20
81.8013753203
 10
158.0040872266
 20
81.9762727979
 10
157.971366118
 20
82.1500134448
 10
157.9325798138
 20
82.3223755401
 10
157.8877868148
 20
82.4931568784
 10
157.8370461557
 20
82.6621742076
 10
157.7804266806
 20
82.8292295964
 10
157.7180098861
 20
82.9941114974
 10
157.6498817594
 20
83.156619975
  0
LWPOLYLINE
  5
50B
100
AcDbEntity
  8
RACCORDO
100
AcDbPolyline
 62
7
  6
CONTINUOUS
 90
13
 70
0
 10
157.0688954592
 20
142.8649972583
 10
157.0741424091
 20
142.8008826469
 10
157.0877969764
 20
142.7377519042
 10
157.1096825436
 20
142.6767000146
 10
157.1395251531
 20
142.6187481667
 10
157.17683543
 20
142.5649780864
 10
157.2208407308
 20
142.5164641491
 10
157.2707430823
 20
142.4740443116
 10
157.3256968721
 20
142.4384080958
 10
157.3846235894
 20
142.4101628326
 10
157.4464521935
 20
142.3897273674
 10
157.5101649344
 20
142.3773689184
 10
157.5746863673
 20
142.3732241161
  0
LINE
  5
50C
100
AcDbEntity
  8
RACCORDO
100
AcDbLine
 62
7
  6
CONTINUOUS
 10
157.0613718422
 20
143.3435992266
 11
157.0688954592
 21
142.8649972583
  0
LINE
  5
50D
100
AcDbEntity
  8
DRAFT
100
AcDbLine
 62
7
  6
CONTINUOUS
 10
161.52821666
 20
76.725536434
 11
161.52821666
 21
77.125536434
  0
LINE
  5
50E
100
AcDbEntity
  8
DRAFT
100
AcDbLine
 62
7
  6
CONTINUOUS
 10
161.52821666
 20
145.125536434
 11
161.52821666
 21
145.525536434
  0
LINE
  5
50F
100
AcDbEntity
  8
RACCORDO
100
AcDbLine
 62
7
  6
CONTINUOUS
 10
157.0688954592
 20
79.3860756096
 11
157.0613718422
 21
78.9074736413
  0
LWPOLYLINE
  5
510
100
AcDbEntity
  8
RACCORDO
100
AcDbPolyline
 62
250
  6
CONTINUOUS
 90
22
 70
0
 10
156.7734613636
 20
79.6815097052
 10
156.7746987675
 20
79.7180083424
 10
156.7786129778
 20
79.7544603905
 10
156.7852186698
 20
79.7906685558
 10
156.794524923
 20
79.8264678449
 10
156.8065121003
 20
79.8616180754
 10
156.8211063658
 20
79.895813647
 10
156.8382320144
 20
79.9288470891
 10
156.8578108943
 20
79.9605453317
 10
156.8797096832
 20
79.9906761794
 10
156.9037811318
 20
80.0190436306
 10
156.9299131241
 20
80.0455232629
 10
156.958004276
 20
80.0700028404
 10
156.9879068523
 20
80.0923362646
 10
157.0194621659
 20
80.1123894785
 10
157.0525513038
 20
80.1300651592
 10
157.0870451201
 20
80.1452579289
 10
157.1227179612
 20
80.1578345143
 10
157.1592911607
 20
80.1676816798
 10
157.1965300094
 20
80.1747324014
 10
157.2342519672
 20
80.1789463913
 10
157.2722433888
 20
80.1802917303
  0
LWPOLYLINE
  5
511
100
AcDbEntity
  8
RACCORDO
100
AcDbPolyline
 62
250
  6
CONTINUOUS
 90
22
 70
0
 10
156.5240703511
 20
79.6815097052
 10
156.5260592184
 20
79.7366354326
 10
156.5320578114
 20
79.7911013462
 10
156.5420661299
 20
79.844907446
 10
156.5561634086
 20
79.8984006549
 10
156.5742704129
 20
79.95123405
 10
156.5961494389
 20
80.0023668627
 10
156.6218891493
 20
80.0517433452
 10
156.6514008814
 20
80.0994192452
 10
156.6841809436
 20
80.1445210378
 10
156.7202527226
 20
80.1869650358
 10
156.7595928316
 20
80.2268349263
 10
156.8016274191
 20
80.2635082456
 10
156.8463909284
 20
80.2969544226
 10
156.8938489161
 20
80.3272040284
 10
156.9433242003
 20
80.353726312
 10
156.9949222158
 20
80.3764866529
 10
157.0485375277
 20
80.3955196716
 10
157.1031766496
 20
80.4103984789
 10
157.1585084193
 20
80.4209807783
 10
157.2148639991
 20
80.4274088663
 10
157.2722433888
 20
80.4296827429
  0
LINE
  5
512
100
AcDbEntity
  8
RACCORDO
100
AcDbLine
 62
250
  6
CONTINUOUS
 10
166.7525934006
 20
132.3657921028
 11
166.7096315686
 21
132.2509950711
  0
LINE
  5
513
100
AcDbEntity
  8
RACCORDO
100
AcDbLine
 62
250
  6
CONTINUOUS
 10
166.5542385665
 20
132.4407398625
 11
166.5106580485
 21
132.325536434
  0
LINE
  5
514
100
AcDbEntity
  8
DRAFT
100
AcDbLine
 62
7
  6
CONTINUOUS
 10
176.8219492724
 20
125.125536434
 11
177.4748571683
 21
125.7848114082
  0
LINE
  5
515
100
AcDbEntity
  8
0
100
AcDbLine
 62
7
  6
CONTINUOUS
 10
174.22821666
 20
122.5102413727
 11
176.02821666
 21
124.3245716789
  0
LINE
  5
516
100
AcDbEntity
  8
0
100
AcDbLine
 62
7
  6
CONTINUOUS
 10
135.3936642794
 20
85.275536434
 11
134.3984265879
 21
84.2802987424
  0
LINE
  5
517
100
AcDbEntity
  8
0
100
AcDbLine
 62
7
  6
CONTINUOUS
 10
136.3803435622
 20
86.1140594392
 11
134.4418205569
 21
84.175536434
  0
LINE
  5
518
100
AcDbEntity
  8
0
100
AcDbLine
 62
7
  6
CONTINUOUS
 10
131.8918205569
 20
81.625536434
 11
133.3918205569
 21
83.125536434
  0
LINE
  5
519
100
AcDbEntity
  8
0
100
AcDbLine
 62
7
  6
CONTINUOUS
 10
174.22821666
 20
123.961932537
 11
175.3918205569
 21
125.125536434
  0
LINE
  5
51A
100
AcDbEntity
  8
DRAFT
100
AcDbLine
 62
7
  6
CONTINUOUS
 10
176.02821666
 20
125.761932537
 11
177.52821666
 21
127.261932537
  0
LINE
  5
51B
100
AcDbEntity
  8
0
100
AcDbLine
 62
7
  6
CONTINUOUS
 10
133.1646127631
 20
81.625536434
 11
134.02821666
 21
82.4891403309
  0
LINE
  5
51C
100
AcDbEntity
  8
SUPERFICI
100
AcDbLine
 62
7
  6
CONTINUOUS
 10
134.6646127631
 20
83.125536434
 11
134.8146127631
 21
83.275536434
  0
LINE
  5
51D
100
AcDbEntity
  8
0
100
AcDbLine
 62
7
  6
CONTINUOUS
 10
135.7146127631
 20
84.175536434
 11
137.6531357683
 21
86.1140594392
  0
LINE
  5
51E
100
AcDbEntity
  8
0
100
AcDbLine
 62
7
  6
CONTINUOUS
 10
174.22821666
 20
122.6891403309
 11
176.02821666
 21
124.4891403309
  0
LINE
  5
51F
100
AcDbEntity
  8
DRAFT
100
AcDbLine
 62
7
  6
CONTINUOUS
 10
176.6646127631
 20
125.125536434
 11
177.52821666
 21
125.9891403309
  0
LINE
  5
520
100
AcDbEntity
  8
0
100
AcDbLine
 62
7
  6
CONTINUOUS
 10
135.967531349
 20
84.2802987424
 11
136.9627690405
 21
85.275536434
  0
LINE
  5
521
100
AcDbEntity
  8
0
100
AcDbLine
 62
7
  6
CONTINUOUS
 10
134.8301716472
 20
83.125536434
 11
134.8631778414
 21
83.1582899632
  0
LINE
  5
522
100
AcDbEntity
  8
0
100
AcDbLine
 62
7
  6
CONTINUOUS
 10
133.3173183471
 20
81.625536434
 11
134.02821666
 21
82.3300851084
  0
LINE
  5
523
100
AcDbEntity
  8
0
100
AcDbLine
 62
7
  6
CONTINUOUS
 10
123.42821666
 20
76.8306799971
 11
122.7854750033
 21
76.3090826716
  0
LWPOLYLINE
  5
524
100
AcDbEntity
  8
RACCORDO
100
AcDbPolyline
 62
7
  6
CONTINUOUS
 90
13
 70
0
 10
116.292389709
 20
120.1625813598
 10
116.3565261208
 20
120.1678662165
 10
116.4196619832
 20
120.181566501
 10
116.4807017017
 20
120.2034989597
 10
116.538620686
 20
120.2333815092
 10
116.5923449693
 20
120.2707194992
 10
116.6408157064
 20
120.3147430787
 10
116.6831979876
 20
120.3646555015
 10
116.7188018956
 20
120.41961
 10
116.7470254351
 20
120.4785336281
 10
116.7674496846
 20
120.5403586957
 10
116.77980453
 20
120.6040668622
 10
116.7839518011
 20
120.668583318
  0
LINE
  5
525
100
AcDbEntity
  8
RACCORDO
100
AcDbLine
 62
7
  6
CONTINUOUS
 10
115.8062056876
 20
120.1547434364
 11
116.292389709
 21
120.1625813598
  0
LINE
  5
526
100
AcDbEntity
  8
0
100
AcDbLine
 62
7
  6
CONTINUOUS
 10
125.47821666
 20
122.125536434
 11
125.52821666
 21
122.125536434
  0
LINE
  5
527
100
AcDbEntity
  8
0
100
AcDbLine
 62
7
  6
CONTINUOUS
 10
170.52821666
 20
122.125536434
 11
170.57821666
 21
122.125536434
  0
LINE
  5
528
100
AcDbEntity
  8
DRAFT
100
AcDbLine
 62
7
  6
CONTINUOUS
 10
113.62821666
 20
124.625536434
 11
114.02821666
 21
124.625536434
  0
LINE
  5
529
100
AcDbEntity
  8
DRAFT
100
AcDbLine
 62
7
  6
CONTINUOUS
 10
182.02821666
 20
124.625536434
 11
182.42821666
 21
124.625536434
  0
LINE
  5
52A
100
AcDbEntity
  8
RACCORDO
100
AcDbLine
 62
7
  6
CONTINUOUS
 10
179.764043611
 20
120.1625813598
 11
180.2502276324
 21
120.1547434364
  0
LWPOLYLINE
  5
52B
100
AcDbEntity
  8
RACCORDO
100
AcDbPolyline
 62
250
  6
CONTINUOUS
 90
22
 70
0
 10
179.4722433888
 20
119.8707811376
 10
179.4357447515
 20
119.8720185415
 10
179.3992927035
 20
119.8759327518
 10
179.3630845382
 20
119.8825384438
 10
179.3272852491
 20
119.891844697
 10
179.2921350186
 20
119.9038318743
 10
179.2579394469
 20
119.9184261397
 10
179.2249060048
 20
119.9355517884
 10
179.1932077622
 20
119.9551306682
 10
179.1630769146
 20
119.9770294572
 10
179.1347094633
 20
120.0011009058
 10
179.1082298311
 20
120.027232898
 10
179.0837502535
 20
120.0553240499
 10
179.0614168294
 20
120.0852266263
 10
179.0413636155
 20
120.1167819398
 10
179.0236879347
 20
120.1498710778
 10
179.008495165
 20
120.184364894
 10
178.9959185797
 20
120.2200377351
 10
178.9860714141
 20
120.2566109346
 10
178.9790206926
 20
120.2938497833
 10
178.9748067026
 20
120.3315717412
 10
178.9734613636
 20
120.3695631627
  0
LWPOLYLINE
  5
52C
100
AcDbEntity
  8
RACCORDO
100
AcDbPolyline
 62
250
  6
CONTINUOUS
 90
22
 70
0
 10
179.4722433888
 20
119.621390125
 10
179.4171176614
 20
119.6233789924
 10
179.3626517477
 20
119.6293775853
 10
179.3088456479
 20
119.6393859039
 10
179.255352439
 20
119.6534831826
 10
179.2025190439
 20
119.6715901869
 10
179.1513862312
 20
119.6934692129
 10
179.1020097488
 20
119.7192089233
 10
179.0543338487
 20
119.7487206554
 10
179.0092320561
 20
119.7815007176
 10
178.9667880581
 20
119.8175724966
 10
178.9269181676
 20
119.8569126056
 10
178.8902448483
 20
119.8989471931
 10
178.8567986713
 20
119.9437107024
 10
178.8265490655
 20
119.9911686901
 10
178.8000267819
 20
120.0406439743
 10
178.7772664411
 20
120.0922419897
 10
178.7582334223
 20
120.1458573017
 10
178.743354615
 20
120.2004964236
 10
178.7327723156
 20
120.2558281933
 10
178.7263442276
 20
120.312183773
 10
178.7240703511
 20
120.3695631627
  0
LWPOLYLINE
  5
52D
100
AcDbEntity
  8
RACCORDO
100
AcDbPolyline
 62
7
  6
CONTINUOUS
 90
9
 70
0
 10
132.0369441925
 20
134.875536434
 10
132.0298499605
 20
134.8802266803
 10
132.0171906319
 20
134.8933457171
 10
131.9989662064
 20
134.9134382559
 10
131.974343406
 20
134.9388246408
 10
131.9441555087
 20
134.9682748329
 10
131.9109023496
 20
135.0015021128
 10
131.8748824458
 20
135.0379045646
 10
131.8357972801
 20
135.076529853
  0
LINE
  5
52E
100
AcDbEntity
  8
0
100
AcDbLine
 62
7
  6
CONTINUOUS
 10
134.02821666
 20
139.9209877595
 11
133.3173183471
 21
140.625536434
  0
LINE
  5
52F
100
AcDbEntity
  8
0
100
AcDbLine
 62
7
  6
CONTINUOUS
 10
134.8631778414
 20
139.0927829047
 11
134.8301716472
 21
139.125536434
  0
LINE
  5
530
100
AcDbEntity
  8
0
100
AcDbLine
 62
7
  6
CONTINUOUS
 10
135.3936642794
 20
136.975536434
 11
134.3984265879
 21
137.9707741255
  0
LINE
  5
531
100
AcDbEntity
  8
0
100
AcDbLine
 62
7
  6
CONTINUOUS
 10
131.8918205569
 20
140.625536434
 11
133.3918205569
 21
139.125536434
  0
LINE
  5
532
100
AcDbEntity
  8
0
100
AcDbLine
 62
7
  6
CONTINUOUS
 10
134.4418205569
 20
138.075536434
 11
136.3803435622
 21
136.1370134287
  0
LINE
  5
533
100
AcDbEntity
  8
0
100
AcDbLine
 62
7
  6
CONTINUOUS
 10
174.22821666
 20
98.2891403309
 11
175.3918205569
 21
97.125536434
  0
LINE
  5
534
100
AcDbEntity
  8
DRAFT
100
AcDbLine
 62
7
  6
CONTINUOUS
 10
176.02821666
 20
96.4891403309
 11
177.52821666
 21
94.9891403309
  0
LINE
  5
535
100
AcDbEntity
  8
DRAFT
100
AcDbLine
 62
7
  6
CONTINUOUS
 10
177.52821666
 20
96.261932537
 11
176.6646127631
 21
97.125536434
  0
LINE
  5
536
100
AcDbEntity
  8
SUPERFICI
100
AcDbLine
 62
7
  6
CONTINUOUS
 10
134.6646127631
 20
139.125536434
 11
134.8146127631
 21
138.975536434
  0
LINE
  5
537
100
AcDbEntity
  8
0
100
AcDbLine
 62
7
  6
CONTINUOUS
 10
137.6531357683
 20
136.1370134287
 11
135.7146127631
 21
138.075536434
  0
LINE
  5
538
100
AcDbEntity
  8
0
100
AcDbLine
 62
7
  6
CONTINUOUS
 10
134.02821666
 20
139.761932537
 11
133.1646127631
 21
140.625536434
  0
LINE
  5
539
100
AcDbEntity
  8
0
100
AcDbLine
 62
7
  6
CONTINUOUS
 10
174.22821666
 20
99.561932537
 11
176.02821666
 21
97.761932537
  0
LINE
  5
53A
100
AcDbEntity
  8
0
100
AcDbLine
 62
7
  6
CONTINUOUS
 10
135.967531349
 20
137.9707741255
 11
136.9627690405
 21
136.975536434
  0
LINE
  5
53B
100
AcDbEntity
  8
0
100
AcDbLine
 62
7
  6
CONTINUOUS
 10
176.02821666
 20
97.926501189
 11
174.22821666
 21
99.7408314952
  0
LINE
  5
53C
100
AcDbEntity
  8
DRAFT
100
AcDbLine
 62
7
  6
CONTINUOUS
 10
177.4748571683
 20
96.4662614597
 11
176.8219492724
 21
97.125536434
  0
LWPOLYLINE
  5
53D
100
AcDbEntity
  8
0
100
AcDbPolyline
 62
250
  6
CONTINUOUS
 90
25
 70
0
 10
163.2895718108
 20
135.9370438896
 10
163.2879981051
 20
135.9928789328
 10
163.2832084174
 20
136.0494302881
 10
163.2750662737
 20
136.1065028879
 10
163.2634437733
 20
136.1638924024
 10
163.2482274565
 20
136.2213633766
 10
163.2293243505
 20
136.2786507047
 10
163.2066191972
 20
136.3355746813
 10
163.1800725438
 20
136.3917801405
 10
163.1497818422
 20
136.4467407008
 10
163.1157698992
 20
136.5001835757
 10
163.078076641
 20
136.5518360759
 10
163.0369436349
 20
136.6012177241
 10
162.9925919653
 20
136.6479863131
 10
162.9450744594
 20
136.6920144247
 10
162.8944293214
 20
136.7331608598
 10
162.8410714333
 20
136.771008247
 10
162.7849422187
 20
136.8055212638
 10
162.7252691366
 20
136.8369393284
 10
162.6622341215
 20
136.8648201596
 10
162.5959551649
 20
136.8887686779
 10
162.5254303187
 20
136.9086554754
 10
162.4504590256
 20
136.923848685
 10
162.3717519609
 20
136.9335012803
 10
162.2897241157
 20
136.9368915848
  0
LWPOLYLINE
  5
53E
100
AcDbEntity
  8
0
100
AcDbPolyline
 62
250
  6
CONTINUOUS
 90
25
 70
0
 10
162.4896936547
 20
135.9370438896
 10
162.4894234324
 20
135.9482840764
 10
162.4884589138
 20
135.9595838602
 10
162.4868000991
 20
135.9709432413
 10
162.4844659991
 20
135.9824122115
 10
162.481437603
 20
135.993940779
 10
162.4776578775
 20
136.0053789674
 10
162.4731040878
 20
136.0167475798
 10
162.4677989687
 20
136.0280258132
 10
162.4617536912
 20
136.0390012821
 10
162.4549451768
 20
136.0496692818
 10
162.447396504
 20
136.060034517
 10
162.4391880794
 20
136.0698987164
 10
162.4303242636
 20
136.0792375036
 10
162.420800696
 20
136.0880752549
 10
162.4106847013
 20
136.0962868281
 10
162.4000286077
 20
136.1038593951
 10
162.388780087
 20
136.1108057839
 10
162.3768494785
 20
136.1170393361
 10
162.3642453599
 20
136.1226157707
 10
162.3509591535
 20
136.1274793687
 10
162.3368754653
 20
136.131376315
 10
162.3219558305
 20
136.1342220046
 10
162.306238714
 20
136.1361010425
 10
162.2897241157
 20
136.1370134287
  0
LINE
  5
53F
100
AcDbEntity
  8
0
100
AcDbLine
 62
250
  6
CONTINUOUS
 10
163.8413087817
 20
135.2439572908
 11
163.8413560754
 21
135.2387215408
  0
LINE
  5
540
100
AcDbEntity
  8
RACCORDO
100
AcDbLine
 62
7
  6
CONTINUOUS
 10
162.02821666
 20
75.875536434
 11
162.02821666
 21
76.748696511
  0
LINE
  5
541
100
AcDbEntity
  8
0
100
AcDbLine
 62
7
  6
CONTINUOUS
 10
162.02821666
 20
82.3300851084
 11
162.02821666
 21
82.4891403309
  0
LINE
  5
542
100
AcDbEntity
  8
0
100
AcDbLine
 62
7
  6
CONTINUOUS
 10
162.02821666
 20
139.761932537
 11
162.02821666
 21
139.9209877595
  0
LINE
  5
543
100
AcDbEntity
  8
RACCORDO
100
AcDbLine
 62
7
  6
CONTINUOUS
 10
162.02821666
 20
145.5023763569
 11
162.02821666
 21
146.375536434
  0
LINE
  5
544
100
AcDbEntity
  8
0
100
AcDbLine
 62
250
  6
CONTINUOUS
 10
162.2897241157
 20
86.1140594392
 11
162.2897241157
 21
85.3141812831
  0
LINE
  5
545
100
AcDbEntity
  8
0
100
AcDbLine
 62
250
  6
CONTINUOUS
 10
162.2897241157
 20
136.1370134287
 11
162.2897241157
 21
136.9368915848
  0
LINE
  5
546
100
AcDbEntity
  8
DRAFT
100
AcDbLine
 62
7
  6
CONTINUOUS
 10
162.42821666
 20
133.425536434
 11
162.42821666
 21
132.3456097586
  0
LINE
  5
547
100
AcDbEntity
  8
DRAFT
100
AcDbLine
 62
7
  6
CONTINUOUS
 10
162.42821666
 20
89.9054631093
 11
162.42821666
 21
88.825536434
  0
LINE
  5
548
100
AcDbEntity
  8
0
100
AcDbLine
 62
250
  6
CONTINUOUS
 10
162.4896936547
 20
86.3140289783
 11
162.4896936547
 21
86.375536434
  0
LINE
  5
549
100
AcDbEntity
  8
0
100
AcDbLine
 62
250
  6
CONTINUOUS
 10
162.4896936547
 20
135.875536434
 11
162.4896936547
 21
135.9370438896
  0
LINE
  5
54A
100
AcDbEntity
  8
DRAFT
100
AcDbLine
 62
7
  6
CONTINUOUS
 10
162.5233467638
 20
134.3206665378
 11
162.5233467638
 21
132.4407398625
  0
LINE
  5
54B
100
AcDbEntity
  8
DRAFT
100
AcDbLine
 62
7
  6
CONTINUOUS
 10
162.5233467638
 20
89.8103330054
 11
162.5233467638
 21
87.9304063301
  0
LINE
  5
54C
100
AcDbEntity
  8
0
100
AcDbLine
 62
250
  6
CONTINUOUS
 10
163.2895718108
 20
86.3140289783
 11
163.2895718108
 21
86.3618160883
  0
LINE
  5
54D
100
AcDbEntity
  8
0
100
AcDbLine
 62
250
  6
CONTINUOUS
 10
163.2895718108
 20
135.8892567796
 11
163.2895718108
 21
135.9370438896
  0
LINE
  5
54E
100
AcDbEntity
  8
0
100
AcDbLine
 62
7
  6
CONTINUOUS
 10
163.32821666
 20
86.2753841291
 11
163.32821666
 21
86.3231712392
  0
LINE
  5
54F
100
AcDbEntity
  8
0
100
AcDbLine
 62
7
  6
CONTINUOUS
 10
163.32821666
 20
135.9279016287
 11
163.32821666
 21
135.9756887388
  0
LINE
  5
550
100
AcDbEntity
  8
0
100
AcDbLine
 62
250
  6
CONTINUOUS
 10
163.5414017668
 20
86.7123970186
 11
163.5414017668
 21
87.375536434
  0
LINE
  5
551
100
AcDbEntity
  8
0
100
AcDbLine
 62
250
  6
CONTINUOUS
 10
163.5414017668
 20
134.875536434
 11
163.5414017668
 21
135.5386758494
  0
LINE
  5
552
100
AcDbEntity
  8
0
100
AcDbLine
 62
250
  6
CONTINUOUS
 10
163.8413560754
 20
87.0123513271
 11
163.8413560754
 21
87.375536434
  0
LINE
  5
553
100
AcDbEntity
  8
0
100
AcDbLine
 62
250
  6
CONTINUOUS
 10
163.8413560754
 20
134.875536434
 11
163.8413560754
 21
135.2387215408
  0
LINE
  5
554
100
AcDbEntity
  8
0
100
AcDbLine
 62
250
  6
CONTINUOUS
 10
164.019641444
 20
86.8340659585
 11
164.019641444
 21
87.375536434
  0
LINE
  5
555
100
AcDbEntity
  8
0
100
AcDbLine
 62
250
  6
CONTINUOUS
 10
164.019641444
 20
134.875536434
 11
164.019641444
 21
135.4170069094
  0
LINE
  5
556
100
AcDbEntity
  8
0
100
AcDbLine
 62
250
  6
CONTINUOUS
 10
164.5195652915
 20
86.8203456129
 11
164.5195652915
 21
86.875536434
  0
LINE
  5
557
100
AcDbEntity
  8
0
100
AcDbLine
 62
250
  6
CONTINUOUS
 10
164.5195652915
 20
135.375536434
 11
164.5195652915
 21
135.430727255
  0
LINE
  5
558
100
AcDbEntity
  8
0
100
AcDbLine
 62
7
  6
CONTINUOUS
 10
165.32821666
 20
86.7386547145
 11
165.32821666
 21
85.6409840534
  0
LINE
  5
559
100
AcDbEntity
  8
0
100
AcDbLine
 62
7
  6
CONTINUOUS
 10
165.32821666
 20
135.5124181534
 11
165.32821666
 21
136.6100888145
  0
LINE
  5
55A
100
AcDbEntity
  8
0
100
AcDbLine
 62
250
  6
CONTINUOUS
 10
163.8413087818
 20
87.0071155772
 11
163.8413560754
 21
87.0123513271
  0
LWPOLYLINE
  5
55B
100
AcDbEntity
  8
RACCORDO
100
AcDbPolyline
 62
7
  6
CONTINUOUS
 90
9
 70
0
 10
170.6462914132
 20
129.67237429
 10
170.6472368956
 20
129.6761939907
 10
170.6481506008
 20
129.6883741515
 10
170.6490325287
 20
129.7089147724
 10
170.6498935758
 20
129.7385258188
 10
170.6507228457
 20
129.7764973253
 10
170.6514876492
 20
129.8206993954
 10
170.6521801448
 20
129.8709521416
 10
170.6533625725
 20
129.9885590909
  0
LINE
  5
55C
100
AcDbEntity
  8
DRAFT
100
AcDbLine
 62
7
  6
CONTINUOUS
 10
177.4771815457
 20
131.5734350972
 11
177.52821666
 21
131.675536434
  0
LINE
  5
55D
100
AcDbEntity
  8
RACCORDO
100
AcDbLine
 62
250
  6
CONTINUOUS
 10
138.7841899312
 20
80.1802917303
 11
138.4817469527
 21
79.8778487518
  0
LINE
  5
55E
100
AcDbEntity
  8
RACCORDO
100
AcDbLine
 62
250
  6
CONTINUOUS
 10
178.9734613636
 20
120.3695631627
 11
179.2724815189
 21
120.668583318
  0
LINE
  5
55F
100
AcDbEntity
  8
RACCORDO
100
AcDbLine
 62
250
  6
CONTINUOUS
 10
139.2829719563
 20
79.6815097052
 11
138.9875378608
 21
79.3860756096
  0
LINE
  5
560
100
AcDbEntity
  8
RACCORDO
100
AcDbLine
 62
250
  6
CONTINUOUS
 10
179.4722433888
 20
119.8707811376
 11
179.764043611
 21
120.1625813598
  0
LWPOLYLINE
  5
561
100
AcDbEntity
  8
0
100
AcDbPolyline
 62
250
  6
CONTINUOUS
 90
7
 70
0
 10
132.036791876
 20
86.8340659585
 10
132.0347488978
 20
86.8330193751
 10
132.0301067915
 20
86.8320164445
 10
132.0231170894
 20
86.8310571668
 10
132.0140467512
 20
86.8301406616
 10
132.0031378176
 20
86.8292678092
 10
131.9905745928
 20
86.8284412509
  0
LINE
  5
562
100
AcDbEntity
  8
0
100
AcDbLine
 62
7
  6
CONTINUOUS
 10
121.7146127631
 20
84.175536434
 11
121.8518916091
 21
84.2323991938
  0
LINE
  5
563
100
AcDbEntity
  8
RACCORDO
100
AcDbLine
 62
7
  6
CONTINUOUS
 10
183.27821666
 20
125.125536434
 11
182.405056583
 21
125.125536434
  0
LINE
  5
564
100
AcDbEntity
  8
0
100
AcDbLine
 62
7
  6
CONTINUOUS
 10
176.8219492724
 20
125.125536434
 11
176.6646127631
 21
125.125536434
  0
LINE
  5
565
100
AcDbEntity
  8
0
100
AcDbLine
 62
7
  6
CONTINUOUS
 10
175.3918205569
 20
125.125536434
 11
175.2220737555
 21
125.125536434
  0
LINE
  5
566
100
AcDbEntity
  8
0
100
AcDbLine
 62
7
  6
CONTINUOUS
 10
120.8343595645
 20
125.125536434
 11
120.6646127631
 21
125.125536434
  0
LINE
  5
567
100
AcDbEntity
  8
0
100
AcDbLine
 62
7
  6
CONTINUOUS
 10
119.3918205569
 20
125.125536434
 11
119.2344840476
 21
125.125536434
  0
LINE
  5
568
100
AcDbEntity
  8
RACCORDO
100
AcDbLine
 62
7
  6
CONTINUOUS
 10
112.77821666
 20
125.125536434
 11
113.651376737
 21
125.125536434
  0
LWPOLYLINE
  5
569
100
AcDbEntity
  8
RACCORDO
100
AcDbPolyline
 62
7
  6
CONTINUOUS
 90
7
 70
0
 10
129.4508638124
 20
133.718554408
 10
129.4470461049
 20
133.7194998028
 10
129.4348888257
 20
133.7204133631
 10
129.4143919749
 20
133.7212950887
 10
129.3848505528
 20
133.7221558112
 10
129.3469695591
 20
133.7229846991
 10
129.252711848
 20
133.7244417392
  0
LINE
  5
56A
100
AcDbEntity
  8
0
100
AcDbLine
 62
7
  6
CONTINUOUS
 10
121.8518916091
 20
138.0186736741
 11
121.7146127631
 21
138.075536434
  0
LINE
  5
56B
100
AcDbEntity
  8
RACCORDO
100
AcDbLine
 62
250
  6
CONTINUOUS
 10
138.7841899312
 20
142.0707811376
 11
138.4817469527
 21
142.3732241161
  0
LINE
  5
56C
100
AcDbEntity
  8
RACCORDO
100
AcDbLine
 62
250
  6
CONTINUOUS
 10
178.9734613636
 20
101.8815097052
 11
179.2724815189
 21
101.58248955
  0
LINE
  5
56D
100
AcDbEntity
  8
RACCORDO
100
AcDbLine
 62
250
  6
CONTINUOUS
 10
139.2829719563
 20
142.5695631627
 11
138.9875378608
 21
142.8649972583
  0
LINE
  5
56E
100
AcDbEntity
  8
RACCORDO
100
AcDbLine
 62
250
  6
CONTINUOUS
 10
179.4722433888
 20
102.3802917303
 11
179.764043611
 21
102.0884915081
  0
LINE
  5
56F
100
AcDbEntity
  8
0
100
AcDbLine
 62
7
  6
CONTINUOUS
 10
182.4735833538
 20
86.525536434
 11
182.8446704223
 21
85.8827947773
  0
LINE
  5
570
100
AcDbEntity
  8
DRAFT
100
AcDbLine
 62
7
  6
CONTINUOUS
 10
177.52821666
 20
90.575536434
 11
177.4771815457
 21
90.6776377707
  0
LINE
  5
571
100
AcDbEntity
  8
0
100
AcDbLine
 62
250
  6
CONTINUOUS
 10
164.0150705726
 20
135.4690822574
 11
164.019641444
 21
135.4170069094
  0
LWPOLYLINE
  5
572
100
AcDbEntity
  8
RACCORDO
100
AcDbPolyline
 62
7
  6
CONTINUOUS
 90
7
 70
0
 10
170.651495009
 20
92.4298913438
 10
170.6507309448
 20
92.4741718385
 10
170.6499023399
 20
92.5122249919
 10
170.6490409125
 20
92.5419175664
 10
170.6481572352
 20
92.5625384825
 10
170.6472407355
 20
92.5747988197
 10
170.6462914132
 20
92.5786985779
  0
LINE
  5
573
100
AcDbEntity
  8
0
100
AcDbLine
 62
250
  6
CONTINUOUS
 10
170.4160716106
 20
81.6255307246
 11
170.4076752742
 21
83.1648896924
  0
LINE
  5
574
100
AcDbEntity
  8
RACCORDO
100
AcDbLine
 62
7
  6
CONTINUOUS
 10
168.02821666
 20
76.748696511
 11
168.02821666
 21
75.875536434
  0
LINE
  5
575
100
AcDbEntity
  8
RACCORDO
100
AcDbLine
 62
7
  6
CONTINUOUS
 10
168.02821666
 20
145.5023763569
 11
168.02821666
 21
146.375536434
  0
LINE
  5
576
100
AcDbEntity
  8
DRAFT
100
AcDbLine
 62
7
  6
CONTINUOUS
 10
168.52821666
 20
76.725536434
 11
168.52821666
 21
77.125536434
  0
LINE
  5
577
100
AcDbEntity
  8
DRAFT
100
AcDbLine
 62
7
  6
CONTINUOUS
 10
168.52821666
 20
145.125536434
 11
168.52821666
 21
145.525536434
  0
LINE
  5
578
100
AcDbEntity
  8
0
100
AcDbLine
 62
250
  6
CONTINUOUS
 10
170.4066058255
 20
139.0861845356
 11
170.4154123494
 21
140.6255348681
  0
LINE
  5
579
100
AcDbEntity
  8
0
100
AcDbLine
 62
250
  6
CONTINUOUS
 10
164.0150703647
 20
86.7819894333
 11
164.019641444
 21
86.8340659585
  0
LWPOLYLINE
  5
57A
100
AcDbEntity
  8
0
100
AcDbPolyline
 62
7
  6
CONTINUOUS
 90
7
 70
0
 10
172.1770695131
 20
140.625536434
 10
172.1450215994
 20
140.3716729867
 10
172.1268788947
 20
140.115455787
 10
172.1227534289
 20
139.857726319
 10
172.1327043554
 20
139.5993282471
 10
172.156738253
 20
139.3411041146
 10
172.1948096279
 20
139.0838920949
  0
LINE
  5
57B
100
AcDbEntity
  8
DRAFT
100
AcDbLine
 62
7
  6
CONTINUOUS
 10
177.52821666
 20
122.9891403309
 11
177.4739759052
 21
122.8899183066
  0
LINE
  5
57C
100
AcDbEntity
  8
ASSI
100
AcDbLine
 62
7
  6
CONTINUOUS
 10
173.02821666
 20
108.9100888145
 11
171.77821666
 21
107.6600888145
  0
LINE
  5
57D
100
AcDbEntity
  8
ASSI
100
AcDbLine
 62
7
  6
CONTINUOUS
 10
171.77821666
 20
107.511932537
 11
173.02821666
 21
108.761932537
  0
LINE
  5
57E
100
AcDbEntity
  8
ASSI
100
AcDbLine
 62
7
  6
CONTINUOUS
 10
171.77821666
 20
106.2391403309
 11
173.02821666
 21
107.4891403309
  0
LINE
  5
57F
100
AcDbEntity
  8
ASSI
100
AcDbLine
 62
7
  6
CONTINUOUS
 10
173.02821666
 20
107.3409840534
 11
171.77821666
 21
106.0909840534
  0
LINE
  5
580
100
AcDbEntity
  8
DRAFT
100
AcDbLine
 62
7
  6
CONTINUOUS
 10
156.0330865561
 20
89.8103330054
 11
156.12821666
 21
89.9054631093
  0
LINE
  5
581
100
AcDbEntity
  8
SMUSSO
100
AcDbLine
 62
7
  6
CONTINUOUS
 10
156.12821666
 20
88.825536434
 11
156.0472986816
 21
88.7446184556
  0
LINE
  5
582
100
AcDbEntity
  8
0
100
AcDbLine
 62
7
  6
CONTINUOUS
 10
135.7146127631
 20
84.175536434
 11
135.967531349
 21
84.2802987424
  0
LWPOLYLINE
  5
583
100
AcDbEntity
  8
0
100
AcDbPolyline
 62
250
  6
CONTINUOUS
 90
8
 70
0
 10
132.3367461846
 20
86.53411165
 10
132.3337992017
 20
86.5332193248
 10
132.3283247811
 20
86.5323588582
 10
132.3203229226
 20
86.5315302501
 10
132.3095775296
 20
86.5307332074
 10
132.2963046988
 20
86.5299680233
 10
132.2811527202
 20
86.5292355772
 10
132.2641501232
 20
86.5285359301
  0
LINE
  5
584
100
AcDbEntity
  8
0
100
AcDbLine
 62
7
  6
CONTINUOUS
 10
160.5147867389
 20
136.9368915848
 11
160.6627690405
 21
136.975536434
  0
LWPOLYLINE
  5
585
100
AcDbEntity
  8
DRAFT
100
AcDbPolyline
 62
7
  6
CONTINUOUS
 90
10
 70
0
 10
177.479047631
 20
135.3315405772
 10
177.0499940915
 20
135.2880539657
 10
176.6308160979
 20
135.2829720622
 10
176.2255341596
 20
135.3130600486
 10
175.8377535763
 20
135.3748817104
 10
175.4700559874
 20
135.4646071376
 10
175.1239583101
 20
135.5782581999
 10
174.8008348271
 20
135.712113634
 10
174.5020261021
 20
135.8626256596
 10
174.22821666
 20
136.0262837987
  0
LWPOLYLINE
  5
586
100
AcDbEntity
  8
RACCORDO
100
AcDbPolyline
 62
7
  6
CONTINUOUS
 90
13
 70
0
 10
179.7425787748
 20
136.1099563443
 10
179.6687950206
 20
136.1032301667
 10
179.5981587584
 20
136.0858865608
 10
179.5320611522
 20
136.0589366793
 10
179.471405548
 20
136.023344722
 10
179.4173829272
 20
135.980476931
 10
179.3712179072
 20
135.9323950271
 10
179.3334076053
 20
135.8811986591
 10
179.3033464852
 20
135.8278132848
 10
179.2803426454
 20
135.7724833243
 10
179.2641896606
 20
135.7158409948
 10
179.2548110669
 20
135.6591095784
 10
179.2518648997
 20
135.6031061691
  0
LWPOLYLINE
  5
587
100
AcDbEntity
  8
RACCORDO
100
AcDbPolyline
 62
7
  6
CONTINUOUS
 90
10
 70
0
 10
129.5457752715
 20
132.325536434
 10
129.5216682841
 20
132.3245661868
 10
129.4977175299
 20
132.321661691
 10
129.4740779
 20
132.3168417655
 10
129.4509023313
 20
132.3101376323
 10
129.428340636
 20
132.3015926645
 10
129.4065385501
 20
132.2912620577
 10
129.3856370311
 20
132.2792125646
 10
129.3657713278
 20
132.2655221098
 10
129.3470699364
 20
132.2502792038
  0
LWPOLYLINE
  5
588
100
AcDbEntity
  8
RACCORDO
100
AcDbPolyline
 62
7
  6
CONTINUOUS
 90
6
 70
0
 10
166.7099111547
 20
133.7229938566
 10
166.6719609209
 20
133.7221663382
 10
166.6423406134
 20
133.7213055338
 10
166.6217536519
 20
133.7204217779
 10
166.6094966166
 20
133.719504736
 10
166.6055695076
 20
133.718554408
  0
LINE
  5
589
100
AcDbEntity
  8
RACCORDO
100
AcDbLine
 62
7
  6
CONTINUOUS
 10
166.804300388
 20
133.724448817
 11
166.7099111547
 21
133.7229938566
  0
LINE
  5
58A
100
AcDbEntity
  8
DRAFT
100
AcDbLine
 62
7
  6
CONTINUOUS
 10
174.22821666
 20
131.5571250349
 11
177.4771815457
 21
131.5734350972
  0
LINE
  5
58B
100
AcDbEntity
  8
DRAFT
100
AcDbLine
 62
7
  6
CONTINUOUS
 10
121.82821666
 20
132.692611279
 11
118.578725089
 21
132.676584079
  0
LINE
  5
58C
100
AcDbEntity
  8
RACCORDO
100
AcDbLine
 62
7
  6
CONTINUOUS
 10
112.77821666
 20
131.125536434
 11
113.651376737
 21
131.125536434
  0
LINE
  5
58D
100
AcDbEntity
  8
RACCORDO
100
AcDbLine
 62
7
  6
CONTINUOUS
 10
182.405056583
 20
131.125536434
 11
183.27821666
 21
131.125536434
  0
LINE
  5
58E
100
AcDbEntity
  8
DRAFT
100
AcDbLine
 62
7
  6
CONTINUOUS
 10
113.62821666
 20
131.625536434
 11
114.02821666
 21
131.625536434
  0
LINE
  5
58F
100
AcDbEntity
  8
DRAFT
100
AcDbLine
 62
7
  6
CONTINUOUS
 10
182.02821666
 20
131.625536434
 11
182.42821666
 21
131.625536434
  0
LINE
  5
590
100
AcDbEntity
  8
DRAFT
100
AcDbLine
 62
7
  6
CONTINUOUS
 10
177.52821666
 20
131.675536434
 11
174.22821666
 21
131.675536434
  0
LINE
  5
591
100
AcDbEntity
  8
DRAFT
100
AcDbLine
 62
7
  6
CONTINUOUS
 10
121.82821666
 20
131.675536434
 11
118.52821666
 21
131.675536434
  0
LINE
  5
592
100
AcDbEntity
  8
DRAFT
100
AcDbLine
 62
7
  6
CONTINUOUS
 10
151.17821666
 20
132.3456097586
 11
144.87821666
 21
132.3456097586
  0
LINE
  5
593
100
AcDbEntity
  8
DRAFT
100
AcDbLine
 62
7
  6
CONTINUOUS
 10
133.62821666
 20
132.3456097586
 11
139.92821666
 21
132.3456097586
  0
LINE
  5
594
100
AcDbEntity
  8
DRAFT
100
AcDbLine
 62
7
  6
CONTINUOUS
 10
156.12821666
 20
132.3456097586
 11
162.42821666
 21
132.3456097586
  0
LINE
  5
595
100
AcDbEntity
  8
RACCORDO
100
AcDbLine
 62
7
  6
CONTINUOUS
 10
129.5021947535
 20
132.4407398625
 11
133.5330865561
 21
132.4407398625
  0
LINE
  5
596
100
AcDbEntity
  8
DRAFT
100
AcDbLine
 62
7
  6
CONTINUOUS
 10
140.0233467638
 20
132.4407398625
 11
144.87821666
 21
132.4407398625
  0
LINE
  5
597
100
AcDbEntity
  8
DRAFT
100
AcDbLine
 62
7
  6
CONTINUOUS
 10
151.17821666
 20
132.4407398625
 11
156.0330865561
 21
132.4407398625
  0
LINE
  5
598
100
AcDbEntity
  8
RACCORDO
100
AcDbLine
 62
7
  6
CONTINUOUS
 10
162.5233467638
 20
132.4407398625
 11
166.5542385665
 21
132.4407398625
  0
LINE
  5
599
100
AcDbEntity
  8
DRAFT
100
AcDbLine
 62
7
  6
CONTINUOUS
 10
177.52821666
 20
132.575536434
 11
171.77821666
 21
132.575536434
  0
LINE
  5
59A
100
AcDbEntity
  8
DRAFT
100
AcDbLine
 62
7
  6
CONTINUOUS
 10
124.27821666
 20
132.575536434
 11
118.52821666
 21
132.575536434
  0
LINE
  5
59B
100
AcDbEntity
  8
0
100
AcDbLine
 62
7
  6
CONTINUOUS
 10
121.82821666
 20
132.6802987424
 11
124.27821666
 21
132.6802987424
  0
LINE
  5
59C
100
AcDbEntity
  8
0
100
AcDbLine
 62
7
  6
CONTINUOUS
 10
171.77821666
 20
132.6802987424
 11
174.22821666
 21
132.6802987424
  0
LINE
  5
59D
100
AcDbEntity
  8
SMUSSO
100
AcDbLine
 62
7
  6
CONTINUOUS
 10
151.17821666
 20
133.425536434
 11
144.87821666
 21
133.425536434
  0
LINE
  5
59E
100
AcDbEntity
  8
DRAFT
100
AcDbLine
 62
7
  6
CONTINUOUS
 10
133.62821666
 20
133.425536434
 11
139.92821666
 21
133.425536434
  0
LINE
  5
59F
100
AcDbEntity
  8
DRAFT
100
AcDbLine
 62
7
  6
CONTINUOUS
 10
156.12821666
 20
133.425536434
 11
162.42821666
 21
133.425536434
  0
LINE
  5
5A0
100
AcDbEntity
  8
DRAFT
100
AcDbLine
 62
7
  6
CONTINUOUS
 10
177.477708231
 20
132.676584079
 11
174.22821666
 21
132.692611279
  0
LINE
  5
5A1
100
AcDbEntity
  8
DRAFT
100
AcDbLine
 62
7
  6
CONTINUOUS
 10
118.5792517743
 20
131.5734350972
 11
121.82821666
 21
131.5571250349
  0
LINE
  5
5A2
100
AcDbEntity
  8
0
100
AcDbLine
 62
7
  6
CONTINUOUS
 10
135.541646581
 20
136.9368915848
 11
135.3936642794
 21
136.975536434
  0
LINE
  5
5A3
100
AcDbEntity
  8
0
100
AcDbLine
 62
7
  6
CONTINUOUS
 10
135.967531349
 20
137.9707741255
 11
135.7146127631
 21
138.075536434
  0
LINE
  5
5A4
100
AcDbEntity
  8
ASSI
100
AcDbLine
 62
7
  6
CONTINUOUS
 10
173.02821666
 20
113.3409840534
 11
171.77821666
 21
114.5909840534
  0
LINE
  5
5A5
100
AcDbEntity
  8
ASSI
100
AcDbLine
 62
7
  6
CONTINUOUS
 10
171.77821666
 20
114.7391403309
 11
173.02821666
 21
113.4891403309
  0
LINE
  5
5A6
100
AcDbEntity
  8
ASSI
100
AcDbLine
 62
7
  6
CONTINUOUS
 10
171.77821666
 20
116.011932537
 11
173.02821666
 21
114.761932537
  0
LINE
  5
5A7
100
AcDbEntity
  8
ASSI
100
AcDbLine
 62
7
  6
CONTINUOUS
 10
173.02821666
 20
114.9100888145
 11
171.77821666
 21
116.1600888145
  0
LINE
  5
5A8
100
AcDbEntity
  8
DRAFT
100
AcDbLine
 62
7
  6
CONTINUOUS
 10
156.0330865561
 20
132.4407398625
 11
156.12821666
 21
132.3456097586
  0
LINE
  5
5A9
100
AcDbEntity
  8
SMUSSO
100
AcDbLine
 62
7
  6
CONTINUOUS
 10
156.12821666
 20
133.425536434
 11
156.0472986816
 21
133.5064544123
  0
LINE
  5
5AA
100
AcDbEntity
  8
DRAFT
100
AcDbLine
 62
7
  6
CONTINUOUS
 10
177.4739759052
 20
99.3611545613
 11
177.52821666
 21
99.261932537
  0
LWPOLYLINE
  5
5AB
100
AcDbEntity
  8
RACCORDO
100
AcDbPolyline
 62
7
  6
CONTINUOUS
 90
16
 70
0
 10
173.0076572139
 20
79.4061949628
 10
173.0034302529
 20
79.4635534124
 10
172.9926666074
 20
79.5193709951
 10
172.9757578253
 20
79.5729493049
 10
172.9530405995
 20
79.6238764504
 10
172.9250960716
 20
79.6713735667
 10
172.8929734491
 20
79.7144299124
 10
172.8578421148
 20
79.7524212173
 10
172.8200998838
 20
79.7857150118
 10
172.779617887
 20
79.8148521777
 10
172.7367148129
 20
79.8397516387
 10
172.6920320515
 20
79.8601771759
 10
172.6456763307
 20
79.8761952362
 10
172.5979654897
 20
79.8877102296
 10
172.5494804949
 20
79.8945851783
 10
172.5006821142
 20
79.8967839133
  0
LWPOLYLINE
  5
5AC
100
AcDbEntity
  8
RACCORDO
100
AcDbPolyline
 62
7
  6
CONTINUOUS
 90
13
 70
0
 10
173.0152355264
 20
143.3637732753
 10
173.0113542674
 20
143.4353477984
 10
172.9975757464
 20
143.5051937312
 10
172.9742792002
 20
143.5719729884
 10
172.9417162124
 20
143.634946713
 10
172.900781505
 20
143.6923306811
 10
172.853670205
 20
143.7418126025
 10
172.8022694847
 20
143.7827240227
 10
172.7476388793
 20
143.8154113696
 10
172.6912838072
 20
143.8399608934
 10
172.6344589708
 20
143.8567398667
 10
172.5781109261
 20
143.8662815473
 10
172.5230982894
 20
143.8692000885
  0
LINE
  5
5AD
100
AcDbEntity
  8
RACCORDO
100
AcDbLine
 62
7
  6
CONTINUOUS
 10
173.0152355264
 20
78.8872995927
 11
173.0076572139
 21
79.4061949628
  0
LINE
  5
5AE
100
AcDbEntity
  8
RACCORDO
100
AcDbLine
 62
7
  6
CONTINUOUS
 10
170.6528145475
 20
92.3229923121
 11
170.651495009
 21
92.4298913438
  0
LINE
  5
5AF
100
AcDbEntity
  8
RACCORDO
100
AcDbLine
 62
7
  6
CONTINUOUS
 10
170.6542556447
 20
92.1260695106
 11
170.6528145475
 21
92.3229923121
  0
LINE
  5
5B0
100
AcDbEntity
  8
0
100
AcDbLine
 62
7
  6
CONTINUOUS
 10
170.52821666
 20
112.125536434
 11
170.52821666
 21
110.125536434
  0
LINE
  5
5B1
100
AcDbEntity
  8
0
100
AcDbLine
 62
7
  6
CONTINUOUS
 10
170.52821666
 20
100.125536434
 11
170.52821666
 21
102.125536434
  0
LINE
  5
5B2
100
AcDbEntity
  8
0
100
AcDbLine
 62
7
  6
CONTINUOUS
 10
170.52821666
 20
120.125536434
 11
170.52821666
 21
122.125536434
  0
LINE
  5
5B3
100
AcDbEntity
  8
RACCORDO
100
AcDbLine
 62
7
  6
CONTINUOUS
 10
170.57821666
 20
94.2926677917
 11
170.57821666
 21
100.125536434
  0
LINE
  5
5B4
100
AcDbEntity
  8
0
100
AcDbLine
 62
7
  6
CONTINUOUS
 10
170.57821666
 20
100.125536434
 11
170.57821666
 21
122.125536434
  0
LINE
  5
5B5
100
AcDbEntity
  8
RACCORDO
100
AcDbLine
 62
7
  6
CONTINUOUS
 10
170.57821666
 20
122.125536434
 11
170.57821666
 21
127.9584808084
  0
LINE
  5
5B6
100
AcDbEntity
  8
RACCORDO
100
AcDbLine
 62
7
  6
CONTINUOUS
 10
170.6550189457
 20
88.7737528513
 11
170.6542556447
 21
92.1260695106
  0
LINE
  5
5B7
100
AcDbEntity
  8
RACCORDO
100
AcDbLine
 62
7
  6
CONTINUOUS
 10
170.6934200885
 20
127.9971046793
 11
170.6934200885
 21
94.4460390854
  0
LINE
  5
5B8
100
AcDbEntity
  8
0
100
AcDbLine
 62
7
  6
CONTINUOUS
 10
171.77821666
 20
134.2391403309
 11
171.77821666
 21
132.575536434
  0
LINE
  5
5B9
100
AcDbEntity
  8
0
100
AcDbLine
 62
7
  6
CONTINUOUS
 10
171.77821666
 20
128.1989075129
 11
171.77821666
 21
94.052165355
  0
LINE
  5
5BA
100
AcDbEntity
  8
0
100
AcDbLine
 62
7
  6
CONTINUOUS
 10
171.77821666
 20
89.675536434
 11
171.77821666
 21
88.011932537
  0
LINE
  5
5BB
100
AcDbEntity
  8
RACCORDO
100
AcDbLine
 62
250
  6
CONTINUOUS
 10
172.27821666
 20
93.8918484943
 11
172.27821666
 21
104.125536434
  0
LINE
  5
5BC
100
AcDbEntity
  8
RACCORDO
100
AcDbLine
 62
250
  6
CONTINUOUS
 10
172.27821666
 20
118.125536434
 11
172.27821666
 21
128.3592243736
  0
LINE
  5
5BD
100
AcDbEntity
  8
DRAFT
100
AcDbLine
 62
7
  6
CONTINUOUS
 10
172.62821666
 20
145.525536434
 11
172.62821666
 21
145.5709031278
  0
LINE
  5
5BE
100
AcDbEntity
  8
RACCORDO
100
AcDbLine
 62
250
  6
CONTINUOUS
 10
172.7841899312
 20
144.3796827429
 11
172.7841899316
 21
144.1302917303
  0
LINE
  5
5BF
100
AcDbEntity
  8
RACCORDO
100
AcDbLine
 62
250
  6
CONTINUOUS
 10
172.7841899312
 20
80.4296827429
 11
172.7841899316
 21
80.1802917303
  0
LINE
  5
5C0
100
AcDbEntity
  8
RACCORDO
100
AcDbLine
 62
250
  6
CONTINUOUS
 10
172.7841899312
 20
77.871390125
 11
172.7841899312
 21
78.1207811376
  0
LINE
  5
5C1
100
AcDbEntity
  8
RACCORDO
100
AcDbLine
 62
250
  6
CONTINUOUS
 10
172.7841899312
 20
141.821390125
 11
172.7841899312
 21
142.0707811376
  0
LINE
  5
5C2
100
AcDbEntity
  8
ASSI
100
AcDbLine
 62
7
  6
CONTINUOUS
 10
173.02821666
 20
106.1052581615
 11
173.02821666
 21
107.4891403309
  0
LINE
  5
5C3
100
AcDbEntity
  8
DRAFT
100
AcDbLine
 62
7
  6
CONTINUOUS
 10
173.02821666
 20
108.761932537
 11
173.02821666
 21
110.675536434
  0
LINE
  5
5C4
100
AcDbEntity
  8
DRAFT
100
AcDbLine
 62
7
  6
CONTINUOUS
 10
173.02821666
 20
111.575536434
 11
173.02821666
 21
113.4891403309
  0
LINE
  5
5C5
100
AcDbEntity
  8
ASSI
100
AcDbLine
 62
7
  6
CONTINUOUS
 10
173.02821666
 20
114.761932537
 11
173.02821666
 21
116.1458147064
  0
LINE
  5
5C6
100
AcDbEntity
  8
RACCORDO
100
AcDbLine
 62
250
  6
CONTINUOUS
 10
173.2829719563
 20
143.6315097052
 11
173.2829719563
 21
142.5695631627
  0
LINE
  5
5C7
100
AcDbEntity
  8
RACCORDO
100
AcDbLine
 62
250
  6
CONTINUOUS
 10
173.2829719563
 20
79.6815097052
 11
173.2829719563
 21
78.6195631627
  0
LINE
  5
5C8
100
AcDbEntity
  8
RACCORDO
100
AcDbLine
 62
250
  6
CONTINUOUS
 10
173.5323629689
 20
143.6315097052
 11
173.5323629689
 21
142.5695631627
  0
LINE
  5
5C9
100
AcDbEntity
  8
RACCORDO
100
AcDbLine
 62
250
  6
CONTINUOUS
 10
173.5323629689
 20
79.6815097052
 11
173.5323629689
 21
78.6195631627
  0
LINE
  5
5CA
100
AcDbEntity
  8
0
100
AcDbLine
 62
7
  6
CONTINUOUS
 10
174.22821666
 20
131.675536434
 11
174.22821666
 21
127.561932537
  0
LINE
  5
5CB
100
AcDbEntity
  8
0
100
AcDbLine
 62
7
  6
CONTINUOUS
 10
174.22821666
 20
126.2891403309
 11
174.22821666
 21
123.961932537
  0
LINE
  5
5CC
100
AcDbEntity
  8
0
100
AcDbLine
 62
7
  6
CONTINUOUS
 10
174.22821666
 20
98.2891403309
 11
174.22821666
 21
95.961932537
  0
LINE
  5
5CD
100
AcDbEntity
  8
0
100
AcDbLine
 62
7
  6
CONTINUOUS
 10
174.22821666
 20
94.6891403309
 11
174.22821666
 21
90.575536434
  0
LINE
  5
5CE
100
AcDbEntity
  8
0
100
AcDbLine
 62
7
  6
CONTINUOUS
 10
174.22821666
 20
85.9742976818
 11
174.22821666
 21
89.5707741255
  0
LINE
  5
5CF
100
AcDbEntity
  8
0
100
AcDbLine
 62
7
  6
CONTINUOUS
 10
174.22821666
 20
99.561932537
 11
174.22821666
 21
102.8556427997
  0
LINE
  5
5D0
100
AcDbEntity
  8
0
100
AcDbLine
 62
7
  6
CONTINUOUS
 10
174.22821666
 20
119.3954300683
 11
174.22821666
 21
122.6891403309
  0
LINE
  5
5D1
100
AcDbEntity
  8
0
100
AcDbLine
 62
7
  6
CONTINUOUS
 10
174.22821666
 20
132.6802987424
 11
174.22821666
 21
136.2767751861
  0
LINE
  5
5D2
100
AcDbEntity
  8
RACCORDO
100
AcDbLine
 62
7
  6
CONTINUOUS
 10
170.6545748204
 20
130.1981817529
 11
170.6550189457
 21
133.4773200167
  0
LINE
  5
5D3
100
AcDbEntity
  8
RACCORDO
100
AcDbLine
 62
7
  6
CONTINUOUS
 10
170.6533625725
 20
129.9885590909
 11
170.6545748204
 21
130.1981817529
  0
LINE
  5
5D4
100
AcDbEntity
  8
RACCORDO
100
AcDbLine
 62
7
  6
CONTINUOUS
 10
173.0076572139
 20
142.8448779051
 11
173.0152355264
 21
143.3637732753
  0
LWPOLYLINE
  5
5D5
100
AcDbEntity
  8
RACCORDO
100
AcDbPolyline
 62
250
  6
CONTINUOUS
 90
22
 70
0
 10
173.2829719563
 20
142.5695631627
 10
173.2817345525
 20
142.5330645255
 10
173.2778203422
 20
142.4966124775
 10
173.2712146502
 20
142.4604043121
 10
173.2619083969
 20
142.424605023
 10
173.2499212197
 20
142.3894547925
 10
173.2353269542
 20
142.3552592209
 10
173.2182013056
 20
142.3222257788
 10
173.1986224257
 20
142.2905275362
 10
173.1767236368
 20
142.2603966886
 10
173.1526521882
 20
142.2320292373
 10
173.1265201959
 20
142.205549605
 10
173.098429044
 20
142.1810700275
 10
173.0685264676
 20
142.1587366033
 10
173.0369711541
 20
142.1386833894
 10
173.0038820162
 20
142.1210077087
 10
172.9693881999
 20
142.105814939
 10
172.9337153588
 20
142.0932383536
 10
172.8971421593
 20
142.0833911881
 10
172.8599033106
 20
142.0763404665
 10
172.8221813528
 20
142.0721264766
 10
172.7841899312
 20
142.0707811376
  0
LWPOLYLINE
  5
5D6
100
AcDbEntity
  8
RACCORDO
100
AcDbPolyline
 62
250
  6
CONTINUOUS
 90
22
 70
0
 10
173.2829719563
 20
78.6195631627
 10
173.2817345525
 20
78.5830645255
 10
173.2778203422
 20
78.5466124775
 10
173.2712146502
 20
78.5104043121
 10
173.2619083969
 20
78.474605023
 10
173.2499212197
 20
78.4394547925
 10
173.2353269542
 20
78.4052592209
 10
173.2182013056
 20
78.3722257788
 10
173.1986224257
 20
78.3405275362
 10
173.1767236368
 20
78.3103966886
 10
173.1526521882
 20
78.2820292373
 10
173.1265201959
 20
78.255549605
 10
173.098429044
 20
78.2310700275
 10
173.0685264676
 20
78.2087366033
 10
173.0369711541
 20
78.1886833894
 10
173.0038820162
 20
78.1710077087
 10
172.9693881999
 20
78.155814939
 10
172.9337153588
 20
78.1432383536
 10
172.8971421593
 20
78.1333911881
 10
172.8599033106
 20
78.1263404665
 10
172.8221813528
 20
78.1221264766
 10
172.7841899312
 20
78.1207811376
  0
LWPOLYLINE
  5
5D7
100
AcDbEntity
  8
RACCORDO
100
AcDbPolyline
 62
7
  6
CONTINUOUS
 90
10
 70
0
 10
170.57821666
 20
94.2926677917
 10
170.5774393665
 20
94.2710826801
 10
170.5751118511
 20
94.2496093888
 10
170.571246229
 20
94.2283590818
 10
170.5658625472
 20
94.2074417537
 10
170.5589887866
 20
94.1869656554
 10
170.5506606651
 20
94.1670367508
 10
170.5409213359
 20
94.1477581724
 10
170.5298212132
 20
94.1292296705
 10
170.5174177822
 20
94.1115471047
  0
LWPOLYLINE
  5
5D8
100
AcDbEntity
  8
RACCORDO
100
AcDbPolyline
 62
250
  6
CONTINUOUS
 90
22
 70
0
 10
173.5323629689
 20
142.5695631627
 10
173.5303741015
 20
142.5144374353
 10
173.5243755086
 20
142.4599715217
 10
173.5143671901
 20
142.4061654219
 10
173.5002699114
 20
142.352672213
 10
173.4821629071
 20
142.2998388179
 10
173.460283881
 20
142.2487060052
 10
173.4345441707
 20
142.1993295227
 10
173.4050324385
 20
142.1516536227
 10
173.3722523763
 20
142.1065518301
 10
173.3361805974
 20
142.0641078321
 10
173.2968404883
 20
142.0242379416
 10
173.2548059009
 20
141.9875646223
 10
173.2100423916
 20
141.9541184453
 10
173.1625844039
 20
141.9238688395
 10
173.1131091197
 20
141.8973465559
 10
173.0615111042
 20
141.874586215
 10
173.0078957923
 20
141.8555531963
 10
172.9532566704
 20
141.840674389
 10
172.8979249006
 20
141.8300920896
 10
172.8415693209
 20
141.8236640016
 10
172.7841899312
 20
141.821390125
  0
LWPOLYLINE
  5
5D9
100
AcDbEntity
  8
RACCORDO
100
AcDbPolyline
 62
250
  6
CONTINUOUS
 90
22
 70
0
 10
173.5323629689
 20
78.6195631627
 10
173.5303741015
 20
78.5644374353
 10
173.5243755086
 20
78.5099715217
 10
173.5143671901
 20
78.4561654219
 10
173.5002699114
 20
78.402672213
 10
173.4821629071
 20
78.3498388179
 10
173.460283881
 20
78.2987060052
 10
173.4345441707
 20
78.2493295227
 10
173.4050324385
 20
78.2016536227
 10
173.3722523763
 20
78.1565518301
 10
173.3361805974
 20
78.1141078321
 10
173.2968404883
 20
78.0742379416
 10
173.2548059009
 20
78.0375646223
 10
173.2100423916
 20
78.0041184453
 10
173.1625844039
 20
77.9738688395
 10
173.1131091197
 20
77.9473465559
 10
173.0615111042
 20
77.924586215
 10
173.0078957923
 20
77.9055531963
 10
172.9532566704
 20
77.890674389
 10
172.8979249006
 20
77.8800920896
 10
172.8415693209
 20
77.8736640016
 10
172.7841899312
 20
77.871390125
  0
LWPOLYLINE
  5
5DA
100
AcDbEntity
  8
RACCORDO
100
AcDbPolyline
 62
7
  6
CONTINUOUS
 90
7
 70
0
 10
170.6934200885
 20
94.4460390854
 10
170.6915906449
 20
94.4135797354
 10
170.6865223033
 20
94.3821392391
 10
170.6782150637
 20
94.3517175965
 10
170.6666689261
 20
94.3223148078
 10
170.6518838906
 20
94.2939308727
 10
170.6338599571
 20
94.2665657914
  0
LINE
  5
5DB
100
AcDbEntity
  8
DRAFT
100
AcDbLine
 62
7
  6
CONTINUOUS
 10
177.52821666
 20
125.9891403309
 11
177.4748571683
 21
125.7848114082
  0
LINE
  5
5DC
100
AcDbEntity
  8
0
100
AcDbLine
 62
7
  6
CONTINUOUS
 10
161.6580067321
 20
84.2802987424
 11
161.6146127631
 21
84.175536434
  0
LINE
  5
5DD
100
AcDbEntity
  8
0
100
AcDbLine
 62
7
  6
CONTINUOUS
 10
161.2418205569
 20
83.275536434
 11
161.1932554786
 21
83.1582899632
  0
LWPOLYLINE
  5
5DE
100
AcDbEntity
  8
0
100
AcDbPolyline
 62
250
  6
CONTINUOUS
 90
9
 70
0
 10
132.3367461846
 20
135.7169612179
 10
132.2846696596
 20
135.7123901387
 10
132.2341748419
 20
135.6988474608
 10
132.1867953974
 20
135.6767445129
 10
132.1439703698
 20
135.6467526222
 10
132.1070004723
 20
135.6097827248
 10
132.0770085814
 20
135.5669576972
 10
132.0549056333
 20
135.5195782526
 10
132.0413629553
 20
135.4690834346
  0
LWPOLYLINE
  5
5DF
100
AcDbEntity
  8
0
100
AcDbPolyline
 62
250
  6
CONTINUOUS
 90
3
 70
0
 10
132.5150315531
 20
135.5386758494
 10
132.4647048662
 20
135.5344084474
 10
132.4595610143
 20
135.5334852532
  0
LWPOLYLINE
  5
5E0
100
AcDbEntity
  8
0
100
AcDbPolyline
 62
250
  6
CONTINUOUS
 90
4
 70
0
 10
164.0658587272
 20
135.4226316171
 10
164.0798772108
 20
135.4234110711
 10
164.0951328187
 20
135.4241442311
 10
164.1114572571
 20
135.4248308861
  0
LINE
  5
5E1
100
AcDbEntity
  8
DRAFT
100
AcDbLine
 62
250
  6
CONTINUOUS
 10
121.82821666
 20
135.1678206086
 11
118.5775507608
 21
135.0400283442
  0
LINE
  5
5E2
100
AcDbEntity
  8
0
100
AcDbLine
 62
250
  6
CONTINUOUS
 10
164.1114572571
 20
135.4248308861
 11
164.1465956778
 21
135.4260627256
  0
LWPOLYLINE
  5
5E3
100
AcDbEntity
  8
0
100
AcDbPolyline
 62
7
  6
CONTINUOUS
 90
3
 70
0
 10
172.7581053954
 20
137.9707741255
 10
173.9736485356
 20
138.0113523048
 10
174.2045417109
 20
138.0186736741
  0
LINE
  5
5E4
100
AcDbEntity
  8
0
100
AcDbLine
 62
250
  6
CONTINUOUS
 10
163.7922831967
 20
135.7225369378
 11
163.8313631327
 21
135.7238373206
  0
LWPOLYLINE
  5
5E5
100
AcDbEntity
  8
0
100
AcDbPolyline
 62
250
  6
CONTINUOUS
 90
25
 70
0
 10
133.7667092043
 20
136.9368915848
 10
133.7108741611
 20
136.9353178791
 10
133.6543228058
 20
136.9305281914
 10
133.5972502061
 20
136.9223860477
 10
133.5398606916
 20
136.9107635473
 10
133.4823897173
 20
136.8955472305
 10
133.4251023893
 20
136.8766441244
 10
133.3681784127
 20
136.8539389712
 10
133.3119729535
 20
136.8273923177
 10
133.2570123932
 20
136.7971016162
 10
133.2035695182
 20
136.7630896732
 10
133.1519170181
 20
136.725396415
 10
133.1025353699
 20
136.6842634089
 10
133.0557667808
 20
136.6399117392
 10
133.0117386692
 20
136.5923942334
 10
132.9705922342
 20
136.5417490954
 10
132.9327448469
 20
136.4883912073
 10
132.8982318301
 20
136.4322619927
 10
132.8668137656
 20
136.3725889105
 10
132.8389329343
 20
136.3095538955
 10
132.8149844161
 20
136.2432749388
 10
132.7950976185
 20
136.1727500927
 10
132.779904409
 20
136.0977787996
 10
132.7702518137
 20
136.0190717349
 10
132.7668615091
 20
135.9370438896
  0
LINE
  5
5E6
100
AcDbEntity
  8
0
100
AcDbLine
 62
250
  6
CONTINUOUS
 10
164.1465956778
 20
135.4260627256
 11
164.1840127219
 21
135.4271158231
  0
LINE
  5
5E7
100
AcDbEntity
  8
0
100
AcDbLine
 62
250
  6
CONTINUOUS
 10
163.8313631327
 20
135.7238373206
 11
163.8753337202
 21
135.725003498
  0
LWPOLYLINE
  5
5E8
100
AcDbEntity
  8
0
100
AcDbPolyline
 62
250
  6
CONTINUOUS
 90
25
 70
0
 10
133.7667092043
 20
136.1370134287
 10
133.7554690176
 20
136.1367432063
 10
133.7441692337
 20
136.1357786878
 10
133.7328098527
 20
136.134119873
 10
133.7213408824
 20
136.1317857731
 10
133.709812315
 20
136.128757377
 10
133.6983741266
 20
136.1249776514
 10
133.6870055141
 20
136.1204238617
 10
133.6757272807
 20
136.1151187427
 10
133.6647518118
 20
136.1090734652
 10
133.6540838121
 20
136.1022649508
 10
133.6437185769
 20
136.094716278
 10
133.6338543776
 20
136.0865078533
 10
133.6245155904
 20
136.0776440376
 10
133.615677839
 20
136.06812047
 10
133.6074662658
 20
136.0580044752
 10
133.5998936989
 20
136.0473483817
 10
133.5929473101
 20
136.036099861
 10
133.5867137578
 20
136.0241692524
 10
133.5811373232
 20
136.0115651338
 10
133.5762737252
 20
135.9982789274
 10
133.5723767789
 20
135.9841952392
 10
133.5695310894
 20
135.9692756045
 10
133.5676520515
 20
135.953558488
 10
133.5667396653
 20
135.9370438896
  0
LINE
  5
5E9
100
AcDbEntity
  8
0
100
AcDbLine
 62
250
  6
CONTINUOUS
 10
163.8753337202
 20
135.725003498
 11
163.8992936836
 21
135.7255364339
  0
LINE
  5
5EA
100
AcDbEntity
  8
0
100
AcDbLine
 62
250
  6
CONTINUOUS
 10
164.1840127219
 20
135.4271158231
 11
164.2421627083
 21
135.4283815883
  0
LINE
  5
5EB
100
AcDbEntity
  8
0
100
AcDbLine
 62
250
  6
CONTINUOUS
 10
164.2421627083
 20
135.4283815883
 11
164.3008320705
 21
135.4293208587
  0
LINE
  5
5EC
100
AcDbEntity
  8
RACCORDO
100
AcDbLine
 62
7
  6
CONTINUOUS
 10
180.271628219
 20
136.1177300181
 11
179.7425787748
 21
136.1099563443
  0
LINE
  5
5ED
100
AcDbEntity
  8
0
100
AcDbLine
 62
250
  6
CONTINUOUS
 10
164.3008320705
 20
135.4293208587
 11
164.378725952
 21
135.4301621766
  0
LINE
  5
5EE
100
AcDbEntity
  8
RACCORDO
100
AcDbLine
 62
7
  6
CONTINUOUS
 10
166.9872741767
 20
133.726110862
 11
166.804300388
 21
133.724448817
  0
LINE
  5
5EF
100
AcDbEntity
  8
0
100
AcDbLine
 62
250
  6
CONTINUOUS
 10
164.378725952
 20
135.4301621766
 11
164.4577532568
 21
135.4306201421
  0
LINE
  5
5F0
100
AcDbEntity
  8
RACCORDO
100
AcDbLine
 62
7
  6
CONTINUOUS
 10
167.2887854005
 20
133.7272198945
 11
166.9872741767
 21
133.726110862
  0
LINE
  5
5F1
100
AcDbEntity
  8
0
100
AcDbLine
 62
250
  6
CONTINUOUS
 10
164.4577532568
 20
135.4306201421
 11
164.5195652915
 21
135.430727255
  0
LINE
  5
5F2
100
AcDbEntity
  8
SMUSSO
100
AcDbLine
 62
7
  6
CONTINUOUS
 10
133.5472986816
 20
133.5064544123
 11
140.0091346383
 21
133.5064544123
  0
LINE
  5
5F3
100
AcDbEntity
  8
SMUSSO
100
AcDbLine
 62
7
  6
CONTINUOUS
 10
156.0472986816
 20
133.5064544123
 11
162.5091346383
 21
133.5064544123
  0
LINE
  5
5F4
100
AcDbEntity
  8
RACCORDO
100
AcDbLine
 62
7
  6
CONTINUOUS
 10
170.4050570219
 20
133.7272819404
 11
167.2887854005
 21
133.7272198945
  0
LINE
  5
5F5
100
AcDbEntity
  8
SMUSSO
100
AcDbLine
 62
7
  6
CONTINUOUS
 10
151.17821666
 20
134.225536434
 11
144.87821666
 21
134.225536434
  0
LINE
  5
5F6
100
AcDbEntity
  8
SMUSSO
100
AcDbLine
 62
7
  6
CONTINUOUS
 10
133.5330865561
 20
134.3206665378
 11
140.0233467638
 21
134.3206665378
  0
LINE
  5
5F7
100
AcDbEntity
  8
SMUSSO
100
AcDbLine
 62
7
  6
CONTINUOUS
 10
156.0330865561
 20
134.3206665378
 11
162.5233467638
 21
134.3206665378
  0
LINE
  5
5F8
100
AcDbEntity
  8
0
100
AcDbLine
 62
7
  6
CONTINUOUS
 10
171.1418205569
 20
134.875536434
 11
166.1926737122
 21
134.875536434
  0
LINE
  5
5F9
100
AcDbEntity
  8
0
100
AcDbLine
 62
7
  6
CONTINUOUS
 10
165.101587739
 20
134.875536434
 11
163.5414017668
 21
134.875536434
  0
LINE
  5
5FA
100
AcDbEntity
  8
0
100
AcDbLine
 62
7
  6
CONTINUOUS
 10
132.5150315531
 20
134.875536434
 11
130.954845581
 21
134.875536434
  0
LINE
  5
5FB
100
AcDbEntity
  8
0
100
AcDbLine
 62
7
  6
CONTINUOUS
 10
129.8637596078
 20
134.875536434
 11
124.9146127631
 21
134.875536434
  0
LINE
  5
5FC
100
AcDbEntity
  8
0
100
AcDbLine
 62
250
  6
CONTINUOUS
 10
144.27821666
 20
135.2387215408
 11
132.2150772446
 21
135.2387215408
  0
LINE
  5
5FD
100
AcDbEntity
  8
0
100
AcDbLine
 62
250
  6
CONTINUOUS
 10
151.77821666
 20
135.2387215408
 11
163.8413560754
 21
135.2387215408
  0
LINE
  5
5FE
100
AcDbEntity
  8
RACCORDO
100
AcDbLine
 62
250
  6
CONTINUOUS
 10
130.7945287204
 20
135.375536434
 11
131.5368680284
 21
135.375536434
  0
LINE
  5
5FF
100
AcDbEntity
  8
RACCORDO
100
AcDbLine
 62
250
  6
CONTINUOUS
 10
164.5195652915
 20
135.375536434
 11
165.2619045996
 21
135.375536434
  0
LINE
  5
600
100
AcDbEntity
  8
0
100
AcDbLine
 62
250
  6
CONTINUOUS
 10
163.5414017668
 20
135.5386758494
 11
151.77821666
 21
135.5386758494
  0
LINE
  5
601
100
AcDbEntity
  8
0
100
AcDbLine
 62
250
  6
CONTINUOUS
 10
144.27821666
 20
135.5386758494
 11
132.5150315531
 21
135.5386758494
  0
LINE
  5
602
100
AcDbEntity
  8
0
100
AcDbLine
 62
7
  6
CONTINUOUS
 10
151.77821666
 20
135.675536434
 11
144.27821666
 21
135.675536434
  0
LINE
  5
603
100
AcDbEntity
  8
DRAFT
100
AcDbLine
 62
7
  6
CONTINUOUS
 10
113.62821666
 20
135.725536434
 11
113.5828499662
 21
135.725536434
  0
LINE
  5
604
100
AcDbEntity
  8
0
100
AcDbLine
 62
7
  6
CONTINUOUS
 10
132.1571397582
 20
135.7255364301
 11
163.8992936836
 21
135.7255364339
  0
LINE
  5
605
100
AcDbEntity
  8
0
100
AcDbLine
 62
7
  6
CONTINUOUS
 10
164.6418205569
 20
135.875536434
 11
162.4896936547
 21
135.875536434
  0
LINE
  5
606
100
AcDbEntity
  8
0
100
AcDbLine
 62
7
  6
CONTINUOUS
 10
133.5667396653
 20
135.875536434
 11
131.4146127631
 21
135.875536434
  0
LINE
  5
607
100
AcDbEntity
  8
RACCORDO
100
AcDbLine
 62
250
  6
CONTINUOUS
 10
181.2823629689
 20
135.8815097052
 11
181.0329719563
 21
135.8815097052
  0
LINE
  5
608
100
AcDbEntity
  8
RACCORDO
100
AcDbLine
 62
250
  6
CONTINUOUS
 10
117.3323629689
 20
135.8815097052
 11
117.0829719563
 21
135.8815097052
  0
LINE
  5
609
100
AcDbEntity
  8
RACCORDO
100
AcDbLine
 62
250
  6
CONTINUOUS
 10
114.7740703511
 20
135.8815097052
 11
115.0234613636
 21
135.8815097055
  0
LINE
  5
60A
100
AcDbEntity
  8
RACCORDO
100
AcDbLine
 62
250
  6
CONTINUOUS
 10
178.7240703511
 20
135.8815097052
 11
178.9734613636
 21
135.8815097055
  0
LINE
  5
60B
100
AcDbEntity
  8
0
100
AcDbLine
 62
7
  6
CONTINUOUS
 10
131.6151342353
 20
135.9279016287
 11
132.72821666
 21
135.9279016287
  0
LINE
  5
60C
100
AcDbEntity
  8
0
100
AcDbLine
 62
7
  6
CONTINUOUS
 10
163.32821666
 20
135.9279016287
 11
164.4412990847
 21
135.9279016287
  0
LINE
  5
60D
100
AcDbEntity
  8
0
100
AcDbLine
 62
250
  6
CONTINUOUS
 10
133.5667396653
 20
135.9370438896
 11
132.7668615091
 21
135.9370438896
  0
LINE
  5
60E
100
AcDbEntity
  8
0
100
AcDbLine
 62
250
  6
CONTINUOUS
 10
162.4896936547
 20
135.9370438896
 11
163.2895718108
 21
135.9370438897
  0
LINE
  5
60F
100
AcDbEntity
  8
0
100
AcDbLine
 62
250
  6
CONTINUOUS
 10
162.2897241157
 20
136.1370134287
 11
159.6760897578
 21
136.1370134287
  0
LINE
  5
610
100
AcDbEntity
  8
0
100
AcDbLine
 62
250
  6
CONTINUOUS
 10
158.4032975516
 20
136.1370134287
 11
155.02821666
 21
136.1370134287
  0
LINE
  5
611
100
AcDbEntity
  8
0
100
AcDbLine
 62
250
  6
CONTINUOUS
 10
141.02821666
 20
136.1370134287
 11
137.6531357683
 21
136.1370134287
  0
LINE
  5
612
100
AcDbEntity
  8
0
100
AcDbLine
 62
250
  6
CONTINUOUS
 10
136.3803435622
 20
136.1370134287
 11
133.7667092043
 21
136.1370134287
  0
LINE
  5
613
100
AcDbEntity
  8
RACCORDO
100
AcDbLine
 62
250
  6
CONTINUOUS
 10
115.5222433888
 20
136.3802917303
 11
116.5841899312
 21
136.3802917303
  0
LINE
  5
614
100
AcDbEntity
  8
RACCORDO
100
AcDbLine
 62
250
  6
CONTINUOUS
 10
179.4722433888
 20
136.3802917303
 11
180.5341899312
 21
136.3802917303
  0
LINE
  5
615
100
AcDbEntity
  8
RACCORDO
100
AcDbLine
 62
250
  6
CONTINUOUS
 10
115.5222433888
 20
136.6296827429
 11
116.5841899312
 21
136.6296827429
  0
LINE
  5
616
100
AcDbEntity
  8
RACCORDO
100
AcDbLine
 62
250
  6
CONTINUOUS
 10
179.4722433888
 20
136.6296827429
 11
180.5341899312
 21
136.6296827429
  0
LINE
  5
617
100
AcDbEntity
  8
0
100
AcDbLine
 62
250
  6
CONTINUOUS
 10
162.2897241157
 20
136.9368915848
 11
160.5147867389
 21
136.9368915848
  0
LINE
  5
618
100
AcDbEntity
  8
0
100
AcDbLine
 62
250
  6
CONTINUOUS
 10
159.1643568827
 20
136.9368915848
 11
155.7914673869
 21
136.9368915848
  0
LINE
  5
619
100
AcDbEntity
  8
0
100
AcDbLine
 62
250
  6
CONTINUOUS
 10
140.2649659331
 20
136.9368915848
 11
136.8920764372
 21
136.9368915848
  0
LINE
  5
61A
100
AcDbEntity
  8
0
100
AcDbLine
 62
250
  6
CONTINUOUS
 10
135.541646581
 20
136.9368915848
 11
133.7667092043
 21
136.9368915848
  0
LINE
  5
61B
100
AcDbEntity
  8
0
100
AcDbLine
 62
7
  6
CONTINUOUS
 10
162.3283689648
 20
136.975536434
 11
160.6627690405
 21
136.975536434
  0
LINE
  5
61C
100
AcDbEntity
  8
0
100
AcDbLine
 62
7
  6
CONTINUOUS
 10
159.0936642794
 20
136.975536434
 11
155.8839828019
 21
136.975536434
  0
LINE
  5
61D
100
AcDbEntity
  8
0
100
AcDbLine
 62
7
  6
CONTINUOUS
 10
140.1724505181
 20
136.975536434
 11
136.9627690405
 21
136.975536434
  0
LINE
  5
61E
100
AcDbEntity
  8
0
100
AcDbLine
 62
7
  6
CONTINUOUS
 10
135.3936642794
 20
136.975536434
 11
133.7280643551
 21
136.975536434
  0
LINE
  5
61F
100
AcDbEntity
  8
RACCORDO
100
AcDbLine
 62
7
  6
CONTINUOUS
 10
128.9259736877
 20
133.7268374836
 11
125.6513762981
 21
133.7272819404
  0
LINE
  5
620
100
AcDbEntity
  8
0
100
AcDbLine
 62
250
  6
CONTINUOUS
 10
131.5368680284
 20
135.430727255
 11
131.621119803
 21
135.4305418675
  0
LINE
  5
621
100
AcDbEntity
  8
RACCORDO
100
AcDbLine
 62
7
  6
CONTINUOUS
 10
129.1353148546
 20
133.7256244667
 11
128.9259736877
 21
133.7268374836
  0
LINE
  5
622
100
AcDbEntity
  8
0
100
AcDbLine
 62
250
  6
CONTINUOUS
 10
131.621119803
 20
135.4305418675
 11
131.7097904203
 21
135.42985989
  0
LINE
  5
623
100
AcDbEntity
  8
RACCORDO
100
AcDbLine
 62
7
  6
CONTINUOUS
 10
129.252711848
 20
133.7244417392
 11
129.1353148546
 21
133.7256244667
  0
LINE
  5
624
100
AcDbEntity
  8
RACCORDO
100
AcDbLine
 62
7
  6
CONTINUOUS
 10
116.3138545452
 20
136.1099563443
 11
115.7848051009
 21
136.1177300181
  0
LWPOLYLINE
  5
625
100
AcDbEntity
  8
0
100
AcDbPolyline
 62
250
  6
CONTINUOUS
 90
11
 70
0
 10
131.7097904203
 20
135.42985989
 10
131.7989145648
 20
135.428655244
 10
131.8423488956
 20
135.4278084736
 10
131.8837526975
 20
135.4268093042
 10
131.921649712
 20
135.425679204
 10
131.9554861117
 20
135.4243951469
 10
131.9843329777
 20
135.4229801591
 10
132.006893088
 20
135.4215247868
 10
132.0229770807
 20
135.4200592122
 10
132.0328992296
 20
135.418553253
 10
132.036791876
 20
135.4170069094
  0
LWPOLYLINE
  5
626
100
AcDbEntity
  8
0
100
AcDbPolyline
 62
250
  6
CONTINUOUS
 90
7
 70
0
 10
132.1571397582
 20
135.7255364301
 10
132.2110088562
 20
135.7242045218
 10
132.2553040768
 20
135.7228336959
 10
132.29002542
 20
135.7214239527
 10
132.3151728856
 20
135.7199752919
 10
132.3307464738
 20
135.7184877136
 10
132.3367461846
 20
135.7169612179
  0
LWPOLYLINE
  5
627
100
AcDbEntity
  8
RACCORDO
100
AcDbPolyline
 62
250
  6
CONTINUOUS
 90
22
 70
0
 10
116.5841899312
 20
136.3802917303
 10
116.6206885684
 20
136.3790543264
 10
116.6571406165
 20
136.3751401161
 10
116.6933487818
 20
136.3685344241
 10
116.7291480709
 20
136.3592281709
 10
116.7642983014
 20
136.3472409936
 10
116.7984938731
 20
136.3326467282
 10
116.8315273151
 20
136.3155210795
 10
116.8632255577
 20
136.2959421997
 10
116.8933564054
 20
136.2740434107
 10
116.9217238567
 20
136.2499719621
 10
116.9482034889
 20
136.2238399699
 10
116.9726830665
 20
136.195748818
 10
116.9950164906
 20
136.1658462416
 10
117.0150697045
 20
136.1342909281
 10
117.0327453853
 20
136.1012017901
 10
117.0479381549
 20
136.0667079739
 10
117.0605147403
 20
136.0310351328
 10
117.0703619059
 20
135.9944619333
 10
117.0774126274
 20
135.9572230846
 10
117.0816266173
 20
135.9195011267
 10
117.0829719563
 20
135.8815097052
  0
LWPOLYLINE
  5
628
100
AcDbEntity
  8
RACCORDO
100
AcDbPolyline
 62
250
  6
CONTINUOUS
 90
22
 70
0
 10
180.5341899312
 20
136.3802917303
 10
180.5706885684
 20
136.3790543264
 10
180.6071406165
 20
136.3751401161
 10
180.6433487818
 20
136.3685344241
 10
180.6791480709
 20
136.3592281709
 10
180.7142983014
 20
136.3472409936
 10
180.7484938731
 20
136.3326467282
 10
180.7815273151
 20
136.3155210795
 10
180.8132255577
 20
136.2959421997
 10
180.8433564054
 20
136.2740434107
 10
180.8717238567
 20
136.2499719621
 10
180.8982034889
 20
136.2238399699
 10
180.9226830665
 20
136.195748818
 10
180.9450164906
 20
136.1658462416
 10
180.9650697045
 20
136.1342909281
 10
180.9827453853
 20
136.1012017901
 10
180.9979381549
 20
136.0667079739
 10
181.0105147403
 20
136.0310351328
 10
181.0203619059
 20
135.9944619333
 10
181.0274126274
 20
135.9572230846
 10
181.0316266173
 20
135.9195011267
 10
181.0329719563
 20
135.8815097052
  0
LINE
  5
629
100
AcDbEntity
  8
0
100
AcDbLine
 62
7
  6
CONTINUOUS
 10
123.2983279246
 20
137.9707741255
 11
121.8518916091
 21
138.0186736741
  0
LWPOLYLINE
  5
62A
100
AcDbEntity
  8
RACCORDO
100
AcDbPolyline
 62
250
  6
CONTINUOUS
 90
22
 70
0
 10
116.5841899312
 20
136.6296827429
 10
116.6393156586
 20
136.6276938755
 10
116.6937815722
 20
136.6216952826
 10
116.747587672
 20
136.611686964
 10
116.8010808809
 20
136.5975896853
 10
116.853914276
 20
136.579482681
 10
116.9050470887
 20
136.557603655
 10
116.9544235712
 20
136.5318639446
 10
117.0020994713
 20
136.5023522125
 10
117.0472012639
 20
136.4695721503
 10
117.0896452619
 20
136.4335003714
 10
117.1295151524
 20
136.3941602623
 10
117.1661884716
 20
136.3521256749
 10
117.1996346487
 20
136.3073621655
 10
117.2298842544
 20
136.2599041778
 10
117.256406538
 20
136.2104288936
 10
117.2791668789
 20
136.1588308782
 10
117.2981998976
 20
136.1052155662
 10
117.3130787049
 20
136.0505764443
 10
117.3236610044
 20
135.9952446746
 10
117.3300890924
 20
135.9388890949
 10
117.3323629689
 20
135.8815097052
  0
LWPOLYLINE
  5
62B
100
AcDbEntity
  8
RACCORDO
100
AcDbPolyline
 62
250
  6
CONTINUOUS
 90
22
 70
0
 10
180.5341899312
 20
136.6296827429
 10
180.5893156586
 20
136.6276938755
 10
180.6437815722
 20
136.6216952826
 10
180.697587672
 20
136.611686964
 10
180.7510808809
 20
136.5975896853
 10
180.803914276
 20
136.579482681
 10
180.8550470887
 20
136.557603655
 10
180.9044235712
 20
136.5318639446
 10
180.9520994713
 20
136.5023522125
 10
180.9972012639
 20
136.4695721503
 10
181.0396452619
 20
136.4335003714
 10
181.0795151524
 20
136.3941602623
 10
181.1161884716
 20
136.3521256749
 10
181.1496346487
 20
136.3073621655
 10
181.1798842544
 20
136.2599041778
 10
181.206406538
 20
136.2104288936
 10
181.2291668789
 20
136.1588308782
 10
181.2481998976
 20
136.1052155662
 10
181.2630787049
 20
136.0505764443
 10
181.2736610044
 20
135.9952446746
 10
181.2800890924
 20
135.9388890949
 10
181.2823629689
 20
135.8815097052
  0
LINE
  5
62C
100
AcDbEntity
  8
DRAFT
100
AcDbLine
 62
250
  6
CONTINUOUS
 10
177.4793243047
 20
135.0392442248
 11
174.2283334685
 21
135.1659361719
  0
LWPOLYLINE
  5
62D
100
AcDbEntity
  8
RACCORDO
100
AcDbPolyline
 62
7
  6
CONTINUOUS
 90
7
 70
0
 10
166.5542385665
 20
132.4407398625
 10
166.590945163
 20
132.4383692464
 10
166.6261927764
 20
132.4319503594
 10
166.659981407
 20
132.4214832016
 10
166.6923110545
 20
132.4069677728
 10
166.723181719
 20
132.3884040732
 10
166.7525934006
 20
132.3657921028
  0
LWPOLYLINE
  5
62E
100
AcDbEntity
  8
0
100
AcDbPolyline
 62
7
  6
CONTINUOUS
 90
3
 70
0
 10
163.8992936857
 20
135.7255364339
 10
163.9679291923
 20
135.7201347371
 10
164.0367688593
 20
135.7072107415
  0
LWPOLYLINE
  5
62F
100
AcDbEntity
  8
0
100
AcDbPolyline
 62
250
  6
CONTINUOUS
 90
3
 70
0
 10
163.5414017668
 20
135.5386758494
 10
163.5917783994
 20
135.5343999274
 10
163.5968723186
 20
135.5334852507
  0
LWPOLYLINE
  5
630
100
AcDbEntity
  8
0
100
AcDbPolyline
 62
250
  6
CONTINUOUS
 90
9
 70
0
 10
163.7196871354
 20
135.7169612179
 10
163.7717650921
 20
135.7123898858
 10
163.8222608386
 20
135.6988466012
 10
163.8696406717
 20
135.6767429252
 10
163.9124655533
 20
135.6467504378
 10
163.9494349214
 20
135.6097802537
 10
163.9794261323
 20
135.5669552838
 10
164.0015284137
 20
135.5195762564
 10
164.0150705726
 20
135.4690822574
  0
LINE
  5
631
100
AcDbEntity
  8
0
100
AcDbLine
 62
7
  6
CONTINUOUS
 10
161.1932554786
 20
139.0927829047
 11
161.2418205569
 21
138.975536434
  0
LINE
  5
632
100
AcDbEntity
  8
0
100
AcDbLine
 62
7
  6
CONTINUOUS
 10
161.6146127631
 20
138.075536434
 11
161.6580067321
 21
137.9707741255
  0
LINE
  5
633
100
AcDbEntity
  8
DRAFT
100
AcDbLine
 62
7
  6
CONTINUOUS
 10
177.4748571683
 20
96.4662614597
 11
177.52821666
 21
96.261932537
  0
LWPOLYLINE
  5
634
100
AcDbEntity
  8
RACCORDO
100
AcDbPolyline
 62
7
  6
CONTINUOUS
 90
13
 70
0
 10
179.2518648997
 20
86.6479666988
 10
179.2547783619
 20
86.5922734316
 10
179.2640910705
 20
86.5356761145
 10
179.2802013489
 20
86.4789955694
 10
179.3033016997
 20
86.4233503617
 10
179.3336210595
 20
86.3695428756
 10
179.371635907
 20
86.318181131
 10
179.4176753402
 20
86.2703296847
 10
179.4713274036
 20
86.2277818116
 10
179.531686548
 20
86.1923219309
 10
179.5977385275
 20
86.1653237333
 10
179.6684969649
 20
86.1478932773
 10
179.7425787748
 20
86.1411165237
  0
LINE
  5
635
100
AcDbEntity
  8
DRAFT
100
AcDbLine
 62
7
  6
CONTINUOUS
 10
177.5089836732
 20
85.3754871126
 11
177.479047631
 21
86.9195322907
  0
LINE
  5
636
100
AcDbEntity
  8
DRAFT
100
AcDbLine
 62
7
  6
CONTINUOUS
 10
177.477708231
 20
89.5744887889
 11
177.479047631
 21
86.9195322907
  0
LINE
  5
637
100
AcDbEntity
  8
DRAFT
100
AcDbLine
 62
7
  6
CONTINUOUS
 10
177.4754153807
 20
94.8925515235
 11
177.4771815457
 21
90.6776377707
  0
LINE
  5
638
100
AcDbEntity
  8
DRAFT
100
AcDbLine
 62
7
  6
CONTINUOUS
 10
177.474432792
 20
97.7831863486
 11
177.4748571683
 21
96.4662614597
  0
LINE
  5
639
100
AcDbEntity
  8
DRAFT
100
AcDbLine
 62
7
  6
CONTINUOUS
 10
177.4735296053
 20
101.136121187
 11
177.4739759052
 21
99.3611545613
  0
LINE
  5
63A
100
AcDbEntity
  8
0
100
AcDbLine
 62
7
  6
CONTINUOUS
 10
176.02821666
 20
96.3261672219
 11
176.02821666
 21
96.4891403309
  0
LINE
  5
63B
100
AcDbEntity
  8
0
100
AcDbLine
 62
7
  6
CONTINUOUS
 10
176.02821666
 20
97.761932537
 11
176.02821666
 21
97.926501189
  0
LINE
  5
63C
100
AcDbEntity
  8
0
100
AcDbLine
 62
7
  6
CONTINUOUS
 10
176.02821666
 20
124.3245716789
 11
176.02821666
 21
124.4891403309
  0
LINE
  5
63D
100
AcDbEntity
  8
0
100
AcDbLine
 62
7
  6
CONTINUOUS
 10
176.02821666
 20
125.761932537
 11
176.02821666
 21
125.9249056461
  0
LINE
  5
63E
100
AcDbEntity
  8
DRAFT
100
AcDbLine
 62
7
  6
CONTINUOUS
 10
177.52821666
 20
85.375536434
 11
177.52821666
 21
89.675536434
  0
LINE
  5
63F
100
AcDbEntity
  8
DRAFT
100
AcDbLine
 62
7
  6
CONTINUOUS
 10
177.52821666
 20
90.575536434
 11
177.52821666
 21
94.9891403309
  0
LINE
  5
640
100
AcDbEntity
  8
DRAFT
100
AcDbLine
 62
7
  6
CONTINUOUS
 10
177.52821666
 20
96.261932537
 11
177.52821666
 21
97.9891403309
  0
LINE
  5
641
100
AcDbEntity
  8
DRAFT
100
AcDbLine
 62
7
  6
CONTINUOUS
 10
177.52821666
 20
99.261932537
 11
177.52821666
 21
101.130320976
  0
LINE
  5
642
100
AcDbEntity
  8
DRAFT
100
AcDbLine
 62
7
  6
CONTINUOUS
 10
177.52821666
 20
121.1207518919
 11
177.52821666
 21
122.9891403309
  0
LINE
  5
643
100
AcDbEntity
  8
DRAFT
100
AcDbLine
 62
7
  6
CONTINUOUS
 10
177.52821666
 20
124.261932537
 11
177.52821666
 21
125.9891403309
  0
LINE
  5
644
100
AcDbEntity
  8
DRAFT
100
AcDbLine
 62
7
  6
CONTINUOUS
 10
177.52821666
 20
127.261932537
 11
177.52821666
 21
131.675536434
  0
LINE
  5
645
100
AcDbEntity
  8
DRAFT
100
AcDbLine
 62
7
  6
CONTINUOUS
 10
177.52821666
 20
132.575536434
 11
177.52821666
 21
136.875536434
  0
LINE
  5
646
100
AcDbEntity
  8
RACCORDO
100
AcDbLine
 62
250
  6
CONTINUOUS
 10
178.7240703511
 20
86.3695631627
 11
178.7240703511
 21
101.8815097052
  0
LINE
  5
647
100
AcDbEntity
  8
RACCORDO
100
AcDbLine
 62
250
  6
CONTINUOUS
 10
178.7240703511
 20
120.3695631627
 11
178.7240703511
 21
135.8815097052
  0
LINE
  5
648
100
AcDbEntity
  8
RACCORDO
100
AcDbLine
 62
250
  6
CONTINUOUS
 10
178.9734613636
 20
86.3695631627
 11
178.9734613636
 21
101.8815097052
  0
LINE
  5
649
100
AcDbEntity
  8
RACCORDO
100
AcDbLine
 62
250
  6
CONTINUOUS
 10
178.9734613636
 20
120.3695631627
 11
178.9734613636
 21
135.8815097052
  0
LINE
  5
64A
100
AcDbEntity
  8
DRAFT
100
AcDbLine
 62
7
  6
CONTINUOUS
 10
177.4748571683
 20
125.7848114082
 11
177.474432792
 21
124.4678865193
  0
LINE
  5
64B
100
AcDbEntity
  8
DRAFT
100
AcDbLine
 62
7
  6
CONTINUOUS
 10
177.4739759052
 20
122.8899183066
 11
177.4735296053
 21
121.1149516809
  0
LINE
  5
64C
100
AcDbEntity
  8
DRAFT
100
AcDbLine
 62
7
  6
CONTINUOUS
 10
177.4771815457
 20
131.5734350972
 11
177.4754153807
 21
127.3585213444
  0
LINE
  5
64D
100
AcDbEntity
  8
DRAFT
100
AcDbLine
 62
7
  6
CONTINUOUS
 10
177.479047631
 20
135.3315405772
 11
177.477708231
 21
132.676584079
  0
LINE
  5
64E
100
AcDbEntity
  8
DRAFT
100
AcDbLine
 62
7
  6
CONTINUOUS
 10
177.5089836732
 20
136.8755857553
 11
177.479047631
 21
135.3315405772
  0
LWPOLYLINE
  5
64F
100
AcDbEntity
  8
RACCORDO
100
AcDbPolyline
 62
250
  6
CONTINUOUS
 90
22
 70
0
 10
178.9734613636
 20
135.8815097052
 10
178.9746987675
 20
135.9180083424
 10
178.9786129778
 20
135.9544603905
 10
178.9852186698
 20
135.9906685558
 10
178.994524923
 20
136.0264678449
 10
179.0065121003
 20
136.0616180754
 10
179.0211063658
 20
136.095813647
 10
179.0382320144
 20
136.1288470891
 10
179.0578108943
 20
136.1605453317
 10
179.0797096832
 20
136.1906761794
 10
179.1037811318
 20
136.2190436306
 10
179.1299131241
 20
136.2455232629
 10
179.158004276
 20
136.2700028404
 10
179.1879068523
 20
136.2923362646
 10
179.2194621659
 20
136.3123894785
 10
179.2525513038
 20
136.3300651592
 10
179.2870451201
 20
136.3452579289
 10
179.3227179612
 20
136.3578345143
 10
179.3592911607
 20
136.3676816798
 10
179.3965300094
 20
136.3747324014
 10
179.4342519672
 20
136.3789463913
 10
179.4722433888
 20
136.3802917303
  0
LWPOLYLINE
  5
650
100
AcDbEntity
  8
RACCORDO
100
AcDbPolyline
 62
250
  6
CONTINUOUS
 90
22
 70
0
 10
178.7240703511
 20
135.8815097052
 10
178.7260592184
 20
135.9366354326
 10
178.7320578114
 20
135.9911013462
 10
178.7420661299
 20
136.044907446
 10
178.7561634086
 20
136.0984006549
 10
178.7742704129
 20
136.15123405
 10
178.7961494389
 20
136.2023668627
 10
178.8218891493
 20
136.2517433452
 10
178.8514008814
 20
136.2994192452
 10
178.8841809436
 20
136.3445210378
 10
178.9202527226
 20
136.3869650358
 10
178.9595928316
 20
136.4268349263
 10
179.0016274191
 20
136.4635082456
 10
179.0463909284
 20
136.4969544226
 10
179.0938489161
 20
136.5272040284
 10
179.1433242003
 20
136.553726312
 10
179.1949222158
 20
136.5764866529
 10
179.2485375277
 20
136.5955196716
 10
179.3031766496
 20
136.6103984789
 10
179.3585084193
 20
136.6209807783
 10
179.4148639991
 20
136.6274088663
 10
179.4722433888
 20
136.6296827429
  0
LWPOLYLINE
  5
651
100
AcDbEntity
  8
RACCORDO
100
AcDbPolyline
 62
250
  6
CONTINUOUS
 90
22
 70
0
 10
178.7240703511
 20
101.8815097052
 10
178.7260592184
 20
101.9366354326
 10
178.7320578114
 20
101.9911013462
 10
178.7420661299
 20
102.044907446
 10
178.7561634086
 20
102.0984006549
 10
178.7742704129
 20
102.15123405
 10
178.7961494389
 20
102.2023668627
 10
178.8218891493
 20
102.2517433452
 10
178.8514008814
 20
102.2994192452
 10
178.8841809436
 20
102.3445210378
 10
178.9202527226
 20
102.3869650358
 10
178.9595928316
 20
102.4268349263
 10
179.0016274191
 20
102.4635082456
 10
179.0463909284
 20
102.4969544226
 10
179.0938489161
 20
102.5272040284
 10
179.1433242003
 20
102.553726312
 10
179.1949222158
 20
102.5764866529
 10
179.2485375277
 20
102.5955196716
 10
179.3031766496
 20
102.6103984789
 10
179.3585084193
 20
102.6209807783
 10
179.4148639991
 20
102.6274088663
 10
179.4722433888
 20
102.6296827429
  0
LWPOLYLINE
  5
652
100
AcDbEntity
  8
0
100
AcDbPolyline
 62
7
  6
CONTINUOUS
 90
7
 70
0
 10
172.1948096279
 20
83.167180773
 10
172.1567889455
 20
82.9104478257
 10
172.1327487711
 20
82.652509921
 10
172.1227623138
 20
82.394203896
 10
172.1268505684
 20
82.1363739639
 10
172.1449815143
 20
81.879868448
 10
172.1770695131
 20
81.625536434
  0
LINE
  5
653
100
AcDbEntity
  8
RACCORDO
100
AcDbLine
 62
250
  6
CONTINUOUS
 10
170.6934200885
 20
94.4460390854
 11
170.6166601683
 21
94.3436039722
  0
LINE
  5
654
100
AcDbEntity
  8
RACCORDO
100
AcDbLine
 62
250
  6
CONTINUOUS
 10
170.6166601683
 20
94.3436039722
 11
170.57821666
 21
94.2926677917
  0
LINE
  5
655
100
AcDbEntity
  8
DRAFT
100
AcDbLine
 62
7
  6
CONTINUOUS
 10
176.8219492724
 20
97.125536434
 11
177.474432792
 21
97.7831863486
  0
LINE
  5
656
100
AcDbEntity
  8
0
100
AcDbLine
 62
7
  6
CONTINUOUS
 10
161.2262616728
 20
83.125536434
 11
159.7369156184
 21
81.625536434
  0
LINE
  5
657
100
AcDbEntity
  8
0
100
AcDbLine
 62
7
  6
CONTINUOUS
 10
174.22821666
 20
94.5160619749
 11
176.02821666
 21
96.3261672219
  0
LINE
  5
658
100
AcDbEntity
  8
DRAFT
100
AcDbLine
 62
7
  6
CONTINUOUS
 10
164.4412990847
 20
86.3231712392
 11
162.3984265879
 21
84.2802987424
  0
LINE
  5
659
100
AcDbEntity
  8
RACCORDO
100
AcDbLine
 62
250
  6
CONTINUOUS
 10
180.5341899312
 20
102.3802917303
 11
180.2502276324
 21
102.0963294315
  0
LINE
  5
65A
100
AcDbEntity
  8
RACCORDO
100
AcDbLine
 62
250
  6
CONTINUOUS
 10
156.7734613636
 20
78.6195631627
 11
157.0613718422
 21
78.9074736413
  0
LINE
  5
65B
100
AcDbEntity
  8
DRAFT
100
AcDbLine
 62
7
  6
CONTINUOUS
 10
177.52821666
 20
99.261932537
 11
176.02821666
 21
97.761932537
  0
LINE
  5
65C
100
AcDbEntity
  8
0
100
AcDbLine
 62
7
  6
CONTINUOUS
 10
159.8918205569
 20
81.625536434
 11
161.3918205569
 21
83.125536434
  0
LINE
  5
65D
100
AcDbEntity
  8
DRAFT
100
AcDbLine
 62
7
  6
CONTINUOUS
 10
162.4418205569
 20
84.175536434
 11
164.6418205569
 21
86.375536434
  0
LINE
  5
65E
100
AcDbEntity
  8
0
100
AcDbLine
 62
7
  6
CONTINUOUS
 10
174.22821666
 20
95.961932537
 11
175.3918205569
 21
97.125536434
  0
LINE
  5
65F
100
AcDbEntity
  8
RACCORDO
100
AcDbLine
 62
250
  6
CONTINUOUS
 10
181.0329719563
 20
101.8815097052
 11
180.7578800182
 21
101.606417767
  0
LINE
  5
660
100
AcDbEntity
  8
RACCORDO
100
AcDbLine
 62
250
  6
CONTINUOUS
 10
157.2722433888
 20
78.1207811376
 11
157.5514529686
 21
78.3999907174
  0
LINE
  5
661
100
AcDbEntity
  8
0
100
AcDbLine
 62
7
  6
CONTINUOUS
 10
161.1646127631
 20
81.625536434
 11
162.02821666
 21
82.4891403309
  0
LINE
  5
662
100
AcDbEntity
  8
SUPERFICI
100
AcDbLine
 62
7
  6
CONTINUOUS
 10
162.6646127631
 20
83.125536434
 11
162.8146127631
 21
83.275536434
  0
LINE
  5
663
100
AcDbEntity
  8
0
100
AcDbLine
 62
7
  6
CONTINUOUS
 10
163.7146127631
 20
84.175536434
 11
165.32821666
 21
85.7891403309
  0
LINE
  5
664
100
AcDbEntity
  8
0
100
AcDbLine
 62
7
  6
CONTINUOUS
 10
174.22821666
 20
94.6891403309
 11
176.02821666
 21
96.4891403309
  0
LINE
  5
665
100
AcDbEntity
  8
DRAFT
100
AcDbLine
 62
7
  6
CONTINUOUS
 10
176.6646127631
 20
97.125536434
 11
177.52821666
 21
97.9891403309
  0
LINE
  5
666
100
AcDbEntity
  8
0
100
AcDbLine
 62
7
  6
CONTINUOUS
 10
165.32821666
 20
85.6409840534
 11
163.967531349
 21
84.2802987424
  0
LINE
  5
667
100
AcDbEntity
  8
0
100
AcDbLine
 62
7
  6
CONTINUOUS
 10
175.2220737555
 20
97.125536434
 11
174.22821666
 21
96.1370472181
  0
LINE
  5
668
100
AcDbEntity
  8
0
100
AcDbLine
 62
7
  6
CONTINUOUS
 10
162.8288624378
 20
83.125536434
 11
162.8627798447
 21
83.1592508121
  0
LINE
  5
669
100
AcDbEntity
  8
0
100
AcDbLine
 62
7
  6
CONTINUOUS
 10
161.3184191269
 20
81.625536434
 11
162.02821666
 21
82.3300851084
  0
LINE
  5
66A
100
AcDbEntity
  8
DRAFT
100
AcDbLine
 62
7
  6
CONTINUOUS
 10
177.4739759052
 20
99.3611545613
 11
176.02821666
 21
97.926501189
  0
LINE
  5
66B
100
AcDbEntity
  8
RACCORDO
100
AcDbLine
 62
250
  6
CONTINUOUS
 10
166.5105890752
 20
89.925536434
 11
166.4014280313
 21
89.8295087248
  0
LWPOLYLINE
  5
66C
100
AcDbEntity
  8
0
100
AcDbPolyline
 62
7
  6
CONTINUOUS
 90
10
 70
0
 10
164.5195652915
 20
86.8203456129
 10
164.4516124743
 20
86.7658887292
 10
164.3834065299
 20
86.7161996361
 10
164.3149474583
 20
86.6712783336
 10
164.2462198394
 20
86.6302484397
 10
164.1772390933
 20
86.5939863364
 10
164.1080514808
 20
86.5651211699
 10
164.0386724222
 20
86.5445293223
 10
163.9690864971
 20
86.5313344116
 10
163.8992937057
 20
86.5255364378
  0
LWPOLYLINE
  5
66D
100
AcDbEntity
  8
RACCORDO
100
AcDbPolyline
 62
7
  6
CONTINUOUS
 90
7
 70
0
 10
166.5769232626
 20
89.8844092659
 10
166.5476136005
 20
89.8620630569
 10
166.5168657152
 20
89.8437169141
 10
166.4846796065
 20
89.8293708376
 10
166.4510552745
 20
89.8190248273
 10
166.4159927192
 20
89.8126788832
 10
166.3794919406
 20
89.8103330054
  0
LINE
  5
66E
100
AcDbEntity
  8
0
100
AcDbLine
 62
7
  6
CONTINUOUS
 10
159.1643568827
 20
85.3141812831
 11
159.0936642794
 21
85.275536434
  0
LINE
  5
66F
100
AcDbEntity
  8
0
100
AcDbLine
 62
7
  6
CONTINUOUS
 10
163.7146127631
 20
84.175536434
 11
163.967531349
 21
84.2802987424
  0
LWPOLYLINE
  5
670
100
AcDbEntity
  8
0
100
AcDbPolyline
 62
7
  6
CONTINUOUS
 90
9
 70
0
 10
132.4595610143
 20
135.5334852532
 10
132.4152509248
 20
135.5215628767
 10
132.3681794268
 20
135.5002242112
 10
132.324863911
 20
135.4706309834
 10
132.2869814312
 20
135.4335000563
 10
132.256221777
 20
135.3902675546
 10
132.2336191682
 20
135.3424609878
 10
132.2197583515
 20
135.2914173193
 10
132.2151245382
 20
135.2439572908
  0
LINE
  5
671
100
AcDbEntity
  8
DRAFT
100
AcDbLine
 62
7
  6
CONTINUOUS
 10
131.4146127631
 20
135.875536434
 11
131.6151342353
 21
135.9279016287
  0
LWPOLYLINE
  5
672
100
AcDbEntity
  8
RACCORDO
100
AcDbPolyline
 62
7
  6
CONTINUOUS
 90
13
 70
0
 10
115.7848051009
 20
136.1177300181
 10
115.7079991483
 20
136.1131587702
 10
115.6347286552
 20
136.097641101
 10
115.5664005226
 20
136.0722823583
 10
115.5039063446
 20
136.0381687034
 10
115.4484037063
 20
135.996715498
 10
115.4010847779
 20
135.9499309771
 10
115.3624420263
 20
135.8999236266
 10
115.3317899758
 20
135.8476528164
 10
115.3083355022
 20
135.7932895428
 10
115.2918496522
 20
135.7374250616
 10
115.2822755613
 20
135.6812941812
 10
115.2792696032
 20
135.6257014656
  0
LWPOLYLINE
  5
673
100
AcDbEntity
  8
RACCORDO
100
AcDbPolyline
 62
7
  6
CONTINUOUS
 90
16
 70
0
 10
172.5006821142
 20
142.3542889546
 10
172.5490861852
 20
142.3564517933
 10
172.5973827841
 20
142.3632522861
 10
172.6451083518
 20
142.3747117848
 10
172.691761171
 20
142.3907868324
 10
172.7368971516
 20
142.4114150282
 10
172.7801196545
 20
142.4365460125
 10
172.8207054535
 20
142.4658416826
 10
172.8584492909
 20
142.499244979
 10
172.8935207149
 20
142.5373007602
 10
172.9255343015
 20
142.5803590639
 10
172.9533436472
 20
142.6277852131
 10
172.9759399038
 20
142.6786035213
 10
172.9927554799
 20
142.7320518333
 10
173.0034554458
 20
142.7877077065
 10
173.0076572139
 20
142.8448779051
  0
LWPOLYLINE
  5
674
100
AcDbEntity
  8
0
100
AcDbPolyline
 62
7
  6
CONTINUOUS
 90
3
 70
0
 10
123.8616236921
 20
139.0838920949
 10
122.1185480339
 20
139.0211033481
 10
121.914290473
 20
139.0140141309
  0
LINE
  5
675
100
AcDbEntity
  8
0
100
AcDbLine
 62
7
  6
CONTINUOUS
 10
133.1936534752
 20
139.0918220558
 11
123.8616236921
 21
139.0838920949
  0
LINE
  5
676
100
AcDbEntity
  8
DRAFT
100
AcDbLine
 62
7
  6
CONTINUOUS
 10
138.4065515606
 20
139.0944528929
 11
134.8631778414
 21
139.0927829047
  0
LINE
  5
677
100
AcDbEntity
  8
0
100
AcDbLine
 62
7
  6
CONTINUOUS
 10
123.2983279246
 20
137.9707741255
 11
132.088901971
 21
137.9707741255
  0
LINE
  5
678
100
AcDbEntity
  8
0
100
AcDbLine
 62
7
  6
CONTINUOUS
 10
133.6580067321
 20
137.9707741255
 11
134.3984265879
 21
137.9707741255
  0
LINE
  5
679
100
AcDbEntity
  8
DRAFT
100
AcDbLine
 62
7
  6
CONTINUOUS
 10
135.967531349
 20
137.9707741255
 11
139.095143193
 21
137.9707741255
  0
LINE
  5
67A
100
AcDbEntity
  8
DRAFT
100
AcDbLine
 62
7
  6
CONTINUOUS
 10
156.961290127
 20
137.9707741255
 11
160.088901971
 21
137.9707741255
  0
LINE
  5
67B
100
AcDbEntity
  8
0
100
AcDbLine
 62
7
  6
CONTINUOUS
 10
161.6580067321
 20
137.9707741255
 11
162.3984265879
 21
137.9707741255
  0
LINE
  5
67C
100
AcDbEntity
  8
0
100
AcDbLine
 62
7
  6
CONTINUOUS
 10
163.967531349
 20
137.9707741255
 11
172.7581053954
 21
137.9707741255
  0
LINE
  5
67D
100
AcDbEntity
  8
SUPERFICI
100
AcDbLine
 62
7
  6
CONTINUOUS
 10
174.3418205569
 20
138.075536434
 11
163.7146127631
 21
138.075536434
  0
LINE
  5
67E
100
AcDbEntity
  8
SUPERFICI
100
AcDbLine
 62
7
  6
CONTINUOUS
 10
162.4418205569
 20
138.075536434
 11
161.6146127631
 21
138.075536434
  0
LINE
  5
67F
100
AcDbEntity
  8
DRAFT
100
AcDbLine
 62
7
  6
CONTINUOUS
 10
160.3418205569
 20
138.075536434
 11
157.0105019996
 21
138.075536434
  0
LINE
  5
680
100
AcDbEntity
  8
DRAFT
100
AcDbLine
 62
7
  6
CONTINUOUS
 10
139.0459313204
 20
138.075536434
 11
135.7146127631
 21
138.075536434
  0
LINE
  5
681
100
AcDbEntity
  8
SUPERFICI
100
AcDbLine
 62
7
  6
CONTINUOUS
 10
134.4418205569
 20
138.075536434
 11
133.6146127631
 21
138.075536434
  0
LINE
  5
682
100
AcDbEntity
  8
SUPERFICI
100
AcDbLine
 62
7
  6
CONTINUOUS
 10
132.3418205569
 20
138.075536434
 11
121.7146127631
 21
138.075536434
  0
LINE
  5
683
100
AcDbEntity
  8
0
100
AcDbLine
 62
7
  6
CONTINUOUS
 10
174.1607250119
 20
138.975536434
 11
162.8146127631
 21
138.975536434
  0
LINE
  5
684
100
AcDbEntity
  8
DRAFT
100
AcDbLine
 62
7
  6
CONTINUOUS
 10
161.2418205569
 20
138.975536434
 11
157.5626393696
 21
138.975536434
  0
LINE
  5
685
100
AcDbEntity
  8
DRAFT
100
AcDbLine
 62
7
  6
CONTINUOUS
 10
138.4937939503
 20
138.975536434
 11
134.8146127631
 21
138.975536434
  0
LINE
  5
686
100
AcDbEntity
  8
0
100
AcDbLine
 62
7
  6
CONTINUOUS
 10
133.2418205569
 20
138.975536434
 11
121.8957083081
 21
138.975536434
  0
LINE
  5
687
100
AcDbEntity
  8
0
100
AcDbLine
 62
7
  6
CONTINUOUS
 10
133.2275708822
 20
139.125536434
 11
133.3918205569
 21
139.125536434
  0
LINE
  5
688
100
AcDbEntity
  8
0
100
AcDbLine
 62
7
  6
CONTINUOUS
 10
134.6646127631
 20
139.125536434
 11
134.8301716472
 21
139.125536434
  0
LINE
  5
689
100
AcDbEntity
  8
0
100
AcDbLine
 62
7
  6
CONTINUOUS
 10
161.2262616728
 20
139.125536434
 11
161.3918205569
 21
139.125536434
  0
LINE
  5
68A
100
AcDbEntity
  8
0
100
AcDbLine
 62
7
  6
CONTINUOUS
 10
162.6646127631
 20
139.125536434
 11
162.8288624378
 21
139.125536434
  0
LINE
  5
68B
100
AcDbEntity
  8
0
100
AcDbLine
 62
7
  6
CONTINUOUS
 10
173.77821666
 20
140.625536434
 11
164.1646127631
 21
140.625536434
  0
LINE
  5
68C
100
AcDbEntity
  8
0
100
AcDbLine
 62
7
  6
CONTINUOUS
 10
162.8918205569
 20
140.625536434
 11
161.1646127631
 21
140.625536434
  0
LINE
  5
68D
100
AcDbEntity
  8
DRAFT
100
AcDbLine
 62
7
  6
CONTINUOUS
 10
159.8918205569
 20
140.625536434
 11
158.023432118
 21
140.625536434
  0
LINE
  5
68E
100
AcDbEntity
  8
DRAFT
100
AcDbLine
 62
7
  6
CONTINUOUS
 10
138.033001202
 20
140.625536434
 11
136.1646127631
 21
140.625536434
  0
LINE
  5
68F
100
AcDbEntity
  8
0
100
AcDbLine
 62
7
  6
CONTINUOUS
 10
134.8918205569
 20
140.625536434
 11
133.1646127631
 21
140.625536434
  0
LINE
  5
690
100
AcDbEntity
  8
0
100
AcDbLine
 62
7
  6
CONTINUOUS
 10
131.8918205569
 20
140.625536434
 11
122.27821666
 21
140.625536434
  0
LINE
  5
691
100
AcDbEntity
  8
RACCORDO
100
AcDbLine
 62
250
  6
CONTINUOUS
 10
172.7841899312
 20
141.821390125
 11
157.2722433888
 21
141.821390125
  0
LINE
  5
692
100
AcDbEntity
  8
RACCORDO
100
AcDbLine
 62
250
  6
CONTINUOUS
 10
138.7841899312
 20
141.821390125
 11
123.2722433888
 21
141.821390125
  0
LINE
  5
693
100
AcDbEntity
  8
RACCORDO
100
AcDbLine
 62
250
  6
CONTINUOUS
 10
172.7841899312
 20
142.0707811376
 11
157.2722433888
 21
142.0707811376
  0
LINE
  5
694
100
AcDbEntity
  8
RACCORDO
100
AcDbLine
 62
250
  6
CONTINUOUS
 10
138.7841899312
 20
142.0707811376
 11
123.2722433888
 21
142.0707811376
  0
LINE
  5
695
100
AcDbEntity
  8
DRAFT
100
AcDbLine
 62
7
  6
CONTINUOUS
 10
161.1932554786
 20
139.0927829047
 11
157.6498817594
 21
139.0944528929
  0
LINE
  5
696
100
AcDbEntity
  8
0
100
AcDbLine
 62
7
  6
CONTINUOUS
 10
172.1948096279
 20
139.0838920949
 11
162.8627798447
 21
139.0918220558
  0
LWPOLYLINE
  5
697
100
AcDbEntity
  8
RACCORDO
100
AcDbPolyline
 62
250
  6
CONTINUOUS
 90
22
 70
0
 10
123.2722433888
 20
142.0707811376
 10
123.2357447515
 20
142.0720185415
 10
123.1992927035
 20
142.0759327518
 10
123.1630845382
 20
142.0825384438
 10
123.1272852491
 20
142.091844697
 10
123.0921350186
 20
142.1038318743
 10
123.0579394469
 20
142.1184261397
 10
123.0249060048
 20
142.1355517884
 10
122.9932077622
 20
142.1551306682
 10
122.9630769146
 20
142.1770294572
 10
122.9347094633
 20
142.2011009058
 10
122.9082298311
 20
142.227232898
 10
122.8837502535
 20
142.2553240499
 10
122.8614168294
 20
142.2852266263
 10
122.8413636155
 20
142.3167819398
 10
122.8236879347
 20
142.3498710778
 10
122.808495165
 20
142.384364894
 10
122.7959185797
 20
142.4200377351
 10
122.7860714141
 20
142.4566109346
 10
122.7790206926
 20
142.4938497833
 10
122.7748067026
 20
142.5315717412
 10
122.7734613636
 20
142.5695631627
  0
LWPOLYLINE
  5
698
100
AcDbEntity
  8
RACCORDO
100
AcDbPolyline
 62
250
  6
CONTINUOUS
 90
22
 70
0
 10
123.2722433888
 20
141.821390125
 10
123.2171176614
 20
141.8233789924
 10
123.1626517477
 20
141.8293775853
 10
123.1088456479
 20
141.8393859039
 10
123.055352439
 20
141.8534831826
 10
123.0025190439
 20
141.8715901869
 10
122.9513862312
 20
141.8934692129
 10
122.9020097488
 20
141.9192089233
 10
122.8543338487
 20
141.9487206554
 10
122.8092320561
 20
141.9815007176
 10
122.7667880581
 20
142.0175724966
 10
122.7269181676
 20
142.0569126056
 10
122.6902448483
 20
142.0989471931
 10
122.6567986713
 20
142.1437107024
 10
122.6265490655
 20
142.1911686901
 10
122.6000267819
 20
142.2406439743
 10
122.5772664411
 20
142.2922419897
 10
122.5582334223
 20
142.3458573017
 10
122.543354615
 20
142.4004964236
 10
122.5327723156
 20
142.4558281933
 10
122.5263442276
 20
142.512183773
 10
122.5240703511
 20
142.5695631627
  0
LWPOLYLINE
  5
699
100
AcDbEntity
  8
RACCORDO
100
AcDbPolyline
 62
250
  6
CONTINUOUS
 90
22
 70
0
 10
157.2722433888
 20
141.821390125
 10
157.2171176614
 20
141.8233789924
 10
157.1626517477
 20
141.8293775853
 10
157.1088456479
 20
141.8393859039
 10
157.055352439
 20
141.8534831826
 10
157.0025190439
 20
141.8715901869
 10
156.9513862312
 20
141.8934692129
 10
156.9020097488
 20
141.9192089233
 10
156.8543338487
 20
141.9487206554
 10
156.8092320561
 20
141.9815007176
 10
156.7667880581
 20
142.0175724966
 10
156.7269181676
 20
142.0569126056
 10
156.6902448483
 20
142.0989471931
 10
156.6567986713
 20
142.1437107024
 10
156.6265490655
 20
142.1911686901
 10
156.6000267819
 20
142.2406439743
 10
156.5772664411
 20
142.2922419897
 10
156.5582334223
 20
142.3458573017
 10
156.543354615
 20
142.4004964236
 10
156.5327723156
 20
142.4558281933
 10
156.5263442276
 20
142.512183773
 10
156.5240703511
 20
142.5695631627
  0
LINE
  5
69A
100
AcDbEntity
  8
0
100
AcDbLine
 62
7
  6
CONTINUOUS
 10
172.1948096279
 20
139.0838920949
 11
174.142142847
 21
139.0140141309
  0
LINE
  5
69B
100
AcDbEntity
  8
DRAFT
100
AcDbLine
 62
7
  6
CONTINUOUS
 10
164.6418205569
 20
135.875536434
 11
164.4412990847
 21
135.9279016287
  0
LWPOLYLINE
  5
69C
100
AcDbEntity
  8
0
100
AcDbPolyline
 62
7
  6
CONTINUOUS
 90
9
 70
0
 10
163.5968723186
 20
135.5334852507
 10
163.6412665756
 20
135.5215331431
 10
163.6883548657
 20
135.5001674613
 10
163.7316707782
 20
135.4705478126
 10
163.7695391275
 20
135.4333978792
 10
163.8002737372
 20
135.3901613258
 10
163.822847552
 20
135.3423704035
 10
163.836684732
 20
135.291362672
 10
163.8413087817
 20
135.2439572908
  0
LWPOLYLINE
  5
69D
100
AcDbEntity
  8
0
100
AcDbPolyline
 62
7
  6
CONTINUOUS
 90
8
 70
0
 10
164.0367688593
 20
135.7072107415
 10
164.1058126867
 20
135.6867644469
 10
164.1752383681
 20
135.6578844146
 10
164.2448682099
 20
135.6214820833
 10
164.3141691312
 20
135.5802917701
 10
164.3829634384
 20
135.5352249137
 10
164.4514288252
 20
135.4853700754
 10
164.5195652915
 20
135.430727255
  0
LINE
  5
69E
100
AcDbEntity
  8
0
100
AcDbLine
 62
7
  6
CONTINUOUS
 10
163.967531349
 20
137.9707741255
 11
163.7146127631
 21
138.075536434
  0
LINE
  5
69F
100
AcDbEntity
  8
0
100
AcDbLine
 62
7
  6
CONTINUOUS
 10
159.0936642794
 20
136.975536434
 11
159.1643568827
 21
136.9368915848
  0
LWPOLYLINE
  5
6A0
100
AcDbEntity
  8
RACCORDO
100
AcDbPolyline
 62
7
  6
CONTINUOUS
 90
10
 70
0
 10
166.7093633836
 20
132.2502792038
 10
166.6906619922
 20
132.2655221098
 10
166.6707962889
 20
132.2792125646
 10
166.6498947699
 20
132.2912620577
 10
166.628092684
 20
132.3015926645
 10
166.6055309886
 20
132.3101376323
 10
166.5823554199
 20
132.3168417655
 10
166.5587157901
 20
132.321661691
 10
166.5347650359
 20
132.3245661868
 10
166.5106580485
 20
132.325536434
  0
LINE
  5
6A1
100
AcDbEntity
  8
DRAFT
100
AcDbLine
 62
7
  6
CONTINUOUS
 10
176.02821666
 20
124.3245716789
 11
177.4739759052
 21
122.8899183066
  0
LINE
  5
6A2
100
AcDbEntity
  8
0
100
AcDbLine
 62
7
  6
CONTINUOUS
 10
162.02821666
 20
139.9209877595
 11
161.3184191269
 21
140.625536434
  0
LINE
  5
6A3
100
AcDbEntity
  8
0
100
AcDbLine
 62
7
  6
CONTINUOUS
 10
162.8627798447
 20
139.0918220558
 11
162.8288624378
 21
139.125536434
  0
LINE
  5
6A4
100
AcDbEntity
  8
0
100
AcDbLine
 62
7
  6
CONTINUOUS
 10
174.22821666
 20
126.1140256498
 11
175.2220737555
 21
125.125536434
  0
LINE
  5
6A5
100
AcDbEntity
  8
DRAFT
100
AcDbLine
 62
7
  6
CONTINUOUS
 10
164.4412990847
 20
135.9279016287
 11
162.3984265879
 21
137.9707741255
  0
LINE
  5
6A6
100
AcDbEntity
  8
RACCORDO
100
AcDbLine
 62
250
  6
CONTINUOUS
 10
180.5341899312
 20
119.8707811376
 11
180.2502276324
 21
120.1547434364
  0
LINE
  5
6A7
100
AcDbEntity
  8
RACCORDO
100
AcDbLine
 62
250
  6
CONTINUOUS
 10
156.7734613636
 20
143.6315097052
 11
157.0613718422
 21
143.3435992266
  0
LINE
  5
6A8
100
AcDbEntity
  8
0
100
AcDbLine
 62
7
  6
CONTINUOUS
 10
159.8918205569
 20
140.625536434
 11
161.3918205569
 21
139.125536434
  0
LINE
  5
6A9
100
AcDbEntity
  8
DRAFT
100
AcDbLine
 62
7
  6
CONTINUOUS
 10
162.4418205569
 20
138.075536434
 11
164.6418205569
 21
135.875536434
  0
LINE
  5
6AA
100
AcDbEntity
  8
0
100
AcDbLine
 62
7
  6
CONTINUOUS
 10
174.22821666
 20
126.2891403309
 11
175.3918205569
 21
125.125536434
  0
LINE
  5
6AB
100
AcDbEntity
  8
DRAFT
100
AcDbLine
 62
7
  6
CONTINUOUS
 10
176.02821666
 20
124.4891403309
 11
177.52821666
 21
122.9891403309
  0
LINE
  5
6AC
100
AcDbEntity
  8
RACCORDO
100
AcDbLine
 62
250
  6
CONTINUOUS
 10
181.0329719563
 20
120.3695631627
 11
180.7578800182
 21
120.6446551009
  0
LINE
  5
6AD
100
AcDbEntity
  8
RACCORDO
100
AcDbLine
 62
250
  6
CONTINUOUS
 10
157.2722433888
 20
144.1302917303
 11
157.5514529686
 21
143.8510821505
  0
LINE
  5
6AE
100
AcDbEntity
  8
DRAFT
100
AcDbLine
 62
7
  6
CONTINUOUS
 10
177.52821666
 20
124.261932537
 11
176.6646127631
 21
125.125536434
  0
LINE
  5
6AF
100
AcDbEntity
  8
0
100
AcDbLine
 62
7
  6
CONTINUOUS
 10
162.02821666
 20
139.761932537
 11
161.1646127631
 21
140.625536434
  0
LINE
  5
6B0
100
AcDbEntity
  8
SUPERFICI
100
AcDbLine
 62
7
  6
CONTINUOUS
 10
162.6646127631
 20
139.125536434
 11
162.8146127631
 21
138.975536434
  0
LINE
  5
6B1
100
AcDbEntity
  8
0
100
AcDbLine
 62
7
  6
CONTINUOUS
 10
163.7146127631
 20
138.075536434
 11
165.32821666
 21
136.461932537
  0
LINE
  5
6B2
100
AcDbEntity
  8
0
100
AcDbLine
 62
7
  6
CONTINUOUS
 10
174.22821666
 20
127.561932537
 11
176.02821666
 21
125.761932537
  0
LINE
  5
6B3
100
AcDbEntity
  8
0
100
AcDbLine
 62
7
  6
CONTINUOUS
 10
165.32821666
 20
136.6100888145
 11
163.967531349
 21
137.9707741255
  0
LINE
  5
6B4
100
AcDbEntity
  8
0
100
AcDbLine
 62
7
  6
CONTINUOUS
 10
176.02821666
 20
125.9249056461
 11
174.22821666
 21
127.735010893
  0
LINE
  5
6B5
100
AcDbEntity
  8
0
100
AcDbLine
 62
7
  6
CONTINUOUS
 10
159.7369156184
 20
140.625536434
 11
161.2262616728
 21
139.125536434
  0
LINE
  5
6B6
100
AcDbEntity
  8
DRAFT
100
AcDbLine
 62
7
  6
CONTINUOUS
 10
177.474432792
 20
124.4678865193
 11
176.8219492724
 21
125.125536434
  0
LWPOLYLINE
  5
6B7
100
AcDbEntity
  8
RACCORDO
100
AcDbPolyline
 62
7
  6
CONTINUOUS
 90
10
 70
0
 10
170.5174733242
 20
128.1394523468
 10
170.5298664703
 20
128.121784123
 10
170.5409570675
 20
128.1032707123
 10
170.550687743
 20
128.0840079298
 10
170.5590081443
 20
128.0640955073
 10
170.5658752521
 20
128.0436364553
 10
170.5712535727
 20
128.0227365196
 10
170.5751152643
 20
128.0015038048
 10
170.5774403113
 20
127.9800482257
 10
170.57821666
 20
127.9584808084
  0
LWPOLYLINE
  5
6B8
100
AcDbEntity
  8
RACCORDO
100
AcDbPolyline
 62
7
  6
CONTINUOUS
 90
7
 70
0
 10
170.6329265396
 20
128.1777455711
 10
170.6512362628
 20
128.1502319638
 10
170.6662549999
 20
128.1216810733
 10
170.6779827511
 20
128.0920928996
 10
170.6864195162
 20
128.0614674427
 10
170.6915652954
 20
128.0298047026
 10
170.6934200885
 20
127.9971046793
  0
LWPOLYLINE
  5
6B9
100
AcDbEntity
  8
RACCORDO
100
AcDbPolyline
 62
7
  6
CONTINUOUS
 90
13
 70
0
 10
180.7578800182
 20
101.606417767
 10
180.7537020661
 20
101.6699470779
 10
180.7412171109
 20
101.7326873635
 10
180.7204664378
 20
101.7935761483
 10
180.6915669908
 20
101.8516338269
 10
180.6548882165
 20
101.905695523
 10
180.6111777001
 20
101.9545133185
 10
180.5612051108
 20
101.9971493091
 10
180.5057494902
 20
102.0329038461
 10
180.4458690844
 20
102.0611327748
 10
180.3826249984
 20
102.0813386214
 10
180.3170417998
 20
102.0931468043
 10
180.2502276324
 20
102.0963294315
  0
LWPOLYLINE
  5
6BA
100
AcDbEntity
  8
RACCORDO
100
AcDbPolyline
 62
7
  6
CONTINUOUS
 90
13
 70
0
 10
179.2724815189
 20
120.668583318
 10
179.2766506625
 20
120.6038960991
 10
179.2890707011
 20
120.5400249159
 10
179.3096016015
 20
120.4780530528
 10
179.3379877666
 20
120.4189748392
 10
179.3737956181
 20
120.3639030153
 10
179.4163396125
 20
120.3139978193
 10
179.4648390006
 20
120.2701233774
 10
179.5184733688
 20
120.2329847522
 10
179.5762553767
 20
120.2032711567
 10
179.6371482686
 20
120.1814583061
 10
179.7001067066
 20
120.167836363
 10
179.764043611
 20
120.1625813598
  0
LWPOLYLINE
  5
6BB
100
AcDbEntity
  8
RACCORDO
100
AcDbPolyline
 62
7
  6
CONTINUOUS
 90
13
 70
0
 10
180.7771637168
 20
135.6257014656
 10
180.7742842109
 20
135.680191492
 10
180.7650020593
 20
135.7356176298
 10
180.7488520702
 20
135.7911850017
 10
180.7256012996
 20
135.8457408928
 10
180.6949240232
 20
135.8985305658
 10
180.6561320006
 20
135.9490403355
 10
180.6085696833
 20
135.9962471297
 10
180.5527046117
 20
136.0380525938
 10
180.4899137797
 20
136.0723366101
 10
180.4214660046
 20
136.0977121738
 10
180.3482307249
 20
136.1131882504
 10
180.271628219
 20
136.1177300181
  0
LINE
  5
6BC
100
AcDbEntity
  8
RACCORDO
100
AcDbLine
 62
7
  6
CONTINUOUS
 10
179.2518648997
 20
135.6031061691
 11
179.2658828794
 21
126.9753699565
  0
LINE
  5
6BD
100
AcDbEntity
  8
RACCORDO
100
AcDbLine
 62
7
  6
CONTINUOUS
 10
180.7771637168
 20
86.6253714023
 11
180.7662763899
 21
93.5582199545
  0
LINE
  5
6BE
100
AcDbEntity
  8
RACCORDO
100
AcDbLine
 62
7
  6
CONTINUOUS
 10
179.2658828794
 20
126.9753699565
 11
179.2724815189
 21
120.668583318
  0
LWPOLYLINE
  5
6BF
100
AcDbEntity
  8
RACCORDO
100
AcDbPolyline
 62
7
  6
CONTINUOUS
 90
3
 70
0
 10
180.7662763899
 20
93.5582199545
 10
180.7591956867
 20
99.9777931573
 10
180.7578800182
 20
101.606417767
  0
LINE
  5
6C0
100
AcDbEntity
  8
RACCORDO
100
AcDbLine
 62
250
  6
CONTINUOUS
 10
179.4722433888
 20
136.6296827429
 11
179.4722433888
 21
136.3802917303
  0
LINE
  5
6C1
100
AcDbEntity
  8
RACCORDO
100
AcDbLine
 62
250
  6
CONTINUOUS
 10
179.4722433888
 20
102.6296827429
 11
179.4722433888
 21
102.3802917303
  0
LINE
  5
6C2
100
AcDbEntity
  8
RACCORDO
100
AcDbLine
 62
250
  6
CONTINUOUS
 10
179.4722433888
 20
85.621390125
 11
179.4722433884
 21
85.8707811376
  0
LINE
  5
6C3
100
AcDbEntity
  8
RACCORDO
100
AcDbLine
 62
250
  6
CONTINUOUS
 10
179.4722433888
 20
119.621390125
 11
179.4722433884
 21
119.8707811376
  0
LINE
  5
6C4
100
AcDbEntity
  8
RACCORDO
100
AcDbLine
 62
250
  6
CONTINUOUS
 10
180.5341899312
 20
136.6296827429
 11
180.5341899316
 21
136.3802917303
  0
LINE
  5
6C5
100
AcDbEntity
  8
RACCORDO
100
AcDbLine
 62
250
  6
CONTINUOUS
 10
180.5341899312
 20
102.6296827429
 11
180.5341899316
 21
102.3802917303
  0
LINE
  5
6C6
100
AcDbEntity
  8
RACCORDO
100
AcDbLine
 62
250
  6
CONTINUOUS
 10
180.5341899312
 20
85.621390125
 11
180.5341899312
 21
85.8707811376
  0
LINE
  5
6C7
100
AcDbEntity
  8
RACCORDO
100
AcDbLine
 62
250
  6
CONTINUOUS
 10
180.5341899312
 20
119.621390125
 11
180.5341899312
 21
119.8707811376
  0
LINE
  5
6C8
100
AcDbEntity
  8
RACCORDO
100
AcDbLine
 62
250
  6
CONTINUOUS
 10
181.0329719563
 20
135.8815097052
 11
181.0329719563
 21
120.3695631627
  0
LINE
  5
6C9
100
AcDbEntity
  8
RACCORDO
100
AcDbLine
 62
250
  6
CONTINUOUS
 10
181.0329719563
 20
101.8815097052
 11
181.0329719563
 21
86.3695631627
  0
LINE
  5
6CA
100
AcDbEntity
  8
RACCORDO
100
AcDbLine
 62
250
  6
CONTINUOUS
 10
181.2823629689
 20
135.8815097052
 11
181.2823629689
 21
120.3695631627
  0
LINE
  5
6CB
100
AcDbEntity
  8
RACCORDO
100
AcDbLine
 62
250
  6
CONTINUOUS
 10
181.2823629689
 20
101.8815097052
 11
181.2823629689
 21
86.3695631627
  0
LINE
  5
6CC
100
AcDbEntity
  8
ASSI
100
AcDbLine
 62
7
  6
CONTINUOUS
 10
181.82821666
 20
141.800536434
 11
181.82821666
 21
138.450536434
  0
LINE
  5
6CD
100
AcDbEntity
  8
0
100
AcDbLine
 62
7
  6
CONTINUOUS
 10
182.02821666
 20
90.625536434
 11
182.02821666
 21
97.625536434
  0
LINE
  5
6CE
100
AcDbEntity
  8
0
100
AcDbLine
 62
7
  6
CONTINUOUS
 10
182.02821666
 20
124.625536434
 11
182.02821666
 21
131.625536434
  0
LINE
  5
6CF
100
AcDbEntity
  8
DRAFT
100
AcDbLine
 62
7
  6
CONTINUOUS
 10
182.405056583
 20
90.625536434
 11
182.405056583
 21
91.125536434
  0
LINE
  5
6D0
100
AcDbEntity
  8
DRAFT
100
AcDbLine
 62
7
  6
CONTINUOUS
 10
182.405056583
 20
97.125536434
 11
182.405056583
 21
97.625536434
  0
LINE
  5
6D1
100
AcDbEntity
  8
DRAFT
100
AcDbLine
 62
7
  6
CONTINUOUS
 10
182.405056583
 20
124.625536434
 11
182.405056583
 21
125.125536434
  0
LINE
  5
6D2
100
AcDbEntity
  8
DRAFT
100
AcDbLine
 62
7
  6
CONTINUOUS
 10
182.405056583
 20
131.125536434
 11
182.405056583
 21
131.625536434
  0
LINE
  5
6D3
100
AcDbEntity
  8
DRAFT
100
AcDbLine
 62
7
  6
CONTINUOUS
 10
182.42821666
 20
86.525536434
 11
182.42821666
 21
90.625536434
  0
LINE
  5
6D4
100
AcDbEntity
  8
DRAFT
100
AcDbLine
 62
7
  6
CONTINUOUS
 10
182.42821666
 20
97.625536434
 11
182.42821666
 21
102.125536434
  0
LINE
  5
6D5
100
AcDbEntity
  8
DRAFT
100
AcDbLine
 62
7
  6
CONTINUOUS
 10
182.42821666
 20
120.125536434
 11
182.42821666
 21
124.625536434
  0
LINE
  5
6D6
100
AcDbEntity
  8
DRAFT
100
AcDbLine
 62
7
  6
CONTINUOUS
 10
182.42821666
 20
131.625536434
 11
182.42821666
 21
136.1855861034
  0
LINE
  5
6D7
100
AcDbEntity
  8
RACCORDO
100
AcDbLine
 62
250
  6
CONTINUOUS
 10
183.1610593725
 20
131.125536434
 11
183.1610593725
 21
125.125536434
  0
LINE
  5
6D8
100
AcDbEntity
  8
RACCORDO
100
AcDbLine
 62
250
  6
CONTINUOUS
 10
183.1610593725
 20
97.125536434
 11
183.1610593725
 21
91.125536434
  0
LINE
  5
6D9
100
AcDbEntity
  8
RACCORDO
100
AcDbLine
 62
7
  6
CONTINUOUS
 10
183.27821666
 20
131.125536434
 11
183.27821666
 21
125.125536434
  0
LINE
  5
6DA
100
AcDbEntity
  8
RACCORDO
100
AcDbLine
 62
7
  6
CONTINUOUS
 10
183.27821666
 20
97.125536434
 11
183.27821666
 21
91.125536434
  0
LINE
  5
6DB
100
AcDbEntity
  8
RACCORDO
100
AcDbLine
 62
7
  6
CONTINUOUS
 10
183.42821666
 20
77.7179258301
 11
183.42821666
 21
78.0819925775
  0
LINE
  5
6DC
100
AcDbEntity
  8
DRAFT
100
AcDbLine
 62
7
  6
CONTINUOUS
 10
183.42821666
 20
102.125536434
 11
183.42821666
 21
120.125536434
  0
LINE
  5
6DD
100
AcDbEntity
  8
RACCORDO
100
AcDbLine
 62
7
  6
CONTINUOUS
 10
183.42821666
 20
144.0208967651
 11
183.42821666
 21
144.5331470378
  0
LINE
  5
6DE
100
AcDbEntity
  8
RACCORDO
100
AcDbLine
 62
7
  6
CONTINUOUS
 10
179.2724815189
 20
101.58248955
 11
179.2658884183
 21
95.2759087192
  0
LINE
  5
6DF
100
AcDbEntity
  8
RACCORDO
100
AcDbLine
 62
7
  6
CONTINUOUS
 10
180.7578800182
 20
120.6446551009
 11
180.7684709529
 21
130.2744366151
  0
LINE
  5
6E0
100
AcDbEntity
  8
RACCORDO
100
AcDbLine
 62
7
  6
CONTINUOUS
 10
179.2658884183
 20
95.2759087192
 11
179.2559329837
 21
88.8506273982
  0
LINE
  5
6E1
100
AcDbEntity
  8
RACCORDO
100
AcDbLine
 62
7
  6
CONTINUOUS
 10
180.7684709529
 20
130.2744366151
 11
180.7771637168
 21
135.6257014656
  0
LINE
  5
6E2
100
AcDbEntity
  8
RACCORDO
100
AcDbLine
 62
7
  6
CONTINUOUS
 10
179.2559329837
 20
88.8506273982
 11
179.2518648997
 21
86.6479666988
  0
LWPOLYLINE
  5
6E3
100
AcDbEntity
  8
RACCORDO
100
AcDbPolyline
 62
250
  6
CONTINUOUS
 90
22
 70
0
 10
178.9734613636
 20
101.8815097052
 10
178.9746987675
 20
101.9180083424
 10
178.9786129778
 20
101.9544603905
 10
178.9852186698
 20
101.9906685558
 10
178.994524923
 20
102.0264678449
 10
179.0065121003
 20
102.0616180754
 10
179.0211063658
 20
102.095813647
 10
179.0382320144
 20
102.1288470891
 10
179.0578108943
 20
102.1605453317
 10
179.0797096832
 20
102.1906761794
 10
179.1037811318
 20
102.2190436306
 10
179.1299131241
 20
102.2455232629
 10
179.158004276
 20
102.2700028404
 10
179.1879068523
 20
102.2923362646
 10
179.2194621659
 20
102.3123894785
 10
179.2525513038
 20
102.3300651592
 10
179.2870451201
 20
102.3452579289
 10
179.3227179612
 20
102.3578345143
 10
179.3592911607
 20
102.3676816798
 10
179.3965300094
 20
102.3747324014
 10
179.4342519672
 20
102.3789463913
 10
179.4722433888
 20
102.3802917303
  0
LWPOLYLINE
  5
6E4
100
AcDbEntity
  8
RACCORDO
100
AcDbPolyline
 62
250
  6
CONTINUOUS
 90
22
 70
0
 10
181.0329719563
 20
120.3695631627
 10
181.0317345525
 20
120.3330645255
 10
181.0278203422
 20
120.2966124775
 10
181.0212146502
 20
120.2604043121
 10
181.0119083969
 20
120.224605023
 10
180.9999212197
 20
120.1894547925
 10
180.9853269542
 20
120.1552592209
 10
180.9682013056
 20
120.1222257788
 10
180.9486224257
 20
120.0905275362
 10
180.9267236368
 20
120.0603966886
 10
180.9026521882
 20
120.0320292373
 10
180.8765201959
 20
120.005549605
 10
180.848429044
 20
119.9810700275
 10
180.8185264676
 20
119.9587366033
 10
180.7869711541
 20
119.9386833894
 10
180.7538820162
 20
119.9210077087
 10
180.7193881999
 20
119.905814939
 10
180.6837153588
 20
119.8932383536
 10
180.6471421593
 20
119.8833911881
 10
180.6099033106
 20
119.8763404665
 10
180.5721813528
 20
119.8721264766
 10
180.5341899312
 20
119.8707811376
  0
LWPOLYLINE
  5
6E5
100
AcDbEntity
  8
RACCORDO
100
AcDbPolyline
 62
250
  6
CONTINUOUS
 90
22
 70
0
 10
181.0329719563
 20
86.3695631627
 10
181.0317345525
 20
86.3330645255
 10
181.0278203422
 20
86.2966124775
 10
181.0212146502
 20
86.2604043121
 10
181.0119083969
 20
86.224605023
 10
180.9999212197
 20
86.1894547925
 10
180.9853269542
 20
86.1552592209
 10
180.9682013056
 20
86.1222257788
 10
180.9486224257
 20
86.0905275362
 10
180.9267236368
 20
86.0603966886
 10
180.9026521882
 20
86.0320292373
 10
180.8765201959
 20
86.005549605
 10
180.848429044
 20
85.9810700275
 10
180.8185264676
 20
85.9587366033
 10
180.7869711541
 20
85.9386833894
 10
180.7538820162
 20
85.9210077087
 10
180.7193881999
 20
85.905814939
 10
180.6837153588
 20
85.8932383536
 10
180.6471421593
 20
85.8833911881
 10
180.6099033106
 20
85.8763404665
 10
180.5721813528
 20
85.8721264766
 10
180.5341899312
 20
85.8707811376
  0
LWPOLYLINE
  5
6E6
100
AcDbEntity
  8
RACCORDO
100
AcDbPolyline
 62
250
  6
CONTINUOUS
 90
22
 70
0
 10
181.2823629689
 20
120.3695631627
 10
181.2803741015
 20
120.3144374353
 10
181.2743755086
 20
120.2599715217
 10
181.2643671901
 20
120.2061654219
 10
181.2502699114
 20
120.152672213
 10
181.2321629071
 20
120.0998388179
 10
181.210283881
 20
120.0487060052
 10
181.1845441707
 20
119.9993295227
 10
181.1550324385
 20
119.9516536227
 10
181.1222523763
 20
119.9065518301
 10
181.0861805974
 20
119.8641078321
 10
181.0468404883
 20
119.8242379416
 10
181.0048059009
 20
119.7875646223
 10
180.9600423916
 20
119.7541184453
 10
180.9125844039
 20
119.7238688395
 10
180.8631091197
 20
119.6973465559
 10
180.8115111042
 20
119.674586215
 10
180.7578957923
 20
119.6555531963
 10
180.7032566704
 20
119.640674389
 10
180.6479249006
 20
119.6300920896
 10
180.5915693209
 20
119.6236640016
 10
180.5341899312
 20
119.621390125
  0
LWPOLYLINE
  5
6E7
100
AcDbEntity
  8
RACCORDO
100
AcDbPolyline
 62
250
  6
CONTINUOUS
 90
22
 70
0
 10
181.2823629689
 20
86.3695631627
 10
181.2803741015
 20
86.3144374353
 10
181.2743755086
 20
86.2599715217
 10
181.2643671901
 20
86.2061654219
 10
181.2502699114
 20
86.152672213
 10
181.2321629071
 20
86.0998388179
 10
181.210283881
 20
86.0487060052
 10
181.1845441707
 20
85.9993295227
 10
181.1550324385
 20
85.9516536227
 10
181.1222523763
 20
85.9065518301
 10
181.0861805974
 20
85.8641078321
 10
181.0468404883
 20
85.8242379416
 10
181.0048059009
 20
85.7875646223
 10
180.9600423916
 20
85.7541184453
 10
180.9125844039
 20
85.7238688395
 10
180.8631091197
 20
85.6973465559
 10
180.8115111042
 20
85.674586215
 10
180.7578957923
 20
85.6555531963
 10
180.7032566704
 20
85.640674389
 10
180.6479249006
 20
85.6300920896
 10
180.5915693209
 20
85.6236640016
 10
180.5341899312
 20
85.621390125
  0
LINE
  5
6E8
100
AcDbEntity
  8
DRAFT
100
AcDbLine
 62
7
  6
CONTINUOUS
 10
177.52821666
 20
97.9891403309
 11
177.474432792
 21
97.7831863486
  0
LINE
  5
6E9
100
AcDbEntity
  8
DRAFT
100
AcDbLine
 62
7
  6
CONTINUOUS
 10
177.52821666
 20
94.9891403309
 11
177.4754153807
 21
94.8925515235
  0
LWPOLYLINE
  5
6EA
100
AcDbEntity
  8
DRAFT
100
AcDbPolyline
 62
7
  6
CONTINUOUS
 90
10
 70
0
 10
174.22821666
 20
86.2247890692
 10
174.4999533142
 20
86.387320727
 10
174.7966898534
 20
86.5370615359
 10
175.1177799057
 20
86.6705087444
 10
175.4613466937
 20
86.7839876736
 10
175.8266322552
 20
86.8739811025
 10
176.2139215988
 20
86.9366392579
 10
176.6212375998
 20
86.9677196072
 10
177.0443347322
 20
86.9632496523
 10
177.479047631
 20
86.9195322907
  0
LWPOLYLINE
  5
6EB
100
AcDbEntity
  8
RACCORDO
100
AcDbPolyline
 62
7
  6
CONTINUOUS
 90
13
 70
0
 10
157.5514529686
 20
143.8510821505
 10
157.4878298845
 20
143.846895923
 10
157.4250269428
 20
143.8343893728
 10
157.3641074357
 20
143.813615567
 10
157.3060574697
 20
143.7847078138
 10
157.2520268718
 20
143.7480436406
 10
157.2032342071
 20
143.7043589912
 10
157.1606109013
 20
143.6544168515
 10
157.1248616134
 20
143.5989995362
 10
157.0966272729
 20
143.5391569844
 10
157.0764067921
 20
143.4759455708
 10
157.0645781374
 20
143.4103905575
 10
157.0613718422
 20
143.3435992266
  0
LWPOLYLINE
  5
6EC
100
AcDbEntity
  8
RACCORDO
100
AcDbPolyline
 62
7
  6
CONTINUOUS
 90
13
 70
0
 10
138.4817469527
 20
142.3732241161
 10
138.5464306719
 20
142.377389718
 10
138.6103008734
 20
142.389810814
 10
138.67227373
 20
142.4103499725
 10
138.7313562206
 20
142.4387560702
 10
138.7864307758
 20
142.4745962515
 10
138.8363287153
 20
142.5171781412
 10
138.8801861397
 20
142.5657198436
 10
138.9172981875
 20
142.619398779
 10
138.9469736911
 20
142.6772136197
 10
138.9687418833
 20
142.7381206113
 10
138.9823199153
 20
142.8010773472
 10
138.9875378608
 20
142.8649972583
  0
LWPOLYLINE
  5
6ED
100
AcDbEntity
  8
RACCORDO
100
AcDbPolyline
 62
7
  6
CONTINUOUS
 90
13
 70
0
 10
123.5333350306
 20
143.8692000885
 10
123.4794465804
 20
143.8664050718
 10
123.4240609144
 20
143.8572160336
 10
123.3680009231
 20
143.8409834593
 10
123.312205166
 20
143.817143854
 10
123.2578813343
 20
143.785270312
 10
123.2064688839
 20
143.7451600099
 10
123.1591143831
 20
143.6964685322
 10
123.1176635258
 20
143.6397150785
 10
123.0842383629
 20
143.5767565739
 10
123.0599487589
 20
143.5091364579
 10
123.0453813431
 20
143.4376812558
 10
123.0411977936
 20
143.3637732753
  0
LINE
  5
6EE
100
AcDbEntity
  8
RACCORDO
100
AcDbLine
 62
7
  6
CONTINUOUS
 10
123.5557512058
 20
142.3542889546
 11
131.3184802283
 21
142.3663225909
  0
LINE
  5
6EF
100
AcDbEntity
  8
RACCORDO
100
AcDbLine
 62
7
  6
CONTINUOUS
 10
172.5230982894
 20
143.8692000885
 11
166.1580759444
 21
143.859562508
  0
LWPOLYLINE
  5
6F0
100
AcDbEntity
  8
RACCORDO
100
AcDbPolyline
 62
7
  6
CONTINUOUS
 90
3
 70
0
 10
166.1580759444
 20
143.859562508
 10
158.9847948549
 20
143.8521444957
 10
157.5514529686
 20
143.8510821505
  0
LINE
  5
6F1
100
AcDbEntity
  8
RACCORDO
100
AcDbLine
 62
7
  6
CONTINUOUS
 10
131.3184802283
 20
142.3663225909
 11
138.4817469527
 21
142.3732241161
  0
LINE
  5
6F2
100
AcDbEntity
  8
RACCORDO
100
AcDbLine
 62
250
  6
CONTINUOUS
 10
173.5323629689
 20
142.5695631627
 11
173.2829719563
 21
142.5695631624
  0
LINE
  5
6F3
100
AcDbEntity
  8
RACCORDO
100
AcDbLine
 62
250
  6
CONTINUOUS
 10
139.5323629689
 20
142.5695631627
 11
139.2829719563
 21
142.5695631624
  0
LINE
  5
6F4
100
AcDbEntity
  8
RACCORDO
100
AcDbLine
 62
250
  6
CONTINUOUS
 10
122.5240703511
 20
142.5695631627
 11
122.7734613636
 21
142.5695631627
  0
LINE
  5
6F5
100
AcDbEntity
  8
RACCORDO
100
AcDbLine
 62
250
  6
CONTINUOUS
 10
156.5240703511
 20
142.5695631627
 11
156.7734613636
 21
142.5695631627
  0
LINE
  5
6F6
100
AcDbEntity
  8
RACCORDO
100
AcDbLine
 62
250
  6
CONTINUOUS
 10
173.5323629689
 20
143.6315097052
 11
173.2829719563
 21
143.6315097052
  0
LINE
  5
6F7
100
AcDbEntity
  8
RACCORDO
100
AcDbLine
 62
250
  6
CONTINUOUS
 10
139.5323629689
 20
143.6315097052
 11
139.2829719563
 21
143.6315097052
  0
LINE
  5
6F8
100
AcDbEntity
  8
RACCORDO
100
AcDbLine
 62
250
  6
CONTINUOUS
 10
122.5240703511
 20
143.6315097052
 11
122.7734613636
 21
143.6315097055
  0
LINE
  5
6F9
100
AcDbEntity
  8
RACCORDO
100
AcDbLine
 62
250
  6
CONTINUOUS
 10
156.5240703511
 20
143.6315097052
 11
156.7734613636
 21
143.6315097055
  0
LINE
  5
6FA
100
AcDbEntity
  8
RACCORDO
100
AcDbLine
 62
250
  6
CONTINUOUS
 10
123.2722433888
 20
144.1302917303
 11
138.7841899312
 21
144.1302917303
  0
LINE
  5
6FB
100
AcDbEntity
  8
RACCORDO
100
AcDbLine
 62
250
  6
CONTINUOUS
 10
157.2722433888
 20
144.1302917303
 11
172.7841899312
 21
144.1302917303
  0
LINE
  5
6FC
100
AcDbEntity
  8
RACCORDO
100
AcDbLine
 62
250
  6
CONTINUOUS
 10
123.2722433888
 20
144.3796827429
 11
138.7841899312
 21
144.3796827429
  0
LINE
  5
6FD
100
AcDbEntity
  8
RACCORDO
100
AcDbLine
 62
250
  6
CONTINUOUS
 10
157.2722433888
 20
144.3796827429
 11
172.7841899312
 21
144.3796827429
  0
LINE
  5
6FE
100
AcDbEntity
  8
ASSI
100
AcDbLine
 62
7
  6
CONTINUOUS
 10
117.35321666
 20
144.925536434
 11
120.70321666
 21
144.925536434
  0
LINE
  5
6FF
100
AcDbEntity
  8
0
100
AcDbLine
 62
7
  6
CONTINUOUS
 10
168.52821666
 20
145.125536434
 11
161.52821666
 21
145.125536434
  0
LINE
  5
700
100
AcDbEntity
  8
0
100
AcDbLine
 62
7
  6
CONTINUOUS
 10
134.52821666
 20
145.125536434
 11
127.52821666
 21
145.125536434
  0
LINE
  5
701
100
AcDbEntity
  8
DRAFT
100
AcDbLine
 62
7
  6
CONTINUOUS
 10
168.52821666
 20
145.5023763569
 11
168.02821666
 21
145.5023763569
  0
LINE
  5
702
100
AcDbEntity
  8
DRAFT
100
AcDbLine
 62
7
  6
CONTINUOUS
 10
162.02821666
 20
145.5023763569
 11
161.52821666
 21
145.5023763569
  0
LINE
  5
703
100
AcDbEntity
  8
DRAFT
100
AcDbLine
 62
7
  6
CONTINUOUS
 10
134.52821666
 20
145.5023763569
 11
134.02821666
 21
145.5023763569
  0
LINE
  5
704
100
AcDbEntity
  8
DRAFT
100
AcDbLine
 62
7
  6
CONTINUOUS
 10
128.02821666
 20
145.5023763569
 11
127.52821666
 21
145.5023763569
  0
LINE
  5
705
100
AcDbEntity
  8
DRAFT
100
AcDbLine
 62
7
  6
CONTINUOUS
 10
172.62821666
 20
145.525536434
 11
168.52821666
 21
145.525536434
  0
LINE
  5
706
100
AcDbEntity
  8
DRAFT
100
AcDbLine
 62
7
  6
CONTINUOUS
 10
161.52821666
 20
145.525536434
 11
157.02821666
 21
145.525536434
  0
LINE
  5
707
100
AcDbEntity
  8
DRAFT
100
AcDbLine
 62
7
  6
CONTINUOUS
 10
139.02821666
 20
145.525536434
 11
134.52821666
 21
145.525536434
  0
LINE
  5
708
100
AcDbEntity
  8
DRAFT
100
AcDbLine
 62
7
  6
CONTINUOUS
 10
127.52821666
 20
145.525536434
 11
122.9681669906
 21
145.525536434
  0
LINE
  5
709
100
AcDbEntity
  8
RACCORDO
100
AcDbLine
 62
250
  6
CONTINUOUS
 10
128.02821666
 20
146.2583791464
 11
134.02821666
 21
146.2583791464
  0
LINE
  5
70A
100
AcDbEntity
  8
RACCORDO
100
AcDbLine
 62
250
  6
CONTINUOUS
 10
162.02821666
 20
146.2583791464
 11
168.02821666
 21
146.2583791464
  0
LINE
  5
70B
100
AcDbEntity
  8
RACCORDO
100
AcDbLine
 62
7
  6
CONTINUOUS
 10
128.02821666
 20
146.375536434
 11
134.02821666
 21
146.375536434
  0
LINE
  5
70C
100
AcDbEntity
  8
RACCORDO
100
AcDbLine
 62
7
  6
CONTINUOUS
 10
162.02821666
 20
146.375536434
 11
168.02821666
 21
146.375536434
  0
LINE
  5
70D
100
AcDbEntity
  8
RACCORDO
100
AcDbLine
 62
7
  6
CONTINUOUS
 10
181.4358272638
 20
146.525536434
 11
181.0717605165
 21
146.525536434
  0
LINE
  5
70E
100
AcDbEntity
  8
RACCORDO
100
AcDbLine
 62
7
  6
CONTINUOUS
 10
156.72821666
 20
146.525536434
 11
139.32821666
 21
146.525536434
  0
LINE
  5
70F
100
AcDbEntity
  8
RACCORDO
100
AcDbLine
 62
7
  6
CONTINUOUS
 10
115.1328563289
 20
146.525536434
 11
114.6206060562
 21
146.525536434
  0
LINE
  5
710
100
AcDbEntity
  8
RACCORDO
100
AcDbLine
 62
7
  6
CONTINUOUS
 10
157.5746863673
 20
142.3732241161
 11
164.7380283396
 21
142.3663315936
  0
LINE
  5
711
100
AcDbEntity
  8
RACCORDO
100
AcDbLine
 62
7
  6
CONTINUOUS
 10
138.5049803514
 20
143.8510821505
 11
129.8984470224
 21
143.8595623939
  0
LINE
  5
712
100
AcDbEntity
  8
RACCORDO
100
AcDbLine
 62
7
  6
CONTINUOUS
 10
129.8984470224
 20
143.8595623939
 11
124.4326787108
 21
143.8674200575
  0
LINE
  5
713
100
AcDbEntity
  8
RACCORDO
100
AcDbLine
 62
7
  6
CONTINUOUS
 10
124.4326787108
 20
143.8674200575
 11
123.5333350306
 21
143.8692000885
  0
LINE
  5
714
100
AcDbEntity
  8
RACCORDO
100
AcDbLine
 62
7
  6
CONTINUOUS
 10
164.7380283396
 20
142.3663315936
 11
172.5006821142
 21
142.3542889546
  0
LWPOLYLINE
  5
715
100
AcDbEntity
  8
RACCORDO
100
AcDbPolyline
 62
250
  6
CONTINUOUS
 90
22
 70
0
 10
157.2722433888
 20
142.0707811376
 10
157.2357447515
 20
142.0720185415
 10
157.1992927035
 20
142.0759327518
 10
157.1630845382
 20
142.0825384438
 10
157.1272852491
 20
142.091844697
 10
157.0921350186
 20
142.1038318743
 10
157.0579394469
 20
142.1184261397
 10
157.0249060048
 20
142.1355517884
 10
156.9932077622
 20
142.1551306682
 10
156.9630769146
 20
142.1770294572
 10
156.9347094633
 20
142.2011009058
 10
156.9082298311
 20
142.227232898
 10
156.8837502535
 20
142.2553240499
 10
156.8614168294
 20
142.2852266263
 10
156.8413636155
 20
142.3167819398
 10
156.8236879347
 20
142.3498710778
 10
156.808495165
 20
142.384364894
 10
156.7959185797
 20
142.4200377351
 10
156.7860714141
 20
142.4566109346
 10
156.7790206926
 20
142.4938497833
 10
156.7748067026
 20
142.5315717412
 10
156.7734613636
 20
142.5695631627
  0
LWPOLYLINE
  5
716
100
AcDbEntity
  8
RACCORDO
100
AcDbPolyline
 62
250
  6
CONTINUOUS
 90
22
 70
0
 10
138.7841899312
 20
144.1302917303
 10
138.8206885684
 20
144.1290543264
 10
138.8571406165
 20
144.1251401161
 10
138.8933487818
 20
144.1185344241
 10
138.9291480709
 20
144.1092281709
 10
138.9642983014
 20
144.0972409936
 10
138.9984938731
 20
144.0826467282
 10
139.0315273151
 20
144.0655210795
 10
139.0632255577
 20
144.0459421997
 10
139.0933564054
 20
144.0240434107
 10
139.1217238567
 20
143.9999719621
 10
139.1482034889
 20
143.9738399699
 10
139.1726830665
 20
143.945748818
 10
139.1950164906
 20
143.9158462416
 10
139.2150697045
 20
143.8842909281
 10
139.2327453853
 20
143.8512017901
 10
139.2479381549
 20
143.8167079739
 10
139.2605147403
 20
143.7810351328
 10
139.2703619059
 20
143.7444619333
 10
139.2774126274
 20
143.7072230846
 10
139.2816266173
 20
143.6695011267
 10
139.2829719563
 20
143.6315097052
  0
LWPOLYLINE
  5
717
100
AcDbEntity
  8
RACCORDO
100
AcDbPolyline
 62
250
  6
CONTINUOUS
 90
22
 70
0
 10
172.7841899312
 20
144.1302917303
 10
172.8206885684
 20
144.1290543264
 10
172.8571406165
 20
144.1251401161
 10
172.8933487818
 20
144.1185344241
 10
172.9291480709
 20
144.1092281709
 10
172.9642983014
 20
144.0972409936
 10
172.9984938731
 20
144.0826467282
 10
173.0315273151
 20
144.0655210795
 10
173.0632255577
 20
144.0459421997
 10
173.0933564054
 20
144.0240434107
 10
173.1217238567
 20
143.9999719621
 10
173.1482034889
 20
143.9738399699
 10
173.1726830665
 20
143.945748818
 10
173.1950164906
 20
143.9158462416
 10
173.2150697045
 20
143.8842909281
 10
173.2327453853
 20
143.8512017901
 10
173.2479381549
 20
143.8167079739
 10
173.2605147403
 20
143.7810351328
 10
173.2703619059
 20
143.7444619333
 10
173.2774126274
 20
143.7072230846
 10
173.2816266173
 20
143.6695011267
 10
173.2829719563
 20
143.6315097052
  0
LWPOLYLINE
  5
718
100
AcDbEntity
  8
RACCORDO
100
AcDbPolyline
 62
250
  6
CONTINUOUS
 90
22
 70
0
 10
138.7841899312
 20
144.3796827429
 10
138.8393156586
 20
144.3776938755
 10
138.8937815722
 20
144.3716952826
 10
138.947587672
 20
144.361686964
 10
139.0010808809
 20
144.3475896853
 10
139.053914276
 20
144.329482681
 10
139.1050470887
 20
144.307603655
 10
139.1544235712
 20
144.2818639446
 10
139.2020994713
 20
144.2523522125
 10
139.2472012639
 20
144.2195721503
 10
139.2896452619
 20
144.1835003714
 10
139.3295151524
 20
144.1441602623
 10
139.3661884716
 20
144.1021256749
 10
139.3996346487
 20
144.0573621655
 10
139.4298842544
 20
144.0099041778
 10
139.456406538
 20
143.9604288936
 10
139.4791668789
 20
143.9088308782
 10
139.4981998976
 20
143.8552155662
 10
139.5130787049
 20
143.8005764443
 10
139.5236610044
 20
143.7452446746
 10
139.5300890924
 20
143.6888890949
 10
139.5323629689
 20
143.6315097052
  0
LWPOLYLINE
  5
719
100
AcDbEntity
  8
RACCORDO
100
AcDbPolyline
 62
250
  6
CONTINUOUS
 90
22
 70
0
 10
172.7841899312
 20
144.3796827429
 10
172.8393156586
 20
144.3776938755
 10
172.8937815722
 20
144.3716952826
 10
172.947587672
 20
144.361686964
 10
173.0010808809
 20
144.3475896853
 10
173.053914276
 20
144.329482681
 10
173.1050470887
 20
144.307603655
 10
173.1544235712
 20
144.2818639446
 10
173.2020994713
 20
144.2523522125
 10
173.2472012639
 20
144.2195721503
 10
173.2896452619
 20
144.1835003714
 10
173.3295151524
 20
144.1441602623
 10
173.3661884716
 20
144.1021256749
 10
173.3996346487
 20
144.0573621655
 10
173.4298842544
 20
144.0099041778
 10
173.456406538
 20
143.9604288936
 10
173.4791668789
 20
143.9088308782
 10
173.4981998976
 20
143.8552155662
 10
173.5130787049
 20
143.8005764443
 10
173.5236610044
 20
143.7452446746
 10
173.5300890924
 20
143.6888890949
 10
173.5323629689
 20
143.6315097052
  0
LINE
  5
71A
100
AcDbEntity
  8
DRAFT
100
AcDbLine
 62
7
  6
CONTINUOUS
 10
177.4754153807
 20
127.3585213444
 11
177.52821666
 21
127.261932537
  0
LINE
  5
71B
100
AcDbEntity
  8
DRAFT
100
AcDbLine
 62
7
  6
CONTINUOUS
 10
177.474432792
 20
124.4678865193
 11
177.52821666
 21
124.261932537
  0
LINE
  5
71C
100
AcDbEntity
  8
ASSI
100
AcDbLine
 62
7
  6
CONTINUOUS
 10
185.02821666
 20
83.800536434
 11
185.02821666
 21
82.325536434
  0
LINE
  5
71D
100
AcDbEntity
  8
ASSI
100
AcDbLine
 62
7
  6
CONTINUOUS
 10
185.02821666
 20
81.925536434
 11
185.02821666
 21
80.450536434
  0
LINE
  5
71E
100
AcDbEntity
  8
DRAFT
100
AcDbLine
 62
7
  6
CONTINUOUS
 10
177.477708231
 20
89.5744887889
 11
177.52821666
 21
89.675536434
  0
LINE
  5
71F
100
AcDbEntity
  8
RACCORDO
100
AcDbLine
 62
250
  6
CONTINUOUS
 10
172.7841899312
 20
80.1802917303
 11
172.5006821142
 21
79.8967839133
  0
LINE
  5
720
100
AcDbEntity
  8
RACCORDO
100
AcDbLine
 62
250
  6
CONTINUOUS
 10
178.9734613636
 20
86.3695631627
 11
179.2518648997
 21
86.6479666988
  0
LINE
  5
721
100
AcDbEntity
  8
ASSI
100
AcDbLine
 62
7
  6
CONTINUOUS
 10
175.35321666
 20
148.125536434
 11
176.82821666
 21
148.125536434
  0
LINE
  5
722
100
AcDbEntity
  8
ASSI
100
AcDbLine
 62
7
  6
CONTINUOUS
 10
177.22821666
 20
148.125536434
 11
178.70321666
 21
148.125536434
  0
LINE
  5
723
100
AcDbEntity
  8
RACCORDO
100
AcDbLine
 62
250
  6
CONTINUOUS
 10
172.7841899312
 20
142.0707811376
 11
172.5006821142
 21
142.3542889546
  0
LINE
  5
724
100
AcDbEntity
  8
RACCORDO
100
AcDbLine
 62
250
  6
CONTINUOUS
 10
178.9734613636
 20
135.8815097052
 11
179.2518648997
 21
135.6031061691
  0
LINE
  5
725
100
AcDbEntity
  8
DRAFT
100
AcDbLine
 62
7
  6
CONTINUOUS
 10
177.52821666
 20
132.575536434
 11
177.477708231
 21
132.676584079
  0
LINE
  5
726
100
AcDbEntity
  8
RACCORDO
100
AcDbLine
 62
250
  6
CONTINUOUS
 10
173.2829719563
 20
79.6815097052
 11
173.0076572139
 21
79.4061949628
  0
LINE
  5
727
100
AcDbEntity
  8
RACCORDO
100
AcDbLine
 62
250
  6
CONTINUOUS
 10
179.4722433888
 20
85.8707811376
 11
179.7425787748
 21
86.1411165237
  0
LINE
  5
728
100
AcDbEntity
  8
RACCORDO
100
AcDbLine
 62
250
  6
CONTINUOUS
 10
173.2829719563
 20
142.5695631627
 11
173.0076572139
 21
142.8448779051
  0
LINE
  5
729
100
AcDbEntity
  8
RACCORDO
100
AcDbLine
 62
250
  6
CONTINUOUS
 10
179.4722433888
 20
136.3802917303
 11
179.7425787748
 21
136.1099563443
  0
ARC
  5
72A
100
AcDbEntity
  8
0
100
AcDbCircle
 62
7
  6
CONTINUOUS
 10
118.52821666
 20
81.625536434
 40
5.4590955653
100
AcDbArc
 50
29.0977296972
 51
39.1674399476
  0
ARC
  5
72B
100
AcDbEntity
  8
0
100
AcDbCircle
 62
7
  6
CONTINUOUS
 10
118.52821666
 20
81.625536434
 40
5.4590955653
100
AcDbArc
 50
50.8325600524
 51
52.8074357445
  0
ARC
  5
72C
100
AcDbEntity
  8
0
100
AcDbCircle
 62
7
  6
CONTINUOUS
 10
143.0079383875
 20
81.125536434
 40
5.0261806034
100
AcDbArc
 50
124.3428459254
 51
141.1218719587
  0
ARC
  5
72D
100
AcDbEntity
  8
0
100
AcDbCircle
 62
7
  6
CONTINUOUS
 10
118.02821666
 20
106.1052581615
 40
5.0
100
AcDbArc
 50
275.7391704773
 51
319.4641978887
  0
ARC
  5
72E
100
AcDbEntity
  8
0
100
AcDbCircle
 62
7
  6
CONTINUOUS
 10
118.02821666
 20
106.1052581615
 40
5.0
100
AcDbArc
 50
336.6751165053
 51
360.0
  0
ARC
  5
72F
100
AcDbEntity
  8
DRAFT
100
AcDbCircle
 62
7
  6
CONTINUOUS
 10
143.0079383875
 20
81.125536434
 40
5.0
100
AcDbArc
 50
154.5324398575
 51
174.2608295227
  0
ARC
  5
730
100
AcDbEntity
  8
0
100
AcDbCircle
 62
7
  6
CONTINUOUS
 10
143.0079383875
 20
81.125536434
 40
5.0
100
AcDbArc
 50
113.3248834947
 51
142.4104970351
  0
ARC
  5
731
100
AcDbEntity
  8
0
100
AcDbCircle
 62
7
  6
CONTINUOUS
 10
118.52821666
 20
81.625536434
 40
3.75
100
AcDbArc
 50
0.0
 51
26.1038811373
  0
ARC
  5
732
100
AcDbEntity
  8
DRAFT
100
AcDbCircle
 62
7
  6
CONTINUOUS
 10
118.52821666
 20
81.625536434
 40
3.75
100
AcDbArc
 50
51.8921025793
 51
90.0
  0
ARC
  5
733
100
AcDbEntity
  8
DRAFT
100
AcDbCircle
 62
7
  6
CONTINUOUS
 10
118.4396486139
 20
106.1741082581
 40
3.3
100
AcDbArc
 50
125.7812490524
 51
67.7024676086
  0
ARC
  5
734
100
AcDbEntity
  8
ASSI
100
AcDbCircle
 62
7
  6
CONTINUOUS
 10
120.70321666
 20
74.925536434
 40
2.5
100
AcDbArc
 50
42.7716246985
 51
60.0
  0
ARC
  5
735
100
AcDbEntity
  8
ASSI
100
AcDbCircle
 62
7
  6
CONTINUOUS
 10
117.35321666
 20
74.925536434
 40
2.5
100
AcDbArc
 50
120.0
 51
137.2283753015
  0
ARC
  5
736
100
AcDbEntity
  8
DRAFT
100
AcDbCircle
 62
7
  6
CONTINUOUS
 10
117.35321666
 20
74.925536434
 40
2.5
100
AcDbArc
 50
146.3981464054
 51
161.3370751151
  0
ARC
  5
737
100
AcDbEntity
  8
DRAFT
100
AcDbCircle
 62
7
  6
CONTINUOUS
 10
113.22821666
 20
80.450536434
 40
2.3
100
AcDbArc
 50
210.0
 51
254.8783346851
  0
ARC
  5
738
100
AcDbEntity
  8
DRAFT
100
AcDbCircle
 62
7
  6
CONTINUOUS
 10
113.22821666
 20
83.800536434
 40
2.3
100
AcDbArc
 50
79.9845898317
 51
150.0
  0
ARC
  5
739
100
AcDbEntity
  8
0
100
AcDbCircle
 62
7
  6
CONTINUOUS
 10
143.0767884842
 20
81.5369683878
 40
1.6
100
AcDbArc
 50
80.5
 51
260.5
  0
ARC
  5
73A
100
AcDbEntity
  8
ASSI
100
AcDbCircle
 62
7
  6
CONTINUOUS
 10
113.22821666
 20
80.450536434
 40
1.0
100
AcDbArc
 50
210.0
 51
360.0
  0
ARC
  5
73B
100
AcDbEntity
  8
ASSI
100
AcDbCircle
 62
7
  6
CONTINUOUS
 10
113.22821666
 20
83.800536434
 40
1.0
100
AcDbArc
 50
0.0
 51
150.0
  0
ARC
  5
73C
100
AcDbEntity
  8
ASSI
100
AcDbCircle
 62
7
  6
CONTINUOUS
 10
121.52821666
 20
76.3544783502
 40
0.85
100
AcDbArc
 50
60.0
 51
226.9982535718
  0
ARC
  5
73D
100
AcDbEntity
  8
ASSI
100
AcDbCircle
 62
7
  6
CONTINUOUS
 10
116.52821666
 20
76.3544783502
 40
0.85
100
AcDbArc
 50
313.0017464282
 51
120.0
  0
ARC
  5
73E
100
AcDbEntity
  8
ASSI
100
AcDbCircle
 62
7
  6
CONTINUOUS
 10
120.70321666
 20
74.925536434
 40
0.8
100
AcDbArc
 50
270.0
 51
46.3207168186
  0
ARC
  5
73F
100
AcDbEntity
  8
ASSI
100
AcDbCircle
 62
7
  6
CONTINUOUS
 10
117.35321666
 20
74.925536434
 40
0.8
100
AcDbArc
 50
133.6792831814
 51
270.0
  0
ARC
  5
740
100
AcDbEntity
  8
ASSI
100
AcDbCircle
 62
7
  6
CONTINUOUS
 10
111.7992747437
 20
79.625536434
 40
0.65
100
AcDbArc
 50
30.0
 51
210.0
  0
ARC
  5
741
100
AcDbEntity
  8
ASSI
100
AcDbCircle
 62
7
  6
CONTINUOUS
 10
111.7992747437
 20
84.625536434
 40
0.65
100
AcDbArc
 50
150.0
 51
330.0
  0
CIRCLE
  5
742
100
AcDbEntity
  8
ASSI
100
AcDbCircle
 62
7
  6
CONTINUOUS
 10
118.52821666
 20
81.625536434
 40
0.5
  0
ARC
  5
743
100
AcDbEntity
  8
0
100
AcDbCircle
 62
7
  6
CONTINUOUS
 10
122.66821666
 20
76.4711026732
 40
0.2
100
AcDbArc
 50
130.4791819225
 51
305.8942963706
  0
ARC
  5
744
100
AcDbEntity
  8
ASSI
100
AcDbCircle
 62
7
  6
CONTINUOUS
 10
119.02821666
 20
74.125536434
 40
0.2
100
AcDbArc
 50
180.0
 51
360.0
  0
ARC
  5
745
100
AcDbEntity
  8
ASSI
100
AcDbCircle
 62
7
  6
CONTINUOUS
 10
115.38821666
 20
76.4711026732
 40
0.2
100
AcDbArc
 50
234.1057036294
 51
49.5208180775
  0
ARC
  5
746
100
AcDbEntity
  8
ASSI
100
AcDbCircle
 62
7
  6
CONTINUOUS
 10
121.1073618484
 20
75.625536434
 40
0.1917096231
100
AcDbArc
 50
320.6995106235
 51
145.9616777968
  0
ARC
  5
747
100
AcDbEntity
  8
ASSI
100
AcDbCircle
 62
7
  6
CONTINUOUS
 10
116.9490714716
 20
75.625536434
 40
0.1917096231
100
AcDbArc
 50
34.0383222032
 51
219.3004893765
  0
ARC
  5
748
100
AcDbEntity
  8
0
100
AcDbCircle
 62
7
  6
CONTINUOUS
 10
118.52821666
 20
140.625536434
 40
5.4590955653
100
AcDbArc
 50
320.8325600524
 51
330.9022703028
  0
ARC
  5
749
100
AcDbEntity
  8
0
100
AcDbCircle
 62
7
  6
CONTINUOUS
 10
118.52821666
 20
140.625536434
 40
5.4590955653
100
AcDbArc
 50
307.1925642555
 51
309.1674399476
  0
ARC
  5
74A
100
AcDbEntity
  8
0
100
AcDbCircle
 62
7
  6
CONTINUOUS
 10
143.0079383875
 20
141.125536434
 40
5.0261806034
100
AcDbArc
 50
218.8781280413
 51
235.6571540746
  0
ARC
  5
74B
100
AcDbEntity
  8
0
100
AcDbCircle
 62
7
  6
CONTINUOUS
 10
118.02821666
 20
116.1458147064
 40
5.0
100
AcDbArc
 50
40.5358021113
 51
84.2608295227
  0
ARC
  5
74C
100
AcDbEntity
  8
0
100
AcDbCircle
 62
7
  6
CONTINUOUS
 10
118.02821666
 20
116.1458147064
 40
5.0
100
AcDbArc
 50
0.0
 51
23.3248834947
  0
ARC
  5
74D
100
AcDbEntity
  8
DRAFT
100
AcDbCircle
 62
7
  6
CONTINUOUS
 10
143.0079383875
 20
141.125536434
 40
5.0
100
AcDbArc
 50
185.7391704773
 51
205.4675601425
  0
ARC
  5
74E
100
AcDbEntity
  8
0
100
AcDbCircle
 62
7
  6
CONTINUOUS
 10
143.0079383875
 20
141.125536434
 40
5.0
100
AcDbArc
 50
217.5895029649
 51
246.6751165053
  0
ARC
  5
74F
100
AcDbEntity
  8
0
100
AcDbCircle
 62
7
  6
CONTINUOUS
 10
118.52821666
 20
140.625536434
 40
3.75
100
AcDbArc
 50
333.8961188627
 51
360.0
  0
ARC
  5
750
100
AcDbEntity
  8
DRAFT
100
AcDbCircle
 62
7
  6
CONTINUOUS
 10
118.52821666
 20
140.625536434
 40
3.75
100
AcDbArc
 50
270.0
 51
308.1078974207
  0
ARC
  5
751
100
AcDbEntity
  8
DRAFT
100
AcDbCircle
 62
7
  6
CONTINUOUS
 10
143.0767884842
 20
140.7141044801
 40
3.3
100
AcDbArc
 50
35.7812490524
 51
337.7024676086
  0
ARC
  5
752
100
AcDbEntity
  8
ASSI
100
AcDbCircle
 62
7
  6
CONTINUOUS
 10
111.82821666
 20
138.450536434
 40
2.5
100
AcDbArc
 50
312.7716246985
 51
330.0
  0
ARC
  5
753
100
AcDbEntity
  8
ASSI
100
AcDbCircle
 62
7
  6
CONTINUOUS
 10
111.82821666
 20
141.800536434
 40
2.5
100
AcDbArc
 50
30.0
 51
47.2283753015
  0
ARC
  5
754
100
AcDbEntity
  8
DRAFT
100
AcDbCircle
 62
7
  6
CONTINUOUS
 10
111.82821666
 20
141.800536434
 40
2.5
100
AcDbArc
 50
56.3981464054
 51
71.3370751151
  0
ARC
  5
755
100
AcDbEntity
  8
DRAFT
100
AcDbCircle
 62
7
  6
CONTINUOUS
 10
117.35321666
 20
145.925536434
 40
2.3
100
AcDbArc
 50
120.0
 51
164.8783346851
  0
ARC
  5
756
100
AcDbEntity
  8
DRAFT
100
AcDbCircle
 62
7
  6
CONTINUOUS
 10
120.70321666
 20
145.925536434
 40
2.3
100
AcDbArc
 50
349.9845898317
 51
60.0
  0
ARC
  5
757
100
AcDbEntity
  8
0
100
AcDbCircle
 62
7
  6
CONTINUOUS
 10
118.4396486139
 20
116.0769646098
 40
1.6
100
AcDbArc
 50
350.5
 51
170.5
  0
ARC
  5
758
100
AcDbEntity
  8
ASSI
100
AcDbCircle
 62
7
  6
CONTINUOUS
 10
117.35321666
 20
145.925536434
 40
1.0
100
AcDbArc
 50
120.0
 51
270.0
  0
ARC
  5
759
100
AcDbEntity
  8
ASSI
100
AcDbCircle
 62
7
  6
CONTINUOUS
 10
120.70321666
 20
145.925536434
 40
1.0
100
AcDbArc
 50
270.0
 51
60.0
  0
ARC
  5
75A
100
AcDbEntity
  8
ASSI
100
AcDbCircle
 62
7
  6
CONTINUOUS
 10
113.2571585762
 20
137.625536434
 40
0.85
100
AcDbArc
 50
330.0
 51
136.9982535718
  0
ARC
  5
75B
100
AcDbEntity
  8
ASSI
100
AcDbCircle
 62
7
  6
CONTINUOUS
 10
113.2571585762
 20
142.625536434
 40
0.85
100
AcDbArc
 50
223.0017464282
 51
30.0
  0
ARC
  5
75C
100
AcDbEntity
  8
ASSI
100
AcDbCircle
 62
7
  6
CONTINUOUS
 10
111.82821666
 20
138.450536434
 40
0.8
100
AcDbArc
 50
180.0
 51
316.3207168186
  0
ARC
  5
75D
100
AcDbEntity
  8
ASSI
100
AcDbCircle
 62
7
  6
CONTINUOUS
 10
111.82821666
 20
141.800536434
 40
0.8
100
AcDbArc
 50
43.6792831814
 51
180.0
  0
ARC
  5
75E
100
AcDbEntity
  8
ASSI
100
AcDbCircle
 62
7
  6
CONTINUOUS
 10
116.52821666
 20
147.3544783502
 40
0.65
100
AcDbArc
 50
300.0
 51
120.0
  0
ARC
  5
75F
100
AcDbEntity
  8
ASSI
100
AcDbCircle
 62
7
  6
CONTINUOUS
 10
121.52821666
 20
147.3544783502
 40
0.65
100
AcDbArc
 50
60.0
 51
240.0
  0
CIRCLE
  5
760
100
AcDbEntity
  8
ASSI
100
AcDbCircle
 62
7
  6
CONTINUOUS
 10
118.52821666
 20
140.625536434
 40
0.5
  0
ARC
  5
761
100
AcDbEntity
  8
0
100
AcDbCircle
 62
7
  6
CONTINUOUS
 10
113.3737828993
 20
136.485536434
 40
0.2
100
AcDbArc
 50
40.4791819225
 51
215.8942963706
  0
ARC
  5
762
100
AcDbEntity
  8
ASSI
100
AcDbCircle
 62
7
  6
CONTINUOUS
 10
111.02821666
 20
140.125536434
 40
0.2
100
AcDbArc
 50
90.0
 51
270.0
  0
ARC
  5
763
100
AcDbEntity
  8
ASSI
100
AcDbCircle
 62
7
  6
CONTINUOUS
 10
113.3737828993
 20
143.765536434
 40
0.2
100
AcDbArc
 50
144.1057036294
 51
319.5208180775
  0
ARC
  5
764
100
AcDbEntity
  8
ASSI
100
AcDbCircle
 62
7
  6
CONTINUOUS
 10
112.52821666
 20
138.0463912455
 40
0.1917096231
100
AcDbArc
 50
230.6995106235
 51
55.9616777968
  0
ARC
  5
765
100
AcDbEntity
  8
ASSI
100
AcDbCircle
 62
7
  6
CONTINUOUS
 10
112.52821666
 20
142.2046816224
 40
0.1917096231
100
AcDbArc
 50
304.0383222032
 51
129.3004893765
  0
ARC
  5
766
100
AcDbEntity
  8
0
100
AcDbCircle
 62
7
  6
CONTINUOUS
 10
177.52821666
 20
81.625536434
 40
5.4590955653
100
AcDbArc
 50
140.8325600524
 51
150.9022703028
  0
ARC
  5
767
100
AcDbEntity
  8
0
100
AcDbCircle
 62
7
  6
CONTINUOUS
 10
177.52821666
 20
81.625536434
 40
5.4590955653
100
AcDbArc
 50
127.1925642555
 51
129.1674399476
  0
ARC
  5
768
100
AcDbEntity
  8
0
100
AcDbCircle
 62
7
  6
CONTINUOUS
 10
153.0484949324
 20
81.125536434
 40
5.0261806034
100
AcDbArc
 50
38.8781280413
 51
55.6571540746
  0
ARC
  5
769
100
AcDbEntity
  8
0
100
AcDbCircle
 62
7
  6
CONTINUOUS
 10
178.02821666
 20
106.1052581615
 40
5.0
100
AcDbArc
 50
220.5358021113
 51
264.2608295227
  0
ARC
  5
76A
100
AcDbEntity
  8
0
100
AcDbCircle
 62
7
  6
CONTINUOUS
 10
178.02821666
 20
106.1052581615
 40
5.0
100
AcDbArc
 50
180.0
 51
203.3248834947
  0
ARC
  5
76B
100
AcDbEntity
  8
DRAFT
100
AcDbCircle
 62
7
  6
CONTINUOUS
 10
153.0484949324
 20
81.125536434
 40
5.0
100
AcDbArc
 50
5.7391704773
 51
25.4675601425
  0
ARC
  5
76C
100
AcDbEntity
  8
0
100
AcDbCircle
 62
7
  6
CONTINUOUS
 10
153.0484949324
 20
81.125536434
 40
5.0
100
AcDbArc
 50
37.5895029649
 51
66.6751165053
  0
ARC
  5
76D
100
AcDbEntity
  8
0
100
AcDbCircle
 62
7
  6
CONTINUOUS
 10
177.52821666
 20
81.625536434
 40
3.75
100
AcDbArc
 50
153.8961188627
 51
180.0
  0
ARC
  5
76E
100
AcDbEntity
  8
DRAFT
100
AcDbCircle
 62
7
  6
CONTINUOUS
 10
177.52821666
 20
81.625536434
 40
3.75
100
AcDbArc
 50
90.0
 51
128.1078974207
  0
ARC
  5
76F
100
AcDbEntity
  8
DRAFT
100
AcDbCircle
 62
7
  6
CONTINUOUS
 10
152.9796448358
 20
81.5369683878
 40
3.3
100
AcDbArc
 50
215.7812490524
 51
157.7024676086
  0
ARC
  5
770
100
AcDbEntity
  8
ASSI
100
AcDbCircle
 62
7
  6
CONTINUOUS
 10
184.22821666
 20
83.800536434
 40
2.5
100
AcDbArc
 50
132.7716246985
 51
150.0
  0
ARC
  5
771
100
AcDbEntity
  8
ASSI
100
AcDbCircle
 62
7
  6
CONTINUOUS
 10
184.22821666
 20
80.450536434
 40
2.5
100
AcDbArc
 50
210.0
 51
227.2283753015
  0
ARC
  5
772
100
AcDbEntity
  8
DRAFT
100
AcDbCircle
 62
7
  6
CONTINUOUS
 10
184.22821666
 20
80.450536434
 40
2.5
100
AcDbArc
 50
236.3981464054
 51
251.3370751151
  0
ARC
  5
773
100
AcDbEntity
  8
DRAFT
100
AcDbCircle
 62
7
  6
CONTINUOUS
 10
178.70321666
 20
76.325536434
 40
2.3
100
AcDbArc
 50
300.0
 51
344.8783346851
  0
ARC
  5
774
100
AcDbEntity
  8
DRAFT
100
AcDbCircle
 62
7
  6
CONTINUOUS
 10
175.35321666
 20
76.325536434
 40
2.3
100
AcDbArc
 50
169.9845898317
 51
240.0
  0
ARC
  5
775
100
AcDbEntity
  8
0
100
AcDbCircle
 62
7
  6
CONTINUOUS
 10
177.6167847061
 20
106.1741082581
 40
1.6
100
AcDbArc
 50
170.5
 51
350.5
  0
ARC
  5
776
100
AcDbEntity
  8
ASSI
100
AcDbCircle
 62
7
  6
CONTINUOUS
 10
178.70321666
 20
76.325536434
 40
1.0
100
AcDbArc
 50
300.0
 51
90.0
  0
ARC
  5
777
100
AcDbEntity
  8
ASSI
100
AcDbCircle
 62
7
  6
CONTINUOUS
 10
175.35321666
 20
76.325536434
 40
1.0
100
AcDbArc
 50
90.0
 51
240.0
  0
ARC
  5
778
100
AcDbEntity
  8
ASSI
100
AcDbCircle
 62
7
  6
CONTINUOUS
 10
182.7992747437
 20
84.625536434
 40
0.85
100
AcDbArc
 50
150.0
 51
316.9982535718
  0
ARC
  5
779
100
AcDbEntity
  8
ASSI
100
AcDbCircle
 62
7
  6
CONTINUOUS
 10
182.7992747437
 20
79.625536434
 40
0.85
100
AcDbArc
 50
43.0017464282
 51
210.0
  0
ARC
  5
77A
100
AcDbEntity
  8
ASSI
100
AcDbCircle
 62
7
  6
CONTINUOUS
 10
184.22821666
 20
83.800536434
 40
0.8
100
AcDbArc
 50
0.0
 51
136.3207168186
  0
ARC
  5
77B
100
AcDbEntity
  8
ASSI
100
AcDbCircle
 62
7
  6
CONTINUOUS
 10
184.22821666
 20
80.450536434
 40
0.8
100
AcDbArc
 50
223.6792831814
 51
360.0
  0
ARC
  5
77C
100
AcDbEntity
  8
ASSI
100
AcDbCircle
 62
7
  6
CONTINUOUS
 10
179.52821666
 20
74.8965945177
 40
0.65
100
AcDbArc
 50
120.0
 51
300.0
  0
ARC
  5
77D
100
AcDbEntity
  8
ASSI
100
AcDbCircle
 62
7
  6
CONTINUOUS
 10
174.52821666
 20
74.8965945177
 40
0.65
100
AcDbArc
 50
240.0
 51
60.0
  0
CIRCLE
  5
77E
100
AcDbEntity
  8
ASSI
100
AcDbCircle
 62
7
  6
CONTINUOUS
 10
177.52821666
 20
81.625536434
 40
0.5
  0
ARC
  5
77F
100
AcDbEntity
  8
0
100
AcDbCircle
 62
7
  6
CONTINUOUS
 10
182.6826504207
 20
85.765536434
 40
0.2
100
AcDbArc
 50
220.4791819225
 51
35.8942963706
  0
ARC
  5
780
100
AcDbEntity
  8
ASSI
100
AcDbCircle
 62
7
  6
CONTINUOUS
 10
185.02821666
 20
82.125536434
 40
0.2
100
AcDbArc
 50
270.0
 51
90.0
  0
ARC
  5
781
100
AcDbEntity
  8
ASSI
100
AcDbCircle
 62
7
  6
CONTINUOUS
 10
182.6826504207
 20
78.485536434
 40
0.2
100
AcDbArc
 50
324.1057036294
 51
139.5208180775
  0
ARC
  5
782
100
AcDbEntity
  8
ASSI
100
AcDbCircle
 62
7
  6
CONTINUOUS
 10
183.52821666
 20
84.2046816224
 40
0.1917096231
100
AcDbArc
 50
50.6995106235
 51
235.9616777968
  0
ARC
  5
783
100
AcDbEntity
  8
ASSI
100
AcDbCircle
 62
7
  6
CONTINUOUS
 10
183.52821666
 20
80.0463912455
 40
0.1917096231
100
AcDbArc
 50
124.0383222032
 51
309.3004893765
  0
ARC
  5
784
100
AcDbEntity
  8
DRAFT
100
AcDbCircle
 62
7
  6
CONTINUOUS
 10
148.02821666
 20
111.125536434
 40
31.6
100
AcDbArc
 50
260.5
 51
274.1272071403
  0
ARC
  5
785
100
AcDbEntity
  8
DRAFT
100
AcDbCircle
 62
7
  6
CONTINUOUS
 10
148.02821666
 20
111.125536434
 40
31.6
100
AcDbArc
 50
80.5
 51
94.1272071403
  0
ARC
  5
786
100
AcDbEntity
  8
DRAFT
100
AcDbCircle
 62
7
  6
CONTINUOUS
 10
148.02821666
 20
111.125536434
 40
31.6
100
AcDbArc
 50
350.5
 51
4.1272071403
  0
ARC
  5
787
100
AcDbEntity
  8
DRAFT
100
AcDbCircle
 62
7
  6
CONTINUOUS
 10
148.02821666
 20
111.125536434
 40
31.6
100
AcDbArc
 50
170.5
 51
184.1272071403
  0
ARC
  5
788
100
AcDbEntity
  8
0
100
AcDbCircle
 62
7
  6
CONTINUOUS
 10
148.02821666
 20
111.125536434
 40
29.9
100
AcDbArc
 50
305.3518053023
 51
307.4094548823
  0
ARC
  5
789
100
AcDbEntity
  8
0
100
AcDbCircle
 62
7
  6
CONTINUOUS
 10
148.02821666
 20
111.125536434
 40
29.9
100
AcDbArc
 50
232.5905451177
 51
234.6481946977
  0
ARC
  5
78A
100
AcDbEntity
  8
0
100
AcDbCircle
 62
7
  6
CONTINUOUS
 10
148.02821666
 20
111.125536434
 40
29.9
100
AcDbArc
 50
52.5905451177
 51
54.6481946977
  0
ARC
  5
78B
100
AcDbEntity
  8
0
100
AcDbCircle
 62
7
  6
CONTINUOUS
 10
148.02821666
 20
111.125536434
 40
29.9
100
AcDbArc
 50
125.3518053023
 51
127.4094548823
  0
ARC
  5
78C
100
AcDbEntity
  8
RACCORDO
100
AcDbCircle
 62
250
  6
CONTINUOUS
 10
148.02821666
 20
111.125536434
 40
29.75
100
AcDbArc
 50
305.4001726253
 51
310.5602564424
  0
ARC
  5
78D
100
AcDbEntity
  8
RACCORDO
100
AcDbCircle
 62
250
  6
CONTINUOUS
 10
148.02821666
 20
111.125536434
 40
29.75
100
AcDbArc
 50
319.5140132123
 51
324.5998273747
  0
ARC
  5
78E
100
AcDbEntity
  8
RACCORDO
100
AcDbCircle
 62
250
  6
CONTINUOUS
 10
148.02821666
 20
111.125536434
 40
29.75
100
AcDbArc
 50
35.4001726253
 51
40.4859867877
  0
ARC
  5
78F
100
AcDbEntity
  8
RACCORDO
100
AcDbCircle
 62
250
  6
CONTINUOUS
 10
148.02821666
 20
111.125536434
 40
29.75
100
AcDbArc
 50
49.4397435576
 51
54.5998273747
  0
ARC
  5
790
100
AcDbEntity
  8
RACCORDO
100
AcDbCircle
 62
250
  6
CONTINUOUS
 10
148.02821666
 20
111.125536434
 40
29.75
100
AcDbArc
 50
125.4001726253
 51
130.5602564424
  0
ARC
  5
791
100
AcDbEntity
  8
RACCORDO
100
AcDbCircle
 62
250
  6
CONTINUOUS
 10
148.02821666
 20
111.125536434
 40
29.75
100
AcDbArc
 50
139.5140132123
 51
144.5998273747
  0
ARC
  5
792
100
AcDbEntity
  8
RACCORDO
100
AcDbCircle
 62
250
  6
CONTINUOUS
 10
148.02821666
 20
111.125536434
 40
29.75
100
AcDbArc
 50
215.4001726253
 51
220.4859867877
  0
ARC
  5
793
100
AcDbEntity
  8
RACCORDO
100
AcDbCircle
 62
250
  6
CONTINUOUS
 10
148.02821666
 20
111.125536434
 40
29.75
100
AcDbArc
 50
229.4397435576
 51
234.5998273747
  0
ARC
  5
794
100
AcDbEntity
  8
0
100
AcDbCircle
 62
7
  6
CONTINUOUS
 10
148.02821666
 20
111.125536434
 40
29.25
100
AcDbArc
 50
215.7115563767
 51
234.2884436233
  0
ARC
  5
795
100
AcDbEntity
  8
0
100
AcDbCircle
 62
7
  6
CONTINUOUS
 10
148.02821666
 20
111.125536434
 40
29.25
100
AcDbArc
 50
305.7115563767
 51
324.2884436233
  0
ARC
  5
796
100
AcDbEntity
  8
0
100
AcDbCircle
 62
7
  6
CONTINUOUS
 10
148.02821666
 20
111.125536434
 40
29.25
100
AcDbArc
 50
125.7115563767
 51
144.2884436233
  0
ARC
  5
797
100
AcDbEntity
  8
0
100
AcDbCircle
 62
7
  6
CONTINUOUS
 10
148.02821666
 20
111.125536434
 40
29.25
100
AcDbArc
 50
35.7115563767
 51
54.2884436233
  0
ARC
  5
798
100
AcDbEntity
  8
DRAFT
100
AcDbCircle
 62
7
  6
CONTINUOUS
 10
148.02821666
 20
111.125536434
 40
28.4
100
AcDbArc
 50
260.5
 51
273.8323579326
  0
ARC
  5
799
100
AcDbEntity
  8
DRAFT
100
AcDbCircle
 62
7
  6
CONTINUOUS
 10
148.02821666
 20
111.125536434
 40
28.4
100
AcDbArc
 50
80.5
 51
93.8323579326
  0
ARC
  5
79A
100
AcDbEntity
  8
DRAFT
100
AcDbCircle
 62
7
  6
CONTINUOUS
 10
148.02821666
 20
111.125536434
 40
28.4
100
AcDbArc
 50
350.5
 51
3.8323579326
  0
ARC
  5
79B
100
AcDbEntity
  8
DRAFT
100
AcDbCircle
 62
7
  6
CONTINUOUS
 10
148.02821666
 20
111.125536434
 40
28.4
100
AcDbArc
 50
170.5
 51
183.8323579326
  0
ARC
  5
79C
100
AcDbEntity
  8
RACCORDO
100
AcDbCircle
 62
7
  6
CONTINUOUS
 10
148.02821666
 20
111.125536434
 40
28.3152034285
100
AcDbArc
 50
217.0296356427
 51
228.6021668257
  0
ARC
  5
79D
100
AcDbEntity
  8
RACCORDO
100
AcDbCircle
 62
7
  6
CONTINUOUS
 10
148.02821666
 20
111.125536434
 40
28.3152034285
100
AcDbArc
 50
37.0296356427
 51
48.6021668257
  0
ARC
  5
79E
100
AcDbEntity
  8
RACCORDO
100
AcDbCircle
 62
7
  6
CONTINUOUS
 10
148.02821666
 20
111.125536434
 40
28.3152034285
100
AcDbArc
 50
131.3978331743
 51
142.9703643573
  0
ARC
  5
79F
100
AcDbEntity
  8
RACCORDO
100
AcDbCircle
 62
7
  6
CONTINUOUS
 10
148.02821666
 20
111.125536434
 40
28.2
100
AcDbArc
 50
217.1087907171
 51
228.5128536849
  0
ARC
  5
7A0
100
AcDbEntity
  8
RACCORDO
100
AcDbCircle
 62
7
  6
CONTINUOUS
 10
148.02821666
 20
111.125536434
 40
28.2
100
AcDbArc
 50
37.1087907171
 51
48.5128536849
  0
ARC
  5
7A1
100
AcDbEntity
  8
RACCORDO
100
AcDbCircle
 62
7
  6
CONTINUOUS
 10
148.02821666
 20
111.125536434
 40
28.2
100
AcDbArc
 50
131.4871463151
 51
142.8912092829
  0
ARC
  5
7A2
100
AcDbEntity
  8
RACCORDO
100
AcDbCircle
 62
7
  6
CONTINUOUS
 10
148.02821666
 20
111.125536434
 40
28.2
100
AcDbArc
 50
311.1289223362
 51
323.2849422823
  0
ARC
  5
7A3
100
AcDbEntity
  8
0
100
AcDbCircle
 62
7
  6
CONTINUOUS
 10
153.0484949324
 20
141.125536434
 40
5.0261806034
100
AcDbArc
 50
304.3428459254
 51
321.1218719587
  0
ARC
  5
7A4
100
AcDbEntity
  8
DRAFT
100
AcDbCircle
 62
7
  6
CONTINUOUS
 10
153.0484949324
 20
141.125536434
 40
5.0
100
AcDbArc
 50
334.5324398575
 51
354.2608295227
  0
ARC
  5
7A5
100
AcDbEntity
  8
0
100
AcDbCircle
 62
7
  6
CONTINUOUS
 10
153.0484949324
 20
141.125536434
 40
5.0
100
AcDbArc
 50
293.3248834947
 51
322.4104970351
  0
ARC
  5
7A6
100
AcDbEntity
  8
0
100
AcDbCircle
 62
7
  6
CONTINUOUS
 10
152.9796448358
 20
140.7141044801
 40
1.6
100
AcDbArc
 50
260.5
 51
80.5
  0
ARC
  5
7A7
100
AcDbEntity
  8
0
100
AcDbCircle
 62
7
  6
CONTINUOUS
 10
178.02821666
 20
116.1458147064
 40
5.0
100
AcDbArc
 50
95.7391704773
 51
139.4641978887
  0
ARC
  5
7A8
100
AcDbEntity
  8
0
100
AcDbCircle
 62
7
  6
CONTINUOUS
 10
178.02821666
 20
116.1458147064
 40
5.0
100
AcDbArc
 50
156.6751165053
 51
180.0
  0
ARC
  5
7A9
100
AcDbEntity
  8
DRAFT
100
AcDbCircle
 62
7
  6
CONTINUOUS
 10
177.6167847061
 20
116.0769646098
 40
3.3
100
AcDbArc
 50
305.7812490524
 51
247.7024676086
  0
ARC
  5
7AA
100
AcDbEntity
  8
0
100
AcDbCircle
 62
7
  6
CONTINUOUS
 10
177.52821666
 20
140.625536434
 40
5.4590955653
100
AcDbArc
 50
209.0977296972
 51
219.1674399476
  0
ARC
  5
7AB
100
AcDbEntity
  8
0
100
AcDbCircle
 62
7
  6
CONTINUOUS
 10
177.52821666
 20
140.625536434
 40
5.4590955653
100
AcDbArc
 50
230.8325600524
 51
232.8074357445
  0
ARC
  5
7AC
100
AcDbEntity
  8
0
100
AcDbCircle
 62
7
  6
CONTINUOUS
 10
177.52821666
 20
140.625536434
 40
3.75
100
AcDbArc
 50
180.0
 51
206.1038811373
  0
ARC
  5
7AD
100
AcDbEntity
  8
DRAFT
100
AcDbCircle
 62
7
  6
CONTINUOUS
 10
177.52821666
 20
140.625536434
 40
3.75
100
AcDbArc
 50
231.8921025793
 51
270.0
  0
ARC
  5
7AE
100
AcDbEntity
  8
ASSI
100
AcDbCircle
 62
7
  6
CONTINUOUS
 10
175.35321666
 20
147.325536434
 40
2.5
100
AcDbArc
 50
222.7716246985
 51
240.0
  0
ARC
  5
7AF
100
AcDbEntity
  8
ASSI
100
AcDbCircle
 62
7
  6
CONTINUOUS
 10
178.70321666
 20
147.325536434
 40
2.5
100
AcDbArc
 50
300.0
 51
317.2283753015
  0
ARC
  5
7B0
100
AcDbEntity
  8
DRAFT
100
AcDbCircle
 62
7
  6
CONTINUOUS
 10
178.70321666
 20
147.325536434
 40
2.5
100
AcDbArc
 50
326.3981464054
 51
341.3370751151
  0
ARC
  5
7B1
100
AcDbEntity
  8
DRAFT
100
AcDbCircle
 62
7
  6
CONTINUOUS
 10
182.82821666
 20
141.800536434
 40
2.3
100
AcDbArc
 50
30.0
 51
74.8783346851
  0
ARC
  5
7B2
100
AcDbEntity
  8
DRAFT
100
AcDbCircle
 62
7
  6
CONTINUOUS
 10
182.82821666
 20
138.450536434
 40
2.3
100
AcDbArc
 50
259.9845898317
 51
330.0
  0
ARC
  5
7B3
100
AcDbEntity
  8
ASSI
100
AcDbCircle
 62
7
  6
CONTINUOUS
 10
182.82821666
 20
141.800536434
 40
1.0
100
AcDbArc
 50
30.0
 51
180.0
  0
ARC
  5
7B4
100
AcDbEntity
  8
ASSI
100
AcDbCircle
 62
7
  6
CONTINUOUS
 10
182.82821666
 20
138.450536434
 40
1.0
100
AcDbArc
 50
180.0
 51
330.0
  0
ARC
  5
7B5
100
AcDbEntity
  8
ASSI
100
AcDbCircle
 62
7
  6
CONTINUOUS
 10
174.52821666
 20
145.8965945177
 40
0.85
100
AcDbArc
 50
240.0
 51
46.9982535718
  0
ARC
  5
7B6
100
AcDbEntity
  8
ASSI
100
AcDbCircle
 62
7
  6
CONTINUOUS
 10
179.52821666
 20
145.8965945177
 40
0.85
100
AcDbArc
 50
133.0017464282
 51
300.0
  0
ARC
  5
7B7
100
AcDbEntity
  8
ASSI
100
AcDbCircle
 62
7
  6
CONTINUOUS
 10
175.35321666
 20
147.325536434
 40
0.8
100
AcDbArc
 50
90.0
 51
226.3207168186
  0
ARC
  5
7B8
100
AcDbEntity
  8
ASSI
100
AcDbCircle
 62
7
  6
CONTINUOUS
 10
178.70321666
 20
147.325536434
 40
0.8
100
AcDbArc
 50
313.6792831814
 51
90.0
  0
ARC
  5
7B9
100
AcDbEntity
  8
ASSI
100
AcDbCircle
 62
7
  6
CONTINUOUS
 10
184.2571585762
 20
142.625536434
 40
0.65
100
AcDbArc
 50
210.0
 51
30.0
  0
ARC
  5
7BA
100
AcDbEntity
  8
ASSI
100
AcDbCircle
 62
7
  6
CONTINUOUS
 10
184.2571585762
 20
137.625536434
 40
0.65
100
AcDbArc
 50
330.0
 51
150.0
  0
CIRCLE
  5
7BB
100
AcDbEntity
  8
ASSI
100
AcDbCircle
 62
7
  6
CONTINUOUS
 10
177.52821666
 20
140.625536434
 40
0.5
  0
ARC
  5
7BC
100
AcDbEntity
  8
0
100
AcDbCircle
 62
7
  6
CONTINUOUS
 10
173.38821666
 20
145.7799701947
 40
0.2
100
AcDbArc
 50
310.4791819225
 51
125.8942963706
  0
ARC
  5
7BD
100
AcDbEntity
  8
ASSI
100
AcDbCircle
 62
7
  6
CONTINUOUS
 10
177.02821666
 20
148.125536434
 40
0.2
100
AcDbArc
 50
0.0
 51
180.0
  0
ARC
  5
7BE
100
AcDbEntity
  8
ASSI
100
AcDbCircle
 62
7
  6
CONTINUOUS
 10
180.66821666
 20
145.7799701947
 40
0.2
100
AcDbArc
 50
54.1057036294
 51
229.5208180775
  0
ARC
  5
7BF
100
AcDbEntity
  8
ASSI
100
AcDbCircle
 62
7
  6
CONTINUOUS
 10
174.9490714716
 20
146.625536434
 40
0.1917096231
100
AcDbArc
 50
140.6995106235
 51
325.9616777968
  0
ARC
  5
7C0
100
AcDbEntity
  8
ASSI
100
AcDbCircle
 62
7
  6
CONTINUOUS
 10
179.1073618484
 20
146.625536434
 40
0.1917096231
100
AcDbArc
 50
214.0383222032
 51
39.3004893765
  0
ELLIPSE
  5
7C1
100
AcDbEntity
  8
RACCORDO
100
AcDbEllipse
 62
7
  6
CONTINUOUS
 10
139.32821666
 20
146.2243904827
 30
0.0
 11
-0.0
 21
-0.3011459513
 31
0.0
 40
0.9961946981
 41
3.1415926536
 42
4.7123889804
  0
ELLIPSE
  5
7C2
100
AcDbEntity
  8
RACCORDO
100
AcDbEllipse
 62
7
  6
CONTINUOUS
 10
156.72821666
 20
146.2243904827
 30
0.0
 11
0.0
 21
0.3011459513
 31
0.0
 40
0.9961946981
 41
-1.5707963268
 42
0.0
  0
ELLIPSE
  5
7C3
100
AcDbEntity
  8
RACCORDO
100
AcDbEllipse
 62
7
  6
CONTINUOUS
 10
181.4205769849
 20
144.5178967589
 30
0.0
 11
-1.4249972158
 21
-1.4249972158
 31
0.0
 40
0.9924325091
 41
2.3599925885
 42
3.9231927187
  0
ELLIPSE
  5
7C4
100
AcDbEntity
  8
RACCORDO
100
AcDbEllipse
 62
7
  6
CONTINUOUS
 10
181.4205769849
 20
77.733176109
 30
0.0
 11
-1.4249972158
 21
1.4249972158
 31
0.0
 40
0.9924325091
 41
2.3599925885
 42
3.9231927187
  0
ELLIPSE
  5
7C5
100
AcDbEntity
  8
RACCORDO
100
AcDbEllipse
 62
7
  6
CONTINUOUS
 10
156.72821666
 20
76.0266823852
 30
0.0
 11
0.0
 21
0.3011459513
 31
0.0
 40
0.9961946981
 41
3.1415926536
 42
4.7123889804
  0
ELLIPSE
  5
7C6
100
AcDbEntity
  8
RACCORDO
100
AcDbEllipse
 62
7
  6
CONTINUOUS
 10
139.32821666
 20
76.0266823852
 30
0.0
 11
-0.0
 21
-0.3011459513
 31
0.0
 40
0.9961946981
 41
-1.5707963268
 42
0.0
  0
ELLIPSE
  5
7C7
100
AcDbEntity
  8
RACCORDO
100
AcDbEllipse
 62
7
  6
CONTINUOUS
 10
114.6358563351
 20
77.733176109
 30
0.0
 11
1.4249972158
 21
1.4249972158
 31
0.0
 40
0.9924325091
 41
2.3599925885
 42
3.9231927187
  0
ELLIPSE
  5
7C8
100
AcDbEntity
  8
RACCORDO
100
AcDbEllipse
 62
7
  6
CONTINUOUS
 10
114.6358563351
 20
144.5178967589
 30
0.0
 11
1.4249972158
 21
-1.4249972158
 31
0.0
 40
0.9924325091
 41
2.3599925885
 42
3.9231927187
  0
ELLIPSE
  5
7C9
100
AcDbEntity
  8
RACCORDO
100
AcDbEllipse
 62
7
  6
CONTINUOUS
 10
125.6514524563
 20
133.4772438584
 30
0.0
 11
-0.1768305473
 21
0.1768305473
 31
0.0
 40
0.9996954599
 41
-0.7852458701
 42
0.7852458701
  0
ELLIPSE
  5
7CA
100
AcDbEntity
  8
RACCORDO
100
AcDbEllipse
 62
7
  6
CONTINUOUS
 10
170.4049808637
 20
133.4772438584
 30
0.0
 11
0.1768305473
 21
0.1768305473
 31
0.0
 40
0.9996954599
 41
-0.7852458701
 42
0.7852458701
  0
ELLIPSE
  5
7CB
100
AcDbEntity
  8
RACCORDO
100
AcDbEllipse
 62
7
  6
CONTINUOUS
 10
170.4049808637
 20
88.7738290095
 30
0.0
 11
0.1768305473
 21
-0.1768305473
 31
0.0
 40
0.9996954599
 41
-0.7852458701
 42
0.7852458701
  0
ELLIPSE
  5
7CC
100
AcDbEntity
  8
RACCORDO
100
AcDbEllipse
 62
7
  6
CONTINUOUS
 10
125.6514524563
 20
88.7738290095
 30
0.0
 11
0.1768305473
 21
0.1768305473
 31
0.0
 40
0.9996954599
 41
-3.9268385237
 42
-2.3563467834
  0
ELLIPSE
  5
7CD
100
AcDbEntity
  8
0
100
AcDbEllipse
 62
7
  6
CONTINUOUS
 10
162.3280643319
 20
135.9753841059
 30
0.0
 11
0.7073221892
 21
0.7073221892
 31
0.0
 40
0.9996954599
 41
-0.7852458701
 42
0.7852458701
  0
ELLIPSE
  5
7CE
100
AcDbEntity
  8
0
100
AcDbEllipse
 62
7
  6
CONTINUOUS
 10
133.728368988
 20
135.9753841059
 30
0.0
 11
0.7073221892
 21
-0.7073221892
 31
0.0
 40
0.9996954599
 41
2.3563467834
 42
3.9268385237
  0
ELLIPSE
  5
7CF
100
AcDbEntity
  8
0
100
AcDbEllipse
 62
7
  6
CONTINUOUS
 10
133.728368988
 20
86.275688762
 30
0.0
 11
0.7073221892
 21
0.7073221892
 31
0.0
 40
0.9996954599
 41
-3.9268385237
 42
-2.3563467834
  0
ELLIPSE
  5
7D0
100
AcDbEntity
  8
0
100
AcDbEllipse
 62
7
  6
CONTINUOUS
 10
162.3280643319
 20
86.275688762
 30
0.0
 11
-0.7073221892
 21
0.7073221892
 31
0.0
 40
0.9996954599
 41
-3.9268385237
 42
-2.3563467834
  0
ENDSEC
  0
SECTION
  2
OBJECTS
  0
DICTIONARY
  5
C
100
AcDbDictionary
280
0
281
1
  3
ACAD_GROUP
350
D
  3
ACAD_MLINESTYLE
350
17
  3
ACAD_LAYOUT
350
1A
  3
ACAD_PLOTSETTINGS
350
19
  3
ACAD_PLOTSTYLENAME
350
E
  0
DICTIONARY
  5
D
102
{ACAD_REACTORS
330
C
102
}
100
AcDbDictionary
280
0
281
1
  0
ACDBDICTIONARYWDFLT
  5
E
102
{ACAD_REACTORS
330
C
102
}
100
AcDbDictionary
281
1
  3
Normal
350
F
100
AcDbDictionaryWithDefault
340
F
  0
DICTIONARY
  5
17
102
{ACAD_REACTORS
330
C
102
}
100
AcDbDictionary
280
0
281
1
  3
Standard
350
18
  0
DICTIONARY
  5
19
102
{ACAD_REACTORS
330
C
102
}
100
AcDbDictionary
281
1
  0
DICTIONARY
  5
1A
102
{ACAD_REACTORS
330
C
102
}
100
AcDbDictionary
281
1
  3
Model
350
7D1
  3
Layout1
350
7D2
  0
ACDBPLACEHOLDER
  5
F
102
{ACAD_REACTORS
330
E
102
}
  0
MLINESTYLE
  5
18
102
{ACAD_REACTORS
330
17
102
}
100
AcDbMlineStyle
  2
STANDARD
 70
0
  3

 62
256
 51
90.0
 52
90.0
 71
2
 49
0.5
 62
256
  6
BYLAYER
 49
-0.5
 62
256
  6
BYLAYER
  0
LAYOUT
  5
7D1
102
{ACAD_REACTORS
330
1A
102
}
100
AcDbPlotSettings
  1

  2
none_device
  4
ISO_A4_(297.00_x_210.00_MM)
  6

 40
0.0
 41
0.0
 42
0.0
 43
0.0
 44
297.0
 45
210.0
 46
0.0
 47
0.0
 48
0.0
 49
0.0
140
0.0
141
0.0
142
1.0
143
1.0
 70
1024
 72
1
 73
0
 74
0
  7

 75
0
147
1.0
148
0.0
149
0.0
100
AcDbLayout
  1
Model
 70
0
 71
0
 10
0.0
 20
0.0
 11
297.0
 21
210.0
 12
0.0
 22
0.0
 32
0.0
 14
0.0
 24
0.0
 34
0.0
 15
0.0
 25
0.0
 35
0.0
146
0.0
 13
0.0
 23
0.0
 33
0.0
 16
1.0
 26
0.0
 36
0.0
 17
0.0
 27
1.0
 37
0.0
 76
0
330
211
345
0
346
0
  0
LAYOUT
  5
7D2
102
{ACAD_REACTORS
330
1A
102
}
100
AcDbPlotSettings
  1

  2
none_device
  4
ISO_A4_(297.00_x_210.00_MM)
  6

 40
0.0
 41
0.0
 42
0.0
 43
0.0
 44
297.0
 45
210.0
 46
0.0
 47
0.0
 48
0.0
 49
0.0
140
0.0
141
0.0
142
1.0
143
1.0
 70
0
 72
1
 73
0
 74
0
  7

 75
0
147
1.0
148
0.0
149
0.0
100
AcDbLayout
  1
Layout1
 70
0
 71
1
 10
0.0
 20
0.0
 11
297.0
 21
210.0
 12
0.0
 22
0.0
 32
0.0
 14
0.0
 24
0.0
 34
0.0
 15
0.0
 25
0.0
 35
0.0
146
0.0
 13
0.0
 23
0.0
 33
0.0
 16
1.0
 26
0.0
 36
0.0
 17
0.0
 27
1.0
 37
0.0
 76
0
330
212
345
0
346
0
  0
ENDSEC
  0
EOF
