  0
SECTION
  2
HEADER
  9
$ACADVER
  1
AC1015
  9
$DWGCODEPAGE
  3
ANSI_1252
  9
$EXTMAX
 10
297.0
 20
210.0
 30
0.0
  9
$EXTMIN
 10
0.0
 20
0.0
 30
0.0
  9
$LIMMIN
 10
0.0
 20
0.0
  9
$LIMMAX
 10
297.0
 20
210.0
  9
$VIEWCTR
 10
148.5
 20
105.0
  9
$VIEWSIZE
 40
210.0
  9
$CLAYER
  8
0
  9
$LTSCALE
 40
16.335
  9
$CELTYPE
  6
BYLAYER
  9
$DIMSCALE
 40
1.0
  9
$DIMASZ
 40
3.0
  9
$DIMEXO
 40
1.85625
  9
$DIMDLI
 40
11.286
  9
$DIMEXE
 40
5.346
  9
$DIMCEN
 40
2.673
  9
$DIMLFAC
 40
1.0
  9
$DIMBLK
  1
_FILLED
  9
$DIMTXT
 40
3.0
  9
$DIMTOL
 70
1
  9
$DIMLIM
 70
0
  9
$DIMTFAC
 40
1.0
  9
$DIMTP
 40
0.01
  9
$DIMTM
 40
0.01
  9
$PDMODE
 70
3
  9
$PDSIZE
 40
3.0
  9
$HANDSEED
  5
70E
  9
$TILEMODE
 70
1
  9
$MEASUREMENT
 70
1
  9
$INSUNITS
 70
4
  0
ENDSEC
  0
SECTION
  2
CLASSES
  0
CLASS
  1
ACDBDICTIONARYWDFLT
  2
AcDbDictionaryWithDefault
  3
AutoCAD 2000
 90
0
280
0
281
0
  0
CLASS
  1
ACDBPLACEHOLDER
  2
AcDbPlaceHolder
  3
AutoCAD 2000
 90
0
280
0
281
0
  0
CLASS
  1
LAYOUT
  2
AcDbLayout
  3
AutoCAD 2000
 90
0
280
0
281
0
  0
ENDSEC
  0
SECTION
  2
TABLES
  0
TABLE
  2
VPORT
  5
8
100
AcDbSymbolTable
 70
2
  0
VPORT
  5
1F4
100
AcDbSymbolTableRecord
100
AcDbViewportTableRecord
  2
*ACTIVE
 70
0
 10
0.0
 20
0.0
 11
1.0
 21
1.0
 12
148.5
 22
105.0
 13
0.0
 23
0.0
 14
1.0
 24
1.0
 15
0.0
 25
0.0
 16
0.0
 26
0.0
 36
1.0
 17
0.0
 27
0.0
 37
0.0
 40
210.0
 41
1.4142857143
 42
50.0
 43
0.0
 44
0.0
 50
0.0
 51
0.0
 71
0
 72
100
 73
1
 74
1
 75
0
 76
0
 77
0
 78
0
  0
ENDTAB
  0
TABLE
  2
LTYPE
  5
5
100
AcDbSymbolTable
 70
6
  0
LTYPE
  5
14
100
AcDbSymbolTableRecord
100
AcDbLinetypeTableRecord
  2
BYBLOCK
 70
0
  3

 72
65
 73
0
 40
0.0
  0
LTYPE
  5
15
100
AcDbSymbolTableRecord
100
AcDbLinetypeTableRecord
  2
BYLAYER
 70
0
  3

 72
65
 73
0
 40
0.0
  0
LTYPE
  5
16
100
AcDbSymbolTableRecord
100
AcDbLinetypeTableRecord
  2
CONTINUOUS
 70
64
  3
Solid line
 72
65
 73
0
 40
0.0
  0
LTYPE
  5
1F5
100
AcDbSymbolTableRecord
100
AcDbLinetypeTableRecord
  2
CENTER
 70
64
  3
____ _ ____ _ ____ _ ____ _ ____ _ ____ _ ____
 72
65
 73
4
 40
0.6
 49
0.375
 74
0
 49
-0.075
 74
0
 49
0.075
 74
0
 49
-0.075
 74
0
  0
LTYPE
  5
1F6
100
AcDbSymbolTableRecord
100
AcDbLinetypeTableRecord
  2
HIDDEN
 70
64
  3
- - - - - - - - - - - - - - - - - - - -
 72
65
 73
2
 40
0.2
 49
0.1
 74
0
 49
-0.1
 74
0
  0
LTYPE
  5
1F7
100
AcDbSymbolTableRecord
100
AcDbLinetypeTableRecord
  2
PHANTOM
 70
64
  3
_____ _ _ _____ _ _ _____ _ _ _____
 72
65
 73
6
 40
0.8
 49
0.45
 74
0
 49
-0.05
 74
0
 49
0.1
 74
0
 49
-0.05
 74
0
 49
0.1
 74
0
 49
-0.05
 74
0
  0
LTYPE
  5
1F8
100
AcDbSymbolTableRecord
100
AcDbLinetypeTableRecord
  2
DOT
 70
64
  3
. . . . . . . . . . . . . . . . . . . .
 72
65
 73
2
 40
0.2
 49
0.1
 74
0
 49
-0.1
 74
0
  0
LTYPE
  5
1F9
100
AcDbSymbolTableRecord
100
AcDbLinetypeTableRecord
  2
DASHED
 70
64
  3
- - - - - - - - - - - - - - - - - - - -
 72
65
 73
2
 40
0.2
 49
0.1
 74
0
 49
-0.1
 74
0
  0
ENDTAB
  0
TABLE
  2
LAYER
  5
2
100
AcDbSymbolTable
 70
36
  0
LAYER
  5
10
100
AcDbSymbolTableRecord
100
AcDbLayerTableRecord
  2
0
 70
0
 62
7
  6
CONTINUOUS
370
-3
390
F
  0
LAYER
  5
1FA
100
AcDbSymbolTableRecord
100
AcDbLayerTableRecord
  2
DEFAULT_1
 70
0
 62
7
  6
CENTER
370
-3
390
F
  0
LAYER
  5
1FB
100
AcDbSymbolTableRecord
100
AcDbLayerTableRecord
  2
DEFAULT_2
 70
0
 62
7
  6
HIDDEN
370
-3
390
F
  0
LAYER
  5
1FC
100
AcDbSymbolTableRecord
100
AcDbLayerTableRecord
  2
DEFAULT_3
 70
0
 62
7
  6
PHANTOM
370
-3
390
F
  0
LAYER
  5
1FD
100
AcDbSymbolTableRecord
100
AcDbLayerTableRecord
  2
ASSI
 70
0
 62
7
  6
CONTINUOUS
370
-3
390
F
  0
LAYER
  5
1FE
100
AcDbSymbolTableRecord
100
AcDbLayerTableRecord
  2
COORDINATE
 70
0
 62
7
  6
CONTINUOUS
370
-3
390
F
  0
LAYER
  5
1FF
100
AcDbSymbolTableRecord
100
AcDbLayerTableRecord
  2
COPY_PUBLISH
 70
0
 62
7
  6
CONTINUOUS
370
-3
390
F
  0
LAYER
  5
200
100
AcDbSymbolTableRecord
100
AcDbLayerTableRecord
  2
COSMETIC
 70
0
 62
7
  6
CONTINUOUS
370
-3
390
F
  0
LAYER
  5
201
100
AcDbSymbolTableRecord
100
AcDbLayerTableRecord
  2
CURVE
 70
0
 62
7
  6
CONTINUOUS
370
-3
390
F
  0
LAYER
  5
202
100
AcDbSymbolTableRecord
100
AcDbLayerTableRecord
  2
DRAFT
 70
0
 62
7
  6
CONTINUOUS
370
-3
390
F
  0
LAYER
  5
203
100
AcDbSymbolTableRecord
100
AcDbLayerTableRecord
  2
IMPORT_IGES
 70
0
 62
7
  6
CONTINUOUS
370
-3
390
F
  0
LAYER
  5
204
100
AcDbSymbolTableRecord
100
AcDbLayerTableRecord
  2
INTFCLR_1
 70
0
 62
7
  6
CONTINUOUS
370
-3
390
F
  0
LAYER
  5
205
100
AcDbSymbolTableRecord
100
AcDbLayerTableRecord
  2
NOTE
 70
0
 62
7
  6
CONTINUOUS
370
-3
390
F
  0
LAYER
  5
206
100
AcDbSymbolTableRecord
100
AcDbLayerTableRecord
  2
PIANI
 70
0
 62
7
  6
CONTINUOUS
370
-3
390
F
  0
LAYER
  5
207
100
AcDbSymbolTableRecord
100
AcDbLayerTableRecord
  2
PUNTI
 70
0
 62
7
  6
CONTINUOUS
370
-3
390
F
  0
LAYER
  5
208
100
AcDbSymbolTableRecord
100
AcDbLayerTableRecord
  2
RACCORDO
 70
0
 62
7
  6
CONTINUOUS
370
-3
390
F
  0
LAYER
  5
209
100
AcDbSymbolTableRecord
100
AcDbLayerTableRecord
  2
SNAPLINE
 70
0
 62
7
  6
CONTINUOUS
370
-3
390
F
  0
LAYER
  5
20A
100
AcDbSymbolTableRecord
100
AcDbLayerTableRecord
  2
SUPERFICI
 70
0
 62
7
  6
CONTINUOUS
370
-3
390
F
  0
LAYER
  5
20B
100
AcDbSymbolTableRecord
100
AcDbLayerTableRecord
  2
TRASH
 70
0
 62
7
  6
CONTINUOUS
370
-3
390
F
  0
LAYER
  5
20C
100
AcDbSymbolTableRecord
100
AcDbLayerTableRecord
  2
XSEC_DATUMS
 70
0
 62
7
  6
CONTINUOUS
370
-3
390
F
  0
ENDTAB
  0
TABLE
  2
STYLE
  5
3
100
AcDbSymbolTable
 70
1
  0
STYLE
  5
11
100
AcDbSymbolTableRecord
100
AcDbTextStyleTableRecord
  2
STANDARD
 70
0
 40
0.0
 41
0.8
 50
0.0
 71
0
 42
0.2
  3
txt
  4

  0
STYLE
  5
20D
100
AcDbSymbolTableRecord
100
AcDbTextStyleTableRecord
  2
TEXTSTYLE_1
 70
0
 40
0.0
 41
0.8
 50
0.0
 71
0
 42
0.2
  3
gdt
  4

  0
ENDTAB
  0
TABLE
  2
VIEW
  5
6
100
AcDbSymbolTable
 70
0
  0
ENDTAB
  0
TABLE
  2
UCS
  5
7
100
AcDbSymbolTable
 70
0
  0
ENDTAB
  0
TABLE
  2
APPID
  5
9
100
AcDbSymbolTable
 70
1
  0
APPID
  5
20E
100
AcDbSymbolTableRecord
100
AcDbRegAppTableRecord
  2
ACAD
 70
0
  0
ENDTAB
  0
TABLE
  2
BLOCK_RECORD
  5
1
100
AcDbSymbolTable
 70
0
  0
BLOCK_RECORD
  5
20F
100
AcDbSymbolTableRecord
100
AcDbBlockTableRecord
  2
*Model_Space
  0
BLOCK_RECORD
  5
210
100
AcDbSymbolTableRecord
100
AcDbBlockTableRecord
  2
*Paper_Space
  0
ENDTAB
  0
TABLE
  2
DIMSTYLE
  5
A
100
AcDbSymbolTable
 70
1
100
AcDbDimStyleTable
 71
0
  0
DIMSTYLE
105
211
100
AcDbSymbolTableRecord
100
AcDbDimStyleTableRecord
  2
STANDARD
 70
0
  3

  4

 40
1.0
 41
3.0
 42
0.0625
 43
0.38
 44
0.18
 45
0.0
 46
0.0
 47
0.01
 48
0.01
140
3.0
141
0.09
142
0.0
143
25.4
144
1.0
145
0.0
146
1.0
147
0.09
 71
1.0
 72
0.0
 73
0
 74
0
 75
0
 76
0
 77
1
 78
8
170
0
171
2
172
0
173
0
174
0
175
0
176
0
177
0
178
0
270
2
271
2
272
2
273
2
274
2
275
0
280
0
281
0
282
0
283
1
284
8
285
0
286
0
287
3
288
0
340
11
  0
ENDTAB
  0
ENDSEC
  0
SECTION
  2
BLOCKS
  0
BLOCK
  5
20
100
AcDbEntity
  8
0
100
AcDbBlockBegin
  2
*Model_Space
 70
0
 10
0.0
 20
0.0
 30
0.0
  3
*Model_Space
  1

  0
ENDBLK
  5
21
100
AcDbEntity
  8
0
100
AcDbBlockEnd
  0
BLOCK
  5
1C
100
AcDbEntity
  8
0
100
AcDbBlockBegin
  2
*Paper_Space
 70
0
 10
0.0
 20
0.0
 30
0.0
  3
*Paper_Space
  1

  0
ENDBLK
  5
1D
100
AcDbEntity
  8
0
100
AcDbBlockEnd
  0
ENDSEC
  0
SECTION
  2
ENTITIES
  0
LINE
  5
212
100
AcDbEntity
  8
DRAFT
100
AcDbLine
 62
7
  6
CONTINUOUS
 10
-56.75
 20
19.7098665012
 11
-56.75
 21
17.8901334988
  0
LINE
  5
213
100
AcDbEntity
  8
DRAFT
100
AcDbLine
 62
7
  6
CONTINUOUS
 10
-56.75
 20
17.1098665012
 11
-56.75
 21
15.2901334988
  0
LINE
  5
214
100
AcDbEntity
  8
DRAFT
100
AcDbLine
 62
7
  6
CONTINUOUS
 10
-56.75
 20
-15.2901334988
 11
-56.75
 21
-17.1098665012
  0
LINE
  5
215
100
AcDbEntity
  8
DRAFT
100
AcDbLine
 62
7
  6
CONTINUOUS
 10
-56.75
 20
-17.8901334988
 11
-56.75
 21
-19.7098665012
  0
LINE
  5
216
100
AcDbEntity
  8
DRAFT
100
AcDbLine
 62
7
  6
CONTINUOUS
 10
-55.85
 20
14.52489148
 11
-55.85
 21
14.5
  0
LINE
  5
217
100
AcDbEntity
  8
DRAFT
100
AcDbLine
 62
7
  6
CONTINUOUS
 10
-55.85
 20
-20.47510852
 11
-55.85
 21
-20.4981609264
  0
LINE
  5
218
100
AcDbEntity
  8
DRAFT
100
AcDbLine
 62
7
  6
CONTINUOUS
 10
-55.85
 20
-14.52489148
 11
-55.85
 21
-14.5
  0
LINE
  5
219
100
AcDbEntity
  8
DRAFT
100
AcDbLine
 62
7
  6
CONTINUOUS
 10
-55.85
 20
20.47510852
 11
-55.85
 21
20.4981609264
  0
LINE
  5
21A
100
AcDbEntity
  8
RACCORDO
100
AcDbLine
 62
253
  6
CONTINUOUS
 10
-55.5413486316
 20
-23.2368151694
 11
-55.5413486316
 21
-22.5631848306
  0
LINE
  5
21B
100
AcDbEntity
  8
RACCORDO
100
AcDbLine
 62
253
  6
CONTINUOUS
 10
-55.5413486316
 20
22.5631848306
 11
-55.5413486316
 21
23.2368151694
  0
LINE
  5
21C
100
AcDbEntity
  8
RACCORDO
100
AcDbLine
 62
253
  6
CONTINUOUS
 10
-55.5064385017
 20
0.354268905
 11
-55.5064385017
 21
-0.354268905
  0
LINE
  5
21D
100
AcDbEntity
  8
DRAFT
100
AcDbLine
 62
7
  6
CONTINUOUS
 10
-55.4069219382
 20
20.4524186637
 11
-55.4069219382
 21
19.7215873658
  0
LINE
  5
21E
100
AcDbEntity
  8
DRAFT
100
AcDbLine
 62
7
  6
CONTINUOUS
 10
-55.4069219382
 20
17.8784126342
 11
-55.4069219382
 21
17.1215873658
  0
LINE
  5
21F
100
AcDbEntity
  8
DRAFT
100
AcDbLine
 62
7
  6
CONTINUOUS
 10
-55.4069219382
 20
15.2784126342
 11
-55.4069219382
 21
14.5475813363
  0
LINE
  5
220
100
AcDbEntity
  8
DRAFT
100
AcDbLine
 62
7
  6
CONTINUOUS
 10
-55.4069219382
 20
-20.4524186637
 11
-55.4069219382
 21
-19.7215873658
  0
LINE
  5
221
100
AcDbEntity
  8
DRAFT
100
AcDbLine
 62
7
  6
CONTINUOUS
 10
-55.4069219382
 20
-17.8784126342
 11
-55.4069219382
 21
-17.1215873658
  0
LINE
  5
222
100
AcDbEntity
  8
DRAFT
100
AcDbLine
 62
7
  6
CONTINUOUS
 10
-55.4069219382
 20
-15.2784126342
 11
-55.4069219382
 21
-14.5475813363
  0
LINE
  5
223
100
AcDbEntity
  8
RACCORDO
100
AcDbLine
 62
253
  6
CONTINUOUS
 10
-55.041424784
 20
-23.2411024509
 11
-55.041424784
 21
-22.5588975491
  0
LINE
  5
224
100
AcDbEntity
  8
RACCORDO
100
AcDbLine
 62
253
  6
CONTINUOUS
 10
-55.041424784
 20
22.5588975491
 11
-55.041424784
 21
23.2411024509
  0
LINE
  5
225
100
AcDbEntity
  8
RACCORDO
100
AcDbLine
 62
253
  6
CONTINUOUS
 10
-55.0065146541
 20
0.3585561865
 11
-55.0065146541
 21
-0.3585561865
  0
LINE
  5
226
100
AcDbEntity
  8
DRAFT
100
AcDbLine
 62
7
  6
CONTINUOUS
 10
-54.7
 20
-14.5422741652
 11
-54.7
 21
-15.2722434199
  0
LINE
  5
227
100
AcDbEntity
  8
DRAFT
100
AcDbLine
 62
7
  6
CONTINUOUS
 10
-54.7
 20
-17.1277565801
 11
-54.7
 21
-17.8722434199
  0
LINE
  5
228
100
AcDbEntity
  8
DRAFT
100
AcDbLine
 62
7
  6
CONTINUOUS
 10
-54.7
 20
-20.4577258348
 11
-54.7
 21
-19.7277565801
  0
LINE
  5
229
100
AcDbEntity
  8
DRAFT
100
AcDbLine
 62
7
  6
CONTINUOUS
 10
-54.7
 20
14.5422741652
 11
-54.7
 21
15.2722434199
  0
LINE
  5
22A
100
AcDbEntity
  8
DRAFT
100
AcDbLine
 62
7
  6
CONTINUOUS
 10
-54.7
 20
17.1277565801
 11
-54.7
 21
17.8722434199
  0
LINE
  5
22B
100
AcDbEntity
  8
DRAFT
100
AcDbLine
 62
7
  6
CONTINUOUS
 10
-54.7
 20
19.7277565801
 11
-54.7
 21
20.4577258348
  0
LINE
  5
22C
100
AcDbEntity
  8
RACCORDO
100
AcDbLine
 62
253
  6
CONTINUOUS
 10
-47.7950996065
 20
-0.379248869
 11
-47.7950996065
 21
0.379248869
  0
LINE
  5
22D
100
AcDbEntity
  8
RACCORDO
100
AcDbLine
 62
253
  6
CONTINUOUS
 10
-47.4
 20
-0.3821948819
 11
-47.4
 21
0.3821948819
  0
LINE
  5
22E
100
AcDbEntity
  8
RACCORDO
100
AcDbLine
 62
7
  6
CONTINUOUS
 10
-33.2706424952
 20
32.3823401955
 11
-33.2411024509
 21
32.441424784
  0
LINE
  5
22F
100
AcDbEntity
  8
DRAFT
100
AcDbLine
 62
7
  6
CONTINUOUS
 10
-33.2839617601
 20
22.5160382399
 11
-33.2943898772
 21
22.5056101228
  0
LINE
  5
230
100
AcDbEntity
  8
DRAFT
100
AcDbLine
 62
7
  6
CONTINUOUS
 10
-32.5161638825
 20
23.2838361175
 11
-32.5056021052
 21
23.2943978948
  0
LINE
  5
231
100
AcDbEntity
  8
RACCORDO
100
AcDbLine
 62
7
  6
CONTINUOUS
 10
-55.002401612
 20
23.2606125509
 11
-55.041424784
 21
23.2411024509
  0
LINE
  5
232
100
AcDbEntity
  8
RACCORDO
100
AcDbLine
 62
7
  6
CONTINUOUS
 10
-55.002401612
 20
-23.2606125509
 11
-55.041424784
 21
-23.2411024509
  0
LINE
  5
233
100
AcDbEntity
  8
DRAFT
100
AcDbLine
 62
7
  6
CONTINUOUS
 10
-32.5161638825
 20
-23.2838361175
 11
-32.5056021052
 21
-23.2943978948
  0
LINE
  5
234
100
AcDbEntity
  8
DRAFT
100
AcDbLine
 62
7
  6
CONTINUOUS
 10
-33.2839617601
 20
-22.5160382399
 11
-33.2943898772
 21
-22.5056101228
  0
LINE
  5
235
100
AcDbEntity
  8
RACCORDO
100
AcDbLine
 62
7
  6
CONTINUOUS
 10
-33.2706424952
 20
-32.3823401955
 11
-33.2411024509
 21
-32.441424784
  0
LINE
  5
236
100
AcDbEntity
  8
RACCORDO
100
AcDbLine
 62
7
  6
CONTINUOUS
 10
-33.2368151694
 20
-37.8444215615
 11
-33.2368151694
 21
-32.9413486316
  0
LINE
  5
237
100
AcDbEntity
  8
RACCORDO
100
AcDbLine
 62
7
  6
CONTINUOUS
 10
-33.2368151694
 20
32.9413486316
 11
-33.2368151694
 21
37.8444215615
  0
LINE
  5
238
100
AcDbEntity
  8
RACCORDO
100
AcDbLine
 62
7
  6
CONTINUOUS
 10
-32.5631848306
 20
37.8666316286
 11
-32.5631848306
 21
32.9413486316
  0
LINE
  5
239
100
AcDbEntity
  8
RACCORDO
100
AcDbLine
 62
7
  6
CONTINUOUS
 10
-32.5631848306
 20
-32.9413486316
 11
-32.5631848306
 21
-37.8666316286
  0
LINE
  5
23A
100
AcDbEntity
  8
0
100
AcDbLine
 62
7
  6
CONTINUOUS
 10
29.0
 20
-36.0
 11
4.0
 21
-36.0
  0
LINE
  5
23B
100
AcDbEntity
  8
0
100
AcDbLine
 62
7
  6
CONTINUOUS
 10
-4.0
 20
-36.0
 11
-29.0
 21
-36.0
  0
LINE
  5
23C
100
AcDbEntity
  8
0
100
AcDbLine
 62
7
  6
CONTINUOUS
 10
-10.406184
 20
-33.656117
 11
-11.58843
 21
-33.656117
  0
LINE
  5
23D
100
AcDbEntity
  8
0
100
AcDbLine
 62
7
  6
CONTINUOUS
 10
-11.58843
 20
-33.239452
 11
-11.219175
 21
-33.239452
  0
LINE
  5
23E
100
AcDbEntity
  8
0
100
AcDbLine
 62
7
  6
CONTINUOUS
 10
-10.775296
 20
-33.239452
 11
-10.406184
 21
-33.239452
  0
LINE
  5
23F
100
AcDbEntity
  8
RACCORDO
100
AcDbLine
 62
253
  6
CONTINUOUS
 10
33.2368151694
 20
-32.9413486316
 11
32.5631848306
 21
-32.9413486316
  0
LINE
  5
240
100
AcDbEntity
  8
RACCORDO
100
AcDbLine
 62
253
  6
CONTINUOUS
 10
0.3368151694
 20
-32.9413486316
 11
-0.3368151694
 21
-32.9413486316
  0
LINE
  5
241
100
AcDbEntity
  8
RACCORDO
100
AcDbLine
 62
253
  6
CONTINUOUS
 10
-32.5631848306
 20
-32.9413486316
 11
-33.2368151694
 21
-32.9413486316
  0
LINE
  5
242
100
AcDbEntity
  8
0
100
AcDbLine
 62
7
  6
CONTINUOUS
 10
7.305084
 20
-32.675
 11
7.547274
 21
-32.675
  0
LINE
  5
243
100
AcDbEntity
  8
0
100
AcDbLine
 62
7
  6
CONTINUOUS
 10
8.067792
 20
-32.675
 11
8.315156
 21
-32.675
  0
LINE
  5
244
100
AcDbEntity
  8
0
100
AcDbLine
 62
7
  6
CONTINUOUS
 10
8.835574
 20
-32.675
 11
9.077862
 21
-32.675
  0
LINE
  5
245
100
AcDbEntity
  8
0
100
AcDbLine
 62
7
  6
CONTINUOUS
 10
9.299458
 20
-32.675
 11
9.557096
 21
-32.675
  0
LINE
  5
246
100
AcDbEntity
  8
0
100
AcDbLine
 62
7
  6
CONTINUOUS
 10
10.675325
 20
-32.675
 11
10.948479
 21
-32.675
  0
LINE
  5
247
100
AcDbEntity
  8
0
100
AcDbLine
 62
7
  6
CONTINUOUS
 10
11.190662
 20
-32.675
 11
11.9404918702
 21
-32.675
  0
LINE
  5
248
100
AcDbEntity
  8
0
100
AcDbLine
 62
7
  6
CONTINUOUS
 10
13.063927
 20
-32.675
 11
14.429621
 21
-32.675
  0
LINE
  5
249
100
AcDbEntity
  8
0
100
AcDbLine
 62
7
  6
CONTINUOUS
 10
15.511852
 20
-32.675
 11
15.76177
 21
-32.675
  0
LINE
  5
24A
100
AcDbEntity
  8
0
100
AcDbLine
 62
7
  6
CONTINUOUS
 10
16.189432
 20
-32.675
 11
16.431735
 21
-32.675
  0
LINE
  5
24B
100
AcDbEntity
  8
0
100
AcDbLine
 62
7
  6
CONTINUOUS
 10
17.377382
 20
-32.675
 11
17.658226
 21
-32.675
  0
LINE
  5
24C
100
AcDbEntity
  8
0
100
AcDbLine
 62
7
  6
CONTINUOUS
 10
18.804792
 20
-32.675
 11
19.054785
 21
-32.675
  0
LINE
  5
24D
100
AcDbEntity
  8
0
100
AcDbLine
 62
7
  6
CONTINUOUS
 10
19.948905
 20
-32.675
 11
20.198808
 21
-32.675
  0
LINE
  5
24E
100
AcDbEntity
  8
0
100
AcDbLine
 62
7
  6
CONTINUOUS
 10
20.897095
 20
-32.675
 11
21.154719
 21
-32.675
  0
LINE
  5
24F
100
AcDbEntity
  8
0
100
AcDbLine
 62
7
  6
CONTINUOUS
 10
22.273052
 20
-32.675
 11
22.546251
 21
-32.675
  0
LINE
  5
250
100
AcDbEntity
  8
0
100
AcDbLine
 62
7
  6
CONTINUOUS
 10
22.775462
 20
-32.675
 11
23.963412
 21
-32.675
  0
LINE
  5
251
100
AcDbEntity
  8
0
100
AcDbLine
 62
7
  6
CONTINUOUS
 10
24.746651
 20
-32.675
 11
24.99651
 21
-32.675
  0
LINE
  5
252
100
AcDbEntity
  8
0
100
AcDbLine
 62
7
  6
CONTINUOUS
 10
11.9341294694
 20
-32.461199
 11
11.44067
 21
-32.461199
  0
LINE
  5
253
100
AcDbEntity
  8
0
100
AcDbLine
 62
7
  6
CONTINUOUS
 10
23.963412
 20
-32.453419
 11
23.02547
 21
-32.453419
  0
LINE
  5
254
100
AcDbEntity
  8
0
100
AcDbLine
 62
7
  6
CONTINUOUS
 10
14.429621
 20
-32.453419
 11
13.31392
 21
-32.453419
  0
LINE
  5
255
100
AcDbEntity
  8
RACCORDO
100
AcDbLine
 62
253
  6
CONTINUOUS
 10
33.2411024509
 20
-32.441424784
 11
32.5588975491
 21
-32.441424784
  0
LINE
  5
256
100
AcDbEntity
  8
RACCORDO
100
AcDbLine
 62
253
  6
CONTINUOUS
 10
0.3411024509
 20
-32.441424784
 11
-0.3411024509
 21
-32.441424784
  0
LINE
  5
257
100
AcDbEntity
  8
RACCORDO
100
AcDbLine
 62
253
  6
CONTINUOUS
 10
-32.5588975491
 20
-32.441424784
 11
-33.2411024509
 21
-32.441424784
  0
LINE
  5
258
100
AcDbEntity
  8
0
100
AcDbLine
 62
7
  6
CONTINUOUS
 10
-30.0
 20
-35.0
 11
-30.0
 21
-28.5
  0
LINE
  5
259
100
AcDbEntity
  8
0
100
AcDbLine
 62
7
  6
CONTINUOUS
 10
-30.0
 20
28.5
 11
-30.0
 21
35.0
  0
LINE
  5
25A
100
AcDbEntity
  8
0
100
AcDbLine
 62
7
  6
CONTINUOUS
 10
-22.367986
 20
31.111854
 11
-21.6216
 21
33.727196
  0
LINE
  5
25B
100
AcDbEntity
  8
0
100
AcDbLine
 62
7
  6
CONTINUOUS
 10
-20.829028
 20
33.727196
 11
-22.050353
 21
29.927654
  0
LINE
  5
25C
100
AcDbEntity
  8
0
100
AcDbLine
 62
7
  6
CONTINUOUS
 10
-17.394359
 20
31.617679
 11
-16.601245
 21
33.727196
  0
LINE
  5
25D
100
AcDbEntity
  8
0
100
AcDbLine
 62
7
  6
CONTINUOUS
 10
-16.40006
 20
32.398341
 11
-17.343072
 21
29.927654
  0
LINE
  5
25E
100
AcDbEntity
  8
DRAFT
100
AcDbLine
 62
7
  6
CONTINUOUS
 10
-24.1029527027
 20
22.5093473849
 11
-24.0936921335
 21
22.5139773169
  0
LINE
  5
25F
100
AcDbEntity
  8
0
100
AcDbLine
 62
7
  6
CONTINUOUS
 10
9.75037
 20
-32.136533
 11
10.492405
 21
-32.136533
  0
LINE
  5
260
100
AcDbEntity
  8
0
100
AcDbLine
 62
7
  6
CONTINUOUS
 10
21.348007
 20
-32.136533
 11
22.090117
 21
-32.136533
  0
LINE
  5
261
100
AcDbEntity
  8
0
100
AcDbLine
 62
7
  6
CONTINUOUS
 10
-17.882444
 20
-32.125
 11
-19.342945
 21
-32.125
  0
LINE
  5
262
100
AcDbEntity
  8
0
100
AcDbLine
 62
7
  6
CONTINUOUS
 10
21.999914
 20
-31.914951
 11
21.425314
 21
-31.914951
  0
LINE
  5
263
100
AcDbEntity
  8
0
100
AcDbLine
 62
7
  6
CONTINUOUS
 10
10.402291
 20
-31.914951
 11
9.827692
 21
-31.914951
  0
LINE
  5
264
100
AcDbEntity
  8
0
100
AcDbLine
 62
7
  6
CONTINUOUS
 10
13.31392
 20
-31.835057
 11
14.326536
 21
-31.835057
  0
LINE
  5
265
100
AcDbEntity
  8
0
100
AcDbLine
 62
7
  6
CONTINUOUS
 10
14.326536
 20
-31.613476
 11
13.31392
 21
-31.613476
  0
LINE
  5
266
100
AcDbEntity
  8
0
100
AcDbLine
 62
7
  6
CONTINUOUS
 10
-19.342948112
 20
-31.375
 11
-17.882444
 21
-31.375
  0
LINE
  5
267
100
AcDbEntity
  8
0
100
AcDbLine
 62
7
  6
CONTINUOUS
 10
13.31392
 20
-31.046581
 11
14.411562
 21
-31.046581
  0
LINE
  5
268
100
AcDbEntity
  8
0
100
AcDbLine
 62
7
  6
CONTINUOUS
 10
19.322762
 20
-31.046581
 11
19.948905
 21
-31.046581
  0
LINE
  5
269
100
AcDbEntity
  8
0
100
AcDbLine
 62
7
  6
CONTINUOUS
 10
20.198808
 20
-31.046581
 11
20.82495
 21
-31.046581
  0
LINE
  5
26A
100
AcDbEntity
  8
0
100
AcDbLine
 62
7
  6
CONTINUOUS
 10
11.44067
 20
-31.038801
 11
11.9341294694
 21
-31.038801
  0
LINE
  5
26B
100
AcDbEntity
  8
0
100
AcDbLine
 62
7
  6
CONTINUOUS
 10
25.694916
 20
-30.825
 11
25.401071
 21
-30.825
  0
LINE
  5
26C
100
AcDbEntity
  8
0
100
AcDbLine
 62
7
  6
CONTINUOUS
 10
24.339546
 20
-30.825
 11
24.048394
 21
-30.825
  0
LINE
  5
26D
100
AcDbEntity
  8
0
100
AcDbLine
 62
7
  6
CONTINUOUS
 10
23.02547
 20
-30.825
 11
22.775462
 21
-30.825
  0
LINE
  5
26E
100
AcDbEntity
  8
0
100
AcDbLine
 62
7
  6
CONTINUOUS
 10
21.876226
 20
-30.825
 11
21.592839
 21
-30.825
  0
LINE
  5
26F
100
AcDbEntity
  8
0
100
AcDbLine
 62
7
  6
CONTINUOUS
 10
20.82495
 20
-30.825
 11
19.322762
 21
-30.825
  0
LINE
  5
270
100
AcDbEntity
  8
0
100
AcDbLine
 62
7
  6
CONTINUOUS
 10
19.054785
 20
-30.825
 11
18.804792
 21
-30.825
  0
LINE
  5
271
100
AcDbEntity
  8
0
100
AcDbLine
 62
7
  6
CONTINUOUS
 10
17.658226
 20
-30.825
 11
17.416043
 21
-30.825
  0
LINE
  5
272
100
AcDbEntity
  8
0
100
AcDbLine
 62
7
  6
CONTINUOUS
 10
16.485806
 20
-30.825
 11
16.189432
 21
-30.825
  0
LINE
  5
273
100
AcDbEntity
  8
0
100
AcDbLine
 62
7
  6
CONTINUOUS
 10
15.76177
 20
-30.825
 11
15.511852
 21
-30.825
  0
LINE
  5
274
100
AcDbEntity
  8
0
100
AcDbLine
 62
7
  6
CONTINUOUS
 10
14.411562
 20
-30.825
 11
13.063927
 21
-30.825
  0
LINE
  5
275
100
AcDbEntity
  8
0
100
AcDbLine
 62
7
  6
CONTINUOUS
 10
11.9483576515
 20
-30.825
 11
11.190662
 21
-30.825
  0
LINE
  5
276
100
AcDbEntity
  8
0
100
AcDbLine
 62
7
  6
CONTINUOUS
 10
10.278589
 20
-30.825
 11
9.995112
 21
-30.825
  0
LINE
  5
277
100
AcDbEntity
  8
0
100
AcDbLine
 62
7
  6
CONTINUOUS
 10
9.077862
 20
-30.825
 11
8.72224
 21
-30.825
  0
LINE
  5
278
100
AcDbEntity
  8
0
100
AcDbLine
 62
7
  6
CONTINUOUS
 10
7.663247
 20
-30.825
 11
7.305084
 21
-30.825
  0
LINE
  5
279
100
AcDbEntity
  8
0
100
AcDbLine
 62
7
  6
CONTINUOUS
 10
-10.419791
 20
-30.279254
 11
-10.775296
 21
-30.279254
  0
LINE
  5
27A
100
AcDbEntity
  8
0
100
AcDbLine
 62
7
  6
CONTINUOUS
 10
-11.219175
 20
-30.279254
 11
-11.574823
 21
-30.279254
  0
LINE
  5
27B
100
AcDbEntity
  8
0
100
AcDbLine
 62
7
  6
CONTINUOUS
 10
-11.574823
 20
-29.860297
 11
-10.419791
 21
-29.860297
  0
LINE
  5
27C
100
AcDbEntity
  8
0
100
AcDbLine
 62
7
  6
CONTINUOUS
 10
-29.0
 20
-27.5
 11
-4.0
 21
-27.5
  0
LINE
  5
27D
100
AcDbEntity
  8
0
100
AcDbLine
 62
7
  6
CONTINUOUS
 10
4.0
 20
-27.5
 11
29.0
 21
-27.5
  0
LINE
  5
27E
100
AcDbEntity
  8
DRAFT
100
AcDbLine
 62
7
  6
CONTINUOUS
 10
-24.0936921335
 20
-22.5139773169
 11
-24.1029527027
 21
-22.5093473849
  0
LINE
  5
27F
100
AcDbEntity
  8
0
100
AcDbLine
 62
7
  6
CONTINUOUS
 10
-11.219175
 20
-31.857969
 11
-12.339536
 21
-30.913833
  0
LINE
  5
280
100
AcDbEntity
  8
0
100
AcDbLine
 62
7
  6
CONTINUOUS
 10
-12.391249
 20
-30.3539
 11
-11.219175
 21
-31.341613
  0
LINE
  5
281
100
AcDbEntity
  8
RACCORDO
100
AcDbLine
 62
253
  6
CONTINUOUS
 10
-22.8939183605
 20
-13.75
 11
-22.9498659581
 21
-13.6940524024
  0
LINE
  5
282
100
AcDbEntity
  8
DRAFT
100
AcDbLine
 62
7
  6
CONTINUOUS
 10
-24.1029527027
 20
22.5093473849
 11
-24.1029527027
 21
-22.5093473849
  0
LINE
  5
283
100
AcDbEntity
  8
RACCORDO
100
AcDbLine
 62
253
  6
CONTINUOUS
 10
-24.0928961209
 20
-22.5931205084
 11
-24.0928961209
 21
-13.4569058643
  0
LINE
  5
284
100
AcDbEntity
  8
RACCORDO
100
AcDbLine
 62
253
  6
CONTINUOUS
 10
-24.0928961209
 20
-9.0430941357
 11
-24.0928961209
 21
22.5931205084
  0
LINE
  5
285
100
AcDbEntity
  8
RACCORDO
100
AcDbLine
 62
253
  6
CONTINUOUS
 10
-24.0300883504
 20
-9.1059019062
 11
-24.0300883504
 21
-13.3940980938
  0
LINE
  5
286
100
AcDbEntity
  8
RACCORDO
100
AcDbLine
 62
253
  6
CONTINUOUS
 10
-23.7301340419
 20
-13.6940524024
 11
-23.7301340419
 21
-8.8059475976
  0
LINE
  5
287
100
AcDbEntity
  8
RACCORDO
100
AcDbLine
 62
253
  6
CONTINUOUS
 10
-23.6929570428
 20
22.5931245781
 11
-23.6929570428
 21
-8.75
  0
LINE
  5
288
100
AcDbEntity
  8
RACCORDO
100
AcDbLine
 62
253
  6
CONTINUOUS
 10
-23.6929570428
 20
-13.75
 11
-23.6929570428
 21
-22.5931245781
  0
LINE
  5
289
100
AcDbEntity
  8
RACCORDO
100
AcDbLine
 62
253
  6
CONTINUOUS
 10
-22.9498659581
 20
-13.6940524024
 11
-22.9498659581
 21
-8.8059475976
  0
LINE
  5
28A
100
AcDbEntity
  8
RACCORDO
100
AcDbLine
 62
253
  6
CONTINUOUS
 10
-22.8887732309
 20
-22.1888798443
 11
-22.8887732309
 21
-13.7499558826
  0
LINE
  5
28B
100
AcDbEntity
  8
RACCORDO
100
AcDbLine
 62
253
  6
CONTINUOUS
 10
-22.8887732309
 20
-8.7500441174
 11
-22.8887732309
 21
22.1888798443
  0
LINE
  5
28C
100
AcDbEntity
  8
RACCORDO
100
AcDbLine
 62
253
  6
CONTINUOUS
 10
-22.6499116496
 20
-13.3940980938
 11
-22.6499116496
 21
-9.1059019062
  0
LINE
  5
28D
100
AcDbEntity
  8
RACCORDO
100
AcDbLine
 62
253
  6
CONTINUOUS
 10
-22.5931245781
 20
-23.6929570428
 11
-22.5931245781
 21
-24.0928961209
  0
LINE
  5
28E
100
AcDbEntity
  8
RACCORDO
100
AcDbLine
 62
253
  6
CONTINUOUS
 10
-22.5931245781
 20
23.6929570428
 11
-22.5931245781
 21
24.0928961209
  0
LINE
  5
28F
100
AcDbEntity
  8
RACCORDO
100
AcDbLine
 62
253
  6
CONTINUOUS
 10
-22.5888189223
 20
22.1888785539
 11
-22.5888189223
 21
-9.0448091789
  0
LINE
  5
290
100
AcDbEntity
  8
RACCORDO
100
AcDbLine
 62
253
  6
CONTINUOUS
 10
-22.5888189223
 20
-13.4551908211
 11
-22.5888189223
 21
-22.1888800457
  0
LINE
  5
291
100
AcDbEntity
  8
RACCORDO
100
AcDbLine
 62
7
  6
CONTINUOUS
 10
-22.58
 20
22.1800609219
 11
-22.58
 21
-22.1800609219
  0
LINE
  5
292
100
AcDbEntity
  8
0
100
AcDbLine
 62
7
  6
CONTINUOUS
 10
-22.5
 20
-22.2000456915
 11
-22.5
 21
22.2000456915
  0
LINE
  5
293
100
AcDbEntity
  8
RACCORDO
100
AcDbLine
 62
253
  6
CONTINUOUS
 10
-22.1888798443
 20
22.8887732309
 11
-22.1888798443
 21
22.5888189223
  0
LINE
  5
294
100
AcDbEntity
  8
RACCORDO
100
AcDbLine
 62
253
  6
CONTINUOUS
 10
-22.1888798443
 20
-22.8887732309
 11
-22.1888798443
 21
-22.5888189223
  0
LINE
  5
295
100
AcDbEntity
  8
0
100
AcDbLine
 62
7
  6
CONTINUOUS
 10
-21.867554
 20
-29.201963
 11
-21.867554
 21
-29.95278
  0
LINE
  5
296
100
AcDbEntity
  8
0
100
AcDbLine
 62
7
  6
CONTINUOUS
 10
-21.867554
 20
-33.54722
 11
-21.867554
 21
-34.298037
  0
LINE
  5
297
100
AcDbEntity
  8
0
100
AcDbLine
 62
7
  6
CONTINUOUS
 10
-20.534701
 20
29.927654
 11
-20.534701
 21
33.727424
  0
LINE
  5
298
100
AcDbEntity
  8
0
100
AcDbLine
 62
7
  6
CONTINUOUS
 10
-19.741588
 20
33.727424
 11
-19.741588
 21
29.927654
  0
LINE
  5
299
100
AcDbEntity
  8
0
100
AcDbLine
 62
7
  6
CONTINUOUS
 10
-18.384725
 20
32.408684
 11
-18.555878
 21
29.927654
  0
LINE
  5
29A
100
AcDbEntity
  8
0
100
AcDbLine
 62
7
  6
CONTINUOUS
 10
-19.31463
 20
29.927654
 11
-18.971553
 21
33.727196
  0
LINE
  5
29B
100
AcDbEntity
  8
0
100
AcDbLine
 62
7
  6
CONTINUOUS
 10
-13.776199
 20
32.683179
 11
-14.171103
 21
31.27312
  0
LINE
  5
29C
100
AcDbEntity
  8
0
100
AcDbLine
 62
7
  6
CONTINUOUS
 10
-14.333338
 20
30.686178
 11
-14.552188
 21
29.927654
  0
LINE
  5
29D
100
AcDbEntity
  8
0
100
AcDbLine
 62
7
  6
CONTINUOUS
 10
-15.336697
 20
29.927654
 11
-14.144918
 21
33.727196
  0
LINE
  5
29E
100
AcDbEntity
  8
DRAFT
100
AcDbLine
 62
7
  6
CONTINUOUS
 10
-32.5112209136
 20
0.3887790864
 11
-32.5008479143
 21
0.3991520857
  0
LINE
  5
29F
100
AcDbEntity
  8
DRAFT
100
AcDbLine
 62
7
  6
CONTINUOUS
 10
-33.2884682452
 20
-0.3884682452
 11
-33.2988236845
 21
-0.3988236845
  0
LINE
  5
2A0
100
AcDbEntity
  8
RACCORDO
100
AcDbLine
 62
7
  6
CONTINUOUS
 10
-54.9991022255
 20
0.3622621185
 11
-55.0065146541
 21
0.3585561865
  0
LINE
  5
2A1
100
AcDbEntity
  8
0
100
AcDbLine
 62
7
  6
CONTINUOUS
 10
20.6645834327
 20
32.6808511019
 11
20.8208334327
 21
32.7340425849
  0
LINE
  5
2A2
100
AcDbEntity
  8
0
100
AcDbLine
 62
7
  6
CONTINUOUS
 10
23.0083331347
 20
32.6808511019
 11
23.1645831347
 21
32.7340425849
  0
LINE
  5
2A3
100
AcDbEntity
  8
0
100
AcDbLine
 62
7
  6
CONTINUOUS
 10
21.3416665673
 20
31.7234042585
 11
21.1854165673
 21
31.6702127755
  0
LINE
  5
2A4
100
AcDbEntity
  8
0
100
AcDbLine
 62
7
  6
CONTINUOUS
 10
23.0083331347
 20
31.7765957415
 11
23.1645831347
 21
31.8297872245
  0
LINE
  5
2A5
100
AcDbEntity
  8
0
100
AcDbLine
 62
7
  6
CONTINUOUS
 10
21.3416665673
 20
30.8191489354
 11
21.1854165673
 21
30.7659574524
  0
LINE
  5
2A6
100
AcDbEntity
  8
0
100
AcDbLine
 62
7
  6
CONTINUOUS
 10
23.6854168653
 20
30.8191489354
 11
23.5291668653
 21
30.7659574524
  0
LINE
  5
2A7
100
AcDbEntity
  8
DRAFT
100
AcDbLine
 62
7
  6
CONTINUOUS
 10
-55.85
 20
-20.47510852
 11
-54.7
 21
-20.4577258348
  0
LINE
  5
2A8
100
AcDbEntity
  8
DRAFT
100
AcDbLine
 62
7
  6
CONTINUOUS
 10
58.0734432065
 20
-19.699965939
 11
54.7
 21
-19.7294055319
  0
LINE
  5
2A9
100
AcDbEntity
  8
RACCORDO
100
AcDbLine
 62
7
  6
CONTINUOUS
 10
-24.1513127796
 20
-23.290948125
 11
-25.1496932925
 21
-23.2970488476
  0
LINE
  5
2AA
100
AcDbEntity
  8
DRAFT
100
AcDbLine
 62
7
  6
CONTINUOUS
 10
24.1029527027
 20
-22.5093473849
 11
25.1993176487
 21
-22.5026479169
  0
LINE
  5
2AB
100
AcDbEntity
  8
DRAFT
100
AcDbLine
 62
7
  6
CONTINUOUS
 10
55.4069219382
 20
-20.4524186637
 11
54.7
 21
-20.4559804612
  0
LINE
  5
2AC
100
AcDbEntity
  8
RACCORDO
100
AcDbLine
 62
7
  6
CONTINUOUS
 10
0.3906526151
 20
-24.1029527027
 11
22.60318116
 21
-24.1029527027
  0
LINE
  5
2AD
100
AcDbEntity
  8
RACCORDO
100
AcDbLine
 62
7
  6
CONTINUOUS
 10
-0.3906526151
 20
-24.1029527027
 11
-22.60318116
 21
-24.1029527027
  0
LINE
  5
2AE
100
AcDbEntity
  8
RACCORDO
100
AcDbLine
 62
253
  6
CONTINUOUS
 10
-22.5931200617
 20
-24.0928961209
 11
22.5931200617
 21
-24.0928961209
  0
LINE
  5
2AF
100
AcDbEntity
  8
RACCORDO
100
AcDbLine
 62
253
  6
CONTINUOUS
 10
-22.5931245781
 20
-23.6929570428
 11
22.5931245781
 21
-23.6929570428
  0
LINE
  5
2B0
100
AcDbEntity
  8
RACCORDO
100
AcDbLine
 62
7
  6
CONTINUOUS
 10
57.9464713063
 20
-23.2368151694
 11
55.5413486316
 21
-23.2368151694
  0
LINE
  5
2B1
100
AcDbEntity
  8
RACCORDO
100
AcDbLine
 62
7
  6
CONTINUOUS
 10
-55.5413486316
 20
-23.2368151694
 11
-57.9464713063
 21
-23.2368151694
  0
LINE
  5
2B2
100
AcDbEntity
  8
RACCORDO
100
AcDbLine
 62
253
  6
CONTINUOUS
 10
22.1888798443
 20
-22.8887732309
 11
-22.1888798443
 21
-22.8887732309
  0
LINE
  5
2B3
100
AcDbEntity
  8
RACCORDO
100
AcDbLine
 62
253
  6
CONTINUOUS
 10
23.6929570428
 20
-22.5931245781
 11
24.0928961209
 21
-22.5931245781
  0
LINE
  5
2B4
100
AcDbEntity
  8
RACCORDO
100
AcDbLine
 62
253
  6
CONTINUOUS
 10
-23.6929570428
 20
-22.5931245781
 11
-24.0928961209
 21
-22.5931245781
  0
LINE
  5
2B5
100
AcDbEntity
  8
RACCORDO
100
AcDbLine
 62
253
  6
CONTINUOUS
 10
22.1888800457
 20
-22.5888189223
 11
-22.1888785539
 21
-22.5888189223
  0
LINE
  5
2B6
100
AcDbEntity
  8
RACCORDO
100
AcDbLine
 62
7
  6
CONTINUOUS
 10
22.1800609219
 20
-22.58
 11
-22.1800609219
 21
-22.58
  0
LINE
  5
2B7
100
AcDbEntity
  8
RACCORDO
100
AcDbLine
 62
7
  6
CONTINUOUS
 10
-57.9722692711
 20
-22.5631848306
 11
-55.5413486316
 21
-22.5631848306
  0
LINE
  5
2B8
100
AcDbEntity
  8
RACCORDO
100
AcDbLine
 62
7
  6
CONTINUOUS
 10
55.5413486316
 20
-22.5631848306
 11
57.9722692711
 21
-22.5631848306
  0
LINE
  5
2B9
100
AcDbEntity
  8
0
100
AcDbLine
 62
7
  6
CONTINUOUS
 10
22.2000456915
 20
-22.5
 11
-22.2000456915
 21
-22.5
  0
LINE
  5
2BA
100
AcDbEntity
  8
RACCORDO
100
AcDbLine
 62
253
  6
CONTINUOUS
 10
-22.8887732309
 20
-22.1888798443
 11
-22.5888189223
 21
-22.1888798443
  0
LINE
  5
2BB
100
AcDbEntity
  8
RACCORDO
100
AcDbLine
 62
253
  6
CONTINUOUS
 10
22.8887732309
 20
-22.1888798443
 11
22.5888189223
 21
-22.1888798443
  0
LINE
  5
2BC
100
AcDbEntity
  8
DRAFT
100
AcDbLine
 62
7
  6
CONTINUOUS
 10
58.0481842609
 20
-20.4524186637
 11
55.4069219382
 21
-20.4524186637
  0
LINE
  5
2BD
100
AcDbEntity
  8
DRAFT
100
AcDbLine
 62
7
  6
CONTINUOUS
 10
-55.4069219382
 20
-20.4524186637
 11
-58.0481842609
 21
-20.4524186637
  0
LINE
  5
2BE
100
AcDbEntity
  8
DRAFT
100
AcDbLine
 62
7
  6
CONTINUOUS
 10
-54.7
 20
-20.4559804612
 11
-55.4069219382
 21
-20.4524186637
  0
LINE
  5
2BF
100
AcDbEntity
  8
RACCORDO
100
AcDbLine
 62
7
  6
CONTINUOUS
 10
24.1513127796
 20
-23.290948125
 11
25.1496932925
 21
-23.2970488476
  0
LINE
  5
2C0
100
AcDbEntity
  8
DRAFT
100
AcDbLine
 62
7
  6
CONTINUOUS
 10
-24.1029527027
 20
-22.5093473849
 11
-25.1993176487
 21
-22.5026479169
  0
LINE
  5
2C1
100
AcDbEntity
  8
DRAFT
100
AcDbLine
 62
7
  6
CONTINUOUS
 10
-54.7
 20
-19.7277565801
 11
-58.0734975348
 21
-19.6983165132
  0
LINE
  5
2C2
100
AcDbEntity
  8
DRAFT
100
AcDbLine
 62
7
  6
CONTINUOUS
 10
54.7
 20
-20.4577258348
 11
55.85
 21
-20.47510852
  0
LINE
  5
2C3
100
AcDbEntity
  8
RACCORDO
100
AcDbLine
 62
7
  6
CONTINUOUS
 10
-54.9991022255
 20
-0.3622621185
 11
-55.0065146541
 21
-0.3585561865
  0
LINE
  5
2C4
100
AcDbEntity
  8
RACCORDO
100
AcDbLine
 62
253
  6
CONTINUOUS
 10
-22.5888189223
 20
-13.4551908211
 11
-22.6499116496
 21
-13.3940980938
  0
LINE
  5
2C5
100
AcDbEntity
  8
RACCORDO
100
AcDbLine
 62
253
  6
CONTINUOUS
 10
-24.0928961209
 20
-9.0430941357
 11
-24.0300883504
 21
-9.1059019062
  0
LINE
  5
2C6
100
AcDbEntity
  8
DRAFT
100
AcDbLine
 62
7
  6
CONTINUOUS
 10
-32.5112209136
 20
-0.3887790864
 11
-32.5008479143
 21
-0.3991520857
  0
LINE
  5
2C7
100
AcDbEntity
  8
DRAFT
100
AcDbLine
 62
7
  6
CONTINUOUS
 10
-33.2884682452
 20
0.3884682452
 11
-33.2988236845
 21
0.3988236845
  0
LINE
  5
2C8
100
AcDbEntity
  8
RACCORDO
100
AcDbLine
 62
253
  6
CONTINUOUS
 10
-23.7862742984
 20
-8.7498073411
 11
-23.7301340419
 21
-8.8059475976
  0
LINE
  5
2C9
100
AcDbEntity
  8
0
100
AcDbLine
 62
7
  6
CONTINUOUS
 10
-10.035324
 20
-33.468741
 11
-10.227121
 21
-33.127022
  0
LINE
  5
2CA
100
AcDbEntity
  8
0
100
AcDbLine
 62
7
  6
CONTINUOUS
 10
-15.816537
 20
33.727196
 11
-15.461237
 21
29.927654
  0
LINE
  5
2CB
100
AcDbEntity
  8
0
100
AcDbLine
 62
7
  6
CONTINUOUS
 10
-16.237113
 20
29.927654
 11
-16.40006
 21
32.398341
  0
LINE
  5
2CC
100
AcDbEntity
  8
0
100
AcDbLine
 62
7
  6
CONTINUOUS
 10
-17.882444
 20
-31.375
 11
-17.882444
 21
-32.125
  0
LINE
  5
2CD
100
AcDbEntity
  8
0
100
AcDbLine
 62
7
  6
CONTINUOUS
 10
-17.482444
 20
-29.2019628823
 11
-17.482444
 21
-29.95278
  0
LINE
  5
2CE
100
AcDbEntity
  8
0
100
AcDbLine
 62
7
  6
CONTINUOUS
 10
-17.482444
 20
-33.5472169516
 11
-17.482444
 21
-34.2980371177
  0
LINE
  5
2CF
100
AcDbEntity
  8
RACCORDO
100
AcDbLine
 62
7
  6
CONTINUOUS
 10
-0.3737600225
 20
32.3761046662
 11
-0.3411024509
 21
32.441424784
  0
LINE
  5
2D0
100
AcDbEntity
  8
RACCORDO
100
AcDbLine
 62
7
  6
CONTINUOUS
 10
-32.5292251989
 20
-32.3820755635
 11
-32.5588975491
 21
-32.441424784
  0
LINE
  5
2D1
100
AcDbEntity
  8
0
100
AcDbLine
 62
7
  6
CONTINUOUS
 10
18.3208333209
 20
32.5744681358
 11
18.4770833582
 21
32.6808511019
  0
LINE
  5
2D2
100
AcDbEntity
  8
0
100
AcDbLine
 62
7
  6
CONTINUOUS
 10
20.5083334327
 20
32.5744681358
 11
20.6645834327
 21
32.6808511019
  0
LINE
  5
2D3
100
AcDbEntity
  8
0
100
AcDbLine
 62
7
  6
CONTINUOUS
 10
19.1541667163
 20
30.9255319014
 11
18.9979166418
 21
30.8191489354
  0
LINE
  5
2D4
100
AcDbEntity
  8
0
100
AcDbLine
 62
7
  6
CONTINUOUS
 10
21.4979165673
 20
31.8297872245
 11
21.3416665673
 21
31.7234042585
  0
LINE
  5
2D5
100
AcDbEntity
  8
0
100
AcDbLine
 62
7
  6
CONTINUOUS
 10
22.8520831347
 20
32.5744681358
 11
23.0083331347
 21
32.6808511019
  0
LINE
  5
2D6
100
AcDbEntity
  8
0
100
AcDbLine
 62
7
  6
CONTINUOUS
 10
21.39375
 20
31.4574468434
 11
21.70625
 21
31.6702127755
  0
LINE
  5
2D7
100
AcDbEntity
  8
0
100
AcDbLine
 62
7
  6
CONTINUOUS
 10
22.95625
 20
32.0425531566
 11
22.64375
 21
31.8297872245
  0
LINE
  5
2D8
100
AcDbEntity
  8
0
100
AcDbLine
 62
7
  6
CONTINUOUS
 10
21.4979165673
 20
30.9255319014
 11
21.3416665673
 21
30.8191489354
  0
LINE
  5
2D9
100
AcDbEntity
  8
0
100
AcDbLine
 62
7
  6
CONTINUOUS
 10
22.8520831347
 20
31.6702127755
 11
23.0083331347
 21
31.7765957415
  0
LINE
  5
2DA
100
AcDbEntity
  8
0
100
AcDbLine
 62
7
  6
CONTINUOUS
 10
18.425
 20
32.946808517
 11
18.1645833209
 21
32.7872340679
  0
LINE
  5
2DB
100
AcDbEntity
  8
0
100
AcDbLine
 62
7
  6
CONTINUOUS
 10
20.6125
 20
32.946808517
 11
20.3520834327
 21
32.7872340679
  0
LINE
  5
2DC
100
AcDbEntity
  8
0
100
AcDbLine
 62
7
  6
CONTINUOUS
 10
19.05
 20
30.5531914877
 11
19.3104167163
 21
30.7127659507
  0
LINE
  5
2DD
100
AcDbEntity
  8
0
100
AcDbLine
 62
7
  6
CONTINUOUS
 10
22.95625
 20
32.946808517
 11
22.6958334327
 21
32.7872340679
  0
LINE
  5
2DE
100
AcDbEntity
  8
0
100
AcDbLine
 62
7
  6
CONTINUOUS
 10
21.39375
 20
30.5531914877
 11
21.6541665673
 21
30.7127659507
  0
LINE
  5
2DF
100
AcDbEntity
  8
0
100
AcDbLine
 62
7
  6
CONTINUOUS
 10
23.7375
 20
30.5531914877
 11
23.9979168653
 21
30.7127659507
  0
LINE
  5
2E0
100
AcDbEntity
  8
DRAFT
100
AcDbLine
 62
7
  6
CONTINUOUS
 10
54.7
 20
-14.5422741652
 11
55.85
 21
-14.52489148
  0
LINE
  5
2E1
100
AcDbEntity
  8
DRAFT
100
AcDbLine
 62
7
  6
CONTINUOUS
 10
58.1534478454
 20
-17.0992677491
 11
54.7
 21
-17.1294055319
  0
LINE
  5
2E2
100
AcDbEntity
  8
DRAFT
100
AcDbLine
 62
7
  6
CONTINUOUS
 10
-54.7
 20
-17.8722434199
 11
-58.1299559582
 21
-17.902176192
  0
LINE
  5
2E3
100
AcDbEntity
  8
DRAFT
100
AcDbLine
 62
7
  6
CONTINUOUS
 10
-54.7
 20
-15.2722434199
 11
-58.2021031902
 21
-15.3028058114
  0
LINE
  5
2E4
100
AcDbEntity
  8
DRAFT
100
AcDbLine
 62
7
  6
CONTINUOUS
 10
-54.7
 20
-14.5440195388
 11
-55.4069219382
 21
-14.5475813363
  0
LINE
  5
2E5
100
AcDbEntity
  8
DRAFT
100
AcDbLine
 62
7
  6
CONTINUOUS
 10
-58.2209458086
 20
-14.5475813363
 11
-55.4069219382
 21
-14.5475813363
  0
LINE
  5
2E6
100
AcDbEntity
  8
DRAFT
100
AcDbLine
 62
7
  6
CONTINUOUS
 10
55.4069219382
 20
-14.5475813363
 11
58.2209458086
 21
-14.5475813363
  0
LINE
  5
2E7
100
AcDbEntity
  8
RACCORDO
100
AcDbLine
 62
7
  6
CONTINUOUS
 10
-23.6929570428
 20
-13.75
 11
-22.8939183605
 21
-13.75
  0
LINE
  5
2E8
100
AcDbEntity
  8
RACCORDO
100
AcDbLine
 62
253
  6
CONTINUOUS
 10
-23.7301340419
 20
-13.6940524024
 11
-22.9498659581
 21
-13.6940524024
  0
LINE
  5
2E9
100
AcDbEntity
  8
RACCORDO
100
AcDbLine
 62
253
  6
CONTINUOUS
 10
-22.6499116496
 20
-13.3940980938
 11
-24.0300883504
 21
-13.3940980938
  0
LINE
  5
2EA
100
AcDbEntity
  8
DRAFT
100
AcDbLine
 62
7
  6
CONTINUOUS
 10
55.4069219382
 20
-14.5475813363
 11
54.7
 21
-14.5440195388
  0
LINE
  5
2EB
100
AcDbEntity
  8
DRAFT
100
AcDbLine
 62
7
  6
CONTINUOUS
 10
-54.7
 20
-17.1277565801
 11
-58.1534949931
 21
-17.0976183859
  0
LINE
  5
2EC
100
AcDbEntity
  8
DRAFT
100
AcDbLine
 62
7
  6
CONTINUOUS
 10
54.7
 20
-17.8705944681
 11
58.1300052965
 21
-17.9005276709
  0
LINE
  5
2ED
100
AcDbEntity
  8
DRAFT
100
AcDbLine
 62
7
  6
CONTINUOUS
 10
54.7
 20
-15.2705944681
 11
58.2021453609
 21
-15.3011572277
  0
LINE
  5
2EE
100
AcDbEntity
  8
DRAFT
100
AcDbLine
 62
7
  6
CONTINUOUS
 10
-55.85
 20
-14.52489148
 11
-54.7
 21
-14.5422741652
  0
LINE
  5
2EF
100
AcDbEntity
  8
RACCORDO
100
AcDbLine
 62
7
  6
CONTINUOUS
 10
-0.3737600225
 20
-32.3761046662
 11
-0.3411024509
 21
-32.441424784
  0
LINE
  5
2F0
100
AcDbEntity
  8
RACCORDO
100
AcDbLine
 62
7
  6
CONTINUOUS
 10
-32.5292251989
 20
32.3820755635
 11
-32.5588975491
 21
32.441424784
  0
LINE
  5
2F1
100
AcDbEntity
  8
0
100
AcDbLine
 62
7
  6
CONTINUOUS
 10
-22.749285
 20
29.927654
 11
-23.953814
 21
33.727196
  0
LINE
  5
2F2
100
AcDbEntity
  8
0
100
AcDbLine
 62
7
  6
CONTINUOUS
 10
-23.092247
 20
33.727196
 11
-22.367986
 21
31.111854
  0
LINE
  5
2F3
100
AcDbEntity
  8
0
100
AcDbLine
 62
7
  6
CONTINUOUS
 10
-11.9789858413
 20
29.9276540612
 11
-11.9789858413
 21
33.6828051783
  0
LINE
  5
2F4
100
AcDbEntity
  8
0
100
AcDbLine
 62
7
  6
CONTINUOUS
 10
-11.58843
 20
-33.656117
 11
-11.58843
 21
-33.239452
  0
LINE
  5
2F5
100
AcDbEntity
  8
0
100
AcDbLine
 62
7
  6
CONTINUOUS
 10
-11.574823
 20
-30.279254
 11
-11.574823
 21
-29.860297
  0
LINE
  5
2F6
100
AcDbEntity
  8
0
100
AcDbLine
 62
7
  6
CONTINUOUS
 10
-11.219175
 20
-33.239452
 11
-11.219175
 21
-31.857969
  0
LINE
  5
2F7
100
AcDbEntity
  8
0
100
AcDbLine
 62
7
  6
CONTINUOUS
 10
-11.219175
 20
-31.341613
 11
-11.219175
 21
-30.279254
  0
LINE
  5
2F8
100
AcDbEntity
  8
0
100
AcDbLine
 62
7
  6
CONTINUOUS
 10
-11.215361993
 20
33.0799067555
 11
-11.215361993
 21
32.0368582931
  0
LINE
  5
2F9
100
AcDbEntity
  8
0
100
AcDbLine
 62
7
  6
CONTINUOUS
 10
-11.189063541
 20
31.4145850627
 11
-11.189063541
 21
29.9276540612
  0
LINE
  5
2FA
100
AcDbEntity
  8
0
100
AcDbLine
 62
7
  6
CONTINUOUS
 10
-10.775296
 20
-30.279254
 11
-10.775296
 21
-31.341613
  0
LINE
  5
2FB
100
AcDbEntity
  8
0
100
AcDbLine
 62
7
  6
CONTINUOUS
 10
-10.775296
 20
-31.853309
 11
-10.775296
 21
-33.239452
  0
LINE
  5
2FC
100
AcDbEntity
  8
0
100
AcDbLine
 62
7
  6
CONTINUOUS
 10
-10.419791
 20
-29.860297
 11
-10.419791
 21
-30.279254
  0
LINE
  5
2FD
100
AcDbEntity
  8
0
100
AcDbLine
 62
7
  6
CONTINUOUS
 10
-10.406184
 20
-33.239452
 11
-10.406184
 21
-33.656117
  0
LINE
  5
2FE
100
AcDbEntity
  8
0
100
AcDbLine
 62
7
  6
CONTINUOUS
 10
-9.9399298096
 20
31.7236987201
 11
-9.9399298096
 21
31.7012467372
  0
LINE
  5
2FF
100
AcDbEntity
  8
DRAFT
100
AcDbLine
 62
7
  6
CONTINUOUS
 10
-0.3930559142
 20
38.0599822418
 11
-0.3368151694
 21
38.3977474331
  0
LINE
  5
300
100
AcDbEntity
  8
DRAFT
100
AcDbLine
 62
7
  6
CONTINUOUS
 10
0.3906526151
 20
24.1029527027
 11
0.387367066
 21
24.0963811041
  0
LINE
  5
301
100
AcDbEntity
  8
0
100
AcDbLine
 62
7
  6
CONTINUOUS
 10
18.1645833209
 20
32.7872340679
 11
18.0083333395
 21
32.6276596189
  0
LINE
  5
302
100
AcDbEntity
  8
0
100
AcDbLine
 62
7
  6
CONTINUOUS
 10
19.3104167163
 20
30.7127659507
 11
19.4666667163
 21
30.8723404184
  0
LINE
  5
303
100
AcDbEntity
  8
0
100
AcDbLine
 62
7
  6
CONTINUOUS
 10
22.7479165673
 20
31.5638298094
 11
22.8520831347
 21
31.6702127755
  0
LINE
  5
304
100
AcDbEntity
  8
RACCORDO
100
AcDbLine
 62
253
  6
CONTINUOUS
 10
-22.9498659581
 20
-8.8059475976
 11
-22.8939183605
 21
-8.75
  0
LINE
  5
305
100
AcDbEntity
  8
RACCORDO
100
AcDbLine
 62
253
  6
CONTINUOUS
 10
-22.6499116496
 20
-9.1059019062
 11
-22.5888189223
 21
-9.0448091789
  0
LINE
  5
306
100
AcDbEntity
  8
RACCORDO
100
AcDbLine
 62
253
  6
CONTINUOUS
 10
-24.0300883504
 20
-13.3940980938
 11
-24.0928961209
 21
-13.4569058643
  0
LINE
  5
307
100
AcDbEntity
  8
RACCORDO
100
AcDbLine
 62
253
  6
CONTINUOUS
 10
-23.7301340419
 20
-13.6940524024
 11
-23.7862742984
 21
-13.7501926589
  0
LINE
  5
308
100
AcDbEntity
  8
DRAFT
100
AcDbLine
 62
7
  6
CONTINUOUS
 10
-32.5158431844
 20
-22.5158431844
 11
-32.5052852428
 21
-22.5052852428
  0
LINE
  5
309
100
AcDbEntity
  8
DRAFT
100
AcDbLine
 62
7
  6
CONTINUOUS
 10
-33.2836490176
 20
-23.2836490176
 11
-33.294073536
 21
-23.294073536
  0
LINE
  5
30A
100
AcDbEntity
  8
0
100
AcDbLine
 62
7
  6
CONTINUOUS
 10
23.8416668653
 20
30.9255319014
 11
23.6854168653
 21
30.8191489354
  0
LINE
  5
30B
100
AcDbEntity
  8
DRAFT
100
AcDbLine
 62
7
  6
CONTINUOUS
 10
58.2928838007
 20
-0.354268905
 11
58.1105856609
 21
-0.3846218009
  0
LINE
  5
30C
100
AcDbEntity
  8
RACCORDO
100
AcDbLine
 62
253
  6
CONTINUOUS
 10
-22.6499116496
 20
-9.1059019062
 11
-24.0300883504
 21
-9.1059019062
  0
LINE
  5
30D
100
AcDbEntity
  8
RACCORDO
100
AcDbLine
 62
253
  6
CONTINUOUS
 10
-22.9498659581
 20
-8.8059475976
 11
-23.7301340419
 21
-8.8059475976
  0
LINE
  5
30E
100
AcDbEntity
  8
RACCORDO
100
AcDbLine
 62
7
  6
CONTINUOUS
 10
-23.6929570428
 20
-8.75
 11
-22.8939183605
 21
-8.75
  0
LINE
  5
30F
100
AcDbEntity
  8
DRAFT
100
AcDbLine
 62
7
  6
CONTINUOUS
 10
-58.1105856609
 20
-0.3846218009
 11
-58.2928838007
 21
-0.354268905
  0
LINE
  5
310
100
AcDbEntity
  8
DRAFT
100
AcDbLine
 62
7
  6
CONTINUOUS
 10
-32.5158431844
 20
22.5158431844
 11
-32.5052852428
 21
22.5052852428
  0
LINE
  5
311
100
AcDbEntity
  8
DRAFT
100
AcDbLine
 62
7
  6
CONTINUOUS
 10
-33.2836490176
 20
23.2836490176
 11
-33.294073536
 21
23.294073536
  0
LINE
  5
312
100
AcDbEntity
  8
DRAFT
100
AcDbLine
 62
7
  6
CONTINUOUS
 10
0.387367066
 20
-24.0963811041
 11
0.3906526151
 21
-24.1029527027
  0
LINE
  5
313
100
AcDbEntity
  8
0
100
AcDbLine
 62
7
  6
CONTINUOUS
 10
-17.454306
 20
29.927654
 11
-18.384725
 21
32.408684
  0
LINE
  5
314
100
AcDbEntity
  8
DRAFT
100
AcDbLine
 62
7
  6
CONTINUOUS
 10
-0.3368151694
 20
-38.3977474331
 11
-0.3930559142
 21
-38.0599822418
  0
LINE
  5
315
100
AcDbEntity
  8
DRAFT
100
AcDbLine
 62
7
  6
CONTINUOUS
 10
-0.3906526151
 20
24.1029527027
 11
-0.4
 21
25.6326480628
  0
LINE
  5
316
100
AcDbEntity
  8
DRAFT
100
AcDbLine
 62
7
  6
CONTINUOUS
 10
0.3906526151
 20
-24.1029527027
 11
0.4
 21
-25.6326480628
  0
LINE
  5
317
100
AcDbEntity
  8
0
100
AcDbLine
 62
7
  6
CONTINUOUS
 10
-3.0
 20
35.0
 11
-3.0
 21
28.5
  0
LINE
  5
318
100
AcDbEntity
  8
0
100
AcDbLine
 62
7
  6
CONTINUOUS
 10
-3.0
 20
-28.5
 11
-3.0
 21
-35.0
  0
LINE
  5
319
100
AcDbEntity
  8
RACCORDO
100
AcDbLine
 62
7
  6
CONTINUOUS
 10
-0.3368151694
 20
-38.3977474331
 11
-0.3368151694
 21
-32.9413486316
  0
LINE
  5
31A
100
AcDbEntity
  8
RACCORDO
100
AcDbLine
 62
7
  6
CONTINUOUS
 10
-0.3368151694
 20
32.9413486316
 11
-0.3368151694
 21
38.3977474331
  0
LINE
  5
31B
100
AcDbEntity
  8
RACCORDO
100
AcDbLine
 62
253
  6
CONTINUOUS
 10
0.0000000047
 20
-32.3761038426
 11
-0.0000000078
 21
-24.9240319971
  0
LINE
  5
31C
100
AcDbEntity
  8
DRAFT
100
AcDbLine
 62
253
  6
CONTINUOUS
 10
0.0000000001
 20
24.924033132
 11
-0.0000000819
 21
24.0963822329
  0
LINE
  5
31D
100
AcDbEntity
  8
DRAFT
100
AcDbLine
 62
253
  6
CONTINUOUS
 10
0.0000000001
 20
-24.924033132
 11
-0.0000000662
 21
-24.0963822329
  0
LINE
  5
31E
100
AcDbEntity
  8
RACCORDO
100
AcDbLine
 62
253
  6
CONTINUOUS
 10
-0.0000000078
 20
24.9240319971
 11
0.0000000002
 21
32.3761038426
  0
LINE
  5
31F
100
AcDbEntity
  8
RACCORDO
100
AcDbLine
 62
7
  6
CONTINUOUS
 10
0.3368151694
 20
38.3977474331
 11
0.3368151694
 21
32.9413486316
  0
LINE
  5
320
100
AcDbEntity
  8
RACCORDO
100
AcDbLine
 62
7
  6
CONTINUOUS
 10
0.3368151694
 20
-32.9413486316
 11
0.3368151694
 21
-38.3977474331
  0
LINE
  5
321
100
AcDbEntity
  8
DRAFT
100
AcDbLine
 62
7
  6
CONTINUOUS
 10
-0.3906526151
 20
-24.1029527027
 11
-0.4
 21
-25.6326480628
  0
LINE
  5
322
100
AcDbEntity
  8
DRAFT
100
AcDbLine
 62
7
  6
CONTINUOUS
 10
0.3906526151
 20
24.1029527027
 11
0.4
 21
25.6326480628
  0
LINE
  5
323
100
AcDbEntity
  8
0
100
AcDbLine
 62
7
  6
CONTINUOUS
 10
18.1125
 20
32.2553190887
 11
18.3208333209
 21
32.5744681358
  0
LINE
  5
324
100
AcDbEntity
  8
0
100
AcDbLine
 62
7
  6
CONTINUOUS
 10
19.3625
 20
31.2446808368
 11
19.1541667163
 21
30.9255319014
  0
LINE
  5
325
100
AcDbEntity
  8
0
100
AcDbLine
 62
7
  6
CONTINUOUS
 10
20.4041665673
 20
32.4148936868
 11
20.5083334327
 21
32.5744681358
  0
LINE
  5
326
100
AcDbEntity
  8
0
100
AcDbLine
 62
7
  6
CONTINUOUS
 10
21.6020834327
 20
31.9893616736
 11
21.4979165673
 21
31.8297872245
  0
LINE
  5
327
100
AcDbEntity
  8
0
100
AcDbLine
 62
7
  6
CONTINUOUS
 10
20.3520834327
 20
32.7872340679
 11
20.1958332837
 21
32.5744681358
  0
LINE
  5
328
100
AcDbEntity
  8
0
100
AcDbLine
 62
7
  6
CONTINUOUS
 10
22.6958334327
 20
32.7872340679
 11
22.5395834327
 21
32.5744681358
  0
LINE
  5
329
100
AcDbEntity
  8
0
100
AcDbLine
 62
7
  6
CONTINUOUS
 10
21.6541665673
 20
30.7127659507
 11
21.8104165673
 21
30.9255319014
  0
LINE
  5
32A
100
AcDbEntity
  8
0
100
AcDbLine
 62
7
  6
CONTINUOUS
 10
25.925
 20
33.0
 11
24.675
 21
31.5638298094
  0
LINE
  5
32B
100
AcDbEntity
  8
0
100
AcDbLine
 62
7
  6
CONTINUOUS
 10
25.0395831347
 20
31.5638298094
 11
25.925
 21
32.5744681358
  0
LINE
  5
32C
100
AcDbEntity
  8
RACCORDO
100
AcDbLine
 62
253
  6
CONTINUOUS
 10
-24.0936121457
 20
-22.593840603
 11
-24.0928961209
 21
-22.5931205084
  0
LINE
  5
32D
100
AcDbEntity
  8
RACCORDO
100
AcDbLine
 62
253
  6
CONTINUOUS
 10
24.2133520542
 20
25.0737167087
 11
23.1411035269
 21
24.0014681814
  0
LINE
  5
32E
100
AcDbEntity
  8
RACCORDO
100
AcDbLine
 62
253
  6
CONTINUOUS
 10
-25.089276948
 20
-24.2289122935
 11
-24.1513127796
 21
-23.290948125
  0
LINE
  5
32F
100
AcDbEntity
  8
RACCORDO
100
AcDbLine
 62
253
  6
CONTINUOUS
 10
-22.5888189223
 20
-22.1888800457
 11
-22.58
 21
-22.1800609219
  0
LINE
  5
330
100
AcDbEntity
  8
RACCORDO
100
AcDbLine
 62
253
  6
CONTINUOUS
 10
22.1888785539
 20
22.5888189223
 11
22.1800609219
 21
22.58
  0
LINE
  5
331
100
AcDbEntity
  8
RACCORDO
100
AcDbLine
 62
253
  6
CONTINUOUS
 10
-22.1888785539
 20
-22.5888189223
 11
-22.1800609219
 21
-22.58
  0
LINE
  5
332
100
AcDbEntity
  8
RACCORDO
100
AcDbLine
 62
253
  6
CONTINUOUS
 10
22.5888189223
 20
22.1888800457
 11
22.58
 21
22.1800609219
  0
LINE
  5
333
100
AcDbEntity
  8
RACCORDO
100
AcDbLine
 62
253
  6
CONTINUOUS
 10
25.089276948
 20
24.2289122935
 11
24.1513127796
 21
23.290948125
  0
LINE
  5
334
100
AcDbEntity
  8
RACCORDO
100
AcDbLine
 62
253
  6
CONTINUOUS
 10
-24.2133520542
 20
-25.0737167087
 11
-23.1411035269
 21
-24.0014681814
  0
LINE
  5
335
100
AcDbEntity
  8
RACCORDO
100
AcDbLine
 62
253
  6
CONTINUOUS
 10
22.5931205084
 20
24.0928961209
 11
22.60318116
 21
24.1029527027
  0
LINE
  5
336
100
AcDbEntity
  8
RACCORDO
100
AcDbLine
 62
7
  6
CONTINUOUS
 10
-55.0022072492
 20
-22.5392902751
 11
-55.041424784
 21
-22.5588975491
  0
LINE
  5
337
100
AcDbEntity
  8
DRAFT
100
AcDbLine
 62
7
  6
CONTINUOUS
 10
-25.8889675662
 20
-0.4015662707
 11
-24.2613930097
 21
-0.3916207834
  0
LINE
  5
338
100
AcDbEntity
  8
DRAFT
100
AcDbLine
 62
7
  6
CONTINUOUS
 10
25.8889675662
 20
0.4015662707
 11
24.2613930097
 21
0.3916207834
  0
LINE
  5
339
100
AcDbEntity
  8
RACCORDO
100
AcDbLine
 62
253
  6
CONTINUOUS
 10
59.9869985877
 20
-3.9498766793
 11
58.3847680223
 21
-3.9498766793
  0
LINE
  5
33A
100
AcDbEntity
  8
RACCORDO
100
AcDbLine
 62
253
  6
CONTINUOUS
 10
-58.3847680223
 20
-3.9498766793
 11
-59.9869985877
 21
-3.9498766793
  0
LINE
  5
33B
100
AcDbEntity
  8
RACCORDO
100
AcDbLine
 62
253
  6
CONTINUOUS
 10
59.9745393107
 20
-3.6510182698
 11
58.3723138127
 21
-3.6510182698
  0
LINE
  5
33C
100
AcDbEntity
  8
RACCORDO
100
AcDbLine
 62
253
  6
CONTINUOUS
 10
-58.3723138127
 20
-3.6510182698
 11
-59.9745393107
 21
-3.6510182698
  0
LINE
  5
33D
100
AcDbEntity
  8
RACCORDO
100
AcDbLine
 62
253
  6
CONTINUOUS
 10
-59.8991862609
 20
-3.5239590572
 11
-58.2969627901
 21
-3.5239590572
  0
LINE
  5
33E
100
AcDbEntity
  8
RACCORDO
100
AcDbLine
 62
253
  6
CONTINUOUS
 10
58.2969627901
 20
-3.5239590572
 11
59.8991862609
 21
-3.5239590572
  0
LINE
  5
33F
100
AcDbEntity
  8
RACCORDO
100
AcDbLine
 62
253
  6
CONTINUOUS
 10
-59.8865151358
 20
-3.2251006478
 11
-58.284296166
 21
-3.2251006478
  0
LINE
  5
340
100
AcDbEntity
  8
RACCORDO
100
AcDbLine
 62
253
  6
CONTINUOUS
 10
58.284296166
 20
-3.2251006478
 11
59.8865151358
 21
-3.2251006478
  0
LINE
  5
341
100
AcDbEntity
  8
RACCORDO
100
AcDbLine
 62
7
  6
CONTINUOUS
 10
-47.4
 20
-0.3821948819
 11
-42.5108579754
 21
-0.3821948819
  0
LINE
  5
342
100
AcDbEntity
  8
RACCORDO
100
AcDbLine
 62
7
  6
CONTINUOUS
 10
42.5108579754
 20
-0.3821948819
 11
47.4
 21
-0.3821948819
  0
LINE
  5
343
100
AcDbEntity
  8
RACCORDO
100
AcDbLine
 62
7
  6
CONTINUOUS
 10
-58.2928838007
 20
-0.354268905
 11
-55.5064385017
 21
-0.354268905
  0
LINE
  5
344
100
AcDbEntity
  8
RACCORDO
100
AcDbLine
 62
7
  6
CONTINUOUS
 10
55.5064385017
 20
-0.354268905
 11
58.2928838007
 21
-0.354268905
  0
LINE
  5
345
100
AcDbEntity
  8
RACCORDO
100
AcDbLine
 62
253
  6
CONTINUOUS
 10
54.999101391
 20
0.0000000104
 11
47.795093951
 21
0.0000000073
  0
LINE
  5
346
100
AcDbEntity
  8
0
100
AcDbLine
 62
253
  6
CONTINUOUS
 10
-42.5118024065
 20
-0.0000000041
 11
-24.26169806
 21
-0.000001665
  0
LINE
  5
347
100
AcDbEntity
  8
0
100
AcDbLine
 62
253
  6
CONTINUOUS
 10
42.5118024065
 20
0.0000000041
 11
24.26169806
 21
0.000001665
  0
LINE
  5
348
100
AcDbEntity
  8
RACCORDO
100
AcDbLine
 62
253
  6
CONTINUOUS
 10
-47.795093951
 20
-0.0000000073
 11
-54.999101391
 21
-0.0000000104
  0
LINE
  5
349
100
AcDbEntity
  8
RACCORDO
100
AcDbLine
 62
7
  6
CONTINUOUS
 10
-58.2928838007
 20
0.354268905
 11
-55.5064385017
 21
0.354268905
  0
LINE
  5
34A
100
AcDbEntity
  8
RACCORDO
100
AcDbLine
 62
7
  6
CONTINUOUS
 10
58.2928838007
 20
0.354268905
 11
55.5064385017
 21
0.354268905
  0
LINE
  5
34B
100
AcDbEntity
  8
RACCORDO
100
AcDbLine
 62
7
  6
CONTINUOUS
 10
-47.4
 20
0.3821948819
 11
-42.5108579754
 21
0.3821948819
  0
LINE
  5
34C
100
AcDbEntity
  8
RACCORDO
100
AcDbLine
 62
7
  6
CONTINUOUS
 10
47.4
 20
0.3821948819
 11
42.5108579754
 21
0.3821948819
  0
LINE
  5
34D
100
AcDbEntity
  8
DRAFT
100
AcDbLine
 62
7
  6
CONTINUOUS
 10
24.2613930097
 20
-0.3916207834
 11
25.8889675662
 21
-0.4015662707
  0
LINE
  5
34E
100
AcDbEntity
  8
DRAFT
100
AcDbLine
 62
7
  6
CONTINUOUS
 10
-24.2613930097
 20
0.3916207834
 11
-25.8889675662
 21
0.4015662707
  0
LINE
  5
34F
100
AcDbEntity
  8
RACCORDO
100
AcDbLine
 62
7
  6
CONTINUOUS
 10
-55.0022072492
 20
22.5392902751
 11
-55.041424784
 21
22.5588975491
  0
LINE
  5
350
100
AcDbEntity
  8
RACCORDO
100
AcDbLine
 62
253
  6
CONTINUOUS
 10
22.5931200617
 20
-24.0928961209
 11
22.60318116
 21
-24.1029527027
  0
LINE
  5
351
100
AcDbEntity
  8
RACCORDO
100
AcDbLine
 62
253
  6
CONTINUOUS
 10
23.1411035269
 20
-24.0014681814
 11
24.2133520542
 21
-25.0737167087
  0
LINE
  5
352
100
AcDbEntity
  8
RACCORDO
100
AcDbLine
 62
253
  6
CONTINUOUS
 10
-24.1513127796
 20
23.290948125
 11
-25.089276948
 21
24.2289122935
  0
LINE
  5
353
100
AcDbEntity
  8
RACCORDO
100
AcDbLine
 62
253
  6
CONTINUOUS
 10
22.1888800457
 20
-22.5888189223
 11
22.1800609219
 21
-22.58
  0
LINE
  5
354
100
AcDbEntity
  8
RACCORDO
100
AcDbLine
 62
253
  6
CONTINUOUS
 10
-22.5888189223
 20
22.1888785539
 11
-22.58
 21
22.1800609219
  0
LINE
  5
355
100
AcDbEntity
  8
RACCORDO
100
AcDbLine
 62
253
  6
CONTINUOUS
 10
22.5888189223
 20
-22.1888785539
 11
22.58
 21
-22.1800609219
  0
LINE
  5
356
100
AcDbEntity
  8
RACCORDO
100
AcDbLine
 62
253
  6
CONTINUOUS
 10
-22.1888800457
 20
22.5888189223
 11
-22.1800609219
 21
22.58
  0
LINE
  5
357
100
AcDbEntity
  8
RACCORDO
100
AcDbLine
 62
253
  6
CONTINUOUS
 10
24.1513127796
 20
-23.290948125
 11
25.089276948
 21
-24.2289122935
  0
LINE
  5
358
100
AcDbEntity
  8
RACCORDO
100
AcDbLine
 62
253
  6
CONTINUOUS
 10
-23.1411035269
 20
24.0014681814
 11
-24.2133520542
 21
25.0737167087
  0
LINE
  5
359
100
AcDbEntity
  8
RACCORDO
100
AcDbLine
 62
253
  6
CONTINUOUS
 10
-24.0928961209
 20
22.5931205084
 11
-24.0936121457
 21
22.593840603
  0
LINE
  5
35A
100
AcDbEntity
  8
0
100
AcDbLine
 62
7
  6
CONTINUOUS
 10
16.431735
 20
-31.172579
 11
17.377382
 21
-32.675
  0
LINE
  5
35B
100
AcDbEntity
  8
0
100
AcDbLine
 62
7
  6
CONTINUOUS
 10
17.416043
 20
-32.327726
 11
16.485806
 21
-30.825
  0
LINE
  5
35C
100
AcDbEntity
  8
0
100
AcDbLine
 62
7
  6
CONTINUOUS
 10
-18.179095
 20
33.727196
 11
-17.394359
 21
31.617679
  0
LINE
  5
35D
100
AcDbEntity
  8
0
100
AcDbLine
 62
7
  6
CONTINUOUS
 10
10.948479
 20
-32.675
 11
10.278589
 21
-30.825
  0
LINE
  5
35E
100
AcDbEntity
  8
0
100
AcDbLine
 62
7
  6
CONTINUOUS
 10
10.492405
 20
-32.136533
 11
10.675325
 21
-32.675
  0
LINE
  5
35F
100
AcDbEntity
  8
0
100
AcDbLine
 62
7
  6
CONTINUOUS
 10
8.194016
 20
-32.396609
 11
7.663247
 21
-30.825
  0
LINE
  5
360
100
AcDbEntity
  8
0
100
AcDbLine
 62
7
  6
CONTINUOUS
 10
7.547274
 20
-31.123783
 11
8.067792
 21
-32.675
  0
LINE
  5
361
100
AcDbEntity
  8
0
100
AcDbLine
 62
7
  6
CONTINUOUS
 10
10.126669
 20
-31.09334
 11
10.402291
 21
-31.914951
  0
LINE
  5
362
100
AcDbEntity
  8
0
100
AcDbLine
 62
7
  6
CONTINUOUS
 10
-13.377676
 20
33.727196
 11
-12.211882
 21
29.927654
  0
LINE
  5
363
100
AcDbEntity
  8
0
100
AcDbLine
 62
7
  6
CONTINUOUS
 10
-13.047791
 20
29.927654
 11
-13.25325
 21
30.686178
  0
LINE
  5
364
100
AcDbEntity
  8
0
100
AcDbLine
 62
7
  6
CONTINUOUS
 10
-13.411753
 20
31.27312
 11
-13.776199
 21
32.683179
  0
LINE
  5
365
100
AcDbEntity
  8
0
100
AcDbLine
 62
7
  6
CONTINUOUS
 10
3.0
 20
-35.0
 11
3.0
 21
-28.5
  0
LINE
  5
366
100
AcDbEntity
  8
0
100
AcDbLine
 62
7
  6
CONTINUOUS
 10
3.0
 20
28.5
 11
3.0
 21
35.0
  0
LINE
  5
367
100
AcDbEntity
  8
0
100
AcDbLine
 62
7
  6
CONTINUOUS
 10
4.0541129
 20
30.1000002337
 11
4.0541129
 21
33.3999997663
  0
LINE
  5
368
100
AcDbEntity
  8
0
100
AcDbLine
 62
7
  6
CONTINUOUS
 10
4.4700771071
 20
32.7483102152
 11
4.4700771071
 21
30.1000002337
  0
LINE
  5
369
100
AcDbEntity
  8
0
100
AcDbLine
 62
7
  6
CONTINUOUS
 10
6.2679838851
 20
30.7239465445
 11
6.2679838851
 21
33.3999997663
  0
LINE
  5
36A
100
AcDbEntity
  8
0
100
AcDbLine
 62
7
  6
CONTINUOUS
 10
6.6839772078
 20
33.3999997663
 11
6.6839772078
 21
30.1000002337
  0
LINE
  5
36B
100
AcDbEntity
  8
0
100
AcDbLine
 62
7
  6
CONTINUOUS
 10
7.305084
 20
-30.825
 11
7.305084
 21
-32.675
  0
LINE
  5
36C
100
AcDbEntity
  8
0
100
AcDbLine
 62
7
  6
CONTINUOUS
 10
7.547274
 20
-32.675
 11
7.547274
 21
-31.123783
  0
LINE
  5
36D
100
AcDbEntity
  8
DRAFT
100
AcDbLine
 62
7
  6
CONTINUOUS
 10
0.3930559142
 20
-38.0599822418
 11
0.3368151694
 21
-38.3977474331
  0
LINE
  5
36E
100
AcDbEntity
  8
0
100
AcDbLine
 62
7
  6
CONTINUOUS
 10
17.9041666698
 20
32.4148936868
 11
17.8520833349
 21
32.2553190887
  0
LINE
  5
36F
100
AcDbEntity
  8
0
100
AcDbLine
 62
7
  6
CONTINUOUS
 10
11.6985043373
 20
30.5390724851
 11
12.6505518791
 21
33.3999997663
  0
LINE
  5
370
100
AcDbEntity
  8
0
100
AcDbLine
 62
7
  6
CONTINUOUS
 10
13.1081610329
 20
33.3999997663
 11
11.9341695092
 21
30.1000002337
  0
LINE
  5
371
100
AcDbEntity
  8
0
100
AcDbLine
 62
7
  6
CONTINUOUS
 10
20.1958332837
 20
32.5744681358
 11
20.0916667163
 21
32.3085105717
  0
LINE
  5
372
100
AcDbEntity
  8
0
100
AcDbLine
 62
7
  6
CONTINUOUS
 10
18.0083333395
 20
32.6276596189
 11
17.9041666698
 21
32.4148936868
  0
LINE
  5
373
100
AcDbEntity
  8
0
100
AcDbLine
 62
7
  6
CONTINUOUS
 10
19.4666667163
 20
30.8723404184
 11
19.5708332837
 21
31.0851063877
  0
LINE
  5
374
100
AcDbEntity
  8
0
100
AcDbLine
 62
7
  6
CONTINUOUS
 10
-11.7728790636
 20
-33.1270221132
 11
-11.9646758237
 21
-33.4687406859
  0
LINE
  5
375
100
AcDbEntity
  8
0
100
AcDbLine
 62
7
  6
CONTINUOUS
 10
21.6020834327
 20
31.0851063877
 11
21.4979165673
 21
30.9255319014
  0
LINE
  5
376
100
AcDbEntity
  8
0
100
AcDbLine
 62
7
  6
CONTINUOUS
 10
22.7479165673
 20
32.4148936868
 11
22.8520831347
 21
32.5744681358
  0
LINE
  5
377
100
AcDbEntity
  8
0
100
AcDbLine
 62
7
  6
CONTINUOUS
 10
23.9458331347
 20
31.0851063877
 11
23.8416668653
 21
30.9255319014
  0
LINE
  5
378
100
AcDbEntity
  8
0
100
AcDbLine
 62
7
  6
CONTINUOUS
 10
23.9979168653
 20
30.7127659507
 11
24.1541668653
 21
30.9255319014
  0
LINE
  5
379
100
AcDbEntity
  8
RACCORDO
100
AcDbLine
 62
253
  6
CONTINUOUS
 10
24.0928961209
 20
22.5931200617
 11
24.0936121457
 21
22.593840603
  0
LINE
  5
37A
100
AcDbEntity
  8
DRAFT
100
AcDbLine
 62
7
  6
CONTINUOUS
 10
32.5158431844
 20
22.5158431844
 11
32.5052852428
 21
22.5052852428
  0
LINE
  5
37B
100
AcDbEntity
  8
DRAFT
100
AcDbLine
 62
7
  6
CONTINUOUS
 10
33.2836490176
 20
23.2836490176
 11
33.294073536
 21
23.294073536
  0
LINE
  5
37C
100
AcDbEntity
  8
RACCORDO
100
AcDbLine
 62
253
  6
CONTINUOUS
 10
23.7301340419
 20
13.6940524024
 11
23.7862742984
 21
13.7501926589
  0
LINE
  5
37D
100
AcDbEntity
  8
RACCORDO
100
AcDbLine
 62
253
  6
CONTINUOUS
 10
24.0300883504
 20
13.3940980938
 11
24.0928961209
 21
13.4569058643
  0
LINE
  5
37E
100
AcDbEntity
  8
RACCORDO
100
AcDbLine
 62
253
  6
CONTINUOUS
 10
-22.60318116
 20
-24.1029527027
 11
-22.5931200617
 21
-24.0928961209
  0
LINE
  5
37F
100
AcDbEntity
  8
RACCORDO
100
AcDbLine
 62
7
  6
CONTINUOUS
 10
55.0022072492
 20
22.5392902751
 11
55.041424784
 21
22.5588975491
  0
LINE
  5
380
100
AcDbEntity
  8
RACCORDO
100
AcDbLine
 62
253
  6
CONTINUOUS
 10
-59.8865151358
 20
3.2251006478
 11
-58.284296166
 21
3.2251006478
  0
LINE
  5
381
100
AcDbEntity
  8
RACCORDO
100
AcDbLine
 62
253
  6
CONTINUOUS
 10
58.284296166
 20
3.2251006478
 11
59.8865151358
 21
3.2251006478
  0
LINE
  5
382
100
AcDbEntity
  8
RACCORDO
100
AcDbLine
 62
253
  6
CONTINUOUS
 10
-59.8991862609
 20
3.5239590572
 11
-58.2969627901
 21
3.5239590572
  0
LINE
  5
383
100
AcDbEntity
  8
RACCORDO
100
AcDbLine
 62
253
  6
CONTINUOUS
 10
58.2969627901
 20
3.5239590572
 11
59.8991862609
 21
3.5239590572
  0
LINE
  5
384
100
AcDbEntity
  8
RACCORDO
100
AcDbLine
 62
253
  6
CONTINUOUS
 10
-59.9745393107
 20
3.6510182698
 11
-58.3723138127
 21
3.6510182698
  0
LINE
  5
385
100
AcDbEntity
  8
RACCORDO
100
AcDbLine
 62
253
  6
CONTINUOUS
 10
58.3723138127
 20
3.6510182698
 11
59.9745393107
 21
3.6510182698
  0
LINE
  5
386
100
AcDbEntity
  8
RACCORDO
100
AcDbLine
 62
253
  6
CONTINUOUS
 10
-59.9869985877
 20
3.9498766793
 11
-58.3847680223
 21
3.9498766793
  0
LINE
  5
387
100
AcDbEntity
  8
RACCORDO
100
AcDbLine
 62
253
  6
CONTINUOUS
 10
58.3847680223
 20
3.9498766793
 11
59.9869985877
 21
3.9498766793
  0
LINE
  5
388
100
AcDbEntity
  8
RACCORDO
100
AcDbLine
 62
7
  6
CONTINUOUS
 10
55.0022072492
 20
-22.5392902751
 11
55.041424784
 21
-22.5588975491
  0
LINE
  5
389
100
AcDbEntity
  8
RACCORDO
100
AcDbLine
 62
253
  6
CONTINUOUS
 10
-22.5931200617
 20
24.0928961209
 11
-22.60318116
 21
24.1029527027
  0
LINE
  5
38A
100
AcDbEntity
  8
DRAFT
100
AcDbLine
 62
7
  6
CONTINUOUS
 10
32.5158431844
 20
-22.5158431844
 11
32.5052852428
 21
-22.5052852428
  0
LINE
  5
38B
100
AcDbEntity
  8
DRAFT
100
AcDbLine
 62
7
  6
CONTINUOUS
 10
33.2836490176
 20
-23.2836490176
 11
33.294073536
 21
-23.294073536
  0
LINE
  5
38C
100
AcDbEntity
  8
RACCORDO
100
AcDbLine
 62
253
  6
CONTINUOUS
 10
24.0928961209
 20
-22.5931205084
 11
24.0936121457
 21
-22.593840603
  0
LINE
  5
38D
100
AcDbEntity
  8
0
100
AcDbLine
 62
7
  6
CONTINUOUS
 10
24.048394
 20
-30.825
 11
24.746651
 21
-31.930362
  0
LINE
  5
38E
100
AcDbEntity
  8
0
100
AcDbLine
 62
7
  6
CONTINUOUS
 10
24.870384
 20
-31.714017
 11
24.339546
 21
-30.825
  0
LINE
  5
38F
100
AcDbEntity
  8
DRAFT
100
AcDbLine
 62
7
  6
CONTINUOUS
 10
0.3368151694
 20
38.3977474331
 11
0.3930559142
 21
38.0599822418
  0
LINE
  5
390
100
AcDbEntity
  8
0
100
AcDbLine
 62
7
  6
CONTINUOUS
 10
7.6036191385
 20
30.1000002337
 11
7.6036191385
 21
33.3999997663
  0
LINE
  5
391
100
AcDbEntity
  8
0
100
AcDbLine
 62
7
  6
CONTINUOUS
 10
8.04269139
 20
33.0302535887
 11
8.04269139
 21
31.9810765606
  0
LINE
  5
392
100
AcDbEntity
  8
0
100
AcDbLine
 62
7
  6
CONTINUOUS
 10
8.04269139
 20
31.611330383
 11
8.04269139
 21
30.4697464113
  0
LINE
  5
393
100
AcDbEntity
  8
0
100
AcDbLine
 62
7
  6
CONTINUOUS
 10
8.835574
 20
-31.121239
 11
8.835574
 21
-32.675
  0
LINE
  5
394
100
AcDbEntity
  8
0
100
AcDbLine
 62
7
  6
CONTINUOUS
 10
9.077862
 20
-32.675
 11
9.077862
 21
-30.825
  0
LINE
  5
395
100
AcDbEntity
  8
0
100
AcDbLine
 62
7
  6
CONTINUOUS
 10
9.7573995033
 20
31.9810765606
 11
9.7573995033
 21
31.611330383
  0
LINE
  5
396
100
AcDbEntity
  8
0
100
AcDbLine
 62
7
  6
CONTINUOUS
 10
9.8821829424
 20
33.3999997663
 11
9.8821829424
 21
33.0302535887
  0
LINE
  5
397
100
AcDbEntity
  8
0
100
AcDbLine
 62
7
  6
CONTINUOUS
 10
9.8960535921
 20
30.4697464113
 11
9.8960535921
 21
30.1000002337
  0
LINE
  5
398
100
AcDbEntity
  8
0
100
AcDbLine
 62
7
  6
CONTINUOUS
 10
11.190662
 20
-30.825
 11
11.190662
 21
-32.675
  0
LINE
  5
399
100
AcDbEntity
  8
0
100
AcDbLine
 62
7
  6
CONTINUOUS
 10
11.44067
 20
-32.461199
 11
11.44067
 21
-31.038801
  0
LINE
  5
39A
100
AcDbEntity
  8
0
100
AcDbLine
 62
7
  6
CONTINUOUS
 10
13.063927
 20
-30.825
 11
13.063927
 21
-32.675
  0
LINE
  5
39B
100
AcDbEntity
  8
0
100
AcDbLine
 62
7
  6
CONTINUOUS
 10
13.31392
 20
-32.453419
 11
13.31392
 21
-31.835057
  0
LINE
  5
39C
100
AcDbEntity
  8
0
100
AcDbLine
 62
7
  6
CONTINUOUS
 10
13.31392
 20
-31.613476
 11
13.31392
 21
-31.046581
  0
LINE
  5
39D
100
AcDbEntity
  8
0
100
AcDbLine
 62
7
  6
CONTINUOUS
 10
13.6673524117
 20
30.1000002337
 11
13.6673524117
 21
33.3999997663
  0
LINE
  5
39E
100
AcDbEntity
  8
0
100
AcDbLine
 62
7
  6
CONTINUOUS
 10
14.1064266042
 20
33.0302535887
 11
14.1064266042
 21
31.9810765606
  0
LINE
  5
39F
100
AcDbEntity
  8
0
100
AcDbLine
 62
7
  6
CONTINUOUS
 10
14.1064266042
 20
31.611330383
 11
14.1064266042
 21
30.4697464113
  0
LINE
  5
3A0
100
AcDbEntity
  8
0
100
AcDbLine
 62
7
  6
CONTINUOUS
 10
18.0604166605
 20
31.9361701906
 11
18.1125
 21
32.2553190887
  0
LINE
  5
3A1
100
AcDbEntity
  8
0
100
AcDbLine
 62
7
  6
CONTINUOUS
 10
19.4145832837
 20
31.5638298094
 11
19.3625
 21
31.2446808368
  0
LINE
  5
3A2
100
AcDbEntity
  8
0
100
AcDbLine
 62
7
  6
CONTINUOUS
 10
17.8520833349
 20
32.2553190887
 11
17.8
 21
31.9893616736
  0
LINE
  5
3A3
100
AcDbEntity
  8
0
100
AcDbLine
 62
7
  6
CONTINUOUS
 10
19.6229167163
 20
31.2446808368
 11
19.675
 21
31.5106383264
  0
LINE
  5
3A4
100
AcDbEntity
  8
0
100
AcDbLine
 62
7
  6
CONTINUOUS
 10
19.5708332837
 20
31.0851063877
 11
19.6229167163
 21
31.2446808368
  0
LINE
  5
3A5
100
AcDbEntity
  8
0
100
AcDbLine
 62
7
  6
CONTINUOUS
 10
20.3520834327
 20
32.2553190887
 11
20.4041665673
 21
32.4148936868
  0
LINE
  5
3A6
100
AcDbEntity
  8
0
100
AcDbLine
 62
7
  6
CONTINUOUS
 10
21.6541665673
 20
32.1489361227
 11
21.6020834327
 21
31.9893616736
  0
LINE
  5
3A7
100
AcDbEntity
  8
0
100
AcDbLine
 62
7
  6
CONTINUOUS
 10
21.6541665673
 20
31.2446808368
 11
21.6020834327
 21
31.0851063877
  0
LINE
  5
3A8
100
AcDbEntity
  8
0
100
AcDbLine
 62
7
  6
CONTINUOUS
 10
22.6958334327
 20
32.2553190887
 11
22.7479165673
 21
32.4148936868
  0
LINE
  5
3A9
100
AcDbEntity
  8
0
100
AcDbLine
 62
7
  6
CONTINUOUS
 10
22.6958334327
 20
31.4042552859
 11
22.7479165673
 21
31.5638298094
  0
LINE
  5
3AA
100
AcDbEntity
  8
0
100
AcDbLine
 62
7
  6
CONTINUOUS
 10
23.9979168653
 20
31.2446808368
 11
23.9458331347
 21
31.0851063877
  0
LINE
  5
3AB
100
AcDbEntity
  8
0
100
AcDbLine
 62
7
  6
CONTINUOUS
 10
21.8104165673
 20
30.9255319014
 11
21.9145834327
 21
31.1914893538
  0
LINE
  5
3AC
100
AcDbEntity
  8
0
100
AcDbLine
 62
7
  6
CONTINUOUS
 10
22.5395834327
 20
32.5744681358
 11
22.4354165673
 21
32.3085105717
  0
LINE
  5
3AD
100
AcDbEntity
  8
0
100
AcDbLine
 62
7
  6
CONTINUOUS
 10
24.1541668653
 20
30.9255319014
 11
24.2583331347
 21
31.1914893538
  0
LINE
  5
3AE
100
AcDbEntity
  8
0
100
AcDbLine
 62
7
  6
CONTINUOUS
 10
28.7375
 20
32.7340425849
 11
27.6958331347
 21
30.5
  0
LINE
  5
3AF
100
AcDbEntity
  8
0
100
AcDbLine
 62
7
  6
CONTINUOUS
 10
28.0083337307
 20
30.5
 11
29.05
 21
32.7340425849
  0
LINE
  5
3B0
100
AcDbEntity
  8
DRAFT
100
AcDbLine
 62
7
  6
CONTINUOUS
 10
-0.3906526151
 20
-24.1029527027
 11
-0.387367066
 21
-24.0963811041
  0
LINE
  5
3B1
100
AcDbEntity
  8
0
100
AcDbLine
 62
7
  6
CONTINUOUS
 10
-9.27364
 20
-34.67078
 11
-9.491068
 21
-34.979018
  0
LINE
  5
3B2
100
AcDbEntity
  8
RACCORDO
100
AcDbLine
 62
253
  6
CONTINUOUS
 10
22.6499116496
 20
9.1059019062
 11
22.5888189223
 21
9.0448091789
  0
LINE
  5
3B3
100
AcDbEntity
  8
RACCORDO
100
AcDbLine
 62
253
  6
CONTINUOUS
 10
22.9498659581
 20
8.8059475976
 11
22.8939183605
 21
8.75
  0
LINE
  5
3B4
100
AcDbEntity
  8
DRAFT
100
AcDbLine
 62
7
  6
CONTINUOUS
 10
-58.2928838007
 20
0.354268905
 11
-58.1105856609
 21
0.3846218009
  0
LINE
  5
3B5
100
AcDbEntity
  8
RACCORDO
100
AcDbLine
 62
7
  6
CONTINUOUS
 10
23.6929570428
 20
8.75
 11
22.8939183605
 21
8.75
  0
LINE
  5
3B6
100
AcDbEntity
  8
RACCORDO
100
AcDbLine
 62
253
  6
CONTINUOUS
 10
22.9498659581
 20
8.8059475976
 11
23.7301340419
 21
8.8059475976
  0
LINE
  5
3B7
100
AcDbEntity
  8
RACCORDO
100
AcDbLine
 62
253
  6
CONTINUOUS
 10
22.6499116496
 20
9.1059019062
 11
24.0300883504
 21
9.1059019062
  0
LINE
  5
3B8
100
AcDbEntity
  8
RACCORDO
100
AcDbLine
 62
253
  6
CONTINUOUS
 10
22.6499116496
 20
13.3940980938
 11
24.0300883504
 21
13.3940980938
  0
LINE
  5
3B9
100
AcDbEntity
  8
RACCORDO
100
AcDbLine
 62
253
  6
CONTINUOUS
 10
23.7301340419
 20
13.6940524024
 11
22.9498659581
 21
13.6940524024
  0
LINE
  5
3BA
100
AcDbEntity
  8
RACCORDO
100
AcDbLine
 62
7
  6
CONTINUOUS
 10
23.6929570428
 20
13.75
 11
22.8939183605
 21
13.75
  0
LINE
  5
3BB
100
AcDbEntity
  8
DRAFT
100
AcDbLine
 62
7
  6
CONTINUOUS
 10
58.1105856609
 20
0.3846218009
 11
58.2928838007
 21
0.354268905
  0
LINE
  5
3BC
100
AcDbEntity
  8
DRAFT
100
AcDbLine
 62
7
  6
CONTINUOUS
 10
-0.387367066
 20
24.0963811041
 11
-0.3906526151
 21
24.1029527027
  0
LINE
  5
3BD
100
AcDbEntity
  8
0
100
AcDbLine
 62
7
  6
CONTINUOUS
 10
22.546251
 20
-32.675
 11
21.876226
 21
-30.825
  0
LINE
  5
3BE
100
AcDbEntity
  8
0
100
AcDbLine
 62
7
  6
CONTINUOUS
 10
22.090117
 20
-32.136533
 11
22.273052
 21
-32.675
  0
LINE
  5
3BF
100
AcDbEntity
  8
0
100
AcDbLine
 62
7
  6
CONTINUOUS
 10
21.724277
 20
-31.09334
 11
21.999914
 21
-31.914951
  0
LINE
  5
3C0
100
AcDbEntity
  8
0
100
AcDbLine
 62
7
  6
CONTINUOUS
 10
14.326536
 20
-31.835057
 11
14.326536
 21
-31.613476
  0
LINE
  5
3C1
100
AcDbEntity
  8
0
100
AcDbLine
 62
7
  6
CONTINUOUS
 10
14.411562
 20
-31.046581
 11
14.411562
 21
-30.825
  0
LINE
  5
3C2
100
AcDbEntity
  8
0
100
AcDbLine
 62
7
  6
CONTINUOUS
 10
14.429621
 20
-32.675
 11
14.429621
 21
-32.453419
  0
LINE
  5
3C3
100
AcDbEntity
  8
0
100
AcDbLine
 62
7
  6
CONTINUOUS
 10
15.511852
 20
-30.825
 11
15.511852
 21
-32.675
  0
LINE
  5
3C4
100
AcDbEntity
  8
0
100
AcDbLine
 62
7
  6
CONTINUOUS
 10
15.76177
 20
-32.675
 11
15.76177
 21
-30.825
  0
LINE
  5
3C5
100
AcDbEntity
  8
0
100
AcDbLine
 62
7
  6
CONTINUOUS
 10
15.8211948897
 20
31.9810765606
 11
15.8211948897
 21
31.611330383
  0
LINE
  5
3C6
100
AcDbEntity
  8
0
100
AcDbLine
 62
7
  6
CONTINUOUS
 10
15.9458871
 20
33.3999997663
 11
15.9458871
 21
33.0302535887
  0
LINE
  5
3C7
100
AcDbEntity
  8
0
100
AcDbLine
 62
7
  6
CONTINUOUS
 10
15.9598489784
 20
30.4697464113
 11
15.9598489784
 21
30.1000002337
  0
LINE
  5
3C8
100
AcDbEntity
  8
0
100
AcDbLine
 62
7
  6
CONTINUOUS
 10
16.189432
 20
-30.825
 11
16.189432
 21
-32.675
  0
LINE
  5
3C9
100
AcDbEntity
  8
0
100
AcDbLine
 62
7
  6
CONTINUOUS
 10
16.431735
 20
-32.675
 11
16.431735
 21
-31.172579
  0
LINE
  5
3CA
100
AcDbEntity
  8
0
100
AcDbLine
 62
7
  6
CONTINUOUS
 10
17.416043
 20
-30.825
 11
17.416043
 21
-32.327726
  0
LINE
  5
3CB
100
AcDbEntity
  8
0
100
AcDbLine
 62
7
  6
CONTINUOUS
 10
17.658226
 20
-32.675
 11
17.658226
 21
-30.825
  0
LINE
  5
3CC
100
AcDbEntity
  8
0
100
AcDbLine
 62
7
  6
CONTINUOUS
 10
17.8
 20
31.9893616736
 11
17.8
 21
31.5106383264
  0
LINE
  5
3CD
100
AcDbEntity
  8
0
100
AcDbLine
 62
7
  6
CONTINUOUS
 10
18.0604166605
 20
31.5638298094
 11
18.0604166605
 21
31.9361701906
  0
LINE
  5
3CE
100
AcDbEntity
  8
0
100
AcDbLine
 62
7
  6
CONTINUOUS
 10
18.804792
 20
-30.825
 11
18.804792
 21
-32.675
  0
LINE
  5
3CF
100
AcDbEntity
  8
0
100
AcDbLine
 62
7
  6
CONTINUOUS
 10
19.054785
 20
-32.675
 11
19.054785
 21
-30.825
  0
LINE
  5
3D0
100
AcDbEntity
  8
0
100
AcDbLine
 62
7
  6
CONTINUOUS
 10
19.322762
 20
-30.825
 11
19.322762
 21
-31.046581
  0
LINE
  5
3D1
100
AcDbEntity
  8
0
100
AcDbLine
 62
7
  6
CONTINUOUS
 10
19.4145832837
 20
31.9361701906
 11
19.4145832837
 21
31.5638298094
  0
LINE
  5
3D2
100
AcDbEntity
  8
0
100
AcDbLine
 62
7
  6
CONTINUOUS
 10
19.675
 20
31.5106383264
 11
19.675
 21
31.9893616736
  0
LINE
  5
3D3
100
AcDbEntity
  8
0
100
AcDbLine
 62
7
  6
CONTINUOUS
 10
19.948905
 20
-31.046581
 11
19.948905
 21
-32.675
  0
LINE
  5
3D4
100
AcDbEntity
  8
0
100
AcDbLine
 62
7
  6
CONTINUOUS
 10
20.0916667163
 20
32.3085105717
 11
20.0916667163
 21
32.0957446396
  0
LINE
  5
3D5
100
AcDbEntity
  8
0
100
AcDbLine
 62
7
  6
CONTINUOUS
 10
20.198808
 20
-32.675
 11
20.198808
 21
-31.046581
  0
LINE
  5
3D6
100
AcDbEntity
  8
0
100
AcDbLine
 62
7
  6
CONTINUOUS
 10
20.3520834327
 20
32.1489361227
 11
20.3520834327
 21
32.2553190887
  0
LINE
  5
3D7
100
AcDbEntity
  8
0
100
AcDbLine
 62
7
  6
CONTINUOUS
 10
20.82495
 20
-31.046581
 11
20.82495
 21
-30.825
  0
LINE
  5
3D8
100
AcDbEntity
  8
0
100
AcDbLine
 62
7
  6
CONTINUOUS
 10
21.9145834327
 20
31.1914893538
 11
21.9666665673
 21
31.5638298094
  0
LINE
  5
3D9
100
AcDbEntity
  8
0
100
AcDbLine
 62
7
  6
CONTINUOUS
 10
22.4354165673
 20
32.3085105717
 11
22.3833334327
 21
31.9361701906
  0
LINE
  5
3DA
100
AcDbEntity
  8
0
100
AcDbLine
 62
7
  6
CONTINUOUS
 10
21.70625
 20
31.5638298094
 11
21.6541665673
 21
31.2446808368
  0
LINE
  5
3DB
100
AcDbEntity
  8
0
100
AcDbLine
 62
7
  6
CONTINUOUS
 10
22.64375
 20
31.9361701906
 11
22.6958334327
 21
32.2553190887
  0
LINE
  5
3DC
100
AcDbEntity
  8
0
100
AcDbLine
 62
7
  6
CONTINUOUS
 10
8.315156
 20
-32.675
 11
8.835574
 21
-31.121239
  0
LINE
  5
3DD
100
AcDbEntity
  8
0
100
AcDbLine
 62
7
  6
CONTINUOUS
 10
8.72224
 20
-30.825
 11
8.194016
 21
-32.396609
  0
LINE
  5
3DE
100
AcDbEntity
  8
0
100
AcDbLine
 62
7
  6
CONTINUOUS
 10
9.557096
 20
-32.675
 11
9.75037
 21
-32.136533
  0
LINE
  5
3DF
100
AcDbEntity
  8
0
100
AcDbLine
 62
7
  6
CONTINUOUS
 10
9.827692
 20
-31.914951
 11
10.126669
 21
-31.09334
  0
LINE
  5
3E0
100
AcDbEntity
  8
0
100
AcDbLine
 62
7
  6
CONTINUOUS
 10
9.995112
 20
-30.825
 11
9.299458
 21
-32.675
  0
LINE
  5
3E1
100
AcDbEntity
  8
RACCORDO
100
AcDbLine
 62
7
  6
CONTINUOUS
 10
32.5292251989
 20
32.3820755635
 11
32.5588975491
 21
32.441424784
  0
LINE
  5
3E2
100
AcDbEntity
  8
RACCORDO
100
AcDbLine
 62
7
  6
CONTINUOUS
 10
0.3737600225
 20
-32.3761046662
 11
0.3411024509
 21
-32.441424784
  0
LINE
  5
3E3
100
AcDbEntity
  8
0
100
AcDbLine
 62
7
  6
CONTINUOUS
 10
-10.775296
 20
-31.341613
 11
-9.6062206076
 21
-30.3564256693
  0
LINE
  5
3E4
100
AcDbEntity
  8
0
100
AcDbLine
 62
7
  6
CONTINUOUS
 10
-9.6604641003
 20
-30.9138330845
 11
-10.775296
 21
-31.853309
  0
LINE
  5
3E5
100
AcDbEntity
  8
DRAFT
100
AcDbLine
 62
7
  6
CONTINUOUS
 10
-54.7
 20
14.5422741652
 11
-55.85
 21
14.52489148
  0
LINE
  5
3E6
100
AcDbEntity
  8
DRAFT
100
AcDbLine
 62
7
  6
CONTINUOUS
 10
55.85
 20
20.47510852
 11
54.7
 21
20.4577258348
  0
LINE
  5
3E7
100
AcDbEntity
  8
DRAFT
100
AcDbLine
 62
7
  6
CONTINUOUS
 10
54.7
 20
15.2705944681
 11
58.2021453609
 21
15.3011572277
  0
LINE
  5
3E8
100
AcDbEntity
  8
DRAFT
100
AcDbLine
 62
7
  6
CONTINUOUS
 10
54.7
 20
17.8705944681
 11
58.1300052965
 21
17.9005276709
  0
LINE
  5
3E9
100
AcDbEntity
  8
DRAFT
100
AcDbLine
 62
7
  6
CONTINUOUS
 10
-58.1534949931
 20
17.0976183859
 11
-54.7
 21
17.1277565801
  0
LINE
  5
3EA
100
AcDbEntity
  8
DRAFT
100
AcDbLine
 62
7
  6
CONTINUOUS
 10
-58.0734975348
 20
19.6983165132
 11
-54.7
 21
19.7277565801
  0
LINE
  5
3EB
100
AcDbEntity
  8
DRAFT
100
AcDbLine
 62
7
  6
CONTINUOUS
 10
54.7
 20
14.5440195388
 11
55.4069219382
 21
14.5475813363
  0
LINE
  5
3EC
100
AcDbEntity
  8
DRAFT
100
AcDbLine
 62
7
  6
CONTINUOUS
 10
-55.4069219382
 20
20.4524186637
 11
-54.7
 21
20.4559804612
  0
LINE
  5
3ED
100
AcDbEntity
  8
DRAFT
100
AcDbLine
 62
7
  6
CONTINUOUS
 10
58.2209458086
 20
14.5475813363
 11
55.4069219382
 21
14.5475813363
  0
LINE
  5
3EE
100
AcDbEntity
  8
DRAFT
100
AcDbLine
 62
7
  6
CONTINUOUS
 10
-55.4069219382
 20
14.5475813363
 11
-58.2209458086
 21
14.5475813363
  0
LINE
  5
3EF
100
AcDbEntity
  8
DRAFT
100
AcDbLine
 62
7
  6
CONTINUOUS
 10
-58.0481842609
 20
20.4524186637
 11
-55.4069219382
 21
20.4524186637
  0
LINE
  5
3F0
100
AcDbEntity
  8
DRAFT
100
AcDbLine
 62
7
  6
CONTINUOUS
 10
55.4069219382
 20
20.4524186637
 11
58.0481842609
 21
20.4524186637
  0
LINE
  5
3F1
100
AcDbEntity
  8
DRAFT
100
AcDbLine
 62
7
  6
CONTINUOUS
 10
-55.4069219382
 20
14.5475813363
 11
-54.7
 21
14.5440195388
  0
LINE
  5
3F2
100
AcDbEntity
  8
DRAFT
100
AcDbLine
 62
7
  6
CONTINUOUS
 10
54.7
 20
20.4559804612
 11
55.4069219382
 21
20.4524186637
  0
LINE
  5
3F3
100
AcDbEntity
  8
DRAFT
100
AcDbLine
 62
7
  6
CONTINUOUS
 10
-54.7
 20
15.2722434199
 11
-58.2021031902
 21
15.3028058114
  0
LINE
  5
3F4
100
AcDbEntity
  8
DRAFT
100
AcDbLine
 62
7
  6
CONTINUOUS
 10
-54.7
 20
17.8722434199
 11
-58.1299559582
 21
17.902176192
  0
LINE
  5
3F5
100
AcDbEntity
  8
DRAFT
100
AcDbLine
 62
7
  6
CONTINUOUS
 10
54.7
 20
17.1294055319
 11
58.1534478454
 21
17.0992677491
  0
LINE
  5
3F6
100
AcDbEntity
  8
DRAFT
100
AcDbLine
 62
7
  6
CONTINUOUS
 10
54.7
 20
19.7294055319
 11
58.0734432065
 21
19.699965939
  0
LINE
  5
3F7
100
AcDbEntity
  8
DRAFT
100
AcDbLine
 62
7
  6
CONTINUOUS
 10
55.85
 20
14.52489148
 11
54.7
 21
14.5422741652
  0
LINE
  5
3F8
100
AcDbEntity
  8
DRAFT
100
AcDbLine
 62
7
  6
CONTINUOUS
 10
-54.7
 20
20.4577258348
 11
-55.85
 21
20.47510852
  0
LINE
  5
3F9
100
AcDbEntity
  8
RACCORDO
100
AcDbLine
 62
7
  6
CONTINUOUS
 10
32.5292251989
 20
-32.3820755635
 11
32.5588975491
 21
-32.441424784
  0
LINE
  5
3FA
100
AcDbEntity
  8
RACCORDO
100
AcDbLine
 62
7
  6
CONTINUOUS
 10
0.3737600225
 20
32.3761046662
 11
0.3411024509
 21
32.441424784
  0
LINE
  5
3FB
100
AcDbEntity
  8
0
100
AcDbLine
 62
7
  6
CONTINUOUS
 10
11.435035753
 20
30.1000002337
 11
10.270343737
 21
33.3999997663
  0
LINE
  5
3FC
100
AcDbEntity
  8
0
100
AcDbLine
 62
7
  6
CONTINUOUS
 10
10.7463364513
 20
33.3999997663
 11
11.6892378272
 21
30.5390724851
  0
LINE
  5
3FD
100
AcDbEntity
  8
0
100
AcDbLine
 62
7
  6
CONTINUOUS
 10
21.6541665673
 20
32.2553190887
 11
21.6541665673
 21
32.1489361227
  0
LINE
  5
3FE
100
AcDbEntity
  8
0
100
AcDbLine
 62
7
  6
CONTINUOUS
 10
21.70625
 20
31.6702127755
 11
21.70625
 21
31.5638298094
  0
LINE
  5
3FF
100
AcDbEntity
  8
0
100
AcDbLine
 62
7
  6
CONTINUOUS
 10
21.9666665673
 20
31.5638298094
 11
21.9666665673
 21
31.9361701906
  0
LINE
  5
400
100
AcDbEntity
  8
RACCORDO
100
AcDbLine
 62
253
  6
CONTINUOUS
 10
22.1888798443
 20
22.8887732309
 11
22.1888798443
 21
22.5888189223
  0
LINE
  5
401
100
AcDbEntity
  8
RACCORDO
100
AcDbLine
 62
253
  6
CONTINUOUS
 10
22.1888798443
 20
-22.8887732309
 11
22.1888798443
 21
-22.5888189223
  0
LINE
  5
402
100
AcDbEntity
  8
0
100
AcDbLine
 62
7
  6
CONTINUOUS
 10
22.3833334327
 20
31.9361701906
 11
22.3833334327
 21
31.5638298094
  0
LINE
  5
403
100
AcDbEntity
  8
0
100
AcDbLine
 62
7
  6
CONTINUOUS
 10
22.5
 20
22.2000456915
 11
22.5
 21
-22.2000456915
  0
LINE
  5
404
100
AcDbEntity
  8
RACCORDO
100
AcDbLine
 62
7
  6
CONTINUOUS
 10
22.58
 20
22.1800609219
 11
22.58
 21
-22.1800609219
  0
LINE
  5
405
100
AcDbEntity
  8
RACCORDO
100
AcDbLine
 62
253
  6
CONTINUOUS
 10
22.5888189223
 20
-22.1888785539
 11
22.5888189223
 21
9.0448091789
  0
LINE
  5
406
100
AcDbEntity
  8
RACCORDO
100
AcDbLine
 62
253
  6
CONTINUOUS
 10
22.5888189223
 20
13.4551908211
 11
22.5888189223
 21
22.1888800457
  0
LINE
  5
407
100
AcDbEntity
  8
RACCORDO
100
AcDbLine
 62
253
  6
CONTINUOUS
 10
22.5931245781
 20
-23.6929570428
 11
22.5931245781
 21
-24.0928961209
  0
LINE
  5
408
100
AcDbEntity
  8
RACCORDO
100
AcDbLine
 62
253
  6
CONTINUOUS
 10
22.5931245781
 20
23.6929570428
 11
22.5931245781
 21
24.0928961209
  0
LINE
  5
409
100
AcDbEntity
  8
0
100
AcDbLine
 62
7
  6
CONTINUOUS
 10
22.64375
 20
31.8297872245
 11
22.64375
 21
31.9361701906
  0
LINE
  5
40A
100
AcDbEntity
  8
RACCORDO
100
AcDbLine
 62
253
  6
CONTINUOUS
 10
22.6499116496
 20
13.3940980938
 11
22.6499116496
 21
9.1059019062
  0
LINE
  5
40B
100
AcDbEntity
  8
0
100
AcDbLine
 62
7
  6
CONTINUOUS
 10
22.6958334327
 20
31.2446808368
 11
22.6958334327
 21
31.4042552859
  0
LINE
  5
40C
100
AcDbEntity
  8
0
100
AcDbLine
 62
7
  6
CONTINUOUS
 10
22.775462
 20
-30.825
 11
22.775462
 21
-32.675
  0
LINE
  5
40D
100
AcDbEntity
  8
RACCORDO
100
AcDbLine
 62
253
  6
CONTINUOUS
 10
22.8887732309
 20
22.1888798443
 11
22.8887732309
 21
13.7499558826
  0
LINE
  5
40E
100
AcDbEntity
  8
RACCORDO
100
AcDbLine
 62
253
  6
CONTINUOUS
 10
22.8887732309
 20
8.7500441174
 11
22.8887732309
 21
-22.1888798443
  0
LINE
  5
40F
100
AcDbEntity
  8
RACCORDO
100
AcDbLine
 62
253
  6
CONTINUOUS
 10
22.9498659581
 20
8.8059475976
 11
22.9498659581
 21
13.6940524024
  0
LINE
  5
410
100
AcDbEntity
  8
0
100
AcDbLine
 62
7
  6
CONTINUOUS
 10
23.02547
 20
-32.453419
 11
23.02547
 21
-30.825
  0
LINE
  5
411
100
AcDbEntity
  8
RACCORDO
100
AcDbLine
 62
253
  6
CONTINUOUS
 10
23.6929570428
 20
-22.5931245781
 11
23.6929570428
 21
8.75
  0
LINE
  5
412
100
AcDbEntity
  8
RACCORDO
100
AcDbLine
 62
253
  6
CONTINUOUS
 10
23.6929570428
 20
13.75
 11
23.6929570428
 21
22.5931245781
  0
LINE
  5
413
100
AcDbEntity
  8
RACCORDO
100
AcDbLine
 62
253
  6
CONTINUOUS
 10
23.7301340419
 20
8.8059475976
 11
23.7301340419
 21
13.6940524024
  0
LINE
  5
414
100
AcDbEntity
  8
0
100
AcDbLine
 62
7
  6
CONTINUOUS
 10
23.963412
 20
-32.675
 11
23.963412
 21
-32.453419
  0
LINE
  5
415
100
AcDbEntity
  8
0
100
AcDbLine
 62
7
  6
CONTINUOUS
 10
23.9979168653
 20
31.4042552859
 11
23.9979168653
 21
31.2446808368
  0
LINE
  5
416
100
AcDbEntity
  8
RACCORDO
100
AcDbLine
 62
253
  6
CONTINUOUS
 10
24.0300883504
 20
9.1059019062
 11
24.0300883504
 21
13.3940980938
  0
LINE
  5
417
100
AcDbEntity
  8
RACCORDO
100
AcDbLine
 62
253
  6
CONTINUOUS
 10
24.0928961209
 20
22.5931200617
 11
24.0928961209
 21
13.4569058643
  0
LINE
  5
418
100
AcDbEntity
  8
RACCORDO
100
AcDbLine
 62
253
  6
CONTINUOUS
 10
24.0928961209
 20
9.0430941357
 11
24.0928961209
 21
-22.5931205084
  0
LINE
  5
419
100
AcDbEntity
  8
DRAFT
100
AcDbLine
 62
7
  6
CONTINUOUS
 10
24.1029527027
 20
-22.5093473849
 11
24.1029527027
 21
22.5093473849
  0
LINE
  5
41A
100
AcDbEntity
  8
0
100
AcDbLine
 62
7
  6
CONTINUOUS
 10
24.2583331347
 20
31.1914893538
 11
24.2583331347
 21
31.4574468434
  0
LINE
  5
41B
100
AcDbEntity
  8
0
100
AcDbLine
 62
7
  6
CONTINUOUS
 10
24.675
 20
31.5638298094
 11
24.675
 21
31.2446808368
  0
LINE
  5
41C
100
AcDbEntity
  8
0
100
AcDbLine
 62
7
  6
CONTINUOUS
 10
24.746651
 20
-31.930362
 11
24.746651
 21
-32.675
  0
LINE
  5
41D
100
AcDbEntity
  8
0
100
AcDbLine
 62
7
  6
CONTINUOUS
 10
24.99651
 20
-32.675
 11
24.99651
 21
-31.930362
  0
LINE
  5
41E
100
AcDbEntity
  8
0
100
AcDbLine
 62
7
  6
CONTINUOUS
 10
25.925
 20
32.5744681358
 11
25.925
 21
31.5638298094
  0
LINE
  5
41F
100
AcDbEntity
  8
0
100
AcDbLine
 62
7
  6
CONTINUOUS
 10
25.925
 20
31.2446808368
 11
25.925
 21
30.5
  0
LINE
  5
420
100
AcDbEntity
  8
0
100
AcDbLine
 62
7
  6
CONTINUOUS
 10
26.2375
 20
30.5
 11
26.2375
 21
31.2446808368
  0
LINE
  5
421
100
AcDbEntity
  8
0
100
AcDbLine
 62
7
  6
CONTINUOUS
 10
26.2375
 20
31.5638298094
 11
26.2375
 21
33.0
  0
LINE
  5
422
100
AcDbEntity
  8
0
100
AcDbLine
 62
7
  6
CONTINUOUS
 10
26.7583331347
 20
31.2446808368
 11
26.7583331347
 21
31.5638298094
  0
LINE
  5
423
100
AcDbEntity
  8
0
100
AcDbLine
 62
7
  6
CONTINUOUS
 10
27.175
 20
33.0
 11
27.175
 21
32.7340425849
  0
LINE
  5
424
100
AcDbEntity
  8
DRAFT
100
AcDbLine
 62
7
  6
CONTINUOUS
 10
32.5112209136
 20
-0.3887790864
 11
32.5008479143
 21
-0.3991520857
  0
LINE
  5
425
100
AcDbEntity
  8
DRAFT
100
AcDbLine
 62
7
  6
CONTINUOUS
 10
33.2884682452
 20
0.3884682452
 11
33.2988236845
 21
0.3988236845
  0
LINE
  5
426
100
AcDbEntity
  8
RACCORDO
100
AcDbLine
 62
7
  6
CONTINUOUS
 10
54.9991022255
 20
-0.3622621185
 11
55.0065146541
 21
-0.3585561865
  0
LINE
  5
427
100
AcDbEntity
  8
0
100
AcDbLine
 62
7
  6
CONTINUOUS
 10
23.4770831347
 20
30.5
 11
23.7375
 21
30.5531914877
  0
LINE
  5
428
100
AcDbEntity
  8
0
100
AcDbLine
 62
7
  6
CONTINUOUS
 10
21.1333334327
 20
30.5
 11
21.39375
 21
30.5531914877
  0
LINE
  5
429
100
AcDbEntity
  8
0
100
AcDbLine
 62
7
  6
CONTINUOUS
 10
18.9979166418
 20
30.8191489354
 11
18.7375
 21
30.7659574524
  0
LINE
  5
42A
100
AcDbEntity
  8
0
100
AcDbLine
 62
7
  6
CONTINUOUS
 10
21.1333334327
 20
31.4042552859
 11
21.39375
 21
31.4574468434
  0
LINE
  5
42B
100
AcDbEntity
  8
0
100
AcDbLine
 62
7
  6
CONTINUOUS
 10
23.2166668653
 20
32.0957446396
 11
22.95625
 21
32.0425531566
  0
LINE
  5
42C
100
AcDbEntity
  8
0
100
AcDbLine
 62
7
  6
CONTINUOUS
 10
18.7375
 20
30.5
 11
19.05
 21
30.5531914877
  0
LINE
  5
42D
100
AcDbEntity
  8
DRAFT
100
AcDbLine
 62
7
  6
CONTINUOUS
 10
-24.1029527027
 20
22.5093473849
 11
-25.1993176487
 21
22.5026479169
  0
LINE
  5
42E
100
AcDbEntity
  8
RACCORDO
100
AcDbLine
 62
7
  6
CONTINUOUS
 10
24.1513127796
 20
23.290948125
 11
25.1496932925
 21
23.2970488476
  0
LINE
  5
42F
100
AcDbEntity
  8
RACCORDO
100
AcDbLine
 62
253
  6
CONTINUOUS
 10
-22.8887732309
 20
22.1888798443
 11
-22.5888189223
 21
22.1888798443
  0
LINE
  5
430
100
AcDbEntity
  8
RACCORDO
100
AcDbLine
 62
253
  6
CONTINUOUS
 10
22.8887732309
 20
22.1888798443
 11
22.5888189223
 21
22.1888798443
  0
LINE
  5
431
100
AcDbEntity
  8
0
100
AcDbLine
 62
7
  6
CONTINUOUS
 10
-22.2000456915
 20
22.5
 11
22.2000456915
 21
22.5
  0
LINE
  5
432
100
AcDbEntity
  8
RACCORDO
100
AcDbLine
 62
7
  6
CONTINUOUS
 10
57.9722692711
 20
22.5631848306
 11
55.5413486316
 21
22.5631848306
  0
LINE
  5
433
100
AcDbEntity
  8
RACCORDO
100
AcDbLine
 62
7
  6
CONTINUOUS
 10
-55.5413486316
 20
22.5631848306
 11
-57.9722692711
 21
22.5631848306
  0
LINE
  5
434
100
AcDbEntity
  8
RACCORDO
100
AcDbLine
 62
7
  6
CONTINUOUS
 10
22.1800609219
 20
22.58
 11
-22.1800609219
 21
22.58
  0
LINE
  5
435
100
AcDbEntity
  8
RACCORDO
100
AcDbLine
 62
253
  6
CONTINUOUS
 10
-22.1888800457
 20
22.5888189223
 11
22.1888785539
 21
22.5888189223
  0
LINE
  5
436
100
AcDbEntity
  8
RACCORDO
100
AcDbLine
 62
253
  6
CONTINUOUS
 10
23.6929570428
 20
22.5931245781
 11
24.0928961209
 21
22.5931245781
  0
LINE
  5
437
100
AcDbEntity
  8
RACCORDO
100
AcDbLine
 62
253
  6
CONTINUOUS
 10
-23.6929570428
 20
22.5931245781
 11
-24.0928961209
 21
22.5931245781
  0
LINE
  5
438
100
AcDbEntity
  8
RACCORDO
100
AcDbLine
 62
253
  6
CONTINUOUS
 10
-22.1888798443
 20
22.8887732309
 11
22.1888798443
 21
22.8887732309
  0
LINE
  5
439
100
AcDbEntity
  8
RACCORDO
100
AcDbLine
 62
7
  6
CONTINUOUS
 10
-57.9464713063
 20
23.2368151694
 11
-55.5413486316
 21
23.2368151694
  0
LINE
  5
43A
100
AcDbEntity
  8
RACCORDO
100
AcDbLine
 62
7
  6
CONTINUOUS
 10
55.5413486316
 20
23.2368151694
 11
57.9464713063
 21
23.2368151694
  0
LINE
  5
43B
100
AcDbEntity
  8
RACCORDO
100
AcDbLine
 62
253
  6
CONTINUOUS
 10
22.5931245781
 20
23.6929570428
 11
-22.5931245781
 21
23.6929570428
  0
LINE
  5
43C
100
AcDbEntity
  8
RACCORDO
100
AcDbLine
 62
253
  6
CONTINUOUS
 10
22.5931205084
 20
24.0928961209
 11
-22.5931200617
 21
24.0928961209
  0
LINE
  5
43D
100
AcDbEntity
  8
RACCORDO
100
AcDbLine
 62
7
  6
CONTINUOUS
 10
0.3906526151
 20
24.1029527027
 11
22.60318116
 21
24.1029527027
  0
LINE
  5
43E
100
AcDbEntity
  8
RACCORDO
100
AcDbLine
 62
7
  6
CONTINUOUS
 10
-0.3906526151
 20
24.1029527027
 11
-22.60318116
 21
24.1029527027
  0
LINE
  5
43F
100
AcDbEntity
  8
0
100
AcDbLine
 62
7
  6
CONTINUOUS
 10
29.0
 20
27.5
 11
4.0
 21
27.5
  0
LINE
  5
440
100
AcDbEntity
  8
0
100
AcDbLine
 62
7
  6
CONTINUOUS
 10
-4.0
 20
27.5
 11
-29.0
 21
27.5
  0
LINE
  5
441
100
AcDbEntity
  8
DRAFT
100
AcDbLine
 62
7
  6
CONTINUOUS
 10
24.1029527027
 20
22.5093473849
 11
25.1993176487
 21
22.5026479169
  0
LINE
  5
442
100
AcDbEntity
  8
RACCORDO
100
AcDbLine
 62
7
  6
CONTINUOUS
 10
-24.1513127796
 20
23.290948125
 11
-25.1496932925
 21
23.2970488476
  0
LINE
  5
443
100
AcDbEntity
  8
RACCORDO
100
AcDbLine
 62
7
  6
CONTINUOUS
 10
54.9991022255
 20
0.3622621185
 11
55.0065146541
 21
0.3585561865
  0
LINE
  5
444
100
AcDbEntity
  8
RACCORDO
100
AcDbLine
 62
253
  6
CONTINUOUS
 10
23.7862742984
 20
8.7498073411
 11
23.7301340419
 21
8.8059475976
  0
LINE
  5
445
100
AcDbEntity
  8
DRAFT
100
AcDbLine
 62
7
  6
CONTINUOUS
 10
32.5112209136
 20
0.3887790864
 11
32.5008479143
 21
0.3991520857
  0
LINE
  5
446
100
AcDbEntity
  8
DRAFT
100
AcDbLine
 62
7
  6
CONTINUOUS
 10
33.2884682452
 20
-0.3884682452
 11
33.2988236845
 21
-0.3988236845
  0
LINE
  5
447
100
AcDbEntity
  8
RACCORDO
100
AcDbLine
 62
253
  6
CONTINUOUS
 10
24.0928961209
 20
9.0430941357
 11
24.0300883504
 21
9.1059019062
  0
LINE
  5
448
100
AcDbEntity
  8
RACCORDO
100
AcDbLine
 62
253
  6
CONTINUOUS
 10
22.5888189223
 20
13.4551908211
 11
22.6499116496
 21
13.3940980938
  0
LINE
  5
449
100
AcDbEntity
  8
RACCORDO
100
AcDbLine
 62
253
  6
CONTINUOUS
 10
22.8939183605
 20
13.75
 11
22.9498659581
 21
13.6940524024
  0
LINE
  5
44A
100
AcDbEntity
  8
0
100
AcDbLine
 62
7
  6
CONTINUOUS
 10
6.2032910663
 20
30.1000002337
 11
4.4793455583
 21
32.7483102152
  0
LINE
  5
44B
100
AcDbEntity
  8
0
100
AcDbLine
 62
7
  6
CONTINUOUS
 10
4.5209283918
 20
33.3999997663
 11
6.2587464905
 21
30.7239465445
  0
LINE
  5
44C
100
AcDbEntity
  8
0
100
AcDbLine
 62
7
  6
CONTINUOUS
 10
17.8520833349
 20
31.2446808368
 11
17.9041666698
 21
31.0851063877
  0
LINE
  5
44D
100
AcDbEntity
  8
0
100
AcDbLine
 62
7
  6
CONTINUOUS
 10
17.8
 20
31.5106383264
 11
17.8520833349
 21
31.2446808368
  0
LINE
  5
44E
100
AcDbEntity
  8
0
100
AcDbLine
 62
7
  6
CONTINUOUS
 10
19.675
 20
31.9893616736
 11
19.6229167163
 21
32.2553190887
  0
LINE
  5
44F
100
AcDbEntity
  8
0
100
AcDbLine
 62
7
  6
CONTINUOUS
 10
18.1125
 20
31.2446808368
 11
18.0604166605
 21
31.5638298094
  0
LINE
  5
450
100
AcDbEntity
  8
0
100
AcDbLine
 62
7
  6
CONTINUOUS
 10
19.3625
 20
32.2553190887
 11
19.4145832837
 21
31.9361701906
  0
LINE
  5
451
100
AcDbEntity
  8
0
100
AcDbLine
 62
7
  6
CONTINUOUS
 10
21.9666665673
 20
31.9361701906
 11
21.9145834327
 21
32.3085105717
  0
LINE
  5
452
100
AcDbEntity
  8
0
100
AcDbLine
 62
7
  6
CONTINUOUS
 10
22.3833334327
 20
31.5638298094
 11
22.4354165673
 21
31.1914893538
  0
LINE
  5
453
100
AcDbEntity
  8
0
100
AcDbLine
 62
7
  6
CONTINUOUS
 10
29.05
 20
32.7340425849
 11
29.05
 21
33.0
  0
LINE
  5
454
100
AcDbEntity
  8
0
100
AcDbLine
 62
7
  6
CONTINUOUS
 10
30.0
 20
35.0
 11
30.0
 21
28.5
  0
LINE
  5
455
100
AcDbEntity
  8
0
100
AcDbLine
 62
7
  6
CONTINUOUS
 10
30.0
 20
-28.5
 11
30.0
 21
-35.0
  0
LINE
  5
456
100
AcDbEntity
  8
RACCORDO
100
AcDbLine
 62
7
  6
CONTINUOUS
 10
32.5631848306
 20
-37.8666316286
 11
32.5631848306
 21
-32.9413486316
  0
LINE
  5
457
100
AcDbEntity
  8
RACCORDO
100
AcDbLine
 62
7
  6
CONTINUOUS
 10
32.5631848306
 20
32.9413486316
 11
32.5631848306
 21
37.8666316286
  0
LINE
  5
458
100
AcDbEntity
  8
RACCORDO
100
AcDbLine
 62
7
  6
CONTINUOUS
 10
33.2368151694
 20
37.8444215615
 11
33.2368151694
 21
32.9413486316
  0
LINE
  5
459
100
AcDbEntity
  8
RACCORDO
100
AcDbLine
 62
7
  6
CONTINUOUS
 10
33.2368151694
 20
-32.9413486316
 11
33.2368151694
 21
-37.8444215615
  0
LINE
  5
45A
100
AcDbEntity
  8
0
100
AcDbLine
 62
7
  6
CONTINUOUS
 10
21.154719
 20
-32.675
 11
21.348007
 21
-32.136533
  0
LINE
  5
45B
100
AcDbEntity
  8
0
100
AcDbLine
 62
7
  6
CONTINUOUS
 10
21.425314
 20
-31.914951
 11
21.724277
 21
-31.09334
  0
LINE
  5
45C
100
AcDbEntity
  8
0
100
AcDbLine
 62
7
  6
CONTINUOUS
 10
21.592839
 20
-30.825
 11
20.897095
 21
-32.675
  0
LINE
  5
45D
100
AcDbEntity
  8
DRAFT
100
AcDbLine
 62
7
  6
CONTINUOUS
 10
24.0936921335
 20
-22.5139773169
 11
24.1029527027
 21
-22.5093473849
  0
LINE
  5
45E
100
AcDbEntity
  8
0
100
AcDbLine
 62
7
  6
CONTINUOUS
 10
23.2166668653
 20
33.0
 11
22.95625
 21
32.946808517
  0
LINE
  5
45F
100
AcDbEntity
  8
0
100
AcDbLine
 62
7
  6
CONTINUOUS
 10
20.8729165673
 20
33.0
 11
20.6125
 21
32.946808517
  0
LINE
  5
460
100
AcDbEntity
  8
0
100
AcDbLine
 62
7
  6
CONTINUOUS
 10
18.4770833582
 20
32.6808511019
 11
18.7375
 21
32.7340425849
  0
LINE
  5
461
100
AcDbEntity
  8
0
100
AcDbLine
 62
7
  6
CONTINUOUS
 10
18.7375
 20
33.0
 11
18.425
 21
32.946808517
  0
LINE
  5
462
100
AcDbEntity
  8
0
100
AcDbLine
 62
7
  6
CONTINUOUS
 10
-9.2116364927
 20
29.9276540612
 11
-9.9745195396
 21
29.9276540612
  0
LINE
  5
463
100
AcDbEntity
  8
0
100
AcDbLine
 62
7
  6
CONTINUOUS
 10
-11.189063541
 20
29.9276540612
 11
-11.9789858413
 21
29.9276540612
  0
LINE
  5
464
100
AcDbEntity
  8
0
100
AcDbLine
 62
7
  6
CONTINUOUS
 10
-12.211882
 20
29.927654
 11
-13.047791
 21
29.927654
  0
LINE
  5
465
100
AcDbEntity
  8
0
100
AcDbLine
 62
7
  6
CONTINUOUS
 10
-14.552188
 20
29.927654
 11
-15.336697
 21
29.927654
  0
LINE
  5
466
100
AcDbEntity
  8
0
100
AcDbLine
 62
7
  6
CONTINUOUS
 10
-15.461237
 20
29.927654
 11
-16.237113
 21
29.927654
  0
LINE
  5
467
100
AcDbEntity
  8
0
100
AcDbLine
 62
7
  6
CONTINUOUS
 10
-17.343072
 20
29.927654
 11
-17.454306
 21
29.927654
  0
LINE
  5
468
100
AcDbEntity
  8
0
100
AcDbLine
 62
7
  6
CONTINUOUS
 10
-18.555878
 20
29.927654
 11
-19.31463
 21
29.927654
  0
LINE
  5
469
100
AcDbEntity
  8
0
100
AcDbLine
 62
7
  6
CONTINUOUS
 10
-19.741588
 20
29.927654
 11
-20.534701
 21
29.927654
  0
LINE
  5
46A
100
AcDbEntity
  8
0
100
AcDbLine
 62
7
  6
CONTINUOUS
 10
-22.050353
 20
29.927654
 11
-22.749285
 21
29.927654
  0
LINE
  5
46B
100
AcDbEntity
  8
0
100
AcDbLine
 62
7
  6
CONTINUOUS
 10
15.9598489784
 20
30.1000002337
 11
13.6673524117
 21
30.1000002337
  0
LINE
  5
46C
100
AcDbEntity
  8
0
100
AcDbLine
 62
7
  6
CONTINUOUS
 10
11.9341695092
 20
30.1000002337
 11
11.435035753
 21
30.1000002337
  0
LINE
  5
46D
100
AcDbEntity
  8
0
100
AcDbLine
 62
7
  6
CONTINUOUS
 10
9.8960535921
 20
30.1000002337
 11
7.6036191385
 21
30.1000002337
  0
LINE
  5
46E
100
AcDbEntity
  8
0
100
AcDbLine
 62
7
  6
CONTINUOUS
 10
6.6839772078
 20
30.1000002337
 11
6.2032910663
 21
30.1000002337
  0
LINE
  5
46F
100
AcDbEntity
  8
0
100
AcDbLine
 62
7
  6
CONTINUOUS
 10
4.4700771071
 20
30.1000002337
 11
4.0541129
 21
30.1000002337
  0
LINE
  5
470
100
AcDbEntity
  8
0
100
AcDbLine
 62
7
  6
CONTINUOUS
 10
8.04269139
 20
30.4697464113
 11
9.8960535921
 21
30.4697464113
  0
LINE
  5
471
100
AcDbEntity
  8
0
100
AcDbLine
 62
7
  6
CONTINUOUS
 10
14.1064266042
 20
30.4697464113
 11
15.9598489784
 21
30.4697464113
  0
LINE
  5
472
100
AcDbEntity
  8
0
100
AcDbLine
 62
7
  6
CONTINUOUS
 10
20.925
 20
30.5
 11
21.1333334327
 21
30.5
  0
LINE
  5
473
100
AcDbEntity
  8
0
100
AcDbLine
 62
7
  6
CONTINUOUS
 10
23.2166668653
 20
30.5
 11
23.4770831347
 21
30.5
  0
LINE
  5
474
100
AcDbEntity
  8
0
100
AcDbLine
 62
7
  6
CONTINUOUS
 10
25.925
 20
30.5
 11
26.2375
 21
30.5
  0
LINE
  5
475
100
AcDbEntity
  8
0
100
AcDbLine
 62
7
  6
CONTINUOUS
 10
27.6958331347
 20
30.5
 11
28.0083337307
 21
30.5
  0
LINE
  5
476
100
AcDbEntity
  8
0
100
AcDbLine
 62
7
  6
CONTINUOUS
 10
11.6892378272
 20
30.5390724851
 11
11.6985043373
 21
30.5390724851
  0
LINE
  5
477
100
AcDbEntity
  8
0
100
AcDbLine
 62
7
  6
CONTINUOUS
 10
-13.25325
 20
30.686178
 11
-14.333338
 21
30.686178
  0
LINE
  5
478
100
AcDbEntity
  8
0
100
AcDbLine
 62
7
  6
CONTINUOUS
 10
6.2587464905
 20
30.7239465445
 11
6.2679838851
 21
30.7239465445
  0
LINE
  5
479
100
AcDbEntity
  8
0
100
AcDbLine
 62
7
  6
CONTINUOUS
 10
23.5291668653
 20
30.7659574524
 11
23.1645831347
 21
30.7659574524
  0
LINE
  5
47A
100
AcDbEntity
  8
0
100
AcDbLine
 62
7
  6
CONTINUOUS
 10
21.1854165673
 20
30.7659574524
 11
20.8729165673
 21
30.7659574524
  0
LINE
  5
47B
100
AcDbEntity
  8
0
100
AcDbLine
 62
7
  6
CONTINUOUS
 10
20.45625
 20
31.0851063877
 11
20.1958332837
 21
31.0851063877
  0
LINE
  5
47C
100
AcDbEntity
  8
0
100
AcDbLine
 62
7
  6
CONTINUOUS
 10
24.675
 20
31.2446808368
 11
25.925
 21
31.2446808368
  0
LINE
  5
47D
100
AcDbEntity
  8
0
100
AcDbLine
 62
7
  6
CONTINUOUS
 10
26.2375
 20
31.2446808368
 11
26.7583331347
 21
31.2446808368
  0
LINE
  5
47E
100
AcDbEntity
  8
0
100
AcDbLine
 62
7
  6
CONTINUOUS
 10
-14.171103
 20
31.27312
 11
-13.411753
 21
31.27312
  0
LINE
  5
47F
100
AcDbEntity
  8
0
100
AcDbLine
 62
7
  6
CONTINUOUS
 10
20.8729165673
 20
31.4042552859
 11
21.1333334327
 21
31.4042552859
  0
LINE
  5
480
100
AcDbEntity
  8
0
100
AcDbLine
 62
7
  6
CONTINUOUS
 10
-10.7638150079
 20
31.4145850627
 11
-11.189063541
 21
31.4145850627
  0
LINE
  5
481
100
AcDbEntity
  8
0
100
AcDbLine
 62
7
  6
CONTINUOUS
 10
26.7583331347
 20
31.5638298094
 11
26.2375
 21
31.5638298094
  0
LINE
  5
482
100
AcDbEntity
  8
0
100
AcDbLine
 62
7
  6
CONTINUOUS
 10
25.925
 20
31.5638298094
 11
25.0395831347
 21
31.5638298094
  0
LINE
  5
483
100
AcDbEntity
  8
0
100
AcDbLine
 62
7
  6
CONTINUOUS
 10
15.8211948897
 20
31.611330383
 11
14.1064266042
 21
31.611330383
  0
LINE
  5
484
100
AcDbEntity
  8
0
100
AcDbLine
 62
7
  6
CONTINUOUS
 10
9.7573995033
 20
31.611330383
 11
8.04269139
 21
31.611330383
  0
LINE
  5
485
100
AcDbEntity
  8
0
100
AcDbLine
 62
7
  6
CONTINUOUS
 10
21.1854165673
 20
31.6702127755
 11
20.8208334327
 21
31.6702127755
  0
LINE
  5
486
100
AcDbEntity
  8
0
100
AcDbLine
 62
7
  6
CONTINUOUS
 10
23.1645831347
 20
31.8297872245
 11
23.5291668653
 21
31.8297872245
  0
LINE
  5
487
100
AcDbEntity
  8
0
100
AcDbLine
 62
7
  6
CONTINUOUS
 10
8.04269139
 20
31.9810765606
 11
9.7573995033
 21
31.9810765606
  0
LINE
  5
488
100
AcDbEntity
  8
0
100
AcDbLine
 62
7
  6
CONTINUOUS
 10
14.1064266042
 20
31.9810765606
 11
15.8211948897
 21
31.9810765606
  0
LINE
  5
489
100
AcDbEntity
  8
0
100
AcDbLine
 62
7
  6
CONTINUOUS
 10
-11.215361993
 20
32.0368582931
 11
-10.762105466
 21
32.0368582931
  0
LINE
  5
48A
100
AcDbEntity
  8
0
100
AcDbLine
 62
7
  6
CONTINUOUS
 10
23.4770831347
 20
32.0957446396
 11
23.2166668653
 21
32.0957446396
  0
LINE
  5
48B
100
AcDbEntity
  8
0
100
AcDbLine
 62
7
  6
CONTINUOUS
 10
23.89375
 20
32.4148936868
 11
24.1541668653
 21
32.4148936868
  0
LINE
  5
48C
100
AcDbEntity
  8
RACCORDO
100
AcDbLine
 62
253
  6
CONTINUOUS
 10
-33.2411024509
 20
32.441424784
 11
-32.5588975491
 21
32.441424784
  0
LINE
  5
48D
100
AcDbEntity
  8
RACCORDO
100
AcDbLine
 62
253
  6
CONTINUOUS
 10
-0.3411024509
 20
32.441424784
 11
0.3411024509
 21
32.441424784
  0
LINE
  5
48E
100
AcDbEntity
  8
RACCORDO
100
AcDbLine
 62
253
  6
CONTINUOUS
 10
32.5588975491
 20
32.441424784
 11
33.2411024509
 21
32.441424784
  0
LINE
  5
48F
100
AcDbEntity
  8
0
100
AcDbLine
 62
7
  6
CONTINUOUS
 10
20.8208334327
 20
32.7340425849
 11
21.1854165673
 21
32.7340425849
  0
LINE
  5
490
100
AcDbEntity
  8
0
100
AcDbLine
 62
7
  6
CONTINUOUS
 10
23.1645831347
 20
32.7340425849
 11
23.4770831347
 21
32.7340425849
  0
LINE
  5
491
100
AcDbEntity
  8
0
100
AcDbLine
 62
7
  6
CONTINUOUS
 10
27.175
 20
32.7340425849
 11
28.7375
 21
32.7340425849
  0
LINE
  5
492
100
AcDbEntity
  8
0
100
AcDbLine
 62
7
  6
CONTINUOUS
 10
4.4793455583
 20
32.7483102152
 11
4.4700771071
 21
32.7483102152
  0
LINE
  5
493
100
AcDbEntity
  8
RACCORDO
100
AcDbLine
 62
253
  6
CONTINUOUS
 10
-33.2368151694
 20
32.9413486316
 11
-32.5631848306
 21
32.9413486316
  0
LINE
  5
494
100
AcDbEntity
  8
RACCORDO
100
AcDbLine
 62
253
  6
CONTINUOUS
 10
-0.3368151694
 20
32.9413486316
 11
0.3368151694
 21
32.9413486316
  0
LINE
  5
495
100
AcDbEntity
  8
RACCORDO
100
AcDbLine
 62
253
  6
CONTINUOUS
 10
32.5631848306
 20
32.9413486316
 11
33.2368151694
 21
32.9413486316
  0
LINE
  5
496
100
AcDbEntity
  8
0
100
AcDbLine
 62
7
  6
CONTINUOUS
 10
29.05
 20
33.0
 11
27.175
 21
33.0
  0
LINE
  5
497
100
AcDbEntity
  8
0
100
AcDbLine
 62
7
  6
CONTINUOUS
 10
26.2375
 20
33.0
 11
25.925
 21
33.0
  0
LINE
  5
498
100
AcDbEntity
  8
0
100
AcDbLine
 62
7
  6
CONTINUOUS
 10
23.425
 20
33.0
 11
23.2166668653
 21
33.0
  0
LINE
  5
499
100
AcDbEntity
  8
0
100
AcDbLine
 62
7
  6
CONTINUOUS
 10
21.1333334327
 20
33.0
 11
20.8729165673
 21
33.0
  0
LINE
  5
49A
100
AcDbEntity
  8
0
100
AcDbLine
 62
7
  6
CONTINUOUS
 10
15.9458871
 20
33.0302535887
 11
14.1064266042
 21
33.0302535887
  0
LINE
  5
49B
100
AcDbEntity
  8
0
100
AcDbLine
 62
7
  6
CONTINUOUS
 10
9.8821829424
 20
33.0302535887
 11
8.04269139
 21
33.0302535887
  0
LINE
  5
49C
100
AcDbEntity
  8
0
100
AcDbLine
 62
7
  6
CONTINUOUS
 10
4.0541129
 20
33.3999997663
 11
4.5209283918
 21
33.3999997663
  0
LINE
  5
49D
100
AcDbEntity
  8
0
100
AcDbLine
 62
7
  6
CONTINUOUS
 10
6.2679838851
 20
33.3999997663
 11
6.6839772078
 21
33.3999997663
  0
LINE
  5
49E
100
AcDbEntity
  8
0
100
AcDbLine
 62
7
  6
CONTINUOUS
 10
7.6036191385
 20
33.3999997663
 11
9.8821829424
 21
33.3999997663
  0
LINE
  5
49F
100
AcDbEntity
  8
0
100
AcDbLine
 62
7
  6
CONTINUOUS
 10
10.270343737
 20
33.3999997663
 11
10.7463364513
 21
33.3999997663
  0
LINE
  5
4A0
100
AcDbEntity
  8
0
100
AcDbLine
 62
7
  6
CONTINUOUS
 10
12.6505518791
 20
33.3999997663
 11
13.1081610329
 21
33.3999997663
  0
LINE
  5
4A1
100
AcDbEntity
  8
0
100
AcDbLine
 62
7
  6
CONTINUOUS
 10
13.6673524117
 20
33.3999997663
 11
15.9458871
 21
33.3999997663
  0
LINE
  5
4A2
100
AcDbEntity
  8
0
100
AcDbLine
 62
7
  6
CONTINUOUS
 10
-23.953814
 20
33.727196
 11
-23.092247
 21
33.727196
  0
LINE
  5
4A3
100
AcDbEntity
  8
0
100
AcDbLine
 62
7
  6
CONTINUOUS
 10
-21.6216
 20
33.727196
 11
-20.829028
 21
33.727196
  0
LINE
  5
4A4
100
AcDbEntity
  8
0
100
AcDbLine
 62
7
  6
CONTINUOUS
 10
-18.971553
 20
33.727196
 11
-18.179095
 21
33.727196
  0
LINE
  5
4A5
100
AcDbEntity
  8
0
100
AcDbLine
 62
7
  6
CONTINUOUS
 10
-16.601245
 20
33.727196
 11
-15.816537
 21
33.727196
  0
LINE
  5
4A6
100
AcDbEntity
  8
0
100
AcDbLine
 62
7
  6
CONTINUOUS
 10
-14.144918
 20
33.727196
 11
-13.377676
 21
33.727196
  0
LINE
  5
4A7
100
AcDbEntity
  8
0
100
AcDbLine
 62
7
  6
CONTINUOUS
 10
-20.534701
 20
33.727424
 11
-19.741588
 21
33.727424
  0
LINE
  5
4A8
100
AcDbEntity
  8
0
100
AcDbLine
 62
7
  6
CONTINUOUS
 10
18.425
 20
30.5531914877
 11
18.7375
 21
30.5
  0
LINE
  5
4A9
100
AcDbEntity
  8
0
100
AcDbLine
 62
7
  6
CONTINUOUS
 10
18.7375
 20
30.7659574524
 11
18.4770833582
 21
30.8191489354
  0
LINE
  5
4AA
100
AcDbEntity
  8
0
100
AcDbLine
 62
7
  6
CONTINUOUS
 10
20.6645834327
 20
30.5531914877
 11
20.925
 21
30.5
  0
LINE
  5
4AB
100
AcDbEntity
  8
DRAFT
100
AcDbLine
 62
7
  6
CONTINUOUS
 10
24.1029527027
 20
22.5093473849
 11
24.0936921335
 21
22.5139773169
  0
LINE
  5
4AC
100
AcDbEntity
  8
0
100
AcDbLine
 62
7
  6
CONTINUOUS
 10
18.3208333209
 20
30.9255319014
 11
18.1125
 21
31.2446808368
  0
LINE
  5
4AD
100
AcDbEntity
  8
0
100
AcDbLine
 62
7
  6
CONTINUOUS
 10
19.1541667163
 20
32.5744681358
 11
19.3625
 21
32.2553190887
  0
LINE
  5
4AE
100
AcDbEntity
  8
0
100
AcDbLine
 62
7
  6
CONTINUOUS
 10
20.5604165673
 20
30.9255319014
 11
20.45625
 21
31.0851063877
  0
LINE
  5
4AF
100
AcDbEntity
  8
0
100
AcDbLine
 62
7
  6
CONTINUOUS
 10
17.9041666698
 20
31.0851063877
 11
18.0083333395
 21
30.8723404184
  0
LINE
  5
4B0
100
AcDbEntity
  8
0
100
AcDbLine
 62
7
  6
CONTINUOUS
 10
19.5708332837
 20
32.4148936868
 11
19.4666667163
 21
32.6276596189
  0
LINE
  5
4B1
100
AcDbEntity
  8
0
100
AcDbLine
 62
7
  6
CONTINUOUS
 10
20.0916667163
 20
32.0957446396
 11
20.1958332837
 21
31.8297872245
  0
LINE
  5
4B2
100
AcDbEntity
  8
0
100
AcDbLine
 62
7
  6
CONTINUOUS
 10
21.9145834327
 20
32.3085105717
 11
21.8104165673
 21
32.5744681358
  0
LINE
  5
4B3
100
AcDbEntity
  8
0
100
AcDbLine
 62
7
  6
CONTINUOUS
 10
22.4354165673
 20
31.1914893538
 11
22.5395834327
 21
30.9255319014
  0
LINE
  5
4B4
100
AcDbEntity
  8
0
100
AcDbLine
 62
7
  6
CONTINUOUS
 10
24.2583331347
 20
31.4574468434
 11
24.1541668653
 21
31.7234042585
  0
LINE
  5
4B5
100
AcDbEntity
  8
0
100
AcDbLine
 62
7
  6
CONTINUOUS
 10
19.6229167163
 20
32.2553190887
 11
19.5708332837
 21
32.4148936868
  0
LINE
  5
4B6
100
AcDbEntity
  8
0
100
AcDbLine
 62
7
  6
CONTINUOUS
 10
20.1958332837
 20
31.0851063877
 11
20.2479167163
 21
30.9255319014
  0
LINE
  5
4B7
100
AcDbEntity
  8
0
100
AcDbLine
 62
7
  6
CONTINUOUS
 10
20.4041665673
 20
31.9893616736
 11
20.3520834327
 21
32.1489361227
  0
LINE
  5
4B8
100
AcDbEntity
  8
0
100
AcDbLine
 62
7
  6
CONTINUOUS
 10
21.6020834327
 20
32.4148936868
 11
21.6541665673
 21
32.2553190887
  0
LINE
  5
4B9
100
AcDbEntity
  8
0
100
AcDbLine
 62
7
  6
CONTINUOUS
 10
22.7479165673
 20
31.0851063877
 11
22.6958334327
 21
31.2446808368
  0
LINE
  5
4BA
100
AcDbEntity
  8
0
100
AcDbLine
 62
7
  6
CONTINUOUS
 10
23.9458331347
 20
31.5638298094
 11
23.9979168653
 21
31.4042552859
  0
LINE
  5
4BB
100
AcDbEntity
  8
0
100
AcDbLine
 62
7
  6
CONTINUOUS
 10
24.1541668653
 20
32.4148936868
 11
24.1020831347
 21
32.5744681358
  0
LINE
  5
4BC
100
AcDbEntity
  8
0
100
AcDbLine
 62
7
  6
CONTINUOUS
 10
25.401071
 20
-30.825
 11
24.870384
 21
-31.714017
  0
LINE
  5
4BD
100
AcDbEntity
  8
0
100
AcDbLine
 62
7
  6
CONTINUOUS
 10
24.99651
 20
-31.930362
 11
25.694916
 21
-30.825
  0
LINE
  5
4BE
100
AcDbEntity
  8
DRAFT
100
AcDbLine
 62
7
  6
CONTINUOUS
 10
32.5161638825
 20
-23.2838361175
 11
32.5056021052
 21
-23.2943978948
  0
LINE
  5
4BF
100
AcDbEntity
  8
DRAFT
100
AcDbLine
 62
7
  6
CONTINUOUS
 10
33.2839617601
 20
-22.5160382399
 11
33.2943898772
 21
-22.5056101228
  0
LINE
  5
4C0
100
AcDbEntity
  8
0
100
AcDbLine
 62
7
  6
CONTINUOUS
 10
-29.0
 20
36.0
 11
-4.0
 21
36.0
  0
LINE
  5
4C1
100
AcDbEntity
  8
0
100
AcDbLine
 62
7
  6
CONTINUOUS
 10
4.0
 20
36.0
 11
29.0
 21
36.0
  0
LINE
  5
4C2
100
AcDbEntity
  8
0
100
AcDbLine
 62
7
  6
CONTINUOUS
 10
19.05
 20
32.946808517
 11
18.7375
 21
33.0
  0
LINE
  5
4C3
100
AcDbEntity
  8
0
100
AcDbLine
 62
7
  6
CONTINUOUS
 10
22.95625
 20
30.5531914877
 11
23.2166668653
 21
30.5
  0
LINE
  5
4C4
100
AcDbEntity
  8
0
100
AcDbLine
 62
7
  6
CONTINUOUS
 10
20.6125
 20
31.4574468434
 11
20.8729165673
 21
31.4042552859
  0
LINE
  5
4C5
100
AcDbEntity
  8
0
100
AcDbLine
 62
7
  6
CONTINUOUS
 10
18.7375
 20
32.7340425849
 11
18.9979166418
 21
32.6808511019
  0
LINE
  5
4C6
100
AcDbEntity
  8
0
100
AcDbLine
 62
7
  6
CONTINUOUS
 10
23.7375
 20
32.0425531566
 11
23.4770831347
 21
32.0957446396
  0
LINE
  5
4C7
100
AcDbEntity
  8
0
100
AcDbLine
 62
7
  6
CONTINUOUS
 10
21.39375
 20
32.946808517
 11
21.1333334327
 21
33.0
  0
LINE
  5
4C8
100
AcDbEntity
  8
0
100
AcDbLine
 62
7
  6
CONTINUOUS
 10
23.6854168653
 20
32.946808517
 11
23.425
 21
33.0
  0
LINE
  5
4C9
100
AcDbEntity
  8
0
100
AcDbLine
 62
7
  6
CONTINUOUS
 10
20.8729165673
 20
30.7659574524
 11
20.7166665673
 21
30.8191489354
  0
LINE
  5
4CA
100
AcDbEntity
  8
0
100
AcDbLine
 62
7
  6
CONTINUOUS
 10
23.1645831347
 20
30.7659574524
 11
23.0083331347
 21
30.8191489354
  0
LINE
  5
4CB
100
AcDbEntity
  8
0
100
AcDbLine
 62
7
  6
CONTINUOUS
 10
20.8208334327
 20
31.6702127755
 11
20.6645834327
 21
31.7234042585
  0
LINE
  5
4CC
100
AcDbEntity
  8
0
100
AcDbLine
 62
7
  6
CONTINUOUS
 10
23.5291668653
 20
31.8297872245
 11
23.6854168653
 21
31.7765957415
  0
LINE
  5
4CD
100
AcDbEntity
  8
0
100
AcDbLine
 62
7
  6
CONTINUOUS
 10
21.1854165673
 20
32.7340425849
 11
21.3416665673
 21
32.6808511019
  0
LINE
  5
4CE
100
AcDbEntity
  8
0
100
AcDbLine
 62
7
  6
CONTINUOUS
 10
23.4770831347
 20
32.7340425849
 11
23.6333331347
 21
32.6808511019
  0
LINE
  5
4CF
100
AcDbEntity
  8
0
100
AcDbLine
 62
7
  6
CONTINUOUS
 10
18.1645833209
 20
30.7127659507
 11
18.425
 21
30.5531914877
  0
LINE
  5
4D0
100
AcDbEntity
  8
0
100
AcDbLine
 62
7
  6
CONTINUOUS
 10
20.4041665673
 20
30.7127659507
 11
20.6645834327
 21
30.5531914877
  0
LINE
  5
4D1
100
AcDbEntity
  8
0
100
AcDbLine
 62
7
  6
CONTINUOUS
 10
20.3520834327
 20
31.6170212924
 11
20.6125
 21
31.4574468434
  0
LINE
  5
4D2
100
AcDbEntity
  8
0
100
AcDbLine
 62
7
  6
CONTINUOUS
 10
22.6958334327
 20
30.7127659507
 11
22.95625
 21
30.5531914877
  0
LINE
  5
4D3
100
AcDbEntity
  8
0
100
AcDbLine
 62
7
  6
CONTINUOUS
 10
19.3104167163
 20
32.7872340679
 11
19.05
 21
32.946808517
  0
LINE
  5
4D4
100
AcDbEntity
  8
0
100
AcDbLine
 62
7
  6
CONTINUOUS
 10
21.6541665673
 20
32.7872340679
 11
21.39375
 21
32.946808517
  0
LINE
  5
4D5
100
AcDbEntity
  8
0
100
AcDbLine
 62
7
  6
CONTINUOUS
 10
23.9979168653
 20
31.8829787076
 11
23.7375
 21
32.0425531566
  0
LINE
  5
4D6
100
AcDbEntity
  8
0
100
AcDbLine
 62
7
  6
CONTINUOUS
 10
23.9458331347
 20
32.7872340679
 11
23.6854168653
 21
32.946808517
  0
LINE
  5
4D7
100
AcDbEntity
  8
0
100
AcDbLine
 62
7
  6
CONTINUOUS
 10
18.4770833582
 20
30.8191489354
 11
18.3208333209
 21
30.9255319014
  0
LINE
  5
4D8
100
AcDbEntity
  8
0
100
AcDbLine
 62
7
  6
CONTINUOUS
 10
20.7166665673
 20
30.8191489354
 11
20.5604165673
 21
30.9255319014
  0
LINE
  5
4D9
100
AcDbEntity
  8
0
100
AcDbLine
 62
7
  6
CONTINUOUS
 10
18.9979166418
 20
32.6808511019
 11
19.1541667163
 21
32.5744681358
  0
LINE
  5
4DA
100
AcDbEntity
  8
0
100
AcDbLine
 62
7
  6
CONTINUOUS
 10
20.6645834327
 20
31.7234042585
 11
20.5083334327
 21
31.8297872245
  0
LINE
  5
4DB
100
AcDbEntity
  8
0
100
AcDbLine
 62
7
  6
CONTINUOUS
 10
23.0083331347
 20
30.8191489354
 11
22.8520831347
 21
30.9255319014
  0
LINE
  5
4DC
100
AcDbEntity
  8
0
100
AcDbLine
 62
7
  6
CONTINUOUS
 10
21.3416665673
 20
32.6808511019
 11
21.4979165673
 21
32.5744681358
  0
LINE
  5
4DD
100
AcDbEntity
  8
0
100
AcDbLine
 62
7
  6
CONTINUOUS
 10
23.6854168653
 20
31.7765957415
 11
23.8416668653
 21
31.6702127755
  0
LINE
  5
4DE
100
AcDbEntity
  8
0
100
AcDbLine
 62
7
  6
CONTINUOUS
 10
23.6333331347
 20
32.6808511019
 11
23.7895831347
 21
32.5744681358
  0
LINE
  5
4DF
100
AcDbEntity
  8
DRAFT
100
AcDbLine
 62
7
  6
CONTINUOUS
 10
33.2839617601
 20
22.5160382399
 11
33.2943898772
 21
22.5056101228
  0
LINE
  5
4E0
100
AcDbEntity
  8
DRAFT
100
AcDbLine
 62
7
  6
CONTINUOUS
 10
32.5161638825
 20
23.2838361175
 11
32.5056021052
 21
23.2943978948
  0
LINE
  5
4E1
100
AcDbEntity
  8
0
100
AcDbLine
 62
7
  6
CONTINUOUS
 10
18.0083333395
 20
30.8723404184
 11
18.1645833209
 21
30.7127659507
  0
LINE
  5
4E2
100
AcDbEntity
  8
0
100
AcDbLine
 62
7
  6
CONTINUOUS
 10
19.4666667163
 20
32.6276596189
 11
19.3104167163
 21
32.7872340679
  0
LINE
  5
4E3
100
AcDbEntity
  8
0
100
AcDbLine
 62
7
  6
CONTINUOUS
 10
23.8416668653
 20
31.6702127755
 11
23.9458331347
 21
31.5638298094
  0
LINE
  5
4E4
100
AcDbEntity
  8
0
100
AcDbLine
 62
7
  6
CONTINUOUS
 10
24.1541668653
 20
31.7234042585
 11
23.9979168653
 21
31.8829787076
  0
LINE
  5
4E5
100
AcDbEntity
  8
0
100
AcDbLine
 62
7
  6
CONTINUOUS
 10
20.2479167163
 20
30.9255319014
 11
20.4041665673
 21
30.7127659507
  0
LINE
  5
4E6
100
AcDbEntity
  8
0
100
AcDbLine
 62
7
  6
CONTINUOUS
 10
20.1958332837
 20
31.8297872245
 11
20.3520834327
 21
31.6170212924
  0
LINE
  5
4E7
100
AcDbEntity
  8
0
100
AcDbLine
 62
7
  6
CONTINUOUS
 10
22.5395834327
 20
30.9255319014
 11
22.6958334327
 21
30.7127659507
  0
LINE
  5
4E8
100
AcDbEntity
  8
0
100
AcDbLine
 62
7
  6
CONTINUOUS
 10
21.8104165673
 20
32.5744681358
 11
21.6541665673
 21
32.7872340679
  0
LINE
  5
4E9
100
AcDbEntity
  8
0
100
AcDbLine
 62
7
  6
CONTINUOUS
 10
24.1020831347
 20
32.5744681358
 11
23.9458331347
 21
32.7872340679
  0
LINE
  5
4EA
100
AcDbEntity
  8
0
100
AcDbLine
 62
7
  6
CONTINUOUS
 10
20.5083334327
 20
31.8297872245
 11
20.4041665673
 21
31.9893616736
  0
LINE
  5
4EB
100
AcDbEntity
  8
0
100
AcDbLine
 62
7
  6
CONTINUOUS
 10
21.4979165673
 20
32.5744681358
 11
21.6020834327
 21
32.4148936868
  0
LINE
  5
4EC
100
AcDbEntity
  8
0
100
AcDbLine
 62
7
  6
CONTINUOUS
 10
22.8520831347
 20
30.9255319014
 11
22.7479165673
 21
31.0851063877
  0
LINE
  5
4ED
100
AcDbEntity
  8
0
100
AcDbLine
 62
7
  6
CONTINUOUS
 10
23.7895831347
 20
32.5744681358
 11
23.89375
 21
32.4148936868
  0
LINE
  5
4EE
100
AcDbEntity
  8
RACCORDO
100
AcDbLine
 62
253
  6
CONTINUOUS
 10
47.4
 20
0.3821948819
 11
47.4
 21
-0.3821948819
  0
LINE
  5
4EF
100
AcDbEntity
  8
RACCORDO
100
AcDbLine
 62
7
  6
CONTINUOUS
 10
33.2706424952
 20
-32.3823401955
 11
33.2411024509
 21
-32.441424784
  0
LINE
  5
4F0
100
AcDbEntity
  8
RACCORDO
100
AcDbLine
 62
7
  6
CONTINUOUS
 10
55.002401612
 20
-23.2606125509
 11
55.041424784
 21
-23.2411024509
  0
LINE
  5
4F1
100
AcDbEntity
  8
RACCORDO
100
AcDbLine
 62
7
  6
CONTINUOUS
 10
55.002401612
 20
23.2606125509
 11
55.041424784
 21
23.2411024509
  0
LINE
  5
4F2
100
AcDbEntity
  8
RACCORDO
100
AcDbLine
 62
7
  6
CONTINUOUS
 10
33.2706424952
 20
32.3823401955
 11
33.2411024509
 21
32.441424784
  0
LINE
  5
4F3
100
AcDbEntity
  8
RACCORDO
100
AcDbLine
 62
253
  6
CONTINUOUS
 10
47.7950996065
 20
0.379248869
 11
47.7950996065
 21
-0.379248869
  0
LINE
  5
4F4
100
AcDbEntity
  8
DRAFT
100
AcDbLine
 62
7
  6
CONTINUOUS
 10
54.7
 20
-17.1294055319
 11
54.7
 21
-17.8705944681
  0
LINE
  5
4F5
100
AcDbEntity
  8
DRAFT
100
AcDbLine
 62
7
  6
CONTINUOUS
 10
54.7
 20
-19.7294055319
 11
54.7
 21
-20.4577258348
  0
LINE
  5
4F6
100
AcDbEntity
  8
DRAFT
100
AcDbLine
 62
7
  6
CONTINUOUS
 10
54.7
 20
-15.2705944681
 11
54.7
 21
-14.5422741652
  0
LINE
  5
4F7
100
AcDbEntity
  8
DRAFT
100
AcDbLine
 62
7
  6
CONTINUOUS
 10
54.7
 20
14.5422741652
 11
54.7
 21
15.2705944681
  0
LINE
  5
4F8
100
AcDbEntity
  8
DRAFT
100
AcDbLine
 62
7
  6
CONTINUOUS
 10
54.7
 20
17.1294055319
 11
54.7
 21
17.8705944681
  0
LINE
  5
4F9
100
AcDbEntity
  8
DRAFT
100
AcDbLine
 62
7
  6
CONTINUOUS
 10
54.7
 20
19.7294055319
 11
54.7
 21
20.4577258348
  0
LINE
  5
4FA
100
AcDbEntity
  8
RACCORDO
100
AcDbLine
 62
253
  6
CONTINUOUS
 10
55.0065146541
 20
-0.3585561865
 11
55.0065146541
 21
0.3585561865
  0
LINE
  5
4FB
100
AcDbEntity
  8
RACCORDO
100
AcDbLine
 62
253
  6
CONTINUOUS
 10
55.041424784
 20
23.2411024509
 11
55.041424784
 21
22.5588975491
  0
LINE
  5
4FC
100
AcDbEntity
  8
RACCORDO
100
AcDbLine
 62
253
  6
CONTINUOUS
 10
55.041424784
 20
-22.5588975491
 11
55.041424784
 21
-23.2411024509
  0
LINE
  5
4FD
100
AcDbEntity
  8
DRAFT
100
AcDbLine
 62
7
  6
CONTINUOUS
 10
55.4069219382
 20
20.4524186637
 11
55.4069219382
 21
19.7232363176
  0
LINE
  5
4FE
100
AcDbEntity
  8
DRAFT
100
AcDbLine
 62
7
  6
CONTINUOUS
 10
55.4069219382
 20
17.8767636824
 11
55.4069219382
 21
17.1232363176
  0
LINE
  5
4FF
100
AcDbEntity
  8
DRAFT
100
AcDbLine
 62
7
  6
CONTINUOUS
 10
55.4069219382
 20
15.2767636824
 11
55.4069219382
 21
14.5475813363
  0
LINE
  5
500
100
AcDbEntity
  8
DRAFT
100
AcDbLine
 62
7
  6
CONTINUOUS
 10
55.4069219382
 20
-20.4524186637
 11
55.4069219382
 21
-19.7232363176
  0
LINE
  5
501
100
AcDbEntity
  8
DRAFT
100
AcDbLine
 62
7
  6
CONTINUOUS
 10
55.4069219382
 20
-17.8767636824
 11
55.4069219382
 21
-17.1232363176
  0
LINE
  5
502
100
AcDbEntity
  8
DRAFT
100
AcDbLine
 62
7
  6
CONTINUOUS
 10
55.4069219382
 20
-15.2767636824
 11
55.4069219382
 21
-14.5475813363
  0
LINE
  5
503
100
AcDbEntity
  8
RACCORDO
100
AcDbLine
 62
253
  6
CONTINUOUS
 10
55.5064385017
 20
-0.354268905
 11
55.5064385017
 21
0.354268905
  0
LINE
  5
504
100
AcDbEntity
  8
RACCORDO
100
AcDbLine
 62
253
  6
CONTINUOUS
 10
55.5413486316
 20
23.2368151694
 11
55.5413486316
 21
22.5631848306
  0
LINE
  5
505
100
AcDbEntity
  8
RACCORDO
100
AcDbLine
 62
253
  6
CONTINUOUS
 10
55.5413486316
 20
-22.5631848306
 11
55.5413486316
 21
-23.2368151694
  0
LINE
  5
506
100
AcDbEntity
  8
DRAFT
100
AcDbLine
 62
7
  6
CONTINUOUS
 10
55.85
 20
14.52489148
 11
55.85
 21
14.5
  0
LINE
  5
507
100
AcDbEntity
  8
DRAFT
100
AcDbLine
 62
7
  6
CONTINUOUS
 10
55.85
 20
-20.47510852
 11
55.85
 21
-20.4981609264
  0
LINE
  5
508
100
AcDbEntity
  8
DRAFT
100
AcDbLine
 62
7
  6
CONTINUOUS
 10
55.85
 20
-14.52489148
 11
55.85
 21
-14.5
  0
LINE
  5
509
100
AcDbEntity
  8
DRAFT
100
AcDbLine
 62
7
  6
CONTINUOUS
 10
55.85
 20
20.47510852
 11
55.85
 21
20.4981609264
  0
LINE
  5
50A
100
AcDbEntity
  8
DRAFT
100
AcDbLine
 62
7
  6
CONTINUOUS
 10
56.75
 20
-19.7115154529
 11
56.75
 21
-17.8884845471
  0
LINE
  5
50B
100
AcDbEntity
  8
DRAFT
100
AcDbLine
 62
7
  6
CONTINUOUS
 10
56.75
 20
-17.1115154529
 11
56.75
 21
-15.2884845471
  0
LINE
  5
50C
100
AcDbEntity
  8
DRAFT
100
AcDbLine
 62
7
  6
CONTINUOUS
 10
56.75
 20
15.2884845471
 11
56.75
 21
17.1115154529
  0
LINE
  5
50D
100
AcDbEntity
  8
DRAFT
100
AcDbLine
 62
7
  6
CONTINUOUS
 10
56.75
 20
17.8884845471
 11
56.75
 21
19.7115154529
  0
ARC
  5
50E
100
AcDbEntity
  8
RACCORDO
100
AcDbCircle
 62
7
  6
CONTINUOUS
 10
-577.5275425852
 20
-0.005304247
 40
635.6383345313
100
AcDbArc
 50
2.0993995537
 51
3.224044215
  0
ARC
  5
50F
100
AcDbEntity
  8
DRAFT
100
AcDbCircle
 62
7
  6
CONTINUOUS
 10
-577.438896614
 20
-0.0019384942
 40
635.5496247428
100
AcDbArc
 50
1.8483122686
 51
2.0307702788
  0
ARC
  5
510
100
AcDbEntity
  8
RACCORDO
100
AcDbCircle
 62
7
  6
CONTINUOUS
 10
-341.0772366819
 20
-0.0210177512
 40
366.9658538094
100
AcDbArc
 50
356.2175822818
 51
356.3633831876
  0
ARC
  5
511
100
AcDbEntity
  8
RACCORDO
100
AcDbCircle
 62
7
  6
CONTINUOUS
 10
-0.0204452059
 20
-1037.1853525776
 40
1075.2457301298
100
AcDbArc
 50
86.9997713405
 51
88.224916367
  0
ARC
  5
512
100
AcDbEntity
  8
DRAFT
100
AcDbCircle
 62
7
  6
CONTINUOUS
 10
-0.000143464
 20
-1036.5468241313
 40
1074.6068783091
100
AcDbArc
 50
88.2661909281
 51
89.9790354353
  0
ARC
  5
513
100
AcDbEntity
  8
RACCORDO
100
AcDbCircle
 62
7
  6
CONTINUOUS
 10
-0.0009851201
 20
-498.9325777825
 40
524.5653776022
100
AcDbArc
 50
90.0435825004
 51
92.6455415426
  0
ARC
  5
514
100
AcDbEntity
  8
DRAFT
100
AcDbCircle
 62
7
  6
CONTINUOUS
 10
-34.9469093401
 20
-0.0003074467
 40
77.4587117472
100
AcDbArc
 50
0.0002274196
 51
0.2829360011
  0
ARC
  5
515
100
AcDbEntity
  8
0
100
AcDbCircle
 62
7
  6
CONTINUOUS
 10
-11.0
 20
-31.75
 40
2.6237424326
100
AcDbArc
 50
292.0885393584
 51
273.4297246723
  0
ARC
  5
516
100
AcDbEntity
  8
0
100
AcDbCircle
 62
7
  6
CONTINUOUS
 10
-17.582444
 20
-31.75
 40
2.5499986575
100
AcDbArc
 50
87.752529198
 51
272.247470802
  0
ARC
  5
517
100
AcDbEntity
  8
0
100
AcDbCircle
 62
7
  6
CONTINUOUS
 10
-21.967554
 20
-31.75
 40
2.5499985399
100
AcDbArc
 50
87.7525290943
 51
272.2474709057
  0
ARC
  5
518
100
AcDbEntity
  8
RACCORDO
100
AcDbCircle
 62
7
  6
CONTINUOUS
 10
-56.4246297257
 20
-35.9074146634
 40
2.4954190431
100
AcDbArc
 50
183.4223530365
 51
266.7801990931
  0
ARC
  5
519
100
AcDbEntity
  8
0
100
AcDbCircle
 62
7
  6
CONTINUOUS
 10
-11.079357
 20
-36.696093
 40
2.3390187052
100
AcDbArc
 50
47.2312712626
 51
84.2012841963
  0
ARC
  5
51A
100
AcDbEntity
  8
0
100
AcDbCircle
 62
7
  6
CONTINUOUS
 10
-10.895278
 20
-36.317224
 40
2.3109495123
100
AcDbArc
 50
45.4348886633
 51
67.5658613447
  0
CIRCLE
  5
51B
100
AcDbEntity
  8
0
100
AcDbCircle
 62
7
  6
CONTINUOUS
 10
-11.0
 20
-31.75
 40
2.20376
  0
ARC
  5
51C
100
AcDbEntity
  8
0
100
AcDbCircle
 62
7
  6
CONTINUOUS
 10
-11.0
 20
-31.75
 40
1.9709567246
100
AcDbArc
 50
299.3041457634
 51
44.9957848293
  0
ARC
  5
51D
100
AcDbEntity
  8
0
100
AcDbCircle
 62
7
  6
CONTINUOUS
 10
-11.0
 20
-31.75
 40
1.9709563643
100
AcDbArc
 50
134.9002846268
 51
240.6958542366
  0
ARC
  5
51E
100
AcDbEntity
  8
0
100
AcDbCircle
 62
7
  6
CONTINUOUS
 10
-17.582444
 20
-31.75
 40
1.7999999246
100
AcDbArc
 50
86.8152613297
 51
167.9753003079
  0
ARC
  5
51F
100
AcDbEntity
  8
0
100
AcDbCircle
 62
7
  6
CONTINUOUS
 10
-21.967554
 20
-31.75
 40
1.7999999246
100
AcDbArc
 50
86.8152613297
 51
273.1847386703
  0
ARC
  5
520
100
AcDbEntity
  8
0
100
AcDbCircle
 62
7
  6
CONTINUOUS
 10
-17.582444
 20
-31.75
 40
1.7999968808
100
AcDbArc
 50
192.0247203293
 51
273.1847440612
  0
ARC
  5
521
100
AcDbEntity
  8
0
100
AcDbCircle
 62
7
  6
CONTINUOUS
 10
-11.0
 20
-31.75
 40
1.5790921275
100
AcDbArc
 50
148.0267086216
 51
240.6958772397
  0
ARC
  5
522
100
AcDbEntity
  8
0
100
AcDbCircle
 62
7
  6
CONTINUOUS
 10
-11.0
 20
-31.75
 40
1.5790919977
100
AcDbArc
 50
299.3041227603
 51
31.9732907039
  0
ARC
  5
523
100
AcDbEntity
  8
RACCORDO
100
AcDbCircle
 62
7
  6
CONTINUOUS
 10
-22.5852586568
 20
-22.5851912063
 40
1.5214637249
100
AcDbArc
 50
207.584438402
 51
248.5715296081
  0
ARC
  5
524
100
AcDbEntity
  8
RACCORDO
100
AcDbCircle
 62
253
  6
CONTINUOUS
 10
-22.5930452059
 20
-22.5930452059
 40
1.4998491916
100
AcDbArc
 50
180.0028766428
 51
269.9971404171
  0
ARC
  5
525
100
AcDbEntity
  8
RACCORDO
100
AcDbCircle
 62
7
  6
CONTINUOUS
 10
-22.5947134815
 20
-22.592237029
 40
1.498899522
100
AcDbArc
 50
180.0612969973
 51
207.5564514395
  0
ARC
  5
526
100
AcDbEntity
  8
RACCORDO
100
AcDbCircle
 62
253
  6
CONTINUOUS
 10
-22.5931913497
 20
-22.5931913497
 40
1.099763104
100
AcDbArc
 50
179.9965213248
 51
270.0034786752
  0
ARC
  5
527
100
AcDbEntity
  8
0
100
AcDbCircle
 62
7
  6
CONTINUOUS
 10
-29.0
 20
-35.0
 40
1.0
100
AcDbArc
 50
180.0
 51
270.0
  0
ARC
  5
528
100
AcDbEntity
  8
0
100
AcDbCircle
 62
7
  6
CONTINUOUS
 10
-4.0
 20
-35.0
 40
1.0
100
AcDbArc
 50
270.0
 51
360.0
  0
ARC
  5
529
100
AcDbEntity
  8
0
100
AcDbCircle
 62
7
  6
CONTINUOUS
 10
-4.0
 20
-28.5
 40
1.0
100
AcDbArc
 50
0.0
 51
90.0
  0
ARC
  5
52A
100
AcDbEntity
  8
0
100
AcDbCircle
 62
7
  6
CONTINUOUS
 10
-29.0
 20
-28.5
 40
1.0
100
AcDbArc
 50
90.0
 51
180.0
  0
ARC
  5
52B
100
AcDbEntity
  8
RACCORDO
100
AcDbCircle
 62
7
  6
CONTINUOUS
 10
-56.4198072995
 20
-35.9025751632
 40
0.8983507353
100
AcDbArc
 50
183.4219745471
 51
266.7804274621
  0
ARC
  5
52C
100
AcDbEntity
  8
RACCORDO
100
AcDbCircle
 62
253
  6
CONTINUOUS
 10
-22.1889221026
 20
-22.1889221026
 40
0.6998494755
100
AcDbArc
 50
179.9965403727
 51
270.0034596273
  0
ARC
  5
52D
100
AcDbEntity
  8
RACCORDO
100
AcDbCircle
 62
253
  6
CONTINUOUS
 10
-22.1890317323
 20
-22.1890317326
 40
0.3997848961
100
AcDbArc
 50
179.9782608925
 51
270.0219529124
  0
ARC
  5
52E
100
AcDbEntity
  8
RACCORDO
100
AcDbCircle
 62
253
  6
CONTINUOUS
 10
-22.9499757581
 20
-13.3939882938
 40
0.300064863
100
AcDbArc
 50
270.0209657745
 51
359.9790342255
  0
ARC
  5
52F
100
AcDbEntity
  8
RACCORDO
100
AcDbCircle
 62
253
  6
CONTINUOUS
 10
-22.9499757816
 20
-9.1060117297
 40
0.300064863
100
AcDbArc
 50
0.0209702597
 51
89.9790297403
  0
ARC
  5
530
100
AcDbEntity
  8
RACCORDO
100
AcDbCircle
 62
253
  6
CONTINUOUS
 10
-23.7300242419
 20
-13.3939882938
 40
0.300064863
100
AcDbArc
 50
180.0209657745
 51
269.9790342255
  0
ARC
  5
531
100
AcDbEntity
  8
RACCORDO
100
AcDbCircle
 62
253
  6
CONTINUOUS
 10
-23.7300242419
 20
-9.1060117062
 40
0.300064863
100
AcDbArc
 50
90.0209657745
 51
179.9790342255
  0
ARC
  5
532
100
AcDbEntity
  8
RACCORDO
100
AcDbCircle
 62
7
  6
CONTINUOUS
 10
-0.0153684807
 20
1037.0635986413
 40
1075.1238773638
100
AcDbArc
 50
271.7750142024
 51
273.0002980901
  0
ARC
  5
533
100
AcDbEntity
  8
DRAFT
100
AcDbCircle
 62
7
  6
CONTINUOUS
 10
-0.000143464
 20
1036.5468241312
 40
1074.606878309
100
AcDbArc
 50
270.0209645647
 51
271.7338090719
  0
ARC
  5
534
100
AcDbEntity
  8
RACCORDO
100
AcDbCircle
 62
7
  6
CONTINUOUS
 10
-577.5585298705
 20
0.0067448229
 40
635.6693537903
100
AcDbArc
 50
356.775983226
 51
357.9005730054
  0
ARC
  5
535
100
AcDbEntity
  8
DRAFT
100
AcDbCircle
 62
7
  6
CONTINUOUS
 10
-577.4388965765
 20
0.001938493
 40
635.5496247052
100
AcDbArc
 50
357.9692297212
 51
358.1516877314
  0
ARC
  5
536
100
AcDbEntity
  8
DRAFT
100
AcDbCircle
 62
7
  6
CONTINUOUS
 10
-577.3676550942
 20
0.00003349
 40
635.4783571711
100
AcDbArc
 50
358.6924047127
 51
359.9653188408
  0
ARC
  5
537
100
AcDbEntity
  8
DRAFT
100
AcDbCircle
 62
7
  6
CONTINUOUS
 10
-577.3648064729
 20
-0.0000001209
 40
635.4755085302
100
AcDbArc
 50
0.0346783061
 51
1.3075981404
  0
ARC
  5
538
100
AcDbEntity
  8
RACCORDO
100
AcDbCircle
 62
7
  6
CONTINUOUS
 10
-540.0
 20
0.0
 40
600.0
100
AcDbArc
 50
356.5547933296
 51
359.6228118367
  0
ARC
  5
539
100
AcDbEntity
  8
RACCORDO
100
AcDbCircle
 62
7
  6
CONTINUOUS
 10
-540.0
 20
0.0
 40
600.0
100
AcDbArc
 50
0.3771881633
 51
3.4452066704
  0
ARC
  5
53A
100
AcDbEntity
  8
RACCORDO
100
AcDbCircle
 62
7
  6
CONTINUOUS
 10
-540.0
 20
0.0
 40
599.8951844414
100
AcDbArc
 50
359.6919702799
 51
0.3080297201
  0
ARC
  5
53B
100
AcDbEntity
  8
DRAFT
100
AcDbCircle
 62
7
  6
CONTINUOUS
 10
-540.0
 20
0.0
 40
598.3978042464
100
AcDbArc
 50
1.4652247854
 51
1.6374546257
  0
ARC
  5
53C
100
AcDbEntity
  8
DRAFT
100
AcDbCircle
 62
7
  6
CONTINUOUS
 10
-540.0
 20
0.0
 40
598.3978042464
100
AcDbArc
 50
1.7142070122
 51
1.8865859509
  0
ARC
  5
53D
100
AcDbEntity
  8
DRAFT
100
AcDbCircle
 62
7
  6
CONTINUOUS
 10
-540.0
 20
0.0
 40
598.3978042464
100
AcDbArc
 50
357.8390933551
 51
358.0413271329
  0
ARC
  5
53E
100
AcDbEntity
  8
DRAFT
100
AcDbCircle
 62
7
  6
CONTINUOUS
 10
-540.0
 20
0.0
 40
598.3978042464
100
AcDbArc
 50
1.9586728671
 51
2.1609066449
  0
ARC
  5
53F
100
AcDbEntity
  8
RACCORDO
100
AcDbCircle
 62
7
  6
CONTINUOUS
 10
-540.0
 20
0.0
 40
598.3978042464
100
AcDbArc
 50
356.555167693
 51
357.7745468772
  0
ARC
  5
540
100
AcDbEntity
  8
RACCORDO
100
AcDbCircle
 62
7
  6
CONTINUOUS
 10
-540.0
 20
0.0
 40
598.3978042464
100
AcDbArc
 50
2.2254531228
 51
3.444832307
  0
ARC
  5
541
100
AcDbEntity
  8
RACCORDO
100
AcDbCircle
 62
7
  6
CONTINUOUS
 10
-540.0
 20
0.0
 40
598.3978042464
100
AcDbArc
 50
358.6069515421
 51
359.6218019098
  0
ARC
  5
542
100
AcDbEntity
  8
RACCORDO
100
AcDbCircle
 62
7
  6
CONTINUOUS
 10
-540.0
 20
0.0
 40
598.3978042464
100
AcDbArc
 50
0.3781980902
 51
1.3930484579
  0
ARC
  5
543
100
AcDbEntity
  8
DRAFT
100
AcDbCircle
 62
7
  6
CONTINUOUS
 10
-540.0
 20
0.0
 40
598.3978042464
100
AcDbArc
 50
358.1134140491
 51
358.2857929878
  0
ARC
  5
544
100
AcDbEntity
  8
DRAFT
100
AcDbCircle
 62
7
  6
CONTINUOUS
 10
-540.0
 20
0.0
 40
598.3978042464
100
AcDbArc
 50
358.3625453743
 51
358.5347752146
  0
ARC
  5
545
100
AcDbEntity
  8
RACCORDO
100
AcDbCircle
 62
7
  6
CONTINUOUS
 10
-540.0
 20
0.0
 40
598.2929886878
100
AcDbArc
 50
359.6911453852
 51
359.9660732874
  0
ARC
  5
546
100
AcDbEntity
  8
RACCORDO
100
AcDbCircle
 62
7
  6
CONTINUOUS
 10
-540.0
 20
0.0
 40
598.2929886878
100
AcDbArc
 50
0.0339267126
 51
0.3088546148
  0
ARC
  5
547
100
AcDbEntity
  8
RACCORDO
100
AcDbCircle
 62
7
  6
CONTINUOUS
 10
-0.005591361
 20
498.7363282129
 40
524.3691246046
100
AcDbArc
 50
267.3539714626
 51
269.9569044944
  0
ARC
  5
548
100
AcDbEntity
  8
DRAFT
100
AcDbCircle
 62
7
  6
CONTINUOUS
 10
-341.4671642765
 20
0.0002426858
 40
367.3563515891
100
AcDbArc
 50
356.488073925
 51
359.9373307094
  0
ARC
  5
549
100
AcDbEntity
  8
DRAFT
100
AcDbCircle
 62
7
  6
CONTINUOUS
 10
-341.4237000395
 20
0.0011135876
 40
367.3128858969
100
AcDbArc
 50
0.0624651464
 51
3.5121302192
  0
ARC
  5
54A
100
AcDbEntity
  8
RACCORDO
100
AcDbCircle
 62
7
  6
CONTINUOUS
 10
-341.0772366745
 20
0.0210177517
 40
366.965853802
100
AcDbArc
 50
3.6366168124
 51
3.7824177182
  0
ARC
  5
54B
100
AcDbEntity
  8
DRAFT
100
AcDbCircle
 62
7
  6
CONTINUOUS
 10
-34.9469093426
 20
0.0003074467
 40
77.4587117497
100
AcDbArc
 50
359.7170639989
 51
359.9997725864
  0
ARC
  5
54C
100
AcDbEntity
  8
RACCORDO
100
AcDbCircle
 62
7
  6
CONTINUOUS
 10
-56.4246294863
 20
35.9074144231
 40
2.4954190431
100
AcDbArc
 50
93.2198060857
 51
176.5776417846
  0
ARC
  5
54D
100
AcDbEntity
  8
RACCORDO
100
AcDbCircle
 62
7
  6
CONTINUOUS
 10
-22.5852586568
 20
22.5851912064
 40
1.5214637249
100
AcDbArc
 50
111.4284703915
 51
152.4155615984
  0
ARC
  5
54E
100
AcDbEntity
  8
RACCORDO
100
AcDbCircle
 62
253
  6
CONTINUOUS
 10
-22.5930451246
 20
22.5930451246
 40
1.4998491916
100
AcDbArc
 50
90.002862689
 51
179.9971202501
  0
ARC
  5
54F
100
AcDbEntity
  8
RACCORDO
100
AcDbCircle
 62
7
  6
CONTINUOUS
 10
-22.5947134815
 20
22.592237029
 40
1.498899522
100
AcDbArc
 50
152.4435485605
 51
179.9387030027
  0
ARC
  5
550
100
AcDbEntity
  8
RACCORDO
100
AcDbCircle
 62
253
  6
CONTINUOUS
 10
-22.5931912447
 20
22.5931912447
 40
1.099763104
100
AcDbArc
 50
89.9965267947
 51
180.0034732053
  0
ARC
  5
551
100
AcDbEntity
  8
0
100
AcDbCircle
 62
7
  6
CONTINUOUS
 10
-29.0
 20
35.0
 40
1.0
100
AcDbArc
 50
90.0
 51
180.0
  0
ARC
  5
552
100
AcDbEntity
  8
0
100
AcDbCircle
 62
7
  6
CONTINUOUS
 10
-29.0
 20
28.5
 40
1.0
100
AcDbArc
 50
180.0
 51
270.0
  0
ARC
  5
553
100
AcDbEntity
  8
0
100
AcDbCircle
 62
7
  6
CONTINUOUS
 10
-4.0
 20
28.5
 40
1.0
100
AcDbArc
 50
270.0
 51
360.0
  0
ARC
  5
554
100
AcDbEntity
  8
0
100
AcDbCircle
 62
7
  6
CONTINUOUS
 10
-4.0
 20
35.0
 40
1.0
100
AcDbArc
 50
0.0
 51
90.0
  0
ARC
  5
555
100
AcDbEntity
  8
RACCORDO
100
AcDbCircle
 62
7
  6
CONTINUOUS
 10
-56.4198072132
 20
35.9025750765
 40
0.8983507353
100
AcDbArc
 50
93.219577726
 51
176.5780202648
  0
ARC
  5
556
100
AcDbEntity
  8
RACCORDO
100
AcDbCircle
 62
253
  6
CONTINUOUS
 10
-22.1889220358
 20
22.1889220358
 40
0.6998494755
100
AcDbArc
 50
89.9965458441
 51
180.0034541559
  0
ARC
  5
557
100
AcDbEntity
  8
RACCORDO
100
AcDbCircle
 62
253
  6
CONTINUOUS
 10
-22.1890317326
 20
22.1890317323
 40
0.3997848961
100
AcDbArc
 50
89.9782608925
 51
180.0219529124
  0
ARC
  5
558
100
AcDbEntity
  8
RACCORDO
100
AcDbCircle
 62
7
  6
CONTINUOUS
 10
0.0153684807
 20
-1037.0635986419
 40
1075.1238773644
100
AcDbArc
 50
91.7750142024
 51
93.0002980901
  0
ARC
  5
559
100
AcDbEntity
  8
DRAFT
100
AcDbCircle
 62
7
  6
CONTINUOUS
 10
0.000143464
 20
-1036.5468241311
 40
1074.6068783089
100
AcDbArc
 50
90.0209645647
 51
91.7338090719
  0
ARC
  5
55A
100
AcDbEntity
  8
RACCORDO
100
AcDbCircle
 62
7
  6
CONTINUOUS
 10
-0.0
 20
-960.0
 40
1000.0
100
AcDbArc
 50
86.7573454592
 51
93.2426545408
  0
ARC
  5
55B
100
AcDbEntity
  8
DRAFT
100
AcDbCircle
 62
7
  6
CONTINUOUS
 10
-0.0
 20
-960.0
 40
998.3978042464
100
AcDbArc
 50
88.1309414013
 51
89.980670943
  0
ARC
  5
55C
100
AcDbEntity
  8
DRAFT
100
AcDbCircle
 62
7
  6
CONTINUOUS
 10
-0.0
 20
-960.0
 40
998.3978042464
100
AcDbArc
 50
90.019329057
 51
91.8690585987
  0
ARC
  5
55D
100
AcDbEntity
  8
RACCORDO
100
AcDbCircle
 62
7
  6
CONTINUOUS
 10
-0.0
 20
-960.0
 40
998.3978042464
100
AcDbArc
 50
91.9077377189
 51
93.2424302978
  0
ARC
  5
55E
100
AcDbEntity
  8
RACCORDO
100
AcDbCircle
 62
7
  6
CONTINUOUS
 10
-0.0
 20
-960.0
 40
998.3978042464
100
AcDbArc
 50
86.7575697022
 51
88.0922622811
  0
ARC
  5
55F
100
AcDbEntity
  8
RACCORDO
100
AcDbCircle
 62
7
  6
CONTINUOUS
 10
577.5585298705
 20
-0.0067448229
 40
635.6693537903
100
AcDbArc
 50
176.775983226
 51
177.9005730054
  0
ARC
  5
560
100
AcDbEntity
  8
DRAFT
100
AcDbCircle
 62
7
  6
CONTINUOUS
 10
577.4388965761
 20
-0.001938493
 40
635.5496247048
100
AcDbArc
 50
177.9692297212
 51
178.1516877314
  0
ARC
  5
561
100
AcDbEntity
  8
DRAFT
100
AcDbCircle
 62
7
  6
CONTINUOUS
 10
577.3676550942
 20
-0.00003349
 40
635.4783571711
100
AcDbArc
 50
178.6924047127
 51
179.9653188408
  0
ARC
  5
562
100
AcDbEntity
  8
RACCORDO
100
AcDbCircle
 62
7
  6
CONTINUOUS
 10
0.005591361
 20
-498.7363282128
 40
524.3691246045
100
AcDbArc
 50
87.3539714626
 51
89.9569044944
  0
ARC
  5
563
100
AcDbEntity
  8
DRAFT
100
AcDbCircle
 62
7
  6
CONTINUOUS
 10
341.4671642764
 20
-0.0002426858
 40
367.3563515891
100
AcDbArc
 50
176.488073925
 51
179.9373307094
  0
ARC
  5
564
100
AcDbEntity
  8
DRAFT
100
AcDbCircle
 62
7
  6
CONTINUOUS
 10
341.4237000395
 20
-0.0011135876
 40
367.3128858969
100
AcDbArc
 50
180.0624651464
 51
183.5121302192
  0
ARC
  5
565
100
AcDbEntity
  8
RACCORDO
100
AcDbCircle
 62
7
  6
CONTINUOUS
 10
341.0772366767
 20
-0.0210177515
 40
366.9658538042
100
AcDbArc
 50
183.6366168124
 51
183.7824177182
  0
ARC
  5
566
100
AcDbEntity
  8
DRAFT
100
AcDbCircle
 62
7
  6
CONTINUOUS
 10
34.9469093398
 20
-0.0003074467
 40
77.4587117469
100
AcDbArc
 50
179.7170639989
 51
179.9997725864
  0
ARC
  5
567
100
AcDbEntity
  8
RACCORDO
100
AcDbCircle
 62
7
  6
CONTINUOUS
 10
56.4246297257
 20
-35.9074146634
 40
2.4954190431
100
AcDbArc
 50
273.2198009068
 51
356.5776469635
  0
ARC
  5
568
100
AcDbEntity
  8
RACCORDO
100
AcDbCircle
 62
7
  6
CONTINUOUS
 10
22.5852583757
 20
-22.5851914584
 40
1.5214637249
100
AcDbArc
 50
291.4284837139
 51
332.4155749129
  0
ARC
  5
569
100
AcDbEntity
  8
RACCORDO
100
AcDbCircle
 62
253
  6
CONTINUOUS
 10
22.5930452059
 20
-22.5930452059
 40
1.4998491916
100
AcDbArc
 50
270.0028595826
 51
359.9971233564
  0
ARC
  5
56A
100
AcDbEntity
  8
RACCORDO
100
AcDbCircle
 62
7
  6
CONTINUOUS
 10
22.5947134815
 20
-22.592237029
 40
1.498899522
100
AcDbArc
 50
332.4435485605
 51
359.9387030027
  0
ARC
  5
56B
100
AcDbEntity
  8
RACCORDO
100
AcDbCircle
 62
253
  6
CONTINUOUS
 10
22.5931913497
 20
-22.5931913497
 40
1.099763104
100
AcDbArc
 50
269.9965213248
 51
0.0034786752
  0
ARC
  5
56C
100
AcDbEntity
  8
0
100
AcDbCircle
 62
7
  6
CONTINUOUS
 10
4.0
 20
-35.0
 40
1.0
100
AcDbArc
 50
180.0
 51
270.0
  0
ARC
  5
56D
100
AcDbEntity
  8
0
100
AcDbCircle
 62
7
  6
CONTINUOUS
 10
29.0
 20
-35.0
 40
1.0
100
AcDbArc
 50
270.0
 51
360.0
  0
ARC
  5
56E
100
AcDbEntity
  8
0
100
AcDbCircle
 62
7
  6
CONTINUOUS
 10
29.0
 20
-28.5
 40
1.0
100
AcDbArc
 50
0.0
 51
90.0
  0
ARC
  5
56F
100
AcDbEntity
  8
0
100
AcDbCircle
 62
7
  6
CONTINUOUS
 10
4.0
 20
-28.5
 40
1.0
100
AcDbArc
 50
90.0
 51
180.0
  0
ARC
  5
570
100
AcDbEntity
  8
RACCORDO
100
AcDbCircle
 62
7
  6
CONTINUOUS
 10
56.4198072995
 20
-35.9025751632
 40
0.8983507353
100
AcDbArc
 50
273.2195725379
 51
356.5780254529
  0
ARC
  5
571
100
AcDbEntity
  8
RACCORDO
100
AcDbCircle
 62
253
  6
CONTINUOUS
 10
22.1889221026
 20
-22.1889221026
 40
0.6998494755
100
AcDbArc
 50
269.9965403727
 51
0.0034596273
  0
ARC
  5
572
100
AcDbEntity
  8
RACCORDO
100
AcDbCircle
 62
253
  6
CONTINUOUS
 10
22.1890316894
 20
-22.1890316891
 40
0.3997848961
100
AcDbArc
 50
269.9782670863
 51
0.0219467186
  0
ARC
  5
573
100
AcDbEntity
  8
RACCORDO
100
AcDbCircle
 62
7
  6
CONTINUOUS
 10
0.0009851201
 20
498.9325777825
 40
524.5653776022
100
AcDbArc
 50
270.0435825004
 51
272.6455415426
  0
ARC
  5
574
100
AcDbEntity
  8
DRAFT
100
AcDbCircle
 62
7
  6
CONTINUOUS
 10
34.9469093414
 20
0.0003074467
 40
77.4587117485
100
AcDbArc
 50
180.0002274196
 51
180.2829360011
  0
ARC
  5
575
100
AcDbEntity
  8
RACCORDO
100
AcDbCircle
 62
7
  6
CONTINUOUS
 10
56.4246294863
 20
35.9074144231
 40
2.4954190431
100
AcDbArc
 50
3.4223582154
 51
86.7801939142
  0
ARC
  5
576
100
AcDbEntity
  8
RACCORDO
100
AcDbCircle
 62
7
  6
CONTINUOUS
 10
22.5852583089
 20
22.5851915183
 40
1.5214637249
100
AcDbArc
 50
27.5844219233
 51
68.5715131217
  0
ARC
  5
577
100
AcDbEntity
  8
RACCORDO
100
AcDbCircle
 62
253
  6
CONTINUOUS
 10
22.5930451246
 20
22.5930451246
 40
1.4998491916
100
AcDbArc
 50
0.0028626891
 51
89.9971202502
  0
ARC
  5
578
100
AcDbEntity
  8
RACCORDO
100
AcDbCircle
 62
7
  6
CONTINUOUS
 10
22.5947134815
 20
22.592237029
 40
1.498899522
100
AcDbArc
 50
0.0612969973
 51
27.5564514395
  0
ARC
  5
579
100
AcDbEntity
  8
RACCORDO
100
AcDbCircle
 62
253
  6
CONTINUOUS
 10
22.5931912447
 20
22.5931912447
 40
1.099763104
100
AcDbArc
 50
359.9965267947
 51
90.0034732053
  0
ARC
  5
57A
100
AcDbEntity
  8
0
100
AcDbCircle
 62
7
  6
CONTINUOUS
 10
4.0
 20
35.0
 40
1.0
100
AcDbArc
 50
90.0
 51
180.0
  0
ARC
  5
57B
100
AcDbEntity
  8
0
100
AcDbCircle
 62
7
  6
CONTINUOUS
 10
4.0
 20
28.5
 40
1.0
100
AcDbArc
 50
180.0
 51
270.0
  0
ARC
  5
57C
100
AcDbEntity
  8
0
100
AcDbCircle
 62
7
  6
CONTINUOUS
 10
29.0
 20
28.5
 40
1.0
100
AcDbArc
 50
270.0
 51
360.0
  0
ARC
  5
57D
100
AcDbEntity
  8
0
100
AcDbCircle
 62
7
  6
CONTINUOUS
 10
29.0
 20
35.0
 40
1.0
100
AcDbArc
 50
0.0
 51
90.0
  0
ARC
  5
57E
100
AcDbEntity
  8
RACCORDO
100
AcDbCircle
 62
7
  6
CONTINUOUS
 10
56.4198072132
 20
35.9025750765
 40
0.8983507353
100
AcDbArc
 50
3.4219797352
 51
86.780422274
  0
ARC
  5
57F
100
AcDbEntity
  8
RACCORDO
100
AcDbCircle
 62
253
  6
CONTINUOUS
 10
22.1889220358
 20
22.1889220358
 40
0.6998494755
100
AcDbArc
 50
359.9965458442
 51
90.0034541558
  0
ARC
  5
580
100
AcDbEntity
  8
RACCORDO
100
AcDbCircle
 62
253
  6
CONTINUOUS
 10
22.1890316891
 20
22.1890316894
 40
0.3997848961
100
AcDbArc
 50
359.9782670863
 51
90.0219467186
  0
ARC
  5
581
100
AcDbEntity
  8
RACCORDO
100
AcDbCircle
 62
253
  6
CONTINUOUS
 10
23.7300242419
 20
9.1060117062
 40
0.300064863
100
AcDbArc
 50
270.0209657745
 51
359.9790342255
  0
ARC
  5
582
100
AcDbEntity
  8
RACCORDO
100
AcDbCircle
 62
253
  6
CONTINUOUS
 10
23.7300242184
 20
13.3939882703
 40
0.300064863
100
AcDbArc
 50
0.0209702597
 51
89.9790297403
  0
ARC
  5
583
100
AcDbEntity
  8
RACCORDO
100
AcDbCircle
 62
253
  6
CONTINUOUS
 10
22.9499757581
 20
9.1060117062
 40
0.300064863
100
AcDbArc
 50
180.0209657745
 51
269.9790342255
  0
ARC
  5
584
100
AcDbEntity
  8
RACCORDO
100
AcDbCircle
 62
253
  6
CONTINUOUS
 10
22.9499757581
 20
13.3939882938
 40
0.300064863
100
AcDbArc
 50
90.0209657744
 51
179.9790342255
  0
ARC
  5
585
100
AcDbEntity
  8
RACCORDO
100
AcDbCircle
 62
7
  6
CONTINUOUS
 10
0.0204452059
 20
1037.1853525781
 40
1075.2457301304
100
AcDbArc
 50
266.9997713405
 51
268.224916367
  0
ARC
  5
586
100
AcDbEntity
  8
DRAFT
100
AcDbCircle
 62
7
  6
CONTINUOUS
 10
0.0008212221
 20
1036.5910801465
 40
1074.6511345695
100
AcDbArc
 50
268.2662261999
 51
269.9790001636
  0
ARC
  5
587
100
AcDbEntity
  8
RACCORDO
100
AcDbCircle
 62
7
  6
CONTINUOUS
 10
0.0
 20
960.0
 40
1000.0
100
AcDbArc
 50
266.7573454592
 51
273.2426545408
  0
ARC
  5
588
100
AcDbEntity
  8
DRAFT
100
AcDbCircle
 62
7
  6
CONTINUOUS
 10
0.0
 20
960.0
 40
998.3978042464
100
AcDbArc
 50
268.1309414013
 51
269.980670943
  0
ARC
  5
589
100
AcDbEntity
  8
DRAFT
100
AcDbCircle
 62
7
  6
CONTINUOUS
 10
0.0
 20
960.0
 40
998.3978042464
100
AcDbArc
 50
270.019329057
 51
271.8690585987
  0
ARC
  5
58A
100
AcDbEntity
  8
RACCORDO
100
AcDbCircle
 62
7
  6
CONTINUOUS
 10
0.0
 20
960.0
 40
998.3978042464
100
AcDbArc
 50
271.9077377189
 51
273.2424302978
  0
ARC
  5
58B
100
AcDbEntity
  8
RACCORDO
100
AcDbCircle
 62
7
  6
CONTINUOUS
 10
0.0
 20
960.0
 40
998.3978042464
100
AcDbArc
 50
266.7575697022
 51
268.0922622811
  0
ARC
  5
58C
100
AcDbEntity
  8
RACCORDO
100
AcDbCircle
 62
7
  6
CONTINUOUS
 10
577.5275425847
 20
0.005304247
 40
635.6383345308
100
AcDbArc
 50
182.0993995537
 51
183.224044215
  0
ARC
  5
58D
100
AcDbEntity
  8
DRAFT
100
AcDbCircle
 62
7
  6
CONTINUOUS
 10
577.438896605
 20
0.0019384939
 40
635.5496247337
100
AcDbArc
 50
181.8483122686
 51
182.0307702788
  0
ARC
  5
58E
100
AcDbEntity
  8
DRAFT
100
AcDbCircle
 62
7
  6
CONTINUOUS
 10
577.3648064731
 20
0.0000001209
 40
635.4755085304
100
AcDbArc
 50
180.0346783061
 51
181.3075981404
  0
ARC
  5
58F
100
AcDbEntity
  8
RACCORDO
100
AcDbCircle
 62
7
  6
CONTINUOUS
 10
540.0
 20
-0.0
 40
600.0
100
AcDbArc
 50
180.3771881633
 51
183.4452066704
  0
ARC
  5
590
100
AcDbEntity
  8
RACCORDO
100
AcDbCircle
 62
7
  6
CONTINUOUS
 10
540.0
 20
-0.0
 40
600.0
100
AcDbArc
 50
176.5547933296
 51
179.6228118367
  0
ARC
  5
591
100
AcDbEntity
  8
RACCORDO
100
AcDbCircle
 62
7
  6
CONTINUOUS
 10
540.0
 20
-0.0
 40
599.8951844414
100
AcDbArc
 50
179.6919702799
 51
180.3080297201
  0
ARC
  5
592
100
AcDbEntity
  8
DRAFT
100
AcDbCircle
 62
7
  6
CONTINUOUS
 10
540.0
 20
-0.0
 40
598.3978042464
100
AcDbArc
 50
178.113572065
 51
178.2856350735
  0
ARC
  5
593
100
AcDbEntity
  8
DRAFT
100
AcDbCircle
 62
7
  6
CONTINUOUS
 10
540.0
 20
-0.0
 40
598.3978042464
100
AcDbArc
 50
178.3627033631
 51
178.5346173133
  0
ARC
  5
594
100
AcDbEntity
  8
DRAFT
100
AcDbCircle
 62
7
  6
CONTINUOUS
 10
540.0
 20
-0.0
 40
598.3978042464
100
AcDbArc
 50
177.8390933551
 51
178.0413271329
  0
ARC
  5
595
100
AcDbEntity
  8
DRAFT
100
AcDbCircle
 62
7
  6
CONTINUOUS
 10
540.0
 20
-0.0
 40
598.3978042464
100
AcDbArc
 50
181.9586728671
 51
182.1609066449
  0
ARC
  5
596
100
AcDbEntity
  8
RACCORDO
100
AcDbCircle
 62
7
  6
CONTINUOUS
 10
540.0
 20
-0.0
 40
598.3978042464
100
AcDbArc
 50
182.2254531228
 51
183.444832307
  0
ARC
  5
597
100
AcDbEntity
  8
RACCORDO
100
AcDbCircle
 62
7
  6
CONTINUOUS
 10
540.0
 20
-0.0
 40
598.3978042464
100
AcDbArc
 50
176.555167693
 51
177.7745468772
  0
ARC
  5
598
100
AcDbEntity
  8
RACCORDO
100
AcDbCircle
 62
7
  6
CONTINUOUS
 10
540.0
 20
-0.0
 40
598.3978042464
100
AcDbArc
 50
180.3781980902
 51
181.3930484579
  0
ARC
  5
599
100
AcDbEntity
  8
RACCORDO
100
AcDbCircle
 62
7
  6
CONTINUOUS
 10
540.0
 20
-0.0
 40
598.3978042464
100
AcDbArc
 50
178.6069515421
 51
179.6218019098
  0
ARC
  5
59A
100
AcDbEntity
  8
DRAFT
100
AcDbCircle
 62
7
  6
CONTINUOUS
 10
540.0
 20
-0.0
 40
598.3978042464
100
AcDbArc
 50
181.4653826867
 51
181.6372966369
  0
ARC
  5
59B
100
AcDbEntity
  8
DRAFT
100
AcDbCircle
 62
7
  6
CONTINUOUS
 10
540.0
 20
-0.0
 40
598.3978042464
100
AcDbArc
 50
181.7143649265
 51
181.886427935
  0
ARC
  5
59C
100
AcDbEntity
  8
RACCORDO
100
AcDbCircle
 62
7
  6
CONTINUOUS
 10
540.0
 20
-0.0
 40
598.2929886878
100
AcDbArc
 50
180.0339267126
 51
180.3088546148
  0
ARC
  5
59D
100
AcDbEntity
  8
RACCORDO
100
AcDbCircle
 62
7
  6
CONTINUOUS
 10
540.0
 20
-0.0
 40
598.2929886878
100
AcDbArc
 50
179.6911453852
 51
179.9660732874
  0
ARC
  5
59E
100
AcDbEntity
  8
RACCORDO
100
AcDbCircle
 62
7
  6
CONTINUOUS
 10
341.0772366737
 20
0.0210177517
 40
366.9658538012
100
AcDbArc
 50
176.2175822818
 51
176.3633831876
  0
SPLINE
  5
59F
100
AcDbEntity
  8
RACCORDO
100
AcDbSpline
 62
7
  6
CONTINUOUS
 70
0
 71
3
 72
18
 73
14
 74
12
 42
0.0000001
 43
0.0000001
 44
0.0000000001
 12
-0.0019724646
 22
0.2996177424
 32
0.0
 13
0.1528172155
 23
0.2577238461
 33
0.0
 40
0.0
 40
0.0
 40
0.0
 40
0.0
 40
0.1847109953
 40
0.3630812251
 40
0.5289963111
 40
0.6767825706
 40
0.8014132694
 40
0.8536985603
 40
0.8986970781
 40
0.9360454916
 40
0.9654614681
 40
0.9867696757
 40
1.0
 40
1.0
 40
1.0
 40
1.0
 10
-59.9869985877
 20
-3.9498766793
 30
0.0
 10
-59.987120033
 20
-3.9314291155
 30
0.0
 10
-59.987183326
 20
-3.8951658228
 30
0.0
 10
-59.9867468721
 20
-3.8423333977
 30
0.0
 10
-59.9857986415
 20
-3.7931956718
 30
0.0
 10
-59.9843753239
 20
-3.7494394705
 30
0.0
 10
-59.9827742633
 20
-3.7170460715
 30
0.0
 10
-59.9812292348
 20
-3.6949362972
 30
0.0
 10
-59.9800625878
 20
-3.6815380397
 30
0.0
 10
-59.978828027
 20
-3.6704476138
 30
0.0
 10
-59.977562262
 20
-3.6617279591
 30
0.0
 10
-59.9762510915
 20
-3.6554977121
 30
0.0
 10
-59.9752132511
 20
-3.6521548598
 30
0.0
 10
-59.9745393107
 20
-3.6510182698
 30
0.0
 11
-59.9869985877
 21
-3.9498766793
 31
0.0
 11
-59.987090521
 21
-3.8945328649
 31
0.0
 11
-59.9866347622
 21
-3.8410907646
 31
0.0
 11
-59.9856478655
 21
-3.7913883809
 31
0.0
 11
-59.984165143
 21
-3.7471328674
 31
0.0
 11
-59.9822391852
 21
-3.7098401889
 31
0.0
 11
-59.981130642
 21
-3.6942135189
 31
0.0
 11
-59.9799377535
 21
-3.680783747
 31
0.0
 11
-59.978670922
 21
-3.6696651949
 31
0.0
 11
-59.9773411711
 21
-3.6609523443
 31
0.0
 11
-59.975959976
 21
-3.654719081
 31
0.0
 11
-59.9745393107
 21
-3.6510182698
 31
0.0
  0
SPLINE
  5
5A0
100
AcDbEntity
  8
RACCORDO
100
AcDbSpline
 62
7
  6
CONTINUOUS
 70
0
 71
3
 72
18
 73
14
 74
12
 42
0.0000001
 43
0.0000001
 44
0.0000000001
 12
-0.1528172155
 22
0.2577238461
 32
0.0
 13
0.0019724646
 23
0.2996177424
 33
0.0
 40
0.0
 40
0.0
 40
0.0
 40
0.0
 40
0.0132303243
 40
0.0345385319
 40
0.0639545084
 40
0.1013029219
 40
0.1463014397
 40
0.1985867306
 40
0.3232174294
 40
0.4710036889
 40
0.6369187749
 40
0.8152890047
 40
1.0
 40
1.0
 40
1.0
 40
1.0
 10
-59.9745393107
 20
3.6510182698
 30
0.0
 10
-59.9752132511
 20
3.6521548598
 30
0.0
 10
-59.9762510915
 20
3.6554977121
 30
0.0
 10
-59.977562262
 20
3.6617279591
 30
0.0
 10
-59.978828027
 20
3.6704476138
 30
0.0
 10
-59.9800625878
 20
3.6815380397
 30
0.0
 10
-59.9812292348
 20
3.6949362972
 30
0.0
 10
-59.9827742633
 20
3.7170460715
 30
0.0
 10
-59.9843753239
 20
3.7494394705
 30
0.0
 10
-59.9857986415
 20
3.7931956718
 30
0.0
 10
-59.9867468721
 20
3.8423333977
 30
0.0
 10
-59.987183326
 20
3.8951658228
 30
0.0
 10
-59.987120033
 20
3.9314291155
 30
0.0
 10
-59.9869985877
 20
3.9498766793
 30
0.0
 11
-59.9745393107
 21
3.6510182698
 31
0.0
 11
-59.975959976
 21
3.654719081
 31
0.0
 11
-59.9773411711
 21
3.6609523443
 31
0.0
 11
-59.978670922
 21
3.6696651949
 31
0.0
 11
-59.9799377535
 21
3.680783747
 31
0.0
 11
-59.981130642
 21
3.6942135189
 31
0.0
 11
-59.9822391852
 21
3.7098401889
 31
0.0
 11
-59.984165143
 21
3.7471328674
 31
0.0
 11
-59.9856478655
 21
3.7913883809
 31
0.0
 11
-59.9866347622
 21
3.8410907646
 31
0.0
 11
-59.987090521
 21
3.8945328649
 31
0.0
 11
-59.9869985877
 21
3.9498766793
 31
0.0
  0
SPLINE
  5
5A1
100
AcDbEntity
  8
RACCORDO
100
AcDbSpline
 62
7
  6
CONTINUOUS
 70
0
 71
3
 72
18
 73
14
 74
12
 42
0.0000001
 43
0.0000001
 44
0.0000000001
 12
0.1528172155
 22
-0.2577238461
 32
0.0
 13
-0.0019724646
 23
-0.2996177424
 33
0.0
 40
0.0
 40
0.0
 40
0.0
 40
0.0
 40
0.0132303243
 40
0.0345385319
 40
0.0639545084
 40
0.1013029219
 40
0.1463014397
 40
0.1985867306
 40
0.3232174294
 40
0.4710036889
 40
0.6369187749
 40
0.8152890047
 40
1.0
 40
1.0
 40
1.0
 40
1.0
 10
59.9745393107
 20
-3.6510182698
 30
0.0
 10
59.9752132511
 20
-3.6521548598
 30
0.0
 10
59.9762510915
 20
-3.6554977121
 30
0.0
 10
59.977562262
 20
-3.6617279591
 30
0.0
 10
59.978828027
 20
-3.6704476138
 30
0.0
 10
59.9800625878
 20
-3.6815380397
 30
0.0
 10
59.9812292348
 20
-3.6949362972
 30
0.0
 10
59.9827742633
 20
-3.7170460715
 30
0.0
 10
59.9843753239
 20
-3.7494394705
 30
0.0
 10
59.9857986415
 20
-3.7931956718
 30
0.0
 10
59.9867468721
 20
-3.8423333977
 30
0.0
 10
59.987183326
 20
-3.8951658228
 30
0.0
 10
59.987120033
 20
-3.9314291155
 30
0.0
 10
59.9869985877
 20
-3.9498766793
 30
0.0
 11
59.9745393107
 21
-3.6510182698
 31
0.0
 11
59.975959976
 21
-3.654719081
 31
0.0
 11
59.9773411711
 21
-3.6609523443
 31
0.0
 11
59.978670922
 21
-3.6696651949
 31
0.0
 11
59.9799377535
 21
-3.680783747
 31
0.0
 11
59.981130642
 21
-3.6942135189
 31
0.0
 11
59.9822391852
 21
-3.7098401889
 31
0.0
 11
59.984165143
 21
-3.7471328674
 31
0.0
 11
59.9856478655
 21
-3.7913883809
 31
0.0
 11
59.9866347622
 21
-3.8410907646
 31
0.0
 11
59.987090521
 21
-3.8945328649
 31
0.0
 11
59.9869985877
 21
-3.9498766793
 31
0.0
  0
SPLINE
  5
5A2
100
AcDbEntity
  8
RACCORDO
100
AcDbSpline
 62
7
  6
CONTINUOUS
 70
0
 71
3
 72
18
 73
14
 74
12
 42
0.0000001
 43
0.0000001
 44
0.0000000001
 12
0.0019724646
 22
-0.2996177424
 32
0.0
 13
-0.1528172155
 23
-0.2577238461
 33
0.0
 40
0.0
 40
0.0
 40
0.0
 40
0.0
 40
0.1847109953
 40
0.3630812251
 40
0.5289963111
 40
0.6767825706
 40
0.8014132694
 40
0.8536985603
 40
0.8986970781
 40
0.9360454916
 40
0.9654614681
 40
0.9867696757
 40
1.0
 40
1.0
 40
1.0
 40
1.0
 10
59.9869985877
 20
3.9498766793
 30
0.0
 10
59.987120033
 20
3.9314291155
 30
0.0
 10
59.987183326
 20
3.8951658228
 30
0.0
 10
59.9867468721
 20
3.8423333977
 30
0.0
 10
59.9857986415
 20
3.7931956718
 30
0.0
 10
59.9843753239
 20
3.7494394705
 30
0.0
 10
59.9827742633
 20
3.7170460715
 30
0.0
 10
59.9812292348
 20
3.6949362972
 30
0.0
 10
59.9800625878
 20
3.6815380397
 30
0.0
 10
59.978828027
 20
3.6704476138
 30
0.0
 10
59.977562262
 20
3.6617279591
 30
0.0
 10
59.9762510915
 20
3.6554977121
 30
0.0
 10
59.9752132511
 20
3.6521548598
 30
0.0
 10
59.9745393107
 20
3.6510182698
 30
0.0
 11
59.9869985877
 21
3.9498766793
 31
0.0
 11
59.987090521
 21
3.8945328649
 31
0.0
 11
59.9866347622
 21
3.8410907646
 31
0.0
 11
59.9856478655
 21
3.7913883809
 31
0.0
 11
59.984165143
 21
3.7471328674
 31
0.0
 11
59.9822391852
 21
3.7098401889
 31
0.0
 11
59.981130642
 21
3.6942135189
 31
0.0
 11
59.9799377535
 21
3.680783747
 31
0.0
 11
59.978670922
 21
3.6696651949
 31
0.0
 11
59.9773411711
 21
3.6609523443
 31
0.0
 11
59.975959976
 21
3.654719081
 31
0.0
 11
59.9745393107
 21
3.6510182698
 31
0.0
  0
SPLINE
  5
5A3
100
AcDbEntity
  8
RACCORDO
100
AcDbSpline
 62
7
  6
CONTINUOUS
 70
0
 71
3
 72
18
 73
14
 74
12
 42
0.0000001
 43
0.0000001
 44
0.0000000001
 12
-0.0016108393
 22
-0.299624989
 32
0.0
 13
0.1528599004
 23
-0.2577044425
 33
0.0
 40
0.0
 40
0.0
 40
0.0
 40
0.0
 40
0.184709178
 40
0.3630777261
 40
0.528991609
 40
0.6767775413
 40
0.8014087874
 40
0.853694625
 40
0.8986938237
 40
0.9360430023
 40
0.9654597916
 40
0.9867688446
 40
1.0
 40
1.0
 40
1.0
 40
1.0
 10
59.8865151358
 20
-3.2251006478
 30
0.0
 10
59.8864159569
 20
-3.2435484763
 30
0.0
 10
59.8863930934
 20
-3.279812057
 30
0.0
 10
59.8868788681
 20
-3.3326444478
 30
0.0
 10
59.8878645149
 20
-3.381781917
 30
0.0
 10
59.8893142912
 20
-3.4255378649
 30
0.0
 10
59.8909305313
 20
-3.4579311051
 30
0.0
 10
59.8924839708
 20
-3.4800408397
 30
0.0
 10
59.8936550696
 20
-3.4934391327
 30
0.0
 10
59.8948928639
 20
-3.5045296137
 30
0.0
 10
59.8961608872
 20
-3.513249327
 30
0.0
 10
59.8974735191
 20
-3.519479636
 30
0.0
 10
59.8985120898
 20
-3.5228224814
 30
0.0
 10
59.8991862609
 20
-3.5239590572
 30
0.0
 11
59.8865151358
 21
-3.2251006478
 31
0.0
 11
59.886484902
 21
-3.2804449248
 31
0.0
 11
59.8869905491
 21
-3.3338869793
 31
0.0
 11
59.8880152906
 21
-3.3835890803
 31
0.0
 11
59.8895247734
 21
-3.4278443429
 31
0.0
 11
59.8914682105
 21
-3.4651369132
 31
0.0
 11
59.892582701
 21
-3.480763591
 31
0.0
 11
59.893780052
 21
-3.4941934003
 31
0.0
 11
59.8950501249
 21
-3.5053120044
 31
0.0
 11
59.8963821302
 21
-3.5140249083
 31
0.0
 11
59.8977647858
 21
-3.5202582182
 31
0.0
 11
59.8991862609
 21
-3.5239590572
 31
0.0
  0
SPLINE
  5
5A4
100
AcDbEntity
  8
RACCORDO
100
AcDbSpline
 62
7
  6
CONTINUOUS
 70
0
 71
3
 72
18
 73
14
 74
12
 42
0.0000001
 43
0.0000001
 44
0.0000000001
 12
-0.1528599004
 22
-0.2577044425
 32
0.0
 13
0.0016108393
 23
-0.299624989
 33
0.0
 40
0.0
 40
0.0
 40
0.0
 40
0.0
 40
0.0132311551
 40
0.0345402108
 40
0.0639570098
 40
0.1013061907
 40
0.1463053853
 40
0.198591222
 40
0.3232224826
 40
0.4710084046
 40
0.6369223044
 40
0.8152908312
 40
1.0
 40
1.0
 40
1.0
 40
1.0
 10
59.8991862609
 20
3.5239590572
 30
0.0
 10
59.8985120899
 20
3.5228224814
 30
0.0
 10
59.897473519
 20
3.5194796358
 30
0.0
 10
59.8961608869
 20
3.5132493256
 30
0.0
 10
59.8948928636
 20
3.5045296108
 30
0.0
 10
59.8936550693
 20
3.493439129
 30
0.0
 10
59.8924839706
 20
3.4800408363
 30
0.0
 10
59.890930531
 20
3.4579311007
 30
0.0
 10
59.889314291
 20
3.4255378603
 30
0.0
 10
59.8878645147
 20
3.3817819102
 30
0.0
 10
59.8868788681
 20
3.3326444425
 30
0.0
 10
59.8863930934
 20
3.2798120531
 30
0.0
 10
59.8864159569
 20
3.2435484754
 30
0.0
 10
59.8865151358
 20
3.2251006478
 30
0.0
 11
59.8991862609
 21
3.5239590572
 31
0.0
 11
59.8977647858
 21
3.5202582183
 31
0.0
 11
59.89638213
 21
3.5140249076
 31
0.0
 11
59.8950501245
 21
3.5053120008
 31
0.0
 11
59.8937800515
 21
3.494193396
 31
0.0
 11
59.8925827007
 21
3.4807635879
 31
0.0
 11
59.8914682103
 21
3.4651369104
 31
0.0
 11
59.8895247731
 21
3.4278443358
 31
0.0
 11
59.8880152905
 21
3.3835890762
 31
0.0
 11
59.886990549
 21
3.3338869702
 31
0.0
 11
59.8864849019
 21
3.280444922
 31
0.0
 11
59.8865151358
 21
3.2251006478
 31
0.0
  0
SPLINE
  5
5A5
100
AcDbEntity
  8
RACCORDO
100
AcDbSpline
 62
7
  6
CONTINUOUS
 70
0
 71
3
 72
18
 73
14
 74
12
 42
0.0000001
 43
0.0000001
 44
0.0000000001
 12
0.1528599004
 22
0.2577044425
 32
0.0
 13
-0.0016108393
 23
0.299624989
 33
0.0
 40
0.0
 40
0.0
 40
0.0
 40
0.0
 40
0.0132311554
 40
0.0345402084
 40
0.0639569977
 40
0.1013061763
 40
0.146305375
 40
0.1985912126
 40
0.3232224587
 40
0.471008391
 40
0.6369222739
 40
0.815290822
 40
1.0
 40
1.0
 40
1.0
 40
1.0
 10
-59.8991862609
 20
-3.5239590572
 30
0.0
 10
-59.8985120898
 20
-3.5228224814
 30
0.0
 10
-59.8974735191
 20
-3.519479636
 30
0.0
 10
-59.8961608872
 20
-3.513249327
 30
0.0
 10
-59.8948928639
 20
-3.5045296137
 30
0.0
 10
-59.8936550696
 20
-3.4934391327
 30
0.0
 10
-59.8924839708
 20
-3.4800408397
 30
0.0
 10
-59.8909305313
 20
-3.4579311051
 30
0.0
 10
-59.8893142912
 20
-3.4255378649
 30
0.0
 10
-59.8878645149
 20
-3.381781917
 30
0.0
 10
-59.8868788681
 20
-3.3326444478
 30
0.0
 10
-59.8863930934
 20
-3.279812057
 30
0.0
 10
-59.8864159569
 20
-3.2435484763
 30
0.0
 10
-59.8865151358
 20
-3.2251006478
 30
0.0
 11
-59.8991862609
 21
-3.5239590572
 31
0.0
 11
-59.8977647858
 21
-3.5202582182
 31
0.0
 11
-59.8963821302
 21
-3.5140249083
 31
0.0
 11
-59.8950501249
 21
-3.5053120044
 31
0.0
 11
-59.893780052
 21
-3.4941934003
 31
0.0
 11
-59.892582701
 21
-3.480763591
 31
0.0
 11
-59.8914682105
 21
-3.4651369132
 31
0.0
 11
-59.8895247734
 21
-3.4278443429
 31
0.0
 11
-59.8880152906
 21
-3.3835890803
 31
0.0
 11
-59.8869905491
 21
-3.3338869793
 31
0.0
 11
-59.886484902
 21
-3.2804449248
 31
0.0
 11
-59.8865151358
 21
-3.2251006478
 31
0.0
  0
SPLINE
  5
5A6
100
AcDbEntity
  8
RACCORDO
100
AcDbSpline
 62
7
  6
CONTINUOUS
 70
0
 71
3
 72
18
 73
14
 74
12
 42
0.0000001
 43
0.0000001
 44
0.0000000001
 12
0.0016108393
 22
0.299624989
 32
0.0
 13
-0.1528599004
 23
0.2577044425
 33
0.0
 40
0.0
 40
0.0
 40
0.0
 40
0.0
 40
0.1847091688
 40
0.3630776956
 40
0.5289915954
 40
0.6767775174
 40
0.801408778
 40
0.8536946147
 40
0.8986938093
 40
0.9360429902
 40
0.9654597892
 40
0.9867688449
 40
1.0
 40
1.0
 40
1.0
 40
1.0
 10
-59.8865151358
 20
3.2251006478
 30
0.0
 10
-59.8864159569
 20
3.2435484754
 30
0.0
 10
-59.8863930934
 20
3.2798120531
 30
0.0
 10
-59.8868788681
 20
3.3326444425
 30
0.0
 10
-59.8878645147
 20
3.3817819102
 30
0.0
 10
-59.889314291
 20
3.4255378603
 30
0.0
 10
-59.890930531
 20
3.4579311007
 30
0.0
 10
-59.8924839706
 20
3.4800408363
 30
0.0
 10
-59.8936550693
 20
3.493439129
 30
0.0
 10
-59.8948928636
 20
3.5045296108
 30
0.0
 10
-59.8961608869
 20
3.5132493256
 30
0.0
 10
-59.897473519
 20
3.5194796358
 30
0.0
 10
-59.8985120899
 20
3.5228224814
 30
0.0
 10
-59.8991862609
 20
3.5239590572
 30
0.0
 11
-59.8865151358
 21
3.2251006478
 31
0.0
 11
-59.8864849019
 21
3.280444922
 31
0.0
 11
-59.886990549
 21
3.3338869702
 31
0.0
 11
-59.8880152905
 21
3.3835890762
 31
0.0
 11
-59.8895247731
 21
3.4278443358
 31
0.0
 11
-59.8914682103
 21
3.4651369104
 31
0.0
 11
-59.8925827007
 21
3.4807635879
 31
0.0
 11
-59.8937800515
 21
3.494193396
 31
0.0
 11
-59.8950501245
 21
3.5053120008
 31
0.0
 11
-59.89638213
 21
3.5140249076
 31
0.0
 11
-59.8977647858
 21
3.5202582183
 31
0.0
 11
-59.8991862609
 21
3.5239590572
 31
0.0
  0
SPLINE
  5
5A7
100
AcDbEntity
  8
0
100
AcDbSpline
 62
7
  6
CONTINUOUS
 70
0
 71
3
 72
11
 73
7
 74
5
 42
0.0000001
 43
0.0000001
 44
0.0000000001
 12
0.9661626447
 22
0.0215799465
 32
0.0
 13
-0.0147137984
 23
0.9663341426
 33
0.0
 40
0.0
 40
0.0
 40
0.0
 40
0.0
 40
0.2466920679
 40
0.4757990997
 40
0.7090596741
 40
1.0
 40
1.0
 40
1.0
 40
1.0
 10
-10.762105466
 20
32.0368582931
 30
0.0
 10
-10.6826572458
 20
32.038632827
 30
0.0
 10
-10.5289327859
 20
32.0565987669
 30
0.0
 10
-10.3152946365
 20
32.1548509774
 30
0.0
 10
-10.1649152996
 20
32.3592256674
 30
0.0
 10
-10.1445849039
 20
32.5333797129
 30
0.0
 10
-10.1460118497
 20
32.627094903
 30
0.0
 11
-10.762105466
 21
32.0368582931
 31
0.0
 11
-10.5260382166
 21
32.0701565176
 31
0.0
 11
-10.3280884079
 21
32.1693442243
 31
0.0
 11
-10.1931245314
 21
32.3499007804
 31
0.0
 11
-10.1460118497
 21
32.627094903
 31
0.0
  0
SPLINE
  5
5A8
100
AcDbEntity
  8
0
100
AcDbSpline
 62
7
  6
CONTINUOUS
 70
0
 71
3
 72
11
 73
7
 74
5
 42
0.0000001
 43
0.0000001
 44
0.0000000001
 12
-0.0108419377
 22
0.7120482576
 32
0.0
 13
-0.7074022973
 23
0.0821036437
 33
0.0
 40
0.0
 40
0.0
 40
0.0
 40
0.0
 40
0.2571157798
 40
0.4996528202
 40
0.7437383148
 40
1.0
 40
1.0
 40
1.0
 40
1.0
 10
-10.1460118276
 20
32.6270949034
 30
0.0
 10
-10.1469410387
 20
32.6881211844
 30
0.0
 10
-10.1701054733
 20
32.8079596988
 30
0.0
 10
-10.2698109194
 20
32.9587492283
 30
0.0
 10
-10.4167064512
 20
33.0627757485
 30
0.0
 10
-10.5336227689
 20
33.0952622969
 30
0.0
 10
-10.5940494705
 20
33.1022756363
 30
0.0
 11
-10.1460118276
 21
32.6270949034
 31
0.0
 11
-10.1823846909
 21
32.8065478987
 31
0.0
 11
-10.277300769
 21
32.9508541542
 31
0.0
 11
-10.4185774849
 21
33.0521280361
 31
0.0
 11
-10.5940494705
 21
33.1022756363
 31
0.0
  0
SPLINE
  5
5A9
100
AcDbEntity
  8
0
100
AcDbSpline
 62
7
  6
CONTINUOUS
 70
0
 71
3
 72
9
 73
5
 74
3
 42
0.0000001
 43
0.0000001
 44
0.0000000001
 12
-0.619404298
 22
0.0718902808
 32
0.0
 13
-0.6146777033
 23
-0.1048851863
 33
0.0
 40
0.0
 40
0.0
 40
0.0
 40
0.0
 40
0.4842439535
 40
1.0
 40
1.0
 40
1.0
 40
1.0
 10
-10.5940494706
 20
33.102275636
 30
0.0
 10
-10.6940303993
 20
33.1138797806
 30
0.0
 10
-10.9026809472
 20
33.1244020032
 30
0.0
 10
-11.1096874123
 20
33.0979384785
 30
0.0
 10
-11.215361993
 20
33.0799067555
 30
0.0
 11
-10.5940494706
 21
33.102275636
 31
0.0
 11
-10.8957204071
 21
33.1153975564
 31
0.0
 11
-11.215361993
 21
33.0799067555
 31
0.0
  0
SPLINE
  5
5AA
100
AcDbEntity
  8
0
100
AcDbSpline
 62
7
  6
CONTINUOUS
 70
0
 71
3
 72
10
 73
6
 74
4
 42
0.0000001
 43
0.0000001
 44
0.0000000001
 12
1.9517410016
 22
0.2871343355
 32
0.0
 13
1.8553784502
 23
-0.6703058038
 33
0.0
 40
0.0
 40
0.0
 40
0.0
 40
0.0
 40
0.4151262789
 40
0.7045762354
 40
1.0
 40
1.0
 40
1.0
 40
1.0
 10
-11.9789858413
 20
33.6828051783
 30
0.0
 10
-11.7089128482
 20
33.7225375144
 30
0.0
 10
-11.2470715957
 20
33.7728564431
 30
0.0
 10
-10.5892448935
 20
33.7729799071
 30
0.0
 10
-10.2044105232
 20
33.7088099872
 30
0.0
 10
-10.0217028944
 20
33.6428018992
 30
0.0
 11
-11.9789858413
 21
33.6828051783
 31
0.0
 11
-11.1641202571
 21
33.7643943983
 31
0.0
 11
-10.5931528704
 21
33.7572450409
 31
0.0
 11
-10.0217028944
 21
33.6428018992
 31
0.0
  0
SPLINE
  5
5AB
100
AcDbEntity
  8
0
100
AcDbSpline
 62
7
  6
CONTINUOUS
 70
0
 71
3
 72
29
 73
25
 74
23
 42
0.0000001
 43
0.0000001
 44
0.0000000001
 12
2.2313656128
 22
-0.8049730264
 32
0.0
 13
-2.3526204564
 23
-0.3035639299
 33
0.0
 40
0.0
 40
0.0
 40
0.0
 40
0.0
 40
0.0797921543
 40
0.1315450168
 40
0.1894872835
 40
0.2530428125
 40
0.3223573394
 40
0.3594791469
 40
0.3984765258
 40
0.4396024585
 40
0.461060296
 40
0.4831657108
 40
0.5106684577
 40
0.5371696367
 40
0.5874242403
 40
0.6344377035
 40
0.6786100793
 40
0.7594318421
 40
0.8311116915
 40
0.8931858305
 40
0.9201298729
 40
0.9439336987
 40
0.9806160801
 40
1.0
 40
1.0
 40
1.0
 40
1.0
 10
-10.0217028944
 20
33.6428018992
 30
0.0
 10
-9.9623544047
 20
33.6213917219
 30
0.0
 10
-9.8701251339
 20
33.5704487728
 30
0.0
 10
-9.7511358085
 20
33.4792114642
 30
0.0
 10
-9.6537565465
 20
33.3821606116
 30
0.0
 10
-9.5627135284
 20
33.2611847931
 30
0.0
 10
-9.4994774351
 20
33.1418221284
 30
0.0
 10
-9.4585652941
 20
33.0342294188
 30
0.0
 10
-9.433115792
 20
32.9449613799
 30
0.0
 10
-9.4178171088
 20
32.8660033163
 30
0.0
 10
-9.4092484065
 20
32.7995725143
 30
0.0
 10
-9.4044457649
 20
32.7435693636
 30
0.0
 10
-9.4019765997
 20
32.6834145889
 30
0.0
 10
-9.402502976
 20
32.6009535528
 30
0.0
 10
-9.4101846807
 20
32.5032205808
 30
0.0
 10
-9.4299135027
 20
32.3929480775
 30
0.0
 10
-9.4668466346
 20
32.2618709191
 30
0.0
 10
-9.5297678288
 20
32.1186034518
 30
0.0
 10
-9.6242566713
 20
31.9768442764
 30
0.0
 10
-9.7101891069
 20
31.8825445094
 30
0.0
 10
-9.7769147783
 20
31.8233583281
 30
0.0
 10
-9.831473549
 20
31.7805121038
 30
0.0
 10
-9.8845865807
 20
31.7475895894
 30
0.0
 10
-9.9247288075
 20
31.7256601397
 30
0.0
 10
-9.9399298096
 20
31.7236987201
 30
0.0
 11
-10.0217028944
 21
33.6428018992
 31
0.0
 11
-9.8540075243
 21
33.5550293911
 31
0.0
 11
-9.7566310861
 21
33.4802705476
 31
0.0
 11
-9.6592586547
 21
33.3832649553
 31
0.0
 11
-9.5686576116
 21
33.2627638473
 31
0.0
 11
-9.4915953385
 21
33.1175184568
 31
0.0
 11
-9.4602560475
 21
33.0352264159
 31
0.0
 11
-9.4348392172
 21
32.9462800168
 31
0.0
 11
-9.4161907702
 21
32.8505231635
 31
0.0
 11
-9.4096690412
 21
32.8000420367
 31
0.0
 11
-9.4051566292
 21
32.7477997604
 31
0.0
 11
-9.4024692222
 21
32.6826151981
 31
0.0
 11
-9.4029047446
 21
32.619752614
 31
0.0
 11
-9.4123960269
 21
32.5009208831
 31
0.0
 11
-9.4321333747
 21
32.3911595738
 31
0.0
 11
-9.4606196869
 21
32.2903236924
 31
0.0
 11
-9.5378507995
 21
32.1148482375
 31
0.0
 11
-9.6321125548
 21
31.9733345675
 31
0.0
 11
-9.7314281433
 21
31.8646227317
 31
0.0
 11
-9.7792383714
 21
31.822205038
 31
0.0
 11
-9.823820755
 21
31.787552779
 31
0.0
 11
-9.8973135806
 21
31.7409647482
 31
0.0
 11
-9.9399298096
 21
31.7236987201
 31
0.0
  0
SPLINE
  5
5AC
100
AcDbEntity
  8
0
100
AcDbSpline
 62
7
  6
CONTINUOUS
 70
0
 71
3
 72
11
 73
7
 74
5
 42
0.0000001
 43
0.0000001
 44
0.0000000001
 12
0.8407070911
 22
-0.3352319526
 32
0.0
 13
0.2379073993
 23
-0.8732516041
 33
0.0
 40
0.0
 40
0.0
 40
0.0
 40
0.0
 40
0.2518807733
 40
0.5057299376
 40
0.7626274426
 40
1.0
 40
1.0
 40
1.0
 40
1.0
 10
-9.9399298096
 20
31.7012467372
 30
0.0
 10
-9.8693438255
 20
31.6731005761
 30
0.0
 10
-9.7409592019
 20
31.5795364145
 30
0.0
 10
-9.6185676418
 20
31.3813357625
 30
0.0
 10
-9.53999682
 20
31.1690857846
 30
0.0
 10
-9.5015520327
 20
31.0249700196
 30
0.0
 10
-9.4827278034
 20
30.9558746975
 30
0.0
 11
-9.9399298096
 21
31.7012467372
 31
0.0
 11
-9.7531726029
 21
31.5705064085
 31
0.0
 11
-9.6260543659
 21
31.3791227542
 31
0.0
 11
-9.5415838556
 21
31.162496646
 31
0.0
 11
-9.4827278034
 21
30.9558746975
 31
0.0
  0
SPLINE
  5
5AD
100
AcDbEntity
  8
0
100
AcDbSpline
 62
7
  6
CONTINUOUS
 70
0
 71
3
 72
9
 73
5
 74
3
 42
0.0000001
 43
0.0000001
 44
0.0000000001
 12
0.2795120823
 22
-1.0259637778
 32
0.0
 13
0.2787082506
 23
-1.0261824638
 33
0.0
 40
0.0
 40
0.0
 40
0.0
 40
0.0
 40
0.8019560553
 40
1.0
 40
1.0
 40
1.0
 40
1.0
 10
-9.4827278024
 20
30.9558746977
 30
0.0
 10
-9.4080090001
 20
30.6816154097
 30
0.0
 10
-9.3200757963
 20
30.3382268194
 30
0.0
 10
-9.2300353198
 20
29.9953971355
 30
0.0
 10
-9.2116364927
 20
29.9276540612
 30
0.0
 11
-9.4827278024
 21
30.9558746977
 31
0.0
 11
-9.2656166119
 21
30.1312097425
 31
0.0
 11
-9.2116364927
 21
29.9276540612
 31
0.0
  0
SPLINE
  5
5AE
100
AcDbEntity
  8
0
100
AcDbSpline
 62
7
  6
CONTINUOUS
 70
0
 71
3
 72
12
 73
8
 74
6
 42
0.0000001
 43
0.0000001
 44
0.0000000001
 12
-0.3327043691
 22
1.1572164259
 32
0.0
 13
-0.4242627865
 23
1.1268843198
 33
0.0
 40
0.0
 40
0.0
 40
0.0
 40
0.0
 40
0.1341752175
 40
0.4410691386
 40
0.7772446388
 40
0.9115031837
 40
1.0
 40
1.0
 40
1.0
 40
1.0
 10
-9.9745195396
 20
29.9276540612
 30
0.0
 10
-9.9893997666
 20
29.9794106497
 30
0.0
 10
-10.0386157932
 20
30.1494624644
 30
0.0
 10
-10.1261343372
 20
30.4488847266
 30
0.0
 10
-10.2148496273
 20
30.7480305319
 30
0.0
 10
-10.2816049125
 20
30.9621697345
 30
0.0
 10
-10.3090913907
 20
31.0472973426
 30
0.0
 10
-10.3216066927
 20
31.0805392341
 30
0.0
 11
-9.9745195396
 21
29.9276540612
 31
0.0
 11
-10.0193847735
 21
30.0828590911
 31
0.0
 11
-10.1230609179
 21
30.4375462848
 31
0.0
 11
-10.2391686369
 21
30.8253237976
 31
0.0
 11
-10.2873907944
 21
30.9796239724
 31
0.0
 11
-10.3216066927
 21
31.0805392341
 31
0.0
  0
SPLINE
  5
5AF
100
AcDbEntity
  8
0
100
AcDbSpline
 62
7
  6
CONTINUOUS
 70
0
 71
3
 72
10
 73
6
 74
4
 42
0.0000001
 43
0.0000001
 44
0.0000000001
 12
-0.2074556137
 22
0.5510228226
 32
0.0
 13
-0.5886963197
 23
0.0
 33
0.0
 40
0.0
 40
0.0
 40
0.0
 40
0.0
 40
0.3689473694
 40
0.6477940116
 40
1.0
 40
1.0
 40
1.0
 40
1.0
 10
-10.3216065638
 20
31.0805392826
 30
0.0
 10
-10.3471199648
 20
31.1483054229
 30
0.0
 10
-10.4100747187
 20
31.2631474392
 30
0.0
 10
-10.5681975201
 20
31.3866418357
 30
0.0
 10
-10.6947008848
 20
31.4145850627
 30
0.0
 10
-10.7638150079
 20
31.4145850627
 30
0.0
 11
-10.3216065638
 21
31.0805392826
 31
0.0
 11
-10.4316363367
 21
31.2678182245
 31
0.0
 11
-10.5618148315
 21
31.3678219703
 31
0.0
 11
-10.7638150079
 21
31.4145850627
 31
0.0
  0
SPLINE
  5
5B0
100
AcDbEntity
  8
0
100
AcDbSpline
 62
7
  6
CONTINUOUS
 70
0
 71
3
 72
14
 73
10
 74
8
 42
0.0000001
 43
0.0000001
 44
0.0000000001
 12
0.9926685956
 22
-0.0244506199
 32
0.0
 13
-0.0267836937
 23
-0.9926085456
 33
0.0
 40
0.0
 40
0.0
 40
0.0
 40
0.0
 40
0.134416651
 40
0.246489278
 40
0.393229104
 40
0.58986746
 40
0.7257742562
 40
0.8770583438
 40
1.0
 40
1.0
 40
1.0
 40
1.0
 10
11.9341294694
 20
-31.038801
 30
0.0
 10
11.9786065321
 20
-31.0398965235
 30
0.0
 10
12.0603430226
 20
-31.0518378465
 30
0.0
 10
12.18216546
 20
-31.1002882989
 30
0.0
 10
12.3045741533
 20
-31.1923250391
 30
0.0
 10
12.3924941191
 20
-31.3295153111
 30
0.0
 10
12.4368298816
 20
-31.4840307451
 30
0.0
 10
12.4585765839
 20
-31.6183538413
 30
0.0
 10
12.4617067445
 20
-31.7093223538
 30
0.0
 10
12.460609134
 20
-31.75
 30
0.0
 11
11.9341294694
 21
-31.038801
 31
0.0
 11
12.0661542236
 21
-31.0584007279
 31
0.0
 11
12.1694340457
 21
-31.0998443186
 31
0.0
 11
12.2858127355
 21
-31.1875192074
 31
0.0
 11
12.3929601274
 21
-31.3507501011
 31
0.0
 11
12.4329374828
 21
-31.4796441569
 31
0.0
 11
12.4566067105
 21
-31.6279882734
 31
0.0
 11
12.460609134
 21
-31.75
 31
0.0
  0
SPLINE
  5
5B1
100
AcDbEntity
  8
0
100
AcDbSpline
 62
7
  6
CONTINUOUS
 70
0
 71
3
 72
14
 73
10
 74
8
 42
0.0000001
 43
0.0000001
 44
0.0000000001
 12
0.0267836937
 22
-0.9926085456
 32
0.0
 13
-0.9926685956
 23
-0.0244506199
 33
0.0
 40
0.0
 40
0.0
 40
0.0
 40
0.0
 40
0.1229416562
 40
0.2742257438
 40
0.41013254
 40
0.606770896
 40
0.753510722
 40
0.865583349
 40
1.0
 40
1.0
 40
1.0
 40
1.0
 10
12.460609134
 20
-31.75
 30
0.0
 10
12.4617067445
 20
-31.7906776462
 30
0.0
 10
12.4585765839
 20
-31.8816461587
 30
0.0
 10
12.4368298816
 20
-32.0159692549
 30
0.0
 10
12.3924941191
 20
-32.1704846889
 30
0.0
 10
12.3045741533
 20
-32.3076749609
 30
0.0
 10
12.18216546
 20
-32.3997117011
 30
0.0
 10
12.0603430226
 20
-32.4481621535
 30
0.0
 10
11.9786065321
 20
-32.4601034765
 30
0.0
 10
11.9341294694
 20
-32.461199
 30
0.0
 11
12.460609134
 21
-31.75
 31
0.0
 11
12.4566067105
 21
-31.8720117266
 31
0.0
 11
12.4329374828
 21
-32.0203558431
 31
0.0
 11
12.3929601274
 21
-32.1492498989
 31
0.0
 11
12.2858127355
 21
-32.3124807926
 31
0.0
 11
12.1694340457
 21
-32.4001556814
 31
0.0
 11
12.0661542236
 21
-32.4415992721
 31
0.0
 11
11.9341294694
 21
-32.461199
 31
0.0
  0
SPLINE
  5
5B2
100
AcDbEntity
  8
0
100
AcDbSpline
 62
7
  6
CONTINUOUS
 70
0
 71
3
 72
15
 73
11
 74
9
 42
0.0000001
 43
0.0000001
 44
0.0000000001
 12
1.361754988
 22
-0.0062542098
 32
0.0
 13
-0.023477163
 23
1.3615669596
 33
0.0
 40
0.0
 40
0.0
 40
0.0
 40
0.0
 40
0.1666104649
 40
0.3201400637
 40
0.432791991
 40
0.5473463999
 40
0.6677209668
 40
0.7950987643
 40
0.8857287116
 40
1.0
 40
1.0
 40
1.0
 40
1.0
 10
11.9404918702
 20
-32.675
 30
0.0
 10
12.0161194141
 20
-32.6753473389
 30
0.0
 10
12.1622609445
 20
-32.6572087083
 30
0.0
 10
12.3459613811
 20
-32.5780730151
 30
0.0
 10
12.4778865008
 20
-32.464582363
 30
0.0
 10
12.5797734618
 20
-32.3424425296
 30
0.0
 10
12.6490840468
 20
-32.1919079543
 30
0.0
 10
12.6948410995
 20
-32.0447648162
 30
0.0
 10
12.7162465854
 20
-31.8950383279
 30
0.0
 10
12.718665197
 20
-31.8018626702
 30
0.0
 10
12.7177709418
 20
-31.75
 30
0.0
 11
11.9404918702
 21
-32.675
 31
0.0
 11
12.1654542641
 21
-32.6455256773
 31
0.0
 11
12.3564089749
 21
-32.560394258
 31
0.0
 11
12.4742464193
 21
-32.4621714517
 31
0.0
 11
12.5723794561
 21
-32.3409078043
 31
0.0
 11
12.6444643732
 21
-32.1936858067
 31
0.0
 11
12.6945407986
 21
-32.0276122119
 31
0.0
 11
12.7126143934
 21
-31.9055256773
 31
0.0
 11
12.7177709418
 21
-31.75
 31
0.0
  0
SPLINE
  5
5B3
100
AcDbEntity
  8
0
100
AcDbSpline
 62
7
  6
CONTINUOUS
 70
0
 71
3
 72
15
 73
11
 74
9
 42
0.0000001
 43
0.0000001
 44
0.0000000001
 12
0.0233427457
 22
1.3537713748
 32
0.0
 13
-1.3539583376
 23
0.0062160329
 33
0.0
 40
0.0
 40
0.0
 40
0.0
 40
0.0
 40
0.1149293105
 40
0.2060811432
 40
0.3341924356
 40
0.4552601699
 40
0.5704742312
 40
0.6837748557
 40
0.8381885424
 40
1.0
 40
1.0
 40
1.0
 40
1.0
 10
12.7177709418
 20
-31.75
 30
0.0
 10
12.718665197
 20
-31.6981373298
 30
0.0
 10
12.7162465812
 20
-31.6049616701
 30
0.0
 10
12.6948411128
 20
-31.4552351902
 30
0.0
 10
12.6490839761
 20
-31.3080920113
 30
0.0
 10
12.579773702
 20
-31.1575575874
 30
0.0
 10
12.4778856574
 20
-31.0354172263
 30
0.0
 10
12.3459649493
 20
-30.9219287225
 30
0.0
 10
12.1646719334
 20
-30.8438288347
 30
0.0
 10
12.0213863089
 20
-30.8253352751
 30
0.0
 10
11.9483576515
 20
-30.825
 30
0.0
 11
12.7177709418
 21
-31.75
 31
0.0
 11
12.7126143934
 21
-31.5944743227
 31
0.0
 11
12.6945407986
 21
-31.4723877881
 31
0.0
 11
12.6444643732
 21
-31.3063141933
 31
0.0
 11
12.5723794561
 21
-31.1590921957
 31
0.0
 11
12.4742464193
 21
-31.0378285483
 31
0.0
 11
12.3564089749
 21
-30.939605742
 31
0.0
 11
12.1654542641
 21
-30.8544743227
 31
0.0
 11
11.9483576515
 21
-30.825
 31
0.0
  0
SPLINE
  5
5B4
100
AcDbEntity
  8
DRAFT
100
AcDbSpline
 62
7
  6
CONTINUOUS
 70
0
 71
3
 72
9
 73
5
 74
3
 42
0.0000001
 43
0.0000001
 44
0.0000000001
 12
-0.0083059101
 22
-12.4273333574
 32
0.0
 13
-0.0055847142
 23
-12.4273348782
 33
0.0
 40
0.0
 40
0.0
 40
0.0
 40
0.0
 40
0.2498450474
 40
1.0
 40
1.0
 40
1.0
 40
1.0
 10
-0.3930559142
 20
38.0599822418
 30
0.0
 10
-0.3937476444
 20
37.0250130112
 30
0.0
 10
-0.3964026345
 20
32.8825684835
 30
0.0
 10
-0.398603533
 20
28.7401236649
 30
0.0
 10
-0.4
 20
25.6326480628
 30
0.0
 11
-0.3930559142
 21
38.0599822418
 31
0.0
 11
-0.3950459711
 21
34.9550744941
 31
0.0
 11
-0.4
 21
25.6326480628
 31
0.0
  0
SPLINE
  5
5B5
100
AcDbEntity
  8
DRAFT
100
AcDbSpline
 62
7
  6
CONTINUOUS
 70
0
 71
3
 72
9
 73
5
 74
3
 42
0.0000001
 43
0.0000001
 44
0.0000000001
 12
0.0055847142
 22
-12.4273348782
 32
0.0
 13
0.0083059101
 23
-12.4273333574
 33
0.0
 40
0.0
 40
0.0
 40
0.0
 40
0.0
 40
0.2501450373
 40
1.0
 40
1.0
 40
1.0
 40
1.0
 10
-0.4
 20
-25.6326480628
 30
0.0
 10
-0.3995343372
 20
-26.6688601117
 30
0.0
 10
-0.3975595963
 20
-30.8113050194
 30
0.0
 10
-0.3951319902
 20
-34.9537497114
 30
0.0
 10
-0.3930559142
 20
-38.0599822418
 30
0.0
 11
-0.4
 21
-25.6326480628
 31
0.0
 11
-0.398518057
 21
-28.74128417
 31
0.0
 11
-0.3930559142
 21
-38.0599822418
 31
0.0
  0
LINE
  5
5B6
100
AcDbEntity
  8
DRAFT
100
AcDbLine
 62
7
  6
CONTINUOUS
 10
55.85
 20
-20.4981609264
 11
57.7800638845
 21
-20.4967866828
  0
LINE
  5
5B7
100
AcDbEntity
  8
DRAFT
100
AcDbLine
 62
7
  6
CONTINUOUS
 10
-55.85
 20
20.4981609264
 11
-57.7800638845
 21
20.4967866828
  0
SPLINE
  5
5B8
100
AcDbEntity
  8
DRAFT
100
AcDbSpline
 62
7
  6
CONTINUOUS
 70
0
 71
3
 72
9
 73
5
 74
3
 42
0.0000001
 43
0.0000001
 44
0.0000000001
 12
-24.4171728208
 22
0.0176751522
 32
0.0
 13
-24.4171770988
 23
0.010173523
 33
0.0
 40
0.0
 40
0.0
 40
0.0
 40
0.0
 40
0.2497757253
 40
1.0
 40
1.0
 40
1.0
 40
1.0
 10
57.7115650738
 20
-22.5195296744
 30
0.0
 10
55.6786260564
 20
-22.5180580664
 30
0.0
 10
47.5395682254
 20
-22.5124799789
 30
0.0
 10
39.4005095366
 20
-22.5081542641
 30
0.0
 10
33.2943898772
 20
-22.5056101228
 30
0.0
 11
57.7115650738
 21
-22.5195296744
 31
0.0
 11
51.6127478562
 21
-22.5153496576
 31
0.0
 11
33.2943898772
 21
-22.5056101228
 31
0.0
  0
SPLINE
  5
5B9
100
AcDbEntity
  8
DRAFT
100
AcDbSpline
 62
7
  6
CONTINUOUS
 70
0
 71
3
 72
9
 73
5
 74
3
 42
0.0000001
 43
0.0000001
 44
0.0000000001
 12
24.4171728208
 22
-0.0176751522
 32
0.0
 13
24.4171770988
 23
-0.010173523
 33
0.0
 40
0.0
 40
0.0
 40
0.0
 40
0.0
 40
0.2497757253
 40
1.0
 40
1.0
 40
1.0
 40
1.0
 10
-57.7115650738
 20
22.5195296744
 30
0.0
 10
-55.6786260564
 20
22.5180580664
 30
0.0
 10
-47.5395682254
 20
22.5124799789
 30
0.0
 10
-39.4005095366
 20
22.5081542641
 30
0.0
 10
-33.2943898772
 20
22.5056101228
 30
0.0
 11
-57.7115650738
 21
22.5195296744
 31
0.0
 11
-51.6127478562
 21
22.5153496576
 31
0.0
 11
-33.2943898772
 21
22.5056101228
 31
0.0
  0
SPLINE
  5
5BA
100
AcDbEntity
  8
DRAFT
100
AcDbSpline
 62
7
  6
CONTINUOUS
 70
0
 71
3
 72
9
 73
5
 74
3
 42
0.0000001
 43
0.0000001
 44
0.0000000001
 12
-0.0087165349
 22
-22.1067852422
 32
0.0
 13
-0.0001543921
 23
-22.1067869601
 33
0.0
 40
0.0
 40
0.0
 40
0.0
 40
0.0
 40
0.2498890873
 40
1.0
 40
1.0
 40
1.0
 40
1.0
 10
-33.2943898772
 20
22.5056101228
 30
0.0
 10
-33.2951159328
 20
20.6641953273
 30
0.0
 10
-33.2976641691
 20
13.2952667767
 30
0.0
 10
-33.2987850808
 20
5.9263377326
 30
0.0
 10
-33.2988236845
 20
0.3988236845
 30
0.0
 11
-33.2943898772
 21
22.5056101228
 31
0.0
 11
-33.2963003571
 21
16.9813656373
 31
0.0
 11
-33.2988236845
 21
0.3988236845
 31
0.0
  0
SPLINE
  5
5BB
100
AcDbEntity
  8
DRAFT
100
AcDbSpline
 62
7
  6
CONTINUOUS
 70
0
 71
3
 72
9
 73
5
 74
3
 42
0.0000001
 43
0.0000001
 44
0.0000000001
 12
-24.8117639449
 22
-0.0103351823
 32
0.0
 13
-24.8117595111
 23
-0.018078679
 33
0.0
 40
0.0
 40
0.0
 40
0.0
 40
0.0
 40
0.2502090178
 40
1.0
 40
1.0
 40
1.0
 40
1.0
 10
-33.2988236845
 20
0.3988236845
 30
0.0
 10
-35.3681993801
 20
0.3979616993
 30
0.0
 10
-43.6387872244
 20
0.3941948296
 30
0.0
 10
-51.909374483
 20
0.389140211
 30
0.0
 10
-58.1105856609
 20
0.3846218009
 30
0.0
 11
-33.2988236845
 21
0.3988236845
 31
0.0
 11
-39.5069506658
 21
0.3959960708
 31
0.0
 11
-58.1105856609
 21
0.3846218009
 31
0.0
  0
SPLINE
  5
5BC
100
AcDbEntity
  8
DRAFT
100
AcDbSpline
 62
7
  6
CONTINUOUS
 70
0
 71
3
 72
9
 73
5
 74
3
 42
0.0000001
 43
0.0000001
 44
0.0000000001
 12
0.0087165349
 22
22.1067852422
 32
0.0
 13
0.0001543921
 23
22.1067869601
 33
0.0
 40
0.0
 40
0.0
 40
0.0
 40
0.0
 40
0.2498890873
 40
1.0
 40
1.0
 40
1.0
 40
1.0
 10
33.2943898772
 20
-22.5056101228
 30
0.0
 10
33.2951159328
 20
-20.6641953273
 30
0.0
 10
33.2976641691
 20
-13.2952667767
 30
0.0
 10
33.2987850808
 20
-5.9263377326
 30
0.0
 10
33.2988236845
 20
-0.3988236845
 30
0.0
 11
33.2943898772
 21
-22.5056101228
 31
0.0
 11
33.2963003571
 21
-16.9813656373
 31
0.0
 11
33.2988236845
 21
-0.3988236845
 31
0.0
  0
SPLINE
  5
5BD
100
AcDbEntity
  8
DRAFT
100
AcDbSpline
 62
7
  6
CONTINUOUS
 70
0
 71
3
 72
9
 73
5
 74
3
 42
0.0000001
 43
0.0000001
 44
0.0000000001
 12
24.8117639449
 22
0.0103351823
 32
0.0
 13
24.8117595111
 23
0.018078679
 33
0.0
 40
0.0
 40
0.0
 40
0.0
 40
0.0
 40
0.2502090178
 40
1.0
 40
1.0
 40
1.0
 40
1.0
 10
33.2988236845
 20
-0.3988236845
 30
0.0
 10
35.3681993801
 20
-0.3979616993
 30
0.0
 10
43.6387872244
 20
-0.3941948296
 30
0.0
 10
51.909374483
 20
-0.389140211
 30
0.0
 10
58.1105856609
 20
-0.3846218009
 30
0.0
 11
33.2988236845
 21
-0.3988236845
 31
0.0
 11
39.5069506658
 21
-0.3959960708
 31
0.0
 11
58.1105856609
 21
-0.3846218009
 31
0.0
  0
SPLINE
  5
5BE
100
AcDbEntity
  8
DRAFT
100
AcDbSpline
 62
7
  6
CONTINUOUS
 70
0
 71
3
 72
9
 73
5
 74
3
 42
0.0000001
 43
0.0000001
 44
0.0000000001
 12
0.0094197162
 22
14.2736794135
 32
0.0
 13
0.0058304364
 23
14.2736813309
 33
0.0
 40
0.0
 40
0.0
 40
0.0
 40
0.0
 40
0.2498287628
 40
1.0
 40
1.0
 40
1.0
 40
1.0
 10
-32.5132254219
 20
-37.5680783595
 30
0.0
 10
-32.5124409832
 20
-36.3794198032
 30
0.0
 10
-32.5094510156
 20
-31.6215265676
 30
0.0
 10
-32.5070600471
 20
-26.8636329557
 30
0.0
 10
-32.5056021052
 20
-23.2943978948
 30
0.0
 11
-32.5132254219
 21
-37.5680783595
 31
0.0
 11
-32.5109844096
 21
-34.0021026181
 31
0.0
 11
-32.5056021052
 21
-23.2943978948
 31
0.0
  0
LINE
  5
5BF
100
AcDbEntity
  8
DRAFT
100
AcDbLine
 62
7
  6
CONTINUOUS
 10
55.85
 20
14.5
 11
57.9452190915
 21
14.5014949393
  0
LINE
  5
5C0
100
AcDbEntity
  8
DRAFT
100
AcDbLine
 62
7
  6
CONTINUOUS
 10
-55.85
 20
-14.5
 11
-57.9452190915
 21
-14.5014949393
  0
SPLINE
  5
5C1
100
AcDbEntity
  8
DRAFT
100
AcDbSpline
 62
7
  6
CONTINUOUS
 70
0
 71
3
 72
9
 73
5
 74
3
 42
0.0000001
 43
0.0000001
 44
0.0000000001
 12
24.8117595112
 22
-0.018078679
 32
0.0
 13
24.811763945
 23
-0.0103351823
 33
0.0
 40
0.0
 40
0.0
 40
0.0
 40
0.0
 40
0.2497711452
 40
1.0
 40
1.0
 40
1.0
 40
1.0
 10
-58.1105856609
 20
-0.3846218009
 30
0.0
 10
-56.044831798
 20
-0.3861269783
 30
0.0
 10
-47.7742450615
 20
-0.3918294371
 30
0.0
 10
-39.5036574341
 20
-0.3962391005
 30
0.0
 10
-33.2988236845
 20
-0.3988236845
 30
0.0
 11
-58.1105856609
 21
-0.3846218009
 31
0.0
 11
-51.9133239003
 21
-0.3888949458
 31
0.0
 11
-33.2988236845
 21
-0.3988236845
 31
0.0
  0
SPLINE
  5
5C2
100
AcDbEntity
  8
DRAFT
100
AcDbSpline
 62
7
  6
CONTINUOUS
 70
0
 71
3
 72
9
 73
5
 74
3
 42
0.0000001
 43
0.0000001
 44
0.0000000001
 12
0.0001543921
 22
-22.1067869601
 32
0.0
 13
0.0087165349
 23
-22.1067852422
 33
0.0
 40
0.0
 40
0.0
 40
0.0
 40
0.0
 40
0.2500801919
 40
1.0
 40
1.0
 40
1.0
 40
1.0
 10
-33.2988236845
 20
-0.3988236845
 30
0.0
 10
-33.2988108144
 20
-2.2416468595
 30
0.0
 10
-33.2984026306
 20
-9.6105758394
 30
0.0
 10
-33.2965687779
 20
-16.9795047405
 30
0.0
 10
-33.2943898772
 20
-22.5056101228
 30
0.0
 11
-33.2988236845
 21
-0.3988236845
 31
0.0
 11
-33.2985174955
 21
-5.9272932012
 31
0.0
 11
-33.2943898772
 21
-22.5056101228
 31
0.0
  0
SPLINE
  5
5C3
100
AcDbEntity
  8
DRAFT
100
AcDbSpline
 62
7
  6
CONTINUOUS
 70
0
 71
3
 72
9
 73
5
 74
3
 42
0.0000001
 43
0.0000001
 44
0.0000000001
 12
-24.8117595112
 22
0.018078679
 32
0.0
 13
-24.811763945
 23
0.0103351823
 33
0.0
 40
0.0
 40
0.0
 40
0.0
 40
0.0
 40
0.2497711452
 40
1.0
 40
1.0
 40
1.0
 40
1.0
 10
58.1105856609
 20
0.3846218009
 30
0.0
 10
56.044831798
 20
0.3861269783
 30
0.0
 10
47.7742450615
 20
0.3918294371
 30
0.0
 10
39.5036574341
 20
0.3962391005
 30
0.0
 10
33.2988236845
 20
0.3988236845
 30
0.0
 11
58.1105856609
 21
0.3846218009
 31
0.0
 11
51.9133239003
 21
0.3888949458
 31
0.0
 11
33.2988236845
 21
0.3988236845
 31
0.0
  0
SPLINE
  5
5C4
100
AcDbEntity
  8
DRAFT
100
AcDbSpline
 62
7
  6
CONTINUOUS
 70
0
 71
3
 72
9
 73
5
 74
3
 42
0.0000001
 43
0.0000001
 44
0.0000000001
 12
-0.0001543921
 22
22.1067869601
 32
0.0
 13
-0.0087165349
 23
22.1067852422
 33
0.0
 40
0.0
 40
0.0
 40
0.0
 40
0.0
 40
0.2500801919
 40
1.0
 40
1.0
 40
1.0
 40
1.0
 10
33.2988236845
 20
0.3988236845
 30
0.0
 10
33.2988108144
 20
2.2416468595
 30
0.0
 10
33.2984026306
 20
9.6105758394
 30
0.0
 10
33.2965687779
 20
16.9795047405
 30
0.0
 10
33.2943898772
 20
22.5056101228
 30
0.0
 11
33.2988236845
 21
0.3988236845
 31
0.0
 11
33.2985174955
 21
5.9272932012
 31
0.0
 11
33.2943898772
 21
22.5056101228
 31
0.0
  0
SPLINE
  5
5C5
100
AcDbEntity
  8
DRAFT
100
AcDbSpline
 62
7
  6
CONTINUOUS
 70
0
 71
3
 72
9
 73
5
 74
3
 42
0.0000001
 43
0.0000001
 44
0.0000000001
 12
24.4171770987
 22
0.010173523
 32
0.0
 13
24.4171728208
 23
0.0176751522
 33
0.0
 40
0.0
 40
0.0
 40
0.0
 40
0.0
 40
0.2502050502
 40
1.0
 40
1.0
 40
1.0
 40
1.0
 10
33.2943898772
 20
22.5056101228
 30
0.0
 10
35.3308235512
 20
22.5064586118
 30
0.0
 10
43.4698824512
 20
22.5101615594
 30
0.0
 10
51.6089407841
 20
22.5151120945
 30
0.0
 10
57.7115650738
 20
22.5195296744
 30
0.0
 11
33.2943898772
 21
22.5056101228
 31
0.0
 11
39.4036907973
 21
22.5083897063
 31
0.0
 11
57.7115650738
 21
22.5195296744
 31
0.0
  0
LINE
  5
5C6
100
AcDbEntity
  8
DRAFT
100
AcDbLine
 62
7
  6
CONTINUOUS
 10
57.7800638845
 20
20.4967866828
 11
55.85
 21
20.4981609264
  0
SPLINE
  5
5C7
100
AcDbEntity
  8
DRAFT
100
AcDbSpline
 62
7
  6
CONTINUOUS
 70
0
 71
3
 72
9
 73
5
 74
3
 42
0.0000001
 43
0.0000001
 44
0.0000000001
 12
-24.4171770987
 22
-0.010173523
 32
0.0
 13
-24.4171728208
 23
-0.0176751522
 33
0.0
 40
0.0
 40
0.0
 40
0.0
 40
0.0
 40
0.2502050502
 40
1.0
 40
1.0
 40
1.0
 40
1.0
 10
-33.2943898772
 20
-22.5056101228
 30
0.0
 10
-35.3308235512
 20
-22.5064586118
 30
0.0
 10
-43.4698824512
 20
-22.5101615594
 30
0.0
 10
-51.6089407841
 20
-22.5151120945
 30
0.0
 10
-57.7115650738
 20
-22.5195296744
 30
0.0
 11
-33.2943898772
 21
-22.5056101228
 31
0.0
 11
-39.4036907973
 21
-22.5083897063
 31
0.0
 11
-57.7115650738
 21
-22.5195296744
 31
0.0
  0
LINE
  5
5C8
100
AcDbEntity
  8
DRAFT
100
AcDbLine
 62
7
  6
CONTINUOUS
 10
-57.7800638845
 20
-20.4967866828
 11
-55.85
 21
-20.4981609264
  0
LINE
  5
5C9
100
AcDbEntity
  8
DRAFT
100
AcDbLine
 62
7
  6
CONTINUOUS
 10
-32.5056021052
 20
-23.2943978948
 11
-25.1496932925
 21
-23.2970488476
  0
LINE
  5
5CA
100
AcDbEntity
  8
DRAFT
100
AcDbLine
 62
7
  6
CONTINUOUS
 10
-32.5631848306
 20
-37.8666316286
 11
-32.5132254219
 21
-37.5680783595
  0
LINE
  5
5CB
100
AcDbEntity
  8
DRAFT
100
AcDbLine
 62
7
  6
CONTINUOUS
 10
32.5132254219
 20
-37.5680783595
 11
32.5631848306
 21
-37.8666316286
  0
LINE
  5
5CC
100
AcDbEntity
  8
RACCORDO
100
AcDbLine
 62
253
  6
CONTINUOUS
 10
56.2578535516
 20
-36.5865660585
 11
56.4702617221
 21
-36.7995209996
  0
LINE
  5
5CD
100
AcDbEntity
  8
DRAFT
100
AcDbLine
 62
7
  6
CONTINUOUS
 10
33.2864719723
 20
-37.5443945824
 11
33.2368151694
 21
-37.8444215615
  0
LINE
  5
5CE
100
AcDbEntity
  8
RACCORDO
100
AcDbLine
 62
253
  6
CONTINUOUS
 10
-56.2578535516
 20
-36.5865660585
 11
-56.4702617221
 21
-36.7995209996
  0
LINE
  5
5CF
100
AcDbEntity
  8
DRAFT
100
AcDbLine
 62
7
  6
CONTINUOUS
 10
-33.2368151694
 20
-37.8444215615
 11
-33.2864719723
 21
-37.5443945824
  0
LINE
  5
5D0
100
AcDbEntity
  8
DRAFT
100
AcDbLine
 62
7
  6
CONTINUOUS
 10
25.1496932925
 20
-23.2970488476
 11
32.5056021052
 21
-23.2943978948
  0
SPLINE
  5
5D1
100
AcDbEntity
  8
DRAFT
100
AcDbSpline
 62
7
  6
CONTINUOUS
 70
0
 71
3
 72
9
 73
5
 74
3
 42
0.0000001
 43
0.0000001
 44
0.0000000001
 12
0.0058304364
 22
-14.2736813309
 32
0.0
 13
0.0094197162
 23
-14.2736794134
 33
0.0
 40
0.0
 40
0.0
 40
0.0
 40
0.0
 40
0.2501581553
 40
1.0
 40
1.0
 40
1.0
 40
1.0
 10
32.5056021052
 20
-23.2943978948
 30
0.0
 10
32.5060882823
 20
-24.4846238252
 30
0.0
 10
32.5081810161
 20
-29.24251754
 30
0.0
 10
32.5108709894
 20
-34.0004109923
 30
0.0
 10
32.5132254219
 20
-37.5680783595
 30
0.0
 11
32.5056021052
 21
-23.2943978948
 31
0.0
 11
32.5071726859
 21
-26.8650756385
 31
0.0
 11
32.5132254219
 21
-37.5680783595
 31
0.0
  0
SPLINE
  5
5D2
100
AcDbEntity
  8
DRAFT
100
AcDbSpline
 62
7
  6
CONTINUOUS
 70
0
 71
3
 72
9
 73
5
 74
3
 42
0.0000001
 43
0.0000001
 44
0.0000000001
 12
0.0083059101
 22
12.4273333574
 32
0.0
 13
0.0055847142
 23
12.4273348782
 33
0.0
 40
0.0
 40
0.0
 40
0.0
 40
0.0
 40
0.2498450474
 40
1.0
 40
1.0
 40
1.0
 40
1.0
 10
0.3930559142
 20
-38.0599822418
 30
0.0
 10
0.3937476444
 20
-37.0250130112
 30
0.0
 10
0.3964026345
 20
-32.8825684835
 30
0.0
 10
0.398603533
 20
-28.7401236649
 30
0.0
 10
0.4
 20
-25.6326480628
 30
0.0
 11
0.3930559142
 21
-38.0599822418
 31
0.0
 11
0.3950459711
 21
-34.9550744941
 31
0.0
 11
0.4
 21
-25.6326480628
 31
0.0
  0
SPLINE
  5
5D3
100
AcDbEntity
  8
DRAFT
100
AcDbSpline
 62
7
  6
CONTINUOUS
 70
0
 71
3
 72
9
 73
5
 74
3
 42
0.0000001
 43
0.0000001
 44
0.0000000001
 12
-0.0055847142
 22
12.4273348782
 32
0.0
 13
-0.0083059101
 23
12.4273333574
 33
0.0
 40
0.0
 40
0.0
 40
0.0
 40
0.0
 40
0.2501450373
 40
1.0
 40
1.0
 40
1.0
 40
1.0
 10
0.4
 20
25.6326480628
 30
0.0
 10
0.3995343372
 20
26.6688601117
 30
0.0
 10
0.3975595963
 20
30.8113050194
 30
0.0
 10
0.3951319902
 20
34.9537497114
 30
0.0
 10
0.3930559142
 20
38.0599822418
 30
0.0
 11
0.4
 21
25.6326480628
 31
0.0
 11
0.398518057
 21
28.74128417
 31
0.0
 11
0.3930559142
 21
38.0599822418
 31
0.0
  0
SPLINE
  5
5D4
100
AcDbEntity
  8
DRAFT
100
AcDbSpline
 62
7
  6
CONTINUOUS
 70
0
 71
3
 72
9
 73
5
 74
3
 42
0.0000001
 43
0.0000001
 44
0.0000000001
 12
-0.0094197162
 22
-14.2736794135
 32
0.0
 13
-0.0058304364
 23
-14.2736813309
 33
0.0
 40
0.0
 40
0.0
 40
0.0
 40
0.0
 40
0.2498287628
 40
1.0
 40
1.0
 40
1.0
 40
1.0
 10
32.5132254219
 20
37.5680783595
 30
0.0
 10
32.5124409832
 20
36.3794198032
 30
0.0
 10
32.5094510156
 20
31.6215265676
 30
0.0
 10
32.5070600471
 20
26.8636329557
 30
0.0
 10
32.5056021052
 20
23.2943978948
 30
0.0
 11
32.5132254219
 21
37.5680783595
 31
0.0
 11
32.5109844096
 21
34.0021026181
 31
0.0
 11
32.5056021052
 21
23.2943978948
 31
0.0
  0
LINE
  5
5D5
100
AcDbEntity
  8
DRAFT
100
AcDbLine
 62
7
  6
CONTINUOUS
 10
32.5056021052
 20
23.2943978948
 11
25.1496932925
 21
23.2970488476
  0
SPLINE
  5
5D6
100
AcDbEntity
  8
DRAFT
100
AcDbSpline
 62
7
  6
CONTINUOUS
 70
0
 71
3
 72
9
 73
5
 74
3
 42
0.0000001
 43
0.0000001
 44
0.0000000001
 12
0.000154642
 22
-22.1061336797
 32
0.0
 13
0.0087233299
 23
-22.1061319591
 33
0.0
 40
0.0
 40
0.0
 40
0.0
 40
0.0
 40
0.2500803221
 40
1.0
 40
1.0
 40
1.0
 40
1.0
 10
32.5008479143
 20
-0.3991520857
 30
0.0
 10
32.5008608053
 20
-2.2419217625
 30
0.0
 10
32.5012693452
 20
-9.6106329823
 30
0.0
 10
32.5031046439
 20
-16.9793441232
 30
0.0
 10
32.5052852428
 20
-22.5052852428
 30
0.0
 11
32.5008479143
 21
-0.3991520857
 31
0.0
 11
32.5011543706
 21
-5.9274611078
 31
0.0
 11
32.5052852428
 21
-22.5052852428
 31
0.0
  0
LINE
  5
5D7
100
AcDbEntity
  8
DRAFT
100
AcDbLine
 62
7
  6
CONTINUOUS
 10
32.5052852428
 20
-22.5052852428
 11
25.1993176487
 21
-22.5026479169
  0
LINE
  5
5D8
100
AcDbEntity
  8
DRAFT
100
AcDbLine
 62
7
  6
CONTINUOUS
 10
25.1993176487
 20
22.5026479169
 11
32.5052852428
 21
22.5052852428
  0
SPLINE
  5
5D9
100
AcDbEntity
  8
DRAFT
100
AcDbSpline
 62
7
  6
CONTINUOUS
 70
0
 71
3
 72
9
 73
5
 74
3
 42
0.0000001
 43
0.0000001
 44
0.0000000001
 12
-0.0087233299
 22
-22.1061319591
 32
0.0
 13
-0.000154642
 23
-22.1061336797
 33
0.0
 40
0.0
 40
0.0
 40
0.0
 40
0.0
 40
0.2498889084
 40
1.0
 40
1.0
 40
1.0
 40
1.0
 10
32.5052852428
 20
22.5052852428
 30
0.0
 10
32.5045586217
 20
20.6639261813
 30
0.0
 10
32.5020083932
 20
13.2952153915
 30
0.0
 10
32.5008865805
 20
5.9265041075
 30
0.0
 10
32.5008479143
 20
0.3991520857
 30
0.0
 11
32.5052852428
 21
22.5052852428
 31
0.0
 11
32.5033732707
 21
16.9812079592
 31
0.0
 11
32.5008479143
 21
0.3991520857
 31
0.0
  0
SPLINE
  5
5DA
100
AcDbEntity
  8
DRAFT
100
AcDbSpline
 62
7
  6
CONTINUOUS
 70
0
 71
3
 72
9
 73
5
 74
3
 42
0.0000001
 43
0.0000001
 44
0.0000000001
 12
-0.000154642
 22
22.1061336797
 32
0.0
 13
-0.0087233299
 23
22.1061319591
 33
0.0
 40
0.0
 40
0.0
 40
0.0
 40
0.0
 40
0.2500803221
 40
1.0
 40
1.0
 40
1.0
 40
1.0
 10
-32.5008479143
 20
0.3991520857
 30
0.0
 10
-32.5008608053
 20
2.2419217625
 30
0.0
 10
-32.5012693452
 20
9.6106329823
 30
0.0
 10
-32.5031046439
 20
16.9793441232
 30
0.0
 10
-32.5052852428
 20
22.5052852428
 30
0.0
 11
-32.5008479143
 21
0.3991520857
 31
0.0
 11
-32.5011543706
 21
5.9274611078
 31
0.0
 11
-32.5052852428
 21
22.5052852428
 31
0.0
  0
LINE
  5
5DB
100
AcDbEntity
  8
DRAFT
100
AcDbLine
 62
7
  6
CONTINUOUS
 10
-32.5052852428
 20
22.5052852428
 11
-25.1993176487
 21
22.5026479169
  0
LINE
  5
5DC
100
AcDbEntity
  8
DRAFT
100
AcDbLine
 62
7
  6
CONTINUOUS
 10
-25.1993176487
 20
-22.5026479169
 11
-32.5052852428
 21
-22.5052852428
  0
LINE
  5
5DD
100
AcDbEntity
  8
DRAFT
100
AcDbLine
 62
7
  6
CONTINUOUS
 10
57.9452190915
 20
-14.5014949393
 11
55.85
 21
-14.5
  0
SPLINE
  5
5DE
100
AcDbEntity
  8
DRAFT
100
AcDbSpline
 62
7
  6
CONTINUOUS
 70
0
 71
3
 72
9
 73
5
 74
3
 42
0.0000001
 43
0.0000001
 44
0.0000000001
 12
0.0087233299
 22
22.1061319591
 32
0.0
 13
0.000154642
 23
22.1061336797
 33
0.0
 40
0.0
 40
0.0
 40
0.0
 40
0.0
 40
0.2498889084
 40
1.0
 40
1.0
 40
1.0
 40
1.0
 10
-32.5052852428
 20
-22.5052852428
 30
0.0
 10
-32.5045586217
 20
-20.6639261813
 30
0.0
 10
-32.5020083932
 20
-13.2952153915
 30
0.0
 10
-32.5008865805
 20
-5.9265041075
 30
0.0
 10
-32.5008479143
 20
-0.3991520857
 30
0.0
 11
-32.5052852428
 21
-22.5052852428
 31
0.0
 11
-32.5033732707
 21
-16.9812079592
 31
0.0
 11
-32.5008479143
 21
-0.3991520857
 31
0.0
  0
LINE
  5
5DF
100
AcDbEntity
  8
DRAFT
100
AcDbLine
 62
7
  6
CONTINUOUS
 10
-58.0481842609
 20
20.4524186637
 11
-57.7800638845
 21
20.4967866828
  0
LINE
  5
5E0
100
AcDbEntity
  8
DRAFT
100
AcDbLine
 62
7
  6
CONTINUOUS
 10
-57.9722692711
 20
22.5631848306
 11
-57.7115650738
 21
22.5195296744
  0
LINE
  5
5E1
100
AcDbEntity
  8
DRAFT
100
AcDbLine
 62
7
  6
CONTINUOUS
 10
-57.7800638845
 20
-20.4967866828
 11
-58.0481842609
 21
-20.4524186637
  0
LINE
  5
5E2
100
AcDbEntity
  8
DRAFT
100
AcDbLine
 62
7
  6
CONTINUOUS
 10
-57.7115650738
 20
-22.5195296744
 11
-57.9722692711
 21
-22.5631848306
  0
LINE
  5
5E3
100
AcDbEntity
  8
RACCORDO
100
AcDbLine
 62
253
  6
CONTINUOUS
 10
-57.1047358374
 20
-35.7433112487
 11
-57.3165693054
 21
-35.9561977986
  0
LINE
  5
5E4
100
AcDbEntity
  8
DRAFT
100
AcDbLine
 62
7
  6
CONTINUOUS
 10
-57.6841373475
 20
-23.2801848582
 11
-57.9464713063
 21
-23.2368151694
  0
LINE
  5
5E5
100
AcDbEntity
  8
RACCORDO
100
AcDbLine
 62
253
  6
CONTINUOUS
 10
-57.1047358374
 20
35.7433112487
 11
-57.3165693054
 21
35.9561977986
  0
LINE
  5
5E6
100
AcDbEntity
  8
DRAFT
100
AcDbLine
 62
7
  6
CONTINUOUS
 10
-57.9464713063
 20
23.2368151694
 11
-57.6841373475
 21
23.2801848582
  0
SPLINE
  5
5E7
100
AcDbEntity
  8
RACCORDO
100
AcDbSpline
 62
7
  6
CONTINUOUS
 70
0
 71
3
 72
18
 73
14
 74
12
 42
0.0000001
 43
0.0000001
 44
0.0000000001
 12
-0.1528140161
 22
-0.2577255067
 32
0.0
 13
0.0019777445
 23
-0.2996175042
 33
0.0
 40
0.0
 40
0.0
 40
0.0
 40
0.0
 40
0.0132302591
 40
0.0345384054
 40
0.063954329
 40
0.1013027003
 40
0.1463011877
 40
0.1985864606
 40
0.3232171593
 40
0.4710034591
 40
0.6369186126
 40
0.8152889223
 40
1.0
 40
1.0
 40
1.0
 40
1.0
 10
-58.3723138127
 20
-3.6510182698
 30
0.0
 10
-58.3729877357
 20
-3.6521548616
 30
0.0
 10
-58.3740255213
 20
-3.6554977162
 30
0.0
 10
-58.37533659
 20
-3.6617279613
 30
0.0
 10
-58.3766022122
 20
-3.6704476152
 30
0.0
 10
-58.3778365913
 20
-3.681538041
 30
0.0
 10
-58.379003018
 20
-3.6949362995
 30
0.0
 10
-58.3805476817
 20
-3.7170460793
 30
0.0
 10
-58.3821482035
 20
-3.7494394852
 30
0.0
 10
-58.3835707851
 20
-3.7931956915
 30
0.0
 10
-58.3845181788
 20
-3.842333419
 30
0.0
 10
-58.3849537206
 20
-3.8951658387
 30
0.0
 10
-58.3848897928
 20
-3.9314291219
 30
0.0
 10
-58.3847680223
 20
-3.9498766793
 30
0.0
 11
-58.3723138127
 21
-3.6510182698
 31
0.0
 11
-58.3737344176
 21
-3.6547190804
 31
0.0
 11
-58.3751155111
 21
-3.6609523429
 31
0.0
 11
-58.3764451196
 21
-3.6696651932
 31
0.0
 11
-58.3777117689
 21
-3.6807837456
 31
0.0
 11
-58.3789044367
 21
-3.6942135188
 31
0.0
 11
-58.380012722
 21
-3.7098401911
 31
0.0
 11
-58.3819380597
 21
-3.7471328761
 31
0.0
 11
-58.383420038
 21
-3.7913883966
 31
0.0
 11
-58.3844060883
 21
-3.8410907836
 31
0.0
 11
-58.3848609244
 21
-3.8945328794
 31
0.0
 11
-58.3847680223
 21
-3.9498766793
 31
0.0
  0
LINE
  5
5E8
100
AcDbEntity
  8
DRAFT
100
AcDbLine
 62
7
  6
CONTINUOUS
 10
-57.9452190915
 20
-14.5014949393
 11
-58.2209458086
 21
-14.5475813363
  0
SPLINE
  5
5E9
100
AcDbEntity
  8
RACCORDO
100
AcDbSpline
 62
7
  6
CONTINUOUS
 70
0
 71
3
 72
18
 73
14
 74
12
 42
0.0000001
 43
0.0000001
 44
0.0000000001
 12
-0.0019777445
 22
-0.2996175042
 32
0.0
 13
0.1528140161
 23
-0.2577255067
 33
0.0
 40
0.0
 40
0.0
 40
0.0
 40
0.0
 40
0.1847110777
 40
0.3630813874
 40
0.5289965409
 40
0.6767828407
 40
0.8014135394
 40
0.8536988123
 40
0.8986972997
 40
0.936045671
 40
0.9654615946
 40
0.9867697409
 40
1.0
 40
1.0
 40
1.0
 40
1.0
 10
-58.3847680223
 20
3.9498766793
 30
0.0
 10
-58.3848897928
 20
3.9314291219
 30
0.0
 10
-58.3849537206
 20
3.8951658387
 30
0.0
 10
-58.3845181788
 20
3.842333419
 30
0.0
 10
-58.3835707851
 20
3.7931956915
 30
0.0
 10
-58.3821482035
 20
3.7494394852
 30
0.0
 10
-58.3805476817
 20
3.7170460793
 30
0.0
 10
-58.379003018
 20
3.6949362995
 30
0.0
 10
-58.3778365913
 20
3.681538041
 30
0.0
 10
-58.3766022122
 20
3.6704476152
 30
0.0
 10
-58.37533659
 20
3.6617279613
 30
0.0
 10
-58.3740255213
 20
3.6554977162
 30
0.0
 10
-58.3729877357
 20
3.6521548616
 30
0.0
 10
-58.3723138127
 20
3.6510182698
 30
0.0
 11
-58.3847680223
 21
3.9498766793
 31
0.0
 11
-58.3848609244
 21
3.8945328794
 31
0.0
 11
-58.3844060883
 21
3.8410907836
 31
0.0
 11
-58.383420038
 21
3.7913883966
 31
0.0
 11
-58.3819380597
 21
3.7471328761
 31
0.0
 11
-58.380012722
 21
3.7098401911
 31
0.0
 11
-58.3789044367
 21
3.6942135188
 31
0.0
 11
-58.3777117689
 21
3.6807837456
 31
0.0
 11
-58.3764451196
 21
3.6696651932
 31
0.0
 11
-58.3751155111
 21
3.6609523429
 31
0.0
 11
-58.3737344176
 21
3.6547190804
 31
0.0
 11
-58.3723138127
 21
3.6510182698
 31
0.0
  0
LINE
  5
5EA
100
AcDbEntity
  8
DRAFT
100
AcDbLine
 62
7
  6
CONTINUOUS
 10
-58.2209458086
 20
14.5475813363
 11
-57.9452190915
 21
14.5014949393
  0
LINE
  5
5EB
100
AcDbEntity
  8
DRAFT
100
AcDbLine
 62
7
  6
CONTINUOUS
 10
32.5631848306
 20
37.8666316286
 11
32.5132254219
 21
37.5680783595
  0
LINE
  5
5EC
100
AcDbEntity
  8
DRAFT
100
AcDbLine
 62
7
  6
CONTINUOUS
 10
-32.5132254219
 20
37.5680783595
 11
-32.5631848306
 21
37.8666316286
  0
LINE
  5
5ED
100
AcDbEntity
  8
RACCORDO
100
AcDbLine
 62
253
  6
CONTINUOUS
 10
-56.2578535516
 20
36.5865660585
 11
-56.4702617221
 21
36.7995209996
  0
LINE
  5
5EE
100
AcDbEntity
  8
DRAFT
100
AcDbLine
 62
7
  6
CONTINUOUS
 10
-33.2864719723
 20
37.5443945824
 11
-33.2368151694
 21
37.8444215615
  0
LINE
  5
5EF
100
AcDbEntity
  8
RACCORDO
100
AcDbLine
 62
253
  6
CONTINUOUS
 10
56.2578535516
 20
36.5865660585
 11
56.4702617221
 21
36.7995209996
  0
LINE
  5
5F0
100
AcDbEntity
  8
DRAFT
100
AcDbLine
 62
7
  6
CONTINUOUS
 10
33.2368151694
 20
37.8444215615
 11
33.2864719723
 21
37.5443945824
  0
LINE
  5
5F1
100
AcDbEntity
  8
DRAFT
100
AcDbLine
 62
7
  6
CONTINUOUS
 10
-57.9452190915
 20
14.5014949393
 11
-55.85
 21
14.5
  0
LINE
  5
5F2
100
AcDbEntity
  8
DRAFT
100
AcDbLine
 62
7
  6
CONTINUOUS
 10
-25.1496932925
 20
23.2970488476
 11
-32.5056021052
 21
23.2943978948
  0
SPLINE
  5
5F3
100
AcDbEntity
  8
DRAFT
100
AcDbSpline
 62
7
  6
CONTINUOUS
 70
0
 71
3
 72
9
 73
5
 74
3
 42
0.0000001
 43
0.0000001
 44
0.0000000001
 12
-0.0058304364
 22
14.2736813309
 32
0.0
 13
-0.0094197162
 23
14.2736794134
 33
0.0
 40
0.0
 40
0.0
 40
0.0
 40
0.0
 40
0.2501581553
 40
1.0
 40
1.0
 40
1.0
 40
1.0
 10
-32.5056021052
 20
23.2943978948
 30
0.0
 10
-32.5060882823
 20
24.4846238252
 30
0.0
 10
-32.5081810161
 20
29.24251754
 30
0.0
 10
-32.5108709894
 20
34.0004109923
 30
0.0
 10
-32.5132254219
 20
37.5680783595
 30
0.0
 11
-32.5056021052
 21
23.2943978948
 31
0.0
 11
-32.5071726859
 21
26.8650756385
 31
0.0
 11
-32.5132254219
 21
37.5680783595
 31
0.0
  0
LINE
  5
5F4
100
AcDbEntity
  8
DRAFT
100
AcDbLine
 62
7
  6
CONTINUOUS
 10
58.0481842609
 20
-20.4524186637
 11
57.7800638845
 21
-20.4967866828
  0
LINE
  5
5F5
100
AcDbEntity
  8
DRAFT
100
AcDbLine
 62
7
  6
CONTINUOUS
 10
57.9722692711
 20
-22.5631848306
 11
57.7115650738
 21
-22.5195296744
  0
LINE
  5
5F6
100
AcDbEntity
  8
DRAFT
100
AcDbLine
 62
7
  6
CONTINUOUS
 10
57.7800638845
 20
20.4967866828
 11
58.0481842609
 21
20.4524186637
  0
LINE
  5
5F7
100
AcDbEntity
  8
DRAFT
100
AcDbLine
 62
7
  6
CONTINUOUS
 10
57.7115650738
 20
22.5195296744
 11
57.9722692711
 21
22.5631848306
  0
LINE
  5
5F8
100
AcDbEntity
  8
RACCORDO
100
AcDbLine
 62
253
  6
CONTINUOUS
 10
57.1047358374
 20
-35.7433112487
 11
57.3165693054
 21
-35.9561977986
  0
LINE
  5
5F9
100
AcDbEntity
  8
DRAFT
100
AcDbLine
 62
7
  6
CONTINUOUS
 10
57.9464713063
 20
-23.2368151694
 11
57.6841373475
 21
-23.2801848582
  0
LINE
  5
5FA
100
AcDbEntity
  8
RACCORDO
100
AcDbLine
 62
253
  6
CONTINUOUS
 10
57.1047358374
 20
35.7433112487
 11
57.3165693054
 21
35.9561977986
  0
LINE
  5
5FB
100
AcDbEntity
  8
DRAFT
100
AcDbLine
 62
7
  6
CONTINUOUS
 10
57.6841373475
 20
23.2801848582
 11
57.9464713063
 21
23.2368151694
  0
SPLINE
  5
5FC
100
AcDbEntity
  8
RACCORDO
100
AcDbSpline
 62
7
  6
CONTINUOUS
 70
0
 71
3
 72
18
 73
14
 74
12
 42
0.0000001
 43
0.0000001
 44
0.0000000001
 12
0.0019777445
 22
0.2996175042
 32
0.0
 13
-0.1528140161
 23
0.2577255067
 33
0.0
 40
0.0
 40
0.0
 40
0.0
 40
0.0
 40
0.1847110777
 40
0.3630813874
 40
0.5289965409
 40
0.6767828407
 40
0.8014135394
 40
0.8536988123
 40
0.8986972997
 40
0.936045671
 40
0.9654615946
 40
0.9867697409
 40
1.0
 40
1.0
 40
1.0
 40
1.0
 10
58.3847680223
 20
-3.9498766793
 30
0.0
 10
58.3848897928
 20
-3.9314291219
 30
0.0
 10
58.3849537206
 20
-3.8951658387
 30
0.0
 10
58.3845181788
 20
-3.842333419
 30
0.0
 10
58.3835707851
 20
-3.7931956915
 30
0.0
 10
58.3821482035
 20
-3.7494394852
 30
0.0
 10
58.3805476817
 20
-3.7170460793
 30
0.0
 10
58.379003018
 20
-3.6949362995
 30
0.0
 10
58.3778365913
 20
-3.681538041
 30
0.0
 10
58.3766022122
 20
-3.6704476152
 30
0.0
 10
58.37533659
 20
-3.6617279613
 30
0.0
 10
58.3740255213
 20
-3.6554977162
 30
0.0
 10
58.3729877357
 20
-3.6521548616
 30
0.0
 10
58.3723138127
 20
-3.6510182698
 30
0.0
 11
58.3847680223
 21
-3.9498766793
 31
0.0
 11
58.3848609244
 21
-3.8945328794
 31
0.0
 11
58.3844060883
 21
-3.8410907836
 31
0.0
 11
58.383420038
 21
-3.7913883966
 31
0.0
 11
58.3819380597
 21
-3.7471328761
 31
0.0
 11
58.380012722
 21
-3.7098401911
 31
0.0
 11
58.3789044367
 21
-3.6942135188
 31
0.0
 11
58.3777117689
 21
-3.6807837456
 31
0.0
 11
58.3764451196
 21
-3.6696651932
 31
0.0
 11
58.3751155111
 21
-3.6609523429
 31
0.0
 11
58.3737344176
 21
-3.6547190804
 31
0.0
 11
58.3723138127
 21
-3.6510182698
 31
0.0
  0
LINE
  5
5FD
100
AcDbEntity
  8
DRAFT
100
AcDbLine
 62
7
  6
CONTINUOUS
 10
58.2209458086
 20
-14.5475813363
 11
57.9452190915
 21
-14.5014949393
  0
SPLINE
  5
5FE
100
AcDbEntity
  8
RACCORDO
100
AcDbSpline
 62
7
  6
CONTINUOUS
 70
0
 71
3
 72
13
 73
9
 74
7
 42
0.0000001
 43
0.0000001
 44
0.0000000001
 12
-0.4182366069
 22
-0.00055878
 32
0.0
 13
-0.4176003643
 23
-0.0230674515
 33
0.0
 40
0.0
 40
0.0
 40
0.0
 40
0.0
 40
0.3578064394
 40
0.6624170054
 40
0.7850844802
 40
0.883759179
 40
0.9559930727
 40
1.0
 40
1.0
 40
1.0
 40
1.0
 10
48.21330783
 20
-0.3756166196
 30
0.0
 10
48.1634252463
 20
-0.3756832647
 30
0.0
 10
48.0710764605
 20
-0.3759308485
 30
0.0
 10
47.9616272021
 20
-0.3765645886
 30
0.0
 10
47.8883068171
 20
-0.3772933108
 30
0.0
 10
47.8473814311
 20
-0.3778405157
 30
0.0
 10
47.8174271551
 20
-0.3784492122
 30
0.0
 10
47.8012253761
 20
-0.3789104931
 30
0.0
 10
47.7950996065
 20
-0.379248869
 30
0.0
 11
48.21330783
 21
-0.3756166196
 31
0.0
 11
48.0636605288
 21
-0.3760345072
 31
0.0
 11
47.9362636533
 21
-0.3768370417
 31
0.0
 11
47.8849622351
 21
-0.3773590761
 31
0.0
 11
47.8436969861
 21
-0.3779449655
 31
0.0
 11
47.8134927787
 21
-0.378580153
 31
0.0
 11
47.7950996065
 21
-0.379248869
 31
0.0
  0
SPLINE
  5
5FF
100
AcDbEntity
  8
RACCORDO
100
AcDbSpline
 62
7
  6
CONTINUOUS
 70
0
 71
3
 72
13
 73
9
 74
7
 42
0.0000001
 43
0.0000001
 44
0.0000000001
 12
0.4182366069
 22
0.00055878
 32
0.0
 13
0.4176003643
 23
0.0230674515
 33
0.0
 40
0.0
 40
0.0
 40
0.0
 40
0.0
 40
0.3578064394
 40
0.6624170054
 40
0.7850844802
 40
0.883759179
 40
0.9559930727
 40
1.0
 40
1.0
 40
1.0
 40
1.0
 10
-48.21330783
 20
0.3756166196
 30
0.0
 10
-48.1634252463
 20
0.3756832647
 30
0.0
 10
-48.0710764605
 20
0.3759308485
 30
0.0
 10
-47.9616272021
 20
0.3765645886
 30
0.0
 10
-47.8883068171
 20
0.3772933108
 30
0.0
 10
-47.8473814311
 20
0.3778405157
 30
0.0
 10
-47.8174271551
 20
0.3784492122
 30
0.0
 10
-47.8012253761
 20
0.3789104931
 30
0.0
 10
-47.7950996065
 20
0.379248869
 30
0.0
 11
-48.21330783
 21
0.3756166196
 31
0.0
 11
-48.0636605288
 21
0.3760345072
 31
0.0
 11
-47.9362636533
 21
0.3768370417
 31
0.0
 11
-47.8849622351
 21
0.3773590761
 31
0.0
 11
-47.8436969861
 21
0.3779449655
 31
0.0
 11
-47.8134927787
 21
0.378580153
 31
0.0
 11
-47.7950996065
 21
0.379248869
 31
0.0
  0
SPLINE
  5
600
100
AcDbEntity
  8
RACCORDO
100
AcDbSpline
 62
7
  6
CONTINUOUS
 70
0
 71
3
 72
13
 73
9
 74
7
 42
0.0000001
 43
0.0000001
 44
0.0000000001
 12
0.4176003643
 22
-0.0230674515
 32
0.0
 13
0.4182366069
 23
-0.00055878
 33
0.0
 40
0.0
 40
0.0
 40
0.0
 40
0.0
 40
0.0440069273
 40
0.116240821
 40
0.2149155198
 40
0.3375829946
 40
0.6421935606
 40
1.0
 40
1.0
 40
1.0
 40
1.0
 10
47.7950996065
 20
0.379248869
 30
0.0
 10
47.8012253761
 20
0.3789104931
 30
0.0
 10
47.8174271551
 20
0.3784492122
 30
0.0
 10
47.8473814311
 20
0.3778405157
 30
0.0
 10
47.8883068172
 20
0.3772933108
 30
0.0
 10
47.9616272022
 20
0.3765645886
 30
0.0
 10
48.0710764605
 20
0.3759308485
 30
0.0
 10
48.1634252463
 20
0.3756832647
 30
0.0
 10
48.21330783
 20
0.3756166196
 30
0.0
 11
47.7950996065
 21
0.379248869
 31
0.0
 11
47.8134927787
 21
0.378580153
 31
0.0
 11
47.8436969861
 21
0.3779449655
 31
0.0
 11
47.8849622351
 21
0.3773590761
 31
0.0
 11
47.9362636533
 21
0.3768370417
 31
0.0
 11
48.0636605288
 21
0.3760345072
 31
0.0
 11
48.21330783
 21
0.3756166196
 31
0.0
  0
LINE
  5
601
100
AcDbEntity
  8
RACCORDO
100
AcDbLine
 62
7
  6
CONTINUOUS
 10
-23.9235710347
 20
23.2856614158
 11
-32.5161638825
 21
23.2838361175
  0
SPLINE
  5
602
100
AcDbEntity
  8
RACCORDO
100
AcDbSpline
 62
7
  6
CONTINUOUS
 70
0
 71
3
 72
13
 73
9
 74
7
 42
0.0000001
 43
0.0000001
 44
0.0000000001
 12
-0.4176003643
 22
0.0230674515
 32
0.0
 13
-0.4182366069
 23
0.00055878
 33
0.0
 40
0.0
 40
0.0
 40
0.0
 40
0.0
 40
0.0440069274
 40
0.1162408211
 40
0.2149155199
 40
0.3375829947
 40
0.6421935607
 40
1.0
 40
1.0
 40
1.0
 40
1.0
 10
-47.7950996065
 20
-0.379248869
 30
0.0
 10
-47.8012253762
 20
-0.3789104931
 30
0.0
 10
-47.8174271552
 20
-0.3784492122
 30
0.0
 10
-47.8473814311
 20
-0.3778405157
 30
0.0
 10
-47.8883068172
 20
-0.3772933108
 30
0.0
 10
-47.9616272022
 20
-0.3765645886
 30
0.0
 10
-48.0710764606
 20
-0.3759308485
 30
0.0
 10
-48.1634252463
 20
-0.3756832647
 30
0.0
 10
-48.21330783
 20
-0.3756166196
 30
0.0
 11
-47.7950996065
 21
-0.379248869
 31
0.0
 11
-47.8134927788
 21
-0.378580153
 31
0.0
 11
-47.8436969862
 21
-0.3779449655
 31
0.0
 11
-47.8849622352
 21
-0.3773590761
 31
0.0
 11
-47.9362636534
 21
-0.3768370417
 31
0.0
 11
-48.0636605289
 21
-0.3760345072
 31
0.0
 11
-48.21330783
 21
-0.3756166196
 31
0.0
  0
LINE
  5
603
100
AcDbEntity
  8
DRAFT
100
AcDbLine
 62
7
  6
CONTINUOUS
 10
32.5008479143
 20
-0.3991520857
 11
25.8889675662
 21
-0.4015662707
  0
LINE
  5
604
100
AcDbEntity
  8
DRAFT
100
AcDbLine
 62
7
  6
CONTINUOUS
 10
25.8889675662
 20
0.4015662707
 11
32.5008479143
 21
0.3991520857
  0
LINE
  5
605
100
AcDbEntity
  8
DRAFT
100
AcDbLine
 62
7
  6
CONTINUOUS
 10
-32.5008479143
 20
0.3991520857
 11
-25.8889675662
 21
0.4015662707
  0
LINE
  5
606
100
AcDbEntity
  8
DRAFT
100
AcDbLine
 62
7
  6
CONTINUOUS
 10
-25.8889675662
 20
-0.4015662707
 11
-32.5008479143
 21
-0.3991520857
  0
SPLINE
  5
607
100
AcDbEntity
  8
RACCORDO
100
AcDbSpline
 62
7
  6
CONTINUOUS
 70
0
 71
3
 72
18
 73
14
 74
12
 42
0.0000001
 43
0.0000001
 44
0.0000000001
 12
0.1528140161
 22
0.2577255067
 32
0.0
 13
-0.0019777445
 23
0.2996175042
 33
0.0
 40
0.0
 40
0.0
 40
0.0
 40
0.0
 40
0.0132302591
 40
0.0345384054
 40
0.063954329
 40
0.1013027003
 40
0.1463011877
 40
0.1985864606
 40
0.3232171593
 40
0.4710034591
 40
0.6369186126
 40
0.8152889223
 40
1.0
 40
1.0
 40
1.0
 40
1.0
 10
58.3723138127
 20
3.6510182698
 30
0.0
 10
58.3729877357
 20
3.6521548616
 30
0.0
 10
58.3740255213
 20
3.6554977162
 30
0.0
 10
58.37533659
 20
3.6617279613
 30
0.0
 10
58.3766022122
 20
3.6704476152
 30
0.0
 10
58.3778365913
 20
3.681538041
 30
0.0
 10
58.379003018
 20
3.6949362995
 30
0.0
 10
58.3805476817
 20
3.7170460793
 30
0.0
 10
58.3821482035
 20
3.7494394852
 30
0.0
 10
58.3835707851
 20
3.7931956915
 30
0.0
 10
58.3845181788
 20
3.842333419
 30
0.0
 10
58.3849537206
 20
3.8951658387
 30
0.0
 10
58.3848897928
 20
3.9314291219
 30
0.0
 10
58.3847680223
 20
3.9498766793
 30
0.0
 11
58.3723138127
 21
3.6510182698
 31
0.0
 11
58.3737344176
 21
3.6547190804
 31
0.0
 11
58.3751155111
 21
3.6609523429
 31
0.0
 11
58.3764451196
 21
3.6696651932
 31
0.0
 11
58.3777117689
 21
3.6807837456
 31
0.0
 11
58.3789044367
 21
3.6942135188
 31
0.0
 11
58.380012722
 21
3.7098401911
 31
0.0
 11
58.3819380597
 21
3.7471328761
 31
0.0
 11
58.383420038
 21
3.7913883966
 31
0.0
 11
58.3844060883
 21
3.8410907836
 31
0.0
 11
58.3848609244
 21
3.8945328794
 31
0.0
 11
58.3847680223
 21
3.9498766793
 31
0.0
  0
LINE
  5
608
100
AcDbEntity
  8
DRAFT
100
AcDbLine
 62
7
  6
CONTINUOUS
 10
57.9452190915
 20
14.5014949393
 11
58.2209458086
 21
14.5475813363
  0
LINE
  5
609
100
AcDbEntity
  8
RACCORDO
100
AcDbLine
 62
253
  6
CONTINUOUS
 10
-33.2739875638
 20
32.0700715603
 11
-32.5258793828
 21
32.0700176324
  0
SPLINE
  5
60A
100
AcDbEntity
  8
RACCORDO
100
AcDbSpline
 62
7
  6
CONTINUOUS
 70
0
 71
3
 72
9
 73
5
 74
3
 42
0.0000001
 43
0.0000001
 44
0.0000000001
 12
-0.0034328637
 22
7.7511971088
 32
0.0
 13
-0.0152401909
 23
7.7511828865
 33
0.0
 40
0.0
 40
0.0
 40
0.0
 40
0.0
 40
0.2519648089
 40
1.0
 40
1.0
 40
1.0
 40
1.0
 10
-32.5166130935
 20
24.3188257213
 30
0.0
 10
-32.5169014138
 20
24.9698353541
 30
0.0
 10
-32.5185322277
 20
27.553567479
 30
0.0
 10
-32.5220793157
 20
30.1372984446
 30
0.0
 10
-32.525879382
 20
32.0700176352
 30
0.0
 11
-32.5166130935
 21
24.3188257213
 31
0.0
 11
-32.5178448863
 21
26.2718544229
 31
0.0
 11
-32.525879382
 21
32.0700176352
 31
0.0
  0
LINE
  5
60B
100
AcDbEntity
  8
DRAFT
100
AcDbLine
 62
253
  6
CONTINUOUS
 10
-33.2832223882
 20
24.2899879584
 11
-32.5166145713
 21
24.3188667244
  0
SPLINE
  5
60C
100
AcDbEntity
  8
RACCORDO
100
AcDbSpline
 62
7
  6
CONTINUOUS
 70
0
 71
3
 72
9
 73
5
 74
3
 42
0.0000001
 43
0.0000001
 44
0.0000000001
 12
-0.015252772
 22
-7.7800846308
 32
0.0
 13
-0.0033612043
 23
-7.7800988561
 33
0.0
 40
0.0
 40
0.0
 40
0.0
 40
0.0
 40
0.2475839189
 40
1.0
 40
1.0
 40
1.0
 40
1.0
 10
-33.2739875636
 20
32.0700715623
 30
0.0
 10
-33.2752463439
 20
31.4279969481
 30
0.0
 10
-33.2798143167
 20
28.8346344142
 30
0.0
 10
-33.2823800818
 20
26.241268385
 30
0.0
 10
-33.2832230899
 20
24.2899778878
 30
0.0
 11
-33.2739875636
 21
32.0700715623
 31
0.0
 11
-33.2773855262
 21
30.1438470151
 31
0.0
 11
-33.2832230899
 21
24.2899778878
 31
0.0
  0
LINE
  5
60D
100
AcDbEntity
  8
DRAFT
100
AcDbLine
 62
253
  6
CONTINUOUS
 10
-0.3868251731
 20
24.9239425619
 11
0.0000000078
 21
24.9240282465
  0
SPLINE
  5
60E
100
AcDbEntity
  8
RACCORDO
100
AcDbSpline
 62
7
  6
CONTINUOUS
 70
0
 71
3
 72
9
 73
5
 74
3
 42
0.0000001
 43
0.0000001
 44
0.0000000001
 12
-0.0148058392
 22
-7.1446266046
 32
0.0
 13
-0.0047576981
 23
-7.1446403616
 33
0.0
 40
0.0
 40
0.0
 40
0.0
 40
0.0
 40
0.2475162213
 40
1.0
 40
1.0
 40
1.0
 40
1.0
 10
-0.3770953969
 20
32.0685809628
 30
0.0
 10
-0.3783169587
 20
31.4791106364
 30
0.0
 10
-0.3828184658
 20
29.0975675533
 30
0.0
 10
-0.3856318125
 20
26.7160212988
 30
0.0
 10
-0.386825176
 20
24.9239459731
 30
0.0
 11
-0.3770953969
 21
32.0685809628
 31
0.0
 11
-0.3804419268
 21
30.3001693527
 31
0.0
 11
-0.386825176
 21
24.9239459731
 31
0.0
  0
LINE
  5
60F
100
AcDbEntity
  8
RACCORDO
100
AcDbLine
 62
253
  6
CONTINUOUS
 10
-0.3770953728
 20
32.0685200289
 11
-0.0000000001
 21
32.0686012213
  0
SPLINE
  5
610
100
AcDbEntity
  8
DRAFT
100
AcDbSpline
 62
7
  6
CONTINUOUS
 70
0
 71
3
 72
9
 73
5
 74
3
 42
0.0000001
 43
0.0000001
 44
0.0000000001
 12
-8.8918653928
 22
-0.0036349304
 32
0.0
 13
-8.8918619356
 23
-0.0086426084
 33
0.0
 40
0.0
 40
0.0
 40
0.0
 40
0.0
 40
0.2504437417
 40
1.0
 40
1.0
 40
1.0
 40
1.0
 10
-33.6189940249
 20
0.3883338037
 30
0.0
 10
-34.3612980382
 20
0.3880303552
 30
0.0
 10
-37.3252530798
 20
0.3866091264
 30
0.0
 10
-40.2892077216
 20
0.3843542557
 30
0.0
 10
-42.5108579754
 20
0.3821948819
 30
0.0
 11
-33.6189940249
 21
0.3883338037
 31
0.0
 11
-35.8459059949
 21
0.3872661917
 31
0.0
 11
-42.5108579754
 21
0.3821948819
 31
0.0
  0
LINE
  5
611
100
AcDbEntity
  8
DRAFT
100
AcDbLine
 62
253
  6
CONTINUOUS
 10
-33.6189902418
 20
0.3883338011
 11
-33.6189769476
 21
-0.0000000053
  0
LINE
  5
612
100
AcDbEntity
  8
RACCORDO
100
AcDbLine
 62
253
  6
CONTINUOUS
 10
-54.6758921624
 20
22.5359192476
 11
-54.6757278024
 21
23.2639832801
  0
SPLINE
  5
613
100
AcDbEntity
  8
RACCORDO
100
AcDbSpline
 62
7
  6
CONTINUOUS
 70
0
 71
3
 72
9
 73
5
 74
3
 42
0.0000001
 43
0.0000001
 44
0.0000000001
 12
-21.0055457721
 22
-0.0052349607
 32
0.0
 13
-21.0055186584
 23
-0.0341537419
 33
0.0
 40
0.0
 40
0.0
 40
0.0
 40
0.0
 40
0.2513672234
 40
1.0
 40
1.0
 40
1.0
 40
1.0
 10
-33.6701914197
 20
23.283553349
 30
0.0
 10
-35.4302266585
 20
23.2831147165
 30
0.0
 10
-42.4320748885
 20
23.2801710382
 30
0.0
 10
-49.4339212181
 20
23.2725061501
 30
0.0
 10
-54.675727804
 20
23.2639832799
 30
0.0
 11
-33.6701914197
 21
23.283553349
 31
0.0
 11
-38.9502968346
 21
23.2813365161
 31
0.0
 11
-54.675727804
 21
23.2639832799
 31
0.0
  0
LINE
  5
614
100
AcDbEntity
  8
DRAFT
100
AcDbLine
 62
253
  6
CONTINUOUS
 10
-33.6702137014
 20
23.283553214
 11
-33.6668339092
 21
22.5161371056
  0
SPLINE
  5
615
100
AcDbEntity
  8
RACCORDO
100
AcDbSpline
 62
7
  6
CONTINUOUS
 70
0
 71
3
 72
9
 73
5
 74
3
 42
0.0000001
 43
0.0000001
 44
0.0000000001
 12
21.0090191058
 22
-0.0343423681
 32
0.0
 13
21.0090464648
 23
-0.0054613486
 33
0.0
 40
0.0
 40
0.0
 40
0.0
 40
0.0
 40
0.248241523
 40
1.0
 40
1.0
 40
1.0
 40
1.0
 10
-54.6758921625
 20
22.5359192476
 30
0.0
 10
-52.9374551956
 20
22.5330775137
 30
0.0
 10
-45.9344468448
 20
22.5228733381
 30
0.0
 10
-38.9314314881
 20
22.5175055143
 30
0.0
 10
-33.6668552305
 20
22.5161369759
 30
0.0
 11
-54.6758921625
 21
22.5359192476
 31
0.0
 11
-49.4605798461
 21
22.5283093481
 31
0.0
 11
-33.6668552305
 21
22.5161369759
 31
0.0
  0
LINE
  5
616
100
AcDbEntity
  8
RACCORDO
100
AcDbLine
 62
253
  6
CONTINUOUS
 10
-48.213315549
 20
-0.0000000073
 11
-48.2132503158
 21
0.3756166029
  0
LINE
  5
617
100
AcDbEntity
  8
RACCORDO
100
AcDbLine
 62
253
  6
CONTINUOUS
 10
-54.6781644441
 20
-0.0000000104
 11
-54.6780672932
 21
0.3656231839
  0
SPLINE
  5
618
100
AcDbEntity
  8
RACCORDO
100
AcDbSpline
 62
7
  6
CONTINUOUS
 70
0
 71
3
 72
9
 73
5
 74
3
 42
0.0000001
 43
0.0000001
 44
0.0000000001
 12
-6.4648336854
 22
-0.0086372628
 32
0.0
 13
-6.4648294694
 23
-0.0113628197
 33
0.0
 40
0.0
 40
0.0
 40
0.0
 40
0.0
 40
0.2507599714
 40
1.0
 40
1.0
 40
1.0
 40
1.0
 10
-48.21330783
 20
0.3756166196
 30
0.0
 10
-48.7536816667
 20
0.3748946597
 30
0.0
 10
-50.9086260767
 20
0.371903162
 30
0.0
 10
-53.0635698623
 20
0.3684610464
 30
0.0
 10
-54.6781395345
 20
0.3656232199
 30
0.0
 11
-48.21330783
 21
0.3756166196
 31
0.0
 11
-49.8344292247
 21
0.3733660288
 31
0.0
 11
-54.6781395345
 21
0.3656232199
 31
0.0
  0
SPLINE
  5
619
100
AcDbEntity
  8
DRAFT
100
AcDbSpline
 62
7
  6
CONTINUOUS
 70
0
 71
3
 72
9
 73
5
 74
3
 42
0.0000001
 43
0.0000001
 44
0.0000000001
 12
8.8918619354
 22
-0.0086426084
 32
0.0
 13
8.8918653926
 23
-0.0036349304
 33
0.0
 40
0.0
 40
0.0
 40
0.0
 40
0.0
 40
0.2494932904
 40
1.0
 40
1.0
 40
1.0
 40
1.0
 10
-42.5108579754
 20
-0.3821948819
 30
0.0
 10
-41.7713713448
 20
-0.3829136395
 30
0.0
 10
-38.8074171672
 20
-0.3855857995
 30
0.0
 10
-35.8434622376
 20
-0.3874244571
 30
0.0
 10
-33.6189940249
 20
-0.3883338037
 30
0.0
 11
-42.5108579754
 21
-0.3821948819
 31
0.0
 11
-40.2923979373
 21
-0.3841951286
 31
0.0
 11
-33.6189940249
 21
-0.3883338037
 31
0.0
  0
LINE
  5
61A
100
AcDbEntity
  8
DRAFT
100
AcDbLine
 62
253
  6
CONTINUOUS
 10
-33.6189902418
 20
-0.3883338011
 11
-33.6189769476
 21
0.0000000053
  0
LINE
  5
61B
100
AcDbEntity
  8
RACCORDO
100
AcDbLine
 62
253
  6
CONTINUOUS
 10
-54.6757278024
 20
-23.26398328
 11
-54.6758921624
 21
-22.535919248
  0
SPLINE
  5
61C
100
AcDbEntity
  8
RACCORDO
100
AcDbSpline
 62
7
  6
CONTINUOUS
 70
0
 71
3
 72
9
 73
5
 74
3
 42
0.0000001
 43
0.0000001
 44
0.0000000001
 12
-21.0090464585
 22
-0.0054613486
 32
0.0
 13
-21.0090190995
 23
-0.0343423681
 33
0.0
 40
0.0
 40
0.0
 40
0.0
 40
0.0
 40
0.2513819041
 40
1.0
 40
1.0
 40
1.0
 40
1.0
 10
-33.6668552305
 20
-22.5161369759
 30
0.0
 10
-35.4272865979
 20
-22.516594604
 30
0.0
 10
-42.4303017111
 20
-22.5196134019
 30
0.0
 10
-49.4333148721
 20
-22.5273494749
 30
0.0
 10
-54.6758921638
 20
-22.5359192476
 30
0.0
 11
-33.6668552305
 21
-22.5161369759
 31
0.0
 11
-38.9481490218
 21
-22.5184104444
 31
0.0
 11
-54.6758921638
 21
-22.5359192476
 31
0.0
  0
LINE
  5
61D
100
AcDbEntity
  8
RACCORDO
100
AcDbLine
 62
253
  6
CONTINUOUS
 10
-55.0022072492
 20
22.5392902751
 11
-55.002401612
 21
23.2606125509
  0
LINE
  5
61E
100
AcDbEntity
  8
RACCORDO
100
AcDbLine
 62
253
  6
CONTINUOUS
 10
-54.999101391
 20
-0.0000000104
 11
-54.9991022255
 21
0.3622621185
  0
LINE
  5
61F
100
AcDbEntity
  8
RACCORDO
100
AcDbLine
 62
253
  6
CONTINUOUS
 10
-54.9991022255
 20
-0.3622621185
 11
-54.999101391
 21
-0.0000000104
  0
LINE
  5
620
100
AcDbEntity
  8
RACCORDO
100
AcDbLine
 62
253
  6
CONTINUOUS
 10
-55.002401612
 20
-23.2606125509
 11
-55.0022072492
 21
-22.5392902751
  0
LINE
  5
621
100
AcDbEntity
  8
RACCORDO
100
AcDbLine
 62
253
  6
CONTINUOUS
 10
0.0000000047
 20
-32.3761038426
 11
-0.3737600225
 21
-32.3761046662
  0
LINE
  5
622
100
AcDbEntity
  8
RACCORDO
100
AcDbLine
 62
253
  6
CONTINUOUS
 10
0.3737600225
 20
-32.3761046662
 11
0.0000000047
 21
-32.3761038426
  0
LINE
  5
623
100
AcDbEntity
  8
RACCORDO
100
AcDbLine
 62
253
  6
CONTINUOUS
 10
33.2706424952
 20
-32.3823401955
 11
32.5292251989
 21
-32.3820755635
  0
LINE
  5
624
100
AcDbEntity
  8
RACCORDO
100
AcDbLine
 62
253
  6
CONTINUOUS
 10
-32.5292251989
 20
-32.3820755635
 11
-33.2706424952
 21
-32.3823401955
  0
LINE
  5
625
100
AcDbEntity
  8
RACCORDO
100
AcDbLine
 62
253
  6
CONTINUOUS
 10
55.0022072492
 20
-22.5392902751
 11
55.002401612
 21
-23.2606125509
  0
LINE
  5
626
100
AcDbEntity
  8
RACCORDO
100
AcDbLine
 62
253
  6
CONTINUOUS
 10
54.999101391
 20
0.0000000104
 11
54.9991022255
 21
-0.3622621185
  0
LINE
  5
627
100
AcDbEntity
  8
RACCORDO
100
AcDbLine
 62
253
  6
CONTINUOUS
 10
54.9991022255
 20
0.3622621185
 11
54.999101391
 21
0.0000000104
  0
LINE
  5
628
100
AcDbEntity
  8
RACCORDO
100
AcDbLine
 62
253
  6
CONTINUOUS
 10
55.002401612
 20
23.2606125509
 11
55.0022072492
 21
22.5392902751
  0
LINE
  5
629
100
AcDbEntity
  8
RACCORDO
100
AcDbLine
 62
253
  6
CONTINUOUS
 10
0.0000000002
 20
32.3761038426
 11
0.3737600225
 21
32.3761046662
  0
LINE
  5
62A
100
AcDbEntity
  8
RACCORDO
100
AcDbLine
 62
253
  6
CONTINUOUS
 10
-0.3737600225
 20
32.3761046662
 11
0.0000000002
 21
32.3761038426
  0
LINE
  5
62B
100
AcDbEntity
  8
RACCORDO
100
AcDbLine
 62
253
  6
CONTINUOUS
 10
-33.2706424952
 20
32.3823401955
 11
-32.5292251989
 21
32.3820755635
  0
LINE
  5
62C
100
AcDbEntity
  8
RACCORDO
100
AcDbLine
 62
253
  6
CONTINUOUS
 10
32.5292251989
 20
32.3820755635
 11
33.2706424952
 21
32.3823401955
  0
SPLINE
  5
62D
100
AcDbEntity
  8
RACCORDO
100
AcDbSpline
 62
7
  6
CONTINUOUS
 70
0
 71
3
 72
15
 73
11
 74
9
 42
0.0000001
 43
0.0000001
 44
0.0000000001
 12
-1.350080508
 22
0.0624028379
 32
0.0
 13
-0.0891568376
 23
1.3485779735
 33
0.0
 40
0.0
 40
0.0
 40
0.0
 40
0.0
 40
0.1250730613
 40
0.2501258336
 40
0.375140962
 40
0.5001117958
 40
0.6250609454
 40
0.7500211447
 40
0.875002874
 40
1.0
 40
1.0
 40
1.0
 40
1.0
 10
-24.2133520542
 20
-25.0737167087
 30
0.0
 10
-24.2696382883
 20
-25.0711150708
 30
0.0
 10
-24.3820675126
 20
-25.059163687
 30
0.0
 10
-24.5463772094
 20
-25.0165934254
 30
0.0
 10
-24.7006497646
 20
-24.9450161884
 30
0.0
 10
-24.8365276867
 20
-24.8422919441
 30
0.0
 10
-24.9455211693
 20
-24.7113608416
 30
0.0
 10
-25.023292309
 20
-24.5600818251
 30
0.0
 10
-25.0710130213
 20
-24.3972020902
 30
0.0
 10
-25.0855621652
 20
-24.2851017505
 30
0.0
 10
-25.089276948
 20
-24.2289122935
 30
0.0
 11
-24.2133520542
 21
-25.0737167087
 31
0.0
 11
-24.3813576476
 21
-25.0550539496
 31
0.0
 11
-24.544727521
 21
-25.0117504539
 31
0.0
 11
-24.6976078755
 21
-24.9398108223
 31
0.0
 11
-24.8320573485
 21
-24.8375815382
 31
0.0
 11
-24.9403145406
 21
-24.7079745605
 31
0.0
 11
-25.0182789919
 21
-24.5581607538
 31
0.0
 11
-25.0666948073
 21
-24.3963325405
 31
0.0
 11
-25.089276948
 21
-24.2289122935
 31
0.0
  0
SPLINE
  5
62E
100
AcDbEntity
  8
RACCORDO
100
AcDbSpline
 62
7
  6
CONTINUOUS
 70
0
 71
3
 72
15
 73
11
 74
9
 42
0.0000001
 43
0.0000001
 44
0.0000000001
 12
-0.0891568376
 22
-1.3485779732
 32
0.0
 13
-1.3500805077
 23
-0.0624028378
 33
0.0
 40
0.0
 40
0.0
 40
0.0
 40
0.0
 40
0.124997125
 40
0.2499788528
 40
0.3749390522
 40
0.499888199
 40
0.6248590252
 40
0.7498742117
 40
0.8749270042
 40
1.0
 40
1.0
 40
1.0
 40
1.0
 10
25.089276948
 20
-24.2289122935
 30
0.0
 10
25.0855621653
 20
-24.28510175
 30
0.0
 10
25.0710130215
 20
-24.3972020885
 30
0.0
 10
25.0232923099
 20
-24.5600818224
 30
0.0
 10
24.9455211718
 20
-24.7113608376
 30
0.0
 10
24.8365276929
 20
-24.842291937
 30
0.0
 10
24.700649756
 20
-24.945016197
 30
0.0
 10
24.5463771685
 20
-25.0165934439
 30
0.0
 10
24.3820674621
 20
-25.059163691
 30
0.0
 10
24.2696382588
 20
-25.0711150721
 30
0.0
 10
24.2133520542
 20
-25.0737167087
 30
0.0
 11
25.089276948
 21
-24.2289122935
 31
0.0
 11
25.0666948076
 21
-24.3963325391
 31
0.0
 11
25.0182789931
 21
-24.5581607505
 31
0.0
 11
24.9403145425
 21
-24.7079745577
 31
0.0
 11
24.8320573536
 21
-24.8375815331
 31
0.0
 11
24.6976078908
 21
-24.9398108134
 31
0.0
 11
24.5447274633
 21
-25.0117504746
 31
0.0
 11
24.38135756
 21
-25.0550539638
 31
0.0
 11
24.2133520542
 21
-25.0737167087
 31
0.0
  0
SPLINE
  5
62F
100
AcDbEntity
  8
RACCORDO
100
AcDbSpline
 62
7
  6
CONTINUOUS
 70
0
 71
3
 72
15
 73
11
 74
9
 42
0.0000001
 43
0.0000001
 44
0.0000000001
 12
1.350080508
 22
-0.0624028379
 32
0.0
 13
0.0891568376
 23
-1.3485779735
 33
0.0
 40
0.0
 40
0.0
 40
0.0
 40
0.0
 40
0.1250730613
 40
0.2501258336
 40
0.375140962
 40
0.5001117958
 40
0.6250609454
 40
0.7500211447
 40
0.875002874
 40
1.0
 40
1.0
 40
1.0
 40
1.0
 10
24.2133520542
 20
25.0737167087
 30
0.0
 10
24.2696382883
 20
25.0711150708
 30
0.0
 10
24.3820675126
 20
25.059163687
 30
0.0
 10
24.5463772094
 20
25.0165934254
 30
0.0
 10
24.7006497646
 20
24.9450161884
 30
0.0
 10
24.8365276867
 20
24.8422919441
 30
0.0
 10
24.9455211693
 20
24.7113608416
 30
0.0
 10
25.023292309
 20
24.5600818251
 30
0.0
 10
25.0710130213
 20
24.3972020902
 30
0.0
 10
25.0855621652
 20
24.2851017505
 30
0.0
 10
25.089276948
 20
24.2289122935
 30
0.0
 11
24.2133520542
 21
25.0737167087
 31
0.0
 11
24.3813576476
 21
25.0550539496
 31
0.0
 11
24.544727521
 21
25.0117504539
 31
0.0
 11
24.6976078755
 21
24.9398108223
 31
0.0
 11
24.8320573485
 21
24.8375815382
 31
0.0
 11
24.9403145406
 21
24.7079745605
 31
0.0
 11
25.0182789919
 21
24.5581607538
 31
0.0
 11
25.0666948073
 21
24.3963325405
 31
0.0
 11
25.089276948
 21
24.2289122935
 31
0.0
  0
SPLINE
  5
630
100
AcDbEntity
  8
RACCORDO
100
AcDbSpline
 62
7
  6
CONTINUOUS
 70
0
 71
3
 72
15
 73
11
 74
9
 42
0.0000001
 43
0.0000001
 44
0.0000000001
 12
0.0891568376
 22
1.3485779732
 32
0.0
 13
1.3500805077
 23
0.0624028378
 33
0.0
 40
0.0
 40
0.0
 40
0.0
 40
0.0
 40
0.124997125
 40
0.2499788528
 40
0.3749390522
 40
0.499888199
 40
0.6248590252
 40
0.7498742117
 40
0.8749270042
 40
1.0
 40
1.0
 40
1.0
 40
1.0
 10
-25.089276948
 20
24.2289122935
 30
0.0
 10
-25.0855621653
 20
24.28510175
 30
0.0
 10
-25.0710130215
 20
24.3972020885
 30
0.0
 10
-25.0232923099
 20
24.5600818224
 30
0.0
 10
-24.9455211718
 20
24.7113608376
 30
0.0
 10
-24.8365276929
 20
24.842291937
 30
0.0
 10
-24.700649756
 20
24.945016197
 30
0.0
 10
-24.5463771685
 20
25.0165934439
 30
0.0
 10
-24.3820674621
 20
25.059163691
 30
0.0
 10
-24.2696382588
 20
25.0711150721
 30
0.0
 10
-24.2133520542
 20
25.0737167087
 30
0.0
 11
-25.089276948
 21
24.2289122935
 31
0.0
 11
-25.0666948076
 21
24.3963325391
 31
0.0
 11
-25.0182789931
 21
24.5581607505
 31
0.0
 11
-24.9403145425
 21
24.7079745577
 31
0.0
 11
-24.8320573536
 21
24.8375815331
 31
0.0
 11
-24.6976078908
 21
24.9398108134
 31
0.0
 11
-24.5447274633
 21
25.0117504746
 31
0.0
 11
-24.38135756
 21
25.0550539638
 31
0.0
 11
-24.2133520542
 21
25.0737167087
 31
0.0
  0
SPLINE
  5
631
100
AcDbEntity
  8
RACCORDO
100
AcDbSpline
 62
7
  6
CONTINUOUS
 70
0
 71
3
 72
22
 73
18
 74
16
 42
0.0000001
 43
0.0000001
 44
0.0000000001
 12
0.0006136664
 22
0.3121116633
 32
0.0
 13
0.1395710159
 23
0.2791666141
 33
0.0
 40
0.0
 40
0.0
 40
0.0
 40
0.0
 40
0.2033326648
 40
0.3932422092
 40
0.5644795552
 40
0.7123120034
 40
0.7761472432
 40
0.832658162
 40
0.8814546196
 40
0.9222001152
 40
0.9546145091
 40
0.9676261181
 40
0.9784764164
 40
0.9871477712
 40
0.9936272306
 40
0.9979074366
 40
1.0
 40
1.0
 40
1.0
 40
1.0
 10
32.525879382
 20
32.0700176364
 30
0.0
 10
32.5259209748
 20
32.0911718018
 30
0.0
 10
32.5260316656
 20
32.1320835773
 30
0.0
 10
32.526288415
 20
32.1908100458
 30
0.0
 10
32.5266241532
 20
32.2437619168
 30
0.0
 10
32.5269748379
 20
32.2835968906
 30
0.0
 10
32.5272974932
 20
32.311495662
 30
0.0
 10
32.5275405115
 20
32.3290911437
 30
0.0
 10
32.5277939657
 20
32.3442840829
 30
0.0
 10
32.5280564516
 20
32.356969265
 30
0.0
 10
32.5282919068
 20
32.365931703
 30
0.0
 10
32.5284929752
 20
32.3717825671
 30
0.0
 10
32.5286302415
 20
32.3751656922
 30
0.0
 10
32.5287749382
 20
32.3778638333
 30
0.0
 10
32.5288979044
 20
32.3798892201
 30
0.0
 10
32.5290561336
 20
32.3812035109
 30
0.0
 10
32.5291278451
 20
32.3818808389
 30
0.0
 10
32.5292251989
 20
32.3820755635
 30
0.0
 11
32.525879382
 21
32.0700176364
 31
0.0
 11
32.5260536705
 21
32.1334800159
 31
0.0
 11
32.5263173589
 21
32.1927525277
 31
0.0
 11
32.5266631384
 21
32.2461966853
 31
0.0
 11
32.5270814286
 21
32.2923351097
 31
0.0
 11
32.5273142161
 21
32.3122575112
 31
0.0
 11
32.5275606503
 21
32.3298935404
 31
0.0
 11
32.5278190241
 21
32.3451213216
 31
0.0
 11
32.5280875468
 21
32.3578356554
 31
0.0
 11
32.5283643631
 21
32.3679487975
 31
0.0
 11
32.5285052834
 21
32.3720074346
 31
0.0
 11
32.5286475509
 21
32.3753909561
 31
0.0
 11
32.5287909245
 21
32.378093592
 31
0.0
 11
32.5289351676
 21
32.3801107602
 31
0.0
 11
32.5290800233
 21
32.3814387882
 31
0.0
 11
32.5292251989
 21
32.3820755635
 31
0.0
  0
SPLINE
  5
632
100
AcDbEntity
  8
RACCORDO
100
AcDbSpline
 62
7
  6
CONTINUOUS
 70
0
 71
3
 72
22
 73
18
 74
16
 42
0.0000001
 43
0.0000001
 44
0.0000000001
 12
0.1396641435
 22
-0.2793555822
 32
0.0
 13
0.0006123043
 23
-0.3123223325
 33
0.0
 40
0.0
 40
0.0
 40
0.0
 40
0.0
 40
0.0020925728
 40
0.0063737651
 40
0.012855151
 40
0.0215293201
 40
0.0323832618
 40
0.0453992644
 40
0.0778243327
 40
0.1185822867
 40
0.1673919801
 40
0.2239158036
 40
0.287762464
 40
0.4356088058
 40
0.6068415727
 40
0.7967224766
 40
1.0
 40
1.0
 40
1.0
 40
1.0
 10
33.2706424952
 20
32.3823401955
 30
0.0
 10
33.2707399143
 20
32.3821453382
 30
0.0
 10
33.2708115676
 20
32.3814674196
 30
0.0
 10
33.2709698811
 20
32.3801519478
 30
0.0
 10
33.2710928392
 20
32.3781245822
 30
0.0
 10
33.2712375744
 20
32.3754237465
 30
0.0
 10
33.2713748589
 20
32.3720372028
 30
0.0
 10
33.2715759596
 20
32.3661804377
 30
0.0
 10
33.2718114398
 20
32.3572090797
 30
0.0
 10
33.2720739435
 20
32.3445115454
 30
0.0
 10
33.2723273983
 20
32.3293043295
 30
0.0
 10
33.2725703993
 20
32.3116930582
 30
0.0
 10
33.2728929931
 20
32.2837714736
 30
0.0
 10
33.2732435529
 20
32.2439074507
 30
0.0
 10
33.2735790866
 20
32.1909218481
 30
0.0
 10
33.2738355735
 20
32.1321649383
 30
0.0
 10
33.2739460743
 20
32.0912342703
 30
0.0
 10
33.2739875636
 20
32.0700715669
 30
0.0
 11
33.2706424952
 21
32.3823401955
 31
0.0
 11
33.2707877007
 21
32.3817029718
 31
0.0
 11
33.2709325859
 21
32.3803737301
 31
0.0
 11
33.2710768572
 21
32.3783545923
 31
0.0
 11
33.2712202574
 21
32.3756492483
 31
0.0
 11
33.2713625494
 21
32.372262301
 31
0.0
 11
33.2715034918
 21
32.3681995489
 31
0.0
 11
33.2717803429
 21
32.3580762415
 31
0.0
 11
33.2720488857
 21
32.3453494306
 31
0.0
 11
33.2723072623
 21
32.3301072338
 31
0.0
 11
33.2725536806
 21
32.3124552674
 31
0.0
 11
33.2727864322
 21
32.2925158495
 31
0.0
 11
33.2732045905
 21
32.2463419399
 31
0.0
 11
33.2735501636
 21
32.1928631365
 31
0.0
 11
33.2738135847
 21
32.1335595608
 31
0.0
 11
33.2739875636
 21
32.0700715669
 31
0.0
  0
SPLINE
  5
633
100
AcDbEntity
  8
RACCORDO
100
AcDbSpline
 62
7
  6
CONTINUOUS
 70
0
 71
3
 72
22
 73
18
 74
16
 42
0.0000001
 43
0.0000001
 44
0.0000000001
 12
0.0006373938
 22
0.3075773635
 32
0.0
 13
0.1375444578
 23
0.2751104558
 33
0.0
 40
0.0
 40
0.0
 40
0.0
 40
0.0
 40
0.203782113
 40
0.3938613547
 40
0.5650763597
 40
0.7127751209
 40
0.7765240778
 40
0.8329460302
 40
0.8816574339
 40
0.9223274363
 40
0.9546805671
 40
0.9676680696
 40
0.9784991344
 40
0.9871564327
 40
0.9936272687
 40
0.9979045121
 40
1.0
 40
1.0
 40
1.0
 40
1.0
 10
-0.3770953969
 20
32.0685809628
 30
0.0
 10
-0.3770521004
 20
32.0894738845
 30
0.0
 10
-0.3769387042
 20
32.1298547769
 30
0.0
 10
-0.376679563
 20
32.1877892522
 30
0.0
 10
-0.3763432637
 20
32.2399732264
 30
0.0
 10
-0.3759934801
 20
32.2792046128
 30
0.0
 10
-0.3756724004
 20
32.3066663698
 30
0.0
 10
-0.3754308692
 20
32.3239795129
 30
0.0
 10
-0.3751791767
 20
32.3389261175
 30
0.0
 10
-0.3749186968
 20
32.3514042325
 30
0.0
 10
-0.3746851386
 20
32.3602199268
 30
0.0
 10
-0.3744857931
 20
32.3659750257
 30
0.0
 10
-0.3743496632
 20
32.3693030658
 30
0.0
 10
-0.3742063389
 20
32.371957699
 30
0.0
 10
-0.3740841729
 20
32.3739508965
 30
0.0
 10
-0.3739278232
 20
32.3752452696
 30
0.0
 10
-0.3738560967
 20
32.3759125026
 30
0.0
 10
-0.3737600225
 20
32.3761046662
 30
0.0
 11
-0.3770953969
 21
32.0685809628
 31
0.0
 11
-0.3769167626
 21
32.1312596079
 31
0.0
 11
-0.3766506996
 21
32.1897232
 31
0.0
 11
-0.376304437
 21
32.2423840346
 31
0.0
 11
-0.3758873852
 21
32.2878110133
 31
0.0
 11
-0.375655788
 21
32.3074174237
 31
0.0
 11
-0.3754108767
 21
32.3247698481
 31
0.0
 11
-0.3751543183
 21
32.3397502086
 31
0.0
 11
-0.3748878602
 21
32.3522565693
 31
0.0
 11
-0.3746133123
 21
32.3622038933
 31
0.0
 11
-0.3744735876
 21
32.3661961193
 31
0.0
 11
-0.3743325489
 21
32.3695245299
 31
0.0
 11
-0.3741904309
 21
32.3721835294
 31
0.0
 11
-0.3740474644
 21
32.3741686749
 31
0.0
 11
-0.3739038997
 21
32.3754764042
 31
0.0
 11
-0.3737600225
 21
32.3761046662
 31
0.0
  0
SPLINE
  5
634
100
AcDbEntity
  8
RACCORDO
100
AcDbSpline
 62
7
  6
CONTINUOUS
 70
0
 71
3
 72
22
 73
18
 74
16
 42
0.0000001
 43
0.0000001
 44
0.0000000001
 12
0.1375444937
 22
-0.275110438
 32
0.0
 13
0.0006373938
 23
-0.3075773636
 33
0.0
 40
0.0
 40
0.0
 40
0.0
 40
0.0
 40
0.0020954876
 40
0.0063727307
 40
0.0128435665
 40
0.0215008645
 40
0.0323319291
 40
0.0453194313
 40
0.0776725618
 40
0.1183425638
 40
0.1670539672
 40
0.2234759195
 40
0.2872248762
 40
0.4349236373
 40
0.6061386425
 40
0.7962178843
 40
1.0
 40
1.0
 40
1.0
 40
1.0
 10
0.3737600225
 20
32.3761046662
 30
0.0
 10
0.3738560967
 20
32.3759125027
 30
0.0
 10
0.3739278232
 20
32.3752452697
 30
0.0
 10
0.3740841729
 20
32.3739508967
 30
0.0
 10
0.3742063389
 20
32.3719576993
 30
0.0
 10
0.3743496632
 20
32.3693030662
 30
0.0
 10
0.3744857931
 20
32.3659750261
 30
0.0
 10
0.3746851386
 20
32.3602199273
 30
0.0
 10
0.3749186968
 20
32.3514042331
 30
0.0
 10
0.3751791767
 20
32.3389261182
 30
0.0
 10
0.3754308692
 20
32.3239795136
 30
0.0
 10
0.3756724004
 20
32.3066663706
 30
0.0
 10
0.3759934802
 20
32.2792046137
 30
0.0
 10
0.3763432637
 20
32.2399732272
 30
0.0
 10
0.376679563
 20
32.187789253
 30
0.0
 10
0.3769387043
 20
32.1298547773
 30
0.0
 10
0.3770521004
 20
32.0894738847
 30
0.0
 10
0.3770953969
 20
32.0685809627
 30
0.0
 11
0.3737600225
 21
32.3761046662
 31
0.0
 11
0.3739038997
 21
32.3754764043
 31
0.0
 11
0.3740474644
 21
32.3741686751
 31
0.0
 11
0.3741904309
 21
32.3721835296
 31
0.0
 11
0.3743325489
 21
32.3695245303
 31
0.0
 11
0.3744735876
 21
32.3661961197
 31
0.0
 11
0.3746133123
 21
32.3622038938
 31
0.0
 11
0.3748878602
 21
32.3522565699
 31
0.0
 11
0.3751543183
 21
32.3397502093
 31
0.0
 11
0.3754108767
 21
32.3247698488
 31
0.0
 11
0.375655788
 21
32.3074174245
 31
0.0
 11
0.3758873852
 21
32.2878110142
 31
0.0
 11
0.376304437
 21
32.2423840355
 31
0.0
 11
0.3766506996
 21
32.1897232009
 31
0.0
 11
0.3769167626
 21
32.1312596087
 31
0.0
 11
0.3770953969
 21
32.0685809627
 31
0.0
  0
SPLINE
  5
635
100
AcDbEntity
  8
RACCORDO
100
AcDbSpline
 62
7
  6
CONTINUOUS
 70
0
 71
3
 72
22
 73
18
 74
16
 42
0.0000001
 43
0.0000001
 44
0.0000000001
 12
-0.0006136664
 22
-0.3121116632
 32
0.0
 13
-0.139571011
 23
-0.2791666166
 33
0.0
 40
0.0
 40
0.0
 40
0.0
 40
0.0
 40
0.2033326645
 40
0.3932422088
 40
0.5644795548
 40
0.712312003
 40
0.7761472428
 40
0.8326581617
 40
0.8814546193
 40
0.9222001149
 40
0.9546145089
 40
0.9676261179
 40
0.9784764163
 40
0.9871477711
 40
0.9936272306
 40
0.9979074366
 40
1.0
 40
1.0
 40
1.0
 40
1.0
 10
-32.525879382
 20
-32.0700176364
 30
0.0
 10
-32.5259209748
 20
-32.0911718018
 30
0.0
 10
-32.5260316656
 20
-32.1320835773
 30
0.0
 10
-32.526288415
 20
-32.1908100457
 30
0.0
 10
-32.5266241532
 20
-32.2437619167
 30
0.0
 10
-32.5269748379
 20
-32.2835968905
 30
0.0
 10
-32.5272974932
 20
-32.3114956619
 30
0.0
 10
-32.5275405115
 20
-32.3290911436
 30
0.0
 10
-32.5277939657
 20
-32.3442840828
 30
0.0
 10
-32.5280564516
 20
-32.3569692649
 30
0.0
 10
-32.5282919068
 20
-32.365931703
 30
0.0
 10
-32.5284929752
 20
-32.371782567
 30
0.0
 10
-32.5286302415
 20
-32.3751656921
 30
0.0
 10
-32.5287749382
 20
-32.3778638333
 30
0.0
 10
-32.5288979044
 20
-32.3798892201
 30
0.0
 10
-32.5290561336
 20
-32.3812035109
 30
0.0
 10
-32.5291278451
 20
-32.3818808389
 30
0.0
 10
-32.5292251989
 20
-32.3820755635
 30
0.0
 11
-32.525879382
 21
-32.0700176364
 31
0.0
 11
-32.5260536705
 21
-32.1334800158
 31
0.0
 11
-32.5263173589
 21
-32.1927525276
 31
0.0
 11
-32.5266631384
 21
-32.2461966852
 31
0.0
 11
-32.5270814286
 21
-32.2923351096
 31
0.0
 11
-32.5273142161
 21
-32.312257511
 31
0.0
 11
-32.5275606503
 21
-32.3298935403
 31
0.0
 11
-32.5278190241
 21
-32.3451213215
 31
0.0
 11
-32.5280875468
 21
-32.3578356553
 31
0.0
 11
-32.5283643631
 21
-32.3679487975
 31
0.0
 11
-32.5285052834
 21
-32.3720074345
 31
0.0
 11
-32.5286475509
 21
-32.3753909561
 31
0.0
 11
-32.5287909245
 21
-32.378093592
 31
0.0
 11
-32.5289351676
 21
-32.3801107601
 31
0.0
 11
-32.5290800233
 21
-32.3814387882
 31
0.0
 11
-32.5292251989
 21
-32.3820755635
 31
0.0
  0
SPLINE
  5
636
100
AcDbEntity
  8
RACCORDO
100
AcDbSpline
 62
7
  6
CONTINUOUS
 70
0
 71
3
 72
22
 73
18
 74
16
 42
0.0000001
 43
0.0000001
 44
0.0000000001
 12
-0.1396641426
 22
0.2793555826
 32
0.0
 13
-0.0006123043
 23
0.3123223325
 33
0.0
 40
0.0
 40
0.0
 40
0.0
 40
0.0
 40
0.0020925728
 40
0.0063737651
 40
0.012855151
 40
0.0215293201
 40
0.0323832618
 40
0.0453992644
 40
0.0778243327
 40
0.1185822868
 40
0.1673919802
 40
0.2239158037
 40
0.2877624641
 40
0.4356088059
 40
0.6068415727
 40
0.7967224767
 40
1.0
 40
1.0
 40
1.0
 40
1.0
 10
-33.2706424952
 20
-32.3823401955
 30
0.0
 10
-33.2707399143
 20
-32.3821453382
 30
0.0
 10
-33.2708115676
 20
-32.3814674196
 30
0.0
 10
-33.2709698811
 20
-32.3801519478
 30
0.0
 10
-33.2710928392
 20
-32.3781245822
 30
0.0
 10
-33.2712375744
 20
-32.3754237465
 30
0.0
 10
-33.2713748589
 20
-32.3720372028
 30
0.0
 10
-33.2715759596
 20
-32.3661804377
 30
0.0
 10
-33.2718114398
 20
-32.3572090797
 30
0.0
 10
-33.2720739435
 20
-32.3445115453
 30
0.0
 10
-33.2723273983
 20
-32.3293043295
 30
0.0
 10
-33.2725703993
 20
-32.3116930582
 30
0.0
 10
-33.2728929931
 20
-32.2837714736
 30
0.0
 10
-33.2732435529
 20
-32.2439074506
 30
0.0
 10
-33.2735790866
 20
-32.1909218481
 30
0.0
 10
-33.2738355735
 20
-32.1321649383
 30
0.0
 10
-33.2739460743
 20
-32.0912342703
 30
0.0
 10
-33.2739875636
 20
-32.0700715669
 30
0.0
 11
-33.2706424952
 21
-32.3823401955
 31
0.0
 11
-33.2707877007
 21
-32.3817029718
 31
0.0
 11
-33.2709325859
 21
-32.3803737301
 31
0.0
 11
-33.2710768572
 21
-32.3783545923
 31
0.0
 11
-33.2712202574
 21
-32.3756492483
 31
0.0
 11
-33.2713625494
 21
-32.372262301
 31
0.0
 11
-33.2715034918
 21
-32.3681995489
 31
0.0
 11
-33.2717803429
 21
-32.3580762415
 31
0.0
 11
-33.2720488857
 21
-32.3453494306
 31
0.0
 11
-33.2723072623
 21
-32.3301072338
 31
0.0
 11
-33.2725536806
 21
-32.3124552673
 31
0.0
 11
-33.2727864322
 21
-32.2925158495
 31
0.0
 11
-33.2732045905
 21
-32.2463419399
 31
0.0
 11
-33.2735501636
 21
-32.1928631365
 31
0.0
 11
-33.2738135847
 21
-32.1335595607
 31
0.0
 11
-33.2739875636
 21
-32.0700715669
 31
0.0
  0
SPLINE
  5
637
100
AcDbEntity
  8
RACCORDO
100
AcDbSpline
 62
7
  6
CONTINUOUS
 70
0
 71
3
 72
22
 73
18
 74
16
 42
0.0000001
 43
0.0000001
 44
0.0000000001
 12
-0.0006373938
 22
-0.3075773635
 32
0.0
 13
-0.1375444579
 23
-0.2751104558
 33
0.0
 40
0.0
 40
0.0
 40
0.0
 40
0.0
 40
0.203782113
 40
0.3938613547
 40
0.5650763597
 40
0.7127751209
 40
0.7765240778
 40
0.8329460302
 40
0.8816574339
 40
0.9223274363
 40
0.9546805672
 40
0.9676680696
 40
0.9784991344
 40
0.9871564327
 40
0.9936272687
 40
0.9979045121
 40
1.0
 40
1.0
 40
1.0
 40
1.0
 10
0.3770953969
 20
-32.0685809628
 30
0.0
 10
0.3770521004
 20
-32.0894738845
 30
0.0
 10
0.3769387042
 20
-32.1298547769
 30
0.0
 10
0.376679563
 20
-32.1877892522
 30
0.0
 10
0.3763432637
 20
-32.2399732264
 30
0.0
 10
0.3759934801
 20
-32.2792046128
 30
0.0
 10
0.3756724004
 20
-32.3066663698
 30
0.0
 10
0.3754308692
 20
-32.3239795129
 30
0.0
 10
0.3751791767
 20
-32.3389261175
 30
0.0
 10
0.3749186968
 20
-32.3514042325
 30
0.0
 10
0.3746851386
 20
-32.3602199268
 30
0.0
 10
0.3744857931
 20
-32.3659750257
 30
0.0
 10
0.3743496632
 20
-32.3693030658
 30
0.0
 10
0.3742063389
 20
-32.371957699
 30
0.0
 10
0.3740841729
 20
-32.3739508965
 30
0.0
 10
0.3739278232
 20
-32.3752452696
 30
0.0
 10
0.3738560967
 20
-32.3759125026
 30
0.0
 10
0.3737600225
 20
-32.3761046662
 30
0.0
 11
0.3770953969
 21
-32.0685809628
 31
0.0
 11
0.3769167626
 21
-32.1312596079
 31
0.0
 11
0.3766506996
 21
-32.1897232
 31
0.0
 11
0.376304437
 21
-32.2423840346
 31
0.0
 11
0.3758873852
 21
-32.2878110133
 31
0.0
 11
0.375655788
 21
-32.3074174237
 31
0.0
 11
0.3754108767
 21
-32.3247698481
 31
0.0
 11
0.3751543183
 21
-32.3397502086
 31
0.0
 11
0.3748878602
 21
-32.3522565693
 31
0.0
 11
0.3746133123
 21
-32.3622038933
 31
0.0
 11
0.3744735876
 21
-32.3661961193
 31
0.0
 11
0.3743325489
 21
-32.3695245299
 31
0.0
 11
0.3741904309
 21
-32.3721835294
 31
0.0
 11
0.3740474644
 21
-32.3741686749
 31
0.0
 11
0.3739038997
 21
-32.3754764042
 31
0.0
 11
0.3737600225
 21
-32.3761046662
 31
0.0
  0
SPLINE
  5
638
100
AcDbEntity
  8
RACCORDO
100
AcDbSpline
 62
7
  6
CONTINUOUS
 70
0
 71
3
 72
22
 73
18
 74
16
 42
0.0000001
 43
0.0000001
 44
0.0000000001
 12
-0.1375444938
 22
0.275110438
 32
0.0
 13
-0.0006373938
 23
0.3075773636
 33
0.0
 40
0.0
 40
0.0
 40
0.0
 40
0.0
 40
0.0020954876
 40
0.0063727307
 40
0.0128435665
 40
0.0215008645
 40
0.0323319291
 40
0.0453194313
 40
0.0776725618
 40
0.1183425638
 40
0.1670539672
 40
0.2234759195
 40
0.2872248762
 40
0.4349236373
 40
0.6061386425
 40
0.7962178843
 40
1.0
 40
1.0
 40
1.0
 40
1.0
 10
-0.3737600225
 20
-32.3761046662
 30
0.0
 10
-0.3738560967
 20
-32.3759125027
 30
0.0
 10
-0.3739278232
 20
-32.3752452697
 30
0.0
 10
-0.3740841729
 20
-32.3739508967
 30
0.0
 10
-0.3742063389
 20
-32.3719576993
 30
0.0
 10
-0.3743496632
 20
-32.3693030662
 30
0.0
 10
-0.3744857931
 20
-32.3659750261
 30
0.0
 10
-0.3746851386
 20
-32.3602199273
 30
0.0
 10
-0.3749186968
 20
-32.3514042331
 30
0.0
 10
-0.3751791767
 20
-32.3389261182
 30
0.0
 10
-0.3754308692
 20
-32.3239795136
 30
0.0
 10
-0.3756724004
 20
-32.3066663706
 30
0.0
 10
-0.3759934802
 20
-32.2792046137
 30
0.0
 10
-0.3763432637
 20
-32.2399732272
 30
0.0
 10
-0.376679563
 20
-32.187789253
 30
0.0
 10
-0.3769387043
 20
-32.1298547773
 30
0.0
 10
-0.3770521004
 20
-32.0894738847
 30
0.0
 10
-0.3770953969
 20
-32.0685809627
 30
0.0
 11
-0.3737600225
 21
-32.3761046662
 31
0.0
 11
-0.3739038997
 21
-32.3754764043
 31
0.0
 11
-0.3740474644
 21
-32.3741686751
 31
0.0
 11
-0.3741904309
 21
-32.3721835296
 31
0.0
 11
-0.3743325489
 21
-32.3695245303
 31
0.0
 11
-0.3744735876
 21
-32.3661961197
 31
0.0
 11
-0.3746133123
 21
-32.3622038938
 31
0.0
 11
-0.3748878602
 21
-32.3522565699
 31
0.0
 11
-0.3751543183
 21
-32.3397502093
 31
0.0
 11
-0.3754108767
 21
-32.3247698488
 31
0.0
 11
-0.375655788
 21
-32.3074174245
 31
0.0
 11
-0.3758873852
 21
-32.2878110142
 31
0.0
 11
-0.376304437
 21
-32.2423840354
 31
0.0
 11
-0.3766506996
 21
-32.1897232009
 31
0.0
 11
-0.3769167626
 21
-32.1312596087
 31
0.0
 11
-0.3770953969
 21
-32.0685809627
 31
0.0
  0
SPLINE
  5
639
100
AcDbEntity
  8
RACCORDO
100
AcDbSpline
 62
7
  6
CONTINUOUS
 70
0
 71
3
 72
23
 73
19
 74
17
 42
0.0000001
 43
0.0000001
 44
0.0000000001
 12
-0.326368925
 22
0.0005334986
 32
0.0
 13
-0.2919180876
 23
0.1459479017
 33
0.0
 40
0.0
 40
0.0
 40
0.0
 40
0.0
 40
0.2017663129
 40
0.3910525582
 40
0.5623377978
 40
0.6396438702
 40
0.7106252157
 40
0.7747639553
 40
0.8315923727
 40
0.8806960506
 40
0.9217172476
 40
0.9543579329
 40
0.9674595395
 40
0.9783823706
 40
0.9871075835
 40
0.9936212383
 40
0.9979151049
 40
1.0
 40
1.0
 40
1.0
 40
1.0
 10
-54.6758921625
 20
22.5359192476
 30
0.0
 10
-54.6978422474
 20
22.5359551283
 30
0.0
 10
-54.7403846729
 20
22.5360565397
 30
0.0
 10
-54.8015608069
 20
22.5363047615
 30
0.0
 10
-54.8491965998
 20
22.5365906366
 30
0.0
 10
-54.8839617589
 20
22.5368663348
 30
0.0
 10
-54.907070541
 20
22.5370836765
 30
0.0
 10
-54.9279512961
 20
22.5373168526
 30
0.0
 10
-54.9464516109
 20
22.5375640584
 30
0.0
 10
-54.9624366305
 20
22.5378226485
 30
0.0
 10
-54.9757894329
 20
22.538091075
 30
0.0
 10
-54.9852258347
 20
22.5383321979
 30
0.0
 10
-54.9913863999
 20
22.5385384674
 30
0.0
 10
-54.9949477809
 20
22.5386791466
 30
0.0
 10
-54.9977866764
 20
22.5388280595
 30
0.0
 10
-54.9999161253
 20
22.5389533127
 30
0.0
 10
-55.0012945689
 20
22.5391174969
 30
0.0
 10
-55.0020043763
 20
22.5391888464
 30
0.0
 10
-55.0022072492
 20
22.5392902751
 30
0.0
 11
-54.6758921625
 21
22.5359192476
 31
0.0
 11
-54.741742312
 21
22.5360787313
 31
0.0
 11
-54.8035190167
 21
22.5363337192
 31
0.0
 11
-54.8594202184
 21
22.536676758
 31
0.0
 11
-54.8846497472
 21
22.5368782568
 31
0.0
 11
-54.907814843
 21
22.5370978235
 31
0.0
 11
-54.9287464318
 21
22.5373338527
 31
0.0
 11
-54.9472917907
 21
22.5375846194
 31
0.0
 11
-54.9633155575
 21
22.53784829
 31
0.0
 11
-54.976700802
 21
22.538122936
 31
0.0
 11
-54.9873499455
 21
22.5384065543
 31
0.0
 11
-54.9916234652
 21
22.5385510816
 31
0.0
 11
-54.9951853523
 21
22.5386970661
 31
0.0
 11
-54.9980291884
 21
22.5388442469
 31
0.0
 11
-55.0001498793
 21
22.5389923675
 31
0.0
 11
-55.0015433455
 21
22.5391411494
 31
0.0
 11
-55.0022072492
 21
22.5392902751
 31
0.0
  0
SPLINE
  5
63A
100
AcDbEntity
  8
RACCORDO
100
AcDbSpline
 62
7
  6
CONTINUOUS
 70
0
 71
3
 72
23
 73
19
 74
17
 42
0.0000001
 43
0.0000001
 44
0.0000000001
 12
0.2922393043
 22
0.1461075316
 32
0.0
 13
0.3267276228
 23
0.0005312399
 33
0.0
 40
0.0
 40
0.0
 40
0.0
 40
0.0
 40
0.0020848408
 40
0.0063797139
 40
0.0128953969
 40
0.0216236056
 40
0.0325503398
 40
0.0456566765
 40
0.0783089285
 40
0.1193437451
 40
0.168462046
 40
0.2253049177
 40
0.2894567005
 40
0.3604484167
 40
0.4377609556
 40
0.6090428914
 40
0.7982979737
 40
1.0
 40
1.0
 40
1.0
 40
1.0
 10
-55.002401612
 20
23.2606125509
 30
0.0
 10
-55.0021985212
 20
23.2607140879
 30
0.0
 10
-55.0014877945
 20
23.2607853835
 30
0.0
 10
-55.0001075239
 20
23.2609497182
 30
0.0
 10
-54.9979750591
 20
23.2610749947
 30
0.0
 10
-54.9951320708
 20
23.2612239961
 30
0.0
 10
-54.9915655027
 20
23.2613647356
 30
0.0
 10
-54.9853959622
 20
23.2615711011
 30
0.0
 10
-54.9759459254
 20
23.2618123199
 30
0.0
 10
-54.9625741075
 20
23.26208084
 30
0.0
 10
-54.9465668654
 20
23.2623394982
 30
0.0
 10
-54.9280416272
 20
23.2625867449
 30
0.0
 10
-54.9071337961
 20
23.2628199313
 30
0.0
 10
-54.8839963596
 20
23.2630372511
 30
0.0
 10
-54.8491915152
 20
23.2633128629
 30
0.0
 10
-54.8015064151
 20
23.263598548
 30
0.0
 10
-54.7402737988
 20
23.2638464341
 30
0.0
 10
-54.6976950118
 20
23.2639475625
 30
0.0
 10
-54.675727804
 20
23.2639832799
 30
0.0
 11
-55.002401612
 21
23.2606125509
 31
0.0
 11
-55.0017369774
 21
23.2607617541
 31
0.0
 11
-55.0003416398
 21
23.2609106128
 31
0.0
 11
-54.9982179478
 21
23.2610588084
 31
0.0
 11
-54.9953700014
 21
23.261206062
 31
0.0
 11
-54.9918029197
 21
23.2613521165
 31
0.0
 11
-54.9875231537
 21
23.26149671
 31
0.0
 11
-54.9768585207
 21
23.2617804475
 31
0.0
 11
-54.9634541103
 21
23.2620551911
 31
0.0
 11
-54.9474079507
 21
23.262318934
 31
0.0
 11
-54.9288374834
 21
23.2625697441
 31
0.0
 11
-54.9078786254
 21
23.2628057856
 31
0.0
 11
-54.8846846791
 21
23.2630253316
 31
0.0
 11
-54.8594253069
 21
23.263226776
 31
0.0
 11
-54.8034637433
 21
23.2635696042
 31
0.0
 11
-54.7416293228
 21
23.2638242521
 31
0.0
 11
-54.675727804
 21
23.2639832799
 31
0.0
  0
SPLINE
  5
63B
100
AcDbEntity
  8
RACCORDO
100
AcDbSpline
 62
7
  6
CONTINUOUS
 70
0
 71
3
 72
22
 73
18
 74
16
 42
0.0000001
 43
0.0000001
 44
0.0000000001
 12
0.2871307566
 22
0.1435542147
 32
0.0
 13
0.3210164569
 23
0.0005642302
 33
0.0
 40
0.0
 40
0.0
 40
0.0
 40
0.0
 40
0.0020877009
 40
0.0063769007
 40
0.0128786836
 40
0.0215851166
 40
0.0324825848
 40
0.0455526618
 40
0.0781140036
 40
0.1190380862
 40
0.1680329057
 40
0.2247482624
 40
0.2887782972
 40
0.4369000148
 40
0.6081627862
 40
0.7976684961
 40
1.0
 40
1.0
 40
1.0
 40
1.0
 10
-54.9991022255
 20
0.3622621185
 30
0.0
 10
-54.9989024112
 20
0.3623620179
 30
0.0
 10
-54.9982047517
 20
0.3624334725
 30
0.0
 10
-54.9968502946
 20
0.3625954098
 30
0.0
 10
-54.994759714
 20
0.3627197776
 30
0.0
 10
-54.9919733816
 20
0.3628670878
 30
0.0
 10
-54.9884785652
 20
0.3630064627
 30
0.0
 10
-54.982433658
 20
0.3632107478
 30
0.0
 10
-54.973174324
 20
0.3634497018
 30
0.0
 10
-54.9600710828
 20
0.363715853
 30
0.0
 10
-54.9443823952
 20
0.3639724628
 30
0.0
 10
-54.9262208968
 20
0.3642180706
 30
0.0
 10
-54.8974524084
 20
0.3645432932
 30
0.0
 10
-54.8564263306
 20
0.3648950647
 30
0.0
 10
-54.8019731892
 20
0.3652289074
 30
0.0
 10
-54.7417188002
 20
0.3654802087
 30
0.0
 10
-54.6997901153
 20
0.3655851661
 30
0.0
 10
-54.6781395345
 20
0.3656232199
 30
0.0
 11
-54.9991022255
 21
0.3622621185
 31
0.0
 11
-54.9984484985
 21
0.3624097398
 31
0.0
 11
-54.9970794928
 21
0.3625570263
 31
0.0
 11
-54.9949974682
 21
0.3627036694
 31
0.0
 11
-54.9922063574
 21
0.3628493988
 31
0.0
 11
-54.9887110738
 21
0.3629939655
 31
0.0
 11
-54.9845178002
 21
0.3631371161
 31
0.0
 11
-54.9740688358
 21
0.3634181356
 31
0.0
 11
-54.9609343338
 21
0.3636904364
 31
0.0
 11
-54.9452083424
 21
0.3639520704
 31
0.0
 11
-54.9270034555
 21
0.3642011633
 31
0.0
 11
-54.9064500696
 21
0.3644359301
 31
0.0
 11
-54.8589023416
 21
0.3648558733
 31
0.0
 11
-54.8039251649
 21
0.3651998876
 31
0.0
 11
-54.7430911675
 21
0.3654581322
 31
0.0
 11
-54.6781395345
 21
0.3656232199
 31
0.0
  0
SPLINE
  5
63C
100
AcDbEntity
  8
RACCORDO
100
AcDbSpline
 62
7
  6
CONTINUOUS
 70
0
 71
3
 72
22
 73
18
 74
16
 42
0.0000001
 43
0.0000001
 44
0.0000000001
 12
-0.3210164568
 22
0.0005642302
 32
0.0
 13
-0.2871307747
 23
0.1435541785
 33
0.0
 40
0.0
 40
0.0
 40
0.0
 40
0.0
 40
0.2023315017
 40
0.3918372112
 40
0.5630999825
 40
0.7112217002
 40
0.7752517351
 40
0.8319670919
 40
0.8809619117
 40
0.9218859946
 40
0.9544473367
 40
0.967517414
 40
0.9784148824
 40
0.9871213156
 40
0.9936230988
 40
0.9979122988
 40
1.0
 40
1.0
 40
1.0
 40
1.0
 10
-54.6781395345
 20
-0.3656232199
 30
0.0
 10
-54.6997901151
 20
-0.3655851661
 30
0.0
 10
-54.7417187998
 20
-0.3654802087
 30
0.0
 10
-54.8019731884
 20
-0.3652289074
 30
0.0
 10
-54.8564263298
 20
-0.3648950647
 30
0.0
 10
-54.8974524075
 20
-0.3645432932
 30
0.0
 10
-54.926220896
 20
-0.3642180706
 30
0.0
 10
-54.9443823944
 20
-0.3639724627
 30
0.0
 10
-54.9600710822
 20
-0.363715853
 30
0.0
 10
-54.9731743234
 20
-0.3634497018
 30
0.0
 10
-54.9824336575
 20
-0.3632107478
 30
0.0
 10
-54.9884785648
 20
-0.3630064627
 30
0.0
 10
-54.9919733812
 20
-0.3628670878
 30
0.0
 10
-54.9947597138
 20
-0.3627197776
 30
0.0
 10
-54.9968502944
 20
-0.3625954097
 30
0.0
 10
-54.9982047516
 20
-0.3624334725
 30
0.0
 10
-54.9989024111
 20
-0.3623620179
 30
0.0
 10
-54.9991022255
 20
-0.3622621185
 30
0.0
 11
-54.6781395345
 21
-0.3656232199
 31
0.0
 11
-54.7430911668
 21
-0.3654581321
 31
0.0
 11
-54.8039251641
 21
-0.3651998876
 31
0.0
 11
-54.8589023407
 21
-0.3648558733
 31
0.0
 11
-54.9064500687
 21
-0.3644359301
 31
0.0
 11
-54.9270034547
 21
-0.3642011633
 31
0.0
 11
-54.9452083416
 21
-0.3639520704
 31
0.0
 11
-54.9609343331
 21
-0.3636904364
 31
0.0
 11
-54.9740688352
 21
-0.3634181356
 31
0.0
 11
-54.9845177997
 21
-0.3631371161
 31
0.0
 11
-54.9887110734
 21
-0.3629939655
 31
0.0
 11
-54.9922063571
 21
-0.3628493988
 31
0.0
 11
-54.9949974679
 21
-0.3627036694
 31
0.0
 11
-54.9970794927
 21
-0.3625570263
 31
0.0
 11
-54.9984484984
 21
-0.3624097398
 31
0.0
 11
-54.9991022255
 21
-0.3622621185
 31
0.0
  0
SPLINE
  5
63D
100
AcDbEntity
  8
RACCORDO
100
AcDbSpline
 62
7
  6
CONTINUOUS
 70
0
 71
3
 72
23
 73
19
 74
17
 42
0.0000001
 43
0.0000001
 44
0.0000000001
 12
-0.3267276239
 22
0.0005312399
 32
0.0
 13
-0.2922390473
 23
0.1461080479
 33
0.0
 40
0.0
 40
0.0
 40
0.0
 40
0.0
 40
0.2017020558
 40
0.3909571421
 40
0.5622390805
 40
0.6395516197
 40
0.7105433353
 40
0.7746951168
 40
0.8315379862
 40
0.880656284
 40
0.9216910966
 40
0.9543433436
 40
0.9674496775
 40
0.9783764086
 40
0.9871046141
 40
0.9936202935
 40
0.997915163
 40
1.0
 40
1.0
 40
1.0
 40
1.0
 10
-54.675727803
 20
-23.2639832799
 30
0.0
 10
-54.6976950141
 20
-23.2639475625
 30
0.0
 10
-54.7402738048
 20
-23.2638464345
 30
0.0
 10
-54.8015064253
 20
-23.2635985482
 30
0.0
 10
-54.8491915263
 20
-23.2633128631
 30
0.0
 10
-54.8839963711
 20
-23.2630372512
 30
0.0
 10
-54.9071338075
 20
-23.2628199315
 30
0.0
 10
-54.9280416382
 20
-23.262586745
 30
0.0
 10
-54.9465668757
 20
-23.2623394983
 30
0.0
 10
-54.9625741168
 20
-23.2620808401
 30
0.0
 10
-54.9759459335
 20
-23.26181232
 30
0.0
 10
-54.9853959689
 20
-23.2615711012
 30
0.0
 10
-54.9915655083
 20
-23.2613647357
 30
0.0
 10
-54.9951320755
 20
-23.2612239961
 30
0.0
 10
-54.9979750627
 20
-23.2610749947
 30
0.0
 10
-55.0001075264
 20
-23.2609497183
 30
0.0
 10
-55.0014877956
 20
-23.2607853835
 30
0.0
 10
-55.0021985217
 20
-23.2607140881
 30
0.0
 10
-55.002401612
 20
-23.2606125509
 30
0.0
 11
-54.675727803
 21
-23.2639832799
 31
0.0
 11
-54.7416293316
 21
-23.2638242523
 31
0.0
 11
-54.8034637537
 21
-23.2635696044
 31
0.0
 11
-54.8594253183
 21
-23.2632267761
 31
0.0
 11
-54.8846846906
 21
-23.2630253318
 31
0.0
 11
-54.9078786368
 21
-23.2628057858
 31
0.0
 11
-54.9288374945
 21
-23.2625697443
 31
0.0
 11
-54.9474079611
 21
-23.2623189341
 31
0.0
 11
-54.9634541197
 21
-23.2620551912
 31
0.0
 11
-54.9768585289
 21
-23.2617804475
 31
0.0
 11
-54.9875231602
 21
-23.26149671
 31
0.0
 11
-54.9918029254
 21
-23.2613521165
 31
0.0
 11
-54.9953700061
 21
-23.2612060621
 31
0.0
 11
-54.9982179514
 21
-23.2610588084
 31
0.0
 11
-55.0003416422
 21
-23.2609106128
 31
0.0
 11
-55.0017369787
 21
-23.2607617541
 31
0.0
 11
-55.002401612
 21
-23.2606125509
 31
0.0
  0
SPLINE
  5
63E
100
AcDbEntity
  8
RACCORDO
100
AcDbSpline
 62
7
  6
CONTINUOUS
 70
0
 71
3
 72
23
 73
19
 74
17
 42
0.0000001
 43
0.0000001
 44
0.0000000001
 12
0.2919183875
 22
0.1459472988
 32
0.0
 13
0.3263689237
 23
0.0005334985
 33
0.0
 40
0.0
 40
0.0
 40
0.0
 40
0.0
 40
0.0020848996
 40
0.0063787704
 40
0.0128924293
 40
0.021617646
 40
0.0325404807
 40
0.0456420906
 40
0.0782827817
 40
0.1193039834
 40
0.168407665
 40
0.2252360851
 40
0.2893748263
 40
0.3603561725
 40
0.4376622445
 40
0.6089474811
 40
0.7982337218
 40
1.0
 40
1.0
 40
1.0
 40
1.0
 10
-55.0022072492
 20
-22.5392902751
 30
0.0
 10
-55.0020043757
 20
-22.5391888466
 30
0.0
 10
-55.0012945676
 20
-22.5391174968
 30
0.0
 10
-54.9999161224
 20
-22.5389533128
 30
0.0
 10
-54.9977866723
 20
-22.5388280595
 30
0.0
 10
-54.9949477755
 20
-22.5386791466
 30
0.0
 10
-54.9913863933
 20
-22.5385384675
 30
0.0
 10
-54.9852258268
 20
-22.5383321979
 30
0.0
 10
-54.9757894235
 20
-22.5380910751
 30
0.0
 10
-54.9624366196
 20
-22.5378226486
 30
0.0
 10
-54.9464515989
 20
-22.5375640585
 30
0.0
 10
-54.9279512833
 20
-22.5373168527
 30
0.0
 10
-54.9070705277
 20
-22.5370836767
 30
0.0
 10
-54.8839617455
 20
-22.536866335
 30
0.0
 10
-54.8491965869
 20
-22.5365906368
 30
0.0
 10
-54.801560795
 20
-22.5363047617
 30
0.0
 10
-54.7403846658
 20
-22.5360565402
 30
0.0
 10
-54.6978422448
 20
-22.5359551283
 30
0.0
 10
-54.6758921638
 20
-22.5359192476
 30
0.0
 11
-55.0022072492
 21
-22.5392902751
 31
0.0
 11
-55.001543344
 21
-22.5391411494
 31
0.0
 11
-55.0001498764
 21
-22.5389923675
 31
0.0
 11
-54.9980291842
 21
-22.538844247
 31
0.0
 11
-54.9951853469
 21
-22.5386970662
 31
0.0
 11
-54.9916234586
 21
-22.5385510816
 31
0.0
 11
-54.9873499378
 21
-22.5384065543
 31
0.0
 11
-54.9767007925
 21
-22.5381229361
 31
0.0
 11
-54.9633155465
 21
-22.5378482901
 31
0.0
 11
-54.9472917786
 21
-22.5375846195
 31
0.0
 11
-54.9287464189
 21
-22.5373338528
 31
0.0
 11
-54.9078148297
 21
-22.5370978236
 31
0.0
 11
-54.8846497337
 21
-22.536878257
 31
0.0
 11
-54.8594202051
 21
-22.5366767582
 31
0.0
 11
-54.8035190046
 21
-22.5363337195
 31
0.0
 11
-54.7417423017
 21
-22.5360787316
 31
0.0
 11
-54.6758921638
 21
-22.5359192476
 31
0.0
  0
SPLINE
  5
63F
100
AcDbEntity
  8
RACCORDO
100
AcDbSpline
 62
7
  6
CONTINUOUS
 70
0
 71
3
 72
22
 73
18
 74
16
 42
0.0000001
 43
0.0000001
 44
0.0000000001
 12
-0.0006123045
 22
-0.3123223373
 32
0.0
 13
-0.1396658622
 23
-0.2793547283
 33
0.0
 40
0.0
 40
0.0
 40
0.0
 40
0.0
 40
0.2032776405
 40
0.3931585556
 40
0.5643913291
 40
0.7122376678
 40
0.7760843223
 40
0.832608137
 40
0.8814178184
 40
0.9221757574
 40
0.9546008074
 40
0.9676167998
 40
0.9784707306
 40
0.987144888
 40
0.9936262615
 40
0.9979074407
 40
1.0
 40
1.0
 40
1.0
 40
1.0
 10
33.2739875636
 20
-32.0700715623
 30
0.0
 10
33.2739460743
 20
-32.0912342782
 30
0.0
 10
33.2738355749
 20
-32.1321649602
 30
0.0
 10
33.2735790873
 20
-32.1909218849
 30
0.0
 10
33.2732435536
 20
-32.2439074898
 30
0.0
 10
33.2728929936
 20
-32.2837715132
 30
0.0
 10
33.2725703997
 20
-32.3116930963
 30
0.0
 10
33.2723273987
 20
-32.3293043651
 30
0.0
 10
33.2720739438
 20
-32.3445115774
 30
0.0
 10
33.27181144
 20
-32.3572091073
 30
0.0
 10
33.2715759598
 20
-32.3661804609
 30
0.0
 10
33.271374859
 20
-32.372037222
 30
0.0
 10
33.2712375746
 20
-32.3754237624
 30
0.0
 10
33.2710928392
 20
-32.3781245943
 30
0.0
 10
33.2709698814
 20
-32.3801519564
 30
0.0
 10
33.2708115674
 20
-32.3814674235
 30
0.0
 10
33.2707399149
 20
-32.3821453401
 30
0.0
 10
33.2706424952
 20
-32.3823401955
 30
0.0
 11
33.2739875636
 21
-32.0700715623
 31
0.0
 11
33.2738135856
 21
-32.1335595937
 31
0.0
 11
33.2735501644
 21
-32.1928631738
 31
0.0
 11
33.2732045911
 21
-32.2463419801
 31
0.0
 11
33.2727864327
 21
-32.2925158895
 31
0.0
 11
33.272553681
 21
-32.3124553058
 31
0.0
 11
33.2723072627
 21
-32.3301072697
 31
0.0
 11
33.2720488859
 21
-32.345349463
 31
0.0
 11
33.2717803431
 21
-32.3580762694
 31
0.0
 11
33.271503492
 21
-32.3681995713
 31
0.0
 11
33.2713625496
 21
-32.3722623203
 31
0.0
 11
33.2712202575
 21
-32.3756492642
 31
0.0
 11
33.2710768573
 21
-32.3783546046
 31
0.0
 11
33.2709325859
 21
-32.3803737385
 31
0.0
 11
33.2707877007
 21
-32.3817029761
 31
0.0
 11
33.2706424952
 21
-32.3823401955
 31
0.0
  0
SPLINE
  5
640
100
AcDbEntity
  8
RACCORDO
100
AcDbSpline
 62
7
  6
CONTINUOUS
 70
0
 71
3
 72
22
 73
18
 74
16
 42
0.0000001
 43
0.0000001
 44
0.0000000001
 12
-0.1395714526
 22
0.2791663972
 32
0.0
 13
-0.0006136664
 23
0.3121116645
 33
0.0
 40
0.0
 40
0.0
 40
0.0
 40
0.0
 40
0.0020925599
 40
0.0063727626
 40
0.0128522189
 40
0.0215235708
 40
0.0323738663
 40
0.0453854727
 40
0.0777998621
 40
0.118545354
 40
0.1673418086
 40
0.2238527253
 40
0.2876879638
 40
0.4355204113
 40
0.6067577592
 40
0.7966673064
 40
1.0
 40
1.0
 40
1.0
 40
1.0
 10
32.5292251989
 20
-32.3820755635
 30
0.0
 10
32.529127845
 20
-32.3818808394
 30
0.0
 10
32.5290561337
 20
-32.3812035119
 30
0.0
 10
32.5288979044
 20
-32.3798892223
 30
0.0
 10
32.5287749382
 20
-32.3778638364
 30
0.0
 10
32.5286302415
 20
-32.3751656962
 30
0.0
 10
32.5284929752
 20
-32.3717825719
 30
0.0
 10
32.5282919068
 20
-32.3659317089
 30
0.0
 10
32.5280564515
 20
-32.3569692719
 30
0.0
 10
32.5277939656
 20
-32.3442840909
 30
0.0
 10
32.5275405114
 20
-32.3290911526
 30
0.0
 10
32.5272974931
 20
-32.3114956715
 30
0.0
 10
32.5269748378
 20
-32.2835969004
 30
0.0
 10
32.526624153
 20
-32.2437619265
 30
0.0
 10
32.5262884149
 20
-32.1908100548
 30
0.0
 10
32.5260316652
 20
-32.1320835826
 30
0.0
 10
32.5259209749
 20
-32.0911718036
 30
0.0
 10
32.525879382
 20
-32.0700176352
 30
0.0
 11
32.5292251989
 21
-32.3820755635
 31
0.0
 11
32.5290800233
 21
-32.3814387893
 31
0.0
 11
32.5289351676
 21
-32.3801107623
 31
0.0
 11
32.5287909245
 21
-32.3780935952
 31
0.0
 11
32.5286475509
 21
-32.3753909601
 31
0.0
 11
32.5285052834
 21
-32.3720074394
 31
0.0
 11
32.528364363
 21
-32.3679488032
 31
0.0
 11
32.5280875467
 21
-32.3578356624
 31
0.0
 11
32.527819024
 21
-32.3451213298
 31
0.0
 11
32.5275606503
 21
-32.3298935494
 31
0.0
 11
32.527314216
 21
-32.3122575207
 31
0.0
 11
32.5270814285
 21
-32.2923351197
 31
0.0
 11
32.5266631383
 21
-32.2461966953
 31
0.0
 11
32.5263173587
 21
-32.1927525369
 31
0.0
 11
32.5260536703
 21
-32.133480024
 31
0.0
 11
32.525879382
 21
-32.0700176352
 31
0.0
  0
SPLINE
  5
641
100
AcDbEntity
  8
RACCORDO
100
AcDbSpline
 62
7
  6
CONTINUOUS
 70
0
 71
3
 72
23
 73
19
 74
17
 42
0.0000001
 43
0.0000001
 44
0.0000000001
 12
0.326368925
 22
-0.0005334986
 32
0.0
 13
0.2919180889
 23
-0.145947899
 33
0.0
 40
0.0
 40
0.0
 40
0.0
 40
0.0
 40
0.2017663127
 40
0.391052558
 40
0.5623377976
 40
0.63964387
 40
0.7106252155
 40
0.7747639551
 40
0.8315923726
 40
0.8806960505
 40
0.9217172475
 40
0.9543579328
 40
0.9674595394
 40
0.9783823706
 40
0.9871075835
 40
0.9936212383
 40
0.9979151049
 40
1.0
 40
1.0
 40
1.0
 40
1.0
 10
54.6758921625
 20
-22.5359192476
 30
0.0
 10
54.6978422473
 20
-22.5359551283
 30
0.0
 10
54.7403846728
 20
-22.5360565397
 30
0.0
 10
54.8015608068
 20
-22.5363047615
 30
0.0
 10
54.8491965998
 20
-22.5365906366
 30
0.0
 10
54.8839617588
 20
-22.5368663348
 30
0.0
 10
54.9070705409
 20
-22.5370836765
 30
0.0
 10
54.927951296
 20
-22.5373168526
 30
0.0
 10
54.9464516109
 20
-22.5375640584
 30
0.0
 10
54.9624366305
 20
-22.5378226485
 30
0.0
 10
54.9757894329
 20
-22.538091075
 30
0.0
 10
54.9852258347
 20
-22.5383321979
 30
0.0
 10
54.9913863998
 20
-22.5385384674
 30
0.0
 10
54.9949477809
 20
-22.5386791466
 30
0.0
 10
54.9977866764
 20
-22.5388280595
 30
0.0
 10
54.9999161253
 20
-22.5389533127
 30
0.0
 10
55.0012945689
 20
-22.5391174969
 30
0.0
 10
55.0020043763
 20
-22.5391888464
 30
0.0
 10
55.0022072492
 20
-22.5392902751
 30
0.0
 11
54.6758921625
 21
-22.5359192476
 31
0.0
 11
54.7417423119
 21
-22.5360787313
 31
0.0
 11
54.8035190166
 21
-22.5363337192
 31
0.0
 11
54.8594202183
 21
-22.536676758
 31
0.0
 11
54.8846497471
 21
-22.5368782568
 31
0.0
 11
54.907814843
 21
-22.5370978235
 31
0.0
 11
54.9287464317
 21
-22.5373338527
 31
0.0
 11
54.9472917907
 21
-22.5375846194
 31
0.0
 11
54.9633155575
 21
-22.53784829
 31
0.0
 11
54.976700802
 21
-22.538122936
 31
0.0
 11
54.9873499454
 21
-22.5384065543
 31
0.0
 11
54.9916234652
 21
-22.5385510816
 31
0.0
 11
54.9951853523
 21
-22.5386970661
 31
0.0
 11
54.9980291884
 21
-22.5388442469
 31
0.0
 11
55.0001498793
 21
-22.5389923675
 31
0.0
 11
55.0015433455
 21
-22.5391411494
 31
0.0
 11
55.0022072492
 21
-22.5392902751
 31
0.0
  0
SPLINE
  5
642
100
AcDbEntity
  8
RACCORDO
100
AcDbSpline
 62
7
  6
CONTINUOUS
 70
0
 71
3
 72
23
 73
19
 74
17
 42
0.0000001
 43
0.0000001
 44
0.0000000001
 12
-0.2922392998
 22
-0.1461075405
 32
0.0
 13
-0.3267276229
 23
-0.0005312399
 33
0.0
 40
0.0
 40
0.0
 40
0.0
 40
0.0
 40
0.0020848407
 40
0.0063797138
 40
0.0128953967
 40
0.0216236054
 40
0.0325503395
 40
0.0456566762
 40
0.078308928
 40
0.1193437446
 40
0.1684620455
 40
0.2253049171
 40
0.2894566999
 40
0.3604484161
 40
0.437760955
 40
0.6090428908
 40
0.7982979731
 40
1.0
 40
1.0
 40
1.0
 40
1.0
 10
55.002401612
 20
-23.2606125509
 30
0.0
 10
55.0021985212
 20
-23.2607140879
 30
0.0
 10
55.0014877945
 20
-23.2607853835
 30
0.0
 10
55.0001075239
 20
-23.2609497182
 30
0.0
 10
54.9979750592
 20
-23.2610749947
 30
0.0
 10
54.9951320709
 20
-23.2612239961
 30
0.0
 10
54.9915655028
 20
-23.2613647356
 30
0.0
 10
54.9853959623
 20
-23.2615711011
 30
0.0
 10
54.9759459256
 20
-23.2618123199
 30
0.0
 10
54.9625741076
 20
-23.26208084
 30
0.0
 10
54.9465668656
 20
-23.2623394982
 30
0.0
 10
54.9280416274
 20
-23.2625867449
 30
0.0
 10
54.9071337963
 20
-23.2628199313
 30
0.0
 10
54.8839963598
 20
-23.2630372511
 30
0.0
 10
54.8491915154
 20
-23.263312863
 30
0.0
 10
54.8015064153
 20
-23.263598548
 30
0.0
 10
54.7402737989
 20
-23.2638464341
 30
0.0
 10
54.6976950119
 20
-23.2639475625
 30
0.0
 10
54.6757278039
 20
-23.2639832799
 30
0.0
 11
55.002401612
 21
-23.2606125509
 31
0.0
 11
55.0017369774
 21
-23.2607617541
 31
0.0
 11
55.0003416398
 21
-23.2609106128
 31
0.0
 11
54.9982179478
 21
-23.2610588084
 31
0.0
 11
54.9953700015
 21
-23.261206062
 31
0.0
 11
54.9918029198
 21
-23.2613521165
 31
0.0
 11
54.9875231538
 21
-23.26149671
 31
0.0
 11
54.9768585209
 21
-23.2617804475
 31
0.0
 11
54.9634541104
 21
-23.2620551911
 31
0.0
 11
54.9474079509
 21
-23.262318934
 31
0.0
 11
54.9288374836
 21
-23.2625697441
 31
0.0
 11
54.9078786256
 21
-23.2628057856
 31
0.0
 11
54.8846846793
 21
-23.2630253316
 31
0.0
 11
54.8594253071
 21
-23.263226776
 31
0.0
 11
54.8034637435
 21
-23.2635696042
 31
0.0
 11
54.7416293229
 21
-23.2638242521
 31
0.0
 11
54.6757278039
 21
-23.2639832799
 31
0.0
  0
SPLINE
  5
643
100
AcDbEntity
  8
RACCORDO
100
AcDbSpline
 62
7
  6
CONTINUOUS
 70
0
 71
3
 72
22
 73
18
 74
16
 42
0.0000001
 43
0.0000001
 44
0.0000000001
 12
-0.2871307566
 22
-0.1435542147
 32
0.0
 13
-0.3210164569
 23
-0.0005642302
 33
0.0
 40
0.0
 40
0.0
 40
0.0
 40
0.0
 40
0.0020877009
 40
0.0063769007
 40
0.0128786836
 40
0.0215851166
 40
0.0324825848
 40
0.0455526618
 40
0.0781140036
 40
0.1190380862
 40
0.1680329057
 40
0.2247482624
 40
0.2887782972
 40
0.4369000148
 40
0.6081627862
 40
0.7976684961
 40
1.0
 40
1.0
 40
1.0
 40
1.0
 10
54.9991022255
 20
-0.3622621185
 30
0.0
 10
54.9989024112
 20
-0.3623620179
 30
0.0
 10
54.9982047517
 20
-0.3624334725
 30
0.0
 10
54.9968502946
 20
-0.3625954098
 30
0.0
 10
54.994759714
 20
-0.3627197776
 30
0.0
 10
54.9919733816
 20
-0.3628670878
 30
0.0
 10
54.9884785652
 20
-0.3630064627
 30
0.0
 10
54.982433658
 20
-0.3632107478
 30
0.0
 10
54.973174324
 20
-0.3634497018
 30
0.0
 10
54.9600710828
 20
-0.363715853
 30
0.0
 10
54.9443823952
 20
-0.3639724628
 30
0.0
 10
54.9262208968
 20
-0.3642180706
 30
0.0
 10
54.8974524084
 20
-0.3645432932
 30
0.0
 10
54.8564263306
 20
-0.3648950647
 30
0.0
 10
54.8019731892
 20
-0.3652289074
 30
0.0
 10
54.7417188002
 20
-0.3654802087
 30
0.0
 10
54.6997901153
 20
-0.3655851661
 30
0.0
 10
54.6781395345
 20
-0.3656232199
 30
0.0
 11
54.9991022255
 21
-0.3622621185
 31
0.0
 11
54.9984484985
 21
-0.3624097398
 31
0.0
 11
54.9970794928
 21
-0.3625570263
 31
0.0
 11
54.9949974682
 21
-0.3627036694
 31
0.0
 11
54.9922063574
 21
-0.3628493988
 31
0.0
 11
54.9887110738
 21
-0.3629939655
 31
0.0
 11
54.9845178002
 21
-0.3631371161
 31
0.0
 11
54.9740688358
 21
-0.3634181356
 31
0.0
 11
54.9609343338
 21
-0.3636904364
 31
0.0
 11
54.9452083424
 21
-0.3639520704
 31
0.0
 11
54.9270034555
 21
-0.3642011633
 31
0.0
 11
54.9064500696
 21
-0.3644359301
 31
0.0
 11
54.8589023416
 21
-0.3648558733
 31
0.0
 11
54.8039251649
 21
-0.3651998876
 31
0.0
 11
54.7430911675
 21
-0.3654581322
 31
0.0
 11
54.6781395345
 21
-0.3656232199
 31
0.0
  0
SPLINE
  5
644
100
AcDbEntity
  8
RACCORDO
100
AcDbSpline
 62
7
  6
CONTINUOUS
 70
0
 71
3
 72
22
 73
18
 74
16
 42
0.0000001
 43
0.0000001
 44
0.0000000001
 12
0.3210164568
 22
-0.0005642302
 32
0.0
 13
0.2871307747
 23
-0.1435541784
 33
0.0
 40
0.0
 40
0.0
 40
0.0
 40
0.0
 40
0.2023315016
 40
0.3918372112
 40
0.5630999825
 40
0.7112217002
 40
0.7752517351
 40
0.8319670919
 40
0.8809619117
 40
0.9218859946
 40
0.9544473367
 40
0.967517414
 40
0.9784148824
 40
0.9871213156
 40
0.9936230988
 40
0.9979122988
 40
1.0
 40
1.0
 40
1.0
 40
1.0
 10
54.6781395345
 20
0.3656232199
 30
0.0
 10
54.6997901151
 20
0.3655851661
 30
0.0
 10
54.7417187998
 20
0.3654802087
 30
0.0
 10
54.8019731884
 20
0.3652289074
 30
0.0
 10
54.8564263298
 20
0.3648950647
 30
0.0
 10
54.8974524075
 20
0.3645432932
 30
0.0
 10
54.926220896
 20
0.3642180706
 30
0.0
 10
54.9443823944
 20
0.3639724627
 30
0.0
 10
54.9600710822
 20
0.363715853
 30
0.0
 10
54.9731743234
 20
0.3634497018
 30
0.0
 10
54.9824336575
 20
0.3632107478
 30
0.0
 10
54.9884785648
 20
0.3630064627
 30
0.0
 10
54.9919733812
 20
0.3628670878
 30
0.0
 10
54.9947597138
 20
0.3627197776
 30
0.0
 10
54.9968502944
 20
0.3625954097
 30
0.0
 10
54.9982047516
 20
0.3624334725
 30
0.0
 10
54.9989024111
 20
0.3623620179
 30
0.0
 10
54.9991022255
 20
0.3622621185
 30
0.0
 11
54.6781395345
 21
0.3656232199
 31
0.0
 11
54.7430911668
 21
0.3654581321
 31
0.0
 11
54.8039251641
 21
0.3651998876
 31
0.0
 11
54.8589023407
 21
0.3648558733
 31
0.0
 11
54.9064500687
 21
0.3644359301
 31
0.0
 11
54.9270034547
 21
0.3642011633
 31
0.0
 11
54.9452083416
 21
0.3639520704
 31
0.0
 11
54.9609343331
 21
0.3636904364
 31
0.0
 11
54.9740688352
 21
0.3634181356
 31
0.0
 11
54.9845177997
 21
0.3631371161
 31
0.0
 11
54.9887110734
 21
0.3629939655
 31
0.0
 11
54.9922063571
 21
0.3628493988
 31
0.0
 11
54.9949974679
 21
0.3627036694
 31
0.0
 11
54.9970794927
 21
0.3625570263
 31
0.0
 11
54.9984484984
 21
0.3624097398
 31
0.0
 11
54.9991022255
 21
0.3622621185
 31
0.0
  0
SPLINE
  5
645
100
AcDbEntity
  8
RACCORDO
100
AcDbSpline
 62
7
  6
CONTINUOUS
 70
0
 71
3
 72
23
 73
19
 74
17
 42
0.0000001
 43
0.0000001
 44
0.0000000001
 12
0.3267276239
 22
-0.0005312399
 32
0.0
 13
0.2922390486
 23
-0.1461080452
 33
0.0
 40
0.0
 40
0.0
 40
0.0
 40
0.0
 40
0.2017020557
 40
0.3909571419
 40
0.5622390803
 40
0.6395516195
 40
0.7105433351
 40
0.7746951166
 40
0.831537986
 40
0.8806562838
 40
0.9216910965
 40
0.9543433435
 40
0.9674496774
 40
0.9783764085
 40
0.987104614
 40
0.9936202935
 40
0.997915163
 40
1.0
 40
1.0
 40
1.0
 40
1.0
 10
54.675727803
 20
23.2639832799
 30
0.0
 10
54.6976950141
 20
23.2639475625
 30
0.0
 10
54.7402738048
 20
23.2638464345
 30
0.0
 10
54.8015064253
 20
23.2635985482
 30
0.0
 10
54.8491915263
 20
23.2633128631
 30
0.0
 10
54.883996371
 20
23.2630372512
 30
0.0
 10
54.9071338074
 20
23.2628199315
 30
0.0
 10
54.9280416382
 20
23.262586745
 30
0.0
 10
54.9465668757
 20
23.2623394983
 30
0.0
 10
54.9625741167
 20
23.2620808401
 30
0.0
 10
54.9759459334
 20
23.26181232
 30
0.0
 10
54.9853959689
 20
23.2615711012
 30
0.0
 10
54.9915655083
 20
23.2613647357
 30
0.0
 10
54.9951320755
 20
23.2612239961
 30
0.0
 10
54.9979750627
 20
23.2610749947
 30
0.0
 10
55.0001075264
 20
23.2609497183
 30
0.0
 10
55.0014877956
 20
23.2607853835
 30
0.0
 10
55.0021985217
 20
23.2607140881
 30
0.0
 10
55.002401612
 20
23.2606125509
 30
0.0
 11
54.675727803
 21
23.2639832799
 31
0.0
 11
54.7416293316
 21
23.2638242523
 31
0.0
 11
54.8034637536
 21
23.2635696044
 31
0.0
 11
54.8594253182
 21
23.2632267761
 31
0.0
 11
54.8846846906
 21
23.2630253318
 31
0.0
 11
54.9078786368
 21
23.2628057858
 31
0.0
 11
54.9288374945
 21
23.2625697443
 31
0.0
 11
54.9474079611
 21
23.2623189341
 31
0.0
 11
54.9634541196
 21
23.2620551912
 31
0.0
 11
54.9768585288
 21
23.2617804475
 31
0.0
 11
54.9875231602
 21
23.26149671
 31
0.0
 11
54.9918029253
 21
23.2613521165
 31
0.0
 11
54.9953700061
 21
23.2612060621
 31
0.0
 11
54.9982179514
 21
23.2610588084
 31
0.0
 11
55.0003416422
 21
23.2609106128
 31
0.0
 11
55.0017369787
 21
23.2607617541
 31
0.0
 11
55.002401612
 21
23.2606125509
 31
0.0
  0
SPLINE
  5
646
100
AcDbEntity
  8
RACCORDO
100
AcDbSpline
 62
7
  6
CONTINUOUS
 70
0
 71
3
 72
23
 73
19
 74
17
 42
0.0000001
 43
0.0000001
 44
0.0000000001
 12
-0.2919183873
 22
-0.1459472992
 32
0.0
 13
-0.3263689237
 23
-0.0005334985
 33
0.0
 40
0.0
 40
0.0
 40
0.0
 40
0.0
 40
0.0020848996
 40
0.0063787704
 40
0.0128924293
 40
0.021617646
 40
0.0325404807
 40
0.0456420905
 40
0.0782827817
 40
0.1193039834
 40
0.168407665
 40
0.2252360851
 40
0.2893748263
 40
0.3603561724
 40
0.4376622445
 40
0.6089474811
 40
0.7982337218
 40
1.0
 40
1.0
 40
1.0
 40
1.0
 10
55.0022072492
 20
22.5392902751
 30
0.0
 10
55.0020043757
 20
22.5391888466
 30
0.0
 10
55.0012945676
 20
22.5391174968
 30
0.0
 10
54.9999161224
 20
22.5389533128
 30
0.0
 10
54.9977866723
 20
22.5388280595
 30
0.0
 10
54.9949477755
 20
22.5386791466
 30
0.0
 10
54.9913863933
 20
22.5385384675
 30
0.0
 10
54.9852258268
 20
22.5383321979
 30
0.0
 10
54.9757894235
 20
22.5380910751
 30
0.0
 10
54.9624366196
 20
22.5378226486
 30
0.0
 10
54.9464515989
 20
22.5375640585
 30
0.0
 10
54.9279512833
 20
22.5373168527
 30
0.0
 10
54.9070705277
 20
22.5370836767
 30
0.0
 10
54.8839617455
 20
22.536866335
 30
0.0
 10
54.8491965869
 20
22.5365906368
 30
0.0
 10
54.801560795
 20
22.5363047617
 30
0.0
 10
54.7403846659
 20
22.5360565402
 30
0.0
 10
54.6978422448
 20
22.5359551283
 30
0.0
 10
54.6758921638
 20
22.5359192476
 30
0.0
 11
55.0022072492
 21
22.5392902751
 31
0.0
 11
55.001543344
 21
22.5391411494
 31
0.0
 11
55.0001498764
 21
22.5389923675
 31
0.0
 11
54.9980291842
 21
22.538844247
 31
0.0
 11
54.9951853469
 21
22.5386970662
 31
0.0
 11
54.9916234587
 21
22.5385510816
 31
0.0
 11
54.9873499378
 21
22.5384065543
 31
0.0
 11
54.9767007925
 21
22.5381229361
 31
0.0
 11
54.9633155465
 21
22.5378482901
 31
0.0
 11
54.9472917786
 21
22.5375846195
 31
0.0
 11
54.9287464189
 21
22.5373338528
 31
0.0
 11
54.9078148297
 21
22.5370978236
 31
0.0
 11
54.8846497337
 21
22.536878257
 31
0.0
 11
54.8594202051
 21
22.5366767582
 31
0.0
 11
54.8035190046
 21
22.5363337195
 31
0.0
 11
54.7417423017
 21
22.5360787316
 31
0.0
 11
54.6758921638
 21
22.5359192476
 31
0.0
  0
SPLINE
  5
647
100
AcDbEntity
  8
RACCORDO
100
AcDbSpline
 62
7
  6
CONTINUOUS
 70
0
 71
3
 72
22
 73
18
 74
16
 42
0.0000001
 43
0.0000001
 44
0.0000000001
 12
0.0006123045
 22
0.3123223373
 32
0.0
 13
0.1396658592
 23
0.2793547298
 33
0.0
 40
0.0
 40
0.0
 40
0.0
 40
0.0
 40
0.2032776403
 40
0.3931585554
 40
0.5643913289
 40
0.7122376676
 40
0.7760843221
 40
0.8326081368
 40
0.8814178182
 40
0.9221757572
 40
0.9546008073
 40
0.9676167997
 40
0.9784707305
 40
0.9871448879
 40
0.9936262614
 40
0.9979074406
 40
1.0
 40
1.0
 40
1.0
 40
1.0
 10
-33.2739875636
 20
32.0700715623
 30
0.0
 10
-33.2739460743
 20
32.0912342782
 30
0.0
 10
-33.2738355749
 20
32.1321649602
 30
0.0
 10
-33.2735790873
 20
32.1909218848
 30
0.0
 10
-33.2732435536
 20
32.2439074898
 30
0.0
 10
-33.2728929936
 20
32.2837715131
 30
0.0
 10
-33.2725703997
 20
32.3116930963
 30
0.0
 10
-33.2723273987
 20
32.3293043651
 30
0.0
 10
-33.2720739438
 20
32.3445115774
 30
0.0
 10
-33.27181144
 20
32.3572091072
 30
0.0
 10
-33.2715759598
 20
32.3661804608
 30
0.0
 10
-33.271374859
 20
32.372037222
 30
0.0
 10
-33.2712375746
 20
32.3754237623
 30
0.0
 10
-33.2710928392
 20
32.3781245942
 30
0.0
 10
-33.2709698814
 20
32.3801519564
 30
0.0
 10
-33.2708115674
 20
32.3814674235
 30
0.0
 10
-33.2707399149
 20
32.3821453401
 30
0.0
 10
-33.2706424952
 20
32.3823401955
 30
0.0
 11
-33.2739875636
 21
32.0700715623
 31
0.0
 11
-33.2738135856
 21
32.1335595936
 31
0.0
 11
-33.2735501644
 21
32.1928631738
 31
0.0
 11
-33.2732045911
 21
32.2463419801
 31
0.0
 11
-33.2727864327
 21
32.2925158894
 31
0.0
 11
-33.272553681
 21
32.3124553057
 31
0.0
 11
-33.2723072627
 21
32.3301072697
 31
0.0
 11
-33.2720488859
 21
32.345349463
 31
0.0
 11
-33.2717803431
 21
32.3580762693
 31
0.0
 11
-33.271503492
 21
32.3681995713
 31
0.0
 11
-33.2713625496
 21
32.3722623203
 31
0.0
 11
-33.2712202575
 21
32.3756492641
 31
0.0
 11
-33.2710768573
 21
32.3783546046
 31
0.0
 11
-33.2709325859
 21
32.3803737385
 31
0.0
 11
-33.2707877007
 21
32.3817029761
 31
0.0
 11
-33.2706424952
 21
32.3823401955
 31
0.0
  0
SPLINE
  5
648
100
AcDbEntity
  8
RACCORDO
100
AcDbSpline
 62
7
  6
CONTINUOUS
 70
0
 71
3
 72
22
 73
18
 74
16
 42
0.0000001
 43
0.0000001
 44
0.0000000001
 12
0.1395714534
 22
-0.2791663968
 32
0.0
 13
0.0006136664
 23
-0.3121116645
 33
0.0
 40
0.0
 40
0.0
 40
0.0
 40
0.0
 40
0.0020925599
 40
0.0063727626
 40
0.0128522189
 40
0.0215235708
 40
0.0323738663
 40
0.0453854727
 40
0.0777998621
 40
0.1185453539
 40
0.1673418086
 40
0.2238527252
 40
0.2876879637
 40
0.4355204113
 40
0.6067577591
 40
0.7966673063
 40
1.0
 40
1.0
 40
1.0
 40
1.0
 10
-32.5292251989
 20
32.3820755635
 30
0.0
 10
-32.529127845
 20
32.3818808394
 30
0.0
 10
-32.5290561337
 20
32.3812035119
 30
0.0
 10
-32.5288979044
 20
32.3798892223
 30
0.0
 10
-32.5287749382
 20
32.3778638364
 30
0.0
 10
-32.5286302415
 20
32.3751656962
 30
0.0
 10
-32.5284929752
 20
32.371782572
 30
0.0
 10
-32.5282919068
 20
32.3659317089
 30
0.0
 10
-32.5280564515
 20
32.3569692719
 30
0.0
 10
-32.5277939656
 20
32.3442840909
 30
0.0
 10
-32.5275405114
 20
32.3290911526
 30
0.0
 10
-32.5272974931
 20
32.3114956715
 30
0.0
 10
-32.5269748378
 20
32.2835969004
 30
0.0
 10
-32.526624153
 20
32.2437619265
 30
0.0
 10
-32.5262884149
 20
32.1908100548
 30
0.0
 10
-32.5260316652
 20
32.1320835826
 30
0.0
 10
-32.5259209749
 20
32.0911718037
 30
0.0
 10
-32.525879382
 20
32.0700176352
 30
0.0
 11
-32.5292251989
 21
32.3820755635
 31
0.0
 11
-32.5290800233
 21
32.3814387893
 31
0.0
 11
-32.5289351676
 21
32.3801107623
 31
0.0
 11
-32.5287909245
 21
32.3780935952
 31
0.0
 11
-32.5286475509
 21
32.3753909602
 31
0.0
 11
-32.5285052834
 21
32.3720074395
 31
0.0
 11
-32.528364363
 21
32.3679488032
 31
0.0
 11
-32.5280875467
 21
32.3578356624
 31
0.0
 11
-32.527819024
 21
32.3451213298
 31
0.0
 11
-32.5275606503
 21
32.3298935495
 31
0.0
 11
-32.527314216
 21
32.3122575208
 31
0.0
 11
-32.5270814285
 21
32.2923351197
 31
0.0
 11
-32.5266631383
 21
32.2461966953
 31
0.0
 11
-32.5263173587
 21
32.1927525369
 31
0.0
 11
-32.5260536703
 21
32.133480024
 31
0.0
 11
-32.525879382
 21
32.0700176352
 31
0.0
  0
SPLINE
  5
649
100
AcDbEntity
  8
RACCORDO
100
AcDbSpline
 62
7
  6
CONTINUOUS
 70
0
 71
3
 72
18
 73
14
 74
12
 42
0.0000001
 43
0.0000001
 44
0.0000000001
 12
-0.1528568135
 22
0.2577060488
 32
0.0
 13
0.001615152
 23
0.2996247726
 33
0.0
 40
0.0
 40
0.0
 40
0.0
 40
0.0
 40
0.0132310924
 40
0.0345400863
 40
0.0639568249
 40
0.1013059631
 40
0.1463051331
 40
0.1985909539
 40
0.3232222009
 40
0.4710081726
 40
0.6369221197
 40
0.8152907437
 40
1.0
 40
1.0
 40
1.0
 40
1.0
 10
58.2969627901
 20
-3.5239590572
 30
0.0
 10
58.2962886359
 20
-3.5228224797
 30
0.0
 10
58.2952501179
 20
-3.519479632
 30
0.0
 10
58.293937584
 20
-3.5132493248
 30
0.0
 10
58.2926696975
 20
-3.5045296122
 30
0.0
 10
58.2914320764
 20
-3.4934391313
 30
0.0
 10
58.290261186
 20
-3.4800408373
 30
0.0
 10
58.2887080888
 20
-3.4579310975
 30
0.0
 10
58.2870923469
 20
-3.4255378511
 30
0.0
 10
58.2856432358
 20
-3.381781899
 30
0.0
 10
58.2846583259
 20
-3.3326444288
 30
0.0
 10
58.2841733313
 20
-3.2798120432
 30
0.0
 10
58.2841967215
 20
-3.2435484708
 30
0.0
 10
58.284296166
 20
-3.2251006478
 30
0.0
 11
58.2969627901
 21
-3.5239590572
 31
0.0
 11
58.2955413733
 21
-3.5202582188
 31
0.0
 11
58.2941588154
 21
-3.5140249096
 31
0.0
 11
58.2928269466
 21
-3.5053120059
 31
0.0
 11
58.2915570471
 21
-3.4941934014
 31
0.0
 11
58.2903599049
 21
-3.4807635909
 31
0.0
 11
58.2892456565
 21
-3.4651369111
 31
0.0
 11
58.2873027928
 21
-3.4278443347
 31
0.0
 11
58.2857939827
 21
-3.3835890659
 31
0.0
 11
58.2847699864
 21
-3.3338869624
 31
0.0
 11
58.2842651284
 21
-3.2804449121
 31
0.0
 11
58.284296166
 21
-3.2251006478
 31
0.0
  0
LINE
  5
64A
100
AcDbEntity
  8
DRAFT
100
AcDbLine
 62
253
  6
CONTINUOUS
 10
-33.6702137014
 20
-23.283553214
 11
-33.6668339092
 21
-22.5161371056
  0
SPLINE
  5
64B
100
AcDbEntity
  8
RACCORDO
100
AcDbSpline
 62
7
  6
CONTINUOUS
 70
0
 71
3
 72
18
 73
14
 74
12
 42
0.0000001
 43
0.0000001
 44
0.0000000001
 12
-0.001615152
 22
0.2996247726
 32
0.0
 13
0.1528568135
 23
0.2577060488
 33
0.0
 40
0.0
 40
0.0
 40
0.0
 40
0.0
 40
0.1847092471
 40
0.3630778498
 40
0.5289918139
 40
0.6767777752
 40
0.8014090367
 40
0.8536948566
 40
0.8986940225
 40
0.936043163
 40
0.9654599112
 40
0.9867689078
 40
1.0
 40
1.0
 40
1.0
 40
1.0
 10
58.284296166
 20
3.2251006478
 30
0.0
 10
58.2841967215
 20
3.2435484699
 30
0.0
 10
58.2841733313
 20
3.2798120392
 30
0.0
 10
58.2846583258
 20
3.3326444235
 30
0.0
 10
58.2856432356
 20
3.3817818922
 30
0.0
 10
58.2870923467
 20
3.4255378464
 30
0.0
 10
58.2887080885
 20
3.4579310931
 30
0.0
 10
58.2902611857
 20
3.4800408339
 30
0.0
 10
58.291432076
 20
3.4934391276
 30
0.0
 10
58.2926696972
 20
3.5045296093
 30
0.0
 10
58.2939375837
 20
3.5132493234
 30
0.0
 10
58.2952501179
 20
3.5194796318
 30
0.0
 10
58.2962886359
 20
3.5228224797
 30
0.0
 10
58.2969627901
 20
3.5239590572
 30
0.0
 11
58.284296166
 21
3.2251006478
 31
0.0
 11
58.2842651284
 21
3.2804449093
 31
0.0
 11
58.2847699863
 21
3.3338869532
 31
0.0
 11
58.2857939826
 21
3.3835890619
 31
0.0
 11
58.2873027925
 21
3.4278443275
 31
0.0
 11
58.2892456563
 21
3.4651369082
 31
0.0
 11
58.2903599047
 21
3.4807635878
 31
0.0
 11
58.2915570467
 21
3.4941933971
 31
0.0
 11
58.2928269461
 21
3.5053120023
 31
0.0
 11
58.2941588153
 21
3.5140249088
 31
0.0
 11
58.2955413733
 21
3.5202582188
 31
0.0
 11
58.2969627901
 21
3.5239590572
 31
0.0
  0
SPLINE
  5
64C
100
AcDbEntity
  8
RACCORDO
100
AcDbSpline
 62
7
  6
CONTINUOUS
 70
0
 71
3
 72
9
 73
5
 74
3
 42
0.0000001
 43
0.0000001
 44
0.0000000001
 12
21.0055186656
 22
-0.0341537419
 32
0.0
 13
21.0055457793
 23
-0.0052349607
 33
0.0
 40
0.0
 40
0.0
 40
0.0
 40
0.0
 40
0.2482543086
 40
1.0
 40
1.0
 40
1.0
 40
1.0
 10
-54.675727803
 20
-23.2639832799
 30
0.0
 10
-52.937490965
 20
-23.2668095511
 30
0.0
 10
-45.9356494337
 20
-23.2769480378
 30
0.0
 10
-38.9338009311
 20
-23.2822415626
 30
0.0
 10
-33.6701914197
 20
-23.283553349
 30
0.0
 11
-54.675727803
 21
-23.2639832799
 31
0.0
 11
-49.4610158782
 21
-23.2715448011
 31
0.0
 11
-33.6701914197
 21
-23.283553349
 31
0.0
  0
LINE
  5
64D
100
AcDbEntity
  8
RACCORDO
100
AcDbLine
 62
253
  6
CONTINUOUS
 10
-48.2132516773
 20
-0.3756166033
 11
-48.2133169106
 21
-0.0000000073
  0
SPLINE
  5
64E
100
AcDbEntity
  8
RACCORDO
100
AcDbSpline
 62
7
  6
CONTINUOUS
 70
0
 71
3
 72
18
 73
14
 74
12
 42
0.0000001
 43
0.0000001
 44
0.0000000001
 12
0.001615152
 22
-0.2996247726
 32
0.0
 13
-0.1528568135
 23
-0.2577060488
 33
0.0
 40
0.0
 40
0.0
 40
0.0
 40
0.0
 40
0.1847092563
 40
0.3630778803
 40
0.5289918274
 40
0.6767777991
 40
0.8014090461
 40
0.8536948669
 40
0.8986940369
 40
0.9360431751
 40
0.9654599137
 40
0.9867689076
 40
1.0
 40
1.0
 40
1.0
 40
1.0
 10
-58.284296166
 20
-3.2251006478
 30
0.0
 10
-58.2841967215
 20
-3.2435484708
 30
0.0
 10
-58.2841733313
 20
-3.2798120432
 30
0.0
 10
-58.2846583259
 20
-3.3326444288
 30
0.0
 10
-58.2856432358
 20
-3.381781899
 30
0.0
 10
-58.2870923469
 20
-3.4255378511
 30
0.0
 10
-58.2887080888
 20
-3.4579310975
 30
0.0
 10
-58.290261186
 20
-3.4800408373
 30
0.0
 10
-58.2914320764
 20
-3.4934391313
 30
0.0
 10
-58.2926696975
 20
-3.5045296122
 30
0.0
 10
-58.293937584
 20
-3.5132493248
 30
0.0
 10
-58.2952501179
 20
-3.519479632
 30
0.0
 10
-58.2962886359
 20
-3.5228224797
 30
0.0
 10
-58.2969627901
 20
-3.5239590572
 30
0.0
 11
-58.284296166
 21
-3.2251006478
 31
0.0
 11
-58.2842651284
 21
-3.2804449121
 31
0.0
 11
-58.2847699864
 21
-3.3338869624
 31
0.0
 11
-58.2857939827
 21
-3.3835890659
 31
0.0
 11
-58.2873027928
 21
-3.4278443347
 31
0.0
 11
-58.2892456565
 21
-3.4651369111
 31
0.0
 11
-58.2903599049
 21
-3.4807635909
 31
0.0
 11
-58.2915570471
 21
-3.4941934014
 31
0.0
 11
-58.2928269466
 21
-3.5053120059
 31
0.0
 11
-58.2941588154
 21
-3.5140249096
 31
0.0
 11
-58.2955413733
 21
-3.5202582188
 31
0.0
 11
-58.2969627901
 21
-3.5239590572
 31
0.0
  0
SPLINE
  5
64F
100
AcDbEntity
  8
RACCORDO
100
AcDbSpline
 62
7
  6
CONTINUOUS
 70
0
 71
3
 72
9
 73
5
 74
3
 42
0.0000001
 43
0.0000001
 44
0.0000000001
 12
6.4648294696
 22
-0.0113628197
 32
0.0
 13
6.4648336856
 23
-0.0086372628
 33
0.0
 40
0.0
 40
0.0
 40
0.0
 40
0.0
 40
0.2492046946
 40
1.0
 40
1.0
 40
1.0
 40
1.0
 10
-54.6781395345
 20
-0.3656232199
 30
0.0
 10
-54.1411175833
 20
-0.3665671093
 30
0.0
 10
-51.986174226
 20
-0.3702396902
 30
0.0
 10
-49.8312300904
 20
-0.3734550142
 30
0.0
 10
-48.21330783
 20
-0.3756166196
 30
0.0
 11
-54.6781395345
 21
-0.3656232199
 31
0.0
 11
-53.0670735324
 21
-0.3683691611
 31
0.0
 11
-48.21330783
 21
-0.3756166196
 31
0.0
  0
SPLINE
  5
650
100
AcDbEntity
  8
RACCORDO
100
AcDbSpline
 62
7
  6
CONTINUOUS
 70
0
 71
3
 72
18
 73
14
 74
12
 42
0.0000001
 43
0.0000001
 44
0.0000000001
 12
0.1528568135
 22
-0.2577060488
 32
0.0
 13
-0.001615152
 23
-0.2996247726
 33
0.0
 40
0.0
 40
0.0
 40
0.0
 40
0.0
 40
0.0132310922
 40
0.0345400888
 40
0.063956837
 40
0.1013059775
 40
0.1463051434
 40
0.1985909633
 40
0.3232222248
 40
0.4710081861
 40
0.6369221502
 40
0.8152907529
 40
1.0
 40
1.0
 40
1.0
 40
1.0
 10
-58.2969627901
 20
3.5239590572
 30
0.0
 10
-58.2962886359
 20
3.5228224797
 30
0.0
 10
-58.2952501179
 20
3.5194796318
 30
0.0
 10
-58.2939375837
 20
3.5132493234
 30
0.0
 10
-58.2926696972
 20
3.5045296093
 30
0.0
 10
-58.291432076
 20
3.4934391276
 30
0.0
 10
-58.2902611857
 20
3.4800408339
 30
0.0
 10
-58.2887080885
 20
3.4579310931
 30
0.0
 10
-58.2870923467
 20
3.4255378464
 30
0.0
 10
-58.2856432356
 20
3.3817818922
 30
0.0
 10
-58.2846583258
 20
3.3326444235
 30
0.0
 10
-58.2841733313
 20
3.2798120392
 30
0.0
 10
-58.2841967215
 20
3.2435484699
 30
0.0
 10
-58.284296166
 20
3.2251006478
 30
0.0
 11
-58.2969627901
 21
3.5239590572
 31
0.0
 11
-58.2955413733
 21
3.5202582188
 31
0.0
 11
-58.2941588153
 21
3.5140249088
 31
0.0
 11
-58.2928269461
 21
3.5053120023
 31
0.0
 11
-58.2915570467
 21
3.4941933971
 31
0.0
 11
-58.2903599047
 21
3.4807635878
 31
0.0
 11
-58.2892456563
 21
3.4651369082
 31
0.0
 11
-58.2873027925
 21
3.4278443275
 31
0.0
 11
-58.2857939826
 21
3.3835890619
 31
0.0
 11
-58.2847699863
 21
3.3338869532
 31
0.0
 11
-58.2842651284
 21
3.2804449093
 31
0.0
 11
-58.284296166
 21
3.2251006478
 31
0.0
  0
SPLINE
  5
651
100
AcDbEntity
  8
RACCORDO
100
AcDbSpline
 62
7
  6
CONTINUOUS
 70
0
 71
3
 72
15
 73
11
 74
9
 42
0.0000001
 43
0.0000001
 44
0.0000000001
 12
-0.0082361074
 22
-0.4637539088
 32
0.0
 13
-0.4637588385
 23
-0.0079536856
 33
0.0
 40
0.0
 40
0.0
 40
0.0
 40
0.0
 40
0.1069729984
 40
0.215856797
 40
0.3283219641
 40
0.4461804903
 40
0.5713732907
 40
0.7056429483
 40
0.8494545145
 40
1.0
 40
1.0
 40
1.0
 40
1.0
 10
-22.5888189223
 20
-13.4551908211
 30
0.0
 10
-22.5891126027
 20
-13.4717272031
 30
0.0
 10
-22.5925760144
 20
-13.5051128121
 30
0.0
 10
-22.6064080937
 20
-13.5542006142
 30
0.0
 10
-22.6292373316
 20
-13.6017165534
 30
0.0
 10
-22.6616181323
 20
-13.6465033583
 30
0.0
 10
-22.704189534
 20
-13.6869018555
 30
0.0
 10
-22.757287512
 20
-13.7204026426
 30
0.0
 10
-22.8199168369
 20
-13.7435290022
 30
0.0
 10
-22.8655009644
 20
-13.7495567522
 30
0.0
 10
-22.8887732309
 20
-13.7499558826
 30
0.0
 11
-22.5888189223
 21
-13.4551908211
 31
0.0
 11
-22.5939281829
 21
-13.5045440284
 31
0.0
 11
-22.6076054545
 21
-13.5531599772
 31
0.0
 11
-22.63018021
 21
-13.6001866028
 31
0.0
 11
-22.6621928351
 21
-13.6444986806
 31
0.0
 11
-22.704303603
 21
-13.6844805928
 31
0.0
 11
-22.7569679016
 21
-13.7177222562
 31
0.0
 11
-22.819547244
 21
-13.7408135648
 31
0.0
 11
-22.8887732309
 21
-13.7499558826
 31
0.0
  0
SPLINE
  5
652
100
AcDbEntity
  8
RACCORDO
100
AcDbSpline
 62
7
  6
CONTINUOUS
 70
0
 71
3
 72
15
 73
11
 74
9
 42
0.0000001
 43
0.0000001
 44
0.0000000001
 12
0.4637588385
 22
-0.0079536856
 32
0.0
 13
0.0082361074
 23
-0.4637539088
 33
0.0
 40
0.0
 40
0.0
 40
0.0
 40
0.0
 40
0.1505454855
 40
0.2943570517
 40
0.4286267093
 40
0.5538195097
 40
0.6716780359
 40
0.784143203
 40
0.8930270016
 40
1.0
 40
1.0
 40
1.0
 40
1.0
 10
-22.8887732309
 20
-8.7500441174
 30
0.0
 10
-22.8655009644
 20
-8.7504432478
 30
0.0
 10
-22.8199168369
 20
-8.7564709978
 30
0.0
 10
-22.757287512
 20
-8.7795973574
 30
0.0
 10
-22.704189534
 20
-8.8130981445
 30
0.0
 10
-22.6616181323
 20
-8.8534966417
 30
0.0
 10
-22.6292373316
 20
-8.8982834466
 30
0.0
 10
-22.6064080937
 20
-8.9457993858
 30
0.0
 10
-22.5925760144
 20
-8.9948871879
 30
0.0
 10
-22.5891126027
 20
-9.0282727969
 30
0.0
 10
-22.5888189223
 20
-9.0448091789
 30
0.0
 11
-22.8887732309
 21
-8.7500441174
 31
0.0
 11
-22.819547244
 21
-8.7591864352
 31
0.0
 11
-22.7569679016
 21
-8.7822777438
 31
0.0
 11
-22.704303603
 21
-8.8155194072
 31
0.0
 11
-22.6621928351
 21
-8.8555013194
 31
0.0
 11
-22.63018021
 21
-8.8998133972
 31
0.0
 11
-22.6076054545
 21
-8.9468400228
 31
0.0
 11
-22.5939281829
 21
-8.9954559716
 31
0.0
 11
-22.5888189223
 21
-9.0448091789
 31
0.0
  0
SPLINE
  5
653
100
AcDbEntity
  8
RACCORDO
100
AcDbSpline
 62
7
  6
CONTINUOUS
 70
0
 71
3
 72
15
 73
11
 74
9
 42
0.0000001
 43
0.0000001
 44
0.0000000001
 12
-0.0096445294
 22
-0.4690103426
 32
0.0
 13
-0.4691053818
 23
0.0019644728
 33
0.0
 40
0.0
 40
0.0
 40
0.0
 40
0.0
 40
0.1064490166
 40
0.2147822707
 40
0.3265884165
 40
0.4436094058
 40
0.567789318
 40
0.7011600849
 40
0.8453006804
 40
1.0
 40
1.0
 40
1.0
 40
1.0
 10
24.0928961209
 20
9.0430941357
 30
0.0
 10
24.092553904
 20
9.0264522391
 30
0.0
 10
24.0889397786
 20
8.9928636281
 30
0.0
 10
24.0747428377
 20
8.9435538728
 30
0.0
 10
24.0514433443
 20
8.8959511772
 30
0.0
 10
24.0185381329
 20
8.8512516283
 30
0.0
 10
23.9754096144
 20
8.8110973944
 30
0.0
 10
23.9215678964
 20
8.7779013506
 30
0.0
 10
23.8574074703
 20
8.7550839708
 30
0.0
 10
23.8104643928
 20
8.7497060403
 30
0.0
 10
23.7862742984
 20
8.7498073411
 30
0.0
 11
24.0928961209
 21
9.0430941357
 31
0.0
 11
24.0875658374
 21
8.9934431882
 31
0.0
 11
24.0735271694
 21
8.9446005401
 31
0.0
 11
24.0504866662
 21
8.8974829546
 31
0.0
 11
24.0179605718
 21
8.8532609424
 31
0.0
 11
23.9753364345
 21
8.8135531519
 31
0.0
 11
23.922087843
 21
8.7807045837
 31
0.0
 11
23.858374387
 21
8.7580605593
 31
0.0
 11
23.7862742984
 21
8.7498073411
 31
0.0
  0
SPLINE
  5
654
100
AcDbEntity
  8
RACCORDO
100
AcDbSpline
 62
7
  6
CONTINUOUS
 70
0
 71
3
 72
15
 73
11
 74
9
 42
0.0000001
 43
0.0000001
 44
0.0000000001
 12
0.4691053741
 22
0.0019644728
 32
0.0
 13
0.0096445292
 23
-0.4690103348
 33
0.0
 40
0.0
 40
0.0
 40
0.0
 40
0.0
 40
0.1547005111
 40
0.2988414121
 40
0.4322117943
 40
0.5563913869
 40
0.6734121186
 40
0.7852180709
 40
0.8935511589
 40
1.0
 40
1.0
 40
1.0
 40
1.0
 10
23.7862742984
 20
13.7501926589
 30
0.0
 10
23.8104645787
 20
13.7502939605
 30
0.0
 10
23.8574078915
 20
13.7449159415
 30
0.0
 10
23.9215684411
 20
13.7220983879
 30
0.0
 10
23.9754100336
 20
13.6889022635
 30
0.0
 10
24.0185383762
 20
13.6487480701
 30
0.0
 10
24.0514434868
 20
13.6040485987
 30
0.0
 10
24.0747428848
 20
13.5564459658
 30
0.0
 10
24.0889397903
 20
13.5071362907
 30
0.0
 10
24.0925539046
 20
13.4735477331
 30
0.0
 10
24.0928961209
 20
13.4569058643
 30
0.0
 11
23.7862742984
 21
13.7501926589
 31
0.0
 11
23.8583749324
 21
13.7419393011
 31
0.0
 11
23.922088478
 21
13.7192951041
 31
0.0
 11
23.9753368477
 21
13.6864465219
 31
0.0
 11
24.0179608165
 21
13.6467387719
 31
0.0
 11
24.0504868013
 21
13.6025168303
 31
0.0
 11
24.0735272236
 21
13.5553993072
 31
0.0
 11
24.0875658522
 21
13.5065567297
 31
0.0
 11
24.0928961209
 21
13.4569058643
 31
0.0
  0
SPLINE
  5
655
100
AcDbEntity
  8
RACCORDO
100
AcDbSpline
 62
7
  6
CONTINUOUS
 70
0
 71
3
 72
15
 73
11
 74
9
 42
0.0000001
 43
0.0000001
 44
0.0000000001
 12
-0.4637588385
 22
0.0079536856
 32
0.0
 13
-0.0082361074
 23
0.4637539088
 33
0.0
 40
0.0
 40
0.0
 40
0.0
 40
0.0
 40
0.1505454855
 40
0.2943570517
 40
0.4286267093
 40
0.5538195097
 40
0.6716780359
 40
0.784143203
 40
0.8930270016
 40
1.0
 40
1.0
 40
1.0
 40
1.0
 10
22.8887732309
 20
8.7500441174
 30
0.0
 10
22.8655009644
 20
8.7504432478
 30
0.0
 10
22.8199168369
 20
8.7564709978
 30
0.0
 10
22.757287512
 20
8.7795973574
 30
0.0
 10
22.704189534
 20
8.8130981445
 30
0.0
 10
22.6616181323
 20
8.8534966417
 30
0.0
 10
22.6292373316
 20
8.8982834466
 30
0.0
 10
22.6064080937
 20
8.9457993858
 30
0.0
 10
22.5925760144
 20
8.9948871879
 30
0.0
 10
22.5891126027
 20
9.0282727969
 30
0.0
 10
22.5888189223
 20
9.0448091789
 30
0.0
 11
22.8887732309
 21
8.7500441174
 31
0.0
 11
22.819547244
 21
8.7591864352
 31
0.0
 11
22.7569679016
 21
8.7822777438
 31
0.0
 11
22.704303603
 21
8.8155194072
 31
0.0
 11
22.6621928351
 21
8.8555013194
 31
0.0
 11
22.63018021
 21
8.8998133972
 31
0.0
 11
22.6076054545
 21
8.9468400228
 31
0.0
 11
22.5939281829
 21
8.9954559716
 31
0.0
 11
22.5888189223
 21
9.0448091789
 31
0.0
  0
SPLINE
  5
656
100
AcDbEntity
  8
RACCORDO
100
AcDbSpline
 62
7
  6
CONTINUOUS
 70
0
 71
3
 72
15
 73
11
 74
9
 42
0.0000001
 43
0.0000001
 44
0.0000000001
 12
-0.4691053741
 22
-0.0019644728
 32
0.0
 13
-0.0096445292
 23
0.4690103348
 33
0.0
 40
0.0
 40
0.0
 40
0.0
 40
0.0
 40
0.1547005111
 40
0.2988414121
 40
0.4322117943
 40
0.5563913869
 40
0.6734121186
 40
0.7852180709
 40
0.8935511589
 40
1.0
 40
1.0
 40
1.0
 40
1.0
 10
-23.7862742984
 20
-13.7501926589
 30
0.0
 10
-23.8104645787
 20
-13.7502939605
 30
0.0
 10
-23.8574078915
 20
-13.7449159415
 30
0.0
 10
-23.9215684411
 20
-13.7220983879
 30
0.0
 10
-23.9754100336
 20
-13.6889022635
 30
0.0
 10
-24.0185383762
 20
-13.6487480701
 30
0.0
 10
-24.0514434868
 20
-13.6040485987
 30
0.0
 10
-24.0747428848
 20
-13.5564459658
 30
0.0
 10
-24.0889397903
 20
-13.5071362907
 30
0.0
 10
-24.0925539046
 20
-13.4735477331
 30
0.0
 10
-24.0928961209
 20
-13.4569058643
 30
0.0
 11
-23.7862742984
 21
-13.7501926589
 31
0.0
 11
-23.8583749324
 21
-13.7419393011
 31
0.0
 11
-23.922088478
 21
-13.7192951041
 31
0.0
 11
-23.9753368477
 21
-13.6864465219
 31
0.0
 11
-24.0179608165
 21
-13.6467387719
 31
0.0
 11
-24.0504868013
 21
-13.6025168303
 31
0.0
 11
-24.0735272236
 21
-13.5553993072
 31
0.0
 11
-24.0875658522
 21
-13.5065567297
 31
0.0
 11
-24.0928961209
 21
-13.4569058643
 31
0.0
  0
SPLINE
  5
657
100
AcDbEntity
  8
RACCORDO
100
AcDbSpline
 62
7
  6
CONTINUOUS
 70
0
 71
3
 72
15
 73
11
 74
9
 42
0.0000001
 43
0.0000001
 44
0.0000000001
 12
0.0096445294
 22
0.4690103426
 32
0.0
 13
0.4691053818
 23
-0.0019644728
 33
0.0
 40
0.0
 40
0.0
 40
0.0
 40
0.0
 40
0.1064490166
 40
0.2147822707
 40
0.3265884165
 40
0.4436094058
 40
0.567789318
 40
0.7011600849
 40
0.8453006804
 40
1.0
 40
1.0
 40
1.0
 40
1.0
 10
-24.0928961209
 20
-9.0430941357
 30
0.0
 10
-24.092553904
 20
-9.0264522391
 30
0.0
 10
-24.0889397786
 20
-8.9928636281
 30
0.0
 10
-24.0747428377
 20
-8.9435538728
 30
0.0
 10
-24.0514433443
 20
-8.8959511772
 30
0.0
 10
-24.0185381329
 20
-8.8512516283
 30
0.0
 10
-23.9754096144
 20
-8.8110973944
 30
0.0
 10
-23.9215678964
 20
-8.7779013506
 30
0.0
 10
-23.8574074703
 20
-8.7550839708
 30
0.0
 10
-23.8104643928
 20
-8.7497060403
 30
0.0
 10
-23.7862742984
 20
-8.7498073411
 30
0.0
 11
-24.0928961209
 21
-9.0430941357
 31
0.0
 11
-24.0875658374
 21
-8.9934431882
 31
0.0
 11
-24.0735271694
 21
-8.9446005401
 31
0.0
 11
-24.0504866662
 21
-8.8974829546
 31
0.0
 11
-24.0179605718
 21
-8.8532609424
 31
0.0
 11
-23.9753364345
 21
-8.8135531519
 31
0.0
 11
-23.922087843
 21
-8.7807045837
 31
0.0
 11
-23.858374387
 21
-8.7580605593
 31
0.0
 11
-23.7862742984
 21
-8.7498073411
 31
0.0
  0
SPLINE
  5
658
100
AcDbEntity
  8
RACCORDO
100
AcDbSpline
 62
7
  6
CONTINUOUS
 70
0
 71
3
 72
15
 73
11
 74
9
 42
0.0000001
 43
0.0000001
 44
0.0000000001
 12
0.0082361074
 22
0.4637539088
 32
0.0
 13
0.4637588385
 23
0.0079536856
 33
0.0
 40
0.0
 40
0.0
 40
0.0
 40
0.0
 40
0.1069729984
 40
0.215856797
 40
0.3283219641
 40
0.4461804903
 40
0.5713732907
 40
0.7056429483
 40
0.8494545145
 40
1.0
 40
1.0
 40
1.0
 40
1.0
 10
22.5888189223
 20
13.4551908211
 30
0.0
 10
22.5891126027
 20
13.4717272031
 30
0.0
 10
22.5925760144
 20
13.5051128121
 30
0.0
 10
22.6064080937
 20
13.5542006142
 30
0.0
 10
22.6292373316
 20
13.6017165534
 30
0.0
 10
22.6616181323
 20
13.6465033583
 30
0.0
 10
22.704189534
 20
13.6869018555
 30
0.0
 10
22.757287512
 20
13.7204026426
 30
0.0
 10
22.8199168369
 20
13.7435290022
 30
0.0
 10
22.8655009644
 20
13.7495567522
 30
0.0
 10
22.8887732309
 20
13.7499558826
 30
0.0
 11
22.5888189223
 21
13.4551908211
 31
0.0
 11
22.5939281829
 21
13.5045440284
 31
0.0
 11
22.6076054545
 21
13.5531599772
 31
0.0
 11
22.63018021
 21
13.6001866028
 31
0.0
 11
22.6621928351
 21
13.6444986806
 31
0.0
 11
22.704303603
 21
13.6844805928
 31
0.0
 11
22.7569679016
 21
13.7177222562
 31
0.0
 11
22.819547244
 21
13.7408135648
 31
0.0
 11
22.8887732309
 21
13.7499558826
 31
0.0
  0
LINE
  5
659
100
AcDbEntity
  8
RACCORDO
100
AcDbLine
 62
253
  6
CONTINUOUS
 10
-54.6780673323
 20
-0.3656231839
 11
-54.6781644832
 21
-0.0000000105
  0
LINE
  5
65A
100
AcDbEntity
  8
RACCORDO
100
AcDbLine
 62
253
  6
CONTINUOUS
 10
0.0000000044
 20
-32.0686011961
 11
-0.3770953728
 21
-32.0685200038
  0
SPLINE
  5
65B
100
AcDbEntity
  8
RACCORDO
100
AcDbSpline
 62
7
  6
CONTINUOUS
 70
0
 71
3
 72
9
 73
5
 74
3
 42
0.0000001
 43
0.0000001
 44
0.0000000001
 12
0.0047576981
 22
-7.1446403587
 32
0.0
 13
0.0148058392
 23
-7.1446266017
 33
0.0
 40
0.0
 40
0.0
 40
0.0
 40
0.0
 40
0.252103549
 40
1.0
 40
1.0
 40
1.0
 40
1.0
 10
-0.386825176
 20
-24.9239459731
 30
0.0
 10
-0.3864253652
 20
-25.5243423701
 30
0.0
 10
-0.3844240619
 20
-27.9058888574
 30
0.0
 10
-0.3807864751
 20
-30.2874340031
 30
0.0
 10
-0.3770953969
 20
-32.0685809627
 30
0.0
 11
-0.386825176
 21
-24.9239459731
 31
0.0
 11
-0.3853122979
 21
-26.7251349281
 31
0.0
 11
-0.3770953969
 21
-32.0685809627
 31
0.0
  0
LINE
  5
65C
100
AcDbEntity
  8
DRAFT
100
AcDbLine
 62
253
  6
CONTINUOUS
 10
-0.3868251731
 20
-24.9239425619
 11
0.0000000078
 21
-24.9240282465
  0
SPLINE
  5
65D
100
AcDbEntity
  8
RACCORDO
100
AcDbSpline
 62
7
  6
CONTINUOUS
 70
0
 71
3
 72
9
 73
5
 74
3
 42
0.0000001
 43
0.0000001
 44
0.0000000001
 12
0.0152401909
 22
7.751182893
 32
0.0
 13
0.0034328637
 23
7.7511971153
 33
0.0
 40
0.0
 40
0.0
 40
0.0
 40
0.0
 40
0.2475784206
 40
1.0
 40
1.0
 40
1.0
 40
1.0
 10
-32.525879382
 20
-32.0700176364
 30
0.0
 10
-32.5246216679
 20
-31.4303424303
 30
0.0
 10
-32.5200540639
 20
-28.8466138133
 30
0.0
 10
-32.5174740805
 20
-26.2628817133
 30
0.0
 10
-32.5166130935
 20
-24.3188257213
 30
0.0
 11
-32.525879382
 21
-32.0700176364
 31
0.0
 11
-32.5224818189
 21
-30.1509913163
 31
0.0
 11
-32.5166130935
 21
-24.3188257213
 31
0.0
  0
LINE
  5
65E
100
AcDbEntity
  8
RACCORDO
100
AcDbLine
 62
253
  6
CONTINUOUS
 10
-32.5258793832
 20
-32.0700176324
 11
-33.2739875644
 21
-32.0700715603
  0
SPLINE
  5
65F
100
AcDbEntity
  8
RACCORDO
100
AcDbSpline
 62
7
  6
CONTINUOUS
 70
0
 71
3
 72
9
 73
5
 74
3
 42
0.0000001
 43
0.0000001
 44
0.0000000001
 12
0.0033612043
 22
-7.7800988439
 32
0.0
 13
0.015252772
 23
-7.7800846185
 33
0.0
 40
0.0
 40
0.0
 40
0.0
 40
0.0
 40
0.2519555998
 40
1.0
 40
1.0
 40
1.0
 40
1.0
 10
-33.2832230899
 20
-24.2899778992
 30
0.0
 10
-33.2829407985
 20
-24.9433910561
 30
0.0
 10
-33.281330581
 20
-27.5367570962
 30
0.0
 10
-33.2777908138
 20
-30.1301219895
 30
0.0
 10
-33.2739875636
 20
-32.0700715669
 30
0.0
 11
-33.2832230899
 21
-24.2899778992
 31
0.0
 11
-33.2820069009
 21
-26.2502171754
 31
0.0
 11
-33.2739875636
 21
-32.0700715669
 31
0.0
  0
LINE
  5
660
100
AcDbEntity
  8
DRAFT
100
AcDbLine
 62
253
  6
CONTINUOUS
 10
-33.2832223882
 20
-24.2899879584
 11
-32.5166145713
 21
-24.3188667244
  0
LINE
  5
661
100
AcDbEntity
  8
RACCORDO
100
AcDbLine
 62
253
  6
CONTINUOUS
 10
33.2739875638
 20
-32.0700715603
 11
32.5258793828
 21
-32.0700176325
  0
SPLINE
  5
662
100
AcDbEntity
  8
RACCORDO
100
AcDbSpline
 62
7
  6
CONTINUOUS
 70
0
 71
3
 72
9
 73
5
 74
3
 42
0.0000001
 43
0.0000001
 44
0.0000000001
 12
0.0034328637
 22
-7.7511971088
 32
0.0
 13
0.0152401909
 23
-7.7511828865
 33
0.0
 40
0.0
 40
0.0
 40
0.0
 40
0.0
 40
0.2519648089
 40
1.0
 40
1.0
 40
1.0
 40
1.0
 10
32.5166130935
 20
-24.3188257213
 30
0.0
 10
32.5169014138
 20
-24.9698353542
 30
0.0
 10
32.5185322277
 20
-27.5535674791
 30
0.0
 10
32.5220793157
 20
-30.1372984447
 30
0.0
 10
32.525879382
 20
-32.0700176352
 30
0.0
 11
32.5166130935
 21
-24.3188257213
 31
0.0
 11
32.5178448863
 21
-26.2718544229
 31
0.0
 11
32.525879382
 21
-32.0700176352
 31
0.0
  0
LINE
  5
663
100
AcDbEntity
  8
DRAFT
100
AcDbLine
 62
253
  6
CONTINUOUS
 10
33.2832223882
 20
-24.2899879584
 11
32.5166145713
 21
-24.3188667244
  0
SPLINE
  5
664
100
AcDbEntity
  8
RACCORDO
100
AcDbSpline
 62
7
  6
CONTINUOUS
 70
0
 71
3
 72
9
 73
5
 74
3
 42
0.0000001
 43
0.0000001
 44
0.0000000001
 12
0.015252772
 22
7.7800846308
 32
0.0
 13
0.0033612043
 23
7.7800988561
 33
0.0
 40
0.0
 40
0.0
 40
0.0
 40
0.0
 40
0.2475839189
 40
1.0
 40
1.0
 40
1.0
 40
1.0
 10
33.2739875636
 20
-32.0700715623
 30
0.0
 10
33.2752463439
 20
-31.4279969481
 30
0.0
 10
33.2798143167
 20
-28.8346344141
 30
0.0
 10
33.2823800818
 20
-26.241268385
 30
0.0
 10
33.2832230899
 20
-24.2899778878
 30
0.0
 11
33.2739875636
 21
-32.0700715623
 31
0.0
 11
33.2773855262
 21
-30.1438470151
 31
0.0
 11
33.2832230899
 21
-24.2899778878
 31
0.0
  0
LINE
  5
665
100
AcDbEntity
  8
DRAFT
100
AcDbLine
 62
253
  6
CONTINUOUS
 10
0.3868251731
 20
-24.9239425619
 11
-0.0000000078
 21
-24.9240282465
  0
SPLINE
  5
666
100
AcDbEntity
  8
RACCORDO
100
AcDbSpline
 62
7
  6
CONTINUOUS
 70
0
 71
3
 72
9
 73
5
 74
3
 42
0.0000001
 43
0.0000001
 44
0.0000000001
 12
0.0148058392
 22
7.1446266046
 32
0.0
 13
0.0047576981
 23
7.1446403616
 33
0.0
 40
0.0
 40
0.0
 40
0.0
 40
0.0
 40
0.2475162213
 40
1.0
 40
1.0
 40
1.0
 40
1.0
 10
0.3770953969
 20
-32.0685809628
 30
0.0
 10
0.3783169587
 20
-31.4791106364
 30
0.0
 10
0.3828184658
 20
-29.0975675533
 30
0.0
 10
0.3856318125
 20
-26.7160212988
 30
0.0
 10
0.386825176
 20
-24.9239459731
 30
0.0
 11
0.3770953969
 21
-32.0685809628
 31
0.0
 11
0.3804419268
 21
-30.3001693527
 31
0.0
 11
0.386825176
 21
-24.9239459731
 31
0.0
  0
LINE
  5
667
100
AcDbEntity
  8
RACCORDO
100
AcDbLine
 62
253
  6
CONTINUOUS
 10
0.3770953728
 20
-32.0685200289
 11
0.0000000044
 21
-32.0686012213
  0
SPLINE
  5
668
100
AcDbEntity
  8
DRAFT
100
AcDbSpline
 62
7
  6
CONTINUOUS
 70
0
 71
3
 72
9
 73
5
 74
3
 42
0.0000001
 43
0.0000001
 44
0.0000000001
 12
8.8918653928
 22
0.0036349304
 32
0.0
 13
8.8918619356
 23
0.0086426084
 33
0.0
 40
0.0
 40
0.0
 40
0.0
 40
0.0
 40
0.2504437417
 40
1.0
 40
1.0
 40
1.0
 40
1.0
 10
33.6189940249
 20
-0.3883338037
 30
0.0
 10
34.3612980382
 20
-0.3880303552
 30
0.0
 10
37.3252530798
 20
-0.3866091264
 30
0.0
 10
40.2892077216
 20
-0.3843542557
 30
0.0
 10
42.5108579754
 20
-0.3821948819
 30
0.0
 11
33.6189940249
 21
-0.3883338037
 31
0.0
 11
35.8459059949
 21
-0.3872661917
 31
0.0
 11
42.5108579754
 21
-0.3821948819
 31
0.0
  0
LINE
  5
669
100
AcDbEntity
  8
DRAFT
100
AcDbLine
 62
253
  6
CONTINUOUS
 10
33.6189902418
 20
-0.3883338011
 11
33.6189769476
 21
0.0000000053
  0
LINE
  5
66A
100
AcDbEntity
  8
RACCORDO
100
AcDbLine
 62
253
  6
CONTINUOUS
 10
54.6758921624
 20
-22.5359192476
 11
54.6757278024
 21
-23.26398328
  0
SPLINE
  5
66B
100
AcDbEntity
  8
RACCORDO
100
AcDbSpline
 62
7
  6
CONTINUOUS
 70
0
 71
3
 72
9
 73
5
 74
3
 42
0.0000001
 43
0.0000001
 44
0.0000000001
 12
21.005545772
 22
0.0052349607
 32
0.0
 13
21.0055186584
 23
0.0341537419
 33
0.0
 40
0.0
 40
0.0
 40
0.0
 40
0.0
 40
0.2513672234
 40
1.0
 40
1.0
 40
1.0
 40
1.0
 10
33.6701914197
 20
-23.283553349
 30
0.0
 10
35.4302266585
 20
-23.2831147165
 30
0.0
 10
42.4320748885
 20
-23.2801710382
 30
0.0
 10
49.4339212181
 20
-23.2725061501
 30
0.0
 10
54.6757278039
 20
-23.2639832799
 30
0.0
 11
33.6701914197
 21
-23.283553349
 31
0.0
 11
38.9502968346
 21
-23.2813365161
 31
0.0
 11
54.6757278039
 21
-23.2639832799
 31
0.0
  0
LINE
  5
66C
100
AcDbEntity
  8
DRAFT
100
AcDbLine
 62
253
  6
CONTINUOUS
 10
33.6702137014
 20
-23.283553214
 11
33.6668339092
 21
-22.5161371056
  0
SPLINE
  5
66D
100
AcDbEntity
  8
RACCORDO
100
AcDbSpline
 62
7
  6
CONTINUOUS
 70
0
 71
3
 72
9
 73
5
 74
3
 42
0.0000001
 43
0.0000001
 44
0.0000000001
 12
-21.0090191058
 22
0.0343423681
 32
0.0
 13
-21.0090464648
 23
0.0054613486
 33
0.0
 40
0.0
 40
0.0
 40
0.0
 40
0.0
 40
0.248241523
 40
1.0
 40
1.0
 40
1.0
 40
1.0
 10
54.6758921625
 20
-22.5359192476
 30
0.0
 10
52.9374551956
 20
-22.5330775137
 30
0.0
 10
45.9344468448
 20
-22.5228733381
 30
0.0
 10
38.9314314881
 20
-22.5175055143
 30
0.0
 10
33.6668552305
 20
-22.5161369759
 30
0.0
 11
54.6758921625
 21
-22.5359192476
 31
0.0
 11
49.4605798461
 21
-22.5283093481
 31
0.0
 11
33.6668552305
 21
-22.5161369759
 31
0.0
  0
LINE
  5
66E
100
AcDbEntity
  8
RACCORDO
100
AcDbLine
 62
253
  6
CONTINUOUS
 10
48.2133155489
 20
0.0000000073
 11
48.2132503157
 21
-0.3756166029
  0
LINE
  5
66F
100
AcDbEntity
  8
RACCORDO
100
AcDbLine
 62
253
  6
CONTINUOUS
 10
54.6781644441
 20
0.0000000104
 11
54.6780672932
 21
-0.3656231839
  0
SPLINE
  5
670
100
AcDbEntity
  8
RACCORDO
100
AcDbSpline
 62
7
  6
CONTINUOUS
 70
0
 71
3
 72
9
 73
5
 74
3
 42
0.0000001
 43
0.0000001
 44
0.0000000001
 12
6.4648336854
 22
0.0086372628
 32
0.0
 13
6.4648294694
 23
0.0113628197
 33
0.0
 40
0.0
 40
0.0
 40
0.0
 40
0.0
 40
0.2507599714
 40
1.0
 40
1.0
 40
1.0
 40
1.0
 10
48.21330783
 20
-0.3756166196
 30
0.0
 10
48.7536816667
 20
-0.3748946597
 30
0.0
 10
50.9086260767
 20
-0.371903162
 30
0.0
 10
53.0635698623
 20
-0.3684610464
 30
0.0
 10
54.6781395345
 20
-0.3656232199
 30
0.0
 11
48.21330783
 21
-0.3756166196
 31
0.0
 11
49.8344292247
 21
-0.3733660288
 31
0.0
 11
54.6781395345
 21
-0.3656232199
 31
0.0
  0
SPLINE
  5
671
100
AcDbEntity
  8
DRAFT
100
AcDbSpline
 62
7
  6
CONTINUOUS
 70
0
 71
3
 72
9
 73
5
 74
3
 42
0.0000001
 43
0.0000001
 44
0.0000000001
 12
-8.8918619354
 22
0.0086426084
 32
0.0
 13
-8.8918653926
 23
0.0036349304
 33
0.0
 40
0.0
 40
0.0
 40
0.0
 40
0.0
 40
0.2494932904
 40
1.0
 40
1.0
 40
1.0
 40
1.0
 10
42.5108579754
 20
0.3821948819
 30
0.0
 10
41.7713713448
 20
0.3829136395
 30
0.0
 10
38.8074171672
 20
0.3855857995
 30
0.0
 10
35.8434622376
 20
0.3874244571
 30
0.0
 10
33.6189940249
 20
0.3883338037
 30
0.0
 11
42.5108579754
 21
0.3821948819
 31
0.0
 11
40.2923979373
 21
0.3841951286
 31
0.0
 11
33.6189940249
 21
0.3883338037
 31
0.0
  0
LINE
  5
672
100
AcDbEntity
  8
DRAFT
100
AcDbLine
 62
253
  6
CONTINUOUS
 10
33.6189902418
 20
0.3883338011
 11
33.6189769476
 21
-0.0000000053
  0
LINE
  5
673
100
AcDbEntity
  8
RACCORDO
100
AcDbLine
 62
253
  6
CONTINUOUS
 10
54.6757278024
 20
23.26398328
 11
54.6758921624
 21
22.535919248
  0
SPLINE
  5
674
100
AcDbEntity
  8
RACCORDO
100
AcDbSpline
 62
7
  6
CONTINUOUS
 70
0
 71
3
 72
9
 73
5
 74
3
 42
0.0000001
 43
0.0000001
 44
0.0000000001
 12
21.0090464585
 22
0.0054613486
 32
0.0
 13
21.0090190995
 23
0.0343423681
 33
0.0
 40
0.0
 40
0.0
 40
0.0
 40
0.0
 40
0.2513819041
 40
1.0
 40
1.0
 40
1.0
 40
1.0
 10
33.6668552305
 20
22.5161369759
 30
0.0
 10
35.4272865979
 20
22.516594604
 30
0.0
 10
42.4303017111
 20
22.5196134019
 30
0.0
 10
49.4333148721
 20
22.5273494749
 30
0.0
 10
54.6758921638
 20
22.5359192476
 30
0.0
 11
33.6668552305
 21
22.5161369759
 31
0.0
 11
38.9481490217
 21
22.5184104444
 31
0.0
 11
54.6758921638
 21
22.5359192476
 31
0.0
  0
LINE
  5
675
100
AcDbEntity
  8
DRAFT
100
AcDbLine
 62
253
  6
CONTINUOUS
 10
33.6702137014
 20
23.283553214
 11
33.6668339093
 21
22.5161371056
  0
SPLINE
  5
676
100
AcDbEntity
  8
RACCORDO
100
AcDbSpline
 62
7
  6
CONTINUOUS
 70
0
 71
3
 72
9
 73
5
 74
3
 42
0.0000001
 43
0.0000001
 44
0.0000000001
 12
-21.0055186656
 22
0.0341537419
 32
0.0
 13
-21.0055457793
 23
0.0052349607
 33
0.0
 40
0.0
 40
0.0
 40
0.0
 40
0.0
 40
0.2482543086
 40
1.0
 40
1.0
 40
1.0
 40
1.0
 10
54.675727803
 20
23.2639832799
 30
0.0
 10
52.937490965
 20
23.2668095511
 30
0.0
 10
45.9356494337
 20
23.2769480378
 30
0.0
 10
38.9338009311
 20
23.2822415626
 30
0.0
 10
33.6701914197
 20
23.283553349
 30
0.0
 11
54.675727803
 21
23.2639832799
 31
0.0
 11
49.4610158782
 21
23.2715448011
 31
0.0
 11
33.6701914197
 21
23.283553349
 31
0.0
  0
LINE
  5
677
100
AcDbEntity
  8
RACCORDO
100
AcDbLine
 62
253
  6
CONTINUOUS
 10
48.2132516773
 20
0.3756166033
 11
48.2133169106
 21
0.0000000073
  0
SPLINE
  5
678
100
AcDbEntity
  8
RACCORDO
100
AcDbSpline
 62
7
  6
CONTINUOUS
 70
0
 71
3
 72
9
 73
5
 74
3
 42
0.0000001
 43
0.0000001
 44
0.0000000001
 12
-6.4648294696
 22
0.0113628197
 32
0.0
 13
-6.4648336856
 23
0.0086372628
 33
0.0
 40
0.0
 40
0.0
 40
0.0
 40
0.0
 40
0.2492046946
 40
1.0
 40
1.0
 40
1.0
 40
1.0
 10
54.6781395345
 20
0.3656232199
 30
0.0
 10
54.1411175833
 20
0.3665671093
 30
0.0
 10
51.986174226
 20
0.3702396902
 30
0.0
 10
49.8312300904
 20
0.3734550142
 30
0.0
 10
48.21330783
 20
0.3756166196
 30
0.0
 11
54.6781395345
 21
0.3656232199
 31
0.0
 11
53.0670735324
 21
0.3683691611
 31
0.0
 11
48.21330783
 21
0.3756166196
 31
0.0
  0
LINE
  5
679
100
AcDbEntity
  8
RACCORDO
100
AcDbLine
 62
253
  6
CONTINUOUS
 10
54.6780673323
 20
0.3656231839
 11
54.6781644832
 21
0.0000000105
  0
LINE
  5
67A
100
AcDbEntity
  8
RACCORDO
100
AcDbLine
 62
253
  6
CONTINUOUS
 10
-0.0000000001
 20
32.0686011961
 11
0.3770953728
 21
32.0685200038
  0
SPLINE
  5
67B
100
AcDbEntity
  8
RACCORDO
100
AcDbSpline
 62
7
  6
CONTINUOUS
 70
0
 71
3
 72
9
 73
5
 74
3
 42
0.0000001
 43
0.0000001
 44
0.0000000001
 12
-0.0047576981
 22
7.1446403587
 32
0.0
 13
-0.0148058392
 23
7.1446266017
 33
0.0
 40
0.0
 40
0.0
 40
0.0
 40
0.0
 40
0.252103549
 40
1.0
 40
1.0
 40
1.0
 40
1.0
 10
0.386825176
 20
24.9239459731
 30
0.0
 10
0.3864253652
 20
25.5243423701
 30
0.0
 10
0.3844240619
 20
27.9058888574
 30
0.0
 10
0.3807864751
 20
30.2874340031
 30
0.0
 10
0.3770953969
 20
32.0685809627
 30
0.0
 11
0.386825176
 21
24.9239459731
 31
0.0
 11
0.3853122979
 21
26.7251349281
 31
0.0
 11
0.3770953969
 21
32.0685809627
 31
0.0
  0
LINE
  5
67C
100
AcDbEntity
  8
DRAFT
100
AcDbLine
 62
253
  6
CONTINUOUS
 10
0.3868251731
 20
24.9239425619
 11
-0.0000000078
 21
24.9240282465
  0
SPLINE
  5
67D
100
AcDbEntity
  8
RACCORDO
100
AcDbSpline
 62
7
  6
CONTINUOUS
 70
0
 71
3
 72
9
 73
5
 74
3
 42
0.0000001
 43
0.0000001
 44
0.0000000001
 12
-0.0152401909
 22
-7.751182893
 32
0.0
 13
-0.0034328637
 23
-7.7511971153
 33
0.0
 40
0.0
 40
0.0
 40
0.0
 40
0.0
 40
0.2475784206
 40
1.0
 40
1.0
 40
1.0
 40
1.0
 10
32.525879382
 20
32.0700176364
 30
0.0
 10
32.5246216679
 20
31.4303424303
 30
0.0
 10
32.5200540639
 20
28.8466138133
 30
0.0
 10
32.5174740805
 20
26.2628817132
 30
0.0
 10
32.5166130935
 20
24.3188257213
 30
0.0
 11
32.525879382
 21
32.0700176364
 31
0.0
 11
32.5224818189
 21
30.1509913163
 31
0.0
 11
32.5166130935
 21
24.3188257213
 31
0.0
  0
LINE
  5
67E
100
AcDbEntity
  8
RACCORDO
100
AcDbLine
 62
253
  6
CONTINUOUS
 10
32.5258793832
 20
32.0700176325
 11
33.2739875644
 21
32.0700715603
  0
SPLINE
  5
67F
100
AcDbEntity
  8
RACCORDO
100
AcDbSpline
 62
7
  6
CONTINUOUS
 70
0
 71
3
 72
9
 73
5
 74
3
 42
0.0000001
 43
0.0000001
 44
0.0000000001
 12
-0.0033612043
 22
7.7800988439
 32
0.0
 13
-0.015252772
 23
7.7800846185
 33
0.0
 40
0.0
 40
0.0
 40
0.0
 40
0.0
 40
0.2519555998
 40
1.0
 40
1.0
 40
1.0
 40
1.0
 10
33.2832230899
 20
24.2899778992
 30
0.0
 10
33.2829407985
 20
24.9433910561
 30
0.0
 10
33.281330581
 20
27.5367570962
 30
0.0
 10
33.2777908138
 20
30.1301219895
 30
0.0
 10
33.2739875636
 20
32.0700715669
 30
0.0
 11
33.2832230899
 21
24.2899778992
 31
0.0
 11
33.2820069009
 21
26.2502171754
 31
0.0
 11
33.2739875636
 21
32.0700715669
 31
0.0
  0
LINE
  5
680
100
AcDbEntity
  8
DRAFT
100
AcDbLine
 62
253
  6
CONTINUOUS
 10
33.2832223882
 20
24.2899879584
 11
32.5166145713
 21
24.3188667244
  0
LINE
  5
681
100
AcDbEntity
  8
DRAFT
100
AcDbLine
 62
7
  6
CONTINUOUS
 10
-0.386825176
 20
24.9239459731
 11
-0.387367066
 21
24.0963811041
  0
LINE
  5
682
100
AcDbEntity
  8
DRAFT
100
AcDbLine
 62
7
  6
CONTINUOUS
 10
-0.0000000819
 20
24.0963822329
 11
-0.387367066
 21
24.0963811041
  0
LINE
  5
683
100
AcDbEntity
  8
RACCORDO
100
AcDbLine
 62
7
  6
CONTINUOUS
 10
-24.0936121457
 20
22.593840603
 11
-24.0936921335
 21
22.5139773169
  0
LINE
  5
684
100
AcDbEntity
  8
DRAFT
100
AcDbLine
 62
7
  6
CONTINUOUS
 10
-32.5158431844
 20
22.5158431844
 11
-24.0936921335
 21
22.5139773169
  0
SPLINE
  5
685
100
AcDbEntity
  8
DRAFT
100
AcDbSpline
 62
7
  6
CONTINUOUS
 70
0
 71
3
 72
9
 73
5
 74
3
 42
0.0000001
 43
0.0000001
 44
0.0000000001
 12
-0.0001573799
 22
22.1270646647
 32
0.0
 13
-0.0090848455
 23
22.1270628003
 33
0.0
 40
0.0
 40
0.0
 40
0.0
 40
0.0
 40
0.2500870052
 40
1.0
 40
1.0
 40
1.0
 40
1.0
 10
-32.5112209136
 20
0.3887790864
 30
0.0
 10
-32.5112340332
 20
2.2333428651
 30
0.0
 10
-32.5116593075
 20
9.6090310794
 30
0.0
 10
-32.5135722365
 20
16.9847192077
 30
0.0
 10
-32.5158431844
 20
22.5158431844
 30
0.0
 11
-32.5112209136
 21
0.3887790864
 31
0.0
 11
-32.5115397875
 21
5.9224704136
 31
0.0
 11
-32.5158431844
 21
22.5158431844
 31
0.0
  0
SPLINE
  5
686
100
AcDbEntity
  8
DRAFT
100
AcDbSpline
 62
7
  6
CONTINUOUS
 70
0
 71
3
 72
9
 73
5
 74
3
 42
0.0000001
 43
0.0000001
 44
0.0000000001
 12
-8.2498280392
 22
-0.0024239333
 32
0.0
 13
-8.2498277513
 23
-0.0032598744
 33
0.0
 40
0.0
 40
0.0
 40
0.0
 40
0.0
 40
0.2500418273
 40
1.0
 40
1.0
 40
1.0
 40
1.0
 10
-24.2613930097
 20
0.3916207834
 30
0.0
 10
-24.9489937023
 20
0.3914187551
 30
0.0
 10
-27.6989363717
 20
0.3905759897
 30
0.0
 10
-30.4488789985
 20
0.3895940095
 30
0.0
 10
-32.5112209136
 20
0.3887790864
 30
0.0
 11
-24.2613930097
 21
0.3916207834
 31
0.0
 11
-26.3241950796
 21
0.3909885981
 31
0.0
 11
-32.5112209136
 21
0.3887790864
 31
0.0
  0
LINE
  5
687
100
AcDbEntity
  8
DRAFT
100
AcDbLine
 62
7
  6
CONTINUOUS
 10
-24.2613930097
 20
0.3916207834
 11
-24.2616980601
 21
-0.0000013011
  0
LINE
  5
688
100
AcDbEntity
  8
DRAFT
100
AcDbLine
 62
7
  6
CONTINUOUS
 10
-33.2884682452
 20
0.3884682452
 11
-33.6189940249
 21
0.3883338037
  0
SPLINE
  5
689
100
AcDbEntity
  8
DRAFT
100
AcDbSpline
 62
7
  6
CONTINUOUS
 70
0
 71
3
 72
9
 73
5
 74
3
 42
0.0000001
 43
0.0000001
 44
0.0000000001
 12
-0.0088637971
 22
-22.1275687586
 32
0.0
 13
-0.0001529562
 23
-22.1275705334
 33
0.0
 40
0.0
 40
0.0
 40
0.0
 40
0.0
 40
0.2498855248
 40
1.0
 40
1.0
 40
1.0
 40
1.0
 10
-33.2839617601
 20
22.5160382399
 30
0.0
 10
-33.2847000716
 20
20.6729185294
 30
0.0
 10
-33.2872909042
 20
13.2970621353
 30
0.0
 10
-33.2884300003
 20
5.9212052314
 30
0.0
 10
-33.2884682452
 20
0.3884682452
 30
0.0
 11
-33.2839617601
 21
22.5160382399
 31
0.0
 11
-33.2859042443
 21
16.9866790061
 31
0.0
 11
-33.2884682452
 21
0.3884682452
 31
0.0
  0
LINE
  5
68A
100
AcDbEntity
  8
DRAFT
100
AcDbLine
 62
7
  6
CONTINUOUS
 10
-33.6668552305
 20
22.5161369759
 11
-33.2839617601
 21
22.5160382399
  0
LINE
  5
68B
100
AcDbEntity
  8
DRAFT
100
AcDbLine
 62
7
  6
CONTINUOUS
 10
-33.2836490176
 20
23.2836490176
 11
-33.6701914197
 21
23.283553349
  0
LINE
  5
68C
100
AcDbEntity
  8
DRAFT
100
AcDbLine
 62
7
  6
CONTINUOUS
 10
-33.2832230899
 20
24.2899778878
 11
-33.2836490176
 21
23.2836490176
  0
LINE
  5
68D
100
AcDbEntity
  8
DRAFT
100
AcDbLine
 62
7
  6
CONTINUOUS
 10
-32.5161638825
 20
23.2838361175
 11
-32.5166130935
 21
24.3188257213
  0
LINE
  5
68E
100
AcDbEntity
  8
DRAFT
100
AcDbLine
 62
7
  6
CONTINUOUS
 10
-0.387367066
 20
-24.0963811041
 11
-0.386825176
 21
-24.9239459731
  0
LINE
  5
68F
100
AcDbEntity
  8
DRAFT
100
AcDbLine
 62
7
  6
CONTINUOUS
 10
-0.387367066
 20
-24.0963811041
 11
-0.0000000662
 21
-24.0963822329
  0
LINE
  5
690
100
AcDbEntity
  8
RACCORDO
100
AcDbLine
 62
7
  6
CONTINUOUS
 10
-24.0936921335
 20
-22.5139773169
 11
-24.0936121457
 21
-22.593840603
  0
LINE
  5
691
100
AcDbEntity
  8
RACCORDO
100
AcDbLine
 62
7
  6
CONTINUOUS
 10
-23.9235710347
 20
-23.2856614158
 11
-32.5161638825
 21
-23.2838361175
  0
LINE
  5
692
100
AcDbEntity
  8
DRAFT
100
AcDbLine
 62
7
  6
CONTINUOUS
 10
-32.5166130935
 20
-24.3188257213
 11
-32.5161638825
 21
-23.2838361175
  0
LINE
  5
693
100
AcDbEntity
  8
DRAFT
100
AcDbLine
 62
7
  6
CONTINUOUS
 10
-33.2836490176
 20
-23.2836490176
 11
-33.2832230899
 21
-24.2899778992
  0
LINE
  5
694
100
AcDbEntity
  8
DRAFT
100
AcDbLine
 62
7
  6
CONTINUOUS
 10
-33.6701914197
 20
-23.283553349
 11
-33.2836490176
 21
-23.2836490176
  0
LINE
  5
695
100
AcDbEntity
  8
DRAFT
100
AcDbLine
 62
7
  6
CONTINUOUS
 10
-33.2839617601
 20
-22.5160382399
 11
-33.6668552305
 21
-22.5161369759
  0
SPLINE
  5
696
100
AcDbEntity
  8
DRAFT
100
AcDbSpline
 62
7
  6
CONTINUOUS
 70
0
 71
3
 72
9
 73
5
 74
3
 42
0.0000001
 43
0.0000001
 44
0.0000000001
 12
0.0001529562
 22
-22.1275705334
 32
0.0
 13
0.0088637971
 23
-22.1275687586
 33
0.0
 40
0.0
 40
0.0
 40
0.0
 40
0.0
 40
0.250082741
 40
1.0
 40
1.0
 40
1.0
 40
1.0
 10
-33.2884682452
 20
-0.3884682452
 30
0.0
 10
-33.2884554946
 20
-2.2330427423
 30
0.0
 10
-33.2880413833
 20
-9.6088995797
 30
0.0
 10
-33.2861774649
 20
-16.9847563362
 30
0.0
 10
-33.2839617601
 20
-22.5160382399
 30
0.0
 11
-33.2884682452
 21
-0.3884682452
 31
0.0
 11
-33.2881576975
 21
-5.922191728
 31
0.0
 11
-33.2839617601
 21
-22.5160382399
 31
0.0
  0
LINE
  5
697
100
AcDbEntity
  8
DRAFT
100
AcDbLine
 62
7
  6
CONTINUOUS
 10
-33.6189940249
 20
-0.3883338037
 11
-33.2884682452
 21
-0.3884682452
  0
LINE
  5
698
100
AcDbEntity
  8
DRAFT
100
AcDbLine
 62
7
  6
CONTINUOUS
 10
-24.2616980601
 20
-0.0000013011
 11
-24.2613930097
 21
-0.3916207834
  0
SPLINE
  5
699
100
AcDbEntity
  8
DRAFT
100
AcDbSpline
 62
7
  6
CONTINUOUS
 70
0
 71
3
 72
9
 73
5
 74
3
 42
0.0000001
 43
0.0000001
 44
0.0000000001
 12
8.2498277513
 22
-0.0032598744
 32
0.0
 13
8.2498280392
 23
-0.0024239333
 33
0.0
 40
0.0
 40
0.0
 40
0.0
 40
0.0
 40
0.2499560304
 40
1.0
 40
1.0
 40
1.0
 40
1.0
 10
-32.5112209136
 20
-0.3887790864
 30
0.0
 10
-31.8238561817
 20
-0.3890506948
 30
0.0
 10
-29.0739135843
 20
-0.3901024405
 30
0.0
 10
-26.3239709335
 20
-0.3910147645
 30
0.0
 10
-24.2613930097
 20
-0.3916207834
 30
0.0
 11
-32.5112209136
 21
-0.3887790864
 31
0.0
 11
-30.4491267076
 21
-0.3895677644
 31
0.0
 11
-24.2613930097
 21
-0.3916207834
 31
0.0
  0
SPLINE
  5
69A
100
AcDbEntity
  8
DRAFT
100
AcDbSpline
 62
7
  6
CONTINUOUS
 70
0
 71
3
 72
9
 73
5
 74
3
 42
0.0000001
 43
0.0000001
 44
0.0000000001
 12
0.0090848455
 22
22.1270628002
 32
0.0
 13
0.0001573799
 23
22.1270646646
 33
0.0
 40
0.0
 40
0.0
 40
0.0
 40
0.0
 40
0.2498797351
 40
1.0
 40
1.0
 40
1.0
 40
1.0
 10
-32.5158431844
 20
-22.5158431844
 30
0.0
 10
-32.5150864782
 20
-20.6728083204
 30
0.0
 10
-32.5124301091
 20
-13.2971205724
 30
0.0
 10
-32.5112602649
 20
-5.9214322886
 30
0.0
 10
-32.5112209136
 20
-0.3887790864
 30
0.0
 11
-32.5158431844
 21
-22.5158431844
 31
0.0
 11
-32.513851751
 21
-16.9867384849
 31
0.0
 11
-32.5112209136
 21
-0.3887790864
 31
0.0
  0
LINE
  5
69B
100
AcDbEntity
  8
DRAFT
100
AcDbLine
 62
7
  6
CONTINUOUS
 10
-24.0936921335
 20
-22.5139773169
 11
-32.5158431844
 21
-22.5158431844
  0
LINE
  5
69C
100
AcDbEntity
  8
DRAFT
100
AcDbLine
 62
7
  6
CONTINUOUS
 10
0.387367066
 20
24.0963811041
 11
0.386825176
 21
24.9239459731
  0
LINE
  5
69D
100
AcDbEntity
  8
DRAFT
100
AcDbLine
 62
7
  6
CONTINUOUS
 10
0.387367066
 20
24.0963811041
 11
-0.0000000819
 21
24.0963822329
  0
LINE
  5
69E
100
AcDbEntity
  8
RACCORDO
100
AcDbLine
 62
7
  6
CONTINUOUS
 10
24.0936921335
 20
22.5139773169
 11
24.0936121457
 21
22.593840603
  0
LINE
  5
69F
100
AcDbEntity
  8
RACCORDO
100
AcDbLine
 62
7
  6
CONTINUOUS
 10
23.9235710347
 20
23.2856614158
 11
32.5161638825
 21
23.2838361175
  0
LINE
  5
6A0
100
AcDbEntity
  8
DRAFT
100
AcDbLine
 62
7
  6
CONTINUOUS
 10
32.5166130935
 20
24.3188257213
 11
32.5161638825
 21
23.2838361175
  0
LINE
  5
6A1
100
AcDbEntity
  8
DRAFT
100
AcDbLine
 62
7
  6
CONTINUOUS
 10
33.2836490176
 20
23.2836490176
 11
33.2832230899
 21
24.2899778992
  0
LINE
  5
6A2
100
AcDbEntity
  8
DRAFT
100
AcDbLine
 62
7
  6
CONTINUOUS
 10
33.6701914197
 20
23.283553349
 11
33.2836490176
 21
23.2836490176
  0
LINE
  5
6A3
100
AcDbEntity
  8
DRAFT
100
AcDbLine
 62
7
  6
CONTINUOUS
 10
33.2839617601
 20
22.5160382399
 11
33.6668552305
 21
22.5161369759
  0
SPLINE
  5
6A4
100
AcDbEntity
  8
DRAFT
100
AcDbSpline
 62
7
  6
CONTINUOUS
 70
0
 71
3
 72
9
 73
5
 74
3
 42
0.0000001
 43
0.0000001
 44
0.0000000001
 12
-0.0001529562
 22
22.1275705334
 32
0.0
 13
-0.0088637971
 23
22.1275687586
 33
0.0
 40
0.0
 40
0.0
 40
0.0
 40
0.0
 40
0.250082741
 40
1.0
 40
1.0
 40
1.0
 40
1.0
 10
33.2884682452
 20
0.3884682452
 30
0.0
 10
33.2884554946
 20
2.2330427423
 30
0.0
 10
33.2880413833
 20
9.6088995797
 30
0.0
 10
33.2861774649
 20
16.9847563362
 30
0.0
 10
33.2839617601
 20
22.5160382399
 30
0.0
 11
33.2884682452
 21
0.3884682452
 31
0.0
 11
33.2881576975
 21
5.922191728
 31
0.0
 11
33.2839617601
 21
22.5160382399
 31
0.0
  0
LINE
  5
6A5
100
AcDbEntity
  8
DRAFT
100
AcDbLine
 62
7
  6
CONTINUOUS
 10
33.6189940249
 20
0.3883338037
 11
33.2884682452
 21
0.3884682452
  0
LINE
  5
6A6
100
AcDbEntity
  8
DRAFT
100
AcDbLine
 62
7
  6
CONTINUOUS
 10
24.2616980601
 20
0.0000013011
 11
24.2613930097
 21
0.3916207834
  0
SPLINE
  5
6A7
100
AcDbEntity
  8
DRAFT
100
AcDbSpline
 62
7
  6
CONTINUOUS
 70
0
 71
3
 72
9
 73
5
 74
3
 42
0.0000001
 43
0.0000001
 44
0.0000000001
 12
-8.2498277513
 22
0.0032598744
 32
0.0
 13
-8.2498280392
 23
0.0024239333
 33
0.0
 40
0.0
 40
0.0
 40
0.0
 40
0.0
 40
0.2499560304
 40
1.0
 40
1.0
 40
1.0
 40
1.0
 10
32.5112209136
 20
0.3887790864
 30
0.0
 10
31.8238561817
 20
0.3890506948
 30
0.0
 10
29.0739135843
 20
0.3901024405
 30
0.0
 10
26.3239709335
 20
0.3910147645
 30
0.0
 10
24.2613930097
 20
0.3916207834
 30
0.0
 11
32.5112209136
 21
0.3887790864
 31
0.0
 11
30.4491267076
 21
0.3895677644
 31
0.0
 11
24.2613930097
 21
0.3916207834
 31
0.0
  0
SPLINE
  5
6A8
100
AcDbEntity
  8
DRAFT
100
AcDbSpline
 62
7
  6
CONTINUOUS
 70
0
 71
3
 72
9
 73
5
 74
3
 42
0.0000001
 43
0.0000001
 44
0.0000000001
 12
-0.0090848455
 22
-22.1270628002
 32
0.0
 13
-0.0001573799
 23
-22.1270646646
 33
0.0
 40
0.0
 40
0.0
 40
0.0
 40
0.0
 40
0.2498797351
 40
1.0
 40
1.0
 40
1.0
 40
1.0
 10
32.5158431844
 20
22.5158431844
 30
0.0
 10
32.5150864782
 20
20.6728083204
 30
0.0
 10
32.5124301091
 20
13.2971205724
 30
0.0
 10
32.5112602649
 20
5.9214322886
 30
0.0
 10
32.5112209136
 20
0.3887790864
 30
0.0
 11
32.5158431844
 21
22.5158431844
 31
0.0
 11
32.513851751
 21
16.9867384849
 31
0.0
 11
32.5112209136
 21
0.3887790864
 31
0.0
  0
LINE
  5
6A9
100
AcDbEntity
  8
DRAFT
100
AcDbLine
 62
7
  6
CONTINUOUS
 10
24.0936921335
 20
22.5139773169
 11
32.5158431844
 21
22.5158431844
  0
LINE
  5
6AA
100
AcDbEntity
  8
DRAFT
100
AcDbLine
 62
7
  6
CONTINUOUS
 10
0.386825176
 20
-24.9239459731
 11
0.387367066
 21
-24.0963811041
  0
LINE
  5
6AB
100
AcDbEntity
  8
DRAFT
100
AcDbLine
 62
7
  6
CONTINUOUS
 10
-0.0000000662
 20
-24.0963822329
 11
0.387367066
 21
-24.0963811041
  0
LINE
  5
6AC
100
AcDbEntity
  8
RACCORDO
100
AcDbLine
 62
7
  6
CONTINUOUS
 10
32.5161638825
 20
-23.2838361175
 11
23.9235710347
 21
-23.2856614158
  0
LINE
  5
6AD
100
AcDbEntity
  8
RACCORDO
100
AcDbLine
 62
7
  6
CONTINUOUS
 10
24.0936121457
 20
-22.593840603
 11
24.0936921335
 21
-22.5139773169
  0
LINE
  5
6AE
100
AcDbEntity
  8
DRAFT
100
AcDbLine
 62
7
  6
CONTINUOUS
 10
32.5158431844
 20
-22.5158431844
 11
24.0936921335
 21
-22.5139773169
  0
SPLINE
  5
6AF
100
AcDbEntity
  8
DRAFT
100
AcDbSpline
 62
7
  6
CONTINUOUS
 70
0
 71
3
 72
9
 73
5
 74
3
 42
0.0000001
 43
0.0000001
 44
0.0000000001
 12
0.0001573799
 22
-22.1270646647
 32
0.0
 13
0.0090848455
 23
-22.1270628003
 33
0.0
 40
0.0
 40
0.0
 40
0.0
 40
0.0
 40
0.2500870052
 40
1.0
 40
1.0
 40
1.0
 40
1.0
 10
32.5112209136
 20
-0.3887790864
 30
0.0
 10
32.5112340332
 20
-2.2333428651
 30
0.0
 10
32.5116593075
 20
-9.6090310794
 30
0.0
 10
32.5135722365
 20
-16.9847192077
 30
0.0
 10
32.5158431844
 20
-22.5158431844
 30
0.0
 11
32.5112209136
 21
-0.3887790864
 31
0.0
 11
32.5115397875
 21
-5.9224704136
 31
0.0
 11
32.5158431844
 21
-22.5158431844
 31
0.0
  0
SPLINE
  5
6B0
100
AcDbEntity
  8
DRAFT
100
AcDbSpline
 62
7
  6
CONTINUOUS
 70
0
 71
3
 72
9
 73
5
 74
3
 42
0.0000001
 43
0.0000001
 44
0.0000000001
 12
8.2498280392
 22
0.0024239333
 32
0.0
 13
8.2498277513
 23
0.0032598744
 33
0.0
 40
0.0
 40
0.0
 40
0.0
 40
0.0
 40
0.2500418273
 40
1.0
 40
1.0
 40
1.0
 40
1.0
 10
24.2613930097
 20
-0.3916207834
 30
0.0
 10
24.9489937023
 20
-0.3914187551
 30
0.0
 10
27.6989363717
 20
-0.3905759897
 30
0.0
 10
30.4488789985
 20
-0.3895940095
 30
0.0
 10
32.5112209136
 20
-0.3887790864
 30
0.0
 11
24.2613930097
 21
-0.3916207834
 31
0.0
 11
26.3241950796
 21
-0.3909885981
 31
0.0
 11
32.5112209136
 21
-0.3887790864
 31
0.0
  0
LINE
  5
6B1
100
AcDbEntity
  8
DRAFT
100
AcDbLine
 62
7
  6
CONTINUOUS
 10
24.2613930097
 20
-0.3916207834
 11
24.2616980601
 21
0.0000013011
  0
LINE
  5
6B2
100
AcDbEntity
  8
DRAFT
100
AcDbLine
 62
7
  6
CONTINUOUS
 10
33.2884682452
 20
-0.3884682452
 11
33.6189940249
 21
-0.3883338037
  0
SPLINE
  5
6B3
100
AcDbEntity
  8
DRAFT
100
AcDbSpline
 62
7
  6
CONTINUOUS
 70
0
 71
3
 72
9
 73
5
 74
3
 42
0.0000001
 43
0.0000001
 44
0.0000000001
 12
0.0088637971
 22
22.1275687586
 32
0.0
 13
0.0001529562
 23
22.1275705334
 33
0.0
 40
0.0
 40
0.0
 40
0.0
 40
0.0
 40
0.2498855248
 40
1.0
 40
1.0
 40
1.0
 40
1.0
 10
33.2839617601
 20
-22.5160382399
 30
0.0
 10
33.2847000716
 20
-20.6729185294
 30
0.0
 10
33.2872909042
 20
-13.2970621353
 30
0.0
 10
33.2884300003
 20
-5.9212052314
 30
0.0
 10
33.2884682452
 20
-0.3884682452
 30
0.0
 11
33.2839617601
 21
-22.5160382399
 31
0.0
 11
33.2859042443
 21
-16.9866790061
 31
0.0
 11
33.2884682452
 21
-0.3884682452
 31
0.0
  0
LINE
  5
6B4
100
AcDbEntity
  8
DRAFT
100
AcDbLine
 62
7
  6
CONTINUOUS
 10
33.6668552305
 20
-22.5161369759
 11
33.2839617601
 21
-22.5160382399
  0
LINE
  5
6B5
100
AcDbEntity
  8
DRAFT
100
AcDbLine
 62
7
  6
CONTINUOUS
 10
33.2836490176
 20
-23.2836490176
 11
33.6701914197
 21
-23.283553349
  0
LINE
  5
6B6
100
AcDbEntity
  8
DRAFT
100
AcDbLine
 62
7
  6
CONTINUOUS
 10
33.2832230899
 20
-24.2899778878
 11
33.2836490176
 21
-23.2836490176
  0
LINE
  5
6B7
100
AcDbEntity
  8
DRAFT
100
AcDbLine
 62
7
  6
CONTINUOUS
 10
32.5161638825
 20
-23.2838361175
 11
32.5166130935
 21
-24.3188257213
  0
SPLINE
  5
6B8
100
AcDbEntity
  8
RACCORDO
100
AcDbSpline
 62
7
  6
CONTINUOUS
 70
0
 71
3
 72
15
 73
11
 74
9
 42
0.0000001
 43
0.0000001
 44
0.0000000001
 12
1.3054418052
 22
0.0684196477
 32
0.0
 13
0.073518508
 23
1.3051645811
 33
0.0
 40
0.0
 40
0.0
 40
0.0
 40
0.0
 40
0.1248187328
 40
0.249758859
 40
0.3747968058
 40
0.499895534
 40
0.6250096736
 40
0.7500918519
 40
0.8750993316
 40
1.0
 40
1.0
 40
1.0
 40
1.0
 10
56.2578535516
 20
-36.5865660585
 30
0.0
 10
56.3121680822
 20
-36.5837193739
 30
0.0
 10
56.4205915565
 20
-36.5681427771
 30
0.0
 10
56.5761929685
 20
-36.5157599612
 30
0.0
 10
56.7198424651
 20
-36.4358796101
 30
0.0
 10
56.8465467129
 20
-36.3310713981
 30
0.0
 10
56.9519726194
 20
-36.2048545225
 30
0.0
 10
57.032548696
 20
-36.0615280143
 30
0.0
 10
57.0856455575
 20
-35.9060763166
 30
0.0
 10
57.1016750005
 20
-35.7976498916
 30
0.0
 10
57.1047358374
 20
-35.7433112487
 30
0.0
 11
56.2578535516
 21
-36.5865660585
 31
0.0
 11
56.4193567398
 21
-36.5633224169
 31
0.0
 11
56.5741431589
 21
-36.5112021508
 31
0.0
 11
56.7169855947
 21
-36.4317466098
 31
0.0
 11
56.8429928377
 21
-36.3275098598
 31
0.0
 11
56.9478421744
 21
-36.2019856329
 31
0.0
 11
57.0279880186
 21
-36.0594630258
 31
0.0
 11
57.0808174511
 21
-35.9048241655
 31
0.0
 11
57.1047358374
 21
-35.7433112487
 31
0.0
  0
SPLINE
  5
6B9
100
AcDbEntity
  8
DRAFT
100
AcDbSpline
 62
7
  6
CONTINUOUS
 70
0
 71
3
 72
9
 73
5
 74
3
 42
0.0000001
 43
0.0000001
 44
0.0000000001
 12
0.0093906016
 22
14.2503200008
 32
0.0
 13
0.0058160234
 23
14.250321908
 33
0.0
 40
0.0
 40
0.0
 40
0.0
 40
0.0
 40
0.2498293992
 40
1.0
 40
1.0
 40
1.0
 40
1.0
 10
33.2864719723
 20
-37.5443945824
 30
0.0
 10
33.2872539884
 20
-36.3576782874
 30
0.0
 10
33.2902348659
 20
-31.6075715233
 30
0.0
 10
33.2926191994
 20
-26.8574643849
 30
0.0
 10
33.294073536
 20
-23.294073536
 30
0.0
 11
33.2864719723
 21
-37.5443945824
 31
0.0
 11
33.2887061769
 21
-33.9842456256
 31
0.0
 11
33.294073536
 21
-23.294073536
 31
0.0
  0
SPLINE
  5
6BA
100
AcDbEntity
  8
DRAFT
100
AcDbSpline
 62
7
  6
CONTINUOUS
 70
0
 71
3
 72
9
 73
5
 74
3
 42
0.0000001
 43
0.0000001
 44
0.0000000001
 12
24.390065706
 22
0.0101539741
 32
0.0
 13
24.3900614457
 23
0.0176329105
 33
0.0
 40
0.0
 40
0.0
 40
0.0
 40
0.0
 40
0.2502044397
 40
1.0
 40
1.0
 40
1.0
 40
1.0
 10
33.294073536
 20
-23.294073536
 30
0.0
 10
35.3282411109
 20
-23.2932266795
 30
0.0
 10
43.4582628804
 20
-23.2895311906
 30
0.0
 10
51.5882840852
 20
-23.2845918842
 30
0.0
 10
57.6841373475
 20
-23.2801848582
 30
0.0
 11
33.294073536
 21
-23.294073536
 31
0.0
 11
39.396576159
 21
-23.2912995583
 31
0.0
 11
57.6841373475
 21
-23.2801848582
 31
0.0
  0
SPLINE
  5
6BB
100
AcDbEntity
  8
RACCORDO
100
AcDbSpline
 62
7
  6
CONTINUOUS
 70
0
 71
3
 72
15
 73
11
 74
9
 42
0.0000001
 43
0.0000001
 44
0.0000000001
 12
0.073518508
 22
-1.3051645811
 32
0.0
 13
1.3054418052
 23
-0.0684196477
 33
0.0
 40
0.0
 40
0.0
 40
0.0
 40
0.0
 40
0.1249006662
 40
0.2499081452
 40
0.3749903228
 40
0.5001044636
 40
0.6252031906
 40
0.7502411382
 40
0.8751812649
 40
1.0
 40
1.0
 40
1.0
 40
1.0
 10
-57.1047358374
 20
-35.7433112487
 30
0.0
 10
-57.1016750006
 20
-35.7976498906
 30
0.0
 10
-57.085645558
 20
-35.9060763144
 30
0.0
 10
-57.0325486975
 20
-36.0615280107
 30
0.0
 10
-56.9519726217
 20
-36.2048545193
 30
0.0
 10
-56.8465467159
 20
-36.3310713951
 30
0.0
 10
-56.7198424682
 20
-36.4358796078
 30
0.0
 10
-56.5761929721
 20
-36.5157599598
 30
0.0
 10
-56.4205915587
 20
-36.5681427766
 30
0.0
 10
-56.3121680832
 20
-36.5837193738
 30
0.0
 10
-56.2578535516
 20
-36.5865660585
 30
0.0
 11
-57.1047358374
 21
-35.7433112487
 31
0.0
 11
-57.0808174518
 21
-35.9048241626
 31
0.0
 11
-57.0279880201
 21
-36.0594630223
 31
0.0
 11
-56.9478421771
 21
-36.201985629
 31
0.0
 11
-56.8429928399
 21
-36.3275098575
 31
0.0
 11
-56.7169855986
 21
-36.4317466071
 31
0.0
 11
-56.5741431623
 21
-36.5112021493
 31
0.0
 11
-56.4193567427
 21
-36.5633224162
 31
0.0
 11
-56.2578535516
 21
-36.5865660585
 31
0.0
  0
SPLINE
  5
6BC
100
AcDbEntity
  8
DRAFT
100
AcDbSpline
 62
7
  6
CONTINUOUS
 70
0
 71
3
 72
9
 73
5
 74
3
 42
0.0000001
 43
0.0000001
 44
0.0000000001
 12
24.3900614458
 22
-0.0176329105
 32
0.0
 13
24.390065706
 23
-0.0101539741
 33
0.0
 40
0.0
 40
0.0
 40
0.0
 40
0.0
 40
0.2497764087
 40
1.0
 40
1.0
 40
1.0
 40
1.0
 10
-57.6841373475
 20
-23.2801848582
 30
0.0
 10
-55.6534500285
 20
-23.2816529532
 30
0.0
 10
-47.5234293235
 20
-23.2872179102
 30
0.0
 10
-39.3934077643
 20
-23.2915342857
 30
0.0
 10
-33.294073536
 20
-23.294073536
 30
0.0
 11
-57.6841373475
 21
-23.2801848582
 31
0.0
 11
-51.5920752259
 21
-23.2843550463
 31
0.0
 11
-33.294073536
 21
-23.294073536
 31
0.0
  0
SPLINE
  5
6BD
100
AcDbEntity
  8
DRAFT
100
AcDbSpline
 62
7
  6
CONTINUOUS
 70
0
 71
3
 72
9
 73
5
 74
3
 42
0.0000001
 43
0.0000001
 44
0.0000000001
 12
0.0058160234
 22
-14.250321908
 32
0.0
 13
0.0093906016
 23
-14.2503200007
 33
0.0
 40
0.0
 40
0.0
 40
0.0
 40
0.0
 40
0.2501575828
 40
1.0
 40
1.0
 40
1.0
 40
1.0
 10
-33.294073536
 20
-23.294073536
 30
0.0
 10
-33.2935885619
 20
-24.4823488971
 30
0.0
 10
-33.2915012433
 20
-29.2324561379
 30
0.0
 10
-33.2888191294
 20
-33.9825631175
 30
0.0
 10
-33.2864719723
 20
-37.5443945824
 30
0.0
 11
-33.294073536
 21
-23.294073536
 31
0.0
 11
-33.2925070232
 21
-26.8588995719
 31
0.0
 11
-33.2864719723
 21
-37.5443945824
 31
0.0
  0
SPLINE
  5
6BE
100
AcDbEntity
  8
RACCORDO
100
AcDbSpline
 62
7
  6
CONTINUOUS
 70
0
 71
3
 72
15
 73
11
 74
9
 42
0.0000001
 43
0.0000001
 44
0.0000000001
 12
-1.3054418052
 22
-0.0684196477
 32
0.0
 13
-0.073518508
 23
-1.3051645811
 33
0.0
 40
0.0
 40
0.0
 40
0.0
 40
0.0
 40
0.1248187328
 40
0.249758859
 40
0.3747968058
 40
0.499895534
 40
0.6250096736
 40
0.7500918519
 40
0.8750993316
 40
1.0
 40
1.0
 40
1.0
 40
1.0
 10
-56.2578535516
 20
36.5865660585
 30
0.0
 10
-56.3121680822
 20
36.5837193739
 30
0.0
 10
-56.4205915565
 20
36.5681427771
 30
0.0
 10
-56.5761929685
 20
36.5157599612
 30
0.0
 10
-56.7198424651
 20
36.4358796101
 30
0.0
 10
-56.8465467129
 20
36.3310713981
 30
0.0
 10
-56.9519726194
 20
36.2048545225
 30
0.0
 10
-57.032548696
 20
36.0615280143
 30
0.0
 10
-57.0856455575
 20
35.9060763166
 30
0.0
 10
-57.1016750005
 20
35.7976498916
 30
0.0
 10
-57.1047358374
 20
35.7433112487
 30
0.0
 11
-56.2578535516
 21
36.5865660585
 31
0.0
 11
-56.4193567398
 21
36.5633224169
 31
0.0
 11
-56.5741431589
 21
36.5112021508
 31
0.0
 11
-56.7169855947
 21
36.4317466098
 31
0.0
 11
-56.8429928377
 21
36.3275098598
 31
0.0
 11
-56.9478421744
 21
36.2019856329
 31
0.0
 11
-57.0279880186
 21
36.0594630258
 31
0.0
 11
-57.0808174511
 21
35.9048241655
 31
0.0
 11
-57.1047358374
 21
35.7433112487
 31
0.0
  0
SPLINE
  5
6BF
100
AcDbEntity
  8
DRAFT
100
AcDbSpline
 62
7
  6
CONTINUOUS
 70
0
 71
3
 72
9
 73
5
 74
3
 42
0.0000001
 43
0.0000001
 44
0.0000000001
 12
-0.0093906016
 22
-14.2503200008
 32
0.0
 13
-0.0058160234
 23
-14.250321908
 33
0.0
 40
0.0
 40
0.0
 40
0.0
 40
0.0
 40
0.2498293992
 40
1.0
 40
1.0
 40
1.0
 40
1.0
 10
-33.2864719723
 20
37.5443945824
 30
0.0
 10
-33.2872539884
 20
36.3576782874
 30
0.0
 10
-33.2902348659
 20
31.6075715233
 30
0.0
 10
-33.2926191994
 20
26.8574643849
 30
0.0
 10
-33.294073536
 20
23.294073536
 30
0.0
 11
-33.2864719723
 21
37.5443945824
 31
0.0
 11
-33.2887061769
 21
33.9842456256
 31
0.0
 11
-33.294073536
 21
23.294073536
 31
0.0
  0
SPLINE
  5
6C0
100
AcDbEntity
  8
DRAFT
100
AcDbSpline
 62
7
  6
CONTINUOUS
 70
0
 71
3
 72
9
 73
5
 74
3
 42
0.0000001
 43
0.0000001
 44
0.0000000001
 12
-24.390065706
 22
-0.0101539741
 32
0.0
 13
-24.3900614457
 23
-0.0176329105
 33
0.0
 40
0.0
 40
0.0
 40
0.0
 40
0.0
 40
0.2502044397
 40
1.0
 40
1.0
 40
1.0
 40
1.0
 10
-33.294073536
 20
23.294073536
 30
0.0
 10
-35.3282411109
 20
23.2932266795
 30
0.0
 10
-43.4582628804
 20
23.2895311906
 30
0.0
 10
-51.5882840852
 20
23.2845918842
 30
0.0
 10
-57.6841373475
 20
23.2801848582
 30
0.0
 11
-33.294073536
 21
23.294073536
 31
0.0
 11
-39.396576159
 21
23.2912995583
 31
0.0
 11
-57.6841373475
 21
23.2801848582
 31
0.0
  0
SPLINE
  5
6C1
100
AcDbEntity
  8
RACCORDO
100
AcDbSpline
 62
7
  6
CONTINUOUS
 70
0
 71
3
 72
15
 73
11
 74
9
 42
0.0000001
 43
0.0000001
 44
0.0000000001
 12
-0.073518508
 22
1.3051645811
 32
0.0
 13
-1.3054418052
 23
0.0684196477
 33
0.0
 40
0.0
 40
0.0
 40
0.0
 40
0.0
 40
0.1249006662
 40
0.2499081452
 40
0.3749903228
 40
0.5001044636
 40
0.6252031906
 40
0.7502411382
 40
0.8751812649
 40
1.0
 40
1.0
 40
1.0
 40
1.0
 10
57.1047358374
 20
35.7433112487
 30
0.0
 10
57.1016750006
 20
35.7976498906
 30
0.0
 10
57.085645558
 20
35.9060763144
 30
0.0
 10
57.0325486975
 20
36.0615280107
 30
0.0
 10
56.9519726217
 20
36.2048545193
 30
0.0
 10
56.8465467159
 20
36.3310713951
 30
0.0
 10
56.7198424682
 20
36.4358796078
 30
0.0
 10
56.5761929721
 20
36.5157599598
 30
0.0
 10
56.4205915587
 20
36.5681427766
 30
0.0
 10
56.3121680832
 20
36.5837193738
 30
0.0
 10
56.2578535516
 20
36.5865660585
 30
0.0
 11
57.1047358374
 21
35.7433112487
 31
0.0
 11
57.0808174518
 21
35.9048241626
 31
0.0
 11
57.0279880201
 21
36.0594630223
 31
0.0
 11
56.9478421771
 21
36.201985629
 31
0.0
 11
56.8429928399
 21
36.3275098575
 31
0.0
 11
56.7169855986
 21
36.4317466071
 31
0.0
 11
56.5741431623
 21
36.5112021493
 31
0.0
 11
56.4193567427
 21
36.5633224162
 31
0.0
 11
56.2578535516
 21
36.5865660585
 31
0.0
  0
SPLINE
  5
6C2
100
AcDbEntity
  8
DRAFT
100
AcDbSpline
 62
7
  6
CONTINUOUS
 70
0
 71
3
 72
9
 73
5
 74
3
 42
0.0000001
 43
0.0000001
 44
0.0000000001
 12
-24.3900614458
 22
0.0176329105
 32
0.0
 13
-24.390065706
 23
0.0101539741
 33
0.0
 40
0.0
 40
0.0
 40
0.0
 40
0.0
 40
0.2497764087
 40
1.0
 40
1.0
 40
1.0
 40
1.0
 10
57.6841373475
 20
23.2801848582
 30
0.0
 10
55.6534500285
 20
23.2816529532
 30
0.0
 10
47.5234293235
 20
23.2872179102
 30
0.0
 10
39.3934077643
 20
23.2915342857
 30
0.0
 10
33.294073536
 20
23.294073536
 30
0.0
 11
57.6841373475
 21
23.2801848582
 31
0.0
 11
51.5920752259
 21
23.2843550463
 31
0.0
 11
33.294073536
 21
23.294073536
 31
0.0
  0
SPLINE
  5
6C3
100
AcDbEntity
  8
DRAFT
100
AcDbSpline
 62
7
  6
CONTINUOUS
 70
0
 71
3
 72
9
 73
5
 74
3
 42
0.0000001
 43
0.0000001
 44
0.0000000001
 12
-0.0058160234
 22
14.250321908
 32
0.0
 13
-0.0093906016
 23
14.2503200007
 33
0.0
 40
0.0
 40
0.0
 40
0.0
 40
0.0
 40
0.2501575828
 40
1.0
 40
1.0
 40
1.0
 40
1.0
 10
33.294073536
 20
23.294073536
 30
0.0
 10
33.2935885619
 20
24.4823488971
 30
0.0
 10
33.2915012433
 20
29.2324561379
 30
0.0
 10
33.2888191294
 20
33.9825631175
 30
0.0
 10
33.2864719723
 20
37.5443945824
 30
0.0
 11
33.294073536
 21
23.294073536
 31
0.0
 11
33.2925070232
 21
26.8588995719
 31
0.0
 11
33.2864719723
 21
37.5443945824
 31
0.0
  0
ELLIPSE
  5
6C4
100
AcDbEntity
  8
RACCORDO
100
AcDbEllipse
 62
7
  6
CONTINUOUS
 10
540.0
 20
558.5026411517
 30
0.0
 11
0.0
 21
932.3548968974
 31
0.0
 40
0.8007313262
 41
-4.0749892646
 42
-4.0748196796
  0
ELLIPSE
  5
6C5
100
AcDbEntity
  8
RACCORDO
100
AcDbEllipse
 62
7
  6
CONTINUOUS
 10
540.0
 20
-558.5026411517
 30
0.0
 11
0.0
 21
932.3548968974
 31
0.0
 40
0.8007313262
 41
0.933227026
 42
0.933396611
  0
ELLIPSE
  5
6C6
100
AcDbEntity
  8
RACCORDO
100
AcDbEllipse
 62
7
  6
CONTINUOUS
 10
-540.0
 20
-558.5026411517
 30
0.0
 11
0.0
 21
932.3548968974
 31
0.0
 40
0.8007313262
 41
-0.933396611
 42
-0.933227026
  0
ELLIPSE
  5
6C7
100
AcDbEntity
  8
RACCORDO
100
AcDbEllipse
 62
7
  6
CONTINUOUS
 10
-540.0
 20
558.5026411517
 30
0.0
 11
0.0
 21
932.3548968974
 31
0.0
 40
0.8007313262
 41
-2.2083656276
 42
-2.2081960426
  0
ELLIPSE
  5
6C8
100
AcDbEntity
  8
0
100
AcDbEllipse
 62
7
  6
CONTINUOUS
 10
-22.1999543016
 20
-22.1999543016
 30
0.0
 11
0.2121966568
 21
0.2121966568
 31
0.0
 40
0.9996954599
 41
2.3563467834
 42
3.9268385237
  0
ELLIPSE
  5
6C9
100
AcDbEntity
  8
0
100
AcDbEllipse
 62
7
  6
CONTINUOUS
 10
-22.1999543016
 20
22.1999543016
 30
0.0
 11
0.2121966567
 21
-0.2121966568
 31
0.0
 40
0.9996954599
 41
2.3563467834
 42
3.9268385237
  0
ELLIPSE
  5
6CA
100
AcDbEntity
  8
0
100
AcDbEllipse
 62
7
  6
CONTINUOUS
 10
22.1999543016
 20
22.1999543016
 30
0.0
 11
0.2121966568
 21
0.2121966568
 31
0.0
 40
0.9996954599
 41
-0.7852458701
 42
0.7852458701
  0
ELLIPSE
  5
6CB
100
AcDbEntity
  8
0
100
AcDbEllipse
 62
7
  6
CONTINUOUS
 10
22.1999543016
 20
-22.1999543016
 30
0.0
 11
-0.2121966568
 21
0.2121966568
 31
0.0
 40
0.9996954599
 41
-3.9268385237
 42
-2.3563467834
  0
ELLIPSE
  5
6CC
100
AcDbEntity
  8
RACCORDO
100
AcDbEllipse
 62
7
  6
CONTINUOUS
 10
22.1799390688
 20
-22.1799390688
 30
0.0
 11
-0.2829288757
 21
0.2829288757
 31
0.0
 40
0.9996954599
 41
2.3563467834
 42
3.9268385237
  0
ELLIPSE
  5
6CD
100
AcDbEntity
  8
RACCORDO
100
AcDbEllipse
 62
7
  6
CONTINUOUS
 10
-22.1799390688
 20
-22.1799390688
 30
0.0
 11
0.2829288757
 21
0.2829288757
 31
0.0
 40
0.9996954599
 41
2.3563467834
 42
3.9268385237
  0
ELLIPSE
  5
6CE
100
AcDbEntity
  8
RACCORDO
100
AcDbEllipse
 62
7
  6
CONTINUOUS
 10
-22.1799390688
 20
22.1799390688
 30
0.0
 11
0.2829288757
 21
-0.2829288757
 31
0.0
 40
0.9996954599
 41
2.3563467834
 42
3.9268385237
  0
ELLIPSE
  5
6CF
100
AcDbEntity
  8
RACCORDO
100
AcDbEllipse
 62
7
  6
CONTINUOUS
 10
22.1799390688
 20
22.1799390688
 30
0.0
 11
-0.2829288757
 21
-0.2829288757
 31
0.0
 40
0.9996954599
 41
2.3563467834
 42
3.9268385237
  0
ELLIPSE
  5
6D0
100
AcDbEntity
  8
DRAFT
100
AcDbEllipse
 62
7
  6
CONTINUOUS
 10
539.4531725686
 20
-0.0
 30
0.0
 11
597.7685563519
 21
0.0000001199
 31
0.0
 40
0.9999995816
 41
-3.1116410299
 42
-3.1086323814
  0
ELLIPSE
  5
6D1
100
AcDbEntity
  8
DRAFT
100
AcDbEllipse
 62
7
  6
CONTINUOUS
 10
539.4531725686
 20
-0.0
 30
0.0
 11
597.7685563519
 21
-0.0000000034
 31
0.0
 40
0.9999995816
 41
-3.1159911681
 42
-3.1129851274
  0
ELLIPSE
  5
6D2
100
AcDbEntity
  8
DRAFT
100
AcDbEllipse
 62
7
  6
CONTINUOUS
 10
539.4531725686
 20
-0.0
 30
0.0
 11
597.7685563519
 21
0.0000001421
 31
0.0
 40
0.9999995816
 41
3.1129851271
 42
3.1159911679
  0
ELLIPSE
  5
6D3
100
AcDbEntity
  8
DRAFT
100
AcDbEllipse
 62
7
  6
CONTINUOUS
 10
539.4531725686
 20
-0.0
 30
0.0
 11
597.7685563519
 21
-0.0000001843
 31
0.0
 40
0.9999995816
 41
3.1086323815
 42
3.11164103
  0
ELLIPSE
  5
6D4
100
AcDbEntity
  8
RACCORDO
100
AcDbEllipse
 62
7
  6
CONTINUOUS
 10
540.0
 20
-557.0057648499
 30
0.0
 11
0.0
 21
929.8560368255
 31
0.0
 40
0.8007313262
 41
0.9332396665
 42
0.9334097056
  0
ELLIPSE
  5
6D5
100
AcDbEntity
  8
RACCORDO
100
AcDbEllipse
 62
7
  6
CONTINUOUS
 10
540.0
 20
557.0057648499
 30
0.0
 11
0.0
 21
929.8560368255
 31
0.0
 40
0.8007313262
 41
-4.0750023592
 42
-4.07483232
  0
ELLIPSE
  5
6D6
100
AcDbEntity
  8
DRAFT
100
AcDbEllipse
 62
7
  6
CONTINUOUS
 10
-539.4531725686
 20
0.0
 30
0.0
 11
597.7685563519
 21
-0.0000000039
 31
0.0
 40
0.9999995816
 41
0.0299488649
 42
0.0329630332
  0
ELLIPSE
  5
6D7
100
AcDbEntity
  8
DRAFT
100
AcDbEllipse
 62
7
  6
CONTINUOUS
 10
-539.4531725686
 20
0.0
 30
0.0
 11
597.7685563519
 21
-0.0000000959
 31
0.0
 40
0.9999995816
 41
0.0255987268
 42
0.0286102867
  0
ELLIPSE
  5
6D8
100
AcDbEntity
  8
DRAFT
100
AcDbEllipse
 62
7
  6
CONTINUOUS
 10
-539.4531725686
 20
0.0
 30
0.0
 11
597.7685563519
 21
0.0000000922
 31
0.0
 40
0.9999995816
 41
-0.0286102867
 42
-0.0255987268
  0
ELLIPSE
  5
6D9
100
AcDbEntity
  8
DRAFT
100
AcDbEllipse
 62
7
  6
CONTINUOUS
 10
-539.4531725686
 20
0.0
 30
0.0
 11
597.7685563519
 21
-0.0000001697
 31
0.0
 40
0.9999995816
 41
-0.0329630329
 42
-0.0299488646
  0
ELLIPSE
  5
6DA
100
AcDbEntity
  8
RACCORDO
100
AcDbEllipse
 62
7
  6
CONTINUOUS
 10
32.5588213967
 20
-32.9413486316
 30
0.0
 11
-0.0
 21
0.5
 31
0.0
 40
0.0087268678
 41
-1.5707963268
 42
-0.0174532925
  0
ELLIPSE
  5
6DB
100
AcDbEntity
  8
RACCORDO
100
AcDbEllipse
 62
7
  6
CONTINUOUS
 10
23.3017369991
 20
-23.3017369991
 30
0.0
 11
2.1278922349
 21
-0.0066228029
 31
0.0
 40
0.0068853245
 41
1.1601114927
 42
1.2692402319
  0
ELLIPSE
  5
6DC
100
AcDbEntity
  8
RACCORDO
100
AcDbEllipse
 62
7
  6
CONTINUOUS
 10
23.9784762447
 20
-23.9784762447
 30
0.0
 11
3.3455582109
 21
-1.3857755847
 31
0.0
 40
0.171609829
 41
1.6550872533
 42
1.6581308847
  0
ELLIPSE
  5
6DD
100
AcDbEntity
  8
RACCORDO
100
AcDbEllipse
 62
7
  6
CONTINUOUS
 10
33.2411786033
 20
32.9413486316
 30
0.0
 11
0.0
 21
0.5
 31
0.0
 40
0.0087268678
 41
-4.7123889804
 42
-3.1590459461
  0
ELLIPSE
  5
6DE
100
AcDbEntity
  8
RACCORDO
100
AcDbEllipse
 62
7
  6
CONTINUOUS
 10
55.5413486316
 20
23.2411786033
 30
0.0
 11
0.5
 21
0.0
 31
0.0
 40
0.0087268678
 41
-3.1241393611
 42
-1.5707963268
  0
ELLIPSE
  5
6DF
100
AcDbEntity
  8
RACCORDO
100
AcDbEllipse
 62
7
  6
CONTINUOUS
 10
55.5064385017
 20
-0.3586323389
 30
0.0
 11
0.5
 21
-0.0
 31
0.0
 40
0.0087268678
 41
1.5707963268
 42
3.1241393611
  0
ELLIPSE
  5
6E0
100
AcDbEntity
  8
RACCORDO
100
AcDbEllipse
 62
7
  6
CONTINUOUS
 10
55.5413486316
 20
-22.5588213967
 30
0.0
 11
0.5
 21
-0.0
 31
0.0
 40
0.0087268678
 41
-3.1241393611
 42
-1.5707963268
  0
ELLIPSE
  5
6E1
100
AcDbEntity
  8
RACCORDO
100
AcDbEllipse
 62
7
  6
CONTINUOUS
 10
-55.5064385017
 20
0.3586323389
 30
0.0
 11
0.5
 21
0.0
 31
0.0
 40
0.0087268678
 41
-1.5707963268
 42
-0.0174532925
  0
ELLIPSE
  5
6E2
100
AcDbEntity
  8
RACCORDO
100
AcDbEllipse
 62
7
  6
CONTINUOUS
 10
-55.5413486316
 20
22.5588213967
 30
0.0
 11
0.5
 21
0.0
 31
0.0
 40
0.0087268678
 41
0.0174532925
 42
1.5707963268
  0
ELLIPSE
  5
6E3
100
AcDbEntity
  8
RACCORDO
100
AcDbEllipse
 62
7
  6
CONTINUOUS
 10
55.5413486316
 20
22.5588213967
 30
0.0
 11
0.5
 21
-0.0
 31
0.0
 40
0.0087268678
 41
1.5707963268
 42
3.1241393611
  0
ELLIPSE
  5
6E4
100
AcDbEntity
  8
RACCORDO
100
AcDbEllipse
 62
7
  6
CONTINUOUS
 10
55.5064385017
 20
0.3586323389
 30
0.0
 11
0.5
 21
0.0
 31
0.0
 40
0.0087268678
 41
-3.1241393611
 42
-1.5707963268
  0
ELLIPSE
  5
6E5
100
AcDbEntity
  8
RACCORDO
100
AcDbEllipse
 62
7
  6
CONTINUOUS
 10
-55.5413486316
 20
23.2411786033
 30
0.0
 11
0.5
 21
0.0
 31
0.0
 40
0.0087268678
 41
-1.5707963268
 42
-0.0174532925
  0
ELLIPSE
  5
6E6
100
AcDbEntity
  8
RACCORDO
100
AcDbEllipse
 62
7
  6
CONTINUOUS
 10
-33.2411786033
 20
32.9413486316
 30
0.0
 11
0.0
 21
0.5
 31
0.0
 40
0.0087268678
 41
-3.1241393611
 42
-1.5707963268
  0
ELLIPSE
  5
6E7
100
AcDbEntity
  8
RACCORDO
100
AcDbEllipse
 62
7
  6
CONTINUOUS
 10
-0.3411786033
 20
-32.9413486316
 30
0.0
 11
0.0
 21
0.5
 31
0.0
 40
0.0087268678
 41
-1.5707963268
 42
-0.0174532925
  0
ELLIPSE
  5
6E8
100
AcDbEntity
  8
RACCORDO
100
AcDbEllipse
 62
7
  6
CONTINUOUS
 10
-22.5841612867
 20
-22.5841612867
 30
0.0
 11
0.5957191214
 21
1.4014724706
 31
0.0
 40
0.9825475652
 41
-3.1135983685
 42
-2.7459655394
  0
ELLIPSE
  5
6E9
100
AcDbEntity
  8
RACCORDO
100
AcDbEllipse
 62
7
  6
CONTINUOUS
 10
0.3411786033
 20
32.9413486316
 30
0.0
 11
0.0
 21
0.5
 31
0.0
 40
0.0087268678
 41
-4.7123889804
 42
-3.1590459461
  0
ELLIPSE
  5
6EA
100
AcDbEntity
  8
RACCORDO
100
AcDbEllipse
 62
7
  6
CONTINUOUS
 10
22.5841612867
 20
22.5841612867
 30
0.0
 11
0.5957191214
 21
1.4014724706
 31
0.0
 40
0.9825475652
 41
0.027994285
 42
0.3956271142
  0
ELLIPSE
  5
6EB
100
AcDbEntity
  8
RACCORDO
100
AcDbEllipse
 62
7
  6
CONTINUOUS
 10
32.5588213967
 20
32.9413486316
 30
0.0
 11
-0.0
 21
0.5
 31
0.0
 40
0.0087268678
 41
-3.1241393611
 42
-1.5707963268
  0
ELLIPSE
  5
6EC
100
AcDbEntity
  8
RACCORDO
100
AcDbEllipse
 62
7
  6
CONTINUOUS
 10
23.3017369991
 20
23.3017369991
 30
0.0
 11
2.1278922349
 21
0.0066228029
 31
0.0
 40
0.0068853245
 41
-1.2692402319
 42
-1.1601114927
  0
ELLIPSE
  5
6ED
100
AcDbEntity
  8
RACCORDO
100
AcDbEllipse
 62
7
  6
CONTINUOUS
 10
-0.3411786033
 20
32.9413486316
 30
0.0
 11
0.0
 21
0.5
 31
0.0
 40
0.0087268678
 41
-3.1241393611
 42
-1.5707963268
  0
ELLIPSE
  5
6EE
100
AcDbEntity
  8
RACCORDO
100
AcDbEllipse
 62
7
  6
CONTINUOUS
 10
-23.3017369991
 20
23.3017369991
 30
0.0
 11
2.1278922349
 21
-0.0066228029
 31
0.0
 40
0.0068853245
 41
-1.9814811609
 42
-1.8723524217
  0
ELLIPSE
  5
6EF
100
AcDbEntity
  8
RACCORDO
100
AcDbEllipse
 62
7
  6
CONTINUOUS
 10
-23.9784762447
 20
23.9784762447
 30
0.0
 11
3.3455582109
 21
-1.3857755847
 31
0.0
 40
0.171609829
 41
-1.4865054003
 42
-1.4834617689
  0
ELLIPSE
  5
6F0
100
AcDbEntity
  8
RACCORDO
100
AcDbEllipse
 62
7
  6
CONTINUOUS
 10
-32.5588213967
 20
32.9413486316
 30
0.0
 11
-0.0
 21
0.5
 31
0.0
 40
0.0087268678
 41
-4.7123889804
 42
-3.1590459461
  0
ELLIPSE
  5
6F1
100
AcDbEntity
  8
RACCORDO
100
AcDbEllipse
 62
7
  6
CONTINUOUS
 10
-55.5064385017
 20
-0.3586323389
 30
0.0
 11
0.5
 21
0.0
 31
0.0
 40
0.0087268678
 41
0.0174532925
 42
1.5707963268
  0
ELLIPSE
  5
6F2
100
AcDbEntity
  8
RACCORDO
100
AcDbEllipse
 62
7
  6
CONTINUOUS
 10
-55.5413486316
 20
-22.5588213967
 30
0.0
 11
0.5
 21
-0.0
 31
0.0
 40
0.0087268678
 41
-1.5707963268
 42
-0.0174532925
  0
ELLIPSE
  5
6F3
100
AcDbEntity
  8
RACCORDO
100
AcDbEllipse
 62
7
  6
CONTINUOUS
 10
-55.5413486316
 20
-23.2411786033
 30
0.0
 11
0.5
 21
-0.0
 31
0.0
 40
0.0087268678
 41
0.0174532925
 42
1.5707963268
  0
ELLIPSE
  5
6F4
100
AcDbEntity
  8
RACCORDO
100
AcDbEllipse
 62
7
  6
CONTINUOUS
 10
-33.2411786033
 20
-32.9413486316
 30
0.0
 11
0.0
 21
0.5
 31
0.0
 40
0.0087268678
 41
-1.5707963268
 42
-0.0174532925
  0
ELLIPSE
  5
6F5
100
AcDbEntity
  8
RACCORDO
100
AcDbEllipse
 62
7
  6
CONTINUOUS
 10
-32.5588213967
 20
-32.9413486316
 30
0.0
 11
0.0
 21
0.5
 31
0.0
 40
0.0087268678
 41
0.0174532925
 42
1.5707963268
  0
ELLIPSE
  5
6F6
100
AcDbEntity
  8
RACCORDO
100
AcDbEllipse
 62
7
  6
CONTINUOUS
 10
-23.3017369991
 20
-23.3017369991
 30
0.0
 11
2.1278922349
 21
0.0066228029
 31
0.0
 40
0.0068853245
 41
1.8723524217
 42
1.9814811609
  0
ELLIPSE
  5
6F7
100
AcDbEntity
  8
RACCORDO
100
AcDbEllipse
 62
7
  6
CONTINUOUS
 10
0.3411786033
 20
-32.9413486316
 30
0.0
 11
0.0
 21
0.5
 31
0.0
 40
0.0087268678
 41
0.0174532925
 42
1.5707963268
  0
ELLIPSE
  5
6F8
100
AcDbEntity
  8
RACCORDO
100
AcDbEllipse
 62
7
  6
CONTINUOUS
 10
33.2411786033
 20
-32.9413486316
 30
0.0
 11
0.0
 21
0.5
 31
0.0
 40
0.0087268678
 41
0.0174532925
 42
1.5707963268
  0
ELLIPSE
  5
6F9
100
AcDbEntity
  8
RACCORDO
100
AcDbEllipse
 62
7
  6
CONTINUOUS
 10
55.5413486316
 20
-23.2411786033
 30
0.0
 11
0.5
 21
-0.0
 31
0.0
 40
0.0087268678
 41
1.5707963268
 42
3.1241393611
  0
ELLIPSE
  5
6FA
100
AcDbEntity
  8
RACCORDO
100
AcDbEllipse
 62
7
  6
CONTINUOUS
 10
-540.0
 20
-557.0057648499
 30
0.0
 11
0.0
 21
929.8560368255
 31
0.0
 40
0.8007313262
 41
-0.9334097056
 42
-0.9332396665
  0
ELLIPSE
  5
6FB
100
AcDbEntity
  8
RACCORDO
100
AcDbEllipse
 62
7
  6
CONTINUOUS
 10
-540.0
 20
557.0057648499
 30
0.0
 11
-0.0
 21
929.8560368255
 31
0.0
 40
0.8007313262
 41
-2.2083529871
 42
-2.208182948
  0
ELLIPSE
  5
6FC
100
AcDbEntity
  8
RACCORDO
100
AcDbEllipse
 62
7
  6
CONTINUOUS
 10
-23.9784762447
 20
-23.9784762447
 30
0.0
 11
3.3455582109
 21
1.3857755847
 31
0.0
 40
0.171609829
 41
1.4834617689
 42
1.4865054003
  0
ELLIPSE
  5
6FD
100
AcDbEntity
  8
RACCORDO
100
AcDbEllipse
 62
7
  6
CONTINUOUS
 10
22.5841612867
 20
-22.5841612867
 30
0.0
 11
-0.5957191214
 21
1.4014724706
 31
0.0
 40
0.9825475652
 41
-3.5372197678
 42
-3.1695869386
  0
ELLIPSE
  5
6FE
100
AcDbEntity
  8
RACCORDO
100
AcDbEllipse
 62
7
  6
CONTINUOUS
 10
23.9784762447
 20
23.9784762447
 30
0.0
 11
3.3455582109
 21
1.3857755847
 31
0.0
 40
0.171609829
 41
-1.6581308847
 42
-1.6550872533
  0
ELLIPSE
  5
6FF
100
AcDbEntity
  8
RACCORDO
100
AcDbEllipse
 62
7
  6
CONTINUOUS
 10
-22.5841612867
 20
22.5841612867
 30
0.0
 11
-0.5957191214
 21
1.4014724706
 31
0.0
 40
0.9825475652
 41
-0.3956271142
 42
-0.027994285
  0
ELLIPSE
  5
700
100
AcDbEntity
  8
RACCORDO
100
AcDbEllipse
 62
7
  6
CONTINUOUS
 10
23.6929570428
 20
8.743017974
 30
0.0
 11
0.4
 21
-0.0
 31
0.0
 40
0.0174550649
 41
1.3353334253
 42
1.5707963268
  0
ELLIPSE
  5
701
100
AcDbEntity
  8
RACCORDO
100
AcDbEllipse
 62
7
  6
CONTINUOUS
 10
-23.6929570428
 20
-13.756982026
 30
0.0
 11
0.4
 21
-0.0
 31
0.0
 40
0.0174550649
 41
1.5707963268
 42
1.8062592283
  0
ELLIPSE
  5
702
100
AcDbEntity
  8
RACCORDO
100
AcDbEllipse
 62
7
  6
CONTINUOUS
 10
-23.6929570428
 20
-8.743017974
 30
0.0
 11
0.4
 21
-0.0
 31
0.0
 40
0.0174550649
 41
-1.8062592283
 42
-1.5707963268
  0
ELLIPSE
  5
703
100
AcDbEntity
  8
RACCORDO
100
AcDbEllipse
 62
7
  6
CONTINUOUS
 10
23.6929570428
 20
13.756982026
 30
0.0
 11
0.4
 21
-0.0
 31
0.0
 40
0.0174550649
 41
-1.5707963268
 42
-1.3353334253
  0
ELLIPSE
  5
704
100
AcDbEntity
  8
RACCORDO
100
AcDbEllipse
 62
7
  6
CONTINUOUS
 10
-47.4
 20
0.3787041348
 30
0.0
 11
0.4
 21
0.0
 31
0.0
 40
0.0087268678
 41
1.5707963268
 42
2.984901363
  0
ELLIPSE
  5
705
100
AcDbEntity
  8
RACCORDO
100
AcDbEllipse
 62
7
  6
CONTINUOUS
 10
-47.4
 20
-0.3787041348
 30
0.0
 11
0.4
 21
0.0
 31
0.0
 40
0.0087268678
 41
-2.9849013637
 42
-1.5707963268
  0
ELLIPSE
  5
706
100
AcDbEntity
  8
RACCORDO
100
AcDbEllipse
 62
7
  6
CONTINUOUS
 10
47.4
 20
-0.3787041348
 30
0.0
 11
0.4
 21
-0.0
 31
0.0
 40
0.0087268678
 41
-1.5707963268
 42
-0.1566912906
  0
ELLIPSE
  5
707
100
AcDbEntity
  8
RACCORDO
100
AcDbEllipse
 62
7
  6
CONTINUOUS
 10
47.4
 20
0.3787041348
 30
0.0
 11
0.4
 21
-0.0
 31
0.0
 40
0.0087268678
 41
0.1566912904
 42
1.5707963268
  0
ELLIPSE
  5
708
100
AcDbEntity
  8
RACCORDO
100
AcDbEllipse
 62
7
  6
CONTINUOUS
 10
-22.8940097504
 20
-13.4499543016
 30
0.0
 11
0.2121966568
 21
-0.2121966567
 31
0.0
 40
0.9996954599
 41
-0.7852458702
 42
-0.7680971641
  0
ELLIPSE
  5
709
100
AcDbEntity
  8
RACCORDO
100
AcDbEllipse
 62
7
  6
CONTINUOUS
 10
22.8940097504
 20
9.0500456984
 30
0.0
 11
0.2121966568
 21
0.2121966567
 31
0.0
 40
0.9996954599
 41
-2.3734954894
 42
-2.3563467834
  0
ELLIPSE
  5
70A
100
AcDbEntity
  8
RACCORDO
100
AcDbEllipse
 62
7
  6
CONTINUOUS
 10
-22.8940097504
 20
-9.0500456984
 30
0.0
 11
0.2121966568
 21
0.2121966567
 31
0.0
 40
0.9996954599
 41
0.7680971641
 42
0.7852458702
  0
ELLIPSE
  5
70B
100
AcDbEntity
  8
RACCORDO
100
AcDbEllipse
 62
7
  6
CONTINUOUS
 10
22.8940097504
 20
13.4499543016
 30
0.0
 11
0.2121966568
 21
-0.2121966567
 31
0.0
 40
0.9996954599
 41
2.3563467834
 42
2.3734954895
  0
ENDSEC
  0
SECTION
  2
OBJECTS
  0
DICTIONARY
  5
C
100
AcDbDictionary
280
0
281
1
  3
ACAD_GROUP
350
D
  3
ACAD_MLINESTYLE
350
17
  3
ACAD_LAYOUT
350
1A
  3
ACAD_PLOTSETTINGS
350
19
  3
ACAD_PLOTSTYLENAME
350
E
  0
DICTIONARY
  5
D
102
{ACAD_REACTORS
330
C
102
}
100
AcDbDictionary
280
0
281
1
  0
ACDBDICTIONARYWDFLT
  5
E
102
{ACAD_REACTORS
330
C
102
}
100
AcDbDictionary
281
1
  3
Normal
350
F
100
AcDbDictionaryWithDefault
340
F
  0
DICTIONARY
  5
17
102
{ACAD_REACTORS
330
C
102
}
100
AcDbDictionary
280
0
281
1
  3
Standard
350
18
  0
DICTIONARY
  5
19
102
{ACAD_REACTORS
330
C
102
}
100
AcDbDictionary
281
1
  0
DICTIONARY
  5
1A
102
{ACAD_REACTORS
330
C
102
}
100
AcDbDictionary
281
1
  3
Model
350
70C
  3
Layout1
350
70D
  0
ACDBPLACEHOLDER
  5
F
102
{ACAD_REACTORS
330
E
102
}
  0
MLINESTYLE
  5
18
102
{ACAD_REACTORS
330
17
102
}
100
AcDbMlineStyle
  2
STANDARD
 70
0
  3

 62
256
 51
90.0
 52
90.0
 71
2
 49
0.5
 62
256
  6
BYLAYER
 49
-0.5
 62
256
  6
BYLAYER
  0
LAYOUT
  5
70C
102
{ACAD_REACTORS
330
1A
102
}
100
AcDbPlotSettings
  1

  2
none_device
  4
ISO_A4_(297.00_x_210.00_MM)
  6

 40
0.0
 41
0.0
 42
0.0
 43
0.0
 44
297.0
 45
210.0
 46
0.0
 47
0.0
 48
0.0
 49
0.0
140
0.0
141
0.0
142
1.0
143
1.0
 70
1024
 72
1
 73
0
 74
0
  7

 75
0
147
1.0
148
0.0
149
0.0
100
AcDbLayout
  1
Model
 70
0
 71
0
 10
0.0
 20
0.0
 11
297.0
 21
210.0
 12
0.0
 22
0.0
 32
0.0
 14
0.0
 24
0.0
 34
0.0
 15
0.0
 25
0.0
 35
0.0
146
0.0
 13
0.0
 23
0.0
 33
0.0
 16
1.0
 26
0.0
 36
0.0
 17
0.0
 27
1.0
 37
0.0
 76
0
330
20F
345
0
346
0
  0
LAYOUT
  5
70D
102
{ACAD_REACTORS
330
1A
102
}
100
AcDbPlotSettings
  1

  2
none_device
  4
ISO_A4_(297.00_x_210.00_MM)
  6

 40
0.0
 41
0.0
 42
0.0
 43
0.0
 44
297.0
 45
210.0
 46
0.0
 47
0.0
 48
0.0
 49
0.0
140
0.0
141
0.0
142
1.0
143
1.0
 70
0
 72
1
 73
0
 74
0
  7

 75
0
147
1.0
148
0.0
149
0.0
100
AcDbLayout
  1
Layout1
 70
0
 71
1
 10
0.0
 20
0.0
 11
297.0
 21
210.0
 12
0.0
 22
0.0
 32
0.0
 14
0.0
 24
0.0
 34
0.0
 15
0.0
 25
0.0
 35
0.0
146
0.0
 13
0.0
 23
0.0
 33
0.0
 16
1.0
 26
0.0
 36
0.0
 17
0.0
 27
1.0
 37
0.0
 76
0
330
210
345
0
346
0
  0
ENDSEC
  0
EOF
