  0
SECTION
  2
HEADER
  9
$ACADVER
  1
AC1015
  9
$DWGCODEPAGE
  3
ANSI_1252
  9
$EXTMAX
 10
297.0
 20
210.0
 30
0.0
  9
$EXTMIN
 10
0.0
 20
0.0
 30
0.0
  9
$LIMMIN
 10
0.0
 20
0.0
  9
$LIMMAX
 10
297.0
 20
210.0
  9
$VIEWCTR
 10
148.5
 20
105.0
  9
$VIEWSIZE
 40
210.0
  9
$CLAYER
  8
0
  9
$LTSCALE
 40
16.335
  9
$CELTYPE
  6
BYLAYER
  9
$DIMSCALE
 40
1.0
  9
$DIMASZ
 40
3.0
  9
$DIMEXO
 40
1.85625
  9
$DIMDLI
 40
11.286
  9
$DIMEXE
 40
5.346
  9
$DIMCEN
 40
2.673
  9
$DIMLFAC
 40
1.0
  9
$DIMBLK
  1
_FILLED
  9
$DIMTXT
 40
3.0
  9
$DIMTOL
 70
1
  9
$DIMLIM
 70
0
  9
$DIMTFAC
 40
1.0
  9
$DIMTP
 40
0.01
  9
$DIMTM
 40
0.01
  9
$PDMODE
 70
3
  9
$PDSIZE
 40
3.0
  9
$HANDSEED
  5
743
  9
$TILEMODE
 70
1
  9
$MEASUREMENT
 70
1
  9
$INSUNITS
 70
4
  0
ENDSEC
  0
SECTION
  2
CLASSES
  0
CLASS
  1
ACDBDICTIONARYWDFLT
  2
AcDbDictionaryWithDefault
  3
AutoCAD 2000
 90
0
280
0
281
0
  0
CLASS
  1
ACDBPLACEHOLDER
  2
AcDbPlaceHolder
  3
AutoCAD 2000
 90
0
280
0
281
0
  0
CLASS
  1
LAYOUT
  2
AcDbLayout
  3
AutoCAD 2000
 90
0
280
0
281
0
  0
ENDSEC
  0
SECTION
  2
TABLES
  0
TABLE
  2
VPORT
  5
8
100
AcDbSymbolTable
 70
2
  0
VPORT
  5
1F4
100
AcDbSymbolTableRecord
100
AcDbViewportTableRecord
  2
*ACTIVE
 70
0
 10
0.0
 20
0.0
 11
1.0
 21
1.0
 12
148.5
 22
105.0
 13
0.0
 23
0.0
 14
1.0
 24
1.0
 15
0.0
 25
0.0
 16
0.0
 26
0.0
 36
1.0
 17
0.0
 27
0.0
 37
0.0
 40
210.0
 41
1.4142857143
 42
50.0
 43
0.0
 44
0.0
 50
0.0
 51
0.0
 71
0
 72
100
 73
1
 74
1
 75
0
 76
0
 77
0
 78
0
  0
ENDTAB
  0
TABLE
  2
LTYPE
  5
5
100
AcDbSymbolTable
 70
6
  0
LTYPE
  5
14
100
AcDbSymbolTableRecord
100
AcDbLinetypeTableRecord
  2
BYBLOCK
 70
0
  3

 72
65
 73
0
 40
0.0
  0
LTYPE
  5
15
100
AcDbSymbolTableRecord
100
AcDbLinetypeTableRecord
  2
BYLAYER
 70
0
  3

 72
65
 73
0
 40
0.0
  0
LTYPE
  5
16
100
AcDbSymbolTableRecord
100
AcDbLinetypeTableRecord
  2
CONTINUOUS
 70
64
  3
Solid line
 72
65
 73
0
 40
0.0
  0
LTYPE
  5
1F5
100
AcDbSymbolTableRecord
100
AcDbLinetypeTableRecord
  2
CENTER
 70
64
  3
____ _ ____ _ ____ _ ____ _ ____ _ ____ _ ____
 72
65
 73
4
 40
0.6
 49
0.375
 74
0
 49
-0.075
 74
0
 49
0.075
 74
0
 49
-0.075
 74
0
  0
LTYPE
  5
1F6
100
AcDbSymbolTableRecord
100
AcDbLinetypeTableRecord
  2
HIDDEN
 70
64
  3
- - - - - - - - - - - - - - - - - - - -
 72
65
 73
2
 40
0.2
 49
0.1
 74
0
 49
-0.1
 74
0
  0
LTYPE
  5
1F7
100
AcDbSymbolTableRecord
100
AcDbLinetypeTableRecord
  2
PHANTOM
 70
64
  3
_____ _ _ _____ _ _ _____ _ _ _____
 72
65
 73
6
 40
0.8
 49
0.45
 74
0
 49
-0.05
 74
0
 49
0.1
 74
0
 49
-0.05
 74
0
 49
0.1
 74
0
 49
-0.05
 74
0
  0
LTYPE
  5
1F8
100
AcDbSymbolTableRecord
100
AcDbLinetypeTableRecord
  2
DOT
 70
64
  3
. . . . . . . . . . . . . . . . . . . .
 72
65
 73
2
 40
0.2
 49
0.1
 74
0
 49
-0.1
 74
0
  0
LTYPE
  5
1F9
100
AcDbSymbolTableRecord
100
AcDbLinetypeTableRecord
  2
DASHED
 70
64
  3
- - - - - - - - - - - - - - - - - - - -
 72
65
 73
2
 40
0.2
 49
0.1
 74
0
 49
-0.1
 74
0
  0
ENDTAB
  0
TABLE
  2
LAYER
  5
2
100
AcDbSymbolTable
 70
36
  0
LAYER
  5
10
100
AcDbSymbolTableRecord
100
AcDbLayerTableRecord
  2
0
 70
0
 62
7
  6
CONTINUOUS
370
-3
390
F
  0
LAYER
  5
1FA
100
AcDbSymbolTableRecord
100
AcDbLayerTableRecord
  2
DEFAULT_1
 70
0
 62
7
  6
CENTER
370
-3
390
F
  0
LAYER
  5
1FB
100
AcDbSymbolTableRecord
100
AcDbLayerTableRecord
  2
DEFAULT_2
 70
0
 62
7
  6
HIDDEN
370
-3
390
F
  0
LAYER
  5
1FC
100
AcDbSymbolTableRecord
100
AcDbLayerTableRecord
  2
DEFAULT_3
 70
0
 62
7
  6
PHANTOM
370
-3
390
F
  0
LAYER
  5
1FD
100
AcDbSymbolTableRecord
100
AcDbLayerTableRecord
  2
ASSI
 70
0
 62
7
  6
CONTINUOUS
370
-3
390
F
  0
LAYER
  5
1FE
100
AcDbSymbolTableRecord
100
AcDbLayerTableRecord
  2
COORDINATE
 70
0
 62
7
  6
CONTINUOUS
370
-3
390
F
  0
LAYER
  5
1FF
100
AcDbSymbolTableRecord
100
AcDbLayerTableRecord
  2
COPY_PUBLISH
 70
0
 62
7
  6
CONTINUOUS
370
-3
390
F
  0
LAYER
  5
200
100
AcDbSymbolTableRecord
100
AcDbLayerTableRecord
  2
COSMETIC
 70
0
 62
7
  6
CONTINUOUS
370
-3
390
F
  0
LAYER
  5
201
100
AcDbSymbolTableRecord
100
AcDbLayerTableRecord
  2
CURVE
 70
0
 62
7
  6
CONTINUOUS
370
-3
390
F
  0
LAYER
  5
202
100
AcDbSymbolTableRecord
100
AcDbLayerTableRecord
  2
DRAFT
 70
0
 62
7
  6
CONTINUOUS
370
-3
390
F
  0
LAYER
  5
203
100
AcDbSymbolTableRecord
100
AcDbLayerTableRecord
  2
IMPORT_IGES
 70
0
 62
7
  6
CONTINUOUS
370
-3
390
F
  0
LAYER
  5
204
100
AcDbSymbolTableRecord
100
AcDbLayerTableRecord
  2
INTFCLR_1
 70
0
 62
7
  6
CONTINUOUS
370
-3
390
F
  0
LAYER
  5
205
100
AcDbSymbolTableRecord
100
AcDbLayerTableRecord
  2
NOTE
 70
0
 62
7
  6
CONTINUOUS
370
-3
390
F
  0
LAYER
  5
206
100
AcDbSymbolTableRecord
100
AcDbLayerTableRecord
  2
PIANI
 70
0
 62
7
  6
CONTINUOUS
370
-3
390
F
  0
LAYER
  5
207
100
AcDbSymbolTableRecord
100
AcDbLayerTableRecord
  2
PUNTI
 70
0
 62
7
  6
CONTINUOUS
370
-3
390
F
  0
LAYER
  5
208
100
AcDbSymbolTableRecord
100
AcDbLayerTableRecord
  2
RACCORDO
 70
0
 62
7
  6
CONTINUOUS
370
-3
390
F
  0
LAYER
  5
209
100
AcDbSymbolTableRecord
100
AcDbLayerTableRecord
  2
SNAPLINE
 70
0
 62
7
  6
CONTINUOUS
370
-3
390
F
  0
LAYER
  5
20A
100
AcDbSymbolTableRecord
100
AcDbLayerTableRecord
  2
SUPERFICI
 70
0
 62
7
  6
CONTINUOUS
370
-3
390
F
  0
LAYER
  5
20B
100
AcDbSymbolTableRecord
100
AcDbLayerTableRecord
  2
TRASH
 70
0
 62
7
  6
CONTINUOUS
370
-3
390
F
  0
LAYER
  5
20C
100
AcDbSymbolTableRecord
100
AcDbLayerTableRecord
  2
XSEC_DATUMS
 70
0
 62
7
  6
CONTINUOUS
370
-3
390
F
  0
ENDTAB
  0
TABLE
  2
STYLE
  5
3
100
AcDbSymbolTable
 70
1
  0
STYLE
  5
11
100
AcDbSymbolTableRecord
100
AcDbTextStyleTableRecord
  2
STANDARD
 70
0
 40
0.0
 41
0.8
 50
0.0
 71
0
 42
0.2
  3
txt
  4

  0
STYLE
  5
20D
100
AcDbSymbolTableRecord
100
AcDbTextStyleTableRecord
  2
TEXTSTYLE_1
 70
0
 40
0.0
 41
0.8
 50
0.0
 71
0
 42
0.2
  3
gdt
  4

  0
ENDTAB
  0
TABLE
  2
VIEW
  5
6
100
AcDbSymbolTable
 70
0
  0
ENDTAB
  0
TABLE
  2
UCS
  5
7
100
AcDbSymbolTable
 70
0
  0
ENDTAB
  0
TABLE
  2
APPID
  5
9
100
AcDbSymbolTable
 70
1
  0
APPID
  5
20E
100
AcDbSymbolTableRecord
100
AcDbRegAppTableRecord
  2
ACAD
 70
0
  0
ENDTAB
  0
TABLE
  2
BLOCK_RECORD
  5
1
100
AcDbSymbolTable
 70
0
  0
BLOCK_RECORD
  5
20F
100
AcDbSymbolTableRecord
100
AcDbBlockTableRecord
  2
*Model_Space
  0
BLOCK_RECORD
  5
210
100
AcDbSymbolTableRecord
100
AcDbBlockTableRecord
  2
*Paper_Space
  0
ENDTAB
  0
TABLE
  2
DIMSTYLE
  5
A
100
AcDbSymbolTable
 70
1
100
AcDbDimStyleTable
 71
0
  0
DIMSTYLE
105
211
100
AcDbSymbolTableRecord
100
AcDbDimStyleTableRecord
  2
STANDARD
 70
0
  3

  4

 40
1.0
 41
3.0
 42
0.0625
 43
0.38
 44
0.18
 45
0.0
 46
0.0
 47
0.01
 48
0.01
140
3.0
141
0.09
142
0.0
143
25.4
144
1.0
145
0.0
146
1.0
147
0.09
 71
1.0
 72
0.0
 73
0
 74
0
 75
0
 76
0
 77
1
 78
8
170
0
171
2
172
0
173
0
174
0
175
0
176
0
177
0
178
0
270
2
271
2
272
2
273
2
274
2
275
0
280
0
281
0
282
0
283
1
284
8
285
0
286
0
287
3
288
0
340
11
  0
ENDTAB
  0
ENDSEC
  0
SECTION
  2
BLOCKS
  0
BLOCK
  5
20
100
AcDbEntity
  8
0
100
AcDbBlockBegin
  2
*Model_Space
 70
0
 10
0.0
 20
0.0
 30
0.0
  3
*Model_Space
  1

  0
ENDBLK
  5
21
100
AcDbEntity
  8
0
100
AcDbBlockEnd
  0
BLOCK
  5
1C
100
AcDbEntity
  8
0
100
AcDbBlockBegin
  2
*Paper_Space
 70
0
 10
0.0
 20
0.0
 30
0.0
  3
*Paper_Space
  1

  0
ENDBLK
  5
1D
100
AcDbEntity
  8
0
100
AcDbBlockEnd
  0
ENDSEC
  0
SECTION
  2
ENTITIES
  0
LINE
  5
212
100
AcDbEntity
  8
DRAFT
100
AcDbLine
 62
7
  6
CONTINUOUS
 10
-56.75
 20
19.7119409303
 11
-56.75
 21
17.8880590697
  0
LINE
  5
213
100
AcDbEntity
  8
DRAFT
100
AcDbLine
 62
7
  6
CONTINUOUS
 10
-56.75
 20
17.1119409303
 11
-56.75
 21
15.2880590697
  0
LINE
  5
214
100
AcDbEntity
  8
DRAFT
100
AcDbLine
 62
7
  6
CONTINUOUS
 10
-56.75
 20
-15.2880590697
 11
-56.75
 21
-17.1119409303
  0
LINE
  5
215
100
AcDbEntity
  8
DRAFT
100
AcDbLine
 62
7
  6
CONTINUOUS
 10
-56.75
 20
-17.8880590697
 11
-56.75
 21
-19.7119409303
  0
LINE
  5
216
100
AcDbEntity
  8
DRAFT
100
AcDbLine
 62
7
  6
CONTINUOUS
 10
-55.85
 20
14.5497867518
 11
-55.85
 21
14.5
  0
LINE
  5
217
100
AcDbEntity
  8
DRAFT
100
AcDbLine
 62
7
  6
CONTINUOUS
 10
-55.85
 20
-20.4502132482
 11
-55.85
 21
-20.4963228931
  0
LINE
  5
218
100
AcDbEntity
  8
DRAFT
100
AcDbLine
 62
7
  6
CONTINUOUS
 10
-55.85
 20
-14.5497867518
 11
-55.85
 21
-14.5
  0
LINE
  5
219
100
AcDbEntity
  8
DRAFT
100
AcDbLine
 62
7
  6
CONTINUOUS
 10
-55.85
 20
20.4502132482
 11
-55.85
 21
20.4963228931
  0
LINE
  5
21A
100
AcDbEntity
  8
RACCORDO
100
AcDbLine
 62
253
  6
CONTINUOUS
 10
-55.5413486316
 20
-23.2358147024
 11
-55.5413486316
 21
-22.5641852976
  0
LINE
  5
21B
100
AcDbEntity
  8
RACCORDO
100
AcDbLine
 62
253
  6
CONTINUOUS
 10
-55.5413486316
 20
22.5641852976
 11
-55.5413486316
 21
23.2358147024
  0
LINE
  5
21C
100
AcDbEntity
  8
RACCORDO
100
AcDbLine
 62
253
  6
CONTINUOUS
 10
-55.5064385017
 20
0.353268438
 11
-55.5064385017
 21
-0.353268438
  0
LINE
  5
21D
100
AcDbEntity
  8
DRAFT
100
AcDbLine
 62
7
  6
CONTINUOUS
 10
-55.4069219382
 20
20.4048300794
 11
-55.4069219382
 21
19.723661795
  0
LINE
  5
21E
100
AcDbEntity
  8
DRAFT
100
AcDbLine
 62
7
  6
CONTINUOUS
 10
-55.4069219382
 20
17.876338205
 11
-55.4069219382
 21
17.123661795
  0
LINE
  5
21F
100
AcDbEntity
  8
DRAFT
100
AcDbLine
 62
7
  6
CONTINUOUS
 10
-55.4069219382
 20
15.276338205
 11
-55.4069219382
 21
14.5951699206
  0
LINE
  5
220
100
AcDbEntity
  8
DRAFT
100
AcDbLine
 62
7
  6
CONTINUOUS
 10
-55.4069219382
 20
-20.4048300794
 11
-55.4069219382
 21
-19.723661795
  0
LINE
  5
221
100
AcDbEntity
  8
DRAFT
100
AcDbLine
 62
7
  6
CONTINUOUS
 10
-55.4069219382
 20
-17.876338205
 11
-55.4069219382
 21
-17.123661795
  0
LINE
  5
222
100
AcDbEntity
  8
DRAFT
100
AcDbLine
 62
7
  6
CONTINUOUS
 10
-55.4069219382
 20
-15.276338205
 11
-55.4069219382
 21
-14.5951699206
  0
LINE
  5
223
100
AcDbEntity
  8
RACCORDO
100
AcDbLine
 62
253
  6
CONTINUOUS
 10
-55.041424784
 20
-23.2401019839
 11
-55.041424784
 21
-22.5598980161
  0
LINE
  5
224
100
AcDbEntity
  8
RACCORDO
100
AcDbLine
 62
253
  6
CONTINUOUS
 10
-55.041424784
 20
22.5598980161
 11
-55.041424784
 21
23.2401019839
  0
LINE
  5
225
100
AcDbEntity
  8
RACCORDO
100
AcDbLine
 62
253
  6
CONTINUOUS
 10
-55.0065146541
 20
0.3575557194
 11
-55.0065146541
 21
-0.3575557194
  0
LINE
  5
226
100
AcDbEntity
  8
RACCORDO
100
AcDbLine
 62
253
  6
CONTINUOUS
 10
-54.9964645355
 20
-0.362580396
 11
-54.9964645355
 21
0.362580396
  0
LINE
  5
227
100
AcDbEntity
  8
RACCORDO
100
AcDbLine
 62
253
  6
CONTINUOUS
 10
-54.9953791707
 20
-23.2631230371
 11
-54.9953791707
 21
-22.5368769629
  0
LINE
  5
228
100
AcDbEntity
  8
RACCORDO
100
AcDbLine
 62
253
  6
CONTINUOUS
 10
-54.9953791707
 20
22.5368769629
 11
-54.9953791707
 21
23.2631230371
  0
LINE
  5
229
100
AcDbEntity
  8
RACCORDO
100
AcDbLine
 62
253
  6
CONTINUOUS
 10
-54.7681630556
 20
-0.3650769937
 11
-54.7681630556
 21
0.3650769937
  0
LINE
  5
22A
100
AcDbEntity
  8
RACCORDO
100
AcDbLine
 62
253
  6
CONTINUOUS
 10
-54.7543154663
 20
-23.2656444677
 11
-54.7543154663
 21
-22.5343555323
  0
LINE
  5
22B
100
AcDbEntity
  8
RACCORDO
100
AcDbLine
 62
253
  6
CONTINUOUS
 10
-54.7543154663
 20
22.5343555323
 11
-54.7543154663
 21
23.2656444677
  0
LINE
  5
22C
100
AcDbEntity
  8
DRAFT
100
AcDbLine
 62
7
  6
CONTINUOUS
 10
-54.7
 20
-14.58455477
 11
-54.7
 21
-15.2701689907
  0
LINE
  5
22D
100
AcDbEntity
  8
DRAFT
100
AcDbLine
 62
7
  6
CONTINUOUS
 10
-54.7
 20
-17.1298310093
 11
-54.7
 21
-17.8701689907
  0
LINE
  5
22E
100
AcDbEntity
  8
DRAFT
100
AcDbLine
 62
7
  6
CONTINUOUS
 10
-54.7
 20
-20.41544523
 11
-54.7
 21
-19.7298310093
  0
LINE
  5
22F
100
AcDbEntity
  8
DRAFT
100
AcDbLine
 62
7
  6
CONTINUOUS
 10
-54.7
 20
14.58455477
 11
-54.7
 21
15.2701689907
  0
LINE
  5
230
100
AcDbEntity
  8
DRAFT
100
AcDbLine
 62
7
  6
CONTINUOUS
 10
-54.7
 20
17.1298310093
 11
-54.7
 21
17.8701689907
  0
LINE
  5
231
100
AcDbEntity
  8
DRAFT
100
AcDbLine
 62
7
  6
CONTINUOUS
 10
-54.7
 20
19.7298310093
 11
-54.7
 21
20.41544523
  0
LINE
  5
232
100
AcDbEntity
  8
RACCORDO
100
AcDbLine
 62
7
  6
CONTINUOUS
 10
-37.7662037007
 20
-37.5078327986
 11
-38.1670359247
 21
-37.1070005745
  0
LINE
  5
233
100
AcDbEntity
  8
RACCORDO
100
AcDbLine
 62
253
  6
CONTINUOUS
 10
-48.2177966102
 20
-0.3768532433
 11
-48.2177966102
 21
0.3768532433
  0
LINE
  5
234
100
AcDbEntity
  8
RACCORDO
100
AcDbLine
 62
7
  6
CONTINUOUS
 10
-47.8
 20
-0.3811944149
 11
-47.8
 21
0.3811573023
  0
LINE
  5
235
100
AcDbEntity
  8
DRAFT
100
AcDbLine
 62
7
  6
CONTINUOUS
 10
-44.8274545813
 20
0.3811944149
 11
-44.8274545813
 21
-0.3811944149
  0
LINE
  5
236
100
AcDbEntity
  8
RACCORDO
100
AcDbLine
 62
7
  6
CONTINUOUS
 10
-41.214359354
 20
-38.305486477
 11
-41.214359354
 21
-38.5641883554
  0
LINE
  5
237
100
AcDbEntity
  8
RACCORDO
100
AcDbLine
 62
7
  6
CONTINUOUS
 10
-41.0
 20
-38.3584726941
 11
-41.0
 21
-38.2725161148
  0
LINE
  5
238
100
AcDbEntity
  8
RACCORDO
100
AcDbLine
 62
7
  6
CONTINUOUS
 10
-33.2717150205
 20
32.2781938951
 11
-33.2401019839
 21
32.341424784
  0
LINE
  5
239
100
AcDbEntity
  8
DRAFT
100
AcDbLine
 62
7
  6
CONTINUOUS
 10
-33.284291638
 20
22.5144421512
 11
-33.2921237487
 21
22.5066100405
  0
LINE
  5
23A
100
AcDbEntity
  8
DRAFT
100
AcDbLine
 62
7
  6
CONTINUOUS
 10
-32.5144421512
 20
23.284291638
 11
-32.5066020536
 21
23.2921317356
  0
LINE
  5
23B
100
AcDbEntity
  8
RACCORDO
100
AcDbLine
 62
7
  6
CONTINUOUS
 10
-54.9953791707
 20
23.2631230371
 11
-55.041424784
 21
23.2401019839
  0
LINE
  5
23C
100
AcDbEntity
  8
RACCORDO
100
AcDbLine
 62
7
  6
CONTINUOUS
 10
-54.9953791707
 20
-23.2631230371
 11
-55.041424784
 21
-23.2401019839
  0
LINE
  5
23D
100
AcDbEntity
  8
DRAFT
100
AcDbLine
 62
7
  6
CONTINUOUS
 10
-32.5144421512
 20
-23.284291638
 11
-32.5066020536
 21
-23.2921317356
  0
LINE
  5
23E
100
AcDbEntity
  8
DRAFT
100
AcDbLine
 62
7
  6
CONTINUOUS
 10
-33.284291638
 20
-22.5144421512
 11
-33.2921237487
 21
-22.5066100405
  0
LINE
  5
23F
100
AcDbEntity
  8
RACCORDO
100
AcDbLine
 62
7
  6
CONTINUOUS
 10
-33.2717150205
 20
-32.2781938951
 11
-33.2401019839
 21
-32.341424784
  0
LINE
  5
240
100
AcDbEntity
  8
RACCORDO
100
AcDbLine
 62
7
  6
CONTINUOUS
 10
-37.0
 20
-38.5147169672
 11
-37.0
 21
-38.4891406387
  0
LINE
  5
241
100
AcDbEntity
  8
RACCORDO
100
AcDbLine
 62
7
  6
CONTINUOUS
 10
-36.7856406461
 20
-38.7371417571
 11
-36.7856406461
 21
-38.5388484843
  0
LINE
  5
242
100
AcDbEntity
  8
RACCORDO
100
AcDbLine
 62
253
  6
CONTINUOUS
 10
-35.1972947761
 20
-23.2837270515
 11
-35.1972947761
 21
-22.5162729485
  0
LINE
  5
243
100
AcDbEntity
  8
RACCORDO
100
AcDbLine
 62
253
  6
CONTINUOUS
 10
-35.1972947761
 20
22.5162729485
 11
-35.1972947761
 21
23.2837270515
  0
LINE
  5
244
100
AcDbEntity
  8
RACCORDO
100
AcDbLine
 62
7
  6
CONTINUOUS
 10
-35.0
 20
0.3872257427
 11
-35.0
 21
-0.3872257427
  0
LINE
  5
245
100
AcDbEntity
  8
RACCORDO
100
AcDbLine
 62
7
  6
CONTINUOUS
 10
-35.0
 20
-23.2854722654
 11
-35.0
 21
-22.5145277346
  0
LINE
  5
246
100
AcDbEntity
  8
RACCORDO
100
AcDbLine
 62
7
  6
CONTINUOUS
 10
-35.0
 20
22.5145277346
 11
-35.0
 21
23.2854722654
  0
LINE
  5
247
100
AcDbEntity
  8
RACCORDO
100
AcDbLine
 62
253
  6
CONTINUOUS
 10
-34.8001971572
 20
0.3855578488
 11
-34.8001971572
 21
-0.3855578488
  0
LINE
  5
248
100
AcDbEntity
  8
DRAFT
100
AcDbLine
 62
7
  6
CONTINUOUS
 10
-33.2855578488
 20
-24.0
 11
-33.2855578488
 21
-23.2855578488
  0
LINE
  5
249
100
AcDbEntity
  8
DRAFT
100
AcDbLine
 62
7
  6
CONTINUOUS
 10
-33.2855578488
 20
23.2855578488
 11
-33.2855578488
 21
24.0
  0
LINE
  5
24A
100
AcDbEntity
  8
DRAFT
100
AcDbLine
 62
7
  6
CONTINUOUS
 10
-33.284291638
 20
-22.5144421512
 11
-33.284291638
 21
-0.3855578488
  0
LINE
  5
24B
100
AcDbEntity
  8
DRAFT
100
AcDbLine
 62
7
  6
CONTINUOUS
 10
-33.284291638
 20
0.3855578488
 11
-33.284291638
 21
22.5144421512
  0
LINE
  5
24C
100
AcDbEntity
  8
RACCORDO
100
AcDbLine
 62
7
  6
CONTINUOUS
 10
-33.2358147024
 20
-37.8444548852
 11
-33.2358147024
 21
-32.8413486316
  0
LINE
  5
24D
100
AcDbEntity
  8
RACCORDO
100
AcDbLine
 62
7
  6
CONTINUOUS
 10
-33.2358147024
 20
32.8413486316
 11
-33.2358147024
 21
37.8444548852
  0
LINE
  5
24E
100
AcDbEntity
  8
RACCORDO
100
AcDbLine
 62
7
  6
CONTINUOUS
 10
-32.5641852976
 20
37.86659898
 11
-32.5641852976
 21
32.8413486316
  0
LINE
  5
24F
100
AcDbEntity
  8
RACCORDO
100
AcDbLine
 62
7
  6
CONTINUOUS
 10
-32.5641852976
 20
-32.8413486316
 11
-32.5641852976
 21
-37.86659898
  0
LINE
  5
250
100
AcDbEntity
  8
DRAFT
100
AcDbLine
 62
7
  6
CONTINUOUS
 10
-32.515708362
 20
22.515708362
 11
-32.515708362
 21
0.384291638
  0
LINE
  5
251
100
AcDbEntity
  8
DRAFT
100
AcDbLine
 62
7
  6
CONTINUOUS
 10
-32.515708362
 20
-0.384291638
 11
-32.515708362
 21
-22.515708362
  0
LINE
  5
252
100
AcDbEntity
  8
DRAFT
100
AcDbLine
 62
7
  6
CONTINUOUS
 10
-32.5144421512
 20
-24.0
 11
-32.5144421512
 21
-23.284291638
  0
LINE
  5
253
100
AcDbEntity
  8
DRAFT
100
AcDbLine
 62
7
  6
CONTINUOUS
 10
-32.5144421512
 20
23.284291638
 11
-32.5144421512
 21
24.0
  0
LINE
  5
254
100
AcDbEntity
  8
0
100
AcDbLine
 62
7
  6
CONTINUOUS
 10
29.0
 20
-36.0
 11
5.0
 21
-36.0
  0
LINE
  5
255
100
AcDbEntity
  8
0
100
AcDbLine
 62
7
  6
CONTINUOUS
 10
-5.0
 20
-36.0
 11
-29.0
 21
-36.0
  0
LINE
  5
256
100
AcDbEntity
  8
0
100
AcDbLine
 62
7
  6
CONTINUOUS
 10
-11.406184
 20
-33.656117
 11
-12.58843
 21
-33.656117
  0
LINE
  5
257
100
AcDbEntity
  8
0
100
AcDbLine
 62
7
  6
CONTINUOUS
 10
-12.58843
 20
-33.239452
 11
-12.219175
 21
-33.239452
  0
LINE
  5
258
100
AcDbEntity
  8
0
100
AcDbLine
 62
7
  6
CONTINUOUS
 10
-11.775296
 20
-33.239452
 11
-11.406184
 21
-33.239452
  0
LINE
  5
259
100
AcDbEntity
  8
RACCORDO
100
AcDbLine
 62
253
  6
CONTINUOUS
 10
0.3358147024
 20
-32.9413486316
 11
-0.3358147024
 21
-32.9413486316
  0
LINE
  5
25A
100
AcDbEntity
  8
RACCORDO
100
AcDbLine
 62
253
  6
CONTINUOUS
 10
33.2358147024
 20
-32.8413486316
 11
32.5641852976
 21
-32.8413486316
  0
LINE
  5
25B
100
AcDbEntity
  8
RACCORDO
100
AcDbLine
 62
253
  6
CONTINUOUS
 10
-32.5641852976
 20
-32.8413486316
 11
-33.2358147024
 21
-32.8413486316
  0
LINE
  5
25C
100
AcDbEntity
  8
0
100
AcDbLine
 62
7
  6
CONTINUOUS
 10
7.805084
 20
-32.675
 11
8.047274
 21
-32.675
  0
LINE
  5
25D
100
AcDbEntity
  8
0
100
AcDbLine
 62
7
  6
CONTINUOUS
 10
8.567792
 20
-32.675
 11
8.815156
 21
-32.675
  0
LINE
  5
25E
100
AcDbEntity
  8
0
100
AcDbLine
 62
7
  6
CONTINUOUS
 10
9.335574
 20
-32.675
 11
9.577862
 21
-32.675
  0
LINE
  5
25F
100
AcDbEntity
  8
0
100
AcDbLine
 62
7
  6
CONTINUOUS
 10
9.799458
 20
-32.675
 11
10.057096
 21
-32.675
  0
LINE
  5
260
100
AcDbEntity
  8
0
100
AcDbLine
 62
7
  6
CONTINUOUS
 10
11.175325
 20
-32.675
 11
11.448479
 21
-32.675
  0
LINE
  5
261
100
AcDbEntity
  8
0
100
AcDbLine
 62
7
  6
CONTINUOUS
 10
11.690662
 20
-32.675
 11
12.4404918702
 21
-32.675
  0
LINE
  5
262
100
AcDbEntity
  8
0
100
AcDbLine
 62
7
  6
CONTINUOUS
 10
13.563927
 20
-32.675
 11
14.929621
 21
-32.675
  0
LINE
  5
263
100
AcDbEntity
  8
0
100
AcDbLine
 62
7
  6
CONTINUOUS
 10
16.011852
 20
-32.675
 11
16.26177
 21
-32.675
  0
LINE
  5
264
100
AcDbEntity
  8
0
100
AcDbLine
 62
7
  6
CONTINUOUS
 10
16.689432
 20
-32.675
 11
16.931735
 21
-32.675
  0
LINE
  5
265
100
AcDbEntity
  8
0
100
AcDbLine
 62
7
  6
CONTINUOUS
 10
17.877382
 20
-32.675
 11
18.158226
 21
-32.675
  0
LINE
  5
266
100
AcDbEntity
  8
0
100
AcDbLine
 62
7
  6
CONTINUOUS
 10
19.304792
 20
-32.675
 11
19.554785
 21
-32.675
  0
LINE
  5
267
100
AcDbEntity
  8
0
100
AcDbLine
 62
7
  6
CONTINUOUS
 10
20.448905
 20
-32.675
 11
20.698808
 21
-32.675
  0
LINE
  5
268
100
AcDbEntity
  8
0
100
AcDbLine
 62
7
  6
CONTINUOUS
 10
21.397095
 20
-32.675
 11
21.654719
 21
-32.675
  0
LINE
  5
269
100
AcDbEntity
  8
0
100
AcDbLine
 62
7
  6
CONTINUOUS
 10
22.773052
 20
-32.675
 11
23.046251
 21
-32.675
  0
LINE
  5
26A
100
AcDbEntity
  8
0
100
AcDbLine
 62
7
  6
CONTINUOUS
 10
23.275462
 20
-32.675
 11
24.463412
 21
-32.675
  0
LINE
  5
26B
100
AcDbEntity
  8
0
100
AcDbLine
 62
7
  6
CONTINUOUS
 10
25.246651
 20
-32.675
 11
25.49651
 21
-32.675
  0
LINE
  5
26C
100
AcDbEntity
  8
0
100
AcDbLine
 62
7
  6
CONTINUOUS
 10
12.4341294694
 20
-32.461199
 11
11.94067
 21
-32.461199
  0
LINE
  5
26D
100
AcDbEntity
  8
0
100
AcDbLine
 62
7
  6
CONTINUOUS
 10
24.463412
 20
-32.453419
 11
23.52547
 21
-32.453419
  0
LINE
  5
26E
100
AcDbEntity
  8
0
100
AcDbLine
 62
7
  6
CONTINUOUS
 10
14.929621
 20
-32.453419
 11
13.81392
 21
-32.453419
  0
LINE
  5
26F
100
AcDbEntity
  8
RACCORDO
100
AcDbLine
 62
253
  6
CONTINUOUS
 10
0.3401019839
 20
-32.441424784
 11
-0.3401019839
 21
-32.441424784
  0
LINE
  5
270
100
AcDbEntity
  8
0
100
AcDbLine
 62
7
  6
CONTINUOUS
 10
-30.0
 20
-35.0
 11
-30.0
 21
-28.5
  0
LINE
  5
271
100
AcDbEntity
  8
0
100
AcDbLine
 62
7
  6
CONTINUOUS
 10
-30.0
 20
28.5
 11
-30.0
 21
35.0
  0
LINE
  5
272
100
AcDbEntity
  8
0
100
AcDbLine
 62
7
  6
CONTINUOUS
 10
-22.867986
 20
31.111854
 11
-22.1216
 21
33.727196
  0
LINE
  5
273
100
AcDbEntity
  8
0
100
AcDbLine
 62
7
  6
CONTINUOUS
 10
-21.329028
 20
33.727196
 11
-22.550353
 21
29.927654
  0
LINE
  5
274
100
AcDbEntity
  8
0
100
AcDbLine
 62
7
  6
CONTINUOUS
 10
-17.894359
 20
31.617679
 11
-17.101245
 21
33.727196
  0
LINE
  5
275
100
AcDbEntity
  8
0
100
AcDbLine
 62
7
  6
CONTINUOUS
 10
-16.90006
 20
32.398341
 11
-17.843072
 21
29.927654
  0
LINE
  5
276
100
AcDbEntity
  8
RACCORDO
100
AcDbLine
 62
253
  6
CONTINUOUS
 10
0.3746817839
 20
-32.3722599164
 11
-0.3746817839
 21
-32.3722599164
  0
LINE
  5
277
100
AcDbEntity
  8
RACCORDO
100
AcDbLine
 62
253
  6
CONTINUOUS
 10
33.2401019839
 20
-32.341424784
 11
32.5598980161
 21
-32.341424784
  0
LINE
  5
278
100
AcDbEntity
  8
RACCORDO
100
AcDbLine
 62
253
  6
CONTINUOUS
 10
-32.5598980161
 20
-32.341424784
 11
-33.2401019839
 21
-32.341424784
  0
LINE
  5
279
100
AcDbEntity
  8
RACCORDO
100
AcDbLine
 62
253
  6
CONTINUOUS
 10
33.2717150205
 20
-32.2781938951
 11
32.5282849795
 21
-32.2781938951
  0
LINE
  5
27A
100
AcDbEntity
  8
RACCORDO
100
AcDbLine
 62
253
  6
CONTINUOUS
 10
-32.5282849795
 20
-32.2781938951
 11
-33.2717150205
 21
-32.2781938951
  0
LINE
  5
27B
100
AcDbEntity
  8
RACCORDO
100
AcDbLine
 62
253
  6
CONTINUOUS
 10
0.3771782153
 20
-32.1440358769
 11
-0.3771782153
 21
-32.1440358769
  0
LINE
  5
27C
100
AcDbEntity
  8
0
100
AcDbLine
 62
7
  6
CONTINUOUS
 10
10.25037
 20
-32.136533
 11
10.992405
 21
-32.136533
  0
LINE
  5
27D
100
AcDbEntity
  8
0
100
AcDbLine
 62
7
  6
CONTINUOUS
 10
21.848007
 20
-32.136533
 11
22.590117
 21
-32.136533
  0
LINE
  5
27E
100
AcDbEntity
  8
0
100
AcDbLine
 62
7
  6
CONTINUOUS
 10
-18.882444
 20
-32.125
 11
-20.342945
 21
-32.125
  0
LINE
  5
27F
100
AcDbEntity
  8
RACCORDO
100
AcDbLine
 62
253
  6
CONTINUOUS
 10
33.2742188636
 20
-32.0464283606
 11
32.5257811364
 21
-32.0464283606
  0
LINE
  5
280
100
AcDbEntity
  8
RACCORDO
100
AcDbLine
 62
253
  6
CONTINUOUS
 10
-32.5257811364
 20
-32.0464283606
 11
-33.2742188636
 21
-32.0464283606
  0
LINE
  5
281
100
AcDbEntity
  8
0
100
AcDbLine
 62
7
  6
CONTINUOUS
 10
22.499914
 20
-31.914951
 11
21.925314
 21
-31.914951
  0
LINE
  5
282
100
AcDbEntity
  8
0
100
AcDbLine
 62
7
  6
CONTINUOUS
 10
10.902291
 20
-31.914951
 11
10.327692
 21
-31.914951
  0
LINE
  5
283
100
AcDbEntity
  8
0
100
AcDbLine
 62
7
  6
CONTINUOUS
 10
13.81392
 20
-31.835057
 11
14.826536
 21
-31.835057
  0
LINE
  5
284
100
AcDbEntity
  8
0
100
AcDbLine
 62
7
  6
CONTINUOUS
 10
14.826536
 20
-31.613476
 11
13.81392
 21
-31.613476
  0
LINE
  5
285
100
AcDbEntity
  8
0
100
AcDbLine
 62
7
  6
CONTINUOUS
 10
-20.342948112
 20
-31.375
 11
-18.882444
 21
-31.375
  0
LINE
  5
286
100
AcDbEntity
  8
0
100
AcDbLine
 62
7
  6
CONTINUOUS
 10
13.81392
 20
-31.046581
 11
14.911562
 21
-31.046581
  0
LINE
  5
287
100
AcDbEntity
  8
0
100
AcDbLine
 62
7
  6
CONTINUOUS
 10
19.822762
 20
-31.046581
 11
20.448905
 21
-31.046581
  0
LINE
  5
288
100
AcDbEntity
  8
0
100
AcDbLine
 62
7
  6
CONTINUOUS
 10
20.698808
 20
-31.046581
 11
21.32495
 21
-31.046581
  0
LINE
  5
289
100
AcDbEntity
  8
0
100
AcDbLine
 62
7
  6
CONTINUOUS
 10
11.94067
 20
-31.038801
 11
12.4341294694
 21
-31.038801
  0
LINE
  5
28A
100
AcDbEntity
  8
0
100
AcDbLine
 62
7
  6
CONTINUOUS
 10
26.194916
 20
-30.825
 11
25.901071
 21
-30.825
  0
LINE
  5
28B
100
AcDbEntity
  8
0
100
AcDbLine
 62
7
  6
CONTINUOUS
 10
24.839546
 20
-30.825
 11
24.548394
 21
-30.825
  0
LINE
  5
28C
100
AcDbEntity
  8
0
100
AcDbLine
 62
7
  6
CONTINUOUS
 10
23.52547
 20
-30.825
 11
23.275462
 21
-30.825
  0
LINE
  5
28D
100
AcDbEntity
  8
0
100
AcDbLine
 62
7
  6
CONTINUOUS
 10
22.376226
 20
-30.825
 11
22.092839
 21
-30.825
  0
LINE
  5
28E
100
AcDbEntity
  8
0
100
AcDbLine
 62
7
  6
CONTINUOUS
 10
21.32495
 20
-30.825
 11
19.822762
 21
-30.825
  0
LINE
  5
28F
100
AcDbEntity
  8
0
100
AcDbLine
 62
7
  6
CONTINUOUS
 10
19.554785
 20
-30.825
 11
19.304792
 21
-30.825
  0
LINE
  5
290
100
AcDbEntity
  8
0
100
AcDbLine
 62
7
  6
CONTINUOUS
 10
18.158226
 20
-30.825
 11
17.916043
 21
-30.825
  0
LINE
  5
291
100
AcDbEntity
  8
0
100
AcDbLine
 62
7
  6
CONTINUOUS
 10
16.985806
 20
-30.825
 11
16.689432
 21
-30.825
  0
LINE
  5
292
100
AcDbEntity
  8
0
100
AcDbLine
 62
7
  6
CONTINUOUS
 10
16.26177
 20
-30.825
 11
16.011852
 21
-30.825
  0
LINE
  5
293
100
AcDbEntity
  8
0
100
AcDbLine
 62
7
  6
CONTINUOUS
 10
14.911562
 20
-30.825
 11
13.563927
 21
-30.825
  0
LINE
  5
294
100
AcDbEntity
  8
0
100
AcDbLine
 62
7
  6
CONTINUOUS
 10
12.4483576515
 20
-30.825
 11
11.690662
 21
-30.825
  0
LINE
  5
295
100
AcDbEntity
  8
0
100
AcDbLine
 62
7
  6
CONTINUOUS
 10
10.778589
 20
-30.825
 11
10.495112
 21
-30.825
  0
LINE
  5
296
100
AcDbEntity
  8
0
100
AcDbLine
 62
7
  6
CONTINUOUS
 10
9.577862
 20
-30.825
 11
9.22224
 21
-30.825
  0
LINE
  5
297
100
AcDbEntity
  8
0
100
AcDbLine
 62
7
  6
CONTINUOUS
 10
8.163247
 20
-30.825
 11
7.805084
 21
-30.825
  0
LINE
  5
298
100
AcDbEntity
  8
0
100
AcDbLine
 62
7
  6
CONTINUOUS
 10
-11.419791
 20
-30.279254
 11
-11.775296
 21
-30.279254
  0
LINE
  5
299
100
AcDbEntity
  8
0
100
AcDbLine
 62
7
  6
CONTINUOUS
 10
-12.219175
 20
-30.279254
 11
-12.574823
 21
-30.279254
  0
LINE
  5
29A
100
AcDbEntity
  8
0
100
AcDbLine
 62
7
  6
CONTINUOUS
 10
-12.574823
 20
-29.860297
 11
-11.419791
 21
-29.860297
  0
LINE
  5
29B
100
AcDbEntity
  8
0
100
AcDbLine
 62
7
  6
CONTINUOUS
 10
-29.0
 20
-27.5
 11
-5.0
 21
-27.5
  0
LINE
  5
29C
100
AcDbEntity
  8
0
100
AcDbLine
 62
7
  6
CONTINUOUS
 10
5.0
 20
-27.5
 11
29.0
 21
-27.5
  0
LINE
  5
29D
100
AcDbEntity
  8
0
100
AcDbLine
 62
7
  6
CONTINUOUS
 10
-12.219175
 20
-31.857969
 11
-13.339536
 21
-30.913833
  0
LINE
  5
29E
100
AcDbEntity
  8
0
100
AcDbLine
 62
7
  6
CONTINUOUS
 10
-13.391249
 20
-30.3539
 11
-12.219175
 21
-31.341613
  0
LINE
  5
29F
100
AcDbEntity
  8
0
100
AcDbLine
 62
7
  6
CONTINUOUS
 10
-11.035324
 20
-33.468741
 11
-11.227121
 21
-33.127022
  0
LINE
  5
2A0
100
AcDbEntity
  8
0
100
AcDbLine
 62
7
  6
CONTINUOUS
 10
-22.867554
 20
-29.201963
 11
-22.867554
 21
-29.95278
  0
LINE
  5
2A1
100
AcDbEntity
  8
0
100
AcDbLine
 62
7
  6
CONTINUOUS
 10
-22.867554
 20
-33.54722
 11
-22.867554
 21
-34.298037
  0
LINE
  5
2A2
100
AcDbEntity
  8
0
100
AcDbLine
 62
7
  6
CONTINUOUS
 10
-21.034701
 20
29.927654
 11
-21.034701
 21
33.727424
  0
LINE
  5
2A3
100
AcDbEntity
  8
0
100
AcDbLine
 62
7
  6
CONTINUOUS
 10
-20.241588
 20
33.727424
 11
-20.241588
 21
29.927654
  0
LINE
  5
2A4
100
AcDbEntity
  8
0
100
AcDbLine
 62
7
  6
CONTINUOUS
 10
-18.884725
 20
32.408684
 11
-19.055878
 21
29.927654
  0
LINE
  5
2A5
100
AcDbEntity
  8
0
100
AcDbLine
 62
7
  6
CONTINUOUS
 10
-19.81463
 20
29.927654
 11
-19.471553
 21
33.727196
  0
LINE
  5
2A6
100
AcDbEntity
  8
0
100
AcDbLine
 62
7
  6
CONTINUOUS
 10
-14.276199
 20
32.683179
 11
-14.671103
 21
31.27312
  0
LINE
  5
2A7
100
AcDbEntity
  8
0
100
AcDbLine
 62
7
  6
CONTINUOUS
 10
-14.833338
 20
30.686178
 11
-15.052188
 21
29.927654
  0
LINE
  5
2A8
100
AcDbEntity
  8
0
100
AcDbLine
 62
7
  6
CONTINUOUS
 10
-15.836697
 20
29.927654
 11
-14.644918
 21
33.727196
  0
LINE
  5
2A9
100
AcDbEntity
  8
DRAFT
100
AcDbLine
 62
7
  6
CONTINUOUS
 10
-32.515708362
 20
0.384291638
 11
-32.5031154982
 21
0.3968845018
  0
LINE
  5
2AA
100
AcDbEntity
  8
DRAFT
100
AcDbLine
 62
7
  6
CONTINUOUS
 10
-33.284291638
 20
-0.3855578488
 11
-33.2965579574
 21
-0.3978241682
  0
LINE
  5
2AB
100
AcDbEntity
  8
RACCORDO
100
AcDbLine
 62
7
  6
CONTINUOUS
 10
-54.9964645355
 20
0.362580396
 11
-55.0065146541
 21
0.3575557194
  0
LINE
  5
2AC
100
AcDbEntity
  8
0
100
AcDbLine
 62
7
  6
CONTINUOUS
 10
21.0645834327
 20
32.4308511019
 11
21.2208334327
 21
32.4840425849
  0
LINE
  5
2AD
100
AcDbEntity
  8
0
100
AcDbLine
 62
7
  6
CONTINUOUS
 10
23.4083331347
 20
32.4308511019
 11
23.5645831347
 21
32.4840425849
  0
LINE
  5
2AE
100
AcDbEntity
  8
0
100
AcDbLine
 62
7
  6
CONTINUOUS
 10
21.7416665673
 20
31.4734042585
 11
21.5854165673
 21
31.4202127755
  0
LINE
  5
2AF
100
AcDbEntity
  8
0
100
AcDbLine
 62
7
  6
CONTINUOUS
 10
23.4083331347
 20
31.5265957415
 11
23.5645831347
 21
31.5797872245
  0
LINE
  5
2B0
100
AcDbEntity
  8
0
100
AcDbLine
 62
7
  6
CONTINUOUS
 10
21.7416665673
 20
30.5691489354
 11
21.5854165673
 21
30.5159574524
  0
LINE
  5
2B1
100
AcDbEntity
  8
0
100
AcDbLine
 62
7
  6
CONTINUOUS
 10
24.0854168653
 20
30.5691489354
 11
23.9291668653
 21
30.5159574524
  0
LINE
  5
2B2
100
AcDbEntity
  8
DRAFT
100
AcDbLine
 62
7
  6
CONTINUOUS
 10
55.4069219382
 20
-20.4048300794
 11
54.7
 21
-20.4119542171
  0
LINE
  5
2B3
100
AcDbEntity
  8
DRAFT
100
AcDbLine
 62
7
  6
CONTINUOUS
 10
58.0734432065
 20
-19.699965939
 11
54.7
 21
-19.7294055319
  0
LINE
  5
2B4
100
AcDbEntity
  8
RACCORDO
100
AcDbLine
 62
253
  6
CONTINUOUS
 10
-33.2835149479
 20
-24.191943128
 11
-32.5164850521
 21
-24.191943128
  0
LINE
  5
2B5
100
AcDbEntity
  8
RACCORDO
100
AcDbLine
 62
253
  6
CONTINUOUS
 10
32.5164850521
 20
-24.191943128
 11
33.2835149479
 21
-24.191943128
  0
LINE
  5
2B6
100
AcDbEntity
  8
RACCORDO
100
AcDbLine
 62
7
  6
CONTINUOUS
 10
-33.2852589046
 20
-24.0
 11
-32.5147410954
 21
-24.0
  0
LINE
  5
2B7
100
AcDbEntity
  8
RACCORDO
100
AcDbLine
 62
7
  6
CONTINUOUS
 10
-0.3870831923
 20
-24.0
 11
0.3870831923
 21
-24.0
  0
LINE
  5
2B8
100
AcDbEntity
  8
RACCORDO
100
AcDbLine
 62
7
  6
CONTINUOUS
 10
32.5147410954
 20
-24.0
 11
33.2852589046
 21
-24.0
  0
LINE
  5
2B9
100
AcDbEntity
  8
RACCORDO
100
AcDbLine
 62
253
  6
CONTINUOUS
 10
-0.3855578488
 20
-23.8015955965
 11
0.3855578488
 21
-23.8015955965
  0
LINE
  5
2BA
100
AcDbEntity
  8
DRAFT
100
AcDbLine
 62
7
  6
CONTINUOUS
 10
-35.0
 20
-23.2855578488
 11
-33.2855578488
 21
-23.2855578488
  0
LINE
  5
2BB
100
AcDbEntity
  8
DRAFT
100
AcDbLine
 62
7
  6
CONTINUOUS
 10
33.2855578488
 20
-23.2855578488
 11
35.0
 21
-23.2855578488
  0
LINE
  5
2BC
100
AcDbEntity
  8
DRAFT
100
AcDbLine
 62
7
  6
CONTINUOUS
 10
32.5144421512
 20
-23.284291638
 11
0.3855578488
 21
-23.284291638
  0
LINE
  5
2BD
100
AcDbEntity
  8
DRAFT
100
AcDbLine
 62
7
  6
CONTINUOUS
 10
-0.3855578488
 20
-23.284291638
 11
-32.5144421512
 21
-23.284291638
  0
LINE
  5
2BE
100
AcDbEntity
  8
RACCORDO
100
AcDbLine
 62
7
  6
CONTINUOUS
 10
57.9465101847
 20
-23.2358147024
 11
55.5413486316
 21
-23.2358147024
  0
LINE
  5
2BF
100
AcDbEntity
  8
RACCORDO
100
AcDbLine
 62
7
  6
CONTINUOUS
 10
-55.5413486316
 20
-23.2358147024
 11
-57.9465101847
 21
-23.2358147024
  0
LINE
  5
2C0
100
AcDbEntity
  8
RACCORDO
100
AcDbLine
 62
7
  6
CONTINUOUS
 10
-57.9722315198
 20
-22.5641852976
 11
-55.5413486316
 21
-22.5641852976
  0
LINE
  5
2C1
100
AcDbEntity
  8
RACCORDO
100
AcDbLine
 62
7
  6
CONTINUOUS
 10
55.5413486316
 20
-22.5641852976
 11
57.9722315198
 21
-22.5641852976
  0
LINE
  5
2C2
100
AcDbEntity
  8
DRAFT
100
AcDbLine
 62
7
  6
CONTINUOUS
 10
-32.515708362
 20
-22.515708362
 11
32.515708362
 21
-22.515708362
  0
LINE
  5
2C3
100
AcDbEntity
  8
DRAFT
100
AcDbLine
 62
7
  6
CONTINUOUS
 10
35.0
 20
-22.5144421512
 11
33.284291638
 21
-22.5144421512
  0
LINE
  5
2C4
100
AcDbEntity
  8
DRAFT
100
AcDbLine
 62
7
  6
CONTINUOUS
 10
-33.284291638
 20
-22.5144421512
 11
-35.0
 21
-22.5144421512
  0
LINE
  5
2C5
100
AcDbEntity
  8
DRAFT
100
AcDbLine
 62
7
  6
CONTINUOUS
 10
58.0498098289
 20
-20.4048300794
 11
55.4069219382
 21
-20.4048300794
  0
LINE
  5
2C6
100
AcDbEntity
  8
DRAFT
100
AcDbLine
 62
7
  6
CONTINUOUS
 10
-55.4069219382
 20
-20.4048300794
 11
-58.0498098289
 21
-20.4048300794
  0
LINE
  5
2C7
100
AcDbEntity
  8
DRAFT
100
AcDbLine
 62
7
  6
CONTINUOUS
 10
-54.7
 20
-19.7298310093
 11
-58.0734291875
 21
-19.7003915388
  0
LINE
  5
2C8
100
AcDbEntity
  8
DRAFT
100
AcDbLine
 62
7
  6
CONTINUOUS
 10
-54.7
 20
-20.4119542171
 11
-55.4069219382
 21
-20.4048300794
  0
LINE
  5
2C9
100
AcDbEntity
  8
RACCORDO
100
AcDbLine
 62
7
  6
CONTINUOUS
 10
-54.9964645355
 20
-0.362580396
 11
-55.0065146541
 21
-0.3575557194
  0
LINE
  5
2CA
100
AcDbEntity
  8
DRAFT
100
AcDbLine
 62
7
  6
CONTINUOUS
 10
-32.515708362
 20
-0.384291638
 11
-32.5031154982
 21
-0.3968845018
  0
LINE
  5
2CB
100
AcDbEntity
  8
DRAFT
100
AcDbLine
 62
7
  6
CONTINUOUS
 10
-33.284291638
 20
0.3855578488
 11
-33.2965579574
 21
0.3978241682
  0
LINE
  5
2CC
100
AcDbEntity
  8
0
100
AcDbLine
 62
7
  6
CONTINUOUS
 10
-16.316537
 20
33.727196
 11
-15.961237
 21
29.927654
  0
LINE
  5
2CD
100
AcDbEntity
  8
0
100
AcDbLine
 62
7
  6
CONTINUOUS
 10
-16.737113
 20
29.927654
 11
-16.90006
 21
32.398341
  0
LINE
  5
2CE
100
AcDbEntity
  8
0
100
AcDbLine
 62
7
  6
CONTINUOUS
 10
-18.882444
 20
-31.375
 11
-18.882444
 21
-32.125
  0
LINE
  5
2CF
100
AcDbEntity
  8
0
100
AcDbLine
 62
7
  6
CONTINUOUS
 10
-18.482444
 20
-29.2019628823
 11
-18.482444
 21
-29.95278
  0
LINE
  5
2D0
100
AcDbEntity
  8
0
100
AcDbLine
 62
7
  6
CONTINUOUS
 10
-18.482444
 20
-33.5472169516
 11
-18.482444
 21
-34.2980371177
  0
LINE
  5
2D1
100
AcDbEntity
  8
0
100
AcDbLine
 62
7
  6
CONTINUOUS
 10
-12.58843
 20
-33.656117
 11
-12.58843
 21
-33.239452
  0
LINE
  5
2D2
100
AcDbEntity
  8
0
100
AcDbLine
 62
7
  6
CONTINUOUS
 10
-12.574823
 20
-30.279254
 11
-12.574823
 21
-29.860297
  0
LINE
  5
2D3
100
AcDbEntity
  8
0
100
AcDbLine
 62
7
  6
CONTINUOUS
 10
-12.4789858413
 20
29.9276540612
 11
-12.4789858413
 21
33.6828051783
  0
LINE
  5
2D4
100
AcDbEntity
  8
RACCORDO
100
AcDbLine
 62
7
  6
CONTINUOUS
 10
-0.3746817839
 20
32.3722599164
 11
-0.3401019839
 21
32.441424784
  0
LINE
  5
2D5
100
AcDbEntity
  8
RACCORDO
100
AcDbLine
 62
7
  6
CONTINUOUS
 10
-32.5282849795
 20
-32.2781938951
 11
-32.5598980161
 21
-32.341424784
  0
LINE
  5
2D6
100
AcDbEntity
  8
DRAFT
100
AcDbLine
 62
7
  6
CONTINUOUS
 10
0.3855578488
 20
23.284291638
 11
0.4000005169
 21
23.2987343061
  0
LINE
  5
2D7
100
AcDbEntity
  8
0
100
AcDbLine
 62
7
  6
CONTINUOUS
 10
18.7208333209
 20
32.3244681358
 11
18.8770833582
 21
32.4308511019
  0
LINE
  5
2D8
100
AcDbEntity
  8
0
100
AcDbLine
 62
7
  6
CONTINUOUS
 10
20.9083334327
 20
32.3244681358
 11
21.0645834327
 21
32.4308511019
  0
LINE
  5
2D9
100
AcDbEntity
  8
0
100
AcDbLine
 62
7
  6
CONTINUOUS
 10
19.5541667163
 20
30.6755319014
 11
19.3979166418
 21
30.5691489354
  0
LINE
  5
2DA
100
AcDbEntity
  8
0
100
AcDbLine
 62
7
  6
CONTINUOUS
 10
21.8979165673
 20
31.5797872245
 11
21.7416665673
 21
31.4734042585
  0
LINE
  5
2DB
100
AcDbEntity
  8
0
100
AcDbLine
 62
7
  6
CONTINUOUS
 10
23.2520831347
 20
32.3244681358
 11
23.4083331347
 21
32.4308511019
  0
LINE
  5
2DC
100
AcDbEntity
  8
0
100
AcDbLine
 62
7
  6
CONTINUOUS
 10
21.79375
 20
31.2074468434
 11
22.10625
 21
31.4202127755
  0
LINE
  5
2DD
100
AcDbEntity
  8
0
100
AcDbLine
 62
7
  6
CONTINUOUS
 10
23.35625
 20
31.7925531566
 11
23.04375
 21
31.5797872245
  0
LINE
  5
2DE
100
AcDbEntity
  8
0
100
AcDbLine
 62
7
  6
CONTINUOUS
 10
21.8979165673
 20
30.6755319014
 11
21.7416665673
 21
30.5691489354
  0
LINE
  5
2DF
100
AcDbEntity
  8
0
100
AcDbLine
 62
7
  6
CONTINUOUS
 10
23.2520831347
 20
31.4202127755
 11
23.4083331347
 21
31.5265957415
  0
LINE
  5
2E0
100
AcDbEntity
  8
0
100
AcDbLine
 62
7
  6
CONTINUOUS
 10
18.825
 20
32.696808517
 11
18.5645833209
 21
32.5372340679
  0
LINE
  5
2E1
100
AcDbEntity
  8
0
100
AcDbLine
 62
7
  6
CONTINUOUS
 10
21.0125
 20
32.696808517
 11
20.7520834327
 21
32.5372340679
  0
LINE
  5
2E2
100
AcDbEntity
  8
0
100
AcDbLine
 62
7
  6
CONTINUOUS
 10
19.45
 20
30.3031914877
 11
19.7104167163
 21
30.4627659507
  0
LINE
  5
2E3
100
AcDbEntity
  8
0
100
AcDbLine
 62
7
  6
CONTINUOUS
 10
23.35625
 20
32.696808517
 11
23.0958334327
 21
32.5372340679
  0
LINE
  5
2E4
100
AcDbEntity
  8
0
100
AcDbLine
 62
7
  6
CONTINUOUS
 10
21.79375
 20
30.3031914877
 11
22.0541665673
 21
30.4627659507
  0
LINE
  5
2E5
100
AcDbEntity
  8
0
100
AcDbLine
 62
7
  6
CONTINUOUS
 10
25.5958331347
 20
31.7925531566
 11
25.3354168653
 21
31.6329787076
  0
LINE
  5
2E6
100
AcDbEntity
  8
0
100
AcDbLine
 62
7
  6
CONTINUOUS
 10
27.9916668653
 20
32.696808517
 11
27.73125
 21
32.5372340679
  0
LINE
  5
2E7
100
AcDbEntity
  8
0
100
AcDbLine
 62
7
  6
CONTINUOUS
 10
24.1375
 20
30.3031914877
 11
24.3979168653
 21
30.4627659507
  0
LINE
  5
2E8
100
AcDbEntity
  8
DRAFT
100
AcDbLine
 62
7
  6
CONTINUOUS
 10
-55.85
 20
-20.4502132482
 11
-54.7
 21
-20.41544523
  0
LINE
  5
2E9
100
AcDbEntity
  8
DRAFT
100
AcDbLine
 62
7
  6
CONTINUOUS
 10
54.7
 20
-14.58455477
 11
55.85
 21
-14.5497867518
  0
LINE
  5
2EA
100
AcDbEntity
  8
DRAFT
100
AcDbLine
 62
7
  6
CONTINUOUS
 10
-54.7
 20
-14.5880457829
 11
-55.4069219382
 21
-14.5951699206
  0
LINE
  5
2EB
100
AcDbEntity
  8
DRAFT
100
AcDbLine
 62
7
  6
CONTINUOUS
 10
58.1534478454
 20
-17.0992677491
 11
54.7
 21
-17.1294055319
  0
LINE
  5
2EC
100
AcDbEntity
  8
DRAFT
100
AcDbLine
 62
7
  6
CONTINUOUS
 10
-54.7
 20
-17.8701689907
 11
-58.1300180265
 21
-17.9001023045
  0
LINE
  5
2ED
100
AcDbEntity
  8
DRAFT
100
AcDbLine
 62
7
  6
CONTINUOUS
 10
-54.7
 20
-15.2701689907
 11
-58.2021562414
 21
-15.3007318452
  0
LINE
  5
2EE
100
AcDbEntity
  8
DRAFT
100
AcDbLine
 62
7
  6
CONTINUOUS
 10
-58.219786652
 20
-14.5951699206
 11
-55.4069219382
 21
-14.5951699206
  0
LINE
  5
2EF
100
AcDbEntity
  8
DRAFT
100
AcDbLine
 62
7
  6
CONTINUOUS
 10
55.4069219382
 20
-14.5951699206
 11
58.219786652
 21
-14.5951699206
  0
LINE
  5
2F0
100
AcDbEntity
  8
DRAFT
100
AcDbLine
 62
7
  6
CONTINUOUS
 10
-54.7
 20
-17.1298310093
 11
-58.1534356792
 21
-17.0996933327
  0
LINE
  5
2F1
100
AcDbEntity
  8
DRAFT
100
AcDbLine
 62
7
  6
CONTINUOUS
 10
54.7
 20
-17.8705944681
 11
58.1300052965
 21
-17.9005276709
  0
LINE
  5
2F2
100
AcDbEntity
  8
DRAFT
100
AcDbLine
 62
7
  6
CONTINUOUS
 10
54.7
 20
-15.2705944681
 11
58.2021453609
 21
-15.3011572277
  0
LINE
  5
2F3
100
AcDbEntity
  8
DRAFT
100
AcDbLine
 62
7
  6
CONTINUOUS
 10
55.4069219382
 20
-14.5951699206
 11
54.7
 21
-14.5880457829
  0
LINE
  5
2F4
100
AcDbEntity
  8
DRAFT
100
AcDbLine
 62
7
  6
CONTINUOUS
 10
54.7
 20
-20.41544523
 11
55.85
 21
-20.4502132482
  0
LINE
  5
2F5
100
AcDbEntity
  8
DRAFT
100
AcDbLine
 62
7
  6
CONTINUOUS
 10
-55.85
 20
-14.5497867518
 11
-54.7
 21
-14.58455477
  0
LINE
  5
2F6
100
AcDbEntity
  8
DRAFT
100
AcDbLine
 62
7
  6
CONTINUOUS
 10
0.3855578488
 20
-23.284291638
 11
0.4000005169
 21
-23.2987343061
  0
LINE
  5
2F7
100
AcDbEntity
  8
RACCORDO
100
AcDbLine
 62
7
  6
CONTINUOUS
 10
-0.3746817839
 20
-32.3722599164
 11
-0.3401019839
 21
-32.441424784
  0
LINE
  5
2F8
100
AcDbEntity
  8
RACCORDO
100
AcDbLine
 62
7
  6
CONTINUOUS
 10
-32.5282849795
 20
32.2781938951
 11
-32.5598980161
 21
32.341424784
  0
LINE
  5
2F9
100
AcDbEntity
  8
0
100
AcDbLine
 62
7
  6
CONTINUOUS
 10
-23.249285
 20
29.927654
 11
-24.453814
 21
33.727196
  0
LINE
  5
2FA
100
AcDbEntity
  8
0
100
AcDbLine
 62
7
  6
CONTINUOUS
 10
-23.592247
 20
33.727196
 11
-22.867986
 21
31.111854
  0
LINE
  5
2FB
100
AcDbEntity
  8
0
100
AcDbLine
 62
7
  6
CONTINUOUS
 10
-12.219175
 20
-33.239452
 11
-12.219175
 21
-31.857969
  0
LINE
  5
2FC
100
AcDbEntity
  8
0
100
AcDbLine
 62
7
  6
CONTINUOUS
 10
-12.219175
 20
-31.341613
 11
-12.219175
 21
-30.279254
  0
LINE
  5
2FD
100
AcDbEntity
  8
0
100
AcDbLine
 62
7
  6
CONTINUOUS
 10
-11.775296
 20
-30.279254
 11
-11.775296
 21
-31.341613
  0
LINE
  5
2FE
100
AcDbEntity
  8
0
100
AcDbLine
 62
7
  6
CONTINUOUS
 10
-11.775296
 20
-31.853309
 11
-11.775296
 21
-33.239452
  0
LINE
  5
2FF
100
AcDbEntity
  8
0
100
AcDbLine
 62
7
  6
CONTINUOUS
 10
-11.715361993
 20
33.0799067555
 11
-11.715361993
 21
32.0368582931
  0
LINE
  5
300
100
AcDbEntity
  8
0
100
AcDbLine
 62
7
  6
CONTINUOUS
 10
-11.689063541
 20
31.4145850627
 11
-11.689063541
 21
29.9276540612
  0
LINE
  5
301
100
AcDbEntity
  8
0
100
AcDbLine
 62
7
  6
CONTINUOUS
 10
-11.419791
 20
-29.860297
 11
-11.419791
 21
-30.279254
  0
LINE
  5
302
100
AcDbEntity
  8
0
100
AcDbLine
 62
7
  6
CONTINUOUS
 10
-11.406184
 20
-33.239452
 11
-11.406184
 21
-33.656117
  0
LINE
  5
303
100
AcDbEntity
  8
0
100
AcDbLine
 62
7
  6
CONTINUOUS
 10
-10.4399298096
 20
31.7236987201
 11
-10.4399298096
 21
31.7012467372
  0
LINE
  5
304
100
AcDbEntity
  8
RACCORDO
100
AcDbLine
 62
7
  6
CONTINUOUS
 10
-0.3897571521
 20
38.0737855721
 11
-0.3358147024
 21
38.3977477702
  0
LINE
  5
305
100
AcDbEntity
  8
0
100
AcDbLine
 62
7
  6
CONTINUOUS
 10
18.5645833209
 20
32.5372340679
 11
18.4083333395
 21
32.3776596189
  0
LINE
  5
306
100
AcDbEntity
  8
0
100
AcDbLine
 62
7
  6
CONTINUOUS
 10
19.7104167163
 20
30.4627659507
 11
19.8666667163
 21
30.6223404184
  0
LINE
  5
307
100
AcDbEntity
  8
DRAFT
100
AcDbLine
 62
7
  6
CONTINUOUS
 10
-32.515708362
 20
-22.515708362
 11
-32.5075537379
 21
-22.5075537379
  0
LINE
  5
308
100
AcDbEntity
  8
DRAFT
100
AcDbLine
 62
7
  6
CONTINUOUS
 10
-33.2855578488
 20
-23.2855578488
 11
-33.2930738935
 21
-23.2930738935
  0
LINE
  5
309
100
AcDbEntity
  8
0
100
AcDbLine
 62
7
  6
CONTINUOUS
 10
25.4395831347
 20
31.3670212924
 11
25.6479168653
 21
31.5265957415
  0
LINE
  5
30A
100
AcDbEntity
  8
0
100
AcDbLine
 62
7
  6
CONTINUOUS
 10
24.2416668653
 20
30.6755319014
 11
24.0854168653
 21
30.5691489354
  0
LINE
  5
30B
100
AcDbEntity
  8
0
100
AcDbLine
 62
7
  6
CONTINUOUS
 10
27.8875
 20
32.3244681358
 11
28.04375
 21
32.4308511019
  0
LINE
  5
30C
100
AcDbEntity
  8
0
100
AcDbLine
 62
7
  6
CONTINUOUS
 10
26.5333331347
 20
30.6755319014
 11
26.3770831347
 21
30.5691489354
  0
LINE
  5
30D
100
AcDbEntity
  8
0
100
AcDbLine
 62
7
  6
CONTINUOUS
 10
28.7208337307
 20
30.6755319014
 11
28.5645837307
 21
30.5691489354
  0
LINE
  5
30E
100
AcDbEntity
  8
0
100
AcDbLine
 62
7
  6
CONTINUOUS
 10
26.4291668653
 20
30.3031914877
 11
26.6895831347
 21
30.4627659507
  0
LINE
  5
30F
100
AcDbEntity
  8
0
100
AcDbLine
 62
7
  6
CONTINUOUS
 10
28.6166662693
 20
30.3031914877
 11
28.8770837307
 21
30.4627659507
  0
LINE
  5
310
100
AcDbEntity
  8
RACCORDO
100
AcDbLine
 62
7
  6
CONTINUOUS
 10
58.2928843923
 20
-0.353268438
 11
58.1242934759
 21
-0.3813390788
  0
LINE
  5
311
100
AcDbEntity
  8
RACCORDO
100
AcDbLine
 62
7
  6
CONTINUOUS
 10
-58.1242934724
 20
-0.3813390791
 11
-58.2928843923
 21
-0.353268438
  0
LINE
  5
312
100
AcDbEntity
  8
DRAFT
100
AcDbLine
 62
7
  6
CONTINUOUS
 10
-32.515708362
 20
22.515708362
 11
-32.5075537379
 21
22.5075537379
  0
LINE
  5
313
100
AcDbEntity
  8
DRAFT
100
AcDbLine
 62
7
  6
CONTINUOUS
 10
-33.2855578488
 20
23.2855578488
 11
-33.2930738935
 21
23.2930738935
  0
LINE
  5
314
100
AcDbEntity
  8
0
100
AcDbLine
 62
7
  6
CONTINUOUS
 10
-17.954306
 20
29.927654
 11
-18.884725
 21
32.408684
  0
LINE
  5
315
100
AcDbEntity
  8
RACCORDO
100
AcDbLine
 62
7
  6
CONTINUOUS
 10
-0.3358147024
 20
-38.3977477702
 11
-0.3897571522
 21
-38.0737855714
  0
LINE
  5
316
100
AcDbEntity
  8
0
100
AcDbLine
 62
7
  6
CONTINUOUS
 10
-4.0
 20
35.0
 11
-4.0
 21
28.5
  0
LINE
  5
317
100
AcDbEntity
  8
0
100
AcDbLine
 62
7
  6
CONTINUOUS
 10
-4.0
 20
-28.5
 11
-4.0
 21
-35.0
  0
LINE
  5
318
100
AcDbEntity
  8
RACCORDO
100
AcDbLine
 62
7
  6
CONTINUOUS
 10
-0.3855578488
 20
23.8015955965
 11
-0.3855578488
 21
23.284291638
  0
LINE
  5
319
100
AcDbEntity
  8
RACCORDO
100
AcDbLine
 62
7
  6
CONTINUOUS
 10
-0.3855578488
 20
-23.284291638
 11
-0.3855578488
 21
-23.8015955965
  0
LINE
  5
31A
100
AcDbEntity
  8
RACCORDO
100
AcDbLine
 62
7
  6
CONTINUOUS
 10
-0.3358147024
 20
-38.3977477702
 11
-0.3358147024
 21
-32.9413486316
  0
LINE
  5
31B
100
AcDbEntity
  8
RACCORDO
100
AcDbLine
 62
7
  6
CONTINUOUS
 10
-0.3358147024
 20
32.9413486316
 11
-0.3358147024
 21
38.3977477702
  0
LINE
  5
31C
100
AcDbEntity
  8
RACCORDO
100
AcDbLine
 62
7
  6
CONTINUOUS
 10
0.3358147024
 20
38.3977477702
 11
0.3358147024
 21
32.9413486316
  0
LINE
  5
31D
100
AcDbEntity
  8
RACCORDO
100
AcDbLine
 62
7
  6
CONTINUOUS
 10
0.3358147024
 20
-32.9413486316
 11
0.3358147024
 21
-38.3977477702
  0
LINE
  5
31E
100
AcDbEntity
  8
RACCORDO
100
AcDbLine
 62
7
  6
CONTINUOUS
 10
0.3855578488
 20
-23.8015955965
 11
0.3855578488
 21
-23.284291638
  0
LINE
  5
31F
100
AcDbEntity
  8
RACCORDO
100
AcDbLine
 62
7
  6
CONTINUOUS
 10
0.3855578488
 20
23.284291638
 11
0.3855578488
 21
23.8015955965
  0
LINE
  5
320
100
AcDbEntity
  8
0
100
AcDbLine
 62
7
  6
CONTINUOUS
 10
18.5125
 20
32.0053190887
 11
18.7208333209
 21
32.3244681358
  0
LINE
  5
321
100
AcDbEntity
  8
0
100
AcDbLine
 62
7
  6
CONTINUOUS
 10
19.7625
 20
30.9946808368
 11
19.5541667163
 21
30.6755319014
  0
LINE
  5
322
100
AcDbEntity
  8
0
100
AcDbLine
 62
7
  6
CONTINUOUS
 10
20.8041665673
 20
32.1648936868
 11
20.9083334327
 21
32.3244681358
  0
LINE
  5
323
100
AcDbEntity
  8
0
100
AcDbLine
 62
7
  6
CONTINUOUS
 10
20.7520834327
 20
32.5372340679
 11
20.5958332837
 21
32.3244681358
  0
LINE
  5
324
100
AcDbEntity
  8
0
100
AcDbLine
 62
7
  6
CONTINUOUS
 10
23.0958334327
 20
32.5372340679
 11
22.9395834327
 21
32.3244681358
  0
LINE
  5
325
100
AcDbEntity
  8
0
100
AcDbLine
 62
7
  6
CONTINUOUS
 10
22.0541665673
 20
30.4627659507
 11
22.2104165673
 21
30.6755319014
  0
LINE
  5
326
100
AcDbEntity
  8
0
100
AcDbLine
 62
7
  6
CONTINUOUS
 10
23.1479165673
 20
31.3138298094
 11
23.2520831347
 21
31.4202127755
  0
LINE
  5
327
100
AcDbEntity
  8
0
100
AcDbLine
 62
7
  6
CONTINUOUS
 10
27.73125
 20
32.5372340679
 11
27.575
 21
32.3776596189
  0
LINE
  5
328
100
AcDbEntity
  8
0
100
AcDbLine
 62
7
  6
CONTINUOUS
 10
28.8770837307
 20
30.4627659507
 11
29.0333337307
 21
30.6223404184
  0
LINE
  5
329
100
AcDbEntity
  8
RACCORDO
100
AcDbLine
 62
7
  6
CONTINUOUS
 10
-39.9009483381
 20
-37.0669118388
 11
-40.2183408633
 21
-37.384304364
  0
LINE
  5
32A
100
AcDbEntity
  8
RACCORDO
100
AcDbLine
 62
7
  6
CONTINUOUS
 10
-54.9953791707
 20
-22.5368769629
 11
-55.041424784
 21
-22.5598980161
  0
LINE
  5
32B
100
AcDbEntity
  8
RACCORDO
100
AcDbLine
 62
253
  6
CONTINUOUS
 10
59.9869985877
 20
-3.9498766793
 11
58.3847680223
 21
-3.9498766793
  0
LINE
  5
32C
100
AcDbEntity
  8
RACCORDO
100
AcDbLine
 62
253
  6
CONTINUOUS
 10
-58.3847680223
 20
-3.9498766793
 11
-59.9869985877
 21
-3.9498766793
  0
LINE
  5
32D
100
AcDbEntity
  8
RACCORDO
100
AcDbLine
 62
253
  6
CONTINUOUS
 10
59.9745393107
 20
-3.6510182698
 11
58.3723138127
 21
-3.6510182698
  0
LINE
  5
32E
100
AcDbEntity
  8
RACCORDO
100
AcDbLine
 62
253
  6
CONTINUOUS
 10
-58.3723138127
 20
-3.6510182698
 11
-59.9745393107
 21
-3.6510182698
  0
LINE
  5
32F
100
AcDbEntity
  8
RACCORDO
100
AcDbLine
 62
253
  6
CONTINUOUS
 10
-59.8991862609
 20
-3.5239590572
 11
-58.2969627901
 21
-3.5239590572
  0
LINE
  5
330
100
AcDbEntity
  8
RACCORDO
100
AcDbLine
 62
253
  6
CONTINUOUS
 10
58.2969627901
 20
-3.5239590572
 11
59.8991862609
 21
-3.5239590572
  0
LINE
  5
331
100
AcDbEntity
  8
RACCORDO
100
AcDbLine
 62
253
  6
CONTINUOUS
 10
-59.8865151358
 20
-3.2251006478
 11
-58.284296166
 21
-3.2251006478
  0
LINE
  5
332
100
AcDbEntity
  8
RACCORDO
100
AcDbLine
 62
253
  6
CONTINUOUS
 10
58.284296166
 20
-3.2251006478
 11
59.8865151358
 21
-3.2251006478
  0
LINE
  5
333
100
AcDbEntity
  8
RACCORDO
100
AcDbLine
 62
7
  6
CONTINUOUS
 10
-34.8001971572
 20
-0.3855578488
 11
-33.284291638
 21
-0.3855578488
  0
LINE
  5
334
100
AcDbEntity
  8
RACCORDO
100
AcDbLine
 62
7
  6
CONTINUOUS
 10
33.284291638
 20
-0.3855578488
 11
34.8001971572
 21
-0.3855578488
  0
LINE
  5
335
100
AcDbEntity
  8
DRAFT
100
AcDbLine
 62
7
  6
CONTINUOUS
 10
32.515708362
 20
-0.384291638
 11
7.2741476892
 21
-0.384291638
  0
LINE
  5
336
100
AcDbEntity
  8
DRAFT
100
AcDbLine
 62
7
  6
CONTINUOUS
 10
-7.2741476892
 20
-0.384291638
 11
-32.515708362
 21
-0.384291638
  0
LINE
  5
337
100
AcDbEntity
  8
DRAFT
100
AcDbLine
 62
7
  6
CONTINUOUS
 10
-47.8
 20
-0.3811944149
 11
-44.8274545813
 21
-0.3811944149
  0
LINE
  5
338
100
AcDbEntity
  8
DRAFT
100
AcDbLine
 62
7
  6
CONTINUOUS
 10
44.8274545813
 20
-0.3811944149
 11
47.8
 21
-0.3811944149
  0
LINE
  5
339
100
AcDbEntity
  8
RACCORDO
100
AcDbLine
 62
7
  6
CONTINUOUS
 10
-58.2928843923
 20
-0.353268438
 11
-55.5064385017
 21
-0.353268438
  0
LINE
  5
33A
100
AcDbEntity
  8
RACCORDO
100
AcDbLine
 62
7
  6
CONTINUOUS
 10
55.5064385017
 20
-0.353268438
 11
58.2928843923
 21
-0.353268438
  0
LINE
  5
33B
100
AcDbEntity
  8
RACCORDO
100
AcDbLine
 62
7
  6
CONTINUOUS
 10
-58.2928843923
 20
0.353268438
 11
-55.5064385017
 21
0.353268438
  0
LINE
  5
33C
100
AcDbEntity
  8
RACCORDO
100
AcDbLine
 62
7
  6
CONTINUOUS
 10
55.5064385017
 20
0.353268438
 11
58.2928843923
 21
0.353268438
  0
LINE
  5
33D
100
AcDbEntity
  8
DRAFT
100
AcDbLine
 62
7
  6
CONTINUOUS
 10
-47.8
 20
0.3811944149
 11
-44.8274545813
 21
0.3811944149
  0
LINE
  5
33E
100
AcDbEntity
  8
DRAFT
100
AcDbLine
 62
7
  6
CONTINUOUS
 10
44.8274545813
 20
0.3811944149
 11
47.8
 21
0.3811944149
  0
LINE
  5
33F
100
AcDbEntity
  8
DRAFT
100
AcDbLine
 62
7
  6
CONTINUOUS
 10
-32.515708362
 20
0.384291638
 11
-7.2741476892
 21
0.384291638
  0
LINE
  5
340
100
AcDbEntity
  8
DRAFT
100
AcDbLine
 62
7
  6
CONTINUOUS
 10
7.2741476892
 20
0.384291638
 11
32.515708362
 21
0.384291638
  0
LINE
  5
341
100
AcDbEntity
  8
RACCORDO
100
AcDbLine
 62
7
  6
CONTINUOUS
 10
34.8001971572
 20
0.3855578488
 11
33.284291638
 21
0.3855578488
  0
LINE
  5
342
100
AcDbEntity
  8
RACCORDO
100
AcDbLine
 62
7
  6
CONTINUOUS
 10
-33.284291638
 20
0.3855578488
 11
-34.8001971572
 21
0.3855578488
  0
LINE
  5
343
100
AcDbEntity
  8
RACCORDO
100
AcDbLine
 62
7
  6
CONTINUOUS
 10
-54.9953791707
 20
22.5368769629
 11
-55.041424784
 21
22.5598980161
  0
LINE
  5
344
100
AcDbEntity
  8
0
100
AcDbLine
 62
7
  6
CONTINUOUS
 10
16.931735
 20
-31.172579
 11
17.877382
 21
-32.675
  0
LINE
  5
345
100
AcDbEntity
  8
0
100
AcDbLine
 62
7
  6
CONTINUOUS
 10
17.916043
 20
-32.327726
 11
16.985806
 21
-30.825
  0
LINE
  5
346
100
AcDbEntity
  8
0
100
AcDbLine
 62
7
  6
CONTINUOUS
 10
-18.679095
 20
33.727196
 11
-17.894359
 21
31.617679
  0
LINE
  5
347
100
AcDbEntity
  8
0
100
AcDbLine
 62
7
  6
CONTINUOUS
 10
11.448479
 20
-32.675
 11
10.778589
 21
-30.825
  0
LINE
  5
348
100
AcDbEntity
  8
0
100
AcDbLine
 62
7
  6
CONTINUOUS
 10
10.992405
 20
-32.136533
 11
11.175325
 21
-32.675
  0
LINE
  5
349
100
AcDbEntity
  8
0
100
AcDbLine
 62
7
  6
CONTINUOUS
 10
8.694016
 20
-32.396609
 11
8.163247
 21
-30.825
  0
LINE
  5
34A
100
AcDbEntity
  8
0
100
AcDbLine
 62
7
  6
CONTINUOUS
 10
8.047274
 20
-31.123783
 11
8.567792
 21
-32.675
  0
LINE
  5
34B
100
AcDbEntity
  8
0
100
AcDbLine
 62
7
  6
CONTINUOUS
 10
10.626669
 20
-31.09334
 11
10.902291
 21
-31.914951
  0
LINE
  5
34C
100
AcDbEntity
  8
0
100
AcDbLine
 62
7
  6
CONTINUOUS
 10
-13.877676
 20
33.727196
 11
-12.711882
 21
29.927654
  0
LINE
  5
34D
100
AcDbEntity
  8
0
100
AcDbLine
 62
7
  6
CONTINUOUS
 10
-13.547791
 20
29.927654
 11
-13.75325
 21
30.686178
  0
LINE
  5
34E
100
AcDbEntity
  8
0
100
AcDbLine
 62
7
  6
CONTINUOUS
 10
-13.911753
 20
31.27312
 11
-14.276199
 21
32.683179
  0
LINE
  5
34F
100
AcDbEntity
  8
0
100
AcDbLine
 62
7
  6
CONTINUOUS
 10
4.0
 20
-35.0
 11
4.0
 21
-28.5
  0
LINE
  5
350
100
AcDbEntity
  8
0
100
AcDbLine
 62
7
  6
CONTINUOUS
 10
4.0
 20
28.5
 11
4.0
 21
35.0
  0
LINE
  5
351
100
AcDbEntity
  8
0
100
AcDbLine
 62
7
  6
CONTINUOUS
 10
5.0541129
 20
30.1000002337
 11
5.0541129
 21
33.3999997663
  0
LINE
  5
352
100
AcDbEntity
  8
0
100
AcDbLine
 62
7
  6
CONTINUOUS
 10
5.4700771071
 20
32.7483102152
 11
5.4700771071
 21
30.1000002337
  0
LINE
  5
353
100
AcDbEntity
  8
0
100
AcDbLine
 62
7
  6
CONTINUOUS
 10
7.2679838851
 20
30.7239465445
 11
7.2679838851
 21
33.3999997663
  0
LINE
  5
354
100
AcDbEntity
  8
RACCORDO
100
AcDbLine
 62
7
  6
CONTINUOUS
 10
0.3897571521
 20
-38.0737855721
 11
0.3358147024
 21
-38.3977477702
  0
LINE
  5
355
100
AcDbEntity
  8
0
100
AcDbLine
 62
7
  6
CONTINUOUS
 10
18.3041666698
 20
32.1648936868
 11
18.2520833349
 21
32.0053190887
  0
LINE
  5
356
100
AcDbEntity
  8
0
100
AcDbLine
 62
7
  6
CONTINUOUS
 10
12.6985043373
 20
30.5390724851
 11
13.6505518791
 21
33.3999997663
  0
LINE
  5
357
100
AcDbEntity
  8
0
100
AcDbLine
 62
7
  6
CONTINUOUS
 10
14.1081610329
 20
33.3999997663
 11
12.9341695092
 21
30.1000002337
  0
LINE
  5
358
100
AcDbEntity
  8
0
100
AcDbLine
 62
7
  6
CONTINUOUS
 10
20.5958332837
 20
32.3244681358
 11
20.4916667163
 21
32.0585105717
  0
LINE
  5
359
100
AcDbEntity
  8
0
100
AcDbLine
 62
7
  6
CONTINUOUS
 10
18.4083333395
 20
32.3776596189
 11
18.3041666698
 21
32.1648936868
  0
LINE
  5
35A
100
AcDbEntity
  8
0
100
AcDbLine
 62
7
  6
CONTINUOUS
 10
19.8666667163
 20
30.6223404184
 11
19.9708332837
 21
30.8351063877
  0
LINE
  5
35B
100
AcDbEntity
  8
0
100
AcDbLine
 62
7
  6
CONTINUOUS
 10
-12.7728790636
 20
-33.1270221132
 11
-12.9646758237
 21
-33.4687406859
  0
LINE
  5
35C
100
AcDbEntity
  8
0
100
AcDbLine
 62
7
  6
CONTINUOUS
 10
22.0020834327
 20
31.7393616736
 11
21.8979165673
 21
31.5797872245
  0
LINE
  5
35D
100
AcDbEntity
  8
0
100
AcDbLine
 62
7
  6
CONTINUOUS
 10
22.0020834327
 20
30.8351063877
 11
21.8979165673
 21
30.6755319014
  0
LINE
  5
35E
100
AcDbEntity
  8
0
100
AcDbLine
 62
7
  6
CONTINUOUS
 10
23.1479165673
 20
32.1648936868
 11
23.2520831347
 21
32.3244681358
  0
LINE
  5
35F
100
AcDbEntity
  8
0
100
AcDbLine
 62
7
  6
CONTINUOUS
 10
24.3458331347
 20
30.8351063877
 11
24.2416668653
 21
30.6755319014
  0
LINE
  5
360
100
AcDbEntity
  8
0
100
AcDbLine
 62
7
  6
CONTINUOUS
 10
26.6375
 20
30.8351063877
 11
26.5333331347
 21
30.6755319014
  0
LINE
  5
361
100
AcDbEntity
  8
0
100
AcDbLine
 62
7
  6
CONTINUOUS
 10
27.6791668653
 20
32.0053190887
 11
27.8875
 21
32.3244681358
  0
LINE
  5
362
100
AcDbEntity
  8
0
100
AcDbLine
 62
7
  6
CONTINUOUS
 10
28.9291662693
 20
30.9946808368
 11
28.7208337307
 21
30.6755319014
  0
LINE
  5
363
100
AcDbEntity
  8
0
100
AcDbLine
 62
7
  6
CONTINUOUS
 10
24.3979168653
 20
30.4627659507
 11
24.5541668653
 21
30.6755319014
  0
LINE
  5
364
100
AcDbEntity
  8
0
100
AcDbLine
 62
7
  6
CONTINUOUS
 10
26.6895831347
 20
30.4627659507
 11
26.8458331347
 21
30.6755319014
  0
LINE
  5
365
100
AcDbEntity
  8
DRAFT
100
AcDbLine
 62
7
  6
CONTINUOUS
 10
32.515708362
 20
22.515708362
 11
32.5075537379
 21
22.5075537379
  0
LINE
  5
366
100
AcDbEntity
  8
DRAFT
100
AcDbLine
 62
7
  6
CONTINUOUS
 10
33.2855578488
 20
23.2855578488
 11
33.2930738935
 21
23.2930738935
  0
LINE
  5
367
100
AcDbEntity
  8
RACCORDO
100
AcDbLine
 62
7
  6
CONTINUOUS
 10
54.9953791707
 20
22.5368769629
 11
55.041424784
 21
22.5598980161
  0
LINE
  5
368
100
AcDbEntity
  8
RACCORDO
100
AcDbLine
 62
253
  6
CONTINUOUS
 10
-59.8865151358
 20
3.2251006478
 11
-58.284296166
 21
3.2251006478
  0
LINE
  5
369
100
AcDbEntity
  8
RACCORDO
100
AcDbLine
 62
253
  6
CONTINUOUS
 10
58.284296166
 20
3.2251006478
 11
59.8865151358
 21
3.2251006478
  0
LINE
  5
36A
100
AcDbEntity
  8
RACCORDO
100
AcDbLine
 62
253
  6
CONTINUOUS
 10
-59.8991862609
 20
3.5239590572
 11
-58.2969627901
 21
3.5239590572
  0
LINE
  5
36B
100
AcDbEntity
  8
RACCORDO
100
AcDbLine
 62
253
  6
CONTINUOUS
 10
58.2969627901
 20
3.5239590572
 11
59.8991862609
 21
3.5239590572
  0
LINE
  5
36C
100
AcDbEntity
  8
RACCORDO
100
AcDbLine
 62
253
  6
CONTINUOUS
 10
-59.9745393107
 20
3.6510182698
 11
-58.3723138127
 21
3.6510182698
  0
LINE
  5
36D
100
AcDbEntity
  8
RACCORDO
100
AcDbLine
 62
253
  6
CONTINUOUS
 10
58.3723138127
 20
3.6510182698
 11
59.9745393107
 21
3.6510182698
  0
LINE
  5
36E
100
AcDbEntity
  8
RACCORDO
100
AcDbLine
 62
253
  6
CONTINUOUS
 10
-59.9869985877
 20
3.9498766793
 11
-58.3847680223
 21
3.9498766793
  0
LINE
  5
36F
100
AcDbEntity
  8
RACCORDO
100
AcDbLine
 62
253
  6
CONTINUOUS
 10
58.3847680223
 20
3.9498766793
 11
59.9869985877
 21
3.9498766793
  0
LINE
  5
370
100
AcDbEntity
  8
RACCORDO
100
AcDbLine
 62
7
  6
CONTINUOUS
 10
54.9953791707
 20
-22.5368769629
 11
55.041424784
 21
-22.5598980161
  0
LINE
  5
371
100
AcDbEntity
  8
RACCORDO
100
AcDbLine
 62
7
  6
CONTINUOUS
 10
39.7928753396
 20
-37.0669118388
 11
40.1144884606
 21
-37.3885249599
  0
LINE
  5
372
100
AcDbEntity
  8
DRAFT
100
AcDbLine
 62
7
  6
CONTINUOUS
 10
32.515708362
 20
-22.515708362
 11
32.5075537379
 21
-22.5075537379
  0
LINE
  5
373
100
AcDbEntity
  8
DRAFT
100
AcDbLine
 62
7
  6
CONTINUOUS
 10
33.2855578488
 20
-23.2855578488
 11
33.2930738935
 21
-23.2930738935
  0
LINE
  5
374
100
AcDbEntity
  8
0
100
AcDbLine
 62
7
  6
CONTINUOUS
 10
24.548394
 20
-30.825
 11
25.246651
 21
-31.930362
  0
LINE
  5
375
100
AcDbEntity
  8
0
100
AcDbLine
 62
7
  6
CONTINUOUS
 10
25.370384
 20
-31.714017
 11
24.839546
 21
-30.825
  0
LINE
  5
376
100
AcDbEntity
  8
RACCORDO
100
AcDbLine
 62
7
  6
CONTINUOUS
 10
0.3358147024
 20
38.3977477702
 11
0.3897571522
 21
38.0737855714
  0
LINE
  5
377
100
AcDbEntity
  8
0
100
AcDbLine
 62
7
  6
CONTINUOUS
 10
7.6839772078
 20
33.3999997663
 11
7.6839772078
 21
30.1000002337
  0
LINE
  5
378
100
AcDbEntity
  8
0
100
AcDbLine
 62
7
  6
CONTINUOUS
 10
7.805084
 20
-30.825
 11
7.805084
 21
-32.675
  0
LINE
  5
379
100
AcDbEntity
  8
0
100
AcDbLine
 62
7
  6
CONTINUOUS
 10
8.047274
 20
-32.675
 11
8.047274
 21
-31.123783
  0
LINE
  5
37A
100
AcDbEntity
  8
0
100
AcDbLine
 62
7
  6
CONTINUOUS
 10
8.6036191385
 20
30.1000002337
 11
8.6036191385
 21
33.3999997663
  0
LINE
  5
37B
100
AcDbEntity
  8
0
100
AcDbLine
 62
7
  6
CONTINUOUS
 10
9.04269139
 20
33.0302535887
 11
9.04269139
 21
31.9810765606
  0
LINE
  5
37C
100
AcDbEntity
  8
0
100
AcDbLine
 62
7
  6
CONTINUOUS
 10
9.04269139
 20
31.611330383
 11
9.04269139
 21
30.4697464113
  0
LINE
  5
37D
100
AcDbEntity
  8
0
100
AcDbLine
 62
7
  6
CONTINUOUS
 10
9.335574
 20
-31.121239
 11
9.335574
 21
-32.675
  0
LINE
  5
37E
100
AcDbEntity
  8
0
100
AcDbLine
 62
7
  6
CONTINUOUS
 10
9.577862
 20
-32.675
 11
9.577862
 21
-30.825
  0
LINE
  5
37F
100
AcDbEntity
  8
0
100
AcDbLine
 62
7
  6
CONTINUOUS
 10
10.7573995033
 20
31.9810765606
 11
10.7573995033
 21
31.611330383
  0
LINE
  5
380
100
AcDbEntity
  8
0
100
AcDbLine
 62
7
  6
CONTINUOUS
 10
10.8821829424
 20
33.3999997663
 11
10.8821829424
 21
33.0302535887
  0
LINE
  5
381
100
AcDbEntity
  8
0
100
AcDbLine
 62
7
  6
CONTINUOUS
 10
10.8960535921
 20
30.4697464113
 11
10.8960535921
 21
30.1000002337
  0
LINE
  5
382
100
AcDbEntity
  8
0
100
AcDbLine
 62
7
  6
CONTINUOUS
 10
11.690662
 20
-30.825
 11
11.690662
 21
-32.675
  0
LINE
  5
383
100
AcDbEntity
  8
0
100
AcDbLine
 62
7
  6
CONTINUOUS
 10
11.94067
 20
-32.461199
 11
11.94067
 21
-31.038801
  0
LINE
  5
384
100
AcDbEntity
  8
0
100
AcDbLine
 62
7
  6
CONTINUOUS
 10
13.563927
 20
-30.825
 11
13.563927
 21
-32.675
  0
LINE
  5
385
100
AcDbEntity
  8
0
100
AcDbLine
 62
7
  6
CONTINUOUS
 10
13.81392
 20
-32.453419
 11
13.81392
 21
-31.835057
  0
LINE
  5
386
100
AcDbEntity
  8
0
100
AcDbLine
 62
7
  6
CONTINUOUS
 10
13.81392
 20
-31.613476
 11
13.81392
 21
-31.046581
  0
LINE
  5
387
100
AcDbEntity
  8
0
100
AcDbLine
 62
7
  6
CONTINUOUS
 10
18.4604166605
 20
31.6861701906
 11
18.5125
 21
32.0053190887
  0
LINE
  5
388
100
AcDbEntity
  8
0
100
AcDbLine
 62
7
  6
CONTINUOUS
 10
18.2520833349
 20
32.0053190887
 11
18.2
 21
31.7393616736
  0
LINE
  5
389
100
AcDbEntity
  8
0
100
AcDbLine
 62
7
  6
CONTINUOUS
 10
20.0229167163
 20
30.9946808368
 11
20.075
 21
31.2606383264
  0
LINE
  5
38A
100
AcDbEntity
  8
0
100
AcDbLine
 62
7
  6
CONTINUOUS
 10
19.9708332837
 20
30.8351063877
 11
20.0229167163
 21
30.9946808368
  0
LINE
  5
38B
100
AcDbEntity
  8
0
100
AcDbLine
 62
7
  6
CONTINUOUS
 10
20.7520834327
 20
32.0053190887
 11
20.8041665673
 21
32.1648936868
  0
LINE
  5
38C
100
AcDbEntity
  8
0
100
AcDbLine
 62
7
  6
CONTINUOUS
 10
22.0541665673
 20
31.8989361227
 11
22.0020834327
 21
31.7393616736
  0
LINE
  5
38D
100
AcDbEntity
  8
0
100
AcDbLine
 62
7
  6
CONTINUOUS
 10
22.0541665673
 20
30.9946808368
 11
22.0020834327
 21
30.8351063877
  0
LINE
  5
38E
100
AcDbEntity
  8
0
100
AcDbLine
 62
7
  6
CONTINUOUS
 10
23.0958334327
 20
32.0053190887
 11
23.1479165673
 21
32.1648936868
  0
LINE
  5
38F
100
AcDbEntity
  8
0
100
AcDbLine
 62
7
  6
CONTINUOUS
 10
23.0958334327
 20
31.1542552859
 11
23.1479165673
 21
31.3138298094
  0
LINE
  5
390
100
AcDbEntity
  8
0
100
AcDbLine
 62
7
  6
CONTINUOUS
 10
24.3979168653
 20
30.9946808368
 11
24.3458331347
 21
30.8351063877
  0
LINE
  5
391
100
AcDbEntity
  8
0
100
AcDbLine
 62
7
  6
CONTINUOUS
 10
22.2104165673
 20
30.6755319014
 11
22.3145834327
 21
30.9414893538
  0
LINE
  5
392
100
AcDbEntity
  8
0
100
AcDbLine
 62
7
  6
CONTINUOUS
 10
22.9395834327
 20
32.3244681358
 11
22.8354165673
 21
32.0585105717
  0
LINE
  5
393
100
AcDbEntity
  8
0
100
AcDbLine
 62
7
  6
CONTINUOUS
 10
24.5541668653
 20
30.6755319014
 11
24.6583331347
 21
30.9414893538
  0
LINE
  5
394
100
AcDbEntity
  8
0
100
AcDbLine
 62
7
  6
CONTINUOUS
 10
26.8458331347
 20
30.6755319014
 11
26.95
 21
30.9414893538
  0
LINE
  5
395
100
AcDbEntity
  8
0
100
AcDbLine
 62
7
  6
CONTINUOUS
 10
27.575
 20
32.3776596189
 11
27.4708331347
 21
32.1648936868
  0
LINE
  5
396
100
AcDbEntity
  8
0
100
AcDbLine
 62
7
  6
CONTINUOUS
 10
29.0333337307
 20
30.6223404184
 11
29.1375
 21
30.8351063877
  0
LINE
  5
397
100
AcDbEntity
  8
0
100
AcDbLine
 62
7
  6
CONTINUOUS
 10
-10.27364
 20
-34.67078
 11
-10.491068
 21
-34.979018
  0
LINE
  5
398
100
AcDbEntity
  8
RACCORDO
100
AcDbLine
 62
7
  6
CONTINUOUS
 10
-58.2928843923
 20
0.353268438
 11
-58.1242934759
 21
0.3813390788
  0
LINE
  5
399
100
AcDbEntity
  8
DRAFT
100
AcDbLine
 62
7
  6
CONTINUOUS
 10
54.7
 20
14.5880457829
 11
55.4069219382
 21
14.5951699206
  0
LINE
  5
39A
100
AcDbEntity
  8
DRAFT
100
AcDbLine
 62
7
  6
CONTINUOUS
 10
-55.4069219382
 20
14.5951699206
 11
-54.7
 21
14.5880457829
  0
LINE
  5
39B
100
AcDbEntity
  8
RACCORDO
100
AcDbLine
 62
7
  6
CONTINUOUS
 10
58.1242934724
 20
0.3813390791
 11
58.2928843923
 21
0.353268438
  0
LINE
  5
39C
100
AcDbEntity
  8
0
100
AcDbLine
 62
7
  6
CONTINUOUS
 10
23.046251
 20
-32.675
 11
22.376226
 21
-30.825
  0
LINE
  5
39D
100
AcDbEntity
  8
0
100
AcDbLine
 62
7
  6
CONTINUOUS
 10
22.590117
 20
-32.136533
 11
22.773052
 21
-32.675
  0
LINE
  5
39E
100
AcDbEntity
  8
0
100
AcDbLine
 62
7
  6
CONTINUOUS
 10
22.224277
 20
-31.09334
 11
22.499914
 21
-31.914951
  0
LINE
  5
39F
100
AcDbEntity
  8
0
100
AcDbLine
 62
7
  6
CONTINUOUS
 10
14.6673524117
 20
30.1000002337
 11
14.6673524117
 21
33.3999997663
  0
LINE
  5
3A0
100
AcDbEntity
  8
0
100
AcDbLine
 62
7
  6
CONTINUOUS
 10
14.826536
 20
-31.835057
 11
14.826536
 21
-31.613476
  0
LINE
  5
3A1
100
AcDbEntity
  8
0
100
AcDbLine
 62
7
  6
CONTINUOUS
 10
14.911562
 20
-31.046581
 11
14.911562
 21
-30.825
  0
LINE
  5
3A2
100
AcDbEntity
  8
0
100
AcDbLine
 62
7
  6
CONTINUOUS
 10
14.929621
 20
-32.675
 11
14.929621
 21
-32.453419
  0
LINE
  5
3A3
100
AcDbEntity
  8
0
100
AcDbLine
 62
7
  6
CONTINUOUS
 10
15.1064266042
 20
33.0302535887
 11
15.1064266042
 21
31.9810765606
  0
LINE
  5
3A4
100
AcDbEntity
  8
0
100
AcDbLine
 62
7
  6
CONTINUOUS
 10
15.1064266042
 20
31.611330383
 11
15.1064266042
 21
30.4697464113
  0
LINE
  5
3A5
100
AcDbEntity
  8
0
100
AcDbLine
 62
7
  6
CONTINUOUS
 10
16.011852
 20
-30.825
 11
16.011852
 21
-32.675
  0
LINE
  5
3A6
100
AcDbEntity
  8
0
100
AcDbLine
 62
7
  6
CONTINUOUS
 10
16.26177
 20
-32.675
 11
16.26177
 21
-30.825
  0
LINE
  5
3A7
100
AcDbEntity
  8
0
100
AcDbLine
 62
7
  6
CONTINUOUS
 10
16.689432
 20
-30.825
 11
16.689432
 21
-32.675
  0
LINE
  5
3A8
100
AcDbEntity
  8
0
100
AcDbLine
 62
7
  6
CONTINUOUS
 10
16.8211948897
 20
31.9810765606
 11
16.8211948897
 21
31.611330383
  0
LINE
  5
3A9
100
AcDbEntity
  8
0
100
AcDbLine
 62
7
  6
CONTINUOUS
 10
16.931735
 20
-32.675
 11
16.931735
 21
-31.172579
  0
LINE
  5
3AA
100
AcDbEntity
  8
0
100
AcDbLine
 62
7
  6
CONTINUOUS
 10
16.9458871
 20
33.3999997663
 11
16.9458871
 21
33.0302535887
  0
LINE
  5
3AB
100
AcDbEntity
  8
0
100
AcDbLine
 62
7
  6
CONTINUOUS
 10
16.9598489784
 20
30.4697464113
 11
16.9598489784
 21
30.1000002337
  0
LINE
  5
3AC
100
AcDbEntity
  8
0
100
AcDbLine
 62
7
  6
CONTINUOUS
 10
17.916043
 20
-30.825
 11
17.916043
 21
-32.327726
  0
LINE
  5
3AD
100
AcDbEntity
  8
0
100
AcDbLine
 62
7
  6
CONTINUOUS
 10
18.158226
 20
-32.675
 11
18.158226
 21
-30.825
  0
LINE
  5
3AE
100
AcDbEntity
  8
0
100
AcDbLine
 62
7
  6
CONTINUOUS
 10
18.2
 20
31.7393616736
 11
18.2
 21
31.2606383264
  0
LINE
  5
3AF
100
AcDbEntity
  8
0
100
AcDbLine
 62
7
  6
CONTINUOUS
 10
18.4604166605
 20
31.3138298094
 11
18.4604166605
 21
31.6861701906
  0
LINE
  5
3B0
100
AcDbEntity
  8
0
100
AcDbLine
 62
7
  6
CONTINUOUS
 10
19.304792
 20
-30.825
 11
19.304792
 21
-32.675
  0
LINE
  5
3B1
100
AcDbEntity
  8
0
100
AcDbLine
 62
7
  6
CONTINUOUS
 10
19.554785
 20
-32.675
 11
19.554785
 21
-30.825
  0
LINE
  5
3B2
100
AcDbEntity
  8
0
100
AcDbLine
 62
7
  6
CONTINUOUS
 10
19.8145832837
 20
31.6861701906
 11
19.8145832837
 21
31.3138298094
  0
LINE
  5
3B3
100
AcDbEntity
  8
0
100
AcDbLine
 62
7
  6
CONTINUOUS
 10
19.822762
 20
-30.825
 11
19.822762
 21
-31.046581
  0
LINE
  5
3B4
100
AcDbEntity
  8
0
100
AcDbLine
 62
7
  6
CONTINUOUS
 10
20.075
 20
31.2606383264
 11
20.075
 21
31.7393616736
  0
LINE
  5
3B5
100
AcDbEntity
  8
0
100
AcDbLine
 62
7
  6
CONTINUOUS
 10
20.448905
 20
-31.046581
 11
20.448905
 21
-32.675
  0
LINE
  5
3B6
100
AcDbEntity
  8
0
100
AcDbLine
 62
7
  6
CONTINUOUS
 10
20.4916667163
 20
32.0585105717
 11
20.4916667163
 21
31.8457446396
  0
LINE
  5
3B7
100
AcDbEntity
  8
0
100
AcDbLine
 62
7
  6
CONTINUOUS
 10
20.698808
 20
-32.675
 11
20.698808
 21
-31.046581
  0
LINE
  5
3B8
100
AcDbEntity
  8
0
100
AcDbLine
 62
7
  6
CONTINUOUS
 10
20.7520834327
 20
31.8989361227
 11
20.7520834327
 21
32.0053190887
  0
LINE
  5
3B9
100
AcDbEntity
  8
0
100
AcDbLine
 62
7
  6
CONTINUOUS
 10
22.3145834327
 20
30.9414893538
 11
22.3666665673
 21
31.3138298094
  0
LINE
  5
3BA
100
AcDbEntity
  8
0
100
AcDbLine
 62
7
  6
CONTINUOUS
 10
22.8354165673
 20
32.0585105717
 11
22.7833334327
 21
31.6861701906
  0
LINE
  5
3BB
100
AcDbEntity
  8
0
100
AcDbLine
 62
7
  6
CONTINUOUS
 10
19.8145832837
 20
31.3138298094
 11
19.7625
 21
30.9946808368
  0
LINE
  5
3BC
100
AcDbEntity
  8
0
100
AcDbLine
 62
7
  6
CONTINUOUS
 10
22.10625
 20
31.3138298094
 11
22.0541665673
 21
30.9946808368
  0
LINE
  5
3BD
100
AcDbEntity
  8
0
100
AcDbLine
 62
7
  6
CONTINUOUS
 10
23.04375
 20
31.6861701906
 11
23.0958334327
 21
32.0053190887
  0
LINE
  5
3BE
100
AcDbEntity
  8
0
100
AcDbLine
 62
7
  6
CONTINUOUS
 10
27.41875
 20
32.0053190887
 11
27.3666668653
 21
31.7393616736
  0
LINE
  5
3BF
100
AcDbEntity
  8
0
100
AcDbLine
 62
7
  6
CONTINUOUS
 10
26.6895831347
 20
30.9946808368
 11
26.6375
 21
30.8351063877
  0
LINE
  5
3C0
100
AcDbEntity
  8
0
100
AcDbLine
 62
7
  6
CONTINUOUS
 10
27.4708331347
 20
32.1648936868
 11
27.41875
 21
32.0053190887
  0
LINE
  5
3C1
100
AcDbEntity
  8
0
100
AcDbLine
 62
7
  6
CONTINUOUS
 10
29.1375
 20
30.8351063877
 11
29.1895837307
 21
30.9946808368
  0
LINE
  5
3C2
100
AcDbEntity
  8
0
100
AcDbLine
 62
7
  6
CONTINUOUS
 10
8.815156
 20
-32.675
 11
9.335574
 21
-31.121239
  0
LINE
  5
3C3
100
AcDbEntity
  8
0
100
AcDbLine
 62
7
  6
CONTINUOUS
 10
9.22224
 20
-30.825
 11
8.694016
 21
-32.396609
  0
LINE
  5
3C4
100
AcDbEntity
  8
0
100
AcDbLine
 62
7
  6
CONTINUOUS
 10
10.057096
 20
-32.675
 11
10.25037
 21
-32.136533
  0
LINE
  5
3C5
100
AcDbEntity
  8
0
100
AcDbLine
 62
7
  6
CONTINUOUS
 10
10.327692
 20
-31.914951
 11
10.626669
 21
-31.09334
  0
LINE
  5
3C6
100
AcDbEntity
  8
0
100
AcDbLine
 62
7
  6
CONTINUOUS
 10
10.495112
 20
-30.825
 11
9.799458
 21
-32.675
  0
LINE
  5
3C7
100
AcDbEntity
  8
RACCORDO
100
AcDbLine
 62
7
  6
CONTINUOUS
 10
32.5282849795
 20
32.2781938951
 11
32.5598980161
 21
32.341424784
  0
LINE
  5
3C8
100
AcDbEntity
  8
RACCORDO
100
AcDbLine
 62
7
  6
CONTINUOUS
 10
0.3746817839
 20
-32.3722599164
 11
0.3401019839
 21
-32.441424784
  0
LINE
  5
3C9
100
AcDbEntity
  8
DRAFT
100
AcDbLine
 62
7
  6
CONTINUOUS
 10
-0.3855578488
 20
-23.284291638
 11
-0.4000005169
 21
-23.2987343061
  0
LINE
  5
3CA
100
AcDbEntity
  8
0
100
AcDbLine
 62
7
  6
CONTINUOUS
 10
-11.775296
 20
-31.341613
 11
-10.6062206076
 21
-30.3564256693
  0
LINE
  5
3CB
100
AcDbEntity
  8
0
100
AcDbLine
 62
7
  6
CONTINUOUS
 10
-10.6604641003
 20
-30.9138330845
 11
-11.775296
 21
-31.853309
  0
LINE
  5
3CC
100
AcDbEntity
  8
DRAFT
100
AcDbLine
 62
7
  6
CONTINUOUS
 10
-54.7
 20
14.58455477
 11
-55.85
 21
14.5497867518
  0
LINE
  5
3CD
100
AcDbEntity
  8
DRAFT
100
AcDbLine
 62
7
  6
CONTINUOUS
 10
55.85
 20
20.4502132482
 11
54.7
 21
20.41544523
  0
LINE
  5
3CE
100
AcDbEntity
  8
DRAFT
100
AcDbLine
 62
7
  6
CONTINUOUS
 10
54.7
 20
15.2705944681
 11
58.2021453609
 21
15.3011572277
  0
LINE
  5
3CF
100
AcDbEntity
  8
DRAFT
100
AcDbLine
 62
7
  6
CONTINUOUS
 10
54.7
 20
17.8705944681
 11
58.1300052965
 21
17.9005276709
  0
LINE
  5
3D0
100
AcDbEntity
  8
DRAFT
100
AcDbLine
 62
7
  6
CONTINUOUS
 10
-58.1534356792
 20
17.0996933327
 11
-54.7
 21
17.1298310093
  0
LINE
  5
3D1
100
AcDbEntity
  8
DRAFT
100
AcDbLine
 62
7
  6
CONTINUOUS
 10
-58.0734291875
 20
19.7003915388
 11
-54.7
 21
19.7298310093
  0
LINE
  5
3D2
100
AcDbEntity
  8
DRAFT
100
AcDbLine
 62
7
  6
CONTINUOUS
 10
58.219786652
 20
14.5951699206
 11
55.4069219382
 21
14.5951699206
  0
LINE
  5
3D3
100
AcDbEntity
  8
DRAFT
100
AcDbLine
 62
7
  6
CONTINUOUS
 10
-55.4069219382
 20
14.5951699206
 11
-58.219786652
 21
14.5951699206
  0
LINE
  5
3D4
100
AcDbEntity
  8
DRAFT
100
AcDbLine
 62
7
  6
CONTINUOUS
 10
-58.0498098289
 20
20.4048300794
 11
-55.4069219382
 21
20.4048300794
  0
LINE
  5
3D5
100
AcDbEntity
  8
DRAFT
100
AcDbLine
 62
7
  6
CONTINUOUS
 10
55.4069219382
 20
20.4048300794
 11
58.0498098289
 21
20.4048300794
  0
LINE
  5
3D6
100
AcDbEntity
  8
DRAFT
100
AcDbLine
 62
7
  6
CONTINUOUS
 10
-54.7
 20
15.2701689907
 11
-58.2021562414
 21
15.3007318452
  0
LINE
  5
3D7
100
AcDbEntity
  8
DRAFT
100
AcDbLine
 62
7
  6
CONTINUOUS
 10
-54.7
 20
17.8701689907
 11
-58.1300180265
 21
17.9001023045
  0
LINE
  5
3D8
100
AcDbEntity
  8
DRAFT
100
AcDbLine
 62
7
  6
CONTINUOUS
 10
54.7
 20
17.1294055319
 11
58.1534478454
 21
17.0992677491
  0
LINE
  5
3D9
100
AcDbEntity
  8
DRAFT
100
AcDbLine
 62
7
  6
CONTINUOUS
 10
54.7
 20
19.7294055319
 11
58.0734432065
 21
19.699965939
  0
LINE
  5
3DA
100
AcDbEntity
  8
DRAFT
100
AcDbLine
 62
7
  6
CONTINUOUS
 10
55.85
 20
14.5497867518
 11
54.7
 21
14.58455477
  0
LINE
  5
3DB
100
AcDbEntity
  8
DRAFT
100
AcDbLine
 62
7
  6
CONTINUOUS
 10
-54.7
 20
20.41544523
 11
-55.85
 21
20.4502132482
  0
LINE
  5
3DC
100
AcDbEntity
  8
DRAFT
100
AcDbLine
 62
7
  6
CONTINUOUS
 10
-0.3855578488
 20
23.284291638
 11
-0.4000005169
 21
23.2987343061
  0
LINE
  5
3DD
100
AcDbEntity
  8
RACCORDO
100
AcDbLine
 62
7
  6
CONTINUOUS
 10
32.5282849795
 20
-32.2781938951
 11
32.5598980161
 21
-32.341424784
  0
LINE
  5
3DE
100
AcDbEntity
  8
RACCORDO
100
AcDbLine
 62
7
  6
CONTINUOUS
 10
0.3746817839
 20
32.3722599164
 11
0.3401019839
 21
32.441424784
  0
LINE
  5
3DF
100
AcDbEntity
  8
0
100
AcDbLine
 62
7
  6
CONTINUOUS
 10
21.32495
 20
-31.046581
 11
21.32495
 21
-30.825
  0
LINE
  5
3E0
100
AcDbEntity
  8
0
100
AcDbLine
 62
7
  6
CONTINUOUS
 10
22.0541665673
 20
32.0053190887
 11
22.0541665673
 21
31.8989361227
  0
LINE
  5
3E1
100
AcDbEntity
  8
0
100
AcDbLine
 62
7
  6
CONTINUOUS
 10
22.10625
 20
31.4202127755
 11
22.10625
 21
31.3138298094
  0
LINE
  5
3E2
100
AcDbEntity
  8
0
100
AcDbLine
 62
7
  6
CONTINUOUS
 10
22.3666665673
 20
31.3138298094
 11
22.3666665673
 21
31.6861701906
  0
LINE
  5
3E3
100
AcDbEntity
  8
0
100
AcDbLine
 62
7
  6
CONTINUOUS
 10
22.7833334327
 20
31.6861701906
 11
22.7833334327
 21
31.3138298094
  0
LINE
  5
3E4
100
AcDbEntity
  8
0
100
AcDbLine
 62
7
  6
CONTINUOUS
 10
23.04375
 20
31.5797872245
 11
23.04375
 21
31.6861701906
  0
LINE
  5
3E5
100
AcDbEntity
  8
0
100
AcDbLine
 62
7
  6
CONTINUOUS
 10
23.0958334327
 20
30.9946808368
 11
23.0958334327
 21
31.1542552859
  0
LINE
  5
3E6
100
AcDbEntity
  8
0
100
AcDbLine
 62
7
  6
CONTINUOUS
 10
23.275462
 20
-30.825
 11
23.275462
 21
-32.675
  0
LINE
  5
3E7
100
AcDbEntity
  8
0
100
AcDbLine
 62
7
  6
CONTINUOUS
 10
23.52547
 20
-32.453419
 11
23.52547
 21
-30.825
  0
LINE
  5
3E8
100
AcDbEntity
  8
0
100
AcDbLine
 62
7
  6
CONTINUOUS
 10
24.3979168653
 20
31.1542552859
 11
24.3979168653
 21
30.9946808368
  0
LINE
  5
3E9
100
AcDbEntity
  8
0
100
AcDbLine
 62
7
  6
CONTINUOUS
 10
24.463412
 20
-32.675
 11
24.463412
 21
-32.453419
  0
LINE
  5
3EA
100
AcDbEntity
  8
0
100
AcDbLine
 62
7
  6
CONTINUOUS
 10
24.6583331347
 20
30.9414893538
 11
24.6583331347
 21
31.2074468434
  0
LINE
  5
3EB
100
AcDbEntity
  8
0
100
AcDbLine
 62
7
  6
CONTINUOUS
 10
25.075
 20
32.75
 11
25.075
 21
31.3670212924
  0
LINE
  5
3EC
100
AcDbEntity
  8
0
100
AcDbLine
 62
7
  6
CONTINUOUS
 10
25.246651
 20
-31.930362
 11
25.246651
 21
-32.675
  0
LINE
  5
3ED
100
AcDbEntity
  8
0
100
AcDbLine
 62
7
  6
CONTINUOUS
 10
25.3354168653
 20
31.6329787076
 11
25.3354168653
 21
32.4840425849
  0
LINE
  5
3EE
100
AcDbEntity
  8
0
100
AcDbLine
 62
7
  6
CONTINUOUS
 10
25.49651
 20
-32.675
 11
25.49651
 21
-31.930362
  0
LINE
  5
3EF
100
AcDbEntity
  8
0
100
AcDbLine
 62
7
  6
CONTINUOUS
 10
26.6895831347
 20
31.1010638028
 11
26.6895831347
 21
30.9946808368
  0
LINE
  5
3F0
100
AcDbEntity
  8
0
100
AcDbLine
 62
7
  6
CONTINUOUS
 10
26.8458331347
 20
32.4840425849
 11
26.8458331347
 21
32.75
  0
LINE
  5
3F1
100
AcDbEntity
  8
0
100
AcDbLine
 62
7
  6
CONTINUOUS
 10
26.95
 20
30.9414893538
 11
26.95
 21
31.1542552859
  0
LINE
  5
3F2
100
AcDbEntity
  8
0
100
AcDbLine
 62
7
  6
CONTINUOUS
 10
27.3666668653
 20
31.7393616736
 11
27.3666668653
 21
31.2606383264
  0
LINE
  5
3F3
100
AcDbEntity
  8
0
100
AcDbLine
 62
7
  6
CONTINUOUS
 10
27.6270831347
 20
31.6861701906
 11
27.6791668653
 21
32.0053190887
  0
LINE
  5
3F4
100
AcDbEntity
  8
0
100
AcDbLine
 62
7
  6
CONTINUOUS
 10
28.98125
 20
31.3138298094
 11
28.9291662693
 21
30.9946808368
  0
LINE
  5
3F5
100
AcDbEntity
  8
0
100
AcDbLine
 62
7
  6
CONTINUOUS
 10
29.1895837307
 20
30.9946808368
 11
29.2416662693
 21
31.2606383264
  0
LINE
  5
3F6
100
AcDbEntity
  8
DRAFT
100
AcDbLine
 62
7
  6
CONTINUOUS
 10
33.284291638
 20
0.3855578488
 11
33.2965579574
 21
0.3978241682
  0
LINE
  5
3F7
100
AcDbEntity
  8
DRAFT
100
AcDbLine
 62
7
  6
CONTINUOUS
 10
32.515708362
 20
-0.384291638
 11
32.5031154982
 21
-0.3968845018
  0
LINE
  5
3F8
100
AcDbEntity
  8
RACCORDO
100
AcDbLine
 62
7
  6
CONTINUOUS
 10
54.9964645355
 20
-0.362580396
 11
55.0065146541
 21
-0.3575557194
  0
LINE
  5
3F9
100
AcDbEntity
  8
0
100
AcDbLine
 62
7
  6
CONTINUOUS
 10
26.3770831347
 20
30.5691489354
 11
26.16875
 21
30.5159574524
  0
LINE
  5
3FA
100
AcDbEntity
  8
0
100
AcDbLine
 62
7
  6
CONTINUOUS
 10
25.6479168653
 20
31.5265957415
 11
25.85625
 21
31.5797872245
  0
LINE
  5
3FB
100
AcDbEntity
  8
0
100
AcDbLine
 62
7
  6
CONTINUOUS
 10
28.5645837307
 20
30.5691489354
 11
28.3041662693
 21
30.5159574524
  0
LINE
  5
3FC
100
AcDbEntity
  8
0
100
AcDbLine
 62
7
  6
CONTINUOUS
 10
26.16875
 20
30.25
 11
26.4291668653
 21
30.3031914877
  0
LINE
  5
3FD
100
AcDbEntity
  8
0
100
AcDbLine
 62
7
  6
CONTINUOUS
 10
23.8770831347
 20
30.25
 11
24.1375
 21
30.3031914877
  0
LINE
  5
3FE
100
AcDbEntity
  8
0
100
AcDbLine
 62
7
  6
CONTINUOUS
 10
21.5333334327
 20
30.25
 11
21.79375
 21
30.3031914877
  0
LINE
  5
3FF
100
AcDbEntity
  8
0
100
AcDbLine
 62
7
  6
CONTINUOUS
 10
25.85625
 20
31.8457446396
 11
25.5958331347
 21
31.7925531566
  0
LINE
  5
400
100
AcDbEntity
  8
0
100
AcDbLine
 62
7
  6
CONTINUOUS
 10
19.3979166418
 20
30.5691489354
 11
19.1375
 21
30.5159574524
  0
LINE
  5
401
100
AcDbEntity
  8
0
100
AcDbLine
 62
7
  6
CONTINUOUS
 10
28.04375
 20
32.4308511019
 11
28.3041662693
 21
32.4840425849
  0
LINE
  5
402
100
AcDbEntity
  8
0
100
AcDbLine
 62
7
  6
CONTINUOUS
 10
21.5333334327
 20
31.1542552859
 11
21.79375
 21
31.2074468434
  0
LINE
  5
403
100
AcDbEntity
  8
0
100
AcDbLine
 62
7
  6
CONTINUOUS
 10
23.6166668653
 20
31.8457446396
 11
23.35625
 21
31.7925531566
  0
LINE
  5
404
100
AcDbEntity
  8
0
100
AcDbLine
 62
7
  6
CONTINUOUS
 10
23.6166668653
 20
32.75
 11
23.35625
 21
32.696808517
  0
LINE
  5
405
100
AcDbEntity
  8
0
100
AcDbLine
 62
7
  6
CONTINUOUS
 10
28.3041662693
 20
30.25
 11
28.6166662693
 21
30.3031914877
  0
LINE
  5
406
100
AcDbEntity
  8
0
100
AcDbLine
 62
7
  6
CONTINUOUS
 10
19.1375
 20
30.25
 11
19.45
 21
30.3031914877
  0
LINE
  5
407
100
AcDbEntity
  8
0
100
AcDbLine
 62
7
  6
CONTINUOUS
 10
28.3041662693
 20
32.75
 11
27.9916668653
 21
32.696808517
  0
LINE
  5
408
100
AcDbEntity
  8
DRAFT
100
AcDbLine
 62
7
  6
CONTINUOUS
 10
-55.4069219382
 20
20.4048300794
 11
-54.7
 21
20.4119542171
  0
LINE
  5
409
100
AcDbEntity
  8
DRAFT
100
AcDbLine
 62
7
  6
CONTINUOUS
 10
-35.0
 20
22.5144421512
 11
-33.284291638
 21
22.5144421512
  0
LINE
  5
40A
100
AcDbEntity
  8
DRAFT
100
AcDbLine
 62
7
  6
CONTINUOUS
 10
33.284291638
 20
22.5144421512
 11
35.0
 21
22.5144421512
  0
LINE
  5
40B
100
AcDbEntity
  8
DRAFT
100
AcDbLine
 62
7
  6
CONTINUOUS
 10
32.515708362
 20
22.515708362
 11
-32.515708362
 21
22.515708362
  0
LINE
  5
40C
100
AcDbEntity
  8
RACCORDO
100
AcDbLine
 62
7
  6
CONTINUOUS
 10
57.9722315198
 20
22.5641852976
 11
55.5413486316
 21
22.5641852976
  0
LINE
  5
40D
100
AcDbEntity
  8
RACCORDO
100
AcDbLine
 62
7
  6
CONTINUOUS
 10
-55.5413486316
 20
22.5641852976
 11
-57.9722315198
 21
22.5641852976
  0
LINE
  5
40E
100
AcDbEntity
  8
RACCORDO
100
AcDbLine
 62
7
  6
CONTINUOUS
 10
-57.9465101847
 20
23.2358147024
 11
-55.5413486316
 21
23.2358147024
  0
LINE
  5
40F
100
AcDbEntity
  8
RACCORDO
100
AcDbLine
 62
7
  6
CONTINUOUS
 10
55.5413486316
 20
23.2358147024
 11
57.9465101847
 21
23.2358147024
  0
LINE
  5
410
100
AcDbEntity
  8
DRAFT
100
AcDbLine
 62
7
  6
CONTINUOUS
 10
-32.5144421512
 20
23.284291638
 11
-0.3855578488
 21
23.284291638
  0
LINE
  5
411
100
AcDbEntity
  8
DRAFT
100
AcDbLine
 62
7
  6
CONTINUOUS
 10
0.3855578488
 20
23.284291638
 11
32.5144421512
 21
23.284291638
  0
LINE
  5
412
100
AcDbEntity
  8
DRAFT
100
AcDbLine
 62
7
  6
CONTINUOUS
 10
-35.0
 20
23.2855578488
 11
-33.2855578488
 21
23.2855578488
  0
LINE
  5
413
100
AcDbEntity
  8
DRAFT
100
AcDbLine
 62
7
  6
CONTINUOUS
 10
33.2855578488
 20
23.2855578488
 11
35.0
 21
23.2855578488
  0
LINE
  5
414
100
AcDbEntity
  8
RACCORDO
100
AcDbLine
 62
253
  6
CONTINUOUS
 10
0.3855578488
 20
23.8015955965
 11
-0.3855578488
 21
23.8015955965
  0
LINE
  5
415
100
AcDbEntity
  8
RACCORDO
100
AcDbLine
 62
7
  6
CONTINUOUS
 10
-33.2852589046
 20
24.0
 11
-32.5147410954
 21
24.0
  0
LINE
  5
416
100
AcDbEntity
  8
RACCORDO
100
AcDbLine
 62
7
  6
CONTINUOUS
 10
0.3870831923
 20
24.0
 11
-0.3870831923
 21
24.0
  0
LINE
  5
417
100
AcDbEntity
  8
RACCORDO
100
AcDbLine
 62
7
  6
CONTINUOUS
 10
32.5147410954
 20
24.0
 11
33.2852589046
 21
24.0
  0
LINE
  5
418
100
AcDbEntity
  8
RACCORDO
100
AcDbLine
 62
253
  6
CONTINUOUS
 10
-33.2835149479
 20
24.191943128
 11
-32.5164850521
 21
24.191943128
  0
LINE
  5
419
100
AcDbEntity
  8
RACCORDO
100
AcDbLine
 62
253
  6
CONTINUOUS
 10
32.5164850521
 20
24.191943128
 11
33.2835149479
 21
24.191943128
  0
LINE
  5
41A
100
AcDbEntity
  8
0
100
AcDbLine
 62
7
  6
CONTINUOUS
 10
29.0
 20
27.5
 11
5.0
 21
27.5
  0
LINE
  5
41B
100
AcDbEntity
  8
0
100
AcDbLine
 62
7
  6
CONTINUOUS
 10
-5.0
 20
27.5
 11
-29.0
 21
27.5
  0
LINE
  5
41C
100
AcDbEntity
  8
DRAFT
100
AcDbLine
 62
7
  6
CONTINUOUS
 10
54.7
 20
20.4119542171
 11
55.4069219382
 21
20.4048300794
  0
LINE
  5
41D
100
AcDbEntity
  8
RACCORDO
100
AcDbLine
 62
7
  6
CONTINUOUS
 10
54.9964645355
 20
0.362580396
 11
55.0065146541
 21
0.3575557194
  0
LINE
  5
41E
100
AcDbEntity
  8
DRAFT
100
AcDbLine
 62
7
  6
CONTINUOUS
 10
33.284291638
 20
-0.3855578488
 11
33.2965579574
 21
-0.3978241682
  0
LINE
  5
41F
100
AcDbEntity
  8
DRAFT
100
AcDbLine
 62
7
  6
CONTINUOUS
 10
32.515708362
 20
0.384291638
 11
32.5031154982
 21
0.3968845018
  0
LINE
  5
420
100
AcDbEntity
  8
0
100
AcDbLine
 62
7
  6
CONTINUOUS
 10
7.2032910663
 20
30.1000002337
 11
5.4793455583
 21
32.7483102152
  0
LINE
  5
421
100
AcDbEntity
  8
0
100
AcDbLine
 62
7
  6
CONTINUOUS
 10
5.5209283918
 20
33.3999997663
 11
7.2587464905
 21
30.7239465445
  0
LINE
  5
422
100
AcDbEntity
  8
0
100
AcDbLine
 62
7
  6
CONTINUOUS
 10
12.435035753
 20
30.1000002337
 11
11.270343737
 21
33.3999997663
  0
LINE
  5
423
100
AcDbEntity
  8
0
100
AcDbLine
 62
7
  6
CONTINUOUS
 10
11.7463364513
 20
33.3999997663
 11
12.6892378272
 21
30.5390724851
  0
LINE
  5
424
100
AcDbEntity
  8
0
100
AcDbLine
 62
7
  6
CONTINUOUS
 10
18.2520833349
 20
30.9946808368
 11
18.3041666698
 21
30.8351063877
  0
LINE
  5
425
100
AcDbEntity
  8
0
100
AcDbLine
 62
7
  6
CONTINUOUS
 10
18.2
 20
31.2606383264
 11
18.2520833349
 21
30.9946808368
  0
LINE
  5
426
100
AcDbEntity
  8
0
100
AcDbLine
 62
7
  6
CONTINUOUS
 10
20.075
 20
31.7393616736
 11
20.0229167163
 21
32.0053190887
  0
LINE
  5
427
100
AcDbEntity
  8
0
100
AcDbLine
 62
7
  6
CONTINUOUS
 10
18.5125
 20
30.9946808368
 11
18.4604166605
 21
31.3138298094
  0
LINE
  5
428
100
AcDbEntity
  8
0
100
AcDbLine
 62
7
  6
CONTINUOUS
 10
19.7625
 20
32.0053190887
 11
19.8145832837
 21
31.6861701906
  0
LINE
  5
429
100
AcDbEntity
  8
0
100
AcDbLine
 62
7
  6
CONTINUOUS
 10
22.3666665673
 20
31.6861701906
 11
22.3145834327
 21
32.0585105717
  0
LINE
  5
42A
100
AcDbEntity
  8
0
100
AcDbLine
 62
7
  6
CONTINUOUS
 10
22.7833334327
 20
31.3138298094
 11
22.8354165673
 21
30.9414893538
  0
LINE
  5
42B
100
AcDbEntity
  8
0
100
AcDbLine
 62
7
  6
CONTINUOUS
 10
27.6270831347
 20
31.3138298094
 11
27.6270831347
 21
31.6861701906
  0
LINE
  5
42C
100
AcDbEntity
  8
0
100
AcDbLine
 62
7
  6
CONTINUOUS
 10
28.98125
 20
31.6861701906
 11
28.98125
 21
31.3138298094
  0
LINE
  5
42D
100
AcDbEntity
  8
0
100
AcDbLine
 62
7
  6
CONTINUOUS
 10
29.2416662693
 20
31.2606383264
 11
29.2416662693
 21
31.7393616736
  0
LINE
  5
42E
100
AcDbEntity
  8
0
100
AcDbLine
 62
7
  6
CONTINUOUS
 10
30.0
 20
35.0
 11
30.0
 21
28.5
  0
LINE
  5
42F
100
AcDbEntity
  8
0
100
AcDbLine
 62
7
  6
CONTINUOUS
 10
30.0
 20
-28.5
 11
30.0
 21
-35.0
  0
LINE
  5
430
100
AcDbEntity
  8
DRAFT
100
AcDbLine
 62
7
  6
CONTINUOUS
 10
32.5144421512
 20
24.0
 11
32.5144421512
 21
23.284291638
  0
LINE
  5
431
100
AcDbEntity
  8
DRAFT
100
AcDbLine
 62
7
  6
CONTINUOUS
 10
32.5144421512
 20
-23.284291638
 11
32.5144421512
 21
-24.0
  0
LINE
  5
432
100
AcDbEntity
  8
DRAFT
100
AcDbLine
 62
7
  6
CONTINUOUS
 10
32.515708362
 20
-22.515708362
 11
32.515708362
 21
-0.384291638
  0
LINE
  5
433
100
AcDbEntity
  8
DRAFT
100
AcDbLine
 62
7
  6
CONTINUOUS
 10
32.515708362
 20
0.384291638
 11
32.515708362
 21
22.515708362
  0
LINE
  5
434
100
AcDbEntity
  8
RACCORDO
100
AcDbLine
 62
7
  6
CONTINUOUS
 10
32.5641852976
 20
-37.86659898
 11
32.5641852976
 21
-32.8413486316
  0
LINE
  5
435
100
AcDbEntity
  8
RACCORDO
100
AcDbLine
 62
7
  6
CONTINUOUS
 10
32.5641852976
 20
32.8413486316
 11
32.5641852976
 21
37.86659898
  0
LINE
  5
436
100
AcDbEntity
  8
RACCORDO
100
AcDbLine
 62
7
  6
CONTINUOUS
 10
33.2358147024
 20
37.8444548852
 11
33.2358147024
 21
32.8413486316
  0
LINE
  5
437
100
AcDbEntity
  8
RACCORDO
100
AcDbLine
 62
7
  6
CONTINUOUS
 10
33.2358147024
 20
-32.8413486316
 11
33.2358147024
 21
-37.8444548852
  0
LINE
  5
438
100
AcDbEntity
  8
DRAFT
100
AcDbLine
 62
7
  6
CONTINUOUS
 10
33.284291638
 20
22.5144421512
 11
33.284291638
 21
0.3855578488
  0
LINE
  5
439
100
AcDbEntity
  8
DRAFT
100
AcDbLine
 62
7
  6
CONTINUOUS
 10
33.284291638
 20
-0.3855578488
 11
33.284291638
 21
-22.5144421512
  0
LINE
  5
43A
100
AcDbEntity
  8
DRAFT
100
AcDbLine
 62
7
  6
CONTINUOUS
 10
33.2855578488
 20
-24.0
 11
33.2855578488
 21
-23.2855578488
  0
LINE
  5
43B
100
AcDbEntity
  8
DRAFT
100
AcDbLine
 62
7
  6
CONTINUOUS
 10
33.2855578488
 20
23.2855578488
 11
33.2855578488
 21
24.0
  0
LINE
  5
43C
100
AcDbEntity
  8
0
100
AcDbLine
 62
7
  6
CONTINUOUS
 10
21.654719
 20
-32.675
 11
21.848007
 21
-32.136533
  0
LINE
  5
43D
100
AcDbEntity
  8
0
100
AcDbLine
 62
7
  6
CONTINUOUS
 10
21.925314
 20
-31.914951
 11
22.224277
 21
-31.09334
  0
LINE
  5
43E
100
AcDbEntity
  8
0
100
AcDbLine
 62
7
  6
CONTINUOUS
 10
22.092839
 20
-30.825
 11
21.397095
 21
-32.675
  0
LINE
  5
43F
100
AcDbEntity
  8
0
100
AcDbLine
 62
7
  6
CONTINUOUS
 10
21.2729165673
 20
32.75
 11
21.0125
 21
32.696808517
  0
LINE
  5
440
100
AcDbEntity
  8
0
100
AcDbLine
 62
7
  6
CONTINUOUS
 10
18.8770833582
 20
32.4308511019
 11
19.1375
 21
32.4840425849
  0
LINE
  5
441
100
AcDbEntity
  8
0
100
AcDbLine
 62
7
  6
CONTINUOUS
 10
19.1375
 20
32.75
 11
18.825
 21
32.696808517
  0
LINE
  5
442
100
AcDbEntity
  8
0
100
AcDbLine
 62
7
  6
CONTINUOUS
 10
-9.7116364927
 20
29.9276540612
 11
-10.4745195396
 21
29.9276540612
  0
LINE
  5
443
100
AcDbEntity
  8
0
100
AcDbLine
 62
7
  6
CONTINUOUS
 10
-11.689063541
 20
29.9276540612
 11
-12.4789858413
 21
29.9276540612
  0
LINE
  5
444
100
AcDbEntity
  8
0
100
AcDbLine
 62
7
  6
CONTINUOUS
 10
-12.711882
 20
29.927654
 11
-13.547791
 21
29.927654
  0
LINE
  5
445
100
AcDbEntity
  8
0
100
AcDbLine
 62
7
  6
CONTINUOUS
 10
-15.052188
 20
29.927654
 11
-15.836697
 21
29.927654
  0
LINE
  5
446
100
AcDbEntity
  8
0
100
AcDbLine
 62
7
  6
CONTINUOUS
 10
-15.961237
 20
29.927654
 11
-16.737113
 21
29.927654
  0
LINE
  5
447
100
AcDbEntity
  8
0
100
AcDbLine
 62
7
  6
CONTINUOUS
 10
-17.843072
 20
29.927654
 11
-17.954306
 21
29.927654
  0
LINE
  5
448
100
AcDbEntity
  8
0
100
AcDbLine
 62
7
  6
CONTINUOUS
 10
-19.055878
 20
29.927654
 11
-19.81463
 21
29.927654
  0
LINE
  5
449
100
AcDbEntity
  8
0
100
AcDbLine
 62
7
  6
CONTINUOUS
 10
-20.241588
 20
29.927654
 11
-21.034701
 21
29.927654
  0
LINE
  5
44A
100
AcDbEntity
  8
0
100
AcDbLine
 62
7
  6
CONTINUOUS
 10
-22.550353
 20
29.927654
 11
-23.249285
 21
29.927654
  0
LINE
  5
44B
100
AcDbEntity
  8
0
100
AcDbLine
 62
7
  6
CONTINUOUS
 10
16.9598489784
 20
30.1000002337
 11
14.6673524117
 21
30.1000002337
  0
LINE
  5
44C
100
AcDbEntity
  8
0
100
AcDbLine
 62
7
  6
CONTINUOUS
 10
12.9341695092
 20
30.1000002337
 11
12.435035753
 21
30.1000002337
  0
LINE
  5
44D
100
AcDbEntity
  8
0
100
AcDbLine
 62
7
  6
CONTINUOUS
 10
10.8960535921
 20
30.1000002337
 11
8.6036191385
 21
30.1000002337
  0
LINE
  5
44E
100
AcDbEntity
  8
0
100
AcDbLine
 62
7
  6
CONTINUOUS
 10
7.6839772078
 20
30.1000002337
 11
7.2032910663
 21
30.1000002337
  0
LINE
  5
44F
100
AcDbEntity
  8
0
100
AcDbLine
 62
7
  6
CONTINUOUS
 10
5.4700771071
 20
30.1000002337
 11
5.0541129
 21
30.1000002337
  0
LINE
  5
450
100
AcDbEntity
  8
0
100
AcDbLine
 62
7
  6
CONTINUOUS
 10
21.325
 20
30.25
 11
21.5333334327
 21
30.25
  0
LINE
  5
451
100
AcDbEntity
  8
0
100
AcDbLine
 62
7
  6
CONTINUOUS
 10
23.6166668653
 20
30.25
 11
23.8770831347
 21
30.25
  0
LINE
  5
452
100
AcDbEntity
  8
0
100
AcDbLine
 62
7
  6
CONTINUOUS
 10
25.85625
 20
30.25
 11
26.16875
 21
30.25
  0
LINE
  5
453
100
AcDbEntity
  8
0
100
AcDbLine
 62
7
  6
CONTINUOUS
 10
9.04269139
 20
30.4697464113
 11
10.8960535921
 21
30.4697464113
  0
LINE
  5
454
100
AcDbEntity
  8
0
100
AcDbLine
 62
7
  6
CONTINUOUS
 10
15.1064266042
 20
30.4697464113
 11
16.9598489784
 21
30.4697464113
  0
LINE
  5
455
100
AcDbEntity
  8
0
100
AcDbLine
 62
7
  6
CONTINUOUS
 10
26.16875
 20
30.5159574524
 11
25.85625
 21
30.5159574524
  0
LINE
  5
456
100
AcDbEntity
  8
0
100
AcDbLine
 62
7
  6
CONTINUOUS
 10
23.9291668653
 20
30.5159574524
 11
23.5645831347
 21
30.5159574524
  0
LINE
  5
457
100
AcDbEntity
  8
0
100
AcDbLine
 62
7
  6
CONTINUOUS
 10
21.5854165673
 20
30.5159574524
 11
21.2729165673
 21
30.5159574524
  0
LINE
  5
458
100
AcDbEntity
  8
0
100
AcDbLine
 62
7
  6
CONTINUOUS
 10
12.6892378272
 20
30.5390724851
 11
12.6985043373
 21
30.5390724851
  0
LINE
  5
459
100
AcDbEntity
  8
0
100
AcDbLine
 62
7
  6
CONTINUOUS
 10
-13.75325
 20
30.686178
 11
-14.833338
 21
30.686178
  0
LINE
  5
45A
100
AcDbEntity
  8
0
100
AcDbLine
 62
7
  6
CONTINUOUS
 10
7.2587464905
 20
30.7239465445
 11
7.2679838851
 21
30.7239465445
  0
LINE
  5
45B
100
AcDbEntity
  8
0
100
AcDbLine
 62
7
  6
CONTINUOUS
 10
20.85625
 20
30.8351063877
 11
20.5958332837
 21
30.8351063877
  0
LINE
  5
45C
100
AcDbEntity
  8
0
100
AcDbLine
 62
7
  6
CONTINUOUS
 10
25.3875
 20
30.8882978708
 11
25.075
 21
30.8882978708
  0
LINE
  5
45D
100
AcDbEntity
  8
0
100
AcDbLine
 62
7
  6
CONTINUOUS
 10
21.2729165673
 20
31.1542552859
 11
21.5333334327
 21
31.1542552859
  0
LINE
  5
45E
100
AcDbEntity
  8
0
100
AcDbLine
 62
7
  6
CONTINUOUS
 10
-14.671103
 20
31.27312
 11
-13.911753
 21
31.27312
  0
LINE
  5
45F
100
AcDbEntity
  8
0
100
AcDbLine
 62
7
  6
CONTINUOUS
 10
25.075
 20
31.3670212924
 11
25.4395831347
 21
31.3670212924
  0
LINE
  5
460
100
AcDbEntity
  8
0
100
AcDbLine
 62
7
  6
CONTINUOUS
 10
-11.2638150079
 20
31.4145850627
 11
-11.689063541
 21
31.4145850627
  0
LINE
  5
461
100
AcDbEntity
  8
0
100
AcDbLine
 62
7
  6
CONTINUOUS
 10
21.5854165673
 20
31.4202127755
 11
21.2208334327
 21
31.4202127755
  0
LINE
  5
462
100
AcDbEntity
  8
0
100
AcDbLine
 62
7
  6
CONTINUOUS
 10
23.5645831347
 20
31.5797872245
 11
23.9291668653
 21
31.5797872245
  0
LINE
  5
463
100
AcDbEntity
  8
0
100
AcDbLine
 62
7
  6
CONTINUOUS
 10
25.85625
 20
31.5797872245
 11
26.16875
 21
31.5797872245
  0
LINE
  5
464
100
AcDbEntity
  8
0
100
AcDbLine
 62
7
  6
CONTINUOUS
 10
16.8211948897
 20
31.611330383
 11
15.1064266042
 21
31.611330383
  0
LINE
  5
465
100
AcDbEntity
  8
0
100
AcDbLine
 62
7
  6
CONTINUOUS
 10
10.7573995033
 20
31.611330383
 11
9.04269139
 21
31.611330383
  0
LINE
  5
466
100
AcDbEntity
  8
0
100
AcDbLine
 62
7
  6
CONTINUOUS
 10
26.16875
 20
31.8457446396
 11
25.85625
 21
31.8457446396
  0
LINE
  5
467
100
AcDbEntity
  8
0
100
AcDbLine
 62
7
  6
CONTINUOUS
 10
23.8770831347
 20
31.8457446396
 11
23.6166668653
 21
31.8457446396
  0
LINE
  5
468
100
AcDbEntity
  8
0
100
AcDbLine
 62
7
  6
CONTINUOUS
 10
9.04269139
 20
31.9810765606
 11
10.7573995033
 21
31.9810765606
  0
LINE
  5
469
100
AcDbEntity
  8
0
100
AcDbLine
 62
7
  6
CONTINUOUS
 10
15.1064266042
 20
31.9810765606
 11
16.8211948897
 21
31.9810765606
  0
LINE
  5
46A
100
AcDbEntity
  8
0
100
AcDbLine
 62
7
  6
CONTINUOUS
 10
-11.715361993
 20
32.0368582931
 11
-11.262105466
 21
32.0368582931
  0
LINE
  5
46B
100
AcDbEntity
  8
RACCORDO
100
AcDbLine
 62
253
  6
CONTINUOUS
 10
-33.2742188636
 20
32.0464283606
 11
-32.5257811364
 21
32.0464283606
  0
LINE
  5
46C
100
AcDbEntity
  8
RACCORDO
100
AcDbLine
 62
253
  6
CONTINUOUS
 10
32.5257811364
 20
32.0464283606
 11
33.2742188636
 21
32.0464283606
  0
LINE
  5
46D
100
AcDbEntity
  8
RACCORDO
100
AcDbLine
 62
253
  6
CONTINUOUS
 10
-0.3771782153
 20
32.1440358769
 11
0.3771782153
 21
32.1440358769
  0
LINE
  5
46E
100
AcDbEntity
  8
0
100
AcDbLine
 62
7
  6
CONTINUOUS
 10
24.29375
 20
32.1648936868
 11
24.5541668653
 21
32.1648936868
  0
LINE
  5
46F
100
AcDbEntity
  8
RACCORDO
100
AcDbLine
 62
253
  6
CONTINUOUS
 10
-33.2717150205
 20
32.2781938951
 11
-32.5282849795
 21
32.2781938951
  0
LINE
  5
470
100
AcDbEntity
  8
RACCORDO
100
AcDbLine
 62
253
  6
CONTINUOUS
 10
32.5282849795
 20
32.2781938951
 11
33.2717150205
 21
32.2781938951
  0
LINE
  5
471
100
AcDbEntity
  8
RACCORDO
100
AcDbLine
 62
253
  6
CONTINUOUS
 10
-33.2401019839
 20
32.341424784
 11
-32.5598980161
 21
32.341424784
  0
LINE
  5
472
100
AcDbEntity
  8
RACCORDO
100
AcDbLine
 62
253
  6
CONTINUOUS
 10
32.5598980161
 20
32.341424784
 11
33.2401019839
 21
32.341424784
  0
LINE
  5
473
100
AcDbEntity
  8
RACCORDO
100
AcDbLine
 62
253
  6
CONTINUOUS
 10
-0.3746817839
 20
32.3722599164
 11
0.3746817839
 21
32.3722599164
  0
LINE
  5
474
100
AcDbEntity
  8
RACCORDO
100
AcDbLine
 62
253
  6
CONTINUOUS
 10
-0.3401019839
 20
32.441424784
 11
0.3401019839
 21
32.441424784
  0
LINE
  5
475
100
AcDbEntity
  8
0
100
AcDbLine
 62
7
  6
CONTINUOUS
 10
21.2208334327
 20
32.4840425849
 11
21.5854165673
 21
32.4840425849
  0
LINE
  5
476
100
AcDbEntity
  8
0
100
AcDbLine
 62
7
  6
CONTINUOUS
 10
23.5645831347
 20
32.4840425849
 11
23.8770831347
 21
32.4840425849
  0
LINE
  5
477
100
AcDbEntity
  8
0
100
AcDbLine
 62
7
  6
CONTINUOUS
 10
25.3354168653
 20
32.4840425849
 11
26.8458331347
 21
32.4840425849
  0
LINE
  5
478
100
AcDbEntity
  8
0
100
AcDbLine
 62
7
  6
CONTINUOUS
 10
5.4793455583
 20
32.7483102152
 11
5.4700771071
 21
32.7483102152
  0
LINE
  5
479
100
AcDbEntity
  8
0
100
AcDbLine
 62
7
  6
CONTINUOUS
 10
26.8458331347
 20
32.75
 11
25.075
 21
32.75
  0
LINE
  5
47A
100
AcDbEntity
  8
0
100
AcDbLine
 62
7
  6
CONTINUOUS
 10
23.825
 20
32.75
 11
23.6166668653
 21
32.75
  0
LINE
  5
47B
100
AcDbEntity
  8
0
100
AcDbLine
 62
7
  6
CONTINUOUS
 10
21.5333334327
 20
32.75
 11
21.2729165673
 21
32.75
  0
LINE
  5
47C
100
AcDbEntity
  8
RACCORDO
100
AcDbLine
 62
253
  6
CONTINUOUS
 10
-33.2358147024
 20
32.8413486316
 11
-32.5641852976
 21
32.8413486316
  0
LINE
  5
47D
100
AcDbEntity
  8
RACCORDO
100
AcDbLine
 62
253
  6
CONTINUOUS
 10
32.5641852976
 20
32.8413486316
 11
33.2358147024
 21
32.8413486316
  0
LINE
  5
47E
100
AcDbEntity
  8
RACCORDO
100
AcDbLine
 62
253
  6
CONTINUOUS
 10
-0.3358147024
 20
32.9413486316
 11
0.3358147024
 21
32.9413486316
  0
LINE
  5
47F
100
AcDbEntity
  8
0
100
AcDbLine
 62
7
  6
CONTINUOUS
 10
16.9458871
 20
33.0302535887
 11
15.1064266042
 21
33.0302535887
  0
LINE
  5
480
100
AcDbEntity
  8
0
100
AcDbLine
 62
7
  6
CONTINUOUS
 10
10.8821829424
 20
33.0302535887
 11
9.04269139
 21
33.0302535887
  0
LINE
  5
481
100
AcDbEntity
  8
0
100
AcDbLine
 62
7
  6
CONTINUOUS
 10
5.0541129
 20
33.3999997663
 11
5.5209283918
 21
33.3999997663
  0
LINE
  5
482
100
AcDbEntity
  8
0
100
AcDbLine
 62
7
  6
CONTINUOUS
 10
7.2679838851
 20
33.3999997663
 11
7.6839772078
 21
33.3999997663
  0
LINE
  5
483
100
AcDbEntity
  8
0
100
AcDbLine
 62
7
  6
CONTINUOUS
 10
8.6036191385
 20
33.3999997663
 11
10.8821829424
 21
33.3999997663
  0
LINE
  5
484
100
AcDbEntity
  8
0
100
AcDbLine
 62
7
  6
CONTINUOUS
 10
11.270343737
 20
33.3999997663
 11
11.7463364513
 21
33.3999997663
  0
LINE
  5
485
100
AcDbEntity
  8
0
100
AcDbLine
 62
7
  6
CONTINUOUS
 10
13.6505518791
 20
33.3999997663
 11
14.1081610329
 21
33.3999997663
  0
LINE
  5
486
100
AcDbEntity
  8
0
100
AcDbLine
 62
7
  6
CONTINUOUS
 10
14.6673524117
 20
33.3999997663
 11
16.9458871
 21
33.3999997663
  0
LINE
  5
487
100
AcDbEntity
  8
0
100
AcDbLine
 62
7
  6
CONTINUOUS
 10
-24.453814
 20
33.727196
 11
-23.592247
 21
33.727196
  0
LINE
  5
488
100
AcDbEntity
  8
0
100
AcDbLine
 62
7
  6
CONTINUOUS
 10
-22.1216
 20
33.727196
 11
-21.329028
 21
33.727196
  0
LINE
  5
489
100
AcDbEntity
  8
0
100
AcDbLine
 62
7
  6
CONTINUOUS
 10
-19.471553
 20
33.727196
 11
-18.679095
 21
33.727196
  0
LINE
  5
48A
100
AcDbEntity
  8
0
100
AcDbLine
 62
7
  6
CONTINUOUS
 10
-17.101245
 20
33.727196
 11
-16.316537
 21
33.727196
  0
LINE
  5
48B
100
AcDbEntity
  8
0
100
AcDbLine
 62
7
  6
CONTINUOUS
 10
-14.644918
 20
33.727196
 11
-13.877676
 21
33.727196
  0
LINE
  5
48C
100
AcDbEntity
  8
0
100
AcDbLine
 62
7
  6
CONTINUOUS
 10
-21.034701
 20
33.727424
 11
-20.241588
 21
33.727424
  0
LINE
  5
48D
100
AcDbEntity
  8
0
100
AcDbLine
 62
7
  6
CONTINUOUS
 10
18.825
 20
30.3031914877
 11
19.1375
 21
30.25
  0
LINE
  5
48E
100
AcDbEntity
  8
0
100
AcDbLine
 62
7
  6
CONTINUOUS
 10
19.1375
 20
30.5159574524
 11
18.8770833582
 21
30.5691489354
  0
LINE
  5
48F
100
AcDbEntity
  8
0
100
AcDbLine
 62
7
  6
CONTINUOUS
 10
21.0645834327
 20
30.3031914877
 11
21.325
 21
30.25
  0
LINE
  5
490
100
AcDbEntity
  8
0
100
AcDbLine
 62
7
  6
CONTINUOUS
 10
18.7208333209
 20
30.6755319014
 11
18.5125
 21
30.9946808368
  0
LINE
  5
491
100
AcDbEntity
  8
0
100
AcDbLine
 62
7
  6
CONTINUOUS
 10
19.5541667163
 20
32.3244681358
 11
19.7625
 21
32.0053190887
  0
LINE
  5
492
100
AcDbEntity
  8
0
100
AcDbLine
 62
7
  6
CONTINUOUS
 10
18.3041666698
 20
30.8351063877
 11
18.4083333395
 21
30.6223404184
  0
LINE
  5
493
100
AcDbEntity
  8
0
100
AcDbLine
 62
7
  6
CONTINUOUS
 10
19.9708332837
 20
32.1648936868
 11
19.8666667163
 21
32.3776596189
  0
LINE
  5
494
100
AcDbEntity
  8
0
100
AcDbLine
 62
7
  6
CONTINUOUS
 10
20.4916667163
 20
31.8457446396
 11
20.5958332837
 21
31.5797872245
  0
LINE
  5
495
100
AcDbEntity
  8
0
100
AcDbLine
 62
7
  6
CONTINUOUS
 10
22.3145834327
 20
32.0585105717
 11
22.2104165673
 21
32.3244681358
  0
LINE
  5
496
100
AcDbEntity
  8
0
100
AcDbLine
 62
7
  6
CONTINUOUS
 10
22.8354165673
 20
30.9414893538
 11
22.9395834327
 21
30.6755319014
  0
LINE
  5
497
100
AcDbEntity
  8
0
100
AcDbLine
 62
7
  6
CONTINUOUS
 10
20.0229167163
 20
32.0053190887
 11
19.9708332837
 21
32.1648936868
  0
LINE
  5
498
100
AcDbEntity
  8
0
100
AcDbLine
 62
7
  6
CONTINUOUS
 10
20.5958332837
 20
30.8351063877
 11
20.6479167163
 21
30.6755319014
  0
LINE
  5
499
100
AcDbEntity
  8
0
100
AcDbLine
 62
7
  6
CONTINUOUS
 10
20.8041665673
 20
31.7393616736
 11
20.7520834327
 21
31.8989361227
  0
LINE
  5
49A
100
AcDbEntity
  8
0
100
AcDbLine
 62
7
  6
CONTINUOUS
 10
22.0020834327
 20
32.1648936868
 11
22.0541665673
 21
32.0053190887
  0
LINE
  5
49B
100
AcDbEntity
  8
0
100
AcDbLine
 62
7
  6
CONTINUOUS
 10
23.1479165673
 20
30.8351063877
 11
23.0958334327
 21
30.9946808368
  0
LINE
  5
49C
100
AcDbEntity
  8
0
100
AcDbLine
 62
7
  6
CONTINUOUS
 10
24.3458331347
 20
31.3138298094
 11
24.3979168653
 21
31.1542552859
  0
LINE
  5
49D
100
AcDbEntity
  8
0
100
AcDbLine
 62
7
  6
CONTINUOUS
 10
24.5541668653
 20
32.1648936868
 11
24.5020831347
 21
32.3244681358
  0
LINE
  5
49E
100
AcDbEntity
  8
0
100
AcDbLine
 62
7
  6
CONTINUOUS
 10
27.3666668653
 20
31.2606383264
 11
27.41875
 21
30.9946808368
  0
LINE
  5
49F
100
AcDbEntity
  8
0
100
AcDbLine
 62
7
  6
CONTINUOUS
 10
27.6791668653
 20
30.9946808368
 11
27.6270831347
 21
31.3138298094
  0
LINE
  5
4A0
100
AcDbEntity
  8
0
100
AcDbLine
 62
7
  6
CONTINUOUS
 10
28.9291662693
 20
32.0053190887
 11
28.98125
 21
31.6861701906
  0
LINE
  5
4A1
100
AcDbEntity
  8
RACCORDO
100
AcDbLine
 62
253
  6
CONTINUOUS
 10
34.8001971572
 20
-0.3855578488
 11
34.8001971572
 21
0.3855578488
  0
LINE
  5
4A2
100
AcDbEntity
  8
RACCORDO
100
AcDbLine
 62
7
  6
CONTINUOUS
 10
35.0
 20
-23.2854722654
 11
35.0
 21
-22.5145277346
  0
LINE
  5
4A3
100
AcDbEntity
  8
RACCORDO
100
AcDbLine
 62
7
  6
CONTINUOUS
 10
35.0
 20
-0.3872257427
 11
35.0
 21
0.3872257427
  0
LINE
  5
4A4
100
AcDbEntity
  8
RACCORDO
100
AcDbLine
 62
7
  6
CONTINUOUS
 10
35.0
 20
22.5145277346
 11
35.0
 21
23.2854722654
  0
LINE
  5
4A5
100
AcDbEntity
  8
RACCORDO
100
AcDbLine
 62
253
  6
CONTINUOUS
 10
35.1972947761
 20
-23.2837270515
 11
35.1972947761
 21
-22.5162729485
  0
LINE
  5
4A6
100
AcDbEntity
  8
RACCORDO
100
AcDbLine
 62
253
  6
CONTINUOUS
 10
35.1972947761
 20
22.5162729485
 11
35.1972947761
 21
23.2837270515
  0
LINE
  5
4A7
100
AcDbEntity
  8
RACCORDO
100
AcDbLine
 62
7
  6
CONTINUOUS
 10
36.7856406461
 20
-38.5388484843
 11
36.7856406461
 21
-38.7371417571
  0
LINE
  5
4A8
100
AcDbEntity
  8
RACCORDO
100
AcDbLine
 62
7
  6
CONTINUOUS
 10
37.0
 20
-38.5147169672
 11
37.0
 21
-38.4891406387
  0
LINE
  5
4A9
100
AcDbEntity
  8
0
100
AcDbLine
 62
7
  6
CONTINUOUS
 10
25.901071
 20
-30.825
 11
25.370384
 21
-31.714017
  0
LINE
  5
4AA
100
AcDbEntity
  8
0
100
AcDbLine
 62
7
  6
CONTINUOUS
 10
25.49651
 20
-31.930362
 11
26.194916
 21
-30.825
  0
LINE
  5
4AB
100
AcDbEntity
  8
DRAFT
100
AcDbLine
 62
7
  6
CONTINUOUS
 10
32.5144421512
 20
-23.284291638
 11
32.5066020536
 21
-23.2921317356
  0
LINE
  5
4AC
100
AcDbEntity
  8
DRAFT
100
AcDbLine
 62
7
  6
CONTINUOUS
 10
33.284291638
 20
-22.5144421512
 11
33.2921237487
 21
-22.5066100405
  0
LINE
  5
4AD
100
AcDbEntity
  8
0
100
AcDbLine
 62
7
  6
CONTINUOUS
 10
-29.0
 20
36.0
 11
-5.0
 21
36.0
  0
LINE
  5
4AE
100
AcDbEntity
  8
0
100
AcDbLine
 62
7
  6
CONTINUOUS
 10
5.0
 20
36.0
 11
29.0
 21
36.0
  0
LINE
  5
4AF
100
AcDbEntity
  8
0
100
AcDbLine
 62
7
  6
CONTINUOUS
 10
27.9916668653
 20
30.3031914877
 11
28.3041662693
 21
30.25
  0
LINE
  5
4B0
100
AcDbEntity
  8
0
100
AcDbLine
 62
7
  6
CONTINUOUS
 10
19.45
 20
32.696808517
 11
19.1375
 21
32.75
  0
LINE
  5
4B1
100
AcDbEntity
  8
0
100
AcDbLine
 62
7
  6
CONTINUOUS
 10
28.6166662693
 20
32.696808517
 11
28.3041662693
 21
32.75
  0
LINE
  5
4B2
100
AcDbEntity
  8
0
100
AcDbLine
 62
7
  6
CONTINUOUS
 10
23.35625
 20
30.3031914877
 11
23.6166668653
 21
30.25
  0
LINE
  5
4B3
100
AcDbEntity
  8
0
100
AcDbLine
 62
7
  6
CONTINUOUS
 10
21.0125
 20
31.2074468434
 11
21.2729165673
 21
31.1542552859
  0
LINE
  5
4B4
100
AcDbEntity
  8
0
100
AcDbLine
 62
7
  6
CONTINUOUS
 10
25.5958331347
 20
30.3031914877
 11
25.85625
 21
30.25
  0
LINE
  5
4B5
100
AcDbEntity
  8
0
100
AcDbLine
 62
7
  6
CONTINUOUS
 10
28.3041662693
 20
30.5159574524
 11
28.04375
 21
30.5691489354
  0
LINE
  5
4B6
100
AcDbEntity
  8
0
100
AcDbLine
 62
7
  6
CONTINUOUS
 10
19.1375
 20
32.4840425849
 11
19.3979166418
 21
32.4308511019
  0
LINE
  5
4B7
100
AcDbEntity
  8
0
100
AcDbLine
 62
7
  6
CONTINUOUS
 10
24.1375
 20
31.7925531566
 11
23.8770831347
 21
31.8457446396
  0
LINE
  5
4B8
100
AcDbEntity
  8
0
100
AcDbLine
 62
7
  6
CONTINUOUS
 10
21.79375
 20
32.696808517
 11
21.5333334327
 21
32.75
  0
LINE
  5
4B9
100
AcDbEntity
  8
0
100
AcDbLine
 62
7
  6
CONTINUOUS
 10
26.4291668653
 20
31.7925531566
 11
26.16875
 21
31.8457446396
  0
LINE
  5
4BA
100
AcDbEntity
  8
0
100
AcDbLine
 62
7
  6
CONTINUOUS
 10
24.0854168653
 20
32.696808517
 11
23.825
 21
32.75
  0
LINE
  5
4BB
100
AcDbEntity
  8
0
100
AcDbLine
 62
7
  6
CONTINUOUS
 10
28.3041662693
 20
32.4840425849
 11
28.5645837307
 21
32.4308511019
  0
LINE
  5
4BC
100
AcDbEntity
  8
0
100
AcDbLine
 62
7
  6
CONTINUOUS
 10
25.85625
 20
30.5159574524
 11
25.6479168653
 21
30.5691489354
  0
LINE
  5
4BD
100
AcDbEntity
  8
0
100
AcDbLine
 62
7
  6
CONTINUOUS
 10
26.16875
 20
31.5797872245
 11
26.3770831347
 21
31.5265957415
  0
LINE
  5
4BE
100
AcDbEntity
  8
0
100
AcDbLine
 62
7
  6
CONTINUOUS
 10
21.2729165673
 20
30.5159574524
 11
21.1166665673
 21
30.5691489354
  0
LINE
  5
4BF
100
AcDbEntity
  8
0
100
AcDbLine
 62
7
  6
CONTINUOUS
 10
23.5645831347
 20
30.5159574524
 11
23.4083331347
 21
30.5691489354
  0
LINE
  5
4C0
100
AcDbEntity
  8
0
100
AcDbLine
 62
7
  6
CONTINUOUS
 10
21.2208334327
 20
31.4202127755
 11
21.0645834327
 21
31.4734042585
  0
LINE
  5
4C1
100
AcDbEntity
  8
0
100
AcDbLine
 62
7
  6
CONTINUOUS
 10
23.9291668653
 20
31.5797872245
 11
24.0854168653
 21
31.5265957415
  0
LINE
  5
4C2
100
AcDbEntity
  8
0
100
AcDbLine
 62
7
  6
CONTINUOUS
 10
21.5854165673
 20
32.4840425849
 11
21.7416665673
 21
32.4308511019
  0
LINE
  5
4C3
100
AcDbEntity
  8
0
100
AcDbLine
 62
7
  6
CONTINUOUS
 10
23.8770831347
 20
32.4840425849
 11
24.0333331347
 21
32.4308511019
  0
LINE
  5
4C4
100
AcDbEntity
  8
0
100
AcDbLine
 62
7
  6
CONTINUOUS
 10
18.5645833209
 20
30.4627659507
 11
18.825
 21
30.3031914877
  0
LINE
  5
4C5
100
AcDbEntity
  8
0
100
AcDbLine
 62
7
  6
CONTINUOUS
 10
20.8041665673
 20
30.4627659507
 11
21.0645834327
 21
30.3031914877
  0
LINE
  5
4C6
100
AcDbEntity
  8
0
100
AcDbLine
 62
7
  6
CONTINUOUS
 10
20.7520834327
 20
31.3670212924
 11
21.0125
 21
31.2074468434
  0
LINE
  5
4C7
100
AcDbEntity
  8
0
100
AcDbLine
 62
7
  6
CONTINUOUS
 10
19.7104167163
 20
32.5372340679
 11
19.45
 21
32.696808517
  0
LINE
  5
4C8
100
AcDbEntity
  8
0
100
AcDbLine
 62
7
  6
CONTINUOUS
 10
23.0958334327
 20
30.4627659507
 11
23.35625
 21
30.3031914877
  0
LINE
  5
4C9
100
AcDbEntity
  8
0
100
AcDbLine
 62
7
  6
CONTINUOUS
 10
25.3354168653
 20
30.4627659507
 11
25.5958331347
 21
30.3031914877
  0
LINE
  5
4CA
100
AcDbEntity
  8
0
100
AcDbLine
 62
7
  6
CONTINUOUS
 10
22.0541665673
 20
32.5372340679
 11
21.79375
 21
32.696808517
  0
LINE
  5
4CB
100
AcDbEntity
  8
0
100
AcDbLine
 62
7
  6
CONTINUOUS
 10
24.3979168653
 20
31.6329787076
 11
24.1375
 21
31.7925531566
  0
LINE
  5
4CC
100
AcDbEntity
  8
0
100
AcDbLine
 62
7
  6
CONTINUOUS
 10
27.73125
 20
30.4627659507
 11
27.9916668653
 21
30.3031914877
  0
LINE
  5
4CD
100
AcDbEntity
  8
0
100
AcDbLine
 62
7
  6
CONTINUOUS
 10
24.3458331347
 20
32.5372340679
 11
24.0854168653
 21
32.696808517
  0
LINE
  5
4CE
100
AcDbEntity
  8
0
100
AcDbLine
 62
7
  6
CONTINUOUS
 10
18.8770833582
 20
30.5691489354
 11
18.7208333209
 21
30.6755319014
  0
LINE
  5
4CF
100
AcDbEntity
  8
0
100
AcDbLine
 62
7
  6
CONTINUOUS
 10
21.1166665673
 20
30.5691489354
 11
20.9604165673
 21
30.6755319014
  0
LINE
  5
4D0
100
AcDbEntity
  8
0
100
AcDbLine
 62
7
  6
CONTINUOUS
 10
19.3979166418
 20
32.4308511019
 11
19.5541667163
 21
32.3244681358
  0
LINE
  5
4D1
100
AcDbEntity
  8
0
100
AcDbLine
 62
7
  6
CONTINUOUS
 10
21.0645834327
 20
31.4734042585
 11
20.9083334327
 21
31.5797872245
  0
LINE
  5
4D2
100
AcDbEntity
  8
0
100
AcDbLine
 62
7
  6
CONTINUOUS
 10
23.4083331347
 20
30.5691489354
 11
23.2520831347
 21
30.6755319014
  0
LINE
  5
4D3
100
AcDbEntity
  8
0
100
AcDbLine
 62
7
  6
CONTINUOUS
 10
21.7416665673
 20
32.4308511019
 11
21.8979165673
 21
32.3244681358
  0
LINE
  5
4D4
100
AcDbEntity
  8
0
100
AcDbLine
 62
7
  6
CONTINUOUS
 10
24.0854168653
 20
31.5265957415
 11
24.2416668653
 21
31.4202127755
  0
LINE
  5
4D5
100
AcDbEntity
  8
0
100
AcDbLine
 62
7
  6
CONTINUOUS
 10
25.6479168653
 20
30.5691489354
 11
25.4916668653
 21
30.6755319014
  0
LINE
  5
4D6
100
AcDbEntity
  8
0
100
AcDbLine
 62
7
  6
CONTINUOUS
 10
24.0333331347
 20
32.4308511019
 11
24.1895831347
 21
32.3244681358
  0
LINE
  5
4D7
100
AcDbEntity
  8
DRAFT
100
AcDbLine
 62
7
  6
CONTINUOUS
 10
33.284291638
 20
22.5144421512
 11
33.2921237487
 21
22.5066100405
  0
LINE
  5
4D8
100
AcDbEntity
  8
DRAFT
100
AcDbLine
 62
7
  6
CONTINUOUS
 10
32.5144421512
 20
23.284291638
 11
32.5066020536
 21
23.2921317356
  0
LINE
  5
4D9
100
AcDbEntity
  8
0
100
AcDbLine
 62
7
  6
CONTINUOUS
 10
18.4083333395
 20
30.6223404184
 11
18.5645833209
 21
30.4627659507
  0
LINE
  5
4DA
100
AcDbEntity
  8
0
100
AcDbLine
 62
7
  6
CONTINUOUS
 10
19.8666667163
 20
32.3776596189
 11
19.7104167163
 21
32.5372340679
  0
LINE
  5
4DB
100
AcDbEntity
  8
0
100
AcDbLine
 62
7
  6
CONTINUOUS
 10
24.2416668653
 20
31.4202127755
 11
24.3458331347
 21
31.3138298094
  0
LINE
  5
4DC
100
AcDbEntity
  8
0
100
AcDbLine
 62
7
  6
CONTINUOUS
 10
24.5541668653
 20
31.4734042585
 11
24.3979168653
 21
31.6329787076
  0
LINE
  5
4DD
100
AcDbEntity
  8
0
100
AcDbLine
 62
7
  6
CONTINUOUS
 10
20.6479167163
 20
30.6755319014
 11
20.8041665673
 21
30.4627659507
  0
LINE
  5
4DE
100
AcDbEntity
  8
0
100
AcDbLine
 62
7
  6
CONTINUOUS
 10
20.5958332837
 20
31.5797872245
 11
20.7520834327
 21
31.3670212924
  0
LINE
  5
4DF
100
AcDbEntity
  8
0
100
AcDbLine
 62
7
  6
CONTINUOUS
 10
22.9395834327
 20
30.6755319014
 11
23.0958334327
 21
30.4627659507
  0
LINE
  5
4E0
100
AcDbEntity
  8
0
100
AcDbLine
 62
7
  6
CONTINUOUS
 10
22.2104165673
 20
32.3244681358
 11
22.0541665673
 21
32.5372340679
  0
LINE
  5
4E1
100
AcDbEntity
  8
0
100
AcDbLine
 62
7
  6
CONTINUOUS
 10
25.1791668653
 20
30.6755319014
 11
25.3354168653
 21
30.4627659507
  0
LINE
  5
4E2
100
AcDbEntity
  8
0
100
AcDbLine
 62
7
  6
CONTINUOUS
 10
24.5020831347
 20
32.3244681358
 11
24.3458331347
 21
32.5372340679
  0
LINE
  5
4E3
100
AcDbEntity
  8
0
100
AcDbLine
 62
7
  6
CONTINUOUS
 10
26.8458331347
 20
31.4202127755
 11
26.6895831347
 21
31.6329787076
  0
LINE
  5
4E4
100
AcDbEntity
  8
0
100
AcDbLine
 62
7
  6
CONTINUOUS
 10
20.9604165673
 20
30.6755319014
 11
20.85625
 21
30.8351063877
  0
LINE
  5
4E5
100
AcDbEntity
  8
0
100
AcDbLine
 62
7
  6
CONTINUOUS
 10
20.9083334327
 20
31.5797872245
 11
20.8041665673
 21
31.7393616736
  0
LINE
  5
4E6
100
AcDbEntity
  8
0
100
AcDbLine
 62
7
  6
CONTINUOUS
 10
21.8979165673
 20
32.3244681358
 11
22.0020834327
 21
32.1648936868
  0
LINE
  5
4E7
100
AcDbEntity
  8
0
100
AcDbLine
 62
7
  6
CONTINUOUS
 10
23.2520831347
 20
30.6755319014
 11
23.1479165673
 21
30.8351063877
  0
LINE
  5
4E8
100
AcDbEntity
  8
0
100
AcDbLine
 62
7
  6
CONTINUOUS
 10
24.1895831347
 20
32.3244681358
 11
24.29375
 21
32.1648936868
  0
LINE
  5
4E9
100
AcDbEntity
  8
0
100
AcDbLine
 62
7
  6
CONTINUOUS
 10
26.5333331347
 20
31.4202127755
 11
26.6375
 21
31.2606383264
  0
LINE
  5
4EA
100
AcDbEntity
  8
0
100
AcDbLine
 62
7
  6
CONTINUOUS
 10
27.8875
 20
30.6755319014
 11
27.6791668653
 21
30.9946808368
  0
LINE
  5
4EB
100
AcDbEntity
  8
0
100
AcDbLine
 62
7
  6
CONTINUOUS
 10
25.075
 20
30.8882978708
 11
25.1791668653
 21
30.6755319014
  0
LINE
  5
4EC
100
AcDbEntity
  8
0
100
AcDbLine
 62
7
  6
CONTINUOUS
 10
25.4916668653
 20
30.6755319014
 11
25.3875
 21
30.8882978708
  0
LINE
  5
4ED
100
AcDbEntity
  8
0
100
AcDbLine
 62
7
  6
CONTINUOUS
 10
27.4708331347
 20
30.8351063877
 11
27.575
 21
30.6223404184
  0
LINE
  5
4EE
100
AcDbEntity
  8
0
100
AcDbLine
 62
7
  6
CONTINUOUS
 10
29.1375
 20
32.1648936868
 11
29.0333337307
 21
32.3776596189
  0
LINE
  5
4EF
100
AcDbEntity
  8
0
100
AcDbLine
 62
7
  6
CONTINUOUS
 10
24.6583331347
 20
31.2074468434
 11
24.5541668653
 21
31.4734042585
  0
LINE
  5
4F0
100
AcDbEntity
  8
0
100
AcDbLine
 62
7
  6
CONTINUOUS
 10
26.95
 20
31.1542552859
 11
26.8458331347
 21
31.4202127755
  0
LINE
  5
4F1
100
AcDbEntity
  8
0
100
AcDbLine
 62
7
  6
CONTINUOUS
 10
26.6375
 20
31.2606383264
 11
26.6895831347
 21
31.1010638028
  0
LINE
  5
4F2
100
AcDbEntity
  8
0
100
AcDbLine
 62
7
  6
CONTINUOUS
 10
27.41875
 20
30.9946808368
 11
27.4708331347
 21
30.8351063877
  0
LINE
  5
4F3
100
AcDbEntity
  8
0
100
AcDbLine
 62
7
  6
CONTINUOUS
 10
29.1895837307
 20
32.0053190887
 11
29.1375
 21
32.1648936868
  0
LINE
  5
4F4
100
AcDbEntity
  8
0
100
AcDbLine
 62
7
  6
CONTINUOUS
 10
29.2416662693
 20
31.7393616736
 11
29.1895837307
 21
32.0053190887
  0
LINE
  5
4F5
100
AcDbEntity
  8
RACCORDO
100
AcDbLine
 62
7
  6
CONTINUOUS
 10
41.0
 20
-38.3584726941
 11
41.0
 21
-38.2725161148
  0
LINE
  5
4F6
100
AcDbEntity
  8
RACCORDO
100
AcDbLine
 62
7
  6
CONTINUOUS
 10
41.2143593539
 20
-38.5641883554
 11
41.2143593539
 21
-38.305486477
  0
LINE
  5
4F7
100
AcDbEntity
  8
DRAFT
100
AcDbLine
 62
7
  6
CONTINUOUS
 10
44.8274545813
 20
0.3811944149
 11
44.8274545813
 21
-0.3811944149
  0
LINE
  5
4F8
100
AcDbEntity
  8
RACCORDO
100
AcDbLine
 62
7
  6
CONTINUOUS
 10
33.2717150205
 20
-32.2781938951
 11
33.2401019839
 21
-32.341424784
  0
LINE
  5
4F9
100
AcDbEntity
  8
RACCORDO
100
AcDbLine
 62
7
  6
CONTINUOUS
 10
54.9953791707
 20
-23.2631230371
 11
55.041424784
 21
-23.2401019839
  0
LINE
  5
4FA
100
AcDbEntity
  8
RACCORDO
100
AcDbLine
 62
7
  6
CONTINUOUS
 10
54.9953791707
 20
23.2631230371
 11
55.041424784
 21
23.2401019839
  0
LINE
  5
4FB
100
AcDbEntity
  8
0
100
AcDbLine
 62
7
  6
CONTINUOUS
 10
26.6895831347
 20
31.6329787076
 11
26.4291668653
 21
31.7925531566
  0
LINE
  5
4FC
100
AcDbEntity
  8
0
100
AcDbLine
 62
7
  6
CONTINUOUS
 10
28.8770837307
 20
32.5372340679
 11
28.6166662693
 21
32.696808517
  0
LINE
  5
4FD
100
AcDbEntity
  8
0
100
AcDbLine
 62
7
  6
CONTINUOUS
 10
26.3770831347
 20
31.5265957415
 11
26.5333331347
 21
31.4202127755
  0
LINE
  5
4FE
100
AcDbEntity
  8
0
100
AcDbLine
 62
7
  6
CONTINUOUS
 10
28.04375
 20
30.5691489354
 11
27.8875
 21
30.6755319014
  0
LINE
  5
4FF
100
AcDbEntity
  8
0
100
AcDbLine
 62
7
  6
CONTINUOUS
 10
28.5645837307
 20
32.4308511019
 11
28.7208337307
 21
32.3244681358
  0
LINE
  5
500
100
AcDbEntity
  8
0
100
AcDbLine
 62
7
  6
CONTINUOUS
 10
27.575
 20
30.6223404184
 11
27.73125
 21
30.4627659507
  0
LINE
  5
501
100
AcDbEntity
  8
0
100
AcDbLine
 62
7
  6
CONTINUOUS
 10
29.0333337307
 20
32.3776596189
 11
28.8770837307
 21
32.5372340679
  0
LINE
  5
502
100
AcDbEntity
  8
0
100
AcDbLine
 62
7
  6
CONTINUOUS
 10
28.7208337307
 20
32.3244681358
 11
28.9291662693
 21
32.0053190887
  0
LINE
  5
503
100
AcDbEntity
  8
RACCORDO
100
AcDbLine
 62
7
  6
CONTINUOUS
 10
33.2717150205
 20
32.2781938951
 11
33.2401019839
 21
32.341424784
  0
LINE
  5
504
100
AcDbEntity
  8
RACCORDO
100
AcDbLine
 62
7
  6
CONTINUOUS
 10
47.8
 20
0.3811573023
 11
47.8
 21
-0.3811573023
  0
LINE
  5
505
100
AcDbEntity
  8
RACCORDO
100
AcDbLine
 62
253
  6
CONTINUOUS
 10
48.2177966102
 20
0.3768532433
 11
48.2177966102
 21
-0.3768532433
  0
LINE
  5
506
100
AcDbEntity
  8
RACCORDO
100
AcDbLine
 62
7
  6
CONTINUOUS
 10
38.0589629262
 20
-37.1070005745
 11
37.653924353
 21
-37.5120391478
  0
LINE
  5
507
100
AcDbEntity
  8
DRAFT
100
AcDbLine
 62
7
  6
CONTINUOUS
 10
54.7
 20
-17.1294055319
 11
54.7
 21
-17.8705944681
  0
LINE
  5
508
100
AcDbEntity
  8
DRAFT
100
AcDbLine
 62
7
  6
CONTINUOUS
 10
54.7
 20
-19.7294055319
 11
54.7
 21
-20.41544523
  0
LINE
  5
509
100
AcDbEntity
  8
DRAFT
100
AcDbLine
 62
7
  6
CONTINUOUS
 10
54.7
 20
-15.2705944681
 11
54.7
 21
-14.58455477
  0
LINE
  5
50A
100
AcDbEntity
  8
DRAFT
100
AcDbLine
 62
7
  6
CONTINUOUS
 10
54.7
 20
14.58455477
 11
54.7
 21
15.2705944681
  0
LINE
  5
50B
100
AcDbEntity
  8
DRAFT
100
AcDbLine
 62
7
  6
CONTINUOUS
 10
54.7
 20
17.1294055319
 11
54.7
 21
17.8705944681
  0
LINE
  5
50C
100
AcDbEntity
  8
DRAFT
100
AcDbLine
 62
7
  6
CONTINUOUS
 10
54.7
 20
19.7294055319
 11
54.7
 21
20.41544523
  0
LINE
  5
50D
100
AcDbEntity
  8
RACCORDO
100
AcDbLine
 62
253
  6
CONTINUOUS
 10
54.7543154663
 20
23.2656444677
 11
54.7543154663
 21
22.5343555323
  0
LINE
  5
50E
100
AcDbEntity
  8
RACCORDO
100
AcDbLine
 62
253
  6
CONTINUOUS
 10
54.7543154663
 20
-22.5343555323
 11
54.7543154663
 21
-23.2656444677
  0
LINE
  5
50F
100
AcDbEntity
  8
RACCORDO
100
AcDbLine
 62
253
  6
CONTINUOUS
 10
54.7681630556
 20
0.3650769937
 11
54.7681630556
 21
-0.3650769937
  0
LINE
  5
510
100
AcDbEntity
  8
RACCORDO
100
AcDbLine
 62
253
  6
CONTINUOUS
 10
54.9953791707
 20
23.2631230371
 11
54.9953791707
 21
22.5368769629
  0
LINE
  5
511
100
AcDbEntity
  8
RACCORDO
100
AcDbLine
 62
253
  6
CONTINUOUS
 10
54.9953791707
 20
-22.5368769629
 11
54.9953791707
 21
-23.2631230371
  0
LINE
  5
512
100
AcDbEntity
  8
RACCORDO
100
AcDbLine
 62
253
  6
CONTINUOUS
 10
54.9964645355
 20
0.362580396
 11
54.9964645355
 21
-0.362580396
  0
LINE
  5
513
100
AcDbEntity
  8
RACCORDO
100
AcDbLine
 62
253
  6
CONTINUOUS
 10
55.0065146541
 20
-0.3575557194
 11
55.0065146541
 21
0.3575557194
  0
LINE
  5
514
100
AcDbEntity
  8
RACCORDO
100
AcDbLine
 62
253
  6
CONTINUOUS
 10
55.041424784
 20
23.2401019839
 11
55.041424784
 21
22.5598980161
  0
LINE
  5
515
100
AcDbEntity
  8
RACCORDO
100
AcDbLine
 62
253
  6
CONTINUOUS
 10
55.041424784
 20
-22.5598980161
 11
55.041424784
 21
-23.2401019839
  0
LINE
  5
516
100
AcDbEntity
  8
DRAFT
100
AcDbLine
 62
7
  6
CONTINUOUS
 10
55.4069219382
 20
20.4048300794
 11
55.4069219382
 21
19.7232363176
  0
LINE
  5
517
100
AcDbEntity
  8
DRAFT
100
AcDbLine
 62
7
  6
CONTINUOUS
 10
55.4069219382
 20
17.8767636824
 11
55.4069219382
 21
17.1232363176
  0
LINE
  5
518
100
AcDbEntity
  8
DRAFT
100
AcDbLine
 62
7
  6
CONTINUOUS
 10
55.4069219382
 20
15.2767636824
 11
55.4069219382
 21
14.5951699206
  0
LINE
  5
519
100
AcDbEntity
  8
DRAFT
100
AcDbLine
 62
7
  6
CONTINUOUS
 10
55.4069219382
 20
-20.4048300794
 11
55.4069219382
 21
-19.7232363176
  0
LINE
  5
51A
100
AcDbEntity
  8
DRAFT
100
AcDbLine
 62
7
  6
CONTINUOUS
 10
55.4069219382
 20
-17.8767636824
 11
55.4069219382
 21
-17.1232363176
  0
LINE
  5
51B
100
AcDbEntity
  8
DRAFT
100
AcDbLine
 62
7
  6
CONTINUOUS
 10
55.4069219382
 20
-15.2767636824
 11
55.4069219382
 21
-14.5951699206
  0
LINE
  5
51C
100
AcDbEntity
  8
RACCORDO
100
AcDbLine
 62
253
  6
CONTINUOUS
 10
55.5064385017
 20
-0.353268438
 11
55.5064385017
 21
0.353268438
  0
LINE
  5
51D
100
AcDbEntity
  8
RACCORDO
100
AcDbLine
 62
253
  6
CONTINUOUS
 10
55.5413486316
 20
23.2358147024
 11
55.5413486316
 21
22.5641852976
  0
LINE
  5
51E
100
AcDbEntity
  8
RACCORDO
100
AcDbLine
 62
253
  6
CONTINUOUS
 10
55.5413486316
 20
-22.5641852976
 11
55.5413486316
 21
-23.2358147024
  0
LINE
  5
51F
100
AcDbEntity
  8
DRAFT
100
AcDbLine
 62
7
  6
CONTINUOUS
 10
55.85
 20
14.5497867518
 11
55.85
 21
14.5
  0
LINE
  5
520
100
AcDbEntity
  8
DRAFT
100
AcDbLine
 62
7
  6
CONTINUOUS
 10
55.85
 20
-20.4502132482
 11
55.85
 21
-20.4963228931
  0
LINE
  5
521
100
AcDbEntity
  8
DRAFT
100
AcDbLine
 62
7
  6
CONTINUOUS
 10
55.85
 20
-14.5497867518
 11
55.85
 21
-14.5
  0
LINE
  5
522
100
AcDbEntity
  8
DRAFT
100
AcDbLine
 62
7
  6
CONTINUOUS
 10
55.85
 20
20.4502132482
 11
55.85
 21
20.4963228931
  0
LINE
  5
523
100
AcDbEntity
  8
DRAFT
100
AcDbLine
 62
7
  6
CONTINUOUS
 10
56.75
 20
-19.7115154529
 11
56.75
 21
-17.8884845471
  0
LINE
  5
524
100
AcDbEntity
  8
DRAFT
100
AcDbLine
 62
7
  6
CONTINUOUS
 10
56.75
 20
-17.1115154529
 11
56.75
 21
-15.2884845471
  0
LINE
  5
525
100
AcDbEntity
  8
DRAFT
100
AcDbLine
 62
7
  6
CONTINUOUS
 10
56.75
 20
15.2884845471
 11
56.75
 21
17.1115154529
  0
LINE
  5
526
100
AcDbEntity
  8
DRAFT
100
AcDbLine
 62
7
  6
CONTINUOUS
 10
56.75
 20
17.8884845471
 11
56.75
 21
19.7115154529
  0
ARC
  5
527
100
AcDbEntity
  8
RACCORDO
100
AcDbCircle
 62
253
  6
CONTINUOUS
 10
-577.9871119772
 20
0.0068984572
 40
635.8369049126
100
AcDbArc
 50
356.7753217142
 51
357.901185833
  0
ARC
  5
528
100
AcDbEntity
  8
RACCORDO
100
AcDbCircle
 62
253
  6
CONTINUOUS
 10
-577.955405314
 20
-0.0054244244
 40
635.8051655363
100
AcDbArc
 50
2.0987860645
 51
3.2247063882
  0
ARC
  5
529
100
AcDbEntity
  8
RACCORDO
100
AcDbCircle
 62
253
  6
CONTINUOUS
 10
-577.8781836614
 20
-0.0024322112
 40
635.7278861192
100
AcDbArc
 50
1.8475827242
 51
2.0303183902
  0
ARC
  5
52A
100
AcDbEntity
  8
RACCORDO
100
AcDbCircle
 62
253
  6
CONTINUOUS
 10
-577.8780879524
 20
0.0024289711
 40
635.7277903555
100
AcDbArc
 50
357.969681596
 51
358.1524172895
  0
ARC
  5
52B
100
AcDbEntity
  8
RACCORDO
100
AcDbCircle
 62
253
  6
CONTINUOUS
 10
-577.5575129591
 20
0.0067526518
 40
635.682042883
100
AcDbArc
 50
356.774868847
 51
357.9009101641
  0
ARC
  5
52C
100
AcDbEntity
  8
RACCORDO
100
AcDbCircle
 62
253
  6
CONTINUOUS
 10
-577.5263572691
 20
-0.0053040344
 40
635.6508550396
100
AcDbArc
 50
2.0990622107
 51
3.2251587729
  0
ARC
  5
52D
100
AcDbEntity
  8
RACCORDO
100
AcDbCircle
 62
253
  6
CONTINUOUS
 10
-577.7925103769
 20
0.0000380467
 40
635.6421785481
100
AcDbArc
 50
358.692640625
 51
359.9654004429
  0
ARC
  5
52E
100
AcDbEntity
  8
RACCORDO
100
AcDbCircle
 62
253
  6
CONTINUOUS
 10
-577.7894344664
 20
-0.0000020237
 40
635.6391026164
100
AcDbArc
 50
0.0345964775
 51
1.3073624546
  0
ARC
  5
52F
100
AcDbEntity
  8
RACCORDO
100
AcDbCircle
 62
253
  6
CONTINUOUS
 10
-577.43844174
 20
-0.0019633586
 40
635.5628761243
100
AcDbArc
 50
1.8475748652
 51
2.0310263685
  0
ARC
  5
530
100
AcDbEntity
  8
RACCORDO
100
AcDbCircle
 62
253
  6
CONTINUOUS
 10
-577.4384256165
 20
0.0019628127
 40
635.5628599916
100
AcDbArc
 50
357.9689736292
 51
358.1524251371
  0
ARC
  5
531
100
AcDbEntity
  8
RACCORDO
100
AcDbCircle
 62
253
  6
CONTINUOUS
 10
-577.3666073716
 20
0.000035076
 40
635.4910152836
100
AcDbArc
 50
358.691883866
 51
359.9656153584
  0
ARC
  5
532
100
AcDbEntity
  8
RACCORDO
100
AcDbCircle
 62
253
  6
CONTINUOUS
 10
-577.3637250893
 20
-0.000001307
 40
635.4881329816
100
AcDbArc
 50
0.0343817529
 51
1.3081190227
  0
ARC
  5
533
100
AcDbEntity
  8
RACCORDO
100
AcDbCircle
 62
7
  6
CONTINUOUS
 10
-540.0
 20
0.0
 40
600.0
100
AcDbArc
 50
0.3771881633
 51
3.4452066704
  0
ARC
  5
534
100
AcDbEntity
  8
RACCORDO
100
AcDbCircle
 62
7
  6
CONTINUOUS
 10
-540.0
 20
0.0
 40
600.0
100
AcDbArc
 50
356.5547933296
 51
359.6228118367
  0
ARC
  5
535
100
AcDbEntity
  8
RACCORDO
100
AcDbCircle
 62
7
  6
CONTINUOUS
 10
-540.0
 20
0.0
 40
599.8951844414
100
AcDbArc
 50
359.6919702799
 51
0.3080297201
  0
ARC
  5
536
100
AcDbEntity
  8
DRAFT
100
AcDbCircle
 62
7
  6
CONTINUOUS
 10
-540.0
 20
0.0
 40
598.3978042464
100
AcDbArc
 50
1.4652247854
 51
1.6374546257
  0
ARC
  5
537
100
AcDbEntity
  8
DRAFT
100
AcDbCircle
 62
7
  6
CONTINUOUS
 10
-540.0
 20
0.0
 40
598.3978042464
100
AcDbArc
 50
358.1134140491
 51
358.2857929878
  0
ARC
  5
538
100
AcDbEntity
  8
DRAFT
100
AcDbCircle
 62
7
  6
CONTINUOUS
 10
-540.0
 20
0.0
 40
598.3978042464
100
AcDbArc
 50
358.3625453743
 51
358.5347752146
  0
ARC
  5
539
100
AcDbEntity
  8
DRAFT
100
AcDbCircle
 62
7
  6
CONTINUOUS
 10
-540.0
 20
0.0
 40
598.3978042464
100
AcDbArc
 50
1.7142070122
 51
1.8865859509
  0
ARC
  5
53A
100
AcDbEntity
  8
RACCORDO
100
AcDbCircle
 62
7
  6
CONTINUOUS
 10
-540.0
 20
0.0
 40
598.3978042464
100
AcDbArc
 50
356.555167693
 51
357.7746427429
  0
ARC
  5
53B
100
AcDbEntity
  8
DRAFT
100
AcDbCircle
 62
7
  6
CONTINUOUS
 10
-540.0
 20
0.0
 40
598.3978042464
100
AcDbArc
 50
357.8389974936
 51
358.045886333
  0
ARC
  5
53C
100
AcDbEntity
  8
RACCORDO
100
AcDbCircle
 62
7
  6
CONTINUOUS
 10
-540.0
 20
0.0
 40
598.3978042464
100
AcDbArc
 50
358.602393648
 51
359.6218019098
  0
ARC
  5
53D
100
AcDbEntity
  8
RACCORDO
100
AcDbCircle
 62
7
  6
CONTINUOUS
 10
-540.0
 20
0.0
 40
598.3978042464
100
AcDbArc
 50
0.3781980902
 51
1.397606352
  0
ARC
  5
53E
100
AcDbEntity
  8
DRAFT
100
AcDbCircle
 62
7
  6
CONTINUOUS
 10
-540.0
 20
0.0
 40
598.3978042464
100
AcDbArc
 50
1.954113667
 51
2.1610025064
  0
ARC
  5
53F
100
AcDbEntity
  8
RACCORDO
100
AcDbCircle
 62
7
  6
CONTINUOUS
 10
-540.0
 20
0.0
 40
598.3978042464
100
AcDbArc
 50
2.2253572571
 51
3.444832307
  0
ARC
  5
540
100
AcDbEntity
  8
RACCORDO
100
AcDbCircle
 62
7
  6
CONTINUOUS
 10
-540.0
 20
0.0
 40
598.2929886878
100
AcDbArc
 50
359.6911453852
 51
359.9661690976
  0
ARC
  5
541
100
AcDbEntity
  8
RACCORDO
100
AcDbCircle
 62
7
  6
CONTINUOUS
 10
-540.0
 20
0.0
 40
598.2929886878
100
AcDbArc
 50
0.0338309024
 51
0.3088546148
  0
ARC
  5
542
100
AcDbEntity
  8
RACCORDO
100
AcDbCircle
 62
253
  6
CONTINUOUS
 10
-0.0204578632
 20
-1037.2045325634
 40
1075.2787124548
100
AcDbArc
 50
86.9991626154
 51
88.2251460168
  0
ARC
  5
543
100
AcDbEntity
  8
RACCORDO
100
AcDbCircle
 62
253
  6
CONTINUOUS
 10
-0.0208039474
 20
-1037.4149335108
 40
1075.2122806142
100
AcDbArc
 50
86.9985730408
 51
88.2248861091
  0
ARC
  5
544
100
AcDbEntity
  8
RACCORDO
100
AcDbCircle
 62
253
  6
CONTINUOUS
 10
-0.0001432096
 20
-1036.5656339775
 40
1074.639490282
100
AcDbArc
 50
88.2660674787
 51
89.9792119629
  0
ARC
  5
545
100
AcDbEntity
  8
RACCORDO
100
AcDbCircle
 62
253
  6
CONTINUOUS
 10
-0.0001471939
 20
-1036.7653992557
 40
1074.562417256
100
AcDbArc
 50
88.266074807
 51
89.9790783726
  0
ARC
  5
546
100
AcDbEntity
  8
RACCORDO
100
AcDbCircle
 62
7
  6
CONTINUOUS
 10
-56.4246297257
 20
-35.9074146634
 40
2.4954190431
100
AcDbArc
 50
183.4223530365
 51
266.7801990931
  0
ARC
  5
547
100
AcDbEntity
  8
RACCORDO
100
AcDbCircle
 62
7
  6
CONTINUOUS
 10
-56.4198072995
 20
-35.9025751632
 40
0.8983507353
100
AcDbArc
 50
183.4219745471
 51
266.7804274621
  0
ARC
  5
548
100
AcDbEntity
  8
RACCORDO
100
AcDbCircle
 62
253
  6
CONTINUOUS
 10
-56.2231424726
 20
-35.70491642
 40
0.8960425868
100
AcDbArc
 50
183.2912787744
 51
266.9400963921
  0
ARC
  5
549
100
AcDbEntity
  8
RACCORDO
100
AcDbCircle
 62
253
  6
CONTINUOUS
 10
-39.6230871986
 20
-37.286657835
 40
0.7983820155
100
AcDbArc
 50
87.8656437052
 51
135.2276539556
  0
ARC
  5
54A
100
AcDbEntity
  8
RACCORDO
100
AcDbCircle
 62
253
  6
CONTINUOUS
 10
-38.4688839684
 20
-37.3284281522
 40
0.7972278987
100
AcDbArc
 50
44.9665371462
 51
87.9139120027
  0
ARC
  5
54B
100
AcDbEntity
  8
RACCORDO
100
AcDbCircle
 62
253
  6
CONTINUOUS
 10
-40.5598365898
 20
-36.8075051608
 40
0.5003189978
100
AcDbArc
 50
267.7524588779
 51
315.0459564926
  0
ARC
  5
54C
100
AcDbEntity
  8
RACCORDO
100
AcDbCircle
 62
7
  6
CONTINUOUS
 10
-37.4127507098
 20
-37.1545071512
 40
0.4997656561
100
AcDbArc
 50
224.9896767643
 51
267.8432132944
  0
ARC
  5
54D
100
AcDbEntity
  8
RACCORDO
100
AcDbCircle
 62
7
  6
CONTINUOUS
 10
-40.5717632672
 20
-37.0310298774
 40
0.499707215
100
AcDbArc
 50
267.678333297
 51
315.0119924676
  0
ARC
  5
54E
100
AcDbEntity
  8
RACCORDO
100
AcDbCircle
 62
7
  6
CONTINUOUS
 10
-38.5203646629
 20
-37.4603173579
 40
0.4996738403
100
AcDbArc
 50
44.9990306896
 51
87.7955926884
  0
ARC
  5
54F
100
AcDbEntity
  8
RACCORDO
100
AcDbCircle
 62
7
  6
CONTINUOUS
 10
-39.5476209424
 20
-37.420222711
 40
0.4996687112
100
AcDbArc
 50
87.7342762703
 51
135.0013397621
  0
ARC
  5
550
100
AcDbEntity
  8
RACCORDO
100
AcDbCircle
 62
253
  6
CONTINUOUS
 10
-37.4275308807
 20
-36.9225145367
 40
0.4990822102
100
AcDbArc
 50
225.0307776664
 51
267.9207432175
  0
ARC
  5
551
100
AcDbEntity
  8
RACCORDO
100
AcDbCircle
 62
253
  6
CONTINUOUS
 10
-39.6062748824
 20
-37.2640890567
 40
0.4979302471
100
AcDbArc
 50
87.9262216921
 51
135.3731051017
  0
ARC
  5
552
100
AcDbEntity
  8
RACCORDO
100
AcDbCircle
 62
253
  6
CONTINUOUS
 10
-38.4522313627
 20
-37.3058307425
 40
0.4967630953
100
AcDbArc
 50
44.939159954
 51
88.0027467882
  0
ARC
  5
553
100
AcDbEntity
  8
RACCORDO
100
AcDbCircle
 62
253
  6
CONTINUOUS
 10
-40.5773015695
 20
-36.8302707839
 40
0.2002155734
100
AcDbArc
 50
267.8932900477
 51
315.2553721959
  0
ARC
  5
554
100
AcDbEntity
  8
RACCORDO
100
AcDbCircle
 62
253
  6
CONTINUOUS
 10
-37.4434667756
 20
-36.9453232801
 40
0.1990143057
100
AcDbArc
 50
224.9384332796
 51
267.9918777566
  0
CIRCLE
  5
555
100
AcDbEntity
  8
ASSI
100
AcDbCircle
 62
7
  6
CONTINUOUS
 10
-47.0
 20
-29.0
 40
2.5
  0
CIRCLE
  5
556
100
AcDbEntity
  8
0
100
AcDbCircle
 62
7
  6
CONTINUOUS
 10
-47.0
 20
-29.0
 40
2.0
  0
ARC
  5
557
100
AcDbEntity
  8
0
100
AcDbCircle
 62
7
  6
CONTINUOUS
 10
-12.079357
 20
-36.696093
 40
2.3390187052
100
AcDbArc
 50
47.2312712626
 51
84.2012841963
  0
ARC
  5
558
100
AcDbEntity
  8
0
100
AcDbCircle
 62
7
  6
CONTINUOUS
 10
-11.895278
 20
-36.317224
 40
2.3109495123
100
AcDbArc
 50
45.4348886633
 51
67.5658613447
  0
ARC
  5
559
100
AcDbEntity
  8
0
100
AcDbCircle
 62
7
  6
CONTINUOUS
 10
-29.0
 20
-35.0
 40
1.0
100
AcDbArc
 50
180.0
 51
270.0
  0
ARC
  5
55A
100
AcDbEntity
  8
0
100
AcDbCircle
 62
7
  6
CONTINUOUS
 10
-5.0
 20
-35.0
 40
1.0
100
AcDbArc
 50
270.0
 51
360.0
  0
ARC
  5
55B
100
AcDbEntity
  8
0
100
AcDbCircle
 62
7
  6
CONTINUOUS
 10
-12.0
 20
-31.75
 40
2.6237424326
100
AcDbArc
 50
292.0885393584
 51
273.4297246723
  0
ARC
  5
55C
100
AcDbEntity
  8
0
100
AcDbCircle
 62
7
  6
CONTINUOUS
 10
-18.582444
 20
-31.75
 40
2.5499986575
100
AcDbArc
 50
87.752529198
 51
272.247470802
  0
ARC
  5
55D
100
AcDbEntity
  8
0
100
AcDbCircle
 62
7
  6
CONTINUOUS
 10
-22.967554
 20
-31.75
 40
2.5499985399
100
AcDbArc
 50
87.7525290943
 51
272.2474709057
  0
CIRCLE
  5
55E
100
AcDbEntity
  8
0
100
AcDbCircle
 62
7
  6
CONTINUOUS
 10
-12.0
 20
-31.75
 40
2.20376
  0
ARC
  5
55F
100
AcDbEntity
  8
0
100
AcDbCircle
 62
7
  6
CONTINUOUS
 10
-12.0
 20
-31.75
 40
1.9709567246
100
AcDbArc
 50
299.3041457634
 51
44.9957848293
  0
ARC
  5
560
100
AcDbEntity
  8
0
100
AcDbCircle
 62
7
  6
CONTINUOUS
 10
-12.0
 20
-31.75
 40
1.9709563643
100
AcDbArc
 50
134.9002846268
 51
240.6958542366
  0
ARC
  5
561
100
AcDbEntity
  8
0
100
AcDbCircle
 62
7
  6
CONTINUOUS
 10
-18.582444
 20
-31.75
 40
1.7999999246
100
AcDbArc
 50
86.8152613297
 51
167.9753003079
  0
ARC
  5
562
100
AcDbEntity
  8
0
100
AcDbCircle
 62
7
  6
CONTINUOUS
 10
-22.967554
 20
-31.75
 40
1.7999999246
100
AcDbArc
 50
86.8152613297
 51
273.1847386703
  0
ARC
  5
563
100
AcDbEntity
  8
0
100
AcDbCircle
 62
7
  6
CONTINUOUS
 10
-18.582444
 20
-31.75
 40
1.7999968808
100
AcDbArc
 50
192.0247203293
 51
273.1847440612
  0
ARC
  5
564
100
AcDbEntity
  8
0
100
AcDbCircle
 62
7
  6
CONTINUOUS
 10
-12.0
 20
-31.75
 40
1.5790921275
100
AcDbArc
 50
148.0267086216
 51
240.6958772397
  0
ARC
  5
565
100
AcDbEntity
  8
0
100
AcDbCircle
 62
7
  6
CONTINUOUS
 10
-12.0
 20
-31.75
 40
1.5790919977
100
AcDbArc
 50
299.3041227603
 51
31.9732907039
  0
ARC
  5
566
100
AcDbEntity
  8
0
100
AcDbCircle
 62
7
  6
CONTINUOUS
 10
-5.0
 20
-28.5
 40
1.0
100
AcDbArc
 50
0.0
 51
90.0
  0
ARC
  5
567
100
AcDbEntity
  8
0
100
AcDbCircle
 62
7
  6
CONTINUOUS
 10
-29.0
 20
-28.5
 40
1.0
100
AcDbArc
 50
90.0
 51
180.0
  0
ARC
  5
568
100
AcDbEntity
  8
RACCORDO
100
AcDbCircle
 62
253
  6
CONTINUOUS
 10
-0.0211690786
 20
1037.2123076364
 40
1075.2865140989
100
AcDbArc
 50
272.1583448654
 51
273.0008535379
  0
ARC
  5
569
100
AcDbEntity
  8
RACCORDO
100
AcDbCircle
 62
253
  6
CONTINUOUS
 10
-0.0215556889
 20
1037.4234667044
 40
1075.2208414641
100
AcDbArc
 50
272.1587741671
 51
273.0014431535
  0
ARC
  5
56A
100
AcDbEntity
  8
RACCORDO
100
AcDbCircle
 62
253
  6
CONTINUOUS
 10
-0.0079965933
 20
1036.862609569
 40
1074.936567548
100
AcDbArc
 50
271.774754564
 51
271.9907503014
  0
ARC
  5
56B
100
AcDbEntity
  8
RACCORDO
100
AcDbCircle
 62
253
  6
CONTINUOUS
 10
-0.0085222546
 20
1037.0791661026
 40
1074.8762938939
100
AcDbArc
 50
271.7750139525
 51
271.9911453659
  0
ARC
  5
56C
100
AcDbEntity
  8
RACCORDO
100
AcDbCircle
 62
253
  6
CONTINUOUS
 10
-0.0008217867
 20
1036.6099448069
 40
1074.6838013548
100
AcDbArc
 50
270.0208233577
 51
271.7338972007
  0
ARC
  5
56D
100
AcDbEntity
  8
RACCORDO
100
AcDbCircle
 62
253
  6
CONTINUOUS
 10
-0.0008424397
 20
1036.810795284
 40
1074.6078135353
100
AcDbArc
 50
270.0209578126
 51
271.7338890078
  0
ARC
  5
56E
100
AcDbEntity
  8
RACCORDO
100
AcDbCircle
 62
7
  6
CONTINUOUS
 10
-0.1080729985
 20
960.0
 40
997.7
100
AcDbArc
 50
267.7356160326
 51
267.7946233781
  0
CIRCLE
  5
56F
100
AcDbEntity
  8
ASSI
100
AcDbCircle
 62
7
  6
CONTINUOUS
 10
-47.0
 20
29.0
 40
2.5
  0
ARC
  5
570
100
AcDbEntity
  8
RACCORDO
100
AcDbCircle
 62
7
  6
CONTINUOUS
 10
-56.4246294863
 20
35.9074144231
 40
2.4954190431
100
AcDbArc
 50
93.2198060857
 51
176.5776417846
  0
CIRCLE
  5
571
100
AcDbEntity
  8
0
100
AcDbCircle
 62
7
  6
CONTINUOUS
 10
-47.0
 20
29.0
 40
2.0
  0
ARC
  5
572
100
AcDbEntity
  8
0
100
AcDbCircle
 62
7
  6
CONTINUOUS
 10
-29.0
 20
35.0
 40
1.0
100
AcDbArc
 50
90.0
 51
180.0
  0
ARC
  5
573
100
AcDbEntity
  8
0
100
AcDbCircle
 62
7
  6
CONTINUOUS
 10
-29.0
 20
28.5
 40
1.0
100
AcDbArc
 50
180.0
 51
270.0
  0
ARC
  5
574
100
AcDbEntity
  8
0
100
AcDbCircle
 62
7
  6
CONTINUOUS
 10
-5.0
 20
28.5
 40
1.0
100
AcDbArc
 50
270.0
 51
360.0
  0
ARC
  5
575
100
AcDbEntity
  8
0
100
AcDbCircle
 62
7
  6
CONTINUOUS
 10
-5.0
 20
35.0
 40
1.0
100
AcDbArc
 50
0.0
 51
90.0
  0
ARC
  5
576
100
AcDbEntity
  8
RACCORDO
100
AcDbCircle
 62
7
  6
CONTINUOUS
 10
-56.4198072132
 20
35.9025750765
 40
0.8983507353
100
AcDbArc
 50
93.219577726
 51
176.5780202648
  0
ARC
  5
577
100
AcDbEntity
  8
RACCORDO
100
AcDbCircle
 62
253
  6
CONTINUOUS
 10
-56.2231424726
 20
35.7049164197
 40
0.896042587
100
AcDbArc
 50
93.0598999295
 51
176.7087175059
  0
ARC
  5
578
100
AcDbEntity
  8
RACCORDO
100
AcDbCircle
 62
253
  6
CONTINUOUS
 10
0.0153748772
 20
-1037.0826381806
 40
1075.156719121
100
AcDbArc
 50
91.774784427
 51
93.0009069376
  0
ARC
  5
579
100
AcDbEntity
  8
RACCORDO
100
AcDbCircle
 62
253
  6
CONTINUOUS
 10
0.0156511013
 20
-1037.2913858098
 40
1075.0886325856
100
AcDbArc
 50
91.7750433678
 51
93.0014974822
  0
ARC
  5
57A
100
AcDbEntity
  8
RACCORDO
100
AcDbCircle
 62
253
  6
CONTINUOUS
 10
0.0008217867
 20
-1036.6099448074
 40
1074.6838013554
100
AcDbArc
 50
90.0208233577
 51
91.7338972007
  0
ARC
  5
57B
100
AcDbEntity
  8
RACCORDO
100
AcDbCircle
 62
253
  6
CONTINUOUS
 10
0.0008424397
 20
-1036.8107952831
 40
1074.6078135344
100
AcDbArc
 50
90.0209578126
 51
91.7338890078
  0
ARC
  5
57C
100
AcDbEntity
  8
RACCORDO
100
AcDbCircle
 62
7
  6
CONTINUOUS
 10
-0.0
 20
-960.0
 40
1000.0
100
AcDbArc
 50
86.7573454592
 51
93.2426545408
  0
ARC
  5
57D
100
AcDbEntity
  8
DRAFT
100
AcDbCircle
 62
7
  6
CONTINUOUS
 10
-0.0
 20
-960.0
 40
998.3978042464
100
AcDbArc
 50
90.0192716425
 51
91.8691160438
  0
ARC
  5
57E
100
AcDbEntity
  8
RACCORDO
100
AcDbCircle
 62
7
  6
CONTINUOUS
 10
-0.0
 20
-960.0
 40
998.3978042464
100
AcDbArc
 50
86.7575697022
 51
88.0923197274
  0
ARC
  5
57F
100
AcDbEntity
  8
RACCORDO
100
AcDbCircle
 62
7
  6
CONTINUOUS
 10
-0.0
 20
-960.0
 40
998.3978042464
100
AcDbArc
 50
91.9076802726
 51
93.2424302978
  0
ARC
  5
580
100
AcDbEntity
  8
DRAFT
100
AcDbCircle
 62
7
  6
CONTINUOUS
 10
-0.0
 20
-960.0
 40
998.3978042464
100
AcDbArc
 50
88.1308839562
 51
89.9807283575
  0
ARC
  5
581
100
AcDbEntity
  8
DRAFT
100
AcDbCircle
 62
7
  6
CONTINUOUS
 10
-0.0
 20
0.000151122
 40
7.3031868164
100
AcDbArc
 50
183.1656973954
 51
356.8343026046
  0
ARC
  5
582
100
AcDbEntity
  8
DRAFT
100
AcDbCircle
 62
7
  6
CONTINUOUS
 10
-0.0
 20
-0.000151122
 40
7.3031868163
100
AcDbArc
 50
3.165697395
 51
176.834302605
  0
ARC
  5
583
100
AcDbEntity
  8
DRAFT
100
AcDbCircle
 62
7
  6
CONTINUOUS
 10
-0.0
 20
-0.0
 40
7.284291638
100
AcDbArc
 50
183.0241122243
 51
356.9758877757
  0
ARC
  5
584
100
AcDbEntity
  8
DRAFT
100
AcDbCircle
 62
7
  6
CONTINUOUS
 10
-0.0
 20
-0.0
 40
7.284291638
100
AcDbArc
 50
3.0241122243
 51
176.9758877757
  0
CIRCLE
  5
585
100
AcDbEntity
  8
DRAFT
100
AcDbCircle
 62
7
  6
CONTINUOUS
 10
-0.0
 20
-0.0
 40
6.515708362
  0
CIRCLE
  5
586
100
AcDbEntity
  8
RACCORDO
100
AcDbCircle
 62
253
  6
CONTINUOUS
 10
-0.0
 20
-0.0001072618
 40
6.4984699775
  0
CIRCLE
  5
587
100
AcDbEntity
  8
ASSI
100
AcDbCircle
 62
7
  6
CONTINUOUS
 10
47.0
 20
-29.0
 40
2.5
  0
ARC
  5
588
100
AcDbEntity
  8
RACCORDO
100
AcDbCircle
 62
7
  6
CONTINUOUS
 10
56.4246297257
 20
-35.9074146634
 40
2.4954190431
100
AcDbArc
 50
273.2198009068
 51
356.5776469635
  0
CIRCLE
  5
589
100
AcDbEntity
  8
0
100
AcDbCircle
 62
7
  6
CONTINUOUS
 10
47.0
 20
-29.0
 40
2.0
  0
ARC
  5
58A
100
AcDbEntity
  8
0
100
AcDbCircle
 62
7
  6
CONTINUOUS
 10
5.0
 20
-35.0
 40
1.0
100
AcDbArc
 50
180.0
 51
270.0
  0
ARC
  5
58B
100
AcDbEntity
  8
0
100
AcDbCircle
 62
7
  6
CONTINUOUS
 10
29.0
 20
-35.0
 40
1.0
100
AcDbArc
 50
270.0
 51
360.0
  0
ARC
  5
58C
100
AcDbEntity
  8
0
100
AcDbCircle
 62
7
  6
CONTINUOUS
 10
29.0
 20
-28.5
 40
1.0
100
AcDbArc
 50
0.0
 51
90.0
  0
ARC
  5
58D
100
AcDbEntity
  8
0
100
AcDbCircle
 62
7
  6
CONTINUOUS
 10
5.0
 20
-28.5
 40
1.0
100
AcDbArc
 50
90.0
 51
180.0
  0
ARC
  5
58E
100
AcDbEntity
  8
RACCORDO
100
AcDbCircle
 62
7
  6
CONTINUOUS
 10
56.4198072995
 20
-35.9025751632
 40
0.8983507353
100
AcDbArc
 50
273.2195725379
 51
356.5780254529
  0
ARC
  5
58F
100
AcDbEntity
  8
RACCORDO
100
AcDbCircle
 62
253
  6
CONTINUOUS
 10
56.2231425098
 20
-35.7049164571
 40
0.896042587
100
AcDbArc
 50
273.059897689
 51
356.7087197563
  0
ARC
  5
590
100
AcDbEntity
  8
RACCORDO
100
AcDbCircle
 62
253
  6
CONTINUOUS
 10
39.5150582878
 20
-37.2864382026
 40
0.798380409
100
AcDbArc
 50
44.7726166257
 51
92.1347326401
  0
ARC
  5
591
100
AcDbEntity
  8
RACCORDO
100
AcDbCircle
 62
253
  6
CONTINUOUS
 10
38.3606797678
 20
-37.3282247348
 40
0.7972296266
100
AcDbArc
 50
92.0864214978
 51
135.0337030485
  0
ARC
  5
592
100
AcDbEntity
  8
RACCORDO
100
AcDbCircle
 62
253
  6
CONTINUOUS
 10
40.4559652464
 20
-36.811426347
 40
0.500317441
100
AcDbArc
 50
224.9541442711
 51
272.2417811862
  0
ARC
  5
593
100
AcDbEntity
  8
RACCORDO
100
AcDbCircle
 62
7
  6
CONTINUOUS
 10
37.3004714138
 20
-37.1587135792
 40
0.4997655631
100
AcDbArc
 50
272.1503360763
 51
315.0103254413
  0
ARC
  5
594
100
AcDbEntity
  8
RACCORDO
100
AcDbCircle
 62
7
  6
CONTINUOUS
 10
40.4679109
 20
-37.0352504122
 40
0.4997072832
100
AcDbArc
 50
224.9880096158
 51
272.3156990933
  0
ARC
  5
595
100
AcDbEntity
  8
RACCORDO
100
AcDbCircle
 62
7
  6
CONTINUOUS
 10
38.4122916644
 20
-37.4603173579
 40
0.4996738403
100
AcDbArc
 50
92.2044073113
 51
135.0009693106
  0
ARC
  5
596
100
AcDbEntity
  8
RACCORDO
100
AcDbCircle
 62
7
  6
CONTINUOUS
 10
39.4395479439
 20
-37.420222711
 40
0.4996687112
100
AcDbArc
 50
44.9986602381
 51
92.2657237295
  0
ARC
  5
597
100
AcDbEntity
  8
RACCORDO
100
AcDbCircle
 62
253
  6
CONTINUOUS
 10
37.315265099
 20
-36.9264206871
 40
0.4990841172
100
AcDbArc
 50
272.0730219007
 51
314.9693348859
  0
ARC
  5
598
100
AcDbEntity
  8
RACCORDO
100
AcDbCircle
 62
253
  6
CONTINUOUS
 10
39.4982922386
 20
-37.2638693373
 40
0.4979286133
100
AcDbArc
 50
44.6273047141
 51
92.0743556498
  0
ARC
  5
599
100
AcDbEntity
  8
RACCORDO
100
AcDbCircle
 62
253
  6
CONTINUOUS
 10
38.3440737811
 20
-37.3056271346
 40
0.4967648144
100
AcDbArc
 50
91.9978014106
 51
135.0612352114
  0
ARC
  5
59A
100
AcDbEntity
  8
RACCORDO
100
AcDbCircle
 62
253
  6
CONTINUOUS
 10
40.4733709507
 20
-36.8341888264
 40
0.2002140512
100
AcDbArc
 50
224.7490083983
 51
272.1054062875
  0
ARC
  5
59B
100
AcDbEntity
  8
RACCORDO
100
AcDbCircle
 62
253
  6
CONTINUOUS
 10
37.3311529424
 20
-36.9492320197
 40
0.1990161454
100
AcDbArc
 50
272.002180417
 51
315.0618457685
  0
ARC
  5
59C
100
AcDbEntity
  8
RACCORDO
100
AcDbCircle
 62
253
  6
CONTINUOUS
 10
577.9871119772
 20
-0.0068984572
 40
635.8369049126
100
AcDbArc
 50
176.7753217142
 51
177.901185833
  0
ARC
  5
59D
100
AcDbEntity
  8
RACCORDO
100
AcDbCircle
 62
253
  6
CONTINUOUS
 10
577.9554053167
 20
0.0054244245
 40
635.8051655389
100
AcDbArc
 50
182.0987860645
 51
183.2247063882
  0
ARC
  5
59E
100
AcDbEntity
  8
RACCORDO
100
AcDbCircle
 62
253
  6
CONTINUOUS
 10
577.8781839646
 20
0.0024322214
 40
635.7278864226
100
AcDbArc
 50
181.8475827243
 51
182.0303183902
  0
ARC
  5
59F
100
AcDbEntity
  8
RACCORDO
100
AcDbCircle
 62
253
  6
CONTINUOUS
 10
577.8780876934
 20
-0.0024289623
 40
635.7277900963
100
AcDbArc
 50
177.969681596
 51
178.1524172896
  0
ARC
  5
5A0
100
AcDbEntity
  8
RACCORDO
100
AcDbCircle
 62
253
  6
CONTINUOUS
 10
577.5575129574
 20
-0.0067526517
 40
635.6820428813
100
AcDbArc
 50
176.774868847
 51
177.9009101641
  0
ARC
  5
5A1
100
AcDbEntity
  8
RACCORDO
100
AcDbCircle
 62
253
  6
CONTINUOUS
 10
577.5263572722
 20
0.0053040346
 40
635.6508550427
100
AcDbArc
 50
182.0990622107
 51
183.2251587729
  0
ARC
  5
5A2
100
AcDbEntity
  8
RACCORDO
100
AcDbCircle
 62
253
  6
CONTINUOUS
 10
577.7925103837
 20
-0.0000380468
 40
635.6421785549
100
AcDbArc
 50
178.692640625
 51
179.9654004429
  0
ARC
  5
5A3
100
AcDbEntity
  8
RACCORDO
100
AcDbCircle
 62
253
  6
CONTINUOUS
 10
577.7894344715
 20
0.0000020238
 40
635.6391026215
100
AcDbArc
 50
180.0345964775
 51
181.3073624546
  0
ARC
  5
5A4
100
AcDbEntity
  8
RACCORDO
100
AcDbCircle
 62
253
  6
CONTINUOUS
 10
577.4384417931
 20
0.0019633604
 40
635.5628761775
100
AcDbArc
 50
181.8475748652
 51
182.0310263685
  0
ARC
  5
5A5
100
AcDbEntity
  8
RACCORDO
100
AcDbCircle
 62
253
  6
CONTINUOUS
 10
577.4384256165
 20
-0.0019628127
 40
635.5628599917
100
AcDbArc
 50
177.9689736292
 51
178.1524251371
  0
ARC
  5
5A6
100
AcDbEntity
  8
RACCORDO
100
AcDbCircle
 62
253
  6
CONTINUOUS
 10
577.3666073705
 20
-0.000035076
 40
635.4910152826
100
AcDbArc
 50
178.691883866
 51
179.9656153584
  0
ARC
  5
5A7
100
AcDbEntity
  8
RACCORDO
100
AcDbCircle
 62
253
  6
CONTINUOUS
 10
577.3637250907
 20
0.000001307
 40
635.488132983
100
AcDbArc
 50
180.0343817529
 51
181.3081190227
  0
ARC
  5
5A8
100
AcDbEntity
  8
RACCORDO
100
AcDbCircle
 62
7
  6
CONTINUOUS
 10
540.0
 20
-0.0
 40
600.0
100
AcDbArc
 50
176.5547933296
 51
179.6228118367
  0
ARC
  5
5A9
100
AcDbEntity
  8
RACCORDO
100
AcDbCircle
 62
7
  6
CONTINUOUS
 10
540.0
 20
-0.0
 40
600.0
100
AcDbArc
 50
180.3771881633
 51
183.4452066704
  0
ARC
  5
5AA
100
AcDbEntity
  8
RACCORDO
100
AcDbCircle
 62
7
  6
CONTINUOUS
 10
540.0
 20
-0.0
 40
599.8951844414
100
AcDbArc
 50
179.6919702799
 51
180.3080297201
  0
ARC
  5
5AB
100
AcDbEntity
  8
DRAFT
100
AcDbCircle
 62
7
  6
CONTINUOUS
 10
540.0
 20
-0.0
 40
598.3978042464
100
AcDbArc
 50
178.1133732764
 51
178.2858337343
  0
ARC
  5
5AC
100
AcDbEntity
  8
DRAFT
100
AcDbCircle
 62
7
  6
CONTINUOUS
 10
540.0
 20
-0.0
 40
598.3978042464
100
AcDbArc
 50
178.3625046086
 51
178.5348159577
  0
ARC
  5
5AD
100
AcDbEntity
  8
DRAFT
100
AcDbCircle
 62
7
  6
CONTINUOUS
 10
540.0
 20
-0.0
 40
598.3978042464
100
AcDbArc
 50
181.954113667
 51
182.1610025064
  0
ARC
  5
5AE
100
AcDbEntity
  8
RACCORDO
100
AcDbCircle
 62
7
  6
CONTINUOUS
 10
540.0
 20
-0.0
 40
598.3978042464
100
AcDbArc
 50
180.3781980902
 51
181.397606352
  0
ARC
  5
5AF
100
AcDbEntity
  8
RACCORDO
100
AcDbCircle
 62
7
  6
CONTINUOUS
 10
540.0
 20
-0.0
 40
598.3978042464
100
AcDbArc
 50
182.2253572571
 51
183.444832307
  0
ARC
  5
5B0
100
AcDbEntity
  8
DRAFT
100
AcDbCircle
 62
7
  6
CONTINUOUS
 10
540.0
 20
-0.0
 40
598.3978042464
100
AcDbArc
 50
177.8389974936
 51
178.045886333
  0
ARC
  5
5B1
100
AcDbEntity
  8
RACCORDO
100
AcDbCircle
 62
7
  6
CONTINUOUS
 10
540.0
 20
-0.0
 40
598.3978042464
100
AcDbArc
 50
178.602393648
 51
179.6218019098
  0
ARC
  5
5B2
100
AcDbEntity
  8
RACCORDO
100
AcDbCircle
 62
7
  6
CONTINUOUS
 10
540.0
 20
-0.0
 40
598.3978042464
100
AcDbArc
 50
176.555167693
 51
177.7746427429
  0
ARC
  5
5B3
100
AcDbEntity
  8
DRAFT
100
AcDbCircle
 62
7
  6
CONTINUOUS
 10
540.0
 20
-0.0
 40
598.3978042464
100
AcDbArc
 50
181.4651840423
 51
181.6374953914
  0
ARC
  5
5B4
100
AcDbEntity
  8
DRAFT
100
AcDbCircle
 62
7
  6
CONTINUOUS
 10
540.0
 20
-0.0
 40
598.3978042464
100
AcDbArc
 50
181.7141662657
 51
181.8866267236
  0
ARC
  5
5B5
100
AcDbEntity
  8
RACCORDO
100
AcDbCircle
 62
7
  6
CONTINUOUS
 10
540.0
 20
-0.0
 40
598.2929886878
100
AcDbArc
 50
180.0338309024
 51
180.3088546148
  0
ARC
  5
5B6
100
AcDbEntity
  8
RACCORDO
100
AcDbCircle
 62
7
  6
CONTINUOUS
 10
540.0
 20
-0.0
 40
598.2929886878
100
AcDbArc
 50
179.6911453852
 51
179.9661690976
  0
ARC
  5
5B7
100
AcDbEntity
  8
RACCORDO
100
AcDbCircle
 62
253
  6
CONTINUOUS
 10
0.0253716893
 20
1037.3054434255
 40
1075.3797421863
100
AcDbArc
 50
266.9991826299
 51
267.8360774211
  0
ARC
  5
5B8
100
AcDbEntity
  8
RACCORDO
100
AcDbCircle
 62
253
  6
CONTINUOUS
 10
0.0258212563
 20
1037.5179782348
 40
1075.3154466952
100
AcDbArc
 50
266.998593559
 51
267.8356465196
  0
ARC
  5
5B9
100
AcDbEntity
  8
RACCORDO
100
AcDbCircle
 62
253
  6
CONTINUOUS
 10
0.0085361205
 20
1036.8790334611
 40
1074.953000271
100
AcDbArc
 50
268.0032610051
 51
268.2252438042
  0
ARC
  5
5BA
100
AcDbEntity
  8
RACCORDO
100
AcDbCircle
 62
253
  6
CONTINUOUS
 10
0.0090120316
 20
1037.0940581614
 40
1074.8911939777
100
AcDbArc
 50
268.0028646456
 51
268.2249845411
  0
ARC
  5
5BB
100
AcDbEntity
  8
RACCORDO
100
AcDbCircle
 62
253
  6
CONTINUOUS
 10
0.0001432096
 20
1036.5656339772
 40
1074.6394902817
100
AcDbArc
 50
268.2660674787
 51
269.9792119629
  0
ARC
  5
5BC
100
AcDbEntity
  8
RACCORDO
100
AcDbCircle
 62
253
  6
CONTINUOUS
 10
0.0001471939
 20
1036.7653992565
 40
1074.5624172567
100
AcDbArc
 50
268.266074807
 51
269.9790783726
  0
ARC
  5
5BD
100
AcDbEntity
  8
RACCORDO
100
AcDbCircle
 62
7
  6
CONTINUOUS
 10
0.0
 20
960.0
 40
1000.0
100
AcDbArc
 50
266.7573454592
 51
273.2426545408
  0
ARC
  5
5BE
100
AcDbEntity
  8
DRAFT
100
AcDbCircle
 62
7
  6
CONTINUOUS
 10
0.0
 20
960.0
 40
999.4143593539
100
AcDbArc
 50
272.1093734803
 51
272.3634628067
  0
ARC
  5
5BF
100
AcDbEntity
  8
DRAFT
100
AcDbCircle
 62
7
  6
CONTINUOUS
 10
0.0
 20
960.0
 40
999.4143593539
100
AcDbArc
 50
267.6365371933
 51
267.8906265197
  0
ARC
  5
5C0
100
AcDbEntity
  8
DRAFT
100
AcDbCircle
 62
7
  6
CONTINUOUS
 10
0.0
 20
960.0
 40
999.2
100
AcDbArc
 50
272.1221263176
 51
272.3516679958
  0
ARC
  5
5C1
100
AcDbEntity
  8
DRAFT
100
AcDbCircle
 62
7
  6
CONTINUOUS
 10
0.0
 20
960.0
 40
999.2
100
AcDbArc
 50
267.6483320042
 51
267.8778736824
  0
ARC
  5
5C2
100
AcDbEntity
  8
DRAFT
100
AcDbCircle
 62
7
  6
CONTINUOUS
 10
0.0
 20
960.0
 40
998.3978042464
100
AcDbArc
 50
270.0192716425
 51
271.8691160438
  0
ARC
  5
5C3
100
AcDbEntity
  8
DRAFT
100
AcDbCircle
 62
7
  6
CONTINUOUS
 10
0.0
 20
960.0
 40
998.3978042464
100
AcDbArc
 50
268.1308839562
 51
269.9807283575
  0
ARC
  5
5C4
100
AcDbEntity
  8
RACCORDO
100
AcDbCircle
 62
7
  6
CONTINUOUS
 10
0.0
 20
960.0
 40
998.3978042464
100
AcDbArc
 50
271.9076802726
 51
272.0629536729
  0
ARC
  5
5C5
100
AcDbEntity
  8
RACCORDO
100
AcDbCircle
 62
7
  6
CONTINUOUS
 10
0.0
 20
960.0
 40
998.3978042464
100
AcDbArc
 50
267.9370463271
 51
268.0923197274
  0
ARC
  5
5C6
100
AcDbEntity
  8
RACCORDO
100
AcDbCircle
 62
7
  6
CONTINUOUS
 10
0.0
 20
960.0
 40
998.3978042464
100
AcDbArc
 50
272.4108670382
 51
273.2424302978
  0
ARC
  5
5C7
100
AcDbEntity
  8
RACCORDO
100
AcDbCircle
 62
7
  6
CONTINUOUS
 10
0.0
 20
960.0
 40
998.3978042464
100
AcDbArc
 50
266.7575697022
 51
267.5891329618
  0
ARC
  5
5C8
100
AcDbEntity
  8
RACCORDO
100
AcDbCircle
 62
7
  6
CONTINUOUS
 10
0.0
 20
960.0
 40
998.355878023
100
AcDbArc
 50
272.0753405717
 51
272.1422543986
  0
ARC
  5
5C9
100
AcDbEntity
  8
RACCORDO
100
AcDbCircle
 62
7
  6
CONTINUOUS
 10
0.0
 20
960.0
 40
998.355878023
100
AcDbArc
 50
272.3242550725
 51
272.3986651507
  0
ARC
  5
5CA
100
AcDbEntity
  8
RACCORDO
100
AcDbCircle
 62
7
  6
CONTINUOUS
 10
0.0
 20
960.0
 40
998.355878023
100
AcDbArc
 50
267.8512941278
 51
267.9246594283
  0
ARC
  5
5CB
100
AcDbEntity
  8
RACCORDO
100
AcDbCircle
 62
7
  6
CONTINUOUS
 10
0.0
 20
960.0
 40
998.355878023
100
AcDbArc
 50
267.6013348493
 51
267.6697769193
  0
ARC
  5
5CC
100
AcDbEntity
  8
RACCORDO
100
AcDbCircle
 62
7
  6
CONTINUOUS
 10
0.0
 20
960.0
 40
997.7
100
AcDbArc
 50
272.2053766219
 51
272.2643839674
  0
CIRCLE
  5
5CD
100
AcDbEntity
  8
ASSI
100
AcDbCircle
 62
7
  6
CONTINUOUS
 10
47.0
 20
29.0
 40
2.5
  0
ARC
  5
5CE
100
AcDbEntity
  8
RACCORDO
100
AcDbCircle
 62
7
  6
CONTINUOUS
 10
56.4246294863
 20
35.9074144231
 40
2.4954190431
100
AcDbArc
 50
3.4223582154
 51
86.7801939142
  0
CIRCLE
  5
5CF
100
AcDbEntity
  8
0
100
AcDbCircle
 62
7
  6
CONTINUOUS
 10
47.0
 20
29.0
 40
2.0
  0
ARC
  5
5D0
100
AcDbEntity
  8
0
100
AcDbCircle
 62
7
  6
CONTINUOUS
 10
5.0
 20
35.0
 40
1.0
100
AcDbArc
 50
90.0
 51
180.0
  0
ARC
  5
5D1
100
AcDbEntity
  8
0
100
AcDbCircle
 62
7
  6
CONTINUOUS
 10
5.0
 20
28.5
 40
1.0
100
AcDbArc
 50
180.0
 51
270.0
  0
ARC
  5
5D2
100
AcDbEntity
  8
0
100
AcDbCircle
 62
7
  6
CONTINUOUS
 10
29.0
 20
28.5
 40
1.0
100
AcDbArc
 50
270.0
 51
360.0
  0
ARC
  5
5D3
100
AcDbEntity
  8
0
100
AcDbCircle
 62
7
  6
CONTINUOUS
 10
29.0
 20
35.0
 40
1.0
100
AcDbArc
 50
0.0
 51
90.0
  0
ARC
  5
5D4
100
AcDbEntity
  8
RACCORDO
100
AcDbCircle
 62
7
  6
CONTINUOUS
 10
56.4198072132
 20
35.9025750765
 40
0.8983507353
100
AcDbArc
 50
3.4219797352
 51
86.780422274
  0
ARC
  5
5D5
100
AcDbEntity
  8
RACCORDO
100
AcDbCircle
 62
253
  6
CONTINUOUS
 10
56.2231424304
 20
35.7049163778
 40
0.8960425868
100
AcDbArc
 50
3.2912813183
 51
86.9400938485
  0
SPLINE
  5
5D6
100
AcDbEntity
  8
RACCORDO
100
AcDbSpline
 62
7
  6
CONTINUOUS
 70
0
 71
3
 72
18
 73
14
 74
12
 42
0.0000001
 43
0.0000001
 44
0.0000000001
 12
-0.0019724646
 22
0.2996177424
 32
0.0
 13
0.1528172155
 23
0.2577238461
 33
0.0
 40
0.0
 40
0.0
 40
0.0
 40
0.0
 40
0.1847109953
 40
0.3630812251
 40
0.5289963111
 40
0.6767825706
 40
0.8014132694
 40
0.8536985603
 40
0.8986970781
 40
0.9360454916
 40
0.9654614681
 40
0.9867696757
 40
1.0
 40
1.0
 40
1.0
 40
1.0
 10
-59.9869985877
 20
-3.9498766793
 30
0.0
 10
-59.987120033
 20
-3.9314291155
 30
0.0
 10
-59.987183326
 20
-3.8951658228
 30
0.0
 10
-59.9867468721
 20
-3.8423333977
 30
0.0
 10
-59.9857986415
 20
-3.7931956718
 30
0.0
 10
-59.9843753239
 20
-3.7494394705
 30
0.0
 10
-59.9827742633
 20
-3.7170460715
 30
0.0
 10
-59.9812292348
 20
-3.6949362972
 30
0.0
 10
-59.9800625878
 20
-3.6815380397
 30
0.0
 10
-59.978828027
 20
-3.6704476138
 30
0.0
 10
-59.977562262
 20
-3.6617279591
 30
0.0
 10
-59.9762510915
 20
-3.6554977121
 30
0.0
 10
-59.9752132511
 20
-3.6521548598
 30
0.0
 10
-59.9745393107
 20
-3.6510182698
 30
0.0
 11
-59.9869985877
 21
-3.9498766793
 31
0.0
 11
-59.987090521
 21
-3.8945328649
 31
0.0
 11
-59.9866347622
 21
-3.8410907646
 31
0.0
 11
-59.9856478655
 21
-3.7913883809
 31
0.0
 11
-59.984165143
 21
-3.7471328674
 31
0.0
 11
-59.9822391852
 21
-3.7098401889
 31
0.0
 11
-59.981130642
 21
-3.6942135189
 31
0.0
 11
-59.9799377535
 21
-3.680783747
 31
0.0
 11
-59.978670922
 21
-3.6696651949
 31
0.0
 11
-59.9773411711
 21
-3.6609523443
 31
0.0
 11
-59.975959976
 21
-3.654719081
 31
0.0
 11
-59.9745393107
 21
-3.6510182698
 31
0.0
  0
SPLINE
  5
5D7
100
AcDbEntity
  8
RACCORDO
100
AcDbSpline
 62
7
  6
CONTINUOUS
 70
0
 71
3
 72
18
 73
14
 74
12
 42
0.0000001
 43
0.0000001
 44
0.0000000001
 12
-0.1528172155
 22
0.2577238461
 32
0.0
 13
0.0019724646
 23
0.2996177424
 33
0.0
 40
0.0
 40
0.0
 40
0.0
 40
0.0
 40
0.0132303243
 40
0.0345385319
 40
0.0639545084
 40
0.1013029219
 40
0.1463014397
 40
0.1985867306
 40
0.3232174294
 40
0.4710036889
 40
0.6369187749
 40
0.8152890047
 40
1.0
 40
1.0
 40
1.0
 40
1.0
 10
-59.9745393107
 20
3.6510182698
 30
0.0
 10
-59.9752132511
 20
3.6521548598
 30
0.0
 10
-59.9762510915
 20
3.6554977121
 30
0.0
 10
-59.977562262
 20
3.6617279591
 30
0.0
 10
-59.978828027
 20
3.6704476138
 30
0.0
 10
-59.9800625878
 20
3.6815380397
 30
0.0
 10
-59.9812292348
 20
3.6949362972
 30
0.0
 10
-59.9827742633
 20
3.7170460715
 30
0.0
 10
-59.9843753239
 20
3.7494394705
 30
0.0
 10
-59.9857986415
 20
3.7931956718
 30
0.0
 10
-59.9867468721
 20
3.8423333977
 30
0.0
 10
-59.987183326
 20
3.8951658228
 30
0.0
 10
-59.987120033
 20
3.9314291155
 30
0.0
 10
-59.9869985877
 20
3.9498766793
 30
0.0
 11
-59.9745393107
 21
3.6510182698
 31
0.0
 11
-59.975959976
 21
3.654719081
 31
0.0
 11
-59.9773411711
 21
3.6609523443
 31
0.0
 11
-59.978670922
 21
3.6696651949
 31
0.0
 11
-59.9799377535
 21
3.680783747
 31
0.0
 11
-59.981130642
 21
3.6942135189
 31
0.0
 11
-59.9822391852
 21
3.7098401889
 31
0.0
 11
-59.984165143
 21
3.7471328674
 31
0.0
 11
-59.9856478655
 21
3.7913883809
 31
0.0
 11
-59.9866347622
 21
3.8410907646
 31
0.0
 11
-59.987090521
 21
3.8945328649
 31
0.0
 11
-59.9869985877
 21
3.9498766793
 31
0.0
  0
SPLINE
  5
5D8
100
AcDbEntity
  8
RACCORDO
100
AcDbSpline
 62
7
  6
CONTINUOUS
 70
0
 71
3
 72
18
 73
14
 74
12
 42
0.0000001
 43
0.0000001
 44
0.0000000001
 12
0.1528172155
 22
-0.2577238461
 32
0.0
 13
-0.0019724646
 23
-0.2996177424
 33
0.0
 40
0.0
 40
0.0
 40
0.0
 40
0.0
 40
0.0132303243
 40
0.0345385319
 40
0.0639545084
 40
0.1013029219
 40
0.1463014397
 40
0.1985867306
 40
0.3232174294
 40
0.4710036889
 40
0.6369187749
 40
0.8152890047
 40
1.0
 40
1.0
 40
1.0
 40
1.0
 10
59.9745393107
 20
-3.6510182698
 30
0.0
 10
59.9752132511
 20
-3.6521548598
 30
0.0
 10
59.9762510915
 20
-3.6554977121
 30
0.0
 10
59.977562262
 20
-3.6617279591
 30
0.0
 10
59.978828027
 20
-3.6704476138
 30
0.0
 10
59.9800625878
 20
-3.6815380397
 30
0.0
 10
59.9812292348
 20
-3.6949362972
 30
0.0
 10
59.9827742633
 20
-3.7170460715
 30
0.0
 10
59.9843753239
 20
-3.7494394705
 30
0.0
 10
59.9857986415
 20
-3.7931956718
 30
0.0
 10
59.9867468721
 20
-3.8423333977
 30
0.0
 10
59.987183326
 20
-3.8951658228
 30
0.0
 10
59.987120033
 20
-3.9314291155
 30
0.0
 10
59.9869985877
 20
-3.9498766793
 30
0.0
 11
59.9745393107
 21
-3.6510182698
 31
0.0
 11
59.975959976
 21
-3.654719081
 31
0.0
 11
59.9773411711
 21
-3.6609523443
 31
0.0
 11
59.978670922
 21
-3.6696651949
 31
0.0
 11
59.9799377535
 21
-3.680783747
 31
0.0
 11
59.981130642
 21
-3.6942135189
 31
0.0
 11
59.9822391852
 21
-3.7098401889
 31
0.0
 11
59.984165143
 21
-3.7471328674
 31
0.0
 11
59.9856478655
 21
-3.7913883809
 31
0.0
 11
59.9866347622
 21
-3.8410907646
 31
0.0
 11
59.987090521
 21
-3.8945328649
 31
0.0
 11
59.9869985877
 21
-3.9498766793
 31
0.0
  0
SPLINE
  5
5D9
100
AcDbEntity
  8
RACCORDO
100
AcDbSpline
 62
7
  6
CONTINUOUS
 70
0
 71
3
 72
18
 73
14
 74
12
 42
0.0000001
 43
0.0000001
 44
0.0000000001
 12
0.0019724646
 22
-0.2996177424
 32
0.0
 13
-0.1528172155
 23
-0.2577238461
 33
0.0
 40
0.0
 40
0.0
 40
0.0
 40
0.0
 40
0.1847109953
 40
0.3630812251
 40
0.5289963111
 40
0.6767825706
 40
0.8014132694
 40
0.8536985603
 40
0.8986970781
 40
0.9360454916
 40
0.9654614681
 40
0.9867696757
 40
1.0
 40
1.0
 40
1.0
 40
1.0
 10
59.9869985877
 20
3.9498766793
 30
0.0
 10
59.987120033
 20
3.9314291155
 30
0.0
 10
59.987183326
 20
3.8951658228
 30
0.0
 10
59.9867468721
 20
3.8423333977
 30
0.0
 10
59.9857986415
 20
3.7931956718
 30
0.0
 10
59.9843753239
 20
3.7494394705
 30
0.0
 10
59.9827742633
 20
3.7170460715
 30
0.0
 10
59.9812292348
 20
3.6949362972
 30
0.0
 10
59.9800625878
 20
3.6815380397
 30
0.0
 10
59.978828027
 20
3.6704476138
 30
0.0
 10
59.977562262
 20
3.6617279591
 30
0.0
 10
59.9762510915
 20
3.6554977121
 30
0.0
 10
59.9752132511
 20
3.6521548598
 30
0.0
 10
59.9745393107
 20
3.6510182698
 30
0.0
 11
59.9869985877
 21
3.9498766793
 31
0.0
 11
59.987090521
 21
3.8945328649
 31
0.0
 11
59.9866347622
 21
3.8410907646
 31
0.0
 11
59.9856478655
 21
3.7913883809
 31
0.0
 11
59.984165143
 21
3.7471328674
 31
0.0
 11
59.9822391852
 21
3.7098401889
 31
0.0
 11
59.981130642
 21
3.6942135189
 31
0.0
 11
59.9799377535
 21
3.680783747
 31
0.0
 11
59.978670922
 21
3.6696651949
 31
0.0
 11
59.9773411711
 21
3.6609523443
 31
0.0
 11
59.975959976
 21
3.654719081
 31
0.0
 11
59.9745393107
 21
3.6510182698
 31
0.0
  0
SPLINE
  5
5DA
100
AcDbEntity
  8
RACCORDO
100
AcDbSpline
 62
7
  6
CONTINUOUS
 70
0
 71
3
 72
18
 73
14
 74
12
 42
0.0000001
 43
0.0000001
 44
0.0000000001
 12
-0.0016108393
 22
-0.299624989
 32
0.0
 13
0.1528599004
 23
-0.2577044425
 33
0.0
 40
0.0
 40
0.0
 40
0.0
 40
0.0
 40
0.184709178
 40
0.3630777261
 40
0.528991609
 40
0.6767775413
 40
0.8014087874
 40
0.853694625
 40
0.8986938237
 40
0.9360430023
 40
0.9654597916
 40
0.9867688446
 40
1.0
 40
1.0
 40
1.0
 40
1.0
 10
59.8865151358
 20
-3.2251006478
 30
0.0
 10
59.8864159569
 20
-3.2435484763
 30
0.0
 10
59.8863930934
 20
-3.279812057
 30
0.0
 10
59.8868788681
 20
-3.3326444478
 30
0.0
 10
59.8878645149
 20
-3.381781917
 30
0.0
 10
59.8893142912
 20
-3.4255378649
 30
0.0
 10
59.8909305313
 20
-3.4579311051
 30
0.0
 10
59.8924839708
 20
-3.4800408397
 30
0.0
 10
59.8936550696
 20
-3.4934391327
 30
0.0
 10
59.8948928639
 20
-3.5045296137
 30
0.0
 10
59.8961608872
 20
-3.513249327
 30
0.0
 10
59.8974735191
 20
-3.519479636
 30
0.0
 10
59.8985120898
 20
-3.5228224814
 30
0.0
 10
59.8991862609
 20
-3.5239590572
 30
0.0
 11
59.8865151358
 21
-3.2251006478
 31
0.0
 11
59.886484902
 21
-3.2804449248
 31
0.0
 11
59.8869905491
 21
-3.3338869793
 31
0.0
 11
59.8880152906
 21
-3.3835890803
 31
0.0
 11
59.8895247734
 21
-3.4278443429
 31
0.0
 11
59.8914682105
 21
-3.4651369132
 31
0.0
 11
59.892582701
 21
-3.480763591
 31
0.0
 11
59.893780052
 21
-3.4941934003
 31
0.0
 11
59.8950501249
 21
-3.5053120044
 31
0.0
 11
59.8963821302
 21
-3.5140249083
 31
0.0
 11
59.8977647858
 21
-3.5202582182
 31
0.0
 11
59.8991862609
 21
-3.5239590572
 31
0.0
  0
SPLINE
  5
5DB
100
AcDbEntity
  8
RACCORDO
100
AcDbSpline
 62
7
  6
CONTINUOUS
 70
0
 71
3
 72
18
 73
14
 74
12
 42
0.0000001
 43
0.0000001
 44
0.0000000001
 12
-0.1528599004
 22
-0.2577044425
 32
0.0
 13
0.0016108393
 23
-0.299624989
 33
0.0
 40
0.0
 40
0.0
 40
0.0
 40
0.0
 40
0.0132311551
 40
0.0345402108
 40
0.0639570098
 40
0.1013061907
 40
0.1463053853
 40
0.198591222
 40
0.3232224826
 40
0.4710084046
 40
0.6369223044
 40
0.8152908312
 40
1.0
 40
1.0
 40
1.0
 40
1.0
 10
59.8991862609
 20
3.5239590572
 30
0.0
 10
59.8985120899
 20
3.5228224814
 30
0.0
 10
59.897473519
 20
3.5194796358
 30
0.0
 10
59.8961608869
 20
3.5132493256
 30
0.0
 10
59.8948928636
 20
3.5045296108
 30
0.0
 10
59.8936550693
 20
3.493439129
 30
0.0
 10
59.8924839706
 20
3.4800408363
 30
0.0
 10
59.890930531
 20
3.4579311007
 30
0.0
 10
59.889314291
 20
3.4255378603
 30
0.0
 10
59.8878645147
 20
3.3817819102
 30
0.0
 10
59.8868788681
 20
3.3326444425
 30
0.0
 10
59.8863930934
 20
3.2798120531
 30
0.0
 10
59.8864159569
 20
3.2435484754
 30
0.0
 10
59.8865151358
 20
3.2251006478
 30
0.0
 11
59.8991862609
 21
3.5239590572
 31
0.0
 11
59.8977647858
 21
3.5202582183
 31
0.0
 11
59.89638213
 21
3.5140249076
 31
0.0
 11
59.8950501245
 21
3.5053120008
 31
0.0
 11
59.8937800515
 21
3.494193396
 31
0.0
 11
59.8925827007
 21
3.4807635879
 31
0.0
 11
59.8914682103
 21
3.4651369104
 31
0.0
 11
59.8895247731
 21
3.4278443358
 31
0.0
 11
59.8880152905
 21
3.3835890762
 31
0.0
 11
59.886990549
 21
3.3338869702
 31
0.0
 11
59.8864849019
 21
3.280444922
 31
0.0
 11
59.8865151358
 21
3.2251006478
 31
0.0
  0
SPLINE
  5
5DC
100
AcDbEntity
  8
RACCORDO
100
AcDbSpline
 62
7
  6
CONTINUOUS
 70
0
 71
3
 72
18
 73
14
 74
12
 42
0.0000001
 43
0.0000001
 44
0.0000000001
 12
0.1528599004
 22
0.2577044425
 32
0.0
 13
-0.0016108393
 23
0.299624989
 33
0.0
 40
0.0
 40
0.0
 40
0.0
 40
0.0
 40
0.0132311554
 40
0.0345402084
 40
0.0639569977
 40
0.1013061763
 40
0.146305375
 40
0.1985912126
 40
0.3232224587
 40
0.471008391
 40
0.6369222739
 40
0.815290822
 40
1.0
 40
1.0
 40
1.0
 40
1.0
 10
-59.8991862609
 20
-3.5239590572
 30
0.0
 10
-59.8985120898
 20
-3.5228224814
 30
0.0
 10
-59.8974735191
 20
-3.519479636
 30
0.0
 10
-59.8961608872
 20
-3.513249327
 30
0.0
 10
-59.8948928639
 20
-3.5045296137
 30
0.0
 10
-59.8936550696
 20
-3.4934391327
 30
0.0
 10
-59.8924839708
 20
-3.4800408397
 30
0.0
 10
-59.8909305313
 20
-3.4579311051
 30
0.0
 10
-59.8893142912
 20
-3.4255378649
 30
0.0
 10
-59.8878645149
 20
-3.381781917
 30
0.0
 10
-59.8868788681
 20
-3.3326444478
 30
0.0
 10
-59.8863930934
 20
-3.279812057
 30
0.0
 10
-59.8864159569
 20
-3.2435484763
 30
0.0
 10
-59.8865151358
 20
-3.2251006478
 30
0.0
 11
-59.8991862609
 21
-3.5239590572
 31
0.0
 11
-59.8977647858
 21
-3.5202582182
 31
0.0
 11
-59.8963821302
 21
-3.5140249083
 31
0.0
 11
-59.8950501249
 21
-3.5053120044
 31
0.0
 11
-59.893780052
 21
-3.4941934003
 31
0.0
 11
-59.892582701
 21
-3.480763591
 31
0.0
 11
-59.8914682105
 21
-3.4651369132
 31
0.0
 11
-59.8895247734
 21
-3.4278443429
 31
0.0
 11
-59.8880152906
 21
-3.3835890803
 31
0.0
 11
-59.8869905491
 21
-3.3338869793
 31
0.0
 11
-59.886484902
 21
-3.2804449248
 31
0.0
 11
-59.8865151358
 21
-3.2251006478
 31
0.0
  0
SPLINE
  5
5DD
100
AcDbEntity
  8
RACCORDO
100
AcDbSpline
 62
7
  6
CONTINUOUS
 70
0
 71
3
 72
18
 73
14
 74
12
 42
0.0000001
 43
0.0000001
 44
0.0000000001
 12
0.0016108393
 22
0.299624989
 32
0.0
 13
-0.1528599004
 23
0.2577044425
 33
0.0
 40
0.0
 40
0.0
 40
0.0
 40
0.0
 40
0.1847091688
 40
0.3630776956
 40
0.5289915954
 40
0.6767775174
 40
0.801408778
 40
0.8536946147
 40
0.8986938093
 40
0.9360429902
 40
0.9654597892
 40
0.9867688449
 40
1.0
 40
1.0
 40
1.0
 40
1.0
 10
-59.8865151358
 20
3.2251006478
 30
0.0
 10
-59.8864159569
 20
3.2435484754
 30
0.0
 10
-59.8863930934
 20
3.2798120531
 30
0.0
 10
-59.8868788681
 20
3.3326444425
 30
0.0
 10
-59.8878645147
 20
3.3817819102
 30
0.0
 10
-59.889314291
 20
3.4255378603
 30
0.0
 10
-59.890930531
 20
3.4579311007
 30
0.0
 10
-59.8924839706
 20
3.4800408363
 30
0.0
 10
-59.8936550693
 20
3.493439129
 30
0.0
 10
-59.8948928636
 20
3.5045296108
 30
0.0
 10
-59.8961608869
 20
3.5132493256
 30
0.0
 10
-59.897473519
 20
3.5194796358
 30
0.0
 10
-59.8985120899
 20
3.5228224814
 30
0.0
 10
-59.8991862609
 20
3.5239590572
 30
0.0
 11
-59.8865151358
 21
3.2251006478
 31
0.0
 11
-59.8864849019
 21
3.280444922
 31
0.0
 11
-59.886990549
 21
3.3338869702
 31
0.0
 11
-59.8880152905
 21
3.3835890762
 31
0.0
 11
-59.8895247731
 21
3.4278443358
 31
0.0
 11
-59.8914682103
 21
3.4651369104
 31
0.0
 11
-59.8925827007
 21
3.4807635879
 31
0.0
 11
-59.8937800515
 21
3.494193396
 31
0.0
 11
-59.8950501245
 21
3.5053120008
 31
0.0
 11
-59.89638213
 21
3.5140249076
 31
0.0
 11
-59.8977647858
 21
3.5202582183
 31
0.0
 11
-59.8991862609
 21
3.5239590572
 31
0.0
  0
SPLINE
  5
5DE
100
AcDbEntity
  8
0
100
AcDbSpline
 62
7
  6
CONTINUOUS
 70
0
 71
3
 72
10
 73
6
 74
4
 42
0.0000001
 43
0.0000001
 44
0.0000000001
 12
-0.2074556137
 22
0.5510228226
 32
0.0
 13
-0.5886963197
 23
0.0
 33
0.0
 40
0.0
 40
0.0
 40
0.0
 40
0.0
 40
0.3689473694
 40
0.6477940116
 40
1.0
 40
1.0
 40
1.0
 40
1.0
 10
-10.8216065638
 20
31.0805392826
 30
0.0
 10
-10.8471199648
 20
31.1483054229
 30
0.0
 10
-10.9100747187
 20
31.2631474392
 30
0.0
 10
-11.0681975201
 20
31.3866418357
 30
0.0
 10
-11.1947008848
 20
31.4145850627
 30
0.0
 10
-11.2638150079
 20
31.4145850627
 30
0.0
 11
-10.8216065638
 21
31.0805392826
 31
0.0
 11
-10.9316363367
 21
31.2678182245
 31
0.0
 11
-11.0618148315
 21
31.3678219703
 31
0.0
 11
-11.2638150079
 21
31.4145850627
 31
0.0
  0
SPLINE
  5
5DF
100
AcDbEntity
  8
0
100
AcDbSpline
 62
7
  6
CONTINUOUS
 70
0
 71
3
 72
12
 73
8
 74
6
 42
0.0000001
 43
0.0000001
 44
0.0000000001
 12
-0.3327043691
 22
1.1572164259
 32
0.0
 13
-0.4242627865
 23
1.1268843198
 33
0.0
 40
0.0
 40
0.0
 40
0.0
 40
0.0
 40
0.1341752175
 40
0.4410691386
 40
0.7772446388
 40
0.9115031837
 40
1.0
 40
1.0
 40
1.0
 40
1.0
 10
-10.4745195396
 20
29.9276540612
 30
0.0
 10
-10.4893997666
 20
29.9794106497
 30
0.0
 10
-10.5386157932
 20
30.1494624644
 30
0.0
 10
-10.6261343372
 20
30.4488847266
 30
0.0
 10
-10.7148496273
 20
30.7480305319
 30
0.0
 10
-10.7816049125
 20
30.9621697345
 30
0.0
 10
-10.8090913907
 20
31.0472973426
 30
0.0
 10
-10.8216066927
 20
31.0805392341
 30
0.0
 11
-10.4745195396
 21
29.9276540612
 31
0.0
 11
-10.5193847735
 21
30.0828590911
 31
0.0
 11
-10.6230609179
 21
30.4375462848
 31
0.0
 11
-10.7391686369
 21
30.8253237976
 31
0.0
 11
-10.7873907944
 21
30.9796239724
 31
0.0
 11
-10.8216066927
 21
31.0805392341
 31
0.0
  0
SPLINE
  5
5E0
100
AcDbEntity
  8
0
100
AcDbSpline
 62
7
  6
CONTINUOUS
 70
0
 71
3
 72
9
 73
5
 74
3
 42
0.0000001
 43
0.0000001
 44
0.0000000001
 12
0.2795120823
 22
-1.0259637778
 32
0.0
 13
0.2787082506
 23
-1.0261824638
 33
0.0
 40
0.0
 40
0.0
 40
0.0
 40
0.0
 40
0.8019560553
 40
1.0
 40
1.0
 40
1.0
 40
1.0
 10
-9.9827278024
 20
30.9558746977
 30
0.0
 10
-9.9080090001
 20
30.6816154097
 30
0.0
 10
-9.8200757963
 20
30.3382268194
 30
0.0
 10
-9.7300353198
 20
29.9953971355
 30
0.0
 10
-9.7116364927
 20
29.9276540612
 30
0.0
 11
-9.9827278024
 21
30.9558746977
 31
0.0
 11
-9.7656166119
 21
30.1312097425
 31
0.0
 11
-9.7116364927
 21
29.9276540612
 31
0.0
  0
SPLINE
  5
5E1
100
AcDbEntity
  8
0
100
AcDbSpline
 62
7
  6
CONTINUOUS
 70
0
 71
3
 72
11
 73
7
 74
5
 42
0.0000001
 43
0.0000001
 44
0.0000000001
 12
0.8407070911
 22
-0.3352319526
 32
0.0
 13
0.2379073993
 23
-0.8732516041
 33
0.0
 40
0.0
 40
0.0
 40
0.0
 40
0.0
 40
0.2518807733
 40
0.5057299376
 40
0.7626274426
 40
1.0
 40
1.0
 40
1.0
 40
1.0
 10
-10.4399298096
 20
31.7012467372
 30
0.0
 10
-10.3693438255
 20
31.6731005761
 30
0.0
 10
-10.2409592019
 20
31.5795364145
 30
0.0
 10
-10.1185676418
 20
31.3813357625
 30
0.0
 10
-10.03999682
 20
31.1690857846
 30
0.0
 10
-10.0015520327
 20
31.0249700196
 30
0.0
 10
-9.9827278034
 20
30.9558746975
 30
0.0
 11
-10.4399298096
 21
31.7012467372
 31
0.0
 11
-10.2531726029
 21
31.5705064085
 31
0.0
 11
-10.1260543659
 21
31.3791227542
 31
0.0
 11
-10.0415838556
 21
31.162496646
 31
0.0
 11
-9.9827278034
 21
30.9558746975
 31
0.0
  0
SPLINE
  5
5E2
100
AcDbEntity
  8
0
100
AcDbSpline
 62
7
  6
CONTINUOUS
 70
0
 71
3
 72
29
 73
25
 74
23
 42
0.0000001
 43
0.0000001
 44
0.0000000001
 12
2.2313656128
 22
-0.8049730264
 32
0.0
 13
-2.3526204564
 23
-0.3035639299
 33
0.0
 40
0.0
 40
0.0
 40
0.0
 40
0.0
 40
0.0797921543
 40
0.1315450168
 40
0.1894872835
 40
0.2530428125
 40
0.3223573394
 40
0.3594791469
 40
0.3984765258
 40
0.4396024585
 40
0.461060296
 40
0.4831657108
 40
0.5106684577
 40
0.5371696367
 40
0.5874242403
 40
0.6344377035
 40
0.6786100793
 40
0.7594318421
 40
0.8311116915
 40
0.8931858305
 40
0.9201298729
 40
0.9439336987
 40
0.9806160801
 40
1.0
 40
1.0
 40
1.0
 40
1.0
 10
-10.5217028944
 20
33.6428018992
 30
0.0
 10
-10.4623544047
 20
33.6213917219
 30
0.0
 10
-10.3701251339
 20
33.5704487728
 30
0.0
 10
-10.2511358085
 20
33.4792114642
 30
0.0
 10
-10.1537565465
 20
33.3821606116
 30
0.0
 10
-10.0627135284
 20
33.2611847931
 30
0.0
 10
-9.9994774351
 20
33.1418221284
 30
0.0
 10
-9.9585652941
 20
33.0342294188
 30
0.0
 10
-9.933115792
 20
32.9449613799
 30
0.0
 10
-9.9178171088
 20
32.8660033163
 30
0.0
 10
-9.9092484065
 20
32.7995725143
 30
0.0
 10
-9.9044457649
 20
32.7435693636
 30
0.0
 10
-9.9019765997
 20
32.6834145889
 30
0.0
 10
-9.902502976
 20
32.6009535528
 30
0.0
 10
-9.9101846807
 20
32.5032205808
 30
0.0
 10
-9.9299135027
 20
32.3929480775
 30
0.0
 10
-9.9668466346
 20
32.2618709191
 30
0.0
 10
-10.0297678288
 20
32.1186034518
 30
0.0
 10
-10.1242566713
 20
31.9768442764
 30
0.0
 10
-10.2101891069
 20
31.8825445094
 30
0.0
 10
-10.2769147783
 20
31.8233583281
 30
0.0
 10
-10.331473549
 20
31.7805121038
 30
0.0
 10
-10.3845865807
 20
31.7475895894
 30
0.0
 10
-10.4247288075
 20
31.7256601397
 30
0.0
 10
-10.4399298096
 20
31.7236987201
 30
0.0
 11
-10.5217028944
 21
33.6428018992
 31
0.0
 11
-10.3540075243
 21
33.5550293911
 31
0.0
 11
-10.2566310861
 21
33.4802705476
 31
0.0
 11
-10.1592586547
 21
33.3832649553
 31
0.0
 11
-10.0686576116
 21
33.2627638473
 31
0.0
 11
-9.9915953385
 21
33.1175184568
 31
0.0
 11
-9.9602560475
 21
33.0352264159
 31
0.0
 11
-9.9348392172
 21
32.9462800168
 31
0.0
 11
-9.9161907702
 21
32.8505231635
 31
0.0
 11
-9.9096690412
 21
32.8000420367
 31
0.0
 11
-9.9051566292
 21
32.7477997604
 31
0.0
 11
-9.9024692222
 21
32.6826151981
 31
0.0
 11
-9.9029047446
 21
32.619752614
 31
0.0
 11
-9.9123960269
 21
32.5009208831
 31
0.0
 11
-9.9321333747
 21
32.3911595738
 31
0.0
 11
-9.9606196869
 21
32.2903236924
 31
0.0
 11
-10.0378507995
 21
32.1148482375
 31
0.0
 11
-10.1321125548
 21
31.9733345675
 31
0.0
 11
-10.2314281433
 21
31.8646227317
 31
0.0
 11
-10.2792383714
 21
31.822205038
 31
0.0
 11
-10.323820755
 21
31.787552779
 31
0.0
 11
-10.3973135806
 21
31.7409647482
 31
0.0
 11
-10.4399298096
 21
31.7236987201
 31
0.0
  0
SPLINE
  5
5E3
100
AcDbEntity
  8
0
100
AcDbSpline
 62
7
  6
CONTINUOUS
 70
0
 71
3
 72
10
 73
6
 74
4
 42
0.0000001
 43
0.0000001
 44
0.0000000001
 12
1.9517410016
 22
0.2871343355
 32
0.0
 13
1.8553784502
 23
-0.6703058037
 33
0.0
 40
0.0
 40
0.0
 40
0.0
 40
0.0
 40
0.4151262789
 40
0.7045762354
 40
1.0
 40
1.0
 40
1.0
 40
1.0
 10
-12.4789858413
 20
33.6828051783
 30
0.0
 10
-12.2089128482
 20
33.7225375144
 30
0.0
 10
-11.7470715957
 20
33.7728564431
 30
0.0
 10
-11.0892448935
 20
33.7729799071
 30
0.0
 10
-10.7044105232
 20
33.7088099872
 30
0.0
 10
-10.5217028944
 20
33.6428018992
 30
0.0
 11
-12.4789858413
 21
33.6828051783
 31
0.0
 11
-11.6641202571
 21
33.7643943983
 31
0.0
 11
-11.0931528704
 21
33.7572450409
 31
0.0
 11
-10.5217028944
 21
33.6428018992
 31
0.0
  0
SPLINE
  5
5E4
100
AcDbEntity
  8
0
100
AcDbSpline
 62
7
  6
CONTINUOUS
 70
0
 71
3
 72
9
 73
5
 74
3
 42
0.0000001
 43
0.0000001
 44
0.0000000001
 12
-0.619404298
 22
0.0718902808
 32
0.0
 13
-0.6146777033
 23
-0.1048851863
 33
0.0
 40
0.0
 40
0.0
 40
0.0
 40
0.0
 40
0.4842439535
 40
1.0
 40
1.0
 40
1.0
 40
1.0
 10
-11.0940494706
 20
33.102275636
 30
0.0
 10
-11.1940303993
 20
33.1138797806
 30
0.0
 10
-11.4026809472
 20
33.1244020032
 30
0.0
 10
-11.6096874123
 20
33.0979384785
 30
0.0
 10
-11.715361993
 20
33.0799067555
 30
0.0
 11
-11.0940494706
 21
33.102275636
 31
0.0
 11
-11.3957204071
 21
33.1153975564
 31
0.0
 11
-11.715361993
 21
33.0799067555
 31
0.0
  0
SPLINE
  5
5E5
100
AcDbEntity
  8
0
100
AcDbSpline
 62
7
  6
CONTINUOUS
 70
0
 71
3
 72
11
 73
7
 74
5
 42
0.0000001
 43
0.0000001
 44
0.0000000001
 12
-0.0108419377
 22
0.7120482576
 32
0.0
 13
-0.7074022973
 23
0.0821036437
 33
0.0
 40
0.0
 40
0.0
 40
0.0
 40
0.0
 40
0.2571157798
 40
0.4996528202
 40
0.7437383148
 40
1.0
 40
1.0
 40
1.0
 40
1.0
 10
-10.6460118276
 20
32.6270949034
 30
0.0
 10
-10.6469410387
 20
32.6881211844
 30
0.0
 10
-10.6701054733
 20
32.8079596988
 30
0.0
 10
-10.7698109194
 20
32.9587492283
 30
0.0
 10
-10.9167064512
 20
33.0627757485
 30
0.0
 10
-11.0336227689
 20
33.0952622969
 30
0.0
 10
-11.0940494705
 20
33.1022756363
 30
0.0
 11
-10.6460118276
 21
32.6270949034
 31
0.0
 11
-10.6823846909
 21
32.8065478987
 31
0.0
 11
-10.777300769
 21
32.9508541542
 31
0.0
 11
-10.9185774849
 21
33.0521280361
 31
0.0
 11
-11.0940494705
 21
33.1022756363
 31
0.0
  0
SPLINE
  5
5E6
100
AcDbEntity
  8
0
100
AcDbSpline
 62
7
  6
CONTINUOUS
 70
0
 71
3
 72
11
 73
7
 74
5
 42
0.0000001
 43
0.0000001
 44
0.0000000001
 12
0.9661626447
 22
0.0215799465
 32
0.0
 13
-0.0147137984
 23
0.9663341426
 33
0.0
 40
0.0
 40
0.0
 40
0.0
 40
0.0
 40
0.2466920679
 40
0.4757990997
 40
0.7090596741
 40
1.0
 40
1.0
 40
1.0
 40
1.0
 10
-11.262105466
 20
32.0368582931
 30
0.0
 10
-11.1826572458
 20
32.038632827
 30
0.0
 10
-11.0289327859
 20
32.0565987669
 30
0.0
 10
-10.8152946365
 20
32.1548509774
 30
0.0
 10
-10.6649152996
 20
32.3592256674
 30
0.0
 10
-10.6445849039
 20
32.5333797129
 30
0.0
 10
-10.6460118497
 20
32.627094903
 30
0.0
 11
-11.262105466
 21
32.0368582931
 31
0.0
 11
-11.0260382166
 21
32.0701565176
 31
0.0
 11
-10.8280884079
 21
32.1693442243
 31
0.0
 11
-10.6931245314
 21
32.3499007804
 31
0.0
 11
-10.6460118497
 21
32.627094903
 31
0.0
  0
SPLINE
  5
5E7
100
AcDbEntity
  8
0
100
AcDbSpline
 62
7
  6
CONTINUOUS
 70
0
 71
3
 72
14
 73
10
 74
8
 42
0.0000001
 43
0.0000001
 44
0.0000000001
 12
0.0267836937
 22
-0.9926085456
 32
0.0
 13
-0.9926685956
 23
-0.0244506199
 33
0.0
 40
0.0
 40
0.0
 40
0.0
 40
0.0
 40
0.1229416562
 40
0.2742257438
 40
0.41013254
 40
0.606770896
 40
0.753510722
 40
0.865583349
 40
1.0
 40
1.0
 40
1.0
 40
1.0
 10
12.960609134
 20
-31.75
 30
0.0
 10
12.9617067445
 20
-31.7906776462
 30
0.0
 10
12.9585765839
 20
-31.8816461587
 30
0.0
 10
12.9368298816
 20
-32.0159692549
 30
0.0
 10
12.8924941191
 20
-32.1704846889
 30
0.0
 10
12.8045741533
 20
-32.3076749609
 30
0.0
 10
12.68216546
 20
-32.3997117011
 30
0.0
 10
12.5603430226
 20
-32.4481621535
 30
0.0
 10
12.4786065321
 20
-32.4601034765
 30
0.0
 10
12.4341294694
 20
-32.461199
 30
0.0
 11
12.960609134
 21
-31.75
 31
0.0
 11
12.9566067105
 21
-31.8720117266
 31
0.0
 11
12.9329374828
 21
-32.0203558431
 31
0.0
 11
12.8929601274
 21
-32.1492498989
 31
0.0
 11
12.7858127355
 21
-32.3124807926
 31
0.0
 11
12.6694340457
 21
-32.4001556814
 31
0.0
 11
12.5661542236
 21
-32.4415992721
 31
0.0
 11
12.4341294694
 21
-32.461199
 31
0.0
  0
SPLINE
  5
5E8
100
AcDbEntity
  8
0
100
AcDbSpline
 62
7
  6
CONTINUOUS
 70
0
 71
3
 72
14
 73
10
 74
8
 42
0.0000001
 43
0.0000001
 44
0.0000000001
 12
0.9926685956
 22
-0.0244506199
 32
0.0
 13
-0.0267836937
 23
-0.9926085456
 33
0.0
 40
0.0
 40
0.0
 40
0.0
 40
0.0
 40
0.134416651
 40
0.246489278
 40
0.393229104
 40
0.58986746
 40
0.7257742562
 40
0.8770583438
 40
1.0
 40
1.0
 40
1.0
 40
1.0
 10
12.4341294694
 20
-31.038801
 30
0.0
 10
12.4786065321
 20
-31.0398965235
 30
0.0
 10
12.5603430226
 20
-31.0518378465
 30
0.0
 10
12.68216546
 20
-31.1002882989
 30
0.0
 10
12.8045741533
 20
-31.1923250391
 30
0.0
 10
12.8924941191
 20
-31.3295153111
 30
0.0
 10
12.9368298816
 20
-31.4840307451
 30
0.0
 10
12.9585765839
 20
-31.6183538413
 30
0.0
 10
12.9617067445
 20
-31.7093223538
 30
0.0
 10
12.960609134
 20
-31.75
 30
0.0
 11
12.4341294694
 21
-31.038801
 31
0.0
 11
12.5661542236
 21
-31.0584007279
 31
0.0
 11
12.6694340457
 21
-31.0998443186
 31
0.0
 11
12.7858127355
 21
-31.1875192074
 31
0.0
 11
12.8929601274
 21
-31.3507501011
 31
0.0
 11
12.9329374828
 21
-31.4796441569
 31
0.0
 11
12.9566067105
 21
-31.6279882734
 31
0.0
 11
12.960609134
 21
-31.75
 31
0.0
  0
SPLINE
  5
5E9
100
AcDbEntity
  8
0
100
AcDbSpline
 62
7
  6
CONTINUOUS
 70
0
 71
3
 72
15
 73
11
 74
9
 42
0.0000001
 43
0.0000001
 44
0.0000000001
 12
1.361754988
 22
-0.0062542098
 32
0.0
 13
-0.023477163
 23
1.3615669596
 33
0.0
 40
0.0
 40
0.0
 40
0.0
 40
0.0
 40
0.1666104649
 40
0.3201400637
 40
0.432791991
 40
0.5473463999
 40
0.6677209668
 40
0.7950987643
 40
0.8857287116
 40
1.0
 40
1.0
 40
1.0
 40
1.0
 10
12.4404918702
 20
-32.675
 30
0.0
 10
12.5161194141
 20
-32.6753473389
 30
0.0
 10
12.6622609445
 20
-32.6572087083
 30
0.0
 10
12.8459613811
 20
-32.5780730151
 30
0.0
 10
12.9778865008
 20
-32.464582363
 30
0.0
 10
13.0797734618
 20
-32.3424425296
 30
0.0
 10
13.1490840468
 20
-32.1919079543
 30
0.0
 10
13.1948410995
 20
-32.0447648162
 30
0.0
 10
13.2162465854
 20
-31.8950383279
 30
0.0
 10
13.218665197
 20
-31.8018626702
 30
0.0
 10
13.2177709418
 20
-31.75
 30
0.0
 11
12.4404918702
 21
-32.675
 31
0.0
 11
12.6654542641
 21
-32.6455256773
 31
0.0
 11
12.8564089749
 21
-32.560394258
 31
0.0
 11
12.9742464193
 21
-32.4621714517
 31
0.0
 11
13.0723794561
 21
-32.3409078043
 31
0.0
 11
13.1444643732
 21
-32.1936858067
 31
0.0
 11
13.1945407986
 21
-32.0276122119
 31
0.0
 11
13.2126143934
 21
-31.9055256773
 31
0.0
 11
13.2177709418
 21
-31.75
 31
0.0
  0
SPLINE
  5
5EA
100
AcDbEntity
  8
0
100
AcDbSpline
 62
7
  6
CONTINUOUS
 70
0
 71
3
 72
15
 73
11
 74
9
 42
0.0000001
 43
0.0000001
 44
0.0000000001
 12
0.0233427457
 22
1.3537713748
 32
0.0
 13
-1.3539583376
 23
0.0062160329
 33
0.0
 40
0.0
 40
0.0
 40
0.0
 40
0.0
 40
0.1149293105
 40
0.2060811432
 40
0.3341924356
 40
0.4552601699
 40
0.5704742312
 40
0.6837748557
 40
0.8381885424
 40
1.0
 40
1.0
 40
1.0
 40
1.0
 10
13.2177709418
 20
-31.75
 30
0.0
 10
13.218665197
 20
-31.6981373298
 30
0.0
 10
13.2162465812
 20
-31.6049616701
 30
0.0
 10
13.1948411128
 20
-31.4552351902
 30
0.0
 10
13.1490839761
 20
-31.3080920113
 30
0.0
 10
13.079773702
 20
-31.1575575874
 30
0.0
 10
12.9778856574
 20
-31.0354172263
 30
0.0
 10
12.8459649493
 20
-30.9219287225
 30
0.0
 10
12.6646719334
 20
-30.8438288347
 30
0.0
 10
12.5213863089
 20
-30.8253352751
 30
0.0
 10
12.4483576515
 20
-30.825
 30
0.0
 11
13.2177709418
 21
-31.75
 31
0.0
 11
13.2126143934
 21
-31.5944743227
 31
0.0
 11
13.1945407986
 21
-31.4723877881
 31
0.0
 11
13.1444643732
 21
-31.3063141933
 31
0.0
 11
13.0723794561
 21
-31.1590921957
 31
0.0
 11
12.9742464193
 21
-31.0378285483
 31
0.0
 11
12.8564089749
 21
-30.939605742
 31
0.0
 11
12.6654542641
 21
-30.8544743227
 31
0.0
 11
12.4483576515
 21
-30.825
 31
0.0
  0
SPLINE
  5
5EB
100
AcDbEntity
  8
0
100
AcDbSpline
 62
7
  6
CONTINUOUS
 70
0
 71
3
 72
27
 73
23
 74
21
 42
0.0000001
 43
0.0000001
 44
0.0000000001
 12
3.8109058442
 22
0.0
 32
0.0
 13
-3.8109058442
 23
0.0
 33
0.0
 40
0.0
 40
0.0
 40
0.0
 40
0.0
 40
0.0624809344
 40
0.093759218
 40
0.1250374531
 40
0.1875185173
 40
0.2499996609
 40
0.281277897
 40
0.3125561602
 40
0.3750374096
 40
0.4375187418
 40
0.5000000025
 40
0.5624812628
 40
0.624962595
 40
0.6874438429
 40
0.7187221077
 40
0.7500003433
 40
0.8124814875
 40
0.8749625501
 40
0.9062407869
 40
0.9375190694
 40
1.0
 40
1.0
 40
1.0
 40
1.0
 10
-0.0
 20
1.2150019446
 30
0.0
 10
0.0793696526
 20
1.2150019446
 30
0.0
 10
0.1989021797
 20
1.2032157749
 30
0.0
 10
0.353140503
 20
1.1645207848
 30
0.0
 10
0.5029012526
 20
1.11090529
 30
0.0
 10
0.6791136725
 20
1.0166669339
 30
0.0
 10
0.8335078784
 20
0.8897978606
 30
0.0
 10
0.9402608066
 20
0.7718838452
 30
0.0
 10
1.0349674167
 20
0.6440977671
 30
0.0
 10
1.1291324102
 20
0.467810606
 30
0.0
 10
1.1986148914
 20
0.2384960243
 30
0.0
 10
1.2220898249
 20
-0.0000000091
 30
0.0
 10
1.198614888
 20
-0.2384960421
 30
0.0
 10
1.1291324036
 20
-0.4678106204
 30
0.0
 10
1.0349674084
 20
-0.6440977808
 30
0.0
 10
0.9402607967
 20
-0.7718838572
 30
0.0
 10
0.8335078655
 20
-0.8897978727
 30
0.0
 10
0.6791136593
 20
-1.0166669427
 30
0.0
 10
0.5029012374
 20
-1.1109052966
 30
0.0
 10
0.3531404885
 20
-1.1645207893
 30
0.0
 10
0.1989021687
 20
-1.2032157767
 30
0.0
 10
0.0793696479
 20
-1.2150019446
 30
0.0
 10
-0.0
 20
-1.2150019446
 30
0.0
 11
-0.0
 21
1.2150019446
 31
0.0
 11
0.2369603234
 21
1.1916421291
 31
0.0
 11
0.3525805075
 21
1.1626545833
 31
0.0
 11
0.4647994746
 21
1.1224654786
 31
0.0
 11
0.6747509979
 21
1.0101424208
 31
0.0
 11
0.8587453014
 21
0.859005556
 31
0.0
 11
0.9387540775
 21
0.7706491338
 31
0.0
 11
1.0097189678
 21
0.674877162
 31
0.0
 11
1.121884321
 21
0.4648405436
 31
0.0
 11
1.1909469824
 21
0.236965695
 31
0.0
 11
1.2142648495
 21
-0.0000000095
 31
0.0
 11
1.190946979
 21
-0.2369657122
 31
0.0
 11
1.1218843141
 21
-0.4648405598
 31
0.0
 11
1.009718961
 21
-0.6748771722
 31
0.0
 11
0.9387540659
 21
-0.7706491479
 31
0.0
 11
0.8587452899
 21
-0.8590055675
 31
0.0
 11
0.6747509826
 21
-1.0101424312
 31
0.0
 11
0.4647994632
 21
-1.1224654832
 31
0.0
 11
0.3525804896
 21
-1.1626545889
 31
0.0
 11
0.2369603093
 21
-1.1916421322
 31
0.0
 11
-0.0
 21
-1.2150019446
 31
0.0
  0
SPLINE
  5
5EC
100
AcDbEntity
  8
0
100
AcDbSpline
 62
7
  6
CONTINUOUS
 70
0
 71
3
 72
27
 73
23
 74
21
 42
0.0000001
 43
0.0000001
 44
0.0000000001
 12
-3.8109058442
 22
0.0
 32
0.0
 13
3.8109058442
 23
0.0
 33
0.0
 40
0.0
 40
0.0
 40
0.0
 40
0.0
 40
0.0624809348
 40
0.0937592185
 40
0.1250374535
 40
0.1875185177
 40
0.2499996612
 40
0.2812778973
 40
0.3125561605
 40
0.3750374097
 40
0.4375187419
 40
0.5000000023
 40
0.5624812627
 40
0.6249625948
 40
0.6874438428
 40
0.7187221075
 40
0.7500003431
 40
0.8124814872
 40
0.8749625497
 40
0.9062407865
 40
0.937519069
 40
1.0
 40
1.0
 40
1.0
 40
1.0
 10
-0.0
 20
-1.2150019446
 30
0.0
 10
-0.0793696532
 20
-1.2150019446
 30
0.0
 10
-0.1989021809
 20
-1.2032157748
 30
0.0
 10
-0.3531405046
 20
-1.1645207843
 30
0.0
 10
-0.5029012541
 20
-1.1109052893
 30
0.0
 10
-0.6791136736
 20
-1.0166669331
 30
0.0
 10
-0.8335078793
 20
-0.8897978598
 30
0.0
 10
-0.9402608072
 20
-0.7718838444
 30
0.0
 10
-1.0349674171
 20
-0.6440977664
 30
0.0
 10
-1.1291324104
 20
-0.4678106055
 30
0.0
 10
-1.1986148914
 20
-0.2384960242
 30
0.0
 10
-1.2220898248
 20
0.0000000088
 30
0.0
 10
-1.1986148881
 20
0.2384960416
 30
0.0
 10
-1.1291324038
 20
0.46781062
 30
0.0
 10
-1.0349674087
 20
0.6440977802
 30
0.0
 10
-0.9402607972
 20
0.7718838566
 30
0.0
 10
-0.8335078662
 20
0.889797872
 30
0.0
 10
-0.6791136604
 20
1.016666942
 30
0.0
 10
-0.5029012388
 20
1.110905296
 30
0.0
 10
-0.35314049
 20
1.1645207888
 30
0.0
 10
-0.1989021698
 20
1.2032157766
 30
0.0
 10
-0.0793696484
 20
1.2150019446
 30
0.0
 10
-0.0
 20
1.2150019446
 30
0.0
 11
-0.0
 21
-1.2150019446
 31
0.0
 11
-0.236960325
 21
-1.1916421288
 31
0.0
 11
-0.3525805092
 21
-1.1626545828
 31
0.0
 11
-0.4647994761
 21
-1.1224654779
 31
0.0
 11
-0.674750999
 21
-1.0101424201
 31
0.0
 11
-0.8587453022
 21
-0.8590055553
 31
0.0
 11
-0.9387540781
 21
-0.7706491331
 31
0.0
 11
-1.0097189683
 21
-0.6748771613
 31
0.0
 11
-1.1218843212
 21
-0.4648405431
 31
0.0
 11
-1.1909469824
 21
-0.2369656948
 31
0.0
 11
-1.2142648495
 21
0.0000000087
 31
0.0
 11
-1.1909469791
 21
0.236965712
 31
0.0
 11
-1.1218843143
 21
0.4648405594
 31
0.0
 11
-1.0097189614
 21
0.6748771716
 31
0.0
 11
-0.9387540665
 21
0.7706491472
 31
0.0
 11
-0.8587452905
 21
0.8590055668
 31
0.0
 11
-0.6747509836
 21
1.0101424305
 31
0.0
 11
-0.4647994646
 21
1.1224654826
 31
0.0
 11
-0.3525804912
 21
1.1626545884
 31
0.0
 11
-0.2369603109
 21
1.1916421319
 31
0.0
 11
-0.0
 21
1.2150019446
 31
0.0
  0
SPLINE
  5
5ED
100
AcDbEntity
  8
RACCORDO
100
AcDbSpline
 62
253
  6
CONTINUOUS
 70
0
 71
3
 72
39
 73
35
 74
33
 42
0.0000001
 43
0.0000001
 44
0.0000000001
 12
0.0000310974
 22
19.7863220956
 32
0.0
 13
0.0000274382
 23
-19.7863220956
 33
0.0
 40
0.0
 40
0.0
 40
0.0
 40
0.0
 40
0.0312500388
 40
0.0625000568
 40
0.0937500735
 40
0.1250000815
 40
0.1562500789
 40
0.1875000665
 40
0.2187500461
 40
0.2500000212
 40
0.2812499955
 40
0.3124999728
 40
0.3437499564
 40
0.3749999487
 40
0.4062499505
 40
0.4374999609
 40
0.4687499788
 40
0.5
 40
0.5312500212
 40
0.562500039
 40
0.5937500494
 40
0.6250000512
 40
0.6562500435
 40
0.6875000272
 40
0.7187500045
 40
0.7499999787
 40
0.7812499538
 40
0.8124999335
 40
0.843749921
 40
0.8749999185
 40
0.9062499265
 40
0.9374999431
 40
0.9687499611
 40
1.0
 40
1.0
 40
1.0
 40
1.0
 10
-6.3003000442
 20
-0.0
 30
0.0
 10
-6.3002997203
 20
0.206107778
 30
0.0
 10
-6.2800452077
 20
0.6186095282
 30
0.0
 10
-6.1891898089
 20
1.2311770415
 30
0.0
 10
-6.0387360059
 20
1.8319534565
 30
0.0
 10
-5.8301308899
 20
2.4150767082
 30
0.0
 10
-5.5653815744
 20
2.9749530892
 30
0.0
 10
-5.2470354879
 20
3.5061856806
 30
0.0
 10
-4.8781561562
 20
4.0036598733
 30
0.0
 10
-4.4622938624
 20
4.4625836007
 30
0.0
 10
-4.0034516567
 20
4.8785359556
 30
0.0
 10
-3.5060469742
 20
5.2475092232
 30
0.0
 10
-2.9748692286
 20
5.5659478043
 30
0.0
 10
-2.4150337717
 20
5.8307825998
 30
0.0
 10
-1.8319326576
 20
6.0394607859
 30
0.0
 10
-1.231182667
 20
6.1899706079
 30
0.0
 10
-0.6185711251
 20
6.2808609389
 30
0.0
 10
0.0000000003
 20
6.3112554083
 30
0.0
 10
0.6185711259
 20
6.280860939
 30
0.0
 10
1.2311826678
 20
6.1899706081
 30
0.0
 10
1.8319326585
 20
6.0394607862
 30
0.0
 10
2.4150337725
 20
5.8307826001
 30
0.0
 10
2.9748692295
 20
5.5659478048
 30
0.0
 10
3.5060469752
 20
5.2475092237
 30
0.0
 10
4.0034516577
 20
4.8785359561
 30
0.0
 10
4.4622938635
 20
4.4625836014
 30
0.0
 10
4.8781561574
 20
4.003659874
 30
0.0
 10
5.2470354892
 20
3.5061856815
 30
0.0
 10
5.5653815758
 20
2.9749530901
 30
0.0
 10
5.8301308917
 20
2.4150767091
 30
0.0
 10
6.0387360066
 20
1.8319534576
 30
0.0
 10
6.1891898142
 20
1.2311770425
 30
0.0
 10
6.2800451975
 20
0.6186095296
 30
0.0
 10
6.3002997584
 20
0.2061077784
 30
0.0
 10
6.3003000442
 20
-0.0
 30
0.0
 11
-6.3003000442
 21
-0.0
 31
0.0
 11
-6.269966254
 21
0.6175788261
 31
0.0
 11
-6.1792567339
 21
1.2292119002
 31
0.0
 11
-6.0290440969
 21
1.8290113385
 31
0.0
 11
-5.8207734843
 21
2.4112023239
 31
0.0
 11
-5.556448734
 21
2.9701792094
 31
0.0
 11
-5.2386132382
 21
3.5005593446
 31
0.0
 11
-4.8703256342
 21
3.9972348309
 31
0.0
 11
-4.4551305385
 21
4.4554217112
 31
0.0
 11
-3.9970246004
 21
4.8707060892
 31
0.0
 11
-3.5004181819
 21
5.2390867414
 31
0.0
 11
-2.9700930172
 21
5.5570138008
 31
0.0
 11
-2.4111562477
 21
5.8214231295
 31
0.0
 11
-1.8289912591
 21
6.0297660339
 31
0.0
 11
-1.229205811
 21
6.1800340121
 31
0.0
 11
-0.617577895
 21
6.2707782916
 31
0.0
 11
0.0000000003
 21
6.3011239182
 31
0.0
 11
0.6175778958
 21
6.2707782917
 31
0.0
 11
1.2292058119
 21
6.1800340122
 31
0.0
 11
1.8289912599
 21
6.0297660342
 31
0.0
 11
2.4111562485
 21
5.8214231298
 31
0.0
 11
2.9700930181
 21
5.5570138012
 31
0.0
 11
3.5004181828
 21
5.2390867419
 31
0.0
 11
3.9970246014
 21
4.8707060898
 31
0.0
 11
4.4551305396
 21
4.4554217119
 31
0.0
 11
4.8703256354
 21
3.9972348316
 31
0.0
 11
5.2386132394
 21
3.5005593454
 31
0.0
 11
5.5564487354
 21
2.9701792103
 31
0.0
 11
5.8207734858
 21
2.4112023249
 31
0.0
 11
6.0290440985
 21
1.8290113395
 31
0.0
 11
6.1792567358
 21
1.2292119014
 31
0.0
 11
6.2699662584
 21
0.6175788277
 31
0.0
 11
6.3003000442
 21
-0.0
 31
0.0
  0
SPLINE
  5
5EE
100
AcDbEntity
  8
RACCORDO
100
AcDbSpline
 62
253
  6
CONTINUOUS
 70
0
 71
3
 72
39
 73
35
 74
33
 42
0.0000001
 43
0.0000001
 44
0.0000000001
 12
-0.0000310972
 22
-19.7863220956
 32
0.0
 13
-0.000027438
 23
19.7863220956
 33
0.0
 40
0.0
 40
0.0
 40
0.0
 40
0.0
 40
0.0312500388
 40
0.0625000568
 40
0.0937500734
 40
0.1250000815
 40
0.1562500789
 40
0.1875000664
 40
0.2187500461
 40
0.2500000212
 40
0.2812499955
 40
0.3124999728
 40
0.3437499564
 40
0.3749999487
 40
0.4062499505
 40
0.4374999609
 40
0.4687499788
 40
0.5
 40
0.5312500212
 40
0.562500039
 40
0.5937500494
 40
0.6250000512
 40
0.6562500435
 40
0.6875000272
 40
0.7187500045
 40
0.7499999787
 40
0.7812499538
 40
0.8124999335
 40
0.843749921
 40
0.8749999185
 40
0.9062499265
 40
0.9374999431
 40
0.9687499611
 40
1.0
 40
1.0
 40
1.0
 40
1.0
 10
6.3003000442
 20
-0.0
 30
0.0
 10
6.3002997203
 20
-0.2061077779
 30
0.0
 10
6.2800452077
 20
-0.6186095281
 30
0.0
 10
6.1891898089
 20
-1.2311770413
 30
0.0
 10
6.0387360059
 20
-1.8319534564
 30
0.0
 10
5.83013089
 20
-2.415076708
 30
0.0
 10
5.5653815745
 20
-2.9749530891
 30
0.0
 10
5.247035488
 20
-3.5061856805
 30
0.0
 10
4.8781561563
 20
-4.0036598732
 30
0.0
 10
4.4622938625
 20
-4.4625836007
 30
0.0
 10
4.0034516568
 20
-4.8785359555
 30
0.0
 10
3.5060469743
 20
-5.2475092231
 30
0.0
 10
2.9748692287
 20
-5.5659478043
 30
0.0
 10
2.4150337717
 20
-5.8307825998
 30
0.0
 10
1.8319326576
 20
-6.0394607859
 30
0.0
 10
1.231182667
 20
-6.1899706079
 30
0.0
 10
0.6185711251
 20
-6.2808609389
 30
0.0
 10
-0.0000000004
 20
-6.3112554083
 30
0.0
 10
-0.6185711259
 20
-6.280860939
 30
0.0
 10
-1.2311826678
 20
-6.1899706081
 30
0.0
 10
-1.8319326585
 20
-6.0394607862
 30
0.0
 10
-2.4150337726
 20
-5.8307826001
 30
0.0
 10
-2.9748692296
 20
-5.5659478047
 30
0.0
 10
-3.5060469752
 20
-5.2475092236
 30
0.0
 10
-4.0034516578
 20
-4.8785359561
 30
0.0
 10
-4.4622938636
 20
-4.4625836013
 30
0.0
 10
-4.8781561574
 20
-4.003659874
 30
0.0
 10
-5.2470354893
 20
-3.5061856814
 30
0.0
 10
-5.5653815758
 20
-2.97495309
 30
0.0
 10
-5.8301308918
 20
-2.415076709
 30
0.0
 10
-6.0387360067
 20
-1.8319534575
 30
0.0
 10
-6.1891898142
 20
-1.2311770423
 30
0.0
 10
-6.2800451975
 20
-0.6186095294
 30
0.0
 10
-6.3002997584
 20
-0.2061077784
 30
0.0
 10
-6.3003000442
 20
-0.0
 30
0.0
 11
6.3003000442
 21
-0.0
 31
0.0
 11
6.269966254
 21
-0.6175788259
 31
0.0
 11
6.1792567339
 21
-1.2292119001
 31
0.0
 11
6.0290440969
 21
-1.8290113384
 31
0.0
 11
5.8207734843
 21
-2.4112023238
 31
0.0
 11
5.556448734
 21
-2.9701792093
 31
0.0
 11
5.2386132382
 21
-3.5005593445
 31
0.0
 11
4.8703256343
 21
-3.9972348308
 31
0.0
 11
4.4551305385
 21
-4.4554217111
 31
0.0
 11
3.9970246004
 21
-4.8707060891
 31
0.0
 11
3.5004181819
 21
-5.2390867413
 31
0.0
 11
2.9700930173
 21
-5.5570138008
 31
0.0
 11
2.4111562477
 21
-5.8214231295
 31
0.0
 11
1.8289912592
 21
-6.0297660339
 31
0.0
 11
1.229205811
 21
-6.1800340121
 31
0.0
 11
0.617577895
 21
-6.2707782916
 31
0.0
 11
-0.0000000003
 21
-6.3011239182
 31
0.0
 11
-0.6175778958
 21
-6.2707782917
 31
0.0
 11
-1.2292058119
 21
-6.1800340122
 31
0.0
 11
-1.82899126
 21
-6.0297660342
 31
0.0
 11
-2.4111562486
 21
-5.8214231298
 31
0.0
 11
-2.9700930182
 21
-5.5570138012
 31
0.0
 11
-3.5004181829
 21
-5.2390867418
 31
0.0
 11
-3.9970246015
 21
-4.8707060897
 31
0.0
 11
-4.4551305396
 21
-4.4554217118
 31
0.0
 11
-4.8703256355
 21
-3.9972348315
 31
0.0
 11
-5.2386132395
 21
-3.5005593453
 31
0.0
 11
-5.5564487354
 21
-2.9701792102
 31
0.0
 11
-5.8207734858
 21
-2.4112023248
 31
0.0
 11
-6.0290440986
 21
-1.8290113394
 31
0.0
 11
-6.1792567358
 21
-1.2292119012
 31
0.0
 11
-6.2699662584
 21
-0.6175788275
 31
0.0
 11
-6.3003000442
 21
-0.0
 31
0.0
  0
SPLINE
  5
5EF
100
AcDbEntity
  8
RACCORDO
100
AcDbSpline
 62
7
  6
CONTINUOUS
 70
0
 71
3
 72
15
 73
11
 74
9
 42
0.0000001
 43
0.0000001
 44
0.0000000001
 12
0.0
 22
1.2891275076
 32
0.0
 13
-1.2882919957
 23
-0.0464054383
 33
0.0
 40
0.0
 40
0.0
 40
0.0
 40
0.0
 40
0.1249837819
 40
0.2499675176
 40
0.3749547041
 40
0.4999482969
 40
0.624950036
 40
0.74996021
 40
0.8749775855
 40
1.0
 40
1.0
 40
1.0
 40
1.0
 10
36.7856406461
 20
-38.5388484843
 30
0.0
 10
36.7856406461
 20
-38.4851418072
 30
0.0
 10
36.7743926371
 20
-38.3773879905
 30
0.0
 10
36.7243317834
 20
-38.2230553772
 30
0.0
 10
36.643387264
 20
-38.082380726
 30
0.0
 10
36.5353929355
 20
-37.9612849183
 30
0.0
 10
36.4053048579
 20
-37.864369386
 30
0.0
 10
36.2587150472
 20
-37.7949473595
 30
0.0
 10
36.1015887691
 20
-37.7550595723
 30
0.0
 10
35.9935682849
 20
-37.7487867456
 30
0.0
 10
35.9398798263
 20
-37.7507206523
 30
0.0
 11
36.7856406461
 21
-38.5388484843
 31
0.0
 11
36.7688612359
 21
-38.3786045581
 31
0.0
 11
36.7191854385
 21
-38.2253336854
 31
0.0
 11
36.6388813606
 21
-38.0856471297
 31
0.0
 11
36.5317144561
 21
-37.965318435
 31
0.0
 11
36.4025591393
 21
-37.8689543925
 31
0.0
 11
36.2569632726
 21
-37.7998713067
 31
0.0
 11
36.1007741838
 21
-37.7601398336
 31
0.0
 11
35.9398798263
 21
-37.7507206523
 31
0.0
  0
LINE
  5
5F0
100
AcDbEntity
  8
RACCORDO
100
AcDbLine
 62
7
  6
CONTINUOUS
 10
-55.85
 20
-14.5
 11
-57.6842022588
 21
-14.5026122229
  0
SPLINE
  5
5F1
100
AcDbEntity
  8
RACCORDO
100
AcDbSpline
 62
7
  6
CONTINUOUS
 70
0
 71
3
 72
9
 73
5
 74
3
 42
0.0000001
 43
0.0000001
 44
0.0000000001
 12
24.5529919879
 22
-0.0178091706
 32
0.0
 13
24.5529963169
 23
-0.0102266972
 33
0.0
 40
0.0
 40
0.0
 40
0.0
 40
0.0
 40
0.2497742666
 40
1.0
 40
1.0
 40
1.0
 40
1.0
 10
-57.8495523504
 20
-0.3838111078
 30
0.0
 10
-55.8053171615
 20
-0.3852938653
 30
0.0
 10
-47.6209862719
 20
-0.390913237
 30
0.0
 10
-39.4366545137
 20
-0.3952667244
 30
0.0
 10
-33.2965579574
 20
-0.3978241682
 30
0.0
 11
-57.8495523504
 21
-0.3838111078
 31
0.0
 11
-51.7168466161
 21
-0.3880220393
 31
0.0
 11
-33.2965579574
 21
-0.3978241682
 31
0.0
  0
LINE
  5
5F2
100
AcDbEntity
  8
RACCORDO
100
AcDbLine
 62
7
  6
CONTINUOUS
 10
-33.2921237487
 20
-22.5066100405
 11
-35.0000220016
 21
-22.5073398858
  0
SPLINE
  5
5F3
100
AcDbEntity
  8
RACCORDO
100
AcDbSpline
 62
7
  6
CONTINUOUS
 70
0
 71
3
 72
9
 73
5
 74
3
 42
0.0000001
 43
0.0000001
 44
0.0000000001
 12
-22.4505847873
 22
-0.0098343921
 32
0.0
 13
-22.4505811126
 23
-0.0161775462
 33
0.0
 40
0.0
 40
0.0
 40
0.0
 40
0.0
 40
0.2501925399
 40
1.0
 40
1.0
 40
1.0
 40
1.0
 10
-35.0000220016
 20
-22.5073398858
 30
0.0
 10
-36.8723449453
 20
-22.5081600497
 30
0.0
 10
-44.3558730898
 20
-22.5117018374
 30
0.0
 10
-51.8394007354
 20
-22.5162987143
 30
0.0
 10
-57.4506051357
 20
-22.5203420625
 30
0.0
 11
-35.0000220016
 21
-22.5073398858
 31
0.0
 11
-40.6169907424
 21
-22.5099983521
 31
0.0
 11
-57.4506051357
 21
-22.5203420625
 31
0.0
  0
LINE
  5
5F4
100
AcDbEntity
  8
RACCORDO
100
AcDbLine
 62
253
  6
CONTINUOUS
 10
-37.9048301275
 20
-36.7650327834
 11
-37.5843422737
 21
-37.0858963498
  0
SPLINE
  5
5F5
100
AcDbEntity
  8
RACCORDO
100
AcDbSpline
 62
253
  6
CONTINUOUS
 70
0
 71
3
 72
8
 73
4
 74
2
 42
0.0000001
 43
0.0000001
 44
0.0000000001
 12
1.1534658505
 22
-0.043519137
 32
0.0
 13
1.1535131128
 23
-0.0422478654
 33
0.0
 40
0.0
 40
0.0
 40
0.0
 40
0.0
 40
1.0
 40
1.0
 40
1.0
 40
1.0
 10
-39.5933535642
 20
-36.4888418022
 30
0.0
 10
-39.2088649473
 20
-36.5033481813
 30
0.0
 10
-38.8243682784
 20
-36.5176426902
 30
0.0
 10
-38.4398639074
 20
-36.531725312
 30
0.0
 11
-39.5933535642
 21
-36.4888418022
 31
0.0
 11
-38.4398639074
 21
-36.531725312
 31
0.0
  0
LINE
  5
5F6
100
AcDbEntity
  8
RACCORDO
100
AcDbLine
 62
253
  6
CONTINUOUS
 10
-40.4350935515
 20
-36.971216752
 11
-40.1898773596
 21
-36.7243539396
  0
SPLINE
  5
5F7
100
AcDbEntity
  8
RACCORDO
100
AcDbSpline
 62
253
  6
CONTINUOUS
 70
0
 71
3
 72
15
 73
11
 74
9
 42
0.0000001
 43
0.0000001
 44
0.0000000001
 12
0.0490550875
 22
-0.8705391664
 32
0.0
 13
0.8707237245
 23
-0.0456622098
 33
0.0
 40
0.0
 40
0.0
 40
0.0
 40
0.0
 40
0.1249005615
 40
0.2499083574
 40
0.3749908518
 40
0.5001053569
 40
0.6252042536
 40
0.750242005
 40
0.8751818269
 40
1.0
 40
1.0
 40
1.0
 40
1.0
 10
-56.8430267606
 20
-35.7599101634
 30
0.0
 10
-56.8409844246
 20
-35.7961537736
 30
0.0
 10
-56.8302942669
 20
-35.868473791
 30
0.0
 10
-56.7948846957
 20
-35.9721614789
 30
0.0
 10
-56.741149452
 20
-36.0677647568
 30
0.0
 10
-56.670839969
 20
-36.1519589059
 30
0.0
 10
-56.5863366039
 20
-36.221875405
 30
0.0
 10
-56.4905283245
 20
-36.2751651204
 30
0.0
 10
-56.3867455134
 20
-36.3101123625
 30
0.0
 10
-56.3144278966
 20
-36.3205044154
 30
0.0
 10
-56.2782005151
 20
-36.32240424
 30
0.0
 11
-56.8430267606
 21
-35.7599101634
 31
0.0
 11
-56.8270745865
 21
-35.8676388129
 31
0.0
 11
-56.7918432235
 21
-35.9707846245
 31
0.0
 11
-56.7383945469
 21
-36.0658516997
 31
0.0
 11
-56.6684692705
 21
-36.1495837384
 31
0.0
 11
-56.5844305534
 21
-36.2191187911
 31
0.0
 11
-56.4891606081
 21
-36.2721248222
 31
0.0
 11
-56.3859214632
 21
-36.306896504
 31
0.0
 11
-56.2782005151
 21
-36.32240424
 31
0.0
  0
LINE
  5
5F8
100
AcDbEntity
  8
RACCORDO
100
AcDbLine
 62
253
  6
CONTINUOUS
 10
40.0818446345
 20
-36.7241327801
 11
40.3311794201
 21
-36.9751400056
  0
SPLINE
  5
5F9
100
AcDbEntity
  8
RACCORDO
100
AcDbSpline
 62
253
  6
CONTINUOUS
 70
0
 71
3
 72
8
 73
4
 74
2
 42
0.0000001
 43
0.0000001
 44
0.0000000001
 12
1.1536879353
 22
0.0422604584
 32
0.0
 13
1.1536406516
 23
0.0435321176
 33
0.0
 40
0.0
 40
0.0
 40
0.0
 40
0.0
 40
1.0
 40
1.0
 40
1.0
 40
1.0
 10
38.3316550031
 20
-36.5315202391
 30
0.0
 10
38.7162176482
 20
-36.5174334197
 30
0.0
 10
39.1007725878
 20
-36.5031346485
 30
0.0
 10
39.4853194717
 20
-36.4886239426
 30
0.0
 11
38.3316550031
 21
-36.5315202391
 31
0.0
 11
39.4853194717
 21
-36.4886239426
 31
0.0
  0
LINE
  5
5FA
100
AcDbEntity
  8
RACCORDO
100
AcDbLine
 62
253
  6
CONTINUOUS
 10
37.4720304273
 20
-37.0898057027
 11
37.7966224126
 21
-36.7648305795
  0
SPLINE
  5
5FB
100
AcDbEntity
  8
RACCORDO
100
AcDbSpline
 62
253
  6
CONTINUOUS
 70
0
 71
3
 72
15
 73
11
 74
9
 42
0.0000001
 43
0.0000001
 44
0.0000000001
 12
0.8707237216
 22
0.0456622668
 32
0.0
 13
0.0490550316
 23
0.8705391696
 33
0.0
 40
0.0
 40
0.0
 40
0.0
 40
0.0
 40
0.1248181731
 40
0.2497579949
 40
0.3747957462
 40
0.499894643
 40
0.625009148
 40
0.7500916424
 40
0.8750994385
 40
1.0
 40
1.0
 40
1.0
 40
1.0
 10
56.2782005151
 20
-36.32240424
 30
0.0
 10
56.3144278965
 20
-36.320504413
 30
0.0
 10
56.3867455123
 20
-36.3101123567
 30
0.0
 10
56.4905283245
 20
-36.2751651181
 30
0.0
 10
56.5863366041
 20
-36.2218754029
 30
0.0
 10
56.6708399699
 20
-36.151958905
 30
0.0
 10
56.7411494541
 20
-36.0677647567
 30
0.0
 10
56.794884698
 20
-35.972161479
 30
0.0
 10
56.8302942728
 20
-35.8684737921
 30
0.0
 10
56.8409844269
 20
-35.7961537738
 30
0.0
 10
56.8430267606
 20
-35.7599101634
 30
0.0
 11
56.2782005151
 21
-36.32240424
 31
0.0
 11
56.3859214626
 21
-36.3068964997
 31
0.0
 11
56.4891606079
 21
-36.2721248194
 31
0.0
 11
56.5844305536
 21
-36.2191187892
 31
0.0
 11
56.6684692715
 21
-36.1495837374
 31
0.0
 11
56.7383945488
 21
-36.0658516995
 31
0.0
 11
56.7918432263
 21
-35.9707846248
 31
0.0
 11
56.8270745909
 21
-35.8676388135
 31
0.0
 11
56.8430267606
 21
-35.7599101634
 31
0.0
  0
LINE
  5
5FC
100
AcDbEntity
  8
RACCORDO
100
AcDbLine
 62
7
  6
CONTINUOUS
 10
57.6842022592
 20
-14.5026122229
 11
55.85
 21
-14.5
  0
LINE
  5
5FD
100
AcDbEntity
  8
RACCORDO
100
AcDbLine
 62
7
  6
CONTINUOUS
 10
55.85
 20
-20.4963228931
 11
57.5192064989
 21
-20.4939520442
  0
SPLINE
  5
5FE
100
AcDbEntity
  8
RACCORDO
100
AcDbSpline
 62
7
  6
CONTINUOUS
 70
0
 71
3
 72
9
 73
5
 74
3
 42
0.0000001
 43
0.0000001
 44
0.0000000001
 12
24.5529963169
 22
-0.0102266972
 32
0.0
 13
24.5529919878
 23
-0.0178091706
 33
0.0
 40
0.0
 40
0.0
 40
0.0
 40
0.0
 40
0.2502063091
 40
1.0
 40
1.0
 40
1.0
 40
1.0
 10
33.2965579574
 20
0.3978241682
 30
0.0
 10
35.3443294856
 20
0.3969712402
 30
0.0
 10
43.5286614569
 20
0.3932472136
 30
0.0
 10
51.712992855
 20
0.3882621757
 30
0.0
 10
57.8495523504
 20
0.3838111078
 30
0.0
 11
33.2965579574
 21
0.3978241682
 31
0.0
 11
39.4398724389
 21
0.3950287469
 31
0.0
 11
57.8495523504
 21
0.3838111078
 31
0.0
  0
LINE
  5
5FF
100
AcDbEntity
  8
RACCORDO
100
AcDbLine
 62
7
  6
CONTINUOUS
 10
33.2921237487
 20
22.5066100405
 11
35.0000220016
 21
22.5073398858
  0
SPLINE
  5
600
100
AcDbEntity
  8
RACCORDO
100
AcDbSpline
 62
7
  6
CONTINUOUS
 70
0
 71
3
 72
9
 73
5
 74
3
 42
0.0000001
 43
0.0000001
 44
0.0000000001
 12
22.4505847873
 22
0.0098343921
 32
0.0
 13
22.4505811126
 23
0.0161775462
 33
0.0
 40
0.0
 40
0.0
 40
0.0
 40
0.0
 40
0.2501925399
 40
1.0
 40
1.0
 40
1.0
 40
1.0
 10
35.0000220016
 20
22.5073398858
 30
0.0
 10
36.8723449453
 20
22.5081600497
 30
0.0
 10
44.3558730898
 20
22.5117018374
 30
0.0
 10
51.8394007354
 20
22.5162987143
 30
0.0
 10
57.4506051357
 20
22.5203420625
 30
0.0
 11
35.0000220016
 21
22.5073398858
 31
0.0
 11
40.6169907424
 21
22.5099983521
 31
0.0
 11
57.4506051357
 21
22.5203420625
 31
0.0
  0
LINE
  5
601
100
AcDbEntity
  8
RACCORDO
100
AcDbLine
 62
7
  6
CONTINUOUS
 10
57.519206499
 20
20.4939520442
 11
55.85
 21
20.4963228931
  0
LINE
  5
602
100
AcDbEntity
  8
RACCORDO
100
AcDbLine
 62
7
  6
CONTINUOUS
 10
55.85
 20
14.5
 11
57.6842022588
 21
14.5026122229
  0
SPLINE
  5
603
100
AcDbEntity
  8
RACCORDO
100
AcDbSpline
 62
253
  6
CONTINUOUS
 70
0
 71
3
 72
15
 73
11
 74
9
 42
0.0000001
 43
0.0000001
 44
0.0000000001
 12
-0.0490550875
 22
0.8705391664
 32
0.0
 13
-0.8707237245
 23
0.0456622098
 33
0.0
 40
0.0
 40
0.0
 40
0.0
 40
0.0
 40
0.1249005615
 40
0.2499083574
 40
0.3749908518
 40
0.5001053569
 40
0.6252042536
 40
0.750242005
 40
0.8751818269
 40
1.0
 40
1.0
 40
1.0
 40
1.0
 10
56.8430267606
 20
35.7599101634
 30
0.0
 10
56.8409844246
 20
35.7961537736
 30
0.0
 10
56.8302942669
 20
35.868473791
 30
0.0
 10
56.7948846957
 20
35.9721614789
 30
0.0
 10
56.741149452
 20
36.0677647568
 30
0.0
 10
56.670839969
 20
36.1519589059
 30
0.0
 10
56.5863366039
 20
36.221875405
 30
0.0
 10
56.4905283245
 20
36.2751651204
 30
0.0
 10
56.3867455134
 20
36.3101123625
 30
0.0
 10
56.3144278966
 20
36.3205044154
 30
0.0
 10
56.2782005151
 20
36.32240424
 30
0.0
 11
56.8430267606
 21
35.7599101634
 31
0.0
 11
56.8270745865
 21
35.8676388129
 31
0.0
 11
56.7918432235
 21
35.9707846245
 31
0.0
 11
56.7383945469
 21
36.0658516997
 31
0.0
 11
56.6684692705
 21
36.1495837384
 31
0.0
 11
56.5844305534
 21
36.2191187911
 31
0.0
 11
56.4891606081
 21
36.2721248222
 31
0.0
 11
56.3859214632
 21
36.306896504
 31
0.0
 11
56.2782005151
 21
36.32240424
 31
0.0
  0
SPLINE
  5
604
100
AcDbEntity
  8
DRAFT
100
AcDbSpline
 62
7
  6
CONTINUOUS
 70
0
 71
3
 72
9
 73
5
 74
3
 42
0.0000001
 43
0.0000001
 44
0.0000000001
 12
32.1065996848
 22
0.013049735
 32
0.0
 13
32.1066023364
 23
0.0001605051
 33
0.0
 40
0.0
 40
0.0
 40
0.0
 40
0.0
 40
0.2498819816
 40
1.0
 40
1.0
 40
1.0
 40
1.0
 10
-32.5066020536
 20
23.2921317356
 30
0.0
 10
-29.8323151368
 20
23.2932187001
 30
0.0
 10
-19.13011503
 20
23.2970307507
 30
0.0
 10
-8.4279141581
 20
23.2986941735
 30
0.0
 10
-0.4000005169
 20
23.2987343061
 30
0.0
 11
-32.5066020536
 21
23.2921317356
 31
0.0
 11
-24.4837411496
 21
23.2949896632
 31
0.0
 11
-0.4000005169
 21
23.2987343061
 31
0.0
  0
LINE
  5
605
100
AcDbEntity
  8
RACCORDO
100
AcDbLine
 62
7
  6
CONTINUOUS
 10
-57.6842022592
 20
14.5026122229
 11
-55.85
 21
14.5
  0
LINE
  5
606
100
AcDbEntity
  8
RACCORDO
100
AcDbLine
 62
7
  6
CONTINUOUS
 10
-55.85
 20
20.4963228931
 11
-57.5192064989
 21
20.4939520442
  0
SPLINE
  5
607
100
AcDbEntity
  8
RACCORDO
100
AcDbSpline
 62
253
  6
CONTINUOUS
 70
0
 71
3
 72
15
 73
11
 74
9
 42
0.0000001
 43
0.0000001
 44
0.0000000001
 12
-0.8707237216
 22
-0.0456622668
 32
0.0
 13
-0.0490550316
 23
-0.8705391696
 33
0.0
 40
0.0
 40
0.0
 40
0.0
 40
0.0
 40
0.1248181731
 40
0.2497579949
 40
0.3747957462
 40
0.499894643
 40
0.625009148
 40
0.7500916424
 40
0.8750994385
 40
1.0
 40
1.0
 40
1.0
 40
1.0
 10
-56.2782005151
 20
36.32240424
 30
0.0
 10
-56.3144278965
 20
36.320504413
 30
0.0
 10
-56.3867455123
 20
36.3101123567
 30
0.0
 10
-56.4905283245
 20
36.2751651181
 30
0.0
 10
-56.5863366041
 20
36.2218754029
 30
0.0
 10
-56.6708399699
 20
36.151958905
 30
0.0
 10
-56.7411494541
 20
36.0677647567
 30
0.0
 10
-56.794884698
 20
35.972161479
 30
0.0
 10
-56.8302942728
 20
35.8684737921
 30
0.0
 10
-56.8409844269
 20
35.7961537738
 30
0.0
 10
-56.8430267606
 20
35.7599101634
 30
0.0
 11
-56.2782005151
 21
36.32240424
 31
0.0
 11
-56.3859214626
 21
36.3068964997
 31
0.0
 11
-56.4891606079
 21
36.2721248194
 31
0.0
 11
-56.5844305536
 21
36.2191187892
 31
0.0
 11
-56.6684692715
 21
36.1495837374
 31
0.0
 11
-56.7383945488
 21
36.0658516995
 31
0.0
 11
-56.7918432263
 21
35.9707846248
 31
0.0
 11
-56.8270745909
 21
35.8676388135
 31
0.0
 11
-56.8430267606
 21
35.7599101634
 31
0.0
  0
SPLINE
  5
608
100
AcDbEntity
  8
RACCORDO
100
AcDbSpline
 62
7
  6
CONTINUOUS
 70
0
 71
3
 72
9
 73
5
 74
3
 42
0.0000001
 43
0.0000001
 44
0.0000000001
 12
0.008718566
 22
13.3049632328
 32
0.0
 13
0.0055997158
 23
13.304964911
 33
0.0
 40
0.0
 40
0.0
 40
0.0
 40
0.0
 40
0.2498396078
 40
1.0
 40
1.0
 40
1.0
 40
1.0
 10
-32.5140532904
 20
-37.3049966323
 30
0.0
 10
-32.5133272094
 20
-36.1969610339
 30
0.0
 10
-32.5105512845
 20
-31.7619732052
 30
0.0
 10
-32.508295816
 20
-27.3269850508
 30
0.0
 10
-32.5068955877
 20
-24.0000324854
 30
0.0
 11
-32.5140532904
 21
-37.3049966323
 31
0.0
 11
-32.5119726242
 21
-33.9808897745
 31
0.0
 11
-32.5068955877
 21
-24.0000324854
 31
0.0
  0
LINE
  5
609
100
AcDbEntity
  8
RACCORDO
100
AcDbLine
 62
7
  6
CONTINUOUS
 10
-32.5068955877
 20
-24.0000324854
 11
-32.5066020536
 21
-23.2921317356
  0
SPLINE
  5
60A
100
AcDbEntity
  8
RACCORDO
100
AcDbSpline
 62
7
  6
CONTINUOUS
 70
0
 71
3
 72
9
 73
5
 74
3
 42
0.0000001
 43
0.0000001
 44
0.0000000001
 12
-0.0096226125
 22
14.498210988
 32
0.0
 13
-0.005920839
 23
14.4982129724
 33
0.0
 40
0.0
 40
0.0
 40
0.0
 40
0.0
 40
0.2498254585
 40
1.0
 40
1.0
 40
1.0
 40
1.0
 10
-0.392230643
 20
-37.7969463833
 30
0.0
 10
-0.3930319675
 20
-36.5896056476
 30
0.0
 10
-0.3960848591
 20
-31.7568685502
 30
0.0
 10
-0.3985199627
 20
-26.9241310627
 30
0.0
 10
-0.4000005169
 20
-23.2987343061
 30
0.0
 11
-0.392230643
 21
-37.7969463833
 31
0.0
 11
-0.3945187897
 21
-34.1749241014
 31
0.0
 11
-0.4000005169
 21
-23.2987343061
 31
0.0
  0
SPLINE
  5
60B
100
AcDbEntity
  8
RACCORDO
100
AcDbSpline
 62
7
  6
CONTINUOUS
 70
0
 71
3
 72
9
 73
5
 74
3
 42
0.0000001
 43
0.0000001
 44
0.0000000001
 12
-0.008718566
 22
-13.3049632328
 32
0.0
 13
-0.0055997158
 23
-13.304964911
 33
0.0
 40
0.0
 40
0.0
 40
0.0
 40
0.0
 40
0.2498396078
 40
1.0
 40
1.0
 40
1.0
 40
1.0
 10
32.5140532904
 20
37.3049966323
 30
0.0
 10
32.5133272094
 20
36.1969610339
 30
0.0
 10
32.5105512845
 20
31.7619732052
 30
0.0
 10
32.508295816
 20
27.3269850508
 30
0.0
 10
32.5068955877
 20
24.0000324854
 30
0.0
 11
32.5140532904
 21
37.3049966323
 31
0.0
 11
32.5119726242
 21
33.9808897745
 31
0.0
 11
32.5068955877
 21
24.0000324854
 31
0.0
  0
LINE
  5
60C
100
AcDbEntity
  8
RACCORDO
100
AcDbLine
 62
7
  6
CONTINUOUS
 10
32.5068955877
 20
24.0000324854
 11
32.5066020536
 21
23.2921317356
  0
SPLINE
  5
60D
100
AcDbEntity
  8
RACCORDO
100
AcDbSpline
 62
7
  6
CONTINUOUS
 70
0
 71
3
 72
9
 73
5
 74
3
 42
0.0000001
 43
0.0000001
 44
0.0000000001
 12
0.0096226125
 22
-14.498210988
 32
0.0
 13
0.005920839
 23
-14.4982129724
 33
0.0
 40
0.0
 40
0.0
 40
0.0
 40
0.0
 40
0.2498254585
 40
1.0
 40
1.0
 40
1.0
 40
1.0
 10
0.392230643
 20
37.7969463833
 30
0.0
 10
0.3930319675
 20
36.5896056476
 30
0.0
 10
0.3960848591
 20
31.7568685502
 30
0.0
 10
0.3985199627
 20
26.9241310627
 30
0.0
 10
0.4000005169
 20
23.2987343061
 30
0.0
 11
0.392230643
 21
37.7969463833
 31
0.0
 11
0.3945187897
 21
34.1749241014
 31
0.0
 11
0.4000005169
 21
23.2987343061
 31
0.0
  0
LINE
  5
60E
100
AcDbEntity
  8
RACCORDO
100
AcDbLine
 62
7
  6
CONTINUOUS
 10
32.516526743
 20
-37.5817954979
 11
32.5641852976
 21
-37.86659898
  0
LINE
  5
60F
100
AcDbEntity
  8
RACCORDO
100
AcDbLine
 62
7
  6
CONTINUOUS
 10
-32.5641852976
 20
-37.86659898
 11
-32.5165267424
 21
-37.5817954908
  0
LINE
  5
610
100
AcDbEntity
  8
RACCORDO
100
AcDbLine
 62
253
  6
CONTINUOUS
 10
40.4881017593
 20
-37.5345471707
 11
40.4755357238
 21
-37.3113562738
  0
LINE
  5
611
100
AcDbEntity
  8
RACCORDO
100
AcDbLine
 62
253
  6
CONTINUOUS
 10
56.2709755058
 20
-36.5997251985
 11
56.4702617221
 21
-36.7995209996
  0
LINE
  5
612
100
AcDbEntity
  8
RACCORDO
100
AcDbLine
 62
253
  6
CONTINUOUS
 10
41.783566227
 20
-37.4811240201
 11
41.9977555938
 21
-37.5140921557
  0
LINE
  5
613
100
AcDbEntity
  8
RACCORDO
100
AcDbLine
 62
253
  6
CONTINUOUS
 10
35.9398798263
 20
-37.7507206523
 11
36.1540665761
 21
-37.701028692
  0
LINE
  5
614
100
AcDbEntity
  8
RACCORDO
100
AcDbLine
 62
7
  6
CONTINUOUS
 10
33.2831731746
 20
-37.5583145765
 11
33.2358147024
 21
-37.8444548852
  0
LINE
  5
615
100
AcDbEntity
  8
RACCORDO
100
AcDbLine
 62
253
  6
CONTINUOUS
 10
37.3333185431
 20
-37.4251779609
 11
37.3192233585
 21
-37.6581251867
  0
LINE
  5
616
100
AcDbEntity
  8
RACCORDO
100
AcDbLine
 62
253
  6
CONTINUOUS
 10
-37.4315588841
 20
-37.6539167379
 11
-37.44563853
 21
-37.4212679411
  0
LINE
  5
617
100
AcDbEntity
  8
RACCORDO
100
AcDbLine
 62
7
  6
CONTINUOUS
 10
-33.2358147024
 20
-37.8444548852
 11
-33.2831731736
 21
-37.5583145885
  0
LINE
  5
618
100
AcDbEntity
  8
RACCORDO
100
AcDbLine
 62
253
  6
CONTINUOUS
 10
-36.1540665761
 20
-37.701028692
 11
-35.9398798263
 21
-37.7507206523
  0
LINE
  5
619
100
AcDbEntity
  8
RACCORDO
100
AcDbLine
 62
253
  6
CONTINUOUS
 10
-41.9977555938
 20
-37.5140921557
 11
-41.783566227
 21
-37.4811240201
  0
LINE
  5
61A
100
AcDbEntity
  8
RACCORDO
100
AcDbLine
 62
253
  6
CONTINUOUS
 10
-56.2709755632
 20
-36.5997251954
 11
-56.4702617221
 21
-36.7995209996
  0
LINE
  5
61B
100
AcDbEntity
  8
RACCORDO
100
AcDbLine
 62
253
  6
CONTINUOUS
 10
-40.5794573858
 20
-37.3074346662
 11
-40.5920061276
 21
-37.5303244622
  0
SPLINE
  5
61C
100
AcDbEntity
  8
RACCORDO
100
AcDbSpline
 62
7
  6
CONTINUOUS
 70
0
 71
3
 72
16
 73
12
 74
10
 42
0.0000001
 43
0.0000001
 44
0.0000000001
 12
-1.2275900225
 22
-0.0516845087
 32
0.0
 13
0.0
 23
-1.2286775622
 33
0.0
 40
0.0
 40
0.0
 40
0.0
 40
0.0
 40
0.1250028756
 40
0.1875680493
 40
0.2501326674
 40
0.3751253759
 40
0.5001110334
 40
0.6250897141
 40
0.7500625881
 40
0.87503181
 40
1.0
 40
1.0
 40
1.0
 40
1.0
 10
41.9977555938
 20
-37.5140921557
 30
0.0
 10
41.9466048328
 20
-37.5162457264
 30
0.0
 10
41.86990677
 20
-37.526425175
 30
0.0
 10
41.7710283369
 20
-37.553611452
 30
0.0
 10
41.6750223633
 20
-37.5897086363
 30
0.0
 10
41.5618673994
 20
-37.651248011
 30
0.0
 10
41.4423789585
 20
-37.7491554942
 30
0.0
 10
41.3437343363
 20
-37.8680985956
 30
0.0
 10
41.2700736814
 20
-38.0039761482
 30
0.0
 10
41.2245878448
 20
-38.151646975
 30
0.0
 10
41.2143593539
 20
-38.2543046066
 30
0.0
 10
41.2143593539
 20
-38.305486477
 30
0.0
 11
41.9977555938
 21
-37.5140921557
 31
0.0
 11
41.8455088038
 21
-37.5343470038
 31
0.0
 11
41.771386872
 21
-37.5547261344
 31
0.0
 11
41.699439253
 21
-37.5817965039
 31
0.0
 11
41.5645756239
 21
-37.6552628793
 31
0.0
 11
41.4458499315
 21
-37.7526643983
 31
0.0
 11
41.3478963487
 21
-37.8709238957
 31
0.0
 11
41.2747685964
 21
-38.0059437236
 31
0.0
 11
41.2296115269
 21
-38.1527002672
 31
0.0
 11
41.2143593539
 21
-38.305486477
 31
0.0
  0
LINE
  5
61D
100
AcDbEntity
  8
RACCORDO
100
AcDbLine
 62
7
  6
CONTINUOUS
 10
-57.7251623122
 20
-22.522813318
 11
-57.9722315198
 21
-22.5641852976
  0
SPLINE
  5
61E
100
AcDbEntity
  8
RACCORDO
100
AcDbSpline
 62
7
  6
CONTINUOUS
 70
0
 71
3
 72
18
 73
14
 74
12
 42
0.0000001
 43
0.0000001
 44
0.0000000001
 12
0.0001814018
 22
-0.2768279507
 32
0.0
 13
0.0456885732
 23
-0.2730316858
 33
0.0
 40
0.0
 40
0.0
 40
0.0
 40
0.0
 40
0.1925153421
 40
0.376132006
 40
0.5448750788
 40
0.6932518224
 40
0.8164433523
 40
0.8673134044
 40
0.9104656894
 40
0.9455541225
 40
0.9722992145
 40
0.9904917324
 40
1.0
 40
1.0
 40
1.0
 40
1.0
 10
32.5140532904
 20
-37.3049966343
 30
0.0
 10
32.5140649313
 20
-37.3227611768
 30
0.0
 10
32.5141145802
 20
-37.3574691187
 30
0.0
 10
32.5142698947
 20
-37.4077477914
 30
0.0
 10
32.5144990886
 20
-37.4539532371
 30
0.0
 10
32.5147946195
 20
-37.4945823177
 30
0.0
 10
32.5150999935
 20
-37.5243342819
 30
0.0
 10
32.5153832242
 20
-37.5443757418
 30
0.0
 10
32.5155880839
 20
-37.5562882597
 30
0.0
 10
32.5158071984
 20
-37.5659723622
 30
0.0
 10
32.5160080613
 20
-37.57335696
 30
0.0
 10
32.5162489611
 20
-37.5783701923
 30
0.0
 10
32.5163819366
 20
-37.5809301452
 30
0.0
 10
32.516526743
 20
-37.5817954979
 30
0.0
 11
32.5140532904
 21
-37.3049966343
 31
0.0
 11
32.5141308354
 21
-37.3582902169
 31
0.0
 11
32.5142906559
 21
-37.4091202014
 31
0.0
 11
32.5145275783
 21
-37.4558324096
 31
0.0
 11
32.5148338895
 21
-37.4969061061
 31
0.0
 11
32.5151996006
 21
-37.5310070112
 31
0.0
 11
32.5154010703
 21
-37.5450878253
 31
0.0
 11
32.515612788
 21
-37.5570317102
 31
0.0
 11
32.5158330319
 21
-37.5667426741
 31
0.0
 11
32.5160600039
 21
-37.5741429848
 31
0.0
 11
32.5162918758
 21
-37.5791738427
 31
0.0
 11
32.516526743
 21
-37.5817954979
 31
0.0
  0
SPLINE
  5
61F
100
AcDbEntity
  8
RACCORDO
100
AcDbSpline
 62
7
  6
CONTINUOUS
 70
0
 71
3
 72
9
 73
5
 74
3
 42
0.0000001
 43
0.0000001
 44
0.0000000001
 12
-0.008718566
 22
13.3049632348
 32
0.0
 13
-0.0055997158
 23
13.304964913
 33
0.0
 40
0.0
 40
0.0
 40
0.0
 40
0.0
 40
0.2498396078
 40
1.0
 40
1.0
 40
1.0
 40
1.0
 10
32.5140532904
 20
-37.3049966343
 30
0.0
 10
32.5133272094
 20
-36.1969610357
 30
0.0
 10
32.5105512845
 20
-31.7619732063
 30
0.0
 10
32.508295816
 20
-27.3269850513
 30
0.0
 10
32.5068955877
 20
-24.0000324854
 30
0.0
 11
32.5140532904
 21
-37.3049966343
 31
0.0
 11
32.5119726242
 21
-33.980889776
 31
0.0
 11
32.5068955877
 21
-24.0000324854
 31
0.0
  0
LINE
  5
620
100
AcDbEntity
  8
RACCORDO
100
AcDbLine
 62
7
  6
CONTINUOUS
 10
32.5068955877
 20
-24.0000324854
 11
32.5066020536
 21
-23.2921317356
  0
SPLINE
  5
621
100
AcDbEntity
  8
RACCORDO
100
AcDbSpline
 62
7
  6
CONTINUOUS
 70
0
 71
3
 72
18
 73
14
 74
12
 42
0.0000001
 43
0.0000001
 44
0.0000000001
 12
-0.0456885744
 22
-0.2730316804
 32
0.0
 13
-0.0001814018
 23
-0.2768279455
 33
0.0
 40
0.0
 40
0.0
 40
0.0
 40
0.0
 40
0.0095082834
 40
0.0277008193
 40
0.0544459249
 40
0.0895343693
 40
0.1326866624
 40
0.1835567198
 40
0.3067482516
 40
0.455124987
 40
0.6238680431
 40
0.8074846842
 40
1.0
 40
1.0
 40
1.0
 40
1.0
 10
32.5165267424
 20
37.5817954908
 30
0.0
 10
32.5163819358
 20
37.5809301367
 30
0.0
 10
32.5162489608
 20
37.5783701806
 30
0.0
 10
32.5160080607
 20
37.5733569441
 30
0.0
 10
32.515807198
 20
37.5659723425
 30
0.0
 10
32.5155880835
 20
37.5562882371
 30
0.0
 10
32.5153832239
 20
37.5443757171
 30
0.0
 10
32.5150999933
 20
37.5243342562
 30
0.0
 10
32.5147946193
 20
37.4945822927
 30
0.0
 10
32.5144990885
 20
37.4539532149
 30
0.0
 10
32.5142698947
 20
37.4077477745
 30
0.0
 10
32.5141145802
 20
37.3574691088
 30
0.0
 10
32.5140649313
 20
37.3227611721
 30
0.0
 10
32.5140532904
 20
37.3049966323
 30
0.0
 11
32.5165267424
 21
37.5817954908
 31
0.0
 11
32.5162918753
 21
37.5791738312
 31
0.0
 11
32.5160600034
 21
37.5741429685
 31
0.0
 11
32.5158330315
 21
37.5667426541
 31
0.0
 11
32.5156127876
 21
37.5570316873
 31
0.0
 11
32.5154010699
 21
37.5450878004
 31
0.0
 11
32.5151996003
 21
37.5310069851
 31
0.0
 11
32.5148338893
 21
37.4969060801
 31
0.0
 11
32.5145275781
 21
37.4558323866
 31
0.0
 11
32.5142906558
 21
37.4091201839
 31
0.0
 11
32.5141308353
 21
37.3582902067
 31
0.0
 11
32.5140532904
 21
37.3049966323
 31
0.0
  0
SPLINE
  5
622
100
AcDbEntity
  8
RACCORDO
100
AcDbSpline
 62
7
  6
CONTINUOUS
 70
0
 71
3
 72
18
 73
14
 74
12
 42
0.0000001
 43
0.0000001
 44
0.0000000001
 12
0.045227046
 22
0.2732636074
 32
0.0
 13
0.0001812372
 23
0.2769809596
 33
0.0
 40
0.0
 40
0.0
 40
0.0
 40
0.0
 40
0.0095617081
 40
0.0278093185
 40
0.0546086331
 40
0.0897478516
 40
0.1329448765
 40
0.1838511682
 40
0.3070816425
 40
0.4554445374
 40
0.6241200658
 40
0.8076247199
 40
1.0
 40
1.0
 40
1.0
 40
1.0
 10
33.2831731746
 20
-37.5583145765
 30
0.0
 10
33.2833173238
 20
-37.5574436209
 30
0.0
 10
33.2834511207
 20
-37.5548724553
 30
0.0
 10
33.283691369
 20
-37.5498412188
 30
0.0
 10
33.2838925053
 20
-37.542437842
 30
0.0
 10
33.284111378
 20
-37.5327345139
 30
0.0
 10
33.2843161621
 20
-37.5208032549
 30
0.0
 10
33.2845991185
 20
-37.5007396321
 30
0.0
 10
33.2849042121
 20
-37.47096556
 30
0.0
 10
33.285199416
 20
-37.430317937
 30
0.0
 10
33.2854283306
 20
-37.3841048078
 30
0.0
 10
33.2855834389
 20
-37.3338278533
 30
0.0
 10
33.2856330204
 20
-37.2991240006
 30
0.0
 10
33.2856446423
 20
-37.2813625707
 30
0.0
 11
33.2831731746
 21
-37.5583145765
 31
0.0
 11
33.2834079772
 21
-37.555676594
 31
0.0
 11
33.2836397677
 21
-37.5506276701
 31
0.0
 11
33.2838666397
 21
-37.5432082365
 31
0.0
 11
33.2840867642
 21
-37.5334778295
 31
0.0
 11
33.2842983441
 21
-37.5215149444
 31
0.0
 11
33.2844996598
 21
-37.5074163051
 31
0.0
 11
33.2848650309
 21
-37.4732857583
 31
0.0
 11
33.2851709957
 21
-37.4321931916
 31
0.0
 11
33.2854076133
 21
-37.3854738711
 31
0.0
 11
33.285567212
 21
-37.3346468156
 31
0.0
 11
33.2856446423
 21
-37.2813625707
 31
0.0
  0
LINE
  5
623
100
AcDbEntity
  8
RACCORDO
100
AcDbLine
 62
7
  6
CONTINUOUS
 10
33.2930738935
 20
-23.2930738935
 11
33.2927809856
 21
-24.0000321982
  0
SPLINE
  5
624
100
AcDbEntity
  8
RACCORDO
100
AcDbSpline
 62
7
  6
CONTINUOUS
 70
0
 71
3
 72
9
 73
5
 74
3
 42
0.0000001
 43
0.0000001
 44
0.0000000001
 12
-0.005585169
 22
-13.2813311324
 32
0.0
 13
-0.0086903749
 23
-13.2813294636
 33
0.0
 40
0.0
 40
0.0
 40
0.0
 40
0.0
 40
0.2501485436
 40
1.0
 40
1.0
 40
1.0
 40
1.0
 10
33.2927809856
 20
-24.0000321982
 30
0.0
 10
33.2923152783
 20
-25.1074674113
 30
0.0
 10
33.2903244173
 20
-29.5345777335
 30
0.0
 10
33.2878168057
 20
-33.9616878235
 30
0.0
 10
33.2856446423
 20
-37.2813625707
 30
0.0
 11
33.2927809856
 21
-24.0000321982
 31
0.0
 11
33.291286921
 21
-27.3223377953
 31
0.0
 11
33.2856446423
 21
-37.2813625707
 31
0.0
  0
SPLINE
  5
625
100
AcDbEntity
  8
RACCORDO
100
AcDbSpline
 62
7
  6
CONTINUOUS
 70
0
 71
3
 72
9
 73
5
 74
3
 42
0.0000001
 43
0.0000001
 44
0.0000000001
 12
0.0086903749
 22
-13.2813294644
 32
0.0
 13
0.005585169
 23
-13.2813311332
 33
0.0
 40
0.0
 40
0.0
 40
0.0
 40
0.0
 40
0.2498402251
 40
1.0
 40
1.0
 40
1.0
 40
1.0
 10
33.2856446423
 20
37.2813625716
 30
0.0
 10
33.2863683774
 20
36.1752924571
 30
0.0
 10
33.2891354757
 20
31.7481825517
 30
0.0
 10
33.2913843959
 20
27.3210723225
 30
0.0
 10
33.2927809856
 20
24.0000321982
 30
0.0
 11
33.2856446423
 21
37.2813625716
 31
0.0
 11
33.2877186976
 21
33.9631521659
 31
0.0
 11
33.2927809856
 21
24.0000321982
 31
0.0
  0
LINE
  5
626
100
AcDbEntity
  8
RACCORDO
100
AcDbLine
 62
7
  6
CONTINUOUS
 10
33.2927809856
 20
24.0000321982
 11
33.2930738935
 21
23.2930738935
  0
SPLINE
  5
627
100
AcDbEntity
  8
RACCORDO
100
AcDbSpline
 62
7
  6
CONTINUOUS
 70
0
 71
3
 72
18
 73
14
 74
12
 42
0.0000001
 43
0.0000001
 44
0.0000000001
 12
-0.0001812372
 22
0.2769809708
 32
0.0
 13
-0.045227047
 23
0.2732636186
 33
0.0
 40
0.0
 40
0.0
 40
0.0
 40
0.0
 40
0.1923753227
 40
0.3758800135
 40
0.5445555683
 40
0.6929184755
 40
0.8161489449
 40
0.8670552272
 40
0.9102522377
 40
0.945391437
 40
0.972190727
 40
0.9904383089
 40
1.0
 40
1.0
 40
1.0
 40
1.0
 10
33.2856446423
 20
37.2813625716
 30
0.0
 10
33.2856330204
 20
37.2991240061
 30
0.0
 10
33.2855834389
 20
37.3338278675
 30
0.0
 10
33.2854283305
 20
37.3841048338
 30
0.0
 10
33.2851994158
 20
37.4303179718
 30
0.0
 10
33.2849042118
 20
37.4709655996
 30
0.0
 10
33.284599118
 20
37.5007396728
 30
0.0
 10
33.2843161616
 20
37.5208032937
 30
0.0
 10
33.2841113773
 20
37.5327345492
 30
0.0
 10
33.2838925046
 20
37.5424378723
 30
0.0
 10
33.2836913681
 20
37.5498412427
 30
0.0
 10
33.2834511201
 20
37.554872473
 30
0.0
 10
33.2833173226
 20
37.5574436344
 30
0.0
 10
33.2831731736
 20
37.5583145885
 30
0.0
 11
33.2856446423
 21
37.2813625716
 31
0.0
 11
33.285567212
 21
37.3346468304
 31
0.0
 11
33.2854076132
 21
37.3854738981
 31
0.0
 11
33.2851709955
 21
37.4321932278
 31
0.0
 11
33.2848650305
 21
37.4732857996
 31
0.0
 11
33.2844996593
 21
37.5074163464
 31
0.0
 11
33.2842983435
 21
37.5215149837
 31
0.0
 11
33.2840867635
 21
37.5334778652
 31
0.0
 11
33.2838666389
 21
37.5432082673
 31
0.0
 11
33.2836397669
 21
37.5506276944
 31
0.0
 11
33.2834079762
 21
37.5556766106
 31
0.0
 11
33.2831731736
 21
37.5583145885
 31
0.0
  0
SPLINE
  5
628
100
AcDbEntity
  8
RACCORDO
100
AcDbSpline
 62
7
  6
CONTINUOUS
 70
0
 71
3
 72
18
 73
14
 74
12
 42
0.0000001
 43
0.0000001
 44
0.0000000001
 12
-0.2710783035
 22
0.0448149459
 32
0.0
 13
-0.2747576876
 23
0.0001977328
 33
0.0
 40
0.0
 40
0.0
 40
0.0
 40
0.0
 40
0.0095723008
 40
0.027811803
 40
0.0545859636
 40
0.0896853498
 40
0.1328308441
 40
0.183677571
 40
0.3067826323
 40
0.4550473225
 40
0.6237018285
 40
0.8073190008
 40
1.0
 40
1.0
 40
1.0
 40
1.0
 10
57.6979718305
 20
23.2769036997
 30
0.0
 10
57.6971068828
 20
23.2770466937
 30
0.0
 10
57.6945562346
 20
23.2771803412
 30
0.0
 10
57.6895674274
 20
23.2774189974
 30
0.0
 10
57.6822302233
 20
23.2776193699
 30
0.0
 10
57.6726154583
 20
23.2778371408
 30
0.0
 10
57.6607938116
 20
23.2780410828
 30
0.0
 10
57.6409129127
 20
23.2783229704
 30
0.0
 10
57.6114037849
 20
23.2786272968
 30
0.0
 10
57.5711048526
 20
23.2789223686
 30
0.0
 10
57.5252632927
 20
23.2791520655
 30
0.0
 10
57.4753535291
 20
23.2793089294
 30
0.0
 10
57.4408899345
 20
23.2793602845
 30
0.0
 10
57.4232430726
 20
23.2793729843
 30
0.0
 11
57.6979718305
 21
23.2769036997
 31
0.0
 11
57.695352158
 21
23.277137264
 31
0.0
 11
57.6903460212
 21
23.277367855
 31
0.0
 11
57.6829930772
 21
23.2775935947
 31
0.0
 11
57.6733517374
 21
23.2778126811
 31
0.0
 11
57.66149905
 21
23.2780233433
 31
0.0
 11
57.6475299567
 21
23.2782238865
 31
0.0
 11
57.6137078484
 21
23.2785882381
 31
0.0
 11
57.572972122
 21
23.2788940129
 31
0.0
 11
57.5266335959
 21
23.2791313874
 31
0.0
 11
57.4761836113
 21
23.2792927577
 31
0.0
 11
57.4232430726
 21
23.2793729843
 31
0.0
  0
LINE
  5
629
100
AcDbEntity
  8
RACCORDO
100
AcDbLine
 62
7
  6
CONTINUOUS
 10
33.2930738935
 20
23.2930738935
 11
35.0000217564
 21
23.2923450295
  0
SPLINE
  5
62A
100
AcDbEntity
  8
RACCORDO
100
AcDbSpline
 62
7
  6
CONTINUOUS
 70
0
 71
3
 72
9
 73
5
 74
3
 42
0.0000001
 43
0.0000001
 44
0.0000000001
 12
22.4232229623
 22
-0.0098145228
 32
0.0
 13
22.4232193035
 23
-0.0161371161
 33
0.0
 40
0.0
 40
0.0
 40
0.0
 40
0.0
 40
0.2501919478
 40
1.0
 40
1.0
 40
1.0
 40
1.0
 10
35.0000217564
 20
23.2923450295
 30
0.0
 10
36.870058366
 20
23.2915265247
 30
0.0
 10
44.3444659027
 20
23.2879922141
 30
0.0
 10
51.8188729426
 20
23.2834062308
 30
0.0
 10
57.4232430726
 20
23.2793729843
 30
0.0
 11
35.0000217564
 21
23.2923450295
 31
0.0
 11
40.6101314955
 21
23.289692182
 31
0.0
 11
57.4232430726
 21
23.2793729843
 31
0.0
  0
SPLINE
  5
62B
100
AcDbEntity
  8
RACCORDO
100
AcDbSpline
 62
7
  6
CONTINUOUS
 70
0
 71
3
 72
18
 73
14
 74
12
 42
0.0000001
 43
0.0000001
 44
0.0000000001
 12
-0.2747576857
 22
-0.0001977328
 32
0.0
 13
-0.2710783016
 23
-0.0448149452
 33
0.0
 40
0.0
 40
0.0
 40
0.0
 40
0.0
 40
0.1926809964
 40
0.3762981662
 40
0.5449526702
 40
0.6932173591
 40
0.81632242
 40
0.8671691471
 40
0.9103146418
 40
0.9454140291
 40
0.9721881904
 40
0.9904276947
 40
1.0
 40
1.0
 40
1.0
 40
1.0
 10
-57.4232430739
 20
23.2793729843
 30
0.0
 10
-57.4408899355
 20
23.2793602845
 30
0.0
 10
-57.4753535293
 20
23.2793089294
 30
0.0
 10
-57.5252632919
 20
23.2791520655
 30
0.0
 10
-57.5711048509
 20
23.2789223686
 30
0.0
 10
-57.6114037827
 20
23.2786272968
 30
0.0
 10
-57.6409129101
 20
23.2783229704
 30
0.0
 10
-57.6607938089
 20
23.2780410828
 30
0.0
 10
-57.6726154556
 20
23.2778371408
 30
0.0
 10
-57.6822302208
 20
23.2776193699
 30
0.0
 10
-57.6895674251
 20
23.2774189975
 30
0.0
 10
-57.694556233
 20
23.2771803411
 30
0.0
 10
-57.6971068818
 20
23.2770466939
 30
0.0
 10
-57.6979718299
 20
23.2769036997
 30
0.0
 11
-57.4232430739
 21
23.2793729843
 31
0.0
 11
-57.4761836115
 21
23.2792927577
 31
0.0
 11
-57.5266335951
 21
23.2791313874
 31
0.0
 11
-57.5729721203
 21
23.2788940129
 31
0.0
 11
-57.613707846
 21
23.2785882381
 31
0.0
 11
-57.647529954
 21
23.2782238865
 31
0.0
 11
-57.6614990472
 21
23.2780233433
 31
0.0
 11
-57.6733517346
 21
23.2778126811
 31
0.0
 11
-57.6829930746
 21
23.2775935947
 31
0.0
 11
-57.6903460188
 21
23.2773678551
 31
0.0
 11
-57.6953521562
 21
23.2771372641
 31
0.0
 11
-57.6979718299
 21
23.2769036997
 31
0.0
  0
SPLINE
  5
62C
100
AcDbEntity
  8
RACCORDO
100
AcDbSpline
 62
7
  6
CONTINUOUS
 70
0
 71
3
 72
9
 73
5
 74
3
 42
0.0000001
 43
0.0000001
 44
0.0000000001
 12
22.423219305
 22
0.0161371161
 32
0.0
 13
22.4232229637
 23
0.0098145228
 33
0.0
 40
0.0
 40
0.0
 40
0.0
 40
0.0
 40
0.2497919463
 40
1.0
 40
1.0
 40
1.0
 40
1.0
 10
-57.4232430739
 20
23.2793729843
 30
0.0
 10
-55.5561965432
 20
23.2807166248
 30
0.0
 10
-48.0817899203
 20
23.2858313943
 30
0.0
 10
-40.6073825755
 20
23.2898907182
 30
0.0
 10
-35.0000217564
 20
23.2923450295
 30
0.0
 11
-57.4232430739
 21
23.2793729843
 31
0.0
 11
-51.8221033427
 21
23.2832060256
 31
0.0
 11
-35.0000217564
 21
23.2923450295
 31
0.0
  0
LINE
  5
62D
100
AcDbEntity
  8
RACCORDO
100
AcDbLine
 62
7
  6
CONTINUOUS
 10
-35.0000217564
 20
23.2923450295
 11
-33.2930738935
 21
23.2930738935
  0
SPLINE
  5
62E
100
AcDbEntity
  8
RACCORDO
100
AcDbSpline
 62
7
  6
CONTINUOUS
 70
0
 71
3
 72
18
 73
14
 74
12
 42
0.0000001
 43
0.0000001
 44
0.0000000001
 12
0.2710783035
 22
-0.0448149459
 32
0.0
 13
0.2747576876
 23
-0.0001977328
 33
0.0
 40
0.0
 40
0.0
 40
0.0
 40
0.0
 40
0.0095723008
 40
0.027811803
 40
0.0545859636
 40
0.0896853498
 40
0.1328308441
 40
0.183677571
 40
0.3067826323
 40
0.4550473225
 40
0.6237018285
 40
0.8073190008
 40
1.0
 40
1.0
 40
1.0
 40
1.0
 10
-57.6979718305
 20
-23.2769036997
 30
0.0
 10
-57.6971068828
 20
-23.2770466937
 30
0.0
 10
-57.6945562346
 20
-23.2771803412
 30
0.0
 10
-57.6895674274
 20
-23.2774189974
 30
0.0
 10
-57.6822302233
 20
-23.2776193699
 30
0.0
 10
-57.6726154583
 20
-23.2778371408
 30
0.0
 10
-57.6607938116
 20
-23.2780410828
 30
0.0
 10
-57.6409129127
 20
-23.2783229704
 30
0.0
 10
-57.6114037849
 20
-23.2786272968
 30
0.0
 10
-57.5711048526
 20
-23.2789223686
 30
0.0
 10
-57.5252632927
 20
-23.2791520655
 30
0.0
 10
-57.4753535291
 20
-23.2793089294
 30
0.0
 10
-57.4408899345
 20
-23.2793602845
 30
0.0
 10
-57.4232430726
 20
-23.2793729843
 30
0.0
 11
-57.6979718305
 21
-23.2769036997
 31
0.0
 11
-57.695352158
 21
-23.277137264
 31
0.0
 11
-57.6903460212
 21
-23.277367855
 31
0.0
 11
-57.6829930772
 21
-23.2775935947
 31
0.0
 11
-57.6733517374
 21
-23.2778126811
 31
0.0
 11
-57.66149905
 21
-23.2780233433
 31
0.0
 11
-57.6475299567
 21
-23.2782238865
 31
0.0
 11
-57.6137078484
 21
-23.2785882381
 31
0.0
 11
-57.572972122
 21
-23.2788940129
 31
0.0
 11
-57.5266335959
 21
-23.2791313874
 31
0.0
 11
-57.4761836113
 21
-23.2792927577
 31
0.0
 11
-57.4232430726
 21
-23.2793729843
 31
0.0
  0
LINE
  5
62F
100
AcDbEntity
  8
RACCORDO
100
AcDbLine
 62
7
  6
CONTINUOUS
 10
-57.7940270193
 20
-20.4890137083
 11
-58.0498098289
 21
-20.4048300794
  0
LINE
  5
630
100
AcDbEntity
  8
RACCORDO
100
AcDbLine
 62
7
  6
CONTINUOUS
 10
-33.2930738935
 20
-23.2930738935
 11
-35.0000217564
 21
-23.2923450295
  0
SPLINE
  5
631
100
AcDbEntity
  8
RACCORDO
100
AcDbSpline
 62
7
  6
CONTINUOUS
 70
0
 71
3
 72
9
 73
5
 74
3
 42
0.0000001
 43
0.0000001
 44
0.0000000001
 12
-22.4232229623
 22
0.0098145228
 32
0.0
 13
-22.4232193035
 23
0.0161371161
 33
0.0
 40
0.0
 40
0.0
 40
0.0
 40
0.0
 40
0.2501919478
 40
1.0
 40
1.0
 40
1.0
 40
1.0
 10
-35.0000217564
 20
-23.2923450295
 30
0.0
 10
-36.870058366
 20
-23.2915265247
 30
0.0
 10
-44.3444659027
 20
-23.2879922141
 30
0.0
 10
-51.8188729426
 20
-23.2834062308
 30
0.0
 10
-57.4232430726
 20
-23.2793729843
 30
0.0
 11
-35.0000217564
 21
-23.2923450295
 31
0.0
 11
-40.6101314955
 21
-23.289692182
 31
0.0
 11
-57.4232430726
 21
-23.2793729843
 31
0.0
  0
SPLINE
  5
632
100
AcDbEntity
  8
RACCORDO
100
AcDbSpline
 62
7
  6
CONTINUOUS
 70
0
 71
3
 72
18
 73
14
 74
12
 42
0.0000001
 43
0.0000001
 44
0.0000000001
 12
0.2747576857
 22
0.0001977328
 32
0.0
 13
0.2710783016
 23
0.0448149452
 33
0.0
 40
0.0
 40
0.0
 40
0.0
 40
0.0
 40
0.1926809964
 40
0.3762981662
 40
0.5449526702
 40
0.6932173591
 40
0.81632242
 40
0.8671691471
 40
0.9103146418
 40
0.9454140291
 40
0.9721881904
 40
0.9904276947
 40
1.0
 40
1.0
 40
1.0
 40
1.0
 10
57.4232430739
 20
-23.2793729843
 30
0.0
 10
57.4408899355
 20
-23.2793602845
 30
0.0
 10
57.4753535293
 20
-23.2793089294
 30
0.0
 10
57.5252632919
 20
-23.2791520655
 30
0.0
 10
57.5711048509
 20
-23.2789223686
 30
0.0
 10
57.6114037827
 20
-23.2786272968
 30
0.0
 10
57.6409129101
 20
-23.2783229704
 30
0.0
 10
57.6607938089
 20
-23.2780410828
 30
0.0
 10
57.6726154556
 20
-23.2778371408
 30
0.0
 10
57.6822302208
 20
-23.2776193699
 30
0.0
 10
57.6895674251
 20
-23.2774189975
 30
0.0
 10
57.694556233
 20
-23.2771803411
 30
0.0
 10
57.6971068818
 20
-23.2770466939
 30
0.0
 10
57.6979718299
 20
-23.2769036997
 30
0.0
 11
57.4232430739
 21
-23.2793729843
 31
0.0
 11
57.4761836115
 21
-23.2792927577
 31
0.0
 11
57.5266335951
 21
-23.2791313874
 31
0.0
 11
57.5729721203
 21
-23.2788940129
 31
0.0
 11
57.613707846
 21
-23.2785882381
 31
0.0
 11
57.647529954
 21
-23.2782238865
 31
0.0
 11
57.6614990472
 21
-23.2780233433
 31
0.0
 11
57.6733517346
 21
-23.2778126811
 31
0.0
 11
57.6829930746
 21
-23.2775935947
 31
0.0
 11
57.6903460188
 21
-23.2773678551
 31
0.0
 11
57.6953521562
 21
-23.2771372641
 31
0.0
 11
57.6979718299
 21
-23.2769036997
 31
0.0
  0
SPLINE
  5
633
100
AcDbEntity
  8
RACCORDO
100
AcDbSpline
 62
7
  6
CONTINUOUS
 70
0
 71
3
 72
9
 73
5
 74
3
 42
0.0000001
 43
0.0000001
 44
0.0000000001
 12
-22.423219305
 22
-0.0161371161
 32
0.0
 13
-22.4232229637
 23
-0.0098145228
 33
0.0
 40
0.0
 40
0.0
 40
0.0
 40
0.0
 40
0.2497919463
 40
1.0
 40
1.0
 40
1.0
 40
1.0
 10
57.4232430739
 20
-23.2793729843
 30
0.0
 10
55.5561965432
 20
-23.2807166248
 30
0.0
 10
48.0817899203
 20
-23.2858313943
 30
0.0
 10
40.6073825755
 20
-23.2898907182
 30
0.0
 10
35.0000217564
 20
-23.2923450295
 30
0.0
 11
57.4232430739
 21
-23.2793729843
 31
0.0
 11
51.8221033427
 21
-23.2832060256
 31
0.0
 11
35.0000217564
 21
-23.2923450295
 31
0.0
  0
LINE
  5
634
100
AcDbEntity
  8
RACCORDO
100
AcDbLine
 62
7
  6
CONTINUOUS
 10
35.0000217564
 20
-23.2923450295
 11
33.2930738935
 21
-23.2930738935
  0
SPLINE
  5
635
100
AcDbEntity
  8
RACCORDO
100
AcDbSpline
 62
7
  6
CONTINUOUS
 70
0
 71
3
 72
18
 73
14
 74
12
 42
0.0000001
 43
0.0000001
 44
0.0000000001
 12
0.0001812372
 22
-0.2769809708
 32
0.0
 13
0.045227047
 23
-0.2732636186
 33
0.0
 40
0.0
 40
0.0
 40
0.0
 40
0.0
 40
0.1923753227
 40
0.3758800135
 40
0.5445555683
 40
0.6929184755
 40
0.8161489449
 40
0.8670552272
 40
0.9102522377
 40
0.945391437
 40
0.972190727
 40
0.9904383089
 40
1.0
 40
1.0
 40
1.0
 40
1.0
 10
-33.2856446423
 20
-37.2813625716
 30
0.0
 10
-33.2856330204
 20
-37.2991240061
 30
0.0
 10
-33.2855834389
 20
-37.3338278675
 30
0.0
 10
-33.2854283305
 20
-37.3841048338
 30
0.0
 10
-33.2851994158
 20
-37.4303179718
 30
0.0
 10
-33.2849042118
 20
-37.4709655996
 30
0.0
 10
-33.284599118
 20
-37.5007396728
 30
0.0
 10
-33.2843161616
 20
-37.5208032937
 30
0.0
 10
-33.2841113773
 20
-37.5327345492
 30
0.0
 10
-33.2838925046
 20
-37.5424378723
 30
0.0
 10
-33.2836913681
 20
-37.5498412427
 30
0.0
 10
-33.2834511201
 20
-37.554872473
 30
0.0
 10
-33.2833173226
 20
-37.5574436344
 30
0.0
 10
-33.2831731736
 20
-37.5583145885
 30
0.0
 11
-33.2856446423
 21
-37.2813625716
 31
0.0
 11
-33.285567212
 21
-37.3346468304
 31
0.0
 11
-33.2854076132
 21
-37.3854738981
 31
0.0
 11
-33.2851709955
 21
-37.4321932278
 31
0.0
 11
-33.2848650305
 21
-37.4732857996
 31
0.0
 11
-33.2844996593
 21
-37.5074163464
 31
0.0
 11
-33.2842983435
 21
-37.5215149837
 31
0.0
 11
-33.2840867635
 21
-37.5334778652
 31
0.0
 11
-33.2838666389
 21
-37.5432082673
 31
0.0
 11
-33.2836397669
 21
-37.5506276944
 31
0.0
 11
-33.2834079762
 21
-37.5556766106
 31
0.0
 11
-33.2831731736
 21
-37.5583145885
 31
0.0
  0
SPLINE
  5
636
100
AcDbEntity
  8
RACCORDO
100
AcDbSpline
 62
7
  6
CONTINUOUS
 70
0
 71
3
 72
9
 73
5
 74
3
 42
0.0000001
 43
0.0000001
 44
0.0000000001
 12
-0.0086903749
 22
13.2813294644
 32
0.0
 13
-0.005585169
 23
13.2813311332
 33
0.0
 40
0.0
 40
0.0
 40
0.0
 40
0.0
 40
0.2498402251
 40
1.0
 40
1.0
 40
1.0
 40
1.0
 10
-33.2856446423
 20
-37.2813625716
 30
0.0
 10
-33.2863683774
 20
-36.1752924571
 30
0.0
 10
-33.2891354757
 20
-31.7481825517
 30
0.0
 10
-33.2913843959
 20
-27.3210723225
 30
0.0
 10
-33.2927809856
 20
-24.0000321982
 30
0.0
 11
-33.2856446423
 21
-37.2813625716
 31
0.0
 11
-33.2877186976
 21
-33.9631521659
 31
0.0
 11
-33.2927809856
 21
-24.0000321982
 31
0.0
  0
LINE
  5
637
100
AcDbEntity
  8
RACCORDO
100
AcDbLine
 62
7
  6
CONTINUOUS
 10
-33.2927809856
 20
-24.0000321982
 11
-33.2930738935
 21
-23.2930738935
  0
SPLINE
  5
638
100
AcDbEntity
  8
RACCORDO
100
AcDbSpline
 62
7
  6
CONTINUOUS
 70
0
 71
3
 72
18
 73
14
 74
12
 42
0.0000001
 43
0.0000001
 44
0.0000000001
 12
-0.045227046
 22
-0.2732636075
 32
0.0
 13
-0.0001812372
 23
-0.2769809596
 33
0.0
 40
0.0
 40
0.0
 40
0.0
 40
0.0
 40
0.0095617081
 40
0.0278093185
 40
0.0546086331
 40
0.0897478516
 40
0.1329448765
 40
0.1838511682
 40
0.3070816425
 40
0.4554445374
 40
0.6241200658
 40
0.8076247199
 40
1.0
 40
1.0
 40
1.0
 40
1.0
 10
-33.2831731746
 20
37.5583145765
 30
0.0
 10
-33.2833173238
 20
37.5574436209
 30
0.0
 10
-33.2834511207
 20
37.5548724553
 30
0.0
 10
-33.283691369
 20
37.5498412188
 30
0.0
 10
-33.2838925053
 20
37.542437842
 30
0.0
 10
-33.284111378
 20
37.5327345139
 30
0.0
 10
-33.2843161621
 20
37.5208032549
 30
0.0
 10
-33.2845991185
 20
37.5007396321
 30
0.0
 10
-33.2849042121
 20
37.47096556
 30
0.0
 10
-33.285199416
 20
37.430317937
 30
0.0
 10
-33.2854283306
 20
37.3841048078
 30
0.0
 10
-33.2855834389
 20
37.3338278533
 30
0.0
 10
-33.2856330204
 20
37.2991240006
 30
0.0
 10
-33.2856446423
 20
37.2813625707
 30
0.0
 11
-33.2831731746
 21
37.5583145765
 31
0.0
 11
-33.2834079772
 21
37.555676594
 31
0.0
 11
-33.2836397677
 21
37.5506276701
 31
0.0
 11
-33.2838666397
 21
37.5432082365
 31
0.0
 11
-33.2840867642
 21
37.5334778295
 31
0.0
 11
-33.2842983441
 21
37.5215149444
 31
0.0
 11
-33.2844996598
 21
37.5074163051
 31
0.0
 11
-33.2848650309
 21
37.4732857583
 31
0.0
 11
-33.2851709957
 21
37.4321931916
 31
0.0
 11
-33.2854076133
 21
37.3854738711
 31
0.0
 11
-33.285567212
 21
37.3346468156
 31
0.0
 11
-33.2856446423
 21
37.2813625707
 31
0.0
  0
LINE
  5
639
100
AcDbEntity
  8
RACCORDO
100
AcDbLine
 62
7
  6
CONTINUOUS
 10
-33.2930738935
 20
23.2930738935
 11
-33.2927809856
 21
24.0000321982
  0
SPLINE
  5
63A
100
AcDbEntity
  8
RACCORDO
100
AcDbSpline
 62
7
  6
CONTINUOUS
 70
0
 71
3
 72
9
 73
5
 74
3
 42
0.0000001
 43
0.0000001
 44
0.0000000001
 12
0.005585169
 22
13.2813311324
 32
0.0
 13
0.0086903749
 23
13.2813294635
 33
0.0
 40
0.0
 40
0.0
 40
0.0
 40
0.0
 40
0.2501485436
 40
1.0
 40
1.0
 40
1.0
 40
1.0
 10
-33.2927809856
 20
24.0000321982
 30
0.0
 10
-33.2923152783
 20
25.1074674113
 30
0.0
 10
-33.2903244173
 20
29.5345777335
 30
0.0
 10
-33.2878168057
 20
33.9616878235
 30
0.0
 10
-33.2856446423
 20
37.2813625707
 30
0.0
 11
-33.2927809856
 21
24.0000321982
 31
0.0
 11
-33.291286921
 21
27.3223377953
 31
0.0
 11
-33.2856446423
 21
37.2813625707
 31
0.0
  0
SPLINE
  5
63B
100
AcDbEntity
  8
RACCORDO
100
AcDbSpline
 62
7
  6
CONTINUOUS
 70
0
 71
3
 72
18
 73
14
 74
12
 42
0.0000001
 43
0.0000001
 44
0.0000000001
 12
0.2710389506
 22
-0.0451281668
 32
0.0
 13
0.2747701302
 23
-0.0001993007
 33
0.0
 40
0.0
 40
0.0
 40
0.0
 40
0.0
 40
0.009543454
 40
0.0277626915
 40
0.0545226253
 40
0.0896115199
 40
0.1327485571
 40
0.1835877339
 40
0.3066792402
 40
0.4549363559
 40
0.6235993488
 40
0.8072518671
 40
1.0
 40
1.0
 40
1.0
 40
1.0
 10
-58.1242934724
 20
-0.3813390791
 30
0.0
 10
-58.1234312565
 20
-0.3814826386
 30
0.0
 10
-58.1208848236
 20
-0.3816156702
 30
0.0
 10
-58.1159017337
 20
-0.3818548969
 30
0.0
 10
-58.1085682541
 20
-0.3820551075
 30
0.0
 10
-58.0989561229
 20
-0.3822731087
 30
0.0
 10
-58.0871363603
 20
-0.3824771468
 30
0.0
 10
-58.0672572761
 20
-0.3827592649
 30
0.0
 10
-58.0377494388
 20
-0.3830638658
 30
0.0
 10
-57.997449843
 20
-0.3833593183
 30
0.0
 10
-57.9516028876
 20
-0.3835894278
 30
0.0
 10
-57.9016807016
 20
-0.3837467098
 30
0.0
 10
-57.8672061603
 20
-0.3837983029
 30
0.0
 10
-57.8495523504
 20
-0.3838111078
 30
0.0
 11
-58.1242934724
 21
-0.3813390791
 31
0.0
 11
-58.1216816497
 21
-0.3815727725
 31
0.0
 11
-58.1166808658
 21
-0.3818034962
 31
0.0
 11
-58.1093315036
 21
-0.3820293715
 31
0.0
 11
-58.0996926136
 21
-0.3822485966
 31
0.0
 11
-58.0878417159
 21
-0.3824594023
 31
0.0
 11
-58.0738740668
 21
-0.3826600957
 31
0.0
 11
-58.0400541548
 21
-0.3830247771
 31
0.0
 11
-57.9993186675
 21
-0.3833309288
 31
0.0
 11
-57.9529757129
 21
-0.3835687192
 31
0.0
 11
-57.9025137326
 21
-0.3837305108
 31
0.0
 11
-57.8495523504
 21
-0.3838111078
 31
0.0
  0
SPLINE
  5
63C
100
AcDbEntity
  8
RACCORDO
100
AcDbSpline
 62
7
  6
CONTINUOUS
 70
0
 71
3
 72
18
 73
14
 74
12
 42
0.0000001
 43
0.0000001
 44
0.0000000001
 12
0.2747702429
 22
0.0001993008
 32
0.0
 13
0.2710390506
 23
0.045128252
 33
0.0
 40
0.0
 40
0.0
 40
0.0
 40
0.0
 40
0.1927481506
 40
0.3764006825
 40
0.5450636911
 40
0.6933208197
 40
0.8164123318
 40
0.8672515077
 40
0.9103885414
 40
0.9454774283
 40
0.9722373536
 40
0.9904565742
 40
1.0
 40
1.0
 40
1.0
 40
1.0
 10
57.8495522413
 20
-0.3838111079
 30
0.0
 10
57.86720606
 20
-0.383798303
 30
0.0
 10
57.9016806183
 20
-0.3837467104
 30
0.0
 10
57.9516028291
 20
-0.3835894283
 30
0.0
 10
57.9974498072
 20
-0.3833593187
 30
0.0
 10
58.0377494226
 20
-0.3830638662
 30
0.0
 10
58.0672572737
 20
-0.3827592652
 30
0.0
 10
58.0871363661
 20
-0.382477147
 30
0.0
 10
58.0989561325
 20
-0.3822731088
 30
0.0
 10
58.1085682658
 20
-0.3820551075
 30
0.0
 10
58.1159017454
 20
-0.3818548967
 30
0.0
 10
58.1208848324
 20
-0.3816156705
 30
0.0
 10
58.1234312622
 20
-0.3814826381
 30
0.0
 10
58.1242934759
 20
-0.3813390788
 30
0.0
 11
57.8495522413
 21
-0.3838111079
 31
0.0
 11
57.90251365
 21
-0.3837305112
 31
0.0
 11
57.9529756547
 21
-0.3835687196
 31
0.0
 11
57.9993186327
 21
-0.3833309293
 31
0.0
 11
58.0400541402
 21
-0.3830247775
 31
0.0
 11
58.0738740677
 21
-0.382660096
 31
0.0
 11
58.0878417223
 21
-0.3824594024
 31
0.0
 11
58.0996926239
 21
-0.3822485967
 31
0.0
 11
58.1093315157
 21
-0.3820293715
 31
0.0
 11
58.1166808786
 21
-0.3818034962
 31
0.0
 11
58.1216816599
 21
-0.3815727723
 31
0.0
 11
58.1242934759
 21
-0.3813390788
 31
0.0
  0
SPLINE
  5
63D
100
AcDbEntity
  8
RACCORDO
100
AcDbSpline
 62
7
  6
CONTINUOUS
 70
0
 71
3
 72
9
 73
5
 74
3
 42
0.0000001
 43
0.0000001
 44
0.0000000001
 12
-24.5529918788
 22
-0.0178091705
 32
0.0
 13
-24.5529962078
 23
-0.0102266971
 33
0.0
 40
0.0
 40
0.0
 40
0.0
 40
0.0
 40
0.2497742666
 40
1.0
 40
1.0
 40
1.0
 40
1.0
 10
57.8495522413
 20
-0.3838111079
 30
0.0
 10
55.8053170613
 20
-0.3852938654
 30
0.0
 10
47.6209862081
 20
-0.390913237
 30
0.0
 10
39.4366544863
 20
-0.3952667244
 30
0.0
 10
33.2965579574
 20
-0.3978241682
 30
0.0
 11
57.8495522413
 21
-0.3838111079
 31
0.0
 11
51.7168465339
 21
-0.3880220393
 31
0.0
 11
33.2965579574
 21
-0.3978241682
 31
0.0
  0
SPLINE
  5
63E
100
AcDbEntity
  8
RACCORDO
100
AcDbSpline
 62
7
  6
CONTINUOUS
 70
0
 71
3
 72
18
 73
14
 74
12
 42
0.0000001
 43
0.0000001
 44
0.0000000001
 12
-0.2710389506
 22
0.0451281668
 32
0.0
 13
-0.2747701302
 23
0.0001993007
 33
0.0
 40
0.0
 40
0.0
 40
0.0
 40
0.0
 40
0.009543454
 40
0.0277626915
 40
0.0545226253
 40
0.0896115199
 40
0.1327485571
 40
0.1835877339
 40
0.3066792402
 40
0.4549363559
 40
0.6235993488
 40
0.8072518671
 40
1.0
 40
1.0
 40
1.0
 40
1.0
 10
58.1242934724
 20
0.3813390791
 30
0.0
 10
58.1234312565
 20
0.3814826386
 30
0.0
 10
58.1208848236
 20
0.3816156702
 30
0.0
 10
58.1159017337
 20
0.3818548969
 30
0.0
 10
58.1085682541
 20
0.3820551075
 30
0.0
 10
58.0989561229
 20
0.3822731087
 30
0.0
 10
58.0871363603
 20
0.3824771468
 30
0.0
 10
58.0672572761
 20
0.3827592649
 30
0.0
 10
58.0377494388
 20
0.3830638658
 30
0.0
 10
57.997449843
 20
0.3833593183
 30
0.0
 10
57.9516028876
 20
0.3835894278
 30
0.0
 10
57.9016807016
 20
0.3837467098
 30
0.0
 10
57.8672061603
 20
0.3837983029
 30
0.0
 10
57.8495523504
 20
0.3838111078
 30
0.0
 11
58.1242934724
 21
0.3813390791
 31
0.0
 11
58.1216816497
 21
0.3815727725
 31
0.0
 11
58.1166808658
 21
0.3818034962
 31
0.0
 11
58.1093315036
 21
0.3820293715
 31
0.0
 11
58.0996926136
 21
0.3822485966
 31
0.0
 11
58.0878417159
 21
0.3824594023
 31
0.0
 11
58.0738740668
 21
0.3826600957
 31
0.0
 11
58.0400541548
 21
0.3830247771
 31
0.0
 11
57.9993186675
 21
0.3833309288
 31
0.0
 11
57.9529757129
 21
0.3835687192
 31
0.0
 11
57.9025137326
 21
0.3837305108
 31
0.0
 11
57.8495523504
 21
0.3838111078
 31
0.0
  0
SPLINE
  5
63F
100
AcDbEntity
  8
RACCORDO
100
AcDbSpline
 62
7
  6
CONTINUOUS
 70
0
 71
3
 72
18
 73
14
 74
12
 42
0.0000001
 43
0.0000001
 44
0.0000000001
 12
-0.2747702429
 22
-0.0001993008
 32
0.0
 13
-0.2710390506
 23
-0.045128252
 33
0.0
 40
0.0
 40
0.0
 40
0.0
 40
0.0
 40
0.1927481506
 40
0.3764006825
 40
0.5450636911
 40
0.6933208197
 40
0.8164123318
 40
0.8672515077
 40
0.9103885414
 40
0.9454774283
 40
0.9722373536
 40
0.9904565742
 40
1.0
 40
1.0
 40
1.0
 40
1.0
 10
-57.8495522413
 20
0.3838111079
 30
0.0
 10
-57.86720606
 20
0.383798303
 30
0.0
 10
-57.9016806183
 20
0.3837467104
 30
0.0
 10
-57.9516028291
 20
0.3835894283
 30
0.0
 10
-57.9974498072
 20
0.3833593187
 30
0.0
 10
-58.0377494226
 20
0.3830638662
 30
0.0
 10
-58.0672572737
 20
0.3827592652
 30
0.0
 10
-58.0871363661
 20
0.382477147
 30
0.0
 10
-58.0989561325
 20
0.3822731088
 30
0.0
 10
-58.1085682658
 20
0.3820551075
 30
0.0
 10
-58.1159017454
 20
0.3818548967
 30
0.0
 10
-58.1208848324
 20
0.3816156705
 30
0.0
 10
-58.1234312622
 20
0.3814826381
 30
0.0
 10
-58.1242934759
 20
0.3813390788
 30
0.0
 11
-57.8495522413
 21
0.3838111079
 31
0.0
 11
-57.90251365
 21
0.3837305112
 31
0.0
 11
-57.9529756547
 21
0.3835687196
 31
0.0
 11
-57.9993186327
 21
0.3833309293
 31
0.0
 11
-58.0400541402
 21
0.3830247775
 31
0.0
 11
-58.0738740677
 21
0.382660096
 31
0.0
 11
-58.0878417223
 21
0.3824594024
 31
0.0
 11
-58.0996926239
 21
0.3822485967
 31
0.0
 11
-58.1093315157
 21
0.3820293715
 31
0.0
 11
-58.1166808786
 21
0.3818034962
 31
0.0
 11
-58.1216816599
 21
0.3815727723
 31
0.0
 11
-58.1242934759
 21
0.3813390788
 31
0.0
  0
SPLINE
  5
640
100
AcDbEntity
  8
RACCORDO
100
AcDbSpline
 62
7
  6
CONTINUOUS
 70
0
 71
3
 72
9
 73
5
 74
3
 42
0.0000001
 43
0.0000001
 44
0.0000000001
 12
24.5529918788
 22
0.0178091705
 32
0.0
 13
24.5529962078
 23
0.0102266971
 33
0.0
 40
0.0
 40
0.0
 40
0.0
 40
0.0
 40
0.2497742666
 40
1.0
 40
1.0
 40
1.0
 40
1.0
 10
-57.8495522413
 20
0.3838111079
 30
0.0
 10
-55.8053170613
 20
0.3852938654
 30
0.0
 10
-47.6209862081
 20
0.390913237
 30
0.0
 10
-39.4366544863
 20
0.3952667244
 30
0.0
 10
-33.2965579574
 20
0.3978241682
 30
0.0
 11
-57.8495522413
 21
0.3838111079
 31
0.0
 11
-51.7168465339
 21
0.3880220393
 31
0.0
 11
-33.2965579574
 21
0.3978241682
 31
0.0
  0
SPLINE
  5
641
100
AcDbEntity
  8
RACCORDO
100
AcDbSpline
 62
7
  6
CONTINUOUS
 70
0
 71
3
 72
18
 73
14
 74
12
 42
0.0000001
 43
0.0000001
 44
0.0000000001
 12
0.2745862538
 22
0.000197863
 32
0.0
 13
0.2708157864
 23
0.0453482057
 33
0.0
 40
0.0
 40
0.0
 40
0.0
 40
0.0
 40
0.1928312396
 40
0.3765696534
 40
0.5452990646
 40
0.6935819983
 40
0.8166482699
 40
0.8674569434
 40
0.9105545151
 40
0.9455985238
 40
0.9723124772
 40
0.9904895997
 40
1.0
 40
1.0
 40
1.0
 40
1.0
 10
57.4506051357
 20
22.5203420625
 30
0.0
 10
57.4682547383
 20
22.5203547806
 30
0.0
 10
57.5027216779
 20
22.5204062003
 30
0.0
 10
57.552632004
 20
22.5205632654
 30
0.0
 10
57.5984645831
 20
22.5207932364
 30
0.0
 10
57.6387433412
 20
22.5210886324
 30
0.0
 10
57.6682286933
 20
22.521393236
 30
0.0
 10
57.6880857533
 20
22.5216754051
 30
0.0
 10
57.6998870966
 20
22.5218794131
 30
0.0
 10
57.7094808428
 20
22.5220974466
 30
0.0
 10
57.7167972786
 20
22.522297482
 30
0.0
 10
57.7217658486
 20
22.5225368849
 30
0.0
 10
57.7243037901
 20
22.5226695582
 30
0.0
 10
57.7251623122
 20
22.522813318
 30
0.0
 11
57.4506051357
 21
22.5203420625
 31
0.0
 11
57.5035538962
 21
22.5204224003
 31
0.0
 11
57.5540056933
 21
22.5205839879
 31
0.0
 11
57.6003358726
 21
22.5208216638
 31
0.0
 11
57.6410511876
 21
22.5211277837
 31
0.0
 11
57.6748415349
 21
22.5214924761
 31
0.0
 11
57.6887914582
 21
22.5216931742
 31
0.0
 11
57.7006235844
 21
22.5219039752
 31
0.0
 11
57.7102436928
 21
22.5221231815
 31
0.0
 11
57.7175755017
 21
22.5223490209
 31
0.0
 11
57.7225613578
 21
22.5225796919
 31
0.0
 11
57.7251623122
 21
22.522813318
 31
0.0
  0
SPLINE
  5
642
100
AcDbEntity
  8
RACCORDO
100
AcDbSpline
 62
7
  6
CONTINUOUS
 70
0
 71
3
 72
18
 73
14
 74
12
 42
0.0000001
 43
0.0000001
 44
0.0000000001
 12
0.2708157864
 22
-0.0453482057
 32
0.0
 13
0.2745862538
 23
-0.000197863
 33
0.0
 40
0.0
 40
0.0
 40
0.0
 40
0.0
 40
0.0095103996
 40
0.0276875246
 40
0.0544014876
 40
0.0894454989
 40
0.132543067
 40
0.1833517419
 40
0.3064180292
 40
0.454700953
 40
0.6234303805
 40
0.807168769
 40
1.0
 40
1.0
 40
1.0
 40
1.0
 10
-57.7251623123
 20
22.522813318
 30
0.0
 10
-57.7243037902
 20
22.5226695582
 30
0.0
 10
-57.7217658485
 20
22.5225368848
 30
0.0
 10
-57.7167972775
 20
22.522297482
 30
0.0
 10
-57.7094808404
 20
22.5220974466
 30
0.0
 10
-57.6998870933
 20
22.5218794131
 30
0.0
 10
-57.68808575
 20
22.5216754051
 30
0.0
 10
-57.6682286887
 20
22.5213932359
 30
0.0
 10
-57.638743336
 20
22.5210886324
 30
0.0
 10
-57.5984645758
 20
22.5207932364
 30
0.0
 10
-57.5526319985
 20
22.5205632654
 30
0.0
 10
-57.502721674
 20
22.5204062003
 30
0.0
 10
-57.4682547375
 20
22.5203547806
 30
0.0
 10
-57.4506051357
 20
22.5203420625
 30
0.0
 11
-57.7251623123
 21
22.522813318
 31
0.0
 11
-57.722561358
 21
22.5225796919
 31
0.0
 11
-57.7175755012
 21
22.5223490209
 31
0.0
 11
-57.7102436897
 21
22.5221231814
 31
0.0
 11
-57.7006235806
 21
22.5219039751
 31
0.0
 11
-57.6887914554
 21
22.5216931741
 31
0.0
 11
-57.6748415317
 21
22.521492476
 31
0.0
 11
-57.6410511801
 21
22.5211277836
 31
0.0
 11
-57.6003358677
 21
22.5208216637
 31
0.0
 11
-57.5540056839
 21
22.5205839879
 31
0.0
 11
-57.5035538938
 21
22.5204224003
 31
0.0
 11
-57.4506051357
 21
22.5203420625
 31
0.0
  0
LINE
  5
643
100
AcDbEntity
  8
RACCORDO
100
AcDbLine
 62
7
  6
CONTINUOUS
 10
-33.2921237487
 20
22.5066100405
 11
-35.0000220016
 21
22.5073398858
  0
SPLINE
  5
644
100
AcDbEntity
  8
RACCORDO
100
AcDbSpline
 62
7
  6
CONTINUOUS
 70
0
 71
3
 72
9
 73
5
 74
3
 42
0.0000001
 43
0.0000001
 44
0.0000000001
 12
-22.4505847872
 22
0.0098343921
 32
0.0
 13
-22.4505811125
 23
0.0161775462
 33
0.0
 40
0.0
 40
0.0
 40
0.0
 40
0.0
 40
0.2501925399
 40
1.0
 40
1.0
 40
1.0
 40
1.0
 10
-35.0000220016
 20
22.5073398858
 30
0.0
 10
-36.8723449453
 20
22.5081600497
 30
0.0
 10
-44.3558730898
 20
22.5117018374
 30
0.0
 10
-51.8394007354
 20
22.5162987143
 30
0.0
 10
-57.4506051357
 20
22.5203420625
 30
0.0
 11
-35.0000220016
 21
22.5073398858
 31
0.0
 11
-40.6169907424
 21
22.5099983521
 31
0.0
 11
-57.4506051357
 21
22.5203420625
 31
0.0
  0
SPLINE
  5
645
100
AcDbEntity
  8
RACCORDO
100
AcDbSpline
 62
7
  6
CONTINUOUS
 70
0
 71
3
 72
18
 73
14
 74
12
 42
0.0000001
 43
0.0000001
 44
0.0000000001
 12
-0.2745862538
 22
-0.000197863
 32
0.0
 13
-0.2708157864
 23
-0.0453482057
 33
0.0
 40
0.0
 40
0.0
 40
0.0
 40
0.0
 40
0.1928312396
 40
0.3765696534
 40
0.5452990646
 40
0.6935819983
 40
0.8166482699
 40
0.8674569434
 40
0.9105545151
 40
0.9455985238
 40
0.9723124772
 40
0.9904895997
 40
1.0
 40
1.0
 40
1.0
 40
1.0
 10
-57.4506051357
 20
-22.5203420625
 30
0.0
 10
-57.4682547383
 20
-22.5203547806
 30
0.0
 10
-57.5027216779
 20
-22.5204062003
 30
0.0
 10
-57.552632004
 20
-22.5205632654
 30
0.0
 10
-57.5984645831
 20
-22.5207932364
 30
0.0
 10
-57.6387433412
 20
-22.5210886324
 30
0.0
 10
-57.6682286933
 20
-22.521393236
 30
0.0
 10
-57.6880857533
 20
-22.5216754051
 30
0.0
 10
-57.6998870966
 20
-22.5218794131
 30
0.0
 10
-57.7094808428
 20
-22.5220974466
 30
0.0
 10
-57.7167972786
 20
-22.522297482
 30
0.0
 10
-57.7217658486
 20
-22.5225368849
 30
0.0
 10
-57.7243037901
 20
-22.5226695582
 30
0.0
 10
-57.7251623122
 20
-22.522813318
 30
0.0
 11
-57.4506051357
 21
-22.5203420625
 31
0.0
 11
-57.5035538962
 21
-22.5204224003
 31
0.0
 11
-57.5540056933
 21
-22.5205839879
 31
0.0
 11
-57.6003358726
 21
-22.5208216638
 31
0.0
 11
-57.6410511876
 21
-22.5211277837
 31
0.0
 11
-57.6748415349
 21
-22.5214924761
 31
0.0
 11
-57.6887914582
 21
-22.5216931742
 31
0.0
 11
-57.7006235844
 21
-22.5219039752
 31
0.0
 11
-57.7102436928
 21
-22.5221231815
 31
0.0
 11
-57.7175755017
 21
-22.5223490209
 31
0.0
 11
-57.7225613578
 21
-22.5225796919
 31
0.0
 11
-57.7251623122
 21
-22.522813318
 31
0.0
  0
SPLINE
  5
646
100
AcDbEntity
  8
RACCORDO
100
AcDbSpline
 62
7
  6
CONTINUOUS
 70
0
 71
3
 72
18
 73
14
 74
12
 42
0.0000001
 43
0.0000001
 44
0.0000000001
 12
-0.2708157864
 22
0.0453482057
 32
0.0
 13
-0.2745862538
 23
0.000197863
 33
0.0
 40
0.0
 40
0.0
 40
0.0
 40
0.0
 40
0.0095103996
 40
0.0276875246
 40
0.0544014876
 40
0.0894454989
 40
0.132543067
 40
0.1833517419
 40
0.3064180292
 40
0.454700953
 40
0.6234303805
 40
0.807168769
 40
1.0
 40
1.0
 40
1.0
 40
1.0
 10
57.7251623123
 20
-22.522813318
 30
0.0
 10
57.7243037902
 20
-22.5226695582
 30
0.0
 10
57.7217658485
 20
-22.5225368848
 30
0.0
 10
57.7167972775
 20
-22.522297482
 30
0.0
 10
57.7094808404
 20
-22.5220974466
 30
0.0
 10
57.6998870933
 20
-22.5218794131
 30
0.0
 10
57.68808575
 20
-22.5216754051
 30
0.0
 10
57.6682286887
 20
-22.5213932359
 30
0.0
 10
57.638743336
 20
-22.5210886324
 30
0.0
 10
57.5984645758
 20
-22.5207932364
 30
0.0
 10
57.5526319985
 20
-22.5205632654
 30
0.0
 10
57.502721674
 20
-22.5204062003
 30
0.0
 10
57.4682547375
 20
-22.5203547806
 30
0.0
 10
57.4506051357
 20
-22.5203420625
 30
0.0
 11
57.7251623123
 21
-22.522813318
 31
0.0
 11
57.722561358
 21
-22.5225796919
 31
0.0
 11
57.7175755012
 21
-22.5223490209
 31
0.0
 11
57.7102436897
 21
-22.5221231814
 31
0.0
 11
57.7006235806
 21
-22.5219039751
 31
0.0
 11
57.6887914554
 21
-22.5216931741
 31
0.0
 11
57.6748415317
 21
-22.521492476
 31
0.0
 11
57.6410511801
 21
-22.5211277836
 31
0.0
 11
57.6003358677
 21
-22.5208216637
 31
0.0
 11
57.5540056839
 21
-22.5205839879
 31
0.0
 11
57.5035538938
 21
-22.5204224003
 31
0.0
 11
57.4506051357
 21
-22.5203420625
 31
0.0
  0
LINE
  5
647
100
AcDbEntity
  8
RACCORDO
100
AcDbLine
 62
7
  6
CONTINUOUS
 10
33.2921237487
 20
-22.5066100405
 11
35.0000220016
 21
-22.5073398858
  0
SPLINE
  5
648
100
AcDbEntity
  8
RACCORDO
100
AcDbSpline
 62
7
  6
CONTINUOUS
 70
0
 71
3
 72
9
 73
5
 74
3
 42
0.0000001
 43
0.0000001
 44
0.0000000001
 12
22.4505847872
 22
-0.0098343921
 32
0.0
 13
22.4505811125
 23
-0.0161775462
 33
0.0
 40
0.0
 40
0.0
 40
0.0
 40
0.0
 40
0.2501925399
 40
1.0
 40
1.0
 40
1.0
 40
1.0
 10
35.0000220016
 20
-22.5073398858
 30
0.0
 10
36.8723449453
 20
-22.5081600497
 30
0.0
 10
44.3558730898
 20
-22.5117018374
 30
0.0
 10
51.8394007354
 20
-22.5162987143
 30
0.0
 10
57.4506051357
 20
-22.5203420625
 30
0.0
 11
35.0000220016
 21
-22.5073398858
 31
0.0
 11
40.6169907424
 21
-22.5099983521
 31
0.0
 11
57.4506051357
 21
-22.5203420625
 31
0.0
  0
SPLINE
  5
649
100
AcDbEntity
  8
RACCORDO
100
AcDbSpline
 62
7
  6
CONTINUOUS
 70
0
 71
3
 72
18
 73
14
 74
12
 42
0.0000001
 43
0.0000001
 44
0.0000000001
 12
0.0456885744
 22
0.2730316804
 32
0.0
 13
0.0001814018
 23
0.2768279455
 33
0.0
 40
0.0
 40
0.0
 40
0.0
 40
0.0
 40
0.0095082834
 40
0.0277008193
 40
0.0544459249
 40
0.0895343693
 40
0.1326866625
 40
0.1835567198
 40
0.3067482516
 40
0.455124987
 40
0.6238680431
 40
0.8074846842
 40
1.0
 40
1.0
 40
1.0
 40
1.0
 10
-32.5165267424
 20
-37.5817954908
 30
0.0
 10
-32.5163819358
 20
-37.5809301367
 30
0.0
 10
-32.5162489608
 20
-37.5783701806
 30
0.0
 10
-32.5160080607
 20
-37.5733569441
 30
0.0
 10
-32.515807198
 20
-37.5659723425
 30
0.0
 10
-32.5155880835
 20
-37.5562882371
 30
0.0
 10
-32.5153832239
 20
-37.5443757171
 30
0.0
 10
-32.5150999933
 20
-37.5243342562
 30
0.0
 10
-32.5147946193
 20
-37.4945822927
 30
0.0
 10
-32.5144990885
 20
-37.4539532149
 30
0.0
 10
-32.5142698947
 20
-37.4077477745
 30
0.0
 10
-32.5141145802
 20
-37.3574691088
 30
0.0
 10
-32.5140649313
 20
-37.3227611721
 30
0.0
 10
-32.5140532904
 20
-37.3049966323
 30
0.0
 11
-32.5165267424
 21
-37.5817954908
 31
0.0
 11
-32.5162918753
 21
-37.5791738312
 31
0.0
 11
-32.5160600034
 21
-37.5741429685
 31
0.0
 11
-32.5158330315
 21
-37.5667426541
 31
0.0
 11
-32.5156127876
 21
-37.5570316873
 31
0.0
 11
-32.5154010699
 21
-37.5450878004
 31
0.0
 11
-32.5151996003
 21
-37.5310069851
 31
0.0
 11
-32.5148338893
 21
-37.4969060801
 31
0.0
 11
-32.5145275781
 21
-37.4558323866
 31
0.0
 11
-32.5142906558
 21
-37.4091201839
 31
0.0
 11
-32.5141308353
 21
-37.3582902067
 31
0.0
 11
-32.5140532904
 21
-37.3049966323
 31
0.0
  0
SPLINE
  5
64A
100
AcDbEntity
  8
RACCORDO
100
AcDbSpline
 62
7
  6
CONTINUOUS
 70
0
 71
3
 72
18
 73
14
 74
12
 42
0.0000001
 43
0.0000001
 44
0.0000000001
 12
-0.0001814018
 22
0.2768279507
 32
0.0
 13
-0.0456885732
 23
0.2730316858
 33
0.0
 40
0.0
 40
0.0
 40
0.0
 40
0.0
 40
0.1925153421
 40
0.376132006
 40
0.5448750788
 40
0.6932518224
 40
0.8164433523
 40
0.8673134044
 40
0.9104656894
 40
0.9455541225
 40
0.9722992145
 40
0.9904917324
 40
1.0
 40
1.0
 40
1.0
 40
1.0
 10
-32.5140532904
 20
37.3049966343
 30
0.0
 10
-32.5140649313
 20
37.3227611768
 30
0.0
 10
-32.5141145802
 20
37.3574691187
 30
0.0
 10
-32.5142698947
 20
37.4077477914
 30
0.0
 10
-32.5144990886
 20
37.4539532371
 30
0.0
 10
-32.5147946195
 20
37.4945823177
 30
0.0
 10
-32.5150999935
 20
37.5243342819
 30
0.0
 10
-32.5153832242
 20
37.5443757418
 30
0.0
 10
-32.5155880839
 20
37.5562882597
 30
0.0
 10
-32.5158071984
 20
37.5659723622
 30
0.0
 10
-32.5160080613
 20
37.57335696
 30
0.0
 10
-32.5162489611
 20
37.5783701923
 30
0.0
 10
-32.5163819366
 20
37.5809301452
 30
0.0
 10
-32.516526743
 20
37.5817954979
 30
0.0
 11
-32.5140532904
 21
37.3049966343
 31
0.0
 11
-32.5141308354
 21
37.3582902169
 31
0.0
 11
-32.5142906559
 21
37.4091202014
 31
0.0
 11
-32.5145275783
 21
37.4558324096
 31
0.0
 11
-32.5148338895
 21
37.4969061061
 31
0.0
 11
-32.5151996006
 21
37.5310070112
 31
0.0
 11
-32.5154010703
 21
37.5450878253
 31
0.0
 11
-32.515612788
 21
37.5570317102
 31
0.0
 11
-32.5158330319
 21
37.5667426741
 31
0.0
 11
-32.5160600039
 21
37.5741429848
 31
0.0
 11
-32.5162918758
 21
37.5791738427
 31
0.0
 11
-32.516526743
 21
37.5817954979
 31
0.0
  0
SPLINE
  5
64B
100
AcDbEntity
  8
RACCORDO
100
AcDbSpline
 62
7
  6
CONTINUOUS
 70
0
 71
3
 72
9
 73
5
 74
3
 42
0.0000001
 43
0.0000001
 44
0.0000000001
 12
0.008718566
 22
-13.3049632348
 32
0.0
 13
0.0055997158
 23
-13.304964913
 33
0.0
 40
0.0
 40
0.0
 40
0.0
 40
0.0
 40
0.2498396078
 40
1.0
 40
1.0
 40
1.0
 40
1.0
 10
-32.5140532904
 20
37.3049966343
 30
0.0
 10
-32.5133272094
 20
36.1969610357
 30
0.0
 10
-32.5105512845
 20
31.7619732063
 30
0.0
 10
-32.508295816
 20
27.3269850513
 30
0.0
 10
-32.5068955877
 20
24.0000324854
 30
0.0
 11
-32.5140532904
 21
37.3049966343
 31
0.0
 11
-32.5119726242
 21
33.980889776
 31
0.0
 11
-32.5068955877
 21
24.0000324854
 31
0.0
  0
LINE
  5
64C
100
AcDbEntity
  8
RACCORDO
100
AcDbLine
 62
7
  6
CONTINUOUS
 10
-32.5068955877
 20
24.0000324854
 11
-32.5066020536
 21
23.2921317356
  0
SPLINE
  5
64D
100
AcDbEntity
  8
RACCORDO
100
AcDbSpline
 62
7
  6
CONTINUOUS
 70
0
 71
3
 72
18
 73
14
 74
12
 42
0.0000001
 43
0.0000001
 44
0.0000000001
 12
0.0001837603
 22
-0.2768682001
 32
0.0
 13
0.0454746109
 23
-0.2731082089
 33
0.0
 40
0.0
 40
0.0
 40
0.0
 40
0.0
 40
0.1924364982
 40
0.3759665155
 40
0.5446425087
 40
0.692994651
 40
0.8162136277
 40
0.8671149859
 40
0.9103069536
 40
0.9454396988
 40
0.9722292879
 40
0.9904616075
 40
1.0
 40
1.0
 40
1.0
 40
1.0
 10
-0.392230643
 20
-37.7969463833
 30
0.0
 10
-0.3922188556
 20
-37.8147062322
 30
0.0
 10
-0.3921689515
 20
-37.8494039472
 30
0.0
 10
-0.3920133885
 20
-37.899668466
 30
0.0
 10
-0.3917841032
 20
-37.9458641713
 30
0.0
 10
-0.3914886223
 20
-37.9864932324
 30
0.0
 10
-0.3911833812
 20
-38.0162526743
 30
0.0
 10
-0.3909003231
 20
-38.0363061392
 30
0.0
 10
-0.3906955269
 20
-38.0482310278
 30
0.0
 10
-0.3904765327
 20
-38.0579284173
 30
0.0
 10
-0.3902756085
 20
-38.0653259285
 30
0.0
 10
-0.3900349513
 20
-38.0703505329
 30
0.0
 10
-0.3899017371
 20
-38.0729172336
 30
0.0
 10
-0.3897571522
 20
-38.0737855714
 30
0.0
 11
-0.392230643
 21
-37.7969463833
 31
0.0
 11
-0.3921527102
 21
-37.8502258849
 31
0.0
 11
-0.391992655
 21
-37.9010392696
 31
0.0
 11
-0.3917556681
 21
-37.9477396972
 31
0.0
 11
-0.3914494355
 21
-37.9888125553
 31
0.0
 11
-0.3910838875
 21
-38.0229260206
 31
0.0
 11
-0.3908825093
 21
-38.0370175523
 31
0.0
 11
-0.390670879
 21
-38.0489741645
 31
0.0
 11
-0.3904507126
 21
-38.0586988146
 31
0.0
 11
-0.3902238045
 21
-38.06611253
 31
0.0
 11
-0.3899919822
 21
-38.0711551547
 31
0.0
 11
-0.3897571522
 21
-38.0737855714
 31
0.0
  0
SPLINE
  5
64E
100
AcDbEntity
  8
RACCORDO
100
AcDbSpline
 62
7
  6
CONTINUOUS
 70
0
 71
3
 72
9
 73
5
 74
3
 42
0.0000001
 43
0.0000001
 44
0.0000000001
 12
0.005920839
 22
14.4982129339
 32
0.0
 13
0.0096226125
 23
14.4982109496
 33
0.0
 40
0.0
 40
0.0
 40
0.0
 40
0.0
 40
0.2501610549
 40
1.0
 40
1.0
 40
1.0
 40
1.0
 10
-0.4000005169
 20
23.2987343061
 30
0.0
 10
-0.3995067958
 20
24.5076970531
 30
0.0
 10
-0.3973792558
 20
29.3404346337
 30
0.0
 10
-0.3946357796
 20
34.1731719432
 30
0.0
 10
-0.392230643
 20
37.7969463449
 30
0.0
 11
-0.4000005169
 21
23.2987343061
 31
0.0
 11
-0.3984037949
 21
26.9256224982
 31
0.0
 11
-0.392230643
 21
37.7969463449
 31
0.0
  0
SPLINE
  5
64F
100
AcDbEntity
  8
RACCORDO
100
AcDbSpline
 62
7
  6
CONTINUOUS
 70
0
 71
3
 72
18
 73
14
 74
12
 42
0.0000001
 43
0.0000001
 44
0.0000000001
 12
-0.0454746414
 22
-0.2731082435
 32
0.0
 13
-0.0001837603
 23
-0.2768682393
 33
0.0
 40
0.0
 40
0.0
 40
0.0
 40
0.0
 40
0.0095383847
 40
0.0277706999
 40
0.0545602868
 40
0.0896930302
 40
0.1328849971
 40
0.1837863554
 40
0.3070053342
 40
0.4553574802
 40
0.6240334776
 40
0.8075634979
 40
1.0
 40
1.0
 40
1.0
 40
1.0
 10
-0.3897571521
 20
38.0737855721
 30
0.0
 10
-0.389901737
 20
38.072917235
 30
0.0
 10
-0.3900349514
 20
38.070350535
 30
0.0
 10
-0.3902756084
 20
38.0653259312
 30
0.0
 10
-0.3904765328
 20
38.0579284197
 30
0.0
 10
-0.390695527
 20
38.0482310293
 30
0.0
 10
-0.3909003231
 20
38.0363061392
 30
0.0
 10
-0.3911833813
 20
38.0162526714
 30
0.0
 10
-0.3914886225
 20
37.9864932248
 30
0.0
 10
-0.3917841034
 20
37.945864157
 30
0.0
 10
-0.3920133887
 20
37.8996684441
 30
0.0
 10
-0.3921689517
 20
37.8494039172
 30
0.0
 10
-0.3922188556
 20
37.8147061967
 30
0.0
 10
-0.392230643
 20
37.7969463449
 30
0.0
 11
-0.3897571521
 21
38.0737855721
 31
0.0
 11
-0.3899919822
 21
38.0711551572
 31
0.0
 11
-0.3902238045
 21
38.066112533
 31
0.0
 11
-0.3904507126
 21
38.0586988172
 31
0.0
 11
-0.3906708791
 21
38.0489741662
 31
0.0
 11
-0.3908825094
 21
38.0370175525
 31
0.0
 11
-0.3910838876
 21
38.0229260188
 31
0.0
 11
-0.3914494356
 21
37.9888125481
 31
0.0
 11
-0.3917556683
 21
37.9477396832
 31
0.0
 11
-0.3919926552
 21
37.9010392478
 31
0.0
 11
-0.3921527103
 21
37.8502258551
 31
0.0
 11
-0.392230643
 21
37.7969463449
 31
0.0
  0
SPLINE
  5
650
100
AcDbEntity
  8
RACCORDO
100
AcDbSpline
 62
7
  6
CONTINUOUS
 70
0
 71
3
 72
9
 73
5
 74
3
 42
0.0000001
 43
0.0000001
 44
0.0000000001
 12
-0.005920839
 22
-14.4982129339
 32
0.0
 13
-0.0096226125
 23
-14.4982109496
 33
0.0
 40
0.0
 40
0.0
 40
0.0
 40
0.0
 40
0.2501610549
 40
1.0
 40
1.0
 40
1.0
 40
1.0
 10
0.4000005169
 20
-23.2987343061
 30
0.0
 10
0.3995067958
 20
-24.5076970531
 30
0.0
 10
0.3973792558
 20
-29.3404346337
 30
0.0
 10
0.3946357796
 20
-34.1731719432
 30
0.0
 10
0.392230643
 20
-37.7969463449
 30
0.0
 11
0.4000005169
 21
-23.2987343061
 31
0.0
 11
0.3984037949
 21
-26.9256224982
 31
0.0
 11
0.392230643
 21
-37.7969463449
 31
0.0
  0
SPLINE
  5
651
100
AcDbEntity
  8
RACCORDO
100
AcDbSpline
 62
7
  6
CONTINUOUS
 70
0
 71
3
 72
18
 73
14
 74
12
 42
0.0000001
 43
0.0000001
 44
0.0000000001
 12
0.0454746414
 22
0.2731082435
 32
0.0
 13
0.0001837603
 23
0.2768682393
 33
0.0
 40
0.0
 40
0.0
 40
0.0
 40
0.0
 40
0.0095383847
 40
0.0277706999
 40
0.0545602868
 40
0.0896930302
 40
0.1328849971
 40
0.1837863554
 40
0.3070053342
 40
0.4553574802
 40
0.6240334776
 40
0.8075634979
 40
1.0
 40
1.0
 40
1.0
 40
1.0
 10
0.3897571521
 20
-38.0737855721
 30
0.0
 10
0.389901737
 20
-38.072917235
 30
0.0
 10
0.3900349514
 20
-38.070350535
 30
0.0
 10
0.3902756084
 20
-38.0653259312
 30
0.0
 10
0.3904765328
 20
-38.0579284197
 30
0.0
 10
0.390695527
 20
-38.0482310293
 30
0.0
 10
0.3909003231
 20
-38.0363061392
 30
0.0
 10
0.3911833813
 20
-38.0162526714
 30
0.0
 10
0.3914886225
 20
-37.9864932248
 30
0.0
 10
0.3917841034
 20
-37.945864157
 30
0.0
 10
0.3920133887
 20
-37.8996684441
 30
0.0
 10
0.3921689517
 20
-37.8494039172
 30
0.0
 10
0.3922188556
 20
-37.8147061967
 30
0.0
 10
0.392230643
 20
-37.7969463449
 30
0.0
 11
0.3897571521
 21
-38.0737855721
 31
0.0
 11
0.3899919822
 21
-38.0711551572
 31
0.0
 11
0.3902238045
 21
-38.066112533
 31
0.0
 11
0.3904507126
 21
-38.0586988172
 31
0.0
 11
0.3906708791
 21
-38.0489741662
 31
0.0
 11
0.3908825094
 21
-38.0370175525
 31
0.0
 11
0.3910838876
 21
-38.0229260188
 31
0.0
 11
0.3914494356
 21
-37.9888125481
 31
0.0
 11
0.3917556683
 21
-37.9477396832
 31
0.0
 11
0.3919926552
 21
-37.9010392478
 31
0.0
 11
0.3921527103
 21
-37.8502258551
 31
0.0
 11
0.392230643
 21
-37.7969463449
 31
0.0
  0
SPLINE
  5
652
100
AcDbEntity
  8
RACCORDO
100
AcDbSpline
 62
7
  6
CONTINUOUS
 70
0
 71
3
 72
18
 73
14
 74
12
 42
0.0000001
 43
0.0000001
 44
0.0000000001
 12
-0.0001837603
 22
0.2768682001
 32
0.0
 13
-0.0454746109
 23
0.2731082089
 33
0.0
 40
0.0
 40
0.0
 40
0.0
 40
0.0
 40
0.1924364982
 40
0.3759665155
 40
0.5446425087
 40
0.6929946509
 40
0.8162136277
 40
0.8671149859
 40
0.9103069536
 40
0.9454396988
 40
0.9722292879
 40
0.9904616075
 40
1.0
 40
1.0
 40
1.0
 40
1.0
 10
0.392230643
 20
37.7969463833
 30
0.0
 10
0.3922188556
 20
37.8147062322
 30
0.0
 10
0.3921689515
 20
37.8494039472
 30
0.0
 10
0.3920133885
 20
37.899668466
 30
0.0
 10
0.3917841032
 20
37.9458641713
 30
0.0
 10
0.3914886223
 20
37.9864932324
 30
0.0
 10
0.3911833812
 20
38.0162526743
 30
0.0
 10
0.3909003231
 20
38.0363061392
 30
0.0
 10
0.3906955269
 20
38.0482310278
 30
0.0
 10
0.3904765327
 20
38.0579284173
 30
0.0
 10
0.3902756085
 20
38.0653259285
 30
0.0
 10
0.3900349513
 20
38.0703505329
 30
0.0
 10
0.3899017371
 20
38.0729172336
 30
0.0
 10
0.3897571522
 20
38.0737855714
 30
0.0
 11
0.392230643
 21
37.7969463833
 31
0.0
 11
0.3921527102
 21
37.8502258849
 31
0.0
 11
0.391992655
 21
37.9010392696
 31
0.0
 11
0.3917556681
 21
37.9477396972
 31
0.0
 11
0.3914494355
 21
37.9888125553
 31
0.0
 11
0.3910838875
 21
38.0229260206
 31
0.0
 11
0.3908825093
 21
38.0370175523
 31
0.0
 11
0.390670879
 21
38.0489741645
 31
0.0
 11
0.3904507126
 21
38.0586988146
 31
0.0
 11
0.3902238045
 21
38.06611253
 31
0.0
 11
0.3899919822
 21
38.0711551547
 31
0.0
 11
0.3897571522
 21
38.0737855714
 31
0.0
  0
SPLINE
  5
653
100
AcDbEntity
  8
RACCORDO
100
AcDbSpline
 62
7
  6
CONTINUOUS
 70
0
 71
3
 72
18
 73
14
 74
12
 42
0.0000001
 43
0.0000001
 44
0.0000000001
 12
-0.2749357451
 22
-0.0003962947
 32
0.0
 13
-0.2611560423
 23
-0.0859496512
 33
0.0
 40
0.0
 40
0.0
 40
0.0
 40
0.0
 40
0.1925714747
 40
0.3760877017
 40
0.544662318
 40
0.6928799066
 40
0.8159791502
 40
0.8668400823
 40
0.9100117137
 40
0.945150038
 40
0.9719784129
 40
0.9902950263
 40
1.0
 40
1.0
 40
1.0
 40
1.0
 10
-57.5192064989
 20
20.4939520442
 30
0.0
 10
-57.5368547596
 20
20.4939266059
 30
0.0
 10
-57.5713213675
 20
20.493823822
 30
0.0
 10
-57.6212362206
 20
20.4935100408
 30
0.0
 10
-57.6670850564
 20
20.4930506235
 30
0.0
 10
-57.7073947092
 20
20.4924606029
 30
0.0
 10
-57.7369152877
 20
20.4918518556
 30
0.0
 10
-57.7568058879
 20
20.4912884844
 30
0.0
 10
-57.7686382876
 20
20.4908799756
 30
0.0
 10
-57.7782603126
 20
20.4904461414
 30
0.0
 10
-57.785616403
 20
20.4900408934
 30
0.0
 10
-57.7906040736
 20
20.4895717221
 30
0.0
 10
-57.793182182
 20
20.4892917547
 30
0.0
 10
-57.7940270195
 20
20.4890137083
 30
0.0
 11
-57.5192064989
 21
20.4939520442
 31
0.0
 11
-57.5721510924
 21
20.4937914895
 31
0.0
 11
-57.6226052829
 21
20.493468704
 31
0.0
 11
-57.6689500875
 21
20.492993984
 31
0.0
 11
-57.7096958553
 21
20.4923825252
 31
0.0
 11
-57.7435324295
 21
20.4916539403
 31
0.0
 11
-57.7575101805
 21
20.4912529097
 31
0.0
 11
-57.769372139
 21
20.4908316319
 31
0.0
 11
-57.77902299
 21
20.4903934927
 31
0.0
 11
-57.7863852478
 21
20.4899420311
 31
0.0
 11
-57.7913999832
 21
20.4894808506
 31
0.0
 11
-57.7940270195
 21
20.4890137083
 31
0.0
  0
SPLINE
  5
654
100
AcDbEntity
  8
RACCORDO
100
AcDbSpline
 62
7
  6
CONTINUOUS
 70
0
 71
3
 72
18
 73
14
 74
12
 42
0.0000001
 43
0.0000001
 44
0.0000000001
 12
0.2604233968
 22
-0.0874179323
 32
0.0
 13
0.2747036265
 23
-0.0003975924
 33
0.0
 40
0.0
 40
0.0
 40
0.0
 40
0.0
 40
0.0096126165
 40
0.0278377235
 40
0.0545790943
 40
0.0896380967
 40
0.1327412113
 40
0.1835474347
 40
0.3065889697
 40
0.4548290547
 40
0.6235088601
 40
0.8072020994
 40
1.0
 40
1.0
 40
1.0
 40
1.0
 10
-57.9587897651
 20
14.5075576277
 30
0.0
 10
-57.957955315
 20
14.5072775227
 30
0.0
 10
-57.9553948672
 20
14.5069998835
 30
0.0
 10
-57.9504374762
 20
14.5065288481
 30
0.0
 10
-57.9431106967
 20
14.5061243459
 30
0.0
 10
-57.933518588
 20
14.5056897645
 30
0.0
 10
-57.9217146742
 20
14.5052809739
 30
0.0
 10
-57.9018575169
 20
14.5047167087
 30
0.0
 10
-57.8723701004
 20
14.5041070221
 30
0.0
 10
-57.8320881038
 20
14.5035158855
 30
0.0
 10
-57.786250084
 20
14.5030554647
 30
0.0
 10
-57.7363308042
 20
14.5027408795
 30
0.0
 10
-57.7018563534
 20
14.5026377746
 30
0.0
 10
-57.6842022592
 20
14.5026122229
 30
0.0
 11
-57.9587897651
 21
14.5075576277
 31
0.0
 11
-57.9561908347
 21
14.5070902384
 31
0.0
 11
-57.9512056405
 21
14.5066287586
 31
0.0
 11
-57.9438735891
 21
14.5061769415
 31
0.0
 11
-57.9342527341
 21
14.5057383892
 31
0.0
 11
-57.9224196532
 21
14.5053166436
 31
0.0
 11
-57.9084687624
 21
14.5049150966
 31
0.0
 11
-57.8746766492
 21
14.5041853759
 31
0.0
 11
-57.8339591261
 21
14.5035727413
 31
0.0
 11
-57.7876245662
 21
14.5030969425
 31
0.0
 11
-57.7371643522
 21
14.5027733061
 31
0.0
 11
-57.6842022592
 21
14.5026122229
 31
0.0
  0
SPLINE
  5
655
100
AcDbEntity
  8
RACCORDO
100
AcDbSpline
 62
7
  6
CONTINUOUS
 70
0
 71
3
 72
18
 73
14
 74
12
 42
0.0000001
 43
0.0000001
 44
0.0000000001
 12
0.2611560421
 22
-0.0859496511
 32
0.0
 13
0.2749357448
 23
-0.0003962947
 33
0.0
 40
0.0
 40
0.0
 40
0.0
 40
0.0
 40
0.0097049745
 40
0.0280215858
 40
0.0548499515
 40
0.0899882734
 40
0.1331599087
 40
0.1840208395
 40
0.3071200676
 40
0.455337666
 40
0.6239122657
 40
0.8074285174
 40
1.0
 40
1.0
 40
1.0
 40
1.0
 10
-57.7940270193
 20
-20.4890137083
 30
0.0
 10
-57.7931821818
 20
-20.4892917547
 30
0.0
 10
-57.7906040734
 20
-20.4895717221
 30
0.0
 10
-57.7856164038
 20
-20.4900408933
 30
0.0
 10
-57.7782603147
 20
-20.4904461413
 30
0.0
 10
-57.7686382903
 20
-20.4908799755
 30
0.0
 10
-57.7568058907
 20
-20.4912884844
 30
0.0
 10
-57.7369152916
 20
-20.4918518555
 30
0.0
 10
-57.7073947139
 20
-20.4924606028
 30
0.0
 10
-57.6670850631
 20
-20.4930506234
 30
0.0
 10
-57.6212362258
 20
-20.4935100408
 30
0.0
 10
-57.5713213712
 20
-20.493823822
 30
0.0
 10
-57.5368547603
 20
-20.4939266059
 30
0.0
 10
-57.519206499
 20
-20.4939520442
 30
0.0
 11
-57.7940270193
 21
-20.4890137083
 31
0.0
 11
-57.7913999828
 21
-20.4894808506
 31
0.0
 11
-57.786385248
 21
-20.4899420311
 31
0.0
 11
-57.7790229927
 21
-20.4903934925
 31
0.0
 11
-57.7693721424
 21
-20.4908316318
 31
0.0
 11
-57.7575101828
 21
-20.4912529096
 31
0.0
 11
-57.7435324321
 21
-20.4916539402
 31
0.0
 11
-57.7096958622
 21
-20.4923825251
 31
0.0
 11
-57.6689500918
 21
-20.4929939839
 31
0.0
 11
-57.6226052918
 21
-20.493468704
 31
0.0
 11
-57.5721510946
 21
-20.4937914895
 31
0.0
 11
-57.519206499
 21
-20.4939520442
 31
0.0
  0
SPLINE
  5
656
100
AcDbEntity
  8
RACCORDO
100
AcDbSpline
 62
7
  6
CONTINUOUS
 70
0
 71
3
 72
18
 73
14
 74
12
 42
0.0000001
 43
0.0000001
 44
0.0000000001
 12
-0.2747036314
 22
-0.0003975922
 32
0.0
 13
-0.2604234032
 23
-0.0874179287
 33
0.0
 40
0.0
 40
0.0
 40
0.0
 40
0.0
 40
0.1927979199
 40
0.3764911768
 40
0.5451709962
 40
0.6934110902
 40
0.8164526275
 40
0.8672588492
 40
0.9103619606
 40
0.9454209564
 40
0.9721623223
 40
0.9903874144
 40
1.0
 40
1.0
 40
1.0
 40
1.0
 10
-57.6842022588
 20
-14.5026122229
 30
0.0
 10
-57.7018563551
 20
-14.5026377746
 30
0.0
 10
-57.7363308099
 20
-14.5027408795
 30
0.0
 10
-57.7862500952
 20
-14.5030554647
 30
0.0
 10
-57.8320881196
 20
-14.5035158856
 30
0.0
 10
-57.8723701192
 20
-14.5041070223
 30
0.0
 10
-57.9018575371
 20
-14.504716709
 30
0.0
 10
-57.9217146945
 20
-14.5052809743
 30
0.0
 10
-57.9335186075
 20
-14.505689765
 30
0.0
 10
-57.943110715
 20
-14.5061243463
 30
0.0
 10
-57.950437492
 20
-14.5065288491
 30
0.0
 10
-57.9553948789
 20
-14.5069998827
 30
0.0
 10
-57.957955322
 20
-14.5072775243
 30
0.0
 10
-57.9587897694
 20
-14.5075576284
 30
0.0
 11
-57.6842022588
 21
-14.5026122229
 31
0.0
 11
-57.737164358
 21
-14.5027733061
 31
0.0
 11
-57.7876245778
 21
-14.5030969425
 31
0.0
 11
-57.8339591424
 21
-14.5035727415
 31
0.0
 11
-57.8746766686
 21
-14.5041853761
 31
0.0
 11
-57.9084687831
 21
-14.504915097
 31
0.0
 11
-57.9224196736
 21
-14.505316644
 31
0.0
 11
-57.9342527539
 21
-14.5057383897
 31
0.0
 11
-57.9438736072
 21
-14.5061769421
 31
0.0
 11
-57.9512056574
 21
-14.5066287592
 31
0.0
 11
-57.9561908476
 21
-14.5070902391
 31
0.0
 11
-57.9587897694
 21
-14.5075576284
 31
0.0
  0
SPLINE
  5
657
100
AcDbEntity
  8
RACCORDO
100
AcDbSpline
 62
7
  6
CONTINUOUS
 70
0
 71
3
 72
18
 73
14
 74
12
 42
0.0000001
 43
0.0000001
 44
0.0000000001
 12
0.2749357451
 22
0.0003962947
 32
0.0
 13
0.2611560423
 23
0.0859496512
 33
0.0
 40
0.0
 40
0.0
 40
0.0
 40
0.0
 40
0.1925714747
 40
0.3760877017
 40
0.544662318
 40
0.6928799066
 40
0.8159791502
 40
0.8668400823
 40
0.9100117137
 40
0.945150038
 40
0.9719784129
 40
0.9902950263
 40
1.0
 40
1.0
 40
1.0
 40
1.0
 10
57.5192064989
 20
-20.4939520442
 30
0.0
 10
57.5368547596
 20
-20.4939266059
 30
0.0
 10
57.5713213675
 20
-20.493823822
 30
0.0
 10
57.6212362206
 20
-20.4935100408
 30
0.0
 10
57.6670850564
 20
-20.4930506235
 30
0.0
 10
57.7073947092
 20
-20.4924606029
 30
0.0
 10
57.7369152877
 20
-20.4918518556
 30
0.0
 10
57.7568058879
 20
-20.4912884844
 30
0.0
 10
57.7686382876
 20
-20.4908799756
 30
0.0
 10
57.7782603126
 20
-20.4904461414
 30
0.0
 10
57.785616403
 20
-20.4900408934
 30
0.0
 10
57.7906040736
 20
-20.4895717221
 30
0.0
 10
57.793182182
 20
-20.4892917547
 30
0.0
 10
57.7940270195
 20
-20.4890137083
 30
0.0
 11
57.5192064989
 21
-20.4939520442
 31
0.0
 11
57.5721510924
 21
-20.4937914895
 31
0.0
 11
57.6226052829
 21
-20.493468704
 31
0.0
 11
57.6689500875
 21
-20.492993984
 31
0.0
 11
57.7096958553
 21
-20.4923825252
 31
0.0
 11
57.7435324295
 21
-20.4916539403
 31
0.0
 11
57.7575101805
 21
-20.4912529097
 31
0.0
 11
57.769372139
 21
-20.4908316319
 31
0.0
 11
57.77902299
 21
-20.4903934927
 31
0.0
 11
57.7863852478
 21
-20.4899420311
 31
0.0
 11
57.7913999832
 21
-20.4894808506
 31
0.0
 11
57.7940270195
 21
-20.4890137083
 31
0.0
  0
SPLINE
  5
658
100
AcDbEntity
  8
RACCORDO
100
AcDbSpline
 62
7
  6
CONTINUOUS
 70
0
 71
3
 72
18
 73
14
 74
12
 42
0.0000001
 43
0.0000001
 44
0.0000000001
 12
-0.2604233968
 22
0.0874179323
 32
0.0
 13
-0.2747036265
 23
0.0003975924
 33
0.0
 40
0.0
 40
0.0
 40
0.0
 40
0.0
 40
0.0096126165
 40
0.0278377235
 40
0.0545790943
 40
0.0896380967
 40
0.1327412113
 40
0.1835474347
 40
0.3065889697
 40
0.4548290547
 40
0.6235088601
 40
0.8072020994
 40
1.0
 40
1.0
 40
1.0
 40
1.0
 10
57.9587897651
 20
-14.5075576277
 30
0.0
 10
57.957955315
 20
-14.5072775227
 30
0.0
 10
57.9553948672
 20
-14.5069998835
 30
0.0
 10
57.9504374762
 20
-14.5065288481
 30
0.0
 10
57.9431106967
 20
-14.5061243459
 30
0.0
 10
57.933518588
 20
-14.5056897645
 30
0.0
 10
57.9217146742
 20
-14.5052809739
 30
0.0
 10
57.9018575169
 20
-14.5047167087
 30
0.0
 10
57.8723701004
 20
-14.5041070221
 30
0.0
 10
57.8320881038
 20
-14.5035158855
 30
0.0
 10
57.786250084
 20
-14.5030554647
 30
0.0
 10
57.7363308042
 20
-14.5027408795
 30
0.0
 10
57.7018563534
 20
-14.5026377746
 30
0.0
 10
57.6842022592
 20
-14.5026122229
 30
0.0
 11
57.9587897651
 21
-14.5075576277
 31
0.0
 11
57.9561908347
 21
-14.5070902384
 31
0.0
 11
57.9512056405
 21
-14.5066287586
 31
0.0
 11
57.9438735891
 21
-14.5061769416
 31
0.0
 11
57.9342527341
 21
-14.5057383892
 31
0.0
 11
57.9224196532
 21
-14.5053166436
 31
0.0
 11
57.9084687624
 21
-14.5049150966
 31
0.0
 11
57.8746766492
 21
-14.5041853759
 31
0.0
 11
57.8339591261
 21
-14.5035727413
 31
0.0
 11
57.7876245662
 21
-14.5030969425
 31
0.0
 11
57.7371643522
 21
-14.5027733061
 31
0.0
 11
57.6842022592
 21
-14.5026122229
 31
0.0
  0
SPLINE
  5
659
100
AcDbEntity
  8
RACCORDO
100
AcDbSpline
 62
7
  6
CONTINUOUS
 70
0
 71
3
 72
18
 73
14
 74
12
 42
0.0000001
 43
0.0000001
 44
0.0000000001
 12
-0.2611560421
 22
0.0859496511
 32
0.0
 13
-0.2749357448
 23
0.0003962947
 33
0.0
 40
0.0
 40
0.0
 40
0.0
 40
0.0
 40
0.0097049745
 40
0.0280215858
 40
0.0548499515
 40
0.0899882734
 40
0.1331599087
 40
0.1840208395
 40
0.3071200676
 40
0.455337666
 40
0.6239122657
 40
0.8074285174
 40
1.0
 40
1.0
 40
1.0
 40
1.0
 10
57.7940270193
 20
20.4890137083
 30
0.0
 10
57.7931821818
 20
20.4892917547
 30
0.0
 10
57.7906040734
 20
20.4895717221
 30
0.0
 10
57.7856164038
 20
20.4900408933
 30
0.0
 10
57.7782603147
 20
20.4904461413
 30
0.0
 10
57.7686382903
 20
20.4908799755
 30
0.0
 10
57.7568058907
 20
20.4912884844
 30
0.0
 10
57.7369152916
 20
20.4918518555
 30
0.0
 10
57.7073947139
 20
20.4924606028
 30
0.0
 10
57.6670850631
 20
20.4930506234
 30
0.0
 10
57.6212362258
 20
20.4935100408
 30
0.0
 10
57.5713213712
 20
20.493823822
 30
0.0
 10
57.5368547603
 20
20.4939266059
 30
0.0
 10
57.519206499
 20
20.4939520442
 30
0.0
 11
57.7940270193
 21
20.4890137083
 31
0.0
 11
57.7913999828
 21
20.4894808506
 31
0.0
 11
57.786385248
 21
20.4899420311
 31
0.0
 11
57.7790229927
 21
20.4903934925
 31
0.0
 11
57.7693721424
 21
20.4908316318
 31
0.0
 11
57.7575101828
 21
20.4912529096
 31
0.0
 11
57.7435324321
 21
20.4916539402
 31
0.0
 11
57.7096958622
 21
20.4923825251
 31
0.0
 11
57.6689500918
 21
20.4929939839
 31
0.0
 11
57.6226052918
 21
20.493468704
 31
0.0
 11
57.5721510946
 21
20.4937914895
 31
0.0
 11
57.519206499
 21
20.4939520442
 31
0.0
  0
SPLINE
  5
65A
100
AcDbEntity
  8
RACCORDO
100
AcDbSpline
 62
7
  6
CONTINUOUS
 70
0
 71
3
 72
18
 73
14
 74
12
 42
0.0000001
 43
0.0000001
 44
0.0000000001
 12
0.2747036314
 22
0.0003975922
 32
0.0
 13
0.2604234032
 23
0.0874179287
 33
0.0
 40
0.0
 40
0.0
 40
0.0
 40
0.0
 40
0.1927979199
 40
0.3764911767
 40
0.5451709962
 40
0.6934110902
 40
0.8164526275
 40
0.8672588492
 40
0.9103619606
 40
0.9454209564
 40
0.9721623223
 40
0.9903874144
 40
1.0
 40
1.0
 40
1.0
 40
1.0
 10
57.6842022588
 20
14.5026122229
 30
0.0
 10
57.7018563551
 20
14.5026377746
 30
0.0
 10
57.7363308099
 20
14.5027408795
 30
0.0
 10
57.7862500952
 20
14.5030554647
 30
0.0
 10
57.8320881195
 20
14.5035158856
 30
0.0
 10
57.8723701192
 20
14.5041070223
 30
0.0
 10
57.9018575371
 20
14.504716709
 30
0.0
 10
57.9217146945
 20
14.5052809743
 30
0.0
 10
57.9335186075
 20
14.505689765
 30
0.0
 10
57.943110715
 20
14.5061243463
 30
0.0
 10
57.950437492
 20
14.5065288491
 30
0.0
 10
57.9553948789
 20
14.5069998827
 30
0.0
 10
57.957955322
 20
14.5072775243
 30
0.0
 10
57.9587897694
 20
14.5075576284
 30
0.0
 11
57.6842022588
 21
14.5026122229
 31
0.0
 11
57.737164358
 21
14.5027733061
 31
0.0
 11
57.7876245778
 21
14.5030969425
 31
0.0
 11
57.8339591424
 21
14.5035727415
 31
0.0
 11
57.8746766686
 21
14.5041853761
 31
0.0
 11
57.9084687831
 21
14.504915097
 31
0.0
 11
57.9224196736
 21
14.505316644
 31
0.0
 11
57.9342527539
 21
14.5057383897
 31
0.0
 11
57.9438736072
 21
14.5061769421
 31
0.0
 11
57.9512056574
 21
14.5066287592
 31
0.0
 11
57.9561908476
 21
14.5070902391
 31
0.0
 11
57.9587897694
 21
14.5075576284
 31
0.0
  0
SPLINE
  5
65B
100
AcDbEntity
  8
DRAFT
100
AcDbSpline
 62
7
  6
CONTINUOUS
 70
0
 71
3
 72
9
 73
5
 74
3
 42
0.0000001
 43
0.0000001
 44
0.0000000001
 12
0.0001540192
 22
22.1087863941
 32
0.0
 13
0.0087177115
 23
22.1087846759
 33
0.0
 40
0.0
 40
0.0
 40
0.0
 40
0.0
 40
0.2500801978
 40
1.0
 40
1.0
 40
1.0
 40
1.0
 10
-33.2965579574
 20
0.3978241682
 30
0.0
 10
-33.2965451184
 20
2.2408140595
 30
0.0
 10
-33.2961369943
 20
9.6104095173
 30
0.0
 10
-33.2943029435
 20
16.9800048965
 30
0.0
 10
-33.2921237487
 20
22.5066100405
 30
0.0
 11
-33.2965579574
 21
0.3978241682
 31
0.0
 11
-33.2962518133
 21
5.9267938336
 31
0.0
 11
-33.2921237487
 21
22.5066100405
 31
0.0
  0
SPLINE
  5
65C
100
AcDbEntity
  8
DRAFT
100
AcDbSpline
 62
7
  6
CONTINUOUS
 70
0
 71
3
 72
9
 73
5
 74
3
 42
0.0000001
 43
0.0000001
 44
0.0000000001
 12
-0.0087177115
 22
22.1087846759
 32
0.0
 13
-0.0001540192
 23
22.1087863941
 33
0.0
 40
0.0
 40
0.0
 40
0.0
 40
0.0
 40
0.2498890758
 40
1.0
 40
1.0
 40
1.0
 40
1.0
 10
-33.2921237487
 20
-22.5066100405
 30
0.0
 10
-33.2928499023
 20
-20.6650287837
 30
0.0
 10
-33.2953984661
 20
-13.2954337551
 30
0.0
 10
-33.2965194469
 20
-5.925838233
 30
0.0
 10
-33.2965579574
 20
-0.3978241682
 30
0.0
 11
-33.2921237487
 21
-22.5066100405
 31
0.0
 11
-33.2940344741
 21
-16.9818661711
 31
0.0
 11
-33.2965579574
 21
-0.3978241682
 31
0.0
  0
SPLINE
  5
65D
100
AcDbEntity
  8
DRAFT
100
AcDbSpline
 62
7
  6
CONTINUOUS
 70
0
 71
3
 72
9
 73
5
 74
3
 42
0.0000001
 43
0.0000001
 44
0.0000000001
 12
-32.1065996848
 22
-0.013049735
 32
0.0
 13
-32.1066023364
 23
-0.0001605051
 33
0.0
 40
0.0
 40
0.0
 40
0.0
 40
0.0
 40
0.2498819816
 40
1.0
 40
1.0
 40
1.0
 40
1.0
 10
32.5066020536
 20
-23.2921317356
 30
0.0
 10
29.8323151368
 20
-23.2932187001
 30
0.0
 10
19.13011503
 20
-23.2970307507
 30
0.0
 10
8.4279141581
 20
-23.2986941735
 30
0.0
 10
0.4000005169
 20
-23.2987343061
 30
0.0
 11
32.5066020536
 21
-23.2921317356
 31
0.0
 11
24.4837411496
 21
-23.2949896632
 31
0.0
 11
0.4000005169
 21
-23.2987343061
 31
0.0
  0
LINE
  5
65E
100
AcDbEntity
  8
DRAFT
100
AcDbLine
 62
7
  6
CONTINUOUS
 10
7.2741476892
 20
-0.384291638
 11
7.2920206952
 21
-0.4031569435
  0
LINE
  5
65F
100
AcDbEntity
  8
DRAFT
100
AcDbLine
 62
7
  6
CONTINUOUS
 10
-7.2920206952
 20
-0.4031569435
 11
-7.2741476892
 21
-0.384291638
  0
LINE
  5
660
100
AcDbEntity
  8
DRAFT
100
AcDbLine
 62
7
  6
CONTINUOUS
 10
-7.2741476892
 20
0.384291638
 11
-7.2920206952
 21
0.4031569435
  0
LINE
  5
661
100
AcDbEntity
  8
DRAFT
100
AcDbLine
 62
7
  6
CONTINUOUS
 10
7.2920206952
 20
0.4031569435
 11
7.2741476892
 21
0.384291638
  0
SPLINE
  5
662
100
AcDbEntity
  8
DRAFT
100
AcDbSpline
 62
7
  6
CONTINUOUS
 70
0
 71
3
 72
9
 73
5
 74
3
 42
0.0000001
 43
0.0000001
 44
0.0000000001
 12
-0.0001540192
 22
-22.1087863941
 32
0.0
 13
-0.0087177115
 23
-22.1087846759
 33
0.0
 40
0.0
 40
0.0
 40
0.0
 40
0.0
 40
0.2500801978
 40
1.0
 40
1.0
 40
1.0
 40
1.0
 10
33.2965579574
 20
-0.3978241682
 30
0.0
 10
33.2965451184
 20
-2.2408140595
 30
0.0
 10
33.2961369943
 20
-9.6104095173
 30
0.0
 10
33.2943029435
 20
-16.9800048965
 30
0.0
 10
33.2921237487
 20
-22.5066100405
 30
0.0
 11
33.2965579574
 21
-0.3978241682
 31
0.0
 11
33.2962518133
 21
-5.9267938336
 31
0.0
 11
33.2921237487
 21
-22.5066100405
 31
0.0
  0
SPLINE
  5
663
100
AcDbEntity
  8
DRAFT
100
AcDbSpline
 62
7
  6
CONTINUOUS
 70
0
 71
3
 72
9
 73
5
 74
3
 42
0.0000001
 43
0.0000001
 44
0.0000000001
 12
0.0087177115
 22
-22.1087846759
 32
0.0
 13
0.0001540192
 23
-22.1087863941
 33
0.0
 40
0.0
 40
0.0
 40
0.0
 40
0.0
 40
0.2498890758
 40
1.0
 40
1.0
 40
1.0
 40
1.0
 10
33.2921237487
 20
22.5066100405
 30
0.0
 10
33.2928499023
 20
20.6650287837
 30
0.0
 10
33.2953984661
 20
13.2954337551
 30
0.0
 10
33.2965194469
 20
5.925838233
 30
0.0
 10
33.2965579574
 20
0.3978241682
 30
0.0
 11
33.2921237487
 21
22.5066100405
 31
0.0
 11
33.2940344741
 21
16.9818661711
 31
0.0
 11
33.2965579574
 21
0.3978241682
 31
0.0
  0
SPLINE
  5
664
100
AcDbEntity
  8
DRAFT
100
AcDbSpline
 62
7
  6
CONTINUOUS
 70
0
 71
3
 72
9
 73
5
 74
3
 42
0.0000001
 43
0.0000001
 44
0.0000000001
 12
-32.1066023364
 22
0.0001605051
 32
0.0
 13
-32.1065996848
 23
0.013049735
 33
0.0
 40
0.0
 40
0.0
 40
0.0
 40
0.0
 40
0.2500850734
 40
1.0
 40
1.0
 40
1.0
 40
1.0
 10
-0.4000005169
 20
-23.2987343061
 30
0.0
 10
-3.0764611837
 20
-23.2987209261
 30
0.0
 10
-13.778661953
 20
-23.2981304021
 30
0.0
 10
-24.4808626045
 20
-23.2953937993
 30
0.0
 10
-32.5066020536
 20
-23.2921317356
 30
0.0
 11
-0.4000005169
 21
-23.2987343061
 31
0.0
 11
-8.4293825053
 21
-23.2982913424
 31
0.0
 11
-32.5066020536
 21
-23.2921317356
 31
0.0
  0
SPLINE
  5
665
100
AcDbEntity
  8
DRAFT
100
AcDbSpline
 62
7
  6
CONTINUOUS
 70
0
 71
3
 72
9
 73
5
 74
3
 42
0.0000001
 43
0.0000001
 44
0.0000000001
 12
32.1066023364
 22
-0.0001605051
 32
0.0
 13
32.1065996848
 23
-0.013049735
 33
0.0
 40
0.0
 40
0.0
 40
0.0
 40
0.0
 40
0.2500850734
 40
1.0
 40
1.0
 40
1.0
 40
1.0
 10
0.4000005169
 20
23.2987343061
 30
0.0
 10
3.0764611837
 20
23.2987209261
 30
0.0
 10
13.778661953
 20
23.2981304021
 30
0.0
 10
24.4808626045
 20
23.2953937993
 30
0.0
 10
32.5066020536
 20
23.2921317356
 30
0.0
 11
0.4000005169
 21
23.2987343061
 31
0.0
 11
8.4293825053
 21
23.2982913424
 31
0.0
 11
32.5066020536
 21
23.2921317356
 31
0.0
  0
LINE
  5
666
100
AcDbEntity
  8
DRAFT
100
AcDbLine
 62
7
  6
CONTINUOUS
 10
36.7856406461
 20
-38.7371417571
 11
37.0
 21
-38.5147169672
  0
LINE
  5
667
100
AcDbEntity
  8
RACCORDO
100
AcDbLine
 62
253
  6
CONTINUOUS
 10
41.0
 20
-38.2725161148
 11
41.2143593539
 21
-38.305486477
  0
LINE
  5
668
100
AcDbEntity
  8
DRAFT
100
AcDbLine
 62
7
  6
CONTINUOUS
 10
41.2143593539
 20
-38.5641883554
 11
41.0
 21
-38.3584726941
  0
LINE
  5
669
100
AcDbEntity
  8
RACCORDO
100
AcDbLine
 62
253
  6
CONTINUOUS
 10
36.7856406461
 20
-38.5388484843
 11
37.0
 21
-38.4891406387
  0
LINE
  5
66A
100
AcDbEntity
  8
DRAFT
100
AcDbLine
 62
7
  6
CONTINUOUS
 10
-41.214359354
 20
-38.5641883554
 11
-41.0
 21
-38.3584726941
  0
LINE
  5
66B
100
AcDbEntity
  8
RACCORDO
100
AcDbLine
 62
253
  6
CONTINUOUS
 10
-37.0
 20
-38.4891406387
 11
-36.7856406461
 21
-38.5388484843
  0
LINE
  5
66C
100
AcDbEntity
  8
DRAFT
100
AcDbLine
 62
7
  6
CONTINUOUS
 10
-36.7856406461
 20
-38.7371417571
 11
-37.0
 21
-38.5147169672
  0
LINE
  5
66D
100
AcDbEntity
  8
RACCORDO
100
AcDbLine
 62
253
  6
CONTINUOUS
 10
-41.214359354
 20
-38.305486477
 11
-41.0
 21
-38.2725161148
  0
LINE
  5
66E
100
AcDbEntity
  8
RACCORDO
100
AcDbLine
 62
253
  6
CONTINUOUS
 10
37.6679825385
 20
-37.2795158827
 11
37.992433626
 21
-36.9547378122
  0
LINE
  5
66F
100
AcDbEntity
  8
RACCORDO
100
AcDbLine
 62
253
  6
CONTINUOUS
 10
38.0589629262
 20
-37.1070005745
 11
37.992433626
 21
-36.9547378122
  0
LINE
  5
670
100
AcDbEntity
  8
RACCORDO
100
AcDbLine
 62
253
  6
CONTINUOUS
 10
37.6679825385
 20
-37.2795158827
 11
37.653924353
 21
-37.5120391478
  0
SPLINE
  5
671
100
AcDbEntity
  8
RACCORDO
100
AcDbSpline
 62
253
  6
CONTINUOUS
 70
0
 71
3
 72
8
 73
4
 74
2
 42
0.0000001
 43
0.0000001
 44
0.0000000001
 12
1.1535370175
 22
0.0422462666
 32
0.0
 13
1.1534897593
 23
0.0435175031
 33
0.0
 40
0.0
 40
0.0
 40
0.0
 40
0.0
 40
1.0
 40
1.0
 40
1.0
 40
1.0
 10
38.3267558597
 20
-36.8091605656
 30
0.0
 10
38.7112681988
 20
-36.7950784767
 30
0.0
 10
39.0957728367
 20
-36.7807845065
 30
0.0
 10
39.4802694231
 20
-36.7662786721
 30
0.0
 11
38.3267558597
 21
-36.8091605656
 31
0.0
 11
39.4802694231
 21
-36.7662786721
 31
0.0
  0
LINE
  5
672
100
AcDbEntity
  8
RACCORDO
100
AcDbLine
 62
253
  6
CONTINUOUS
 10
39.4197940243
 20
-36.9209446286
 11
39.4802694231
 21
-36.7662786721
  0
LINE
  5
673
100
AcDbEntity
  8
RACCORDO
100
AcDbLine
 62
253
  6
CONTINUOUS
 10
38.3930718729
 20
-36.961013296
 11
38.3267558597
 21
-36.8091605656
  0
LINE
  5
674
100
AcDbEntity
  8
RACCORDO
100
AcDbLine
 62
253
  6
CONTINUOUS
 10
39.852673612
 20
-36.9140685621
 11
40.1019011066
 21
-37.1649242011
  0
LINE
  5
675
100
AcDbEntity
  8
RACCORDO
100
AcDbLine
 62
253
  6
CONTINUOUS
 10
40.1144884606
 20
-37.3885249599
 11
40.1019011066
 21
-37.1649242011
  0
LINE
  5
676
100
AcDbEntity
  8
RACCORDO
100
AcDbLine
 62
253
  6
CONTINUOUS
 10
39.7928753396
 20
-37.0669118388
 11
39.852673612
 21
-36.9140685621
  0
LINE
  5
677
100
AcDbEntity
  8
RACCORDO
100
AcDbLine
 62
253
  6
CONTINUOUS
 10
-40.2057707216
 20
-37.1610034972
 11
-39.9606599357
 21
-36.9142896538
  0
LINE
  5
678
100
AcDbEntity
  8
RACCORDO
100
AcDbLine
 62
253
  6
CONTINUOUS
 10
-39.9009483381
 20
-37.0669118388
 11
-39.9606599357
 21
-36.9142896538
  0
LINE
  5
679
100
AcDbEntity
  8
RACCORDO
100
AcDbLine
 62
253
  6
CONTINUOUS
 10
-40.2057707216
 20
-37.1610034972
 11
-40.2183408633
 21
-37.384304364
  0
SPLINE
  5
67A
100
AcDbEntity
  8
RACCORDO
100
AcDbSpline
 62
253
  6
CONTINUOUS
 70
0
 71
3
 72
8
 73
4
 74
2
 42
0.0000001
 43
0.0000001
 44
0.0000000001
 12
1.1533149783
 22
-0.043504523
 32
0.0
 13
1.1533622152
 23
-0.0422336739
 33
0.0
 40
0.0
 40
0.0
 40
0.0
 40
0.0
 40
1.0
 40
1.0
 40
1.0
 40
1.0
 10
-39.5882570225
 20
-36.7664966014
 30
0.0
 10
-39.2038186964
 20
-36.780998109
 30
0.0
 10
-38.8193723225
 20
-36.795287817
 30
0.0
 10
-38.4349182508
 20
-36.8093657083
 30
0.0
 11
-39.5882570225
 21
-36.7664966014
 31
0.0
 11
-38.4349182508
 21
-36.8093657083
 31
0.0
  0
LINE
  5
67B
100
AcDbEntity
  8
RACCORDO
100
AcDbLine
 62
253
  6
CONTINUOUS
 10
-38.5011448713
 20
-36.961013296
 11
-38.4349182508
 21
-36.8093657083
  0
LINE
  5
67C
100
AcDbEntity
  8
RACCORDO
100
AcDbLine
 62
253
  6
CONTINUOUS
 10
-39.5278670228
 20
-36.9209446286
 11
-39.5882570225
 21
-36.7664966014
  0
LINE
  5
67D
100
AcDbEntity
  8
RACCORDO
100
AcDbLine
 62
253
  6
CONTINUOUS
 10
-38.1005948565
 20
-36.954940221
 11
-37.780246276
 21
-37.2756090731
  0
LINE
  5
67E
100
AcDbEntity
  8
RACCORDO
100
AcDbLine
 62
253
  6
CONTINUOUS
 10
-37.7662037007
 20
-37.5078327986
 11
-37.780246276
 21
-37.2756090731
  0
LINE
  5
67F
100
AcDbEntity
  8
RACCORDO
100
AcDbLine
 62
253
  6
CONTINUOUS
 10
-38.1670359247
 20
-37.1070005745
 11
-38.1005948565
 21
-36.954940221
  0
SPLINE
  5
680
100
AcDbEntity
  8
RACCORDO
100
AcDbSpline
 62
7
  6
CONTINUOUS
 70
0
 71
3
 72
18
 73
14
 74
12
 42
0.0000001
 43
0.0000001
 44
0.0000000001
 12
-0.1528568135
 22
0.2577060488
 32
0.0
 13
0.001615152
 23
0.2996247726
 33
0.0
 40
0.0
 40
0.0
 40
0.0
 40
0.0
 40
0.0132310924
 40
0.0345400863
 40
0.0639568249
 40
0.1013059631
 40
0.1463051331
 40
0.1985909539
 40
0.3232222009
 40
0.4710081726
 40
0.6369221197
 40
0.8152907437
 40
1.0
 40
1.0
 40
1.0
 40
1.0
 10
58.2969627901
 20
-3.5239590572
 30
0.0
 10
58.2962886359
 20
-3.5228224797
 30
0.0
 10
58.2952501179
 20
-3.519479632
 30
0.0
 10
58.293937584
 20
-3.5132493248
 30
0.0
 10
58.2926696975
 20
-3.5045296122
 30
0.0
 10
58.2914320764
 20
-3.4934391313
 30
0.0
 10
58.290261186
 20
-3.4800408373
 30
0.0
 10
58.2887080888
 20
-3.4579310975
 30
0.0
 10
58.2870923469
 20
-3.4255378511
 30
0.0
 10
58.2856432358
 20
-3.381781899
 30
0.0
 10
58.2846583259
 20
-3.3326444288
 30
0.0
 10
58.2841733313
 20
-3.2798120432
 30
0.0
 10
58.2841967215
 20
-3.2435484708
 30
0.0
 10
58.284296166
 20
-3.2251006478
 30
0.0
 11
58.2969627901
 21
-3.5239590572
 31
0.0
 11
58.2955413733
 21
-3.5202582188
 31
0.0
 11
58.2941588154
 21
-3.5140249096
 31
0.0
 11
58.2928269466
 21
-3.5053120059
 31
0.0
 11
58.2915570471
 21
-3.4941934014
 31
0.0
 11
58.2903599049
 21
-3.4807635909
 31
0.0
 11
58.2892456565
 21
-3.4651369111
 31
0.0
 11
58.2873027928
 21
-3.4278443347
 31
0.0
 11
58.2857939827
 21
-3.3835890659
 31
0.0
 11
58.2847699864
 21
-3.3338869624
 31
0.0
 11
58.2842651284
 21
-3.2804449121
 31
0.0
 11
58.284296166
 21
-3.2251006478
 31
0.0
  0
SPLINE
  5
681
100
AcDbEntity
  8
RACCORDO
100
AcDbSpline
 62
7
  6
CONTINUOUS
 70
0
 71
3
 72
18
 73
14
 74
12
 42
0.0000001
 43
0.0000001
 44
0.0000000001
 12
-0.001615152
 22
0.2996247726
 32
0.0
 13
0.1528568135
 23
0.2577060488
 33
0.0
 40
0.0
 40
0.0
 40
0.0
 40
0.0
 40
0.1847092471
 40
0.3630778498
 40
0.5289918139
 40
0.6767777752
 40
0.8014090367
 40
0.8536948566
 40
0.8986940225
 40
0.936043163
 40
0.9654599112
 40
0.9867689078
 40
1.0
 40
1.0
 40
1.0
 40
1.0
 10
58.284296166
 20
3.2251006478
 30
0.0
 10
58.2841967215
 20
3.2435484699
 30
0.0
 10
58.2841733313
 20
3.2798120392
 30
0.0
 10
58.2846583258
 20
3.3326444235
 30
0.0
 10
58.2856432356
 20
3.3817818922
 30
0.0
 10
58.2870923467
 20
3.4255378464
 30
0.0
 10
58.2887080885
 20
3.4579310931
 30
0.0
 10
58.2902611857
 20
3.4800408339
 30
0.0
 10
58.291432076
 20
3.4934391276
 30
0.0
 10
58.2926696972
 20
3.5045296093
 30
0.0
 10
58.2939375837
 20
3.5132493234
 30
0.0
 10
58.2952501179
 20
3.5194796318
 30
0.0
 10
58.2962886359
 20
3.5228224797
 30
0.0
 10
58.2969627901
 20
3.5239590572
 30
0.0
 11
58.284296166
 21
3.2251006478
 31
0.0
 11
58.2842651284
 21
3.2804449093
 31
0.0
 11
58.2847699863
 21
3.3338869532
 31
0.0
 11
58.2857939826
 21
3.3835890619
 31
0.0
 11
58.2873027925
 21
3.4278443275
 31
0.0
 11
58.2892456563
 21
3.4651369082
 31
0.0
 11
58.2903599047
 21
3.4807635878
 31
0.0
 11
58.2915570467
 21
3.4941933971
 31
0.0
 11
58.2928269461
 21
3.5053120023
 31
0.0
 11
58.2941588153
 21
3.5140249088
 31
0.0
 11
58.2955413733
 21
3.5202582188
 31
0.0
 11
58.2969627901
 21
3.5239590572
 31
0.0
  0
SPLINE
  5
682
100
AcDbEntity
  8
RACCORDO
100
AcDbSpline
 62
7
  6
CONTINUOUS
 70
0
 71
3
 72
18
 73
14
 74
12
 42
0.0000001
 43
0.0000001
 44
0.0000000001
 12
0.001615152
 22
-0.2996247726
 32
0.0
 13
-0.1528568135
 23
-0.2577060488
 33
0.0
 40
0.0
 40
0.0
 40
0.0
 40
0.0
 40
0.1847092563
 40
0.3630778803
 40
0.5289918274
 40
0.6767777991
 40
0.8014090461
 40
0.8536948669
 40
0.8986940369
 40
0.9360431751
 40
0.9654599137
 40
0.9867689076
 40
1.0
 40
1.0
 40
1.0
 40
1.0
 10
-58.284296166
 20
-3.2251006478
 30
0.0
 10
-58.2841967215
 20
-3.2435484708
 30
0.0
 10
-58.2841733313
 20
-3.2798120432
 30
0.0
 10
-58.2846583259
 20
-3.3326444288
 30
0.0
 10
-58.2856432358
 20
-3.381781899
 30
0.0
 10
-58.2870923469
 20
-3.4255378511
 30
0.0
 10
-58.2887080888
 20
-3.4579310975
 30
0.0
 10
-58.290261186
 20
-3.4800408373
 30
0.0
 10
-58.2914320764
 20
-3.4934391313
 30
0.0
 10
-58.2926696975
 20
-3.5045296122
 30
0.0
 10
-58.293937584
 20
-3.5132493248
 30
0.0
 10
-58.2952501179
 20
-3.519479632
 30
0.0
 10
-58.2962886359
 20
-3.5228224797
 30
0.0
 10
-58.2969627901
 20
-3.5239590572
 30
0.0
 11
-58.284296166
 21
-3.2251006478
 31
0.0
 11
-58.2842651284
 21
-3.2804449121
 31
0.0
 11
-58.2847699864
 21
-3.3338869624
 31
0.0
 11
-58.2857939827
 21
-3.3835890659
 31
0.0
 11
-58.2873027928
 21
-3.4278443347
 31
0.0
 11
-58.2892456565
 21
-3.4651369111
 31
0.0
 11
-58.2903599049
 21
-3.4807635909
 31
0.0
 11
-58.2915570471
 21
-3.4941934014
 31
0.0
 11
-58.2928269466
 21
-3.5053120059
 31
0.0
 11
-58.2941588154
 21
-3.5140249096
 31
0.0
 11
-58.2955413733
 21
-3.5202582188
 31
0.0
 11
-58.2969627901
 21
-3.5239590572
 31
0.0
  0
SPLINE
  5
683
100
AcDbEntity
  8
RACCORDO
100
AcDbSpline
 62
7
  6
CONTINUOUS
 70
0
 71
3
 72
18
 73
14
 74
12
 42
0.0000001
 43
0.0000001
 44
0.0000000001
 12
0.1528568136
 22
-0.2577060488
 32
0.0
 13
-0.001615152
 23
-0.2996247726
 33
0.0
 40
0.0
 40
0.0
 40
0.0
 40
0.0
 40
0.0132310922
 40
0.0345400888
 40
0.063956837
 40
0.1013059775
 40
0.1463051434
 40
0.1985909633
 40
0.3232222248
 40
0.4710081861
 40
0.6369221502
 40
0.8152907529
 40
1.0
 40
1.0
 40
1.0
 40
1.0
 10
-58.2969627901
 20
3.5239590572
 30
0.0
 10
-58.2962886359
 20
3.5228224797
 30
0.0
 10
-58.2952501179
 20
3.5194796318
 30
0.0
 10
-58.2939375837
 20
3.5132493234
 30
0.0
 10
-58.2926696972
 20
3.5045296093
 30
0.0
 10
-58.291432076
 20
3.4934391276
 30
0.0
 10
-58.2902611857
 20
3.4800408339
 30
0.0
 10
-58.2887080885
 20
3.4579310931
 30
0.0
 10
-58.2870923467
 20
3.4255378464
 30
0.0
 10
-58.2856432356
 20
3.3817818922
 30
0.0
 10
-58.2846583258
 20
3.3326444235
 30
0.0
 10
-58.2841733313
 20
3.2798120392
 30
0.0
 10
-58.2841967215
 20
3.2435484699
 30
0.0
 10
-58.284296166
 20
3.2251006478
 30
0.0
 11
-58.2969627901
 21
3.5239590572
 31
0.0
 11
-58.2955413733
 21
3.5202582188
 31
0.0
 11
-58.2941588153
 21
3.5140249088
 31
0.0
 11
-58.2928269461
 21
3.5053120023
 31
0.0
 11
-58.2915570467
 21
3.4941933971
 31
0.0
 11
-58.2903599047
 21
3.4807635878
 31
0.0
 11
-58.2892456563
 21
3.4651369082
 31
0.0
 11
-58.2873027925
 21
3.4278443275
 31
0.0
 11
-58.2857939826
 21
3.3835890619
 31
0.0
 11
-58.2847699863
 21
3.3338869532
 31
0.0
 11
-58.2842651284
 21
3.2804449093
 31
0.0
 11
-58.284296166
 21
3.2251006478
 31
0.0
  0
SPLINE
  5
684
100
AcDbEntity
  8
RACCORDO
100
AcDbSpline
 62
253
  6
CONTINUOUS
 70
0
 71
3
 72
20
 73
16
 74
14
 42
0.0000001
 43
0.0000001
 44
0.0000000001
 12
-0.1864734889
 22
0.2057766403
 32
0.0
 13
0.0085933778
 23
0.2775653826
 33
0.0
 40
0.0
 40
0.0
 40
0.0
 40
0.0
 40
0.0044061539
 40
0.01073469
 40
0.0295336744
 40
0.0566452048
 40
0.0919549384
 40
0.1352216404
 40
0.1861186606
 40
0.244247407
 40
0.3091455758
 40
0.4571173467
 40
0.6252800647
 40
0.8082083274
 40
1.0
 40
1.0
 40
1.0
 40
1.0
 10
-37.4456385311
 20
-37.4212679408
 30
0.0
 10
-37.445912408
 20
-37.4209657129
 30
0.0
 10
-37.4464046531
 20
-37.4200829311
 30
0.0
 10
-37.447327892
 20
-37.4175113726
 30
0.0
 10
-37.4482961008
 20
-37.4127517322
 30
0.0
 10
-37.4493107254
 20
-37.4053071103
 30
0.0
 10
-37.4502151509
 20
-37.3955608259
 30
0.0
 10
-37.45100966
 20
-37.3836026375
 30
0.0
 10
-37.4516755831
 20
-37.3695201963
 30
0.0
 10
-37.4522074415
 20
-37.3534292394
 30
0.0
 10
-37.4527519716
 20
-37.3283493799
 30
0.0
 10
-37.4530158838
 20
-37.2930779913
 30
0.0
 10
-37.4527484478
 20
-37.2468814909
 30
0.0
 10
-37.4519061949
 20
-37.1966351279
 30
0.0
 10
-37.4509898491
 20
-37.1619602748
 30
0.0
 10
-37.4504404697
 20
-37.1442153651
 30
0.0
 11
-37.4456385311
 21
-37.4212679408
 31
0.0
 11
-37.4462901055
 21
-37.4202322752
 31
0.0
 11
-37.4469177746
 21
-37.4185907603
 31
0.0
 11
-37.4480955259
 21
-37.4135049001
 31
0.0
 11
-37.449161978
 21
-37.4060519859
 31
0.0
 11
-37.4501086442
 21
-37.3962923351
 31
0.0
 11
-37.4509277718
 21
-37.3843051967
 31
0.0
 11
-37.4516127241
 21
-37.3701877835
 31
0.0
 11
-37.4521579394
 21
-37.3540547352
 31
0.0
 11
-37.4525589958
 21
-37.3360370821
 31
0.0
 11
-37.4529168125
 21
-37.2949471197
 31
0.0
 11
-37.4526745611
 21
-37.2482492344
 31
0.0
 11
-37.4518401139
 21
-37.197457207
 31
0.0
 11
-37.4504404697
 21
-37.1442153651
 31
0.0
  0
SPLINE
  5
685
100
AcDbEntity
  8
RACCORDO
100
AcDbSpline
 62
253
  6
CONTINUOUS
 70
0
 71
3
 72
21
 73
17
 74
15
 42
0.0000001
 43
0.0000001
 44
0.0000000001
 12
0.2526501674
 22
0.1028183719
 32
0.0
 13
0.1932341095
 23
0.1925209174
 33
0.0
 40
0.0
 40
0.0
 40
0.0
 40
0.0
 40
0.0029456832
 40
0.0080872799
 40
0.015438713
 40
0.0249920624
 40
0.0506331292
 40
0.0848144764
 40
0.1272619754
 40
0.1776321688
 40
0.2355155727
 40
0.3004408523
 40
0.4492485856
 40
0.6192160035
 40
0.8048109785
 40
1.0
 40
1.0
 40
1.0
 40
1.0
 10
-37.7802462018
 20
-37.2756089988
 30
0.0
 10
-37.779998126
 20
-37.2755080421
 30
0.0
 10
-37.7793844913
 20
-37.2750884208
 30
0.0
 10
-37.7782680827
 20
-37.2742450924
 30
0.0
 10
-37.7767234873
 20
-37.272963156
 30
0.0
 10
-37.7737940338
 20
-37.2704385553
 30
0.0
 10
-37.7691070082
 20
-37.2662147928
 30
0.0
 10
-37.7622772174
 20
-37.2599050625
 30
0.0
 10
-37.7538635849
 20
-37.2519958494
 30
0.0
 10
-37.7439342146
 20
-37.2425534352
 30
0.0
 10
-37.7325712172
 20
-37.2316528993
 30
0.0
 10
-37.7148077168
 20
-37.2144957679
 30
0.0
 10
-37.6898174191
 20
-37.1901518738
 30
0.0
 10
-37.6570935811
 20
-37.1580237886
 30
0.0
 10
-37.6214735026
 20
-37.1228265252
 30
0.0
 10
-37.5969146659
 20
-37.0984223396
 30
0.0
 10
-37.5843422737
 20
-37.0858963498
 30
0.0
 11
-37.7802462018
 21
-37.2756089988
 31
0.0
 11
-37.7795549338
 21
-37.2751994219
 31
0.0
 11
-37.7784326445
 21
-37.2743583482
 31
0.0
 11
-37.7768816153
 21
-37.2730873835
 31
0.0
 11
-37.7749050939
 21
-37.27138917
 31
0.0
 11
-37.7696925395
 21
-37.2667257945
 31
0.0
 11
-37.7628373658
 21
-37.2604062009
 31
0.0
 11
-37.754395482
 21
-37.2524819029
 31
0.0
 11
-37.7444356567
 21
-37.2430174555
 31
0.0
 11
-37.7330391303
 21
-37.2320900585
 31
0.0
 11
-37.7202988787
 21
-37.2197888631
 31
0.0
 11
-37.6912128474
 21
-37.1914766814
 31
0.0
 11
-37.6581241773
 21
-37.1590023316
 31
0.0
 11
-37.6221102811
 21
-37.1234232311
 31
0.0
 11
-37.5843422737
 21
-37.0858963498
 31
0.0
  0
SPLINE
  5
686
100
AcDbEntity
  8
RACCORDO
100
AcDbSpline
 62
253
  6
CONTINUOUS
 70
0
 71
3
 72
20
 73
16
 74
14
 42
0.0000001
 43
0.0000001
 44
0.0000000001
 12
0.2506422684
 22
0.1076935602
 32
0.0
 13
0.1932351098
 23
0.1925607487
 33
0.0
 40
0.0
 40
0.0
 40
0.0
 40
0.0
 40
0.0029363092
 40
0.0080727622
 40
0.0249709442
 40
0.0506095153
 40
0.0847901281
 40
0.1272381333
 40
0.177609763
 40
0.2354953035
 40
0.3004232228
 40
0.4492370248
 40
0.6192103529
 40
0.8048096513
 40
1.0
 40
1.0
 40
1.0
 40
1.0
 10
-38.1005960967
 20
-36.9549389795
 30
0.0
 10
-38.1003507757
 20
-36.9548335723
 30
0.0
 10
-38.0997430216
 20
-36.9544089372
 30
0.0
 10
-38.09794792
 20
-36.9530283404
 30
0.0
 10
-38.0946769392
 20
-36.9501707192
 30
0.0
 10
-38.0894996514
 20
-36.9455009855
 30
0.0
 10
-38.0826855091
 20
-36.9391697582
 30
0.0
 10
-38.0742829982
 20
-36.9312481384
 30
0.0
 10
-38.0643654103
 20
-36.9217902563
 30
0.0
 10
-38.0530128455
 20
-36.9108757994
 30
0.0
 10
-38.0352628054
 20
-36.8936995143
 30
0.0
 10
-38.0102860321
 20
-36.8693346196
 30
0.0
 10
-37.9775735616
 20
-36.8371859295
 30
0.0
 10
-37.9419602906
 20
-36.8019727719
 30
0.0
 10
-37.9174026703
 20
-36.77756145
 30
0.0
 10
-37.9048301275
 20
-36.7650327834
 30
0.0
 11
-38.1005960967
 21
-36.9549389795
 31
0.0
 11
-38.0999122864
 21
-36.954521797
 31
0.0
 11
-38.098797364
 21
-36.9536730522
 31
0.0
 11
-38.0952842075
 21
-36.9506884085
 31
0.0
 11
-38.090085502
 21
-36.9460095124
 31
0.0
 11
-38.0832435286
 21
-36.9396744745
 31
0.0
 11
-38.0748140982
 21
-36.9317349446
 31
0.0
 11
-38.0648658907
 21
-36.9222556136
 31
0.0
 11
-38.0534800664
 21
-36.9113138166
 31
0.0
 11
-38.040749531
 21
-36.8989988387
 31
0.0
 11
-38.011679743
 21
-36.8706614625
 31
0.0
 11
-37.9786027836
 21
-36.838165893
 31
0.0
 11
-37.9425958789
 21
-36.8025704297
 31
0.0
 11
-37.9048301275
 21
-36.7650327834
 31
0.0
  0
SPLINE
  5
687
100
AcDbEntity
  8
RACCORDO
100
AcDbSpline
 62
253
  6
CONTINUOUS
 70
0
 71
3
 72
20
 73
16
 74
14
 42
0.0000001
 43
0.0000001
 44
0.0000000001
 12
-0.2256710071
 22
0.1630799881
 32
0.0
 13
0.0090913607
 23
0.2782801343
 33
0.0
 40
0.0
 40
0.0
 40
0.0
 40
0.0
 40
0.0038287653
 40
0.0095143653
 40
0.027080404
 40
0.0531381267
 40
0.0876059408
 40
0.1302521309
 40
0.1807504294
 40
0.2386971205
 40
0.3036205212
 40
0.4522093563
 40
0.6216231992
 40
0.8062567306
 40
1.0
 40
1.0
 40
1.0
 40
1.0
 10
-38.4349166691
 20
-36.8093658661
 30
0.0
 10
-38.4352046829
 20
-36.8091577344
 30
0.0
 10
-38.435736853
 20
-36.8084163037
 30
0.0
 10
-38.4367121258
 20
-36.8061050274
 30
0.0
 10
-38.4377256343
 20
-36.8016088493
 30
0.0
 10
-38.4387872718
 20
-36.7944487628
 30
0.0
 10
-38.4397341202
 20
-36.7849127269
 30
0.0
 10
-38.4405663828
 20
-36.773099375
 30
0.0
 10
-38.4412627267
 20
-36.7590925221
 30
0.0
 10
-38.4418172837
 20
-36.743011607
 30
0.0
 10
-38.4423823778
 20
-36.7178234023
 30
0.0
 10
-38.4426455
 20
-36.6822833542
 30
0.0
 10
-38.4423432341
 20
-36.6356338341
 30
0.0
 10
-38.4414325602
 20
-36.5848008347
 30
0.0
 10
-38.4404510317
 20
-36.5496969387
 30
0.0
 10
-38.4398639017
 20
-36.5317253044
 30
0.0
 11
-38.4349166691
 21
-36.8093658661
 31
0.0
 11
-38.4356023029
 21
-36.8085495679
 31
0.0
 11
-38.4362627707
 21
-36.8071108956
 31
0.0
 11
-38.4375018701
 21
-36.8023795729
 31
0.0
 11
-38.4386233823
 21
-36.7952115635
 31
0.0
 11
-38.4396181515
 21
-36.7856664344
 31
0.0
 11
-38.4404778197
 21
-36.7738236761
 31
0.0
 11
-38.4411952416
 21
-36.7597818207
 31
0.0
 11
-38.4417644408
 21
-36.7436578482
 31
0.0
 11
-38.4421806814
 21
-36.7255861095
 31
0.0
 11
-38.4425417312
 21
-36.6842163034
 31
0.0
 11
-38.4422663689
 21
-36.6370474479
 31
0.0
 11
-38.4413637728
 21
-36.5856481164
 31
0.0
 11
-38.4398639017
 21
-36.5317253044
 31
0.0
  0
SPLINE
  5
688
100
AcDbEntity
  8
RACCORDO
100
AcDbSpline
 62
253
  6
CONTINUOUS
 70
0
 71
3
 72
20
 73
16
 74
14
 42
0.0000001
 43
0.0000001
 44
0.0000000001
 12
-0.2277321936
 22
0.1602914231
 32
0.0
 13
0.0093666025
 23
0.2783299464
 33
0.0
 40
0.0
 40
0.0
 40
0.0
 40
0.0
 40
0.0038801021
 40
0.0095994531
 40
0.0272059377
 40
0.0532862759
 40
0.0877663181
 40
0.130417501
 40
0.1809152285
 40
0.2388568249
 40
0.3037713414
 40
0.4523331632
 40
0.6217107871
 40
0.8063020563
 40
1.0
 40
1.0
 40
1.0
 40
1.0
 10
-39.5882587762
 20
-36.7664965352
 30
0.0
 10
-39.5885533176
 20
-36.7662892195
 30
0.0
 10
-39.5891017157
 20
-36.7655493673
 30
0.0
 10
-39.5901062019
 20
-36.7632363
 30
0.0
 10
-39.5911516188
 20
-36.7587366024
 30
0.0
 10
-39.5922449441
 20
-36.7515724729
 30
0.0
 10
-39.5932204667
 20
-36.7420334371
 30
0.0
 10
-39.5940776111
 20
-36.7302177418
 30
0.0
 10
-39.5947948323
 20
-36.7162089894
 30
0.0
 10
-39.5953659671
 20
-36.7001265713
 30
0.0
 10
-39.5959479324
 20
-36.6749371969
 30
0.0
 10
-39.5962188632
 20
-36.6393962684
 30
0.0
 10
-39.5959074324
 20
-36.5927466681
 30
0.0
 10
-39.5949693513
 20
-36.5419148449
 30
0.0
 10
-39.593958328
 20
-36.5068124484
 30
0.0
 10
-39.5933535642
 20
-36.4888418022
 30
0.0
 11
-39.5882587762
 21
-36.7664965352
 31
0.0
 11
-39.5889649524
 21
-36.7656786568
 31
0.0
 11
-39.5896452064
 21
-36.764238461
 31
0.0
 11
-39.5909214208
 21
-36.7595042758
 31
0.0
 11
-39.5920765177
 21
-36.7523336675
 31
0.0
 11
-39.5931010675
 21
-36.742786222
 31
0.0
 11
-39.5939864625
 21
-36.7309414458
 31
0.0
 11
-39.5947253437
 21
-36.7168978837
 31
0.0
 11
-39.5953115562
 21
-36.7007725248
 31
0.0
 11
-39.5957402229
 21
-36.6826997258
 31
0.0
 11
-39.5961119886
 21
-36.6413287846
 31
0.0
 11
-39.5958282627
 21
-36.5941600854
 31
0.0
 11
-39.5948985014
 21
-36.5427621316
 31
0.0
 11
-39.5933535642
 21
-36.4888418022
 31
0.0
  0
SPLINE
  5
689
100
AcDbEntity
  8
RACCORDO
100
AcDbSpline
 62
253
  6
CONTINUOUS
 70
0
 71
3
 72
17
 73
13
 74
11
 42
0.0000001
 43
0.0000001
 44
0.0000000001
 12
-0.2729118932
 22
-0.1240821914
 32
0.0
 13
-0.212892842
 23
0.2110780175
 33
0.0
 40
0.0
 40
0.0
 40
0.0
 40
0.0
 40
0.0118078129
 40
0.0307901093
 40
0.0578834454
 40
0.093197835
 40
0.1876640104
 40
0.3113704319
 40
0.460067123
 40
0.6284977598
 40
0.8106499855
 40
1.0
 40
1.0
 40
1.0
 40
1.0
 10
-39.9606588553
 20
-36.9142886999
 30
0.0
 10
-39.9617330195
 20
-36.9147770797
 30
0.0
 10
-39.9650222166
 20
-36.9145743217
 30
0.0
 10
-39.9703990313
 20
-36.9125927828
 30
0.0
 10
-39.9776731306
 20
-36.9088520141
 30
0.0
 10
-39.9909886181
 20
-36.9005937129
 30
0.0
 10
-40.0114886033
 20
-36.8856494776
 30
0.0
 10
-40.0400636243
 20
-36.8626832117
 30
0.0
 10
-40.0734837974
 20
-36.8339671305
 30
0.0
 10
-40.1105278027
 20
-36.8005393423
 30
0.0
 10
-40.1498491532
 20
-36.7635865695
 30
0.0
 10
-40.1764402667
 20
-36.7376764746
 30
0.0
 10
-40.1898773542
 20
-36.7243539327
 30
0.0
 11
-39.9606588553
 21
-36.9142886999
 31
0.0
 11
-39.9641926867
 21
-36.9144963702
 31
0.0
 11
-39.9696180895
 21
-36.9127787349
 31
0.0
 11
-39.9768855383
 21
-36.9091512686
 31
0.0
 11
-39.9859292862
 21
-36.9036469845
 31
0.0
 11
-40.0090018704
 21
-36.8872241932
 31
0.0
 11
-40.0380004471
 21
-36.8641049417
 31
0.0
 11
-40.0718750455
 21
-36.8351262951
 31
0.0
 11
-40.1093989886
 21
-36.8013376618
 31
0.0
 11
-40.1492134048
 21
-36.763962672
 31
0.0
 11
-40.1898773542
 21
-36.7243539327
 31
0.0
  0
SPLINE
  5
68A
100
AcDbEntity
  8
RACCORDO
100
AcDbSpline
 62
253
  6
CONTINUOUS
 70
0
 71
3
 72
17
 73
13
 74
11
 42
0.0000001
 43
0.0000001
 44
0.0000000001
 12
-0.2726572011
 22
-0.1246644539
 32
0.0
 13
-0.212907611
 23
0.2110770583
 33
0.0
 40
0.0
 40
0.0
 40
0.0
 40
0.0
 40
0.0118487765
 40
0.0308542093
 40
0.057960864
 40
0.0932824139
 40
0.1877505842
 40
0.311448176
 40
0.4601290017
 40
0.628539653
 40
0.8106704129
 40
1.0
 40
1.0
 40
1.0
 40
1.0
 10
-40.2057707216
 20
-37.1610034972
 30
0.0
 10
-40.2068476063
 20
-37.161495871
 30
0.0
 10
-40.2101436721
 20
-37.1613060078
 30
0.0
 10
-40.2155341628
 20
-37.1593346146
 30
0.0
 10
-40.222819133
 20
-37.1556058377
 30
0.0
 10
-40.2361492917
 20
-37.1473651679
 30
0.0
 10
-40.2566649792
 20
-37.1324408799
 30
0.0
 10
-40.2852553939
 20
-37.1094952425
 30
0.0
 10
-40.3186874705
 20
-37.0807975731
 30
0.0
 10
-40.3557397503
 20
-37.0473849888
 30
0.0
 10
-40.3950655865
 20
-37.010443386
 30
0.0
 10
-40.4216569814
 20
-36.9845377961
 30
0.0
 10
-40.4350935515
 20
-36.971216752
 30
0.0
 11
-40.2057707216
 21
-37.1610034972
 31
0.0
 11
-40.2093162411
 21
-37.1612232824
 31
0.0
 11
-40.2147529757
 21
-37.1595179081
 31
0.0
 11
-40.2220313027
 21
-37.1559027342
 31
0.0
 11
-40.2310853862
 21
-37.1504106591
 31
0.0
 11
-40.2541766892
 21
-37.1340115637
 31
0.0
 11
-40.2831909228
 21
-37.1109142656
 31
0.0
 11
-40.3170776888
 21
-37.0819549238
 31
0.0
 11
-40.3546100323
 21
-37.0481821084
 31
0.0
 11
-40.3944289575
 21
-37.0108187149
 31
0.0
 11
-40.4350935515
 21
-36.971216752
 31
0.0
  0
SPLINE
  5
68B
100
AcDbEntity
  8
RACCORDO
100
AcDbSpline
 62
253
  6
CONTINUOUS
 70
0
 71
3
 72
19
 73
15
 74
13
 42
0.0000001
 43
0.0000001
 44
0.0000000001
 12
-0.1940934022
 22
0.1988060215
 32
0.0
 13
0.0093160606
 23
0.2776856028
 33
0.0
 40
0.0
 40
0.0
 40
0.0
 40
0.0
 40
0.0045236638
 40
0.0109321087
 40
0.0298307063
 40
0.0569997829
 40
0.0923416478
 40
0.1356224782
 40
0.1865196779
 40
0.3095122687
 40
0.4574192821
 40
0.6254940744
 40
0.8083192002
 40
1.0
 40
1.0
 40
1.0
 40
1.0
 10
-40.5794573802
 20
-37.3074345542
 30
0.0
 10
-40.5797500513
 20
-37.307134777
 30
0.0
 10
-40.5802842517
 20
-37.3062534711
 30
0.0
 10
-40.5812839619
 20
-37.3036784457
 30
0.0
 10
-40.5823364117
 20
-37.2989095965
 30
0.0
 10
-40.5834356688
 20
-37.2914552723
 30
0.0
 10
-40.5844163705
 20
-37.2817011533
 30
0.0
 10
-40.5852775499
 20
-37.2697369501
 30
0.0
 10
-40.5863048508
 20
-37.2496485621
 30
0.0
 10
-40.5871177863
 20
-37.2198535657
 30
0.0
 10
-40.587452957
 20
-37.1791982988
 30
0.0
 10
-40.5871615498
 20
-37.1330013332
 30
0.0
 10
-40.5862496091
 20
-37.0827581278
 30
0.0
 10
-40.5852566508
 20
-37.0480871614
 30
0.0
 10
-40.5846614141
 20
-37.0303448286
 30
0.0
 11
-40.5794573802
 21
-37.3074345542
 31
0.0
 11
-40.5801634135
 21
-37.306394736
 31
0.0
 11
-40.580843544
 21
-37.3047492197
 31
0.0
 11
-40.5821197363
 21
-37.2996558462
 31
0.0
 11
-40.5832753316
 21
-37.2921961168
 31
0.0
 11
-40.584301135
 21
-37.2824303964
 31
0.0
 11
-40.5851887465
 21
-37.2704379744
 31
0.0
 11
-40.5859309755
 21
-37.2563160951
 31
0.0
 11
-40.586956416
 21
-37.2221589976
 31
0.0
 11
-40.5873442497
 21
-37.1810660723
 31
0.0
 11
-40.5870818905
 21
-37.1343686013
 31
0.0
 11
-40.586177863
 21
-37.0835801788
 31
0.0
 11
-40.5846614141
 21
-37.0303448286
 31
0.0
  0
SPLINE
  5
68C
100
AcDbEntity
  8
RACCORDO
100
AcDbSpline
 62
253
  6
CONTINUOUS
 70
0
 71
3
 72
18
 73
14
 74
12
 42
0.0000001
 43
0.0000001
 44
0.0000000001
 12
-0.2213013102
 22
0.1693874998
 32
0.0
 13
0.0129460338
 23
0.2783860542
 33
0.0
 40
0.0
 40
0.0
 40
0.0
 40
0.0
 40
0.0119962495
 40
0.0315017748
 40
0.0590279952
 40
0.0945734384
 40
0.1379485243
 40
0.1888551942
 40
0.3116683919
 40
0.459199092
 40
0.6267573484
 40
0.8089740863
 40
1.0
 40
1.0
 40
1.0
 40
1.0
 10
-56.270979522
 20
-36.5997249857
 30
0.0
 10
-56.2718644506
 20
-36.5990476475
 30
0.0
 10
-56.2733416159
 20
-36.5963598417
 30
0.0
 10
-56.2749626486
 20
-36.5911734912
 30
0.0
 10
-56.2764871864
 20
-36.5836183511
 30
0.0
 10
-56.2778515847
 20
-36.5738323407
 30
0.0
 10
-56.2790455728
 20
-36.5618249423
 30
0.0
 10
-56.2804701138
 20
-36.5417080136
 30
0.0
 10
-56.2815982605
 20
-36.5118786069
 30
0.0
 10
-56.28206441
 20
-36.4711999222
 30
0.0
 10
-56.2816621375
 20
-36.4250012037
 30
0.0
 10
-56.280399916
 20
-36.3747772808
 30
0.0
 10
-56.2790248576
 20
-36.3401305567
 30
0.0
 10
-56.278200515
 20
-36.3224042399
 30
0.0
 11
-56.270979522
 21
-36.5997249857
 31
0.0
 11
-56.2729007352
 21
-36.5969889464
 31
0.0
 11
-56.2746695765
 21
-36.5918488506
 31
0.0
 11
-56.2762713294
 21
-36.5843467404
 31
0.0
 11
-56.277693258
 21
-36.5745432746
 31
0.0
 11
-56.2789237268
 21
-36.5625179949
 31
0.0
 11
-56.2799527749
 21
-36.5483683422
 31
0.0
 11
-56.281374923
 21
-36.5141714701
 31
0.0
 11
-56.2819136816
 21
-36.4730601248
 31
0.0
 11
-56.2815515794
 21
-36.4263652357
 31
0.0
 11
-56.2803003741
 21
-36.3755992323
 31
0.0
 11
-56.278200515
 21
-36.3224042399
 31
0.0
  0
SPLINE
  5
68D
100
AcDbEntity
  8
RACCORDO
100
AcDbSpline
 62
253
  6
CONTINUOUS
 70
0
 71
3
 72
18
 73
14
 74
12
 42
0.0000001
 43
0.0000001
 44
0.0000000001
 12
0.1819350086
 22
-0.2071599475
 32
0.0
 13
0.2753569214
 23
0.0139340233
 33
0.0
 40
0.0
 40
0.0
 40
0.0
 40
0.0
 40
0.0114811694
 40
0.0306848009
 40
0.0580065004
 40
0.0934029416
 40
0.1366675349
 40
0.1874952808
 40
0.3102413451
 40
0.4578379654
 40
0.6256281442
 40
0.8082842192
 40
1.0
 40
1.0
 40
1.0
 40
1.0
 10
-57.1177259854
 20
-35.7563652408
 30
0.0
 10
-57.1170297098
 20
-35.7571580536
 30
0.0
 10
-57.1143474395
 20
-35.7583907918
 30
0.0
 10
-57.1092517752
 20
-35.7597520468
 30
0.0
 10
-57.1017883542
 20
-35.7609943246
 30
0.0
 10
-57.0921192892
 20
-35.7620847085
 30
0.0
 10
-57.0802480992
 20
-35.7630025657
 30
0.0
 10
-57.0603476669
 20
-35.7640423528
 30
0.0
 10
-57.0308325853
 20
-35.7647278658
 30
0.0
 10
-56.9905653549
 20
-35.764732037
 30
0.0
 10
-56.9447984585
 20
-35.7639274449
 30
0.0
 10
-56.8949962184
 20
-35.7623360351
 30
0.0
 10
-56.8606235163
 20
-35.7608006208
 30
0.0
 10
-56.8430267606
 20
-35.7599101634
 30
0.0
 11
-57.1177259854
 21
-35.7563652408
 31
0.0
 11
-57.1150206289
 21
-35.7580087773
 31
0.0
 11
-57.1099390958
 21
-35.759495724
 31
0.0
 11
-57.1025224714
 21
-35.7608138446
 31
0.0
 11
-57.0928300336
 21
-35.7619527891
 31
0.0
 11
-57.0809395187
 21
-35.762903338
 31
0.0
 11
-57.0669461675
 21
-35.7636578858
 31
0.0
 11
-57.033115872
 21
-35.7645564004
 31
0.0
 11
-56.9924221674
 21
-35.7646195989
 31
0.0
 11
-56.946167341
 21
-35.7638454334
 31
0.0
 11
-56.8958323743
 21
-35.7622587161
 31
0.0
 11
-56.8430267606
 21
-35.7599101634
 31
0.0
  0
SPLINE
  5
68E
100
AcDbEntity
  8
RACCORDO
100
AcDbSpline
 62
253
  6
CONTINUOUS
 70
0
 71
3
 72
18
 73
14
 74
12
 42
0.0000001
 43
0.0000001
 44
0.0000000001
 12
-0.1819351879
 22
-0.2071599026
 32
0.0
 13
-0.2753570058
 23
0.0139340293
 33
0.0
 40
0.0
 40
0.0
 40
0.0
 40
0.0
 40
0.0114811725
 40
0.0306848086
 40
0.0580065133
 40
0.0934029599
 40
0.1366675586
 40
0.1874953095
 40
0.3102413812
 40
0.4578380037
 40
0.6256281779
 40
0.8082842402
 40
1.0
 40
1.0
 40
1.0
 40
1.0
 10
57.1177260705
 20
-35.7563652459
 30
0.0
 10
57.1170297941
 20
-35.7571580587
 30
0.0
 10
57.114347522
 20
-35.7583907966
 30
0.0
 10
57.1092518547
 20
-35.7597520516
 30
0.0
 10
57.10178843
 20
-35.7609943293
 30
0.0
 10
57.0921193605
 20
-35.762084713
 30
0.0
 10
57.0802481654
 20
-35.7630025699
 30
0.0
 10
57.0603477252
 20
-35.7640423565
 30
0.0
 10
57.0308326333
 20
-35.7647278689
 30
0.0
 10
56.99056539
 20
-35.7647320393
 30
0.0
 10
56.9447984809
 20
-35.7639274464
 30
0.0
 10
56.8949962291
 20
-35.7623360358
 30
0.0
 10
56.8606235196
 20
-35.7608006209
 30
0.0
 10
56.8430267604
 20
-35.7599101632
 30
0.0
 11
57.1177260705
 21
-35.7563652459
 31
0.0
 11
57.1150207118
 21
-35.7580087823
 31
0.0
 11
57.1099391756
 21
-35.7594957289
 31
0.0
 11
57.1025225475
 21
-35.7608138493
 31
0.0
 11
57.0928301051
 21
-35.7619527935
 31
0.0
 11
57.080939585
 21
-35.7629033422
 31
0.0
 11
57.0669462281
 21
-35.7636578897
 31
0.0
 11
57.0331159201
 21
-35.7645564036
 31
0.0
 11
56.9924222025
 21
-35.7646196013
 31
0.0
 11
56.9461673631
 21
-35.7638454349
 31
0.0
 11
56.8958323845
 21
-35.7622587168
 31
0.0
 11
56.8430267604
 21
-35.7599101632
 31
0.0
  0
SPLINE
  5
68F
100
AcDbEntity
  8
RACCORDO
100
AcDbSpline
 62
253
  6
CONTINUOUS
 70
0
 71
3
 72
18
 73
14
 74
12
 42
0.0000001
 43
0.0000001
 44
0.0000000001
 12
0.2213013278
 22
0.1693873374
 32
0.0
 13
-0.0129460275
 23
0.2783859697
 33
0.0
 40
0.0
 40
0.0
 40
0.0
 40
0.0
 40
0.0119962473
 40
0.0315017687
 40
0.0590279845
 40
0.0945734227
 40
0.1379485035
 40
0.1888551687
 40
0.3116683589
 40
0.4591990565
 40
0.6267573168
 40
0.8089740664
 40
1.0
 40
1.0
 40
1.0
 40
1.0
 10
56.2709795172
 20
-36.5997249002
 30
0.0
 10
56.2718644456
 20
-36.5990475628
 30
0.0
 10
56.2733416112
 20
-36.5963597587
 30
0.0
 10
56.2749626439
 20
-36.591173411
 30
0.0
 10
56.2764871818
 20
-36.5836182746
 30
0.0
 10
56.2778515803
 20
-36.5738322687
 30
0.0
 10
56.2790455686
 20
-36.5618248753
 30
0.0
 10
56.28047011
 20
-36.5417079543
 30
0.0
 10
56.2815982573
 20
-36.5118785582
 30
0.0
 10
56.2820644075
 20
-36.4711998864
 30
0.0
 10
56.2816621358
 20
-36.4250011807
 30
0.0
 10
56.2803999151
 20
-36.3747772697
 30
0.0
 10
56.2790248574
 20
-36.3401305532
 30
0.0
 10
56.2782005151
 20
-36.32240424
 30
0.0
 11
56.2709795172
 21
-36.5997249002
 31
0.0
 11
56.2729007304
 21
-36.596988863
 31
0.0
 11
56.2746695718
 21
-36.59184877
 31
0.0
 11
56.2762713249
 21
-36.5843466636
 31
0.0
 11
56.2776932536
 21
-36.5745432023
 31
0.0
 11
56.2789237226
 21
-36.5625179277
 31
0.0
 11
56.2799527709
 21
-36.5483682807
 31
0.0
 11
56.2813749196
 21
-36.5141714211
 31
0.0
 11
56.281913679
 21
-36.4730600891
 31
0.0
 11
56.2815515777
 21
-36.426365213
 31
0.0
 11
56.2803003733
 21
-36.3755992218
 31
0.0
 11
56.2782005151
 21
-36.32240424
 31
0.0
  0
SPLINE
  5
690
100
AcDbEntity
  8
RACCORDO
100
AcDbSpline
 62
253
  6
CONTINUOUS
 70
0
 71
3
 72
19
 73
15
 74
13
 42
0.0000001
 43
0.0000001
 44
0.0000000001
 12
0.1938549214
 22
0.1990317773
 32
0.0
 13
-0.0092920821
 23
0.2776815373
 33
0.0
 40
0.0
 40
0.0
 40
0.0
 40
0.0
 40
0.0045196717
 40
0.0109253851
 40
0.0298205686
 40
0.0569876734
 40
0.0923284399
 40
0.1356087909
 40
0.1865059907
 40
0.3094997009
 40
0.4574089433
 40
0.6254867524
 40
0.8083154094
 40
1.0
 40
1.0
 40
1.0
 40
1.0
 10
40.475535721
 20
-37.3113562373
 30
0.0
 10
40.4758277745
 20
-37.3110563845
 30
0.0
 10
40.4763605897
 20
-37.3101750253
 30
0.0
 10
40.4773577625
 20
-37.3076001161
 30
0.0
 10
40.478407413
 20
-37.3028315758
 30
0.0
 10
40.4795038616
 20
-37.2953775824
 30
0.0
 10
40.4804820307
 20
-37.2856237277
 30
0.0
 10
40.4813410071
 20
-37.2736597269
 30
0.0
 10
40.482365677
 20
-37.2535715039
 30
0.0
 10
40.4831765281
 20
-37.2237766803
 30
0.0
 10
40.4835108354
 20
-37.183121536
 30
0.0
 10
40.4832201678
 20
-37.1369245693
 30
0.0
 10
40.4823105537
 20
-37.0866812491
 30
0.0
 10
40.4813201313
 20
-37.0520101432
 30
0.0
 10
40.480726415
 20
-37.0342677193
 30
0.0
 11
40.475535721
 21
-37.3113562373
 31
0.0
 11
40.4762399484
 21
-37.3103165612
 31
0.0
 11
40.4769183393
 21
-37.3086711815
 31
0.0
 11
40.4781912672
 21
-37.3035780637
 31
0.0
 11
40.4793439063
 21
-37.2961185652
 31
0.0
 11
40.4803670853
 21
-37.2863530492
 31
0.0
 11
40.4812524255
 21
-37.274360804
 31
0.0
 11
40.4819927548
 21
-37.260239073
 31
0.0
 11
40.4830155692
 21
-37.2260821844
 31
0.0
 11
40.4834024064
 21
-37.1849893502
 31
0.0
 11
40.4831407128
 21
-37.1382918551
 31
0.0
 11
40.4822389916
 21
-37.0875033001
 31
0.0
 11
40.480726415
 21
-37.0342677193
 31
0.0
  0
SPLINE
  5
691
100
AcDbEntity
  8
RACCORDO
100
AcDbSpline
 62
253
  6
CONTINUOUS
 70
0
 71
3
 72
17
 73
13
 74
11
 42
0.0000001
 43
0.0000001
 44
0.0000000001
 12
0.2726641699
 22
-0.1245527222
 32
0.0
 13
0.2128803566
 23
0.2110475869
 33
0.0
 40
0.0
 40
0.0
 40
0.0
 40
0.0
 40
0.0118422667
 40
0.0308437101
 40
0.0579476214
 40
0.0932671374
 40
0.1877326544
 40
0.3114291581
 40
0.4601106958
 40
0.6285243558
 40
0.8106610181
 40
1.0
 40
1.0
 40
1.0
 40
1.0
 10
40.1019011708
 20
-37.164924137
 30
0.0
 10
40.1029774914
 20
-37.1654157992
 30
0.0
 10
40.1062719972
 20
-37.165223954
 30
0.0
 10
40.1116595712
 20
-37.1632512944
 30
0.0
 10
40.1189417496
 20
-37.1595212522
 30
0.0
 10
40.1322676175
 20
-37.1512791658
 30
0.0
 10
40.1527778295
 20
-37.1363541283
 30
0.0
 10
40.1813617806
 20
-37.1134087938
 30
0.0
 10
40.2147875481
 20
-37.0847124342
 30
0.0
 10
40.2518340606
 20
-37.0513019978
 30
0.0
 10
40.2911550812
 20
-37.014363148
 30
0.0
 10
40.3177439034
 20
-36.9884598506
 30
0.0
 10
40.3311794201
 20
-36.9751400056
 30
0.0
 11
40.1019011708
 21
-37.164924137
 31
0.0
 11
40.1054443788
 21
-37.1651419823
 31
0.0
 11
40.1108785461
 21
-37.1634349673
 31
0.0
 11
40.1181540807
 21
-37.1598184647
 31
0.0
 11
40.1272051816
 21
-37.1543253798
 31
0.0
 11
40.1502901088
 21
-37.1379252243
 31
0.0
 11
40.1792977194
 21
-37.1148280955
 31
0.0
 11
40.2131780081
 21
-37.085870024
 31
0.0
 11
40.2507044338
 21
-37.0520993808
 31
0.0
 11
40.2905184125
 21
-37.0147388047
 31
0.0
 11
40.3311794201
 21
-36.9751400056
 31
0.0
  0
SPLINE
  5
692
100
AcDbEntity
  8
RACCORDO
100
AcDbSpline
 62
253
  6
CONTINUOUS
 70
0
 71
3
 72
17
 73
13
 74
11
 42
0.0000001
 43
0.0000001
 44
0.0000000001
 12
0.2729234373
 22
-0.1239595224
 32
0.0
 13
0.2128653585
 23
0.2110485844
 33
0.0
 40
0.0
 40
0.0
 40
0.0
 40
0.0
 40
0.0118006303
 40
0.0307785653
 40
0.0578689453
 40
0.0931811865
 40
0.1876446754
 40
0.3113501476
 40
0.460047803
 40
0.6284817696
 40
0.8106402482
 40
1.0
 40
1.0
 40
1.0
 40
1.0
 10
39.8526724679
 20
-36.9140674105
 30
0.0
 10
39.8537460241
 20
-36.9145550107
 30
0.0
 10
39.8570335406
 20
-36.9143500497
 30
0.0
 10
39.862407211
 20
-36.912367082
 30
0.0
 10
39.8696783365
 20
-36.908624846
 30
0.0
 10
39.882989286
 20
-36.9003648355
 30
0.0
 10
39.9034835318
 20
-36.8854195175
 30
0.0
 10
39.9320518301
 20
-36.8624532107
 30
0.0
 10
39.9654654938
 20
-36.833738132
 30
0.0
 10
40.0025035925
 20
-36.8003122372
 30
0.0
 10
40.0418200534
 20
-36.7633620287
 30
0.0
 10
40.0684085907
 20
-36.7374541493
 30
0.0
 10
40.0818446345
 20
-36.7241327801
 30
0.0
 11
39.8526724679
 21
-36.9140674105
 31
0.0
 11
39.856203792
 21
-36.9142729381
 31
0.0
 11
39.8616264373
 21
-36.912553457
 31
0.0
 11
39.868890911
 21
-36.9089244566
 31
0.0
 11
39.8779315025
 21
-36.903418959
 31
0.0
 11
39.9009973958
 21
-36.8869947123
 31
0.0
 11
39.9299890853
 21
-36.8638752642
 31
0.0
 11
39.9638570009
 21
-36.8348975661
 31
0.0
 11
40.0013748846
 21
-36.8011108406
 31
0.0
 11
40.0411842795
 21
-36.7637384727
 31
0.0
 11
40.0818446345
 21
-36.7241327801
 31
0.0
  0
SPLINE
  5
693
100
AcDbEntity
  8
RACCORDO
100
AcDbSpline
 62
253
  6
CONTINUOUS
 70
0
 71
3
 72
20
 73
16
 74
14
 42
0.0000001
 43
0.0000001
 44
0.0000000001
 12
0.22751656
 22
0.1605886857
 32
0.0
 13
-0.0093713147
 23
0.2783247914
 33
0.0
 40
0.0
 40
0.0
 40
0.0
 40
0.0
 40
0.003875001
 40
0.0095909895
 40
0.0271934464
 40
0.0532715433
 40
0.087750388
 40
0.1304011006
 40
0.1808989162
 40
0.2388410528
 40
0.3037564854
 40
0.4523210441
 40
0.6217022794
 40
0.8062976949
 40
1.0
 40
1.0
 40
1.0
 40
1.0
 10
39.4802709885
 20
-36.766278712
 30
0.0
 10
39.4805648642
 20
-36.7660712849
 30
0.0
 10
39.4811115833
 20
-36.7653312104
 30
0.0
 10
39.4821129224
 20
-36.7630181954
 30
0.0
 10
39.4831546773
 20
-36.7585187114
 30
0.0
 10
39.4842440578
 20
-36.751354833
 30
0.0
 10
39.4852156622
 20
-36.7418159483
 30
0.0
 10
39.486069002
 20
-36.7300003437
 30
0.0
 10
39.4867825626
 20
-36.715991646
 30
0.0
 10
39.4873502235
 20
-36.6999092531
 30
0.0
 10
39.487927644
 20
-36.6747198394
 30
0.0
 10
39.488193739
 20
-36.6391788487
 30
0.0
 10
39.4878778746
 20
-36.5925291469
 30
0.0
 10
39.4869366796
 20
-36.5416971738
 30
0.0
 10
39.4859245476
 20
-36.5065946529
 30
0.0
 10
39.4853194658
 20
-36.488623935
 30
0.0
 11
39.4802709885
 21
-36.766278712
 31
0.0
 11
39.480975046
 21
-36.7654609081
 31
0.0
 11
39.4816531848
 21
-36.7640207817
 31
0.0
 11
39.4829251989
 21
-36.7592867186
 31
0.0
 11
39.4840761648
 21
-36.7521162102
 31
0.0
 11
39.4850966869
 21
-36.7425688419
 31
0.0
 11
39.485978191
 21
-36.7307241204
 31
0.0
 11
39.4867133503
 21
-36.7166805908
 31
0.0
 11
39.487296041
 21
-36.7005552433
 31
0.0
 11
39.4877214153
 21
-36.6824824356
 31
0.0
 11
39.4880873917
 21
-36.6411114224
 31
0.0
 11
39.4877990936
 21
-36.5939425911
 31
0.0
 11
39.4868661297
 21
-36.5425444623
 31
0.0
 11
39.4853194658
 21
-36.488623935
 31
0.0
  0
SPLINE
  5
694
100
AcDbEntity
  8
RACCORDO
100
AcDbSpline
 62
253
  6
CONTINUOUS
 70
0
 71
3
 72
20
 73
16
 74
14
 42
0.0000001
 43
0.0000001
 44
0.0000000001
 12
0.2254425197
 22
0.1633870216
 32
0.0
 13
-0.0090960098
 23
0.2782748841
 33
0.0
 40
0.0
 40
0.0
 40
0.0
 40
0.0
 40
0.0038237322
 40
0.0095060365
 40
0.027068135
 40
0.0531236604
 40
0.0875902926
 40
0.1302360087
 40
0.1807343776
 40
0.2386815812
 40
0.3036058641
 40
0.4521973608
 40
0.6216147468
 40
0.8062523793
 40
1.0
 40
1.0
 40
1.0
 40
1.0
 10
38.3267540827
 20
-36.8091606306
 30
0.0
 10
38.3270414266
 20
-36.8089523812
 30
0.0
 10
38.3275719027
 20
-36.8082107342
 30
0.0
 10
38.3285440297
 20
-36.8058995204
 30
0.0
 10
38.3295538748
 20
-36.8014035604
 30
0.0
 10
38.3306115666
 20
-36.7942437295
 30
0.0
 10
38.3315544936
 20
-36.7847078537
 30
0.0
 10
38.3323829489
 20
-36.7728946049
 30
0.0
 10
38.33307563
 20
-36.7588878216
 30
0.0
 10
38.3336267117
 20
-36.7428069484
 30
0.0
 10
38.3341872604
 20
-36.7176187296
 30
0.0
 10
38.3344455486
 20
-36.6820786498
 30
0.0
 10
38.3341388547
 20
-36.635429062
 30
0.0
 10
38.3332250758
 20
-36.5845959413
 30
0.0
 10
38.3322424465
 20
-36.549491938
 30
0.0
 10
38.3316550031
 20
-36.5315202391
 30
0.0
 11
38.3267540827
 21
-36.8091606306
 31
0.0
 11
38.3274375945
 21
-36.8083444071
 31
0.0
 11
38.3280959437
 21
-36.8069058051
 31
0.0
 11
38.3293308369
 21
-36.8021746091
 31
0.0
 11
38.3304482131
 21
-36.7950067073
 31
0.0
 11
38.3314389502
 21
-36.7854616663
 31
0.0
 11
38.3322947242
 21
-36.7736189761
 31
0.0
 11
38.3330084217
 21
-36.759577169
 31
0.0
 11
38.3335740976
 21
-36.7434532251
 31
0.0
 11
38.3339870453
 21
-36.7253814961
 31
0.0
 11
38.3343423075
 21
-36.684011656
 31
0.0
 11
38.3340623787
 21
-36.6368427041
 31
0.0
 11
38.3331565888
 21
-36.5854432278
 31
0.0
 11
38.3316550031
 21
-36.5315202391
 31
0.0
  0
SPLINE
  5
695
100
AcDbEntity
  8
RACCORDO
100
AcDbSpline
 62
253
  6
CONTINUOUS
 70
0
 71
3
 72
20
 73
16
 74
14
 42
0.0000001
 43
0.0000001
 44
0.0000000001
 12
-0.2509655038
 22
0.1070254132
 32
0.0
 13
-0.1932617134
 23
0.1925825364
 33
0.0
 40
0.0
 40
0.0
 40
0.0
 40
0.0
 40
0.0029375381
 40
0.008074726
 40
0.0249739616
 40
0.0506134761
 40
0.0847950444
 40
0.1272440309
 40
0.1776166401
 40
0.2355031063
 40
0.3004318308
 40
0.449246557
 40
0.619219286
 40
0.8048156725
 40
1.0
 40
1.0
 40
1.0
 40
1.0
 10
37.9924347971
 20
-36.9547367831
 30
0.0
 10
37.9921890569
 20
-36.9546319861
 30
0.0
 10
37.99158039
 20
-36.9542080147
 30
0.0
 10
37.989783549
 20
-36.9528288865
 30
0.0
 10
37.9865103421
 20
-36.9499724441
 30
0.0
 10
37.9813303846
 20
-36.9453040391
 30
0.0
 10
37.9745133478
 20
-36.9389737909
 30
0.0
 10
37.9661077744
 20
-36.9310529325
 30
0.0
 10
37.9561869943
 20
-36.9215955208
 30
0.0
 10
37.9448311512
 20
-36.9106812684
 30
0.0
 10
37.9270765086
 20
-36.8935049353
 30
0.0
 10
37.9020941755
 20
-36.8691393216
 30
0.0
 10
37.8693756046
 20
-36.8369889637
 30
0.0
 10
37.8337569587
 20
-36.8017735376
 30
0.0
 10
37.8091962927
 20
-36.7773602692
 30
0.0
 10
37.7966224068
 20
-36.7648305716
 30
0.0
 11
37.9924347971
 21
-36.9547367831
 31
0.0
 11
37.9917498642
 21
-36.9543206063
 31
0.0
 11
37.9906337556
 21
-36.9534727999
 31
0.0
 11
37.9871180481
 21
-36.9504898232
 31
0.0
 11
37.981916575
 21
-36.9458123066
 31
0.0
 11
37.9750716462
 21
-36.9394783557
 31
0.0
 11
37.9666391054
 21
-36.9315396193
 31
0.0
 11
37.9566876683
 21
-36.9220607916
 31
0.0
 11
37.9452985341
 21
-36.9111192156
 31
0.0
 11
37.9325646495
 21
-36.8988041882
 31
0.0
 11
37.9034882199
 21
-36.870465968
 31
0.0
 11
37.8704049967
 21
-36.8379687072
 31
0.0
 11
37.8343925738
 21
-36.8023709211
 31
0.0
 11
37.7966224068
 21
-36.7648305716
 31
0.0
  0
SPLINE
  5
696
100
AcDbEntity
  8
RACCORDO
100
AcDbSpline
 62
253
  6
CONTINUOUS
 70
0
 71
3
 72
21
 73
17
 74
15
 42
0.0000001
 43
0.0000001
 44
0.0000000001
 12
-0.2529807153
 22
0.1020930618
 32
0.0
 13
-0.1932607443
 23
0.1925422558
 33
0.0
 40
0.0
 40
0.0
 40
0.0
 40
0.0
 40
0.0029471028
 40
0.0080895409
 40
0.0154416118
 40
0.024995511
 40
0.0506375771
 40
0.0848199004
 40
0.1272683769
 40
0.1776395269
 40
0.2355238193
 40
0.3004498559
 40
0.4492583971
 40
0.6192250944
 40
0.8048170561
 40
1.0
 40
1.0
 40
1.0
 40
1.0
 10
37.6679825385
 20
-37.2795158827
 30
0.0
 10
37.6677340185
 20
-37.2794155898
 30
0.0
 10
37.6671193872
 20
-37.2789967076
 30
0.0
 10
37.6660017681
 20
-37.2781543504
 30
0.0
 10
37.6644558382
 20
-37.2768732888
 30
0.0
 10
37.661524379
 20
-37.2743499966
 30
0.0
 10
37.6568348041
 20
-37.2701275181
 30
0.0
 10
37.6500019552
 20
-37.2638190057
 30
0.0
 10
37.6415851038
 20
-37.2559107276
 30
0.0
 10
37.6316523956
 20
-37.2464689782
 30
0.0
 10
37.6202859854
 20
-37.2355688278
 30
0.0
 10
37.602517712
 20
-37.2184118949
 30
0.0
 10
37.5775216823
 20
-37.1940675526
 30
0.0
 10
37.5447915997
 20
-37.1619380637
 30
0.0
 10
37.5091660592
 20
-37.1267387335
 30
0.0
 10
37.484604161
 20
-37.1023326908
 30
0.0
 10
37.4720304273
 20
-37.0898057027
 30
0.0
 11
37.6679825385
 21
-37.2795158827
 31
0.0
 11
37.6672900522
 21
-37.2791074091
 31
0.0
 11
37.6661664821
 21
-37.2782673724
 31
0.0
 11
37.664614113
 21
-37.2769973758
 31
0.0
 11
37.6626361958
 21
-37.2753000599
 31
0.0
 11
37.6574206964
 21
-37.2706382637
 31
0.0
 11
37.6505623984
 21
-37.264319956
 31
0.0
 11
37.642117245
 21
-37.2563966478
 31
0.0
 11
37.6321540419
 21
-37.2469328956
 31
0.0
 11
37.6207540692
 21
-37.2360059053
 31
0.0
 11
37.6080103449
 21
-37.2237048381
 31
0.0
 11
37.5789174659
 21
-37.1953921372
 31
0.0
 11
37.5458223837
 21
-37.1629163685
 31
0.0
 11
37.5098028803
 21
-37.1273351535
 31
0.0
 11
37.4720304273
 21
-37.0898057027
 31
0.0
  0
SPLINE
  5
697
100
AcDbEntity
  8
RACCORDO
100
AcDbSpline
 62
253
  6
CONTINUOUS
 70
0
 71
3
 72
20
 73
16
 74
14
 42
0.0000001
 43
0.0000001
 44
0.0000000001
 12
0.186183202
 22
0.2060324548
 32
0.0
 13
-0.0085674861
 23
0.277561084
 33
0.0
 40
0.0
 40
0.0
 40
0.0
 40
0.0
 40
0.0044020561
 40
0.0107278247
 40
0.0295233699
 40
0.0566329149
 40
0.0919415393
 40
0.1352077531
 40
0.1861047668
 40
0.2442339005
 40
0.3091327879
 40
0.4571068073
 40
0.6252725864
 40
0.8082044489
 40
1.0
 40
1.0
 40
1.0
 40
1.0
 10
37.33331854
 20
-37.4251778439
 30
0.0
 10
37.3335917363
 20
-37.4248755217
 30
0.0
 10
37.334082471
 20
-37.4239926929
 30
0.0
 10
37.3350029708
 20
-37.4214212574
 30
0.0
 10
37.3359681668
 20
-37.4166619439
 30
0.0
 10
37.3369797608
 20
-37.4092176602
 30
0.0
 10
37.3378814523
 20
-37.3994716531
 30
0.0
 10
37.3386735823
 20
-37.387513679
 30
0.0
 10
37.3393375061
 20
-37.3734314169
 30
0.0
 10
37.3398677701
 20
-37.3573406035
 30
0.0
 10
37.3404106674
 20
-37.3322608611
 30
0.0
 10
37.3406737857
 20
-37.2969895659
 30
0.0
 10
37.3404071472
 20
-37.2507930898
 30
0.0
 10
37.3395674134
 20
-37.2005466366
 30
0.0
 10
37.33865381
 20
-37.165871659
 30
0.0
 10
37.3381060747
 20
-37.1481266653
 30
0.0
 11
37.33331854
 21
-37.4251778439
 31
0.0
 11
37.3339681624
 21
-37.4241423224
 31
0.0
 11
37.3345939511
 21
-37.4225009466
 31
0.0
 11
37.335768174
 21
-37.4174153492
 31
0.0
 11
37.336831431
 21
-37.409962675
 31
0.0
 11
37.337775261
 21
-37.4002032397
 31
0.0
 11
37.3385919342
 21
-37.3882162908
 31
0.0
 11
37.339274834
 21
-37.3740990396
 31
0.0
 11
37.3398184152
 21
-37.357966125
 31
0.0
 11
37.3402182692
 21
-37.3399485765
 31
0.0
 11
37.3405750114
 21
-37.2988587344
 31
0.0
 11
37.3403334823
 21
-37.2521608524
 31
0.0
 11
37.3395015307
 21
-37.2013687167
 31
0.0
 11
37.3381060747
 21
-37.1481266653
 31
0.0
  0
SPLINE
  5
698
100
AcDbEntity
  8
RACCORDO
100
AcDbSpline
 62
253
  6
CONTINUOUS
 70
0
 71
3
 72
18
 73
14
 74
12
 42
0.0000001
 43
0.0000001
 44
0.0000000001
 12
-0.1819350086
 22
0.2071599475
 32
0.0
 13
-0.2753569214
 23
-0.0139340233
 33
0.0
 40
0.0
 40
0.0
 40
0.0
 40
0.0
 40
0.0114811694
 40
0.0306848009
 40
0.0580065004
 40
0.0934029416
 40
0.1366675349
 40
0.1874952808
 40
0.3102413451
 40
0.4578379654
 40
0.6256281442
 40
0.8082842192
 40
1.0
 40
1.0
 40
1.0
 40
1.0
 10
57.1177259854
 20
35.7563652408
 30
0.0
 10
57.1170297098
 20
35.7571580536
 30
0.0
 10
57.1143474395
 20
35.7583907918
 30
0.0
 10
57.1092517752
 20
35.7597520468
 30
0.0
 10
57.1017883542
 20
35.7609943246
 30
0.0
 10
57.0921192892
 20
35.7620847085
 30
0.0
 10
57.0802480992
 20
35.7630025657
 30
0.0
 10
57.0603476669
 20
35.7640423528
 30
0.0
 10
57.0308325853
 20
35.7647278658
 30
0.0
 10
56.9905653549
 20
35.764732037
 30
0.0
 10
56.9447984585
 20
35.7639274449
 30
0.0
 10
56.8949962184
 20
35.7623360351
 30
0.0
 10
56.8606235163
 20
35.7608006208
 30
0.0
 10
56.8430267606
 20
35.7599101634
 30
0.0
 11
57.1177259854
 21
35.7563652408
 31
0.0
 11
57.1150206289
 21
35.7580087773
 31
0.0
 11
57.1099390958
 21
35.759495724
 31
0.0
 11
57.1025224714
 21
35.7608138446
 31
0.0
 11
57.0928300336
 21
35.7619527891
 31
0.0
 11
57.0809395187
 21
35.762903338
 31
0.0
 11
57.0669461675
 21
35.7636578858
 31
0.0
 11
57.033115872
 21
35.7645564004
 31
0.0
 11
56.9924221674
 21
35.7646195989
 31
0.0
 11
56.946167341
 21
35.7638454334
 31
0.0
 11
56.8958323743
 21
35.7622587161
 31
0.0
 11
56.8430267606
 21
35.7599101634
 31
0.0
  0
SPLINE
  5
699
100
AcDbEntity
  8
RACCORDO
100
AcDbSpline
 62
253
  6
CONTINUOUS
 70
0
 71
3
 72
18
 73
14
 74
12
 42
0.0000001
 43
0.0000001
 44
0.0000000001
 12
0.2213013101
 22
-0.1693874999
 32
0.0
 13
-0.0129460338
 23
-0.2783860542
 33
0.0
 40
0.0
 40
0.0
 40
0.0
 40
0.0
 40
0.0119962495
 40
0.0315017748
 40
0.0590279952
 40
0.0945734384
 40
0.1379485243
 40
0.1888551942
 40
0.3116683919
 40
0.4591990921
 40
0.6267573485
 40
0.8089740863
 40
1.0
 40
1.0
 40
1.0
 40
1.0
 10
56.270979522
 20
36.5997249857
 30
0.0
 10
56.2718644506
 20
36.5990476475
 30
0.0
 10
56.2733416159
 20
36.5963598417
 30
0.0
 10
56.2749626486
 20
36.5911734912
 30
0.0
 10
56.2764871864
 20
36.5836183511
 30
0.0
 10
56.2778515847
 20
36.5738323407
 30
0.0
 10
56.2790455728
 20
36.5618249423
 30
0.0
 10
56.2804701138
 20
36.5417080136
 30
0.0
 10
56.2815982605
 20
36.5118786069
 30
0.0
 10
56.28206441
 20
36.4711999222
 30
0.0
 10
56.2816621375
 20
36.4250012037
 30
0.0
 10
56.2803999159
 20
36.3747772808
 30
0.0
 10
56.2790248576
 20
36.3401305566
 30
0.0
 10
56.278200515
 20
36.3224042399
 30
0.0
 11
56.270979522
 21
36.5997249857
 31
0.0
 11
56.2729007352
 21
36.5969889464
 31
0.0
 11
56.2746695765
 21
36.5918488506
 31
0.0
 11
56.2762713294
 21
36.5843467404
 31
0.0
 11
56.277693258
 21
36.5745432746
 31
0.0
 11
56.2789237268
 21
36.5625179949
 31
0.0
 11
56.2799527749
 21
36.5483683422
 31
0.0
 11
56.281374923
 21
36.5141714701
 31
0.0
 11
56.2819136816
 21
36.4730601248
 31
0.0
 11
56.2815515794
 21
36.4263652357
 31
0.0
 11
56.2803003741
 21
36.3755992323
 31
0.0
 11
56.278200515
 21
36.3224042399
 31
0.0
  0
SPLINE
  5
69A
100
AcDbEntity
  8
RACCORDO
100
AcDbSpline
 62
253
  6
CONTINUOUS
 70
0
 71
3
 72
18
 73
14
 74
12
 42
0.0000001
 43
0.0000001
 44
0.0000000001
 12
0.1819351879
 22
0.2071599026
 32
0.0
 13
0.2753570058
 23
-0.0139340293
 33
0.0
 40
0.0
 40
0.0
 40
0.0
 40
0.0
 40
0.0114811725
 40
0.0306848086
 40
0.0580065133
 40
0.0934029599
 40
0.1366675586
 40
0.1874953095
 40
0.3102413812
 40
0.4578380037
 40
0.6256281779
 40
0.8082842402
 40
1.0
 40
1.0
 40
1.0
 40
1.0
 10
-57.1177260705
 20
35.7563652459
 30
0.0
 10
-57.1170297941
 20
35.7571580587
 30
0.0
 10
-57.114347522
 20
35.7583907966
 30
0.0
 10
-57.1092518547
 20
35.7597520516
 30
0.0
 10
-57.10178843
 20
35.7609943293
 30
0.0
 10
-57.0921193605
 20
35.762084713
 30
0.0
 10
-57.0802481654
 20
35.7630025699
 30
0.0
 10
-57.0603477252
 20
35.7640423565
 30
0.0
 10
-57.0308326333
 20
35.7647278689
 30
0.0
 10
-56.99056539
 20
35.7647320393
 30
0.0
 10
-56.9447984809
 20
35.7639274464
 30
0.0
 10
-56.8949962291
 20
35.7623360358
 30
0.0
 10
-56.8606235196
 20
35.7608006209
 30
0.0
 10
-56.8430267604
 20
35.7599101632
 30
0.0
 11
-57.1177260705
 21
35.7563652459
 31
0.0
 11
-57.1150207118
 21
35.7580087823
 31
0.0
 11
-57.1099391756
 21
35.7594957289
 31
0.0
 11
-57.1025225475
 21
35.7608138493
 31
0.0
 11
-57.0928301051
 21
35.7619527935
 31
0.0
 11
-57.080939585
 21
35.7629033422
 31
0.0
 11
-57.0669462281
 21
35.7636578897
 31
0.0
 11
-57.0331159201
 21
35.7645564036
 31
0.0
 11
-56.9924222025
 21
35.7646196013
 31
0.0
 11
-56.9461673631
 21
35.7638454349
 31
0.0
 11
-56.8958323845
 21
35.7622587168
 31
0.0
 11
-56.8430267604
 21
35.7599101632
 31
0.0
  0
SPLINE
  5
69B
100
AcDbEntity
  8
RACCORDO
100
AcDbSpline
 62
253
  6
CONTINUOUS
 70
0
 71
3
 72
18
 73
14
 74
12
 42
0.0000001
 43
0.0000001
 44
0.0000000001
 12
-0.2213013278
 22
-0.1693873374
 32
0.0
 13
0.0129460275
 23
-0.2783859697
 33
0.0
 40
0.0
 40
0.0
 40
0.0
 40
0.0
 40
0.0119962473
 40
0.0315017687
 40
0.0590279845
 40
0.0945734227
 40
0.1379485035
 40
0.1888551687
 40
0.3116683589
 40
0.4591990565
 40
0.6267573168
 40
0.8089740664
 40
1.0
 40
1.0
 40
1.0
 40
1.0
 10
-56.2709795172
 20
36.5997249002
 30
0.0
 10
-56.2718644456
 20
36.5990475628
 30
0.0
 10
-56.2733416112
 20
36.5963597587
 30
0.0
 10
-56.2749626439
 20
36.591173411
 30
0.0
 10
-56.2764871818
 20
36.5836182746
 30
0.0
 10
-56.2778515803
 20
36.5738322687
 30
0.0
 10
-56.2790455686
 20
36.5618248753
 30
0.0
 10
-56.28047011
 20
36.5417079543
 30
0.0
 10
-56.2815982573
 20
36.5118785582
 30
0.0
 10
-56.2820644075
 20
36.4711998864
 30
0.0
 10
-56.2816621358
 20
36.4250011807
 30
0.0
 10
-56.2803999151
 20
36.3747772697
 30
0.0
 10
-56.2790248574
 20
36.3401305532
 30
0.0
 10
-56.2782005151
 20
36.3224042399
 30
0.0
 11
-56.2709795172
 21
36.5997249002
 31
0.0
 11
-56.2729007304
 21
36.596988863
 31
0.0
 11
-56.2746695718
 21
36.59184877
 31
0.0
 11
-56.2762713249
 21
36.5843466636
 31
0.0
 11
-56.2776932536
 21
36.5745432023
 31
0.0
 11
-56.2789237226
 21
36.5625179277
 31
0.0
 11
-56.2799527709
 21
36.5483682807
 31
0.0
 11
-56.2813749196
 21
36.5141714211
 31
0.0
 11
-56.281913679
 21
36.4730600891
 31
0.0
 11
-56.2815515777
 21
36.426365213
 31
0.0
 11
-56.2803003733
 21
36.3755992218
 31
0.0
 11
-56.2782005151
 21
36.3224042399
 31
0.0
  0
SPLINE
  5
69C
100
AcDbEntity
  8
RACCORDO
100
AcDbSpline
 62
7
  6
CONTINUOUS
 70
0
 71
3
 72
16
 73
12
 74
10
 42
0.0000001
 43
0.0000001
 44
0.0000000001
 12
0.0
 22
1.2288426541
 32
0.0
 13
1.2277659488
 23
0.0514299856
 33
0.0
 40
0.0
 40
0.0
 40
0.0
 40
0.0
 40
0.1249681836
 40
0.2499373963
 40
0.3749102607
 40
0.4998889332
 40
0.6248745857
 40
0.7498672925
 40
0.8124319288
 40
0.8749971209
 40
1.0
 40
1.0
 40
1.0
 40
1.0
 10
41.0
 20
-38.2725161148
 30
0.0
 10
41.0
 20
-38.22132737
 30
0.0
 10
41.0102312139
 20
-38.1186558687
 30
0.0
 10
41.0557292508
 20
-37.9709667952
 30
0.0
 10
41.1294093444
 20
-37.8350758366
 30
0.0
 10
41.228079029
 20
-37.7161261922
 30
0.0
 10
41.3475960118
 20
-37.6182203916
 30
0.0
 10
41.4607757367
 20
-37.5566898492
 30
0.0
 10
41.5568008257
 20
-37.5206042122
 30
0.0
 10
41.6556975661
 20
-37.4934323837
 30
0.0
 10
41.7324081342
 20
-37.4832669855
 30
0.0
 10
41.783566227
 20
-37.4811240201
 30
0.0
 11
41.0
 21
-38.2725161148
 31
0.0
 11
41.0152562488
 21
-38.1197095861
 31
0.0
 11
41.0604253721
 21
-37.9729351773
 31
0.0
 11
41.1335722931
 21
-37.8379022815
 31
0.0
 11
41.2315505798
 21
-37.7196364686
 31
0.0
 11
41.3503044268
 21
-37.6222367472
 31
0.0
 11
41.4851973274
 21
-37.5487809776
 31
0.0
 11
41.5571592594
 21
-37.5217192576
 31
0.0
 11
41.6312949044
 21
-37.5013509613
 31
0.0
 11
41.783566227
 21
-37.4811240201
 31
0.0
  0
SPLINE
  5
69D
100
AcDbEntity
  8
RACCORDO
100
AcDbSpline
 62
7
  6
CONTINUOUS
 70
0
 71
3
 72
15
 73
11
 74
9
 42
0.0000001
 43
0.0000001
 44
0.0000000001
 12
1.288449937
 22
0.0466900439
 32
0.0
 13
-0.0
 23
-1.2892956218
 33
0.0
 40
0.0
 40
0.0
 40
0.0
 40
0.0
 40
0.1250224238
 40
0.2500398061
 40
0.3750499829
 40
0.5000517209
 40
0.6250453089
 40
0.750032489
 40
0.8750162194
 40
1.0
 40
1.0
 40
1.0
 40
1.0
 10
36.1540665761
 20
-37.701028692
 30
0.0
 10
36.2077616208
 20
-37.6990829245
 30
0.0
 10
36.3157976691
 20
-37.7053344796
 30
0.0
 10
36.4729518784
 20
-37.7451991793
 30
0.0
 10
36.6195718248
 20
-37.8146076489
 30
0.0
 10
36.7496895146
 20
-37.9115193416
 30
0.0
 10
36.8577101943
 20
-38.0326204221
 30
0.0
 10
36.9386753073
 20
-38.1733080196
 30
0.0
 10
36.9887491109
 20
-38.3276590001
 30
0.0
 10
37.0
 20
-38.4354269583
 30
0.0
 10
37.0
 20
-38.4891406387
 30
0.0
 11
36.1540665761
 21
-37.701028692
 31
0.0
 11
36.31498385
 21
-37.7104162107
 31
0.0
 11
36.4712004743
 21
-37.7501247152
 31
0.0
 11
36.6168260221
 21
-37.8191942759
 31
0.0
 11
36.7460104944
 21
-37.9155543786
 31
0.0
 11
36.8532033325
 21
-38.0358881057
 31
0.0
 11
36.9335276885
 21
-38.1755872308
 31
0.0
 11
36.983216271
 21
-38.32887604
 31
0.0
 11
37.0
 21
-38.4891406387
 31
0.0
  0
SPLINE
  5
69E
100
AcDbEntity
  8
RACCORDO
100
AcDbSpline
 62
7
  6
CONTINUOUS
 70
0
 71
3
 72
15
 73
11
 74
9
 42
0.0000001
 43
0.0000001
 44
0.0000000001
 12
0.0
 22
1.2892956218
 32
0.0
 13
1.288449937
 23
-0.0466900439
 33
0.0
 40
0.0
 40
0.0
 40
0.0
 40
0.0
 40
0.1249837806
 40
0.249967511
 40
0.3749546911
 40
0.4999482791
 40
0.6249500171
 40
0.7499601939
 40
0.8749775762
 40
1.0
 40
1.0
 40
1.0
 40
1.0
 10
-37.0
 20
-38.4891406387
 30
0.0
 10
-37.0
 20
-38.4354269583
 30
0.0
 10
-36.9887491109
 20
-38.3276590001
 30
0.0
 10
-36.9386753073
 20
-38.1733080196
 30
0.0
 10
-36.8577101943
 20
-38.0326204221
 30
0.0
 10
-36.7496895146
 20
-37.9115193416
 30
0.0
 10
-36.6195718248
 20
-37.8146076489
 30
0.0
 10
-36.4729518784
 20
-37.7451991793
 30
0.0
 10
-36.3157976691
 20
-37.7053344796
 30
0.0
 10
-36.2077616208
 20
-37.6990829245
 30
0.0
 10
-36.1540665761
 20
-37.701028692
 30
0.0
 11
-37.0
 21
-38.4891406387
 31
0.0
 11
-36.983216271
 21
-38.32887604
 31
0.0
 11
-36.9335276885
 21
-38.1755872308
 31
0.0
 11
-36.8532033325
 21
-38.0358881057
 31
0.0
 11
-36.7460104944
 21
-37.9155543786
 31
0.0
 11
-36.6168260221
 21
-37.8191942759
 31
0.0
 11
-36.4712004743
 21
-37.7501247152
 31
0.0
 11
-36.31498385
 21
-37.7104162107
 31
0.0
 11
-36.1540665761
 21
-37.701028692
 31
0.0
  0
SPLINE
  5
69F
100
AcDbEntity
  8
RACCORDO
100
AcDbSpline
 62
7
  6
CONTINUOUS
 70
0
 71
3
 72
16
 73
12
 74
10
 42
0.0000001
 43
0.0000001
 44
0.0000000001
 12
1.2277659488
 22
-0.0514299856
 32
0.0
 13
-0.0
 23
-1.2288426541
 33
0.0
 40
0.0
 40
0.0
 40
0.0
 40
0.0
 40
0.1250028791
 40
0.1875680712
 40
0.2501327075
 40
0.3751254143
 40
0.5001110668
 40
0.6250897393
 40
0.7500626037
 40
0.8750318164
 40
1.0
 40
1.0
 40
1.0
 40
1.0
 10
-41.783566227
 20
-37.4811240201
 30
0.0
 10
-41.7324081342
 20
-37.4832669855
 30
0.0
 10
-41.6556975661
 20
-37.4934323837
 30
0.0
 10
-41.5568008257
 20
-37.5206042122
 30
0.0
 10
-41.4607757367
 20
-37.5566898492
 30
0.0
 10
-41.3475960118
 20
-37.6182203916
 30
0.0
 10
-41.228079029
 20
-37.7161261922
 30
0.0
 10
-41.1294093444
 20
-37.8350758366
 30
0.0
 10
-41.0557292508
 20
-37.9709667952
 30
0.0
 10
-41.0102312139
 20
-38.1186558687
 30
0.0
 10
-41.0
 20
-38.22132737
 30
0.0
 10
-41.0
 20
-38.2725161148
 30
0.0
 11
-41.783566227
 21
-37.4811240201
 31
0.0
 11
-41.6312949044
 21
-37.5013509613
 31
0.0
 11
-41.5571592594
 21
-37.5217192576
 31
0.0
 11
-41.4851973274
 21
-37.5487809776
 31
0.0
 11
-41.3503044268
 21
-37.6222367472
 31
0.0
 11
-41.2315505798
 21
-37.7196364686
 31
0.0
 11
-41.1335722931
 21
-37.8379022815
 31
0.0
 11
-41.0604253721
 21
-37.9729351773
 31
0.0
 11
-41.0152562488
 21
-38.1197095861
 31
0.0
 11
-41.0
 21
-38.2725161148
 31
0.0
  0
LINE
  5
6A0
100
AcDbEntity
  8
RACCORDO
100
AcDbLine
 62
7
  6
CONTINUOUS
 10
-57.9587897694
 20
-14.5075576284
 11
-58.219786652
 21
-14.5951699206
  0
SPLINE
  5
6A1
100
AcDbEntity
  8
RACCORDO
100
AcDbSpline
 62
7
  6
CONTINUOUS
 70
0
 71
3
 72
18
 73
14
 74
12
 42
0.0000001
 43
0.0000001
 44
0.0000000001
 12
-0.1528140161
 22
-0.2577255067
 32
0.0
 13
0.0019777445
 23
-0.2996175042
 33
0.0
 40
0.0
 40
0.0
 40
0.0
 40
0.0
 40
0.0132302591
 40
0.0345384054
 40
0.063954329
 40
0.1013027003
 40
0.1463011877
 40
0.1985864606
 40
0.3232171593
 40
0.4710034591
 40
0.6369186126
 40
0.8152889223
 40
1.0
 40
1.0
 40
1.0
 40
1.0
 10
-58.3723138127
 20
-3.6510182698
 30
0.0
 10
-58.3729877357
 20
-3.6521548616
 30
0.0
 10
-58.3740255213
 20
-3.6554977162
 30
0.0
 10
-58.37533659
 20
-3.6617279613
 30
0.0
 10
-58.3766022122
 20
-3.6704476152
 30
0.0
 10
-58.3778365913
 20
-3.681538041
 30
0.0
 10
-58.379003018
 20
-3.6949362995
 30
0.0
 10
-58.3805476817
 20
-3.7170460793
 30
0.0
 10
-58.3821482035
 20
-3.7494394852
 30
0.0
 10
-58.3835707851
 20
-3.7931956915
 30
0.0
 10
-58.3845181788
 20
-3.842333419
 30
0.0
 10
-58.3849537206
 20
-3.8951658387
 30
0.0
 10
-58.3848897928
 20
-3.9314291219
 30
0.0
 10
-58.3847680223
 20
-3.9498766793
 30
0.0
 11
-58.3723138127
 21
-3.6510182698
 31
0.0
 11
-58.3737344176
 21
-3.6547190804
 31
0.0
 11
-58.3751155111
 21
-3.6609523429
 31
0.0
 11
-58.3764451196
 21
-3.6696651932
 31
0.0
 11
-58.3777117689
 21
-3.6807837456
 31
0.0
 11
-58.3789044367
 21
-3.6942135188
 31
0.0
 11
-58.380012722
 21
-3.7098401911
 31
0.0
 11
-58.3819380597
 21
-3.7471328761
 31
0.0
 11
-58.383420038
 21
-3.7913883966
 31
0.0
 11
-58.3844060883
 21
-3.8410907836
 31
0.0
 11
-58.3848609244
 21
-3.8945328794
 31
0.0
 11
-58.3847680223
 21
-3.9498766793
 31
0.0
  0
LINE
  5
6A2
100
AcDbEntity
  8
RACCORDO
100
AcDbLine
 62
253
  6
CONTINUOUS
 10
-57.117726304
 20
-35.7563611722
 11
-57.3165693054
 21
-35.9561977986
  0
LINE
  5
6A3
100
AcDbEntity
  8
RACCORDO
100
AcDbLine
 62
7
  6
CONTINUOUS
 10
-57.6979718305
 20
-23.2769036997
 11
-57.9465101847
 21
-23.2358147024
  0
LINE
  5
6A4
100
AcDbEntity
  8
RACCORDO
100
AcDbLine
 62
7
  6
CONTINUOUS
 10
-58.0498098289
 20
20.4048300794
 11
-57.7940270195
 21
20.4890137083
  0
LINE
  5
6A5
100
AcDbEntity
  8
RACCORDO
100
AcDbLine
 62
7
  6
CONTINUOUS
 10
-57.9722315198
 20
22.5641852976
 11
-57.7251623123
 21
22.522813318
  0
SPLINE
  5
6A6
100
AcDbEntity
  8
RACCORDO
100
AcDbSpline
 62
7
  6
CONTINUOUS
 70
0
 71
3
 72
18
 73
14
 74
12
 42
0.0000001
 43
0.0000001
 44
0.0000000001
 12
-0.0019777445
 22
-0.2996175042
 32
0.0
 13
0.1528140161
 23
-0.2577255067
 33
0.0
 40
0.0
 40
0.0
 40
0.0
 40
0.0
 40
0.1847110777
 40
0.3630813874
 40
0.5289965409
 40
0.6767828407
 40
0.8014135394
 40
0.8536988123
 40
0.8986972997
 40
0.936045671
 40
0.9654615946
 40
0.9867697409
 40
1.0
 40
1.0
 40
1.0
 40
1.0
 10
-58.3847680223
 20
3.9498766793
 30
0.0
 10
-58.3848897928
 20
3.9314291219
 30
0.0
 10
-58.3849537206
 20
3.8951658387
 30
0.0
 10
-58.3845181788
 20
3.842333419
 30
0.0
 10
-58.3835707851
 20
3.7931956915
 30
0.0
 10
-58.3821482035
 20
3.7494394852
 30
0.0
 10
-58.3805476817
 20
3.7170460793
 30
0.0
 10
-58.379003018
 20
3.6949362995
 30
0.0
 10
-58.3778365913
 20
3.681538041
 30
0.0
 10
-58.3766022122
 20
3.6704476152
 30
0.0
 10
-58.37533659
 20
3.6617279613
 30
0.0
 10
-58.3740255213
 20
3.6554977162
 30
0.0
 10
-58.3729877357
 20
3.6521548616
 30
0.0
 10
-58.3723138127
 20
3.6510182698
 30
0.0
 11
-58.3847680223
 21
3.9498766793
 31
0.0
 11
-58.3848609244
 21
3.8945328794
 31
0.0
 11
-58.3844060883
 21
3.8410907836
 31
0.0
 11
-58.383420038
 21
3.7913883966
 31
0.0
 11
-58.3819380597
 21
3.7471328761
 31
0.0
 11
-58.380012722
 21
3.7098401911
 31
0.0
 11
-58.3789044367
 21
3.6942135188
 31
0.0
 11
-58.3777117689
 21
3.6807837456
 31
0.0
 11
-58.3764451196
 21
3.6696651932
 31
0.0
 11
-58.3751155111
 21
3.6609523429
 31
0.0
 11
-58.3737344176
 21
3.6547190804
 31
0.0
 11
-58.3723138127
 21
3.6510182698
 31
0.0
  0
LINE
  5
6A7
100
AcDbEntity
  8
RACCORDO
100
AcDbLine
 62
7
  6
CONTINUOUS
 10
-58.219786652
 20
14.5951699206
 11
-57.9587897651
 21
14.5075576277
  0
LINE
  5
6A8
100
AcDbEntity
  8
RACCORDO
100
AcDbLine
 62
7
  6
CONTINUOUS
 10
-57.9465101847
 20
23.2358147024
 11
-57.6979718299
 21
23.2769036997
  0
LINE
  5
6A9
100
AcDbEntity
  8
RACCORDO
100
AcDbLine
 62
253
  6
CONTINUOUS
 10
-57.1177263007
 20
35.7563612301
 11
-57.3165693054
 21
35.9561977986
  0
LINE
  5
6AA
100
AcDbEntity
  8
RACCORDO
100
AcDbLine
 62
7
  6
CONTINUOUS
 10
-32.516526743
 20
37.5817954979
 11
-32.5641852976
 21
37.86659898
  0
LINE
  5
6AB
100
AcDbEntity
  8
RACCORDO
100
AcDbLine
 62
7
  6
CONTINUOUS
 10
33.2358147024
 20
37.8444548852
 11
33.2831731736
 21
37.5583145885
  0
LINE
  5
6AC
100
AcDbEntity
  8
RACCORDO
100
AcDbLine
 62
253
  6
CONTINUOUS
 10
56.2709755632
 20
36.5997251955
 11
56.4702617221
 21
36.7995209996
  0
LINE
  5
6AD
100
AcDbEntity
  8
RACCORDO
100
AcDbLine
 62
253
  6
CONTINUOUS
 10
-56.2709755057
 20
36.5997251986
 11
-56.4702617221
 21
36.7995209996
  0
LINE
  5
6AE
100
AcDbEntity
  8
RACCORDO
100
AcDbLine
 62
7
  6
CONTINUOUS
 10
-33.2831731746
 20
37.5583145765
 11
-33.2358147024
 21
37.8444548852
  0
LINE
  5
6AF
100
AcDbEntity
  8
RACCORDO
100
AcDbLine
 62
7
  6
CONTINUOUS
 10
32.5641852976
 20
37.86659898
 11
32.5165267424
 21
37.5817954908
  0
SPLINE
  5
6B0
100
AcDbEntity
  8
RACCORDO
100
AcDbSpline
 62
7
  6
CONTINUOUS
 70
0
 71
3
 72
16
 73
12
 74
10
 42
0.0000001
 43
0.0000001
 44
0.0000000001
 12
0.0
 22
1.2286775622
 32
0.0
 13
-1.2275900225
 23
0.0516845087
 33
0.0
 40
0.0
 40
0.0
 40
0.0
 40
0.0
 40
0.12496819
 40
0.2499374119
 40
0.3749102859
 40
0.4998889666
 40
0.6248746241
 40
0.7498673326
 40
0.8124319507
 40
0.8749971244
 40
1.0
 40
1.0
 40
1.0
 40
1.0
 10
-41.214359354
 20
-38.305486477
 30
0.0
 10
-41.214359354
 20
-38.2543046066
 30
0.0
 10
-41.2245878448
 20
-38.151646975
 30
0.0
 10
-41.2700736814
 20
-38.0039761482
 30
0.0
 10
-41.3437343363
 20
-37.8680985956
 30
0.0
 10
-41.4423789585
 20
-37.7491554942
 30
0.0
 10
-41.5618673995
 20
-37.651248011
 30
0.0
 10
-41.6750223633
 20
-37.5897086363
 30
0.0
 10
-41.7710283369
 20
-37.553611452
 30
0.0
 10
-41.86990677
 20
-37.526425175
 30
0.0
 10
-41.9466048328
 20
-37.5162457264
 30
0.0
 10
-41.9977555938
 20
-37.5140921557
 30
0.0
 11
-41.214359354
 21
-38.305486477
 31
0.0
 11
-41.2296115269
 21
-38.1527002672
 31
0.0
 11
-41.2747685964
 21
-38.0059437236
 31
0.0
 11
-41.3478963487
 21
-37.8709238957
 31
0.0
 11
-41.4458499315
 21
-37.7526643983
 31
0.0
 11
-41.5645756239
 21
-37.6552628793
 31
0.0
 11
-41.699439253
 21
-37.5817965039
 31
0.0
 11
-41.771386872
 21
-37.5547261344
 31
0.0
 11
-41.8455088039
 21
-37.5343470038
 31
0.0
 11
-41.9977555938
 21
-37.5140921557
 31
0.0
  0
LINE
  5
6B1
100
AcDbEntity
  8
RACCORDO
100
AcDbLine
 62
7
  6
CONTINUOUS
 10
57.9465101847
 20
-23.2358147024
 11
57.6979718299
 21
-23.2769036997
  0
LINE
  5
6B2
100
AcDbEntity
  8
RACCORDO
100
AcDbLine
 62
253
  6
CONTINUOUS
 10
57.1177263007
 20
-35.7563612301
 11
57.3165693054
 21
-35.9561977986
  0
LINE
  5
6B3
100
AcDbEntity
  8
RACCORDO
100
AcDbLine
 62
7
  6
CONTINUOUS
 10
58.0498098289
 20
-20.4048300794
 11
57.7940270195
 21
-20.4890137083
  0
LINE
  5
6B4
100
AcDbEntity
  8
RACCORDO
100
AcDbLine
 62
7
  6
CONTINUOUS
 10
57.9722315198
 20
-22.5641852976
 11
57.7251623123
 21
-22.522813318
  0
SPLINE
  5
6B5
100
AcDbEntity
  8
RACCORDO
100
AcDbSpline
 62
7
  6
CONTINUOUS
 70
0
 71
3
 72
18
 73
14
 74
12
 42
0.0000001
 43
0.0000001
 44
0.0000000001
 12
0.0019777445
 22
0.2996175042
 32
0.0
 13
-0.1528140161
 23
0.2577255067
 33
0.0
 40
0.0
 40
0.0
 40
0.0
 40
0.0
 40
0.1847110777
 40
0.3630813874
 40
0.5289965409
 40
0.6767828407
 40
0.8014135394
 40
0.8536988123
 40
0.8986972997
 40
0.936045671
 40
0.9654615946
 40
0.9867697409
 40
1.0
 40
1.0
 40
1.0
 40
1.0
 10
58.3847680223
 20
-3.9498766793
 30
0.0
 10
58.3848897928
 20
-3.9314291219
 30
0.0
 10
58.3849537206
 20
-3.8951658387
 30
0.0
 10
58.3845181788
 20
-3.842333419
 30
0.0
 10
58.3835707851
 20
-3.7931956915
 30
0.0
 10
58.3821482035
 20
-3.7494394852
 30
0.0
 10
58.3805476817
 20
-3.7170460793
 30
0.0
 10
58.379003018
 20
-3.6949362995
 30
0.0
 10
58.3778365913
 20
-3.681538041
 30
0.0
 10
58.3766022122
 20
-3.6704476152
 30
0.0
 10
58.37533659
 20
-3.6617279613
 30
0.0
 10
58.3740255213
 20
-3.6554977162
 30
0.0
 10
58.3729877357
 20
-3.6521548616
 30
0.0
 10
58.3723138127
 20
-3.6510182698
 30
0.0
 11
58.3847680223
 21
-3.9498766793
 31
0.0
 11
58.3848609244
 21
-3.8945328794
 31
0.0
 11
58.3844060883
 21
-3.8410907836
 31
0.0
 11
58.383420038
 21
-3.7913883966
 31
0.0
 11
58.3819380597
 21
-3.7471328761
 31
0.0
 11
58.380012722
 21
-3.7098401911
 31
0.0
 11
58.3789044367
 21
-3.6942135188
 31
0.0
 11
58.3777117689
 21
-3.6807837456
 31
0.0
 11
58.3764451196
 21
-3.6696651932
 31
0.0
 11
58.3751155111
 21
-3.6609523429
 31
0.0
 11
58.3737344176
 21
-3.6547190804
 31
0.0
 11
58.3723138127
 21
-3.6510182698
 31
0.0
  0
LINE
  5
6B6
100
AcDbEntity
  8
RACCORDO
100
AcDbLine
 62
7
  6
CONTINUOUS
 10
58.219786652
 20
-14.5951699206
 11
57.9587897651
 21
-14.5075576277
  0
LINE
  5
6B7
100
AcDbEntity
  8
RACCORDO
100
AcDbLine
 62
7
  6
CONTINUOUS
 10
57.9587897694
 20
14.5075576284
 11
58.219786652
 21
14.5951699206
  0
SPLINE
  5
6B8
100
AcDbEntity
  8
RACCORDO
100
AcDbSpline
 62
7
  6
CONTINUOUS
 70
0
 71
3
 72
18
 73
14
 74
12
 42
0.0000001
 43
0.0000001
 44
0.0000000001
 12
0.1528140161
 22
0.2577255067
 32
0.0
 13
-0.0019777445
 23
0.2996175042
 33
0.0
 40
0.0
 40
0.0
 40
0.0
 40
0.0
 40
0.0132302591
 40
0.0345384054
 40
0.063954329
 40
0.1013027003
 40
0.1463011877
 40
0.1985864606
 40
0.3232171593
 40
0.4710034591
 40
0.6369186126
 40
0.8152889223
 40
1.0
 40
1.0
 40
1.0
 40
1.0
 10
58.3723138127
 20
3.6510182698
 30
0.0
 10
58.3729877357
 20
3.6521548616
 30
0.0
 10
58.3740255213
 20
3.6554977162
 30
0.0
 10
58.37533659
 20
3.6617279613
 30
0.0
 10
58.3766022122
 20
3.6704476152
 30
0.0
 10
58.3778365913
 20
3.681538041
 30
0.0
 10
58.379003018
 20
3.6949362995
 30
0.0
 10
58.3805476817
 20
3.7170460793
 30
0.0
 10
58.3821482035
 20
3.7494394852
 30
0.0
 10
58.3835707851
 20
3.7931956915
 30
0.0
 10
58.3845181788
 20
3.842333419
 30
0.0
 10
58.3849537206
 20
3.8951658387
 30
0.0
 10
58.3848897928
 20
3.9314291219
 30
0.0
 10
58.3847680223
 20
3.9498766793
 30
0.0
 11
58.3723138127
 21
3.6510182698
 31
0.0
 11
58.3737344176
 21
3.6547190804
 31
0.0
 11
58.3751155111
 21
3.6609523429
 31
0.0
 11
58.3764451196
 21
3.6696651932
 31
0.0
 11
58.3777117689
 21
3.6807837456
 31
0.0
 11
58.3789044367
 21
3.6942135188
 31
0.0
 11
58.380012722
 21
3.7098401911
 31
0.0
 11
58.3819380597
 21
3.7471328761
 31
0.0
 11
58.383420038
 21
3.7913883966
 31
0.0
 11
58.3844060883
 21
3.8410907836
 31
0.0
 11
58.3848609244
 21
3.8945328794
 31
0.0
 11
58.3847680223
 21
3.9498766793
 31
0.0
  0
LINE
  5
6B9
100
AcDbEntity
  8
RACCORDO
100
AcDbLine
 62
7
  6
CONTINUOUS
 10
57.7251623122
 20
22.522813318
 11
57.9722315198
 21
22.5641852976
  0
LINE
  5
6BA
100
AcDbEntity
  8
RACCORDO
100
AcDbLine
 62
7
  6
CONTINUOUS
 10
57.7940270193
 20
20.4890137083
 11
58.0498098289
 21
20.4048300794
  0
LINE
  5
6BB
100
AcDbEntity
  8
RACCORDO
100
AcDbLine
 62
253
  6
CONTINUOUS
 10
57.117726304
 20
35.7563611722
 11
57.3165693054
 21
35.9561977986
  0
LINE
  5
6BC
100
AcDbEntity
  8
RACCORDO
100
AcDbLine
 62
7
  6
CONTINUOUS
 10
57.6979718305
 20
23.2769036997
 11
57.9465101847
 21
23.2358147024
  0
SPLINE
  5
6BD
100
AcDbEntity
  8
DRAFT
100
AcDbSpline
 62
7
  6
CONTINUOUS
 70
0
 71
3
 72
9
 73
5
 74
3
 42
0.0000001
 43
0.0000001
 44
0.0000000001
 12
25.2110955373
 22
0.0022982069
 32
0.0
 13
25.2110935583
 23
0.0102500912
 33
0.0
 40
0.0
 40
0.0
 40
0.0
 40
0.0
 40
0.2500863269
 40
1.0
 40
1.0
 40
1.0
 40
1.0
 10
7.2920206952
 20
-0.4031569435
 30
0.0
 10
9.393670789
 20
-0.4029653601
 30
0.0
 10
17.7973692679
 20
-0.4018681129
 30
0.0
 10
26.2010675742
 20
-0.3994467296
 30
0.0
 10
32.5031154982
 20
-0.3968845018
 30
0.0
 11
7.2920206952
 21
-0.4031569435
 31
0.0
 11
13.5969709489
 21
-0.4023337314
 31
0.0
 11
32.5031154982
 21
-0.3968845018
 31
0.0
  0
SPLINE
  5
6BE
100
AcDbEntity
  8
DRAFT
100
AcDbSpline
 62
7
  6
CONTINUOUS
 70
0
 71
3
 72
9
 73
5
 74
3
 42
0.0000001
 43
0.0000001
 44
0.0000000001
 12
-0.0087260012
 22
22.1106680376
 32
0.0
 13
-0.000153795
 23
22.1106697589
 33
0.0
 40
0.0
 40
0.0
 40
0.0
 40
0.0
 40
0.2498888824
 40
1.0
 40
1.0
 40
1.0
 40
1.0
 10
32.5075537379
 20
-22.5075537379
 30
0.0
 10
32.5068268943
 20
-20.6658170293
 30
0.0
 10
32.5042759224
 20
-13.2955942133
 30
0.0
 10
32.5031539527
 20
-5.9253709028
 30
0.0
 10
32.5031154982
 20
-0.3968845018
 30
0.0
 11
32.5075537379
 21
-22.5075537379
 31
0.0
 11
32.5056412086
 21
-16.9823435129
 31
0.0
 11
32.5031154982
 21
-0.3968845018
 31
0.0
  0
SPLINE
  5
6BF
100
AcDbEntity
  8
DRAFT
100
AcDbSpline
 62
7
  6
CONTINUOUS
 70
0
 71
3
 72
9
 73
5
 74
3
 42
0.0000001
 43
0.0000001
 44
0.0000000001
 12
65.0151031043
 22
0.0264474058
 32
0.0
 13
65.0151031043
 23
-0.0264474058
 33
0.0
 40
0.0
 40
0.0
 40
0.0
 40
0.0
 40
0.2499321763
 40
1.0
 40
1.0
 40
1.0
 40
1.0
 10
-32.5075537379
 20
-22.5075537379
 30
0.0
 10
-27.0910983338
 20
-22.5053503853
 30
0.0
 10
-5.4193964576
 20
-22.4987421857
 30
0.0
 10
16.2523081072
 20
-22.5009412885
 30
0.0
 10
32.5075537379
 20
-22.5075537379
 30
0.0
 11
-32.5075537379
 21
-22.5075537379
 31
0.0
 11
-16.2581869372
 21
-22.5025973397
 31
0.0
 11
32.5075537379
 21
-22.5075537379
 31
0.0
  0
SPLINE
  5
6C0
100
AcDbEntity
  8
DRAFT
100
AcDbSpline
 62
7
  6
CONTINUOUS
 70
0
 71
3
 72
9
 73
5
 74
3
 42
0.0000001
 43
0.0000001
 44
0.0000000001
 12
-0.000153795
 22
-22.1106697589
 32
0.0
 13
-0.0087260012
 23
-22.1106680376
 33
0.0
 40
0.0
 40
0.0
 40
0.0
 40
0.0
 40
0.2500803354
 40
1.0
 40
1.0
 40
1.0
 40
1.0
 10
-32.5031154982
 20
-0.3968845018
 30
0.0
 10
-32.5031283186
 20
-2.240032405
 30
0.0
 10
-32.5035367229
 20
-9.6102556511
 30
0.0
 10
-32.5053724713
 20
-16.9804788184
 30
0.0
 10
-32.5075537379
 20
-22.5075537379
 30
0.0
 11
-32.5031154982
 21
-0.3968845018
 31
0.0
 11
-32.5034218527
 21
-5.9263282031
 31
0.0
 11
-32.5075537379
 21
-22.5075537379
 31
0.0
  0
SPLINE
  5
6C1
100
AcDbEntity
  8
DRAFT
100
AcDbSpline
 62
7
  6
CONTINUOUS
 70
0
 71
3
 72
9
 73
5
 74
3
 42
0.0000001
 43
0.0000001
 44
0.0000000001
 12
25.2110935584
 22
-0.0102500912
 32
0.0
 13
25.2110955373
 23
-0.0022982069
 33
0.0
 40
0.0
 40
0.0
 40
0.0
 40
0.0
 40
0.2498933088
 40
1.0
 40
1.0
 40
1.0
 40
1.0
 10
-32.5031154982
 20
-0.3968845018
 30
0.0
 10
-30.4030876357
 20
-0.3977383115
 30
0.0
 10
-21.9993896513
 20
-0.4008232323
 30
0.0
 10
-13.5956911803
 20
-0.40258231
 30
0.0
 10
-7.2920206952
 20
-0.4031569435
 30
0.0
 11
-32.5031154982
 21
-0.3968845018
 31
0.0
 11
-26.2030318146
 21
-0.3991973192
 31
0.0
 11
-7.2920206952
 21
-0.4031569435
 31
0.0
  0
SPLINE
  5
6C2
100
AcDbEntity
  8
DRAFT
100
AcDbSpline
 62
7
  6
CONTINUOUS
 70
0
 71
3
 72
9
 73
5
 74
3
 42
0.0000001
 43
0.0000001
 44
0.0000000001
 12
-25.2110955373
 22
-0.0022982069
 32
0.0
 13
-25.2110935583
 23
-0.0102500912
 33
0.0
 40
0.0
 40
0.0
 40
0.0
 40
0.0
 40
0.2500863269
 40
1.0
 40
1.0
 40
1.0
 40
1.0
 10
-7.2920206952
 20
0.4031569435
 30
0.0
 10
-9.393670789
 20
0.4029653601
 30
0.0
 10
-17.7973692679
 20
0.4018681129
 30
0.0
 10
-26.2010675742
 20
0.3994467296
 30
0.0
 10
-32.5031154982
 20
0.3968845018
 30
0.0
 11
-7.2920206952
 21
0.4031569435
 31
0.0
 11
-13.5969709489
 21
0.4023337314
 31
0.0
 11
-32.5031154982
 21
0.3968845018
 31
0.0
  0
SPLINE
  5
6C3
100
AcDbEntity
  8
DRAFT
100
AcDbSpline
 62
7
  6
CONTINUOUS
 70
0
 71
3
 72
9
 73
5
 74
3
 42
0.0000001
 43
0.0000001
 44
0.0000000001
 12
0.0087260012
 22
-22.1106680376
 32
0.0
 13
0.000153795
 23
-22.1106697589
 33
0.0
 40
0.0
 40
0.0
 40
0.0
 40
0.0
 40
0.2498888824
 40
1.0
 40
1.0
 40
1.0
 40
1.0
 10
-32.5075537379
 20
22.5075537379
 30
0.0
 10
-32.5068268943
 20
20.6658170293
 30
0.0
 10
-32.5042759224
 20
13.2955942133
 30
0.0
 10
-32.5031539527
 20
5.9253709028
 30
0.0
 10
-32.5031154982
 20
0.3968845018
 30
0.0
 11
-32.5075537379
 21
22.5075537379
 31
0.0
 11
-32.5056412086
 21
16.9823435129
 31
0.0
 11
-32.5031154982
 21
0.3968845018
 31
0.0
  0
SPLINE
  5
6C4
100
AcDbEntity
  8
DRAFT
100
AcDbSpline
 62
7
  6
CONTINUOUS
 70
0
 71
3
 72
9
 73
5
 74
3
 42
0.0000001
 43
0.0000001
 44
0.0000000001
 12
-65.0151031043
 22
-0.0264474058
 32
0.0
 13
-65.0151031043
 23
0.0264474058
 33
0.0
 40
0.0
 40
0.0
 40
0.0
 40
0.0
 40
0.2499321763
 40
1.0
 40
1.0
 40
1.0
 40
1.0
 10
32.5075537379
 20
22.5075537379
 30
0.0
 10
27.0910983338
 20
22.5053503853
 30
0.0
 10
5.4193964576
 20
22.4987421857
 30
0.0
 10
-16.2523081072
 20
22.5009412885
 30
0.0
 10
-32.5075537379
 20
22.5075537379
 30
0.0
 11
32.5075537379
 21
22.5075537379
 31
0.0
 11
16.2581869372
 21
22.5025973397
 31
0.0
 11
-32.5075537379
 21
22.5075537379
 31
0.0
  0
SPLINE
  5
6C5
100
AcDbEntity
  8
DRAFT
100
AcDbSpline
 62
7
  6
CONTINUOUS
 70
0
 71
3
 72
9
 73
5
 74
3
 42
0.0000001
 43
0.0000001
 44
0.0000000001
 12
0.000153795
 22
22.1106697589
 32
0.0
 13
0.0087260012
 23
22.1106680376
 33
0.0
 40
0.0
 40
0.0
 40
0.0
 40
0.0
 40
0.2500803354
 40
1.0
 40
1.0
 40
1.0
 40
1.0
 10
32.5031154982
 20
0.3968845018
 30
0.0
 10
32.5031283186
 20
2.240032405
 30
0.0
 10
32.5035367229
 20
9.6102556511
 30
0.0
 10
32.5053724713
 20
16.9804788184
 30
0.0
 10
32.5075537379
 20
22.5075537379
 30
0.0
 11
32.5031154982
 21
0.3968845018
 31
0.0
 11
32.5034218527
 21
5.9263282031
 31
0.0
 11
32.5075537379
 21
22.5075537379
 31
0.0
  0
SPLINE
  5
6C6
100
AcDbEntity
  8
DRAFT
100
AcDbSpline
 62
7
  6
CONTINUOUS
 70
0
 71
3
 72
9
 73
5
 74
3
 42
0.0000001
 43
0.0000001
 44
0.0000000001
 12
-25.2110935584
 22
0.0102500912
 32
0.0
 13
-25.2110955373
 23
0.0022982069
 33
0.0
 40
0.0
 40
0.0
 40
0.0
 40
0.0
 40
0.2498933088
 40
1.0
 40
1.0
 40
1.0
 40
1.0
 10
32.5031154982
 20
0.3968845018
 30
0.0
 10
30.4030876357
 20
0.3977383115
 30
0.0
 10
21.9993896513
 20
0.4008232323
 30
0.0
 10
13.5956911803
 20
0.40258231
 30
0.0
 10
7.2920206952
 20
0.4031569435
 30
0.0
 11
32.5031154982
 21
0.3968845018
 31
0.0
 11
26.2030318146
 21
0.3991973192
 31
0.0
 11
7.2920206952
 21
0.4031569435
 31
0.0
  0
SPLINE
  5
6C7
100
AcDbEntity
  8
RACCORDO
100
AcDbSpline
 62
7
  6
CONTINUOUS
 70
0
 71
3
 72
15
 73
11
 74
9
 42
0.0000001
 43
0.0000001
 44
0.0000000001
 12
-1.2882919957
 22
0.0464054383
 32
0.0
 13
0.0
 23
-1.2891275076
 33
0.0
 40
0.0
 40
0.0
 40
0.0
 40
0.0
 40
0.1250224145
 40
0.25003979
 40
0.375049964
 40
0.5000517031
 40
0.6250452959
 40
0.7500324824
 40
0.8750162181
 40
1.0
 40
1.0
 40
1.0
 40
1.0
 10
-35.9398798263
 20
-37.7507206523
 30
0.0
 10
-35.9935682849
 20
-37.7487867456
 30
0.0
 10
-36.1015887691
 20
-37.7550595723
 30
0.0
 10
-36.2587150472
 20
-37.7949473595
 30
0.0
 10
-36.4053048579
 20
-37.864369386
 30
0.0
 10
-36.5353929355
 20
-37.9612849183
 30
0.0
 10
-36.643387264
 20
-38.082380726
 30
0.0
 10
-36.7243317834
 20
-38.2230553772
 30
0.0
 10
-36.7743926371
 20
-38.3773879905
 30
0.0
 10
-36.7856406461
 20
-38.4851418072
 30
0.0
 10
-36.7856406461
 20
-38.5388484843
 30
0.0
 11
-35.9398798263
 21
-37.7507206523
 31
0.0
 11
-36.1007741838
 21
-37.7601398336
 31
0.0
 11
-36.2569632726
 21
-37.7998713067
 31
0.0
 11
-36.4025591393
 21
-37.8689543925
 31
0.0
 11
-36.5317144561
 21
-37.965318435
 31
0.0
 11
-36.6388813606
 21
-38.0856471297
 31
0.0
 11
-36.7191854385
 21
-38.2253336854
 31
0.0
 11
-36.7688612359
 21
-38.3786045581
 31
0.0
 11
-36.7856406461
 21
-38.5388484843
 31
0.0
  0
LINE
  5
6C8
100
AcDbEntity
  8
RACCORDO
100
AcDbLine
 62
7
  6
CONTINUOUS
 10
-57.519206499
 20
-20.4939520442
 11
-55.85
 21
-20.4963228931
  0
ELLIPSE
  5
6C9
100
AcDbEntity
  8
RACCORDO
100
AcDbEllipse
 62
7
  6
CONTINUOUS
 10
540.0
 20
558.5026411517
 30
0.0
 11
0.0
 21
932.3548968974
 31
0.0
 40
0.8007313262
 41
-4.0749892646
 42
-4.0748196796
  0
ELLIPSE
  5
6CA
100
AcDbEntity
  8
RACCORDO
100
AcDbEllipse
 62
7
  6
CONTINUOUS
 10
540.0
 20
-558.5026411517
 30
0.0
 11
0.0
 21
932.3548968974
 31
0.0
 40
0.8007313262
 41
0.933227026
 42
0.933396611
  0
ELLIPSE
  5
6CB
100
AcDbEntity
  8
RACCORDO
100
AcDbEllipse
 62
7
  6
CONTINUOUS
 10
-540.0
 20
-558.5026411517
 30
0.0
 11
0.0
 21
932.3548968974
 31
0.0
 40
0.8007313262
 41
-0.933396611
 42
-0.933227026
  0
ELLIPSE
  5
6CC
100
AcDbEntity
  8
RACCORDO
100
AcDbEllipse
 62
7
  6
CONTINUOUS
 10
-540.0
 20
558.5026411517
 30
0.0
 11
0.0
 21
932.3548968974
 31
0.0
 40
0.8007313262
 41
-2.2083656276
 42
-2.2081960426
  0
ELLIPSE
  5
6CD
100
AcDbEntity
  8
RACCORDO
100
AcDbEllipse
 62
7
  6
CONTINUOUS
 10
-35.2
 20
22.5145277346
 30
0.0
 11
0.2
 21
-0.0
 31
0.0
 40
0.0087268678
 41
0.0
 42
1.5572697949
  0
ELLIPSE
  5
6CE
100
AcDbEntity
  8
RACCORDO
100
AcDbEllipse
 62
7
  6
CONTINUOUS
 10
-35.2
 20
-23.2854722654
 30
0.0
 11
0.2
 21
-0.0
 31
0.0
 40
0.0087268678
 41
0.0
 42
1.5572697949
  0
ELLIPSE
  5
6CF
100
AcDbEntity
  8
RACCORDO
100
AcDbEllipse
 62
7
  6
CONTINUOUS
 10
35.2
 20
-22.5145277346
 30
0.0
 11
0.2
 21
-0.0
 31
0.0
 40
0.0087268678
 41
3.1415926536
 42
4.6988624485
  0
ELLIPSE
  5
6D0
100
AcDbEntity
  8
RACCORDO
100
AcDbEllipse
 62
7
  6
CONTINUOUS
 10
-48.3
 20
-0.3811573023
 30
0.0
 11
0.5
 21
-0.0
 31
0.0
 40
0.0087268678
 41
-0.0
 42
1.4056397495
  0
ELLIPSE
  5
6D1
100
AcDbEntity
  8
DRAFT
100
AcDbEllipse
 62
7
  6
CONTINUOUS
 10
539.7264824348
 20
-0.0
 30
0.0
 11
598.0411498441
 21
-0.0000003174
 31
0.0
 40
0.9999998954
 41
-3.1116581729
 42
-3.1086439402
  0
ELLIPSE
  5
6D2
100
AcDbEntity
  8
DRAFT
100
AcDbEllipse
 62
7
  6
CONTINUOUS
 10
539.7264824348
 20
-0.0
 30
0.0
 11
598.0411498441
 21
-0.000000672
 31
0.0
 40
0.9999998954
 41
-3.1160063252
 42
-3.1129946986
  0
ELLIPSE
  5
6D3
100
AcDbEntity
  8
DRAFT
100
AcDbEllipse
 62
7
  6
CONTINUOUS
 10
539.7264824348
 20
-0.0
 30
0.0
 11
598.0411498441
 21
0.0000005905
 31
0.0
 40
0.9999998954
 41
3.1129946987
 42
3.1160063253
  0
ELLIPSE
  5
6D4
100
AcDbEntity
  8
DRAFT
100
AcDbEllipse
 62
7
  6
CONTINUOUS
 10
539.7264824348
 20
-0.0
 30
0.0
 11
598.0411498441
 21
-0.0000007969
 31
0.0
 40
0.9999998954
 41
3.1086439421
 42
3.1116581748
  0
ELLIPSE
  5
6D5
100
AcDbEntity
  8
RACCORDO
100
AcDbEllipse
 62
7
  6
CONTINUOUS
 10
-0.0382285107
 20
22.58
 30
0.0
 11
0.0
 21
40.0
 31
0.0
 40
0.0087268678
 41
1.3293565423
 42
1.5352888661
  0
ELLIPSE
  5
6D6
100
AcDbEntity
  8
RACCORDO
100
AcDbEllipse
 62
7
  6
CONTINUOUS
 10
0.0382285107
 20
22.58
 30
0.0
 11
0.0
 21
40.0
 31
0.0
 40
0.0087268678
 41
-1.5352888661
 42
-1.3293565423
  0
ELLIPSE
  5
6D7
100
AcDbEntity
  8
RACCORDO
100
AcDbEllipse
 62
7
  6
CONTINUOUS
 10
0.0382285107
 20
-22.58
 30
0.0
 11
0.0
 21
40.0
 31
0.0
 40
0.0087268678
 41
-1.8122361113
 42
-1.6063037875
  0
ELLIPSE
  5
6D8
100
AcDbEntity
  8
RACCORDO
100
AcDbEllipse
 62
7
  6
CONTINUOUS
 10
-0.0382285107
 20
-22.58
 30
0.0
 11
0.0
 21
40.0
 31
0.0
 40
0.0087268678
 41
-4.6768815197
 42
-4.4709491959
  0
ELLIPSE
  5
6D9
100
AcDbEntity
  8
RACCORDO
100
AcDbEllipse
 62
7
  6
CONTINUOUS
 10
-32.882715972
 20
-22.5
 30
0.0
 11
0.0
 21
42.0
 31
0.0
 40
0.0087268678
 41
-1.8000963392
 42
-1.6110915907
  0
ELLIPSE
  5
6DA
100
AcDbEntity
  8
RACCORDO
100
AcDbEllipse
 62
7
  6
CONTINUOUS
 10
-32.917284028
 20
-22.5
 30
0.0
 11
0.0
 21
42.0
 31
0.0
 40
0.0087268678
 41
-4.6720937165
 42
-4.483088968
  0
ELLIPSE
  5
6DB
100
AcDbEntity
  8
RACCORDO
100
AcDbEllipse
 62
7
  6
CONTINUOUS
 10
32.5147410954
 20
-24.2
 30
0.0
 11
-0.0
 21
0.2
 31
0.0
 40
0.0087268678
 41
-1.5305010629
 42
0.0
  0
ELLIPSE
  5
6DC
100
AcDbEntity
  8
RACCORDO
100
AcDbEllipse
 62
7
  6
CONTINUOUS
 10
32.5598218637
 20
-32.8413486316
 30
0.0
 11
-0.0
 21
0.5
 31
0.0
 40
0.0087268678
 41
-1.5707963268
 42
-0.0174532925
  0
ELLIPSE
  5
6DD
100
AcDbEntity
  8
RACCORDO
100
AcDbEllipse
 62
7
  6
CONTINUOUS
 10
32.5598218637
 20
32.8413486316
 30
0.0
 11
-0.0
 21
0.5
 31
0.0
 40
0.0087268678
 41
-3.1241393611
 42
-1.5707963268
  0
ELLIPSE
  5
6DE
100
AcDbEntity
  8
RACCORDO
100
AcDbEllipse
 62
7
  6
CONTINUOUS
 10
32.5147410954
 20
24.2
 30
0.0
 11
-0.0
 21
0.2
 31
0.0
 40
0.0087268678
 41
-3.1415926536
 42
-1.6110915907
  0
ELLIPSE
  5
6DF
100
AcDbEntity
  8
RACCORDO
100
AcDbEllipse
 62
7
  6
CONTINUOUS
 10
33.2401781363
 20
-32.8413486316
 30
0.0
 11
0.0
 21
0.5
 31
0.0
 40
0.0087268678
 41
0.0174532925
 42
1.5707963268
  0
ELLIPSE
  5
6E0
100
AcDbEntity
  8
RACCORDO
100
AcDbEllipse
 62
7
  6
CONTINUOUS
 10
33.2852589046
 20
-24.2
 30
0.0
 11
0.0
 21
0.2
 31
0.0
 40
0.0087268678
 41
0.0
 42
1.5305010629
  0
ELLIPSE
  5
6E1
100
AcDbEntity
  8
RACCORDO
100
AcDbEllipse
 62
7
  6
CONTINUOUS
 10
33.2852589046
 20
24.2
 30
0.0
 11
0.0
 21
0.2
 31
0.0
 40
0.0087268678
 41
-4.6720937165
 42
-3.1415926536
  0
ELLIPSE
  5
6E2
100
AcDbEntity
  8
RACCORDO
100
AcDbEllipse
 62
7
  6
CONTINUOUS
 10
33.2401781363
 20
32.8413486316
 30
0.0
 11
-0.0
 21
0.5
 31
0.0
 40
0.0087268678
 41
-4.7123889804
 42
-3.1590459461
  0
ELLIPSE
  5
6E3
100
AcDbEntity
  8
RACCORDO
100
AcDbEllipse
 62
7
  6
CONTINUOUS
 10
55.5413486316
 20
23.2401781363
 30
0.0
 11
0.5
 21
-0.0
 31
0.0
 40
0.0087268678
 41
-3.1241393611
 42
-1.5707963268
  0
ELLIPSE
  5
6E4
100
AcDbEntity
  8
RACCORDO
100
AcDbEllipse
 62
7
  6
CONTINUOUS
 10
35.2
 20
23.2854722654
 30
0.0
 11
0.2
 21
0.0
 31
0.0
 40
0.0087268678
 41
3.1415926536
 42
4.6988624485
  0
ELLIPSE
  5
6E5
100
AcDbEntity
  8
RACCORDO
100
AcDbEllipse
 62
7
  6
CONTINUOUS
 10
-35.2
 20
23.2854722654
 30
0.0
 11
0.2
 21
-0.0
 31
0.0
 40
0.0087268678
 41
-1.5572697949
 42
0.0
  0
ELLIPSE
  5
6E6
100
AcDbEntity
  8
RACCORDO
100
AcDbEllipse
 62
7
  6
CONTINUOUS
 10
-55.5413486316
 20
23.2401781363
 30
0.0
 11
0.5
 21
0.0
 31
0.0
 40
0.0087268678
 41
-1.5707963268
 42
-0.0174532925
  0
ELLIPSE
  5
6E7
100
AcDbEntity
  8
RACCORDO
100
AcDbEllipse
 62
7
  6
CONTINUOUS
 10
-55.5413486316
 20
-23.2401781363
 30
0.0
 11
0.5
 21
-0.0
 31
0.0
 40
0.0087268678
 41
0.0174532925
 42
1.5707963268
  0
ELLIPSE
  5
6E8
100
AcDbEntity
  8
RACCORDO
100
AcDbEllipse
 62
7
  6
CONTINUOUS
 10
35.2
 20
-23.2854722654
 30
0.0
 11
0.2
 21
-0.0
 31
0.0
 40
0.0087268678
 41
1.5843228587
 42
3.1415926536
  0
ELLIPSE
  5
6E9
100
AcDbEntity
  8
RACCORDO
100
AcDbEllipse
 62
7
  6
CONTINUOUS
 10
55.5413486316
 20
-23.2401781363
 30
0.0
 11
0.5
 21
-0.0
 31
0.0
 40
0.0087268678
 41
1.5707963268
 42
3.1241393611
  0
ELLIPSE
  5
6EA
100
AcDbEntity
  8
RACCORDO
100
AcDbEllipse
 62
7
  6
CONTINUOUS
 10
-33.2852589046
 20
-24.2
 30
0.0
 11
-0.0
 21
0.2
 31
0.0
 40
0.0087268678
 41
-1.5305010629
 42
0.0
  0
ELLIPSE
  5
6EB
100
AcDbEntity
  8
RACCORDO
100
AcDbEllipse
 62
7
  6
CONTINUOUS
 10
-33.2401781363
 20
-32.8413486316
 30
0.0
 11
-0.0
 21
0.5
 31
0.0
 40
0.0087268678
 41
-1.5707963268
 42
-0.0174532925
  0
ELLIPSE
  5
6EC
100
AcDbEntity
  8
RACCORDO
100
AcDbEllipse
 62
7
  6
CONTINUOUS
 10
-33.2401781363
 20
32.8413486316
 30
0.0
 11
0.0
 21
0.5
 31
0.0
 40
0.0087268678
 41
-3.1241393611
 42
-1.5707963268
  0
ELLIPSE
  5
6ED
100
AcDbEntity
  8
RACCORDO
100
AcDbEllipse
 62
7
  6
CONTINUOUS
 10
-33.2852589046
 20
24.2
 30
0.0
 11
0.0
 21
0.2
 31
0.0
 40
0.0087268678
 41
-3.1415926536
 42
-1.6110915907
  0
ELLIPSE
  5
6EE
100
AcDbEntity
  8
RACCORDO
100
AcDbEllipse
 62
7
  6
CONTINUOUS
 10
-55.5064385017
 20
-0.3576318719
 30
0.0
 11
0.5
 21
0.0
 31
0.0
 40
0.0087268678
 41
0.0174532925
 42
1.5707963268
  0
ELLIPSE
  5
6EF
100
AcDbEntity
  8
RACCORDO
100
AcDbEllipse
 62
7
  6
CONTINUOUS
 10
-34.8001971572
 20
-0.3873032224
 30
0.0
 11
0.2
 21
0.0
 31
0.0
 40
0.0087268678
 41
1.5707963269
 42
3.0971866172
  0
ELLIPSE
  5
6F0
100
AcDbEntity
  8
RACCORDO
100
AcDbEllipse
 62
7
  6
CONTINUOUS
 10
34.8001971572
 20
-0.3873032224
 30
0.0
 11
0.2
 21
0.0
 31
0.0
 40
0.0087268678
 41
0.0444060364
 42
1.5707963269
  0
ELLIPSE
  5
6F1
100
AcDbEntity
  8
RACCORDO
100
AcDbEllipse
 62
7
  6
CONTINUOUS
 10
48.3
 20
-0.3811573023
 30
0.0
 11
0.5
 21
-0.0
 31
0.0
 40
0.0087268678
 41
1.7359529041
 42
3.1415926536
  0
ELLIPSE
  5
6F2
100
AcDbEntity
  8
RACCORDO
100
AcDbEllipse
 62
7
  6
CONTINUOUS
 10
55.5064385017
 20
-0.3576318719
 30
0.0
 11
0.5
 21
-0.0
 31
0.0
 40
0.0087268678
 41
1.5707963268
 42
3.1241393611
  0
ELLIPSE
  5
6F3
100
AcDbEntity
  8
RACCORDO
100
AcDbEllipse
 62
7
  6
CONTINUOUS
 10
55.5064385017
 20
0.3576318719
 30
0.0
 11
0.5
 21
0.0
 31
0.0
 40
0.0087268678
 41
-3.1241393611
 42
-1.5707963268
  0
ELLIPSE
  5
6F4
100
AcDbEntity
  8
RACCORDO
100
AcDbEllipse
 62
7
  6
CONTINUOUS
 10
48.3
 20
0.3811573023
 30
0.0
 11
0.5
 21
-0.0
 31
0.0
 40
0.0087268678
 41
3.1415926536
 42
4.5472324031
  0
ELLIPSE
  5
6F5
100
AcDbEntity
  8
RACCORDO
100
AcDbEllipse
 62
7
  6
CONTINUOUS
 10
34.8001971572
 20
0.3873032224
 30
0.0
 11
0.2
 21
-0.0
 31
0.0
 40
0.0087268678
 41
-1.5707963269
 42
-0.0444060364
  0
ELLIPSE
  5
6F6
100
AcDbEntity
  8
RACCORDO
100
AcDbEllipse
 62
7
  6
CONTINUOUS
 10
-34.8001971572
 20
0.3873032224
 30
0.0
 11
0.2
 21
0.0
 31
0.0
 40
0.0087268678
 41
-3.0971866172
 42
-1.5707963269
  0
ELLIPSE
  5
6F7
100
AcDbEntity
  8
RACCORDO
100
AcDbEllipse
 62
7
  6
CONTINUOUS
 10
-48.3
 20
0.3811573023
 30
0.0
 11
0.5
 21
-0.0
 31
0.0
 40
0.0087268678
 41
-1.4056397495
 42
-0.0
  0
ELLIPSE
  5
6F8
100
AcDbEntity
  8
RACCORDO
100
AcDbEllipse
 62
7
  6
CONTINUOUS
 10
-55.5064385017
 20
0.3576318719
 30
0.0
 11
0.5
 21
0.0
 31
0.0
 40
0.0087268678
 41
-1.5707963268
 42
-0.0174532925
  0
ELLIPSE
  5
6F9
100
AcDbEntity
  8
RACCORDO
100
AcDbEllipse
 62
7
  6
CONTINUOUS
 10
35.2
 20
22.5145277346
 30
0.0
 11
0.2
 21
-0.0
 31
0.0
 40
0.0087268678
 41
1.5843228587
 42
3.1415926536
  0
ELLIPSE
  5
6FA
100
AcDbEntity
  8
RACCORDO
100
AcDbEllipse
 62
7
  6
CONTINUOUS
 10
55.5413486316
 20
22.5598218637
 30
0.0
 11
0.5
 21
0.0
 31
0.0
 40
0.0087268678
 41
1.5707963268
 42
3.1241393611
  0
ELLIPSE
  5
6FB
100
AcDbEntity
  8
RACCORDO
100
AcDbEllipse
 62
7
  6
CONTINUOUS
 10
-55.5413486316
 20
22.5598218637
 30
0.0
 11
0.5
 21
-0.0
 31
0.0
 40
0.0087268678
 41
0.0174532925
 42
1.5707963268
  0
ELLIPSE
  5
6FC
100
AcDbEntity
  8
RACCORDO
100
AcDbEllipse
 62
7
  6
CONTINUOUS
 10
-32.917284028
 20
22.5
 30
0.0
 11
0.0
 21
42.0
 31
0.0
 40
0.0087268678
 41
1.3414963144
 42
1.5305010629
  0
ELLIPSE
  5
6FD
100
AcDbEntity
  8
RACCORDO
100
AcDbEllipse
 62
7
  6
CONTINUOUS
 10
-35.2
 20
-22.5145277346
 30
0.0
 11
0.2
 21
-0.0
 31
0.0
 40
0.0087268678
 41
-1.5572697949
 42
0.0
  0
ELLIPSE
  5
6FE
100
AcDbEntity
  8
RACCORDO
100
AcDbEllipse
 62
7
  6
CONTINUOUS
 10
-55.5413486316
 20
-22.5598218637
 30
0.0
 11
0.5
 21
0.0
 31
0.0
 40
0.0087268678
 41
-1.5707963268
 42
-0.0174532925
  0
ELLIPSE
  5
6FF
100
AcDbEntity
  8
RACCORDO
100
AcDbEllipse
 62
7
  6
CONTINUOUS
 10
55.5413486316
 20
-22.5598218637
 30
0.0
 11
0.5
 21
-0.0
 31
0.0
 40
0.0087268678
 41
-3.1241393611
 42
-1.5707963268
  0
ELLIPSE
  5
700
100
AcDbEntity
  8
RACCORDO
100
AcDbEllipse
 62
7
  6
CONTINUOUS
 10
-32.5598218637
 20
-32.8413486316
 30
0.0
 11
0.0
 21
0.5
 31
0.0
 40
0.0087268678
 41
0.0174532925
 42
1.5707963268
  0
ELLIPSE
  5
701
100
AcDbEntity
  8
RACCORDO
100
AcDbEllipse
 62
7
  6
CONTINUOUS
 10
-32.5147410954
 20
-24.2
 30
0.0
 11
0.0
 21
0.2
 31
0.0
 40
0.0087268678
 41
0.0
 42
1.5305010629
  0
ELLIPSE
  5
702
100
AcDbEntity
  8
RACCORDO
100
AcDbEllipse
 62
7
  6
CONTINUOUS
 10
-32.5147410954
 20
24.2
 30
0.0
 11
-0.0
 21
0.2
 31
0.0
 40
0.0087268678
 41
-4.6720937165
 42
-3.1415926536
  0
ELLIPSE
  5
703
100
AcDbEntity
  8
RACCORDO
100
AcDbEllipse
 62
7
  6
CONTINUOUS
 10
-32.5598218637
 20
32.8413486316
 30
0.0
 11
0.0
 21
0.5
 31
0.0
 40
0.0087268678
 41
1.5707963268
 42
3.1241393611
  0
ELLIPSE
  5
704
100
AcDbEntity
  8
RACCORDO
100
AcDbEllipse
 62
7
  6
CONTINUOUS
 10
-0.3873032224
 20
-23.8015955965
 30
0.0
 11
0.0
 21
0.2
 31
0.0
 40
0.0087268678
 41
-3.0151916019
 42
-1.5707963268
  0
ELLIPSE
  5
705
100
AcDbEntity
  8
RACCORDO
100
AcDbEllipse
 62
7
  6
CONTINUOUS
 10
-0.3401781363
 20
-32.9413486316
 30
0.0
 11
0.0
 21
0.5
 31
0.0
 40
0.0087268678
 41
-1.5707963268
 42
-0.0174532925
  0
ELLIPSE
  5
706
100
AcDbEntity
  8
RACCORDO
100
AcDbEllipse
 62
7
  6
CONTINUOUS
 10
-0.3401781363
 20
32.9413486316
 30
0.0
 11
0.0
 21
0.5
 31
0.0
 40
0.0087268678
 41
-3.1241393611
 42
-1.5707963268
  0
ELLIPSE
  5
707
100
AcDbEntity
  8
RACCORDO
100
AcDbEllipse
 62
7
  6
CONTINUOUS
 10
-0.3873032224
 20
23.8015955965
 30
0.0
 11
0.0
 21
0.2
 31
0.0
 40
0.0087268678
 41
-1.5707963268
 42
-0.1264010517
  0
ELLIPSE
  5
708
100
AcDbEntity
  8
RACCORDO
100
AcDbEllipse
 62
7
  6
CONTINUOUS
 10
0.3401781363
 20
-32.9413486316
 30
0.0
 11
0.0
 21
0.5
 31
0.0
 40
0.0087268678
 41
0.0174532925
 42
1.5707963268
  0
ELLIPSE
  5
709
100
AcDbEntity
  8
RACCORDO
100
AcDbEllipse
 62
7
  6
CONTINUOUS
 10
0.3873032224
 20
-23.8015955965
 30
0.0
 11
0.0
 21
0.2
 31
0.0
 40
0.0087268678
 41
1.5707963268
 42
3.0151916019
  0
ELLIPSE
  5
70A
100
AcDbEntity
  8
RACCORDO
100
AcDbEllipse
 62
7
  6
CONTINUOUS
 10
0.3873032224
 20
23.8015955965
 30
0.0
 11
0.0
 21
0.2
 31
0.0
 40
0.0087268678
 41
0.1264010517
 42
1.5707963268
  0
ELLIPSE
  5
70B
100
AcDbEntity
  8
RACCORDO
100
AcDbEllipse
 62
7
  6
CONTINUOUS
 10
0.3401781363
 20
32.9413486316
 30
0.0
 11
0.0
 21
0.5
 31
0.0
 40
0.0087268678
 41
-4.7123889804
 42
-3.1590459461
  0
ELLIPSE
  5
70C
100
AcDbEntity
  8
RACCORDO
100
AcDbEllipse
 62
7
  6
CONTINUOUS
 10
54.696510227
 20
0.3625347046
 30
0.0
 11
0.3
 21
0.0
 31
0.0
 40
0.0087268678
 41
0.0174532925
 42
1.3296223795
  0
ELLIPSE
  5
70D
100
AcDbEntity
  8
RACCORDO
100
AcDbEllipse
 62
7
  6
CONTINUOUS
 10
54.696510227
 20
-0.3625347046
 30
0.0
 11
0.3
 21
0.0
 31
0.0
 40
0.0087268678
 41
-1.3296223795
 42
-0.0174532925
  0
ELLIPSE
  5
70E
100
AcDbEntity
  8
RACCORDO
100
AcDbEllipse
 62
7
  6
CONTINUOUS
 10
-54.696510227
 20
-0.3625347046
 30
0.0
 11
0.3
 21
-0.0
 31
0.0
 40
0.0087268678
 41
-3.1241393611
 42
-1.8119702741
  0
ELLIPSE
  5
70F
100
AcDbEntity
  8
RACCORDO
100
AcDbEllipse
 62
7
  6
CONTINUOUS
 10
-54.696510227
 20
0.3625347046
 30
0.0
 11
0.3
 21
0.0
 31
0.0
 40
0.0087268678
 41
1.8119702741
 42
3.1241393611
  0
ELLIPSE
  5
710
100
AcDbEntity
  8
RACCORDO
100
AcDbEllipse
 62
7
  6
CONTINUOUS
 10
0.3746360925
 20
-32.0723056078
 30
0.0
 11
0.0
 21
0.3
 31
0.0
 40
0.0087268678
 41
-3.1241393611
 42
-1.8122361113
  0
ELLIPSE
  5
711
100
AcDbEntity
  8
RACCORDO
100
AcDbEllipse
 62
7
  6
CONTINUOUS
 10
-0.3746360925
 20
-32.0723056078
 30
0.0
 11
0.0
 21
0.3
 31
0.0
 40
0.0087268678
 41
-4.4709491959
 42
-3.1590459461
  0
ELLIPSE
  5
712
100
AcDbEntity
  8
RACCORDO
100
AcDbEllipse
 62
7
  6
CONTINUOUS
 10
-0.3746360925
 20
32.0723056078
 30
0.0
 11
0.0
 21
0.3
 31
0.0
 40
0.0087268678
 41
0.0174532925
 42
1.3293565423
  0
ELLIPSE
  5
713
100
AcDbEntity
  8
RACCORDO
100
AcDbEllipse
 62
7
  6
CONTINUOUS
 10
0.3746360925
 20
32.0723056078
 30
0.0
 11
0.0
 21
0.3
 31
0.0
 40
0.0087268678
 41
-1.3293565423
 42
-0.0174532925
  0
ELLIPSE
  5
714
100
AcDbEntity
  8
RACCORDO
100
AcDbEllipse
 62
7
  6
CONTINUOUS
 10
-54.6954248622
 20
-23.2630773457
 30
0.0
 11
0.3
 21
-0.0
 31
0.0
 40
0.0087268678
 41
-3.1241393611
 42
-1.7683814499
  0
ELLIPSE
  5
715
100
AcDbEntity
  8
RACCORDO
100
AcDbEllipse
 62
7
  6
CONTINUOUS
 10
-54.6954248622
 20
-22.5369226543
 30
0.0
 11
0.3
 21
0.0
 31
0.0
 40
0.0087268678
 41
1.7683814499
 42
3.1241393611
  0
ELLIPSE
  5
716
100
AcDbEntity
  8
RACCORDO
100
AcDbEllipse
 62
7
  6
CONTINUOUS
 10
-54.6954248622
 20
22.5369226543
 30
0.0
 11
0.3
 21
-0.0
 31
0.0
 40
0.0087268678
 41
-3.1241393611
 42
-1.7683814499
  0
ELLIPSE
  5
717
100
AcDbEntity
  8
RACCORDO
100
AcDbEllipse
 62
7
  6
CONTINUOUS
 10
-54.6954248622
 20
23.2630773457
 30
0.0
 11
0.3
 21
0.0
 31
0.0
 40
0.0087268678
 41
1.7683814499
 42
3.1241393611
  0
ELLIPSE
  5
718
100
AcDbEntity
  8
RACCORDO
100
AcDbEllipse
 62
7
  6
CONTINUOUS
 10
-33.271669329
 20
31.9782395866
 30
0.0
 11
0.0
 21
0.3
 31
0.0
 40
0.0087268678
 41
0.0174532925
 42
1.3414963144
  0
ELLIPSE
  5
719
100
AcDbEntity
  8
RACCORDO
100
AcDbEllipse
 62
7
  6
CONTINUOUS
 10
-32.528330671
 20
31.9782395866
 30
0.0
 11
-0.0
 21
0.3
 31
0.0
 40
0.0087268678
 41
-1.3414963144
 42
-0.0174532925
  0
ELLIPSE
  5
71A
100
AcDbEntity
  8
RACCORDO
100
AcDbEllipse
 62
7
  6
CONTINUOUS
 10
32.528330671
 20
31.9782395866
 30
0.0
 11
0.0
 21
0.3
 31
0.0
 40
0.0087268678
 41
0.0174532925
 42
1.3414963144
  0
ELLIPSE
  5
71B
100
AcDbEntity
  8
RACCORDO
100
AcDbEllipse
 62
7
  6
CONTINUOUS
 10
33.271669329
 20
31.9782395866
 30
0.0
 11
0.0
 21
0.3
 31
0.0
 40
0.0087268678
 41
-1.3414963144
 42
-0.0174532925
  0
ELLIPSE
  5
71C
100
AcDbEntity
  8
RACCORDO
100
AcDbEllipse
 62
7
  6
CONTINUOUS
 10
54.6954248622
 20
23.2630773457
 30
0.0
 11
0.3
 21
0.0
 31
0.0
 40
0.0087268678
 41
0.0174532925
 42
1.3732112037
  0
ELLIPSE
  5
71D
100
AcDbEntity
  8
RACCORDO
100
AcDbEllipse
 62
7
  6
CONTINUOUS
 10
54.6954248622
 20
22.5369226543
 30
0.0
 11
0.3
 21
-0.0
 31
0.0
 40
0.0087268678
 41
-1.3732112037
 42
-0.0174532925
  0
ELLIPSE
  5
71E
100
AcDbEntity
  8
RACCORDO
100
AcDbEllipse
 62
7
  6
CONTINUOUS
 10
54.6954248622
 20
-22.5369226543
 30
0.0
 11
0.3
 21
-0.0
 31
0.0
 40
0.0087268678
 41
0.0174532925
 42
1.3732112037
  0
ELLIPSE
  5
71F
100
AcDbEntity
  8
RACCORDO
100
AcDbEllipse
 62
7
  6
CONTINUOUS
 10
54.6954248622
 20
-23.2630773457
 30
0.0
 11
0.3
 21
-0.0
 31
0.0
 40
0.0087268678
 41
-1.3732112037
 42
-0.0174532925
  0
ELLIPSE
  5
720
100
AcDbEntity
  8
RACCORDO
100
AcDbEllipse
 62
7
  6
CONTINUOUS
 10
33.271669329
 20
-31.9782395866
 30
0.0
 11
-0.0
 21
0.3
 31
0.0
 40
0.0087268678
 41
-3.1241393611
 42
-1.8000963392
  0
ELLIPSE
  5
721
100
AcDbEntity
  8
RACCORDO
100
AcDbEllipse
 62
7
  6
CONTINUOUS
 10
32.528330671
 20
-31.9782395866
 30
0.0
 11
-0.0
 21
0.3
 31
0.0
 40
0.0087268678
 41
-4.483088968
 42
-3.1590459461
  0
ELLIPSE
  5
722
100
AcDbEntity
  8
RACCORDO
100
AcDbEllipse
 62
7
  6
CONTINUOUS
 10
-32.528330671
 20
-31.9782395866
 30
0.0
 11
0.0
 21
0.3
 31
0.0
 40
0.0087268678
 41
-3.1241393611
 42
-1.8000963392
  0
ELLIPSE
  5
723
100
AcDbEntity
  8
RACCORDO
100
AcDbEllipse
 62
7
  6
CONTINUOUS
 10
-33.271669329
 20
-31.9782395866
 30
0.0
 11
-0.0
 21
0.3
 31
0.0
 40
0.0087268678
 41
-4.483088968
 42
-3.1590459461
  0
ELLIPSE
  5
724
100
AcDbEntity
  8
RACCORDO
100
AcDbEllipse
 62
7
  6
CONTINUOUS
 10
-32.882715972
 20
22.5
 30
0.0
 11
0.0
 21
42.0
 31
0.0
 40
0.0087268678
 41
-1.5305010629
 42
-1.3414963144
  0
ELLIPSE
  5
725
100
AcDbEntity
  8
RACCORDO
100
AcDbEllipse
 62
7
  6
CONTINUOUS
 10
32.917284028
 20
-22.5
 30
0.0
 11
0.0
 21
42.0
 31
0.0
 40
0.0087268678
 41
-1.8000963392
 42
-1.6110915907
  0
ELLIPSE
  5
726
100
AcDbEntity
  8
RACCORDO
100
AcDbEllipse
 62
7
  6
CONTINUOUS
 10
32.882715972
 20
-22.5
 30
0.0
 11
0.0
 21
42.0
 31
0.0
 40
0.0087268678
 41
-4.6720937165
 42
-4.483088968
  0
ELLIPSE
  5
727
100
AcDbEntity
  8
RACCORDO
100
AcDbEllipse
 62
7
  6
CONTINUOUS
 10
540.0
 20
-557.0057648499
 30
0.0
 11
0.0
 21
929.8560368255
 31
0.0
 40
0.8007313262
 41
0.9332396665
 42
0.9334097056
  0
ELLIPSE
  5
728
100
AcDbEntity
  8
RACCORDO
100
AcDbEllipse
 62
7
  6
CONTINUOUS
 10
32.882715972
 20
22.5
 30
0.0
 11
0.0
 21
42.0
 31
0.0
 40
0.0087268678
 41
1.3414963144
 42
1.5305010629
  0
ELLIPSE
  5
729
100
AcDbEntity
  8
RACCORDO
100
AcDbEllipse
 62
7
  6
CONTINUOUS
 10
32.917284028
 20
22.5
 30
0.0
 11
0.0
 21
42.0
 31
0.0
 40
0.0087268678
 41
-1.5305010629
 42
-1.3414963144
  0
ELLIPSE
  5
72A
100
AcDbEntity
  8
RACCORDO
100
AcDbEllipse
 62
7
  6
CONTINUOUS
 10
33.75
 20
-0.3806611432
 30
0.0
 11
88.0
 21
-0.0
 31
0.0
 40
0.0087268678
 41
1.3296223795
 42
1.4056397495
  0
ELLIPSE
  5
72B
100
AcDbEntity
  8
RACCORDO
100
AcDbEllipse
 62
7
  6
CONTINUOUS
 10
33.75
 20
0.3806611432
 30
0.0
 11
88.0
 21
-0.0
 31
0.0
 40
0.0087268678
 41
-1.4056397495
 42
-1.3296223795
  0
ELLIPSE
  5
72C
100
AcDbEntity
  8
RACCORDO
100
AcDbEllipse
 62
7
  6
CONTINUOUS
 10
33.75
 20
-0.3806611432
 30
0.0
 11
88.0
 21
-0.0
 31
0.0
 40
0.0087268678
 41
1.4445813223
 42
1.5565913036
  0
ELLIPSE
  5
72D
100
AcDbEntity
  8
RACCORDO
100
AcDbEllipse
 62
7
  6
CONTINUOUS
 10
33.75
 20
0.3806611432
 30
0.0
 11
88.0
 21
-0.0
 31
0.0
 40
0.0087268678
 41
-1.5565913036
 42
-1.4445813223
  0
ELLIPSE
  5
72E
100
AcDbEntity
  8
RACCORDO
100
AcDbEllipse
 62
7
  6
CONTINUOUS
 10
-33.75
 20
0.3806611432
 30
0.0
 11
88.0
 21
-0.0
 31
0.0
 40
0.0087268678
 41
-1.8119702741
 42
-1.7359529041
  0
ELLIPSE
  5
72F
100
AcDbEntity
  8
RACCORDO
100
AcDbEllipse
 62
7
  6
CONTINUOUS
 10
-33.75
 20
-0.3806611432
 30
0.0
 11
88.0
 21
-0.0
 31
0.0
 40
0.0087268678
 41
1.7359529041
 42
1.8119702741
  0
ELLIPSE
  5
730
100
AcDbEntity
  8
RACCORDO
100
AcDbEllipse
 62
7
  6
CONTINUOUS
 10
-33.75
 20
0.3806611432
 30
0.0
 11
88.0
 21
-0.0
 31
0.0
 40
0.0087268678
 41
-1.6970113313
 42
-1.58500135
  0
ELLIPSE
  5
731
100
AcDbEntity
  8
RACCORDO
100
AcDbEllipse
 62
7
  6
CONTINUOUS
 10
-33.75
 20
-0.3806611432
 30
0.0
 11
88.0
 21
-0.0
 31
0.0
 40
0.0087268678
 41
1.58500135
 42
1.6970113313
  0
ELLIPSE
  5
732
100
AcDbEntity
  8
RACCORDO
100
AcDbEllipse
 62
7
  6
CONTINUOUS
 10
33.75
 20
-23.4499623784
 30
0.0
 11
107.0
 21
-0.0
 31
0.0
 40
0.0087268678
 41
1.3732112037
 42
1.5572697949
  0
ELLIPSE
  5
733
100
AcDbEntity
  8
RACCORDO
100
AcDbEllipse
 62
7
  6
CONTINUOUS
 10
33.75
 20
-22.3500376216
 30
0.0
 11
107.0
 21
-0.0
 31
0.0
 40
0.0087268678
 41
-1.5572697949
 42
-1.3732112037
  0
ELLIPSE
  5
734
100
AcDbEntity
  8
RACCORDO
100
AcDbEllipse
 62
7
  6
CONTINUOUS
 10
-33.75
 20
-22.3500376216
 30
0.0
 11
107.0
 21
-0.0
 31
0.0
 40
0.0087268678
 41
-1.7683814499
 42
-1.5843228587
  0
ELLIPSE
  5
735
100
AcDbEntity
  8
RACCORDO
100
AcDbEllipse
 62
7
  6
CONTINUOUS
 10
-33.75
 20
-23.4499623784
 30
0.0
 11
107.0
 21
-0.0
 31
0.0
 40
0.0087268678
 41
1.5843228587
 42
1.7683814499
  0
ELLIPSE
  5
736
100
AcDbEntity
  8
RACCORDO
100
AcDbEllipse
 62
7
  6
CONTINUOUS
 10
33.75
 20
22.3500376216
 30
0.0
 11
107.0
 21
-0.0
 31
0.0
 40
0.0087268678
 41
1.3732112037
 42
1.5572697949
  0
ELLIPSE
  5
737
100
AcDbEntity
  8
RACCORDO
100
AcDbEllipse
 62
7
  6
CONTINUOUS
 10
33.75
 20
23.4499623784
 30
0.0
 11
107.0
 21
-0.0
 31
0.0
 40
0.0087268678
 41
-1.5572697949
 42
-1.3732112037
  0
ELLIPSE
  5
738
100
AcDbEntity
  8
RACCORDO
100
AcDbEllipse
 62
7
  6
CONTINUOUS
 10
540.0
 20
557.0057648499
 30
0.0
 11
0.0
 21
929.8560368255
 31
0.0
 40
0.8007313262
 41
-4.0750023592
 42
-4.07483232
  0
ELLIPSE
  5
739
100
AcDbEntity
  8
RACCORDO
100
AcDbEllipse
 62
7
  6
CONTINUOUS
 10
-33.75
 20
23.4499623784
 30
0.0
 11
107.0
 21
-0.0
 31
0.0
 40
0.0087268678
 41
-1.7683814499
 42
-1.5843228587
  0
ELLIPSE
  5
73A
100
AcDbEntity
  8
RACCORDO
100
AcDbEllipse
 62
7
  6
CONTINUOUS
 10
-33.75
 20
22.3500376216
 30
0.0
 11
107.0
 21
-0.0
 31
0.0
 40
0.0087268678
 41
1.5843228587
 42
1.7683814499
  0
ELLIPSE
  5
73B
100
AcDbEntity
  8
DRAFT
100
AcDbEllipse
 62
7
  6
CONTINUOUS
 10
-539.7264824348
 20
0.0
 30
0.0
 11
598.0411498441
 21
0.0000009375
 31
0.0
 40
0.9999998954
 41
-0.0285972435
 42
-0.0255870404
  0
ELLIPSE
  5
73C
100
AcDbEntity
  8
DRAFT
100
AcDbEllipse
 62
7
  6
CONTINUOUS
 10
-539.7264824348
 20
0.0
 30
0.0
 11
598.0411498441
 21
0.0000014027
 31
0.0
 40
0.9999998954
 41
-0.0329480032
 42
-0.0299351941
  0
ELLIPSE
  5
73D
100
AcDbEntity
  8
DRAFT
100
AcDbEllipse
 62
7
  6
CONTINUOUS
 10
-539.7264824348
 20
-0.0
 30
0.0
 11
598.0411498441
 21
0.0000004644
 31
0.0
 40
0.9999998954
 41
0.0299351909
 42
0.032948
  0
ELLIPSE
  5
73E
100
AcDbEntity
  8
DRAFT
100
AcDbEllipse
 62
7
  6
CONTINUOUS
 10
-539.7264824348
 20
0.0
 30
0.0
 11
598.0411498441
 21
-0.0000001697
 31
0.0
 40
0.9999998954
 41
0.0255870391
 42
0.0285972423
  0
ELLIPSE
  5
73F
100
AcDbEntity
  8
RACCORDO
100
AcDbEllipse
 62
7
  6
CONTINUOUS
 10
-540.0
 20
-557.0057648499
 30
0.0
 11
0.0
 21
929.8560368255
 31
0.0
 40
0.8007313262
 41
-0.9334097056
 42
-0.9332396665
  0
ELLIPSE
  5
740
100
AcDbEntity
  8
RACCORDO
100
AcDbEllipse
 62
7
  6
CONTINUOUS
 10
-540.0
 20
557.0057648499
 30
0.0
 11
-0.0
 21
929.8560368255
 31
0.0
 40
0.8007313262
 41
-2.2083529871
 42
-2.208182948
  0
ENDSEC
  0
SECTION
  2
OBJECTS
  0
DICTIONARY
  5
C
100
AcDbDictionary
280
0
281
1
  3
ACAD_GROUP
350
D
  3
ACAD_MLINESTYLE
350
17
  3
ACAD_LAYOUT
350
1A
  3
ACAD_PLOTSETTINGS
350
19
  3
ACAD_PLOTSTYLENAME
350
E
  0
DICTIONARY
  5
D
102
{ACAD_REACTORS
330
C
102
}
100
AcDbDictionary
280
0
281
1
  0
ACDBDICTIONARYWDFLT
  5
E
102
{ACAD_REACTORS
330
C
102
}
100
AcDbDictionary
281
1
  3
Normal
350
F
100
AcDbDictionaryWithDefault
340
F
  0
DICTIONARY
  5
17
102
{ACAD_REACTORS
330
C
102
}
100
AcDbDictionary
280
0
281
1
  3
Standard
350
18
  0
DICTIONARY
  5
19
102
{ACAD_REACTORS
330
C
102
}
100
AcDbDictionary
281
1
  0
DICTIONARY
  5
1A
102
{ACAD_REACTORS
330
C
102
}
100
AcDbDictionary
281
1
  3
Model
350
741
  3
Layout1
350
742
  0
ACDBPLACEHOLDER
  5
F
102
{ACAD_REACTORS
330
E
102
}
  0
MLINESTYLE
  5
18
102
{ACAD_REACTORS
330
17
102
}
100
AcDbMlineStyle
  2
STANDARD
 70
0
  3

 62
256
 51
90.0
 52
90.0
 71
2
 49
0.5
 62
256
  6
BYLAYER
 49
-0.5
 62
256
  6
BYLAYER
  0
LAYOUT
  5
741
102
{ACAD_REACTORS
330
1A
102
}
100
AcDbPlotSettings
  1

  2
none_device
  4
ISO_A4_(297.00_x_210.00_MM)
  6

 40
0.0
 41
0.0
 42
0.0
 43
0.0
 44
297.0
 45
210.0
 46
0.0
 47
0.0
 48
0.0
 49
0.0
140
0.0
141
0.0
142
1.0
143
1.0
 70
1024
 72
1
 73
0
 74
0
  7

 75
0
147
1.0
148
0.0
149
0.0
100
AcDbLayout
  1
Model
 70
0
 71
0
 10
0.0
 20
0.0
 11
297.0
 21
210.0
 12
0.0
 22
0.0
 32
0.0
 14
0.0
 24
0.0
 34
0.0
 15
0.0
 25
0.0
 35
0.0
146
0.0
 13
0.0
 23
0.0
 33
0.0
 16
1.0
 26
0.0
 36
0.0
 17
0.0
 27
1.0
 37
0.0
 76
0
330
20F
345
0
346
0
  0
LAYOUT
  5
742
102
{ACAD_REACTORS
330
1A
102
}
100
AcDbPlotSettings
  1

  2
none_device
  4
ISO_A4_(297.00_x_210.00_MM)
  6

 40
0.0
 41
0.0
 42
0.0
 43
0.0
 44
297.0
 45
210.0
 46
0.0
 47
0.0
 48
0.0
 49
0.0
140
0.0
141
0.0
142
1.0
143
1.0
 70
0
 72
1
 73
0
 74
0
  7

 75
0
147
1.0
148
0.0
149
0.0
100
AcDbLayout
  1
Layout1
 70
0
 71
1
 10
0.0
 20
0.0
 11
297.0
 21
210.0
 12
0.0
 22
0.0
 32
0.0
 14
0.0
 24
0.0
 34
0.0
 15
0.0
 25
0.0
 35
0.0
146
0.0
 13
0.0
 23
0.0
 33
0.0
 16
1.0
 26
0.0
 36
0.0
 17
0.0
 27
1.0
 37
0.0
 76
0
330
210
345
0
346
0
  0
ENDSEC
  0
EOF
