  0
SECTION
  2
HEADER
  9
$ACADVER
  1
AC1015
  9
$DWGCODEPAGE
  3
ANSI_1252
  9
$EXTMAX
 10
297.0
 20
210.0
 30
0.0
  9
$EXTMIN
 10
0.0
 20
0.0
 30
0.0
  9
$LIMMIN
 10
0.0
 20
0.0
  9
$LIMMAX
 10
297.0
 20
210.0
  9
$VIEWCTR
 10
148.5
 20
105.0
  9
$VIEWSIZE
 40
210.0
  9
$CLAYER
  8
0
  9
$LTSCALE
 40
16.335
  9
$CELTYPE
  6
BYLAYER
  9
$DIMSCALE
 40
1.0
  9
$DIMASZ
 40
3.0
  9
$DIMEXO
 40
1.85625
  9
$DIMDLI
 40
11.286
  9
$DIMEXE
 40
5.346
  9
$DIMCEN
 40
2.673
  9
$DIMLFAC
 40
1.0
  9
$DIMBLK
  1
_FILLED
  9
$DIMTXT
 40
3.0
  9
$DIMTOL
 70
1
  9
$DIMLIM
 70
0
  9
$DIMTFAC
 40
1.0
  9
$DIMTP
 40
0.01
  9
$DIMTM
 40
0.01
  9
$PDMODE
 70
3
  9
$PDSIZE
 40
3.0
  9
$HANDSEED
  5
72D
  9
$TILEMODE
 70
1
  9
$MEASUREMENT
 70
1
  9
$INSUNITS
 70
4
  0
ENDSEC
  0
SECTION
  2
CLASSES
  0
CLASS
  1
ACDBDICTIONARYWDFLT
  2
AcDbDictionaryWithDefault
  3
AutoCAD 2000
 90
0
280
0
281
0
  0
CLASS
  1
ACDBPLACEHOLDER
  2
AcDbPlaceHolder
  3
AutoCAD 2000
 90
0
280
0
281
0
  0
CLASS
  1
LAYOUT
  2
AcDbLayout
  3
AutoCAD 2000
 90
0
280
0
281
0
  0
ENDSEC
  0
SECTION
  2
TABLES
  0
TABLE
  2
VPORT
  5
8
100
AcDbSymbolTable
 70
2
  0
VPORT
  5
1F4
100
AcDbSymbolTableRecord
100
AcDbViewportTableRecord
  2
*ACTIVE
 70
0
 10
0.0
 20
0.0
 11
1.0
 21
1.0
 12
148.5
 22
105.0
 13
0.0
 23
0.0
 14
1.0
 24
1.0
 15
0.0
 25
0.0
 16
0.0
 26
0.0
 36
1.0
 17
0.0
 27
0.0
 37
0.0
 40
210.0
 41
1.4142857143
 42
50.0
 43
0.0
 44
0.0
 50
0.0
 51
0.0
 71
0
 72
100
 73
1
 74
1
 75
0
 76
0
 77
0
 78
0
  0
ENDTAB
  0
TABLE
  2
LTYPE
  5
5
100
AcDbSymbolTable
 70
6
  0
LTYPE
  5
14
100
AcDbSymbolTableRecord
100
AcDbLinetypeTableRecord
  2
BYBLOCK
 70
0
  3

 72
65
 73
0
 40
0.0
  0
LTYPE
  5
15
100
AcDbSymbolTableRecord
100
AcDbLinetypeTableRecord
  2
BYLAYER
 70
0
  3

 72
65
 73
0
 40
0.0
  0
LTYPE
  5
16
100
AcDbSymbolTableRecord
100
AcDbLinetypeTableRecord
  2
CONTINUOUS
 70
64
  3
Solid line
 72
65
 73
0
 40
0.0
  0
LTYPE
  5
1F5
100
AcDbSymbolTableRecord
100
AcDbLinetypeTableRecord
  2
CENTER
 70
64
  3
____ _ ____ _ ____ _ ____ _ ____ _ ____ _ ____
 72
65
 73
4
 40
0.6
 49
0.375
 74
0
 49
-0.075
 74
0
 49
0.075
 74
0
 49
-0.075
 74
0
  0
LTYPE
  5
1F6
100
AcDbSymbolTableRecord
100
AcDbLinetypeTableRecord
  2
HIDDEN
 70
64
  3
- - - - - - - - - - - - - - - - - - - -
 72
65
 73
2
 40
0.2
 49
0.1
 74
0
 49
-0.1
 74
0
  0
LTYPE
  5
1F7
100
AcDbSymbolTableRecord
100
AcDbLinetypeTableRecord
  2
PHANTOM
 70
64
  3
_____ _ _ _____ _ _ _____ _ _ _____
 72
65
 73
6
 40
0.8
 49
0.45
 74
0
 49
-0.05
 74
0
 49
0.1
 74
0
 49
-0.05
 74
0
 49
0.1
 74
0
 49
-0.05
 74
0
  0
LTYPE
  5
1F8
100
AcDbSymbolTableRecord
100
AcDbLinetypeTableRecord
  2
DOT
 70
64
  3
. . . . . . . . . . . . . . . . . . . .
 72
65
 73
2
 40
0.2
 49
0.1
 74
0
 49
-0.1
 74
0
  0
LTYPE
  5
1F9
100
AcDbSymbolTableRecord
100
AcDbLinetypeTableRecord
  2
DASHED
 70
64
  3
- - - - - - - - - - - - - - - - - - - -
 72
65
 73
2
 40
0.2
 49
0.1
 74
0
 49
-0.1
 74
0
  0
ENDTAB
  0
TABLE
  2
LAYER
  5
2
100
AcDbSymbolTable
 70
36
  0
LAYER
  5
10
100
AcDbSymbolTableRecord
100
AcDbLayerTableRecord
  2
0
 70
0
 62
7
  6
CONTINUOUS
370
-3
390
F
  0
LAYER
  5
1FA
100
AcDbSymbolTableRecord
100
AcDbLayerTableRecord
  2
DEFAULT_1
 70
0
 62
7
  6
CENTER
370
-3
390
F
  0
LAYER
  5
1FB
100
AcDbSymbolTableRecord
100
AcDbLayerTableRecord
  2
DEFAULT_2
 70
0
 62
7
  6
HIDDEN
370
-3
390
F
  0
LAYER
  5
1FC
100
AcDbSymbolTableRecord
100
AcDbLayerTableRecord
  2
DEFAULT_3
 70
0
 62
7
  6
PHANTOM
370
-3
390
F
  0
LAYER
  5
1FD
100
AcDbSymbolTableRecord
100
AcDbLayerTableRecord
  2
ASSI
 70
0
 62
7
  6
CONTINUOUS
370
-3
390
F
  0
LAYER
  5
1FE
100
AcDbSymbolTableRecord
100
AcDbLayerTableRecord
  2
COORDINATE
 70
0
 62
7
  6
CONTINUOUS
370
-3
390
F
  0
LAYER
  5
1FF
100
AcDbSymbolTableRecord
100
AcDbLayerTableRecord
  2
COPY_PUBLISH
 70
0
 62
7
  6
CONTINUOUS
370
-3
390
F
  0
LAYER
  5
200
100
AcDbSymbolTableRecord
100
AcDbLayerTableRecord
  2
COSMETIC
 70
0
 62
7
  6
CONTINUOUS
370
-3
390
F
  0
LAYER
  5
201
100
AcDbSymbolTableRecord
100
AcDbLayerTableRecord
  2
CURVE
 70
0
 62
7
  6
CONTINUOUS
370
-3
390
F
  0
LAYER
  5
202
100
AcDbSymbolTableRecord
100
AcDbLayerTableRecord
  2
DRAFT
 70
0
 62
7
  6
CONTINUOUS
370
-3
390
F
  0
LAYER
  5
203
100
AcDbSymbolTableRecord
100
AcDbLayerTableRecord
  2
IMPORT_IGES
 70
0
 62
7
  6
CONTINUOUS
370
-3
390
F
  0
LAYER
  5
204
100
AcDbSymbolTableRecord
100
AcDbLayerTableRecord
  2
INTFCLR_1
 70
0
 62
7
  6
CONTINUOUS
370
-3
390
F
  0
LAYER
  5
205
100
AcDbSymbolTableRecord
100
AcDbLayerTableRecord
  2
NOTE
 70
0
 62
7
  6
CONTINUOUS
370
-3
390
F
  0
LAYER
  5
206
100
AcDbSymbolTableRecord
100
AcDbLayerTableRecord
  2
PIANI
 70
0
 62
7
  6
CONTINUOUS
370
-3
390
F
  0
LAYER
  5
207
100
AcDbSymbolTableRecord
100
AcDbLayerTableRecord
  2
PUNTI
 70
0
 62
7
  6
CONTINUOUS
370
-3
390
F
  0
LAYER
  5
208
100
AcDbSymbolTableRecord
100
AcDbLayerTableRecord
  2
RACCORDO
 70
0
 62
7
  6
CONTINUOUS
370
-3
390
F
  0
LAYER
  5
209
100
AcDbSymbolTableRecord
100
AcDbLayerTableRecord
  2
SNAPLINE
 70
0
 62
7
  6
CONTINUOUS
370
-3
390
F
  0
LAYER
  5
20A
100
AcDbSymbolTableRecord
100
AcDbLayerTableRecord
  2
SUPERFICI
 70
0
 62
7
  6
CONTINUOUS
370
-3
390
F
  0
LAYER
  5
20B
100
AcDbSymbolTableRecord
100
AcDbLayerTableRecord
  2
TRASH
 70
0
 62
7
  6
CONTINUOUS
370
-3
390
F
  0
LAYER
  5
20C
100
AcDbSymbolTableRecord
100
AcDbLayerTableRecord
  2
XSEC_DATUMS
 70
0
 62
7
  6
CONTINUOUS
370
-3
390
F
  0
ENDTAB
  0
TABLE
  2
STYLE
  5
3
100
AcDbSymbolTable
 70
1
  0
STYLE
  5
11
100
AcDbSymbolTableRecord
100
AcDbTextStyleTableRecord
  2
STANDARD
 70
0
 40
0.0
 41
0.8
 50
0.0
 71
0
 42
0.2
  3
txt
  4

  0
STYLE
  5
20D
100
AcDbSymbolTableRecord
100
AcDbTextStyleTableRecord
  2
TEXTSTYLE_1
 70
0
 40
0.0
 41
0.8
 50
0.0
 71
0
 42
0.2
  3
gdt
  4

  0
ENDTAB
  0
TABLE
  2
VIEW
  5
6
100
AcDbSymbolTable
 70
0
  0
ENDTAB
  0
TABLE
  2
UCS
  5
7
100
AcDbSymbolTable
 70
0
  0
ENDTAB
  0
TABLE
  2
APPID
  5
9
100
AcDbSymbolTable
 70
1
  0
APPID
  5
20E
100
AcDbSymbolTableRecord
100
AcDbRegAppTableRecord
  2
ACAD
 70
0
  0
ENDTAB
  0
TABLE
  2
BLOCK_RECORD
  5
1
100
AcDbSymbolTable
 70
0
  0
BLOCK_RECORD
  5
20F
100
AcDbSymbolTableRecord
100
AcDbBlockTableRecord
  2
*Model_Space
  0
BLOCK_RECORD
  5
210
100
AcDbSymbolTableRecord
100
AcDbBlockTableRecord
  2
*Paper_Space
  0
ENDTAB
  0
TABLE
  2
DIMSTYLE
  5
A
100
AcDbSymbolTable
 70
1
100
AcDbDimStyleTable
 71
0
  0
DIMSTYLE
105
211
100
AcDbSymbolTableRecord
100
AcDbDimStyleTableRecord
  2
STANDARD
 70
0
  3

  4

 40
1.0
 41
3.0
 42
0.0625
 43
0.38
 44
0.18
 45
0.0
 46
0.0
 47
0.01
 48
0.01
140
3.0
141
0.09
142
0.0
143
25.4
144
1.0
145
0.0
146
1.0
147
0.09
 71
1.0
 72
0.0
 73
0
 74
0
 75
0
 76
0
 77
1
 78
8
170
0
171
2
172
0
173
0
174
0
175
0
176
0
177
0
178
0
270
2
271
2
272
2
273
2
274
2
275
0
280
0
281
0
282
0
283
1
284
8
285
0
286
0
287
3
288
0
340
11
  0
ENDTAB
  0
ENDSEC
  0
SECTION
  2
BLOCKS
  0
BLOCK
  5
20
100
AcDbEntity
  8
0
100
AcDbBlockBegin
  2
*Model_Space
 70
0
 10
0.0
 20
0.0
 30
0.0
  3
*Model_Space
  1

  0
ENDBLK
  5
21
100
AcDbEntity
  8
0
100
AcDbBlockEnd
  0
BLOCK
  5
1C
100
AcDbEntity
  8
0
100
AcDbBlockBegin
  2
*Paper_Space
 70
0
 10
0.0
 20
0.0
 30
0.0
  3
*Paper_Space
  1

  0
ENDBLK
  5
1D
100
AcDbEntity
  8
0
100
AcDbBlockEnd
  0
ENDSEC
  0
SECTION
  2
ENTITIES
  0
LINE
  5
212
100
AcDbEntity
  8
DRAFT
100
AcDbLine
 62
7
  6
CONTINUOUS
 10
-68.0
 20
19.7119409303
 11
-68.0
 21
17.8880590697
  0
LINE
  5
213
100
AcDbEntity
  8
DRAFT
100
AcDbLine
 62
7
  6
CONTINUOUS
 10
-68.0
 20
17.1119409303
 11
-68.0
 21
15.2880590697
  0
LINE
  5
214
100
AcDbEntity
  8
DRAFT
100
AcDbLine
 62
7
  6
CONTINUOUS
 10
-68.0
 20
-15.2880590697
 11
-68.0
 21
-17.1119409303
  0
LINE
  5
215
100
AcDbEntity
  8
DRAFT
100
AcDbLine
 62
7
  6
CONTINUOUS
 10
-68.0
 20
-17.8880590697
 11
-68.0
 21
-19.7119409303
  0
LINE
  5
216
100
AcDbEntity
  8
DRAFT
100
AcDbLine
 62
7
  6
CONTINUOUS
 10
-67.1
 20
14.5236700543
 11
-67.1
 21
14.5
  0
LINE
  5
217
100
AcDbEntity
  8
DRAFT
100
AcDbLine
 62
7
  6
CONTINUOUS
 10
-67.1
 20
-20.4763299457
 11
-67.1
 21
-20.4981609223
  0
LINE
  5
218
100
AcDbEntity
  8
DRAFT
100
AcDbLine
 62
7
  6
CONTINUOUS
 10
-67.1
 20
-14.5236700543
 11
-67.1
 21
-14.5
  0
LINE
  5
219
100
AcDbEntity
  8
DRAFT
100
AcDbLine
 62
7
  6
CONTINUOUS
 10
-67.1
 20
20.4763299457
 11
-67.1
 21
20.4981609223
  0
LINE
  5
21A
100
AcDbEntity
  8
RACCORDO
100
AcDbLine
 62
253
  6
CONTINUOUS
 10
-66.7913486316
 20
-23.2418149237
 11
-66.7913486316
 21
-22.7281850763
  0
LINE
  5
21B
100
AcDbEntity
  8
RACCORDO
100
AcDbLine
 62
253
  6
CONTINUOUS
 10
-66.7913486316
 20
22.7281850763
 11
-66.7913486316
 21
23.2418149237
  0
LINE
  5
21C
100
AcDbEntity
  8
RACCORDO
100
AcDbLine
 62
253
  6
CONTINUOUS
 10
-66.7564385017
 20
0.2742686593
 11
-66.7564385017
 21
-0.2742686593
  0
LINE
  5
21D
100
AcDbEntity
  8
DRAFT
100
AcDbLine
 62
7
  6
CONTINUOUS
 10
-66.6569219382
 20
20.4536400895
 11
-66.6569219382
 21
19.723661795
  0
LINE
  5
21E
100
AcDbEntity
  8
DRAFT
100
AcDbLine
 62
7
  6
CONTINUOUS
 10
-66.6569219382
 20
17.876338205
 11
-66.6569219382
 21
17.123661795
  0
LINE
  5
21F
100
AcDbEntity
  8
DRAFT
100
AcDbLine
 62
7
  6
CONTINUOUS
 10
-66.6569219382
 20
15.276338205
 11
-66.6569219382
 21
14.5463599105
  0
LINE
  5
220
100
AcDbEntity
  8
DRAFT
100
AcDbLine
 62
7
  6
CONTINUOUS
 10
-66.6569219382
 20
-20.4536400895
 11
-66.6569219382
 21
-19.723661795
  0
LINE
  5
221
100
AcDbEntity
  8
DRAFT
100
AcDbLine
 62
7
  6
CONTINUOUS
 10
-66.6569219382
 20
-17.876338205
 11
-66.6569219382
 21
-17.123661795
  0
LINE
  5
222
100
AcDbEntity
  8
DRAFT
100
AcDbLine
 62
7
  6
CONTINUOUS
 10
-66.6569219382
 20
-15.276338205
 11
-66.6569219382
 21
-14.5463599105
  0
LINE
  5
223
100
AcDbEntity
  8
RACCORDO
100
AcDbLine
 62
253
  6
CONTINUOUS
 10
-66.291424784
 20
-23.2461022052
 11
-66.291424784
 21
-22.7238977948
  0
LINE
  5
224
100
AcDbEntity
  8
RACCORDO
100
AcDbLine
 62
253
  6
CONTINUOUS
 10
-66.291424784
 20
22.7238977948
 11
-66.291424784
 21
23.2461022052
  0
LINE
  5
225
100
AcDbEntity
  8
RACCORDO
100
AcDbLine
 62
253
  6
CONTINUOUS
 10
-66.2565146541
 20
0.2785559408
 11
-66.2565146541
 21
-0.2785559408
  0
LINE
  5
226
100
AcDbEntity
  8
DRAFT
100
AcDbLine
 62
7
  6
CONTINUOUS
 10
-65.95
 20
-14.5410527394
 11
-65.95
 21
-15.2701689907
  0
LINE
  5
227
100
AcDbEntity
  8
DRAFT
100
AcDbLine
 62
7
  6
CONTINUOUS
 10
-65.95
 20
-17.1298310093
 11
-65.95
 21
-17.8701689907
  0
LINE
  5
228
100
AcDbEntity
  8
DRAFT
100
AcDbLine
 62
7
  6
CONTINUOUS
 10
-65.95
 20
-20.4589472606
 11
-65.95
 21
-19.7298310093
  0
LINE
  5
229
100
AcDbEntity
  8
DRAFT
100
AcDbLine
 62
7
  6
CONTINUOUS
 10
-65.95
 20
14.5410527394
 11
-65.95
 21
15.2701689907
  0
LINE
  5
22A
100
AcDbEntity
  8
DRAFT
100
AcDbLine
 62
7
  6
CONTINUOUS
 10
-65.95
 20
17.1298310093
 11
-65.95
 21
17.8701689907
  0
LINE
  5
22B
100
AcDbEntity
  8
DRAFT
100
AcDbLine
 62
7
  6
CONTINUOUS
 10
-65.95
 20
19.7298310093
 11
-65.95
 21
20.4589472606
  0
LINE
  5
22C
100
AcDbEntity
  8
RACCORDO
100
AcDbLine
 62
253
  6
CONTINUOUS
 10
-59.0450974746
 20
-0.2992487411
 11
-59.0450974746
 21
0.2992487411
  0
LINE
  5
22D
100
AcDbEntity
  8
RACCORDO
100
AcDbLine
 62
253
  6
CONTINUOUS
 10
-58.65
 20
-0.3021946362
 11
-58.65
 21
0.3021946362
  0
LINE
  5
22E
100
AcDbEntity
  8
RACCORDO
100
AcDbLine
 62
7
  6
CONTINUOUS
 10
-45.7815667124
 20
37.3792977246
 11
-45.7368149237
 21
37.6496566314
  0
LINE
  5
22F
100
AcDbEntity
  8
RACCORDO
100
AcDbLine
 62
7
  6
CONTINUOUS
 10
-45.7648496918
 20
34.8939261933
 11
-45.7411022052
 21
34.941424784
  0
LINE
  5
230
100
AcDbEntity
  8
RACCORDO
100
AcDbLine
 62
7
  6
CONTINUOUS
 10
-45.0093476306
 20
24.1029527027
 11
-45.0143755386
 21
24.0928961209
  0
LINE
  5
231
100
AcDbEntity
  8
RACCORDO
100
AcDbLine
 62
7
  6
CONTINUOUS
 10
-66.2524029771
 20
23.2656116227
 11
-66.291424784
 21
23.2461022052
  0
LINE
  5
232
100
AcDbEntity
  8
RACCORDO
100
AcDbLine
 62
7
  6
CONTINUOUS
 10
-66.2524029771
 20
-23.2656116227
 11
-66.291424784
 21
-23.2461022052
  0
LINE
  5
233
100
AcDbEntity
  8
RACCORDO
100
AcDbLine
 62
7
  6
CONTINUOUS
 10
-45.7648496918
 20
-34.8939261933
 11
-45.7411022052
 21
-34.941424784
  0
LINE
  5
234
100
AcDbEntity
  8
RACCORDO
100
AcDbLine
 62
7
  6
CONTINUOUS
 10
-45.0143755386
 20
-24.0928961209
 11
-45.0093476306
 21
-24.1029527027
  0
LINE
  5
235
100
AcDbEntity
  8
RACCORDO
100
AcDbLine
 62
7
  6
CONTINUOUS
 10
-45.7368149237
 20
-37.6496566314
 11
-45.7815667122
 21
-37.3792977272
  0
LINE
  5
236
100
AcDbEntity
  8
RACCORDO
100
AcDbLine
 62
253
  6
CONTINUOUS
 10
-46.6033868232
 20
23.6229151607
 11
-46.6019089823
 21
23.5020003652
  0
LINE
  5
237
100
AcDbEntity
  8
RACCORDO
100
AcDbLine
 62
253
  6
CONTINUOUS
 10
-46.3074638198
 20
24.1248236073
 11
-46.3061719357
 21
24.0191235341
  0
LINE
  5
238
100
AcDbEntity
  8
DRAFT
100
AcDbLine
 62
7
  6
CONTINUOUS
 10
-45.790990916
 20
24.1583557114
 11
-45.7906523694
 21
24.1029527027
  0
LINE
  5
239
100
AcDbEntity
  8
DRAFT
100
AcDbLine
 62
7
  6
CONTINUOUS
 10
-45.0087031451
 20
-24.2084224687
 11
-45.0093476306
 21
-24.1029527027
  0
LINE
  5
23A
100
AcDbEntity
  8
RACCORDO
100
AcDbLine
 62
253
  6
CONTINUOUS
 10
-46.5928961209
 20
23.4929875038
 11
-46.5928961209
 21
23.2906244614
  0
LINE
  5
23B
100
AcDbEntity
  8
RACCORDO
100
AcDbLine
 62
253
  6
CONTINUOUS
 10
-46.5928961209
 20
-22.6793755386
 11
-46.5928961209
 21
-18.9068754033
  0
LINE
  5
23C
100
AcDbEntity
  8
RACCORDO
100
AcDbLine
 62
253
  6
CONTINUOUS
 10
-46.5928961209
 20
-23.2906244614
 11
-46.5928961209
 21
-23.4929875038
  0
LINE
  5
23D
100
AcDbEntity
  8
RACCORDO
100
AcDbLine
 62
253
  6
CONTINUOUS
 10
-46.5928961209
 20
-14.0931245967
 11
-46.5928961209
 21
22.6793755386
  0
LINE
  5
23E
100
AcDbEntity
  8
RACCORDO
100
AcDbLine
 62
253
  6
CONTINUOUS
 10
-46.526658264
 20
-14.1593624536
 11
-46.526658264
 21
-18.8406375464
  0
LINE
  5
23F
100
AcDbEntity
  8
RACCORDO
100
AcDbLine
 62
253
  6
CONTINUOUS
 10
-46.4266734945
 20
-18.940622316
 11
-46.4266734945
 21
-14.059377684
  0
LINE
  5
240
100
AcDbEntity
  8
RACCORDO
100
AcDbLine
 62
253
  6
CONTINUOUS
 10
-46.1929570428
 20
23.4929875038
 11
-46.1929570428
 21
-14.0
  0
LINE
  5
241
100
AcDbEntity
  8
RACCORDO
100
AcDbLine
 62
253
  6
CONTINUOUS
 10
-46.1929570428
 20
-19.0
 11
-46.1929570428
 21
-23.4929875038
  0
LINE
  5
242
100
AcDbEntity
  8
RACCORDO
100
AcDbLine
 62
253
  6
CONTINUOUS
 10
-45.9929875038
 20
-23.6929570428
 11
-45.9929875038
 21
-24.0928961209
  0
LINE
  5
243
100
AcDbEntity
  8
RACCORDO
100
AcDbLine
 62
253
  6
CONTINUOUS
 10
-45.9929875038
 20
23.6929570428
 11
-45.9929875038
 21
24.0928961209
  0
LINE
  5
244
100
AcDbEntity
  8
RACCORDO
100
AcDbLine
 62
7
  6
CONTINUOUS
 10
-45.7368149237
 20
-37.6496566314
 11
-45.7368149237
 21
-35.4413486316
  0
LINE
  5
245
100
AcDbEntity
  8
RACCORDO
100
AcDbLine
 62
7
  6
CONTINUOUS
 10
-45.7368149237
 20
35.4413486316
 11
-45.7368149237
 21
37.6496566314
  0
LINE
  5
246
100
AcDbEntity
  8
RACCORDO
100
AcDbLine
 62
253
  6
CONTINUOUS
 10
-45.3887732309
 20
-22.1888798443
 11
-45.3887732309
 21
-19.0
  0
LINE
  5
247
100
AcDbEntity
  8
RACCORDO
100
AcDbLine
 62
253
  6
CONTINUOUS
 10
-45.3887732309
 20
-14.0
 11
-45.3887732309
 21
22.1888798443
  0
LINE
  5
248
100
AcDbEntity
  8
RACCORDO
100
AcDbLine
 62
253
  6
CONTINUOUS
 10
-45.2533265055
 20
-18.940622316
 11
-45.2533265055
 21
-14.059377684
  0
LINE
  5
249
100
AcDbEntity
  8
RACCORDO
100
AcDbLine
 62
253
  6
CONTINUOUS
 10
-45.153341736
 20
-18.8406375464
 11
-45.153341736
 21
-14.1593624536
  0
LINE
  5
24A
100
AcDbEntity
  8
RACCORDO
100
AcDbLine
 62
253
  6
CONTINUOUS
 10
-45.0888189223
 20
22.1888787917
 11
-45.0888189223
 21
-14.0948396399
  0
LINE
  5
24B
100
AcDbEntity
  8
RACCORDO
100
AcDbLine
 62
253
  6
CONTINUOUS
 10
-45.0888189223
 20
-18.9051603601
 11
-45.0888189223
 21
-22.1888804671
  0
LINE
  5
24C
100
AcDbEntity
  8
RACCORDO
100
AcDbLine
 62
7
  6
CONTINUOUS
 10
-45.08
 20
22.1800609219
 11
-45.08
 21
-22.1800609219
  0
LINE
  5
24D
100
AcDbEntity
  8
RACCORDO
100
AcDbLine
 62
7
  6
CONTINUOUS
 10
-45.0631850763
 20
37.6715380489
 11
-45.0631850763
 21
35.4413486316
  0
LINE
  5
24E
100
AcDbEntity
  8
RACCORDO
100
AcDbLine
 62
7
  6
CONTINUOUS
 10
-45.0631850763
 20
-35.4413486316
 11
-45.0631850763
 21
-37.6715380489
  0
LINE
  5
24F
100
AcDbEntity
  8
0
100
AcDbLine
 62
7
  6
CONTINUOUS
 10
-45.0
 20
22.2000456915
 11
-45.0
 21
-22.2000456915
  0
LINE
  5
250
100
AcDbEntity
  8
RACCORDO
100
AcDbLine
 62
253
  6
CONTINUOUS
 10
-44.6888798443
 20
22.8887732309
 11
-44.6888798443
 21
22.5888189223
  0
LINE
  5
251
100
AcDbEntity
  8
RACCORDO
100
AcDbLine
 62
253
  6
CONTINUOUS
 10
-44.6888798443
 20
-22.8887732309
 11
-44.6888798443
 21
-22.5888189223
  0
LINE
  5
252
100
AcDbEntity
  8
DRAFT
100
AcDbLine
 62
7
  6
CONTINUOUS
 10
-45.790990916
 20
-24.1583557114
 11
-45.7906523694
 21
-24.1029527027
  0
LINE
  5
253
100
AcDbEntity
  8
DRAFT
100
AcDbLine
 62
7
  6
CONTINUOUS
 10
-45.0087031451
 20
24.2084224687
 11
-45.0093476306
 21
24.1029527027
  0
LINE
  5
254
100
AcDbEntity
  8
RACCORDO
100
AcDbLine
 62
253
  6
CONTINUOUS
 10
-46.6019089823
 20
-23.5020003652
 11
-46.6033868232
 21
-23.6229151607
  0
LINE
  5
255
100
AcDbEntity
  8
RACCORDO
100
AcDbLine
 62
253
  6
CONTINUOUS
 10
-46.3061719357
 20
-24.0191235341
 11
-46.3074638198
 21
-24.1248236073
  0
LINE
  5
256
100
AcDbEntity
  8
RACCORDO
100
AcDbLine
 62
253
  6
CONTINUOUS
 10
-45.192675239
 20
-19.0012735824
 11
-45.2533265055
 21
-18.940622316
  0
LINE
  5
257
100
AcDbEntity
  8
RACCORDO
100
AcDbLine
 62
253
  6
CONTINUOUS
 10
-45.0888189223
 20
-18.9051603601
 11
-45.153341736
 21
-18.8406375464
  0
LINE
  5
258
100
AcDbEntity
  8
RACCORDO
100
AcDbLine
 62
253
  6
CONTINUOUS
 10
-46.5928961209
 20
-14.0931245967
 11
-46.526658264
 21
-14.1593624536
  0
LINE
  5
259
100
AcDbEntity
  8
RACCORDO
100
AcDbLine
 62
253
  6
CONTINUOUS
 10
-46.4883249355
 20
-13.9977262431
 11
-46.4266734945
 21
-14.059377684
  0
LINE
  5
25A
100
AcDbEntity
  8
0
100
AcDbLine
 62
7
  6
CONTINUOUS
 10
-41.5
 20
-35.0
 11
-41.5
 21
-28.5
  0
LINE
  5
25B
100
AcDbEntity
  8
0
100
AcDbLine
 62
7
  6
CONTINUOUS
 10
-41.5
 20
28.5
 11
-41.5
 21
35.0
  0
LINE
  5
25C
100
AcDbEntity
  8
RACCORDO
100
AcDbLine
 62
7
  6
CONTINUOUS
 10
-45.0631850763
 20
-37.6715380489
 11
-45.0181290128
 21
-37.4022728262
  0
LINE
  5
25D
100
AcDbEntity
  8
0
100
AcDbLine
 62
7
  6
CONTINUOUS
 10
-28.367986
 20
31.111854
 11
-27.6216
 21
33.727196
  0
LINE
  5
25E
100
AcDbEntity
  8
0
100
AcDbLine
 62
7
  6
CONTINUOUS
 10
-26.829028
 20
33.727196
 11
-28.050353
 21
29.927654
  0
LINE
  5
25F
100
AcDbEntity
  8
RACCORDO
100
AcDbLine
 62
7
  6
CONTINUOUS
 10
-46.5928961209
 20
22.6793755386
 11
-46.604156459
 21
22.6737457983
  0
LINE
  5
260
100
AcDbEntity
  8
0
100
AcDbLine
 62
7
  6
CONTINUOUS
 10
40.5
 20
-36.0
 11
4.5
 21
-36.0
  0
LINE
  5
261
100
AcDbEntity
  8
0
100
AcDbLine
 62
7
  6
CONTINUOUS
 10
-4.5
 20
-36.0
 11
-40.5
 21
-36.0
  0
LINE
  5
262
100
AcDbEntity
  8
RACCORDO
100
AcDbLine
 62
253
  6
CONTINUOUS
 10
45.7368149237
 20
-35.4413486316
 11
45.0631850763
 21
-35.4413486316
  0
LINE
  5
263
100
AcDbEntity
  8
RACCORDO
100
AcDbLine
 62
253
  6
CONTINUOUS
 10
0.3368149237
 20
-35.4413486316
 11
-0.3368149237
 21
-35.4413486316
  0
LINE
  5
264
100
AcDbEntity
  8
RACCORDO
100
AcDbLine
 62
253
  6
CONTINUOUS
 10
-45.0631850763
 20
-35.4413486316
 11
-45.7368149237
 21
-35.4413486316
  0
LINE
  5
265
100
AcDbEntity
  8
RACCORDO
100
AcDbLine
 62
7
  6
CONTINUOUS
 10
-46.604156459
 20
-22.6737457983
 11
-46.5928961209
 21
-22.6793755386
  0
LINE
  5
266
100
AcDbEntity
  8
0
100
AcDbLine
 62
7
  6
CONTINUOUS
 10
-17.719175
 20
-31.857969
 11
-18.839536
 21
-30.913833
  0
LINE
  5
267
100
AcDbEntity
  8
0
100
AcDbLine
 62
7
  6
CONTINUOUS
 10
-18.891249
 20
-30.3539
 11
-17.719175
 21
-31.341613
  0
LINE
  5
268
100
AcDbEntity
  8
RACCORDO
100
AcDbLine
 62
7
  6
CONTINUOUS
 10
-45.0181290128
 20
37.4022728265
 11
-45.0631850763
 21
37.6715380489
  0
LINE
  5
269
100
AcDbEntity
  8
0
100
AcDbLine
 62
7
  6
CONTINUOUS
 10
-28.367554
 20
-29.201963
 11
-28.367554
 21
-29.95278
  0
LINE
  5
26A
100
AcDbEntity
  8
0
100
AcDbLine
 62
7
  6
CONTINUOUS
 10
-28.367554
 20
-33.54722
 11
-28.367554
 21
-34.298037
  0
LINE
  5
26B
100
AcDbEntity
  8
0
100
AcDbLine
 62
7
  6
CONTINUOUS
 10
-25.31463
 20
29.927654
 11
-24.971553
 21
33.727196
  0
LINE
  5
26C
100
AcDbEntity
  8
0
100
AcDbLine
 62
7
  6
CONTINUOUS
 10
-20.333338
 20
30.686178
 11
-20.552188
 21
29.927654
  0
LINE
  5
26D
100
AcDbEntity
  8
0
100
AcDbLine
 62
7
  6
CONTINUOUS
 10
-21.336697
 20
29.927654
 11
-20.144918
 21
33.727196
  0
LINE
  5
26E
100
AcDbEntity
  8
0
100
AcDbLine
 62
7
  6
CONTINUOUS
 10
-23.394359
 20
31.617679
 11
-22.601245
 21
33.727196
  0
LINE
  5
26F
100
AcDbEntity
  8
0
100
AcDbLine
 62
7
  6
CONTINUOUS
 10
-22.40006
 20
32.398341
 11
-23.343072
 21
29.927654
  0
LINE
  5
270
100
AcDbEntity
  8
RACCORDO
100
AcDbLine
 62
7
  6
CONTINUOUS
 10
-45.7906523694
 20
-24.1029527027
 11
-45.7856244614
 21
-24.0928961209
  0
LINE
  5
271
100
AcDbEntity
  8
RACCORDO
100
AcDbLine
 62
7
  6
CONTINUOUS
 10
-66.2491018981
 20
0.2822620365
 11
-66.2565146541
 21
0.2785559408
  0
LINE
  5
272
100
AcDbEntity
  8
RACCORDO
100
AcDbLine
 62
253
  6
CONTINUOUS
 10
45.7411022052
 20
-34.941424784
 11
45.0588977948
 21
-34.941424784
  0
LINE
  5
273
100
AcDbEntity
  8
RACCORDO
100
AcDbLine
 62
253
  6
CONTINUOUS
 10
0.3411022052
 20
-34.941424784
 11
-0.3411022052
 21
-34.941424784
  0
LINE
  5
274
100
AcDbEntity
  8
RACCORDO
100
AcDbLine
 62
253
  6
CONTINUOUS
 10
-45.0588977948
 20
-34.941424784
 11
-45.7411022052
 21
-34.941424784
  0
LINE
  5
275
100
AcDbEntity
  8
RACCORDO
100
AcDbLine
 62
253
  6
CONTINUOUS
 10
0.3678946361
 20
-34.887835841
 11
-0.3678946361
 21
-34.887835841
  0
LINE
  5
276
100
AcDbEntity
  8
RACCORDO
100
AcDbLine
 62
253
  6
CONTINUOUS
 10
0.3711790299
 20
-34.6021513305
 11
-0.3711790299
 21
-34.6021513305
  0
LINE
  5
277
100
AcDbEntity
  8
0
100
AcDbLine
 62
7
  6
CONTINUOUS
 10
-16.906184
 20
-33.656117
 11
-18.08843
 21
-33.656117
  0
LINE
  5
278
100
AcDbEntity
  8
0
100
AcDbLine
 62
7
  6
CONTINUOUS
 10
-18.08843
 20
-33.239452
 11
-17.719175
 21
-33.239452
  0
LINE
  5
279
100
AcDbEntity
  8
0
100
AcDbLine
 62
7
  6
CONTINUOUS
 10
-17.275296
 20
-33.239452
 11
-16.906184
 21
-33.239452
  0
LINE
  5
27A
100
AcDbEntity
  8
SUPERFICI
100
AcDbLine
 62
7
  6
CONTINUOUS
 10
13.305084
 20
-32.675
 11
13.547274
 21
-32.675
  0
LINE
  5
27B
100
AcDbEntity
  8
SUPERFICI
100
AcDbLine
 62
7
  6
CONTINUOUS
 10
14.067792
 20
-32.675
 11
14.315156
 21
-32.675
  0
LINE
  5
27C
100
AcDbEntity
  8
SUPERFICI
100
AcDbLine
 62
7
  6
CONTINUOUS
 10
14.835574
 20
-32.675
 11
15.077862
 21
-32.675
  0
LINE
  5
27D
100
AcDbEntity
  8
SUPERFICI
100
AcDbLine
 62
7
  6
CONTINUOUS
 10
15.299458
 20
-32.675
 11
15.557096
 21
-32.675
  0
LINE
  5
27E
100
AcDbEntity
  8
SUPERFICI
100
AcDbLine
 62
7
  6
CONTINUOUS
 10
16.675325
 20
-32.675
 11
16.948479
 21
-32.675
  0
LINE
  5
27F
100
AcDbEntity
  8
SUPERFICI
100
AcDbLine
 62
7
  6
CONTINUOUS
 10
17.190662
 20
-32.675
 11
17.9404918702
 21
-32.675
  0
LINE
  5
280
100
AcDbEntity
  8
SUPERFICI
100
AcDbLine
 62
7
  6
CONTINUOUS
 10
19.063927
 20
-32.675
 11
20.429621
 21
-32.675
  0
LINE
  5
281
100
AcDbEntity
  8
SUPERFICI
100
AcDbLine
 62
7
  6
CONTINUOUS
 10
21.511852
 20
-32.675
 11
21.76177
 21
-32.675
  0
LINE
  5
282
100
AcDbEntity
  8
SUPERFICI
100
AcDbLine
 62
7
  6
CONTINUOUS
 10
22.189432
 20
-32.675
 11
22.431735
 21
-32.675
  0
LINE
  5
283
100
AcDbEntity
  8
SUPERFICI
100
AcDbLine
 62
7
  6
CONTINUOUS
 10
23.377382
 20
-32.675
 11
23.658226
 21
-32.675
  0
LINE
  5
284
100
AcDbEntity
  8
SUPERFICI
100
AcDbLine
 62
7
  6
CONTINUOUS
 10
24.804792
 20
-32.675
 11
25.054785
 21
-32.675
  0
LINE
  5
285
100
AcDbEntity
  8
SUPERFICI
100
AcDbLine
 62
7
  6
CONTINUOUS
 10
25.948905
 20
-32.675
 11
26.198808
 21
-32.675
  0
LINE
  5
286
100
AcDbEntity
  8
SUPERFICI
100
AcDbLine
 62
7
  6
CONTINUOUS
 10
26.897095
 20
-32.675
 11
27.154719
 21
-32.675
  0
LINE
  5
287
100
AcDbEntity
  8
SUPERFICI
100
AcDbLine
 62
7
  6
CONTINUOUS
 10
28.273052
 20
-32.675
 11
28.546251
 21
-32.675
  0
LINE
  5
288
100
AcDbEntity
  8
SUPERFICI
100
AcDbLine
 62
7
  6
CONTINUOUS
 10
28.775462
 20
-32.675
 11
29.963412
 21
-32.675
  0
LINE
  5
289
100
AcDbEntity
  8
SUPERFICI
100
AcDbLine
 62
7
  6
CONTINUOUS
 10
30.746651
 20
-32.675
 11
30.99651
 21
-32.675
  0
LINE
  5
28A
100
AcDbEntity
  8
SUPERFICI
100
AcDbLine
 62
7
  6
CONTINUOUS
 10
17.9341294694
 20
-32.461199
 11
17.44067
 21
-32.461199
  0
LINE
  5
28B
100
AcDbEntity
  8
SUPERFICI
100
AcDbLine
 62
7
  6
CONTINUOUS
 10
29.963412
 20
-32.453419
 11
29.02547
 21
-32.453419
  0
LINE
  5
28C
100
AcDbEntity
  8
SUPERFICI
100
AcDbLine
 62
7
  6
CONTINUOUS
 10
20.429621
 20
-32.453419
 11
19.31392
 21
-32.453419
  0
LINE
  5
28D
100
AcDbEntity
  8
SUPERFICI
100
AcDbLine
 62
7
  6
CONTINUOUS
 10
15.75037
 20
-32.136533
 11
16.492405
 21
-32.136533
  0
LINE
  5
28E
100
AcDbEntity
  8
SUPERFICI
100
AcDbLine
 62
7
  6
CONTINUOUS
 10
27.348007
 20
-32.136533
 11
28.090117
 21
-32.136533
  0
LINE
  5
28F
100
AcDbEntity
  8
0
100
AcDbLine
 62
7
  6
CONTINUOUS
 10
-24.382444
 20
-32.125
 11
-25.842945
 21
-32.125
  0
LINE
  5
290
100
AcDbEntity
  8
SUPERFICI
100
AcDbLine
 62
7
  6
CONTINUOUS
 10
27.999914
 20
-31.914951
 11
27.425314
 21
-31.914951
  0
LINE
  5
291
100
AcDbEntity
  8
SUPERFICI
100
AcDbLine
 62
7
  6
CONTINUOUS
 10
16.402291
 20
-31.914951
 11
15.827692
 21
-31.914951
  0
LINE
  5
292
100
AcDbEntity
  8
SUPERFICI
100
AcDbLine
 62
7
  6
CONTINUOUS
 10
19.31392
 20
-31.835057
 11
20.326536
 21
-31.835057
  0
LINE
  5
293
100
AcDbEntity
  8
SUPERFICI
100
AcDbLine
 62
7
  6
CONTINUOUS
 10
20.326536
 20
-31.613476
 11
19.31392
 21
-31.613476
  0
LINE
  5
294
100
AcDbEntity
  8
0
100
AcDbLine
 62
7
  6
CONTINUOUS
 10
-25.842948112
 20
-31.375
 11
-24.382444
 21
-31.375
  0
LINE
  5
295
100
AcDbEntity
  8
SUPERFICI
100
AcDbLine
 62
7
  6
CONTINUOUS
 10
19.31392
 20
-31.046581
 11
20.411562
 21
-31.046581
  0
LINE
  5
296
100
AcDbEntity
  8
SUPERFICI
100
AcDbLine
 62
7
  6
CONTINUOUS
 10
25.322762
 20
-31.046581
 11
25.948905
 21
-31.046581
  0
LINE
  5
297
100
AcDbEntity
  8
SUPERFICI
100
AcDbLine
 62
7
  6
CONTINUOUS
 10
26.198808
 20
-31.046581
 11
26.82495
 21
-31.046581
  0
LINE
  5
298
100
AcDbEntity
  8
SUPERFICI
100
AcDbLine
 62
7
  6
CONTINUOUS
 10
17.44067
 20
-31.038801
 11
17.9341294694
 21
-31.038801
  0
LINE
  5
299
100
AcDbEntity
  8
SUPERFICI
100
AcDbLine
 62
7
  6
CONTINUOUS
 10
31.694916
 20
-30.825
 11
31.401071
 21
-30.825
  0
LINE
  5
29A
100
AcDbEntity
  8
SUPERFICI
100
AcDbLine
 62
7
  6
CONTINUOUS
 10
30.339546
 20
-30.825
 11
30.048394
 21
-30.825
  0
LINE
  5
29B
100
AcDbEntity
  8
SUPERFICI
100
AcDbLine
 62
7
  6
CONTINUOUS
 10
29.02547
 20
-30.825
 11
28.775462
 21
-30.825
  0
LINE
  5
29C
100
AcDbEntity
  8
SUPERFICI
100
AcDbLine
 62
7
  6
CONTINUOUS
 10
27.876226
 20
-30.825
 11
27.592839
 21
-30.825
  0
LINE
  5
29D
100
AcDbEntity
  8
SUPERFICI
100
AcDbLine
 62
7
  6
CONTINUOUS
 10
26.82495
 20
-30.825
 11
25.322762
 21
-30.825
  0
LINE
  5
29E
100
AcDbEntity
  8
SUPERFICI
100
AcDbLine
 62
7
  6
CONTINUOUS
 10
25.054785
 20
-30.825
 11
24.804792
 21
-30.825
  0
LINE
  5
29F
100
AcDbEntity
  8
SUPERFICI
100
AcDbLine
 62
7
  6
CONTINUOUS
 10
23.658226
 20
-30.825
 11
23.416043
 21
-30.825
  0
LINE
  5
2A0
100
AcDbEntity
  8
SUPERFICI
100
AcDbLine
 62
7
  6
CONTINUOUS
 10
22.485806
 20
-30.825
 11
22.189432
 21
-30.825
  0
LINE
  5
2A1
100
AcDbEntity
  8
SUPERFICI
100
AcDbLine
 62
7
  6
CONTINUOUS
 10
21.76177
 20
-30.825
 11
21.511852
 21
-30.825
  0
LINE
  5
2A2
100
AcDbEntity
  8
SUPERFICI
100
AcDbLine
 62
7
  6
CONTINUOUS
 10
20.411562
 20
-30.825
 11
19.063927
 21
-30.825
  0
LINE
  5
2A3
100
AcDbEntity
  8
SUPERFICI
100
AcDbLine
 62
7
  6
CONTINUOUS
 10
17.9483576515
 20
-30.825
 11
17.190662
 21
-30.825
  0
LINE
  5
2A4
100
AcDbEntity
  8
SUPERFICI
100
AcDbLine
 62
7
  6
CONTINUOUS
 10
16.278589
 20
-30.825
 11
15.995112
 21
-30.825
  0
LINE
  5
2A5
100
AcDbEntity
  8
SUPERFICI
100
AcDbLine
 62
7
  6
CONTINUOUS
 10
15.077862
 20
-30.825
 11
14.72224
 21
-30.825
  0
LINE
  5
2A6
100
AcDbEntity
  8
SUPERFICI
100
AcDbLine
 62
7
  6
CONTINUOUS
 10
13.663247
 20
-30.825
 11
13.305084
 21
-30.825
  0
LINE
  5
2A7
100
AcDbEntity
  8
0
100
AcDbLine
 62
7
  6
CONTINUOUS
 10
-16.919791
 20
-30.279254
 11
-17.275296
 21
-30.279254
  0
LINE
  5
2A8
100
AcDbEntity
  8
0
100
AcDbLine
 62
7
  6
CONTINUOUS
 10
-17.719175
 20
-30.279254
 11
-18.074823
 21
-30.279254
  0
LINE
  5
2A9
100
AcDbEntity
  8
0
100
AcDbLine
 62
7
  6
CONTINUOUS
 10
-18.074823
 20
-29.860297
 11
-16.919791
 21
-29.860297
  0
LINE
  5
2AA
100
AcDbEntity
  8
RACCORDO
100
AcDbLine
 62
7
  6
CONTINUOUS
 10
-66.2491018981
 20
-0.2822620365
 11
-66.2565146541
 21
-0.2785559408
  0
LINE
  5
2AB
100
AcDbEntity
  8
0
100
AcDbLine
 62
7
  6
CONTINUOUS
 10
-16.535324
 20
-33.468741
 11
-16.727121
 21
-33.127022
  0
LINE
  5
2AC
100
AcDbEntity
  8
RACCORDO
100
AcDbLine
 62
7
  6
CONTINUOUS
 10
-45.7856244614
 20
24.0928961209
 11
-45.7906523694
 21
24.1029527027
  0
LINE
  5
2AD
100
AcDbEntity
  8
0
100
AcDbLine
 62
7
  6
CONTINUOUS
 10
-26.534701
 20
29.927654
 11
-26.534701
 21
33.727424
  0
LINE
  5
2AE
100
AcDbEntity
  8
0
100
AcDbLine
 62
7
  6
CONTINUOUS
 10
-25.741588
 20
33.727424
 11
-25.741588
 21
29.927654
  0
LINE
  5
2AF
100
AcDbEntity
  8
0
100
AcDbLine
 62
7
  6
CONTINUOUS
 10
-24.382444
 20
-31.375
 11
-24.382444
 21
-32.125
  0
LINE
  5
2B0
100
AcDbEntity
  8
0
100
AcDbLine
 62
7
  6
CONTINUOUS
 10
-23.982444
 20
-29.2019628823
 11
-23.982444
 21
-29.95278
  0
LINE
  5
2B1
100
AcDbEntity
  8
0
100
AcDbLine
 62
7
  6
CONTINUOUS
 10
-23.982444
 20
-33.5472169516
 11
-23.982444
 21
-34.2980371177
  0
LINE
  5
2B2
100
AcDbEntity
  8
0
100
AcDbLine
 62
7
  6
CONTINUOUS
 10
-24.384725
 20
32.408684
 11
-24.555878
 21
29.927654
  0
LINE
  5
2B3
100
AcDbEntity
  8
0
100
AcDbLine
 62
7
  6
CONTINUOUS
 10
-19.776199
 20
32.683179
 11
-20.171103
 21
31.27312
  0
LINE
  5
2B4
100
AcDbEntity
  8
RACCORDO
100
AcDbLine
 62
7
  6
CONTINUOUS
 10
-45.0350252855
 20
-34.8936761289
 11
-45.0588977948
 21
-34.941424784
  0
LINE
  5
2B5
100
AcDbEntity
  8
RACCORDO
100
AcDbLine
 62
253
  6
CONTINUOUS
 10
-45.2533265055
 20
-14.059377684
 11
-45.192675239
 21
-13.9987264176
  0
LINE
  5
2B6
100
AcDbEntity
  8
RACCORDO
100
AcDbLine
 62
253
  6
CONTINUOUS
 10
-45.153341736
 20
-14.1593624536
 11
-45.0888189223
 21
-14.0948396399
  0
LINE
  5
2B7
100
AcDbEntity
  8
0
100
AcDbLine
 62
7
  6
CONTINUOUS
 10
27.8645834327
 20
32.6808511019
 11
28.0208334327
 21
32.7340425849
  0
LINE
  5
2B8
100
AcDbEntity
  8
0
100
AcDbLine
 62
7
  6
CONTINUOUS
 10
30.2083331347
 20
32.6808511019
 11
30.3645831347
 21
32.7340425849
  0
LINE
  5
2B9
100
AcDbEntity
  8
0
100
AcDbLine
 62
7
  6
CONTINUOUS
 10
28.5416665673
 20
31.7234042585
 11
28.3854165673
 21
31.6702127755
  0
LINE
  5
2BA
100
AcDbEntity
  8
DRAFT
100
AcDbLine
 62
7
  6
CONTINUOUS
 10
66.6569219382
 20
-20.4536400895
 11
65.95
 21
-20.457201887
  0
LINE
  5
2BB
100
AcDbEntity
  8
0
100
AcDbLine
 62
7
  6
CONTINUOUS
 10
-40.5
 20
-27.5
 11
-4.5
 21
-27.5
  0
LINE
  5
2BC
100
AcDbEntity
  8
0
100
AcDbLine
 62
7
  6
CONTINUOUS
 10
4.5
 20
-27.5
 11
40.5
 21
-27.5
  0
LINE
  5
2BD
100
AcDbEntity
  8
DRAFT
100
AcDbLine
 62
253
  6
CONTINUOUS
 10
0.3868254194
 20
-24.9240331322
 11
-0.3868254194
 21
-24.9240331322
  0
LINE
  5
2BE
100
AcDbEntity
  8
RACCORDO
100
AcDbLine
 62
7
  6
CONTINUOUS
 10
-46.0030440856
 20
-24.1029527027
 11
-45.7906523694
 21
-24.1029527027
  0
LINE
  5
2BF
100
AcDbEntity
  8
DRAFT
100
AcDbLine
 62
7
  6
CONTINUOUS
 10
-45.0093476306
 20
-24.1029527027
 11
-0.3906523694
 21
-24.1029527027
  0
LINE
  5
2C0
100
AcDbEntity
  8
DRAFT
100
AcDbLine
 62
7
  6
CONTINUOUS
 10
0.3906523694
 20
-24.1029527027
 11
45.0093476306
 21
-24.1029527027
  0
LINE
  5
2C1
100
AcDbEntity
  8
RACCORDO
100
AcDbLine
 62
7
  6
CONTINUOUS
 10
45.7906523694
 20
-24.1029527027
 11
46.0030440856
 21
-24.1029527027
  0
LINE
  5
2C2
100
AcDbEntity
  8
DRAFT
100
AcDbLine
 62
7
  6
CONTINUOUS
 10
0.3873673847
 20
-24.0963822329
 11
-0.3873673847
 21
-24.0963822329
  0
LINE
  5
2C3
100
AcDbEntity
  8
RACCORDO
100
AcDbLine
 62
253
  6
CONTINUOUS
 10
-45.9929875038
 20
-24.0928961209
 11
-45.7856244614
 21
-24.0928961209
  0
LINE
  5
2C4
100
AcDbEntity
  8
RACCORDO
100
AcDbLine
 62
253
  6
CONTINUOUS
 10
-45.0143755386
 20
-24.0928961209
 11
45.0143755386
 21
-24.0928961209
  0
LINE
  5
2C5
100
AcDbEntity
  8
RACCORDO
100
AcDbLine
 62
253
  6
CONTINUOUS
 10
45.7856244614
 20
-24.0928961209
 11
45.9929875038
 21
-24.0928961209
  0
LINE
  5
2C6
100
AcDbEntity
  8
RACCORDO
100
AcDbLine
 62
253
  6
CONTINUOUS
 10
-45.9929875038
 20
-23.6929570428
 11
45.9929875038
 21
-23.6929570428
  0
LINE
  5
2C7
100
AcDbEntity
  8
RACCORDO
100
AcDbLine
 62
253
  6
CONTINUOUS
 10
46.1929570428
 20
-23.4929875038
 11
46.5928961209
 21
-23.4929875038
  0
LINE
  5
2C8
100
AcDbEntity
  8
RACCORDO
100
AcDbLine
 62
253
  6
CONTINUOUS
 10
-46.1929570428
 20
-23.4929875038
 11
-46.5928961209
 21
-23.4929875038
  0
LINE
  5
2C9
100
AcDbEntity
  8
RACCORDO
100
AcDbLine
 62
7
  6
CONTINUOUS
 10
69.1962769842
 20
-23.2418149237
 11
66.7913486316
 21
-23.2418149237
  0
LINE
  5
2CA
100
AcDbEntity
  8
RACCORDO
100
AcDbLine
 62
7
  6
CONTINUOUS
 10
-66.7913486316
 20
-23.2418149237
 11
-69.1962769842
 21
-23.2418149237
  0
LINE
  5
2CB
100
AcDbEntity
  8
RACCORDO
100
AcDbLine
 62
253
  6
CONTINUOUS
 10
44.6888798443
 20
-22.8887732309
 11
-44.6888798443
 21
-22.8887732309
  0
LINE
  5
2CC
100
AcDbEntity
  8
RACCORDO
100
AcDbLine
 62
7
  6
CONTINUOUS
 10
-69.2160205426
 20
-22.7281850763
 11
-66.7913486316
 21
-22.7281850763
  0
LINE
  5
2CD
100
AcDbEntity
  8
RACCORDO
100
AcDbLine
 62
7
  6
CONTINUOUS
 10
66.7913486316
 20
-22.7281850763
 11
69.2160205426
 21
-22.7281850763
  0
LINE
  5
2CE
100
AcDbEntity
  8
RACCORDO
100
AcDbLine
 62
253
  6
CONTINUOUS
 10
44.6888804671
 20
-22.5888189223
 11
-44.6888787917
 21
-22.5888189223
  0
LINE
  5
2CF
100
AcDbEntity
  8
RACCORDO
100
AcDbLine
 62
7
  6
CONTINUOUS
 10
44.6800609219
 20
-22.58
 11
-44.6800609219
 21
-22.58
  0
LINE
  5
2D0
100
AcDbEntity
  8
0
100
AcDbLine
 62
7
  6
CONTINUOUS
 10
44.7000456915
 20
-22.5
 11
-44.7000456915
 21
-22.5
  0
LINE
  5
2D1
100
AcDbEntity
  8
RACCORDO
100
AcDbLine
 62
253
  6
CONTINUOUS
 10
-45.3887732309
 20
-22.1888798443
 11
-45.0888189223
 21
-22.1888798443
  0
LINE
  5
2D2
100
AcDbEntity
  8
RACCORDO
100
AcDbLine
 62
253
  6
CONTINUOUS
 10
45.3887732309
 20
-22.1888798443
 11
45.0888189223
 21
-22.1888798443
  0
LINE
  5
2D3
100
AcDbEntity
  8
DRAFT
100
AcDbLine
 62
7
  6
CONTINUOUS
 10
-65.95
 20
-20.457201887
 11
-66.6569219382
 21
-20.4536400895
  0
LINE
  5
2D4
100
AcDbEntity
  8
RACCORDO
100
AcDbLine
 62
7
  6
CONTINUOUS
 10
-45.0350252855
 20
34.8936761289
 11
-45.0588977948
 21
34.941424784
  0
LINE
  5
2D5
100
AcDbEntity
  8
0
100
AcDbLine
 62
7
  6
CONTINUOUS
 10
-21.816537
 20
33.727196
 11
-21.461237
 21
29.927654
  0
LINE
  5
2D6
100
AcDbEntity
  8
0
100
AcDbLine
 62
7
  6
CONTINUOUS
 10
-22.237113
 20
29.927654
 11
-22.40006
 21
32.398341
  0
LINE
  5
2D7
100
AcDbEntity
  8
0
100
AcDbLine
 62
7
  6
CONTINUOUS
 10
-18.08843
 20
-33.656117
 11
-18.08843
 21
-33.239452
  0
LINE
  5
2D8
100
AcDbEntity
  8
0
100
AcDbLine
 62
7
  6
CONTINUOUS
 10
-18.074823
 20
-30.279254
 11
-18.074823
 21
-29.860297
  0
LINE
  5
2D9
100
AcDbEntity
  8
0
100
AcDbLine
 62
7
  6
CONTINUOUS
 10
-17.9789858413
 20
29.9276540612
 11
-17.9789858413
 21
33.6828051783
  0
LINE
  5
2DA
100
AcDbEntity
  8
0
100
AcDbLine
 62
7
  6
CONTINUOUS
 10
-17.719175
 20
-33.239452
 11
-17.719175
 21
-31.857969
  0
LINE
  5
2DB
100
AcDbEntity
  8
0
100
AcDbLine
 62
7
  6
CONTINUOUS
 10
-17.719175
 20
-31.341613
 11
-17.719175
 21
-30.279254
  0
LINE
  5
2DC
100
AcDbEntity
  8
0
100
AcDbLine
 62
7
  6
CONTINUOUS
 10
-17.275296
 20
-30.279254
 11
-17.275296
 21
-31.341613
  0
LINE
  5
2DD
100
AcDbEntity
  8
0
100
AcDbLine
 62
7
  6
CONTINUOUS
 10
-17.275296
 20
-31.853309
 11
-17.275296
 21
-33.239452
  0
LINE
  5
2DE
100
AcDbEntity
  8
0
100
AcDbLine
 62
7
  6
CONTINUOUS
 10
-17.215361993
 20
33.0799067555
 11
-17.215361993
 21
32.0368582931
  0
LINE
  5
2DF
100
AcDbEntity
  8
0
100
AcDbLine
 62
7
  6
CONTINUOUS
 10
-17.189063541
 20
31.4145850627
 11
-17.189063541
 21
29.9276540612
  0
LINE
  5
2E0
100
AcDbEntity
  8
0
100
AcDbLine
 62
7
  6
CONTINUOUS
 10
-16.919791
 20
-29.860297
 11
-16.919791
 21
-30.279254
  0
LINE
  5
2E1
100
AcDbEntity
  8
0
100
AcDbLine
 62
7
  6
CONTINUOUS
 10
-16.906184
 20
-33.239452
 11
-16.906184
 21
-33.656117
  0
LINE
  5
2E2
100
AcDbEntity
  8
0
100
AcDbLine
 62
7
  6
CONTINUOUS
 10
-15.9399298096
 20
31.7236987201
 11
-15.9399298096
 21
31.7012467372
  0
LINE
  5
2E3
100
AcDbEntity
  8
RACCORDO
100
AcDbLine
 62
7
  6
CONTINUOUS
 10
-0.3678946361
 20
34.887835841
 11
-0.3411022052
 21
34.941424784
  0
LINE
  5
2E4
100
AcDbEntity
  8
RACCORDO
100
AcDbLine
 62
253
  6
CONTINUOUS
 10
-46.526658264
 20
-18.8406375464
 11
-46.5928961209
 21
-18.9068754033
  0
LINE
  5
2E5
100
AcDbEntity
  8
RACCORDO
100
AcDbLine
 62
253
  6
CONTINUOUS
 10
-46.4266734945
 20
-18.940622316
 11
-46.4883249355
 21
-19.0022737569
  0
LINE
  5
2E6
100
AcDbEntity
  8
RACCORDO
100
AcDbLine
 62
253
  6
CONTINUOUS
 10
-46.6019089823
 20
-23.5020003652
 11
-46.5928961209
 21
-23.4929875038
  0
LINE
  5
2E7
100
AcDbEntity
  8
RACCORDO
100
AcDbLine
 62
253
  6
CONTINUOUS
 10
-45.0888189223
 20
-22.1888804671
 11
-45.08
 21
-22.1800609219
  0
LINE
  5
2E8
100
AcDbEntity
  8
RACCORDO
100
AcDbLine
 62
253
  6
CONTINUOUS
 10
-44.6888787917
 20
-22.5888189223
 11
-44.6800609219
 21
-22.58
  0
LINE
  5
2E9
100
AcDbEntity
  8
RACCORDO
100
AcDbLine
 62
253
  6
CONTINUOUS
 10
-46.0030440856
 20
-24.1029527027
 11
-45.9929875038
 21
-24.0928961209
  0
LINE
  5
2EA
100
AcDbEntity
  8
0
100
AcDbLine
 62
7
  6
CONTINUOUS
 10
25.625
 20
32.946808517
 11
25.3645833209
 21
32.7872340679
  0
LINE
  5
2EB
100
AcDbEntity
  8
0
100
AcDbLine
 62
7
  6
CONTINUOUS
 10
27.8125
 20
32.946808517
 11
27.5520834327
 21
32.7872340679
  0
LINE
  5
2EC
100
AcDbEntity
  8
DRAFT
100
AcDbLine
 62
7
  6
CONTINUOUS
 10
-46.596713605
 20
-0.3075330581
 11
-46.6131549038
 21
-0.3157530814
  0
LINE
  5
2ED
100
AcDbEntity
  8
0
100
AcDbLine
 62
7
  6
CONTINUOUS
 10
30.2083331347
 20
31.7765957415
 11
30.3645831347
 21
31.8297872245
  0
LINE
  5
2EE
100
AcDbEntity
  8
0
100
AcDbLine
 62
7
  6
CONTINUOUS
 10
28.5416665673
 20
30.8191489354
 11
28.3854165673
 21
30.7659574524
  0
LINE
  5
2EF
100
AcDbEntity
  8
0
100
AcDbLine
 62
7
  6
CONTINUOUS
 10
30.8854168653
 20
30.8191489354
 11
30.7291668653
 21
30.7659574524
  0
LINE
  5
2F0
100
AcDbEntity
  8
DRAFT
100
AcDbLine
 62
7
  6
CONTINUOUS
 10
-67.1
 20
-20.4763299457
 11
-65.95
 21
-20.4589472606
  0
LINE
  5
2F1
100
AcDbEntity
  8
DRAFT
100
AcDbLine
 62
7
  6
CONTINUOUS
 10
65.95
 20
-14.5410527394
 11
67.1
 21
-14.5236700543
  0
LINE
  5
2F2
100
AcDbEntity
  8
DRAFT
100
AcDbLine
 62
7
  6
CONTINUOUS
 10
69.3234291835
 20
-19.7003915388
 11
65.95
 21
-19.7298310093
  0
LINE
  5
2F3
100
AcDbEntity
  8
DRAFT
100
AcDbLine
 62
7
  6
CONTINUOUS
 10
69.4034356762
 20
-17.0996933327
 11
65.95
 21
-17.1298310093
  0
LINE
  5
2F4
100
AcDbEntity
  8
DRAFT
100
AcDbLine
 62
7
  6
CONTINUOUS
 10
-65.95
 20
-17.8701689907
 11
-69.3800180232
 21
-17.9001023045
  0
LINE
  5
2F5
100
AcDbEntity
  8
DRAFT
100
AcDbLine
 62
7
  6
CONTINUOUS
 10
-65.95
 20
-15.2701689907
 11
-69.452156239
 21
-15.3007318452
  0
LINE
  5
2F6
100
AcDbEntity
  8
DRAFT
100
AcDbLine
 62
7
  6
CONTINUOUS
 10
-65.95
 20
-14.542798113
 11
-66.6569219382
 21
-14.5463599105
  0
LINE
  5
2F7
100
AcDbEntity
  8
DRAFT
100
AcDbLine
 62
7
  6
CONTINUOUS
 10
69.2981424842
 20
-20.4536400895
 11
66.6569219382
 21
-20.4536400895
  0
LINE
  5
2F8
100
AcDbEntity
  8
DRAFT
100
AcDbLine
 62
7
  6
CONTINUOUS
 10
-66.6569219382
 20
-20.4536400895
 11
-69.2981424842
 21
-20.4536400895
  0
LINE
  5
2F9
100
AcDbEntity
  8
RACCORDO
100
AcDbLine
 62
7
  6
CONTINUOUS
 10
-46.1929570428
 20
-19.0
 11
-45.3887732309
 21
-19.0
  0
LINE
  5
2FA
100
AcDbEntity
  8
RACCORDO
100
AcDbLine
 62
253
  6
CONTINUOUS
 10
-46.4266734945
 20
-18.940622316
 11
-45.2533265055
 21
-18.940622316
  0
LINE
  5
2FB
100
AcDbEntity
  8
RACCORDO
100
AcDbLine
 62
253
  6
CONTINUOUS
 10
-45.153341736
 20
-18.8406375464
 11
-46.526658264
 21
-18.8406375464
  0
LINE
  5
2FC
100
AcDbEntity
  8
DRAFT
100
AcDbLine
 62
7
  6
CONTINUOUS
 10
-69.4709755079
 20
-14.5463599105
 11
-66.6569219382
 21
-14.5463599105
  0
LINE
  5
2FD
100
AcDbEntity
  8
DRAFT
100
AcDbLine
 62
7
  6
CONTINUOUS
 10
66.6569219382
 20
-14.5463599105
 11
69.4709755079
 21
-14.5463599105
  0
LINE
  5
2FE
100
AcDbEntity
  8
RACCORDO
100
AcDbLine
 62
253
  6
CONTINUOUS
 10
-45.153341736
 20
-14.1593624536
 11
-46.526658264
 21
-14.1593624536
  0
LINE
  5
2FF
100
AcDbEntity
  8
RACCORDO
100
AcDbLine
 62
253
  6
CONTINUOUS
 10
-45.2533265055
 20
-14.059377684
 11
-46.4266734945
 21
-14.059377684
  0
LINE
  5
300
100
AcDbEntity
  8
RACCORDO
100
AcDbLine
 62
7
  6
CONTINUOUS
 10
-46.1929570428
 20
-14.0
 11
-45.3887732309
 21
-14.0
  0
LINE
  5
301
100
AcDbEntity
  8
DRAFT
100
AcDbLine
 62
7
  6
CONTINUOUS
 10
66.6569219382
 20
-14.5463599105
 11
65.95
 21
-14.542798113
  0
LINE
  5
302
100
AcDbEntity
  8
DRAFT
100
AcDbLine
 62
7
  6
CONTINUOUS
 10
-65.95
 20
-19.7298310093
 11
-69.3234291835
 21
-19.7003915388
  0
LINE
  5
303
100
AcDbEntity
  8
DRAFT
100
AcDbLine
 62
7
  6
CONTINUOUS
 10
-65.95
 20
-17.1298310093
 11
-69.4034356762
 21
-17.0996933327
  0
LINE
  5
304
100
AcDbEntity
  8
DRAFT
100
AcDbLine
 62
7
  6
CONTINUOUS
 10
65.95
 20
-17.8701689907
 11
69.3800180232
 21
-17.9001023045
  0
LINE
  5
305
100
AcDbEntity
  8
DRAFT
100
AcDbLine
 62
7
  6
CONTINUOUS
 10
65.95
 20
-15.2701689907
 11
69.452156239
 21
-15.3007318452
  0
LINE
  5
306
100
AcDbEntity
  8
DRAFT
100
AcDbLine
 62
7
  6
CONTINUOUS
 10
65.95
 20
-20.4589472606
 11
67.1
 21
-20.4763299457
  0
LINE
  5
307
100
AcDbEntity
  8
DRAFT
100
AcDbLine
 62
7
  6
CONTINUOUS
 10
-67.1
 20
-14.5236700543
 11
-65.95
 21
-14.5410527394
  0
LINE
  5
308
100
AcDbEntity
  8
DRAFT
100
AcDbLine
 62
7
  6
CONTINUOUS
 10
-46.6131549038
 20
0.3157530814
 11
-46.596713605
 21
0.3075330581
  0
LINE
  5
309
100
AcDbEntity
  8
RACCORDO
100
AcDbLine
 62
253
  6
CONTINUOUS
 10
-46.5928961209
 20
23.4929875038
 11
-46.6019089823
 21
23.5020003652
  0
LINE
  5
30A
100
AcDbEntity
  8
RACCORDO
100
AcDbLine
 62
253
  6
CONTINUOUS
 10
-45.0888189223
 20
22.1888787917
 11
-45.08
 21
22.1800609219
  0
LINE
  5
30B
100
AcDbEntity
  8
RACCORDO
100
AcDbLine
 62
253
  6
CONTINUOUS
 10
-44.6888804671
 20
22.5888189223
 11
-44.6800609219
 21
22.58
  0
LINE
  5
30C
100
AcDbEntity
  8
RACCORDO
100
AcDbLine
 62
253
  6
CONTINUOUS
 10
-45.9929875038
 20
24.0928961209
 11
-46.0030440856
 21
24.1029527027
  0
LINE
  5
30D
100
AcDbEntity
  8
RACCORDO
100
AcDbLine
 62
7
  6
CONTINUOUS
 10
-0.3678946361
 20
-34.887835841
 11
-0.3411022052
 21
-34.941424784
  0
LINE
  5
30E
100
AcDbEntity
  8
0
100
AcDbLine
 62
7
  6
CONTINUOUS
 10
-28.749285
 20
29.927654
 11
-29.953814
 21
33.727196
  0
LINE
  5
30F
100
AcDbEntity
  8
0
100
AcDbLine
 62
7
  6
CONTINUOUS
 10
-29.092247
 20
33.727196
 11
-28.367986
 21
31.111854
  0
LINE
  5
310
100
AcDbEntity
  8
RACCORDO
100
AcDbLine
 62
7
  6
CONTINUOUS
 10
-0.3907576068
 20
38.073805665
 11
-0.3368149237
 21
38.3977636842
  0
LINE
  5
311
100
AcDbEntity
  8
DRAFT
100
AcDbLine
 62
7
  6
CONTINUOUS
 10
0.3906523694
 20
24.1029527027
 11
0.3873673847
 21
24.0963822329
  0
LINE
  5
312
100
AcDbEntity
  8
0
100
AcDbLine
 62
7
  6
CONTINUOUS
 10
25.5208333209
 20
32.5744681358
 11
25.6770833582
 21
32.6808511019
  0
LINE
  5
313
100
AcDbEntity
  8
0
100
AcDbLine
 62
7
  6
CONTINUOUS
 10
27.7083334327
 20
32.5744681358
 11
27.8645834327
 21
32.6808511019
  0
LINE
  5
314
100
AcDbEntity
  8
0
100
AcDbLine
 62
7
  6
CONTINUOUS
 10
26.3541667163
 20
30.9255319014
 11
26.1979166418
 21
30.8191489354
  0
LINE
  5
315
100
AcDbEntity
  8
0
100
AcDbLine
 62
7
  6
CONTINUOUS
 10
28.6979165673
 20
31.8297872245
 11
28.5416665673
 21
31.7234042585
  0
LINE
  5
316
100
AcDbEntity
  8
0
100
AcDbLine
 62
7
  6
CONTINUOUS
 10
30.0520831347
 20
32.5744681358
 11
30.2083331347
 21
32.6808511019
  0
LINE
  5
317
100
AcDbEntity
  8
0
100
AcDbLine
 62
7
  6
CONTINUOUS
 10
28.59375
 20
31.4574468434
 11
28.90625
 21
31.6702127755
  0
LINE
  5
318
100
AcDbEntity
  8
0
100
AcDbLine
 62
7
  6
CONTINUOUS
 10
30.15625
 20
32.0425531566
 11
29.84375
 21
31.8297872245
  0
LINE
  5
319
100
AcDbEntity
  8
0
100
AcDbLine
 62
7
  6
CONTINUOUS
 10
28.6979165673
 20
30.9255319014
 11
28.5416665673
 21
30.8191489354
  0
LINE
  5
31A
100
AcDbEntity
  8
0
100
AcDbLine
 62
7
  6
CONTINUOUS
 10
30.0520831347
 20
31.6702127755
 11
30.2083331347
 21
31.7765957415
  0
LINE
  5
31B
100
AcDbEntity
  8
0
100
AcDbLine
 62
7
  6
CONTINUOUS
 10
31.0416668653
 20
30.9255319014
 11
30.8854168653
 21
30.8191489354
  0
LINE
  5
31C
100
AcDbEntity
  8
0
100
AcDbLine
 62
7
  6
CONTINUOUS
 10
33.3333331347
 20
30.9255319014
 11
33.1770831347
 21
30.8191489354
  0
LINE
  5
31D
100
AcDbEntity
  8
0
100
AcDbLine
 62
7
  6
CONTINUOUS
 10
26.25
 20
30.5531914877
 11
26.5104167163
 21
30.7127659507
  0
LINE
  5
31E
100
AcDbEntity
  8
0
100
AcDbLine
 62
7
  6
CONTINUOUS
 10
30.15625
 20
32.946808517
 11
29.8958334327
 21
32.7872340679
  0
LINE
  5
31F
100
AcDbEntity
  8
0
100
AcDbLine
 62
7
  6
CONTINUOUS
 10
28.59375
 20
30.5531914877
 11
28.8541665673
 21
30.7127659507
  0
LINE
  5
320
100
AcDbEntity
  8
0
100
AcDbLine
 62
7
  6
CONTINUOUS
 10
32.3958331347
 20
32.0425531566
 11
32.1354168653
 21
31.8829787076
  0
LINE
  5
321
100
AcDbEntity
  8
0
100
AcDbLine
 62
7
  6
CONTINUOUS
 10
30.9375
 20
30.5531914877
 11
31.1979168653
 21
30.7127659507
  0
LINE
  5
322
100
AcDbEntity
  8
0
100
AcDbLine
 62
7
  6
CONTINUOUS
 10
33.2291668653
 20
30.5531914877
 11
33.4895831347
 21
30.7127659507
  0
LINE
  5
323
100
AcDbEntity
  8
RACCORDO
100
AcDbLine
 62
7
  6
CONTINUOUS
 10
-66.2522512562
 20
-22.7043125226
 11
-66.291424784
 21
-22.7238977948
  0
LINE
  5
324
100
AcDbEntity
  8
RACCORDO
100
AcDbLine
 62
7
  6
CONTINUOUS
 10
69.5429258229
 20
-0.2742686593
 11
69.3806822453
 21
-0.3012830586
  0
LINE
  5
325
100
AcDbEntity
  8
RACCORDO
100
AcDbLine
 62
7
  6
CONTINUOUS
 10
-69.3806822387
 20
-0.3012830591
 11
-69.5429258229
 21
-0.2742686593
  0
LINE
  5
326
100
AcDbEntity
  8
RACCORDO
100
AcDbLine
 62
7
  6
CONTINUOUS
 10
-66.2522512562
 20
22.7043125226
 11
-66.291424784
 21
22.7238977948
  0
LINE
  5
327
100
AcDbEntity
  8
DRAFT
100
AcDbLine
 62
7
  6
CONTINUOUS
 10
0.3873673847
 20
-24.0963822329
 11
0.3906523694
 21
-24.1029527027
  0
LINE
  5
328
100
AcDbEntity
  8
0
100
AcDbLine
 62
7
  6
CONTINUOUS
 10
-23.454306
 20
29.927654
 11
-24.384725
 21
32.408684
  0
LINE
  5
329
100
AcDbEntity
  8
0
100
AcDbLine
 62
7
  6
CONTINUOUS
 10
-24.179095
 20
33.727196
 11
-23.394359
 21
31.617679
  0
LINE
  5
32A
100
AcDbEntity
  8
0
100
AcDbLine
 62
7
  6
CONTINUOUS
 10
-19.377676
 20
33.727196
 11
-18.211882
 21
29.927654
  0
LINE
  5
32B
100
AcDbEntity
  8
0
100
AcDbLine
 62
7
  6
CONTINUOUS
 10
-19.047791
 20
29.927654
 11
-19.25325
 21
30.686178
  0
LINE
  5
32C
100
AcDbEntity
  8
0
100
AcDbLine
 62
7
  6
CONTINUOUS
 10
-19.411753
 20
31.27312
 11
-19.776199
 21
32.683179
  0
LINE
  5
32D
100
AcDbEntity
  8
RACCORDO
100
AcDbLine
 62
7
  6
CONTINUOUS
 10
-0.3368149237
 20
-38.3977636842
 11
-0.3907576069
 21
-38.0738056636
  0
LINE
  5
32E
100
AcDbEntity
  8
DRAFT
100
AcDbLine
 62
7
  6
CONTINUOUS
 10
-0.4
 20
25.6326882708
 11
-0.3906523694
 21
24.1029527027
  0
LINE
  5
32F
100
AcDbEntity
  8
DRAFT
100
AcDbLine
 62
7
  6
CONTINUOUS
 10
0.4
 20
-25.6326882708
 11
0.3906523694
 21
-24.1029527027
  0
LINE
  5
330
100
AcDbEntity
  8
0
100
AcDbLine
 62
7
  6
CONTINUOUS
 10
-3.5
 20
35.0
 11
-3.5
 21
28.5
  0
LINE
  5
331
100
AcDbEntity
  8
0
100
AcDbLine
 62
7
  6
CONTINUOUS
 10
-3.5
 20
-28.5
 11
-3.5
 21
-35.0
  0
LINE
  5
332
100
AcDbEntity
  8
RACCORDO
100
AcDbLine
 62
7
  6
CONTINUOUS
 10
-0.3368149237
 20
-38.3977636842
 11
-0.3368149237
 21
-35.4413486316
  0
LINE
  5
333
100
AcDbEntity
  8
RACCORDO
100
AcDbLine
 62
7
  6
CONTINUOUS
 10
-0.3368149237
 20
35.4413486316
 11
-0.3368149237
 21
38.3977636842
  0
LINE
  5
334
100
AcDbEntity
  8
RACCORDO
100
AcDbLine
 62
7
  6
CONTINUOUS
 10
0.3368149237
 20
38.3977636842
 11
0.3368149237
 21
35.4413486316
  0
LINE
  5
335
100
AcDbEntity
  8
RACCORDO
100
AcDbLine
 62
7
  6
CONTINUOUS
 10
0.3368149237
 20
-35.4413486316
 11
0.3368149237
 21
-38.3977636842
  0
LINE
  5
336
100
AcDbEntity
  8
DRAFT
100
AcDbLine
 62
7
  6
CONTINUOUS
 10
-0.4
 20
-25.6326882708
 11
-0.3906523694
 21
-24.1029527027
  0
LINE
  5
337
100
AcDbEntity
  8
DRAFT
100
AcDbLine
 62
7
  6
CONTINUOUS
 10
0.4
 20
25.6326882708
 11
0.3906523694
 21
24.1029527027
  0
LINE
  5
338
100
AcDbEntity
  8
0
100
AcDbLine
 62
7
  6
CONTINUOUS
 10
-18.2728790635
 20
-33.1270221132
 11
-18.4646758237
 21
-33.4687406859
  0
LINE
  5
339
100
AcDbEntity
  8
0
100
AcDbLine
 62
7
  6
CONTINUOUS
 10
25.3645833209
 20
32.7872340679
 11
25.2083333395
 21
32.6276596189
  0
LINE
  5
33A
100
AcDbEntity
  8
0
100
AcDbLine
 62
7
  6
CONTINUOUS
 10
26.5104167163
 20
30.7127659507
 11
26.6666667163
 21
30.8723404184
  0
LINE
  5
33B
100
AcDbEntity
  8
0
100
AcDbLine
 62
7
  6
CONTINUOUS
 10
29.9479165673
 20
31.5638298094
 11
30.0520831347
 21
31.6702127755
  0
LINE
  5
33C
100
AcDbEntity
  8
0
100
AcDbLine
 62
7
  6
CONTINUOUS
 10
32.2395831347
 20
31.6170212924
 11
32.4479168653
 21
31.7765957415
  0
LINE
  5
33D
100
AcDbEntity
  8
RACCORDO
100
AcDbLine
 62
7
  6
CONTINUOUS
 10
-46.5928961209
 20
-23.2906244614
 11
-46.6036554698
 21
-23.2960037262
  0
LINE
  5
33E
100
AcDbEntity
  8
RACCORDO
100
AcDbLine
 62
7
  6
CONTINUOUS
 10
46.5928961209
 20
23.2906244614
 11
46.6036554698
 21
23.2960037262
  0
LINE
  5
33F
100
AcDbEntity
  8
RACCORDO
100
AcDbLine
 62
7
  6
CONTINUOUS
 10
-69.2153144529
 20
-14.5036273906
 11
-69.4709755079
 21
-14.5463599105
  0
LINE
  5
340
100
AcDbEntity
  8
RACCORDO
100
AcDbLine
 62
253
  6
CONTINUOUS
 10
71.2369985875
 20
-3.9498766793
 11
69.6347680222
 21
-3.9498766793
  0
LINE
  5
341
100
AcDbEntity
  8
RACCORDO
100
AcDbLine
 62
253
  6
CONTINUOUS
 10
-69.6347680222
 20
-3.9498766793
 11
-71.2369985875
 21
-3.9498766793
  0
LINE
  5
342
100
AcDbEntity
  8
RACCORDO
100
AcDbLine
 62
253
  6
CONTINUOUS
 10
71.2245393105
 20
-3.6510182698
 11
69.6223138125
 21
-3.6510182698
  0
LINE
  5
343
100
AcDbEntity
  8
RACCORDO
100
AcDbLine
 62
253
  6
CONTINUOUS
 10
-69.6223138125
 20
-3.6510182698
 11
-71.2245393105
 21
-3.6510182698
  0
LINE
  5
344
100
AcDbEntity
  8
RACCORDO
100
AcDbLine
 62
253
  6
CONTINUOUS
 10
-71.1491862607
 20
-3.5239590572
 11
-69.54696279
 21
-3.5239590572
  0
LINE
  5
345
100
AcDbEntity
  8
RACCORDO
100
AcDbLine
 62
253
  6
CONTINUOUS
 10
69.54696279
 20
-3.5239590572
 11
71.1491862607
 21
-3.5239590572
  0
LINE
  5
346
100
AcDbEntity
  8
RACCORDO
100
AcDbLine
 62
253
  6
CONTINUOUS
 10
-71.1365151357
 20
-3.2251006478
 11
-69.5342961659
 21
-3.2251006478
  0
LINE
  5
347
100
AcDbEntity
  8
RACCORDO
100
AcDbLine
 62
253
  6
CONTINUOUS
 10
69.5342961659
 20
-3.2251006478
 11
71.1365151357
 21
-3.2251006478
  0
LINE
  5
348
100
AcDbEntity
  8
RACCORDO
100
AcDbLine
 62
7
  6
CONTINUOUS
 10
-58.65
 20
-0.3021946362
 11
-53.7612117217
 21
-0.3021946362
  0
LINE
  5
349
100
AcDbEntity
  8
RACCORDO
100
AcDbLine
 62
7
  6
CONTINUOUS
 10
53.7612117217
 20
-0.3021946362
 11
58.65
 21
-0.3021946362
  0
LINE
  5
34A
100
AcDbEntity
  8
RACCORDO
100
AcDbLine
 62
7
  6
CONTINUOUS
 10
-69.5429258229
 20
-0.2742686593
 11
-66.7564385017
 21
-0.2742686593
  0
LINE
  5
34B
100
AcDbEntity
  8
RACCORDO
100
AcDbLine
 62
7
  6
CONTINUOUS
 10
66.7564385017
 20
-0.2742686593
 11
69.5429258229
 21
-0.2742686593
  0
LINE
  5
34C
100
AcDbEntity
  8
DRAFT
100
AcDbLine
 62
253
  6
CONTINUOUS
 10
46.6
 20
0.0000000006
 11
46.5967151751
 21
0.0000000006
  0
LINE
  5
34D
100
AcDbEntity
  8
RACCORDO
100
AcDbLine
 62
253
  6
CONTINUOUS
 10
66.249101391
 20
0.0000000046
 11
59.045093951
 21
0.0000000032
  0
LINE
  5
34E
100
AcDbEntity
  8
0
100
AcDbLine
 62
253
  6
CONTINUOUS
 10
53.7618024065
 20
0.0000000021
 11
46.6
 21
0.0000000006
  0
LINE
  5
34F
100
AcDbEntity
  8
0
100
AcDbLine
 62
253
  6
CONTINUOUS
 10
-53.7618024065
 20
-0.0000000043
 11
-46.6032916467
 21
-0.0000000007
  0
LINE
  5
350
100
AcDbEntity
  8
DRAFT
100
AcDbLine
 62
253
  6
CONTINUOUS
 10
-46.6032916467
 20
-0.0000000007
 11
-46.5967151751
 21
-0.0000000007
  0
LINE
  5
351
100
AcDbEntity
  8
RACCORDO
100
AcDbLine
 62
253
  6
CONTINUOUS
 10
-59.045093951
 20
-0.0000000073
 11
-66.249101391
 21
-0.0000000104
  0
LINE
  5
352
100
AcDbEntity
  8
RACCORDO
100
AcDbLine
 62
7
  6
CONTINUOUS
 10
-69.5429258229
 20
0.2742686593
 11
-66.7564385017
 21
0.2742686593
  0
LINE
  5
353
100
AcDbEntity
  8
RACCORDO
100
AcDbLine
 62
7
  6
CONTINUOUS
 10
69.5429258229
 20
0.2742686593
 11
66.7564385017
 21
0.2742686593
  0
LINE
  5
354
100
AcDbEntity
  8
RACCORDO
100
AcDbLine
 62
7
  6
CONTINUOUS
 10
-58.65
 20
0.3021946362
 11
-53.7612117217
 21
0.3021946362
  0
LINE
  5
355
100
AcDbEntity
  8
RACCORDO
100
AcDbLine
 62
7
  6
CONTINUOUS
 10
58.65
 20
0.3021946362
 11
53.7612117217
 21
0.3021946362
  0
LINE
  5
356
100
AcDbEntity
  8
RACCORDO
100
AcDbLine
 62
7
  6
CONTINUOUS
 10
69.4709755079
 20
-14.5463599105
 11
69.2153144391
 21
-14.5036273894
  0
LINE
  5
357
100
AcDbEntity
  8
RACCORDO
100
AcDbLine
 62
7
  6
CONTINUOUS
 10
-46.6036554698
 20
23.2960037262
 11
-46.5928961209
 21
23.2906244614
  0
LINE
  5
358
100
AcDbEntity
  8
RACCORDO
100
AcDbLine
 62
7
  6
CONTINUOUS
 10
46.6036554698
 20
-23.2960037262
 11
46.5928961209
 21
-23.2906244614
  0
LINE
  5
359
100
AcDbEntity
  8
0
100
AcDbLine
 62
7
  6
CONTINUOUS
 10
3.5
 20
-35.0
 11
3.5
 21
-28.5
  0
LINE
  5
35A
100
AcDbEntity
  8
0
100
AcDbLine
 62
7
  6
CONTINUOUS
 10
3.5
 20
28.5
 11
3.5
 21
35.0
  0
LINE
  5
35B
100
AcDbEntity
  8
0
100
AcDbLine
 62
7
  6
CONTINUOUS
 10
8.0541129
 20
30.1000002337
 11
8.0541129
 21
33.3999997663
  0
LINE
  5
35C
100
AcDbEntity
  8
RACCORDO
100
AcDbLine
 62
7
  6
CONTINUOUS
 10
0.3907576068
 20
-38.073805665
 11
0.3368149237
 21
-38.3977636842
  0
LINE
  5
35D
100
AcDbEntity
  8
0
100
AcDbLine
 62
7
  6
CONTINUOUS
 10
15.6985043373
 20
30.5390724851
 11
16.6505518791
 21
33.3999997663
  0
LINE
  5
35E
100
AcDbEntity
  8
0
100
AcDbLine
 62
7
  6
CONTINUOUS
 10
17.1081610329
 20
33.3999997663
 11
15.9341695092
 21
30.1000002337
  0
LINE
  5
35F
100
AcDbEntity
  8
0
100
AcDbLine
 62
7
  6
CONTINUOUS
 10
25.3125
 20
32.2553190887
 11
25.5208333209
 21
32.5744681358
  0
LINE
  5
360
100
AcDbEntity
  8
0
100
AcDbLine
 62
7
  6
CONTINUOUS
 10
26.5625
 20
31.2446808368
 11
26.3541667163
 21
30.9255319014
  0
LINE
  5
361
100
AcDbEntity
  8
0
100
AcDbLine
 62
7
  6
CONTINUOUS
 10
27.6041665673
 20
32.4148936868
 11
27.7083334327
 21
32.5744681358
  0
LINE
  5
362
100
AcDbEntity
  8
0
100
AcDbLine
 62
7
  6
CONTINUOUS
 10
28.8020834327
 20
31.9893616736
 11
28.6979165673
 21
31.8297872245
  0
LINE
  5
363
100
AcDbEntity
  8
0
100
AcDbLine
 62
7
  6
CONTINUOUS
 10
28.8020834327
 20
31.0851063877
 11
28.6979165673
 21
30.9255319014
  0
LINE
  5
364
100
AcDbEntity
  8
0
100
AcDbLine
 62
7
  6
CONTINUOUS
 10
29.9479165673
 20
32.4148936868
 11
30.0520831347
 21
32.5744681358
  0
LINE
  5
365
100
AcDbEntity
  8
0
100
AcDbLine
 62
7
  6
CONTINUOUS
 10
-15.77364
 20
-34.67078
 11
-15.991068
 21
-34.979018
  0
LINE
  5
366
100
AcDbEntity
  8
0
100
AcDbLine
 62
7
  6
CONTINUOUS
 10
27.5520834327
 20
32.7872340679
 11
27.3958332837
 21
32.5744681358
  0
LINE
  5
367
100
AcDbEntity
  8
0
100
AcDbLine
 62
7
  6
CONTINUOUS
 10
29.8958334327
 20
32.7872340679
 11
29.7395834327
 21
32.5744681358
  0
LINE
  5
368
100
AcDbEntity
  8
0
100
AcDbLine
 62
7
  6
CONTINUOUS
 10
28.8541665673
 20
30.7127659507
 11
29.0104165673
 21
30.9255319014
  0
LINE
  5
369
100
AcDbEntity
  8
0
100
AcDbLine
 62
7
  6
CONTINUOUS
 10
31.1979168653
 20
30.7127659507
 11
31.3541668653
 21
30.9255319014
  0
LINE
  5
36A
100
AcDbEntity
  8
0
100
AcDbLine
 62
7
  6
CONTINUOUS
 10
35.4166662693
 20
33.0
 11
34.1666668653
 21
31.5638298094
  0
LINE
  5
36B
100
AcDbEntity
  8
0
100
AcDbLine
 62
7
  6
CONTINUOUS
 10
34.53125
 20
31.5638298094
 11
35.4166662693
 21
32.5744681358
  0
LINE
  5
36C
100
AcDbEntity
  8
RACCORDO
100
AcDbLine
 62
7
  6
CONTINUOUS
 10
69.2153144529
 20
14.5036273906
 11
69.4709755079
 21
14.5463599105
  0
LINE
  5
36D
100
AcDbEntity
  8
RACCORDO
100
AcDbLine
 62
253
  6
CONTINUOUS
 10
-71.1365151357
 20
3.2251006478
 11
-69.5342961659
 21
3.2251006478
  0
LINE
  5
36E
100
AcDbEntity
  8
RACCORDO
100
AcDbLine
 62
253
  6
CONTINUOUS
 10
69.5342961659
 20
3.2251006478
 11
71.1365151357
 21
3.2251006478
  0
LINE
  5
36F
100
AcDbEntity
  8
RACCORDO
100
AcDbLine
 62
253
  6
CONTINUOUS
 10
-71.1491862607
 20
3.5239590572
 11
-69.54696279
 21
3.5239590572
  0
LINE
  5
370
100
AcDbEntity
  8
RACCORDO
100
AcDbLine
 62
253
  6
CONTINUOUS
 10
69.54696279
 20
3.5239590572
 11
71.1491862607
 21
3.5239590572
  0
LINE
  5
371
100
AcDbEntity
  8
RACCORDO
100
AcDbLine
 62
253
  6
CONTINUOUS
 10
-71.2245393105
 20
3.6510182698
 11
-69.6223138125
 21
3.6510182698
  0
LINE
  5
372
100
AcDbEntity
  8
RACCORDO
100
AcDbLine
 62
253
  6
CONTINUOUS
 10
69.6223138125
 20
3.6510182698
 11
71.2245393105
 21
3.6510182698
  0
LINE
  5
373
100
AcDbEntity
  8
RACCORDO
100
AcDbLine
 62
253
  6
CONTINUOUS
 10
-71.2369985875
 20
3.9498766793
 11
-69.6347680222
 21
3.9498766793
  0
LINE
  5
374
100
AcDbEntity
  8
RACCORDO
100
AcDbLine
 62
253
  6
CONTINUOUS
 10
69.6347680222
 20
3.9498766793
 11
71.2369985875
 21
3.9498766793
  0
LINE
  5
375
100
AcDbEntity
  8
RACCORDO
100
AcDbLine
 62
7
  6
CONTINUOUS
 10
-69.4709755079
 20
14.5463599105
 11
-69.2153144391
 21
14.5036273894
  0
LINE
  5
376
100
AcDbEntity
  8
SUPERFICI
100
AcDbLine
 62
7
  6
CONTINUOUS
 10
22.431735
 20
-31.172579
 11
23.377382
 21
-32.675
  0
LINE
  5
377
100
AcDbEntity
  8
SUPERFICI
100
AcDbLine
 62
7
  6
CONTINUOUS
 10
23.416043
 20
-32.327726
 11
22.485806
 21
-30.825
  0
LINE
  5
378
100
AcDbEntity
  8
SUPERFICI
100
AcDbLine
 62
7
  6
CONTINUOUS
 10
16.948479
 20
-32.675
 11
16.278589
 21
-30.825
  0
LINE
  5
379
100
AcDbEntity
  8
SUPERFICI
100
AcDbLine
 62
7
  6
CONTINUOUS
 10
16.492405
 20
-32.136533
 11
16.675325
 21
-32.675
  0
LINE
  5
37A
100
AcDbEntity
  8
SUPERFICI
100
AcDbLine
 62
7
  6
CONTINUOUS
 10
14.194016
 20
-32.396609
 11
13.663247
 21
-30.825
  0
LINE
  5
37B
100
AcDbEntity
  8
SUPERFICI
100
AcDbLine
 62
7
  6
CONTINUOUS
 10
13.547274
 20
-31.123783
 11
14.067792
 21
-32.675
  0
LINE
  5
37C
100
AcDbEntity
  8
SUPERFICI
100
AcDbLine
 62
7
  6
CONTINUOUS
 10
16.126669
 20
-31.09334
 11
16.402291
 21
-31.914951
  0
LINE
  5
37D
100
AcDbEntity
  8
RACCORDO
100
AcDbLine
 62
7
  6
CONTINUOUS
 10
0.3368149237
 20
38.3977636842
 11
0.3907576069
 21
38.0738056636
  0
LINE
  5
37E
100
AcDbEntity
  8
0
100
AcDbLine
 62
7
  6
CONTINUOUS
 10
8.4700771071
 20
32.7483102152
 11
8.4700771071
 21
30.1000002337
  0
LINE
  5
37F
100
AcDbEntity
  8
0
100
AcDbLine
 62
7
  6
CONTINUOUS
 10
10.2679838851
 20
30.7239465445
 11
10.2679838851
 21
33.3999997663
  0
LINE
  5
380
100
AcDbEntity
  8
0
100
AcDbLine
 62
7
  6
CONTINUOUS
 10
10.6839772078
 20
33.3999997663
 11
10.6839772078
 21
30.1000002337
  0
LINE
  5
381
100
AcDbEntity
  8
0
100
AcDbLine
 62
7
  6
CONTINUOUS
 10
11.6036191385
 20
30.1000002337
 11
11.6036191385
 21
33.3999997663
  0
LINE
  5
382
100
AcDbEntity
  8
0
100
AcDbLine
 62
7
  6
CONTINUOUS
 10
12.04269139
 20
33.0302535887
 11
12.04269139
 21
31.9810765606
  0
LINE
  5
383
100
AcDbEntity
  8
0
100
AcDbLine
 62
7
  6
CONTINUOUS
 10
12.04269139
 20
31.611330383
 11
12.04269139
 21
30.4697464113
  0
LINE
  5
384
100
AcDbEntity
  8
SUPERFICI
100
AcDbLine
 62
7
  6
CONTINUOUS
 10
13.305084
 20
-30.825
 11
13.305084
 21
-32.675
  0
LINE
  5
385
100
AcDbEntity
  8
SUPERFICI
100
AcDbLine
 62
7
  6
CONTINUOUS
 10
13.547274
 20
-32.675
 11
13.547274
 21
-31.123783
  0
LINE
  5
386
100
AcDbEntity
  8
0
100
AcDbLine
 62
7
  6
CONTINUOUS
 10
13.7573995033
 20
31.9810765606
 11
13.7573995033
 21
31.611330383
  0
LINE
  5
387
100
AcDbEntity
  8
0
100
AcDbLine
 62
7
  6
CONTINUOUS
 10
13.8821829424
 20
33.3999997663
 11
13.8821829424
 21
33.0302535887
  0
LINE
  5
388
100
AcDbEntity
  8
0
100
AcDbLine
 62
7
  6
CONTINUOUS
 10
13.8960535921
 20
30.4697464113
 11
13.8960535921
 21
30.1000002337
  0
LINE
  5
389
100
AcDbEntity
  8
SUPERFICI
100
AcDbLine
 62
7
  6
CONTINUOUS
 10
14.835574
 20
-31.121239
 11
14.835574
 21
-32.675
  0
LINE
  5
38A
100
AcDbEntity
  8
SUPERFICI
100
AcDbLine
 62
7
  6
CONTINUOUS
 10
15.077862
 20
-32.675
 11
15.077862
 21
-30.825
  0
LINE
  5
38B
100
AcDbEntity
  8
0
100
AcDbLine
 62
7
  6
CONTINUOUS
 10
25.1041666698
 20
32.4148936868
 11
25.0520833349
 21
32.2553190887
  0
LINE
  5
38C
100
AcDbEntity
  8
0
100
AcDbLine
 62
7
  6
CONTINUOUS
 10
27.3958332837
 20
32.5744681358
 11
27.2916667163
 21
32.3085105717
  0
LINE
  5
38D
100
AcDbEntity
  8
0
100
AcDbLine
 62
7
  6
CONTINUOUS
 10
25.2083333395
 20
32.6276596189
 11
25.1041666698
 21
32.4148936868
  0
LINE
  5
38E
100
AcDbEntity
  8
0
100
AcDbLine
 62
7
  6
CONTINUOUS
 10
26.6666667163
 20
30.8723404184
 11
26.7708332837
 21
31.0851063877
  0
LINE
  5
38F
100
AcDbEntity
  8
DRAFT
100
AcDbLine
 62
7
  6
CONTINUOUS
 10
-0.3906523694
 20
-24.1029527027
 11
-0.3873673847
 21
-24.0963822329
  0
LINE
  5
390
100
AcDbEntity
  8
0
100
AcDbLine
 62
7
  6
CONTINUOUS
 10
31.1458331347
 20
31.0851063877
 11
31.0416668653
 21
30.9255319014
  0
LINE
  5
391
100
AcDbEntity
  8
0
100
AcDbLine
 62
7
  6
CONTINUOUS
 10
33.4375
 20
31.0851063877
 11
33.3333331347
 21
30.9255319014
  0
LINE
  5
392
100
AcDbEntity
  8
0
100
AcDbLine
 62
7
  6
CONTINUOUS
 10
33.4895831347
 20
30.7127659507
 11
33.6458331347
 21
30.9255319014
  0
LINE
  5
393
100
AcDbEntity
  8
0
100
AcDbLine
 62
7
  6
CONTINUOUS
 10
-17.275296
 20
-31.341613
 11
-16.1062206076
 21
-30.3564256693
  0
LINE
  5
394
100
AcDbEntity
  8
0
100
AcDbLine
 62
7
  6
CONTINUOUS
 10
-16.1604641003
 20
-30.9138330845
 11
-17.275296
 21
-31.853309
  0
LINE
  5
395
100
AcDbEntity
  8
RACCORDO
100
AcDbLine
 62
7
  6
CONTINUOUS
 10
66.2522512562
 20
22.7043125226
 11
66.291424784
 21
22.7238977948
  0
LINE
  5
396
100
AcDbEntity
  8
RACCORDO
100
AcDbLine
 62
7
  6
CONTINUOUS
 10
-69.5429258229
 20
0.2742686593
 11
-69.3806822453
 21
0.3012830586
  0
LINE
  5
397
100
AcDbEntity
  8
DRAFT
100
AcDbLine
 62
7
  6
CONTINUOUS
 10
65.95
 20
15.2701689907
 11
69.452156239
 21
15.3007318452
  0
LINE
  5
398
100
AcDbEntity
  8
DRAFT
100
AcDbLine
 62
7
  6
CONTINUOUS
 10
65.95
 20
14.542798113
 11
66.6569219382
 21
14.5463599105
  0
LINE
  5
399
100
AcDbEntity
  8
RACCORDO
100
AcDbLine
 62
7
  6
CONTINUOUS
 10
46.1929570428
 20
14.0
 11
45.3887732309
 21
14.0
  0
LINE
  5
39A
100
AcDbEntity
  8
RACCORDO
100
AcDbLine
 62
253
  6
CONTINUOUS
 10
45.2533265055
 20
14.059377684
 11
46.4266734945
 21
14.059377684
  0
LINE
  5
39B
100
AcDbEntity
  8
RACCORDO
100
AcDbLine
 62
253
  6
CONTINUOUS
 10
45.153341736
 20
14.1593624536
 11
46.526658264
 21
14.1593624536
  0
LINE
  5
39C
100
AcDbEntity
  8
DRAFT
100
AcDbLine
 62
7
  6
CONTINUOUS
 10
69.4709755079
 20
14.5463599105
 11
66.6569219382
 21
14.5463599105
  0
LINE
  5
39D
100
AcDbEntity
  8
DRAFT
100
AcDbLine
 62
7
  6
CONTINUOUS
 10
-66.6569219382
 20
14.5463599105
 11
-69.4709755079
 21
14.5463599105
  0
LINE
  5
39E
100
AcDbEntity
  8
DRAFT
100
AcDbLine
 62
7
  6
CONTINUOUS
 10
-66.6569219382
 20
14.5463599105
 11
-65.95
 21
14.542798113
  0
LINE
  5
39F
100
AcDbEntity
  8
DRAFT
100
AcDbLine
 62
7
  6
CONTINUOUS
 10
-65.95
 20
15.2701689907
 11
-69.452156239
 21
15.3007318452
  0
LINE
  5
3A0
100
AcDbEntity
  8
RACCORDO
100
AcDbLine
 62
7
  6
CONTINUOUS
 10
69.3806822387
 20
0.3012830591
 11
69.5429258229
 21
0.2742686593
  0
LINE
  5
3A1
100
AcDbEntity
  8
RACCORDO
100
AcDbLine
 62
7
  6
CONTINUOUS
 10
66.2522512562
 20
-22.7043125226
 11
66.291424784
 21
-22.7238977948
  0
LINE
  5
3A2
100
AcDbEntity
  8
SUPERFICI
100
AcDbLine
 62
7
  6
CONTINUOUS
 10
30.048394
 20
-30.825
 11
30.746651
 21
-31.930362
  0
LINE
  5
3A3
100
AcDbEntity
  8
SUPERFICI
100
AcDbLine
 62
7
  6
CONTINUOUS
 10
30.870384
 20
-31.714017
 11
30.339546
 21
-30.825
  0
LINE
  5
3A4
100
AcDbEntity
  8
DRAFT
100
AcDbLine
 62
7
  6
CONTINUOUS
 10
-0.3873673847
 20
24.0963822329
 11
-0.3906523694
 21
24.1029527027
  0
LINE
  5
3A5
100
AcDbEntity
  8
SUPERFICI
100
AcDbLine
 62
7
  6
CONTINUOUS
 10
17.190662
 20
-30.825
 11
17.190662
 21
-32.675
  0
LINE
  5
3A6
100
AcDbEntity
  8
SUPERFICI
100
AcDbLine
 62
7
  6
CONTINUOUS
 10
17.44067
 20
-32.461199
 11
17.44067
 21
-31.038801
  0
LINE
  5
3A7
100
AcDbEntity
  8
0
100
AcDbLine
 62
7
  6
CONTINUOUS
 10
17.6673524117
 20
30.1000002337
 11
17.6673524117
 21
33.3999997663
  0
LINE
  5
3A8
100
AcDbEntity
  8
0
100
AcDbLine
 62
7
  6
CONTINUOUS
 10
18.1064266042
 20
33.0302535887
 11
18.1064266042
 21
31.9810765606
  0
LINE
  5
3A9
100
AcDbEntity
  8
0
100
AcDbLine
 62
7
  6
CONTINUOUS
 10
18.1064266042
 20
31.611330383
 11
18.1064266042
 21
30.4697464113
  0
LINE
  5
3AA
100
AcDbEntity
  8
SUPERFICI
100
AcDbLine
 62
7
  6
CONTINUOUS
 10
19.063927
 20
-30.825
 11
19.063927
 21
-32.675
  0
LINE
  5
3AB
100
AcDbEntity
  8
SUPERFICI
100
AcDbLine
 62
7
  6
CONTINUOUS
 10
19.31392
 20
-32.453419
 11
19.31392
 21
-31.835057
  0
LINE
  5
3AC
100
AcDbEntity
  8
SUPERFICI
100
AcDbLine
 62
7
  6
CONTINUOUS
 10
19.31392
 20
-31.613476
 11
19.31392
 21
-31.046581
  0
LINE
  5
3AD
100
AcDbEntity
  8
0
100
AcDbLine
 62
7
  6
CONTINUOUS
 10
19.8211948897
 20
31.9810765606
 11
19.8211948897
 21
31.611330383
  0
LINE
  5
3AE
100
AcDbEntity
  8
0
100
AcDbLine
 62
7
  6
CONTINUOUS
 10
19.9458871
 20
33.3999997663
 11
19.9458871
 21
33.0302535887
  0
LINE
  5
3AF
100
AcDbEntity
  8
0
100
AcDbLine
 62
7
  6
CONTINUOUS
 10
19.9598489784
 20
30.4697464113
 11
19.9598489784
 21
30.1000002337
  0
LINE
  5
3B0
100
AcDbEntity
  8
SUPERFICI
100
AcDbLine
 62
7
  6
CONTINUOUS
 10
20.326536
 20
-31.835057
 11
20.326536
 21
-31.613476
  0
LINE
  5
3B1
100
AcDbEntity
  8
SUPERFICI
100
AcDbLine
 62
7
  6
CONTINUOUS
 10
20.411562
 20
-31.046581
 11
20.411562
 21
-30.825
  0
LINE
  5
3B2
100
AcDbEntity
  8
SUPERFICI
100
AcDbLine
 62
7
  6
CONTINUOUS
 10
20.429621
 20
-32.675
 11
20.429621
 21
-32.453419
  0
LINE
  5
3B3
100
AcDbEntity
  8
SUPERFICI
100
AcDbLine
 62
7
  6
CONTINUOUS
 10
21.511852
 20
-30.825
 11
21.511852
 21
-32.675
  0
LINE
  5
3B4
100
AcDbEntity
  8
SUPERFICI
100
AcDbLine
 62
7
  6
CONTINUOUS
 10
21.76177
 20
-32.675
 11
21.76177
 21
-30.825
  0
LINE
  5
3B5
100
AcDbEntity
  8
SUPERFICI
100
AcDbLine
 62
7
  6
CONTINUOUS
 10
22.189432
 20
-30.825
 11
22.189432
 21
-32.675
  0
LINE
  5
3B6
100
AcDbEntity
  8
SUPERFICI
100
AcDbLine
 62
7
  6
CONTINUOUS
 10
22.431735
 20
-32.675
 11
22.431735
 21
-31.172579
  0
LINE
  5
3B7
100
AcDbEntity
  8
0
100
AcDbLine
 62
7
  6
CONTINUOUS
 10
25.2604166605
 20
31.9361701906
 11
25.3125
 21
32.2553190887
  0
LINE
  5
3B8
100
AcDbEntity
  8
0
100
AcDbLine
 62
7
  6
CONTINUOUS
 10
26.6145832837
 20
31.5638298094
 11
26.5625
 21
31.2446808368
  0
LINE
  5
3B9
100
AcDbEntity
  8
0
100
AcDbLine
 62
7
  6
CONTINUOUS
 10
25.0520833349
 20
32.2553190887
 11
25.0
 21
31.9893616736
  0
LINE
  5
3BA
100
AcDbEntity
  8
0
100
AcDbLine
 62
7
  6
CONTINUOUS
 10
26.8229167163
 20
31.2446808368
 11
26.875
 21
31.5106383264
  0
LINE
  5
3BB
100
AcDbEntity
  8
0
100
AcDbLine
 62
7
  6
CONTINUOUS
 10
26.7708332837
 20
31.0851063877
 11
26.8229167163
 21
31.2446808368
  0
LINE
  5
3BC
100
AcDbEntity
  8
0
100
AcDbLine
 62
7
  6
CONTINUOUS
 10
27.5520834327
 20
32.2553190887
 11
27.6041665673
 21
32.4148936868
  0
LINE
  5
3BD
100
AcDbEntity
  8
0
100
AcDbLine
 62
7
  6
CONTINUOUS
 10
28.8541665673
 20
32.1489361227
 11
28.8020834327
 21
31.9893616736
  0
LINE
  5
3BE
100
AcDbEntity
  8
0
100
AcDbLine
 62
7
  6
CONTINUOUS
 10
28.8541665673
 20
31.2446808368
 11
28.8020834327
 21
31.0851063877
  0
LINE
  5
3BF
100
AcDbEntity
  8
0
100
AcDbLine
 62
7
  6
CONTINUOUS
 10
29.8958334327
 20
32.2553190887
 11
29.9479165673
 21
32.4148936868
  0
LINE
  5
3C0
100
AcDbEntity
  8
0
100
AcDbLine
 62
7
  6
CONTINUOUS
 10
29.8958334327
 20
31.4042552859
 11
29.9479165673
 21
31.5638298094
  0
LINE
  5
3C1
100
AcDbEntity
  8
0
100
AcDbLine
 62
7
  6
CONTINUOUS
 10
31.1979168653
 20
31.2446808368
 11
31.1458331347
 21
31.0851063877
  0
LINE
  5
3C2
100
AcDbEntity
  8
0
100
AcDbLine
 62
7
  6
CONTINUOUS
 10
33.4895831347
 20
31.2446808368
 11
33.4375
 21
31.0851063877
  0
LINE
  5
3C3
100
AcDbEntity
  8
0
100
AcDbLine
 62
7
  6
CONTINUOUS
 10
29.0104165673
 20
30.9255319014
 11
29.1145834327
 21
31.1914893538
  0
LINE
  5
3C4
100
AcDbEntity
  8
0
100
AcDbLine
 62
7
  6
CONTINUOUS
 10
29.7395834327
 20
32.5744681358
 11
29.6354165673
 21
32.3085105717
  0
LINE
  5
3C5
100
AcDbEntity
  8
0
100
AcDbLine
 62
7
  6
CONTINUOUS
 10
31.3541668653
 20
30.9255319014
 11
31.4583331347
 21
31.1914893538
  0
LINE
  5
3C6
100
AcDbEntity
  8
0
100
AcDbLine
 62
7
  6
CONTINUOUS
 10
33.6458331347
 20
30.9255319014
 11
33.75
 21
31.1914893538
  0
LINE
  5
3C7
100
AcDbEntity
  8
RACCORDO
100
AcDbLine
 62
7
  6
CONTINUOUS
 10
0.3678946361
 20
-34.887835841
 11
0.3411022052
 21
-34.941424784
  0
LINE
  5
3C8
100
AcDbEntity
  8
RACCORDO
100
AcDbLine
 62
253
  6
CONTINUOUS
 10
45.9929875038
 20
24.0928961209
 11
46.0030440856
 21
24.1029527027
  0
LINE
  5
3C9
100
AcDbEntity
  8
RACCORDO
100
AcDbLine
 62
253
  6
CONTINUOUS
 10
44.6888787917
 20
22.5888189223
 11
44.6800609219
 21
22.58
  0
LINE
  5
3CA
100
AcDbEntity
  8
RACCORDO
100
AcDbLine
 62
253
  6
CONTINUOUS
 10
45.0888189223
 20
22.1888804671
 11
45.08
 21
22.1800609219
  0
LINE
  5
3CB
100
AcDbEntity
  8
RACCORDO
100
AcDbLine
 62
253
  6
CONTINUOUS
 10
46.6019089823
 20
23.5020003652
 11
46.5928961209
 21
23.4929875038
  0
LINE
  5
3CC
100
AcDbEntity
  8
RACCORDO
100
AcDbLine
 62
253
  6
CONTINUOUS
 10
46.4266734945
 20
18.940622316
 11
46.4883249355
 21
19.0022737569
  0
LINE
  5
3CD
100
AcDbEntity
  8
RACCORDO
100
AcDbLine
 62
253
  6
CONTINUOUS
 10
46.526658264
 20
18.8406375464
 11
46.5928961209
 21
18.9068754033
  0
LINE
  5
3CE
100
AcDbEntity
  8
RACCORDO
100
AcDbLine
 62
253
  6
CONTINUOUS
 10
45.153341736
 20
14.1593624536
 11
45.0888189223
 21
14.0948396399
  0
LINE
  5
3CF
100
AcDbEntity
  8
RACCORDO
100
AcDbLine
 62
253
  6
CONTINUOUS
 10
45.2533265055
 20
14.059377684
 11
45.192675239
 21
13.9987264176
  0
LINE
  5
3D0
100
AcDbEntity
  8
DRAFT
100
AcDbLine
 62
7
  6
CONTINUOUS
 10
46.596713605
 20
0.3075330581
 11
46.6131549038
 21
0.3157530814
  0
LINE
  5
3D1
100
AcDbEntity
  8
0
100
AcDbLine
 62
7
  6
CONTINUOUS
 10
33.1770831347
 20
30.8191489354
 11
32.96875
 21
30.7659574524
  0
LINE
  5
3D2
100
AcDbEntity
  8
DRAFT
100
AcDbLine
 62
7
  6
CONTINUOUS
 10
-65.95
 20
14.5410527394
 11
-67.1
 21
14.5236700543
  0
LINE
  5
3D3
100
AcDbEntity
  8
DRAFT
100
AcDbLine
 62
7
  6
CONTINUOUS
 10
67.1
 20
20.4763299457
 11
65.95
 21
20.4589472606
  0
LINE
  5
3D4
100
AcDbEntity
  8
DRAFT
100
AcDbLine
 62
7
  6
CONTINUOUS
 10
65.95
 20
17.8701689907
 11
69.3800180232
 21
17.9001023045
  0
LINE
  5
3D5
100
AcDbEntity
  8
DRAFT
100
AcDbLine
 62
7
  6
CONTINUOUS
 10
-69.4034356762
 20
17.0996933327
 11
-65.95
 21
17.1298310093
  0
LINE
  5
3D6
100
AcDbEntity
  8
DRAFT
100
AcDbLine
 62
7
  6
CONTINUOUS
 10
-69.3234291835
 20
19.7003915388
 11
-65.95
 21
19.7298310093
  0
LINE
  5
3D7
100
AcDbEntity
  8
DRAFT
100
AcDbLine
 62
7
  6
CONTINUOUS
 10
-66.6569219382
 20
20.4536400895
 11
-65.95
 21
20.457201887
  0
LINE
  5
3D8
100
AcDbEntity
  8
RACCORDO
100
AcDbLine
 62
253
  6
CONTINUOUS
 10
45.153341736
 20
18.8406375464
 11
46.526658264
 21
18.8406375464
  0
LINE
  5
3D9
100
AcDbEntity
  8
RACCORDO
100
AcDbLine
 62
253
  6
CONTINUOUS
 10
46.4266734945
 20
18.940622316
 11
45.2533265055
 21
18.940622316
  0
LINE
  5
3DA
100
AcDbEntity
  8
RACCORDO
100
AcDbLine
 62
7
  6
CONTINUOUS
 10
46.1929570428
 20
19.0
 11
45.3887732309
 21
19.0
  0
LINE
  5
3DB
100
AcDbEntity
  8
DRAFT
100
AcDbLine
 62
7
  6
CONTINUOUS
 10
-69.2981424842
 20
20.4536400895
 11
-66.6569219382
 21
20.4536400895
  0
LINE
  5
3DC
100
AcDbEntity
  8
DRAFT
100
AcDbLine
 62
7
  6
CONTINUOUS
 10
66.6569219382
 20
20.4536400895
 11
69.2981424842
 21
20.4536400895
  0
LINE
  5
3DD
100
AcDbEntity
  8
RACCORDO
100
AcDbLine
 62
253
  6
CONTINUOUS
 10
-45.3887732309
 20
22.1888798443
 11
-45.0888189223
 21
22.1888798443
  0
LINE
  5
3DE
100
AcDbEntity
  8
RACCORDO
100
AcDbLine
 62
253
  6
CONTINUOUS
 10
45.3887732309
 20
22.1888798443
 11
45.0888189223
 21
22.1888798443
  0
LINE
  5
3DF
100
AcDbEntity
  8
0
100
AcDbLine
 62
7
  6
CONTINUOUS
 10
-44.7000456915
 20
22.5
 11
44.7000456915
 21
22.5
  0
LINE
  5
3E0
100
AcDbEntity
  8
RACCORDO
100
AcDbLine
 62
7
  6
CONTINUOUS
 10
44.6800609219
 20
22.58
 11
-44.6800609219
 21
22.58
  0
LINE
  5
3E1
100
AcDbEntity
  8
RACCORDO
100
AcDbLine
 62
253
  6
CONTINUOUS
 10
-44.6888804671
 20
22.5888189223
 11
44.6888787917
 21
22.5888189223
  0
LINE
  5
3E2
100
AcDbEntity
  8
DRAFT
100
AcDbLine
 62
7
  6
CONTINUOUS
 10
65.95
 20
20.457201887
 11
66.6569219382
 21
20.4536400895
  0
LINE
  5
3E3
100
AcDbEntity
  8
DRAFT
100
AcDbLine
 62
7
  6
CONTINUOUS
 10
-65.95
 20
17.8701689907
 11
-69.3800180232
 21
17.9001023045
  0
LINE
  5
3E4
100
AcDbEntity
  8
DRAFT
100
AcDbLine
 62
7
  6
CONTINUOUS
 10
65.95
 20
17.1298310093
 11
69.4034356762
 21
17.0996933327
  0
LINE
  5
3E5
100
AcDbEntity
  8
DRAFT
100
AcDbLine
 62
7
  6
CONTINUOUS
 10
65.95
 20
19.7298310093
 11
69.3234291835
 21
19.7003915388
  0
LINE
  5
3E6
100
AcDbEntity
  8
DRAFT
100
AcDbLine
 62
7
  6
CONTINUOUS
 10
67.1
 20
14.5236700543
 11
65.95
 21
14.5410527394
  0
LINE
  5
3E7
100
AcDbEntity
  8
DRAFT
100
AcDbLine
 62
7
  6
CONTINUOUS
 10
-65.95
 20
20.4589472606
 11
-67.1
 21
20.4763299457
  0
LINE
  5
3E8
100
AcDbEntity
  8
DRAFT
100
AcDbLine
 62
7
  6
CONTINUOUS
 10
46.6131549038
 20
-0.3157530814
 11
46.596713605
 21
-0.3075330581
  0
LINE
  5
3E9
100
AcDbEntity
  8
RACCORDO
100
AcDbLine
 62
253
  6
CONTINUOUS
 10
45.9929875038
 20
-24.0928961209
 11
46.0030440856
 21
-24.1029527027
  0
LINE
  5
3EA
100
AcDbEntity
  8
RACCORDO
100
AcDbLine
 62
253
  6
CONTINUOUS
 10
44.6888804671
 20
-22.5888189223
 11
44.6800609219
 21
-22.58
  0
LINE
  5
3EB
100
AcDbEntity
  8
RACCORDO
100
AcDbLine
 62
253
  6
CONTINUOUS
 10
45.0888189223
 20
-22.1888787917
 11
45.08
 21
-22.1800609219
  0
LINE
  5
3EC
100
AcDbEntity
  8
RACCORDO
100
AcDbLine
 62
253
  6
CONTINUOUS
 10
46.5928961209
 20
-23.4929875038
 11
46.6019089823
 21
-23.5020003652
  0
LINE
  5
3ED
100
AcDbEntity
  8
RACCORDO
100
AcDbLine
 62
7
  6
CONTINUOUS
 10
0.3678946361
 20
34.887835841
 11
0.3411022052
 21
34.941424784
  0
LINE
  5
3EE
100
AcDbEntity
  8
SUPERFICI
100
AcDbLine
 62
7
  6
CONTINUOUS
 10
28.546251
 20
-32.675
 11
27.876226
 21
-30.825
  0
LINE
  5
3EF
100
AcDbEntity
  8
SUPERFICI
100
AcDbLine
 62
7
  6
CONTINUOUS
 10
28.090117
 20
-32.136533
 11
28.273052
 21
-32.675
  0
LINE
  5
3F0
100
AcDbEntity
  8
SUPERFICI
100
AcDbLine
 62
7
  6
CONTINUOUS
 10
27.724277
 20
-31.09334
 11
27.999914
 21
-31.914951
  0
LINE
  5
3F1
100
AcDbEntity
  8
SUPERFICI
100
AcDbLine
 62
7
  6
CONTINUOUS
 10
23.416043
 20
-30.825
 11
23.416043
 21
-32.327726
  0
LINE
  5
3F2
100
AcDbEntity
  8
SUPERFICI
100
AcDbLine
 62
7
  6
CONTINUOUS
 10
23.658226
 20
-32.675
 11
23.658226
 21
-30.825
  0
LINE
  5
3F3
100
AcDbEntity
  8
SUPERFICI
100
AcDbLine
 62
7
  6
CONTINUOUS
 10
24.804792
 20
-30.825
 11
24.804792
 21
-32.675
  0
LINE
  5
3F4
100
AcDbEntity
  8
0
100
AcDbLine
 62
7
  6
CONTINUOUS
 10
25.0
 20
31.9893616736
 11
25.0
 21
31.5106383264
  0
LINE
  5
3F5
100
AcDbEntity
  8
SUPERFICI
100
AcDbLine
 62
7
  6
CONTINUOUS
 10
25.054785
 20
-32.675
 11
25.054785
 21
-30.825
  0
LINE
  5
3F6
100
AcDbEntity
  8
0
100
AcDbLine
 62
7
  6
CONTINUOUS
 10
25.2604166605
 20
31.5638298094
 11
25.2604166605
 21
31.9361701906
  0
LINE
  5
3F7
100
AcDbEntity
  8
SUPERFICI
100
AcDbLine
 62
7
  6
CONTINUOUS
 10
25.322762
 20
-30.825
 11
25.322762
 21
-31.046581
  0
LINE
  5
3F8
100
AcDbEntity
  8
SUPERFICI
100
AcDbLine
 62
7
  6
CONTINUOUS
 10
25.948905
 20
-31.046581
 11
25.948905
 21
-32.675
  0
LINE
  5
3F9
100
AcDbEntity
  8
SUPERFICI
100
AcDbLine
 62
7
  6
CONTINUOUS
 10
26.198808
 20
-32.675
 11
26.198808
 21
-31.046581
  0
LINE
  5
3FA
100
AcDbEntity
  8
0
100
AcDbLine
 62
7
  6
CONTINUOUS
 10
26.6145832837
 20
31.9361701906
 11
26.6145832837
 21
31.5638298094
  0
LINE
  5
3FB
100
AcDbEntity
  8
SUPERFICI
100
AcDbLine
 62
7
  6
CONTINUOUS
 10
26.82495
 20
-31.046581
 11
26.82495
 21
-30.825
  0
LINE
  5
3FC
100
AcDbEntity
  8
0
100
AcDbLine
 62
7
  6
CONTINUOUS
 10
26.875
 20
31.5106383264
 11
26.875
 21
31.9893616736
  0
LINE
  5
3FD
100
AcDbEntity
  8
0
100
AcDbLine
 62
7
  6
CONTINUOUS
 10
27.2916667163
 20
32.3085105717
 11
27.2916667163
 21
32.0957446396
  0
LINE
  5
3FE
100
AcDbEntity
  8
0
100
AcDbLine
 62
7
  6
CONTINUOUS
 10
27.5520834327
 20
32.1489361227
 11
27.5520834327
 21
32.2553190887
  0
LINE
  5
3FF
100
AcDbEntity
  8
SUPERFICI
100
AcDbLine
 62
7
  6
CONTINUOUS
 10
28.775462
 20
-30.825
 11
28.775462
 21
-32.675
  0
LINE
  5
400
100
AcDbEntity
  8
0
100
AcDbLine
 62
7
  6
CONTINUOUS
 10
28.8541665673
 20
32.2553190887
 11
28.8541665673
 21
32.1489361227
  0
LINE
  5
401
100
AcDbEntity
  8
0
100
AcDbLine
 62
7
  6
CONTINUOUS
 10
28.90625
 20
31.6702127755
 11
28.90625
 21
31.5638298094
  0
LINE
  5
402
100
AcDbEntity
  8
SUPERFICI
100
AcDbLine
 62
7
  6
CONTINUOUS
 10
29.02547
 20
-32.453419
 11
29.02547
 21
-30.825
  0
LINE
  5
403
100
AcDbEntity
  8
0
100
AcDbLine
 62
7
  6
CONTINUOUS
 10
29.1666665673
 20
31.5638298094
 11
29.1666665673
 21
31.9361701906
  0
LINE
  5
404
100
AcDbEntity
  8
0
100
AcDbLine
 62
7
  6
CONTINUOUS
 10
29.5833334327
 20
31.9361701906
 11
29.5833334327
 21
31.5638298094
  0
LINE
  5
405
100
AcDbEntity
  8
0
100
AcDbLine
 62
7
  6
CONTINUOUS
 10
29.1145834327
 20
31.1914893538
 11
29.1666665673
 21
31.5638298094
  0
LINE
  5
406
100
AcDbEntity
  8
0
100
AcDbLine
 62
7
  6
CONTINUOUS
 10
29.6354165673
 20
32.3085105717
 11
29.5833334327
 21
31.9361701906
  0
LINE
  5
407
100
AcDbEntity
  8
0
100
AcDbLine
 62
7
  6
CONTINUOUS
 10
28.90625
 20
31.5638298094
 11
28.8541665673
 21
31.2446808368
  0
LINE
  5
408
100
AcDbEntity
  8
0
100
AcDbLine
 62
7
  6
CONTINUOUS
 10
29.84375
 20
31.9361701906
 11
29.8958334327
 21
32.2553190887
  0
LINE
  5
409
100
AcDbEntity
  8
SUPERFICI
100
AcDbLine
 62
7
  6
CONTINUOUS
 10
14.315156
 20
-32.675
 11
14.835574
 21
-31.121239
  0
LINE
  5
40A
100
AcDbEntity
  8
SUPERFICI
100
AcDbLine
 62
7
  6
CONTINUOUS
 10
14.72224
 20
-30.825
 11
14.194016
 21
-32.396609
  0
LINE
  5
40B
100
AcDbEntity
  8
SUPERFICI
100
AcDbLine
 62
7
  6
CONTINUOUS
 10
15.557096
 20
-32.675
 11
15.75037
 21
-32.136533
  0
LINE
  5
40C
100
AcDbEntity
  8
SUPERFICI
100
AcDbLine
 62
7
  6
CONTINUOUS
 10
15.827692
 20
-31.914951
 11
16.126669
 21
-31.09334
  0
LINE
  5
40D
100
AcDbEntity
  8
SUPERFICI
100
AcDbLine
 62
7
  6
CONTINUOUS
 10
15.995112
 20
-30.825
 11
15.299458
 21
-32.675
  0
LINE
  5
40E
100
AcDbEntity
  8
RACCORDO
100
AcDbLine
 62
7
  6
CONTINUOUS
 10
45.0350252855
 20
34.8936761289
 11
45.0588977948
 21
34.941424784
  0
LINE
  5
40F
100
AcDbEntity
  8
0
100
AcDbLine
 62
7
  6
CONTINUOUS
 10
32.4479168653
 20
31.7765957415
 11
32.65625
 21
31.8297872245
  0
LINE
  5
410
100
AcDbEntity
  8
0
100
AcDbLine
 62
7
  6
CONTINUOUS
 10
32.96875
 20
30.5
 11
33.2291668653
 21
30.5531914877
  0
LINE
  5
411
100
AcDbEntity
  8
0
100
AcDbLine
 62
7
  6
CONTINUOUS
 10
30.6770831347
 20
30.5
 11
30.9375
 21
30.5531914877
  0
LINE
  5
412
100
AcDbEntity
  8
0
100
AcDbLine
 62
7
  6
CONTINUOUS
 10
28.3333334327
 20
30.5
 11
28.59375
 21
30.5531914877
  0
LINE
  5
413
100
AcDbEntity
  8
0
100
AcDbLine
 62
7
  6
CONTINUOUS
 10
32.65625
 20
32.0957446396
 11
32.3958331347
 21
32.0425531566
  0
LINE
  5
414
100
AcDbEntity
  8
0
100
AcDbLine
 62
7
  6
CONTINUOUS
 10
26.1979166418
 20
30.8191489354
 11
25.9375
 21
30.7659574524
  0
LINE
  5
415
100
AcDbEntity
  8
0
100
AcDbLine
 62
7
  6
CONTINUOUS
 10
28.3333334327
 20
31.4042552859
 11
28.59375
 21
31.4574468434
  0
LINE
  5
416
100
AcDbEntity
  8
0
100
AcDbLine
 62
7
  6
CONTINUOUS
 10
30.4166668653
 20
32.0957446396
 11
30.15625
 21
32.0425531566
  0
LINE
  5
417
100
AcDbEntity
  8
0
100
AcDbLine
 62
7
  6
CONTINUOUS
 10
30.4166668653
 20
33.0
 11
30.15625
 21
32.946808517
  0
LINE
  5
418
100
AcDbEntity
  8
0
100
AcDbLine
 62
7
  6
CONTINUOUS
 10
28.0729165673
 20
33.0
 11
27.8125
 21
32.946808517
  0
LINE
  5
419
100
AcDbEntity
  8
0
100
AcDbLine
 62
7
  6
CONTINUOUS
 10
25.6770833582
 20
32.6808511019
 11
25.9375
 21
32.7340425849
  0
LINE
  5
41A
100
AcDbEntity
  8
0
100
AcDbLine
 62
7
  6
CONTINUOUS
 10
25.9375
 20
30.5
 11
26.25
 21
30.5531914877
  0
LINE
  5
41B
100
AcDbEntity
  8
0
100
AcDbLine
 62
7
  6
CONTINUOUS
 10
25.9375
 20
33.0
 11
25.625
 21
32.946808517
  0
LINE
  5
41C
100
AcDbEntity
  8
RACCORDO
100
AcDbLine
 62
7
  6
CONTINUOUS
 10
69.2160205426
 20
22.7281850763
 11
66.7913486316
 21
22.7281850763
  0
LINE
  5
41D
100
AcDbEntity
  8
RACCORDO
100
AcDbLine
 62
7
  6
CONTINUOUS
 10
-66.7913486316
 20
22.7281850763
 11
-69.2160205426
 21
22.7281850763
  0
LINE
  5
41E
100
AcDbEntity
  8
RACCORDO
100
AcDbLine
 62
253
  6
CONTINUOUS
 10
-44.6888798443
 20
22.8887732309
 11
44.6888798443
 21
22.8887732309
  0
LINE
  5
41F
100
AcDbEntity
  8
RACCORDO
100
AcDbLine
 62
7
  6
CONTINUOUS
 10
-69.1962769842
 20
23.2418149237
 11
-66.7913486316
 21
23.2418149237
  0
LINE
  5
420
100
AcDbEntity
  8
RACCORDO
100
AcDbLine
 62
7
  6
CONTINUOUS
 10
66.7913486316
 20
23.2418149237
 11
69.1962769842
 21
23.2418149237
  0
LINE
  5
421
100
AcDbEntity
  8
RACCORDO
100
AcDbLine
 62
253
  6
CONTINUOUS
 10
46.1929570428
 20
23.4929875038
 11
46.5928961209
 21
23.4929875038
  0
LINE
  5
422
100
AcDbEntity
  8
RACCORDO
100
AcDbLine
 62
253
  6
CONTINUOUS
 10
-46.1929570428
 20
23.4929875038
 11
-46.5928961209
 21
23.4929875038
  0
LINE
  5
423
100
AcDbEntity
  8
RACCORDO
100
AcDbLine
 62
253
  6
CONTINUOUS
 10
45.9929875038
 20
23.6929570428
 11
-45.9929875038
 21
23.6929570428
  0
LINE
  5
424
100
AcDbEntity
  8
RACCORDO
100
AcDbLine
 62
253
  6
CONTINUOUS
 10
45.9929875038
 20
24.0928961209
 11
45.7856244614
 21
24.0928961209
  0
LINE
  5
425
100
AcDbEntity
  8
RACCORDO
100
AcDbLine
 62
253
  6
CONTINUOUS
 10
45.0143755386
 20
24.0928961209
 11
-45.0143755386
 21
24.0928961209
  0
LINE
  5
426
100
AcDbEntity
  8
RACCORDO
100
AcDbLine
 62
253
  6
CONTINUOUS
 10
-45.7856244614
 20
24.0928961209
 11
-45.9929875038
 21
24.0928961209
  0
LINE
  5
427
100
AcDbEntity
  8
DRAFT
100
AcDbLine
 62
7
  6
CONTINUOUS
 10
0.3873673847
 20
24.0963822329
 11
-0.3873673847
 21
24.0963822329
  0
LINE
  5
428
100
AcDbEntity
  8
DRAFT
100
AcDbLine
 62
7
  6
CONTINUOUS
 10
45.0093476306
 20
24.1029527027
 11
0.3906523694
 21
24.1029527027
  0
LINE
  5
429
100
AcDbEntity
  8
DRAFT
100
AcDbLine
 62
7
  6
CONTINUOUS
 10
-0.3906523694
 20
24.1029527027
 11
-45.0093476306
 21
24.1029527027
  0
LINE
  5
42A
100
AcDbEntity
  8
RACCORDO
100
AcDbLine
 62
7
  6
CONTINUOUS
 10
45.7906523694
 20
24.1029527027
 11
46.0030440856
 21
24.1029527027
  0
LINE
  5
42B
100
AcDbEntity
  8
RACCORDO
100
AcDbLine
 62
7
  6
CONTINUOUS
 10
-45.7906523694
 20
24.1029527027
 11
-46.0030440856
 21
24.1029527027
  0
LINE
  5
42C
100
AcDbEntity
  8
DRAFT
100
AcDbLine
 62
253
  6
CONTINUOUS
 10
0.3868254194
 20
24.9240331339
 11
-0.3868254194
 21
24.9240331339
  0
LINE
  5
42D
100
AcDbEntity
  8
0
100
AcDbLine
 62
7
  6
CONTINUOUS
 10
40.5
 20
27.5
 11
4.5
 21
27.5
  0
LINE
  5
42E
100
AcDbEntity
  8
0
100
AcDbLine
 62
7
  6
CONTINUOUS
 10
-4.5
 20
27.5
 11
-40.5
 21
27.5
  0
LINE
  5
42F
100
AcDbEntity
  8
0
100
AcDbLine
 62
7
  6
CONTINUOUS
 10
10.2032910663
 20
30.1000002337
 11
8.4793455583
 21
32.7483102152
  0
LINE
  5
430
100
AcDbEntity
  8
0
100
AcDbLine
 62
7
  6
CONTINUOUS
 10
8.5209283918
 20
33.3999997663
 11
10.2587464905
 21
30.7239465445
  0
LINE
  5
431
100
AcDbEntity
  8
RACCORDO
100
AcDbLine
 62
7
  6
CONTINUOUS
 10
45.0350252855
 20
-34.8936761289
 11
45.0588977948
 21
-34.941424784
  0
LINE
  5
432
100
AcDbEntity
  8
0
100
AcDbLine
 62
7
  6
CONTINUOUS
 10
15.435035753
 20
30.1000002337
 11
14.270343737
 21
33.3999997663
  0
LINE
  5
433
100
AcDbEntity
  8
0
100
AcDbLine
 62
7
  6
CONTINUOUS
 10
14.7463364513
 20
33.3999997663
 11
15.6892378272
 21
30.5390724851
  0
LINE
  5
434
100
AcDbEntity
  8
0
100
AcDbLine
 62
7
  6
CONTINUOUS
 10
29.84375
 20
31.8297872245
 11
29.84375
 21
31.9361701906
  0
LINE
  5
435
100
AcDbEntity
  8
0
100
AcDbLine
 62
7
  6
CONTINUOUS
 10
29.8958334327
 20
31.2446808368
 11
29.8958334327
 21
31.4042552859
  0
LINE
  5
436
100
AcDbEntity
  8
SUPERFICI
100
AcDbLine
 62
7
  6
CONTINUOUS
 10
29.963412
 20
-32.675
 11
29.963412
 21
-32.453419
  0
LINE
  5
437
100
AcDbEntity
  8
SUPERFICI
100
AcDbLine
 62
7
  6
CONTINUOUS
 10
30.746651
 20
-31.930362
 11
30.746651
 21
-32.675
  0
LINE
  5
438
100
AcDbEntity
  8
SUPERFICI
100
AcDbLine
 62
7
  6
CONTINUOUS
 10
30.99651
 20
-32.675
 11
30.99651
 21
-31.930362
  0
LINE
  5
439
100
AcDbEntity
  8
0
100
AcDbLine
 62
7
  6
CONTINUOUS
 10
31.1979168653
 20
31.4042552859
 11
31.1979168653
 21
31.2446808368
  0
LINE
  5
43A
100
AcDbEntity
  8
0
100
AcDbLine
 62
7
  6
CONTINUOUS
 10
31.4583331347
 20
31.1914893538
 11
31.4583331347
 21
31.4574468434
  0
LINE
  5
43B
100
AcDbEntity
  8
0
100
AcDbLine
 62
7
  6
CONTINUOUS
 10
31.875
 20
33.0
 11
31.875
 21
31.6170212924
  0
LINE
  5
43C
100
AcDbEntity
  8
0
100
AcDbLine
 62
7
  6
CONTINUOUS
 10
32.1354168653
 20
31.8829787076
 11
32.1354168653
 21
32.7340425849
  0
LINE
  5
43D
100
AcDbEntity
  8
0
100
AcDbLine
 62
7
  6
CONTINUOUS
 10
33.4895831347
 20
31.3510638028
 11
33.4895831347
 21
31.2446808368
  0
LINE
  5
43E
100
AcDbEntity
  8
0
100
AcDbLine
 62
7
  6
CONTINUOUS
 10
33.6458331347
 20
32.7340425849
 11
33.6458331347
 21
33.0
  0
LINE
  5
43F
100
AcDbEntity
  8
0
100
AcDbLine
 62
7
  6
CONTINUOUS
 10
33.75
 20
31.1914893538
 11
33.75
 21
31.4042552859
  0
LINE
  5
440
100
AcDbEntity
  8
0
100
AcDbLine
 62
7
  6
CONTINUOUS
 10
34.1666668653
 20
31.5638298094
 11
34.1666668653
 21
31.2446808368
  0
LINE
  5
441
100
AcDbEntity
  8
0
100
AcDbLine
 62
7
  6
CONTINUOUS
 10
35.4166662693
 20
32.5744681358
 11
35.4166662693
 21
31.5638298094
  0
LINE
  5
442
100
AcDbEntity
  8
0
100
AcDbLine
 62
7
  6
CONTINUOUS
 10
35.4166662693
 20
31.2446808368
 11
35.4166662693
 21
30.5
  0
LINE
  5
443
100
AcDbEntity
  8
0
100
AcDbLine
 62
7
  6
CONTINUOUS
 10
35.7291662693
 20
30.5
 11
35.7291662693
 21
31.2446808368
  0
LINE
  5
444
100
AcDbEntity
  8
0
100
AcDbLine
 62
7
  6
CONTINUOUS
 10
35.7291662693
 20
31.5638298094
 11
35.7291662693
 21
33.0
  0
LINE
  5
445
100
AcDbEntity
  8
0
100
AcDbLine
 62
7
  6
CONTINUOUS
 10
36.25
 20
31.2446808368
 11
36.25
 21
31.5638298094
  0
LINE
  5
446
100
AcDbEntity
  8
SUPERFICI
100
AcDbLine
 62
7
  6
CONTINUOUS
 10
27.154719
 20
-32.675
 11
27.348007
 21
-32.136533
  0
LINE
  5
447
100
AcDbEntity
  8
SUPERFICI
100
AcDbLine
 62
7
  6
CONTINUOUS
 10
27.425314
 20
-31.914951
 11
27.724277
 21
-31.09334
  0
LINE
  5
448
100
AcDbEntity
  8
SUPERFICI
100
AcDbLine
 62
7
  6
CONTINUOUS
 10
27.592839
 20
-30.825
 11
26.897095
 21
-32.675
  0
LINE
  5
449
100
AcDbEntity
  8
RACCORDO
100
AcDbLine
 62
7
  6
CONTINUOUS
 10
45.7906523694
 20
24.1029527027
 11
45.7856244614
 21
24.0928961209
  0
LINE
  5
44A
100
AcDbEntity
  8
RACCORDO
100
AcDbLine
 62
7
  6
CONTINUOUS
 10
66.2491018981
 20
-0.2822620365
 11
66.2565146541
 21
-0.2785559408
  0
LINE
  5
44B
100
AcDbEntity
  8
0
100
AcDbLine
 62
7
  6
CONTINUOUS
 10
-15.2116364927
 20
29.9276540612
 11
-15.9745195396
 21
29.9276540612
  0
LINE
  5
44C
100
AcDbEntity
  8
0
100
AcDbLine
 62
7
  6
CONTINUOUS
 10
-17.189063541
 20
29.9276540612
 11
-17.9789858413
 21
29.9276540612
  0
LINE
  5
44D
100
AcDbEntity
  8
0
100
AcDbLine
 62
7
  6
CONTINUOUS
 10
-18.211882
 20
29.927654
 11
-19.047791
 21
29.927654
  0
LINE
  5
44E
100
AcDbEntity
  8
0
100
AcDbLine
 62
7
  6
CONTINUOUS
 10
-20.552188
 20
29.927654
 11
-21.336697
 21
29.927654
  0
LINE
  5
44F
100
AcDbEntity
  8
0
100
AcDbLine
 62
7
  6
CONTINUOUS
 10
-21.461237
 20
29.927654
 11
-22.237113
 21
29.927654
  0
LINE
  5
450
100
AcDbEntity
  8
0
100
AcDbLine
 62
7
  6
CONTINUOUS
 10
-23.343072
 20
29.927654
 11
-23.454306
 21
29.927654
  0
LINE
  5
451
100
AcDbEntity
  8
0
100
AcDbLine
 62
7
  6
CONTINUOUS
 10
-24.555878
 20
29.927654
 11
-25.31463
 21
29.927654
  0
LINE
  5
452
100
AcDbEntity
  8
0
100
AcDbLine
 62
7
  6
CONTINUOUS
 10
-25.741588
 20
29.927654
 11
-26.534701
 21
29.927654
  0
LINE
  5
453
100
AcDbEntity
  8
0
100
AcDbLine
 62
7
  6
CONTINUOUS
 10
-28.050353
 20
29.927654
 11
-28.749285
 21
29.927654
  0
LINE
  5
454
100
AcDbEntity
  8
0
100
AcDbLine
 62
7
  6
CONTINUOUS
 10
19.9598489784
 20
30.1000002337
 11
17.6673524117
 21
30.1000002337
  0
LINE
  5
455
100
AcDbEntity
  8
0
100
AcDbLine
 62
7
  6
CONTINUOUS
 10
15.9341695092
 20
30.1000002337
 11
15.435035753
 21
30.1000002337
  0
LINE
  5
456
100
AcDbEntity
  8
0
100
AcDbLine
 62
7
  6
CONTINUOUS
 10
13.8960535921
 20
30.1000002337
 11
11.6036191385
 21
30.1000002337
  0
LINE
  5
457
100
AcDbEntity
  8
0
100
AcDbLine
 62
7
  6
CONTINUOUS
 10
10.6839772078
 20
30.1000002337
 11
10.2032910663
 21
30.1000002337
  0
LINE
  5
458
100
AcDbEntity
  8
0
100
AcDbLine
 62
7
  6
CONTINUOUS
 10
8.4700771071
 20
30.1000002337
 11
8.0541129
 21
30.1000002337
  0
LINE
  5
459
100
AcDbEntity
  8
0
100
AcDbLine
 62
7
  6
CONTINUOUS
 10
12.04269139
 20
30.4697464113
 11
13.8960535921
 21
30.4697464113
  0
LINE
  5
45A
100
AcDbEntity
  8
0
100
AcDbLine
 62
7
  6
CONTINUOUS
 10
18.1064266042
 20
30.4697464113
 11
19.9598489784
 21
30.4697464113
  0
LINE
  5
45B
100
AcDbEntity
  8
0
100
AcDbLine
 62
7
  6
CONTINUOUS
 10
28.125
 20
30.5
 11
28.3333334327
 21
30.5
  0
LINE
  5
45C
100
AcDbEntity
  8
0
100
AcDbLine
 62
7
  6
CONTINUOUS
 10
30.4166668653
 20
30.5
 11
30.6770831347
 21
30.5
  0
LINE
  5
45D
100
AcDbEntity
  8
0
100
AcDbLine
 62
7
  6
CONTINUOUS
 10
32.65625
 20
30.5
 11
32.96875
 21
30.5
  0
LINE
  5
45E
100
AcDbEntity
  8
0
100
AcDbLine
 62
7
  6
CONTINUOUS
 10
35.4166662693
 20
30.5
 11
35.7291662693
 21
30.5
  0
LINE
  5
45F
100
AcDbEntity
  8
0
100
AcDbLine
 62
7
  6
CONTINUOUS
 10
15.6892378272
 20
30.5390724851
 11
15.6985043373
 21
30.5390724851
  0
LINE
  5
460
100
AcDbEntity
  8
0
100
AcDbLine
 62
7
  6
CONTINUOUS
 10
-19.25325
 20
30.686178
 11
-20.333338
 21
30.686178
  0
LINE
  5
461
100
AcDbEntity
  8
0
100
AcDbLine
 62
7
  6
CONTINUOUS
 10
10.2587464905
 20
30.7239465445
 11
10.2679838851
 21
30.7239465445
  0
LINE
  5
462
100
AcDbEntity
  8
0
100
AcDbLine
 62
7
  6
CONTINUOUS
 10
32.96875
 20
30.7659574524
 11
32.65625
 21
30.7659574524
  0
LINE
  5
463
100
AcDbEntity
  8
0
100
AcDbLine
 62
7
  6
CONTINUOUS
 10
30.7291668653
 20
30.7659574524
 11
30.3645831347
 21
30.7659574524
  0
LINE
  5
464
100
AcDbEntity
  8
0
100
AcDbLine
 62
7
  6
CONTINUOUS
 10
28.3854165673
 20
30.7659574524
 11
28.0729165673
 21
30.7659574524
  0
LINE
  5
465
100
AcDbEntity
  8
0
100
AcDbLine
 62
7
  6
CONTINUOUS
 10
27.65625
 20
31.0851063877
 11
27.3958332837
 21
31.0851063877
  0
LINE
  5
466
100
AcDbEntity
  8
0
100
AcDbLine
 62
7
  6
CONTINUOUS
 10
32.1875
 20
31.1382978708
 11
31.875
 21
31.1382978708
  0
LINE
  5
467
100
AcDbEntity
  8
0
100
AcDbLine
 62
7
  6
CONTINUOUS
 10
34.1666668653
 20
31.2446808368
 11
35.4166662693
 21
31.2446808368
  0
LINE
  5
468
100
AcDbEntity
  8
0
100
AcDbLine
 62
7
  6
CONTINUOUS
 10
35.7291662693
 20
31.2446808368
 11
36.25
 21
31.2446808368
  0
LINE
  5
469
100
AcDbEntity
  8
0
100
AcDbLine
 62
7
  6
CONTINUOUS
 10
-20.171103
 20
31.27312
 11
-19.411753
 21
31.27312
  0
LINE
  5
46A
100
AcDbEntity
  8
0
100
AcDbLine
 62
7
  6
CONTINUOUS
 10
28.0729165673
 20
31.4042552859
 11
28.3333334327
 21
31.4042552859
  0
LINE
  5
46B
100
AcDbEntity
  8
0
100
AcDbLine
 62
7
  6
CONTINUOUS
 10
-16.7638150079
 20
31.4145850627
 11
-17.189063541
 21
31.4145850627
  0
LINE
  5
46C
100
AcDbEntity
  8
0
100
AcDbLine
 62
7
  6
CONTINUOUS
 10
36.25
 20
31.5638298094
 11
35.7291662693
 21
31.5638298094
  0
LINE
  5
46D
100
AcDbEntity
  8
0
100
AcDbLine
 62
7
  6
CONTINUOUS
 10
35.4166662693
 20
31.5638298094
 11
34.53125
 21
31.5638298094
  0
LINE
  5
46E
100
AcDbEntity
  8
0
100
AcDbLine
 62
7
  6
CONTINUOUS
 10
19.8211948897
 20
31.611330383
 11
18.1064266042
 21
31.611330383
  0
LINE
  5
46F
100
AcDbEntity
  8
0
100
AcDbLine
 62
7
  6
CONTINUOUS
 10
13.7573995033
 20
31.611330383
 11
12.04269139
 21
31.611330383
  0
LINE
  5
470
100
AcDbEntity
  8
0
100
AcDbLine
 62
7
  6
CONTINUOUS
 10
31.875
 20
31.6170212924
 11
32.2395831347
 21
31.6170212924
  0
LINE
  5
471
100
AcDbEntity
  8
0
100
AcDbLine
 62
7
  6
CONTINUOUS
 10
28.3854165673
 20
31.6702127755
 11
28.0208334327
 21
31.6702127755
  0
LINE
  5
472
100
AcDbEntity
  8
0
100
AcDbLine
 62
7
  6
CONTINUOUS
 10
30.3645831347
 20
31.8297872245
 11
30.7291668653
 21
31.8297872245
  0
LINE
  5
473
100
AcDbEntity
  8
0
100
AcDbLine
 62
7
  6
CONTINUOUS
 10
32.65625
 20
31.8297872245
 11
32.96875
 21
31.8297872245
  0
LINE
  5
474
100
AcDbEntity
  8
0
100
AcDbLine
 62
7
  6
CONTINUOUS
 10
12.04269139
 20
31.9810765606
 11
13.7573995033
 21
31.9810765606
  0
LINE
  5
475
100
AcDbEntity
  8
0
100
AcDbLine
 62
7
  6
CONTINUOUS
 10
18.1064266042
 20
31.9810765606
 11
19.8211948897
 21
31.9810765606
  0
LINE
  5
476
100
AcDbEntity
  8
0
100
AcDbLine
 62
7
  6
CONTINUOUS
 10
-17.215361993
 20
32.0368582931
 11
-16.762105466
 21
32.0368582931
  0
LINE
  5
477
100
AcDbEntity
  8
0
100
AcDbLine
 62
7
  6
CONTINUOUS
 10
32.96875
 20
32.0957446396
 11
32.65625
 21
32.0957446396
  0
LINE
  5
478
100
AcDbEntity
  8
0
100
AcDbLine
 62
7
  6
CONTINUOUS
 10
30.6770831347
 20
32.0957446396
 11
30.4166668653
 21
32.0957446396
  0
LINE
  5
479
100
AcDbEntity
  8
0
100
AcDbLine
 62
7
  6
CONTINUOUS
 10
31.09375
 20
32.4148936868
 11
31.3541668653
 21
32.4148936868
  0
LINE
  5
47A
100
AcDbEntity
  8
0
100
AcDbLine
 62
7
  6
CONTINUOUS
 10
28.0208334327
 20
32.7340425849
 11
28.3854165673
 21
32.7340425849
  0
LINE
  5
47B
100
AcDbEntity
  8
0
100
AcDbLine
 62
7
  6
CONTINUOUS
 10
30.3645831347
 20
32.7340425849
 11
30.6770831347
 21
32.7340425849
  0
LINE
  5
47C
100
AcDbEntity
  8
0
100
AcDbLine
 62
7
  6
CONTINUOUS
 10
32.1354168653
 20
32.7340425849
 11
33.6458331347
 21
32.7340425849
  0
LINE
  5
47D
100
AcDbEntity
  8
0
100
AcDbLine
 62
7
  6
CONTINUOUS
 10
8.4793455583
 20
32.7483102152
 11
8.4700771071
 21
32.7483102152
  0
LINE
  5
47E
100
AcDbEntity
  8
0
100
AcDbLine
 62
7
  6
CONTINUOUS
 10
35.7291662693
 20
33.0
 11
35.4166662693
 21
33.0
  0
LINE
  5
47F
100
AcDbEntity
  8
0
100
AcDbLine
 62
7
  6
CONTINUOUS
 10
33.6458331347
 20
33.0
 11
31.875
 21
33.0
  0
LINE
  5
480
100
AcDbEntity
  8
0
100
AcDbLine
 62
7
  6
CONTINUOUS
 10
30.625
 20
33.0
 11
30.4166668653
 21
33.0
  0
LINE
  5
481
100
AcDbEntity
  8
0
100
AcDbLine
 62
7
  6
CONTINUOUS
 10
28.3333334327
 20
33.0
 11
28.0729165673
 21
33.0
  0
LINE
  5
482
100
AcDbEntity
  8
0
100
AcDbLine
 62
7
  6
CONTINUOUS
 10
19.9458871
 20
33.0302535887
 11
18.1064266042
 21
33.0302535887
  0
LINE
  5
483
100
AcDbEntity
  8
0
100
AcDbLine
 62
7
  6
CONTINUOUS
 10
13.8821829424
 20
33.0302535887
 11
12.04269139
 21
33.0302535887
  0
LINE
  5
484
100
AcDbEntity
  8
0
100
AcDbLine
 62
7
  6
CONTINUOUS
 10
8.0541129
 20
33.3999997663
 11
8.5209283918
 21
33.3999997663
  0
LINE
  5
485
100
AcDbEntity
  8
0
100
AcDbLine
 62
7
  6
CONTINUOUS
 10
10.2679838851
 20
33.3999997663
 11
10.6839772078
 21
33.3999997663
  0
LINE
  5
486
100
AcDbEntity
  8
0
100
AcDbLine
 62
7
  6
CONTINUOUS
 10
11.6036191385
 20
33.3999997663
 11
13.8821829424
 21
33.3999997663
  0
LINE
  5
487
100
AcDbEntity
  8
0
100
AcDbLine
 62
7
  6
CONTINUOUS
 10
14.270343737
 20
33.3999997663
 11
14.7463364513
 21
33.3999997663
  0
LINE
  5
488
100
AcDbEntity
  8
0
100
AcDbLine
 62
7
  6
CONTINUOUS
 10
16.6505518791
 20
33.3999997663
 11
17.1081610329
 21
33.3999997663
  0
LINE
  5
489
100
AcDbEntity
  8
0
100
AcDbLine
 62
7
  6
CONTINUOUS
 10
17.6673524117
 20
33.3999997663
 11
19.9458871
 21
33.3999997663
  0
LINE
  5
48A
100
AcDbEntity
  8
0
100
AcDbLine
 62
7
  6
CONTINUOUS
 10
-29.953814
 20
33.727196
 11
-29.092247
 21
33.727196
  0
LINE
  5
48B
100
AcDbEntity
  8
0
100
AcDbLine
 62
7
  6
CONTINUOUS
 10
-27.6216
 20
33.727196
 11
-26.829028
 21
33.727196
  0
LINE
  5
48C
100
AcDbEntity
  8
0
100
AcDbLine
 62
7
  6
CONTINUOUS
 10
-24.971553
 20
33.727196
 11
-24.179095
 21
33.727196
  0
LINE
  5
48D
100
AcDbEntity
  8
0
100
AcDbLine
 62
7
  6
CONTINUOUS
 10
-22.601245
 20
33.727196
 11
-21.816537
 21
33.727196
  0
LINE
  5
48E
100
AcDbEntity
  8
0
100
AcDbLine
 62
7
  6
CONTINUOUS
 10
-20.144918
 20
33.727196
 11
-19.377676
 21
33.727196
  0
LINE
  5
48F
100
AcDbEntity
  8
0
100
AcDbLine
 62
7
  6
CONTINUOUS
 10
-26.534701
 20
33.727424
 11
-25.741588
 21
33.727424
  0
LINE
  5
490
100
AcDbEntity
  8
RACCORDO
100
AcDbLine
 62
253
  6
CONTINUOUS
 10
-0.3711790299
 20
34.6021513305
 11
0.3711790299
 21
34.6021513305
  0
LINE
  5
491
100
AcDbEntity
  8
RACCORDO
100
AcDbLine
 62
253
  6
CONTINUOUS
 10
-0.3678946361
 20
34.887835841
 11
0.3678946361
 21
34.887835841
  0
LINE
  5
492
100
AcDbEntity
  8
RACCORDO
100
AcDbLine
 62
253
  6
CONTINUOUS
 10
-45.7411022052
 20
34.941424784
 11
-45.0588977948
 21
34.941424784
  0
LINE
  5
493
100
AcDbEntity
  8
RACCORDO
100
AcDbLine
 62
253
  6
CONTINUOUS
 10
-0.3411022052
 20
34.941424784
 11
0.3411022052
 21
34.941424784
  0
LINE
  5
494
100
AcDbEntity
  8
RACCORDO
100
AcDbLine
 62
253
  6
CONTINUOUS
 10
45.0588977948
 20
34.941424784
 11
45.7411022052
 21
34.941424784
  0
LINE
  5
495
100
AcDbEntity
  8
RACCORDO
100
AcDbLine
 62
253
  6
CONTINUOUS
 10
-45.7368149237
 20
35.4413486316
 11
-45.0631850763
 21
35.4413486316
  0
LINE
  5
496
100
AcDbEntity
  8
RACCORDO
100
AcDbLine
 62
253
  6
CONTINUOUS
 10
-0.3368149237
 20
35.4413486316
 11
0.3368149237
 21
35.4413486316
  0
LINE
  5
497
100
AcDbEntity
  8
RACCORDO
100
AcDbLine
 62
253
  6
CONTINUOUS
 10
45.0631850763
 20
35.4413486316
 11
45.7368149237
 21
35.4413486316
  0
LINE
  5
498
100
AcDbEntity
  8
0
100
AcDbLine
 62
7
  6
CONTINUOUS
 10
-40.5
 20
36.0
 11
-4.5
 21
36.0
  0
LINE
  5
499
100
AcDbEntity
  8
0
100
AcDbLine
 62
7
  6
CONTINUOUS
 10
4.5
 20
36.0
 11
40.5
 21
36.0
  0
LINE
  5
49A
100
AcDbEntity
  8
0
100
AcDbLine
 62
7
  6
CONTINUOUS
 10
25.625
 20
30.5531914877
 11
25.9375
 21
30.5
  0
LINE
  5
49B
100
AcDbEntity
  8
0
100
AcDbLine
 62
7
  6
CONTINUOUS
 10
26.25
 20
32.946808517
 11
25.9375
 21
33.0
  0
LINE
  5
49C
100
AcDbEntity
  8
0
100
AcDbLine
 62
7
  6
CONTINUOUS
 10
25.9375
 20
30.7659574524
 11
25.6770833582
 21
30.8191489354
  0
LINE
  5
49D
100
AcDbEntity
  8
0
100
AcDbLine
 62
7
  6
CONTINUOUS
 10
27.8645834327
 20
30.5531914877
 11
28.125
 21
30.5
  0
LINE
  5
49E
100
AcDbEntity
  8
0
100
AcDbLine
 62
7
  6
CONTINUOUS
 10
30.15625
 20
30.5531914877
 11
30.4166668653
 21
30.5
  0
LINE
  5
49F
100
AcDbEntity
  8
0
100
AcDbLine
 62
7
  6
CONTINUOUS
 10
27.8125
 20
31.4574468434
 11
28.0729165673
 21
31.4042552859
  0
LINE
  5
4A0
100
AcDbEntity
  8
0
100
AcDbLine
 62
7
  6
CONTINUOUS
 10
32.3958331347
 20
30.5531914877
 11
32.65625
 21
30.5
  0
LINE
  5
4A1
100
AcDbEntity
  8
RACCORDO
100
AcDbLine
 62
7
  6
CONTINUOUS
 10
66.2491018981
 20
0.2822620365
 11
66.2565146541
 21
0.2785559408
  0
LINE
  5
4A2
100
AcDbEntity
  8
RACCORDO
100
AcDbLine
 62
7
  6
CONTINUOUS
 10
45.7856244614
 20
-24.0928961209
 11
45.7906523694
 21
-24.1029527027
  0
LINE
  5
4A3
100
AcDbEntity
  8
0
100
AcDbLine
 62
7
  6
CONTINUOUS
 10
25.1041666698
 20
31.0851063877
 11
25.2083333395
 21
30.8723404184
  0
LINE
  5
4A4
100
AcDbEntity
  8
0
100
AcDbLine
 62
7
  6
CONTINUOUS
 10
25.0520833349
 20
31.2446808368
 11
25.1041666698
 21
31.0851063877
  0
LINE
  5
4A5
100
AcDbEntity
  8
0
100
AcDbLine
 62
7
  6
CONTINUOUS
 10
26.8229167163
 20
32.2553190887
 11
26.7708332837
 21
32.4148936868
  0
LINE
  5
4A6
100
AcDbEntity
  8
0
100
AcDbLine
 62
7
  6
CONTINUOUS
 10
27.3958332837
 20
31.0851063877
 11
27.4479167163
 21
30.9255319014
  0
LINE
  5
4A7
100
AcDbEntity
  8
0
100
AcDbLine
 62
7
  6
CONTINUOUS
 10
27.6041665673
 20
31.9893616736
 11
27.5520834327
 21
32.1489361227
  0
LINE
  5
4A8
100
AcDbEntity
  8
0
100
AcDbLine
 62
7
  6
CONTINUOUS
 10
25.0
 20
31.5106383264
 11
25.0520833349
 21
31.2446808368
  0
LINE
  5
4A9
100
AcDbEntity
  8
0
100
AcDbLine
 62
7
  6
CONTINUOUS
 10
26.875
 20
31.9893616736
 11
26.8229167163
 21
32.2553190887
  0
LINE
  5
4AA
100
AcDbEntity
  8
0
100
AcDbLine
 62
7
  6
CONTINUOUS
 10
25.3125
 20
31.2446808368
 11
25.2604166605
 21
31.5638298094
  0
LINE
  5
4AB
100
AcDbEntity
  8
0
100
AcDbLine
 62
7
  6
CONTINUOUS
 10
26.5625
 20
32.2553190887
 11
26.6145832837
 21
31.9361701906
  0
LINE
  5
4AC
100
AcDbEntity
  8
0
100
AcDbLine
 62
7
  6
CONTINUOUS
 10
29.1666665673
 20
31.9361701906
 11
29.1145834327
 21
32.3085105717
  0
LINE
  5
4AD
100
AcDbEntity
  8
0
100
AcDbLine
 62
7
  6
CONTINUOUS
 10
29.5833334327
 20
31.5638298094
 11
29.6354165673
 21
31.1914893538
  0
LINE
  5
4AE
100
AcDbEntity
  8
0
100
AcDbLine
 62
7
  6
CONTINUOUS
 10
41.5
 20
35.0
 11
41.5
 21
28.5
  0
LINE
  5
4AF
100
AcDbEntity
  8
0
100
AcDbLine
 62
7
  6
CONTINUOUS
 10
41.5
 20
-28.5
 11
41.5
 21
-35.0
  0
LINE
  5
4B0
100
AcDbEntity
  8
RACCORDO
100
AcDbLine
 62
7
  6
CONTINUOUS
 10
45.0631850763
 20
37.6715380489
 11
45.0181290128
 21
37.4022728262
  0
LINE
  5
4B1
100
AcDbEntity
  8
SUPERFICI
100
AcDbLine
 62
7
  6
CONTINUOUS
 10
31.401071
 20
-30.825
 11
30.870384
 21
-31.714017
  0
LINE
  5
4B2
100
AcDbEntity
  8
SUPERFICI
100
AcDbLine
 62
7
  6
CONTINUOUS
 10
30.99651
 20
-31.930362
 11
31.694916
 21
-30.825
  0
LINE
  5
4B3
100
AcDbEntity
  8
RACCORDO
100
AcDbLine
 62
7
  6
CONTINUOUS
 10
46.5928961209
 20
-22.6793755386
 11
46.604156459
 21
-22.6737457983
  0
LINE
  5
4B4
100
AcDbEntity
  8
0
100
AcDbLine
 62
7
  6
CONTINUOUS
 10
25.9375
 20
32.7340425849
 11
26.1979166418
 21
32.6808511019
  0
LINE
  5
4B5
100
AcDbEntity
  8
0
100
AcDbLine
 62
7
  6
CONTINUOUS
 10
30.9375
 20
32.0425531566
 11
30.6770831347
 21
32.0957446396
  0
LINE
  5
4B6
100
AcDbEntity
  8
0
100
AcDbLine
 62
7
  6
CONTINUOUS
 10
28.59375
 20
32.946808517
 11
28.3333334327
 21
33.0
  0
LINE
  5
4B7
100
AcDbEntity
  8
0
100
AcDbLine
 62
7
  6
CONTINUOUS
 10
33.2291668653
 20
32.0425531566
 11
32.96875
 21
32.0957446396
  0
LINE
  5
4B8
100
AcDbEntity
  8
0
100
AcDbLine
 62
7
  6
CONTINUOUS
 10
30.8854168653
 20
32.946808517
 11
30.625
 21
33.0
  0
LINE
  5
4B9
100
AcDbEntity
  8
0
100
AcDbLine
 62
7
  6
CONTINUOUS
 10
32.65625
 20
30.7659574524
 11
32.4479168653
 21
30.8191489354
  0
LINE
  5
4BA
100
AcDbEntity
  8
0
100
AcDbLine
 62
7
  6
CONTINUOUS
 10
32.96875
 20
31.8297872245
 11
33.1770831347
 21
31.7765957415
  0
LINE
  5
4BB
100
AcDbEntity
  8
0
100
AcDbLine
 62
7
  6
CONTINUOUS
 10
28.0729165673
 20
30.7659574524
 11
27.9166665673
 21
30.8191489354
  0
LINE
  5
4BC
100
AcDbEntity
  8
0
100
AcDbLine
 62
7
  6
CONTINUOUS
 10
30.3645831347
 20
30.7659574524
 11
30.2083331347
 21
30.8191489354
  0
LINE
  5
4BD
100
AcDbEntity
  8
0
100
AcDbLine
 62
7
  6
CONTINUOUS
 10
28.0208334327
 20
31.6702127755
 11
27.8645834327
 21
31.7234042585
  0
LINE
  5
4BE
100
AcDbEntity
  8
0
100
AcDbLine
 62
7
  6
CONTINUOUS
 10
30.7291668653
 20
31.8297872245
 11
30.8854168653
 21
31.7765957415
  0
LINE
  5
4BF
100
AcDbEntity
  8
0
100
AcDbLine
 62
7
  6
CONTINUOUS
 10
28.3854165673
 20
32.7340425849
 11
28.5416665673
 21
32.6808511019
  0
LINE
  5
4C0
100
AcDbEntity
  8
0
100
AcDbLine
 62
7
  6
CONTINUOUS
 10
30.6770831347
 20
32.7340425849
 11
30.8333331347
 21
32.6808511019
  0
LINE
  5
4C1
100
AcDbEntity
  8
RACCORDO
100
AcDbLine
 62
7
  6
CONTINUOUS
 10
46.604156459
 20
22.6737457983
 11
46.5928961209
 21
22.6793755386
  0
LINE
  5
4C2
100
AcDbEntity
  8
0
100
AcDbLine
 62
7
  6
CONTINUOUS
 10
25.3645833209
 20
30.7127659507
 11
25.625
 21
30.5531914877
  0
LINE
  5
4C3
100
AcDbEntity
  8
0
100
AcDbLine
 62
7
  6
CONTINUOUS
 10
27.6041665673
 20
30.7127659507
 11
27.8645834327
 21
30.5531914877
  0
LINE
  5
4C4
100
AcDbEntity
  8
0
100
AcDbLine
 62
7
  6
CONTINUOUS
 10
27.5520834327
 20
31.6170212924
 11
27.8125
 21
31.4574468434
  0
LINE
  5
4C5
100
AcDbEntity
  8
0
100
AcDbLine
 62
7
  6
CONTINUOUS
 10
26.5104167163
 20
32.7872340679
 11
26.25
 21
32.946808517
  0
LINE
  5
4C6
100
AcDbEntity
  8
0
100
AcDbLine
 62
7
  6
CONTINUOUS
 10
29.8958334327
 20
30.7127659507
 11
30.15625
 21
30.5531914877
  0
LINE
  5
4C7
100
AcDbEntity
  8
0
100
AcDbLine
 62
7
  6
CONTINUOUS
 10
32.1354168653
 20
30.7127659507
 11
32.3958331347
 21
30.5531914877
  0
LINE
  5
4C8
100
AcDbEntity
  8
0
100
AcDbLine
 62
7
  6
CONTINUOUS
 10
28.8541665673
 20
32.7872340679
 11
28.59375
 21
32.946808517
  0
LINE
  5
4C9
100
AcDbEntity
  8
0
100
AcDbLine
 62
7
  6
CONTINUOUS
 10
31.1979168653
 20
31.8829787076
 11
30.9375
 21
32.0425531566
  0
LINE
  5
4CA
100
AcDbEntity
  8
0
100
AcDbLine
 62
7
  6
CONTINUOUS
 10
31.1458331347
 20
32.7872340679
 11
30.8854168653
 21
32.946808517
  0
LINE
  5
4CB
100
AcDbEntity
  8
0
100
AcDbLine
 62
7
  6
CONTINUOUS
 10
25.6770833582
 20
30.8191489354
 11
25.5208333209
 21
30.9255319014
  0
LINE
  5
4CC
100
AcDbEntity
  8
0
100
AcDbLine
 62
7
  6
CONTINUOUS
 10
27.9166665673
 20
30.8191489354
 11
27.7604165673
 21
30.9255319014
  0
LINE
  5
4CD
100
AcDbEntity
  8
0
100
AcDbLine
 62
7
  6
CONTINUOUS
 10
26.1979166418
 20
32.6808511019
 11
26.3541667163
 21
32.5744681358
  0
LINE
  5
4CE
100
AcDbEntity
  8
0
100
AcDbLine
 62
7
  6
CONTINUOUS
 10
27.8645834327
 20
31.7234042585
 11
27.7083334327
 21
31.8297872245
  0
LINE
  5
4CF
100
AcDbEntity
  8
0
100
AcDbLine
 62
7
  6
CONTINUOUS
 10
30.2083331347
 20
30.8191489354
 11
30.0520831347
 21
30.9255319014
  0
LINE
  5
4D0
100
AcDbEntity
  8
0
100
AcDbLine
 62
7
  6
CONTINUOUS
 10
28.5416665673
 20
32.6808511019
 11
28.6979165673
 21
32.5744681358
  0
LINE
  5
4D1
100
AcDbEntity
  8
0
100
AcDbLine
 62
7
  6
CONTINUOUS
 10
30.8854168653
 20
31.7765957415
 11
31.0416668653
 21
31.6702127755
  0
LINE
  5
4D2
100
AcDbEntity
  8
0
100
AcDbLine
 62
7
  6
CONTINUOUS
 10
32.4479168653
 20
30.8191489354
 11
32.2916668653
 21
30.9255319014
  0
LINE
  5
4D3
100
AcDbEntity
  8
RACCORDO
100
AcDbLine
 62
253
  6
CONTINUOUS
 10
46.4883249355
 20
13.9977262431
 11
46.4266734945
 21
14.059377684
  0
LINE
  5
4D4
100
AcDbEntity
  8
RACCORDO
100
AcDbLine
 62
253
  6
CONTINUOUS
 10
46.5928961209
 20
14.0931245967
 11
46.526658264
 21
14.1593624536
  0
LINE
  5
4D5
100
AcDbEntity
  8
0
100
AcDbLine
 62
7
  6
CONTINUOUS
 10
25.2083333395
 20
30.8723404184
 11
25.3645833209
 21
30.7127659507
  0
LINE
  5
4D6
100
AcDbEntity
  8
0
100
AcDbLine
 62
7
  6
CONTINUOUS
 10
26.6666667163
 20
32.6276596189
 11
26.5104167163
 21
32.7872340679
  0
LINE
  5
4D7
100
AcDbEntity
  8
0
100
AcDbLine
 62
7
  6
CONTINUOUS
 10
27.4479167163
 20
30.9255319014
 11
27.6041665673
 21
30.7127659507
  0
LINE
  5
4D8
100
AcDbEntity
  8
0
100
AcDbLine
 62
7
  6
CONTINUOUS
 10
27.3958332837
 20
31.8297872245
 11
27.5520834327
 21
31.6170212924
  0
LINE
  5
4D9
100
AcDbEntity
  8
0
100
AcDbLine
 62
7
  6
CONTINUOUS
 10
29.7395834327
 20
30.9255319014
 11
29.8958334327
 21
30.7127659507
  0
LINE
  5
4DA
100
AcDbEntity
  8
0
100
AcDbLine
 62
7
  6
CONTINUOUS
 10
29.0104165673
 20
32.5744681358
 11
28.8541665673
 21
32.7872340679
  0
LINE
  5
4DB
100
AcDbEntity
  8
0
100
AcDbLine
 62
7
  6
CONTINUOUS
 10
31.9791668653
 20
30.9255319014
 11
32.1354168653
 21
30.7127659507
  0
LINE
  5
4DC
100
AcDbEntity
  8
0
100
AcDbLine
 62
7
  6
CONTINUOUS
 10
25.5208333209
 20
30.9255319014
 11
25.3125
 21
31.2446808368
  0
LINE
  5
4DD
100
AcDbEntity
  8
0
100
AcDbLine
 62
7
  6
CONTINUOUS
 10
26.3541667163
 20
32.5744681358
 11
26.5625
 21
32.2553190887
  0
LINE
  5
4DE
100
AcDbEntity
  8
0
100
AcDbLine
 62
7
  6
CONTINUOUS
 10
27.7604165673
 20
30.9255319014
 11
27.65625
 21
31.0851063877
  0
LINE
  5
4DF
100
AcDbEntity
  8
0
100
AcDbLine
 62
7
  6
CONTINUOUS
 10
27.7083334327
 20
31.8297872245
 11
27.6041665673
 21
31.9893616736
  0
LINE
  5
4E0
100
AcDbEntity
  8
0
100
AcDbLine
 62
7
  6
CONTINUOUS
 10
28.6979165673
 20
32.5744681358
 11
28.8020834327
 21
32.4148936868
  0
LINE
  5
4E1
100
AcDbEntity
  8
0
100
AcDbLine
 62
7
  6
CONTINUOUS
 10
30.0520831347
 20
30.9255319014
 11
29.9479165673
 21
31.0851063877
  0
LINE
  5
4E2
100
AcDbEntity
  8
0
100
AcDbLine
 62
7
  6
CONTINUOUS
 10
30.9895831347
 20
32.5744681358
 11
31.09375
 21
32.4148936868
  0
LINE
  5
4E3
100
AcDbEntity
  8
0
100
AcDbLine
 62
7
  6
CONTINUOUS
 10
26.7708332837
 20
32.4148936868
 11
26.6666667163
 21
32.6276596189
  0
LINE
  5
4E4
100
AcDbEntity
  8
0
100
AcDbLine
 62
7
  6
CONTINUOUS
 10
31.875
 20
31.1382978708
 11
31.9791668653
 21
30.9255319014
  0
LINE
  5
4E5
100
AcDbEntity
  8
0
100
AcDbLine
 62
7
  6
CONTINUOUS
 10
32.2916668653
 20
30.9255319014
 11
32.1875
 21
31.1382978708
  0
LINE
  5
4E6
100
AcDbEntity
  8
0
100
AcDbLine
 62
7
  6
CONTINUOUS
 10
27.2916667163
 20
32.0957446396
 11
27.3958332837
 21
31.8297872245
  0
LINE
  5
4E7
100
AcDbEntity
  8
0
100
AcDbLine
 62
7
  6
CONTINUOUS
 10
29.1145834327
 20
32.3085105717
 11
29.0104165673
 21
32.5744681358
  0
LINE
  5
4E8
100
AcDbEntity
  8
0
100
AcDbLine
 62
7
  6
CONTINUOUS
 10
29.6354165673
 20
31.1914893538
 11
29.7395834327
 21
30.9255319014
  0
LINE
  5
4E9
100
AcDbEntity
  8
0
100
AcDbLine
 62
7
  6
CONTINUOUS
 10
31.4583331347
 20
31.4574468434
 11
31.3541668653
 21
31.7234042585
  0
LINE
  5
4EA
100
AcDbEntity
  8
0
100
AcDbLine
 62
7
  6
CONTINUOUS
 10
33.75
 20
31.4042552859
 11
33.6458331347
 21
31.6702127755
  0
LINE
  5
4EB
100
AcDbEntity
  8
0
100
AcDbLine
 62
7
  6
CONTINUOUS
 10
28.8020834327
 20
32.4148936868
 11
28.8541665673
 21
32.2553190887
  0
LINE
  5
4EC
100
AcDbEntity
  8
0
100
AcDbLine
 62
7
  6
CONTINUOUS
 10
29.9479165673
 20
31.0851063877
 11
29.8958334327
 21
31.2446808368
  0
LINE
  5
4ED
100
AcDbEntity
  8
0
100
AcDbLine
 62
7
  6
CONTINUOUS
 10
31.1458331347
 20
31.5638298094
 11
31.1979168653
 21
31.4042552859
  0
LINE
  5
4EE
100
AcDbEntity
  8
0
100
AcDbLine
 62
7
  6
CONTINUOUS
 10
31.3541668653
 20
32.4148936868
 11
31.3020831347
 21
32.5744681358
  0
LINE
  5
4EF
100
AcDbEntity
  8
0
100
AcDbLine
 62
7
  6
CONTINUOUS
 10
33.4375
 20
31.5106383264
 11
33.4895831347
 21
31.3510638028
  0
LINE
  5
4F0
100
AcDbEntity
  8
RACCORDO
100
AcDbLine
 62
7
  6
CONTINUOUS
 10
45.0181290128
 20
-37.4022728265
 11
45.0631850763
 21
-37.6715380489
  0
LINE
  5
4F1
100
AcDbEntity
  8
RACCORDO
100
AcDbLine
 62
253
  6
CONTINUOUS
 10
46.3074638198
 20
-24.1248236073
 11
46.3061719357
 21
-24.0191235341
  0
LINE
  5
4F2
100
AcDbEntity
  8
RACCORDO
100
AcDbLine
 62
253
  6
CONTINUOUS
 10
46.6033868232
 20
-23.6229151607
 11
46.6019089823
 21
-23.5020003652
  0
LINE
  5
4F3
100
AcDbEntity
  8
DRAFT
100
AcDbLine
 62
7
  6
CONTINUOUS
 10
45.0087031451
 20
24.2084224687
 11
45.0093476306
 21
24.1029527027
  0
LINE
  5
4F4
100
AcDbEntity
  8
DRAFT
100
AcDbLine
 62
7
  6
CONTINUOUS
 10
45.790990916
 20
-24.1583557114
 11
45.7906523694
 21
-24.1029527027
  0
LINE
  5
4F5
100
AcDbEntity
  8
RACCORDO
100
AcDbLine
 62
253
  6
CONTINUOUS
 10
44.6888798443
 20
22.8887732309
 11
44.6888798443
 21
22.5888189223
  0
LINE
  5
4F6
100
AcDbEntity
  8
RACCORDO
100
AcDbLine
 62
253
  6
CONTINUOUS
 10
44.6888798443
 20
-22.8887732309
 11
44.6888798443
 21
-22.5888189223
  0
LINE
  5
4F7
100
AcDbEntity
  8
0
100
AcDbLine
 62
7
  6
CONTINUOUS
 10
45.0
 20
22.2000456915
 11
45.0
 21
-22.2000456915
  0
LINE
  5
4F8
100
AcDbEntity
  8
RACCORDO
100
AcDbLine
 62
7
  6
CONTINUOUS
 10
45.0631850763
 20
-37.6715380489
 11
45.0631850763
 21
-35.4413486316
  0
LINE
  5
4F9
100
AcDbEntity
  8
RACCORDO
100
AcDbLine
 62
7
  6
CONTINUOUS
 10
45.0631850763
 20
35.4413486316
 11
45.0631850763
 21
37.6715380489
  0
LINE
  5
4FA
100
AcDbEntity
  8
RACCORDO
100
AcDbLine
 62
7
  6
CONTINUOUS
 10
45.08
 20
22.1800609219
 11
45.08
 21
-22.1800609219
  0
LINE
  5
4FB
100
AcDbEntity
  8
RACCORDO
100
AcDbLine
 62
253
  6
CONTINUOUS
 10
45.0888189223
 20
-22.1888787917
 11
45.0888189223
 21
14.0948396399
  0
LINE
  5
4FC
100
AcDbEntity
  8
RACCORDO
100
AcDbLine
 62
253
  6
CONTINUOUS
 10
45.0888189223
 20
18.9051603601
 11
45.0888189223
 21
22.1888804671
  0
LINE
  5
4FD
100
AcDbEntity
  8
RACCORDO
100
AcDbLine
 62
253
  6
CONTINUOUS
 10
45.153341736
 20
18.8406375464
 11
45.153341736
 21
14.1593624536
  0
LINE
  5
4FE
100
AcDbEntity
  8
RACCORDO
100
AcDbLine
 62
253
  6
CONTINUOUS
 10
45.2533265055
 20
14.059377684
 11
45.2533265055
 21
18.940622316
  0
LINE
  5
4FF
100
AcDbEntity
  8
RACCORDO
100
AcDbLine
 62
253
  6
CONTINUOUS
 10
45.3887732309
 20
22.1888798443
 11
45.3887732309
 21
19.0
  0
LINE
  5
500
100
AcDbEntity
  8
RACCORDO
100
AcDbLine
 62
253
  6
CONTINUOUS
 10
45.3887732309
 20
14.0
 11
45.3887732309
 21
-22.1888798443
  0
LINE
  5
501
100
AcDbEntity
  8
RACCORDO
100
AcDbLine
 62
7
  6
CONTINUOUS
 10
45.7368149237
 20
37.6496566314
 11
45.7368149237
 21
35.4413486316
  0
LINE
  5
502
100
AcDbEntity
  8
RACCORDO
100
AcDbLine
 62
7
  6
CONTINUOUS
 10
45.7368149237
 20
-35.4413486316
 11
45.7368149237
 21
-37.6496566314
  0
LINE
  5
503
100
AcDbEntity
  8
RACCORDO
100
AcDbLine
 62
253
  6
CONTINUOUS
 10
45.9929875038
 20
-23.6929570428
 11
45.9929875038
 21
-24.0928961209
  0
LINE
  5
504
100
AcDbEntity
  8
RACCORDO
100
AcDbLine
 62
253
  6
CONTINUOUS
 10
45.9929875038
 20
23.6929570428
 11
45.9929875038
 21
24.0928961209
  0
LINE
  5
505
100
AcDbEntity
  8
RACCORDO
100
AcDbLine
 62
253
  6
CONTINUOUS
 10
46.1929570428
 20
-23.4929875038
 11
46.1929570428
 21
14.0
  0
LINE
  5
506
100
AcDbEntity
  8
RACCORDO
100
AcDbLine
 62
253
  6
CONTINUOUS
 10
46.1929570428
 20
19.0
 11
46.1929570428
 21
23.4929875038
  0
LINE
  5
507
100
AcDbEntity
  8
RACCORDO
100
AcDbLine
 62
253
  6
CONTINUOUS
 10
46.4266734945
 20
14.059377684
 11
46.4266734945
 21
18.940622316
  0
LINE
  5
508
100
AcDbEntity
  8
RACCORDO
100
AcDbLine
 62
253
  6
CONTINUOUS
 10
46.526658264
 20
14.1593624536
 11
46.526658264
 21
18.8406375464
  0
LINE
  5
509
100
AcDbEntity
  8
RACCORDO
100
AcDbLine
 62
253
  6
CONTINUOUS
 10
46.5928961209
 20
22.6793755386
 11
46.5928961209
 21
18.9068754033
  0
LINE
  5
50A
100
AcDbEntity
  8
RACCORDO
100
AcDbLine
 62
253
  6
CONTINUOUS
 10
46.5928961209
 20
14.0931245967
 11
46.5928961209
 21
-22.6793755386
  0
LINE
  5
50B
100
AcDbEntity
  8
RACCORDO
100
AcDbLine
 62
253
  6
CONTINUOUS
 10
46.5928961209
 20
-23.4929875038
 11
46.5928961209
 21
-23.2906244614
  0
LINE
  5
50C
100
AcDbEntity
  8
RACCORDO
100
AcDbLine
 62
253
  6
CONTINUOUS
 10
46.5928961209
 20
23.2906244614
 11
46.5928961209
 21
23.4929875038
  0
LINE
  5
50D
100
AcDbEntity
  8
DRAFT
100
AcDbLine
 62
7
  6
CONTINUOUS
 10
45.0087031451
 20
-24.2084224687
 11
45.0093476306
 21
-24.1029527027
  0
LINE
  5
50E
100
AcDbEntity
  8
DRAFT
100
AcDbLine
 62
7
  6
CONTINUOUS
 10
45.790990916
 20
24.1583557114
 11
45.7906523694
 21
24.1029527027
  0
LINE
  5
50F
100
AcDbEntity
  8
RACCORDO
100
AcDbLine
 62
253
  6
CONTINUOUS
 10
46.3061719357
 20
24.0191235341
 11
46.3074638198
 21
24.1248236073
  0
LINE
  5
510
100
AcDbEntity
  8
RACCORDO
100
AcDbLine
 62
253
  6
CONTINUOUS
 10
46.6019089823
 20
23.5020003652
 11
46.6033868232
 21
23.6229151607
  0
LINE
  5
511
100
AcDbEntity
  8
RACCORDO
100
AcDbLine
 62
7
  6
CONTINUOUS
 10
45.7815667123
 20
-37.3792977255
 11
45.7368149237
 21
-37.6496566314
  0
LINE
  5
512
100
AcDbEntity
  8
RACCORDO
100
AcDbLine
 62
7
  6
CONTINUOUS
 10
45.0093476306
 20
-24.1029527027
 11
45.0143755386
 21
-24.0928961209
  0
LINE
  5
513
100
AcDbEntity
  8
RACCORDO
100
AcDbLine
 62
7
  6
CONTINUOUS
 10
66.2524029771
 20
-23.2656116227
 11
66.291424784
 21
-23.2461022052
  0
LINE
  5
514
100
AcDbEntity
  8
RACCORDO
100
AcDbLine
 62
7
  6
CONTINUOUS
 10
66.2524029771
 20
23.2656116227
 11
66.291424784
 21
23.2461022052
  0
LINE
  5
515
100
AcDbEntity
  8
0
100
AcDbLine
 62
7
  6
CONTINUOUS
 10
33.4895831347
 20
31.8829787076
 11
33.2291668653
 21
32.0425531566
  0
LINE
  5
516
100
AcDbEntity
  8
0
100
AcDbLine
 62
7
  6
CONTINUOUS
 10
30.8333331347
 20
32.6808511019
 11
30.9895831347
 21
32.5744681358
  0
LINE
  5
517
100
AcDbEntity
  8
0
100
AcDbLine
 62
7
  6
CONTINUOUS
 10
33.1770831347
 20
31.7765957415
 11
33.3333331347
 21
31.6702127755
  0
LINE
  5
518
100
AcDbEntity
  8
RACCORDO
100
AcDbLine
 62
253
  6
CONTINUOUS
 10
45.0888189223
 20
18.9051603601
 11
45.153341736
 21
18.8406375464
  0
LINE
  5
519
100
AcDbEntity
  8
RACCORDO
100
AcDbLine
 62
253
  6
CONTINUOUS
 10
45.192675239
 20
19.0012735824
 11
45.2533265055
 21
18.940622316
  0
LINE
  5
51A
100
AcDbEntity
  8
0
100
AcDbLine
 62
7
  6
CONTINUOUS
 10
31.0416668653
 20
31.6702127755
 11
31.1458331347
 21
31.5638298094
  0
LINE
  5
51B
100
AcDbEntity
  8
0
100
AcDbLine
 62
7
  6
CONTINUOUS
 10
31.3541668653
 20
31.7234042585
 11
31.1979168653
 21
31.8829787076
  0
LINE
  5
51C
100
AcDbEntity
  8
0
100
AcDbLine
 62
7
  6
CONTINUOUS
 10
31.3020831347
 20
32.5744681358
 11
31.1458331347
 21
32.7872340679
  0
LINE
  5
51D
100
AcDbEntity
  8
0
100
AcDbLine
 62
7
  6
CONTINUOUS
 10
33.6458331347
 20
31.6702127755
 11
33.4895831347
 21
31.8829787076
  0
LINE
  5
51E
100
AcDbEntity
  8
0
100
AcDbLine
 62
7
  6
CONTINUOUS
 10
33.3333331347
 20
31.6702127755
 11
33.4375
 21
31.5106383264
  0
LINE
  5
51F
100
AcDbEntity
  8
RACCORDO
100
AcDbLine
 62
7
  6
CONTINUOUS
 10
45.0143755386
 20
24.0928961209
 11
45.0093476306
 21
24.1029527027
  0
LINE
  5
520
100
AcDbEntity
  8
RACCORDO
100
AcDbLine
 62
7
  6
CONTINUOUS
 10
45.7368149237
 20
37.6496566314
 11
45.7815667122
 21
37.3792977272
  0
LINE
  5
521
100
AcDbEntity
  8
RACCORDO
100
AcDbLine
 62
253
  6
CONTINUOUS
 10
58.65
 20
0.3021946362
 11
58.65
 21
-0.3021946362
  0
LINE
  5
522
100
AcDbEntity
  8
RACCORDO
100
AcDbLine
 62
7
  6
CONTINUOUS
 10
45.7648496918
 20
-34.8939261933
 11
45.7411022052
 21
-34.941424784
  0
LINE
  5
523
100
AcDbEntity
  8
RACCORDO
100
AcDbLine
 62
7
  6
CONTINUOUS
 10
45.7648496918
 20
34.8939261933
 11
45.7411022052
 21
34.941424784
  0
LINE
  5
524
100
AcDbEntity
  8
RACCORDO
100
AcDbLine
 62
253
  6
CONTINUOUS
 10
59.0450974746
 20
0.2992487411
 11
59.0450974746
 21
-0.2992487411
  0
LINE
  5
525
100
AcDbEntity
  8
DRAFT
100
AcDbLine
 62
7
  6
CONTINUOUS
 10
65.95
 20
-17.1298310093
 11
65.95
 21
-17.8701689907
  0
LINE
  5
526
100
AcDbEntity
  8
DRAFT
100
AcDbLine
 62
7
  6
CONTINUOUS
 10
65.95
 20
-19.7298310093
 11
65.95
 21
-20.4589472606
  0
LINE
  5
527
100
AcDbEntity
  8
DRAFT
100
AcDbLine
 62
7
  6
CONTINUOUS
 10
65.95
 20
-15.2701689907
 11
65.95
 21
-14.5410527394
  0
LINE
  5
528
100
AcDbEntity
  8
DRAFT
100
AcDbLine
 62
7
  6
CONTINUOUS
 10
65.95
 20
14.5410527394
 11
65.95
 21
15.2701689907
  0
LINE
  5
529
100
AcDbEntity
  8
DRAFT
100
AcDbLine
 62
7
  6
CONTINUOUS
 10
65.95
 20
17.1298310093
 11
65.95
 21
17.8701689907
  0
LINE
  5
52A
100
AcDbEntity
  8
DRAFT
100
AcDbLine
 62
7
  6
CONTINUOUS
 10
65.95
 20
19.7298310093
 11
65.95
 21
20.4589472606
  0
LINE
  5
52B
100
AcDbEntity
  8
RACCORDO
100
AcDbLine
 62
253
  6
CONTINUOUS
 10
66.2565146541
 20
-0.2785559408
 11
66.2565146541
 21
0.2785559408
  0
LINE
  5
52C
100
AcDbEntity
  8
RACCORDO
100
AcDbLine
 62
253
  6
CONTINUOUS
 10
66.291424784
 20
23.2461022052
 11
66.291424784
 21
22.7238977948
  0
LINE
  5
52D
100
AcDbEntity
  8
RACCORDO
100
AcDbLine
 62
253
  6
CONTINUOUS
 10
66.291424784
 20
-22.7238977948
 11
66.291424784
 21
-23.2461022052
  0
LINE
  5
52E
100
AcDbEntity
  8
DRAFT
100
AcDbLine
 62
7
  6
CONTINUOUS
 10
66.6569219382
 20
20.4536400895
 11
66.6569219382
 21
19.723661795
  0
LINE
  5
52F
100
AcDbEntity
  8
DRAFT
100
AcDbLine
 62
7
  6
CONTINUOUS
 10
66.6569219382
 20
17.876338205
 11
66.6569219382
 21
17.123661795
  0
LINE
  5
530
100
AcDbEntity
  8
DRAFT
100
AcDbLine
 62
7
  6
CONTINUOUS
 10
66.6569219382
 20
15.276338205
 11
66.6569219382
 21
14.5463599105
  0
LINE
  5
531
100
AcDbEntity
  8
DRAFT
100
AcDbLine
 62
7
  6
CONTINUOUS
 10
66.6569219382
 20
-20.4536400895
 11
66.6569219382
 21
-19.723661795
  0
LINE
  5
532
100
AcDbEntity
  8
DRAFT
100
AcDbLine
 62
7
  6
CONTINUOUS
 10
66.6569219382
 20
-17.876338205
 11
66.6569219382
 21
-17.123661795
  0
LINE
  5
533
100
AcDbEntity
  8
DRAFT
100
AcDbLine
 62
7
  6
CONTINUOUS
 10
66.6569219382
 20
-15.276338205
 11
66.6569219382
 21
-14.5463599105
  0
LINE
  5
534
100
AcDbEntity
  8
RACCORDO
100
AcDbLine
 62
253
  6
CONTINUOUS
 10
66.7564385017
 20
-0.2742686593
 11
66.7564385017
 21
0.2742686593
  0
LINE
  5
535
100
AcDbEntity
  8
RACCORDO
100
AcDbLine
 62
253
  6
CONTINUOUS
 10
66.7913486316
 20
23.2418149237
 11
66.7913486316
 21
22.7281850763
  0
LINE
  5
536
100
AcDbEntity
  8
RACCORDO
100
AcDbLine
 62
253
  6
CONTINUOUS
 10
66.7913486316
 20
-22.7281850763
 11
66.7913486316
 21
-23.2418149237
  0
LINE
  5
537
100
AcDbEntity
  8
DRAFT
100
AcDbLine
 62
7
  6
CONTINUOUS
 10
67.1
 20
14.5236700543
 11
67.1
 21
14.5
  0
LINE
  5
538
100
AcDbEntity
  8
DRAFT
100
AcDbLine
 62
7
  6
CONTINUOUS
 10
67.1
 20
-20.4763299457
 11
67.1
 21
-20.4981609223
  0
LINE
  5
539
100
AcDbEntity
  8
DRAFT
100
AcDbLine
 62
7
  6
CONTINUOUS
 10
67.1
 20
-14.5236700543
 11
67.1
 21
-14.5
  0
LINE
  5
53A
100
AcDbEntity
  8
DRAFT
100
AcDbLine
 62
7
  6
CONTINUOUS
 10
67.1
 20
20.4763299457
 11
67.1
 21
20.4981609223
  0
LINE
  5
53B
100
AcDbEntity
  8
DRAFT
100
AcDbLine
 62
7
  6
CONTINUOUS
 10
68.0
 20
-19.7119409303
 11
68.0
 21
-17.8880590697
  0
LINE
  5
53C
100
AcDbEntity
  8
DRAFT
100
AcDbLine
 62
7
  6
CONTINUOUS
 10
68.0
 20
-17.1119409303
 11
68.0
 21
-15.2880590697
  0
LINE
  5
53D
100
AcDbEntity
  8
DRAFT
100
AcDbLine
 62
7
  6
CONTINUOUS
 10
68.0
 20
15.2880590697
 11
68.0
 21
17.1119409303
  0
LINE
  5
53E
100
AcDbEntity
  8
DRAFT
100
AcDbLine
 62
7
  6
CONTINUOUS
 10
68.0
 20
17.8880590697
 11
68.0
 21
19.7119409303
  0
ARC
  5
53F
100
AcDbEntity
  8
RACCORDO
100
AcDbCircle
 62
7
  6
CONTINUOUS
 10
-5021.6197929014
 20
-22.2868664661
 40
4976.6033058806
100
AcDbArc
 50
359.8581999034
 51
359.9771523993
  0
ARC
  5
540
100
AcDbEntity
  8
RACCORDO
100
AcDbCircle
 62
7
  6
CONTINUOUS
 10
-4930.3107845142
 20
-22.3249033857
 40
4976.0940796036
100
AcDbArc
 50
359.8586234409
 51
359.977935842
  0
ARC
  5
541
100
AcDbEntity
  8
RACCORDO
100
AcDbCircle
 62
253
  6
CONTINUOUS
 10
-0.0214796717
 20
-1471.8934084033
 40
1509.9675561179
100
AcDbArc
 50
87.43616765
 51
88.261734923
  0
ARC
  5
542
100
AcDbEntity
  8
RACCORDO
100
AcDbCircle
 62
253
  6
CONTINUOUS
 10
-0.0217938274
 20
-1471.8707521154
 40
1509.6680658665
100
AcDbArc
 50
87.4353870454
 51
88.2612842015
  0
ARC
  5
543
100
AcDbEntity
  8
RACCORDO
100
AcDbCircle
 62
253
  6
CONTINUOUS
 10
-0.0003229446
 20
-1471.1294027474
 40
1509.2032590829
100
AcDbArc
 50
88.2906543904
 51
89.9851529175
  0
ARC
  5
544
100
AcDbEntity
  8
RACCORDO
100
AcDbCircle
 62
253
  6
CONTINUOUS
 10
-0.0003286057
 20
-1471.0958234583
 40
1508.8928414897
100
AcDbArc
 50
88.2903963855
 51
89.9850557244
  0
ARC
  5
545
100
AcDbEntity
  8
RACCORDO
100
AcDbCircle
 62
7
  6
CONTINUOUS
 10
0.0
 20
-1360.0
 40
1400.0
100
AcDbArc
 50
87.2242830635
 51
92.7757169365
  0
ARC
  5
546
100
AcDbEntity
  8
DRAFT
100
AcDbCircle
 62
7
  6
CONTINUOUS
 10
0.0
 20
-1360.0
 40
1398.3978042464
100
AcDbArc
 50
88.1533313471
 51
89.9861998684
  0
ARC
  5
547
100
AcDbEntity
  8
DRAFT
100
AcDbCircle
 62
7
  6
CONTINUOUS
 10
0.0
 20
-1360.0
 40
1398.3978042464
100
AcDbArc
 50
90.0138001316
 51
91.8466686529
  0
ARC
  5
548
100
AcDbEntity
  8
RACCORDO
100
AcDbCircle
 62
7
  6
CONTINUOUS
 10
0.0
 20
-1360.0
 40
1398.3978042464
100
AcDbArc
 50
87.2244444521
 51
88.1257165266
  0
ARC
  5
549
100
AcDbEntity
  8
RACCORDO
100
AcDbCircle
 62
7
  6
CONTINUOUS
 10
0.0
 20
-1360.0
 40
1398.3978042464
100
AcDbArc
 50
91.8742834734
 51
92.7755555479
  0
ARC
  5
54A
100
AcDbEntity
  8
RACCORDO
100
AcDbCircle
 62
253
  6
CONTINUOUS
 10
-567.1253448255
 20
-0.0059554842
 40
636.2284765196
100
AcDbArc
 50
2.0978790227
 51
3.2192039219
  0
ARC
  5
54B
100
AcDbEntity
  8
RACCORDO
100
AcDbCircle
 62
253
  6
CONTINUOUS
 10
-567.0973809447
 20
0.0046570197
 40
636.2004838492
100
AcDbArc
 50
356.7807714083
 51
357.9021456471
  0
ARC
  5
54C
100
AcDbEntity
  8
RACCORDO
100
AcDbCircle
 62
253
  6
CONTINUOUS
 10
-566.9580139571
 20
0.0000211645
 40
636.0610373254
100
AcDbArc
 50
358.6936346577
 51
359.9726359363
  0
ARC
  5
54D
100
AcDbEntity
  8
RACCORDO
100
AcDbCircle
 62
253
  6
CONTINUOUS
 10
-566.9560948173
 20
0.0000011733
 40
636.0591181751
100
AcDbArc
 50
0.0273621341
 51
1.3063672719
  0
ARC
  5
54E
100
AcDbEntity
  8
RACCORDO
100
AcDbCircle
 62
253
  6
CONTINUOUS
 10
-566.6163895866
 20
-0.0058526657
 40
635.997249532
100
AcDbArc
 50
2.0984100308
 51
3.220045304
  0
ARC
  5
54F
100
AcDbEntity
  8
RACCORDO
100
AcDbCircle
 62
253
  6
CONTINUOUS
 10
-566.5888303044
 20
0.0045726574
 40
635.969661862
100
AcDbArc
 50
356.7799303676
 51
357.9016142977
  0
ARC
  5
550
100
AcDbEntity
  8
DRAFT
100
AcDbCircle
 62
7
  6
CONTINUOUS
 10
-566.5196782362
 20
0.0017592234
 40
635.8866107934
100
AcDbArc
 50
357.9553440392
 51
358.1526694339
  0
ARC
  5
551
100
AcDbEntity
  8
DRAFT
100
AcDbCircle
 62
7
  6
CONTINUOUS
 10
-566.5165114967
 20
-0.001651627
 40
635.8834422313
100
AcDbArc
 50
1.8473300744
 51
2.0446564525
  0
ARC
  5
552
100
AcDbEntity
  8
RACCORDO
100
AcDbCircle
 62
253
  6
CONTINUOUS
 10
-566.4513617406
 20
0.0000175697
 40
635.8321153749
100
AcDbArc
 50
358.6929415729
 51
359.9728493503
  0
ARC
  5
553
100
AcDbEntity
  8
RACCORDO
100
AcDbCircle
 62
253
  6
CONTINUOUS
 10
-566.4496111039
 20
0.0000028142
 40
635.8303647287
100
AcDbArc
 50
0.0271488876
 51
1.3070601891
  0
ARC
  5
554
100
AcDbEntity
  8
RACCORDO
100
AcDbCircle
 62
7
  6
CONTINUOUS
 10
-528.7499925308
 20
-0.0
 40
599.9999925308
100
AcDbArc
 50
356.5588805829
 51
359.622811832
  0
ARC
  5
555
100
AcDbEntity
  8
RACCORDO
100
AcDbCircle
 62
7
  6
CONTINUOUS
 10
-528.7499925308
 20
-0.0
 40
599.9999925308
100
AcDbArc
 50
0.377188168
 51
3.4411194171
  0
ARC
  5
556
100
AcDbEntity
  8
RACCORDO
100
AcDbCircle
 62
7
  6
CONTINUOUS
 10
-528.7499925308
 20
-0.0
 40
599.8951769722
100
AcDbArc
 50
359.6919702761
 51
0.3080297239
  0
ARC
  5
557
100
AcDbEntity
  8
DRAFT
100
AcDbCircle
 62
7
  6
CONTINUOUS
 10
-528.7499925308
 20
-0.0
 40
598.3977967772
100
AcDbArc
 50
358.3625045881
 51
358.5348159394
  0
ARC
  5
558
100
AcDbEntity
  8
DRAFT
100
AcDbCircle
 62
7
  6
CONTINUOUS
 10
-528.7499925308
 20
-0.0
 40
598.3977967772
100
AcDbArc
 50
1.4651840606
 51
1.6374954119
  0
ARC
  5
559
100
AcDbEntity
  8
DRAFT
100
AcDbCircle
 62
7
  6
CONTINUOUS
 10
-528.7499925308
 20
-0.0
 40
598.3977967772
100
AcDbArc
 50
1.7141662871
 51
1.8866267472
  0
ARC
  5
55A
100
AcDbEntity
  8
DRAFT
100
AcDbCircle
 62
7
  6
CONTINUOUS
 10
-528.7499925308
 20
-0.0
 40
598.3977967772
100
AcDbArc
 50
357.8232834526
 51
358.0412100902
  0
ARC
  5
55B
100
AcDbEntity
  8
DRAFT
100
AcDbCircle
 62
7
  6
CONTINUOUS
 10
-528.7499925308
 20
-0.0
 40
598.3977967772
100
AcDbArc
 50
1.9587899098
 51
2.1767165474
  0
ARC
  5
55C
100
AcDbEntity
  8
RACCORDO
100
AcDbCircle
 62
7
  6
CONTINUOUS
 10
-528.7499925308
 20
-0.0
 40
598.3977967772
100
AcDbArc
 50
356.5592580562
 51
357.7740677683
  0
ARC
  5
55D
100
AcDbEntity
  8
RACCORDO
100
AcDbCircle
 62
7
  6
CONTINUOUS
 10
-528.7499925308
 20
-0.0
 40
598.3977967772
100
AcDbArc
 50
358.6070685091
 51
359.6218019051
  0
ARC
  5
55E
100
AcDbEntity
  8
RACCORDO
100
AcDbCircle
 62
7
  6
CONTINUOUS
 10
-528.7499925308
 20
-0.0
 40
598.3977967772
100
AcDbArc
 50
0.3781980949
 51
1.3929314909
  0
ARC
  5
55F
100
AcDbEntity
  8
RACCORDO
100
AcDbCircle
 62
7
  6
CONTINUOUS
 10
-528.7499925308
 20
-0.0
 40
598.3977967772
100
AcDbArc
 50
2.2259322317
 51
3.4407419438
  0
ARC
  5
560
100
AcDbEntity
  8
DRAFT
100
AcDbCircle
 62
7
  6
CONTINUOUS
 10
-528.7499925308
 20
-0.0
 40
598.3977967772
100
AcDbArc
 50
358.1133732528
 51
358.2858337129
  0
ARC
  5
561
100
AcDbEntity
  8
RACCORDO
100
AcDbCircle
 62
7
  6
CONTINUOUS
 10
-528.7499925308
 20
-0.0
 40
598.2929812187
100
AcDbArc
 50
359.6911453814
 51
359.9737345453
  0
ARC
  5
562
100
AcDbEntity
  8
RACCORDO
100
AcDbCircle
 62
7
  6
CONTINUOUS
 10
-528.7499925308
 20
-0.0
 40
598.2929812187
100
AcDbArc
 50
0.0262654547
 51
0.3088546186
  0
ARC
  5
563
100
AcDbEntity
  8
DRAFT
100
AcDbCircle
 62
7
  6
CONTINUOUS
 10
-0.0222105503
 20
-685.4952209962
 40
711.128009618
100
AcDbArc
 50
90.0304386014
 51
93.6269960018
  0
ARC
  5
564
100
AcDbEntity
  8
DRAFT
100
AcDbCircle
 62
7
  6
CONTINUOUS
 10
-23.6996225399
 20
-0.0003120839
 40
77.461424947
100
AcDbArc
 50
0.0002308402
 51
0.2237552744
  0
ARC
  5
565
100
AcDbEntity
  8
DRAFT
100
AcDbCircle
 62
7
  6
CONTINUOUS
 10
-23.6996225311
 20
0.0003120839
 40
77.4614249382
100
AcDbArc
 50
359.7762447256
 51
359.9997691629
  0
ARC
  5
566
100
AcDbEntity
  8
RACCORDO
100
AcDbCircle
 62
7
  6
CONTINUOUS
 10
-43.1747614549
 20
-46.8215927377
 40
70.824076524
100
AcDbArc
 50
91.4903206309
 51
92.1105445639
  0
ARC
  5
567
100
AcDbEntity
  8
RACCORDO
100
AcDbCircle
 62
7
  6
CONTINUOUS
 10
-23.4579944922
 20
-20.0004903848
 40
69.9957630788
100
AcDbArc
 50
357.3079093423
 51
357.8047409228
  0
ARC
  5
568
100
AcDbEntity
  8
0
100
AcDbCircle
 62
7
  6
CONTINUOUS
 10
-17.5
 20
-31.75
 40
2.6237424326
100
AcDbArc
 50
292.0885393584
 51
273.4297246723
  0
ARC
  5
569
100
AcDbEntity
  8
0
100
AcDbCircle
 62
7
  6
CONTINUOUS
 10
-24.082444
 20
-31.75
 40
2.5499986575
100
AcDbArc
 50
87.752529198
 51
272.247470802
  0
ARC
  5
56A
100
AcDbEntity
  8
0
100
AcDbCircle
 62
7
  6
CONTINUOUS
 10
-28.467554
 20
-31.75
 40
2.5499985399
100
AcDbArc
 50
87.7525290943
 51
272.2474709057
  0
ARC
  5
56B
100
AcDbEntity
  8
RACCORDO
100
AcDbCircle
 62
7
  6
CONTINUOUS
 10
-67.6772041463
 20
-35.8648909169
 40
2.4954022756
100
AcDbArc
 50
183.417750206
 51
267.2476522746
  0
ARC
  5
56C
100
AcDbEntity
  8
0
100
AcDbCircle
 62
7
  6
CONTINUOUS
 10
-17.579357
 20
-36.696093
 40
2.3390187052
100
AcDbArc
 50
47.2312712626
 51
84.2012841963
  0
ARC
  5
56D
100
AcDbEntity
  8
0
100
AcDbCircle
 62
7
  6
CONTINUOUS
 10
-17.395278
 20
-36.317224
 40
2.3109495123
100
AcDbArc
 50
45.4348886633
 51
67.5658613447
  0
CIRCLE
  5
56E
100
AcDbEntity
  8
0
100
AcDbCircle
 62
7
  6
CONTINUOUS
 10
-17.5
 20
-31.75
 40
2.20376
  0
ARC
  5
56F
100
AcDbEntity
  8
0
100
AcDbCircle
 62
7
  6
CONTINUOUS
 10
-17.5
 20
-31.75
 40
1.9709567246
100
AcDbArc
 50
299.3041457634
 51
44.9957848293
  0
ARC
  5
570
100
AcDbEntity
  8
0
100
AcDbCircle
 62
7
  6
CONTINUOUS
 10
-17.5
 20
-31.75
 40
1.9709563643
100
AcDbArc
 50
134.9002846268
 51
240.6958542366
  0
ARC
  5
571
100
AcDbEntity
  8
0
100
AcDbCircle
 62
7
  6
CONTINUOUS
 10
-24.082444
 20
-31.75
 40
1.7999999246
100
AcDbArc
 50
86.8152613297
 51
167.9753003079
  0
ARC
  5
572
100
AcDbEntity
  8
0
100
AcDbCircle
 62
7
  6
CONTINUOUS
 10
-28.467554
 20
-31.75
 40
1.7999999246
100
AcDbArc
 50
86.8152613297
 51
273.1847386703
  0
ARC
  5
573
100
AcDbEntity
  8
0
100
AcDbCircle
 62
7
  6
CONTINUOUS
 10
-24.082444
 20
-31.75
 40
1.7999968808
100
AcDbArc
 50
192.0247203293
 51
273.1847440612
  0
ARC
  5
574
100
AcDbEntity
  8
0
100
AcDbCircle
 62
7
  6
CONTINUOUS
 10
-17.5
 20
-31.75
 40
1.5790921275
100
AcDbArc
 50
148.0267086216
 51
240.6958772397
  0
ARC
  5
575
100
AcDbEntity
  8
0
100
AcDbCircle
 62
7
  6
CONTINUOUS
 10
-17.5
 20
-31.75
 40
1.5790919977
100
AcDbArc
 50
299.3041227603
 51
31.9732907039
  0
ARC
  5
576
100
AcDbEntity
  8
0
100
AcDbCircle
 62
7
  6
CONTINUOUS
 10
-40.5
 20
-35.0
 40
1.0
100
AcDbArc
 50
180.0
 51
270.0
  0
ARC
  5
577
100
AcDbEntity
  8
0
100
AcDbCircle
 62
7
  6
CONTINUOUS
 10
-4.5
 20
-35.0
 40
1.0
100
AcDbArc
 50
270.0
 51
360.0
  0
ARC
  5
578
100
AcDbEntity
  8
0
100
AcDbCircle
 62
7
  6
CONTINUOUS
 10
-4.5
 20
-28.5
 40
1.0
100
AcDbArc
 50
0.0
 51
90.0
  0
ARC
  5
579
100
AcDbEntity
  8
0
100
AcDbCircle
 62
7
  6
CONTINUOUS
 10
-40.5
 20
-28.5
 40
1.0
100
AcDbArc
 50
90.0
 51
180.0
  0
ARC
  5
57A
100
AcDbEntity
  8
RACCORDO
100
AcDbCircle
 62
7
  6
CONTINUOUS
 10
-67.6723740837
 20
-35.8600044387
 40
0.898344699
100
AcDbArc
 50
183.4173686507
 51
267.2478177452
  0
ARC
  5
57B
100
AcDbEntity
  8
RACCORDO
100
AcDbCircle
 62
253
  6
CONTINUOUS
 10
-67.4819161045
 20
-35.6673371403
 40
0.8962525519
100
AcDbArc
 50
183.2807160602
 51
267.3747046685
  0
ARC
  5
57C
100
AcDbEntity
  8
RACCORDO
100
AcDbCircle
 62
253
  6
CONTINUOUS
 10
-44.6889220971
 20
-22.1889220971
 40
0.6998494789
100
AcDbArc
 50
179.9965408262
 51
270.0034591738
  0
ARC
  5
57D
100
AcDbEntity
  8
RACCORDO
100
AcDbCircle
 62
253
  6
CONTINUOUS
 10
-45.9928534896
 20
-23.4928534896
 40
0.6000430672
100
AcDbArc
 50
180.0127965053
 51
269.9872034947
  0
ARC
  5
57E
100
AcDbEntity
  8
RACCORDO
100
AcDbCircle
 62
253
  6
CONTINUOUS
 10
-44.6890317326
 20
-22.1890317329
 40
0.3997848959
100
AcDbArc
 50
179.9783212514
 51
270.0219188545
  0
ARC
  5
57F
100
AcDbEntity
  8
RACCORDO
100
AcDbCircle
 62
253
  6
CONTINUOUS
 10
-45.9929996979
 20
-23.4929996979
 40
0.1999569312
100
AcDbArc
 50
179.9965059089
 51
270.0034940911
  0
ARC
  5
580
100
AcDbEntity
  8
RACCORDO
100
AcDbCircle
 62
253
  6
CONTINUOUS
 10
-45.25336335
 20
-18.840600702
 40
0.1000217992
100
AcDbArc
 50
270.0211057704
 51
359.9788942296
  0
ARC
  5
581
100
AcDbEntity
  8
RACCORDO
100
AcDbCircle
 62
253
  6
CONTINUOUS
 10
-45.2533633214
 20
-14.1593992694
 40
0.1000217992
100
AcDbArc
 50
0.021089386
 51
89.978910614
  0
ARC
  5
582
100
AcDbEntity
  8
RACCORDO
100
AcDbCircle
 62
253
  6
CONTINUOUS
 10
-46.42663665
 20
-18.840600702
 40
0.1000217992
100
AcDbArc
 50
180.0211057704
 51
269.9788942296
  0
ARC
  5
583
100
AcDbEntity
  8
RACCORDO
100
AcDbCircle
 62
253
  6
CONTINUOUS
 10
-46.42663665
 20
-14.159399298
 40
0.1000217992
100
AcDbArc
 50
90.0211057704
 51
179.9788942296
  0
ARC
  5
584
100
AcDbEntity
  8
RACCORDO
100
AcDbCircle
 62
7
  6
CONTINUOUS
 10
-5029.8530703428
 20
22.182927252
 40
5075.6364137833
100
AcDbArc
 50
0.023234307
 51
0.1402065929
  0
ARC
  5
585
100
AcDbEntity
  8
RACCORDO
100
AcDbCircle
 62
7
  6
CONTINUOUS
 10
-5116.679200843
 20
22.1502829036
 40
5071.6627616891
100
AcDbArc
 50
0.0239623794
 51
0.1406853179
  0
ARC
  5
586
100
AcDbEntity
  8
RACCORDO
100
AcDbCircle
 62
253
  6
CONTINUOUS
 10
-0.0264510778
 20
1472.0257655878
 40
1510.1000031967
100
AcDbArc
 50
271.7383012818
 51
272.5637961451
  0
ARC
  5
587
100
AcDbEntity
  8
RACCORDO
100
AcDbCircle
 62
253
  6
CONTINUOUS
 10
-0.0268330894
 20
1472.0048774491
 40
1509.8022823468
100
AcDbArc
 50
271.7387525089
 51
272.5645762442
  0
ARC
  5
588
100
AcDbEntity
  8
RACCORDO
100
AcDbCircle
 62
253
  6
CONTINUOUS
 10
-0.0016194559
 20
1471.2155636756
 40
1509.2894203447
100
AcDbArc
 50
270.0148954532
 51
271.7092972388
  0
ARC
  5
589
100
AcDbEntity
  8
RACCORDO
100
AcDbCircle
 62
253
  6
CONTINUOUS
 10
-0.0016437795
 20
1471.1832066094
 40
1508.9802249815
100
AcDbArc
 50
270.0149933471
 51
271.709554543
  0
ARC
  5
58A
100
AcDbEntity
  8
RACCORDO
100
AcDbCircle
 62
7
  6
CONTINUOUS
 10
-0.0
 20
1360.0
 40
1400.0
100
AcDbArc
 50
267.2242830635
 51
272.7757169365
  0
ARC
  5
58B
100
AcDbEntity
  8
RACCORDO
100
AcDbCircle
 62
7
  6
CONTINUOUS
 10
-0.0
 20
1360.0
 40
1398.3978042464
100
AcDbArc
 50
267.2244444521
 51
268.1257165266
  0
ARC
  5
58C
100
AcDbEntity
  8
DRAFT
100
AcDbCircle
 62
7
  6
CONTINUOUS
 10
-0.0
 20
1360.0
 40
1398.3978042464
100
AcDbArc
 50
270.0138001316
 51
271.8466686529
  0
ARC
  5
58D
100
AcDbEntity
  8
RACCORDO
100
AcDbCircle
 62
7
  6
CONTINUOUS
 10
-0.0
 20
1360.0
 40
1398.3978042464
100
AcDbArc
 50
271.8742834734
 51
272.7755555479
  0
ARC
  5
58E
100
AcDbEntity
  8
DRAFT
100
AcDbCircle
 62
7
  6
CONTINUOUS
 10
-0.0
 20
1360.0
 40
1398.3978042464
100
AcDbArc
 50
268.1533313471
 51
269.9861998684
  0
ARC
  5
58F
100
AcDbEntity
  8
DRAFT
100
AcDbCircle
 62
7
  6
CONTINUOUS
 10
-0.0222105503
 20
685.4952209962
 40
711.128009618
100
AcDbArc
 50
266.3730039982
 51
269.9695613986
  0
ARC
  5
590
100
AcDbEntity
  8
RACCORDO
100
AcDbCircle
 62
7
  6
CONTINUOUS
 10
-43.1747614549
 20
46.8215927382
 40
70.8240765244
100
AcDbArc
 50
267.8894554361
 51
268.5096793691
  0
ARC
  5
591
100
AcDbEntity
  8
RACCORDO
100
AcDbCircle
 62
7
  6
CONTINUOUS
 10
-23.4579944931
 20
20.0004903848
 40
69.9957630798
100
AcDbArc
 50
2.1952590772
 51
2.6920906577
  0
ARC
  5
592
100
AcDbEntity
  8
RACCORDO
100
AcDbCircle
 62
7
  6
CONTINUOUS
 10
-67.6772038986
 20
35.8648906663
 40
2.4954022756
100
AcDbArc
 50
92.7523531291
 51
176.5822443903
  0
ARC
  5
593
100
AcDbEntity
  8
0
100
AcDbCircle
 62
7
  6
CONTINUOUS
 10
-40.5
 20
35.0
 40
1.0
100
AcDbArc
 50
90.0
 51
180.0
  0
ARC
  5
594
100
AcDbEntity
  8
0
100
AcDbCircle
 62
7
  6
CONTINUOUS
 10
-40.5
 20
28.5
 40
1.0
100
AcDbArc
 50
180.0
 51
270.0
  0
ARC
  5
595
100
AcDbEntity
  8
0
100
AcDbCircle
 62
7
  6
CONTINUOUS
 10
-4.5
 20
28.5
 40
1.0
100
AcDbArc
 50
270.0
 51
360.0
  0
ARC
  5
596
100
AcDbEntity
  8
0
100
AcDbCircle
 62
7
  6
CONTINUOUS
 10
-4.5
 20
35.0
 40
1.0
100
AcDbArc
 50
0.0
 51
90.0
  0
ARC
  5
597
100
AcDbEntity
  8
RACCORDO
100
AcDbCircle
 62
7
  6
CONTINUOUS
 10
-67.6723739944
 20
35.8600043484
 40
0.898344699
100
AcDbArc
 50
92.7521876681
 51
176.582625936
  0
ARC
  5
598
100
AcDbEntity
  8
RACCORDO
100
AcDbCircle
 62
253
  6
CONTINUOUS
 10
-67.4819160571
 20
35.6673370918
 40
0.8962525609
100
AcDbArc
 50
92.6252982154
 51
176.7195435885
  0
ARC
  5
599
100
AcDbEntity
  8
RACCORDO
100
AcDbCircle
 62
253
  6
CONTINUOUS
 10
-44.6889220302
 20
22.1889220302
 40
0.6998494789
100
AcDbArc
 50
89.9965462982
 51
180.0034537018
  0
ARC
  5
59A
100
AcDbEntity
  8
RACCORDO
100
AcDbCircle
 62
253
  6
CONTINUOUS
 10
-45.9928534896
 20
23.4928534896
 40
0.6000430672
100
AcDbArc
 50
90.0127965053
 51
179.9872034947
  0
ARC
  5
59B
100
AcDbEntity
  8
RACCORDO
100
AcDbCircle
 62
253
  6
CONTINUOUS
 10
-44.6890317329
 20
22.1890317326
 40
0.3997848959
100
AcDbArc
 50
89.9783212514
 51
180.0219188545
  0
ARC
  5
59C
100
AcDbEntity
  8
RACCORDO
100
AcDbCircle
 62
253
  6
CONTINUOUS
 10
-45.9929997261
 20
23.4929997261
 40
0.1999569312
100
AcDbArc
 50
89.9964978045
 51
180.0035021955
  0
ARC
  5
59D
100
AcDbEntity
  8
RACCORDO
100
AcDbCircle
 62
253
  6
CONTINUOUS
 10
0.0214796766
 20
-1471.8934085352
 40
1509.9675562499
100
AcDbArc
 50
91.738265077
 51
92.5638323499
  0
ARC
  5
59E
100
AcDbEntity
  8
RACCORDO
100
AcDbCircle
 62
253
  6
CONTINUOUS
 10
0.0217938697
 20
-1471.8707532417
 40
1509.6680669936
100
AcDbArc
 50
91.7387157988
 51
92.5646129543
  0
ARC
  5
59F
100
AcDbEntity
  8
RACCORDO
100
AcDbCircle
 62
253
  6
CONTINUOUS
 10
0.001619456
 20
-1471.2155636775
 40
1509.2894203466
100
AcDbArc
 50
90.0148954532
 51
91.7092972388
  0
ARC
  5
5A0
100
AcDbEntity
  8
RACCORDO
100
AcDbCircle
 62
253
  6
CONTINUOUS
 10
0.0016437795
 20
-1471.1832066095
 40
1508.9802249815
100
AcDbArc
 50
90.0149933471
 51
91.709554543
  0
ARC
  5
5A1
100
AcDbEntity
  8
DRAFT
100
AcDbCircle
 62
7
  6
CONTINUOUS
 10
0.0222105503
 20
-685.4952209962
 40
711.128009618
100
AcDbArc
 50
86.3730039982
 51
89.9695613986
  0
ARC
  5
5A2
100
AcDbEntity
  8
DRAFT
100
AcDbCircle
 62
7
  6
CONTINUOUS
 10
23.6996225398
 20
0.000312084
 40
77.461424947
100
AcDbArc
 50
180.0002308419
 51
180.2237552744
  0
ARC
  5
5A3
100
AcDbEntity
  8
DRAFT
100
AcDbCircle
 62
7
  6
CONTINUOUS
 10
23.6996225378
 20
-0.0003120839
 40
77.461424945
100
AcDbArc
 50
179.7762447256
 51
179.9997691645
  0
ARC
  5
5A4
100
AcDbEntity
  8
RACCORDO
100
AcDbCircle
 62
7
  6
CONTINUOUS
 10
43.1747614549
 20
-46.8215927377
 40
70.824076524
100
AcDbArc
 50
87.8894554361
 51
88.5096793691
  0
ARC
  5
5A5
100
AcDbEntity
  8
RACCORDO
100
AcDbCircle
 62
7
  6
CONTINUOUS
 10
23.4579944922
 20
-20.0004903848
 40
69.9957630788
100
AcDbArc
 50
182.1952590772
 51
182.6920906577
  0
ARC
  5
5A6
100
AcDbEntity
  8
RACCORDO
100
AcDbCircle
 62
7
  6
CONTINUOUS
 10
67.6772041463
 20
-35.8648909169
 40
2.4954022756
100
AcDbArc
 50
272.7523477254
 51
356.5822497939
  0
ARC
  5
5A7
100
AcDbEntity
  8
0
100
AcDbCircle
 62
7
  6
CONTINUOUS
 10
4.5
 20
-35.0
 40
1.0
100
AcDbArc
 50
180.0
 51
270.0
  0
ARC
  5
5A8
100
AcDbEntity
  8
0
100
AcDbCircle
 62
7
  6
CONTINUOUS
 10
40.5
 20
-35.0
 40
1.0
100
AcDbArc
 50
270.0
 51
360.0
  0
ARC
  5
5A9
100
AcDbEntity
  8
0
100
AcDbCircle
 62
7
  6
CONTINUOUS
 10
40.5
 20
-28.5
 40
1.0
100
AcDbArc
 50
0.0
 51
90.0
  0
ARC
  5
5AA
100
AcDbEntity
  8
0
100
AcDbCircle
 62
7
  6
CONTINUOUS
 10
4.5
 20
-28.5
 40
1.0
100
AcDbArc
 50
90.0
 51
180.0
  0
ARC
  5
5AB
100
AcDbEntity
  8
RACCORDO
100
AcDbCircle
 62
7
  6
CONTINUOUS
 10
67.6723740837
 20
-35.8600044387
 40
0.898344699
100
AcDbArc
 50
272.7521822549
 51
356.5826313492
  0
ARC
  5
5AC
100
AcDbEntity
  8
RACCORDO
100
AcDbCircle
 62
253
  6
CONTINUOUS
 10
67.4819161041
 20
-35.6673371407
 40
0.8962525519
100
AcDbArc
 50
272.6252953694
 51
356.7192840307
  0
ARC
  5
5AD
100
AcDbEntity
  8
RACCORDO
100
AcDbCircle
 62
253
  6
CONTINUOUS
 10
44.6889220971
 20
-22.1889220971
 40
0.6998494789
100
AcDbArc
 50
269.9965408262
 51
0.0034591738
  0
ARC
  5
5AE
100
AcDbEntity
  8
RACCORDO
100
AcDbCircle
 62
253
  6
CONTINUOUS
 10
45.9928535132
 20
-23.4928535132
 40
0.6000430672
100
AcDbArc
 50
270.0127942529
 51
359.9872057471
  0
ARC
  5
5AF
100
AcDbEntity
  8
RACCORDO
100
AcDbCircle
 62
253
  6
CONTINUOUS
 10
44.6890316897
 20
-22.1890316894
 40
0.3997848959
100
AcDbArc
 50
269.9783274451
 51
0.0219126607
  0
ARC
  5
5B0
100
AcDbEntity
  8
RACCORDO
100
AcDbCircle
 62
253
  6
CONTINUOUS
 10
45.9929996979
 20
-23.4929996979
 40
0.1999569312
100
AcDbArc
 50
269.9965059089
 51
0.0034940911
  0
ARC
  5
5B1
100
AcDbEntity
  8
RACCORDO
100
AcDbCircle
 62
253
  6
CONTINUOUS
 10
567.1253448588
 20
-0.0059554857
 40
636.228476553
100
AcDbArc
 50
176.7807960782
 51
177.9021209773
  0
ARC
  5
5B2
100
AcDbEntity
  8
RACCORDO
100
AcDbCircle
 62
253
  6
CONTINUOUS
 10
567.1253448269
 20
0.0059554842
 40
636.228476521
100
AcDbArc
 50
182.0978790227
 51
183.2192039219
  0
ARC
  5
5B3
100
AcDbEntity
  8
RACCORDO
100
AcDbCircle
 62
253
  6
CONTINUOUS
 10
567.038687088
 20
0.0023431157
 40
636.141744655
100
AcDbArc
 50
181.8466571327
 51
182.0438730978
  0
ARC
  5
5B4
100
AcDbEntity
  8
RACCORDO
100
AcDbCircle
 62
253
  6
CONTINUOUS
 10
567.0386268923
 20
-0.0023410712
 40
636.1416844247
100
AcDbArc
 50
177.9561268929
 51
178.1533428767
  0
ARC
  5
5B5
100
AcDbEntity
  8
RACCORDO
100
AcDbCircle
 62
253
  6
CONTINUOUS
 10
566.9580139556
 20
-0.0000211645
 40
636.0610373238
100
AcDbArc
 50
178.6936346577
 51
179.9726359363
  0
ARC
  5
5B6
100
AcDbEntity
  8
RACCORDO
100
AcDbCircle
 62
253
  6
CONTINUOUS
 10
566.9560948171
 20
-0.0000011733
 40
636.0591181748
100
AcDbArc
 50
180.0273621341
 51
181.3063672719
  0
ARC
  5
5B7
100
AcDbEntity
  8
RACCORDO
100
AcDbCircle
 62
253
  6
CONTINUOUS
 10
566.6163895833
 20
0.0058526655
 40
635.9972495287
100
AcDbArc
 50
182.0984100308
 51
183.220045304
  0
ARC
  5
5B8
100
AcDbEntity
  8
RACCORDO
100
AcDbCircle
 62
253
  6
CONTINUOUS
 10
566.6163690984
 20
-0.0058516699
 40
635.9972290211
100
AcDbArc
 50
176.7799550525
 51
177.9015899913
  0
ARC
  5
5B9
100
AcDbEntity
  8
RACCORDO
100
AcDbCircle
 62
253
  6
CONTINUOUS
 10
566.513506977
 20
0.0017052784
 40
635.8942840436
100
AcDbArc
 50
181.8470956823
 51
182.0448342969
  0
ARC
  5
5BA
100
AcDbEntity
  8
RACCORDO
100
AcDbCircle
 62
253
  6
CONTINUOUS
 10
566.5135005116
 20
-0.0017050587
 40
635.8942775745
100
AcDbArc
 50
177.9551657021
 51
178.1529043187
  0
ARC
  5
5BB
100
AcDbEntity
  8
RACCORDO
100
AcDbCircle
 62
253
  6
CONTINUOUS
 10
566.4513617397
 20
-0.0000175697
 40
635.832115374
100
AcDbArc
 50
178.6929415729
 51
179.9728493503
  0
ARC
  5
5BC
100
AcDbEntity
  8
RACCORDO
100
AcDbCircle
 62
253
  6
CONTINUOUS
 10
566.4496111067
 20
-0.0000028142
 40
635.8303647315
100
AcDbArc
 50
180.0271488876
 51
181.3070601891
  0
ARC
  5
5BD
100
AcDbEntity
  8
RACCORDO
100
AcDbCircle
 62
7
  6
CONTINUOUS
 10
528.7499925308
 20
0.0
 40
599.9999925308
100
AcDbArc
 50
180.377188168
 51
183.4411194171
  0
ARC
  5
5BE
100
AcDbEntity
  8
RACCORDO
100
AcDbCircle
 62
7
  6
CONTINUOUS
 10
528.7499925308
 20
0.0
 40
599.9999925308
100
AcDbArc
 50
176.5588805829
 51
179.622811832
  0
ARC
  5
5BF
100
AcDbEntity
  8
RACCORDO
100
AcDbCircle
 62
7
  6
CONTINUOUS
 10
528.7499925308
 20
0.0
 40
599.8951769722
100
AcDbArc
 50
179.6919702761
 51
180.3080297239
  0
ARC
  5
5C0
100
AcDbEntity
  8
DRAFT
100
AcDbCircle
 62
7
  6
CONTINUOUS
 10
528.7499925308
 20
0.0
 40
598.3977967772
100
AcDbArc
 50
178.1133732528
 51
178.2858337129
  0
ARC
  5
5C1
100
AcDbEntity
  8
RACCORDO
100
AcDbCircle
 62
7
  6
CONTINUOUS
 10
528.7499925308
 20
0.0
 40
598.3977967772
100
AcDbArc
 50
176.5592580562
 51
177.7740677683
  0
ARC
  5
5C2
100
AcDbEntity
  8
DRAFT
100
AcDbCircle
 62
7
  6
CONTINUOUS
 10
528.7499925308
 20
0.0
 40
598.3977967772
100
AcDbArc
 50
177.8232834526
 51
178.0412100902
  0
ARC
  5
5C3
100
AcDbEntity
  8
RACCORDO
100
AcDbCircle
 62
7
  6
CONTINUOUS
 10
528.7499925308
 20
0.0
 40
598.3977967772
100
AcDbArc
 50
178.6070685091
 51
179.6218019051
  0
ARC
  5
5C4
100
AcDbEntity
  8
RACCORDO
100
AcDbCircle
 62
7
  6
CONTINUOUS
 10
528.7499925308
 20
0.0
 40
598.3977967772
100
AcDbArc
 50
182.2259322317
 51
183.4407419438
  0
ARC
  5
5C5
100
AcDbEntity
  8
RACCORDO
100
AcDbCircle
 62
7
  6
CONTINUOUS
 10
528.7499925308
 20
0.0
 40
598.3977967772
100
AcDbArc
 50
180.3781980949
 51
181.3929314909
  0
ARC
  5
5C6
100
AcDbEntity
  8
DRAFT
100
AcDbCircle
 62
7
  6
CONTINUOUS
 10
528.7499925308
 20
0.0
 40
598.3977967772
100
AcDbArc
 50
181.9587899098
 51
182.1767165474
  0
ARC
  5
5C7
100
AcDbEntity
  8
DRAFT
100
AcDbCircle
 62
7
  6
CONTINUOUS
 10
528.7499925308
 20
0.0
 40
598.3977967772
100
AcDbArc
 50
178.3625045881
 51
178.5348159394
  0
ARC
  5
5C8
100
AcDbEntity
  8
DRAFT
100
AcDbCircle
 62
7
  6
CONTINUOUS
 10
528.7499925308
 20
0.0
 40
598.3977967772
100
AcDbArc
 50
181.4651840606
 51
181.6374954119
  0
ARC
  5
5C9
100
AcDbEntity
  8
DRAFT
100
AcDbCircle
 62
7
  6
CONTINUOUS
 10
528.7499925308
 20
0.0
 40
598.3977967772
100
AcDbArc
 50
181.7141662871
 51
181.8866267472
  0
ARC
  5
5CA
100
AcDbEntity
  8
RACCORDO
100
AcDbCircle
 62
7
  6
CONTINUOUS
 10
528.7499925308
 20
0.0
 40
598.2929812187
100
AcDbArc
 50
179.6911453814
 51
179.9737345453
  0
ARC
  5
5CB
100
AcDbEntity
  8
RACCORDO
100
AcDbCircle
 62
7
  6
CONTINUOUS
 10
528.7499925308
 20
0.0
 40
598.2929812187
100
AcDbArc
 50
180.0262654547
 51
180.3088546186
  0
ARC
  5
5CC
100
AcDbEntity
  8
RACCORDO
100
AcDbCircle
 62
7
  6
CONTINUOUS
 10
5029.8532712859
 20
-22.1829269364
 40
5075.6366147266
100
AcDbArc
 50
180.0232342235
 51
180.1402065909
  0
ARC
  5
5CD
100
AcDbEntity
  8
RACCORDO
100
AcDbCircle
 62
7
  6
CONTINUOUS
 10
5116.6792203204
 20
-22.1502828721
 40
5071.6627811665
100
AcDbArc
 50
180.0239623701
 51
180.1406853177
  0
ARC
  5
5CE
100
AcDbEntity
  8
RACCORDO
100
AcDbCircle
 62
7
  6
CONTINUOUS
 10
5021.6197767041
 20
22.2868665006
 40
4976.6032896832
100
AcDbArc
 50
179.8581999034
 51
179.97715239
  0
ARC
  5
5CF
100
AcDbEntity
  8
RACCORDO
100
AcDbCircle
 62
7
  6
CONTINUOUS
 10
4930.3106121546
 20
22.3249037348
 40
4976.0939072437
100
AcDbArc
 50
179.85862344
 51
179.9779357574
  0
ARC
  5
5D0
100
AcDbEntity
  8
RACCORDO
100
AcDbCircle
 62
253
  6
CONTINUOUS
 10
0.0214796717
 20
1471.8934084047
 40
1509.9675561193
100
AcDbArc
 50
267.43616765
 51
268.261734923
  0
ARC
  5
5D1
100
AcDbEntity
  8
RACCORDO
100
AcDbCircle
 62
253
  6
CONTINUOUS
 10
0.0217938277
 20
1471.8707521237
 40
1509.6680658748
100
AcDbArc
 50
267.4353870454
 51
268.2612842015
  0
ARC
  5
5D2
100
AcDbEntity
  8
RACCORDO
100
AcDbCircle
 62
253
  6
CONTINUOUS
 10
0.0003229446
 20
1471.1294027444
 40
1509.2032590799
100
AcDbArc
 50
268.2906543904
 51
269.9851529175
  0
ARC
  5
5D3
100
AcDbEntity
  8
RACCORDO
100
AcDbCircle
 62
253
  6
CONTINUOUS
 10
0.0003286058
 20
1471.0958234594
 40
1508.8928414908
100
AcDbArc
 50
268.2903963855
 51
269.9850557244
  0
ARC
  5
5D4
100
AcDbEntity
  8
DRAFT
100
AcDbCircle
 62
7
  6
CONTINUOUS
 10
0.0222105503
 20
685.4952209962
 40
711.128009618
100
AcDbArc
 50
270.0304386014
 51
273.6269960018
  0
ARC
  5
5D5
100
AcDbEntity
  8
RACCORDO
100
AcDbCircle
 62
7
  6
CONTINUOUS
 10
43.1747614549
 20
46.8215927381
 40
70.8240765244
100
AcDbArc
 50
271.4903206309
 51
272.1105445639
  0
ARC
  5
5D6
100
AcDbEntity
  8
RACCORDO
100
AcDbCircle
 62
7
  6
CONTINUOUS
 10
23.4579944931
 20
20.0004903848
 40
69.9957630797
100
AcDbArc
 50
177.3079093423
 51
177.8047409228
  0
ARC
  5
5D7
100
AcDbEntity
  8
RACCORDO
100
AcDbCircle
 62
7
  6
CONTINUOUS
 10
67.6772038986
 20
35.8648906663
 40
2.4954022756
100
AcDbArc
 50
3.4177556098
 51
87.2476468708
  0
ARC
  5
5D8
100
AcDbEntity
  8
0
100
AcDbCircle
 62
7
  6
CONTINUOUS
 10
4.5
 20
35.0
 40
1.0
100
AcDbArc
 50
90.0
 51
180.0
  0
ARC
  5
5D9
100
AcDbEntity
  8
0
100
AcDbCircle
 62
7
  6
CONTINUOUS
 10
4.5
 20
28.5
 40
1.0
100
AcDbArc
 50
180.0
 51
270.0
  0
ARC
  5
5DA
100
AcDbEntity
  8
0
100
AcDbCircle
 62
7
  6
CONTINUOUS
 10
40.5
 20
28.5
 40
1.0
100
AcDbArc
 50
270.0
 51
360.0
  0
ARC
  5
5DB
100
AcDbEntity
  8
0
100
AcDbCircle
 62
7
  6
CONTINUOUS
 10
40.5
 20
35.0
 40
1.0
100
AcDbArc
 50
0.0
 51
90.0
  0
ARC
  5
5DC
100
AcDbEntity
  8
RACCORDO
100
AcDbCircle
 62
7
  6
CONTINUOUS
 10
67.6723739944
 20
35.8600043484
 40
0.898344699
100
AcDbArc
 50
3.417374064
 51
87.2478123319
  0
ARC
  5
5DD
100
AcDbEntity
  8
RACCORDO
100
AcDbCircle
 62
253
  6
CONTINUOUS
 10
67.4819160638
 20
35.667337099
 40
0.8962525519
100
AcDbArc
 50
3.280718551
 51
87.3747021895
  0
ARC
  5
5DE
100
AcDbEntity
  8
RACCORDO
100
AcDbCircle
 62
253
  6
CONTINUOUS
 10
44.6889220302
 20
22.1889220302
 40
0.6998494789
100
AcDbArc
 50
359.9965462982
 51
90.0034537018
  0
ARC
  5
5DF
100
AcDbEntity
  8
RACCORDO
100
AcDbCircle
 62
253
  6
CONTINUOUS
 10
45.9928535132
 20
23.4928535132
 40
0.6000430672
100
AcDbArc
 50
0.0127942529
 51
89.9872057471
  0
ARC
  5
5E0
100
AcDbEntity
  8
RACCORDO
100
AcDbCircle
 62
253
  6
CONTINUOUS
 10
44.6890316894
 20
22.1890316897
 40
0.3997848959
100
AcDbArc
 50
359.9783274452
 51
90.0219126607
  0
ARC
  5
5E1
100
AcDbEntity
  8
RACCORDO
100
AcDbCircle
 62
253
  6
CONTINUOUS
 10
45.9929997261
 20
23.4929997261
 40
0.1999569312
100
AcDbArc
 50
359.9964978045
 51
90.0035021955
  0
ARC
  5
5E2
100
AcDbEntity
  8
RACCORDO
100
AcDbCircle
 62
253
  6
CONTINUOUS
 10
46.42663665
 20
14.159399298
 40
0.1000217992
100
AcDbArc
 50
270.0211057704
 51
359.9788942296
  0
ARC
  5
5E3
100
AcDbEntity
  8
RACCORDO
100
AcDbCircle
 62
253
  6
CONTINUOUS
 10
46.4266366786
 20
18.8406007306
 40
0.1000217992
100
AcDbArc
 50
0.021089386
 51
89.978910614
  0
ARC
  5
5E4
100
AcDbEntity
  8
RACCORDO
100
AcDbCircle
 62
253
  6
CONTINUOUS
 10
45.25336335
 20
14.159399298
 40
0.1000217992
100
AcDbArc
 50
180.0211057704
 51
269.9788942296
  0
ARC
  5
5E5
100
AcDbEntity
  8
RACCORDO
100
AcDbCircle
 62
253
  6
CONTINUOUS
 10
45.25336335
 20
18.840600702
 40
0.1000217992
100
AcDbArc
 50
90.0211057704
 51
179.9788942296
  0
SPLINE
  5
5E6
100
AcDbEntity
  8
RACCORDO
100
AcDbSpline
 62
7
  6
CONTINUOUS
 70
0
 71
3
 72
18
 73
14
 74
12
 42
0.0000001
 43
0.0000001
 44
0.0000000001
 12
-0.0019724646
 22
0.2996177399
 32
0.0
 13
0.1528172142
 23
0.2577238439
 33
0.0
 40
0.0
 40
0.0
 40
0.0
 40
0.0
 40
0.1847116475
 40
0.3630812197
 40
0.5289963367
 40
0.6767827628
 40
0.8014133393
 40
0.8536985413
 40
0.8986969437
 40
0.9360453568
 40
0.9654612871
 40
0.986769757
 40
1.0
 40
1.0
 40
1.0
 40
1.0
 10
-71.2369985875
 20
-3.9498766793
 30
0.0
 10
-71.2371200332
 20
-3.9314290505
 30
0.0
 10
-71.2371833266
 20
-3.8951657586
 30
0.0
 10
-71.2367468663
 20
-3.8423333315
 30
0.0
 10
-71.2357986408
 20
-3.7931956519
 30
0.0
 10
-71.2343753287
 20
-3.7494394434
 30
0.0
 10
-71.2327742675
 20
-3.7170460487
 30
0.0
 10
-71.2312292292
 20
-3.6949363084
 30
0.0
 10
-71.2300625914
 20
-3.6815380701
 30
0.0
 10
-71.2288280097
 20
-3.6704476642
 30
0.0
 10
-71.2275622795
 20
-3.6617279808
 30
0.0
 10
-71.2262510703
 20
-3.6554977303
 30
0.0
 10
-71.2252132468
 20
-3.6521548529
 30
0.0
 10
-71.2245393105
 20
-3.6510182698
 30
0.0
 11
-71.2369985875
 21
-3.9498766793
 31
0.0
 11
-71.2370905199
 21
-3.89453267
 31
0.0
 11
-71.2366347594
 21
-3.8410907672
 31
0.0
 11
-71.2356478657
 21
-3.7913883746
 31
0.0
 11
-71.2341651456
 21
-3.7471328113
 31
0.0
 11
-71.232239185
 21
-3.70984017
 31
0.0
 11
-71.231130639
 21
-3.694213527
 31
0.0
 11
-71.2299377523
 21
-3.6807837898
 31
0.0
 11
-71.2286709158
 21
-3.6696652385
 31
0.0
 11
-71.2273411804
 21
-3.6609523996
 31
0.0
 11
-71.2259599567
 21
-3.6547190622
 31
0.0
 11
-71.2245393105
 21
-3.6510182698
 31
0.0
  0
SPLINE
  5
5E7
100
AcDbEntity
  8
RACCORDO
100
AcDbSpline
 62
7
  6
CONTINUOUS
 70
0
 71
3
 72
18
 73
14
 74
12
 42
0.0000001
 43
0.0000001
 44
0.0000000001
 12
-0.1528172142
 22
0.2577238439
 32
0.0
 13
0.0019724646
 23
0.2996177399
 33
0.0
 40
0.0
 40
0.0
 40
0.0
 40
0.0
 40
0.013230243
 40
0.0345387129
 40
0.0639546432
 40
0.1013030563
 40
0.1463014587
 40
0.1985866607
 40
0.3232172372
 40
0.4710036633
 40
0.6369187803
 40
0.8152883525
 40
1.0
 40
1.0
 40
1.0
 40
1.0
 10
-71.2245393105
 20
3.6510182698
 30
0.0
 10
-71.2252132468
 20
3.6521548529
 30
0.0
 10
-71.2262510703
 20
3.6554977303
 30
0.0
 10
-71.2275622795
 20
3.6617279808
 30
0.0
 10
-71.2288280097
 20
3.6704476642
 30
0.0
 10
-71.2300625914
 20
3.6815380701
 30
0.0
 10
-71.2312292292
 20
3.6949363084
 30
0.0
 10
-71.2327742675
 20
3.7170460487
 30
0.0
 10
-71.2343753287
 20
3.7494394434
 30
0.0
 10
-71.2357986408
 20
3.7931956519
 30
0.0
 10
-71.2367468663
 20
3.8423333315
 30
0.0
 10
-71.2371833266
 20
3.8951657586
 30
0.0
 10
-71.2371200332
 20
3.9314290505
 30
0.0
 10
-71.2369985875
 20
3.9498766793
 30
0.0
 11
-71.2245393105
 21
3.6510182698
 31
0.0
 11
-71.2259599567
 21
3.6547190622
 31
0.0
 11
-71.2273411804
 21
3.6609523996
 31
0.0
 11
-71.2286709158
 21
3.6696652385
 31
0.0
 11
-71.2299377523
 21
3.6807837898
 31
0.0
 11
-71.231130639
 21
3.694213527
 31
0.0
 11
-71.232239185
 21
3.70984017
 31
0.0
 11
-71.2341651456
 21
3.7471328113
 31
0.0
 11
-71.2356478657
 21
3.7913883746
 31
0.0
 11
-71.2366347594
 21
3.8410907672
 31
0.0
 11
-71.2370905199
 21
3.89453267
 31
0.0
 11
-71.2369985875
 21
3.9498766793
 31
0.0
  0
SPLINE
  5
5E8
100
AcDbEntity
  8
RACCORDO
100
AcDbSpline
 62
7
  6
CONTINUOUS
 70
0
 71
3
 72
18
 73
14
 74
12
 42
0.0000001
 43
0.0000001
 44
0.0000000001
 12
0.1528172142
 22
-0.2577238439
 32
0.0
 13
-0.0019724646
 23
-0.2996177399
 33
0.0
 40
0.0
 40
0.0
 40
0.0
 40
0.0
 40
0.013230243
 40
0.0345387129
 40
0.0639546432
 40
0.1013030563
 40
0.1463014587
 40
0.1985866607
 40
0.3232172372
 40
0.4710036633
 40
0.6369187803
 40
0.8152883525
 40
1.0
 40
1.0
 40
1.0
 40
1.0
 10
71.2245393105
 20
-3.6510182698
 30
0.0
 10
71.2252132468
 20
-3.6521548529
 30
0.0
 10
71.2262510703
 20
-3.6554977303
 30
0.0
 10
71.2275622795
 20
-3.6617279808
 30
0.0
 10
71.2288280097
 20
-3.6704476642
 30
0.0
 10
71.2300625914
 20
-3.6815380701
 30
0.0
 10
71.2312292292
 20
-3.6949363084
 30
0.0
 10
71.2327742675
 20
-3.7170460487
 30
0.0
 10
71.2343753287
 20
-3.7494394434
 30
0.0
 10
71.2357986408
 20
-3.7931956519
 30
0.0
 10
71.2367468663
 20
-3.8423333315
 30
0.0
 10
71.2371833266
 20
-3.8951657586
 30
0.0
 10
71.2371200332
 20
-3.9314290505
 30
0.0
 10
71.2369985875
 20
-3.9498766793
 30
0.0
 11
71.2245393105
 21
-3.6510182698
 31
0.0
 11
71.2259599567
 21
-3.6547190622
 31
0.0
 11
71.2273411804
 21
-3.6609523996
 31
0.0
 11
71.2286709158
 21
-3.6696652385
 31
0.0
 11
71.2299377523
 21
-3.6807837898
 31
0.0
 11
71.231130639
 21
-3.694213527
 31
0.0
 11
71.232239185
 21
-3.70984017
 31
0.0
 11
71.2341651456
 21
-3.7471328113
 31
0.0
 11
71.2356478657
 21
-3.7913883746
 31
0.0
 11
71.2366347594
 21
-3.8410907672
 31
0.0
 11
71.2370905199
 21
-3.89453267
 31
0.0
 11
71.2369985875
 21
-3.9498766793
 31
0.0
  0
SPLINE
  5
5E9
100
AcDbEntity
  8
RACCORDO
100
AcDbSpline
 62
7
  6
CONTINUOUS
 70
0
 71
3
 72
18
 73
14
 74
12
 42
0.0000001
 43
0.0000001
 44
0.0000000001
 12
0.0019724646
 22
-0.2996177399
 32
0.0
 13
-0.1528172142
 23
-0.2577238439
 33
0.0
 40
0.0
 40
0.0
 40
0.0
 40
0.0
 40
0.1847116475
 40
0.3630812197
 40
0.5289963367
 40
0.6767827628
 40
0.8014133393
 40
0.8536985413
 40
0.8986969437
 40
0.9360453568
 40
0.9654612871
 40
0.986769757
 40
1.0
 40
1.0
 40
1.0
 40
1.0
 10
71.2369985875
 20
3.9498766793
 30
0.0
 10
71.2371200332
 20
3.9314290505
 30
0.0
 10
71.2371833266
 20
3.8951657586
 30
0.0
 10
71.2367468663
 20
3.8423333315
 30
0.0
 10
71.2357986408
 20
3.7931956519
 30
0.0
 10
71.2343753287
 20
3.7494394434
 30
0.0
 10
71.2327742675
 20
3.7170460487
 30
0.0
 10
71.2312292292
 20
3.6949363084
 30
0.0
 10
71.2300625914
 20
3.6815380701
 30
0.0
 10
71.2288280097
 20
3.6704476642
 30
0.0
 10
71.2275622795
 20
3.6617279808
 30
0.0
 10
71.2262510703
 20
3.6554977303
 30
0.0
 10
71.2252132468
 20
3.6521548529
 30
0.0
 10
71.2245393105
 20
3.6510182698
 30
0.0
 11
71.2369985875
 21
3.9498766793
 31
0.0
 11
71.2370905199
 21
3.89453267
 31
0.0
 11
71.2366347594
 21
3.8410907672
 31
0.0
 11
71.2356478657
 21
3.7913883746
 31
0.0
 11
71.2341651456
 21
3.7471328113
 31
0.0
 11
71.232239185
 21
3.70984017
 31
0.0
 11
71.231130639
 21
3.694213527
 31
0.0
 11
71.2299377523
 21
3.6807837898
 31
0.0
 11
71.2286709158
 21
3.6696652385
 31
0.0
 11
71.2273411804
 21
3.6609523996
 31
0.0
 11
71.2259599567
 21
3.6547190622
 31
0.0
 11
71.2245393105
 21
3.6510182698
 31
0.0
  0
SPLINE
  5
5EA
100
AcDbEntity
  8
0
100
AcDbSpline
 62
7
  6
CONTINUOUS
 70
0
 71
3
 72
11
 73
7
 74
5
 42
0.0000001
 43
0.0000001
 44
0.0000000001
 12
0.9661626447
 22
0.0215799465
 32
0.0
 13
-0.0147137984
 23
0.9663341426
 33
0.0
 40
0.0
 40
0.0
 40
0.0
 40
0.0
 40
0.2466920679
 40
0.4757990997
 40
0.7090596741
 40
1.0
 40
1.0
 40
1.0
 40
1.0
 10
-16.762105466
 20
32.0368582931
 30
0.0
 10
-16.6826572458
 20
32.038632827
 30
0.0
 10
-16.5289327859
 20
32.0565987669
 30
0.0
 10
-16.3152946365
 20
32.1548509774
 30
0.0
 10
-16.1649152996
 20
32.3592256674
 30
0.0
 10
-16.1445849039
 20
32.5333797129
 30
0.0
 10
-16.1460118497
 20
32.627094903
 30
0.0
 11
-16.762105466
 21
32.0368582931
 31
0.0
 11
-16.5260382166
 21
32.0701565176
 31
0.0
 11
-16.3280884079
 21
32.1693442243
 31
0.0
 11
-16.1931245314
 21
32.3499007804
 31
0.0
 11
-16.1460118497
 21
32.627094903
 31
0.0
  0
SPLINE
  5
5EB
100
AcDbEntity
  8
0
100
AcDbSpline
 62
7
  6
CONTINUOUS
 70
0
 71
3
 72
11
 73
7
 74
5
 42
0.0000001
 43
0.0000001
 44
0.0000000001
 12
-0.0108419377
 22
0.7120482576
 32
0.0
 13
-0.7074022973
 23
0.0821036437
 33
0.0
 40
0.0
 40
0.0
 40
0.0
 40
0.0
 40
0.2571157798
 40
0.4996528202
 40
0.7437383148
 40
1.0
 40
1.0
 40
1.0
 40
1.0
 10
-16.1460118276
 20
32.6270949034
 30
0.0
 10
-16.1469410387
 20
32.6881211844
 30
0.0
 10
-16.1701054733
 20
32.8079596988
 30
0.0
 10
-16.2698109194
 20
32.9587492283
 30
0.0
 10
-16.4167064512
 20
33.0627757485
 30
0.0
 10
-16.5336227689
 20
33.0952622969
 30
0.0
 10
-16.5940494705
 20
33.1022756363
 30
0.0
 11
-16.1460118276
 21
32.6270949034
 31
0.0
 11
-16.1823846909
 21
32.8065478987
 31
0.0
 11
-16.277300769
 21
32.9508541542
 31
0.0
 11
-16.4185774849
 21
33.0521280361
 31
0.0
 11
-16.5940494705
 21
33.1022756363
 31
0.0
  0
SPLINE
  5
5EC
100
AcDbEntity
  8
0
100
AcDbSpline
 62
7
  6
CONTINUOUS
 70
0
 71
3
 72
9
 73
5
 74
3
 42
0.0000001
 43
0.0000001
 44
0.0000000001
 12
-0.619404298
 22
0.0718902808
 32
0.0
 13
-0.6146777033
 23
-0.1048851863
 33
0.0
 40
0.0
 40
0.0
 40
0.0
 40
0.0
 40
0.4842439535
 40
1.0
 40
1.0
 40
1.0
 40
1.0
 10
-16.5940494706
 20
33.102275636
 30
0.0
 10
-16.6940303993
 20
33.1138797806
 30
0.0
 10
-16.9026809472
 20
33.1244020032
 30
0.0
 10
-17.1096874123
 20
33.0979384785
 30
0.0
 10
-17.215361993
 20
33.0799067555
 30
0.0
 11
-16.5940494706
 21
33.102275636
 31
0.0
 11
-16.8957204071
 21
33.1153975564
 31
0.0
 11
-17.215361993
 21
33.0799067555
 31
0.0
  0
SPLINE
  5
5ED
100
AcDbEntity
  8
0
100
AcDbSpline
 62
7
  6
CONTINUOUS
 70
0
 71
3
 72
10
 73
6
 74
4
 42
0.0000001
 43
0.0000001
 44
0.0000000001
 12
1.9517410017
 22
0.2871343355
 32
0.0
 13
1.8553784502
 23
-0.6703058038
 33
0.0
 40
0.0
 40
0.0
 40
0.0
 40
0.0
 40
0.4151262789
 40
0.7045762354
 40
1.0
 40
1.0
 40
1.0
 40
1.0
 10
-17.9789858413
 20
33.6828051783
 30
0.0
 10
-17.7089128482
 20
33.7225375144
 30
0.0
 10
-17.2470715957
 20
33.7728564431
 30
0.0
 10
-16.5892448935
 20
33.7729799071
 30
0.0
 10
-16.2044105232
 20
33.7088099872
 30
0.0
 10
-16.0217028944
 20
33.6428018992
 30
0.0
 11
-17.9789858413
 21
33.6828051783
 31
0.0
 11
-17.1641202571
 21
33.7643943983
 31
0.0
 11
-16.5931528704
 21
33.7572450409
 31
0.0
 11
-16.0217028944
 21
33.6428018992
 31
0.0
  0
SPLINE
  5
5EE
100
AcDbEntity
  8
0
100
AcDbSpline
 62
7
  6
CONTINUOUS
 70
0
 71
3
 72
29
 73
25
 74
23
 42
0.0000001
 43
0.0000001
 44
0.0000000001
 12
2.2313656128
 22
-0.8049730265
 32
0.0
 13
-2.3526204564
 23
-0.3035639299
 33
0.0
 40
0.0
 40
0.0
 40
0.0
 40
0.0
 40
0.0797921542
 40
0.1315450168
 40
0.1894872835
 40
0.2530428125
 40
0.3223573394
 40
0.3594791469
 40
0.3984765258
 40
0.4396024585
 40
0.461060296
 40
0.4831657108
 40
0.5106684577
 40
0.5371696367
 40
0.5874242403
 40
0.6344377035
 40
0.6786100793
 40
0.7594318421
 40
0.8311116915
 40
0.8931858305
 40
0.9201298729
 40
0.9439336987
 40
0.9806160801
 40
1.0
 40
1.0
 40
1.0
 40
1.0
 10
-16.0217028944
 20
33.6428018992
 30
0.0
 10
-15.9623544047
 20
33.6213917219
 30
0.0
 10
-15.8701251339
 20
33.5704487728
 30
0.0
 10
-15.7511358085
 20
33.4792114642
 30
0.0
 10
-15.6537565465
 20
33.3821606116
 30
0.0
 10
-15.5627135284
 20
33.2611847931
 30
0.0
 10
-15.4994774351
 20
33.1418221284
 30
0.0
 10
-15.4585652941
 20
33.0342294188
 30
0.0
 10
-15.433115792
 20
32.9449613799
 30
0.0
 10
-15.4178171088
 20
32.8660033163
 30
0.0
 10
-15.4092484065
 20
32.7995725143
 30
0.0
 10
-15.4044457649
 20
32.7435693636
 30
0.0
 10
-15.4019765997
 20
32.6834145889
 30
0.0
 10
-15.402502976
 20
32.6009535528
 30
0.0
 10
-15.4101846807
 20
32.5032205808
 30
0.0
 10
-15.4299135027
 20
32.3929480775
 30
0.0
 10
-15.4668466346
 20
32.2618709191
 30
0.0
 10
-15.5297678288
 20
32.1186034518
 30
0.0
 10
-15.6242566713
 20
31.9768442764
 30
0.0
 10
-15.7101891069
 20
31.8825445094
 30
0.0
 10
-15.7769147783
 20
31.8233583281
 30
0.0
 10
-15.831473549
 20
31.7805121038
 30
0.0
 10
-15.8845865807
 20
31.7475895894
 30
0.0
 10
-15.9247288075
 20
31.7256601397
 30
0.0
 10
-15.9399298096
 20
31.7236987201
 30
0.0
 11
-16.0217028944
 21
33.6428018992
 31
0.0
 11
-15.8540075243
 21
33.5550293911
 31
0.0
 11
-15.7566310861
 21
33.4802705476
 31
0.0
 11
-15.6592586547
 21
33.3832649553
 31
0.0
 11
-15.5686576116
 21
33.2627638473
 31
0.0
 11
-15.4915953385
 21
33.1175184568
 31
0.0
 11
-15.4602560475
 21
33.0352264159
 31
0.0
 11
-15.4348392172
 21
32.9462800168
 31
0.0
 11
-15.4161907702
 21
32.8505231635
 31
0.0
 11
-15.4096690412
 21
32.8000420367
 31
0.0
 11
-15.4051566292
 21
32.7477997604
 31
0.0
 11
-15.4024692222
 21
32.6826151981
 31
0.0
 11
-15.4029047446
 21
32.619752614
 31
0.0
 11
-15.4123960269
 21
32.5009208831
 31
0.0
 11
-15.4321333747
 21
32.3911595738
 31
0.0
 11
-15.4606196869
 21
32.2903236924
 31
0.0
 11
-15.5378507995
 21
32.1148482375
 31
0.0
 11
-15.6321125548
 21
31.9733345675
 31
0.0
 11
-15.7314281433
 21
31.8646227317
 31
0.0
 11
-15.7792383714
 21
31.822205038
 31
0.0
 11
-15.823820755
 21
31.787552779
 31
0.0
 11
-15.8973135806
 21
31.7409647482
 31
0.0
 11
-15.9399298096
 21
31.7236987201
 31
0.0
  0
SPLINE
  5
5EF
100
AcDbEntity
  8
0
100
AcDbSpline
 62
7
  6
CONTINUOUS
 70
0
 71
3
 72
11
 73
7
 74
5
 42
0.0000001
 43
0.0000001
 44
0.0000000001
 12
0.8407070911
 22
-0.3352319526
 32
0.0
 13
0.2379073993
 23
-0.8732516041
 33
0.0
 40
0.0
 40
0.0
 40
0.0
 40
0.0
 40
0.2518807733
 40
0.5057299376
 40
0.7626274426
 40
1.0
 40
1.0
 40
1.0
 40
1.0
 10
-15.9399298096
 20
31.7012467372
 30
0.0
 10
-15.8693438255
 20
31.6731005761
 30
0.0
 10
-15.7409592019
 20
31.5795364145
 30
0.0
 10
-15.6185676418
 20
31.3813357625
 30
0.0
 10
-15.53999682
 20
31.1690857846
 30
0.0
 10
-15.5015520327
 20
31.0249700196
 30
0.0
 10
-15.4827278034
 20
30.9558746975
 30
0.0
 11
-15.9399298096
 21
31.7012467372
 31
0.0
 11
-15.7531726029
 21
31.5705064085
 31
0.0
 11
-15.6260543659
 21
31.3791227542
 31
0.0
 11
-15.5415838556
 21
31.162496646
 31
0.0
 11
-15.4827278034
 21
30.9558746975
 31
0.0
  0
SPLINE
  5
5F0
100
AcDbEntity
  8
0
100
AcDbSpline
 62
7
  6
CONTINUOUS
 70
0
 71
3
 72
9
 73
5
 74
3
 42
0.0000001
 43
0.0000001
 44
0.0000000001
 12
0.2795120823
 22
-1.0259637778
 32
0.0
 13
0.2787082506
 23
-1.0261824638
 33
0.0
 40
0.0
 40
0.0
 40
0.0
 40
0.0
 40
0.8019560553
 40
1.0
 40
1.0
 40
1.0
 40
1.0
 10
-15.4827278024
 20
30.9558746977
 30
0.0
 10
-15.4080090001
 20
30.6816154097
 30
0.0
 10
-15.3200757963
 20
30.3382268194
 30
0.0
 10
-15.2300353198
 20
29.9953971355
 30
0.0
 10
-15.2116364927
 20
29.9276540612
 30
0.0
 11
-15.4827278024
 21
30.9558746977
 31
0.0
 11
-15.2656166119
 21
30.1312097425
 31
0.0
 11
-15.2116364927
 21
29.9276540612
 31
0.0
  0
SPLINE
  5
5F1
100
AcDbEntity
  8
0
100
AcDbSpline
 62
7
  6
CONTINUOUS
 70
0
 71
3
 72
12
 73
8
 74
6
 42
0.0000001
 43
0.0000001
 44
0.0000000001
 12
-0.3327043691
 22
1.1572164259
 32
0.0
 13
-0.4242627865
 23
1.1268843198
 33
0.0
 40
0.0
 40
0.0
 40
0.0
 40
0.0
 40
0.1341752175
 40
0.4410691386
 40
0.7772446388
 40
0.9115031837
 40
1.0
 40
1.0
 40
1.0
 40
1.0
 10
-15.9745195396
 20
29.9276540612
 30
0.0
 10
-15.9893997666
 20
29.9794106497
 30
0.0
 10
-16.0386157932
 20
30.1494624644
 30
0.0
 10
-16.1261343372
 20
30.4488847266
 30
0.0
 10
-16.2148496273
 20
30.7480305319
 30
0.0
 10
-16.2816049125
 20
30.9621697345
 30
0.0
 10
-16.3090913907
 20
31.0472973426
 30
0.0
 10
-16.3216066927
 20
31.0805392341
 30
0.0
 11
-15.9745195396
 21
29.9276540612
 31
0.0
 11
-16.0193847735
 21
30.0828590911
 31
0.0
 11
-16.1230609179
 21
30.4375462848
 31
0.0
 11
-16.2391686369
 21
30.8253237976
 31
0.0
 11
-16.2873907944
 21
30.9796239724
 31
0.0
 11
-16.3216066927
 21
31.0805392341
 31
0.0
  0
SPLINE
  5
5F2
100
AcDbEntity
  8
0
100
AcDbSpline
 62
7
  6
CONTINUOUS
 70
0
 71
3
 72
10
 73
6
 74
4
 42
0.0000001
 43
0.0000001
 44
0.0000000001
 12
-0.2074556137
 22
0.5510228226
 32
0.0
 13
-0.5886963197
 23
0.0
 33
0.0
 40
0.0
 40
0.0
 40
0.0
 40
0.0
 40
0.3689473694
 40
0.6477940116
 40
1.0
 40
1.0
 40
1.0
 40
1.0
 10
-16.3216065638
 20
31.0805392826
 30
0.0
 10
-16.3471199648
 20
31.1483054229
 30
0.0
 10
-16.4100747187
 20
31.2631474392
 30
0.0
 10
-16.5681975201
 20
31.3866418357
 30
0.0
 10
-16.6947008848
 20
31.4145850627
 30
0.0
 10
-16.7638150079
 20
31.4145850627
 30
0.0
 11
-16.3216065638
 21
31.0805392826
 31
0.0
 11
-16.4316363367
 21
31.2678182245
 31
0.0
 11
-16.5618148315
 21
31.3678219703
 31
0.0
 11
-16.7638150079
 21
31.4145850627
 31
0.0
  0
SPLINE
  5
5F3
100
AcDbEntity
  8
RACCORDO
100
AcDbSpline
 62
7
  6
CONTINUOUS
 70
0
 71
3
 72
18
 73
14
 74
12
 42
0.0000001
 43
0.0000001
 44
0.0000000001
 12
-0.0016108393
 22
-0.2996249865
 32
0.0
 13
0.1528598991
 23
-0.2577044403
 33
0.0
 40
0.0
 40
0.0
 40
0.0
 40
0.0
 40
0.1847098322
 40
0.3630777284
 40
0.5289916372
 40
0.6767777356
 40
0.8014088588
 40
0.8536946064
 40
0.8986936919
 40
0.9360428699
 40
0.9654596112
 40
0.9867689257
 40
1.0
 40
1.0
 40
1.0
 40
1.0
 10
71.1365151357
 20
-3.2251006478
 30
0.0
 10
71.1364159565
 20
-3.2435485415
 30
0.0
 10
71.1363930925
 20
-3.2798121221
 30
0.0
 10
71.1368788734
 20
-3.3326445152
 30
0.0
 10
71.1378645154
 20
-3.3817819381
 30
0.0
 10
71.1393142863
 20
-3.4255378927
 30
0.0
 10
71.1409305268
 20
-3.4579311282
 30
0.0
 10
71.1424839761
 20
-3.4800408289
 30
0.0
 10
71.143655066
 20
-3.4934391028
 30
0.0
 10
71.1448928811
 20
-3.5045295638
 30
0.0
 10
71.1461608696
 20
-3.5132493056
 30
0.0
 10
71.1474735401
 20
-3.5194796178
 30
0.0
 10
71.1485120939
 20
-3.5228224884
 30
0.0
 10
71.1491862607
 20
-3.5239590572
 30
0.0
 11
71.1365151357
 21
-3.2251006478
 31
0.0
 11
71.1364849028
 21
-3.2804451203
 31
0.0
 11
71.1369905516
 21
-3.333886979
 31
0.0
 11
71.1380152902
 21
-3.3835890874
 31
0.0
 11
71.1395247706
 21
-3.4278443995
 31
0.0
 11
71.1414682104
 21
-3.4651369325
 31
0.0
 11
71.1425827037
 21
-3.4807635829
 31
0.0
 11
71.143780053
 21
-3.4941933582
 31
0.0
 11
71.1450501311
 21
-3.5053119614
 31
0.0
 11
71.1463821207
 21
-3.5140248531
 31
0.0
 11
71.1477648049
 21
-3.5202582369
 31
0.0
 11
71.1491862607
 21
-3.5239590572
 31
0.0
  0
SPLINE
  5
5F4
100
AcDbEntity
  8
RACCORDO
100
AcDbSpline
 62
7
  6
CONTINUOUS
 70
0
 71
3
 72
18
 73
14
 74
12
 42
0.0000001
 43
0.0000001
 44
0.0000000001
 12
-0.1528598991
 22
-0.2577044403
 32
0.0
 13
0.0016108393
 23
-0.2996249865
 33
0.0
 40
0.0
 40
0.0
 40
0.0
 40
0.0
 40
0.0132310739
 40
0.0345403919
 40
0.0639571449
 40
0.1013063254
 40
0.1463054049
 40
0.1985911529
 40
0.3232222913
 40
0.4710083797
 40
0.6369223101
 40
0.8152901792
 40
1.0
 40
1.0
 40
1.0
 40
1.0
 10
71.1491862607
 20
3.5239590572
 30
0.0
 10
71.1485120939
 20
3.5228224884
 30
0.0
 10
71.14747354
 20
3.5194796175
 30
0.0
 10
71.1461608692
 20
3.5132493039
 30
0.0
 10
71.1448928808
 20
3.5045295603
 30
0.0
 10
71.1436550655
 20
3.4934390985
 30
0.0
 10
71.1424839759
 20
3.4800408249
 30
0.0
 10
71.1409305265
 20
3.4579311232
 30
0.0
 10
71.1393142861
 20
3.4255378872
 30
0.0
 10
71.1378645152
 20
3.3817819299
 30
0.0
 10
71.1368788734
 20
3.3326445085
 30
0.0
 10
71.1363930924
 20
3.2798121172
 30
0.0
 10
71.1364159565
 20
3.2435485403
 30
0.0
 10
71.1365151357
 20
3.2251006478
 30
0.0
 11
71.1491862607
 21
3.5239590572
 31
0.0
 11
71.1477648049
 21
3.520258237
 31
0.0
 11
71.1463821205
 21
3.5140248522
 31
0.0
 11
71.1450501306
 21
3.505311957
 31
0.0
 11
71.1437800525
 21
3.494193353
 31
0.0
 11
71.1425827035
 21
3.4807635795
 31
0.0
 11
71.1414682102
 21
3.465136929
 31
0.0
 11
71.1395247703
 21
3.4278443915
 31
0.0
 11
71.1380152901
 21
3.3835890824
 31
0.0
 11
71.1369905514
 21
3.3338869675
 31
0.0
 11
71.1364849028
 21
3.2804451169
 31
0.0
 11
71.1365151357
 21
3.2251006478
 31
0.0
  0
SPLINE
  5
5F5
100
AcDbEntity
  8
RACCORDO
100
AcDbSpline
 62
7
  6
CONTINUOUS
 70
0
 71
3
 72
18
 73
14
 74
12
 42
0.0000001
 43
0.0000001
 44
0.0000000001
 12
0.1528598991
 22
0.2577044403
 32
0.0
 13
-0.0016108393
 23
0.2996249865
 33
0.0
 40
0.0
 40
0.0
 40
0.0
 40
0.0
 40
0.0132310743
 40
0.0345403888
 40
0.0639571301
 40
0.1013063081
 40
0.1463053936
 40
0.1985911412
 40
0.3232222644
 40
0.4710083628
 40
0.6369222716
 40
0.8152901678
 40
1.0
 40
1.0
 40
1.0
 40
1.0
 10
-71.1491862607
 20
-3.5239590572
 30
0.0
 10
-71.1485120939
 20
-3.5228224884
 30
0.0
 10
-71.1474735401
 20
-3.5194796178
 30
0.0
 10
-71.1461608696
 20
-3.5132493056
 30
0.0
 10
-71.1448928811
 20
-3.5045295638
 30
0.0
 10
-71.143655066
 20
-3.4934391028
 30
0.0
 10
-71.1424839761
 20
-3.4800408289
 30
0.0
 10
-71.1409305268
 20
-3.4579311282
 30
0.0
 10
-71.1393142863
 20
-3.4255378927
 30
0.0
 10
-71.1378645154
 20
-3.3817819381
 30
0.0
 10
-71.1368788734
 20
-3.3326445152
 30
0.0
 10
-71.1363930925
 20
-3.2798121221
 30
0.0
 10
-71.1364159565
 20
-3.2435485415
 30
0.0
 10
-71.1365151357
 20
-3.2251006478
 30
0.0
 11
-71.1491862607
 21
-3.5239590572
 31
0.0
 11
-71.1477648049
 21
-3.5202582369
 31
0.0
 11
-71.1463821207
 21
-3.5140248531
 31
0.0
 11
-71.1450501311
 21
-3.5053119614
 31
0.0
 11
-71.143780053
 21
-3.4941933582
 31
0.0
 11
-71.1425827037
 21
-3.4807635829
 31
0.0
 11
-71.1414682104
 21
-3.4651369325
 31
0.0
 11
-71.1395247706
 21
-3.4278443995
 31
0.0
 11
-71.1380152902
 21
-3.3835890874
 31
0.0
 11
-71.1369905516
 21
-3.333886979
 31
0.0
 11
-71.1364849028
 21
-3.2804451203
 31
0.0
 11
-71.1365151357
 21
-3.2251006478
 31
0.0
  0
SPLINE
  5
5F6
100
AcDbEntity
  8
RACCORDO
100
AcDbSpline
 62
7
  6
CONTINUOUS
 70
0
 71
3
 72
18
 73
14
 74
12
 42
0.0000001
 43
0.0000001
 44
0.0000000001
 12
0.0016108393
 22
0.2996249865
 32
0.0
 13
-0.1528598991
 23
0.2577044403
 33
0.0
 40
0.0
 40
0.0
 40
0.0
 40
0.0
 40
0.1847098208
 40
0.3630776899
 40
0.5289916203
 40
0.6767777087
 40
0.8014088471
 40
0.8536945951
 40
0.8986936746
 40
0.9360428551
 40
0.9654596081
 40
0.9867689261
 40
1.0
 40
1.0
 40
1.0
 40
1.0
 10
-71.1365151357
 20
3.2251006478
 30
0.0
 10
-71.1364159565
 20
3.2435485403
 30
0.0
 10
-71.1363930924
 20
3.2798121172
 30
0.0
 10
-71.1368788734
 20
3.3326445085
 30
0.0
 10
-71.1378645152
 20
3.3817819299
 30
0.0
 10
-71.1393142861
 20
3.4255378872
 30
0.0
 10
-71.1409305265
 20
3.4579311232
 30
0.0
 10
-71.1424839759
 20
3.4800408249
 30
0.0
 10
-71.1436550655
 20
3.4934390985
 30
0.0
 10
-71.1448928808
 20
3.5045295603
 30
0.0
 10
-71.1461608692
 20
3.5132493039
 30
0.0
 10
-71.14747354
 20
3.5194796175
 30
0.0
 10
-71.1485120939
 20
3.5228224884
 30
0.0
 10
-71.1491862607
 20
3.5239590572
 30
0.0
 11
-71.1365151357
 21
3.2251006478
 31
0.0
 11
-71.1364849028
 21
3.2804451169
 31
0.0
 11
-71.1369905514
 21
3.3338869675
 31
0.0
 11
-71.1380152901
 21
3.3835890824
 31
0.0
 11
-71.1395247703
 21
3.4278443915
 31
0.0
 11
-71.1414682102
 21
3.465136929
 31
0.0
 11
-71.1425827035
 21
3.4807635795
 31
0.0
 11
-71.1437800525
 21
3.494193353
 31
0.0
 11
-71.1450501306
 21
3.505311957
 31
0.0
 11
-71.1463821205
 21
3.5140248522
 31
0.0
 11
-71.1477648049
 21
3.520258237
 31
0.0
 11
-71.1491862607
 21
3.5239590572
 31
0.0
  0
SPLINE
  5
5F7
100
AcDbEntity
  8
SUPERFICI
100
AcDbSpline
 62
7
  6
CONTINUOUS
 70
0
 71
3
 72
14
 73
10
 74
8
 42
0.0000001
 43
0.0000001
 44
0.0000000001
 12
0.9926685956
 22
-0.0244506199
 32
0.0
 13
-0.0267836937
 23
-0.9926085456
 33
0.0
 40
0.0
 40
0.0
 40
0.0
 40
0.0
 40
0.134416651
 40
0.246489278
 40
0.393229104
 40
0.58986746
 40
0.7257742562
 40
0.8770583438
 40
1.0
 40
1.0
 40
1.0
 40
1.0
 10
17.9341294694
 20
-31.038801
 30
0.0
 10
17.9786065321
 20
-31.0398965235
 30
0.0
 10
18.0603430226
 20
-31.0518378465
 30
0.0
 10
18.18216546
 20
-31.1002882989
 30
0.0
 10
18.3045741533
 20
-31.1923250391
 30
0.0
 10
18.3924941191
 20
-31.3295153111
 30
0.0
 10
18.4368298816
 20
-31.4840307451
 30
0.0
 10
18.4585765839
 20
-31.6183538413
 30
0.0
 10
18.4617067445
 20
-31.7093223538
 30
0.0
 10
18.460609134
 20
-31.75
 30
0.0
 11
17.9341294694
 21
-31.038801
 31
0.0
 11
18.0661542236
 21
-31.0584007279
 31
0.0
 11
18.1694340457
 21
-31.0998443186
 31
0.0
 11
18.2858127355
 21
-31.1875192074
 31
0.0
 11
18.3929601274
 21
-31.3507501011
 31
0.0
 11
18.4329374828
 21
-31.4796441569
 31
0.0
 11
18.4566067105
 21
-31.6279882734
 31
0.0
 11
18.460609134
 21
-31.75
 31
0.0
  0
SPLINE
  5
5F8
100
AcDbEntity
  8
SUPERFICI
100
AcDbSpline
 62
7
  6
CONTINUOUS
 70
0
 71
3
 72
14
 73
10
 74
8
 42
0.0000001
 43
0.0000001
 44
0.0000000001
 12
0.0267836937
 22
-0.9926085456
 32
0.0
 13
-0.9926685956
 23
-0.0244506199
 33
0.0
 40
0.0
 40
0.0
 40
0.0
 40
0.0
 40
0.1229416562
 40
0.2742257438
 40
0.41013254
 40
0.606770896
 40
0.753510722
 40
0.865583349
 40
1.0
 40
1.0
 40
1.0
 40
1.0
 10
18.460609134
 20
-31.75
 30
0.0
 10
18.4617067445
 20
-31.7906776462
 30
0.0
 10
18.4585765839
 20
-31.8816461587
 30
0.0
 10
18.4368298816
 20
-32.0159692549
 30
0.0
 10
18.3924941191
 20
-32.1704846889
 30
0.0
 10
18.3045741533
 20
-32.3076749609
 30
0.0
 10
18.18216546
 20
-32.3997117011
 30
0.0
 10
18.0603430226
 20
-32.4481621535
 30
0.0
 10
17.9786065321
 20
-32.4601034765
 30
0.0
 10
17.9341294694
 20
-32.461199
 30
0.0
 11
18.460609134
 21
-31.75
 31
0.0
 11
18.4566067105
 21
-31.8720117266
 31
0.0
 11
18.4329374828
 21
-32.0203558431
 31
0.0
 11
18.3929601274
 21
-32.1492498989
 31
0.0
 11
18.2858127355
 21
-32.3124807926
 31
0.0
 11
18.1694340457
 21
-32.4001556814
 31
0.0
 11
18.0661542236
 21
-32.4415992721
 31
0.0
 11
17.9341294694
 21
-32.461199
 31
0.0
  0
SPLINE
  5
5F9
100
AcDbEntity
  8
SUPERFICI
100
AcDbSpline
 62
7
  6
CONTINUOUS
 70
0
 71
3
 72
15
 73
11
 74
9
 42
0.0000001
 43
0.0000001
 44
0.0000000001
 12
1.361754988
 22
-0.0062542098
 32
0.0
 13
-0.023477163
 23
1.3615669596
 33
0.0
 40
0.0
 40
0.0
 40
0.0
 40
0.0
 40
0.1666104649
 40
0.3201400637
 40
0.432791991
 40
0.5473463999
 40
0.6677209668
 40
0.7950987643
 40
0.8857287116
 40
1.0
 40
1.0
 40
1.0
 40
1.0
 10
17.9404918702
 20
-32.675
 30
0.0
 10
18.0161194141
 20
-32.6753473389
 30
0.0
 10
18.1622609445
 20
-32.6572087083
 30
0.0
 10
18.3459613811
 20
-32.5780730151
 30
0.0
 10
18.4778865008
 20
-32.464582363
 30
0.0
 10
18.5797734618
 20
-32.3424425296
 30
0.0
 10
18.6490840468
 20
-32.1919079543
 30
0.0
 10
18.6948410995
 20
-32.0447648162
 30
0.0
 10
18.7162465854
 20
-31.8950383279
 30
0.0
 10
18.718665197
 20
-31.8018626702
 30
0.0
 10
18.7177709418
 20
-31.75
 30
0.0
 11
17.9404918702
 21
-32.675
 31
0.0
 11
18.1654542641
 21
-32.6455256773
 31
0.0
 11
18.3564089749
 21
-32.560394258
 31
0.0
 11
18.4742464193
 21
-32.4621714517
 31
0.0
 11
18.5723794561
 21
-32.3409078043
 31
0.0
 11
18.6444643732
 21
-32.1936858067
 31
0.0
 11
18.6945407986
 21
-32.0276122119
 31
0.0
 11
18.7126143934
 21
-31.9055256773
 31
0.0
 11
18.7177709418
 21
-31.75
 31
0.0
  0
SPLINE
  5
5FA
100
AcDbEntity
  8
SUPERFICI
100
AcDbSpline
 62
7
  6
CONTINUOUS
 70
0
 71
3
 72
15
 73
11
 74
9
 42
0.0000001
 43
0.0000001
 44
0.0000000001
 12
0.0233427457
 22
1.3537713748
 32
0.0
 13
-1.3539583376
 23
0.0062160329
 33
0.0
 40
0.0
 40
0.0
 40
0.0
 40
0.0
 40
0.1149293105
 40
0.2060811432
 40
0.3341924356
 40
0.4552601699
 40
0.5704742312
 40
0.6837748557
 40
0.8381885424
 40
1.0
 40
1.0
 40
1.0
 40
1.0
 10
18.7177709418
 20
-31.75
 30
0.0
 10
18.718665197
 20
-31.6981373298
 30
0.0
 10
18.7162465812
 20
-31.6049616701
 30
0.0
 10
18.6948411128
 20
-31.4552351902
 30
0.0
 10
18.6490839761
 20
-31.3080920113
 30
0.0
 10
18.579773702
 20
-31.1575575874
 30
0.0
 10
18.4778856574
 20
-31.0354172263
 30
0.0
 10
18.3459649493
 20
-30.9219287225
 30
0.0
 10
18.1646719334
 20
-30.8438288347
 30
0.0
 10
18.0213863089
 20
-30.8253352751
 30
0.0
 10
17.9483576515
 20
-30.825
 30
0.0
 11
18.7177709418
 21
-31.75
 31
0.0
 11
18.7126143934
 21
-31.5944743227
 31
0.0
 11
18.6945407986
 21
-31.4723877881
 31
0.0
 11
18.6444643732
 21
-31.3063141933
 31
0.0
 11
18.5723794561
 21
-31.1590921957
 31
0.0
 11
18.4742464193
 21
-31.0378285483
 31
0.0
 11
18.3564089749
 21
-30.939605742
 31
0.0
 11
18.1654542641
 21
-30.8544743227
 31
0.0
 11
17.9483576515
 21
-30.825
 31
0.0
  0
SPLINE
  5
5FB
100
AcDbEntity
  8
DRAFT
100
AcDbSpline
 62
7
  6
CONTINUOUS
 70
0
 71
3
 72
9
 73
5
 74
3
 42
0.0000001
 43
0.0000001
 44
0.0000000001
 12
7.1644967556
 22
-0.0069639391
 32
0.0
 13
7.1644991776
 23
-0.0037138671
 33
0.0
 40
0.0
 40
0.0
 40
0.0
 40
0.0
 40
0.249566431
 40
1.0
 40
1.0
 40
1.0
 40
1.0
 10
-53.7612117217
 20
-0.3021946362
 30
0.0
 10
-53.1652057599
 20
-0.302773958
 30
0.0
 10
-50.7770400449
 20
-0.3049597485
 30
0.0
 10
-48.3888738342
 20
-0.3066040546
 30
0.0
 10
-46.596713605
 20
-0.3075330581
 30
0.0
 11
-53.7612117217
 21
-0.3021946362
 31
0.0
 11
-51.9731937407
 21
-0.3038312324
 31
0.0
 11
-46.596713605
 21
-0.3075330581
 31
0.0
  0
LINE
  5
5FC
100
AcDbEntity
  8
DRAFT
100
AcDbLine
 62
7
  6
CONTINUOUS
 10
-46.5967151751
 20
-0.0000000007
 11
-46.596713605
 21
-0.3075330581
  0
LINE
  5
5FD
100
AcDbEntity
  8
RACCORDO
100
AcDbLine
 62
253
  6
CONTINUOUS
 10
-65.9257266484
 20
-23.2689823583
 11
-65.9258555488
 21
-22.7009413581
  0
SPLINE
  5
5FE
100
AcDbEntity
  8
RACCORDO
100
AcDbSpline
 62
7
  6
CONTINUOUS
 70
0
 71
3
 72
9
 73
5
 74
3
 42
0.0000001
 43
0.0000001
 44
0.0000000001
 12
19.4394419653
 22
0.0317407306
 32
0.0
 13
19.4394666248
 23
0.0069812531
 33
0.0
 40
0.0
 40
0.0
 40
0.0
 40
0.0
 40
0.2483089687
 40
1.0
 40
1.0
 40
1.0
 40
1.0
 10
-65.9258555565
 20
-22.7009413557
 30
0.0
 10
-64.3168596274
 20
-22.6983141863
 30
0.0
 10
-57.8370439393
 20
-22.688798877
 30
0.0
 10
-51.3572221907
 20
-22.6834361038
 30
0.0
 10
-46.4863979526
 20
-22.6816868553
 30
0.0
 11
-65.9258555565
 21
-22.7009413557
 31
0.0
 11
-61.0988665514
 21
-22.6938447474
 31
0.0
 11
-46.4863979526
 21
-22.6816868553
 31
0.0
  0
LINE
  5
5FF
100
AcDbEntity
  8
RACCORDO
100
AcDbLine
 62
253
  6
CONTINUOUS
 10
-59.4632674924
 20
-0.2956166292
 11
-59.4633079723
 21
-0.0000000073
  0
SPLINE
  5
600
100
AcDbEntity
  8
RACCORDO
100
AcDbSpline
 62
7
  6
CONTINUOUS
 70
0
 71
3
 72
9
 73
5
 74
3
 42
0.0000001
 43
0.0000001
 44
0.0000000001
 12
6.4648351764
 22
-0.0113629155
 32
0.0
 13
6.4648393924
 23
-0.0086373642
 33
0.0
 40
0.0
 40
0.0
 40
0.0
 40
0.0
 40
0.2492048604
 40
1.0
 40
1.0
 40
1.0
 40
1.0
 10
-65.9281397419
 20
-0.2856231386
 30
0.0
 10
-65.3911169593
 20
-0.2865670366
 30
0.0
 10
-63.2361716997
 20
-0.2902396498
 30
0.0
 10
-61.0812256619
 20
-0.2934550068
 30
0.0
 10
-59.4633023306
 20
-0.2956166372
 30
0.0
 11
-65.9281397419
 21
-0.2856231386
 31
0.0
 11
-64.3170712456
 21
-0.2883691057
 31
0.0
 11
-59.4633023306
 21
-0.2956166372
 31
0.0
  0
LINE
  5
601
100
AcDbEntity
  8
RACCORDO
100
AcDbLine
 62
253
  6
CONTINUOUS
 10
-65.9280955752
 20
-0.2856231212
 11
-65.9281549397
 21
-0.0000000105
  0
LINE
  5
602
100
AcDbEntity
  8
RACCORDO
100
AcDbLine
 62
253
  6
CONTINUOUS
 10
-45.0317279203
 20
-34.6033427425
 11
-45.7681466492
 21
-34.6033355987
  0
LINE
  5
603
100
AcDbEntity
  8
DRAFT
100
AcDbLine
 62
253
  6
CONTINUOUS
 10
-45.7829316623
 20
-24.2413414192
 11
-45.0168742286
 21
-24.2711677558
  0
LINE
  5
604
100
AcDbEntity
  8
RACCORDO
100
AcDbLine
 62
253
  6
CONTINUOUS
 10
45.0317279199
 20
34.6033427425
 11
45.7681466492
 21
34.6033355987
  0
LINE
  5
605
100
AcDbEntity
  8
DRAFT
100
AcDbLine
 62
253
  6
CONTINUOUS
 10
45.0168743635
 20
24.2711721715
 11
45.7829315308
 21
24.2413458396
  0
SPLINE
  5
606
100
AcDbEntity
  8
DRAFT
100
AcDbSpline
 62
7
  6
CONTINUOUS
 70
0
 71
3
 72
9
 73
5
 74
3
 42
0.0000001
 43
0.0000001
 44
0.0000000001
 12
-7.1644967556
 22
0.0069639391
 32
0.0
 13
-7.1644991776
 23
0.0037138671
 33
0.0
 40
0.0
 40
0.0
 40
0.0
 40
0.0
 40
0.249566431
 40
1.0
 40
1.0
 40
1.0
 40
1.0
 10
53.7612117217
 20
0.3021946362
 30
0.0
 10
53.1652057599
 20
0.302773958
 30
0.0
 10
50.7770400449
 20
0.3049597485
 30
0.0
 10
48.3888738343
 20
0.3066040546
 30
0.0
 10
46.596713605
 20
0.3075330581
 30
0.0
 11
53.7612117217
 21
0.3021946362
 31
0.0
 11
51.9731937407
 21
0.3038312324
 31
0.0
 11
46.596713605
 21
0.3075330581
 31
0.0
  0
LINE
  5
607
100
AcDbEntity
  8
DRAFT
100
AcDbLine
 62
7
  6
CONTINUOUS
 10
46.5967151751
 20
0.0000000006
 11
46.596713605
 21
0.3075330581
  0
LINE
  5
608
100
AcDbEntity
  8
RACCORDO
100
AcDbLine
 62
7
  6
CONTINUOUS
 10
45.0167589215
 20
23.9785263357
 11
45.0168826964
 21
24.2713667423
  0
LINE
  5
609
100
AcDbEntity
  8
RACCORDO
100
AcDbLine
 62
253
  6
CONTINUOUS
 10
65.9257266484
 20
23.268982358
 11
65.9258555488
 21
22.7009413687
  0
LINE
  5
60A
100
AcDbEntity
  8
RACCORDO
100
AcDbLine
 62
253
  6
CONTINUOUS
 10
59.4632674886
 20
0.2956166292
 11
59.4633079684
 21
0.0000000032
  0
SPLINE
  5
60B
100
AcDbEntity
  8
RACCORDO
100
AcDbSpline
 62
7
  6
CONTINUOUS
 70
0
 71
3
 72
9
 73
5
 74
3
 42
0.0000001
 43
0.0000001
 44
0.0000000001
 12
-6.4648351764
 22
0.0113629155
 32
0.0
 13
-6.4648393924
 23
0.0086373642
 33
0.0
 40
0.0
 40
0.0
 40
0.0
 40
0.0
 40
0.2492048588
 40
1.0
 40
1.0
 40
1.0
 40
1.0
 10
65.928139742
 20
0.2856231386
 30
0.0
 10
65.3911169628
 20
0.2865670366
 30
0.0
 10
63.2361717032
 20
0.2902396498
 30
0.0
 10
61.0812256654
 20
0.2934550068
 30
0.0
 10
59.4633023306
 20
0.2956166372
 30
0.0
 11
65.928139742
 21
0.2856231386
 31
0.0
 11
64.317071256
 21
0.2883691057
 31
0.0
 11
59.4633023306
 21
0.2956166372
 31
0.0
  0
LINE
  5
60C
100
AcDbEntity
  8
RACCORDO
100
AcDbLine
 62
253
  6
CONTINUOUS
 10
65.9280955752
 20
0.2856231212
 11
65.9281549397
 21
0.0000000046
  0
SPLINE
  5
60D
100
AcDbEntity
  8
DRAFT
100
AcDbSpline
 62
7
  6
CONTINUOUS
 70
0
 71
3
 72
9
 73
5
 74
3
 42
0.0000001
 43
0.0000001
 44
0.0000000001
 12
7.1644991776
 22
0.0037138671
 32
0.0
 13
7.1644967557
 23
0.0069639391
 33
0.0
 40
0.0
 40
0.0
 40
0.0
 40
0.0
 40
0.2503921539
 40
1.0
 40
1.0
 40
1.0
 40
1.0
 10
46.596713605
 20
-0.3075330581
 30
0.0
 10
47.1946917318
 20
-0.3072230837
 30
0.0
 10
49.5828580521
 20
-0.3058493986
 30
0.0
 10
51.9710240612
 20
-0.3039347107
 30
0.0
 10
53.7612117217
 20
-0.3021946362
 30
0.0
 11
46.596713605
 21
-0.3075330581
 31
0.0
 11
48.3906479298
 21
-0.3065012449
 31
0.0
 11
53.7612117217
 21
-0.3021946362
 31
0.0
  0
LINE
  5
60E
100
AcDbEntity
  8
DRAFT
100
AcDbLine
 62
7
  6
CONTINUOUS
 10
46.596713605
 20
-0.3075330581
 11
46.5967151751
 21
0.0000000006
  0
LINE
  5
60F
100
AcDbEntity
  8
RACCORDO
100
AcDbLine
 62
7
  6
CONTINUOUS
 10
45.0168826957
 20
-24.2713650584
 11
45.0167589215
 21
-23.9785263357
  0
LINE
  5
610
100
AcDbEntity
  8
RACCORDO
100
AcDbLine
 62
253
  6
CONTINUOUS
 10
65.9258555488
 20
-22.700941387
 11
65.9257266484
 21
-23.2689823626
  0
LINE
  5
611
100
AcDbEntity
  8
RACCORDO
100
AcDbLine
 62
253
  6
CONTINUOUS
 10
59.4633071675
 20
0.0000000032
 11
59.4632666877
 21
-0.295616629
  0
LINE
  5
612
100
AcDbEntity
  8
RACCORDO
100
AcDbLine
 62
253
  6
CONTINUOUS
 10
65.9281549328
 20
0.0000000046
 11
65.9280955682
 21
-0.2856231212
  0
SPLINE
  5
613
100
AcDbEntity
  8
RACCORDO
100
AcDbSpline
 62
7
  6
CONTINUOUS
 70
0
 71
3
 72
9
 73
5
 74
3
 42
0.0000001
 43
0.0000001
 44
0.0000000001
 12
6.464839392
 22
0.0086373642
 32
0.0
 13
6.4648351759
 23
0.0113629155
 33
0.0
 40
0.0
 40
0.0
 40
0.0
 40
0.0
 40
0.25075982
 40
1.0
 40
1.0
 40
1.0
 40
1.0
 10
59.4633023306
 20
-0.2956166372
 30
0.0
 10
60.0036763181
 20
-0.2948946692
 30
0.0
 10
62.1586226303
 20
-0.2919031378
 30
0.0
 10
64.313568318
 20
-0.2884609896
 30
0.0
 10
65.9281397416
 20
-0.2856231386
 30
0.0
 11
59.4633023306
 21
-0.2956166372
 31
0.0
 11
61.0844241776
 21
-0.2933660225
 31
0.0
 11
65.9281397416
 21
-0.2856231386
 31
0.0
  0
LINE
  5
614
100
AcDbEntity
  8
RACCORDO
100
AcDbLine
 62
253
  6
CONTINUOUS
 10
45.7681466492
 20
-34.6033355987
 11
45.0317279205
 21
-34.6033427425
  0
LINE
  5
615
100
AcDbEntity
  8
DRAFT
100
AcDbLine
 62
253
  6
CONTINUOUS
 10
45.7829318095
 20
-24.2413369934
 11
45.0168740941
 21
-24.2711633353
  0
LINE
  5
616
100
AcDbEntity
  8
RACCORDO
100
AcDbLine
 62
253
  6
CONTINUOUS
 10
-67.5229694496
 20
-36.5626790986
 11
-67.7155098006
 21
-36.757326329
  0
LINE
  5
617
100
AcDbEntity
  8
RACCORDO
100
AcDbLine
 62
253
  6
CONTINUOUS
 10
67.5229694498
 20
-36.5626790986
 11
67.7155098006
 21
-36.757326329
  0
LINE
  5
618
100
AcDbEntity
  8
RACCORDO
100
AcDbLine
 62
7
  6
CONTINUOUS
 10
-69.1962769842
 20
23.2418149237
 11
-68.9543666888
 21
23.2818080805
  0
LINE
  5
619
100
AcDbEntity
  8
RACCORDO
100
AcDbLine
 62
253
  6
CONTINUOUS
 10
-68.3767309031
 20
35.7186255538
 11
-68.5691347207
 21
35.913554646
  0
LINE
  5
61A
100
AcDbEntity
  8
RACCORDO
100
AcDbLine
 62
7
  6
CONTINUOUS
 10
-69.2981424842
 20
20.4536400895
 11
-69.0503688504
 21
20.4946411815
  0
LINE
  5
61B
100
AcDbEntity
  8
RACCORDO
100
AcDbLine
 62
7
  6
CONTINUOUS
 10
-69.2160205426
 20
22.7281850763
 11
-68.9758471801
 21
22.6879663791
  0
SPLINE
  5
61C
100
AcDbEntity
  8
RACCORDO
100
AcDbSpline
 62
7
  6
CONTINUOUS
 70
0
 71
3
 72
18
 73
14
 74
12
 42
0.0000001
 43
0.0000001
 44
0.0000000001
 12
-0.0019777445
 22
-0.2996175017
 32
0.0
 13
0.1528140148
 23
-0.2577255045
 33
0.0
 40
0.0
 40
0.0
 40
0.0
 40
0.0
 40
0.18471173
 40
0.363081382
 40
0.5289965664
 40
0.6767830329
 40
0.8014136094
 40
0.8536987932
 40
0.8986971653
 40
0.9360455361
 40
0.9654614135
 40
0.9867698222
 40
1.0
 40
1.0
 40
1.0
 40
1.0
 10
-69.6347680222
 20
3.9498766793
 30
0.0
 10
-69.634889793
 20
3.9314290569
 30
0.0
 10
-69.6349537212
 20
3.8951657745
 30
0.0
 10
-69.634518173
 20
3.8423333528
 30
0.0
 10
-69.6335707845
 20
3.7931956716
 30
0.0
 10
-69.6321482083
 20
3.7494394581
 30
0.0
 10
-69.6305476858
 20
3.7170460566
 30
0.0
 10
-69.6290030124
 20
3.6949363107
 30
0.0
 10
-69.6278365949
 20
3.6815380714
 30
0.0
 10
-69.6266021949
 20
3.6704476656
 30
0.0
 10
-69.6253366076
 20
3.6617279829
 30
0.0
 10
-69.6240255002
 20
3.6554977344
 30
0.0
 10
-69.6229877314
 20
3.6521548546
 30
0.0
 10
-69.6223138125
 20
3.6510182698
 30
0.0
 11
-69.6347680222
 21
3.9498766793
 31
0.0
 11
-69.6348609234
 21
3.8945326845
 31
0.0
 11
-69.6344060854
 21
3.8410907862
 31
0.0
 11
-69.6334200382
 21
3.7913883903
 31
0.0
 11
-69.6319380623
 21
3.7471328201
 31
0.0
 11
-69.6300127218
 21
3.7098401722
 31
0.0
 11
-69.6289044337
 21
3.694213527
 31
0.0
 11
-69.6277117678
 21
3.6807837884
 31
0.0
 11
-69.6264451134
 21
3.6696652368
 31
0.0
 11
-69.6251155204
 21
3.6609523983
 31
0.0
 11
-69.6237343983
 21
3.6547190616
 31
0.0
 11
-69.6223138125
 21
3.6510182698
 31
0.0
  0
LINE
  5
61D
100
AcDbEntity
  8
RACCORDO
100
AcDbLine
 62
253
  6
CONTINUOUS
 10
-68.3767306711
 20
-35.718629662
 11
-68.5691347207
 21
-35.913554646
  0
LINE
  5
61E
100
AcDbEntity
  8
RACCORDO
100
AcDbLine
 62
7
  6
CONTINUOUS
 10
-68.9543666888
 20
-23.2818080805
 11
-69.1962769842
 21
-23.2418149237
  0
SPLINE
  5
61F
100
AcDbEntity
  8
RACCORDO
100
AcDbSpline
 62
7
  6
CONTINUOUS
 70
0
 71
3
 72
18
 73
14
 74
12
 42
0.0000001
 43
0.0000001
 44
0.0000000001
 12
-0.1528140148
 22
-0.2577255045
 32
0.0
 13
0.0019777445
 23
-0.2996175017
 33
0.0
 40
0.0
 40
0.0
 40
0.0
 40
0.0
 40
0.0132301778
 40
0.0345385865
 40
0.0639544639
 40
0.1013028347
 40
0.1463012068
 40
0.1985863906
 40
0.3232169671
 40
0.4710034336
 40
0.636918618
 40
0.81528827
 40
1.0
 40
1.0
 40
1.0
 40
1.0
 10
-69.6223138125
 20
-3.6510182698
 30
0.0
 10
-69.6229877314
 20
-3.6521548546
 30
0.0
 10
-69.6240255002
 20
-3.6554977344
 30
0.0
 10
-69.6253366076
 20
-3.6617279829
 30
0.0
 10
-69.6266021949
 20
-3.6704476656
 30
0.0
 10
-69.6278365949
 20
-3.6815380714
 30
0.0
 10
-69.6290030124
 20
-3.6949363107
 30
0.0
 10
-69.6305476858
 20
-3.7170460566
 30
0.0
 10
-69.6321482083
 20
-3.7494394581
 30
0.0
 10
-69.6335707845
 20
-3.7931956716
 30
0.0
 10
-69.634518173
 20
-3.8423333528
 30
0.0
 10
-69.6349537212
 20
-3.8951657745
 30
0.0
 10
-69.634889793
 20
-3.9314290569
 30
0.0
 10
-69.6347680222
 20
-3.9498766793
 30
0.0
 11
-69.6223138125
 21
-3.6510182698
 31
0.0
 11
-69.6237343983
 21
-3.6547190616
 31
0.0
 11
-69.6251155204
 21
-3.6609523983
 31
0.0
 11
-69.6264451134
 21
-3.6696652368
 31
0.0
 11
-69.6277117678
 21
-3.6807837884
 31
0.0
 11
-69.6289044337
 21
-3.694213527
 31
0.0
 11
-69.6300127218
 21
-3.7098401722
 31
0.0
 11
-69.6319380623
 21
-3.7471328201
 31
0.0
 11
-69.6334200382
 21
-3.7913883903
 31
0.0
 11
-69.6344060854
 21
-3.8410907862
 31
0.0
 11
-69.6348609234
 21
-3.8945326845
 31
0.0
 11
-69.6347680222
 21
-3.9498766793
 31
0.0
  0
SPLINE
  5
620
100
AcDbEntity
  8
RACCORDO
100
AcDbSpline
 62
7
  6
CONTINUOUS
 70
0
 71
3
 72
9
 73
5
 74
3
 42
0.0000001
 43
0.0000001
 44
0.0000000001
 12
-0.0084233699
 22
-12.916946633
 32
0.0
 13
-0.0054837582
 23
-12.9169482154
 33
0.0
 40
0.0
 40
0.0
 40
0.0
 40
0.0
 40
0.2498444396
 40
1.0
 40
1.0
 40
1.0
 40
1.0
 10
45.0156553929
 20
37.1253699615
 30
0.0
 10
45.0149538822
 20
36.0496275305
 30
0.0
 10
45.0122688605
 20
31.7439785737
 30
0.0
 10
45.010074369
 20
27.4383293111
 30
0.0
 10
45.0087031451
 20
24.2084224687
 30
0.0
 11
45.0156553929
 21
37.1253699615
 31
0.0
 11
45.0136428267
 21
33.8981426099
 31
0.0
 11
45.0087031451
 21
24.2084224687
 31
0.0
  0
SPLINE
  5
621
100
AcDbEntity
  8
RACCORDO
100
AcDbSpline
 62
7
  6
CONTINUOUS
 70
0
 71
3
 72
9
 73
5
 74
3
 42
0.0000001
 43
0.0000001
 44
0.0000000001
 12
-0.0054665155
 22
12.1642791665
 32
0.0
 13
-0.0080735716
 23
12.1642777155
 33
0.0
 40
0.0
 40
0.0
 40
0.0
 40
0.0
 40
0.2501414576
 40
1.0
 40
1.0
 40
1.0
 40
1.0
 10
0.4
 20
25.6326882708
 30
0.0
 10
0.3995441993
 20
26.6469517779
 30
0.0
 10
0.3976135999
 20
30.7017114506
 30
0.0
 10
0.395249113
 20
34.7564709169
 30
0.0
 10
0.3932311008
 20
37.7969667692
 30
0.0
 11
0.4
 21
25.6326882708
 31
0.0
 11
0.3985512047
 21
28.6754787545
 31
0.0
 11
0.3932311008
 21
37.7969667692
 31
0.0
  0
SPLINE
  5
622
100
AcDbEntity
  8
RACCORDO
100
AcDbSpline
 62
7
  6
CONTINUOUS
 70
0
 71
3
 72
9
 73
5
 74
3
 42
0.0000001
 43
0.0000001
 44
0.0000000001
 12
-0.0080735716
 22
-12.1642776407
 32
0.0
 13
-0.0054665155
 23
-12.1642790917
 33
0.0
 40
0.0
 40
0.0
 40
0.0
 40
0.0
 40
0.2498490431
 40
1.0
 40
1.0
 40
1.0
 40
1.0
 10
-0.3932311008
 20
37.7969666944
 30
0.0
 10
-0.3939034922
 20
36.7838889848
 30
0.0
 10
-0.39648581
 20
32.7291296997
 30
0.0
 10
-0.3986330961
 20
28.6743701376
 30
0.0
 10
-0.4
 20
25.6326882708
 30
0.0
 11
-0.3932311008
 21
37.7969666944
 31
0.0
 11
-0.3951667148
 21
34.7577335126
 31
0.0
 11
-0.4
 21
25.6326882708
 31
0.0
  0
SPLINE
  5
623
100
AcDbEntity
  8
RACCORDO
100
AcDbSpline
 62
7
  6
CONTINUOUS
 70
0
 71
3
 72
9
 73
5
 74
3
 42
0.0000001
 43
0.0000001
 44
0.0000000001
 12
-0.0054837582
 22
12.9169482153
 32
0.0
 13
-0.0084233699
 23
12.9169466328
 33
0.0
 40
0.0
 40
0.0
 40
0.0
 40
0.0
 40
0.2501448461
 40
1.0
 40
1.0
 40
1.0
 40
1.0
 10
-45.0087031451
 20
24.2084224687
 30
0.0
 10
-45.0091603897
 20
25.2854584765
 30
0.0
 10
-45.0111105664
 20
29.5911078288
 30
0.0
 10
-45.0135499572
 20
33.8967569597
 30
0.0
 10
-45.0156553929
 20
37.1253699614
 30
0.0
 11
-45.0087031451
 21
24.2084224687
 31
0.0
 11
-45.0101666543
 21
27.4395304519
 31
0.0
 11
-45.0156553929
 21
37.1253699614
 31
0.0
  0
LINE
  5
624
100
AcDbEntity
  8
RACCORDO
100
AcDbLine
 62
7
  6
CONTINUOUS
 10
-68.9377001141
 20
14.5011534362
 11
-67.1
 21
14.5
  0
LINE
  5
625
100
AcDbEntity
  8
RACCORDO
100
AcDbLine
 62
7
  6
CONTINUOUS
 10
-68.9758471801
 20
-22.6879663791
 11
-69.2160205426
 21
-22.7281850763
  0
LINE
  5
626
100
AcDbEntity
  8
RACCORDO
100
AcDbLine
 62
7
  6
CONTINUOUS
 10
-69.0503688504
 20
-20.4946411815
 11
-69.2981424842
 21
-20.4536400895
  0
LINE
  5
627
100
AcDbEntity
  8
RACCORDO
100
AcDbLine
 62
7
  6
CONTINUOUS
 10
-67.1
 20
20.4981609223
 11
-68.7726777098
 21
20.497112987
  0
LINE
  5
628
100
AcDbEntity
  8
RACCORDO
100
AcDbLine
 62
7
  6
CONTINUOUS
 10
-68.7726777099
 20
-20.497112987
 11
-67.1
 21
-20.4981609223
  0
LINE
  5
629
100
AcDbEntity
  8
RACCORDO
100
AcDbLine
 62
7
  6
CONTINUOUS
 10
-67.1
 20
-14.5
 11
-68.9377000961
 21
-14.5011534362
  0
SPLINE
  5
62A
100
AcDbEntity
  8
RACCORDO
100
AcDbSpline
 62
7
  6
CONTINUOUS
 70
0
 71
3
 72
9
 73
5
 74
3
 42
0.0000001
 43
0.0000001
 44
0.0000000001
 12
0.0080735716
 22
12.1642776407
 32
0.0
 13
0.0054665155
 23
12.1642790917
 33
0.0
 40
0.0
 40
0.0
 40
0.0
 40
0.0
 40
0.2498490431
 40
1.0
 40
1.0
 40
1.0
 40
1.0
 10
0.3932311008
 20
-37.7969666944
 30
0.0
 10
0.3939034922
 20
-36.7838889848
 30
0.0
 10
0.39648581
 20
-32.7291296997
 30
0.0
 10
0.3986330961
 20
-28.6743701376
 30
0.0
 10
0.4
 20
-25.6326882708
 30
0.0
 11
0.3932311008
 21
-37.7969666944
 31
0.0
 11
0.3951667148
 21
-34.7577335125
 31
0.0
 11
0.4
 21
-25.6326882708
 31
0.0
  0
SPLINE
  5
62B
100
AcDbEntity
  8
RACCORDO
100
AcDbSpline
 62
7
  6
CONTINUOUS
 70
0
 71
3
 72
9
 73
5
 74
3
 42
0.0000001
 43
0.0000001
 44
0.0000000001
 12
0.0054837582
 22
-12.9169482153
 32
0.0
 13
0.0084233699
 23
-12.9169466328
 33
0.0
 40
0.0
 40
0.0
 40
0.0
 40
0.0
 40
0.2501448461
 40
1.0
 40
1.0
 40
1.0
 40
1.0
 10
45.0087031451
 20
-24.2084224687
 30
0.0
 10
45.0091603897
 20
-25.2854584765
 30
0.0
 10
45.0111105664
 20
-29.5911078288
 30
0.0
 10
45.0135499572
 20
-33.8967569597
 30
0.0
 10
45.0156553929
 20
-37.1253699614
 30
0.0
 11
45.0087031451
 21
-24.2084224687
 31
0.0
 11
45.0101666543
 21
-27.4395304519
 31
0.0
 11
45.0156553929
 21
-37.1253699614
 31
0.0
  0
LINE
  5
62C
100
AcDbEntity
  8
RACCORDO
100
AcDbLine
 62
7
  6
CONTINUOUS
 10
68.9377001141
 20
-14.5011534362
 11
67.1
 21
-14.5
  0
LINE
  5
62D
100
AcDbEntity
  8
DRAFT
100
AcDbLine
 62
7
  6
CONTINUOUS
 10
67.1
 20
-20.4981609223
 11
69.0364443025
 21
-20.4969453684
  0
SPLINE
  5
62E
100
AcDbEntity
  8
DRAFT
100
AcDbSpline
 62
7
  6
CONTINUOUS
 70
0
 71
3
 72
9
 73
5
 74
3
 42
0.0000001
 43
0.0000001
 44
0.0000000001
 12
-22.3579204105
 22
0.014230717
 32
0.0
 13
-22.3579228772
 23
0.0096028014
 33
0.0
 40
0.0
 40
0.0
 40
0.0
 40
0.0
 40
0.2498602875
 40
1.0
 40
1.0
 40
1.0
 40
1.0
 10
68.9620782012
 20
-22.6856606739
 30
0.0
 10
67.0999593943
 20
-22.6844754435
 30
0.0
 10
59.6473191357
 20
-22.6799251053
 30
0.0
 10
52.1946784057
 20
-22.6761469458
 30
0.0
 10
46.604156459
 20
-22.6737457983
 30
0.0
 11
68.9620782012
 21
-22.6856606739
 31
0.0
 11
63.3757216901
 21
-22.6822497531
 31
0.0
 11
46.604156459
 21
-22.6737457983
 31
0.0
  0
SPLINE
  5
62F
100
AcDbEntity
  8
DRAFT
100
AcDbSpline
 62
7
  6
CONTINUOUS
 70
0
 71
3
 72
9
 73
5
 74
3
 42
0.0000001
 43
0.0000001
 44
0.0000000001
 12
0.017756627
 22
22.3579877979
 32
0.0
 13
0.0002471562
 23
22.3579948477
 33
0.0
 40
0.0
 40
0.0
 40
0.0
 40
0.0
 40
0.2498873917
 40
1.0
 40
1.0
 40
1.0
 40
1.0
 10
46.604156459
 20
-22.6737457983
 30
0.0
 10
46.6056355114
 20
-20.8114193798
 30
0.0
 10
46.6108237414
 20
-13.3587562181
 30
0.0
 10
46.6130931055
 20
-5.9060910249
 30
0.0
 10
46.6131549038
 20
-0.3157530814
 30
0.0
 11
46.604156459
 21
-22.6737457983
 31
0.0
 11
46.6080461931
 21
-17.0867661349
 31
0.0
 11
46.6131549038
 21
-0.3157530814
 31
0.0
  0
SPLINE
  5
630
100
AcDbEntity
  8
RACCORDO
100
AcDbSpline
 62
7
  6
CONTINUOUS
 70
0
 71
3
 72
9
 73
5
 74
3
 42
0.0000001
 43
0.0000001
 44
0.0000000001
 12
22.4897971711
 22
0.0096574351
 32
0.0
 13
22.489794674
 23
0.014338309
 33
0.0
 40
0.0
 40
0.0
 40
0.0
 40
0.0
 40
0.250131665
 40
1.0
 40
1.0
 40
1.0
 40
1.0
 10
46.6131549038
 20
-0.3157530814
 30
0.0
 10
48.4882917074
 20
-0.3149478713
 30
0.0
 10
55.9848906796
 20
-0.311534025
 30
0.0
 10
63.4814892971
 20
-0.3073410766
 30
0.0
 10
69.1029509263
 20
-0.3037571287
 30
0.0
 11
46.6131549038
 21
-0.3157530814
 31
0.0
 11
52.23856525
 21
-0.313191304
 31
0.0
 11
69.1029509263
 21
-0.3037571287
 31
0.0
  0
SPLINE
  5
631
100
AcDbEntity
  8
RACCORDO
100
AcDbSpline
 62
7
  6
CONTINUOUS
 70
0
 71
3
 72
9
 73
5
 74
3
 42
0.0000001
 43
0.0000001
 44
0.0000000001
 12
-22.4897949483
 22
0.0143383092
 32
0.0
 13
-22.4897974454
 23
0.0096574352
 33
0.0
 40
0.0
 40
0.0
 40
0.0
 40
0.0
 40
0.2498593711
 40
1.0
 40
1.0
 40
1.0
 40
1.0
 10
69.1029512006
 20
0.3037571284
 30
0.0
 10
67.2298558599
 20
0.3049513153
 30
0.0
 10
59.7332574204
 20
0.3095353034
 30
0.0
 10
52.2366585036
 20
0.3133382699
 30
0.0
 10
46.6131549038
 20
0.3157530814
 30
0.0
 11
69.1029512006
 21
0.3037571284
 31
0.0
 11
63.483665087
 21
0.3071932612
 31
0.0
 11
46.6131549038
 21
0.3157530814
 31
0.0
  0
SPLINE
  5
632
100
AcDbEntity
  8
DRAFT
100
AcDbSpline
 62
7
  6
CONTINUOUS
 70
0
 71
3
 72
9
 73
5
 74
3
 42
0.0000001
 43
0.0000001
 44
0.0000000001
 12
-0.0002471562
 22
22.3579948476
 32
0.0
 13
-0.017756627
 23
22.3579877978
 33
0.0
 40
0.0
 40
0.0
 40
0.0
 40
0.0
 40
0.2500812161
 40
1.0
 40
1.0
 40
1.0
 40
1.0
 10
46.6131549038
 20
0.3157530814
 30
0.0
 10
46.6131343007
 20
2.1795245954
 30
0.0
 10
46.6123224278
 20
9.6321895186
 30
0.0
 10
46.6085951351
 20
17.0848541254
 30
0.0
 10
46.604156459
 20
22.6737457983
 30
0.0
 11
46.6131549038
 21
0.3157530814
 31
0.0
 11
46.6125459003
 21
5.9070675907
 31
0.0
 11
46.604156459
 21
22.6737457983
 31
0.0
  0
SPLINE
  5
633
100
AcDbEntity
  8
DRAFT
100
AcDbSpline
 62
7
  6
CONTINUOUS
 70
0
 71
3
 72
9
 73
5
 74
3
 42
0.0000001
 43
0.0000001
 44
0.0000000001
 12
22.3579228772
 22
0.0096028014
 32
0.0
 13
22.3579204105
 23
0.014230717
 33
0.0
 40
0.0
 40
0.0
 40
0.0
 40
0.0
 40
0.2501308467
 40
1.0
 40
1.0
 40
1.0
 40
1.0
 10
46.604156459
 20
22.6737457983
 30
0.0
 10
48.4682918519
 20
22.6745464506
 30
0.0
 10
55.920932727
 20
22.6779398853
 30
0.0
 10
63.3735732516
 20
22.6821036153
 30
0.0
 10
68.9620782012
 20
22.6856606739
 30
0.0
 11
46.604156459
 21
22.6737457983
 31
0.0
 11
52.1965625738
 21
22.6762922498
 31
0.0
 11
68.9620782012
 21
22.6856606739
 31
0.0
  0
LINE
  5
634
100
AcDbEntity
  8
DRAFT
100
AcDbLine
 62
7
  6
CONTINUOUS
 10
69.0364443025
 20
20.4969453684
 11
67.1
 21
20.4981609223
  0
LINE
  5
635
100
AcDbEntity
  8
RACCORDO
100
AcDbLine
 62
7
  6
CONTINUOUS
 10
67.1
 20
14.5
 11
68.9377000961
 21
14.5011534362
  0
SPLINE
  5
636
100
AcDbEntity
  8
RACCORDO
100
AcDbSpline
 62
7
  6
CONTINUOUS
 70
0
 71
3
 72
9
 73
5
 74
3
 42
0.0000001
 43
0.0000001
 44
0.0000000001
 12
0.0084233699
 22
12.916946633
 32
0.0
 13
0.0054837582
 23
12.9169482154
 33
0.0
 40
0.0
 40
0.0
 40
0.0
 40
0.0
 40
0.2498444396
 40
1.0
 40
1.0
 40
1.0
 40
1.0
 10
-45.0156553929
 20
-37.1253699615
 30
0.0
 10
-45.0149538822
 20
-36.0496275305
 30
0.0
 10
-45.0122688605
 20
-31.7439785737
 30
0.0
 10
-45.010074369
 20
-27.4383293111
 30
0.0
 10
-45.0087031451
 20
-24.2084224687
 30
0.0
 11
-45.0156553929
 21
-37.1253699615
 31
0.0
 11
-45.0136428267
 21
-33.8981426099
 31
0.0
 11
-45.0087031451
 21
-24.2084224687
 31
0.0
  0
SPLINE
  5
637
100
AcDbEntity
  8
RACCORDO
100
AcDbSpline
 62
7
  6
CONTINUOUS
 70
0
 71
3
 72
9
 73
5
 74
3
 42
0.0000001
 43
0.0000001
 44
0.0000000001
 12
0.0054665155
 22
-12.1642791665
 32
0.0
 13
0.0080735716
 23
-12.1642777155
 33
0.0
 40
0.0
 40
0.0
 40
0.0
 40
0.0
 40
0.2501414576
 40
1.0
 40
1.0
 40
1.0
 40
1.0
 10
-0.4
 20
-25.6326882708
 30
0.0
 10
-0.3995441993
 20
-26.6469517779
 30
0.0
 10
-0.3976135999
 20
-30.7017114506
 30
0.0
 10
-0.395249113
 20
-34.7564709169
 30
0.0
 10
-0.3932311008
 20
-37.7969667692
 30
0.0
 11
-0.4
 21
-25.6326882708
 31
0.0
 11
-0.3985512047
 21
-28.6754787545
 31
0.0
 11
-0.3932311008
 21
-37.7969667692
 31
0.0
  0
SPLINE
  5
638
100
AcDbEntity
  8
RACCORDO
100
AcDbSpline
 62
7
  6
CONTINUOUS
 70
0
 71
3
 72
9
 73
5
 74
3
 42
0.0000001
 43
0.0000001
 44
0.0000000001
 12
0.0054792192
 22
-12.9438863036
 32
0.0
 13
0.0084285929
 23
-12.9438847191
 33
0.0
 40
0.0
 40
0.0
 40
0.0
 40
0.0
 40
0.2501447144
 40
1.0
 40
1.0
 40
1.0
 40
1.0
 10
-45.790990916
 20
-24.1583557114
 30
0.0
 10
-45.7905340501
 20
-25.2376372924
 30
0.0
 10
-45.7885849806
 20
-29.5522660074
 30
0.0
 10
-45.7861450731
 20
-33.8668945008
 30
0.0
 10
-45.7840383314
 20
-37.1022412917
 30
0.0
 11
-45.790990916
 21
-24.1583557114
 31
0.0
 11
-45.7895282383
 21
-27.396200414
 31
0.0
 11
-45.7840383314
 21
-37.1022412917
 31
0.0
  0
SPLINE
  5
639
100
AcDbEntity
  8
RACCORDO
100
AcDbSpline
 62
253
  6
CONTINUOUS
 70
0
 71
3
 72
15
 73
11
 74
9
 42
0.0000001
 43
0.0000001
 44
0.0000000001
 12
-0.8758157448
 22
0.0392358184
 32
0.0
 13
-0.0492403291
 23
0.875310264
 33
0.0
 40
0.0
 40
0.0
 40
0.0
 40
0.0
 40
0.12487376
 40
0.2498499888
 40
0.3749033677
 40
0.4999983005
 40
0.6250932234
 40
0.750146786
 40
0.8751239378
 40
1.0
 40
1.0
 40
1.0
 40
1.0
 10
-67.5298056867
 20
-36.2852247319
 30
0.0
 10
-67.5662611551
 20
-36.2835915572
 30
0.0
 10
-67.6390793263
 20
-36.2736475272
 30
0.0
 10
-67.7436698194
 20
-36.2391037474
 30
0.0
 10
-67.8402726109
 20
-36.1859661336
 30
0.0
 10
-67.9255011334
 20
-36.1159786775
 30
0.0
 10
-67.9964240307
 20
-36.0315271968
 30
0.0
 10
-68.0506294475
 20
-35.9355198479
 30
0.0
 10
-68.086342775
 20
-35.8313227447
 30
0.0
 10
-68.0971124387
 20
-35.7586219533
 30
0.0
 10
-68.0991620849
 20
-35.7221868536
 30
0.0
 11
-67.5298056867
 21
-36.2852247319
 31
0.0
 11
-67.6382713373
 21
-36.270384969
 31
0.0
 11
-67.7423078429
 21
-36.2360178511
 31
0.0
 11
-67.8383618406
 21
-36.1831676022
 31
0.0
 11
-67.9231165948
 21
-36.1135677447
 31
0.0
 11
-67.9936476708
 21
-36.0295863542
 31
0.0
 11
-68.0475607201
 21
-35.934124646
 31
0.0
 11
-68.0830919783
 21
-35.8304790948
 31
0.0
 11
-68.0991620849
 21
-35.7221868536
 31
0.0
  0
LINE
  5
63A
100
AcDbEntity
  8
RACCORDO
100
AcDbLine
 62
7
  6
CONTINUOUS
 10
46.6036554698
 20
23.2960037262
 11
46.6033868232
 21
23.6229151607
  0
SPLINE
  5
63B
100
AcDbEntity
  8
RACCORDO
100
AcDbSpline
 62
7
  6
CONTINUOUS
 70
0
 71
3
 72
9
 73
5
 74
3
 42
0.0000001
 43
0.0000001
 44
0.0000000001
 12
-0.0054792192
 22
12.9438863036
 32
0.0
 13
-0.0084285929
 23
12.9438847191
 33
0.0
 40
0.0
 40
0.0
 40
0.0
 40
0.0
 40
0.2501447144
 40
1.0
 40
1.0
 40
1.0
 40
1.0
 10
45.790990916
 20
24.1583557114
 30
0.0
 10
45.7905340501
 20
25.2376372924
 30
0.0
 10
45.7885849806
 20
29.5522660074
 30
0.0
 10
45.7861450731
 20
33.8668945008
 30
0.0
 10
45.7840383314
 20
37.1022412917
 30
0.0
 11
45.790990916
 21
24.1583557114
 31
0.0
 11
45.7895282383
 21
27.396200414
 31
0.0
 11
45.7840383314
 21
37.1022412917
 31
0.0
  0
SPLINE
  5
63C
100
AcDbEntity
  8
RACCORDO
100
AcDbSpline
 62
253
  6
CONTINUOUS
 70
0
 71
3
 72
15
 73
11
 74
9
 42
0.0000001
 43
0.0000001
 44
0.0000000001
 12
0.8758157448
 22
-0.0392358184
 32
0.0
 13
0.0492403291
 23
-0.875310264
 33
0.0
 40
0.0
 40
0.0
 40
0.0
 40
0.0
 40
0.12487376
 40
0.2498499888
 40
0.3749033677
 40
0.4999983005
 40
0.6250932234
 40
0.750146786
 40
0.8751239378
 40
1.0
 40
1.0
 40
1.0
 40
1.0
 10
67.5298056867
 20
36.2852247319
 30
0.0
 10
67.5662611551
 20
36.2835915572
 30
0.0
 10
67.6390793263
 20
36.2736475272
 30
0.0
 10
67.7436698194
 20
36.2391037474
 30
0.0
 10
67.8402726109
 20
36.1859661336
 30
0.0
 10
67.9255011334
 20
36.1159786775
 30
0.0
 10
67.9964240307
 20
36.0315271968
 30
0.0
 10
68.0506294475
 20
35.9355198479
 30
0.0
 10
68.086342775
 20
35.8313227447
 30
0.0
 10
68.0971124387
 20
35.7586219533
 30
0.0
 10
68.0991620849
 20
35.7221868536
 30
0.0
 11
67.5298056867
 21
36.2852247319
 31
0.0
 11
67.6382713373
 21
36.270384969
 31
0.0
 11
67.7423078429
 21
36.2360178511
 31
0.0
 11
67.8383618406
 21
36.1831676022
 31
0.0
 11
67.9231165948
 21
36.1135677447
 31
0.0
 11
67.9936476708
 21
36.0295863542
 31
0.0
 11
68.0475607201
 21
35.934124646
 31
0.0
 11
68.0830919783
 21
35.8304790948
 31
0.0
 11
68.0991620849
 21
35.7221868536
 31
0.0
  0
SPLINE
  5
63D
100
AcDbEntity
  8
RACCORDO
100
AcDbSpline
 62
7
  6
CONTINUOUS
 70
0
 71
3
 72
9
 73
5
 74
3
 42
0.0000001
 43
0.0000001
 44
0.0000000001
 12
-22.0730426293
 22
0.013979654
 32
0.0
 13
-22.0730450236
 23
0.0094727067
 33
0.0
 40
0.0
 40
0.0
 40
0.0
 40
0.0
 40
0.2498626779
 40
1.0
 40
1.0
 40
1.0
 40
1.0
 10
68.6766993907
 20
23.2842793515
 30
0.0
 10
66.8382895436
 20
23.2854436827
 30
0.0
 10
59.4806085492
 20
23.2899153907
 30
0.0
 10
52.1229270979
 20
23.2936351159
 30
0.0
 10
46.6036554698
 20
23.2960037262
 30
0.0
 11
68.6766993907
 21
23.2842793515
 31
0.0
 11
63.1614697621
 21
23.2876313613
 31
0.0
 11
46.6036554698
 21
23.2960037262
 31
0.0
  0
SPLINE
  5
63E
100
AcDbEntity
  8
RACCORDO
100
AcDbSpline
 62
253
  6
CONTINUOUS
 70
0
 71
3
 72
15
 73
11
 74
9
 42
0.0000001
 43
0.0000001
 44
0.0000000001
 12
-0.8758157274
 22
-0.0392363495
 32
0.0
 13
-0.0492402082
 23
-0.8753102772
 33
0.0
 40
0.0
 40
0.0
 40
0.0
 40
0.0
 40
0.1248737597
 40
0.249849989
 40
0.3749033679
 40
0.4999983007
 40
0.6250932235
 40
0.7501467861
 40
0.8751239379
 40
1.0
 40
1.0
 40
1.0
 40
1.0
 10
-67.5298056867
 20
36.2852247319
 30
0.0
 10
-67.5662611543
 20
36.2835915351
 30
0.0
 10
-67.6390793319
 20
36.2736475666
 30
0.0
 10
-67.7436698207
 20
36.2391037528
 30
0.0
 10
-67.8402726118
 20
36.1859661423
 30
0.0
 10
-67.925501132
 20
36.1159786806
 30
0.0
 10
-67.9964240274
 20
36.0315271981
 30
0.0
 10
-68.0506294452
 20
35.9355198486
 30
0.0
 10
-68.0863427731
 20
35.8313227455
 30
0.0
 10
-68.0971124438
 20
35.7586219538
 30
0.0
 10
-68.0991620849
 20
35.7221868536
 30
0.0
 11
-67.5298056867
 21
36.2852247319
 31
0.0
 11
-67.6382713403
 21
36.2703849873
 31
0.0
 11
-67.7423078449
 21
36.2360178626
 31
0.0
 11
-67.8383618412
 21
36.1831676094
 31
0.0
 11
-67.9231165935
 21
36.1135677484
 31
0.0
 11
-67.993647668
 21
36.0295863557
 31
0.0
 11
-68.0475607177
 21
35.9341246468
 31
0.0
 11
-68.0830919781
 21
35.8304790955
 31
0.0
 11
-68.0991620849
 21
35.7221868536
 31
0.0
  0
SPLINE
  5
63F
100
AcDbEntity
  8
RACCORDO
100
AcDbSpline
 62
7
  6
CONTINUOUS
 70
0
 71
3
 72
9
 73
5
 74
3
 42
0.0000001
 43
0.0000001
 44
0.0000000001
 12
-0.0084285929
 22
-12.943884719
 32
0.0
 13
-0.0054792192
 23
-12.9438863035
 33
0.0
 40
0.0
 40
0.0
 40
0.0
 40
0.0
 40
0.2498445444
 40
1.0
 40
1.0
 40
1.0
 40
1.0
 10
-45.7840383314
 20
37.1022412917
 30
0.0
 10
-45.7847402774
 20
36.0242549648
 30
0.0
 10
-45.787426632
 20
31.7096266458
 30
0.0
 10
-45.7896208273
 20
27.3949980205
 30
0.0
 10
-45.790990916
 20
24.1583557114
 30
0.0
 11
-45.7840383314
 21
37.1022412917
 31
0.0
 11
-45.7860518978
 21
33.8682822525
 31
0.0
 11
-45.790990916
 21
24.1583557114
 31
0.0
  0
SPLINE
  5
640
100
AcDbEntity
  8
RACCORDO
100
AcDbSpline
 62
7
  6
CONTINUOUS
 70
0
 71
3
 72
18
 73
14
 74
12
 42
0.0000001
 43
0.0000001
 44
0.0000000001
 12
0.0001805922
 22
-0.2769319545
 32
0.0
 13
0.0457034532
 23
-0.2731346452
 33
0.0
 40
0.0
 40
0.0
 40
0.0
 40
0.0
 40
0.192504075
 40
0.3761178048
 40
0.5448628115
 40
0.6932434815
 40
0.8164389768
 40
0.8673106583
 40
0.910464235
 40
0.9455535867
 40
0.9722992269
 40
0.9904919237
 40
1.0
 40
1.0
 40
1.0
 40
1.0
 10
45.0156553929
 20
-37.1253699614
 30
0.0
 10
45.0156669812
 20
-37.143140138
 30
0.0
 10
45.0157165453
 20
-37.1778598087
 30
0.0
 10
45.0158717816
 20
-37.228156239
 30
0.0
 10
45.0161009481
 20
-37.2743793145
 30
0.0
 10
45.0163964973
 20
-37.3150245671
 30
0.0
 10
45.0167019194
 20
-37.3447885886
 30
0.0
 10
45.0169852091
 20
-37.3648382144
 30
0.0
 10
45.0171901146
 20
-37.3767555628
 30
0.0
 10
45.0174092833
 20
-37.3864435589
 30
0.0
 10
45.0176101929
 20
-37.3938310839
 30
0.0
 10
45.01785116
 20
-37.3988462501
 30
0.0
 10
45.0179841622
 20
-37.4014071648
 30
0.0
 10
45.0181290128
 20
-37.4022728265
 30
0.0
 11
45.0156553929
 21
-37.1253699614
 31
0.0
 11
45.0157328044
 21
-37.1786804462
 31
0.0
 11
45.0158925464
 21
-37.2295287152
 31
0.0
 11
45.0161294433
 21
-37.2762590092
 31
0.0
 11
45.0164357762
 21
-37.317349225
 31
0.0
 11
45.016801548
 21
-37.3514640407
 31
0.0
 11
45.0170030598
 21
-37.3655505967
 31
0.0
 11
45.0172148258
 21
-37.3774993271
 31
0.0
 11
45.0174351231
 21
-37.3872141945
 31
0.0
 11
45.0176621523
 21
-37.3946174383
 31
0.0
 11
45.0178940841
 21
-37.3996502371
 31
0.0
 11
45.0181290128
 21
-37.4022728265
 31
0.0
  0
LINE
  5
641
100
AcDbEntity
  8
RACCORDO
100
AcDbLine
 62
7
  6
CONTINUOUS
 10
-45.790990916
 20
-24.1583557114
 11
-46.3074638198
 21
-24.1248236073
  0
LINE
  5
642
100
AcDbEntity
  8
RACCORDO
100
AcDbLine
 62
7
  6
CONTINUOUS
 10
46.3074638198
 20
-24.1248236073
 11
45.790990916
 21
-24.1583557114
  0
SPLINE
  5
643
100
AcDbEntity
  8
RACCORDO
100
AcDbSpline
 62
7
  6
CONTINUOUS
 70
0
 71
3
 72
18
 73
14
 74
12
 42
0.0000001
 43
0.0000001
 44
0.0000000001
 12
-0.0001804281
 22
0.2770853924
 32
0.0
 13
-0.0452493382
 23
0.2733657708
 33
0.0
 40
0.0
 40
0.0
 40
0.0
 40
0.0
 40
0.1923634878
 40
0.3758649153
 40
0.5445425442
 40
0.6929099169
 40
0.8161451397
 40
0.8670534056
 40
0.9102519571
 40
0.9453921678
 40
0.9721918877
 40
0.9904392416
 40
1.0
 40
1.0
 40
1.0
 40
1.0
 10
45.7840383314
 20
37.1022412917
 30
0.0
 10
45.7840267622
 20
37.1200083292
 30
0.0
 10
45.7839772658
 20
37.1547238795
 30
0.0
 10
45.7838222377
 20
37.2050185976
 30
0.0
 10
45.7835933536
 20
37.251249461
 30
0.0
 10
45.7832981347
 20
37.2919134566
 30
0.0
 10
45.7829929963
 20
37.32169979
 30
0.0
 10
45.7827099823
 20
37.34177174
 30
0.0
 10
45.7825051544
 20
37.3537079134
 30
0.0
 10
45.7822862258
 20
37.3634151701
 30
0.0
 10
45.7820850505
 20
37.3708214463
 30
0.0
 10
45.7818447244
 20
37.3758545034
 30
0.0
 10
45.7817109181
 20
37.3784265325
 30
0.0
 10
45.7815667122
 20
37.3792977272
 30
0.0
 11
45.7840383314
 21
37.1022412917
 31
0.0
 11
45.7839610353
 21
37.1555423595
 31
0.0
 11
45.7838015172
 21
37.2063876851
 31
0.0
 11
45.7835649284
 21
37.2531252031
 31
0.0
 11
45.7832589454
 21
37.2942345048
 31
0.0
 11
45.7828935166
 21
37.3283792367
 31
0.0
 11
45.7826921599
 21
37.3424837393
 31
0.0
 11
45.7824805325
 21
37.3544515585
 31
0.0
 11
45.7822603552
 21
37.3641859099
 31
0.0
 11
45.7820334263
 21
37.3716082542
 31
0.0
 11
45.7818015761
 21
37.3766590118
 31
0.0
 11
45.7815667122
 21
37.3792977272
 31
0.0
  0
LINE
  5
644
100
AcDbEntity
  8
RACCORDO
100
AcDbLine
 62
7
  6
CONTINUOUS
 10
45.7830437625
 20
23.9544390731
 11
45.7829261152
 21
24.2411746917
  0
LINE
  5
645
100
AcDbEntity
  8
RACCORDO
100
AcDbLine
 62
7
  6
CONTINUOUS
 10
45.790990916
 20
24.1583557114
 11
46.3074638198
 21
24.1248236073
  0
LINE
  5
646
100
AcDbEntity
  8
RACCORDO
100
AcDbLine
 62
7
  6
CONTINUOUS
 10
-46.3074638198
 20
24.1248236073
 11
-45.790990916
 21
24.1583557114
  0
SPLINE
  5
647
100
AcDbEntity
  8
RACCORDO
100
AcDbSpline
 62
7
  6
CONTINUOUS
 70
0
 71
3
 72
18
 73
14
 74
12
 42
0.0000001
 43
0.0000001
 44
0.0000000001
 12
0.2777603319
 22
0.0001770854
 32
0.0
 13
0.2739883685
 23
0.0456202504
 33
0.0
 40
0.0
 40
0.0
 40
0.0
 40
0.0
 40
0.1923030564
 40
0.3757803985
 40
0.5444616323
 40
0.6928542318
 40
0.8161276733
 40
0.8670556836
 40
0.9102712587
 40
0.9454229064
 40
0.972225356
 40
0.9904635011
 40
1.0
 40
1.0
 40
1.0
 40
1.0
 10
69.1029509263
 20
-0.3037571287
 30
0.0
 10
69.1207556466
 20
-0.3037457773
 30
0.0
 10
69.1555479341
 20
-0.3036965973
 30
0.0
 10
69.2059576726
 20
-0.3035417735
 30
0.0
 10
69.2523015895
 20
-0.3033128459
 30
0.0
 10
69.2930708467
 20
-0.303017359
 30
0.0
 10
69.3229374439
 20
-0.3027118496
 30
0.0
 10
69.3430652289
 20
-0.3024283945
 30
0.0
 10
69.3550349535
 20
-0.3022232773
 30
0.0
 10
69.3647687207
 20
-0.3020038622
 30
0.0
 10
69.372193567
 20
-0.3018026346
 30
0.0
 10
69.3772359119
 20
-0.3015613707
 30
0.0
 10
69.379811282
 20
-0.3014280777
 30
0.0
 10
69.3806822453
 20
-0.3012830586
 30
0.0
 11
69.1029509263
 21
-0.3037571287
 31
0.0
 11
69.1563650427
 21
-0.3036803376
 31
0.0
 11
69.2073275315
 21
-0.3035210294
 31
0.0
 11
69.2541798989
 21
-0.3032843918
 31
0.0
 11
69.2953963472
 21
-0.3029781309
 31
0.0
 11
69.3296348709
 21
-0.3026122192
 31
0.0
 11
69.3437792173
 21
-0.3024105515
 31
0.0
 11
69.3557809203
 21
-0.3021985719
 31
0.0
 11
69.365542164
 21
-0.3019780064
 31
0.0
 11
69.3729833506
 21
-0.3017506601
 31
0.0
 11
69.3780438564
 21
-0.3015183715
 31
0.0
 11
69.3806822453
 21
-0.3012830586
 31
0.0
  0
SPLINE
  5
648
100
AcDbEntity
  8
RACCORDO
100
AcDbSpline
 62
7
  6
CONTINUOUS
 70
0
 71
3
 72
13
 73
9
 74
7
 42
0.0000001
 43
0.0000001
 44
0.0000000001
 12
-0.4182332357
 22
-0.0005587815
 32
0.0
 13
-0.4175972796
 23
-0.0230621715
 33
0.0
 40
0.0
 40
0.0
 40
0.0
 40
0.0
 40
0.35779974
 40
0.6624068714
 40
0.7850745198
 40
0.8837509099
 40
0.9559881131
 40
1.0
 40
1.0
 40
1.0
 40
1.0
 10
59.4633023306
 20
-0.2956166372
 30
0.0
 10
59.413421083
 20
-0.2956832812
 30
0.0
 10
59.3210744543
 20
-0.2959308566
 30
0.0
 10
59.2116274669
 20
-0.2965645745
 30
0.0
 10
59.1383078911
 20
-0.2972932603
 30
0.0
 10
59.0973821141
 20
-0.2978404528
 30
0.0
 10
59.0674266888
 20
-0.298449117
 30
0.0
 10
59.0512238893
 20
-0.2989104045
 30
0.0
 10
59.0450974746
 20
-0.2992487411
 30
0.0
 11
59.4633023306
 21
-0.2956166372
 31
0.0
 11
59.3136590375
 21
-0.2960345097
 31
0.0
 11
59.1862646252
 21
-0.2968370094
 31
0.0
 11
59.1349635477
 21
-0.2973590212
 31
0.0
 11
59.0936979236
 21
-0.2979448861
 31
0.0
 11
59.0634925749
 21
-0.2985800488
 31
0.0
 11
59.0450974746
 21
-0.2992487411
 31
0.0
  0
SPLINE
  5
649
100
AcDbEntity
  8
RACCORDO
100
AcDbSpline
 62
7
  6
CONTINUOUS
 70
0
 71
3
 72
18
 73
14
 74
12
 42
0.0000001
 43
0.0000001
 44
0.0000000001
 12
-0.2777603319
 22
-0.0001770854
 32
0.0
 13
-0.2739883685
 23
-0.0456202504
 33
0.0
 40
0.0
 40
0.0
 40
0.0
 40
0.0
 40
0.1923030564
 40
0.3757803985
 40
0.5444616323
 40
0.6928542318
 40
0.8161276733
 40
0.8670556836
 40
0.9102712587
 40
0.9454229064
 40
0.972225356
 40
0.9904635011
 40
1.0
 40
1.0
 40
1.0
 40
1.0
 10
-69.1029509263
 20
0.3037571287
 30
0.0
 10
-69.1207556465
 20
0.3037457773
 30
0.0
 10
-69.1555479341
 20
0.3036965973
 30
0.0
 10
-69.2059576726
 20
0.3035417735
 30
0.0
 10
-69.2523015895
 20
0.3033128459
 30
0.0
 10
-69.2930708467
 20
0.303017359
 30
0.0
 10
-69.3229374439
 20
0.3027118496
 30
0.0
 10
-69.3430652289
 20
0.3024283945
 30
0.0
 10
-69.3550349535
 20
0.3022232773
 30
0.0
 10
-69.3647687207
 20
0.3020038622
 30
0.0
 10
-69.372193567
 20
0.3018026346
 30
0.0
 10
-69.3772359119
 20
0.3015613707
 30
0.0
 10
-69.379811282
 20
0.3014280777
 30
0.0
 10
-69.3806822453
 20
0.3012830586
 30
0.0
 11
-69.1029509263
 21
0.3037571287
 31
0.0
 11
-69.1563650427
 21
0.3036803376
 31
0.0
 11
-69.2073275315
 21
0.3035210294
 31
0.0
 11
-69.2541798989
 21
0.3032843918
 31
0.0
 11
-69.2953963472
 21
0.3029781309
 31
0.0
 11
-69.3296348709
 21
0.3026122192
 31
0.0
 11
-69.3437792173
 21
0.3024105515
 31
0.0
 11
-69.3557809203
 21
0.3021985719
 31
0.0
 11
-69.365542164
 21
0.3019780064
 31
0.0
 11
-69.3729833506
 21
0.3017506601
 31
0.0
 11
-69.3780438564
 21
0.3015183715
 31
0.0
 11
-69.3806822453
 21
0.3012830586
 31
0.0
  0
SPLINE
  5
64A
100
AcDbEntity
  8
RACCORDO
100
AcDbSpline
 62
7
  6
CONTINUOUS
 70
0
 71
3
 72
9
 73
5
 74
3
 42
0.0000001
 43
0.0000001
 44
0.0000000001
 12
22.489794674
 22
0.014338309
 32
0.0
 13
22.4897971711
 23
0.0096574351
 33
0.0
 40
0.0
 40
0.0
 40
0.0
 40
0.0
 40
0.2498593711
 40
1.0
 40
1.0
 40
1.0
 40
1.0
 10
-69.1029509263
 20
0.3037571287
 30
0.0
 10
-67.2298556083
 20
0.3049513156
 30
0.0
 10
-59.7332572603
 20
0.3095353034
 30
0.0
 10
-52.2366584348
 20
0.3133382699
 30
0.0
 10
-46.6131549038
 20
0.3157530814
 30
0.0
 11
-69.1029509263
 21
0.3037571287
 31
0.0
 11
-63.4836648808
 21
0.3071932613
 31
0.0
 11
-46.6131549038
 21
0.3157530814
 31
0.0
  0
SPLINE
  5
64B
100
AcDbEntity
  8
RACCORDO
100
AcDbSpline
 62
7
  6
CONTINUOUS
 70
0
 71
3
 72
13
 73
9
 74
7
 42
0.0000001
 43
0.0000001
 44
0.0000000001
 12
0.4182332357
 22
0.0005587815
 32
0.0
 13
0.4175972796
 23
0.0230621715
 33
0.0
 40
0.0
 40
0.0
 40
0.0
 40
0.0
 40
0.3577997401
 40
0.6624068714
 40
0.7850745198
 40
0.8837509099
 40
0.9559881131
 40
1.0
 40
1.0
 40
1.0
 40
1.0
 10
-59.4633023306
 20
0.2956166372
 30
0.0
 10
-59.4134210829
 20
0.2956832812
 30
0.0
 10
-59.3210744542
 20
0.2959308566
 30
0.0
 10
-59.2116274669
 20
0.2965645745
 30
0.0
 10
-59.1383078911
 20
0.2972932603
 30
0.0
 10
-59.097382114
 20
0.2978404528
 30
0.0
 10
-59.0674266888
 20
0.298449117
 30
0.0
 10
-59.0512238893
 20
0.2989104045
 30
0.0
 10
-59.0450974746
 20
0.2992487411
 30
0.0
 11
-59.4633023306
 21
0.2956166372
 31
0.0
 11
-59.3136590375
 21
0.2960345097
 31
0.0
 11
-59.1862646252
 21
0.2968370094
 31
0.0
 11
-59.1349635477
 21
0.2973590212
 31
0.0
 11
-59.0936979236
 21
0.2979448861
 31
0.0
 11
-59.0634925748
 21
0.2985800488
 31
0.0
 11
-59.0450974746
 21
0.2992487411
 31
0.0
  0
SPLINE
  5
64C
100
AcDbEntity
  8
DRAFT
100
AcDbSpline
 62
7
  6
CONTINUOUS
 70
0
 71
3
 72
9
 73
5
 74
3
 42
0.0000001
 43
0.0000001
 44
0.0000000001
 12
-0.017756627
 22
22.3579877979
 32
0.0
 13
-0.0002471562
 23
22.3579948477
 33
0.0
 40
0.0
 40
0.0
 40
0.0
 40
0.0
 40
0.2498873917
 40
1.0
 40
1.0
 40
1.0
 40
1.0
 10
-46.604156459
 20
-22.6737457983
 30
0.0
 10
-46.6056355114
 20
-20.8114193798
 30
0.0
 10
-46.6108237414
 20
-13.3587562181
 30
0.0
 10
-46.6130931055
 20
-5.9060910249
 30
0.0
 10
-46.6131549038
 20
-0.3157530814
 30
0.0
 11
-46.604156459
 21
-22.6737457983
 31
0.0
 11
-46.6080461931
 21
-17.0867661349
 31
0.0
 11
-46.6131549038
 21
-0.3157530814
 31
0.0
  0
SPLINE
  5
64D
100
AcDbEntity
  8
DRAFT
100
AcDbSpline
 62
7
  6
CONTINUOUS
 70
0
 71
3
 72
9
 73
5
 74
3
 42
0.0000001
 43
0.0000001
 44
0.0000000001
 12
0.0002471562
 22
22.3579948476
 32
0.0
 13
0.017756627
 23
22.3579877978
 33
0.0
 40
0.0
 40
0.0
 40
0.0
 40
0.0
 40
0.2500812161
 40
1.0
 40
1.0
 40
1.0
 40
1.0
 10
-46.6131549038
 20
0.3157530814
 30
0.0
 10
-46.6131343007
 20
2.1795245954
 30
0.0
 10
-46.6123224278
 20
9.6321895186
 30
0.0
 10
-46.6085951351
 20
17.0848541254
 30
0.0
 10
-46.604156459
 20
22.6737457983
 30
0.0
 11
-46.6131549038
 21
0.3157530814
 31
0.0
 11
-46.6125459003
 21
5.9070675907
 31
0.0
 11
-46.604156459
 21
22.6737457983
 31
0.0
  0
LINE
  5
64E
100
AcDbEntity
  8
RACCORDO
100
AcDbLine
 62
7
  6
CONTINUOUS
 10
-46.6036554698
 20
23.2960037262
 11
-46.6033868232
 21
23.6229151607
  0
LINE
  5
64F
100
AcDbEntity
  8
RACCORDO
100
AcDbLine
 62
7
  6
CONTINUOUS
 10
-46.6033868232
 20
-23.6229151607
 11
-46.6036554698
 21
-23.2960037262
  0
SPLINE
  5
650
100
AcDbEntity
  8
RACCORDO
100
AcDbSpline
 62
7
  6
CONTINUOUS
 70
0
 71
3
 72
9
 73
5
 74
3
 42
0.0000001
 43
0.0000001
 44
0.0000000001
 12
19.4394666542
 22
0.0069812531
 32
0.0
 13
19.4394419946
 23
0.0317407307
 33
0.0
 40
0.0
 40
0.0
 40
0.0
 40
0.0
 40
0.2513676133
 40
1.0
 40
1.0
 40
1.0
 40
1.0
 10
46.4863979526
 20
22.6816868553
 30
0.0
 10
48.115215398
 20
22.682271809
 30
0.0
 10
54.5950371996
 20
22.6856229946
 30
0.0
 10
61.0748569734
 20
22.6930206428
 30
0.0
 10
65.9258555925
 20
22.7009413558
 30
0.0
 11
46.4863979526
 21
22.6816868553
 31
0.0
 11
51.3728499513
 21
22.6842122465
 31
0.0
 11
65.9258555925
 21
22.7009413558
 31
0.0
  0
SPLINE
  5
651
100
AcDbEntity
  8
RACCORDO
100
AcDbSpline
 62
7
  6
CONTINUOUS
 70
0
 71
3
 72
9
 73
5
 74
3
 42
0.0000001
 43
0.0000001
 44
0.0000000001
 12
22.0730426293
 22
0.013979654
 32
0.0
 13
22.0730450236
 23
0.0094727067
 33
0.0
 40
0.0
 40
0.0
 40
0.0
 40
0.0
 40
0.2498626779
 40
1.0
 40
1.0
 40
1.0
 40
1.0
 10
-68.6766993907
 20
23.2842793515
 30
0.0
 10
-66.8382895436
 20
23.2854436827
 30
0.0
 10
-59.4806085492
 20
23.2899153907
 30
0.0
 10
-52.1229270979
 20
23.2936351159
 30
0.0
 10
-46.6036554698
 20
23.2960037262
 30
0.0
 11
-68.6766993907
 21
23.2842793515
 31
0.0
 11
-63.1614697621
 21
23.2876313613
 31
0.0
 11
-46.6036554698
 21
23.2960037262
 31
0.0
  0
SPLINE
  5
652
100
AcDbEntity
  8
RACCORDO
100
AcDbSpline
 62
7
  6
CONTINUOUS
 70
0
 71
3
 72
9
 73
5
 74
3
 42
0.0000001
 43
0.0000001
 44
0.0000000001
 12
-19.4652166582
 22
-0.0067887412
 32
0.0
 13
-19.465192114
 23
-0.0316481361
 33
0.0
 40
0.0
 40
0.0
 40
0.0
 40
0.0
 40
0.2513573713
 40
1.0
 40
1.0
 40
1.0
 40
1.0
 10
-46.4605190373
 20
23.2880905438
 30
0.0
 10
-48.0914276008
 20
23.2875217437
 30
0.0
 10
-54.5798327462
 20
23.2842314535
 30
0.0
 10
-61.0682358993
 20
23.2768800702
 30
0.0
 10
-65.9257267636
 20
23.2689823556
 30
0.0
 11
-46.4605190373
 21
23.2880905438
 31
0.0
 11
-51.3532443972
 21
23.2856110843
 31
0.0
 11
-65.9257267636
 21
23.2689823556
 31
0.0
  0
SPLINE
  5
653
100
AcDbEntity
  8
RACCORDO
100
AcDbSpline
 62
7
  6
CONTINUOUS
 70
0
 71
3
 72
18
 73
14
 74
12
 42
0.0000001
 43
0.0000001
 44
0.0000000001
 12
-0.2776962326
 22
-0.0001758755
 32
0.0
 13
-0.2739774962
 23
-0.0452941506
 33
0.0
 40
0.0
 40
0.0
 40
0.0
 40
0.0
 40
0.1922434173
 40
0.3756884951
 40
0.5443612706
 40
0.6927595078
 40
0.8160435388
 40
0.8669775168
 40
0.9102000579
 40
0.9453609212
 40
0.9721766534
 40
0.9904345762
 40
1.0
 40
1.0
 40
1.0
 40
1.0
 10
-68.6766993907
 20
23.2842793515
 30
0.0
 10
-68.6944944816
 20
23.2842680812
 30
0.0
 10
-68.7292702331
 20
23.2842191003
 30
0.0
 10
-68.7796590493
 20
23.2840646577
 30
0.0
 10
-68.8259890249
 20
23.2838361273
 30
0.0
 10
-68.8667495961
 20
23.2835410255
 30
0.0
 10
-68.8966113549
 20
23.2832358075
 30
0.0
 10
-68.9167366796
 20
23.2829526066
 30
0.0
 10
-68.9287056838
 20
23.2827476032
 30
0.0
 10
-68.9384399632
 20
23.2825284455
 30
0.0
 10
-68.9458669433
 20
23.2823270668
 30
0.0
 10
-68.9509140077
 20
23.2820864202
 30
0.0
 10
-68.9534931185
 20
23.2819524997
 30
0.0
 10
-68.9543666888
 20
23.2818080805
 30
0.0
 11
-68.6766993907
 21
23.2842793515
 31
0.0
 11
-68.7300846193
 21
23.284202869
 31
0.0
 11
-68.7810263886
 21
23.2840439447
 31
0.0
 11
-68.8278655966
 21
23.283807708
 31
0.0
 11
-68.869074101
 21
23.2835018293
 31
0.0
 11
-68.9033076671
 21
23.2831362702
 31
0.0
 11
-68.9174504084
 21
23.2829347699
 31
0.0
 11
-68.9294512785
 21
23.2827229541
 31
0.0
 11
-68.9392128318
 21
23.2825025505
 31
0.0
 11
-68.9466559948
 21
23.2822753651
 31
0.0
 11
-68.9517208355
 21
23.2820432363
 31
0.0
 11
-68.9543666888
 21
23.2818080805
 31
0.0
  0
SPLINE
  5
654
100
AcDbEntity
  8
RACCORDO
100
AcDbSpline
 62
7
  6
CONTINUOUS
 70
0
 71
3
 72
18
 73
14
 74
12
 42
0.0000001
 43
0.0000001
 44
0.0000000001
 12
0.0001837604
 22
-0.2768679066
 32
0.0
 13
0.0454753562
 23
-0.2731077872
 33
0.0
 40
0.0
 40
0.0
 40
0.0
 40
0.0
 40
0.192436718
 40
0.3759669024
 40
0.5446430202
 40
0.6929951894
 40
0.8162141074
 40
0.86711541
 40
0.9103073071
 40
0.9454399683
 40
0.9722294645
 40
0.9904616932
 40
1.0
 40
1.0
 40
1.0
 40
1.0
 10
-0.3932311008
 20
-37.7969667692
 30
0.0
 10
-0.3932193133
 20
-37.8147266196
 30
0.0
 10
-0.393169409
 20
-37.8494243335
 30
0.0
 10
-0.3930138458
 20
-37.8996888462
 30
0.0
 10
-0.39278456
 20
-37.9458845319
 30
0.0
 10
-0.3924890786
 20
-37.9865135586
 30
0.0
 10
-0.392183837
 20
-38.0162729608
 30
0.0
 10
-0.3919007785
 20
-38.0363263873
 30
0.0
 10
-0.3916959822
 20
-38.0482512439
 30
0.0
 10
-0.3914769877
 20
-38.0579486002
 30
0.0
 10
-0.3912760639
 20
-38.065346079
 30
0.0
 10
-0.3910354057
 20
-38.0703706529
 30
0.0
 10
-0.3909021929
 20
-38.072937335
 30
0.0
 10
-0.3907576069
 20
-38.0738056636
 30
0.0
 11
-0.3932311008
 21
-37.7969667692
 31
0.0
 11
-0.3931531677
 21
-37.8502462752
 31
0.0
 11
-0.3929931122
 21
-37.9010596523
 31
0.0
 11
-0.3927561248
 21
-37.9477600649
 31
0.0
 11
-0.3924498916
 21
-37.9888328869
 31
0.0
 11
-0.3920843432
 21
-38.0229462998
 31
0.0
 11
-0.3918829647
 21
-38.0370378011
 31
0.0
 11
-0.3916713342
 21
-38.0489943811
 31
0.0
 11
-0.3914511676
 21
-38.0587189976
 31
0.0
 11
-0.3912242594
 21
-38.0661326794
 31
0.0
 11
-0.3909924371
 21
-38.0711752735
 31
0.0
 11
-0.3907576069
 21
-38.0738056636
 31
0.0
  0
SPLINE
  5
655
100
AcDbEntity
  8
RACCORDO
100
AcDbSpline
 62
7
  6
CONTINUOUS
 70
0
 71
3
 72
18
 73
14
 74
12
 42
0.0000001
 43
0.0000001
 44
0.0000000001
 12
-0.0001837604
 22
0.2768679066
 32
0.0
 13
-0.0454753562
 23
0.2731077872
 33
0.0
 40
0.0
 40
0.0
 40
0.0
 40
0.0
 40
0.192436718
 40
0.3759669024
 40
0.5446430202
 40
0.6929951894
 40
0.8162141074
 40
0.86711541
 40
0.9103073071
 40
0.9454399683
 40
0.9722294645
 40
0.9904616932
 40
1.0
 40
1.0
 40
1.0
 40
1.0
 10
0.3932311008
 20
37.7969667692
 30
0.0
 10
0.3932193133
 20
37.8147266196
 30
0.0
 10
0.3931694091
 20
37.8494243335
 30
0.0
 10
0.3930138458
 20
37.8996888462
 30
0.0
 10
0.39278456
 20
37.9458845319
 30
0.0
 10
0.3924890786
 20
37.9865135586
 30
0.0
 10
0.392183837
 20
38.0162729608
 30
0.0
 10
0.3919007785
 20
38.0363263873
 30
0.0
 10
0.3916959822
 20
38.0482512439
 30
0.0
 10
0.3914769877
 20
38.0579486002
 30
0.0
 10
0.3912760639
 20
38.065346079
 30
0.0
 10
0.3910354057
 20
38.0703706529
 30
0.0
 10
0.3909021929
 20
38.072937335
 30
0.0
 10
0.3907576069
 20
38.0738056636
 30
0.0
 11
0.3932311008
 21
37.7969667692
 31
0.0
 11
0.3931531677
 21
37.8502462752
 31
0.0
 11
0.3929931122
 21
37.9010596523
 31
0.0
 11
0.3927561248
 21
37.9477600649
 31
0.0
 11
0.3924498916
 21
37.9888328869
 31
0.0
 11
0.3920843432
 21
38.0229462998
 31
0.0
 11
0.3918829647
 21
38.0370378011
 31
0.0
 11
0.3916713342
 21
38.0489943811
 31
0.0
 11
0.3914511676
 21
38.0587189976
 31
0.0
 11
0.3912242594
 21
38.0661326794
 31
0.0
 11
0.3909924371
 21
38.0711752735
 31
0.0
 11
0.3907576069
 21
38.0738056636
 31
0.0
  0
SPLINE
  5
656
100
AcDbEntity
  8
RACCORDO
100
AcDbSpline
 62
7
  6
CONTINUOUS
 70
0
 71
3
 72
18
 73
14
 74
12
 42
0.0000001
 43
0.0000001
 44
0.0000000001
 12
-0.0457034534
 22
-0.2731346447
 32
0.0
 13
-0.0001805922
 23
-0.276931954
 33
0.0
 40
0.0
 40
0.0
 40
0.0
 40
0.0
 40
0.0095080766
 40
0.0277007739
 40
0.0544464148
 40
0.0895357668
 40
0.1326893439
 40
0.1835610257
 40
0.3067565211
 40
0.4551371909
 40
0.623882197
 40
0.807495926
 40
1.0
 40
1.0
 40
1.0
 40
1.0
 10
45.0181290128
 20
37.4022728262
 30
0.0
 10
45.0179841621
 20
37.4014071645
 30
0.0
 10
45.01785116
 20
37.3988462497
 30
0.0
 10
45.0176101929
 20
37.3938310834
 30
0.0
 10
45.0174092833
 20
37.3864435583
 30
0.0
 10
45.0171901146
 20
37.3767555621
 30
0.0
 10
45.0169852091
 20
37.3648382136
 30
0.0
 10
45.0167019194
 20
37.3447885877
 30
0.0
 10
45.0163964973
 20
37.3150245663
 30
0.0
 10
45.0161009481
 20
37.2743793138
 30
0.0
 10
45.0158717816
 20
37.2281562385
 30
0.0
 10
45.0157165453
 20
37.1778598085
 30
0.0
 10
45.0156669812
 20
37.143140138
 30
0.0
 10
45.0156553929
 20
37.1253699615
 30
0.0
 11
45.0181290128
 21
37.4022728262
 31
0.0
 11
45.0178940841
 21
37.3996502367
 31
0.0
 11
45.0176621523
 21
37.3946174378
 31
0.0
 11
45.0174351231
 21
37.3872141938
 31
0.0
 11
45.0172148258
 21
37.3774993264
 31
0.0
 11
45.0170030598
 21
37.3655505958
 31
0.0
 11
45.0168015479
 21
37.3514640399
 31
0.0
 11
45.0164357762
 21
37.3173492241
 31
0.0
 11
45.0161294433
 21
37.2762590084
 31
0.0
 11
45.0158925464
 21
37.2295287147
 31
0.0
 11
45.0157328044
 21
37.178680446
 31
0.0
 11
45.0156553929
 21
37.1253699615
 31
0.0
  0
SPLINE
  5
657
100
AcDbEntity
  8
RACCORDO
100
AcDbSpline
 62
7
  6
CONTINUOUS
 70
0
 71
3
 72
18
 73
14
 74
12
 42
0.0000001
 43
0.0000001
 44
0.0000000001
 12
-0.0454754151
 22
-0.2731078548
 32
0.0
 13
-0.0001837605
 23
-0.2768679829
 33
0.0
 40
0.0
 40
0.0
 40
0.0
 40
0.0
 40
0.0095382917
 40
0.0277705118
 40
0.0545600038
 40
0.0896926615
 40
0.1328845572
 40
0.1837858598
 40
0.3070047818
 40
0.4553569585
 40
0.6240330844
 40
0.8075632744
 40
1.0
 40
1.0
 40
1.0
 40
1.0
 10
-0.3907576068
 20
38.073805665
 30
0.0
 10
-0.3909021927
 20
38.0729373375
 30
0.0
 10
-0.3910354059
 20
38.0703706569
 30
0.0
 10
-0.3912760639
 20
38.0653460843
 30
0.0
 10
-0.3914769878
 20
38.0579486049
 30
0.0
 10
-0.3916959823
 20
38.0482512468
 30
0.0
 10
-0.3919007787
 20
38.0363263874
 30
0.0
 10
-0.3921838373
 20
38.0162729551
 30
0.0
 10
-0.3924890789
 20
37.9865135436
 30
0.0
 10
-0.3927845604
 20
37.945884504
 30
0.0
 10
-0.3930138461
 20
37.8996888035
 30
0.0
 10
-0.3931694094
 20
37.849424275
 30
0.0
 10
-0.3932193134
 20
37.8147265504
 30
0.0
 10
-0.3932311008
 20
37.7969666944
 30
0.0
 11
-0.3907576068
 21
38.073805665
 31
0.0
 11
-0.390992437
 21
38.0711752784
 31
0.0
 11
-0.3912242594
 21
38.0661326852
 31
0.0
 11
-0.3914511677
 21
38.0587190026
 31
0.0
 11
-0.3916713343
 21
38.0489943844
 31
0.0
 11
-0.3918829648
 21
38.0370378015
 31
0.0
 11
-0.3920843434
 21
38.0229462962
 31
0.0
 11
-0.3924498919
 21
37.9888328728
 31
0.0
 11
-0.3927561251
 21
37.9477600375
 31
0.0
 11
-0.3929931125
 21
37.9010596098
 31
0.0
 11
-0.393153168
 21
37.8502462171
 31
0.0
 11
-0.3932311008
 21
37.7969666944
 31
0.0
  0
SPLINE
  5
658
100
AcDbEntity
  8
RACCORDO
100
AcDbSpline
 62
7
  6
CONTINUOUS
 70
0
 71
3
 72
18
 73
14
 74
12
 42
0.0000001
 43
0.0000001
 44
0.0000000001
 12
-0.0001805922
 22
0.2769319545
 32
0.0
 13
-0.0457034532
 23
0.2731346452
 33
0.0
 40
0.0
 40
0.0
 40
0.0
 40
0.0
 40
0.192504075
 40
0.3761178048
 40
0.5448628115
 40
0.6932434815
 40
0.8164389768
 40
0.8673106583
 40
0.910464235
 40
0.9455535867
 40
0.9722992269
 40
0.9904919237
 40
1.0
 40
1.0
 40
1.0
 40
1.0
 10
-45.0156553929
 20
37.1253699614
 30
0.0
 10
-45.0156669812
 20
37.143140138
 30
0.0
 10
-45.0157165453
 20
37.1778598087
 30
0.0
 10
-45.0158717816
 20
37.228156239
 30
0.0
 10
-45.0161009481
 20
37.2743793145
 30
0.0
 10
-45.0163964973
 20
37.3150245671
 30
0.0
 10
-45.0167019194
 20
37.3447885886
 30
0.0
 10
-45.0169852091
 20
37.3648382144
 30
0.0
 10
-45.0171901146
 20
37.3767555628
 30
0.0
 10
-45.0174092833
 20
37.3864435589
 30
0.0
 10
-45.0176101929
 20
37.3938310839
 30
0.0
 10
-45.01785116
 20
37.3988462501
 30
0.0
 10
-45.0179841622
 20
37.4014071648
 30
0.0
 10
-45.0181290128
 20
37.4022728265
 30
0.0
 11
-45.0156553929
 21
37.1253699614
 31
0.0
 11
-45.0157328044
 21
37.1786804462
 31
0.0
 11
-45.0158925464
 21
37.2295287152
 31
0.0
 11
-45.0161294433
 21
37.2762590092
 31
0.0
 11
-45.0164357762
 21
37.317349225
 31
0.0
 11
-45.016801548
 21
37.3514640407
 31
0.0
 11
-45.0170030598
 21
37.3655505967
 31
0.0
 11
-45.0172148258
 21
37.3774993271
 31
0.0
 11
-45.0174351231
 21
37.3872141945
 31
0.0
 11
-45.0176621523
 21
37.3946174383
 31
0.0
 11
-45.0178940841
 21
37.3996502371
 31
0.0
 11
-45.0181290128
 21
37.4022728265
 31
0.0
  0
LINE
  5
659
100
AcDbEntity
  8
RACCORDO
100
AcDbLine
 62
7
  6
CONTINUOUS
 10
-45.0167589215
 20
23.9785263357
 11
-45.0168826961
 21
24.2713658996
  0
SPLINE
  5
65A
100
AcDbEntity
  8
RACCORDO
100
AcDbSpline
 62
7
  6
CONTINUOUS
 70
0
 71
3
 72
18
 73
14
 74
12
 42
0.0000001
 43
0.0000001
 44
0.0000000001
 12
-0.0452493378
 22
-0.2733657683
 32
0.0
 13
-0.0001804281
 23
-0.2770853899
 33
0.0
 40
0.0
 40
0.0
 40
0.0
 40
0.0
 40
0.0095607622
 40
0.0278081195
 40
0.0546078342
 40
0.0897480465
 40
0.1329466055
 40
0.1838548718
 40
0.3070900785
 40
0.4554574602
 40
0.6241350657
 40
0.8076365132
 40
1.0
 40
1.0
 40
1.0
 40
1.0
 10
-45.7815667124
 20
37.3792977246
 30
0.0
 10
-45.7817109184
 20
37.3784265296
 30
0.0
 10
-45.7818447245
 20
37.3758544999
 30
0.0
 10
-45.7820850507
 20
37.3708214425
 30
0.0
 10
-45.7822862259
 20
37.3634151665
 30
0.0
 10
-45.7825051545
 20
37.3537079095
 30
0.0
 10
-45.7827099824
 20
37.3417717353
 30
0.0
 10
-45.7829929963
 20
37.3216997862
 30
0.0
 10
-45.7832981347
 20
37.2919134538
 30
0.0
 10
-45.7835933536
 20
37.2512494613
 30
0.0
 10
-45.7838222377
 20
37.2050185978
 30
0.0
 10
-45.7839772658
 20
37.1547238807
 30
0.0
 10
-45.7840267622
 20
37.1200083289
 30
0.0
 10
-45.7840383314
 20
37.1022412917
 30
0.0
 11
-45.7815667124
 21
37.3792977246
 31
0.0
 11
-45.7818015763
 21
37.3766590082
 31
0.0
 11
-45.7820334265
 21
37.3716082497
 31
0.0
 11
-45.7822603553
 21
37.3641859069
 31
0.0
 11
-45.7824805326
 21
37.3544515551
 31
0.0
 11
-45.78269216
 21
37.342483734
 31
0.0
 11
-45.7828935167
 21
37.3283792314
 31
0.0
 11
-45.7832589454
 21
37.2942345043
 31
0.0
 11
-45.7835649284
 21
37.2531252005
 31
0.0
 11
-45.7838015172
 21
37.2063876893
 31
0.0
 11
-45.7839610353
 21
37.1555423587
 31
0.0
 11
-45.7840383314
 21
37.1022412917
 31
0.0
  0
LINE
  5
65B
100
AcDbEntity
  8
RACCORDO
100
AcDbLine
 62
7
  6
CONTINUOUS
 10
-45.7829261188
 20
24.2411660079
 11
-45.7830437625
 21
23.9544390731
  0
SPLINE
  5
65C
100
AcDbEntity
  8
RACCORDO
100
AcDbSpline
 62
7
  6
CONTINUOUS
 70
0
 71
3
 72
9
 73
5
 74
3
 42
0.0000001
 43
0.0000001
 44
0.0000000001
 12
-22.0941955415
 22
0.0094895296
 32
0.0
 13
-22.0941931383
 23
0.0140087701
 33
0.0
 40
0.0
 40
0.0
 40
0.0
 40
0.0
 40
0.2501290468
 40
1.0
 40
1.0
 40
1.0
 40
1.0
 10
-46.604156459
 20
22.6737457983
 30
0.0
 10
-48.4462898162
 20
22.6745370006
 30
0.0
 10
-55.8110215814
 20
22.677888162
 30
0.0
 10
-63.1757530045
 20
22.6819915455
 30
0.0
 10
-68.6983508938
 20
22.6854931355
 30
0.0
 11
-46.604156459
 21
22.6737457983
 31
0.0
 11
-52.130556468
 21
22.6762605087
 31
0.0
 11
-68.6983508938
 21
22.6854931355
 31
0.0
  0
SPLINE
  5
65D
100
AcDbEntity
  8
RACCORDO
100
AcDbSpline
 62
7
  6
CONTINUOUS
 70
0
 71
3
 72
18
 73
14
 74
12
 42
0.0000001
 43
0.0000001
 44
0.0000000001
 12
0.2737142634
 22
-0.045835176
 32
0.0
 13
0.2775253689
 23
-0.0001759647
 33
0.0
 40
0.0
 40
0.0
 40
0.0
 40
0.0
 40
0.0095034026
 40
0.0276986176
 40
0.0544537073
 40
0.0895587313
 40
0.1327329484
 40
0.1836286138
 40
0.3068739117
 40
0.4552911312
 40
0.6240398697
 40
0.8076067973
 40
1.0
 40
1.0
 40
1.0
 40
1.0
 10
-68.9758471801
 20
22.6879663791
 30
0.0
 10
-68.9749801078
 20
22.6878211823
 30
0.0
 10
-68.9724138573
 20
22.6876882555
 30
0.0
 10
-68.9673872897
 20
22.6874468445
 30
0.0
 10
-68.9599813551
 20
22.68724581
 30
0.0
 10
-68.950268366
 20
22.6870263836
 30
0.0
 10
-68.9383198954
 20
22.686821313
 30
0.0
 10
-68.9182185662
 20
22.6865378253
 30
0.0
 10
-68.8883805524
 20
22.6862323266
 30
0.0
 10
-68.847639866
 20
22.6859368985
 30
0.0
 10
-68.8013183424
 20
22.6857080964
 30
0.0
 10
-68.7509283749
 20
22.6855534592
 30
0.0
 10
-68.716148892
 20
22.6855044203
 30
0.0
 10
-68.6983508938
 20
22.6854931355
 30
0.0
 11
-68.9758471801
 21
22.6879663791
 31
0.0
 11
-68.9732202542
 21
22.6877311603
 31
0.0
 11
-68.9681759614
 21
22.68749895
 31
0.0
 11
-68.9607542232
 21
22.6872716628
 31
0.0
 11
-68.9510141827
 21
22.6870511368
 31
0.0
 11
-68.9390341146
 21
22.6868391796
 31
0.0
 11
-68.9249107131
 21
22.6866375216
 31
0.0
 11
-68.8907089667
 21
22.6862716166
 31
0.0
 11
-68.8495205532
 21
22.6859653902
 31
0.0
 11
-68.8026890852
 21
22.6857288538
 31
0.0
 11
-68.7517448442
 21
22.6855697187
 31
0.0
 11
-68.6983508938
 21
22.6854931355
 31
0.0
  0
SPLINE
  5
65E
100
AcDbEntity
  8
RACCORDO
100
AcDbSpline
 62
7
  6
CONTINUOUS
 70
0
 71
3
 72
18
 73
14
 74
12
 42
0.0000001
 43
0.0000001
 44
0.0000000001
 12
0.2739881195
 22
-0.0456200354
 32
0.0
 13
0.2777600509
 23
-0.0001770852
 33
0.0
 40
0.0
 40
0.0
 40
0.0
 40
0.0
 40
0.0095365652
 40
0.0277747469
 40
0.0545772134
 40
0.0897288764
 40
0.1329444576
 40
0.1838724682
 40
0.307145894
 40
0.4555384632
 40
0.6242196621
 40
0.8076969772
 40
1.0
 40
1.0
 40
1.0
 40
1.0
 10
-69.3806822387
 20
-0.3012830591
 30
0.0
 10
-69.3798112701
 20
-0.3014280786
 30
0.0
 10
-69.3772358931
 20
-0.30156137
 30
0.0
 10
-69.3721935421
 20
-0.3018026349
 30
0.0
 10
-69.364768697
 20
-0.3020038619
 30
0.0
 10
-69.3550349361
 20
-0.3022232769
 30
0.0
 10
-69.3430652216
 20
-0.3024283939
 30
0.0
 10
-69.3229374578
 20
-0.3027118487
 30
0.0
 10
-69.293070895
 20
-0.3030173579
 30
0.0
 10
-69.2523016866
 20
-0.3033128447
 30
0.0
 10
-69.2059578251
 20
-0.3035417724
 30
0.0
 10
-69.1555481465
 20
-0.3036965959
 30
0.0
 10
-69.1207558997
 20
-0.303745777
 30
0.0
 10
-69.1029512006
 20
-0.3037571284
 30
0.0
 11
-69.3806822387
 21
-0.3012830591
 31
0.0
 11
-69.378043834
 21
-0.3015183718
 31
0.0
 11
-69.3729833232
 21
-0.3017506602
 31
0.0
 11
-69.3655421393
 21
-0.3019780063
 31
0.0
 11
-69.3557809013
 21
-0.3021985716
 31
0.0
 11
-69.3437792087
 21
-0.3024105509
 31
0.0
 11
-69.3296348766
 21
-0.3026122184
 31
0.0
 11
-69.2953963919
 21
-0.3029781299
 31
0.0
 11
-69.2541799937
 21
-0.3032843906
 31
0.0
 11
-69.2073276834
 21
-0.3035210283
 31
0.0
 11
-69.1563652536
 21
-0.3036803365
 31
0.0
 11
-69.1029512006
 21
-0.3037571284
 31
0.0
  0
SPLINE
  5
65F
100
AcDbEntity
  8
RACCORDO
100
AcDbSpline
 62
7
  6
CONTINUOUS
 70
0
 71
3
 72
13
 73
9
 74
7
 42
0.0000001
 43
0.0000001
 44
0.0000000001
 12
-0.4175972796
 22
0.0230621715
 32
0.0
 13
-0.4182332357
 23
0.0005587815
 33
0.0
 40
0.0
 40
0.0
 40
0.0
 40
0.0
 40
0.0440118869
 40
0.1162490901
 40
0.2149254802
 40
0.3375931286
 40
0.64220026
 40
1.0
 40
1.0
 40
1.0
 40
1.0
 10
-59.0450974746
 20
-0.2992487411
 30
0.0
 10
-59.0512238893
 20
-0.2989104045
 30
0.0
 10
-59.0674266888
 20
-0.298449117
 30
0.0
 10
-59.0973821141
 20
-0.2978404528
 30
0.0
 10
-59.1383078911
 20
-0.2972932603
 30
0.0
 10
-59.2116274669
 20
-0.2965645745
 30
0.0
 10
-59.3210744543
 20
-0.2959308566
 30
0.0
 10
-59.413421083
 20
-0.2956832812
 30
0.0
 10
-59.4633023306
 20
-0.2956166372
 30
0.0
 11
-59.0450974746
 21
-0.2992487411
 31
0.0
 11
-59.0634925749
 21
-0.2985800488
 31
0.0
 11
-59.0936979236
 21
-0.2979448861
 31
0.0
 11
-59.1349635477
 21
-0.2973590212
 31
0.0
 11
-59.1862646252
 21
-0.2968370094
 31
0.0
 11
-59.3136590375
 21
-0.2960345097
 31
0.0
 11
-59.4633023306
 21
-0.2956166372
 31
0.0
  0
SPLINE
  5
660
100
AcDbEntity
  8
RACCORDO
100
AcDbSpline
 62
7
  6
CONTINUOUS
 70
0
 71
3
 72
9
 73
5
 74
3
 42
0.0000001
 43
0.0000001
 44
0.0000000001
 12
-22.4897974454
 22
0.0096574352
 32
0.0
 13
-22.4897949482
 23
0.0143383092
 33
0.0
 40
0.0
 40
0.0
 40
0.0
 40
0.0
 40
0.250131665
 40
1.0
 40
1.0
 40
1.0
 40
1.0
 10
-46.6131549038
 20
-0.3157530814
 30
0.0
 10
-48.4882917304
 20
-0.3149478713
 30
0.0
 10
-55.9848907939
 20
-0.3115340249
 30
0.0
 10
-63.4814895029
 20
-0.3073410764
 30
0.0
 10
-69.1029512006
 20
-0.3037571284
 30
0.0
 11
-46.6131549038
 21
-0.3157530814
 31
0.0
 11
-52.2385653189
 21
-0.313191304
 31
0.0
 11
-69.1029512006
 21
-0.3037571284
 31
0.0
  0
SPLINE
  5
661
100
AcDbEntity
  8
RACCORDO
100
AcDbSpline
 62
7
  6
CONTINUOUS
 70
0
 71
3
 72
18
 73
14
 74
12
 42
0.0000001
 43
0.0000001
 44
0.0000000001
 12
-0.2775253689
 22
-0.0001759647
 32
0.0
 13
-0.2737142634
 23
-0.0458351761
 33
0.0
 40
0.0
 40
0.0
 40
0.0
 40
0.0
 40
0.1923932109
 40
0.3759601665
 40
0.5447088873
 40
0.6931261183
 40
0.8163713989
 40
0.8672670627
 40
0.9104412841
 40
0.9455463055
 40
0.9723013846
 40
0.9904965967
 40
1.0
 40
1.0
 40
1.0
 40
1.0
 10
-68.6983508938
 20
-22.6854931355
 30
0.0
 10
-68.7161488927
 20
-22.6855044203
 30
0.0
 10
-68.750928379
 20
-22.6855534592
 30
0.0
 10
-68.8013183482
 20
-22.6857080964
 30
0.0
 10
-68.8476398738
 20
-22.6859368986
 30
0.0
 10
-68.888380558
 20
-22.6862323266
 30
0.0
 10
-68.9182185712
 20
-22.6865378254
 30
0.0
 10
-68.9383198991
 20
-22.686821313
 30
0.0
 10
-68.9502683696
 20
-22.6870263836
 30
0.0
 10
-68.9599813579
 20
-22.68724581
 30
0.0
 10
-68.967387291
 20
-22.6874468445
 30
0.0
 10
-68.9724138574
 20
-22.6876882555
 30
0.0
 10
-68.9749801078
 20
-22.6878211823
 30
0.0
 10
-68.9758471801
 20
-22.6879663791
 30
0.0
 11
-68.6983508938
 21
-22.6854931355
 31
0.0
 11
-68.7517448464
 21
-22.6855697187
 31
0.0
 11
-68.8026890952
 21
-22.6857288538
 31
0.0
 11
-68.8495205583
 21
-22.6859653903
 31
0.0
 11
-68.890708975
 21
-22.6862716166
 31
0.0
 11
-68.9249107166
 21
-22.6866375216
 31
0.0
 11
-68.9390341177
 21
-22.6868391797
 31
0.0
 11
-68.951014187
 21
-22.6870511369
 31
0.0
 11
-68.9607542268
 21
-22.6872716628
 31
0.0
 11
-68.968175962
 21
-22.68749895
 31
0.0
 11
-68.973220254
 21
-22.6877311603
 31
0.0
 11
-68.9758471801
 21
-22.6879663791
 31
0.0
  0
SPLINE
  5
662
100
AcDbEntity
  8
RACCORDO
100
AcDbSpline
 62
7
  6
CONTINUOUS
 70
0
 71
3
 72
9
 73
5
 74
3
 42
0.0000001
 43
0.0000001
 44
0.0000000001
 12
22.0941931383
 22
0.0140087701
 32
0.0
 13
22.0941955415
 23
0.0094895296
 33
0.0
 40
0.0
 40
0.0
 40
0.0
 40
0.0
 40
0.2498622955
 40
1.0
 40
1.0
 40
1.0
 40
1.0
 10
-68.6983508938
 20
-22.6854931355
 30
0.0
 10
-66.8581822887
 20
-22.684326381
 30
0.0
 10
-59.4934511242
 20
-22.6798454812
 30
0.0
 10
-52.128719501
 20
-22.6761186163
 30
0.0
 10
-46.604156459
 20
-22.6737457983
 30
0.0
 11
-68.6983508938
 21
-22.6854931355
 31
0.0
 11
-63.1778449907
 21
-22.6821342405
 31
0.0
 11
-46.604156459
 21
-22.6737457983
 31
0.0
  0
SPLINE
  5
663
100
AcDbEntity
  8
RACCORDO
100
AcDbSpline
 62
7
  6
CONTINUOUS
 70
0
 71
3
 72
9
 73
5
 74
3
 42
0.0000001
 43
0.0000001
 44
0.0000000001
 12
-22.0730450236
 22
0.0094727067
 32
0.0
 13
-22.0730426293
 23
0.013979654
 33
0.0
 40
0.0
 40
0.0
 40
0.0
 40
0.0
 40
0.2501286947
 40
1.0
 40
1.0
 40
1.0
 40
1.0
 10
-46.6036554698
 20
-23.2960037262
 30
0.0
 10
-48.444022783
 20
-23.2952139276
 30
0.0
 10
-55.8017043759
 20
-23.291868885
 30
0.0
 10
-63.1593856278
 20
-23.2877736653
 30
0.0
 10
-68.6766993907
 20
-23.2842793515
 30
0.0
 11
-46.6036554698
 21
-23.2960037262
 31
0.0
 11
-52.1247573473
 21
-23.293493611
 31
0.0
 11
-68.6766993907
 21
-23.2842793515
 31
0.0
  0
SPLINE
  5
664
100
AcDbEntity
  8
RACCORDO
100
AcDbSpline
 62
7
  6
CONTINUOUS
 70
0
 71
3
 72
18
 73
14
 74
12
 42
0.0000001
 43
0.0000001
 44
0.0000000001
 12
0.2739774962
 22
-0.0452941506
 32
0.0
 13
0.2776962326
 23
-0.0001758755
 33
0.0
 40
0.0
 40
0.0
 40
0.0
 40
0.0
 40
0.0095654231
 40
0.0278233486
 40
0.0546390914
 40
0.0897999573
 40
0.1330224941
 40
0.1839564737
 40
0.307240522
 40
0.4556387476
 40
0.6243115409
 40
0.8077565909
 40
1.0
 40
1.0
 40
1.0
 40
1.0
 10
-68.9543666888
 20
-23.2818080805
 30
0.0
 10
-68.9534931186
 20
-23.2819524997
 30
0.0
 10
-68.9509140075
 20
-23.2820864203
 30
0.0
 10
-68.945866942
 20
-23.2823270668
 30
0.0
 10
-68.9384399604
 20
-23.2825284456
 30
0.0
 10
-68.9287056802
 20
-23.2827476033
 30
0.0
 10
-68.916736676
 20
-23.2829526067
 30
0.0
 10
-68.8966113499
 20
-23.2832358076
 30
0.0
 10
-68.8667495904
 20
-23.2835410255
 30
0.0
 10
-68.8259890171
 20
-23.2838361274
 30
0.0
 10
-68.7796590435
 20
-23.2840646577
 30
0.0
 10
-68.729270229
 20
-23.2842191003
 30
0.0
 10
-68.6944944808
 20
-23.2842680812
 30
0.0
 10
-68.6766993907
 20
-23.2842793515
 30
0.0
 11
-68.9543666888
 21
-23.2818080805
 31
0.0
 11
-68.9517208357
 21
-23.2820432363
 31
0.0
 11
-68.9466559942
 21
-23.2822753651
 31
0.0
 11
-68.9392128283
 21
-23.2825025506
 31
0.0
 11
-68.9294512742
 21
-23.2827229542
 31
0.0
 11
-68.9174504053
 21
-23.2829347699
 31
0.0
 11
-68.9033076636
 21
-23.2831362702
 31
0.0
 11
-68.8690740927
 21
-23.2835018293
 31
0.0
 11
-68.8278655915
 21
-23.283807708
 31
0.0
 11
-68.7810263786
 21
-23.2840439448
 31
0.0
 11
-68.7300846171
 21
-23.284202869
 31
0.0
 11
-68.6766993907
 21
-23.2842793515
 31
0.0
  0
SPLINE
  5
665
100
AcDbEntity
  8
RACCORDO
100
AcDbSpline
 62
7
  6
CONTINUOUS
 70
0
 71
3
 72
9
 73
5
 74
3
 42
0.0000001
 43
0.0000001
 44
0.0000000001
 12
19.4651920307
 22
-0.031648136
 32
0.0
 13
19.465216575
 23
-0.0067887411
 33
0.0
 40
0.0
 40
0.0
 40
0.0
 40
0.0
 40
0.2483168424
 40
1.0
 40
1.0
 40
1.0
 40
1.0
 10
-65.9257266732
 20
-23.2689823558
 30
0.0
 10
-64.3145483329
 20
-23.2716019442
 30
0.0
 10
-57.8261492887
 20
-23.2810812078
 30
0.0
 10
-51.3377441904
 20
-23.2863895496
 30
0.0
 10
-46.4605190373
 20
-23.2880905438
 30
0.0
 11
-65.9257266732
 21
-23.2689823558
 31
0.0
 11
-61.0921904343
 21
-23.2760524816
 31
0.0
 11
-46.4605190373
 21
-23.2880905438
 31
0.0
  0
LINE
  5
666
100
AcDbEntity
  8
RACCORDO
100
AcDbLine
 62
7
  6
CONTINUOUS
 10
-45.7830437625
 20
-23.9544390731
 11
-45.7829261184
 21
-24.24116706
  0
SPLINE
  5
667
100
AcDbEntity
  8
RACCORDO
100
AcDbSpline
 62
7
  6
CONTINUOUS
 70
0
 71
3
 72
18
 73
14
 74
12
 42
0.0000001
 43
0.0000001
 44
0.0000000001
 12
0.0001804281
 22
-0.2770853924
 32
0.0
 13
0.0452493382
 23
-0.2733657708
 33
0.0
 40
0.0
 40
0.0
 40
0.0
 40
0.0
 40
0.1923634878
 40
0.3758649153
 40
0.5445425442
 40
0.6929099169
 40
0.8161451397
 40
0.8670534056
 40
0.9102519571
 40
0.9453921678
 40
0.9721918877
 40
0.9904392416
 40
1.0
 40
1.0
 40
1.0
 40
1.0
 10
-45.7840383314
 20
-37.1022412917
 30
0.0
 10
-45.7840267622
 20
-37.1200083292
 30
0.0
 10
-45.7839772658
 20
-37.1547238795
 30
0.0
 10
-45.7838222377
 20
-37.2050185976
 30
0.0
 10
-45.7835933536
 20
-37.251249461
 30
0.0
 10
-45.7832981347
 20
-37.2919134566
 30
0.0
 10
-45.7829929963
 20
-37.32169979
 30
0.0
 10
-45.7827099823
 20
-37.34177174
 30
0.0
 10
-45.7825051544
 20
-37.3537079134
 30
0.0
 10
-45.7822862258
 20
-37.3634151701
 30
0.0
 10
-45.7820850505
 20
-37.3708214463
 30
0.0
 10
-45.7818447244
 20
-37.3758545034
 30
0.0
 10
-45.7817109181
 20
-37.3784265325
 30
0.0
 10
-45.7815667122
 20
-37.3792977272
 30
0.0
 11
-45.7840383314
 21
-37.1022412917
 31
0.0
 11
-45.7839610353
 21
-37.1555423595
 31
0.0
 11
-45.7838015172
 21
-37.2063876851
 31
0.0
 11
-45.7835649284
 21
-37.2531252031
 31
0.0
 11
-45.7832589454
 21
-37.2942345048
 31
0.0
 11
-45.7828935166
 21
-37.3283792367
 31
0.0
 11
-45.7826921599
 21
-37.3424837393
 31
0.0
 11
-45.7824805325
 21
-37.3544515585
 31
0.0
 11
-45.7822603552
 21
-37.3641859099
 31
0.0
 11
-45.7820334263
 21
-37.3716082542
 31
0.0
 11
-45.7818015761
 21
-37.3766590118
 31
0.0
 11
-45.7815667122
 21
-37.3792977272
 31
0.0
  0
SPLINE
  5
668
100
AcDbEntity
  8
RACCORDO
100
AcDbSpline
 62
7
  6
CONTINUOUS
 70
0
 71
3
 72
18
 73
14
 74
12
 42
0.0000001
 43
0.0000001
 44
0.0000000001
 12
0.0457034534
 22
0.2731346447
 32
0.0
 13
0.0001805922
 23
0.276931954
 33
0.0
 40
0.0
 40
0.0
 40
0.0
 40
0.0
 40
0.0095080766
 40
0.0277007739
 40
0.0544464148
 40
0.0895357668
 40
0.1326893439
 40
0.1835610257
 40
0.3067565211
 40
0.4551371909
 40
0.623882197
 40
0.807495926
 40
1.0
 40
1.0
 40
1.0
 40
1.0
 10
-45.0181290128
 20
-37.4022728262
 30
0.0
 10
-45.0179841621
 20
-37.4014071645
 30
0.0
 10
-45.01785116
 20
-37.3988462497
 30
0.0
 10
-45.0176101929
 20
-37.3938310834
 30
0.0
 10
-45.0174092833
 20
-37.3864435583
 30
0.0
 10
-45.0171901146
 20
-37.3767555621
 30
0.0
 10
-45.0169852091
 20
-37.3648382136
 30
0.0
 10
-45.0167019194
 20
-37.3447885877
 30
0.0
 10
-45.0163964973
 20
-37.3150245663
 30
0.0
 10
-45.0161009481
 20
-37.2743793138
 30
0.0
 10
-45.0158717815
 20
-37.2281562385
 30
0.0
 10
-45.0157165453
 20
-37.1778598085
 30
0.0
 10
-45.0156669812
 20
-37.143140138
 30
0.0
 10
-45.0156553929
 20
-37.1253699615
 30
0.0
 11
-45.0181290128
 21
-37.4022728262
 31
0.0
 11
-45.0178940841
 21
-37.3996502367
 31
0.0
 11
-45.0176621523
 21
-37.3946174378
 31
0.0
 11
-45.0174351231
 21
-37.3872141938
 31
0.0
 11
-45.0172148258
 21
-37.3774993264
 31
0.0
 11
-45.0170030598
 21
-37.3655505958
 31
0.0
 11
-45.0168015479
 21
-37.3514640399
 31
0.0
 11
-45.0164357762
 21
-37.3173492241
 31
0.0
 11
-45.0161294433
 21
-37.2762590084
 31
0.0
 11
-45.0158925464
 21
-37.2295287147
 31
0.0
 11
-45.0157328044
 21
-37.178680446
 31
0.0
 11
-45.0156553929
 21
-37.1253699615
 31
0.0
  0
LINE
  5
669
100
AcDbEntity
  8
RACCORDO
100
AcDbLine
 62
7
  6
CONTINUOUS
 10
-45.0168826961
 20
-24.2713659011
 11
-45.0167589215
 21
-23.9785263357
  0
SPLINE
  5
66A
100
AcDbEntity
  8
RACCORDO
100
AcDbSpline
 62
7
  6
CONTINUOUS
 70
0
 71
3
 72
18
 73
14
 74
12
 42
0.0000001
 43
0.0000001
 44
0.0000000001
 12
0.0454754151
 22
0.2731078548
 32
0.0
 13
0.0001837605
 23
0.2768679829
 33
0.0
 40
0.0
 40
0.0
 40
0.0
 40
0.0
 40
0.0095382917
 40
0.0277705118
 40
0.0545600038
 40
0.0896926615
 40
0.1328845572
 40
0.1837858598
 40
0.3070047818
 40
0.4553569585
 40
0.6240330844
 40
0.8075632744
 40
1.0
 40
1.0
 40
1.0
 40
1.0
 10
0.3907576068
 20
-38.073805665
 30
0.0
 10
0.3909021927
 20
-38.0729373375
 30
0.0
 10
0.3910354059
 20
-38.0703706569
 30
0.0
 10
0.3912760639
 20
-38.0653460843
 30
0.0
 10
0.3914769878
 20
-38.0579486049
 30
0.0
 10
0.3916959823
 20
-38.0482512468
 30
0.0
 10
0.3919007787
 20
-38.0363263874
 30
0.0
 10
0.3921838373
 20
-38.0162729551
 30
0.0
 10
0.3924890789
 20
-37.9865135436
 30
0.0
 10
0.3927845604
 20
-37.945884504
 30
0.0
 10
0.3930138461
 20
-37.8996888035
 30
0.0
 10
0.3931694094
 20
-37.849424275
 30
0.0
 10
0.3932193134
 20
-37.8147265504
 30
0.0
 10
0.3932311008
 20
-37.7969666944
 30
0.0
 11
0.3907576068
 21
-38.073805665
 31
0.0
 11
0.390992437
 21
-38.0711752784
 31
0.0
 11
0.3912242594
 21
-38.0661326852
 31
0.0
 11
0.3914511677
 21
-38.0587190026
 31
0.0
 11
0.3916713343
 21
-38.0489943844
 31
0.0
 11
0.3918829648
 21
-38.0370378015
 31
0.0
 11
0.3920843434
 21
-38.0229462962
 31
0.0
 11
0.3924498919
 21
-37.9888328728
 31
0.0
 11
0.3927561251
 21
-37.9477600375
 31
0.0
 11
0.3929931125
 21
-37.9010596098
 31
0.0
 11
0.393153168
 21
-37.8502462171
 31
0.0
 11
0.3932311008
 21
-37.7969666944
 31
0.0
  0
SPLINE
  5
66B
100
AcDbEntity
  8
RACCORDO
100
AcDbSpline
 62
7
  6
CONTINUOUS
 70
0
 71
3
 72
18
 73
14
 74
12
 42
0.0000001
 43
0.0000001
 44
0.0000000001
 12
0.0452493362
 22
0.2733657678
 32
0.0
 13
0.0001804281
 23
0.2770853891
 33
0.0
 40
0.0
 40
0.0
 40
0.0
 40
0.0
 40
0.0095607555
 40
0.0278081126
 40
0.054607837
 40
0.0897480507
 40
0.1329466047
 40
0.1838548723
 40
0.3070900966
 40
0.4554574684
 40
0.6241350944
 40
0.8076365175
 40
1.0
 40
1.0
 40
1.0
 40
1.0
 10
45.7815667123
 20
-37.3792977255
 30
0.0
 10
45.7817109182
 20
-37.3784265311
 30
0.0
 10
45.7818447246
 20
-37.375854502
 30
0.0
 10
45.7820850506
 20
-37.3708214444
 30
0.0
 10
45.7822862259
 20
-37.3634151674
 30
0.0
 10
45.7825051545
 20
-37.3537079099
 30
0.0
 10
45.7827099824
 20
-37.3417717359
 30
0.0
 10
45.7829929964
 20
-37.3216997856
 30
0.0
 10
45.7832981347
 20
-37.2919134524
 30
0.0
 10
45.7835933536
 20
-37.2512494574
 30
0.0
 10
45.7838222377
 20
-37.2050185953
 30
0.0
 10
45.7839772658
 20
-37.154723879
 30
0.0
 10
45.7840267622
 20
-37.12000833
 30
0.0
 10
45.7840383314
 20
-37.1022412932
 30
0.0
 11
45.7815667123
 21
-37.3792977255
 31
0.0
 11
45.7818015762
 21
-37.3766590109
 31
0.0
 11
45.7820334264
 21
-37.3716082524
 31
0.0
 11
45.7822603553
 21
-37.364185907
 31
0.0
 11
45.7824805326
 21
-37.3544515549
 31
0.0
 11
45.78269216
 21
-37.3424837352
 31
0.0
 11
45.7828935167
 21
-37.3283792323
 31
0.0
 11
45.7832589454
 21
-37.2942345003
 31
0.0
 11
45.7835649284
 21
-37.2531251994
 31
0.0
 11
45.7838015172
 21
-37.2063876827
 31
0.0
 11
45.7839610353
 21
-37.1555423589
 31
0.0
 11
45.7840383314
 21
-37.1022412932
 31
0.0
  0
LINE
  5
66C
100
AcDbEntity
  8
RACCORDO
100
AcDbLine
 62
7
  6
CONTINUOUS
 10
45.782926122
 20
-24.2411583765
 11
45.7830437625
 21
-23.9544390731
  0
SPLINE
  5
66D
100
AcDbEntity
  8
RACCORDO
100
AcDbSpline
 62
7
  6
CONTINUOUS
 70
0
 71
3
 72
18
 73
14
 74
12
 42
0.0000001
 43
0.0000001
 44
0.0000000001
 12
0.2776962451
 22
0.0001758754
 32
0.0
 13
0.273977508
 23
0.0452941564
 33
0.0
 40
0.0
 40
0.0
 40
0.0
 40
0.0
 40
0.192243423
 40
0.3756884854
 40
0.5443612892
 40
0.6927595218
 40
0.8160435722
 40
0.8669775507
 40
0.9102000852
 40
0.9453609462
 40
0.9721766852
 40
0.9904345997
 40
1.0
 40
1.0
 40
1.0
 40
1.0
 10
68.6766993813
 20
-23.2842793515
 30
0.0
 10
68.6944944735
 20
-23.2842680812
 30
0.0
 10
68.7292702257
 20
-23.2842191004
 30
0.0
 10
68.7796590459
 20
-23.2840646578
 30
0.0
 10
68.8259890243
 20
-23.2838361274
 30
0.0
 10
68.8667496013
 20
-23.2835410255
 30
0.0
 10
68.8966113629
 20
-23.2832358075
 30
0.0
 10
68.9167366897
 20
-23.2829526066
 30
0.0
 10
68.9287056938
 20
-23.2827476031
 30
0.0
 10
68.9384399734
 20
-23.2825284455
 30
0.0
 10
68.9458669535
 20
-23.2823270665
 30
0.0
 10
68.9509140158
 20
-23.2820864206
 30
0.0
 10
68.9534931237
 20
-23.2819524991
 30
0.0
 10
68.9543666919
 20
-23.2818080802
 30
0.0
 11
68.6766993813
 21
-23.2842793515
 31
0.0
 11
68.7300846139
 21
-23.2842028691
 31
0.0
 11
68.7810263812
 21
-23.2840439448
 31
0.0
 11
68.8278655992
 21
-23.283807708
 31
0.0
 11
68.8690741042
 21
-23.2835018293
 31
0.0
 11
68.9033076772
 21
-23.2831362702
 31
0.0
 11
68.9174504192
 21
-23.2829347698
 31
0.0
 11
68.929451288
 21
-23.2827229541
 31
0.0
 11
68.9392128412
 21
-23.2825025504
 31
0.0
 11
68.9466560064
 21
-23.2822753649
 31
0.0
 11
68.9517208451
 21
-23.2820432361
 31
0.0
 11
68.9543666919
 21
-23.2818080802
 31
0.0
  0
SPLINE
  5
66E
100
AcDbEntity
  8
RACCORDO
100
AcDbSpline
 62
7
  6
CONTINUOUS
 70
0
 71
3
 72
9
 73
5
 74
3
 42
0.0000001
 43
0.0000001
 44
0.0000000001
 12
19.4652166129
 22
0.0067887411
 32
0.0
 13
19.4651920687
 23
0.031648136
 33
0.0
 40
0.0
 40
0.0
 40
0.0
 40
0.0
 40
0.2513573713
 40
1.0
 40
1.0
 40
1.0
 40
1.0
 10
46.4605190373
 20
-23.2880905438
 30
0.0
 10
48.091427597
 20
-23.2875217437
 30
0.0
 10
54.5798327272
 20
-23.2842314535
 30
0.0
 10
61.0682358652
 20
-23.2768800703
 30
0.0
 10
65.9257267183
 20
-23.2689823557
 30
0.0
 11
46.4605190373
 21
-23.2880905438
 31
0.0
 11
51.3532443856
 21
-23.2856110843
 31
0.0
 11
65.9257267183
 21
-23.2689823557
 31
0.0
  0
SPLINE
  5
66F
100
AcDbEntity
  8
RACCORDO
100
AcDbSpline
 62
7
  6
CONTINUOUS
 70
0
 71
3
 72
9
 73
5
 74
3
 42
0.0000001
 43
0.0000001
 44
0.0000000001
 12
-19.4394420622
 22
0.0317407308
 32
0.0
 13
-19.4394667218
 23
0.0069812531
 33
0.0
 40
0.0
 40
0.0
 40
0.0
 40
0.0
 40
0.2483089687
 40
1.0
 40
1.0
 40
1.0
 40
1.0
 10
65.9258556534
 20
-22.7009413559
 30
0.0
 10
64.3168597167
 20
-22.6983141865
 30
0.0
 10
57.8370439962
 20
-22.6887988769
 30
0.0
 10
51.3572222153
 20
-22.6834361038
 30
0.0
 10
46.4863979526
 20
-22.6816868553
 30
0.0
 11
65.9258556534
 21
-22.7009413559
 31
0.0
 11
61.0988666253
 21
-22.6938447475
 31
0.0
 11
46.4863979526
 21
-22.6816868553
 31
0.0
  0
SPLINE
  5
670
100
AcDbEntity
  8
RACCORDO
100
AcDbSpline
 62
7
  6
CONTINUOUS
 70
0
 71
3
 72
18
 73
14
 74
12
 42
0.0000001
 43
0.0000001
 44
0.0000000001
 12
-0.2739881195
 22
0.0456200354
 32
0.0
 13
-0.2777600509
 23
0.0001770852
 33
0.0
 40
0.0
 40
0.0
 40
0.0
 40
0.0
 40
0.0095365652
 40
0.0277747469
 40
0.0545772134
 40
0.0897288764
 40
0.1329444576
 40
0.1838724682
 40
0.307145894
 40
0.4555384632
 40
0.6242196621
 40
0.8076969772
 40
1.0
 40
1.0
 40
1.0
 40
1.0
 10
69.3806822387
 20
0.3012830591
 30
0.0
 10
69.3798112701
 20
0.3014280786
 30
0.0
 10
69.3772358931
 20
0.30156137
 30
0.0
 10
69.3721935421
 20
0.3018026349
 30
0.0
 10
69.364768697
 20
0.3020038619
 30
0.0
 10
69.3550349361
 20
0.3022232769
 30
0.0
 10
69.3430652216
 20
0.3024283939
 30
0.0
 10
69.3229374578
 20
0.3027118487
 30
0.0
 10
69.293070895
 20
0.3030173579
 30
0.0
 10
69.2523016866
 20
0.3033128447
 30
0.0
 10
69.2059578251
 20
0.3035417724
 30
0.0
 10
69.1555481465
 20
0.3036965959
 30
0.0
 10
69.1207558997
 20
0.303745777
 30
0.0
 10
69.1029512006
 20
0.3037571284
 30
0.0
 11
69.3806822387
 21
0.3012830591
 31
0.0
 11
69.378043834
 21
0.3015183718
 31
0.0
 11
69.3729833232
 21
0.3017506602
 31
0.0
 11
69.3655421393
 21
0.3019780063
 31
0.0
 11
69.3557809013
 21
0.3021985716
 31
0.0
 11
69.3437792087
 21
0.3024105509
 31
0.0
 11
69.3296348766
 21
0.3026122184
 31
0.0
 11
69.2953963919
 21
0.3029781299
 31
0.0
 11
69.2541799937
 21
0.3032843906
 31
0.0
 11
69.2073276834
 21
0.3035210283
 31
0.0
 11
69.1563652536
 21
0.3036803365
 31
0.0
 11
69.1029512006
 21
0.3037571284
 31
0.0
  0
SPLINE
  5
671
100
AcDbEntity
  8
RACCORDO
100
AcDbSpline
 62
7
  6
CONTINUOUS
 70
0
 71
3
 72
13
 73
9
 74
7
 42
0.0000001
 43
0.0000001
 44
0.0000000001
 12
0.4175972796
 22
-0.0230621715
 32
0.0
 13
0.4182332357
 23
-0.0005587815
 33
0.0
 40
0.0
 40
0.0
 40
0.0
 40
0.0
 40
0.0440118869
 40
0.1162490901
 40
0.2149254802
 40
0.3375931286
 40
0.64220026
 40
1.0
 40
1.0
 40
1.0
 40
1.0
 10
59.0450974746
 20
0.2992487411
 30
0.0
 10
59.0512238893
 20
0.2989104045
 30
0.0
 10
59.0674266888
 20
0.298449117
 30
0.0
 10
59.0973821141
 20
0.2978404528
 30
0.0
 10
59.1383078911
 20
0.2972932603
 30
0.0
 10
59.2116274669
 20
0.2965645745
 30
0.0
 10
59.3210744543
 20
0.2959308566
 30
0.0
 10
59.413421083
 20
0.2956832812
 30
0.0
 10
59.4633023306
 20
0.2956166372
 30
0.0
 11
59.0450974746
 21
0.2992487411
 31
0.0
 11
59.0634925749
 21
0.2985800488
 31
0.0
 11
59.0936979236
 21
0.2979448861
 31
0.0
 11
59.1349635477
 21
0.2973590212
 31
0.0
 11
59.1862646252
 21
0.2968370094
 31
0.0
 11
59.3136590375
 21
0.2960345097
 31
0.0
 11
59.4633023306
 21
0.2956166372
 31
0.0
  0
SPLINE
  5
672
100
AcDbEntity
  8
RACCORDO
100
AcDbSpline
 62
7
  6
CONTINUOUS
 70
0
 71
3
 72
18
 73
14
 74
12
 42
0.0000001
 43
0.0000001
 44
0.0000000001
 12
-0.2739774962
 22
0.0452941506
 32
0.0
 13
-0.2776962326
 23
0.0001758755
 33
0.0
 40
0.0
 40
0.0
 40
0.0
 40
0.0
 40
0.0095654231
 40
0.0278233486
 40
0.0546390914
 40
0.0897999573
 40
0.1330224941
 40
0.1839564737
 40
0.307240522
 40
0.4556387476
 40
0.6243115409
 40
0.8077565909
 40
1.0
 40
1.0
 40
1.0
 40
1.0
 10
68.9543666888
 20
23.2818080805
 30
0.0
 10
68.9534931186
 20
23.2819524997
 30
0.0
 10
68.9509140075
 20
23.2820864203
 30
0.0
 10
68.945866942
 20
23.2823270668
 30
0.0
 10
68.9384399604
 20
23.2825284456
 30
0.0
 10
68.9287056802
 20
23.2827476033
 30
0.0
 10
68.916736676
 20
23.2829526067
 30
0.0
 10
68.8966113499
 20
23.2832358076
 30
0.0
 10
68.8667495905
 20
23.2835410255
 30
0.0
 10
68.8259890171
 20
23.2838361274
 30
0.0
 10
68.7796590435
 20
23.2840646577
 30
0.0
 10
68.729270229
 20
23.2842191003
 30
0.0
 10
68.6944944808
 20
23.2842680812
 30
0.0
 10
68.6766993907
 20
23.2842793515
 30
0.0
 11
68.9543666888
 21
23.2818080805
 31
0.0
 11
68.9517208357
 21
23.2820432363
 31
0.0
 11
68.9466559942
 21
23.2822753651
 31
0.0
 11
68.9392128283
 21
23.2825025506
 31
0.0
 11
68.9294512742
 21
23.2827229542
 31
0.0
 11
68.9174504053
 21
23.2829347699
 31
0.0
 11
68.9033076636
 21
23.2831362702
 31
0.0
 11
68.8690740927
 21
23.2835018293
 31
0.0
 11
68.8278655915
 21
23.283807708
 31
0.0
 11
68.7810263786
 21
23.2840439448
 31
0.0
 11
68.7300846171
 21
23.284202869
 31
0.0
 11
68.6766993907
 21
23.2842793515
 31
0.0
  0
SPLINE
  5
673
100
AcDbEntity
  8
RACCORDO
100
AcDbSpline
 62
7
  6
CONTINUOUS
 70
0
 71
3
 72
9
 73
5
 74
3
 42
0.0000001
 43
0.0000001
 44
0.0000000001
 12
-19.4651920277
 22
0.031648136
 32
0.0
 13
-19.465216572
 23
0.0067887411
 33
0.0
 40
0.0
 40
0.0
 40
0.0
 40
0.0
 40
0.2483168424
 40
1.0
 40
1.0
 40
1.0
 40
1.0
 10
65.9257266702
 20
23.2689823558
 30
0.0
 10
64.3145483301
 20
23.2716019442
 30
0.0
 10
57.8261492869
 20
23.2810812078
 30
0.0
 10
51.3377441896
 20
23.2863895496
 30
0.0
 10
46.4605190373
 20
23.2880905438
 30
0.0
 11
65.9257266702
 21
23.2689823558
 31
0.0
 11
61.092190432
 21
23.2760524816
 31
0.0
 11
46.4605190373
 21
23.2880905438
 31
0.0
  0
LINE
  5
674
100
AcDbEntity
  8
RACCORDO
100
AcDbLine
 62
253
  6
CONTINUOUS
 10
-66.2522512562
 20
22.7043125226
 11
-66.2524029771
 21
23.2656116227
  0
LINE
  5
675
100
AcDbEntity
  8
RACCORDO
100
AcDbLine
 62
253
  6
CONTINUOUS
 10
-66.249101391
 20
-0.0000000104
 11
-66.2491018981
 21
0.2822620365
  0
LINE
  5
676
100
AcDbEntity
  8
RACCORDO
100
AcDbLine
 62
253
  6
CONTINUOUS
 10
-66.2491018981
 20
-0.2822620365
 11
-66.249101391
 21
-0.0000000104
  0
LINE
  5
677
100
AcDbEntity
  8
RACCORDO
100
AcDbLine
 62
253
  6
CONTINUOUS
 10
-66.2524029771
 20
-23.2656116227
 11
-66.2522512562
 21
-22.7043125226
  0
LINE
  5
678
100
AcDbEntity
  8
RACCORDO
100
AcDbLine
 62
253
  6
CONTINUOUS
 10
45.7648496918
 20
-34.8939261933
 11
45.0350252855
 21
-34.8936761289
  0
LINE
  5
679
100
AcDbEntity
  8
RACCORDO
100
AcDbLine
 62
253
  6
CONTINUOUS
 10
-45.0350252855
 20
-34.8936761289
 11
-45.7648496918
 21
-34.8939261933
  0
LINE
  5
67A
100
AcDbEntity
  8
RACCORDO
100
AcDbLine
 62
253
  6
CONTINUOUS
 10
66.2522512562
 20
-22.7043125226
 11
66.2524029771
 21
-23.2656116227
  0
LINE
  5
67B
100
AcDbEntity
  8
RACCORDO
100
AcDbLine
 62
253
  6
CONTINUOUS
 10
66.249101391
 20
0.0000000046
 11
66.2491018981
 21
-0.2822620365
  0
LINE
  5
67C
100
AcDbEntity
  8
RACCORDO
100
AcDbLine
 62
253
  6
CONTINUOUS
 10
66.2491018981
 20
0.2822620365
 11
66.249101391
 21
0.0000000046
  0
LINE
  5
67D
100
AcDbEntity
  8
RACCORDO
100
AcDbLine
 62
253
  6
CONTINUOUS
 10
66.2524029771
 20
23.2656116227
 11
66.2522512562
 21
22.7043125226
  0
LINE
  5
67E
100
AcDbEntity
  8
RACCORDO
100
AcDbLine
 62
253
  6
CONTINUOUS
 10
-45.7648496918
 20
34.8939261933
 11
-45.0350252855
 21
34.8936761289
  0
LINE
  5
67F
100
AcDbEntity
  8
RACCORDO
100
AcDbLine
 62
253
  6
CONTINUOUS
 10
45.0350252855
 20
34.8936761289
 11
45.7648496918
 21
34.8939261933
  0
SPLINE
  5
680
100
AcDbEntity
  8
RACCORDO
100
AcDbSpline
 62
7
  6
CONTINUOUS
 70
0
 71
3
 72
18
 73
14
 74
12
 42
0.0000001
 43
0.0000001
 44
0.0000000001
 12
-0.2777200853
 22
-0.0001761461
 32
0.0
 13
-0.2739941504
 23
-0.0453396338
 33
0.0
 40
0.0
 40
0.0
 40
0.0
 40
0.0
 40
0.1922491175
 40
0.3756951187
 40
0.5443658711
 40
0.6927618484
 40
0.8160455583
 40
0.8669802081
 40
0.9102037116
 40
0.9453654153
 40
0.9721813311
 40
0.9904380139
 40
1.0
 40
1.0
 40
1.0
 40
1.0
 10
-68.7726777098
 20
20.497112987
 30
0.0
 10
-68.7904748569
 20
20.497101699
 30
0.0
 10
-68.8252542086
 20
20.4970526763
 30
0.0
 10
-68.8756477787
 20
20.4968981571
 30
0.0
 10
-68.9219814225
 20
20.4966695506
 30
0.0
 10
-68.9627450682
 20
20.4963743781
 30
0.0
 10
-68.9926092153
 20
20.4960691084
 30
0.0
 10
-69.0127363894
 20
20.4957858647
 30
0.0
 10
-69.0247066521
 20
20.4955808385
 30
0.0
 10
-69.0344419474
 20
20.4953616369
 30
0.0
 10
-69.041869555
 20
20.4951602724
 30
0.0
 10
-69.0469166171
 20
20.4949195303
 30
0.0
 10
-69.049495541
 20
20.4947856938
 30
0.0
 10
-69.0503688504
 20
20.4946411815
 30
0.0
 11
-68.7726777098
 21
20.497112987
 31
0.0
 11
-68.826069107
 21
20.4970364399
 31
0.0
 11
-68.8770155082
 21
20.4968774394
 31
0.0
 11
-68.9238581773
 21
20.4966411271
 31
0.0
 11
-68.9650695934
 21
20.4963351796
 31
0.0
 11
-68.9993060105
 21
20.4959695582
 31
0.0
 11
-69.013450153
 21
20.495768028
 31
0.0
 11
-69.025452321
 21
20.4955561822
 31
0.0
 11
-69.035214946
 21
20.495335748
 31
0.0
 11
-69.042658799
 21
20.4951085311
 31
0.0
 11
-69.0477237295
 21
20.49487637
 31
0.0
 11
-69.0503688504
 21
20.4946411815
 31
0.0
  0
SPLINE
  5
681
100
AcDbEntity
  8
RACCORDO
100
AcDbSpline
 62
7
  6
CONTINUOUS
 70
0
 71
3
 72
18
 73
14
 74
12
 42
0.0000001
 43
0.0000001
 44
0.0000000001
 12
0.2738445553
 22
-0.0457715989
 32
0.0
 13
0.2776433837
 23
-0.000176631
 33
0.0
 40
0.0
 40
0.0
 40
0.0
 40
0.0
 40
0.0095157001
 40
0.0277288715
 40
0.0545047366
 40
0.0896306663
 40
0.1328235718
 40
0.1837337944
 40
0.3069911388
 40
0.4553961225
 40
0.6241140135
 40
0.8076424352
 40
1.0
 40
1.0
 40
1.0
 40
1.0
 10
-69.2153144391
 20
14.5036273894
 30
0.0
 10
-69.2144458315
 20
14.5034822065
 30
0.0
 10
-69.2118757129
 20
14.5033491815
 30
0.0
 10
-69.2068422561
 20
14.5031077671
 30
0.0
 10
-69.1994276616
 20
14.5029066599
 30
0.0
 10
-69.1897049474
 20
14.502687209
 30
0.0
 10
-69.1777463846
 20
14.5024821035
 30
0.0
 10
-69.1576323131
 20
14.502198602
 30
0.0
 10
-69.1277802809
 20
14.5018930649
 30
0.0
 10
-69.0870251418
 20
14.501597565
 30
0.0
 10
-69.0406914715
 20
14.5013686583
 30
0.0
 10
-68.9902897931
 20
14.5012138896
 30
0.0
 10
-68.9555023825
 20
14.5011647616
 30
0.0
 10
-68.9377001141
 20
14.5011534362
 30
0.0
 11
-69.2153144391
 21
14.5036273894
 31
0.0
 11
-69.2126829647
 21
14.5033921083
 31
0.0
 11
-69.2076315341
 21
14.5031598428
 31
0.0
 11
-69.2002008676
 21
14.5029325093
 31
0.0
 11
-69.1904508781
 21
14.5027119462
 31
0.0
 11
-69.178460525
 21
14.5024999597
 31
0.0
 11
-69.1643270746
 21
14.5022982779
 31
0.0
 11
-69.1301074382
 21
14.5019323294
 31
0.0
 11
-69.0889049064
 21
14.501626043
 31
0.0
 11
-69.0420620885
 21
14.501389413
 31
0.0
 11
-68.991106875
 21
14.5012301525
 31
0.0
 11
-68.9377001141
 21
14.5011534362
 31
0.0
  0
SPLINE
  5
682
100
AcDbEntity
  8
RACCORDO
100
AcDbSpline
 62
7
  6
CONTINUOUS
 70
0
 71
3
 72
18
 73
14
 74
12
 42
0.0000001
 43
0.0000001
 44
0.0000000001
 12
0.2739941502
 22
-0.0453396338
 32
0.0
 13
0.2777200851
 23
-0.0001761461
 33
0.0
 40
0.0
 40
0.0
 40
0.0
 40
0.0
 40
0.0095619873
 40
0.0278186675
 40
0.0546345728
 40
0.089796274
 40
0.1330197819
 40
0.1839544301
 40
0.3072381227
 40
0.4556341115
 40
0.6243048458
 40
0.8077508746
 40
1.0
 40
1.0
 40
1.0
 40
1.0
 10
-69.0503688504
 20
-20.4946411815
 30
0.0
 10
-69.0494955408
 20
-20.4947856938
 30
0.0
 10
-69.0469166171
 20
-20.4949195303
 30
0.0
 10
-69.041869556
 20
-20.4951602724
 30
0.0
 10
-69.0344419499
 20
-20.4953616368
 30
0.0
 10
-69.0247066555
 20
-20.4955808384
 30
0.0
 10
-69.0127363927
 20
-20.4957858646
 30
0.0
 10
-68.99260922
 20
-20.4960691083
 30
0.0
 10
-68.9627450736
 20
-20.4963743781
 30
0.0
 10
-68.9219814302
 20
-20.4966695505
 30
0.0
 10
-68.8756477844
 20
-20.4968981571
 30
0.0
 10
-68.8252542127
 20
-20.4970526763
 30
0.0
 10
-68.7904748578
 20
-20.497101699
 30
0.0
 10
-68.7726777099
 20
-20.497112987
 30
0.0
 11
-69.0503688504
 21
-20.4946411815
 31
0.0
 11
-69.0477237291
 21
-20.49487637
 31
0.0
 11
-69.0426587993
 21
-20.4951085311
 31
0.0
 11
-69.0352149493
 21
-20.495335748
 31
0.0
 11
-69.025452325
 21
-20.4955561822
 31
0.0
 11
-69.0134501558
 21
-20.4957680279
 31
0.0
 11
-68.9993060137
 21
-20.4959695582
 31
0.0
 11
-68.9650696015
 21
-20.4963351795
 31
0.0
 11
-68.9238581822
 21
-20.4966411271
 31
0.0
 11
-68.8770155181
 21
-20.4968774394
 31
0.0
 11
-68.8260691093
 21
-20.4970364399
 31
0.0
 11
-68.7726777099
 21
-20.497112987
 31
0.0
  0
SPLINE
  5
683
100
AcDbEntity
  8
RACCORDO
100
AcDbSpline
 62
7
  6
CONTINUOUS
 70
0
 71
3
 72
18
 73
14
 74
12
 42
0.0000001
 43
0.0000001
 44
0.0000000001
 12
-0.2776434157
 22
-0.0001766308
 32
0.0
 13
-0.2738445866
 23
-0.0457716054
 33
0.0
 40
0.0
 40
0.0
 40
0.0
 40
0.0
 40
0.1923576261
 40
0.375886104
 40
0.5446040411
 40
0.6930090544
 40
0.8162664074
 40
0.8671766249
 40
0.9103695202
 40
0.9454954286
 40
0.9722712775
 40
0.9904844007
 40
1.0
 40
1.0
 40
1.0
 40
1.0
 10
-68.9377000961
 20
-14.5011534362
 30
0.0
 10
-68.9555023722
 20
-14.5011647616
 30
0.0
 10
-68.9902897977
 20
-14.5012138895
 30
0.0
 10
-69.040691497
 20
-14.5013686583
 30
0.0
 10
-69.0870251848
 20
-14.5015975651
 30
0.0
 10
-69.1277803364
 20
-14.5018930651
 30
0.0
 10
-69.1576323751
 20
-14.5021986024
 30
0.0
 10
-69.1777464483
 20
-14.502482104
 30
0.0
 10
-69.1897050092
 20
-14.5026872097
 30
0.0
 10
-69.1994277201
 20
-14.5029066603
 30
0.0
 10
-69.2068423074
 20
-14.5031077688
 30
0.0
 10
-69.2118757497
 20
-14.5033491801
 30
0.0
 10
-69.2144458544
 20
-14.5034822091
 30
0.0
 10
-69.2153144529
 20
-14.5036273906
 30
0.0
 11
-68.9377000961
 21
-14.5011534362
 31
0.0
 11
-68.9911068801
 21
-14.5012301524
 31
0.0
 11
-69.042062115
 21
-14.501389413
 31
0.0
 11
-69.0889049512
 21
-14.5016260431
 31
0.0
 11
-69.1301074959
 21
-14.5019323296
 31
0.0
 11
-69.1643271387
 21
-14.5022982784
 31
0.0
 11
-69.1784605893
 21
-14.5024999603
 31
0.0
 11
-69.1904509409
 21
-14.5027119469
 31
0.0
 11
-69.2002009256
 21
-14.5029325101
 31
0.0
 11
-69.2076315885
 21
-14.5031598437
 31
0.0
 11
-69.2126830063
 21
-14.5033921094
 31
0.0
 11
-69.2153144529
 21
-14.5036273906
 31
0.0
  0
SPLINE
  5
684
100
AcDbEntity
  8
RACCORDO
100
AcDbSpline
 62
7
  6
CONTINUOUS
 70
0
 71
3
 72
18
 73
14
 74
12
 42
0.0000001
 43
0.0000001
 44
0.0000000001
 12
-0.2738445553
 22
0.0457715989
 32
0.0
 13
-0.2776433837
 23
0.000176631
 33
0.0
 40
0.0
 40
0.0
 40
0.0
 40
0.0
 40
0.0095157001
 40
0.0277288715
 40
0.0545047366
 40
0.0896306663
 40
0.1328235718
 40
0.1837337944
 40
0.3069911388
 40
0.4553961225
 40
0.6241140135
 40
0.8076424352
 40
1.0
 40
1.0
 40
1.0
 40
1.0
 10
69.2153144391
 20
-14.5036273894
 30
0.0
 10
69.2144458315
 20
-14.5034822065
 30
0.0
 10
69.2118757129
 20
-14.5033491815
 30
0.0
 10
69.2068422561
 20
-14.5031077671
 30
0.0
 10
69.1994276616
 20
-14.5029066599
 30
0.0
 10
69.1897049474
 20
-14.502687209
 30
0.0
 10
69.1777463846
 20
-14.5024821035
 30
0.0
 10
69.1576323131
 20
-14.502198602
 30
0.0
 10
69.1277802809
 20
-14.5018930649
 30
0.0
 10
69.0870251418
 20
-14.501597565
 30
0.0
 10
69.0406914715
 20
-14.5013686583
 30
0.0
 10
68.9902897931
 20
-14.5012138896
 30
0.0
 10
68.9555023825
 20
-14.5011647616
 30
0.0
 10
68.9377001141
 20
-14.5011534362
 30
0.0
 11
69.2153144391
 21
-14.5036273894
 31
0.0
 11
69.2126829647
 21
-14.5033921083
 31
0.0
 11
69.2076315341
 21
-14.5031598428
 31
0.0
 11
69.2002008676
 21
-14.5029325093
 31
0.0
 11
69.1904508781
 21
-14.5027119462
 31
0.0
 11
69.178460525
 21
-14.5024999597
 31
0.0
 11
69.1643270746
 21
-14.5022982779
 31
0.0
 11
69.1301074382
 21
-14.5019323294
 31
0.0
 11
69.0889049064
 21
-14.501626043
 31
0.0
 11
69.0420620885
 21
-14.501389413
 31
0.0
 11
68.991106875
 21
-14.5012301525
 31
0.0
 11
68.9377001141
 21
-14.5011534362
 31
0.0
  0
SPLINE
  5
685
100
AcDbEntity
  8
RACCORDO
100
AcDbSpline
 62
7
  6
CONTINUOUS
 70
0
 71
3
 72
18
 73
14
 74
12
 42
0.0000001
 43
0.0000001
 44
0.0000000001
 12
0.2776434157
 22
0.0001766308
 32
0.0
 13
0.2738445866
 23
0.0457716054
 33
0.0
 40
0.0
 40
0.0
 40
0.0
 40
0.0
 40
0.1923576261
 40
0.375886104
 40
0.5446040411
 40
0.6930090544
 40
0.8162664074
 40
0.8671766249
 40
0.9103695202
 40
0.9454954286
 40
0.9722712775
 40
0.9904844007
 40
1.0
 40
1.0
 40
1.0
 40
1.0
 10
68.9377000961
 20
14.5011534362
 30
0.0
 10
68.9555023722
 20
14.5011647616
 30
0.0
 10
68.9902897977
 20
14.5012138895
 30
0.0
 10
69.040691497
 20
14.5013686583
 30
0.0
 10
69.0870251848
 20
14.5015975651
 30
0.0
 10
69.1277803364
 20
14.5018930651
 30
0.0
 10
69.1576323751
 20
14.5021986024
 30
0.0
 10
69.1777464483
 20
14.502482104
 30
0.0
 10
69.1897050092
 20
14.5026872097
 30
0.0
 10
69.1994277201
 20
14.5029066603
 30
0.0
 10
69.2068423074
 20
14.5031077688
 30
0.0
 10
69.2118757497
 20
14.5033491801
 30
0.0
 10
69.2144458544
 20
14.5034822091
 30
0.0
 10
69.2153144529
 20
14.5036273906
 30
0.0
 11
68.9377000961
 21
14.5011534362
 31
0.0
 11
68.9911068801
 21
14.5012301524
 31
0.0
 11
69.042062115
 21
14.501389413
 31
0.0
 11
69.0889049512
 21
14.5016260431
 31
0.0
 11
69.1301074959
 21
14.5019323296
 31
0.0
 11
69.1643271387
 21
14.5022982784
 31
0.0
 11
69.1784605893
 21
14.5024999603
 31
0.0
 11
69.1904509409
 21
14.5027119469
 31
0.0
 11
69.2002009256
 21
14.5029325101
 31
0.0
 11
69.2076315885
 21
14.5031598437
 31
0.0
 11
69.2126830063
 21
14.5033921094
 31
0.0
 11
69.2153144529
 21
14.5036273906
 31
0.0
  0
SPLINE
  5
686
100
AcDbEntity
  8
RACCORDO
100
AcDbSpline
 62
7
  6
CONTINUOUS
 70
0
 71
3
 72
22
 73
18
 74
16
 42
0.0000001
 43
0.0000001
 44
0.0000000001
 12
0.3267301073
 22
-0.0005312242
 32
0.0
 13
0.2922463573
 23
-0.1460989797
 33
0.0
 40
0.0
 40
0.0
 40
0.0
 40
0.0
 40
0.2017011902
 40
0.3909560868
 40
0.5622380011
 40
0.7105423112
 40
0.7746941778
 40
0.8315371527
 40
0.8806555716
 40
0.9216905166
 40
0.9543429026
 40
0.9674493073
 40
0.9783761111
 40
0.9871043904
 40
0.9936201446
 40
0.9979150892
 40
1.0
 40
1.0
 40
1.0
 40
1.0
 10
65.9257266702
 20
23.2689823558
 30
0.0
 10
65.9476939541
 20
23.2689466396
 30
0.0
 10
65.9902729522
 20
23.2688454614
 30
0.0
 10
66.0515059259
 20
23.2685977621
 30
0.0
 10
66.1069229443
 20
23.2682651885
 30
0.0
 10
66.1487145079
 20
23.2679127297
 30
0.0
 10
66.1780421323
 20
23.26758585
 30
0.0
 10
66.1965675445
 20
23.2673385693
 30
0.0
 10
66.2125749464
 20
23.2670799177
 30
0.0
 10
66.2259469075
 20
23.2668113955
 30
0.0
 10
66.235397052
 20
23.2665701761
 30
0.0
 10
66.2415666692
 20
23.2663638101
 30
0.0
 10
66.2451332869
 20
23.2662230698
 30
0.0
 10
66.2479763206
 20
23.2660740687
 30
0.0
 10
66.2501088232
 20
23.2659487896
 30
0.0
 10
66.2514891308
 20
23.2657844576
 30
0.0
 10
66.2521998746
 20
23.2657131572
 30
0.0
 10
66.2524029771
 20
23.2656116227
 30
0.0
 11
65.9257266702
 21
23.2689823558
 31
0.0
 11
65.991628417
 21
23.2688233259
 31
0.0
 11
66.053463247
 21
23.2685686805
 31
0.0
 11
66.1094252292
 21
23.2682258534
 31
0.0
 11
66.1578789475
 21
23.2678048633
 31
0.0
 11
66.1788379924
 21
23.2675688216
 31
0.0
 11
66.1974086346
 21
23.2673180111
 31
0.0
 11
66.2134549547
 21
23.2670542676
 31
0.0
 11
66.2268595091
 21
23.2667795232
 31
0.0
 11
66.237524267
 21
23.2664957849
 31
0.0
 11
66.2418040878
 21
23.2663511909
 31
0.0
 11
66.2453712194
 21
23.266205136
 31
0.0
 11
66.2482192105
 21
23.2660578819
 31
0.0
 11
66.250342942
 21
23.2659096857
 31
0.0
 11
66.2517383139
 21
23.2657608265
 31
0.0
 11
66.2524029771
 21
23.2656116227
 31
0.0
  0
SPLINE
  5
687
100
AcDbEntity
  8
RACCORDO
100
AcDbSpline
 62
7
  6
CONTINUOUS
 70
0
 71
3
 72
22
 73
18
 74
16
 42
0.0000001
 43
0.0000001
 44
0.0000000001
 12
-0.2919994381
 22
-0.145965339
 32
0.0
 13
-0.3264494876
 23
-0.0005330252
 33
0.0
 40
0.0
 40
0.0
 40
0.0
 40
0.0
 40
0.0020849924
 40
0.0063790678
 40
0.012893036
 40
0.0216186616
 40
0.0325419993
 40
0.0456441994
 40
0.0782863039
 40
0.1193091625
 40
0.1684146467
 40
0.2252448996
 40
0.2893853718
 40
0.4376753084
 40
0.608960783
 40
0.7982434711
 40
1.0
 40
1.0
 40
1.0
 40
1.0
 10
66.2522512562
 20
22.7043125226
 30
0.0
 10
66.2520483174
 20
22.7042110771
 30
0.0
 10
66.2513383042
 20
22.7041397202
 30
0.0
 10
66.2499594479
 20
22.7039755093
 30
0.0
 10
66.2478293723
 20
22.7038502389
 30
0.0
 10
66.2449896403
 20
22.7037013039
 30
0.0
 10
66.241427215
 20
22.7035606049
 30
0.0
 10
66.235264854
 20
22.7033543065
 30
0.0
 10
66.2258257224
 20
22.703113152
 30
0.0
 10
66.2124690914
 20
22.7028446908
 30
0.0
 10
66.1964795482
 20
22.7025860793
 30
0.0
 10
66.1779740815
 20
22.7023388166
 30
0.0
 10
66.1486758375
 20
22.702011918
 30
0.0
 10
66.1069225868
 20
22.7016593692
 30
0.0
 10
66.0515513193
 20
22.7013266012
 30
0.0
 10
65.9903615048
 20
22.7010786192
 30
0.0
 10
65.947810031
 20
22.7009772029
 30
0.0
 10
65.9258555925
 20
22.7009413558
 30
0.0
 11
66.2522512562
 21
22.7043125226
 31
0.0
 11
66.2515871528
 21
22.7041633747
 31
0.0
 11
66.2501932725
 21
22.7040145707
 31
0.0
 11
66.2480719546
 21
22.7038664283
 31
0.0
 11
66.2452272809
 21
22.7037192262
 31
0.0
 11
66.2416643484
 21
22.7035732207
 31
0.0
 11
66.2373895794
 21
22.7034286732
 31
0.0
 11
66.2267373429
 21
22.7031450169
 31
0.0
 11
66.2133482512
 21
22.7028703367
 31
0.0
 11
66.1973199387
 21
22.7026066366
 31
0.0
 11
66.1787694023
 21
22.702355846
 31
0.0
 11
66.1578320806
 21
22.7021197991
 31
0.0
 11
66.1094246736
 21
22.7016987195
 31
0.0
 11
66.0535095958
 21
22.7013556983
 31
0.0
 11
65.9917188028
 21
22.7011007627
 31
0.0
 11
65.9258555925
 21
22.7009413558
 31
0.0
  0
SPLINE
  5
688
100
AcDbEntity
  8
RACCORDO
100
AcDbSpline
 62
7
  6
CONTINUOUS
 70
0
 71
3
 72
22
 73
18
 74
16
 42
0.0000001
 43
0.0000001
 44
0.0000000001
 12
-0.287130678
 22
-0.1435531764
 32
0.0
 13
-0.3210159223
 23
-0.0005642334
 33
0.0
 40
0.0
 40
0.0
 40
0.0
 40
0.0
 40
0.0020877019
 40
0.0063768996
 40
0.0128786855
 40
0.0215851238
 40
0.0324826098
 40
0.0455527048
 40
0.0781139415
 40
0.1190379697
 40
0.1680328794
 40
0.2247482727
 40
0.2887782264
 40
0.4368998996
 40
0.6081628062
 40
0.7976684697
 40
1.0
 40
1.0
 40
1.0
 40
1.0
 10
66.2491018981
 20
-0.2822620365
 30
0.0
 10
66.2489020837
 20
-0.2823619352
 30
0.0
 10
66.248204426
 20
-0.2824333908
 30
0.0
 10
66.2468499706
 20
-0.2825953271
 30
0.0
 10
66.2447593931
 20
-0.282719695
 30
0.0
 10
66.2419730624
 20
-0.2828670053
 30
0.0
 10
66.2384782474
 20
-0.2830063802
 30
0.0
 10
66.2324333577
 20
-0.2832106648
 30
0.0
 10
66.2231740543
 20
-0.2834496189
 30
0.0
 10
66.2100708424
 20
-0.2837157695
 30
0.0
 10
66.1943821731
 20
-0.2839723797
 30
0.0
 10
66.1762207001
 20
-0.2842179874
 30
0.0
 10
66.1474522691
 20
-0.2845432101
 30
0.0
 10
66.1064262587
 20
-0.2848949817
 30
0.0
 10
66.0519732032
 20
-0.2852288248
 30
0.0
 10
65.9917189022
 20
-0.2854801262
 30
0.0
 10
65.9497902892
 20
-0.2855850846
 30
0.0
 10
65.9281397416
 20
-0.2856231386
 30
0.0
 11
66.2491018981
 21
-0.2822620365
 31
0.0
 11
66.2484481718
 21
-0.2824096576
 31
0.0
 11
66.2470791691
 21
-0.2825569439
 31
0.0
 11
66.244997147
 21
-0.2827035869
 31
0.0
 11
66.2422060392
 21
-0.2828493163
 31
0.0
 11
66.2387107557
 21
-0.2829938831
 31
0.0
 11
66.2345174833
 21
-0.2831370337
 31
0.0
 11
66.22406857
 21
-0.2834180525
 31
0.0
 11
66.2109341074
 21
-0.2836903527
 31
0.0
 11
66.1952081132
 21
-0.2839519874
 31
0.0
 11
66.1770032448
 21
-0.2842010804
 31
0.0
 11
66.1564499192
 21
-0.2844358469
 31
0.0
 11
66.1089022847
 21
-0.2848557901
 31
0.0
 11
66.0539251562
 21
-0.285199805
 31
0.0
 11
65.993091275
 21
-0.2854580498
 31
0.0
 11
65.9281397416
 21
-0.2856231386
 31
0.0
  0
SPLINE
  5
689
100
AcDbEntity
  8
RACCORDO
100
AcDbSpline
 62
7
  6
CONTINUOUS
 70
0
 71
3
 72
22
 73
18
 74
16
 42
0.0000001
 43
0.0000001
 44
0.0000000001
 12
0.321015922
 22
-0.0005642334
 32
0.0
 13
0.2871307526
 23
-0.1435530265
 33
0.0
 40
0.0
 40
0.0
 40
0.0
 40
0.0
 40
0.2023315208
 40
0.3918371833
 40
0.5631000891
 40
0.7112217626
 40
0.7752517167
 40
0.8319671108
 40
0.8809620215
 40
0.921886051
 40
0.9544472891
 40
0.967517385
 40
0.978414872
 40
0.9871213112
 40
0.9936230981
 40
0.997912297
 40
1.0
 40
1.0
 40
1.0
 40
1.0
 10
65.928139742
 20
0.2856231386
 30
0.0
 10
65.9497902885
 20
0.2855850846
 30
0.0
 10
65.9917189003
 20
0.285480126
 30
0.0
 10
66.0519732
 20
0.2852288247
 30
0.0
 10
66.1064262553
 20
0.2848949816
 30
0.0
 10
66.1474522657
 20
0.28454321
 30
0.0
 10
66.1762206968
 20
0.2842179874
 30
0.0
 10
66.19438217
 20
0.2839723797
 30
0.0
 10
66.2100708396
 20
0.2837157695
 30
0.0
 10
66.2231740519
 20
0.2834496189
 30
0.0
 10
66.2324333557
 20
0.2832106648
 30
0.0
 10
66.2384782458
 20
0.2830063802
 30
0.0
 10
66.241973061
 20
0.2828670053
 30
0.0
 10
66.244759392
 20
0.282719695
 30
0.0
 10
66.2468499698
 20
0.282595327
 30
0.0
 10
66.2482044257
 20
0.2824333908
 30
0.0
 10
66.2489020835
 20
0.2823619352
 30
0.0
 10
66.2491018981
 20
0.2822620365
 30
0.0
 11
65.928139742
 21
0.2856231386
 31
0.0
 11
65.9930912722
 21
0.2854580497
 31
0.0
 11
66.053925153
 21
0.2851998049
 31
0.0
 11
66.1089022812
 21
0.2848557901
 31
0.0
 11
66.1564499158
 21
0.2844358469
 31
0.0
 11
66.1770032415
 21
0.2842010803
 31
0.0
 11
66.1952081101
 21
0.2839519873
 31
0.0
 11
66.2109341046
 21
0.2836903527
 31
0.0
 11
66.2240685676
 21
0.2834180524
 31
0.0
 11
66.2345174814
 21
0.2831370337
 31
0.0
 11
66.238710754
 21
0.2829938831
 31
0.0
 11
66.2422060378
 21
0.2828493163
 31
0.0
 11
66.2449971459
 21
0.2827035868
 31
0.0
 11
66.2470791684
 21
0.2825569439
 31
0.0
 11
66.2484481714
 21
0.2824096576
 31
0.0
 11
66.2491018981
 21
0.2822620365
 31
0.0
  0
SPLINE
  5
68A
100
AcDbEntity
  8
RACCORDO
100
AcDbSpline
 62
7
  6
CONTINUOUS
 70
0
 71
3
 72
22
 73
18
 74
16
 42
0.0000001
 43
0.0000001
 44
0.0000000001
 12
0.3264494241
 22
-0.0005330228
 32
0.0
 13
0.2920125141
 23
-0.1459390358
 33
0.0
 40
0.0
 40
0.0
 40
0.0
 40
0.0
 40
0.2017549997
 40
0.3910374854
 40
0.5623228307
 40
0.7106127837
 40
0.7747533279
 40
0.8315836978
 40
0.8806893451
 40
0.9217124133
 40
0.9543547735
 40
0.9674571186
 40
0.9783806124
 40
0.9871064051
 40
0.9936205509
 40
0.9979148138
 40
1.0
 40
1.0
 40
1.0
 40
1.0
 10
65.9258556534
 20
-22.7009413559
 30
0.0
 10
65.9478099213
 20
-22.7009772026
 30
0.0
 10
65.9903611984
 20
-22.7010786398
 30
0.0
 10
66.0515507985
 20
-22.7013266107
 30
0.0
 10
66.1069220209
 20
-22.7016593792
 30
0.0
 10
66.148675259
 20
-22.702011926
 30
0.0
 10
66.1779735197
 20
-22.7023388232
 30
0.0
 10
66.1964790212
 20
-22.702586085
 30
0.0
 10
66.2124686145
 20
-22.7028446955
 30
0.0
 10
66.2258253114
 20
-22.7031131557
 30
0.0
 10
66.2352645074
 20
-22.7033543098
 30
0.0
 10
66.2414269282
 20
-22.7035606069
 30
0.0
 10
66.244989403
 20
-22.7037013065
 30
0.0
 10
66.2478291911
 20
-22.7038502389
 30
0.0
 10
66.2499593196
 20
-22.703975515
 30
0.0
 10
66.2513382457
 20
-22.7041397157
 30
0.0
 10
66.2520482894
 20
-22.7042110859
 30
0.0
 10
66.2522512562
 20
-22.7043125226
 30
0.0
 11
65.9258556534
 21
-22.7009413559
 31
0.0
 11
65.9917183518
 21
-22.7011007759
 31
0.0
 11
66.0535090667
 21
-22.7013557094
 31
0.0
 11
66.1094240914
 21
-22.7016987288
 31
0.0
 11
66.1578314943
 21
-22.7021198065
 31
0.0
 11
66.1787688354
 21
-22.7023558524
 31
0.0
 11
66.1973194065
 21
-22.702606642
 31
0.0
 11
66.2133477691
 21
-22.7028703411
 31
0.0
 11
66.2267369267
 21
-22.7031450203
 31
0.0
 11
66.2373892446
 21
-22.7034286757
 31
0.0
 11
66.2416640601
 21
-22.7035732227
 31
0.0
 11
66.2452270429
 21
-22.7037192277
 31
0.0
 11
66.2480717707
 21
-22.7038664295
 31
0.0
 11
66.2501931464
 21
-22.7040145714
 31
0.0
 11
66.251587088
 21
-22.7041633751
 31
0.0
 11
66.2522512562
 21
-22.7043125226
 31
0.0
  0
SPLINE
  5
68B
100
AcDbEntity
  8
RACCORDO
100
AcDbSpline
 62
7
  6
CONTINUOUS
 70
0
 71
3
 72
22
 73
18
 74
16
 42
0.0000001
 43
0.0000001
 44
0.0000000001
 12
-0.2922579137
 22
-0.1460757482
 32
0.0
 13
-0.326730057
 23
-0.000531222
 33
0.0
 40
0.0
 40
0.0
 40
0.0
 40
0.0
 40
0.0020850818
 40
0.0063801918
 40
0.0128961026
 40
0.0216245293
 40
0.0325514707
 40
0.0456580033
 40
0.0783106147
 40
0.1193457444
 40
0.1684643071
 40
0.2253073851
 40
0.289459315
 40
0.437763639
 40
0.6090454386
 40
0.7983001558
 40
1.0
 40
1.0
 40
1.0
 40
1.0
 10
66.2524029771
 20
-23.2656116227
 30
0.0
 10
66.2521998499
 20
-23.2657131493
 30
0.0
 10
66.2514890791
 20
-23.2657844616
 30
0.0
 10
66.2501087098
 20
-23.2659487845
 30
0.0
 10
66.2479761605
 20
-23.2660740687
 30
0.0
 10
66.2451330773
 20
-23.2662230674
 30
0.0
 10
66.2415664158
 20
-23.2663638083
 30
0.0
 10
66.2353967457
 20
-23.2665701732
 30
0.0
 10
66.2259465442
 20
-23.2668113922
 30
0.0
 10
66.2125745247
 20
-23.2670799135
 30
0.0
 10
66.1965670783
 20
-23.2673385643
 30
0.0
 10
66.1780416352
 20
-23.2675858442
 30
0.0
 10
66.1487139957
 20
-23.2679127226
 30
0.0
 10
66.1069224425
 20
-23.2682651798
 30
0.0
 10
66.0515054632
 20
-23.2685977538
 30
0.0
 10
65.9902726775
 20
-23.2688454433
 30
0.0
 10
65.9476938521
 20
-23.2689466399
 30
0.0
 10
65.9257267183
 20
-23.2689823557
 30
0.0
 11
66.2524029771
 21
-23.2656116227
 31
0.0
 11
66.2517382567
 21
-23.2657608262
 31
0.0
 11
66.2503428307
 21
-23.2659096851
 31
0.0
 11
66.2482190482
 21
-23.2660578809
 31
0.0
 11
66.2453710093
 21
-23.2662051346
 31
0.0
 11
66.2418038331
 21
-23.2663511891
 31
0.0
 11
66.2375239712
 21
-23.2664957827
 31
0.0
 11
66.2268591412
 21
-23.2667795202
 31
0.0
 11
66.2134545285
 21
-23.2670542637
 31
0.0
 11
66.1974081639
 21
-23.2673180063
 31
0.0
 11
66.1788374908
 21
-23.267568816
 31
0.0
 11
66.1578784285
 21
-23.2678048568
 31
0.0
 11
66.109424713
 21
-23.2682258452
 31
0.0
 11
66.053462777
 21
-23.2685686707
 31
0.0
 11
65.9916280151
 21
-23.2688233143
 31
0.0
 11
65.9257267183
 21
-23.2689823557
 31
0.0
  0
SPLINE
  5
68C
100
AcDbEntity
  8
RACCORDO
100
AcDbSpline
 62
7
  6
CONTINUOUS
 70
0
 71
3
 72
21
 73
17
 74
15
 42
0.0000001
 43
0.0000001
 44
0.0000000001
 12
-0.00072087
 22
-0.290644036
 32
0.0
 13
-0.1299724343
 23
-0.2599646931
 33
0.0
 40
0.0
 40
0.0
 40
0.0
 40
0.0
 40
0.2055590498
 40
0.3963341131
 40
0.5674840778
 40
0.7146605813
 40
0.7780646989
 40
0.8341276766
 40
0.8824929944
 40
0.9228535589
 40
0.9549542532
 40
0.9785933707
 40
0.9871925879
 40
0.9936275366
 40
0.9978924284
 40
1.0
 40
1.0
 40
1.0
 40
1.0
 10
45.7681466492
 20
-34.6033355988
 30
0.0
 10
45.7680972554
 20
-34.6232504361
 30
0.0
 10
45.7679741558
 20
-34.6616477563
 30
0.0
 10
45.7677063661
 20
-34.7166259269
 30
0.0
 10
45.7673679825
 20
-34.7659473866
 30
0.0
 10
45.7670214637
 20
-34.8029285329
 30
0.0
 10
45.7667059861
 20
-34.828759468
 30
0.0
 10
45.7664700713
 20
-34.8450177171
 30
0.0
 10
45.7662241703
 20
-34.8590427851
 30
0.0
 10
45.7659727981
 20
-34.8707465337
 30
0.0
 10
45.7657128909
 20
-34.8800519775
 30
0.0
 10
45.7654878113
 20
-34.8862842235
 30
0.0
 10
45.7652816852
 20
-34.8900216407
 30
0.0
 10
45.7651622617
 20
-34.8918942153
 30
0.0
 10
45.7650128612
 20
-34.8931140728
 30
0.0
 10
45.7649410006
 20
-34.8937435619
 30
0.0
 10
45.7648496918
 20
-34.8939261933
 30
0.0
 11
45.7681466492
 21
-34.6033355988
 31
0.0
 11
45.7679523679
 21
-34.6630799785
 31
0.0
 11
45.7676777194
 21
-34.7185271032
 31
0.0
 11
45.7673296791
 21
-34.7682697552
 31
0.0
 11
45.7669170917
 21
-34.8110438699
 31
0.0
 11
45.7666898129
 21
-34.8294705536
 31
0.0
 11
45.7664504418
 21
-34.8457632155
 31
0.0
 11
45.7662005018
 21
-34.8598181278
 31
0.0
 11
45.7659415838
 21
-34.8715458634
 31
0.0
 11
45.7656753314
 21
-34.8808719676
 31
0.0
 11
45.7654034484
 21
-34.8877371757
 31
0.0
 11
45.7652659291
 21
-34.8902327083
 31
0.0
 11
45.7651276368
 21
-34.8920978738
 31
0.0
 11
45.7649888044
 21
-34.8933296437
 31
0.0
 11
45.7648496918
 21
-34.8939261933
 31
0.0
  0
SPLINE
  5
68D
100
AcDbEntity
  8
RACCORDO
100
AcDbSpline
 62
7
  6
CONTINUOUS
 70
0
 71
3
 72
21
 73
17
 74
15
 42
0.0000001
 43
0.0000001
 44
0.0000000001
 12
-0.1298569722
 22
0.2597348901
 32
0.0
 13
-0.0007223069
 23
0.2903868534
 33
0.0
 40
0.0
 40
0.0
 40
0.0
 40
0.0
 40
0.0021076949
 40
0.0063717692
 40
0.0128049952
 40
0.0214016321
 40
0.0450332508
 40
0.07712385
 40
0.117472502
 40
0.1658250176
 40
0.2218753377
 40
0.2852680411
 40
0.4324298724
 40
0.6035828765
 40
0.7943852799
 40
1.0
 40
1.0
 40
1.0
 40
1.0
 10
45.0350252855
 20
-34.8936761289
 30
0.0
 10
45.0349340525
 20
-34.8934936483
 30
0.0
 10
45.034862145
 20
-34.8928648137
 30
0.0
 10
45.0347128436
 20
-34.8916462604
 30
0.0
 10
45.0345934282
 20
-34.8897758542
 30
0.0
 10
45.0343873828
 20
-34.8860428885
 30
0.0
 10
45.0341623538
 20
-34.8798181201
 30
0.0
 10
45.0339025157
 20
-34.8705237701
 30
0.0
 10
45.0336511901
 20
-34.8588337521
 30
0.0
 10
45.0334053223
 20
-34.8448247153
 30
0.0
 10
45.0331694201
 20
-34.8285844249
 30
0.0
 10
45.0328539221
 20
-34.8027801006
 30
0.0
 10
45.0325073204
 20
-34.7658339117
 30
0.0
 10
45.0321687649
 20
-34.7165545771
 30
0.0
 10
45.0319007243
 20
-34.661616727
 30
0.0
 10
45.0317774258
 20
-34.6232453487
 30
0.0
 10
45.0317279201
 20
-34.6033427448
 30
0.0
 11
45.0350252855
 21
-34.8936761289
 31
0.0
 11
45.0348862195
 21
-34.8930800883
 31
0.0
 11
45.0347474331
 21
-34.8918496558
 31
0.0
 11
45.0346091857
 21
-34.8899866482
 31
0.0
 11
45.0344717096
 21
-34.8874940785
 31
0.0
 11
45.0341999063
 21
-34.8806371307
 31
0.0
 11
45.0339337217
 21
-34.8713222163
 31
0.0
 11
45.0336748564
 21
-34.8596083219
 31
0.0
 11
45.0334249511
 21
-34.8455695677
 31
0.0
 11
45.0331855949
 21
-34.8292950014
 31
0.0
 11
45.0329583094
 21
-34.8108879399
 31
0.0
 11
45.0325456407
 21
-34.7681559392
 31
0.0
 11
45.0321974289
 21
-34.7184564229
 31
0.0
 11
45.0319225262
 21
-34.663050424
 31
0.0
 11
45.0317279201
 21
-34.6033427448
 31
0.0
  0
SPLINE
  5
68E
100
AcDbEntity
  8
RACCORDO
100
AcDbSpline
 62
7
  6
CONTINUOUS
 70
0
 71
3
 72
21
 73
17
 74
15
 42
0.0000001
 43
0.0000001
 44
0.0000000001
 12
-0.0007223069
 22
-0.2903868549
 32
0.0
 13
-0.1298573321
 23
-0.2597347118
 33
0.0
 40
0.0
 40
0.0
 40
0.0
 40
0.0
 40
0.2056147508
 40
0.3964171549
 40
0.5675701599
 40
0.71473199
 40
0.7781246919
 40
0.8341750098
 40
0.8825275226
 40
0.922876171
 40
0.9549667659
 40
0.9785983797
 40
0.9871950138
 40
0.9936282369
 40
0.9978923082
 40
1.0
 40
1.0
 40
1.0
 40
1.0
 10
-45.0317279201
 20
-34.6033427434
 30
0.0
 10
-45.0317774258
 20
-34.6232453503
 30
0.0
 10
-45.031900724
 20
-34.6616167319
 30
0.0
 10
-45.0321687647
 20
-34.7165545853
 30
0.0
 10
-45.0325073203
 20
-34.7658339203
 30
0.0
 10
-45.032853922
 20
-34.8027801091
 30
0.0
 10
-45.03316942
 20
-34.8285844331
 30
0.0
 10
-45.0334053222
 20
-34.844824723
 30
0.0
 10
-45.03365119
 20
-34.858833759
 30
0.0
 10
-45.0339025157
 20
-34.870523776
 30
0.0
 10
-45.0341623537
 20
-34.8798181248
 30
0.0
 10
-45.0343873828
 20
-34.8860428921
 30
0.0
 10
-45.0345934282
 20
-34.8897758568
 30
0.0
 10
-45.0347128436
 20
-34.8916462622
 30
0.0
 10
-45.0348621451
 20
-34.8928648145
 30
0.0
 10
-45.0349340524
 20
-34.8934936487
 30
0.0
 10
-45.0350252855
 20
-34.8936761289
 30
0.0
 11
-45.0317279201
 21
-34.6033427434
 31
0.0
 11
-45.031922526
 21
-34.6630504317
 31
0.0
 11
-45.0321974287
 21
-34.7184564312
 31
0.0
 11
-45.0325456405
 21
-34.7681559479
 31
0.0
 11
-45.0329583093
 21
-34.8108879486
 31
0.0
 11
-45.0331855949
 21
-34.8292950097
 31
0.0
 11
-45.0334249511
 21
-34.8455695755
 31
0.0
 11
-45.0336748563
 21
-34.8596083289
 31
0.0
 11
-45.0339337217
 21
-34.8713222223
 31
0.0
 11
-45.0341999063
 21
-34.8806371356
 31
0.0
 11
-45.0344717096
 21
-34.8874940819
 31
0.0
 11
-45.0346091857
 21
-34.8899866508
 31
0.0
 11
-45.0347474331
 21
-34.8918496576
 31
0.0
 11
-45.0348862195
 21
-34.8930800893
 31
0.0
 11
-45.0350252855
 21
-34.8936761289
 31
0.0
  0
SPLINE
  5
68F
100
AcDbEntity
  8
RACCORDO
100
AcDbSpline
 62
7
  6
CONTINUOUS
 70
0
 71
3
 72
21
 73
17
 74
15
 42
0.0000001
 43
0.0000001
 44
0.0000000001
 12
-0.1299724176
 22
0.2599647013
 32
0.0
 13
-0.00072087
 23
0.2906440359
 33
0.0
 40
0.0
 40
0.0
 40
0.0
 40
0.0
 40
0.0021075718
 40
0.0063724637
 40
0.0128074125
 40
0.0214066299
 40
0.0450457477
 40
0.0771464422
 40
0.1175070069
 40
0.1658723249
 40
0.2219353028
 40
0.2853394205
 40
0.4325159242
 40
0.603665889
 40
0.7944409523
 40
1.0
 40
1.0
 40
1.0
 40
1.0
 10
-45.7648496918
 20
-34.8939261933
 30
0.0
 10
-45.7649410006
 20
-34.8937435618
 30
0.0
 10
-45.7650128612
 20
-34.8931140727
 30
0.0
 10
-45.7651622617
 20
-34.8918942152
 30
0.0
 10
-45.7652816852
 20
-34.8900216406
 30
0.0
 10
-45.7654878113
 20
-34.8862842233
 30
0.0
 10
-45.7657128909
 20
-34.8800519773
 30
0.0
 10
-45.7659727981
 20
-34.8707465334
 30
0.0
 10
-45.7662241703
 20
-34.8590427847
 30
0.0
 10
-45.7664700713
 20
-34.8450177167
 30
0.0
 10
-45.7667059861
 20
-34.8287594675
 30
0.0
 10
-45.7670214637
 20
-34.8029285324
 30
0.0
 10
-45.7673679825
 20
-34.7659473861
 30
0.0
 10
-45.7677063661
 20
-34.7166259264
 30
0.0
 10
-45.7679741557
 20
-34.661647756
 30
0.0
 10
-45.7680972554
 20
-34.623250436
 30
0.0
 10
-45.7681466492
 20
-34.6033355989
 30
0.0
 11
-45.7648496918
 21
-34.8939261933
 31
0.0
 11
-45.7649888044
 21
-34.8933296437
 31
0.0
 11
-45.7651276368
 21
-34.8920978737
 31
0.0
 11
-45.7652659291
 21
-34.8902327082
 31
0.0
 11
-45.7654034484
 21
-34.8877371755
 31
0.0
 11
-45.7656753314
 21
-34.8808719674
 31
0.0
 11
-45.7659415838
 21
-34.8715458631
 31
0.0
 11
-45.7662005018
 21
-34.8598181274
 31
0.0
 11
-45.7664504418
 21
-34.8457632151
 31
0.0
 11
-45.7666898129
 21
-34.8294705532
 31
0.0
 11
-45.7669170917
 21
-34.8110438694
 31
0.0
 11
-45.7673296791
 21
-34.7682697546
 31
0.0
 11
-45.7676777194
 21
-34.7185271027
 31
0.0
 11
-45.7679523678
 21
-34.663079978
 31
0.0
 11
-45.7681466492
 21
-34.6033355989
 31
0.0
  0
SPLINE
  5
690
100
AcDbEntity
  8
RACCORDO
100
AcDbSpline
 62
7
  6
CONTINUOUS
 70
0
 71
3
 72
22
 73
18
 74
16
 42
0.0000001
 43
0.0000001
 44
0.0000000001
 12
-0.3267301041
 22
0.0005312241
 32
0.0
 13
-0.2922471738
 23
0.1460973393
 33
0.0
 40
0.0
 40
0.0
 40
0.0
 40
0.0
 40
0.2017011
 40
0.3909559838
 40
0.5622378895
 40
0.7105421997
 40
0.7746940702
 40
0.8315370518
 40
0.8806554803
 40
0.9216904378
 40
0.9543428392
 40
0.9674492528
 40
0.9783760661
 40
0.9871043557
 40
0.9936201209
 40
0.9979150771
 40
1.0
 40
1.0
 40
1.0
 40
1.0
 10
-65.9257266732
 20
-23.2689823558
 30
0.0
 10
-65.947693947
 20
-23.2689466397
 30
0.0
 10
-65.9902729335
 20
-23.2688454602
 30
0.0
 10
-66.0515058945
 20
-23.2685977615
 30
0.0
 10
-66.10692291
 20
-23.2682651879
 30
0.0
 10
-66.1487144727
 20
-23.2679127292
 30
0.0
 10
-66.178042098
 20
-23.2675858496
 30
0.0
 10
-66.1965675122
 20
-23.2673385689
 30
0.0
 10
-66.2125749171
 20
-23.2670799174
 30
0.0
 10
-66.2259468822
 20
-23.2668113952
 30
0.0
 10
-66.2353970306
 20
-23.2665701759
 30
0.0
 10
-66.2415666514
 20
-23.26636381
 30
0.0
 10
-66.2451332722
 20
-23.2662230696
 30
0.0
 10
-66.2479763094
 20
-23.2660740687
 30
0.0
 10
-66.2501088152
 20
-23.2659487893
 30
0.0
 10
-66.2514891272
 20
-23.2657844579
 30
0.0
 10
-66.2521998728
 20
-23.2657131566
 30
0.0
 10
-66.2524029771
 20
-23.2656116227
 30
0.0
 11
-65.9257266732
 21
-23.2689823558
 31
0.0
 11
-65.9916283898
 21
-23.2688233252
 31
0.0
 11
-66.0534632151
 21
-23.2685686798
 31
0.0
 11
-66.1094251939
 21
-23.2682258529
 31
0.0
 11
-66.1578789118
 21
-23.2678048629
 31
0.0
 11
-66.1788379578
 21
-23.2675688212
 31
0.0
 11
-66.197408602
 21
-23.2673180108
 31
0.0
 11
-66.2134549251
 21
-23.2670542673
 31
0.0
 11
-66.2268594834
 21
-23.266779523
 31
0.0
 11
-66.2375242463
 21
-23.2664957848
 31
0.0
 11
-66.2418040699
 21
-23.2663511908
 31
0.0
 11
-66.2453712047
 21
-23.2662051359
 31
0.0
 11
-66.2482191991
 21
-23.2660578818
 31
0.0
 11
-66.2503429342
 21
-23.2659096857
 31
0.0
 11
-66.2517383098
 21
-23.2657608265
 31
0.0
 11
-66.2524029771
 21
-23.2656116227
 31
0.0
  0
SPLINE
  5
691
100
AcDbEntity
  8
RACCORDO
100
AcDbSpline
 62
7
  6
CONTINUOUS
 70
0
 71
3
 72
22
 73
18
 74
16
 42
0.0000001
 43
0.0000001
 44
0.0000000001
 12
0.2919919358
 22
0.1459804299
 32
0.0
 13
0.326449525
 23
0.0005330267
 33
0.0
 40
0.0
 40
0.0
 40
0.0
 40
0.0
 40
0.0020848812
 40
0.0063788489
 40
0.012892715
 40
0.0216182445
 40
0.0325414923
 40
0.0456436088
 40
0.0782855655
 40
0.1193083027
 40
0.168413692
 40
0.2252438762
 40
0.2893843058
 40
0.4376742309
 40
0.6089597786
 40
0.7982425827
 40
1.0
 40
1.0
 40
1.0
 40
1.0
 10
-66.2522512562
 20
-22.7043125226
 30
0.0
 10
-66.2520483334
 20
-22.704211072
 30
0.0
 10
-66.2513383379
 20
-22.7041397227
 30
0.0
 10
-66.2499595216
 20
-22.7039755059
 30
0.0
 10
-66.2478294764
 20
-22.703850239
 30
0.0
 10
-66.2449897766
 20
-22.7037013024
 30
0.0
 10
-66.2414273799
 20
-22.7035606037
 30
0.0
 10
-66.2352650534
 20
-22.7033543046
 30
0.0
 10
-66.2258259589
 20
-22.7031131498
 30
0.0
 10
-66.2124693661
 20
-22.702844688
 30
0.0
 10
-66.1964798521
 20
-22.7025860761
 30
0.0
 10
-66.1779744057
 20
-22.7023388128
 30
0.0
 10
-66.1486761716
 20
-22.7020119134
 30
0.0
 10
-66.1069229142
 20
-22.7016593635
 30
0.0
 10
-66.051551621
 20
-22.7013265957
 30
0.0
 10
-65.9903616822
 20
-22.7010786072
 30
0.0
 10
-65.9478100942
 20
-22.7009772031
 30
0.0
 10
-65.9258555565
 20
-22.7009413557
 30
0.0
 11
-66.2522512562
 21
-22.7043125226
 31
0.0
 11
-66.25158719
 21
-22.7041633745
 31
0.0
 11
-66.2501933449
 21
-22.7040145703
 31
0.0
 11
-66.2480720602
 21
-22.7038664277
 31
0.0
 11
-66.2452274175
 21
-22.7037192252
 31
0.0
 11
-66.2416645141
 21
-22.7035732196
 31
0.0
 11
-66.2373897719
 21
-22.7034286718
 31
0.0
 11
-66.2267375825
 21
-22.7031450149
 31
0.0
 11
-66.2133485288
 21
-22.7028703342
 31
0.0
 11
-66.1973202455
 21
-22.7026066334
 31
0.0
 11
-66.1787697293
 21
-22.7023558423
 31
0.0
 11
-66.1578324192
 21
-22.7021197948
 31
0.0
 11
-66.1094250105
 21
-22.7016987141
 31
0.0
 11
-66.0535099024
 21
-22.7013556919
 31
0.0
 11
-65.9917190645
 21
-22.7011007551
 31
0.0
 11
-65.9258555565
 21
-22.7009413557
 31
0.0
  0
SPLINE
  5
692
100
AcDbEntity
  8
RACCORDO
100
AcDbSpline
 62
7
  6
CONTINUOUS
 70
0
 71
3
 72
22
 73
18
 74
16
 42
0.0000001
 43
0.0000001
 44
0.0000000001
 12
0.2871306692
 22
0.1435531942
 32
0.0
 13
0.3210159223
 23
0.0005642334
 33
0.0
 40
0.0
 40
0.0
 40
0.0
 40
0.0
 40
0.0020877018
 40
0.0063768994
 40
0.0128786851
 40
0.0215851233
 40
0.0324826092
 40
0.0455527041
 40
0.0781139406
 40
0.1190379686
 40
0.1680328782
 40
0.2247482715
 40
0.288778225
 40
0.4368998983
 40
0.6081628049
 40
0.7976684685
 40
1.0
 40
1.0
 40
1.0
 40
1.0
 10
-66.2491018981
 20
0.2822620365
 30
0.0
 10
-66.2489020837
 20
0.2823619353
 30
0.0
 10
-66.248204426
 20
0.2824333908
 30
0.0
 10
-66.2468499707
 20
0.2825953271
 30
0.0
 10
-66.2447593932
 20
0.282719695
 30
0.0
 10
-66.2419730625
 20
0.2828670053
 30
0.0
 10
-66.2384782476
 20
0.2830063802
 30
0.0
 10
-66.2324333579
 20
0.2832106648
 30
0.0
 10
-66.2231740546
 20
0.2834496189
 30
0.0
 10
-66.2100708427
 20
0.2837157695
 30
0.0
 10
-66.1943821735
 20
0.2839723797
 30
0.0
 10
-66.1762207005
 20
0.2842179875
 30
0.0
 10
-66.1474522695
 20
0.2845432101
 30
0.0
 10
-66.1064262591
 20
0.2848949817
 30
0.0
 10
-66.0519732035
 20
0.2852288248
 30
0.0
 10
-65.9917189025
 20
0.2854801262
 30
0.0
 10
-65.9497902893
 20
0.2855850846
 30
0.0
 10
-65.9281397416
 20
0.2856231386
 30
0.0
 11
-66.2491018981
 21
0.2822620365
 31
0.0
 11
-66.2484481719
 21
0.2824096576
 31
0.0
 11
-66.2470791692
 21
0.2825569439
 31
0.0
 11
-66.2449971471
 21
0.2827035869
 31
0.0
 11
-66.2422060393
 21
0.2828493163
 31
0.0
 11
-66.2387107559
 21
0.2829938831
 31
0.0
 11
-66.2345174835
 21
0.2831370337
 31
0.0
 11
-66.2240685703
 21
0.2834180525
 31
0.0
 11
-66.2109341077
 21
0.2836903527
 31
0.0
 11
-66.1952081136
 21
0.2839519874
 31
0.0
 11
-66.1770032452
 21
0.2842010804
 31
0.0
 11
-66.1564499196
 21
0.2844358469
 31
0.0
 11
-66.1089022851
 21
0.2848557901
 31
0.0
 11
-66.0539251566
 21
0.285199805
 31
0.0
 11
-65.9930912753
 21
0.2854580498
 31
0.0
 11
-65.9281397416
 21
0.2856231386
 31
0.0
  0
SPLINE
  5
693
100
AcDbEntity
  8
RACCORDO
100
AcDbSpline
 62
7
  6
CONTINUOUS
 70
0
 71
3
 72
22
 73
18
 74
16
 42
0.0000001
 43
0.0000001
 44
0.0000000001
 12
-0.321015922
 22
0.0005642334
 32
0.0
 13
-0.2871307475
 23
0.1435530367
 33
0.0
 40
0.0
 40
0.0
 40
0.0
 40
0.0
 40
0.2023315215
 40
0.391837184
 40
0.5631000899
 40
0.7112217634
 40
0.7752517174
 40
0.8319671115
 40
0.8809620221
 40
0.9218860515
 40
0.9544472895
 40
0.9675173854
 40
0.9784148723
 40
0.9871213114
 40
0.9936230983
 40
0.997912297
 40
1.0
 40
1.0
 40
1.0
 40
1.0
 10
-65.9281397419
 20
-0.2856231386
 30
0.0
 10
-65.9497902886
 20
-0.2855850846
 30
0.0
 10
-65.9917189005
 20
-0.285480126
 30
0.0
 10
-66.0519732002
 20
-0.2852288247
 30
0.0
 10
-66.1064262555
 20
-0.2848949816
 30
0.0
 10
-66.1474522659
 20
-0.28454321
 30
0.0
 10
-66.1762206971
 20
-0.2842179874
 30
0.0
 10
-66.1943821702
 20
-0.2839723797
 30
0.0
 10
-66.2100708398
 20
-0.2837157695
 30
0.0
 10
-66.2231740521
 20
-0.2834496189
 30
0.0
 10
-66.2324333558
 20
-0.2832106648
 30
0.0
 10
-66.2384782459
 20
-0.2830063802
 30
0.0
 10
-66.2419730611
 20
-0.2828670053
 30
0.0
 10
-66.2447593921
 20
-0.282719695
 30
0.0
 10
-66.2468499699
 20
-0.282595327
 30
0.0
 10
-66.2482044257
 20
-0.2824333908
 30
0.0
 10
-66.2489020835
 20
-0.2823619352
 30
0.0
 10
-66.2491018981
 20
-0.2822620365
 30
0.0
 11
-65.9281397419
 21
-0.2856231386
 31
0.0
 11
-65.9930912724
 21
-0.2854580497
 31
0.0
 11
-66.0539251532
 21
-0.2851998049
 31
0.0
 11
-66.1089022814
 21
-0.2848557901
 31
0.0
 11
-66.156449916
 21
-0.2844358469
 31
0.0
 11
-66.1770032417
 21
-0.2842010803
 31
0.0
 11
-66.1952081103
 21
-0.2839519873
 31
0.0
 11
-66.2109341048
 21
-0.2836903527
 31
0.0
 11
-66.2240685677
 21
-0.2834180524
 31
0.0
 11
-66.2345174815
 21
-0.2831370337
 31
0.0
 11
-66.2387107541
 21
-0.2829938831
 31
0.0
 11
-66.2422060379
 21
-0.2828493163
 31
0.0
 11
-66.244997146
 21
-0.2827035869
 31
0.0
 11
-66.2470791685
 21
-0.2825569439
 31
0.0
 11
-66.2484481715
 21
-0.2824096576
 31
0.0
 11
-66.2491018981
 21
-0.2822620365
 31
0.0
  0
SPLINE
  5
694
100
AcDbEntity
  8
RACCORDO
100
AcDbSpline
 62
7
  6
CONTINUOUS
 70
0
 71
3
 72
22
 73
18
 74
16
 42
0.0000001
 43
0.0000001
 44
0.0000000001
 12
-0.3264493974
 22
0.0005330218
 32
0.0
 13
-0.2920181904
 23
0.1459276179
 33
0.0
 40
0.0
 40
0.0
 40
0.0
 40
0.0
 40
0.2017543467
 40
0.3910367444
 40
0.5623220324
 40
0.7106119905
 40
0.7747525647
 40
0.831582984
 40
0.8806887008
 40
0.9217118587
 40
0.9543543289
 40
0.9674567365
 40
0.9783802978
 40
0.9871061627
 40
0.9936203855
 40
0.9979147297
 40
1.0
 40
1.0
 40
1.0
 40
1.0
 10
-65.925855679
 20
22.700941356
 30
0.0
 10
-65.9478098739
 20
22.7009772024
 30
0.0
 10
-65.9903610669
 20
22.7010786486
 30
0.0
 10
-66.0515505752
 20
22.7013266147
 30
0.0
 10
-66.1069217779
 20
22.7016593834
 30
0.0
 10
-66.1486750101
 20
22.7020119294
 30
0.0
 10
-66.1779732777
 20
22.702338826
 30
0.0
 10
-66.1964787938
 20
22.7025860874
 30
0.0
 10
-66.2124684085
 20
22.7028446976
 30
0.0
 10
-66.2258251337
 20
22.7031131573
 30
0.0
 10
-66.2352643574
 20
22.7033543112
 30
0.0
 10
-66.241426804
 20
22.7035606078
 30
0.0
 10
-66.2449893002
 20
22.7037013077
 30
0.0
 10
-66.2478291125
 20
22.7038502388
 30
0.0
 10
-66.2499592639
 20
22.7039755176
 30
0.0
 10
-66.2513382202
 20
22.7041397138
 30
0.0
 10
-66.2520482773
 20
22.7042110898
 30
0.0
 10
-66.2522512562
 20
22.7043125226
 30
0.0
 11
-65.925855679
 21
22.700941356
 31
0.0
 11
-65.9917181587
 21
22.7011007815
 31
0.0
 11
-66.0535088399
 21
22.7013557141
 31
0.0
 11
-66.1094238413
 21
22.7016987328
 31
0.0
 11
-66.157831242
 21
22.7021198096
 31
0.0
 11
-66.1787685911
 21
22.7023558551
 31
0.0
 11
-66.1973191769
 21
22.7026066443
 31
0.0
 11
-66.2133475608
 21
22.702870343
 31
0.0
 11
-66.2267367467
 21
22.7031450218
 31
0.0
 11
-66.2373890996
 21
22.7034286768
 31
0.0
 11
-66.2416639353
 21
22.7035732236
 31
0.0
 11
-66.2452269398
 21
22.7037192284
 31
0.0
 11
-66.248071691
 21
22.70386643
 31
0.0
 11
-66.2501930917
 21
22.7040145717
 31
0.0
 11
-66.2515870599
 21
22.7041633752
 31
0.0
 11
-66.2522512562
 21
22.7043125226
 31
0.0
  0
SPLINE
  5
695
100
AcDbEntity
  8
RACCORDO
100
AcDbSpline
 62
7
  6
CONTINUOUS
 70
0
 71
3
 72
22
 73
18
 74
16
 42
0.0000001
 43
0.0000001
 44
0.0000000001
 12
0.2922688941
 22
0.1460536713
 32
0.0
 13
0.3267300095
 23
0.00053122
 33
0.0
 40
0.0
 40
0.0
 40
0.0
 40
0.0
 40
0.0020852442
 40
0.0063805114
 40
0.0128965711
 40
0.0216251377
 40
0.0325522099
 40
0.0456588639
 40
0.0783116894
 40
0.1193469943
 40
0.1684656931
 40
0.2253088686
 40
0.2894608583
 40
0.437765195
 40
0.6090468851
 40
0.7983014317
 40
1.0
 40
1.0
 40
1.0
 40
1.0
 10
-66.2524029771
 20
23.2656116227
 30
0.0
 10
-66.2521998264
 20
23.2657131419
 30
0.0
 10
-66.25148903
 20
23.2657844653
 30
0.0
 10
-66.2501086021
 20
23.2659487796
 30
0.0
 10
-66.2479760084
 20
23.2660740688
 30
0.0
 10
-66.2451328782
 20
23.2662230652
 30
0.0
 10
-66.2415661751
 20
23.2663638066
 30
0.0
 10
-66.2353964548
 20
23.2665701705
 30
0.0
 10
-66.2259461992
 20
23.266811389
 30
0.0
 10
-66.2125741243
 20
23.2670799096
 30
0.0
 10
-66.1965666357
 20
23.2673385597
 30
0.0
 10
-66.1780411633
 20
23.2675858387
 30
0.0
 10
-66.1487135095
 20
23.267912716
 30
0.0
 10
-66.1069219664
 20
23.2682651715
 30
0.0
 10
-66.0515050243
 20
23.2685977459
 30
0.0
 10
-65.9902724169
 20
23.2688454261
 30
0.0
 10
-65.9476937553
 20
23.2689466402
 30
0.0
 10
-65.9257267636
 20
23.2689823556
 30
0.0
 11
-66.2524029771
 21
23.2656116227
 31
0.0
 11
-66.2517382023
 21
23.2657608259
 31
0.0
 11
-66.2503427248
 21
23.2659096844
 31
0.0
 11
-66.2482188938
 21
23.2660578799
 31
0.0
 11
-66.2453708096
 21
23.2662051333
 31
0.0
 11
-66.2418035912
 21
23.2663511875
 31
0.0
 11
-66.2375236901
 21
23.2664957807
 31
0.0
 11
-66.2268587918
 21
23.2667795174
 31
0.0
 11
-66.2134541237
 21
23.2670542601
 31
0.0
 11
-66.1974077169
 21
23.2673180018
 31
0.0
 11
-66.1788370147
 21
23.2675688106
 31
0.0
 11
-66.1578779359
 21
23.2678048506
 31
0.0
 11
-66.1094242233
 21
23.2682258375
 31
0.0
 11
-66.0534623311
 21
23.2685686615
 31
0.0
 11
-65.9916276339
 21
23.2688233034
 31
0.0
 11
-65.9257267636
 21
23.2689823556
 31
0.0
  0
SPLINE
  5
696
100
AcDbEntity
  8
RACCORDO
100
AcDbSpline
 62
7
  6
CONTINUOUS
 70
0
 71
3
 72
21
 73
17
 74
15
 42
0.0000001
 43
0.0000001
 44
0.0000000001
 12
0.00072087
 22
0.290644036
 32
0.0
 13
0.1299724336
 23
0.2599646934
 33
0.0
 40
0.0
 40
0.0
 40
0.0
 40
0.0
 40
0.2055590498
 40
0.3963341131
 40
0.5674840778
 40
0.7146605813
 40
0.7780646989
 40
0.8341276766
 40
0.8824929944
 40
0.9228535589
 40
0.9549542531
 40
0.9785933707
 40
0.9871925879
 40
0.9936275366
 40
0.9978924284
 40
1.0
 40
1.0
 40
1.0
 40
1.0
 10
-45.7681466492
 20
34.6033355988
 30
0.0
 10
-45.7680972554
 20
34.6232504361
 30
0.0
 10
-45.7679741558
 20
34.6616477563
 30
0.0
 10
-45.7677063661
 20
34.7166259269
 30
0.0
 10
-45.7673679825
 20
34.7659473866
 30
0.0
 10
-45.7670214637
 20
34.8029285329
 30
0.0
 10
-45.7667059861
 20
34.828759468
 30
0.0
 10
-45.7664700713
 20
34.8450177171
 30
0.0
 10
-45.7662241703
 20
34.8590427851
 30
0.0
 10
-45.7659727981
 20
34.8707465337
 30
0.0
 10
-45.7657128909
 20
34.8800519775
 30
0.0
 10
-45.7654878113
 20
34.8862842235
 30
0.0
 10
-45.7652816852
 20
34.8900216407
 30
0.0
 10
-45.7651622617
 20
34.8918942153
 30
0.0
 10
-45.7650128612
 20
34.8931140728
 30
0.0
 10
-45.7649410006
 20
34.8937435619
 30
0.0
 10
-45.7648496918
 20
34.8939261933
 30
0.0
 11
-45.7681466492
 21
34.6033355988
 31
0.0
 11
-45.7679523679
 21
34.6630799785
 31
0.0
 11
-45.7676777194
 21
34.7185271032
 31
0.0
 11
-45.7673296791
 21
34.7682697551
 31
0.0
 11
-45.7669170917
 21
34.8110438699
 31
0.0
 11
-45.7666898129
 21
34.8294705536
 31
0.0
 11
-45.7664504418
 21
34.8457632155
 31
0.0
 11
-45.7662005018
 21
34.8598181278
 31
0.0
 11
-45.7659415838
 21
34.8715458634
 31
0.0
 11
-45.7656753314
 21
34.8808719676
 31
0.0
 11
-45.7654034484
 21
34.8877371757
 31
0.0
 11
-45.7652659291
 21
34.8902327083
 31
0.0
 11
-45.7651276368
 21
34.8920978737
 31
0.0
 11
-45.7649888044
 21
34.8933296437
 31
0.0
 11
-45.7648496918
 21
34.8939261933
 31
0.0
  0
SPLINE
  5
697
100
AcDbEntity
  8
RACCORDO
100
AcDbSpline
 62
7
  6
CONTINUOUS
 70
0
 71
3
 72
21
 73
17
 74
15
 42
0.0000001
 43
0.0000001
 44
0.0000000001
 12
0.1298574979
 22
-0.2597346302
 32
0.0
 13
0.0007223069
 23
-0.290386856
 33
0.0
 40
0.0
 40
0.0
 40
0.0
 40
0.0
 40
0.0021076903
 40
0.0063717602
 40
0.012804982
 40
0.0214016147
 40
0.045033226
 40
0.0771238187
 40
0.1174724651
 40
0.1658249762
 40
0.2218752926
 40
0.2852679934
 40
0.4324298222
 40
0.603582827
 40
0.7943852309
 40
1.0
 40
1.0
 40
1.0
 40
1.0
 10
-45.0350252855
 20
34.8936761289
 30
0.0
 10
-45.0349340524
 20
34.8934936488
 30
0.0
 10
-45.0348621451
 20
34.8928648149
 30
0.0
 10
-45.0347128435
 20
34.891646263
 30
0.0
 10
-45.0345934282
 20
34.8897758581
 30
0.0
 10
-45.0343873828
 20
34.8860428939
 30
0.0
 10
-45.0341623537
 20
34.8798181271
 30
0.0
 10
-45.0339025156
 20
34.8705237789
 30
0.0
 10
-45.03365119
 20
34.8588337625
 30
0.0
 10
-45.0334053222
 20
34.8448247269
 30
0.0
 10
-45.03316942
 20
34.8285844374
 30
0.0
 10
-45.0328539219
 20
34.8027801136
 30
0.0
 10
-45.0325073202
 20
34.7658339249
 30
0.0
 10
-45.0321687647
 20
34.7165545899
 30
0.0
 10
-45.0319007239
 20
34.6616167345
 30
0.0
 10
-45.0317774258
 20
34.623245351
 30
0.0
 10
-45.0317279201
 20
34.6033427423
 30
0.0
 11
-45.0350252855
 21
34.8936761289
 31
0.0
 11
-45.0348862195
 21
34.8930800897
 31
0.0
 11
-45.0347474331
 21
34.8918496585
 31
0.0
 11
-45.0346091857
 21
34.8899866521
 31
0.0
 11
-45.0344717096
 21
34.8874940835
 31
0.0
 11
-45.0341999062
 21
34.8806371379
 31
0.0
 11
-45.0339337216
 21
34.8713222252
 31
0.0
 11
-45.0336748563
 21
34.8596083324
 31
0.0
 11
-45.033424951
 21
34.8455695794
 31
0.0
 11
-45.0331855948
 21
34.8292950139
 31
0.0
 11
-45.0329583092
 21
34.8108879531
 31
0.0
 11
-45.0325456405
 21
34.7681559527
 31
0.0
 11
-45.0321974286
 21
34.7184564358
 31
0.0
 11
-45.0319225259
 21
34.6630504362
 31
0.0
 11
-45.0317279201
 21
34.6033427423
 31
0.0
  0
SPLINE
  5
698
100
AcDbEntity
  8
RACCORDO
100
AcDbSpline
 62
7
  6
CONTINUOUS
 70
0
 71
3
 72
21
 73
17
 74
15
 42
0.0000001
 43
0.0000001
 44
0.0000000001
 12
0.000722307
 22
0.2903868571
 32
0.0
 13
0.1298577511
 23
0.2597345048
 33
0.0
 40
0.0
 40
0.0
 40
0.0
 40
0.0
 40
0.2056148138
 40
0.3964171924
 40
0.567570257
 40
0.7147320174
 40
0.7781248614
 40
0.8341750047
 40
0.8825274578
 40
0.9228761945
 40
0.9549668166
 40
0.9785983884
 40
0.987195017
 40
0.993628237
 40
0.9978923089
 40
1.0
 40
1.0
 40
1.0
 40
1.0
 10
45.0317279201
 20
34.6033427411
 30
0.0
 10
45.0317774258
 20
34.6232453543
 30
0.0
 10
45.0319007236
 20
34.6616167398
 30
0.0
 10
45.0321687647
 20
34.7165546031
 30
0.0
 10
45.03250732
 20
34.765833935
 30
0.0
 10
45.0328539223
 20
34.8027801369
 30
0.0
 10
45.0331694199
 20
34.8285844512
 30
0.0
 10
45.0334053222
 20
34.8448247323
 30
0.0
 10
45.0336511896
 20
34.8588337543
 30
0.0
 10
45.0339025156
 20
34.8705237768
 30
0.0
 10
45.0341623536
 20
34.8798181327
 30
0.0
 10
45.0343873829
 20
34.8860428982
 30
0.0
 10
45.034593428
 20
34.889775858
 30
0.0
 10
45.0347128433
 20
34.8916462627
 30
0.0
 10
45.0348621452
 20
34.8928648145
 30
0.0
 10
45.0349340522
 20
34.8934936489
 30
0.0
 10
45.0350252855
 20
34.8936761289
 30
0.0
 11
45.0317279201
 21
34.6033427411
 31
0.0
 11
45.0319225257
 21
34.6630504483
 31
0.0
 11
45.0321974286
 21
34.7184564407
 31
0.0
 11
45.0325456405
 21
34.7681559752
 31
0.0
 11
45.0329583092
 21
34.8108879559
 31
0.0
 11
45.0331855952
 21
34.8292950584
 31
0.0
 11
45.0334249508
 21
34.8455695737
 31
0.0
 11
45.0336748557
 21
34.8596083099
 31
0.0
 11
45.0339337216
 21
34.871322229
 31
0.0
 11
45.0341999065
 21
34.8806371502
 31
0.0
 11
45.0344717095
 21
34.8874940844
 31
0.0
 11
45.0346091855
 21
34.8899866518
 31
0.0
 11
45.034747433
 21
34.8918496577
 31
0.0
 11
45.0348862195
 21
34.8930800895
 31
0.0
 11
45.0350252855
 21
34.8936761289
 31
0.0
  0
SPLINE
  5
699
100
AcDbEntity
  8
RACCORDO
100
AcDbSpline
 62
7
  6
CONTINUOUS
 70
0
 71
3
 72
21
 73
17
 74
15
 42
0.0000001
 43
0.0000001
 44
0.0000000001
 12
0.1299723463
 22
-0.2599647366
 32
0.0
 13
0.00072087
 23
-0.2906440356
 33
0.0
 40
0.0
 40
0.0
 40
0.0
 40
0.0
 40
0.0021075753
 40
0.0063724721
 40
0.0128074217
 40
0.0214066373
 40
0.0450457201
 40
0.077146448
 40
0.1175071059
 40
0.1658723681
 40
0.2219351749
 40
0.2853394383
 40
0.432515873
 40
0.6036659001
 40
0.7944409344
 40
1.0
 40
1.0
 40
1.0
 40
1.0
 10
45.7648496918
 20
34.8939261933
 30
0.0
 10
45.7649410007
 20
34.8937435615
 30
0.0
 10
45.7650128611
 20
34.8931140716
 30
0.0
 10
45.7651622618
 20
34.8918942131
 30
0.0
 10
45.7652816853
 20
34.8900216382
 30
0.0
 10
45.7654878111
 20
34.8862842243
 30
0.0
 10
45.765712891
 20
34.8800519787
 30
0.0
 10
45.7659727981
 20
34.8707465259
 30
0.0
 10
45.7662241706
 20
34.8590427704
 30
0.0
 10
45.7664700711
 20
34.8450177153
 30
0.0
 10
45.7667059861
 20
34.8287594741
 30
0.0
 10
45.7670214633
 20
34.8029285481
 30
0.0
 10
45.7673679825
 20
34.7659473884
 30
0.0
 10
45.7677063659
 20
34.7166259322
 30
0.0
 10
45.7679741557
 20
34.6616477568
 30
0.0
 10
45.7680972554
 20
34.6232504379
 30
0.0
 10
45.7681466492
 20
34.6033355991
 30
0.0
 11
45.7648496918
 21
34.8939261933
 31
0.0
 11
45.7649888044
 21
34.8933296426
 31
0.0
 11
45.7651276369
 21
34.8920978712
 31
0.0
 11
45.7652659292
 21
34.8902327055
 31
0.0
 11
45.7654034484
 21
34.8877371733
 31
0.0
 11
45.7656753312
 21
34.8808719754
 31
0.0
 11
45.7659415837
 21
34.8715458614
 31
0.0
 11
45.7662005023
 21
34.8598180986
 31
0.0
 11
45.766450442
 21
34.8457632026
 31
0.0
 11
45.7666898124
 21
34.8294705904
 31
0.0
 11
45.7669170917
 21
34.8110438643
 31
0.0
 11
45.7673296789
 21
34.7682697696
 31
0.0
 11
45.7676777193
 21
34.7185270996
 31
0.0
 11
45.7679523678
 21
34.6630799834
 31
0.0
 11
45.7681466492
 21
34.6033355991
 31
0.0
  0
SPLINE
  5
69A
100
AcDbEntity
  8
RACCORDO
100
AcDbSpline
 62
7
  6
CONTINUOUS
 70
0
 71
3
 72
18
 73
14
 74
12
 42
0.0000001
 43
0.0000001
 44
0.0000000001
 12
-0.1528568122
 22
0.2577060467
 32
0.0
 13
0.001615152
 23
0.29962477
 33
0.0
 40
0.0
 40
0.0
 40
0.0
 40
0.0
 40
0.0132310113
 40
0.0345402668
 40
0.0639569573
 40
0.101306095
 40
0.1463051517
 40
0.1985908825
 40
0.3232220067
 40
0.4710081443
 40
0.6369221174
 40
0.8152900895
 40
1.0
 40
1.0
 40
1.0
 40
1.0
 10
69.54696279
 20
-3.5239590572
 30
0.0
 10
69.5462886399
 20
-3.5228224867
 30
0.0
 10
69.5452501389
 20
-3.5194796138
 30
0.0
 10
69.5439375664
 20
-3.5132493034
 30
0.0
 10
69.5426697147
 20
-3.5045295623
 30
0.0
 10
69.5414320727
 20
-3.4934391014
 30
0.0
 10
69.5402611913
 20
-3.4800408266
 30
0.0
 10
69.5387080843
 20
-3.4579311206
 30
0.0
 10
69.5370923419
 20
-3.4255378789
 30
0.0
 10
69.5356432363
 20
-3.3817819201
 30
0.0
 10
69.5346583312
 20
-3.3326444962
 30
0.0
 10
69.5341733304
 20
-3.2798121083
 30
0.0
 10
69.534196721
 20
-3.2435485359
 30
0.0
 10
69.5342961659
 20
-3.2251006478
 30
0.0
 11
69.54696279
 21
-3.5239590572
 31
0.0
 11
69.5455413923
 21
-3.5202582375
 31
0.0
 11
69.544158806
 21
-3.5140248544
 31
0.0
 11
69.5428269527
 21
-3.505311963
 31
0.0
 11
69.5415570482
 21
-3.4941933593
 31
0.0
 11
69.5403599077
 21
-3.4807635828
 31
0.0
 11
69.5392456564
 21
-3.4651369304
 31
0.0
 11
69.53730279
 21
-3.4278443913
 31
0.0
 11
69.5357939823
 21
-3.3835890731
 31
0.0
 11
69.5347699889
 21
-3.3338869621
 31
0.0
 11
69.5342651293
 21
-3.2804451076
 31
0.0
 11
69.5342961659
 21
-3.2251006478
 31
0.0
  0
LINE
  5
69B
100
AcDbEntity
  8
RACCORDO
100
AcDbLine
 62
7
  6
CONTINUOUS
 10
46.6033868232
 20
-23.6229151607
 11
46.6036554698
 21
-23.2960037262
  0
SPLINE
  5
69C
100
AcDbEntity
  8
RACCORDO
100
AcDbSpline
 62
7
  6
CONTINUOUS
 70
0
 71
3
 72
18
 73
14
 74
12
 42
0.0000001
 43
0.0000001
 44
0.0000000001
 12
-0.001615152
 22
0.29962477
 32
0.0
 13
0.1528568122
 23
0.2577060467
 33
0.0
 40
0.0
 40
0.0
 40
0.0
 40
0.0
 40
0.1847098992
 40
0.3630778441
 40
0.5289918388
 40
0.6767779665
 40
0.8014091058
 40
0.853694837
 40
0.8986938877
 40
0.9360430279
 40
0.9654597301
 40
0.9867689891
 40
1.0
 40
1.0
 40
1.0
 40
1.0
 10
69.5342961659
 20
3.2251006478
 30
0.0
 10
69.534196721
 20
3.2435485348
 30
0.0
 10
69.5341733304
 20
3.2798121033
 30
0.0
 10
69.5346583311
 20
3.3326444896
 30
0.0
 10
69.5356432361
 20
3.3817819119
 30
0.0
 10
69.5370923417
 20
3.4255378733
 30
0.0
 10
69.538708084
 20
3.4579311156
 30
0.0
 10
69.540261191
 20
3.4800408225
 30
0.0
 10
69.5414320722
 20
3.4934390971
 30
0.0
 10
69.5426697144
 20
3.5045295588
 30
0.0
 10
69.543937566
 20
3.5132493017
 30
0.0
 10
69.5452501388
 20
3.5194796135
 30
0.0
 10
69.54628864
 20
3.5228224867
 30
0.0
 10
69.54696279
 20
3.5239590572
 30
0.0
 11
69.5342961659
 21
3.2251006478
 31
0.0
 11
69.5342651293
 21
3.2804451042
 31
0.0
 11
69.5347699887
 21
3.3338869506
 31
0.0
 11
69.5357939821
 21
3.383589068
 31
0.0
 11
69.5373027897
 21
3.4278443833
 31
0.0
 11
69.5392456562
 21
3.4651369269
 31
0.0
 11
69.5403599074
 21
3.4807635794
 31
0.0
 11
69.5415570476
 21
3.4941933542
 31
0.0
 11
69.5428269522
 21
3.5053119586
 31
0.0
 11
69.5441588058
 21
3.5140248534
 31
0.0
 11
69.5455413924
 21
3.5202582376
 31
0.0
 11
69.54696279
 21
3.5239590572
 31
0.0
  0
SPLINE
  5
69D
100
AcDbEntity
  8
RACCORDO
100
AcDbSpline
 62
7
  6
CONTINUOUS
 70
0
 71
3
 72
9
 73
5
 74
3
 42
0.0000001
 43
0.0000001
 44
0.0000000001
 12
22.0730450141
 22
0.0094727067
 32
0.0
 13
22.0730426198
 23
0.013979654
 33
0.0
 40
0.0
 40
0.0
 40
0.0
 40
0.0
 40
0.2501286947
 40
1.0
 40
1.0
 40
1.0
 40
1.0
 10
46.6036554698
 20
-23.2960037262
 30
0.0
 10
48.4440227823
 20
-23.2952139276
 30
0.0
 10
55.801704372
 20
-23.291868885
 30
0.0
 10
63.1593856208
 20
-23.2877736653
 30
0.0
 10
68.6766993813
 20
-23.2842793515
 30
0.0
 11
46.6036554698
 21
-23.2960037262
 31
0.0
 11
52.1247573449
 21
-23.293493611
 31
0.0
 11
68.6766993813
 21
-23.2842793515
 31
0.0
  0
SPLINE
  5
69E
100
AcDbEntity
  8
RACCORDO
100
AcDbSpline
 62
7
  6
CONTINUOUS
 70
0
 71
3
 72
18
 73
14
 74
12
 42
0.0000001
 43
0.0000001
 44
0.0000000001
 12
0.001615152
 22
-0.29962477
 32
0.0
 13
-0.1528568122
 23
-0.2577060467
 33
0.0
 40
0.0
 40
0.0
 40
0.0
 40
0.0
 40
0.1847099105
 40
0.3630778826
 40
0.5289918557
 40
0.6767779933
 40
0.8014091175
 40
0.8536948483
 40
0.898693905
 40
0.9360430427
 40
0.9654597332
 40
0.9867689887
 40
1.0
 40
1.0
 40
1.0
 40
1.0
 10
-69.5342961659
 20
-3.2251006478
 30
0.0
 10
-69.534196721
 20
-3.2435485359
 30
0.0
 10
-69.5341733304
 20
-3.2798121083
 30
0.0
 10
-69.5346583312
 20
-3.3326444962
 30
0.0
 10
-69.5356432363
 20
-3.3817819201
 30
0.0
 10
-69.5370923419
 20
-3.4255378789
 30
0.0
 10
-69.5387080843
 20
-3.4579311206
 30
0.0
 10
-69.5402611913
 20
-3.4800408266
 30
0.0
 10
-69.5414320727
 20
-3.4934391014
 30
0.0
 10
-69.5426697147
 20
-3.5045295623
 30
0.0
 10
-69.5439375664
 20
-3.5132493034
 30
0.0
 10
-69.5452501389
 20
-3.5194796138
 30
0.0
 10
-69.5462886399
 20
-3.5228224867
 30
0.0
 10
-69.54696279
 20
-3.5239590572
 30
0.0
 11
-69.5342961659
 21
-3.2251006478
 31
0.0
 11
-69.5342651293
 21
-3.2804451076
 31
0.0
 11
-69.5347699889
 21
-3.3338869621
 31
0.0
 11
-69.5357939823
 21
-3.3835890731
 31
0.0
 11
-69.53730279
 21
-3.4278443913
 31
0.0
 11
-69.5392456564
 21
-3.4651369304
 31
0.0
 11
-69.5403599077
 21
-3.4807635828
 31
0.0
 11
-69.5415570482
 21
-3.4941933593
 31
0.0
 11
-69.5428269527
 21
-3.505311963
 31
0.0
 11
-69.544158806
 21
-3.5140248544
 31
0.0
 11
-69.5455413923
 21
-3.5202582375
 31
0.0
 11
-69.54696279
 21
-3.5239590572
 31
0.0
  0
SPLINE
  5
69F
100
AcDbEntity
  8
RACCORDO
100
AcDbSpline
 62
253
  6
CONTINUOUS
 70
0
 71
3
 72
15
 73
11
 74
9
 42
0.0000001
 43
0.0000001
 44
0.0000000001
 12
-0.0492396808
 22
-0.8753103005
 32
0.0
 13
-0.875815716
 23
-0.039236462
 33
0.0
 40
0.0
 40
0.0
 40
0.0
 40
0.0
 40
0.1248760624
 40
0.2498532136
 40
0.3749067761
 40
0.500001699
 40
0.6250966318
 40
0.7501500108
 40
0.8751262402
 40
1.0
 40
1.0
 40
1.0
 40
1.0
 10
68.0991620849
 20
-35.7221868536
 30
0.0
 10
68.0971124657
 20
-35.7586219549
 30
0.0
 10
68.0863427263
 20
-35.8313227383
 30
0.0
 10
68.0506294375
 20
-35.935519847
 30
0.0
 10
67.9964240162
 20
-36.0315271972
 30
0.0
 10
67.9255011279
 20
-36.1159786829
 30
0.0
 10
67.8402726103
 20
-36.185966148
 30
0.0
 10
67.7436698201
 20
-36.2391037574
 30
0.0
 10
67.6390793322
 20
-36.2736475759
 30
0.0
 10
67.5662611538
 20
-36.2835915304
 30
0.0
 10
67.5298056867
 20
-36.2852247319
 30
0.0
 11
68.0991620849
 21
-35.7221868536
 31
0.0
 11
68.0830919549
 21
-35.8304790915
 31
0.0
 11
68.047560703
 21
-35.9341246443
 31
0.0
 11
67.9936476586
 21
-36.0295863552
 31
0.0
 11
67.9231165886
 21
-36.1135677507
 31
0.0
 11
67.8383618395
 21
-36.1831676144
 31
0.0
 11
67.7423078444
 21
-36.2360178682
 31
0.0
 11
67.6382713403
 21
-36.2703849924
 31
0.0
 11
67.5298056867
 21
-36.2852247319
 31
0.0
  0
SPLINE
  5
6A0
100
AcDbEntity
  8
RACCORDO
100
AcDbSpline
 62
7
  6
CONTINUOUS
 70
0
 71
3
 72
18
 73
14
 74
12
 42
0.0000001
 43
0.0000001
 44
0.0000000001
 12
0.1528568122
 22
-0.2577060467
 32
0.0
 13
-0.001615152
 23
-0.29962477
 33
0.0
 40
0.0
 40
0.0
 40
0.0
 40
0.0
 40
0.0132310109
 40
0.0345402699
 40
0.0639569721
 40
0.1013061123
 40
0.146305163
 40
0.1985908942
 40
0.3232220335
 40
0.4710081612
 40
0.6369221559
 40
0.8152901008
 40
1.0
 40
1.0
 40
1.0
 40
1.0
 10
-69.54696279
 20
3.5239590572
 30
0.0
 10
-69.54628864
 20
3.5228224867
 30
0.0
 10
-69.5452501388
 20
3.5194796135
 30
0.0
 10
-69.543937566
 20
3.5132493017
 30
0.0
 10
-69.5426697144
 20
3.5045295588
 30
0.0
 10
-69.5414320722
 20
3.4934390971
 30
0.0
 10
-69.540261191
 20
3.4800408225
 30
0.0
 10
-69.538708084
 20
3.4579311156
 30
0.0
 10
-69.5370923417
 20
3.4255378733
 30
0.0
 10
-69.5356432361
 20
3.3817819119
 30
0.0
 10
-69.5346583311
 20
3.3326444896
 30
0.0
 10
-69.5341733304
 20
3.2798121033
 30
0.0
 10
-69.534196721
 20
3.2435485348
 30
0.0
 10
-69.5342961659
 20
3.2251006478
 30
0.0
 11
-69.54696279
 21
3.5239590572
 31
0.0
 11
-69.5455413924
 21
3.5202582376
 31
0.0
 11
-69.5441588058
 21
3.5140248534
 31
0.0
 11
-69.5428269522
 21
3.5053119586
 31
0.0
 11
-69.5415570476
 21
3.4941933542
 31
0.0
 11
-69.5403599074
 21
3.4807635794
 31
0.0
 11
-69.5392456562
 21
3.4651369269
 31
0.0
 11
-69.5373027897
 21
3.4278443833
 31
0.0
 11
-69.5357939821
 21
3.383589068
 31
0.0
 11
-69.5347699887
 21
3.3338869506
 31
0.0
 11
-69.5342651293
 21
3.2804451042
 31
0.0
 11
-69.5342961659
 21
3.2251006478
 31
0.0
  0
SPLINE
  5
6A1
100
AcDbEntity
  8
RACCORDO
100
AcDbSpline
 62
7
  6
CONTINUOUS
 70
0
 71
3
 72
11
 73
7
 74
5
 42
0.0000001
 43
0.0000001
 44
0.0000000001
 12
-0.0048499338
 22
-0.1556171625
 32
0.0
 13
-0.1556750288
 23
0.0023470258
 33
0.0
 40
0.0
 40
0.0
 40
0.0
 40
0.0
 40
0.2159899478
 40
0.4451551845
 40
0.7005669208
 40
1.0
 40
1.0
 40
1.0
 40
1.0
 10
-45.0888189223
 20
-18.9051603601
 30
0.0
 10
-45.0891681013
 20
-18.9163642744
 30
0.0
 10
-45.0940989794
 20
-18.9395154304
 30
0.0
 10
-45.114110815
 20
-18.9707930683
 30
0.0
 10
-45.147806916
 20
-18.9953087274
 30
0.0
 10
-45.1771371546
 20
-19.0015078415
 30
0.0
 10
-45.192675239
 20
-19.0012735824
 30
0.0
 11
-45.0888189223
 21
-18.9051603601
 31
0.0
 11
-45.0957858046
 21
-18.9380588272
 31
0.0
 11
-45.1149232123
 21
-18.9681715536
 31
0.0
 11
-45.1470768829
 21
-18.9915693352
 31
0.0
 11
-45.192675239
 21
-19.0012735824
 31
0.0
  0
SPLINE
  5
6A2
100
AcDbEntity
  8
RACCORDO
100
AcDbSpline
 62
7
  6
CONTINUOUS
 70
0
 71
3
 72
11
 73
7
 74
5
 42
0.0000001
 43
0.0000001
 44
0.0000000001
 12
0.1556750307
 22
0.0023470258
 32
0.0
 13
0.0048499338
 23
-0.1556171644
 33
0.0
 40
0.0
 40
0.0
 40
0.0
 40
0.0
 40
0.299432769
 40
0.5548446048
 40
0.784009959
 40
1.0
 40
1.0
 40
1.0
 40
1.0
 10
-45.192675239
 20
-13.9987264176
 30
0.0
 10
-45.1771371705
 20
-13.9984921588
 30
0.0
 10
-45.1478069441
 20
-14.0046912627
 30
0.0
 10
-45.1141108345
 20
-14.0292069044
 30
0.0
 10
-45.0940989824
 20
-14.0604845531
 30
0.0
 10
-45.0891681015
 20
-14.0836357207
 30
0.0
 10
-45.0888189223
 20
-14.0948396399
 30
0.0
 11
-45.192675239
 21
-13.9987264176
 31
0.0
 11
-45.1470769271
 21
-14.0084306435
 31
0.0
 11
-45.1149232335
 21
-14.0318284205
 31
0.0
 11
-45.095785809
 21
-14.0619411585
 31
0.0
 11
-45.0888189223
 21
-14.0948396399
 31
0.0
  0
SPLINE
  5
6A3
100
AcDbEntity
  8
RACCORDO
100
AcDbSpline
 62
7
  6
CONTINUOUS
 70
0
 71
3
 72
11
 73
7
 74
5
 42
0.0000001
 43
0.0000001
 44
0.0000000001
 12
-0.0056272924
 22
-0.1556154955
 32
0.0
 13
-0.1556887714
 23
0.0029757897
 33
0.0
 40
0.0
 40
0.0
 40
0.0
 40
0.0
 40
0.2162655874
 40
0.4456997621
 40
0.7009024487
 40
1.0
 40
1.0
 40
1.0
 40
1.0
 10
46.5928961209
 20
14.0931245967
 30
0.0
 10
46.5924904576
 20
14.0819065045
 30
0.0
 10
46.5873902739
 20
14.0587481773
 30
0.0
 10
46.56707775
 20
14.0276303556
 30
0.0
 10
46.5331717401
 20
14.0034311867
 30
0.0
 10
46.5038469789
 20
13.9974295593
 30
0.0
 10
46.4883249355
 20
13.9977262431
 30
0.0
 11
46.5928961209
 21
14.0931245967
 31
0.0
 11
46.5857006213
 21
14.0602260226
 31
0.0
 11
46.5662733049
 21
14.0302429086
 31
0.0
 11
46.5339378231
 21
14.0071422487
 31
0.0
 11
46.4883249355
 21
13.9977262431
 31
0.0
  0
SPLINE
  5
6A4
100
AcDbEntity
  8
RACCORDO
100
AcDbSpline
 62
7
  6
CONTINUOUS
 70
0
 71
3
 72
11
 73
7
 74
5
 42
0.0000001
 43
0.0000001
 44
0.0000000001
 12
0.1556887742
 22
0.0029757898
 32
0.0
 13
0.0056272925
 23
-0.1556154983
 33
0.0
 40
0.0
 40
0.0
 40
0.0
 40
0.0
 40
0.299096963
 40
0.5542998679
 40
0.783734244
 40
1.0
 40
1.0
 40
1.0
 40
1.0
 10
46.4883249355
 20
19.0022737569
 30
0.0
 10
46.5038469486
 20
19.0025704402
 30
0.0
 10
46.5331716867
 20
18.9965688278
 30
0.0
 10
46.5670777155
 20
18.9723696954
 30
0.0
 10
46.587390268
 20
18.9412518514
 30
0.0
 10
46.5924904573
 20
18.9180935044
 30
0.0
 10
46.5928961209
 20
18.9068754033
 30
0.0
 11
46.4883249355
 21
19.0022737569
 31
0.0
 11
46.5339377383
 21
18.9928577892
 31
0.0
 11
46.5662732681
 21
18.9697571367
 31
0.0
 11
46.585700613
 21
18.9397740031
 31
0.0
 11
46.5928961209
 21
18.9068754033
 31
0.0
  0
SPLINE
  5
6A5
100
AcDbEntity
  8
RACCORDO
100
AcDbSpline
 62
7
  6
CONTINUOUS
 70
0
 71
3
 72
11
 73
7
 74
5
 42
0.0000001
 43
0.0000001
 44
0.0000000001
 12
-0.1556750307
 22
-0.0023470258
 32
0.0
 13
-0.0048499338
 23
0.1556171644
 33
0.0
 40
0.0
 40
0.0
 40
0.0
 40
0.0
 40
0.299432769
 40
0.5548446048
 40
0.784009959
 40
1.0
 40
1.0
 40
1.0
 40
1.0
 10
45.192675239
 20
13.9987264176
 30
0.0
 10
45.1771371705
 20
13.9984921588
 30
0.0
 10
45.1478069441
 20
14.0046912627
 30
0.0
 10
45.1141108345
 20
14.0292069044
 30
0.0
 10
45.0940989824
 20
14.0604845532
 30
0.0
 10
45.0891681015
 20
14.0836357207
 30
0.0
 10
45.0888189223
 20
14.0948396399
 30
0.0
 11
45.192675239
 21
13.9987264176
 31
0.0
 11
45.1470769271
 21
14.0084306435
 31
0.0
 11
45.1149232335
 21
14.0318284205
 31
0.0
 11
45.095785809
 21
14.0619411585
 31
0.0
 11
45.0888189223
 21
14.0948396399
 31
0.0
  0
SPLINE
  5
6A6
100
AcDbEntity
  8
RACCORDO
100
AcDbSpline
 62
7
  6
CONTINUOUS
 70
0
 71
3
 72
11
 73
7
 74
5
 42
0.0000001
 43
0.0000001
 44
0.0000000001
 12
-0.1556887742
 22
-0.0029757898
 32
0.0
 13
-0.0056272925
 23
0.1556154983
 33
0.0
 40
0.0
 40
0.0
 40
0.0
 40
0.0
 40
0.299096963
 40
0.5542998679
 40
0.783734244
 40
1.0
 40
1.0
 40
1.0
 40
1.0
 10
-46.4883249355
 20
-19.0022737569
 30
0.0
 10
-46.5038469486
 20
-19.0025704402
 30
0.0
 10
-46.5331716867
 20
-18.9965688278
 30
0.0
 10
-46.5670777155
 20
-18.9723696954
 30
0.0
 10
-46.587390268
 20
-18.9412518514
 30
0.0
 10
-46.5924904573
 20
-18.9180935044
 30
0.0
 10
-46.5928961209
 20
-18.9068754033
 30
0.0
 11
-46.4883249355
 21
-19.0022737569
 31
0.0
 11
-46.5339377383
 21
-18.9928577892
 31
0.0
 11
-46.5662732681
 21
-18.9697571367
 31
0.0
 11
-46.585700613
 21
-18.9397740031
 31
0.0
 11
-46.5928961209
 21
-18.9068754033
 31
0.0
  0
SPLINE
  5
6A7
100
AcDbEntity
  8
RACCORDO
100
AcDbSpline
 62
7
  6
CONTINUOUS
 70
0
 71
3
 72
11
 73
7
 74
5
 42
0.0000001
 43
0.0000001
 44
0.0000000001
 12
0.0056272924
 22
0.1556154955
 32
0.0
 13
0.1556887714
 23
-0.0029757897
 33
0.0
 40
0.0
 40
0.0
 40
0.0
 40
0.0
 40
0.2162655874
 40
0.4456997622
 40
0.7009024487
 40
1.0
 40
1.0
 40
1.0
 40
1.0
 10
-46.5928961209
 20
-14.0931245967
 30
0.0
 10
-46.5924904576
 20
-14.0819065045
 30
0.0
 10
-46.5873902739
 20
-14.0587481773
 30
0.0
 10
-46.56707775
 20
-14.0276303556
 30
0.0
 10
-46.5331717401
 20
-14.0034311867
 30
0.0
 10
-46.5038469789
 20
-13.9974295593
 30
0.0
 10
-46.4883249355
 20
-13.9977262431
 30
0.0
 11
-46.5928961209
 21
-14.0931245967
 31
0.0
 11
-46.5857006213
 21
-14.0602260226
 31
0.0
 11
-46.5662733049
 21
-14.0302429086
 31
0.0
 11
-46.5339378231
 21
-14.0071422487
 31
0.0
 11
-46.4883249355
 21
-13.9977262431
 31
0.0
  0
SPLINE
  5
6A8
100
AcDbEntity
  8
RACCORDO
100
AcDbSpline
 62
7
  6
CONTINUOUS
 70
0
 71
3
 72
11
 73
7
 74
5
 42
0.0000001
 43
0.0000001
 44
0.0000000001
 12
0.0048499338
 22
0.1556171625
 32
0.0
 13
0.1556750288
 23
-0.0023470258
 33
0.0
 40
0.0
 40
0.0
 40
0.0
 40
0.0
 40
0.2159899478
 40
0.4451551845
 40
0.7005669208
 40
1.0
 40
1.0
 40
1.0
 40
1.0
 10
45.0888189223
 20
18.9051603601
 30
0.0
 10
45.0891681013
 20
18.9163642744
 30
0.0
 10
45.0940989794
 20
18.9395154304
 30
0.0
 10
45.114110815
 20
18.9707930683
 30
0.0
 10
45.147806916
 20
18.9953087274
 30
0.0
 10
45.1771371546
 20
19.0015078415
 30
0.0
 10
45.192675239
 20
19.0012735824
 30
0.0
 11
45.0888189223
 21
18.9051603601
 31
0.0
 11
45.0957858046
 21
18.9380588272
 31
0.0
 11
45.1149232123
 21
18.9681715536
 31
0.0
 11
45.1470768829
 21
18.9915693352
 31
0.0
 11
45.192675239
 21
19.0012735824
 31
0.0
  0
SPLINE
  5
6A9
100
AcDbEntity
  8
RACCORDO
100
AcDbSpline
 62
253
  6
CONTINUOUS
 70
0
 71
3
 72
18
 73
14
 74
12
 42
0.0000001
 43
0.0000001
 44
0.0000000001
 12
0.0110251128
 22
-0.2783354354
 32
0.0
 13
-0.2124617515
 23
-0.1801448635
 33
0.0
 40
0.0
 40
0.0
 40
0.0
 40
0.0
 40
0.1912851223
 40
0.3737622925
 40
0.5415554782
 40
0.6892675484
 40
0.8121772151
 40
0.8630873018
 40
0.9064268374
 40
0.9418863815
 40
0.96925643
 40
0.9884934039
 40
1.0
 40
1.0
 40
1.0
 40
1.0
 10
67.5298056867
 20
-36.2852247318
 30
0.0
 10
67.5305086667
 20
-36.3029718744
 30
0.0
 10
67.5316732646
 20
-36.3376577122
 30
0.0
 10
67.5327133256
 20
-36.3879323962
 30
0.0
 10
67.532997459
 20
-36.4341721706
 30
0.0
 10
67.5325203412
 20
-36.4748782675
 30
0.0
 10
67.531473915
 20
-36.5047212123
 30
0.0
 10
67.5301790897
 20
-36.5248425694
 30
0.0
 10
67.5291029377
 20
-36.5368444029
 30
0.0
 10
67.5278770528
 20
-36.5466158044
 30
0.0
 10
67.5265217489
 20
-36.5541528804
 30
0.0
 10
67.5250745249
 20
-36.5592912506
 30
0.0
 10
67.5237843564
 20
-36.5619881462
 30
0.0
 10
67.5229694525
 20
-36.5626790976
 30
0.0
 11
67.5298056867
 21
-36.2852247318
 31
0.0
 11
67.5315836865
 21
-36.3384782385
 31
0.0
 11
67.5326131965
 21
-36.3892975038
 31
0.0
 11
67.532860887
 21
-36.4360362614
 31
0.0
 11
67.5323186977
 21
-36.4771784337
 31
0.0
 11
67.5310042332
 21
-36.5113901344
 31
0.0
 11
67.530069763
 21
-36.5255405059
 31
0.0
 11
67.5289600936
 21
-36.5375617867
 31
0.0
 11
67.5276842217
 21
-36.5473564247
 31
0.0
 11
67.5262526018
 21
-36.5548448341
 31
0.0
 11
67.5246766354
 21
-36.5599663746
 31
0.0
 11
67.5229694525
 21
-36.5626790976
 31
0.0
  0
SPLINE
  5
6AA
100
AcDbEntity
  8
RACCORDO
100
AcDbSpline
 62
253
  6
CONTINUOUS
 70
0
 71
3
 72
18
 73
14
 74
12
 42
0.0000001
 43
0.0000001
 44
0.0000000001
 12
0.2782333902
 22
-0.0142253298
 32
0.0
 13
0.1831126791
 23
0.2099664883
 33
0.0
 40
0.0
 40
0.0
 40
0.0
 40
0.0
 40
0.1912878497
 40
0.3737720881
 40
0.5415744582
 40
0.6892955599
 40
0.8122117982
 40
0.8631234485
 40
0.9064629157
 40
0.9419202425
 40
0.969285098
 40
0.9885122343
 40
1.0
 40
1.0
 40
1.0
 40
1.0
 10
68.0991620848
 20
-35.7221868536
 30
0.0
 10
68.1169029738
 20
-35.7230938979
 30
0.0
 10
68.1515793521
 20
-35.7246583658
 30
0.0
 10
68.2018481325
 20
-35.726281221
 30
0.0
 10
68.2480909286
 20
-35.7271047318
 30
0.0
 10
68.2888083985
 20
-35.7271060576
 30
0.0
 10
68.318667828
 20
-35.7264138844
 30
0.0
 10
68.3388071344
 20
-35.7253608147
 30
0.0
 10
68.350822953
 20
-35.7244304409
 30
0.0
 10
68.3606094532
 20
-35.7233248753
 30
0.0
 10
68.3681626728
 20
-35.7220648526
 30
0.0
 10
68.3733167821
 20
-35.7206847168
 30
0.0
 10
68.3760293382
 20
-35.7194336785
 30
0.0
 10
68.3767305233
 20
-35.7186296633
 30
0.0
 11
68.0991620848
 21
-35.7221868536
 31
0.0
 11
68.1524005614
 21
-35.7245788084
 31
0.0
 11
68.2032143101
 21
-35.7261975474
 31
0.0
 11
68.2499567864
 21
-35.7269906384
 31
0.0
 11
68.291111372
 21
-35.7269323226
 31
0.0
 11
68.3253434082
 21
-35.7260245176
 31
0.0
 11
68.3395066226
 21
-35.7252601926
 31
0.0
 11
68.3515423516
 21
-35.7242966427
 31
0.0
 11
68.3613528987
 21
-35.723141681
 31
0.0
 11
68.3688585257
 21
-35.7218047817
 31
0.0
 11
68.3739984384
 21
-35.7202965834
 31
0.0
 11
68.3767305233
 21
-35.7186296633
 31
0.0
  0
SPLINE
  5
6AB
100
AcDbEntity
  8
RACCORDO
100
AcDbSpline
 62
253
  6
CONTINUOUS
 70
0
 71
3
 72
18
 73
14
 74
12
 42
0.0000001
 43
0.0000001
 44
0.0000000001
 12
0.2782335331
 22
0.01422534
 32
0.0
 13
0.1831129645
 23
-0.2099664293
 33
0.0
 40
0.0
 40
0.0
 40
0.0
 40
0.0
 40
0.1912878148
 40
0.3737720322
 40
0.5415743948
 40
0.6892955007
 40
0.8122117518
 40
0.8631234104
 40
0.9064628865
 40
0.9419202224
 40
0.9692850863
 40
0.9885122298
 40
1.0
 40
1.0
 40
1.0
 40
1.0
 10
68.0991620847
 20
35.7221868534
 30
0.0
 10
68.1169029795
 20
35.7230938982
 30
0.0
 10
68.1515793705
 20
35.724658367
 30
0.0
 10
68.2018481708
 20
35.7262812237
 30
0.0
 10
68.2480909883
 20
35.7271047359
 30
0.0
 10
68.2888084801
 20
35.727106063
 30
0.0
 10
68.3186679272
 20
35.7264138909
 30
0.0
 10
68.3388072469
 20
35.7253608219
 30
0.0
 10
68.3508230742
 20
35.7244304485
 30
0.0
 10
68.360609582
 20
35.7233248832
 30
0.0
 10
68.3681628079
 20
35.7220648609
 30
0.0
 10
68.373316922
 20
35.7206847251
 30
0.0
 10
68.3760294809
 20
35.7194336873
 30
0.0
 10
68.3767306675
 20
35.7186296719
 30
0.0
 11
68.0991620847
 21
35.7221868534
 31
0.0
 11
68.1524005789
 21
35.7245788096
 31
0.0
 11
68.2032143478
 21
35.7261975501
 31
0.0
 11
68.249956846
 21
35.7269906426
 31
0.0
 11
68.2911114539
 21
35.7269323282
 31
0.0
 11
68.3253435113
 21
35.7260245244
 31
0.0
 11
68.3395067354
 21
35.7252601998
 31
0.0
 11
68.3515424732
 21
35.7242966503
 31
0.0
 11
68.3613530279
 21
35.723141689
 31
0.0
 11
68.3688586613
 21
35.72180479
 31
0.0
 11
68.373998579
 21
35.7202965919
 31
0.0
 11
68.3767306675
 21
35.7186296719
 31
0.0
  0
SPLINE
  5
6AC
100
AcDbEntity
  8
RACCORDO
100
AcDbSpline
 62
253
  6
CONTINUOUS
 70
0
 71
3
 72
18
 73
14
 74
12
 42
0.0000001
 43
0.0000001
 44
0.0000000001
 12
0.0110251041
 22
0.2783352904
 32
0.0
 13
-0.212461797
 23
0.1801445853
 33
0.0
 40
0.0
 40
0.0
 40
0.0
 40
0.0
 40
0.1912851569
 40
0.3737623477
 40
0.5415555406
 40
0.6892676064
 40
0.8121772602
 40
0.8630873386
 40
0.9064268653
 40
0.9418864007
 40
0.969256441
 40
0.988493408
 40
1.0
 40
1.0
 40
1.0
 40
1.0
 10
67.5298056867
 20
36.2852247319
 30
0.0
 10
67.5305086663
 20
36.3029718684
 30
0.0
 10
67.5316732633
 20
36.3376576933
 30
0.0
 10
67.5327133232
 20
36.3879323569
 30
0.0
 10
67.5329974554
 20
36.4341721093
 30
0.0
 10
67.5325203365
 20
36.474878184
 30
0.0
 10
67.5314739095
 20
36.5047211109
 30
0.0
 10
67.5301790836
 20
36.5248424546
 30
0.0
 10
67.5291029313
 20
36.5368442793
 30
0.0
 10
67.5278770462
 20
36.5466156733
 30
0.0
 10
67.526521742
 20
36.554152743
 30
0.0
 10
67.5250745181
 20
36.5592911084
 30
0.0
 10
67.5237843492
 20
36.5619880011
 30
0.0
 10
67.5229694454
 20
36.5626789512
 30
0.0
 11
67.5298056867
 21
36.2852247319
 31
0.0
 11
67.5315836853
 21
36.3384782205
 31
0.0
 11
67.5326131941
 21
36.389297465
 31
0.0
 11
67.5328608834
 21
36.4360362002
 31
0.0
 11
67.5323186929
 21
36.4771783498
 31
0.0
 11
67.5310042274
 21
36.5113900291
 31
0.0
 11
67.5300697568
 21
36.5255403907
 31
0.0
 11
67.5289600872
 21
36.5375616628
 31
0.0
 11
67.5276842151
 21
36.5473562931
 31
0.0
 11
67.5262525949
 21
36.554844696
 31
0.0
 11
67.5246766284
 21
36.5599662316
 31
0.0
 11
67.5229694454
 21
36.5626789512
 31
0.0
  0
SPLINE
  5
6AD
100
AcDbEntity
  8
RACCORDO
100
AcDbSpline
 62
253
  6
CONTINUOUS
 70
0
 71
3
 72
18
 73
14
 74
12
 42
0.0000001
 43
0.0000001
 44
0.0000000001
 12
-0.2124617817
 22
-0.1801446774
 32
0.0
 13
0.0110251068
 23
-0.2783353382
 33
0.0
 40
0.0
 40
0.0
 40
0.0
 40
0.0
 40
0.0115065934
 40
0.0307435627
 40
0.0581136058
 40
0.0935731442
 40
0.1369126739
 40
0.1878227552
 40
0.3107324134
 40
0.4584444807
 40
0.626237671
 40
0.8087148548
 40
1.0
 40
1.0
 40
1.0
 40
1.0
 10
-67.5229694478
 20
36.5626789995
 30
0.0
 10
-67.5237843515
 20
36.561988049
 30
0.0
 10
-67.5250745203
 20
36.5592911553
 30
0.0
 10
-67.5265217443
 20
36.5541527883
 30
0.0
 10
-67.5278770484
 20
36.5466157165
 30
0.0
 10
-67.5291029334
 20
36.53684432
 30
0.0
 10
-67.5301790856
 20
36.5248424924
 30
0.0
 10
-67.5314739113
 20
36.5047211442
 30
0.0
 10
-67.532520338
 20
36.4748782114
 30
0.0
 10
-67.5329974566
 20
36.4341721294
 30
0.0
 10
-67.532713324
 20
36.3879323698
 30
0.0
 10
-67.5316732637
 20
36.3376576995
 30
0.0
 10
-67.5305086664
 20
36.3029718704
 30
0.0
 10
-67.5298056867
 20
36.2852247319
 30
0.0
 11
-67.5229694478
 21
36.5626789995
 31
0.0
 11
-67.5246766307
 21
36.5599662788
 31
0.0
 11
-67.5262525972
 21
36.5548447415
 31
0.0
 11
-67.5276842172
 21
36.5473563365
 31
0.0
 11
-67.5289600893
 21
36.5375617035
 31
0.0
 11
-67.5300697588
 21
36.5255404286
 31
0.0
 11
-67.5310042293
 21
36.5113900637
 31
0.0
 11
-67.5323186944
 21
36.4771783773
 31
0.0
 11
-67.5328608845
 21
36.4360362202
 31
0.0
 11
-67.5326131949
 21
36.3892974777
 31
0.0
 11
-67.5315836856
 21
36.3384782264
 31
0.0
 11
-67.5298056867
 21
36.2852247319
 31
0.0
  0
SPLINE
  5
6AE
100
AcDbEntity
  8
RACCORDO
100
AcDbSpline
 62
253
  6
CONTINUOUS
 70
0
 71
3
 72
18
 73
14
 74
12
 42
0.0000001
 43
0.0000001
 44
0.0000000001
 12
0.1831129645
 22
0.2099664294
 32
0.0
 13
0.2782335331
 23
-0.01422534
 33
0.0
 40
0.0
 40
0.0
 40
0.0
 40
0.0
 40
0.0114877702
 40
0.0307149137
 40
0.0580797776
 40
0.0935371135
 40
0.1368765896
 40
0.1877882482
 40
0.3107044993
 40
0.4584256052
 40
0.6262279678
 40
0.8087121852
 40
1.0
 40
1.0
 40
1.0
 40
1.0
 10
-68.3767306675
 20
35.7186296719
 30
0.0
 10
-68.3760294809
 20
35.7194336873
 30
0.0
 10
-68.373316922
 20
35.7206847251
 30
0.0
 10
-68.3681628079
 20
35.7220648609
 30
0.0
 10
-68.360609582
 20
35.7233248832
 30
0.0
 10
-68.3508230742
 20
35.7244304485
 30
0.0
 10
-68.3388072469
 20
35.7253608219
 30
0.0
 10
-68.3186679272
 20
35.7264138909
 30
0.0
 10
-68.2888084801
 20
35.727106063
 30
0.0
 10
-68.2480909883
 20
35.7271047359
 30
0.0
 10
-68.2018481708
 20
35.7262812237
 30
0.0
 10
-68.1515793705
 20
35.724658367
 30
0.0
 10
-68.1169029795
 20
35.7230938982
 30
0.0
 10
-68.0991620847
 20
35.7221868534
 30
0.0
 11
-68.3767306675
 21
35.7186296719
 31
0.0
 11
-68.373998579
 21
35.7202965919
 31
0.0
 11
-68.3688586613
 21
35.72180479
 31
0.0
 11
-68.3613530279
 21
35.723141689
 31
0.0
 11
-68.3515424732
 21
35.7242966503
 31
0.0
 11
-68.3395067354
 21
35.7252601998
 31
0.0
 11
-68.3253435113
 21
35.7260245244
 31
0.0
 11
-68.2911114539
 21
35.7269323282
 31
0.0
 11
-68.249956846
 21
35.7269906426
 31
0.0
 11
-68.2032143478
 21
35.7261975502
 31
0.0
 11
-68.1524005789
 21
35.7245788096
 31
0.0
 11
-68.0991620847
 21
35.7221868534
 31
0.0
  0
SPLINE
  5
6AF
100
AcDbEntity
  8
RACCORDO
100
AcDbSpline
 62
253
  6
CONTINUOUS
 70
0
 71
3
 72
18
 73
14
 74
12
 42
0.0000001
 43
0.0000001
 44
0.0000000001
 12
-0.2782335331
 22
-0.01422534
 32
0.0
 13
-0.1831129645
 23
0.2099664293
 33
0.0
 40
0.0
 40
0.0
 40
0.0
 40
0.0
 40
0.1912878148
 40
0.3737720322
 40
0.5415743948
 40
0.6892955007
 40
0.8122117518
 40
0.8631234104
 40
0.9064628865
 40
0.9419202224
 40
0.9692850863
 40
0.9885122298
 40
1.0
 40
1.0
 40
1.0
 40
1.0
 10
-68.0991620847
 20
-35.7221868534
 30
0.0
 10
-68.1169029795
 20
-35.7230938982
 30
0.0
 10
-68.1515793705
 20
-35.724658367
 30
0.0
 10
-68.2018481708
 20
-35.7262812237
 30
0.0
 10
-68.2480909883
 20
-35.7271047359
 30
0.0
 10
-68.2888084801
 20
-35.727106063
 30
0.0
 10
-68.3186679272
 20
-35.7264138909
 30
0.0
 10
-68.3388072469
 20
-35.7253608219
 30
0.0
 10
-68.3508230742
 20
-35.7244304485
 30
0.0
 10
-68.360609582
 20
-35.7233248832
 30
0.0
 10
-68.3681628079
 20
-35.7220648609
 30
0.0
 10
-68.373316922
 20
-35.7206847251
 30
0.0
 10
-68.3760294809
 20
-35.7194336873
 30
0.0
 10
-68.3767306675
 20
-35.7186296719
 30
0.0
 11
-68.0991620847
 21
-35.7221868534
 31
0.0
 11
-68.1524005789
 21
-35.7245788096
 31
0.0
 11
-68.2032143478
 21
-35.7261975501
 31
0.0
 11
-68.249956846
 21
-35.7269906426
 31
0.0
 11
-68.2911114539
 21
-35.7269323282
 31
0.0
 11
-68.3253435113
 21
-35.7260245244
 31
0.0
 11
-68.3395067354
 21
-35.7252601998
 31
0.0
 11
-68.3515424732
 21
-35.7242966503
 31
0.0
 11
-68.3613530279
 21
-35.723141689
 31
0.0
 11
-68.3688586613
 21
-35.72180479
 31
0.0
 11
-68.373998579
 21
-35.7202965919
 31
0.0
 11
-68.3767306675
 21
-35.7186296719
 31
0.0
  0
SPLINE
  5
6B0
100
AcDbEntity
  8
RACCORDO
100
AcDbSpline
 62
253
  6
CONTINUOUS
 70
0
 71
3
 72
18
 73
14
 74
12
 42
0.0000001
 43
0.0000001
 44
0.0000000001
 12
-0.0110251041
 22
-0.2783352904
 32
0.0
 13
0.212461797
 23
-0.1801445853
 33
0.0
 40
0.0
 40
0.0
 40
0.0
 40
0.0
 40
0.1912851569
 40
0.3737623477
 40
0.5415555406
 40
0.6892676064
 40
0.8121772602
 40
0.8630873386
 40
0.9064268653
 40
0.9418864007
 40
0.969256441
 40
0.988493408
 40
1.0
 40
1.0
 40
1.0
 40
1.0
 10
-67.5298056867
 20
-36.2852247319
 30
0.0
 10
-67.5305086663
 20
-36.3029718684
 30
0.0
 10
-67.5316732633
 20
-36.3376576933
 30
0.0
 10
-67.5327133232
 20
-36.3879323569
 30
0.0
 10
-67.5329974554
 20
-36.4341721093
 30
0.0
 10
-67.5325203365
 20
-36.474878184
 30
0.0
 10
-67.5314739095
 20
-36.5047211109
 30
0.0
 10
-67.5301790836
 20
-36.5248424546
 30
0.0
 10
-67.5291029313
 20
-36.5368442793
 30
0.0
 10
-67.5278770462
 20
-36.5466156733
 30
0.0
 10
-67.526521742
 20
-36.554152743
 30
0.0
 10
-67.5250745181
 20
-36.5592911084
 30
0.0
 10
-67.5237843492
 20
-36.5619880011
 30
0.0
 10
-67.5229694454
 20
-36.5626789512
 30
0.0
 11
-67.5298056867
 21
-36.2852247319
 31
0.0
 11
-67.5315836853
 21
-36.3384782205
 31
0.0
 11
-67.5326131941
 21
-36.389297465
 31
0.0
 11
-67.5328608834
 21
-36.4360362002
 31
0.0
 11
-67.5323186929
 21
-36.4771783498
 31
0.0
 11
-67.5310042274
 21
-36.5113900291
 31
0.0
 11
-67.5300697568
 21
-36.5255403907
 31
0.0
 11
-67.5289600872
 21
-36.5375616628
 31
0.0
 11
-67.5276842151
 21
-36.5473562931
 31
0.0
 11
-67.5262525949
 21
-36.554844696
 31
0.0
 11
-67.5246766284
 21
-36.5599662316
 31
0.0
 11
-67.5229694454
 21
-36.5626789512
 31
0.0
  0
SPLINE
  5
6B1
100
AcDbEntity
  8
RACCORDO
100
AcDbSpline
 62
7
  6
CONTINUOUS
 70
0
 71
3
 72
11
 73
7
 74
5
 42
0.0000001
 43
0.0000001
 44
0.0000000001
 12
-0.0017916905
 22
0.6210402916
 32
0.0
 13
-0.5325933549
 23
0.31943477
 33
0.0
 40
0.0
 40
0.0
 40
0.0
 40
0.0
 40
0.2498619887
 40
0.501512321
 40
0.7539635483
 40
1.0
 40
1.0
 40
1.0
 40
1.0
 10
46.6019089823
 20
23.5020003652
 30
0.0
 10
46.6017597572
 20
23.5537251526
 30
0.0
 10
46.5878095026
 20
23.657999737
 30
0.0
 10
46.5273164388
 20
23.803725178
 30
0.0
 10
46.4320834082
 20
23.9285159873
 30
0.0
 10
46.3498510621
 20
23.9929260016
 30
0.0
 10
46.3061719357
 20
24.0191235341
 30
0.0
 11
46.6019089823
 21
23.5020003652
 31
0.0
 11
46.5813340873
 21
23.6558052963
 31
0.0
 11
46.521511409
 21
23.8001882951
 31
0.0
 11
46.4264094969
 21
23.9248339801
 31
0.0
 11
46.3061719357
 21
24.0191235341
 31
0.0
  0
SPLINE
  5
6B2
100
AcDbEntity
  8
RACCORDO
100
AcDbSpline
 62
7
  6
CONTINUOUS
 70
0
 71
3
 72
17
 73
13
 74
11
 42
0.0000001
 43
0.0000001
 44
0.0000000001
 12
0.6308113867
 22
-0.0411875995
 32
0.0
 13
0.0005231136
 23
-0.6321543722
 33
0.0
 40
0.0
 40
0.0
 40
0.0
 40
0.0
 40
0.0624379239
 40
0.1249197917
 40
0.1874390749
 40
0.2499811913
 40
0.3749224681
 40
0.4999407335
 40
0.6249765256
 40
0.7500041353
 40
0.8750127878
 40
1.0
 40
1.0
 40
1.0
 40
1.0
 10
46.3074638198
 20
24.1248236073
 30
0.0
 10
46.3205926709
 20
24.1239663846
 30
0.0
 10
46.3467483
 20
24.1194022668
 30
0.0
 10
46.3837421513
 20
24.1049592496
 30
0.0
 10
46.4176763725
 20
24.0843710528
 30
0.0
 10
46.4583503737
 20
24.0506612576
 30
0.0
 10
46.500864199
 20
23.9996499312
 30
0.0
 10
46.5399434471
 20
23.9306352985
 30
0.0
 10
46.5689167821
 20
23.8568624341
 30
0.0
 10
46.5889299543
 20
23.7802363747
 30
0.0
 10
46.6007276855
 20
23.7019655472
 30
0.0
 10
46.6033650291
 20
23.6492522316
 30
0.0
 10
46.6033868232
 20
23.6229151607
 30
0.0
 11
46.3074638198
 21
24.1248236073
 31
0.0
 11
46.3463641441
 21
24.118139385
 31
0.0
 11
46.3832218221
 21
24.1039401127
 31
0.0
 11
46.4171019662
 21
24.083590356
 31
0.0
 11
46.4476423667
 21
24.0584825516
 31
0.0
 11
46.4988658414
 21
23.9983631389
 31
0.0
 11
46.5382560412
 21
23.9298482456
 31
0.0
 11
46.5674239879
 21
23.8563849167
 31
0.0
 11
46.5875618372
 21
23.7799566551
 31
0.0
 11
46.5994213388
 21
23.7018268261
 31
0.0
 11
46.6033868232
 21
23.6229151607
 31
0.0
  0
SPLINE
  5
6B3
100
AcDbEntity
  8
RACCORDO
100
AcDbSpline
 62
7
  6
CONTINUOUS
 70
0
 71
3
 72
17
 73
13
 74
11
 42
0.0000001
 43
0.0000001
 44
0.0000000001
 12
0.0005231136
 22
0.6321543722
 32
0.0
 13
0.6308113867
 23
0.0411875995
 33
0.0
 40
0.0
 40
0.0
 40
0.0
 40
0.0
 40
0.1249872122
 40
0.2499958647
 40
0.3750234744
 40
0.5000592665
 40
0.6250775319
 40
0.7500188087
 40
0.8125609251
 40
0.8750802083
 40
0.9375620761
 40
1.0
 40
1.0
 40
1.0
 40
1.0
 10
-46.6033868232
 20
23.6229151607
 30
0.0
 10
-46.6033650291
 20
23.6492522316
 30
0.0
 10
-46.6007276855
 20
23.7019655472
 30
0.0
 10
-46.5889299543
 20
23.7802363747
 30
0.0
 10
-46.5689167821
 20
23.8568624341
 30
0.0
 10
-46.5399434471
 20
23.9306352985
 30
0.0
 10
-46.500864199
 20
23.9996499312
 30
0.0
 10
-46.4583503737
 20
24.0506612576
 30
0.0
 10
-46.4176763725
 20
24.0843710528
 30
0.0
 10
-46.3837421513
 20
24.1049592496
 30
0.0
 10
-46.3467483
 20
24.1194022668
 30
0.0
 10
-46.3205926709
 20
24.1239663846
 30
0.0
 10
-46.3074638198
 20
24.1248236073
 30
0.0
 11
-46.6033868232
 21
23.6229151607
 31
0.0
 11
-46.5994213388
 21
23.7018268261
 31
0.0
 11
-46.5875618372
 21
23.7799566551
 31
0.0
 11
-46.5674239879
 21
23.8563849167
 31
0.0
 11
-46.5382560412
 21
23.9298482456
 31
0.0
 11
-46.4988658414
 21
23.9983631389
 31
0.0
 11
-46.4476423667
 21
24.0584825516
 31
0.0
 11
-46.4171019662
 21
24.083590356
 31
0.0
 11
-46.3832218221
 21
24.1039401127
 31
0.0
 11
-46.3463641441
 21
24.118139385
 31
0.0
 11
-46.3074638198
 21
24.1248236073
 31
0.0
  0
SPLINE
  5
6B4
100
AcDbEntity
  8
RACCORDO
100
AcDbSpline
 62
7
  6
CONTINUOUS
 70
0
 71
3
 72
11
 73
7
 74
5
 42
0.0000001
 43
0.0000001
 44
0.0000000001
 12
-0.5325933548
 22
-0.31943477
 32
0.0
 13
-0.0017916905
 23
-0.6210402916
 33
0.0
 40
0.0
 40
0.0
 40
0.0
 40
0.0
 40
0.246036456
 40
0.4984876811
 40
0.7501380139
 40
1.0
 40
1.0
 40
1.0
 40
1.0
 10
-46.3061719357
 20
24.0191235341
 30
0.0
 10
-46.3498510629
 20
23.9929260012
 30
0.0
 10
-46.4320834092
 20
23.9285159863
 30
0.0
 10
-46.5273164397
 20
23.8037251763
 30
0.0
 10
-46.5878095028
 20
23.657999736
 30
0.0
 10
-46.6017597572
 20
23.5537251521
 30
0.0
 10
-46.6019089823
 20
23.5020003652
 30
0.0
 11
-46.3061719357
 21
24.0191235341
 31
0.0
 11
-46.4264094988
 21
23.9248339781
 31
0.0
 11
-46.5215114097
 21
23.800188294
 31
0.0
 11
-46.5813340877
 21
23.6558052947
 31
0.0
 11
-46.6019089823
 21
23.5020003652
 31
0.0
  0
SPLINE
  5
6B5
100
AcDbEntity
  8
RACCORDO
100
AcDbSpline
 62
7
  6
CONTINUOUS
 70
0
 71
3
 72
11
 73
7
 74
5
 42
0.0000001
 43
0.0000001
 44
0.0000000001
 12
0.0017916905
 22
-0.6210402916
 32
0.0
 13
0.5325933548
 23
-0.31943477
 33
0.0
 40
0.0
 40
0.0
 40
0.0
 40
0.0
 40
0.2498619861
 40
0.5015123189
 40
0.753963544
 40
1.0
 40
1.0
 40
1.0
 40
1.0
 10
-46.6019089823
 20
-23.5020003652
 30
0.0
 10
-46.6017597572
 20
-23.5537251521
 30
0.0
 10
-46.5878095028
 20
-23.657999736
 30
0.0
 10
-46.5273164397
 20
-23.8037251763
 30
0.0
 10
-46.4320834092
 20
-23.9285159863
 30
0.0
 10
-46.3498510629
 20
-23.9929260012
 30
0.0
 10
-46.3061719357
 20
-24.0191235341
 30
0.0
 11
-46.6019089823
 21
-23.5020003652
 31
0.0
 11
-46.5813340877
 21
-23.6558052947
 31
0.0
 11
-46.5215114097
 21
-23.800188294
 31
0.0
 11
-46.4264094988
 21
-23.9248339781
 31
0.0
 11
-46.3061719357
 21
-24.0191235341
 31
0.0
  0
SPLINE
  5
6B6
100
AcDbEntity
  8
RACCORDO
100
AcDbSpline
 62
7
  6
CONTINUOUS
 70
0
 71
3
 72
17
 73
13
 74
11
 42
0.0000001
 43
0.0000001
 44
0.0000000001
 12
-0.6308113867
 22
0.0411875995
 32
0.0
 13
-0.0005231136
 23
0.6321543722
 33
0.0
 40
0.0
 40
0.0
 40
0.0
 40
0.0
 40
0.0624379239
 40
0.1249197917
 40
0.1874390749
 40
0.2499811913
 40
0.3749224681
 40
0.4999407335
 40
0.6249765256
 40
0.7500041353
 40
0.8750127878
 40
1.0
 40
1.0
 40
1.0
 40
1.0
 10
-46.3074638198
 20
-24.1248236073
 30
0.0
 10
-46.3205926709
 20
-24.1239663846
 30
0.0
 10
-46.3467483
 20
-24.1194022668
 30
0.0
 10
-46.3837421513
 20
-24.1049592496
 30
0.0
 10
-46.4176763725
 20
-24.0843710528
 30
0.0
 10
-46.4583503737
 20
-24.0506612576
 30
0.0
 10
-46.500864199
 20
-23.9996499312
 30
0.0
 10
-46.5399434471
 20
-23.9306352985
 30
0.0
 10
-46.5689167821
 20
-23.8568624341
 30
0.0
 10
-46.5889299543
 20
-23.7802363747
 30
0.0
 10
-46.6007276855
 20
-23.7019655472
 30
0.0
 10
-46.6033650291
 20
-23.6492522316
 30
0.0
 10
-46.6033868232
 20
-23.6229151607
 30
0.0
 11
-46.3074638198
 21
-24.1248236073
 31
0.0
 11
-46.3463641441
 21
-24.118139385
 31
0.0
 11
-46.3832218221
 21
-24.1039401127
 31
0.0
 11
-46.4171019662
 21
-24.083590356
 31
0.0
 11
-46.4476423667
 21
-24.0584825516
 31
0.0
 11
-46.4988658414
 21
-23.9983631389
 31
0.0
 11
-46.5382560412
 21
-23.9298482456
 31
0.0
 11
-46.5674239879
 21
-23.8563849167
 31
0.0
 11
-46.5875618372
 21
-23.7799566551
 31
0.0
 11
-46.5994213388
 21
-23.7018268261
 31
0.0
 11
-46.6033868232
 21
-23.6229151607
 31
0.0
  0
SPLINE
  5
6B7
100
AcDbEntity
  8
RACCORDO
100
AcDbSpline
 62
7
  6
CONTINUOUS
 70
0
 71
3
 72
17
 73
13
 74
11
 42
0.0000001
 43
0.0000001
 44
0.0000000001
 12
-0.0005231136
 22
-0.6321543722
 32
0.0
 13
-0.6308113867
 23
-0.0411875995
 33
0.0
 40
0.0
 40
0.0
 40
0.0
 40
0.0
 40
0.1249872122
 40
0.2499958647
 40
0.3750234744
 40
0.5000592665
 40
0.6250775319
 40
0.7500188087
 40
0.8125609251
 40
0.8750802083
 40
0.9375620761
 40
1.0
 40
1.0
 40
1.0
 40
1.0
 10
46.6033868232
 20
-23.6229151607
 30
0.0
 10
46.6033650291
 20
-23.6492522316
 30
0.0
 10
46.6007276855
 20
-23.7019655472
 30
0.0
 10
46.5889299543
 20
-23.7802363747
 30
0.0
 10
46.5689167821
 20
-23.8568624341
 30
0.0
 10
46.5399434471
 20
-23.9306352985
 30
0.0
 10
46.500864199
 20
-23.9996499312
 30
0.0
 10
46.4583503737
 20
-24.0506612576
 30
0.0
 10
46.4176763725
 20
-24.0843710528
 30
0.0
 10
46.3837421513
 20
-24.1049592496
 30
0.0
 10
46.3467483
 20
-24.1194022668
 30
0.0
 10
46.3205926709
 20
-24.1239663846
 30
0.0
 10
46.3074638198
 20
-24.1248236073
 30
0.0
 11
46.6033868232
 21
-23.6229151607
 31
0.0
 11
46.5994213388
 21
-23.7018268261
 31
0.0
 11
46.5875618372
 21
-23.7799566551
 31
0.0
 11
46.5674239879
 21
-23.8563849167
 31
0.0
 11
46.5382560412
 21
-23.9298482456
 31
0.0
 11
46.4988658414
 21
-23.9983631389
 31
0.0
 11
46.4476423667
 21
-24.0584825516
 31
0.0
 11
46.4171019662
 21
-24.083590356
 31
0.0
 11
46.3832218221
 21
-24.1039401127
 31
0.0
 11
46.3463641441
 21
-24.118139385
 31
0.0
 11
46.3074638198
 21
-24.1248236073
 31
0.0
  0
SPLINE
  5
6B8
100
AcDbEntity
  8
RACCORDO
100
AcDbSpline
 62
7
  6
CONTINUOUS
 70
0
 71
3
 72
11
 73
7
 74
5
 42
0.0000001
 43
0.0000001
 44
0.0000000001
 12
0.5325933548
 22
0.31943477
 32
0.0
 13
0.0017916905
 23
0.6210402916
 33
0.0
 40
0.0
 40
0.0
 40
0.0
 40
0.0
 40
0.246036456
 40
0.4984876811
 40
0.7501380139
 40
1.0
 40
1.0
 40
1.0
 40
1.0
 10
46.3061719357
 20
-24.0191235341
 30
0.0
 10
46.3498510629
 20
-23.9929260012
 30
0.0
 10
46.4320834092
 20
-23.9285159863
 30
0.0
 10
46.5273164397
 20
-23.8037251763
 30
0.0
 10
46.5878095028
 20
-23.657999736
 30
0.0
 10
46.6017597572
 20
-23.5537251521
 30
0.0
 10
46.6019089823
 20
-23.5020003652
 30
0.0
 11
46.3061719357
 21
-24.0191235341
 31
0.0
 11
46.4264094988
 21
-23.9248339781
 31
0.0
 11
46.5215114097
 21
-23.800188294
 31
0.0
 11
46.5813340877
 21
-23.6558052947
 31
0.0
 11
46.6019089823
 21
-23.5020003652
 31
0.0
  0
SPLINE
  5
6B9
100
AcDbEntity
  8
RACCORDO
100
AcDbSpline
 62
7
  6
CONTINUOUS
 70
0
 71
3
 72
9
 73
5
 74
3
 42
0.0000001
 43
0.0000001
 44
0.0000000001
 12
0.0084285929
 22
12.9438847206
 32
0.0
 13
0.0054792192
 23
12.9438863051
 33
0.0
 40
0.0
 40
0.0
 40
0.0
 40
0.0
 40
0.2498445444
 40
1.0
 40
1.0
 40
1.0
 40
1.0
 10
45.7840383314
 20
-37.1022412932
 30
0.0
 10
45.7847402774
 20
-36.0242549663
 30
0.0
 10
45.787426632
 20
-31.7096266467
 30
0.0
 10
45.7896208273
 20
-27.3949980209
 30
0.0
 10
45.790990916
 20
-24.1583557114
 30
0.0
 11
45.7840383314
 21
-37.1022412932
 31
0.0
 11
45.7860518978
 21
-33.8682822536
 31
0.0
 11
45.790990916
 21
-24.1583557114
 31
0.0
  0
LINE
  5
6BA
100
AcDbEntity
  8
DRAFT
100
AcDbLine
 62
7
  6
CONTINUOUS
 10
69.2981424842
 20
-20.4536400895
 11
69.0364443025
 21
-20.4969453684
  0
LINE
  5
6BB
100
AcDbEntity
  8
DRAFT
100
AcDbLine
 62
7
  6
CONTINUOUS
 10
69.2160205426
 20
-22.7281850763
 11
68.9620782012
 21
-22.6856606739
  0
LINE
  5
6BC
100
AcDbEntity
  8
DRAFT
100
AcDbLine
 62
7
  6
CONTINUOUS
 10
69.0364443025
 20
20.4969453684
 11
69.2981424842
 21
20.4536400895
  0
LINE
  5
6BD
100
AcDbEntity
  8
DRAFT
100
AcDbLine
 62
7
  6
CONTINUOUS
 10
68.9620782012
 20
22.6856606739
 11
69.2160205426
 21
22.7281850763
  0
LINE
  5
6BE
100
AcDbEntity
  8
RACCORDO
100
AcDbLine
 62
7
  6
CONTINUOUS
 10
69.1962769842
 20
-23.2418149237
 11
68.9543666919
 21
-23.2818080802
  0
LINE
  5
6BF
100
AcDbEntity
  8
RACCORDO
100
AcDbLine
 62
253
  6
CONTINUOUS
 10
68.3767306712
 20
-35.718629661
 11
68.5691347207
 21
-35.913554646
  0
SPLINE
  5
6C0
100
AcDbEntity
  8
RACCORDO
100
AcDbSpline
 62
7
  6
CONTINUOUS
 70
0
 71
3
 72
18
 73
14
 74
12
 42
0.0000001
 43
0.0000001
 44
0.0000000001
 12
0.0019777445
 22
0.2996175017
 32
0.0
 13
-0.1528140148
 23
0.2577255045
 33
0.0
 40
0.0
 40
0.0
 40
0.0
 40
0.0
 40
0.18471173
 40
0.363081382
 40
0.5289965664
 40
0.6767830329
 40
0.8014136094
 40
0.8536987932
 40
0.8986971653
 40
0.9360455361
 40
0.9654614135
 40
0.9867698222
 40
1.0
 40
1.0
 40
1.0
 40
1.0
 10
69.6347680222
 20
-3.9498766793
 30
0.0
 10
69.634889793
 20
-3.9314290569
 30
0.0
 10
69.6349537212
 20
-3.8951657745
 30
0.0
 10
69.634518173
 20
-3.8423333528
 30
0.0
 10
69.6335707845
 20
-3.7931956716
 30
0.0
 10
69.6321482083
 20
-3.7494394581
 30
0.0
 10
69.6305476858
 20
-3.7170460566
 30
0.0
 10
69.6290030124
 20
-3.6949363107
 30
0.0
 10
69.6278365949
 20
-3.6815380714
 30
0.0
 10
69.6266021949
 20
-3.6704476656
 30
0.0
 10
69.6253366076
 20
-3.6617279829
 30
0.0
 10
69.6240255002
 20
-3.6554977344
 30
0.0
 10
69.6229877314
 20
-3.6521548546
 30
0.0
 10
69.6223138125
 20
-3.6510182698
 30
0.0
 11
69.6347680222
 21
-3.9498766793
 31
0.0
 11
69.6348609234
 21
-3.8945326845
 31
0.0
 11
69.6344060854
 21
-3.8410907862
 31
0.0
 11
69.6334200382
 21
-3.7913883903
 31
0.0
 11
69.6319380623
 21
-3.7471328201
 31
0.0
 11
69.6300127218
 21
-3.7098401722
 31
0.0
 11
69.6289044337
 21
-3.694213527
 31
0.0
 11
69.6277117678
 21
-3.6807837884
 31
0.0
 11
69.6264451134
 21
-3.6696652368
 31
0.0
 11
69.6251155204
 21
-3.6609523983
 31
0.0
 11
69.6237343983
 21
-3.6547190616
 31
0.0
 11
69.6223138125
 21
-3.6510182698
 31
0.0
  0
SPLINE
  5
6C1
100
AcDbEntity
  8
RACCORDO
100
AcDbSpline
 62
7
  6
CONTINUOUS
 70
0
 71
3
 72
18
 73
14
 74
12
 42
0.0000001
 43
0.0000001
 44
0.0000000001
 12
0.1528140148
 22
0.2577255045
 32
0.0
 13
-0.0019777445
 23
0.2996175017
 33
0.0
 40
0.0
 40
0.0
 40
0.0
 40
0.0
 40
0.0132301778
 40
0.0345385865
 40
0.0639544639
 40
0.1013028347
 40
0.1463012068
 40
0.1985863906
 40
0.3232169671
 40
0.4710034336
 40
0.636918618
 40
0.81528827
 40
1.0
 40
1.0
 40
1.0
 40
1.0
 10
69.6223138125
 20
3.6510182698
 30
0.0
 10
69.6229877314
 20
3.6521548546
 30
0.0
 10
69.6240255002
 20
3.6554977344
 30
0.0
 10
69.6253366076
 20
3.6617279829
 30
0.0
 10
69.6266021949
 20
3.6704476656
 30
0.0
 10
69.6278365949
 20
3.6815380714
 30
0.0
 10
69.6290030124
 20
3.6949363107
 30
0.0
 10
69.6305476858
 20
3.7170460566
 30
0.0
 10
69.6321482083
 20
3.7494394581
 30
0.0
 10
69.6335707845
 20
3.7931956716
 30
0.0
 10
69.634518173
 20
3.8423333528
 30
0.0
 10
69.6349537212
 20
3.8951657745
 30
0.0
 10
69.634889793
 20
3.9314290569
 30
0.0
 10
69.6347680222
 20
3.9498766793
 30
0.0
 11
69.6223138125
 21
3.6510182698
 31
0.0
 11
69.6237343983
 21
3.6547190616
 31
0.0
 11
69.6251155204
 21
3.6609523983
 31
0.0
 11
69.6264451134
 21
3.6696652368
 31
0.0
 11
69.6277117678
 21
3.6807837884
 31
0.0
 11
69.6289044337
 21
3.694213527
 31
0.0
 11
69.6300127218
 21
3.7098401722
 31
0.0
 11
69.6319380623
 21
3.7471328201
 31
0.0
 11
69.6334200382
 21
3.7913883903
 31
0.0
 11
69.6344060854
 21
3.8410907862
 31
0.0
 11
69.6348609234
 21
3.8945326845
 31
0.0
 11
69.6347680222
 21
3.9498766793
 31
0.0
  0
LINE
  5
6C2
100
AcDbEntity
  8
RACCORDO
100
AcDbLine
 62
253
  6
CONTINUOUS
 10
68.3767306711
 20
35.718629662
 11
68.5691347207
 21
35.913554646
  0
LINE
  5
6C3
100
AcDbEntity
  8
RACCORDO
100
AcDbLine
 62
7
  6
CONTINUOUS
 10
68.9543666888
 20
23.2818080805
 11
69.1962769842
 21
23.2418149237
  0
LINE
  5
6C4
100
AcDbEntity
  8
RACCORDO
100
AcDbLine
 62
253
  6
CONTINUOUS
 10
67.5229694496
 20
36.5626790986
 11
67.7155098006
 21
36.757326329
  0
LINE
  5
6C5
100
AcDbEntity
  8
RACCORDO
100
AcDbLine
 62
253
  6
CONTINUOUS
 10
-67.5229694497
 20
36.5626790986
 11
-67.7155098006
 21
36.757326329
  0
SPLINE
  5
6C6
100
AcDbEntity
  8
RACCORDO
100
AcDbSpline
 62
7
  6
CONTINUOUS
 70
0
 71
3
 72
9
 73
5
 74
3
 42
0.0000001
 43
0.0000001
 44
0.0000000001
 12
0.0064450443
 22
-9.6781295363
 32
0.0
 13
0.0251734824
 23
-9.6780989433
 33
0.0
 40
0.0
 40
0.0
 40
0.0
 40
0.0
 40
0.2533538571
 40
1.0
 40
1.0
 40
1.0
 40
1.0
 10
-0.3868254194
 20
-24.9240331323
 30
0.0
 10
-0.3862811271
 20
-25.7413636147
 30
0.0
 10
-0.3833673806
 20
-28.9674062207
 30
0.0
 10
-0.3774442578
 20
-32.1934462482
 30
0.0
 10
-0.3711790299
 20
-34.6021513305
 30
0.0
 11
-0.3868254194
 21
-24.9240331323
 31
0.0
 11
-0.3846115429
 21
-27.3760241239
 31
0.0
 11
-0.3711790299
 21
-34.6021513305
 31
0.0
  0
SPLINE
  5
6C7
100
AcDbEntity
  8
RACCORDO
100
AcDbSpline
 62
7
  6
CONTINUOUS
 70
0
 71
3
 72
9
 73
5
 74
3
 42
0.0000001
 43
0.0000001
 44
0.0000000001
 12
0.0251734824
 22
9.6780989582
 32
0.0
 13
0.0064450443
 23
9.6781295512
 33
0.0
 40
0.0
 40
0.0
 40
0.0
 40
0.0
 40
0.2459373385
 40
1.0
 40
1.0
 40
1.0
 40
1.0
 10
0.3711790299
 20
-34.6021513305
 30
0.0
 10
0.3732427297
 20
-33.808749364
 30
0.0
 10
0.3808162112
 20
-30.5827142907
 30
0.0
 10
0.3852054303
 20
-27.3566718416
 30
0.0
 10
0.3868254194
 20
-24.9240331323
 30
0.0
 11
0.3711790299
 21
-34.6021513305
 31
0.0
 11
0.3767753328
 21
-32.2219439584
 31
0.0
 11
0.3868254194
 21
-24.9240331323
 31
0.0
  0
LINE
  5
6C8
100
AcDbEntity
  8
DRAFT
100
AcDbLine
 62
7
  6
CONTINUOUS
 10
0.3868254194
 20
-24.9240331323
 11
0.3873673847
 21
-24.0963822329
  0
LINE
  5
6C9
100
AcDbEntity
  8
DRAFT
100
AcDbLine
 62
7
  6
CONTINUOUS
 10
-0.3873673847
 20
-24.0963822329
 11
-0.3868254194
 21
-24.9240331323
  0
LINE
  5
6CA
100
AcDbEntity
  8
DRAFT
100
AcDbLine
 62
7
  6
CONTINUOUS
 10
-0.3868254194
 20
24.9240331339
 11
-0.3873673847
 21
24.0963822329
  0
LINE
  5
6CB
100
AcDbEntity
  8
DRAFT
100
AcDbLine
 62
7
  6
CONTINUOUS
 10
0.3873673847
 20
24.0963822329
 11
0.3868254194
 21
24.9240331339
  0
SPLINE
  5
6CC
100
AcDbEntity
  8
RACCORDO
100
AcDbSpline
 62
7
  6
CONTINUOUS
 70
0
 71
3
 72
9
 73
5
 74
3
 42
0.0000001
 43
0.0000001
 44
0.0000000001
 12
-0.0064450443
 22
9.6781295347
 32
0.0
 13
-0.0251734824
 23
9.6780989417
 33
0.0
 40
0.0
 40
0.0
 40
0.0
 40
0.0
 40
0.2533538571
 40
1.0
 40
1.0
 40
1.0
 40
1.0
 10
0.3868254194
 20
24.9240331339
 30
0.0
 10
0.3862811271
 20
25.7413636162
 30
0.0
 10
0.3833673806
 20
28.9674062216
 30
0.0
 10
0.3774442578
 20
32.1934462486
 30
0.0
 10
0.3711790299
 20
34.6021513305
 30
0.0
 11
0.3868254194
 21
24.9240331339
 31
0.0
 11
0.3846115429
 21
27.376024125
 31
0.0
 11
0.3711790299
 21
34.6021513305
 31
0.0
  0
SPLINE
  5
6CD
100
AcDbEntity
  8
RACCORDO
100
AcDbSpline
 62
7
  6
CONTINUOUS
 70
0
 71
3
 72
9
 73
5
 74
3
 42
0.0000001
 43
0.0000001
 44
0.0000000001
 12
-0.0251734824
 22
-9.6780989566
 32
0.0
 13
-0.0064450443
 23
-9.6781295496
 33
0.0
 40
0.0
 40
0.0
 40
0.0
 40
0.0
 40
0.2459373385
 40
1.0
 40
1.0
 40
1.0
 40
1.0
 10
-0.3711790299
 20
34.6021513305
 30
0.0
 10
-0.3732427297
 20
33.8087493641
 30
0.0
 10
-0.3808162112
 20
30.5827142913
 30
0.0
 10
-0.3852054303
 20
27.3566718427
 30
0.0
 10
-0.3868254194
 20
24.9240331339
 30
0.0
 11
-0.3711790299
 21
34.6021513305
 31
0.0
 11
-0.3767753328
 21
32.2219439586
 31
0.0
 11
-0.3868254194
 21
24.9240331339
 31
0.0
  0
LINE
  5
6CE
100
AcDbEntity
  8
RACCORDO
100
AcDbLine
 62
253
  6
CONTINUOUS
 10
-45.7681466492
 20
34.6033355987
 11
-45.0317279201
 21
34.6033427425
  0
LINE
  5
6CF
100
AcDbEntity
  8
DRAFT
100
AcDbLine
 62
253
  6
CONTINUOUS
 10
-45.016874229
 20
24.2711677514
 11
-45.782931678
 21
24.2413414142
  0
SPLINE
  5
6D0
100
AcDbEntity
  8
DRAFT
100
AcDbSpline
 62
7
  6
CONTINUOUS
 70
0
 71
3
 72
9
 73
5
 74
3
 42
0.0000001
 43
0.0000001
 44
0.0000000001
 12
-7.1644991776
 22
-0.0037138671
 32
0.0
 13
-7.1644967557
 23
-0.0069639391
 33
0.0
 40
0.0
 40
0.0
 40
0.0
 40
0.0
 40
0.2503921538
 40
1.0
 40
1.0
 40
1.0
 40
1.0
 10
-46.596713605
 20
0.3075330581
 30
0.0
 10
-47.1946917318
 20
0.3072230837
 30
0.0
 10
-49.582858052
 20
0.3058493986
 30
0.0
 10
-51.9710240611
 20
0.3039347107
 30
0.0
 10
-53.7612117217
 20
0.3021946362
 30
0.0
 11
-46.596713605
 21
0.3075330581
 31
0.0
 11
-48.3906479296
 21
0.3065012449
 31
0.0
 11
-53.7612117217
 21
0.3021946362
 31
0.0
  0
LINE
  5
6D1
100
AcDbEntity
  8
DRAFT
100
AcDbLine
 62
7
  6
CONTINUOUS
 10
-46.596713605
 20
0.3075330581
 11
-46.5967151751
 21
-0.0000000007
  0
LINE
  5
6D2
100
AcDbEntity
  8
RACCORDO
100
AcDbLine
 62
253
  6
CONTINUOUS
 10
-65.9258555488
 20
22.7009413948
 11
-65.9257266484
 21
23.268982367
  0
SPLINE
  5
6D3
100
AcDbEntity
  8
RACCORDO
100
AcDbSpline
 62
7
  6
CONTINUOUS
 70
0
 71
3
 72
9
 73
5
 74
3
 42
0.0000001
 43
0.0000001
 44
0.0000000001
 12
-19.4394667407
 22
0.0069812531
 32
0.0
 13
-19.4394420811
 23
0.0317407308
 33
0.0
 40
0.0
 40
0.0
 40
0.0
 40
0.0
 40
0.2513676133
 40
1.0
 40
1.0
 40
1.0
 40
1.0
 10
-46.4863979526
 20
22.6816868553
 30
0.0
 10
-48.1152154053
 20
22.682271809
 30
0.0
 10
-54.5950372358
 20
22.6856229947
 30
0.0
 10
-61.0748570385
 20
22.6930206429
 30
0.0
 10
-65.925855679
 20
22.700941356
 30
0.0
 11
-46.4863979526
 21
22.6816868553
 31
0.0
 11
-51.3728499734
 21
22.6842122465
 31
0.0
 11
-65.925855679
 21
22.700941356
 31
0.0
  0
LINE
  5
6D4
100
AcDbEntity
  8
RACCORDO
100
AcDbLine
 62
253
  6
CONTINUOUS
 10
-59.4633071676
 20
-0.0000000073
 11
-59.4632666878
 21
0.295616629
  0
LINE
  5
6D5
100
AcDbEntity
  8
RACCORDO
100
AcDbLine
 62
253
  6
CONTINUOUS
 10
-65.9281549329
 20
-0.0000000104
 11
-65.9280955684
 21
0.2856231212
  0
SPLINE
  5
6D6
100
AcDbEntity
  8
RACCORDO
100
AcDbSpline
 62
7
  6
CONTINUOUS
 70
0
 71
3
 72
9
 73
5
 74
3
 42
0.0000001
 43
0.0000001
 44
0.0000000001
 12
-6.4648393919
 22
-0.0086373642
 32
0.0
 13
-6.4648351759
 23
-0.0113629155
 33
0.0
 40
0.0
 40
0.0
 40
0.0
 40
0.0
 40
0.2507598185
 40
1.0
 40
1.0
 40
1.0
 40
1.0
 10
-59.4633023306
 20
0.2956166372
 30
0.0
 10
-60.0036763148
 20
0.2948946692
 30
0.0
 10
-62.158622627
 20
0.2919031379
 30
0.0
 10
-64.3135683148
 20
0.2884609896
 30
0.0
 10
-65.9281397416
 20
0.2856231386
 30
0.0
 11
-59.4633023306
 21
0.2956166372
 31
0.0
 11
-61.0844241679
 21
0.2933660225
 31
0.0
 11
-65.9281397416
 21
0.2856231386
 31
0.0
  0
ELLIPSE
  5
6D7
100
AcDbEntity
  8
RACCORDO
100
AcDbEllipse
 62
7
  6
CONTINUOUS
 10
528.7499925308
 20
558.5026341735
 30
0.0
 11
-0.0
 21
932.3548852481
 31
0.0
 40
0.8007313262
 41
-4.0749892646
 42
-4.0748196796
  0
ELLIPSE
  5
6D8
100
AcDbEntity
  8
RACCORDO
100
AcDbEllipse
 62
7
  6
CONTINUOUS
 10
528.7499925308
 20
-558.5026341735
 30
0.0
 11
0.0
 21
932.3548852481
 31
0.0
 40
0.8007313262
 41
0.933227026
 42
0.933396611
  0
ELLIPSE
  5
6D9
100
AcDbEntity
  8
RACCORDO
100
AcDbEllipse
 62
7
  6
CONTINUOUS
 10
-528.7499925308
 20
-558.5026341735
 30
0.0
 11
0.0
 21
932.3548852481
 31
0.0
 40
0.8007313262
 41
-0.933396611
 42
-0.933227026
  0
ELLIPSE
  5
6DA
100
AcDbEntity
  8
RACCORDO
100
AcDbEllipse
 62
7
  6
CONTINUOUS
 10
-528.7499925308
 20
558.5026341735
 30
0.0
 11
-0.0
 21
932.3548852481
 31
0.0
 40
0.8007313262
 41
-2.2083656276
 42
-2.2081960426
  0
ELLIPSE
  5
6DB
100
AcDbEntity
  8
0
100
AcDbEllipse
 62
7
  6
CONTINUOUS
 10
44.6999543016
 20
22.1999543016
 30
0.0
 11
0.2121966568
 21
0.2121966567
 31
0.0
 40
0.9996954599
 41
-0.7852458701
 42
0.7852458702
  0
ELLIPSE
  5
6DC
100
AcDbEntity
  8
0
100
AcDbEllipse
 62
7
  6
CONTINUOUS
 10
-44.6999543016
 20
22.1999543016
 30
0.0
 11
0.2121966568
 21
-0.2121966568
 31
0.0
 40
0.9996954599
 41
2.3563467834
 42
3.9268385237
  0
ELLIPSE
  5
6DD
100
AcDbEntity
  8
0
100
AcDbEllipse
 62
7
  6
CONTINUOUS
 10
-44.6999543016
 20
-22.1999543016
 30
0.0
 11
0.2121966568
 21
0.2121966568
 31
0.0
 40
0.9996954599
 41
-3.9268385237
 42
-2.3563467834
  0
ELLIPSE
  5
6DE
100
AcDbEntity
  8
0
100
AcDbEllipse
 62
7
  6
CONTINUOUS
 10
44.6999543016
 20
-22.1999543016
 30
0.0
 11
-0.2121966568
 21
0.2121966568
 31
0.0
 40
0.9996954599
 41
2.3563467834
 42
3.9268385237
  0
ELLIPSE
  5
6DF
100
AcDbEntity
  8
RACCORDO
100
AcDbEllipse
 62
7
  6
CONTINUOUS
 10
44.6799390688
 20
-22.1799390688
 30
0.0
 11
-0.2829288757
 21
0.2829288757
 31
0.0
 40
0.9996954599
 41
2.3563467834
 42
3.9268385237
  0
ELLIPSE
  5
6E0
100
AcDbEntity
  8
RACCORDO
100
AcDbEllipse
 62
7
  6
CONTINUOUS
 10
-44.6799390688
 20
-22.1799390688
 30
0.0
 11
0.2829288757
 21
0.2829288757
 31
0.0
 40
0.9996954599
 41
2.3563467834
 42
3.9268385237
  0
ELLIPSE
  5
6E1
100
AcDbEntity
  8
RACCORDO
100
AcDbEllipse
 62
7
  6
CONTINUOUS
 10
-44.6799390688
 20
22.1799390688
 30
0.0
 11
0.2829288757
 21
-0.2829288757
 31
0.0
 40
0.9996954599
 41
2.3563467834
 42
3.9268385237
  0
ELLIPSE
  5
6E2
100
AcDbEntity
  8
RACCORDO
100
AcDbEllipse
 62
7
  6
CONTINUOUS
 10
44.6799390688
 20
22.1799390688
 30
0.0
 11
-0.2829288757
 21
-0.2829288757
 31
0.0
 40
0.9996954599
 41
2.3563467834
 42
3.9268385237
  0
ELLIPSE
  5
6E3
100
AcDbEntity
  8
DRAFT
100
AcDbEllipse
 62
7
  6
CONTINUOUS
 10
528.2031651062
 20
0.0
 30
0.0
 11
597.7685488895
 21
-0.0000000056
 31
0.0
 40
0.9999995816
 41
-3.1116445002
 42
-3.1086289076
  0
ELLIPSE
  5
6E4
100
AcDbEntity
  8
DRAFT
100
AcDbEllipse
 62
7
  6
CONTINUOUS
 10
528.2031651062
 20
0.0
 30
0.0
 11
597.7685488895
 21
-0.0000001663
 31
0.0
 40
0.9999995816
 41
-3.1159946382
 42
-3.1129816542
  0
ELLIPSE
  5
6E5
100
AcDbEntity
  8
DRAFT
100
AcDbEllipse
 62
7
  6
CONTINUOUS
 10
528.2031651062
 20
0.0
 30
0.0
 11
597.7685488895
 21
-0.0000003321
 31
0.0
 40
0.9999995816
 41
3.112981655
 42
3.115994639
  0
ELLIPSE
  5
6E6
100
AcDbEntity
  8
DRAFT
100
AcDbEllipse
 62
7
  6
CONTINUOUS
 10
528.2031651062
 20
0.0
 30
0.0
 11
597.7685488895
 21
0.0000001991
 31
0.0
 40
0.9999995816
 41
3.1086289073
 42
3.1116444999
  0
ELLIPSE
  5
6E7
100
AcDbEntity
  8
RACCORDO
100
AcDbEllipse
 62
7
  6
CONTINUOUS
 10
528.7499925308
 20
557.0057578717
 30
0.0
 11
-0.0
 21
929.8560251762
 31
0.0
 40
0.8007313262
 41
-4.0750023592
 42
-4.0748323201
  0
ELLIPSE
  5
6E8
100
AcDbEntity
  8
RACCORDO
100
AcDbEllipse
 62
7
  6
CONTINUOUS
 10
528.7499925308
 20
-557.0057578717
 30
0.0
 11
0.0
 21
929.8560251762
 31
0.0
 40
0.8007313262
 41
0.9332396665
 42
0.9334097056
  0
ELLIPSE
  5
6E9
100
AcDbEntity
  8
DRAFT
100
AcDbEllipse
 62
7
  6
CONTINUOUS
 10
-528.2031651062
 20
-0.0
 30
0.0
 11
597.7685488895
 21
-0.0000000222
 31
0.0
 40
0.9999995816
 41
0.0299481534
 42
0.032963746
  0
ELLIPSE
  5
6EA
100
AcDbEntity
  8
DRAFT
100
AcDbEllipse
 62
7
  6
CONTINUOUS
 10
-528.2031651062
 20
-0.0
 30
0.0
 11
597.7685488895
 21
-0.0000002622
 31
0.0
 40
0.9999995816
 41
0.0255980156
 42
0.0286109996
  0
ELLIPSE
  5
6EB
100
AcDbEntity
  8
DRAFT
100
AcDbEllipse
 62
7
  6
CONTINUOUS
 10
-528.2031651062
 20
-0.0
 30
0.0
 11
597.7685488895
 21
-0.0000001475
 31
0.0
 40
0.9999995816
 41
-0.0286109989
 42
-0.0255980149
  0
ELLIPSE
  5
6EC
100
AcDbEntity
  8
DRAFT
100
AcDbEllipse
 62
7
  6
CONTINUOUS
 10
-528.2031651062
 20
-0.0
 30
0.0
 11
597.7685488895
 21
-0.000000157
 31
0.0
 40
0.9999995816
 41
-0.0329637457
 42
-0.0299481531
  0
ELLIPSE
  5
6ED
100
AcDbEntity
  8
RACCORDO
100
AcDbEllipse
 62
7
  6
CONTINUOUS
 10
45.0588216424
 20
-35.4413486316
 30
0.0
 11
-0.0
 21
0.5
 31
0.0
 40
0.0087268678
 41
-1.5707963268
 42
-0.0174532925
  0
ELLIPSE
  5
6EE
100
AcDbEntity
  8
RACCORDO
100
AcDbEllipse
 62
7
  6
CONTINUOUS
 10
45.7411783576
 20
35.4413486316
 30
0.0
 11
-0.0
 21
0.5
 31
0.0
 40
0.0087268678
 41
-4.7123889804
 42
-3.1590459461
  0
ELLIPSE
  5
6EF
100
AcDbEntity
  8
RACCORDO
100
AcDbEllipse
 62
7
  6
CONTINUOUS
 10
66.7564385017
 20
-0.2786320932
 30
0.0
 11
0.5
 21
0.0
 31
0.0
 40
0.0087268678
 41
1.5707963268
 42
3.1241393611
  0
ELLIPSE
  5
6F0
100
AcDbEntity
  8
RACCORDO
100
AcDbEllipse
 62
7
  6
CONTINUOUS
 10
-66.7564385017
 20
0.2786320932
 30
0.0
 11
0.5
 21
-0.0
 31
0.0
 40
0.0087268678
 41
-1.5707963268
 42
-0.0174532925
  0
ELLIPSE
  5
6F1
100
AcDbEntity
  8
RACCORDO
100
AcDbEllipse
 62
7
  6
CONTINUOUS
 10
66.7913486316
 20
22.7238216424
 30
0.0
 11
0.5
 21
0.0
 31
0.0
 40
0.0087268678
 41
1.5707963268
 42
3.1241393611
  0
ELLIPSE
  5
6F2
100
AcDbEntity
  8
RACCORDO
100
AcDbEllipse
 62
7
  6
CONTINUOUS
 10
-66.7913486316
 20
23.2461783576
 30
0.0
 11
0.5
 21
-0.0
 31
0.0
 40
0.0087268678
 41
-1.5707963268
 42
-0.0174532925
  0
ELLIPSE
  5
6F3
100
AcDbEntity
  8
RACCORDO
100
AcDbEllipse
 62
7
  6
CONTINUOUS
 10
-0.3411783576
 20
-35.4413486316
 30
0.0
 11
-0.0
 21
0.5
 31
0.0
 40
0.0087268678
 41
-1.5707963268
 42
-0.0174532925
  0
ELLIPSE
  5
6F4
100
AcDbEntity
  8
RACCORDO
100
AcDbEllipse
 62
7
  6
CONTINUOUS
 10
0.3411783576
 20
35.4413486316
 30
0.0
 11
-0.0
 21
0.5
 31
0.0
 40
0.0087268678
 41
-4.7123889804
 42
-3.1590459461
  0
ELLIPSE
  5
6F5
100
AcDbEntity
  8
RACCORDO
100
AcDbEllipse
 62
7
  6
CONTINUOUS
 10
45.0588216424
 20
35.4413486316
 30
0.0
 11
0.0
 21
0.5
 31
0.0
 40
0.0087268678
 41
-3.1241393611
 42
-1.5707963268
  0
ELLIPSE
  5
6F6
100
AcDbEntity
  8
RACCORDO
100
AcDbEllipse
 62
7
  6
CONTINUOUS
 10
-0.3411783576
 20
35.4413486316
 30
0.0
 11
-0.0
 21
0.5
 31
0.0
 40
0.0087268678
 41
-3.1241393611
 42
-1.5707963268
  0
ELLIPSE
  5
6F7
100
AcDbEntity
  8
RACCORDO
100
AcDbEllipse
 62
7
  6
CONTINUOUS
 10
-45.0588216424
 20
35.4413486316
 30
0.0
 11
-0.0
 21
0.5
 31
0.0
 40
0.0087268678
 41
-4.7123889804
 42
-3.1590459461
  0
ELLIPSE
  5
6F8
100
AcDbEntity
  8
RACCORDO
100
AcDbEllipse
 62
7
  6
CONTINUOUS
 10
-45.7411783576
 20
35.4413486316
 30
0.0
 11
-0.0
 21
0.5
 31
0.0
 40
0.0087268678
 41
-3.1241393611
 42
-1.5707963268
  0
ELLIPSE
  5
6F9
100
AcDbEntity
  8
RACCORDO
100
AcDbEllipse
 62
7
  6
CONTINUOUS
 10
-66.7913486316
 20
22.7238216424
 30
0.0
 11
0.5
 21
0.0
 31
0.0
 40
0.0087268678
 41
0.0174532925
 42
1.5707963268
  0
ELLIPSE
  5
6FA
100
AcDbEntity
  8
RACCORDO
100
AcDbEllipse
 62
7
  6
CONTINUOUS
 10
-66.7564385017
 20
-0.2786320932
 30
0.0
 11
0.5
 21
0.0
 31
0.0
 40
0.0087268678
 41
0.0174532925
 42
1.5707963268
  0
ELLIPSE
  5
6FB
100
AcDbEntity
  8
RACCORDO
100
AcDbEllipse
 62
7
  6
CONTINUOUS
 10
-66.7913486316
 20
-22.7238216424
 30
0.0
 11
0.5
 21
0.0
 31
0.0
 40
0.0087268678
 41
-1.5707963268
 42
-0.0174532925
  0
ELLIPSE
  5
6FC
100
AcDbEntity
  8
RACCORDO
100
AcDbEllipse
 62
7
  6
CONTINUOUS
 10
-66.7913486316
 20
-23.2461783576
 30
0.0
 11
0.5
 21
0.0
 31
0.0
 40
0.0087268678
 41
0.0174532925
 42
1.5707963268
  0
ELLIPSE
  5
6FD
100
AcDbEntity
  8
RACCORDO
100
AcDbEllipse
 62
7
  6
CONTINUOUS
 10
-45.7411783576
 20
-35.4413486316
 30
0.0
 11
0.0
 21
0.5
 31
0.0
 40
0.0087268678
 41
-1.5707963268
 42
-0.0174532925
  0
ELLIPSE
  5
6FE
100
AcDbEntity
  8
RACCORDO
100
AcDbEllipse
 62
7
  6
CONTINUOUS
 10
-45.0588216424
 20
-35.4413486316
 30
0.0
 11
0.0
 21
0.5
 31
0.0
 40
0.0087268678
 41
0.0174532925
 42
1.5707963268
  0
ELLIPSE
  5
6FF
100
AcDbEntity
  8
RACCORDO
100
AcDbEllipse
 62
7
  6
CONTINUOUS
 10
0.3411783576
 20
-35.4413486316
 30
0.0
 11
-0.0
 21
0.5
 31
0.0
 40
0.0087268678
 41
0.0174532925
 42
1.5707963268
  0
ELLIPSE
  5
700
100
AcDbEntity
  8
RACCORDO
100
AcDbEllipse
 62
7
  6
CONTINUOUS
 10
45.7411783576
 20
-35.4413486316
 30
0.0
 11
0.0
 21
0.5
 31
0.0
 40
0.0087268678
 41
0.0174532925
 42
1.5707963268
  0
ELLIPSE
  5
701
100
AcDbEntity
  8
RACCORDO
100
AcDbEllipse
 62
7
  6
CONTINUOUS
 10
66.7913486316
 20
-23.2461783576
 30
0.0
 11
0.5
 21
0.0
 31
0.0
 40
0.0087268678
 41
1.5707963268
 42
3.1241393611
  0
ELLIPSE
  5
702
100
AcDbEntity
  8
RACCORDO
100
AcDbEllipse
 62
7
  6
CONTINUOUS
 10
66.7913486316
 20
-22.7238216424
 30
0.0
 11
0.5
 21
0.0
 31
0.0
 40
0.0087268678
 41
-3.1241393611
 42
-1.5707963268
  0
ELLIPSE
  5
703
100
AcDbEntity
  8
RACCORDO
100
AcDbEllipse
 62
7
  6
CONTINUOUS
 10
66.7564385017
 20
0.2786320932
 30
0.0
 11
0.5
 21
0.0
 31
0.0
 40
0.0087268678
 41
-3.1241393611
 42
-1.5707963268
  0
ELLIPSE
  5
704
100
AcDbEntity
  8
RACCORDO
100
AcDbEllipse
 62
7
  6
CONTINUOUS
 10
66.7913486316
 20
23.2461783576
 30
0.0
 11
0.5
 21
0.0
 31
0.0
 40
0.0087268678
 41
-3.1241393611
 42
-1.5707963268
  0
ELLIPSE
  5
705
100
AcDbEntity
  8
RACCORDO
100
AcDbEllipse
 62
7
  6
CONTINUOUS
 10
-45.9954361363
 20
-23.4954361363
 30
0.0
 11
0.2382876485
 21
0.5605889882
 31
0.0
 40
0.9825475652
 41
-3.2775334842
 42
-2.7459655394
  0
ELLIPSE
  5
706
100
AcDbEntity
  8
RACCORDO
100
AcDbEllipse
 62
7
  6
CONTINUOUS
 10
45.9954361363
 20
23.4954361363
 30
0.0
 11
0.2382876485
 21
0.5605889882
 31
0.0
 40
0.9825475652
 41
-0.1359408306
 42
0.3956271142
  0
ELLIPSE
  5
707
100
AcDbEntity
  8
RACCORDO
100
AcDbEllipse
 62
7
  6
CONTINUOUS
 10
-45.9954361363
 20
23.4954361363
 30
0.0
 11
-0.2382876485
 21
0.5605889882
 31
0.0
 40
0.9825475652
 41
-0.3956271142
 42
0.1359408306
  0
ELLIPSE
  5
708
100
AcDbEntity
  8
RACCORDO
100
AcDbEllipse
 62
7
  6
CONTINUOUS
 10
45.9954361363
 20
-23.4954361363
 30
0.0
 11
-0.2382876485
 21
0.5605889882
 31
0.0
 40
0.9825475652
 41
-3.5372197678
 42
-3.005651823
  0
ELLIPSE
  5
709
100
AcDbEntity
  8
RACCORDO
100
AcDbEllipse
 62
7
  6
CONTINUOUS
 10
45.3887732309
 20
19.0052365195
 30
0.0
 11
0.3
 21
-0.0
 31
0.0
 40
0.0174550649
 41
-2.283206914
 42
-1.5707963268
  0
ELLIPSE
  5
70A
100
AcDbEntity
  8
RACCORDO
100
AcDbEllipse
 62
7
  6
CONTINUOUS
 10
-45.3887732309
 20
-13.9947634805
 30
0.0
 11
0.3
 21
-0.0
 31
0.0
 40
0.0174550649
 41
-1.5707963268
 42
-0.8583857396
  0
ELLIPSE
  5
70B
100
AcDbEntity
  8
RACCORDO
100
AcDbEllipse
 62
7
  6
CONTINUOUS
 10
-45.3887732309
 20
-19.0052365195
 30
0.0
 11
0.3
 21
0.0
 31
0.0
 40
0.0174550649
 41
0.8583857396
 42
1.5707963268
  0
ELLIPSE
  5
70C
100
AcDbEntity
  8
RACCORDO
100
AcDbEllipse
 62
7
  6
CONTINUOUS
 10
45.3887732309
 20
13.9947634805
 30
0.0
 11
0.3
 21
-0.0
 31
0.0
 40
0.0174550649
 41
1.5707963268
 42
2.283206914
  0
ELLIPSE
  5
70D
100
AcDbEntity
  8
RACCORDO
100
AcDbEllipse
 62
7
  6
CONTINUOUS
 10
46.1929570428
 20
13.993017974
 30
0.0
 11
0.4
 21
0.0
 31
0.0
 40
0.0174550649
 41
0.7400724099
 42
1.5707963268
  0
ELLIPSE
  5
70E
100
AcDbEntity
  8
RACCORDO
100
AcDbEllipse
 62
7
  6
CONTINUOUS
 10
46.1929570428
 20
-22.6793146167
 30
0.0
 11
0.4
 21
0.0
 31
0.0
 40
0.0087268678
 41
-0.7471886875
 42
-0.0174532925
  0
ELLIPSE
  5
70F
100
AcDbEntity
  8
RACCORDO
100
AcDbEllipse
 62
7
  6
CONTINUOUS
 10
46.1929570428
 20
-23.2906853833
 30
0.0
 11
0.4
 21
0.0
 31
0.0
 40
0.0087268678
 41
0.0174532925
 42
0.8380616012
  0
ELLIPSE
  5
710
100
AcDbEntity
  8
RACCORDO
100
AcDbEllipse
 62
7
  6
CONTINUOUS
 10
45.7856853833
 20
-23.6929570428
 30
0.0
 11
-0.0
 21
0.4
 31
0.0
 40
0.0087268678
 41
-3.999918794
 42
-3.1590459461
  0
ELLIPSE
  5
711
100
AcDbEntity
  8
RACCORDO
100
AcDbEllipse
 62
7
  6
CONTINUOUS
 10
45.0143146167
 20
-23.6929570428
 30
0.0
 11
-0.0
 21
0.4
 31
0.0
 40
0.0087268678
 41
-3.1241393611
 42
-2.3658814776
  0
ELLIPSE
  5
712
100
AcDbEntity
  8
RACCORDO
100
AcDbEllipse
 62
7
  6
CONTINUOUS
 10
-45.0143146167
 20
-23.6929570428
 30
0.0
 11
0.0
 21
0.4
 31
0.0
 40
0.0087268678
 41
-3.9173038295
 42
-3.1590459461
  0
ELLIPSE
  5
713
100
AcDbEntity
  8
RACCORDO
100
AcDbEllipse
 62
7
  6
CONTINUOUS
 10
-45.7856853833
 20
-23.6929570428
 30
0.0
 11
-0.0
 21
0.4
 31
0.0
 40
0.0087268678
 41
-3.1241393611
 42
-2.2832665132
  0
ELLIPSE
  5
714
100
AcDbEntity
  8
RACCORDO
100
AcDbEllipse
 62
7
  6
CONTINUOUS
 10
-46.1929570428
 20
-19.006982026
 30
0.0
 11
0.4
 21
0.0
 31
0.0
 40
0.0174550649
 41
1.5707963268
 42
2.4015202436
  0
ELLIPSE
  5
715
100
AcDbEntity
  8
RACCORDO
100
AcDbEllipse
 62
7
  6
CONTINUOUS
 10
-46.1929570428
 20
-23.2906853833
 30
0.0
 11
0.4
 21
-0.0
 31
0.0
 40
0.0087268678
 41
2.3035310524
 42
3.1241393611
  0
ELLIPSE
  5
716
100
AcDbEntity
  8
RACCORDO
100
AcDbEllipse
 62
7
  6
CONTINUOUS
 10
-46.1929570428
 20
-22.6793146167
 30
0.0
 11
0.4
 21
-0.0
 31
0.0
 40
0.0087268678
 41
-3.1241393611
 42
-2.3944039661
  0
ELLIPSE
  5
717
100
AcDbEntity
  8
RACCORDO
100
AcDbEllipse
 62
7
  6
CONTINUOUS
 10
46.1929570428
 20
19.006982026
 30
0.0
 11
0.4
 21
0.0
 31
0.0
 40
0.0174550649
 41
-1.5707963268
 42
-0.7400724099
  0
ELLIPSE
  5
718
100
AcDbEntity
  8
RACCORDO
100
AcDbEllipse
 62
7
  6
CONTINUOUS
 10
46.1929570428
 20
23.2906853833
 30
0.0
 11
0.4
 21
-0.0
 31
0.0
 40
0.0087268678
 41
-0.8380616012
 42
-0.0174532925
  0
ELLIPSE
  5
719
100
AcDbEntity
  8
RACCORDO
100
AcDbEllipse
 62
7
  6
CONTINUOUS
 10
46.1929570428
 20
22.6793146167
 30
0.0
 11
0.4
 21
0.0
 31
0.0
 40
0.0087268678
 41
0.0174532925
 42
0.7471886875
  0
ELLIPSE
  5
71A
100
AcDbEntity
  8
RACCORDO
100
AcDbEllipse
 62
7
  6
CONTINUOUS
 10
-46.1929570428
 20
-13.993017974
 30
0.0
 11
0.4
 21
0.0
 31
0.0
 40
0.0174550649
 41
-2.4015202436
 42
-1.5707963268
  0
ELLIPSE
  5
71B
100
AcDbEntity
  8
RACCORDO
100
AcDbEllipse
 62
7
  6
CONTINUOUS
 10
-46.1929570428
 20
22.6793146167
 30
0.0
 11
0.4
 21
0.0
 31
0.0
 40
0.0087268678
 41
2.3944039661
 42
3.1241393611
  0
ELLIPSE
  5
71C
100
AcDbEntity
  8
RACCORDO
100
AcDbEllipse
 62
7
  6
CONTINUOUS
 10
-46.1929570428
 20
23.2906853833
 30
0.0
 11
0.4
 21
-0.0
 31
0.0
 40
0.0087268678
 41
-3.1241393611
 42
-2.3035310524
  0
ELLIPSE
  5
71D
100
AcDbEntity
  8
RACCORDO
100
AcDbEllipse
 62
7
  6
CONTINUOUS
 10
-45.0143146167
 20
23.6929570428
 30
0.0
 11
-0.0
 21
0.4
 31
0.0
 40
0.0087268678
 41
0.0174532925
 42
0.7757111759
  0
ELLIPSE
  5
71E
100
AcDbEntity
  8
RACCORDO
100
AcDbEllipse
 62
7
  6
CONTINUOUS
 10
45.0143146167
 20
23.6929570428
 30
0.0
 11
-0.0
 21
0.4
 31
0.0
 40
0.0087268678
 41
-0.7757111759
 42
-0.0174532925
  0
ELLIPSE
  5
71F
100
AcDbEntity
  8
RACCORDO
100
AcDbEllipse
 62
7
  6
CONTINUOUS
 10
45.7856853833
 20
23.6929570428
 30
0.0
 11
-0.0
 21
0.4
 31
0.0
 40
0.0087268678
 41
0.0174532925
 42
0.8583261404
  0
ELLIPSE
  5
720
100
AcDbEntity
  8
RACCORDO
100
AcDbEllipse
 62
7
  6
CONTINUOUS
 10
-45.7856853833
 20
23.6929570428
 30
0.0
 11
0.0
 21
0.4
 31
0.0
 40
0.0087268678
 41
-0.8583261404
 42
-0.0174532925
  0
ELLIPSE
  5
721
100
AcDbEntity
  8
RACCORDO
100
AcDbEllipse
 62
7
  6
CONTINUOUS
 10
-0.3678337141
 20
34.4878967629
 30
0.0
 11
-0.0
 21
0.4
 31
0.0
 40
0.0087268678
 41
0.0174532925
 42
1.2811258784
  0
ELLIPSE
  5
722
100
AcDbEntity
  8
RACCORDO
100
AcDbEllipse
 62
7
  6
CONTINUOUS
 10
0.3678337141
 20
34.4878967629
 30
0.0
 11
-0.0
 21
0.4
 31
0.0
 40
0.0087268678
 41
-1.2811258784
 42
-0.0174532925
  0
ELLIPSE
  5
723
100
AcDbEntity
  8
RACCORDO
100
AcDbEllipse
 62
7
  6
CONTINUOUS
 10
0.3678337141
 20
-34.4878967629
 30
0.0
 11
-0.0
 21
0.4
 31
0.0
 40
0.0087268678
 41
-3.1241393611
 42
-1.8604667752
  0
ELLIPSE
  5
724
100
AcDbEntity
  8
RACCORDO
100
AcDbEllipse
 62
7
  6
CONTINUOUS
 10
-0.3678337141
 20
-34.4878967629
 30
0.0
 11
-0.0
 21
0.4
 31
0.0
 40
0.0087268678
 41
-4.422718532
 42
-3.1590459461
  0
ELLIPSE
  5
725
100
AcDbEntity
  8
RACCORDO
100
AcDbEllipse
 62
7
  6
CONTINUOUS
 10
-58.65
 20
0.2987038891
 30
0.0
 11
0.4
 21
-0.0
 31
0.0
 40
0.0087268678
 41
1.5707963268
 42
2.9848672126
  0
ELLIPSE
  5
726
100
AcDbEntity
  8
RACCORDO
100
AcDbEllipse
 62
7
  6
CONTINUOUS
 10
-58.65
 20
-0.2987038891
 30
0.0
 11
0.4
 21
0.0
 31
0.0
 40
0.0087268678
 41
-2.9848672128
 42
-1.5707963268
  0
ELLIPSE
  5
727
100
AcDbEntity
  8
RACCORDO
100
AcDbEllipse
 62
7
  6
CONTINUOUS
 10
58.65
 20
-0.2987038891
 30
0.0
 11
0.4
 21
0.0
 31
0.0
 40
0.0087268678
 41
-1.5707963268
 42
-0.1567254408
  0
ELLIPSE
  5
728
100
AcDbEntity
  8
RACCORDO
100
AcDbEllipse
 62
7
  6
CONTINUOUS
 10
58.65
 20
0.2987038891
 30
0.0
 11
0.4
 21
-0.0
 31
0.0
 40
0.0087268678
 41
0.1567254408
 42
1.5707963268
  0
ELLIPSE
  5
729
100
AcDbEntity
  8
RACCORDO
100
AcDbEllipse
 62
7
  6
CONTINUOUS
 10
-528.7499925308
 20
-557.0057578717
 30
0.0
 11
0.0
 21
929.8560251762
 31
0.0
 40
0.8007313262
 41
-0.9334097056
 42
-0.9332396665
  0
ELLIPSE
  5
72A
100
AcDbEntity
  8
RACCORDO
100
AcDbEllipse
 62
7
  6
CONTINUOUS
 10
-528.7499925308
 20
557.0057578717
 30
0.0
 11
-0.0
 21
929.8560251762
 31
0.0
 40
0.8007313262
 41
-2.2083529871
 42
-2.208182948
  0
ENDSEC
  0
SECTION
  2
OBJECTS
  0
DICTIONARY
  5
C
100
AcDbDictionary
280
0
281
1
  3
ACAD_GROUP
350
D
  3
ACAD_MLINESTYLE
350
17
  3
ACAD_LAYOUT
350
1A
  3
ACAD_PLOTSETTINGS
350
19
  3
ACAD_PLOTSTYLENAME
350
E
  0
DICTIONARY
  5
D
102
{ACAD_REACTORS
330
C
102
}
100
AcDbDictionary
280
0
281
1
  0
ACDBDICTIONARYWDFLT
  5
E
102
{ACAD_REACTORS
330
C
102
}
100
AcDbDictionary
281
1
  3
Normal
350
F
100
AcDbDictionaryWithDefault
340
F
  0
DICTIONARY
  5
17
102
{ACAD_REACTORS
330
C
102
}
100
AcDbDictionary
280
0
281
1
  3
Standard
350
18
  0
DICTIONARY
  5
19
102
{ACAD_REACTORS
330
C
102
}
100
AcDbDictionary
281
1
  0
DICTIONARY
  5
1A
102
{ACAD_REACTORS
330
C
102
}
100
AcDbDictionary
281
1
  3
Model
350
72B
  3
Layout1
350
72C
  0
ACDBPLACEHOLDER
  5
F
102
{ACAD_REACTORS
330
E
102
}
  0
MLINESTYLE
  5
18
102
{ACAD_REACTORS
330
17
102
}
100
AcDbMlineStyle
  2
STANDARD
 70
0
  3

 62
256
 51
90.0
 52
90.0
 71
2
 49
0.5
 62
256
  6
BYLAYER
 49
-0.5
 62
256
  6
BYLAYER
  0
LAYOUT
  5
72B
102
{ACAD_REACTORS
330
1A
102
}
100
AcDbPlotSettings
  1

  2
none_device
  4
ISO_A4_(297.00_x_210.00_MM)
  6

 40
0.0
 41
0.0
 42
0.0
 43
0.0
 44
297.0
 45
210.0
 46
0.0
 47
0.0
 48
0.0
 49
0.0
140
0.0
141
0.0
142
1.0
143
1.0
 70
1024
 72
1
 73
0
 74
0
  7

 75
0
147
1.0
148
0.0
149
0.0
100
AcDbLayout
  1
Model
 70
0
 71
0
 10
0.0
 20
0.0
 11
297.0
 21
210.0
 12
0.0
 22
0.0
 32
0.0
 14
0.0
 24
0.0
 34
0.0
 15
0.0
 25
0.0
 35
0.0
146
0.0
 13
0.0
 23
0.0
 33
0.0
 16
1.0
 26
0.0
 36
0.0
 17
0.0
 27
1.0
 37
0.0
 76
0
330
20F
345
0
346
0
  0
LAYOUT
  5
72C
102
{ACAD_REACTORS
330
1A
102
}
100
AcDbPlotSettings
  1

  2
none_device
  4
ISO_A4_(297.00_x_210.00_MM)
  6

 40
0.0
 41
0.0
 42
0.0
 43
0.0
 44
297.0
 45
210.0
 46
0.0
 47
0.0
 48
0.0
 49
0.0
140
0.0
141
0.0
142
1.0
143
1.0
 70
0
 72
1
 73
0
 74
0
  7

 75
0
147
1.0
148
0.0
149
0.0
100
AcDbLayout
  1
Layout1
 70
0
 71
1
 10
0.0
 20
0.0
 11
297.0
 21
210.0
 12
0.0
 22
0.0
 32
0.0
 14
0.0
 24
0.0
 34
0.0
 15
0.0
 25
0.0
 35
0.0
146
0.0
 13
0.0
 23
0.0
 33
0.0
 16
1.0
 26
0.0
 36
0.0
 17
0.0
 27
1.0
 37
0.0
 76
0
330
210
345
0
346
0
  0
ENDSEC
  0
EOF
