  0
SECTION
  2
HEADER
  9
$ACADVER
  1
AC1024
  9
$DWGCODEPAGE
  3
ANSI_1252
  9
$EXTMAX
 10
297.0
 20
210.0
 30
0.0
  9
$EXTMIN
 10
0.0
 20
0.0
 30
0.0
  9
$LIMMIN
 10
0.0
 20
0.0
  9
$LIMMAX
 10
297.0
 20
210.0
  9
$VIEWCTR
 10
148.5
 20
105.0
  9
$VIEWSIZE
 40
210.0
  9
$CLAYER
  8
0
  9
$LTSCALE
 40
16.335
  9
$CELTYPE
  6
BYLAYER
  9
$DIMSCALE
 40
1.0
  9
$DIMASZ
 40
3.0
  9
$DIMEXO
 40
0.5
  9
$DIMDLI
 40
11.286
  9
$DIMEXE
 40
1.5
  9
$DIMCEN
 40
2.673
  9
$DIMLFAC
 40
1.0
  9
$DIMBLK
  1
_FILLED
  9
$DIMALT
 70
0
  9
$DIMALTF
 40
0.0393700787
  9
$DIMTXT
 40
3.0
  9
$DIMTOL
 70
1
  9
$DIMLIM
 70
0
  9
$DIMTFAC
 40
1.0
  9
$DIMTP
 40
0.01
  9
$DIMTM
 40
0.01
  9
$DIMGAP
 40
0.625
  9
$DIMDSEP
 70
44
  9
$AUNITS
 70
0
  9
$PDMODE
 70
3
  9
$PDSIZE
 40
3.0
  9
$HANDSEED
  5
56D
  9
$TILEMODE
 70
1
  9
$MEASUREMENT
 70
1
  9
$INSUNITS
 70
4
  0
ENDSEC
  0
SECTION
  2
CLASSES
  0
CLASS
  1
ACDBDICTIONARYWDFLT
  2
AcDbDictionaryWithDefault
  3
AutoCAD 2000
 90
0
 91
1
280
0
281
0
  0
CLASS
  1
ACDBPLACEHOLDER
  2
AcDbPlaceHolder
  3
AutoCAD 2000
 90
0
 91
1
280
0
281
0
  0
CLASS
  1
LAYOUT
  2
AcDbLayout
  3
AutoCAD 2000
 90
0
 91
0
280
0
281
0
  0
ENDSEC
  0
SECTION
  2
TABLES
  0
TABLE
  2
VPORT
  5
8
100
AcDbSymbolTable
 70
2
  0
VPORT
  5
1F4
100
AcDbSymbolTableRecord
100
AcDbViewportTableRecord
  2
*ACTIVE
 70
0
 10
0.0
 20
0.0
 11
1.0
 21
1.0
 12
148.5
 22
105.0
 13
0.0
 23
0.0
 14
1.0
 24
1.0
 15
0.0
 25
0.0
 16
0.0
 26
0.0
 36
1.0
 17
0.0
 27
0.0
 37
0.0
 40
210.0
 41
1.4142857143
 42
50.0
 43
0.0
 44
0.0
 50
0.0
 51
0.0
 71
0
 72
100
 73
1
 74
1
 75
0
 76
0
 77
0
 78
0
  0
ENDTAB
  0
TABLE
  2
LTYPE
  5
5
100
AcDbSymbolTable
 70
6
  0
LTYPE
  5
14
100
AcDbSymbolTableRecord
100
AcDbLinetypeTableRecord
  2
BYBLOCK
 70
0
  3

 72
65
 73
0
 40
0.0
  0
LTYPE
  5
15
100
AcDbSymbolTableRecord
100
AcDbLinetypeTableRecord
  2
BYLAYER
 70
0
  3

 72
65
 73
0
 40
0.0
  0
LTYPE
  5
16
100
AcDbSymbolTableRecord
100
AcDbLinetypeTableRecord
  2
CONTINUOUS
 70
64
  3
Solid line
 72
65
 73
0
 40
0.0
  0
LTYPE
  5
1F5
100
AcDbSymbolTableRecord
100
AcDbLinetypeTableRecord
  2
CENTER
 70
64
  3
____ _ ____ _ ____ _ ____ _ ____ _ ____ _ ____
 72
65
 73
4
 40
0.6
 49
0.375
 74
0
 49
-0.075
 74
0
 49
0.075
 74
0
 49
-0.075
 74
0
  0
LTYPE
  5
1F6
100
AcDbSymbolTableRecord
100
AcDbLinetypeTableRecord
  2
HIDDEN
 70
64
  3
- - - - - - - - - - - - - - - - - - - -
 72
65
 73
2
 40
0.2
 49
0.1
 74
0
 49
-0.1
 74
0
  0
LTYPE
  5
1F7
100
AcDbSymbolTableRecord
100
AcDbLinetypeTableRecord
  2
PHANTOM
 70
64
  3
_____ _ _ _____ _ _ _____ _ _ _____
 72
65
 73
6
 40
0.8
 49
0.45
 74
0
 49
-0.05
 74
0
 49
0.1
 74
0
 49
-0.05
 74
0
 49
0.1
 74
0
 49
-0.05
 74
0
  0
LTYPE
  5
1F8
100
AcDbSymbolTableRecord
100
AcDbLinetypeTableRecord
  2
DOT
 70
64
  3
. . . . . . . . . . . . . . . . . . . .
 72
65
 73
2
 40
0.2
 49
0.1
 74
0
 49
-0.1
 74
0
  0
LTYPE
  5
1F9
100
AcDbSymbolTableRecord
100
AcDbLinetypeTableRecord
  2
DASHED
 70
64
  3
- - - - - - - - - - - - - - - - - - - -
 72
65
 73
2
 40
0.2
 49
0.1
 74
0
 49
-0.1
 74
0
  0
ENDTAB
  0
TABLE
  2
LAYER
  5
2
100
AcDbSymbolTable
 70
36
  0
LAYER
  5
10
100
AcDbSymbolTableRecord
100
AcDbLayerTableRecord
  2
0
 70
0
 62
7
  6
CONTINUOUS
370
-3
390
F
  0
LAYER
  5
1FA
100
AcDbSymbolTableRecord
100
AcDbLayerTableRecord
  2
DEFAULT_1
 70
0
 62
7
  6
CENTER
370
-3
390
F
  0
LAYER
  5
1FB
100
AcDbSymbolTableRecord
100
AcDbLayerTableRecord
  2
DEFAULT_2
 70
0
 62
7
  6
HIDDEN
370
-3
390
F
  0
LAYER
  5
1FC
100
AcDbSymbolTableRecord
100
AcDbLayerTableRecord
  2
DEFAULT_3
 70
0
 62
7
  6
PHANTOM
370
-3
390
F
  0
LAYER
  5
1FD
100
AcDbSymbolTableRecord
100
AcDbLayerTableRecord
  2
ASSI
 70
0
 62
7
  6
CONTINUOUS
370
-3
390
F
  0
LAYER
  5
1FE
100
AcDbSymbolTableRecord
100
AcDbLayerTableRecord
  2
COLOR5
 70
0
 62
7
  6
CONTINUOUS
370
-3
390
F
  0
LAYER
  5
1FF
100
AcDbSymbolTableRecord
100
AcDbLayerTableRecord
  2
COORDINATE
 70
0
 62
7
  6
CONTINUOUS
370
-3
390
F
  0
LAYER
  5
200
100
AcDbSymbolTableRecord
100
AcDbLayerTableRecord
  2
COORD_ORIGINE
 70
0
 62
7
  6
CONTINUOUS
370
-3
390
F
  0
LAYER
  5
201
100
AcDbSymbolTableRecord
100
AcDbLayerTableRecord
  2
COPY_PUBLISH
 70
0
 62
7
  6
CONTINUOUS
370
-3
390
F
  0
LAYER
  5
202
100
AcDbSymbolTableRecord
100
AcDbLayerTableRecord
  2
COSMETICI
 70
0
 62
7
  6
CONTINUOUS
370
-3
390
F
  0
LAYER
  5
203
100
AcDbSymbolTableRecord
100
AcDbLayerTableRecord
  2
CURVE
 70
0
 62
7
  6
CONTINUOUS
370
-3
390
F
  0
LAYER
  5
204
100
AcDbSymbolTableRecord
100
AcDbLayerTableRecord
  2
DRAFT
 70
0
 62
7
  6
CONTINUOUS
370
-3
390
F
  0
LAYER
  5
205
100
AcDbSymbolTableRecord
100
AcDbLayerTableRecord
  2
IMPORT_IGES
 70
0
 62
7
  6
CONTINUOUS
370
-3
390
F
  0
LAYER
  5
206
100
AcDbSymbolTableRecord
100
AcDbLayerTableRecord
  2
INTF_1
 70
0
 62
7
  6
CONTINUOUS
370
-3
390
F
  0
LAYER
  5
207
100
AcDbSymbolTableRecord
100
AcDbLayerTableRecord
  2
INTF_2
 70
0
 62
7
  6
CONTINUOUS
370
-3
390
F
  0
LAYER
  5
208
100
AcDbSymbolTableRecord
100
AcDbLayerTableRecord
  2
INTF_7
 70
0
 62
7
  6
CONTINUOUS
370
-3
390
F
  0
LAYER
  5
209
100
AcDbSymbolTableRecord
100
AcDbLayerTableRecord
  2
INTF_8
 70
0
 62
7
  6
CONTINUOUS
370
-3
390
F
  0
LAYER
  5
20A
100
AcDbSymbolTableRecord
100
AcDbLayerTableRecord
  2
NOTE
 70
0
 62
7
  6
CONTINUOUS
370
-3
390
F
  0
LAYER
  5
20B
100
AcDbSymbolTableRecord
100
AcDbLayerTableRecord
  2
PIANI
 70
0
 62
7
  6
CONTINUOUS
370
-3
390
F
  0
LAYER
  5
20C
100
AcDbSymbolTableRecord
100
AcDbLayerTableRecord
  2
PIANI_ORIGINE
 70
0
 62
7
  6
CONTINUOUS
370
-3
390
F
  0
LAYER
  5
20D
100
AcDbSymbolTableRecord
100
AcDbLayerTableRecord
  2
PUNTI
 70
0
 62
7
  6
CONTINUOUS
370
-3
390
F
  0
LAYER
  5
20E
100
AcDbSymbolTableRecord
100
AcDbLayerTableRecord
  2
RACCORDO
 70
0
 62
7
  6
CONTINUOUS
370
-3
390
F
  0
LAYER
  5
20F
100
AcDbSymbolTableRecord
100
AcDbLayerTableRecord
  2
RGB__255__255__255__
 70
0
 62
7
  6
CONTINUOUS
370
-3
390
F
  0
LAYER
  5
210
100
AcDbSymbolTableRecord
100
AcDbLayerTableRecord
  2
RGB____0____0____0__
 70
0
 62
7
  6
CONTINUOUS
370
-3
390
F
  0
LAYER
  5
211
100
AcDbSymbolTableRecord
100
AcDbLayerTableRecord
  2
SIMBOLI
 70
0
 62
7
  6
CONTINUOUS
370
-3
390
F
  0
LAYER
  5
212
100
AcDbSymbolTableRecord
100
AcDbLayerTableRecord
  2
SMUSSO
 70
0
 62
7
  6
CONTINUOUS
370
-3
390
F
  0
LAYER
  5
213
100
AcDbSymbolTableRecord
100
AcDbLayerTableRecord
  2
SNAPLINE
 70
0
 62
7
  6
CONTINUOUS
370
-3
390
F
  0
LAYER
  5
214
100
AcDbSymbolTableRecord
100
AcDbLayerTableRecord
  2
SUPERFICI
 70
0
 62
7
  6
CONTINUOUS
370
-3
390
F
  0
LAYER
  5
215
100
AcDbSymbolTableRecord
100
AcDbLayerTableRecord
  2
TRASH
 70
0
 62
7
  6
CONTINUOUS
370
-3
390
F
  0
LAYER
  5
216
100
AcDbSymbolTableRecord
100
AcDbLayerTableRecord
  2
XSEC_DATUMS
 70
0
 62
7
  6
CONTINUOUS
370
-3
390
F
  0
ENDTAB
  0
TABLE
  2
STYLE
  5
3
100
AcDbSymbolTable
 70
1
  0
STYLE
  5
11
100
AcDbSymbolTableRecord
100
AcDbTextStyleTableRecord
  2
STANDARD
 70
0
 40
0.0
 41
0.8
 50
0.0
 71
0
 42
0.2
  3
txt
  4

  0
STYLE
  5
217
100
AcDbSymbolTableRecord
100
AcDbTextStyleTableRecord
  2
TEXTSTYLE_1
 70
0
 40
0.0
 41
0.8
 50
0.0
 71
0
 42
0.2
  3
gdt
  4

  0
ENDTAB
  0
TABLE
  2
VIEW
  5
6
100
AcDbSymbolTable
 70
0
  0
ENDTAB
  0
TABLE
  2
UCS
  5
7
100
AcDbSymbolTable
 70
0
  0
ENDTAB
  0
TABLE
  2
APPID
  5
9
100
AcDbSymbolTable
 70
1
  0
APPID
  5
218
100
AcDbSymbolTableRecord
100
AcDbRegAppTableRecord
  2
ACAD
 70
0
  0
ENDTAB
  0
TABLE
  2
BLOCK_RECORD
  5
1
100
AcDbSymbolTable
 70
0
  0
BLOCK_RECORD
  5
219
100
AcDbSymbolTableRecord
100
AcDbBlockTableRecord
  2
*Model_Space
  0
BLOCK_RECORD
  5
21A
100
AcDbSymbolTableRecord
100
AcDbBlockTableRecord
  2
*Paper_Space
  0
BLOCK_RECORD
  5
21B
100
AcDbSymbolTableRecord
100
AcDbBlockTableRecord
  2
_FILLED
  0
ENDTAB
  0
TABLE
  2
DIMSTYLE
  5
A
100
AcDbSymbolTable
 70
1
100
AcDbDimStyleTable
 71
0
  0
DIMSTYLE
105
21C
100
AcDbSymbolTableRecord
100
AcDbDimStyleTableRecord
  2
STANDARD
 70
0
  3

  4

 40
1.0
 41
3.0
 42
0.5
 43
0.38
 44
1.5
 45
0.0
 46
0.0
 47
0.01
 48
0.01
140
3.0
141
0.09
142
0.0
143
25.4
144
1.0
145
0.0
146
1.0
147
0.625
 71
1
 72
0
 73
0
 74
0
 75
0
 76
0
 77
1
 78
8
 79
2
170
0
171
1
172
0
173
0
174
0
175
0
176
0
177
0
178
0
270
2
179
2
271
2
272
2
273
2
274
2
275
0
280
0
281
0
282
0
283
1
284
8
285
0
286
0
287
3
288
0
340
11
278
44
341
21B
342
21B
343
21B
344
21B
  0
ENDTAB
  0
ENDSEC
  0
SECTION
  2
BLOCKS
  0
BLOCK
  5
20
100
AcDbEntity
  8
0
100
AcDbBlockBegin
  2
*Model_Space
 70
0
 10
0.0
 20
0.0
 30
0.0
  3
*Model_Space
  1

  0
ENDBLK
  5
21
100
AcDbEntity
  8
0
100
AcDbBlockEnd
  0
BLOCK
  5
1C
100
AcDbEntity
  8
0
100
AcDbBlockBegin
  2
*Paper_Space
 70
0
 10
0.0
 20
0.0
 30
0.0
  3
*Paper_Space
  1

  0
ENDBLK
  5
1D
100
AcDbEntity
  8
0
100
AcDbBlockEnd
  0
BLOCK
  5
21D
100
AcDbEntity
  8
0
100
AcDbBlockBegin
  2
_FILLED
 70
64
 10
0.0
 20
0.0
  3
_FILLED
  1

  0
SOLID
  5
21E
100
AcDbEntity
  8
0
  6
BYBLOCK
 62
0
100
AcDbTrace
 10
0.0
 20
0.0
 11
-1.0
 21
0.3166666667
 12
-1.0
 22
-0.3166666667
 13
-1.0
 23
-0.3166666667
  0
ENDBLK
  5
21F
100
AcDbEntity
  8
0
  6
BYBLOCK
 62
0
100
AcDbBlockEnd
  0
ENDSEC
  0
SECTION
  2
ENTITIES
  0
LINE
  5
220
100
AcDbEntity
  8
DRAFT
100
AcDbLine
 62
7
  6
CONTINUOUS
 10
-26.5
 20
-44.4159437343
 11
-26.2242099741
 21
-44.6917337602
  0
LINE
  5
221
100
AcDbEntity
  8
DRAFT
100
AcDbLine
 62
7
  6
CONTINUOUS
 10
-32.0
 20
-38.9159437343
 11
-32.2757899725
 21
-38.6401537618
  0
LWPOLYLINE
  5
222
100
AcDbEntity
  8
0
100
AcDbPolyline
 62
250
  6
CONTINUOUS
 90
8
 70
0
 10
13.8806040641
 20
-45.8658654516
 10
13.9797329699
 20
-45.8597152919
 10
14.0773338563
 20
-45.8413302297
 10
14.1719022565
 20
-45.8109936611
 10
14.261980448
 20
-45.7691732084
 10
14.3461799222
 20
-45.7165135119
 10
14.4232027882
 20
-45.6538262932
 10
14.437348211
 20
-45.640450428
  0
LWPOLYLINE
  5
223
100
AcDbEntity
  8
0
100
AcDbPolyline
 62
7
  6
CONTINUOUS
 90
19
 70
0
 10
13.9233915413
 20
-45.7889718072
 10
13.9655663556
 20
-45.7870482485
 10
14.007480448
 20
-45.7829718278
 10
14.0491338183
 20
-45.776742194
 10
14.0906144522
 20
-45.7683680856
 10
14.1318343641
 20
-45.7578550908
 10
14.1725295968
 20
-45.7451948809
 10
14.21265612
 20
-45.730417782
 10
14.252257964
 20
-45.7135187729
 10
14.2912032618
 20
-45.6943973186
 10
14.3295559877
 20
-45.6730191664
 10
14.3672521674
 20
-45.649392378
 10
14.4039680116
 20
-45.6234336847
 10
14.4397077556
 20
-45.5951661085
 10
14.4744671641
 20
-45.5645521997
 10
14.5079097422
 20
-45.5313706732
 10
14.5399233252
 20
-45.4955153559
 10
14.5706200777
 20
-45.4570407407
 10
14.6
 20
-45.4159437343
  0
LINE
  5
224
100
AcDbEntity
  8
0
100
AcDbLine
 62
250
  6
CONTINUOUS
 10
20.9877775347
 20
-45.8747572913
 11
20.9012822569
 21
-45.8770146706
  0
LINE
  5
225
100
AcDbEntity
  8
0
100
AcDbLine
 62
250
  6
CONTINUOUS
 10
20.9012822569
 20
-45.8770146706
 11
20.7957368149
 21
-45.8790175831
  0
LINE
  5
226
100
AcDbEntity
  8
0
100
AcDbLine
 62
7
  6
CONTINUOUS
 10
7.7474999019
 20
-46.1802533717
 11
6.6435225932
 21
-46.195750742
  0
LINE
  5
227
100
AcDbEntity
  8
0
100
AcDbLine
 62
7
  6
CONTINUOUS
 10
-7.7474999019
 20
-45.8836112401
 11
-6.6435225932
 21
-45.8681138698
  0
LINE
  5
228
100
AcDbEntity
  8
0
100
AcDbLine
 62
250
  6
CONTINUOUS
 10
20.7957368149
 20
-45.8790175831
 11
20.6083525596
 21
-45.8814347832
  0
LINE
  5
229
100
AcDbEntity
  8
0
100
AcDbLine
 62
7
  6
CONTINUOUS
 10
6.6435225932
 20
-46.195750742
 11
5.4412503899
 21
-46.2087425827
  0
LINE
  5
22A
100
AcDbEntity
  8
0
100
AcDbLine
 62
7
  6
CONTINUOUS
 10
-6.6435225932
 20
-45.8681138698
 11
-5.4412503899
 21
-45.8551220291
  0
LINE
  5
22B
100
AcDbEntity
  8
0
100
AcDbLine
 62
7
  6
CONTINUOUS
 10
5.4412503899
 20
-46.2087425827
 11
4.1542791612
 21
-46.2190819758
  0
LINE
  5
22C
100
AcDbEntity
  8
0
100
AcDbLine
 62
7
  6
CONTINUOUS
 10
-5.4412503899
 20
-45.8551220291
 11
-4.1542791612
 21
-45.844782636
  0
LINE
  5
22D
100
AcDbEntity
  8
0
100
AcDbLine
 62
250
  6
CONTINUOUS
 10
20.6083525596
 20
-45.8814347832
 11
20.3966311253
 21
-45.8830347268
  0
LINE
  5
22E
100
AcDbEntity
  8
0
100
AcDbLine
 62
7
  6
CONTINUOUS
 10
4.1542791612
 20
-46.2190819758
 11
2.8040759678
 21
-46.2265727781
  0
LINE
  5
22F
100
AcDbEntity
  8
0
100
AcDbLine
 62
7
  6
CONTINUOUS
 10
-4.1542791612
 20
-45.844782636
 11
-2.8040759678
 21
-45.8372918337
  0
LINE
  5
230
100
AcDbEntity
  8
0
100
AcDbLine
 62
7
  6
CONTINUOUS
 10
2.8040759678
 20
-46.2265727781
 11
1.4167418309
 21
-46.2311032298
  0
LINE
  5
231
100
AcDbEntity
  8
0
100
AcDbLine
 62
7
  6
CONTINUOUS
 10
-2.8040759678
 20
-45.8372918337
 11
-1.4167418309
 21
-45.832761382
  0
LINE
  5
232
100
AcDbEntity
  8
0
100
AcDbLine
 62
7
  6
CONTINUOUS
 10
1.4167418309
 20
-46.2311032298
 11
-0.0
 21
-46.2326349799
  0
LINE
  5
233
100
AcDbEntity
  8
0
100
AcDbLine
 62
250
  6
CONTINUOUS
 10
20.3966311253
 20
-45.8830347268
 11
20.1
 21
-45.8838066745
  0
LINE
  5
234
100
AcDbEntity
  8
0
100
AcDbLine
 62
7
  6
CONTINUOUS
 10
-1.4167418309
 20
-45.832761382
 11
-0.0
 21
-45.8312296319
  0
LINE
  5
235
100
AcDbEntity
  8
DRAFT
100
AcDbLine
 62
7
  6
CONTINUOUS
 10
-28.0
 20
-46.4159437343
 11
28.0
 21
-46.4159437343
  0
LINE
  5
236
100
AcDbEntity
  8
0
100
AcDbLine
 62
250
  6
CONTINUOUS
 10
-28.0
 20
-45.7889718072
 11
13.923397555
 21
-45.7889718072
  0
LINE
  5
237
100
AcDbEntity
  8
0
100
AcDbLine
 62
250
  6
CONTINUOUS
 10
21.0766024408
 20
-45.7889718072
 11
28.0
 21
-45.7889718072
  0
LINE
  5
238
100
AcDbEntity
  8
0
100
AcDbLine
 62
7
  6
CONTINUOUS
 10
-0.0
 20
-46.2326349799
 11
-1.4167418309
 21
-46.2311032298
  0
LINE
  5
239
100
AcDbEntity
  8
0
100
AcDbLine
 62
7
  6
CONTINUOUS
 10
-0.0
 20
-45.8312296319
 11
1.4167418309
 21
-45.832761382
  0
LINE
  5
23A
100
AcDbEntity
  8
0
100
AcDbLine
 62
250
  6
CONTINUOUS
 10
20.1
 20
-45.8838066745
 11
14.6768780084
 21
-45.8833752731
  0
LINE
  5
23B
100
AcDbEntity
  8
0
100
AcDbLine
 62
7
  6
CONTINUOUS
 10
-1.4167418309
 20
-46.2311032298
 11
-2.8040759678
 21
-46.2265727781
  0
LINE
  5
23C
100
AcDbEntity
  8
0
100
AcDbLine
 62
7
  6
CONTINUOUS
 10
1.4167418309
 20
-45.832761382
 11
2.8040759678
 21
-45.8372918337
  0
LINE
  5
23D
100
AcDbEntity
  8
0
100
AcDbLine
 62
7
  6
CONTINUOUS
 10
-2.8040759678
 20
-46.2265727781
 11
-4.1542791612
 21
-46.2190819758
  0
LINE
  5
23E
100
AcDbEntity
  8
0
100
AcDbLine
 62
7
  6
CONTINUOUS
 10
2.8040759678
 20
-45.8372918337
 11
4.1542791612
 21
-45.844782636
  0
LINE
  5
23F
100
AcDbEntity
  8
0
100
AcDbLine
 62
250
  6
CONTINUOUS
 10
14.6768780084
 20
-45.8833752731
 11
14.4600371372
 21
-45.8820646071
  0
LINE
  5
240
100
AcDbEntity
  8
0
100
AcDbLine
 62
7
  6
CONTINUOUS
 10
-4.1542791612
 20
-46.2190819758
 11
-5.4412503899
 21
-46.2087425827
  0
LINE
  5
241
100
AcDbEntity
  8
0
100
AcDbLine
 62
7
  6
CONTINUOUS
 10
4.1542791612
 20
-45.844782636
 11
5.4412503899
 21
-45.8551220291
  0
LINE
  5
242
100
AcDbEntity
  8
0
100
AcDbLine
 62
7
  6
CONTINUOUS
 10
-5.4412503899
 20
-46.2087425827
 11
-6.6435225932
 21
-46.195750742
  0
LINE
  5
243
100
AcDbEntity
  8
0
100
AcDbLine
 62
7
  6
CONTINUOUS
 10
5.4412503899
 20
-45.8551220291
 11
6.6435225932
 21
-45.8681138698
  0
LINE
  5
244
100
AcDbEntity
  8
0
100
AcDbLine
 62
250
  6
CONTINUOUS
 10
14.4600371372
 20
-45.8820646071
 11
14.2630832044
 21
-45.8799071399
  0
LWPOLYLINE
  5
245
100
AcDbEntity
  8
0
100
AcDbPolyline
 62
7
  6
CONTINUOUS
 90
16
 70
0
 10
-6.6435225932
 20
-46.195750742
 10
-7.7474999019
 20
-46.1802533717
 10
-8.2551838284
 20
-46.1716565001
 10
-8.7335531086
 20
-46.1624984178
 10
-9.1771981137
 20
-46.1528826889
 10
-9.5857246794
 20
-46.1428041183
 10
-9.95952697
 20
-46.1322679011
 10
-10.2943778506
 20
-46.1213931858
 10
-10.5898351732
 20
-46.11017613
 10
-10.8463410857
 20
-46.0986205761
 10
-11.0609948965
 20
-46.0868571998
 10
-11.2333215313
 20
-46.0748836421
 10
-11.3637960644
 20
-46.062702262
 10
-11.4509430274
 20
-46.0504508124
 10
-11.4942705975
 20
-46.0381284979
 10
-11.5
 20
-46.0319323059
  0
LWPOLYLINE
  5
246
100
AcDbEntity
  8
0
100
AcDbPolyline
 62
7
  6
CONTINUOUS
 90
16
 70
0
 10
6.6435225932
 20
-45.8681138698
 10
7.7474999019
 20
-45.8836112401
 10
8.2551838284
 20
-45.8922081117
 10
8.7335531086
 20
-45.9013661939
 10
9.1771981137
 20
-45.9109819229
 10
9.5857246794
 20
-45.9210604934
 10
9.95952697
 20
-45.9315967106
 10
10.2943778506
 20
-45.942471426
 10
10.5898351732
 20
-45.9536884818
 10
10.8463410857
 20
-45.9652440357
 10
11.0609948965
 20
-45.977007412
 10
11.2333215313
 20
-45.9889809697
 10
11.3637960644
 20
-46.0011623498
 10
11.4509430274
 20
-46.0134137994
 10
11.4942705975
 20
-46.0257361139
 10
11.5
 20
-46.0319323059
  0
LINE
  5
247
100
AcDbEntity
  8
0
100
AcDbLine
 62
250
  6
CONTINUOUS
 10
14.2630832044
 20
-45.8799071399
 11
14.1491987609
 21
-45.8780485753
  0
LWPOLYLINE
  5
248
100
AcDbEntity
  8
0
100
AcDbPolyline
 62
250
  6
CONTINUOUS
 90
10
 70
0
 10
14.1491987609
 20
-45.8780485753
 10
14.0531623698
 20
-45.8759184014
 10
14.0122548231
 20
-45.8747582786
 10
13.9767582441
 20
-45.8735602917
 10
13.9468438943
 20
-45.8723238793
 10
13.9223405122
 20
-45.8710496028
 10
13.9034451345
 20
-45.8697639737
 10
13.89022344
 20
-45.8684758292
 10
13.8826097498
 20
-45.8671763323
 10
13.880604064
 20
-45.8658654828
  0
LWPOLYLINE
  5
249
100
AcDbEntity
  8
0
100
AcDbPolyline
 62
250
  6
CONTINUOUS
 90
8
 70
0
 10
-33.4499217485
 20
-35.0353396703
 10
-33.4512328023
 20
-35.0333366875
 10
-33.4525326416
 20
-35.0257187207
 10
-33.4538212666
 20
-35.0124857699
 10
-33.4551075974
 20
-34.9935713775
 10
-33.4563827137
 20
-34.9690420011
 10
-33.4576198546
 20
-34.9390970141
 10
-33.4588184195
 20
-34.903562094
  0
LINE
  5
24A
100
AcDbEntity
  8
DRAFT
100
AcDbLine
 62
7
  6
CONTINUOUS
 10
-32.0
 20
29.0840562657
 11
-32.2757899725
 21
28.8082662932
  0
LINE
  5
24B
100
AcDbEntity
  8
DRAFT
100
AcDbLine
 62
7
  6
CONTINUOUS
 10
-26.5
 20
34.5840562657
 11
-26.2242099741
 21
34.8598462916
  0
LWPOLYLINE
  5
24C
100
AcDbEntity
  8
0
100
AcDbPolyline
 62
250
  6
CONTINUOUS
 90
8
 70
0
 10
-21.119395936
 20
36.0339780141
 10
-21.1173897144
 20
36.0352887924
 10
-21.1097772139
 20
36.0365881904
 10
-21.0965584344
 20
36.037876208
 10
-21.0776678813
 20
36.0391616648
 10
-21.0531710492
 20
36.0404357413
 10
-21.0232644223
 20
36.0416719791
 10
-20.9877775347
 20
36.0428698227
  0
LWPOLYLINE
  5
24D
100
AcDbEntity
  8
RACCORDO
100
AcDbPolyline
 62
250
  6
CONTINUOUS
 90
14
 70
0
 10
-11.6029478427
 20
40.3291389699
 10
-11.6245070891
 20
40.3206341873
 10
-11.6241849012
 20
40.310968696
 10
-11.5975265094
 20
40.301322702
 10
-11.5447355019
 20
40.2917289731
 10
-11.4659827773
 20
40.2821979814
 10
-11.3613102828
 20
40.272734812
 10
-11.2307234976
 20
40.2633503547
 10
-11.0745575014
 20
40.2540770455
 10
-10.8934338171
 20
40.2449517919
 10
-10.6880761014
 20
40.2360050324
 10
-10.4588172465
 20
40.2272459823
 10
-10.2057797442
 20
40.2186793283
 10
-9.6297565967
 20
40.2021839713
  0
LWPOLYLINE
  5
24E
100
AcDbEntity
  8
RACCORDO
100
AcDbPolyline
 62
250
  6
CONTINUOUS
 90
12
 70
0
 10
-9.8566649333
 20
42.1670615042
 10
-9.8747660933
 20
42.1599938724
 10
-9.874373019
 20
42.1513943182
 10
-9.8493671663
 20
42.1427964672
 10
-9.7996413733
 20
42.134209503
 10
-9.7252584537
 20
42.1256675142
 10
-9.6265642215
 20
42.1172102835
 10
-9.5040751963
 20
42.1088705301
 10
-9.3580505421
 20
42.1006566412
 10
-9.1885465643
 20
42.0925717265
 10
-8.9956319706
 20
42.084625573
 10
-8.5424391979
 20
42.0692799533
  0
LWPOLYLINE
  5
24F
100
AcDbEntity
  8
0
100
AcDbPolyline
 62
7
  6
CONTINUOUS
 90
13
 70
0
 10
-5.9872670073
 20
44.5055990785
 10
-5.9980733731
 20
44.5013956213
 10
-5.9980733731
 20
44.4961657929
 10
-5.9832227831
 20
44.4909553873
 10
-5.9534110239
 20
44.485764549
 10
-5.9087486747
 20
44.4805931335
 10
-5.8495674731
 20
44.4754795524
 10
-5.7757593101
 20
44.4704242363
 10
-5.6874322948
 20
44.4654267545
 10
-5.5852424919
 20
44.4605242268
 10
-5.4690866775
 20
44.4557173602
 10
-5.3390680756
 20
44.4510054477
 10
-5.0402436859
 20
44.4419724481
  0
LWPOLYLINE
  5
250
100
AcDbEntity
  8
RACCORDO
100
AcDbPolyline
 62
250
  6
CONTINUOUS
 90
12
 70
0
 10
-8.1103821128
 20
43.9380069191
 10
-8.1249731585
 20
43.9324038986
 10
-8.1247383769
 20
43.9249728945
 10
-8.1021705227
 20
43.9175445711
 10
-8.0571841342
 20
43.9101291779
 10
-7.989849716
 20
43.9027576665
 10
-7.9004930747
 20
43.895465709
 10
-7.7895984668
 20
43.8882830995
 10
-7.6574296715
 20
43.881219123
 10
-7.504074804
 20
43.8742784937
 10
-7.3296350103
 20
43.8674714338
 10
-6.9202926879
 20
43.8543772393
  0
LWPOLYLINE
  5
251
100
AcDbEntity
  8
RACCORDO
100
AcDbPolyline
 62
250
  6
CONTINUOUS
 90
11
 70
0
 10
-3.8694092543
 20
45.6319544506
 10
-3.8761810479
 20
45.6294057611
 10
-3.8753250683
 20
45.6252049839
 10
-3.8595653656
 20
45.6210183567
 10
-3.8290780315
 20
45.6168685528
 10
-3.7840204692
 20
45.6127645873
 10
-3.7244592314
 20
45.6087123557
 10
-3.6504477333
 20
45.6047214908
 10
-3.5623023411
 20
45.6008138971
 10
-3.4605577042
 20
45.597013329
 10
-3.2184400229
 20
45.5897995705
  0
LWPOLYLINE
  5
252
100
AcDbEntity
  8
0
100
AcDbPolyline
 62
7
  6
CONTINUOUS
 90
11
 70
0
 10
-0.9978905893
 20
46.3996243066
 10
-0.9991191665
 20
46.3991970743
 10
-0.9991191665
 20
46.3977855815
 10
-0.9927088741
 20
46.3963876727
 10
-0.9797641084
 20
46.3950036112
 10
-0.9604090503
 20
46.3936331338
 10
-0.9350162427
 20
46.3923026193
 10
-0.9034687216
 20
46.3910128416
 10
-0.865883451
 20
46.3897630268
 10
-0.8229838659
 20
46.388577231
 10
-0.7210358529
 20
46.3864001769
  0
LINE
  5
253
100
AcDbEntity
  8
0
100
AcDbLine
 62
7
  6
CONTINUOUS
 10
14.6
 20
-45.4159437343
 11
20.4
 21
-45.4159437343
  0
LINE
  5
254
100
AcDbEntity
  8
RACCORDO
100
AcDbLine
 62
7
  6
CONTINUOUS
 10
-28.0
 20
-44.6917337068
 11
-26.2242100275
 21
-44.6917337068
  0
LINE
  5
255
100
AcDbEntity
  8
RACCORDO
100
AcDbLine
 62
7
  6
CONTINUOUS
 10
28.0
 20
-44.6917337068
 11
26.2242100275
 21
-44.6917337068
  0
LINE
  5
256
100
AcDbEntity
  8
RACCORDO
100
AcDbLine
 62
250
  6
CONTINUOUS
 10
-26.2242099741
 20
-44.6891393425
 11
26.2242099741
 21
-44.6891393425
  0
LINE
  5
257
100
AcDbEntity
  8
DRAFT
100
AcDbLine
 62
7
  6
CONTINUOUS
 10
-28.0
 20
-44.4159437343
 11
-26.5
 21
-44.4159437343
  0
LINE
  5
258
100
AcDbEntity
  8
DRAFT
100
AcDbLine
 62
7
  6
CONTINUOUS
 10
28.0
 20
-44.4159437343
 11
26.5
 21
-44.4159437343
  0
LWPOLYLINE
  5
259
100
AcDbEntity
  8
0
100
AcDbPolyline
 62
250
  6
CONTINUOUS
 90
7
 70
0
 10
21.1193959357
 20
-45.8658749058
 10
21.0202668787
 20
-45.8597229608
 10
20.9226660438
 20
-45.8413362217
 10
20.8280978689
 20
-45.8109981055
 10
20.7380200463
 20
-45.7691762494
 10
20.6538210528
 20
-45.7165153038
 10
20.5742287326
 20
-45.6514448752
  0
LWPOLYLINE
  5
25A
100
AcDbEntity
  8
0
100
AcDbPolyline
 62
7
  6
CONTINUOUS
 90
4
 70
0
 10
-33.223983283
 20
-28.353831637
 10
-33.1661341088
 20
-28.4078055128
 10
-33.0864303921
 20
-28.4670422847
 10
-33.0
 20
-28.5159437343
  0
LWPOLYLINE
  5
25B
100
AcDbEntity
  8
RACCORDO
100
AcDbPolyline
 62
250
  6
CONTINUOUS
 90
14
 70
0
 10
-13.2306563413
 20
38.6032885533
 10
-13.2553630748
 20
38.5934975141
 10
-13.255369705
 20
38.5829366166
 10
-13.2278026906
 20
38.5723960789
 10
-13.1728741175
 20
38.561910158
 10
-13.0907544712
 20
38.5514879734
 10
-12.9814686333
 20
38.541132625
 10
-12.844996965
 20
38.5308538704
 10
-12.6816642906
 20
38.5206855077
 10
-12.492091023
 20
38.5106662365
 10
-12.2769960466
 20
38.5008275443
 10
-12.0366908881
 20
38.4911779676
 10
-11.771274175
 20
38.4817214024
 10
-11.1664154588
 20
38.4634482051
  0
LINE
  5
25C
100
AcDbEntity
  8
DRAFT
100
AcDbLine
 62
250
  6
CONTINUOUS
 10
-26.5
 20
-40.4159437343
 11
-26.2242099741
 21
-40.4159437343
  0
LINE
  5
25D
100
AcDbEntity
  8
DRAFT
100
AcDbLine
 62
250
  6
CONTINUOUS
 10
26.5
 20
-40.4159437343
 11
26.2242099741
 21
-40.4159437343
  0
LINE
  5
25E
100
AcDbEntity
  8
RACCORDO
100
AcDbLine
 62
250
  6
CONTINUOUS
 10
32.0
 20
-40.4159437343
 11
34.0
 21
-40.4159437343
  0
LINE
  5
25F
100
AcDbEntity
  8
RACCORDO
100
AcDbLine
 62
250
  6
CONTINUOUS
 10
-32.0
 20
-40.4159437343
 11
-34.0
 21
-40.4159437343
  0
LINE
  5
260
100
AcDbEntity
  8
DRAFT
100
AcDbLine
 62
7
  6
CONTINUOUS
 10
28.0
 20
-38.9159437343
 11
32.0
 21
-38.9159437343
  0
LINE
  5
261
100
AcDbEntity
  8
DRAFT
100
AcDbLine
 62
7
  6
CONTINUOUS
 10
-28.0
 20
-38.9159437343
 11
-32.0
 21
-38.9159437343
  0
LINE
  5
262
100
AcDbEntity
  8
DRAFT
100
AcDbLine
 62
7
  6
CONTINUOUS
 10
28.0
 20
-38.6401537084
 11
32.2731956082
 21
-38.6401537084
  0
LINE
  5
263
100
AcDbEntity
  8
DRAFT
100
AcDbLine
 62
7
  6
CONTINUOUS
 10
-28.0
 20
-38.6401537084
 11
-32.2731956082
 21
-38.6401537084
  0
LWPOLYLINE
  5
264
100
AcDbEntity
  8
0
100
AcDbPolyline
 62
250
  6
CONTINUOUS
 90
10
 70
0
 10
-33.4499217485
 20
-27.7965477983
 10
-33.441287266
 20
-27.8008103638
 10
-33.4326754337
 20
-27.8051944969
 10
-33.4240862517
 20
-27.8097001977
 10
-33.4155196734
 20
-27.8143254675
 10
-33.4069757452
 20
-27.819072305
 10
-33.3984546071
 20
-27.8239467064
 10
-33.3899563057
 20
-27.8289506702
 10
-33.3814807943
 20
-27.8340821979
 10
-33.3730280729
 20
-27.8393412893
  0
LWPOLYLINE
  5
265
100
AcDbEntity
  8
0
100
AcDbPolyline
 62
250
  6
CONTINUOUS
 90
8
 70
0
 10
-33.4499217173
 20
-27.7965477984
 10
-33.4437715575
 20
-27.8956767042
 10
-33.4253864954
 20
-27.9932775906
 10
-33.3950499268
 20
-28.0878459909
 10
-33.3532294741
 20
-28.1779241823
 10
-33.3005697776
 20
-28.2621236565
 10
-33.2378825589
 20
-28.3391465225
 10
-33.223983283
 20
-28.353831637
  0
LWPOLYLINE
  5
266
100
AcDbEntity
  8
0
100
AcDbPolyline
 62
7
  6
CONTINUOUS
 90
19
 70
0
 10
-33.3730280729
 20
-27.8393352756
 10
-33.3711045091
 20
-27.8815101609
 10
-33.3670280777
 20
-27.923424311
 10
-33.3607984293
 20
-27.9650777259
 10
-33.3524243049
 20
-28.0065583896
 10
-33.3419112943
 20
-28.047778318
 10
-33.3292510692
 20
-28.0884735593
 10
-33.3144739562
 20
-28.1286000845
 10
-33.2975749356
 20
-28.1682019226
 10
-33.2784534733
 20
-28.2071472085
 10
-33.2570753183
 20
-28.2454999147
 10
-33.2334485325
 20
-28.2831960687
 10
-33.2074898448
 20
-28.3199118873
 10
-33.1792222755
 20
-28.3556516079
 10
-33.1486083764
 20
-28.3904109931
 10
-33.1154268642
 20
-28.4238535479
 10
-33.0795715665
 20
-28.4558671072
 10
-33.0410969761
 20
-28.486563836
 10
-33.0
 20
-28.5159437343
  0
LINE
  5
267
100
AcDbEntity
  8
0
100
AcDbLine
 62
250
  6
CONTINUOUS
 10
-33.4588184195
 20
-34.903562094
 11
-33.4610766631
 21
-34.8169677622
  0
LINE
  5
268
100
AcDbEntity
  8
0
100
AcDbLine
 62
250
  6
CONTINUOUS
 10
-33.4610766631
 20
-34.8169677622
 11
-33.4630790109
 21
-34.711361761
  0
LWPOLYLINE
  5
269
100
AcDbEntity
  8
0
100
AcDbPolyline
 62
7
  6
CONTINUOUS
 90
4
 70
0
 10
-14.437348211
 20
35.8085629594
 10
-14.4918617785
 20
35.7501903745
 10
-14.5510985504
 20
35.6704866578
 10
-14.6
 20
35.5840562657
  0
LWPOLYLINE
  5
26A
100
AcDbEntity
  8
0
100
AcDbPolyline
 62
7
  6
CONTINUOUS
 90
9
 70
0
 10
3.6
 20
44.4987807071
 10
3.5938615534
 20
44.4951317351
 10
3.5755693092
 20
44.4914827631
 10
3.5453079108
 20
44.4878706242
 10
3.5029561329
 20
44.4842956914
 10
3.4486352008
 20
44.4807575916
 10
3.3828934348
 20
44.4772920387
 10
3.3056151629
 20
44.4738997675
 10
3.216916057
 20
44.4705800432
  0
LINE
  5
26B
100
AcDbEntity
  8
0
100
AcDbLine
 62
250
  6
CONTINUOUS
 10
-33.4678629402
 20
-34.0159437343
 11
-33.0
 21
-34.0159437343
  0
LWPOLYLINE
  5
26C
100
AcDbEntity
  8
0
100
AcDbPolyline
 62
7
  6
CONTINUOUS
 90
15
 70
0
 10
-33.7643096374
 20
-12.6634436362
 10
-33.7557127658
 20
-13.1711275627
 10
-33.7465546835
 20
-13.6494968429
 10
-33.7369389546
 20
-14.093141848
 10
-33.726860384
 20
-14.5016684137
 10
-33.7163241668
 20
-14.8754707043
 10
-33.7054494515
 20
-15.2103215849
 10
-33.6942323957
 20
-15.5057789075
 10
-33.6826768418
 20
-15.76228482
 10
-33.6709134655
 20
-15.9769386308
 10
-33.6589399077
 20
-16.1492652656
 10
-33.6467585277
 20
-16.2797397987
 10
-33.6345070781
 20
-16.3668867617
 10
-33.6221847636
 20
-16.4102143318
 10
-33.6159885716
 20
-16.4159437343
  0
LWPOLYLINE
  5
26D
100
AcDbEntity
  8
0
100
AcDbPolyline
 62
7
  6
CONTINUOUS
 90
15
 70
0
 10
-33.4676675058
 20
2.8315561676
 10
-33.4762643774
 20
3.3392400941
 10
-33.4854224596
 20
3.8176093743
 10
-33.4950381886
 20
4.2612543794
 10
-33.5051167591
 20
4.6697809451
 10
-33.5156529763
 20
5.0435832357
 10
-33.5265276917
 20
5.3784341163
 10
-33.5377447475
 20
5.6738914389
 10
-33.5493003014
 20
5.9303973514
 10
-33.5610636777
 20
6.1450511622
 10
-33.5730372354
 20
6.317377797
 10
-33.5852186155
 20
6.4478523301
 10
-33.5974700651
 20
6.5349992931
 10
-33.6097923796
 20
6.5783268632
 10
-33.6159885716
 20
6.5840562657
  0
LINE
  5
26E
100
AcDbEntity
  8
0
100
AcDbLine
 62
7
  6
CONTINUOUS
 10
-33.7798070077
 20
-11.5594663275
 11
-33.7643096374
 21
-12.6634436362
  0
LINE
  5
26F
100
AcDbEntity
  8
0
100
AcDbLine
 62
7
  6
CONTINUOUS
 10
-33.4521701355
 20
1.7275788589
 11
-33.4676675058
 21
2.8315561676
  0
LINE
  5
270
100
AcDbEntity
  8
0
100
AcDbLine
 62
250
  6
CONTINUOUS
 10
-33.4630790109
 20
-34.711361761
 11
-33.4654939071
 21
-34.5240147089
  0
LINE
  5
271
100
AcDbEntity
  8
0
100
AcDbLine
 62
7
  6
CONTINUOUS
 10
-33.7927988484
 20
-10.3571941242
 11
-33.7798070077
 21
-11.5594663275
  0
LINE
  5
272
100
AcDbEntity
  8
0
100
AcDbLine
 62
7
  6
CONTINUOUS
 10
-33.4391782948
 20
0.5253066556
 11
-33.4521701355
 21
1.7275788589
  0
LINE
  5
273
100
AcDbEntity
  8
0
100
AcDbLine
 62
7
  6
CONTINUOUS
 10
-33.8031382415
 20
-9.0702228955
 11
-33.7927988484
 21
-10.3571941242
  0
LINE
  5
274
100
AcDbEntity
  8
0
100
AcDbLine
 62
7
  6
CONTINUOUS
 10
-33.4288389017
 20
-0.7616645732
 11
-33.4391782948
 21
0.5253066556
  0
LINE
  5
275
100
AcDbEntity
  8
0
100
AcDbLine
 62
250
  6
CONTINUOUS
 10
-33.4654939071
 20
-34.5240147089
 11
-33.4670917502
 21
-34.3124414001
  0
LINE
  5
276
100
AcDbEntity
  8
0
100
AcDbLine
 62
7
  6
CONTINUOUS
 10
-33.8106290438
 20
-7.7200197021
 11
-33.8031382415
 21
-9.0702228955
  0
LINE
  5
277
100
AcDbEntity
  8
0
100
AcDbLine
 62
7
  6
CONTINUOUS
 10
-33.4213480994
 20
-2.1118677665
 11
-33.4288389017
 21
-0.7616645732
  0
LINE
  5
278
100
AcDbEntity
  8
0
100
AcDbLine
 62
7
  6
CONTINUOUS
 10
-33.8151594955
 20
-6.3326855652
 11
-33.8106290438
 21
-7.7200197021
  0
LINE
  5
279
100
AcDbEntity
  8
0
100
AcDbLine
 62
7
  6
CONTINUOUS
 10
-33.4168176477
 20
-3.4992019034
 11
-33.4213480994
 21
-2.1118677665
  0
LINE
  5
27A
100
AcDbEntity
  8
0
100
AcDbLine
 62
7
  6
CONTINUOUS
 10
-33.8166912456
 20
-4.9159437343
 11
-33.8151594955
 21
-6.3326855652
  0
LINE
  5
27B
100
AcDbEntity
  8
0
100
AcDbLine
 62
250
  6
CONTINUOUS
 10
-33.4670917502
 20
-34.3124414001
 11
-33.4678629402
 21
-34.0159437343
  0
LINE
  5
27C
100
AcDbEntity
  8
0
100
AcDbLine
 62
7
  6
CONTINUOUS
 10
-33.4152858976
 20
-4.9159437343
 11
-33.4168176477
 21
-3.4992019034
  0
LINE
  5
27D
100
AcDbEntity
  8
DRAFT
100
AcDbLine
 62
7
  6
CONTINUOUS
 10
-34.0
 20
30.5840562657
 11
-34.0
 21
-40.4159437343
  0
LINE
  5
27E
100
AcDbEntity
  8
0
100
AcDbLine
 62
250
  6
CONTINUOUS
 10
-33.3730280729
 20
30.5840562657
 11
-33.3730280729
 21
-27.8393412893
  0
LINE
  5
27F
100
AcDbEntity
  8
0
100
AcDbLine
 62
250
  6
CONTINUOUS
 10
-33.3730280729
 20
-34.9925461751
 11
-33.3730280729
 21
-40.4159437343
  0
LINE
  5
280
100
AcDbEntity
  8
0
100
AcDbLine
 62
7
  6
CONTINUOUS
 10
-33.0
 20
-28.5159437343
 11
-33.0
 21
-34.3159437343
  0
LINE
  5
281
100
AcDbEntity
  8
RACCORDO
100
AcDbLine
 62
7
  6
CONTINUOUS
 10
-32.2757899725
 20
-38.6401537618
 11
-32.2757899725
 21
-40.4159437343
  0
LINE
  5
282
100
AcDbEntity
  8
RACCORDO
100
AcDbLine
 62
7
  6
CONTINUOUS
 10
-32.2757899725
 20
28.8082662932
 11
-32.2757899725
 21
30.5840562657
  0
LINE
  5
283
100
AcDbEntity
  8
RACCORDO
100
AcDbLine
 62
250
  6
CONTINUOUS
 10
-32.2731956082
 20
28.8082662398
 11
-32.2731956082
 21
-38.6401537084
  0
LINE
  5
284
100
AcDbEntity
  8
DRAFT
100
AcDbLine
 62
7
  6
CONTINUOUS
 10
-32.0
 20
-38.9159437343
 11
-32.0
 21
-40.4159437343
  0
LINE
  5
285
100
AcDbEntity
  8
DRAFT
100
AcDbLine
 62
7
  6
CONTINUOUS
 10
-32.0
 20
29.0840562657
 11
-32.0
 21
30.5840562657
  0
LINE
  5
286
100
AcDbEntity
  8
0
100
AcDbLine
 62
7
  6
CONTINUOUS
 10
-33.8151594955
 20
-3.4992019034
 11
-33.8166912456
 21
-4.9159437343
  0
LINE
  5
287
100
AcDbEntity
  8
0
100
AcDbLine
 62
7
  6
CONTINUOUS
 10
-33.4168176477
 20
-6.3326855652
 11
-33.4152858976
 21
-4.9159437343
  0
LINE
  5
288
100
AcDbEntity
  8
0
100
AcDbLine
 62
250
  6
CONTINUOUS
 10
-33.4678629402
 20
-34.0159437343
 11
-33.4674311052
 21
-28.5927112593
  0
LINE
  5
289
100
AcDbEntity
  8
0
100
AcDbLine
 62
7
  6
CONTINUOUS
 10
-33.8106290438
 20
-2.1118677665
 11
-33.8151594955
 21
-3.4992019034
  0
LINE
  5
28A
100
AcDbEntity
  8
0
100
AcDbLine
 62
7
  6
CONTINUOUS
 10
-33.4213480994
 20
-7.7200197021
 11
-33.4168176477
 21
-6.3326855652
  0
LINE
  5
28B
100
AcDbEntity
  8
0
100
AcDbLine
 62
7
  6
CONTINUOUS
 10
-33.8031382415
 20
-0.7616645732
 11
-33.8106290438
 21
-2.1118677665
  0
LINE
  5
28C
100
AcDbEntity
  8
0
100
AcDbLine
 62
7
  6
CONTINUOUS
 10
-33.4288389017
 20
-9.0702228955
 11
-33.4213480994
 21
-7.7200197021
  0
LINE
  5
28D
100
AcDbEntity
  8
0
100
AcDbLine
 62
250
  6
CONTINUOUS
 10
-33.4674311052
 20
-28.5927112593
 11
-33.4661180205
 21
-28.3756394271
  0
LINE
  5
28E
100
AcDbEntity
  8
0
100
AcDbLine
 62
7
  6
CONTINUOUS
 10
-33.7927988484
 20
0.5253066556
 11
-33.8031382415
 21
-0.7616645732
  0
LINE
  5
28F
100
AcDbEntity
  8
0
100
AcDbLine
 62
7
  6
CONTINUOUS
 10
-33.4391782948
 20
-10.3571941242
 11
-33.4288389017
 21
-9.0702228955
  0
LINE
  5
290
100
AcDbEntity
  8
0
100
AcDbLine
 62
7
  6
CONTINUOUS
 10
-33.7798070077
 20
1.7275788589
 11
-33.7927988484
 21
0.5253066556
  0
LINE
  5
291
100
AcDbEntity
  8
0
100
AcDbLine
 62
7
  6
CONTINUOUS
 10
-33.4521701355
 20
-11.5594663275
 11
-33.4391782948
 21
-10.3571941242
  0
LINE
  5
292
100
AcDbEntity
  8
0
100
AcDbLine
 62
250
  6
CONTINUOUS
 10
-33.4661180205
 20
-28.3756394271
 11
-33.4639568348
 21
-28.1785566831
  0
LINE
  5
293
100
AcDbEntity
  8
0
100
AcDbLine
 62
250
  6
CONTINUOUS
 10
-33.4639568348
 20
-28.1785566831
 11
-33.4620967466
 21
-28.0647194024
  0
LWPOLYLINE
  5
294
100
AcDbEntity
  8
0
100
AcDbPolyline
 62
250
  6
CONTINUOUS
 90
10
 70
0
 10
-33.4620967466
 20
-28.0647194024
 10
-33.4599667311
 20
-27.9687961288
 10
-33.4588074186
 20
-27.9279656316
 10
-33.457610445
 20
-27.8925380734
 10
-33.4563753107
 20
-27.8626792865
 10
-33.4551025154
 20
-27.8382234387
 10
-33.4538181522
 20
-27.8193631081
 10
-33.4525309188
 20
-27.8061624875
 10
-33.4512321176
 20
-27.7985573843
 10
-33.4499217485
 20
-27.7965477983
  0
LWPOLYLINE
  5
295
100
AcDbEntity
  8
0
100
AcDbPolyline
 62
250
  6
CONTINUOUS
 90
7
 70
0
 10
-33.4499312882
 20
-35.03533967
 10
-33.4437794014
 20
-34.9362106421
 10
-33.4253926968
 20
-34.8386098253
 10
-33.3950545928
 20
-34.7440416589
 10
-33.3532327293
 20
-34.6539638364
 10
-33.3005717592
 20
-34.5697648363
 10
-33.2349977679
 20
-34.4896321466
  0
LINE
  5
296
100
AcDbEntity
  8
DRAFT
100
AcDbLine
 62
250
  6
CONTINUOUS
 10
-28.0
 20
29.0840562657
 11
-28.0
 21
28.8082662398
  0
LINE
  5
297
100
AcDbEntity
  8
DRAFT
100
AcDbLine
 62
250
  6
CONTINUOUS
 10
-28.0
 20
-38.9159437343
 11
-28.0
 21
-38.6401537084
  0
LINE
  5
298
100
AcDbEntity
  8
RACCORDO
100
AcDbLine
 62
250
  6
CONTINUOUS
 10
-28.0
 20
-44.4159437343
 11
-28.0
 21
-46.4159437343
  0
LINE
  5
299
100
AcDbEntity
  8
RACCORDO
100
AcDbLine
 62
250
  6
CONTINUOUS
 10
-28.0
 20
34.5840562657
 11
-28.0
 21
36.5840562657
  0
LINE
  5
29A
100
AcDbEntity
  8
DRAFT
100
AcDbLine
 62
7
  6
CONTINUOUS
 10
-26.5
 20
34.5840562657
 11
-26.5
 21
30.5840562657
  0
LINE
  5
29B
100
AcDbEntity
  8
DRAFT
100
AcDbLine
 62
7
  6
CONTINUOUS
 10
-26.5
 20
-44.4159437343
 11
-26.5
 21
-40.4159437343
  0
LWPOLYLINE
  5
29C
100
AcDbEntity
  8
0
100
AcDbPolyline
 62
250
  6
CONTINUOUS
 90
10
 70
0
 10
-13.880604064
 20
36.0339780141
 10
-13.8848666295
 20
36.0253435317
 10
-13.8892507626
 20
36.0167316994
 10
-13.8937564634
 20
36.0081425174
 10
-13.8983817332
 20
35.999575939
 10
-13.9031285707
 20
35.9910320109
 10
-13.9080029721
 20
35.9825108728
 10
-13.9130069359
 20
35.9740125714
 10
-13.9181384636
 20
35.9655370599
 10
-13.923397555
 20
35.9570843386
  0
LWPOLYLINE
  5
29D
100
AcDbEntity
  8
0
100
AcDbPolyline
 62
7
  6
CONTINUOUS
 90
16
 70
0
 10
-33.6159885716
 20
6.5840562657
 10
-33.6221847636
 20
6.5783268632
 10
-33.6345070781
 20
6.5349992931
 10
-33.6467585277
 20
6.4478523301
 10
-33.6589399077
 20
6.317377797
 10
-33.6709134655
 20
6.1450511622
 10
-33.6826768418
 20
5.9303973514
 10
-33.6942323957
 20
5.6738914389
 10
-33.7054494515
 20
5.3784341163
 10
-33.7163241668
 20
5.0435832357
 10
-33.726860384
 20
4.6697809451
 10
-33.7369389546
 20
4.2612543794
 10
-33.7465546835
 20
3.8176093743
 10
-33.7557127658
 20
3.3392400941
 10
-33.7643096374
 20
2.8315561676
 10
-33.7798070077
 20
1.7275788589
  0
LWPOLYLINE
  5
29E
100
AcDbEntity
  8
0
100
AcDbPolyline
 62
7
  6
CONTINUOUS
 90
10
 70
0
 10
7.85
 20
42.6990548558
 10
7.8411086126
 20
42.6925360672
 10
7.8144545922
 20
42.6860320457
 10
7.7700983188
 20
42.6795575251
 10
7.7081402735
 20
42.6731271722
 10
7.6287208113
 20
42.6667555538
 10
7.5320198429
 20
42.6604571037
 10
7.4182564269
 20
42.65424609
 10
7.2876882742
 20
42.6481365826
 10
7.1406111635
 20
42.6421424214
  0
LINE
  5
29F
100
AcDbEntity
  8
0
100
AcDbLine
 62
250
  6
CONTINUOUS
 10
-33.4678629402
 20
-28.8159437343
 11
-33.0
 21
-28.8159437397
  0
LINE
  5
2A0
100
AcDbEntity
  8
DRAFT
100
AcDbLine
 62
7
  6
CONTINUOUS
 10
-26.2242099741
 20
34.8572518739
 11
-26.2242099741
 21
30.5840562657
  0
LINE
  5
2A1
100
AcDbEntity
  8
DRAFT
100
AcDbLine
 62
7
  6
CONTINUOUS
 10
-26.2242099741
 20
-44.6891393425
 11
-26.2242099741
 21
-40.4159437343
  0
LWPOLYLINE
  5
2A2
100
AcDbEntity
  8
0
100
AcDbPolyline
 62
7
  6
CONTINUOUS
 90
10
 70
0
 10
4.1
 20
44.9987045546
 10
4.098380347
 20
44.9967289336
 10
4.0859964213
 20
44.9927956006
 10
4.0611159696
 20
44.9888803394
 10
4.0238515922
 20
44.9849829872
 10
3.9745410904
 20
44.9811388734
 10
3.9130749351
 20
44.9773484822
 10
3.8395626554
 20
44.9736113293
 10
3.7546706393
 20
44.9699612922
 10
3.658295417
 20
44.9663991629
  0
LWPOLYLINE
  5
2A3
100
AcDbEntity
  8
0
100
AcDbPolyline
 62
7
  6
CONTINUOUS
 90
9
 70
0
 10
10.1
 20
41.3992528521
 10
10.0903444761
 20
41.391569018
 10
10.0614874188
 20
41.3838851839
 10
10.0135930999
 20
41.3762450909
 10
9.9465529418
 20
41.3686489883
 10
9.8604755222
 20
41.3610966268
 10
9.7558508455
 20
41.3536309989
 10
9.632573129
 20
41.3462525993
 10
9.4907481555
 20
41.3389609332
  0
LWPOLYLINE
  5
2A4
100
AcDbEntity
  8
0
100
AcDbPolyline
 62
7
  6
CONTINUOUS
 90
10
 70
0
 10
-19.5160718602
 20
-3.7834127343
 10
-19.5185325202
 20
-3.6989004238
 10
-19.5168607977
 20
-3.6171026311
 10
-19.5110566925
 20
-3.5380193563
 10
-19.5012273654
 20
-3.4613279001
 10
-19.4872656557
 20
-3.3873509616
 10
-19.4688500817
 20
-3.3170566392
 10
-19.4458734829
 20
-3.2507676321
 10
-19.4184430197
 20
-3.188161241
 10
-19.3865586922
 20
-3.1292374658
  0
LINE
  5
2A5
100
AcDbEntity
  8
0
100
AcDbLine
 62
7
  6
CONTINUOUS
 10
-21.065387
 20
-5.0310327343
 11
-21.065387
 21
-6.4920647343
  0
LINE
  5
2A6
100
AcDbEntity
  8
0
100
AcDbLine
 62
7
  6
CONTINUOUS
 10
-20.793534
 20
-6.2089547343
 11
-20.793534
 21
-5.0310327343
  0
LINE
  5
2A7
100
AcDbEntity
  8
0
100
AcDbLine
 62
250
  6
CONTINUOUS
 10
-20.1
 20
36.0519192059
 11
-20.1
 21
35.5840562657
  0
LWPOLYLINE
  5
2A8
100
AcDbEntity
  8
0
100
AcDbPolyline
 62
7
  6
CONTINUOUS
 90
16
 70
0
 10
-20.8437946685
 20
-3.5229470658
 10
-20.8409247288
 20
-3.4582693815
 10
-20.83372807
 20
-3.3969712729
 10
-20.822204692
 20
-3.33905274
 10
-20.8064414318
 20
-3.2839794528
 10
-20.7863514524
 20
-3.2322857413
 10
-20.7616742437
 20
-3.1855745954
 10
-20.7323707342
 20
-3.1445066838
 10
-20.6984799953
 20
-3.1084213378
 10
-20.6598587313
 20
-3.0769395408
 10
-20.6160936553
 20
-3.0499548251
 10
-20.567598054
 20
-3.0275736586
 10
-20.5154684922
 20
-3.0097364279
 10
-20.4600704915
 20
-2.9964232623
 10
-20.4010385301
 20
-2.9876540326
 10
-20.3383726082
 20
-2.9834287389
  0
LWPOLYLINE
  5
2A9
100
AcDbEntity
  8
0
100
AcDbPolyline
 62
7
  6
CONTINUOUS
 90
8
 70
0
 10
11.85
 20
39.5995270008
 10
11.8403533544
 20
39.5912040997
 10
11.811506744
 20
39.5828811985
 10
11.7636001581
 20
39.5745986875
 10
11.6965409508
 20
39.5663567628
 10
11.6104217681
 20
39.5581552283
 10
11.5056605365
 20
39.5500338851
 10
11.3821666418
 20
39.5419931228
  0
LWPOLYLINE
  5
2AA
100
AcDbEntity
  8
0
100
AcDbPolyline
 62
7
  6
CONTINUOUS
 90
9
 70
0
 10
-1.8558092975
 20
25.4681077358
 10
-1.9357404166
 20
25.4160501283
 10
-2.0085527581
 20
25.355324075
 10
-2.0743885913
 20
25.2863875991
 10
-2.133105647
 20
25.2087826774
 10
-2.1838442801
 20
25.1220536493
 10
-2.2263179426
 20
25.0260486278
 10
-2.2608131825
 20
24.9209195
 10
-2.28733
 20
24.8066662657
  0
LWPOLYLINE
  5
2AB
100
AcDbEntity
  8
0
100
AcDbPolyline
 62
7
  6
CONTINUOUS
 90
29
 70
0
 10
-0.9264113834
 20
24.2050786562
 10
-0.8458648801
 20
24.2472332654
 10
-0.7741025287
 20
24.2945438057
 10
-0.7111243292
 20
24.3470102771
 10
-0.6569695105
 20
24.4049605096
 10
-0.6115988438
 20
24.4680666731
 10
-0.5748946421
 20
24.5353452773
 10
-0.5465021452
 20
24.6068286123
 10
-0.5267761134
 20
24.6824843878
 10
-0.5166631412
 20
24.7612322435
 10
-0.5163364145
 20
24.8443915405
 10
-0.5256227473
 20
24.9306429177
 10
-0.5449491768
 20
25.0149479312
 10
-0.5749855689
 20
25.097046618
 10
-0.6150620578
 20
25.1771989412
 10
-0.6635960826
 20
25.2511463463
 10
-0.7198204994
 20
25.3176311156
 10
-0.7845024522
 20
25.3779109669
 10
-0.8583608129
 20
25.4315004992
 10
-0.9425979847
 20
25.4794238005
 10
-1.0360115645
 20
25.5206567828
 10
-1.1357132143
 20
25.551641781
 10
-1.2441106614
 20
25.5713651398
 10
-1.3587961785
 20
25.5808405144
 10
-1.4696582466
 20
25.5795512065
 10
-1.5742805232
 20
25.5669323738
 10
-1.6750793508
 20
25.5435488586
 10
-1.7691922373
 20
25.5105784883
 10
-1.8558092975
 20
25.4681077358
  0
LINE
  5
2AC
100
AcDbEntity
  8
0
100
AcDbLine
 62
7
  6
CONTINUOUS
 10
-17.6
 20
-21.4159437343
 11
-17.4
 21
-21.4159437343
  0
LWPOLYLINE
  5
2AD
100
AcDbEntity
  8
0
100
AcDbPolyline
 62
7
  6
CONTINUOUS
 90
13
 70
0
 10
-19.5275902179
 20
-6.5197467304
 10
-19.5826248977
 20
-6.4077320666
 10
-19.6265135819
 20
-6.2980345994
 10
-19.6592562703
 20
-6.1906543289
 10
-19.6804101346
 20
-6.0847174235
 10
-19.6904180032
 20
-5.9810977148
 10
-19.690608361
 20
-5.8824166971
 10
-19.6810306855
 20
-5.789031972
 10
-19.6616354992
 20
-5.7005859379
 10
-19.6336028542
 20
-5.6186272844
 10
-19.5973261012
 20
-5.5436722413
 10
-19.5524118895
 20
-5.4752045788
 10
-19.4988602192
 20
-5.4132242969
  0
LINE
  5
2AE
100
AcDbEntity
  8
0
100
AcDbLine
 62
7
  6
CONTINUOUS
 10
-18.7037187644
 20
-6.4308092583
 11
-18.5737469122
 21
-6.7198739295
  0
LWPOLYLINE
  5
2AF
100
AcDbEntity
  8
0
100
AcDbPolyline
 62
7
  6
CONTINUOUS
 90
13
 70
0
 10
-19.6658613271
 20
-3.2003443447
 10
-19.6955802854
 20
-3.1261436181
 10
-19.7314092241
 20
-3.056963707
 10
-19.7733481433
 20
-2.9928046115
 10
-19.8224913876
 20
-2.9329981688
 10
-19.8777446125
 20
-2.8782125416
 10
-19.9358247837
 20
-2.8304522183
 10
-19.9952852269
 20
-2.790422454
 10
-20.0575726164
 20
-2.7574179935
 10
-20.1237439415
 20
-2.7313275596
 10
-20.1941515317
 20
-2.7121140596
 10
-20.2684430575
 20
-2.699814586
 10
-20.3466185187
 20
-2.6944291389
  0
LINE
  5
2B0
100
AcDbEntity
  8
0
100
AcDbLine
 62
7
  6
CONTINUOUS
 10
-18.7410220488
 20
-4.1450555749
 11
-18.6454738397
 21
-4.4570912577
  0
LINE
  5
2B1
100
AcDbEntity
  8
0
100
AcDbLine
 62
7
  6
CONTINUOUS
 10
-17.6
 20
11.5840562657
 11
-17.6
 21
-21.4159437343
  0
LINE
  5
2B2
100
AcDbEntity
  8
0
100
AcDbLine
 62
7
  6
CONTINUOUS
 10
-17.4
 20
-21.4159437343
 11
-17.4
 21
11.5840562657
  0
LINE
  5
2B3
100
AcDbEntity
  8
0
100
AcDbLine
 62
250
  6
CONTINUOUS
 10
-14.9
 20
36.0519192059
 11
-14.9000000056
 21
35.5840562657
  0
LWPOLYLINE
  5
2B4
100
AcDbEntity
  8
RACCORDO
100
AcDbPolyline
 62
7
  6
CONTINUOUS
 90
22
 70
0
 10
-14.0
 20
37.6224358193
 10
-13.9965050021
 20
37.7061345768
 10
-13.9860246986
 20
37.7893691341
 10
-13.9686026373
 20
37.8715574488
 10
-13.9441910494
 20
37.95252403
 10
-13.9130042037
 20
38.0312694254
 10
-13.8758502065
 20
38.1061081121
 10
-13.8329293378
 20
38.1771282325
 10
-13.7850024674
 20
38.2434875915
 10
-13.734617981
 20
38.3027406578
 10
-13.6832237356
 20
38.3547541902
 10
-13.631344367
 20
38.4003605759
 10
-13.5807201164
 20
38.4393003652
 10
-13.5329097152
 20
38.4717308431
 10
-13.4878437359
 20
38.4988792441
 10
-13.4446340587
 20
38.522092105
 10
-13.4032076049
 20
38.5419716843
 10
-13.3641570212
 20
38.5587378846
 10
-13.3273292663
 20
38.5729118197
 10
-13.2927153045
 20
38.5848749355
 10
-13.260483344
 20
38.5949034776
 10
-13.2306563462
 20
38.603288552
  0
LWPOLYLINE
  5
2B5
100
AcDbEntity
  8
0
100
AcDbPolyline
 62
7
  6
CONTINUOUS
 90
13
 70
0
 10
-18.3215925954
 20
-5.8685819553
 10
-18.3259606532
 20
-5.9280767761
 10
-18.3361949838
 20
-5.9868538985
 10
-18.3522955871
 20
-6.0449133225
 10
-18.3748888602
 20
-6.1035612577
 10
-18.403348406
 20
-6.1614914944
 10
-18.4357950335
 20
-6.2147854039
 10
-18.4718514703
 20
-6.2620826831
 10
-18.5118949888
 20
-6.3047436351
 10
-18.5551782148
 20
-6.3429305406
 10
-18.6014520237
 20
-6.376697493
 10
-18.6509655403
 20
-6.4059903989
 10
-18.7037187644
 20
-6.4308092583
  0
LINE
  5
2B6
100
AcDbEntity
  8
0
100
AcDbLine
 62
7
  6
CONTINUOUS
 10
-20.6483798375
 20
-4.340208416
 11
-20.5157908992
 21
-4.080527537
  0
LWPOLYLINE
  5
2B7
100
AcDbEntity
  8
0
100
AcDbPolyline
 62
7
  6
CONTINUOUS
 90
9
 70
0
 10
8.35
 20
43.1989787034
 10
8.3477766773
 20
43.1956569079
 10
8.3305342227
 20
43.1890339007
 10
8.295942249
 20
43.1824316049
 10
8.2441078207
 20
43.1758498928
 10
8.1753521321
 20
43.1693295482
 10
8.0895701131
 20
43.1628709521
 10
7.9868668338
 20
43.1564737236
 10
7.8678786997
 20
43.1501775033
  0
LWPOLYLINE
  5
2B8
100
AcDbEntity
  8
0
100
AcDbPolyline
 62
7
  6
CONTINUOUS
 90
11
 70
0
 10
14.0
 20
36.2000448373
 10
13.9901779926
 20
36.1909131977
 10
13.9607939714
 20
36.1817815581
 10
13.9119709385
 20
36.1726881437
 10
13.8436274081
 20
36.1636331146
 10
13.7558448659
 20
36.1546163107
 10
13.6489907705
 20
36.1456754764
 10
13.5229851768
 20
36.1368109301
 10
13.3779080298
 20
36.1280223533
 10
13.2143666243
 20
36.1193465353
 10
13.0322835606
 20
36.1107839486
  0
LWPOLYLINE
  5
2B9
100
AcDbEntity
  8
0
100
AcDbPolyline
 62
7
  6
CONTINUOUS
 90
4
 70
0
 10
20.5742287326
 20
-45.6514448752
 10
20.5081403684
 20
-45.582077611
 10
20.4489042276
 20
-45.5023731124
 10
20.4000034028
 20
-45.4159420789
  0
LWPOLYLINE
  5
2BA
100
AcDbEntity
  8
0
100
AcDbPolyline
 62
7
  6
CONTINUOUS
 90
19
 70
0
 10
-18.4881469242
 20
-3.0802200521
 10
-18.4410073715
 20
-3.1349085468
 10
-18.401678094
 20
-3.1940997444
 10
-18.3701590916
 20
-3.2577936449
 10
-18.3465904975
 20
-3.3267694036
 10
-18.3308321785
 20
-3.4002478652
 10
-18.3224637352
 20
-3.4758915637
 10
-18.321658262
 20
-3.5551744609
 10
-18.3282426644
 20
-3.636622595
 10
-18.3412772609
 20
-3.7134766146
 10
-18.360587595
 20
-3.7839750553
 10
-18.386348123
 20
-3.8498793815
 10
-18.4181425319
 20
-3.9097146352
 10
-18.4556011548
 20
-3.9627399097
 10
-18.4990936586
 20
-4.0096961117
 10
-18.549312731
 20
-4.051331003
 10
-18.6064892682
 20
-4.0878938376
 10
-18.6703923741
 20
-4.1191353616
 10
-18.7410220488
 20
-4.1450555749
  0
LINE
  5
2BB
100
AcDbEntity
  8
0
100
AcDbLine
 62
7
  6
CONTINUOUS
 10
-14.0
 20
37.6224358193
 11
-14.0
 21
36.2000448373
  0
LINE
  5
2BC
100
AcDbEntity
  8
0
100
AcDbLine
 62
7
  6
CONTINUOUS
 10
-11.85
 20
40.0261858505
 11
-11.85
 21
39.5995270008
  0
LINE
  5
2BD
100
AcDbEntity
  8
0
100
AcDbLine
 62
7
  6
CONTINUOUS
 10
-11.35
 20
39.540191574
 11
-11.35
 21
39.0996031532
  0
LWPOLYLINE
  5
2BE
100
AcDbEntity
  8
RACCORDO
100
AcDbPolyline
 62
7
  6
CONTINUOUS
 90
19
 70
0
 10
-10.1
 20
41.8660979591
 10
-10.0980070969
 20
41.9007920662
 10
-10.0922281186
 20
41.9342867952
 10
-10.0829879742
 20
41.9662098185
 10
-10.0704880559
 20
41.9965659052
 10
-10.0551778453
 20
42.0247643467
 10
-10.0380622784
 20
42.0497918378
 10
-10.0199139172
 20
42.0715277086
 10
-10.0011269299
 20
42.090329989
 10
-9.9823700798
 20
42.1062302989
 10
-9.9641100067
 20
42.1194816728
 10
-9.9466210521
 20
42.1304379931
 10
-9.9302179977
 20
42.1393746147
 10
-9.9153193684
 20
42.1464949355
 10
-9.9018479142
 20
42.1521979758
 10
-9.8892764217
 20
42.1569485688
 10
-9.877440047
 20
42.1609628863
 10
-9.8665663843
 20
42.1642951435
 10
-9.8566649279
 20
42.1670615056
  0
LWPOLYLINE
  5
2BF
100
AcDbEntity
  8
RACCORDO
100
AcDbPolyline
 62
7
  6
CONTINUOUS
 90
19
 70
0
 10
-11.85
 20
40.0261858505
 10
-11.8478693272
 20
40.062086751
 10
-11.8417297006
 20
40.096561726
 10
-11.8319848211
 20
40.129216473
 10
-11.8189247747
 20
40.1600161672
 10
-11.8030627015
 20
40.1884191208
 10
-11.7854060287
 20
40.2135348142
 10
-11.7666918968
 20
40.2353290408
 10
-11.747378118
 20
40.2541034553
 10
-11.7282722857
 20
40.2698205717
 10
-11.7099733048
 20
40.2827135802
 10
-11.6926705384
 20
40.2932612149
 10
-11.6764828863
 20
40.3018706337
 10
-11.6617754096
 20
40.3087567978
 10
-11.6484959529
 20
40.3142863621
 10
-11.6360201657
 20
40.3189433135
 10
-11.6241442312
 20
40.3229380757
 10
-11.6131181859
 20
40.3263016251
 10
-11.6029478526
 20
40.3291389673
  0
LWPOLYLINE
  5
2C0
100
AcDbEntity
  8
0
100
AcDbPolyline
 62
7
  6
CONTINUOUS
 90
11
 70
0
 10
9.45
 20
40.8993290045
 10
9.4475513618
 20
40.8955747786
 10
9.4279698689
 20
40.888074108
 10
9.3888474687
 20
40.880596765
 10
9.3302652484
 20
40.8731582473
 10
9.2523446286
 20
40.8657739726
 10
9.1552471117
 20
40.8584592457
 10
9.039173947
 20
40.8512292277
 10
8.904365714
 20
40.8440989038
 10
8.7511018233
 20
40.8370830528
 10
8.5796999378
 20
40.8301962159
  0
LWPOLYLINE
  5
2C1
100
AcDbEntity
  8
0
100
AcDbPolyline
 62
7
  6
CONTINUOUS
 90
10
 70
0
 10
-19.3865586922
 20
-3.1292374658
 10
-19.3561281389
 20
-3.0869337664
 10
-19.319494111
 20
-3.0483101626
 10
-19.2766566083
 20
-3.0133666545
 10
-19.2268657783
 20
-2.9812856031
 10
-19.1708714735
 20
-2.9528846474
 10
-19.1109232525
 20
-2.9306167041
 10
-19.047770968
 20
-2.9152994122
 10
-18.9806647673
 20
-2.9061151328
 10
-18.9096046502
 20
-2.9030638658
  0
LWPOLYLINE
  5
2C2
100
AcDbEntity
  8
0
100
AcDbPolyline
 62
7
  6
CONTINUOUS
 90
29
 70
0
 10
0.40649
 20
23.9476462657
 10
0.45255666
 20
24.0101356174
 10
0.5037068019
 20
24.0653807914
 10
0.5599404255
 20
24.1133817876
 10
0.6214891594
 20
24.1545512117
 10
0.6881213751
 20
24.188476458
 10
0.7591421871
 20
24.2139197102
 10
0.8362800167
 20
24.2304157178
 10
0.9178064427
 20
24.2384297312
 10
0.9978413154
 20
24.2381196856
 10
1.0757524158
 20
24.2293082526
 10
1.152171963
 20
24.2121727605
 10
1.2231164651
 20
24.1874031301
 10
1.2874168698
 20
24.1549182148
 10
1.3462422294
 20
24.1147991612
 10
1.399116209
 20
24.0679793303
 10
1.4463117286
 20
24.014645415
 10
1.4875558684
 20
23.9546107225
 10
1.5215535339
 20
23.8882485344
 10
1.5480384403
 20
23.8149271407
 10
1.5672768726
 20
23.7352782515
 10
1.5787725913
 20
23.6515702786
 10
1.5825074153
 20
23.5618528347
 10
1.5784995257
 20
23.4680763071
 10
1.5663072267
 20
23.3783602688
 10
1.54551662
 20
23.2945669283
 10
1.5165416038
 20
23.2148340772
 10
1.4801821778
 20
23.1416946627
 10
1.4355737991
 20
23.0754142346
  0
LWPOLYLINE
  5
2C3
100
AcDbEntity
  8
0
100
AcDbPolyline
 62
7
  6
CONTINUOUS
 90
21
 70
0
 10
1.4355737991
 20
23.0754142346
 10
1.3835810104
 20
23.015727243
 10
1.3275974394
 20
22.9643699856
 10
1.2686693255
 20
22.9219026192
 10
1.2057504294
 20
22.8877649869
 10
1.1390956606
 20
22.8620129154
 10
1.0668233221
 20
22.8446997922
 10
0.9908151109
 20
22.8357722298
 10
0.9169710289
 20
22.8351258923
 10
0.846488308
 20
22.8429937325
 10
0.7781697162
 20
22.8591427976
 10
0.7143235588
 20
22.8827698924
 10
0.6553552661
 20
22.9139666321
 10
0.6008594078
 20
22.9526414016
 10
0.5519279985
 20
22.9977161599
 10
0.5089278946
 20
23.0489501574
 10
0.4714922396
 20
23.1065841438
 10
0.4396124782
 20
23.170262327
 10
0.4132857585
 20
23.2398661097
 10
0.3925149325
 20
23.3155140893
 10
0.3773
 20
23.3972062657
  0
LWPOLYLINE
  5
2C4
100
AcDbEntity
  8
0
100
AcDbPolyline
 62
7
  6
CONTINUOUS
 90
10
 70
0
 10
-20.5157908992
 20
-4.080527537
 10
-20.5749281532
 20
-4.0417276671
 10
-20.6294804738
 20
-3.9952774526
 10
-20.6794478611
 20
-3.9411768934
 10
-20.726281201
 20
-3.8769433687
 10
-20.7685296076
 20
-3.8050594992
 10
-20.8018404233
 20
-3.7329731479
 10
-20.8247627625
 20
-3.6631669357
 10
-20.8387475109
 20
-3.5931582417
 10
-20.8437946685
 20
-3.5229470658
  0
LINE
  5
2C5
100
AcDbEntity
  8
0
100
AcDbLine
 62
7
  6
CONTINUOUS
 10
-10.1
 20
41.8660979591
 11
-10.1
 21
41.3992528521
  0
LINE
  5
2C6
100
AcDbEntity
  8
0
100
AcDbLine
 62
7
  6
CONTINUOUS
 10
-9.45
 20
41.3371316064
 11
-9.45
 21
40.8993290045
  0
LINE
  5
2C7
100
AcDbEntity
  8
0
100
AcDbLine
 62
7
  6
CONTINUOUS
 10
-8.35
 20
43.6390329722
 11
-8.35
 21
43.1989787034
  0
LINE
  5
2C8
100
AcDbEntity
  8
0
100
AcDbLine
 62
7
  6
CONTINUOUS
 10
-7.85
 20
43.1493593917
 11
-7.85
 21
42.6990548558
  0
LINE
  5
2C9
100
AcDbEntity
  8
0
100
AcDbLine
 62
7
  6
CONTINUOUS
 10
-7.5
 20
21.6840562657
 11
-7.5
 21
21.4840562657
  0
LWPOLYLINE
  5
2CA
100
AcDbEntity
  8
RACCORDO
100
AcDbPolyline
 62
7
  6
CONTINUOUS
 90
19
 70
0
 10
-8.35
 20
43.6390329722
 10
-8.3481548083
 20
43.6723911341
 10
-8.3427596077
 20
43.7048185325
 10
-8.334050278
 20
43.7359650612
 10
-8.3221246187
 20
43.7658864983
 10
-8.3073602175
 20
43.7939262957
 10
-8.2907705733
 20
43.8189086046
 10
-8.2731551789
 20
43.8406328129
 10
-8.2548529672
 20
43.8595057262
 10
-8.2364552897
 20
43.8755853205
 10
-8.2183771842
 20
43.8891128032
 10
-8.2009220808
 20
43.9003796653
 10
-8.1844488859
 20
43.9096118471
 10
-8.1693354281
 20
43.9170208347
 10
-8.1555542536
 20
43.9229788275
 10
-8.1427692086
 20
43.9278868418
 10
-8.1308888786
 20
43.9319595195
 10
-8.1200877699
 20
43.9352898617
 10
-8.1103821083
 20
43.9380069203
  0
LWPOLYLINE
  5
2CB
100
AcDbEntity
  8
0
100
AcDbPolyline
 62
7
  6
CONTINUOUS
 90
11
 70
0
 10
11.35
 20
39.0996031532
 10
11.3475107574
 20
39.0954547779
 10
11.3276033677
 20
39.0871653049
 10
11.2878235124
 20
39.0788976521
 10
11.2282409791
 20
39.0706663238
 10
11.1489602958
 20
39.0624857606
 10
11.0501205476
 20
39.0543703138
 10
10.9318951332
 20
39.0463342208
 10
10.7944914599
 20
39.0383915797
 10
10.6381505807
 20
39.0305563244
 10
10.4631467705
 20
39.0228422007
  0
LWPOLYLINE
  5
2CC
100
AcDbEntity
  8
0
100
AcDbPolyline
 62
7
  6
CONTINUOUS
 90
16
 70
0
 10
-33.6159885716
 20
-16.4159437343
 10
-33.6097923796
 20
-16.4102143318
 10
-33.5974700651
 20
-16.3668867617
 10
-33.5852186155
 20
-16.2797397987
 10
-33.5730372354
 20
-16.1492652656
 10
-33.5610636777
 20
-15.9769386308
 10
-33.5493003014
 20
-15.76228482
 10
-33.5377447475
 20
-15.5057789075
 10
-33.5265276917
 20
-15.2103215849
 10
-33.5156529763
 20
-14.8754707043
 10
-33.5051167591
 20
-14.5016684137
 10
-33.4950381886
 20
-14.093141848
 10
-33.4854224596
 20
-13.6494968429
 10
-33.4762643774
 20
-13.1711275627
 10
-33.4676675058
 20
-12.6634436362
 10
-33.4521701355
 20
-11.5594663275
  0
LWPOLYLINE
  5
2CD
100
AcDbEntity
  8
0
100
AcDbPolyline
 62
7
  6
CONTINUOUS
 90
10
 70
0
 10
-19.4988602192
 20
-5.4132242969
 10
-19.4586866128
 20
-5.377151788
 10
-19.4139600481
 20
-5.3444035931
 10
-19.3646805252
 20
-5.3149797124
 10
-19.3104109729
 20
-5.2884726626
 10
-19.2515884624
 20
-5.2652899269
 10
-19.189524207
 20
-5.2466539545
 10
-19.1246552777
 20
-5.2329722284
 10
-19.0565446035
 20
-5.2238372655
 10
-18.9851921845
 20
-5.2192490658
  0
LWPOLYLINE
  5
2CE
100
AcDbEntity
  8
0
100
AcDbPolyline
 62
7
  6
CONTINUOUS
 90
8
 70
0
 10
-19.3057995519
 20
-2.7089098001
 10
-19.3807683489
 20
-2.7549691873
 10
-19.4474527518
 20
-2.808330523
 10
-19.5064658371
 20
-2.8697076397
 10
-19.5578127253
 20
-2.9395523944
 10
-19.6014951231
 20
-3.0180154064
 10
-19.6375113237
 20
-3.1049460565
 10
-19.6658613271
 20
-3.2003443447
  0
LWPOLYLINE
  5
2CF
100
AcDbEntity
  8
0
100
AcDbPolyline
 62
7
  6
CONTINUOUS
 90
19
 70
0
 10
20.4
 20
-45.4159437343
 10
20.4293900351
 20
-45.4570537748
 10
20.4600977877
 20
-45.4955399132
 10
20.4921232579
 20
-45.5314052179
 10
20.5255792049
 20
-45.5645955342
 10
20.5603528695
 20
-45.5952166494
 10
20.5961059739
 20
-45.6234889391
 10
20.6328342688
 20
-45.6494500001
 10
20.6705420035
 20
-45.6730771103
 10
20.7089036477
 20
-45.6944532182
 10
20.7478552581
 20
-45.713570709
 10
20.787460778
 20
-45.7304642204
 10
20.8275865075
 20
-45.7452342456
 10
20.8682763771
 20
-45.7578864423
 10
20.9094864563
 20
-45.7683911449
 10
20.9509512533
 20
-45.776757098
 10
20.9925822707
 20
-45.7829795325
 10
21.0344680058
 20
-45.7870506938
 10
21.0766084587
 20
-45.7889718072
  0
LINE
  5
2D0
100
AcDbEntity
  8
0
100
AcDbLine
 62
7
  6
CONTINUOUS
 10
-4.1
 20
45.3378123061
 11
-4.1
 21
44.9987045546
  0
LINE
  5
2D1
100
AcDbEntity
  8
0
100
AcDbLine
 62
7
  6
CONTINUOUS
 10
-3.6
 20
44.964519181
 11
-3.6
 21
44.4987807071
  0
LWPOLYLINE
  5
2D2
100
AcDbEntity
  8
RACCORDO
100
AcDbPolyline
 62
7
  6
CONTINUOUS
 90
16
 70
0
 10
-4.1
 20
45.3378123061
 10
-4.0978397369
 20
45.3738190855
 10
-4.0914748844
 20
45.4089628406
 10
-4.0811192876
 20
45.4427747428
 10
-4.0667690726
 20
45.4753475812
 10
-4.0488748812
 20
45.505716216
 10
-4.0289142172
 20
45.5322041865
 10
-4.0079453076
 20
45.5546500295
 10
-3.9864304239
 20
45.5735787091
 10
-3.9654430166
 20
45.5889396954
 10
-3.9458453364
 20
45.6010062632
 10
-3.9277515241
 20
45.6104665981
 10
-3.9109780656
 20
45.6179574514
 10
-3.895524904
 20
45.6238730173
 10
-3.8816498909
 20
45.6284482713
 10
-3.8694093559
 20
45.6319544234
  0
LINE
  5
2D3
100
AcDbEntity
  8
0
100
AcDbLine
 62
7
  6
CONTINUOUS
 10
-1.5603169999
 20
24.3229462664
 11
-1.6011039925
 21
24.0018563249
  0
LWPOLYLINE
  5
2D4
100
AcDbEntity
  8
0
100
AcDbPolyline
 62
7
  6
CONTINUOUS
 90
27
 70
0
 10
-1.92037
 20
24.7399462657
 10
-1.9060225318
 20
24.8192239569
 10
-1.8863472053
 20
24.8927241151
 10
-1.8613440205
 20
24.9604467406
 10
-1.8309325585
 20
25.0226803874
 10
-1.7951932382
 20
25.0791365013
 10
-1.7543673161
 20
25.1289494195
 10
-1.7083063656
 20
25.1720229463
 10
-1.6571588134
 20
25.2084532773
 10
-1.6016111955
 20
25.237663336
 10
-1.5407336131
 20
25.2595551397
 10
-1.4754559651
 20
25.2742266711
 10
-1.4092544841
 20
25.2813948024
 10
-1.3414296787
 20
25.2808062235
 10
-1.2726810403
 20
25.2727142445
 10
-1.2085832756
 20
25.2575956673
 10
-1.1507883457
 20
25.2352157272
 10
-1.0976442895
 20
25.205809189
 10
-1.0497699296
 20
25.1705571491
 10
-1.0067255191
 20
25.1291392341
 10
-0.968950805
 20
25.0818758175
 10
-0.9383838515
 20
25.0309091153
 10
-0.9157599206
 20
24.9761155506
 10
-0.9003437503
 20
24.9176187003
 10
-0.8918676192
 20
24.8579315111
 10
-0.8904739457
 20
24.7960729478
 10
-0.8960203115
 20
24.7330240455
  0
LINE
  5
2D5
100
AcDbEntity
  8
0
100
AcDbLine
 62
7
  6
CONTINUOUS
 10
0.34811
 20
25.5322462657
 11
0.06038
 21
23.9976862657
  0
LINE
  5
2D6
100
AcDbEntity
  8
0
100
AcDbLine
 62
7
  6
CONTINUOUS
 10
0.4812889101
 20
24.3766348108
 11
0.640531
 21
25.1819662657
  0
LWPOLYLINE
  5
2D7
100
AcDbEntity
  8
0
100
AcDbPolyline
 62
7
  6
CONTINUOUS
 90
17
 70
0
 10
-0.8960203115
 20
24.7330240455
 10
-0.9078117396
 20
24.6742408562
 10
-0.9255811969
 20
24.6215533228
 10
-0.9495957166
 20
24.5731315025
 10
-0.9799614214
 20
24.5289416181
 10
-1.0177484478
 20
24.488980541
 10
-1.0618866594
 20
24.4532513998
 10
-1.1092717691
 20
24.4217298046
 10
-1.1602064466
 20
24.394340501
 10
-1.2143880223
 20
24.3711587432
 10
-1.2678042004
 20
24.3523859039
 10
-1.3192614873
 20
24.3384517973
 10
-1.3699533767
 20
24.328926609
 10
-1.419448054
 20
24.3227222689
 10
-1.4676015813
 20
24.3194760867
 10
-1.5145578966
 20
24.3195507525
 10
-1.5603169999
 20
24.3229462664
  0
LWPOLYLINE
  5
2D8
100
AcDbEntity
  8
0
100
AcDbPolyline
 62
250
  6
CONTINUOUS
 90
10
 70
0
 10
33.3730280729
 20
25.1606587065
 10
33.3814807923
 20
25.1659177998
 10
33.3899563021
 20
25.1710493283
 10
33.3984546023
 20
25.1760532922
 10
33.4069757393
 20
25.180927692
 10
33.4155196666
 20
25.1856745271
 10
33.4240862451
 20
25.1902997959
 10
33.4326754284
 20
25.1948054976
 10
33.4412872628
 20
25.1991896328
 10
33.4499217485
 20
25.2034522017
  0
LWPOLYLINE
  5
2D9
100
AcDbEntity
  8
0
100
AcDbPolyline
 62
7
  6
CONTINUOUS
 90
14
 70
0
 10
-19.5148910901
 20
-5.0485057041
 10
-19.5970028595
 20
-5.0978089075
 10
-19.6699582215
 20
-5.1523929303
 10
-19.7344229312
 20
-5.213668912
 10
-19.7916842363
 20
-5.2832102376
 10
-19.8430440627
 20
-5.3617786534
 10
-19.8872004845
 20
-5.4486124131
 10
-19.9215349722
 20
-5.5429996624
 10
-19.9459932047
 20
-5.6462511169
 10
-19.960629503
 20
-5.7570560611
 10
-19.9629883001
 20
-5.8707704947
 10
-19.9522510736
 20
-5.9858464178
 10
-19.9292363459
 20
-6.1038318303
 10
-19.8939441169
 20
-6.2247267323
  0
LWPOLYLINE
  5
2DA
100
AcDbEntity
  8
0
100
AcDbPolyline
 62
7
  6
CONTINUOUS
 90
33
 70
0
 10
-18.6454738397
 20
-4.4570912577
 10
-18.5390591039
 20
-4.4048757725
 10
-18.4435216648
 20
-4.3467929165
 10
-18.3588615223
 20
-4.2828426898
 10
-18.2855035578
 20
-4.2133828878
 10
-18.2230228899
 20
-4.138055715
 10
-18.1701448747
 20
-4.055787785
 10
-18.1263861349
 20
-3.964745108
 10
-18.0922300477
 20
-3.8667616737
 10
-18.0678521006
 20
-3.7662660657
 10
-18.0540533363
 20
-3.6623036208
 10
-18.050032712
 20
-3.5558290022
 10
-18.0535625871
 20
-3.454134783
 10
-18.0644500339
 20
-3.3593005736
 10
-18.08288798
 20
-3.2692467636
 10
-18.1072275682
 20
-3.1850270948
 10
-18.1375558601
 20
-3.1070846531
 10
-18.173785794
 20
-3.0349763526
 10
-18.2140073279
 20
-2.9684266765
 10
-18.2565403205
 20
-2.9077001853
 10
-18.3030649129
 20
-2.8525323185
 10
-18.3567114869
 20
-2.8018538782
 10
-18.4184624773
 20
-2.7542894715
 10
-18.4873354492
 20
-2.7112144912
 10
-18.5635134795
 20
-2.6756859177
 10
-18.6485269247
 20
-2.648151447
 10
-18.7408454285
 20
-2.6281633832
 10
-18.8360609985
 20
-2.6174356181
 10
-18.9356157291
 20
-2.6163910753
 10
-19.038067526
 20
-2.6246068314
 10
-19.1346821139
 20
-2.6425280084
 10
-19.2231594374
 20
-2.6708661938
 10
-19.3057995519
 20
-2.7089098001
  0
LINE
  5
2DB
100
AcDbEntity
  8
0
100
AcDbLine
 62
7
  6
CONTINUOUS
 10
11.1960930686
 20
-6.0159437343
 11
10.0700680665
 21
-6.0159437343
  0
LINE
  5
2DC
100
AcDbEntity
  8
0
100
AcDbLine
 62
7
  6
CONTINUOUS
 10
-10.0700680665
 20
-6.0159437343
 11
-11.1960930686
 21
-6.0159437343
  0
LINE
  5
2DD
100
AcDbEntity
  8
0
100
AcDbLine
 62
7
  6
CONTINUOUS
 10
-20.793534
 20
-5.0310327343
 11
-21.065387
 21
-5.0310327343
  0
LINE
  5
2DE
100
AcDbEntity
  8
0
100
AcDbLine
 62
7
  6
CONTINUOUS
 10
-11.1960930686
 20
-3.8159437343
 11
-10.0700680665
 21
-3.8159437343
  0
LINE
  5
2DF
100
AcDbEntity
  8
0
100
AcDbLine
 62
7
  6
CONTINUOUS
 10
10.0700680665
 20
-3.8159437343
 11
11.1960930686
 21
-3.8159437343
  0
LINE
  5
2E0
100
AcDbEntity
  8
0
100
AcDbLine
 62
7
  6
CONTINUOUS
 10
-19.7875325974
 20
-3.7834127343
 11
-19.5160718602
 21
-3.7834127343
  0
LINE
  5
2E1
100
AcDbEntity
  8
0
100
AcDbLine
 62
7
  6
CONTINUOUS
 10
-19.8939441169
 20
-6.2247267323
 11
-20.793534
 21
-6.2089547343
  0
LINE
  5
2E2
100
AcDbEntity
  8
0
100
AcDbLine
 62
7
  6
CONTINUOUS
 10
-21.065387
 20
-6.4920647343
 11
-19.5275902179
 21
-6.5197467304
  0
LWPOLYLINE
  5
2E3
100
AcDbEntity
  8
0
100
AcDbPolyline
 62
7
  6
CONTINUOUS
 90
19
 70
0
 10
-20.3383726082
 20
-2.9834287389
 10
-20.2708328301
 20
-2.9867056298
 10
-20.2076249399
 20
-2.9953998741
 10
-20.1487489375
 20
-3.0095114717
 10
-20.0939612788
 20
-3.0291627486
 10
-20.0435055081
 20
-3.0542313788
 10
-19.9981122574
 20
-3.0843503847
 10
-19.9584853538
 20
-3.1195534117
 10
-19.9239209704
 20
-3.1598068145
 10
-19.8930382578
 20
-3.2046426791
 10
-19.8651428691
 20
-3.2541403309
 10
-19.8409291513
 20
-3.3082204445
 10
-19.8210992961
 20
-3.3661771293
 10
-19.8061856291
 20
-3.428164004
 10
-19.7956558246
 20
-3.49402745
 10
-19.7886150977
 20
-3.5626007206
 10
-19.7847651867
 20
-3.6334949005
 10
-19.7844043533
 20
-3.7070989051
 10
-19.7875325974
 20
-3.7834127343
  0
LWPOLYLINE
  5
2E4
100
AcDbEntity
  8
0
100
AcDbPolyline
 62
7
  6
CONTINUOUS
 90
16
 70
0
 10
-18.9851921845
 20
-5.2192490658
 10
-18.9087681232
 20
-5.2241743069
 10
-18.836601956
 20
-5.2354532067
 10
-18.7686936828
 20
-5.2530857653
 10
-18.7052620382
 20
-5.2772327779
 10
-18.6460882877
 20
-5.3077334493
 10
-18.5905162277
 20
-5.3441053938
 10
-18.5374565991
 20
-5.3870933591
 10
-18.4879986611
 20
-5.4359525973
 10
-18.4447539869
 20
-5.4879664793
 10
-18.4085706948
 20
-5.5419436127
 10
-18.3786006666
 20
-5.5990753898
 10
-18.3549111207
 20
-5.6602193579
 10
-18.3375244633
 20
-5.7256613661
 10
-18.3264182882
 20
-5.7951155652
 10
-18.3215925954
 20
-5.8685819553
  0
LWPOLYLINE
  5
2E5
100
AcDbEntity
  8
0
100
AcDbPolyline
 62
7
  6
CONTINUOUS
 90
10
 70
0
 10
-18.9096046502
 20
-2.9030638658
 10
-18.8513615281
 20
-2.907365009
 10
-18.7955450288
 20
-2.9158622479
 10
-18.7421551522
 20
-2.9285555825
 10
-18.6906225669
 20
-2.9459121814
 10
-18.6415166044
 20
-2.9674648759
 10
-18.5965452594
 20
-2.9918121608
 10
-18.5562778635
 20
-3.0184868676
 10
-18.5201450851
 20
-3.0479561647
 10
-18.4881469242
 20
-3.0802200521
  0
LWPOLYLINE
  5
2E6
100
AcDbEntity
  8
0
100
AcDbPolyline
 62
250
  6
CONTINUOUS
 90
10
 70
0
 10
21.0766024408
 20
-45.7889718072
 10
21.0818615341
 20
-45.7974245266
 10
21.0869930626
 20
-45.8059000365
 10
21.0919970265
 20
-45.8143983366
 10
21.0968714263
 20
-45.8229194736
 10
21.1016182615
 20
-45.8314634009
 10
21.1062435302
 20
-45.8400299794
 10
21.1107492319
 20
-45.8486191627
 10
21.1151333671
 20
-45.8572309971
 10
21.119395936
 20
-45.8658654828
  0
LINE
  5
2E7
100
AcDbEntity
  8
0
100
AcDbLine
 62
7
  6
CONTINUOUS
 10
-1.1
 20
-16.1120368029
 11
-1.1
 21
-14.9860118008
  0
LINE
  5
2E8
100
AcDbEntity
  8
0
100
AcDbLine
 62
7
  6
CONTINUOUS
 10
-1.1
 20
5.1541243322
 11
-1.1
 21
6.2801493343
  0
LWPOLYLINE
  5
2E9
100
AcDbEntity
  8
0
100
AcDbPolyline
 62
7
  6
CONTINUOUS
 90
19
 70
0
 10
33.0
 20
24.4840562657
 10
33.041110003
 20
24.5134462711
 10
33.0795961106
 20
24.5441539942
 10
33.115461391
 20
24.5761794351
 10
33.1486516896
 20
24.6096353531
 10
33.1792727926
 20
24.6444089887
 10
33.2075450737
 20
24.6801620641
 10
33.233506128
 20
24.7168903274
 10
33.2571332349
 20
24.7545980304
 10
33.2785093464
 20
24.7929596505
 10
33.2976268473
 20
24.8319112461
 10
33.3145203729
 20
24.8715167588
 10
33.3292904156
 20
24.9116424908
 10
33.3419426311
 20
24.9523323713
 10
33.3524473533
 20
24.993542471
 10
33.3608133262
 20
25.0350073048
 10
33.3670357787
 20
25.0766383774
 10
33.3711069533
 20
25.1185241839
 10
33.3730280729
 20
25.1606647244
  0
LWPOLYLINE
  5
2EA
100
AcDbEntity
  8
0
100
AcDbPolyline
 62
7
  6
CONTINUOUS
 90
30
 70
0
 10
-18.5737469122
 20
-6.7198739295
 10
-18.4731466365
 20
-6.6632157353
 10
-18.3836096879
 20
-6.6011839349
 10
-18.3051360663
 20
-6.5337785282
 10
-18.2381282216
 20
-6.4614446055
 10
-18.1821837039
 20
-6.3837370766
 10
-18.1360951643
 20
-6.2993206706
 10
-18.0990720664
 20
-6.2073100539
 10
-18.0719049466
 20
-6.1085905601
 10
-18.0557580646
 20
-6.0044829193
 10
-18.0510205617
 20
-5.8918453074
 10
-18.0573032967
 20
-5.7738195484
 10
-18.0746031065
 20
-5.6611518449
 10
-18.1035853242
 20
-5.5567167588
 10
-18.1435846167
 20
-5.4576397281
 10
-18.1926018218
 20
-5.3660432695
 10
-18.2506930447
 20
-5.2821597639
 10
-18.3178021803
 20
-5.2057568305
 10
-18.3917617506
 20
-5.1382598436
 10
-18.4714885478
 20
-5.0798300059
 10
-18.5580657797
 20
-5.0303061148
 10
-18.6525755913
 20
-4.9906299366
 10
-18.757692672
 20
-4.9606940291
 10
-18.8707423325
 20
-4.9406058344
 10
-18.984782649
 20
-4.9316294458
 10
-19.1004234109
 20
-4.9347728317
 10
-19.2170548288
 20
-4.9490280235
 10
-19.3259056118
 20
-4.9726352084
 10
-19.4242886685
 20
-5.0058944598
 10
-19.5148910901
 20
-5.0485057041
  0
LWPOLYLINE
  5
2EB
100
AcDbEntity
  8
0
100
AcDbPolyline
 62
7
  6
CONTINUOUS
 90
34
 70
0
 10
-20.3466185187
 20
-2.6944291389
 10
-20.418100646
 20
-2.6976313714
 10
-20.4859921296
 20
-2.7052023496
 10
-20.5502929695
 20
-2.7171420736
 10
-20.6112349449
 20
-2.7337903675
 10
-20.6685862766
 20
-2.754807407
 10
-20.7216516272
 20
-2.7791737198
 10
-20.7701047345
 20
-2.8070218798
 10
-20.8142718606
 20
-2.8382193129
 10
-20.8544364551
 20
-2.8713488244
 10
-20.8900388691
 20
-2.9056542198
 10
-20.9216387515
 20
-2.9418916935
 10
-20.9511984983
 20
-2.9809126341
 10
-20.9794817746
 20
-3.0228386966
 10
-21.0057249154
 20
-3.0675482259
 10
-21.0295993224
 20
-3.1155276453
 10
-21.0513064841
 20
-3.1669953505
 10
-21.0706449119
 20
-3.2217329458
 10
-21.0866815421
 20
-3.2795716671
 10
-21.0993365533
 20
-3.3405927329
 10
-21.1086897668
 20
-3.4047149248
 10
-21.1140475823
 20
-3.4715258234
 10
-21.1159229565
 20
-3.541100798
 10
-21.1138029327
 20
-3.6133644794
 10
-21.105455041
 20
-3.6876783401
 10
-21.0912064273
 20
-3.7647360576
 10
-21.0707299458
 20
-3.8438439545
 10
-21.0408116888
 20
-3.9222824707
 10
-21.000684695
 20
-4.0003750506
 10
-20.9511159258
 20
-4.0777982499
 10
-20.8911923578
 20
-4.1508621754
 10
-20.8206096498
 20
-4.2183368627
 10
-20.739672143
 20
-4.2814522762
 10
-20.6483798375
 20
-4.340208416
  0
LINE
  5
2EC
100
AcDbEntity
  8
0
100
AcDbLine
 62
7
  6
CONTINUOUS
 10
1.1
 20
6.2801493343
 11
1.1
 21
5.1541243322
  0
LINE
  5
2ED
100
AcDbEntity
  8
0
100
AcDbLine
 62
7
  6
CONTINUOUS
 10
1.1
 20
-14.9860118008
 11
1.1
 21
-16.1120368029
  0
LINE
  5
2EE
100
AcDbEntity
  8
0
100
AcDbLine
 62
7
  6
CONTINUOUS
 10
1.82846
 20
25.1819662657
 11
1.82846
 21
25.5322462657
  0
LINE
  5
2EF
100
AcDbEntity
  8
0
100
AcDbLine
 62
7
  6
CONTINUOUS
 10
3.6
 20
44.964519181
 11
3.6
 21
44.4987807071
  0
LINE
  5
2F0
100
AcDbEntity
  8
0
100
AcDbLine
 62
7
  6
CONTINUOUS
 10
4.1
 20
45.3378123061
 11
4.1
 21
44.9987045546
  0
LWPOLYLINE
  5
2F1
100
AcDbEntity
  8
0
100
AcDbPolyline
 62
7
  6
CONTINUOUS
 90
4
 70
0
 10
-33.2349977679
 20
-34.4896321466
 10
-33.1661339813
 20
-34.4240841271
 10
-33.0864294304
 20
-34.3648479728
 10
-32.9999983446
 20
-34.3159471371
  0
LWPOLYLINE
  5
2F2
100
AcDbEntity
  8
0
100
AcDbPolyline
 62
7
  6
CONTINUOUS
 90
19
 70
0
 10
-20.4
 20
35.5840562657
 10
-20.4293900351
 20
35.6251663062
 10
-20.4600977877
 20
35.6636524445
 10
-20.4921232579
 20
35.6995177493
 10
-20.5255792049
 20
35.7327080656
 10
-20.5603528695
 20
35.7633291808
 10
-20.5961059739
 20
35.7916014704
 10
-20.6328342688
 20
35.8175625315
 10
-20.6705420035
 20
35.8411896417
 10
-20.7089036477
 20
35.8625657496
 10
-20.7478552581
 20
35.8816832404
 10
-20.787460778
 20
35.8985767518
 10
-20.8275865075
 20
35.913346777
 10
-20.8682763771
 20
35.9259989737
 10
-20.9094864563
 20
35.9365036763
 10
-20.9509512533
 20
35.9448696294
 10
-20.9925822707
 20
35.9510920639
 10
-21.0344680058
 20
35.9551632252
 10
-21.0766084587
 20
35.9570843386
  0
LWPOLYLINE
  5
2F3
100
AcDbEntity
  8
0
100
AcDbPolyline
 62
250
  6
CONTINUOUS
 90
10
 70
0
 10
-21.0766024408
 20
35.9570843386
 10
-21.0818615341
 20
35.965537058
 10
-21.0869930626
 20
35.9740125678
 10
-21.0919970265
 20
35.982510868
 10
-21.0968714263
 20
35.991032005
 10
-21.1016182615
 20
35.9995759323
 10
-21.1062435302
 20
36.0081425108
 10
-21.1107492319
 20
36.0167316941
 10
-21.1151333671
 20
36.0253435285
 10
-21.119395936
 20
36.0339780141
  0
LWPOLYLINE
  5
2F4
100
AcDbEntity
  8
0
100
AcDbPolyline
 62
7
  6
CONTINUOUS
 90
30
 70
0
 10
-2.32486
 20
23.3763562657
 10
-2.3075609938
 20
23.2639230481
 10
-2.2803659352
 20
23.1587824964
 10
-2.2432748244
 20
23.0609346106
 10
-2.1958314346
 20
22.9702445943
 10
-2.1384919926
 20
22.8868472439
 10
-2.0726251781
 20
22.811146948
 10
-1.9980270685
 20
22.7424286294
 10
-1.9149015865
 20
22.6814073654
 10
-1.8252291792
 20
22.6306327765
 10
-1.7294142988
 20
22.5907374138
 10
-1.6270524931
 20
22.5610887261
 10
-1.5189108522
 20
22.5423386809
 10
-1.4015763605
 20
22.5346488379
 10
-1.2784620335
 20
22.5378576374
 10
-1.1605740077
 20
22.5521323669
 10
-1.0511981019
 20
22.5776568956
 10
-0.9470484974
 20
22.6142473543
 10
-0.8492738741
 20
22.6615194228
 10
-0.7569833128
 20
22.7209516395
 10
-0.6710677327
 20
22.7910654661
 10
-0.5953485715
 20
22.8670409671
 10
-0.5308288766
 20
22.9477327566
 10
-0.4765056005
 20
23.0342862205
 10
-0.4331910391
 20
23.1253175811
 10
-0.4014170463
 20
23.2222688126
 10
-0.380651768
 20
23.3236979407
 10
-0.3701119385
 20
23.4238952654
 10
-0.37000754
 20
23.5227095154
 10
-0.3801285901
 20
23.6202919619
  0
LWPOLYLINE
  5
2F5
100
AcDbEntity
  8
0
100
AcDbPolyline
 62
7
  6
CONTINUOUS
 90
31
 70
0
 10
-0.00634
 20
23.3680162657
 10
0.010460814
 20
23.2568427686
 10
0.0365608272
 20
23.1532078098
 10
0.0719600394
 20
23.0571113892
 10
0.1169500196
 20
22.9686056322
 10
0.171239199
 20
22.8876384135
 10
0.233952871
 20
22.8140533568
 10
0.3051679741
 20
22.7471169025
 10
0.3848075698
 20
22.6875626103
 10
0.4717661363
 20
22.6374347822
 10
0.5663297986
 20
22.5971320855
 10
0.6682124316
 20
22.5662558529
 10
0.7754501387
 20
22.5456543845
 10
0.8909818078
 20
22.5355230053
 10
1.0118685508
 20
22.5356663902
 10
1.1273298074
 20
22.5463468635
 10
1.234070097
 20
22.5677551501
 10
1.3353849001
 20
22.599700525
 10
1.4303800978
 20
22.6418731375
 10
1.5186619756
 20
22.6940543772
 10
1.600624248
 20
22.7564628544
 10
1.6765539386
 20
22.8294445499
 10
1.7481634934
 20
22.914491942
 10
1.8137404664
 20
23.0101125524
 10
1.8684345434
 20
23.1121749258
 10
1.9108749053
 20
23.2208273677
 10
1.9424323712
 20
23.3359215727
 10
1.9623690844
 20
23.4528811693
 10
1.9700835153
 20
23.5731320165
 10
1.9661771936
 20
23.6952482553
 10
1.9517168513
 20
23.8103759373
  0
LINE
  5
2F6
100
AcDbEntity
  8
0
100
AcDbLine
 62
7
  6
CONTINUOUS
 10
7.5
 20
21.4840562657
 11
7.5
 21
21.6840562657
  0
LINE
  5
2F7
100
AcDbEntity
  8
0
100
AcDbLine
 62
7
  6
CONTINUOUS
 10
7.85
 20
43.1493593917
 11
7.85
 21
42.6990548558
  0
LWPOLYLINE
  5
2F8
100
AcDbEntity
  8
0
100
AcDbPolyline
 62
7
  6
CONTINUOUS
 90
4
 70
0
 10
33.2355011409
 20
24.6582849983
 10
33.1661338767
 20
24.5921966341
 10
33.086429378
 20
24.5329604933
 10
32.9999983446
 20
24.4840596685
  0
LWPOLYLINE
  5
2F9
100
AcDbEntity
  8
0
100
AcDbPolyline
 62
7
  6
CONTINUOUS
 90
19
 70
0
 10
1.9517168513
 20
23.8103759373
 10
1.9269627721
 20
23.9152661099
 10
1.8916546724
 20
24.0131677256
 10
1.8460784328
 20
24.1049736944
 10
1.7890867742
 20
24.1920006878
 10
1.7218269759
 20
24.2729320341
 10
1.6480267555
 20
24.3447106281
 10
1.5684531226
 20
24.4068040733
 10
1.4823390676
 20
24.4597447662
 10
1.3911112804
 20
24.5020727906
 10
1.2936509606
 20
24.5334549956
 10
1.1910769085
 20
24.5542245321
 10
1.0881722143
 20
24.5639209365
 10
0.9862378281
 20
24.5628354562
 10
0.8839727999
 20
24.5506768439
 10
0.78225737
 20
24.5261108937
 10
0.6813849517
 20
24.4886928706
 10
0.5810621318
 20
24.4388675096
 10
0.4812889101
 20
24.3766348108
  0
LWPOLYLINE
  5
2FA
100
AcDbEntity
  8
0
100
AcDbPolyline
 62
7
  6
CONTINUOUS
 90
11
 70
0
 10
-0.3801285901
 20
23.6202919619
 10
-0.3990618756
 20
23.7113867186
 10
-0.4267832429
 20
23.7944428623
 10
-0.4633168454
 20
23.8710113162
 10
-0.50732193
 20
23.9404889643
 10
-0.5583204924
 20
24.0027548804
 10
-0.6167905367
 20
24.0579299908
 10
-0.6828253221
 20
24.1057739573
 10
-0.7564559349
 20
24.1462066674
 10
-0.8376512886
 20
24.1793082337
 10
-0.9264113834
 20
24.2050786562
  0
LINE
  5
2FB
100
AcDbEntity
  8
0
100
AcDbLine
 62
7
  6
CONTINUOUS
 10
8.35
 20
43.6390329722
 11
8.35
 21
43.1989787034
  0
LINE
  5
2FC
100
AcDbEntity
  8
0
100
AcDbLine
 62
7
  6
CONTINUOUS
 10
9.45
 20
41.3371316064
 11
9.45
 21
40.8993290045
  0
LINE
  5
2FD
100
AcDbEntity
  8
0
100
AcDbLine
 62
7
  6
CONTINUOUS
 10
10.1
 20
41.8660979591
 11
10.1
 21
41.3992528521
  0
LINE
  5
2FE
100
AcDbEntity
  8
0
100
AcDbLine
 62
7
  6
CONTINUOUS
 10
11.35
 20
39.540191574
 11
11.35
 21
39.0996031532
  0
LINE
  5
2FF
100
AcDbEntity
  8
0
100
AcDbLine
 62
7
  6
CONTINUOUS
 10
11.85
 20
40.0261858505
 11
11.85
 21
39.5995270008
  0
LWPOLYLINE
  5
300
100
AcDbEntity
  8
0
100
AcDbPolyline
 62
7
  6
CONTINUOUS
 90
19
 70
0
 10
-33.0
 20
-34.3159437343
 10
-33.0411100405
 20
-34.3453337694
 10
-33.0795961789
 20
-34.376041522
 10
-33.1154614836
 20
-34.4080669922
 10
-33.1486517999
 20
-34.4415229392
 10
-33.1792729151
 20
-34.4762966038
 10
-33.2075452047
 20
-34.5120497082
 10
-33.2335062658
 20
-34.5487780031
 10
-33.257133376
 20
-34.5864857378
 10
-33.2785094839
 20
-34.624847382
 10
-33.2976269747
 20
-34.6637989924
 10
-33.3145204861
 20
-34.7034045123
 10
-33.3292905113
 20
-34.7435302418
 10
-33.341942708
 20
-34.7842201114
 10
-33.3524474106
 20
-34.8254301906
 10
-33.3608133637
 20
-34.8668949876
 10
-33.3670357982
 20
-34.908526005
 10
-33.3711069595
 20
-34.9504117401
 10
-33.3730280729
 20
-34.9925521931
  0
LINE
  5
301
100
AcDbEntity
  8
0
100
AcDbLine
 62
7
  6
CONTINUOUS
 10
-17.4
 20
11.5840562657
 11
-17.6
 21
11.5840562657
  0
LWPOLYLINE
  5
302
100
AcDbEntity
  8
ASSI
100
AcDbPolyline
 62
7
  6
CONTINUOUS
 90
15
 70
0
 10
33.6159885716
 20
-16.4159437343
 10
33.6097923796
 20
-16.4102143318
 10
33.5974700651
 20
-16.3668867617
 10
33.5852186155
 20
-16.2797397987
 10
33.5730372354
 20
-16.1492652656
 10
33.5610636777
 20
-15.9769386308
 10
33.5493003014
 20
-15.76228482
 10
33.5377447475
 20
-15.5057789075
 10
33.5265276917
 20
-15.2103215849
 10
33.5156529763
 20
-14.8754707043
 10
33.5051167591
 20
-14.5016684137
 10
33.4950381886
 20
-14.093141848
 10
33.4854224596
 20
-13.6494968429
 10
33.4762643774
 20
-13.1711275627
 10
33.4676675058
 20
-12.6634436362
  0
LWPOLYLINE
  5
303
100
AcDbEntity
  8
0
100
AcDbPolyline
 62
7
  6
CONTINUOUS
 90
4
 70
0
 10
-20.5742287326
 20
35.8195574066
 10
-20.5081403684
 20
35.7501901424
 10
-20.4489042276
 20
35.6704856437
 10
-20.4000034028
 20
35.5840546103
  0
LWPOLYLINE
  5
304
100
AcDbEntity
  8
RACCORDO
100
AcDbPolyline
 62
250
  6
CONTINUOUS
 90
14
 70
0
 10
-14.0
 20
37.6224358193
 10
-13.996357841
 20
37.6168628644
 10
-13.9672498017
 20
37.6057331007
 10
-13.9092506655
 20
37.5946610071
 10
-13.8225404487
 20
37.5836562126
 10
-13.7071454262
 20
37.57272199
 10
-13.5630448641
 20
37.5618686415
 10
-13.3905817419
 20
37.5511318553
 10
-13.1904111479
 20
37.5405524958
 10
-12.9632921481
 20
37.530163812
 10
-12.7095536892
 20
37.5199748163
 10
-12.4292999207
 20
37.5099896202
 10
-12.1227039327
 20
37.5002190595
 10
-11.43428343
 20
37.4814519564
  0
LWPOLYLINE
  5
305
100
AcDbEntity
  8
0
100
AcDbPolyline
 62
7
  6
CONTINUOUS
 90
12
 70
0
 10
-11.35
 20
39.0996031532
 10
-11.3475107574
 20
39.0954547779
 10
-11.3276033677
 20
39.0871653049
 10
-11.2878235124
 20
39.0788976521
 10
-11.2282409791
 20
39.0706663238
 10
-11.1489602958
 20
39.0624857606
 10
-11.0501205476
 20
39.0543703138
 10
-10.9318951332
 20
39.0463342208
 10
-10.79449146
 20
39.0383915797
 10
-10.6381505807
 20
39.0305563244
 10
-10.4631467705
 20
39.0228422007
 10
-10.0584106243
 20
39.0078312447
  0
LINE
  5
306
100
AcDbEntity
  8
0
100
AcDbLine
 62
7
  6
CONTINUOUS
 10
14.0
 20
37.6224358193
 11
14.0
 21
36.2000448373
  0
LINE
  5
307
100
AcDbEntity
  8
0
100
AcDbLine
 62
250
  6
CONTINUOUS
 10
14.9
 20
-45.8838066745
 11
14.9000000056
 21
-45.4159437343
  0
LWPOLYLINE
  5
308
100
AcDbEntity
  8
0
100
AcDbPolyline
 62
250
  6
CONTINUOUS
 90
10
 70
0
 10
-33.3730280729
 20
-34.9925461751
 10
-33.3814807923
 20
-34.9978052684
 10
-33.3899563021
 20
-35.0029367969
 10
-33.3984546023
 20
-35.0079407608
 10
-33.4069757393
 20
-35.0128151606
 10
-33.4155196666
 20
-35.0175619958
 10
-33.4240862451
 20
-35.0221872645
 10
-33.4326754284
 20
-35.0266929662
 10
-33.4412872628
 20
-35.0310771015
 10
-33.4499217485
 20
-35.0353396703
  0
LWPOLYLINE
  5
309
100
AcDbEntity
  8
RACCORDO
100
AcDbPolyline
 62
250
  6
CONTINUOUS
 90
12
 70
0
 10
-11.85
 20
40.0261858505
 10
-11.8464730111
 20
40.0211404085
 10
-11.8193048304
 20
40.011309956
 10
-11.7655043028
 20
40.001532768
 10
-11.6852455955
 20
39.9918195167
 10
-11.5785714618
 20
39.9821753835
 10
-11.4454874903
 20
39.9726114651
 10
-11.2863351633
 20
39.963160819
 10
-11.101747879
 20
39.9538610614
 10
-10.8924631242
 20
39.9447432149
 10
-10.658820166
 20
39.935816669
 10
-10.1190187678
 20
39.9185624214
  0
LWPOLYLINE
  5
30A
100
AcDbEntity
  8
0
100
AcDbPolyline
 62
7
  6
CONTINUOUS
 90
12
 70
0
 10
-9.45
 20
40.8993290045
 10
-9.4475513618
 20
40.8955747786
 10
-9.4279698689
 20
40.888074108
 10
-9.3888474687
 20
40.880596765
 10
-9.3302652484
 20
40.8731582473
 10
-9.2523446286
 20
40.8657739726
 10
-9.1552471117
 20
40.8584592457
 10
-9.039173947
 20
40.8512292277
 10
-8.904365714
 20
40.8440989038
 10
-8.7511018233
 20
40.8370830528
 10
-8.5796999378
 20
40.8301962159
 10
-8.1839400658
 20
40.8168663841
  0
LINE
  5
30B
100
AcDbEntity
  8
0
100
AcDbLine
 62
250
  6
CONTINUOUS
 10
33.4678629402
 20
18.9840562657
 11
33.0
 21
18.9840562713
  0
LWPOLYLINE
  5
30C
100
AcDbEntity
  8
0
100
AcDbPolyline
 62
7
  6
CONTINUOUS
 90
13
 70
0
 10
-14.0
 20
36.2000448373
 10
-13.9901779926
 20
36.1909131977
 10
-13.9607939714
 20
36.1817815581
 10
-13.9119709385
 20
36.1726881437
 10
-13.8436274081
 20
36.1636331146
 10
-13.7558448659
 20
36.1546163107
 10
-13.6489907705
 20
36.1456754764
 10
-13.5229851768
 20
36.1368109301
 10
-13.3779080298
 20
36.1280223533
 10
-13.2143666243
 20
36.1193465353
 10
-13.0322835606
 20
36.1107839486
 10
-12.8317362383
 20
36.1023341205
 10
-12.3776934171
 20
36.0858794746
  0
LWPOLYLINE
  5
30D
100
AcDbEntity
  8
RACCORDO
100
AcDbPolyline
 62
250
  6
CONTINUOUS
 90
12
 70
0
 10
-10.1
 20
41.8660979591
 10
-10.0966536286
 20
41.8615608199
 10
-10.0710848777
 20
41.8527694227
 10
-10.0202397219
 20
41.8439891565
 10
-9.9441823884
 20
41.8352548778
 10
-9.8432664702
 20
41.826607266
 10
-9.7180201074
 20
41.8180797787
 10
-9.5687083051
 20
41.8096809901
 10
-9.3953886501
 20
41.8014140761
 10
-9.1981314063
 20
41.7932890413
 10
-8.9775814778
 20
41.7853383176
 10
-8.4706347243
 20
41.7700964828
  0
LWPOLYLINE
  5
30E
100
AcDbEntity
  8
0
100
AcDbPolyline
 62
7
  6
CONTINUOUS
 90
9
 70
0
 10
-8.35
 20
43.1989787034
 10
-8.3477766773
 20
43.1956569079
 10
-8.3305342227
 20
43.1890339007
 10
-8.295942249
 20
43.1824316049
 10
-8.2441078207
 20
43.1758498928
 10
-8.1753521321
 20
43.1693295482
 10
-8.0895701131
 20
43.1628709521
 10
-7.9868668338
 20
43.1564737236
 10
-7.8678786997
 20
43.1501775033
  0
LINE
  5
30F
100
AcDbEntity
  8
0
100
AcDbLine
 62
250
  6
CONTINUOUS
 10
20.1
 20
-45.8838066745
 11
20.1
 21
-45.4159437343
  0
LWPOLYLINE
  5
310
100
AcDbEntity
  8
0
100
AcDbPolyline
 62
7
  6
CONTINUOUS
 90
15
 70
0
 10
-11.5
 20
-46.0319323059
 10
-11.4942705975
 20
-46.0257361139
 10
-11.4509430274
 20
-46.0134137994
 10
-11.3637960644
 20
-46.0011623498
 10
-11.2333215313
 20
-45.9889809697
 10
-11.0609948965
 20
-45.977007412
 10
-10.8463410857
 20
-45.9652440357
 10
-10.5898351732
 20
-45.9536884818
 10
-10.2943778506
 20
-45.942471426
 10
-9.95952697
 20
-45.9315967106
 10
-9.5857246794
 20
-45.9210604934
 10
-9.1771981137
 20
-45.9109819229
 10
-8.7335531086
 20
-45.9013661939
 10
-8.2551838284
 20
-45.8922081117
 10
-7.7474999019
 20
-45.8836112401
  0
LWPOLYLINE
  5
311
100
AcDbEntity
  8
0
100
AcDbPolyline
 62
7
  6
CONTINUOUS
 90
16
 70
0
 10
-1.2224018465
 20
22.8548428776
 10
-1.2973145275
 20
22.8425488341
 10
-1.3753847237
 20
22.8386658996
 10
-1.4497047141
 20
22.8428837863
 10
-1.5184332025
 20
22.8555432862
 10
-1.5834114851
 20
22.8763036071
 10
-1.6432557285
 20
22.9038320843
 10
-1.6974580738
 20
22.9378628272
 10
-1.74652638
 20
22.9786617263
 10
-1.7906003912
 20
23.025693789
 10
-1.8294505313
 20
23.0791998086
 10
-1.8633063764
 20
23.1389389919
 10
-1.8929963986
 20
23.2036539664
 10
-1.9187967553
 20
23.2729256082
 10
-1.9404312891
 20
23.3471730413
 10
-1.9579
 20
23.4263962657
  0
LINE
  5
312
100
AcDbEntity
  8
0
100
AcDbLine
 62
7
  6
CONTINUOUS
 10
-1.9579
 20
23.4263962657
 11
-2.32486
 21
23.3763562657
  0
LINE
  5
313
100
AcDbEntity
  8
0
100
AcDbLine
 62
7
  6
CONTINUOUS
 10
0.3773
 20
23.3972062657
 11
-0.00634
 21
23.3680162657
  0
LINE
  5
314
100
AcDbEntity
  8
0
100
AcDbLine
 62
7
  6
CONTINUOUS
 10
-7.5
 20
21.4840562657
 11
7.5
 21
21.4840562657
  0
LINE
  5
315
100
AcDbEntity
  8
0
100
AcDbLine
 62
7
  6
CONTINUOUS
 10
7.5
 20
21.6840562657
 11
-7.5
 21
21.6840562657
  0
LWPOLYLINE
  5
316
100
AcDbEntity
  8
0
100
AcDbPolyline
 62
7
  6
CONTINUOUS
 90
8
 70
0
 10
-11.85
 20
39.5995270008
 10
-11.8403533544
 20
39.5912040997
 10
-11.811506744
 20
39.5828811985
 10
-11.7636001581
 20
39.5745986875
 10
-11.6965409508
 20
39.5663567628
 10
-11.6104217681
 20
39.5581552283
 10
-11.5056605365
 20
39.5500338851
 10
-11.3821666418
 20
39.5419931228
  0
LWPOLYLINE
  5
317
100
AcDbEntity
  8
RACCORDO
100
AcDbPolyline
 62
250
  6
CONTINUOUS
 90
11
 70
0
 10
-8.35
 20
43.6390329722
 10
-8.3470131209
 20
43.6351354953
 10
-8.3238278659
 20
43.6275039482
 10
-8.2776107565
 20
43.6198856846
 10
-8.2084342269
 20
43.612312503
 10
-8.116632992
 20
43.6048210524
 10
-8.0027045495
 20
43.5974419439
 10
-7.8669199024
 20
43.5901847148
 10
-7.7093695919
 20
43.583054204
 10
-7.5301575434
 20
43.5760609096
 10
-7.1096165921
 20
43.5626084665
  0
LINE
  5
318
100
AcDbEntity
  8
DRAFT
100
AcDbLine
 62
7
  6
CONTINUOUS
 10
26.2242099741
 20
34.8572518739
 11
26.2242099741
 21
30.5840562657
  0
LINE
  5
319
100
AcDbEntity
  8
DRAFT
100
AcDbLine
 62
7
  6
CONTINUOUS
 10
26.2242099741
 20
-44.6891393425
 11
26.2242099741
 21
-40.4159437343
  0
LINE
  5
31A
100
AcDbEntity
  8
DRAFT
100
AcDbLine
 62
7
  6
CONTINUOUS
 10
26.5
 20
34.5840562657
 11
26.5
 21
30.5840562657
  0
LINE
  5
31B
100
AcDbEntity
  8
DRAFT
100
AcDbLine
 62
7
  6
CONTINUOUS
 10
26.5
 20
-44.4159437343
 11
26.5
 21
-40.4159437343
  0
LWPOLYLINE
  5
31C
100
AcDbEntity
  8
0
100
AcDbPolyline
 62
7
  6
CONTINUOUS
 90
28
 70
0
 10
-1.6011039925
 20
24.0018563249
 10
-1.5212605535
 20
24.0229594895
 10
-1.4427512274
 20
24.036369827
 10
-1.365576014
 20
24.0420873373
 10
-1.288664234
 20
24.0401936836
 10
-1.2130865668
 20
24.0306072027
 10
-1.1420550507
 20
24.0130829056
 10
-1.0763842114
 20
23.987226871
 10
-1.0152595233
 20
23.9534330201
 10
-0.9594494484
 20
23.9126381268
 10
-0.9083206834
 20
23.8643087468
 10
-0.8625065316
 20
23.8089783244
 10
-0.8246753648
 20
23.7491839672
 10
-0.7956185104
 20
23.6855088902
 10
-0.7745446411
 20
23.6173698784
 10
-0.7617481464
 20
23.5455543939
 10
-0.7572568832
 20
23.4678470104
 10
-0.7610429947
 20
23.3864631541
 10
-0.7733173002
 20
23.308836566
 10
-0.7942286002
 20
23.2372357228
 10
-0.8236280943
 20
23.1693921478
 10
-0.861280201
 20
23.1059341519
 10
-0.9084999007
 20
23.0457266199
 10
-0.963972213
 20
22.989904667
 10
-1.0235166159
 20
22.9425019506
 10
-1.0860444606
 20
22.9048657322
 10
-1.1526443959
 20
22.8756487504
 10
-1.2224018465
 20
22.8548428776
  0
LINE
  5
31D
100
AcDbEntity
  8
0
100
AcDbLine
 62
250
  6
CONTINUOUS
 10
33.4678629402
 20
24.1840562657
 11
33.0
 21
24.1840562657
  0
LINE
  5
31E
100
AcDbEntity
  8
0
100
AcDbLine
 62
7
  6
CONTINUOUS
 10
0.640531
 20
25.1819662657
 11
1.82846
 21
25.1819662657
  0
LINE
  5
31F
100
AcDbEntity
  8
0
100
AcDbLine
 62
7
  6
CONTINUOUS
 10
1.82846
 20
25.5322462657
 11
0.34811
 21
25.5322462657
  0
LINE
  5
320
100
AcDbEntity
  8
0
100
AcDbLine
 62
7
  6
CONTINUOUS
 10
0.06038
 20
23.9976862657
 11
0.40649
 21
23.9476462657
  0
LINE
  5
321
100
AcDbEntity
  8
0
100
AcDbLine
 62
7
  6
CONTINUOUS
 10
-2.28733
 20
24.8066662657
 11
-1.92037
 21
24.7399462657
  0
LWPOLYLINE
  5
322
100
AcDbEntity
  8
0
100
AcDbPolyline
 62
7
  6
CONTINUOUS
 90
9
 70
0
 10
-10.1
 20
41.3992528521
 10
-10.0903444761
 20
41.391569018
 10
-10.0614874188
 20
41.3838851839
 10
-10.0135930999
 20
41.3762450909
 10
-9.9465529418
 20
41.3686489883
 10
-9.8604755222
 20
41.3610966268
 10
-9.7558508455
 20
41.3536309989
 10
-9.632573129
 20
41.3462525993
 10
-9.4907481555
 20
41.3389609332
  0
LWPOLYLINE
  5
323
100
AcDbEntity
  8
0
100
AcDbPolyline
 62
7
  6
CONTINUOUS
 90
10
 70
0
 10
-4.1
 20
44.9987045546
 10
-4.098380347
 20
44.9967289336
 10
-4.0859964213
 20
44.9927956006
 10
-4.0611159696
 20
44.9888803394
 10
-4.0238515922
 20
44.9849829872
 10
-3.9745410904
 20
44.9811388734
 10
-3.9130749351
 20
44.9773484822
 10
-3.8395626554
 20
44.9736113293
 10
-3.7546706393
 20
44.9699612922
 10
-3.658295417
 20
44.9663991629
  0
LINE
  5
324
100
AcDbEntity
  8
DRAFT
100
AcDbLine
 62
250
  6
CONTINUOUS
 10
28.0
 20
29.0840562657
 11
28.0
 21
28.8082662398
  0
LINE
  5
325
100
AcDbEntity
  8
DRAFT
100
AcDbLine
 62
250
  6
CONTINUOUS
 10
28.0
 20
-38.9159437343
 11
28.0
 21
-38.6401537084
  0
LINE
  5
326
100
AcDbEntity
  8
RACCORDO
100
AcDbLine
 62
250
  6
CONTINUOUS
 10
28.0
 20
-44.4159437343
 11
28.0
 21
-46.4159437343
  0
LINE
  5
327
100
AcDbEntity
  8
RACCORDO
100
AcDbLine
 62
250
  6
CONTINUOUS
 10
28.0
 20
34.5840562657
 11
28.0
 21
36.5840562657
  0
LINE
  5
328
100
AcDbEntity
  8
DRAFT
100
AcDbLine
 62
7
  6
CONTINUOUS
 10
28.0
 20
28.8082662398
 11
32.2731956082
 21
28.8082662398
  0
LINE
  5
329
100
AcDbEntity
  8
DRAFT
100
AcDbLine
 62
7
  6
CONTINUOUS
 10
-28.0
 20
28.8082662398
 11
-32.2731956082
 21
28.8082662398
  0
LINE
  5
32A
100
AcDbEntity
  8
DRAFT
100
AcDbLine
 62
7
  6
CONTINUOUS
 10
28.0
 20
29.0840562657
 11
32.0
 21
29.0840562657
  0
LINE
  5
32B
100
AcDbEntity
  8
DRAFT
100
AcDbLine
 62
7
  6
CONTINUOUS
 10
-28.0
 20
29.0840562657
 11
-32.0
 21
29.0840562657
  0
LINE
  5
32C
100
AcDbEntity
  8
DRAFT
100
AcDbLine
 62
250
  6
CONTINUOUS
 10
-26.5
 20
30.5840562657
 11
-26.2242099741
 21
30.5840562657
  0
LINE
  5
32D
100
AcDbEntity
  8
DRAFT
100
AcDbLine
 62
250
  6
CONTINUOUS
 10
26.5
 20
30.5840562657
 11
26.2242099741
 21
30.5840562657
  0
LINE
  5
32E
100
AcDbEntity
  8
RACCORDO
100
AcDbLine
 62
250
  6
CONTINUOUS
 10
32.0
 20
30.5840562657
 11
34.0
 21
30.5840562657
  0
LINE
  5
32F
100
AcDbEntity
  8
RACCORDO
100
AcDbLine
 62
250
  6
CONTINUOUS
 10
-32.0
 20
30.5840562657
 11
-34.0
 21
30.5840562657
  0
LWPOLYLINE
  5
330
100
AcDbEntity
  8
0
100
AcDbPolyline
 62
250
  6
CONTINUOUS
 90
10
 70
0
 10
33.4499217485
 20
17.9646603297
 10
33.441287266
 20
17.9689228951
 10
33.4326754337
 20
17.9733070283
 10
33.4240862517
 20
17.9778127291
 10
33.4155196734
 20
17.9824379989
 10
33.4069757452
 20
17.9871848364
 10
33.3984546071
 20
17.9920592378
 10
33.3899563057
 20
17.9970632016
 10
33.3814807943
 20
18.0021947293
 10
33.3730280729
 20
18.0074538207
  0
LWPOLYLINE
  5
331
100
AcDbEntity
  8
0
100
AcDbPolyline
 62
7
  6
CONTINUOUS
 90
11
 70
0
 10
-7.85
 20
42.6990548558
 10
-7.8411086126
 20
42.6925360672
 10
-7.8144545922
 20
42.6860320457
 10
-7.7700983188
 20
42.6795575251
 10
-7.7081402735
 20
42.6731271722
 10
-7.6287208113
 20
42.6667555538
 10
-7.5320198429
 20
42.6604571037
 10
-7.4182564269
 20
42.65424609
 10
-7.2876882742
 20
42.6481365826
 10
-7.1406111635
 20
42.6421424214
 10
-6.7982994197
 20
42.6305541605
  0
LWPOLYLINE
  5
332
100
AcDbEntity
  8
ASSI
100
AcDbPolyline
 62
7
  6
CONTINUOUS
 90
15
 70
0
 10
33.6159885716
 20
6.5840562657
 10
33.6221847636
 20
6.5783268632
 10
33.6345070781
 20
6.5349992931
 10
33.6467585277
 20
6.4478523301
 10
33.6589399077
 20
6.317377797
 10
33.6709134655
 20
6.1450511622
 10
33.6826768418
 20
5.9303973514
 10
33.6942323957
 20
5.6738914389
 10
33.7054494515
 20
5.3784341163
 10
33.7163241668
 20
5.0435832357
 10
33.726860384
 20
4.6697809451
 10
33.7369389546
 20
4.2612543794
 10
33.7465546835
 20
3.8176093743
 10
33.7557127658
 20
3.3392400941
 10
33.7643096374
 20
2.8315561676
  0
LWPOLYLINE
  5
333
100
AcDbEntity
  8
RACCORDO
100
AcDbPolyline
 62
250
  6
CONTINUOUS
 90
10
 70
0
 10
-4.1
 20
45.3378123061
 10
-4.0975463148
 20
45.335337128
 10
-4.0808828735
 20
45.3309104369
 10
-4.0486473036
 20
45.3265226755
 10
-4.0010060243
 20
45.3221833778
 10
-3.9380294019
 20
45.317898778
 10
-3.8597739195
 20
45.3136790598
 10
-3.7665740779
 20
45.309547385
 10
-3.6589951647
 20
45.3055288751
 10
-3.4029938098
 20
45.2979014638
  0
LWPOLYLINE
  5
334
100
AcDbEntity
  8
0
100
AcDbPolyline
 62
250
  6
CONTINUOUS
 90
8
 70
0
 10
33.4499217173
 20
17.9646603298
 10
33.4437715575
 20
18.0637892356
 10
33.4253864954
 20
18.161390122
 10
33.3950499268
 20
18.2559585222
 10
33.3532294741
 20
18.3460367137
 10
33.3005697776
 20
18.4302361879
 10
33.2378825589
 20
18.5072590539
 10
33.2245066937
 20
18.5214044767
  0
LWPOLYLINE
  5
335
100
AcDbEntity
  8
0
100
AcDbPolyline
 62
7
  6
CONTINUOUS
 90
19
 70
0
 10
33.3730280729
 20
18.0074478069
 10
33.3711045142
 20
18.0496226213
 10
33.3670280935
 20
18.0915367137
 10
33.3607984597
 20
18.133190084
 10
33.3524243513
 20
18.1746707179
 10
33.3419113565
 20
18.2158906298
 10
33.3292511465
 20
18.2565858625
 10
33.3144740477
 20
18.2967123857
 10
33.2975750386
 20
18.3363142297
 10
33.2784535843
 20
18.3752595275
 10
33.2570754321
 20
18.4136122534
 10
33.2334486437
 20
18.4513084331
 10
33.2074899504
 20
18.4880242773
 10
33.1792223742
 20
18.5237640213
 10
33.1486084654
 20
18.5585234298
 10
33.1154269389
 20
18.5919660079
 10
33.0795716216
 20
18.6239795908
 10
33.0410970064
 20
18.6546763434
 10
33.0
 20
18.6840562657
  0
LINE
  5
336
100
AcDbEntity
  8
0
100
AcDbLine
 62
250
  6
CONTINUOUS
 10
33.458813557
 20
25.0718338004
 11
33.4610709363
 21
24.9853385226
  0
LINE
  5
337
100
AcDbEntity
  8
0
100
AcDbLine
 62
250
  6
CONTINUOUS
 10
33.4610709363
 20
24.9853385226
 11
33.4630738488
 21
24.8797930806
  0
LINE
  5
338
100
AcDbEntity
  8
ASSI
100
AcDbLine
 62
7
  6
CONTINUOUS
 10
33.4676675058
 20
-12.6634436362
 11
33.4521701355
 21
-11.5594663275
  0
LINE
  5
339
100
AcDbEntity
  8
ASSI
100
AcDbLine
 62
7
  6
CONTINUOUS
 10
33.7643096374
 20
2.8315561676
 11
33.7798070077
 21
1.7275788589
  0
LINE
  5
33A
100
AcDbEntity
  8
0
100
AcDbLine
 62
250
  6
CONTINUOUS
 10
33.4630738488
 20
24.8797930806
 11
33.4654910489
 21
24.6924088253
  0
LINE
  5
33B
100
AcDbEntity
  8
ASSI
100
AcDbLine
 62
7
  6
CONTINUOUS
 10
33.4521701355
 20
-11.5594663275
 11
33.4391782948
 21
-10.3571941242
  0
LINE
  5
33C
100
AcDbEntity
  8
ASSI
100
AcDbLine
 62
7
  6
CONTINUOUS
 10
33.7798070077
 20
1.7275788589
 11
33.7927988484
 21
0.5253066556
  0
LINE
  5
33D
100
AcDbEntity
  8
ASSI
100
AcDbLine
 62
7
  6
CONTINUOUS
 10
33.4391782948
 20
-10.3571941242
 11
33.4288389017
 21
-9.0702228955
  0
LINE
  5
33E
100
AcDbEntity
  8
ASSI
100
AcDbLine
 62
7
  6
CONTINUOUS
 10
33.7927988484
 20
0.5253066556
 11
33.8031382415
 21
-0.7616645732
  0
LINE
  5
33F
100
AcDbEntity
  8
0
100
AcDbLine
 62
250
  6
CONTINUOUS
 10
33.4654910489
 20
24.6924088253
 11
33.4670909925
 21
24.480687391
  0
LINE
  5
340
100
AcDbEntity
  8
ASSI
100
AcDbLine
 62
7
  6
CONTINUOUS
 10
33.4288389017
 20
-9.0702228955
 11
33.4213480994
 21
-7.7200197021
  0
LINE
  5
341
100
AcDbEntity
  8
ASSI
100
AcDbLine
 62
7
  6
CONTINUOUS
 10
33.8031382415
 20
-0.7616645732
 11
33.8106290438
 21
-2.1118677665
  0
LINE
  5
342
100
AcDbEntity
  8
ASSI
100
AcDbLine
 62
7
  6
CONTINUOUS
 10
33.4213480994
 20
-7.7200197021
 11
33.4168176477
 21
-6.3326855652
  0
LINE
  5
343
100
AcDbEntity
  8
ASSI
100
AcDbLine
 62
7
  6
CONTINUOUS
 10
33.8106290438
 20
-2.1118677665
 11
33.8151594955
 21
-3.4992019034
  0
LINE
  5
344
100
AcDbEntity
  8
ASSI
100
AcDbLine
 62
7
  6
CONTINUOUS
 10
33.4168176477
 20
-6.3326855652
 11
33.4152858976
 21
-4.9159437343
  0
LINE
  5
345
100
AcDbEntity
  8
0
100
AcDbLine
 62
250
  6
CONTINUOUS
 10
33.4670909925
 20
24.480687391
 11
33.4678629402
 21
24.1840562657
  0
LINE
  5
346
100
AcDbEntity
  8
ASSI
100
AcDbLine
 62
7
  6
CONTINUOUS
 10
33.8151594955
 20
-3.4992019034
 11
33.8166912456
 21
-4.9159437343
  0
LINE
  5
347
100
AcDbEntity
  8
DRAFT
100
AcDbLine
 62
7
  6
CONTINUOUS
 10
32.0
 20
-38.9159437343
 11
32.0
 21
-40.4159437343
  0
LINE
  5
348
100
AcDbEntity
  8
DRAFT
100
AcDbLine
 62
7
  6
CONTINUOUS
 10
32.0
 20
29.0840562657
 11
32.0
 21
30.5840562657
  0
LINE
  5
349
100
AcDbEntity
  8
RACCORDO
100
AcDbLine
 62
250
  6
CONTINUOUS
 10
32.2731956082
 20
-38.6401537084
 11
32.2731956082
 21
28.8082662398
  0
LINE
  5
34A
100
AcDbEntity
  8
RACCORDO
100
AcDbLine
 62
7
  6
CONTINUOUS
 10
32.2757899725
 20
-38.6401537618
 11
32.2757899725
 21
-40.4159437343
  0
LINE
  5
34B
100
AcDbEntity
  8
RACCORDO
100
AcDbLine
 62
7
  6
CONTINUOUS
 10
32.2757899725
 20
28.8082662932
 11
32.2757899725
 21
30.5840562657
  0
LINE
  5
34C
100
AcDbEntity
  8
0
100
AcDbLine
 62
7
  6
CONTINUOUS
 10
33.0
 20
18.6840562657
 11
33.0
 21
24.4840562657
  0
LINE
  5
34D
100
AcDbEntity
  8
0
100
AcDbLine
 62
250
  6
CONTINUOUS
 10
33.3730280729
 20
-40.4159437343
 11
33.3730280729
 21
18.0074538207
  0
LINE
  5
34E
100
AcDbEntity
  8
0
100
AcDbLine
 62
250
  6
CONTINUOUS
 10
33.3730280729
 20
25.1606587065
 11
33.3730280729
 21
30.5840562657
  0
LINE
  5
34F
100
AcDbEntity
  8
DRAFT
100
AcDbLine
 62
7
  6
CONTINUOUS
 10
34.0
 20
30.5840562657
 11
34.0
 21
-40.4159437343
  0
LINE
  5
350
100
AcDbEntity
  8
ASSI
100
AcDbLine
 62
7
  6
CONTINUOUS
 10
33.4152858976
 20
-4.9159437343
 11
33.4168176477
 21
-3.4992019034
  0
LINE
  5
351
100
AcDbEntity
  8
ASSI
100
AcDbLine
 62
7
  6
CONTINUOUS
 10
33.8166912456
 20
-4.9159437343
 11
33.8151594955
 21
-6.3326855652
  0
LINE
  5
352
100
AcDbEntity
  8
0
100
AcDbLine
 62
250
  6
CONTINUOUS
 10
33.4678629402
 20
24.1840562657
 11
33.4674315388
 21
18.7609342741
  0
LINE
  5
353
100
AcDbEntity
  8
ASSI
100
AcDbLine
 62
7
  6
CONTINUOUS
 10
33.4168176477
 20
-3.4992019034
 11
33.4213480994
 21
-2.1118677665
  0
LINE
  5
354
100
AcDbEntity
  8
ASSI
100
AcDbLine
 62
7
  6
CONTINUOUS
 10
33.8151594955
 20
-6.3326855652
 11
33.8106290438
 21
-7.7200197021
  0
LINE
  5
355
100
AcDbEntity
  8
ASSI
100
AcDbLine
 62
7
  6
CONTINUOUS
 10
33.4213480994
 20
-2.1118677665
 11
33.4288389017
 21
-0.7616645732
  0
LINE
  5
356
100
AcDbEntity
  8
ASSI
100
AcDbLine
 62
7
  6
CONTINUOUS
 10
33.8106290438
 20
-7.7200197021
 11
33.8031382415
 21
-9.0702228955
  0
LINE
  5
357
100
AcDbEntity
  8
0
100
AcDbLine
 62
250
  6
CONTINUOUS
 10
33.4674315388
 20
18.7609342741
 11
33.4661208728
 21
18.5440934029
  0
LINE
  5
358
100
AcDbEntity
  8
ASSI
100
AcDbLine
 62
7
  6
CONTINUOUS
 10
33.4288389017
 20
-0.7616645732
 11
33.4391782948
 21
0.5253066556
  0
LINE
  5
359
100
AcDbEntity
  8
ASSI
100
AcDbLine
 62
7
  6
CONTINUOUS
 10
33.8031382415
 20
-9.0702228955
 11
33.7927988484
 21
-10.3571941242
  0
LINE
  5
35A
100
AcDbEntity
  8
ASSI
100
AcDbLine
 62
7
  6
CONTINUOUS
 10
33.4391782948
 20
0.5253066556
 11
33.4521701355
 21
1.7275788589
  0
LINE
  5
35B
100
AcDbEntity
  8
ASSI
100
AcDbLine
 62
7
  6
CONTINUOUS
 10
33.7927988484
 20
-10.3571941242
 11
33.7798070077
 21
-11.5594663275
  0
LINE
  5
35C
100
AcDbEntity
  8
0
100
AcDbLine
 62
250
  6
CONTINUOUS
 10
33.4661208728
 20
18.5440934029
 11
33.4639634056
 21
18.3471394701
  0
LWPOLYLINE
  5
35D
100
AcDbEntity
  8
ASSI
100
AcDbPolyline
 62
7
  6
CONTINUOUS
 90
16
 70
0
 10
33.4521701355
 20
1.7275788589
 10
33.4676675058
 20
2.8315561676
 10
33.4762643774
 20
3.3392400941
 10
33.4854224596
 20
3.8176093743
 10
33.4950381886
 20
4.2612543794
 10
33.5051167591
 20
4.6697809451
 10
33.5156529763
 20
5.0435832357
 10
33.5265276917
 20
5.3784341163
 10
33.5377447475
 20
5.6738914389
 10
33.5493003014
 20
5.9303973514
 10
33.5610636777
 20
6.1450511622
 10
33.5730372354
 20
6.317377797
 10
33.5852186155
 20
6.4478523301
 10
33.5974700651
 20
6.5349992931
 10
33.6097923796
 20
6.5783268632
 10
33.6159885716
 20
6.5840562657
  0
LWPOLYLINE
  5
35E
100
AcDbEntity
  8
ASSI
100
AcDbPolyline
 62
7
  6
CONTINUOUS
 90
16
 70
0
 10
33.7798070077
 20
-11.5594663275
 10
33.7643096374
 20
-12.6634436362
 10
33.7557127658
 20
-13.1711275627
 10
33.7465546835
 20
-13.6494968429
 10
33.7369389546
 20
-14.093141848
 10
33.726860384
 20
-14.5016684137
 10
33.7163241668
 20
-14.8754707043
 10
33.7054494515
 20
-15.2103215849
 10
33.6942323957
 20
-15.5057789075
 10
33.6826768418
 20
-15.76228482
 10
33.6709134655
 20
-15.9769386308
 10
33.6589399077
 20
-16.1492652656
 10
33.6467585277
 20
-16.2797397987
 10
33.6345070781
 20
-16.3668867617
 10
33.6221847636
 20
-16.4102143318
 10
33.6159885716
 20
-16.4159437343
  0
LINE
  5
35F
100
AcDbEntity
  8
0
100
AcDbLine
 62
250
  6
CONTINUOUS
 10
33.4639634056
 20
18.3471394701
 11
33.462104841
 21
18.2332550266
  0
LWPOLYLINE
  5
360
100
AcDbEntity
  8
0
100
AcDbPolyline
 62
250
  6
CONTINUOUS
 90
10
 70
0
 10
33.462104841
 20
18.2332550266
 10
33.4599746671
 20
18.1372186355
 10
33.4588145443
 20
18.0963110888
 10
33.4576165574
 20
18.0608145098
 10
33.456380145
 20
18.03090016
 10
33.4551058685
 20
18.0063967779
 10
33.4538202393
 20
17.9875014002
 10
33.4525320949
 20
17.9742797057
 10
33.451232598
 20
17.9666660155
 10
33.4499217485
 20
17.9646603297
  0
LWPOLYLINE
  5
361
100
AcDbEntity
  8
0
100
AcDbPolyline
 62
250
  6
CONTINUOUS
 90
7
 70
0
 10
33.4499311715
 20
25.2034522014
 10
33.4437792264
 20
25.1043231444
 10
33.4253924874
 20
25.0067223094
 10
33.3950543711
 20
24.9121541346
 10
33.3532325151
 20
24.822076312
 10
33.3005715695
 20
24.7378773185
 10
33.2355011409
 20
24.6582849983
  0
LWPOLYLINE
  5
362
100
AcDbEntity
  8
0
100
AcDbPolyline
 62
250
  6
CONTINUOUS
 90
10
 70
0
 10
13.880604064
 20
-45.8658654828
 10
13.8848666295
 20
-45.8572310003
 10
13.8892507626
 20
-45.848619168
 10
13.8937564634
 20
-45.840029986
 10
13.8983817332
 20
-45.8314634077
 10
13.9031285707
 20
-45.8229194795
 10
13.9080029721
 20
-45.8143983414
 10
13.9130069359
 20
-45.80590004
 10
13.9181384636
 20
-45.7974245286
 10
13.923397555
 20
-45.7889718072
  0
LINE
  5
363
100
AcDbEntity
  8
DRAFT
100
AcDbLine
 62
7
  6
CONTINUOUS
 10
-28.0
 20
34.5840562657
 11
-26.5
 21
34.5840562657
  0
LINE
  5
364
100
AcDbEntity
  8
DRAFT
100
AcDbLine
 62
7
  6
CONTINUOUS
 10
28.0
 20
34.5840562657
 11
26.5
 21
34.5840562657
  0
LINE
  5
365
100
AcDbEntity
  8
RACCORDO
100
AcDbLine
 62
250
  6
CONTINUOUS
 10
26.2242099741
 20
34.8572518739
 11
-26.2242099741
 21
34.8572518739
  0
LINE
  5
366
100
AcDbEntity
  8
RACCORDO
100
AcDbLine
 62
7
  6
CONTINUOUS
 10
-28.0
 20
34.8598462382
 11
-26.2242100275
 21
34.8598462382
  0
LINE
  5
367
100
AcDbEntity
  8
RACCORDO
100
AcDbLine
 62
7
  6
CONTINUOUS
 10
28.0
 20
34.8598462382
 11
26.2242100275
 21
34.8598462382
  0
LWPOLYLINE
  5
368
100
AcDbEntity
  8
0
100
AcDbPolyline
 62
250
  6
CONTINUOUS
 90
7
 70
0
 10
-21.1193959357
 20
36.0339874371
 10
-21.0202668787
 20
36.0278354921
 10
-20.9226660438
 20
36.0094487531
 10
-20.8280978689
 20
35.9791106368
 10
-20.7380200463
 20
35.9372887808
 10
-20.6538210528
 20
35.8846278352
 10
-20.5742287326
 20
35.8195574066
  0
LWPOLYLINE
  5
369
100
AcDbEntity
  8
0
100
AcDbPolyline
 62
250
  6
CONTINUOUS
 90
8
 70
0
 10
-13.8806040641
 20
36.033977983
 10
-13.9797329699
 20
36.0278278232
 10
-14.0773338563
 20
36.0094427611
 10
-14.1719022565
 20
35.9791061925
 10
-14.261980448
 20
35.9372857398
 10
-14.3461799222
 20
35.8846260433
 10
-14.4232027882
 20
35.8219388246
 10
-14.437348211
 20
35.8085629594
  0
LWPOLYLINE
  5
36A
100
AcDbEntity
  8
0
100
AcDbPolyline
 62
7
  6
CONTINUOUS
 90
4
 70
0
 10
11.3821666418
 20
39.5419931228
 10
11.2400306983
 20
39.5340325518
 10
11.0799424758
 20
39.5261908037
 10
10.9018147128
 20
39.5184684563
  0
LWPOLYLINE
  5
36B
100
AcDbEntity
  8
0
100
AcDbPolyline
 62
7
  6
CONTINUOUS
 90
19
 70
0
 10
-13.9233915413
 20
35.9570843386
 10
-13.9655663556
 20
35.9551607799
 10
-14.007480448
 20
35.9510843592
 10
-14.0491338183
 20
35.9448547254
 10
-14.0906144522
 20
35.936480617
 10
-14.1318343641
 20
35.9259676222
 10
-14.1725295968
 20
35.9133074122
 10
-14.21265612
 20
35.8985303134
 10
-14.252257964
 20
35.8816313043
 10
-14.2912032618
 20
35.86250985
 10
-14.3295559877
 20
35.8411316978
 10
-14.3672521674
 20
35.8175049094
 10
-14.4039680116
 20
35.7915462161
 10
-14.4397077556
 20
35.7632786399
 10
-14.4744671641
 20
35.7326647311
 10
-14.5079097422
 20
35.6994832046
 10
-14.5399233252
 20
35.6636278873
 10
-14.5706200777
 20
35.6251532721
 10
-14.6
 20
35.5840562657
  0
LINE
  5
36C
100
AcDbEntity
  8
0
100
AcDbLine
 62
7
  6
CONTINUOUS
 10
13.0322835606
 20
36.1107839486
 11
12.6135641506
 21
36.0940324222
  0
LWPOLYLINE
  5
36D
100
AcDbEntity
  8
RACCORDO
100
AcDbPolyline
 62
250
  6
CONTINUOUS
 90
13
 70
0
 10
11.771156282
 20
38.481717435
 10
12.0365812922
 20
38.4911738289
 10
12.2768967653
 20
38.5008232986
 10
12.4920019656
 20
38.5106618697
 10
12.6815847278
 20
38.5206809589
 10
12.8449273525
 20
38.5308491235
 10
12.9814102383
 20
38.5411277214
 10
13.0907085205
 20
38.5514829855
 10
13.1728411475
 20
38.5619051309
 10
13.2277828506
 20
38.5723910285
 10
13.2553630748
 20
38.582931549
 10
13.255369705
 20
38.5934924455
 10
13.2306563448
 20
38.6032885524
  0
LINE
  5
36E
100
AcDbEntity
  8
0
100
AcDbLine
 62
7
  6
CONTINUOUS
 10
10.4631467705
 20
39.0228422007
 11
10.0584106243
 21
39.0078312447
  0
LWPOLYLINE
  5
36F
100
AcDbEntity
  8
RACCORDO
100
AcDbPolyline
 62
250
  6
CONTINUOUS
 90
13
 70
0
 10
12.1225753081
 20
37.5002151739
 10
12.4291754424
 20
37.5099854296
 10
12.7094379726
 20
37.5199704447
 10
12.9631873246
 20
37.5301593269
 10
13.1903171206
 20
37.5405478828
 10
13.3904977378
 20
37.5511270507
 10
13.5629713631
 20
37.5618636286
 10
13.7070837674
 20
37.5727168121
 10
13.8224919306
 20
37.5836509456
 10
13.909215856
 20
37.5946556981
 10
13.967228857
 20
37.605727767
 10
13.996350842
 20
37.6168575131
 10
14.0
 20
37.6224358193
  0
LINE
  5
370
100
AcDbEntity
  8
0
100
AcDbLine
 62
7
  6
CONTINUOUS
 10
12.6135641506
 20
36.0940324222
 11
12.1241979183
 21
36.0778746567
  0
LINE
  5
371
100
AcDbEntity
  8
0
100
AcDbLine
 62
7
  6
CONTINUOUS
 10
10.0584106243
 20
39.0078312447
 11
9.5831219544
 21
38.9934640027
  0
LINE
  5
372
100
AcDbEntity
  8
RACCORDO
100
AcDbLine
 62
250
  6
CONTINUOUS
 10
11.1662929118
 20
38.4634448676
 11
11.771156282
 21
38.481717435
  0
LINE
  5
373
100
AcDbEntity
  8
0
100
AcDbLine
 62
7
  6
CONTINUOUS
 10
12.1241979183
 20
36.0778746567
 11
11.5674465973
 21
36.0624106962
  0
LINE
  5
374
100
AcDbEntity
  8
RACCORDO
100
AcDbLine
 62
250
  6
CONTINUOUS
 10
11.4341531213
 20
37.481448738
 11
12.1225753081
 21
37.5002151739
  0
LINE
  5
375
100
AcDbEntity
  8
0
100
AcDbLine
 62
250
  6
CONTINUOUS
 10
-20.9877775347
 20
36.0428698227
 11
-20.9012822569
 21
36.045127202
  0
LINE
  5
376
100
AcDbEntity
  8
0
100
AcDbLine
 62
7
  6
CONTINUOUS
 10
9.5831219544
 20
38.9934640027
 11
9.0406145696
 21
38.9798412506
  0
LINE
  5
377
100
AcDbEntity
  8
RACCORDO
100
AcDbLine
 62
250
  6
CONTINUOUS
 10
10.4694677519
 20
38.4462303142
 11
11.1662929118
 21
38.4634448676
  0
LINE
  5
378
100
AcDbEntity
  8
0
100
AcDbLine
 62
7
  6
CONTINUOUS
 10
11.5674465973
 20
36.0624106962
 11
10.9456407546
 21
36.0477052732
  0
LINE
  5
379
100
AcDbEntity
  8
RACCORDO
100
AcDbLine
 62
250
  6
CONTINUOUS
 10
10.652699554
 20
37.4638972617
 11
11.4341531213
 21
37.481448738
  0
LINE
  5
37A
100
AcDbEntity
  8
0
100
AcDbLine
 62
7
  6
CONTINUOUS
 10
9.0406145696
 20
38.9798412506
 11
8.4346937692
 21
38.9670585422
  0
LINE
  5
37B
100
AcDbEntity
  8
0
100
AcDbLine
 62
7
  6
CONTINUOUS
 10
10.9456407546
 20
36.0477052732
 11
10.262529897
 21
36.033853083
  0
LINE
  5
37C
100
AcDbEntity
  8
RACCORDO
100
AcDbLine
 62
250
  6
CONTINUOUS
 10
9.6868413266
 20
38.4302134939
 11
10.4694677519
 21
38.4462303142
  0
LINE
  5
37D
100
AcDbEntity
  8
RACCORDO
100
AcDbLine
 62
250
  6
CONTINUOUS
 10
9.7820795021
 20
37.4476406519
 11
10.652699554
 21
37.4638972617
  0
LINE
  5
37E
100
AcDbEntity
  8
0
100
AcDbLine
 62
250
  6
CONTINUOUS
 10
-20.9012822569
 20
36.045127202
 11
-20.7957368149
 21
36.0471301145
  0
LINE
  5
37F
100
AcDbEntity
  8
0
100
AcDbLine
 62
7
  6
CONTINUOUS
 10
8.4346937692
 20
38.9670585422
 11
7.7696096523
 21
38.9552055389
  0
LINE
  5
380
100
AcDbEntity
  8
0
100
AcDbLine
 62
7
  6
CONTINUOUS
 10
10.262529897
 20
36.033853083
 11
9.5225695601
 21
36.0209389944
  0
LINE
  5
381
100
AcDbEntity
  8
RACCORDO
100
AcDbLine
 62
250
  6
CONTINUOUS
 10
8.8220033156
 20
38.4154722727
 11
9.6868413266
 21
38.4302134939
  0
LINE
  5
382
100
AcDbEntity
  8
RACCORDO
100
AcDbLine
 62
250
  6
CONTINUOUS
 10
8.8291589668
 20
37.4328172522
 11
9.7820795021
 21
37.4476406519
  0
LINE
  5
383
100
AcDbEntity
  8
0
100
AcDbLine
 62
7
  6
CONTINUOUS
 10
9.5225695601
 20
36.0209389944
 11
8.728857226
 21
36.0090170661
  0
LINE
  5
384
100
AcDbEntity
  8
0
100
AcDbLine
 62
7
  6
CONTINUOUS
 10
7.7696096523
 20
38.9552055389
 11
7.0500273062
 21
38.9443653812
  0
LINE
  5
385
100
AcDbEntity
  8
RACCORDO
100
AcDbLine
 62
250
  6
CONTINUOUS
 10
7.884756538
 20
38.4021790337
 11
8.8220033156
 21
38.4154722727
  0
LINE
  5
386
100
AcDbEntity
  8
0
100
AcDbLine
 62
7
  6
CONTINUOUS
 10
8.728857226
 20
36.0090170661
 11
7.886255774
 21
35.9981650578
  0
LINE
  5
387
100
AcDbEntity
  8
RACCORDO
100
AcDbLine
 62
250
  6
CONTINUOUS
 10
7.8049487999
 20
37.41959503
 11
8.8291589668
 21
37.4328172522
  0
LINE
  5
388
100
AcDbEntity
  8
0
100
AcDbLine
 62
7
  6
CONTINUOUS
 10
7.0500273062
 20
38.9443653812
 11
6.2809940839
 21
38.934614105
  0
LINE
  5
389
100
AcDbEntity
  8
RACCORDO
100
AcDbLine
 62
250
  6
CONTINUOUS
 10
6.8831696147
 20
38.3904407958
 11
7.884756538
 21
38.4021790337
  0
LINE
  5
38A
100
AcDbEntity
  8
0
100
AcDbLine
 62
250
  6
CONTINUOUS
 10
-20.7957368149
 20
36.0471301145
 11
-20.6083525596
 21
36.0495473146
  0
LINE
  5
38B
100
AcDbEntity
  8
0
100
AcDbLine
 62
7
  6
CONTINUOUS
 10
7.886255774
 20
35.9981650578
 11
7.0001911224
 21
35.9884484075
  0
LINE
  5
38C
100
AcDbEntity
  8
RACCORDO
100
AcDbLine
 62
250
  6
CONTINUOUS
 10
6.7152307701
 20
37.4080440539
 11
7.8049487999
 21
37.41959503
  0
LINE
  5
38D
100
AcDbEntity
  8
0
100
AcDbLine
 62
7
  6
CONTINUOUS
 10
6.2809940839
 20
38.934614105
 11
5.4679042011
 21
38.9260201083
  0
LINE
  5
38E
100
AcDbEntity
  8
RACCORDO
100
AcDbLine
 62
250
  6
CONTINUOUS
 10
5.8227821908
 20
38.3803245628
 11
6.8831696147
 21
38.3904407958
  0
LINE
  5
38F
100
AcDbEntity
  8
0
100
AcDbLine
 62
7
  6
CONTINUOUS
 10
7.0001911224
 20
35.9884484075
 11
6.0743723476
 21
35.9799077891
  0
LINE
  5
390
100
AcDbEntity
  8
RACCORDO
100
AcDbLine
 62
250
  6
CONTINUOUS
 10
5.5687749508
 20
37.3982632431
 11
6.7152307701
 21
37.4080440539
  0
LINE
  5
391
100
AcDbEntity
  8
0
100
AcDbLine
 62
7
  6
CONTINUOUS
 10
6.0743723476
 20
35.9799077891
 11
5.1145318564
 21
35.9726001278
  0
LINE
  5
392
100
AcDbEntity
  8
RACCORDO
100
AcDbLine
 62
250
  6
CONTINUOUS
 10
4.7144668222
 20
38.3719384455
 11
5.8227821908
 21
38.3803245628
  0
LINE
  5
393
100
AcDbEntity
  8
RACCORDO
100
AcDbLine
 62
250
  6
CONTINUOUS
 10
4.3771480375
 20
37.3903512673
 11
5.5687749508
 21
37.3982632431
  0
LINE
  5
394
100
AcDbEntity
  8
0
100
AcDbLine
 62
250
  6
CONTINUOUS
 10
-20.6083525596
 20
36.0495473146
 11
-20.3966311253
 21
36.0511472582
  0
LINE
  5
395
100
AcDbEntity
  8
0
100
AcDbLine
 62
7
  6
CONTINUOUS
 10
5.1145318564
 20
35.9726001278
 11
4.1267938716
 21
35.9665681491
  0
LINE
  5
396
100
AcDbEntity
  8
RACCORDO
100
AcDbLine
 62
250
  6
CONTINUOUS
 10
3.5682703527
 20
38.3653537818
 11
4.7144668222
 21
38.3719384455
  0
LINE
  5
397
100
AcDbEntity
  8
0
100
AcDbLine
 62
7
  6
CONTINUOUS
 10
4.1267938716
 20
35.9665681491
 11
3.1152930754
 21
35.9618371029
  0
LINE
  5
398
100
AcDbEntity
  8
RACCORDO
100
AcDbLine
 62
250
  6
CONTINUOUS
 10
3.1513444041
 20
37.3843725765
 11
4.3771480375
 21
37.3903512673
  0
LINE
  5
399
100
AcDbEntity
  8
RACCORDO
100
AcDbLine
 62
250
  6
CONTINUOUS
 10
2.3950962972
 20
38.360622787
 11
3.5682703527
 21
38.3653537818
  0
LINE
  5
39A
100
AcDbEntity
  8
0
100
AcDbLine
 62
7
  6
CONTINUOUS
 10
3.1152930754
 20
35.9618371029
 11
2.086343955
 21
35.9584402252
  0
LINE
  5
39B
100
AcDbEntity
  8
RACCORDO
100
AcDbLine
 62
250
  6
CONTINUOUS
 10
1.9014262907
 20
37.3803660762
 11
3.1513444041
 21
37.3843725765
  0
LINE
  5
39C
100
AcDbEntity
  8
RACCORDO
100
AcDbLine
 62
250
  6
CONTINUOUS
 10
1.2025612621
 20
38.3577696534
 11
2.3950962972
 21
38.360622787
  0
LINE
  5
39D
100
AcDbEntity
  8
0
100
AcDbLine
 62
7
  6
CONTINUOUS
 10
2.086343955
 20
35.9584402252
 11
1.0471920276
 21
35.9563961023
  0
LINE
  5
39E
100
AcDbEntity
  8
RACCORDO
100
AcDbLine
 62
250
  6
CONTINUOUS
 10
0.6355407745
 20
37.3783539948
 11
1.9014262907
 21
37.3803660762
  0
LINE
  5
39F
100
AcDbEntity
  8
0
100
AcDbLine
 62
250
  6
CONTINUOUS
 10
-20.3966311253
 20
36.0511472582
 11
-20.1
 21
36.0519192059
  0
LINE
  5
3A0
100
AcDbEntity
  8
0
100
AcDbLine
 62
7
  6
CONTINUOUS
 10
1.0471920276
 20
35.9563961023
 11
-0.0
 21
35.9557111472
  0
LINE
  5
3A1
100
AcDbEntity
  8
0
100
AcDbLine
 62
7
  6
CONTINUOUS
 10
-14.6
 20
35.5840562657
 11
-20.4
 21
35.5840562657
  0
LINE
  5
3A2
100
AcDbEntity
  8
0
100
AcDbLine
 62
250
  6
CONTINUOUS
 10
28.0
 20
35.9570843386
 11
1.4678073572
 21
35.9570843386
  0
LINE
  5
3A3
100
AcDbEntity
  8
0
100
AcDbLine
 62
250
  6
CONTINUOUS
 10
-1.5675026654
 20
35.9572474661
 11
-13.923397555
 21
35.9570843386
  0
LINE
  5
3A4
100
AcDbEntity
  8
0
100
AcDbLine
 62
250
  6
CONTINUOUS
 10
-21.0766024408
 20
35.9570843386
 11
-28.0
 21
35.9570843386
  0
LINE
  5
3A5
100
AcDbEntity
  8
DRAFT
100
AcDbLine
 62
7
  6
CONTINUOUS
 10
-28.0
 20
36.5840562657
 11
-14.0
 21
36.5840562657
  0
LINE
  5
3A6
100
AcDbEntity
  8
DRAFT
100
AcDbLine
 62
7
  6
CONTINUOUS
 10
28.0
 20
36.5840562657
 11
14.0
 21
36.5840562657
  0
LINE
  5
3A7
100
AcDbEntity
  8
RACCORDO
100
AcDbLine
 62
250
  6
CONTINUOUS
 10
-0.6355415611
 20
37.3783539967
 11
0.6355407745
 21
37.3783539948
  0
LINE
  5
3A8
100
AcDbEntity
  8
RACCORDO
100
AcDbLine
 62
250
  6
CONTINUOUS
 10
-0.6018950709
 20
38.357054588
 11
1.2025612621
 21
38.3577696534
  0
LINE
  5
3A9
100
AcDbEntity
  8
0
100
AcDbLine
 62
7
  6
CONTINUOUS
 10
-1.5675026654
 20
35.9572474661
 11
-0.0
 21
35.9557111472
  0
LINE
  5
3AA
100
AcDbEntity
  8
RACCORDO
100
AcDbLine
 62
250
  6
CONTINUOUS
 10
-1.90142673
 20
37.380366079
 11
-0.6355415611
 21
37.3783539967
  0
LINE
  5
3AB
100
AcDbEntity
  8
RACCORDO
100
AcDbLine
 62
250
  6
CONTINUOUS
 10
-2.3950945575
 20
38.3606227894
 11
-0.6018950709
 21
38.357054588
  0
LINE
  5
3AC
100
AcDbEntity
  8
0
100
AcDbLine
 62
250
  6
CONTINUOUS
 10
-20.1
 20
36.0519192059
 11
-14.6768780084
 21
36.0514878045
  0
LINE
  5
3AD
100
AcDbEntity
  8
0
100
AcDbLine
 62
7
  6
CONTINUOUS
 10
-3.1152930754
 20
35.9618371029
 11
-1.5675026654
 21
35.9572474661
  0
LINE
  5
3AE
100
AcDbEntity
  8
RACCORDO
100
AcDbLine
 62
250
  6
CONTINUOUS
 10
-3.1513397198
 20
37.3843725565
 11
-1.90142673
 21
37.380366079
  0
LINE
  5
3AF
100
AcDbEntity
  8
RACCORDO
100
AcDbLine
 62
250
  6
CONTINUOUS
 10
-3.5682659273
 20
38.3653537429
 11
-2.3950945575
 21
38.3606227894
  0
LINE
  5
3B0
100
AcDbEntity
  8
RACCORDO
100
AcDbLine
 62
250
  6
CONTINUOUS
 10
-4.3771453006
 20
37.3903512496
 11
-3.1513397198
 21
37.3843725565
  0
LINE
  5
3B1
100
AcDbEntity
  8
0
100
AcDbLine
 62
7
  6
CONTINUOUS
 10
-4.6239068674
 20
35.9694223401
 11
-3.1152930754
 21
35.9618371029
  0
LINE
  5
3B2
100
AcDbEntity
  8
RACCORDO
100
AcDbLine
 62
250
  6
CONTINUOUS
 10
-4.7144685924
 20
38.3719384504
 11
-3.5682659273
 21
38.3653537429
  0
LINE
  5
3B3
100
AcDbEntity
  8
RACCORDO
100
AcDbLine
 62
250
  6
CONTINUOUS
 10
-5.5687894167
 20
37.3982633523
 11
-4.3771453006
 21
37.3903512496
  0
LINE
  5
3B4
100
AcDbEntity
  8
0
100
AcDbLine
 62
250
  6
CONTINUOUS
 10
-14.6768780084
 20
36.0514878045
 11
-14.4600371372
 21
36.0501771385
  0
LINE
  5
3B5
100
AcDbEntity
  8
0
100
AcDbLine
 62
7
  6
CONTINUOUS
 10
-6.0743723476
 20
35.9799077891
 11
-4.6239068674
 21
35.9694223401
  0
LINE
  5
3B6
100
AcDbEntity
  8
RACCORDO
100
AcDbLine
 62
250
  6
CONTINUOUS
 10
-5.822821507
 20
38.3803248969
 11
-4.7144685924
 21
38.3719384504
  0
LINE
  5
3B7
100
AcDbEntity
  8
RACCORDO
100
AcDbLine
 62
250
  6
CONTINUOUS
 10
-6.7153058365
 20
37.4080447695
 11
-5.5687894167
 21
37.3982633523
  0
LINE
  5
3B8
100
AcDbEntity
  8
RACCORDO
100
AcDbLine
 62
250
  6
CONTINUOUS
 10
-6.8832639634
 20
38.3904417901
 11
-5.822821507
 21
38.3803248969
  0
LINE
  5
3B9
100
AcDbEntity
  8
0
100
AcDbLine
 62
7
  6
CONTINUOUS
 10
-7.4484490712
 20
35.9931615892
 11
-6.0743723476
 21
35.9799077891
  0
LINE
  5
3BA
100
AcDbEntity
  8
RACCORDO
100
AcDbLine
 62
250
  6
CONTINUOUS
 10
-7.8050560244
 20
37.4195962859
 11
-6.7153058365
 21
37.4080447695
  0
LINE
  5
3BB
100
AcDbEntity
  8
0
100
AcDbLine
 62
7
  6
CONTINUOUS
 10
-6.6713626135
 20
38.9393491731
 11
-5.4679042011
 21
38.9260201083
  0
LINE
  5
3BC
100
AcDbEntity
  8
RACCORDO
100
AcDbLine
 62
250
  6
CONTINUOUS
 10
-7.8848581358
 20
38.4021803403
 11
-6.8832639634
 21
38.3904417901
  0
LINE
  5
3BD
100
AcDbEntity
  8
0
100
AcDbLine
 62
250
  6
CONTINUOUS
 10
-14.4600371372
 20
36.0501771385
 11
-14.2630832044
 21
36.0480196713
  0
LINE
  5
3BE
100
AcDbEntity
  8
0
100
AcDbLine
 62
7
  6
CONTINUOUS
 10
-8.728857226
 20
36.0090170661
 11
-7.4484490712
 21
35.9931615892
  0
LINE
  5
3BF
100
AcDbEntity
  8
RACCORDO
100
AcDbLine
 62
250
  6
CONTINUOUS
 10
-8.8292693254
 20
37.4328188168
 11
-7.8050560244
 21
37.4195962859
  0
LINE
  5
3C0
100
AcDbEntity
  8
RACCORDO
100
AcDbLine
 62
250
  6
CONTINUOUS
 10
-8.8221186399
 20
38.415474063
 11
-7.8848581358
 21
38.4021803403
  0
LINE
  5
3C1
100
AcDbEntity
  8
0
100
AcDbLine
 62
7
  6
CONTINUOUS
 10
-7.7696096523
 20
38.9552055389
 11
-6.6713626135
 21
38.9393491731
  0
LINE
  5
3C2
100
AcDbEntity
  8
RACCORDO
100
AcDbLine
 62
250
  6
CONTINUOUS
 10
-9.7822143742
 20
37.4476429504
 11
-8.8292693254
 21
37.4328188168
  0
LINE
  5
3C3
100
AcDbEntity
  8
0
100
AcDbLine
 62
7
  6
CONTINUOUS
 10
-9.8994949366
 20
36.0272748281
 11
-8.728857226
 21
36.0090170661
  0
LINE
  5
3C4
100
AcDbEntity
  8
0
100
AcDbLine
 62
250
  6
CONTINUOUS
 10
-14.2630832044
 20
36.0480196713
 11
-14.1491987609
 21
36.0461611067
  0
LINE
  5
3C5
100
AcDbEntity
  8
RACCORDO
100
AcDbLine
 62
250
  6
CONTINUOUS
 10
-9.6869761674
 20
38.4302160088
 11
-8.8221186399
 21
38.415474063
  0
LINE
  5
3C6
100
AcDbEntity
  8
0
100
AcDbLine
 62
7
  6
CONTINUOUS
 10
-8.4346937692
 20
38.9670585422
 11
-7.7696096523
 21
38.9552055389
  0
LINE
  5
3C7
100
AcDbEntity
  8
0
100
AcDbLine
 62
7
  6
CONTINUOUS
 10
-10.6117324248
 20
36.0406727471
 11
-9.8994949366
 21
36.0272748281
  0
LINE
  5
3C8
100
AcDbEntity
  8
RACCORDO
100
AcDbLine
 62
250
  6
CONTINUOUS
 10
-10.6528402899
 20
37.4639001416
 11
-9.7822143742
 21
37.4476429504
  0
LINE
  5
3C9
100
AcDbEntity
  8
RACCORDO
100
AcDbLine
 62
250
  6
CONTINUOUS
 10
-10.469595515
 20
38.4462331801
 11
-9.6869761674
 21
38.4302160088
  0
LINE
  5
3CA
100
AcDbEntity
  8
0
100
AcDbLine
 62
7
  6
CONTINUOUS
 10
-9.0406145696
 20
38.9798412506
 11
-8.4346937692
 21
38.9670585422
  0
LINE
  5
3CB
100
AcDbEntity
  8
0
100
AcDbLine
 62
7
  6
CONTINUOUS
 10
-11.264190775
 20
36.0549515537
 11
-10.6117324248
 21
36.0406727471
  0
LINE
  5
3CC
100
AcDbEntity
  8
RACCORDO
100
AcDbLine
 62
250
  6
CONTINUOUS
 10
-11.43428343
 20
37.4814519564
 11
-10.6528402899
 21
37.4639001416
  0
LWPOLYLINE
  5
3CD
100
AcDbEntity
  8
0
100
AcDbPolyline
 62
250
  6
CONTINUOUS
 90
10
 70
0
 10
-14.1491987609
 20
36.0461611067
 10
-14.0531623698
 20
36.0440309327
 10
-14.0122548231
 20
36.04287081
 10
-13.9767582441
 20
36.0416728231
 10
-13.9468438943
 20
36.0404364107
 10
-13.9223405122
 20
36.0391621342
 10
-13.9034451345
 20
36.037876505
 10
-13.89022344
 20
36.0365883606
 10
-13.8826097498
 20
36.0352888637
 10
-13.880604064
 20
36.0339780141
  0
LINE
  5
3CE
100
AcDbEntity
  8
RACCORDO
100
AcDbLine
 62
250
  6
CONTINUOUS
 10
-11.1664154588
 20
38.4634482051
 11
-10.469595515
 21
38.4462331801
  0
LINE
  5
3CF
100
AcDbEntity
  8
0
100
AcDbLine
 62
7
  6
CONTINUOUS
 10
-9.5831219544
 20
38.9934640027
 11
-9.0406145696
 21
38.9798412506
  0
LINE
  5
3D0
100
AcDbEntity
  8
0
100
AcDbLine
 62
7
  6
CONTINUOUS
 10
-11.8541387892
 20
36.0700514768
 11
-11.264190775
 21
36.0549515537
  0
LINE
  5
3D1
100
AcDbEntity
  8
0
100
AcDbLine
 62
7
  6
CONTINUOUS
 10
-12.3776934171
 20
36.0858794746
 11
-11.8541387892
 21
36.0700514768
  0
LINE
  5
3D2
100
AcDbEntity
  8
0
100
AcDbLine
 62
7
  6
CONTINUOUS
 10
-10.0584106243
 20
39.0078312447
 11
-9.5831219544
 21
38.9934640027
  0
LWPOLYLINE
  5
3D3
100
AcDbEntity
  8
0
100
AcDbPolyline
 62
7
  6
CONTINUOUS
 90
6
 70
0
 10
-11.3821666418
 20
39.5419931228
 10
-11.2400306983
 20
39.5340325518
 10
-11.0799424758
 20
39.5261908037
 10
-10.9018147128
 20
39.5184684563
 10
-10.7057346707
 20
39.5108649318
 10
-10.2624897764
 20
39.4961258058
  0
LWPOLYLINE
  5
3D4
100
AcDbEntity
  8
0
100
AcDbPolyline
 62
7
  6
CONTINUOUS
 90
10
 70
0
 10
-3.6
 20
44.4987807071
 10
-3.5938615534
 20
44.4951317351
 10
-3.5755693092
 20
44.4914827631
 10
-3.5453079108
 20
44.4878706242
 10
-3.5029561329
 20
44.4842956914
 10
-3.4486352008
 20
44.4807575916
 10
-3.3828934348
 20
44.4772920387
 10
-3.3056151629
 20
44.4738997675
 10
-3.216916057
 20
44.4705800432
 10
-3.0078347488
 20
44.4642598384
  0
LWPOLYLINE
  5
3D5
100
AcDbEntity
  8
0
100
AcDbPolyline
 62
7
  6
CONTINUOUS
 90
4
 70
0
 10
33.2245066937
 20
18.5214044767
 10
33.1661341088
 20
18.5759180442
 10
33.0864303921
 20
18.6351548161
 10
33.0
 20
18.6840562657
  0
LWPOLYLINE
  5
3D6
100
AcDbEntity
  8
0
100
AcDbPolyline
 62
7
  6
CONTINUOUS
 90
15
 70
0
 10
11.5
 20
-46.0319323059
 10
11.4942705975
 20
-46.0381284979
 10
11.4509430274
 20
-46.0504508124
 10
11.3637960644
 20
-46.062702262
 10
11.2333215313
 20
-46.0748836421
 10
11.0609948965
 20
-46.0868571998
 10
10.8463410857
 20
-46.0986205761
 10
10.5898351732
 20
-46.11017613
 10
10.2943778506
 20
-46.1213931858
 10
9.95952697
 20
-46.1322679011
 10
9.5857246794
 20
-46.1428041183
 10
9.1771981137
 20
-46.1528826889
 10
8.7335531086
 20
-46.1624984178
 10
8.2551838284
 20
-46.1716565001
 10
7.7474999019
 20
-46.1802533717
  0
LWPOLYLINE
  5
3D7
100
AcDbEntity
  8
0
100
AcDbPolyline
 62
7
  6
CONTINUOUS
 90
4
 70
0
 10
14.437348211
 20
-45.640450428
 10
14.4918617785
 20
-45.5820778431
 10
14.5510985504
 20
-45.5023741264
 10
14.6
 20
-45.4159437343
  0
LINE
  5
3D8
100
AcDbEntity
  8
0
100
AcDbLine
 62
7
  6
CONTINUOUS
 10
-11.3516115151
 20
39.1056311296
 11
-13.2306563404
 21
38.6032885536
  0
LINE
  5
3D9
100
AcDbEntity
  8
0
100
AcDbLine
 62
7
  6
CONTINUOUS
 10
-9.4513417461
 20
40.9043478923
 11
-11.6029477407
 21
40.3291389972
  0
LINE
  5
3DA
100
AcDbEntity
  8
0
100
AcDbLine
 62
7
  6
CONTINUOUS
 10
9.4907481555
 20
41.3389609332
 11
9.3311832784
 21
41.3317975094
  0
LWPOLYLINE
  5
3DB
100
AcDbEntity
  8
RACCORDO
100
AcDbPolyline
 62
250
  6
CONTINUOUS
 90
10
 70
0
 10
9.2047877118
 20
41.7935457161
 10
9.4012943911
 20
41.8016759674
 10
9.5738572425
 20
41.8099476864
 10
9.7224022957
 20
41.8183507352
 10
9.8468688278
 20
41.8268817609
 10
9.9469921523
 20
41.8355320883
 10
10.0222490995
 20
41.8442683335
 10
10.0722906698
 20
41.8530498992
 10
10.0970555488
 20
41.8618419598
 10
10.1
 20
41.8660979591
  0
LWPOLYLINE
  5
3DC
100
AcDbEntity
  8
RACCORDO
100
AcDbPolyline
 62
250
  6
CONTINUOUS
 90
11
 70
0
 10
9.0021417036
 20
42.0848766062
 10
9.1943222636
 20
42.0928278591
 10
9.3630860978
 20
42.1009174733
 10
9.5083608783
 20
42.1091355298
 10
9.6300872405
 20
42.1174787436
 10
9.7280063381
 20
42.1259386275
 10
9.8016065069
 20
42.1344825355
 10
9.8505464158
 20
42.1430707682
 10
9.8747660934
 20
42.1516692681
 10
9.874373019
 20
42.1602688237
 10
9.8566649295
 20
42.1670615052
  0
LWPOLYLINE
  5
3DD
100
AcDbEntity
  8
RACCORDO
100
AcDbPolyline
 62
250
  6
CONTINUOUS
 90
11
 70
0
 10
10.6648530882
 20
39.9360337253
 10
10.8978970479
 20
39.9449649318
 10
11.1065705722
 20
39.9540869415
 10
11.2905347372
 20
39.9633903433
 10
11.4490544915
 20
39.972844115
 10
11.5814991791
 20
39.9824106478
 10
11.6875294499
 20
39.9920568883
 10
11.7671401408
 20
40.001771731
 10
11.8202886307
 20
40.0115499845
 10
11.846801364
 20
40.02138097
 10
11.85
 20
40.0261858505
  0
LWPOLYLINE
  5
3DE
100
AcDbEntity
  8
RACCORDO
100
AcDbPolyline
 62
250
  6
CONTINUOUS
 90
12
 70
0
 10
10.4647369492
 20
40.2274589708
 10
10.6934080422
 20
40.2362225948
 10
10.8981659957
 20
40.2451734396
 10
11.0786782574
 20
40.2543022675
 10
11.2342235575
 20
40.2635786418
 10
11.3641830592
 20
40.2729656631
 10
11.4682237718
 20
40.2824309004
 10
11.5463406365
 20
40.2919634543
 10
11.5984918407
 20
40.3015582288
 10
11.624507089
 20
40.3112047445
 10
11.6241849013
 20
40.3208702338
 10
11.6029478508
 20
40.3291389677
  0
LINE
  5
3DF
100
AcDbEntity
  8
0
100
AcDbLine
 62
7
  6
CONTINUOUS
 10
9.3311832784
 20
41.3317975094
 11
8.9586314566
 21
41.3178568511
  0
LINE
  5
3E0
100
AcDbEntity
  8
0
100
AcDbLine
 62
7
  6
CONTINUOUS
 10
10.9018147128
 20
39.5184684563
 11
10.492653904
 21
39.5034171293
  0
LINE
  5
3E1
100
AcDbEntity
  8
RACCORDO
100
AcDbLine
 62
250
  6
CONTINUOUS
 10
8.7428512083
 20
41.7778423438
 11
9.2047877118
 21
41.7935457161
  0
LINE
  5
3E2
100
AcDbEntity
  8
RACCORDO
100
AcDbLine
 62
250
  6
CONTINUOUS
 10
8.5503747886
 20
42.0695189705
 11
9.0021417036
 21
42.0848766062
  0
LINE
  5
3E3
100
AcDbEntity
  8
0
100
AcDbLine
 62
7
  6
CONTINUOUS
 10
7.1406111635
 20
42.6421424214
 11
6.7982994197
 21
42.6305541605
  0
LINE
  5
3E4
100
AcDbEntity
  8
0
100
AcDbLine
 62
7
  6
CONTINUOUS
 10
8.5796999378
 20
40.8301962159
 11
8.1839400658
 21
40.8168663841
  0
LINE
  5
3E5
100
AcDbEntity
  8
RACCORDO
100
AcDbLine
 62
250
  6
CONTINUOUS
 10
10.1262145657
 20
39.9187687658
 11
10.6648530882
 21
39.9360337253
  0
LINE
  5
3E6
100
AcDbEntity
  8
RACCORDO
100
AcDbLine
 62
250
  6
CONTINUOUS
 10
9.9362054581
 20
40.2105179799
 11
10.4647369492
 21
40.2274589708
  0
LINE
  5
3E7
100
AcDbEntity
  8
0
100
AcDbLine
 62
7
  6
CONTINUOUS
 10
10.492653904
 20
39.5034171293
 11
10.0153249243
 21
39.4889902044
  0
LINE
  5
3E8
100
AcDbEntity
  8
0
100
AcDbLine
 62
7
  6
CONTINUOUS
 10
8.9586314566
 20
41.3178568511
 11
8.5183578418
 21
41.3045480601
  0
LINE
  5
3E9
100
AcDbEntity
  8
0
100
AcDbLine
 62
7
  6
CONTINUOUS
 10
8.1839400658
 20
40.8168663841
 11
7.7203654889
 21
40.8042198635
  0
LINE
  5
3EA
100
AcDbEntity
  8
0
100
AcDbLine
 62
7
  6
CONTINUOUS
 10
6.7982994197
 20
42.6305541605
 11
6.3944212236
 21
42.6195862526
  0
LINE
  5
3EB
100
AcDbEntity
  8
RACCORDO
100
AcDbLine
 62
250
  6
CONTINUOUS
 10
8.1951524033
 20
41.7630703934
 11
8.7428512083
 21
41.7778423438
  0
LINE
  5
3EC
100
AcDbEntity
  8
RACCORDO
100
AcDbLine
 62
250
  6
CONTINUOUS
 10
8.0147337126
 20
42.0550722353
 11
8.5503747886
 21
42.0695189705
  0
LINE
  5
3ED
100
AcDbEntity
  8
RACCORDO
100
AcDbLine
 62
250
  6
CONTINUOUS
 10
9.4951200261
 20
39.9024518654
 11
10.1262145657
 21
39.9187687658
  0
LINE
  5
3EE
100
AcDbEntity
  8
RACCORDO
100
AcDbLine
 62
250
  6
CONTINUOUS
 10
9.3169527716
 20
40.1945072695
 11
9.9362054581
 21
40.2105179799
  0
LINE
  5
3EF
100
AcDbEntity
  8
0
100
AcDbLine
 62
7
  6
CONTINUOUS
 10
10.0153249243
 20
39.4889902044
 11
9.4735146301
 21
39.4752909776
  0
LINE
  5
3F0
100
AcDbEntity
  8
0
100
AcDbLine
 62
7
  6
CONTINUOUS
 10
8.5183578418
 20
41.3045480601
 11
8.0128687369
 21
41.2919468981
  0
LINE
  5
3F1
100
AcDbEntity
  8
0
100
AcDbLine
 62
7
  6
CONTINUOUS
 10
7.7203654889
 20
40.8042198635
 11
7.1928175323
 21
40.7923614472
  0
LINE
  5
3F2
100
AcDbEntity
  8
0
100
AcDbLine
 62
7
  6
CONTINUOUS
 10
6.3944212236
 20
42.6195862526
 11
5.9326341587
 21
42.6093380246
  0
LINE
  5
3F3
100
AcDbEntity
  8
RACCORDO
100
AcDbLine
 62
250
  6
CONTINUOUS
 10
7.5647935589
 20
41.7493051094
 11
8.1951524033
 21
41.7630703934
  0
LINE
  5
3F4
100
AcDbEntity
  8
RACCORDO
100
AcDbLine
 62
250
  6
CONTINUOUS
 10
7.3982524043
 20
42.0416099979
 11
8.0147337126
 21
42.0550722353
  0
LINE
  5
3F5
100
AcDbEntity
  8
0
100
AcDbLine
 62
7
  6
CONTINUOUS
 10
9.4735146301
 20
39.4752909776
 11
8.8698523658
 21
39.4623859299
  0
LINE
  5
3F6
100
AcDbEntity
  8
RACCORDO
100
AcDbLine
 62
250
  6
CONTINUOUS
 10
8.7801548685
 20
39.8872978293
 11
9.4951200261
 21
39.9024518654
  0
LINE
  5
3F7
100
AcDbEntity
  8
RACCORDO
100
AcDbLine
 62
250
  6
CONTINUOUS
 10
8.6154032894
 20
40.1796375825
 11
9.3169527716
 21
40.1945072695
  0
LINE
  5
3F8
100
AcDbEntity
  8
0
100
AcDbLine
 62
7
  6
CONTINUOUS
 10
8.0128687369
 20
41.2919468981
 11
7.4462714621
 21
41.2801640784
  0
LINE
  5
3F9
100
AcDbEntity
  8
0
100
AcDbLine
 62
7
  6
CONTINUOUS
 10
7.1928175323
 20
40.7923614472
 11
6.6056676242
 21
40.7813893978
  0
LINE
  5
3FA
100
AcDbEntity
  8
0
100
AcDbLine
 62
7
  6
CONTINUOUS
 10
8.8698523658
 20
39.4623859299
 11
8.2085648699
 21
39.4503718538
  0
LINE
  5
3FB
100
AcDbEntity
  8
0
100
AcDbLine
 62
7
  6
CONTINUOUS
 10
5.9326341587
 20
42.6093380246
 11
5.4171202401
 21
42.5999022862
  0
LINE
  5
3FC
100
AcDbEntity
  8
RACCORDO
100
AcDbLine
 62
250
  6
CONTINUOUS
 10
6.8577514401
 20
41.7366895219
 11
7.5647935589
 21
41.7493051094
  0
LINE
  5
3FD
100
AcDbEntity
  8
RACCORDO
100
AcDbLine
 62
250
  6
CONTINUOUS
 10
6.7067760093
 20
42.0292721526
 11
7.3982524043
 21
42.0416099979
  0
LINE
  5
3FE
100
AcDbEntity
  8
RACCORDO
100
AcDbLine
 62
250
  6
CONTINUOUS
 10
7.9847820301
 20
39.8733743557
 11
8.7801548685
 21
39.8872978293
  0
LINE
  5
3FF
100
AcDbEntity
  8
RACCORDO
100
AcDbLine
 62
250
  6
CONTINUOUS
 10
7.8349548859
 20
40.1659753738
 11
8.6154032894
 21
40.1796375825
  0
LINE
  5
400
100
AcDbEntity
  8
0
100
AcDbLine
 62
7
  6
CONTINUOUS
 10
7.4462714621
 20
41.2801640784
 11
6.8236305449
 21
41.2692974961
  0
LINE
  5
401
100
AcDbEntity
  8
0
100
AcDbLine
 62
7
  6
CONTINUOUS
 10
8.2085648699
 20
39.4503718538
 11
7.4946483119
 21
39.4393336451
  0
LINE
  5
402
100
AcDbEntity
  8
0
100
AcDbLine
 62
7
  6
CONTINUOUS
 10
6.6056676242
 20
40.7813893978
 11
5.9637810739
 21
40.7713946331
  0
LINE
  5
403
100
AcDbEntity
  8
0
100
AcDbLine
 62
7
  6
CONTINUOUS
 10
5.4171202401
 20
42.5999022862
 11
4.8525480418
 21
42.5913644888
  0
LINE
  5
404
100
AcDbEntity
  8
0
100
AcDbLine
 62
7
  6
CONTINUOUS
 10
6.8236305449
 20
41.2692974961
 11
6.148490433
 21
41.2594090102
  0
LINE
  5
405
100
AcDbEntity
  8
RACCORDO
100
AcDbLine
 62
250
  6
CONTINUOUS
 10
7.1161615574
 20
39.8608177454
 11
7.9847820301
 21
39.8733743557
  0
LINE
  5
406
100
AcDbEntity
  8
RACCORDO
100
AcDbLine
 62
250
  6
CONTINUOUS
 10
6.9826332462
 20
40.1536543933
 11
7.8349548859
 21
40.1659753738
  0
LINE
  5
407
100
AcDbEntity
  8
RACCORDO
100
AcDbLine
 62
250
  6
CONTINUOUS
 10
6.0801329217
 20
41.7253467343
 11
6.8577514401
 21
41.7366895219
  0
LINE
  5
408
100
AcDbEntity
  8
RACCORDO
100
AcDbLine
 62
250
  6
CONTINUOUS
 10
5.9462768263
 20
42.0181791534
 11
6.7067760093
 21
42.0292721526
  0
LINE
  5
409
100
AcDbEntity
  8
0
100
AcDbLine
 62
7
  6
CONTINUOUS
 10
7.4946483119
 20
39.4393336451
 11
6.7315672488
 21
39.4293248711
  0
LINE
  5
40A
100
AcDbEntity
  8
0
100
AcDbLine
 62
7
  6
CONTINUOUS
 10
5.9637810739
 20
40.7713946331
 11
5.2724767553
 21
40.7624599729
  0
LINE
  5
40B
100
AcDbEntity
  8
0
100
AcDbLine
 62
7
  6
CONTINUOUS
 10
6.148490433
 20
41.2594090102
 11
5.4264603731
 21
41.2505870089
  0
LINE
  5
40C
100
AcDbEntity
  8
0
100
AcDbLine
 62
7
  6
CONTINUOUS
 10
4.8525480418
 20
42.5913644888
 11
4.244030417
 21
42.583801952
  0
LINE
  5
40D
100
AcDbEntity
  8
RACCORDO
100
AcDbLine
 62
250
  6
CONTINUOUS
 10
6.1858012876
 20
39.8497884148
 11
7.1161615574
 21
39.8608177454
  0
LINE
  5
40E
100
AcDbEntity
  8
RACCORDO
100
AcDbLine
 62
250
  6
CONTINUOUS
 10
6.0697302609
 20
40.14283206
 11
6.9826332462
 21
40.1536543933
  0
LINE
  5
40F
100
AcDbEntity
  8
RACCORDO
100
AcDbLine
 62
250
  6
CONTINUOUS
 10
5.2641949363
 20
41.7156644497
 11
6.0801329217
 21
41.7253467343
  0
LINE
  5
410
100
AcDbEntity
  8
RACCORDO
100
AcDbLine
 62
250
  6
CONTINUOUS
 10
5.1483019173
 20
42.0087100596
 11
5.9462768263
 21
42.0181791534
  0
LINE
  5
411
100
AcDbEntity
  8
0
100
AcDbLine
 62
7
  6
CONTINUOUS
 10
6.7315672488
 20
39.4293248711
 11
5.9247528622
 21
39.4204218582
  0
LINE
  5
412
100
AcDbEntity
  8
0
100
AcDbLine
 62
7
  6
CONTINUOUS
 10
5.2724767553
 20
40.7624599729
 11
4.5374830339
 21
40.7546594526
  0
LINE
  5
413
100
AcDbEntity
  8
0
100
AcDbLine
 62
7
  6
CONTINUOUS
 10
5.4264603731
 20
41.2505870089
 11
4.663884103
 21
41.2429031748
  0
LINE
  5
414
100
AcDbEntity
  8
0
100
AcDbLine
 62
7
  6
CONTINUOUS
 10
4.244030417
 20
42.583801952
 11
3.5970781956
 21
42.5772831634
  0
LINE
  5
415
100
AcDbEntity
  8
RACCORDO
100
AcDbLine
 62
250
  6
CONTINUOUS
 10
5.2077120957
 20
39.8404162928
 11
6.1858012876
 21
39.8497884148
  0
LINE
  5
416
100
AcDbEntity
  8
RACCORDO
100
AcDbLine
 62
250
  6
CONTINUOUS
 10
5.109994073
 20
40.1336357757
 11
6.0697302609
 21
40.14283206
  0
LINE
  5
417
100
AcDbEntity
  8
0
100
AcDbLine
 62
7
  6
CONTINUOUS
 10
5.9247528622
 20
39.4204218582
 11
5.0802202758
 21
39.4126861681
  0
LINE
  5
418
100
AcDbEntity
  8
0
100
AcDbLine
 62
7
  6
CONTINUOUS
 10
5.4679042011
 20
38.9260201083
 11
4.6164608989
 21
38.918643672
  0
LINE
  5
419
100
AcDbEntity
  8
0
100
AcDbLine
 62
7
  6
CONTINUOUS
 10
4.5374830339
 20
40.7546594526
 11
3.764890299
 21
40.7480577097
  0
LINE
  5
41A
100
AcDbEntity
  8
RACCORDO
100
AcDbLine
 62
250
  6
CONTINUOUS
 10
4.0147732843
 20
41.7043530454
 11
5.2641949363
 21
41.7156644497
  0
LINE
  5
41B
100
AcDbEntity
  8
RACCORDO
100
AcDbLine
 62
250
  6
CONTINUOUS
 10
3.9263867565
 20
41.9976476431
 11
5.1483019173
 21
42.0087100596
  0
LINE
  5
41C
100
AcDbEntity
  8
0
100
AcDbLine
 62
7
  6
CONTINUOUS
 10
4.663884103
 20
41.2429031748
 11
3.8651026669
 21
41.236401249
  0
LINE
  5
41D
100
AcDbEntity
  8
0
100
AcDbLine
 62
7
  6
CONTINUOUS
 10
3.5970781956
 20
42.5772831634
 11
2.9175502769
 21
42.571867158
  0
LINE
  5
41E
100
AcDbEntity
  8
0
100
AcDbLine
 62
7
  6
CONTINUOUS
 10
5.0802202758
 20
39.4126861681
 11
4.2020679115
 21
39.4061553414
  0
LINE
  5
41F
100
AcDbEntity
  8
RACCORDO
100
AcDbLine
 62
250
  6
CONTINUOUS
 10
4.1967200972
 20
39.8327788221
 11
5.2077120957
 21
39.8404162928
  0
LINE
  5
420
100
AcDbEntity
  8
0
100
AcDbLine
 62
7
  6
CONTINUOUS
 10
4.6164608989
 20
38.918643672
 11
3.7326364405
 21
38.9125365365
  0
LINE
  5
421
100
AcDbEntity
  8
RACCORDO
100
AcDbLine
 62
250
  6
CONTINUOUS
 10
3.6135634828
 20
40.1230374825
 11
5.109994073
 21
40.1336357757
  0
LINE
  5
422
100
AcDbEntity
  8
0
100
AcDbLine
 62
7
  6
CONTINUOUS
 10
3.764890299
 20
40.7480577097
 11
2.9611004975
 21
40.7427094485
  0
LINE
  5
423
100
AcDbEntity
  8
0
100
AcDbLine
 62
7
  6
CONTINUOUS
 10
3.8651026669
 20
41.236401249
 11
3.0368449772
 21
41.2311412708
  0
LINE
  5
424
100
AcDbEntity
  8
0
100
AcDbLine
 62
7
  6
CONTINUOUS
 10
2.9175502769
 20
42.571867158
 11
2.2116005712
 21
42.5676029842
  0
LINE
  5
425
100
AcDbEntity
  8
0
100
AcDbLine
 62
7
  6
CONTINUOUS
 10
4.2020679115
 20
39.4061553414
 11
3.2966157537
 21
39.4008808024
  0
LINE
  5
426
100
AcDbEntity
  8
RACCORDO
100
AcDbLine
 62
250
  6
CONTINUOUS
 10
2.7896690501
 20
41.6966857524
 11
4.0147732843
 21
41.7043530454
  0
LINE
  5
427
100
AcDbEntity
  8
0
100
AcDbLine
 62
7
  6
CONTINUOUS
 10
3.7326364405
 20
38.9125365365
 11
2.8226302193
 21
38.9077415388
  0
LINE
  5
428
100
AcDbEntity
  8
RACCORDO
100
AcDbLine
 62
250
  6
CONTINUOUS
 10
2.3439069966
 20
41.9883668709
 11
3.9263867565
 21
41.9976476431
  0
LINE
  5
429
100
AcDbEntity
  8
RACCORDO
100
AcDbLine
 62
250
  6
CONTINUOUS
 10
2.6635116582
 20
39.8246667089
 11
4.1967200972
 21
39.8327788221
  0
LINE
  5
42A
100
AcDbEntity
  8
0
100
AcDbLine
 62
7
  6
CONTINUOUS
 10
2.9611004975
 20
40.7427094485
 11
2.1327740846
 21
40.7386589862
  0
LINE
  5
42B
100
AcDbEntity
  8
0
100
AcDbLine
 62
7
  6
CONTINUOUS
 10
3.0368449772
 20
41.2311412708
 11
2.1863016669
 21
41.2271638256
  0
LINE
  5
42C
100
AcDbEntity
  8
0
100
AcDbLine
 62
7
  6
CONTINUOUS
 10
3.2966157537
 20
39.4008808024
 11
2.3705483031
 21
39.3968972012
  0
LINE
  5
42D
100
AcDbEntity
  8
RACCORDO
100
AcDbLine
 62
250
  6
CONTINUOUS
 10
2.1384044406
 20
40.1164505194
 11
3.6135634828
 21
40.1230374825
  0
LINE
  5
42E
100
AcDbEntity
  8
0
100
AcDbLine
 62
7
  6
CONTINUOUS
 10
2.8226302193
 20
38.9077415388
 11
1.8928252752
 21
38.9042923125
  0
LINE
  5
42F
100
AcDbEntity
  8
0
100
AcDbLine
 62
7
  6
CONTINUOUS
 10
2.2116005712
 20
42.5676029842
 11
1.1171714804
 21
42.5634479419
  0
LINE
  5
430
100
AcDbEntity
  8
0
100
AcDbLine
 62
7
  6
CONTINUOUS
 10
2.1327740846
 20
40.7386589862
 11
1.286774834
 21
40.7359398863
  0
LINE
  5
431
100
AcDbEntity
  8
0
100
AcDbLine
 62
7
  6
CONTINUOUS
 10
2.1863016669
 20
41.2271638256
 11
1.3183145414
 21
41.2244915554
  0
LINE
  5
432
100
AcDbEntity
  8
0
100
AcDbLine
 62
7
  6
CONTINUOUS
 10
2.3705483031
 20
39.3968972012
 11
1.428359661
 21
39.3942238697
  0
LINE
  5
433
100
AcDbEntity
  8
RACCORDO
100
AcDbLine
 62
250
  6
CONTINUOUS
 10
0.9550942614
 20
41.6906185498
 11
2.7896690501
 21
41.6966857524
  0
LINE
  5
434
100
AcDbEntity
  8
0
100
AcDbLine
 62
7
  6
CONTINUOUS
 10
1.8928252752
 20
38.9042923125
 11
0.9497435218
 21
38.9022130515
  0
LINE
  5
435
100
AcDbEntity
  8
RACCORDO
100
AcDbLine
 62
250
  6
CONTINUOUS
 10
0.8210144891
 20
39.819871801
 11
2.6635116582
 21
39.8246667089
  0
LINE
  5
436
100
AcDbEntity
  8
RACCORDO
100
AcDbLine
 62
250
  6
CONTINUOUS
 10
0.6106332244
 20
41.9837725319
 11
2.3439069966
 21
41.9883668709
  0
LINE
  5
437
100
AcDbEntity
  8
0
100
AcDbLine
 62
7
  6
CONTINUOUS
 10
1.286774834
 20
40.7359398863
 11
0.4301129618
 21
40.73457468
  0
LINE
  5
438
100
AcDbEntity
  8
0
100
AcDbLine
 62
7
  6
CONTINUOUS
 10
1.428359661
 20
39.3942238697
 11
0.478434187
 21
39.3928859705
  0
LINE
  5
439
100
AcDbEntity
  8
0
100
AcDbLine
 62
7
  6
CONTINUOUS
 10
1.3183145414
 20
41.2244915554
 11
0.4419444835
 21
41.2231539705
  0
LINE
  5
43A
100
AcDbEntity
  8
RACCORDO
100
AcDbLine
 62
250
  6
CONTINUOUS
 10
0.3939981935
 20
40.1131055084
 11
2.1384044406
 21
40.1164505194
  0
LINE
  5
43B
100
AcDbEntity
  8
0
100
AcDbLine
 62
7
  6
CONTINUOUS
 10
0.9497435218
 20
38.9022130515
 11
-0.0
 21
38.9015183402
  0
LINE
  5
43C
100
AcDbEntity
  8
0
100
AcDbLine
 62
7
  6
CONTINUOUS
 10
1.1171714804
 20
42.5634479419
 11
-0.0
 21
42.5620534653
  0
LINE
  5
43D
100
AcDbEntity
  8
RACCORDO
100
AcDbLine
 62
250
  6
CONTINUOUS
 10
-0.8187066735
 20
39.8198690083
 11
0.8210144891
 21
39.819871801
  0
LINE
  5
43E
100
AcDbEntity
  8
0
100
AcDbLine
 62
7
  6
CONTINUOUS
 10
-0.954554074
 20
39.3933885989
 11
0.478434187
 21
39.3928859705
  0
LINE
  5
43F
100
AcDbEntity
  8
0
100
AcDbLine
 62
7
  6
CONTINUOUS
 10
-0.8593344488
 20
40.7350870749
 11
0.4301129618
 21
40.73457468
  0
LINE
  5
440
100
AcDbEntity
  8
0
100
AcDbLine
 62
7
  6
CONTINUOUS
 10
-0.881382664
 20
41.2236566399
 11
0.4419444835
 21
41.2231539705
  0
LINE
  5
441
100
AcDbEntity
  8
RACCORDO
100
AcDbLine
 62
250
  6
CONTINUOUS
 10
-0.9523190617
 20
41.6906139561
 11
0.9550942614
 21
41.6906185498
  0
LINE
  5
442
100
AcDbEntity
  8
RACCORDO
100
AcDbLine
 62
250
  6
CONTINUOUS
 10
-1.2307323565
 20
40.1141289166
 11
0.3939981935
 21
40.1131055084
  0
LINE
  5
443
100
AcDbEntity
  8
0
100
AcDbLine
 62
7
  6
CONTINUOUS
 10
-1.422532201
 20
38.9030802981
 11
-0.0
 21
38.9015183402
  0
LINE
  5
444
100
AcDbEntity
  8
RACCORDO
100
AcDbLine
 62
250
  6
CONTINUOUS
 10
-1.264265682
 20
41.9848607739
 11
0.6106332244
 21
41.9837725319
  0
LINE
  5
445
100
AcDbEntity
  8
RACCORDO
100
AcDbLine
 62
250
  6
CONTINUOUS
 10
-2.1730567133
 20
39.8228819354
 11
-0.8187066735
 21
39.8198690083
  0
LINE
  5
446
100
AcDbEntity
  8
0
100
AcDbLine
 62
7
  6
CONTINUOUS
 10
-1.4856222682
 20
42.5645292589
 11
-0.0
 21
42.5620534653
  0
LINE
  5
447
100
AcDbEntity
  8
0
100
AcDbLine
 62
7
  6
CONTINUOUS
 10
-2.3705483031
 20
39.3968972012
 11
-0.954554074
 21
39.3933885989
  0
LINE
  5
448
100
AcDbEntity
  8
0
100
AcDbLine
 62
7
  6
CONTINUOUS
 10
-2.1863016669
 20
41.2271638256
 11
-0.881382664
 21
41.2236566399
  0
LINE
  5
449
100
AcDbEntity
  8
RACCORDO
100
AcDbLine
 62
250
  6
CONTINUOUS
 10
-2.6061432027
 20
40.1181521962
 11
-1.2307323565
 21
40.1141289166
  0
LINE
  5
44A
100
AcDbEntity
  8
0
100
AcDbLine
 62
7
  6
CONTINUOUS
 10
-2.1327740846
 20
40.7386589862
 11
-0.8593344488
 21
40.7350870749
  0
LINE
  5
44B
100
AcDbEntity
  8
RACCORDO
100
AcDbLine
 62
250
  6
CONTINUOUS
 10
-2.3895498174
 20
41.6948329843
 11
-0.9523190617
 21
41.6906139561
  0
LINE
  5
44C
100
AcDbEntity
  8
0
100
AcDbLine
 62
7
  6
CONTINUOUS
 10
-2.8226302193
 20
38.9077415388
 11
-1.422532201
 21
38.9030802981
  0
LINE
  5
44D
100
AcDbEntity
  8
RACCORDO
100
AcDbLine
 62
250
  6
CONTINUOUS
 10
-2.7201318767
 20
41.990108472
 11
-1.264265682
 21
41.9848607739
  0
LINE
  5
44E
100
AcDbEntity
  8
RACCORDO
100
AcDbLine
 62
250
  6
CONTINUOUS
 10
-3.6727880715
 20
39.829559011
 11
-2.1730567133
 21
39.8228819354
  0
LINE
  5
44F
100
AcDbEntity
  8
0
100
AcDbLine
 62
7
  6
CONTINUOUS
 10
-3.7527460333
 20
39.4033614167
 11
-2.3705483031
 21
39.3968972012
  0
LINE
  5
450
100
AcDbEntity
  8
0
100
AcDbLine
 62
7
  6
CONTINUOUS
 10
-3.4546478764
 20
41.2336164579
 11
-2.1863016669
 21
41.2271638256
  0
LINE
  5
451
100
AcDbEntity
  8
RACCORDO
100
AcDbLine
 62
250
  6
CONTINUOUS
 10
-4.1074134586
 20
40.126071874
 11
-2.6061432027
 21
40.1181521962
  0
LINE
  5
452
100
AcDbEntity
  8
0
100
AcDbLine
 62
7
  6
CONTINUOUS
 10
-3.3664841745
 20
40.7452238759
 11
-2.1327740846
 21
40.7386589862
  0
LINE
  5
453
100
AcDbEntity
  8
RACCORDO
100
AcDbLine
 62
250
  6
CONTINUOUS
 10
-3.5896922551
 20
41.7013375336
 11
-2.3895498174
 21
41.6948329843
  0
LINE
  5
454
100
AcDbEntity
  8
0
100
AcDbLine
 62
7
  6
CONTINUOUS
 10
-4.178213673
 20
38.9154285518
 11
-2.8226302193
 21
38.9077415388
  0
LINE
  5
455
100
AcDbEntity
  8
0
100
AcDbLine
 62
7
  6
CONTINUOUS
 10
-2.9175502769
 20
42.571867158
 11
-1.4856222682
 21
42.5645292589
  0
LINE
  5
456
100
AcDbEntity
  8
RACCORDO
100
AcDbLine
 62
250
  6
CONTINUOUS
 10
-3.9155194825
 20
41.9975655941
 11
-2.7201318767
 21
41.990108472
  0
LINE
  5
457
100
AcDbEntity
  8
0
100
AcDbLine
 62
7
  6
CONTINUOUS
 10
-5.0802202758
 20
39.4126861681
 11
-3.7527460333
 21
39.4033614167
  0
LINE
  5
458
100
AcDbEntity
  8
RACCORDO
100
AcDbLine
 62
250
  6
CONTINUOUS
 10
-5.1960031525
 20
39.8403164542
 11
-3.6727880715
 21
39.829559011
  0
LINE
  5
459
100
AcDbEntity
  8
0
100
AcDbLine
 62
7
  6
CONTINUOUS
 10
-4.663884103
 20
41.2429031748
 11
-3.4546478764
 21
41.2336164579
  0
LINE
  5
45A
100
AcDbEntity
  8
RACCORDO
100
AcDbLine
 62
250
  6
CONTINUOUS
 10
-5.5834214706
 20
40.1379156659
 11
-4.1074134586
 21
40.126071874
  0
LINE
  5
45B
100
AcDbEntity
  8
0
100
AcDbLine
 62
7
  6
CONTINUOUS
 10
-4.5374830339
 20
40.7546594526
 11
-3.3664841745
 21
40.7452238759
  0
LINE
  5
45C
100
AcDbEntity
  8
RACCORDO
100
AcDbLine
 62
250
  6
CONTINUOUS
 10
-4.8360399192
 20
41.7113484345
 11
-3.5896922551
 21
41.7013375336
  0
LINE
  5
45D
100
AcDbEntity
  8
0
100
AcDbLine
 62
7
  6
CONTINUOUS
 10
-5.4679042011
 20
38.9260201083
 11
-4.178213673
 21
38.9154285518
  0
LINE
  5
45E
100
AcDbEntity
  8
0
100
AcDbLine
 62
7
  6
CONTINUOUS
 10
-3.925
 20
42.5804081712
 11
-2.9175502769
 21
42.571867158
  0
LINE
  5
45F
100
AcDbEntity
  8
RACCORDO
100
AcDbLine
 62
250
  6
CONTINUOUS
 10
-6.1740255665
 20
39.8496628013
 11
-5.1960031525
 21
39.8403164542
  0
LINE
  5
460
100
AcDbEntity
  8
RACCORDO
100
AcDbLine
 62
250
  6
CONTINUOUS
 10
-5.1357743271
 20
42.008576726
 11
-3.9155194825
 21
41.9975655941
  0
LINE
  5
461
100
AcDbEntity
  8
0
100
AcDbLine
 62
7
  6
CONTINUOUS
 10
-6.3336134671
 20
39.4247354796
 11
-5.0802202758
 21
39.4126861681
  0
LINE
  5
462
100
AcDbEntity
  8
RACCORDO
100
AcDbLine
 62
250
  6
CONTINUOUS
 10
-5.6618738181
 20
41.7201294943
 11
-4.8360399192
 21
41.7113484345
  0
LINE
  5
463
100
AcDbEntity
  8
RACCORDO
100
AcDbLine
 62
250
  6
CONTINUOUS
 10
-6.5218896911
 20
40.1479161173
 11
-5.5834214706
 21
40.1379156659
  0
LINE
  5
464
100
AcDbEntity
  8
0
100
AcDbLine
 62
7
  6
CONTINUOUS
 10
-5.7933199795
 20
41.254865078
 11
-4.663884103
 21
41.2429031748
  0
LINE
  5
465
100
AcDbEntity
  8
RACCORDO
100
AcDbLine
 62
250
  6
CONTINUOUS
 10
-7.1049987666
 20
39.860671613
 11
-6.1740255665
 21
39.8496628013
  0
LINE
  5
466
100
AcDbEntity
  8
0
100
AcDbLine
 62
7
  6
CONTINUOUS
 10
-5.6239571696
 20
40.7667899493
 11
-4.5374830339
 21
40.7546594526
  0
LINE
  5
467
100
AcDbEntity
  8
RACCORDO
100
AcDbLine
 62
250
  6
CONTINUOUS
 10
-5.9337260574
 20
42.0180142632
 11
-5.1357743271
 21
42.008576726
  0
LINE
  5
468
100
AcDbEntity
  8
0
100
AcDbLine
 62
7
  6
CONTINUOUS
 10
-4.8525480418
 20
42.5913644888
 11
-3.925
 21
42.5804081712
  0
LINE
  5
469
100
AcDbEntity
  8
0
100
AcDbLine
 62
7
  6
CONTINUOUS
 10
-7.4946483119
 20
39.4393336451
 11
-6.3336134671
 21
39.4247354796
  0
LINE
  5
46A
100
AcDbEntity
  8
RACCORDO
100
AcDbLine
 62
250
  6
CONTINUOUS
 10
-7.4062984516
 20
40.1594804216
 11
-6.5218896911
 21
40.1479161173
  0
LINE
  5
46B
100
AcDbEntity
  8
RACCORDO
100
AcDbLine
 62
250
  6
CONTINUOUS
 10
-6.4644452065
 20
41.7306635242
 11
-5.6618738181
 21
41.7201294943
  0
LINE
  5
46C
100
AcDbEntity
  8
RACCORDO
100
AcDbLine
 62
250
  6
CONTINUOUS
 10
-7.9744815291
 20
39.8732106121
 11
-7.1049987666
 21
39.860671613
  0
LINE
  5
46D
100
AcDbEntity
  8
0
100
AcDbLine
 62
7
  6
CONTINUOUS
 10
-6.8236305449
 20
41.2692974961
 11
-5.7933199795
 21
41.254865078
  0
LINE
  5
46E
100
AcDbEntity
  8
RACCORDO
100
AcDbLine
 62
250
  6
CONTINUOUS
 10
-6.6950753381
 20
42.0290835785
 11
-5.9337260574
 21
42.0180142632
  0
LINE
  5
46F
100
AcDbEntity
  8
0
100
AcDbLine
 62
7
  6
CONTINUOUS
 10
-6.6056676242
 20
40.7813893978
 11
-5.6239571696
 21
40.7667899493
  0
LINE
  5
470
100
AcDbEntity
  8
RACCORDO
100
AcDbLine
 62
250
  6
CONTINUOUS
 10
-8.2252941211
 20
40.1724837688
 11
-7.4062984516
 21
40.1594804216
  0
LINE
  5
471
100
AcDbEntity
  8
RACCORDO
100
AcDbLine
 62
250
  6
CONTINUOUS
 10
-7.2087341295
 20
41.7426363366
 11
-6.4644452065
 21
41.7306635242
  0
LINE
  5
472
100
AcDbEntity
  8
0
100
AcDbLine
 62
7
  6
CONTINUOUS
 10
-8.5463943079
 20
39.4562677904
 11
-7.4946483119
 21
39.4393336451
  0
LINE
  5
473
100
AcDbEntity
  8
0
100
AcDbLine
 62
7
  6
CONTINUOUS
 10
-5.6813121991
 20
42.6045130716
 11
-4.8525480418
 21
42.5913644888
  0
LINE
  5
474
100
AcDbEntity
  8
RACCORDO
100
AcDbLine
 62
250
  6
CONTINUOUS
 10
-8.7708239457
 20
39.8871183715
 11
-7.9744815291
 21
39.8732106121
  0
LINE
  5
475
100
AcDbEntity
  8
RACCORDO
100
AcDbLine
 62
250
  6
CONTINUOUS
 10
-7.387730049
 20
42.0414027264
 11
-6.6950753381
 21
42.0290835785
  0
LINE
  5
476
100
AcDbEntity
  8
0
100
AcDbLine
 62
7
  6
CONTINUOUS
 10
-7.1928175323
 20
40.7923614472
 11
-6.6056676242
 21
40.7813893978
  0
LINE
  5
477
100
AcDbEntity
  8
0
100
AcDbLine
 62
7
  6
CONTINUOUS
 10
-7.7371868999
 20
41.2859534863
 11
-6.8236305449
 21
41.2692974961
  0
LINE
  5
478
100
AcDbEntity
  8
RACCORDO
100
AcDbLine
 62
250
  6
CONTINUOUS
 10
-8.9674813069
 20
40.1867405317
 11
-8.2252941211
 21
40.1724837688
  0
LINE
  5
479
100
AcDbEntity
  8
0
100
AcDbLine
 62
7
  6
CONTINUOUS
 10
-9.178869188
 20
39.4687273524
 11
-8.5463943079
 21
39.4562677904
  0
LINE
  5
47A
100
AcDbEntity
  8
RACCORDO
100
AcDbLine
 62
250
  6
CONTINUOUS
 10
-7.8800752384
 20
41.7558374001
 11
-7.2087341295
 21
41.7426363366
  0
LINE
  5
47B
100
AcDbEntity
  8
RACCORDO
100
AcDbLine
 62
250
  6
CONTINUOUS
 10
-9.4868181336
 20
39.902258058
 11
-8.7708239457
 21
39.8871183715
  0
LINE
  5
47C
100
AcDbEntity
  8
RACCORDO
100
AcDbLine
 62
250
  6
CONTINUOUS
 10
-8.0054823004
 20
42.0548484536
 11
-7.387730049
 21
42.0414027264
  0
LINE
  5
47D
100
AcDbEntity
  8
0
100
AcDbLine
 62
7
  6
CONTINUOUS
 10
-6.3944212236
 20
42.6195862526
 11
-5.6813121991
 21
42.6045130716
  0
LINE
  5
47E
100
AcDbEntity
  8
0
100
AcDbLine
 62
7
  6
CONTINUOUS
 10
-7.7203654889
 20
40.8042198635
 11
-7.1928175323
 21
40.7923614472
  0
LINE
  5
47F
100
AcDbEntity
  8
0
100
AcDbLine
 62
7
  6
CONTINUOUS
 10
-8.2732300897
 20
41.2981454772
 11
-7.7371868999
 21
41.2859534863
  0
LINE
  5
480
100
AcDbEntity
  8
0
100
AcDbLine
 62
7
  6
CONTINUOUS
 10
-9.7523588108
 20
39.4820449532
 11
-9.178869188
 21
39.4687273524
  0
LINE
  5
481
100
AcDbEntity
  8
RACCORDO
100
AcDbLine
 62
250
  6
CONTINUOUS
 10
-9.6297565967
 20
40.2021839713
 11
-8.9674813069
 21
40.1867405317
  0
LINE
  5
482
100
AcDbEntity
  8
RACCORDO
100
AcDbLine
 62
250
  6
CONTINUOUS
 10
-8.4706347243
 20
41.7700964828
 11
-7.8800752384
 21
41.7558374001
  0
LINE
  5
483
100
AcDbEntity
  8
RACCORDO
100
AcDbLine
 62
250
  6
CONTINUOUS
 10
-10.1190187678
 20
39.9185624214
 11
-9.4868181336
 21
39.902258058
  0
LINE
  5
484
100
AcDbEntity
  8
RACCORDO
100
AcDbLine
 62
250
  6
CONTINUOUS
 10
-8.5424391979
 20
42.0692799533
 11
-8.0054823004
 21
42.0548484536
  0
LINE
  5
485
100
AcDbEntity
  8
0
100
AcDbLine
 62
7
  6
CONTINUOUS
 10
-6.7982994197
 20
42.6305541605
 11
-6.3944212236
 21
42.6195862526
  0
LINE
  5
486
100
AcDbEntity
  8
0
100
AcDbLine
 62
7
  6
CONTINUOUS
 10
-8.1839400658
 20
40.8168663841
 11
-7.7203654889
 21
40.8042198635
  0
LINE
  5
487
100
AcDbEntity
  8
0
100
AcDbLine
 62
7
  6
CONTINUOUS
 10
-8.7468565782
 20
41.3111181996
 11
-8.2732300897
 21
41.2981454772
  0
LINE
  5
488
100
AcDbEntity
  8
0
100
AcDbLine
 62
7
  6
CONTINUOUS
 10
-10.2624897764
 20
39.4961258058
 11
-9.7523588108
 21
39.4820449532
  0
LWPOLYLINE
  5
489
100
AcDbEntity
  8
0
100
AcDbPolyline
 62
7
  6
CONTINUOUS
 90
4
 70
0
 10
-9.4907481555
 20
41.3389609332
 10
-9.3311832784
 20
41.3317975094
 10
-9.1537773193
 20
41.3247630592
 10
-8.7468565782
 20
41.3111181996
  0
LINE
  5
48A
100
AcDbEntity
  8
0
100
AcDbLine
 62
7
  6
CONTINUOUS
 10
11.3516115151
 20
39.1056311296
 11
13.2306563404
 21
38.6032885536
  0
LINE
  5
48B
100
AcDbEntity
  8
0
100
AcDbLine
 62
7
  6
CONTINUOUS
 10
9.4513417461
 20
40.9043478923
 11
11.6029477407
 21
40.3291389972
  0
LWPOLYLINE
  5
48C
100
AcDbEntity
  8
RACCORDO
100
AcDbPolyline
 62
7
  6
CONTINUOUS
 90
19
 70
0
 10
11.6029478521
 20
40.3291389674
 10
11.61316013
 20
40.326289416
 10
11.6242276743
 20
40.3229113985
 10
11.6361451014
 20
40.3188990934
 10
11.6486645694
 20
40.3142199707
 10
11.6619880024
 20
40.3086631513
 10
11.6767338185
 20
40.3017457105
 10
11.6929627663
 20
40.2930950966
 10
11.7102995585
 20
40.2825001317
 10
11.7285944665
 20
40.2695758102
 10
11.7476645248
 20
40.2538479066
 10
11.7669144419
 20
40.2350928077
 10
11.7855166751
 20
40.2133929897
 10
11.8029764534
 20
40.1885558173
 10
11.8186651001
 20
40.160544328
 10
11.831707652
 20
40.1299819257
 10
11.841556552
 20
40.0972844737
 10
11.847813162
 20
40.0625552306
 10
11.85
 20
40.0261858505
  0
LWPOLYLINE
  5
48D
100
AcDbEntity
  8
RACCORDO
100
AcDbPolyline
 62
7
  6
CONTINUOUS
 90
22
 70
0
 10
13.2306563456
 20
38.6032885522
 10
13.2611312349
 20
38.5947120053
 10
13.2940463617
 20
38.5844382378
 10
13.3293788913
 20
38.572162996
 10
13.3670342718
 20
38.557564959
 10
13.4069372391
 20
38.5402724482
 10
13.449011005
 20
38.5198592503
 10
13.4926535491
 20
38.4961295635
 10
13.5379562718
 20
38.4684910433
 10
13.5856461896
 20
38.4357291142
 10
13.6357848008
 20
38.3966963407
 10
13.6868999927
 20
38.3512759285
 10
13.7372726449
 20
38.2998407725
 10
13.786285585
 20
38.2418515687
 10
13.8328146155
 20
38.1773014615
 10
13.874823424
 20
38.107972442
 10
13.9115414517
 20
38.0345359542
 10
13.9426473572
 20
37.9569263285
 10
13.9673756276
 20
37.8763001383
 10
13.985331715
 20
37.793428272
 10
13.9962947756
 20
37.7086106062
 10
14.0
 20
37.6224358193
  0
LWPOLYLINE
  5
48E
100
AcDbEntity
  8
0
100
AcDbPolyline
 62
250
  6
CONTINUOUS
 90
8
 70
0
 10
33.4499217485
 20
25.2034522017
 10
33.4512325267
 20
25.2014459801
 10
33.4525319247
 20
25.1938334796
 10
33.4538199423
 20
25.1806147001
 10
33.4551053991
 20
25.161724147
 10
33.4563794756
 20
25.1372273149
 10
33.4576157134
 20
25.107320688
 10
33.458813557
 20
25.0718338004
  0
LINE
  5
48F
100
AcDbEntity
  8
0
100
AcDbLine
 62
7
  6
CONTINUOUS
 10
-7.8511145721
 20
42.7032239848
 11
-9.8566648691
 21
42.1670615213
  0
LINE
  5
490
100
AcDbEntity
  8
0
100
AcDbLine
 62
7
  6
CONTINUOUS
 10
-5.9872555597
 20
44.5056021396
 11
-8.1103819975
 21
43.9380069499
  0
LINE
  5
491
100
AcDbEntity
  8
0
100
AcDbLine
 62
7
  6
CONTINUOUS
 10
-0.9978759266
 20
46.3996282333
 11
-3.8694093095
 21
45.6319544358
  0
LWPOLYLINE
  5
492
100
AcDbEntity
  8
0
100
AcDbPolyline
 62
7
  6
CONTINUOUS
 90
3
 70
0
 10
7.8678786997
 20
43.1501775033
 10
7.7325045921
 20
43.1439829184
 10
7.5808456296
 20
43.1378893418
  0
LWPOLYLINE
  5
493
100
AcDbEntity
  8
0
100
AcDbPolyline
 62
7
  6
CONTINUOUS
 90
9
 70
0
 10
-5.4690866775
 20
44.5418440539
 10
-5.5852424919
 20
44.5370371873
 10
-5.6874322948
 20
44.5321346596
 10
-5.7757593101
 20
44.5271371779
 10
-5.8495674731
 20
44.5220818618
 10
-5.9087486747
 20
44.5169682806
 10
-5.9534110239
 20
44.5117968651
 10
-5.9832227831
 20
44.5066060269
 10
-5.9872670073
 20
44.5055990785
  0
LWPOLYLINE
  5
494
100
AcDbEntity
  8
RACCORDO
100
AcDbPolyline
 62
250
  6
CONTINUOUS
 90
10
 70
0
 10
7.534139656
 20
43.5762061541
 10
7.7129068755
 20
43.5832028164
 10
7.8700049777
 20
43.590336313
 10
8.005330063
 20
43.5975961288
 10
8.118791398
 20
43.6049774018
 10
8.2101184676
 20
43.6124705783
 10
8.2788159027
 20
43.6200450491
 10
8.3245513611
 20
43.6276641708
 10
8.3472543223
 20
43.6352961481
 10
8.35
 20
43.6390329722
  0
LWPOLYLINE
  5
495
100
AcDbEntity
  8
RACCORDO
100
AcDbPolyline
 62
250
  6
CONTINUOUS
 90
11
 70
0
 10
7.3335110297
 20
43.8676128255
 10
7.5075178519
 20
43.8744231599
 10
7.6604325518
 20
43.8813666955
 10
7.7921540157
 20
43.8884331916
 10
7.902593954
 20
43.8956179079
 10
7.9914890717
 20
43.9029115414
 10
8.0583571755
 20
43.9102843018
 10
8.102874755
 20
43.9177005263
 10
8.1249731586
 20
43.9251292685
 10
8.1247383769
 20
43.9325602743
 10
8.1103821084
 20
43.9380069203
  0
LWPOLYLINE
  5
496
100
AcDbEntity
  8
RACCORDO
100
AcDbPolyline
 62
250
  6
CONTINUOUS
 90
9
 70
0
 10
3.6719523175
 20
45.3059801394
 10
3.7778862537
 20
45.3100110403
 10
3.8694579068
 20
45.3141561239
 10
3.9460310388
 20
45.3183872338
 10
4.0072690536
 20
45.3226800098
 10
4.0531440918
 20
45.3270253263
 10
4.083592038
 20
45.3314171036
 10
4.0984514285
 20
45.3358458414
 10
4.1
 20
45.3378123061
  0
LWPOLYLINE
  5
497
100
AcDbEntity
  8
RACCORDO
100
AcDbPolyline
 62
250
  6
CONTINUOUS
 90
10
 70
0
 10
3.4728118361
 20
45.5974402038
 10
3.5730007603
 20
45.6012524749
 10
3.6596063468
 20
45.6051727281
 10
3.7320267957
 20
45.6091743506
 10
3.7899437244
 20
45.6132343122
 10
3.8333308195
 20
45.617343973
 10
3.8621274883
 20
45.6214975722
 10
3.8761810479
 20
45.6256861192
 10
3.8753250683
 20
45.6298868711
 10
3.8694093371
 20
45.6319544285
  0
LINE
  5
498
100
AcDbEntity
  8
0
100
AcDbLine
 62
7
  6
CONTINUOUS
 10
5.4690866775
 20
44.4557173602
 11
5.1961524227
 21
44.4464234878
  0
LINE
  5
499
100
AcDbEntity
  8
0
100
AcDbLine
 62
7
  6
CONTINUOUS
 10
-5.1961524227
 20
44.5511379264
 11
-5.4690866775
 21
44.5418440539
  0
LINE
  5
49A
100
AcDbEntity
  8
0
100
AcDbLine
 62
7
  6
CONTINUOUS
 10
7.5808456296
 20
43.1378893418
 11
7.2313971409
 21
43.1261193521
  0
LINE
  5
49B
100
AcDbEntity
  8
RACCORDO
100
AcDbLine
 62
250
  6
CONTINUOUS
 10
7.1144571206
 20
43.5627457952
 11
7.534139656
 21
43.5762061541
  0
LINE
  5
49C
100
AcDbEntity
  8
RACCORDO
100
AcDbLine
 62
250
  6
CONTINUOUS
 10
6.9250042363
 20
43.8545109353
 11
7.3335110297
 21
43.8676128255
  0
LINE
  5
49D
100
AcDbEntity
  8
0
100
AcDbLine
 62
7
  6
CONTINUOUS
 10
3.216916057
 20
44.4705800432
 11
3.0078347488
 21
44.4642598384
  0
LINE
  5
49E
100
AcDbEntity
  8
0
100
AcDbLine
 62
7
  6
CONTINUOUS
 10
3.658295417
 20
44.9663991629
 11
3.4323825609
 21
44.9595677523
  0
LINE
  5
49F
100
AcDbEntity
  8
RACCORDO
100
AcDbLine
 62
250
  6
CONTINUOUS
 10
3.4194363129
 20
45.2983318509
 11
3.6719523175
 21
45.3059801394
  0
LINE
  5
4A0
100
AcDbEntity
  8
RACCORDO
100
AcDbLine
 62
250
  6
CONTINUOUS
 10
3.233990518
 20
45.5902066978
 11
3.4728118361
 21
45.5974402038
  0
LWPOLYLINE
  5
4A1
100
AcDbEntity
  8
0
100
AcDbPolyline
 62
7
  6
CONTINUOUS
 90
8
 70
0
 10
-0.8229838659
 20
46.4084054247
 10
-0.865883451
 20
46.4072196289
 10
-0.9034687216
 20
46.4059698141
 10
-0.9350162427
 20
46.4046800365
 10
-0.9604090503
 20
46.4033495219
 10
-0.9797641084
 20
46.4019790445
 10
-0.9927088741
 20
46.400594983
 10
-0.9978905893
 20
46.3996243066
  0
LINE
  5
4A2
100
AcDbEntity
  8
0
100
AcDbLine
 62
7
  6
CONTINUOUS
 10
7.2313971409
 20
43.1261193521
 11
6.8216986066
 21
43.1149404677
  0
LINE
  5
4A3
100
AcDbEntity
  8
0
100
AcDbLine
 62
7
  6
CONTINUOUS
 10
5.1961524227
 20
44.4464234878
 11
4.8714378982
 21
44.4376513612
  0
LINE
  5
4A4
100
AcDbEntity
  8
0
100
AcDbLine
 62
7
  6
CONTINUOUS
 10
-4.8714378982
 20
44.559910053
 11
-5.1961524227
 21
44.5511379264
  0
LINE
  5
4A5
100
AcDbEntity
  8
RACCORDO
100
AcDbLine
 62
250
  6
CONTINUOUS
 10
6.6179560015
 20
43.5501709878
 11
7.1144571206
 21
43.5627457952
  0
LINE
  5
4A6
100
AcDbEntity
  8
RACCORDO
100
AcDbLine
 62
250
  6
CONTINUOUS
 10
6.4417245943
 20
43.8422709831
 11
6.9250042363
 21
43.8545109353
  0
LINE
  5
4A7
100
AcDbEntity
  8
0
100
AcDbLine
 62
7
  6
CONTINUOUS
 10
3.4323825609
 20
44.9595677523
 11
3.1646687731
 21
44.9532129653
  0
LINE
  5
4A8
100
AcDbEntity
  8
0
100
AcDbLine
 62
7
  6
CONTINUOUS
 10
3.0078347488
 20
44.4642598384
 11
2.7577599952
 21
44.4583952208
  0
LINE
  5
4A9
100
AcDbEntity
  8
RACCORDO
100
AcDbLine
 62
250
  6
CONTINUOUS
 10
3.1149646864
 20
45.2912860533
 11
3.4194363129
 21
45.2983318509
  0
LINE
  5
4AA
100
AcDbEntity
  8
RACCORDO
100
AcDbLine
 62
250
  6
CONTINUOUS
 10
2.9460310974
 20
45.5835430645
 11
3.233990518
 21
45.5902066978
  0
LINE
  5
4AB
100
AcDbEntity
  8
0
100
AcDbLine
 62
7
  6
CONTINUOUS
 10
6.8216986066
 20
43.1149404677
 11
6.3553467982
 21
43.1044595092
  0
LINE
  5
4AC
100
AcDbEntity
  8
0
100
AcDbLine
 62
7
  6
CONTINUOUS
 10
4.8714378982
 20
44.4376513612
 11
4.4988099791
 21
44.4294965387
  0
LINE
  5
4AD
100
AcDbEntity
  8
0
100
AcDbLine
 62
7
  6
CONTINUOUS
 10
0.8229838659
 20
46.388577231
 11
0.7210358529
 21
46.3864001769
  0
LINE
  5
4AE
100
AcDbEntity
  8
0
100
AcDbLine
 62
7
  6
CONTINUOUS
 10
-0.7210358529
 20
46.4105824788
 11
-0.8229838659
 21
46.4084054247
  0
LINE
  5
4AF
100
AcDbEntity
  8
RACCORDO
100
AcDbLine
 62
250
  6
CONTINUOUS
 10
6.0476128613
 20
43.5385506372
 11
6.6179560015
 21
43.5501709878
  0
LINE
  5
4B0
100
AcDbEntity
  8
RACCORDO
100
AcDbLine
 62
250
  6
CONTINUOUS
 10
5.8865692538
 20
43.8309600841
 11
6.4417245943
 21
43.8422709831
  0
LINE
  5
4B1
100
AcDbEntity
  8
0
100
AcDbLine
 62
7
  6
CONTINUOUS
 10
-4.2949878479
 20
44.5718986109
 11
-4.8714378982
 21
44.559910053
  0
LINE
  5
4B2
100
AcDbEntity
  8
0
100
AcDbLine
 62
7
  6
CONTINUOUS
 10
6.3553467982
 20
43.1044595092
 11
5.8369045243
 21
43.0947713969
  0
LINE
  5
4B3
100
AcDbEntity
  8
0
100
AcDbLine
 62
7
  6
CONTINUOUS
 10
4.4988099791
 20
44.4294965387
 11
4.0810364266
 21
44.4220195918
  0
LINE
  5
4B4
100
AcDbEntity
  8
0
100
AcDbLine
 62
7
  6
CONTINUOUS
 10
3.1646687731
 20
44.9532129653
 11
2.6924731734
 21
44.9447426734
  0
LINE
  5
4B5
100
AcDbEntity
  8
RACCORDO
100
AcDbLine
 62
250
  6
CONTINUOUS
 10
5.4096538493
 20
43.5280239507
 11
6.0476128613
 21
43.5385506372
  0
LINE
  5
4B6
100
AcDbEntity
  8
RACCORDO
100
AcDbLine
 62
250
  6
CONTINUOUS
 10
5.2655985565
 20
43.8207137471
 11
5.8865692538
 21
43.8309600841
  0
LINE
  5
4B7
100
AcDbEntity
  8
0
100
AcDbLine
 62
7
  6
CONTINUOUS
 10
2.7577599952
 20
44.4583952208
 11
2.3140353949
 21
44.4506511588
  0
LINE
  5
4B8
100
AcDbEntity
  8
0
100
AcDbLine
 62
7
  6
CONTINUOUS
 10
5.8369045243
 20
43.0947713969
 11
5.2695843351
 21
43.0859361635
  0
LINE
  5
4B9
100
AcDbEntity
  8
RACCORDO
100
AcDbLine
 62
250
  6
CONTINUOUS
 10
2.5708856919
 20
45.2820723301
 11
3.1149646864
 21
45.2912860533
  0
LINE
  5
4BA
100
AcDbEntity
  8
RACCORDO
100
AcDbLine
 62
250
  6
CONTINUOUS
 10
2.4314589858
 20
45.5748290669
 11
2.9460310974
 21
45.5835430645
  0
LINE
  5
4BB
100
AcDbEntity
  8
0
100
AcDbLine
 62
7
  6
CONTINUOUS
 10
0.7210358529
 20
46.3864001769
 11
0.6008444806
 21
46.3845418401
  0
LINE
  5
4BC
100
AcDbEntity
  8
0
100
AcDbLine
 62
7
  6
CONTINUOUS
 10
-0.6008444806
 20
46.4124408157
 11
-0.7210358529
 21
46.4105824788
  0
LINE
  5
4BD
100
AcDbEntity
  8
0
100
AcDbLine
 62
7
  6
CONTINUOUS
 10
-3.6225948663
 20
44.5822538357
 11
-4.2949878479
 21
44.5718986109
  0
LINE
  5
4BE
100
AcDbEntity
  8
RACCORDO
100
AcDbLine
 62
250
  6
CONTINUOUS
 10
4.7145388775
 20
43.518756115
 11
5.4096538493
 21
43.5280239507
  0
LINE
  5
4BF
100
AcDbEntity
  8
RACCORDO
100
AcDbLine
 62
250
  6
CONTINUOUS
 10
4.5889938834
 20
43.8116927662
 11
5.2655985565
 21
43.8207137471
  0
LINE
  5
4C0
100
AcDbEntity
  8
0
100
AcDbLine
 62
7
  6
CONTINUOUS
 10
4.0810364266
 20
44.4220195918
 11
3.3799203484
 21
44.4122615776
  0
LINE
  5
4C1
100
AcDbEntity
  8
0
100
AcDbLine
 62
7
  6
CONTINUOUS
 10
-3.6010511318
 20
44.5825242482
 11
-3.6225948663
 21
44.5822538357
  0
LINE
  5
4C2
100
AcDbEntity
  8
0
100
AcDbLine
 62
7
  6
CONTINUOUS
 10
5.2695843351
 20
43.0859361635
 11
4.6585009686
 21
43.078039733
  0
LINE
  5
4C3
100
AcDbEntity
  8
0
100
AcDbLine
 62
7
  6
CONTINUOUS
 10
2.6924731734
 20
44.9447426734
 11
2.1468339244
 21
44.9377443209
  0
LINE
  5
4C4
100
AcDbEntity
  8
0
100
AcDbLine
 62
7
  6
CONTINUOUS
 10
2.3140353949
 20
44.4506511588
 11
1.8
 21
44.4443694887
  0
LINE
  5
4C5
100
AcDbEntity
  8
0
100
AcDbLine
 62
7
  6
CONTINUOUS
 10
4.6585009686
 20
43.078039733
 11
4.0095154012
 21
43.0711520209
  0
LINE
  5
4C6
100
AcDbEntity
  8
RACCORDO
100
AcDbLine
 62
250
  6
CONTINUOUS
 10
1.9396032433
 20
45.2747709015
 11
2.5708856919
 21
45.2820723301
  0
LINE
  5
4C7
100
AcDbEntity
  8
RACCORDO
100
AcDbLine
 62
250
  6
CONTINUOUS
 10
1.8344125384
 20
45.5679237769
 11
2.4314589858
 21
45.5748290669
  0
LINE
  5
4C8
100
AcDbEntity
  8
RACCORDO
100
AcDbLine
 62
250
  6
CONTINUOUS
 10
3.5936885469
 20
43.507492416
 11
4.7145388775
 21
43.518756115
  0
LINE
  5
4C9
100
AcDbEntity
  8
RACCORDO
100
AcDbLine
 62
250
  6
CONTINUOUS
 10
3.497991157
 20
43.8007289409
 11
4.5889938834
 21
43.8116927662
  0
LINE
  5
4CA
100
AcDbEntity
  8
0
100
AcDbLine
 62
7
  6
CONTINUOUS
 10
3.3799203484
 20
44.4122615776
 11
2.6033024347
 21
44.4044362579
  0
LINE
  5
4CB
100
AcDbEntity
  8
0
100
AcDbLine
 62
7
  6
CONTINUOUS
 10
0.6008444806
 20
46.3845418401
 11
0.3921030472
 21
46.3824376792
  0
LINE
  5
4CC
100
AcDbEntity
  8
0
100
AcDbLine
 62
7
  6
CONTINUOUS
 10
-0.3921030472
 20
46.4145449765
 11
-0.6008444806
 21
46.4124408157
  0
LINE
  5
4CD
100
AcDbEntity
  8
0
100
AcDbLine
 62
7
  6
CONTINUOUS
 10
4.0095154012
 20
43.0711520209
 11
3.3266491002
 21
43.0653157074
  0
LINE
  5
4CE
100
AcDbEntity
  8
0
100
AcDbLine
 62
7
  6
CONTINUOUS
 10
2.1468339244
 20
44.9377443209
 11
1.5426346422
 21
44.9324088047
  0
LINE
  5
4CF
100
AcDbEntity
  8
0
100
AcDbLine
 62
7
  6
CONTINUOUS
 10
1.8
 20
44.4443694887
 11
1.231272516
 21
44.4397410759
  0
LINE
  5
4D0
100
AcDbEntity
  8
RACCORDO
100
AcDbLine
 62
250
  6
CONTINUOUS
 10
2.422970268
 20
43.4995755846
 11
3.5936885469
 21
43.507492416
  0
LINE
  5
4D1
100
AcDbEntity
  8
RACCORDO
100
AcDbLine
 62
250
  6
CONTINUOUS
 10
2.3584479985
 20
43.7930231875
 11
3.497991157
 21
43.8007289409
  0
LINE
  5
4D2
100
AcDbEntity
  8
0
100
AcDbLine
 62
7
  6
CONTINUOUS
 10
2.6033024347
 20
44.4044362579
 11
1.7685310465
 21
44.3987184371
  0
LINE
  5
4D3
100
AcDbEntity
  8
0
100
AcDbLine
 62
7
  6
CONTINUOUS
 10
3.3266491002
 20
43.0653157074
 11
2.2528030392
 21
43.0586550841
  0
LINE
  5
4D4
100
AcDbEntity
  8
RACCORDO
100
AcDbLine
 62
250
  6
CONTINUOUS
 10
0.9999163474
 20
45.2684180355
 11
1.9396032433
 21
45.2747709015
  0
LINE
  5
4D5
100
AcDbEntity
  8
RACCORDO
100
AcDbLine
 62
250
  6
CONTINUOUS
 10
0.9456883427
 20
45.5619148539
 11
1.8344125384
 21
45.5679237769
  0
LINE
  5
4D6
100
AcDbEntity
  8
0
100
AcDbLine
 62
7
  6
CONTINUOUS
 10
1.5426346422
 20
44.9324088047
 11
0.8963563083
 21
44.9288816637
  0
LINE
  5
4D7
100
AcDbEntity
  8
0
100
AcDbLine
 62
7
  6
CONTINUOUS
 10
1.231272516
 20
44.4397410759
 11
0.6251334396
 21
44.4369065525
  0
LINE
  5
4D8
100
AcDbEntity
  8
0
100
AcDbLine
 62
7
  6
CONTINUOUS
 10
0.3921030472
 20
46.3824376792
 11
0.1610891269
 21
46.3812675896
  0
LINE
  5
4D9
100
AcDbEntity
  8
0
100
AcDbLine
 62
7
  6
CONTINUOUS
 10
-0.1610891269
 20
46.4157150661
 11
-0.3921030472
 21
46.4145449765
  0
LINE
  5
4DA
100
AcDbEntity
  8
0
100
AcDbLine
 62
7
  6
CONTINUOUS
 10
1.7685310465
 20
44.3987184371
 11
0.8942535971
 21
44.3952358422
  0
LINE
  5
4DB
100
AcDbEntity
  8
0
100
AcDbLine
 62
7
  6
CONTINUOUS
 10
2.2528030392
 20
43.0586550841
 11
1.13699152
 21
43.0546084243
  0
LINE
  5
4DC
100
AcDbEntity
  8
RACCORDO
100
AcDbLine
 62
250
  6
CONTINUOUS
 10
0.963857474
 20
43.4942795088
 11
2.422970268
 21
43.4995755846
  0
LINE
  5
4DD
100
AcDbEntity
  8
RACCORDO
100
AcDbLine
 62
250
  6
CONTINUOUS
 10
0.9381907088
 20
43.787867698
 11
2.3584479985
 21
43.7930231875
  0
LINE
  5
4DE
100
AcDbEntity
  8
0
100
AcDbLine
 62
7
  6
CONTINUOUS
 10
0.8963563083
 20
44.9288816637
 11
0.226991253
 21
44.9272610811
  0
LINE
  5
4DF
100
AcDbEntity
  8
0
100
AcDbLine
 62
7
  6
CONTINUOUS
 10
0.6251334396
 20
44.4369065525
 11
-0.0
 21
44.4359520439
  0
LINE
  5
4E0
100
AcDbEntity
  8
RACCORDO
100
AcDbLine
 62
250
  6
CONTINUOUS
 10
-0.0
 20
45.2662574397
 11
0.9999163474
 21
45.2684180355
  0
LINE
  5
4E1
100
AcDbEntity
  8
0
100
AcDbLine
 62
7
  6
CONTINUOUS
 10
1.13699152
 20
43.0546084243
 11
-0.0
 21
43.0532511096
  0
LINE
  5
4E2
100
AcDbEntity
  8
0
100
AcDbLine
 62
7
  6
CONTINUOUS
 10
0.8942535971
 20
44.3952358422
 11
-0.0
 21
44.3940662684
  0
LINE
  5
4E3
100
AcDbEntity
  8
RACCORDO
100
AcDbLine
 62
250
  6
CONTINUOUS
 10
-0.220934874
 20
45.5599814139
 11
0.9456883427
 21
45.5619148539
  0
LINE
  5
4E4
100
AcDbEntity
  8
RACCORDO
100
AcDbLine
 62
250
  6
CONTINUOUS
 10
-0.6276275683
 20
43.4937176205
 11
0.963857474
 21
43.4942795088
  0
LINE
  5
4E5
100
AcDbEntity
  8
RACCORDO
100
AcDbLine
 62
250
  6
CONTINUOUS
 10
-0.6109143459
 20
43.7873207543
 11
0.9381907088
 21
43.787867698
  0
LINE
  5
4E6
100
AcDbEntity
  8
0
100
AcDbLine
 62
7
  6
CONTINUOUS
 10
-0.1610891269
 20
46.3812675896
 11
0.1610891269
 21
46.3812675896
  0
LINE
  5
4E7
100
AcDbEntity
  8
0
100
AcDbLine
 62
7
  6
CONTINUOUS
 10
-0.1610891269
 20
46.4157150661
 11
0.1610891269
 21
46.4157150661
  0
LINE
  5
4E8
100
AcDbEntity
  8
0
100
AcDbLine
 62
7
  6
CONTINUOUS
 10
-1.5120518582
 20
43.0556612867
 11
-0.0
 21
43.0532511096
  0
LINE
  5
4E9
100
AcDbEntity
  8
0
100
AcDbLine
 62
7
  6
CONTINUOUS
 10
-1.1886223156
 20
44.3961425861
 11
-0.0
 21
44.3940662684
  0
LINE
  5
4EA
100
AcDbEntity
  8
0
100
AcDbLine
 62
7
  6
CONTINUOUS
 10
-0.8963563083
 20
44.9288816637
 11
0.226991253
 21
44.9272610811
  0
LINE
  5
4EB
100
AcDbEntity
  8
RACCORDO
100
AcDbLine
 62
250
  6
CONTINUOUS
 10
-0.9569536857
 20
45.268233795
 11
-0.0
 21
45.2662574397
  0
LINE
  5
4EC
100
AcDbEntity
  8
RACCORDO
100
AcDbLine
 62
250
  6
CONTINUOUS
 10
-2.0337923339
 20
43.4976941585
 11
-0.6276275683
 21
43.4937176205
  0
LINE
  5
4ED
100
AcDbEntity
  8
RACCORDO
100
AcDbLine
 62
250
  6
CONTINUOUS
 10
-1.97963365
 20
43.7911918554
 11
-0.6109143459
 21
43.7873207543
  0
LINE
  5
4EE
100
AcDbEntity
  8
0
100
AcDbLine
 62
7
  6
CONTINUOUS
 10
-1.0327008812
 20
44.4385937239
 11
-0.0
 21
44.4359520439
  0
LINE
  5
4EF
100
AcDbEntity
  8
RACCORDO
100
AcDbLine
 62
250
  6
CONTINUOUS
 10
-1.1375528713
 20
45.5628494932
 11
-0.220934874
 21
45.5599814139
  0
LINE
  5
4F0
100
AcDbEntity
  8
0
100
AcDbLine
 62
7
  6
CONTINUOUS
 10
-2.9748449989
 20
43.06281425
 11
-1.5120518582
 21
43.0556612867
  0
LINE
  5
4F1
100
AcDbEntity
  8
0
100
AcDbLine
 62
7
  6
CONTINUOUS
 10
-0.3921030472
 20
46.3824376792
 11
-0.1610891269
 21
46.3812675896
  0
LINE
  5
4F2
100
AcDbEntity
  8
0
100
AcDbLine
 62
7
  6
CONTINUOUS
 10
0.1610891269
 20
46.4157150661
 11
0.3921030472
 21
46.4145449765
  0
LINE
  5
4F3
100
AcDbEntity
  8
RACCORDO
100
AcDbLine
 62
250
  6
CONTINUOUS
 10
-3.2002726265
 20
43.5044334429
 11
-2.0337923339
 21
43.4976941585
  0
LINE
  5
4F4
100
AcDbEntity
  8
RACCORDO
100
AcDbLine
 62
250
  6
CONTINUOUS
 10
-3.115051669
 20
43.7977513958
 11
-1.97963365
 21
43.7911918554
  0
LINE
  5
4F5
100
AcDbEntity
  8
0
100
AcDbLine
 62
7
  6
CONTINUOUS
 10
-2.3308161575
 20
44.4022914204
 11
-1.1886223156
 21
44.3961425861
  0
LINE
  5
4F6
100
AcDbEntity
  8
0
100
AcDbLine
 62
7
  6
CONTINUOUS
 10
-1.7499666256
 20
44.9339960006
 11
-0.8963563083
 21
44.9288816637
  0
LINE
  5
4F7
100
AcDbEntity
  8
RACCORDO
100
AcDbLine
 62
250
  6
CONTINUOUS
 10
-1.9073031151
 20
45.2744714102
 11
-0.9569536857
 21
45.268233795
  0
LINE
  5
4F8
100
AcDbEntity
  8
0
100
AcDbLine
 62
7
  6
CONTINUOUS
 10
-4.0095154012
 20
43.0711520209
 11
-2.9748449989
 21
43.06281425
  0
LINE
  5
4F9
100
AcDbEntity
  8
0
100
AcDbLine
 62
7
  6
CONTINUOUS
 10
-1.8
 20
44.4443694887
 11
-1.0327008812
 21
44.4385937239
  0
LINE
  5
4FA
100
AcDbEntity
  8
RACCORDO
100
AcDbLine
 62
250
  6
CONTINUOUS
 10
-2.0128771564
 20
45.5697037969
 11
-1.1375528713
 21
45.5628494932
  0
LINE
  5
4FB
100
AcDbEntity
  8
RACCORDO
100
AcDbLine
 62
250
  6
CONTINUOUS
 10
-4.3423046564
 20
43.5145606249
 11
-3.2002726265
 21
43.5044334429
  0
LINE
  5
4FC
100
AcDbEntity
  8
RACCORDO
100
AcDbLine
 62
250
  6
CONTINUOUS
 10
-4.2266720666
 20
43.8076089699
 11
-3.115051669
 21
43.7977513958
  0
LINE
  5
4FD
100
AcDbEntity
  8
0
100
AcDbLine
 62
7
  6
CONTINUOUS
 10
-3.3799203484
 20
44.4122615776
 11
-2.3308161575
 21
44.4022914204
  0
LINE
  5
4FE
100
AcDbEntity
  8
0
100
AcDbLine
 62
7
  6
CONTINUOUS
 10
-0.6008444806
 20
46.3845418401
 11
-0.3921030472
 21
46.3824376792
  0
LINE
  5
4FF
100
AcDbEntity
  8
0
100
AcDbLine
 62
7
  6
CONTINUOUS
 10
0.3921030472
 20
46.4145449765
 11
0.6008444806
 21
46.4124408157
  0
LINE
  5
500
100
AcDbEntity
  8
0
100
AcDbLine
 62
7
  6
CONTINUOUS
 10
-4.9694961177
 20
43.0818709611
 11
-4.0095154012
 21
43.0711520209
  0
LINE
  5
501
100
AcDbEntity
  8
0
100
AcDbLine
 62
7
  6
CONTINUOUS
 10
-2.518272122
 20
44.9422377109
 11
-1.7499666256
 21
44.9339960006
  0
LINE
  5
502
100
AcDbEntity
  8
RACCORDO
100
AcDbLine
 62
250
  6
CONTINUOUS
 10
-2.5442782196
 20
45.2817016856
 11
-1.9073031151
 21
45.2744714102
  0
LINE
  5
503
100
AcDbEntity
  8
0
100
AcDbLine
 62
7
  6
CONTINUOUS
 10
-2.3140353949
 20
44.4506511588
 11
-1.8
 21
44.4443694887
  0
LINE
  5
504
100
AcDbEntity
  8
RACCORDO
100
AcDbLine
 62
250
  6
CONTINUOUS
 10
-5.4025894036
 20
43.5279192086
 11
-4.3423046564
 21
43.5145606249
  0
LINE
  5
505
100
AcDbEntity
  8
RACCORDO
100
AcDbLine
 62
250
  6
CONTINUOUS
 10
-5.2587223104
 20
43.8206117625
 11
-4.2266720666
 21
43.8076089699
  0
LINE
  5
506
100
AcDbEntity
  8
RACCORDO
100
AcDbLine
 62
250
  6
CONTINUOUS
 10
-2.5896700569
 20
45.5771761357
 11
-2.0128771564
 21
45.5697037969
  0
LINE
  5
507
100
AcDbEntity
  8
0
100
AcDbLine
 62
7
  6
CONTINUOUS
 10
-4.0810364266
 20
44.4220195918
 11
-3.3799203484
 21
44.4122615776
  0
LINE
  5
508
100
AcDbEntity
  8
0
100
AcDbLine
 62
7
  6
CONTINUOUS
 10
3.6010511318
 20
44.5825242482
 11
4.0810364266
 21
44.5755418223
  0
LINE
  5
509
100
AcDbEntity
  8
0
100
AcDbLine
 62
7
  6
CONTINUOUS
 10
-5.8369045243
 20
43.0947713969
 11
-4.9694961177
 21
43.0818709611
  0
LINE
  5
50A
100
AcDbEntity
  8
0
100
AcDbLine
 62
7
  6
CONTINUOUS
 10
-0.7210358529
 20
46.3864001769
 11
-0.6008444806
 21
46.3845418401
  0
LINE
  5
50B
100
AcDbEntity
  8
0
100
AcDbLine
 62
7
  6
CONTINUOUS
 10
0.6008444806
 20
46.4124408157
 11
0.7210358529
 21
46.4105824788
  0
LINE
  5
50C
100
AcDbEntity
  8
RACCORDO
100
AcDbLine
 62
250
  6
CONTINUOUS
 10
-6.0412169494
 20
43.538433517
 11
-5.4025894036
 21
43.5279192086
  0
LINE
  5
50D
100
AcDbEntity
  8
RACCORDO
100
AcDbLine
 62
250
  6
CONTINUOUS
 10
-5.8803437311
 20
43.8308460573
 11
-5.2587223104
 21
43.8206117625
  0
LINE
  5
50E
100
AcDbEntity
  8
0
100
AcDbLine
 62
7
  6
CONTINUOUS
 10
-3.0164680338
 20
44.9502417623
 11
-2.518272122
 21
44.9422377109
  0
LINE
  5
50F
100
AcDbEntity
  8
0
100
AcDbLine
 62
7
  6
CONTINUOUS
 10
4.0810364266
 20
44.5755418223
 11
4.4988099791
 21
44.5680648754
  0
LINE
  5
510
100
AcDbEntity
  8
RACCORDO
100
AcDbLine
 62
250
  6
CONTINUOUS
 10
-3.0945693377
 20
45.2908733204
 11
-2.5442782196
 21
45.2817016856
  0
LINE
  5
511
100
AcDbEntity
  8
RACCORDO
100
AcDbLine
 62
250
  6
CONTINUOUS
 10
-2.9267421651
 20
45.5831526145
 11
-2.5896700569
 21
45.5771761357
  0
LINE
  5
512
100
AcDbEntity
  8
0
100
AcDbLine
 62
7
  6
CONTINUOUS
 10
-2.7577599952
 20
44.4583952208
 11
-2.3140353949
 21
44.4506511588
  0
LINE
  5
513
100
AcDbEntity
  8
0
100
AcDbLine
 62
7
  6
CONTINUOUS
 10
-4.6909888948
 20
44.4334923225
 11
-4.0810364266
 21
44.4220195918
  0
LINE
  5
514
100
AcDbEntity
  8
0
100
AcDbLine
 62
7
  6
CONTINUOUS
 10
-6.5955824434
 20
43.1096130177
 11
-5.8369045243
 21
43.0947713969
  0
LINE
  5
515
100
AcDbEntity
  8
RACCORDO
100
AcDbLine
 62
250
  6
CONTINUOUS
 10
-6.6123135801
 20
43.5500431401
 11
-6.0412169494
 21
43.538433517
  0
LINE
  5
516
100
AcDbEntity
  8
RACCORDO
100
AcDbLine
 62
250
  6
CONTINUOUS
 10
-6.4362324988
 20
43.8421465163
 11
-5.8803437311
 21
43.8308460573
  0
LINE
  5
517
100
AcDbEntity
  8
0
100
AcDbLine
 62
7
  6
CONTINUOUS
 10
-3.3037271364
 20
44.9563310505
 11
-3.0164680338
 21
44.9502417623
  0
LINE
  5
518
100
AcDbEntity
  8
0
100
AcDbLine
 62
7
  6
CONTINUOUS
 10
4.4988099791
 20
44.5680648754
 11
4.8714378982
 21
44.559910053
  0
LWPOLYLINE
  5
519
100
AcDbEntity
  8
0
100
AcDbPolyline
 62
7
  6
CONTINUOUS
 90
9
 70
0
 10
0.7210358529
 20
46.4105824788
 10
0.8229838659
 20
46.4084054247
 10
0.865883451
 20
46.4072196289
 10
0.9034687216
 20
46.4059698141
 10
0.9350162427
 20
46.4046800365
 10
0.9604090503
 20
46.4033495219
 10
0.9797641084
 20
46.4019790445
 10
0.9927088741
 20
46.400594983
 10
0.9978905893
 20
46.3996243066
  0
LINE
  5
51A
100
AcDbEntity
  8
RACCORDO
100
AcDbLine
 62
250
  6
CONTINUOUS
 10
-3.4029938098
 20
45.2979014638
 11
-3.0945693377
 21
45.2908733204
  0
LINE
  5
51B
100
AcDbEntity
  8
RACCORDO
100
AcDbLine
 62
250
  6
CONTINUOUS
 10
-3.2184400229
 20
45.5897995705
 11
-2.9267421651
 21
45.5831526145
  0
LINE
  5
51C
100
AcDbEntity
  8
0
100
AcDbLine
 62
7
  6
CONTINUOUS
 10
-3.0078347488
 20
44.4642598384
 11
-2.7577599952
 21
44.4583952208
  0
LINE
  5
51D
100
AcDbEntity
  8
0
100
AcDbLine
 62
7
  6
CONTINUOUS
 10
-5.0402436859
 20
44.4419724481
 11
-4.6909888948
 21
44.4334923225
  0
LINE
  5
51E
100
AcDbEntity
  8
0
100
AcDbLine
 62
7
  6
CONTINUOUS
 10
-7.0336076148
 20
43.1204429392
 11
-6.5955824434
 21
43.1096130177
  0
LINE
  5
51F
100
AcDbEntity
  8
RACCORDO
100
AcDbLine
 62
250
  6
CONTINUOUS
 10
-7.1096165921
 20
43.5626084665
 11
-6.6123135801
 21
43.5500431401
  0
LINE
  5
520
100
AcDbEntity
  8
RACCORDO
100
AcDbLine
 62
250
  6
CONTINUOUS
 10
-6.9202926879
 20
43.8543772393
 11
-6.4362324988
 21
43.8421465163
  0
LINE
  5
521
100
AcDbEntity
  8
0
100
AcDbLine
 62
7
  6
CONTINUOUS
 10
4.8714378982
 20
44.559910053
 11
5.1961524227
 21
44.5511379264
  0
LWPOLYLINE
  5
522
100
AcDbEntity
  8
0
100
AcDbPolyline
 62
7
  6
CONTINUOUS
 90
3
 70
0
 10
-3.658295417
 20
44.9663991629
 10
-3.5505404583
 20
44.9629241492
 10
-3.3037271364
 20
44.9563310505
  0
LWPOLYLINE
  5
523
100
AcDbEntity
  8
0
100
AcDbPolyline
 62
7
  6
CONTINUOUS
 90
10
 70
0
 10
5.1961524227
 20
44.5511379264
 10
5.4690866775
 20
44.5418440539
 10
5.5852424919
 20
44.5370371873
 10
5.6874322948
 20
44.5321346596
 10
5.7757593101
 20
44.5271371779
 10
5.8495674731
 20
44.5220818618
 10
5.9087486747
 20
44.5169682806
 10
5.9534110239
 20
44.5117968651
 10
5.9832227831
 20
44.5066060269
 10
5.9872670073
 20
44.5055990785
  0
LWPOLYLINE
  5
524
100
AcDbEntity
  8
0
100
AcDbPolyline
 62
7
  6
CONTINUOUS
 90
5
 70
0
 10
-7.8678786997
 20
43.1501775033
 10
-7.7325045921
 20
43.1439829184
 10
-7.5808456296
 20
43.1378893418
 10
-7.4138415737
 20
43.1319345325
 10
-7.0336076148
 20
43.1204429392
  0
LINE
  5
525
100
AcDbEntity
  8
0
100
AcDbLine
 62
7
  6
CONTINUOUS
 10
7.8511145721
 20
42.7032239848
 11
9.8566648691
 21
42.1670615213
  0
LINE
  5
526
100
AcDbEntity
  8
0
100
AcDbLine
 62
7
  6
CONTINUOUS
 10
5.9872555597
 20
44.5056021396
 11
8.1103819975
 21
43.9380069499
  0
LINE
  5
527
100
AcDbEntity
  8
0
100
AcDbLine
 62
7
  6
CONTINUOUS
 10
0.9978759266
 20
46.3996282333
 11
3.8694093095
 21
45.6319544358
  0
LWPOLYLINE
  5
528
100
AcDbEntity
  8
RACCORDO
100
AcDbPolyline
 62
7
  6
CONTINUOUS
 90
19
 70
0
 10
9.8566649278
 20
42.1670615056
 10
9.8666201597
 20
42.1642794458
 10
9.8775505009
 20
42.1609273493
 10
9.8894467828
 20
42.1568876495
 10
9.9020840694
 20
42.1521036259
 10
9.9156242185
 20
42.1463580758
 10
9.9305859423
 20
42.1391872182
 10
9.9470623922
 20
42.1301804093
 10
9.9646151802
 20
42.1191412528
 10
9.982874038
 20
42.1058353501
 10
10.001561173
 20
42.0899305202
 10
10.020233583
 20
42.0711783703
 10
10.0382238843
 20
42.0495788249
 10
10.055102348
 20
42.0248873875
 10
10.0702095464
 20
41.9971488169
 10
10.0826847285
 20
41.9670724332
 10
10.0920375167
 20
41.9351070156
 10
10.0979451083
 20
41.9013257623
 10
10.1
 20
41.8660979591
  0
LWPOLYLINE
  5
529
100
AcDbEntity
  8
RACCORDO
100
AcDbPolyline
 62
7
  6
CONTINUOUS
 90
19
 70
0
 10
8.1103821084
 20
43.9380069203
 10
8.1201597338
 20
43.9352687725
 10
8.1310414165
 20
43.931910027
 10
8.1430110344
 20
43.9277992091
 10
8.1558981223
 20
43.9228388411
 10
8.169788504
 20
43.9168124598
 10
8.1850035886
 20
43.9093213164
 10
8.2015992569
 20
43.8999722923
 10
8.2191618563
 20
43.8885670214
 10
8.2372343684
 20
43.8749548748
 10
8.2554875466
 20
43.8589033962
 10
8.2735732223
 20
43.8401620016
 10
8.2909546789
 20
43.8186587138
 10
8.3072665291
 20
43.7940835994
 10
8.3218089508
 20
43.7665681975
 10
8.3337118753
 20
43.7369600754
 10
8.3425475184
 20
43.7057633638
 10
8.3480860254
 20
43.6730053069
 10
8.35
 20
43.6390329722
  0
LWPOLYLINE
  5
52A
100
AcDbEntity
  8
RACCORDO
100
AcDbPolyline
 62
7
  6
CONTINUOUS
 90
16
 70
0
 10
3.8694093471
 20
45.6319544258
 10
3.8818743255
 20
45.6283794918
 10
3.895934283
 20
45.6237277638
 10
3.9115344834
 20
45.617727372
 10
3.9284348509
 20
45.6101362714
 10
3.9466184696
 20
45.600567664
 10
3.9662212776
 20
45.5884176578
 10
3.9871280242
 20
45.5730193057
 10
4.0084977881
 20
45.5541143246
 10
4.0292591288
 20
45.5317945028
 10
4.0489098911
 20
45.5056640144
 10
4.0665314517
 20
45.4758097637
 10
4.0808209518
 20
45.4435738242
 10
4.0912806993
 20
45.4097569059
 10
4.0977755302
 20
45.3743483467
 10
4.1
 20
45.3378123061
  0
LWPOLYLINE
  5
52B
100
AcDbEntity
  8
0
100
AcDbPolyline
 62
7
  6
CONTINUOUS
 90
10
 70
0
 10
0.9978905893
 20
46.3996243066
 10
0.9991191665
 20
46.3991970743
 10
0.9991191665
 20
46.3977855815
 10
0.9927088741
 20
46.3963876727
 10
0.9797641084
 20
46.3950036112
 10
0.9604090503
 20
46.3936331338
 10
0.9350162427
 20
46.3923026193
 10
0.9034687216
 20
46.3910128416
 10
0.865883451
 20
46.3897630268
 10
0.8229838659
 20
46.388577231
  0
LWPOLYLINE
  5
52C
100
AcDbEntity
  8
0
100
AcDbPolyline
 62
7
  6
CONTINUOUS
 90
11
 70
0
 10
5.9872670073
 20
44.5055990785
 10
5.9980733731
 20
44.5013956213
 10
5.9980733731
 20
44.4961657929
 10
5.9832227831
 20
44.4909553873
 10
5.9534110239
 20
44.485764549
 10
5.9087486747
 20
44.4805931335
 10
5.8495674731
 20
44.4754795524
 10
5.7757593101
 20
44.4704242363
 10
5.6874322948
 20
44.4654267545
 10
5.5852424919
 20
44.4605242268
 10
5.4690866775
 20
44.4557173602
  0
LINE
  5
52D
100
AcDbEntity
  8
DRAFT
100
AcDbLine
 62
7
  6
CONTINUOUS
 10
32.0
 20
29.0840562657
 11
32.2757899725
 21
28.8082662932
  0
LINE
  5
52E
100
AcDbEntity
  8
DRAFT
100
AcDbLine
 62
7
  6
CONTINUOUS
 10
26.5
 20
34.5840562657
 11
26.2242099741
 21
34.8598462916
  0
LINE
  5
52F
100
AcDbEntity
  8
DRAFT
100
AcDbLine
 62
7
  6
CONTINUOUS
 10
26.5
 20
-44.4159437343
 11
26.2242099741
 21
-44.6917337602
  0
LINE
  5
530
100
AcDbEntity
  8
DRAFT
100
AcDbLine
 62
7
  6
CONTINUOUS
 10
32.0
 20
-38.9159437343
 11
32.2757899725
 21
-38.6401537618
  0
LWPOLYLINE
  5
531
100
AcDbEntity
  8
0
100
AcDbPolyline
 62
250
  6
CONTINUOUS
 90
8
 70
0
 10
21.119395936
 20
-45.8658654828
 10
21.1173897144
 20
-45.867176261
 10
21.1097772139
 20
-45.868475659
 10
21.0965584344
 20
-45.8697636766
 10
21.0776678813
 20
-45.8710491334
 10
21.0531710492
 20
-45.8723232099
 10
21.0232644223
 20
-45.8735594477
 10
20.9877775347
 20
-45.8747572913
  0
CIRCLE
  5
532
100
AcDbEntity
  8
RACCORDO
100
AcDbCircle
 62
7
  6
CONTINUOUS
 10
-17.5
 20
-31.4159437343
 40
9.5
  0
CIRCLE
  5
533
100
AcDbEntity
  8
RACCORDO
100
AcDbCircle
 62
250
  6
CONTINUOUS
 10
-17.5
 20
-31.4159437343
 40
8.9999990565
  0
ARC
  5
534
100
AcDbEntity
  8
DRAFT
100
AcDbCircle
 62
7
  6
CONTINUOUS
 10
-28.0
 20
-40.4159437343
 40
6.0
100
AcDbArc
 50
180.0
 51
270.0
  0
ARC
  5
535
100
AcDbEntity
  8
RACCORDO
100
AcDbCircle
 62
250
  6
CONTINUOUS
 10
-28.0
 20
-40.4159437343
 40
5.3730280717
100
AcDbArc
 50
180.0
 51
270.0
  0
ARC
  5
536
100
AcDbEntity
  8
RACCORDO
100
AcDbCircle
 62
7
  6
CONTINUOUS
 10
-28.0
 20
-40.4159437343
 40
4.2757899725
100
AcDbArc
 50
180.0
 51
270.0
  0
ARC
  5
537
100
AcDbEntity
  8
DRAFT
100
AcDbCircle
 62
7
  6
CONTINUOUS
 10
-28.0
 20
-40.4159437343
 40
4.0
100
AcDbArc
 50
180.0
 51
270.0
  0
CIRCLE
  5
538
100
AcDbEntity
  8
0
100
AcDbCircle
 62
7
  6
CONTINUOUS
 10
-17.5
 20
-31.4159437343
 40
2.25
  0
CIRCLE
  5
539
100
AcDbEntity
  8
0
100
AcDbCircle
 62
7
  6
CONTINUOUS
 10
-17.5
 20
-31.4159437343
 40
1.8
  0
ARC
  5
53A
100
AcDbEntity
  8
DRAFT
100
AcDbCircle
 62
7
  6
CONTINUOUS
 10
-28.0
 20
-40.4159437343
 40
1.7757900259
100
AcDbArc
 50
0.0
 51
90.0
  0
ARC
  5
53B
100
AcDbEntity
  8
DRAFT
100
AcDbCircle
 62
7
  6
CONTINUOUS
 10
-28.0
 20
-40.4159437343
 40
1.5
100
AcDbArc
 50
0.0
 51
90.0
  0
CIRCLE
  5
53C
100
AcDbEntity
  8
0
100
AcDbCircle
 62
7
  6
CONTINUOUS
 10
-17.5
 20
-31.4159437343
 40
1.5
  0
CIRCLE
  5
53D
100
AcDbEntity
  8
RACCORDO
100
AcDbCircle
 62
7
  6
CONTINUOUS
 10
-17.5
 20
21.5840562657
 40
9.5
  0
CIRCLE
  5
53E
100
AcDbEntity
  8
RACCORDO
100
AcDbCircle
 62
250
  6
CONTINUOUS
 10
-17.5
 20
21.5840562657
 40
8.9999990565
  0
ARC
  5
53F
100
AcDbEntity
  8
DRAFT
100
AcDbCircle
 62
7
  6
CONTINUOUS
 10
-28.0
 20
30.5840562657
 40
6.0
100
AcDbArc
 50
90.0
 51
180.0
  0
ARC
  5
540
100
AcDbEntity
  8
RACCORDO
100
AcDbCircle
 62
250
  6
CONTINUOUS
 10
-28.0
 20
30.5840562657
 40
5.3730280717
100
AcDbArc
 50
90.0
 51
180.0
  0
ARC
  5
541
100
AcDbEntity
  8
RACCORDO
100
AcDbCircle
 62
7
  6
CONTINUOUS
 10
-28.0
 20
30.5840562657
 40
4.2757899725
100
AcDbArc
 50
90.0
 51
180.0
  0
ARC
  5
542
100
AcDbEntity
  8
DRAFT
100
AcDbCircle
 62
7
  6
CONTINUOUS
 10
-28.0
 20
30.5840562657
 40
4.0
100
AcDbArc
 50
90.0
 51
180.0
  0
CIRCLE
  5
543
100
AcDbEntity
  8
0
100
AcDbCircle
 62
7
  6
CONTINUOUS
 10
-17.5
 20
21.5840562657
 40
2.25
  0
CIRCLE
  5
544
100
AcDbEntity
  8
0
100
AcDbCircle
 62
7
  6
CONTINUOUS
 10
-17.5
 20
21.5840562657
 40
1.8
  0
ARC
  5
545
100
AcDbEntity
  8
DRAFT
100
AcDbCircle
 62
7
  6
CONTINUOUS
 10
-28.0
 20
30.5840562657
 40
1.7757900259
100
AcDbArc
 50
270.0
 51
360.0
  0
ARC
  5
546
100
AcDbEntity
  8
DRAFT
100
AcDbCircle
 62
7
  6
CONTINUOUS
 10
-28.0
 20
30.5840562657
 40
1.5
100
AcDbArc
 50
270.0
 51
360.0
  0
CIRCLE
  5
547
100
AcDbEntity
  8
0
100
AcDbCircle
 62
7
  6
CONTINUOUS
 10
-17.5
 20
21.5840562657
 40
1.5
  0
CIRCLE
  5
548
100
AcDbEntity
  8
RACCORDO
100
AcDbCircle
 62
7
  6
CONTINUOUS
 10
-0.0
 20
-23.7159437343
 40
4.8
  0
CIRCLE
  5
549
100
AcDbEntity
  8
RACCORDO
100
AcDbCircle
 62
250
  6
CONTINUOUS
 10
-0.0
 20
-23.7159437343
 40
4.2999972642
  0
ARC
  5
54A
100
AcDbEntity
  8
DRAFT
100
AcDbCircle
 62
7
  6
CONTINUOUS
 10
28.0
 20
-40.4159437343
 40
6.0
100
AcDbArc
 50
270.0
 51
360.0
  0
ARC
  5
54B
100
AcDbEntity
  8
RACCORDO
100
AcDbCircle
 62
250
  6
CONTINUOUS
 10
28.0
 20
-40.4159437343
 40
5.3730280717
100
AcDbArc
 50
270.0
 51
360.0
  0
ARC
  5
54C
100
AcDbEntity
  8
RACCORDO
100
AcDbCircle
 62
7
  6
CONTINUOUS
 10
28.0
 20
-40.4159437343
 40
4.2757899725
100
AcDbArc
 50
270.0
 51
360.0
  0
ARC
  5
54D
100
AcDbEntity
  8
DRAFT
100
AcDbCircle
 62
7
  6
CONTINUOUS
 10
28.0
 20
-40.4159437343
 40
4.0
100
AcDbArc
 50
270.0
 51
360.0
  0
ARC
  5
54E
100
AcDbEntity
  8
DRAFT
100
AcDbCircle
 62
7
  6
CONTINUOUS
 10
28.0
 20
-40.4159437343
 40
1.7757900259
100
AcDbArc
 50
90.0
 51
180.0
  0
ARC
  5
54F
100
AcDbEntity
  8
DRAFT
100
AcDbCircle
 62
7
  6
CONTINUOUS
 10
28.0
 20
-40.4159437343
 40
1.5
100
AcDbArc
 50
90.0
 51
180.0
  0
CIRCLE
  5
550
100
AcDbEntity
  8
RACCORDO
100
AcDbCircle
 62
7
  6
CONTINUOUS
 10
17.5
 20
-31.4159437343
 40
9.5
  0
CIRCLE
  5
551
100
AcDbEntity
  8
RACCORDO
100
AcDbCircle
 62
250
  6
CONTINUOUS
 10
17.5
 20
-31.4159437343
 40
8.9999990565
  0
CIRCLE
  5
552
100
AcDbEntity
  8
0
100
AcDbCircle
 62
7
  6
CONTINUOUS
 10
17.5
 20
-31.4159437343
 40
2.25
  0
CIRCLE
  5
553
100
AcDbEntity
  8
0
100
AcDbCircle
 62
7
  6
CONTINUOUS
 10
17.5
 20
-31.4159437343
 40
1.8
  0
CIRCLE
  5
554
100
AcDbEntity
  8
0
100
AcDbCircle
 62
7
  6
CONTINUOUS
 10
17.5
 20
-31.4159437343
 40
1.5
  0
CIRCLE
  5
555
100
AcDbEntity
  8
0
100
AcDbCircle
 62
7
  6
CONTINUOUS
 10
-0.0
 20
-4.9159437343
 40
11.25
  0
ARC
  5
556
100
AcDbEntity
  8
0
100
AcDbCircle
 62
7
  6
CONTINUOUS
 10
-0.0
 20
-4.9159437343
 40
11.0
100
AcDbArc
 50
185.7391704773
 51
264.2608295227
  0
ARC
  5
557
100
AcDbEntity
  8
0
100
AcDbCircle
 62
7
  6
CONTINUOUS
 10
-0.0
 20
-4.9159437343
 40
11.0
100
AcDbArc
 50
275.7391704773
 51
354.2608295227
  0
ARC
  5
558
100
AcDbEntity
  8
0
100
AcDbCircle
 62
7
  6
CONTINUOUS
 10
-0.0
 20
-4.9159437343
 40
11.0
100
AcDbArc
 50
95.7391704773
 51
174.2608295227
  0
ARC
  5
559
100
AcDbEntity
  8
0
100
AcDbCircle
 62
7
  6
CONTINUOUS
 10
-0.0
 20
-4.9159437343
 40
11.0
100
AcDbArc
 50
5.7391704773
 51
84.2608295227
  0
ARC
  5
55A
100
AcDbEntity
  8
0
100
AcDbCircle
 62
7
  6
CONTINUOUS
 10
-0.0
 20
-4.9159437343
 40
10.1299689469
100
AcDbArc
 50
6.233965798
 51
83.766034202
  0
ARC
  5
55B
100
AcDbEntity
  8
0
100
AcDbCircle
 62
7
  6
CONTINUOUS
 10
-0.0
 20
-4.9159437343
 40
10.1299689469
100
AcDbArc
 50
96.233965798
 51
173.766034202
  0
ARC
  5
55C
100
AcDbEntity
  8
0
100
AcDbCircle
 62
7
  6
CONTINUOUS
 10
-0.0
 20
-4.9159437343
 40
10.1299689469
100
AcDbArc
 50
186.233965798
 51
263.766034202
  0
ARC
  5
55D
100
AcDbEntity
  8
0
100
AcDbCircle
 62
7
  6
CONTINUOUS
 10
-0.0
 20
-4.9159437343
 40
10.1299689469
100
AcDbArc
 50
276.233965798
 51
353.766034202
  0
CIRCLE
  5
55E
100
AcDbEntity
  8
RACCORDO
100
AcDbCircle
 62
7
  6
CONTINUOUS
 10
-0.0
 20
13.8840562657
 40
4.8
  0
CIRCLE
  5
55F
100
AcDbEntity
  8
RACCORDO
100
AcDbCircle
 62
250
  6
CONTINUOUS
 10
-0.0
 20
13.8840562657
 40
4.2999972642
  0
CIRCLE
  5
560
100
AcDbEntity
  8
RACCORDO
100
AcDbCircle
 62
7
  6
CONTINUOUS
 10
17.5
 20
21.5840562657
 40
9.5
  0
CIRCLE
  5
561
100
AcDbEntity
  8
RACCORDO
100
AcDbCircle
 62
250
  6
CONTINUOUS
 10
17.5
 20
21.5840562657
 40
8.9999990565
  0
ARC
  5
562
100
AcDbEntity
  8
DRAFT
100
AcDbCircle
 62
7
  6
CONTINUOUS
 10
28.0
 20
30.5840562657
 40
6.0
100
AcDbArc
 50
0.0
 51
90.0
  0
ARC
  5
563
100
AcDbEntity
  8
RACCORDO
100
AcDbCircle
 62
250
  6
CONTINUOUS
 10
28.0
 20
30.5840562657
 40
5.3730280717
100
AcDbArc
 50
0.0
 51
90.0
  0
ARC
  5
564
100
AcDbEntity
  8
RACCORDO
100
AcDbCircle
 62
7
  6
CONTINUOUS
 10
28.0
 20
30.5840562657
 40
4.2757899725
100
AcDbArc
 50
0.0
 51
90.0
  0
ARC
  5
565
100
AcDbEntity
  8
DRAFT
100
AcDbCircle
 62
7
  6
CONTINUOUS
 10
28.0
 20
30.5840562657
 40
4.0
100
AcDbArc
 50
0.0
 51
90.0
  0
CIRCLE
  5
566
100
AcDbEntity
  8
0
100
AcDbCircle
 62
7
  6
CONTINUOUS
 10
17.5
 20
21.5840562657
 40
2.25
  0
CIRCLE
  5
567
100
AcDbEntity
  8
0
100
AcDbCircle
 62
7
  6
CONTINUOUS
 10
17.5
 20
21.5840562657
 40
1.8
  0
ARC
  5
568
100
AcDbEntity
  8
DRAFT
100
AcDbCircle
 62
7
  6
CONTINUOUS
 10
28.0
 20
30.5840562657
 40
1.7757900259
100
AcDbArc
 50
180.0
 51
270.0
  0
ARC
  5
569
100
AcDbEntity
  8
DRAFT
100
AcDbCircle
 62
7
  6
CONTINUOUS
 10
28.0
 20
30.5840562657
 40
1.5
100
AcDbArc
 50
180.0
 51
270.0
  0
CIRCLE
  5
56A
100
AcDbEntity
  8
0
100
AcDbCircle
 62
7
  6
CONTINUOUS
 10
17.5
 20
21.5840562657
 40
1.5
  0
ENDSEC
  0
SECTION
  2
OBJECTS
  0
DICTIONARY
  5
C
100
AcDbDictionary
280
0
281
1
  3
ACAD_GROUP
350
D
  3
ACAD_MLINESTYLE
350
17
  3
ACAD_LAYOUT
350
1A
  3
ACAD_PLOTSETTINGS
350
19
  3
ACAD_PLOTSTYLENAME
350
E
  0
DICTIONARY
  5
D
102
{ACAD_REACTORS
330
C
102
}
100
AcDbDictionary
280
0
281
1
  0
ACDBDICTIONARYWDFLT
  5
E
102
{ACAD_REACTORS
330
C
102
}
100
AcDbDictionary
281
1
  3
Normal
350
F
100
AcDbDictionaryWithDefault
340
F
  0
DICTIONARY
  5
17
102
{ACAD_REACTORS
330
C
102
}
100
AcDbDictionary
280
0
281
1
  3
Standard
350
18
  0
DICTIONARY
  5
19
102
{ACAD_REACTORS
330
C
102
}
100
AcDbDictionary
281
1
  0
DICTIONARY
  5
1A
102
{ACAD_REACTORS
330
C
102
}
100
AcDbDictionary
281
1
  3
Model
350
56B
  3
Layout1
350
56C
  0
ACDBPLACEHOLDER
  5
F
102
{ACAD_REACTORS
330
E
102
}
  0
MLINESTYLE
  5
18
102
{ACAD_REACTORS
330
17
102
}
100
AcDbMlineStyle
  2
STANDARD
 70
0
  3

 62
256
 51
90.0
 52
90.0
 71
2
 49
0.5
 62
256
  6
BYLAYER
 49
-0.5
 62
256
  6
BYLAYER
  0
LAYOUT
  5
56B
102
{ACAD_REACTORS
330
1A
102
}
100
AcDbPlotSettings
  1

  2
none_device
  4
ISO_A4_(297.00_x_210.00_MM)
  6

 40
0.0
 41
0.0
 42
0.0
 43
0.0
 44
297.0
 45
210.0
 46
0.0
 47
0.0
 48
0.0
 49
0.0
140
0.0
141
0.0
142
1.0
143
1.0
 70
1024
 72
1
 73
0
 74
0
  7

 75
0
147
1.0
148
0.0
149
0.0
100
AcDbLayout
  1
Model
 70
0
 71
0
 10
0.0
 20
0.0
 11
297.0
 21
210.0
 12
0.0
 22
0.0
 32
0.0
 14
0.0
 24
0.0
 34
0.0
 15
0.0
 25
0.0
 35
0.0
146
0.0
 13
0.0
 23
0.0
 33
0.0
 16
1.0
 26
0.0
 36
0.0
 17
0.0
 27
1.0
 37
0.0
 76
0
330
219
345
0
346
0
  0
LAYOUT
  5
56C
102
{ACAD_REACTORS
330
1A
102
}
100
AcDbPlotSettings
  1

  2
none_device
  4
ISO_A4_(297.00_x_210.00_MM)
  6

 40
0.0
 41
0.0
 42
0.0
 43
0.0
 44
297.0
 45
210.0
 46
0.0
 47
0.0
 48
0.0
 49
0.0
140
0.0
141
0.0
142
1.0
143
1.0
 70
0
 72
1
 73
0
 74
0
  7

 75
0
147
1.0
148
0.0
149
0.0
100
AcDbLayout
  1
Layout1
 70
0
 71
1
 10
0.0
 20
0.0
 11
297.0
 21
210.0
 12
0.0
 22
0.0
 32
0.0
 14
0.0
 24
0.0
 34
0.0
 15
0.0
 25
0.0
 35
0.0
146
0.0
 13
0.0
 23
0.0
 33
0.0
 16
1.0
 26
0.0
 36
0.0
 17
0.0
 27
1.0
 37
0.0
 76
0
330
21A
345
0
346
0
  0
ENDSEC
  0
EOF
