  0
SECTION
  2
HEADER
  9
$ACADVER
  1
AC1024
  9
$DWGCODEPAGE
  3
ANSI_1252
  9
$EXTMAX
 10
297.0
 20
210.0
 30
0.0
  9
$EXTMIN
 10
0.0
 20
0.0
 30
0.0
  9
$LIMMIN
 10
0.0
 20
0.0
  9
$LIMMAX
 10
297.0
 20
210.0
  9
$VIEWCTR
 10
148.5
 20
105.0
  9
$VIEWSIZE
 40
210.0
  9
$CLAYER
  8
0
  9
$LTSCALE
 40
16.335
  9
$CELTYPE
  6
BYLAYER
  9
$DIMSCALE
 40
1.0
  9
$DIMASZ
 40
3.0
  9
$DIMEXO
 40
0.5
  9
$DIMDLI
 40
11.286
  9
$DIMEXE
 40
1.5
  9
$DIMCEN
 40
2.673
  9
$DIMLFAC
 40
1.0
  9
$DIMBLK
  1
_FILLED
  9
$DIMALT
 70
0
  9
$DIMALTF
 40
0.0393700787
  9
$DIMTXT
 40
3.0
  9
$DIMTOL
 70
1
  9
$DIMLIM
 70
0
  9
$DIMTFAC
 40
1.0
  9
$DIMTP
 40
0.01
  9
$DIMTM
 40
0.01
  9
$DIMGAP
 40
0.625
  9
$DIMDSEP
 70
44
  9
$AUNITS
 70
0
  9
$PDMODE
 70
3
  9
$PDSIZE
 40
3.0
  9
$HANDSEED
  5
413
  9
$TILEMODE
 70
1
  9
$MEASUREMENT
 70
1
  9
$INSUNITS
 70
4
  0
ENDSEC
  0
SECTION
  2
CLASSES
  0
CLASS
  1
ACDBDICTIONARYWDFLT
  2
AcDbDictionaryWithDefault
  3
AutoCAD 2000
 90
0
 91
1
280
0
281
0
  0
CLASS
  1
ACDBPLACEHOLDER
  2
AcDbPlaceHolder
  3
AutoCAD 2000
 90
0
 91
1
280
0
281
0
  0
CLASS
  1
LAYOUT
  2
AcDbLayout
  3
AutoCAD 2000
 90
0
 91
0
280
0
281
0
  0
ENDSEC
  0
SECTION
  2
TABLES
  0
TABLE
  2
VPORT
  5
8
100
AcDbSymbolTable
 70
2
  0
VPORT
  5
1F4
100
AcDbSymbolTableRecord
100
AcDbViewportTableRecord
  2
*ACTIVE
 70
0
 10
0.0
 20
0.0
 11
1.0
 21
1.0
 12
148.5
 22
105.0
 13
0.0
 23
0.0
 14
1.0
 24
1.0
 15
0.0
 25
0.0
 16
0.0
 26
0.0
 36
1.0
 17
0.0
 27
0.0
 37
0.0
 40
210.0
 41
1.4142857143
 42
50.0
 43
0.0
 44
0.0
 50
0.0
 51
0.0
 71
0
 72
100
 73
1
 74
1
 75
0
 76
0
 77
0
 78
0
  0
ENDTAB
  0
TABLE
  2
LTYPE
  5
5
100
AcDbSymbolTable
 70
6
  0
LTYPE
  5
14
100
AcDbSymbolTableRecord
100
AcDbLinetypeTableRecord
  2
BYBLOCK
 70
0
  3

 72
65
 73
0
 40
0.0
  0
LTYPE
  5
15
100
AcDbSymbolTableRecord
100
AcDbLinetypeTableRecord
  2
BYLAYER
 70
0
  3

 72
65
 73
0
 40
0.0
  0
LTYPE
  5
16
100
AcDbSymbolTableRecord
100
AcDbLinetypeTableRecord
  2
CONTINUOUS
 70
64
  3
Solid line
 72
65
 73
0
 40
0.0
  0
LTYPE
  5
1F5
100
AcDbSymbolTableRecord
100
AcDbLinetypeTableRecord
  2
CENTER
 70
64
  3
____ _ ____ _ ____ _ ____ _ ____ _ ____ _ ____
 72
65
 73
4
 40
0.6
 49
0.375
 74
0
 49
-0.075
 74
0
 49
0.075
 74
0
 49
-0.075
 74
0
  0
LTYPE
  5
1F6
100
AcDbSymbolTableRecord
100
AcDbLinetypeTableRecord
  2
HIDDEN
 70
64
  3
- - - - - - - - - - - - - - - - - - - -
 72
65
 73
2
 40
0.2
 49
0.1
 74
0
 49
-0.1
 74
0
  0
LTYPE
  5
1F7
100
AcDbSymbolTableRecord
100
AcDbLinetypeTableRecord
  2
PHANTOM
 70
64
  3
_____ _ _ _____ _ _ _____ _ _ _____
 72
65
 73
6
 40
0.8
 49
0.45
 74
0
 49
-0.05
 74
0
 49
0.1
 74
0
 49
-0.05
 74
0
 49
0.1
 74
0
 49
-0.05
 74
0
  0
LTYPE
  5
1F8
100
AcDbSymbolTableRecord
100
AcDbLinetypeTableRecord
  2
DOT
 70
64
  3
. . . . . . . . . . . . . . . . . . . .
 72
65
 73
2
 40
0.2
 49
0.1
 74
0
 49
-0.1
 74
0
  0
LTYPE
  5
1F9
100
AcDbSymbolTableRecord
100
AcDbLinetypeTableRecord
  2
DASHED
 70
64
  3
- - - - - - - - - - - - - - - - - - - -
 72
65
 73
2
 40
0.2
 49
0.1
 74
0
 49
-0.1
 74
0
  0
ENDTAB
  0
TABLE
  2
LAYER
  5
2
100
AcDbSymbolTable
 70
36
  0
LAYER
  5
10
100
AcDbSymbolTableRecord
100
AcDbLayerTableRecord
  2
0
 70
0
 62
7
  6
CONTINUOUS
370
-3
390
F
  0
LAYER
  5
1FA
100
AcDbSymbolTableRecord
100
AcDbLayerTableRecord
  2
DEFAULT_1
 70
0
 62
7
  6
CENTER
370
-3
390
F
  0
LAYER
  5
1FB
100
AcDbSymbolTableRecord
100
AcDbLayerTableRecord
  2
DEFAULT_2
 70
0
 62
7
  6
HIDDEN
370
-3
390
F
  0
LAYER
  5
1FC
100
AcDbSymbolTableRecord
100
AcDbLayerTableRecord
  2
DEFAULT_3
 70
0
 62
7
  6
PHANTOM
370
-3
390
F
  0
LAYER
  5
1FD
100
AcDbSymbolTableRecord
100
AcDbLayerTableRecord
  2
ASSI
 70
0
 62
7
  6
CONTINUOUS
370
-3
390
F
  0
LAYER
  5
1FE
100
AcDbSymbolTableRecord
100
AcDbLayerTableRecord
  2
COLOR5
 70
0
 62
7
  6
CONTINUOUS
370
-3
390
F
  0
LAYER
  5
1FF
100
AcDbSymbolTableRecord
100
AcDbLayerTableRecord
  2
COORDINATE
 70
0
 62
7
  6
CONTINUOUS
370
-3
390
F
  0
LAYER
  5
200
100
AcDbSymbolTableRecord
100
AcDbLayerTableRecord
  2
COORD_ORIGINE
 70
0
 62
7
  6
CONTINUOUS
370
-3
390
F
  0
LAYER
  5
201
100
AcDbSymbolTableRecord
100
AcDbLayerTableRecord
  2
COPY_PUBLISH
 70
0
 62
7
  6
CONTINUOUS
370
-3
390
F
  0
LAYER
  5
202
100
AcDbSymbolTableRecord
100
AcDbLayerTableRecord
  2
COSMETICI
 70
0
 62
7
  6
CONTINUOUS
370
-3
390
F
  0
LAYER
  5
203
100
AcDbSymbolTableRecord
100
AcDbLayerTableRecord
  2
CURVE
 70
0
 62
7
  6
CONTINUOUS
370
-3
390
F
  0
LAYER
  5
204
100
AcDbSymbolTableRecord
100
AcDbLayerTableRecord
  2
DRAFT
 70
0
 62
7
  6
CONTINUOUS
370
-3
390
F
  0
LAYER
  5
205
100
AcDbSymbolTableRecord
100
AcDbLayerTableRecord
  2
IMPORT_IGES
 70
0
 62
7
  6
CONTINUOUS
370
-3
390
F
  0
LAYER
  5
206
100
AcDbSymbolTableRecord
100
AcDbLayerTableRecord
  2
INTF_1
 70
0
 62
7
  6
CONTINUOUS
370
-3
390
F
  0
LAYER
  5
207
100
AcDbSymbolTableRecord
100
AcDbLayerTableRecord
  2
INTF_2
 70
0
 62
7
  6
CONTINUOUS
370
-3
390
F
  0
LAYER
  5
208
100
AcDbSymbolTableRecord
100
AcDbLayerTableRecord
  2
INTF_7
 70
0
 62
7
  6
CONTINUOUS
370
-3
390
F
  0
LAYER
  5
209
100
AcDbSymbolTableRecord
100
AcDbLayerTableRecord
  2
INTF_8
 70
0
 62
7
  6
CONTINUOUS
370
-3
390
F
  0
LAYER
  5
20A
100
AcDbSymbolTableRecord
100
AcDbLayerTableRecord
  2
MARCHI
 70
0
 62
7
  6
CONTINUOUS
370
-3
390
F
  0
LAYER
  5
20B
100
AcDbSymbolTableRecord
100
AcDbLayerTableRecord
  2
NOTE
 70
0
 62
7
  6
CONTINUOUS
370
-3
390
F
  0
LAYER
  5
20C
100
AcDbSymbolTableRecord
100
AcDbLayerTableRecord
  2
PIANI
 70
0
 62
7
  6
CONTINUOUS
370
-3
390
F
  0
LAYER
  5
20D
100
AcDbSymbolTableRecord
100
AcDbLayerTableRecord
  2
PIANI_ORIGINE
 70
0
 62
7
  6
CONTINUOUS
370
-3
390
F
  0
LAYER
  5
20E
100
AcDbSymbolTableRecord
100
AcDbLayerTableRecord
  2
PUNTI
 70
0
 62
7
  6
CONTINUOUS
370
-3
390
F
  0
LAYER
  5
20F
100
AcDbSymbolTableRecord
100
AcDbLayerTableRecord
  2
RACCORDO
 70
0
 62
7
  6
CONTINUOUS
370
-3
390
F
  0
LAYER
  5
210
100
AcDbSymbolTableRecord
100
AcDbLayerTableRecord
  2
RGB__255__255__255__
 70
0
 62
7
  6
CONTINUOUS
370
-3
390
F
  0
LAYER
  5
211
100
AcDbSymbolTableRecord
100
AcDbLayerTableRecord
  2
RGB____0____0____0__
 70
0
 62
7
  6
CONTINUOUS
370
-3
390
F
  0
LAYER
  5
212
100
AcDbSymbolTableRecord
100
AcDbLayerTableRecord
  2
SIMBOLI
 70
0
 62
7
  6
CONTINUOUS
370
-3
390
F
  0
LAYER
  5
213
100
AcDbSymbolTableRecord
100
AcDbLayerTableRecord
  2
SMUSSO
 70
0
 62
7
  6
CONTINUOUS
370
-3
390
F
  0
LAYER
  5
214
100
AcDbSymbolTableRecord
100
AcDbLayerTableRecord
  2
SNAPLINE
 70
0
 62
7
  6
CONTINUOUS
370
-3
390
F
  0
LAYER
  5
215
100
AcDbSymbolTableRecord
100
AcDbLayerTableRecord
  2
SUPERFICI
 70
0
 62
7
  6
CONTINUOUS
370
-3
390
F
  0
LAYER
  5
216
100
AcDbSymbolTableRecord
100
AcDbLayerTableRecord
  2
TRASH
 70
0
 62
7
  6
CONTINUOUS
370
-3
390
F
  0
LAYER
  5
217
100
AcDbSymbolTableRecord
100
AcDbLayerTableRecord
  2
XSEC_DATUMS
 70
0
 62
7
  6
CONTINUOUS
370
-3
390
F
  0
ENDTAB
  0
TABLE
  2
STYLE
  5
3
100
AcDbSymbolTable
 70
1
  0
STYLE
  5
11
100
AcDbSymbolTableRecord
100
AcDbTextStyleTableRecord
  2
STANDARD
 70
0
 40
0.0
 41
0.8
 50
0.0
 71
0
 42
0.2
  3
txt
  4

  0
STYLE
  5
218
100
AcDbSymbolTableRecord
100
AcDbTextStyleTableRecord
  2
TEXTSTYLE_1
 70
0
 40
0.0
 41
0.8
 50
0.0
 71
0
 42
0.2
  3
gdt
  4

  0
ENDTAB
  0
TABLE
  2
VIEW
  5
6
100
AcDbSymbolTable
 70
0
  0
ENDTAB
  0
TABLE
  2
UCS
  5
7
100
AcDbSymbolTable
 70
0
  0
ENDTAB
  0
TABLE
  2
APPID
  5
9
100
AcDbSymbolTable
 70
1
  0
APPID
  5
219
100
AcDbSymbolTableRecord
100
AcDbRegAppTableRecord
  2
ACAD
 70
0
  0
ENDTAB
  0
TABLE
  2
BLOCK_RECORD
  5
1
100
AcDbSymbolTable
 70
0
  0
BLOCK_RECORD
  5
21A
100
AcDbSymbolTableRecord
100
AcDbBlockTableRecord
  2
*Model_Space
  0
BLOCK_RECORD
  5
21B
100
AcDbSymbolTableRecord
100
AcDbBlockTableRecord
  2
*Paper_Space
  0
BLOCK_RECORD
  5
21C
100
AcDbSymbolTableRecord
100
AcDbBlockTableRecord
  2
_FILLED
  0
ENDTAB
  0
TABLE
  2
DIMSTYLE
  5
A
100
AcDbSymbolTable
 70
1
100
AcDbDimStyleTable
 71
0
  0
DIMSTYLE
105
21D
100
AcDbSymbolTableRecord
100
AcDbDimStyleTableRecord
  2
STANDARD
 70
0
  3

  4

 40
1.0
 41
3.0
 42
0.5
 43
0.38
 44
1.5
 45
0.0
 46
0.0
 47
0.01
 48
0.01
140
3.0
141
0.09
142
0.0
143
25.4
144
1.0
145
0.0
146
1.0
147
0.625
 71
1
 72
0
 73
0
 74
0
 75
0
 76
0
 77
1
 78
8
 79
2
170
0
171
1
172
0
173
0
174
0
175
0
176
0
177
0
178
0
270
2
179
2
271
2
272
2
273
2
274
2
275
0
280
0
281
0
282
0
283
1
284
8
285
0
286
0
287
3
288
0
340
11
278
44
341
21C
342
21C
343
21C
344
21C
  0
ENDTAB
  0
ENDSEC
  0
SECTION
  2
BLOCKS
  0
BLOCK
  5
20
100
AcDbEntity
  8
0
100
AcDbBlockBegin
  2
*Model_Space
 70
0
 10
0.0
 20
0.0
 30
0.0
  3
*Model_Space
  1

  0
ENDBLK
  5
21
100
AcDbEntity
  8
0
100
AcDbBlockEnd
  0
BLOCK
  5
1C
100
AcDbEntity
  8
0
100
AcDbBlockBegin
  2
*Paper_Space
 70
0
 10
0.0
 20
0.0
 30
0.0
  3
*Paper_Space
  1

  0
ENDBLK
  5
1D
100
AcDbEntity
  8
0
100
AcDbBlockEnd
  0
BLOCK
  5
21E
100
AcDbEntity
  8
0
100
AcDbBlockBegin
  2
_FILLED
 70
64
 10
0.0
 20
0.0
  3
_FILLED
  1

  0
SOLID
  5
21F
100
AcDbEntity
  8
0
  6
BYBLOCK
 62
0
100
AcDbTrace
 10
0.0
 20
0.0
 11
-1.0
 21
0.3166666667
 12
-1.0
 22
-0.3166666667
 13
-1.0
 23
-0.3166666667
  0
ENDBLK
  5
220
100
AcDbEntity
  8
0
  6
BYBLOCK
 62
0
100
AcDbBlockEnd
  0
ENDSEC
  0
SECTION
  2
ENTITIES
  0
LWPOLYLINE
  5
221
100
AcDbEntity
  8
RACCORDO
100
AcDbPolyline
 62
250
  6
CONTINUOUS
 90
7
 70
0
 10
-67.4499522038
 20
-22.9461426692
 10
-67.4436915739
 20
-23.0396398783
 10
-67.425000109
 20
-23.1314614915
 10
-67.3942127855
 20
-23.2199619413
 10
-67.3518813537
 20
-23.3035551805
 10
-67.2987644501
 20
-23.3807431052
 10
-67.2899672626
 20
-23.3916280796
  0
LWPOLYLINE
  5
222
100
AcDbEntity
  8
RACCORDO
100
AcDbPolyline
 62
250
  6
CONTINUOUS
 90
10
 70
0
 10
-67.3730240424
 20
-22.9810015617
 10
-67.3679580882
 20
-23.0651853811
 10
-67.3528052358
 20
-23.1481471697
 10
-67.3277854631
 20
-23.2286825497
 10
-67.2932619887
 20
-23.3056223678
 10
-67.2497359989
 20
-23.3778496687
 10
-67.1978393718
 20
-23.4443159097
 10
-67.1383255042
 20
-23.5040561833
 10
-67.0720583745
 20
-23.5562032241
 10
-67.0
 20
-23.6
  0
LINE
  5
223
100
AcDbEntity
  8
DRAFT
100
AcDbLine
 62
7
  6
CONTINUOUS
 10
-60.5
 20
39.5
 11
-60.2242099741
 21
39.7757900259
  0
LINE
  5
224
100
AcDbEntity
  8
DRAFT
100
AcDbLine
 62
7
  6
CONTINUOUS
 10
-66.0
 20
34.0
 11
-66.2757899725
 21
33.7242100275
  0
LINE
  5
225
100
AcDbEntity
  8
DRAFT
100
AcDbLine
 62
7
  6
CONTINUOUS
 10
-60.5
 20
-39.5
 11
-60.2242099741
 21
-39.7757900259
  0
LINE
  5
226
100
AcDbEntity
  8
DRAFT
100
AcDbLine
 62
7
  6
CONTINUOUS
 10
-66.0
 20
-34.0
 11
-66.2757899725
 21
-33.7242100275
  0
LWPOLYLINE
  5
227
100
AcDbEntity
  8
RACCORDO
100
AcDbPolyline
 62
250
  6
CONTINUOUS
 90
8
 70
0
 10
-67.4499522117
 20
-30.0538573308
 10
-67.4511767787
 20
-30.0518624751
 10
-67.4523907711
 20
-30.0446324731
 10
-67.453594189
 20
-30.032167325
 10
-67.454795331
 20
-30.0144052435
 10
-67.4559858985
 20
-29.9914080159
 10
-67.4571409954
 20
-29.9633610038
 10
-67.4582600379
 20
-29.9301043323
  0
LWPOLYLINE
  5
228
100
AcDbEntity
  8
RACCORDO
100
AcDbPolyline
 62
250
  6
CONTINUOUS
 90
7
 70
0
 10
-66.3772865459
 20
-23.4761308412
 10
-66.3678971518
 20
-23.4970980287
 10
-66.3602346821
 20
-23.5179362852
 10
-66.3543025528
 20
-23.5386456106
 10
-66.3501031164
 20
-23.5592260048
 10
-66.3476378846
 20
-23.579677468
 10
-66.3469076856
 20
-23.6
  0
LINE
  5
229
100
AcDbEntity
  8
RACCORDO
100
AcDbLine
 62
250
  6
CONTINUOUS
 10
-67.4582600379
 20
-29.9301043323
 11
-67.460368567
 21
-29.8491066224
  0
LINE
  5
22A
100
AcDbEntity
  8
RACCORDO
100
AcDbLine
 62
250
  6
CONTINUOUS
 10
-67.460368567
 20
-29.8491066224
 11
-67.4622389107
 21
-29.7503453895
  0
LWPOLYLINE
  5
22B
100
AcDbEntity
  8
0
100
AcDbPolyline
 62
7
  6
CONTINUOUS
 90
17
 70
0
 10
-67.7897880096
 20
-5.7507759946
 10
-67.7828667461
 20
-6.3890576797
 10
-67.7752237955
 20
-6.9997090237
 10
-67.7668682854
 20
-7.5830794896
 10
-67.7579067934
 20
-8.1317279836
 10
-67.7483315569
 20
-8.6452097239
 10
-67.7381503384
 20
-9.1239694925
 10
-67.727493003
 20
-9.5619005415
 10
-67.7163534516
 20
-9.9584798627
 10
-67.7047377832
 20
-10.3142304645
 10
-67.6927941598
 20
-10.6246146239
 10
-67.6805183802
 20
-10.8890512052
 10
-67.6679146456
 20
-11.1081213441
 10
-67.6551437209
 20
-11.2790307246
 10
-67.6422034645
 20
-11.4011624165
 10
-67.629096018
 20
-11.4751333499
 10
-67.6159885716
 20
-11.5
  0
LINE
  5
22C
100
AcDbEntity
  8
RACCORDO
100
AcDbLine
 62
250
  6
CONTINUOUS
 10
-67.4622389107
 20
-29.7503453895
 11
-67.464495586
 21
-29.5751129191
  0
LWPOLYLINE
  5
22D
100
AcDbEntity
  8
0
100
AcDbPolyline
 62
7
  6
CONTINUOUS
 90
17
 70
0
 10
-67.4421891335
 20
5.7507759946
 10
-67.449110397
 20
6.3890576797
 10
-67.4567533477
 20
6.9997090237
 10
-67.4651088577
 20
7.5830794896
 10
-67.4740703498
 20
8.1317279836
 10
-67.4836455863
 20
8.6452097239
 10
-67.4938268048
 20
9.1239694925
 10
-67.5044841402
 20
9.5619005415
 10
-67.5156236916
 20
9.9584798627
 10
-67.52723936
 20
10.3142304645
 10
-67.5391829834
 20
10.6246146239
 10
-67.551458763
 20
10.8890512052
 10
-67.5640624976
 20
11.1081213441
 10
-67.5768334223
 20
11.2790307246
 10
-67.5897736787
 20
11.4011624165
 10
-67.6028811251
 20
11.4751333499
 10
-67.6159885716
 20
11.5
  0
LINE
  5
22E
100
AcDbEntity
  8
0
100
AcDbLine
 62
7
  6
CONTINUOUS
 10
-67.8014136642
 20
-4.4008594722
 11
-67.7897880096
 21
-5.7507759946
  0
LINE
  5
22F
100
AcDbEntity
  8
0
100
AcDbLine
 62
7
  6
CONTINUOUS
 10
-67.4305634789
 20
4.4008594722
 11
-67.4421891335
 21
5.7507759946
  0
LINE
  5
230
100
AcDbEntity
  8
RACCORDO
100
AcDbLine
 62
250
  6
CONTINUOUS
 10
-67.464495586
 20
-29.5751129191
 11
-67.4659890144
 21
-29.3771893507
  0
LINE
  5
231
100
AcDbEntity
  8
0
100
AcDbLine
 62
7
  6
CONTINUOUS
 10
-67.80985202
 20
-2.9752959384
 11
-67.8014136642
 21
-4.4008594722
  0
LINE
  5
232
100
AcDbEntity
  8
0
100
AcDbLine
 62
7
  6
CONTINUOUS
 10
-67.4221251231
 20
2.9752959384
 11
-67.4305634789
 21
4.4008594722
  0
LINE
  5
233
100
AcDbEntity
  8
0
100
AcDbLine
 62
7
  6
CONTINUOUS
 10
-67.814960803
 20
-1.5052722393
 11
-67.80985202
 21
-2.9752959384
  0
LINE
  5
234
100
AcDbEntity
  8
0
100
AcDbLine
 62
7
  6
CONTINUOUS
 10
-67.4170163402
 20
1.5052722393
 11
-67.4221251231
 21
2.9752959384
  0
LINE
  5
235
100
AcDbEntity
  8
0
100
AcDbLine
 62
7
  6
CONTINUOUS
 10
-67.8166912456
 20
-0.0
 11
-67.814960803
 21
-1.5052722393
  0
LINE
  5
236
100
AcDbEntity
  8
RACCORDO
100
AcDbLine
 62
250
  6
CONTINUOUS
 10
-67.4659890144
 20
-29.3771893507
 11
-67.4667094077
 21
-29.1
  0
LINE
  5
237
100
AcDbEntity
  8
0
100
AcDbLine
 62
7
  6
CONTINUOUS
 10
-67.4152858976
 20
-0.0
 11
-67.4170163402
 21
1.5052722393
  0
LINE
  5
238
100
AcDbEntity
  8
DRAFT
100
AcDbLine
 62
7
  6
CONTINUOUS
 10
-68.0
 20
35.5
 11
-68.0
 21
-35.5
  0
LINE
  5
239
100
AcDbEntity
  8
RACCORDO
100
AcDbLine
 62
250
  6
CONTINUOUS
 10
-67.3730280729
 20
35.5
 11
-67.3730280729
 21
-22.9810015616
  0
LINE
  5
23A
100
AcDbEntity
  8
RACCORDO
100
AcDbLine
 62
250
  6
CONTINUOUS
 10
-67.3730280729
 20
-30.0189984384
 11
-67.3730280729
 21
-35.5
  0
LINE
  5
23B
100
AcDbEntity
  8
RACCORDO
100
AcDbLine
 62
7
  6
CONTINUOUS
 10
-67.0
 20
-23.6
 11
-67.0
 21
-29.4
  0
LINE
  5
23C
100
AcDbEntity
  8
RACCORDO
100
AcDbLine
 62
250
  6
CONTINUOUS
 10
-66.3469076856
 20
-23.6
 11
-66.3469076856
 21
-29.4
  0
LINE
  5
23D
100
AcDbEntity
  8
RACCORDO
100
AcDbLine
 62
7
  6
CONTINUOUS
 10
-66.2757899725
 20
35.5
 11
-66.2757899725
 21
33.7242100275
  0
LINE
  5
23E
100
AcDbEntity
  8
RACCORDO
100
AcDbLine
 62
7
  6
CONTINUOUS
 10
-66.2757899725
 20
-33.7242100275
 11
-66.2757899725
 21
-35.5
  0
LINE
  5
23F
100
AcDbEntity
  8
RACCORDO
100
AcDbLine
 62
250
  6
CONTINUOUS
 10
-66.2731956082
 20
33.7242099741
 11
-66.2731956082
 21
-33.7242099741
  0
LINE
  5
240
100
AcDbEntity
  8
DRAFT
100
AcDbLine
 62
7
  6
CONTINUOUS
 10
-66.0
 20
-34.0
 11
-66.0
 21
-35.5
  0
LINE
  5
241
100
AcDbEntity
  8
DRAFT
100
AcDbLine
 62
7
  6
CONTINUOUS
 10
-66.0
 20
34.0
 11
-66.0
 21
35.5
  0
LINE
  5
242
100
AcDbEntity
  8
0
100
AcDbLine
 62
7
  6
CONTINUOUS
 10
-67.814960803
 20
1.5052722393
 11
-67.8166912456
 21
-0.0
  0
LINE
  5
243
100
AcDbEntity
  8
0
100
AcDbLine
 62
7
  6
CONTINUOUS
 10
-67.4170163402
 20
-1.5052722393
 11
-67.4152858976
 21
-0.0
  0
LINE
  5
244
100
AcDbEntity
  8
RACCORDO
100
AcDbLine
 62
250
  6
CONTINUOUS
 10
-67.4667094077
 20
-29.1
 11
-67.4663067072
 21
-23.6914775114
  0
LINE
  5
245
100
AcDbEntity
  8
0
100
AcDbLine
 62
7
  6
CONTINUOUS
 10
-67.80985202
 20
2.9752959384
 11
-67.814960803
 21
1.5052722393
  0
LINE
  5
246
100
AcDbEntity
  8
0
100
AcDbLine
 62
7
  6
CONTINUOUS
 10
-67.4221251231
 20
-2.9752959384
 11
-67.4170163402
 21
-1.5052722393
  0
LINE
  5
247
100
AcDbEntity
  8
0
100
AcDbLine
 62
7
  6
CONTINUOUS
 10
-67.8014136642
 20
4.4008594722
 11
-67.80985202
 21
2.9752959384
  0
LINE
  5
248
100
AcDbEntity
  8
0
100
AcDbLine
 62
7
  6
CONTINUOUS
 10
-67.4305634789
 20
-4.4008594722
 11
-67.4221251231
 21
-2.9752959384
  0
LINE
  5
249
100
AcDbEntity
  8
RACCORDO
100
AcDbLine
 62
250
  6
CONTINUOUS
 10
-67.4663067072
 20
-23.6914775114
 11
-67.4650825363
 21
-23.4887082356
  0
LINE
  5
24A
100
AcDbEntity
  8
RACCORDO
100
AcDbLine
 62
250
  6
CONTINUOUS
 10
-67.4650825363
 20
-23.4887082356
 11
-67.4630672752
 21
-23.3045155419
  0
LINE
  5
24B
100
AcDbEntity
  8
RACCORDO
100
AcDbLine
 62
250
  6
CONTINUOUS
 10
-67.4630672752
 20
-23.3045155419
 11
-67.461331411
 21
-23.1979958969
  0
LWPOLYLINE
  5
24C
100
AcDbEntity
  8
RACCORDO
100
AcDbPolyline
 62
250
  6
CONTINUOUS
 90
10
 70
0
 10
-67.461331411
 20
-23.1979958969
 10
-67.4593420053
 20
-23.1081393175
 10
-67.4582585942
 20
-23.0698484093
 10
-67.4571397571
 20
-23.0366056964
 10
-67.455984927
 20
-23.0085700012
 10
-67.4547946709
 20
-22.9855825014
 10
-67.4535937911
 20
-22.9678275799
 10
-67.452390555
 20
-22.9553666979
 10
-67.4511766952
 20
-22.9481383943
 10
-67.4499522117
 20
-22.9461426692
  0
LWPOLYLINE
  5
24D
100
AcDbEntity
  8
RACCORDO
100
AcDbPolyline
 62
250
  6
CONTINUOUS
 90
10
 70
0
 10
-66.3469076856
 20
-29.4
 10
-66.3483948349
 20
-29.4257173708
 10
-66.3524952706
 20
-29.4516711113
 10
-66.359206838
 20
-29.4778612216
 10
-66.368282547
 20
-29.5044059953
 10
-66.3799596886
 20
-29.5311871387
 10
-66.3949566281
 20
-29.5578497711
 10
-66.4134980151
 20
-29.584275599
 10
-66.4353150788
 20
-29.610582916
 10
-66.4603710907
 20
-29.636771722
  0
LWPOLYLINE
  5
24E
100
AcDbEntity
  8
RACCORDO
100
AcDbPolyline
 62
250
  6
CONTINUOUS
 90
10
 70
0
 10
-67.3730276287
 20
-30.0189984384
 10
-67.3679610327
 20
-29.9348144952
 10
-67.3528075961
 20
-29.8518526486
 10
-67.3277873022
 20
-29.7713172614
 10
-67.2932633724
 20
-29.6943774712
 10
-67.2497369928
 20
-29.622150218
 10
-67.1978400389
 20
-29.5556840298
 10
-67.1383259022
 20
-29.4959438007
 10
-67.0720585534
 20
-29.4437967835
 10
-67.0
 20
-29.4
  0
LWPOLYLINE
  5
24F
100
AcDbEntity
  8
RACCORDO
100
AcDbPolyline
 62
250
  6
CONTINUOUS
 90
6
 70
0
 10
-67.4499650636
 20
-30.0538573304
 10
-67.4437018431
 20
-29.9603599828
 10
-67.4250079818
 20
-29.8685385422
 10
-67.3942184886
 20
-29.7800385228
 10
-67.3518851359
 20
-29.696445916
 10
-67.3015368335
 20
-29.6227804435
  0
LWPOLYLINE
  5
250
100
AcDbEntity
  8
RACCORDO
100
AcDbPolyline
 62
250
  6
CONTINUOUS
 90
10
 70
0
 10
-54.636771722
 20
39.9603710907
 10
-54.5993467844
 20
40.0600203286
 10
-54.56283851
 20
40.1543113722
 10
-54.52814111
 20
40.2409347149
 10
-54.496104441
 20
40.3177686582
 10
-54.4675131894
 20
40.382931279
 10
-54.4430676515
 20
40.4348265244
 10
-54.4233665813
 20
40.4721833044
 10
-54.4088925246
 20
40.494086625
 10
-54.4
 20
40.5
  0
LWPOLYLINE
  5
251
100
AcDbEntity
  8
0
100
AcDbPolyline
 62
7
  6
CONTINUOUS
 90
18
 70
0
 10
-67.6159885716
 20
11.5
 10
-67.629096018
 20
11.4751333499
 10
-67.6422034645
 20
11.4011624165
 10
-67.6551437209
 20
11.2790307246
 10
-67.6679146456
 20
11.1081213441
 10
-67.6805183802
 20
10.8890512052
 10
-67.6927941598
 20
10.6246146239
 10
-67.7047377832
 20
10.3142304645
 10
-67.7163534516
 20
9.9584798627
 10
-67.727493003
 20
9.5619005415
 10
-67.7381503384
 20
9.1239694925
 10
-67.7483315569
 20
8.6452097239
 10
-67.7579067934
 20
8.1317279836
 10
-67.7668682854
 20
7.5830794896
 10
-67.7752237955
 20
6.9997090237
 10
-67.7828667461
 20
6.3890576797
 10
-67.7897880096
 20
5.7507759946
 10
-67.8014136642
 20
4.4008594722
  0
LWPOLYLINE
  5
252
100
AcDbEntity
  8
RACCORDO
100
AcDbPolyline
 62
250
  6
CONTINUOUS
 90
8
 70
0
 10
-55.0538573308
 20
40.9499522117
 10
-55.0518624751
 20
40.9511767787
 10
-55.0446324731
 20
40.9523907711
 10
-55.032167325
 20
40.953594189
 10
-55.0144052435
 20
40.954795331
 10
-54.9914080159
 20
40.9559858985
 10
-54.9633610038
 20
40.9571409954
 10
-54.9301043323
 20
40.9582600379
  0
LWPOLYLINE
  5
253
100
AcDbEntity
  8
RACCORDO
100
AcDbPolyline
 62
7
  6
CONTINUOUS
 90
5
 70
0
 10
-67.2899672626
 20
-23.3916280796
 10
-67.2358140012
 20
-23.4501424038
 10
-67.1641581639
 20
-23.5105093471
 10
-67.0850811077
 20
-23.5607620781
 10
-67.0
 20
-23.6
  0
LINE
  5
254
100
AcDbEntity
  8
DRAFT
100
AcDbLine
 62
250
  6
CONTINUOUS
 10
-62.0
 20
34.0
 11
-62.0
 21
33.7242099741
  0
LINE
  5
255
100
AcDbEntity
  8
DRAFT
100
AcDbLine
 62
250
  6
CONTINUOUS
 10
-62.0
 20
-34.0
 11
-62.0
 21
-33.7242099741
  0
LINE
  5
256
100
AcDbEntity
  8
RACCORDO
100
AcDbLine
 62
250
  6
CONTINUOUS
 10
-62.0
 20
-39.5
 11
-62.0
 21
-41.5
  0
LINE
  5
257
100
AcDbEntity
  8
RACCORDO
100
AcDbLine
 62
250
  6
CONTINUOUS
 10
-62.0
 20
39.5
 11
-62.0
 21
41.5
  0
LINE
  5
258
100
AcDbEntity
  8
DRAFT
100
AcDbLine
 62
7
  6
CONTINUOUS
 10
-60.5
 20
39.5
 11
-60.5
 21
35.5
  0
LINE
  5
259
100
AcDbEntity
  8
DRAFT
100
AcDbLine
 62
7
  6
CONTINUOUS
 10
-60.5
 20
-39.5
 11
-60.5
 21
-35.5
  0
LINE
  5
25A
100
AcDbEntity
  8
DRAFT
100
AcDbLine
 62
7
  6
CONTINUOUS
 10
-60.2242099741
 20
39.7731956082
 11
-60.2242099741
 21
35.5
  0
LINE
  5
25B
100
AcDbEntity
  8
DRAFT
100
AcDbLine
 62
7
  6
CONTINUOUS
 10
-60.2242099741
 20
-39.7731956082
 11
-60.2242099741
 21
-35.5
  0
LWPOLYLINE
  5
25C
100
AcDbEntity
  8
RACCORDO
100
AcDbPolyline
 62
250
  6
CONTINUOUS
 90
10
 70
0
 10
-47.9461426692
 20
40.9499522117
 10
-47.9495020425
 20
40.941329449
 10
-47.9529886555
 20
40.9327255947
 10
-47.956602508
 20
40.9241406488
 10
-47.9603419739
 20
40.9155746106
 10
-47.9642086794
 20
40.9070274808
 10
-47.9682075031
 20
40.8984992619
 10
-47.9723400711
 20
40.8899899547
 10
-47.9766047573
 20
40.8814995584
 10
-47.9810015616
 20
40.8730280729
  0
LWPOLYLINE
  5
25D
100
AcDbEntity
  8
RACCORDO
100
AcDbPolyline
 62
7
  6
CONTINUOUS
 90
5
 70
0
 10
-48.3916280796
 20
40.7899672626
 10
-48.4501424038
 20
40.7358140012
 10
-48.5105093471
 20
40.6641581639
 10
-48.5607620781
 20
40.5850811077
 10
-48.6
 20
40.5
  0
LWPOLYLINE
  5
25E
100
AcDbEntity
  8
0
100
AcDbPolyline
 62
7
  6
CONTINUOUS
 90
10
 70
0
 10
-53.4160718604
 20
1.132531
 10
-53.4185632507
 20
1.2163120509
 10
-53.4169379316
 20
1.2975800151
 10
-53.4111959031
 20
1.3763348923
 10
-53.4014754669
 20
1.4529242037
 10
-53.3876383213
 20
1.5270004282
 10
-53.3692695615
 20
1.5975210032
 10
-53.3462308859
 20
1.6641384078
 10
-53.3186605962
 20
1.7272001629
 10
-53.2865586922
 20
1.7867062685
  0
LINE
  5
25F
100
AcDbEntity
  8
0
100
AcDbLine
 62
7
  6
CONTINUOUS
 10
-54.965387
 20
-0.115089
 11
-54.965387
 21
-1.576121
  0
LINE
  5
260
100
AcDbEntity
  8
0
100
AcDbLine
 62
7
  6
CONTINUOUS
 10
-54.693534
 20
-1.293011
 11
-54.693534
 21
-0.115089
  0
LINE
  5
261
100
AcDbEntity
  8
RACCORDO
100
AcDbLine
 62
250
  6
CONTINUOUS
 10
-54.4
 20
39.8469076856
 11
-54.4000000001
 21
40.5
  0
LINE
  5
262
100
AcDbEntity
  8
RACCORDO
100
AcDbLine
 62
250
  6
CONTINUOUS
 10
-54.1
 20
40.9667094077
 11
-54.1
 21
40.5
  0
LWPOLYLINE
  5
263
100
AcDbEntity
  8
0
100
AcDbPolyline
 62
7
  6
CONTINUOUS
 90
16
 70
0
 10
-54.7437946685
 20
1.3929966685
 10
-54.7408732631
 20
1.4568501581
 10
-54.7338874611
 20
1.5172489674
 10
-54.7228372624
 20
1.5741930964
 10
-54.7079305654
 20
1.6279925501
 10
-54.6889594717
 20
1.6783373236
 10
-54.665300286
 20
1.7242974016
 10
-54.6368671109
 20
1.7656132776
 10
-54.6037458437
 20
1.8025444582
 10
-54.5655704821
 20
1.8349394482
 10
-54.5218959774
 20
1.8627933565
 10
-54.4731673783
 20
1.8861110742
 10
-54.4203538275
 20
1.9047557791
 10
-54.3637783727
 20
1.9186818639
 10
-54.3031179663
 20
1.927934936
 10
-54.2383726082
 20
1.9325149954
  0
LWPOLYLINE
  5
264
100
AcDbEntity
  8
RACCORDO
100
AcDbPolyline
 62
250
  6
CONTINUOUS
 90
3
 70
0
 10
-47.9810015616
 20
40.8730280729
 10
-47.981739946
 20
40.8686260664
 10
-47.9837500403
 20
40.8582979126
  0
LWPOLYLINE
  5
265
100
AcDbEntity
  8
RACCORDO
100
AcDbPolyline
 62
250
  6
CONTINUOUS
 90
25
 70
0
 10
-47.9837500403
 20
40.8582979126
 10
-47.9915069388
 20
40.8202098848
 10
-47.997253743
 20
40.7927014945
 10
-48.0045075175
 20
40.7599813774
 10
-48.0133147299
 20
40.7222154244
 10
-48.0236289126
 20
40.6798078006
 10
-48.0355459233
 20
40.6338196908
 10
-48.0491401887
 20
40.5847980705
 10
-48.0643372822
 20
40.5332341819
 10
-48.0810097808
 20
40.4804486012
 10
-48.0991637446
 20
40.4272145771
 10
-48.1187931136
 20
40.3738952091
 10
-48.1397522849
 20
40.321310755
 10
-48.1620365754
 20
40.27003445
 10
-48.1856506683
 20
40.2203428295
 10
-48.2104630101
 20
40.1725616296
 10
-48.2364962515
 20
40.126839241
 10
-48.2637277419
 20
40.0835430353
 10
-48.2919579763
 20
40.0432725922
 10
-48.3213346437
 20
40.0061843815
 10
-48.351710055
 20
39.9724226439
 10
-48.3824416377
 20
39.9425375026
 10
-48.4133152008
 20
39.9167594621
 10
-48.4445449353
 20
39.894996206
 10
-48.4761308412
 20
39.8772865459
  0
LWPOLYLINE
  5
266
100
AcDbEntity
  8
0
100
AcDbPolyline
 62
7
  6
CONTINUOUS
 90
18
 70
0
 10
-67.6159885716
 20
-11.5
 10
-67.6028811251
 20
-11.4751333499
 10
-67.5897736787
 20
-11.4011624165
 10
-67.5768334223
 20
-11.2790307246
 10
-67.5640624976
 20
-11.1081213441
 10
-67.551458763
 20
-10.8890512052
 10
-67.5391829834
 20
-10.6246146239
 10
-67.52723936
 20
-10.3142304645
 10
-67.5156236916
 20
-9.9584798627
 10
-67.5044841402
 20
-9.5619005415
 10
-67.4938268048
 20
-9.1239694925
 10
-67.4836455863
 20
-8.6452097239
 10
-67.4740703498
 20
-8.1317279836
 10
-67.4651088577
 20
-7.5830794896
 10
-67.4567533477
 20
-6.9997090237
 10
-67.449110397
 20
-6.3890576797
 10
-67.4421891335
 20
-5.7507759946
 10
-67.4305634789
 20
-4.4008594722
  0
LWPOLYLINE
  5
267
100
AcDbEntity
  8
RACCORDO
100
AcDbPolyline
 62
250
  6
CONTINUOUS
 90
7
 70
0
 10
-48.4761308412
 20
39.8772865459
 10
-48.4970980287
 20
39.8678971518
 10
-48.5179362852
 20
39.8602346821
 10
-48.5386456106
 20
39.8543025528
 10
-48.5592260048
 20
39.8501031164
 10
-48.579677468
 20
39.8476378846
 10
-48.6
 20
39.8469076856
  0
LINE
  5
268
100
AcDbEntity
  8
0
100
AcDbLine
 62
7
  6
CONTINUOUS
 10
-51.6
 20
16.5
 11
-51.6
 21
-16.5
  0
LINE
  5
269
100
AcDbEntity
  8
0
100
AcDbLine
 62
7
  6
CONTINUOUS
 10
-51.4
 20
-16.5
 11
-51.4
 21
16.5
  0
LINE
  5
26A
100
AcDbEntity
  8
RACCORDO
100
AcDbLine
 62
250
  6
CONTINUOUS
 10
-48.9
 20
40.9667094077
 11
-48.9000000084
 21
40.5000000001
  0
LINE
  5
26B
100
AcDbEntity
  8
RACCORDO
100
AcDbLine
 62
250
  6
CONTINUOUS
 10
-48.6
 20
39.8469076856
 11
-48.6
 21
40.5
  0
LWPOLYLINE
  5
26C
100
AcDbEntity
  8
0
100
AcDbPolyline
 62
7
  6
CONTINUOUS
 90
10
 70
0
 10
-52.2215925954
 20
-0.952638221
 10
-52.2300171828
 20
-1.0347283218
 10
-52.2475830212
 20
-1.1129242596
 10
-52.2742901107
 20
-1.1872260342
 10
-52.3109821609
 20
-1.2589815615
 10
-52.3568154623
 20
-1.3268429257
 10
-52.4092588858
 20
-1.3867663796
 10
-52.4674687219
 20
-1.4374040075
 10
-52.5322886802
 20
-1.4801037251
 10
-52.6037187606
 20
-1.5148655323
  0
LINE
  5
26D
100
AcDbEntity
  8
0
100
AcDbLine
 62
7
  6
CONTINUOUS
 10
-54.5483798359
 20
0.5757353215
 11
-54.415790899
 21
0.8354161978
  0
LWPOLYLINE
  5
26E
100
AcDbEntity
  8
RACCORDO
100
AcDbPolyline
 62
250
  6
CONTINUOUS
 90
10
 70
0
 10
-66.4603710907
 20
-29.636771722
 10
-66.5600203286
 20
-29.5993467844
 10
-66.6543113722
 20
-29.56283851
 10
-66.7409347149
 20
-29.52814111
 10
-66.8177686582
 20
-29.496104441
 10
-66.882931279
 20
-29.4675131894
 10
-66.9348265244
 20
-29.4430676515
 10
-66.9721833044
 20
-29.4233665813
 10
-66.994086625
 20
-29.4088925246
 10
-67.0
 20
-29.4
  0
LWPOLYLINE
  5
26F
100
AcDbEntity
  8
0
100
AcDbPolyline
 62
7
  6
CONTINUOUS
 90
13
 70
0
 10
-53.427590219
 20
-1.6038029961
 10
-53.481978179
 20
-1.4937496572
 10
-53.5254971763
 20
-1.3855897248
 10
-53.558147211
 20
-1.2793231987
 10
-53.579596331
 20
-1.1740608629
 10
-53.5901764883
 20
-1.0706919335
 10
-53.5908835394
 20
-0.9718840587
 10
-53.581713218
 20
-0.8778921472
 10
-53.5626697905
 20
-0.7884612905
 10
-53.5347619113
 20
-0.7054944113
 10
-53.4983257988
 20
-0.6296258174
 10
-53.4530252348
 20
-0.5602212012
 10
-53.3988602192
 20
-0.4972805626
  0
LINE
  5
270
100
AcDbEntity
  8
0
100
AcDbLine
 62
7
  6
CONTINUOUS
 10
-52.6037187606
 20
-1.5148655323
 11
-52.4737469146
 21
-1.80393019
  0
LWPOLYLINE
  5
271
100
AcDbEntity
  8
0
100
AcDbPolyline
 62
7
  6
CONTINUOUS
 90
13
 70
0
 10
-53.5660222086
 20
1.715912137
 10
-53.5957974136
 20
1.790153678
 10
-53.6316561222
 20
1.8593422919
 10
-53.6735983345
 20
1.9234779786
 10
-53.7226903123
 20
1.9832054102
 10
-53.7778657937
 20
2.0378799145
 10
-53.8359259934
 20
2.0855674753
 10
-53.8955028046
 20
2.1256080274
 10
-53.9579643341
 20
2.1586616358
 10
-54.0242161168
 20
2.184774479
 10
-54.0945599976
 20
2.2039619498
 10
-54.1686941316
 20
2.2162086552
 10
-54.2466185187
 20
2.2215145954
  0
LINE
  5
272
100
AcDbEntity
  8
0
100
AcDbLine
 62
7
  6
CONTINUOUS
 10
-52.6410220488
 20
0.7708881594
 11
-52.545473839
 21
0.4588524741
  0
LWPOLYLINE
  5
273
100
AcDbEntity
  8
0
100
AcDbPolyline
 62
7
  6
CONTINUOUS
 90
7
 70
0
 10
-53.7200744367
 20
1.5463050601
 10
-53.7054461467
 20
1.4843235269
 10
-53.6952614862
 20
1.4186747886
 10
-53.6884816787
 20
1.3505518647
 10
-53.6847604652
 20
1.2803524287
 10
-53.6844441047
 20
1.2076788071
 10
-53.6875325972
 20
1.132531
  0
LWPOLYLINE
  5
274
100
AcDbEntity
  8
0
100
AcDbPolyline
 62
7
  6
CONTINUOUS
 90
10
 70
0
 10
-53.2865586922
 20
1.7867062685
 10
-53.2555669013
 20
1.829505087
 10
-53.2184791803
 20
1.8684616152
 10
-53.1752955292
 20
1.9035758529
 10
-53.1252224088
 20
1.9356142191
 10
-53.0690533584
 20
1.963810295
 10
-53.0091689956
 20
1.9858648235
 10
-52.9463628595
 20
2.0010113858
 10
-52.8798414111
 20
2.0100164008
 10
-52.8096046502
 20
2.0128798685
  0
LWPOLYLINE
  5
275
100
AcDbEntity
  8
RACCORDO
100
AcDbPolyline
 62
250
  6
CONTINUOUS
 90
7
 70
0
 10
47.9461426692
 20
-40.9499522038
 10
48.0396398783
 20
-40.9436915739
 10
48.1314614915
 20
-40.925000109
 10
48.2199619413
 20
-40.8942127855
 10
48.3035551805
 20
-40.8518813537
 10
48.3807431052
 20
-40.7987644501
 10
48.3916280796
 20
-40.7899672626
  0
LWPOLYLINE
  5
276
100
AcDbEntity
  8
RACCORDO
100
AcDbPolyline
 62
250
  6
CONTINUOUS
 90
10
 70
0
 10
47.9810015617
 20
-40.8730240424
 10
48.0651853811
 20
-40.8679580882
 10
48.1481471697
 20
-40.8528052358
 10
48.2286825497
 20
-40.8277854631
 10
48.3056223678
 20
-40.7932619887
 10
48.3778496687
 20
-40.7497359989
 10
48.4443159097
 20
-40.6978393718
 10
48.5040561833
 20
-40.6383255042
 10
48.5562032241
 20
-40.5720583745
 10
48.6
 20
-40.5
  0
LINE
  5
277
100
AcDbEntity
  8
RACCORDO
100
AcDbLine
 62
250
  6
CONTINUOUS
 10
54.9301043323
 20
-40.9582600379
 11
54.8491066224
 21
-40.960368567
  0
LWPOLYLINE
  5
278
100
AcDbEntity
  8
RACCORDO
100
AcDbPolyline
 62
250
  6
CONTINUOUS
 90
3
 70
0
 10
54.8491066224
 20
-40.960368567
 10
54.7503453895
 20
-40.9622389107
 10
54.6953890577
 20
-40.9630686058
  0
LWPOLYLINE
  5
279
100
AcDbEntity
  8
RACCORDO
100
AcDbPolyline
 62
250
  6
CONTINUOUS
 90
10
 70
0
 10
-67.4499522117
 20
-22.9461426692
 10
-67.441329449
 20
-22.9495020425
 10
-67.4327255947
 20
-22.9529886555
 10
-67.4241406488
 20
-22.956602508
 10
-67.4155746106
 20
-22.9603419739
 10
-67.4070274808
 20
-22.9642086794
 10
-67.3984992619
 20
-22.9682075031
 10
-67.3899899547
 20
-22.9723400711
 10
-67.3814995584
 20
-22.9766047573
 10
-67.3730280729
 20
-22.9810015616
  0
LWPOLYLINE
  5
27A
100
AcDbEntity
  8
RACCORDO
100
AcDbPolyline
 62
250
  6
CONTINUOUS
 90
4
 70
0
 10
-55.0088843892
 20
40.8221202821
 10
-55.016345127
 20
40.8588118522
 10
-55.018281175
 20
40.8687690495
 10
-55.0189984384
 20
40.8730280729
  0
LINE
  5
27B
100
AcDbEntity
  8
0
100
AcDbLine
 62
7
  6
CONTINUOUS
 10
-41.5
 20
26.6
 11
-41.5
 21
26.4
  0
LINE
  5
27C
100
AcDbEntity
  8
RACCORDO
100
AcDbLine
 62
250
  6
CONTINUOUS
 10
54.6953890577
 20
-40.9630686058
 11
54.5112216456
 21
-40.9650831204
  0
LINE
  5
27D
100
AcDbEntity
  8
ASSI
100
AcDbLine
 62
7
  6
CONTINUOUS
 10
39.7507759946
 20
-41.2897880096
 11
38.4008594722
 21
-41.3014136642
  0
LINE
  5
27E
100
AcDbEntity
  8
ASSI
100
AcDbLine
 62
7
  6
CONTINUOUS
 10
5.7507759946
 20
-41.2897880096
 11
4.4008594722
 21
-41.3014136642
  0
LINE
  5
27F
100
AcDbEntity
  8
ASSI
100
AcDbLine
 62
7
  6
CONTINUOUS
 10
28.2492240054
 20
-40.9421891335
 11
29.5991405278
 21
-40.9305634789
  0
LINE
  5
280
100
AcDbEntity
  8
ASSI
100
AcDbLine
 62
7
  6
CONTINUOUS
 10
-28.2492240054
 20
-41.2897880096
 11
-29.5991405278
 21
-41.3014136642
  0
LINE
  5
281
100
AcDbEntity
  8
ASSI
100
AcDbLine
 62
7
  6
CONTINUOUS
 10
-5.7507759946
 20
-40.9421891335
 11
-4.4008594722
 21
-40.9305634789
  0
LINE
  5
282
100
AcDbEntity
  8
ASSI
100
AcDbLine
 62
7
  6
CONTINUOUS
 10
-39.7507759946
 20
-40.9421891335
 11
-38.4008594722
 21
-40.9305634789
  0
LINE
  5
283
100
AcDbEntity
  8
ASSI
100
AcDbLine
 62
7
  6
CONTINUOUS
 10
38.4008594722
 20
-41.3014136642
 11
36.9752959384
 21
-41.30985202
  0
LINE
  5
284
100
AcDbEntity
  8
ASSI
100
AcDbLine
 62
7
  6
CONTINUOUS
 10
4.4008594722
 20
-41.3014136642
 11
2.9752959384
 21
-41.30985202
  0
LINE
  5
285
100
AcDbEntity
  8
ASSI
100
AcDbLine
 62
7
  6
CONTINUOUS
 10
-29.5991405278
 20
-41.3014136642
 11
-31.0247040616
 21
-41.30985202
  0
LINE
  5
286
100
AcDbEntity
  8
ASSI
100
AcDbLine
 62
7
  6
CONTINUOUS
 10
29.5991405278
 20
-40.9305634789
 11
31.0247040616
 21
-40.9221251231
  0
LINE
  5
287
100
AcDbEntity
  8
ASSI
100
AcDbLine
 62
7
  6
CONTINUOUS
 10
-4.4008594722
 20
-40.9305634789
 11
-2.9752959384
 21
-40.9221251231
  0
LINE
  5
288
100
AcDbEntity
  8
ASSI
100
AcDbLine
 62
7
  6
CONTINUOUS
 10
-38.4008594722
 20
-40.9305634789
 11
-36.9752959384
 21
-40.9221251231
  0
LINE
  5
289
100
AcDbEntity
  8
RACCORDO
100
AcDbLine
 62
250
  6
CONTINUOUS
 10
54.5112216456
 20
-40.9650831204
 11
54.2396423236
 21
-40.9665322296
  0
LINE
  5
28A
100
AcDbEntity
  8
ASSI
100
AcDbLine
 62
7
  6
CONTINUOUS
 10
36.9752959384
 20
-41.30985202
 11
35.5052722393
 21
-41.314960803
  0
LINE
  5
28B
100
AcDbEntity
  8
ASSI
100
AcDbLine
 62
7
  6
CONTINUOUS
 10
2.9752959384
 20
-41.30985202
 11
1.5052722393
 21
-41.314960803
  0
LINE
  5
28C
100
AcDbEntity
  8
ASSI
100
AcDbLine
 62
7
  6
CONTINUOUS
 10
-31.0247040616
 20
-41.30985202
 11
-32.4947277607
 21
-41.314960803
  0
LINE
  5
28D
100
AcDbEntity
  8
ASSI
100
AcDbLine
 62
7
  6
CONTINUOUS
 10
31.0247040616
 20
-40.9221251231
 11
32.4947277607
 21
-40.9170163402
  0
LINE
  5
28E
100
AcDbEntity
  8
ASSI
100
AcDbLine
 62
7
  6
CONTINUOUS
 10
-2.9752959384
 20
-40.9221251231
 11
-1.5052722393
 21
-40.9170163402
  0
LINE
  5
28F
100
AcDbEntity
  8
ASSI
100
AcDbLine
 62
7
  6
CONTINUOUS
 10
-36.9752959384
 20
-40.9221251231
 11
-35.5052722393
 21
-40.9170163402
  0
LINE
  5
290
100
AcDbEntity
  8
ASSI
100
AcDbLine
 62
7
  6
CONTINUOUS
 10
35.5052722393
 20
-41.314960803
 11
34.0
 21
-41.3166912456
  0
LINE
  5
291
100
AcDbEntity
  8
ASSI
100
AcDbLine
 62
7
  6
CONTINUOUS
 10
1.5052722393
 20
-41.314960803
 11
0.0
 21
-41.3166912456
  0
LINE
  5
292
100
AcDbEntity
  8
ASSI
100
AcDbLine
 62
7
  6
CONTINUOUS
 10
-32.4947277607
 20
-41.314960803
 11
-34.0
 21
-41.3166912456
  0
LINE
  5
293
100
AcDbEntity
  8
ASSI
100
AcDbLine
 62
7
  6
CONTINUOUS
 10
32.4947277607
 20
-40.9170163402
 11
34.0
 21
-40.9152858976
  0
LINE
  5
294
100
AcDbEntity
  8
ASSI
100
AcDbLine
 62
7
  6
CONTINUOUS
 10
-1.5052722393
 20
-40.9170163402
 11
0.0
 21
-40.9152858976
  0
LINE
  5
295
100
AcDbEntity
  8
ASSI
100
AcDbLine
 62
7
  6
CONTINUOUS
 10
-35.5052722393
 20
-40.9170163402
 11
-34.0
 21
-40.9152858976
  0
LINE
  5
296
100
AcDbEntity
  8
DRAFT
100
AcDbLine
 62
7
  6
CONTINUOUS
 10
-62.0
 20
-41.5
 11
62.0
 21
-41.5
  0
LINE
  5
297
100
AcDbEntity
  8
RACCORDO
100
AcDbLine
 62
250
  6
CONTINUOUS
 10
54.2396423236
 20
-40.9665322296
 11
48.9
 21
-40.9667094077
  0
LINE
  5
298
100
AcDbEntity
  8
RACCORDO
100
AcDbLine
 62
250
  6
CONTINUOUS
 10
-62.0
 20
-40.8730280729
 11
47.9810015616
 21
-40.8730280729
  0
LINE
  5
299
100
AcDbEntity
  8
RACCORDO
100
AcDbLine
 62
250
  6
CONTINUOUS
 10
55.0189984384
 20
-40.8730280729
 11
62.0
 21
-40.8730280729
  0
LINE
  5
29A
100
AcDbEntity
  8
RACCORDO
100
AcDbLine
 62
7
  6
CONTINUOUS
 10
48.6
 20
-40.5
 11
54.4
 21
-40.5
  0
LINE
  5
29B
100
AcDbEntity
  8
RACCORDO
100
AcDbLine
 62
250
  6
CONTINUOUS
 10
48.6
 20
-39.8469076856
 11
54.4
 21
-39.8469076856
  0
LINE
  5
29C
100
AcDbEntity
  8
RACCORDO
100
AcDbLine
 62
7
  6
CONTINUOUS
 10
-62.0
 20
-39.7757899725
 11
-60.2242100275
 21
-39.7757899725
  0
LINE
  5
29D
100
AcDbEntity
  8
RACCORDO
100
AcDbLine
 62
7
  6
CONTINUOUS
 10
60.2242100275
 20
-39.7757899725
 11
62.0
 21
-39.7757899725
  0
LINE
  5
29E
100
AcDbEntity
  8
RACCORDO
100
AcDbLine
 62
250
  6
CONTINUOUS
 10
-60.2242099741
 20
-39.7731956082
 11
60.2242099741
 21
-39.7731956082
  0
LINE
  5
29F
100
AcDbEntity
  8
DRAFT
100
AcDbLine
 62
7
  6
CONTINUOUS
 10
-62.0
 20
-39.5
 11
-60.5
 21
-39.5
  0
LINE
  5
2A0
100
AcDbEntity
  8
DRAFT
100
AcDbLine
 62
7
  6
CONTINUOUS
 10
62.0
 20
-39.5
 11
60.5
 21
-39.5
  0
LINE
  5
2A1
100
AcDbEntity
  8
ASSI
100
AcDbLine
 62
7
  6
CONTINUOUS
 10
-34.0
 20
-41.3166912456
 11
-35.5052722393
 21
-41.314960803
  0
LINE
  5
2A2
100
AcDbEntity
  8
ASSI
100
AcDbLine
 62
7
  6
CONTINUOUS
 10
0.0
 20
-41.3166912456
 11
-1.5052722393
 21
-41.314960803
  0
LINE
  5
2A3
100
AcDbEntity
  8
ASSI
100
AcDbLine
 62
7
  6
CONTINUOUS
 10
34.0
 20
-41.3166912456
 11
32.4947277607
 21
-41.314960803
  0
LINE
  5
2A4
100
AcDbEntity
  8
ASSI
100
AcDbLine
 62
7
  6
CONTINUOUS
 10
-34.0
 20
-40.9152858976
 11
-32.4947277607
 21
-40.9170163402
  0
LINE
  5
2A5
100
AcDbEntity
  8
ASSI
100
AcDbLine
 62
7
  6
CONTINUOUS
 10
0.0
 20
-40.9152858976
 11
1.5052722393
 21
-40.9170163402
  0
LINE
  5
2A6
100
AcDbEntity
  8
ASSI
100
AcDbLine
 62
7
  6
CONTINUOUS
 10
34.0
 20
-40.9152858976
 11
35.5052722393
 21
-40.9170163402
  0
LINE
  5
2A7
100
AcDbEntity
  8
ASSI
100
AcDbLine
 62
7
  6
CONTINUOUS
 10
-35.5052722393
 20
-41.314960803
 11
-36.9752959384
 21
-41.30985202
  0
LINE
  5
2A8
100
AcDbEntity
  8
ASSI
100
AcDbLine
 62
7
  6
CONTINUOUS
 10
-1.5052722393
 20
-41.314960803
 11
-2.9752959384
 21
-41.30985202
  0
LINE
  5
2A9
100
AcDbEntity
  8
ASSI
100
AcDbLine
 62
7
  6
CONTINUOUS
 10
32.4947277607
 20
-41.314960803
 11
31.0247040616
 21
-41.30985202
  0
LINE
  5
2AA
100
AcDbEntity
  8
ASSI
100
AcDbLine
 62
7
  6
CONTINUOUS
 10
-32.4947277607
 20
-40.9170163402
 11
-31.0247040616
 21
-40.9221251231
  0
LINE
  5
2AB
100
AcDbEntity
  8
ASSI
100
AcDbLine
 62
7
  6
CONTINUOUS
 10
1.5052722393
 20
-40.9170163402
 11
2.9752959384
 21
-40.9221251231
  0
LINE
  5
2AC
100
AcDbEntity
  8
ASSI
100
AcDbLine
 62
7
  6
CONTINUOUS
 10
35.5052722393
 20
-40.9170163402
 11
36.9752959384
 21
-40.9221251231
  0
LINE
  5
2AD
100
AcDbEntity
  8
RACCORDO
100
AcDbLine
 62
250
  6
CONTINUOUS
 10
48.9
 20
-40.9667094077
 11
48.6227735673
 21
-40.9659887996
  0
LINE
  5
2AE
100
AcDbEntity
  8
ASSI
100
AcDbLine
 62
7
  6
CONTINUOUS
 10
-36.9752959384
 20
-41.30985202
 11
-38.4008594722
 21
-41.3014136642
  0
LINE
  5
2AF
100
AcDbEntity
  8
ASSI
100
AcDbLine
 62
7
  6
CONTINUOUS
 10
-2.9752959384
 20
-41.30985202
 11
-4.4008594722
 21
-41.3014136642
  0
LINE
  5
2B0
100
AcDbEntity
  8
ASSI
100
AcDbLine
 62
7
  6
CONTINUOUS
 10
-31.0247040616
 20
-40.9221251231
 11
-29.5991405278
 21
-40.9305634789
  0
LINE
  5
2B1
100
AcDbEntity
  8
ASSI
100
AcDbLine
 62
7
  6
CONTINUOUS
 10
31.0247040616
 20
-41.30985202
 11
29.5991405278
 21
-41.3014136642
  0
LINE
  5
2B2
100
AcDbEntity
  8
ASSI
100
AcDbLine
 62
7
  6
CONTINUOUS
 10
2.9752959384
 20
-40.9221251231
 11
4.4008594722
 21
-40.9305634789
  0
LINE
  5
2B3
100
AcDbEntity
  8
ASSI
100
AcDbLine
 62
7
  6
CONTINUOUS
 10
36.9752959384
 20
-40.9221251231
 11
38.4008594722
 21
-40.9305634789
  0
LINE
  5
2B4
100
AcDbEntity
  8
RACCORDO
100
AcDbLine
 62
250
  6
CONTINUOUS
 10
48.6227735673
 20
-40.9659887996
 11
48.4248051938
 21
-40.9644947568
  0
LWPOLYLINE
  5
2B5
100
AcDbEntity
  8
ASSI
100
AcDbPolyline
 62
7
  6
CONTINUOUS
 90
18
 70
0
 10
-38.4008594722
 20
-41.3014136642
 10
-39.7507759946
 20
-41.2897880096
 10
-40.3890576797
 20
-41.2828667461
 10
-40.9997090237
 20
-41.2752237955
 10
-41.5830794896
 20
-41.2668682854
 10
-42.1317279836
 20
-41.2579067934
 10
-42.6452097239
 20
-41.2483315569
 10
-43.1239694925
 20
-41.2381503384
 10
-43.5619005415
 20
-41.227493003
 10
-43.9584798627
 20
-41.2163534516
 10
-44.3142304645
 20
-41.2047377832
 10
-44.6246146239
 20
-41.1927941598
 10
-44.8890512052
 20
-41.1805183802
 10
-45.1081213441
 20
-41.1679146456
 10
-45.2790307246
 20
-41.1551437209
 10
-45.4011624165
 20
-41.1422034645
 10
-45.4751333499
 20
-41.129096018
 10
-45.5
 20
-41.1159885716
  0
LWPOLYLINE
  5
2B6
100
AcDbEntity
  8
ASSI
100
AcDbPolyline
 62
7
  6
CONTINUOUS
 90
18
 70
0
 10
-4.4008594722
 20
-41.3014136642
 10
-5.7507759946
 20
-41.2897880096
 10
-6.3890576797
 20
-41.2828667461
 10
-6.9997090237
 20
-41.2752237955
 10
-7.5830794896
 20
-41.2668682854
 10
-8.1317279836
 20
-41.2579067934
 10
-8.6452097239
 20
-41.2483315569
 10
-9.1239694925
 20
-41.2381503384
 10
-9.5619005415
 20
-41.227493003
 10
-9.9584798627
 20
-41.2163534516
 10
-10.3142304645
 20
-41.2047377832
 10
-10.6246146239
 20
-41.1927941598
 10
-10.8890512052
 20
-41.1805183802
 10
-11.1081213441
 20
-41.1679146456
 10
-11.2790307246
 20
-41.1551437209
 10
-11.4011624165
 20
-41.1422034645
 10
-11.4751333499
 20
-41.129096018
 10
-11.5
 20
-41.1159885716
  0
LWPOLYLINE
  5
2B7
100
AcDbEntity
  8
ASSI
100
AcDbPolyline
 62
7
  6
CONTINUOUS
 90
18
 70
0
 10
-29.5991405278
 20
-40.9305634789
 10
-28.2492240054
 20
-40.9421891335
 10
-27.6109423203
 20
-40.949110397
 10
-27.0002909763
 20
-40.9567533477
 10
-26.4169205104
 20
-40.9651088577
 10
-25.8682720164
 20
-40.9740703498
 10
-25.3547902761
 20
-40.9836455863
 10
-24.8760305075
 20
-40.9938268048
 10
-24.4380994585
 20
-41.0044841402
 10
-24.0415201373
 20
-41.0156236916
 10
-23.6857695355
 20
-41.02723936
 10
-23.3753853761
 20
-41.0391829834
 10
-23.1109487948
 20
-41.051458763
 10
-22.8918786559
 20
-41.0640624976
 10
-22.7209692754
 20
-41.0768334223
 10
-22.5988375835
 20
-41.0897736787
 10
-22.5248666501
 20
-41.1028811251
 10
-22.5
 20
-41.1159885716
  0
LWPOLYLINE
  5
2B8
100
AcDbEntity
  8
ASSI
100
AcDbPolyline
 62
7
  6
CONTINUOUS
 90
18
 70
0
 10
29.5991405278
 20
-41.3014136642
 10
28.2492240054
 20
-41.2897880096
 10
27.6109423203
 20
-41.2828667461
 10
27.0002909763
 20
-41.2752237955
 10
26.4169205104
 20
-41.2668682854
 10
25.8682720164
 20
-41.2579067934
 10
25.3547902761
 20
-41.2483315569
 10
24.8760305075
 20
-41.2381503384
 10
24.4380994585
 20
-41.227493003
 10
24.0415201373
 20
-41.2163534516
 10
23.6857695355
 20
-41.2047377832
 10
23.3753853761
 20
-41.1927941598
 10
23.1109487948
 20
-41.1805183802
 10
22.8918786559
 20
-41.1679146456
 10
22.7209692754
 20
-41.1551437209
 10
22.5988375835
 20
-41.1422034645
 10
22.5248666501
 20
-41.129096018
 10
22.5
 20
-41.1159885716
  0
LWPOLYLINE
  5
2B9
100
AcDbEntity
  8
ASSI
100
AcDbPolyline
 62
7
  6
CONTINUOUS
 90
18
 70
0
 10
4.4008594722
 20
-40.9305634789
 10
5.7507759946
 20
-40.9421891335
 10
6.3890576797
 20
-40.949110397
 10
6.9997090237
 20
-40.9567533477
 10
7.5830794896
 20
-40.9651088577
 10
8.1317279836
 20
-40.9740703498
 10
8.6452097239
 20
-40.9836455863
 10
9.1239694925
 20
-40.9938268048
 10
9.5619005415
 20
-41.0044841402
 10
9.9584798627
 20
-41.0156236916
 10
10.3142304645
 20
-41.02723936
 10
10.6246146239
 20
-41.0391829834
 10
10.8890512052
 20
-41.051458763
 10
11.1081213441
 20
-41.0640624976
 10
11.2790307246
 20
-41.0768334223
 10
11.4011624165
 20
-41.0897736787
 10
11.4751333499
 20
-41.1028811251
 10
11.5
 20
-41.1159885716
  0
LWPOLYLINE
  5
2BA
100
AcDbEntity
  8
ASSI
100
AcDbPolyline
 62
7
  6
CONTINUOUS
 90
18
 70
0
 10
38.4008594722
 20
-40.9305634789
 10
39.7507759946
 20
-40.9421891335
 10
40.3890576797
 20
-40.949110397
 10
40.9997090237
 20
-40.9567533477
 10
41.5830794896
 20
-40.9651088577
 10
42.1317279836
 20
-40.9740703498
 10
42.6452097239
 20
-40.9836455863
 10
43.1239694925
 20
-40.9938268048
 10
43.5619005415
 20
-41.0044841402
 10
43.9584798627
 20
-41.0156236916
 10
44.3142304645
 20
-41.02723936
 10
44.6246146239
 20
-41.0391829834
 10
44.8890512052
 20
-41.051458763
 10
45.1081213441
 20
-41.0640624976
 10
45.2790307246
 20
-41.0768334223
 10
45.4011624165
 20
-41.0897736787
 10
45.4751333499
 20
-41.1028811251
 10
45.5
 20
-41.1159885716
  0
LINE
  5
2BB
100
AcDbEntity
  8
RACCORDO
100
AcDbLine
 62
250
  6
CONTINUOUS
 10
48.4248051938
 20
-40.9644947568
 11
48.2495615682
 21
-40.9622374056
  0
LINE
  5
2BC
100
AcDbEntity
  8
RACCORDO
100
AcDbLine
 62
250
  6
CONTINUOUS
 10
48.2495615682
 20
-40.9622374056
 11
48.1508175699
 21
-40.960366889
  0
LWPOLYLINE
  5
2BD
100
AcDbEntity
  8
RACCORDO
100
AcDbPolyline
 62
250
  6
CONTINUOUS
 90
9
 70
0
 10
48.1508175699
 20
-40.960366889
 10
48.0698484093
 20
-40.9582585942
 10
48.0366056964
 20
-40.9571397571
 10
48.0085700012
 20
-40.955984927
 10
47.9855825014
 20
-40.9547946709
 10
47.9678275799
 20
-40.9535937911
 10
47.9553666979
 20
-40.952390555
 10
47.9481383943
 20
-40.9511766952
 10
47.9461426692
 20
-40.9499522117
  0
LWPOLYLINE
  5
2BE
100
AcDbEntity
  8
RACCORDO
100
AcDbPolyline
 62
250
  6
CONTINUOUS
 90
10
 70
0
 10
54.4
 20
-39.8469076856
 10
54.4257173708
 20
-39.8483948349
 10
54.4516711113
 20
-39.8524952706
 10
54.4778612216
 20
-39.859206838
 10
54.5044059953
 20
-39.868282547
 10
54.5311871387
 20
-39.8799596886
 10
54.5578497711
 20
-39.8949566281
 10
54.584275599
 20
-39.9134980151
 10
54.610582916
 20
-39.9353150788
 10
54.636771722
 20
-39.9603710907
  0
LWPOLYLINE
  5
2BF
100
AcDbEntity
  8
RACCORDO
100
AcDbPolyline
 62
250
  6
CONTINUOUS
 90
10
 70
0
 10
55.0189984384
 20
-40.8730276287
 10
54.9348144952
 20
-40.8679610327
 10
54.8518526486
 20
-40.8528075961
 10
54.7713172614
 20
-40.8277873022
 10
54.6943774712
 20
-40.7932633724
 10
54.622150218
 20
-40.7497369928
 10
54.5556840298
 20
-40.6978400389
 10
54.4959438007
 20
-40.6383259022
 10
54.4437967835
 20
-40.5720585534
 10
54.4
 20
-40.5
  0
LWPOLYLINE
  5
2C0
100
AcDbEntity
  8
RACCORDO
100
AcDbPolyline
 62
250
  6
CONTINUOUS
 90
6
 70
0
 10
55.0538573304
 20
-40.9499650636
 10
54.9603599828
 20
-40.9437018431
 10
54.8685385422
 20
-40.9250079818
 10
54.7800385228
 20
-40.8942184886
 10
54.696445916
 20
-40.8518851359
 10
54.6227804435
 20
-40.8015368335
  0
LWPOLYLINE
  5
2C1
100
AcDbEntity
  8
0
100
AcDbPolyline
 62
7
  6
CONTINUOUS
 90
19
 70
0
 10
-52.3881469242
 20
1.8357236822
 10
-52.3407977437
 20
1.7806844282
 10
-52.301338082
 20
1.7211837863
 10
-52.2697679389
 20
1.6572217564
 10
-52.2462681801
 20
1.5879343057
 10
-52.2306579399
 20
1.514185467
 10
-52.2223946221
 20
1.4385673388
 10
-52.2216067129
 20
1.359861916
 10
-52.2281657259
 20
1.2792872037
 10
-52.2411436059
 20
1.203089316
 10
-52.260326068
 20
1.1328224161
 10
-52.285927397
 20
1.0669323409
 10
-52.3176623918
 20
1.0070027146
 10
-52.3552614258
 20
0.9537419113
 10
-52.3989941256
 20
0.906441557
 10
-52.4493841699
 20
0.8645601543
 10
-52.5066061183
 20
0.8279172043
 10
-52.5704854113
 20
0.796693206
 10
-52.6410220488
 20
0.7708881594
  0
LINE
  5
2C2
100
AcDbEntity
  8
RACCORDO
100
AcDbLine
 62
250
  6
CONTINUOUS
 10
-48.5349565713
 20
40.1936694725
 11
-48.5599052429
 21
40.3217940697
  0
LWPOLYLINE
  5
2C3
100
AcDbEntity
  8
RACCORDO
100
AcDbPolyline
 62
250
  6
CONTINUOUS
 90
4
 70
0
 10
-48.5599052429
 20
40.3217940697
 10
-48.5699577252
 20
40.3748498237
 10
-48.5789409221
 20
40.4192988236
 10
-48.5874618069
 20
40.4542827887
  0
LINE
  5
2C4
100
AcDbEntity
  8
RACCORDO
100
AcDbLine
 62
250
  6
CONTINUOUS
 10
-48.5064586257
 20
40.0424591869
 11
-48.5349565713
 21
40.1936694725
  0
LINE
  5
2C5
100
AcDbEntity
  8
RACCORDO
100
AcDbLine
 62
250
  6
CONTINUOUS
 10
-48.4761308412
 20
39.8772865459
 11
-48.5064586257
 21
40.0424591869
  0
LWPOLYLINE
  5
2C6
100
AcDbEntity
  8
0
100
AcDbPolyline
 62
7
  6
CONTINUOUS
 90
10
 70
0
 10
-53.3988602192
 20
-0.4972805626
 10
-53.3581645922
 20
-0.4608765348
 10
-53.3130242845
 20
-0.4279034704
 10
-53.2634392961
 20
-0.3983613692
 10
-53.2089429191
 20
-0.371874441
 10
-53.1500018614
 20
-0.3488184761
 10
-53.0880162467
 20
-0.3303208456
 10
-53.0234527829
 20
-0.3167573398
 10
-52.9558447622
 20
-0.3077521685
 10
-52.8851921845
 20
-0.3033053315
  0
LINE
  5
2C7
100
AcDbEntity
  8
DRAFT
100
AcDbLine
 62
250
  6
CONTINUOUS
 10
-60.5
 20
-35.5
 11
-60.2242099741
 21
-35.5
  0
LINE
  5
2C8
100
AcDbEntity
  8
DRAFT
100
AcDbLine
 62
250
  6
CONTINUOUS
 10
60.5
 20
-35.5
 11
60.2242099741
 21
-35.5
  0
LINE
  5
2C9
100
AcDbEntity
  8
RACCORDO
100
AcDbLine
 62
250
  6
CONTINUOUS
 10
66.0
 20
-35.5
 11
68.0
 21
-35.5
  0
LINE
  5
2CA
100
AcDbEntity
  8
RACCORDO
100
AcDbLine
 62
250
  6
CONTINUOUS
 10
-66.0
 20
-35.5
 11
-68.0
 21
-35.5
  0
LINE
  5
2CB
100
AcDbEntity
  8
DRAFT
100
AcDbLine
 62
7
  6
CONTINUOUS
 10
62.0
 20
-34.0
 11
66.0
 21
-34.0
  0
LINE
  5
2CC
100
AcDbEntity
  8
DRAFT
100
AcDbLine
 62
7
  6
CONTINUOUS
 10
-62.0
 20
-34.0
 11
-66.0
 21
-34.0
  0
LINE
  5
2CD
100
AcDbEntity
  8
DRAFT
100
AcDbLine
 62
7
  6
CONTINUOUS
 10
62.0
 20
-33.7242099741
 11
66.2731956082
 21
-33.7242099741
  0
LINE
  5
2CE
100
AcDbEntity
  8
DRAFT
100
AcDbLine
 62
7
  6
CONTINUOUS
 10
-62.0
 20
-33.7242099741
 11
-66.2731956082
 21
-33.7242099741
  0
LWPOLYLINE
  5
2CF
100
AcDbEntity
  8
RACCORDO
100
AcDbPolyline
 62
250
  6
CONTINUOUS
 90
3
 70
0
 10
-67.3730280729
 20
-22.9810015616
 10
-67.3686260664
 20
-22.981739946
 10
-67.3582979126
 20
-22.9837500403
  0
LWPOLYLINE
  5
2D0
100
AcDbEntity
  8
RACCORDO
100
AcDbPolyline
 62
250
  6
CONTINUOUS
 90
25
 70
0
 10
-67.3582979126
 20
-22.9837500403
 10
-67.3202098848
 20
-22.9915069388
 10
-67.2927014945
 20
-22.997253743
 10
-67.2599813774
 20
-23.0045075175
 10
-67.2222154244
 20
-23.0133147299
 10
-67.1798078006
 20
-23.0236289126
 10
-67.1338196908
 20
-23.0355459233
 10
-67.0847980705
 20
-23.0491401887
 10
-67.0332341819
 20
-23.0643372822
 10
-66.9804486012
 20
-23.0810097808
 10
-66.9272145771
 20
-23.0991637446
 10
-66.8738952091
 20
-23.1187931136
 10
-66.821310755
 20
-23.1397522849
 10
-66.77003445
 20
-23.1620365754
 10
-66.7203428295
 20
-23.1856506683
 10
-66.6725616296
 20
-23.2104630101
 10
-66.626839241
 20
-23.2364962515
 10
-66.5835430353
 20
-23.2637277419
 10
-66.5432725922
 20
-23.2919579763
 10
-66.5061843815
 20
-23.3213346437
 10
-66.4724226439
 20
-23.351710055
 10
-66.4425375026
 20
-23.3824416377
 10
-66.4167594621
 20
-23.4133152008
 10
-66.394996206
 20
-23.4445449353
 10
-66.3772865459
 20
-23.4761308412
  0
LWPOLYLINE
  5
2D1
100
AcDbEntity
  8
RACCORDO
100
AcDbPolyline
 62
250
  6
CONTINUOUS
 90
3
 70
0
 10
-48.5874618069
 20
40.4542827887
 10
-48.5984278311
 20
40.4948597419
 10
-48.6000000227
 20
40.499999998
  0
LWPOLYLINE
  5
2D2
100
AcDbEntity
  8
RACCORDO
100
AcDbPolyline
 62
7
  6
CONTINUOUS
 90
5
 70
0
 10
-67.3015368335
 20
-29.6227804435
 10
-67.2358147229
 20
-29.5498603364
 10
-67.1641577375
 20
-29.4894942951
 10
-67.0850797662
 20
-29.4392424527
 10
-66.99999795
 20
-29.4000053627
  0
LWPOLYLINE
  5
2D3
100
AcDbEntity
  8
0
100
AcDbPolyline
 62
7
  6
CONTINUOUS
 90
13
 70
0
 10
-53.4205409602
 20
-0.1350795839
 10
-53.5065522944
 20
-0.186999849
 10
-53.5828623266
 20
-0.2474947498
 10
-53.6509130635
 20
-0.3172257381
 10
-53.7121192427
 20
-0.3965572468
 10
-53.7650661266
 20
-0.4851248429
 10
-53.80695151
 20
-0.5824966794
 10
-53.8378199826
 20
-0.6900832537
 10
-53.8576269547
 20
-0.8064740683
 10
-53.8634364514
 20
-0.927005784
 10
-53.8542698147
 20
-1.0501239543
 10
-53.8311057027
 20
-1.1773830256
 10
-53.7939441155
 20
-1.308782998
  0
LWPOLYLINE
  5
2D4
100
AcDbEntity
  8
0
100
AcDbPolyline
 62
7
  6
CONTINUOUS
 90
8
 70
0
 10
-53.1518717544
 20
2.2324638916
 10
-53.2392511055
 20
2.1879691439
 10
-53.3166810731
 20
2.1338036073
 10
-53.3854387577
 20
2.0695705763
 10
-53.4448219359
 20
1.9956290172
 10
-53.4945965332
 20
1.9120985853
 10
-53.5349966241
 20
1.8188596252
 10
-53.5660222086
 20
1.715912137
  0
LINE
  5
2D5
100
AcDbEntity
  8
0
100
AcDbLine
 62
7
  6
CONTINUOUS
 10
1.492006329
 20
28.1274921008
 11
1.1865562096
 21
28.0339610642
  0
LINE
  5
2D6
100
AcDbEntity
  8
RACCORDO
100
AcDbLine
 62
250
  6
CONTINUOUS
 10
-66.3469076856
 20
-29.4
 11
-67.0
 21
-29.4000000001
  0
LINE
  5
2D7
100
AcDbEntity
  8
RACCORDO
100
AcDbLine
 62
250
  6
CONTINUOUS
 10
-67.4667094077
 20
-29.1
 11
-67.0
 21
-29.1
  0
LWPOLYLINE
  5
2D8
100
AcDbEntity
  8
0
100
AcDbPolyline
 62
7
  6
CONTINUOUS
 90
10
 70
0
 10
-54.415790899
 20
0.8354161978
 10
-54.4756754569
 20
0.87521335
 10
-54.5306319227
 20
0.9221464491
 10
-54.5806602962
 20
0.9762154952
 10
-54.6270030195
 20
1.0395496728
 10
-54.6684176507
 20
1.1100197973
 10
-54.7011768637
 20
1.1812383145
 10
-54.7240382167
 20
1.2510760398
 10
-54.7382441516
 20
1.3216621578
 10
-54.7437946685
 20
1.3929966685
  0
LWPOLYLINE
  5
2D9
100
AcDbEntity
  8
RACCORDO
100
AcDbPolyline
 62
250
  6
CONTINUOUS
 90
10
 70
0
 10
-55.0189984384
 20
40.8730280729
 10
-55.0233952427
 20
40.8814995584
 10
-55.0276599289
 20
40.8899899547
 10
-55.0317924969
 20
40.8984992619
 10
-55.0357913205
 20
40.9070274808
 10
-55.039658026
 20
40.9155746105
 10
-55.0433974919
 20
40.9241406487
 10
-55.0470113445
 20
40.9327255946
 10
-55.0504979574
 20
40.9413294489
 10
-55.0538573308
 20
40.9499522117
  0
LWPOLYLINE
  5
2DA
100
AcDbEntity
  8
RACCORDO
100
AcDbPolyline
 62
250
  6
CONTINUOUS
 90
21
 70
0
 10
-66.4603710907
 20
-29.636771722
 10
-66.4920211352
 20
-29.6664350325
 10
-66.5267189496
 20
-29.6951624486
 10
-66.5643587401
 20
-29.7229539704
 10
-66.6048831897
 20
-29.7498892368
 10
-66.6480446428
 20
-29.7758886088
 10
-66.6934109821
 20
-29.8007131694
 10
-66.7406785836
 20
-29.82431217
 10
-66.7896368204
 20
-29.8467363593
 10
-66.8399391621
 20
-29.8678990664
 10
-66.891312135
 20
-29.8878222255
 10
-66.9432133751
 20
-29.9064839024
 10
-66.9948546377
 20
-29.9237316244
 10
-67.0458731512
 20
-29.939544451
 10
-67.0955731176
 20
-29.9539433226
 10
-67.1427730176
 20
-29.9668385873
 10
-67.1870159225
 20
-29.9781731327
 10
-67.2277843531
 20
-29.9880040712
 10
-67.2641093286
 20
-29.9964130881
 10
-67.2956172244
 20
-30.0033596995
 10
-67.3221202821
 20
-30.0088843892
  0
LINE
  5
2DB
100
AcDbEntity
  8
0
100
AcDbLine
 62
7
  6
CONTINUOUS
 10
-2.905948
 20
29.573703
 11
-2.400816
 21
30.034184
  0
LINE
  5
2DC
100
AcDbEntity
  8
0
100
AcDbLine
 62
7
  6
CONTINUOUS
 10
-2.368336
 20
30.4028
 11
-3.084683
 21
29.796
  0
LWPOLYLINE
  5
2DD
100
AcDbEntity
  8
0
100
AcDbPolyline
 62
7
  6
CONTINUOUS
 90
10
 70
0
 10
-0.4790686992
 20
30.0632687617
 10
-0.4488956245
 20
30.0870728333
 10
-0.4159806657
 20
30.1084318794
 10
-0.3803238226
 20
30.1273459001
 10
-0.3416029914
 20
30.1439482329
 10
-0.3001402761
 20
30.1581055402
 10
-0.2569019881
 20
30.1694178099
 10
-0.2122102314
 20
30.1777517046
 10
-0.165742902
 20
30.1832405615
 10
-0.1175
 20
30.1858843809
  0
LWPOLYLINE
  5
2DE
100
AcDbEntity
  8
0
100
AcDbPolyline
 62
7
  6
CONTINUOUS
 90
10
 70
0
 10
2.5351606504
 20
29.084268354
 10
2.6107438968
 20
29.1332341802
 10
2.6781192003
 20
29.1871578311
 10
2.7372865608
 20
29.2460393067
 10
2.7885388763
 20
29.3100356771
 10
2.831583249
 20
29.3789898721
 10
2.8655409851
 20
29.4524306816
 10
2.8901191871
 20
29.5302010355
 10
2.9056107526
 20
29.612458004
 10
2.9120156817
 20
29.6992015869
  0
LWPOLYLINE
  5
2DF
100
AcDbEntity
  8
0
100
AcDbPolyline
 62
7
  6
CONTINUOUS
 90
28
 70
0
 10
-52.4737469146
 20
-1.80393019
 10
-52.366323181
 20
-1.7430734705
 10
-52.2714575714
 20
-1.6757282139
 10
-52.1891500859
 20
-1.6018944202
 10
-52.1197203862
 20
-1.5220419091
 10
-52.0628488105
 20
-1.4357008609
 10
-52.0175763738
 20
-1.3414618169
 10
-51.9830724056
 20
-1.2374216075
 10
-51.9601675764
 20
-1.1254834024
 10
-51.9503949118
 20
-1.009947251
 10
-51.9545109111
 20
-0.8884971006
 10
-51.971759075
 20
-0.7634490039
 10
-52.001402931
 20
-0.6460511694
 10
-52.044330479
 20
-0.539432712
 10
-52.0996537191
 20
-0.4404645167
 10
-52.1639721794
 20
-0.3510074468
 10
-52.2362664036
 20
-0.2712206135
 10
-52.3175558478
 20
-0.2009449055
 10
-52.4074984091
 20
-0.1415638524
 10
-52.5069181231
 20
-0.0930470452
 10
-52.6149909542
 20
-0.0554248929
 10
-52.7289026923
 20
-0.0301721517
 10
-52.851745667
 20
-0.0180131207
 10
-52.9804275487
 20
-0.018223501
 10
-53.1028571387
 20
-0.0301051515
 10
-53.2161537076
 20
-0.0544575702
 10
-53.3231979849
 20
-0.0904812592
 10
-53.4205409602
 20
-0.1350795839
  0
LWPOLYLINE
  5
2E0
100
AcDbEntity
  8
0
100
AcDbPolyline
 62
7
  6
CONTINUOUS
 90
30
 70
0
 10
-52.545473839
 20
0.4588524741
 10
-52.4309371361
 20
0.5154689981
 10
-52.3289209194
 20
0.5792403511
 10
-52.2394251889
 20
0.6501665332
 10
-52.162794282
 20
0.7279463026
 10
-52.0986838613
 20
0.8128809011
 10
-52.0460609146
 20
0.9058740539
 10
-52.0047760473
 20
1.0102101203
 10
-51.974978654
 20
1.1226047411
 10
-51.9560839063
 20
1.2341085626
 10
-51.9488538004
 20
1.343301305
 10
-51.95252634
 20
1.4516032483
 10
-51.9642307079
 20
1.5543258788
 10
-51.9836914123
 20
1.6503112331
 10
-52.011183945
 20
1.7407172747
 10
-52.0446639631
 20
1.8243293801
 10
-52.0834628639
 20
1.9002722711
 10
-52.1282492501
 20
1.969421226
 10
-52.1789845877
 20
2.0331874555
 10
-52.2346741059
 20
2.0927333896
 10
-52.2963125755
 20
2.1468965985
 10
-52.3668457741
 20
2.1936010029
 10
-52.4482591869
 20
2.2330189677
 10
-52.5385673286
 20
2.2649781282
 10
-52.6347595214
 20
2.2868853111
 10
-52.7391731423
 20
2.2983976586
 10
-52.8494708142
 20
2.2998580286
 10
-52.9556297275
 20
2.289701822
 10
-53.0558201203
 20
2.2668911451
 10
-53.1518717544
 20
2.2324638916
  0
LINE
  5
2E1
100
AcDbEntity
  8
RACCORDO
100
AcDbLine
 62
250
  6
CONTINUOUS
 10
-67.4667094077
 20
-23.9
 11
-67.0000000001
 21
-23.9000000084
  0
LINE
  5
2E2
100
AcDbEntity
  8
RACCORDO
100
AcDbLine
 62
250
  6
CONTINUOUS
 10
-66.3469076856
 20
-23.6
 11
-67.0
 21
-23.6
  0
LWPOLYLINE
  5
2E3
100
AcDbEntity
  8
0
100
AcDbPolyline
 62
7
  6
CONTINUOUS
 90
10
 70
0
 10
1.5551718518
 20
29.8648030757
 10
1.5941423533
 20
29.9234337049
 10
1.6400913428
 20
29.9772356868
 10
1.6930188202
 20
30.0262090214
 10
1.7550043243
 20
30.071567155
 10
1.8239683162
 20
30.1120966413
 10
1.8936721795
 20
30.144157141
 10
1.9620363753
 20
30.1665352076
 10
2.0311404424
 20
30.1804442875
 10
2.1009843809
 20
30.1858843809
  0
LWPOLYLINE
  5
2E4
100
AcDbEntity
  8
0
100
AcDbPolyline
 62
7
  6
CONTINUOUS
 90
19
 70
0
 10
2.5343672374
 20
27.8799547295
 10
2.4804484467
 20
27.8335773867
 10
2.4221625713
 20
27.7949333095
 10
2.3595096112
 20
27.7640224981
 10
2.291628015
 20
27.7410269881
 10
2.219379334
 20
27.7257647439
 10
2.1453482229
 20
27.7176896581
 10
2.068378447
 20
27.7169259832
 10
1.9896262408
 20
27.7233494666
 10
1.9151449627
 20
27.7360412433
 10
1.8464427654
 20
27.7547780536
 10
1.7820114961
 20
27.7797831571
 10
1.7233800544
 20
27.8108074676
 10
1.6712224901
 20
27.8475963416
 10
1.6248647533
 20
27.8904044226
 10
1.5838135938
 20
27.9397465545
 10
1.5479045949
 20
27.9957943522
 10
1.5173021733
 20
28.058376201
 10
1.492006329
 20
28.1274921008
  0
LWPOLYLINE
  5
2E5
100
AcDbEntity
  8
RACCORDO
100
AcDbPolyline
 62
250
  6
CONTINUOUS
 90
4
 70
0
 10
-67.3221202821
 20
-30.0088843892
 10
-67.3588118522
 20
-30.016345127
 10
-67.3687690495
 20
-30.018281175
 10
-67.3730280729
 20
-30.0189984384
  0
LINE
  5
2E6
100
AcDbEntity
  8
0
100
AcDbLine
 62
7
  6
CONTINUOUS
 10
-51.6
 20
-16.5
 11
-51.4
 21
-16.5
  0
LWPOLYLINE
  5
2E7
100
AcDbEntity
  8
0
100
AcDbPolyline
 62
7
  6
CONTINUOUS
 90
37
 70
0
 10
0.4481719356
 20
28.1612531426
 10
0.4170533205
 20
28.084528185
 10
0.3815636307
 20
28.0146393883
 10
0.3417028662
 20
27.9515867524
 10
0.2979984114
 20
27.8950389726
 10
0.2499228819
 20
27.8453273537
 10
0.1958941243
 20
27.8034458096
 10
0.1347894205
 20
27.7693827506
 10
0.0677314886
 20
27.7431497664
 10
-0.0034936709
 20
27.7257755391
 10
-0.0812292042
 20
27.7175611141
 10
-0.1631319651
 20
27.7182054461
 10
-0.2403865139
 20
27.727834082
 10
-0.310229545
 20
27.7466964329
 10
-0.3754243639
 20
27.7745430876
 10
-0.4354454477
 20
27.8107513599
 10
-0.4900449761
 20
27.8554287446
 10
-0.5394707692
 20
27.9084677469
 10
-0.5839407651
 20
27.968923196
 10
-0.6233784304
 20
28.0372141625
 10
-0.6578602984
 20
28.1129215758
 10
-0.6878339073
 20
28.1938430534
 10
-0.7131770292
 20
28.2796299481
 10
-0.7340118921
 20
28.370630907
 10
-0.751152718
 20
28.4656894892
 10
-0.7647269434
 20
28.5645208832
 10
-0.7746071318
 20
28.6674099004
 10
-0.7812251963
 20
28.7740545337
 10
-0.7850959953
 20
28.8845263442
 10
-0.7857046704
 20
28.9987537709
 10
-0.7819385598
 20
29.116220123
 10
-0.7740180054
 20
29.2393938848
 10
-0.7617226653
 20
29.365806572
 10
-0.743278852
 20
29.487536041
 10
-0.7188687423
 20
29.6034398075
 10
-0.6883101594
 20
29.7146603558
 10
-0.6492828854
 20
29.8167029945
  0
LWPOLYLINE
  5
2E8
100
AcDbEntity
  8
0
100
AcDbPolyline
 62
7
  6
CONTINUOUS
 90
4
 70
0
 10
-0.6492828854
 20
29.8167029945
 10
-0.6010135144
 20
29.9080694932
 10
-0.5442754523
 20
29.9902580822
 10
-0.4790686992
 20
30.0632687617
  0
LINE
  5
2E9
100
AcDbEntity
  8
RACCORDO
100
AcDbLine
 62
250
  6
CONTINUOUS
 10
-66.6936694725
 20
-23.5349565713
 11
-66.8217940697
 21
-23.5599052429
  0
LWPOLYLINE
  5
2EA
100
AcDbEntity
  8
RACCORDO
100
AcDbPolyline
 62
250
  6
CONTINUOUS
 90
4
 70
0
 10
-66.8217940697
 20
-23.5599052429
 10
-66.8748498237
 20
-23.5699577252
 10
-66.9192988236
 20
-23.5789409221
 10
-66.9542827887
 20
-23.5874618069
  0
LINE
  5
2EB
100
AcDbEntity
  8
RACCORDO
100
AcDbLine
 62
250
  6
CONTINUOUS
 10
-66.5424591869
 20
-23.5064586257
 11
-66.6936694725
 21
-23.5349565713
  0
LINE
  5
2EC
100
AcDbEntity
  8
RACCORDO
100
AcDbLine
 62
250
  6
CONTINUOUS
 10
-66.3772865459
 20
-23.4761308412
 11
-66.5424591869
 21
-23.5064586257
  0
LWPOLYLINE
  5
2ED
100
AcDbEntity
  8
RACCORDO
100
AcDbPolyline
 62
250
  6
CONTINUOUS
 90
21
 70
0
 10
-54.636771722
 20
39.9603710907
 10
-54.6664350325
 20
39.9920211352
 10
-54.6951624486
 20
40.0267189496
 10
-54.7229539704
 20
40.0643587401
 10
-54.7498892368
 20
40.1048831897
 10
-54.7758886088
 20
40.1480446428
 10
-54.8007131694
 20
40.1934109821
 10
-54.82431217
 20
40.2406785836
 10
-54.8467363593
 20
40.2896368204
 10
-54.8678990664
 20
40.3399391621
 10
-54.8878222255
 20
40.391312135
 10
-54.9064839024
 20
40.4432133751
 10
-54.9237316244
 20
40.4948546377
 10
-54.939544451
 20
40.5458731512
 10
-54.9539433226
 20
40.5955731176
 10
-54.9668385873
 20
40.6427730176
 10
-54.9781731327
 20
40.6870159225
 10
-54.9880040712
 20
40.7277843531
 10
-54.9964130881
 20
40.7641093286
 10
-55.0033596995
 20
40.7956172244
 10
-55.0088843892
 20
40.8221202821
  0
LWPOLYLINE
  5
2EE
100
AcDbEntity
  8
RACCORDO
100
AcDbPolyline
 62
250
  6
CONTINUOUS
 90
3
 70
0
 10
-66.9542827887
 20
-23.5874618069
 10
-66.9948597419
 20
-23.5984278311
 10
-66.999999998
 20
-23.6000000227
  0
LWPOLYLINE
  5
2EF
100
AcDbEntity
  8
RACCORDO
100
AcDbPolyline
 62
7
  6
CONTINUOUS
 90
5
 70
0
 10
-54.6227804435
 20
40.8015368335
 10
-54.5498603364
 20
40.7358147229
 10
-54.4894942951
 20
40.6641577375
 10
-54.4392424527
 20
40.5850797662
 10
-54.4000053627
 20
40.49999795
  0
LINE
  5
2F0
100
AcDbEntity
  8
0
100
AcDbLine
 62
7
  6
CONTINUOUS
 10
-2.400816
 20
30.034184
 11
-2.400816
 21
27.5
  0
LINE
  5
2F1
100
AcDbEntity
  8
0
100
AcDbLine
 62
7
  6
CONTINUOUS
 10
-2.118684
 20
27.5
 11
-2.118684
 21
30.4028
  0
LINE
  5
2F2
100
AcDbEntity
  8
0
100
AcDbLine
 62
7
  6
CONTINUOUS
 10
-1.1
 20
-11.1960930686
 11
-1.1
 21
-10.0700680665
  0
LINE
  5
2F3
100
AcDbEntity
  8
0
100
AcDbLine
 62
7
  6
CONTINUOUS
 10
-1.1
 20
10.0700680665
 11
-1.1
 21
11.1960930686
  0
LWPOLYLINE
  5
2F4
100
AcDbEntity
  8
0
100
AcDbPolyline
 62
7
  6
CONTINUOUS
 90
10
 70
0
 10
2.7077843809
 20
28.2925172061
 10
2.7035460475
 20
28.2354821593
 10
2.6952365266
 20
28.1808725861
 10
2.6828558183
 20
28.1286884865
 10
2.665985752
 20
28.0784322347
 10
2.6450444982
 20
28.0306014564
 10
2.6212865687
 20
27.986689029
 10
2.595130134
 20
27.9471925783
 10
2.5661570235
 20
27.9116144784
 10
2.5343672374
 20
27.8799547295
  0
LWPOLYLINE
  5
2F5
100
AcDbEntity
  8
0
100
AcDbPolyline
 62
7
  6
CONTINUOUS
 90
10
 70
0
 10
0.5395250156
 20
28.5674093965
 10
0.5344336296
 20
28.5196561562
 10
0.5280425854
 20
28.4724789556
 10
0.5203518832
 20
28.4258777948
 10
0.5113149641
 20
28.3797458043
 10
0.5009783869
 20
28.3341898536
 10
0.4894818278
 20
28.2895305512
 10
0.4768718456
 20
28.2458747667
 10
0.4631018816
 20
28.2031156305
 10
0.4481719356
 20
28.1612531426
  0
LWPOLYLINE
  5
2F6
100
AcDbEntity
  8
RACCORDO
100
AcDbPolyline
 62
250
  6
CONTINUOUS
 90
10
 70
0
 10
-67.3730280729
 20
-30.0189984384
 10
-67.3814995584
 20
-30.0233952427
 10
-67.3899899547
 20
-30.0276599289
 10
-67.3984992619
 20
-30.0317924969
 10
-67.4070274808
 20
-30.0357913205
 10
-67.4155746105
 20
-30.039658026
 10
-67.4241406487
 20
-30.0433974919
 10
-67.4327255946
 20
-30.0470113445
 10
-67.4413294489
 20
-30.0504979574
 10
-67.4499522117
 20
-30.0538573308
  0
LINE
  5
2F7
100
AcDbEntity
  8
0
100
AcDbLine
 62
7
  6
CONTINUOUS
 10
11.1960930686
 20
-1.1
 11
10.0700680665
 21
-1.1
  0
LINE
  5
2F8
100
AcDbEntity
  8
0
100
AcDbLine
 62
7
  6
CONTINUOUS
 10
-10.0700680665
 20
-1.1
 11
-11.1960930686
 21
-1.1
  0
LINE
  5
2F9
100
AcDbEntity
  8
0
100
AcDbLine
 62
7
  6
CONTINUOUS
 10
-54.693534
 20
-0.115089
 11
-54.965387
 21
-0.115089
  0
LINE
  5
2FA
100
AcDbEntity
  8
0
100
AcDbLine
 62
7
  6
CONTINUOUS
 10
-53.7939441155
 20
-1.308782998
 11
-54.693534
 21
-1.293011
  0
LINE
  5
2FB
100
AcDbEntity
  8
0
100
AcDbLine
 62
7
  6
CONTINUOUS
 10
-54.965387
 20
-1.576121
 11
-53.427590219
 21
-1.6038029961
  0
LWPOLYLINE
  5
2FC
100
AcDbEntity
  8
0
100
AcDbPolyline
 62
7
  6
CONTINUOUS
 90
13
 70
0
 10
-54.2383726082
 20
1.9325149954
 10
-54.1711566034
 20
1.9293654845
 10
-54.1081020331
 20
1.9207160015
 10
-54.0492088971
 20
1.9065665463
 10
-53.9941653565
 20
1.8868103408
 10
-53.9432832504
 20
1.8615541633
 10
-53.8974980959
 20
1.8311183479
 10
-53.8575520933
 20
1.7953899197
 10
-53.8227030424
 20
1.7544818538
 10
-53.7916598597
 20
1.7090534089
 10
-53.7637795968
 20
1.659039947
 10
-53.739705202
 20
1.6045061061
 10
-53.7200744367
 20
1.5463050601
  0
LWPOLYLINE
  5
2FD
100
AcDbEntity
  8
0
100
AcDbPolyline
 62
7
  6
CONTINUOUS
 90
10
 70
0
 10
-52.8096046502
 20
2.0128798685
 10
-52.7513409588
 20
2.0085516609
 10
-52.6955523219
 20
2.0000625064
 10
-52.6422387395
 20
1.987412405
 10
-52.5908885991
 20
1.9701720321
 10
-52.5420135132
 20
1.9487707122
 10
-52.4971483191
 20
1.9244964199
 10
-52.4568046291
 20
1.8977784798
 10
-52.4204708308
 20
1.8681875673
 10
-52.3881469242
 20
1.8357236822
  0
LWPOLYLINE
  5
2FE
100
AcDbEntity
  8
0
100
AcDbPolyline
 62
7
  6
CONTINUOUS
 90
13
 70
0
 10
-52.8851921845
 20
-0.3033053315
 10
-52.7912883019
 20
-0.310323824
 10
-52.7034407093
 20
-0.3273394477
 10
-52.6216494066
 20
-0.3543522026
 10
-52.5453968362
 20
-0.3923964979
 10
-52.4752005558
 20
-0.4404379244
 10
-52.4126132381
 20
-0.4953732548
 10
-52.3573520814
 20
-0.5565722483
 10
-52.3096998874
 20
-0.6246651456
 10
-52.272057734
 20
-0.6984394421
 10
-52.2452259805
 20
-0.7774909693
 10
-52.2284042677
 20
-0.8622238956
 10
-52.2215925954
 20
-0.952638221
  0
LWPOLYLINE
  5
2FF
100
AcDbEntity
  8
0
100
AcDbPolyline
 62
7
  6
CONTINUOUS
 90
10
 70
0
 10
0.5395250156
 20
29.3414765713
 10
0.5440376691
 20
29.2544339618
 10
0.5474319478
 20
29.1679145092
 10
0.5497078519
 20
29.0819182135
 10
0.5508784329
 20
28.9967975686
 10
0.5509306392
 20
28.9122000807
 10
0.5498253161
 20
28.8270682677
 10
0.547549412
 20
28.7410496356
 10
0.5441159785
 20
28.6544966786
 10
0.5395250156
 20
28.5674093965
  0
LWPOLYLINE
  5
300
100
AcDbEntity
  8
0
100
AcDbPolyline
 62
7
  6
CONTINUOUS
 90
31
 70
0
 10
2.9120156817
 20
29.6992015869
 10
2.9083706859
 20
29.7754622973
 10
2.8995970252
 20
29.8476014823
 10
2.8856946996
 20
29.9156191418
 10
2.8662097522
 20
29.9798090767
 10
2.8415961399
 20
30.039877486
 10
2.8132157331
 20
30.0949429677
 10
2.7811082803
 20
30.1444208827
 10
2.7452340329
 20
30.1888958699
 10
2.7068356161
 20
30.2292404444
 10
2.6667109703
 20
30.2651832735
 10
2.624062155
 20
30.2969956898
 10
2.5777379735
 20
30.3263642057
 10
2.5273503098
 20
30.3542189416
 10
2.4732872799
 20
30.3796297771
 10
2.4155620352
 20
30.4014928634
 10
2.3540016552
 20
30.4197237639
 10
2.2887790603
 20
30.4344069152
 10
2.2204261642
 20
30.4446917779
 10
2.1488806378
 20
30.4509135447
 10
2.0742048101
 20
30.4527370229
 10
1.9971175817
 20
30.4483060956
 10
1.9170768532
 20
30.4383474663
 10
1.8346247241
 20
30.4221344316
 10
1.7521063931
 20
30.3956307639
 10
1.6687970928
 20
30.3581517596
 10
1.5854215906
 20
30.3103821224
 10
1.5064993882
 20
30.2503397353
 10
1.4335369861
 20
30.1773638928
 10
1.3650278838
 20
30.0921153006
 10
1.3009720812
 20
29.9945939585
  0
LINE
  5
301
100
AcDbEntity
  8
0
100
AcDbLine
 62
7
  6
CONTINUOUS
 10
1.1
 20
11.1960930686
 11
1.1
 21
10.0700680665
  0
LINE
  5
302
100
AcDbEntity
  8
0
100
AcDbLine
 62
7
  6
CONTINUOUS
 10
1.1
 20
-10.0700680665
 11
1.1
 21
-11.1960930686
  0
LINE
  5
303
100
AcDbEntity
  8
0
100
AcDbLine
 62
7
  6
CONTINUOUS
 10
1.846016
 20
29.1519156863
 11
1.846016
 21
28.8861843745
  0
LWPOLYLINE
  5
304
100
AcDbEntity
  8
0
100
AcDbPolyline
 62
7
  6
CONTINUOUS
 90
16
 70
0
 10
2.6291156817
 20
29.6911297139
 10
2.6246523061
 20
29.611994965
 10
2.612545184
 20
29.5391864145
 10
2.5927943156
 20
29.4727040623
 10
2.5652093527
 20
29.4125148707
 10
2.5299806435
 20
29.3586518774
 10
2.487679232
 20
29.3112141963
 10
2.438004032
 20
29.2704617906
 10
2.3812561297
 20
29.2361346971
 10
2.3189098281
 20
29.2075521399
 10
2.250871311
 20
29.1846136686
 10
2.1772343945
 20
29.1674197336
 10
2.09975483
 20
29.1555909104
 10
2.019017868
 20
29.149000724
 10
1.934438258
 20
29.1477756493
 10
1.846016
 20
29.1519156863
  0
LWPOLYLINE
  5
305
100
AcDbEntity
  8
RACCORDO
100
AcDbPolyline
 62
250
  6
CONTINUOUS
 90
10
 70
0
 10
67.3730280729
 20
30.0189984384
 10
67.3814995584
 20
30.0233952427
 10
67.3899899547
 20
30.0276599289
 10
67.3984992619
 20
30.0317924969
 10
67.4070274808
 20
30.0357913205
 10
67.4155746105
 20
30.039658026
 10
67.4241406487
 20
30.0433974919
 10
67.4327255946
 20
30.0470113445
 10
67.4413294489
 20
30.0504979574
 10
67.4499522117
 20
30.0538573308
  0
LWPOLYLINE
  5
306
100
AcDbEntity
  8
RACCORDO
100
AcDbPolyline
 62
250
  6
CONTINUOUS
 90
3
 70
0
 10
66.9542827887
 20
23.5874618069
 10
66.9948597419
 20
23.5984278311
 10
66.999999998
 20
23.6000000227
  0
LWPOLYLINE
  5
307
100
AcDbEntity
  8
0
100
AcDbPolyline
 62
7
  6
CONTINUOUS
 90
31
 70
0
 10
-54.2466185187
 20
2.2215145954
 10
-54.3245409219
 20
2.2177846032
 10
-54.3982423624
 20
2.2088200453
 10
-54.46772284
 20
2.1946209217
 10
-54.5332799744
 20
2.1747215718
 10
-54.594616146
 20
2.1495876563
 10
-54.6508384963
 20
2.1206161571
 10
-54.7013506411
 20
2.0878491739
 10
-54.7467489646
 20
2.0512446071
 10
-54.7879297619
 20
2.0120731394
 10
-54.8246142364
 20
1.971153927
 10
-54.8570811848
 20
1.9276678137
 10
-54.887063291
 20
1.8804280138
 10
-54.9155141233
 20
1.8290373451
 10
-54.9414801135
 20
1.7738929897
 10
-54.9638332419
 20
1.7149997087
 10
-54.9824893832
 20
1.6521798913
 10
-54.9975326626
 20
1.5856111481
 10
-55.008087436
 20
1.5158310718
 10
-55.0144938358
 20
1.4427758046
 10
-55.0164117296
 20
1.3665092042
 10
-55.0119450751
 20
1.2877604362
 10
-55.0018426647
 20
1.2059760857
 10
-54.9853557061
 20
1.1217095676
 10
-54.9583417808
 20
1.0373502924
 10
-54.9201062771
 20
0.9521499243
 10
-54.8713438066
 20
0.8668567991
 10
-54.8099957856
 20
0.7861053344
 10
-54.7353760195
 20
0.7114403362
 10
-54.648170703
 20
0.6413169986
 10
-54.5483798359
 20
0.5757353215
  0
LINE
  5
308
100
AcDbEntity
  8
0
100
AcDbLine
 62
7
  6
CONTINUOUS
 10
-11.1960930686
 20
1.1
 11
-10.0700680665
 21
1.1
  0
LINE
  5
309
100
AcDbEntity
  8
0
100
AcDbLine
 62
7
  6
CONTINUOUS
 10
10.0700680665
 20
1.1
 11
11.1960930686
 21
1.1
  0
LINE
  5
30A
100
AcDbEntity
  8
0
100
AcDbLine
 62
7
  6
CONTINUOUS
 10
-53.6875325972
 20
1.132531
 11
-53.4160718604
 21
1.132531
  0
LINE
  5
30B
100
AcDbEntity
  8
RACCORDO
100
AcDbLine
 62
250
  6
CONTINUOUS
 10
66.6936694725
 20
23.5349565713
 11
66.8217940697
 21
23.5599052429
  0
LWPOLYLINE
  5
30C
100
AcDbEntity
  8
RACCORDO
100
AcDbPolyline
 62
250
  6
CONTINUOUS
 90
4
 70
0
 10
66.8217940697
 20
23.5599052429
 10
66.8748498237
 20
23.5699577252
 10
66.9192988236
 20
23.5789409221
 10
66.9542827887
 20
23.5874618069
  0
LINE
  5
30D
100
AcDbEntity
  8
RACCORDO
100
AcDbLine
 62
250
  6
CONTINUOUS
 10
66.5424591869
 20
23.5064586257
 11
66.6936694725
 21
23.5349565713
  0
LINE
  5
30E
100
AcDbEntity
  8
RACCORDO
100
AcDbLine
 62
250
  6
CONTINUOUS
 10
66.3772865459
 20
23.4761308412
 11
66.5424591869
 21
23.5064586257
  0
LWPOLYLINE
  5
30F
100
AcDbEntity
  8
RACCORDO
100
AcDbPolyline
 62
7
  6
CONTINUOUS
 90
5
 70
0
 10
54.6227804435
 20
-40.8015368335
 10
54.5498603364
 20
-40.7358147229
 10
54.4894942951
 20
-40.6641577375
 10
54.4392424527
 20
-40.5850797662
 10
54.4000053627
 20
-40.49999795
  0
LWPOLYLINE
  5
310
100
AcDbEntity
  8
0
100
AcDbPolyline
 62
7
  6
CONTINUOUS
 90
10
 70
0
 10
0.4323912027
 20
29.7846217978
 10
0.4630454536
 20
29.7007069326
 10
0.4767731155
 20
29.6589047665
 10
0.4893549212
 20
29.6161404215
 10
0.5008374545
 20
29.5723350837
 10
0.5111741318
 20
29.5275675671
 10
0.5202252016
 20
29.4820743134
 10
0.5279440803
 20
29.4359341365
 10
0.5343773517
 20
29.3890682224
 10
0.5395250156
 20
29.3414765713
  0
LWPOLYLINE
  5
311
100
AcDbEntity
  8
ASSI
100
AcDbPolyline
 62
7
  6
CONTINUOUS
 90
17
 70
0
 10
-45.5
 20
-41.1159885716
 10
-45.4751333499
 20
-41.1028811251
 10
-45.4011624165
 20
-41.0897736787
 10
-45.2790307246
 20
-41.0768334223
 10
-45.1081213441
 20
-41.0640624976
 10
-44.8890512052
 20
-41.051458763
 10
-44.6246146239
 20
-41.0391829834
 10
-44.3142304645
 20
-41.02723936
 10
-43.9584798627
 20
-41.0156236916
 10
-43.5619005415
 20
-41.0044841402
 10
-43.1239694925
 20
-40.9938268048
 10
-42.6452097239
 20
-40.9836455863
 10
-42.1317279836
 20
-40.9740703498
 10
-41.5830794896
 20
-40.9651088577
 10
-40.9997090237
 20
-40.9567533477
 10
-40.3890576797
 20
-40.949110397
 10
-39.7507759946
 20
-40.9421891335
  0
LWPOLYLINE
  5
312
100
AcDbEntity
  8
RACCORDO
100
AcDbPolyline
 62
250
  6
CONTINUOUS
 90
4
 70
0
 10
67.3221202821
 20
30.0088843892
 10
67.3588118522
 20
30.016345127
 10
67.3687690495
 20
30.018281175
 10
67.3730280729
 20
30.0189984384
  0
LINE
  5
313
100
AcDbEntity
  8
0
100
AcDbLine
 62
7
  6
CONTINUOUS
 10
-51.4
 20
16.5
 11
-51.6
 21
16.5
  0
LWPOLYLINE
  5
314
100
AcDbEntity
  8
0
100
AcDbPolyline
 62
7
  6
CONTINUOUS
 90
18
 70
0
 10
-45.5
 20
41.1159885716
 10
-45.4751333499
 20
41.1028811251
 10
-45.4011624165
 20
41.0897736787
 10
-45.2790307246
 20
41.0768334223
 10
-45.1081213441
 20
41.0640624976
 10
-44.8890512052
 20
41.051458763
 10
-44.6246146239
 20
41.0391829834
 10
-44.3142304645
 20
41.02723936
 10
-43.9584798627
 20
41.0156236916
 10
-43.5619005415
 20
41.0044841402
 10
-43.1239694925
 20
40.9938268048
 10
-42.6452097239
 20
40.9836455863
 10
-42.1317279836
 20
40.9740703498
 10
-41.5830794896
 20
40.9651088577
 10
-40.9997090237
 20
40.9567533477
 10
-40.3890576797
 20
40.949110397
 10
-39.7507759946
 20
40.9421891335
 10
-38.4008594722
 20
40.9305634789
  0
LWPOLYLINE
  5
315
100
AcDbEntity
  8
RACCORDO
100
AcDbPolyline
 62
250
  6
CONTINUOUS
 90
21
 70
0
 10
54.636771722
 20
-39.9603710907
 10
54.6664350325
 20
-39.9920211352
 10
54.6951624486
 20
-40.0267189496
 10
54.7229539704
 20
-40.0643587401
 10
54.7498892368
 20
-40.1048831897
 10
54.7758886088
 20
-40.1480446428
 10
54.8007131694
 20
-40.1934109821
 10
54.82431217
 20
-40.2406785836
 10
54.8467363593
 20
-40.2896368204
 10
54.8678990664
 20
-40.3399391621
 10
54.8878222255
 20
-40.391312135
 10
54.9064839024
 20
-40.4432133751
 10
54.9237316244
 20
-40.4948546377
 10
54.939544451
 20
-40.5458731512
 10
54.9539433226
 20
-40.5955731176
 10
54.9668385873
 20
-40.6427730176
 10
54.9781731327
 20
-40.6870159225
 10
54.9880040712
 20
-40.7277843531
 10
54.9964130881
 20
-40.7641093286
 10
55.0033596995
 20
-40.7956172244
 10
55.0088843892
 20
-40.8221202821
  0
LINE
  5
316
100
AcDbEntity
  8
0
100
AcDbLine
 62
7
  6
CONTINUOUS
 10
-3.084683
 20
29.796
 11
-2.905948
 21
29.573703
  0
LWPOLYLINE
  5
317
100
AcDbEntity
  8
0
100
AcDbPolyline
 62
7
  6
CONTINUOUS
 90
7
 70
0
 10
2.9274617309
 20
28.6181781778
 10
2.8848093649
 20
28.7034788092
 10
2.8315910254
 20
28.7810480326
 10
2.7703465043
 20
28.8490275434
 10
2.7019223989
 20
28.9067979068
 10
2.625472112
 20
28.9549785575
 10
2.5409956434
 20
28.9935694957
  0
LWPOLYLINE
  5
318
100
AcDbEntity
  8
0
100
AcDbPolyline
 62
7
  6
CONTINUOUS
 90
28
 70
0
 10
1.1865562096
 20
28.0339610642
 10
1.241666268
 20
27.9223742365
 10
1.3037234268
 20
27.8229195618
 10
1.3727276861
 20
27.73559704
 10
1.4482714456
 20
27.6607489755
 10
1.5307623055
 20
27.5980330639
 10
1.6214230667
 20
27.546422392
 10
1.7219412421
 20
27.5053816351
 10
1.8306293187
 20
27.4754461178
 10
1.9436475582
 20
27.4571949008
 10
2.0634422779
 20
27.4511010381
 10
2.1875671605
 20
27.4566914757
 10
2.3048435161
 20
27.4731261118
 10
2.4123707504
 20
27.5012791712
 10
2.5130494577
 20
27.5402764292
 10
2.604402731
 20
27.5866551099
 10
2.6856894221
 20
27.6394419288
 10
2.757650679
 20
27.6996101704
 10
2.8200330388
 20
27.7666169125
 10
2.8728698001
 20
27.8400379917
 10
2.9161276642
 20
27.9202975714
 10
2.9494532718
 20
28.0081252194
 10
2.9731977655
 20
28.1066271433
 10
2.9870100028
 20
28.2126971354
 10
2.9894831967
 20
28.3177461404
 10
2.9798907282
 20
28.4211479469
 10
2.9589592163
 20
28.5235287664
 10
2.9274617309
 20
28.6181781778
  0
LWPOLYLINE
  5
319
100
AcDbEntity
  8
0
100
AcDbPolyline
 62
7
  6
CONTINUOUS
 90
9
 70
0
 10
0.2498984756
 20
30.0632687617
 10
0.2773330089
 20
30.0354697177
 10
0.3035221928
 20
30.0056062393
 10
0.3284660273
 20
29.9736783264
 10
0.3523054296
 20
29.9395826757
 10
0.3748994825
 20
29.9034225905
 10
0.3958254347
 20
29.8655079813
 10
0.4149423691
 20
29.8259421515
 10
0.4323912027
 20
29.7846217978
  0
LWPOLYLINE
  5
31A
100
AcDbEntity
  8
RACCORDO
100
AcDbPolyline
 62
250
  6
CONTINUOUS
 90
21
 70
0
 10
66.4603710907
 20
29.636771722
 10
66.4920211352
 20
29.6664350325
 10
66.5267189496
 20
29.6951624486
 10
66.5643587401
 20
29.7229539704
 10
66.6048831897
 20
29.7498892368
 10
66.6480446428
 20
29.7758886088
 10
66.6934109821
 20
29.8007131694
 10
66.7406785836
 20
29.82431217
 10
66.7896368204
 20
29.8467363593
 10
66.8399391621
 20
29.8678990664
 10
66.891312135
 20
29.8878222255
 10
66.9432133751
 20
29.9064839024
 10
66.9948546377
 20
29.9237316244
 10
67.0458731512
 20
29.939544451
 10
67.0955731176
 20
29.9539433226
 10
67.1427730176
 20
29.9668385873
 10
67.1870159225
 20
29.9781731327
 10
67.2277843531
 20
29.9880040712
 10
67.2641093286
 20
29.9964130881
 10
67.2956172244
 20
30.0033596995
 10
67.3221202821
 20
30.0088843892
  0
LWPOLYLINE
  5
31B
100
AcDbEntity
  8
ASSI
100
AcDbPolyline
 62
7
  6
CONTINUOUS
 90
17
 70
0
 10
-22.5
 20
-41.1159885716
 10
-22.5248666501
 20
-41.129096018
 10
-22.5988375835
 20
-41.1422034645
 10
-22.7209692754
 20
-41.1551437209
 10
-22.8918786559
 20
-41.1679146456
 10
-23.1109487948
 20
-41.1805183802
 10
-23.3753853761
 20
-41.1927941598
 10
-23.6857695355
 20
-41.2047377832
 10
-24.0415201373
 20
-41.2163534516
 10
-24.4380994585
 20
-41.227493003
 10
-24.8760305075
 20
-41.2381503384
 10
-25.3547902761
 20
-41.2483315569
 10
-25.8682720164
 20
-41.2579067934
 10
-26.4169205104
 20
-41.2668682854
 10
-27.0002909763
 20
-41.2752237955
 10
-27.6109423203
 20
-41.2828667461
 10
-28.2492240054
 20
-41.2897880096
  0
LINE
  5
31C
100
AcDbEntity
  8
RACCORDO
100
AcDbLine
 62
250
  6
CONTINUOUS
 10
66.3469076856
 20
23.6
 11
67.0
 21
23.6
  0
LINE
  5
31D
100
AcDbEntity
  8
RACCORDO
100
AcDbLine
 62
250
  6
CONTINUOUS
 10
67.4667094077
 20
23.9
 11
67.0000000001
 21
23.9000000084
  0
LINE
  5
31E
100
AcDbEntity
  8
0
100
AcDbLine
 62
7
  6
CONTINUOUS
 10
-41.5
 20
26.4
 11
41.5
 21
26.4
  0
LINE
  5
31F
100
AcDbEntity
  8
0
100
AcDbLine
 62
7
  6
CONTINUOUS
 10
41.5
 20
26.6
 11
-41.5
 21
26.6
  0
LWPOLYLINE
  5
320
100
AcDbEntity
  8
0
100
AcDbPolyline
 62
7
  6
CONTINUOUS
 90
18
 70
0
 10
-22.5
 20
41.1159885716
 10
-22.5248666501
 20
41.129096018
 10
-22.5988375835
 20
41.1422034645
 10
-22.7209692754
 20
41.1551437209
 10
-22.8918786559
 20
41.1679146456
 10
-23.1109487948
 20
41.1805183802
 10
-23.3753853761
 20
41.1927941598
 10
-23.6857695355
 20
41.2047377832
 10
-24.0415201373
 20
41.2163534516
 10
-24.4380994585
 20
41.227493003
 10
-24.8760305075
 20
41.2381503384
 10
-25.3547902761
 20
41.2483315569
 10
-25.8682720164
 20
41.2579067934
 10
-26.4169205104
 20
41.2668682854
 10
-27.0002909763
 20
41.2752237955
 10
-27.6109423203
 20
41.2828667461
 10
-28.2492240054
 20
41.2897880096
 10
-29.5991405278
 20
41.3014136642
  0
LWPOLYLINE
  5
321
100
AcDbEntity
  8
0
100
AcDbPolyline
 62
7
  6
CONTINUOUS
 90
10
 70
0
 10
2.4863843809
 20
28.7594046983
 10
2.5283732118
 20
28.7289771934
 10
2.5665753686
 20
28.6925793976
 10
2.6009908515
 20
28.650211311
 10
2.6323670385
 20
28.6010621735
 10
2.6599565516
 20
28.5459427451
 10
2.6815172558
 20
28.4872853061
 10
2.696301773
 20
28.4259006167
 10
2.7050574813
 20
28.3609779167
 10
2.7077843809
 20
28.2925172061
  0
LWPOLYLINE
  5
322
100
AcDbEntity
  8
RACCORDO
100
AcDbPolyline
 62
7
  6
CONTINUOUS
 90
5
 70
0
 10
67.3015368335
 20
29.6227804435
 10
67.2358147229
 20
29.5498603364
 10
67.1641577375
 20
29.4894942951
 10
67.0850797662
 20
29.4392424527
 10
66.99999795
 20
29.4000053627
  0
LWPOLYLINE
  5
323
100
AcDbEntity
  8
ASSI
100
AcDbPolyline
 62
7
  6
CONTINUOUS
 90
17
 70
0
 10
-11.5
 20
-41.1159885716
 10
-11.4751333499
 20
-41.1028811251
 10
-11.4011624165
 20
-41.0897736787
 10
-11.2790307246
 20
-41.0768334223
 10
-11.1081213441
 20
-41.0640624976
 10
-10.8890512052
 20
-41.051458763
 10
-10.6246146239
 20
-41.0391829834
 10
-10.3142304645
 20
-41.02723936
 10
-9.9584798627
 20
-41.0156236916
 10
-9.5619005415
 20
-41.0044841402
 10
-9.1239694925
 20
-40.9938268048
 10
-8.6452097239
 20
-40.9836455863
 10
-8.1317279836
 20
-40.9740703498
 10
-7.5830794896
 20
-40.9651088577
 10
-6.9997090237
 20
-40.9567533477
 10
-6.3890576797
 20
-40.949110397
 10
-5.7507759946
 20
-40.9421891335
  0
LWPOLYLINE
  5
324
100
AcDbEntity
  8
0
100
AcDbPolyline
 62
7
  6
CONTINUOUS
 90
37
 70
0
 10
-0.1175
 20
30.452
 10
-0.230435915
 20
30.4451256774
 10
-0.3351424725
 20
30.4279654088
 10
-0.4316196727
 20
30.4005191943
 10
-0.5191681102
 20
30.3628375838
 10
-0.5984871902
 20
30.3148700274
 10
-0.6716751288
 20
30.2564648745
 10
-0.7396902524
 20
30.1871453347
 10
-0.8015742345
 20
30.1073881985
 10
-0.8565503111
 20
30.0184721876
 10
-0.904049055
 20
29.9199239862
 10
-0.9446398934
 20
29.8122169101
 10
-0.9792543438
 20
29.6980496283
 10
-1.0080269059
 20
29.5772273067
 10
-1.0308230801
 20
29.4499447794
 10
-1.0481708854
 20
29.3194852169
 10
-1.0600901695
 20
29.1841891244
 10
-1.0665610847
 20
29.0457159968
 10
-1.0680521074
 20
28.9123274896
 10
-1.0644714984
 20
28.787400993
 10
-1.055910997
 20
28.6675591168
 10
-1.0431142975
 20
28.5509313454
 10
-1.0272171251
 20
28.4377854952
 10
-1.0070837547
 20
28.3278537497
 10
-0.9800507055
 20
28.2184621441
 10
-0.9453416752
 20
28.1056983684
 10
-0.9037329661
 20
27.9934747324
 10
-0.8548900044
 20
27.8908542011
 10
-0.7980607636
 20
27.8005311783
 10
-0.7339972702
 20
27.7198112602
 10
-0.664621029
 20
27.6496741999
 10
-0.591393949
 20
27.5905299656
 10
-0.5128541213
 20
27.5419685891
 10
-0.4265373237
 20
27.5037399195
 10
-0.3316221489
 20
27.4757605729
 10
-0.2289300042
 20
27.4581139331
 10
-0.1184608896
 20
27.4508
  0
LWPOLYLINE
  5
325
100
AcDbEntity
  8
0
100
AcDbPolyline
 62
7
  6
CONTINUOUS
 90
49
 70
0
 10
-0.1184608896
 20
27.4508
 10
-0.0099847828
 20
27.4573419714
 10
0.0908025736
 20
27.4734421165
 10
0.1839011795
 20
27.4991004351
 10
0.2688890491
 20
27.5351421818
 10
0.3461881681
 20
27.5807421021
 10
0.4170644946
 20
27.6334244326
 10
0.4824832897
 20
27.6942506349
 10
0.5414792921
 20
27.7621592474
 10
0.5924226763
 20
27.8314901218
 10
0.6335699591
 20
27.9012901529
 10
0.6666646237
 20
27.9725124458
 10
0.6953072934
 20
28.0423561681
 10
0.7201384764
 20
28.1100338667
 10
0.7405176646
 20
28.1763329946
 10
0.7581239573
 20
28.2408150788
 10
0.7732275964
 20
28.3029209164
 10
0.7855583401
 20
28.3632097101
 10
0.7959845626
 20
28.4229205949
 10
0.8044424019
 20
28.4816802179
 10
0.8109957201
 20
28.539861932
 10
0.8167044766
 20
28.5998249301
 10
0.8220097265
 20
28.6622823318
 10
0.8264704148
 20
28.7265210176
 10
0.8298233365
 20
28.7927608219
 10
0.8320904402
 20
28.8610281714
 10
0.8332497773
 20
28.9312966395
 10
0.832972297
 20
29.0037067804
 10
0.8312611119
 20
29.0782657942
 10
0.8281131093
 20
29.1549664808
 10
0.823189901
 20
29.2339277947
 10
0.8171465699
 20
29.3151883856
 10
0.809328033
 20
29.3987096037
 10
0.7974306528
 20
29.4844944542
 10
0.7813862418
 20
29.5727395283
 10
0.7612629876
 20
29.6632482349
 10
0.734961815
 20
29.7554338057
 10
0.7023965555
 20
29.851727439
 10
0.6636533777
 20
29.9496979365
 10
0.6168917122
 20
30.0414649344
 10
0.5606250955
 20
30.1258924084
 10
0.4963399911
 20
30.2041163828
 10
0.4266552209
 20
30.2716645677
 10
0.3531063649
 20
30.3267431449
 10
0.274157843
 20
30.3711459325
 10
0.1878217374
 20
30.4057820954
 10
0.0934354087
 20
30.4309546884
 10
-0.0083385037
 20
30.4463606566
 10
-0.1175
 20
30.452
  0
LWPOLYLINE
  5
326
100
AcDbEntity
  8
0
100
AcDbPolyline
 62
7
  6
CONTINUOUS
 90
10
 70
0
 10
1.846016
 20
28.8861843745
 10
1.9279885643
 20
28.8886248518
 10
2.0075121756
 20
28.8870363685
 10
2.0845868339
 20
28.8814189245
 10
2.1595541095
 20
28.8719096085
 10
2.232072432
 20
28.8583713318
 10
2.3011170915
 20
28.840392829
 10
2.3663465177
 20
28.8178370116
 10
2.4281022809
 20
28.790840968
 10
2.4863843809
 20
28.7594046983
  0
LINE
  5
327
100
AcDbEntity
  8
0
100
AcDbLine
 62
7
  6
CONTINUOUS
 10
-2.400816
 20
27.5
 11
-2.118684
 21
27.5
  0
LINE
  5
328
100
AcDbEntity
  8
RACCORDO
100
AcDbLine
 62
250
  6
CONTINUOUS
 10
67.4667094077
 20
29.1
 11
67.0
 21
29.1
  0
LINE
  5
329
100
AcDbEntity
  8
RACCORDO
100
AcDbLine
 62
250
  6
CONTINUOUS
 10
66.3469076856
 20
29.4
 11
67.0
 21
29.4000000001
  0
LINE
  5
32A
100
AcDbEntity
  8
0
100
AcDbLine
 62
7
  6
CONTINUOUS
 10
-2.118684
 20
30.4028
 11
-2.368336
 21
30.4028
  0
LWPOLYLINE
  5
32B
100
AcDbEntity
  8
0
100
AcDbPolyline
 62
7
  6
CONTINUOUS
 90
16
 70
0
 10
2.1009843809
 20
30.1858843809
 10
2.1634595222
 20
30.1830308413
 10
2.2225636058
 20
30.1761971166
 10
2.2782966317
 20
30.1653832067
 10
2.3309653355
 20
30.150793677
 10
2.3802629815
 20
30.1322239621
 10
2.4252693631
 20
30.1090603662
 10
2.465729158
 20
30.0812159816
 10
2.5018976886
 20
30.048777716
 10
2.5336207155
 20
30.0113925969
 10
2.5608904972
 20
29.968623052
 10
2.5837147752
 20
29.9209066535
 10
2.6019625342
 20
29.869203146
 10
2.6155901024
 20
29.8138324443
 10
2.6246411516
 20
29.7544746336
 10
2.6291156817
 20
29.6911297139
  0
LWPOLYLINE
  5
32C
100
AcDbEntity
  8
0
100
AcDbPolyline
 62
7
  6
CONTINUOUS
 90
10
 70
0
 10
-0.1175
 20
30.1858843809
 10
-0.0684762885
 20
30.1833494392
 10
-0.0212492024
 20
30.177958699
 10
0.0241812582
 20
30.1697121602
 10
0.0681534792
 20
30.1584984302
 10
0.1103290748
 20
30.1444289016
 10
0.1496928879
 20
30.1278377527
 10
0.1859065329
 20
30.1088363761
 10
0.2193083955
 20
30.0873133791
 10
0.2498984756
 20
30.0632687617
  0
LINE
  5
32D
100
AcDbEntity
  8
0
100
AcDbLine
 62
7
  6
CONTINUOUS
 10
1.3009720812
 20
29.9945939585
 11
1.5551718518
 21
29.8648030757
  0
LWPOLYLINE
  5
32E
100
AcDbEntity
  8
0
100
AcDbPolyline
 62
7
  6
CONTINUOUS
 90
18
 70
0
 10
-11.5
 20
41.1159885716
 10
-11.4751333499
 20
41.1028811251
 10
-11.4011624165
 20
41.0897736787
 10
-11.2790307246
 20
41.0768334223
 10
-11.1081213441
 20
41.0640624976
 10
-10.8890512052
 20
41.051458763
 10
-10.6246146239
 20
41.0391829834
 10
-10.3142304645
 20
41.02723936
 10
-9.9584798627
 20
41.0156236916
 10
-9.5619005415
 20
41.0044841402
 10
-9.1239694925
 20
40.9938268048
 10
-8.6452097239
 20
40.9836455863
 10
-8.1317279836
 20
40.9740703498
 10
-7.5830794896
 20
40.9651088577
 10
-6.9997090237
 20
40.9567533477
 10
-6.3890576797
 20
40.949110397
 10
-5.7507759946
 20
40.9421891335
 10
-4.4008594722
 20
40.9305634789
  0
LWPOLYLINE
  5
32F
100
AcDbEntity
  8
RACCORDO
100
AcDbPolyline
 62
250
  6
CONTINUOUS
 90
10
 70
0
 10
55.0189984384
 20
-40.8730280729
 10
55.0233952427
 20
-40.8814995584
 10
55.0276599289
 20
-40.8899899547
 10
55.0317924969
 20
-40.8984992619
 10
55.0357913205
 20
-40.9070274808
 10
55.039658026
 20
-40.9155746105
 10
55.0433974919
 20
-40.9241406487
 10
55.0470113445
 20
-40.9327255946
 10
55.0504979574
 20
-40.9413294489
 10
55.0538573308
 20
-40.9499522117
  0
LINE
  5
330
100
AcDbEntity
  8
DRAFT
100
AcDbLine
 62
7
  6
CONTINUOUS
 10
62.0
 20
33.7242099741
 11
66.2731956082
 21
33.7242099741
  0
LINE
  5
331
100
AcDbEntity
  8
DRAFT
100
AcDbLine
 62
7
  6
CONTINUOUS
 10
-62.0
 20
33.7242099741
 11
-66.2731956082
 21
33.7242099741
  0
LINE
  5
332
100
AcDbEntity
  8
DRAFT
100
AcDbLine
 62
7
  6
CONTINUOUS
 10
62.0
 20
34.0
 11
66.0
 21
34.0
  0
LINE
  5
333
100
AcDbEntity
  8
DRAFT
100
AcDbLine
 62
7
  6
CONTINUOUS
 10
-62.0
 20
34.0
 11
-66.0
 21
34.0
  0
LINE
  5
334
100
AcDbEntity
  8
DRAFT
100
AcDbLine
 62
250
  6
CONTINUOUS
 10
-60.5
 20
35.5
 11
-60.2242099741
 21
35.5
  0
LINE
  5
335
100
AcDbEntity
  8
DRAFT
100
AcDbLine
 62
250
  6
CONTINUOUS
 10
60.5
 20
35.5
 11
60.2242099741
 21
35.5
  0
LINE
  5
336
100
AcDbEntity
  8
RACCORDO
100
AcDbLine
 62
250
  6
CONTINUOUS
 10
66.0
 20
35.5
 11
68.0
 21
35.5
  0
LINE
  5
337
100
AcDbEntity
  8
RACCORDO
100
AcDbLine
 62
250
  6
CONTINUOUS
 10
-66.0
 20
35.5
 11
-68.0
 21
35.5
  0
LWPOLYLINE
  5
338
100
AcDbEntity
  8
RACCORDO
100
AcDbPolyline
 62
250
  6
CONTINUOUS
 90
10
 70
0
 10
-54.4
 20
39.8469076856
 10
-54.4257173708
 20
39.8483948349
 10
-54.4516711113
 20
39.8524952706
 10
-54.4778612216
 20
39.859206838
 10
-54.5044059953
 20
39.868282547
 10
-54.5311871387
 20
39.8799596886
 10
-54.5578497711
 20
39.8949566281
 10
-54.584275599
 20
39.9134980151
 10
-54.610582916
 20
39.9353150788
 10
-54.636771722
 20
39.9603710907
  0
LWPOLYLINE
  5
339
100
AcDbEntity
  8
RACCORDO
100
AcDbPolyline
 62
250
  6
CONTINUOUS
 90
10
 70
0
 10
-55.0189984384
 20
40.8730276287
 10
-54.9348144952
 20
40.8679610327
 10
-54.8518526486
 20
40.8528075961
 10
-54.7713172614
 20
40.8277873022
 10
-54.6943774712
 20
40.7932633724
 10
-54.622150218
 20
40.7497369928
 10
-54.5556840298
 20
40.6978400389
 10
-54.4959438007
 20
40.6383259022
 10
-54.4437967835
 20
40.5720585534
 10
-54.4
 20
40.5
  0
LWPOLYLINE
  5
33A
100
AcDbEntity
  8
RACCORDO
100
AcDbPolyline
 62
250
  6
CONTINUOUS
 90
6
 70
0
 10
-55.0538573304
 20
40.9499650636
 10
-54.9603599828
 20
40.9437018431
 10
-54.8685385422
 20
40.9250079818
 10
-54.7800385228
 20
40.8942184886
 10
-54.696445916
 20
40.8518851359
 10
-54.6227804435
 20
40.8015368335
  0
LWPOLYLINE
  5
33B
100
AcDbEntity
  8
RACCORDO
100
AcDbPolyline
 62
250
  6
CONTINUOUS
 90
3
 70
0
 10
67.3730280729
 20
22.9810015616
 10
67.3686260664
 20
22.981739946
 10
67.3582979126
 20
22.9837500403
  0
LWPOLYLINE
  5
33C
100
AcDbEntity
  8
RACCORDO
100
AcDbPolyline
 62
250
  6
CONTINUOUS
 90
25
 70
0
 10
67.3582979126
 20
22.9837500403
 10
67.3202098848
 20
22.9915069388
 10
67.2927014945
 20
22.997253743
 10
67.2599813774
 20
23.0045075175
 10
67.2222154244
 20
23.0133147299
 10
67.1798078006
 20
23.0236289126
 10
67.1338196908
 20
23.0355459233
 10
67.0847980705
 20
23.0491401887
 10
67.0332341819
 20
23.0643372822
 10
66.9804486012
 20
23.0810097808
 10
66.9272145771
 20
23.0991637446
 10
66.8738952091
 20
23.1187931136
 10
66.821310755
 20
23.1397522849
 10
66.77003445
 20
23.1620365754
 10
66.7203428295
 20
23.1856506683
 10
66.6725616296
 20
23.2104630101
 10
66.626839241
 20
23.2364962515
 10
66.5835430353
 20
23.2637277419
 10
66.5432725922
 20
23.2919579763
 10
66.5061843815
 20
23.3213346437
 10
66.4724226439
 20
23.351710055
 10
66.4425375026
 20
23.3824416377
 10
66.4167594621
 20
23.4133152008
 10
66.394996206
 20
23.4445449353
 10
66.3772865459
 20
23.4761308412
  0
LWPOLYLINE
  5
33D
100
AcDbEntity
  8
RACCORDO
100
AcDbPolyline
 62
250
  6
CONTINUOUS
 90
3
 70
0
 10
48.5874618069
 20
-40.4542827887
 10
48.5984278311
 20
-40.4948597419
 10
48.6000000227
 20
-40.499999998
  0
LINE
  5
33E
100
AcDbEntity
  8
0
100
AcDbLine
 62
7
  6
CONTINUOUS
 10
41.5
 20
26.4
 11
41.5
 21
26.6
  0
LWPOLYLINE
  5
33F
100
AcDbEntity
  8
ASSI
100
AcDbPolyline
 62
7
  6
CONTINUOUS
 90
17
 70
0
 10
11.5
 20
-41.1159885716
 10
11.4751333499
 20
-41.129096018
 10
11.4011624165
 20
-41.1422034645
 10
11.2790307246
 20
-41.1551437209
 10
11.1081213441
 20
-41.1679146456
 10
10.8890512052
 20
-41.1805183802
 10
10.6246146239
 20
-41.1927941598
 10
10.3142304645
 20
-41.2047377832
 10
9.9584798627
 20
-41.2163534516
 10
9.5619005415
 20
-41.227493003
 10
9.1239694925
 20
-41.2381503384
 10
8.6452097239
 20
-41.2483315569
 10
8.1317279836
 20
-41.2579067934
 10
7.5830794896
 20
-41.2668682854
 10
6.9997090237
 20
-41.2752237955
 10
6.3890576797
 20
-41.2828667461
 10
5.7507759946
 20
-41.2897880096
  0
LINE
  5
340
100
AcDbEntity
  8
RACCORDO
100
AcDbLine
 62
250
  6
CONTINUOUS
 10
-54.9301043323
 20
40.9582600379
 11
-54.8491066224
 21
40.960368567
  0
LINE
  5
341
100
AcDbEntity
  8
RACCORDO
100
AcDbLine
 62
250
  6
CONTINUOUS
 10
-54.8491066224
 20
40.960368567
 11
-54.7503453895
 21
40.9622389107
  0
LWPOLYLINE
  5
342
100
AcDbEntity
  8
0
100
AcDbPolyline
 62
7
  6
CONTINUOUS
 90
17
 70
0
 10
39.7507759946
 20
40.9421891335
 10
40.3890576797
 20
40.949110397
 10
40.9997090237
 20
40.9567533477
 10
41.5830794896
 20
40.9651088577
 10
42.1317279836
 20
40.9740703498
 10
42.6452097239
 20
40.9836455863
 10
43.1239694925
 20
40.9938268048
 10
43.5619005415
 20
41.0044841402
 10
43.9584798627
 20
41.0156236916
 10
44.3142304645
 20
41.02723936
 10
44.6246146239
 20
41.0391829834
 10
44.8890512052
 20
41.051458763
 10
45.1081213441
 20
41.0640624976
 10
45.2790307246
 20
41.0768334223
 10
45.4011624165
 20
41.0897736787
 10
45.4751333499
 20
41.1028811251
 10
45.5
 20
41.1159885716
  0
LWPOLYLINE
  5
343
100
AcDbEntity
  8
0
100
AcDbPolyline
 62
7
  6
CONTINUOUS
 90
17
 70
0
 10
5.7507759946
 20
40.9421891335
 10
6.3890576797
 20
40.949110397
 10
6.9997090237
 20
40.9567533477
 10
7.5830794896
 20
40.9651088577
 10
8.1317279836
 20
40.9740703498
 10
8.6452097239
 20
40.9836455863
 10
9.1239694925
 20
40.9938268048
 10
9.5619005415
 20
41.0044841402
 10
9.9584798627
 20
41.0156236916
 10
10.3142304645
 20
41.02723936
 10
10.6246146239
 20
41.0391829834
 10
10.8890512052
 20
41.051458763
 10
11.1081213441
 20
41.0640624976
 10
11.2790307246
 20
41.0768334223
 10
11.4011624165
 20
41.0897736787
 10
11.4751333499
 20
41.1028811251
 10
11.5
 20
41.1159885716
  0
LWPOLYLINE
  5
344
100
AcDbEntity
  8
0
100
AcDbPolyline
 62
7
  6
CONTINUOUS
 90
17
 70
0
 10
28.2492240054
 20
41.2897880096
 10
27.6109423203
 20
41.2828667461
 10
27.0002909763
 20
41.2752237955
 10
26.4169205104
 20
41.2668682854
 10
25.8682720164
 20
41.2579067934
 10
25.3547902761
 20
41.2483315569
 10
24.8760305075
 20
41.2381503384
 10
24.4380994585
 20
41.227493003
 10
24.0415201373
 20
41.2163534516
 10
23.6857695355
 20
41.2047377832
 10
23.3753853761
 20
41.1927941598
 10
23.1109487948
 20
41.1805183802
 10
22.8918786559
 20
41.1679146456
 10
22.7209692754
 20
41.1551437209
 10
22.5988375835
 20
41.1422034645
 10
22.5248666501
 20
41.129096018
 10
22.5
 20
41.1159885716
  0
LWPOLYLINE
  5
345
100
AcDbEntity
  8
0
100
AcDbPolyline
 62
7
  6
CONTINUOUS
 90
17
 70
0
 10
-28.2492240054
 20
40.9421891335
 10
-27.6109423203
 20
40.949110397
 10
-27.0002909763
 20
40.9567533477
 10
-26.4169205104
 20
40.9651088577
 10
-25.8682720164
 20
40.9740703498
 10
-25.3547902761
 20
40.9836455863
 10
-24.8760305075
 20
40.9938268048
 10
-24.4380994585
 20
41.0044841402
 10
-24.0415201373
 20
41.0156236916
 10
-23.6857695355
 20
41.02723936
 10
-23.3753853761
 20
41.0391829834
 10
-23.1109487948
 20
41.051458763
 10
-22.8918786559
 20
41.0640624976
 10
-22.7209692754
 20
41.0768334223
 10
-22.5988375835
 20
41.0897736787
 10
-22.5248666501
 20
41.1028811251
 10
-22.5
 20
41.1159885716
  0
LWPOLYLINE
  5
346
100
AcDbEntity
  8
0
100
AcDbPolyline
 62
7
  6
CONTINUOUS
 90
17
 70
0
 10
-5.7507759946
 20
41.2897880096
 10
-6.3890576797
 20
41.2828667461
 10
-6.9997090237
 20
41.2752237955
 10
-7.5830794896
 20
41.2668682854
 10
-8.1317279836
 20
41.2579067934
 10
-8.6452097239
 20
41.2483315569
 10
-9.1239694925
 20
41.2381503384
 10
-9.5619005415
 20
41.227493003
 10
-9.9584798627
 20
41.2163534516
 10
-10.3142304645
 20
41.2047377832
 10
-10.6246146239
 20
41.1927941598
 10
-10.8890512052
 20
41.1805183802
 10
-11.1081213441
 20
41.1679146456
 10
-11.2790307246
 20
41.1551437209
 10
-11.4011624165
 20
41.1422034645
 10
-11.4751333499
 20
41.129096018
 10
-11.5
 20
41.1159885716
  0
LINE
  5
347
100
AcDbEntity
  8
RACCORDO
100
AcDbLine
 62
250
  6
CONTINUOUS
 10
-54.7503453895
 20
40.9622389107
 11
-54.5751129191
 21
40.964495586
  0
LWPOLYLINE
  5
348
100
AcDbEntity
  8
0
100
AcDbPolyline
 62
7
  6
CONTINUOUS
 90
17
 70
0
 10
-39.7507759946
 20
41.2897880096
 10
-40.3890576797
 20
41.2828667461
 10
-40.9997090237
 20
41.2752237955
 10
-41.5830794896
 20
41.2668682854
 10
-42.1317279836
 20
41.2579067934
 10
-42.6452097239
 20
41.2483315569
 10
-43.1239694925
 20
41.2381503384
 10
-43.5619005415
 20
41.227493003
 10
-43.9584798627
 20
41.2163534516
 10
-44.3142304645
 20
41.2047377832
 10
-44.6246146239
 20
41.1927941598
 10
-44.8890512052
 20
41.1805183802
 10
-45.1081213441
 20
41.1679146456
 10
-45.2790307246
 20
41.1551437209
 10
-45.4011624165
 20
41.1422034645
 10
-45.4751333499
 20
41.129096018
 10
-45.5
 20
41.1159885716
  0
LINE
  5
349
100
AcDbEntity
  8
0
100
AcDbLine
 62
7
  6
CONTINUOUS
 10
38.4008594722
 20
40.9305634789
 11
39.7507759946
 21
40.9421891335
  0
LINE
  5
34A
100
AcDbEntity
  8
0
100
AcDbLine
 62
7
  6
CONTINUOUS
 10
4.4008594722
 20
40.9305634789
 11
5.7507759946
 21
40.9421891335
  0
LINE
  5
34B
100
AcDbEntity
  8
0
100
AcDbLine
 62
7
  6
CONTINUOUS
 10
29.5991405278
 20
41.3014136642
 11
28.2492240054
 21
41.2897880096
  0
LINE
  5
34C
100
AcDbEntity
  8
0
100
AcDbLine
 62
7
  6
CONTINUOUS
 10
-29.5991405278
 20
40.9305634789
 11
-28.2492240054
 21
40.9421891335
  0
LINE
  5
34D
100
AcDbEntity
  8
0
100
AcDbLine
 62
7
  6
CONTINUOUS
 10
-4.4008594722
 20
41.3014136642
 11
-5.7507759946
 21
41.2897880096
  0
LINE
  5
34E
100
AcDbEntity
  8
0
100
AcDbLine
 62
7
  6
CONTINUOUS
 10
-38.4008594722
 20
41.3014136642
 11
-39.7507759946
 21
41.2897880096
  0
LINE
  5
34F
100
AcDbEntity
  8
RACCORDO
100
AcDbLine
 62
250
  6
CONTINUOUS
 10
-54.5751129191
 20
40.964495586
 11
-54.3771893507
 21
40.9659890144
  0
LINE
  5
350
100
AcDbEntity
  8
0
100
AcDbLine
 62
7
  6
CONTINUOUS
 10
36.9752959384
 20
40.9221251231
 11
38.4008594722
 21
40.9305634789
  0
LINE
  5
351
100
AcDbEntity
  8
0
100
AcDbLine
 62
7
  6
CONTINUOUS
 10
2.9752959384
 20
40.9221251231
 11
4.4008594722
 21
40.9305634789
  0
LINE
  5
352
100
AcDbEntity
  8
0
100
AcDbLine
 62
7
  6
CONTINUOUS
 10
-31.0247040616
 20
40.9221251231
 11
-29.5991405278
 21
40.9305634789
  0
LINE
  5
353
100
AcDbEntity
  8
0
100
AcDbLine
 62
7
  6
CONTINUOUS
 10
31.0247040616
 20
41.30985202
 11
29.5991405278
 21
41.3014136642
  0
LINE
  5
354
100
AcDbEntity
  8
0
100
AcDbLine
 62
7
  6
CONTINUOUS
 10
-2.9752959384
 20
41.30985202
 11
-4.4008594722
 21
41.3014136642
  0
LINE
  5
355
100
AcDbEntity
  8
0
100
AcDbLine
 62
7
  6
CONTINUOUS
 10
-36.9752959384
 20
41.30985202
 11
-38.4008594722
 21
41.3014136642
  0
LINE
  5
356
100
AcDbEntity
  8
0
100
AcDbLine
 62
7
  6
CONTINUOUS
 10
35.5052722393
 20
40.9170163402
 11
36.9752959384
 21
40.9221251231
  0
LINE
  5
357
100
AcDbEntity
  8
0
100
AcDbLine
 62
7
  6
CONTINUOUS
 10
1.5052722393
 20
40.9170163402
 11
2.9752959384
 21
40.9221251231
  0
LINE
  5
358
100
AcDbEntity
  8
0
100
AcDbLine
 62
7
  6
CONTINUOUS
 10
-32.4947277607
 20
40.9170163402
 11
-31.0247040616
 21
40.9221251231
  0
LINE
  5
359
100
AcDbEntity
  8
0
100
AcDbLine
 62
7
  6
CONTINUOUS
 10
32.4947277607
 20
41.314960803
 11
31.0247040616
 21
41.30985202
  0
LINE
  5
35A
100
AcDbEntity
  8
0
100
AcDbLine
 62
7
  6
CONTINUOUS
 10
-1.5052722393
 20
41.314960803
 11
-2.9752959384
 21
41.30985202
  0
LINE
  5
35B
100
AcDbEntity
  8
0
100
AcDbLine
 62
7
  6
CONTINUOUS
 10
-35.5052722393
 20
41.314960803
 11
-36.9752959384
 21
41.30985202
  0
LINE
  5
35C
100
AcDbEntity
  8
0
100
AcDbLine
 62
7
  6
CONTINUOUS
 10
34.0
 20
40.9152858976
 11
35.5052722393
 21
40.9170163402
  0
LINE
  5
35D
100
AcDbEntity
  8
0
100
AcDbLine
 62
7
  6
CONTINUOUS
 10
-0.0
 20
40.9152858976
 11
1.5052722393
 21
40.9170163402
  0
LINE
  5
35E
100
AcDbEntity
  8
0
100
AcDbLine
 62
7
  6
CONTINUOUS
 10
-34.0
 20
40.9152858976
 11
-32.4947277607
 21
40.9170163402
  0
LINE
  5
35F
100
AcDbEntity
  8
RACCORDO
100
AcDbLine
 62
250
  6
CONTINUOUS
 10
-54.3771893507
 20
40.9659890144
 11
-54.1
 21
40.9667094077
  0
LINE
  5
360
100
AcDbEntity
  8
0
100
AcDbLine
 62
7
  6
CONTINUOUS
 10
34.0
 20
41.3166912456
 11
32.4947277607
 21
41.314960803
  0
LINE
  5
361
100
AcDbEntity
  8
0
100
AcDbLine
 62
7
  6
CONTINUOUS
 10
0.0
 20
41.3166912456
 11
-1.5052722393
 21
41.314960803
  0
LINE
  5
362
100
AcDbEntity
  8
0
100
AcDbLine
 62
7
  6
CONTINUOUS
 10
-34.0
 20
41.3166912456
 11
-35.5052722393
 21
41.314960803
  0
LINE
  5
363
100
AcDbEntity
  8
DRAFT
100
AcDbLine
 62
7
  6
CONTINUOUS
 10
-62.0
 20
39.5
 11
-60.5
 21
39.5
  0
LINE
  5
364
100
AcDbEntity
  8
DRAFT
100
AcDbLine
 62
7
  6
CONTINUOUS
 10
62.0
 20
39.5
 11
60.5
 21
39.5
  0
LINE
  5
365
100
AcDbEntity
  8
RACCORDO
100
AcDbLine
 62
250
  6
CONTINUOUS
 10
60.2242099741
 20
39.7731956082
 11
-60.2242099741
 21
39.7731956082
  0
LINE
  5
366
100
AcDbEntity
  8
RACCORDO
100
AcDbLine
 62
7
  6
CONTINUOUS
 10
62.0
 20
39.7757899725
 11
60.2242100275
 21
39.7757899725
  0
LINE
  5
367
100
AcDbEntity
  8
RACCORDO
100
AcDbLine
 62
7
  6
CONTINUOUS
 10
-60.2242100275
 20
39.7757899725
 11
-62.0
 21
39.7757899725
  0
LINE
  5
368
100
AcDbEntity
  8
RACCORDO
100
AcDbLine
 62
250
  6
CONTINUOUS
 10
-48.6
 20
39.8469076856
 11
-54.4
 21
39.8469076856
  0
LINE
  5
369
100
AcDbEntity
  8
RACCORDO
100
AcDbLine
 62
7
  6
CONTINUOUS
 10
-48.6
 20
40.5
 11
-54.4
 21
40.5
  0
LINE
  5
36A
100
AcDbEntity
  8
RACCORDO
100
AcDbLine
 62
250
  6
CONTINUOUS
 10
62.0
 20
40.8730280729
 11
-47.9810015616
 21
40.8730280729
  0
LINE
  5
36B
100
AcDbEntity
  8
RACCORDO
100
AcDbLine
 62
250
  6
CONTINUOUS
 10
-55.0189984384
 20
40.8730280729
 11
-62.0
 21
40.8730280729
  0
LINE
  5
36C
100
AcDbEntity
  8
DRAFT
100
AcDbLine
 62
7
  6
CONTINUOUS
 10
-62.0
 20
41.5
 11
62.0
 21
41.5
  0
LINE
  5
36D
100
AcDbEntity
  8
0
100
AcDbLine
 62
7
  6
CONTINUOUS
 10
-35.5052722393
 20
40.9170163402
 11
-34.0
 21
40.9152858976
  0
LINE
  5
36E
100
AcDbEntity
  8
0
100
AcDbLine
 62
7
  6
CONTINUOUS
 10
-1.5052722393
 20
40.9170163402
 11
-0.0
 21
40.9152858976
  0
LINE
  5
36F
100
AcDbEntity
  8
0
100
AcDbLine
 62
7
  6
CONTINUOUS
 10
32.4947277607
 20
40.9170163402
 11
34.0
 21
40.9152858976
  0
LINE
  5
370
100
AcDbEntity
  8
0
100
AcDbLine
 62
7
  6
CONTINUOUS
 10
-32.4947277607
 20
41.314960803
 11
-34.0
 21
41.3166912456
  0
LINE
  5
371
100
AcDbEntity
  8
0
100
AcDbLine
 62
7
  6
CONTINUOUS
 10
1.5052722393
 20
41.314960803
 11
0.0
 21
41.3166912456
  0
LINE
  5
372
100
AcDbEntity
  8
0
100
AcDbLine
 62
7
  6
CONTINUOUS
 10
35.5052722393
 20
41.314960803
 11
34.0
 21
41.3166912456
  0
LINE
  5
373
100
AcDbEntity
  8
RACCORDO
100
AcDbLine
 62
250
  6
CONTINUOUS
 10
-54.1
 20
40.9667094077
 11
-48.6914775114
 21
40.9663067072
  0
LINE
  5
374
100
AcDbEntity
  8
0
100
AcDbLine
 62
7
  6
CONTINUOUS
 10
-36.9752959384
 20
40.9221251231
 11
-35.5052722393
 21
40.9170163402
  0
LINE
  5
375
100
AcDbEntity
  8
0
100
AcDbLine
 62
7
  6
CONTINUOUS
 10
-2.9752959384
 20
40.9221251231
 11
-1.5052722393
 21
40.9170163402
  0
LINE
  5
376
100
AcDbEntity
  8
0
100
AcDbLine
 62
7
  6
CONTINUOUS
 10
31.0247040616
 20
40.9221251231
 11
32.4947277607
 21
40.9170163402
  0
LINE
  5
377
100
AcDbEntity
  8
0
100
AcDbLine
 62
7
  6
CONTINUOUS
 10
-31.0247040616
 20
41.30985202
 11
-32.4947277607
 21
41.314960803
  0
LINE
  5
378
100
AcDbEntity
  8
0
100
AcDbLine
 62
7
  6
CONTINUOUS
 10
2.9752959384
 20
41.30985202
 11
1.5052722393
 21
41.314960803
  0
LINE
  5
379
100
AcDbEntity
  8
0
100
AcDbLine
 62
7
  6
CONTINUOUS
 10
36.9752959384
 20
41.30985202
 11
35.5052722393
 21
41.314960803
  0
LINE
  5
37A
100
AcDbEntity
  8
0
100
AcDbLine
 62
7
  6
CONTINUOUS
 10
-38.4008594722
 20
40.9305634789
 11
-36.9752959384
 21
40.9221251231
  0
LINE
  5
37B
100
AcDbEntity
  8
0
100
AcDbLine
 62
7
  6
CONTINUOUS
 10
-4.4008594722
 20
40.9305634789
 11
-2.9752959384
 21
40.9221251231
  0
LINE
  5
37C
100
AcDbEntity
  8
0
100
AcDbLine
 62
7
  6
CONTINUOUS
 10
-29.5991405278
 20
41.3014136642
 11
-31.0247040616
 21
41.30985202
  0
LINE
  5
37D
100
AcDbEntity
  8
0
100
AcDbLine
 62
7
  6
CONTINUOUS
 10
29.5991405278
 20
40.9305634789
 11
31.0247040616
 21
40.9221251231
  0
LINE
  5
37E
100
AcDbEntity
  8
0
100
AcDbLine
 62
7
  6
CONTINUOUS
 10
4.4008594722
 20
41.3014136642
 11
2.9752959384
 21
41.30985202
  0
LINE
  5
37F
100
AcDbEntity
  8
0
100
AcDbLine
 62
7
  6
CONTINUOUS
 10
38.4008594722
 20
41.3014136642
 11
36.9752959384
 21
41.30985202
  0
LINE
  5
380
100
AcDbEntity
  8
RACCORDO
100
AcDbLine
 62
250
  6
CONTINUOUS
 10
-48.6914775114
 20
40.9663067072
 11
-48.4887082356
 21
40.9650825363
  0
LINE
  5
381
100
AcDbEntity
  8
RACCORDO
100
AcDbLine
 62
250
  6
CONTINUOUS
 10
-48.4887082356
 20
40.9650825363
 11
-48.3045155419
 21
40.9630672752
  0
LINE
  5
382
100
AcDbEntity
  8
RACCORDO
100
AcDbLine
 62
250
  6
CONTINUOUS
 10
-48.3045155419
 20
40.9630672752
 11
-48.1979958969
 21
40.961331411
  0
LWPOLYLINE
  5
383
100
AcDbEntity
  8
RACCORDO
100
AcDbPolyline
 62
250
  6
CONTINUOUS
 90
10
 70
0
 10
-48.1979958969
 20
40.961331411
 10
-48.1081393175
 20
40.9593420053
 10
-48.0698484093
 20
40.9582585942
 10
-48.0366056964
 20
40.9571397571
 10
-48.0085700012
 20
40.955984927
 10
-47.9855825014
 20
40.9547946709
 10
-47.9678275799
 20
40.9535937911
 10
-47.9553666979
 20
40.952390555
 10
-47.9481383943
 20
40.9511766952
 10
-47.9461426692
 20
40.9499522117
  0
LWPOLYLINE
  5
384
100
AcDbEntity
  8
0
100
AcDbPolyline
 62
7
  6
CONTINUOUS
 90
18
 70
0
 10
11.5
 20
41.1159885716
 10
11.4751333499
 20
41.129096018
 10
11.4011624165
 20
41.1422034645
 10
11.2790307246
 20
41.1551437209
 10
11.1081213441
 20
41.1679146456
 10
10.8890512052
 20
41.1805183802
 10
10.6246146239
 20
41.1927941598
 10
10.3142304645
 20
41.2047377832
 10
9.9584798627
 20
41.2163534516
 10
9.5619005415
 20
41.227493003
 10
9.1239694925
 20
41.2381503384
 10
8.6452097239
 20
41.2483315569
 10
8.1317279836
 20
41.2579067934
 10
7.5830794896
 20
41.2668682854
 10
6.9997090237
 20
41.2752237955
 10
6.3890576797
 20
41.2828667461
 10
5.7507759946
 20
41.2897880096
 10
4.4008594722
 20
41.3014136642
  0
LINE
  5
385
100
AcDbEntity
  8
RACCORDO
100
AcDbLine
 62
250
  6
CONTINUOUS
 10
48.5349565713
 20
-40.1936694725
 11
48.5599052429
 21
-40.3217940697
  0
LWPOLYLINE
  5
386
100
AcDbEntity
  8
RACCORDO
100
AcDbPolyline
 62
250
  6
CONTINUOUS
 90
4
 70
0
 10
48.5599052429
 20
-40.3217940697
 10
48.5699577252
 20
-40.3748498237
 10
48.5789409221
 20
-40.4192988236
 10
48.5874618069
 20
-40.4542827887
  0
LINE
  5
387
100
AcDbEntity
  8
RACCORDO
100
AcDbLine
 62
250
  6
CONTINUOUS
 10
48.5064586257
 20
-40.0424591869
 11
48.5349565713
 21
-40.1936694725
  0
LINE
  5
388
100
AcDbEntity
  8
RACCORDO
100
AcDbLine
 62
250
  6
CONTINUOUS
 10
48.4761308412
 20
-39.8772865459
 11
48.5064586257
 21
-40.0424591869
  0
LWPOLYLINE
  5
389
100
AcDbEntity
  8
ASSI
100
AcDbPolyline
 62
7
  6
CONTINUOUS
 90
17
 70
0
 10
22.5
 20
-41.1159885716
 10
22.5248666501
 20
-41.1028811251
 10
22.5988375835
 20
-41.0897736787
 10
22.7209692754
 20
-41.0768334223
 10
22.8918786559
 20
-41.0640624976
 10
23.1109487948
 20
-41.051458763
 10
23.3753853761
 20
-41.0391829834
 10
23.6857695355
 20
-41.02723936
 10
24.0415201373
 20
-41.0156236916
 10
24.4380994585
 20
-41.0044841402
 10
24.8760305075
 20
-40.9938268048
 10
25.3547902761
 20
-40.9836455863
 10
25.8682720164
 20
-40.9740703498
 10
26.4169205104
 20
-40.9651088577
 10
27.0002909763
 20
-40.9567533477
 10
27.6109423203
 20
-40.949110397
 10
28.2492240054
 20
-40.9421891335
  0
LWPOLYLINE
  5
38A
100
AcDbEntity
  8
RACCORDO
100
AcDbPolyline
 62
250
  6
CONTINUOUS
 90
7
 70
0
 10
-47.9461426692
 20
40.9499522038
 10
-48.0396398783
 20
40.9436915739
 10
-48.1314614915
 20
40.925000109
 10
-48.2199619413
 20
40.8942127855
 10
-48.3035551805
 20
40.8518813537
 10
-48.3807431052
 20
40.7987644501
 10
-48.3916280796
 20
40.7899672626
  0
LWPOLYLINE
  5
38B
100
AcDbEntity
  8
RACCORDO
100
AcDbPolyline
 62
250
  6
CONTINUOUS
 90
10
 70
0
 10
-47.9810015617
 20
40.8730240424
 10
-48.0651853811
 20
40.8679580882
 10
-48.1481471697
 20
40.8528052358
 10
-48.2286825497
 20
40.8277854631
 10
-48.3056223678
 20
40.7932619887
 10
-48.3778496687
 20
40.7497359989
 10
-48.4443159097
 20
40.6978393718
 10
-48.5040561833
 20
40.6383255042
 10
-48.5562032241
 20
40.5720583745
 10
-48.6
 20
40.5
  0
LWPOLYLINE
  5
38C
100
AcDbEntity
  8
RACCORDO
100
AcDbPolyline
 62
250
  6
CONTINUOUS
 90
10
 70
0
 10
67.4499522117
 20
22.9461426692
 10
67.441329449
 20
22.9495020425
 10
67.4327255947
 20
22.9529886555
 10
67.4241406488
 20
22.956602508
 10
67.4155746106
 20
22.9603419739
 10
67.4070274808
 20
22.9642086794
 10
67.3984992619
 20
22.9682075031
 10
67.3899899547
 20
22.9723400711
 10
67.3814995584
 20
22.9766047573
 10
67.3730280729
 20
22.9810015616
  0
LWPOLYLINE
  5
38D
100
AcDbEntity
  8
0
100
AcDbPolyline
 62
7
  6
CONTINUOUS
 90
18
 70
0
 10
22.5
 20
41.1159885716
 10
22.5248666501
 20
41.1028811251
 10
22.5988375835
 20
41.0897736787
 10
22.7209692754
 20
41.0768334223
 10
22.8918786559
 20
41.0640624976
 10
23.1109487948
 20
41.051458763
 10
23.3753853761
 20
41.0391829834
 10
23.6857695355
 20
41.02723936
 10
24.0415201373
 20
41.0156236916
 10
24.4380994585
 20
41.0044841402
 10
24.8760305075
 20
40.9938268048
 10
25.3547902761
 20
40.9836455863
 10
25.8682720164
 20
40.9740703498
 10
26.4169205104
 20
40.9651088577
 10
27.0002909763
 20
40.9567533477
 10
27.6109423203
 20
40.949110397
 10
28.2492240054
 20
40.9421891335
 10
29.5991405278
 20
40.9305634789
  0
LWPOLYLINE
  5
38E
100
AcDbEntity
  8
RACCORDO
100
AcDbPolyline
 62
250
  6
CONTINUOUS
 90
4
 70
0
 10
55.0088843892
 20
-40.8221202821
 10
55.016345127
 20
-40.8588118522
 10
55.018281175
 20
-40.8687690495
 10
55.0189984384
 20
-40.8730280729
  0
LINE
  5
38F
100
AcDbEntity
  8
RACCORDO
100
AcDbLine
 62
250
  6
CONTINUOUS
 10
48.6
 20
-39.8469076856
 11
48.6
 21
-40.5
  0
LINE
  5
390
100
AcDbEntity
  8
RACCORDO
100
AcDbLine
 62
250
  6
CONTINUOUS
 10
48.9
 20
-40.9667094077
 11
48.9000000084
 21
-40.5000000001
  0
LWPOLYLINE
  5
391
100
AcDbEntity
  8
RACCORDO
100
AcDbPolyline
 62
250
  6
CONTINUOUS
 90
10
 70
0
 10
66.4603710907
 20
29.636771722
 10
66.5600203286
 20
29.5993467844
 10
66.6543113722
 20
29.56283851
 10
66.7409347149
 20
29.52814111
 10
66.8177686582
 20
29.496104441
 10
66.882931279
 20
29.4675131894
 10
66.9348265244
 20
29.4430676515
 10
66.9721833044
 20
29.4233665813
 10
66.994086625
 20
29.4088925246
 10
67.0
 20
29.4
  0
LINE
  5
392
100
AcDbEntity
  8
RACCORDO
100
AcDbLine
 62
250
  6
CONTINUOUS
 10
54.1
 20
-40.9667094077
 11
54.1
 21
-40.5
  0
LINE
  5
393
100
AcDbEntity
  8
RACCORDO
100
AcDbLine
 62
250
  6
CONTINUOUS
 10
54.4
 20
-39.8469076856
 11
54.4000000001
 21
-40.5
  0
LWPOLYLINE
  5
394
100
AcDbEntity
  8
RACCORDO
100
AcDbPolyline
 62
250
  6
CONTINUOUS
 90
3
 70
0
 10
47.9810015616
 20
-40.8730280729
 10
47.981739946
 20
-40.8686260664
 10
47.9837500403
 20
-40.8582979126
  0
LWPOLYLINE
  5
395
100
AcDbEntity
  8
RACCORDO
100
AcDbPolyline
 62
250
  6
CONTINUOUS
 90
25
 70
0
 10
47.9837500403
 20
-40.8582979126
 10
47.9915069388
 20
-40.8202098848
 10
47.997253743
 20
-40.7927014945
 10
48.0045075175
 20
-40.7599813774
 10
48.0133147299
 20
-40.7222154244
 10
48.0236289126
 20
-40.6798078006
 10
48.0355459233
 20
-40.6338196908
 10
48.0491401887
 20
-40.5847980705
 10
48.0643372822
 20
-40.5332341819
 10
48.0810097808
 20
-40.4804486012
 10
48.0991637446
 20
-40.4272145771
 10
48.1187931136
 20
-40.3738952091
 10
48.1397522849
 20
-40.321310755
 10
48.1620365754
 20
-40.27003445
 10
48.1856506683
 20
-40.2203428295
 10
48.2104630101
 20
-40.1725616296
 10
48.2364962515
 20
-40.126839241
 10
48.2637277419
 20
-40.0835430353
 10
48.2919579763
 20
-40.0432725922
 10
48.3213346437
 20
-40.0061843815
 10
48.351710055
 20
-39.9724226439
 10
48.3824416377
 20
-39.9425375026
 10
48.4133152008
 20
-39.9167594621
 10
48.4445449353
 20
-39.894996206
 10
48.4761308412
 20
-39.8772865459
  0
LWPOLYLINE
  5
396
100
AcDbEntity
  8
ASSI
100
AcDbPolyline
 62
7
  6
CONTINUOUS
 90
17
 70
0
 10
45.5
 20
-41.1159885716
 10
45.4751333499
 20
-41.129096018
 10
45.4011624165
 20
-41.1422034645
 10
45.2790307246
 20
-41.1551437209
 10
45.1081213441
 20
-41.1679146456
 10
44.8890512052
 20
-41.1805183802
 10
44.6246146239
 20
-41.1927941598
 10
44.3142304645
 20
-41.2047377832
 10
43.9584798627
 20
-41.2163534516
 10
43.5619005415
 20
-41.227493003
 10
43.1239694925
 20
-41.2381503384
 10
42.6452097239
 20
-41.2483315569
 10
42.1317279836
 20
-41.2579067934
 10
41.5830794896
 20
-41.2668682854
 10
40.9997090237
 20
-41.2752237955
 10
40.3890576797
 20
-41.2828667461
 10
39.7507759946
 20
-41.2897880096
  0
LWPOLYLINE
  5
397
100
AcDbEntity
  8
RACCORDO
100
AcDbPolyline
 62
250
  6
CONTINUOUS
 90
7
 70
0
 10
48.4761308412
 20
-39.8772865459
 10
48.4970980287
 20
-39.8678971518
 10
48.5179362852
 20
-39.8602346821
 10
48.5386456106
 20
-39.8543025528
 10
48.5592260048
 20
-39.8501031164
 10
48.579677468
 20
-39.8476378846
 10
48.6
 20
-39.8469076856
  0
LWPOLYLINE
  5
398
100
AcDbEntity
  8
0
100
AcDbPolyline
 62
7
  6
CONTINUOUS
 90
18
 70
0
 10
45.5
 20
41.1159885716
 10
45.4751333499
 20
41.129096018
 10
45.4011624165
 20
41.1422034645
 10
45.2790307246
 20
41.1551437209
 10
45.1081213441
 20
41.1679146456
 10
44.8890512052
 20
41.1805183802
 10
44.6246146239
 20
41.1927941598
 10
44.3142304645
 20
41.2047377832
 10
43.9584798627
 20
41.2163534516
 10
43.5619005415
 20
41.227493003
 10
43.1239694925
 20
41.2381503384
 10
42.6452097239
 20
41.2483315569
 10
42.1317279836
 20
41.2579067934
 10
41.5830794896
 20
41.2668682854
 10
40.9997090237
 20
41.2752237955
 10
40.3890576797
 20
41.2828667461
 10
39.7507759946
 20
41.2897880096
 10
38.4008594722
 20
41.3014136642
  0
LWPOLYLINE
  5
399
100
AcDbEntity
  8
ASSI
100
AcDbPolyline
 62
7
  6
CONTINUOUS
 90
17
 70
0
 10
67.6159885716
 20
-11.5
 10
67.6028811251
 20
-11.4751333499
 10
67.5897736787
 20
-11.4011624165
 10
67.5768334223
 20
-11.2790307246
 10
67.5640624976
 20
-11.1081213441
 10
67.551458763
 20
-10.8890512052
 10
67.5391829834
 20
-10.6246146239
 10
67.52723936
 20
-10.3142304645
 10
67.5156236916
 20
-9.9584798627
 10
67.5044841402
 20
-9.5619005415
 10
67.4938268048
 20
-9.1239694925
 10
67.4836455863
 20
-8.6452097239
 10
67.4740703498
 20
-8.1317279836
 10
67.4651088577
 20
-7.5830794896
 10
67.4567533477
 20
-6.9997090237
 10
67.449110397
 20
-6.3890576797
 10
67.4421891335
 20
-5.7507759946
  0
LINE
  5
39A
100
AcDbEntity
  8
DRAFT
100
AcDbLine
 62
7
  6
CONTINUOUS
 10
60.2242099741
 20
39.7731956082
 11
60.2242099741
 21
35.5
  0
LINE
  5
39B
100
AcDbEntity
  8
DRAFT
100
AcDbLine
 62
7
  6
CONTINUOUS
 10
60.2242099741
 20
-39.7731956082
 11
60.2242099741
 21
-35.5
  0
LINE
  5
39C
100
AcDbEntity
  8
DRAFT
100
AcDbLine
 62
7
  6
CONTINUOUS
 10
60.5
 20
39.5
 11
60.5
 21
35.5
  0
LINE
  5
39D
100
AcDbEntity
  8
DRAFT
100
AcDbLine
 62
7
  6
CONTINUOUS
 10
60.5
 20
-39.5
 11
60.5
 21
-35.5
  0
LINE
  5
39E
100
AcDbEntity
  8
DRAFT
100
AcDbLine
 62
250
  6
CONTINUOUS
 10
62.0
 20
34.0
 11
62.0
 21
33.7242099741
  0
LINE
  5
39F
100
AcDbEntity
  8
DRAFT
100
AcDbLine
 62
250
  6
CONTINUOUS
 10
62.0
 20
-34.0
 11
62.0
 21
-33.7242099741
  0
LINE
  5
3A0
100
AcDbEntity
  8
RACCORDO
100
AcDbLine
 62
250
  6
CONTINUOUS
 10
62.0
 20
-39.5
 11
62.0
 21
-41.5
  0
LINE
  5
3A1
100
AcDbEntity
  8
RACCORDO
100
AcDbLine
 62
250
  6
CONTINUOUS
 10
62.0
 20
39.5
 11
62.0
 21
41.5
  0
LWPOLYLINE
  5
3A2
100
AcDbEntity
  8
RACCORDO
100
AcDbPolyline
 62
250
  6
CONTINUOUS
 90
10
 70
0
 10
47.9461426692
 20
-40.9499522117
 10
47.9495020425
 20
-40.941329449
 10
47.9529886555
 20
-40.9327255947
 10
47.956602508
 20
-40.9241406488
 10
47.9603419739
 20
-40.9155746106
 10
47.9642086794
 20
-40.9070274808
 10
47.9682075031
 20
-40.8984992619
 10
47.9723400711
 20
-40.8899899547
 10
47.9766047573
 20
-40.8814995584
 10
47.9810015616
 20
-40.8730280729
  0
LWPOLYLINE
  5
3A3
100
AcDbEntity
  8
RACCORDO
100
AcDbPolyline
 62
7
  6
CONTINUOUS
 90
5
 70
0
 10
48.3916280796
 20
-40.7899672626
 10
48.4501424038
 20
-40.7358140012
 10
48.5105093471
 20
-40.6641581639
 10
48.5607620781
 20
-40.5850811077
 10
48.6
 20
-40.5
  0
LWPOLYLINE
  5
3A4
100
AcDbEntity
  8
RACCORDO
100
AcDbPolyline
 62
250
  6
CONTINUOUS
 90
8
 70
0
 10
55.0538573308
 20
-40.9499522117
 10
55.0518624751
 20
-40.9511767787
 10
55.0446324731
 20
-40.9523907711
 10
55.032167325
 20
-40.953594189
 10
55.0144052435
 20
-40.954795331
 10
54.9914080159
 20
-40.9559858985
 10
54.9633610038
 20
-40.9571409954
 10
54.9301043323
 20
-40.9582600379
  0
LWPOLYLINE
  5
3A5
100
AcDbEntity
  8
RACCORDO
100
AcDbPolyline
 62
250
  6
CONTINUOUS
 90
7
 70
0
 10
67.4499522038
 20
22.9461426692
 10
67.4436915739
 20
23.0396398783
 10
67.425000109
 20
23.1314614915
 10
67.3942127855
 20
23.2199619413
 10
67.3518813537
 20
23.3035551805
 10
67.2987644501
 20
23.3807431052
 10
67.2899672626
 20
23.3916280796
  0
LWPOLYLINE
  5
3A6
100
AcDbEntity
  8
RACCORDO
100
AcDbPolyline
 62
250
  6
CONTINUOUS
 90
10
 70
0
 10
67.3730240424
 20
22.9810015617
 10
67.3679580882
 20
23.0651853811
 10
67.3528052358
 20
23.1481471697
 10
67.3277854631
 20
23.2286825497
 10
67.2932619887
 20
23.3056223678
 10
67.2497359989
 20
23.3778496687
 10
67.1978393718
 20
23.4443159097
 10
67.1383255042
 20
23.5040561833
 10
67.0720583745
 20
23.5562032241
 10
67.0
 20
23.6
  0
LINE
  5
3A7
100
AcDbEntity
  8
RACCORDO
100
AcDbLine
 62
250
  6
CONTINUOUS
 10
67.4582600379
 20
29.9301043323
 11
67.460368567
 21
29.8491066224
  0
LINE
  5
3A8
100
AcDbEntity
  8
RACCORDO
100
AcDbLine
 62
250
  6
CONTINUOUS
 10
67.460368567
 20
29.8491066224
 11
67.4622389107
 21
29.7503453895
  0
LINE
  5
3A9
100
AcDbEntity
  8
RACCORDO
100
AcDbLine
 62
250
  6
CONTINUOUS
 10
67.4622389107
 20
29.7503453895
 11
67.464495586
 21
29.5751129191
  0
LINE
  5
3AA
100
AcDbEntity
  8
ASSI
100
AcDbLine
 62
7
  6
CONTINUOUS
 10
67.4421891335
 20
-5.7507759946
 11
67.4305634789
 21
-4.4008594722
  0
LINE
  5
3AB
100
AcDbEntity
  8
ASSI
100
AcDbLine
 62
7
  6
CONTINUOUS
 10
67.7897880096
 20
5.7507759946
 11
67.8014136642
 21
4.4008594722
  0
LINE
  5
3AC
100
AcDbEntity
  8
RACCORDO
100
AcDbLine
 62
250
  6
CONTINUOUS
 10
67.464495586
 20
29.5751129191
 11
67.4659890144
 21
29.3771893507
  0
LINE
  5
3AD
100
AcDbEntity
  8
ASSI
100
AcDbLine
 62
7
  6
CONTINUOUS
 10
67.4305634789
 20
-4.4008594722
 11
67.4221251231
 21
-2.9752959384
  0
LINE
  5
3AE
100
AcDbEntity
  8
ASSI
100
AcDbLine
 62
7
  6
CONTINUOUS
 10
67.8014136642
 20
4.4008594722
 11
67.80985202
 21
2.9752959384
  0
LINE
  5
3AF
100
AcDbEntity
  8
ASSI
100
AcDbLine
 62
7
  6
CONTINUOUS
 10
67.4221251231
 20
-2.9752959384
 11
67.4170163402
 21
-1.5052722393
  0
LINE
  5
3B0
100
AcDbEntity
  8
ASSI
100
AcDbLine
 62
7
  6
CONTINUOUS
 10
67.80985202
 20
2.9752959384
 11
67.814960803
 21
1.5052722393
  0
LINE
  5
3B1
100
AcDbEntity
  8
ASSI
100
AcDbLine
 62
7
  6
CONTINUOUS
 10
67.4170163402
 20
-1.5052722393
 11
67.4152858976
 21
-0.0
  0
LINE
  5
3B2
100
AcDbEntity
  8
RACCORDO
100
AcDbLine
 62
250
  6
CONTINUOUS
 10
67.4659890144
 20
29.3771893507
 11
67.4667094077
 21
29.1
  0
LINE
  5
3B3
100
AcDbEntity
  8
ASSI
100
AcDbLine
 62
7
  6
CONTINUOUS
 10
67.814960803
 20
1.5052722393
 11
67.8166912456
 21
-0.0
  0
LINE
  5
3B4
100
AcDbEntity
  8
DRAFT
100
AcDbLine
 62
7
  6
CONTINUOUS
 10
66.0
 20
-34.0
 11
66.0
 21
-35.5
  0
LINE
  5
3B5
100
AcDbEntity
  8
DRAFT
100
AcDbLine
 62
7
  6
CONTINUOUS
 10
66.0
 20
34.0
 11
66.0
 21
35.5
  0
LINE
  5
3B6
100
AcDbEntity
  8
RACCORDO
100
AcDbLine
 62
250
  6
CONTINUOUS
 10
66.2731956082
 20
-33.7242099741
 11
66.2731956082
 21
33.7242099741
  0
LINE
  5
3B7
100
AcDbEntity
  8
RACCORDO
100
AcDbLine
 62
7
  6
CONTINUOUS
 10
66.2757899725
 20
-35.5
 11
66.2757899725
 21
-33.7242100275
  0
LINE
  5
3B8
100
AcDbEntity
  8
RACCORDO
100
AcDbLine
 62
7
  6
CONTINUOUS
 10
66.2757899725
 20
33.7242100275
 11
66.2757899725
 21
35.5
  0
LINE
  5
3B9
100
AcDbEntity
  8
RACCORDO
100
AcDbLine
 62
250
  6
CONTINUOUS
 10
66.3469076856
 20
23.6
 11
66.3469076856
 21
29.4
  0
LINE
  5
3BA
100
AcDbEntity
  8
RACCORDO
100
AcDbLine
 62
7
  6
CONTINUOUS
 10
67.0
 20
23.6
 11
67.0
 21
29.4
  0
LINE
  5
3BB
100
AcDbEntity
  8
RACCORDO
100
AcDbLine
 62
250
  6
CONTINUOUS
 10
67.3730280729
 20
-35.5
 11
67.3730280729
 21
22.9810015616
  0
LINE
  5
3BC
100
AcDbEntity
  8
RACCORDO
100
AcDbLine
 62
250
  6
CONTINUOUS
 10
67.3730280729
 20
30.0189984384
 11
67.3730280729
 21
35.5
  0
LINE
  5
3BD
100
AcDbEntity
  8
DRAFT
100
AcDbLine
 62
7
  6
CONTINUOUS
 10
68.0
 20
35.5
 11
68.0
 21
-35.5
  0
LINE
  5
3BE
100
AcDbEntity
  8
ASSI
100
AcDbLine
 62
7
  6
CONTINUOUS
 10
67.4152858976
 20
-0.0
 11
67.4170163402
 21
1.5052722393
  0
LINE
  5
3BF
100
AcDbEntity
  8
ASSI
100
AcDbLine
 62
7
  6
CONTINUOUS
 10
67.8166912456
 20
-0.0
 11
67.814960803
 21
-1.5052722393
  0
LINE
  5
3C0
100
AcDbEntity
  8
RACCORDO
100
AcDbLine
 62
250
  6
CONTINUOUS
 10
67.4667094077
 20
29.1
 11
67.4663067072
 21
23.6914775114
  0
LINE
  5
3C1
100
AcDbEntity
  8
ASSI
100
AcDbLine
 62
7
  6
CONTINUOUS
 10
67.4170163402
 20
1.5052722393
 11
67.4221251231
 21
2.9752959384
  0
LINE
  5
3C2
100
AcDbEntity
  8
ASSI
100
AcDbLine
 62
7
  6
CONTINUOUS
 10
67.814960803
 20
-1.5052722393
 11
67.80985202
 21
-2.9752959384
  0
LINE
  5
3C3
100
AcDbEntity
  8
ASSI
100
AcDbLine
 62
7
  6
CONTINUOUS
 10
67.4221251231
 20
2.9752959384
 11
67.4305634789
 21
4.4008594722
  0
LINE
  5
3C4
100
AcDbEntity
  8
ASSI
100
AcDbLine
 62
7
  6
CONTINUOUS
 10
67.80985202
 20
-2.9752959384
 11
67.8014136642
 21
-4.4008594722
  0
LINE
  5
3C5
100
AcDbEntity
  8
RACCORDO
100
AcDbLine
 62
250
  6
CONTINUOUS
 10
67.4663067072
 20
23.6914775114
 11
67.4650825363
 21
23.4887082356
  0
LWPOLYLINE
  5
3C6
100
AcDbEntity
  8
ASSI
100
AcDbPolyline
 62
7
  6
CONTINUOUS
 90
18
 70
0
 10
67.4305634789
 20
4.4008594722
 10
67.4421891335
 20
5.7507759946
 10
67.449110397
 20
6.3890576797
 10
67.4567533477
 20
6.9997090237
 10
67.4651088577
 20
7.5830794896
 10
67.4740703498
 20
8.1317279836
 10
67.4836455863
 20
8.6452097239
 10
67.4938268048
 20
9.1239694925
 10
67.5044841402
 20
9.5619005415
 10
67.5156236916
 20
9.9584798627
 10
67.52723936
 20
10.3142304645
 10
67.5391829834
 20
10.6246146239
 10
67.551458763
 20
10.8890512052
 10
67.5640624976
 20
11.1081213441
 10
67.5768334223
 20
11.2790307246
 10
67.5897736787
 20
11.4011624165
 10
67.6028811251
 20
11.4751333499
 10
67.6159885716
 20
11.5
  0
LWPOLYLINE
  5
3C7
100
AcDbEntity
  8
ASSI
100
AcDbPolyline
 62
7
  6
CONTINUOUS
 90
18
 70
0
 10
67.8014136642
 20
-4.4008594722
 10
67.7897880096
 20
-5.7507759946
 10
67.7828667461
 20
-6.3890576797
 10
67.7752237955
 20
-6.9997090237
 10
67.7668682854
 20
-7.5830794896
 10
67.7579067934
 20
-8.1317279836
 10
67.7483315569
 20
-8.6452097239
 10
67.7381503384
 20
-9.1239694925
 10
67.727493003
 20
-9.5619005415
 10
67.7163534516
 20
-9.9584798627
 10
67.7047377832
 20
-10.3142304645
 10
67.6927941598
 20
-10.6246146239
 10
67.6805183802
 20
-10.8890512052
 10
67.6679146456
 20
-11.1081213441
 10
67.6551437209
 20
-11.2790307246
 10
67.6422034645
 20
-11.4011624165
 10
67.629096018
 20
-11.4751333499
 10
67.6159885716
 20
-11.5
  0
LINE
  5
3C8
100
AcDbEntity
  8
RACCORDO
100
AcDbLine
 62
250
  6
CONTINUOUS
 10
67.4650825363
 20
23.4887082356
 11
67.4630672752
 21
23.3045155419
  0
LINE
  5
3C9
100
AcDbEntity
  8
RACCORDO
100
AcDbLine
 62
250
  6
CONTINUOUS
 10
67.4630672752
 20
23.3045155419
 11
67.461331411
 21
23.1979958969
  0
LWPOLYLINE
  5
3CA
100
AcDbEntity
  8
RACCORDO
100
AcDbPolyline
 62
250
  6
CONTINUOUS
 90
10
 70
0
 10
67.461331411
 20
23.1979958969
 10
67.4593420053
 20
23.1081393175
 10
67.4582585942
 20
23.0698484093
 10
67.4571397571
 20
23.0366056964
 10
67.455984927
 20
23.0085700012
 10
67.4547946709
 20
22.9855825014
 10
67.4535937911
 20
22.9678275799
 10
67.452390555
 20
22.9553666979
 10
67.4511766952
 20
22.9481383943
 10
67.4499522117
 20
22.9461426692
  0
LWPOLYLINE
  5
3CB
100
AcDbEntity
  8
RACCORDO
100
AcDbPolyline
 62
250
  6
CONTINUOUS
 90
10
 70
0
 10
66.3469076856
 20
29.4
 10
66.3483948349
 20
29.4257173708
 10
66.3524952706
 20
29.4516711113
 10
66.359206838
 20
29.4778612216
 10
66.368282547
 20
29.5044059953
 10
66.3799596886
 20
29.5311871387
 10
66.3949566281
 20
29.5578497711
 10
66.4134980151
 20
29.584275599
 10
66.4353150788
 20
29.610582916
 10
66.4603710907
 20
29.636771722
  0
LWPOLYLINE
  5
3CC
100
AcDbEntity
  8
RACCORDO
100
AcDbPolyline
 62
250
  6
CONTINUOUS
 90
10
 70
0
 10
67.3730276287
 20
30.0189984384
 10
67.3679610327
 20
29.9348144952
 10
67.3528075961
 20
29.8518526486
 10
67.3277873022
 20
29.7713172614
 10
67.2932633724
 20
29.6943774712
 10
67.2497369928
 20
29.622150218
 10
67.1978400389
 20
29.5556840298
 10
67.1383259022
 20
29.4959438007
 10
67.0720585534
 20
29.4437967835
 10
67.0
 20
29.4
  0
LWPOLYLINE
  5
3CD
100
AcDbEntity
  8
RACCORDO
100
AcDbPolyline
 62
250
  6
CONTINUOUS
 90
6
 70
0
 10
67.4499650636
 20
30.0538573304
 10
67.4437018431
 20
29.9603599828
 10
67.4250079818
 20
29.8685385422
 10
67.3942184886
 20
29.7800385228
 10
67.3518851359
 20
29.696445916
 10
67.3015368335
 20
29.6227804435
  0
LWPOLYLINE
  5
3CE
100
AcDbEntity
  8
RACCORDO
100
AcDbPolyline
 62
250
  6
CONTINUOUS
 90
10
 70
0
 10
54.636771722
 20
-39.9603710907
 10
54.5993467844
 20
-40.0600203286
 10
54.56283851
 20
-40.1543113722
 10
54.52814111
 20
-40.2409347149
 10
54.496104441
 20
-40.3177686582
 10
54.4675131894
 20
-40.382931279
 10
54.4430676515
 20
-40.4348265244
 10
54.4233665813
 20
-40.4721833044
 10
54.4088925246
 20
-40.494086625
 10
54.4
 20
-40.5
  0
LWPOLYLINE
  5
3CF
100
AcDbEntity
  8
RACCORDO
100
AcDbPolyline
 62
7
  6
CONTINUOUS
 90
5
 70
0
 10
67.2899672626
 20
23.3916280796
 10
67.2358140012
 20
23.4501424038
 10
67.1641581639
 20
23.5105093471
 10
67.0850811077
 20
23.5607620781
 10
67.0
 20
23.6
  0
LWPOLYLINE
  5
3D0
100
AcDbEntity
  8
ASSI
100
AcDbPolyline
 62
7
  6
CONTINUOUS
 90
17
 70
0
 10
67.6159885716
 20
11.5
 10
67.629096018
 20
11.4751333499
 10
67.6422034645
 20
11.4011624165
 10
67.6551437209
 20
11.2790307246
 10
67.6679146456
 20
11.1081213441
 10
67.6805183802
 20
10.8890512052
 10
67.6927941598
 20
10.6246146239
 10
67.7047377832
 20
10.3142304645
 10
67.7163534516
 20
9.9584798627
 10
67.727493003
 20
9.5619005415
 10
67.7381503384
 20
9.1239694925
 10
67.7483315569
 20
8.6452097239
 10
67.7579067934
 20
8.1317279836
 10
67.7668682854
 20
7.5830794896
 10
67.7752237955
 20
6.9997090237
 10
67.7828667461
 20
6.3890576797
 10
67.7897880096
 20
5.7507759946
  0
LINE
  5
3D1
100
AcDbEntity
  8
DRAFT
100
AcDbLine
 62
7
  6
CONTINUOUS
 10
60.5
 20
-39.5
 11
60.2242099741
 21
-39.7757900259
  0
LINE
  5
3D2
100
AcDbEntity
  8
DRAFT
100
AcDbLine
 62
7
  6
CONTINUOUS
 10
66.0
 20
-34.0
 11
66.2757899725
 21
-33.7242100275
  0
LINE
  5
3D3
100
AcDbEntity
  8
DRAFT
100
AcDbLine
 62
7
  6
CONTINUOUS
 10
60.5
 20
39.5
 11
60.2242099741
 21
39.7757900259
  0
LINE
  5
3D4
100
AcDbEntity
  8
DRAFT
100
AcDbLine
 62
7
  6
CONTINUOUS
 10
66.0
 20
34.0
 11
66.2757899725
 21
33.7242100275
  0
LWPOLYLINE
  5
3D5
100
AcDbEntity
  8
RACCORDO
100
AcDbPolyline
 62
250
  6
CONTINUOUS
 90
8
 70
0
 10
67.4499522117
 20
30.0538573308
 10
67.4511767787
 20
30.0518624751
 10
67.4523907711
 20
30.0446324731
 10
67.453594189
 20
30.032167325
 10
67.454795331
 20
30.0144052435
 10
67.4559858985
 20
29.9914080159
 10
67.4571409954
 20
29.9633610038
 10
67.4582600379
 20
29.9301043323
  0
LWPOLYLINE
  5
3D6
100
AcDbEntity
  8
RACCORDO
100
AcDbPolyline
 62
250
  6
CONTINUOUS
 90
7
 70
0
 10
66.3772865459
 20
23.4761308412
 10
66.3678971518
 20
23.4970980287
 10
66.3602346821
 20
23.5179362852
 10
66.3543025528
 20
23.5386456106
 10
66.3501031164
 20
23.5592260048
 10
66.3476378846
 20
23.579677468
 10
66.3469076856
 20
23.6
  0
CIRCLE
  5
3D7
100
AcDbEntity
  8
RACCORDO
100
AcDbCircle
 62
7
  6
CONTINUOUS
 10
-51.5
 20
-26.5
 40
9.5
  0
CIRCLE
  5
3D8
100
AcDbEntity
  8
RACCORDO
100
AcDbCircle
 62
250
  6
CONTINUOUS
 10
-51.5
 20
-26.5
 40
8.9999972578
  0
ARC
  5
3D9
100
AcDbEntity
  8
DRAFT
100
AcDbCircle
 62
7
  6
CONTINUOUS
 10
-62.0
 20
-35.5
 40
6.0
100
AcDbArc
 50
180.0
 51
270.0
  0
ARC
  5
3DA
100
AcDbEntity
  8
RACCORDO
100
AcDbCircle
 62
250
  6
CONTINUOUS
 10
-62.0
 20
-35.5
 40
5.3730280702
100
AcDbArc
 50
180.0
 51
270.0
  0
ARC
  5
3DB
100
AcDbEntity
  8
RACCORDO
100
AcDbCircle
 62
7
  6
CONTINUOUS
 10
-62.0
 20
-35.5
 40
4.2757899725
100
AcDbArc
 50
180.0
 51
270.0
  0
ARC
  5
3DC
100
AcDbEntity
  8
DRAFT
100
AcDbCircle
 62
7
  6
CONTINUOUS
 10
-62.0
 20
-35.5
 40
4.0
100
AcDbArc
 50
180.0
 51
270.0
  0
CIRCLE
  5
3DD
100
AcDbEntity
  8
0
100
AcDbCircle
 62
7
  6
CONTINUOUS
 10
-51.5
 20
-26.5
 40
2.25
  0
CIRCLE
  5
3DE
100
AcDbEntity
  8
0
100
AcDbCircle
 62
7
  6
CONTINUOUS
 10
-51.5
 20
-26.5
 40
1.8
  0
ARC
  5
3DF
100
AcDbEntity
  8
DRAFT
100
AcDbCircle
 62
7
  6
CONTINUOUS
 10
-62.0
 20
-35.5
 40
1.7757900259
100
AcDbArc
 50
0.0
 51
90.0
  0
ARC
  5
3E0
100
AcDbEntity
  8
DRAFT
100
AcDbCircle
 62
7
  6
CONTINUOUS
 10
-62.0
 20
-35.5
 40
1.5
100
AcDbArc
 50
0.0
 51
90.0
  0
CIRCLE
  5
3E1
100
AcDbEntity
  8
0
100
AcDbCircle
 62
7
  6
CONTINUOUS
 10
-51.5
 20
-26.5
 40
1.5
  0
CIRCLE
  5
3E2
100
AcDbEntity
  8
RACCORDO
100
AcDbCircle
 62
7
  6
CONTINUOUS
 10
-51.5
 20
26.5
 40
9.5
  0
CIRCLE
  5
3E3
100
AcDbEntity
  8
RACCORDO
100
AcDbCircle
 62
250
  6
CONTINUOUS
 10
-51.5
 20
26.5
 40
8.9999972577
  0
ARC
  5
3E4
100
AcDbEntity
  8
DRAFT
100
AcDbCircle
 62
7
  6
CONTINUOUS
 10
-62.0
 20
35.5
 40
6.0
100
AcDbArc
 50
90.0
 51
180.0
  0
ARC
  5
3E5
100
AcDbEntity
  8
RACCORDO
100
AcDbCircle
 62
250
  6
CONTINUOUS
 10
-62.0
 20
35.5
 40
5.3730280702
100
AcDbArc
 50
90.0
 51
180.0
  0
CIRCLE
  5
3E6
100
AcDbEntity
  8
RACCORDO
100
AcDbCircle
 62
7
  6
CONTINUOUS
 10
-45.3
 20
-0.0
 40
4.8
  0
CIRCLE
  5
3E7
100
AcDbEntity
  8
RACCORDO
100
AcDbCircle
 62
250
  6
CONTINUOUS
 10
-45.3
 20
-0.0
 40
4.2999929909
  0
ARC
  5
3E8
100
AcDbEntity
  8
RACCORDO
100
AcDbCircle
 62
7
  6
CONTINUOUS
 10
-62.0
 20
35.5
 40
4.2757899725
100
AcDbArc
 50
90.0
 51
180.0
  0
ARC
  5
3E9
100
AcDbEntity
  8
DRAFT
100
AcDbCircle
 62
7
  6
CONTINUOUS
 10
-62.0
 20
35.5
 40
4.0
100
AcDbArc
 50
90.0
 51
180.0
  0
CIRCLE
  5
3EA
100
AcDbEntity
  8
0
100
AcDbCircle
 62
7
  6
CONTINUOUS
 10
-51.5
 20
26.5
 40
2.25
  0
CIRCLE
  5
3EB
100
AcDbEntity
  8
0
100
AcDbCircle
 62
7
  6
CONTINUOUS
 10
-51.5
 20
26.5
 40
1.8
  0
ARC
  5
3EC
100
AcDbEntity
  8
DRAFT
100
AcDbCircle
 62
7
  6
CONTINUOUS
 10
-62.0
 20
35.5
 40
1.7757900259
100
AcDbArc
 50
270.0
 51
360.0
  0
ARC
  5
3ED
100
AcDbEntity
  8
DRAFT
100
AcDbCircle
 62
7
  6
CONTINUOUS
 10
-62.0
 20
35.5
 40
1.5
100
AcDbArc
 50
270.0
 51
360.0
  0
CIRCLE
  5
3EE
100
AcDbEntity
  8
0
100
AcDbCircle
 62
7
  6
CONTINUOUS
 10
-51.5
 20
26.5
 40
1.5
  0
CIRCLE
  5
3EF
100
AcDbEntity
  8
RACCORDO
100
AcDbCircle
 62
7
  6
CONTINUOUS
 10
51.5
 20
-26.5
 40
9.5
  0
CIRCLE
  5
3F0
100
AcDbEntity
  8
RACCORDO
100
AcDbCircle
 62
250
  6
CONTINUOUS
 10
51.5
 20
-26.5
 40
8.9999972577
  0
ARC
  5
3F1
100
AcDbEntity
  8
DRAFT
100
AcDbCircle
 62
7
  6
CONTINUOUS
 10
62.0
 20
-35.5
 40
6.0
100
AcDbArc
 50
270.0
 51
360.0
  0
ARC
  5
3F2
100
AcDbEntity
  8
RACCORDO
100
AcDbCircle
 62
250
  6
CONTINUOUS
 10
62.0
 20
-35.5
 40
5.3730280702
100
AcDbArc
 50
270.0
 51
360.0
  0
ARC
  5
3F3
100
AcDbEntity
  8
RACCORDO
100
AcDbCircle
 62
7
  6
CONTINUOUS
 10
62.0
 20
-35.5
 40
4.2757899725
100
AcDbArc
 50
270.0
 51
360.0
  0
ARC
  5
3F4
100
AcDbEntity
  8
DRAFT
100
AcDbCircle
 62
7
  6
CONTINUOUS
 10
62.0
 20
-35.5
 40
4.0
100
AcDbArc
 50
270.0
 51
360.0
  0
CIRCLE
  5
3F5
100
AcDbEntity
  8
0
100
AcDbCircle
 62
7
  6
CONTINUOUS
 10
51.5
 20
-26.5
 40
2.25
  0
CIRCLE
  5
3F6
100
AcDbEntity
  8
0
100
AcDbCircle
 62
7
  6
CONTINUOUS
 10
51.5
 20
-26.5
 40
1.8
  0
ARC
  5
3F7
100
AcDbEntity
  8
DRAFT
100
AcDbCircle
 62
7
  6
CONTINUOUS
 10
62.0
 20
-35.5
 40
1.7757900259
100
AcDbArc
 50
90.0
 51
180.0
  0
ARC
  5
3F8
100
AcDbEntity
  8
DRAFT
100
AcDbCircle
 62
7
  6
CONTINUOUS
 10
62.0
 20
-35.5
 40
1.5
100
AcDbArc
 50
90.0
 51
180.0
  0
CIRCLE
  5
3F9
100
AcDbEntity
  8
0
100
AcDbCircle
 62
7
  6
CONTINUOUS
 10
51.5
 20
-26.5
 40
1.5
  0
CIRCLE
  5
3FA
100
AcDbEntity
  8
0
100
AcDbCircle
 62
7
  6
CONTINUOUS
 10
0.0
 20
-0.0
 40
11.25
  0
ARC
  5
3FB
100
AcDbEntity
  8
0
100
AcDbCircle
 62
7
  6
CONTINUOUS
 10
0.0
 20
-0.0
 40
11.0
100
AcDbArc
 50
5.7391704773
 51
84.2608295227
  0
ARC
  5
3FC
100
AcDbEntity
  8
0
100
AcDbCircle
 62
7
  6
CONTINUOUS
 10
0.0
 20
-0.0
 40
11.0
100
AcDbArc
 50
95.7391704773
 51
174.2608295227
  0
ARC
  5
3FD
100
AcDbEntity
  8
0
100
AcDbCircle
 62
7
  6
CONTINUOUS
 10
0.0
 20
-0.0
 40
11.0
100
AcDbArc
 50
275.7391704773
 51
354.2608295227
  0
ARC
  5
3FE
100
AcDbEntity
  8
0
100
AcDbCircle
 62
7
  6
CONTINUOUS
 10
0.0
 20
-0.0
 40
11.0
100
AcDbArc
 50
185.7391704773
 51
264.2608295227
  0
ARC
  5
3FF
100
AcDbEntity
  8
0
100
AcDbCircle
 62
7
  6
CONTINUOUS
 10
0.0
 20
-0.0
 40
10.1299689469
100
AcDbArc
 50
276.233965798
 51
353.766034202
  0
ARC
  5
400
100
AcDbEntity
  8
0
100
AcDbCircle
 62
7
  6
CONTINUOUS
 10
0.0
 20
-0.0
 40
10.1299689469
100
AcDbArc
 50
186.233965798
 51
263.766034202
  0
ARC
  5
401
100
AcDbEntity
  8
0
100
AcDbCircle
 62
7
  6
CONTINUOUS
 10
0.0
 20
-0.0
 40
10.1299689469
100
AcDbArc
 50
96.233965798
 51
173.766034202
  0
ARC
  5
402
100
AcDbEntity
  8
0
100
AcDbCircle
 62
7
  6
CONTINUOUS
 10
0.0
 20
-0.0
 40
10.1299689469
100
AcDbArc
 50
6.233965798
 51
83.766034202
  0
ARC
  5
403
100
AcDbEntity
  8
0
100
AcDbCircle
 62
7
  6
CONTINUOUS
 10
2.558889799
 20
29.0402578154
 40
0.05
100
AcDbArc
 50
118.332200809
 51
249.0297526306
  0
CIRCLE
  5
404
100
AcDbEntity
  8
RACCORDO
100
AcDbCircle
 62
7
  6
CONTINUOUS
 10
45.3
 20
-0.0
 40
4.8
  0
CIRCLE
  5
405
100
AcDbEntity
  8
RACCORDO
100
AcDbCircle
 62
250
  6
CONTINUOUS
 10
45.3
 20
-0.0
 40
4.299992991
  0
CIRCLE
  5
406
100
AcDbEntity
  8
RACCORDO
100
AcDbCircle
 62
7
  6
CONTINUOUS
 10
51.5
 20
26.5
 40
9.5
  0
CIRCLE
  5
407
100
AcDbEntity
  8
RACCORDO
100
AcDbCircle
 62
250
  6
CONTINUOUS
 10
51.5
 20
26.5
 40
8.9999972578
  0
ARC
  5
408
100
AcDbEntity
  8
DRAFT
100
AcDbCircle
 62
7
  6
CONTINUOUS
 10
62.0
 20
35.5
 40
6.0
100
AcDbArc
 50
0.0
 51
90.0
  0
ARC
  5
409
100
AcDbEntity
  8
RACCORDO
100
AcDbCircle
 62
250
  6
CONTINUOUS
 10
62.0
 20
35.5
 40
5.3730280702
100
AcDbArc
 50
0.0
 51
90.0
  0
ARC
  5
40A
100
AcDbEntity
  8
RACCORDO
100
AcDbCircle
 62
7
  6
CONTINUOUS
 10
62.0
 20
35.5
 40
4.2757899725
100
AcDbArc
 50
0.0
 51
90.0
  0
ARC
  5
40B
100
AcDbEntity
  8
DRAFT
100
AcDbCircle
 62
7
  6
CONTINUOUS
 10
62.0
 20
35.5
 40
4.0
100
AcDbArc
 50
0.0
 51
90.0
  0
CIRCLE
  5
40C
100
AcDbEntity
  8
0
100
AcDbCircle
 62
7
  6
CONTINUOUS
 10
51.5
 20
26.5
 40
2.25
  0
CIRCLE
  5
40D
100
AcDbEntity
  8
0
100
AcDbCircle
 62
7
  6
CONTINUOUS
 10
51.5
 20
26.5
 40
1.8
  0
ARC
  5
40E
100
AcDbEntity
  8
DRAFT
100
AcDbCircle
 62
7
  6
CONTINUOUS
 10
62.0
 20
35.5
 40
1.7757900259
100
AcDbArc
 50
180.0
 51
270.0
  0
ARC
  5
40F
100
AcDbEntity
  8
DRAFT
100
AcDbCircle
 62
7
  6
CONTINUOUS
 10
62.0
 20
35.5
 40
1.5
100
AcDbArc
 50
180.0
 51
270.0
  0
CIRCLE
  5
410
100
AcDbEntity
  8
0
100
AcDbCircle
 62
7
  6
CONTINUOUS
 10
51.5
 20
26.5
 40
1.5
  0
ENDSEC
  0
SECTION
  2
OBJECTS
  0
DICTIONARY
  5
C
100
AcDbDictionary
280
0
281
1
  3
ACAD_GROUP
350
D
  3
ACAD_MLINESTYLE
350
17
  3
ACAD_LAYOUT
350
1A
  3
ACAD_PLOTSETTINGS
350
19
  3
ACAD_PLOTSTYLENAME
350
E
  0
DICTIONARY
  5
D
102
{ACAD_REACTORS
330
C
102
}
100
AcDbDictionary
280
0
281
1
  0
ACDBDICTIONARYWDFLT
  5
E
102
{ACAD_REACTORS
330
C
102
}
100
AcDbDictionary
281
1
  3
Normal
350
F
100
AcDbDictionaryWithDefault
340
F
  0
DICTIONARY
  5
17
102
{ACAD_REACTORS
330
C
102
}
100
AcDbDictionary
280
0
281
1
  3
Standard
350
18
  0
DICTIONARY
  5
19
102
{ACAD_REACTORS
330
C
102
}
100
AcDbDictionary
281
1
  0
DICTIONARY
  5
1A
102
{ACAD_REACTORS
330
C
102
}
100
AcDbDictionary
281
1
  3
Model
350
411
  3
Layout1
350
412
  0
ACDBPLACEHOLDER
  5
F
102
{ACAD_REACTORS
330
E
102
}
  0
MLINESTYLE
  5
18
102
{ACAD_REACTORS
330
17
102
}
100
AcDbMlineStyle
  2
STANDARD
 70
0
  3

 62
256
 51
90.0
 52
90.0
 71
2
 49
0.5
 62
256
  6
BYLAYER
 49
-0.5
 62
256
  6
BYLAYER
  0
LAYOUT
  5
411
102
{ACAD_REACTORS
330
1A
102
}
100
AcDbPlotSettings
  1

  2
none_device
  4
ISO_A4_(297.00_x_210.00_MM)
  6

 40
0.0
 41
0.0
 42
0.0
 43
0.0
 44
297.0
 45
210.0
 46
0.0
 47
0.0
 48
0.0
 49
0.0
140
0.0
141
0.0
142
1.0
143
1.0
 70
1024
 72
1
 73
0
 74
0
  7

 75
0
147
1.0
148
0.0
149
0.0
100
AcDbLayout
  1
Model
 70
0
 71
0
 10
0.0
 20
0.0
 11
297.0
 21
210.0
 12
0.0
 22
0.0
 32
0.0
 14
0.0
 24
0.0
 34
0.0
 15
0.0
 25
0.0
 35
0.0
146
0.0
 13
0.0
 23
0.0
 33
0.0
 16
1.0
 26
0.0
 36
0.0
 17
0.0
 27
1.0
 37
0.0
 76
0
330
21A
345
0
346
0
  0
LAYOUT
  5
412
102
{ACAD_REACTORS
330
1A
102
}
100
AcDbPlotSettings
  1

  2
none_device
  4
ISO_A4_(297.00_x_210.00_MM)
  6

 40
0.0
 41
0.0
 42
0.0
 43
0.0
 44
297.0
 45
210.0
 46
0.0
 47
0.0
 48
0.0
 49
0.0
140
0.0
141
0.0
142
1.0
143
1.0
 70
0
 72
1
 73
0
 74
0
  7

 75
0
147
1.0
148
0.0
149
0.0
100
AcDbLayout
  1
Layout1
 70
0
 71
1
 10
0.0
 20
0.0
 11
297.0
 21
210.0
 12
0.0
 22
0.0
 32
0.0
 14
0.0
 24
0.0
 34
0.0
 15
0.0
 25
0.0
 35
0.0
146
0.0
 13
0.0
 23
0.0
 33
0.0
 16
1.0
 26
0.0
 36
0.0
 17
0.0
 27
1.0
 37
0.0
 76
0
330
21B
345
0
346
0
  0
ENDSEC
  0
EOF
