  0
SECTION
  2
HEADER
  9
$ACADVER
  1
AC1024
  9
$DWGCODEPAGE
  3
ANSI_1252
  9
$EXTMAX
 10
297.0
 20
210.0
 30
0.0
  9
$EXTMIN
 10
0.0
 20
0.0
 30
0.0
  9
$LIMMIN
 10
0.0
 20
0.0
  9
$LIMMAX
 10
297.0
 20
210.0
  9
$VIEWCTR
 10
148.5
 20
105.0
  9
$VIEWSIZE
 40
210.0
  9
$CLAYER
  8
0
  9
$LTSCALE
 40
16.335
  9
$CELTYPE
  6
BYLAYER
  9
$DIMSCALE
 40
1.0
  9
$DIMASZ
 40
3.0
  9
$DIMEXO
 40
0.5
  9
$DIMDLI
 40
11.286
  9
$DIMEXE
 40
1.5
  9
$DIMCEN
 40
2.673
  9
$DIMLFAC
 40
1.0
  9
$DIMBLK
  1
_FILLED
  9
$DIMALT
 70
0
  9
$DIMALTF
 40
0.0393700787
  9
$DIMTXT
 40
3.0
  9
$DIMTOL
 70
1
  9
$DIMLIM
 70
0
  9
$DIMTFAC
 40
1.0
  9
$DIMTP
 40
0.01
  9
$DIMTM
 40
0.01
  9
$DIMGAP
 40
0.625
  9
$DIMDSEP
 70
44
  9
$AUNITS
 70
0
  9
$PDMODE
 70
3
  9
$PDSIZE
 40
3.0
  9
$HANDSEED
  5
578
  9
$TILEMODE
 70
1
  9
$MEASUREMENT
 70
1
  9
$INSUNITS
 70
4
  0
ENDSEC
  0
SECTION
  2
CLASSES
  0
CLASS
  1
ACDBDICTIONARYWDFLT
  2
AcDbDictionaryWithDefault
  3
AutoCAD 2000
 90
0
 91
1
280
0
281
0
  0
CLASS
  1
ACDBPLACEHOLDER
  2
AcDbPlaceHolder
  3
AutoCAD 2000
 90
0
 91
1
280
0
281
0
  0
CLASS
  1
LAYOUT
  2
AcDbLayout
  3
AutoCAD 2000
 90
0
 91
0
280
0
281
0
  0
ENDSEC
  0
SECTION
  2
TABLES
  0
TABLE
  2
VPORT
  5
8
100
AcDbSymbolTable
 70
2
  0
VPORT
  5
1F4
100
AcDbSymbolTableRecord
100
AcDbViewportTableRecord
  2
*ACTIVE
 70
0
 10
0.0
 20
0.0
 11
1.0
 21
1.0
 12
148.5
 22
105.0
 13
0.0
 23
0.0
 14
1.0
 24
1.0
 15
0.0
 25
0.0
 16
0.0
 26
0.0
 36
1.0
 17
0.0
 27
0.0
 37
0.0
 40
210.0
 41
1.4142857143
 42
50.0
 43
0.0
 44
0.0
 50
0.0
 51
0.0
 71
0
 72
100
 73
1
 74
1
 75
0
 76
0
 77
0
 78
0
  0
ENDTAB
  0
TABLE
  2
LTYPE
  5
5
100
AcDbSymbolTable
 70
6
  0
LTYPE
  5
14
100
AcDbSymbolTableRecord
100
AcDbLinetypeTableRecord
  2
BYBLOCK
 70
0
  3

 72
65
 73
0
 40
0.0
  0
LTYPE
  5
15
100
AcDbSymbolTableRecord
100
AcDbLinetypeTableRecord
  2
BYLAYER
 70
0
  3

 72
65
 73
0
 40
0.0
  0
LTYPE
  5
16
100
AcDbSymbolTableRecord
100
AcDbLinetypeTableRecord
  2
CONTINUOUS
 70
64
  3
Solid line
 72
65
 73
0
 40
0.0
  0
LTYPE
  5
1F5
100
AcDbSymbolTableRecord
100
AcDbLinetypeTableRecord
  2
CENTER
 70
64
  3
____ _ ____ _ ____ _ ____ _ ____ _ ____ _ ____
 72
65
 73
4
 40
0.6
 49
0.375
 74
0
 49
-0.075
 74
0
 49
0.075
 74
0
 49
-0.075
 74
0
  0
LTYPE
  5
1F6
100
AcDbSymbolTableRecord
100
AcDbLinetypeTableRecord
  2
HIDDEN
 70
64
  3
- - - - - - - - - - - - - - - - - - - -
 72
65
 73
2
 40
0.2
 49
0.1
 74
0
 49
-0.1
 74
0
  0
LTYPE
  5
1F7
100
AcDbSymbolTableRecord
100
AcDbLinetypeTableRecord
  2
PHANTOM
 70
64
  3
_____ _ _ _____ _ _ _____ _ _ _____
 72
65
 73
6
 40
0.8
 49
0.45
 74
0
 49
-0.05
 74
0
 49
0.1
 74
0
 49
-0.05
 74
0
 49
0.1
 74
0
 49
-0.05
 74
0
  0
LTYPE
  5
1F8
100
AcDbSymbolTableRecord
100
AcDbLinetypeTableRecord
  2
DOT
 70
64
  3
. . . . . . . . . . . . . . . . . . . .
 72
65
 73
2
 40
0.2
 49
0.1
 74
0
 49
-0.1
 74
0
  0
LTYPE
  5
1F9
100
AcDbSymbolTableRecord
100
AcDbLinetypeTableRecord
  2
DASHED
 70
64
  3
- - - - - - - - - - - - - - - - - - - -
 72
65
 73
2
 40
0.2
 49
0.1
 74
0
 49
-0.1
 74
0
  0
ENDTAB
  0
TABLE
  2
LAYER
  5
2
100
AcDbSymbolTable
 70
36
  0
LAYER
  5
10
100
AcDbSymbolTableRecord
100
AcDbLayerTableRecord
  2
0
 70
0
 62
7
  6
CONTINUOUS
370
-3
390
F
  0
LAYER
  5
1FA
100
AcDbSymbolTableRecord
100
AcDbLayerTableRecord
  2
DEFAULT_1
 70
0
 62
7
  6
CENTER
370
-3
390
F
  0
LAYER
  5
1FB
100
AcDbSymbolTableRecord
100
AcDbLayerTableRecord
  2
DEFAULT_2
 70
0
 62
7
  6
HIDDEN
370
-3
390
F
  0
LAYER
  5
1FC
100
AcDbSymbolTableRecord
100
AcDbLayerTableRecord
  2
DEFAULT_3
 70
0
 62
7
  6
PHANTOM
370
-3
390
F
  0
LAYER
  5
1FD
100
AcDbSymbolTableRecord
100
AcDbLayerTableRecord
  2
ASSI
 70
0
 62
7
  6
CONTINUOUS
370
-3
390
F
  0
LAYER
  5
1FE
100
AcDbSymbolTableRecord
100
AcDbLayerTableRecord
  2
COLOR5
 70
0
 62
7
  6
CONTINUOUS
370
-3
390
F
  0
LAYER
  5
1FF
100
AcDbSymbolTableRecord
100
AcDbLayerTableRecord
  2
COORDINATE
 70
0
 62
7
  6
CONTINUOUS
370
-3
390
F
  0
LAYER
  5
200
100
AcDbSymbolTableRecord
100
AcDbLayerTableRecord
  2
COORD_ORIGINE
 70
0
 62
7
  6
CONTINUOUS
370
-3
390
F
  0
LAYER
  5
201
100
AcDbSymbolTableRecord
100
AcDbLayerTableRecord
  2
COPY_PUBLISH
 70
0
 62
7
  6
CONTINUOUS
370
-3
390
F
  0
LAYER
  5
202
100
AcDbSymbolTableRecord
100
AcDbLayerTableRecord
  2
COSMETICI
 70
0
 62
7
  6
CONTINUOUS
370
-3
390
F
  0
LAYER
  5
203
100
AcDbSymbolTableRecord
100
AcDbLayerTableRecord
  2
CURVE
 70
0
 62
7
  6
CONTINUOUS
370
-3
390
F
  0
LAYER
  5
204
100
AcDbSymbolTableRecord
100
AcDbLayerTableRecord
  2
DRAFT
 70
0
 62
7
  6
CONTINUOUS
370
-3
390
F
  0
LAYER
  5
205
100
AcDbSymbolTableRecord
100
AcDbLayerTableRecord
  2
IMPORT_IGES
 70
0
 62
7
  6
CONTINUOUS
370
-3
390
F
  0
LAYER
  5
206
100
AcDbSymbolTableRecord
100
AcDbLayerTableRecord
  2
INTF_1
 70
0
 62
7
  6
CONTINUOUS
370
-3
390
F
  0
LAYER
  5
207
100
AcDbSymbolTableRecord
100
AcDbLayerTableRecord
  2
INTF_11
 70
0
 62
7
  6
CONTINUOUS
370
-3
390
F
  0
LAYER
  5
208
100
AcDbSymbolTableRecord
100
AcDbLayerTableRecord
  2
INTF_2
 70
0
 62
7
  6
CONTINUOUS
370
-3
390
F
  0
LAYER
  5
209
100
AcDbSymbolTableRecord
100
AcDbLayerTableRecord
  2
INTF_7
 70
0
 62
7
  6
CONTINUOUS
370
-3
390
F
  0
LAYER
  5
20A
100
AcDbSymbolTableRecord
100
AcDbLayerTableRecord
  2
INTF_8
 70
0
 62
7
  6
CONTINUOUS
370
-3
390
F
  0
LAYER
  5
20B
100
AcDbSymbolTableRecord
100
AcDbLayerTableRecord
  2
NOTE
 70
0
 62
7
  6
CONTINUOUS
370
-3
390
F
  0
LAYER
  5
20C
100
AcDbSymbolTableRecord
100
AcDbLayerTableRecord
  2
PIANI
 70
0
 62
7
  6
CONTINUOUS
370
-3
390
F
  0
LAYER
  5
20D
100
AcDbSymbolTableRecord
100
AcDbLayerTableRecord
  2
PIANI_ORIGINE
 70
0
 62
7
  6
CONTINUOUS
370
-3
390
F
  0
LAYER
  5
20E
100
AcDbSymbolTableRecord
100
AcDbLayerTableRecord
  2
PUNTI
 70
0
 62
7
  6
CONTINUOUS
370
-3
390
F
  0
LAYER
  5
20F
100
AcDbSymbolTableRecord
100
AcDbLayerTableRecord
  2
RACCORDO
 70
0
 62
7
  6
CONTINUOUS
370
-3
390
F
  0
LAYER
  5
210
100
AcDbSymbolTableRecord
100
AcDbLayerTableRecord
  2
RGB__255__255__255__
 70
0
 62
7
  6
CONTINUOUS
370
-3
390
F
  0
LAYER
  5
211
100
AcDbSymbolTableRecord
100
AcDbLayerTableRecord
  2
RGB____0____0____0__
 70
0
 62
7
  6
CONTINUOUS
370
-3
390
F
  0
LAYER
  5
212
100
AcDbSymbolTableRecord
100
AcDbLayerTableRecord
  2
SIMBOLI
 70
0
 62
7
  6
CONTINUOUS
370
-3
390
F
  0
LAYER
  5
213
100
AcDbSymbolTableRecord
100
AcDbLayerTableRecord
  2
SMUSSO
 70
0
 62
7
  6
CONTINUOUS
370
-3
390
F
  0
LAYER
  5
214
100
AcDbSymbolTableRecord
100
AcDbLayerTableRecord
  2
SNAPLINE
 70
0
 62
7
  6
CONTINUOUS
370
-3
390
F
  0
LAYER
  5
215
100
AcDbSymbolTableRecord
100
AcDbLayerTableRecord
  2
SUPERFICI
 70
0
 62
7
  6
CONTINUOUS
370
-3
390
F
  0
LAYER
  5
216
100
AcDbSymbolTableRecord
100
AcDbLayerTableRecord
  2
TESTO
 70
0
 62
7
  6
CONTINUOUS
370
-3
390
F
  0
LAYER
  5
217
100
AcDbSymbolTableRecord
100
AcDbLayerTableRecord
  2
TRASH
 70
0
 62
7
  6
CONTINUOUS
370
-3
390
F
  0
LAYER
  5
218
100
AcDbSymbolTableRecord
100
AcDbLayerTableRecord
  2
XSEC_DATUMS
 70
0
 62
7
  6
CONTINUOUS
370
-3
390
F
  0
ENDTAB
  0
TABLE
  2
STYLE
  5
3
100
AcDbSymbolTable
 70
1
  0
STYLE
  5
11
100
AcDbSymbolTableRecord
100
AcDbTextStyleTableRecord
  2
STANDARD
 70
0
 40
0.0
 41
0.8
 50
0.0
 71
0
 42
0.2
  3
txt
  4

  0
STYLE
  5
219
100
AcDbSymbolTableRecord
100
AcDbTextStyleTableRecord
  2
TEXTSTYLE_1
 70
0
 40
0.0
 41
0.8
 50
0.0
 71
0
 42
0.2
  3
gdt
  4

  0
ENDTAB
  0
TABLE
  2
VIEW
  5
6
100
AcDbSymbolTable
 70
0
  0
ENDTAB
  0
TABLE
  2
UCS
  5
7
100
AcDbSymbolTable
 70
0
  0
ENDTAB
  0
TABLE
  2
APPID
  5
9
100
AcDbSymbolTable
 70
1
  0
APPID
  5
21A
100
AcDbSymbolTableRecord
100
AcDbRegAppTableRecord
  2
ACAD
 70
0
  0
ENDTAB
  0
TABLE
  2
BLOCK_RECORD
  5
1
100
AcDbSymbolTable
 70
0
  0
BLOCK_RECORD
  5
21B
100
AcDbSymbolTableRecord
100
AcDbBlockTableRecord
  2
*Model_Space
  0
BLOCK_RECORD
  5
21C
100
AcDbSymbolTableRecord
100
AcDbBlockTableRecord
  2
*Paper_Space
  0
BLOCK_RECORD
  5
21D
100
AcDbSymbolTableRecord
100
AcDbBlockTableRecord
  2
_FILLED
  0
ENDTAB
  0
TABLE
  2
DIMSTYLE
  5
A
100
AcDbSymbolTable
 70
1
100
AcDbDimStyleTable
 71
0
  0
DIMSTYLE
105
21E
100
AcDbSymbolTableRecord
100
AcDbDimStyleTableRecord
  2
STANDARD
 70
0
  3

  4

 40
1.0
 41
3.0
 42
0.5
 43
0.38
 44
1.5
 45
0.0
 46
0.0
 47
0.01
 48
0.01
140
3.0
141
0.09
142
0.0
143
25.4
144
1.0
145
0.0
146
1.0
147
0.625
 71
1
 72
0
 73
0
 74
0
 75
0
 76
0
 77
1
 78
8
 79
2
170
0
171
1
172
0
173
0
174
0
175
0
176
0
177
0
178
0
270
2
179
2
271
2
272
2
273
2
274
2
275
0
280
0
281
0
282
0
283
1
284
8
285
0
286
0
287
3
288
0
340
11
278
44
341
21D
342
21D
343
21D
344
21D
  0
ENDTAB
  0
ENDSEC
  0
SECTION
  2
BLOCKS
  0
BLOCK
  5
20
100
AcDbEntity
  8
0
100
AcDbBlockBegin
  2
*Model_Space
 70
0
 10
0.0
 20
0.0
 30
0.0
  3
*Model_Space
  1

  0
ENDBLK
  5
21
100
AcDbEntity
  8
0
100
AcDbBlockEnd
  0
BLOCK
  5
1C
100
AcDbEntity
  8
0
100
AcDbBlockBegin
  2
*Paper_Space
 70
0
 10
0.0
 20
0.0
 30
0.0
  3
*Paper_Space
  1

  0
ENDBLK
  5
1D
100
AcDbEntity
  8
0
100
AcDbBlockEnd
  0
BLOCK
  5
21F
100
AcDbEntity
  8
0
100
AcDbBlockBegin
  2
_FILLED
 70
64
 10
0.0
 20
0.0
  3
_FILLED
  1

  0
SOLID
  5
220
100
AcDbEntity
  8
0
  6
BYBLOCK
 62
0
100
AcDbTrace
 10
0.0
 20
0.0
 11
-1.0
 21
0.3166666667
 12
-1.0
 22
-0.3166666667
 13
-1.0
 23
-0.3166666667
  0
ENDBLK
  5
221
100
AcDbEntity
  8
0
  6
BYBLOCK
 62
0
100
AcDbBlockEnd
  0
ENDSEC
  0
SECTION
  2
ENTITIES
  0
LWPOLYLINE
  5
222
100
AcDbEntity
  8
0
100
AcDbPolyline
 62
250
  6
CONTINUOUS
 90
8
 70
0
 10
13.8806040641
 20
-44.9732907632
 10
13.9797329699
 20
-44.9671406034
 10
14.0773338563
 20
-44.9487555412
 10
14.1719022565
 20
-44.9184189727
 10
14.261980448
 20
-44.8765985199
 10
14.3461799222
 20
-44.8239388234
 10
14.4232027882
 20
-44.7612516047
 10
14.437348211
 20
-44.7478757395
  0
LWPOLYLINE
  5
223
100
AcDbEntity
  8
0
100
AcDbPolyline
 62
7
  6
CONTINUOUS
 90
19
 70
0
 10
13.9233915413
 20
-44.8963971187
 10
13.9655663556
 20
-44.89447356
 10
14.007480448
 20
-44.8903971393
 10
14.0491338183
 20
-44.8841675056
 10
14.0906144522
 20
-44.8757933972
 10
14.1318343641
 20
-44.8652804023
 10
14.1725295968
 20
-44.8526201924
 10
14.21265612
 20
-44.8378430935
 10
14.252257964
 20
-44.8209440845
 10
14.2912032618
 20
-44.8018226302
 10
14.3295559877
 20
-44.780444478
 10
14.3672521674
 20
-44.7568176896
 10
14.4039680116
 20
-44.7308589962
 10
14.4397077556
 20
-44.70259142
 10
14.4744671641
 20
-44.6719775112
 10
14.5079097422
 20
-44.6387959847
 10
14.5399233252
 20
-44.6029406675
 10
14.5706200777
 20
-44.5644660522
 10
14.6
 20
-44.5233690458
  0
LINE
  5
224
100
AcDbEntity
  8
0
100
AcDbLine
 62
250
  6
CONTINUOUS
 10
20.9877775347
 20
-44.9821826029
 11
20.9012822569
 21
-44.9844399821
  0
LINE
  5
225
100
AcDbEntity
  8
0
100
AcDbLine
 62
250
  6
CONTINUOUS
 10
20.9012822569
 20
-44.9844399821
 11
20.7957368149
 21
-44.9864428946
  0
LINE
  5
226
100
AcDbEntity
  8
0
100
AcDbLine
 62
7
  6
CONTINUOUS
 10
7.7474999019
 20
-45.2876786832
 11
6.6435225932
 21
-45.3031760535
  0
LINE
  5
227
100
AcDbEntity
  8
0
100
AcDbLine
 62
250
  6
CONTINUOUS
 10
20.7957368149
 20
-44.9864428946
 11
20.6083525596
 21
-44.9888600948
  0
LINE
  5
228
100
AcDbEntity
  8
0
100
AcDbLine
 62
7
  6
CONTINUOUS
 10
6.6435225932
 20
-45.3031760535
 11
5.4412503899
 21
-45.3161678942
  0
LINE
  5
229
100
AcDbEntity
  8
0
100
AcDbLine
 62
7
  6
CONTINUOUS
 10
5.4412503899
 20
-45.3161678942
 11
4.1542791612
 21
-45.3265072873
  0
LINE
  5
22A
100
AcDbEntity
  8
0
100
AcDbLine
 62
7
  6
CONTINUOUS
 10
4.1542791612
 20
-45.3265072873
 11
2.8040759678
 21
-45.3339980896
  0
LINE
  5
22B
100
AcDbEntity
  8
0
100
AcDbLine
 62
7
  6
CONTINUOUS
 10
2.8040759678
 20
-45.3339980896
 11
1.4167418309
 21
-45.3385285413
  0
LINE
  5
22C
100
AcDbEntity
  8
0
100
AcDbLine
 62
7
  6
CONTINUOUS
 10
1.4167418309
 20
-45.3385285413
 11
0.0
 21
-45.3400602914
  0
LINE
  5
22D
100
AcDbEntity
  8
DRAFT
100
AcDbLine
 62
7
  6
CONTINUOUS
 10
-28.0
 20
-45.5233690458
 11
28.0
 21
-45.5233690458
  0
LINE
  5
22E
100
AcDbEntity
  8
ASSI
100
AcDbLine
 62
7
  6
CONTINUOUS
 10
28.0
 20
-45.5233690458
 11
-28.0
 21
-45.5233690458
  0
LINE
  5
22F
100
AcDbEntity
  8
0
100
AcDbLine
 62
7
  6
CONTINUOUS
 10
0.0
 20
-45.3400602914
 11
-1.4167418309
 21
-45.3385285413
  0
LINE
  5
230
100
AcDbEntity
  8
0
100
AcDbLine
 62
7
  6
CONTINUOUS
 10
-1.4167418309
 20
-45.3385285413
 11
-2.8040759678
 21
-45.3339980896
  0
LINE
  5
231
100
AcDbEntity
  8
0
100
AcDbLine
 62
7
  6
CONTINUOUS
 10
-2.8040759678
 20
-45.3339980896
 11
-4.1542791612
 21
-45.3265072873
  0
LINE
  5
232
100
AcDbEntity
  8
0
100
AcDbLine
 62
7
  6
CONTINUOUS
 10
-4.1542791612
 20
-45.3265072873
 11
-5.4412503899
 21
-45.3161678942
  0
LINE
  5
233
100
AcDbEntity
  8
0
100
AcDbLine
 62
7
  6
CONTINUOUS
 10
-5.4412503899
 20
-45.3161678942
 11
-6.6435225932
 21
-45.3031760535
  0
LWPOLYLINE
  5
234
100
AcDbEntity
  8
0
100
AcDbPolyline
 62
7
  6
CONTINUOUS
 90
16
 70
0
 10
-6.6435225932
 20
-45.3031760535
 10
-7.7474999019
 20
-45.2876786832
 10
-8.2551838284
 20
-45.2790818116
 10
-8.7335531086
 20
-45.2699237294
 10
-9.1771981137
 20
-45.2603080004
 10
-9.5857246794
 20
-45.2502294299
 10
-9.95952697
 20
-45.2396932127
 10
-10.2943778506
 20
-45.2288184973
 10
-10.5898351732
 20
-45.2176014415
 10
-10.8463410857
 20
-45.2060458876
 10
-11.0609948965
 20
-45.1942825113
 10
-11.2333215313
 20
-45.1823089536
 10
-11.3637960644
 20
-45.1701275735
 10
-11.4509430274
 20
-45.1578761239
 10
-11.4942705975
 20
-45.1455538094
 10
-11.5
 20
-45.1393576174
  0
LINE
  5
235
100
AcDbEntity
  8
DRAFT
100
AcDbLine
 62
7
  6
CONTINUOUS
 10
-26.5
 20
-43.5233690458
 11
-26.2242099741
 21
-43.7991590717
  0
LINE
  5
236
100
AcDbEntity
  8
DRAFT
100
AcDbLine
 62
7
  6
CONTINUOUS
 10
-32.0
 20
-38.0233690458
 11
-32.2757899725
 21
-37.7475790734
  0
LWPOLYLINE
  5
237
100
AcDbEntity
  8
0
100
AcDbPolyline
 62
250
  6
CONTINUOUS
 90
8
 70
0
 10
-33.4499217485
 20
-34.1427649818
 10
-33.4512328023
 20
-34.140761999
 10
-33.4525326416
 20
-34.1331440322
 10
-33.4538212666
 20
-34.1199110815
 10
-33.4551075974
 20
-34.100996689
 10
-33.4563827137
 20
-34.0764673127
 10
-33.4576198546
 20
-34.0465223256
 10
-33.4588184195
 20
-34.0109874056
  0
LINE
  5
238
100
AcDbEntity
  8
DRAFT
100
AcDbLine
 62
7
  6
CONTINUOUS
 10
-32.0
 20
29.9766309542
 11
-32.2757899725
 21
29.7008409817
  0
LINE
  5
239
100
AcDbEntity
  8
DRAFT
100
AcDbLine
 62
7
  6
CONTINUOUS
 10
-26.5
 20
35.4766309542
 11
-26.2242099741
 21
35.75242098
  0
LWPOLYLINE
  5
23A
100
AcDbEntity
  8
0
100
AcDbPolyline
 62
250
  6
CONTINUOUS
 90
8
 70
0
 10
-21.119395936
 20
36.9265527026
 10
-21.1173897144
 20
36.9278634809
 10
-21.1097772139
 20
36.9291628788
 10
-21.0965584344
 20
36.9304508965
 10
-21.0776678813
 20
36.9317363533
 10
-21.0531710492
 20
36.9330104297
 10
-21.0232644223
 20
36.9342466675
 10
-20.9877775347
 20
36.9354445112
  0
LWPOLYLINE
  5
23B
100
AcDbEntity
  8
RACCORDO
100
AcDbPolyline
 62
250
  6
CONTINUOUS
 90
14
 70
0
 10
-13.2306563413
 20
39.4958632418
 10
-13.2553630748
 20
39.4860722025
 10
-13.255369705
 20
39.4755113051
 10
-13.2278026906
 20
39.4649707673
 10
-13.1728741175
 20
39.4544848465
 10
-13.0907544712
 20
39.4440626618
 10
-12.9814686333
 20
39.4337073135
 10
-12.844996965
 20
39.4234285589
 10
-12.6816642906
 20
39.4132601962
 10
-12.492091023
 20
39.4032409249
 10
-12.2769960466
 20
39.3934022328
 10
-12.0366908881
 20
39.3837526561
 10
-11.771274175
 20
39.3742960909
 10
-11.1664154588
 20
39.3560228936
  0
LWPOLYLINE
  5
23C
100
AcDbEntity
  8
RACCORDO
100
AcDbPolyline
 62
250
  6
CONTINUOUS
 90
14
 70
0
 10
-11.6029478427
 20
41.2217136584
 10
-11.6245070891
 20
41.2132088758
 10
-11.6241849012
 20
41.2035433844
 10
-11.5975265094
 20
41.1938973905
 10
-11.5447355019
 20
41.1843036616
 10
-11.4659827773
 20
41.1747726698
 10
-11.3613102828
 20
41.1653095004
 10
-11.2307234976
 20
41.1559250431
 10
-11.0745575014
 20
41.146651734
 10
-10.8934338171
 20
41.1375264804
 10
-10.6880761014
 20
41.1285797208
 10
-10.4588172465
 20
41.1198206708
 10
-10.2057797442
 20
41.1112540168
 10
-9.6297565967
 20
41.0947586598
  0
LWPOLYLINE
  5
23D
100
AcDbEntity
  8
RACCORDO
100
AcDbPolyline
 62
250
  6
CONTINUOUS
 90
12
 70
0
 10
-9.8566649333
 20
43.0596361926
 10
-9.8747660933
 20
43.0525685609
 10
-9.874373019
 20
43.0439690067
 10
-9.8493671663
 20
43.0353711557
 10
-9.7996413733
 20
43.0267841914
 10
-9.7252584537
 20
43.0182422027
 10
-9.6265642215
 20
43.009784972
 10
-9.5040751963
 20
43.0014452186
 10
-9.3580505421
 20
42.9932313297
 10
-9.1885465643
 20
42.9851464149
 10
-8.9956319706
 20
42.9772002615
 10
-8.5424391979
 20
42.9618546417
  0
LWPOLYLINE
  5
23E
100
AcDbEntity
  8
0
100
AcDbPolyline
 62
7
  6
CONTINUOUS
 90
13
 70
0
 10
-5.9872670073
 20
45.3981737669
 10
-5.9980733731
 20
45.3939703097
 10
-5.9980733731
 20
45.3887404814
 10
-5.9832227831
 20
45.3835300757
 10
-5.9534110239
 20
45.3783392375
 10
-5.9087486747
 20
45.373167822
 10
-5.8495674731
 20
45.3680542409
 10
-5.7757593101
 20
45.3629989247
 10
-5.6874322948
 20
45.358001443
 10
-5.5852424919
 20
45.3530989153
 10
-5.4690866775
 20
45.3482920487
 10
-5.3390680756
 20
45.3435801361
 10
-5.0402436859
 20
45.3345471366
  0
LWPOLYLINE
  5
23F
100
AcDbEntity
  8
RACCORDO
100
AcDbPolyline
 62
250
  6
CONTINUOUS
 90
12
 70
0
 10
-8.1103821128
 20
44.8305816076
 10
-8.1249731585
 20
44.824978587
 10
-8.1247383769
 20
44.817547583
 10
-8.1021705227
 20
44.8101192596
 10
-8.0571841342
 20
44.8027038664
 10
-7.989849716
 20
44.795332355
 10
-7.9004930747
 20
44.7880403975
 10
-7.7895984668
 20
44.780857788
 10
-7.6574296715
 20
44.7737938114
 10
-7.504074804
 20
44.7668531822
 10
-7.3296350103
 20
44.7600461223
 10
-6.9202926879
 20
44.7469519278
  0
LWPOLYLINE
  5
240
100
AcDbEntity
  8
RACCORDO
100
AcDbPolyline
 62
250
  6
CONTINUOUS
 90
11
 70
0
 10
-3.8694092543
 20
46.5245291391
 10
-3.8761810479
 20
46.5219804496
 10
-3.8753250683
 20
46.5177796724
 10
-3.8595653656
 20
46.5135930451
 10
-3.8290780315
 20
46.5094432412
 10
-3.7840204692
 20
46.5053392758
 10
-3.7244592314
 20
46.5012870442
 10
-3.6504477333
 20
46.4972961793
 10
-3.5623023411
 20
46.4933885856
 10
-3.4605577042
 20
46.4895880175
 10
-3.2184400229
 20
46.4823742589
  0
LWPOLYLINE
  5
241
100
AcDbEntity
  8
0
100
AcDbPolyline
 62
7
  6
CONTINUOUS
 90
11
 70
0
 10
-0.9978905893
 20
47.292198995
 10
-0.9991191665
 20
47.2917717627
 10
-0.9991191665
 20
47.2903602699
 10
-0.9927088741
 20
47.2889623612
 10
-0.9797641084
 20
47.2875782997
 10
-0.9604090503
 20
47.2862078223
 10
-0.9350162427
 20
47.2848773077
 10
-0.9034687216
 20
47.2835875301
 10
-0.865883451
 20
47.2823377153
 10
-0.8229838659
 20
47.2811519195
 10
-0.7210358529
 20
47.2789748654
  0
LINE
  5
242
100
AcDbEntity
  8
0
100
AcDbLine
 62
7
  6
CONTINUOUS
 10
-7.7474999019
 20
-44.9910365516
 11
-6.6435225932
 21
-44.9755391813
  0
LINE
  5
243
100
AcDbEntity
  8
0
100
AcDbLine
 62
7
  6
CONTINUOUS
 10
-6.6435225932
 20
-44.9755391813
 11
-5.4412503899
 21
-44.9625473406
  0
LINE
  5
244
100
AcDbEntity
  8
0
100
AcDbLine
 62
7
  6
CONTINUOUS
 10
-5.4412503899
 20
-44.9625473406
 11
-4.1542791612
 21
-44.9522079475
  0
LINE
  5
245
100
AcDbEntity
  8
0
100
AcDbLine
 62
250
  6
CONTINUOUS
 10
20.6083525596
 20
-44.9888600948
 11
20.3966311253
 21
-44.9904600383
  0
LINE
  5
246
100
AcDbEntity
  8
0
100
AcDbLine
 62
7
  6
CONTINUOUS
 10
-4.1542791612
 20
-44.9522079475
 11
-2.8040759678
 21
-44.9447171452
  0
LINE
  5
247
100
AcDbEntity
  8
0
100
AcDbLine
 62
7
  6
CONTINUOUS
 10
-2.8040759678
 20
-44.9447171452
 11
-1.4167418309
 21
-44.9401866935
  0
LINE
  5
248
100
AcDbEntity
  8
0
100
AcDbLine
 62
250
  6
CONTINUOUS
 10
20.3966311253
 20
-44.9904600383
 11
20.1
 21
-44.9912319861
  0
LINE
  5
249
100
AcDbEntity
  8
0
100
AcDbLine
 62
7
  6
CONTINUOUS
 10
-1.4167418309
 20
-44.9401866935
 11
-0.0
 21
-44.9386549434
  0
LINE
  5
24A
100
AcDbEntity
  8
0
100
AcDbLine
 62
250
  6
CONTINUOUS
 10
-28.0
 20
-44.8963971187
 11
13.923397555
 21
-44.8963971187
  0
LINE
  5
24B
100
AcDbEntity
  8
0
100
AcDbLine
 62
250
  6
CONTINUOUS
 10
21.0766024408
 20
-44.8963971187
 11
28.0
 21
-44.8963971187
  0
LINE
  5
24C
100
AcDbEntity
  8
0
100
AcDbLine
 62
7
  6
CONTINUOUS
 10
14.6
 20
-44.5233690458
 11
20.4
 21
-44.5233690458
  0
LINE
  5
24D
100
AcDbEntity
  8
RACCORDO
100
AcDbLine
 62
7
  6
CONTINUOUS
 10
-28.0
 20
-43.7991590183
 11
-26.2242100275
 21
-43.7991590183
  0
LINE
  5
24E
100
AcDbEntity
  8
RACCORDO
100
AcDbLine
 62
7
  6
CONTINUOUS
 10
28.0
 20
-43.7991590183
 11
26.2242100275
 21
-43.7991590183
  0
LINE
  5
24F
100
AcDbEntity
  8
RACCORDO
100
AcDbLine
 62
250
  6
CONTINUOUS
 10
-26.2242099741
 20
-43.7965646541
 11
26.2242099741
 21
-43.7965646541
  0
LINE
  5
250
100
AcDbEntity
  8
DRAFT
100
AcDbLine
 62
7
  6
CONTINUOUS
 10
-28.0
 20
-43.5233690458
 11
-26.5
 21
-43.5233690458
  0
LINE
  5
251
100
AcDbEntity
  8
DRAFT
100
AcDbLine
 62
7
  6
CONTINUOUS
 10
28.0
 20
-43.5233690458
 11
26.5
 21
-43.5233690458
  0
LINE
  5
252
100
AcDbEntity
  8
0
100
AcDbLine
 62
7
  6
CONTINUOUS
 10
-0.0
 20
-44.9386549434
 11
1.4167418309
 21
-44.9401866935
  0
LINE
  5
253
100
AcDbEntity
  8
0
100
AcDbLine
 62
250
  6
CONTINUOUS
 10
20.1
 20
-44.9912319861
 11
14.6768780084
 21
-44.9908005846
  0
LINE
  5
254
100
AcDbEntity
  8
0
100
AcDbLine
 62
7
  6
CONTINUOUS
 10
1.4167418309
 20
-44.9401866935
 11
2.8040759678
 21
-44.9447171452
  0
LINE
  5
255
100
AcDbEntity
  8
0
100
AcDbLine
 62
7
  6
CONTINUOUS
 10
2.8040759678
 20
-44.9447171452
 11
4.1542791612
 21
-44.9522079475
  0
LINE
  5
256
100
AcDbEntity
  8
0
100
AcDbLine
 62
250
  6
CONTINUOUS
 10
14.6768780084
 20
-44.9908005846
 11
14.4600371372
 21
-44.9894899187
  0
LINE
  5
257
100
AcDbEntity
  8
0
100
AcDbLine
 62
7
  6
CONTINUOUS
 10
4.1542791612
 20
-44.9522079475
 11
5.4412503899
 21
-44.9625473406
  0
LINE
  5
258
100
AcDbEntity
  8
0
100
AcDbLine
 62
7
  6
CONTINUOUS
 10
5.4412503899
 20
-44.9625473406
 11
6.6435225932
 21
-44.9755391813
  0
LINE
  5
259
100
AcDbEntity
  8
0
100
AcDbLine
 62
250
  6
CONTINUOUS
 10
14.4600371372
 20
-44.9894899187
 11
14.2630832044
 21
-44.9873324514
  0
LWPOLYLINE
  5
25A
100
AcDbEntity
  8
0
100
AcDbPolyline
 62
7
  6
CONTINUOUS
 90
16
 70
0
 10
6.6435225932
 20
-44.9755391813
 10
7.7474999019
 20
-44.9910365516
 10
8.2551838284
 20
-44.9996334232
 10
8.7335531086
 20
-45.0087915055
 10
9.1771981137
 20
-45.0184072344
 10
9.5857246794
 20
-45.028485805
 10
9.95952697
 20
-45.0390220222
 10
10.2943778506
 20
-45.0498967375
 10
10.5898351732
 20
-45.0611137933
 10
10.8463410857
 20
-45.0726693472
 10
11.0609948965
 20
-45.0844327235
 10
11.2333215313
 20
-45.0964062813
 10
11.3637960644
 20
-45.1085876613
 10
11.4509430274
 20
-45.1208391109
 10
11.4942705975
 20
-45.1331614254
 10
11.5
 20
-45.1393576174
  0
LINE
  5
25B
100
AcDbEntity
  8
0
100
AcDbLine
 62
250
  6
CONTINUOUS
 10
14.2630832044
 20
-44.9873324514
 11
14.1491987609
 21
-44.9854738868
  0
LWPOLYLINE
  5
25C
100
AcDbEntity
  8
0
100
AcDbPolyline
 62
250
  6
CONTINUOUS
 90
10
 70
0
 10
14.1491987609
 20
-44.9854738868
 10
14.0531623698
 20
-44.9833437129
 10
14.0122548231
 20
-44.9821835902
 10
13.9767582441
 20
-44.9809856032
 10
13.9468438943
 20
-44.9797491909
 10
13.9223405122
 20
-44.9784749143
 10
13.9034451345
 20
-44.9771892852
 10
13.89022344
 20
-44.9759011408
 10
13.8826097498
 20
-44.9746016438
 10
13.880604064
 20
-44.9732907943
  0
LWPOLYLINE
  5
25D
100
AcDbEntity
  8
0
100
AcDbPolyline
 62
250
  6
CONTINUOUS
 90
7
 70
0
 10
21.1193959357
 20
-44.9733002173
 10
21.0202668787
 20
-44.9671482723
 10
20.9226660438
 20
-44.9487615333
 10
20.8280978689
 20
-44.918423417
 10
20.7380200463
 20
-44.876601561
 10
20.6538210528
 20
-44.8239406153
 10
20.5742287326
 20
-44.7588701868
  0
LWPOLYLINE
  5
25E
100
AcDbEntity
  8
0
100
AcDbPolyline
 62
7
  6
CONTINUOUS
 90
4
 70
0
 10
-33.223983283
 20
-27.4612569485
 10
-33.1661341088
 20
-27.5152308243
 10
-33.0864303921
 20
-27.5744675963
 10
-33.0
 20
-27.6233690458
  0
LWPOLYLINE
  5
25F
100
AcDbEntity
  8
0
100
AcDbPolyline
 62
7
  6
CONTINUOUS
 90
9
 70
0
 10
3.6
 20
45.3913553955
 10
3.5938615534
 20
45.3877064236
 10
3.5755693092
 20
45.3840574516
 10
3.5453079108
 20
45.3804453127
 10
3.5029561329
 20
45.3768703798
 10
3.4486352008
 20
45.37333228
 10
3.3828934348
 20
45.3698667272
 10
3.3056151629
 20
45.366474456
 10
3.216916057
 20
45.3631547317
  0
LINE
  5
260
100
AcDbEntity
  8
DRAFT
100
AcDbLine
 62
250
  6
CONTINUOUS
 10
-26.5
 20
-39.5233690458
 11
-26.2242099741
 21
-39.5233690458
  0
LINE
  5
261
100
AcDbEntity
  8
DRAFT
100
AcDbLine
 62
250
  6
CONTINUOUS
 10
26.5
 20
-39.5233690458
 11
26.2242099741
 21
-39.5233690458
  0
LINE
  5
262
100
AcDbEntity
  8
RACCORDO
100
AcDbLine
 62
250
  6
CONTINUOUS
 10
32.0
 20
-39.5233690458
 11
34.0
 21
-39.5233690458
  0
LINE
  5
263
100
AcDbEntity
  8
RACCORDO
100
AcDbLine
 62
250
  6
CONTINUOUS
 10
-32.0
 20
-39.5233690458
 11
-34.0
 21
-39.5233690458
  0
LINE
  5
264
100
AcDbEntity
  8
DRAFT
100
AcDbLine
 62
7
  6
CONTINUOUS
 10
28.0
 20
-38.0233690458
 11
32.0
 21
-38.0233690458
  0
LINE
  5
265
100
AcDbEntity
  8
DRAFT
100
AcDbLine
 62
7
  6
CONTINUOUS
 10
-28.0
 20
-38.0233690458
 11
-32.0
 21
-38.0233690458
  0
LINE
  5
266
100
AcDbEntity
  8
DRAFT
100
AcDbLine
 62
7
  6
CONTINUOUS
 10
28.0
 20
-37.74757902
 11
32.2731956082
 21
-37.74757902
  0
LINE
  5
267
100
AcDbEntity
  8
DRAFT
100
AcDbLine
 62
7
  6
CONTINUOUS
 10
-28.0
 20
-37.74757902
 11
-32.2731956082
 21
-37.74757902
  0
LWPOLYLINE
  5
268
100
AcDbEntity
  8
0
100
AcDbPolyline
 62
250
  6
CONTINUOUS
 90
10
 70
0
 10
-33.4499217485
 20
-26.9039731098
 10
-33.441287266
 20
-26.9082356753
 10
-33.4326754337
 20
-26.9126198084
 10
-33.4240862517
 20
-26.9171255093
 10
-33.4155196734
 20
-26.9217507791
 10
-33.4069757452
 20
-26.9264976166
 10
-33.3984546071
 20
-26.9313720179
 10
-33.3899563057
 20
-26.9363759817
 10
-33.3814807943
 20
-26.9415075094
 10
-33.3730280729
 20
-26.9467666009
  0
LWPOLYLINE
  5
269
100
AcDbEntity
  8
0
100
AcDbPolyline
 62
250
  6
CONTINUOUS
 90
8
 70
0
 10
-33.4499217173
 20
-26.9039731099
 10
-33.4437715575
 20
-27.0031020158
 10
-33.4253864954
 20
-27.1007029022
 10
-33.3950499268
 20
-27.1952713024
 10
-33.3532294741
 20
-27.2853494938
 10
-33.3005697776
 20
-27.3695489681
 10
-33.2378825589
 20
-27.446571834
 10
-33.223983283
 20
-27.4612569485
  0
LWPOLYLINE
  5
26A
100
AcDbEntity
  8
0
100
AcDbPolyline
 62
7
  6
CONTINUOUS
 90
19
 70
0
 10
-33.3730280729
 20
-26.9467605871
 10
-33.3711045091
 20
-26.9889354724
 10
-33.3670280777
 20
-27.0308496225
 10
-33.3607984293
 20
-27.0725030374
 10
-33.3524243049
 20
-27.1139837011
 10
-33.3419112943
 20
-27.1552036295
 10
-33.3292510692
 20
-27.1958988708
 10
-33.3144739562
 20
-27.2360253961
 10
-33.2975749356
 20
-27.2756272342
 10
-33.2784534733
 20
-27.31457252
 10
-33.2570753183
 20
-27.3529252263
 10
-33.2334485325
 20
-27.3906213802
 10
-33.2074898448
 20
-27.4273371988
 10
-33.1792222755
 20
-27.4630769194
 10
-33.1486083764
 20
-27.4978363047
 10
-33.1154268642
 20
-27.5312788595
 10
-33.0795715665
 20
-27.5632924187
 10
-33.0410969761
 20
-27.5939891475
 10
-33.0
 20
-27.6233690458
  0
LINE
  5
26B
100
AcDbEntity
  8
0
100
AcDbLine
 62
250
  6
CONTINUOUS
 10
-33.4588184195
 20
-34.0109874056
 11
-33.4610766631
 21
-33.9243930738
  0
LINE
  5
26C
100
AcDbEntity
  8
0
100
AcDbLine
 62
250
  6
CONTINUOUS
 10
-33.4610766631
 20
-33.9243930738
 11
-33.4630790109
 21
-33.8187870726
  0
LWPOLYLINE
  5
26D
100
AcDbEntity
  8
0
100
AcDbPolyline
 62
7
  6
CONTINUOUS
 90
15
 70
0
 10
-33.7643096374
 20
-11.7708689478
 10
-33.7557127658
 20
-12.2785528743
 10
-33.7465546835
 20
-12.7569221544
 10
-33.7369389546
 20
-13.2005671596
 10
-33.726860384
 20
-13.6090937252
 10
-33.7163241668
 20
-13.9828960159
 10
-33.7054494515
 20
-14.3177468964
 10
-33.6942323957
 20
-14.613204219
 10
-33.6826768418
 20
-14.8697101315
 10
-33.6709134655
 20
-15.0843639423
 10
-33.6589399077
 20
-15.2566905771
 10
-33.6467585277
 20
-15.3871651102
 10
-33.6345070781
 20
-15.4743120732
 10
-33.6221847636
 20
-15.5176396433
 10
-33.6159885716
 20
-15.5233690458
  0
LWPOLYLINE
  5
26E
100
AcDbEntity
  8
0
100
AcDbPolyline
 62
7
  6
CONTINUOUS
 90
15
 70
0
 10
-33.4676675058
 20
3.7241308561
 10
-33.4762643774
 20
4.2318147826
 10
-33.4854224596
 20
4.7101840627
 10
-33.4950381886
 20
5.1538290679
 10
-33.5051167591
 20
5.5623556335
 10
-33.5156529763
 20
5.9361579242
 10
-33.5265276917
 20
6.2710088047
 10
-33.5377447475
 20
6.5664661273
 10
-33.5493003014
 20
6.8229720398
 10
-33.5610636777
 20
7.0376258506
 10
-33.5730372354
 20
7.2099524854
 10
-33.5852186155
 20
7.3404270185
 10
-33.5974700651
 20
7.4275739816
 10
-33.6097923796
 20
7.4709015517
 10
-33.6159885716
 20
7.4766309542
  0
LINE
  5
26F
100
AcDbEntity
  8
0
100
AcDbLine
 62
7
  6
CONTINUOUS
 10
-33.7798070077
 20
-10.666891639
 11
-33.7643096374
 21
-11.7708689478
  0
LINE
  5
270
100
AcDbEntity
  8
0
100
AcDbLine
 62
7
  6
CONTINUOUS
 10
-33.4521701355
 20
2.6201535474
 11
-33.4676675058
 21
3.7241308561
  0
LINE
  5
271
100
AcDbEntity
  8
0
100
AcDbLine
 62
250
  6
CONTINUOUS
 10
-33.4630790109
 20
-33.8187870726
 11
-33.4654939071
 21
-33.6314400204
  0
LINE
  5
272
100
AcDbEntity
  8
0
100
AcDbLine
 62
7
  6
CONTINUOUS
 10
-33.7927988484
 20
-9.4646194357
 11
-33.7798070077
 21
-10.666891639
  0
LINE
  5
273
100
AcDbEntity
  8
0
100
AcDbLine
 62
7
  6
CONTINUOUS
 10
-33.4391782948
 20
1.417881344
 11
-33.4521701355
 21
2.6201535474
  0
LINE
  5
274
100
AcDbEntity
  8
0
100
AcDbLine
 62
7
  6
CONTINUOUS
 10
-33.8031382415
 20
-8.177648207
 11
-33.7927988484
 21
-9.4646194357
  0
LINE
  5
275
100
AcDbEntity
  8
0
100
AcDbLine
 62
7
  6
CONTINUOUS
 10
-33.4288389017
 20
0.1309101153
 11
-33.4391782948
 21
1.417881344
  0
LINE
  5
276
100
AcDbEntity
  8
0
100
AcDbLine
 62
250
  6
CONTINUOUS
 10
-33.4654939071
 20
-33.6314400204
 11
-33.4670917502
 21
-33.4198667116
  0
LINE
  5
277
100
AcDbEntity
  8
0
100
AcDbLine
 62
7
  6
CONTINUOUS
 10
-33.8106290438
 20
-6.8274450136
 11
-33.8031382415
 21
-8.177648207
  0
LINE
  5
278
100
AcDbEntity
  8
0
100
AcDbLine
 62
7
  6
CONTINUOUS
 10
-33.4213480994
 20
-1.2192930781
 11
-33.4288389017
 21
0.1309101153
  0
LINE
  5
279
100
AcDbEntity
  8
0
100
AcDbLine
 62
7
  6
CONTINUOUS
 10
-33.8151594955
 20
-5.4401108767
 11
-33.8106290438
 21
-6.8274450136
  0
LINE
  5
27A
100
AcDbEntity
  8
0
100
AcDbLine
 62
7
  6
CONTINUOUS
 10
-33.4168176477
 20
-2.606627215
 11
-33.4213480994
 21
-1.2192930781
  0
LINE
  5
27B
100
AcDbEntity
  8
0
100
AcDbLine
 62
7
  6
CONTINUOUS
 10
-33.8166912456
 20
-4.0233690458
 11
-33.8151594955
 21
-5.4401108767
  0
LINE
  5
27C
100
AcDbEntity
  8
0
100
AcDbLine
 62
250
  6
CONTINUOUS
 10
-33.4670917502
 20
-33.4198667116
 11
-33.4678629402
 21
-33.1233690458
  0
LINE
  5
27D
100
AcDbEntity
  8
0
100
AcDbLine
 62
7
  6
CONTINUOUS
 10
-33.4152858976
 20
-4.0233690458
 11
-33.4168176477
 21
-2.606627215
  0
LINE
  5
27E
100
AcDbEntity
  8
DRAFT
100
AcDbLine
 62
7
  6
CONTINUOUS
 10
-34.0
 20
31.4766309542
 11
-34.0
 21
-39.5233690458
  0
LINE
  5
27F
100
AcDbEntity
  8
ASSI
100
AcDbLine
 62
7
  6
CONTINUOUS
 10
-34.0
 20
-39.5233690458
 11
-34.0
 21
31.4766309542
  0
LINE
  5
280
100
AcDbEntity
  8
0
100
AcDbLine
 62
250
  6
CONTINUOUS
 10
-33.3730280729
 20
31.4766309542
 11
-33.3730280729
 21
-26.9467666009
  0
LINE
  5
281
100
AcDbEntity
  8
0
100
AcDbLine
 62
250
  6
CONTINUOUS
 10
-33.3730280729
 20
-34.0999714867
 11
-33.3730280729
 21
-39.5233690458
  0
LINE
  5
282
100
AcDbEntity
  8
0
100
AcDbLine
 62
7
  6
CONTINUOUS
 10
-33.0
 20
-27.6233690458
 11
-33.0
 21
-33.4233690458
  0
LINE
  5
283
100
AcDbEntity
  8
RACCORDO
100
AcDbLine
 62
7
  6
CONTINUOUS
 10
-32.2757899725
 20
-37.7475790734
 11
-32.2757899725
 21
-39.5233690458
  0
LINE
  5
284
100
AcDbEntity
  8
RACCORDO
100
AcDbLine
 62
7
  6
CONTINUOUS
 10
-32.2757899725
 20
29.7008409817
 11
-32.2757899725
 21
31.4766309542
  0
LINE
  5
285
100
AcDbEntity
  8
RACCORDO
100
AcDbLine
 62
250
  6
CONTINUOUS
 10
-32.2731956082
 20
29.7008409283
 11
-32.2731956082
 21
-37.74757902
  0
LINE
  5
286
100
AcDbEntity
  8
DRAFT
100
AcDbLine
 62
7
  6
CONTINUOUS
 10
-32.0
 20
-38.0233690458
 11
-32.0
 21
-39.5233690458
  0
LINE
  5
287
100
AcDbEntity
  8
DRAFT
100
AcDbLine
 62
7
  6
CONTINUOUS
 10
-32.0
 20
29.9766309542
 11
-32.0
 21
31.4766309542
  0
LINE
  5
288
100
AcDbEntity
  8
0
100
AcDbLine
 62
7
  6
CONTINUOUS
 10
-33.8151594955
 20
-2.606627215
 11
-33.8166912456
 21
-4.0233690458
  0
LINE
  5
289
100
AcDbEntity
  8
0
100
AcDbLine
 62
7
  6
CONTINUOUS
 10
-33.4168176477
 20
-5.4401108767
 11
-33.4152858976
 21
-4.0233690458
  0
LINE
  5
28A
100
AcDbEntity
  8
0
100
AcDbLine
 62
250
  6
CONTINUOUS
 10
-33.4678629402
 20
-33.1233690458
 11
-33.4674311052
 21
-27.7001365709
  0
LINE
  5
28B
100
AcDbEntity
  8
0
100
AcDbLine
 62
7
  6
CONTINUOUS
 10
-33.8106290438
 20
-1.2192930781
 11
-33.8151594955
 21
-2.606627215
  0
LINE
  5
28C
100
AcDbEntity
  8
0
100
AcDbLine
 62
7
  6
CONTINUOUS
 10
-33.4213480994
 20
-6.8274450136
 11
-33.4168176477
 21
-5.4401108767
  0
LINE
  5
28D
100
AcDbEntity
  8
0
100
AcDbLine
 62
7
  6
CONTINUOUS
 10
-33.8031382415
 20
0.1309101153
 11
-33.8106290438
 21
-1.2192930781
  0
LINE
  5
28E
100
AcDbEntity
  8
0
100
AcDbLine
 62
7
  6
CONTINUOUS
 10
-33.4288389017
 20
-8.177648207
 11
-33.4213480994
 21
-6.8274450136
  0
LINE
  5
28F
100
AcDbEntity
  8
0
100
AcDbLine
 62
250
  6
CONTINUOUS
 10
-33.4674311052
 20
-27.7001365709
 11
-33.4661180205
 21
-27.4830647386
  0
LINE
  5
290
100
AcDbEntity
  8
0
100
AcDbLine
 62
7
  6
CONTINUOUS
 10
-33.7927988484
 20
1.417881344
 11
-33.8031382415
 21
0.1309101153
  0
LINE
  5
291
100
AcDbEntity
  8
0
100
AcDbLine
 62
7
  6
CONTINUOUS
 10
-33.4391782948
 20
-9.4646194357
 11
-33.4288389017
 21
-8.177648207
  0
LINE
  5
292
100
AcDbEntity
  8
0
100
AcDbLine
 62
7
  6
CONTINUOUS
 10
-33.7798070077
 20
2.6201535474
 11
-33.7927988484
 21
1.417881344
  0
LINE
  5
293
100
AcDbEntity
  8
0
100
AcDbLine
 62
7
  6
CONTINUOUS
 10
-33.4521701355
 20
-10.666891639
 11
-33.4391782948
 21
-9.4646194357
  0
LINE
  5
294
100
AcDbEntity
  8
0
100
AcDbLine
 62
250
  6
CONTINUOUS
 10
-33.4661180205
 20
-27.4830647386
 11
-33.4639568348
 21
-27.2859819946
  0
LINE
  5
295
100
AcDbEntity
  8
0
100
AcDbLine
 62
250
  6
CONTINUOUS
 10
-33.4639568348
 20
-27.2859819946
 11
-33.4620967466
 21
-27.172144714
  0
LWPOLYLINE
  5
296
100
AcDbEntity
  8
0
100
AcDbPolyline
 62
250
  6
CONTINUOUS
 90
10
 70
0
 10
-33.4620967466
 20
-27.172144714
 10
-33.4599667311
 20
-27.0762214404
 10
-33.4588074186
 20
-27.0353909431
 10
-33.457610445
 20
-26.999963385
 10
-33.4563753107
 20
-26.9701045981
 10
-33.4551025154
 20
-26.9456487502
 10
-33.4538181522
 20
-26.9267884196
 10
-33.4525309188
 20
-26.9135877991
 10
-33.4512321176
 20
-26.9059826958
 10
-33.4499217485
 20
-26.9039731098
  0
LWPOLYLINE
  5
297
100
AcDbEntity
  8
0
100
AcDbPolyline
 62
7
  6
CONTINUOUS
 90
4
 70
0
 10
-14.437348211
 20
36.7011376479
 10
-14.4918617785
 20
36.6427650629
 10
-14.5510985504
 20
36.5630613462
 10
-14.6
 20
36.4766309542
  0
LINE
  5
298
100
AcDbEntity
  8
0
100
AcDbLine
 62
250
  6
CONTINUOUS
 10
-33.4678629402
 20
-33.1233690458
 11
-33.0
 21
-33.1233690458
  0
LINE
  5
299
100
AcDbEntity
  8
DRAFT
100
AcDbLine
 62
250
  6
CONTINUOUS
 10
-28.0
 20
29.9766309542
 11
-28.0
 21
29.7008409283
  0
LINE
  5
29A
100
AcDbEntity
  8
DRAFT
100
AcDbLine
 62
250
  6
CONTINUOUS
 10
-28.0
 20
-38.0233690458
 11
-28.0
 21
-37.74757902
  0
LINE
  5
29B
100
AcDbEntity
  8
RACCORDO
100
AcDbLine
 62
250
  6
CONTINUOUS
 10
-28.0
 20
-43.5233690458
 11
-28.0
 21
-45.5233690458
  0
LINE
  5
29C
100
AcDbEntity
  8
RACCORDO
100
AcDbLine
 62
250
  6
CONTINUOUS
 10
-28.0
 20
35.4766309542
 11
-28.0
 21
37.4766309542
  0
LWPOLYLINE
  5
29D
100
AcDbEntity
  8
0
100
AcDbPolyline
 62
250
  6
CONTINUOUS
 90
7
 70
0
 10
-33.4499312882
 20
-34.1427649816
 10
-33.4437794014
 20
-34.0436359536
 10
-33.4253926968
 20
-33.9460351369
 10
-33.3950545928
 20
-33.8514669705
 10
-33.3532327293
 20
-33.7613891479
 10
-33.3005717592
 20
-33.6771901479
 10
-33.2349977679
 20
-33.5970574581
  0
LWPOLYLINE
  5
29E
100
AcDbEntity
  8
0
100
AcDbPolyline
 62
250
  6
CONTINUOUS
 90
10
 70
0
 10
-13.880604064
 20
36.9265527026
 10
-13.8848666295
 20
36.9179182201
 10
-13.8892507626
 20
36.9093063879
 10
-13.8937564634
 20
36.9007172059
 10
-13.8983817332
 20
36.8921506275
 10
-13.9031285707
 20
36.8836066994
 10
-13.9080029721
 20
36.8750855613
 10
-13.9130069359
 20
36.8665872598
 10
-13.9181384636
 20
36.8581117484
 10
-13.923397555
 20
36.8496590271
  0
LWPOLYLINE
  5
29F
100
AcDbEntity
  8
0
100
AcDbPolyline
 62
7
  6
CONTINUOUS
 90
16
 70
0
 10
-33.6159885716
 20
7.4766309542
 10
-33.6221847636
 20
7.4709015517
 10
-33.6345070781
 20
7.4275739816
 10
-33.6467585277
 20
7.3404270185
 10
-33.6589399077
 20
7.2099524854
 10
-33.6709134655
 20
7.0376258506
 10
-33.6826768418
 20
6.8229720398
 10
-33.6942323957
 20
6.5664661273
 10
-33.7054494515
 20
6.2710088047
 10
-33.7163241668
 20
5.9361579242
 10
-33.726860384
 20
5.5623556335
 10
-33.7369389546
 20
5.1538290679
 10
-33.7465546835
 20
4.7101840627
 10
-33.7557127658
 20
4.2318147826
 10
-33.7643096374
 20
3.7241308561
 10
-33.7798070077
 20
2.6201535474
  0
LWPOLYLINE
  5
2A0
100
AcDbEntity
  8
0
100
AcDbPolyline
 62
7
  6
CONTINUOUS
 90
10
 70
0
 10
7.85
 20
43.5916295443
 10
7.8411086126
 20
43.5851107556
 10
7.8144545922
 20
43.5786067341
 10
7.7700983188
 20
43.5721322135
 10
7.7081402735
 20
43.5657018606
 10
7.6287208113
 20
43.5593302423
 10
7.5320198429
 20
43.5530317922
 10
7.4182564269
 20
43.5468207785
 10
7.2876882742
 20
43.540711271
 10
7.1406111635
 20
43.5347171098
  0
LINE
  5
2A1
100
AcDbEntity
  8
0
100
AcDbLine
 62
250
  6
CONTINUOUS
 10
-33.4678629402
 20
-27.9233690458
 11
-33.0
 21
-27.9233690512
  0
LINE
  5
2A2
100
AcDbEntity
  8
DRAFT
100
AcDbLine
 62
7
  6
CONTINUOUS
 10
-26.5
 20
35.4766309542
 11
-26.5
 21
31.4766309542
  0
LINE
  5
2A3
100
AcDbEntity
  8
DRAFT
100
AcDbLine
 62
7
  6
CONTINUOUS
 10
-26.5
 20
-43.5233690458
 11
-26.5
 21
-39.5233690458
  0
LINE
  5
2A4
100
AcDbEntity
  8
DRAFT
100
AcDbLine
 62
7
  6
CONTINUOUS
 10
-26.2242099741
 20
35.7498265624
 11
-26.2242099741
 21
31.4766309542
  0
LINE
  5
2A5
100
AcDbEntity
  8
DRAFT
100
AcDbLine
 62
7
  6
CONTINUOUS
 10
-26.2242099741
 20
-43.7965646541
 11
-26.2242099741
 21
-39.5233690458
  0
LWPOLYLINE
  5
2A6
100
AcDbEntity
  8
0
100
AcDbPolyline
 62
7
  6
CONTINUOUS
 90
10
 70
0
 10
4.1
 20
45.8912792431
 10
4.098380347
 20
45.8893036221
 10
4.0859964213
 20
45.8853702891
 10
4.0611159696
 20
45.8814550279
 10
4.0238515922
 20
45.8775576757
 10
3.9745410904
 20
45.8737135619
 10
3.9130749351
 20
45.8699231706
 10
3.8395626554
 20
45.8661860178
 10
3.7546706393
 20
45.8625359807
 10
3.658295417
 20
45.8589738513
  0
LWPOLYLINE
  5
2A7
100
AcDbEntity
  8
0
100
AcDbPolyline
 62
7
  6
CONTINUOUS
 90
8
 70
0
 10
11.85
 20
40.4921016893
 10
11.8403533544
 20
40.4837787881
 10
11.811506744
 20
40.475455887
 10
11.7636001581
 20
40.4671733759
 10
11.6965409508
 20
40.4589314513
 10
11.6104217681
 20
40.4507299168
 10
11.5056605365
 20
40.4426085735
 10
11.3821666418
 20
40.4345678113
  0
LWPOLYLINE
  5
2A8
100
AcDbEntity
  8
0
100
AcDbPolyline
 62
7
  6
CONTINUOUS
 90
9
 70
0
 10
10.1
 20
42.2918275406
 10
10.0903444761
 20
42.2841437065
 10
10.0614874188
 20
42.2764598724
 10
10.0135930999
 20
42.2688197794
 10
9.9465529418
 20
42.2612236768
 10
9.8604755222
 20
42.2536713153
 10
9.7558508455
 20
42.2462056873
 10
9.632573129
 20
42.2388272877
 10
9.4907481555
 20
42.2315356217
  0
LWPOLYLINE
  5
2A9
100
AcDbEntity
  8
0
100
AcDbPolyline
 62
7
  6
CONTINUOUS
 90
9
 70
0
 10
-1.8558092975
 20
26.3606824242
 10
-1.9357404166
 20
26.3086248167
 10
-2.0085527581
 20
26.2478987634
 10
-2.0743885913
 20
26.1789622875
 10
-2.133105647
 20
26.1013573659
 10
-2.1838442801
 20
26.0146283377
 10
-2.2263179426
 20
25.9186233163
 10
-2.2608131825
 20
25.8134941884
 10
-2.28733
 20
25.6992409542
  0
LWPOLYLINE
  5
2AA
100
AcDbEntity
  8
0
100
AcDbPolyline
 62
7
  6
CONTINUOUS
 90
29
 70
0
 10
-0.9264113834
 20
25.0976533446
 10
-0.8458648801
 20
25.1398079539
 10
-0.7741025287
 20
25.1871184942
 10
-0.7111243292
 20
25.2395849655
 10
-0.6569695105
 20
25.297535198
 10
-0.6115988438
 20
25.3606413616
 10
-0.5748946421
 20
25.4279199658
 10
-0.5465021452
 20
25.4994033007
 10
-0.5267761134
 20
25.5750590763
 10
-0.5166631412
 20
25.653806932
 10
-0.5163364145
 20
25.736966229
 10
-0.5256227473
 20
25.8232176061
 10
-0.5449491768
 20
25.9075226196
 10
-0.5749855689
 20
25.9896213064
 10
-0.6150620578
 20
26.0697736296
 10
-0.6635960826
 20
26.1437210348
 10
-0.7198204994
 20
26.2102058041
 10
-0.7845024522
 20
26.2704856554
 10
-0.8583608129
 20
26.3240751877
 10
-0.9425979847
 20
26.371998489
 10
-1.0360115645
 20
26.4132314712
 10
-1.1357132143
 20
26.4442164695
 10
-1.2441106614
 20
26.4639398282
 10
-1.3587961785
 20
26.4734152029
 10
-1.4696582466
 20
26.472125895
 10
-1.5742805232
 20
26.4595070623
 10
-1.6750793508
 20
26.436123547
 10
-1.7691922373
 20
26.4031531767
 10
-1.8558092975
 20
26.3606824242
  0
LWPOLYLINE
  5
2AB
100
AcDbEntity
  8
0
100
AcDbPolyline
 62
7
  6
CONTINUOUS
 90
10
 70
0
 10
-19.5160718602
 20
-2.8908380458
 10
-19.5185325202
 20
-2.8063257353
 10
-19.5168607977
 20
-2.7245279427
 10
-19.5110566925
 20
-2.6454446679
 10
-19.5012273654
 20
-2.5687532116
 10
-19.4872656557
 20
-2.4947762732
 10
-19.4688500817
 20
-2.4244819507
 10
-19.4458734829
 20
-2.3581929436
 10
-19.4184430197
 20
-2.2955865525
 10
-19.3865586922
 20
-2.2366627773
  0
LINE
  5
2AC
100
AcDbEntity
  8
0
100
AcDbLine
 62
7
  6
CONTINUOUS
 10
-21.065387
 20
-4.1384580458
 11
-21.065387
 21
-5.5994900458
  0
LINE
  5
2AD
100
AcDbEntity
  8
0
100
AcDbLine
 62
7
  6
CONTINUOUS
 10
-20.793534
 20
-5.3163800458
 11
-20.793534
 21
-4.1384580458
  0
LINE
  5
2AE
100
AcDbEntity
  8
0
100
AcDbLine
 62
250
  6
CONTINUOUS
 10
-20.1
 20
36.9444938944
 11
-20.1
 21
36.4766309542
  0
LWPOLYLINE
  5
2AF
100
AcDbEntity
  8
0
100
AcDbPolyline
 62
7
  6
CONTINUOUS
 90
16
 70
0
 10
-20.8437946685
 20
-2.6303723773
 10
-20.8409247288
 20
-2.5656946931
 10
-20.83372807
 20
-2.5043965845
 10
-20.822204692
 20
-2.4464780516
 10
-20.8064414318
 20
-2.3914047644
 10
-20.7863514524
 20
-2.3397110529
 10
-20.7616742437
 20
-2.2929999069
 10
-20.7323707342
 20
-2.2519319953
 10
-20.6984799953
 20
-2.2158466493
 10
-20.6598587313
 20
-2.1843648524
 10
-20.6160936553
 20
-2.1573801367
 10
-20.567598054
 20
-2.1349989701
 10
-20.5154684922
 20
-2.1171617395
 10
-20.4600704915
 20
-2.1038485738
 10
-20.4010385301
 20
-2.0950793441
 10
-20.3383726082
 20
-2.0908540504
  0
LWPOLYLINE
  5
2B0
100
AcDbEntity
  8
0
100
AcDbPolyline
 62
7
  6
CONTINUOUS
 90
13
 70
0
 10
-18.3215925954
 20
-4.9760072668
 10
-18.3259606532
 20
-5.0355020877
 10
-18.3361949838
 20
-5.0942792101
 10
-18.3522955871
 20
-5.152338634
 10
-18.3748888602
 20
-5.2109865692
 10
-18.403348406
 20
-5.2689168059
 10
-18.4357950335
 20
-5.3222107155
 10
-18.4718514703
 20
-5.3695079947
 10
-18.5118949888
 20
-5.4121689467
 10
-18.5551782148
 20
-5.4503558521
 10
-18.6014520237
 20
-5.4841228046
 10
-18.6509655403
 20
-5.5134157105
 10
-18.7037187644
 20
-5.5382345698
  0
LINE
  5
2B1
100
AcDbEntity
  8
0
100
AcDbLine
 62
7
  6
CONTINUOUS
 10
-17.6
 20
-20.5233690458
 11
-17.4
 21
-20.5233690458
  0
LWPOLYLINE
  5
2B2
100
AcDbEntity
  8
0
100
AcDbPolyline
 62
7
  6
CONTINUOUS
 90
13
 70
0
 10
-19.5275902179
 20
-5.6271720419
 10
-19.5826248977
 20
-5.5151573781
 10
-19.6265135819
 20
-5.4054599109
 10
-19.6592562703
 20
-5.2980796404
 10
-19.6804101346
 20
-5.1921427351
 10
-19.6904180032
 20
-5.0885230264
 10
-19.690608361
 20
-4.9898420086
 10
-19.6810306855
 20
-4.8964572835
 10
-19.6616354992
 20
-4.8080112494
 10
-19.6336028542
 20
-4.7260525959
 10
-19.5973261012
 20
-4.6510975528
 10
-19.5524118895
 20
-4.5826298903
 10
-19.4988602192
 20
-4.5206496084
  0
LINE
  5
2B3
100
AcDbEntity
  8
0
100
AcDbLine
 62
7
  6
CONTINUOUS
 10
-18.7037187644
 20
-5.5382345698
 11
-18.5737469122
 21
-5.8272992411
  0
LWPOLYLINE
  5
2B4
100
AcDbEntity
  8
0
100
AcDbPolyline
 62
7
  6
CONTINUOUS
 90
13
 70
0
 10
-19.6658613271
 20
-2.3077696563
 10
-19.6955802854
 20
-2.2335689296
 10
-19.7314092241
 20
-2.1643890186
 10
-19.7733481433
 20
-2.100229923
 10
-19.8224913876
 20
-2.0404234803
 10
-19.8777446125
 20
-1.9856378531
 10
-19.9358247837
 20
-1.9378775298
 10
-19.9952852269
 20
-1.8978477655
 10
-20.0575726164
 20
-1.8648433051
 10
-20.1237439415
 20
-1.8387528711
 10
-20.1941515317
 20
-1.8195393711
 10
-20.2684430575
 20
-1.8072398975
 10
-20.3466185187
 20
-1.8018544504
  0
LINE
  5
2B5
100
AcDbEntity
  8
0
100
AcDbLine
 62
7
  6
CONTINUOUS
 10
-18.7410220488
 20
-3.2524808865
 11
-18.6454738397
 21
-3.5645165693
  0
LINE
  5
2B6
100
AcDbEntity
  8
0
100
AcDbLine
 62
7
  6
CONTINUOUS
 10
-17.6
 20
12.4766309542
 11
-17.6
 21
-20.5233690458
  0
LINE
  5
2B7
100
AcDbEntity
  8
0
100
AcDbLine
 62
7
  6
CONTINUOUS
 10
-17.4
 20
-20.5233690458
 11
-17.4
 21
12.4766309542
  0
LINE
  5
2B8
100
AcDbEntity
  8
0
100
AcDbLine
 62
250
  6
CONTINUOUS
 10
-14.9
 20
36.9444938944
 11
-14.9000000056
 21
36.4766309542
  0
LINE
  5
2B9
100
AcDbEntity
  8
0
100
AcDbLine
 62
7
  6
CONTINUOUS
 10
-14.0
 20
38.5150105078
 11
-14.0
 21
37.0926195257
  0
LWPOLYLINE
  5
2BA
100
AcDbEntity
  8
RACCORDO
100
AcDbPolyline
 62
7
  6
CONTINUOUS
 90
22
 70
0
 10
-14.0
 20
38.5150105078
 10
-13.9965050021
 20
38.5987092652
 10
-13.9860246986
 20
38.6819438226
 10
-13.9686026373
 20
38.7641321373
 10
-13.9441910494
 20
38.8450987184
 10
-13.9130042037
 20
38.9238441139
 10
-13.8758502065
 20
38.9986828006
 10
-13.8329293378
 20
39.069702921
 10
-13.7850024674
 20
39.13606228
 10
-13.734617981
 20
39.1953153463
 10
-13.6832237356
 20
39.2473288786
 10
-13.631344367
 20
39.2929352644
 10
-13.5807201164
 20
39.3318750537
 10
-13.5329097152
 20
39.3643055315
 10
-13.4878437359
 20
39.3914539325
 10
-13.4446340587
 20
39.4146667935
 10
-13.4032076049
 20
39.4345463727
 10
-13.3641570212
 20
39.451312573
 10
-13.3273292663
 20
39.4654865082
 10
-13.2927153045
 20
39.4774496239
 10
-13.260483344
 20
39.4874781661
 10
-13.2306563462
 20
39.4958632405
  0
LWPOLYLINE
  5
2BB
100
AcDbEntity
  8
RACCORDO
100
AcDbPolyline
 62
7
  6
CONTINUOUS
 90
19
 70
0
 10
-11.85
 20
40.9187605389
 10
-11.8478693272
 20
40.9546614394
 10
-11.8417297006
 20
40.9891364144
 10
-11.8319848211
 20
41.0217911614
 10
-11.8189247747
 20
41.0525908557
 10
-11.8030627015
 20
41.0809938093
 10
-11.7854060287
 20
41.1061095027
 10
-11.7666918968
 20
41.1279037293
 10
-11.747378118
 20
41.1466781437
 10
-11.7282722857
 20
41.1623952602
 10
-11.7099733048
 20
41.1752882687
 10
-11.6926705384
 20
41.1858359033
 10
-11.6764828863
 20
41.1944453222
 10
-11.6617754096
 20
41.2013314863
 10
-11.6484959529
 20
41.2068610506
 10
-11.6360201657
 20
41.211518002
 10
-11.6241442312
 20
41.2155127642
 10
-11.6131181859
 20
41.2188763135
 10
-11.6029478526
 20
41.2217136557
  0
LINE
  5
2BC
100
AcDbEntity
  8
0
100
AcDbLine
 62
7
  6
CONTINUOUS
 10
-20.6483798375
 20
-3.4476337275
 11
-20.5157908992
 21
-3.1879528485
  0
LWPOLYLINE
  5
2BD
100
AcDbEntity
  8
0
100
AcDbPolyline
 62
7
  6
CONTINUOUS
 90
11
 70
0
 10
9.45
 20
41.791903693
 10
9.4475513618
 20
41.7881494671
 10
9.4279698689
 20
41.7806487965
 10
9.3888474687
 20
41.7731714534
 10
9.3302652484
 20
41.7657329358
 10
9.2523446286
 20
41.758348661
 10
9.1552471117
 20
41.7510339342
 10
9.039173947
 20
41.7438039162
 10
8.904365714
 20
41.7366735923
 10
8.7511018233
 20
41.7296577412
 10
8.5796999378
 20
41.7227709044
  0
LWPOLYLINE
  5
2BE
100
AcDbEntity
  8
0
100
AcDbPolyline
 62
7
  6
CONTINUOUS
 90
9
 70
0
 10
8.35
 20
44.0915533918
 10
8.3477766773
 20
44.0882315964
 10
8.3305342227
 20
44.0816085891
 10
8.295942249
 20
44.0750062934
 10
8.2441078207
 20
44.0684245812
 10
8.1753521321
 20
44.0619042366
 10
8.0895701131
 20
44.0554456406
 10
7.9868668338
 20
44.0490484121
 10
7.8678786997
 20
44.0427521918
  0
LWPOLYLINE
  5
2BF
100
AcDbEntity
  8
0
100
AcDbPolyline
 62
7
  6
CONTINUOUS
 90
10
 70
0
 10
-19.3865586922
 20
-2.2366627773
 10
-19.3561281389
 20
-2.1943590779
 10
-19.319494111
 20
-2.1557354742
 10
-19.2766566083
 20
-2.1207919661
 10
-19.2268657783
 20
-2.0887109147
 10
-19.1708714735
 20
-2.0603099589
 10
-19.1109232525
 20
-2.0380420157
 10
-19.047770968
 20
-2.0227247238
 10
-18.9806647673
 20
-2.0135404443
 10
-18.9096046502
 20
-2.0104891773
  0
LWPOLYLINE
  5
2C0
100
AcDbEntity
  8
0
100
AcDbPolyline
 62
7
  6
CONTINUOUS
 90
29
 70
0
 10
0.40649
 20
24.8402209542
 10
0.45255666
 20
24.9027103059
 10
0.5037068019
 20
24.9579554798
 10
0.5599404255
 20
25.0059564761
 10
0.6214891594
 20
25.0471259002
 10
0.6881213751
 20
25.0810511465
 10
0.7591421871
 20
25.1064943987
 10
0.8362800167
 20
25.1229904062
 10
0.9178064427
 20
25.1310044197
 10
0.9978413154
 20
25.1306943741
 10
1.0757524158
 20
25.121882941
 10
1.152171963
 20
25.1047474489
 10
1.2231164651
 20
25.0799778186
 10
1.2874168698
 20
25.0474929033
 10
1.3462422294
 20
25.0073738497
 10
1.399116209
 20
24.9605540187
 10
1.4463117286
 20
24.9072201035
 10
1.4875558684
 20
24.8471854109
 10
1.5215535339
 20
24.7808232228
 10
1.5480384403
 20
24.7075018292
 10
1.5672768726
 20
24.62785294
 10
1.5787725913
 20
24.5441449671
 10
1.5825074153
 20
24.4544275232
 10
1.5784995257
 20
24.3606509956
 10
1.5663072267
 20
24.2709349572
 10
1.54551662
 20
24.1871416168
 10
1.5165416038
 20
24.1074087657
 10
1.4801821778
 20
24.0342693511
 10
1.4355737991
 20
23.967988923
  0
LWPOLYLINE
  5
2C1
100
AcDbEntity
  8
0
100
AcDbPolyline
 62
7
  6
CONTINUOUS
 90
21
 70
0
 10
1.4355737991
 20
23.967988923
 10
1.3835810104
 20
23.9083019315
 10
1.3275974394
 20
23.8569446741
 10
1.2686693255
 20
23.8144773077
 10
1.2057504294
 20
23.7803396754
 10
1.1390956606
 20
23.7545876039
 10
1.0668233221
 20
23.7372744807
 10
0.9908151109
 20
23.7283469183
 10
0.9169710289
 20
23.7277005807
 10
0.846488308
 20
23.735568421
 10
0.7781697162
 20
23.751717486
 10
0.7143235588
 20
23.7753445808
 10
0.6553552661
 20
23.8065413206
 10
0.6008594078
 20
23.84521609
 10
0.5519279985
 20
23.8902908484
 10
0.5089278946
 20
23.9415248459
 10
0.4714922396
 20
23.9991588322
 10
0.4396124782
 20
24.0628370155
 10
0.4132857585
 20
24.1324407982
 10
0.3925149325
 20
24.2080887777
 10
0.3773
 20
24.2897809542
  0
LWPOLYLINE
  5
2C2
100
AcDbEntity
  8
0
100
AcDbPolyline
 62
7
  6
CONTINUOUS
 90
11
 70
0
 10
14.0
 20
37.0926195257
 10
13.9901779926
 20
37.0834878862
 10
13.9607939714
 20
37.0743562466
 10
13.9119709385
 20
37.0652628321
 10
13.8436274081
 20
37.0562078031
 10
13.7558448659
 20
37.0471909991
 10
13.6489907705
 20
37.0382501648
 10
13.5229851768
 20
37.0293856185
 10
13.3779080298
 20
37.0205970418
 10
13.2143666243
 20
37.0119212238
 10
13.0322835606
 20
37.003358637
  0
LWPOLYLINE
  5
2C3
100
AcDbEntity
  8
0
100
AcDbPolyline
 62
7
  6
CONTINUOUS
 90
10
 70
0
 10
-20.5157908992
 20
-3.1879528485
 10
-20.5749281532
 20
-3.1491529787
 10
-20.6294804738
 20
-3.1027027641
 10
-20.6794478611
 20
-3.048602205
 10
-20.726281201
 20
-2.9843686802
 10
-20.7685296076
 20
-2.9124848108
 10
-20.8018404233
 20
-2.8403984595
 10
-20.8247627625
 20
-2.7705922473
 10
-20.8387475109
 20
-2.7005835532
 10
-20.8437946685
 20
-2.6303723773
  0
LWPOLYLINE
  5
2C4
100
AcDbEntity
  8
0
100
AcDbPolyline
 62
7
  6
CONTINUOUS
 90
4
 70
0
 10
20.5742287326
 20
-44.7588701868
 10
20.5081403684
 20
-44.6895029225
 10
20.4489042276
 20
-44.6097984239
 10
20.4000034028
 20
-44.5233673904
  0
LWPOLYLINE
  5
2C5
100
AcDbEntity
  8
0
100
AcDbPolyline
 62
7
  6
CONTINUOUS
 90
19
 70
0
 10
-18.4881469242
 20
-2.1876453637
 10
-18.4410073715
 20
-2.2423338584
 10
-18.401678094
 20
-2.301525056
 10
-18.3701590916
 20
-2.3652189565
 10
-18.3465904975
 20
-2.4341947152
 10
-18.3308321785
 20
-2.5076731767
 10
-18.3224637352
 20
-2.5833168752
 10
-18.321658262
 20
-2.6625997724
 10
-18.3282426644
 20
-2.7440479065
 10
-18.3412772609
 20
-2.8209019261
 10
-18.360587595
 20
-2.8914003668
 10
-18.386348123
 20
-2.9573046931
 10
-18.4181425319
 20
-3.0171399468
 10
-18.4556011548
 20
-3.0701652213
 10
-18.4990936586
 20
-3.1171214232
 10
-18.549312731
 20
-3.1587563146
 10
-18.6064892682
 20
-3.1953191492
 10
-18.6703923741
 20
-3.2265606731
 10
-18.7410220488
 20
-3.2524808865
  0
LINE
  5
2C6
100
AcDbEntity
  8
0
100
AcDbLine
 62
7
  6
CONTINUOUS
 10
-11.85
 20
40.9187605389
 11
-11.85
 21
40.4921016893
  0
LINE
  5
2C7
100
AcDbEntity
  8
0
100
AcDbLine
 62
7
  6
CONTINUOUS
 10
-11.35
 20
40.4327662625
 11
-11.35
 21
39.9921778417
  0
LINE
  5
2C8
100
AcDbEntity
  8
0
100
AcDbLine
 62
7
  6
CONTINUOUS
 10
-10.1
 20
42.7586726476
 11
-10.1
 21
42.2918275406
  0
LINE
  5
2C9
100
AcDbEntity
  8
0
100
AcDbLine
 62
7
  6
CONTINUOUS
 10
-9.45
 20
42.2297062949
 11
-9.45
 21
41.791903693
  0
LWPOLYLINE
  5
2CA
100
AcDbEntity
  8
RACCORDO
100
AcDbPolyline
 62
7
  6
CONTINUOUS
 90
19
 70
0
 10
-8.35
 20
44.5316076606
 10
-8.3481548083
 20
44.5649658225
 10
-8.3427596077
 20
44.597393221
 10
-8.334050278
 20
44.6285397497
 10
-8.3221246187
 20
44.6584611867
 10
-8.3073602175
 20
44.6865009841
 10
-8.2907705733
 20
44.711483293
 10
-8.2731551789
 20
44.7332075013
 10
-8.2548529672
 20
44.7520804147
 10
-8.2364552897
 20
44.7681600089
 10
-8.2183771842
 20
44.7816874916
 10
-8.2009220808
 20
44.7929543538
 10
-8.1844488859
 20
44.8021865356
 10
-8.1693354281
 20
44.8095955231
 10
-8.1555542536
 20
44.8155535159
 10
-8.1427692086
 20
44.8204615302
 10
-8.1308888786
 20
44.824534208
 10
-8.1200877699
 20
44.8278645502
 10
-8.1103821083
 20
44.8305816088
  0
LWPOLYLINE
  5
2CB
100
AcDbEntity
  8
RACCORDO
100
AcDbPolyline
 62
7
  6
CONTINUOUS
 90
19
 70
0
 10
-10.1
 20
42.7586726476
 10
-10.0980070969
 20
42.7933667547
 10
-10.0922281186
 20
42.8268614837
 10
-10.0829879742
 20
42.858784507
 10
-10.0704880559
 20
42.8891405937
 10
-10.0551778453
 20
42.9173390351
 10
-10.0380622784
 20
42.9423665263
 10
-10.0199139172
 20
42.9641023971
 10
-10.0011269299
 20
42.9829046774
 10
-9.9823700798
 20
42.9988049873
 10
-9.9641100067
 20
43.0120563613
 10
-9.9466210521
 20
43.0230126815
 10
-9.9302179977
 20
43.0319493032
 10
-9.9153193684
 20
43.039069624
 10
-9.9018479142
 20
43.0447726642
 10
-9.8892764217
 20
43.0495232572
 10
-9.877440047
 20
43.0535375747
 10
-9.8665663843
 20
43.0568698319
 10
-9.8566649279
 20
43.0596361941
  0
LWPOLYLINE
  5
2CC
100
AcDbEntity
  8
0
100
AcDbPolyline
 62
7
  6
CONTINUOUS
 90
11
 70
0
 10
11.35
 20
39.9921778417
 10
11.3475107574
 20
39.9880294664
 10
11.3276033677
 20
39.9797399934
 10
11.2878235124
 20
39.9714723406
 10
11.2282409791
 20
39.9632410123
 10
11.1489602958
 20
39.955060449
 10
11.0501205476
 20
39.9469450023
 10
10.9318951332
 20
39.9389089093
 10
10.7944914599
 20
39.9309662681
 10
10.6381505807
 20
39.9231310129
 10
10.4631467705
 20
39.9154168892
  0
LWPOLYLINE
  5
2CD
100
AcDbEntity
  8
0
100
AcDbPolyline
 62
7
  6
CONTINUOUS
 90
16
 70
0
 10
-33.6159885716
 20
-15.5233690458
 10
-33.6097923796
 20
-15.5176396433
 10
-33.5974700651
 20
-15.4743120732
 10
-33.5852186155
 20
-15.3871651102
 10
-33.5730372354
 20
-15.2566905771
 10
-33.5610636777
 20
-15.0843639423
 10
-33.5493003014
 20
-14.8697101315
 10
-33.5377447475
 20
-14.613204219
 10
-33.5265276917
 20
-14.3177468964
 10
-33.5156529763
 20
-13.9828960159
 10
-33.5051167591
 20
-13.6090937252
 10
-33.4950381886
 20
-13.2005671596
 10
-33.4854224596
 20
-12.7569221544
 10
-33.4762643774
 20
-12.2785528743
 10
-33.4676675058
 20
-11.7708689478
 10
-33.4521701355
 20
-10.666891639
  0
LWPOLYLINE
  5
2CE
100
AcDbEntity
  8
0
100
AcDbPolyline
 62
7
  6
CONTINUOUS
 90
10
 70
0
 10
-19.4988602192
 20
-4.5206496084
 10
-19.4586866128
 20
-4.4845770995
 10
-19.4139600481
 20
-4.4518289047
 10
-19.3646805252
 20
-4.4224050239
 10
-19.3104109729
 20
-4.3958979742
 10
-19.2515884624
 20
-4.3727152385
 10
-19.189524207
 20
-4.354079266
 10
-19.1246552777
 20
-4.3403975399
 10
-19.0565446035
 20
-4.331262577
 10
-18.9851921845
 20
-4.3266743773
  0
LWPOLYLINE
  5
2CF
100
AcDbEntity
  8
0
100
AcDbPolyline
 62
7
  6
CONTINUOUS
 90
8
 70
0
 10
-19.3057995519
 20
-1.8163351116
 10
-19.3807683489
 20
-1.8623944989
 10
-19.4474527518
 20
-1.9157558346
 10
-19.5064658371
 20
-1.9771329512
 10
-19.5578127253
 20
-2.046977706
 10
-19.6014951231
 20
-2.1254407179
 10
-19.6375113237
 20
-2.212371368
 10
-19.6658613271
 20
-2.3077696563
  0
LWPOLYLINE
  5
2D0
100
AcDbEntity
  8
0
100
AcDbPolyline
 62
7
  6
CONTINUOUS
 90
19
 70
0
 10
20.4
 20
-44.5233690458
 10
20.4293900351
 20
-44.5644790864
 10
20.4600977877
 20
-44.6029652247
 10
20.4921232579
 20
-44.6388305295
 10
20.5255792049
 20
-44.6720208457
 10
20.5603528695
 20
-44.7026419609
 10
20.5961059739
 20
-44.7309142506
 10
20.6328342688
 20
-44.7568753117
 10
20.6705420035
 20
-44.7805024218
 10
20.7089036477
 20
-44.8018785297
 10
20.7478552581
 20
-44.8209960205
 10
20.787460778
 20
-44.8378895319
 10
20.8275865075
 20
-44.8526595572
 10
20.8682763771
 20
-44.8653117538
 10
20.9094864563
 20
-44.8758164565
 10
20.9509512533
 20
-44.8841824096
 10
20.9925822707
 20
-44.890404844
 10
21.0344680058
 20
-44.8944760054
 10
21.0766084587
 20
-44.8963971187
  0
LINE
  5
2D1
100
AcDbEntity
  8
0
100
AcDbLine
 62
7
  6
CONTINUOUS
 10
-8.35
 20
44.5316076606
 11
-8.35
 21
44.0915533918
  0
LINE
  5
2D2
100
AcDbEntity
  8
0
100
AcDbLine
 62
7
  6
CONTINUOUS
 10
-7.85
 20
44.0419340802
 11
-7.85
 21
43.5916295443
  0
LINE
  5
2D3
100
AcDbEntity
  8
0
100
AcDbLine
 62
7
  6
CONTINUOUS
 10
-7.5
 20
22.5766309542
 11
-7.5
 21
22.3766309542
  0
LINE
  5
2D4
100
AcDbEntity
  8
0
100
AcDbLine
 62
7
  6
CONTINUOUS
 10
-4.1
 20
46.2303869946
 11
-4.1
 21
45.8912792431
  0
LWPOLYLINE
  5
2D5
100
AcDbEntity
  8
RACCORDO
100
AcDbPolyline
 62
7
  6
CONTINUOUS
 90
16
 70
0
 10
-4.1
 20
46.2303869946
 10
-4.0978397369
 20
46.266393774
 10
-4.0914748844
 20
46.3015375291
 10
-4.0811192876
 20
46.3353494312
 10
-4.0667690726
 20
46.3679222696
 10
-4.0488748812
 20
46.3982909045
 10
-4.0289142172
 20
46.4247788749
 10
-4.0079453076
 20
46.447224718
 10
-3.9864304239
 20
46.4661533975
 10
-3.9654430166
 20
46.4815143838
 10
-3.9458453364
 20
46.4935809516
 10
-3.9277515241
 20
46.5030412865
 10
-3.9109780656
 20
46.5105321399
 10
-3.895524904
 20
46.5164477058
 10
-3.8816498909
 20
46.5210229598
 10
-3.8694093559
 20
46.5245291119
  0
LINE
  5
2D6
100
AcDbEntity
  8
0
100
AcDbLine
 62
7
  6
CONTINUOUS
 10
-1.5603169999
 20
25.2155209549
 11
-1.6011039925
 21
24.8944310134
  0
LWPOLYLINE
  5
2D7
100
AcDbEntity
  8
0
100
AcDbPolyline
 62
7
  6
CONTINUOUS
 90
27
 70
0
 10
-1.92037
 20
25.6325209542
 10
-1.9060225318
 20
25.7117986453
 10
-1.8863472053
 20
25.7852988036
 10
-1.8613440205
 20
25.853021429
 10
-1.8309325585
 20
25.9152550759
 10
-1.7951932382
 20
25.9717111898
 10
-1.7543673161
 20
26.0215241079
 10
-1.7083063656
 20
26.0645976347
 10
-1.6571588134
 20
26.1010279657
 10
-1.6016111955
 20
26.1302380245
 10
-1.5407336131
 20
26.1521298281
 10
-1.4754559651
 20
26.1668013596
 10
-1.4092544841
 20
26.1739694908
 10
-1.3414296787
 20
26.173380912
 10
-1.2726810403
 20
26.165288933
 10
-1.2085832756
 20
26.1501703558
 10
-1.1507883457
 20
26.1277904157
 10
-1.0976442895
 20
26.0983838775
 10
-1.0497699296
 20
26.0631318375
 10
-1.0067255191
 20
26.0217139226
 10
-0.968950805
 20
25.974450506
 10
-0.9383838515
 20
25.9234838037
 10
-0.9157599206
 20
25.8686902391
 10
-0.9003437503
 20
25.8101933888
 10
-0.8918676192
 20
25.7505061996
 10
-0.8904739457
 20
25.6886476362
 10
-0.8960203115
 20
25.6255987339
  0
LINE
  5
2D8
100
AcDbEntity
  8
0
100
AcDbLine
 62
7
  6
CONTINUOUS
 10
0.34811
 20
26.4248209542
 11
0.06038
 21
24.8902609542
  0
LINE
  5
2D9
100
AcDbEntity
  8
0
100
AcDbLine
 62
7
  6
CONTINUOUS
 10
0.4812889101
 20
25.2692094993
 11
0.640531
 21
26.0745409542
  0
LWPOLYLINE
  5
2DA
100
AcDbEntity
  8
0
100
AcDbPolyline
 62
7
  6
CONTINUOUS
 90
17
 70
0
 10
-0.8960203115
 20
25.6255987339
 10
-0.9078117396
 20
25.5668155446
 10
-0.9255811969
 20
25.5141280113
 10
-0.9495957166
 20
25.4657061909
 10
-0.9799614214
 20
25.4215163066
 10
-1.0177484478
 20
25.3815552294
 10
-1.0618866594
 20
25.3458260883
 10
-1.1092717691
 20
25.3143044931
 10
-1.1602064466
 20
25.2869151894
 10
-1.2143880223
 20
25.2637334317
 10
-1.2678042004
 20
25.2449605924
 10
-1.3192614873
 20
25.2310264857
 10
-1.3699533767
 20
25.2215012975
 10
-1.419448054
 20
25.2152969573
 10
-1.4676015813
 20
25.2120507751
 10
-1.5145578966
 20
25.212125441
 10
-1.5603169999
 20
25.2155209549
  0
LWPOLYLINE
  5
2DB
100
AcDbEntity
  8
0
100
AcDbPolyline
 62
250
  6
CONTINUOUS
 90
10
 70
0
 10
33.3730280729
 20
26.053233395
 10
33.3814807923
 20
26.0584924882
 10
33.3899563021
 20
26.0636240168
 10
33.3984546023
 20
26.0686279807
 10
33.4069757393
 20
26.0735023805
 10
33.4155196666
 20
26.0782492156
 10
33.4240862451
 20
26.0828744843
 10
33.4326754284
 20
26.087380186
 10
33.4412872628
 20
26.0917643213
 10
33.4499217485
 20
26.0960268902
  0
LWPOLYLINE
  5
2DC
100
AcDbEntity
  8
0
100
AcDbPolyline
 62
7
  6
CONTINUOUS
 90
14
 70
0
 10
-19.5148910901
 20
-4.1559310157
 10
-19.5970028595
 20
-4.205234219
 10
-19.6699582215
 20
-4.2598182418
 10
-19.7344229312
 20
-4.3210942236
 10
-19.7916842363
 20
-4.3906355492
 10
-19.8430440627
 20
-4.469203965
 10
-19.8872004845
 20
-4.5560377246
 10
-19.9215349722
 20
-4.650424974
 10
-19.9459932047
 20
-4.7536764284
 10
-19.960629503
 20
-4.8644813726
 10
-19.9629883001
 20
-4.9781958063
 10
-19.9522510736
 20
-5.0932717293
 10
-19.9292363459
 20
-5.2112571418
 10
-19.8939441169
 20
-5.3321520438
  0
LWPOLYLINE
  5
2DD
100
AcDbEntity
  8
0
100
AcDbPolyline
 62
7
  6
CONTINUOUS
 90
30
 70
0
 10
-18.5737469122
 20
-5.8272992411
 10
-18.4731466365
 20
-5.7706410469
 10
-18.3836096879
 20
-5.7086092464
 10
-18.3051360663
 20
-5.6412038397
 10
-18.2381282216
 20
-5.568869917
 10
-18.1821837039
 20
-5.4911623882
 10
-18.1360951643
 20
-5.4067459822
 10
-18.0990720664
 20
-5.3147353655
 10
-18.0719049466
 20
-5.2160158717
 10
-18.0557580646
 20
-5.1119082308
 10
-18.0510205617
 20
-4.9992706189
 10
-18.0573032967
 20
-4.88124486
 10
-18.0746031065
 20
-4.7685771565
 10
-18.1035853242
 20
-4.6641420703
 10
-18.1435846167
 20
-4.5650650396
 10
-18.1926018218
 20
-4.4734685811
 10
-18.2506930447
 20
-4.3895850755
 10
-18.3178021803
 20
-4.313182142
 10
-18.3917617506
 20
-4.2456851551
 10
-18.4714885478
 20
-4.1872553174
 10
-18.5580657797
 20
-4.1377314263
 10
-18.6525755913
 20
-4.0980552481
 10
-18.757692672
 20
-4.0681193406
 10
-18.8707423325
 20
-4.048031146
 10
-18.984782649
 20
-4.0390547573
 10
-19.1004234109
 20
-4.0421981432
 10
-19.2170548288
 20
-4.0564533351
 10
-19.3259056118
 20
-4.0800605199
 10
-19.4242886685
 20
-4.1133197713
 10
-19.5148910901
 20
-4.1559310157
  0
LWPOLYLINE
  5
2DE
100
AcDbEntity
  8
0
100
AcDbPolyline
 62
7
  6
CONTINUOUS
 90
33
 70
0
 10
-18.6454738397
 20
-3.5645165693
 10
-18.5390591039
 20
-3.512301084
 10
-18.4435216648
 20
-3.454218228
 10
-18.3588615223
 20
-3.3902680013
 10
-18.2855035578
 20
-3.3208081993
 10
-18.2230228899
 20
-3.2454810265
 10
-18.1701448747
 20
-3.1632130966
 10
-18.1263861349
 20
-3.0721704195
 10
-18.0922300477
 20
-2.9741869852
 10
-18.0678521006
 20
-2.8736913772
 10
-18.0540533363
 20
-2.7697289323
 10
-18.050032712
 20
-2.6632543137
 10
-18.0535625871
 20
-2.5615600945
 10
-18.0644500339
 20
-2.4667258852
 10
-18.08288798
 20
-2.3766720752
 10
-18.1072275682
 20
-2.2924524063
 10
-18.1375558601
 20
-2.2145099646
 10
-18.173785794
 20
-2.1424016641
 10
-18.2140073279
 20
-2.075851988
 10
-18.2565403205
 20
-2.0151254968
 10
-18.3030649129
 20
-1.95995763
 10
-18.3567114869
 20
-1.9092791897
 10
-18.4184624773
 20
-1.861714783
 10
-18.4873354492
 20
-1.8186398027
 10
-18.5635134795
 20
-1.7831112292
 10
-18.6485269247
 20
-1.7555767586
 10
-18.7408454285
 20
-1.7355886947
 10
-18.8360609985
 20
-1.7248609297
 10
-18.9356157291
 20
-1.7238163869
 10
-19.038067526
 20
-1.7320321429
 10
-19.1346821139
 20
-1.7499533199
 10
-19.2231594374
 20
-1.7782915053
 10
-19.3057995519
 20
-1.8163351116
  0
LINE
  5
2DF
100
AcDbEntity
  8
0
100
AcDbLine
 62
7
  6
CONTINUOUS
 10
11.1960930686
 20
-5.1233690458
 11
10.0700680665
 21
-5.1233690458
  0
LINE
  5
2E0
100
AcDbEntity
  8
0
100
AcDbLine
 62
7
  6
CONTINUOUS
 10
-10.0700680665
 20
-5.1233690458
 11
-11.1960930686
 21
-5.1233690458
  0
LINE
  5
2E1
100
AcDbEntity
  8
0
100
AcDbLine
 62
7
  6
CONTINUOUS
 10
-20.793534
 20
-4.1384580458
 11
-21.065387
 21
-4.1384580458
  0
LINE
  5
2E2
100
AcDbEntity
  8
0
100
AcDbLine
 62
7
  6
CONTINUOUS
 10
-19.8939441169
 20
-5.3321520438
 11
-20.793534
 21
-5.3163800458
  0
LINE
  5
2E3
100
AcDbEntity
  8
0
100
AcDbLine
 62
7
  6
CONTINUOUS
 10
-21.065387
 20
-5.5994900458
 11
-19.5275902179
 21
-5.6271720419
  0
LWPOLYLINE
  5
2E4
100
AcDbEntity
  8
0
100
AcDbPolyline
 62
7
  6
CONTINUOUS
 90
16
 70
0
 10
-18.9851921845
 20
-4.3266743773
 10
-18.9087681232
 20
-4.3315996184
 10
-18.836601956
 20
-4.3428785182
 10
-18.7686936828
 20
-4.3605110768
 10
-18.7052620382
 20
-4.3846580895
 10
-18.6460882877
 20
-4.4151587609
 10
-18.5905162277
 20
-4.4515307053
 10
-18.5374565991
 20
-4.4945186706
 10
-18.4879986611
 20
-4.5433779089
 10
-18.4447539869
 20
-4.5953917908
 10
-18.4085706948
 20
-4.6493689243
 10
-18.3786006666
 20
-4.7065007014
 10
-18.3549111207
 20
-4.7676446695
 10
-18.3375244633
 20
-4.8330866776
 10
-18.3264182882
 20
-4.9025408767
 10
-18.3215925954
 20
-4.9760072668
  0
LWPOLYLINE
  5
2E5
100
AcDbEntity
  8
0
100
AcDbPolyline
 62
250
  6
CONTINUOUS
 90
10
 70
0
 10
21.0766024408
 20
-44.8963971187
 10
21.0818615341
 20
-44.9048498382
 10
21.0869930626
 20
-44.913325348
 10
21.0919970265
 20
-44.9218236482
 10
21.0968714263
 20
-44.9303447851
 10
21.1016182615
 20
-44.9388887125
 10
21.1062435302
 20
-44.947455291
 10
21.1107492319
 20
-44.9560444742
 10
21.1151333671
 20
-44.9646563087
 10
21.119395936
 20
-44.9732907943
  0
LINE
  5
2E6
100
AcDbEntity
  8
0
100
AcDbLine
 62
7
  6
CONTINUOUS
 10
-3.6
 20
45.8570938695
 11
-3.6
 21
45.3913553955
  0
LINE
  5
2E7
100
AcDbEntity
  8
0
100
AcDbLine
 62
7
  6
CONTINUOUS
 10
-1.1
 20
-15.2194621144
 11
-1.1
 21
-14.0934371124
  0
LINE
  5
2E8
100
AcDbEntity
  8
0
100
AcDbLine
 62
7
  6
CONTINUOUS
 10
-1.1
 20
6.0466990207
 11
-1.1
 21
7.1727240227
  0
LWPOLYLINE
  5
2E9
100
AcDbEntity
  8
0
100
AcDbPolyline
 62
7
  6
CONTINUOUS
 90
19
 70
0
 10
33.0
 20
25.3766309542
 10
33.041110003
 20
25.4060209596
 10
33.0795961106
 20
25.4367286827
 10
33.115461391
 20
25.4687541236
 10
33.1486516896
 20
25.5022100415
 10
33.1792727926
 20
25.5369836772
 10
33.2075450737
 20
25.5727367526
 10
33.233506128
 20
25.6094650159
 10
33.2571332349
 20
25.6471727188
 10
33.2785093464
 20
25.6855343389
 10
33.2976268473
 20
25.7244859345
 10
33.3145203729
 20
25.7640914473
 10
33.3292904156
 20
25.8042171793
 10
33.3419426311
 20
25.8449070597
 10
33.3524473533
 20
25.8861171595
 10
33.3608133262
 20
25.9275819932
 10
33.3670357787
 20
25.9692130658
 10
33.3711069533
 20
26.0110988724
 10
33.3730280729
 20
26.0532394129
  0
LWPOLYLINE
  5
2EA
100
AcDbEntity
  8
0
100
AcDbPolyline
 62
7
  6
CONTINUOUS
 90
34
 70
0
 10
-20.3466185187
 20
-1.8018544504
 10
-20.418100646
 20
-1.8050566829
 10
-20.4859921296
 20
-1.8126276612
 10
-20.5502929695
 20
-1.8245673851
 10
-20.6112349449
 20
-1.841215679
 10
-20.6685862766
 20
-1.8622327186
 10
-20.7216516272
 20
-1.8865990313
 10
-20.7701047345
 20
-1.9144471913
 10
-20.8142718606
 20
-1.9456446244
 10
-20.8544364551
 20
-1.9787741359
 10
-20.8900388691
 20
-2.0130795313
 10
-20.9216387515
 20
-2.049317005
 10
-20.9511984983
 20
-2.0883379456
 10
-20.9794817746
 20
-2.1302640081
 10
-21.0057249154
 20
-2.1749735375
 10
-21.0295993224
 20
-2.2229529569
 10
-21.0513064841
 20
-2.2744206621
 10
-21.0706449119
 20
-2.3291582573
 10
-21.0866815421
 20
-2.3869969787
 10
-21.0993365533
 20
-2.4480180445
 10
-21.1086897668
 20
-2.5121402363
 10
-21.1140475823
 20
-2.5789511349
 10
-21.1159229565
 20
-2.6485261096
 10
-21.1138029327
 20
-2.720789791
 10
-21.105455041
 20
-2.7951036516
 10
-21.0912064273
 20
-2.8721613692
 10
-21.0707299458
 20
-2.951269266
 10
-21.0408116888
 20
-3.0297077822
 10
-21.000684695
 20
-3.1078003621
 10
-20.9511159258
 20
-3.1852235614
 10
-20.8911923578
 20
-3.2582874869
 10
-20.8206096498
 20
-3.3257621742
 10
-20.739672143
 20
-3.3888775878
 10
-20.6483798375
 20
-3.4476337275
  0
LINE
  5
2EB
100
AcDbEntity
  8
0
100
AcDbLine
 62
7
  6
CONTINUOUS
 10
-11.1960930686
 20
-2.9233690458
 11
-10.0700680665
 21
-2.9233690458
  0
LINE
  5
2EC
100
AcDbEntity
  8
0
100
AcDbLine
 62
7
  6
CONTINUOUS
 10
10.0700680665
 20
-2.9233690458
 11
11.1960930686
 21
-2.9233690458
  0
LINE
  5
2ED
100
AcDbEntity
  8
0
100
AcDbLine
 62
7
  6
CONTINUOUS
 10
-19.7875325974
 20
-2.8908380458
 11
-19.5160718602
 21
-2.8908380458
  0
LWPOLYLINE
  5
2EE
100
AcDbEntity
  8
0
100
AcDbPolyline
 62
7
  6
CONTINUOUS
 90
19
 70
0
 10
-20.3383726082
 20
-2.0908540504
 10
-20.2708328301
 20
-2.0941309413
 10
-20.2076249399
 20
-2.1028251856
 10
-20.1487489375
 20
-2.1169367832
 10
-20.0939612788
 20
-2.1365880601
 10
-20.0435055081
 20
-2.1616566903
 10
-19.9981122574
 20
-2.1917756962
 10
-19.9584853538
 20
-2.2269787233
 10
-19.9239209704
 20
-2.2672321261
 10
-19.8930382578
 20
-2.3120679906
 10
-19.8651428691
 20
-2.3615656424
 10
-19.8409291513
 20
-2.415645756
 10
-19.8210992961
 20
-2.4736024408
 10
-19.8061856291
 20
-2.5355893155
 10
-19.7956558246
 20
-2.6014527615
 10
-19.7886150977
 20
-2.6700260322
 10
-19.7847651867
 20
-2.740920212
 10
-19.7844043533
 20
-2.8145242166
 10
-19.7875325974
 20
-2.8908380458
  0
LWPOLYLINE
  5
2EF
100
AcDbEntity
  8
0
100
AcDbPolyline
 62
7
  6
CONTINUOUS
 90
10
 70
0
 10
-18.9096046502
 20
-2.0104891773
 10
-18.8513615281
 20
-2.0147903205
 10
-18.7955450288
 20
-2.0232875594
 10
-18.7421551522
 20
-2.0359808941
 10
-18.6906225669
 20
-2.0533374929
 10
-18.6415166044
 20
-2.0748901874
 10
-18.5965452594
 20
-2.0992374723
 10
-18.5562778635
 20
-2.1259121791
 10
-18.5201450851
 20
-2.1553814762
 10
-18.4881469242
 20
-2.1876453637
  0
LINE
  5
2F0
100
AcDbEntity
  8
0
100
AcDbLine
 62
7
  6
CONTINUOUS
 10
1.1
 20
7.1727240227
 11
1.1
 21
6.0466990207
  0
LINE
  5
2F1
100
AcDbEntity
  8
0
100
AcDbLine
 62
7
  6
CONTINUOUS
 10
1.1
 20
-14.0934371124
 11
1.1
 21
-15.2194621144
  0
LINE
  5
2F2
100
AcDbEntity
  8
0
100
AcDbLine
 62
7
  6
CONTINUOUS
 10
1.82846
 20
26.0745409542
 11
1.82846
 21
26.4248209542
  0
LINE
  5
2F3
100
AcDbEntity
  8
0
100
AcDbLine
 62
7
  6
CONTINUOUS
 10
3.6
 20
45.8570938695
 11
3.6
 21
45.3913553955
  0
LINE
  5
2F4
100
AcDbEntity
  8
0
100
AcDbLine
 62
7
  6
CONTINUOUS
 10
4.1
 20
46.2303869946
 11
4.1
 21
45.8912792431
  0
LWPOLYLINE
  5
2F5
100
AcDbEntity
  8
0
100
AcDbPolyline
 62
7
  6
CONTINUOUS
 90
4
 70
0
 10
33.2355011409
 20
25.5508596868
 10
33.1661338767
 20
25.4847713225
 10
33.086429378
 20
25.4255351817
 10
32.9999983446
 20
25.3766343569
  0
LWPOLYLINE
  5
2F6
100
AcDbEntity
  8
0
100
AcDbPolyline
 62
7
  6
CONTINUOUS
 90
4
 70
0
 10
-33.2349977679
 20
-33.5970574581
 10
-33.1661339813
 20
-33.5315094387
 10
-33.0864294304
 20
-33.4722732843
 10
-32.9999983446
 20
-33.4233724487
  0
LWPOLYLINE
  5
2F7
100
AcDbEntity
  8
0
100
AcDbPolyline
 62
7
  6
CONTINUOUS
 90
19
 70
0
 10
-20.4
 20
36.4766309542
 10
-20.4293900351
 20
36.5177409947
 10
-20.4600977877
 20
36.556227133
 10
-20.4921232579
 20
36.5920924378
 10
-20.5255792049
 20
36.625282754
 10
-20.5603528695
 20
36.6559038693
 10
-20.5961059739
 20
36.6841761589
 10
-20.6328342688
 20
36.71013722
 10
-20.6705420035
 20
36.7337643302
 10
-20.7089036477
 20
36.7551404381
 10
-20.7478552581
 20
36.7742579288
 10
-20.787460778
 20
36.7911514403
 10
-20.8275865075
 20
36.8059214655
 10
-20.8682763771
 20
36.8185736621
 10
-20.9094864563
 20
36.8290783648
 10
-20.9509512533
 20
36.8374443179
 10
-20.9925822707
 20
36.8436667524
 10
-21.0344680058
 20
36.8477379137
 10
-21.0766084587
 20
36.8496590271
  0
LWPOLYLINE
  5
2F8
100
AcDbEntity
  8
0
100
AcDbPolyline
 62
250
  6
CONTINUOUS
 90
10
 70
0
 10
-21.0766024408
 20
36.8496590271
 10
-21.0818615341
 20
36.8581117465
 10
-21.0869930626
 20
36.8665872563
 10
-21.0919970265
 20
36.8750855565
 10
-21.0968714263
 20
36.8836066934
 10
-21.1016182615
 20
36.8921506208
 10
-21.1062435302
 20
36.9007171993
 10
-21.1107492319
 20
36.9093063826
 10
-21.1151333671
 20
36.917918217
 10
-21.119395936
 20
36.9265527026
  0
LWPOLYLINE
  5
2F9
100
AcDbEntity
  8
0
100
AcDbPolyline
 62
7
  6
CONTINUOUS
 90
11
 70
0
 10
-0.3801285901
 20
24.5128666503
 10
-0.3990618756
 20
24.6039614071
 10
-0.4267832429
 20
24.6870175507
 10
-0.4633168454
 20
24.7635860047
 10
-0.50732193
 20
24.8330636527
 10
-0.5583204924
 20
24.8953295689
 10
-0.6167905367
 20
24.9505046792
 10
-0.6828253221
 20
24.9983486458
 10
-0.7564559349
 20
25.0387813559
 10
-0.8376512886
 20
25.0718829221
 10
-0.9264113834
 20
25.0976533446
  0
LWPOLYLINE
  5
2FA
100
AcDbEntity
  8
0
100
AcDbPolyline
 62
7
  6
CONTINUOUS
 90
30
 70
0
 10
-2.32486
 20
24.2689309542
 10
-2.3075609938
 20
24.1564977366
 10
-2.2803659352
 20
24.0513571849
 10
-2.2432748244
 20
23.953509299
 10
-2.1958314346
 20
23.8628192828
 10
-2.1384919926
 20
23.7794219323
 10
-2.0726251781
 20
23.7037216364
 10
-1.9980270685
 20
23.6350033179
 10
-1.9149015865
 20
23.5739820539
 10
-1.8252291792
 20
23.523207465
 10
-1.7294142988
 20
23.4833121022
 10
-1.6270524931
 20
23.4536634146
 10
-1.5189108522
 20
23.4349133693
 10
-1.4015763605
 20
23.4272235264
 10
-1.2784620335
 20
23.4304323259
 10
-1.1605740077
 20
23.4447070553
 10
-1.0511981019
 20
23.470231584
 10
-0.9470484974
 20
23.5068220427
 10
-0.8492738741
 20
23.5540941112
 10
-0.7569833128
 20
23.613526328
 10
-0.6710677327
 20
23.6836401546
 10
-0.5953485715
 20
23.7596156556
 10
-0.5308288766
 20
23.8403074451
 10
-0.4765056005
 20
23.926860909
 10
-0.4331910391
 20
24.0178922696
 10
-0.4014170463
 20
24.114843501
 10
-0.380651768
 20
24.2162726292
 10
-0.3701119385
 20
24.3164699539
 10
-0.37000754
 20
24.4152842038
 10
-0.3801285901
 20
24.5128666503
  0
LWPOLYLINE
  5
2FB
100
AcDbEntity
  8
0
100
AcDbPolyline
 62
7
  6
CONTINUOUS
 90
31
 70
0
 10
-0.00634
 20
24.2605909542
 10
0.010460814
 20
24.1494174571
 10
0.0365608272
 20
24.0457824982
 10
0.0719600394
 20
23.9496860776
 10
0.1169500197
 20
23.8611803207
 10
0.171239199
 20
23.780213102
 10
0.233952871
 20
23.7066280452
 10
0.3051679741
 20
23.639691591
 10
0.3848075698
 20
23.5801372988
 10
0.4717661363
 20
23.5300094706
 10
0.5663297986
 20
23.489706774
 10
0.6682124316
 20
23.4588305414
 10
0.7754501387
 20
23.4382290729
 10
0.8909818078
 20
23.4280976938
 10
1.0118685508
 20
23.4282410787
 10
1.1273298074
 20
23.4389215519
 10
1.234070097
 20
23.4603298385
 10
1.3353849001
 20
23.4922752134
 10
1.4303800978
 20
23.534447826
 10
1.5186619756
 20
23.5866290656
 10
1.600624248
 20
23.6490375429
 10
1.6765539386
 20
23.7220192384
 10
1.7481634934
 20
23.8070666305
 10
1.8137404664
 20
23.9026872408
 10
1.8684345434
 20
24.0047496142
 10
1.9108749053
 20
24.1134020562
 10
1.9424323712
 20
24.2284962612
 10
1.9623690844
 20
24.3454558578
 10
1.9700835153
 20
24.465706705
 10
1.9661771936
 20
24.5878229438
 10
1.9517168513
 20
24.7029506258
  0
LINE
  5
2FC
100
AcDbEntity
  8
0
100
AcDbLine
 62
7
  6
CONTINUOUS
 10
7.5
 20
22.3766309542
 11
7.5
 21
22.5766309542
  0
LINE
  5
2FD
100
AcDbEntity
  8
0
100
AcDbLine
 62
7
  6
CONTINUOUS
 10
7.85
 20
44.0419340802
 11
7.85
 21
43.5916295443
  0
LINE
  5
2FE
100
AcDbEntity
  8
0
100
AcDbLine
 62
7
  6
CONTINUOUS
 10
8.35
 20
44.5316076606
 11
8.35
 21
44.0915533918
  0
LINE
  5
2FF
100
AcDbEntity
  8
0
100
AcDbLine
 62
7
  6
CONTINUOUS
 10
9.45
 20
42.2297062949
 11
9.45
 21
41.791903693
  0
LWPOLYLINE
  5
300
100
AcDbEntity
  8
0
100
AcDbPolyline
 62
7
  6
CONTINUOUS
 90
19
 70
0
 10
-33.0
 20
-33.4233690458
 10
-33.0411100405
 20
-33.4527590809
 10
-33.0795961789
 20
-33.4834668335
 10
-33.1154614836
 20
-33.5154923037
 10
-33.1486517999
 20
-33.5489482507
 10
-33.1792729151
 20
-33.5837219153
 10
-33.2075452047
 20
-33.6194750197
 10
-33.2335062658
 20
-33.6562033146
 10
-33.257133376
 20
-33.6939110493
 10
-33.2785094839
 20
-33.7322726935
 10
-33.2976269747
 20
-33.7712243039
 10
-33.3145204861
 20
-33.8108298238
 10
-33.3292905113
 20
-33.8509555533
 10
-33.341942708
 20
-33.891645423
 10
-33.3524474106
 20
-33.9328555022
 10
-33.3608133637
 20
-33.9743202991
 10
-33.3670357982
 20
-34.0159513165
 10
-33.3711069595
 20
-34.0578370517
 10
-33.3730280729
 20
-34.0999775046
  0
LWPOLYLINE
  5
301
100
AcDbEntity
  8
RACCORDO
100
AcDbPolyline
 62
250
  6
CONTINUOUS
 90
14
 70
0
 10
-14.0
 20
38.5150105078
 10
-13.996357841
 20
38.5094375528
 10
-13.9672498017
 20
38.4983077891
 10
-13.9092506655
 20
38.4872356955
 10
-13.8225404487
 20
38.476230901
 10
-13.7071454262
 20
38.4652966784
 10
-13.5630448641
 20
38.45444333
 10
-13.3905817419
 20
38.4437065438
 10
-13.1904111479
 20
38.4331271842
 10
-12.9632921481
 20
38.4227385005
 10
-12.7095536892
 20
38.4125495047
 10
-12.4292999207
 20
38.4025643086
 10
-12.1227039327
 20
38.392793748
 10
-11.43428343
 20
38.3740266449
  0
LWPOLYLINE
  5
302
100
AcDbEntity
  8
0
100
AcDbPolyline
 62
7
  6
CONTINUOUS
 90
19
 70
0
 10
1.9517168513
 20
24.7029506258
 10
1.9269627721
 20
24.8078407983
 10
1.8916546724
 20
24.9057424141
 10
1.8460784328
 20
24.9975483828
 10
1.7890867742
 20
25.0845753762
 10
1.7218269759
 20
25.1655067226
 10
1.6480267555
 20
25.2372853166
 10
1.5684531226
 20
25.2993787618
 10
1.4823390676
 20
25.3523194547
 10
1.3911112804
 20
25.394647479
 10
1.2936509606
 20
25.426029684
 10
1.1910769085
 20
25.4467992205
 10
1.0881722143
 20
25.456495625
 10
0.9862378281
 20
25.4554101447
 10
0.8839727999
 20
25.4432515324
 10
0.78225737
 20
25.4186855822
 10
0.6813849517
 20
25.381267559
 10
0.5810621318
 20
25.3314421981
 10
0.4812889101
 20
25.2692094993
  0
LINE
  5
303
100
AcDbEntity
  8
0
100
AcDbLine
 62
7
  6
CONTINUOUS
 10
10.1
 20
42.7586726476
 11
10.1
 21
42.2918275406
  0
LINE
  5
304
100
AcDbEntity
  8
0
100
AcDbLine
 62
7
  6
CONTINUOUS
 10
11.35
 20
40.4327662625
 11
11.35
 21
39.9921778417
  0
LINE
  5
305
100
AcDbEntity
  8
0
100
AcDbLine
 62
7
  6
CONTINUOUS
 10
11.85
 20
40.9187605389
 11
11.85
 21
40.4921016893
  0
LINE
  5
306
100
AcDbEntity
  8
0
100
AcDbLine
 62
7
  6
CONTINUOUS
 10
14.0
 20
38.5150105078
 11
14.0
 21
37.0926195257
  0
LWPOLYLINE
  5
307
100
AcDbEntity
  8
0
100
AcDbPolyline
 62
250
  6
CONTINUOUS
 90
10
 70
0
 10
-33.3730280729
 20
-34.0999714867
 10
-33.3814807923
 20
-34.1052305799
 10
-33.3899563021
 20
-34.1103621085
 10
-33.3984546023
 20
-34.1153660723
 10
-33.4069757393
 20
-34.1202404722
 10
-33.4155196666
 20
-34.1249873073
 10
-33.4240862451
 20
-34.129612576
 10
-33.4326754284
 20
-34.1341182777
 10
-33.4412872628
 20
-34.138502413
 10
-33.4499217485
 20
-34.1427649818
  0
LINE
  5
308
100
AcDbEntity
  8
0
100
AcDbLine
 62
7
  6
CONTINUOUS
 10
-17.4
 20
12.4766309542
 11
-17.6
 21
12.4766309542
  0
LWPOLYLINE
  5
309
100
AcDbEntity
  8
ASSI
100
AcDbPolyline
 62
7
  6
CONTINUOUS
 90
15
 70
0
 10
33.6159885716
 20
-15.5233690458
 10
33.6097923796
 20
-15.5176396433
 10
33.5974700651
 20
-15.4743120732
 10
33.5852186155
 20
-15.3871651102
 10
33.5730372354
 20
-15.2566905771
 10
33.5610636777
 20
-15.0843639423
 10
33.5493003014
 20
-14.8697101315
 10
33.5377447475
 20
-14.613204219
 10
33.5265276917
 20
-14.3177468964
 10
33.5156529763
 20
-13.9828960159
 10
33.5051167591
 20
-13.6090937252
 10
33.4950381886
 20
-13.2005671596
 10
33.4854224596
 20
-12.7569221544
 10
33.4762643774
 20
-12.2785528743
 10
33.4676675058
 20
-11.7708689478
  0
LWPOLYLINE
  5
30A
100
AcDbEntity
  8
0
100
AcDbPolyline
 62
7
  6
CONTINUOUS
 90
4
 70
0
 10
-20.5742287326
 20
36.7121320951
 10
-20.5081403684
 20
36.6427648309
 10
-20.4489042276
 20
36.5630603322
 10
-20.4000034028
 20
36.4766292988
  0
LWPOLYLINE
  5
30B
100
AcDbEntity
  8
RACCORDO
100
AcDbPolyline
 62
250
  6
CONTINUOUS
 90
12
 70
0
 10
-11.85
 20
40.9187605389
 10
-11.8464730111
 20
40.913715097
 10
-11.8193048304
 20
40.9038846445
 10
-11.7655043028
 20
40.8941074565
 10
-11.6852455955
 20
40.8843942052
 10
-11.5785714618
 20
40.8747500719
 10
-11.4454874903
 20
40.8651861536
 10
-11.2863351633
 20
40.8557355075
 10
-11.101747879
 20
40.8464357498
 10
-10.8924631242
 20
40.8373179033
 10
-10.658820166
 20
40.8283913574
 10
-10.1190187678
 20
40.8111371099
  0
LWPOLYLINE
  5
30C
100
AcDbEntity
  8
0
100
AcDbPolyline
 62
7
  6
CONTINUOUS
 90
12
 70
0
 10
-11.35
 20
39.9921778417
 10
-11.3475107574
 20
39.9880294664
 10
-11.3276033677
 20
39.9797399934
 10
-11.2878235124
 20
39.9714723406
 10
-11.2282409791
 20
39.9632410123
 10
-11.1489602958
 20
39.955060449
 10
-11.0501205476
 20
39.9469450023
 10
-10.9318951332
 20
39.9389089093
 10
-10.79449146
 20
39.9309662681
 10
-10.6381505807
 20
39.9231310129
 10
-10.4631467705
 20
39.9154168892
 10
-10.0584106243
 20
39.9004059332
  0
LINE
  5
30D
100
AcDbEntity
  8
0
100
AcDbLine
 62
250
  6
CONTINUOUS
 10
14.9
 20
-44.9912319861
 11
14.9000000056
 21
-44.5233690459
  0
LWPOLYLINE
  5
30E
100
AcDbEntity
  8
0
100
AcDbPolyline
 62
7
  6
CONTINUOUS
 90
13
 70
0
 10
-14.0
 20
37.0926195257
 10
-13.9901779926
 20
37.0834878862
 10
-13.9607939714
 20
37.0743562466
 10
-13.9119709385
 20
37.0652628321
 10
-13.8436274081
 20
37.0562078031
 10
-13.7558448659
 20
37.0471909991
 10
-13.6489907705
 20
37.0382501648
 10
-13.5229851768
 20
37.0293856185
 10
-13.3779080298
 20
37.0205970418
 10
-13.2143666243
 20
37.0119212238
 10
-13.0322835606
 20
37.003358637
 10
-12.8317362383
 20
36.994908809
 10
-12.3776934171
 20
36.978454163
  0
LWPOLYLINE
  5
30F
100
AcDbEntity
  8
RACCORDO
100
AcDbPolyline
 62
250
  6
CONTINUOUS
 90
12
 70
0
 10
-10.1
 20
42.7586726476
 10
-10.0966536286
 20
42.7541355084
 10
-10.0710848777
 20
42.7453441111
 10
-10.0202397219
 20
42.736563845
 10
-9.9441823884
 20
42.7278295662
 10
-9.8432664702
 20
42.7191819545
 10
-9.7180201074
 20
42.7106544671
 10
-9.5687083051
 20
42.7022556785
 10
-9.3953886501
 20
42.6939887646
 10
-9.1981314063
 20
42.6858637298
 10
-8.9775814778
 20
42.677913006
 10
-8.4706347243
 20
42.6626711712
  0
LWPOLYLINE
  5
310
100
AcDbEntity
  8
0
100
AcDbPolyline
 62
7
  6
CONTINUOUS
 90
9
 70
0
 10
-8.35
 20
44.0915533918
 10
-8.3477766773
 20
44.0882315964
 10
-8.3305342227
 20
44.0816085891
 10
-8.295942249
 20
44.0750062934
 10
-8.2441078207
 20
44.0684245812
 10
-8.1753521321
 20
44.0619042366
 10
-8.0895701131
 20
44.0554456406
 10
-7.9868668338
 20
44.0490484121
 10
-7.8678786997
 20
44.0427521918
  0
LWPOLYLINE
  5
311
100
AcDbEntity
  8
0
100
AcDbPolyline
 62
7
  6
CONTINUOUS
 90
12
 70
0
 10
-9.45
 20
41.791903693
 10
-9.4475513618
 20
41.7881494671
 10
-9.4279698689
 20
41.7806487965
 10
-9.3888474687
 20
41.7731714534
 10
-9.3302652484
 20
41.7657329358
 10
-9.2523446286
 20
41.758348661
 10
-9.1552471117
 20
41.7510339342
 10
-9.039173947
 20
41.7438039162
 10
-8.904365714
 20
41.7366735923
 10
-8.7511018233
 20
41.7296577412
 10
-8.5796999378
 20
41.7227709044
 10
-8.1839400658
 20
41.7094410726
  0
LINE
  5
312
100
AcDbEntity
  8
0
100
AcDbLine
 62
250
  6
CONTINUOUS
 10
20.1
 20
-44.9912319861
 11
20.1
 21
-44.5233690458
  0
LWPOLYLINE
  5
313
100
AcDbEntity
  8
0
100
AcDbPolyline
 62
7
  6
CONTINUOUS
 90
15
 70
0
 10
-11.5
 20
-45.1393576174
 10
-11.4942705975
 20
-45.1331614254
 10
-11.4509430274
 20
-45.1208391109
 10
-11.3637960644
 20
-45.1085876613
 10
-11.2333215313
 20
-45.0964062813
 10
-11.0609948965
 20
-45.0844327235
 10
-10.8463410857
 20
-45.0726693472
 10
-10.5898351732
 20
-45.0611137933
 10
-10.2943778506
 20
-45.0498967375
 10
-9.95952697
 20
-45.0390220222
 10
-9.5857246794
 20
-45.028485805
 10
-9.1771981137
 20
-45.0184072344
 10
-8.7335531086
 20
-45.0087915055
 10
-8.2551838284
 20
-44.9996334232
 10
-7.7474999019
 20
-44.9910365516
  0
LINE
  5
314
100
AcDbEntity
  8
0
100
AcDbLine
 62
250
  6
CONTINUOUS
 10
33.4678629402
 20
19.8766309542
 11
33.0
 21
19.8766309597
  0
LINE
  5
315
100
AcDbEntity
  8
0
100
AcDbLine
 62
7
  6
CONTINUOUS
 10
-7.5
 20
22.3766309542
 11
7.5
 21
22.3766309542
  0
LINE
  5
316
100
AcDbEntity
  8
0
100
AcDbLine
 62
7
  6
CONTINUOUS
 10
7.5
 20
22.5766309542
 11
-7.5
 21
22.5766309542
  0
LWPOLYLINE
  5
317
100
AcDbEntity
  8
0
100
AcDbPolyline
 62
7
  6
CONTINUOUS
 90
8
 70
0
 10
-11.85
 20
40.4921016893
 10
-11.8403533544
 20
40.4837787881
 10
-11.811506744
 20
40.475455887
 10
-11.7636001581
 20
40.4671733759
 10
-11.6965409508
 20
40.4589314513
 10
-11.6104217681
 20
40.4507299168
 10
-11.5056605365
 20
40.4426085735
 10
-11.3821666418
 20
40.4345678113
  0
LWPOLYLINE
  5
318
100
AcDbEntity
  8
RACCORDO
100
AcDbPolyline
 62
250
  6
CONTINUOUS
 90
11
 70
0
 10
-8.35
 20
44.5316076606
 10
-8.3470131209
 20
44.5277101838
 10
-8.3238278659
 20
44.5200786366
 10
-8.2776107565
 20
44.5124603731
 10
-8.2084342269
 20
44.5048871915
 10
-8.116632992
 20
44.4973957408
 10
-8.0027045495
 20
44.4900166324
 10
-7.8669199024
 20
44.4827594032
 10
-7.7093695919
 20
44.4756288925
 10
-7.5301575434
 20
44.4686355981
 10
-7.1096165921
 20
44.455183155
  0
LINE
  5
319
100
AcDbEntity
  8
DRAFT
100
AcDbLine
 62
7
  6
CONTINUOUS
 10
26.2242099741
 20
35.7498265624
 11
26.2242099741
 21
31.4766309542
  0
LINE
  5
31A
100
AcDbEntity
  8
DRAFT
100
AcDbLine
 62
7
  6
CONTINUOUS
 10
26.2242099741
 20
-43.7965646541
 11
26.2242099741
 21
-39.5233690458
  0
LINE
  5
31B
100
AcDbEntity
  8
DRAFT
100
AcDbLine
 62
7
  6
CONTINUOUS
 10
26.5
 20
35.4766309542
 11
26.5
 21
31.4766309542
  0
LINE
  5
31C
100
AcDbEntity
  8
DRAFT
100
AcDbLine
 62
7
  6
CONTINUOUS
 10
26.5
 20
-43.5233690458
 11
26.5
 21
-39.5233690458
  0
LINE
  5
31D
100
AcDbEntity
  8
DRAFT
100
AcDbLine
 62
250
  6
CONTINUOUS
 10
28.0
 20
29.9766309542
 11
28.0
 21
29.7008409283
  0
LINE
  5
31E
100
AcDbEntity
  8
DRAFT
100
AcDbLine
 62
250
  6
CONTINUOUS
 10
28.0
 20
-38.0233690458
 11
28.0
 21
-37.74757902
  0
LINE
  5
31F
100
AcDbEntity
  8
RACCORDO
100
AcDbLine
 62
250
  6
CONTINUOUS
 10
28.0
 20
-43.5233690458
 11
28.0
 21
-45.5233690458
  0
LINE
  5
320
100
AcDbEntity
  8
RACCORDO
100
AcDbLine
 62
250
  6
CONTINUOUS
 10
28.0
 20
35.4766309542
 11
28.0
 21
37.4766309542
  0
LWPOLYLINE
  5
321
100
AcDbEntity
  8
0
100
AcDbPolyline
 62
7
  6
CONTINUOUS
 90
28
 70
0
 10
-1.6011039925
 20
24.8944310134
 10
-1.5212605535
 20
24.915534178
 10
-1.4427512274
 20
24.9289445154
 10
-1.365576014
 20
24.9346620258
 10
-1.288664234
 20
24.932768372
 10
-1.2130865668
 20
24.9231818912
 10
-1.1420550507
 20
24.905657594
 10
-1.0763842114
 20
24.8798015594
 10
-1.0152595233
 20
24.8460077085
 10
-0.9594494484
 20
24.8052128153
 10
-0.9083206834
 20
24.7568834353
 10
-0.8625065316
 20
24.7015530129
 10
-0.8246753648
 20
24.6417586557
 10
-0.7956185104
 20
24.5780835787
 10
-0.7745446411
 20
24.5099445669
 10
-0.7617481464
 20
24.4381290824
 10
-0.7572568832
 20
24.3604216988
 10
-0.7610429947
 20
24.2790378426
 10
-0.7733173002
 20
24.2014112545
 10
-0.7942286002
 20
24.1298104113
 10
-0.8236280943
 20
24.0619668362
 10
-0.861280201
 20
23.9985088404
 10
-0.9084999007
 20
23.9383013083
 10
-0.963972213
 20
23.8824793554
 10
-1.0235166159
 20
23.8350766391
 10
-1.0860444606
 20
23.7974404207
 10
-1.1526443959
 20
23.7682234388
 10
-1.2224018465
 20
23.747417566
  0
LWPOLYLINE
  5
322
100
AcDbEntity
  8
0
100
AcDbPolyline
 62
7
  6
CONTINUOUS
 90
16
 70
0
 10
-1.2224018465
 20
23.747417566
 10
-1.2973145275
 20
23.7351235225
 10
-1.3753847237
 20
23.7312405881
 10
-1.4497047141
 20
23.7354584747
 10
-1.5184332025
 20
23.7481179746
 10
-1.5834114851
 20
23.7688782956
 10
-1.6432557285
 20
23.7964067728
 10
-1.6974580738
 20
23.8304375156
 10
-1.74652638
 20
23.8712364147
 10
-1.7906003912
 20
23.9182684775
 10
-1.8294505313
 20
23.9717744971
 10
-1.8633063764
 20
24.0315136803
 10
-1.8929963986
 20
24.0962286549
 10
-1.9187967553
 20
24.1655002967
 10
-1.9404312891
 20
24.2397477298
 10
-1.9579
 20
24.3189709542
  0
LINE
  5
323
100
AcDbEntity
  8
0
100
AcDbLine
 62
7
  6
CONTINUOUS
 10
-1.9579
 20
24.3189709542
 11
-2.32486
 21
24.2689309542
  0
LINE
  5
324
100
AcDbEntity
  8
0
100
AcDbLine
 62
7
  6
CONTINUOUS
 10
0.3773
 20
24.2897809542
 11
-0.00634
 21
24.2605909542
  0
LINE
  5
325
100
AcDbEntity
  8
0
100
AcDbLine
 62
250
  6
CONTINUOUS
 10
33.4678629402
 20
25.0766309542
 11
33.0
 21
25.0766309542
  0
LINE
  5
326
100
AcDbEntity
  8
0
100
AcDbLine
 62
7
  6
CONTINUOUS
 10
0.640531
 20
26.0745409542
 11
1.82846
 21
26.0745409542
  0
LINE
  5
327
100
AcDbEntity
  8
0
100
AcDbLine
 62
7
  6
CONTINUOUS
 10
1.82846
 20
26.4248209542
 11
0.34811
 21
26.4248209542
  0
LINE
  5
328
100
AcDbEntity
  8
0
100
AcDbLine
 62
7
  6
CONTINUOUS
 10
0.06038
 20
24.8902609542
 11
0.40649
 21
24.8402209542
  0
LINE
  5
329
100
AcDbEntity
  8
0
100
AcDbLine
 62
7
  6
CONTINUOUS
 10
-2.28733
 20
25.6992409542
 11
-1.92037
 21
25.6325209542
  0
LWPOLYLINE
  5
32A
100
AcDbEntity
  8
0
100
AcDbPolyline
 62
7
  6
CONTINUOUS
 90
9
 70
0
 10
-10.1
 20
42.2918275406
 10
-10.0903444761
 20
42.2841437065
 10
-10.0614874188
 20
42.2764598724
 10
-10.0135930999
 20
42.2688197794
 10
-9.9465529418
 20
42.2612236768
 10
-9.8604755222
 20
42.2536713153
 10
-9.7558508455
 20
42.2462056873
 10
-9.632573129
 20
42.2388272877
 10
-9.4907481555
 20
42.2315356217
  0
LWPOLYLINE
  5
32B
100
AcDbEntity
  8
0
100
AcDbPolyline
 62
7
  6
CONTINUOUS
 90
10
 70
0
 10
-4.1
 20
45.8912792431
 10
-4.098380347
 20
45.8893036221
 10
-4.0859964213
 20
45.8853702891
 10
-4.0611159696
 20
45.8814550279
 10
-4.0238515922
 20
45.8775576757
 10
-3.9745410904
 20
45.8737135619
 10
-3.9130749351
 20
45.8699231706
 10
-3.8395626554
 20
45.8661860178
 10
-3.7546706393
 20
45.8625359807
 10
-3.658295417
 20
45.8589738513
  0
LINE
  5
32C
100
AcDbEntity
  8
DRAFT
100
AcDbLine
 62
7
  6
CONTINUOUS
 10
32.0
 20
-38.0233690458
 11
32.0
 21
-39.5233690458
  0
LINE
  5
32D
100
AcDbEntity
  8
DRAFT
100
AcDbLine
 62
7
  6
CONTINUOUS
 10
32.0
 20
29.9766309542
 11
32.0
 21
31.4766309542
  0
LINE
  5
32E
100
AcDbEntity
  8
RACCORDO
100
AcDbLine
 62
250
  6
CONTINUOUS
 10
32.2731956082
 20
-37.74757902
 11
32.2731956082
 21
29.7008409283
  0
LINE
  5
32F
100
AcDbEntity
  8
RACCORDO
100
AcDbLine
 62
7
  6
CONTINUOUS
 10
32.2757899725
 20
-37.7475790734
 11
32.2757899725
 21
-39.5233690458
  0
LINE
  5
330
100
AcDbEntity
  8
RACCORDO
100
AcDbLine
 62
7
  6
CONTINUOUS
 10
32.2757899725
 20
29.7008409817
 11
32.2757899725
 21
31.4766309542
  0
LWPOLYLINE
  5
331
100
AcDbEntity
  8
0
100
AcDbPolyline
 62
250
  6
CONTINUOUS
 90
7
 70
0
 10
33.4499311715
 20
26.0960268899
 10
33.4437792264
 20
25.9968978329
 10
33.4253924874
 20
25.8992969979
 10
33.3950543711
 20
25.8047288231
 10
33.3532325151
 20
25.7146510005
 10
33.3005715695
 20
25.630452007
 10
33.2355011409
 20
25.5508596868
  0
LWPOLYLINE
  5
332
100
AcDbEntity
  8
0
100
AcDbPolyline
 62
250
  6
CONTINUOUS
 90
10
 70
0
 10
13.880604064
 20
-44.9732907943
 10
13.8848666295
 20
-44.9646563118
 10
13.8892507626
 20
-44.9560444796
 10
13.8937564634
 20
-44.9474552976
 10
13.8983817332
 20
-44.9388887192
 10
13.9031285707
 20
-44.930344791
 10
13.9080029721
 20
-44.9218236529
 10
13.9130069359
 20
-44.9133253515
 10
13.9181384636
 20
-44.9048498401
 10
13.923397555
 20
-44.8963971187
  0
LINE
  5
333
100
AcDbEntity
  8
DRAFT
100
AcDbLine
 62
7
  6
CONTINUOUS
 10
28.0
 20
29.7008409283
 11
32.2731956082
 21
29.7008409283
  0
LINE
  5
334
100
AcDbEntity
  8
DRAFT
100
AcDbLine
 62
7
  6
CONTINUOUS
 10
-28.0
 20
29.7008409283
 11
-32.2731956082
 21
29.7008409283
  0
LINE
  5
335
100
AcDbEntity
  8
DRAFT
100
AcDbLine
 62
7
  6
CONTINUOUS
 10
28.0
 20
29.9766309542
 11
32.0
 21
29.9766309542
  0
LINE
  5
336
100
AcDbEntity
  8
DRAFT
100
AcDbLine
 62
7
  6
CONTINUOUS
 10
-28.0
 20
29.9766309542
 11
-32.0
 21
29.9766309542
  0
LINE
  5
337
100
AcDbEntity
  8
DRAFT
100
AcDbLine
 62
250
  6
CONTINUOUS
 10
-26.5
 20
31.4766309542
 11
-26.2242099741
 21
31.4766309542
  0
LINE
  5
338
100
AcDbEntity
  8
DRAFT
100
AcDbLine
 62
250
  6
CONTINUOUS
 10
26.5
 20
31.4766309542
 11
26.2242099741
 21
31.4766309542
  0
LINE
  5
339
100
AcDbEntity
  8
RACCORDO
100
AcDbLine
 62
250
  6
CONTINUOUS
 10
32.0
 20
31.4766309542
 11
34.0
 21
31.4766309542
  0
LINE
  5
33A
100
AcDbEntity
  8
RACCORDO
100
AcDbLine
 62
250
  6
CONTINUOUS
 10
-32.0
 20
31.4766309542
 11
-34.0
 21
31.4766309542
  0
LWPOLYLINE
  5
33B
100
AcDbEntity
  8
0
100
AcDbPolyline
 62
250
  6
CONTINUOUS
 90
10
 70
0
 10
33.4499217485
 20
18.8572350182
 10
33.441287266
 20
18.8614975836
 10
33.4326754337
 20
18.8658817168
 10
33.4240862517
 20
18.8703874176
 10
33.4155196734
 20
18.8750126874
 10
33.4069757452
 20
18.8797595249
 10
33.3984546071
 20
18.8846339262
 10
33.3899563057
 20
18.8896378901
 10
33.3814807943
 20
18.8947694177
 10
33.3730280729
 20
18.9000285092
  0
LWPOLYLINE
  5
33C
100
AcDbEntity
  8
0
100
AcDbPolyline
 62
7
  6
CONTINUOUS
 90
11
 70
0
 10
-7.85
 20
43.5916295443
 10
-7.8411086126
 20
43.5851107556
 10
-7.8144545922
 20
43.5786067341
 10
-7.7700983188
 20
43.5721322135
 10
-7.7081402735
 20
43.5657018606
 10
-7.6287208113
 20
43.5593302423
 10
-7.5320198429
 20
43.5530317922
 10
-7.4182564269
 20
43.5468207785
 10
-7.2876882742
 20
43.540711271
 10
-7.1406111635
 20
43.5347171098
 10
-6.7982994197
 20
43.523128849
  0
LWPOLYLINE
  5
33D
100
AcDbEntity
  8
ASSI
100
AcDbPolyline
 62
7
  6
CONTINUOUS
 90
15
 70
0
 10
33.6159885716
 20
7.4766309542
 10
33.6221847636
 20
7.4709015517
 10
33.6345070781
 20
7.4275739816
 10
33.6467585277
 20
7.3404270185
 10
33.6589399077
 20
7.2099524854
 10
33.6709134655
 20
7.0376258506
 10
33.6826768418
 20
6.8229720398
 10
33.6942323957
 20
6.5664661273
 10
33.7054494515
 20
6.2710088047
 10
33.7163241668
 20
5.9361579242
 10
33.726860384
 20
5.5623556335
 10
33.7369389546
 20
5.1538290679
 10
33.7465546835
 20
4.7101840627
 10
33.7557127658
 20
4.2318147826
 10
33.7643096374
 20
3.7241308561
  0
LWPOLYLINE
  5
33E
100
AcDbEntity
  8
RACCORDO
100
AcDbPolyline
 62
250
  6
CONTINUOUS
 90
10
 70
0
 10
-4.1
 20
46.2303869946
 10
-4.0975463148
 20
46.2279118164
 10
-4.0808828735
 20
46.2234851254
 10
-4.0486473036
 20
46.219097364
 10
-4.0010060243
 20
46.2147580663
 10
-3.9380294019
 20
46.2104734665
 10
-3.8597739195
 20
46.2062537483
 10
-3.7665740779
 20
46.2021220734
 10
-3.6589951647
 20
46.1981035636
 10
-3.4029938098
 20
46.1904761522
  0
LWPOLYLINE
  5
33F
100
AcDbEntity
  8
0
100
AcDbPolyline
 62
250
  6
CONTINUOUS
 90
8
 70
0
 10
33.4499217173
 20
18.8572350183
 10
33.4437715575
 20
18.9563639241
 10
33.4253864954
 20
19.0539648105
 10
33.3950499268
 20
19.1485332107
 10
33.3532294741
 20
19.2386114021
 10
33.3005697776
 20
19.3228108764
 10
33.2378825589
 20
19.3998337424
 10
33.2245066937
 20
19.4139791652
  0
LWPOLYLINE
  5
340
100
AcDbEntity
  8
0
100
AcDbPolyline
 62
7
  6
CONTINUOUS
 90
19
 70
0
 10
33.3730280729
 20
18.9000224954
 10
33.3711045142
 20
18.9421973098
 10
33.3670280935
 20
18.9841114021
 10
33.3607984597
 20
19.0257647724
 10
33.3524243513
 20
19.0672454064
 10
33.3419113565
 20
19.1084653183
 10
33.3292511465
 20
19.1491605509
 10
33.3144740477
 20
19.1892870742
 10
33.2975750386
 20
19.2288889182
 10
33.2784535843
 20
19.267834216
 10
33.2570754321
 20
19.3061869418
 10
33.2334486437
 20
19.3438831215
 10
33.2074899504
 20
19.3805989658
 10
33.1792223742
 20
19.4163387097
 10
33.1486084654
 20
19.4510981182
 10
33.1154269389
 20
19.4845406964
 10
33.0795716216
 20
19.5165542793
 10
33.0410970064
 20
19.5472510319
 10
33.0
 20
19.5766309542
  0
LINE
  5
341
100
AcDbEntity
  8
0
100
AcDbLine
 62
250
  6
CONTINUOUS
 10
33.458813557
 20
25.9644084888
 11
33.4610709363
 21
25.877913211
  0
LINE
  5
342
100
AcDbEntity
  8
0
100
AcDbLine
 62
250
  6
CONTINUOUS
 10
33.4610709363
 20
25.877913211
 11
33.4630738488
 21
25.7723677691
  0
LINE
  5
343
100
AcDbEntity
  8
ASSI
100
AcDbLine
 62
7
  6
CONTINUOUS
 10
33.4676675058
 20
-11.7708689478
 11
33.4521701355
 21
-10.666891639
  0
LINE
  5
344
100
AcDbEntity
  8
ASSI
100
AcDbLine
 62
7
  6
CONTINUOUS
 10
33.7643096374
 20
3.7241308561
 11
33.7798070077
 21
2.6201535474
  0
LINE
  5
345
100
AcDbEntity
  8
0
100
AcDbLine
 62
250
  6
CONTINUOUS
 10
33.4630738488
 20
25.7723677691
 11
33.4654910489
 21
25.5849835137
  0
LINE
  5
346
100
AcDbEntity
  8
ASSI
100
AcDbLine
 62
7
  6
CONTINUOUS
 10
33.4521701355
 20
-10.666891639
 11
33.4391782948
 21
-9.4646194357
  0
LINE
  5
347
100
AcDbEntity
  8
ASSI
100
AcDbLine
 62
7
  6
CONTINUOUS
 10
33.7798070077
 20
2.6201535474
 11
33.7927988484
 21
1.417881344
  0
LINE
  5
348
100
AcDbEntity
  8
ASSI
100
AcDbLine
 62
7
  6
CONTINUOUS
 10
33.4391782948
 20
-9.4646194357
 11
33.4288389017
 21
-8.177648207
  0
LINE
  5
349
100
AcDbEntity
  8
ASSI
100
AcDbLine
 62
7
  6
CONTINUOUS
 10
33.7927988484
 20
1.417881344
 11
33.8031382415
 21
0.1309101153
  0
LINE
  5
34A
100
AcDbEntity
  8
0
100
AcDbLine
 62
250
  6
CONTINUOUS
 10
33.4654910489
 20
25.5849835137
 11
33.4670909925
 21
25.3732620795
  0
LINE
  5
34B
100
AcDbEntity
  8
ASSI
100
AcDbLine
 62
7
  6
CONTINUOUS
 10
33.4288389017
 20
-8.177648207
 11
33.4213480994
 21
-6.8274450136
  0
LINE
  5
34C
100
AcDbEntity
  8
ASSI
100
AcDbLine
 62
7
  6
CONTINUOUS
 10
33.8031382415
 20
0.1309101153
 11
33.8106290438
 21
-1.2192930781
  0
LINE
  5
34D
100
AcDbEntity
  8
ASSI
100
AcDbLine
 62
7
  6
CONTINUOUS
 10
33.4213480994
 20
-6.8274450136
 11
33.4168176477
 21
-5.4401108767
  0
LINE
  5
34E
100
AcDbEntity
  8
ASSI
100
AcDbLine
 62
7
  6
CONTINUOUS
 10
33.8106290438
 20
-1.2192930781
 11
33.8151594955
 21
-2.606627215
  0
LINE
  5
34F
100
AcDbEntity
  8
ASSI
100
AcDbLine
 62
7
  6
CONTINUOUS
 10
33.4168176477
 20
-5.4401108767
 11
33.4152858976
 21
-4.0233690458
  0
LINE
  5
350
100
AcDbEntity
  8
0
100
AcDbLine
 62
250
  6
CONTINUOUS
 10
33.4670909925
 20
25.3732620795
 11
33.4678629402
 21
25.0766309542
  0
LINE
  5
351
100
AcDbEntity
  8
ASSI
100
AcDbLine
 62
7
  6
CONTINUOUS
 10
33.8151594955
 20
-2.606627215
 11
33.8166912456
 21
-4.0233690458
  0
LINE
  5
352
100
AcDbEntity
  8
0
100
AcDbLine
 62
7
  6
CONTINUOUS
 10
33.0
 20
19.5766309542
 11
33.0
 21
25.3766309542
  0
LINE
  5
353
100
AcDbEntity
  8
0
100
AcDbLine
 62
250
  6
CONTINUOUS
 10
33.3730280729
 20
-39.5233690458
 11
33.3730280729
 21
18.9000285092
  0
LINE
  5
354
100
AcDbEntity
  8
0
100
AcDbLine
 62
250
  6
CONTINUOUS
 10
33.3730280729
 20
26.053233395
 11
33.3730280729
 21
31.4766309542
  0
LINE
  5
355
100
AcDbEntity
  8
ASSI
100
AcDbLine
 62
7
  6
CONTINUOUS
 10
34.0
 20
31.4766309542
 11
34.0
 21
-39.5233690458
  0
LINE
  5
356
100
AcDbEntity
  8
DRAFT
100
AcDbLine
 62
7
  6
CONTINUOUS
 10
34.0
 20
-39.5233690458
 11
34.0
 21
31.4766309542
  0
LINE
  5
357
100
AcDbEntity
  8
ASSI
100
AcDbLine
 62
7
  6
CONTINUOUS
 10
33.4152858976
 20
-4.0233690458
 11
33.4168176477
 21
-2.606627215
  0
LINE
  5
358
100
AcDbEntity
  8
ASSI
100
AcDbLine
 62
7
  6
CONTINUOUS
 10
33.8166912456
 20
-4.0233690458
 11
33.8151594955
 21
-5.4401108767
  0
LINE
  5
359
100
AcDbEntity
  8
0
100
AcDbLine
 62
250
  6
CONTINUOUS
 10
33.4678629402
 20
25.0766309542
 11
33.4674315388
 21
19.6535089626
  0
LINE
  5
35A
100
AcDbEntity
  8
ASSI
100
AcDbLine
 62
7
  6
CONTINUOUS
 10
33.4168176477
 20
-2.606627215
 11
33.4213480994
 21
-1.2192930781
  0
LINE
  5
35B
100
AcDbEntity
  8
ASSI
100
AcDbLine
 62
7
  6
CONTINUOUS
 10
33.8151594955
 20
-5.4401108767
 11
33.8106290438
 21
-6.8274450136
  0
LINE
  5
35C
100
AcDbEntity
  8
ASSI
100
AcDbLine
 62
7
  6
CONTINUOUS
 10
33.4213480994
 20
-1.2192930781
 11
33.4288389017
 21
0.1309101153
  0
LINE
  5
35D
100
AcDbEntity
  8
ASSI
100
AcDbLine
 62
7
  6
CONTINUOUS
 10
33.8106290438
 20
-6.8274450136
 11
33.8031382415
 21
-8.177648207
  0
LINE
  5
35E
100
AcDbEntity
  8
0
100
AcDbLine
 62
250
  6
CONTINUOUS
 10
33.4674315388
 20
19.6535089626
 11
33.4661208728
 21
19.4366680913
  0
LINE
  5
35F
100
AcDbEntity
  8
ASSI
100
AcDbLine
 62
7
  6
CONTINUOUS
 10
33.4288389017
 20
0.1309101153
 11
33.4391782948
 21
1.417881344
  0
LINE
  5
360
100
AcDbEntity
  8
ASSI
100
AcDbLine
 62
7
  6
CONTINUOUS
 10
33.8031382415
 20
-8.177648207
 11
33.7927988484
 21
-9.4646194357
  0
LINE
  5
361
100
AcDbEntity
  8
ASSI
100
AcDbLine
 62
7
  6
CONTINUOUS
 10
33.4391782948
 20
1.417881344
 11
33.4521701355
 21
2.6201535474
  0
LINE
  5
362
100
AcDbEntity
  8
ASSI
100
AcDbLine
 62
7
  6
CONTINUOUS
 10
33.7927988484
 20
-9.4646194357
 11
33.7798070077
 21
-10.666891639
  0
LINE
  5
363
100
AcDbEntity
  8
0
100
AcDbLine
 62
250
  6
CONTINUOUS
 10
33.4661208728
 20
19.4366680913
 11
33.4639634056
 21
19.2397141585
  0
LWPOLYLINE
  5
364
100
AcDbEntity
  8
ASSI
100
AcDbPolyline
 62
7
  6
CONTINUOUS
 90
16
 70
0
 10
33.4521701355
 20
2.6201535474
 10
33.4676675058
 20
3.7241308561
 10
33.4762643774
 20
4.2318147826
 10
33.4854224596
 20
4.7101840627
 10
33.4950381886
 20
5.1538290679
 10
33.5051167591
 20
5.5623556335
 10
33.5156529763
 20
5.9361579242
 10
33.5265276917
 20
6.2710088047
 10
33.5377447475
 20
6.5664661273
 10
33.5493003014
 20
6.8229720398
 10
33.5610636777
 20
7.0376258506
 10
33.5730372354
 20
7.2099524854
 10
33.5852186155
 20
7.3404270185
 10
33.5974700651
 20
7.4275739816
 10
33.6097923796
 20
7.4709015517
 10
33.6159885716
 20
7.4766309542
  0
LWPOLYLINE
  5
365
100
AcDbEntity
  8
ASSI
100
AcDbPolyline
 62
7
  6
CONTINUOUS
 90
16
 70
0
 10
33.7798070077
 20
-10.666891639
 10
33.7643096374
 20
-11.7708689478
 10
33.7557127658
 20
-12.2785528743
 10
33.7465546835
 20
-12.7569221544
 10
33.7369389546
 20
-13.2005671596
 10
33.726860384
 20
-13.6090937252
 10
33.7163241668
 20
-13.9828960159
 10
33.7054494515
 20
-14.3177468964
 10
33.6942323957
 20
-14.613204219
 10
33.6826768418
 20
-14.8697101315
 10
33.6709134655
 20
-15.0843639423
 10
33.6589399077
 20
-15.2566905771
 10
33.6467585277
 20
-15.3871651102
 10
33.6345070781
 20
-15.4743120732
 10
33.6221847636
 20
-15.5176396433
 10
33.6159885716
 20
-15.5233690458
  0
LINE
  5
366
100
AcDbEntity
  8
0
100
AcDbLine
 62
250
  6
CONTINUOUS
 10
33.4639634056
 20
19.2397141585
 11
33.462104841
 21
19.1258297151
  0
LWPOLYLINE
  5
367
100
AcDbEntity
  8
0
100
AcDbPolyline
 62
250
  6
CONTINUOUS
 90
10
 70
0
 10
33.462104841
 20
19.1258297151
 10
33.4599746671
 20
19.029793324
 10
33.4588145443
 20
18.9888857772
 10
33.4576165574
 20
18.9533891983
 10
33.456380145
 20
18.9234748485
 10
33.4551058685
 20
18.8989714664
 10
33.4538202393
 20
18.8800760887
 10
33.4525320949
 20
18.8668543942
 10
33.451232598
 20
18.859240704
 10
33.4499217485
 20
18.8572350182
  0
LINE
  5
368
100
AcDbEntity
  8
0
100
AcDbLine
 62
7
  6
CONTINUOUS
 10
13.0322835606
 20
37.003358637
 11
12.6135641506
 21
36.9866071107
  0
LINE
  5
369
100
AcDbEntity
  8
0
100
AcDbLine
 62
7
  6
CONTINUOUS
 10
12.6135641506
 20
36.9866071107
 11
12.1241979183
 21
36.9704493451
  0
LINE
  5
36A
100
AcDbEntity
  8
0
100
AcDbLine
 62
7
  6
CONTINUOUS
 10
12.1241979183
 20
36.9704493451
 11
11.5674465973
 21
36.9549853847
  0
LINE
  5
36B
100
AcDbEntity
  8
0
100
AcDbLine
 62
7
  6
CONTINUOUS
 10
11.5674465973
 20
36.9549853847
 11
10.9456407546
 21
36.9402799617
  0
LINE
  5
36C
100
AcDbEntity
  8
0
100
AcDbLine
 62
7
  6
CONTINUOUS
 10
10.9456407546
 20
36.9402799617
 11
10.262529897
 21
36.9264277714
  0
LINE
  5
36D
100
AcDbEntity
  8
0
100
AcDbLine
 62
7
  6
CONTINUOUS
 10
10.262529897
 20
36.9264277714
 11
9.5225695601
 21
36.9135136829
  0
LINE
  5
36E
100
AcDbEntity
  8
0
100
AcDbLine
 62
7
  6
CONTINUOUS
 10
9.5225695601
 20
36.9135136829
 11
8.728857226
 21
36.9015917546
  0
LINE
  5
36F
100
AcDbEntity
  8
0
100
AcDbLine
 62
7
  6
CONTINUOUS
 10
8.728857226
 20
36.9015917546
 11
7.886255774
 21
36.8907397463
  0
LINE
  5
370
100
AcDbEntity
  8
0
100
AcDbLine
 62
250
  6
CONTINUOUS
 10
-20.7957368149
 20
36.939704803
 11
-20.6083525596
 21
36.9421220031
  0
LINE
  5
371
100
AcDbEntity
  8
0
100
AcDbLine
 62
7
  6
CONTINUOUS
 10
7.886255774
 20
36.8907397463
 11
7.0001911224
 21
36.8810230959
  0
LINE
  5
372
100
AcDbEntity
  8
0
100
AcDbLine
 62
7
  6
CONTINUOUS
 10
7.0001911224
 20
36.8810230959
 11
6.0743723476
 21
36.8724824776
  0
LINE
  5
373
100
AcDbEntity
  8
0
100
AcDbLine
 62
7
  6
CONTINUOUS
 10
6.0743723476
 20
36.8724824776
 11
5.1145318564
 21
36.8651748162
  0
LINE
  5
374
100
AcDbEntity
  8
0
100
AcDbLine
 62
250
  6
CONTINUOUS
 10
-20.6083525596
 20
36.9421220031
 11
-20.3966311253
 21
36.9437219467
  0
LINE
  5
375
100
AcDbEntity
  8
0
100
AcDbLine
 62
7
  6
CONTINUOUS
 10
5.1145318564
 20
36.8651748162
 11
4.1267938716
 21
36.8591428375
  0
LINE
  5
376
100
AcDbEntity
  8
0
100
AcDbLine
 62
7
  6
CONTINUOUS
 10
4.1267938716
 20
36.8591428375
 11
3.1152930754
 21
36.8544117914
  0
LINE
  5
377
100
AcDbEntity
  8
0
100
AcDbLine
 62
7
  6
CONTINUOUS
 10
3.1152930754
 20
36.8544117914
 11
2.086343955
 21
36.8510149136
  0
LINE
  5
378
100
AcDbEntity
  8
0
100
AcDbLine
 62
7
  6
CONTINUOUS
 10
2.086343955
 20
36.8510149136
 11
1.0471920276
 21
36.8489707907
  0
LINE
  5
379
100
AcDbEntity
  8
0
100
AcDbLine
 62
250
  6
CONTINUOUS
 10
-20.3966311253
 20
36.9437219467
 11
-20.1
 21
36.9444938944
  0
LINE
  5
37A
100
AcDbEntity
  8
0
100
AcDbLine
 62
7
  6
CONTINUOUS
 10
1.0471920276
 20
36.8489707907
 11
-0.0
 21
36.8482858356
  0
LINE
  5
37B
100
AcDbEntity
  8
DRAFT
100
AcDbLine
 62
7
  6
CONTINUOUS
 10
-28.0
 20
35.4766309542
 11
-26.5
 21
35.4766309542
  0
LINE
  5
37C
100
AcDbEntity
  8
DRAFT
100
AcDbLine
 62
7
  6
CONTINUOUS
 10
28.0
 20
35.4766309542
 11
26.5
 21
35.4766309542
  0
LINE
  5
37D
100
AcDbEntity
  8
RACCORDO
100
AcDbLine
 62
250
  6
CONTINUOUS
 10
26.2242099741
 20
35.7498265624
 11
-26.2242099741
 21
35.7498265624
  0
LINE
  5
37E
100
AcDbEntity
  8
RACCORDO
100
AcDbLine
 62
7
  6
CONTINUOUS
 10
-28.0
 20
35.7524209266
 11
-26.2242100275
 21
35.7524209266
  0
LINE
  5
37F
100
AcDbEntity
  8
RACCORDO
100
AcDbLine
 62
7
  6
CONTINUOUS
 10
28.0
 20
35.7524209266
 11
26.2242100275
 21
35.7524209266
  0
LINE
  5
380
100
AcDbEntity
  8
0
100
AcDbLine
 62
7
  6
CONTINUOUS
 10
-14.6
 20
36.4766309542
 11
-20.4
 21
36.4766309542
  0
LINE
  5
381
100
AcDbEntity
  8
0
100
AcDbLine
 62
250
  6
CONTINUOUS
 10
28.0
 20
36.8496590271
 11
1.4678073572
 21
36.8496590271
  0
LINE
  5
382
100
AcDbEntity
  8
0
100
AcDbLine
 62
250
  6
CONTINUOUS
 10
-1.5675026654
 20
36.8498221546
 11
-13.923397555
 21
36.8496590271
  0
LINE
  5
383
100
AcDbEntity
  8
0
100
AcDbLine
 62
250
  6
CONTINUOUS
 10
-21.0766024408
 20
36.8496590271
 11
-28.0
 21
36.8496590271
  0
LINE
  5
384
100
AcDbEntity
  8
0
100
AcDbLine
 62
7
  6
CONTINUOUS
 10
-1.5675026654
 20
36.8498221546
 11
-0.0
 21
36.8482858356
  0
LINE
  5
385
100
AcDbEntity
  8
0
100
AcDbLine
 62
250
  6
CONTINUOUS
 10
-20.1
 20
36.9444938944
 11
-14.6768780084
 21
36.9440624929
  0
LINE
  5
386
100
AcDbEntity
  8
0
100
AcDbLine
 62
7
  6
CONTINUOUS
 10
-3.1152930754
 20
36.8544117914
 11
-1.5675026654
 21
36.8498221546
  0
LINE
  5
387
100
AcDbEntity
  8
0
100
AcDbLine
 62
7
  6
CONTINUOUS
 10
-4.6239068674
 20
36.8619970286
 11
-3.1152930754
 21
36.8544117914
  0
LINE
  5
388
100
AcDbEntity
  8
0
100
AcDbLine
 62
250
  6
CONTINUOUS
 10
-14.6768780084
 20
36.9440624929
 11
-14.4600371372
 21
36.942751827
  0
LINE
  5
389
100
AcDbEntity
  8
0
100
AcDbLine
 62
7
  6
CONTINUOUS
 10
-6.0743723476
 20
36.8724824776
 11
-4.6239068674
 21
36.8619970286
  0
LINE
  5
38A
100
AcDbEntity
  8
0
100
AcDbLine
 62
7
  6
CONTINUOUS
 10
-7.4484490712
 20
36.8857362776
 11
-6.0743723476
 21
36.8724824776
  0
LINE
  5
38B
100
AcDbEntity
  8
0
100
AcDbLine
 62
250
  6
CONTINUOUS
 10
-14.4600371372
 20
36.942751827
 11
-14.2630832044
 21
36.9405943597
  0
LINE
  5
38C
100
AcDbEntity
  8
0
100
AcDbLine
 62
7
  6
CONTINUOUS
 10
-8.728857226
 20
36.9015917546
 11
-7.4484490712
 21
36.8857362776
  0
LINE
  5
38D
100
AcDbEntity
  8
0
100
AcDbLine
 62
7
  6
CONTINUOUS
 10
-9.8994949366
 20
36.9198495166
 11
-8.728857226
 21
36.9015917546
  0
LINE
  5
38E
100
AcDbEntity
  8
0
100
AcDbLine
 62
250
  6
CONTINUOUS
 10
-14.2630832044
 20
36.9405943597
 11
-14.1491987609
 21
36.9387357952
  0
LINE
  5
38F
100
AcDbEntity
  8
0
100
AcDbLine
 62
7
  6
CONTINUOUS
 10
-10.6117324248
 20
36.9332474356
 11
-9.8994949366
 21
36.9198495166
  0
LINE
  5
390
100
AcDbEntity
  8
0
100
AcDbLine
 62
7
  6
CONTINUOUS
 10
-11.264190775
 20
36.9475262422
 11
-10.6117324248
 21
36.9332474356
  0
LWPOLYLINE
  5
391
100
AcDbEntity
  8
0
100
AcDbPolyline
 62
250
  6
CONTINUOUS
 90
10
 70
0
 10
-14.1491987609
 20
36.9387357952
 10
-14.0531623698
 20
36.9366056212
 10
-14.0122548231
 20
36.9354454985
 10
-13.9767582441
 20
36.9342475115
 10
-13.9468438943
 20
36.9330110992
 10
-13.9223405122
 20
36.9317368226
 10
-13.9034451345
 20
36.9304511935
 10
-13.89022344
 20
36.9291630491
 10
-13.8826097498
 20
36.9278635521
 10
-13.880604064
 20
36.9265527026
  0
LINE
  5
392
100
AcDbEntity
  8
0
100
AcDbLine
 62
7
  6
CONTINUOUS
 10
-11.8541387892
 20
36.9626261652
 11
-11.264190775
 21
36.9475262422
  0
LINE
  5
393
100
AcDbEntity
  8
0
100
AcDbLine
 62
7
  6
CONTINUOUS
 10
-12.3776934171
 20
36.978454163
 11
-11.8541387892
 21
36.9626261652
  0
LWPOLYLINE
  5
394
100
AcDbEntity
  8
0
100
AcDbPolyline
 62
250
  6
CONTINUOUS
 90
7
 70
0
 10
-21.1193959357
 20
36.9265621256
 10
-21.0202668787
 20
36.9204101806
 10
-20.9226660438
 20
36.9020234416
 10
-20.8280978689
 20
36.8716853253
 10
-20.7380200463
 20
36.8298634693
 10
-20.6538210528
 20
36.7772025236
 10
-20.5742287326
 20
36.7121320951
  0
LWPOLYLINE
  5
395
100
AcDbEntity
  8
0
100
AcDbPolyline
 62
7
  6
CONTINUOUS
 90
10
 70
0
 10
-3.6
 20
45.3913553955
 10
-3.5938615534
 20
45.3877064236
 10
-3.5755693092
 20
45.3840574516
 10
-3.5453079108
 20
45.3804453127
 10
-3.5029561329
 20
45.3768703798
 10
-3.4486352008
 20
45.37333228
 10
-3.3828934348
 20
45.3698667272
 10
-3.3056151629
 20
45.366474456
 10
-3.216916057
 20
45.3631547317
 10
-3.0078347488
 20
45.3568345269
  0
LWPOLYLINE
  5
396
100
AcDbEntity
  8
0
100
AcDbPolyline
 62
7
  6
CONTINUOUS
 90
4
 70
0
 10
33.2245066937
 20
19.4139791652
 10
33.1661341088
 20
19.4684927326
 10
33.0864303921
 20
19.5277295046
 10
33.0
 20
19.5766309542
  0
LWPOLYLINE
  5
397
100
AcDbEntity
  8
0
100
AcDbPolyline
 62
7
  6
CONTINUOUS
 90
15
 70
0
 10
11.5
 20
-45.1393576174
 10
11.4942705975
 20
-45.1455538094
 10
11.4509430274
 20
-45.1578761239
 10
11.3637960644
 20
-45.1701275735
 10
11.2333215313
 20
-45.1823089536
 10
11.0609948965
 20
-45.1942825113
 10
10.8463410857
 20
-45.2060458876
 10
10.5898351732
 20
-45.2176014415
 10
10.2943778506
 20
-45.2288184973
 10
9.95952697
 20
-45.2396932127
 10
9.5857246794
 20
-45.2502294299
 10
9.1771981137
 20
-45.2603080004
 10
8.7335531086
 20
-45.2699237294
 10
8.2551838284
 20
-45.2790818116
 10
7.7474999019
 20
-45.2876786832
  0
LWPOLYLINE
  5
398
100
AcDbEntity
  8
0
100
AcDbPolyline
 62
7
  6
CONTINUOUS
 90
4
 70
0
 10
14.437348211
 20
-44.7478757395
 10
14.4918617785
 20
-44.6895031546
 10
14.5510985504
 20
-44.6097994379
 10
14.6
 20
-44.5233690458
  0
LINE
  5
399
100
AcDbEntity
  8
0
100
AcDbLine
 62
7
  6
CONTINUOUS
 10
-11.3516115151
 20
39.998205818
 11
-13.2306563404
 21
39.495863242
  0
LWPOLYLINE
  5
39A
100
AcDbEntity
  8
0
100
AcDbPolyline
 62
250
  6
CONTINUOUS
 90
8
 70
0
 10
-13.8806040641
 20
36.9265526715
 10
-13.9797329699
 20
36.9204025117
 10
-14.0773338563
 20
36.9020174495
 10
-14.1719022565
 20
36.871680881
 10
-14.261980448
 20
36.8298604283
 10
-14.3461799222
 20
36.7772007317
 10
-14.4232027882
 20
36.714513513
 10
-14.437348211
 20
36.7011376479
  0
LWPOLYLINE
  5
39B
100
AcDbEntity
  8
0
100
AcDbPolyline
 62
7
  6
CONTINUOUS
 90
4
 70
0
 10
11.3821666418
 20
40.4345678113
 10
11.2400306983
 20
40.4266072402
 10
11.0799424758
 20
40.4187654922
 10
10.9018147128
 20
40.4110431447
  0
LWPOLYLINE
  5
39C
100
AcDbEntity
  8
0
100
AcDbPolyline
 62
7
  6
CONTINUOUS
 90
19
 70
0
 10
-13.9233915413
 20
36.8496590271
 10
-13.9655663556
 20
36.8477354683
 10
-14.007480448
 20
36.8436590476
 10
-14.0491338183
 20
36.8374294139
 10
-14.0906144522
 20
36.8290553055
 10
-14.1318343641
 20
36.8185423107
 10
-14.1725295968
 20
36.8058821007
 10
-14.21265612
 20
36.7911050019
 10
-14.252257964
 20
36.7742059928
 10
-14.2912032618
 20
36.7550845385
 10
-14.3295559877
 20
36.7337063863
 10
-14.3672521674
 20
36.7100795979
 10
-14.4039680116
 20
36.6841209046
 10
-14.4397077556
 20
36.6558533284
 10
-14.4744671641
 20
36.6252394195
 10
-14.5079097422
 20
36.592057893
 10
-14.5399233252
 20
36.5562025758
 10
-14.5706200777
 20
36.5177279606
 10
-14.6
 20
36.4766309542
  0
LWPOLYLINE
  5
39D
100
AcDbEntity
  8
0
100
AcDbPolyline
 62
7
  6
CONTINUOUS
 90
3
 70
0
 10
9.4907481555
 20
42.2315356217
 10
9.3311832784
 20
42.2243721979
 10
9.1537773193
 20
42.2173377477
  0
LWPOLYLINE
  5
39E
100
AcDbEntity
  8
RACCORDO
100
AcDbPolyline
 62
250
  6
CONTINUOUS
 90
11
 70
0
 10
10.6648530882
 20
40.8286084137
 10
10.8978970479
 20
40.8375396203
 10
11.1065705722
 20
40.84666163
 10
11.2905347372
 20
40.8559650317
 10
11.4490544915
 20
40.8654188035
 10
11.5814991791
 20
40.8749853363
 10
11.6875294499
 20
40.8846315768
 10
11.7671401408
 20
40.8943464195
 10
11.8202886307
 20
40.9041246729
 10
11.846801364
 20
40.9139556585
 10
11.85
 20
40.9187605389
  0
LWPOLYLINE
  5
39F
100
AcDbEntity
  8
RACCORDO
100
AcDbPolyline
 62
250
  6
CONTINUOUS
 90
12
 70
0
 10
10.4647369492
 20
41.1200336593
 10
10.6934080422
 20
41.1287972833
 10
10.8981659957
 20
41.137748128
 10
11.0786782574
 20
41.1468769559
 10
11.2342235575
 20
41.1561533302
 10
11.3641830592
 20
41.1655403516
 10
11.4682237718
 20
41.1750055888
 10
11.5463406365
 20
41.1845381428
 10
11.5984918407
 20
41.1941329173
 10
11.624507089
 20
41.203779433
 10
11.6241849013
 20
41.2134449223
 10
11.6029478508
 20
41.2217136562
  0
LWPOLYLINE
  5
3A0
100
AcDbEntity
  8
RACCORDO
100
AcDbPolyline
 62
250
  6
CONTINUOUS
 90
13
 70
0
 10
11.771156282
 20
39.3742921234
 10
12.0365812922
 20
39.3837485174
 10
12.2768967653
 20
39.393397987
 10
12.4920019656
 20
39.4032365582
 10
12.6815847278
 20
39.4132556474
 10
12.8449273525
 20
39.423423812
 10
12.9814102383
 20
39.4337024099
 10
13.0907085205
 20
39.444057674
 10
13.1728411475
 20
39.4544798194
 10
13.2277828506
 20
39.464965717
 10
13.2553630748
 20
39.4755062375
 10
13.255369705
 20
39.486067134
 10
13.2306563448
 20
39.4958632408
  0
LINE
  5
3A1
100
AcDbEntity
  8
0
100
AcDbLine
 62
7
  6
CONTINUOUS
 10
10.4631467705
 20
39.9154168892
 11
10.0584106243
 21
39.9004059332
  0
LINE
  5
3A2
100
AcDbEntity
  8
0
100
AcDbLine
 62
7
  6
CONTINUOUS
 10
10.9018147128
 20
40.4110431447
 11
10.492653904
 21
40.3959918178
  0
LWPOLYLINE
  5
3A3
100
AcDbEntity
  8
RACCORDO
100
AcDbPolyline
 62
250
  6
CONTINUOUS
 90
13
 70
0
 10
12.1225753081
 20
38.3927898624
 10
12.4291754424
 20
38.4025601181
 10
12.7094379726
 20
38.4125451331
 10
12.9631873246
 20
38.4227340154
 10
13.1903171206
 20
38.4331225713
 10
13.3904977378
 20
38.4437017392
 10
13.5629713631
 20
38.454438317
 10
13.7070837674
 20
38.4652915006
 10
13.8224919306
 20
38.476225634
 10
13.909215856
 20
38.4872303866
 10
13.967228857
 20
38.4983024555
 10
13.996350842
 20
38.5094322016
 10
14.0
 20
38.5150105078
  0
LINE
  5
3A4
100
AcDbEntity
  8
0
100
AcDbLine
 62
7
  6
CONTINUOUS
 10
8.5796999378
 20
41.7227709044
 11
8.1839400658
 21
41.7094410726
  0
LINE
  5
3A5
100
AcDbEntity
  8
RACCORDO
100
AcDbLine
 62
250
  6
CONTINUOUS
 10
10.1262145657
 20
40.8113434543
 11
10.6648530882
 21
40.8286084137
  0
LINE
  5
3A6
100
AcDbEntity
  8
RACCORDO
100
AcDbLine
 62
250
  6
CONTINUOUS
 10
9.9362054581
 20
41.1030926683
 11
10.4647369492
 21
41.1200336593
  0
LINE
  5
3A7
100
AcDbEntity
  8
0
100
AcDbLine
 62
7
  6
CONTINUOUS
 10
10.0584106243
 20
39.9004059332
 11
9.5831219544
 21
39.8860386912
  0
LINE
  5
3A8
100
AcDbEntity
  8
0
100
AcDbLine
 62
7
  6
CONTINUOUS
 10
10.492653904
 20
40.3959918178
 11
10.0153249243
 21
40.3815648928
  0
LINE
  5
3A9
100
AcDbEntity
  8
RACCORDO
100
AcDbLine
 62
250
  6
CONTINUOUS
 10
11.1662929118
 20
39.3560195561
 11
11.771156282
 21
39.3742921234
  0
LINE
  5
3AA
100
AcDbEntity
  8
RACCORDO
100
AcDbLine
 62
250
  6
CONTINUOUS
 10
11.4341531213
 20
38.3740234265
 11
12.1225753081
 21
38.3927898624
  0
LINE
  5
3AB
100
AcDbEntity
  8
0
100
AcDbLine
 62
7
  6
CONTINUOUS
 10
8.1839400658
 20
41.7094410726
 11
7.7203654889
 21
41.696794552
  0
LINE
  5
3AC
100
AcDbEntity
  8
RACCORDO
100
AcDbLine
 62
250
  6
CONTINUOUS
 10
9.4951200261
 20
40.7950265538
 11
10.1262145657
 21
40.8113434543
  0
LINE
  5
3AD
100
AcDbEntity
  8
RACCORDO
100
AcDbLine
 62
250
  6
CONTINUOUS
 10
9.3169527716
 20
41.0870819579
 11
9.9362054581
 21
41.1030926683
  0
LINE
  5
3AE
100
AcDbEntity
  8
0
100
AcDbLine
 62
7
  6
CONTINUOUS
 10
10.0153249243
 20
40.3815648928
 11
9.4735146301
 21
40.3678656661
  0
LINE
  5
3AF
100
AcDbEntity
  8
0
100
AcDbLine
 62
250
  6
CONTINUOUS
 10
-20.9877775347
 20
36.9354445112
 11
-20.9012822569
 21
36.9377018905
  0
LINE
  5
3B0
100
AcDbEntity
  8
0
100
AcDbLine
 62
7
  6
CONTINUOUS
 10
9.5831219544
 20
39.8860386912
 11
9.0406145696
 21
39.872415939
  0
LINE
  5
3B1
100
AcDbEntity
  8
RACCORDO
100
AcDbLine
 62
250
  6
CONTINUOUS
 10
10.4694677519
 20
39.3388050027
 11
11.1662929118
 21
39.3560195561
  0
LINE
  5
3B2
100
AcDbEntity
  8
RACCORDO
100
AcDbLine
 62
250
  6
CONTINUOUS
 10
10.652699554
 20
38.3564719502
 11
11.4341531213
 21
38.3740234265
  0
LINE
  5
3B3
100
AcDbEntity
  8
0
100
AcDbLine
 62
7
  6
CONTINUOUS
 10
7.7203654889
 20
41.696794552
 11
7.1928175323
 21
41.6849361357
  0
LINE
  5
3B4
100
AcDbEntity
  8
0
100
AcDbLine
 62
7
  6
CONTINUOUS
 10
9.4735146301
 20
40.3678656661
 11
8.8698523658
 21
40.3549606184
  0
LINE
  5
3B5
100
AcDbEntity
  8
0
100
AcDbLine
 62
7
  6
CONTINUOUS
 10
9.0406145696
 20
39.872415939
 11
8.4346937692
 21
39.8596332306
  0
LINE
  5
3B6
100
AcDbEntity
  8
RACCORDO
100
AcDbLine
 62
250
  6
CONTINUOUS
 10
8.7801548685
 20
40.7798725178
 11
9.4951200261
 21
40.7950265538
  0
LINE
  5
3B7
100
AcDbEntity
  8
RACCORDO
100
AcDbLine
 62
250
  6
CONTINUOUS
 10
8.6154032894
 20
41.0722122709
 11
9.3169527716
 21
41.0870819579
  0
LINE
  5
3B8
100
AcDbEntity
  8
RACCORDO
100
AcDbLine
 62
250
  6
CONTINUOUS
 10
9.6868413266
 20
39.3227881824
 11
10.4694677519
 21
39.3388050027
  0
LINE
  5
3B9
100
AcDbEntity
  8
RACCORDO
100
AcDbLine
 62
250
  6
CONTINUOUS
 10
9.7820795021
 20
38.3402153403
 11
10.652699554
 21
38.3564719502
  0
LINE
  5
3BA
100
AcDbEntity
  8
0
100
AcDbLine
 62
7
  6
CONTINUOUS
 10
7.1928175323
 20
41.6849361357
 11
6.6056676242
 21
41.6739640862
  0
LINE
  5
3BB
100
AcDbEntity
  8
0
100
AcDbLine
 62
250
  6
CONTINUOUS
 10
-20.9012822569
 20
36.9377018905
 11
-20.7957368149
 21
36.939704803
  0
LINE
  5
3BC
100
AcDbEntity
  8
0
100
AcDbLine
 62
7
  6
CONTINUOUS
 10
8.8698523658
 20
40.3549606184
 11
8.2085648699
 21
40.3429465422
  0
LINE
  5
3BD
100
AcDbEntity
  8
0
100
AcDbLine
 62
7
  6
CONTINUOUS
 10
8.4346937692
 20
39.8596332306
 11
7.7696096523
 21
39.8477802274
  0
LINE
  5
3BE
100
AcDbEntity
  8
RACCORDO
100
AcDbLine
 62
250
  6
CONTINUOUS
 10
7.9847820301
 20
40.7659490442
 11
8.7801548685
 21
40.7798725178
  0
LINE
  5
3BF
100
AcDbEntity
  8
RACCORDO
100
AcDbLine
 62
250
  6
CONTINUOUS
 10
7.8349548859
 20
41.0585500623
 11
8.6154032894
 21
41.0722122709
  0
LINE
  5
3C0
100
AcDbEntity
  8
RACCORDO
100
AcDbLine
 62
250
  6
CONTINUOUS
 10
8.8220033156
 20
39.3080469612
 11
9.6868413266
 21
39.3227881824
  0
LINE
  5
3C1
100
AcDbEntity
  8
RACCORDO
100
AcDbLine
 62
250
  6
CONTINUOUS
 10
8.8291589668
 20
38.3253919407
 11
9.7820795021
 21
38.3402153403
  0
LINE
  5
3C2
100
AcDbEntity
  8
0
100
AcDbLine
 62
7
  6
CONTINUOUS
 10
8.2085648699
 20
40.3429465422
 11
7.4946483119
 21
40.3319083336
  0
LINE
  5
3C3
100
AcDbEntity
  8
0
100
AcDbLine
 62
7
  6
CONTINUOUS
 10
6.6056676242
 20
41.6739640862
 11
5.9637810739
 21
41.6639693215
  0
LINE
  5
3C4
100
AcDbEntity
  8
0
100
AcDbLine
 62
7
  6
CONTINUOUS
 10
7.7696096523
 20
39.8477802274
 11
7.0500273062
 21
39.8369400697
  0
LINE
  5
3C5
100
AcDbEntity
  8
RACCORDO
100
AcDbLine
 62
250
  6
CONTINUOUS
 10
7.1161615574
 20
40.7533924339
 11
7.9847820301
 21
40.7659490442
  0
LINE
  5
3C6
100
AcDbEntity
  8
RACCORDO
100
AcDbLine
 62
250
  6
CONTINUOUS
 10
6.9826332462
 20
41.0462290818
 11
7.8349548859
 21
41.0585500623
  0
LINE
  5
3C7
100
AcDbEntity
  8
RACCORDO
100
AcDbLine
 62
250
  6
CONTINUOUS
 10
7.884756538
 20
39.2947537221
 11
8.8220033156
 21
39.3080469612
  0
LINE
  5
3C8
100
AcDbEntity
  8
0
100
AcDbLine
 62
7
  6
CONTINUOUS
 10
7.4946483119
 20
40.3319083336
 11
6.7315672488
 21
40.3218995596
  0
LINE
  5
3C9
100
AcDbEntity
  8
RACCORDO
100
AcDbLine
 62
250
  6
CONTINUOUS
 10
7.8049487999
 20
38.3121697185
 11
8.8291589668
 21
38.3253919407
  0
LINE
  5
3CA
100
AcDbEntity
  8
0
100
AcDbLine
 62
7
  6
CONTINUOUS
 10
5.9637810739
 20
41.6639693215
 11
5.2724767553
 21
41.6550346613
  0
LINE
  5
3CB
100
AcDbEntity
  8
0
100
AcDbLine
 62
7
  6
CONTINUOUS
 10
7.0500273062
 20
39.8369400697
 11
6.2809940839
 21
39.8271887934
  0
LINE
  5
3CC
100
AcDbEntity
  8
RACCORDO
100
AcDbLine
 62
250
  6
CONTINUOUS
 10
6.8831696147
 20
39.2830154843
 11
7.884756538
 21
39.2947537221
  0
LINE
  5
3CD
100
AcDbEntity
  8
RACCORDO
100
AcDbLine
 62
250
  6
CONTINUOUS
 10
6.1858012876
 20
40.7423631032
 11
7.1161615574
 21
40.7533924339
  0
LINE
  5
3CE
100
AcDbEntity
  8
RACCORDO
100
AcDbLine
 62
250
  6
CONTINUOUS
 10
6.0697302609
 20
41.0354067485
 11
6.9826332462
 21
41.0462290818
  0
LINE
  5
3CF
100
AcDbEntity
  8
0
100
AcDbLine
 62
7
  6
CONTINUOUS
 10
6.7315672488
 20
40.3218995596
 11
5.9247528622
 21
40.3129965466
  0
LINE
  5
3D0
100
AcDbEntity
  8
RACCORDO
100
AcDbLine
 62
250
  6
CONTINUOUS
 10
6.7152307701
 20
38.3006187424
 11
7.8049487999
 21
38.3121697185
  0
LINE
  5
3D1
100
AcDbEntity
  8
0
100
AcDbLine
 62
7
  6
CONTINUOUS
 10
6.2809940839
 20
39.8271887934
 11
5.4679042011
 21
39.8185947968
  0
LINE
  5
3D2
100
AcDbEntity
  8
0
100
AcDbLine
 62
7
  6
CONTINUOUS
 10
5.2724767553
 20
41.6550346613
 11
4.5374830339
 21
41.647234141
  0
LINE
  5
3D3
100
AcDbEntity
  8
RACCORDO
100
AcDbLine
 62
250
  6
CONTINUOUS
 10
5.8227821908
 20
39.2728992512
 11
6.8831696147
 21
39.2830154843
  0
LINE
  5
3D4
100
AcDbEntity
  8
RACCORDO
100
AcDbLine
 62
250
  6
CONTINUOUS
 10
5.2077120957
 20
40.7329909812
 11
6.1858012876
 21
40.7423631032
  0
LINE
  5
3D5
100
AcDbEntity
  8
RACCORDO
100
AcDbLine
 62
250
  6
CONTINUOUS
 10
5.109994073
 20
41.0262104641
 11
6.0697302609
 21
41.0354067485
  0
LINE
  5
3D6
100
AcDbEntity
  8
0
100
AcDbLine
 62
7
  6
CONTINUOUS
 10
5.9247528622
 20
40.3129965466
 11
5.0802202758
 21
40.3052608566
  0
LINE
  5
3D7
100
AcDbEntity
  8
0
100
AcDbLine
 62
7
  6
CONTINUOUS
 10
5.4679042011
 20
39.8185947968
 11
4.6164608989
 21
39.8112183605
  0
LINE
  5
3D8
100
AcDbEntity
  8
RACCORDO
100
AcDbLine
 62
250
  6
CONTINUOUS
 10
5.5687749508
 20
38.2908379315
 11
6.7152307701
 21
38.3006187424
  0
LINE
  5
3D9
100
AcDbEntity
  8
0
100
AcDbLine
 62
7
  6
CONTINUOUS
 10
4.5374830339
 20
41.647234141
 11
3.764890299
 21
41.6406323982
  0
LINE
  5
3DA
100
AcDbEntity
  8
RACCORDO
100
AcDbLine
 62
250
  6
CONTINUOUS
 10
4.7144668222
 20
39.2645131339
 11
5.8227821908
 21
39.2728992512
  0
LINE
  5
3DB
100
AcDbEntity
  8
0
100
AcDbLine
 62
7
  6
CONTINUOUS
 10
5.0802202758
 20
40.3052608566
 11
4.2020679115
 21
40.2987300299
  0
LINE
  5
3DC
100
AcDbEntity
  8
RACCORDO
100
AcDbLine
 62
250
  6
CONTINUOUS
 10
4.1967200972
 20
40.7253535105
 11
5.2077120957
 21
40.7329909812
  0
LINE
  5
3DD
100
AcDbEntity
  8
0
100
AcDbLine
 62
7
  6
CONTINUOUS
 10
4.6164608989
 20
39.8112183605
 11
3.7326364405
 21
39.8051112249
  0
LINE
  5
3DE
100
AcDbEntity
  8
RACCORDO
100
AcDbLine
 62
250
  6
CONTINUOUS
 10
4.3771480375
 20
38.2829259558
 11
5.5687749508
 21
38.2908379315
  0
LINE
  5
3DF
100
AcDbEntity
  8
RACCORDO
100
AcDbLine
 62
250
  6
CONTINUOUS
 10
3.6135634828
 20
41.015612171
 11
5.109994073
 21
41.0262104641
  0
LINE
  5
3E0
100
AcDbEntity
  8
0
100
AcDbLine
 62
7
  6
CONTINUOUS
 10
3.764890299
 20
41.6406323982
 11
2.9611004975
 21
41.6352841369
  0
LINE
  5
3E1
100
AcDbEntity
  8
0
100
AcDbLine
 62
7
  6
CONTINUOUS
 10
4.2020679115
 20
40.2987300299
 11
3.2966157537
 21
40.2934554909
  0
LINE
  5
3E2
100
AcDbEntity
  8
RACCORDO
100
AcDbLine
 62
250
  6
CONTINUOUS
 10
3.5682703527
 20
39.2579284703
 11
4.7144668222
 21
39.2645131339
  0
LINE
  5
3E3
100
AcDbEntity
  8
0
100
AcDbLine
 62
7
  6
CONTINUOUS
 10
3.7326364405
 20
39.8051112249
 11
2.8226302193
 21
39.8003162273
  0
LINE
  5
3E4
100
AcDbEntity
  8
RACCORDO
100
AcDbLine
 62
250
  6
CONTINUOUS
 10
3.1513444041
 20
38.276947265
 11
4.3771480375
 21
38.2829259558
  0
LINE
  5
3E5
100
AcDbEntity
  8
RACCORDO
100
AcDbLine
 62
250
  6
CONTINUOUS
 10
2.6635116582
 20
40.7172413973
 11
4.1967200972
 21
40.7253535105
  0
LINE
  5
3E6
100
AcDbEntity
  8
0
100
AcDbLine
 62
7
  6
CONTINUOUS
 10
2.9611004975
 20
41.6352841369
 11
2.1327740846
 21
41.6312336746
  0
LINE
  5
3E7
100
AcDbEntity
  8
0
100
AcDbLine
 62
7
  6
CONTINUOUS
 10
3.2966157537
 20
40.2934554909
 11
2.3705483031
 21
40.2894718897
  0
LINE
  5
3E8
100
AcDbEntity
  8
RACCORDO
100
AcDbLine
 62
250
  6
CONTINUOUS
 10
2.1384044406
 20
41.0090252079
 11
3.6135634828
 21
41.015612171
  0
LINE
  5
3E9
100
AcDbEntity
  8
RACCORDO
100
AcDbLine
 62
250
  6
CONTINUOUS
 10
2.3950962972
 20
39.2531974755
 11
3.5682703527
 21
39.2579284703
  0
LINE
  5
3EA
100
AcDbEntity
  8
0
100
AcDbLine
 62
7
  6
CONTINUOUS
 10
2.8226302193
 20
39.8003162273
 11
1.8928252752
 21
39.796867001
  0
LINE
  5
3EB
100
AcDbEntity
  8
RACCORDO
100
AcDbLine
 62
250
  6
CONTINUOUS
 10
1.9014262907
 20
38.2729407646
 11
3.1513444041
 21
38.276947265
  0
LINE
  5
3EC
100
AcDbEntity
  8
0
100
AcDbLine
 62
7
  6
CONTINUOUS
 10
2.1327740846
 20
41.6312336746
 11
1.286774834
 21
41.6285145747
  0
LINE
  5
3ED
100
AcDbEntity
  8
0
100
AcDbLine
 62
7
  6
CONTINUOUS
 10
2.3705483031
 20
40.2894718897
 11
1.428359661
 21
40.2867985581
  0
LINE
  5
3EE
100
AcDbEntity
  8
RACCORDO
100
AcDbLine
 62
250
  6
CONTINUOUS
 10
1.2025612621
 20
39.2503443419
 11
2.3950962972
 21
39.2531974755
  0
LINE
  5
3EF
100
AcDbEntity
  8
0
100
AcDbLine
 62
7
  6
CONTINUOUS
 10
1.8928252752
 20
39.796867001
 11
0.9497435218
 21
39.7947877399
  0
LINE
  5
3F0
100
AcDbEntity
  8
RACCORDO
100
AcDbLine
 62
250
  6
CONTINUOUS
 10
0.8210144891
 20
40.7124464895
 11
2.6635116582
 21
40.7172413973
  0
LINE
  5
3F1
100
AcDbEntity
  8
RACCORDO
100
AcDbLine
 62
250
  6
CONTINUOUS
 10
0.6355407745
 20
38.2709286833
 11
1.9014262907
 21
38.2729407646
  0
LINE
  5
3F2
100
AcDbEntity
  8
0
100
AcDbLine
 62
7
  6
CONTINUOUS
 10
1.286774834
 20
41.6285145747
 11
0.4301129618
 21
41.6271493685
  0
LINE
  5
3F3
100
AcDbEntity
  8
0
100
AcDbLine
 62
7
  6
CONTINUOUS
 10
1.428359661
 20
40.2867985581
 11
0.478434187
 21
40.2854606589
  0
LINE
  5
3F4
100
AcDbEntity
  8
RACCORDO
100
AcDbLine
 62
250
  6
CONTINUOUS
 10
0.3939981935
 20
41.0056801969
 11
2.1384044406
 21
41.0090252079
  0
LINE
  5
3F5
100
AcDbEntity
  8
0
100
AcDbLine
 62
7
  6
CONTINUOUS
 10
0.9497435218
 20
39.7947877399
 11
-0.0
 21
39.7940930286
  0
LINE
  5
3F6
100
AcDbEntity
  8
ASSI
100
AcDbLine
 62
7
  6
CONTINUOUS
 10
-28.0
 20
37.4766309542
 11
-14.0
 21
37.4766309542
  0
LINE
  5
3F7
100
AcDbEntity
  8
DRAFT
100
AcDbLine
 62
7
  6
CONTINUOUS
 10
28.0
 20
37.4766309542
 11
14.0
 21
37.4766309542
  0
LINE
  5
3F8
100
AcDbEntity
  8
ASSI
100
AcDbLine
 62
7
  6
CONTINUOUS
 10
14.0
 20
37.4766309542
 11
28.0
 21
37.4766309542
  0
LINE
  5
3F9
100
AcDbEntity
  8
DRAFT
100
AcDbLine
 62
7
  6
CONTINUOUS
 10
-14.0
 20
37.4766309542
 11
-28.0
 21
37.4766309542
  0
LINE
  5
3FA
100
AcDbEntity
  8
RACCORDO
100
AcDbLine
 62
250
  6
CONTINUOUS
 10
-0.6355415611
 20
38.2709286851
 11
0.6355407745
 21
38.2709286833
  0
LINE
  5
3FB
100
AcDbEntity
  8
RACCORDO
100
AcDbLine
 62
250
  6
CONTINUOUS
 10
-0.6018950709
 20
39.2496292765
 11
1.2025612621
 21
39.2503443419
  0
LINE
  5
3FC
100
AcDbEntity
  8
RACCORDO
100
AcDbLine
 62
250
  6
CONTINUOUS
 10
-0.8187066735
 20
40.7124436967
 11
0.8210144891
 21
40.7124464895
  0
LINE
  5
3FD
100
AcDbEntity
  8
0
100
AcDbLine
 62
7
  6
CONTINUOUS
 10
-0.954554074
 20
40.2859632873
 11
0.478434187
 21
40.2854606589
  0
LINE
  5
3FE
100
AcDbEntity
  8
0
100
AcDbLine
 62
7
  6
CONTINUOUS
 10
-0.8593344488
 20
41.6276617634
 11
0.4301129618
 21
41.6271493685
  0
LINE
  5
3FF
100
AcDbEntity
  8
RACCORDO
100
AcDbLine
 62
250
  6
CONTINUOUS
 10
-1.2307323565
 20
41.0067036051
 11
0.3939981935
 21
41.0056801969
  0
LINE
  5
400
100
AcDbEntity
  8
0
100
AcDbLine
 62
7
  6
CONTINUOUS
 10
-1.422532201
 20
39.7956549865
 11
-0.0
 21
39.7940930286
  0
LINE
  5
401
100
AcDbEntity
  8
RACCORDO
100
AcDbLine
 62
250
  6
CONTINUOUS
 10
-1.90142673
 20
38.2729407675
 11
-0.6355415611
 21
38.2709286851
  0
LINE
  5
402
100
AcDbEntity
  8
RACCORDO
100
AcDbLine
 62
250
  6
CONTINUOUS
 10
-2.3950945575
 20
39.2531974779
 11
-0.6018950709
 21
39.2496292765
  0
LINE
  5
403
100
AcDbEntity
  8
RACCORDO
100
AcDbLine
 62
250
  6
CONTINUOUS
 10
-2.1730567133
 20
40.7154566238
 11
-0.8187066735
 21
40.7124436967
  0
LINE
  5
404
100
AcDbEntity
  8
0
100
AcDbLine
 62
7
  6
CONTINUOUS
 10
-2.3705483031
 20
40.2894718897
 11
-0.954554074
 21
40.2859632873
  0
LINE
  5
405
100
AcDbEntity
  8
RACCORDO
100
AcDbLine
 62
250
  6
CONTINUOUS
 10
-3.1513397198
 20
38.2769472449
 11
-1.90142673
 21
38.2729407675
  0
LINE
  5
406
100
AcDbEntity
  8
RACCORDO
100
AcDbLine
 62
250
  6
CONTINUOUS
 10
-2.6061432027
 20
41.0107268846
 11
-1.2307323565
 21
41.0067036051
  0
LINE
  5
407
100
AcDbEntity
  8
0
100
AcDbLine
 62
7
  6
CONTINUOUS
 10
-2.1327740846
 20
41.6312336746
 11
-0.8593344488
 21
41.6276617634
  0
LINE
  5
408
100
AcDbEntity
  8
0
100
AcDbLine
 62
7
  6
CONTINUOUS
 10
-2.8226302193
 20
39.8003162273
 11
-1.422532201
 21
39.7956549865
  0
LINE
  5
409
100
AcDbEntity
  8
RACCORDO
100
AcDbLine
 62
250
  6
CONTINUOUS
 10
-3.5682659273
 20
39.2579284313
 11
-2.3950945575
 21
39.2531974779
  0
LINE
  5
40A
100
AcDbEntity
  8
RACCORDO
100
AcDbLine
 62
250
  6
CONTINUOUS
 10
-3.6727880715
 20
40.7221336995
 11
-2.1730567133
 21
40.7154566238
  0
LINE
  5
40B
100
AcDbEntity
  8
RACCORDO
100
AcDbLine
 62
250
  6
CONTINUOUS
 10
-4.3771453006
 20
38.2829259381
 11
-3.1513397198
 21
38.2769472449
  0
LINE
  5
40C
100
AcDbEntity
  8
0
100
AcDbLine
 62
7
  6
CONTINUOUS
 10
-3.7527460333
 20
40.2959361052
 11
-2.3705483031
 21
40.2894718897
  0
LINE
  5
40D
100
AcDbEntity
  8
RACCORDO
100
AcDbLine
 62
250
  6
CONTINUOUS
 10
-4.1074134586
 20
41.0186465624
 11
-2.6061432027
 21
41.0107268846
  0
LINE
  5
40E
100
AcDbEntity
  8
RACCORDO
100
AcDbLine
 62
250
  6
CONTINUOUS
 10
-4.7144685924
 20
39.2645131389
 11
-3.5682659273
 21
39.2579284313
  0
LINE
  5
40F
100
AcDbEntity
  8
0
100
AcDbLine
 62
7
  6
CONTINUOUS
 10
-3.3664841745
 20
41.6377985643
 11
-2.1327740846
 21
41.6312336746
  0
LINE
  5
410
100
AcDbEntity
  8
0
100
AcDbLine
 62
7
  6
CONTINUOUS
 10
-4.178213673
 20
39.8080032403
 11
-2.8226302193
 21
39.8003162273
  0
LINE
  5
411
100
AcDbEntity
  8
RACCORDO
100
AcDbLine
 62
250
  6
CONTINUOUS
 10
-5.5687894167
 20
38.2908380408
 11
-4.3771453006
 21
38.2829259381
  0
LINE
  5
412
100
AcDbEntity
  8
0
100
AcDbLine
 62
7
  6
CONTINUOUS
 10
-5.0802202758
 20
40.3052608566
 11
-3.7527460333
 21
40.2959361052
  0
LINE
  5
413
100
AcDbEntity
  8
RACCORDO
100
AcDbLine
 62
250
  6
CONTINUOUS
 10
-5.822821507
 20
39.2728995854
 11
-4.7144685924
 21
39.2645131389
  0
LINE
  5
414
100
AcDbEntity
  8
RACCORDO
100
AcDbLine
 62
250
  6
CONTINUOUS
 10
-5.1960031525
 20
40.7328911427
 11
-3.6727880715
 21
40.7221336995
  0
LINE
  5
415
100
AcDbEntity
  8
RACCORDO
100
AcDbLine
 62
250
  6
CONTINUOUS
 10
-6.7153058365
 20
38.300619458
 11
-5.5687894167
 21
38.2908380408
  0
LINE
  5
416
100
AcDbEntity
  8
RACCORDO
100
AcDbLine
 62
250
  6
CONTINUOUS
 10
-5.5834214706
 20
41.0304903544
 11
-4.1074134586
 21
41.0186465624
  0
LINE
  5
417
100
AcDbEntity
  8
0
100
AcDbLine
 62
7
  6
CONTINUOUS
 10
-4.5374830339
 20
41.647234141
 11
-3.3664841745
 21
41.6377985643
  0
LINE
  5
418
100
AcDbEntity
  8
0
100
AcDbLine
 62
7
  6
CONTINUOUS
 10
-5.4679042011
 20
39.8185947968
 11
-4.178213673
 21
39.8080032403
  0
LINE
  5
419
100
AcDbEntity
  8
RACCORDO
100
AcDbLine
 62
250
  6
CONTINUOUS
 10
-6.8832639634
 20
39.2830164785
 11
-5.822821507
 21
39.2728995854
  0
LINE
  5
41A
100
AcDbEntity
  8
RACCORDO
100
AcDbLine
 62
250
  6
CONTINUOUS
 10
-6.1740255665
 20
40.7422374897
 11
-5.1960031525
 21
40.7328911427
  0
LINE
  5
41B
100
AcDbEntity
  8
0
100
AcDbLine
 62
7
  6
CONTINUOUS
 10
-6.3336134671
 20
40.3173101681
 11
-5.0802202758
 21
40.3052608566
  0
LINE
  5
41C
100
AcDbEntity
  8
RACCORDO
100
AcDbLine
 62
250
  6
CONTINUOUS
 10
-7.8050560244
 20
38.3121709743
 11
-6.7153058365
 21
38.300619458
  0
LINE
  5
41D
100
AcDbEntity
  8
RACCORDO
100
AcDbLine
 62
250
  6
CONTINUOUS
 10
-6.5218896911
 20
41.0404908058
 11
-5.5834214706
 21
41.0304903544
  0
LINE
  5
41E
100
AcDbEntity
  8
0
100
AcDbLine
 62
7
  6
CONTINUOUS
 10
-6.6713626135
 20
39.8319238616
 11
-5.4679042011
 21
39.8185947968
  0
LINE
  5
41F
100
AcDbEntity
  8
RACCORDO
100
AcDbLine
 62
250
  6
CONTINUOUS
 10
-7.8848581358
 20
39.2947550288
 11
-6.8832639634
 21
39.2830164785
  0
LINE
  5
420
100
AcDbEntity
  8
RACCORDO
100
AcDbLine
 62
250
  6
CONTINUOUS
 10
-7.1049987666
 20
40.7532463015
 11
-6.1740255665
 21
40.7422374897
  0
LINE
  5
421
100
AcDbEntity
  8
0
100
AcDbLine
 62
7
  6
CONTINUOUS
 10
-5.6239571696
 20
41.6593646377
 11
-4.5374830339
 21
41.647234141
  0
LINE
  5
422
100
AcDbEntity
  8
RACCORDO
100
AcDbLine
 62
250
  6
CONTINUOUS
 10
-8.8292693254
 20
38.3253935053
 11
-7.8050560244
 21
38.3121709743
  0
LINE
  5
423
100
AcDbEntity
  8
0
100
AcDbLine
 62
7
  6
CONTINUOUS
 10
-7.4946483119
 20
40.3319083336
 11
-6.3336134671
 21
40.3173101681
  0
LINE
  5
424
100
AcDbEntity
  8
RACCORDO
100
AcDbLine
 62
250
  6
CONTINUOUS
 10
-7.4062984516
 20
41.0520551101
 11
-6.5218896911
 21
41.0404908058
  0
LINE
  5
425
100
AcDbEntity
  8
RACCORDO
100
AcDbLine
 62
250
  6
CONTINUOUS
 10
-8.8221186399
 20
39.3080487514
 11
-7.8848581358
 21
39.2947550288
  0
LINE
  5
426
100
AcDbEntity
  8
RACCORDO
100
AcDbLine
 62
250
  6
CONTINUOUS
 10
-7.9744815291
 20
40.7657853005
 11
-7.1049987666
 21
40.7532463015
  0
LINE
  5
427
100
AcDbEntity
  8
0
100
AcDbLine
 62
7
  6
CONTINUOUS
 10
-7.7696096523
 20
39.8477802274
 11
-6.6713626135
 21
39.8319238616
  0
LINE
  5
428
100
AcDbEntity
  8
RACCORDO
100
AcDbLine
 62
250
  6
CONTINUOUS
 10
-9.7822143742
 20
38.3402176389
 11
-8.8292693254
 21
38.3253935053
  0
LINE
  5
429
100
AcDbEntity
  8
0
100
AcDbLine
 62
7
  6
CONTINUOUS
 10
-6.6056676242
 20
41.6739640862
 11
-5.6239571696
 21
41.6593646377
  0
LINE
  5
42A
100
AcDbEntity
  8
RACCORDO
100
AcDbLine
 62
250
  6
CONTINUOUS
 10
-8.2252941211
 20
41.0650584572
 11
-7.4062984516
 21
41.0520551101
  0
LINE
  5
42B
100
AcDbEntity
  8
0
100
AcDbLine
 62
7
  6
CONTINUOUS
 10
-8.5463943079
 20
40.3488424789
 11
-7.4946483119
 21
40.3319083336
  0
LINE
  5
42C
100
AcDbEntity
  8
RACCORDO
100
AcDbLine
 62
250
  6
CONTINUOUS
 10
-9.6869761674
 20
39.3227906972
 11
-8.8221186399
 21
39.3080487514
  0
LINE
  5
42D
100
AcDbEntity
  8
RACCORDO
100
AcDbLine
 62
250
  6
CONTINUOUS
 10
-8.7708239457
 20
40.77969306
 11
-7.9744815291
 21
40.7657853005
  0
LINE
  5
42E
100
AcDbEntity
  8
0
100
AcDbLine
 62
7
  6
CONTINUOUS
 10
-8.4346937692
 20
39.8596332306
 11
-7.7696096523
 21
39.8477802274
  0
LINE
  5
42F
100
AcDbEntity
  8
RACCORDO
100
AcDbLine
 62
250
  6
CONTINUOUS
 10
-10.6528402899
 20
38.3564748301
 11
-9.7822143742
 21
38.3402176389
  0
LINE
  5
430
100
AcDbEntity
  8
0
100
AcDbLine
 62
7
  6
CONTINUOUS
 10
-7.1928175323
 20
41.6849361357
 11
-6.6056676242
 21
41.6739640862
  0
LINE
  5
431
100
AcDbEntity
  8
RACCORDO
100
AcDbLine
 62
250
  6
CONTINUOUS
 10
-8.9674813069
 20
41.0793152202
 11
-8.2252941211
 21
41.0650584572
  0
LINE
  5
432
100
AcDbEntity
  8
0
100
AcDbLine
 62
7
  6
CONTINUOUS
 10
-9.178869188
 20
40.3613020408
 11
-8.5463943079
 21
40.3488424789
  0
LINE
  5
433
100
AcDbEntity
  8
RACCORDO
100
AcDbLine
 62
250
  6
CONTINUOUS
 10
-10.469595515
 20
39.3388078685
 11
-9.6869761674
 21
39.3227906972
  0
LINE
  5
434
100
AcDbEntity
  8
0
100
AcDbLine
 62
7
  6
CONTINUOUS
 10
-9.0406145696
 20
39.872415939
 11
-8.4346937692
 21
39.8596332306
  0
LINE
  5
435
100
AcDbEntity
  8
RACCORDO
100
AcDbLine
 62
250
  6
CONTINUOUS
 10
-9.4868181336
 20
40.7948327464
 11
-8.7708239457
 21
40.77969306
  0
LINE
  5
436
100
AcDbEntity
  8
RACCORDO
100
AcDbLine
 62
250
  6
CONTINUOUS
 10
-11.43428343
 20
38.3740266449
 11
-10.6528402899
 21
38.3564748301
  0
LINE
  5
437
100
AcDbEntity
  8
0
100
AcDbLine
 62
7
  6
CONTINUOUS
 10
-7.7203654889
 20
41.696794552
 11
-7.1928175323
 21
41.6849361357
  0
LINE
  5
438
100
AcDbEntity
  8
0
100
AcDbLine
 62
7
  6
CONTINUOUS
 10
-9.7523588108
 20
40.3746196417
 11
-9.178869188
 21
40.3613020408
  0
LINE
  5
439
100
AcDbEntity
  8
RACCORDO
100
AcDbLine
 62
250
  6
CONTINUOUS
 10
-9.6297565967
 20
41.0947586598
 11
-8.9674813069
 21
41.0793152202
  0
LINE
  5
43A
100
AcDbEntity
  8
RACCORDO
100
AcDbLine
 62
250
  6
CONTINUOUS
 10
-11.1664154588
 20
39.3560228936
 11
-10.469595515
 21
39.3388078685
  0
LINE
  5
43B
100
AcDbEntity
  8
0
100
AcDbLine
 62
7
  6
CONTINUOUS
 10
-9.5831219544
 20
39.8860386912
 11
-9.0406145696
 21
39.872415939
  0
LINE
  5
43C
100
AcDbEntity
  8
RACCORDO
100
AcDbLine
 62
250
  6
CONTINUOUS
 10
-10.1190187678
 20
40.8111371099
 11
-9.4868181336
 21
40.7948327464
  0
LINE
  5
43D
100
AcDbEntity
  8
0
100
AcDbLine
 62
7
  6
CONTINUOUS
 10
-8.1839400658
 20
41.7094410726
 11
-7.7203654889
 21
41.696794552
  0
LINE
  5
43E
100
AcDbEntity
  8
0
100
AcDbLine
 62
7
  6
CONTINUOUS
 10
-10.2624897764
 20
40.3887004943
 11
-9.7523588108
 21
40.3746196417
  0
LINE
  5
43F
100
AcDbEntity
  8
0
100
AcDbLine
 62
7
  6
CONTINUOUS
 10
-10.0584106243
 20
39.9004059332
 11
-9.5831219544
 21
39.8860386912
  0
LWPOLYLINE
  5
440
100
AcDbEntity
  8
0
100
AcDbPolyline
 62
7
  6
CONTINUOUS
 90
4
 70
0
 10
-9.4907481555
 20
42.2315356217
 10
-9.3311832784
 20
42.2243721979
 10
-9.1537773193
 20
42.2173377477
 10
-8.7468565782
 20
42.203692888
  0
LWPOLYLINE
  5
441
100
AcDbEntity
  8
0
100
AcDbPolyline
 62
7
  6
CONTINUOUS
 90
6
 70
0
 10
-11.3821666418
 20
40.4345678113
 10
-11.2400306983
 20
40.4266072402
 10
-11.0799424758
 20
40.4187654922
 10
-10.9018147128
 20
40.4110431447
 10
-10.7057346707
 20
40.4034396202
 10
-10.2624897764
 20
40.3887004943
  0
LINE
  5
442
100
AcDbEntity
  8
0
100
AcDbLine
 62
7
  6
CONTINUOUS
 10
11.3516115151
 20
39.998205818
 11
13.2306563404
 21
39.495863242
  0
LWPOLYLINE
  5
443
100
AcDbEntity
  8
RACCORDO
100
AcDbPolyline
 62
7
  6
CONTINUOUS
 90
22
 70
0
 10
13.2306563456
 20
39.4958632406
 10
13.2611312349
 20
39.4872866937
 10
13.2940463617
 20
39.4770129263
 10
13.3293788913
 20
39.4647376845
 10
13.3670342718
 20
39.4501396475
 10
13.4069372391
 20
39.4328471366
 10
13.449011005
 20
39.4124339387
 10
13.4926535491
 20
39.388704252
 10
13.5379562718
 20
39.3610657318
 10
13.5856461896
 20
39.3283038027
 10
13.6357848008
 20
39.2892710291
 10
13.6868999927
 20
39.243850617
 10
13.7372726449
 20
39.192415461
 10
13.786285585
 20
39.1344262571
 10
13.8328146155
 20
39.06987615
 10
13.874823424
 20
39.0005471305
 10
13.9115414517
 20
38.9271106427
 10
13.9426473572
 20
38.8495010169
 10
13.9673756276
 20
38.7688748267
 10
13.985331715
 20
38.6860029605
 10
13.9962947756
 20
38.6011852946
 10
14.0
 20
38.5150105078
  0
LINE
  5
444
100
AcDbEntity
  8
0
100
AcDbLine
 62
7
  6
CONTINUOUS
 10
-9.4513417461
 20
41.7969225808
 11
-11.6029477407
 21
41.2217136856
  0
LINE
  5
445
100
AcDbEntity
  8
0
100
AcDbLine
 62
7
  6
CONTINUOUS
 10
-7.8511145721
 20
43.5957986733
 11
-9.8566648691
 21
43.0596362098
  0
LINE
  5
446
100
AcDbEntity
  8
0
100
AcDbLine
 62
7
  6
CONTINUOUS
 10
-5.9872555597
 20
45.398176828
 11
-8.1103819975
 21
44.8305816384
  0
LINE
  5
447
100
AcDbEntity
  8
0
100
AcDbLine
 62
7
  6
CONTINUOUS
 10
-0.9978759266
 20
47.2922029217
 11
-3.8694093095
 21
46.5245291243
  0
LWPOLYLINE
  5
448
100
AcDbEntity
  8
0
100
AcDbPolyline
 62
7
  6
CONTINUOUS
 90
3
 70
0
 10
7.8678786997
 20
44.0427521918
 10
7.7325045921
 20
44.0365576069
 10
7.5808456296
 20
44.0304640302
  0
LWPOLYLINE
  5
449
100
AcDbEntity
  8
RACCORDO
100
AcDbPolyline
 62
250
  6
CONTINUOUS
 90
10
 70
0
 10
9.2047877118
 20
42.6861204045
 10
9.4012943911
 20
42.6942506558
 10
9.5738572425
 20
42.7025223749
 10
9.7224022957
 20
42.7109254236
 10
9.8468688278
 20
42.7194564493
 10
9.9469921523
 20
42.7281067768
 10
10.0222490995
 20
42.7368430219
 10
10.0722906698
 20
42.7456245876
 10
10.0970555488
 20
42.7544166483
 10
10.1
 20
42.7586726476
  0
LWPOLYLINE
  5
44A
100
AcDbEntity
  8
RACCORDO
100
AcDbPolyline
 62
250
  6
CONTINUOUS
 90
11
 70
0
 10
9.0021417036
 20
42.9774512946
 10
9.1943222636
 20
42.9854025476
 10
9.3630860978
 20
42.9934921618
 10
9.5083608783
 20
43.0017102182
 10
9.6300872405
 20
43.0100534321
 10
9.7280063381
 20
43.018513316
 10
9.8016065069
 20
43.027057224
 10
9.8505464158
 20
43.0356454566
 10
9.8747660934
 20
43.0442439566
 10
9.874373019
 20
43.0528435122
 10
9.8566649295
 20
43.0596361937
  0
LWPOLYLINE
  5
44B
100
AcDbEntity
  8
0
100
AcDbPolyline
 62
7
  6
CONTINUOUS
 90
9
 70
0
 10
-5.4690866775
 20
45.4344187424
 10
-5.5852424919
 20
45.4296118758
 10
-5.6874322948
 20
45.4247093481
 10
-5.7757593101
 20
45.4197118663
 10
-5.8495674731
 20
45.4146565502
 10
-5.9087486747
 20
45.4095429691
 10
-5.9534110239
 20
45.4043715536
 10
-5.9832227831
 20
45.3991807153
 10
-5.9872670073
 20
45.3981737669
  0
LWPOLYLINE
  5
44C
100
AcDbEntity
  8
RACCORDO
100
AcDbPolyline
 62
250
  6
CONTINUOUS
 90
10
 70
0
 10
7.534139656
 20
44.4687808426
 10
7.7129068755
 20
44.4757775049
 10
7.8700049777
 20
44.4829110015
 10
8.005330063
 20
44.4901708173
 10
8.118791398
 20
44.4975520903
 10
8.2101184676
 20
44.5050452668
 10
8.2788159027
 20
44.5126197376
 10
8.3245513611
 20
44.5202388592
 10
8.3472543223
 20
44.5278708366
 10
8.35
 20
44.5316076606
  0
LWPOLYLINE
  5
44D
100
AcDbEntity
  8
RACCORDO
100
AcDbPolyline
 62
250
  6
CONTINUOUS
 90
11
 70
0
 10
7.3335110297
 20
44.760187514
 10
7.5075178519
 20
44.7669978483
 10
7.6604325518
 20
44.773941384
 10
7.7921540157
 20
44.7810078801
 10
7.902593954
 20
44.7881925964
 10
7.9914890717
 20
44.7954862298
 10
8.0583571755
 20
44.8028589903
 10
8.102874755
 20
44.8102752148
 10
8.1249731586
 20
44.8177039569
 10
8.1247383769
 20
44.8251349627
 10
8.1103821084
 20
44.8305816087
  0
LWPOLYLINE
  5
44E
100
AcDbEntity
  8
RACCORDO
100
AcDbPolyline
 62
250
  6
CONTINUOUS
 90
9
 70
0
 10
3.6719523175
 20
46.1985548279
 10
3.7778862537
 20
46.2025857288
 10
3.8694579068
 20
46.2067308124
 10
3.9460310388
 20
46.2109619222
 10
4.0072690536
 20
46.2152546983
 10
4.0531440918
 20
46.2196000147
 10
4.083592038
 20
46.2239917921
 10
4.0984514285
 20
46.2284205299
 10
4.1
 20
46.2303869946
  0
LWPOLYLINE
  5
44F
100
AcDbEntity
  8
RACCORDO
100
AcDbPolyline
 62
250
  6
CONTINUOUS
 90
10
 70
0
 10
3.4728118361
 20
46.4900148922
 10
3.5730007603
 20
46.4938271633
 10
3.6596063468
 20
46.4977474166
 10
3.7320267957
 20
46.501749039
 10
3.7899437244
 20
46.5058090007
 10
3.8333308195
 20
46.5099186615
 10
3.8621274883
 20
46.5140722607
 10
3.8761810479
 20
46.5182608077
 10
3.8753250683
 20
46.5224615596
 10
3.8694093371
 20
46.5245291169
  0
LINE
  5
450
100
AcDbEntity
  8
RACCORDO
100
AcDbLine
 62
250
  6
CONTINUOUS
 10
8.7428512083
 20
42.6704170323
 11
9.2047877118
 21
42.6861204045
  0
LINE
  5
451
100
AcDbEntity
  8
RACCORDO
100
AcDbLine
 62
250
  6
CONTINUOUS
 10
8.5503747886
 20
42.962093659
 11
9.0021417036
 21
42.9774512946
  0
LINE
  5
452
100
AcDbEntity
  8
0
100
AcDbLine
 62
7
  6
CONTINUOUS
 10
7.1406111635
 20
43.5347171098
 11
6.7982994197
 21
43.523128849
  0
LINE
  5
453
100
AcDbEntity
  8
0
100
AcDbLine
 62
7
  6
CONTINUOUS
 10
5.4690866775
 20
45.3482920487
 11
5.1961524227
 21
45.3389981762
  0
LINE
  5
454
100
AcDbEntity
  8
0
100
AcDbLine
 62
7
  6
CONTINUOUS
 10
-5.1961524227
 20
45.4437126148
 11
-5.4690866775
 21
45.4344187424
  0
LINE
  5
455
100
AcDbEntity
  8
0
100
AcDbLine
 62
7
  6
CONTINUOUS
 10
9.1537773193
 20
42.2173377477
 11
8.7468565782
 21
42.203692888
  0
LINE
  5
456
100
AcDbEntity
  8
0
100
AcDbLine
 62
7
  6
CONTINUOUS
 10
7.5808456296
 20
44.0304640302
 11
7.2313971409
 21
44.0186940406
  0
LINE
  5
457
100
AcDbEntity
  8
RACCORDO
100
AcDbLine
 62
250
  6
CONTINUOUS
 10
7.1144571206
 20
44.4553204836
 11
7.534139656
 21
44.4687808426
  0
LINE
  5
458
100
AcDbEntity
  8
RACCORDO
100
AcDbLine
 62
250
  6
CONTINUOUS
 10
6.9250042363
 20
44.7470856237
 11
7.3335110297
 21
44.760187514
  0
LINE
  5
459
100
AcDbEntity
  8
0
100
AcDbLine
 62
7
  6
CONTINUOUS
 10
3.216916057
 20
45.3631547317
 11
3.0078347488
 21
45.3568345269
  0
LINE
  5
45A
100
AcDbEntity
  8
0
100
AcDbLine
 62
7
  6
CONTINUOUS
 10
3.658295417
 20
45.8589738513
 11
3.4323825609
 21
45.8521424407
  0
LINE
  5
45B
100
AcDbEntity
  8
RACCORDO
100
AcDbLine
 62
250
  6
CONTINUOUS
 10
3.4194363129
 20
46.1909065394
 11
3.6719523175
 21
46.1985548279
  0
LINE
  5
45C
100
AcDbEntity
  8
RACCORDO
100
AcDbLine
 62
250
  6
CONTINUOUS
 10
3.233990518
 20
46.4827813863
 11
3.4728118361
 21
46.4900148922
  0
LINE
  5
45D
100
AcDbEntity
  8
0
100
AcDbLine
 62
7
  6
CONTINUOUS
 10
8.7468565782
 20
42.203692888
 11
8.2732300897
 21
42.1907201656
  0
LINE
  5
45E
100
AcDbEntity
  8
0
100
AcDbLine
 62
7
  6
CONTINUOUS
 10
7.2313971409
 20
44.0186940406
 11
6.8216986066
 21
44.0075151561
  0
LINE
  5
45F
100
AcDbEntity
  8
0
100
AcDbLine
 62
7
  6
CONTINUOUS
 10
6.7982994197
 20
43.523128849
 11
6.3944212236
 21
43.5121609411
  0
LINE
  5
460
100
AcDbEntity
  8
RACCORDO
100
AcDbLine
 62
250
  6
CONTINUOUS
 10
8.1951524033
 20
42.6556450819
 11
8.7428512083
 21
42.6704170323
  0
LINE
  5
461
100
AcDbEntity
  8
RACCORDO
100
AcDbLine
 62
250
  6
CONTINUOUS
 10
8.0147337126
 20
42.9476469238
 11
8.5503747886
 21
42.962093659
  0
LINE
  5
462
100
AcDbEntity
  8
0
100
AcDbLine
 62
7
  6
CONTINUOUS
 10
5.1961524227
 20
45.3389981762
 11
4.8714378982
 21
45.3302260496
  0
LINE
  5
463
100
AcDbEntity
  8
0
100
AcDbLine
 62
7
  6
CONTINUOUS
 10
-4.8714378982
 20
45.4524847414
 11
-5.1961524227
 21
45.4437126148
  0
LINE
  5
464
100
AcDbEntity
  8
RACCORDO
100
AcDbLine
 62
250
  6
CONTINUOUS
 10
6.6179560015
 20
44.4427456762
 11
7.1144571206
 21
44.4553204836
  0
LINE
  5
465
100
AcDbEntity
  8
RACCORDO
100
AcDbLine
 62
250
  6
CONTINUOUS
 10
6.4417245943
 20
44.7348456716
 11
6.9250042363
 21
44.7470856237
  0
LINE
  5
466
100
AcDbEntity
  8
0
100
AcDbLine
 62
7
  6
CONTINUOUS
 10
3.4323825609
 20
45.8521424407
 11
3.1646687731
 21
45.8457876538
  0
LINE
  5
467
100
AcDbEntity
  8
0
100
AcDbLine
 62
7
  6
CONTINUOUS
 10
3.0078347488
 20
45.3568345269
 11
2.7577599952
 21
45.3509699093
  0
LINE
  5
468
100
AcDbEntity
  8
0
100
AcDbLine
 62
7
  6
CONTINUOUS
 10
8.2732300897
 20
42.1907201656
 11
7.7371868999
 21
42.1785281748
  0
LINE
  5
469
100
AcDbEntity
  8
RACCORDO
100
AcDbLine
 62
250
  6
CONTINUOUS
 10
3.1149646864
 20
46.1838607418
 11
3.4194363129
 21
46.1909065394
  0
LINE
  5
46A
100
AcDbEntity
  8
RACCORDO
100
AcDbLine
 62
250
  6
CONTINUOUS
 10
2.9460310974
 20
46.4761177529
 11
3.233990518
 21
46.4827813863
  0
LINE
  5
46B
100
AcDbEntity
  8
0
100
AcDbLine
 62
7
  6
CONTINUOUS
 10
6.8216986066
 20
44.0075151561
 11
6.3553467982
 21
43.9970341977
  0
LINE
  5
46C
100
AcDbEntity
  8
0
100
AcDbLine
 62
7
  6
CONTINUOUS
 10
6.3944212236
 20
43.5121609411
 11
5.9326341587
 21
43.5019127131
  0
LINE
  5
46D
100
AcDbEntity
  8
RACCORDO
100
AcDbLine
 62
250
  6
CONTINUOUS
 10
7.5647935589
 20
42.6418797979
 11
8.1951524033
 21
42.6556450819
  0
LINE
  5
46E
100
AcDbEntity
  8
RACCORDO
100
AcDbLine
 62
250
  6
CONTINUOUS
 10
7.3982524043
 20
42.9341846863
 11
8.0147337126
 21
42.9476469238
  0
LINE
  5
46F
100
AcDbEntity
  8
0
100
AcDbLine
 62
7
  6
CONTINUOUS
 10
4.8714378982
 20
45.3302260496
 11
4.4988099791
 21
45.3220712272
  0
LINE
  5
470
100
AcDbEntity
  8
RACCORDO
100
AcDbLine
 62
250
  6
CONTINUOUS
 10
6.0476128613
 20
44.4311253257
 11
6.6179560015
 21
44.4427456762
  0
LINE
  5
471
100
AcDbEntity
  8
RACCORDO
100
AcDbLine
 62
250
  6
CONTINUOUS
 10
5.8865692538
 20
44.7235347726
 11
6.4417245943
 21
44.7348456716
  0
LINE
  5
472
100
AcDbEntity
  8
0
100
AcDbLine
 62
7
  6
CONTINUOUS
 10
-4.2949878479
 20
45.4644732994
 11
-4.8714378982
 21
45.4524847414
  0
LINE
  5
473
100
AcDbEntity
  8
0
100
AcDbLine
 62
7
  6
CONTINUOUS
 10
7.7371868999
 20
42.1785281748
 11
7.14177849
 21
42.1671863197
  0
LINE
  5
474
100
AcDbEntity
  8
0
100
AcDbLine
 62
7
  6
CONTINUOUS
 10
6.3553467982
 20
43.9970341977
 11
5.8369045243
 21
43.9873460854
  0
LINE
  5
475
100
AcDbEntity
  8
0
100
AcDbLine
 62
7
  6
CONTINUOUS
 10
5.9326341587
 20
43.5019127131
 11
5.4171202401
 21
43.4924769747
  0
LINE
  5
476
100
AcDbEntity
  8
RACCORDO
100
AcDbLine
 62
250
  6
CONTINUOUS
 10
6.8577514401
 20
42.6292642103
 11
7.5647935589
 21
42.6418797979
  0
LINE
  5
477
100
AcDbEntity
  8
RACCORDO
100
AcDbLine
 62
250
  6
CONTINUOUS
 10
6.7067760093
 20
42.921846841
 11
7.3982524043
 21
42.9341846863
  0
LINE
  5
478
100
AcDbEntity
  8
0
100
AcDbLine
 62
7
  6
CONTINUOUS
 10
4.4988099791
 20
45.3220712272
 11
4.0810364266
 21
45.3145942803
  0
LINE
  5
479
100
AcDbEntity
  8
0
100
AcDbLine
 62
7
  6
CONTINUOUS
 10
3.1646687731
 20
45.8457876538
 11
2.6924731734
 21
45.8373173619
  0
LINE
  5
47A
100
AcDbEntity
  8
RACCORDO
100
AcDbLine
 62
250
  6
CONTINUOUS
 10
5.4096538493
 20
44.4205986392
 11
6.0476128613
 21
44.4311253257
  0
LINE
  5
47B
100
AcDbEntity
  8
RACCORDO
100
AcDbLine
 62
250
  6
CONTINUOUS
 10
5.2655985565
 20
44.7132884356
 11
5.8865692538
 21
44.7235347726
  0
LINE
  5
47C
100
AcDbEntity
  8
0
100
AcDbLine
 62
7
  6
CONTINUOUS
 10
2.7577599952
 20
45.3509699093
 11
2.3140353949
 21
45.3432258472
  0
LINE
  5
47D
100
AcDbEntity
  8
0
100
AcDbLine
 62
7
  6
CONTINUOUS
 10
7.14177849
 20
42.1671863197
 11
6.4919050654
 21
42.1567950101
  0
LINE
  5
47E
100
AcDbEntity
  8
0
100
AcDbLine
 62
7
  6
CONTINUOUS
 10
5.8369045243
 20
43.9873460854
 11
5.2695843351
 21
43.978510852
  0
LINE
  5
47F
100
AcDbEntity
  8
RACCORDO
100
AcDbLine
 62
250
  6
CONTINUOUS
 10
2.5708856919
 20
46.1746470186
 11
3.1149646864
 21
46.1838607418
  0
LINE
  5
480
100
AcDbEntity
  8
RACCORDO
100
AcDbLine
 62
250
  6
CONTINUOUS
 10
2.4314589858
 20
46.4674037554
 11
2.9460310974
 21
46.4761177529
  0
LINE
  5
481
100
AcDbEntity
  8
0
100
AcDbLine
 62
7
  6
CONTINUOUS
 10
5.4171202401
 20
43.4924769747
 11
4.8525480418
 21
43.4839391772
  0
LINE
  5
482
100
AcDbEntity
  8
0
100
AcDbLine
 62
7
  6
CONTINUOUS
 10
-3.6225948663
 20
45.4748285241
 11
-4.2949878479
 21
45.4644732994
  0
LINE
  5
483
100
AcDbEntity
  8
RACCORDO
100
AcDbLine
 62
250
  6
CONTINUOUS
 10
6.0801329217
 20
42.6179214227
 11
6.8577514401
 21
42.6292642103
  0
LINE
  5
484
100
AcDbEntity
  8
RACCORDO
100
AcDbLine
 62
250
  6
CONTINUOUS
 10
5.9462768263
 20
42.9107538419
 11
6.7067760093
 21
42.921846841
  0
LINE
  5
485
100
AcDbEntity
  8
0
100
AcDbLine
 62
7
  6
CONTINUOUS
 10
6.4919050654
 20
42.1567950101
 11
5.7933199795
 21
42.1474397665
  0
LINE
  5
486
100
AcDbEntity
  8
RACCORDO
100
AcDbLine
 62
250
  6
CONTINUOUS
 10
4.7145388775
 20
44.4113308035
 11
5.4096538493
 21
44.4205986392
  0
LINE
  5
487
100
AcDbEntity
  8
RACCORDO
100
AcDbLine
 62
250
  6
CONTINUOUS
 10
4.5889938834
 20
44.7042674547
 11
5.2655985565
 21
44.7132884356
  0
LINE
  5
488
100
AcDbEntity
  8
0
100
AcDbLine
 62
7
  6
CONTINUOUS
 10
4.0810364266
 20
45.3145942803
 11
3.3799203484
 21
45.3048362661
  0
LINE
  5
489
100
AcDbEntity
  8
0
100
AcDbLine
 62
7
  6
CONTINUOUS
 10
-3.6010511318
 20
45.4750989367
 11
-3.6225948663
 21
45.4748285241
  0
LINE
  5
48A
100
AcDbEntity
  8
0
100
AcDbLine
 62
7
  6
CONTINUOUS
 10
5.2695843351
 20
43.978510852
 11
4.6585009686
 21
43.9706144214
  0
LINE
  5
48B
100
AcDbEntity
  8
0
100
AcDbLine
 62
7
  6
CONTINUOUS
 10
4.8525480418
 20
43.4839391772
 11
4.244030417
 21
43.4763766405
  0
LINE
  5
48C
100
AcDbEntity
  8
0
100
AcDbLine
 62
7
  6
CONTINUOUS
 10
2.6924731734
 20
45.8373173619
 11
2.1468339244
 21
45.8303190094
  0
LINE
  5
48D
100
AcDbEntity
  8
RACCORDO
100
AcDbLine
 62
250
  6
CONTINUOUS
 10
5.2641949363
 20
42.6082391382
 11
6.0801329217
 21
42.6179214227
  0
LINE
  5
48E
100
AcDbEntity
  8
RACCORDO
100
AcDbLine
 62
250
  6
CONTINUOUS
 10
5.1483019173
 20
42.901284748
 11
5.9462768263
 21
42.9107538419
  0
LINE
  5
48F
100
AcDbEntity
  8
0
100
AcDbLine
 62
7
  6
CONTINUOUS
 10
2.3140353949
 20
45.3432258472
 11
1.8
 21
45.3369441771
  0
LINE
  5
490
100
AcDbEntity
  8
0
100
AcDbLine
 62
7
  6
CONTINUOUS
 10
5.7933199795
 20
42.1474397665
 11
5.05
 21
42.1391738445
  0
LINE
  5
491
100
AcDbEntity
  8
0
100
AcDbLine
 62
7
  6
CONTINUOUS
 10
4.6585009686
 20
43.9706144214
 11
4.0095154012
 21
43.9637267094
  0
LINE
  5
492
100
AcDbEntity
  8
RACCORDO
100
AcDbLine
 62
250
  6
CONTINUOUS
 10
1.9396032433
 20
46.16734559
 11
2.5708856919
 21
46.1746470186
  0
LINE
  5
493
100
AcDbEntity
  8
RACCORDO
100
AcDbLine
 62
250
  6
CONTINUOUS
 10
1.8344125384
 20
46.4604984654
 11
2.4314589858
 21
46.4674037554
  0
LINE
  5
494
100
AcDbEntity
  8
0
100
AcDbLine
 62
7
  6
CONTINUOUS
 10
4.244030417
 20
43.4763766405
 11
3.5970781956
 21
43.4698578518
  0
LINE
  5
495
100
AcDbEntity
  8
RACCORDO
100
AcDbLine
 62
250
  6
CONTINUOUS
 10
3.5936885469
 20
44.4000671044
 11
4.7145388775
 21
44.4113308035
  0
LINE
  5
496
100
AcDbEntity
  8
RACCORDO
100
AcDbLine
 62
250
  6
CONTINUOUS
 10
3.497991157
 20
44.6933036293
 11
4.5889938834
 21
44.7042674547
  0
LINE
  5
497
100
AcDbEntity
  8
0
100
AcDbLine
 62
7
  6
CONTINUOUS
 10
3.3799203484
 20
45.3048362661
 11
2.6033024347
 21
45.2970109463
  0
LINE
  5
498
100
AcDbEntity
  8
0
100
AcDbLine
 62
7
  6
CONTINUOUS
 10
5.05
 20
42.1391738445
 11
4.2681674393
 21
42.1320720983
  0
LINE
  5
499
100
AcDbEntity
  8
RACCORDO
100
AcDbLine
 62
250
  6
CONTINUOUS
 10
4.0147732843
 20
42.5969277338
 11
5.2641949363
 21
42.6082391382
  0
LINE
  5
49A
100
AcDbEntity
  8
RACCORDO
100
AcDbLine
 62
250
  6
CONTINUOUS
 10
3.9263867565
 20
42.8902223316
 11
5.1483019173
 21
42.901284748
  0
LINE
  5
49B
100
AcDbEntity
  8
0
100
AcDbLine
 62
7
  6
CONTINUOUS
 10
4.0095154012
 20
43.9637267094
 11
3.3266491002
 21
43.9578903959
  0
LINE
  5
49C
100
AcDbEntity
  8
0
100
AcDbLine
 62
7
  6
CONTINUOUS
 10
2.1468339244
 20
45.8303190094
 11
1.5426346422
 21
45.8249834932
  0
LINE
  5
49D
100
AcDbEntity
  8
0
100
AcDbLine
 62
7
  6
CONTINUOUS
 10
3.5970781956
 20
43.4698578518
 11
2.9175502769
 21
43.4644418465
  0
LINE
  5
49E
100
AcDbEntity
  8
0
100
AcDbLine
 62
7
  6
CONTINUOUS
 10
1.8
 20
45.3369441771
 11
1.231272516
 21
45.3323157644
  0
LINE
  5
49F
100
AcDbEntity
  8
0
100
AcDbLine
 62
7
  6
CONTINUOUS
 10
4.2681674393
 20
42.1320720983
 11
3.4546478764
 21
42.1261911463
  0
LINE
  5
4A0
100
AcDbEntity
  8
RACCORDO
100
AcDbLine
 62
250
  6
CONTINUOUS
 10
2.422970268
 20
44.3921502731
 11
3.5936885469
 21
44.4000671044
  0
LINE
  5
4A1
100
AcDbEntity
  8
RACCORDO
100
AcDbLine
 62
250
  6
CONTINUOUS
 10
2.3584479985
 20
44.685597876
 11
3.497991157
 21
44.6933036293
  0
LINE
  5
4A2
100
AcDbEntity
  8
0
100
AcDbLine
 62
7
  6
CONTINUOUS
 10
2.6033024347
 20
45.2970109463
 11
1.7685310465
 21
45.2912931256
  0
LINE
  5
4A3
100
AcDbEntity
  8
0
100
AcDbLine
 62
7
  6
CONTINUOUS
 10
2.9175502769
 20
43.4644418465
 11
2.2116005712
 21
43.4601776727
  0
LINE
  5
4A4
100
AcDbEntity
  8
RACCORDO
100
AcDbLine
 62
250
  6
CONTINUOUS
 10
2.7896690501
 20
42.5892604408
 11
4.0147732843
 21
42.5969277338
  0
LINE
  5
4A5
100
AcDbEntity
  8
0
100
AcDbLine
 62
7
  6
CONTINUOUS
 10
3.3266491002
 20
43.9578903959
 11
2.2528030392
 21
43.9512297726
  0
LINE
  5
4A6
100
AcDbEntity
  8
0
100
AcDbLine
 62
7
  6
CONTINUOUS
 10
3.4546478764
 20
42.1261911463
 11
2.6140723555
 21
42.1215644665
  0
LINE
  5
4A7
100
AcDbEntity
  8
RACCORDO
100
AcDbLine
 62
250
  6
CONTINUOUS
 10
0.9999163474
 20
46.160992724
 11
1.9396032433
 21
46.16734559
  0
LINE
  5
4A8
100
AcDbEntity
  8
RACCORDO
100
AcDbLine
 62
250
  6
CONTINUOUS
 10
2.3439069966
 20
42.8809415594
 11
3.9263867565
 21
42.8902223316
  0
LINE
  5
4A9
100
AcDbEntity
  8
0
100
AcDbLine
 62
7
  6
CONTINUOUS
 10
1.5426346422
 20
45.8249834932
 11
0.8963563083
 21
45.8214563522
  0
LINE
  5
4AA
100
AcDbEntity
  8
0
100
AcDbLine
 62
7
  6
CONTINUOUS
 10
2.6140723555
 20
42.1215644665
 11
1.7535612557
 21
42.118236256
  0
LINE
  5
4AB
100
AcDbEntity
  8
0
100
AcDbLine
 62
7
  6
CONTINUOUS
 10
1.231272516
 20
45.3323157644
 11
0.6251334396
 21
45.3294812409
  0
LINE
  5
4AC
100
AcDbEntity
  8
0
100
AcDbLine
 62
7
  6
CONTINUOUS
 10
2.2116005712
 20
43.4601776727
 11
1.1171714804
 21
43.4560226303
  0
LINE
  5
4AD
100
AcDbEntity
  8
0
100
AcDbLine
 62
7
  6
CONTINUOUS
 10
1.7685310465
 20
45.2912931256
 11
0.8942535971
 21
45.2878105307
  0
LINE
  5
4AE
100
AcDbEntity
  8
0
100
AcDbLine
 62
7
  6
CONTINUOUS
 10
2.2528030392
 20
43.9512297726
 11
1.13699152
 21
43.9471831128
  0
LINE
  5
4AF
100
AcDbEntity
  8
RACCORDO
100
AcDbLine
 62
250
  6
CONTINUOUS
 10
0.963857474
 20
44.3868541973
 11
2.422970268
 21
44.3921502731
  0
LINE
  5
4B0
100
AcDbEntity
  8
RACCORDO
100
AcDbLine
 62
250
  6
CONTINUOUS
 10
0.9381907088
 20
44.6804423865
 11
2.3584479985
 21
44.685597876
  0
LINE
  5
4B1
100
AcDbEntity
  8
0
100
AcDbLine
 62
7
  6
CONTINUOUS
 10
1.7535612557
 20
42.118236256
 11
0.881382664
 21
42.1162313284
  0
LINE
  5
4B2
100
AcDbEntity
  8
RACCORDO
100
AcDbLine
 62
250
  6
CONTINUOUS
 10
0.9550942614
 20
42.5831932383
 11
2.7896690501
 21
42.5892604408
  0
LINE
  5
4B3
100
AcDbEntity
  8
RACCORDO
100
AcDbLine
 62
250
  6
CONTINUOUS
 10
0.6106332244
 20
42.8763472204
 11
2.3439069966
 21
42.8809415594
  0
LINE
  5
4B4
100
AcDbEntity
  8
0
100
AcDbLine
 62
7
  6
CONTINUOUS
 10
0.8963563083
 20
45.8214563522
 11
0.226991253
 21
45.8198357696
  0
LINE
  5
4B5
100
AcDbEntity
  8
0
100
AcDbLine
 62
7
  6
CONTINUOUS
 10
0.6251334396
 20
45.3294812409
 11
-0.0
 21
45.3285267324
  0
LINE
  5
4B6
100
AcDbEntity
  8
RACCORDO
100
AcDbLine
 62
250
  6
CONTINUOUS
 10
-0.0
 20
46.1588321282
 11
0.9999163474
 21
46.160992724
  0
LINE
  5
4B7
100
AcDbEntity
  8
0
100
AcDbLine
 62
7
  6
CONTINUOUS
 10
0.881382664
 20
42.1162313284
 11
-0.0
 21
42.1155582355
  0
LINE
  5
4B8
100
AcDbEntity
  8
0
100
AcDbLine
 62
7
  6
CONTINUOUS
 10
1.1171714804
 20
43.4560226303
 11
-0.0
 21
43.4546281537
  0
LINE
  5
4B9
100
AcDbEntity
  8
0
100
AcDbLine
 62
7
  6
CONTINUOUS
 10
1.13699152
 20
43.9471831128
 11
-0.0
 21
43.9458257981
  0
LINE
  5
4BA
100
AcDbEntity
  8
0
100
AcDbLine
 62
7
  6
CONTINUOUS
 10
0.8942535971
 20
45.2878105307
 11
-0.0
 21
45.2866409569
  0
LINE
  5
4BB
100
AcDbEntity
  8
RACCORDO
100
AcDbLine
 62
250
  6
CONTINUOUS
 10
-0.6276275683
 20
44.386292309
 11
0.963857474
 21
44.3868541973
  0
LINE
  5
4BC
100
AcDbEntity
  8
RACCORDO
100
AcDbLine
 62
250
  6
CONTINUOUS
 10
-0.6109143459
 20
44.6798954428
 11
0.9381907088
 21
44.6804423865
  0
LINE
  5
4BD
100
AcDbEntity
  8
RACCORDO
100
AcDbLine
 62
250
  6
CONTINUOUS
 10
-0.9523190617
 20
42.5831886446
 11
0.9550942614
 21
42.5831932383
  0
LINE
  5
4BE
100
AcDbEntity
  8
0
100
AcDbLine
 62
7
  6
CONTINUOUS
 10
-1.3183145414
 20
42.1170662439
 11
-0.0
 21
42.1155582355
  0
LINE
  5
4BF
100
AcDbEntity
  8
RACCORDO
100
AcDbLine
 62
250
  6
CONTINUOUS
 10
-1.264265682
 20
42.8774354624
 11
0.6106332244
 21
42.8763472204
  0
LINE
  5
4C0
100
AcDbEntity
  8
0
100
AcDbLine
 62
7
  6
CONTINUOUS
 10
-1.5120518582
 20
43.9482359751
 11
-0.0
 21
43.9458257981
  0
LINE
  5
4C1
100
AcDbEntity
  8
0
100
AcDbLine
 62
7
  6
CONTINUOUS
 10
-1.4856222682
 20
43.4571039473
 11
-0.0
 21
43.4546281537
  0
LINE
  5
4C2
100
AcDbEntity
  8
0
100
AcDbLine
 62
7
  6
CONTINUOUS
 10
-1.1886223156
 20
45.2887172746
 11
-0.0
 21
45.2866409569
  0
LINE
  5
4C3
100
AcDbEntity
  8
0
100
AcDbLine
 62
7
  6
CONTINUOUS
 10
-0.8963563083
 20
45.8214563522
 11
0.226991253
 21
45.8198357696
  0
LINE
  5
4C4
100
AcDbEntity
  8
RACCORDO
100
AcDbLine
 62
250
  6
CONTINUOUS
 10
-0.9569536857
 20
46.1608084835
 11
-0.0
 21
46.1588321282
  0
LINE
  5
4C5
100
AcDbEntity
  8
RACCORDO
100
AcDbLine
 62
250
  6
CONTINUOUS
 10
-2.3895498174
 20
42.5874076728
 11
-0.9523190617
 21
42.5831886446
  0
LINE
  5
4C6
100
AcDbEntity
  8
RACCORDO
100
AcDbLine
 62
250
  6
CONTINUOUS
 10
-2.0337923339
 20
44.390268847
 11
-0.6276275683
 21
44.386292309
  0
LINE
  5
4C7
100
AcDbEntity
  8
RACCORDO
100
AcDbLine
 62
250
  6
CONTINUOUS
 10
-1.97963365
 20
44.6837665439
 11
-0.6109143459
 21
44.6798954428
  0
LINE
  5
4C8
100
AcDbEntity
  8
0
100
AcDbLine
 62
7
  6
CONTINUOUS
 10
-2.6140723555
 20
42.1215644665
 11
-1.3183145414
 21
42.1170662439
  0
LINE
  5
4C9
100
AcDbEntity
  8
RACCORDO
100
AcDbLine
 62
250
  6
CONTINUOUS
 10
-2.7201318767
 20
42.8826831605
 11
-1.264265682
 21
42.8774354624
  0
LINE
  5
4CA
100
AcDbEntity
  8
0
100
AcDbLine
 62
7
  6
CONTINUOUS
 10
-1.0327008812
 20
45.3311684124
 11
-0.0
 21
45.3285267324
  0
LINE
  5
4CB
100
AcDbEntity
  8
RACCORDO
100
AcDbLine
 62
250
  6
CONTINUOUS
 10
-3.5896922551
 20
42.593912222
 11
-2.3895498174
 21
42.5874076728
  0
LINE
  5
4CC
100
AcDbEntity
  8
0
100
AcDbLine
 62
7
  6
CONTINUOUS
 10
-2.9748449989
 20
43.9553889385
 11
-1.5120518582
 21
43.9482359751
  0
LINE
  5
4CD
100
AcDbEntity
  8
0
100
AcDbLine
 62
7
  6
CONTINUOUS
 10
-2.9175502769
 20
43.4644418465
 11
-1.4856222682
 21
43.4571039473
  0
LINE
  5
4CE
100
AcDbEntity
  8
0
100
AcDbLine
 62
7
  6
CONTINUOUS
 10
-3.8651026669
 20
42.1289759374
 11
-2.6140723555
 21
42.1215644665
  0
LINE
  5
4CF
100
AcDbEntity
  8
RACCORDO
100
AcDbLine
 62
250
  6
CONTINUOUS
 10
-3.2002726265
 20
44.3970081314
 11
-2.0337923339
 21
44.390268847
  0
LINE
  5
4D0
100
AcDbEntity
  8
RACCORDO
100
AcDbLine
 62
250
  6
CONTINUOUS
 10
-3.115051669
 20
44.6903260842
 11
-1.97963365
 21
44.6837665439
  0
LINE
  5
4D1
100
AcDbEntity
  8
0
100
AcDbLine
 62
7
  6
CONTINUOUS
 10
-2.3308161575
 20
45.2948661089
 11
-1.1886223156
 21
45.2887172746
  0
LINE
  5
4D2
100
AcDbEntity
  8
RACCORDO
100
AcDbLine
 62
250
  6
CONTINUOUS
 10
-3.9155194825
 20
42.8901402825
 11
-2.7201318767
 21
42.8826831605
  0
LINE
  5
4D3
100
AcDbEntity
  8
0
100
AcDbLine
 62
7
  6
CONTINUOUS
 10
-1.7499666256
 20
45.826570689
 11
-0.8963563083
 21
45.8214563522
  0
LINE
  5
4D4
100
AcDbEntity
  8
RACCORDO
100
AcDbLine
 62
250
  6
CONTINUOUS
 10
-1.9073031151
 20
46.1670460986
 11
-0.9569536857
 21
46.1608084835
  0
LINE
  5
4D5
100
AcDbEntity
  8
RACCORDO
100
AcDbLine
 62
250
  6
CONTINUOUS
 10
-4.8360399192
 20
42.603923123
 11
-3.5896922551
 21
42.593912222
  0
LINE
  5
4D6
100
AcDbEntity
  8
0
100
AcDbLine
 62
7
  6
CONTINUOUS
 10
-4.0095154012
 20
43.9637267094
 11
-2.9748449989
 21
43.9553889385
  0
LINE
  5
4D7
100
AcDbEntity
  8
0
100
AcDbLine
 62
7
  6
CONTINUOUS
 10
-1.8
 20
45.3369441771
 11
-1.0327008812
 21
45.3311684124
  0
LINE
  5
4D8
100
AcDbEntity
  8
0
100
AcDbLine
 62
7
  6
CONTINUOUS
 10
-5.05
 20
42.1391738445
 11
-3.8651026669
 21
42.1289759374
  0
LINE
  5
4D9
100
AcDbEntity
  8
0
100
AcDbLine
 62
7
  6
CONTINUOUS
 10
-3.925
 20
43.4729828597
 11
-2.9175502769
 21
43.4644418465
  0
LINE
  5
4DA
100
AcDbEntity
  8
RACCORDO
100
AcDbLine
 62
250
  6
CONTINUOUS
 10
-5.1357743271
 20
42.9011514144
 11
-3.9155194825
 21
42.8901402825
  0
LINE
  5
4DB
100
AcDbEntity
  8
RACCORDO
100
AcDbLine
 62
250
  6
CONTINUOUS
 10
-4.3423046564
 20
44.4071353134
 11
-3.2002726265
 21
44.3970081314
  0
LINE
  5
4DC
100
AcDbEntity
  8
RACCORDO
100
AcDbLine
 62
250
  6
CONTINUOUS
 10
-4.2266720666
 20
44.7001836584
 11
-3.115051669
 21
44.6903260842
  0
LINE
  5
4DD
100
AcDbEntity
  8
RACCORDO
100
AcDbLine
 62
250
  6
CONTINUOUS
 10
-5.6618738181
 20
42.6127041827
 11
-4.8360399192
 21
42.603923123
  0
LINE
  5
4DE
100
AcDbEntity
  8
0
100
AcDbLine
 62
7
  6
CONTINUOUS
 10
-3.3799203484
 20
45.3048362661
 11
-2.3308161575
 21
45.2948661089
  0
LINE
  5
4DF
100
AcDbEntity
  8
0
100
AcDbLine
 62
7
  6
CONTINUOUS
 10
-4.9694961177
 20
43.9744456496
 11
-4.0095154012
 21
43.9637267094
  0
LINE
  5
4E0
100
AcDbEntity
  8
RACCORDO
100
AcDbLine
 62
250
  6
CONTINUOUS
 10
-5.9337260574
 20
42.9105889517
 11
-5.1357743271
 21
42.9011514144
  0
LINE
  5
4E1
100
AcDbEntity
  8
0
100
AcDbLine
 62
7
  6
CONTINUOUS
 10
-6.148490433
 20
42.1519836986
 11
-5.05
 21
42.1391738445
  0
LINE
  5
4E2
100
AcDbEntity
  8
0
100
AcDbLine
 62
7
  6
CONTINUOUS
 10
-2.518272122
 20
45.8348123994
 11
-1.7499666256
 21
45.826570689
  0
LINE
  5
4E3
100
AcDbEntity
  8
RACCORDO
100
AcDbLine
 62
250
  6
CONTINUOUS
 10
-2.5442782196
 20
46.174276374
 11
-1.9073031151
 21
46.1670460986
  0
LINE
  5
4E4
100
AcDbEntity
  8
RACCORDO
100
AcDbLine
 62
250
  6
CONTINUOUS
 10
-2.4062947919
 20
46.4670531044
 11
-1.8038644915
 21
46.4602150351
  0
LINE
  5
4E5
100
AcDbEntity
  8
0
100
AcDbLine
 62
7
  6
CONTINUOUS
 10
-4.8525480418
 20
43.4839391772
 11
-3.925
 21
43.4729828597
  0
LINE
  5
4E6
100
AcDbEntity
  8
RACCORDO
100
AcDbLine
 62
250
  6
CONTINUOUS
 10
-6.4644452065
 20
42.6232382127
 11
-5.6618738181
 21
42.6127041827
  0
LINE
  5
4E7
100
AcDbEntity
  8
0
100
AcDbLine
 62
7
  6
CONTINUOUS
 10
-2.3140353949
 20
45.3432258472
 11
-1.8
 21
45.3369441771
  0
LINE
  5
4E8
100
AcDbEntity
  8
RACCORDO
100
AcDbLine
 62
250
  6
CONTINUOUS
 10
-5.4025894036
 20
44.420493897
 11
-4.3423046564
 21
44.4071353134
  0
LINE
  5
4E9
100
AcDbEntity
  8
RACCORDO
100
AcDbLine
 62
250
  6
CONTINUOUS
 10
-5.2587223104
 20
44.713186451
 11
-4.2266720666
 21
44.7001836584
  0
LINE
  5
4EA
100
AcDbEntity
  8
RACCORDO
100
AcDbLine
 62
250
  6
CONTINUOUS
 10
-6.6950753381
 20
42.9216582669
 11
-5.9337260574
 21
42.9105889517
  0
LINE
  5
4EB
100
AcDbEntity
  8
0
100
AcDbLine
 62
7
  6
CONTINUOUS
 10
-4.0810364266
 20
45.3145942803
 11
-3.3799203484
 21
45.3048362661
  0
LINE
  5
4EC
100
AcDbEntity
  8
0
100
AcDbLine
 62
7
  6
CONTINUOUS
 10
3.6010511318
 20
45.4750989367
 11
4.0810364266
 21
45.4681165108
  0
LINE
  5
4ED
100
AcDbEntity
  8
0
100
AcDbLine
 62
7
  6
CONTINUOUS
 10
-5.8369045243
 20
43.9873460854
 11
-4.9694961177
 21
43.9744456496
  0
LINE
  5
4EE
100
AcDbEntity
  8
0
100
AcDbLine
 62
7
  6
CONTINUOUS
 10
-7.14177849
 20
42.1671863197
 11
-6.148490433
 21
42.1519836986
  0
LINE
  5
4EF
100
AcDbEntity
  8
RACCORDO
100
AcDbLine
 62
250
  6
CONTINUOUS
 10
-7.2087341295
 20
42.635211025
 11
-6.4644452065
 21
42.6232382127
  0
LINE
  5
4F0
100
AcDbEntity
  8
0
100
AcDbLine
 62
7
  6
CONTINUOUS
 10
-5.6813121991
 20
43.4970877601
 11
-4.8525480418
 21
43.4839391772
  0
LINE
  5
4F1
100
AcDbEntity
  8
RACCORDO
100
AcDbLine
 62
250
  6
CONTINUOUS
 10
-6.0412169494
 20
44.4310082055
 11
-5.4025894036
 21
44.420493897
  0
LINE
  5
4F2
100
AcDbEntity
  8
RACCORDO
100
AcDbLine
 62
250
  6
CONTINUOUS
 10
-5.8803437311
 20
44.7234207457
 11
-5.2587223104
 21
44.713186451
  0
LINE
  5
4F3
100
AcDbEntity
  8
0
100
AcDbLine
 62
7
  6
CONTINUOUS
 10
-3.0164680338
 20
45.8428164507
 11
-2.518272122
 21
45.8348123994
  0
LINE
  5
4F4
100
AcDbEntity
  8
RACCORDO
100
AcDbLine
 62
250
  6
CONTINUOUS
 10
-7.387730049
 20
42.9339774149
 11
-6.6950753381
 21
42.9216582669
  0
LINE
  5
4F5
100
AcDbEntity
  8
0
100
AcDbLine
 62
7
  6
CONTINUOUS
 10
4.0810364266
 20
45.4681165108
 11
4.4988099791
 21
45.4606395639
  0
LINE
  5
4F6
100
AcDbEntity
  8
RACCORDO
100
AcDbLine
 62
250
  6
CONTINUOUS
 10
-3.0945693377
 20
46.1834480088
 11
-2.5442782196
 21
46.174276374
  0
LINE
  5
4F7
100
AcDbEntity
  8
RACCORDO
100
AcDbLine
 62
250
  6
CONTINUOUS
 10
-2.9267421651
 20
46.475727303
 11
-2.4062947919
 21
46.4670531044
  0
LINE
  5
4F8
100
AcDbEntity
  8
0
100
AcDbLine
 62
7
  6
CONTINUOUS
 10
-2.7577599952
 20
45.3509699093
 11
-2.3140353949
 21
45.3432258472
  0
LINE
  5
4F9
100
AcDbEntity
  8
0
100
AcDbLine
 62
7
  6
CONTINUOUS
 10
-7.7371868999
 20
42.1785281748
 11
-7.14177849
 21
42.1671863197
  0
LINE
  5
4FA
100
AcDbEntity
  8
RACCORDO
100
AcDbLine
 62
250
  6
CONTINUOUS
 10
-7.8800752384
 20
42.6484120885
 11
-7.2087341295
 21
42.635211025
  0
LINE
  5
4FB
100
AcDbEntity
  8
0
100
AcDbLine
 62
7
  6
CONTINUOUS
 10
-4.6909888948
 20
45.3260670109
 11
-4.0810364266
 21
45.3145942803
  0
LINE
  5
4FC
100
AcDbEntity
  8
0
100
AcDbLine
 62
7
  6
CONTINUOUS
 10
-6.5955824434
 20
44.0021877062
 11
-5.8369045243
 21
43.9873460854
  0
LINE
  5
4FD
100
AcDbEntity
  8
RACCORDO
100
AcDbLine
 62
250
  6
CONTINUOUS
 10
-6.6123135801
 20
44.4426178286
 11
-6.0412169494
 21
44.4310082055
  0
LINE
  5
4FE
100
AcDbEntity
  8
RACCORDO
100
AcDbLine
 62
250
  6
CONTINUOUS
 10
-6.4362324988
 20
44.7347212048
 11
-5.8803437311
 21
44.7234207457
  0
LINE
  5
4FF
100
AcDbEntity
  8
0
100
AcDbLine
 62
7
  6
CONTINUOUS
 10
-3.3037271364
 20
45.8489057389
 11
-3.0164680338
 21
45.8428164507
  0
LINE
  5
500
100
AcDbEntity
  8
RACCORDO
100
AcDbLine
 62
250
  6
CONTINUOUS
 10
-8.0054823004
 20
42.9474231421
 11
-7.387730049
 21
42.9339774149
  0
LINE
  5
501
100
AcDbEntity
  8
0
100
AcDbLine
 62
7
  6
CONTINUOUS
 10
4.4988099791
 20
45.4606395639
 11
4.8714378982
 21
45.4524847414
  0
LINE
  5
502
100
AcDbEntity
  8
0
100
AcDbLine
 62
7
  6
CONTINUOUS
 10
-6.3944212236
 20
43.5121609411
 11
-5.6813121991
 21
43.4970877601
  0
LINE
  5
503
100
AcDbEntity
  8
0
100
AcDbLine
 62
7
  6
CONTINUOUS
 10
-8.2732300897
 20
42.1907201656
 11
-7.7371868999
 21
42.1785281748
  0
LINE
  5
504
100
AcDbEntity
  8
RACCORDO
100
AcDbLine
 62
250
  6
CONTINUOUS
 10
-3.4029938098
 20
46.1904761522
 11
-3.0945693377
 21
46.1834480088
  0
LINE
  5
505
100
AcDbEntity
  8
RACCORDO
100
AcDbLine
 62
250
  6
CONTINUOUS
 10
-3.2184400229
 20
46.4823742589
 11
-2.9267421651
 21
46.475727303
  0
LINE
  5
506
100
AcDbEntity
  8
0
100
AcDbLine
 62
7
  6
CONTINUOUS
 10
-3.0078347488
 20
45.3568345269
 11
-2.7577599952
 21
45.3509699093
  0
LINE
  5
507
100
AcDbEntity
  8
RACCORDO
100
AcDbLine
 62
250
  6
CONTINUOUS
 10
-8.4706347243
 20
42.6626711712
 11
-7.8800752384
 21
42.6484120885
  0
LINE
  5
508
100
AcDbEntity
  8
0
100
AcDbLine
 62
7
  6
CONTINUOUS
 10
-5.0402436859
 20
45.3345471366
 11
-4.6909888948
 21
45.3260670109
  0
LINE
  5
509
100
AcDbEntity
  8
0
100
AcDbLine
 62
7
  6
CONTINUOUS
 10
-7.0336076148
 20
44.0130176276
 11
-6.5955824434
 21
44.0021877062
  0
LINE
  5
50A
100
AcDbEntity
  8
RACCORDO
100
AcDbLine
 62
250
  6
CONTINUOUS
 10
-7.1096165921
 20
44.455183155
 11
-6.6123135801
 21
44.4426178286
  0
LINE
  5
50B
100
AcDbEntity
  8
RACCORDO
100
AcDbLine
 62
250
  6
CONTINUOUS
 10
-6.9202926879
 20
44.7469519278
 11
-6.4362324988
 21
44.7347212048
  0
LINE
  5
50C
100
AcDbEntity
  8
RACCORDO
100
AcDbLine
 62
250
  6
CONTINUOUS
 10
-8.5424391979
 20
42.9618546417
 11
-8.0054823004
 21
42.9474231421
  0
LINE
  5
50D
100
AcDbEntity
  8
0
100
AcDbLine
 62
7
  6
CONTINUOUS
 10
-6.7982994197
 20
43.523128849
 11
-6.3944212236
 21
43.5121609411
  0
LINE
  5
50E
100
AcDbEntity
  8
0
100
AcDbLine
 62
7
  6
CONTINUOUS
 10
4.8714378982
 20
45.4524847414
 11
5.1961524227
 21
45.4437126148
  0
LINE
  5
50F
100
AcDbEntity
  8
0
100
AcDbLine
 62
7
  6
CONTINUOUS
 10
-8.7468565782
 20
42.203692888
 11
-8.2732300897
 21
42.1907201656
  0
LWPOLYLINE
  5
510
100
AcDbEntity
  8
0
100
AcDbPolyline
 62
7
  6
CONTINUOUS
 90
3
 70
0
 10
-3.658295417
 20
45.8589738513
 10
-3.5505404583
 20
45.8554988377
 10
-3.3037271364
 20
45.8489057389
  0
LWPOLYLINE
  5
511
100
AcDbEntity
  8
0
100
AcDbPolyline
 62
7
  6
CONTINUOUS
 90
10
 70
0
 10
5.1961524227
 20
45.4437126148
 10
5.4690866775
 20
45.4344187424
 10
5.5852424919
 20
45.4296118758
 10
5.6874322948
 20
45.4247093481
 10
5.7757593101
 20
45.4197118663
 10
5.8495674731
 20
45.4146565502
 10
5.9087486747
 20
45.4095429691
 10
5.9534110239
 20
45.4043715536
 10
5.9832227831
 20
45.3991807153
 10
5.9872670073
 20
45.3981737669
  0
LWPOLYLINE
  5
512
100
AcDbEntity
  8
0
100
AcDbPolyline
 62
7
  6
CONTINUOUS
 90
5
 70
0
 10
-7.8678786997
 20
44.0427521918
 10
-7.7325045921
 20
44.0365576069
 10
-7.5808456296
 20
44.0304640302
 10
-7.4138415737
 20
44.0245092209
 10
-7.0336076148
 20
44.0130176276
  0
LINE
  5
513
100
AcDbEntity
  8
0
100
AcDbLine
 62
7
  6
CONTINUOUS
 10
9.4513417461
 20
41.7969225808
 11
11.6029477407
 21
41.2217136856
  0
LINE
  5
514
100
AcDbEntity
  8
0
100
AcDbLine
 62
7
  6
CONTINUOUS
 10
7.8511145721
 20
43.5957986733
 11
9.8566648691
 21
43.0596362098
  0
LINE
  5
515
100
AcDbEntity
  8
0
100
AcDbLine
 62
7
  6
CONTINUOUS
 10
5.9872555597
 20
45.398176828
 11
8.1103819975
 21
44.8305816384
  0
LINE
  5
516
100
AcDbEntity
  8
0
100
AcDbLine
 62
7
  6
CONTINUOUS
 10
0.9978759266
 20
47.2922029217
 11
3.8694093095
 21
46.5245291243
  0
LWPOLYLINE
  5
517
100
AcDbEntity
  8
RACCORDO
100
AcDbPolyline
 62
7
  6
CONTINUOUS
 90
19
 70
0
 10
11.6029478521
 20
41.2217136558
 10
11.61316013
 20
41.2188641045
 10
11.6242276743
 20
41.2154860869
 10
11.6361451014
 20
41.2114737819
 10
11.6486645694
 20
41.2067946592
 10
11.6619880024
 20
41.2012378397
 10
11.6767338185
 20
41.194320399
 10
11.6929627663
 20
41.1856697851
 10
11.7102995585
 20
41.1750748202
 10
11.7285944665
 20
41.1621504986
 10
11.7476645248
 20
41.146422595
 10
11.7669144419
 20
41.1276674962
 10
11.7855166751
 20
41.1059676782
 10
11.8029764534
 20
41.0811305058
 10
11.8186651001
 20
41.0531190165
 10
11.831707652
 20
41.0225566141
 10
11.841556552
 20
40.9898591621
 10
11.847813162
 20
40.9551299191
 10
11.85
 20
40.9187605389
  0
LWPOLYLINE
  5
518
100
AcDbEntity
  8
RACCORDO
100
AcDbPolyline
 62
7
  6
CONTINUOUS
 90
19
 70
0
 10
9.8566649278
 20
43.0596361941
 10
9.8666201597
 20
43.0568541342
 10
9.8775505009
 20
43.0535020378
 10
9.8894467828
 20
43.049462338
 10
9.9020840694
 20
43.0446783144
 10
9.9156242185
 20
43.0389327642
 10
9.9305859423
 20
43.0317619066
 10
9.9470623922
 20
43.0227550977
 10
9.9646151802
 20
43.0117159412
 10
9.982874038
 20
42.9984100385
 10
10.001561173
 20
42.9825052087
 10
10.020233583
 20
42.9637530587
 10
10.0382238843
 20
42.9421535134
 10
10.055102348
 20
42.917462076
 10
10.0702095464
 20
42.8897235053
 10
10.0826847285
 20
42.8596471217
 10
10.0920375167
 20
42.8276817041
 10
10.0979451083
 20
42.7939004508
 10
10.1
 20
42.7586726476
  0
LWPOLYLINE
  5
519
100
AcDbEntity
  8
RACCORDO
100
AcDbPolyline
 62
7
  6
CONTINUOUS
 90
19
 70
0
 10
8.1103821084
 20
44.8305816087
 10
8.1201597338
 20
44.827843461
 10
8.1310414165
 20
44.8244847154
 10
8.1430110344
 20
44.8203738976
 10
8.1558981223
 20
44.8154135296
 10
8.169788504
 20
44.8093871483
 10
8.1850035886
 20
44.8018960048
 10
8.2015992569
 20
44.7925469808
 10
8.2191618563
 20
44.7811417098
 10
8.2372343684
 20
44.7675295632
 10
8.2554875466
 20
44.7514780847
 10
8.2735732223
 20
44.73273669
 10
8.2909546789
 20
44.7112334023
 10
8.3072665291
 20
44.6866582878
 10
8.3218089508
 20
44.6591428859
 10
8.3337118753
 20
44.6295347639
 10
8.3425475184
 20
44.5983380522
 10
8.3480860254
 20
44.5655799954
 10
8.35
 20
44.5316076606
  0
LWPOLYLINE
  5
51A
100
AcDbEntity
  8
RACCORDO
100
AcDbPolyline
 62
7
  6
CONTINUOUS
 90
16
 70
0
 10
3.8694093471
 20
46.5245291142
 10
3.8818743255
 20
46.5209541803
 10
3.895934283
 20
46.5163024523
 10
3.9115344834
 20
46.5103020605
 10
3.9284348509
 20
46.5027109598
 10
3.9466184696
 20
46.4931423524
 10
3.9662212776
 20
46.4809923462
 10
3.9871280242
 20
46.4655939942
 10
4.0084977881
 20
46.4466890131
 10
4.0292591288
 20
46.4243691913
 10
4.0489098911
 20
46.3982387029
 10
4.0665314517
 20
46.3683844522
 10
4.0808209518
 20
46.3361485127
 10
4.0912806993
 20
46.3023315944
 10
4.0977755302
 20
46.2669230351
 10
4.1
 20
46.2303869946
  0
LWPOLYLINE
  5
51B
100
AcDbEntity
  8
0
100
AcDbPolyline
 62
7
  6
CONTINUOUS
 90
10
 70
0
 10
0.9978905893
 20
47.292198995
 10
0.9991191665
 20
47.2917717627
 10
0.9991191665
 20
47.2903602699
 10
0.9927088741
 20
47.2889623612
 10
0.9797641084
 20
47.2875782997
 10
0.9604090503
 20
47.2862078223
 10
0.9350162427
 20
47.2848773077
 10
0.9034687216
 20
47.2835875301
 10
0.865883451
 20
47.2823377153
 10
0.8229838659
 20
47.2811519195
  0
LWPOLYLINE
  5
51C
100
AcDbEntity
  8
0
100
AcDbPolyline
 62
7
  6
CONTINUOUS
 90
11
 70
0
 10
5.9872670073
 20
45.3981737669
 10
5.9980733731
 20
45.3939703097
 10
5.9980733731
 20
45.3887404814
 10
5.9832227831
 20
45.3835300757
 10
5.9534110239
 20
45.3783392375
 10
5.9087486747
 20
45.373167822
 10
5.8495674731
 20
45.3680542409
 10
5.7757593101
 20
45.3629989247
 10
5.6874322948
 20
45.358001443
 10
5.5852424919
 20
45.3530989153
 10
5.4690866775
 20
45.3482920487
  0
LINE
  5
51D
100
AcDbEntity
  8
DRAFT
100
AcDbLine
 62
7
  6
CONTINUOUS
 10
32.0
 20
29.9766309542
 11
32.2757899725
 21
29.7008409817
  0
LINE
  5
51E
100
AcDbEntity
  8
DRAFT
100
AcDbLine
 62
7
  6
CONTINUOUS
 10
26.5
 20
35.4766309542
 11
26.2242099741
 21
35.75242098
  0
LWPOLYLINE
  5
51F
100
AcDbEntity
  8
0
100
AcDbPolyline
 62
250
  6
CONTINUOUS
 90
8
 70
0
 10
33.4499217485
 20
26.0960268902
 10
33.4512325267
 20
26.0940206686
 10
33.4525319247
 20
26.086408168
 10
33.4538199423
 20
26.0731893886
 10
33.4551053991
 20
26.0542988354
 10
33.4563794756
 20
26.0298020034
 10
33.4576157134
 20
25.9998953765
 10
33.458813557
 20
25.9644084888
  0
LINE
  5
520
100
AcDbEntity
  8
DRAFT
100
AcDbLine
 62
7
  6
CONTINUOUS
 10
26.5
 20
-43.5233690458
 11
26.2242099741
 21
-43.7991590717
  0
LINE
  5
521
100
AcDbEntity
  8
DRAFT
100
AcDbLine
 62
7
  6
CONTINUOUS
 10
32.0
 20
-38.0233690458
 11
32.2757899725
 21
-37.7475790734
  0
LWPOLYLINE
  5
522
100
AcDbEntity
  8
0
100
AcDbPolyline
 62
250
  6
CONTINUOUS
 90
8
 70
0
 10
21.119395936
 20
-44.9732907943
 10
21.1173897144
 20
-44.9746015726
 10
21.1097772139
 20
-44.9759009705
 10
21.0965584344
 20
-44.9771889882
 10
21.0776678813
 20
-44.978474445
 10
21.0531710492
 20
-44.9797485214
 10
21.0232644223
 20
-44.9809847592
 10
20.9877775347
 20
-44.9821826029
  0
LWPOLYLINE
  5
523
100
AcDbEntity
  8
0
100
AcDbPolyline
 62
7
  6
CONTINUOUS
 90
8
 70
0
 10
-0.8229838659
 20
47.3009801132
 10
-0.865883451
 20
47.2997943174
 10
-0.9034687216
 20
47.2985445026
 10
-0.9350162427
 20
47.2972547249
 10
-0.9604090503
 20
47.2959242104
 10
-0.9797641084
 20
47.294553733
 10
-0.9927088741
 20
47.2931696715
 10
-0.9978905893
 20
47.292198995
  0
LINE
  5
524
100
AcDbEntity
  8
0
100
AcDbLine
 62
7
  6
CONTINUOUS
 10
0.8229838659
 20
47.2811519195
 11
0.7210358529
 21
47.2789748654
  0
LINE
  5
525
100
AcDbEntity
  8
0
100
AcDbLine
 62
7
  6
CONTINUOUS
 10
-0.7210358529
 20
47.3031571673
 11
-0.8229838659
 21
47.3009801132
  0
LINE
  5
526
100
AcDbEntity
  8
0
100
AcDbLine
 62
7
  6
CONTINUOUS
 10
0.7210358529
 20
47.2789748654
 11
0.6008444806
 21
47.2771165285
  0
LINE
  5
527
100
AcDbEntity
  8
0
100
AcDbLine
 62
7
  6
CONTINUOUS
 10
-0.6008444806
 20
47.3050155041
 11
-0.7210358529
 21
47.3031571673
  0
LINE
  5
528
100
AcDbEntity
  8
0
100
AcDbLine
 62
7
  6
CONTINUOUS
 10
0.6008444806
 20
47.2771165285
 11
0.3921030472
 21
47.2750123677
  0
LINE
  5
529
100
AcDbEntity
  8
0
100
AcDbLine
 62
7
  6
CONTINUOUS
 10
-0.3921030472
 20
47.307119665
 11
-0.6008444806
 21
47.3050155041
  0
LINE
  5
52A
100
AcDbEntity
  8
RACCORDO
100
AcDbLine
 62
250
  6
CONTINUOUS
 10
0.9456883427
 20
46.4544895424
 11
1.8344125384
 21
46.4604984654
  0
LINE
  5
52B
100
AcDbEntity
  8
0
100
AcDbLine
 62
7
  6
CONTINUOUS
 10
0.3921030472
 20
47.2750123677
 11
0.1610891269
 21
47.2738422781
  0
LINE
  5
52C
100
AcDbEntity
  8
0
100
AcDbLine
 62
7
  6
CONTINUOUS
 10
-0.1610891269
 20
47.3082897546
 11
-0.3921030472
 21
47.307119665
  0
LINE
  5
52D
100
AcDbEntity
  8
RACCORDO
100
AcDbLine
 62
250
  6
CONTINUOUS
 10
-0.220934874
 20
46.4525561023
 11
0.9456883427
 21
46.4544895424
  0
LINE
  5
52E
100
AcDbEntity
  8
0
100
AcDbLine
 62
7
  6
CONTINUOUS
 10
-0.1610891269
 20
47.2738422781
 11
0.1610891269
 21
47.2738422781
  0
LINE
  5
52F
100
AcDbEntity
  8
0
100
AcDbLine
 62
7
  6
CONTINUOUS
 10
-0.1610891269
 20
47.3082897546
 11
0.1610891269
 21
47.3082897546
  0
LINE
  5
530
100
AcDbEntity
  8
RACCORDO
100
AcDbLine
 62
250
  6
CONTINUOUS
 10
-1.1375528713
 20
46.4554241817
 11
-0.220934874
 21
46.4525561023
  0
LINE
  5
531
100
AcDbEntity
  8
0
100
AcDbLine
 62
7
  6
CONTINUOUS
 10
-0.3921030472
 20
47.2750123677
 11
-0.1610891269
 21
47.2738422781
  0
LINE
  5
532
100
AcDbEntity
  8
0
100
AcDbLine
 62
7
  6
CONTINUOUS
 10
0.1610891269
 20
47.3082897546
 11
0.3921030472
 21
47.307119665
  0
LINE
  5
533
100
AcDbEntity
  8
RACCORDO
100
AcDbLine
 62
250
  6
CONTINUOUS
 10
-1.8038644915
 20
46.4602150351
 11
-1.1375528713
 21
46.4554241817
  0
LINE
  5
534
100
AcDbEntity
  8
0
100
AcDbLine
 62
7
  6
CONTINUOUS
 10
-0.6008444806
 20
47.2771165285
 11
-0.3921030472
 21
47.2750123677
  0
LINE
  5
535
100
AcDbEntity
  8
0
100
AcDbLine
 62
7
  6
CONTINUOUS
 10
0.3921030472
 20
47.307119665
 11
0.6008444806
 21
47.3050155041
  0
LINE
  5
536
100
AcDbEntity
  8
0
100
AcDbLine
 62
7
  6
CONTINUOUS
 10
-0.7210358529
 20
47.2789748654
 11
-0.6008444806
 21
47.2771165285
  0
LINE
  5
537
100
AcDbEntity
  8
0
100
AcDbLine
 62
7
  6
CONTINUOUS
 10
0.6008444806
 20
47.3050155041
 11
0.7210358529
 21
47.3031571673
  0
LWPOLYLINE
  5
538
100
AcDbEntity
  8
0
100
AcDbPolyline
 62
7
  6
CONTINUOUS
 90
9
 70
0
 10
0.7210358529
 20
47.3031571673
 10
0.8229838659
 20
47.3009801132
 10
0.865883451
 20
47.2997943174
 10
0.9034687216
 20
47.2985445026
 10
0.9350162427
 20
47.2972547249
 10
0.9604090503
 20
47.2959242104
 10
0.9797641084
 20
47.294553733
 10
0.9927088741
 20
47.2931696715
 10
0.9978905893
 20
47.292198995
  0
CIRCLE
  5
539
100
AcDbEntity
  8
RACCORDO
100
AcDbCircle
 62
7
  6
CONTINUOUS
 10
-17.5
 20
-30.5233690458
 40
9.5
  0
CIRCLE
  5
53A
100
AcDbEntity
  8
RACCORDO
100
AcDbCircle
 62
250
  6
CONTINUOUS
 10
-17.5
 20
-30.5233690458
 40
8.9999990565
  0
ARC
  5
53B
100
AcDbEntity
  8
ASSI
100
AcDbCircle
 62
7
  6
CONTINUOUS
 10
-28.0
 20
-39.5233690458
 40
6.0
100
AcDbArc
 50
180.0
 51
270.0
  0
ARC
  5
53C
100
AcDbEntity
  8
DRAFT
100
AcDbCircle
 62
7
  6
CONTINUOUS
 10
-28.0
 20
-39.5233690458
 40
6.0
100
AcDbArc
 50
180.0
 51
270.0
  0
ARC
  5
53D
100
AcDbEntity
  8
RACCORDO
100
AcDbCircle
 62
250
  6
CONTINUOUS
 10
-28.0
 20
-39.5233690458
 40
5.3730280717
100
AcDbArc
 50
180.0
 51
270.0
  0
ARC
  5
53E
100
AcDbEntity
  8
RACCORDO
100
AcDbCircle
 62
7
  6
CONTINUOUS
 10
-28.0
 20
-39.5233690458
 40
4.2757899725
100
AcDbArc
 50
180.0
 51
270.0
  0
ARC
  5
53F
100
AcDbEntity
  8
DRAFT
100
AcDbCircle
 62
7
  6
CONTINUOUS
 10
-28.0
 20
-39.5233690458
 40
4.0
100
AcDbArc
 50
180.0
 51
270.0
  0
CIRCLE
  5
540
100
AcDbEntity
  8
0
100
AcDbCircle
 62
7
  6
CONTINUOUS
 10
-17.5
 20
-30.5233690458
 40
2.25
  0
CIRCLE
  5
541
100
AcDbEntity
  8
0
100
AcDbCircle
 62
7
  6
CONTINUOUS
 10
-17.5
 20
-30.5233690458
 40
1.8
  0
ARC
  5
542
100
AcDbEntity
  8
DRAFT
100
AcDbCircle
 62
7
  6
CONTINUOUS
 10
-28.0
 20
-39.5233690458
 40
1.7757900259
100
AcDbArc
 50
0.0
 51
90.0
  0
ARC
  5
543
100
AcDbEntity
  8
DRAFT
100
AcDbCircle
 62
7
  6
CONTINUOUS
 10
-28.0
 20
-39.5233690458
 40
1.5
100
AcDbArc
 50
0.0
 51
90.0
  0
CIRCLE
  5
544
100
AcDbEntity
  8
0
100
AcDbCircle
 62
7
  6
CONTINUOUS
 10
-17.5
 20
-30.5233690458
 40
1.5
  0
CIRCLE
  5
545
100
AcDbEntity
  8
RACCORDO
100
AcDbCircle
 62
7
  6
CONTINUOUS
 10
-17.5
 20
22.4766309542
 40
9.5
  0
CIRCLE
  5
546
100
AcDbEntity
  8
RACCORDO
100
AcDbCircle
 62
250
  6
CONTINUOUS
 10
-17.5
 20
22.4766309542
 40
8.9999990565
  0
ARC
  5
547
100
AcDbEntity
  8
ASSI
100
AcDbCircle
 62
7
  6
CONTINUOUS
 10
-28.0
 20
31.4766309542
 40
6.0
100
AcDbArc
 50
90.0
 51
180.0
  0
ARC
  5
548
100
AcDbEntity
  8
DRAFT
100
AcDbCircle
 62
7
  6
CONTINUOUS
 10
-28.0
 20
31.4766309542
 40
6.0
100
AcDbArc
 50
90.0
 51
180.0
  0
ARC
  5
549
100
AcDbEntity
  8
RACCORDO
100
AcDbCircle
 62
250
  6
CONTINUOUS
 10
-28.0
 20
31.4766309542
 40
5.3730280717
100
AcDbArc
 50
90.0
 51
180.0
  0
ARC
  5
54A
100
AcDbEntity
  8
RACCORDO
100
AcDbCircle
 62
7
  6
CONTINUOUS
 10
-28.0
 20
31.4766309542
 40
4.2757899725
100
AcDbArc
 50
90.0
 51
180.0
  0
ARC
  5
54B
100
AcDbEntity
  8
DRAFT
100
AcDbCircle
 62
7
  6
CONTINUOUS
 10
-28.0
 20
31.4766309542
 40
4.0
100
AcDbArc
 50
90.0
 51
180.0
  0
CIRCLE
  5
54C
100
AcDbEntity
  8
0
100
AcDbCircle
 62
7
  6
CONTINUOUS
 10
-17.5
 20
22.4766309542
 40
2.25
  0
CIRCLE
  5
54D
100
AcDbEntity
  8
0
100
AcDbCircle
 62
7
  6
CONTINUOUS
 10
-17.5
 20
22.4766309542
 40
1.8
  0
ARC
  5
54E
100
AcDbEntity
  8
DRAFT
100
AcDbCircle
 62
7
  6
CONTINUOUS
 10
-28.0
 20
31.4766309542
 40
1.7757900259
100
AcDbArc
 50
270.0
 51
360.0
  0
ARC
  5
54F
100
AcDbEntity
  8
DRAFT
100
AcDbCircle
 62
7
  6
CONTINUOUS
 10
-28.0
 20
31.4766309542
 40
1.5
100
AcDbArc
 50
270.0
 51
360.0
  0
CIRCLE
  5
550
100
AcDbEntity
  8
0
100
AcDbCircle
 62
7
  6
CONTINUOUS
 10
-17.5
 20
22.4766309542
 40
1.5
  0
CIRCLE
  5
551
100
AcDbEntity
  8
RACCORDO
100
AcDbCircle
 62
7
  6
CONTINUOUS
 10
17.5
 20
-30.5233690458
 40
9.5
  0
CIRCLE
  5
552
100
AcDbEntity
  8
RACCORDO
100
AcDbCircle
 62
250
  6
CONTINUOUS
 10
17.5
 20
-30.5233690458
 40
8.9999990565
  0
ARC
  5
553
100
AcDbEntity
  8
ASSI
100
AcDbCircle
 62
7
  6
CONTINUOUS
 10
28.0
 20
-39.5233690458
 40
6.0
100
AcDbArc
 50
270.0
 51
360.0
  0
ARC
  5
554
100
AcDbEntity
  8
DRAFT
100
AcDbCircle
 62
7
  6
CONTINUOUS
 10
28.0
 20
-39.5233690458
 40
6.0
100
AcDbArc
 50
270.0
 51
360.0
  0
ARC
  5
555
100
AcDbEntity
  8
RACCORDO
100
AcDbCircle
 62
250
  6
CONTINUOUS
 10
28.0
 20
-39.5233690458
 40
5.3730280717
100
AcDbArc
 50
270.0
 51
360.0
  0
CIRCLE
  5
556
100
AcDbEntity
  8
RACCORDO
100
AcDbCircle
 62
7
  6
CONTINUOUS
 10
-0.0
 20
-22.8233690458
 40
4.8
  0
CIRCLE
  5
557
100
AcDbEntity
  8
RACCORDO
100
AcDbCircle
 62
250
  6
CONTINUOUS
 10
-0.0
 20
-22.8233690458
 40
4.2999972642
  0
ARC
  5
558
100
AcDbEntity
  8
RACCORDO
100
AcDbCircle
 62
7
  6
CONTINUOUS
 10
28.0
 20
-39.5233690458
 40
4.2757899725
100
AcDbArc
 50
270.0
 51
360.0
  0
ARC
  5
559
100
AcDbEntity
  8
DRAFT
100
AcDbCircle
 62
7
  6
CONTINUOUS
 10
28.0
 20
-39.5233690458
 40
4.0
100
AcDbArc
 50
270.0
 51
360.0
  0
CIRCLE
  5
55A
100
AcDbEntity
  8
0
100
AcDbCircle
 62
7
  6
CONTINUOUS
 10
17.5
 20
-30.5233690458
 40
2.25
  0
CIRCLE
  5
55B
100
AcDbEntity
  8
0
100
AcDbCircle
 62
7
  6
CONTINUOUS
 10
17.5
 20
-30.5233690458
 40
1.8
  0
ARC
  5
55C
100
AcDbEntity
  8
DRAFT
100
AcDbCircle
 62
7
  6
CONTINUOUS
 10
28.0
 20
-39.5233690458
 40
1.7757900259
100
AcDbArc
 50
90.0
 51
180.0
  0
CIRCLE
  5
55D
100
AcDbEntity
  8
0
100
AcDbCircle
 62
7
  6
CONTINUOUS
 10
17.5
 20
-30.5233690458
 40
1.5
  0
ARC
  5
55E
100
AcDbEntity
  8
DRAFT
100
AcDbCircle
 62
7
  6
CONTINUOUS
 10
28.0
 20
-39.5233690458
 40
1.5
100
AcDbArc
 50
90.0
 51
180.0
  0
CIRCLE
  5
55F
100
AcDbEntity
  8
0
100
AcDbCircle
 62
7
  6
CONTINUOUS
 10
-0.0
 20
-4.0233690458
 40
11.25
  0
ARC
  5
560
100
AcDbEntity
  8
0
100
AcDbCircle
 62
7
  6
CONTINUOUS
 10
-0.0
 20
-4.0233690458
 40
11.0
100
AcDbArc
 50
185.7391704773
 51
264.2608295227
  0
ARC
  5
561
100
AcDbEntity
  8
0
100
AcDbCircle
 62
7
  6
CONTINUOUS
 10
-0.0
 20
-4.0233690458
 40
11.0
100
AcDbArc
 50
275.7391704773
 51
354.2608295227
  0
ARC
  5
562
100
AcDbEntity
  8
0
100
AcDbCircle
 62
7
  6
CONTINUOUS
 10
-0.0
 20
-4.0233690458
 40
11.0
100
AcDbArc
 50
95.7391704773
 51
174.2608295227
  0
ARC
  5
563
100
AcDbEntity
  8
0
100
AcDbCircle
 62
7
  6
CONTINUOUS
 10
-0.0
 20
-4.0233690458
 40
11.0
100
AcDbArc
 50
5.7391704773
 51
84.2608295227
  0
ARC
  5
564
100
AcDbEntity
  8
0
100
AcDbCircle
 62
7
  6
CONTINUOUS
 10
-0.0
 20
-4.0233690458
 40
10.1299689469
100
AcDbArc
 50
6.233965798
 51
83.766034202
  0
ARC
  5
565
100
AcDbEntity
  8
0
100
AcDbCircle
 62
7
  6
CONTINUOUS
 10
-0.0
 20
-4.0233690458
 40
10.1299689469
100
AcDbArc
 50
96.233965798
 51
173.766034202
  0
ARC
  5
566
100
AcDbEntity
  8
0
100
AcDbCircle
 62
7
  6
CONTINUOUS
 10
-0.0
 20
-4.0233690458
 40
10.1299689469
100
AcDbArc
 50
186.233965798
 51
263.766034202
  0
ARC
  5
567
100
AcDbEntity
  8
0
100
AcDbCircle
 62
7
  6
CONTINUOUS
 10
-0.0
 20
-4.0233690458
 40
10.1299689469
100
AcDbArc
 50
276.233965798
 51
353.766034202
  0
CIRCLE
  5
568
100
AcDbEntity
  8
RACCORDO
100
AcDbCircle
 62
7
  6
CONTINUOUS
 10
-0.0
 20
14.7766309542
 40
4.8
  0
CIRCLE
  5
569
100
AcDbEntity
  8
RACCORDO
100
AcDbCircle
 62
250
  6
CONTINUOUS
 10
-0.0
 20
14.7766309542
 40
4.2999972642
  0
CIRCLE
  5
56A
100
AcDbEntity
  8
RACCORDO
100
AcDbCircle
 62
7
  6
CONTINUOUS
 10
17.5
 20
22.4766309542
 40
9.5
  0
CIRCLE
  5
56B
100
AcDbEntity
  8
RACCORDO
100
AcDbCircle
 62
250
  6
CONTINUOUS
 10
17.5
 20
22.4766309542
 40
8.9999990565
  0
ARC
  5
56C
100
AcDbEntity
  8
ASSI
100
AcDbCircle
 62
7
  6
CONTINUOUS
 10
28.0
 20
31.4766309542
 40
6.0
100
AcDbArc
 50
0.0
 51
90.0
  0
ARC
  5
56D
100
AcDbEntity
  8
DRAFT
100
AcDbCircle
 62
7
  6
CONTINUOUS
 10
28.0
 20
31.4766309542
 40
6.0
100
AcDbArc
 50
0.0
 51
90.0
  0
ARC
  5
56E
100
AcDbEntity
  8
RACCORDO
100
AcDbCircle
 62
250
  6
CONTINUOUS
 10
28.0
 20
31.4766309542
 40
5.3730280717
100
AcDbArc
 50
0.0
 51
90.0
  0
ARC
  5
56F
100
AcDbEntity
  8
RACCORDO
100
AcDbCircle
 62
7
  6
CONTINUOUS
 10
28.0
 20
31.4766309542
 40
4.2757899725
100
AcDbArc
 50
0.0
 51
90.0
  0
ARC
  5
570
100
AcDbEntity
  8
DRAFT
100
AcDbCircle
 62
7
  6
CONTINUOUS
 10
28.0
 20
31.4766309542
 40
4.0
100
AcDbArc
 50
0.0
 51
90.0
  0
CIRCLE
  5
571
100
AcDbEntity
  8
0
100
AcDbCircle
 62
7
  6
CONTINUOUS
 10
17.5
 20
22.4766309542
 40
2.25
  0
CIRCLE
  5
572
100
AcDbEntity
  8
0
100
AcDbCircle
 62
7
  6
CONTINUOUS
 10
17.5
 20
22.4766309542
 40
1.8
  0
ARC
  5
573
100
AcDbEntity
  8
DRAFT
100
AcDbCircle
 62
7
  6
CONTINUOUS
 10
28.0
 20
31.4766309542
 40
1.7757900259
100
AcDbArc
 50
180.0
 51
270.0
  0
ARC
  5
574
100
AcDbEntity
  8
DRAFT
100
AcDbCircle
 62
7
  6
CONTINUOUS
 10
28.0
 20
31.4766309542
 40
1.5
100
AcDbArc
 50
180.0
 51
270.0
  0
CIRCLE
  5
575
100
AcDbEntity
  8
0
100
AcDbCircle
 62
7
  6
CONTINUOUS
 10
17.5
 20
22.4766309542
 40
1.5
  0
ENDSEC
  0
SECTION
  2
OBJECTS
  0
DICTIONARY
  5
C
100
AcDbDictionary
280
0
281
1
  3
ACAD_GROUP
350
D
  3
ACAD_MLINESTYLE
350
17
  3
ACAD_LAYOUT
350
1A
  3
ACAD_PLOTSETTINGS
350
19
  3
ACAD_PLOTSTYLENAME
350
E
  0
DICTIONARY
  5
D
102
{ACAD_REACTORS
330
C
102
}
100
AcDbDictionary
280
0
281
1
  0
ACDBDICTIONARYWDFLT
  5
E
102
{ACAD_REACTORS
330
C
102
}
100
AcDbDictionary
281
1
  3
Normal
350
F
100
AcDbDictionaryWithDefault
340
F
  0
DICTIONARY
  5
17
102
{ACAD_REACTORS
330
C
102
}
100
AcDbDictionary
280
0
281
1
  3
Standard
350
18
  0
DICTIONARY
  5
19
102
{ACAD_REACTORS
330
C
102
}
100
AcDbDictionary
281
1
  0
DICTIONARY
  5
1A
102
{ACAD_REACTORS
330
C
102
}
100
AcDbDictionary
281
1
  3
Model
350
576
  3
Layout1
350
577
  0
ACDBPLACEHOLDER
  5
F
102
{ACAD_REACTORS
330
E
102
}
  0
MLINESTYLE
  5
18
102
{ACAD_REACTORS
330
17
102
}
100
AcDbMlineStyle
  2
STANDARD
 70
0
  3

 62
256
 51
90.0
 52
90.0
 71
2
 49
0.5
 62
256
  6
BYLAYER
 49
-0.5
 62
256
  6
BYLAYER
  0
LAYOUT
  5
576
102
{ACAD_REACTORS
330
1A
102
}
100
AcDbPlotSettings
  1

  2
none_device
  4
ISO_A4_(297.00_x_210.00_MM)
  6

 40
0.0
 41
0.0
 42
0.0
 43
0.0
 44
297.0
 45
210.0
 46
0.0
 47
0.0
 48
0.0
 49
0.0
140
0.0
141
0.0
142
1.0
143
1.0
 70
1024
 72
1
 73
0
 74
0
  7

 75
0
147
1.0
148
0.0
149
0.0
100
AcDbLayout
  1
Model
 70
0
 71
0
 10
0.0
 20
0.0
 11
297.0
 21
210.0
 12
0.0
 22
0.0
 32
0.0
 14
0.0
 24
0.0
 34
0.0
 15
0.0
 25
0.0
 35
0.0
146
0.0
 13
0.0
 23
0.0
 33
0.0
 16
1.0
 26
0.0
 36
0.0
 17
0.0
 27
1.0
 37
0.0
 76
0
330
21B
345
0
346
0
  0
LAYOUT
  5
577
102
{ACAD_REACTORS
330
1A
102
}
100
AcDbPlotSettings
  1

  2
none_device
  4
ISO_A4_(297.00_x_210.00_MM)
  6

 40
0.0
 41
0.0
 42
0.0
 43
0.0
 44
297.0
 45
210.0
 46
0.0
 47
0.0
 48
0.0
 49
0.0
140
0.0
141
0.0
142
1.0
143
1.0
 70
0
 72
1
 73
0
 74
0
  7

 75
0
147
1.0
148
0.0
149
0.0
100
AcDbLayout
  1
Layout1
 70
0
 71
1
 10
0.0
 20
0.0
 11
297.0
 21
210.0
 12
0.0
 22
0.0
 32
0.0
 14
0.0
 24
0.0
 34
0.0
 15
0.0
 25
0.0
 35
0.0
146
0.0
 13
0.0
 23
0.0
 33
0.0
 16
1.0
 26
0.0
 36
0.0
 17
0.0
 27
1.0
 37
0.0
 76
0
330
21C
345
0
346
0
  0
ENDSEC
  0
EOF
