  0
SECTION
  2
HEADER
  9
$ACADVER
  1
AC1024
  9
$DWGCODEPAGE
  3
ANSI_1252
  9
$EXTMAX
 10
297.0
 20
210.0
 30
0.0
  9
$EXTMIN
 10
0.0
 20
0.0
 30
0.0
  9
$LIMMIN
 10
0.0
 20
0.0
  9
$LIMMAX
 10
297.0
 20
210.0
  9
$VIEWCTR
 10
148.5
 20
105.0
  9
$VIEWSIZE
 40
210.0
  9
$CLAYER
  8
0
  9
$LTSCALE
 40
16.335
  9
$CELTYPE
  6
BYLAYER
  9
$DIMSCALE
 40
1.0
  9
$DIMASZ
 40
3.0
  9
$DIMEXO
 40
0.5
  9
$DIMDLI
 40
11.286
  9
$DIMEXE
 40
1.5
  9
$DIMCEN
 40
2.673
  9
$DIMLFAC
 40
1.0
  9
$DIMBLK
  1
_FILLED
  9
$DIMALT
 70
0
  9
$DIMALTF
 40
0.0393700787
  9
$DIMTXT
 40
3.0
  9
$DIMTOL
 70
1
  9
$DIMLIM
 70
0
  9
$DIMTFAC
 40
1.0
  9
$DIMTP
 40
0.01
  9
$DIMTM
 40
0.01
  9
$DIMGAP
 40
0.625
  9
$DIMDSEP
 70
44
  9
$AUNITS
 70
0
  9
$PDMODE
 70
3
  9
$PDSIZE
 40
3.0
  9
$HANDSEED
  5
557
  9
$TILEMODE
 70
1
  9
$MEASUREMENT
 70
1
  9
$INSUNITS
 70
4
  0
ENDSEC
  0
SECTION
  2
CLASSES
  0
CLASS
  1
ACDBDICTIONARYWDFLT
  2
AcDbDictionaryWithDefault
  3
AutoCAD 2000
 90
0
 91
1
280
0
281
0
  0
CLASS
  1
ACDBPLACEHOLDER
  2
AcDbPlaceHolder
  3
AutoCAD 2000
 90
0
 91
1
280
0
281
0
  0
CLASS
  1
LAYOUT
  2
AcDbLayout
  3
AutoCAD 2000
 90
0
 91
0
280
0
281
0
  0
ENDSEC
  0
SECTION
  2
TABLES
  0
TABLE
  2
VPORT
  5
8
100
AcDbSymbolTable
 70
2
  0
VPORT
  5
1F4
100
AcDbSymbolTableRecord
100
AcDbViewportTableRecord
  2
*ACTIVE
 70
0
 10
0.0
 20
0.0
 11
1.0
 21
1.0
 12
148.5
 22
105.0
 13
0.0
 23
0.0
 14
1.0
 24
1.0
 15
0.0
 25
0.0
 16
0.0
 26
0.0
 36
1.0
 17
0.0
 27
0.0
 37
0.0
 40
210.0
 41
1.4142857143
 42
50.0
 43
0.0
 44
0.0
 50
0.0
 51
0.0
 71
0
 72
100
 73
1
 74
1
 75
0
 76
0
 77
0
 78
0
  0
ENDTAB
  0
TABLE
  2
LTYPE
  5
5
100
AcDbSymbolTable
 70
6
  0
LTYPE
  5
14
100
AcDbSymbolTableRecord
100
AcDbLinetypeTableRecord
  2
BYBLOCK
 70
0
  3

 72
65
 73
0
 40
0.0
  0
LTYPE
  5
15
100
AcDbSymbolTableRecord
100
AcDbLinetypeTableRecord
  2
BYLAYER
 70
0
  3

 72
65
 73
0
 40
0.0
  0
LTYPE
  5
16
100
AcDbSymbolTableRecord
100
AcDbLinetypeTableRecord
  2
CONTINUOUS
 70
64
  3
Solid line
 72
65
 73
0
 40
0.0
  0
LTYPE
  5
1F5
100
AcDbSymbolTableRecord
100
AcDbLinetypeTableRecord
  2
CENTER
 70
64
  3
____ _ ____ _ ____ _ ____ _ ____ _ ____ _ ____
 72
65
 73
4
 40
0.6
 49
0.375
 74
0
 49
-0.075
 74
0
 49
0.075
 74
0
 49
-0.075
 74
0
  0
LTYPE
  5
1F6
100
AcDbSymbolTableRecord
100
AcDbLinetypeTableRecord
  2
HIDDEN
 70
64
  3
- - - - - - - - - - - - - - - - - - - -
 72
65
 73
2
 40
0.2
 49
0.1
 74
0
 49
-0.1
 74
0
  0
LTYPE
  5
1F7
100
AcDbSymbolTableRecord
100
AcDbLinetypeTableRecord
  2
PHANTOM
 70
64
  3
_____ _ _ _____ _ _ _____ _ _ _____
 72
65
 73
6
 40
0.8
 49
0.45
 74
0
 49
-0.05
 74
0
 49
0.1
 74
0
 49
-0.05
 74
0
 49
0.1
 74
0
 49
-0.05
 74
0
  0
LTYPE
  5
1F8
100
AcDbSymbolTableRecord
100
AcDbLinetypeTableRecord
  2
DOT
 70
64
  3
. . . . . . . . . . . . . . . . . . . .
 72
65
 73
2
 40
0.2
 49
0.1
 74
0
 49
-0.1
 74
0
  0
LTYPE
  5
1F9
100
AcDbSymbolTableRecord
100
AcDbLinetypeTableRecord
  2
DASHED
 70
64
  3
- - - - - - - - - - - - - - - - - - - -
 72
65
 73
2
 40
0.2
 49
0.1
 74
0
 49
-0.1
 74
0
  0
ENDTAB
  0
TABLE
  2
LAYER
  5
2
100
AcDbSymbolTable
 70
36
  0
LAYER
  5
10
100
AcDbSymbolTableRecord
100
AcDbLayerTableRecord
  2
0
 70
0
 62
7
  6
CONTINUOUS
370
-3
390
F
  0
LAYER
  5
1FA
100
AcDbSymbolTableRecord
100
AcDbLayerTableRecord
  2
DEFAULT_1
 70
0
 62
7
  6
CENTER
370
-3
390
F
  0
LAYER
  5
1FB
100
AcDbSymbolTableRecord
100
AcDbLayerTableRecord
  2
DEFAULT_2
 70
0
 62
7
  6
HIDDEN
370
-3
390
F
  0
LAYER
  5
1FC
100
AcDbSymbolTableRecord
100
AcDbLayerTableRecord
  2
DEFAULT_3
 70
0
 62
7
  6
PHANTOM
370
-3
390
F
  0
LAYER
  5
1FD
100
AcDbSymbolTableRecord
100
AcDbLayerTableRecord
  2
ASSI
 70
0
 62
7
  6
CONTINUOUS
370
-3
390
F
  0
LAYER
  5
1FE
100
AcDbSymbolTableRecord
100
AcDbLayerTableRecord
  2
COLOR5
 70
0
 62
7
  6
CONTINUOUS
370
-3
390
F
  0
LAYER
  5
1FF
100
AcDbSymbolTableRecord
100
AcDbLayerTableRecord
  2
COORDINATE
 70
0
 62
7
  6
CONTINUOUS
370
-3
390
F
  0
LAYER
  5
200
100
AcDbSymbolTableRecord
100
AcDbLayerTableRecord
  2
COORD_ORIGINE
 70
0
 62
7
  6
CONTINUOUS
370
-3
390
F
  0
LAYER
  5
201
100
AcDbSymbolTableRecord
100
AcDbLayerTableRecord
  2
COPY_PUBLISH
 70
0
 62
7
  6
CONTINUOUS
370
-3
390
F
  0
LAYER
  5
202
100
AcDbSymbolTableRecord
100
AcDbLayerTableRecord
  2
COSMETICI
 70
0
 62
7
  6
CONTINUOUS
370
-3
390
F
  0
LAYER
  5
203
100
AcDbSymbolTableRecord
100
AcDbLayerTableRecord
  2
CURVE
 70
0
 62
7
  6
CONTINUOUS
370
-3
390
F
  0
LAYER
  5
204
100
AcDbSymbolTableRecord
100
AcDbLayerTableRecord
  2
DRAFT
 70
0
 62
7
  6
CONTINUOUS
370
-3
390
F
  0
LAYER
  5
205
100
AcDbSymbolTableRecord
100
AcDbLayerTableRecord
  2
IMPORT_IGES
 70
0
 62
7
  6
CONTINUOUS
370
-3
390
F
  0
LAYER
  5
206
100
AcDbSymbolTableRecord
100
AcDbLayerTableRecord
  2
INTF_1
 70
0
 62
7
  6
CONTINUOUS
370
-3
390
F
  0
LAYER
  5
207
100
AcDbSymbolTableRecord
100
AcDbLayerTableRecord
  2
INTF_11
 70
0
 62
7
  6
CONTINUOUS
370
-3
390
F
  0
LAYER
  5
208
100
AcDbSymbolTableRecord
100
AcDbLayerTableRecord
  2
INTF_2
 70
0
 62
7
  6
CONTINUOUS
370
-3
390
F
  0
LAYER
  5
209
100
AcDbSymbolTableRecord
100
AcDbLayerTableRecord
  2
INTF_7
 70
0
 62
7
  6
CONTINUOUS
370
-3
390
F
  0
LAYER
  5
20A
100
AcDbSymbolTableRecord
100
AcDbLayerTableRecord
  2
INTF_8
 70
0
 62
7
  6
CONTINUOUS
370
-3
390
F
  0
LAYER
  5
20B
100
AcDbSymbolTableRecord
100
AcDbLayerTableRecord
  2
NOTE
 70
0
 62
7
  6
CONTINUOUS
370
-3
390
F
  0
LAYER
  5
20C
100
AcDbSymbolTableRecord
100
AcDbLayerTableRecord
  2
PIANI
 70
0
 62
7
  6
CONTINUOUS
370
-3
390
F
  0
LAYER
  5
20D
100
AcDbSymbolTableRecord
100
AcDbLayerTableRecord
  2
PIANI_ORIGINE
 70
0
 62
7
  6
CONTINUOUS
370
-3
390
F
  0
LAYER
  5
20E
100
AcDbSymbolTableRecord
100
AcDbLayerTableRecord
  2
PUNTI
 70
0
 62
7
  6
CONTINUOUS
370
-3
390
F
  0
LAYER
  5
20F
100
AcDbSymbolTableRecord
100
AcDbLayerTableRecord
  2
RACCORDO
 70
0
 62
7
  6
CONTINUOUS
370
-3
390
F
  0
LAYER
  5
210
100
AcDbSymbolTableRecord
100
AcDbLayerTableRecord
  2
RGB__255__255__255__
 70
0
 62
7
  6
CONTINUOUS
370
-3
390
F
  0
LAYER
  5
211
100
AcDbSymbolTableRecord
100
AcDbLayerTableRecord
  2
RGB____0____0____0__
 70
0
 62
7
  6
CONTINUOUS
370
-3
390
F
  0
LAYER
  5
212
100
AcDbSymbolTableRecord
100
AcDbLayerTableRecord
  2
SIMBOLI
 70
0
 62
7
  6
CONTINUOUS
370
-3
390
F
  0
LAYER
  5
213
100
AcDbSymbolTableRecord
100
AcDbLayerTableRecord
  2
SMUSSO
 70
0
 62
7
  6
CONTINUOUS
370
-3
390
F
  0
LAYER
  5
214
100
AcDbSymbolTableRecord
100
AcDbLayerTableRecord
  2
SNAPLINE
 70
0
 62
7
  6
CONTINUOUS
370
-3
390
F
  0
LAYER
  5
215
100
AcDbSymbolTableRecord
100
AcDbLayerTableRecord
  2
SUPERFICI
 70
0
 62
7
  6
CONTINUOUS
370
-3
390
F
  0
LAYER
  5
216
100
AcDbSymbolTableRecord
100
AcDbLayerTableRecord
  2
TESTO
 70
0
 62
7
  6
CONTINUOUS
370
-3
390
F
  0
LAYER
  5
217
100
AcDbSymbolTableRecord
100
AcDbLayerTableRecord
  2
TRASH
 70
0
 62
7
  6
CONTINUOUS
370
-3
390
F
  0
LAYER
  5
218
100
AcDbSymbolTableRecord
100
AcDbLayerTableRecord
  2
XSEC_DATUMS
 70
0
 62
7
  6
CONTINUOUS
370
-3
390
F
  0
ENDTAB
  0
TABLE
  2
STYLE
  5
3
100
AcDbSymbolTable
 70
1
  0
STYLE
  5
11
100
AcDbSymbolTableRecord
100
AcDbTextStyleTableRecord
  2
STANDARD
 70
0
 40
0.0
 41
0.8
 50
0.0
 71
0
 42
0.2
  3
txt
  4

  0
STYLE
  5
219
100
AcDbSymbolTableRecord
100
AcDbTextStyleTableRecord
  2
TEXTSTYLE_1
 70
0
 40
0.0
 41
0.8
 50
0.0
 71
0
 42
0.2
  3
gdt
  4

  0
ENDTAB
  0
TABLE
  2
VIEW
  5
6
100
AcDbSymbolTable
 70
0
  0
ENDTAB
  0
TABLE
  2
UCS
  5
7
100
AcDbSymbolTable
 70
0
  0
ENDTAB
  0
TABLE
  2
APPID
  5
9
100
AcDbSymbolTable
 70
1
  0
APPID
  5
21A
100
AcDbSymbolTableRecord
100
AcDbRegAppTableRecord
  2
ACAD
 70
0
  0
ENDTAB
  0
TABLE
  2
BLOCK_RECORD
  5
1
100
AcDbSymbolTable
 70
0
  0
BLOCK_RECORD
  5
21B
100
AcDbSymbolTableRecord
100
AcDbBlockTableRecord
  2
*Model_Space
  0
BLOCK_RECORD
  5
21C
100
AcDbSymbolTableRecord
100
AcDbBlockTableRecord
  2
*Paper_Space
  0
BLOCK_RECORD
  5
21D
100
AcDbSymbolTableRecord
100
AcDbBlockTableRecord
  2
_FILLED
  0
ENDTAB
  0
TABLE
  2
DIMSTYLE
  5
A
100
AcDbSymbolTable
 70
1
100
AcDbDimStyleTable
 71
0
  0
DIMSTYLE
105
21E
100
AcDbSymbolTableRecord
100
AcDbDimStyleTableRecord
  2
STANDARD
 70
0
  3

  4

 40
1.0
 41
3.0
 42
0.5
 43
0.38
 44
1.5
 45
0.0
 46
0.0
 47
0.01
 48
0.01
140
3.0
141
0.09
142
0.0
143
25.4
144
1.0
145
0.0
146
1.0
147
0.625
 71
1
 72
0
 73
0
 74
0
 75
0
 76
0
 77
1
 78
8
 79
2
170
0
171
1
172
0
173
0
174
0
175
0
176
0
177
0
178
0
270
2
179
2
271
2
272
2
273
2
274
2
275
0
280
0
281
0
282
0
283
1
284
8
285
0
286
0
287
3
288
0
340
11
278
44
341
21D
342
21D
343
21D
344
21D
  0
ENDTAB
  0
ENDSEC
  0
SECTION
  2
BLOCKS
  0
BLOCK
  5
20
100
AcDbEntity
  8
0
100
AcDbBlockBegin
  2
*Model_Space
 70
0
 10
0.0
 20
0.0
 30
0.0
  3
*Model_Space
  1

  0
ENDBLK
  5
21
100
AcDbEntity
  8
0
100
AcDbBlockEnd
  0
BLOCK
  5
1C
100
AcDbEntity
  8
0
100
AcDbBlockBegin
  2
*Paper_Space
 70
0
 10
0.0
 20
0.0
 30
0.0
  3
*Paper_Space
  1

  0
ENDBLK
  5
1D
100
AcDbEntity
  8
0
100
AcDbBlockEnd
  0
BLOCK
  5
21F
100
AcDbEntity
  8
0
100
AcDbBlockBegin
  2
_FILLED
 70
64
 10
0.0
 20
0.0
  3
_FILLED
  1

  0
SOLID
  5
220
100
AcDbEntity
  8
0
  6
BYBLOCK
 62
0
100
AcDbTrace
 10
0.0
 20
0.0
 11
-1.0
 21
0.3166666667
 12
-1.0
 22
-0.3166666667
 13
-1.0
 23
-0.3166666667
  0
ENDBLK
  5
221
100
AcDbEntity
  8
0
  6
BYBLOCK
 62
0
100
AcDbBlockEnd
  0
ENDSEC
  0
SECTION
  2
ENTITIES
  0
LINE
  5
222
100
AcDbEntity
  8
DRAFT
100
AcDbLine
 62
7
  6
CONTINUOUS
 10
-43.5
 20
-44.0203880855
 11
-43.2242099741
 21
-44.2961781114
  0
LINE
  5
223
100
AcDbEntity
  8
DRAFT
100
AcDbLine
 62
7
  6
CONTINUOUS
 10
-49.0
 20
-38.5203880855
 11
-49.2757899725
 21
-38.244598113
  0
LWPOLYLINE
  5
224
100
AcDbEntity
  8
0
100
AcDbPolyline
 62
250
  6
CONTINUOUS
 90
8
 70
0
 10
-50.4499217485
 20
-34.6397840215
 10
-50.4512321701
 20
-34.6377798818
 10
-50.4525312777
 20
-34.6301706801
 10
-50.4538190714
 20
-34.6169564163
 10
-50.4551043842
 20
-34.5980719337
 10
-50.456378383
 20
-34.5735823891
 10
-50.4576145688
 20
-34.5436832525
 10
-50.4588123654
 20
-34.5082044947
  0
LWPOLYLINE
  5
225
100
AcDbEntity
  8
0
100
AcDbPolyline
 62
7
  6
CONTINUOUS
 90
5
 70
0
 10
-50.2501264901
 20
-27.9300145611
 10
-50.2378825585
 20
-27.9435908735
 10
-50.1661341085
 20
-28.0122498638
 10
-50.086430392
 20
-28.0714866358
 10
-50.0
 20
-28.1203880855
  0
LWPOLYLINE
  5
226
100
AcDbEntity
  8
0
100
AcDbPolyline
 62
250
  6
CONTINUOUS
 90
7
 70
0
 10
-50.4499217156
 20
-27.4009921496
 10
-50.443771556
 20
-27.5001210554
 10
-50.4253864941
 20
-27.5977219417
 10
-50.3950499258
 20
-27.6922903419
 10
-50.3532294733
 20
-27.7823685333
 10
-50.300569777
 20
-27.8665680075
 10
-50.2501264901
 20
-27.9300145611
  0
LWPOLYLINE
  5
227
100
AcDbEntity
  8
0
100
AcDbPolyline
 62
7
  6
CONTINUOUS
 90
16
 70
0
 10
-50.3730280729
 20
-27.4437796267
 10
-50.3704969741
 20
-27.4940468598
 10
-50.3649046485
 20
-27.5439483966
 10
-50.3562345166
 20
-27.593484237
 10
-50.3444938128
 20
-27.6427951317
 10
-50.3296757168
 20
-27.69174033
 10
-50.3117255478
 20
-27.7398975801
 10
-50.2906597744
 20
-27.7872540452
 10
-50.2664595982
 20
-27.8338225621
 10
-50.2389422007
 20
-27.8792193895
 10
-50.208070657
 20
-27.9235328843
 10
-50.17382556
 20
-27.9666746897
 10
-50.1359556849
 20
-28.0079959937
 10
-50.094331806
 20
-28.0472805256
 10
-50.0490113624
 20
-28.0847445562
 10
-50.0
 20
-28.1203880855
  0
LINE
  5
228
100
AcDbEntity
  8
0
100
AcDbLine
 62
250
  6
CONTINUOUS
 10
-50.4588123654
 20
-34.5082044947
 11
-50.46106975
 21
-34.4217237605
  0
LINE
  5
229
100
AcDbEntity
  8
0
100
AcDbLine
 62
250
  6
CONTINUOUS
 10
-50.46106975
 20
-34.4217237605
 11
-50.4630728921
 21
-34.3161839885
  0
LWPOLYLINE
  5
22A
100
AcDbEntity
  8
0
100
AcDbPolyline
 62
7
  6
CONTINUOUS
 90
17
 70
0
 10
-50.7897880096
 20
-10.2711640801
 10
-50.7828667461
 20
-10.9094457652
 10
-50.7752237955
 20
-11.5200971092
 10
-50.7668682854
 20
-12.1034675751
 10
-50.7579067934
 20
-12.6521160691
 10
-50.7483315569
 20
-13.1655978094
 10
-50.7381503384
 20
-13.6443575779
 10
-50.727493003
 20
-14.082288627
 10
-50.7163534516
 20
-14.4788679482
 10
-50.7047377832
 20
-14.83461855
 10
-50.6927941598
 20
-15.1450027094
 10
-50.6805183802
 20
-15.4094392907
 10
-50.6679146456
 20
-15.6285094296
 10
-50.6551437209
 20
-15.7994188101
 10
-50.6422034645
 20
-15.921550502
 10
-50.629096018
 20
-15.9955214354
 10
-50.6159885716
 20
-16.0203880855
  0
LINE
  5
22B
100
AcDbEntity
  8
0
100
AcDbLine
 62
250
  6
CONTINUOUS
 10
-50.4630728921
 20
-34.3161839885
 11
-50.4654906561
 21
-34.1287791535
  0
LINE
  5
22C
100
AcDbEntity
  8
0
100
AcDbLine
 62
7
  6
CONTINUOUS
 10
-50.8014136642
 20
-8.9212475577
 11
-50.7897880096
 21
-10.2711640801
  0
LINE
  5
22D
100
AcDbEntity
  8
0
100
AcDbLine
 62
250
  6
CONTINUOUS
 10
-50.4654906561
 20
-34.1287791535
 11
-50.4670909979
 21
-33.9170106338
  0
LINE
  5
22E
100
AcDbEntity
  8
0
100
AcDbLine
 62
7
  6
CONTINUOUS
 10
-50.80985202
 20
-7.4956840239
 11
-50.8014136642
 21
-8.9212475577
  0
LINE
  5
22F
100
AcDbEntity
  8
0
100
AcDbLine
 62
7
  6
CONTINUOUS
 10
-50.814960803
 20
-6.0256603247
 11
-50.80985202
 21
-7.4956840239
  0
LINE
  5
230
100
AcDbEntity
  8
0
100
AcDbLine
 62
7
  6
CONTINUOUS
 10
-50.8166912456
 20
-4.5203880855
 11
-50.814960803
 21
-6.0256603247
  0
LINE
  5
231
100
AcDbEntity
  8
DRAFT
100
AcDbLine
 62
7
  6
CONTINUOUS
 10
-51.0
 20
30.9796119145
 11
-51.0
 21
-40.0203880855
  0
LINE
  5
232
100
AcDbEntity
  8
ASSI
100
AcDbLine
 62
7
  6
CONTINUOUS
 10
-51.0
 20
-40.0203880855
 11
-51.0
 21
30.9796119145
  0
LINE
  5
233
100
AcDbEntity
  8
0
100
AcDbLine
 62
7
  6
CONTINUOUS
 10
-50.814960803
 20
-3.0151158462
 11
-50.8166912456
 21
-4.5203880855
  0
LINE
  5
234
100
AcDbEntity
  8
0
100
AcDbLine
 62
7
  6
CONTINUOUS
 10
-50.80985202
 20
-1.5450921471
 11
-50.814960803
 21
-3.0151158462
  0
LINE
  5
235
100
AcDbEntity
  8
0
100
AcDbLine
 62
7
  6
CONTINUOUS
 10
-50.8014136642
 20
-0.1195286133
 11
-50.80985202
 21
-1.5450921471
  0
LINE
  5
236
100
AcDbEntity
  8
DRAFT
100
AcDbLine
 62
7
  6
CONTINUOUS
 10
-49.0
 20
29.4796119145
 11
-49.2757899725
 21
29.2038219421
  0
LINE
  5
237
100
AcDbEntity
  8
DRAFT
100
AcDbLine
 62
7
  6
CONTINUOUS
 10
-43.5
 20
34.9796119145
 11
-43.2242099741
 21
35.2554019404
  0
LWPOLYLINE
  5
238
100
AcDbEntity
  8
0
100
AcDbPolyline
 62
250
  6
CONTINUOUS
 90
8
 70
0
 10
-38.119395936
 20
36.429533663
 10
-38.1173922733
 20
36.430844202
 10
-38.1097812694
 20
36.4321434581
 10
-38.0965629243
 20
36.4334314313
 10
-38.0776717726
 20
36.434716978
 10
-38.0531732796
 20
36.4359912418
 10
-38.0232638417
 20
36.4372276533
 10
-37.9877724809
 20
36.4384256262
  0
LWPOLYLINE
  5
239
100
AcDbEntity
  8
0
100
AcDbPolyline
 62
7
  6
CONTINUOUS
 90
17
 70
0
 10
-50.4421891335
 20
1.2303879091
 10
-50.449110397
 20
1.8686695942
 10
-50.4567533477
 20
2.4793209383
 10
-50.4651088577
 20
3.0626914041
 10
-50.4740703498
 20
3.6113398982
 10
-50.4836455863
 20
4.1248216385
 10
-50.4938268048
 20
4.603581407
 10
-50.5044841402
 20
5.041512456
 10
-50.5156236916
 20
5.4380917773
 10
-50.52723936
 20
5.793842379
 10
-50.5391829834
 20
6.1042265384
 10
-50.551458763
 20
6.3686631197
 10
-50.5640624976
 20
6.5877332586
 10
-50.5768334223
 20
6.7586426392
 10
-50.5897736787
 20
6.880774331
 10
-50.6028811251
 20
6.9547452645
 10
-50.6159885716
 20
6.9796119145
  0
LINE
  5
23A
100
AcDbEntity
  8
0
100
AcDbLine
 62
7
  6
CONTINUOUS
 10
-50.4305634789
 20
-0.1195286133
 11
-50.4421891335
 21
1.2303879091
  0
LINE
  5
23B
100
AcDbEntity
  8
0
100
AcDbLine
 62
7
  6
CONTINUOUS
 10
-50.4221251231
 20
-1.5450921471
 11
-50.4305634789
 21
-0.1195286133
  0
LINE
  5
23C
100
AcDbEntity
  8
0
100
AcDbLine
 62
7
  6
CONTINUOUS
 10
-50.4170163402
 20
-3.0151158462
 11
-50.4221251231
 21
-1.5450921471
  0
LINE
  5
23D
100
AcDbEntity
  8
0
100
AcDbLine
 62
250
  6
CONTINUOUS
 10
-50.4670909979
 20
-33.9170106338
 11
-50.4678629402
 21
-33.6203880855
  0
LINE
  5
23E
100
AcDbEntity
  8
0
100
AcDbLine
 62
7
  6
CONTINUOUS
 10
-50.4152858976
 20
-4.5203880855
 11
-50.4170163402
 21
-3.0151158462
  0
LINE
  5
23F
100
AcDbEntity
  8
0
100
AcDbLine
 62
250
  6
CONTINUOUS
 10
-50.3730280729
 20
30.9796119145
 11
-50.3730280729
 21
-27.443785944
  0
LINE
  5
240
100
AcDbEntity
  8
0
100
AcDbLine
 62
250
  6
CONTINUOUS
 10
-50.3730280729
 20
-34.5969902226
 11
-50.3730280729
 21
-40.0203880855
  0
LINE
  5
241
100
AcDbEntity
  8
0
100
AcDbLine
 62
7
  6
CONTINUOUS
 10
-50.0
 20
-28.1203880855
 11
-50.0
 21
-33.9203880855
  0
LINE
  5
242
100
AcDbEntity
  8
RACCORDO
100
AcDbLine
 62
7
  6
CONTINUOUS
 10
-49.2757899725
 20
-38.244598113
 11
-49.2757899725
 21
-40.0203880855
  0
LINE
  5
243
100
AcDbEntity
  8
RACCORDO
100
AcDbLine
 62
7
  6
CONTINUOUS
 10
-49.2757899725
 20
29.2038219421
 11
-49.2757899725
 21
30.9796119145
  0
LINE
  5
244
100
AcDbEntity
  8
RACCORDO
100
AcDbLine
 62
250
  6
CONTINUOUS
 10
-49.2731956082
 20
29.2038218886
 11
-49.2731956082
 21
-38.2445980596
  0
LINE
  5
245
100
AcDbEntity
  8
DRAFT
100
AcDbLine
 62
7
  6
CONTINUOUS
 10
-49.0
 20
-38.5203880855
 11
-49.0
 21
-40.0203880855
  0
LINE
  5
246
100
AcDbEntity
  8
DRAFT
100
AcDbLine
 62
7
  6
CONTINUOUS
 10
-49.0
 20
29.4796119145
 11
-49.0
 21
30.9796119145
  0
LINE
  5
247
100
AcDbEntity
  8
0
100
AcDbLine
 62
7
  6
CONTINUOUS
 10
-50.4170163402
 20
-6.0256603247
 11
-50.4152858976
 21
-4.5203880855
  0
LINE
  5
248
100
AcDbEntity
  8
0
100
AcDbLine
 62
250
  6
CONTINUOUS
 10
-50.4678629402
 20
-33.6203880855
 11
-50.4674317524
 21
-28.1973245402
  0
LINE
  5
249
100
AcDbEntity
  8
0
100
AcDbLine
 62
7
  6
CONTINUOUS
 10
-50.4221251231
 20
-7.4956840239
 11
-50.4170163402
 21
-6.0256603247
  0
LINE
  5
24A
100
AcDbEntity
  8
0
100
AcDbLine
 62
7
  6
CONTINUOUS
 10
-50.4305634789
 20
-8.9212475577
 11
-50.4221251231
 21
-7.4956840239
  0
LINE
  5
24B
100
AcDbEntity
  8
0
100
AcDbLine
 62
250
  6
CONTINUOUS
 10
-50.4674317524
 20
-28.1973245402
 11
-50.4661216497
 21
-27.9805181577
  0
LINE
  5
24C
100
AcDbEntity
  8
0
100
AcDbLine
 62
250
  6
CONTINUOUS
 10
-50.4661216497
 20
-27.9805181577
 11
-50.4639648879
 21
-27.7835775018
  0
LINE
  5
24D
100
AcDbEntity
  8
0
100
AcDbLine
 62
250
  6
CONTINUOUS
 10
-50.4639648879
 20
-27.7835775018
 11
-50.4621065531
 21
-27.6696763664
  0
LWPOLYLINE
  5
24E
100
AcDbEntity
  8
0
100
AcDbPolyline
 62
250
  6
CONTINUOUS
 90
10
 70
0
 10
-50.4621065531
 20
-27.6696763664
 10
-50.4599762061
 20
-27.5736108092
 10
-50.4588158229
 20
-27.5326848315
 10
-50.4576175308
 20
-27.4971724114
 10
-50.4563807264
 20
-27.4672462618
 10
-50.4551060132
 20
-27.4427336699
 10
-50.4538200891
 20
-27.4238322056
 10
-50.4525318532
 20
-27.4106077259
 10
-50.4512324063
 20
-27.4029943738
 10
-50.4499217485
 20
-27.4009921495
  0
LWPOLYLINE
  5
24F
100
AcDbEntity
  8
0
100
AcDbPolyline
 62
250
  6
CONTINUOUS
 90
7
 70
0
 10
-50.4499333541
 20
-34.6397840211
 10
-50.4437810948
 20
-34.5406549598
 10
-50.4253940369
 20
-34.4430541517
 10
-50.3950556036
 20
-34.3484860298
 10
-50.3532334382
 20
-34.2584082817
 10
-50.3005721962
 20
-34.1742093793
 10
-50.2616130488
 20
-34.1240870903
  0
LWPOLYLINE
  5
250
100
AcDbEntity
  8
0
100
AcDbPolyline
 62
7
  6
CONTINUOUS
 90
18
 70
0
 10
-50.6159885716
 20
6.9796119145
 10
-50.629096018
 20
6.9547452645
 10
-50.6422034645
 20
6.880774331
 10
-50.6551437209
 20
6.7586426392
 10
-50.6679146456
 20
6.5877332586
 10
-50.6805183802
 20
6.3686631197
 10
-50.6927941598
 20
6.1042265384
 10
-50.7047377832
 20
5.793842379
 10
-50.7163534516
 20
5.4380917773
 10
-50.727493003
 20
5.041512456
 10
-50.7381503384
 20
4.603581407
 10
-50.7483315569
 20
4.1248216385
 10
-50.7579067934
 20
3.6113398982
 10
-50.7668682854
 20
3.0626914041
 10
-50.7752237955
 20
2.4793209383
 10
-50.7828667461
 20
1.8686695942
 10
-50.7897880096
 20
1.2303879091
 10
-50.8014136642
 20
-0.1195286133
  0
LWPOLYLINE
  5
251
100
AcDbEntity
  8
0
100
AcDbPolyline
 62
7
  6
CONTINUOUS
 90
5
 70
0
 10
-31.408874807
 20
36.2304000478
 10
-31.423202788
 20
36.217494473
 10
-31.4918617783
 20
36.145746023
 10
-31.5510985504
 20
36.0660423065
 10
-31.6
 20
35.9796119145
  0
LWPOLYLINE
  5
252
100
AcDbEntity
  8
0
100
AcDbPolyline
 62
250
  6
CONTINUOUS
 90
7
 70
0
 10
30.8806040641
 20
-45.4703098011
 10
30.9797329699
 20
-45.4641596415
 10
31.0773338562
 20
-45.4457745796
 10
31.1719022564
 20
-45.4154380113
 10
31.2619804478
 20
-45.3736175588
 10
31.346179922
 20
-45.3209578624
 10
31.408874807
 20
-45.2711762187
  0
LWPOLYLINE
  5
253
100
AcDbEntity
  8
0
100
AcDbPolyline
 62
7
  6
CONTINUOUS
 90
16
 70
0
 10
30.9233915413
 20
-45.3934161584
 10
30.973658803
 20
-45.3908850573
 10
31.0235603626
 20
-45.3852927266
 10
31.0730962199
 20
-45.376622588
 10
31.1224071251
 20
-45.3648818769
 10
31.1713523282
 20
-45.350063774
 10
31.219509579
 20
-45.3321135989
 10
31.2668660403
 20
-45.3110478211
 10
31.3134345495
 20
-45.2868476427
 10
31.3588313681
 20
-45.2593302446
 10
31.4031448541
 20
-45.2284587012
 10
31.4462866496
 20
-45.1942136065
 10
31.4876079431
 20
-45.1563437362
 10
31.5268924641
 20
-45.1147198654
 10
31.5643564831
 20
-45.069399433
 10
31.6
 20
-45.0203880855
  0
LINE
  5
254
100
AcDbEntity
  8
0
100
AcDbLine
 62
250
  6
CONTINUOUS
 10
37.9877724809
 20
-45.4792017972
 11
37.9012662548
 21
-45.4814593764
  0
LINE
  5
255
100
AcDbEntity
  8
0
100
AcDbLine
 62
250
  6
CONTINUOUS
 10
37.9012662548
 20
-45.4814593764
 11
37.7957117065
 21
-45.483462342
  0
LINE
  5
256
100
AcDbEntity
  8
0
100
AcDbLine
 62
250
  6
CONTINUOUS
 10
37.7957117065
 20
-45.483462342
 11
37.6083194091
 21
-45.485879471
  0
LINE
  5
257
100
AcDbEntity
  8
0
100
AcDbLine
 62
7
  6
CONTINUOUS
 10
5.7507759946
 20
-45.8101760951
 11
4.4008594722
 21
-45.8218017497
  0
LINE
  5
258
100
AcDbEntity
  8
0
100
AcDbLine
 62
250
  6
CONTINUOUS
 10
37.6083194091
 20
-45.485879471
 11
37.3965924537
 21
-45.4874792601
  0
LINE
  5
259
100
AcDbEntity
  8
0
100
AcDbLine
 62
7
  6
CONTINUOUS
 10
4.4008594722
 20
-45.8218017497
 11
2.9752959384
 21
-45.8302401055
  0
LINE
  5
25A
100
AcDbEntity
  8
0
100
AcDbLine
 62
7
  6
CONTINUOUS
 10
2.9752959384
 20
-45.8302401055
 11
1.5052722393
 21
-45.8353488885
  0
LINE
  5
25B
100
AcDbEntity
  8
0
100
AcDbLine
 62
7
  6
CONTINUOUS
 10
1.5052722393
 20
-45.8353488885
 11
0.0
 21
-45.8370793311
  0
LINE
  5
25C
100
AcDbEntity
  8
0
100
AcDbLine
 62
250
  6
CONTINUOUS
 10
37.3965924537
 20
-45.4874792601
 11
37.1
 21
-45.4882510257
  0
LINE
  5
25D
100
AcDbEntity
  8
DRAFT
100
AcDbLine
 62
7
  6
CONTINUOUS
 10
-45.0
 20
-46.0203880855
 11
45.0
 21
-46.0203880855
  0
LINE
  5
25E
100
AcDbEntity
  8
ASSI
100
AcDbLine
 62
7
  6
CONTINUOUS
 10
45.0
 20
-46.0203880855
 11
-45.0
 21
-46.0203880855
  0
LINE
  5
25F
100
AcDbEntity
  8
0
100
AcDbLine
 62
7
  6
CONTINUOUS
 10
0.0
 20
-45.8370793311
 11
-1.5052722393
 21
-45.8353488885
  0
LINE
  5
260
100
AcDbEntity
  8
0
100
AcDbLine
 62
7
  6
CONTINUOUS
 10
-1.5052722393
 20
-45.8353488885
 11
-2.9752959384
 21
-45.8302401055
  0
LINE
  5
261
100
AcDbEntity
  8
0
100
AcDbLine
 62
7
  6
CONTINUOUS
 10
-2.9752959384
 20
-45.8302401055
 11
-4.4008594722
 21
-45.8218017497
  0
LWPOLYLINE
  5
262
100
AcDbEntity
  8
0
100
AcDbPolyline
 62
7
  6
CONTINUOUS
 90
18
 70
0
 10
-4.4008594722
 20
-45.8218017497
 10
-5.7507759946
 20
-45.8101760951
 10
-6.3890576797
 20
-45.8032548316
 10
-6.9997090237
 20
-45.795611881
 10
-7.5830794896
 20
-45.7872563709
 10
-8.1317279836
 20
-45.7782948789
 10
-8.6452097239
 20
-45.7687196424
 10
-9.1239694925
 20
-45.7585384239
 10
-9.5619005415
 20
-45.7478810884
 10
-9.9584798627
 20
-45.7367415371
 10
-10.3142304645
 20
-45.7251258687
 10
-10.6246146239
 20
-45.7131822452
 10
-10.8890512052
 20
-45.7009064657
 10
-11.1081213441
 20
-45.6883027311
 10
-11.2790307246
 20
-45.6755318064
 10
-11.4011624165
 20
-45.66259155
 10
-11.4751333499
 20
-45.6494841035
 10
-11.5
 20
-45.6363766571
  0
LWPOLYLINE
  5
263
100
AcDbEntity
  8
0
100
AcDbPolyline
 62
250
  6
CONTINUOUS
 90
10
 70
0
 10
-50.4499217485
 20
-27.4009921495
 10
-50.441295107
 20
-27.4052506364
 10
-50.432689154
 20
-27.409631641
 10
-50.4241038895
 20
-27.4141351633
 10
-50.4155392647
 20
-27.4187591006
 10
-50.4069953283
 20
-27.4235055557
 10
-50.3984722264
 20
-27.4283808368
 10
-50.3899700075
 20
-27.4333870465
 10
-50.381488623
 20
-27.4385220823
 10
-50.3730280729
 20
-27.443785944
  0
LINE
  5
264
100
AcDbEntity
  8
DRAFT
100
AcDbLine
 62
250
  6
CONTINUOUS
 10
-45.0
 20
29.4796119145
 11
-45.0
 21
29.2038218886
  0
LINE
  5
265
100
AcDbEntity
  8
DRAFT
100
AcDbLine
 62
250
  6
CONTINUOUS
 10
-45.0
 20
-38.5203880855
 11
-45.0
 21
-38.2445980596
  0
LINE
  5
266
100
AcDbEntity
  8
RACCORDO
100
AcDbLine
 62
250
  6
CONTINUOUS
 10
-45.0
 20
-44.0203880855
 11
-45.0
 21
-46.0203880855
  0
LINE
  5
267
100
AcDbEntity
  8
RACCORDO
100
AcDbLine
 62
250
  6
CONTINUOUS
 10
-45.0
 20
34.9796119145
 11
-45.0
 21
36.9796119145
  0
LINE
  5
268
100
AcDbEntity
  8
DRAFT
100
AcDbLine
 62
7
  6
CONTINUOUS
 10
-43.5
 20
34.9796119145
 11
-43.5
 21
30.9796119145
  0
LINE
  5
269
100
AcDbEntity
  8
DRAFT
100
AcDbLine
 62
7
  6
CONTINUOUS
 10
-43.5
 20
-44.0203880855
 11
-43.5
 21
-40.0203880855
  0
LINE
  5
26A
100
AcDbEntity
  8
DRAFT
100
AcDbLine
 62
7
  6
CONTINUOUS
 10
-43.2242099741
 20
35.2528075227
 11
-43.2242099741
 21
30.9796119145
  0
LINE
  5
26B
100
AcDbEntity
  8
DRAFT
100
AcDbLine
 62
7
  6
CONTINUOUS
 10
-43.2242099741
 20
-44.2935836937
 11
-43.2242099741
 21
-40.0203880855
  0
LWPOLYLINE
  5
26C
100
AcDbEntity
  8
0
100
AcDbPolyline
 62
250
  6
CONTINUOUS
 90
10
 70
0
 10
-30.880604064
 20
36.429533663
 10
-30.8848625509
 20
36.4209070215
 10
-30.8892435555
 20
36.4123010686
 10
-30.8937470778
 20
36.403715804
 10
-30.8983710152
 20
36.3951511792
 10
-30.9031174702
 20
36.3866072428
 10
-30.9079927513
 20
36.3780841409
 10
-30.912998961
 20
36.369581922
 10
-30.9181339968
 20
36.3611005375
 10
-30.9233978585
 20
36.3526399874
  0
LWPOLYLINE
  5
26D
100
AcDbEntity
  8
RACCORDO
100
AcDbPolyline
 62
250
  6
CONTINUOUS
 90
14
 70
0
 10
-13.2306563413
 20
38.9988442021
 10
-13.2553630748
 20
38.9890531629
 10
-13.255369705
 20
38.9784922654
 10
-13.2278026906
 20
38.9679517277
 10
-13.1728741175
 20
38.9574658068
 10
-13.0907544712
 20
38.9470436222
 10
-12.9814686333
 20
38.9366882738
 10
-12.844996965
 20
38.9264095193
 10
-12.6816642906
 20
38.9162411565
 10
-12.492091023
 20
38.9062218853
 10
-12.2769960466
 20
38.8963831932
 10
-12.0366908881
 20
38.8867336165
 10
-11.771274175
 20
38.8772770512
 10
-11.1664154588
 20
38.859003854
  0
LWPOLYLINE
  5
26E
100
AcDbEntity
  8
RACCORDO
100
AcDbPolyline
 62
250
  6
CONTINUOUS
 90
14
 70
0
 10
-11.6029478427
 20
40.7246946187
 10
-11.6245070891
 20
40.7161898361
 10
-11.6241849012
 20
40.7065243448
 10
-11.5975265094
 20
40.6968783508
 10
-11.5447355019
 20
40.6872846219
 10
-11.4659827773
 20
40.6777536302
 10
-11.3613102828
 20
40.6682904608
 10
-11.2307234976
 20
40.6589060035
 10
-11.0745575014
 20
40.6496326943
 10
-10.8934338171
 20
40.6405074408
 10
-10.6880761014
 20
40.6315606812
 10
-10.4588172465
 20
40.6228016312
 10
-10.2057797442
 20
40.6142349771
 10
-9.6297565967
 20
40.5977396202
  0
LWPOLYLINE
  5
26F
100
AcDbEntity
  8
RACCORDO
100
AcDbPolyline
 62
250
  6
CONTINUOUS
 90
12
 70
0
 10
-9.8566649333
 20
42.562617153
 10
-9.8747660933
 20
42.5555495213
 10
-9.874373019
 20
42.5469499671
 10
-9.8493671663
 20
42.538352116
 10
-9.7996413733
 20
42.5297651518
 10
-9.7252584537
 20
42.521223163
 10
-9.6265642215
 20
42.5127659323
 10
-9.5040751963
 20
42.504426179
 10
-9.3580505421
 20
42.49621229
 10
-9.1885465643
 20
42.4881273753
 10
-8.9956319706
 20
42.4801812219
 10
-8.5424391979
 20
42.4648356021
  0
LWPOLYLINE
  5
270
100
AcDbEntity
  8
0
100
AcDbPolyline
 62
7
  6
CONTINUOUS
 90
13
 70
0
 10
-5.9872670073
 20
44.9011547273
 10
-5.9980733731
 20
44.8969512701
 10
-5.9980733731
 20
44.8917214417
 10
-5.9832227831
 20
44.8865110361
 10
-5.9534110239
 20
44.8813201978
 10
-5.9087486747
 20
44.8761487823
 10
-5.8495674731
 20
44.8710352012
 10
-5.7757593101
 20
44.8659798851
 10
-5.6874322948
 20
44.8609824033
 10
-5.5852424919
 20
44.8560798756
 10
-5.4690866775
 20
44.851273009
 10
-5.3390680756
 20
44.8465610965
 10
-5.0402436859
 20
44.837528097
  0
LWPOLYLINE
  5
271
100
AcDbEntity
  8
RACCORDO
100
AcDbPolyline
 62
250
  6
CONTINUOUS
 90
12
 70
0
 10
-8.1103821128
 20
44.3335625679
 10
-8.1249731585
 20
44.3279595474
 10
-8.1247383769
 20
44.3205285434
 10
-8.1021705227
 20
44.3131002199
 10
-8.0571841342
 20
44.3056848267
 10
-7.989849716
 20
44.2983133154
 10
-7.9004930747
 20
44.2910213578
 10
-7.7895984668
 20
44.2838387484
 10
-7.6574296715
 20
44.2767747718
 10
-7.504074804
 20
44.2698341425
 10
-7.3296350103
 20
44.2630270826
 10
-6.9202926879
 20
44.2499328881
  0
LWPOLYLINE
  5
272
100
AcDbEntity
  8
RACCORDO
100
AcDbPolyline
 62
250
  6
CONTINUOUS
 90
11
 70
0
 10
-3.8694092543
 20
46.0275100994
 10
-3.8761810479
 20
46.0249614099
 10
-3.8753250683
 20
46.0207606327
 10
-3.8595653656
 20
46.0165740055
 10
-3.8290780315
 20
46.0124242016
 10
-3.7840204692
 20
46.0083202361
 10
-3.7244592314
 20
46.0042680045
 10
-3.6504477333
 20
46.0002771397
 10
-3.5623023411
 20
45.9963695459
 10
-3.4605577042
 20
45.9925689778
 10
-3.2184400229
 20
45.9853552193
  0
LWPOLYLINE
  5
273
100
AcDbEntity
  8
0
100
AcDbPolyline
 62
7
  6
CONTINUOUS
 90
11
 70
0
 10
-0.9978905893
 20
46.7951799554
 10
-0.9991191665
 20
46.7947527231
 10
-0.9991191665
 20
46.7933412303
 10
-0.9927088741
 20
46.7919433216
 10
-0.9797641084
 20
46.7905592601
 10
-0.9604090503
 20
46.7891887827
 10
-0.9350162427
 20
46.7878582681
 10
-0.9034687216
 20
46.7865684905
 10
-0.865883451
 20
46.7853186756
 10
-0.8229838659
 20
46.7841328798
 10
-0.7210358529
 20
46.7819558257
  0
LINE
  5
274
100
AcDbEntity
  8
0
100
AcDbLine
 62
7
  6
CONTINUOUS
 10
-5.7507759946
 20
-45.462577219
 11
-4.4008594722
 21
-45.4509515644
  0
LINE
  5
275
100
AcDbEntity
  8
0
100
AcDbLine
 62
7
  6
CONTINUOUS
 10
-4.4008594722
 20
-45.4509515644
 11
-2.9752959384
 21
-45.4425132086
  0
LINE
  5
276
100
AcDbEntity
  8
0
100
AcDbLine
 62
7
  6
CONTINUOUS
 10
-2.9752959384
 20
-45.4425132086
 11
-1.5052722393
 21
-45.4374044256
  0
LINE
  5
277
100
AcDbEntity
  8
0
100
AcDbLine
 62
7
  6
CONTINUOUS
 10
-1.5052722393
 20
-45.4374044256
 11
0.0
 21
-45.435673983
  0
LINE
  5
278
100
AcDbEntity
  8
0
100
AcDbLine
 62
250
  6
CONTINUOUS
 10
-45.0
 20
-45.3934161584
 11
30.9233978585
 21
-45.3934161584
  0
LINE
  5
279
100
AcDbEntity
  8
0
100
AcDbLine
 62
250
  6
CONTINUOUS
 10
38.0766021371
 20
-45.3934161584
 11
45.0
 21
-45.3934161584
  0
LINE
  5
27A
100
AcDbEntity
  8
0
100
AcDbLine
 62
7
  6
CONTINUOUS
 10
31.6
 20
-45.0203880855
 11
37.4
 21
-45.0203880855
  0
LINE
  5
27B
100
AcDbEntity
  8
RACCORDO
100
AcDbLine
 62
7
  6
CONTINUOUS
 10
-45.0
 20
-44.2961780579
 11
-43.2242100275
 21
-44.2961780579
  0
LINE
  5
27C
100
AcDbEntity
  8
RACCORDO
100
AcDbLine
 62
7
  6
CONTINUOUS
 10
45.0
 20
-44.2961780579
 11
43.2242100275
 21
-44.2961780579
  0
LINE
  5
27D
100
AcDbEntity
  8
RACCORDO
100
AcDbLine
 62
250
  6
CONTINUOUS
 10
-43.2242099741
 20
-44.2935836937
 11
43.2242099741
 21
-44.2935836937
  0
LINE
  5
27E
100
AcDbEntity
  8
DRAFT
100
AcDbLine
 62
7
  6
CONTINUOUS
 10
-45.0
 20
-44.0203880855
 11
-43.5
 21
-44.0203880855
  0
LINE
  5
27F
100
AcDbEntity
  8
DRAFT
100
AcDbLine
 62
7
  6
CONTINUOUS
 10
45.0
 20
-44.0203880855
 11
43.5
 21
-44.0203880855
  0
LINE
  5
280
100
AcDbEntity
  8
0
100
AcDbLine
 62
7
  6
CONTINUOUS
 10
0.0
 20
-45.435673983
 11
1.5052722393
 21
-45.4374044256
  0
LINE
  5
281
100
AcDbEntity
  8
0
100
AcDbLine
 62
250
  6
CONTINUOUS
 10
37.1
 20
-45.4882510257
 11
31.6768993984
 21
-45.4878196944
  0
LINE
  5
282
100
AcDbEntity
  8
0
100
AcDbLine
 62
7
  6
CONTINUOUS
 10
1.5052722393
 20
-45.4374044256
 11
2.9752959384
 21
-45.4425132086
  0
LINE
  5
283
100
AcDbEntity
  8
0
100
AcDbLine
 62
7
  6
CONTINUOUS
 10
2.9752959384
 20
-45.4425132086
 11
4.4008594722
 21
-45.4509515644
  0
LINE
  5
284
100
AcDbEntity
  8
0
100
AcDbLine
 62
250
  6
CONTINUOUS
 10
31.6768993984
 20
-45.4878196944
 11
31.4600264328
 21
-45.4865088708
  0
LWPOLYLINE
  5
285
100
AcDbEntity
  8
0
100
AcDbPolyline
 62
7
  6
CONTINUOUS
 90
18
 70
0
 10
4.4008594722
 20
-45.4509515644
 10
5.7507759946
 20
-45.462577219
 10
6.3890576797
 20
-45.4694984825
 10
6.9997090237
 20
-45.4771414332
 10
7.5830794896
 20
-45.4854969432
 10
8.1317279836
 20
-45.4944584353
 10
8.6452097239
 20
-45.5040336718
 10
9.1239694925
 20
-45.5142148902
 10
9.5619005415
 20
-45.5248722257
 10
9.9584798627
 20
-45.5360117771
 10
10.3142304645
 20
-45.5476274454
 10
10.6246146239
 20
-45.5595710689
 10
10.8890512052
 20
-45.5718468484
 10
11.1081213441
 20
-45.5844505831
 10
11.2790307246
 20
-45.5972215078
 10
11.4011624165
 20
-45.6101617642
 10
11.4751333499
 20
-45.6232692106
 10
11.5
 20
-45.6363766571
  0
LINE
  5
286
100
AcDbEntity
  8
0
100
AcDbLine
 62
250
  6
CONTINUOUS
 10
31.4600264328
 20
-45.4865088708
 11
31.2630502004
 21
-45.4843510298
  0
LINE
  5
287
100
AcDbEntity
  8
0
100
AcDbLine
 62
250
  6
CONTINUOUS
 10
31.2630502004
 20
-45.4843510298
 11
31.1491640554
 21
-45.4824922639
  0
LWPOLYLINE
  5
288
100
AcDbEntity
  8
0
100
AcDbPolyline
 62
250
  6
CONTINUOUS
 90
10
 70
0
 10
31.1491640554
 20
-45.4824922639
 10
31.0531325487
 20
-45.4803619866
 10
31.0122294961
 20
-45.4792018553
 10
30.9767374976
 20
-45.4780038732
 10
30.9468276152
 20
-45.4767674568
 10
30.922328787
 20
-45.4754931896
 10
30.9034373809
 20
-45.4742076371
 10
30.8902188531
 20
-45.4729196546
 10
30.8826077474
 20
-45.4716203869
 10
30.880604064
 20
-45.4703098339
  0
LWPOLYLINE
  5
289
100
AcDbEntity
  8
0
100
AcDbPolyline
 62
250
  6
CONTINUOUS
 90
7
 70
0
 10
38.1193959356
 20
-45.470321262
 10
38.0202668465
 20
-45.4641689369
 10
37.9226660227
 20
-45.4457818411
 10
37.8280978962
 20
-45.4154433956
 10
37.7380201527
 20
-45.3736212413
 10
37.6538212623
 20
-45.3209600304
 10
37.6044767013
 20
-45.2826557023
  0
LWPOLYLINE
  5
28A
100
AcDbEntity
  8
0
100
AcDbPolyline
 62
7
  6
CONTINUOUS
 90
10
 70
0
 10
-36.4160718603
 20
-3.3878570855
 10
-36.41854856
 20
-3.303722756
 10
-36.4169008989
 20
-3.2221987092
 10
-36.4111288771
 20
-3.1432849452
 10
-36.4013556975
 20
-3.066645778
 10
-36.3874581572
 20
-2.9926168936
 10
-36.3690666474
 20
-2.9222053495
 10
-36.3460579652
 20
-2.8557468316
 10
-36.3185553135
 20
-2.7929056541
 10
-36.2865586922
 20
-2.733681817
  0
LINE
  5
28B
100
AcDbEntity
  8
0
100
AcDbLine
 62
7
  6
CONTINUOUS
 10
-37.965387
 20
-4.6354770855
 11
-37.965387
 21
-6.0965090855
  0
LINE
  5
28C
100
AcDbEntity
  8
0
100
AcDbLine
 62
7
  6
CONTINUOUS
 10
-37.693534
 20
-5.8133990855
 11
-37.693534
 21
-4.6354770855
  0
LINE
  5
28D
100
AcDbEntity
  8
0
100
AcDbLine
 62
250
  6
CONTINUOUS
 10
-37.1
 20
36.4474748547
 11
-37.1
 21
35.9796119145
  0
LWPOLYLINE
  5
28E
100
AcDbEntity
  8
0
100
AcDbPolyline
 62
7
  6
CONTINUOUS
 90
16
 70
0
 10
-37.7437946685
 20
-3.127391417
 10
-37.7409760009
 20
-3.0629593941
 10
-37.7338167285
 20
-3.0018195646
 10
-37.7223168514
 20
-2.9439719286
 10
-37.7065718705
 20
-2.888854572
 10
-37.6864862849
 20
-2.8370294089
 10
-37.6617735917
 20
-2.7901821811
 10
-37.6323693602
 20
-2.7489854472
 10
-37.5983380211
 20
-2.7127666485
 10
-37.5595863641
 20
-2.6811938513
 10
-37.5156903822
 20
-2.6541855272
 10
-37.4670740822
 20
-2.6318232046
 10
-37.4149162739
 20
-2.6140195345
 10
-37.3596098937
 20
-2.6007454005
 10
-37.3007620052
 20
-2.592029919
 10
-37.2383726082
 20
-2.5878730901
  0
LWPOLYLINE
  5
28F
100
AcDbEntity
  8
0
100
AcDbPolyline
 62
7
  6
CONTINUOUS
 90
18
 70
0
 10
-50.6159885716
 20
-16.0203880855
 10
-50.6028811251
 20
-15.9955214354
 10
-50.5897736787
 20
-15.921550502
 10
-50.5768334223
 20
-15.7994188101
 10
-50.5640624976
 20
-15.6285094296
 10
-50.551458763
 20
-15.4094392907
 10
-50.5391829834
 20
-15.1450027094
 10
-50.52723936
 20
-14.83461855
 10
-50.5156236916
 20
-14.4788679482
 10
-50.5044841402
 20
-14.082288627
 10
-50.4938268048
 20
-13.6443575779
 10
-50.4836455863
 20
-13.1655978094
 10
-50.4740703498
 20
-12.6521160691
 10
-50.4651088577
 20
-12.1034675751
 10
-50.4567533477
 20
-11.5200971092
 10
-50.449110397
 20
-10.9094457652
 10
-50.4421891335
 20
-10.2711640801
 10
-50.4305634789
 20
-8.9212475577
  0
LWPOLYLINE
  5
290
100
AcDbEntity
  8
0
100
AcDbPolyline
 62
7
  6
CONTINUOUS
 90
9
 70
0
 10
3.6
 20
44.8943363559
 10
3.5938615534
 20
44.8906873839
 10
3.5755693092
 20
44.887038412
 10
3.5453079108
 20
44.883426273
 10
3.5029561329
 20
44.8798513402
 10
3.4486352008
 20
44.8763132404
 10
3.3828934348
 20
44.8728476875
 10
3.3056151629
 20
44.8694554163
 10
3.216916057
 20
44.8661356921
  0
LINE
  5
291
100
AcDbEntity
  8
DRAFT
100
AcDbLine
 62
250
  6
CONTINUOUS
 10
-43.5
 20
-40.0203880855
 11
-43.2242099741
 21
-40.0203880855
  0
LINE
  5
292
100
AcDbEntity
  8
DRAFT
100
AcDbLine
 62
250
  6
CONTINUOUS
 10
43.5
 20
-40.0203880855
 11
43.2242099741
 21
-40.0203880855
  0
LINE
  5
293
100
AcDbEntity
  8
RACCORDO
100
AcDbLine
 62
250
  6
CONTINUOUS
 10
49.0
 20
-40.0203880855
 11
51.0
 21
-40.0203880855
  0
LINE
  5
294
100
AcDbEntity
  8
RACCORDO
100
AcDbLine
 62
250
  6
CONTINUOUS
 10
-49.0
 20
-40.0203880855
 11
-51.0
 21
-40.0203880855
  0
LINE
  5
295
100
AcDbEntity
  8
DRAFT
100
AcDbLine
 62
7
  6
CONTINUOUS
 10
45.0
 20
-38.5203880855
 11
49.0
 21
-38.5203880855
  0
LINE
  5
296
100
AcDbEntity
  8
DRAFT
100
AcDbLine
 62
7
  6
CONTINUOUS
 10
-45.0
 20
-38.5203880855
 11
-49.0
 21
-38.5203880855
  0
LINE
  5
297
100
AcDbEntity
  8
DRAFT
100
AcDbLine
 62
7
  6
CONTINUOUS
 10
45.0
 20
-38.2445980596
 11
49.2731956082
 21
-38.2445980596
  0
LINE
  5
298
100
AcDbEntity
  8
DRAFT
100
AcDbLine
 62
7
  6
CONTINUOUS
 10
-45.0
 20
-38.2445980596
 11
-49.2731956082
 21
-38.2445980596
  0
LWPOLYLINE
  5
299
100
AcDbEntity
  8
0
100
AcDbPolyline
 62
7
  6
CONTINUOUS
 90
13
 70
0
 10
-36.4275902185
 20
-6.1241910816
 10
-36.4822919071
 20
-6.0131902972
 10
-36.5259904898
 20
-5.9042868359
 10
-36.5586859665
 20
-5.7974806977
 10
-36.5799929568
 20
-5.6918894758
 10
-36.5902968411
 20
-5.588395577
 10
-36.5907537613
 20
-5.4896462213
 10
-36.5813846941
 20
-5.3959464556
 10
-36.5621686627
 20
-5.3069912329
 10
-36.5341988784
 20
-5.2245126329
 10
-36.4978397449
 20
-5.1490880153
 10
-36.4527268585
 20
-5.0801400204
 10
-36.3988602192
 20
-5.0176686481
  0
LINE
  5
29A
100
AcDbEntity
  8
0
100
AcDbLine
 62
7
  6
CONTINUOUS
 10
-34.6
 20
11.9796119145
 11
-34.6
 21
-21.0203880855
  0
LINE
  5
29B
100
AcDbEntity
  8
0
100
AcDbLine
 62
7
  6
CONTINUOUS
 10
-34.4
 20
-21.0203880855
 11
-34.4
 21
11.9796119145
  0
LINE
  5
29C
100
AcDbEntity
  8
0
100
AcDbLine
 62
250
  6
CONTINUOUS
 10
-31.9
 20
36.4474748547
 11
-31.9000000066
 21
35.9796119146
  0
LWPOLYLINE
  5
29D
100
AcDbEntity
  8
0
100
AcDbPolyline
 62
7
  6
CONTINUOUS
 90
10
 70
0
 10
-35.2215925954
 20
-5.4730263065
 10
-35.2300452796
 20
-5.5556133263
 10
-35.2478221965
 20
-5.6342966358
 10
-35.2749233461
 20
-5.7090762349
 10
-35.3124457793
 20
-5.7814529494
 10
-35.3592924453
 20
-5.8499259535
 10
-35.4121721917
 20
-5.90999277
 10
-35.4699879677
 20
-5.9601525733
 10
-35.5338368241
 20
-6.001906189
 10
-35.6037187609
 20
-6.0352536172
  0
LINE
  5
29E
100
AcDbEntity
  8
0
100
AcDbLine
 62
7
  6
CONTINUOUS
 10
-37.5483798357
 20
-3.9446527637
 11
-37.415790899
 21
-3.6849718877
  0
LWPOLYLINE
  5
29F
100
AcDbEntity
  8
0
100
AcDbPolyline
 62
7
  6
CONTINUOUS
 90
10
 70
0
 10
7.85
 20
43.0946105046
 10
7.8411086126
 20
43.088091716
 10
7.8144545922
 20
43.0815876945
 10
7.7700983188
 20
43.0751131739
 10
7.7081402735
 20
43.068682821
 10
7.6287208113
 20
43.0623112026
 10
7.5320198429
 20
43.0560127526
 10
7.4182564269
 20
43.0498017388
 10
7.2876882742
 20
43.0436922314
 10
7.1406111635
 20
43.0376980702
  0
LINE
  5
2A0
100
AcDbEntity
  8
0
100
AcDbLine
 62
250
  6
CONTINUOUS
 10
-50.4678629402
 20
-33.6203880855
 11
-50.0
 21
-33.6203880855
  0
LINE
  5
2A1
100
AcDbEntity
  8
0
100
AcDbLine
 62
7
  6
CONTINUOUS
 10
-35.6037187609
 20
-6.0352536172
 11
-35.4737469122
 21
-6.3243182808
  0
LWPOLYLINE
  5
2A2
100
AcDbEntity
  8
0
100
AcDbPolyline
 62
7
  6
CONTINUOUS
 90
13
 70
0
 10
-36.5658681522
 20
-2.8047743204
 10
-36.5956499529
 20
-2.7304872247
 10
-36.6315196285
 20
-2.6612538337
 10
-36.6734771789
 20
-2.5970741475
 10
-36.7225996534
 20
-2.5372975598
 10
-36.7778100028
 20
-2.4825746768
 10
-36.8358770798
 20
-2.434857317
 10
-36.8953975397
 20
-2.394821986
 10
-36.9577747273
 20
-2.3617921782
 10
-37.0239875302
 20
-2.3356901946
 10
-37.0943622444
 20
-2.3164901355
 10
-37.1685725739
 20
-2.3042179007
 10
-37.2466185187
 20
-2.2988734901
  0
LINE
  5
2A3
100
AcDbEntity
  8
0
100
AcDbLine
 62
7
  6
CONTINUOUS
 10
-35.6410220488
 20
-3.7494999261
 11
-35.5454738397
 21
-4.0615356089
  0
LWPOLYLINE
  5
2A4
100
AcDbEntity
  8
0
100
AcDbPolyline
 62
7
  6
CONTINUOUS
 90
10
 70
0
 10
-36.2865586922
 20
-2.733681817
 10
-36.2558399848
 20
-2.6911233368
 10
-36.2189727776
 20
-2.6523283316
 10
-36.1759570704
 20
-2.6172968015
 10
-36.1260202591
 20
-2.5852373529
 10
-36.0699349478
 20
-2.5569413794
 10
-36.01001895
 20
-2.534783061
 10
-35.94704487
 20
-2.5195537912
 10
-35.8802401034
 20
-2.5104621765
 10
-35.8096046502
 20
-2.507508217
  0
LWPOLYLINE
  5
2A5
100
AcDbEntity
  8
0
100
AcDbPolyline
 62
7
  6
CONTINUOUS
 90
10
 70
0
 10
4.1
 20
45.3942602035
 10
4.098380347
 20
45.3922845825
 10
4.0859964213
 20
45.3883512494
 10
4.0611159696
 20
45.3844359882
 10
4.0238515922
 20
45.380538636
 10
3.9745410904
 20
45.3766945222
 10
3.9130749351
 20
45.372904131
 10
3.8395626554
 20
45.3691669782
 10
3.7546706393
 20
45.365516941
 10
3.658295417
 20
45.3619548117
  0
LWPOLYLINE
  5
2A6
100
AcDbEntity
  8
0
100
AcDbPolyline
 62
7
  6
CONTINUOUS
 90
9
 70
0
 10
10.1
 20
41.7948085009
 10
10.0903444761
 20
41.7871246668
 10
10.0614874188
 20
41.7794408328
 10
10.0135930999
 20
41.7718007397
 10
9.9465529418
 20
41.7642046372
 10
9.8604755222
 20
41.7566522756
 10
9.7558508455
 20
41.7491866477
 10
9.632573129
 20
41.7418082481
 10
9.4907481555
 20
41.7345165821
  0
LINE
  5
2A7
100
AcDbEntity
  8
0
100
AcDbLine
 62
250
  6
CONTINUOUS
 10
-50.4678629402
 20
-28.4203880855
 11
-50.0
 21
-28.4203880916
  0
LWPOLYLINE
  5
2A8
100
AcDbEntity
  8
0
100
AcDbPolyline
 62
7
  6
CONTINUOUS
 90
19
 70
0
 10
-35.3881469242
 20
-2.6846644033
 10
-35.3409013454
 20
-2.7395278625
 10
-35.3015060276
 20
-2.7988756046
 10
-35.2699609709
 20
-2.8627076297
 10
-35.2464266649
 20
-2.9318479404
 10
-35.2307426198
 20
-3.005472534
 10
-35.2224273674
 20
-3.0811094027
 10
-35.2216321391
 20
-3.1601002487
 10
-35.2282057034
 20
-3.2411033698
 10
-35.2412128968
 20
-3.3176216509
 10
-35.2604581069
 20
-3.3879985549
 10
-35.2861369461
 20
-3.4538906189
 10
-35.3179010883
 20
-3.51377034
 10
-35.3554328916
 20
-3.5669150145
 10
-35.3990499979
 20
-3.614047346
 10
-35.4493570068
 20
-3.6558079421
 10
-35.5065554516
 20
-3.6924103388
 10
-35.5704437989
 20
-3.7236410001
 10
-35.6410220488
 20
-3.7494999261
  0
LINE
  5
2A9
100
AcDbEntity
  8
0
100
AcDbLine
 62
7
  6
CONTINUOUS
 10
-24.5
 20
22.0796119145
 11
-24.5
 21
21.8796119145
  0
LWPOLYLINE
  5
2AA
100
AcDbEntity
  8
0
100
AcDbPolyline
 62
7
  6
CONTINUOUS
 90
10
 70
0
 10
-36.3988602192
 20
-5.0176686481
 10
-36.3584182012
 20
-4.9814254187
 10
-36.3134787476
 20
-4.9485613805
 10
-36.2640418583
 20
-4.9190765336
 10
-36.2096550218
 20
-4.8925796577
 10
-36.1507707495
 20
-4.869461973
 10
-36.0887465762
 20
-4.8508971405
 10
-36.0240350134
 20
-4.8372763805
 10
-35.9561835495
 20
-4.8282084726
 10
-35.8851921845
 20
-4.823693417
  0
LWPOLYLINE
  5
2AB
100
AcDbEntity
  8
0
100
AcDbPolyline
 62
7
  6
CONTINUOUS
 90
8
 70
0
 10
11.85
 20
39.9950826496
 10
11.8403533544
 20
39.9867597485
 10
11.811506744
 20
39.9784368473
 10
11.7636001581
 20
39.9701543363
 10
11.6965409508
 20
39.9619124117
 10
11.6104217681
 20
39.9537108772
 10
11.5056605365
 20
39.9455895339
 10
11.3821666418
 20
39.9375487716
  0
LINE
  5
2AC
100
AcDbEntity
  8
0
100
AcDbLine
 62
7
  6
CONTINUOUS
 10
-34.6
 20
-21.0203880855
 11
-34.4
 21
-21.0203880855
  0
LWPOLYLINE
  5
2AD
100
AcDbEntity
  8
0
100
AcDbPolyline
 62
7
  6
CONTINUOUS
 90
10
 70
0
 10
-37.415790899
 20
-3.6849718877
 10
-37.4755894959
 20
-3.6452898535
 10
-37.5304995829
 20
-3.5984123029
 10
-37.58052116
 20
-3.5443392359
 10
-37.6269207919
 20
-3.4809004146
 10
-37.668431914
 20
-3.410266077
 10
-37.7012548321
 20
-3.338946937
 10
-37.7241229815
 20
-3.2691132327
 10
-37.738302927
 20
-3.198594726
 10
-37.7437946685
 20
-3.127391417
  0
LWPOLYLINE
  5
2AE
100
AcDbEntity
  8
RACCORDO
100
AcDbPolyline
 62
7
  6
CONTINUOUS
 90
22
 70
0
 10
-14.0
 20
38.0179914681
 10
-13.9965050021
 20
38.1016902256
 10
-13.9860246986
 20
38.1849247829
 10
-13.9686026373
 20
38.2671130976
 10
-13.9441910494
 20
38.3480796788
 10
-13.9130042037
 20
38.4268250742
 10
-13.8758502065
 20
38.5016637609
 10
-13.8329293378
 20
38.5726838813
 10
-13.7850024674
 20
38.6390432403
 10
-13.734617981
 20
38.6982963066
 10
-13.6832237356
 20
38.750309839
 10
-13.631344367
 20
38.7959162248
 10
-13.5807201164
 20
38.8348560141
 10
-13.5329097152
 20
38.8672864919
 10
-13.4878437359
 20
38.8944348929
 10
-13.4446340587
 20
38.9176477538
 10
-13.4032076049
 20
38.9375273331
 10
-13.3641570212
 20
38.9542935334
 10
-13.3273292663
 20
38.9684674685
 10
-13.2927153045
 20
38.9804305843
 10
-13.260483344
 20
38.9904591264
 10
-13.2306563462
 20
38.9988442008
  0
LWPOLYLINE
  5
2AF
100
AcDbEntity
  8
0
100
AcDbPolyline
 62
7
  6
CONTINUOUS
 90
9
 70
0
 10
8.35
 20
43.5945343522
 10
8.3477766773
 20
43.5912125567
 10
8.3305342227
 20
43.5845895495
 10
8.295942249
 20
43.5779872537
 10
8.2441078207
 20
43.5714055416
 10
8.1753521321
 20
43.564885197
 10
8.0895701131
 20
43.5584266009
 10
7.9868668338
 20
43.5520293724
 10
7.8678786997
 20
43.5457331521
  0
LWPOLYLINE
  5
2B0
100
AcDbEntity
  8
0
100
AcDbPolyline
 62
7
  6
CONTINUOUS
 90
5
 70
0
 10
-50.2616130488
 20
-34.1240870903
 10
-50.2378836086
 20
-34.097187178
 10
-50.1661339693
 20
-34.0285289104
 10
-50.0864292411
 20
-33.9692928867
 10
-49.9999980075
 20
-33.9203921813
  0
LWPOLYLINE
  5
2B1
100
AcDbEntity
  8
0
100
AcDbPolyline
 62
7
  6
CONTINUOUS
 90
11
 70
0
 10
14.0
 20
36.5956004861
 10
13.9901779926
 20
36.5864688465
 10
13.9607939714
 20
36.5773372069
 10
13.9119709385
 20
36.5682437925
 10
13.8436274081
 20
36.5591887634
 10
13.7558448659
 20
36.5501719595
 10
13.6489907705
 20
36.5412311252
 10
13.5229851768
 20
36.5323665789
 10
13.3779080298
 20
36.5235780022
 10
13.2143666243
 20
36.5149021841
 10
13.0322835606
 20
36.5063395974
  0
LWPOLYLINE
  5
2B2
100
AcDbEntity
  8
0
100
AcDbPolyline
 62
7
  6
CONTINUOUS
 90
8
 70
0
 10
-36.2032076419
 20
-2.3120471917
 10
-36.2788421548
 20
-2.3580739395
 10
-36.3460489669
 20
-2.4115217384
 10
-36.4055325656
 20
-2.4730821929
 10
-36.4572596169
 20
-2.5431483714
 10
-36.5012190094
 20
-2.621851297
 10
-36.5374218545
 20
-2.7090599466
 10
-36.5658681522
 20
-2.8047743204
  0
LWPOLYLINE
  5
2B3
100
AcDbEntity
  8
0
100
AcDbPolyline
 62
7
  6
CONTINUOUS
 90
14
 70
0
 10
-36.4140707444
 20
-4.6525097396
 10
-36.4961592038
 20
-4.7016764927
 10
-36.5692132656
 20
-4.75624651
 10
-36.6338956878
 20
-4.8175791732
 10
-36.6913561374
 20
-4.8872177505
 10
-36.7428575687
 20
-4.965969373
 10
-36.7871370272
 20
-5.0530269097
 10
-36.8215553165
 20
-5.1475122352
 10
-36.8460385559
 20
-5.2505948791
 10
-36.8606606259
 20
-5.3611053118
 10
-36.8630039725
 20
-5.47465682
 10
-36.8522627441
 20
-5.5897871657
 10
-36.8292427923
 20
-5.7079585869
 10
-36.7939441169
 20
-5.8291710834
  0
LINE
  5
2B4
100
AcDbEntity
  8
0
100
AcDbLine
 62
7
  6
CONTINUOUS
 10
-14.0
 20
38.0179914681
 11
-14.0
 21
36.5956004861
  0
LINE
  5
2B5
100
AcDbEntity
  8
0
100
AcDbLine
 62
7
  6
CONTINUOUS
 10
-11.85
 20
40.4217414993
 11
-11.85
 21
39.9950826496
  0
LINE
  5
2B6
100
AcDbEntity
  8
0
100
AcDbLine
 62
7
  6
CONTINUOUS
 10
-11.35
 20
39.9357472228
 11
-11.35
 21
39.495158802
  0
LINE
  5
2B7
100
AcDbEntity
  8
0
100
AcDbLine
 62
7
  6
CONTINUOUS
 10
-10.1
 20
42.2616536079
 11
-10.1
 21
41.7948085009
  0
LWPOLYLINE
  5
2B8
100
AcDbEntity
  8
RACCORDO
100
AcDbPolyline
 62
7
  6
CONTINUOUS
 90
19
 70
0
 10
-8.35
 20
44.034588621
 10
-8.3481548083
 20
44.0679467829
 10
-8.3427596077
 20
44.1003741814
 10
-8.334050278
 20
44.1315207101
 10
-8.3221246187
 20
44.1614421471
 10
-8.3073602175
 20
44.1894819445
 10
-8.2907705733
 20
44.2144642534
 10
-8.2731551789
 20
44.2361884617
 10
-8.2548529672
 20
44.2550613751
 10
-8.2364552897
 20
44.2711409693
 10
-8.2183771842
 20
44.284668452
 10
-8.2009220808
 20
44.2959353141
 10
-8.1844488859
 20
44.3051674959
 10
-8.1693354281
 20
44.3125764835
 10
-8.1555542536
 20
44.3185344763
 10
-8.1427692086
 20
44.3234424906
 10
-8.1308888786
 20
44.3275151683
 10
-8.1200877699
 20
44.3308455105
 10
-8.1103821083
 20
44.3335625691
  0
LWPOLYLINE
  5
2B9
100
AcDbEntity
  8
RACCORDO
100
AcDbPolyline
 62
7
  6
CONTINUOUS
 90
19
 70
0
 10
-10.1
 20
42.2616536079
 10
-10.0980070969
 20
42.296347715
 10
-10.0922281186
 20
42.329842444
 10
-10.0829879742
 20
42.3617654673
 10
-10.0704880559
 20
42.392121554
 10
-10.0551778453
 20
42.4203199955
 10
-10.0380622784
 20
42.4453474866
 10
-10.0199139172
 20
42.4670833574
 10
-10.0011269299
 20
42.4858856378
 10
-9.9823700798
 20
42.5017859477
 10
-9.9641100067
 20
42.5150373216
 10
-9.9466210521
 20
42.5259936419
 10
-9.9302179977
 20
42.5349302635
 10
-9.9153193684
 20
42.5420505843
 10
-9.9018479142
 20
42.5477536246
 10
-9.8892764217
 20
42.5525042176
 10
-9.877440047
 20
42.5565185351
 10
-9.8665663843
 20
42.5598507923
 10
-9.8566649279
 20
42.5626171544
  0
LWPOLYLINE
  5
2BA
100
AcDbEntity
  8
RACCORDO
100
AcDbPolyline
 62
7
  6
CONTINUOUS
 90
19
 70
0
 10
-11.85
 20
40.4217414993
 10
-11.8478693272
 20
40.4576423998
 10
-11.8417297006
 20
40.4921173748
 10
-11.8319848211
 20
40.5247721218
 10
-11.8189247747
 20
40.555571816
 10
-11.8030627015
 20
40.5839747696
 10
-11.7854060287
 20
40.609090463
 10
-11.7666918968
 20
40.6308846896
 10
-11.747378118
 20
40.6496591041
 10
-11.7282722857
 20
40.6653762206
 10
-11.7099733048
 20
40.678269229
 10
-11.6926705384
 20
40.6888168637
 10
-11.6764828863
 20
40.6974262825
 10
-11.6617754096
 20
40.7043124466
 10
-11.6484959529
 20
40.7098420109
 10
-11.6360201657
 20
40.7144989624
 10
-11.6241442312
 20
40.7184937245
 10
-11.6131181859
 20
40.7218572739
 10
-11.6029478526
 20
40.7246946161
  0
LWPOLYLINE
  5
2BB
100
AcDbEntity
  8
0
100
AcDbPolyline
 62
7
  6
CONTINUOUS
 90
11
 70
0
 10
11.35
 20
39.495158802
 10
11.3475107574
 20
39.4910104267
 10
11.3276033677
 20
39.4827209537
 10
11.2878235124
 20
39.4744533009
 10
11.2282409791
 20
39.4662219726
 10
11.1489602958
 20
39.4580414094
 10
11.0501205476
 20
39.4499259626
 10
10.9318951332
 20
39.4418898697
 10
10.7944914599
 20
39.4339472285
 10
10.6381505807
 20
39.4261119732
 10
10.4631467705
 20
39.4183978495
  0
LWPOLYLINE
  5
2BC
100
AcDbEntity
  8
0
100
AcDbPolyline
 62
7
  6
CONTINUOUS
 90
11
 70
0
 10
9.45
 20
41.2948846533
 10
9.4475513618
 20
41.2911304274
 10
9.4279698689
 20
41.2836297569
 10
9.3888474687
 20
41.2761524138
 10
9.3302652484
 20
41.2687138961
 10
9.2523446286
 20
41.2613296214
 10
9.1552471117
 20
41.2540148945
 10
9.039173947
 20
41.2467848765
 10
8.904365714
 20
41.2396545526
 10
8.7511018233
 20
41.2326387016
 10
8.5796999378
 20
41.2257518647
  0
LWPOLYLINE
  5
2BD
100
AcDbEntity
  8
0
100
AcDbPolyline
 62
7
  6
CONTINUOUS
 90
30
 70
0
 10
-35.4737469122
 20
-6.3243182808
 10
-35.3733504842
 20
-6.267880966
 10
-35.2839237113
 20
-6.2059561821
 10
-35.2054665934
 20
-6.1385439293
 10
-35.1383282175
 20
-6.0660456575
 10
-35.0821594965
 20
-5.9880599167
 10
-35.03591317
 20
-5.9033823568
 10
-34.9988721063
 20
-5.8111297832
 10
-34.9717534369
 20
-5.7121853905
 10
-34.9556612957
 20
-5.6079944124
 10
-34.9509541729
 20
-5.4955542997
 10
-34.9572735782
 20
-5.3778676018
 10
-34.9746481747
 20
-5.2653872005
 10
-35.0037580447
 20
-5.1608222495
 10
-35.0439231059
 20
-5.0614635951
 10
-35.0931317734
 20
-4.9696366591
 10
-35.1514249338
 20
-4.8856461799
 10
-35.2187617007
 20
-4.809187419
 10
-35.2930078295
 20
-4.7416715826
 10
-35.3731568753
 20
-4.6832431866
 10
-35.4602152831
 20
-4.6337577151
 10
-35.5550681437
 20
-4.5941928257
 10
-35.6603816536
 20
-4.5645074404
 10
-35.7734896164
 20
-4.5447426371
 10
-35.8872785337
 20
-4.5359993072
 10
-36.002115235
 20
-4.5392190643
 10
-36.1176328909
 20
-4.5534602948
 10
-36.2256175143
 20
-4.5769990479
 10
-36.3236106456
 20
-4.6101056324
 10
-36.4140707444
 20
-4.6525097396
  0
LWPOLYLINE
  5
2BE
100
AcDbEntity
  8
0
100
AcDbPolyline
 62
7
  6
CONTINUOUS
 90
33
 70
0
 10
-35.5454738397
 20
-4.0615356089
 10
-35.4391872356
 20
-4.0094888728
 10
-35.3436876315
 20
-3.9514383043
 10
-35.2589750274
 20
-3.8873839035
 10
-35.1854124542
 20
-3.8176467083
 10
-35.122636881
 20
-3.7419056808
 10
-35.069559215
 20
-3.6591977074
 10
-35.0257814992
 20
-3.5675538313
 10
-34.9917016906
 20
-3.4689430093
 10
-34.9674245672
 20
-3.3683089977
 10
-34.9537714251
 20
-3.2650987047
 10
-34.9499209684
 20
-3.159865222
 10
-34.9535140875
 20
-3.0592115818
 10
-34.9642708691
 20
-2.964979135
 10
-34.9824712266
 20
-2.8753265307
 10
-35.0065957906
 20
-2.7913327481
 10
-35.0367576146
 20
-2.7134100786
 10
-35.072843645
 20
-2.641146231
 10
-35.1129953514
 20
-2.5743833099
 10
-35.1556015625
 20
-2.513380389
 10
-35.2022734496
 20
-2.4578783948
 10
-35.2559859955
 20
-2.4069422111
 10
-35.3177035807
 20
-2.3592688153
 10
-35.3864618248
 20
-2.31616123
 10
-35.462342569
 20
-2.2805934077
 10
-35.5467229991
 20
-2.253017999
 10
-35.6382259294
 20
-2.2329823532
 10
-35.7328016436
 20
-2.2221024711
 10
-35.8319833029
 20
-2.2207041407
 10
-35.9342377462
 20
-2.2284615738
 10
-36.030915773
 20
-2.2460134067
 10
-36.1198499156
 20
-2.2741330993
 10
-36.2032076419
 20
-2.3120471917
  0
LWPOLYLINE
  5
2BF
100
AcDbEntity
  8
0
100
AcDbPolyline
 62
250
  6
CONTINUOUS
 90
10
 70
0
 10
-38.0766021371
 20
36.3526399874
 10
-38.0818660007
 20
36.3611005356
 10
-38.0870010375
 20
36.3695819186
 10
-38.0920072474
 20
36.3780841363
 10
-38.096882527
 20
36.3866072372
 10
-38.1016289797
 20
36.3951511728
 10
-38.1062529159
 20
36.4037157977
 10
-38.1107564391
 20
36.4123010635
 10
-38.1151374458
 20
36.4209070186
 10
-38.119395936
 20
36.429533663
  0
LINE
  5
2C0
100
AcDbEntity
  8
0
100
AcDbLine
 62
7
  6
CONTINUOUS
 10
-9.45
 20
41.7326872553
 11
-9.45
 21
41.2948846533
  0
LINE
  5
2C1
100
AcDbEntity
  8
0
100
AcDbLine
 62
7
  6
CONTINUOUS
 10
-8.35
 20
44.034588621
 11
-8.35
 21
43.5945343522
  0
LINE
  5
2C2
100
AcDbEntity
  8
0
100
AcDbLine
 62
7
  6
CONTINUOUS
 10
-7.85
 20
43.5449150405
 11
-7.85
 21
43.0946105046
  0
LWPOLYLINE
  5
2C3
100
AcDbEntity
  8
RACCORDO
100
AcDbPolyline
 62
7
  6
CONTINUOUS
 90
16
 70
0
 10
-4.1
 20
45.7333679549
 10
-4.0978397369
 20
45.7693747343
 10
-4.0914748844
 20
45.8045184894
 10
-4.0811192876
 20
45.8383303916
 10
-4.0667690726
 20
45.87090323
 10
-4.0488748812
 20
45.9012718648
 10
-4.0289142172
 20
45.9277598353
 10
-4.0079453076
 20
45.9502056783
 10
-3.9864304239
 20
45.9691343579
 10
-3.9654430166
 20
45.9844953442
 10
-3.9458453364
 20
45.996561912
 10
-3.9277515241
 20
46.0060222469
 10
-3.9109780656
 20
46.0135131003
 10
-3.895524904
 20
46.0194286661
 10
-3.8816498909
 20
46.0240039202
 10
-3.8694093559
 20
46.0275100722
  0
LINE
  5
2C4
100
AcDbEntity
  8
0
100
AcDbLine
 62
7
  6
CONTINUOUS
 10
11.1960930686
 20
-5.6203880855
 11
10.0700680665
 21
-5.6203880855
  0
LINE
  5
2C5
100
AcDbEntity
  8
0
100
AcDbLine
 62
7
  6
CONTINUOUS
 10
-10.0700680665
 20
-5.6203880855
 11
-11.1960930686
 21
-5.6203880855
  0
LINE
  5
2C6
100
AcDbEntity
  8
0
100
AcDbLine
 62
7
  6
CONTINUOUS
 10
-37.693534
 20
-4.6354770855
 11
-37.965387
 21
-4.6354770855
  0
LINE
  5
2C7
100
AcDbEntity
  8
0
100
AcDbLine
 62
7
  6
CONTINUOUS
 10
-36.7939441169
 20
-5.8291710834
 11
-37.693534
 21
-5.8133990855
  0
LINE
  5
2C8
100
AcDbEntity
  8
0
100
AcDbLine
 62
7
  6
CONTINUOUS
 10
-37.965387
 20
-6.0965090855
 11
-36.4275902185
 21
-6.1241910816
  0
LWPOLYLINE
  5
2C9
100
AcDbEntity
  8
0
100
AcDbPolyline
 62
7
  6
CONTINUOUS
 90
10
 70
0
 10
-35.8096046502
 20
-2.507508217
 10
-35.7513505837
 20
-2.5118234327
 10
-35.6955482582
 20
-2.5203165585
 10
-35.6421976738
 20
-2.5329875943
 10
-35.5907593418
 20
-2.550284152
 10
-35.5417727509
 20
-2.5717586197
 10
-35.4968563671
 20
-2.5960681622
 10
-35.456549679
 20
-2.6227651678
 10
-35.4203131981
 20
-2.6522972481
 10
-35.3881469242
 20
-2.6846644033
  0
LWPOLYLINE
  5
2CA
100
AcDbEntity
  8
0
100
AcDbPolyline
 62
7
  6
CONTINUOUS
 90
13
 70
0
 10
-35.8851921845
 20
-4.823693417
 10
-35.7910713219
 20
-4.8307934521
 10
-35.7030850698
 20
-4.8478662082
 10
-35.6212334279
 20
-4.8749116854
 10
-35.5450295624
 20
-4.9129621949
 10
-35.4749603073
 20
-4.9609854255
 10
-35.4124861644
 20
-5.015884443
 10
-35.357296452
 20
-5.0770139694
 10
-35.3097018519
 20
-5.1450192828
 10
-35.2720949115
 20
-5.2187392832
 10
-35.2452731465
 20
-5.2977869373
 10
-35.2284390411
 20
-5.3825492784
 10
-35.2215925954
 20
-5.4730263065
  0
LWPOLYLINE
  5
2CB
100
AcDbEntity
  8
0
100
AcDbPolyline
 62
7
  6
CONTINUOUS
 90
5
 70
0
 10
37.6044767013
 20
-45.2826557023
 10
37.5767990778
 20
-45.2582714895
 10
37.5081408292
 20
-45.1865219082
 10
37.448904824
 20
-45.1068172438
 10
37.4000041336
 20
-45.0203860746
  0
LWPOLYLINE
  5
2CC
100
AcDbEntity
  8
0
100
AcDbPolyline
 62
7
  6
CONTINUOUS
 90
16
 70
0
 10
-37.4
 20
35.9796119145
 10
-37.4356605337
 20
36.0286442286
 10
-37.4731423989
 20
36.073982068
 10
-37.5124455956
 20
36.1156198505
 10
-37.5537877144
 20
36.1535009077
 10
-37.5969511646
 20
36.1877538481
 10
-37.6412831748
 20
36.2186283939
 10
-37.6866952603
 20
36.2461445338
 10
-37.7332759057
 20
36.2703400324
 10
-37.7806377933
 20
36.2913974951
 10
-37.828793747
 20
36.3093369527
 10
-37.8777309429
 20
36.3241430527
 10
-37.927023591
 20
36.3358710595
 10
-37.9765297614
 20
36.3445294192
 10
-38.026391384
 20
36.3501129476
 10
-38.0766084587
 20
36.3526399874
  0
LWPOLYLINE
  5
2CD
100
AcDbEntity
  8
0
100
AcDbPolyline
 62
7
  6
CONTINUOUS
 90
31
 70
0
 10
0.518
 20
24.3623369302
 10
0.5182634261
 20
24.2513552139
 10
0.5133271006
 20
24.1446312289
 10
0.5031910234
 20
24.0421649751
 10
0.4875067509
 20
23.943782134
 10
0.4666227268
 20
23.8496570241
 10
0.4415842817
 20
23.7603126009
 10
0.4131436743
 20
23.6750608137
 10
0.380548646
 20
23.5945897133
 10
0.3425877514
 20
23.5214864071
 10
0.2981983385
 20
23.4562686085
 10
0.2484430592
 20
23.3984186041
 10
0.1952984239
 20
23.3489703619
 10
0.1393625501
 20
23.3084430478
 10
0.0800373202
 20
23.2763174959
 10
0.0175048913
 20
23.2520701754
 10
-0.0501287155
 20
23.2357437543
 10
-0.1209695212
 20
23.2272955647
 10
-0.1891534322
 20
23.2260740716
 10
-0.2536191405
 20
23.2322424502
 10
-0.315427954
 20
23.2456375254
 10
-0.3718997027
 20
23.2651182365
 10
-0.4219848058
 20
23.2904598223
 10
-0.4667328441
 20
23.3218870441
 10
-0.5066123892
 20
23.3589331246
 10
-0.5415606849
 20
23.4017891444
 10
-0.5716404874
 20
23.450264023
 10
-0.5975086362
 20
23.5033177411
 10
-0.6193840779
 20
23.5606036259
 10
-0.6370478658
 20
23.6224683504
 10
-0.6505
 20
23.6889119145
  0
LINE
  5
2CE
100
AcDbEntity
  8
0
100
AcDbLine
 62
7
  6
CONTINUOUS
 10
-4.1
 20
45.7333679549
 11
-4.1
 21
45.3942602035
  0
LINE
  5
2CF
100
AcDbEntity
  8
0
100
AcDbLine
 62
7
  6
CONTINUOUS
 10
-3.6
 20
45.3600748298
 11
-3.6
 21
44.8943363559
  0
LINE
  5
2D0
100
AcDbEntity
  8
0
100
AcDbLine
 62
7
  6
CONTINUOUS
 10
-1.1
 20
-15.7164811541
 11
-1.1
 21
-14.590456152
  0
LINE
  5
2D1
100
AcDbEntity
  8
0
100
AcDbLine
 62
7
  6
CONTINUOUS
 10
-1.1
 20
5.5496799811
 11
-1.1
 21
6.6757049831
  0
LWPOLYLINE
  5
2D2
100
AcDbEntity
  8
0
100
AcDbPolyline
 62
7
  6
CONTINUOUS
 90
31
 70
0
 10
-2.9875
 20
24.4957150884
 10
-2.9856291367
 20
24.6099173259
 10
-2.9791298355
 20
24.7197127627
 10
-2.9680020964
 20
24.8251013987
 10
-2.9526886913
 20
24.9266340672
 10
-2.9327468482
 20
25.0237599349
 10
-2.9068482513
 20
25.1148265022
 10
-2.8740459546
 20
25.1996562362
 10
-2.835286904
 20
25.2784266697
 10
-2.7920836216
 20
25.3500179014
 10
-2.7444875893
 20
25.4145282531
 10
-2.6924473252
 20
25.4718594031
 10
-2.6373209053
 20
25.5205964848
 10
-2.5794082483
 20
25.5602952474
 10
-2.5184094356
 20
25.5913999417
 10
-2.454782787
 20
25.6138284546
 10
-2.3866562674
 20
25.6272183112
 10
-2.3159019119
 20
25.6319319863
 10
-2.2485941464
 20
25.6289747918
 10
-2.186120461
 20
25.6177843512
 10
-2.1270933657
 20
25.598923041
 10
-2.0734248157
 20
25.5750833016
 10
-2.025895324
 20
25.5468924764
 10
-1.9837243777
 20
25.5137232219
 10
-1.9464823933
 20
25.4763859484
 10
-1.9145772697
 20
25.4350560817
 10
-1.887601108
 20
25.389558196
 10
-1.8639006282
 20
25.3401764232
 10
-1.8429247369
 20
25.287005474
 10
-1.8252245275
 20
25.2299506378
 10
-1.8108
 20
25.1690119145
  0
LWPOLYLINE
  5
2D3
100
AcDbEntity
  8
0
100
AcDbPolyline
 62
7
  6
CONTINUOUS
 90
28
 70
0
 10
0.477
 20
24.9549791519
 10
0.4738158441
 20
24.8682479159
 10
0.4636656909
 20
24.786918543
 10
0.4465495403
 20
24.7109910331
 10
0.4222168783
 20
24.6401793399
 10
0.390918219
 20
24.5747695097
 10
0.3534051042
 20
24.5156196813
 10
0.3092209869
 20
24.4625902834
 10
0.2588224141
 20
24.4158208873
 10
0.2043305687
 20
24.3765883458
 10
0.1463304914
 20
24.3452321499
 10
0.0842371416
 20
24.3214128085
 10
0.0184165811
 20
24.3053887011
 10
-0.0532283334
 20
24.2971687775
 10
-0.1286004586
 20
24.296744088
 10
-0.2010423028
 20
24.3043461629
 10
-0.2686011948
 20
24.3200319548
 10
-0.3332298059
 20
24.3437445113
 10
-0.3941286582
 20
24.375544505
 10
-0.4520851621
 20
24.4162874374
 10
-0.5063119074
 20
24.4651178071
 10
-0.5536471853
 20
24.5195297828
 10
-0.593328495
 20
24.5787596794
 10
-0.6261183374
 20
24.6435711819
 10
-0.6511425069
 20
24.7137495148
 10
-0.6681096015
 20
24.7892230862
 10
-0.6773110231
 20
24.8700634878
 10
-0.6787467717
 20
24.9562707197
  0
LWPOLYLINE
  5
2D4
100
AcDbEntity
  8
0
100
AcDbPolyline
 62
7
  6
CONTINUOUS
 90
28
 70
0
 10
-2.9301
 20
23.9310041049
 10
-2.9258352853
 20
24.0157109786
 10
-2.9139281649
 20
24.0949719794
 10
-2.8943786389
 20
24.1687871072
 10
-2.8669054405
 20
24.2371903698
 10
-2.8317898365
 20
24.3001477594
 10
-2.7898756269
 20
24.357557253
 10
-2.7402958324
 20
24.4102871552
 10
-2.6839174324
 20
24.4574691614
 10
-2.624185165
 20
24.496396334
 10
-2.5619029409
 20
24.526124722
 10
-2.4962668494
 20
24.5475982765
 10
-2.4283098967
 20
24.5609419129
 10
-2.3562979469
 20
24.5660749637
 10
-2.281965136
 20
24.5630780964
 10
-2.2115468772
 20
24.5523182293
 10
-2.1470943619
 20
24.5338682587
 10
-2.0865563988
 20
24.5076552881
 10
-2.0300148266
 20
24.4738275465
 10
-1.9766689102
 20
24.4319641562
 10
-1.9273193846
 20
24.3824859948
 10
-1.8844502936
 20
24.3268039233
 10
-1.8486610864
 20
24.2650550729
 10
-1.8193523138
 20
24.1971023125
 10
-1.797209672
 20
24.1239451097
 10
-1.7824617262
 20
24.0459166203
 10
-1.7748799113
 20
23.9626836885
 10
-1.7744642271
 20
23.8742463143
  0
LWPOLYLINE
  5
2D5
100
AcDbEntity
  8
0
100
AcDbPolyline
 62
7
  6
CONTINUOUS
 90
25
 70
0
 10
-1.7744642271
 20
23.8742463143
 10
-1.782347704
 20
23.7751070629
 10
-1.799050511
 20
23.6834489676
 10
-1.8245726481
 20
23.5992720286
 10
-1.8599726841
 20
23.5221016844
 10
-1.9041920501
 20
23.4524124963
 10
-1.9540550396
 20
23.3916281487
 10
-2.0092397551
 20
23.3398887832
 10
-2.0700680942
 20
23.2970542581
 10
-2.1343300431
 20
23.264127833
 10
-2.2020460253
 20
23.2413321228
 10
-2.2731956173
 20
23.2284445126
 10
-2.3455075344
 20
23.2258004174
 10
-2.419967045
 20
23.2337416465
 10
-2.4955888806
 20
23.2519263907
 10
-2.567145952
 20
23.279664637
 10
-2.6337055467
 20
23.3168737352
 10
-2.696200377
 20
23.3636363356
 10
-2.7522014902
 20
23.4195103757
 10
-2.8015245021
 20
23.4848746723
 10
-2.8443537969
 20
23.5593504087
 10
-2.8788135741
 20
23.6413590714
 10
-2.9042785669
 20
23.7303744895
 10
-2.9213740422
 20
23.826922834
 10
-2.9301
 20
23.9310041049
  0
LWPOLYLINE
  5
2D6
100
AcDbEntity
  8
0
100
AcDbPolyline
 62
7
  6
CONTINUOUS
 90
25
 70
0
 10
-0.6787467717
 20
24.9562707197
 10
-0.6698046677
 20
25.0580362891
 10
-0.65129674
 20
25.1523233823
 10
-0.6232229887
 20
25.2391319992
 10
-0.5842041101
 20
25.3190353073
 10
-0.5356194079
 20
25.3914601392
 10
-0.4816067924
 20
25.4546869926
 10
-0.4227712513
 20
25.508488942
 10
-0.3585077968
 20
25.5530929129
 10
-0.2911393762
 20
25.5874601802
 10
-0.220106985
 20
25.6111125479
 10
-0.1459696276
 20
25.6245282121
 10
-0.0727272645
 20
25.6281030356
 10
-0.0008311866
 20
25.6219856726
 10
0.0701698971
 20
25.6060274691
 10
0.1376298993
 20
25.5801783263
 10
0.2016348123
 20
25.5439111019
 10
0.2620986438
 20
25.4977529382
 10
0.31611733
 20
25.4432351631
 10
0.3635403783
 20
25.3804482259
 10
0.4045182814
 20
25.3093016774
 10
0.4365984536
 20
25.2310554977
 10
0.4589633665
 20
25.1461296802
 10
0.4724305487
 20
25.0541042316
 10
0.477
 20
24.9549791519
  0
LWPOLYLINE
  5
2D7
100
AcDbEntity
  8
0
100
AcDbPolyline
 62
7
  6
CONTINUOUS
 90
16
 70
0
 10
-50.0
 20
-33.9203880855
 10
-50.0490323284
 20
-33.956048631
 10
-50.0943701787
 20
-33.9935305074
 10
-50.1360079689
 20
-34.0328337147
 10
-50.1738890307
 20
-34.0741758436
 10
-50.2081419733
 20
-34.1173393035
 10
-50.2390165195
 20
-34.1616713222
 10
-50.2665326588
 20
-34.2070834161
 10
-50.2907281553
 20
-34.2536640689
 10
-50.3117856137
 20
-34.30102596
 10
-50.3297250654
 20
-34.3491819131
 10
-50.3445311587
 20
-34.3981191044
 10
-50.3562591585
 20
-34.4474117424
 10
-50.3649175117
 20
-34.4969178964
 10
-50.3705010353
 20
-34.546779497
 10
-50.3730280729
 20
-34.5969965442
  0
LWPOLYLINE
  5
2D8
100
AcDbEntity
  8
0
100
AcDbPolyline
 62
7
  6
CONTINUOUS
 90
31
 70
0
 10
-37.2466185187
 20
-2.2988734901
 10
-37.3247673102
 20
-2.3026655658
 10
-37.3985956223
 20
-2.3116621071
 10
-37.4681034552
 20
-2.325863114
 10
-37.5335672695
 20
-2.3457523402
 10
-37.5947106046
 20
-2.3708460319
 10
-37.6507040777
 20
-2.3996929284
 10
-37.7009555467
 20
-2.4322353849
 10
-37.7460571537
 20
-2.4685310462
 10
-37.786955943
 20
-2.5073015851
 10
-37.8233642601
 20
-2.5476946365
 10
-37.8555697595
 20
-2.5905625655
 10
-37.8853824485
 20
-2.6371841409
 10
-37.9137840977
 20
-2.6879639709
 10
-37.9397929365
 20
-2.7424974472
 10
-37.9622736605
 20
-2.8008495135
 10
-37.981159022
 20
-2.8632052541
 10
-37.9965162687
 20
-2.9293795846
 10
-38.0074118391
 20
-2.9988821956
 10
-38.0141738049
 20
-3.0717795612
 10
-38.0164740945
 20
-3.1480052072
 10
-38.0123949313
 20
-3.2268694018
 10
-38.0027260219
 20
-3.3089416765
 10
-37.9866776597
 20
-3.3936524997
 10
-37.9599629483
 20
-3.4786035455
 10
-37.9218465416
 20
-3.5646214859
 10
-37.8730637858
 20
-3.6508796488
 10
-37.8115338231
 20
-3.7324996922
 10
-37.7365630342
 20
-3.8078555022
 10
-37.6488450384
 20
-3.8785731927
 10
-37.5483798357
 20
-3.9446527637
  0
LINE
  5
2D9
100
AcDbEntity
  8
0
100
AcDbLine
 62
7
  6
CONTINUOUS
 10
-11.1960930686
 20
-3.4203880855
 11
-10.0700680665
 21
-3.4203880855
  0
LINE
  5
2DA
100
AcDbEntity
  8
0
100
AcDbLine
 62
7
  6
CONTINUOUS
 10
10.0700680665
 20
-3.4203880855
 11
11.1960930686
 21
-3.4203880855
  0
LINE
  5
2DB
100
AcDbEntity
  8
0
100
AcDbLine
 62
7
  6
CONTINUOUS
 10
-36.6875325973
 20
-3.3878570855
 11
-36.4160718603
 21
-3.3878570855
  0
LWPOLYLINE
  5
2DC
100
AcDbEntity
  8
0
100
AcDbPolyline
 62
7
  6
CONTINUOUS
 90
19
 70
0
 10
-37.2383726082
 20
-2.5878730901
 10
-37.1709903474
 20
-2.59108553
 10
-37.1078539628
 20
-2.5997588803
 10
-37.0489634545
 20
-2.6138931408
 10
-36.9940399423
 20
-2.6336035577
 10
-36.9433623063
 20
-2.6587748848
 10
-36.8977671876
 20
-2.6890613843
 10
-36.857979384
 20
-2.7245360334
 10
-36.8232740976
 20
-2.7651258549
 10
-36.7923135761
 20
-2.810266179
 10
-36.7644285836
 20
-2.8600295335
 10
-36.7402883559
 20
-2.9143433906
 10
-36.7205628476
 20
-2.9724254974
 10
-36.7057985698
 20
-3.0344087984
 10
-36.6954490114
 20
-3.100160349
 10
-36.6885445929
 20
-3.1684990618
 10
-36.6847621211
 20
-3.2390312409
 10
-36.6844247893
 20
-3.3121505821
 10
-36.6875325973
 20
-3.3878570855
  0
LINE
  5
2DD
100
AcDbEntity
  8
0
100
AcDbLine
 62
7
  6
CONTINUOUS
 10
1.1
 20
6.6757049831
 11
1.1
 21
5.5496799811
  0
LINE
  5
2DE
100
AcDbEntity
  8
0
100
AcDbLine
 62
7
  6
CONTINUOUS
 10
1.1
 20
-14.590456152
 11
1.1
 21
-15.7164811541
  0
LINE
  5
2DF
100
AcDbEntity
  8
0
100
AcDbLine
 62
7
  6
CONTINUOUS
 10
3.6
 20
45.3600748298
 11
3.6
 21
44.8943363559
  0
LINE
  5
2E0
100
AcDbEntity
  8
0
100
AcDbLine
 62
7
  6
CONTINUOUS
 10
4.1
 20
45.7333679549
 11
4.1
 21
45.3942602035
  0
LWPOLYLINE
  5
2E1
100
AcDbEntity
  8
0
100
AcDbPolyline
 62
250
  6
CONTINUOUS
 90
10
 70
0
 10
-50.3730280729
 20
-34.5969902226
 10
-50.3814886211
 20
-34.6022540862
 10
-50.3899700041
 20
-34.607389123
 10
-50.3984722218
 20
-34.6123953329
 10
-50.4069953227
 20
-34.6172706125
 10
-50.4155392583
 20
-34.6220170652
 10
-50.4241038832
 20
-34.6266410014
 10
-50.432689149
 20
-34.6311445246
 10
-50.4412951041
 20
-34.6355255313
 10
-50.4499217485
 20
-34.6397840215
  0
LWPOLYLINE
  5
2E2
100
AcDbEntity
  8
0
100
AcDbPolyline
 62
250
  6
CONTINUOUS
 90
10
 70
0
 10
50.3730280729
 20
25.5562140516
 10
50.3814886211
 20
25.5614779152
 10
50.3899700041
 20
25.566612952
 10
50.3984722218
 20
25.5716191619
 10
50.4069953227
 20
25.5764944415
 10
50.4155392583
 20
25.5812408942
 10
50.4241038832
 20
25.5858648305
 10
50.432689149
 20
25.5903683536
 10
50.4412951041
 20
25.5947493603
 10
50.4499217485
 20
25.5990078505
  0
LWPOLYLINE
  5
2E3
100
AcDbEntity
  8
0
100
AcDbPolyline
 62
7
  6
CONTINUOUS
 90
5
 70
0
 10
-37.6044767013
 20
36.2418795314
 10
-37.5767990778
 20
36.2174953186
 10
-37.5081408292
 20
36.1457457372
 10
-37.448904824
 20
36.0660410728
 10
-37.4000041336
 20
35.9796099036
  0
LWPOLYLINE
  5
2E4
100
AcDbEntity
  8
0
100
AcDbPolyline
 62
7
  6
CONTINUOUS
 90
16
 70
0
 10
37.4
 20
-45.0203880855
 10
37.4356605298
 20
-45.0694203949
 10
37.4731423913
 20
-45.1147582308
 10
37.5124455845
 20
-45.1563960107
 10
37.5537877
 20
-45.1942770663
 10
37.5969511471
 20
-45.228530006
 10
37.6412831545
 20
-45.2594045517
 10
37.6866952372
 20
-45.2869206918
 10
37.7332758802
 20
-45.3111161911
 10
37.7806377666
 20
-45.3321736552
 10
37.8287937205
 20
-45.3501131147
 10
37.8777309179
 20
-45.3649192169
 10
37.9270235694
 20
-45.376647226
 10
37.9765297451
 20
-45.3853055878
 10
38.0263913749
 20
-45.3908891178
 10
38.0766084587
 20
-45.3934161584
  0
LWPOLYLINE
  5
2E5
100
AcDbEntity
  8
0
100
AcDbPolyline
 62
7
  6
CONTINUOUS
 90
21
 70
0
 10
-1.0309299326
 20
24.7255229378
 10
-1.0051890394
 20
24.6106024278
 10
-0.968812113
 20
24.5041545374
 10
-0.9213285765
 20
24.4076035351
 10
-0.8632090068
 20
24.3195251524
 10
-0.7967075278
 20
24.2403559247
 10
-0.7213358967
 20
24.1692861918
 10
-0.6375823563
 20
24.107125614
 10
-0.5491657589
 20
24.0567397074
 10
-0.4562858543
 20
24.0191068169
 10
-0.3587428926
 20
23.9932485977
 10
-0.2596564765
 20
23.9790955313
 10
-0.1583610789
 20
23.9765070832
 10
-0.0555222268
 20
23.9856237878
 10
0.0437438962
 20
24.0067977304
 10
0.139068227
 20
24.0410874069
 10
0.2308198286
 20
24.0874343214
 10
0.3149897062
 20
24.1430150712
 10
0.3902415282
 20
24.2068885222
 10
0.4579116261
 20
24.2799958085
 10
0.518
 20
24.3623369302
  0
LWPOLYLINE
  5
2E6
100
AcDbEntity
  8
0
100
AcDbPolyline
 62
7
  6
CONTINUOUS
 90
30
 70
0
 10
-3.3033617255
 20
23.8390068554
 10
-3.2774297953
 20
23.7185327696
 10
-3.244867135
 20
23.6043615999
 10
-3.2046347337
 20
23.4987893114
 10
-3.1570119155
 20
23.4030648588
 10
-3.1017193563
 20
23.3159392874
 10
-3.0368800731
 20
23.2359616994
 10
-2.9610521161
 20
23.1613246804
 10
-2.8756774351
 20
23.0938356448
 10
-2.7832048962
 20
23.0374659368
 10
-2.6832483289
 20
22.9931314981
 10
-2.5761939038
 20
22.9599163871
 10
-2.465648998
 20
22.9390441233
 10
-2.3494906785
 20
22.9310220058
 10
-2.2298418784
 20
22.9353427355
 10
-2.1166787746
 20
22.9517079347
 10
-2.0129885709
 20
22.9805168066
 10
-1.9157840636
 20
23.0213701479
 10
-1.8260798185
 20
23.072771972
 10
-1.744079008
 20
23.134014598
 10
-1.6695784596
 20
23.2058057067
 10
-1.602983222
 20
23.2887723539
 10
-1.5430993698
 20
23.384260367
 10
-1.4911208283
 20
23.4909239186
 10
-1.451034422
 20
23.6053525819
 10
-1.4238632168
 20
23.7305085923
 10
-1.4085841468
 20
23.8634297145
 10
-1.4061148396
 20
23.9918188158
 10
-1.4172833292
 20
24.1128017355
 10
-1.4412615816
 20
24.2292526343
  0
LWPOLYLINE
  5
2E7
100
AcDbEntity
  8
0
100
AcDbPolyline
 62
7
  6
CONTINUOUS
 90
34
 70
0
 10
-1.4541
 20
25.1977119145
 10
-1.4745600344
 20
25.3086496377
 10
-1.5042655582
 20
25.4106760939
 10
-1.5432165715
 20
25.503791283
 10
-1.5917882098
 20
25.5880154122
 10
-1.6496053375
 20
25.6633282743
 10
-1.7155425479
 20
25.729669248
 10
-1.7893521248
 20
25.7874528815
 10
-1.8712817843
 20
25.8362646267
 10
-1.9609492678
 20
25.8748002178
 10
-2.0598135403
 20
25.9029795287
 10
-2.1664156368
 20
25.9208826855
 10
-2.2759964027
 20
25.9274458011
 10
-2.3903393865
 20
25.922343306
 10
-2.5076610397
 20
25.9059007696
 10
-2.6178515629
 20
25.8780310133
 10
-2.7172986312
 20
25.8388559307
 10
-2.8096145694
 20
25.7882536283
 10
-2.8955265526
 20
25.7257712469
 10
-2.9759662887
 20
25.6508327195
 10
-3.0500020698
 20
25.5640141132
 10
-3.1155659476
 20
25.46659077
 10
-3.1718080329
 20
25.3583187095
 10
-3.2195782148
 20
25.239441912
 10
-3.2593582122
 20
25.1119676611
 10
-3.2908936207
 20
24.9741442939
 10
-3.3144388446
 20
24.8277234731
 10
-3.3312388159
 20
24.6799674705
 10
-3.3413202332
 20
24.5311085369
 10
-3.3446563979
 20
24.3809144214
 10
-3.3424121459
 20
24.2359506436
 10
-3.3353258603
 20
24.0980481837
 10
-3.322659158
 20
23.9653760616
 10
-3.3033617255
 20
23.8390068554
  0
LWPOLYLINE
  5
2E8
100
AcDbEntity
  8
0
100
AcDbPolyline
 62
7
  6
CONTINUOUS
 90
34
 70
0
 10
-0.9949
 20
23.6602119145
 10
-0.9755547202
 20
23.5512056247
 10
-0.9474818134
 20
23.4508155574
 10
-0.9106812795
 20
23.3590417126
 10
-0.8649115478
 20
23.2758950962
 10
-0.810414189
 20
23.2013647024
 10
-0.7479139159
 20
23.1354175137
 10
-0.6775156128
 20
23.0776305712
 10
-0.5991143954
 20
23.0284268338
 10
-0.513120323
 20
22.9890421607
 10
-0.4184378114
 20
22.95946843
 10
-0.3161624448
 20
22.9397137634
 10
-0.2099910352
 20
22.9310383854
 10
-0.0979544848
 20
22.9336329803
 10
0.0179781086
 20
22.9473068637
 10
0.1282026399
 20
22.9727482059
 10
0.229924597
 20
23.0103385066
 10
0.325938492
 20
23.0596962661
 10
0.4150237557
 20
23.120365155
 10
0.4971249836
 20
23.1921411703
 10
0.5722975802
 20
23.2752283151
 10
0.6394871904
 20
23.3697822699
 10
0.6986318891
 20
23.4766712086
 10
0.7497936013
 20
23.5950269574
 10
0.7921037478
 20
23.7224006745
 10
0.8245583274
 20
23.8602093924
 10
0.8481613411
 20
24.0070360786
 10
0.8650562123
 20
24.1561807943
 10
0.8754831473
 20
24.3078926421
 10
0.8792019397
 20
24.4619225193
 10
0.8776353941
 20
24.6108231787
 10
0.8720127652
 20
24.7525512309
 10
0.8611047982
 20
24.8891500652
 10
0.8426465335
 20
25.0193026028
  0
LINE
  5
2E9
100
AcDbEntity
  8
0
100
AcDbLine
 62
7
  6
CONTINUOUS
 10
7.85
 20
43.5449150405
 11
7.85
 21
43.0946105046
  0
LINE
  5
2EA
100
AcDbEntity
  8
0
100
AcDbLine
 62
7
  6
CONTINUOUS
 10
8.35
 20
44.034588621
 11
8.35
 21
43.5945343522
  0
LINE
  5
2EB
100
AcDbEntity
  8
0
100
AcDbLine
 62
7
  6
CONTINUOUS
 10
9.45
 20
41.7326872553
 11
9.45
 21
41.2948846533
  0
LINE
  5
2EC
100
AcDbEntity
  8
0
100
AcDbLine
 62
7
  6
CONTINUOUS
 10
10.1
 20
42.2616536079
 11
10.1
 21
41.7948085009
  0
LWPOLYLINE
  5
2ED
100
AcDbEntity
  8
0
100
AcDbPolyline
 62
7
  6
CONTINUOUS
 90
16
 70
0
 10
50.0
 20
24.8796119145
 10
50.0490323284
 20
24.91527246
 10
50.0943701787
 20
24.9527543364
 10
50.1360079689
 20
24.9920575437
 10
50.1738890307
 20
25.0333996727
 10
50.2081419733
 20
25.0765631325
 10
50.2390165195
 20
25.1208951512
 10
50.2665326588
 20
25.1663072451
 10
50.2907281553
 20
25.212887898
 10
50.3117856137
 20
25.260249789
 10
50.3297250654
 20
25.3084057421
 10
50.3445311587
 20
25.3573429334
 10
50.3562591585
 20
25.4066355714
 10
50.3649175117
 20
25.4561417254
 10
50.3705010353
 20
25.506003326
 10
50.3730280729
 20
25.5562203733
  0
LWPOLYLINE
  5
2EE
100
AcDbEntity
  8
RACCORDO
100
AcDbPolyline
 62
250
  6
CONTINUOUS
 90
14
 70
0
 10
-14.0
 20
38.0179914681
 10
-13.996357841
 20
38.0124185132
 10
-13.9672498017
 20
38.0012887495
 10
-13.9092506655
 20
37.9902166559
 10
-13.8225404487
 20
37.9792118614
 10
-13.7071454262
 20
37.9682776388
 10
-13.5630448641
 20
37.9574242903
 10
-13.3905817419
 20
37.9466875041
 10
-13.1904111479
 20
37.9361081446
 10
-12.9632921481
 20
37.9257194608
 10
-12.7095536892
 20
37.9155304651
 10
-12.4292999207
 20
37.905545269
 10
-12.1227039327
 20
37.8957747084
 10
-11.43428343
 20
37.8770076053
  0
LWPOLYLINE
  5
2EF
100
AcDbEntity
  8
0
100
AcDbPolyline
 62
250
  6
CONTINUOUS
 90
10
 70
0
 10
38.0766021371
 20
-45.3934161584
 10
38.0818660007
 20
-45.4018767066
 10
38.0870010375
 20
-45.4103580896
 10
38.0920072474
 20
-45.4188603073
 10
38.096882527
 20
-45.4273834082
 10
38.1016289797
 20
-45.4359273438
 10
38.1062529159
 20
-45.4444919687
 10
38.1107564391
 20
-45.4530772345
 10
38.1151374458
 20
-45.4616831896
 10
38.119395936
 20
-45.4703098339
  0
LWPOLYLINE
  5
2F0
100
AcDbEntity
  8
0
100
AcDbPolyline
 62
7
  6
CONTINUOUS
 90
12
 70
0
 10
-11.35
 20
39.495158802
 10
-11.3475107574
 20
39.4910104267
 10
-11.3276033677
 20
39.4827209537
 10
-11.2878235124
 20
39.4744533009
 10
-11.2282409791
 20
39.4662219726
 10
-11.1489602958
 20
39.4580414094
 10
-11.0501205476
 20
39.4499259626
 10
-10.9318951332
 20
39.4418898697
 10
-10.7944914599
 20
39.4339472285
 10
-10.6381505807
 20
39.4261119732
 10
-10.4631467705
 20
39.4183978495
 10
-10.0584106243
 20
39.4033868935
  0
LWPOLYLINE
  5
2F1
100
AcDbEntity
  8
0
100
AcDbPolyline
 62
7
  6
CONTINUOUS
 90
20
 70
0
 10
-1.4412615816
 20
24.2292526343
 10
-1.4764831216
 20
24.3374968623
 10
-1.5232405987
 20
24.4365457384
 10
-1.5812413636
 20
24.5273879437
 10
-1.6480409931
 20
24.6093148713
 10
-1.7242936704
 20
24.6831969995
 10
-1.8093452124
 20
24.7481638499
 10
-1.8987886473
 20
24.8008953808
 10
-1.9916864537
 20
24.840255971
 10
-2.088976153
 20
24.8673812417
 10
-2.1890633374
 20
24.8823580138
 10
-2.2940679746
 20
24.8849173183
 10
-2.401870097
 20
24.8753281243
 10
-2.504515394
 20
24.8544841602
 10
-2.5996741037
 20
24.8226515789
 10
-2.689675988
 20
24.7795642275
 10
-2.7735560223
 20
24.7253173758
 10
-2.8509925316
 20
24.6599427803
 10
-2.9223071908
 20
24.5834086845
 10
-2.9875
 20
24.4957150884
  0
LWPOLYLINE
  5
2F2
100
AcDbEntity
  8
0
100
AcDbPolyline
 62
7
  6
CONTINUOUS
 90
29
 70
0
 10
0.8426465335
 20
25.0193026028
 10
0.8168226994
 20
25.1428786033
 10
0.7834485677
 20
25.2600083069
 10
0.7397049945
 20
25.3697653557
 10
0.683976684
 20
25.4729406932
 10
0.617878932
 20
25.5687433757
 10
0.5434384817
 20
25.6538742141
 10
0.4604473051
 20
25.7275757502
 10
0.3691134302
 20
25.7906054421
 10
0.2720876844
 20
25.8419364751
 10
0.1689376341
 20
25.8815373585
 10
0.0600957128
 20
25.909439583
 10
-0.0504899511
 20
25.9247108056
 10
-0.1643030673
 20
25.9266761348
 10
-0.2798599261
 20
25.9160104622
 10
-0.3887612706
 20
25.8938061189
 10
-0.4880351567
 20
25.8602932795
 10
-0.5806535284
 20
25.8152417695
 10
-0.6671329605
 20
25.759053397
 10
-0.7491218712
 20
25.6907778109
 10
-0.8249718423
 20
25.6113653623
 10
-0.8902541941
 20
25.5240689119
 10
-0.9437141275
 20
25.4298625677
 10
-0.9866064415
 20
25.3277722216
 10
-1.0182668539
 20
25.2181284106
 10
-1.0385561123
 20
25.0972690663
 10
-1.047613469
 20
24.968856257
 10
-1.0451924
 20
24.8442067252
 10
-1.0309299326
 20
24.7255229378
  0
LINE
  5
2F3
100
AcDbEntity
  8
0
100
AcDbLine
 62
7
  6
CONTINUOUS
 10
11.35
 20
39.9357472228
 11
11.35
 21
39.495158802
  0
LINE
  5
2F4
100
AcDbEntity
  8
0
100
AcDbLine
 62
7
  6
CONTINUOUS
 10
11.85
 20
40.4217414993
 11
11.85
 21
39.9950826496
  0
LINE
  5
2F5
100
AcDbEntity
  8
0
100
AcDbLine
 62
7
  6
CONTINUOUS
 10
14.0
 20
38.0179914681
 11
14.0
 21
36.5956004861
  0
LINE
  5
2F6
100
AcDbEntity
  8
0
100
AcDbLine
 62
7
  6
CONTINUOUS
 10
-34.4
 20
11.9796119145
 11
-34.6
 21
11.9796119145
  0
LWPOLYLINE
  5
2F7
100
AcDbEntity
  8
RACCORDO
100
AcDbPolyline
 62
250
  6
CONTINUOUS
 90
12
 70
0
 10
-11.85
 20
40.4217414993
 10
-11.8464730111
 20
40.4166960574
 10
-11.8193048304
 20
40.4068656048
 10
-11.7655043028
 20
40.3970884168
 10
-11.6852455955
 20
40.3873751655
 10
-11.5785714618
 20
40.3777310323
 10
-11.4454874903
 20
40.3681671139
 10
-11.2863351633
 20
40.3587164679
 10
-11.101747879
 20
40.3494167102
 10
-10.8924631242
 20
40.3402988637
 10
-10.658820166
 20
40.3313723178
 10
-10.1190187678
 20
40.3141180702
  0
LWPOLYLINE
  5
2F8
100
AcDbEntity
  8
0
100
AcDbPolyline
 62
7
  6
CONTINUOUS
 90
12
 70
0
 10
-9.45
 20
41.2948846533
 10
-9.4475513618
 20
41.2911304274
 10
-9.4279698689
 20
41.2836297569
 10
-9.3888474687
 20
41.2761524138
 10
-9.3302652484
 20
41.2687138961
 10
-9.2523446286
 20
41.2613296214
 10
-9.1552471117
 20
41.2540148945
 10
-9.039173947
 20
41.2467848765
 10
-8.904365714
 20
41.2396545526
 10
-8.7511018233
 20
41.2326387016
 10
-8.5796999378
 20
41.2257518647
 10
-8.1839400658
 20
41.2124220329
  0
LWPOLYLINE
  5
2F9
100
AcDbEntity
  8
0
100
AcDbPolyline
 62
7
  6
CONTINUOUS
 90
5
 70
0
 10
50.2622676169
 20
25.0840886159
 10
50.237883404
 20
25.0564109923
 10
50.1661338227
 20
24.9877527437
 10
50.0864291583
 20
24.9285167385
 10
49.9999979891
 20
24.8796160481
  0
LINE
  5
2FA
100
AcDbEntity
  8
0
100
AcDbLine
 62
250
  6
CONTINUOUS
 10
50.4678629402
 20
19.3796119145
 11
50.0
 21
19.3796119211
  0
LWPOLYLINE
  5
2FB
100
AcDbEntity
  8
0
100
AcDbPolyline
 62
7
  6
CONTINUOUS
 90
13
 70
0
 10
-14.0
 20
36.5956004861
 10
-13.9901779926
 20
36.5864688465
 10
-13.9607939714
 20
36.5773372069
 10
-13.9119709385
 20
36.5682437925
 10
-13.8436274081
 20
36.5591887634
 10
-13.7558448659
 20
36.5501719595
 10
-13.6489907705
 20
36.5412311252
 10
-13.5229851768
 20
36.5323665789
 10
-13.3779080298
 20
36.5235780022
 10
-13.2143666243
 20
36.5149021841
 10
-13.0322835606
 20
36.5063395974
 10
-12.8317362383
 20
36.4978897693
 10
-12.3776934171
 20
36.4814351234
  0
LWPOLYLINE
  5
2FC
100
AcDbEntity
  8
RACCORDO
100
AcDbPolyline
 62
250
  6
CONTINUOUS
 90
11
 70
0
 10
-8.35
 20
44.034588621
 10
-8.3470131209
 20
44.0306911441
 10
-8.3238278659
 20
44.023059597
 10
-8.2776107565
 20
44.0154413335
 10
-8.2084342269
 20
44.0078681518
 10
-8.116632992
 20
44.0003767012
 10
-8.0027045495
 20
43.9929975928
 10
-7.8669199024
 20
43.9857403636
 10
-7.7093695919
 20
43.9786098528
 10
-7.5301575434
 20
43.9716165584
 10
-7.1096165921
 20
43.9581641153
  0
LWPOLYLINE
  5
2FD
100
AcDbEntity
  8
RACCORDO
100
AcDbPolyline
 62
250
  6
CONTINUOUS
 90
12
 70
0
 10
-10.1
 20
42.2616536079
 10
-10.0966536286
 20
42.2571164688
 10
-10.0710848777
 20
42.2483250715
 10
-10.0202397219
 20
42.2395448054
 10
-9.9441823884
 20
42.2308105266
 10
-9.8432664702
 20
42.2221629148
 10
-9.7180201074
 20
42.2136354275
 10
-9.5687083051
 20
42.2052366389
 10
-9.3953886501
 20
42.1969697249
 10
-9.1981314063
 20
42.1888446901
 10
-8.9775814778
 20
42.1808939664
 10
-8.4706347243
 20
42.1656521316
  0
LWPOLYLINE
  5
2FE
100
AcDbEntity
  8
0
100
AcDbPolyline
 62
7
  6
CONTINUOUS
 90
9
 70
0
 10
-8.35
 20
43.5945343522
 10
-8.3477766773
 20
43.5912125567
 10
-8.3305342227
 20
43.5845895495
 10
-8.295942249
 20
43.5779872537
 10
-8.2441078207
 20
43.5714055416
 10
-8.1753521321
 20
43.564885197
 10
-8.0895701131
 20
43.5584266009
 10
-7.9868668338
 20
43.5520293724
 10
-7.8678786997
 20
43.5457331521
  0
LINE
  5
2FF
100
AcDbEntity
  8
0
100
AcDbLine
 62
7
  6
CONTINUOUS
 10
24.5
 20
21.8796119145
 11
24.5
 21
22.0796119145
  0
LINE
  5
300
100
AcDbEntity
  8
0
100
AcDbLine
 62
7
  6
CONTINUOUS
 10
-0.6505
 20
23.6889119145
 11
-0.9949
 21
23.6602119145
  0
LINE
  5
301
100
AcDbEntity
  8
0
100
AcDbLine
 62
7
  6
CONTINUOUS
 10
-1.8108
 20
25.1690119145
 11
-1.4541
 21
25.1977119145
  0
LINE
  5
302
100
AcDbEntity
  8
0
100
AcDbLine
 62
7
  6
CONTINUOUS
 10
-24.5
 20
21.8796119145
 11
24.5
 21
21.8796119145
  0
LINE
  5
303
100
AcDbEntity
  8
0
100
AcDbLine
 62
7
  6
CONTINUOUS
 10
24.5
 20
22.0796119145
 11
-24.5
 21
22.0796119145
  0
LINE
  5
304
100
AcDbEntity
  8
0
100
AcDbLine
 62
250
  6
CONTINUOUS
 10
50.4678629402
 20
24.5796119145
 11
50.0
 21
24.5796119145
  0
LWPOLYLINE
  5
305
100
AcDbEntity
  8
0
100
AcDbPolyline
 62
7
  6
CONTINUOUS
 90
8
 70
0
 10
-11.85
 20
39.9950826496
 10
-11.8403533544
 20
39.9867597485
 10
-11.811506744
 20
39.9784368473
 10
-11.7636001581
 20
39.9701543363
 10
-11.6965409508
 20
39.9619124117
 10
-11.6104217681
 20
39.9537108772
 10
-11.5056605365
 20
39.9455895339
 10
-11.3821666418
 20
39.9375487716
  0
LWPOLYLINE
  5
306
100
AcDbEntity
  8
0
100
AcDbPolyline
 62
7
  6
CONTINUOUS
 90
10
 70
0
 10
-4.1
 20
45.3942602035
 10
-4.098380347
 20
45.3922845825
 10
-4.0859964213
 20
45.3883512494
 10
-4.0611159696
 20
45.3844359882
 10
-4.0238515922
 20
45.380538636
 10
-3.9745410904
 20
45.3766945222
 10
-3.9130749351
 20
45.372904131
 10
-3.8395626554
 20
45.3691669782
 10
-3.7546706393
 20
45.365516941
 10
-3.658295417
 20
45.3619548117
  0
LINE
  5
307
100
AcDbEntity
  8
DRAFT
100
AcDbLine
 62
7
  6
CONTINUOUS
 10
45.0
 20
29.2038218886
 11
49.2731956082
 21
29.2038218886
  0
LINE
  5
308
100
AcDbEntity
  8
DRAFT
100
AcDbLine
 62
7
  6
CONTINUOUS
 10
-45.0
 20
29.2038218886
 11
-49.2731956082
 21
29.2038218886
  0
LINE
  5
309
100
AcDbEntity
  8
DRAFT
100
AcDbLine
 62
7
  6
CONTINUOUS
 10
45.0
 20
29.4796119145
 11
49.0
 21
29.4796119145
  0
LINE
  5
30A
100
AcDbEntity
  8
DRAFT
100
AcDbLine
 62
7
  6
CONTINUOUS
 10
-45.0
 20
29.4796119145
 11
-49.0
 21
29.4796119145
  0
LINE
  5
30B
100
AcDbEntity
  8
DRAFT
100
AcDbLine
 62
250
  6
CONTINUOUS
 10
-43.5
 20
30.9796119145
 11
-43.2242099741
 21
30.9796119145
  0
LINE
  5
30C
100
AcDbEntity
  8
DRAFT
100
AcDbLine
 62
250
  6
CONTINUOUS
 10
43.5
 20
30.9796119145
 11
43.2242099741
 21
30.9796119145
  0
LINE
  5
30D
100
AcDbEntity
  8
RACCORDO
100
AcDbLine
 62
250
  6
CONTINUOUS
 10
49.0
 20
30.9796119145
 11
51.0
 21
30.9796119145
  0
LINE
  5
30E
100
AcDbEntity
  8
RACCORDO
100
AcDbLine
 62
250
  6
CONTINUOUS
 10
-49.0
 20
30.9796119145
 11
-51.0
 21
30.9796119145
  0
LWPOLYLINE
  5
30F
100
AcDbEntity
  8
0
100
AcDbPolyline
 62
7
  6
CONTINUOUS
 90
11
 70
0
 10
-7.85
 20
43.0946105046
 10
-7.8411086126
 20
43.088091716
 10
-7.8144545922
 20
43.0815876945
 10
-7.7700983188
 20
43.0751131739
 10
-7.7081402735
 20
43.068682821
 10
-7.6287208113
 20
43.0623112026
 10
-7.5320198429
 20
43.0560127526
 10
-7.4182564269
 20
43.0498017388
 10
-7.2876882742
 20
43.0436922314
 10
-7.1406111635
 20
43.0376980702
 10
-6.7982994197
 20
43.0261098093
  0
LWPOLYLINE
  5
310
100
AcDbEntity
  8
0
100
AcDbPolyline
 62
7
  6
CONTINUOUS
 90
9
 70
0
 10
-10.1
 20
41.7948085009
 10
-10.0903444761
 20
41.7871246668
 10
-10.0614874188
 20
41.7794408328
 10
-10.0135930999
 20
41.7718007397
 10
-9.9465529418
 20
41.7642046372
 10
-9.8604755222
 20
41.7566522756
 10
-9.7558508455
 20
41.7491866477
 10
-9.632573129
 20
41.7418082481
 10
-9.4907481555
 20
41.7345165821
  0
LWPOLYLINE
  5
311
100
AcDbEntity
  8
RACCORDO
100
AcDbPolyline
 62
250
  6
CONTINUOUS
 90
10
 70
0
 10
-4.1
 20
45.7333679549
 10
-4.0975463148
 20
45.7308927768
 10
-4.0808828735
 20
45.7264660857
 10
-4.0486473036
 20
45.7220783243
 10
-4.0010060243
 20
45.7177390267
 10
-3.9380294019
 20
45.7134544268
 10
-3.8597739195
 20
45.7092347086
 10
-3.7665740779
 20
45.7051030338
 10
-3.6589951647
 20
45.701084524
 10
-3.4029938098
 20
45.6934571126
  0
LINE
  5
312
100
AcDbEntity
  8
0
100
AcDbLine
 62
250
  6
CONTINUOUS
 10
31.9
 20
-45.4882510257
 11
31.9000000066
 21
-45.0203880855
  0
LWPOLYLINE
  5
313
100
AcDbEntity
  8
0
100
AcDbPolyline
 62
7
  6
CONTINUOUS
 90
17
 70
0
 10
-11.5
 20
-45.6363766571
 10
-11.4751333499
 20
-45.6232692106
 10
-11.4011624165
 20
-45.6101617642
 10
-11.2790307246
 20
-45.5972215078
 10
-11.1081213441
 20
-45.5844505831
 10
-10.8890512052
 20
-45.5718468484
 10
-10.6246146239
 20
-45.5595710689
 10
-10.3142304645
 20
-45.5476274454
 10
-9.9584798627
 20
-45.5360117771
 10
-9.5619005415
 20
-45.5248722257
 10
-9.1239694925
 20
-45.5142148902
 10
-8.6452097239
 20
-45.5040336718
 10
-8.1317279836
 20
-45.4944584353
 10
-7.5830794896
 20
-45.4854969432
 10
-6.9997090237
 20
-45.4771414332
 10
-6.3890576797
 20
-45.4694984825
 10
-5.7507759946
 20
-45.462577219
  0
LINE
  5
314
100
AcDbEntity
  8
0
100
AcDbLine
 62
7
  6
CONTINUOUS
 10
13.0322835606
 20
36.5063395974
 11
12.6135641506
 21
36.489588071
  0
LINE
  5
315
100
AcDbEntity
  8
0
100
AcDbLine
 62
7
  6
CONTINUOUS
 10
12.6135641506
 20
36.489588071
 11
12.1241979183
 21
36.4734303055
  0
LINE
  5
316
100
AcDbEntity
  8
0
100
AcDbLine
 62
7
  6
CONTINUOUS
 10
12.1241979183
 20
36.4734303055
 11
11.5674465973
 21
36.4579663451
  0
LINE
  5
317
100
AcDbEntity
  8
0
100
AcDbLine
 62
7
  6
CONTINUOUS
 10
11.5674465973
 20
36.4579663451
 11
10.9456407546
 21
36.4432609221
  0
LINE
  5
318
100
AcDbEntity
  8
0
100
AcDbLine
 62
7
  6
CONTINUOUS
 10
10.9456407546
 20
36.4432609221
 11
10.262529897
 21
36.4294087318
  0
LINE
  5
319
100
AcDbEntity
  8
0
100
AcDbLine
 62
7
  6
CONTINUOUS
 10
10.262529897
 20
36.4294087318
 11
9.5225695601
 21
36.4164946433
  0
LINE
  5
31A
100
AcDbEntity
  8
0
100
AcDbLine
 62
7
  6
CONTINUOUS
 10
9.5225695601
 20
36.4164946433
 11
8.728857226
 21
36.4045727149
  0
LINE
  5
31B
100
AcDbEntity
  8
0
100
AcDbLine
 62
7
  6
CONTINUOUS
 10
8.728857226
 20
36.4045727149
 11
7.886255774
 21
36.3937207066
  0
LINE
  5
31C
100
AcDbEntity
  8
0
100
AcDbLine
 62
7
  6
CONTINUOUS
 10
7.886255774
 20
36.3937207066
 11
7.0001911224
 21
36.3840040563
  0
LINE
  5
31D
100
AcDbEntity
  8
0
100
AcDbLine
 62
7
  6
CONTINUOUS
 10
7.0001911224
 20
36.3840040563
 11
6.0743723476
 21
36.3754634379
  0
LINE
  5
31E
100
AcDbEntity
  8
0
100
AcDbLine
 62
7
  6
CONTINUOUS
 10
6.0743723476
 20
36.3754634379
 11
5.1145318564
 21
36.3681557766
  0
LINE
  5
31F
100
AcDbEntity
  8
0
100
AcDbLine
 62
7
  6
CONTINUOUS
 10
5.1145318564
 20
36.3681557766
 11
4.1267938716
 21
36.3621237979
  0
LINE
  5
320
100
AcDbEntity
  8
0
100
AcDbLine
 62
7
  6
CONTINUOUS
 10
4.1267938716
 20
36.3621237979
 11
3.1152930754
 21
36.3573927517
  0
LINE
  5
321
100
AcDbEntity
  8
0
100
AcDbLine
 62
7
  6
CONTINUOUS
 10
3.1152930754
 20
36.3573927517
 11
2.086343955
 21
36.353995874
  0
LINE
  5
322
100
AcDbEntity
  8
0
100
AcDbLine
 62
7
  6
CONTINUOUS
 10
2.086343955
 20
36.353995874
 11
1.0471920276
 21
36.3519517511
  0
LINE
  5
323
100
AcDbEntity
  8
0
100
AcDbLine
 62
7
  6
CONTINUOUS
 10
1.0471920276
 20
36.3519517511
 11
-0.0
 21
36.351266796
  0
LINE
  5
324
100
AcDbEntity
  8
DRAFT
100
AcDbLine
 62
7
  6
CONTINUOUS
 10
-45.0
 20
34.9796119145
 11
-43.5
 21
34.9796119145
  0
LINE
  5
325
100
AcDbEntity
  8
DRAFT
100
AcDbLine
 62
7
  6
CONTINUOUS
 10
45.0
 20
34.9796119145
 11
43.5
 21
34.9796119145
  0
LINE
  5
326
100
AcDbEntity
  8
RACCORDO
100
AcDbLine
 62
250
  6
CONTINUOUS
 10
43.2242099741
 20
35.2528075227
 11
-43.2242099741
 21
35.2528075227
  0
LINE
  5
327
100
AcDbEntity
  8
RACCORDO
100
AcDbLine
 62
7
  6
CONTINUOUS
 10
-45.0
 20
35.255401887
 11
-43.2242100275
 21
35.255401887
  0
LINE
  5
328
100
AcDbEntity
  8
RACCORDO
100
AcDbLine
 62
7
  6
CONTINUOUS
 10
45.0
 20
35.255401887
 11
43.2242100275
 21
35.255401887
  0
LINE
  5
329
100
AcDbEntity
  8
0
100
AcDbLine
 62
7
  6
CONTINUOUS
 10
-31.6
 20
35.9796119145
 11
-37.4
 21
35.9796119145
  0
LINE
  5
32A
100
AcDbEntity
  8
0
100
AcDbLine
 62
250
  6
CONTINUOUS
 10
45.0
 20
36.3526399874
 11
1.4678073572
 21
36.3526399874
  0
LINE
  5
32B
100
AcDbEntity
  8
0
100
AcDbLine
 62
250
  6
CONTINUOUS
 10
-1.5675026654
 20
36.3528031149
 11
-30.9233978585
 21
36.3526399874
  0
LINE
  5
32C
100
AcDbEntity
  8
0
100
AcDbLine
 62
250
  6
CONTINUOUS
 10
-38.0766021371
 20
36.3526399874
 11
-45.0
 21
36.3526399874
  0
LINE
  5
32D
100
AcDbEntity
  8
0
100
AcDbLine
 62
250
  6
CONTINUOUS
 10
-37.3231028985
 20
36.4470435167
 11
-31.9
 21
36.4474748547
  0
LINE
  5
32E
100
AcDbEntity
  8
0
100
AcDbLine
 62
7
  6
CONTINUOUS
 10
-1.5675026654
 20
36.3528031149
 11
-0.0
 21
36.351266796
  0
LINE
  5
32F
100
AcDbEntity
  8
0
100
AcDbLine
 62
7
  6
CONTINUOUS
 10
-3.1152930754
 20
36.3573927517
 11
-1.5675026654
 21
36.3528031149
  0
LINE
  5
330
100
AcDbEntity
  8
0
100
AcDbLine
 62
250
  6
CONTINUOUS
 10
-31.9
 20
36.4474748547
 11
-31.6034101874
 21
36.4467031008
  0
LINE
  5
331
100
AcDbEntity
  8
0
100
AcDbLine
 62
7
  6
CONTINUOUS
 10
-4.6239068674
 20
36.364977989
 11
-3.1152930754
 21
36.3573927517
  0
LINE
  5
332
100
AcDbEntity
  8
0
100
AcDbLine
 62
7
  6
CONTINUOUS
 10
-6.0743723476
 20
36.3754634379
 11
-4.6239068674
 21
36.364977989
  0
LINE
  5
333
100
AcDbEntity
  8
0
100
AcDbLine
 62
250
  6
CONTINUOUS
 10
-31.6034101874
 20
36.4467031008
 11
-31.3916841109
 21
36.445103337
  0
LINE
  5
334
100
AcDbEntity
  8
0
100
AcDbLine
 62
7
  6
CONTINUOUS
 10
-7.4484490712
 20
36.388717238
 11
-6.0743723476
 21
36.3754634379
  0
LINE
  5
335
100
AcDbEntity
  8
0
100
AcDbLine
 62
7
  6
CONTINUOUS
 10
-8.728857226
 20
36.4045727149
 11
-7.4484490712
 21
36.388717238
  0
LINE
  5
336
100
AcDbEntity
  8
0
100
AcDbLine
 62
250
  6
CONTINUOUS
 10
-31.3916841109
 20
36.445103337
 11
-31.2042925094
 21
36.4426862391
  0
LINE
  5
337
100
AcDbEntity
  8
0
100
AcDbLine
 62
7
  6
CONTINUOUS
 10
-9.8994949366
 20
36.4228304769
 11
-8.728857226
 21
36.4045727149
  0
LINE
  5
338
100
AcDbEntity
  8
0
100
AcDbLine
 62
7
  6
CONTINUOUS
 10
-10.6117324248
 20
36.4362283959
 11
-9.8994949366
 21
36.4228304769
  0
LINE
  5
339
100
AcDbEntity
  8
0
100
AcDbLine
 62
250
  6
CONTINUOUS
 10
-31.2042925094
 20
36.4426862391
 11
-31.0987371009
 21
36.4406832802
  0
LINE
  5
33A
100
AcDbEntity
  8
0
100
AcDbLine
 62
7
  6
CONTINUOUS
 10
-11.8541387892
 20
36.4656071256
 11
-10.6117324248
 21
36.4362283959
  0
LWPOLYLINE
  5
33B
100
AcDbEntity
  8
0
100
AcDbPolyline
 62
250
  6
CONTINUOUS
 90
9
 70
0
 10
-31.0987371009
 20
36.4406832802
 10
-31.0122294961
 20
36.4384256844
 10
-30.9767374976
 20
36.4372277022
 10
-30.9468276152
 20
36.4359912859
 10
-30.922328787
 20
36.4347170186
 10
-30.9034373809
 20
36.4334314661
 10
-30.8902188531
 20
36.4321434836
 10
-30.8826077474
 20
36.4308442159
 10
-30.880604064
 20
36.429533663
  0
LINE
  5
33C
100
AcDbEntity
  8
0
100
AcDbLine
 62
7
  6
CONTINUOUS
 10
-12.3776934171
 20
36.4814351234
 11
-11.8541387892
 21
36.4656071256
  0
LWPOLYLINE
  5
33D
100
AcDbEntity
  8
0
100
AcDbPolyline
 62
250
  6
CONTINUOUS
 90
7
 70
0
 10
-38.1193959356
 20
36.4295450911
 10
-38.0202668465
 20
36.4233927659
 10
-37.9226660227
 20
36.4050056701
 10
-37.8280978962
 20
36.3746672246
 10
-37.7380201527
 20
36.3328450704
 10
-37.6538212623
 20
36.2801838594
 10
-37.6044767013
 20
36.2418795314
  0
LINE
  5
33E
100
AcDbEntity
  8
0
100
AcDbLine
 62
250
  6
CONTINUOUS
 10
37.1
 20
-45.4882510257
 11
37.1
 21
-45.0203880855
  0
LINE
  5
33F
100
AcDbEntity
  8
0
100
AcDbLine
 62
7
  6
CONTINUOUS
 10
-11.3516115151
 20
39.5011867784
 11
-13.2306563404
 21
38.9988442024
  0
LWPOLYLINE
  5
340
100
AcDbEntity
  8
0
100
AcDbPolyline
 62
250
  6
CONTINUOUS
 90
7
 70
0
 10
-30.8806040641
 20
36.4295336301
 10
-30.9797329699
 20
36.4233834706
 10
-31.0773338562
 20
36.4049984086
 10
-31.1719022564
 20
36.3746618403
 10
-31.2619804478
 20
36.3328413878
 10
-31.346179922
 20
36.2801816915
 10
-31.408874807
 20
36.2304000478
  0
LWPOLYLINE
  5
341
100
AcDbEntity
  8
0
100
AcDbPolyline
 62
7
  6
CONTINUOUS
 90
4
 70
0
 10
11.3821666418
 20
39.9375487716
 10
11.2400306983
 20
39.9295882006
 10
11.0799424758
 20
39.9217464526
 10
10.9018147128
 20
39.9140241051
  0
LWPOLYLINE
  5
342
100
AcDbEntity
  8
0
100
AcDbPolyline
 62
7
  6
CONTINUOUS
 90
16
 70
0
 10
-30.9233915413
 20
36.3526399874
 10
-30.9736587743
 20
36.3501088887
 10
-31.0235603111
 20
36.344516563
 10
-31.0730961515
 20
36.3358464312
 10
-31.1224070462
 20
36.3241057273
 10
-31.1713522445
 20
36.3092876313
 10
-31.2195094946
 20
36.2913374623
 10
-31.2668659597
 20
36.2702716889
 10
-31.3134344766
 20
36.2460715127
 10
-31.358831304
 20
36.2185541152
 10
-31.4031447988
 20
36.1876825715
 10
-31.4462866042
 20
36.1534374745
 10
-31.4876079082
 20
36.1155675994
 10
-31.5268924401
 20
36.0739437206
 10
-31.5643564708
 20
36.0286232769
 10
-31.6
 20
35.9796119145
  0
LINE
  5
343
100
AcDbEntity
  8
0
100
AcDbLine
 62
7
  6
CONTINUOUS
 10
9.4907481555
 20
41.7345165821
 11
9.3311832784
 21
41.7273531582
  0
LWPOLYLINE
  5
344
100
AcDbEntity
  8
RACCORDO
100
AcDbPolyline
 62
250
  6
CONTINUOUS
 90
11
 70
0
 10
10.6648530882
 20
40.3315893741
 10
10.8978970479
 20
40.3405205806
 10
11.1065705722
 20
40.3496425903
 10
11.2905347372
 20
40.3589459921
 10
11.4490544915
 20
40.3683997638
 10
11.5814991791
 20
40.3779662967
 10
11.6875294499
 20
40.3876125371
 10
11.7671401408
 20
40.3973273798
 10
11.8202886307
 20
40.4071056333
 10
11.846801364
 20
40.4169366189
 10
11.85
 20
40.4217414993
  0
LWPOLYLINE
  5
345
100
AcDbEntity
  8
RACCORDO
100
AcDbPolyline
 62
250
  6
CONTINUOUS
 90
12
 70
0
 10
10.4647369492
 20
40.6230146197
 10
10.6934080422
 20
40.6317782436
 10
10.8981659957
 20
40.6407290884
 10
11.0786782574
 20
40.6498579163
 10
11.2342235575
 20
40.6591342906
 10
11.3641830592
 20
40.6685213119
 10
11.4682237718
 20
40.6779865492
 10
11.5463406365
 20
40.6875191032
 10
11.5984918407
 20
40.6971138776
 10
11.624507089
 20
40.7067603934
 10
11.6241849013
 20
40.7164258826
 10
11.6029478508
 20
40.7246946165
  0
LWPOLYLINE
  5
346
100
AcDbEntity
  8
RACCORDO
100
AcDbPolyline
 62
250
  6
CONTINUOUS
 90
13
 70
0
 10
11.771156282
 20
38.8772730838
 10
12.0365812922
 20
38.8867294777
 10
12.2768967653
 20
38.8963789474
 10
12.4920019656
 20
38.9062175185
 10
12.6815847278
 20
38.9162366077
 10
12.8449273525
 20
38.9264047723
 10
12.9814102383
 20
38.9366833702
 10
13.0907085205
 20
38.9470386343
 10
13.1728411475
 20
38.9574607797
 10
13.2277828506
 20
38.9679466773
 10
13.2553630748
 20
38.9784871979
 10
13.255369705
 20
38.9890480943
 10
13.2306563448
 20
38.9988442012
  0
LINE
  5
347
100
AcDbEntity
  8
0
100
AcDbLine
 62
7
  6
CONTINUOUS
 10
9.3311832784
 20
41.7273531582
 11
8.9586314566
 21
41.7134125
  0
LINE
  5
348
100
AcDbEntity
  8
0
100
AcDbLine
 62
7
  6
CONTINUOUS
 10
10.4631467705
 20
39.4183978495
 11
10.0584106243
 21
39.4033868935
  0
LINE
  5
349
100
AcDbEntity
  8
0
100
AcDbLine
 62
7
  6
CONTINUOUS
 10
10.9018147128
 20
39.9140241051
 11
10.492653904
 21
39.8989727781
  0
LWPOLYLINE
  5
34A
100
AcDbEntity
  8
RACCORDO
100
AcDbPolyline
 62
250
  6
CONTINUOUS
 90
13
 70
0
 10
12.1225753081
 20
37.8957708227
 10
12.4291754424
 20
37.9055410784
 10
12.7094379726
 20
37.9155260935
 10
12.9631873246
 20
37.9257149757
 10
13.1903171206
 20
37.9361035316
 10
13.3904977378
 20
37.9466826995
 10
13.5629713631
 20
37.9574192774
 10
13.7070837674
 20
37.9682724609
 10
13.8224919306
 20
37.9792065944
 10
13.909215856
 20
37.990211347
 10
13.967228857
 20
38.0012834158
 10
13.996350842
 20
38.0124131619
 10
14.0
 20
38.0179914681
  0
LINE
  5
34B
100
AcDbEntity
  8
0
100
AcDbLine
 62
7
  6
CONTINUOUS
 10
8.5796999378
 20
41.2257518647
 11
8.1839400658
 21
41.2124220329
  0
LINE
  5
34C
100
AcDbEntity
  8
RACCORDO
100
AcDbLine
 62
250
  6
CONTINUOUS
 10
10.1262145657
 20
40.3143244147
 11
10.6648530882
 21
40.3315893741
  0
LINE
  5
34D
100
AcDbEntity
  8
RACCORDO
100
AcDbLine
 62
250
  6
CONTINUOUS
 10
9.9362054581
 20
40.6060736287
 11
10.4647369492
 21
40.6230146197
  0
LINE
  5
34E
100
AcDbEntity
  8
0
100
AcDbLine
 62
7
  6
CONTINUOUS
 10
10.0584106243
 20
39.4033868935
 11
9.5831219544
 21
39.3890196515
  0
LINE
  5
34F
100
AcDbEntity
  8
0
100
AcDbLine
 62
7
  6
CONTINUOUS
 10
10.492653904
 20
39.8989727781
 11
10.0153249243
 21
39.8845458532
  0
LINE
  5
350
100
AcDbEntity
  8
RACCORDO
100
AcDbLine
 62
250
  6
CONTINUOUS
 10
11.1662929118
 20
38.8590005165
 11
11.771156282
 21
38.8772730838
  0
LINE
  5
351
100
AcDbEntity
  8
0
100
AcDbLine
 62
7
  6
CONTINUOUS
 10
8.9586314566
 20
41.7134125
 11
8.5183578418
 21
41.700103709
  0
LINE
  5
352
100
AcDbEntity
  8
RACCORDO
100
AcDbLine
 62
250
  6
CONTINUOUS
 10
11.4341531213
 20
37.8770043868
 11
12.1225753081
 21
37.8957708227
  0
LINE
  5
353
100
AcDbEntity
  8
0
100
AcDbLine
 62
7
  6
CONTINUOUS
 10
8.1839400658
 20
41.2124220329
 11
7.7203654889
 21
41.1997755123
  0
LINE
  5
354
100
AcDbEntity
  8
RACCORDO
100
AcDbLine
 62
250
  6
CONTINUOUS
 10
9.4951200261
 20
40.2980075142
 11
10.1262145657
 21
40.3143244147
  0
LINE
  5
355
100
AcDbEntity
  8
RACCORDO
100
AcDbLine
 62
250
  6
CONTINUOUS
 10
9.3169527716
 20
40.5900629183
 11
9.9362054581
 21
40.6060736287
  0
LINE
  5
356
100
AcDbEntity
  8
0
100
AcDbLine
 62
7
  6
CONTINUOUS
 10
10.0153249243
 20
39.8845458532
 11
9.4735146301
 21
39.8708466265
  0
LINE
  5
357
100
AcDbEntity
  8
0
100
AcDbLine
 62
250
  6
CONTINUOUS
 10
-37.9877724809
 20
36.4384256262
 11
-37.9012662548
 21
36.4406832054
  0
LINE
  5
358
100
AcDbEntity
  8
0
100
AcDbLine
 62
7
  6
CONTINUOUS
 10
9.5831219544
 20
39.3890196515
 11
9.0406145696
 21
39.3753968994
  0
LINE
  5
359
100
AcDbEntity
  8
0
100
AcDbLine
 62
7
  6
CONTINUOUS
 10
8.5183578418
 20
41.700103709
 11
8.0128687369
 21
41.6875025469
  0
LINE
  5
35A
100
AcDbEntity
  8
RACCORDO
100
AcDbLine
 62
250
  6
CONTINUOUS
 10
10.4694677519
 20
38.841785963
 11
11.1662929118
 21
38.8590005165
  0
LINE
  5
35B
100
AcDbEntity
  8
RACCORDO
100
AcDbLine
 62
250
  6
CONTINUOUS
 10
10.652699554
 20
37.8594529106
 11
11.4341531213
 21
37.8770043868
  0
LINE
  5
35C
100
AcDbEntity
  8
0
100
AcDbLine
 62
7
  6
CONTINUOUS
 10
7.7203654889
 20
41.1997755123
 11
7.1928175323
 21
41.187917096
  0
LINE
  5
35D
100
AcDbEntity
  8
0
100
AcDbLine
 62
7
  6
CONTINUOUS
 10
9.4735146301
 20
39.8708466265
 11
8.8698523658
 21
39.8579415788
  0
LINE
  5
35E
100
AcDbEntity
  8
0
100
AcDbLine
 62
7
  6
CONTINUOUS
 10
9.0406145696
 20
39.3753968994
 11
8.4346937692
 21
39.362614191
  0
LINE
  5
35F
100
AcDbEntity
  8
RACCORDO
100
AcDbLine
 62
250
  6
CONTINUOUS
 10
8.7801548685
 20
40.2828534782
 11
9.4951200261
 21
40.2980075142
  0
LINE
  5
360
100
AcDbEntity
  8
RACCORDO
100
AcDbLine
 62
250
  6
CONTINUOUS
 10
8.6154032894
 20
40.5751932313
 11
9.3169527716
 21
40.5900629183
  0
LINE
  5
361
100
AcDbEntity
  8
0
100
AcDbLine
 62
7
  6
CONTINUOUS
 10
8.0128687369
 20
41.6875025469
 11
7.4462714621
 21
41.6757197273
  0
LINE
  5
362
100
AcDbEntity
  8
RACCORDO
100
AcDbLine
 62
250
  6
CONTINUOUS
 10
9.6868413266
 20
38.8257691427
 11
10.4694677519
 21
38.841785963
  0
LINE
  5
363
100
AcDbEntity
  8
RACCORDO
100
AcDbLine
 62
250
  6
CONTINUOUS
 10
9.7820795021
 20
37.8431963007
 11
10.652699554
 21
37.8594529106
  0
LINE
  5
364
100
AcDbEntity
  8
0
100
AcDbLine
 62
7
  6
CONTINUOUS
 10
7.1928175323
 20
41.187917096
 11
6.6056676242
 21
41.1769450466
  0
LINE
  5
365
100
AcDbEntity
  8
0
100
AcDbLine
 62
250
  6
CONTINUOUS
 10
-37.9012662548
 20
36.4406832054
 11
-37.7957117065
 21
36.442686171
  0
LINE
  5
366
100
AcDbEntity
  8
0
100
AcDbLine
 62
7
  6
CONTINUOUS
 10
8.8698523658
 20
39.8579415788
 11
8.2085648699
 21
39.8459275026
  0
LINE
  5
367
100
AcDbEntity
  8
0
100
AcDbLine
 62
7
  6
CONTINUOUS
 10
8.4346937692
 20
39.362614191
 11
7.7696096523
 21
39.3507611878
  0
LINE
  5
368
100
AcDbEntity
  8
RACCORDO
100
AcDbLine
 62
250
  6
CONTINUOUS
 10
7.9847820301
 20
40.2689300045
 11
8.7801548685
 21
40.2828534782
  0
LINE
  5
369
100
AcDbEntity
  8
RACCORDO
100
AcDbLine
 62
250
  6
CONTINUOUS
 10
7.8349548859
 20
40.5615310226
 11
8.6154032894
 21
40.5751932313
  0
LINE
  5
36A
100
AcDbEntity
  8
0
100
AcDbLine
 62
7
  6
CONTINUOUS
 10
7.4462714621
 20
41.6757197273
 11
6.8236305449
 21
41.6648531449
  0
LINE
  5
36B
100
AcDbEntity
  8
RACCORDO
100
AcDbLine
 62
250
  6
CONTINUOUS
 10
8.8220033156
 20
38.8110279216
 11
9.6868413266
 21
38.8257691427
  0
LINE
  5
36C
100
AcDbEntity
  8
RACCORDO
100
AcDbLine
 62
250
  6
CONTINUOUS
 10
8.8291589668
 20
37.828372901
 11
9.7820795021
 21
37.8431963007
  0
LINE
  5
36D
100
AcDbEntity
  8
0
100
AcDbLine
 62
7
  6
CONTINUOUS
 10
8.2085648699
 20
39.8459275026
 11
7.4946483119
 21
39.8348892939
  0
LINE
  5
36E
100
AcDbEntity
  8
0
100
AcDbLine
 62
7
  6
CONTINUOUS
 10
6.6056676242
 20
41.1769450466
 11
5.9637810739
 21
41.1669502819
  0
LINE
  5
36F
100
AcDbEntity
  8
0
100
AcDbLine
 62
7
  6
CONTINUOUS
 10
7.7696096523
 20
39.3507611878
 11
7.0500273062
 21
39.3399210301
  0
LINE
  5
370
100
AcDbEntity
  8
0
100
AcDbLine
 62
7
  6
CONTINUOUS
 10
6.8236305449
 20
41.6648531449
 11
6.148490433
 21
41.654964659
  0
LINE
  5
371
100
AcDbEntity
  8
RACCORDO
100
AcDbLine
 62
250
  6
CONTINUOUS
 10
7.1161615574
 20
40.2563733943
 11
7.9847820301
 21
40.2689300045
  0
LINE
  5
372
100
AcDbEntity
  8
RACCORDO
100
AcDbLine
 62
250
  6
CONTINUOUS
 10
6.9826332462
 20
40.5492100422
 11
7.8349548859
 21
40.5615310226
  0
LINE
  5
373
100
AcDbEntity
  8
RACCORDO
100
AcDbLine
 62
250
  6
CONTINUOUS
 10
7.884756538
 20
38.7977346825
 11
8.8220033156
 21
38.8110279216
  0
LINE
  5
374
100
AcDbEntity
  8
0
100
AcDbLine
 62
7
  6
CONTINUOUS
 10
7.4946483119
 20
39.8348892939
 11
6.7315672488
 21
39.8248805199
  0
LINE
  5
375
100
AcDbEntity
  8
RACCORDO
100
AcDbLine
 62
250
  6
CONTINUOUS
 10
7.8049487999
 20
37.8151506788
 11
8.8291589668
 21
37.828372901
  0
LINE
  5
376
100
AcDbEntity
  8
0
100
AcDbLine
 62
7
  6
CONTINUOUS
 10
5.9637810739
 20
41.1669502819
 11
5.2724767553
 21
41.1580156217
  0
LINE
  5
377
100
AcDbEntity
  8
0
100
AcDbLine
 62
7
  6
CONTINUOUS
 10
7.0500273062
 20
39.3399210301
 11
6.2809940839
 21
39.3301697538
  0
LINE
  5
378
100
AcDbEntity
  8
0
100
AcDbLine
 62
7
  6
CONTINUOUS
 10
6.148490433
 20
41.654964659
 11
5.4264603731
 21
41.6461426577
  0
LINE
  5
379
100
AcDbEntity
  8
RACCORDO
100
AcDbLine
 62
250
  6
CONTINUOUS
 10
6.8831696147
 20
38.7859964447
 11
7.884756538
 21
38.7977346825
  0
LINE
  5
37A
100
AcDbEntity
  8
RACCORDO
100
AcDbLine
 62
250
  6
CONTINUOUS
 10
6.1858012876
 20
40.2453440636
 11
7.1161615574
 21
40.2563733943
  0
LINE
  5
37B
100
AcDbEntity
  8
RACCORDO
100
AcDbLine
 62
250
  6
CONTINUOUS
 10
6.0697302609
 20
40.5383877088
 11
6.9826332462
 21
40.5492100422
  0
LINE
  5
37C
100
AcDbEntity
  8
0
100
AcDbLine
 62
250
  6
CONTINUOUS
 10
-37.7957117065
 20
36.442686171
 11
-37.6083194091
 21
36.4451033
  0
LINE
  5
37D
100
AcDbEntity
  8
0
100
AcDbLine
 62
7
  6
CONTINUOUS
 10
6.7315672488
 20
39.8248805199
 11
5.9247528622
 21
39.815977507
  0
LINE
  5
37E
100
AcDbEntity
  8
RACCORDO
100
AcDbLine
 62
250
  6
CONTINUOUS
 10
6.7152307701
 20
37.8035997028
 11
7.8049487999
 21
37.8151506788
  0
LINE
  5
37F
100
AcDbEntity
  8
0
100
AcDbLine
 62
7
  6
CONTINUOUS
 10
6.2809940839
 20
39.3301697538
 11
5.4679042011
 21
39.3215757571
  0
LINE
  5
380
100
AcDbEntity
  8
0
100
AcDbLine
 62
7
  6
CONTINUOUS
 10
5.2724767553
 20
41.1580156217
 11
4.5374830339
 21
41.1502151014
  0
LINE
  5
381
100
AcDbEntity
  8
0
100
AcDbLine
 62
7
  6
CONTINUOUS
 10
5.4264603731
 20
41.6461426577
 11
4.663884103
 21
41.6384588236
  0
LINE
  5
382
100
AcDbEntity
  8
RACCORDO
100
AcDbLine
 62
250
  6
CONTINUOUS
 10
5.8227821908
 20
38.7758802116
 11
6.8831696147
 21
38.7859964447
  0
LINE
  5
383
100
AcDbEntity
  8
RACCORDO
100
AcDbLine
 62
250
  6
CONTINUOUS
 10
5.2077120957
 20
40.2359719416
 11
6.1858012876
 21
40.2453440636
  0
LINE
  5
384
100
AcDbEntity
  8
RACCORDO
100
AcDbLine
 62
250
  6
CONTINUOUS
 10
5.109994073
 20
40.5291914245
 11
6.0697302609
 21
40.5383877088
  0
LINE
  5
385
100
AcDbEntity
  8
0
100
AcDbLine
 62
7
  6
CONTINUOUS
 10
5.9247528622
 20
39.815977507
 11
5.0802202758
 21
39.8082418169
  0
LINE
  5
386
100
AcDbEntity
  8
0
100
AcDbLine
 62
7
  6
CONTINUOUS
 10
5.4679042011
 20
39.3215757571
 11
4.6164608989
 21
39.3141993208
  0
LINE
  5
387
100
AcDbEntity
  8
RACCORDO
100
AcDbLine
 62
250
  6
CONTINUOUS
 10
5.5687749508
 20
37.7938188919
 11
6.7152307701
 21
37.8035997028
  0
LINE
  5
388
100
AcDbEntity
  8
0
100
AcDbLine
 62
7
  6
CONTINUOUS
 10
4.5374830339
 20
41.1502151014
 11
3.764890299
 21
41.1436133585
  0
LINE
  5
389
100
AcDbEntity
  8
0
100
AcDbLine
 62
7
  6
CONTINUOUS
 10
4.663884103
 20
41.6384588236
 11
3.8651026669
 21
41.6319568978
  0
LINE
  5
38A
100
AcDbEntity
  8
RACCORDO
100
AcDbLine
 62
250
  6
CONTINUOUS
 10
4.7144668222
 20
38.7674940943
 11
5.8227821908
 21
38.7758802116
  0
LINE
  5
38B
100
AcDbEntity
  8
0
100
AcDbLine
 62
7
  6
CONTINUOUS
 10
5.0802202758
 20
39.8082418169
 11
4.2020679115
 21
39.8017109902
  0
LINE
  5
38C
100
AcDbEntity
  8
RACCORDO
100
AcDbLine
 62
250
  6
CONTINUOUS
 10
4.1967200972
 20
40.2283344709
 11
5.2077120957
 21
40.2359719416
  0
LINE
  5
38D
100
AcDbEntity
  8
0
100
AcDbLine
 62
7
  6
CONTINUOUS
 10
4.6164608989
 20
39.3141993208
 11
3.7326364405
 21
39.3080921853
  0
LINE
  5
38E
100
AcDbEntity
  8
RACCORDO
100
AcDbLine
 62
250
  6
CONTINUOUS
 10
4.3771480375
 20
37.7859069161
 11
5.5687749508
 21
37.7938188919
  0
LINE
  5
38F
100
AcDbEntity
  8
RACCORDO
100
AcDbLine
 62
250
  6
CONTINUOUS
 10
3.6135634828
 20
40.5185931313
 11
5.109994073
 21
40.5291914245
  0
LINE
  5
390
100
AcDbEntity
  8
0
100
AcDbLine
 62
7
  6
CONTINUOUS
 10
3.764890299
 20
41.1436133585
 11
2.9611004975
 21
41.1382650973
  0
LWPOLYLINE
  5
391
100
AcDbEntity
  8
0
100
AcDbPolyline
 62
250
  6
CONTINUOUS
 90
3
 70
0
 10
-37.6083194091
 20
36.4451033
 10
-37.3965924537
 20
36.4467030891
 10
-37.3231028985
 20
36.4470435167
  0
LINE
  5
392
100
AcDbEntity
  8
0
100
AcDbLine
 62
7
  6
CONTINUOUS
 10
3.8651026669
 20
41.6319568978
 11
3.0368449772
 21
41.6266969196
  0
LINE
  5
393
100
AcDbEntity
  8
0
100
AcDbLine
 62
7
  6
CONTINUOUS
 10
4.2020679115
 20
39.8017109902
 11
3.2966157537
 21
39.7964364513
  0
LINE
  5
394
100
AcDbEntity
  8
RACCORDO
100
AcDbLine
 62
250
  6
CONTINUOUS
 10
3.5682703527
 20
38.7609094306
 11
4.7144668222
 21
38.7674940943
  0
LINE
  5
395
100
AcDbEntity
  8
0
100
AcDbLine
 62
7
  6
CONTINUOUS
 10
3.7326364405
 20
39.3080921853
 11
2.8226302193
 21
39.3032971876
  0
LINE
  5
396
100
AcDbEntity
  8
RACCORDO
100
AcDbLine
 62
250
  6
CONTINUOUS
 10
3.1513444041
 20
37.7799282254
 11
4.3771480375
 21
37.7859069161
  0
LINE
  5
397
100
AcDbEntity
  8
RACCORDO
100
AcDbLine
 62
250
  6
CONTINUOUS
 10
2.6635116582
 20
40.2202223577
 11
4.1967200972
 21
40.2283344709
  0
LINE
  5
398
100
AcDbEntity
  8
0
100
AcDbLine
 62
7
  6
CONTINUOUS
 10
2.9611004975
 20
41.1382650973
 11
2.1327740846
 21
41.134214635
  0
LINE
  5
399
100
AcDbEntity
  8
0
100
AcDbLine
 62
7
  6
CONTINUOUS
 10
3.0368449772
 20
41.6266969196
 11
2.1863016669
 21
41.6227194744
  0
LINE
  5
39A
100
AcDbEntity
  8
0
100
AcDbLine
 62
7
  6
CONTINUOUS
 10
3.2966157537
 20
39.7964364513
 11
2.3705483031
 21
39.79245285
  0
LINE
  5
39B
100
AcDbEntity
  8
RACCORDO
100
AcDbLine
 62
250
  6
CONTINUOUS
 10
2.1384044406
 20
40.5120061683
 11
3.6135634828
 21
40.5185931313
  0
LINE
  5
39C
100
AcDbEntity
  8
RACCORDO
100
AcDbLine
 62
250
  6
CONTINUOUS
 10
2.3950962972
 20
38.7561784358
 11
3.5682703527
 21
38.7609094306
  0
LINE
  5
39D
100
AcDbEntity
  8
0
100
AcDbLine
 62
7
  6
CONTINUOUS
 10
2.8226302193
 20
39.3032971876
 11
1.8928252752
 21
39.2998479614
  0
LINE
  5
39E
100
AcDbEntity
  8
RACCORDO
100
AcDbLine
 62
250
  6
CONTINUOUS
 10
1.9014262907
 20
37.775921725
 11
3.1513444041
 21
37.7799282254
  0
LINE
  5
39F
100
AcDbEntity
  8
0
100
AcDbLine
 62
7
  6
CONTINUOUS
 10
2.1327740846
 20
41.134214635
 11
1.286774834
 21
41.1314955351
  0
LINE
  5
3A0
100
AcDbEntity
  8
0
100
AcDbLine
 62
7
  6
CONTINUOUS
 10
2.1863016669
 20
41.6227194744
 11
1.3183145414
 21
41.6200472042
  0
LINE
  5
3A1
100
AcDbEntity
  8
0
100
AcDbLine
 62
7
  6
CONTINUOUS
 10
2.3705483031
 20
39.79245285
 11
1.428359661
 21
39.7897795185
  0
LINE
  5
3A2
100
AcDbEntity
  8
RACCORDO
100
AcDbLine
 62
250
  6
CONTINUOUS
 10
1.2025612621
 20
38.7533253022
 11
2.3950962972
 21
38.7561784358
  0
LINE
  5
3A3
100
AcDbEntity
  8
0
100
AcDbLine
 62
7
  6
CONTINUOUS
 10
1.8928252752
 20
39.2998479614
 11
0.9497435218
 21
39.2977687003
  0
LINE
  5
3A4
100
AcDbEntity
  8
RACCORDO
100
AcDbLine
 62
250
  6
CONTINUOUS
 10
0.8210144891
 20
40.2154274498
 11
2.6635116582
 21
40.2202223577
  0
LINE
  5
3A5
100
AcDbEntity
  8
RACCORDO
100
AcDbLine
 62
250
  6
CONTINUOUS
 10
0.6355407745
 20
37.7739096436
 11
1.9014262907
 21
37.775921725
  0
LINE
  5
3A6
100
AcDbEntity
  8
0
100
AcDbLine
 62
7
  6
CONTINUOUS
 10
1.286774834
 20
41.1314955351
 11
0.4301129618
 21
41.1301303289
  0
LINE
  5
3A7
100
AcDbEntity
  8
0
100
AcDbLine
 62
7
  6
CONTINUOUS
 10
1.428359661
 20
39.7897795185
 11
0.478434187
 21
39.7884416193
  0
LINE
  5
3A8
100
AcDbEntity
  8
0
100
AcDbLine
 62
7
  6
CONTINUOUS
 10
1.3183145414
 20
41.6200472042
 11
0.4419444835
 21
41.6187096193
  0
LINE
  5
3A9
100
AcDbEntity
  8
RACCORDO
100
AcDbLine
 62
250
  6
CONTINUOUS
 10
0.3939981935
 20
40.5086611572
 11
2.1384044406
 21
40.5120061683
  0
LINE
  5
3AA
100
AcDbEntity
  8
0
100
AcDbLine
 62
7
  6
CONTINUOUS
 10
0.9497435218
 20
39.2977687003
 11
-0.0
 21
39.297073989
  0
LINE
  5
3AB
100
AcDbEntity
  8
ASSI
100
AcDbLine
 62
7
  6
CONTINUOUS
 10
-45.0
 20
36.9796119145
 11
-14.0
 21
36.9796119145
  0
LINE
  5
3AC
100
AcDbEntity
  8
DRAFT
100
AcDbLine
 62
7
  6
CONTINUOUS
 10
45.0
 20
36.9796119145
 11
14.0
 21
36.9796119145
  0
LINE
  5
3AD
100
AcDbEntity
  8
ASSI
100
AcDbLine
 62
7
  6
CONTINUOUS
 10
14.0
 20
36.9796119145
 11
45.0
 21
36.9796119145
  0
LINE
  5
3AE
100
AcDbEntity
  8
DRAFT
100
AcDbLine
 62
7
  6
CONTINUOUS
 10
-14.0
 20
36.9796119145
 11
-45.0
 21
36.9796119145
  0
LINE
  5
3AF
100
AcDbEntity
  8
RACCORDO
100
AcDbLine
 62
250
  6
CONTINUOUS
 10
-0.6355415611
 20
37.7739096455
 11
0.6355407745
 21
37.7739096436
  0
LINE
  5
3B0
100
AcDbEntity
  8
RACCORDO
100
AcDbLine
 62
250
  6
CONTINUOUS
 10
-0.6018950709
 20
38.7526102368
 11
1.2025612621
 21
38.7533253022
  0
LINE
  5
3B1
100
AcDbEntity
  8
RACCORDO
100
AcDbLine
 62
250
  6
CONTINUOUS
 10
-0.8187066735
 20
40.2154246571
 11
0.8210144891
 21
40.2154274498
  0
LINE
  5
3B2
100
AcDbEntity
  8
0
100
AcDbLine
 62
7
  6
CONTINUOUS
 10
-0.954554074
 20
39.7889442477
 11
0.478434187
 21
39.7884416193
  0
LINE
  5
3B3
100
AcDbEntity
  8
0
100
AcDbLine
 62
7
  6
CONTINUOUS
 10
-0.8593344488
 20
41.1306427237
 11
0.4301129618
 21
41.1301303289
  0
LINE
  5
3B4
100
AcDbEntity
  8
0
100
AcDbLine
 62
7
  6
CONTINUOUS
 10
-0.881382664
 20
41.6192122888
 11
0.4419444835
 21
41.6187096193
  0
LINE
  5
3B5
100
AcDbEntity
  8
RACCORDO
100
AcDbLine
 62
250
  6
CONTINUOUS
 10
-1.2307323565
 20
40.5096845654
 11
0.3939981935
 21
40.5086611572
  0
LINE
  5
3B6
100
AcDbEntity
  8
0
100
AcDbLine
 62
7
  6
CONTINUOUS
 10
-1.422532201
 20
39.2986359469
 11
-0.0
 21
39.297073989
  0
LINE
  5
3B7
100
AcDbEntity
  8
RACCORDO
100
AcDbLine
 62
250
  6
CONTINUOUS
 10
-1.90142673
 20
37.7759217278
 11
-0.6355415611
 21
37.7739096455
  0
LINE
  5
3B8
100
AcDbEntity
  8
RACCORDO
100
AcDbLine
 62
250
  6
CONTINUOUS
 10
-2.3950945575
 20
38.7561784382
 11
-0.6018950709
 21
38.7526102368
  0
LINE
  5
3B9
100
AcDbEntity
  8
RACCORDO
100
AcDbLine
 62
250
  6
CONTINUOUS
 10
-2.1730567133
 20
40.2184375842
 11
-0.8187066735
 21
40.2154246571
  0
LINE
  5
3BA
100
AcDbEntity
  8
0
100
AcDbLine
 62
7
  6
CONTINUOUS
 10
-2.3705483031
 20
39.79245285
 11
-0.954554074
 21
39.7889442477
  0
LINE
  5
3BB
100
AcDbEntity
  8
0
100
AcDbLine
 62
7
  6
CONTINUOUS
 10
-2.1863016669
 20
41.6227194744
 11
-0.881382664
 21
41.6192122888
  0
LINE
  5
3BC
100
AcDbEntity
  8
RACCORDO
100
AcDbLine
 62
250
  6
CONTINUOUS
 10
-3.1513397198
 20
37.7799282053
 11
-1.90142673
 21
37.7759217278
  0
LINE
  5
3BD
100
AcDbEntity
  8
RACCORDO
100
AcDbLine
 62
250
  6
CONTINUOUS
 10
-2.6061432027
 20
40.513707845
 11
-1.2307323565
 21
40.5096845654
  0
LINE
  5
3BE
100
AcDbEntity
  8
0
100
AcDbLine
 62
7
  6
CONTINUOUS
 10
-2.1327740846
 20
41.134214635
 11
-0.8593344488
 21
41.1306427237
  0
LINE
  5
3BF
100
AcDbEntity
  8
0
100
AcDbLine
 62
7
  6
CONTINUOUS
 10
-2.8226302193
 20
39.3032971876
 11
-1.422532201
 21
39.2986359469
  0
LINE
  5
3C0
100
AcDbEntity
  8
RACCORDO
100
AcDbLine
 62
250
  6
CONTINUOUS
 10
-3.5682659273
 20
38.7609093917
 11
-2.3950945575
 21
38.7561784382
  0
LINE
  5
3C1
100
AcDbEntity
  8
RACCORDO
100
AcDbLine
 62
250
  6
CONTINUOUS
 10
-3.6727880715
 20
40.2251146598
 11
-2.1730567133
 21
40.2184375842
  0
LINE
  5
3C2
100
AcDbEntity
  8
RACCORDO
100
AcDbLine
 62
250
  6
CONTINUOUS
 10
-4.3771453006
 20
37.7859068984
 11
-3.1513397198
 21
37.7799282053
  0
LINE
  5
3C3
100
AcDbEntity
  8
0
100
AcDbLine
 62
7
  6
CONTINUOUS
 10
-3.7527460333
 20
39.7989170655
 11
-2.3705483031
 21
39.79245285
  0
LINE
  5
3C4
100
AcDbEntity
  8
0
100
AcDbLine
 62
7
  6
CONTINUOUS
 10
-3.4546478764
 20
41.6291721067
 11
-2.1863016669
 21
41.6227194744
  0
LINE
  5
3C5
100
AcDbEntity
  8
RACCORDO
100
AcDbLine
 62
250
  6
CONTINUOUS
 10
-4.1074134586
 20
40.5216275228
 11
-2.6061432027
 21
40.513707845
  0
LINE
  5
3C6
100
AcDbEntity
  8
RACCORDO
100
AcDbLine
 62
250
  6
CONTINUOUS
 10
-4.7144685924
 20
38.7674940992
 11
-3.5682659273
 21
38.7609093917
  0
LINE
  5
3C7
100
AcDbEntity
  8
0
100
AcDbLine
 62
7
  6
CONTINUOUS
 10
-3.3664841745
 20
41.1407795247
 11
-2.1327740846
 21
41.134214635
  0
LINE
  5
3C8
100
AcDbEntity
  8
0
100
AcDbLine
 62
7
  6
CONTINUOUS
 10
-4.178213673
 20
39.3109842006
 11
-2.8226302193
 21
39.3032971876
  0
LINE
  5
3C9
100
AcDbEntity
  8
RACCORDO
100
AcDbLine
 62
250
  6
CONTINUOUS
 10
-5.5687894167
 20
37.7938190012
 11
-4.3771453006
 21
37.7859068984
  0
LINE
  5
3CA
100
AcDbEntity
  8
0
100
AcDbLine
 62
7
  6
CONTINUOUS
 10
-5.0802202758
 20
39.8082418169
 11
-3.7527460333
 21
39.7989170655
  0
LINE
  5
3CB
100
AcDbEntity
  8
RACCORDO
100
AcDbLine
 62
250
  6
CONTINUOUS
 10
-5.822821507
 20
38.7758805457
 11
-4.7144685924
 21
38.7674940992
  0
LINE
  5
3CC
100
AcDbEntity
  8
RACCORDO
100
AcDbLine
 62
250
  6
CONTINUOUS
 10
-5.1960031525
 20
40.235872103
 11
-3.6727880715
 21
40.2251146598
  0
LINE
  5
3CD
100
AcDbEntity
  8
0
100
AcDbLine
 62
7
  6
CONTINUOUS
 10
-4.663884103
 20
41.6384588236
 11
-3.4546478764
 21
41.6291721067
  0
LINE
  5
3CE
100
AcDbEntity
  8
RACCORDO
100
AcDbLine
 62
250
  6
CONTINUOUS
 10
-6.7153058365
 20
37.8036004183
 11
-5.5687894167
 21
37.7938190012
  0
LINE
  5
3CF
100
AcDbEntity
  8
RACCORDO
100
AcDbLine
 62
250
  6
CONTINUOUS
 10
-5.5834214706
 20
40.5334713148
 11
-4.1074134586
 21
40.5216275228
  0
LINE
  5
3D0
100
AcDbEntity
  8
0
100
AcDbLine
 62
7
  6
CONTINUOUS
 10
-4.5374830339
 20
41.1502151014
 11
-3.3664841745
 21
41.1407795247
  0
LINE
  5
3D1
100
AcDbEntity
  8
0
100
AcDbLine
 62
7
  6
CONTINUOUS
 10
-5.4679042011
 20
39.3215757571
 11
-4.178213673
 21
39.3109842006
  0
LINE
  5
3D2
100
AcDbEntity
  8
RACCORDO
100
AcDbLine
 62
250
  6
CONTINUOUS
 10
-6.8832639634
 20
38.7859974389
 11
-5.822821507
 21
38.7758805457
  0
LINE
  5
3D3
100
AcDbEntity
  8
RACCORDO
100
AcDbLine
 62
250
  6
CONTINUOUS
 10
-6.1740255665
 20
40.2452184501
 11
-5.1960031525
 21
40.235872103
  0
LINE
  5
3D4
100
AcDbEntity
  8
0
100
AcDbLine
 62
7
  6
CONTINUOUS
 10
-6.3336134671
 20
39.8202911284
 11
-5.0802202758
 21
39.8082418169
  0
LINE
  5
3D5
100
AcDbEntity
  8
RACCORDO
100
AcDbLine
 62
250
  6
CONTINUOUS
 10
-7.8050560244
 20
37.8151519347
 11
-6.7153058365
 21
37.8036004183
  0
LINE
  5
3D6
100
AcDbEntity
  8
RACCORDO
100
AcDbLine
 62
250
  6
CONTINUOUS
 10
-6.5218896911
 20
40.5434717661
 11
-5.5834214706
 21
40.5334713148
  0
LINE
  5
3D7
100
AcDbEntity
  8
0
100
AcDbLine
 62
7
  6
CONTINUOUS
 10
-5.7933199795
 20
41.6504207268
 11
-4.663884103
 21
41.6384588236
  0
LINE
  5
3D8
100
AcDbEntity
  8
0
100
AcDbLine
 62
7
  6
CONTINUOUS
 10
-6.6713626135
 20
39.334904822
 11
-5.4679042011
 21
39.3215757571
  0
LINE
  5
3D9
100
AcDbEntity
  8
RACCORDO
100
AcDbLine
 62
250
  6
CONTINUOUS
 10
-7.8848581358
 20
38.7977359891
 11
-6.8832639634
 21
38.7859974389
  0
LINE
  5
3DA
100
AcDbEntity
  8
RACCORDO
100
AcDbLine
 62
250
  6
CONTINUOUS
 10
-7.1049987666
 20
40.2562272618
 11
-6.1740255665
 21
40.2452184501
  0
LINE
  5
3DB
100
AcDbEntity
  8
0
100
AcDbLine
 62
7
  6
CONTINUOUS
 10
-5.6239571696
 20
41.1623455981
 11
-4.5374830339
 21
41.1502151014
  0
LINE
  5
3DC
100
AcDbEntity
  8
RACCORDO
100
AcDbLine
 62
250
  6
CONTINUOUS
 10
-8.8292693254
 20
37.8283744656
 11
-7.8050560244
 21
37.8151519347
  0
LINE
  5
3DD
100
AcDbEntity
  8
0
100
AcDbLine
 62
7
  6
CONTINUOUS
 10
-7.4946483119
 20
39.8348892939
 11
-6.3336134671
 21
39.8202911284
  0
LINE
  5
3DE
100
AcDbEntity
  8
RACCORDO
100
AcDbLine
 62
250
  6
CONTINUOUS
 10
-7.4062984516
 20
40.5550360704
 11
-6.5218896911
 21
40.5434717661
  0
LINE
  5
3DF
100
AcDbEntity
  8
RACCORDO
100
AcDbLine
 62
250
  6
CONTINUOUS
 10
-8.8221186399
 20
38.8110297118
 11
-7.8848581358
 21
38.7977359891
  0
LINE
  5
3E0
100
AcDbEntity
  8
RACCORDO
100
AcDbLine
 62
250
  6
CONTINUOUS
 10
-7.9744815291
 20
40.2687662609
 11
-7.1049987666
 21
40.2562272618
  0
LINE
  5
3E1
100
AcDbEntity
  8
0
100
AcDbLine
 62
7
  6
CONTINUOUS
 10
-6.8236305449
 20
41.6648531449
 11
-5.7933199795
 21
41.6504207268
  0
LINE
  5
3E2
100
AcDbEntity
  8
0
100
AcDbLine
 62
7
  6
CONTINUOUS
 10
-7.7696096523
 20
39.3507611878
 11
-6.6713626135
 21
39.334904822
  0
LINE
  5
3E3
100
AcDbEntity
  8
RACCORDO
100
AcDbLine
 62
250
  6
CONTINUOUS
 10
-9.7822143742
 20
37.8431985992
 11
-8.8292693254
 21
37.8283744656
  0
LINE
  5
3E4
100
AcDbEntity
  8
0
100
AcDbLine
 62
7
  6
CONTINUOUS
 10
-6.6056676242
 20
41.1769450466
 11
-5.6239571696
 21
41.1623455981
  0
LINE
  5
3E5
100
AcDbEntity
  8
RACCORDO
100
AcDbLine
 62
250
  6
CONTINUOUS
 10
-8.2252941211
 20
40.5680394176
 11
-7.4062984516
 21
40.5550360704
  0
LINE
  5
3E6
100
AcDbEntity
  8
0
100
AcDbLine
 62
7
  6
CONTINUOUS
 10
-8.5463943079
 20
39.8518234392
 11
-7.4946483119
 21
39.8348892939
  0
LINE
  5
3E7
100
AcDbEntity
  8
RACCORDO
100
AcDbLine
 62
250
  6
CONTINUOUS
 10
-9.6869761674
 20
38.8257716576
 11
-8.8221186399
 21
38.8110297118
  0
LINE
  5
3E8
100
AcDbEntity
  8
RACCORDO
100
AcDbLine
 62
250
  6
CONTINUOUS
 10
-8.7708239457
 20
40.2826740203
 11
-7.9744815291
 21
40.2687662609
  0
LINE
  5
3E9
100
AcDbEntity
  8
0
100
AcDbLine
 62
7
  6
CONTINUOUS
 10
-8.4346937692
 20
39.362614191
 11
-7.7696096523
 21
39.3507611878
  0
LINE
  5
3EA
100
AcDbEntity
  8
RACCORDO
100
AcDbLine
 62
250
  6
CONTINUOUS
 10
-10.6528402899
 20
37.8594557905
 11
-9.7822143742
 21
37.8431985992
  0
LINE
  5
3EB
100
AcDbEntity
  8
0
100
AcDbLine
 62
7
  6
CONTINUOUS
 10
-7.1928175323
 20
41.187917096
 11
-6.6056676242
 21
41.1769450466
  0
LINE
  5
3EC
100
AcDbEntity
  8
0
100
AcDbLine
 62
7
  6
CONTINUOUS
 10
-7.7371868999
 20
41.6815091352
 11
-6.8236305449
 21
41.6648531449
  0
LINE
  5
3ED
100
AcDbEntity
  8
RACCORDO
100
AcDbLine
 62
250
  6
CONTINUOUS
 10
-8.9674813069
 20
40.5822961805
 11
-8.2252941211
 21
40.5680394176
  0
LINE
  5
3EE
100
AcDbEntity
  8
0
100
AcDbLine
 62
7
  6
CONTINUOUS
 10
-9.178869188
 20
39.8642830012
 11
-8.5463943079
 21
39.8518234392
  0
LINE
  5
3EF
100
AcDbEntity
  8
RACCORDO
100
AcDbLine
 62
250
  6
CONTINUOUS
 10
-10.469595515
 20
38.8417888289
 11
-9.6869761674
 21
38.8257716576
  0
LINE
  5
3F0
100
AcDbEntity
  8
0
100
AcDbLine
 62
7
  6
CONTINUOUS
 10
-9.0406145696
 20
39.3753968994
 11
-8.4346937692
 21
39.362614191
  0
LINE
  5
3F1
100
AcDbEntity
  8
RACCORDO
100
AcDbLine
 62
250
  6
CONTINUOUS
 10
-9.4868181336
 20
40.2978137068
 11
-8.7708239457
 21
40.2826740203
  0
LINE
  5
3F2
100
AcDbEntity
  8
RACCORDO
100
AcDbLine
 62
250
  6
CONTINUOUS
 10
-11.43428343
 20
37.8770076053
 11
-10.6528402899
 21
37.8594557905
  0
LINE
  5
3F3
100
AcDbEntity
  8
0
100
AcDbLine
 62
7
  6
CONTINUOUS
 10
-7.7203654889
 20
41.1997755123
 11
-7.1928175323
 21
41.187917096
  0
LINE
  5
3F4
100
AcDbEntity
  8
0
100
AcDbLine
 62
7
  6
CONTINUOUS
 10
-8.2732300897
 20
41.693701126
 11
-7.7371868999
 21
41.6815091352
  0
LINE
  5
3F5
100
AcDbEntity
  8
0
100
AcDbLine
 62
7
  6
CONTINUOUS
 10
-9.7523588108
 20
39.877600602
 11
-9.178869188
 21
39.8642830012
  0
LINE
  5
3F6
100
AcDbEntity
  8
RACCORDO
100
AcDbLine
 62
250
  6
CONTINUOUS
 10
-9.6297565967
 20
40.5977396202
 11
-8.9674813069
 21
40.5822961805
  0
LINE
  5
3F7
100
AcDbEntity
  8
RACCORDO
100
AcDbLine
 62
250
  6
CONTINUOUS
 10
-11.1664154588
 20
38.859003854
 11
-10.469595515
 21
38.8417888289
  0
LINE
  5
3F8
100
AcDbEntity
  8
0
100
AcDbLine
 62
7
  6
CONTINUOUS
 10
-9.5831219544
 20
39.3890196515
 11
-9.0406145696
 21
39.3753968994
  0
LINE
  5
3F9
100
AcDbEntity
  8
RACCORDO
100
AcDbLine
 62
250
  6
CONTINUOUS
 10
-10.1190187678
 20
40.3141180702
 11
-9.4868181336
 21
40.2978137068
  0
LINE
  5
3FA
100
AcDbEntity
  8
0
100
AcDbLine
 62
7
  6
CONTINUOUS
 10
-8.1839400658
 20
41.2124220329
 11
-7.7203654889
 21
41.1997755123
  0
LINE
  5
3FB
100
AcDbEntity
  8
0
100
AcDbLine
 62
7
  6
CONTINUOUS
 10
-8.7468565782
 20
41.7066738484
 11
-8.2732300897
 21
41.693701126
  0
LINE
  5
3FC
100
AcDbEntity
  8
0
100
AcDbLine
 62
7
  6
CONTINUOUS
 10
-10.2624897764
 20
39.8916814546
 11
-9.7523588108
 21
39.877600602
  0
LINE
  5
3FD
100
AcDbEntity
  8
0
100
AcDbLine
 62
7
  6
CONTINUOUS
 10
-10.0584106243
 20
39.4033868935
 11
-9.5831219544
 21
39.3890196515
  0
LWPOLYLINE
  5
3FE
100
AcDbEntity
  8
0
100
AcDbPolyline
 62
7
  6
CONTINUOUS
 90
4
 70
0
 10
-9.4907481555
 20
41.7345165821
 10
-9.3311832784
 20
41.7273531582
 10
-9.1537773193
 20
41.720318708
 10
-8.7468565782
 20
41.7066738484
  0
LWPOLYLINE
  5
3FF
100
AcDbEntity
  8
0
100
AcDbPolyline
 62
7
  6
CONTINUOUS
 90
6
 70
0
 10
-11.3821666418
 20
39.9375487716
 10
-11.2400306983
 20
39.9295882006
 10
-11.0799424758
 20
39.9217464526
 10
-10.9018147128
 20
39.9140241051
 10
-10.7057346707
 20
39.9064205806
 10
-10.2624897764
 20
39.8916814546
  0
LINE
  5
400
100
AcDbEntity
  8
0
100
AcDbLine
 62
7
  6
CONTINUOUS
 10
11.3516115151
 20
39.5011867784
 11
13.2306563404
 21
38.9988442024
  0
LWPOLYLINE
  5
401
100
AcDbEntity
  8
RACCORDO
100
AcDbPolyline
 62
7
  6
CONTINUOUS
 90
22
 70
0
 10
13.2306563456
 20
38.998844201
 10
13.2611312349
 20
38.9902676541
 10
13.2940463617
 20
38.9799938866
 10
13.3293788913
 20
38.9677186448
 10
13.3670342718
 20
38.9531206079
 10
13.4069372391
 20
38.935828097
 10
13.449011005
 20
38.9154148991
 10
13.4926535491
 20
38.8916852124
 10
13.5379562718
 20
38.8640466921
 10
13.5856461896
 20
38.831284763
 10
13.6357848008
 20
38.7922519895
 10
13.6868999927
 20
38.7468315773
 10
13.7372726449
 20
38.6953964213
 10
13.786285585
 20
38.6374072175
 10
13.8328146155
 20
38.5728571103
 10
13.874823424
 20
38.5035280908
 10
13.9115414517
 20
38.4300916031
 10
13.9426473572
 20
38.3524819773
 10
13.9673756276
 20
38.2718557871
 10
13.985331715
 20
38.1889839208
 10
13.9962947756
 20
38.104166255
 10
14.0
 20
38.0179914681
  0
LWPOLYLINE
  5
402
100
AcDbEntity
  8
0
100
AcDbPolyline
 62
250
  6
CONTINUOUS
 90
10
 70
0
 10
50.4499217485
 20
18.3602159785
 10
50.441295107
 20
18.3644744654
 10
50.432689154
 20
18.36885547
 10
50.4241038895
 20
18.3733589923
 10
50.4155392647
 20
18.3779829297
 10
50.4069953283
 20
18.3827293847
 10
50.3984722264
 20
18.3876046658
 10
50.3899700075
 20
18.3926108756
 10
50.381488623
 20
18.3977459113
 10
50.3730280729
 20
18.403009773
  0
LWPOLYLINE
  5
403
100
AcDbEntity
  8
0
100
AcDbPolyline
 62
7
  6
CONTINUOUS
 90
10
 70
0
 10
-3.6
 20
44.8943363559
 10
-3.5938615534
 20
44.8906873839
 10
-3.5755693092
 20
44.887038412
 10
-3.5453079108
 20
44.883426273
 10
-3.5029561329
 20
44.8798513402
 10
-3.4486352008
 20
44.8763132404
 10
-3.3828934348
 20
44.8728476875
 10
-3.3056151629
 20
44.8694554163
 10
-3.216916057
 20
44.8661356921
 10
-3.0078347488
 20
44.8598154872
  0
LWPOLYLINE
  5
404
100
AcDbEntity
  8
0
100
AcDbPolyline
 62
7
  6
CONTINUOUS
 90
17
 70
0
 10
50.6160501144
 20
-16.0203875448
 10
50.6028811251
 20
-15.9955214354
 10
50.5897736787
 20
-15.921550502
 10
50.5768334223
 20
-15.7994188101
 10
50.5640624976
 20
-15.6285094296
 10
50.551458763
 20
-15.4094392907
 10
50.5391829834
 20
-15.1450027094
 10
50.52723936
 20
-14.83461855
 10
50.5156236916
 20
-14.4788679482
 10
50.5044841402
 20
-14.082288627
 10
50.4938268048
 20
-13.6443575779
 10
50.4836455863
 20
-13.1655978094
 10
50.4740703498
 20
-12.6521160691
 10
50.4651088577
 20
-12.1034675751
 10
50.4567533477
 20
-11.5200971092
 10
50.449110397
 20
-10.9094457652
 10
50.4421891335
 20
-10.2711640801
  0
LINE
  5
405
100
AcDbEntity
  8
DRAFT
100
AcDbLine
 62
7
  6
CONTINUOUS
 10
43.2242099741
 20
35.2528075227
 11
43.2242099741
 21
30.9796119145
  0
LINE
  5
406
100
AcDbEntity
  8
DRAFT
100
AcDbLine
 62
7
  6
CONTINUOUS
 10
43.2242099741
 20
-44.2935836937
 11
43.2242099741
 21
-40.0203880855
  0
LINE
  5
407
100
AcDbEntity
  8
DRAFT
100
AcDbLine
 62
7
  6
CONTINUOUS
 10
43.5
 20
34.9796119145
 11
43.5
 21
30.9796119145
  0
LINE
  5
408
100
AcDbEntity
  8
DRAFT
100
AcDbLine
 62
7
  6
CONTINUOUS
 10
43.5
 20
-44.0203880855
 11
43.5
 21
-40.0203880855
  0
LINE
  5
409
100
AcDbEntity
  8
DRAFT
100
AcDbLine
 62
250
  6
CONTINUOUS
 10
45.0
 20
29.4796119145
 11
45.0
 21
29.2038218886
  0
LINE
  5
40A
100
AcDbEntity
  8
DRAFT
100
AcDbLine
 62
250
  6
CONTINUOUS
 10
45.0
 20
-38.5203880855
 11
45.0
 21
-38.2445980596
  0
LINE
  5
40B
100
AcDbEntity
  8
RACCORDO
100
AcDbLine
 62
250
  6
CONTINUOUS
 10
45.0
 20
-44.0203880855
 11
45.0
 21
-46.0203880855
  0
LINE
  5
40C
100
AcDbEntity
  8
RACCORDO
100
AcDbLine
 62
250
  6
CONTINUOUS
 10
45.0
 20
34.9796119145
 11
45.0
 21
36.9796119145
  0
LWPOLYLINE
  5
40D
100
AcDbEntity
  8
0
100
AcDbPolyline
 62
7
  6
CONTINUOUS
 90
17
 70
0
 10
11.5
 20
-45.6363766571
 10
11.4751333499
 20
-45.6494841035
 10
11.4011624165
 20
-45.66259155
 10
11.2790307246
 20
-45.6755318064
 10
11.1081213441
 20
-45.6883027311
 10
10.8890512052
 20
-45.7009064657
 10
10.6246146239
 20
-45.7131822452
 10
10.3142304645
 20
-45.7251258687
 10
9.9584798627
 20
-45.7367415371
 10
9.5619005415
 20
-45.7478810884
 10
9.1239694925
 20
-45.7585384239
 10
8.6452097239
 20
-45.7687196424
 10
8.1317279836
 20
-45.7782948789
 10
7.5830794896
 20
-45.7872563709
 10
6.9997090237
 20
-45.795611881
 10
6.3890576797
 20
-45.8032548316
 10
5.7507759946
 20
-45.8101760951
  0
LINE
  5
40E
100
AcDbEntity
  8
0
100
AcDbLine
 62
7
  6
CONTINUOUS
 10
-9.4513417461
 20
41.2999035411
 11
-11.6029477407
 21
40.724694646
  0
LINE
  5
40F
100
AcDbEntity
  8
0
100
AcDbLine
 62
7
  6
CONTINUOUS
 10
-7.8511145721
 20
43.0987796336
 11
-9.8566648691
 21
42.5626171702
  0
LINE
  5
410
100
AcDbEntity
  8
0
100
AcDbLine
 62
7
  6
CONTINUOUS
 10
-5.9872555597
 20
44.9011577884
 11
-8.1103819975
 21
44.3335625987
  0
LINE
  5
411
100
AcDbEntity
  8
0
100
AcDbLine
 62
7
  6
CONTINUOUS
 10
-0.9978759266
 20
46.7951838821
 11
-3.8694093095
 21
46.0275100847
  0
LWPOLYLINE
  5
412
100
AcDbEntity
  8
0
100
AcDbPolyline
 62
7
  6
CONTINUOUS
 90
3
 70
0
 10
7.8678786997
 20
43.5457331521
 10
7.7325045921
 20
43.5395385672
 10
7.5808456296
 20
43.5334449906
  0
LWPOLYLINE
  5
413
100
AcDbEntity
  8
RACCORDO
100
AcDbPolyline
 62
250
  6
CONTINUOUS
 90
10
 70
0
 10
9.2047877118
 20
42.1891013649
 10
9.4012943911
 20
42.1972316162
 10
9.5738572425
 20
42.2055033352
 10
9.7224022957
 20
42.213906384
 10
9.8468688278
 20
42.2224374097
 10
9.9469921523
 20
42.2310877372
 10
10.0222490995
 20
42.2398239823
 10
10.0722906698
 20
42.248605548
 10
10.0970555488
 20
42.2573976087
 10
10.1
 20
42.2616536079
  0
LWPOLYLINE
  5
414
100
AcDbEntity
  8
RACCORDO
100
AcDbPolyline
 62
250
  6
CONTINUOUS
 90
11
 70
0
 10
9.0021417036
 20
42.480432255
 10
9.1943222636
 20
42.4883835079
 10
9.3630860978
 20
42.4964731221
 10
9.5083608783
 20
42.5046911786
 10
9.6300872405
 20
42.5130343924
 10
9.7280063381
 20
42.5214942763
 10
9.8016065069
 20
42.5300381843
 10
9.8505464158
 20
42.538626417
 10
9.8747660934
 20
42.5472249169
 10
9.874373019
 20
42.5558244725
 10
9.8566649295
 20
42.562617154
  0
LWPOLYLINE
  5
415
100
AcDbEntity
  8
0
100
AcDbPolyline
 62
7
  6
CONTINUOUS
 90
9
 70
0
 10
-5.4690866775
 20
44.9373997028
 10
-5.5852424919
 20
44.9325928362
 10
-5.6874322948
 20
44.9276903085
 10
-5.7757593101
 20
44.9226928267
 10
-5.8495674731
 20
44.9176375106
 10
-5.9087486747
 20
44.9125239294
 10
-5.9534110239
 20
44.9073525139
 10
-5.9832227831
 20
44.9021616757
 10
-5.9872670073
 20
44.9011547273
  0
LWPOLYLINE
  5
416
100
AcDbEntity
  8
RACCORDO
100
AcDbPolyline
 62
250
  6
CONTINUOUS
 90
10
 70
0
 10
7.534139656
 20
43.971761803
 10
7.7129068755
 20
43.9787584652
 10
7.8700049777
 20
43.9858919618
 10
8.005330063
 20
43.9931517777
 10
8.118791398
 20
44.0005330506
 10
8.2101184676
 20
44.0080262271
 10
8.2788159027
 20
44.0156006979
 10
8.3245513611
 20
44.0232198196
 10
8.3472543223
 20
44.030851797
 10
8.35
 20
44.034588621
  0
LWPOLYLINE
  5
417
100
AcDbEntity
  8
RACCORDO
100
AcDbPolyline
 62
250
  6
CONTINUOUS
 90
11
 70
0
 10
7.3335110297
 20
44.2631684743
 10
7.5075178519
 20
44.2699788087
 10
7.6604325518
 20
44.2769223443
 10
7.7921540157
 20
44.2839888404
 10
7.902593954
 20
44.2911735568
 10
7.9914890717
 20
44.2984671902
 10
8.0583571755
 20
44.3058399506
 10
8.102874755
 20
44.3132561751
 10
8.1249731586
 20
44.3206849173
 10
8.1247383769
 20
44.3281159231
 10
8.1103821084
 20
44.3335625691
  0
LWPOLYLINE
  5
418
100
AcDbEntity
  8
RACCORDO
100
AcDbPolyline
 62
250
  6
CONTINUOUS
 90
9
 70
0
 10
3.6719523175
 20
45.7015357882
 10
3.7778862537
 20
45.7055666891
 10
3.8694579068
 20
45.7097117728
 10
3.9460310388
 20
45.7139428826
 10
4.0072690536
 20
45.7182356586
 10
4.0531440918
 20
45.7225809751
 10
4.083592038
 20
45.7269727524
 10
4.0984514285
 20
45.7314014903
 10
4.1
 20
45.7333679549
  0
LWPOLYLINE
  5
419
100
AcDbEntity
  8
RACCORDO
100
AcDbPolyline
 62
250
  6
CONTINUOUS
 90
10
 70
0
 10
3.4728118361
 20
45.9929958526
 10
3.5730007603
 20
45.9968081237
 10
3.6596063468
 20
46.000728377
 10
3.7320267957
 20
46.0047299994
 10
3.7899437244
 20
46.008789961
 10
3.8333308195
 20
46.0128996219
 10
3.8621274883
 20
46.017053221
 10
3.8761810479
 20
46.0212417681
 10
3.8753250683
 20
46.0254425199
 10
3.8694093371
 20
46.0275100773
  0
LINE
  5
41A
100
AcDbEntity
  8
RACCORDO
100
AcDbLine
 62
250
  6
CONTINUOUS
 10
8.7428512083
 20
42.1733979926
 11
9.2047877118
 21
42.1891013649
  0
LINE
  5
41B
100
AcDbEntity
  8
RACCORDO
100
AcDbLine
 62
250
  6
CONTINUOUS
 10
8.5503747886
 20
42.4650746193
 11
9.0021417036
 21
42.480432255
  0
LINE
  5
41C
100
AcDbEntity
  8
0
100
AcDbLine
 62
7
  6
CONTINUOUS
 10
7.1406111635
 20
43.0376980702
 11
6.7982994197
 21
43.0261098093
  0
LINE
  5
41D
100
AcDbEntity
  8
0
100
AcDbLine
 62
7
  6
CONTINUOUS
 10
5.4690866775
 20
44.851273009
 11
5.1961524227
 21
44.8419791366
  0
LINE
  5
41E
100
AcDbEntity
  8
0
100
AcDbLine
 62
7
  6
CONTINUOUS
 10
-5.1961524227
 20
44.9466935752
 11
-5.4690866775
 21
44.9373997028
  0
LINE
  5
41F
100
AcDbEntity
  8
0
100
AcDbLine
 62
7
  6
CONTINUOUS
 10
7.5808456296
 20
43.5334449906
 11
7.2313971409
 21
43.521675001
  0
LINE
  5
420
100
AcDbEntity
  8
RACCORDO
100
AcDbLine
 62
250
  6
CONTINUOUS
 10
7.1144571206
 20
43.958301444
 11
7.534139656
 21
43.971761803
  0
LINE
  5
421
100
AcDbEntity
  8
RACCORDO
100
AcDbLine
 62
250
  6
CONTINUOUS
 10
6.9250042363
 20
44.2500665841
 11
7.3335110297
 21
44.2631684743
  0
LINE
  5
422
100
AcDbEntity
  8
0
100
AcDbLine
 62
7
  6
CONTINUOUS
 10
3.216916057
 20
44.8661356921
 11
3.0078347488
 21
44.8598154872
  0
LINE
  5
423
100
AcDbEntity
  8
0
100
AcDbLine
 62
7
  6
CONTINUOUS
 10
3.658295417
 20
45.3619548117
 11
3.4323825609
 21
45.3551234011
  0
LINE
  5
424
100
AcDbEntity
  8
RACCORDO
100
AcDbLine
 62
250
  6
CONTINUOUS
 10
3.4194363129
 20
45.6938874998
 11
3.6719523175
 21
45.7015357882
  0
LINE
  5
425
100
AcDbEntity
  8
RACCORDO
100
AcDbLine
 62
250
  6
CONTINUOUS
 10
3.233990518
 20
45.9857623466
 11
3.4728118361
 21
45.9929958526
  0
LWPOLYLINE
  5
426
100
AcDbEntity
  8
0
100
AcDbPolyline
 62
7
  6
CONTINUOUS
 90
8
 70
0
 10
-0.8229838659
 20
46.8039610735
 10
-0.865883451
 20
46.8027752777
 10
-0.9034687216
 20
46.8015254629
 10
-0.9350162427
 20
46.8002356853
 10
-0.9604090503
 20
46.7989051707
 10
-0.9797641084
 20
46.7975346933
 10
-0.9927088741
 20
46.7961506318
 10
-0.9978905893
 20
46.7951799554
  0
LINE
  5
427
100
AcDbEntity
  8
0
100
AcDbLine
 62
7
  6
CONTINUOUS
 10
7.2313971409
 20
43.521675001
 11
6.8216986066
 21
43.5104961165
  0
LINE
  5
428
100
AcDbEntity
  8
0
100
AcDbLine
 62
7
  6
CONTINUOUS
 10
6.7982994197
 20
43.0261098093
 11
6.3944212236
 21
43.0151419014
  0
LINE
  5
429
100
AcDbEntity
  8
RACCORDO
100
AcDbLine
 62
250
  6
CONTINUOUS
 10
8.1951524033
 20
42.1586260422
 11
8.7428512083
 21
42.1733979926
  0
LINE
  5
42A
100
AcDbEntity
  8
RACCORDO
100
AcDbLine
 62
250
  6
CONTINUOUS
 10
8.0147337126
 20
42.4506278842
 11
8.5503747886
 21
42.4650746193
  0
LINE
  5
42B
100
AcDbEntity
  8
0
100
AcDbLine
 62
7
  6
CONTINUOUS
 10
5.1961524227
 20
44.8419791366
 11
4.8714378982
 21
44.83320701
  0
LINE
  5
42C
100
AcDbEntity
  8
0
100
AcDbLine
 62
7
  6
CONTINUOUS
 10
-4.8714378982
 20
44.9554657018
 11
-5.1961524227
 21
44.9466935752
  0
LINE
  5
42D
100
AcDbEntity
  8
RACCORDO
100
AcDbLine
 62
250
  6
CONTINUOUS
 10
6.6179560015
 20
43.9457266366
 11
7.1144571206
 21
43.958301444
  0
LINE
  5
42E
100
AcDbEntity
  8
RACCORDO
100
AcDbLine
 62
250
  6
CONTINUOUS
 10
6.4417245943
 20
44.2378266319
 11
6.9250042363
 21
44.2500665841
  0
LINE
  5
42F
100
AcDbEntity
  8
0
100
AcDbLine
 62
7
  6
CONTINUOUS
 10
3.4323825609
 20
45.3551234011
 11
3.1646687731
 21
45.3487686142
  0
LINE
  5
430
100
AcDbEntity
  8
0
100
AcDbLine
 62
7
  6
CONTINUOUS
 10
3.0078347488
 20
44.8598154872
 11
2.7577599952
 21
44.8539508697
  0
LINE
  5
431
100
AcDbEntity
  8
RACCORDO
100
AcDbLine
 62
250
  6
CONTINUOUS
 10
3.1149646864
 20
45.6868417022
 11
3.4194363129
 21
45.6938874998
  0
LINE
  5
432
100
AcDbEntity
  8
RACCORDO
100
AcDbLine
 62
250
  6
CONTINUOUS
 10
2.9460310974
 20
45.9790987133
 11
3.233990518
 21
45.9857623466
  0
LINE
  5
433
100
AcDbEntity
  8
0
100
AcDbLine
 62
7
  6
CONTINUOUS
 10
6.8216986066
 20
43.5104961165
 11
6.3553467982
 21
43.5000151581
  0
LINE
  5
434
100
AcDbEntity
  8
0
100
AcDbLine
 62
7
  6
CONTINUOUS
 10
6.3944212236
 20
43.0151419014
 11
5.9326341587
 21
43.0048936735
  0
LINE
  5
435
100
AcDbEntity
  8
RACCORDO
100
AcDbLine
 62
250
  6
CONTINUOUS
 10
7.5647935589
 20
42.1448607582
 11
8.1951524033
 21
42.1586260422
  0
LINE
  5
436
100
AcDbEntity
  8
RACCORDO
100
AcDbLine
 62
250
  6
CONTINUOUS
 10
7.3982524043
 20
42.4371656467
 11
8.0147337126
 21
42.4506278842
  0
LINE
  5
437
100
AcDbEntity
  8
0
100
AcDbLine
 62
7
  6
CONTINUOUS
 10
4.8714378982
 20
44.83320701
 11
4.4988099791
 21
44.8250521875
  0
LINE
  5
438
100
AcDbEntity
  8
0
100
AcDbLine
 62
7
  6
CONTINUOUS
 10
0.8229838659
 20
46.7841328798
 11
0.7210358529
 21
46.7819558257
  0
LINE
  5
439
100
AcDbEntity
  8
0
100
AcDbLine
 62
7
  6
CONTINUOUS
 10
-0.7210358529
 20
46.8061381276
 11
-0.8229838659
 21
46.8039610735
  0
LINE
  5
43A
100
AcDbEntity
  8
RACCORDO
100
AcDbLine
 62
250
  6
CONTINUOUS
 10
6.0476128613
 20
43.934106286
 11
6.6179560015
 21
43.9457266366
  0
LINE
  5
43B
100
AcDbEntity
  8
RACCORDO
100
AcDbLine
 62
250
  6
CONTINUOUS
 10
5.8865692538
 20
44.2265157329
 11
6.4417245943
 21
44.2378266319
  0
LINE
  5
43C
100
AcDbEntity
  8
0
100
AcDbLine
 62
7
  6
CONTINUOUS
 10
-4.2949878479
 20
44.9674542597
 11
-4.8714378982
 21
44.9554657018
  0
LINE
  5
43D
100
AcDbEntity
  8
0
100
AcDbLine
 62
7
  6
CONTINUOUS
 10
6.3553467982
 20
43.5000151581
 11
5.8369045243
 21
43.4903270457
  0
LINE
  5
43E
100
AcDbEntity
  8
0
100
AcDbLine
 62
7
  6
CONTINUOUS
 10
5.9326341587
 20
43.0048936735
 11
5.4171202401
 21
42.995457935
  0
LINE
  5
43F
100
AcDbEntity
  8
RACCORDO
100
AcDbLine
 62
250
  6
CONTINUOUS
 10
6.8577514401
 20
42.1322451707
 11
7.5647935589
 21
42.1448607582
  0
LINE
  5
440
100
AcDbEntity
  8
RACCORDO
100
AcDbLine
 62
250
  6
CONTINUOUS
 10
6.7067760093
 20
42.4248278014
 11
7.3982524043
 21
42.4371656467
  0
LINE
  5
441
100
AcDbEntity
  8
0
100
AcDbLine
 62
7
  6
CONTINUOUS
 10
4.4988099791
 20
44.8250521875
 11
4.0810364266
 21
44.8175752406
  0
LINE
  5
442
100
AcDbEntity
  8
0
100
AcDbLine
 62
7
  6
CONTINUOUS
 10
3.1646687731
 20
45.3487686142
 11
2.6924731734
 21
45.3402983222
  0
LINE
  5
443
100
AcDbEntity
  8
RACCORDO
100
AcDbLine
 62
250
  6
CONTINUOUS
 10
5.4096538493
 20
43.9235795995
 11
6.0476128613
 21
43.934106286
  0
LINE
  5
444
100
AcDbEntity
  8
RACCORDO
100
AcDbLine
 62
250
  6
CONTINUOUS
 10
5.2655985565
 20
44.2162693959
 11
5.8865692538
 21
44.2265157329
  0
LINE
  5
445
100
AcDbEntity
  8
0
100
AcDbLine
 62
7
  6
CONTINUOUS
 10
2.7577599952
 20
44.8539508697
 11
2.3140353949
 21
44.8462068076
  0
LINE
  5
446
100
AcDbEntity
  8
0
100
AcDbLine
 62
7
  6
CONTINUOUS
 10
5.8369045243
 20
43.4903270457
 11
5.2695843351
 21
43.4814918123
  0
LINE
  5
447
100
AcDbEntity
  8
RACCORDO
100
AcDbLine
 62
250
  6
CONTINUOUS
 10
2.5708856919
 20
45.677627979
 11
3.1149646864
 21
45.6868417022
  0
LINE
  5
448
100
AcDbEntity
  8
RACCORDO
100
AcDbLine
 62
250
  6
CONTINUOUS
 10
2.4314589858
 20
45.9703847157
 11
2.9460310974
 21
45.9790987133
  0
LINE
  5
449
100
AcDbEntity
  8
0
100
AcDbLine
 62
7
  6
CONTINUOUS
 10
5.4171202401
 20
42.995457935
 11
4.8525480418
 21
42.9869201376
  0
LINE
  5
44A
100
AcDbEntity
  8
0
100
AcDbLine
 62
7
  6
CONTINUOUS
 10
0.7210358529
 20
46.7819558257
 11
0.6008444806
 21
46.7800974889
  0
LINE
  5
44B
100
AcDbEntity
  8
0
100
AcDbLine
 62
7
  6
CONTINUOUS
 10
-0.6008444806
 20
46.8079964645
 11
-0.7210358529
 21
46.8061381276
  0
LINE
  5
44C
100
AcDbEntity
  8
0
100
AcDbLine
 62
7
  6
CONTINUOUS
 10
-3.6225948663
 20
44.9778094845
 11
-4.2949878479
 21
44.9674542597
  0
LINE
  5
44D
100
AcDbEntity
  8
RACCORDO
100
AcDbLine
 62
250
  6
CONTINUOUS
 10
6.0801329217
 20
42.1209023831
 11
6.8577514401
 21
42.1322451707
  0
LINE
  5
44E
100
AcDbEntity
  8
RACCORDO
100
AcDbLine
 62
250
  6
CONTINUOUS
 10
5.9462768263
 20
42.4137348023
 11
6.7067760093
 21
42.4248278014
  0
LINE
  5
44F
100
AcDbEntity
  8
RACCORDO
100
AcDbLine
 62
250
  6
CONTINUOUS
 10
4.7145388775
 20
43.9143117638
 11
5.4096538493
 21
43.9235795995
  0
LINE
  5
450
100
AcDbEntity
  8
RACCORDO
100
AcDbLine
 62
250
  6
CONTINUOUS
 10
4.5889938834
 20
44.207248415
 11
5.2655985565
 21
44.2162693959
  0
LINE
  5
451
100
AcDbEntity
  8
0
100
AcDbLine
 62
7
  6
CONTINUOUS
 10
4.0810364266
 20
44.8175752406
 11
3.3799203484
 21
44.8078172265
  0
LINE
  5
452
100
AcDbEntity
  8
0
100
AcDbLine
 62
7
  6
CONTINUOUS
 10
-3.6010511318
 20
44.978079897
 11
-3.6225948663
 21
44.9778094845
  0
LINE
  5
453
100
AcDbEntity
  8
0
100
AcDbLine
 62
7
  6
CONTINUOUS
 10
5.2695843351
 20
43.4814918123
 11
4.6585009686
 21
43.4735953818
  0
LINE
  5
454
100
AcDbEntity
  8
0
100
AcDbLine
 62
7
  6
CONTINUOUS
 10
4.8525480418
 20
42.9869201376
 11
4.244030417
 21
42.9793576008
  0
LINE
  5
455
100
AcDbEntity
  8
0
100
AcDbLine
 62
7
  6
CONTINUOUS
 10
2.6924731734
 20
45.3402983222
 11
2.1468339244
 21
45.3332999698
  0
LINE
  5
456
100
AcDbEntity
  8
RACCORDO
100
AcDbLine
 62
250
  6
CONTINUOUS
 10
5.2641949363
 20
42.1112200986
 11
6.0801329217
 21
42.1209023831
  0
LINE
  5
457
100
AcDbEntity
  8
RACCORDO
100
AcDbLine
 62
250
  6
CONTINUOUS
 10
5.1483019173
 20
42.4042657084
 11
5.9462768263
 21
42.4137348023
  0
LINE
  5
458
100
AcDbEntity
  8
0
100
AcDbLine
 62
7
  6
CONTINUOUS
 10
2.3140353949
 20
44.8462068076
 11
1.8
 21
44.8399251375
  0
LINE
  5
459
100
AcDbEntity
  8
0
100
AcDbLine
 62
7
  6
CONTINUOUS
 10
4.6585009686
 20
43.4735953818
 11
4.0095154012
 21
43.4667076697
  0
LINE
  5
45A
100
AcDbEntity
  8
RACCORDO
100
AcDbLine
 62
250
  6
CONTINUOUS
 10
1.9396032433
 20
45.6703265503
 11
2.5708856919
 21
45.677627979
  0
LINE
  5
45B
100
AcDbEntity
  8
RACCORDO
100
AcDbLine
 62
250
  6
CONTINUOUS
 10
1.8344125384
 20
45.9634794258
 11
2.4314589858
 21
45.9703847157
  0
LINE
  5
45C
100
AcDbEntity
  8
0
100
AcDbLine
 62
7
  6
CONTINUOUS
 10
4.244030417
 20
42.9793576008
 11
3.5970781956
 21
42.9728388122
  0
LINE
  5
45D
100
AcDbEntity
  8
RACCORDO
100
AcDbLine
 62
250
  6
CONTINUOUS
 10
3.5936885469
 20
43.9030480648
 11
4.7145388775
 21
43.9143117638
  0
LINE
  5
45E
100
AcDbEntity
  8
RACCORDO
100
AcDbLine
 62
250
  6
CONTINUOUS
 10
3.497991157
 20
44.1962845897
 11
4.5889938834
 21
44.207248415
  0
LINE
  5
45F
100
AcDbEntity
  8
0
100
AcDbLine
 62
7
  6
CONTINUOUS
 10
3.3799203484
 20
44.8078172265
 11
2.6033024347
 21
44.7999919067
  0
LINE
  5
460
100
AcDbEntity
  8
0
100
AcDbLine
 62
7
  6
CONTINUOUS
 10
0.6008444806
 20
46.7800974889
 11
0.3921030472
 21
46.777993328
  0
LINE
  5
461
100
AcDbEntity
  8
0
100
AcDbLine
 62
7
  6
CONTINUOUS
 10
-0.3921030472
 20
46.8101006254
 11
-0.6008444806
 21
46.8079964645
  0
LINE
  5
462
100
AcDbEntity
  8
RACCORDO
100
AcDbLine
 62
250
  6
CONTINUOUS
 10
4.0147732843
 20
42.0999086942
 11
5.2641949363
 21
42.1112200986
  0
LINE
  5
463
100
AcDbEntity
  8
RACCORDO
100
AcDbLine
 62
250
  6
CONTINUOUS
 10
3.9263867565
 20
42.3932032919
 11
5.1483019173
 21
42.4042657084
  0
LINE
  5
464
100
AcDbEntity
  8
0
100
AcDbLine
 62
7
  6
CONTINUOUS
 10
4.0095154012
 20
43.4667076697
 11
3.3266491002
 21
43.4608713563
  0
LINE
  5
465
100
AcDbEntity
  8
0
100
AcDbLine
 62
7
  6
CONTINUOUS
 10
2.1468339244
 20
45.3332999698
 11
1.5426346422
 21
45.3279644535
  0
LINE
  5
466
100
AcDbEntity
  8
0
100
AcDbLine
 62
7
  6
CONTINUOUS
 10
3.5970781956
 20
42.9728388122
 11
2.9175502769
 21
42.9674228069
  0
LINE
  5
467
100
AcDbEntity
  8
0
100
AcDbLine
 62
7
  6
CONTINUOUS
 10
1.8
 20
44.8399251375
 11
1.231272516
 21
44.8352967247
  0
LINE
  5
468
100
AcDbEntity
  8
RACCORDO
100
AcDbLine
 62
250
  6
CONTINUOUS
 10
2.422970268
 20
43.8951312334
 11
3.5936885469
 21
43.9030480648
  0
LINE
  5
469
100
AcDbEntity
  8
RACCORDO
100
AcDbLine
 62
250
  6
CONTINUOUS
 10
2.3584479985
 20
44.1885788363
 11
3.497991157
 21
44.1962845897
  0
LINE
  5
46A
100
AcDbEntity
  8
0
100
AcDbLine
 62
7
  6
CONTINUOUS
 10
2.6033024347
 20
44.7999919067
 11
1.7685310465
 21
44.794274086
  0
LINE
  5
46B
100
AcDbEntity
  8
0
100
AcDbLine
 62
7
  6
CONTINUOUS
 10
2.9175502769
 20
42.9674228069
 11
2.2116005712
 21
42.963158633
  0
LINE
  5
46C
100
AcDbEntity
  8
RACCORDO
100
AcDbLine
 62
250
  6
CONTINUOUS
 10
2.7896690501
 20
42.0922414012
 11
4.0147732843
 21
42.0999086942
  0
LINE
  5
46D
100
AcDbEntity
  8
0
100
AcDbLine
 62
7
  6
CONTINUOUS
 10
3.3266491002
 20
43.4608713563
 11
2.2528030392
 21
43.4542107329
  0
LINE
  5
46E
100
AcDbEntity
  8
RACCORDO
100
AcDbLine
 62
250
  6
CONTINUOUS
 10
0.9999163474
 20
45.6639736843
 11
1.9396032433
 21
45.6703265503
  0
LINE
  5
46F
100
AcDbEntity
  8
RACCORDO
100
AcDbLine
 62
250
  6
CONTINUOUS
 10
0.9456883427
 20
45.9574705028
 11
1.8344125384
 21
45.9634794258
  0
LINE
  5
470
100
AcDbEntity
  8
RACCORDO
100
AcDbLine
 62
250
  6
CONTINUOUS
 10
2.3439069966
 20
42.3839225198
 11
3.9263867565
 21
42.3932032919
  0
LINE
  5
471
100
AcDbEntity
  8
0
100
AcDbLine
 62
7
  6
CONTINUOUS
 10
1.5426346422
 20
45.3279644535
 11
0.8963563083
 21
45.3244373126
  0
LINE
  5
472
100
AcDbEntity
  8
0
100
AcDbLine
 62
7
  6
CONTINUOUS
 10
1.231272516
 20
44.8352967247
 11
0.6251334396
 21
44.8324622013
  0
LINE
  5
473
100
AcDbEntity
  8
0
100
AcDbLine
 62
7
  6
CONTINUOUS
 10
0.3921030472
 20
46.777993328
 11
0.1610891269
 21
46.7768232384
  0
LINE
  5
474
100
AcDbEntity
  8
0
100
AcDbLine
 62
7
  6
CONTINUOUS
 10
-0.1610891269
 20
46.8112707149
 11
-0.3921030472
 21
46.8101006254
  0
LINE
  5
475
100
AcDbEntity
  8
0
100
AcDbLine
 62
7
  6
CONTINUOUS
 10
2.2116005712
 20
42.963158633
 11
1.1171714804
 21
42.9590035907
  0
LINE
  5
476
100
AcDbEntity
  8
0
100
AcDbLine
 62
7
  6
CONTINUOUS
 10
1.7685310465
 20
44.794274086
 11
0.8942535971
 21
44.790791491
  0
LINE
  5
477
100
AcDbEntity
  8
0
100
AcDbLine
 62
7
  6
CONTINUOUS
 10
2.2528030392
 20
43.4542107329
 11
1.13699152
 21
43.4501640731
  0
LINE
  5
478
100
AcDbEntity
  8
RACCORDO
100
AcDbLine
 62
250
  6
CONTINUOUS
 10
0.963857474
 20
43.8898351576
 11
2.422970268
 21
43.8951312334
  0
LINE
  5
479
100
AcDbEntity
  8
RACCORDO
100
AcDbLine
 62
250
  6
CONTINUOUS
 10
0.9381907088
 20
44.1834233468
 11
2.3584479985
 21
44.1885788363
  0
LINE
  5
47A
100
AcDbEntity
  8
RACCORDO
100
AcDbLine
 62
250
  6
CONTINUOUS
 10
0.9550942614
 20
42.0861741987
 11
2.7896690501
 21
42.0922414012
  0
LINE
  5
47B
100
AcDbEntity
  8
RACCORDO
100
AcDbLine
 62
250
  6
CONTINUOUS
 10
0.6106332244
 20
42.3793281807
 11
2.3439069966
 21
42.3839225198
  0
LINE
  5
47C
100
AcDbEntity
  8
0
100
AcDbLine
 62
7
  6
CONTINUOUS
 10
0.8963563083
 20
45.3244373126
 11
0.226991253
 21
45.3228167299
  0
LINE
  5
47D
100
AcDbEntity
  8
0
100
AcDbLine
 62
7
  6
CONTINUOUS
 10
0.6251334396
 20
44.8324622013
 11
-0.0
 21
44.8315076927
  0
LINE
  5
47E
100
AcDbEntity
  8
RACCORDO
100
AcDbLine
 62
250
  6
CONTINUOUS
 10
-0.0
 20
45.6618130885
 11
0.9999163474
 21
45.6639736843
  0
LINE
  5
47F
100
AcDbEntity
  8
0
100
AcDbLine
 62
7
  6
CONTINUOUS
 10
1.1171714804
 20
42.9590035907
 11
-0.0
 21
42.9576091141
  0
LINE
  5
480
100
AcDbEntity
  8
0
100
AcDbLine
 62
7
  6
CONTINUOUS
 10
1.13699152
 20
43.4501640731
 11
-0.0
 21
43.4488067584
  0
LINE
  5
481
100
AcDbEntity
  8
0
100
AcDbLine
 62
7
  6
CONTINUOUS
 10
0.8942535971
 20
44.790791491
 11
-0.0
 21
44.7896219173
  0
LINE
  5
482
100
AcDbEntity
  8
RACCORDO
100
AcDbLine
 62
250
  6
CONTINUOUS
 10
-0.220934874
 20
45.9555370627
 11
0.9456883427
 21
45.9574705028
  0
LINE
  5
483
100
AcDbEntity
  8
RACCORDO
100
AcDbLine
 62
250
  6
CONTINUOUS
 10
-0.6276275683
 20
43.8892732693
 11
0.963857474
 21
43.8898351576
  0
LINE
  5
484
100
AcDbEntity
  8
RACCORDO
100
AcDbLine
 62
250
  6
CONTINUOUS
 10
-0.6109143459
 20
44.1828764031
 11
0.9381907088
 21
44.1834233468
  0
LINE
  5
485
100
AcDbEntity
  8
RACCORDO
100
AcDbLine
 62
250
  6
CONTINUOUS
 10
-0.9523190617
 20
42.0861696049
 11
0.9550942614
 21
42.0861741987
  0
LINE
  5
486
100
AcDbEntity
  8
RACCORDO
100
AcDbLine
 62
250
  6
CONTINUOUS
 10
-1.264265682
 20
42.3804164227
 11
0.6106332244
 21
42.3793281807
  0
LINE
  5
487
100
AcDbEntity
  8
0
100
AcDbLine
 62
7
  6
CONTINUOUS
 10
-0.1610891269
 20
46.7768232384
 11
0.1610891269
 21
46.7768232384
  0
LINE
  5
488
100
AcDbEntity
  8
0
100
AcDbLine
 62
7
  6
CONTINUOUS
 10
-0.1610891269
 20
46.8112707149
 11
0.1610891269
 21
46.8112707149
  0
LINE
  5
489
100
AcDbEntity
  8
0
100
AcDbLine
 62
7
  6
CONTINUOUS
 10
-1.5120518582
 20
43.4512169355
 11
-0.0
 21
43.4488067584
  0
LINE
  5
48A
100
AcDbEntity
  8
0
100
AcDbLine
 62
7
  6
CONTINUOUS
 10
-1.4856222682
 20
42.9600849077
 11
-0.0
 21
42.9576091141
  0
LINE
  5
48B
100
AcDbEntity
  8
0
100
AcDbLine
 62
7
  6
CONTINUOUS
 10
-1.1886223156
 20
44.791698235
 11
-0.0
 21
44.7896219173
  0
LINE
  5
48C
100
AcDbEntity
  8
0
100
AcDbLine
 62
7
  6
CONTINUOUS
 10
-0.8963563083
 20
45.3244373126
 11
0.226991253
 21
45.3228167299
  0
LINE
  5
48D
100
AcDbEntity
  8
RACCORDO
100
AcDbLine
 62
250
  6
CONTINUOUS
 10
-0.9569536857
 20
45.6637894438
 11
-0.0
 21
45.6618130885
  0
LINE
  5
48E
100
AcDbEntity
  8
RACCORDO
100
AcDbLine
 62
250
  6
CONTINUOUS
 10
-2.3895498174
 20
42.0903886331
 11
-0.9523190617
 21
42.0861696049
  0
LINE
  5
48F
100
AcDbEntity
  8
RACCORDO
100
AcDbLine
 62
250
  6
CONTINUOUS
 10
-2.0337923339
 20
43.8932498073
 11
-0.6276275683
 21
43.8892732693
  0
LINE
  5
490
100
AcDbEntity
  8
RACCORDO
100
AcDbLine
 62
250
  6
CONTINUOUS
 10
-1.97963365
 20
44.1867475042
 11
-0.6109143459
 21
44.1828764031
  0
LINE
  5
491
100
AcDbEntity
  8
RACCORDO
100
AcDbLine
 62
250
  6
CONTINUOUS
 10
-2.7201318767
 20
42.3856641208
 11
-1.264265682
 21
42.3804164227
  0
LINE
  5
492
100
AcDbEntity
  8
0
100
AcDbLine
 62
7
  6
CONTINUOUS
 10
-1.0327008812
 20
44.8341493727
 11
-0.0
 21
44.8315076927
  0
LINE
  5
493
100
AcDbEntity
  8
RACCORDO
100
AcDbLine
 62
250
  6
CONTINUOUS
 10
-1.1375528713
 20
45.958405142
 11
-0.220934874
 21
45.9555370627
  0
LINE
  5
494
100
AcDbEntity
  8
RACCORDO
100
AcDbLine
 62
250
  6
CONTINUOUS
 10
-3.5896922551
 20
42.0968931824
 11
-2.3895498174
 21
42.0903886331
  0
LINE
  5
495
100
AcDbEntity
  8
0
100
AcDbLine
 62
7
  6
CONTINUOUS
 10
-2.9748449989
 20
43.4583698988
 11
-1.5120518582
 21
43.4512169355
  0
LINE
  5
496
100
AcDbEntity
  8
0
100
AcDbLine
 62
7
  6
CONTINUOUS
 10
-2.9175502769
 20
42.9674228069
 11
-1.4856222682
 21
42.9600849077
  0
LINE
  5
497
100
AcDbEntity
  8
0
100
AcDbLine
 62
7
  6
CONTINUOUS
 10
-0.3921030472
 20
46.777993328
 11
-0.1610891269
 21
46.7768232384
  0
LINE
  5
498
100
AcDbEntity
  8
0
100
AcDbLine
 62
7
  6
CONTINUOUS
 10
0.1610891269
 20
46.8112707149
 11
0.3921030472
 21
46.8101006254
  0
LINE
  5
499
100
AcDbEntity
  8
RACCORDO
100
AcDbLine
 62
250
  6
CONTINUOUS
 10
-3.2002726265
 20
43.8999890918
 11
-2.0337923339
 21
43.8932498073
  0
LINE
  5
49A
100
AcDbEntity
  8
RACCORDO
100
AcDbLine
 62
250
  6
CONTINUOUS
 10
-3.115051669
 20
44.1933070446
 11
-1.97963365
 21
44.1867475042
  0
LINE
  5
49B
100
AcDbEntity
  8
0
100
AcDbLine
 62
7
  6
CONTINUOUS
 10
-2.3308161575
 20
44.7978470693
 11
-1.1886223156
 21
44.791698235
  0
LINE
  5
49C
100
AcDbEntity
  8
RACCORDO
100
AcDbLine
 62
250
  6
CONTINUOUS
 10
-3.9155194825
 20
42.3931212429
 11
-2.7201318767
 21
42.3856641208
  0
LINE
  5
49D
100
AcDbEntity
  8
0
100
AcDbLine
 62
7
  6
CONTINUOUS
 10
-1.7499666256
 20
45.3295516494
 11
-0.8963563083
 21
45.3244373126
  0
LINE
  5
49E
100
AcDbEntity
  8
RACCORDO
100
AcDbLine
 62
250
  6
CONTINUOUS
 10
-1.9073031151
 20
45.670027059
 11
-0.9569536857
 21
45.6637894438
  0
LINE
  5
49F
100
AcDbEntity
  8
RACCORDO
100
AcDbLine
 62
250
  6
CONTINUOUS
 10
-4.8360399192
 20
42.1069040833
 11
-3.5896922551
 21
42.0968931824
  0
LINE
  5
4A0
100
AcDbEntity
  8
0
100
AcDbLine
 62
7
  6
CONTINUOUS
 10
-4.0095154012
 20
43.4667076697
 11
-2.9748449989
 21
43.4583698988
  0
LINE
  5
4A1
100
AcDbEntity
  8
0
100
AcDbLine
 62
7
  6
CONTINUOUS
 10
-1.8
 20
44.8399251375
 11
-1.0327008812
 21
44.8341493727
  0
LINE
  5
4A2
100
AcDbEntity
  8
0
100
AcDbLine
 62
7
  6
CONTINUOUS
 10
-3.925
 20
42.9759638201
 11
-2.9175502769
 21
42.9674228069
  0
LINE
  5
4A3
100
AcDbEntity
  8
RACCORDO
100
AcDbLine
 62
250
  6
CONTINUOUS
 10
-2.0128771564
 20
45.9652594457
 11
-1.1375528713
 21
45.958405142
  0
LINE
  5
4A4
100
AcDbEntity
  8
RACCORDO
100
AcDbLine
 62
250
  6
CONTINUOUS
 10
-5.1357743271
 20
42.4041323748
 11
-3.9155194825
 21
42.3931212429
  0
LINE
  5
4A5
100
AcDbEntity
  8
RACCORDO
100
AcDbLine
 62
250
  6
CONTINUOUS
 10
-4.3423046564
 20
43.9101162737
 11
-3.2002726265
 21
43.8999890918
  0
LINE
  5
4A6
100
AcDbEntity
  8
RACCORDO
100
AcDbLine
 62
250
  6
CONTINUOUS
 10
-4.2266720666
 20
44.2031646187
 11
-3.115051669
 21
44.1933070446
  0
LINE
  5
4A7
100
AcDbEntity
  8
RACCORDO
100
AcDbLine
 62
250
  6
CONTINUOUS
 10
-5.6618738181
 20
42.1156851431
 11
-4.8360399192
 21
42.1069040833
  0
LINE
  5
4A8
100
AcDbEntity
  8
0
100
AcDbLine
 62
7
  6
CONTINUOUS
 10
-3.3799203484
 20
44.8078172265
 11
-2.3308161575
 21
44.7978470693
  0
LINE
  5
4A9
100
AcDbEntity
  8
0
100
AcDbLine
 62
7
  6
CONTINUOUS
 10
-0.6008444806
 20
46.7800974889
 11
-0.3921030472
 21
46.777993328
  0
LINE
  5
4AA
100
AcDbEntity
  8
0
100
AcDbLine
 62
7
  6
CONTINUOUS
 10
0.3921030472
 20
46.8101006254
 11
0.6008444806
 21
46.8079964645
  0
LINE
  5
4AB
100
AcDbEntity
  8
0
100
AcDbLine
 62
7
  6
CONTINUOUS
 10
-4.9694961177
 20
43.4774266099
 11
-4.0095154012
 21
43.4667076697
  0
LINE
  5
4AC
100
AcDbEntity
  8
RACCORDO
100
AcDbLine
 62
250
  6
CONTINUOUS
 10
-5.9337260574
 20
42.4135699121
 11
-5.1357743271
 21
42.4041323748
  0
LINE
  5
4AD
100
AcDbEntity
  8
0
100
AcDbLine
 62
7
  6
CONTINUOUS
 10
-2.518272122
 20
45.3377933598
 11
-1.7499666256
 21
45.3295516494
  0
LINE
  5
4AE
100
AcDbEntity
  8
RACCORDO
100
AcDbLine
 62
250
  6
CONTINUOUS
 10
-2.5442782196
 20
45.6772573344
 11
-1.9073031151
 21
45.670027059
  0
LINE
  5
4AF
100
AcDbEntity
  8
0
100
AcDbLine
 62
7
  6
CONTINUOUS
 10
-4.8525480418
 20
42.9869201376
 11
-3.925
 21
42.9759638201
  0
LINE
  5
4B0
100
AcDbEntity
  8
RACCORDO
100
AcDbLine
 62
250
  6
CONTINUOUS
 10
-6.4644452065
 20
42.1262191731
 11
-5.6618738181
 21
42.1156851431
  0
LINE
  5
4B1
100
AcDbEntity
  8
0
100
AcDbLine
 62
7
  6
CONTINUOUS
 10
-2.3140353949
 20
44.8462068076
 11
-1.8
 21
44.8399251375
  0
LINE
  5
4B2
100
AcDbEntity
  8
RACCORDO
100
AcDbLine
 62
250
  6
CONTINUOUS
 10
-5.4025894036
 20
43.9234748574
 11
-4.3423046564
 21
43.9101162737
  0
LINE
  5
4B3
100
AcDbEntity
  8
RACCORDO
100
AcDbLine
 62
250
  6
CONTINUOUS
 10
-5.2587223104
 20
44.2161674113
 11
-4.2266720666
 21
44.2031646187
  0
LINE
  5
4B4
100
AcDbEntity
  8
RACCORDO
100
AcDbLine
 62
250
  6
CONTINUOUS
 10
-2.5896700569
 20
45.9727317846
 11
-2.0128771564
 21
45.9652594457
  0
LINE
  5
4B5
100
AcDbEntity
  8
RACCORDO
100
AcDbLine
 62
250
  6
CONTINUOUS
 10
-6.6950753381
 20
42.4246392273
 11
-5.9337260574
 21
42.4135699121
  0
LINE
  5
4B6
100
AcDbEntity
  8
0
100
AcDbLine
 62
7
  6
CONTINUOUS
 10
-4.0810364266
 20
44.8175752406
 11
-3.3799203484
 21
44.8078172265
  0
LINE
  5
4B7
100
AcDbEntity
  8
0
100
AcDbLine
 62
7
  6
CONTINUOUS
 10
3.6010511318
 20
44.978079897
 11
4.0810364266
 21
44.9710974711
  0
LINE
  5
4B8
100
AcDbEntity
  8
0
100
AcDbLine
 62
7
  6
CONTINUOUS
 10
-5.8369045243
 20
43.4903270457
 11
-4.9694961177
 21
43.4774266099
  0
LINE
  5
4B9
100
AcDbEntity
  8
0
100
AcDbLine
 62
7
  6
CONTINUOUS
 10
-0.7210358529
 20
46.7819558257
 11
-0.6008444806
 21
46.7800974889
  0
LINE
  5
4BA
100
AcDbEntity
  8
0
100
AcDbLine
 62
7
  6
CONTINUOUS
 10
0.6008444806
 20
46.8079964645
 11
0.7210358529
 21
46.8061381276
  0
LINE
  5
4BB
100
AcDbEntity
  8
RACCORDO
100
AcDbLine
 62
250
  6
CONTINUOUS
 10
-7.2087341295
 20
42.1381919854
 11
-6.4644452065
 21
42.1262191731
  0
LINE
  5
4BC
100
AcDbEntity
  8
0
100
AcDbLine
 62
7
  6
CONTINUOUS
 10
-5.6813121991
 20
43.0000687205
 11
-4.8525480418
 21
42.9869201376
  0
LINE
  5
4BD
100
AcDbEntity
  8
RACCORDO
100
AcDbLine
 62
250
  6
CONTINUOUS
 10
-6.0412169494
 20
43.9339891658
 11
-5.4025894036
 21
43.9234748574
  0
LINE
  5
4BE
100
AcDbEntity
  8
RACCORDO
100
AcDbLine
 62
250
  6
CONTINUOUS
 10
-5.8803437311
 20
44.2264017061
 11
-5.2587223104
 21
44.2161674113
  0
LINE
  5
4BF
100
AcDbEntity
  8
0
100
AcDbLine
 62
7
  6
CONTINUOUS
 10
-3.0164680338
 20
45.3457974111
 11
-2.518272122
 21
45.3377933598
  0
LINE
  5
4C0
100
AcDbEntity
  8
RACCORDO
100
AcDbLine
 62
250
  6
CONTINUOUS
 10
-7.387730049
 20
42.4369583752
 11
-6.6950753381
 21
42.4246392273
  0
LINE
  5
4C1
100
AcDbEntity
  8
0
100
AcDbLine
 62
7
  6
CONTINUOUS
 10
4.0810364266
 20
44.9710974711
 11
4.4988099791
 21
44.9636205242
  0
LINE
  5
4C2
100
AcDbEntity
  8
RACCORDO
100
AcDbLine
 62
250
  6
CONTINUOUS
 10
-3.0945693377
 20
45.6864289692
 11
-2.5442782196
 21
45.6772573344
  0
LINE
  5
4C3
100
AcDbEntity
  8
RACCORDO
100
AcDbLine
 62
250
  6
CONTINUOUS
 10
-2.9267421651
 20
45.9787082633
 11
-2.5896700569
 21
45.9727317846
  0
LINE
  5
4C4
100
AcDbEntity
  8
0
100
AcDbLine
 62
7
  6
CONTINUOUS
 10
-2.7577599952
 20
44.8539508697
 11
-2.3140353949
 21
44.8462068076
  0
LINE
  5
4C5
100
AcDbEntity
  8
RACCORDO
100
AcDbLine
 62
250
  6
CONTINUOUS
 10
-7.8800752384
 20
42.1513930489
 11
-7.2087341295
 21
42.1381919854
  0
LINE
  5
4C6
100
AcDbEntity
  8
0
100
AcDbLine
 62
7
  6
CONTINUOUS
 10
-4.6909888948
 20
44.8290479713
 11
-4.0810364266
 21
44.8175752406
  0
LINE
  5
4C7
100
AcDbEntity
  8
0
100
AcDbLine
 62
7
  6
CONTINUOUS
 10
-6.5955824434
 20
43.5051686665
 11
-5.8369045243
 21
43.4903270457
  0
LINE
  5
4C8
100
AcDbEntity
  8
RACCORDO
100
AcDbLine
 62
250
  6
CONTINUOUS
 10
-6.6123135801
 20
43.945598789
 11
-6.0412169494
 21
43.9339891658
  0
LINE
  5
4C9
100
AcDbEntity
  8
RACCORDO
100
AcDbLine
 62
250
  6
CONTINUOUS
 10
-6.4362324988
 20
44.2377021651
 11
-5.8803437311
 21
44.2264017061
  0
LINE
  5
4CA
100
AcDbEntity
  8
0
100
AcDbLine
 62
7
  6
CONTINUOUS
 10
-3.3037271364
 20
45.3518866993
 11
-3.0164680338
 21
45.3457974111
  0
LINE
  5
4CB
100
AcDbEntity
  8
RACCORDO
100
AcDbLine
 62
250
  6
CONTINUOUS
 10
-8.0054823004
 20
42.4504041024
 11
-7.387730049
 21
42.4369583752
  0
LINE
  5
4CC
100
AcDbEntity
  8
0
100
AcDbLine
 62
7
  6
CONTINUOUS
 10
4.4988099791
 20
44.9636205242
 11
4.8714378982
 21
44.9554657018
  0
LWPOLYLINE
  5
4CD
100
AcDbEntity
  8
0
100
AcDbPolyline
 62
7
  6
CONTINUOUS
 90
9
 70
0
 10
0.7210358529
 20
46.8061381276
 10
0.8229838659
 20
46.8039610735
 10
0.865883451
 20
46.8027752777
 10
0.9034687216
 20
46.8015254629
 10
0.9350162427
 20
46.8002356853
 10
0.9604090503
 20
46.7989051707
 10
0.9797641084
 20
46.7975346933
 10
0.9927088741
 20
46.7961506318
 10
0.9978905893
 20
46.7951799554
  0
LINE
  5
4CE
100
AcDbEntity
  8
0
100
AcDbLine
 62
7
  6
CONTINUOUS
 10
-6.3944212236
 20
43.0151419014
 11
-5.6813121991
 21
43.0000687205
  0
LINE
  5
4CF
100
AcDbEntity
  8
RACCORDO
100
AcDbLine
 62
250
  6
CONTINUOUS
 10
-3.4029938098
 20
45.6934571126
 11
-3.0945693377
 21
45.6864289692
  0
LINE
  5
4D0
100
AcDbEntity
  8
RACCORDO
100
AcDbLine
 62
250
  6
CONTINUOUS
 10
-3.2184400229
 20
45.9853552193
 11
-2.9267421651
 21
45.9787082633
  0
LINE
  5
4D1
100
AcDbEntity
  8
0
100
AcDbLine
 62
7
  6
CONTINUOUS
 10
-3.0078347488
 20
44.8598154872
 11
-2.7577599952
 21
44.8539508697
  0
LINE
  5
4D2
100
AcDbEntity
  8
RACCORDO
100
AcDbLine
 62
250
  6
CONTINUOUS
 10
-8.4706347243
 20
42.1656521316
 11
-7.8800752384
 21
42.1513930489
  0
LINE
  5
4D3
100
AcDbEntity
  8
0
100
AcDbLine
 62
7
  6
CONTINUOUS
 10
-5.0402436859
 20
44.837528097
 11
-4.6909888948
 21
44.8290479713
  0
LINE
  5
4D4
100
AcDbEntity
  8
0
100
AcDbLine
 62
7
  6
CONTINUOUS
 10
-7.0336076148
 20
43.515998588
 11
-6.5955824434
 21
43.5051686665
  0
LINE
  5
4D5
100
AcDbEntity
  8
RACCORDO
100
AcDbLine
 62
250
  6
CONTINUOUS
 10
-7.1096165921
 20
43.9581641153
 11
-6.6123135801
 21
43.945598789
  0
LINE
  5
4D6
100
AcDbEntity
  8
RACCORDO
100
AcDbLine
 62
250
  6
CONTINUOUS
 10
-6.9202926879
 20
44.2499328881
 11
-6.4362324988
 21
44.2377021651
  0
LINE
  5
4D7
100
AcDbEntity
  8
RACCORDO
100
AcDbLine
 62
250
  6
CONTINUOUS
 10
-8.5424391979
 20
42.4648356021
 11
-8.0054823004
 21
42.4504041024
  0
LINE
  5
4D8
100
AcDbEntity
  8
0
100
AcDbLine
 62
7
  6
CONTINUOUS
 10
-6.7982994197
 20
43.0261098093
 11
-6.3944212236
 21
43.0151419014
  0
LINE
  5
4D9
100
AcDbEntity
  8
0
100
AcDbLine
 62
7
  6
CONTINUOUS
 10
4.8714378982
 20
44.9554657018
 11
5.1961524227
 21
44.9466935752
  0
LWPOLYLINE
  5
4DA
100
AcDbEntity
  8
0
100
AcDbPolyline
 62
7
  6
CONTINUOUS
 90
3
 70
0
 10
-3.658295417
 20
45.3619548117
 10
-3.5505404583
 20
45.3584797981
 10
-3.3037271364
 20
45.3518866993
  0
LWPOLYLINE
  5
4DB
100
AcDbEntity
  8
0
100
AcDbPolyline
 62
7
  6
CONTINUOUS
 90
10
 70
0
 10
5.1961524227
 20
44.9466935752
 10
5.4690866775
 20
44.9373997028
 10
5.5852424919
 20
44.9325928362
 10
5.6874322948
 20
44.9276903085
 10
5.7757593101
 20
44.9226928267
 10
5.8495674731
 20
44.9176375106
 10
5.9087486747
 20
44.9125239294
 10
5.9534110239
 20
44.9073525139
 10
5.9832227831
 20
44.9021616757
 10
5.9872670073
 20
44.9011547273
  0
LWPOLYLINE
  5
4DC
100
AcDbEntity
  8
0
100
AcDbPolyline
 62
7
  6
CONTINUOUS
 90
5
 70
0
 10
-7.8678786997
 20
43.5457331521
 10
-7.7325045921
 20
43.5395385672
 10
-7.5808456296
 20
43.5334449906
 10
-7.4138415737
 20
43.5274901813
 10
-7.0336076148
 20
43.515998588
  0
LINE
  5
4DD
100
AcDbEntity
  8
0
100
AcDbLine
 62
7
  6
CONTINUOUS
 10
9.4513417461
 20
41.2999035411
 11
11.6029477407
 21
40.724694646
  0
LINE
  5
4DE
100
AcDbEntity
  8
0
100
AcDbLine
 62
7
  6
CONTINUOUS
 10
7.8511145721
 20
43.0987796336
 11
9.8566648691
 21
42.5626171702
  0
LINE
  5
4DF
100
AcDbEntity
  8
0
100
AcDbLine
 62
7
  6
CONTINUOUS
 10
5.9872555597
 20
44.9011577884
 11
8.1103819975
 21
44.3335625987
  0
LINE
  5
4E0
100
AcDbEntity
  8
0
100
AcDbLine
 62
7
  6
CONTINUOUS
 10
0.9978759266
 20
46.7951838821
 11
3.8694093095
 21
46.0275100847
  0
LWPOLYLINE
  5
4E1
100
AcDbEntity
  8
RACCORDO
100
AcDbPolyline
 62
7
  6
CONTINUOUS
 90
19
 70
0
 10
11.6029478521
 20
40.7246946162
 10
11.61316013
 20
40.7218450648
 10
11.6242276743
 20
40.7184670473
 10
11.6361451014
 20
40.7144547422
 10
11.6486645694
 20
40.7097756195
 10
11.6619880024
 20
40.7042188001
 10
11.6767338185
 20
40.6973013593
 10
11.6929627663
 20
40.6886507454
 10
11.7102995585
 20
40.6780557805
 10
11.7285944665
 20
40.665131459
 10
11.7476645248
 20
40.6494035554
 10
11.7669144419
 20
40.6306484565
 10
11.7855166751
 20
40.6089486385
 10
11.8029764534
 20
40.5841114661
 10
11.8186651001
 20
40.5560999768
 10
11.831707652
 20
40.5255375745
 10
11.841556552
 20
40.4928401225
 10
11.847813162
 20
40.4581108794
 10
11.85
 20
40.4217414993
  0
LWPOLYLINE
  5
4E2
100
AcDbEntity
  8
RACCORDO
100
AcDbPolyline
 62
7
  6
CONTINUOUS
 90
19
 70
0
 10
9.8566649278
 20
42.5626171545
 10
9.8666201597
 20
42.5598350946
 10
9.8775505009
 20
42.5564829981
 10
9.8894467828
 20
42.5524432984
 10
9.9020840694
 20
42.5476592748
 10
9.9156242185
 20
42.5419137246
 10
9.9305859423
 20
42.534742867
 10
9.9470623922
 20
42.5257360581
 10
9.9646151802
 20
42.5146969016
 10
9.982874038
 20
42.5013909989
 10
10.001561173
 20
42.485486169
 10
10.020233583
 20
42.4667340191
 10
10.0382238843
 20
42.4451344737
 10
10.055102348
 20
42.4204430363
 10
10.0702095464
 20
42.3927044657
 10
10.0826847285
 20
42.3626280821
 10
10.0920375167
 20
42.3306626645
 10
10.0979451083
 20
42.2968814111
 10
10.1
 20
42.2616536079
  0
LWPOLYLINE
  5
4E3
100
AcDbEntity
  8
RACCORDO
100
AcDbPolyline
 62
7
  6
CONTINUOUS
 90
19
 70
0
 10
8.1103821084
 20
44.3335625691
 10
8.1201597338
 20
44.3308244213
 10
8.1310414165
 20
44.3274656758
 10
8.1430110344
 20
44.323354858
 10
8.1558981223
 20
44.31839449
 10
8.169788504
 20
44.3123681086
 10
8.1850035886
 20
44.3048769652
 10
8.2015992569
 20
44.2955279411
 10
8.2191618563
 20
44.2841226702
 10
8.2372343684
 20
44.2705105236
 10
8.2554875466
 20
44.254459045
 10
8.2735732223
 20
44.2357176504
 10
8.2909546789
 20
44.2142143626
 10
8.3072665291
 20
44.1896392482
 10
8.3218089508
 20
44.1621238463
 10
8.3337118753
 20
44.1325157242
 10
8.3425475184
 20
44.1013190126
 10
8.3480860254
 20
44.0685609557
 10
8.35
 20
44.034588621
  0
LWPOLYLINE
  5
4E4
100
AcDbEntity
  8
RACCORDO
100
AcDbPolyline
 62
7
  6
CONTINUOUS
 90
16
 70
0
 10
3.8694093471
 20
46.0275100746
 10
3.8818743255
 20
46.0239351406
 10
3.895934283
 20
46.0192834127
 10
3.9115344834
 20
46.0132830208
 10
3.9284348509
 20
46.0056919202
 10
3.9466184696
 20
45.9961233128
 10
3.9662212776
 20
45.9839733066
 10
3.9871280242
 20
45.9685749545
 10
4.0084977881
 20
45.9496699734
 10
4.0292591288
 20
45.9273501516
 10
4.0489098911
 20
45.9012196633
 10
4.0665314517
 20
45.8713654126
 10
4.0808209518
 20
45.839129473
 10
4.0912806993
 20
45.8053125548
 10
4.0977755302
 20
45.7699039955
 10
4.1
 20
45.7333679549
  0
LWPOLYLINE
  5
4E5
100
AcDbEntity
  8
0
100
AcDbPolyline
 62
7
  6
CONTINUOUS
 90
10
 70
0
 10
0.9978905893
 20
46.7951799554
 10
0.9991191665
 20
46.7947527231
 10
0.9991191665
 20
46.7933412303
 10
0.9927088741
 20
46.7919433216
 10
0.9797641084
 20
46.7905592601
 10
0.9604090503
 20
46.7891887827
 10
0.9350162427
 20
46.7878582681
 10
0.9034687216
 20
46.7865684905
 10
0.865883451
 20
46.7853186756
 10
0.8229838659
 20
46.7841328798
  0
LWPOLYLINE
  5
4E6
100
AcDbEntity
  8
0
100
AcDbPolyline
 62
7
  6
CONTINUOUS
 90
11
 70
0
 10
5.9872670073
 20
44.9011547273
 10
5.9980733731
 20
44.8969512701
 10
5.9980733731
 20
44.8917214417
 10
5.9832227831
 20
44.8865110361
 10
5.9534110239
 20
44.8813201978
 10
5.9087486747
 20
44.8761487823
 10
5.8495674731
 20
44.8710352012
 10
5.7757593101
 20
44.8659798851
 10
5.6874322948
 20
44.8609824033
 10
5.5852424919
 20
44.8560798756
 10
5.4690866775
 20
44.851273009
  0
LWPOLYLINE
  5
4E7
100
AcDbEntity
  8
0
100
AcDbPolyline
 62
250
  6
CONTINUOUS
 90
7
 70
0
 10
50.4499217156
 20
18.3602159786
 10
50.443771556
 20
18.4593448844
 10
50.4253864941
 20
18.5569457707
 10
50.3950499258
 20
18.6515141709
 10
50.3532294733
 20
18.7415923623
 10
50.300569777
 20
18.8257918366
 10
50.2507881333
 20
18.8884867215
  0
LWPOLYLINE
  5
4E8
100
AcDbEntity
  8
0
100
AcDbPolyline
 62
7
  6
CONTINUOUS
 90
16
 70
0
 10
50.3730280729
 20
18.4030034558
 10
50.3704969741
 20
18.4532706889
 10
50.3649046485
 20
18.5031722256
 10
50.3562345166
 20
18.552708066
 10
50.3444938128
 20
18.6020189607
 10
50.3296757168
 20
18.650964159
 10
50.3117255478
 20
18.6991214091
 10
50.2906597744
 20
18.7464778742
 10
50.2664595982
 20
18.7930463911
 10
50.2389422007
 20
18.8384432185
 10
50.208070657
 20
18.8827567134
 10
50.17382556
 20
18.9258985187
 10
50.1359556849
 20
18.9672198227
 10
50.094331806
 20
19.0065043547
 10
50.0490113624
 20
19.0439683853
 10
50.0
 20
19.0796119145
  0
LINE
  5
4E9
100
AcDbEntity
  8
0
100
AcDbLine
 62
250
  6
CONTINUOUS
 10
50.4588137117
 20
25.4673843954
 11
50.4610712909
 21
25.3808781693
  0
LINE
  5
4EA
100
AcDbEntity
  8
0
100
AcDbLine
 62
250
  6
CONTINUOUS
 10
50.4610712909
 20
25.3808781693
 11
50.4630742565
 21
25.275323621
  0
LINE
  5
4EB
100
AcDbEntity
  8
0
100
AcDbLine
 62
250
  6
CONTINUOUS
 10
50.4630742565
 20
25.275323621
 11
50.4654913855
 21
25.0879313236
  0
LINE
  5
4EC
100
AcDbEntity
  8
0
100
AcDbLine
 62
7
  6
CONTINUOUS
 10
50.4421891335
 20
-10.2711640801
 11
50.4305634789
 21
-8.9212475577
  0
LINE
  5
4ED
100
AcDbEntity
  8
0
100
AcDbLine
 62
7
  6
CONTINUOUS
 10
50.7897880096
 20
1.2303879091
 11
50.8014136642
 21
-0.1195286133
  0
LINE
  5
4EE
100
AcDbEntity
  8
0
100
AcDbLine
 62
250
  6
CONTINUOUS
 10
50.4654913855
 20
25.0879313236
 11
50.4670911746
 21
24.8762043682
  0
LINE
  5
4EF
100
AcDbEntity
  8
0
100
AcDbLine
 62
7
  6
CONTINUOUS
 10
50.4305634789
 20
-8.9212475577
 11
50.4221251231
 21
-7.4956840239
  0
LINE
  5
4F0
100
AcDbEntity
  8
0
100
AcDbLine
 62
7
  6
CONTINUOUS
 10
50.8014136642
 20
-0.1195286133
 11
50.80985202
 21
-1.5450921471
  0
LINE
  5
4F1
100
AcDbEntity
  8
0
100
AcDbLine
 62
7
  6
CONTINUOUS
 10
50.4221251231
 20
-7.4956840239
 11
50.4170163402
 21
-6.0256603247
  0
LINE
  5
4F2
100
AcDbEntity
  8
0
100
AcDbLine
 62
7
  6
CONTINUOUS
 10
50.80985202
 20
-1.5450921471
 11
50.814960803
 21
-3.0151158462
  0
LINE
  5
4F3
100
AcDbEntity
  8
0
100
AcDbLine
 62
7
  6
CONTINUOUS
 10
50.4170163402
 20
-6.0256603247
 11
50.4152858976
 21
-4.5203880855
  0
LINE
  5
4F4
100
AcDbEntity
  8
0
100
AcDbLine
 62
250
  6
CONTINUOUS
 10
50.4670911746
 20
24.8762043682
 11
50.4678629402
 21
24.5796119145
  0
LINE
  5
4F5
100
AcDbEntity
  8
0
100
AcDbLine
 62
7
  6
CONTINUOUS
 10
50.814960803
 20
-3.0151158462
 11
50.8166912456
 21
-4.5203880855
  0
LINE
  5
4F6
100
AcDbEntity
  8
DRAFT
100
AcDbLine
 62
7
  6
CONTINUOUS
 10
49.0
 20
-38.5203880855
 11
49.0
 21
-40.0203880855
  0
LINE
  5
4F7
100
AcDbEntity
  8
DRAFT
100
AcDbLine
 62
7
  6
CONTINUOUS
 10
49.0
 20
29.4796119145
 11
49.0
 21
30.9796119145
  0
LINE
  5
4F8
100
AcDbEntity
  8
RACCORDO
100
AcDbLine
 62
250
  6
CONTINUOUS
 10
49.2731956082
 20
-38.2445980596
 11
49.2731956082
 21
29.2038218886
  0
LINE
  5
4F9
100
AcDbEntity
  8
RACCORDO
100
AcDbLine
 62
7
  6
CONTINUOUS
 10
49.2757899725
 20
-38.244598113
 11
49.2757899725
 21
-40.0203880855
  0
LINE
  5
4FA
100
AcDbEntity
  8
RACCORDO
100
AcDbLine
 62
7
  6
CONTINUOUS
 10
49.2757899725
 20
29.2038219421
 11
49.2757899725
 21
30.9796119145
  0
LINE
  5
4FB
100
AcDbEntity
  8
0
100
AcDbLine
 62
7
  6
CONTINUOUS
 10
50.0
 20
19.0796119145
 11
50.0
 21
24.8796119145
  0
LINE
  5
4FC
100
AcDbEntity
  8
0
100
AcDbLine
 62
250
  6
CONTINUOUS
 10
50.3730280729
 20
-40.0203880855
 11
50.3730280729
 21
18.403009773
  0
LINE
  5
4FD
100
AcDbEntity
  8
0
100
AcDbLine
 62
250
  6
CONTINUOUS
 10
50.3730280729
 20
25.5562140516
 11
50.3730280729
 21
30.9796119145
  0
LINE
  5
4FE
100
AcDbEntity
  8
ASSI
100
AcDbLine
 62
7
  6
CONTINUOUS
 10
51.0
 20
30.9796119145
 11
51.0
 21
-40.0203880855
  0
LINE
  5
4FF
100
AcDbEntity
  8
DRAFT
100
AcDbLine
 62
7
  6
CONTINUOUS
 10
51.0
 20
-40.0203880855
 11
51.0
 21
30.9796119145
  0
LINE
  5
500
100
AcDbEntity
  8
0
100
AcDbLine
 62
7
  6
CONTINUOUS
 10
50.4152858976
 20
-4.5203880855
 11
50.4170163402
 21
-3.0151158462
  0
LINE
  5
501
100
AcDbEntity
  8
0
100
AcDbLine
 62
7
  6
CONTINUOUS
 10
50.8166912456
 20
-4.5203880855
 11
50.814960803
 21
-6.0256603247
  0
LINE
  5
502
100
AcDbEntity
  8
0
100
AcDbLine
 62
250
  6
CONTINUOUS
 10
50.4678629402
 20
24.5796119145
 11
50.4674316089
 21
19.1565113129
  0
LINE
  5
503
100
AcDbEntity
  8
0
100
AcDbLine
 62
7
  6
CONTINUOUS
 10
50.4170163402
 20
-3.0151158462
 11
50.4221251231
 21
-1.5450921471
  0
LINE
  5
504
100
AcDbEntity
  8
0
100
AcDbLine
 62
7
  6
CONTINUOUS
 10
50.814960803
 20
-6.0256603247
 11
50.80985202
 21
-7.4956840239
  0
LINE
  5
505
100
AcDbEntity
  8
0
100
AcDbLine
 62
7
  6
CONTINUOUS
 10
50.4221251231
 20
-1.5450921471
 11
50.4305634789
 21
-0.1195286133
  0
LINE
  5
506
100
AcDbEntity
  8
0
100
AcDbLine
 62
7
  6
CONTINUOUS
 10
50.80985202
 20
-7.4956840239
 11
50.8014136642
 21
-8.9212475577
  0
LINE
  5
507
100
AcDbEntity
  8
0
100
AcDbLine
 62
250
  6
CONTINUOUS
 10
50.4674316089
 20
19.1565113129
 11
50.4661207853
 21
18.9396383473
  0
LWPOLYLINE
  5
508
100
AcDbEntity
  8
0
100
AcDbPolyline
 62
7
  6
CONTINUOUS
 90
18
 70
0
 10
50.4305634789
 20
-0.1195286133
 10
50.4421891335
 20
1.2303879091
 10
50.449110397
 20
1.8686695942
 10
50.4567533477
 20
2.4793209383
 10
50.4651088577
 20
3.0626914041
 10
50.4740703498
 20
3.6113398982
 10
50.4836455863
 20
4.1248216385
 10
50.4938268048
 20
4.603581407
 10
50.5044841402
 20
5.041512456
 10
50.5156236916
 20
5.4380917773
 10
50.52723936
 20
5.793842379
 10
50.5391829834
 20
6.1042265384
 10
50.551458763
 20
6.3686631197
 10
50.5640624976
 20
6.5877332586
 10
50.5768334223
 20
6.7586426392
 10
50.5897736787
 20
6.880774331
 10
50.6028811251
 20
6.9547452645
 10
50.6160501144
 20
6.9796113739
  0
LWPOLYLINE
  5
509
100
AcDbEntity
  8
0
100
AcDbPolyline
 62
7
  6
CONTINUOUS
 90
18
 70
0
 10
50.8014136642
 20
-8.9212475577
 10
50.7897880096
 20
-10.2711640801
 10
50.7828667461
 20
-10.9094457652
 10
50.7752237955
 20
-11.5200971092
 10
50.7668682854
 20
-12.1034675751
 10
50.7579067934
 20
-12.6521160691
 10
50.7483315569
 20
-13.1655978094
 10
50.7381503384
 20
-13.6443575779
 10
50.727493003
 20
-14.082288627
 10
50.7163534516
 20
-14.4788679482
 10
50.7047377832
 20
-14.83461855
 10
50.6927941598
 20
-15.1450027094
 10
50.6805183802
 20
-15.4094392907
 10
50.6679146456
 20
-15.6285094296
 10
50.6551437209
 20
-15.7994188101
 10
50.6422034645
 20
-15.921550502
 10
50.629096018
 20
-15.9955214354
 10
50.6160501144
 20
-16.0203875448
  0
LINE
  5
50A
100
AcDbEntity
  8
0
100
AcDbLine
 62
250
  6
CONTINUOUS
 10
50.4661207853
 20
18.9396383473
 11
50.4639629443
 21
18.7426621149
  0
LINE
  5
50B
100
AcDbEntity
  8
0
100
AcDbLine
 62
250
  6
CONTINUOUS
 10
50.4639629443
 20
18.7426621149
 11
50.4621041784
 21
18.6287759699
  0
LWPOLYLINE
  5
50C
100
AcDbEntity
  8
0
100
AcDbPolyline
 62
250
  6
CONTINUOUS
 90
10
 70
0
 10
50.4621041784
 20
18.6287759699
 10
50.4599739011
 20
18.5327444632
 10
50.4588137699
 20
18.4918414106
 10
50.4576157877
 20
18.4563494121
 10
50.4563793714
 20
18.4264395297
 10
50.4551051041
 20
18.4019407015
 10
50.4538195516
 20
18.3830492954
 10
50.4525315691
 20
18.3698307676
 10
50.4512323014
 20
18.3622196619
 10
50.4499217485
 20
18.3602159785
  0
LWPOLYLINE
  5
50D
100
AcDbEntity
  8
0
100
AcDbPolyline
 62
250
  6
CONTINUOUS
 90
7
 70
0
 10
50.4499331765
 20
25.5990078502
 10
50.4437808514
 20
25.499878761
 10
50.4253937556
 20
25.4022779372
 10
50.3950553101
 20
25.3077098108
 10
50.3532331559
 20
25.2176320672
 10
50.3005719449
 20
25.1334331768
 10
50.2622676169
 20
25.0840886159
  0
LWPOLYLINE
  5
50E
100
AcDbEntity
  8
0
100
AcDbPolyline
 62
250
  6
CONTINUOUS
 90
10
 70
0
 10
30.880604064
 20
-45.4703098339
 10
30.8848625509
 20
-45.4616831925
 10
30.8892435555
 20
-45.4530772395
 10
30.8937470778
 20
-45.444491975
 10
30.8983710152
 20
-45.4359273502
 10
30.9031174702
 20
-45.4273834138
 10
30.9079927513
 20
-45.4188603118
 10
30.912998961
 20
-45.410358093
 10
30.9181339968
 20
-45.4018767085
 10
30.9233978585
 20
-45.3934161584
  0
LWPOLYLINE
  5
50F
100
AcDbEntity
  8
0
100
AcDbPolyline
 62
7
  6
CONTINUOUS
 90
5
 70
0
 10
50.2507881333
 20
18.8884867215
 10
50.2378825585
 20
18.9028147025
 10
50.1661341085
 20
18.9714736929
 10
50.086430392
 20
19.0307104649
 10
50.0
 20
19.0796119145
  0
LWPOLYLINE
  5
510
100
AcDbEntity
  8
0
100
AcDbPolyline
 62
7
  6
CONTINUOUS
 90
17
 70
0
 10
50.6160501144
 20
6.9796113739
 10
50.629096018
 20
6.9547452645
 10
50.6422034645
 20
6.880774331
 10
50.6551437209
 20
6.7586426392
 10
50.6679146456
 20
6.5877332586
 10
50.6805183802
 20
6.3686631197
 10
50.6927941598
 20
6.1042265384
 10
50.7047377832
 20
5.793842379
 10
50.7163534516
 20
5.4380917773
 10
50.727493003
 20
5.041512456
 10
50.7381503384
 20
4.603581407
 10
50.7483315569
 20
4.1248216385
 10
50.7579067934
 20
3.6113398982
 10
50.7668682854
 20
3.0626914041
 10
50.7752237955
 20
2.4793209383
 10
50.7828667461
 20
1.8686695942
 10
50.7897880096
 20
1.2303879091
  0
LWPOLYLINE
  5
511
100
AcDbEntity
  8
0
100
AcDbPolyline
 62
7
  6
CONTINUOUS
 90
5
 70
0
 10
31.408874807
 20
-45.2711762187
 10
31.423202788
 20
-45.258270644
 10
31.4918617783
 20
-45.186522194
 10
31.5510985504
 20
-45.1068184775
 10
31.6
 20
-45.0203880855
  0
LINE
  5
512
100
AcDbEntity
  8
DRAFT
100
AcDbLine
 62
7
  6
CONTINUOUS
 10
49.0
 20
29.4796119145
 11
49.2757899725
 21
29.2038219421
  0
LINE
  5
513
100
AcDbEntity
  8
DRAFT
100
AcDbLine
 62
7
  6
CONTINUOUS
 10
43.5
 20
34.9796119145
 11
43.2242099741
 21
35.2554019404
  0
LWPOLYLINE
  5
514
100
AcDbEntity
  8
0
100
AcDbPolyline
 62
250
  6
CONTINUOUS
 90
8
 70
0
 10
50.4499217485
 20
25.5990078505
 10
50.4512322875
 20
25.5970041878
 10
50.4525315436
 20
25.589393184
 10
50.4538195167
 20
25.5761748389
 10
50.4551050635
 20
25.5572836871
 10
50.4563793272
 20
25.5327851941
 10
50.4576157388
 20
25.5028757562
 10
50.4588137117
 20
25.4673843954
  0
LINE
  5
515
100
AcDbEntity
  8
DRAFT
100
AcDbLine
 62
7
  6
CONTINUOUS
 10
43.5
 20
-44.0203880855
 11
43.2242099741
 21
-44.2961781114
  0
LINE
  5
516
100
AcDbEntity
  8
DRAFT
100
AcDbLine
 62
7
  6
CONTINUOUS
 10
49.0
 20
-38.5203880855
 11
49.2757899725
 21
-38.244598113
  0
LWPOLYLINE
  5
517
100
AcDbEntity
  8
0
100
AcDbPolyline
 62
250
  6
CONTINUOUS
 90
8
 70
0
 10
38.119395936
 20
-45.4703098339
 10
38.1173922733
 20
-45.4716203729
 10
38.1097812694
 20
-45.472919629
 10
38.0965629243
 20
-45.4742076022
 10
38.0776717726
 20
-45.4754931489
 10
38.0531732796
 20
-45.4767674127
 10
38.0232638417
 20
-45.4780038243
 10
37.9877724809
 20
-45.4792017972
  0
CIRCLE
  5
518
100
AcDbEntity
  8
RACCORDO
100
AcDbCircle
 62
7
  6
CONTINUOUS
 10
-34.5
 20
-31.0203880855
 40
9.5
  0
CIRCLE
  5
519
100
AcDbEntity
  8
RACCORDO
100
AcDbCircle
 62
250
  6
CONTINUOUS
 10
-34.5
 20
-31.0203880855
 40
8.9999983613
  0
ARC
  5
51A
100
AcDbEntity
  8
ASSI
100
AcDbCircle
 62
7
  6
CONTINUOUS
 10
-45.0
 20
-40.0203880855
 40
6.0
100
AcDbArc
 50
180.0
 51
264.9524228029
  0
ARC
  5
51B
100
AcDbEntity
  8
DRAFT
100
AcDbCircle
 62
7
  6
CONTINUOUS
 10
-45.0
 20
-40.0203880855
 40
6.0
100
AcDbArc
 50
180.0
 51
270.0
  0
ARC
  5
51C
100
AcDbEntity
  8
RACCORDO
100
AcDbCircle
 62
250
  6
CONTINUOUS
 10
-45.0
 20
-40.0203880855
 40
5.3730280706
100
AcDbArc
 50
180.0
 51
270.0
  0
ARC
  5
51D
100
AcDbEntity
  8
RACCORDO
100
AcDbCircle
 62
7
  6
CONTINUOUS
 10
-45.0
 20
-40.0203880855
 40
4.2757899725
100
AcDbArc
 50
180.0
 51
270.0
  0
ARC
  5
51E
100
AcDbEntity
  8
DRAFT
100
AcDbCircle
 62
7
  6
CONTINUOUS
 10
-45.0
 20
-40.0203880855
 40
4.0
100
AcDbArc
 50
180.0
 51
270.0
  0
CIRCLE
  5
51F
100
AcDbEntity
  8
0
100
AcDbCircle
 62
7
  6
CONTINUOUS
 10
-34.5
 20
-31.0203880855
 40
2.25
  0
CIRCLE
  5
520
100
AcDbEntity
  8
0
100
AcDbCircle
 62
7
  6
CONTINUOUS
 10
-34.5
 20
-31.0203880855
 40
1.8
  0
ARC
  5
521
100
AcDbEntity
  8
DRAFT
100
AcDbCircle
 62
7
  6
CONTINUOUS
 10
-45.0
 20
-40.0203880855
 40
1.7757900259
100
AcDbArc
 50
0.0
 51
90.0
  0
ARC
  5
522
100
AcDbEntity
  8
DRAFT
100
AcDbCircle
 62
7
  6
CONTINUOUS
 10
-45.0
 20
-40.0203880855
 40
1.5
100
AcDbArc
 50
0.0
 51
90.0
  0
CIRCLE
  5
523
100
AcDbEntity
  8
0
100
AcDbCircle
 62
7
  6
CONTINUOUS
 10
-34.5
 20
-31.0203880855
 40
1.5
  0
CIRCLE
  5
524
100
AcDbEntity
  8
RACCORDO
100
AcDbCircle
 62
7
  6
CONTINUOUS
 10
-34.5
 20
21.9796119145
 40
9.5
  0
CIRCLE
  5
525
100
AcDbEntity
  8
RACCORDO
100
AcDbCircle
 62
250
  6
CONTINUOUS
 10
-34.5
 20
21.9796119145
 40
8.9999983613
  0
ARC
  5
526
100
AcDbEntity
  8
ASSI
100
AcDbCircle
 62
7
  6
CONTINUOUS
 10
-45.0
 20
30.9796119145
 40
6.0
100
AcDbArc
 50
90.0
 51
174.9524228029
  0
ARC
  5
527
100
AcDbEntity
  8
DRAFT
100
AcDbCircle
 62
7
  6
CONTINUOUS
 10
-45.0
 20
30.9796119145
 40
6.0
100
AcDbArc
 50
90.0
 51
180.0
  0
ARC
  5
528
100
AcDbEntity
  8
RACCORDO
100
AcDbCircle
 62
250
  6
CONTINUOUS
 10
-45.0
 20
30.9796119145
 40
5.3730280706
100
AcDbArc
 50
90.0
 51
180.0
  0
CIRCLE
  5
529
100
AcDbEntity
  8
RACCORDO
100
AcDbCircle
 62
7
  6
CONTINUOUS
 10
-28.3
 20
-4.5203880855
 40
4.8
  0
CIRCLE
  5
52A
100
AcDbEntity
  8
RACCORDO
100
AcDbCircle
 62
250
  6
CONTINUOUS
 10
-28.3
 20
-4.5203880855
 40
4.2999957281
  0
ARC
  5
52B
100
AcDbEntity
  8
RACCORDO
100
AcDbCircle
 62
7
  6
CONTINUOUS
 10
-45.0
 20
30.9796119145
 40
4.2757899725
100
AcDbArc
 50
90.0
 51
180.0
  0
ARC
  5
52C
100
AcDbEntity
  8
DRAFT
100
AcDbCircle
 62
7
  6
CONTINUOUS
 10
-45.0
 20
30.9796119145
 40
4.0
100
AcDbArc
 50
90.0
 51
180.0
  0
CIRCLE
  5
52D
100
AcDbEntity
  8
0
100
AcDbCircle
 62
7
  6
CONTINUOUS
 10
-34.5
 20
21.9796119145
 40
2.25
  0
CIRCLE
  5
52E
100
AcDbEntity
  8
0
100
AcDbCircle
 62
7
  6
CONTINUOUS
 10
-34.5
 20
21.9796119145
 40
1.8
  0
ARC
  5
52F
100
AcDbEntity
  8
DRAFT
100
AcDbCircle
 62
7
  6
CONTINUOUS
 10
-45.0
 20
30.9796119145
 40
1.7757900259
100
AcDbArc
 50
270.0
 51
360.0
  0
ARC
  5
530
100
AcDbEntity
  8
DRAFT
100
AcDbCircle
 62
7
  6
CONTINUOUS
 10
-45.0
 20
30.9796119145
 40
1.5
100
AcDbArc
 50
270.0
 51
360.0
  0
CIRCLE
  5
531
100
AcDbEntity
  8
0
100
AcDbCircle
 62
7
  6
CONTINUOUS
 10
-34.5
 20
21.9796119145
 40
1.5
  0
CIRCLE
  5
532
100
AcDbEntity
  8
RACCORDO
100
AcDbCircle
 62
7
  6
CONTINUOUS
 10
34.5
 20
-31.0203880855
 40
9.5
  0
CIRCLE
  5
533
100
AcDbEntity
  8
RACCORDO
100
AcDbCircle
 62
250
  6
CONTINUOUS
 10
34.5
 20
-31.0203880855
 40
8.9999983613
  0
ARC
  5
534
100
AcDbEntity
  8
ASSI
100
AcDbCircle
 62
7
  6
CONTINUOUS
 10
45.0
 20
-40.0203880855
 40
6.0
100
AcDbArc
 50
270.0
 51
354.9524228029
  0
ARC
  5
535
100
AcDbEntity
  8
DRAFT
100
AcDbCircle
 62
7
  6
CONTINUOUS
 10
45.0
 20
-40.0203880855
 40
6.0
100
AcDbArc
 50
270.0
 51
360.0
  0
ARC
  5
536
100
AcDbEntity
  8
RACCORDO
100
AcDbCircle
 62
250
  6
CONTINUOUS
 10
45.0
 20
-40.0203880855
 40
5.3730280706
100
AcDbArc
 50
270.0
 51
360.0
  0
ARC
  5
537
100
AcDbEntity
  8
RACCORDO
100
AcDbCircle
 62
7
  6
CONTINUOUS
 10
45.0
 20
-40.0203880855
 40
4.2757899725
100
AcDbArc
 50
270.0
 51
360.0
  0
ARC
  5
538
100
AcDbEntity
  8
DRAFT
100
AcDbCircle
 62
7
  6
CONTINUOUS
 10
45.0
 20
-40.0203880855
 40
4.0
100
AcDbArc
 50
270.0
 51
360.0
  0
CIRCLE
  5
539
100
AcDbEntity
  8
0
100
AcDbCircle
 62
7
  6
CONTINUOUS
 10
34.5
 20
-31.0203880855
 40
2.25
  0
CIRCLE
  5
53A
100
AcDbEntity
  8
0
100
AcDbCircle
 62
7
  6
CONTINUOUS
 10
34.5
 20
-31.0203880855
 40
1.8
  0
ARC
  5
53B
100
AcDbEntity
  8
DRAFT
100
AcDbCircle
 62
7
  6
CONTINUOUS
 10
45.0
 20
-40.0203880855
 40
1.7757900259
100
AcDbArc
 50
90.0
 51
180.0
  0
ARC
  5
53C
100
AcDbEntity
  8
DRAFT
100
AcDbCircle
 62
7
  6
CONTINUOUS
 10
45.0
 20
-40.0203880855
 40
1.5
100
AcDbArc
 50
90.0
 51
180.0
  0
CIRCLE
  5
53D
100
AcDbEntity
  8
0
100
AcDbCircle
 62
7
  6
CONTINUOUS
 10
34.5
 20
-31.0203880855
 40
1.5
  0
CIRCLE
  5
53E
100
AcDbEntity
  8
0
100
AcDbCircle
 62
7
  6
CONTINUOUS
 10
0.0
 20
-4.5203880855
 40
11.25
  0
ARC
  5
53F
100
AcDbEntity
  8
0
100
AcDbCircle
 62
7
  6
CONTINUOUS
 10
0.0
 20
-4.5203880855
 40
11.0
100
AcDbArc
 50
185.7391704773
 51
264.2608295227
  0
ARC
  5
540
100
AcDbEntity
  8
0
100
AcDbCircle
 62
7
  6
CONTINUOUS
 10
0.0
 20
-4.5203880855
 40
11.0
100
AcDbArc
 50
275.7391704773
 51
354.2608295227
  0
ARC
  5
541
100
AcDbEntity
  8
0
100
AcDbCircle
 62
7
  6
CONTINUOUS
 10
0.0
 20
-4.5203880855
 40
11.0
100
AcDbArc
 50
95.7391704773
 51
174.2608295227
  0
ARC
  5
542
100
AcDbEntity
  8
0
100
AcDbCircle
 62
7
  6
CONTINUOUS
 10
0.0
 20
-4.5203880855
 40
11.0
100
AcDbArc
 50
5.7391704773
 51
84.2608295227
  0
ARC
  5
543
100
AcDbEntity
  8
0
100
AcDbCircle
 62
7
  6
CONTINUOUS
 10
0.0
 20
-4.5203880855
 40
10.1299689469
100
AcDbArc
 50
6.233965798
 51
83.766034202
  0
ARC
  5
544
100
AcDbEntity
  8
0
100
AcDbCircle
 62
7
  6
CONTINUOUS
 10
0.0
 20
-4.5203880855
 40
10.1299689469
100
AcDbArc
 50
96.233965798
 51
173.766034202
  0
ARC
  5
545
100
AcDbEntity
  8
0
100
AcDbCircle
 62
7
  6
CONTINUOUS
 10
0.0
 20
-4.5203880855
 40
10.1299689469
100
AcDbArc
 50
186.233965798
 51
263.766034202
  0
ARC
  5
546
100
AcDbEntity
  8
0
100
AcDbCircle
 62
7
  6
CONTINUOUS
 10
0.0
 20
-4.5203880855
 40
10.1299689469
100
AcDbArc
 50
276.233965798
 51
353.766034202
  0
CIRCLE
  5
547
100
AcDbEntity
  8
RACCORDO
100
AcDbCircle
 62
7
  6
CONTINUOUS
 10
28.3
 20
-4.5203880855
 40
4.8
  0
CIRCLE
  5
548
100
AcDbEntity
  8
RACCORDO
100
AcDbCircle
 62
250
  6
CONTINUOUS
 10
28.3
 20
-4.5203880855
 40
4.2999957281
  0
CIRCLE
  5
549
100
AcDbEntity
  8
RACCORDO
100
AcDbCircle
 62
7
  6
CONTINUOUS
 10
34.5
 20
21.9796119145
 40
9.5
  0
CIRCLE
  5
54A
100
AcDbEntity
  8
RACCORDO
100
AcDbCircle
 62
250
  6
CONTINUOUS
 10
34.5
 20
21.9796119145
 40
8.9999983613
  0
ARC
  5
54B
100
AcDbEntity
  8
ASSI
100
AcDbCircle
 62
7
  6
CONTINUOUS
 10
45.0
 20
30.9796119145
 40
6.0
100
AcDbArc
 50
0.0
 51
84.952422803
  0
ARC
  5
54C
100
AcDbEntity
  8
DRAFT
100
AcDbCircle
 62
7
  6
CONTINUOUS
 10
45.0
 20
30.9796119145
 40
6.0
100
AcDbArc
 50
0.0
 51
90.0
  0
ARC
  5
54D
100
AcDbEntity
  8
RACCORDO
100
AcDbCircle
 62
250
  6
CONTINUOUS
 10
45.0
 20
30.9796119145
 40
5.3730280706
100
AcDbArc
 50
0.0
 51
90.0
  0
ARC
  5
54E
100
AcDbEntity
  8
RACCORDO
100
AcDbCircle
 62
7
  6
CONTINUOUS
 10
45.0
 20
30.9796119145
 40
4.2757899725
100
AcDbArc
 50
0.0
 51
90.0
  0
ARC
  5
54F
100
AcDbEntity
  8
DRAFT
100
AcDbCircle
 62
7
  6
CONTINUOUS
 10
45.0
 20
30.9796119145
 40
4.0
100
AcDbArc
 50
0.0
 51
90.0
  0
CIRCLE
  5
550
100
AcDbEntity
  8
0
100
AcDbCircle
 62
7
  6
CONTINUOUS
 10
34.5
 20
21.9796119145
 40
2.25
  0
CIRCLE
  5
551
100
AcDbEntity
  8
0
100
AcDbCircle
 62
7
  6
CONTINUOUS
 10
34.5
 20
21.9796119145
 40
1.8
  0
ARC
  5
552
100
AcDbEntity
  8
DRAFT
100
AcDbCircle
 62
7
  6
CONTINUOUS
 10
45.0
 20
30.9796119145
 40
1.7757900259
100
AcDbArc
 50
180.0
 51
270.0
  0
ARC
  5
553
100
AcDbEntity
  8
DRAFT
100
AcDbCircle
 62
7
  6
CONTINUOUS
 10
45.0
 20
30.9796119145
 40
1.5
100
AcDbArc
 50
180.0
 51
270.0
  0
CIRCLE
  5
554
100
AcDbEntity
  8
0
100
AcDbCircle
 62
7
  6
CONTINUOUS
 10
34.5
 20
21.9796119145
 40
1.5
  0
ENDSEC
  0
SECTION
  2
OBJECTS
  0
DICTIONARY
  5
C
100
AcDbDictionary
280
0
281
1
  3
ACAD_GROUP
350
D
  3
ACAD_MLINESTYLE
350
17
  3
ACAD_LAYOUT
350
1A
  3
ACAD_PLOTSETTINGS
350
19
  3
ACAD_PLOTSTYLENAME
350
E
  0
DICTIONARY
  5
D
102
{ACAD_REACTORS
330
C
102
}
100
AcDbDictionary
280
0
281
1
  0
ACDBDICTIONARYWDFLT
  5
E
102
{ACAD_REACTORS
330
C
102
}
100
AcDbDictionary
281
1
  3
Normal
350
F
100
AcDbDictionaryWithDefault
340
F
  0
DICTIONARY
  5
17
102
{ACAD_REACTORS
330
C
102
}
100
AcDbDictionary
280
0
281
1
  3
Standard
350
18
  0
DICTIONARY
  5
19
102
{ACAD_REACTORS
330
C
102
}
100
AcDbDictionary
281
1
  0
DICTIONARY
  5
1A
102
{ACAD_REACTORS
330
C
102
}
100
AcDbDictionary
281
1
  3
Model
350
555
  3
Layout1
350
556
  0
ACDBPLACEHOLDER
  5
F
102
{ACAD_REACTORS
330
E
102
}
  0
MLINESTYLE
  5
18
102
{ACAD_REACTORS
330
17
102
}
100
AcDbMlineStyle
  2
STANDARD
 70
0
  3

 62
256
 51
90.0
 52
90.0
 71
2
 49
0.5
 62
256
  6
BYLAYER
 49
-0.5
 62
256
  6
BYLAYER
  0
LAYOUT
  5
555
102
{ACAD_REACTORS
330
1A
102
}
100
AcDbPlotSettings
  1

  2
none_device
  4
ISO_A4_(297.00_x_210.00_MM)
  6

 40
0.0
 41
0.0
 42
0.0
 43
0.0
 44
297.0
 45
210.0
 46
0.0
 47
0.0
 48
0.0
 49
0.0
140
0.0
141
0.0
142
1.0
143
1.0
 70
1024
 72
1
 73
0
 74
0
  7

 75
0
147
1.0
148
0.0
149
0.0
100
AcDbLayout
  1
Model
 70
0
 71
0
 10
0.0
 20
0.0
 11
297.0
 21
210.0
 12
0.0
 22
0.0
 32
0.0
 14
0.0
 24
0.0
 34
0.0
 15
0.0
 25
0.0
 35
0.0
146
0.0
 13
0.0
 23
0.0
 33
0.0
 16
1.0
 26
0.0
 36
0.0
 17
0.0
 27
1.0
 37
0.0
 76
0
330
21B
345
0
346
0
  0
LAYOUT
  5
556
102
{ACAD_REACTORS
330
1A
102
}
100
AcDbPlotSettings
  1

  2
none_device
  4
ISO_A4_(297.00_x_210.00_MM)
  6

 40
0.0
 41
0.0
 42
0.0
 43
0.0
 44
297.0
 45
210.0
 46
0.0
 47
0.0
 48
0.0
 49
0.0
140
0.0
141
0.0
142
1.0
143
1.0
 70
0
 72
1
 73
0
 74
0
  7

 75
0
147
1.0
148
0.0
149
0.0
100
AcDbLayout
  1
Layout1
 70
0
 71
1
 10
0.0
 20
0.0
 11
297.0
 21
210.0
 12
0.0
 22
0.0
 32
0.0
 14
0.0
 24
0.0
 34
0.0
 15
0.0
 25
0.0
 35
0.0
146
0.0
 13
0.0
 23
0.0
 33
0.0
 16
1.0
 26
0.0
 36
0.0
 17
0.0
 27
1.0
 37
0.0
 76
0
330
21C
345
0
346
0
  0
ENDSEC
  0
EOF
