  0
SECTION
  2
HEADER
  9
$ACADVER
  1
AC1024
  9
$DWGCODEPAGE
  3
ANSI_1252
  9
$EXTMAX
 10
297.0
 20
210.0
 30
0.0
  9
$EXTMIN
 10
0.0
 20
0.0
 30
0.0
  9
$LIMMIN
 10
0.0
 20
0.0
  9
$LIMMAX
 10
297.0
 20
210.0
  9
$VIEWCTR
 10
148.5
 20
105.0
  9
$VIEWSIZE
 40
210.0
  9
$CLAYER
  8
0
  9
$LTSCALE
 40
16.335
  9
$CELTYPE
  6
BYLAYER
  9
$DIMSCALE
 40
1.0
  9
$DIMASZ
 40
3.0
  9
$DIMEXO
 40
0.5
  9
$DIMDLI
 40
11.286
  9
$DIMEXE
 40
1.5
  9
$DIMCEN
 40
2.673
  9
$DIMLFAC
 40
1.0
  9
$DIMBLK
  1
_FILLED
  9
$DIMALT
 70
0
  9
$DIMALTF
 40
0.0393700787
  9
$DIMTXT
 40
3.0
  9
$DIMTOL
 70
1
  9
$DIMLIM
 70
0
  9
$DIMTFAC
 40
1.0
  9
$DIMTP
 40
0.01
  9
$DIMTM
 40
0.01
  9
$DIMGAP
 40
0.625
  9
$DIMDSEP
 70
44
  9
$AUNITS
 70
0
  9
$PDMODE
 70
3
  9
$PDSIZE
 40
3.0
  9
$HANDSEED
  5
4F6
  9
$TILEMODE
 70
1
  9
$MEASUREMENT
 70
1
  9
$INSUNITS
 70
4
  0
ENDSEC
  0
SECTION
  2
CLASSES
  0
CLASS
  1
ACDBDICTIONARYWDFLT
  2
AcDbDictionaryWithDefault
  3
AutoCAD 2000
 90
0
 91
1
280
0
281
0
  0
CLASS
  1
ACDBPLACEHOLDER
  2
AcDbPlaceHolder
  3
AutoCAD 2000
 90
0
 91
1
280
0
281
0
  0
CLASS
  1
LAYOUT
  2
AcDbLayout
  3
AutoCAD 2000
 90
0
 91
0
280
0
281
0
  0
ENDSEC
  0
SECTION
  2
TABLES
  0
TABLE
  2
VPORT
  5
8
100
AcDbSymbolTable
 70
2
  0
VPORT
  5
1F4
100
AcDbSymbolTableRecord
100
AcDbViewportTableRecord
  2
*ACTIVE
 70
0
 10
0.0
 20
0.0
 11
1.0
 21
1.0
 12
148.5
 22
105.0
 13
0.0
 23
0.0
 14
1.0
 24
1.0
 15
0.0
 25
0.0
 16
0.0
 26
0.0
 36
1.0
 17
0.0
 27
0.0
 37
0.0
 40
210.0
 41
1.4142857143
 42
50.0
 43
0.0
 44
0.0
 50
0.0
 51
0.0
 71
0
 72
100
 73
1
 74
1
 75
0
 76
0
 77
0
 78
0
  0
ENDTAB
  0
TABLE
  2
LTYPE
  5
5
100
AcDbSymbolTable
 70
6
  0
LTYPE
  5
14
100
AcDbSymbolTableRecord
100
AcDbLinetypeTableRecord
  2
BYBLOCK
 70
0
  3

 72
65
 73
0
 40
0.0
  0
LTYPE
  5
15
100
AcDbSymbolTableRecord
100
AcDbLinetypeTableRecord
  2
BYLAYER
 70
0
  3

 72
65
 73
0
 40
0.0
  0
LTYPE
  5
16
100
AcDbSymbolTableRecord
100
AcDbLinetypeTableRecord
  2
CONTINUOUS
 70
64
  3
Solid line
 72
65
 73
0
 40
0.0
  0
LTYPE
  5
1F5
100
AcDbSymbolTableRecord
100
AcDbLinetypeTableRecord
  2
CENTER
 70
64
  3
____ _ ____ _ ____ _ ____ _ ____ _ ____ _ ____
 72
65
 73
4
 40
0.6
 49
0.375
 74
0
 49
-0.075
 74
0
 49
0.075
 74
0
 49
-0.075
 74
0
  0
LTYPE
  5
1F6
100
AcDbSymbolTableRecord
100
AcDbLinetypeTableRecord
  2
HIDDEN
 70
64
  3
- - - - - - - - - - - - - - - - - - - -
 72
65
 73
2
 40
0.2
 49
0.1
 74
0
 49
-0.1
 74
0
  0
LTYPE
  5
1F7
100
AcDbSymbolTableRecord
100
AcDbLinetypeTableRecord
  2
PHANTOM
 70
64
  3
_____ _ _ _____ _ _ _____ _ _ _____
 72
65
 73
6
 40
0.8
 49
0.45
 74
0
 49
-0.05
 74
0
 49
0.1
 74
0
 49
-0.05
 74
0
 49
0.1
 74
0
 49
-0.05
 74
0
  0
LTYPE
  5
1F8
100
AcDbSymbolTableRecord
100
AcDbLinetypeTableRecord
  2
DOT
 70
64
  3
. . . . . . . . . . . . . . . . . . . .
 72
65
 73
2
 40
0.2
 49
0.1
 74
0
 49
-0.1
 74
0
  0
LTYPE
  5
1F9
100
AcDbSymbolTableRecord
100
AcDbLinetypeTableRecord
  2
DASHED
 70
64
  3
- - - - - - - - - - - - - - - - - - - -
 72
65
 73
2
 40
0.2
 49
0.1
 74
0
 49
-0.1
 74
0
  0
ENDTAB
  0
TABLE
  2
LAYER
  5
2
100
AcDbSymbolTable
 70
36
  0
LAYER
  5
10
100
AcDbSymbolTableRecord
100
AcDbLayerTableRecord
  2
0
 70
0
 62
7
  6
CONTINUOUS
370
-3
390
F
  0
LAYER
  5
1FA
100
AcDbSymbolTableRecord
100
AcDbLayerTableRecord
  2
DEFAULT_1
 70
0
 62
7
  6
CENTER
370
-3
390
F
  0
LAYER
  5
1FB
100
AcDbSymbolTableRecord
100
AcDbLayerTableRecord
  2
DEFAULT_2
 70
0
 62
7
  6
HIDDEN
370
-3
390
F
  0
LAYER
  5
1FC
100
AcDbSymbolTableRecord
100
AcDbLayerTableRecord
  2
DEFAULT_3
 70
0
 62
7
  6
PHANTOM
370
-3
390
F
  0
LAYER
  5
1FD
100
AcDbSymbolTableRecord
100
AcDbLayerTableRecord
  2
ASSI
 70
0
 62
7
  6
CONTINUOUS
370
-3
390
F
  0
LAYER
  5
1FE
100
AcDbSymbolTableRecord
100
AcDbLayerTableRecord
  2
COORDINATE
 70
0
 62
7
  6
CONTINUOUS
370
-3
390
F
  0
LAYER
  5
1FF
100
AcDbSymbolTableRecord
100
AcDbLayerTableRecord
  2
COORD_ORIGINE
 70
0
 62
7
  6
CONTINUOUS
370
-3
390
F
  0
LAYER
  5
200
100
AcDbSymbolTableRecord
100
AcDbLayerTableRecord
  2
COSMETICI
 70
0
 62
7
  6
CONTINUOUS
370
-3
390
F
  0
LAYER
  5
201
100
AcDbSymbolTableRecord
100
AcDbLayerTableRecord
  2
CURVE
 70
0
 62
7
  6
CONTINUOUS
370
-3
390
F
  0
LAYER
  5
202
100
AcDbSymbolTableRecord
100
AcDbLayerTableRecord
  2
DRAFT
 70
0
 62
7
  6
CONTINUOUS
370
-3
390
F
  0
LAYER
  5
203
100
AcDbSymbolTableRecord
100
AcDbLayerTableRecord
  2
NOTE
 70
0
 62
7
  6
CONTINUOUS
370
-3
390
F
  0
LAYER
  5
204
100
AcDbSymbolTableRecord
100
AcDbLayerTableRecord
  2
PIANI
 70
0
 62
7
  6
CONTINUOUS
370
-3
390
F
  0
LAYER
  5
205
100
AcDbSymbolTableRecord
100
AcDbLayerTableRecord
  2
PIANI_ORIGINE
 70
0
 62
7
  6
CONTINUOUS
370
-3
390
F
  0
LAYER
  5
206
100
AcDbSymbolTableRecord
100
AcDbLayerTableRecord
  2
PUNTI
 70
0
 62
7
  6
CONTINUOUS
370
-3
390
F
  0
LAYER
  5
207
100
AcDbSymbolTableRecord
100
AcDbLayerTableRecord
  2
RACCORDO
 70
0
 62
7
  6
CONTINUOUS
370
-3
390
F
  0
LAYER
  5
208
100
AcDbSymbolTableRecord
100
AcDbLayerTableRecord
  2
SIMBOLI
 70
0
 62
7
  6
CONTINUOUS
370
-3
390
F
  0
LAYER
  5
209
100
AcDbSymbolTableRecord
100
AcDbLayerTableRecord
  2
SNAPLINE
 70
0
 62
7
  6
CONTINUOUS
370
-3
390
F
  0
LAYER
  5
20A
100
AcDbSymbolTableRecord
100
AcDbLayerTableRecord
  2
SUPERFICI
 70
0
 62
7
  6
CONTINUOUS
370
-3
390
F
  0
LAYER
  5
20B
100
AcDbSymbolTableRecord
100
AcDbLayerTableRecord
  2
TRASH
 70
0
 62
7
  6
CONTINUOUS
370
-3
390
F
  0
LAYER
  5
20C
100
AcDbSymbolTableRecord
100
AcDbLayerTableRecord
  2
XSEC_DATUMS
 70
0
 62
7
  6
CONTINUOUS
370
-3
390
F
  0
ENDTAB
  0
TABLE
  2
STYLE
  5
3
100
AcDbSymbolTable
 70
1
  0
STYLE
  5
11
100
AcDbSymbolTableRecord
100
AcDbTextStyleTableRecord
  2
STANDARD
 70
0
 40
0.0
 41
0.8
 50
0.0
 71
0
 42
0.2
  3
txt
  4

  0
STYLE
  5
20D
100
AcDbSymbolTableRecord
100
AcDbTextStyleTableRecord
  2
TEXTSTYLE_1
 70
0
 40
0.0
 41
0.8
 50
0.0
 71
0
 42
0.2
  3
gdt
  4

  0
ENDTAB
  0
TABLE
  2
VIEW
  5
6
100
AcDbSymbolTable
 70
0
  0
ENDTAB
  0
TABLE
  2
UCS
  5
7
100
AcDbSymbolTable
 70
0
  0
ENDTAB
  0
TABLE
  2
APPID
  5
9
100
AcDbSymbolTable
 70
1
  0
APPID
  5
20E
100
AcDbSymbolTableRecord
100
AcDbRegAppTableRecord
  2
ACAD
 70
0
  0
ENDTAB
  0
TABLE
  2
BLOCK_RECORD
  5
1
100
AcDbSymbolTable
 70
0
  0
BLOCK_RECORD
  5
20F
100
AcDbSymbolTableRecord
100
AcDbBlockTableRecord
  2
*Model_Space
  0
BLOCK_RECORD
  5
210
100
AcDbSymbolTableRecord
100
AcDbBlockTableRecord
  2
*Paper_Space
  0
BLOCK_RECORD
  5
211
100
AcDbSymbolTableRecord
100
AcDbBlockTableRecord
  2
_FILLED
  0
ENDTAB
  0
TABLE
  2
DIMSTYLE
  5
A
100
AcDbSymbolTable
 70
1
100
AcDbDimStyleTable
 71
0
  0
DIMSTYLE
105
212
100
AcDbSymbolTableRecord
100
AcDbDimStyleTableRecord
  2
STANDARD
 70
0
  3

  4

 40
1.0
 41
3.0
 42
0.5
 43
0.38
 44
1.5
 45
0.0
 46
0.0
 47
0.01
 48
0.01
140
3.0
141
0.09
142
0.0
143
25.4
144
1.0
145
0.0
146
1.0
147
0.625
 71
1.0
 72
0.0
 73
0
 74
0
 75
0
 76
0
 77
1
 78
8
 79
2
170
0
171
1
172
0
173
0
174
0
175
0
176
0
177
0
178
0
270
2
179
2
271
2
272
2
273
2
274
2
275
0
280
0
281
0
282
0
283
1
284
8
285
0
286
0
287
3
288
0
340
11
278
44
341
211
342
211
343
211
344
211
  0
ENDTAB
  0
ENDSEC
  0
SECTION
  2
BLOCKS
  0
BLOCK
  5
20
100
AcDbEntity
  8
0
100
AcDbBlockBegin
  2
*Model_Space
 70
0
 10
0.0
 20
0.0
 30
0.0
  3
*Model_Space
  1

  0
ENDBLK
  5
21
100
AcDbEntity
  8
0
100
AcDbBlockEnd
  0
BLOCK
  5
1C
100
AcDbEntity
  8
0
100
AcDbBlockBegin
  2
*Paper_Space
 70
0
 10
0.0
 20
0.0
 30
0.0
  3
*Paper_Space
  1

  0
ENDBLK
  5
1D
100
AcDbEntity
  8
0
100
AcDbBlockEnd
  0
BLOCK
  5
213
100
AcDbEntity
  8
0
100
AcDbBlockBegin
  2
_FILLED
 70
64
 10
0.0
 20
0.0
  3
_FILLED
  1

  0
SOLID
  5
214
100
AcDbEntity
  8
0
  6
BYBLOCK
 62
0
100
AcDbTrace
 10
0.0
 20
0.0
 11
-1.0
 21
0.3166666667
 12
-1.0
 22
-0.3166666667
 13
-1.0
 23
-0.3166666667
  0
ENDBLK
  5
215
100
AcDbEntity
  8
0
  6
BYBLOCK
 62
0
100
AcDbBlockEnd
  0
ENDSEC
  0
SECTION
  2
ENTITIES
  0
LWPOLYLINE
  5
216
100
AcDbEntity
  8
RACCORDO
100
AcDbPolyline
 62
250
  6
CONTINUOUS
 90
16
 70
0
 10
39.2884003331
 20
30.0134190333
 10
39.297057145
 20
29.8548676482
 10
39.3213116955
 20
29.7010194528
 10
39.3611639844
 20
29.5518744471
 10
39.4173923217
 20
29.4057881913
 10
39.4892183974
 20
29.2644051251
 10
39.5743072822
 20
29.1326585683
 10
39.6731131768
 20
29.0109760821
 10
39.7851818804
 20
28.8989301052
 10
39.9068158611
 20
28.8001712729
 10
40.0383607163
 20
28.7151615302
 10
40.1794708485
 20
28.643438932
 10
40.3254119329
 20
28.5872682791
 10
40.474605861
 20
28.5474045051
 10
40.6286307413
 20
28.5230926763
 10
40.7874865736
 20
28.5143327928
  0
LWPOLYLINE
  5
217
100
AcDbEntity
  8
RACCORDO
100
AcDbPolyline
 62
250
  6
CONTINUOUS
 90
16
 70
0
 10
37.7893140926
 20
30.0134190333
 10
37.8059368528
 20
29.6998411273
 10
37.8552449458
 20
29.3897415612
 10
37.936690265
 20
29.0865146997
 10
38.0493695131
 20
28.7934841436
 10
38.1920439262
 20
28.5138498207
 10
38.3631593488
 20
28.2506561614
 10
38.5608812115
 20
28.006742461
 10
38.7830134671
 20
27.7848296155
 10
39.026998649
 20
27.5874387013
 10
39.2900453553
 20
27.4167472218
 10
39.569332752
 20
27.2745082985
 10
39.86194752
 20
27.16217847
 10
40.1647516872
 20
27.0809765349
 10
40.4743911511
 20
27.0318183041
 10
40.7874865736
 20
27.0152465522
  0
LINE
  5
218
100
AcDbEntity
  8
RACCORDO
100
AcDbLine
 62
7
  6
CONTINUOUS
 10
35.3954133065
 20
173.6231732851
 11
35.3954133065
 21
27.6195182472
  0
LINE
  5
219
100
AcDbEntity
  8
RACCORDO
100
AcDbLine
 62
250
  6
CONTINUOUS
 10
37.7893140926
 20
171.229272499
 11
37.7893140926
 21
30.0134190333
  0
LINE
  5
21A
100
AcDbEntity
  8
DRAFT
100
AcDbLine
 62
7
  6
CONTINUOUS
 10
38.796138286
 20
131.1206207866
 11
38.796138286
 21
130.7211515084
  0
LINE
  5
21B
100
AcDbEntity
  8
DRAFT
100
AcDbLine
 62
7
  6
CONTINUOUS
 10
38.796138286
 20
120.8215400238
 11
38.796138286
 21
120.4211515084
  0
LINE
  5
21C
100
AcDbEntity
  8
DRAFT
100
AcDbLine
 62
7
  6
CONTINUOUS
 10
38.796138286
 20
112.1213457661
 11
38.796138286
 21
89.1213457661
  0
LINE
  5
21D
100
AcDbEntity
  8
DRAFT
100
AcDbLine
 62
7
  6
CONTINUOUS
 10
38.796138286
 20
80.8215400238
 11
38.796138286
 21
80.4211515084
  0
LINE
  5
21E
100
AcDbEntity
  8
DRAFT
100
AcDbLine
 62
7
  6
CONTINUOUS
 10
38.796138286
 20
70.5215400238
 11
38.796138286
 21
70.1220707457
  0
LINE
  5
21F
100
AcDbEntity
  8
DRAFT
100
AcDbLine
 62
7
  6
CONTINUOUS
 10
39.0955219767
 20
130.6409318903
 11
39.0955219767
 21
120.901759642
  0
LINE
  5
220
100
AcDbEntity
  8
DRAFT
100
AcDbLine
 62
7
  6
CONTINUOUS
 10
39.0955219767
 20
120.3409318903
 11
39.0955219767
 21
112.1213457661
  0
LINE
  5
221
100
AcDbEntity
  8
DRAFT
100
AcDbLine
 62
7
  6
CONTINUOUS
 10
39.0955219767
 20
89.1213457661
 11
39.0955219767
 21
80.901759642
  0
LINE
  5
222
100
AcDbEntity
  8
DRAFT
100
AcDbLine
 62
7
  6
CONTINUOUS
 10
39.0955219767
 20
80.3409318903
 11
39.0955219767
 21
70.601759642
  0
LINE
  5
223
100
AcDbEntity
  8
DRAFT
100
AcDbLine
 62
7
  6
CONTINUOUS
 10
39.1401245842
 20
130.7766344884
 11
39.1401245842
 21
130.6289806576
  0
LINE
  5
224
100
AcDbEntity
  8
DRAFT
100
AcDbLine
 62
7
  6
CONTINUOUS
 10
39.1401245842
 20
120.9137108746
 11
39.1401245842
 21
120.3289806576
  0
LINE
  5
225
100
AcDbEntity
  8
DRAFT
100
AcDbLine
 62
7
  6
CONTINUOUS
 10
39.1401245842
 20
80.9137108746
 11
39.1401245842
 21
80.3289806576
  0
LINE
  5
226
100
AcDbEntity
  8
DRAFT
100
AcDbLine
 62
7
  6
CONTINUOUS
 10
39.1401245842
 20
70.6137108746
 11
39.1401245842
 21
70.4660570439
  0
LINE
  5
227
100
AcDbEntity
  8
DRAFT
100
AcDbLine
 62
7
  6
CONTINUOUS
 10
39.239406625
 20
70.6403134173
 11
39.239406625
 21
80.302378115
  0
LINE
  5
228
100
AcDbEntity
  8
DRAFT
100
AcDbLine
 62
7
  6
CONTINUOUS
 10
39.239406625
 20
80.9403134173
 11
39.239406625
 21
86.1213457661
  0
LINE
  5
229
100
AcDbEntity
  8
DRAFT
100
AcDbLine
 62
7
  6
CONTINUOUS
 10
39.239406625
 20
115.1213457661
 11
39.239406625
 21
120.302378115
  0
LINE
  5
22A
100
AcDbEntity
  8
DRAFT
100
AcDbLine
 62
7
  6
CONTINUOUS
 10
39.239406625
 20
120.9403134173
 11
39.239406625
 21
130.602378115
  0
LINE
  5
22B
100
AcDbEntity
  8
DRAFT
100
AcDbLine
 62
250
  6
CONTINUOUS
 10
39.2884003331
 20
171.229272499
 11
39.2884003331
 21
131.1213457661
  0
LINE
  5
22C
100
AcDbEntity
  8
DRAFT
100
AcDbLine
 62
250
  6
CONTINUOUS
 10
39.2884003331
 20
70.1213457661
 11
39.2884003331
 21
30.0134190333
  0
LINE
  5
22D
100
AcDbEntity
  8
DRAFT
100
AcDbLine
 62
7
  6
CONTINUOUS
 10
39.539406625
 20
130.5219933573
 11
39.539406625
 21
121.020698175
  0
LINE
  5
22E
100
AcDbEntity
  8
DRAFT
100
AcDbLine
 62
7
  6
CONTINUOUS
 10
39.539406625
 20
120.2219933573
 11
39.539406625
 21
115.1213457661
  0
LINE
  5
22F
100
AcDbEntity
  8
DRAFT
100
AcDbLine
 62
7
  6
CONTINUOUS
 10
39.539406625
 20
70.720698175
 11
39.539406625
 21
80.2219933573
  0
LINE
  5
230
100
AcDbEntity
  8
DRAFT
100
AcDbLine
 62
7
  6
CONTINUOUS
 10
39.539406625
 20
81.020698175
 11
39.539406625
 21
86.1213457661
  0
LINE
  5
231
100
AcDbEntity
  8
DRAFT
100
AcDbLine
 62
7
  6
CONTINUOUS
 10
39.7401245842
 20
130.4682111422
 11
39.7401245842
 21
121.0744803901
  0
LINE
  5
232
100
AcDbEntity
  8
DRAFT
100
AcDbLine
 62
7
  6
CONTINUOUS
 10
39.7401245842
 20
120.1682111422
 11
39.7401245842
 21
81.0744803901
  0
LINE
  5
233
100
AcDbEntity
  8
DRAFT
100
AcDbLine
 62
7
  6
CONTINUOUS
 10
39.7401245842
 20
80.1682111422
 11
39.7401245842
 21
70.7744803901
  0
LINE
  5
234
100
AcDbEntity
  8
RACCORDO
100
AcDbLine
 62
250
  6
CONTINUOUS
 10
40.7874865736
 20
28.5143327928
 11
40.7874865736
 21
27.0152465522
  0
LINE
  5
235
100
AcDbEntity
  8
RACCORDO
100
AcDbLine
 62
250
  6
CONTINUOUS
 10
40.7874865736
 20
172.7283587395
 11
40.7874866007
 21
174.22744498
  0
LINE
  5
236
100
AcDbEntity
  8
DRAFT
100
AcDbLine
 62
7
  6
CONTINUOUS
 10
51.1110709685
 20
72.6835235926
 11
51.0499782413
 21
73.6213457661
  0
LINE
  5
237
100
AcDbEntity
  8
DRAFT
100
AcDbLine
 62
7
  6
CONTINUOUS
 10
50.4215959038
 20
95.4892949586
 11
50.4390509688
 21
95.2213457661
  0
LINE
  5
238
100
AcDbEntity
  8
DRAFT
100
AcDbLine
 62
7
  6
CONTINUOUS
 10
51.1110709685
 20
105.7835235926
 11
51.0499782413
 21
106.7213457661
  0
LINE
  5
239
100
AcDbEntity
  8
DRAFT
100
AcDbLine
 62
7
  6
CONTINUOUS
 10
50.4215959038
 20
128.5892949586
 11
50.4390509688
 21
128.3213457661
  0
LINE
  5
23A
100
AcDbEntity
  8
DRAFT
100
AcDbLine
 62
7
  6
CONTINUOUS
 10
50.4215959038
 20
71.4442398744
 11
50.4085036081
 21
72.6533965737
  0
LINE
  5
23B
100
AcDbEntity
  8
DRAFT
100
AcDbLine
 62
7
  6
CONTINUOUS
 10
50.4215959038
 20
95.4892949586
 11
50.4085036081
 21
96.6984516579
  0
LINE
  5
23C
100
AcDbEntity
  8
DRAFT
100
AcDbLine
 62
7
  6
CONTINUOUS
 10
50.4215959038
 20
104.5442398744
 11
50.4085036081
 21
105.7533965737
  0
LINE
  5
23D
100
AcDbEntity
  8
DRAFT
100
AcDbLine
 62
7
  6
CONTINUOUS
 10
50.4215959038
 20
128.5892949586
 11
50.4085036081
 21
129.7984516579
  0
LINE
  5
23E
100
AcDbEntity
  8
DRAFT
100
AcDbLine
 62
7
  6
CONTINUOUS
 10
50.3954133065
 20
97.7582556771
 11
50.3954133065
 21
103.4844358551
  0
LINE
  5
23F
100
AcDbEntity
  8
DRAFT
100
AcDbLine
 62
7
  6
CONTINUOUS
 10
50.4085036081
 20
70.4660570439
 11
50.4085036081
 21
71.4442398744
  0
LINE
  5
240
100
AcDbEntity
  8
DRAFT
100
AcDbLine
 62
7
  6
CONTINUOUS
 10
50.4085036081
 20
72.6533965737
 11
50.4085036081
 21
95.4892949586
  0
LINE
  5
241
100
AcDbEntity
  8
DRAFT
100
AcDbLine
 62
7
  6
CONTINUOUS
 10
50.4085036081
 20
96.6984516579
 11
50.4085036081
 21
97.7582556771
  0
LINE
  5
242
100
AcDbEntity
  8
DRAFT
100
AcDbLine
 62
7
  6
CONTINUOUS
 10
50.4085036081
 20
103.4844358551
 11
50.4085036081
 21
104.5442398744
  0
LINE
  5
243
100
AcDbEntity
  8
DRAFT
100
AcDbLine
 62
7
  6
CONTINUOUS
 10
50.4085036081
 20
105.7533965737
 11
50.4085036081
 21
128.5892949586
  0
LINE
  5
244
100
AcDbEntity
  8
DRAFT
100
AcDbLine
 62
7
  6
CONTINUOUS
 10
50.4085036081
 20
129.7984516579
 11
50.4085036081
 21
130.7766344884
  0
LINE
  5
245
100
AcDbEntity
  8
DRAFT
100
AcDbLine
 62
7
  6
CONTINUOUS
 10
50.4390509688
 20
128.3213457661
 11
50.4390509688
 21
106.0213457661
  0
LINE
  5
246
100
AcDbEntity
  8
DRAFT
100
AcDbLine
 62
7
  6
CONTINUOUS
 10
50.4390509688
 20
95.2213457661
 11
50.4390509688
 21
72.9213457661
  0
LINE
  5
247
100
AcDbEntity
  8
DRAFT
100
AcDbLine
 62
7
  6
CONTINUOUS
 10
51.0499782413
 20
73.6213457661
 11
51.0499782413
 21
94.5213457661
  0
LINE
  5
248
100
AcDbEntity
  8
DRAFT
100
AcDbLine
 62
7
  6
CONTINUOUS
 10
51.0499782413
 20
106.7213457661
 11
51.0499782413
 21
127.6213457661
  0
LINE
  5
249
100
AcDbEntity
  8
DRAFT
100
AcDbLine
 62
7
  6
CONTINUOUS
 10
51.1110709685
 20
71.1431629356
 11
51.1110709685
 21
72.6835235926
  0
LINE
  5
24A
100
AcDbEntity
  8
DRAFT
100
AcDbLine
 62
7
  6
CONTINUOUS
 10
51.1110709685
 20
95.4591679396
 11
51.1110709685
 21
96.9995285967
  0
LINE
  5
24B
100
AcDbEntity
  8
DRAFT
100
AcDbLine
 62
7
  6
CONTINUOUS
 10
51.1110709685
 20
104.2431629356
 11
51.1110709685
 21
105.7835235926
  0
LINE
  5
24C
100
AcDbEntity
  8
DRAFT
100
AcDbLine
 62
7
  6
CONTINUOUS
 10
51.1110709685
 20
128.5591679396
 11
51.1110709685
 21
130.0995285967
  0
LINE
  5
24D
100
AcDbEntity
  8
DRAFT
100
AcDbLine
 62
7
  6
CONTINUOUS
 10
52.4226708486
 20
73.6213457661
 11
52.4226708486
 21
94.5213457661
  0
LINE
  5
24E
100
AcDbEntity
  8
DRAFT
100
AcDbLine
 62
7
  6
CONTINUOUS
 10
52.4226708486
 20
106.7213457661
 11
52.4226708486
 21
127.6213457661
  0
LINE
  5
24F
100
AcDbEntity
  8
DRAFT
100
AcDbLine
 62
7
  6
CONTINUOUS
 10
52.4532148859
 20
70.1213457661
 11
52.4532148859
 21
71.1431629356
  0
LINE
  5
250
100
AcDbEntity
  8
DRAFT
100
AcDbLine
 62
7
  6
CONTINUOUS
 10
52.4532148859
 20
72.6835235926
 11
52.4532148859
 21
95.4591679396
  0
LINE
  5
251
100
AcDbEntity
  8
DRAFT
100
AcDbLine
 62
7
  6
CONTINUOUS
 10
52.4532148859
 20
96.9995285967
 11
52.4532148859
 21
97.7582556771
  0
LINE
  5
252
100
AcDbEntity
  8
DRAFT
100
AcDbLine
 62
7
  6
CONTINUOUS
 10
52.4532148859
 20
103.4844358551
 11
52.4532148859
 21
104.2431629356
  0
LINE
  5
253
100
AcDbEntity
  8
DRAFT
100
AcDbLine
 62
7
  6
CONTINUOUS
 10
52.4532148859
 20
105.7835235926
 11
52.4532148859
 21
128.5591679396
  0
LINE
  5
254
100
AcDbEntity
  8
DRAFT
100
AcDbLine
 62
7
  6
CONTINUOUS
 10
52.4532148859
 20
130.0995285967
 11
52.4532148859
 21
131.1213457661
  0
LINE
  5
255
100
AcDbEntity
  8
DRAFT
100
AcDbLine
 62
7
  6
CONTINUOUS
 10
51.0499782413
 20
127.6213457661
 11
51.1110709685
 21
128.5591679396
  0
LINE
  5
256
100
AcDbEntity
  8
DRAFT
100
AcDbLine
 62
7
  6
CONTINUOUS
 10
50.4390509688
 20
106.0213457661
 11
50.4215959038
 21
105.7533965737
  0
LINE
  5
257
100
AcDbEntity
  8
DRAFT
100
AcDbLine
 62
7
  6
CONTINUOUS
 10
51.0499782413
 20
94.5213457661
 11
51.1110709685
 21
95.4591679396
  0
LINE
  5
258
100
AcDbEntity
  8
DRAFT
100
AcDbLine
 62
7
  6
CONTINUOUS
 10
50.4390509688
 20
72.9213457661
 11
50.4215959038
 21
72.6533965737
  0
LINE
  5
259
100
AcDbEntity
  8
0
100
AcDbLine
 62
7
  6
CONTINUOUS
 10
58.3954133065
 20
100.1838458257
 11
58.3954133065
 21
99.9338457065
  0
LINE
  5
25A
100
AcDbEntity
  8
0
100
AcDbLine
 62
7
  6
CONTINUOUS
 10
58.3954133065
 20
98.3713457661
 11
58.3954133065
 21
97.9963457661
  0
LINE
  5
25B
100
AcDbEntity
  8
0
100
AcDbLine
 62
7
  6
CONTINUOUS
 10
58.7145622046
 20
99.8713457661
 11
58.7145622046
 21
100.1213457065
  0
LINE
  5
25C
100
AcDbEntity
  8
0
100
AcDbLine
 62
7
  6
CONTINUOUS
 10
59.0975408823
 20
98.9338457661
 11
59.0975408823
 21
99.2463458257
  0
LINE
  5
25D
100
AcDbEntity
  8
0
100
AcDbLine
 62
7
  6
CONTINUOUS
 10
61.0762643636
 20
101.1213456469
 11
61.0762643636
 21
99.3713457065
  0
LINE
  5
25E
100
AcDbEntity
  8
0
100
AcDbLine
 62
7
  6
CONTINUOUS
 10
61.3954133065
 20
97.9963457661
 11
61.3954133065
 21
98.3713457661
  0
LINE
  5
25F
100
AcDbEntity
  8
0
100
AcDbLine
 62
7
  6
CONTINUOUS
 10
61.3954133065
 20
98.8713457363
 11
61.3954133065
 21
101.1213456469
  0
LINE
  5
260
100
AcDbEntity
  8
0
100
AcDbLine
 62
7
  6
CONTINUOUS
 10
58.4592430861
 20
103.1213458853
 11
58.3954133065
 21
102.7463458853
  0
LINE
  5
261
100
AcDbEntity
  8
0
100
AcDbLine
 62
7
  6
CONTINUOUS
 10
58.4592430861
 20
100.5588458257
 11
58.3954133065
 21
100.1838458257
  0
LINE
  5
262
100
AcDbEntity
  8
0
100
AcDbLine
 62
7
  6
CONTINUOUS
 10
61.3315835212
 20
102.3713458853
 11
61.3954133065
 21
102.7463458853
  0
LINE
  5
263
100
AcDbEntity
  8
0
100
AcDbLine
 62
7
  6
CONTINUOUS
 10
58.7145622046
 20
102.7463458853
 11
58.7783919842
 21
103.0588457661
  0
LINE
  5
264
100
AcDbEntity
  8
0
100
AcDbLine
 62
7
  6
CONTINUOUS
 10
58.7145622046
 20
100.1213457065
 11
58.7783919842
 21
100.4338457661
  0
LINE
  5
265
100
AcDbEntity
  8
0
100
AcDbLine
 62
7
  6
CONTINUOUS
 10
61.0762643636
 20
102.7463458853
 11
61.012434584
 21
102.4338456469
  0
LINE
  5
266
100
AcDbEntity
  8
DRAFT
100
AcDbLine
 62
7
  6
CONTINUOUS
 10
50.7313977164
 20
131.0995285967
 11
50.4085036081
 21
130.7766344884
  0
LWPOLYLINE
  5
267
100
AcDbEntity
  8
RACCORDO
100
AcDbPolyline
 62
250
  6
CONTINUOUS
 90
16
 70
0
 10
236.0033400393
 20
28.5143327928
 10
236.1618914244
 20
28.5229896047
 10
236.3157396198
 20
28.5472441551
 10
236.4648846254
 20
28.5870964441
 10
236.6109708813
 20
28.6433247813
 10
236.7523539474
 20
28.7151508571
 10
236.8841005043
 20
28.8002397419
 10
237.0057829905
 20
28.8990456365
 10
237.1178289674
 20
29.0111143401
 10
237.2165877996
 20
29.1327483207
 10
237.3015975424
 20
29.264293176
 10
237.3733201406
 20
29.4054033082
 10
237.4294907934
 20
29.5513443925
 10
237.4693545675
 20
29.7005383207
 10
237.4936663963
 20
29.8545632009
 10
237.5024262798
 20
30.0134190333
  0
LWPOLYLINE
  5
268
100
AcDbEntity
  8
RACCORDO
100
AcDbPolyline
 62
250
  6
CONTINUOUS
 90
16
 70
0
 10
236.0033400393
 20
27.0152465522
 10
236.3169179452
 20
27.0318693124
 10
236.6270175114
 20
27.0811774054
 10
236.9302443729
 20
27.1626227246
 10
237.223274929
 20
27.2753019728
 10
237.5029092519
 20
27.4179763859
 10
237.7661029112
 20
27.5890918085
 10
238.0100166116
 20
27.7868136712
 10
238.2319294571
 20
28.0089459268
 10
238.4293203712
 20
28.2529311087
 10
238.6000118508
 20
28.515977815
 10
238.7422507741
 20
28.7952652116
 10
238.8545806026
 20
29.0878799797
 10
238.9357825377
 20
29.3906841468
 10
238.9849407684
 20
29.7003236108
 10
239.0015125203
 20
30.0134190333
  0
LINE
  5
269
100
AcDbEntity
  8
RACCORDO
100
AcDbLine
 62
7
  6
CONTINUOUS
 10
38.3935857875
 20
24.6213457661
 11
238.3972408254
 21
24.6213457661
  0
LINE
  5
26A
100
AcDbEntity
  8
DRAFT
100
AcDbLine
 62
7
  6
CONTINUOUS
 10
50.7313977164
 20
70.1431629356
 11
50.4085036081
 21
70.4660570439
  0
LINE
  5
26B
100
AcDbEntity
  8
0
100
AcDbLine
 62
7
  6
CONTINUOUS
 10
58.7783919842
 20
99.5588457065
 11
58.7145622046
 21
99.8713457661
  0
LINE
  5
26C
100
AcDbEntity
  8
0
100
AcDbLine
 62
7
  6
CONTINUOUS
 10
58.7783919842
 20
102.4338456469
 11
58.7145622046
 21
102.7463458853
  0
LINE
  5
26D
100
AcDbEntity
  8
0
100
AcDbLine
 62
7
  6
CONTINUOUS
 10
58.3954133065
 20
102.7463458853
 11
58.4592430861
 21
102.3713458853
  0
LINE
  5
26E
100
AcDbEntity
  8
0
100
AcDbLine
 62
7
  6
CONTINUOUS
 10
58.3954133065
 20
99.9338457065
 11
58.4592430861
 21
99.4963457661
  0
LINE
  5
26F
100
AcDbEntity
  8
0
100
AcDbLine
 62
7
  6
CONTINUOUS
 10
63.1454133065
 20
152.8713457661
 11
63.1454133065
 21
48.3713457661
  0
LINE
  5
270
100
AcDbEntity
  8
0
100
AcDbLine
 62
7
  6
CONTINUOUS
 10
63.6454133065
 20
48.3713457661
 11
63.6454133065
 21
152.8713457661
  0
LINE
  5
271
100
AcDbEntity
  8
0
100
AcDbLine
 62
7
  6
CONTINUOUS
 10
71.1454133065
 20
40.8713457661
 11
71.1454133065
 21
40.3713457661
  0
LINE
  5
272
100
AcDbEntity
  8
0
100
AcDbLine
 62
7
  6
CONTINUOUS
 10
58.5869026453
 20
100.8088457661
 11
58.4592430861
 21
100.5588458257
  0
LINE
  5
273
100
AcDbEntity
  8
0
100
AcDbLine
 62
7
  6
CONTINUOUS
 10
58.650732425
 20
103.4338457661
 11
58.4592430861
 21
103.1213458853
  0
LINE
  5
274
100
AcDbEntity
  8
0
100
AcDbLine
 62
7
  6
CONTINUOUS
 10
58.7783919842
 20
103.0588457661
 11
58.9060515435
 21
103.2463457661
  0
LINE
  5
275
100
AcDbEntity
  8
RACCORDO
100
AcDbLine
 62
250
  6
CONTINUOUS
 10
40.7874865736
 20
27.0152465522
 11
236.0033400393
 21
27.0152465522
  0
LINE
  5
276
100
AcDbEntity
  8
DRAFT
100
AcDbLine
 62
7
  6
CONTINUOUS
 10
107.8954133065
 20
28.0220707457
 11
108.2956075641
 21
28.0220707457
  0
LINE
  5
277
100
AcDbEntity
  8
DRAFT
100
AcDbLine
 62
7
  6
CONTINUOUS
 10
118.1952190488
 20
28.0220707457
 11
118.5956075641
 21
28.0220707457
  0
LINE
  5
278
100
AcDbEntity
  8
DRAFT
100
AcDbLine
 62
7
  6
CONTINUOUS
 10
126.8954133065
 20
28.0220707457
 11
149.8954133065
 21
28.0220707457
  0
LINE
  5
279
100
AcDbEntity
  8
DRAFT
100
AcDbLine
 62
7
  6
CONTINUOUS
 10
158.1952190488
 20
28.0220707457
 11
158.5956075641
 21
28.0220707457
  0
LINE
  5
27A
100
AcDbEntity
  8
DRAFT
100
AcDbLine
 62
7
  6
CONTINUOUS
 10
168.4952190488
 20
28.0220707457
 11
168.8954133065
 21
28.0220707457
  0
LINE
  5
27B
100
AcDbEntity
  8
DRAFT
100
AcDbLine
 62
7
  6
CONTINUOUS
 10
108.3758271823
 20
28.3214544364
 11
118.1149994306
 21
28.3214544364
  0
LINE
  5
27C
100
AcDbEntity
  8
DRAFT
100
AcDbLine
 62
7
  6
CONTINUOUS
 10
118.6758271823
 20
28.3214544364
 11
126.8954133065
 21
28.3214544364
  0
LINE
  5
27D
100
AcDbEntity
  8
DRAFT
100
AcDbLine
 62
7
  6
CONTINUOUS
 10
149.8954133065
 20
28.3214544364
 11
158.1149994306
 21
28.3214544364
  0
LINE
  5
27E
100
AcDbEntity
  8
DRAFT
100
AcDbLine
 62
7
  6
CONTINUOUS
 10
158.6758271823
 20
28.3214544364
 11
168.4149994306
 21
28.3214544364
  0
LINE
  5
27F
100
AcDbEntity
  8
DRAFT
100
AcDbLine
 62
7
  6
CONTINUOUS
 10
107.8954133065
 20
28.3660570439
 11
108.3877784149
 21
28.3660570439
  0
LINE
  5
280
100
AcDbEntity
  8
DRAFT
100
AcDbLine
 62
7
  6
CONTINUOUS
 10
118.103048198
 20
28.3660570439
 11
118.6877784149
 21
28.3660570439
  0
LINE
  5
281
100
AcDbEntity
  8
DRAFT
100
AcDbLine
 62
7
  6
CONTINUOUS
 10
158.103048198
 20
28.3660570439
 11
158.6877784149
 21
28.3660570439
  0
LINE
  5
282
100
AcDbEntity
  8
DRAFT
100
AcDbLine
 62
7
  6
CONTINUOUS
 10
168.403048198
 20
28.3660570439
 11
168.8954133065
 21
28.3660570439
  0
LINE
  5
283
100
AcDbEntity
  8
DRAFT
100
AcDbLine
 62
7
  6
CONTINUOUS
 10
168.3764456553
 20
28.4653390847
 11
158.7143809576
 21
28.4653390847
  0
LINE
  5
284
100
AcDbEntity
  8
DRAFT
100
AcDbLine
 62
7
  6
CONTINUOUS
 10
158.0764456553
 20
28.4653390847
 11
152.8954133065
 21
28.4653390847
  0
LINE
  5
285
100
AcDbEntity
  8
DRAFT
100
AcDbLine
 62
7
  6
CONTINUOUS
 10
123.8954133065
 20
28.4653390847
 11
118.7143809576
 21
28.4653390847
  0
LINE
  5
286
100
AcDbEntity
  8
DRAFT
100
AcDbLine
 62
7
  6
CONTINUOUS
 10
118.0764456553
 20
28.4653390847
 11
108.4143809576
 21
28.4653390847
  0
LINE
  5
287
100
AcDbEntity
  8
ASSI
100
AcDbLine
 62
250
  6
CONTINUOUS
 10
40.7874865736
 20
28.5143327928
 11
107.8954133065
 21
28.5143327928
  0
LINE
  5
288
100
AcDbEntity
  8
ASSI
100
AcDbLine
 62
250
  6
CONTINUOUS
 10
168.8954133065
 20
28.5143327928
 11
236.0033400393
 21
28.5143327928
  0
LINE
  5
289
100
AcDbEntity
  8
DRAFT
100
AcDbLine
 62
7
  6
CONTINUOUS
 10
168.2960608976
 20
28.7653390847
 11
158.7947657153
 21
28.7653390847
  0
LINE
  5
28A
100
AcDbEntity
  8
DRAFT
100
AcDbLine
 62
7
  6
CONTINUOUS
 10
157.9960608976
 20
28.7653390847
 11
152.8954133065
 21
28.7653390847
  0
LINE
  5
28B
100
AcDbEntity
  8
DRAFT
100
AcDbLine
 62
7
  6
CONTINUOUS
 10
108.4947657153
 20
28.7653390847
 11
117.9960608976
 21
28.7653390847
  0
LINE
  5
28C
100
AcDbEntity
  8
DRAFT
100
AcDbLine
 62
7
  6
CONTINUOUS
 10
118.7947657153
 20
28.7653390847
 11
123.8954133065
 21
28.7653390847
  0
LINE
  5
28D
100
AcDbEntity
  8
DRAFT
100
AcDbLine
 62
7
  6
CONTINUOUS
 10
108.5485479304
 20
28.9660570439
 11
117.9422786825
 21
28.9660570439
  0
LINE
  5
28E
100
AcDbEntity
  8
DRAFT
100
AcDbLine
 62
7
  6
CONTINUOUS
 10
118.8485479304
 20
28.9660570439
 11
157.9422786825
 21
28.9660570439
  0
LINE
  5
28F
100
AcDbEntity
  8
DRAFT
100
AcDbLine
 62
7
  6
CONTINUOUS
 10
158.8485479304
 20
28.9660570439
 11
168.2422786825
 21
28.9660570439
  0
LINE
  5
290
100
AcDbEntity
  8
RACCORDO
100
AcDbLine
 62
250
  6
CONTINUOUS
 10
39.2884003331
 20
30.0134190333
 11
37.7893140926
 21
30.0134190603
  0
LINE
  5
291
100
AcDbEntity
  8
RACCORDO
100
AcDbLine
 62
250
  6
CONTINUOUS
 10
237.5024262798
 20
30.0134190333
 11
239.0015125203
 21
30.0134190333
  0
LINE
  5
292
100
AcDbEntity
  8
0
100
AcDbLine
 62
7
  6
CONTINUOUS
 10
58.4592430861
 20
102.3713458853
 11
58.650732425
 21
102.0588456469
  0
LINE
  5
293
100
AcDbEntity
  8
0
100
AcDbLine
 62
7
  6
CONTINUOUS
 10
58.4592430861
 20
99.4963457661
 11
58.5869026453
 21
99.2463458257
  0
LINE
  5
294
100
AcDbEntity
  8
0
100
AcDbLine
 62
7
  6
CONTINUOUS
 10
61.012434584
 20
103.0588457661
 11
61.0762643636
 21
102.7463458853
  0
LINE
  5
295
100
AcDbEntity
  8
0
100
AcDbLine
 62
7
  6
CONTINUOUS
 10
61.3954133065
 20
102.7463458853
 11
61.3315835212
 21
103.1213458853
  0
LINE
  5
296
100
AcDbEntity
  8
0
100
AcDbLine
 62
7
  6
CONTINUOUS
 10
61.1400941656
 20
102.0588456469
 11
61.3315835212
 21
102.3713458853
  0
LINE
  5
297
100
AcDbEntity
  8
0
100
AcDbLine
 62
7
  6
CONTINUOUS
 10
58.7783919842
 20
100.4338457661
 11
58.9060515435
 21
100.6213457661
  0
LINE
  5
298
100
AcDbEntity
  8
0
100
AcDbLine
 62
7
  6
CONTINUOUS
 10
61.012434584
 20
102.4338456469
 11
60.8847750247
 21
102.2463456469
  0
LINE
  5
299
100
AcDbEntity
  8
DRAFT
100
AcDbLine
 62
7
  6
CONTINUOUS
 10
51.0674333062
 20
130.1213457661
 11
50.4215959038
 21
129.7984516579
  0
LINE
  5
29A
100
AcDbEntity
  8
DRAFT
100
AcDbLine
 62
7
  6
CONTINUOUS
 10
160.527464114
 20
35.9475283635
 11
160.7954133065
 21
35.9649834284
  0
LINE
  5
29B
100
AcDbEntity
  8
DRAFT
100
AcDbLine
 62
7
  6
CONTINUOUS
 10
166.63323548
 20
36.6370034282
 11
165.6954133065
 21
36.5759107009
  0
LINE
  5
29C
100
AcDbEntity
  8
DRAFT
100
AcDbLine
 62
7
  6
CONTINUOUS
 10
139.277464114
 20
35.9475283635
 11
139.5454133065
 21
35.9649834284
  0
LINE
  5
29D
100
AcDbEntity
  8
DRAFT
100
AcDbLine
 62
7
  6
CONTINUOUS
 10
149.13323548
 20
36.6370034282
 11
148.1954133065
 21
36.5759107009
  0
LINE
  5
29E
100
AcDbEntity
  8
DRAFT
100
AcDbLine
 62
7
  6
CONTINUOUS
 10
118.027464114
 20
35.9475283635
 11
118.2954133065
 21
35.9649834284
  0
LINE
  5
29F
100
AcDbEntity
  8
DRAFT
100
AcDbLine
 62
7
  6
CONTINUOUS
 10
124.13323548
 20
36.6370034282
 11
123.1954133065
 21
36.5759107009
  0
LINE
  5
2A0
100
AcDbEntity
  8
DRAFT
100
AcDbLine
 62
7
  6
CONTINUOUS
 10
160.527464114
 20
35.9475283635
 11
158.7633624989
 21
35.9344360678
  0
LINE
  5
2A1
100
AcDbEntity
  8
DRAFT
100
AcDbLine
 62
7
  6
CONTINUOUS
 10
139.277464114
 20
35.9475283635
 11
137.5133624989
 21
35.9344360678
  0
LINE
  5
2A2
100
AcDbEntity
  8
DRAFT
100
AcDbLine
 62
7
  6
CONTINUOUS
 10
118.027464114
 20
35.9475283635
 11
116.2633624989
 21
35.9344360678
  0
LINE
  5
2A3
100
AcDbEntity
  8
DRAFT
100
AcDbLine
 62
7
  6
CONTINUOUS
 10
168.8954133065
 20
35.9344360678
 11
160.527464114
 21
35.9344360678
  0
LINE
  5
2A4
100
AcDbEntity
  8
DRAFT
100
AcDbLine
 62
7
  6
CONTINUOUS
 10
158.7633624989
 20
35.9344360678
 11
139.277464114
 21
35.9344360678
  0
LINE
  5
2A5
100
AcDbEntity
  8
DRAFT
100
AcDbLine
 62
7
  6
CONTINUOUS
 10
137.5133624989
 20
35.9344360678
 11
118.027464114
 21
35.9344360678
  0
LINE
  5
2A6
100
AcDbEntity
  8
DRAFT
100
AcDbLine
 62
7
  6
CONTINUOUS
 10
116.2633624989
 20
35.9344360678
 11
107.8954133065
 21
35.9344360678
  0
LINE
  5
2A7
100
AcDbEntity
  8
DRAFT
100
AcDbLine
 62
7
  6
CONTINUOUS
 10
109.2095805469
 20
35.9649834284
 11
115.9954133065
 21
35.9649834284
  0
LINE
  5
2A8
100
AcDbEntity
  8
DRAFT
100
AcDbLine
 62
7
  6
CONTINUOUS
 10
118.2954133065
 20
35.9649834284
 11
125.081246066
 21
35.9649834284
  0
LINE
  5
2A9
100
AcDbEntity
  8
DRAFT
100
AcDbLine
 62
7
  6
CONTINUOUS
 10
126.7095805469
 20
35.9649834284
 11
137.2454133065
 21
35.9649834284
  0
LINE
  5
2AA
100
AcDbEntity
  8
DRAFT
100
AcDbLine
 62
7
  6
CONTINUOUS
 10
139.5454133065
 20
35.9649834284
 11
150.081246066
 21
35.9649834284
  0
LINE
  5
2AB
100
AcDbEntity
  8
DRAFT
100
AcDbLine
 62
7
  6
CONTINUOUS
 10
151.7095805469
 20
35.9649834284
 11
158.4954133065
 21
35.9649834284
  0
LINE
  5
2AC
100
AcDbEntity
  8
DRAFT
100
AcDbLine
 62
7
  6
CONTINUOUS
 10
160.7954133065
 20
35.9649834284
 11
167.581246066
 21
35.9649834284
  0
LINE
  5
2AD
100
AcDbEntity
  8
DRAFT
100
AcDbLine
 62
7
  6
CONTINUOUS
 10
165.6954133065
 20
36.5759107009
 11
153.5954133065
 21
36.5759107009
  0
LINE
  5
2AE
100
AcDbEntity
  8
DRAFT
100
AcDbLine
 62
7
  6
CONTINUOUS
 10
148.1954133065
 20
36.5759107009
 11
128.5954133065
 21
36.5759107009
  0
LINE
  5
2AF
100
AcDbEntity
  8
DRAFT
100
AcDbLine
 62
7
  6
CONTINUOUS
 10
123.1954133065
 20
36.5759107009
 11
111.0954133065
 21
36.5759107009
  0
LINE
  5
2B0
100
AcDbEntity
  8
DRAFT
100
AcDbLine
 62
7
  6
CONTINUOUS
 10
167.873596137
 20
36.6370034282
 11
166.63323548
 21
36.6370034282
  0
LINE
  5
2B1
100
AcDbEntity
  8
DRAFT
100
AcDbLine
 62
7
  6
CONTINUOUS
 10
152.6575911329
 20
36.6370034282
 11
151.4172304759
 21
36.6370034282
  0
LINE
  5
2B2
100
AcDbEntity
  8
DRAFT
100
AcDbLine
 62
7
  6
CONTINUOUS
 10
150.373596137
 20
36.6370034282
 11
149.13323548
 21
36.6370034282
  0
LINE
  5
2B3
100
AcDbEntity
  8
DRAFT
100
AcDbLine
 62
7
  6
CONTINUOUS
 10
127.6575911329
 20
36.6370034282
 11
126.4172304759
 21
36.6370034282
  0
LINE
  5
2B4
100
AcDbEntity
  8
DRAFT
100
AcDbLine
 62
7
  6
CONTINUOUS
 10
125.373596137
 20
36.6370034282
 11
124.13323548
 21
36.6370034282
  0
LINE
  5
2B5
100
AcDbEntity
  8
DRAFT
100
AcDbLine
 62
7
  6
CONTINUOUS
 10
110.1575911329
 20
36.6370034282
 11
108.9172304759
 21
36.6370034282
  0
LINE
  5
2B6
100
AcDbEntity
  8
DRAFT
100
AcDbLine
 62
7
  6
CONTINUOUS
 10
165.6954133065
 20
37.6486033083
 11
153.5954133065
 21
37.6486033083
  0
LINE
  5
2B7
100
AcDbEntity
  8
DRAFT
100
AcDbLine
 62
7
  6
CONTINUOUS
 10
148.1954133065
 20
37.6486033083
 11
128.5954133065
 21
37.6486033083
  0
LINE
  5
2B8
100
AcDbEntity
  8
DRAFT
100
AcDbLine
 62
7
  6
CONTINUOUS
 10
123.1954133065
 20
37.6486033083
 11
111.0954133065
 21
37.6486033083
  0
LINE
  5
2B9
100
AcDbEntity
  8
DRAFT
100
AcDbLine
 62
7
  6
CONTINUOUS
 10
168.8954133065
 20
37.6791473456
 11
167.873596137
 21
37.6791473456
  0
LINE
  5
2BA
100
AcDbEntity
  8
DRAFT
100
AcDbLine
 62
7
  6
CONTINUOUS
 10
166.63323548
 20
37.6791473456
 11
152.6575911329
 21
37.6791473456
  0
LINE
  5
2BB
100
AcDbEntity
  8
DRAFT
100
AcDbLine
 62
7
  6
CONTINUOUS
 10
151.4172304759
 20
37.6791473456
 11
150.373596137
 21
37.6791473456
  0
LINE
  5
2BC
100
AcDbEntity
  8
DRAFT
100
AcDbLine
 62
7
  6
CONTINUOUS
 10
149.13323548
 20
37.6791473456
 11
127.6575911329
 21
37.6791473456
  0
LINE
  5
2BD
100
AcDbEntity
  8
DRAFT
100
AcDbLine
 62
7
  6
CONTINUOUS
 10
126.4172304759
 20
37.6791473456
 11
125.373596137
 21
37.6791473456
  0
LINE
  5
2BE
100
AcDbEntity
  8
DRAFT
100
AcDbLine
 62
7
  6
CONTINUOUS
 10
124.13323548
 20
37.6791473456
 11
110.1575911329
 21
37.6791473456
  0
LINE
  5
2BF
100
AcDbEntity
  8
DRAFT
100
AcDbLine
 62
7
  6
CONTINUOUS
 10
108.9172304759
 20
37.6791473456
 11
107.8954133065
 21
37.6791473456
  0
LINE
  5
2C0
100
AcDbEntity
  8
0
100
AcDbLine
 62
7
  6
CONTINUOUS
 10
71.1454133065
 20
40.3713457661
 11
205.6454133065
 21
40.3713457661
  0
LINE
  5
2C1
100
AcDbEntity
  8
0
100
AcDbLine
 62
7
  6
CONTINUOUS
 10
205.6454133065
 20
40.8713457661
 11
71.1454133065
 21
40.8713457661
  0
LINE
  5
2C2
100
AcDbEntity
  8
0
100
AcDbLine
 62
7
  6
CONTINUOUS
 10
135.7704133065
 20
41.6213457661
 11
136.1454133065
 21
41.6213457661
  0
LINE
  5
2C3
100
AcDbEntity
  8
0
100
AcDbLine
 62
7
  6
CONTINUOUS
 10
137.5829133661
 20
41.6213457661
 11
137.9579133661
 21
41.6213457661
  0
LINE
  5
2C4
100
AcDbEntity
  8
0
100
AcDbLine
 62
7
  6
CONTINUOUS
 10
137.9579133661
 20
41.940494709
 11
137.5829133661
 21
41.940494709
  0
LINE
  5
2C5
100
AcDbEntity
  8
DRAFT
100
AcDbLine
 62
7
  6
CONTINUOUS
 10
115.9954133065
 20
35.9649834284
 11
116.2633624989
 21
35.9475283635
  0
LINE
  5
2C6
100
AcDbEntity
  8
DRAFT
100
AcDbLine
 62
7
  6
CONTINUOUS
 10
111.0954133065
 20
36.5759107009
 11
110.1575911329
 21
36.6370034282
  0
LINE
  5
2C7
100
AcDbEntity
  8
DRAFT
100
AcDbLine
 62
7
  6
CONTINUOUS
 10
137.2454133065
 20
35.9649834284
 11
137.5133624989
 21
35.9475283635
  0
LINE
  5
2C8
100
AcDbEntity
  8
DRAFT
100
AcDbLine
 62
7
  6
CONTINUOUS
 10
128.5954133065
 20
36.5759107009
 11
127.6575911329
 21
36.6370034282
  0
LINE
  5
2C9
100
AcDbEntity
  8
DRAFT
100
AcDbLine
 62
7
  6
CONTINUOUS
 10
158.4954133065
 20
35.9649834284
 11
158.7633624989
 21
35.9475283635
  0
LINE
  5
2CA
100
AcDbEntity
  8
DRAFT
100
AcDbLine
 62
7
  6
CONTINUOUS
 10
153.5954133065
 20
36.5759107009
 11
152.6575911329
 21
36.6370034282
  0
LINE
  5
2CB
100
AcDbEntity
  8
DRAFT
100
AcDbLine
 62
7
  6
CONTINUOUS
 10
50.4215959038
 20
71.4442398744
 11
51.0674333062
 21
71.1213457661
  0
LINE
  5
2CC
100
AcDbEntity
  8
0
100
AcDbLine
 62
7
  6
CONTINUOUS
 10
58.9060515435
 20
99.3713457065
 11
58.7783919842
 21
99.5588457065
  0
LINE
  5
2CD
100
AcDbEntity
  8
0
100
AcDbLine
 62
7
  6
CONTINUOUS
 10
58.9060515435
 20
102.2463456469
 11
58.7783919842
 21
102.4338456469
  0
LINE
  5
2CE
100
AcDbEntity
  8
0
100
AcDbLine
 62
7
  6
CONTINUOUS
 10
60.8847750247
 20
103.2463457661
 11
61.012434584
 21
103.0588457661
  0
LINE
  5
2CF
100
AcDbEntity
  8
0
100
AcDbLine
 62
7
  6
CONTINUOUS
 10
61.3315835212
 20
103.1213458853
 11
61.1400941656
 21
103.4338457661
  0
LINE
  5
2D0
100
AcDbEntity
  8
DRAFT
100
AcDbLine
 62
7
  6
CONTINUOUS
 10
109.2095805469
 20
165.2777081038
 11
108.8954133065
 21
164.6493257664
  0
LINE
  5
2D1
100
AcDbEntity
  8
0
100
AcDbLine
 62
7
  6
CONTINUOUS
 10
58.8422217638
 20
103.6213457661
 11
58.650732425
 21
103.4338457661
  0
LINE
  5
2D2
100
AcDbEntity
  8
0
100
AcDbLine
 62
7
  6
CONTINUOUS
 10
58.8422217638
 20
101.0588458853
 11
58.5869026453
 21
100.8088457661
  0
LINE
  5
2D3
100
AcDbEntity
  8
0
100
AcDbLine
 62
7
  6
CONTINUOUS
 10
60.9486048044
 20
101.8713456469
 11
61.1400941656
 21
102.0588456469
  0
LINE
  5
2D4
100
AcDbEntity
  8
0
100
AcDbLine
 62
7
  6
CONTINUOUS
 10
138.2079133065
 20
42.0043244886
 11
137.9579133661
 21
41.940494709
  0
LINE
  5
2D5
100
AcDbEntity
  8
0
100
AcDbLine
 62
7
  6
CONTINUOUS
 10
137.3329132468
 20
43.1532606559
 11
137.5829133661
 21
43.2170904356
  0
LINE
  5
2D6
100
AcDbEntity
  8
0
100
AcDbLine
 62
7
  6
CONTINUOUS
 10
140.8329133065
 20
42.0043244886
 11
140.5204134257
 21
41.940494709
  0
LINE
  5
2D7
100
AcDbEntity
  8
0
100
AcDbLine
 62
7
  6
CONTINUOUS
 10
137.9579133661
 20
41.6213457661
 11
138.2704132468
 21
41.6851755513
  0
LINE
  5
2D8
100
AcDbEntity
  8
0
100
AcDbLine
 62
7
  6
CONTINUOUS
 10
137.5829133661
 20
43.5362393337
 11
137.2704133065
 21
43.4724095541
  0
LINE
  5
2D9
100
AcDbEntity
  8
0
100
AcDbLine
 62
7
  6
CONTINUOUS
 10
140.2079131872
 20
44.2383670884
 11
140.5204134257
 21
44.302196868
  0
LINE
  5
2DA
100
AcDbEntity
  8
0
100
AcDbLine
 62
7
  6
CONTINUOUS
 10
140.5204134257
 20
41.6213457661
 11
140.8954134257
 21
41.6851755513
  0
LINE
  5
2DB
100
AcDbEntity
  8
0
100
AcDbLine
 62
7
  6
CONTINUOUS
 10
140.5204134257
 20
44.6213457661
 11
140.1454134257
 21
44.5575159865
  0
LINE
  5
2DC
100
AcDbEntity
  8
0
100
AcDbLine
 62
7
  6
CONTINUOUS
 10
137.0204133661
 20
42.387303211
 11
136.6454132766
 21
42.387303211
  0
LINE
  5
2DD
100
AcDbEntity
  8
0
100
AcDbLine
 62
7
  6
CONTINUOUS
 10
136.6454132766
 20
42.9617713171
 11
137.0829133065
 21
42.9617713171
  0
LINE
  5
2DE
100
AcDbEntity
  8
0
100
AcDbLine
 62
7
  6
CONTINUOUS
 10
137.5829133661
 20
43.2170904356
 11
137.9579133661
 21
43.2170904356
  0
LINE
  5
2DF
100
AcDbEntity
  8
0
100
AcDbLine
 62
7
  6
CONTINUOUS
 10
137.9579133661
 20
43.5362393337
 11
137.5829133661
 21
43.5362393337
  0
LINE
  5
2E0
100
AcDbEntity
  8
0
100
AcDbLine
 62
7
  6
CONTINUOUS
 10
136.9579132468
 20
44.302196868
 11
138.7704133065
 21
44.302196868
  0
LINE
  5
2E1
100
AcDbEntity
  8
0
100
AcDbLine
 62
7
  6
CONTINUOUS
 10
138.7704133065
 20
44.6213457661
 11
136.6454132766
 21
44.6213457661
  0
LINE
  5
2E2
100
AcDbEntity
  8
0
100
AcDbLine
 62
7
  6
CONTINUOUS
 10
136.1454133065
 20
44.6213457661
 11
135.7704133065
 21
44.6213457661
  0
LINE
  5
2E3
100
AcDbEntity
  8
0
100
AcDbLine
 62
7
  6
CONTINUOUS
 10
63.1454133065
 20
48.3713457661
 11
63.6454133065
 21
48.3713457661
  0
LINE
  5
2E4
100
AcDbEntity
  8
0
100
AcDbLine
 62
7
  6
CONTINUOUS
 10
140.1454134257
 20
41.6851755513
 11
140.5204134257
 21
41.6213457661
  0
LINE
  5
2E5
100
AcDbEntity
  8
0
100
AcDbLine
 62
7
  6
CONTINUOUS
 10
140.8954134257
 20
44.5575159865
 11
140.5204134257
 21
44.6213457661
  0
LINE
  5
2E6
100
AcDbEntity
  8
0
100
AcDbLine
 62
7
  6
CONTINUOUS
 10
137.2704133065
 20
41.6851755513
 11
137.5829133661
 21
41.6213457661
  0
LINE
  5
2E7
100
AcDbEntity
  8
0
100
AcDbLine
 62
7
  6
CONTINUOUS
 10
140.5204134257
 20
41.940494709
 11
140.2079131872
 21
42.0043244886
  0
LINE
  5
2E8
100
AcDbEntity
  8
0
100
AcDbLine
 62
7
  6
CONTINUOUS
 10
138.2704132468
 20
43.4724095541
 11
137.9579133661
 21
43.5362393337
  0
LINE
  5
2E9
100
AcDbEntity
  8
0
100
AcDbLine
 62
7
  6
CONTINUOUS
 10
140.5204134257
 20
44.302196868
 11
140.8329133065
 21
44.2383670884
  0
LINE
  5
2EA
100
AcDbEntity
  8
0
100
AcDbLine
 62
7
  6
CONTINUOUS
 10
137.5829133661
 20
41.940494709
 11
137.3329132468
 21
42.0043244886
  0
LINE
  5
2EB
100
AcDbEntity
  8
0
100
AcDbLine
 62
7
  6
CONTINUOUS
 10
137.9579133661
 20
43.2170904356
 11
138.2079133065
 21
43.1532606559
  0
LINE
  5
2EC
100
AcDbEntity
  8
0
100
AcDbLine
 62
7
  6
CONTINUOUS
 10
136.9579132468
 20
41.876664907
 11
137.2704133065
 21
41.6851755513
  0
LINE
  5
2ED
100
AcDbEntity
  8
0
100
AcDbLine
 62
7
  6
CONTINUOUS
 10
58.3954133065
 20
97.9963457661
 11
58.8422217638
 21
97.6213457661
  0
LINE
  5
2EE
100
AcDbEntity
  8
0
100
AcDbLine
 62
7
  6
CONTINUOUS
 10
59.3528601796
 20
97.6213457661
 11
58.9060515435
 21
97.9963457661
  0
LINE
  5
2EF
100
AcDbEntity
  8
0
100
AcDbLine
 62
7
  6
CONTINUOUS
 10
58.5869026453
 20
99.2463458257
 11
58.8422217638
 21
98.9963457959
  0
LINE
  5
2F0
100
AcDbEntity
  8
0
100
AcDbLine
 62
7
  6
CONTINUOUS
 10
58.650732425
 20
102.0588456469
 11
58.8422217638
 21
101.8713456469
  0
LINE
  5
2F1
100
AcDbEntity
  8
0
100
AcDbLine
 62
7
  6
CONTINUOUS
 10
61.1400941656
 20
103.4338457661
 11
60.9486048044
 21
103.6213457661
  0
LINE
  5
2F2
100
AcDbEntity
  8
0
100
AcDbLine
 62
7
  6
CONTINUOUS
 10
59.4805197389
 20
100.6213457661
 11
61.0762643636
 21
98.8713457363
  0
LINE
  5
2F3
100
AcDbEntity
  8
0
100
AcDbLine
 62
7
  6
CONTINUOUS
 10
61.0762643636
 20
99.3713457065
 11
59.6720090778
 21
100.9338456469
  0
LINE
  5
2F4
100
AcDbEntity
  8
DRAFT
100
AcDbLine
 62
7
  6
CONTINUOUS
 10
108.8954133065
 20
36.5933657659
 11
109.2095805469
 21
35.9649834284
  0
LINE
  5
2F5
100
AcDbEntity
  8
DRAFT
100
AcDbLine
 62
7
  6
CONTINUOUS
 10
38.796138286
 20
70.1220707457
 11
39.1401245842
 21
70.4660570439
  0
LINE
  5
2F6
100
AcDbEntity
  8
0
100
AcDbLine
 62
7
  6
CONTINUOUS
 10
58.9060515435
 20
103.2463457661
 11
59.2890304
 21
103.4963458853
  0
LINE
  5
2F7
100
AcDbEntity
  8
0
100
AcDbLine
 62
7
  6
CONTINUOUS
 10
60.8847750247
 20
102.2463456469
 11
60.5017963023
 21
101.9963458853
  0
LINE
  5
2F8
100
AcDbEntity
  8
0
100
AcDbLine
 62
7
  6
CONTINUOUS
 10
58.9060515435
 20
100.6213457661
 11
59.0975408823
 21
100.7463456469
  0
LINE
  5
2F9
100
AcDbEntity
  8
DRAFT
100
AcDbLine
 62
7
  6
CONTINUOUS
 10
51.0674333062
 20
104.2213457661
 11
51.1110709685
 21
104.2431629356
  0
LINE
  5
2FA
100
AcDbEntity
  8
DRAFT
100
AcDbLine
 62
7
  6
CONTINUOUS
 10
237.0507020287
 20
80.1682111422
 11
237.9946883269
 21
80.4211515084
  0
LINE
  5
2FB
100
AcDbEntity
  8
DRAFT
100
AcDbLine
 62
7
  6
CONTINUOUS
 10
39.7401245842
 20
80.1682111422
 11
38.796138286
 21
80.4211515084
  0
LINE
  5
2FC
100
AcDbEntity
  8
DRAFT
100
AcDbLine
 62
7
  6
CONTINUOUS
 10
51.1110709685
 20
96.9995285967
 11
51.0674333062
 21
97.0213457661
  0
LINE
  5
2FD
100
AcDbEntity
  8
0
100
AcDbLine
 62
7
  6
CONTINUOUS
 10
139.8329131872
 20
41.876664907
 11
140.1454134257
 21
41.6851755513
  0
LINE
  5
2FE
100
AcDbEntity
  8
0
100
AcDbLine
 62
7
  6
CONTINUOUS
 10
138.5829133065
 20
43.2809202152
 11
138.2704132468
 21
43.4724095541
  0
LINE
  5
2FF
100
AcDbEntity
  8
0
100
AcDbLine
 62
7
  6
CONTINUOUS
 10
141.2079133065
 20
44.3660266476
 11
140.8954134257
 21
44.5575159865
  0
LINE
  5
300
100
AcDbEntity
  8
0
100
AcDbLine
 62
7
  6
CONTINUOUS
 10
59.0975408823
 20
99.2463458257
 11
58.9060515435
 21
99.3713457065
  0
LINE
  5
301
100
AcDbEntity
  8
0
100
AcDbLine
 62
7
  6
CONTINUOUS
 10
59.6720090778
 20
100.9338456469
 11
59.4805197389
 21
101.0588458853
  0
LINE
  5
302
100
AcDbEntity
  8
0
100
AcDbLine
 62
7
  6
CONTINUOUS
 10
59.2890304
 20
101.9963458853
 11
58.9060515435
 21
102.2463456469
  0
LINE
  5
303
100
AcDbEntity
  8
0
100
AcDbLine
 62
7
  6
CONTINUOUS
 10
137.3329132468
 20
42.0043244886
 11
137.1454132468
 21
42.1319840478
  0
LINE
  5
304
100
AcDbEntity
  8
0
100
AcDbLine
 62
7
  6
CONTINUOUS
 10
138.2079133065
 20
43.1532606559
 11
138.3954133065
 21
43.0256010967
  0
LINE
  5
305
100
AcDbEntity
  8
0
100
AcDbLine
 62
7
  6
CONTINUOUS
 10
140.2079131872
 20
42.0043244886
 11
140.0204131872
 21
42.1319840478
  0
LINE
  5
306
100
AcDbEntity
  8
0
100
AcDbLine
 62
7
  6
CONTINUOUS
 10
140.8329133065
 20
44.2383670884
 11
141.0204133065
 21
44.1107075291
  0
LINE
  5
307
100
AcDbEntity
  8
DRAFT
100
AcDbLine
 62
7
  6
CONTINUOUS
 10
38.796138286
 20
131.1206207866
 11
39.1401245842
 21
130.7766344884
  0
LINE
  5
308
100
AcDbEntity
  8
DRAFT
100
AcDbLine
 62
7
  6
CONTINUOUS
 10
117.9422786825
 20
172.2766344884
 11
118.1952190488
 21
173.2206207866
  0
LINE
  5
309
100
AcDbEntity
  8
DRAFT
100
AcDbLine
 62
7
  6
CONTINUOUS
 10
125.373596137
 20
164.6056881041
 11
125.3954133065
 21
164.6493257664
  0
LINE
  5
30A
100
AcDbEntity
  8
DRAFT
100
AcDbLine
 62
7
  6
CONTINUOUS
 10
126.7095805469
 20
165.2777081038
 11
126.3954133065
 21
164.6493257664
  0
LINE
  5
30B
100
AcDbEntity
  8
DRAFT
100
AcDbLine
 62
7
  6
CONTINUOUS
 10
51.0674333062
 20
97.0213457661
 11
50.4215959038
 21
96.6984516579
  0
LINE
  5
30C
100
AcDbEntity
  8
0
100
AcDbLine
 62
7
  6
CONTINUOUS
 10
59.0975408823
 20
103.7463460045
 11
58.8422217638
 21
103.6213457661
  0
LINE
  5
30D
100
AcDbEntity
  8
0
100
AcDbLine
 62
7
  6
CONTINUOUS
 10
60.6932856412
 20
101.7463457661
 11
60.9486048044
 21
101.8713456469
  0
LINE
  5
30E
100
AcDbEntity
  8
0
100
AcDbLine
 62
7
  6
CONTINUOUS
 10
59.2252006204
 20
100.7463456469
 11
59.4805197389
 21
100.6213457661
  0
LINE
  5
30F
100
AcDbEntity
  8
0
100
AcDbLine
 62
7
  6
CONTINUOUS
 10
58.8422217638
 20
101.8713456469
 11
59.0975408823
 21
101.7463457661
  0
LINE
  5
310
100
AcDbEntity
  8
DRAFT
100
AcDbLine
 62
7
  6
CONTINUOUS
 10
50.4215959038
 20
104.5442398744
 11
51.0674333062
 21
104.2213457661
  0
LINE
  5
311
100
AcDbEntity
  8
0
100
AcDbLine
 62
7
  6
CONTINUOUS
 10
60.5017963023
 20
103.4963458853
 11
60.8847750247
 21
103.2463457661
  0
LINE
  5
312
100
AcDbEntity
  8
0
100
AcDbLine
 62
7
  6
CONTINUOUS
 10
139.6454131872
 20
42.0681542682
 11
139.8329131872
 21
41.876664907
  0
LINE
  5
313
100
AcDbEntity
  8
0
100
AcDbLine
 62
7
  6
CONTINUOUS
 10
141.3954133065
 20
44.1745373088
 11
141.2079133065
 21
44.3660266476
  0
LINE
  5
314
100
AcDbEntity
  8
0
100
AcDbLine
 62
7
  6
CONTINUOUS
 10
136.7704133363
 20
42.1319840478
 11
136.9579132468
 21
41.876664907
  0
LINE
  5
315
100
AcDbEntity
  8
0
100
AcDbLine
 62
7
  6
CONTINUOUS
 10
138.7704133065
 20
43.0256010967
 11
138.5829133065
 21
43.2809202152
  0
LINE
  5
316
100
AcDbEntity
  8
DRAFT
100
AcDbLine
 62
7
  6
CONTINUOUS
 10
125.3954133065
 20
36.5933657659
 11
125.373596137
 21
36.6370034282
  0
LINE
  5
317
100
AcDbEntity
  8
DRAFT
100
AcDbLine
 62
7
  6
CONTINUOUS
 10
126.3954133065
 20
36.5933657659
 11
126.7095805469
 21
35.9649834284
  0
LINE
  5
318
100
AcDbEntity
  8
DRAFT
100
AcDbLine
 62
7
  6
CONTINUOUS
 10
118.1952190488
 20
28.0220707457
 11
117.9422786825
 21
28.9660570439
  0
LINE
  5
319
100
AcDbEntity
  8
DRAFT
100
AcDbLine
 62
7
  6
CONTINUOUS
 10
107.8954133065
 20
28.0220707457
 11
107.8954133065
 21
37.6791473456
  0
LINE
  5
31A
100
AcDbEntity
  8
DRAFT
100
AcDbLine
 62
7
  6
CONTINUOUS
 10
107.8954133065
 20
163.5635441867
 11
107.8954133065
 21
173.2206207866
  0
LINE
  5
31B
100
AcDbEntity
  8
DRAFT
100
AcDbLine
 62
7
  6
CONTINUOUS
 10
108.9172304759
 20
37.6791473456
 11
108.9172304759
 21
36.6370034282
  0
LINE
  5
31C
100
AcDbEntity
  8
DRAFT
100
AcDbLine
 62
7
  6
CONTINUOUS
 10
108.9172304759
 20
163.5635441867
 11
108.9172304759
 21
164.6056881041
  0
LINE
  5
31D
100
AcDbEntity
  8
DRAFT
100
AcDbLine
 62
7
  6
CONTINUOUS
 10
110.1575911329
 20
37.6791473456
 11
110.1575911329
 21
36.6370034282
  0
LINE
  5
31E
100
AcDbEntity
  8
DRAFT
100
AcDbLine
 62
7
  6
CONTINUOUS
 10
110.1575911329
 20
163.5635441867
 11
110.1575911329
 21
164.6056881041
  0
LINE
  5
31F
100
AcDbEntity
  8
DRAFT
100
AcDbLine
 62
7
  6
CONTINUOUS
 10
111.0954133065
 20
37.6486033083
 11
111.0954133065
 21
36.5759107009
  0
LINE
  5
320
100
AcDbEntity
  8
DRAFT
100
AcDbLine
 62
7
  6
CONTINUOUS
 10
111.0954133065
 20
163.594088224
 11
111.0954133065
 21
164.6667808313
  0
LINE
  5
321
100
AcDbEntity
  8
0
100
AcDbLine
 62
7
  6
CONTINUOUS
 10
59.2890304
 20
103.8088457661
 11
59.0975408823
 21
103.7463460045
  0
LINE
  5
322
100
AcDbEntity
  8
0
100
AcDbLine
 62
7
  6
CONTINUOUS
 10
60.5017963023
 20
101.6838456469
 11
60.6932856412
 21
101.7463457661
  0
LINE
  5
323
100
AcDbEntity
  8
DRAFT
100
AcDbLine
 62
7
  6
CONTINUOUS
 10
237.5024262798
 20
70.1213457661
 11
224.337611727
 21
70.1213457661
  0
LINE
  5
324
100
AcDbEntity
  8
DRAFT
100
AcDbLine
 62
7
  6
CONTINUOUS
 10
52.4532148859
 20
70.1213457661
 11
39.2884003331
 21
70.1213457661
  0
LINE
  5
325
100
AcDbEntity
  8
DRAFT
100
AcDbLine
 62
7
  6
CONTINUOUS
 10
237.6507020287
 20
70.4660570439
 11
226.3823230048
 21
70.4660570439
  0
LINE
  5
326
100
AcDbEntity
  8
DRAFT
100
AcDbLine
 62
7
  6
CONTINUOUS
 10
50.4085036081
 20
70.4660570439
 11
39.1401245842
 21
70.4660570439
  0
LINE
  5
327
100
AcDbEntity
  8
DRAFT
100
AcDbLine
 62
7
  6
CONTINUOUS
 10
52.4532148859
 20
71.1431629356
 11
51.1110709685
 21
71.1431629356
  0
LINE
  5
328
100
AcDbEntity
  8
DRAFT
100
AcDbLine
 62
7
  6
CONTINUOUS
 10
224.337611727
 20
71.1431629356
 11
225.6797556444
 21
71.1431629356
  0
LINE
  5
329
100
AcDbEntity
  8
DRAFT
100
AcDbLine
 62
7
  6
CONTINUOUS
 10
52.4532148859
 20
72.6835235926
 11
51.1110709685
 21
72.6835235926
  0
LINE
  5
32A
100
AcDbEntity
  8
DRAFT
100
AcDbLine
 62
7
  6
CONTINUOUS
 10
224.337611727
 20
72.6835235926
 11
225.6797556444
 21
72.6835235926
  0
LINE
  5
32B
100
AcDbEntity
  8
DRAFT
100
AcDbLine
 62
7
  6
CONTINUOUS
 10
52.4226708486
 20
73.6213457661
 11
51.0499782413
 21
73.6213457661
  0
LINE
  5
32C
100
AcDbEntity
  8
DRAFT
100
AcDbLine
 62
7
  6
CONTINUOUS
 10
224.3681557643
 20
73.6213457661
 11
225.7408483716
 21
73.6213457661
  0
LINE
  5
32D
100
AcDbEntity
  8
0
100
AcDbLine
 62
7
  6
CONTINUOUS
 10
60.9486048044
 20
103.6213457661
 11
60.6932856412
 21
103.7463460045
  0
LINE
  5
32E
100
AcDbEntity
  8
0
100
AcDbLine
 62
7
  6
CONTINUOUS
 10
138.3954133065
 20
43.0256010967
 11
138.5204131872
 21
42.8341117578
  0
LINE
  5
32F
100
AcDbEntity
  8
0
100
AcDbLine
 62
7
  6
CONTINUOUS
 10
140.0204131872
 20
42.1319840478
 11
139.7704134257
 21
42.5149627703
  0
LINE
  5
330
100
AcDbEntity
  8
0
100
AcDbLine
 62
7
  6
CONTINUOUS
 10
141.0204133065
 20
44.1107075291
 11
141.2704134257
 21
43.7277286726
  0
LINE
  5
331
100
AcDbEntity
  8
0
100
AcDbLine
 62
7
  6
CONTINUOUS
 10
136.6454132766
 20
42.387303211
 11
136.7704133363
 21
42.1319840478
  0
LINE
  5
332
100
AcDbEntity
  8
0
100
AcDbLine
 62
7
  6
CONTINUOUS
 10
137.1454132468
 20
42.1319840478
 11
137.0204133661
 21
42.387303211
  0
LINE
  5
333
100
AcDbEntity
  8
0
100
AcDbLine
 62
7
  6
CONTINUOUS
 10
139.5204133065
 20
42.3234734314
 11
139.6454131872
 21
42.0681542682
  0
LINE
  5
334
100
AcDbEntity
  8
DRAFT
100
AcDbLine
 62
7
  6
CONTINUOUS
 10
150.373596137
 20
164.6056881041
 11
150.3954133065
 21
164.6493257664
  0
LINE
  5
335
100
AcDbEntity
  8
DRAFT
100
AcDbLine
 62
7
  6
CONTINUOUS
 10
151.7095805469
 20
165.2777081038
 11
151.3954133065
 21
164.6493257664
  0
LINE
  5
336
100
AcDbEntity
  8
RACCORDO
100
AcDbLine
 62
250
  6
CONTINUOUS
 10
35.3954133065
 20
27.6195182472
 11
37.7893140926
 21
30.0134190333
  0
LINE
  5
337
100
AcDbEntity
  8
RACCORDO
100
AcDbLine
 62
250
  6
CONTINUOUS
 10
38.3935857875
 20
24.6213457661
 11
40.7874865736
 21
27.0152465522
  0
LINE
  5
338
100
AcDbEntity
  8
0
100
AcDbLine
 62
7
  6
CONTINUOUS
 10
58.8422217638
 20
98.9963457959
 11
59.0975408823
 21
98.9338457661
  0
LINE
  5
339
100
AcDbEntity
  8
0
100
AcDbLine
 62
7
  6
CONTINUOUS
 10
59.4805197389
 20
101.0588458853
 11
59.2252006204
 21
101.1213456469
  0
LINE
  5
33A
100
AcDbEntity
  8
0
100
AcDbLine
 62
7
  6
CONTINUOUS
 10
59.0975408823
 20
101.7463457661
 11
59.2890304
 21
101.6838456469
  0
LINE
  5
33B
100
AcDbEntity
  8
0
100
AcDbLine
 62
7
  6
CONTINUOUS
 10
60.6932856412
 20
103.7463460045
 11
60.5017963023
 21
103.8088457661
  0
LINE
  5
33C
100
AcDbEntity
  8
RACCORDO
100
AcDbLine
 62
250
  6
CONTINUOUS
 10
35.3954133065
 20
173.6231732851
 11
37.7893140926
 21
171.229272499
  0
LINE
  5
33D
100
AcDbEntity
  8
RACCORDO
100
AcDbLine
 62
250
  6
CONTINUOUS
 10
38.3935857875
 20
176.6213457661
 11
40.7874865736
 21
174.22744498
  0
LINE
  5
33E
100
AcDbEntity
  8
DRAFT
100
AcDbLine
 62
7
  6
CONTINUOUS
 10
150.3954133065
 20
36.5933657659
 11
150.373596137
 21
36.6370034282
  0
LINE
  5
33F
100
AcDbEntity
  8
DRAFT
100
AcDbLine
 62
7
  6
CONTINUOUS
 10
151.3954133065
 20
36.5933657659
 11
151.7095805469
 21
35.9649834284
  0
LINE
  5
340
100
AcDbEntity
  8
0
100
AcDbLine
 62
7
  6
CONTINUOUS
 10
141.5204135449
 20
43.9192181903
 11
141.3954133065
 21
44.1745373088
  0
LINE
  5
341
100
AcDbEntity
  8
0
100
AcDbLine
 62
7
  6
CONTINUOUS
 10
138.8954131872
 20
42.7064521092
 11
138.7704133065
 21
43.0256010967
  0
LINE
  5
342
100
AcDbEntity
  8
0
100
AcDbLine
 62
7
  6
CONTINUOUS
 10
138.5204131872
 20
42.8341117578
 11
138.5829133065
 21
42.6426223295
  0
LINE
  5
343
100
AcDbEntity
  8
0
100
AcDbLine
 62
7
  6
CONTINUOUS
 10
139.4579131872
 20
42.5149627703
 11
139.5204133065
 21
42.3234734314
  0
LINE
  5
344
100
AcDbEntity
  8
DRAFT
100
AcDbLine
 62
7
  6
CONTINUOUS
 10
123.1954133065
 20
37.6486033083
 11
123.1954133065
 21
36.5759107009
  0
LINE
  5
345
100
AcDbEntity
  8
DRAFT
100
AcDbLine
 62
7
  6
CONTINUOUS
 10
123.1954133065
 20
163.594088224
 11
123.1954133065
 21
164.6667808313
  0
LINE
  5
346
100
AcDbEntity
  8
DRAFT
100
AcDbLine
 62
7
  6
CONTINUOUS
 10
123.8954133065
 20
28.7653390847
 11
123.8954133065
 21
28.4653390847
  0
LINE
  5
347
100
AcDbEntity
  8
DRAFT
100
AcDbLine
 62
7
  6
CONTINUOUS
 10
123.8954133065
 20
172.4773524476
 11
123.8954133065
 21
172.7773524476
  0
LINE
  5
348
100
AcDbEntity
  8
DRAFT
100
AcDbLine
 62
7
  6
CONTINUOUS
 10
124.13323548
 20
37.6791473456
 11
124.13323548
 21
36.6370034282
  0
LINE
  5
349
100
AcDbEntity
  8
DRAFT
100
AcDbLine
 62
7
  6
CONTINUOUS
 10
124.13323548
 20
163.5635441867
 11
124.13323548
 21
164.6056881041
  0
LINE
  5
34A
100
AcDbEntity
  8
DRAFT
100
AcDbLine
 62
7
  6
CONTINUOUS
 10
125.373596137
 20
37.6791473456
 11
125.373596137
 21
36.6370034282
  0
LINE
  5
34B
100
AcDbEntity
  8
DRAFT
100
AcDbLine
 62
7
  6
CONTINUOUS
 10
125.373596137
 20
163.5635441867
 11
125.373596137
 21
164.6056881041
  0
LINE
  5
34C
100
AcDbEntity
  8
DRAFT
100
AcDbLine
 62
7
  6
CONTINUOUS
 10
126.4172304759
 20
37.6791473456
 11
126.4172304759
 21
36.6370034282
  0
LINE
  5
34D
100
AcDbEntity
  8
DRAFT
100
AcDbLine
 62
7
  6
CONTINUOUS
 10
126.4172304759
 20
163.5635441867
 11
126.4172304759
 21
164.6056881041
  0
LINE
  5
34E
100
AcDbEntity
  8
DRAFT
100
AcDbLine
 62
7
  6
CONTINUOUS
 10
126.8954133065
 20
28.4566122169
 11
126.8954133065
 21
28.0220707457
  0
LINE
  5
34F
100
AcDbEntity
  8
DRAFT
100
AcDbLine
 62
7
  6
CONTINUOUS
 10
126.8954133065
 20
172.7860793154
 11
126.8954133065
 21
173.2206207866
  0
LINE
  5
350
100
AcDbEntity
  8
DRAFT
100
AcDbLine
 62
7
  6
CONTINUOUS
 10
127.6575911329
 20
37.6791473456
 11
127.6575911329
 21
36.6370034282
  0
LINE
  5
351
100
AcDbEntity
  8
DRAFT
100
AcDbLine
 62
7
  6
CONTINUOUS
 10
127.6575911329
 20
163.5635441867
 11
127.6575911329
 21
164.6056881041
  0
LINE
  5
352
100
AcDbEntity
  8
DRAFT
100
AcDbLine
 62
7
  6
CONTINUOUS
 10
128.5954133065
 20
37.6486033083
 11
128.5954133065
 21
36.5759107009
  0
LINE
  5
353
100
AcDbEntity
  8
DRAFT
100
AcDbLine
 62
7
  6
CONTINUOUS
 10
128.5954133065
 20
163.594088224
 11
128.5954133065
 21
164.6667808313
  0
LINE
  5
354
100
AcDbEntity
  8
DRAFT
100
AcDbLine
 62
7
  6
CONTINUOUS
 10
108.2956075641
 20
28.0220707457
 11
108.5485479304
 21
28.9660570439
  0
LINE
  5
355
100
AcDbEntity
  8
DRAFT
100
AcDbLine
 62
7
  6
CONTINUOUS
 10
51.0674333062
 20
71.1213457661
 11
51.1110709685
 21
71.1431629356
  0
LINE
  5
356
100
AcDbEntity
  8
DRAFT
100
AcDbLine
 62
7
  6
CONTINUOUS
 10
39.539406625
 20
86.1213457661
 11
39.239406625
 21
86.1213457661
  0
LINE
  5
357
100
AcDbEntity
  8
DRAFT
100
AcDbLine
 62
7
  6
CONTINUOUS
 10
237.2514199879
 20
86.1213457661
 11
237.5514199879
 21
86.1213457661
  0
LINE
  5
358
100
AcDbEntity
  8
DRAFT
100
AcDbLine
 62
7
  6
CONTINUOUS
 10
38.796138286
 20
89.1213457661
 11
39.2306797572
 21
89.1213457661
  0
LINE
  5
359
100
AcDbEntity
  8
DRAFT
100
AcDbLine
 62
7
  6
CONTINUOUS
 10
237.5601468557
 20
89.1213457661
 11
237.9946883269
 21
89.1213457661
  0
LINE
  5
35A
100
AcDbEntity
  8
0
100
AcDbLine
 62
7
  6
CONTINUOUS
 10
59.6720090778
 20
101.9338457661
 11
59.2890304
 21
101.9963458853
  0
LINE
  5
35B
100
AcDbEntity
  8
0
100
AcDbLine
 62
7
  6
CONTINUOUS
 10
60.1188175351
 20
103.5588456469
 11
60.5017963023
 21
103.4963458853
  0
LINE
  5
35C
100
AcDbEntity
  8
0
100
AcDbLine
 62
7
  6
CONTINUOUS
 10
59.2890304
 20
101.6838456469
 11
59.6081792981
 21
101.6213458853
  0
LINE
  5
35D
100
AcDbEntity
  8
0
100
AcDbLine
 62
7
  6
CONTINUOUS
 10
60.5017963023
 20
103.8088457661
 11
60.1826473148
 21
103.8713455277
  0
LINE
  5
35E
100
AcDbEntity
  8
DRAFT
100
AcDbLine
 62
7
  6
CONTINUOUS
 10
51.1110709685
 20
130.0995285967
 11
51.0674333062
 21
130.1213457661
  0
LINE
  5
35F
100
AcDbEntity
  8
0
100
AcDbLine
 62
7
  6
CONTINUOUS
 10
141.5829133065
 20
43.7277286726
 11
141.5204135449
 21
43.9192181903
  0
LINE
  5
360
100
AcDbEntity
  8
DRAFT
100
AcDbLine
 62
7
  6
CONTINUOUS
 10
108.5485479304
 20
172.2766344884
 11
108.2956075641
 21
173.2206207866
  0
LINE
  5
361
100
AcDbEntity
  8
0
100
AcDbLine
 62
7
  6
CONTINUOUS
 10
139.3954134257
 20
42.8341117578
 11
139.4579131872
 21
42.5149627703
  0
LINE
  5
362
100
AcDbEntity
  8
0
100
AcDbLine
 62
7
  6
CONTINUOUS
 10
141.645413068
 20
43.4085797744
 11
141.5829133065
 21
43.7277286726
  0
LINE
  5
363
100
AcDbEntity
  8
0
100
AcDbLine
 62
7
  6
CONTINUOUS
 10
139.7704134257
 20
42.5149627703
 11
139.7079133065
 21
42.8979415374
  0
LINE
  5
364
100
AcDbEntity
  8
0
100
AcDbLine
 62
7
  6
CONTINUOUS
 10
135.3954133065
 20
44.1745373088
 11
135.3954133065
 21
43.6638988929
  0
LINE
  5
365
100
AcDbEntity
  8
0
100
AcDbLine
 62
7
  6
CONTINUOUS
 10
135.7704133065
 20
44.1107075291
 11
135.7704133065
 21
41.6213457661
  0
LINE
  5
366
100
AcDbEntity
  8
0
100
AcDbLine
 62
7
  6
CONTINUOUS
 10
136.1454133065
 20
41.6213457661
 11
136.1454133065
 21
44.6213457661
  0
LINE
  5
367
100
AcDbEntity
  8
0
100
AcDbLine
 62
7
  6
CONTINUOUS
 10
136.6454132766
 20
44.6213457661
 11
136.6454132766
 21
42.9617713171
  0
LINE
  5
368
100
AcDbEntity
  8
0
100
AcDbLine
 62
7
  6
CONTINUOUS
 10
136.9579132468
 20
43.2809202152
 11
136.9579132468
 21
44.302196868
  0
LINE
  5
369
100
AcDbEntity
  8
0
100
AcDbLine
 62
7
  6
CONTINUOUS
 10
138.5829133065
 20
42.6426223295
 11
138.5829133065
 21
42.5149627703
  0
LINE
  5
36A
100
AcDbEntity
  8
0
100
AcDbLine
 62
7
  6
CONTINUOUS
 10
138.7704133065
 20
44.302196868
 11
138.7704133065
 21
44.6213457661
  0
LINE
  5
36B
100
AcDbEntity
  8
0
100
AcDbLine
 62
7
  6
CONTINUOUS
 10
138.8954131872
 20
42.4511329907
 11
138.8954131872
 21
42.7064521092
  0
LINE
  5
36C
100
AcDbEntity
  8
0
100
AcDbLine
 62
7
  6
CONTINUOUS
 10
139.3954134257
 20
43.4085797744
 11
139.3954134257
 21
42.8341117578
  0
LINE
  5
36D
100
AcDbEntity
  8
DRAFT
100
AcDbLine
 62
7
  6
CONTINUOUS
 10
118.5956075641
 20
28.0220707457
 11
118.8485479304
 21
28.9660570439
  0
LINE
  5
36E
100
AcDbEntity
  8
DRAFT
100
AcDbLine
 62
7
  6
CONTINUOUS
 10
157.9422786825
 20
172.2766344884
 11
158.1952190488
 21
173.2206207866
  0
LINE
  5
36F
100
AcDbEntity
  8
DRAFT
100
AcDbLine
 62
7
  6
CONTINUOUS
 10
167.873596137
 20
164.6056881041
 11
167.8954133065
 21
164.6493257664
  0
LINE
  5
370
100
AcDbEntity
  8
DRAFT
100
AcDbLine
 62
7
  6
CONTINUOUS
 10
237.0507020287
 20
120.1682111422
 11
237.9946883269
 21
120.4211515084
  0
LINE
  5
371
100
AcDbEntity
  8
DRAFT
100
AcDbLine
 62
7
  6
CONTINUOUS
 10
38.796138286
 20
70.5215400238
 11
39.7401245842
 21
70.7744803901
  0
LINE
  5
372
100
AcDbEntity
  8
DRAFT
100
AcDbLine
 62
7
  6
CONTINUOUS
 10
52.4226708486
 20
94.5213457661
 11
51.0499782413
 21
94.5213457661
  0
LINE
  5
373
100
AcDbEntity
  8
DRAFT
100
AcDbLine
 62
7
  6
CONTINUOUS
 10
224.3681557643
 20
94.5213457661
 11
225.7408483716
 21
94.5213457661
  0
LINE
  5
374
100
AcDbEntity
  8
DRAFT
100
AcDbLine
 62
7
  6
CONTINUOUS
 10
52.4532148859
 20
95.4591679396
 11
51.1110709685
 21
95.4591679396
  0
LINE
  5
375
100
AcDbEntity
  8
DRAFT
100
AcDbLine
 62
7
  6
CONTINUOUS
 10
224.337611727
 20
95.4591679396
 11
225.6797556444
 21
95.4591679396
  0
LINE
  5
376
100
AcDbEntity
  8
DRAFT
100
AcDbLine
 62
7
  6
CONTINUOUS
 10
52.4532148859
 20
96.9995285967
 11
51.1110709685
 21
96.9995285967
  0
LINE
  5
377
100
AcDbEntity
  8
DRAFT
100
AcDbLine
 62
7
  6
CONTINUOUS
 10
224.337611727
 20
96.9995285967
 11
225.6797556444
 21
96.9995285967
  0
LINE
  5
378
100
AcDbEntity
  8
0
100
AcDbLine
 62
7
  6
CONTINUOUS
 10
58.8422217638
 20
97.6213457661
 11
59.3528601796
 21
97.6213457661
  0
LINE
  5
379
100
AcDbEntity
  8
DRAFT
100
AcDbLine
 62
7
  6
CONTINUOUS
 10
226.3954133065
 20
97.7582556771
 11
224.337611727
 21
97.7582556771
  0
LINE
  5
37A
100
AcDbEntity
  8
DRAFT
100
AcDbLine
 62
7
  6
CONTINUOUS
 10
52.4532148859
 20
97.7582556771
 11
50.3954133065
 21
97.7582556771
  0
LINE
  5
37B
100
AcDbEntity
  8
0
100
AcDbLine
 62
7
  6
CONTINUOUS
 10
58.9060515435
 20
97.9963457661
 11
61.3954133065
 21
97.9963457661
  0
LINE
  5
37C
100
AcDbEntity
  8
0
100
AcDbLine
 62
7
  6
CONTINUOUS
 10
61.3954133065
 20
98.3713457661
 11
58.3954133065
 21
98.3713457661
  0
LINE
  5
37D
100
AcDbEntity
  8
0
100
AcDbLine
 62
7
  6
CONTINUOUS
 10
61.0762643636
 20
98.8713457363
 11
61.3954133065
 21
98.8713457363
  0
LINE
  5
37E
100
AcDbEntity
  8
0
100
AcDbLine
 62
7
  6
CONTINUOUS
 10
59.0975408823
 20
100.7463456469
 11
59.2252006204
 21
100.7463456469
  0
LINE
  5
37F
100
AcDbEntity
  8
0
100
AcDbLine
 62
7
  6
CONTINUOUS
 10
61.3954133065
 20
101.1213456469
 11
61.0762643636
 21
101.1213456469
  0
LINE
  5
380
100
AcDbEntity
  8
0
100
AcDbLine
 62
7
  6
CONTINUOUS
 10
59.2252006204
 20
101.1213456469
 11
59.0975408823
 21
101.1213456469
  0
LINE
  5
381
100
AcDbEntity
  8
0
100
AcDbLine
 62
7
  6
CONTINUOUS
 10
59.6081792981
 20
101.6213458853
 11
60.1826473148
 21
101.6213458853
  0
LINE
  5
382
100
AcDbEntity
  8
DRAFT
100
AcDbLine
 62
7
  6
CONTINUOUS
 10
39.7401245842
 20
120.1682111422
 11
38.796138286
 21
120.4211515084
  0
LINE
  5
383
100
AcDbEntity
  8
DRAFT
100
AcDbLine
 62
7
  6
CONTINUOUS
 10
237.0507020287
 20
70.7744803901
 11
237.9946883269
 21
70.5215400238
  0
LINE
  5
384
100
AcDbEntity
  8
DRAFT
100
AcDbLine
 62
7
  6
CONTINUOUS
 10
167.8954133065
 20
36.5933657659
 11
167.873596137
 21
36.6370034282
  0
LINE
  5
385
100
AcDbEntity
  8
DRAFT
100
AcDbLine
 62
7
  6
CONTINUOUS
 10
118.8485479304
 20
172.2766344884
 11
118.5956075641
 21
173.2206207866
  0
LINE
  5
386
100
AcDbEntity
  8
DRAFT
100
AcDbLine
 62
7
  6
CONTINUOUS
 10
158.1952190488
 20
28.0220707457
 11
157.9422786825
 21
28.9660570439
  0
LINE
  5
387
100
AcDbEntity
  8
0
100
AcDbLine
 62
7
  6
CONTINUOUS
 10
141.2704134257
 20
43.7277286726
 11
141.3329131872
 21
43.3447499948
  0
LINE
  5
388
100
AcDbEntity
  8
0
100
AcDbLine
 62
7
  6
CONTINUOUS
 10
139.7079133065
 20
42.8979415374
 11
139.7079133065
 21
43.3447499948
  0
LINE
  5
389
100
AcDbEntity
  8
0
100
AcDbLine
 62
7
  6
CONTINUOUS
 10
141.3329131872
 20
43.3447499948
 11
141.3329131872
 21
42.8979415374
  0
LINE
  5
38A
100
AcDbEntity
  8
0
100
AcDbLine
 62
7
  6
CONTINUOUS
 10
141.645413068
 20
42.8341117578
 11
141.645413068
 21
43.4085797744
  0
LINE
  5
38B
100
AcDbEntity
  8
DRAFT
100
AcDbLine
 62
7
  6
CONTINUOUS
 10
108.9172304759
 20
36.6370034282
 11
108.8954133065
 21
36.5933657659
  0
LINE
  5
38C
100
AcDbEntity
  8
DRAFT
100
AcDbLine
 62
7
  6
CONTINUOUS
 10
237.0507020287
 20
130.4682111422
 11
237.9946883269
 21
130.7211515084
  0
LINE
  5
38D
100
AcDbEntity
  8
DRAFT
100
AcDbLine
 62
7
  6
CONTINUOUS
 10
39.7401245842
 20
81.0744803901
 11
38.796138286
 21
80.8215400238
  0
LINE
  5
38E
100
AcDbEntity
  8
0
100
AcDbLine
 62
7
  6
CONTINUOUS
 10
60.1188175351
 20
101.9338457661
 11
59.6720090778
 21
101.9338457661
  0
LINE
  5
38F
100
AcDbEntity
  8
DRAFT
100
AcDbLine
 62
7
  6
CONTINUOUS
 10
50.3954133065
 20
103.4844358551
 11
52.4532148859
 21
103.4844358551
  0
LINE
  5
390
100
AcDbEntity
  8
DRAFT
100
AcDbLine
 62
7
  6
CONTINUOUS
 10
224.337611727
 20
103.4844358551
 11
226.3954133065
 21
103.4844358551
  0
LINE
  5
391
100
AcDbEntity
  8
0
100
AcDbLine
 62
7
  6
CONTINUOUS
 10
59.6720090778
 20
103.5588456469
 11
60.1188175351
 21
103.5588456469
  0
LINE
  5
392
100
AcDbEntity
  8
0
100
AcDbLine
 62
7
  6
CONTINUOUS
 10
60.1826473148
 20
103.8713455277
 11
59.6081792981
 21
103.8713455277
  0
LINE
  5
393
100
AcDbEntity
  8
DRAFT
100
AcDbLine
 62
7
  6
CONTINUOUS
 10
52.4532148859
 20
104.2431629356
 11
51.1110709685
 21
104.2431629356
  0
LINE
  5
394
100
AcDbEntity
  8
DRAFT
100
AcDbLine
 62
7
  6
CONTINUOUS
 10
224.337611727
 20
104.2431629356
 11
225.6797556444
 21
104.2431629356
  0
LINE
  5
395
100
AcDbEntity
  8
DRAFT
100
AcDbLine
 62
7
  6
CONTINUOUS
 10
52.4532148859
 20
105.7835235926
 11
51.1110709685
 21
105.7835235926
  0
LINE
  5
396
100
AcDbEntity
  8
DRAFT
100
AcDbLine
 62
7
  6
CONTINUOUS
 10
224.337611727
 20
105.7835235926
 11
225.6797556444
 21
105.7835235926
  0
LINE
  5
397
100
AcDbEntity
  8
DRAFT
100
AcDbLine
 62
7
  6
CONTINUOUS
 10
52.4226708486
 20
106.7213457661
 11
51.0499782413
 21
106.7213457661
  0
LINE
  5
398
100
AcDbEntity
  8
DRAFT
100
AcDbLine
 62
7
  6
CONTINUOUS
 10
224.3681557643
 20
106.7213457661
 11
225.7408483716
 21
106.7213457661
  0
LINE
  5
399
100
AcDbEntity
  8
DRAFT
100
AcDbLine
 62
7
  6
CONTINUOUS
 10
39.7401245842
 20
130.4682111422
 11
38.796138286
 21
130.7211515084
  0
LINE
  5
39A
100
AcDbEntity
  8
DRAFT
100
AcDbLine
 62
7
  6
CONTINUOUS
 10
237.0507020287
 20
81.0744803901
 11
237.9946883269
 21
80.8215400238
  0
LINE
  5
39B
100
AcDbEntity
  8
DRAFT
100
AcDbLine
 62
7
  6
CONTINUOUS
 10
108.8954133065
 20
164.6493257664
 11
108.9172304759
 21
164.6056881041
  0
LINE
  5
39C
100
AcDbEntity
  8
DRAFT
100
AcDbLine
 62
7
  6
CONTINUOUS
 10
148.1954133065
 20
37.6486033083
 11
148.1954133065
 21
36.5759107009
  0
LINE
  5
39D
100
AcDbEntity
  8
DRAFT
100
AcDbLine
 62
7
  6
CONTINUOUS
 10
148.1954133065
 20
163.594088224
 11
148.1954133065
 21
164.6667808313
  0
LINE
  5
39E
100
AcDbEntity
  8
DRAFT
100
AcDbLine
 62
7
  6
CONTINUOUS
 10
149.13323548
 20
37.6791473456
 11
149.13323548
 21
36.6370034282
  0
LINE
  5
39F
100
AcDbEntity
  8
DRAFT
100
AcDbLine
 62
7
  6
CONTINUOUS
 10
149.13323548
 20
163.5635441867
 11
149.13323548
 21
164.6056881041
  0
LINE
  5
3A0
100
AcDbEntity
  8
DRAFT
100
AcDbLine
 62
7
  6
CONTINUOUS
 10
149.8954133065
 20
28.0220707457
 11
149.8954133065
 21
28.4566122169
  0
LINE
  5
3A1
100
AcDbEntity
  8
DRAFT
100
AcDbLine
 62
7
  6
CONTINUOUS
 10
149.8954133065
 20
172.7860793154
 11
149.8954133065
 21
173.2206207866
  0
LINE
  5
3A2
100
AcDbEntity
  8
DRAFT
100
AcDbLine
 62
7
  6
CONTINUOUS
 10
150.373596137
 20
37.6791473456
 11
150.373596137
 21
36.6370034282
  0
LINE
  5
3A3
100
AcDbEntity
  8
DRAFT
100
AcDbLine
 62
7
  6
CONTINUOUS
 10
150.373596137
 20
163.5635441867
 11
150.373596137
 21
164.6056881041
  0
LINE
  5
3A4
100
AcDbEntity
  8
DRAFT
100
AcDbLine
 62
7
  6
CONTINUOUS
 10
151.4172304759
 20
37.6791473456
 11
151.4172304759
 21
36.6370034282
  0
LINE
  5
3A5
100
AcDbEntity
  8
DRAFT
100
AcDbLine
 62
7
  6
CONTINUOUS
 10
151.4172304759
 20
163.5635441867
 11
151.4172304759
 21
164.6056881041
  0
LINE
  5
3A6
100
AcDbEntity
  8
DRAFT
100
AcDbLine
 62
7
  6
CONTINUOUS
 10
152.6575911329
 20
37.6791473456
 11
152.6575911329
 21
36.6370034282
  0
LINE
  5
3A7
100
AcDbEntity
  8
DRAFT
100
AcDbLine
 62
7
  6
CONTINUOUS
 10
152.6575911329
 20
163.5635441867
 11
152.6575911329
 21
164.6056881041
  0
LINE
  5
3A8
100
AcDbEntity
  8
DRAFT
100
AcDbLine
 62
7
  6
CONTINUOUS
 10
152.8954133065
 20
28.7653390847
 11
152.8954133065
 21
28.4653390847
  0
LINE
  5
3A9
100
AcDbEntity
  8
DRAFT
100
AcDbLine
 62
7
  6
CONTINUOUS
 10
152.8954133065
 20
172.4773524476
 11
152.8954133065
 21
172.7773524476
  0
LINE
  5
3AA
100
AcDbEntity
  8
DRAFT
100
AcDbLine
 62
7
  6
CONTINUOUS
 10
153.5954133065
 20
37.6486033083
 11
153.5954133065
 21
36.5759107009
  0
LINE
  5
3AB
100
AcDbEntity
  8
DRAFT
100
AcDbLine
 62
7
  6
CONTINUOUS
 10
153.5954133065
 20
163.594088224
 11
153.5954133065
 21
164.6667808313
  0
LINE
  5
3AC
100
AcDbEntity
  8
0
100
AcDbLine
 62
7
  6
CONTINUOUS
 10
139.7079133065
 20
43.3447499948
 11
139.7704134257
 21
43.7277286726
  0
LINE
  5
3AD
100
AcDbEntity
  8
0
100
AcDbLine
 62
7
  6
CONTINUOUS
 10
141.3329131872
 20
42.8979415374
 11
141.2704134257
 21
42.5149627703
  0
LINE
  5
3AE
100
AcDbEntity
  8
0
100
AcDbLine
 62
7
  6
CONTINUOUS
 10
139.4579131872
 20
43.7277286726
 11
139.3954134257
 21
43.4085797744
  0
LINE
  5
3AF
100
AcDbEntity
  8
0
100
AcDbLine
 62
7
  6
CONTINUOUS
 10
141.5829133065
 20
42.5149627703
 11
141.645413068
 21
42.8341117578
  0
LINE
  5
3B0
100
AcDbEntity
  8
DRAFT
100
AcDbLine
 62
7
  6
CONTINUOUS
 10
168.2422786825
 20
172.2766344884
 11
168.4952190488
 21
173.2206207866
  0
LINE
  5
3B1
100
AcDbEntity
  8
0
100
AcDbLine
 62
7
  6
CONTINUOUS
 10
138.5829133065
 20
42.5149627703
 11
138.5204131872
 21
42.3234734314
  0
LINE
  5
3B2
100
AcDbEntity
  8
DRAFT
100
AcDbLine
 62
7
  6
CONTINUOUS
 10
125.081246066
 20
35.9649834284
 11
125.3954133065
 21
36.5933657659
  0
LINE
  5
3B3
100
AcDbEntity
  8
DRAFT
100
AcDbLine
 62
7
  6
CONTINUOUS
 10
126.4172304759
 20
36.6370034282
 11
126.3954133065
 21
36.5933657659
  0
LINE
  5
3B4
100
AcDbEntity
  8
RACCORDO
100
AcDbLine
 62
250
  6
CONTINUOUS
 10
238.3972408254
 20
176.6213457661
 11
236.0033400393
 21
174.22744498
  0
LINE
  5
3B5
100
AcDbEntity
  8
DRAFT
100
AcDbLine
 62
7
  6
CONTINUOUS
 10
225.7233933067
 20
130.1213457661
 11
225.6797556444
 21
130.0995285967
  0
LINE
  5
3B6
100
AcDbEntity
  8
0
100
AcDbLine
 62
7
  6
CONTINUOUS
 10
60.1826473148
 20
101.6213458853
 11
60.5017963023
 21
101.6838456469
  0
LINE
  5
3B7
100
AcDbEntity
  8
0
100
AcDbLine
 62
7
  6
CONTINUOUS
 10
60.5017963023
 20
101.9963458853
 11
60.1188175351
 21
101.9338457661
  0
LINE
  5
3B8
100
AcDbEntity
  8
0
100
AcDbLine
 62
7
  6
CONTINUOUS
 10
59.2890304
 20
103.4963458853
 11
59.6720090778
 21
103.5588456469
  0
LINE
  5
3B9
100
AcDbEntity
  8
DRAFT
100
AcDbLine
 62
7
  6
CONTINUOUS
 10
39.2306797572
 20
112.1213457661
 11
38.796138286
 21
112.1213457661
  0
LINE
  5
3BA
100
AcDbEntity
  8
DRAFT
100
AcDbLine
 62
7
  6
CONTINUOUS
 10
237.5601468557
 20
112.1213457661
 11
237.9946883269
 21
112.1213457661
  0
LINE
  5
3BB
100
AcDbEntity
  8
DRAFT
100
AcDbLine
 62
7
  6
CONTINUOUS
 10
39.539406625
 20
115.1213457661
 11
39.239406625
 21
115.1213457661
  0
LINE
  5
3BC
100
AcDbEntity
  8
DRAFT
100
AcDbLine
 62
7
  6
CONTINUOUS
 10
237.2514199879
 20
115.1213457661
 11
237.5514199879
 21
115.1213457661
  0
LINE
  5
3BD
100
AcDbEntity
  8
DRAFT
100
AcDbLine
 62
7
  6
CONTINUOUS
 10
225.6797556444
 20
71.1431629356
 11
225.7233933067
 21
71.1213457661
  0
LINE
  5
3BE
100
AcDbEntity
  8
RACCORDO
100
AcDbLine
 62
250
  6
CONTINUOUS
 10
238.3972408254
 20
24.6213457661
 11
236.0033400393
 21
27.0152465522
  0
LINE
  5
3BF
100
AcDbEntity
  8
DRAFT
100
AcDbLine
 62
7
  6
CONTINUOUS
 10
125.3954133065
 20
164.6493257664
 11
125.081246066
 21
165.2777081038
  0
LINE
  5
3C0
100
AcDbEntity
  8
DRAFT
100
AcDbLine
 62
7
  6
CONTINUOUS
 10
126.3954133065
 20
164.6493257664
 11
126.4172304759
 21
164.6056881041
  0
LINE
  5
3C1
100
AcDbEntity
  8
DRAFT
100
AcDbLine
 62
7
  6
CONTINUOUS
 10
168.4952190488
 20
28.0220707457
 11
168.2422786825
 21
28.9660570439
  0
LINE
  5
3C2
100
AcDbEntity
  8
0
100
AcDbLine
 62
7
  6
CONTINUOUS
 10
139.5204133065
 20
43.9192181903
 11
139.4579131872
 21
43.7277286726
  0
LINE
  5
3C3
100
AcDbEntity
  8
0
100
AcDbLine
 62
7
  6
CONTINUOUS
 10
141.5204135449
 20
42.3234734314
 11
141.5829133065
 21
42.5149627703
  0
LINE
  5
3C4
100
AcDbEntity
  8
0
100
AcDbLine
 62
7
  6
CONTINUOUS
 10
138.7704133065
 20
42.1319840478
 11
138.8954131872
 21
42.4511329907
  0
LINE
  5
3C5
100
AcDbEntity
  8
0
100
AcDbLine
 62
7
  6
CONTINUOUS
 10
139.6454131872
 20
44.1745373088
 11
139.5204133065
 21
43.9192181903
  0
LINE
  5
3C6
100
AcDbEntity
  8
RACCORDO
100
AcDbLine
 62
250
  6
CONTINUOUS
 10
241.3954133065
 20
173.6231732851
 11
239.0015125203
 21
171.229272499
  0
LINE
  5
3C7
100
AcDbEntity
  8
0
100
AcDbLine
 62
7
  6
CONTINUOUS
 10
59.0975408823
 20
101.1213456469
 11
58.8422217638
 21
101.0588458853
  0
LINE
  5
3C8
100
AcDbEntity
  8
0
100
AcDbLine
 62
7
  6
CONTINUOUS
 10
59.6081792981
 20
103.8713455277
 11
59.2890304
 21
103.8088457661
  0
LINE
  5
3C9
100
AcDbEntity
  8
RACCORDO
100
AcDbLine
 62
250
  6
CONTINUOUS
 10
241.3954133065
 20
27.6195182472
 11
239.0015125203
 21
30.0134190333
  0
LINE
  5
3CA
100
AcDbEntity
  8
DRAFT
100
AcDbLine
 62
7
  6
CONTINUOUS
 10
165.6954133065
 20
37.6486033083
 11
165.6954133065
 21
36.5759107009
  0
LINE
  5
3CB
100
AcDbEntity
  8
DRAFT
100
AcDbLine
 62
7
  6
CONTINUOUS
 10
165.6954133065
 20
163.594088224
 11
165.6954133065
 21
164.6667808313
  0
LINE
  5
3CC
100
AcDbEntity
  8
DRAFT
100
AcDbLine
 62
7
  6
CONTINUOUS
 10
166.63323548
 20
37.6791473456
 11
166.63323548
 21
36.6370034282
  0
LINE
  5
3CD
100
AcDbEntity
  8
DRAFT
100
AcDbLine
 62
7
  6
CONTINUOUS
 10
166.63323548
 20
163.5635441867
 11
166.63323548
 21
164.6056881041
  0
LINE
  5
3CE
100
AcDbEntity
  8
DRAFT
100
AcDbLine
 62
7
  6
CONTINUOUS
 10
167.873596137
 20
37.6791473456
 11
167.873596137
 21
36.6370034282
  0
LINE
  5
3CF
100
AcDbEntity
  8
DRAFT
100
AcDbLine
 62
7
  6
CONTINUOUS
 10
167.873596137
 20
163.5635441867
 11
167.873596137
 21
164.6056881041
  0
LINE
  5
3D0
100
AcDbEntity
  8
DRAFT
100
AcDbLine
 62
7
  6
CONTINUOUS
 10
168.8954133065
 20
173.2206207866
 11
168.8954133065
 21
163.5635441867
  0
LINE
  5
3D1
100
AcDbEntity
  8
DRAFT
100
AcDbLine
 62
7
  6
CONTINUOUS
 10
168.8954133065
 20
37.6791473456
 11
168.8954133065
 21
28.0220707457
  0
LINE
  5
3D2
100
AcDbEntity
  8
0
100
AcDbLine
 62
7
  6
CONTINUOUS
 10
141.3954133065
 20
42.0681542682
 11
141.5204135449
 21
42.3234734314
  0
LINE
  5
3D3
100
AcDbEntity
  8
0
100
AcDbLine
 62
7
  6
CONTINUOUS
 10
138.5204131872
 20
42.3234734314
 11
138.3954133065
 21
42.1319840478
  0
LINE
  5
3D4
100
AcDbEntity
  8
0
100
AcDbLine
 62
7
  6
CONTINUOUS
 10
139.7704134257
 20
43.7277286726
 11
140.0204131872
 21
44.1107075291
  0
LINE
  5
3D5
100
AcDbEntity
  8
0
100
AcDbLine
 62
7
  6
CONTINUOUS
 10
141.2704134257
 20
42.5149627703
 11
141.0204133065
 21
42.1319840478
  0
LINE
  5
3D6
100
AcDbEntity
  8
0
100
AcDbLine
 62
7
  6
CONTINUOUS
 10
138.5829133065
 20
41.876664907
 11
138.7704133065
 21
42.1319840478
  0
LINE
  5
3D7
100
AcDbEntity
  8
0
100
AcDbLine
 62
7
  6
CONTINUOUS
 10
135.7704133065
 20
44.6213457661
 11
135.3954133065
 21
44.1745373088
  0
LINE
  5
3D8
100
AcDbEntity
  8
0
100
AcDbLine
 62
7
  6
CONTINUOUS
 10
135.3954133065
 20
43.6638988929
 11
135.7704133065
 21
44.1107075291
  0
LINE
  5
3D9
100
AcDbEntity
  8
DRAFT
100
AcDbLine
 62
7
  6
CONTINUOUS
 10
52.4226708486
 20
127.6213457661
 11
51.0499782413
 21
127.6213457661
  0
LINE
  5
3DA
100
AcDbEntity
  8
DRAFT
100
AcDbLine
 62
7
  6
CONTINUOUS
 10
224.3681557643
 20
127.6213457661
 11
225.7408483716
 21
127.6213457661
  0
LINE
  5
3DB
100
AcDbEntity
  8
DRAFT
100
AcDbLine
 62
7
  6
CONTINUOUS
 10
52.4532148859
 20
128.5591679396
 11
51.1110709685
 21
128.5591679396
  0
LINE
  5
3DC
100
AcDbEntity
  8
DRAFT
100
AcDbLine
 62
7
  6
CONTINUOUS
 10
224.337611727
 20
128.5591679396
 11
225.6797556444
 21
128.5591679396
  0
LINE
  5
3DD
100
AcDbEntity
  8
DRAFT
100
AcDbLine
 62
7
  6
CONTINUOUS
 10
52.4532148859
 20
130.0995285967
 11
51.1110709685
 21
130.0995285967
  0
LINE
  5
3DE
100
AcDbEntity
  8
DRAFT
100
AcDbLine
 62
7
  6
CONTINUOUS
 10
224.337611727
 20
130.0995285967
 11
225.6797556444
 21
130.0995285967
  0
LINE
  5
3DF
100
AcDbEntity
  8
DRAFT
100
AcDbLine
 62
7
  6
CONTINUOUS
 10
39.1401245842
 20
130.7766344884
 11
50.4085036081
 21
130.7766344884
  0
LINE
  5
3E0
100
AcDbEntity
  8
DRAFT
100
AcDbLine
 62
7
  6
CONTINUOUS
 10
226.3823230048
 20
130.7766344884
 11
237.6507020287
 21
130.7766344884
  0
LINE
  5
3E1
100
AcDbEntity
  8
DRAFT
100
AcDbLine
 62
7
  6
CONTINUOUS
 10
39.2884003331
 20
131.1213457661
 11
52.4532148859
 21
131.1213457661
  0
LINE
  5
3E2
100
AcDbEntity
  8
DRAFT
100
AcDbLine
 62
7
  6
CONTINUOUS
 10
224.337611727
 20
131.1213457661
 11
237.5024262798
 21
131.1213457661
  0
LINE
  5
3E3
100
AcDbEntity
  8
DRAFT
100
AcDbLine
 62
7
  6
CONTINUOUS
 10
158.5956075641
 20
28.0220707457
 11
158.8485479304
 21
28.9660570439
  0
LINE
  5
3E4
100
AcDbEntity
  8
DRAFT
100
AcDbLine
 62
7
  6
CONTINUOUS
 10
150.081246066
 20
35.9649834284
 11
150.3954133065
 21
36.5933657659
  0
LINE
  5
3E5
100
AcDbEntity
  8
DRAFT
100
AcDbLine
 62
7
  6
CONTINUOUS
 10
151.4172304759
 20
36.6370034282
 11
151.3954133065
 21
36.5933657659
  0
LINE
  5
3E6
100
AcDbEntity
  8
0
100
AcDbLine
 62
7
  6
CONTINUOUS
 10
139.8329131872
 20
44.3660266476
 11
139.6454131872
 21
44.1745373088
  0
LINE
  5
3E7
100
AcDbEntity
  8
0
100
AcDbLine
 62
7
  6
CONTINUOUS
 10
141.2079133065
 20
41.876664907
 11
141.3954133065
 21
42.0681542682
  0
LINE
  5
3E8
100
AcDbEntity
  8
DRAFT
100
AcDbLine
 62
7
  6
CONTINUOUS
 10
225.7233933067
 20
104.2213457661
 11
226.3692307091
 21
104.5442398744
  0
LINE
  5
3E9
100
AcDbEntity
  8
DRAFT
100
AcDbLine
 62
7
  6
CONTINUOUS
 10
225.7233933067
 20
97.0213457661
 11
225.6797556444
 21
96.9995285967
  0
LINE
  5
3EA
100
AcDbEntity
  8
DRAFT
100
AcDbLine
 62
7
  6
CONTINUOUS
 10
226.3692307091
 20
96.6984516579
 11
225.7233933067
 21
97.0213457661
  0
LINE
  5
3EB
100
AcDbEntity
  8
DRAFT
100
AcDbLine
 62
7
  6
CONTINUOUS
 10
225.6797556444
 20
104.2431629356
 11
225.7233933067
 21
104.2213457661
  0
LINE
  5
3EC
100
AcDbEntity
  8
DRAFT
100
AcDbLine
 62
7
  6
CONTINUOUS
 10
150.3954133065
 20
164.6493257664
 11
150.081246066
 21
165.2777081038
  0
LINE
  5
3ED
100
AcDbEntity
  8
DRAFT
100
AcDbLine
 62
7
  6
CONTINUOUS
 10
151.3954133065
 20
164.6493257664
 11
151.4172304759
 21
164.6056881041
  0
LINE
  5
3EE
100
AcDbEntity
  8
DRAFT
100
AcDbLine
 62
7
  6
CONTINUOUS
 10
158.8485479304
 20
172.2766344884
 11
158.5956075641
 21
173.2206207866
  0
LINE
  5
3EF
100
AcDbEntity
  8
DRAFT
100
AcDbLine
 62
7
  6
CONTINUOUS
 10
237.9946883269
 20
131.1206207866
 11
237.6507020287
 21
130.7766344884
  0
LINE
  5
3F0
100
AcDbEntity
  8
0
100
AcDbLine
 62
7
  6
CONTINUOUS
 10
137.0829133065
 20
42.9617713171
 11
137.3329132468
 21
43.1532606559
  0
LINE
  5
3F1
100
AcDbEntity
  8
0
100
AcDbLine
 62
7
  6
CONTINUOUS
 10
140.0204131872
 20
44.1107075291
 11
140.2079131872
 21
44.2383670884
  0
LINE
  5
3F2
100
AcDbEntity
  8
0
100
AcDbLine
 62
7
  6
CONTINUOUS
 10
138.3954133065
 20
42.1319840478
 11
138.2079133065
 21
42.0043244886
  0
LINE
  5
3F3
100
AcDbEntity
  8
0
100
AcDbLine
 62
7
  6
CONTINUOUS
 10
141.0204133065
 20
42.1319840478
 11
140.8329133065
 21
42.0043244886
  0
LINE
  5
3F4
100
AcDbEntity
  8
0
100
AcDbLine
 62
7
  6
CONTINUOUS
 10
137.2704133065
 20
43.4724095541
 11
136.9579132468
 21
43.2809202152
  0
LINE
  5
3F5
100
AcDbEntity
  8
0
100
AcDbLine
 62
7
  6
CONTINUOUS
 10
140.1454134257
 20
44.5575159865
 11
139.8329131872
 21
44.3660266476
  0
LINE
  5
3F6
100
AcDbEntity
  8
0
100
AcDbLine
 62
7
  6
CONTINUOUS
 10
138.2704132468
 20
41.6851755513
 11
138.5829133065
 21
41.876664907
  0
LINE
  5
3F7
100
AcDbEntity
  8
0
100
AcDbLine
 62
7
  6
CONTINUOUS
 10
140.8954134257
 20
41.6851755513
 11
141.2079133065
 21
41.876664907
  0
LINE
  5
3F8
100
AcDbEntity
  8
DRAFT
100
AcDbLine
 62
7
  6
CONTINUOUS
 10
39.7401245842
 20
121.0744803901
 11
38.796138286
 21
120.8215400238
  0
LINE
  5
3F9
100
AcDbEntity
  8
0
100
AcDbLine
 62
7
  6
CONTINUOUS
 10
63.6454133065
 20
152.8713457661
 11
63.1454133065
 21
152.8713457661
  0
LINE
  5
3FA
100
AcDbEntity
  8
DRAFT
100
AcDbLine
 62
7
  6
CONTINUOUS
 10
237.0507020287
 20
121.0744803901
 11
237.9946883269
 21
120.8215400238
  0
LINE
  5
3FB
100
AcDbEntity
  8
DRAFT
100
AcDbLine
 62
7
  6
CONTINUOUS
 10
237.9946883269
 20
70.1220707457
 11
237.6507020287
 21
70.4660570439
  0
LINE
  5
3FC
100
AcDbEntity
  8
DRAFT
100
AcDbLine
 62
7
  6
CONTINUOUS
 10
167.581246066
 20
35.9649834284
 11
167.8954133065
 21
36.5933657659
  0
LINE
  5
3FD
100
AcDbEntity
  8
DRAFT
100
AcDbLine
 62
7
  6
CONTINUOUS
 10
167.8954133065
 20
164.6493257664
 11
167.581246066
 21
165.2777081038
  0
LINE
  5
3FE
100
AcDbEntity
  8
0
100
AcDbLine
 62
7
  6
CONTINUOUS
 10
205.6454133065
 20
40.3713457661
 11
205.6454133065
 21
40.8713457661
  0
LINE
  5
3FF
100
AcDbEntity
  8
DRAFT
100
AcDbLine
 62
7
  6
CONTINUOUS
 10
225.7233933067
 20
71.1213457661
 11
226.3692307091
 21
71.4442398744
  0
LINE
  5
400
100
AcDbEntity
  8
DRAFT
100
AcDbLine
 62
7
  6
CONTINUOUS
 10
152.6575911329
 20
164.6056881041
 11
153.5954133065
 21
164.6667808313
  0
LINE
  5
401
100
AcDbEntity
  8
DRAFT
100
AcDbLine
 62
7
  6
CONTINUOUS
 10
158.7633624989
 20
165.2951631687
 11
158.4954133065
 21
165.2777081038
  0
LINE
  5
402
100
AcDbEntity
  8
DRAFT
100
AcDbLine
 62
7
  6
CONTINUOUS
 10
127.6575911329
 20
164.6056881041
 11
128.5954133065
 21
164.6667808313
  0
LINE
  5
403
100
AcDbEntity
  8
DRAFT
100
AcDbLine
 62
7
  6
CONTINUOUS
 10
137.5133624989
 20
165.2951631687
 11
137.2454133065
 21
165.2777081038
  0
LINE
  5
404
100
AcDbEntity
  8
DRAFT
100
AcDbLine
 62
7
  6
CONTINUOUS
 10
110.1575911329
 20
164.6056881041
 11
111.0954133065
 21
164.6667808313
  0
LINE
  5
405
100
AcDbEntity
  8
DRAFT
100
AcDbLine
 62
7
  6
CONTINUOUS
 10
116.2633624989
 20
165.2951631687
 11
115.9954133065
 21
165.2777081038
  0
LINE
  5
406
100
AcDbEntity
  8
DRAFT
100
AcDbLine
 62
7
  6
CONTINUOUS
 10
158.7633624989
 20
165.2951631687
 11
160.527464114
 21
165.3082554644
  0
LINE
  5
407
100
AcDbEntity
  8
DRAFT
100
AcDbLine
 62
7
  6
CONTINUOUS
 10
137.5133624989
 20
165.2951631687
 11
139.277464114
 21
165.3082554644
  0
LINE
  5
408
100
AcDbEntity
  8
DRAFT
100
AcDbLine
 62
7
  6
CONTINUOUS
 10
116.2633624989
 20
165.2951631687
 11
118.027464114
 21
165.3082554644
  0
LINE
  5
409
100
AcDbEntity
  8
DRAFT
100
AcDbLine
 62
7
  6
CONTINUOUS
 10
107.8954133065
 20
163.5635441867
 11
108.9172304759
 21
163.5635441867
  0
LINE
  5
40A
100
AcDbEntity
  8
DRAFT
100
AcDbLine
 62
7
  6
CONTINUOUS
 10
110.1575911329
 20
163.5635441867
 11
124.13323548
 21
163.5635441867
  0
LINE
  5
40B
100
AcDbEntity
  8
DRAFT
100
AcDbLine
 62
7
  6
CONTINUOUS
 10
125.373596137
 20
163.5635441867
 11
126.4172304759
 21
163.5635441867
  0
LINE
  5
40C
100
AcDbEntity
  8
DRAFT
100
AcDbLine
 62
7
  6
CONTINUOUS
 10
127.6575911329
 20
163.5635441867
 11
149.13323548
 21
163.5635441867
  0
LINE
  5
40D
100
AcDbEntity
  8
DRAFT
100
AcDbLine
 62
7
  6
CONTINUOUS
 10
150.373596137
 20
163.5635441867
 11
151.4172304759
 21
163.5635441867
  0
LINE
  5
40E
100
AcDbEntity
  8
DRAFT
100
AcDbLine
 62
7
  6
CONTINUOUS
 10
152.6575911329
 20
163.5635441867
 11
166.63323548
 21
163.5635441867
  0
LINE
  5
40F
100
AcDbEntity
  8
DRAFT
100
AcDbLine
 62
7
  6
CONTINUOUS
 10
167.873596137
 20
163.5635441867
 11
168.8954133065
 21
163.5635441867
  0
LINE
  5
410
100
AcDbEntity
  8
DRAFT
100
AcDbLine
 62
7
  6
CONTINUOUS
 10
111.0954133065
 20
163.594088224
 11
123.1954133065
 21
163.594088224
  0
LINE
  5
411
100
AcDbEntity
  8
DRAFT
100
AcDbLine
 62
7
  6
CONTINUOUS
 10
128.5954133065
 20
163.594088224
 11
148.1954133065
 21
163.594088224
  0
LINE
  5
412
100
AcDbEntity
  8
DRAFT
100
AcDbLine
 62
7
  6
CONTINUOUS
 10
153.5954133065
 20
163.594088224
 11
165.6954133065
 21
163.594088224
  0
LINE
  5
413
100
AcDbEntity
  8
DRAFT
100
AcDbLine
 62
7
  6
CONTINUOUS
 10
108.9172304759
 20
164.6056881041
 11
110.1575911329
 21
164.6056881041
  0
LINE
  5
414
100
AcDbEntity
  8
DRAFT
100
AcDbLine
 62
7
  6
CONTINUOUS
 10
124.13323548
 20
164.6056881041
 11
125.373596137
 21
164.6056881041
  0
LINE
  5
415
100
AcDbEntity
  8
DRAFT
100
AcDbLine
 62
7
  6
CONTINUOUS
 10
126.4172304759
 20
164.6056881041
 11
127.6575911329
 21
164.6056881041
  0
LINE
  5
416
100
AcDbEntity
  8
DRAFT
100
AcDbLine
 62
7
  6
CONTINUOUS
 10
149.13323548
 20
164.6056881041
 11
150.373596137
 21
164.6056881041
  0
LINE
  5
417
100
AcDbEntity
  8
DRAFT
100
AcDbLine
 62
7
  6
CONTINUOUS
 10
151.4172304759
 20
164.6056881041
 11
152.6575911329
 21
164.6056881041
  0
LINE
  5
418
100
AcDbEntity
  8
DRAFT
100
AcDbLine
 62
7
  6
CONTINUOUS
 10
166.63323548
 20
164.6056881041
 11
167.873596137
 21
164.6056881041
  0
LINE
  5
419
100
AcDbEntity
  8
DRAFT
100
AcDbLine
 62
7
  6
CONTINUOUS
 10
111.0954133065
 20
164.6667808313
 11
123.1954133065
 21
164.6667808313
  0
LINE
  5
41A
100
AcDbEntity
  8
DRAFT
100
AcDbLine
 62
7
  6
CONTINUOUS
 10
128.5954133065
 20
164.6667808313
 11
148.1954133065
 21
164.6667808313
  0
LINE
  5
41B
100
AcDbEntity
  8
DRAFT
100
AcDbLine
 62
7
  6
CONTINUOUS
 10
153.5954133065
 20
164.6667808313
 11
165.6954133065
 21
164.6667808313
  0
LINE
  5
41C
100
AcDbEntity
  8
DRAFT
100
AcDbLine
 62
7
  6
CONTINUOUS
 10
167.581246066
 20
165.2777081038
 11
160.7954133065
 21
165.2777081038
  0
LINE
  5
41D
100
AcDbEntity
  8
DRAFT
100
AcDbLine
 62
7
  6
CONTINUOUS
 10
158.4954133065
 20
165.2777081038
 11
151.7095805469
 21
165.2777081038
  0
LINE
  5
41E
100
AcDbEntity
  8
DRAFT
100
AcDbLine
 62
7
  6
CONTINUOUS
 10
150.081246066
 20
165.2777081038
 11
139.5454133065
 21
165.2777081038
  0
LINE
  5
41F
100
AcDbEntity
  8
DRAFT
100
AcDbLine
 62
7
  6
CONTINUOUS
 10
137.2454133065
 20
165.2777081038
 11
126.7095805469
 21
165.2777081038
  0
LINE
  5
420
100
AcDbEntity
  8
DRAFT
100
AcDbLine
 62
7
  6
CONTINUOUS
 10
125.081246066
 20
165.2777081038
 11
118.2954133065
 21
165.2777081038
  0
LINE
  5
421
100
AcDbEntity
  8
DRAFT
100
AcDbLine
 62
7
  6
CONTINUOUS
 10
115.9954133065
 20
165.2777081038
 11
109.2095805469
 21
165.2777081038
  0
LINE
  5
422
100
AcDbEntity
  8
DRAFT
100
AcDbLine
 62
7
  6
CONTINUOUS
 10
107.8954133065
 20
165.3082554644
 11
116.2633624989
 21
165.3082554644
  0
LINE
  5
423
100
AcDbEntity
  8
DRAFT
100
AcDbLine
 62
7
  6
CONTINUOUS
 10
118.027464114
 20
165.3082554644
 11
137.5133624989
 21
165.3082554644
  0
LINE
  5
424
100
AcDbEntity
  8
DRAFT
100
AcDbLine
 62
7
  6
CONTINUOUS
 10
139.277464114
 20
165.3082554644
 11
158.7633624989
 21
165.3082554644
  0
LINE
  5
425
100
AcDbEntity
  8
DRAFT
100
AcDbLine
 62
7
  6
CONTINUOUS
 10
160.527464114
 20
165.3082554644
 11
168.8954133065
 21
165.3082554644
  0
LINE
  5
426
100
AcDbEntity
  8
DRAFT
100
AcDbLine
 62
7
  6
CONTINUOUS
 10
123.1954133065
 20
164.6667808313
 11
124.13323548
 21
164.6056881041
  0
LINE
  5
427
100
AcDbEntity
  8
DRAFT
100
AcDbLine
 62
7
  6
CONTINUOUS
 10
118.2954133065
 20
165.2777081038
 11
118.027464114
 21
165.2951631687
  0
LINE
  5
428
100
AcDbEntity
  8
DRAFT
100
AcDbLine
 62
7
  6
CONTINUOUS
 10
148.1954133065
 20
164.6667808313
 11
149.13323548
 21
164.6056881041
  0
LINE
  5
429
100
AcDbEntity
  8
DRAFT
100
AcDbLine
 62
7
  6
CONTINUOUS
 10
139.5454133065
 20
165.2777081038
 11
139.277464114
 21
165.2951631687
  0
LINE
  5
42A
100
AcDbEntity
  8
DRAFT
100
AcDbLine
 62
7
  6
CONTINUOUS
 10
165.6954133065
 20
164.6667808313
 11
166.63323548
 21
164.6056881041
  0
LINE
  5
42B
100
AcDbEntity
  8
DRAFT
100
AcDbLine
 62
7
  6
CONTINUOUS
 10
160.7954133065
 20
165.2777081038
 11
160.527464114
 21
165.2951631687
  0
LINE
  5
42C
100
AcDbEntity
  8
DRAFT
100
AcDbLine
 62
7
  6
CONTINUOUS
 10
226.3692307091
 20
129.7984516579
 11
225.7233933067
 21
130.1213457661
  0
LWPOLYLINE
  5
42D
100
AcDbEntity
  8
RACCORDO
100
AcDbPolyline
 62
250
  6
CONTINUOUS
 90
16
 70
0
 10
40.7874865736
 20
172.7283587395
 10
40.6289351885
 20
172.7197019276
 10
40.4750869931
 20
172.6954473771
 10
40.3259419875
 20
172.6555950882
 10
40.1798557316
 20
172.5993667509
 10
40.0384726655
 20
172.5275406752
 10
39.9067261086
 20
172.4424517904
 10
39.7850436224
 20
172.3436458958
 10
39.6729976455
 20
172.2315771921
 10
39.5742388133
 20
172.1099432115
 10
39.4892290705
 20
171.9783983563
 10
39.4175064723
 20
171.8372882241
 10
39.3613358195
 20
171.6913471397
 10
39.3214720454
 20
171.5421532116
 10
39.2971602166
 20
171.3881283313
 10
39.2884003331
 20
171.229272499
  0
LINE
  5
42E
100
AcDbEntity
  8
RACCORDO
100
AcDbLine
 62
250
  6
CONTINUOUS
 10
39.2884003331
 20
171.229272499
 11
37.7893140926
 21
171.229272499
  0
LINE
  5
42F
100
AcDbEntity
  8
RACCORDO
100
AcDbLine
 62
250
  6
CONTINUOUS
 10
237.5024262798
 20
171.229272499
 11
239.0015125203
 21
171.2292724719
  0
LINE
  5
430
100
AcDbEntity
  8
DRAFT
100
AcDbLine
 62
7
  6
CONTINUOUS
 10
168.2422786825
 20
172.2766344884
 11
158.8485479304
 21
172.2766344884
  0
LINE
  5
431
100
AcDbEntity
  8
DRAFT
100
AcDbLine
 62
7
  6
CONTINUOUS
 10
157.9422786825
 20
172.2766344884
 11
118.8485479304
 21
172.2766344884
  0
LINE
  5
432
100
AcDbEntity
  8
DRAFT
100
AcDbLine
 62
7
  6
CONTINUOUS
 10
117.9422786825
 20
172.2766344884
 11
108.5485479304
 21
172.2766344884
  0
LINE
  5
433
100
AcDbEntity
  8
DRAFT
100
AcDbLine
 62
7
  6
CONTINUOUS
 10
168.2960608976
 20
172.4773524476
 11
158.7947657153
 21
172.4773524476
  0
LINE
  5
434
100
AcDbEntity
  8
DRAFT
100
AcDbLine
 62
7
  6
CONTINUOUS
 10
157.9960608976
 20
172.4773524476
 11
152.8954133065
 21
172.4773524476
  0
LINE
  5
435
100
AcDbEntity
  8
DRAFT
100
AcDbLine
 62
7
  6
CONTINUOUS
 10
108.4947657153
 20
172.4773524476
 11
117.9960608976
 21
172.4773524476
  0
LINE
  5
436
100
AcDbEntity
  8
DRAFT
100
AcDbLine
 62
7
  6
CONTINUOUS
 10
118.7947657153
 20
172.4773524476
 11
123.8954133065
 21
172.4773524476
  0
LINE
  5
437
100
AcDbEntity
  8
ASSI
100
AcDbLine
 62
250
  6
CONTINUOUS
 10
236.0033400393
 20
172.7283587395
 11
168.8954133065
 21
172.7283587395
  0
LINE
  5
438
100
AcDbEntity
  8
ASSI
100
AcDbLine
 62
250
  6
CONTINUOUS
 10
107.8954133065
 20
172.7283587395
 11
40.7874865736
 21
172.7283587395
  0
LINE
  5
439
100
AcDbEntity
  8
DRAFT
100
AcDbLine
 62
7
  6
CONTINUOUS
 10
108.4143809576
 20
172.7773524476
 11
118.0764456553
 21
172.7773524476
  0
LINE
  5
43A
100
AcDbEntity
  8
DRAFT
100
AcDbLine
 62
7
  6
CONTINUOUS
 10
118.7143809576
 20
172.7773524476
 11
123.8954133065
 21
172.7773524476
  0
LINE
  5
43B
100
AcDbEntity
  8
DRAFT
100
AcDbLine
 62
7
  6
CONTINUOUS
 10
152.8954133065
 20
172.7773524476
 11
158.0764456553
 21
172.7773524476
  0
LINE
  5
43C
100
AcDbEntity
  8
DRAFT
100
AcDbLine
 62
7
  6
CONTINUOUS
 10
158.7143809576
 20
172.7773524476
 11
168.3764456553
 21
172.7773524476
  0
LINE
  5
43D
100
AcDbEntity
  8
DRAFT
100
AcDbLine
 62
7
  6
CONTINUOUS
 10
168.8954133065
 20
172.8766344884
 11
168.403048198
 21
172.8766344884
  0
LINE
  5
43E
100
AcDbEntity
  8
DRAFT
100
AcDbLine
 62
7
  6
CONTINUOUS
 10
158.6877784149
 20
172.8766344884
 11
158.103048198
 21
172.8766344884
  0
LINE
  5
43F
100
AcDbEntity
  8
DRAFT
100
AcDbLine
 62
7
  6
CONTINUOUS
 10
118.6877784149
 20
172.8766344884
 11
118.103048198
 21
172.8766344884
  0
LINE
  5
440
100
AcDbEntity
  8
DRAFT
100
AcDbLine
 62
7
  6
CONTINUOUS
 10
108.3877784149
 20
172.8766344884
 11
107.8954133065
 21
172.8766344884
  0
LINE
  5
441
100
AcDbEntity
  8
DRAFT
100
AcDbLine
 62
7
  6
CONTINUOUS
 10
168.4149994306
 20
172.9212370959
 11
158.6758271823
 21
172.9212370959
  0
LINE
  5
442
100
AcDbEntity
  8
DRAFT
100
AcDbLine
 62
7
  6
CONTINUOUS
 10
158.1149994306
 20
172.9212370959
 11
149.8954133065
 21
172.9212370959
  0
LINE
  5
443
100
AcDbEntity
  8
DRAFT
100
AcDbLine
 62
7
  6
CONTINUOUS
 10
126.8954133065
 20
172.9212370959
 11
118.6758271823
 21
172.9212370959
  0
LINE
  5
444
100
AcDbEntity
  8
DRAFT
100
AcDbLine
 62
7
  6
CONTINUOUS
 10
118.1149994306
 20
172.9212370959
 11
108.3758271823
 21
172.9212370959
  0
LINE
  5
445
100
AcDbEntity
  8
DRAFT
100
AcDbLine
 62
7
  6
CONTINUOUS
 10
168.8954133065
 20
173.2206207866
 11
168.4952190488
 21
173.2206207866
  0
LINE
  5
446
100
AcDbEntity
  8
DRAFT
100
AcDbLine
 62
7
  6
CONTINUOUS
 10
158.5956075641
 20
173.2206207866
 11
158.1952190488
 21
173.2206207866
  0
LINE
  5
447
100
AcDbEntity
  8
DRAFT
100
AcDbLine
 62
7
  6
CONTINUOUS
 10
149.8954133065
 20
173.2206207866
 11
126.8954133065
 21
173.2206207866
  0
LINE
  5
448
100
AcDbEntity
  8
DRAFT
100
AcDbLine
 62
7
  6
CONTINUOUS
 10
118.5956075641
 20
173.2206207866
 11
118.1952190488
 21
173.2206207866
  0
LINE
  5
449
100
AcDbEntity
  8
DRAFT
100
AcDbLine
 62
7
  6
CONTINUOUS
 10
108.2956075641
 20
173.2206207866
 11
107.8954133065
 21
173.2206207866
  0
LINE
  5
44A
100
AcDbEntity
  8
RACCORDO
100
AcDbLine
 62
250
  6
CONTINUOUS
 10
236.0033400393
 20
174.22744498
 11
40.7874865736
 21
174.22744498
  0
LINE
  5
44B
100
AcDbEntity
  8
RACCORDO
100
AcDbLine
 62
7
  6
CONTINUOUS
 10
238.3972408254
 20
176.6213457661
 11
38.3935857875
 21
176.6213457661
  0
LINE
  5
44C
100
AcDbEntity
  8
DRAFT
100
AcDbLine
 62
7
  6
CONTINUOUS
 10
226.3692307091
 20
72.6533965737
 11
226.3517756441
 21
72.9213457661
  0
LINE
  5
44D
100
AcDbEntity
  8
DRAFT
100
AcDbLine
 62
7
  6
CONTINUOUS
 10
224.337611727
 20
131.1213457661
 11
224.337611727
 21
130.0995285967
  0
LINE
  5
44E
100
AcDbEntity
  8
DRAFT
100
AcDbLine
 62
7
  6
CONTINUOUS
 10
224.337611727
 20
128.5591679396
 11
224.337611727
 21
105.7835235926
  0
LINE
  5
44F
100
AcDbEntity
  8
DRAFT
100
AcDbLine
 62
7
  6
CONTINUOUS
 10
224.337611727
 20
104.2431629356
 11
224.337611727
 21
103.4844358551
  0
LINE
  5
450
100
AcDbEntity
  8
DRAFT
100
AcDbLine
 62
7
  6
CONTINUOUS
 10
224.337611727
 20
97.7582556771
 11
224.337611727
 21
96.9995285967
  0
LINE
  5
451
100
AcDbEntity
  8
DRAFT
100
AcDbLine
 62
7
  6
CONTINUOUS
 10
224.337611727
 20
95.4591679396
 11
224.337611727
 21
72.6835235926
  0
LINE
  5
452
100
AcDbEntity
  8
DRAFT
100
AcDbLine
 62
7
  6
CONTINUOUS
 10
224.337611727
 20
71.1431629356
 11
224.337611727
 21
70.1213457661
  0
LINE
  5
453
100
AcDbEntity
  8
DRAFT
100
AcDbLine
 62
7
  6
CONTINUOUS
 10
224.3681557643
 20
127.6213457661
 11
224.3681557643
 21
106.7213457661
  0
LINE
  5
454
100
AcDbEntity
  8
DRAFT
100
AcDbLine
 62
7
  6
CONTINUOUS
 10
224.3681557643
 20
94.5213457661
 11
224.3681557643
 21
73.6213457661
  0
LINE
  5
455
100
AcDbEntity
  8
DRAFT
100
AcDbLine
 62
7
  6
CONTINUOUS
 10
226.3517756441
 20
128.3213457661
 11
226.3692307091
 21
128.5892949586
  0
LINE
  5
456
100
AcDbEntity
  8
DRAFT
100
AcDbLine
 62
7
  6
CONTINUOUS
 10
226.0594288965
 20
70.1431629356
 11
226.3823230048
 21
70.4660570439
  0
LWPOLYLINE
  5
457
100
AcDbEntity
  8
RACCORDO
100
AcDbPolyline
 62
250
  6
CONTINUOUS
 90
16
 70
0
 10
40.7874865736
 20
174.22744498
 10
40.4739086677
 20
174.2108222198
 10
40.1638091015
 20
174.1615141268
 10
39.86058224
 20
174.0800688076
 10
39.5675516839
 20
173.9673895594
 10
39.2879173611
 20
173.8247151464
 10
39.0247237017
 20
173.6535997238
 10
38.7808100013
 20
173.4558778611
 10
38.5588971558
 20
173.2337456055
 10
38.3615062417
 20
172.9897604236
 10
38.1908147621
 20
172.7267137173
 10
38.0485758388
 20
172.4474263206
 10
37.9362460103
 20
172.1548115525
 10
37.8550440752
 20
171.8520073854
 10
37.8058858445
 20
171.5423679215
 10
37.7893140926
 20
171.229272499
  0
LINE
  5
458
100
AcDbEntity
  8
DRAFT
100
AcDbLine
 62
7
  6
CONTINUOUS
 10
226.0594288965
 20
131.0995285967
 11
226.3823230048
 21
130.7766344884
  0
LINE
  5
459
100
AcDbEntity
  8
DRAFT
100
AcDbLine
 62
7
  6
CONTINUOUS
 10
225.6797556444
 20
95.4591679396
 11
225.7408483716
 21
94.5213457661
  0
LINE
  5
45A
100
AcDbEntity
  8
DRAFT
100
AcDbLine
 62
7
  6
CONTINUOUS
 10
226.3692307091
 20
105.7533965737
 11
226.3517756441
 21
106.0213457661
  0
LINE
  5
45B
100
AcDbEntity
  8
DRAFT
100
AcDbLine
 62
7
  6
CONTINUOUS
 10
225.6797556444
 20
128.5591679396
 11
225.7408483716
 21
127.6213457661
  0
LINE
  5
45C
100
AcDbEntity
  8
DRAFT
100
AcDbLine
 62
7
  6
CONTINUOUS
 10
226.3692307091
 20
72.6533965737
 11
226.3823230048
 21
71.4442398744
  0
LINE
  5
45D
100
AcDbEntity
  8
DRAFT
100
AcDbLine
 62
7
  6
CONTINUOUS
 10
226.3692307091
 20
96.6984516579
 11
226.3823230048
 21
95.4892949586
  0
LINE
  5
45E
100
AcDbEntity
  8
DRAFT
100
AcDbLine
 62
7
  6
CONTINUOUS
 10
226.3692307091
 20
105.7533965737
 11
226.3823230048
 21
104.5442398744
  0
LINE
  5
45F
100
AcDbEntity
  8
DRAFT
100
AcDbLine
 62
7
  6
CONTINUOUS
 10
226.3692307091
 20
129.7984516579
 11
226.3823230048
 21
128.5892949586
  0
LINE
  5
460
100
AcDbEntity
  8
DRAFT
100
AcDbLine
 62
7
  6
CONTINUOUS
 10
225.6797556444
 20
130.0995285967
 11
225.6797556444
 21
128.5591679396
  0
LINE
  5
461
100
AcDbEntity
  8
DRAFT
100
AcDbLine
 62
7
  6
CONTINUOUS
 10
225.6797556444
 20
105.7835235926
 11
225.6797556444
 21
104.2431629356
  0
LINE
  5
462
100
AcDbEntity
  8
DRAFT
100
AcDbLine
 62
7
  6
CONTINUOUS
 10
225.6797556444
 20
96.9995285967
 11
225.6797556444
 21
95.4591679396
  0
LINE
  5
463
100
AcDbEntity
  8
DRAFT
100
AcDbLine
 62
7
  6
CONTINUOUS
 10
225.6797556444
 20
72.6835235926
 11
225.6797556444
 21
71.1431629356
  0
LINE
  5
464
100
AcDbEntity
  8
DRAFT
100
AcDbLine
 62
7
  6
CONTINUOUS
 10
225.7408483716
 20
127.6213457661
 11
225.7408483716
 21
106.7213457661
  0
LINE
  5
465
100
AcDbEntity
  8
DRAFT
100
AcDbLine
 62
7
  6
CONTINUOUS
 10
225.7408483716
 20
94.5213457661
 11
225.7408483716
 21
73.6213457661
  0
LINE
  5
466
100
AcDbEntity
  8
DRAFT
100
AcDbLine
 62
7
  6
CONTINUOUS
 10
226.3517756441
 20
72.9213457661
 11
226.3517756441
 21
95.2213457661
  0
LINE
  5
467
100
AcDbEntity
  8
DRAFT
100
AcDbLine
 62
7
  6
CONTINUOUS
 10
226.3517756441
 20
106.0213457661
 11
226.3517756441
 21
128.3213457661
  0
LINE
  5
468
100
AcDbEntity
  8
DRAFT
100
AcDbLine
 62
7
  6
CONTINUOUS
 10
226.3823230048
 20
70.4660570439
 11
226.3823230048
 21
71.4442398744
  0
LINE
  5
469
100
AcDbEntity
  8
DRAFT
100
AcDbLine
 62
7
  6
CONTINUOUS
 10
226.3823230048
 20
72.6533965737
 11
226.3823230048
 21
95.4892949586
  0
LINE
  5
46A
100
AcDbEntity
  8
DRAFT
100
AcDbLine
 62
7
  6
CONTINUOUS
 10
226.3823230048
 20
96.6984516579
 11
226.3823230048
 21
97.7582556771
  0
LINE
  5
46B
100
AcDbEntity
  8
DRAFT
100
AcDbLine
 62
7
  6
CONTINUOUS
 10
226.3823230048
 20
103.4844358551
 11
226.3823230048
 21
104.5442398744
  0
LINE
  5
46C
100
AcDbEntity
  8
DRAFT
100
AcDbLine
 62
7
  6
CONTINUOUS
 10
226.3823230048
 20
105.7533965737
 11
226.3823230048
 21
128.5892949586
  0
LINE
  5
46D
100
AcDbEntity
  8
DRAFT
100
AcDbLine
 62
7
  6
CONTINUOUS
 10
226.3823230048
 20
129.7984516579
 11
226.3823230048
 21
130.7766344884
  0
LINE
  5
46E
100
AcDbEntity
  8
DRAFT
100
AcDbLine
 62
7
  6
CONTINUOUS
 10
226.3954133065
 20
103.4844358551
 11
226.3954133065
 21
97.7582556771
  0
LINE
  5
46F
100
AcDbEntity
  8
DRAFT
100
AcDbLine
 62
7
  6
CONTINUOUS
 10
225.7408483716
 20
106.7213457661
 11
225.6797556444
 21
105.7835235926
  0
LINE
  5
470
100
AcDbEntity
  8
DRAFT
100
AcDbLine
 62
7
  6
CONTINUOUS
 10
226.3517756441
 20
95.2213457661
 11
226.3692307091
 21
95.4892949586
  0
LINE
  5
471
100
AcDbEntity
  8
DRAFT
100
AcDbLine
 62
7
  6
CONTINUOUS
 10
225.7408483716
 20
73.6213457661
 11
225.6797556444
 21
72.6835235926
  0
LWPOLYLINE
  5
472
100
AcDbEntity
  8
RACCORDO
100
AcDbPolyline
 62
250
  6
CONTINUOUS
 90
16
 70
0
 10
237.5024262798
 20
171.229272499
 10
237.4937694679
 20
171.387823884
 10
237.4695149174
 20
171.5416720794
 10
237.4296626285
 20
171.6908170851
 10
237.3734342912
 20
171.836903341
 10
237.3016082155
 20
171.9782864071
 10
237.2165193307
 20
172.110032964
 10
237.1177134361
 20
172.2317154502
 10
237.0056447325
 20
172.343761427
 10
236.8840107518
 20
172.4425202593
 10
236.7524658966
 20
172.5275300021
 10
236.6113557644
 20
172.5992526002
 10
236.46541468
 20
172.6554232531
 10
236.3162207519
 20
172.6952870272
 10
236.1621958716
 20
172.719598856
 10
236.0033400393
 20
172.7283587395
  0
LINE
  5
473
100
AcDbEntity
  8
RACCORDO
100
AcDbLine
 62
250
  6
CONTINUOUS
 10
236.0033400393
 20
28.5143327928
 11
236.0033400123
 21
27.0152465523
  0
LINE
  5
474
100
AcDbEntity
  8
RACCORDO
100
AcDbLine
 62
250
  6
CONTINUOUS
 10
236.0033400393
 20
172.7283587395
 11
236.0033400393
 21
174.22744498
  0
LINE
  5
475
100
AcDbEntity
  8
DRAFT
100
AcDbLine
 62
7
  6
CONTINUOUS
 10
237.0507020287
 20
70.7744803901
 11
237.0507020287
 21
80.1682111422
  0
LINE
  5
476
100
AcDbEntity
  8
DRAFT
100
AcDbLine
 62
7
  6
CONTINUOUS
 10
237.0507020287
 20
81.0744803901
 11
237.0507020287
 21
120.1682111422
  0
LINE
  5
477
100
AcDbEntity
  8
DRAFT
100
AcDbLine
 62
7
  6
CONTINUOUS
 10
237.0507020287
 20
121.0744803901
 11
237.0507020287
 21
130.4682111422
  0
LINE
  5
478
100
AcDbEntity
  8
DRAFT
100
AcDbLine
 62
7
  6
CONTINUOUS
 10
237.2514199879
 20
130.5219933573
 11
237.2514199879
 21
121.020698175
  0
LINE
  5
479
100
AcDbEntity
  8
DRAFT
100
AcDbLine
 62
7
  6
CONTINUOUS
 10
237.2514199879
 20
120.2219933573
 11
237.2514199879
 21
115.1213457661
  0
LINE
  5
47A
100
AcDbEntity
  8
DRAFT
100
AcDbLine
 62
7
  6
CONTINUOUS
 10
237.2514199879
 20
70.720698175
 11
237.2514199879
 21
80.2219933573
  0
LINE
  5
47B
100
AcDbEntity
  8
DRAFT
100
AcDbLine
 62
7
  6
CONTINUOUS
 10
237.2514199879
 20
81.020698175
 11
237.2514199879
 21
86.1213457661
  0
LINE
  5
47C
100
AcDbEntity
  8
DRAFT
100
AcDbLine
 62
250
  6
CONTINUOUS
 10
237.5024262798
 20
30.0134190333
 11
237.5024262798
 21
70.1213457661
  0
LINE
  5
47D
100
AcDbEntity
  8
DRAFT
100
AcDbLine
 62
250
  6
CONTINUOUS
 10
237.5024262798
 20
131.1213457661
 11
237.5024262798
 21
171.229272499
  0
LINE
  5
47E
100
AcDbEntity
  8
DRAFT
100
AcDbLine
 62
7
  6
CONTINUOUS
 10
237.5514199879
 20
130.602378115
 11
237.5514199879
 21
120.9403134173
  0
LINE
  5
47F
100
AcDbEntity
  8
DRAFT
100
AcDbLine
 62
7
  6
CONTINUOUS
 10
237.5514199879
 20
120.302378115
 11
237.5514199879
 21
115.1213457661
  0
LINE
  5
480
100
AcDbEntity
  8
DRAFT
100
AcDbLine
 62
7
  6
CONTINUOUS
 10
237.5514199879
 20
86.1213457661
 11
237.5514199879
 21
80.9403134173
  0
LINE
  5
481
100
AcDbEntity
  8
DRAFT
100
AcDbLine
 62
7
  6
CONTINUOUS
 10
237.5514199879
 20
80.302378115
 11
237.5514199879
 21
70.6403134173
  0
LINE
  5
482
100
AcDbEntity
  8
DRAFT
100
AcDbLine
 62
7
  6
CONTINUOUS
 10
237.6507020287
 20
70.4660570439
 11
237.6507020287
 21
70.6137108746
  0
LINE
  5
483
100
AcDbEntity
  8
DRAFT
100
AcDbLine
 62
7
  6
CONTINUOUS
 10
237.6507020287
 20
80.3289806576
 11
237.6507020287
 21
80.9137108746
  0
LINE
  5
484
100
AcDbEntity
  8
DRAFT
100
AcDbLine
 62
7
  6
CONTINUOUS
 10
237.6507020287
 20
120.3289806576
 11
237.6507020287
 21
120.9137108746
  0
LINE
  5
485
100
AcDbEntity
  8
DRAFT
100
AcDbLine
 62
7
  6
CONTINUOUS
 10
237.6507020287
 20
130.6289806576
 11
237.6507020287
 21
130.7766344884
  0
LINE
  5
486
100
AcDbEntity
  8
DRAFT
100
AcDbLine
 62
7
  6
CONTINUOUS
 10
237.6953046362
 20
70.601759642
 11
237.6953046362
 21
80.3409318903
  0
LINE
  5
487
100
AcDbEntity
  8
DRAFT
100
AcDbLine
 62
7
  6
CONTINUOUS
 10
237.6953046362
 20
80.901759642
 11
237.6953046362
 21
89.1213457661
  0
LINE
  5
488
100
AcDbEntity
  8
DRAFT
100
AcDbLine
 62
7
  6
CONTINUOUS
 10
237.6953046362
 20
112.1213457661
 11
237.6953046362
 21
120.3409318903
  0
LINE
  5
489
100
AcDbEntity
  8
DRAFT
100
AcDbLine
 62
7
  6
CONTINUOUS
 10
237.6953046362
 20
120.901759642
 11
237.6953046362
 21
130.6409318903
  0
LINE
  5
48A
100
AcDbEntity
  8
DRAFT
100
AcDbLine
 62
7
  6
CONTINUOUS
 10
237.9946883269
 20
70.1220707457
 11
237.9946883269
 21
70.5215400238
  0
LINE
  5
48B
100
AcDbEntity
  8
DRAFT
100
AcDbLine
 62
7
  6
CONTINUOUS
 10
237.9946883269
 20
80.4211515084
 11
237.9946883269
 21
80.8215400238
  0
LINE
  5
48C
100
AcDbEntity
  8
DRAFT
100
AcDbLine
 62
7
  6
CONTINUOUS
 10
237.9946883269
 20
89.1213457661
 11
237.9946883269
 21
112.1213457661
  0
LINE
  5
48D
100
AcDbEntity
  8
DRAFT
100
AcDbLine
 62
7
  6
CONTINUOUS
 10
237.9946883269
 20
120.4211515084
 11
237.9946883269
 21
120.8215400238
  0
LINE
  5
48E
100
AcDbEntity
  8
DRAFT
100
AcDbLine
 62
7
  6
CONTINUOUS
 10
237.9946883269
 20
130.7211515084
 11
237.9946883269
 21
131.1206207866
  0
LINE
  5
48F
100
AcDbEntity
  8
RACCORDO
100
AcDbLine
 62
250
  6
CONTINUOUS
 10
239.0015125203
 20
30.0134190333
 11
239.0015125203
 21
171.229272499
  0
LINE
  5
490
100
AcDbEntity
  8
RACCORDO
100
AcDbLine
 62
7
  6
CONTINUOUS
 10
241.3954133065
 20
27.6195182472
 11
241.3954133065
 21
173.6231732851
  0
LWPOLYLINE
  5
491
100
AcDbEntity
  8
RACCORDO
100
AcDbPolyline
 62
250
  6
CONTINUOUS
 90
16
 70
0
 10
239.0015125203
 20
171.229272499
 10
238.9848897601
 20
171.5428504049
 10
238.9355816671
 20
171.8529499711
 10
238.8541363479
 20
172.1561768326
 10
238.7414570998
 20
172.4492073887
 10
238.5987826867
 20
172.7288417115
 10
238.4276672641
 20
172.9920353709
 10
238.2299454014
 20
173.2359490713
 10
238.0078131458
 20
173.4578619167
 10
237.7638279639
 20
173.6552528309
 10
237.5007812576
 20
173.8259443104
 10
237.2214938609
 20
173.9681832338
 10
236.9288790929
 20
174.0805130622
 10
236.6260749257
 20
174.1617149974
 10
236.3164354618
 20
174.2108732281
 10
236.0033400393
 20
174.22744498
  0
CIRCLE
  5
492
100
AcDbEntity
  8
DRAFT
100
AcDbCircle
 62
7
  6
CONTINUOUS
 10
88.3954133065
 20
68.1213457661
 40
20.5087275325
  0
CIRCLE
  5
493
100
AcDbEntity
  8
0
100
AcDbCircle
 62
7
  6
CONTINUOUS
 10
88.3954133065
 20
68.1213457661
 40
20.1
  0
CIRCLE
  5
494
100
AcDbEntity
  8
0
100
AcDbCircle
 62
7
  6
CONTINUOUS
 10
88.3954133065
 20
68.1213457661
 40
19.6
  0
CIRCLE
  5
495
100
AcDbEntity
  8
DRAFT
100
AcDbCircle
 62
7
  6
CONTINUOUS
 10
88.3954133065
 20
68.1213457661
 40
16.5087275325
  0
CIRCLE
  5
496
100
AcDbEntity
  8
0
100
AcDbCircle
 62
7
  6
CONTINUOUS
 10
88.3954133065
 20
68.1213457661
 40
16.1
  0
CIRCLE
  5
497
100
AcDbEntity
  8
0
100
AcDbCircle
 62
7
  6
CONTINUOUS
 10
88.3954133065
 20
68.1213457661
 40
15.6
  0
CIRCLE
  5
498
100
AcDbEntity
  8
DRAFT
100
AcDbCircle
 62
7
  6
CONTINUOUS
 10
88.3954133065
 20
68.1213457661
 40
13.0087275325
  0
CIRCLE
  5
499
100
AcDbEntity
  8
0
100
AcDbCircle
 62
7
  6
CONTINUOUS
 10
88.3954133065
 20
68.1213457661
 40
12.6
  0
CIRCLE
  5
49A
100
AcDbEntity
  8
0
100
AcDbCircle
 62
7
  6
CONTINUOUS
 10
88.3954133065
 20
68.1213457661
 40
12.1
  0
CIRCLE
  5
49B
100
AcDbEntity
  8
DRAFT
100
AcDbCircle
 62
7
  6
CONTINUOUS
 10
63.3954133065
 20
40.6213457661
 40
6.75
  0
CIRCLE
  5
49C
100
AcDbEntity
  8
RACCORDO
100
AcDbCircle
 62
250
  6
CONTINUOUS
 10
63.3954133065
 20
40.6213457661
 40
6.702442976
  0
CIRCLE
  5
49D
100
AcDbEntity
  8
RACCORDO
100
AcDbCircle
 62
250
  6
CONTINUOUS
 10
63.3954133065
 20
40.6213457661
 40
6.2043324274
  0
CIRCLE
  5
49E
100
AcDbEntity
  8
DRAFT
100
AcDbCircle
 62
7
  6
CONTINUOUS
 10
63.3954133065
 20
40.6213457661
 40
5.3374886635
  0
CIRCLE
  5
49F
100
AcDbEntity
  8
DRAFT
100
AcDbCircle
 62
7
  6
CONTINUOUS
 10
63.3954133065
 20
40.6213457661
 40
5.25
  0
CIRCLE
  5
4A0
100
AcDbEntity
  8
DRAFT
100
AcDbCircle
 62
7
  6
CONTINUOUS
 10
48.3954133065
 20
53.1213457661
 40
3.0
  0
CIRCLE
  5
4A1
100
AcDbEntity
  8
DRAFT
100
AcDbCircle
 62
7
  6
CONTINUOUS
 10
48.3954133065
 20
53.1213457661
 40
2.2930698704
  0
CIRCLE
  5
4A2
100
AcDbEntity
  8
0
100
AcDbCircle
 62
7
  6
CONTINUOUS
 10
48.3954133065
 20
53.1213457661
 40
1.5
  0
CIRCLE
  5
4A3
100
AcDbEntity
  8
DRAFT
100
AcDbCircle
 62
7
  6
CONTINUOUS
 10
88.3954133065
 20
133.1213457661
 40
20.5087275325
  0
CIRCLE
  5
4A4
100
AcDbEntity
  8
0
100
AcDbCircle
 62
7
  6
CONTINUOUS
 10
88.3954133065
 20
133.1213457661
 40
20.1
  0
CIRCLE
  5
4A5
100
AcDbEntity
  8
0
100
AcDbCircle
 62
7
  6
CONTINUOUS
 10
88.3954133065
 20
133.1213457661
 40
19.6
  0
CIRCLE
  5
4A6
100
AcDbEntity
  8
DRAFT
100
AcDbCircle
 62
7
  6
CONTINUOUS
 10
88.3954133065
 20
133.1213457661
 40
16.5087275325
  0
CIRCLE
  5
4A7
100
AcDbEntity
  8
0
100
AcDbCircle
 62
7
  6
CONTINUOUS
 10
88.3954133065
 20
133.1213457661
 40
16.1
  0
CIRCLE
  5
4A8
100
AcDbEntity
  8
0
100
AcDbCircle
 62
7
  6
CONTINUOUS
 10
88.3954133065
 20
133.1213457661
 40
15.6
  0
CIRCLE
  5
4A9
100
AcDbEntity
  8
DRAFT
100
AcDbCircle
 62
7
  6
CONTINUOUS
 10
88.3954133065
 20
133.1213457661
 40
13.0087275325
  0
CIRCLE
  5
4AA
100
AcDbEntity
  8
0
100
AcDbCircle
 62
7
  6
CONTINUOUS
 10
88.3954133065
 20
133.1213457661
 40
12.6
  0
CIRCLE
  5
4AB
100
AcDbEntity
  8
0
100
AcDbCircle
 62
7
  6
CONTINUOUS
 10
88.3954133065
 20
133.1213457661
 40
12.1
  0
CIRCLE
  5
4AC
100
AcDbEntity
  8
DRAFT
100
AcDbCircle
 62
7
  6
CONTINUOUS
 10
63.3954133065
 20
160.6213457661
 40
6.75
  0
CIRCLE
  5
4AD
100
AcDbEntity
  8
RACCORDO
100
AcDbCircle
 62
250
  6
CONTINUOUS
 10
63.3954133065
 20
160.6213457661
 40
6.702442976
  0
CIRCLE
  5
4AE
100
AcDbEntity
  8
RACCORDO
100
AcDbCircle
 62
250
  6
CONTINUOUS
 10
63.3954133065
 20
160.6213457661
 40
6.2043324274
  0
CIRCLE
  5
4AF
100
AcDbEntity
  8
DRAFT
100
AcDbCircle
 62
7
  6
CONTINUOUS
 10
63.3954133065
 20
160.6213457661
 40
5.3374886635
  0
CIRCLE
  5
4B0
100
AcDbEntity
  8
DRAFT
100
AcDbCircle
 62
7
  6
CONTINUOUS
 10
63.3954133065
 20
160.6213457661
 40
5.25
  0
CIRCLE
  5
4B1
100
AcDbEntity
  8
DRAFT
100
AcDbCircle
 62
7
  6
CONTINUOUS
 10
48.3954133065
 20
148.1213457661
 40
3.0
  0
CIRCLE
  5
4B2
100
AcDbEntity
  8
DRAFT
100
AcDbCircle
 62
7
  6
CONTINUOUS
 10
48.3954133065
 20
148.1213457661
 40
2.2930698704
  0
CIRCLE
  5
4B3
100
AcDbEntity
  8
0
100
AcDbCircle
 62
7
  6
CONTINUOUS
 10
48.3954133065
 20
148.1213457661
 40
1.5
  0
CIRCLE
  5
4B4
100
AcDbEntity
  8
DRAFT
100
AcDbCircle
 62
7
  6
CONTINUOUS
 10
138.3954133065
 20
50.6213457661
 40
4.8
  0
CIRCLE
  5
4B5
100
AcDbEntity
  8
RACCORDO
100
AcDbCircle
 62
250
  6
CONTINUOUS
 10
138.3954133065
 20
50.6213457661
 40
4.7524429521
  0
CIRCLE
  5
4B6
100
AcDbEntity
  8
RACCORDO
100
AcDbCircle
 62
250
  6
CONTINUOUS
 10
138.3954133065
 20
50.6213457661
 40
4.2543307107
  0
CIRCLE
  5
4B7
100
AcDbEntity
  8
DRAFT
100
AcDbCircle
 62
7
  6
CONTINUOUS
 10
213.3954133065
 20
40.6213457661
 40
6.75
  0
CIRCLE
  5
4B8
100
AcDbEntity
  8
RACCORDO
100
AcDbCircle
 62
250
  6
CONTINUOUS
 10
213.3954133065
 20
40.6213457661
 40
6.702442976
  0
CIRCLE
  5
4B9
100
AcDbEntity
  8
RACCORDO
100
AcDbCircle
 62
250
  6
CONTINUOUS
 10
213.3954133065
 20
40.6213457661
 40
6.2043324274
  0
CIRCLE
  5
4BA
100
AcDbEntity
  8
DRAFT
100
AcDbCircle
 62
7
  6
CONTINUOUS
 10
213.3954133065
 20
40.6213457661
 40
5.3374886635
  0
CIRCLE
  5
4BB
100
AcDbEntity
  8
DRAFT
100
AcDbCircle
 62
7
  6
CONTINUOUS
 10
213.3954133065
 20
40.6213457661
 40
5.25
  0
CIRCLE
  5
4BC
100
AcDbEntity
  8
DRAFT
100
AcDbCircle
 62
7
  6
CONTINUOUS
 10
228.3954133065
 20
53.1213457661
 40
3.0
  0
CIRCLE
  5
4BD
100
AcDbEntity
  8
DRAFT
100
AcDbCircle
 62
7
  6
CONTINUOUS
 10
228.3954133065
 20
53.1213457661
 40
2.2930698704
  0
CIRCLE
  5
4BE
100
AcDbEntity
  8
0
100
AcDbCircle
 62
7
  6
CONTINUOUS
 10
228.3954133065
 20
53.1213457661
 40
1.5
  0
CIRCLE
  5
4BF
100
AcDbEntity
  8
DRAFT
100
AcDbCircle
 62
7
  6
CONTINUOUS
 10
188.3954133065
 20
68.1213457661
 40
20.5087275325
  0
CIRCLE
  5
4C0
100
AcDbEntity
  8
0
100
AcDbCircle
 62
7
  6
CONTINUOUS
 10
188.3954133065
 20
68.1213457661
 40
20.1
  0
CIRCLE
  5
4C1
100
AcDbEntity
  8
0
100
AcDbCircle
 62
7
  6
CONTINUOUS
 10
188.3954133065
 20
68.1213457661
 40
19.6
  0
CIRCLE
  5
4C2
100
AcDbEntity
  8
DRAFT
100
AcDbCircle
 62
7
  6
CONTINUOUS
 10
188.3954133065
 20
68.1213457661
 40
16.5087275325
  0
CIRCLE
  5
4C3
100
AcDbEntity
  8
0
100
AcDbCircle
 62
7
  6
CONTINUOUS
 10
188.3954133065
 20
68.1213457661
 40
16.1
  0
CIRCLE
  5
4C4
100
AcDbEntity
  8
0
100
AcDbCircle
 62
7
  6
CONTINUOUS
 10
188.3954133065
 20
68.1213457661
 40
15.6
  0
CIRCLE
  5
4C5
100
AcDbEntity
  8
DRAFT
100
AcDbCircle
 62
7
  6
CONTINUOUS
 10
188.3954133065
 20
68.1213457661
 40
13.0087275325
  0
CIRCLE
  5
4C6
100
AcDbEntity
  8
0
100
AcDbCircle
 62
7
  6
CONTINUOUS
 10
188.3954133065
 20
68.1213457661
 40
12.6
  0
CIRCLE
  5
4C7
100
AcDbEntity
  8
0
100
AcDbCircle
 62
7
  6
CONTINUOUS
 10
188.3954133065
 20
68.1213457661
 40
12.1
  0
CIRCLE
  5
4C8
100
AcDbEntity
  8
DRAFT
100
AcDbCircle
 62
7
  6
CONTINUOUS
 10
138.3954133065
 20
150.6213457661
 40
4.8
  0
CIRCLE
  5
4C9
100
AcDbEntity
  8
RACCORDO
100
AcDbCircle
 62
250
  6
CONTINUOUS
 10
138.3954133065
 20
150.6213457661
 40
4.7524429521
  0
CIRCLE
  5
4CA
100
AcDbEntity
  8
RACCORDO
100
AcDbCircle
 62
250
  6
CONTINUOUS
 10
138.3954133065
 20
150.6213457661
 40
4.2543307107
  0
CIRCLE
  5
4CB
100
AcDbEntity
  8
DRAFT
100
AcDbCircle
 62
7
  6
CONTINUOUS
 10
188.3954133065
 20
133.1213457661
 40
20.5087275325
  0
CIRCLE
  5
4CC
100
AcDbEntity
  8
0
100
AcDbCircle
 62
7
  6
CONTINUOUS
 10
188.3954133065
 20
133.1213457661
 40
20.1
  0
CIRCLE
  5
4CD
100
AcDbEntity
  8
0
100
AcDbCircle
 62
7
  6
CONTINUOUS
 10
188.3954133065
 20
133.1213457661
 40
19.6
  0
CIRCLE
  5
4CE
100
AcDbEntity
  8
DRAFT
100
AcDbCircle
 62
7
  6
CONTINUOUS
 10
188.3954133065
 20
133.1213457661
 40
16.5087275325
  0
CIRCLE
  5
4CF
100
AcDbEntity
  8
0
100
AcDbCircle
 62
7
  6
CONTINUOUS
 10
188.3954133065
 20
133.1213457661
 40
16.1
  0
CIRCLE
  5
4D0
100
AcDbEntity
  8
0
100
AcDbCircle
 62
7
  6
CONTINUOUS
 10
188.3954133065
 20
133.1213457661
 40
15.6
  0
CIRCLE
  5
4D1
100
AcDbEntity
  8
DRAFT
100
AcDbCircle
 62
7
  6
CONTINUOUS
 10
188.3954133065
 20
133.1213457661
 40
13.0087275325
  0
CIRCLE
  5
4D2
100
AcDbEntity
  8
0
100
AcDbCircle
 62
7
  6
CONTINUOUS
 10
188.3954133065
 20
133.1213457661
 40
12.6
  0
CIRCLE
  5
4D3
100
AcDbEntity
  8
0
100
AcDbCircle
 62
7
  6
CONTINUOUS
 10
188.3954133065
 20
133.1213457661
 40
12.1
  0
CIRCLE
  5
4D4
100
AcDbEntity
  8
DRAFT
100
AcDbCircle
 62
7
  6
CONTINUOUS
 10
213.3954133065
 20
160.6213457661
 40
6.75
  0
CIRCLE
  5
4D5
100
AcDbEntity
  8
RACCORDO
100
AcDbCircle
 62
250
  6
CONTINUOUS
 10
213.3954133065
 20
160.6213457661
 40
6.702442976
  0
CIRCLE
  5
4D6
100
AcDbEntity
  8
RACCORDO
100
AcDbCircle
 62
250
  6
CONTINUOUS
 10
213.3954133065
 20
160.6213457661
 40
6.2043324274
  0
CIRCLE
  5
4D7
100
AcDbEntity
  8
DRAFT
100
AcDbCircle
 62
7
  6
CONTINUOUS
 10
213.3954133065
 20
160.6213457661
 40
5.3374886635
  0
CIRCLE
  5
4D8
100
AcDbEntity
  8
DRAFT
100
AcDbCircle
 62
7
  6
CONTINUOUS
 10
213.3954133065
 20
160.6213457661
 40
5.25
  0
CIRCLE
  5
4D9
100
AcDbEntity
  8
DRAFT
100
AcDbCircle
 62
7
  6
CONTINUOUS
 10
228.3954133065
 20
148.1213457661
 40
3.0
  0
CIRCLE
  5
4DA
100
AcDbEntity
  8
DRAFT
100
AcDbCircle
 62
7
  6
CONTINUOUS
 10
228.3954133065
 20
148.1213457661
 40
2.2930698704
  0
CIRCLE
  5
4DB
100
AcDbEntity
  8
0
100
AcDbCircle
 62
7
  6
CONTINUOUS
 10
228.3954133065
 20
148.1213457661
 40
1.5
  0
ELLIPSE
  5
4DC
100
AcDbEntity
  8
RACCORDO
100
AcDbEllipse
 62
7
  6
CONTINUOUS
 10
38.3972419393
 20
27.623174399
 30
0.0
 11
2.1239056338
 21
2.1239056338
 31
0.0
 40
0.998782766
 41
-3.9263818294
 42
-2.3568034778
  0
ELLIPSE
  5
4DD
100
AcDbEntity
  8
RACCORDO
100
AcDbEllipse
 62
7
  6
CONTINUOUS
 10
238.3935846736
 20
27.623174399
 30
0.0
 11
2.1239056338
 21
-2.1239056338
 31
0.0
 40
0.998782766
 41
-0.7847891758
 42
0.7847891758
  0
ELLIPSE
  5
4DE
100
AcDbEntity
  8
RACCORDO
100
AcDbEllipse
 62
7
  6
CONTINUOUS
 10
238.3935846736
 20
173.6195171332
 30
0.0
 11
2.1239056338
 21
2.1239056338
 31
0.0
 40
0.998782766
 41
-0.7847891758
 42
0.7847891758
  0
ELLIPSE
  5
4DF
100
AcDbEntity
  8
RACCORDO
100
AcDbEllipse
 62
7
  6
CONTINUOUS
 10
38.3972419393
 20
173.6195171332
 30
0.0
 11
2.1239056338
 21
-2.1239056338
 31
0.0
 40
0.998782766
 41
2.3568034778
 42
3.9263818294
  0
ELLIPSE
  5
4E0
100
AcDbEntity
  8
DRAFT
100
AcDbEllipse
 62
7
  6
CONTINUOUS
 10
237.507785649
 20
100.6213457661
 30
0.0
 11
-0.0
 21
14.5
 31
0.0
 40
0.0087268678
 41
0.0
 42
3.0712715063
  0
ELLIPSE
  5
4E1
100
AcDbEntity
  8
DRAFT
100
AcDbEllipse
 62
7
  6
CONTINUOUS
 10
237.5601468557
 20
100.6213457661
 30
0.0
 11
0.0
 21
11.5
 31
0.0
 40
0.0087268678
 41
6.2831853072
 42
9.4247779608
  0
ELLIPSE
  5
4E2
100
AcDbEntity
  8
DRAFT
100
AcDbEllipse
 62
7
  6
CONTINUOUS
 10
237.8601468557
 20
100.6213457661
 30
0.0
 11
-0.0
 21
11.5
 31
0.0
 40
0.0087268678
 41
6.2831853072
 42
9.349457699
  0
ELLIPSE
  5
4E3
100
AcDbEntity
  8
DRAFT
100
AcDbEllipse
 62
7
  6
CONTINUOUS
 10
39.283040964
 20
100.6213457661
 30
0.0
 11
0.0
 21
14.5
 31
0.0
 40
0.0087268678
 41
3.1415926536
 42
6.2128641599
  0
ELLIPSE
  5
4E4
100
AcDbEntity
  8
DRAFT
100
AcDbEllipse
 62
7
  6
CONTINUOUS
 10
39.2306797572
 20
100.6213457661
 30
0.0
 11
-0.0
 21
11.5
 31
0.0
 40
0.0087268678
 41
3.1415926536
 42
6.2831853072
  0
ELLIPSE
  5
4E5
100
AcDbEntity
  8
DRAFT
100
AcDbEllipse
 62
7
  6
CONTINUOUS
 10
38.9306797572
 20
100.6213457661
 30
0.0
 11
-0.0
 21
11.5
 31
0.0
 40
0.0087268678
 41
3.1415926536
 42
6.2078650454
  0
ELLIPSE
  5
4E6
100
AcDbEntity
  8
DRAFT
100
AcDbEllipse
 62
7
  6
CONTINUOUS
 10
138.3954133065
 20
172.7337181086
 30
0.0
 11
14.5
 21
0.0
 31
0.0
 40
0.0087268678
 41
3.1415926536
 42
6.2128642235
  0
ELLIPSE
  5
4E7
100
AcDbEntity
  8
DRAFT
100
AcDbEllipse
 62
7
  6
CONTINUOUS
 10
138.3954133065
 20
172.7860793154
 30
0.0
 11
11.5
 21
-0.0
 31
0.0
 40
0.0087268678
 41
3.1415926536
 42
6.2831853072
  0
ELLIPSE
  5
4E8
100
AcDbEntity
  8
DRAFT
100
AcDbEllipse
 62
7
  6
CONTINUOUS
 10
138.3954133065
 20
173.0860793154
 30
0.0
 11
11.5
 21
0.0
 31
0.0
 40
0.0087268678
 41
3.1415926536
 42
6.2078652889
  0
ELLIPSE
  5
4E9
100
AcDbEntity
  8
DRAFT
100
AcDbEllipse
 62
7
  6
CONTINUOUS
 10
138.3954133065
 20
28.5089734236
 30
0.0
 11
14.5
 21
0.0
 31
0.0
 40
0.0087268678
 41
6.2831853072
 42
9.3544568921
  0
ELLIPSE
  5
4EA
100
AcDbEntity
  8
DRAFT
100
AcDbEllipse
 62
7
  6
CONTINUOUS
 10
138.3954133065
 20
28.4566122169
 30
0.0
 11
11.5
 21
0.0
 31
0.0
 40
0.0087268678
 41
6.2831853072
 42
9.4247779608
  0
ELLIPSE
  5
4EB
100
AcDbEntity
  8
DRAFT
100
AcDbEllipse
 62
7
  6
CONTINUOUS
 10
138.3954133065
 20
28.1566122169
 30
0.0
 11
11.5
 21
0.0
 31
0.0
 40
0.0087268678
 41
6.2831853072
 42
9.349457699
  0
ELLIPSE
  5
4EC
100
AcDbEntity
  8
DRAFT
100
AcDbEllipse
 62
7
  6
CONTINUOUS
 10
39.2884003331
 20
131.1082554644
 30
0.0
 11
1.5
 21
-0.0
 31
0.0
 40
0.0087268678
 41
1.5707963268
 42
1.9051669322
  0
ELLIPSE
  5
4ED
100
AcDbEntity
  8
DRAFT
100
AcDbEllipse
 62
7
  6
CONTINUOUS
 10
39.583040964
 20
100.6213457661
 30
0.0
 11
0.0
 21
14.5
 31
0.0
 40
0.0087268678
 41
3.1415926536
 42
6.2831853072
  0
ELLIPSE
  5
4EE
100
AcDbEntity
  8
DRAFT
100
AcDbEllipse
 62
7
  6
CONTINUOUS
 10
39.2884003331
 20
70.1344360678
 30
0.0
 11
1.5
 21
-0.0
 31
0.0
 40
0.0087268678
 41
-1.9051669322
 42
-1.5707963268
  0
ELLIPSE
  5
4EF
100
AcDbEntity
  8
DRAFT
100
AcDbEllipse
 62
7
  6
CONTINUOUS
 10
237.5024262798
 20
70.1344360678
 30
0.0
 11
1.5
 21
-0.0
 31
0.0
 40
0.0087268678
 41
-1.5707963268
 42
-1.2364257214
  0
ELLIPSE
  5
4F0
100
AcDbEntity
  8
DRAFT
100
AcDbEllipse
 62
7
  6
CONTINUOUS
 10
237.207785649
 20
100.6213457661
 30
0.0
 11
-0.0
 21
14.5
 31
0.0
 40
0.0087268678
 41
6.2831853072
 42
9.4247779608
  0
ELLIPSE
  5
4F1
100
AcDbEntity
  8
DRAFT
100
AcDbEllipse
 62
7
  6
CONTINUOUS
 10
237.5024262798
 20
131.1082554644
 30
0.0
 11
1.5
 21
-0.0
 31
0.0
 40
0.0087268678
 41
1.2364257214
 42
1.5707963268
  0
ELLIPSE
  5
4F2
100
AcDbEntity
  8
DRAFT
100
AcDbEllipse
 62
7
  6
CONTINUOUS
 10
138.3954133065
 20
172.4337181086
 30
0.0
 11
14.5
 21
0.0
 31
0.0
 40
0.0087268678
 41
3.1415926536
 42
6.2831853072
  0
ELLIPSE
  5
4F3
100
AcDbEntity
  8
DRAFT
100
AcDbEllipse
 62
7
  6
CONTINUOUS
 10
138.3954133065
 20
28.8089734236
 30
0.0
 11
14.5
 21
0.0
 31
0.0
 40
0.0087268678
 41
6.2831853072
 42
9.4247779761
  0
ENDSEC
  0
SECTION
  2
OBJECTS
  0
DICTIONARY
  5
C
100
AcDbDictionary
280
0
281
1
  3
ACAD_GROUP
350
D
  3
ACAD_MLINESTYLE
350
17
  3
ACAD_LAYOUT
350
1A
  3
ACAD_PLOTSETTINGS
350
19
  3
ACAD_PLOTSTYLENAME
350
E
  0
DICTIONARY
  5
D
102
{ACAD_REACTORS
330
C
102
}
100
AcDbDictionary
280
0
281
1
  0
ACDBDICTIONARYWDFLT
  5
E
102
{ACAD_REACTORS
330
C
102
}
100
AcDbDictionary
281
1
  3
Normal
350
F
100
AcDbDictionaryWithDefault
340
F
  0
DICTIONARY
  5
17
102
{ACAD_REACTORS
330
C
102
}
100
AcDbDictionary
280
0
281
1
  3
Standard
350
18
  0
DICTIONARY
  5
19
102
{ACAD_REACTORS
330
C
102
}
100
AcDbDictionary
281
1
  0
DICTIONARY
  5
1A
102
{ACAD_REACTORS
330
C
102
}
100
AcDbDictionary
281
1
  3
Model
350
4F4
  3
Layout1
350
4F5
  0
ACDBPLACEHOLDER
  5
F
102
{ACAD_REACTORS
330
E
102
}
  0
MLINESTYLE
  5
18
102
{ACAD_REACTORS
330
17
102
}
100
AcDbMlineStyle
  2
STANDARD
 70
0
  3

 62
256
 51
90.0
 52
90.0
 71
2
 49
0.5
 62
256
  6
BYLAYER
 49
-0.5
 62
256
  6
BYLAYER
  0
LAYOUT
  5
4F4
102
{ACAD_REACTORS
330
1A
102
}
100
AcDbPlotSettings
  1

  2
none_device
  4
ISO_A4_(297.00_x_210.00_MM)
  6

 40
0.0
 41
0.0
 42
0.0
 43
0.0
 44
297.0
 45
210.0
 46
0.0
 47
0.0
 48
0.0
 49
0.0
140
0.0
141
0.0
142
1.0
143
1.0
 70
1024
 72
1
 73
0
 74
0
  7

 75
0
147
1.0
148
0.0
149
0.0
100
AcDbLayout
  1
Model
 70
0
 71
0
 10
0.0
 20
0.0
 11
297.0
 21
210.0
 12
0.0
 22
0.0
 32
0.0
 14
0.0
 24
0.0
 34
0.0
 15
0.0
 25
0.0
 35
0.0
146
0.0
 13
0.0
 23
0.0
 33
0.0
 16
1.0
 26
0.0
 36
0.0
 17
0.0
 27
1.0
 37
0.0
 76
0
330
20F
345
0
346
0
  0
LAYOUT
  5
4F5
102
{ACAD_REACTORS
330
1A
102
}
100
AcDbPlotSettings
  1

  2
none_device
  4
ISO_A4_(297.00_x_210.00_MM)
  6

 40
0.0
 41
0.0
 42
0.0
 43
0.0
 44
297.0
 45
210.0
 46
0.0
 47
0.0
 48
0.0
 49
0.0
140
0.0
141
0.0
142
1.0
143
1.0
 70
0
 72
1
 73
0
 74
0
  7

 75
0
147
1.0
148
0.0
149
0.0
100
AcDbLayout
  1
Layout1
 70
0
 71
1
 10
0.0
 20
0.0
 11
297.0
 21
210.0
 12
0.0
 22
0.0
 32
0.0
 14
0.0
 24
0.0
 34
0.0
 15
0.0
 25
0.0
 35
0.0
146
0.0
 13
0.0
 23
0.0
 33
0.0
 16
1.0
 26
0.0
 36
0.0
 17
0.0
 27
1.0
 37
0.0
 76
0
330
210
345
0
346
0
  0
ENDSEC
  0
EOF
