  0
SECTION
  2
HEADER
  9
$ACADVER
  1
AC1024
  9
$DWGCODEPAGE
  3
ANSI_1252
  9
$EXTMAX
 10
297.0
 20
210.0
 30
0.0
  9
$EXTMIN
 10
0.0
 20
0.0
 30
0.0
  9
$LIMMIN
 10
0.0
 20
0.0
  9
$LIMMAX
 10
297.0
 20
210.0
  9
$VIEWCTR
 10
148.5
 20
105.0
  9
$VIEWSIZE
 40
210.0
  9
$CLAYER
  8
0
  9
$LTSCALE
 40
16.335
  9
$CELTYPE
  6
BYLAYER
  9
$DIMSCALE
 40
1.0
  9
$DIMASZ
 40
3.0
  9
$DIMEXO
 40
0.5
  9
$DIMDLI
 40
11.286
  9
$DIMEXE
 40
1.5
  9
$DIMCEN
 40
2.673
  9
$DIMLFAC
 40
1.0
  9
$DIMBLK
  1
_FILLED
  9
$DIMALT
 70
0
  9
$DIMALTF
 40
0.0393700787
  9
$DIMTXT
 40
3.0
  9
$DIMTOL
 70
1
  9
$DIMLIM
 70
0
  9
$DIMTFAC
 40
1.0
  9
$DIMTP
 40
0.01
  9
$DIMTM
 40
0.01
  9
$DIMGAP
 40
0.625
  9
$DIMDSEP
 70
44
  9
$AUNITS
 70
0
  9
$PDMODE
 70
3
  9
$PDSIZE
 40
3.0
  9
$HANDSEED
  5
551
  9
$TILEMODE
 70
1
  9
$MEASUREMENT
 70
1
  9
$INSUNITS
 70
4
  0
ENDSEC
  0
SECTION
  2
CLASSES
  0
CLASS
  1
ACDBDICTIONARYWDFLT
  2
AcDbDictionaryWithDefault
  3
AutoCAD 2000
 90
0
 91
1
280
0
281
0
  0
CLASS
  1
ACDBPLACEHOLDER
  2
AcDbPlaceHolder
  3
AutoCAD 2000
 90
0
 91
1
280
0
281
0
  0
CLASS
  1
LAYOUT
  2
AcDbLayout
  3
AutoCAD 2000
 90
0
 91
0
280
0
281
0
  0
ENDSEC
  0
SECTION
  2
TABLES
  0
TABLE
  2
VPORT
  5
8
100
AcDbSymbolTable
 70
2
  0
VPORT
  5
1F4
100
AcDbSymbolTableRecord
100
AcDbViewportTableRecord
  2
*ACTIVE
 70
0
 10
0.0
 20
0.0
 11
1.0
 21
1.0
 12
148.5
 22
105.0
 13
0.0
 23
0.0
 14
1.0
 24
1.0
 15
0.0
 25
0.0
 16
0.0
 26
0.0
 36
1.0
 17
0.0
 27
0.0
 37
0.0
 40
210.0
 41
1.4142857143
 42
50.0
 43
0.0
 44
0.0
 50
0.0
 51
0.0
 71
0
 72
100
 73
1
 74
1
 75
0
 76
0
 77
0
 78
0
  0
ENDTAB
  0
TABLE
  2
LTYPE
  5
5
100
AcDbSymbolTable
 70
6
  0
LTYPE
  5
14
100
AcDbSymbolTableRecord
100
AcDbLinetypeTableRecord
  2
BYBLOCK
 70
0
  3

 72
65
 73
0
 40
0.0
  0
LTYPE
  5
15
100
AcDbSymbolTableRecord
100
AcDbLinetypeTableRecord
  2
BYLAYER
 70
0
  3

 72
65
 73
0
 40
0.0
  0
LTYPE
  5
16
100
AcDbSymbolTableRecord
100
AcDbLinetypeTableRecord
  2
CONTINUOUS
 70
64
  3
Solid line
 72
65
 73
0
 40
0.0
  0
LTYPE
  5
1F5
100
AcDbSymbolTableRecord
100
AcDbLinetypeTableRecord
  2
CENTER
 70
64
  3
____ _ ____ _ ____ _ ____ _ ____ _ ____ _ ____
 72
65
 73
4
 40
0.6
 49
0.375
 74
0
 49
-0.075
 74
0
 49
0.075
 74
0
 49
-0.075
 74
0
  0
LTYPE
  5
1F6
100
AcDbSymbolTableRecord
100
AcDbLinetypeTableRecord
  2
HIDDEN
 70
64
  3
- - - - - - - - - - - - - - - - - - - -
 72
65
 73
2
 40
0.2
 49
0.1
 74
0
 49
-0.1
 74
0
  0
LTYPE
  5
1F7
100
AcDbSymbolTableRecord
100
AcDbLinetypeTableRecord
  2
PHANTOM
 70
64
  3
_____ _ _ _____ _ _ _____ _ _ _____
 72
65
 73
6
 40
0.8
 49
0.45
 74
0
 49
-0.05
 74
0
 49
0.1
 74
0
 49
-0.05
 74
0
 49
0.1
 74
0
 49
-0.05
 74
0
  0
LTYPE
  5
1F8
100
AcDbSymbolTableRecord
100
AcDbLinetypeTableRecord
  2
DOT
 70
64
  3
. . . . . . . . . . . . . . . . . . . .
 72
65
 73
2
 40
0.2
 49
0.1
 74
0
 49
-0.1
 74
0
  0
LTYPE
  5
1F9
100
AcDbSymbolTableRecord
100
AcDbLinetypeTableRecord
  2
DASHED
 70
64
  3
- - - - - - - - - - - - - - - - - - - -
 72
65
 73
2
 40
0.2
 49
0.1
 74
0
 49
-0.1
 74
0
  0
ENDTAB
  0
TABLE
  2
LAYER
  5
2
100
AcDbSymbolTable
 70
36
  0
LAYER
  5
10
100
AcDbSymbolTableRecord
100
AcDbLayerTableRecord
  2
0
 70
0
 62
7
  6
CONTINUOUS
370
-3
390
F
  0
LAYER
  5
1FA
100
AcDbSymbolTableRecord
100
AcDbLayerTableRecord
  2
DEFAULT_1
 70
0
 62
7
  6
CENTER
370
-3
390
F
  0
LAYER
  5
1FB
100
AcDbSymbolTableRecord
100
AcDbLayerTableRecord
  2
DEFAULT_2
 70
0
 62
7
  6
HIDDEN
370
-3
390
F
  0
LAYER
  5
1FC
100
AcDbSymbolTableRecord
100
AcDbLayerTableRecord
  2
DEFAULT_3
 70
0
 62
7
  6
PHANTOM
370
-3
390
F
  0
LAYER
  5
1FD
100
AcDbSymbolTableRecord
100
AcDbLayerTableRecord
  2
ASSI
 70
0
 62
7
  6
CONTINUOUS
370
-3
390
F
  0
LAYER
  5
1FE
100
AcDbSymbolTableRecord
100
AcDbLayerTableRecord
  2
COORDINATE
 70
0
 62
7
  6
CONTINUOUS
370
-3
390
F
  0
LAYER
  5
1FF
100
AcDbSymbolTableRecord
100
AcDbLayerTableRecord
  2
COORD_ORIGINE
 70
0
 62
7
  6
CONTINUOUS
370
-3
390
F
  0
LAYER
  5
200
100
AcDbSymbolTableRecord
100
AcDbLayerTableRecord
  2
COSMETICI
 70
0
 62
7
  6
CONTINUOUS
370
-3
390
F
  0
LAYER
  5
201
100
AcDbSymbolTableRecord
100
AcDbLayerTableRecord
  2
CURVE
 70
0
 62
7
  6
CONTINUOUS
370
-3
390
F
  0
LAYER
  5
202
100
AcDbSymbolTableRecord
100
AcDbLayerTableRecord
  2
DRAFT
 70
0
 62
7
  6
CONTINUOUS
370
-3
390
F
  0
LAYER
  5
203
100
AcDbSymbolTableRecord
100
AcDbLayerTableRecord
  2
NOTE
 70
0
 62
7
  6
CONTINUOUS
370
-3
390
F
  0
LAYER
  5
204
100
AcDbSymbolTableRecord
100
AcDbLayerTableRecord
  2
PIANI
 70
0
 62
7
  6
CONTINUOUS
370
-3
390
F
  0
LAYER
  5
205
100
AcDbSymbolTableRecord
100
AcDbLayerTableRecord
  2
PIANI_ORIGINE
 70
0
 62
7
  6
CONTINUOUS
370
-3
390
F
  0
LAYER
  5
206
100
AcDbSymbolTableRecord
100
AcDbLayerTableRecord
  2
PUNTI
 70
0
 62
7
  6
CONTINUOUS
370
-3
390
F
  0
LAYER
  5
207
100
AcDbSymbolTableRecord
100
AcDbLayerTableRecord
  2
RACCORDO
 70
0
 62
7
  6
CONTINUOUS
370
-3
390
F
  0
LAYER
  5
208
100
AcDbSymbolTableRecord
100
AcDbLayerTableRecord
  2
SIMBOLI
 70
0
 62
7
  6
CONTINUOUS
370
-3
390
F
  0
LAYER
  5
209
100
AcDbSymbolTableRecord
100
AcDbLayerTableRecord
  2
SNAPLINE
 70
0
 62
7
  6
CONTINUOUS
370
-3
390
F
  0
LAYER
  5
20A
100
AcDbSymbolTableRecord
100
AcDbLayerTableRecord
  2
SUPERFICI
 70
0
 62
7
  6
CONTINUOUS
370
-3
390
F
  0
LAYER
  5
20B
100
AcDbSymbolTableRecord
100
AcDbLayerTableRecord
  2
TRASH
 70
0
 62
7
  6
CONTINUOUS
370
-3
390
F
  0
ENDTAB
  0
TABLE
  2
STYLE
  5
3
100
AcDbSymbolTable
 70
1
  0
STYLE
  5
11
100
AcDbSymbolTableRecord
100
AcDbTextStyleTableRecord
  2
STANDARD
 70
0
 40
0.0
 41
0.8
 50
0.0
 71
0
 42
0.2
  3
txt
  4

  0
STYLE
  5
20C
100
AcDbSymbolTableRecord
100
AcDbTextStyleTableRecord
  2
TEXTSTYLE_1
 70
0
 40
0.0
 41
0.8
 50
0.0
 71
0
 42
0.2
  3
gdt
  4

  0
ENDTAB
  0
TABLE
  2
VIEW
  5
6
100
AcDbSymbolTable
 70
0
  0
ENDTAB
  0
TABLE
  2
UCS
  5
7
100
AcDbSymbolTable
 70
0
  0
ENDTAB
  0
TABLE
  2
APPID
  5
9
100
AcDbSymbolTable
 70
1
  0
APPID
  5
20D
100
AcDbSymbolTableRecord
100
AcDbRegAppTableRecord
  2
ACAD
 70
0
  0
ENDTAB
  0
TABLE
  2
BLOCK_RECORD
  5
1
100
AcDbSymbolTable
 70
0
  0
BLOCK_RECORD
  5
20E
100
AcDbSymbolTableRecord
100
AcDbBlockTableRecord
  2
*Model_Space
  0
BLOCK_RECORD
  5
20F
100
AcDbSymbolTableRecord
100
AcDbBlockTableRecord
  2
*Paper_Space
  0
BLOCK_RECORD
  5
210
100
AcDbSymbolTableRecord
100
AcDbBlockTableRecord
  2
_FILLED
  0
ENDTAB
  0
TABLE
  2
DIMSTYLE
  5
A
100
AcDbSymbolTable
 70
1
100
AcDbDimStyleTable
 71
0
  0
DIMSTYLE
105
211
100
AcDbSymbolTableRecord
100
AcDbDimStyleTableRecord
  2
STANDARD
 70
0
  3

  4

 40
1.0
 41
3.0
 42
0.5
 43
0.38
 44
1.5
 45
0.0
 46
0.0
 47
0.01
 48
0.01
140
3.0
141
0.09
142
0.0
143
25.4
144
1.0
145
0.0
146
1.0
147
0.625
 71
1.0
 72
0.0
 73
0
 74
0
 75
0
 76
0
 77
1
 78
8
 79
2
170
0
171
1
172
0
173
0
174
0
175
0
176
0
177
0
178
0
270
2
179
2
271
2
272
2
273
2
274
2
275
0
280
0
281
0
282
0
283
1
284
8
285
0
286
0
287
3
288
0
340
11
278
44
341
210
342
210
343
210
344
210
  0
ENDTAB
  0
ENDSEC
  0
SECTION
  2
BLOCKS
  0
BLOCK
  5
20
100
AcDbEntity
  8
0
100
AcDbBlockBegin
  2
*Model_Space
 70
0
 10
0.0
 20
0.0
 30
0.0
  3
*Model_Space
  1

  0
ENDBLK
  5
21
100
AcDbEntity
  8
0
100
AcDbBlockEnd
  0
BLOCK
  5
1C
100
AcDbEntity
  8
0
100
AcDbBlockBegin
  2
*Paper_Space
 70
0
 10
0.0
 20
0.0
 30
0.0
  3
*Paper_Space
  1

  0
ENDBLK
  5
1D
100
AcDbEntity
  8
0
100
AcDbBlockEnd
  0
BLOCK
  5
212
100
AcDbEntity
  8
0
100
AcDbBlockBegin
  2
_FILLED
 70
64
 10
0.0
 20
0.0
  3
_FILLED
  1

  0
SOLID
  5
213
100
AcDbEntity
  8
0
  6
BYBLOCK
 62
0
100
AcDbTrace
 10
0.0
 20
0.0
 11
-1.0
 21
0.3166666667
 12
-1.0
 22
-0.3166666667
 13
-1.0
 23
-0.3166666667
  0
ENDBLK
  5
214
100
AcDbEntity
  8
0
  6
BYBLOCK
 62
0
100
AcDbBlockEnd
  0
ENDSEC
  0
SECTION
  2
ENTITIES
  0
LWPOLYLINE
  5
215
100
AcDbEntity
  8
RACCORDO
100
AcDbPolyline
 62
250
  6
CONTINUOUS
 90
16
 70
0
 10
245.6151476677
 20
-2.5565681049
 10
245.7726449645
 20
-2.5481348656
 10
245.9256859944
 20
-2.5241401831
 10
246.0742707572
 20
-2.4845840574
 10
246.2200467745
 20
-2.4287765581
 10
246.3613665249
 20
-2.3574076155
 10
246.4932874436
 20
-2.2725470207
 10
246.6155003025
 20
-2.17358896
 10
246.7283143298
 20
-2.061139247
 10
246.8277146455
 20
-1.9390851129
 10
246.9131098057
 20
-1.8070689708
 10
246.9850912544
 20
-1.6654484076
 10
247.0414184437
 20
-1.5191834161
 10
247.0813445245
 20
-1.3699273272
 10
247.105616346
 20
-1.21602681
 10
247.1142339082
 20
-1.0574818644
  0
LWPOLYLINE
  5
216
100
AcDbEntity
  8
RACCORDO
100
AcDbPolyline
 62
250
  6
CONTINUOUS
 90
16
 70
0
 10
245.6151476677
 20
-4.0556543454
 10
245.9266409086
 20
-4.0392514123
 10
246.2351583476
 20
-3.9905029697
 10
246.5373368731
 20
-3.9098089813
 10
246.829802908
 20
-3.7979470538
 10
247.1093848421
 20
-3.6559995771
 10
247.3731196413
 20
-3.4852862896
 10
247.6182797438
 20
-3.2872763981
 10
247.8417269357
 20
-3.064187101
 10
248.0403229057
 20
-2.8190783683
 10
248.2118402144
 20
-2.5548870453
 10
248.3545959887
 20
-2.2744269858
 10
248.4670077386
 20
-1.9811129457
 10
248.5479926952
 20
-1.6783238598
 10
248.5968813485
 20
-1.3693178023
 10
248.6133201487
 20
-1.0574818644
  0
LINE
  5
217
100
AcDbEntity
  8
RACCORDO
100
AcDbLine
 62
7
  6
CONTINUOUS
 10
48.0053934159
 20
-6.4495551315
 11
248.0090484538
 21
-6.4495551315
  0
LWPOLYLINE
  5
218
100
AcDbEntity
  8
RACCORDO
100
AcDbPolyline
 62
250
  6
CONTINUOUS
 90
16
 70
0
 10
48.9002079615
 20
-1.0574818644
 10
48.9086412007
 20
-1.2149791612
 10
48.9326358832
 20
-1.3680201911
 10
48.972192009
 20
-1.5166049539
 10
49.0279995083
 20
-1.6623809712
 10
49.0993684508
 20
-1.8037007216
 10
49.1842290457
 20
-1.9356216403
 10
49.2831871064
 20
-2.0578344992
 10
49.3956368194
 20
-2.1706485265
 10
49.5176909534
 20
-2.2700488423
 10
49.6497070956
 20
-2.3554440024
 10
49.7913276587
 20
-2.4274254511
 10
49.9375926502
 20
-2.4837526404
 10
50.0868487392
 20
-2.5236787212
 10
50.2407492564
 20
-2.5479505427
 10
50.399294202
 20
-2.5565681049
  0
LWPOLYLINE
  5
219
100
AcDbEntity
  8
RACCORDO
100
AcDbPolyline
 62
250
  6
CONTINUOUS
 90
16
 70
0
 10
47.4011217209
 20
-1.0574818644
 10
47.4175246541
 20
-1.3689751053
 10
47.4662730967
 20
-1.6774925443
 10
47.5469670851
 20
-1.9796710698
 10
47.6588290125
 20
-2.2721371047
 10
47.8007764893
 20
-2.5517190388
 10
47.9714897768
 20
-2.815453838
 10
48.1694996683
 20
-3.0606139405
 10
48.3925889654
 20
-3.2840611324
 10
48.6376976981
 20
-3.4826571024
 10
48.9018890211
 20
-3.6541744111
 10
49.1823490806
 20
-3.7969301854
 10
49.4756631207
 20
-3.9093419353
 10
49.7784522066
 20
-3.9903268919
 10
50.087458264
 20
-4.0392155452
 10
50.399294202
 20
-4.0556543454
  0
LINE
  5
21A
100
AcDbEntity
  8
RACCORDO
100
AcDbLine
 62
7
  6
CONTINUOUS
 10
45.0072209348
 20
212.5522723874
 11
45.0072209348
 21
-3.4513826505
  0
LINE
  5
21B
100
AcDbEntity
  8
RACCORDO
100
AcDbLine
 62
250
  6
CONTINUOUS
 10
47.4011217209
 20
210.1583716013
 11
47.4011217209
 21
-1.0574818644
  0
LINE
  5
21C
100
AcDbEntity
  8
DRAFT
100
AcDbLine
 62
7
  6
CONTINUOUS
 10
48.4079459144
 20
135.0504448685
 11
48.4079459144
 21
134.6502506108
  0
LINE
  5
21D
100
AcDbEntity
  8
DRAFT
100
AcDbLine
 62
7
  6
CONTINUOUS
 10
48.4079459144
 20
124.7506391262
 11
48.4079459144
 21
124.3502506108
  0
LINE
  5
21E
100
AcDbEntity
  8
DRAFT
100
AcDbLine
 62
7
  6
CONTINUOUS
 10
48.4079459144
 20
116.0504448685
 11
48.4079459144
 21
93.0504448685
  0
LINE
  5
21F
100
AcDbEntity
  8
DRAFT
100
AcDbLine
 62
7
  6
CONTINUOUS
 10
48.4079459144
 20
84.7506391262
 11
48.4079459144
 21
84.3502506108
  0
LINE
  5
220
100
AcDbEntity
  8
DRAFT
100
AcDbLine
 62
7
  6
CONTINUOUS
 10
48.4079459144
 20
74.4506391262
 11
48.4079459144
 21
74.0504448685
  0
LINE
  5
221
100
AcDbEntity
  8
DRAFT
100
AcDbLine
 62
7
  6
CONTINUOUS
 10
48.4086666374
 20
140.6489991659
 11
48.4086666374
 21
136.551890571
  0
LINE
  5
222
100
AcDbEntity
  8
DRAFT
100
AcDbLine
 62
7
  6
CONTINUOUS
 10
48.4086666374
 20
72.5489991659
 11
48.4086666374
 21
68.451890571
  0
LINE
  5
223
100
AcDbEntity
  8
DRAFT
100
AcDbLine
 62
7
  6
CONTINUOUS
 10
170.1392717424
 20
4.8766274659
 11
170.4072209348
 21
4.8940825308
  0
LINE
  5
224
100
AcDbEntity
  8
DRAFT
100
AcDbLine
 62
7
  6
CONTINUOUS
 10
176.2450431083
 20
5.5661025305
 11
175.3072209348
 21
5.5050098033
  0
LINE
  5
225
100
AcDbEntity
  8
DRAFT
100
AcDbLine
 62
7
  6
CONTINUOUS
 10
170.1392717424
 20
4.8766274659
 11
168.3751701273
 21
4.8635351702
  0
LINE
  5
226
100
AcDbEntity
  8
DRAFT
100
AcDbLine
 62
7
  6
CONTINUOUS
 10
148.8892717424
 20
4.8766274659
 11
147.1251701273
 21
4.8635351702
  0
LINE
  5
227
100
AcDbEntity
  8
RACCORDO
100
AcDbLine
 62
250
  6
CONTINUOUS
 10
50.399294202
 20
-4.0556543454
 11
245.6151476677
 21
-4.0556543454
  0
LINE
  5
228
100
AcDbEntity
  8
DRAFT
100
AcDbLine
 62
7
  6
CONTINUOUS
 10
117.5072209348
 20
-3.048830152
 11
117.9074151925
 21
-3.048830152
  0
LINE
  5
229
100
AcDbEntity
  8
DRAFT
100
AcDbLine
 62
7
  6
CONTINUOUS
 10
127.8070266771
 20
-3.048830152
 11
128.2074151925
 21
-3.048830152
  0
LINE
  5
22A
100
AcDbEntity
  8
DRAFT
100
AcDbLine
 62
7
  6
CONTINUOUS
 10
136.5072209348
 20
-3.048830152
 11
159.5072209348
 21
-3.048830152
  0
LINE
  5
22B
100
AcDbEntity
  8
DRAFT
100
AcDbLine
 62
7
  6
CONTINUOUS
 10
167.8070266771
 20
-3.048830152
 11
168.2074151925
 21
-3.048830152
  0
LINE
  5
22C
100
AcDbEntity
  8
DRAFT
100
AcDbLine
 62
7
  6
CONTINUOUS
 10
178.1070266771
 20
-3.048830152
 11
178.5072209348
 21
-3.048830152
  0
LINE
  5
22D
100
AcDbEntity
  8
DRAFT
100
AcDbLine
 62
7
  6
CONTINUOUS
 10
117.9876348107
 20
-2.7494464613
 11
127.726807059
 21
-2.7494464613
  0
LINE
  5
22E
100
AcDbEntity
  8
DRAFT
100
AcDbLine
 62
7
  6
CONTINUOUS
 10
128.2876348107
 20
-2.7494464613
 11
136.5072209348
 21
-2.7494464613
  0
LINE
  5
22F
100
AcDbEntity
  8
DRAFT
100
AcDbLine
 62
7
  6
CONTINUOUS
 10
159.5072209348
 20
-2.7494464613
 11
167.726807059
 21
-2.7494464613
  0
LINE
  5
230
100
AcDbEntity
  8
DRAFT
100
AcDbLine
 62
7
  6
CONTINUOUS
 10
168.2876348107
 20
-2.7494464613
 11
178.026807059
 21
-2.7494464613
  0
LINE
  5
231
100
AcDbEntity
  8
DRAFT
100
AcDbLine
 62
7
  6
CONTINUOUS
 10
117.5072209348
 20
-2.7048438538
 11
117.9995860433
 21
-2.7048438538
  0
LINE
  5
232
100
AcDbEntity
  8
DRAFT
100
AcDbLine
 62
7
  6
CONTINUOUS
 10
127.7148558263
 20
-2.7048438538
 11
128.2995860433
 21
-2.7048438538
  0
LINE
  5
233
100
AcDbEntity
  8
DRAFT
100
AcDbLine
 62
7
  6
CONTINUOUS
 10
167.7148558263
 20
-2.7048438538
 11
168.2995860433
 21
-2.7048438538
  0
LINE
  5
234
100
AcDbEntity
  8
DRAFT
100
AcDbLine
 62
7
  6
CONTINUOUS
 10
178.0148558263
 20
-2.7048438538
 11
178.5072209348
 21
-2.7048438538
  0
LINE
  5
235
100
AcDbEntity
  8
DRAFT
100
AcDbLine
 62
7
  6
CONTINUOUS
 10
177.9882532837
 20
-2.605561813
 11
168.326188586
 21
-2.605561813
  0
LINE
  5
236
100
AcDbEntity
  8
DRAFT
100
AcDbLine
 62
7
  6
CONTINUOUS
 10
167.6882532837
 20
-2.605561813
 11
162.5072209348
 21
-2.605561813
  0
LINE
  5
237
100
AcDbEntity
  8
DRAFT
100
AcDbLine
 62
7
  6
CONTINUOUS
 10
133.5072209348
 20
-2.605561813
 11
128.326188586
 21
-2.605561813
  0
LINE
  5
238
100
AcDbEntity
  8
DRAFT
100
AcDbLine
 62
7
  6
CONTINUOUS
 10
127.6882532837
 20
-2.605561813
 11
118.026188586
 21
-2.605561813
  0
LINE
  5
239
100
AcDbEntity
  8
ASSI
100
AcDbLine
 62
250
  6
CONTINUOUS
 10
50.399294202
 20
-2.5565681049
 11
117.5072209348
 21
-2.5565681049
  0
LINE
  5
23A
100
AcDbEntity
  8
ASSI
100
AcDbLine
 62
250
  6
CONTINUOUS
 10
178.5072209348
 20
-2.5565681049
 11
245.6151476677
 21
-2.5565681049
  0
LINE
  5
23B
100
AcDbEntity
  8
DRAFT
100
AcDbLine
 62
7
  6
CONTINUOUS
 10
177.907868526
 20
-2.305561813
 11
168.4065733437
 21
-2.305561813
  0
LINE
  5
23C
100
AcDbEntity
  8
DRAFT
100
AcDbLine
 62
7
  6
CONTINUOUS
 10
167.607868526
 20
-2.305561813
 11
162.5072209348
 21
-2.305561813
  0
LINE
  5
23D
100
AcDbEntity
  8
DRAFT
100
AcDbLine
 62
7
  6
CONTINUOUS
 10
118.1065733437
 20
-2.305561813
 11
127.607868526
 21
-2.305561813
  0
LINE
  5
23E
100
AcDbEntity
  8
DRAFT
100
AcDbLine
 62
7
  6
CONTINUOUS
 10
128.4065733437
 20
-2.305561813
 11
133.5072209348
 21
-2.305561813
  0
LINE
  5
23F
100
AcDbEntity
  8
DRAFT
100
AcDbLine
 62
7
  6
CONTINUOUS
 10
118.1603555588
 20
-2.1048438538
 11
127.5540863109
 21
-2.1048438538
  0
LINE
  5
240
100
AcDbEntity
  8
DRAFT
100
AcDbLine
 62
7
  6
CONTINUOUS
 10
128.4603555588
 20
-2.1048438538
 11
167.5540863109
 21
-2.1048438538
  0
LINE
  5
241
100
AcDbEntity
  8
DRAFT
100
AcDbLine
 62
7
  6
CONTINUOUS
 10
168.4603555588
 20
-2.1048438538
 11
177.8540863109
 21
-2.1048438538
  0
LINE
  5
242
100
AcDbEntity
  8
RACCORDO
100
AcDbLine
 62
250
  6
CONTINUOUS
 10
48.9002079615
 20
-1.0574818644
 11
47.401121721
 21
-1.0574818637
  0
LINE
  5
243
100
AcDbEntity
  8
RACCORDO
100
AcDbLine
 62
250
  6
CONTINUOUS
 10
247.1142339082
 20
-1.0574818644
 11
248.6133201487
 21
-1.0574818644
  0
LINE
  5
244
100
AcDbEntity
  8
DRAFT
100
AcDbLine
 62
7
  6
CONTINUOUS
 10
178.5072209348
 20
4.8635351702
 11
170.1392717424
 21
4.8635351702
  0
LINE
  5
245
100
AcDbEntity
  8
DRAFT
100
AcDbLine
 62
7
  6
CONTINUOUS
 10
168.3751701273
 20
4.8635351702
 11
148.8892717424
 21
4.8635351702
  0
LINE
  5
246
100
AcDbEntity
  8
DRAFT
100
AcDbLine
 62
7
  6
CONTINUOUS
 10
147.1251701273
 20
4.8635351702
 11
127.6392717424
 21
4.8635351702
  0
LINE
  5
247
100
AcDbEntity
  8
DRAFT
100
AcDbLine
 62
7
  6
CONTINUOUS
 10
125.8751701273
 20
4.8635351702
 11
117.5072209348
 21
4.8635351702
  0
LINE
  5
248
100
AcDbEntity
  8
DRAFT
100
AcDbLine
 62
7
  6
CONTINUOUS
 10
118.8213881753
 20
4.8940825308
 11
125.6072209348
 21
4.8940825308
  0
LINE
  5
249
100
AcDbEntity
  8
DRAFT
100
AcDbLine
 62
7
  6
CONTINUOUS
 10
127.9072209348
 20
4.8940825308
 11
134.6930536944
 21
4.8940825308
  0
LINE
  5
24A
100
AcDbEntity
  8
DRAFT
100
AcDbLine
 62
7
  6
CONTINUOUS
 10
136.3213881753
 20
4.8940825308
 11
146.8572209348
 21
4.8940825308
  0
LINE
  5
24B
100
AcDbEntity
  8
DRAFT
100
AcDbLine
 62
7
  6
CONTINUOUS
 10
149.1572209348
 20
4.8940825308
 11
159.6930536944
 21
4.8940825308
  0
LINE
  5
24C
100
AcDbEntity
  8
DRAFT
100
AcDbLine
 62
7
  6
CONTINUOUS
 10
161.3213881753
 20
4.8940825308
 11
168.1072209348
 21
4.8940825308
  0
LINE
  5
24D
100
AcDbEntity
  8
DRAFT
100
AcDbLine
 62
7
  6
CONTINUOUS
 10
170.4072209348
 20
4.8940825308
 11
177.1930536944
 21
4.8940825308
  0
LINE
  5
24E
100
AcDbEntity
  8
DRAFT
100
AcDbLine
 62
7
  6
CONTINUOUS
 10
125.6072209348
 20
4.8940825308
 11
125.8751701273
 21
4.8766274659
  0
LINE
  5
24F
100
AcDbEntity
  8
DRAFT
100
AcDbLine
 62
7
  6
CONTINUOUS
 10
120.7072209348
 20
5.5050098033
 11
119.7693987613
 21
5.5661025305
  0
LINE
  5
250
100
AcDbEntity
  8
DRAFT
100
AcDbLine
 62
7
  6
CONTINUOUS
 10
48.7073296051
 20
134.5700309926
 11
48.7073296051
 21
124.8308587443
  0
LINE
  5
251
100
AcDbEntity
  8
DRAFT
100
AcDbLine
 62
7
  6
CONTINUOUS
 10
48.7073296051
 20
124.2700309926
 11
48.7073296051
 21
116.0504448685
  0
LINE
  5
252
100
AcDbEntity
  8
DRAFT
100
AcDbLine
 62
7
  6
CONTINUOUS
 10
48.7073296051
 20
93.0504448685
 11
48.7073296051
 21
84.8308587443
  0
LINE
  5
253
100
AcDbEntity
  8
DRAFT
100
AcDbLine
 62
7
  6
CONTINUOUS
 10
48.7073296051
 20
84.2700309926
 11
48.7073296051
 21
74.5308587443
  0
LINE
  5
254
100
AcDbEntity
  8
DRAFT
100
AcDbLine
 62
7
  6
CONTINUOUS
 10
48.7519322126
 20
135.0504448685
 11
48.7519322126
 21
134.55807976
  0
LINE
  5
255
100
AcDbEntity
  8
DRAFT
100
AcDbLine
 62
7
  6
CONTINUOUS
 10
48.7519322126
 20
124.842809977
 11
48.7519322126
 21
124.25807976
  0
LINE
  5
256
100
AcDbEntity
  8
DRAFT
100
AcDbLine
 62
7
  6
CONTINUOUS
 10
48.7519322126
 20
84.842809977
 11
48.7519322126
 21
84.25807976
  0
LINE
  5
257
100
AcDbEntity
  8
DRAFT
100
AcDbLine
 62
7
  6
CONTINUOUS
 10
48.7519322126
 20
74.542809977
 11
48.7519322126
 21
74.0504448685
  0
LINE
  5
258
100
AcDbEntity
  8
DRAFT
100
AcDbLine
 62
7
  6
CONTINUOUS
 10
48.8512142534
 20
74.5694125196
 11
48.8512142534
 21
84.2314772173
  0
LINE
  5
259
100
AcDbEntity
  8
DRAFT
100
AcDbLine
 62
7
  6
CONTINUOUS
 10
48.8512142534
 20
84.8694125196
 11
48.8512142534
 21
90.0504448685
  0
LINE
  5
25A
100
AcDbEntity
  8
DRAFT
100
AcDbLine
 62
7
  6
CONTINUOUS
 10
48.8512142534
 20
119.0504448685
 11
48.8512142534
 21
124.2314772173
  0
LINE
  5
25B
100
AcDbEntity
  8
DRAFT
100
AcDbLine
 62
7
  6
CONTINUOUS
 10
48.8512142534
 20
124.8694125196
 11
48.8512142534
 21
134.5314772173
  0
LINE
  5
25C
100
AcDbEntity
  8
DRAFT
100
AcDbLine
 62
250
  6
CONTINUOUS
 10
48.9002079615
 20
210.1583716013
 11
48.9002079615
 21
140.6504448685
  0
LINE
  5
25D
100
AcDbEntity
  8
DRAFT
100
AcDbLine
 62
250
  6
CONTINUOUS
 10
48.9002079615
 20
136.5504448685
 11
48.9002079615
 21
135.0504448685
  0
LINE
  5
25E
100
AcDbEntity
  8
DRAFT
100
AcDbLine
 62
250
  6
CONTINUOUS
 10
48.9002079615
 20
74.0504448685
 11
48.9002079615
 21
72.5504448685
  0
LINE
  5
25F
100
AcDbEntity
  8
DRAFT
100
AcDbLine
 62
250
  6
CONTINUOUS
 10
48.9002079615
 20
68.4504448685
 11
48.9002079615
 21
-1.0574818644
  0
LINE
  5
260
100
AcDbEntity
  8
DRAFT
100
AcDbLine
 62
7
  6
CONTINUOUS
 10
49.0966959995
 20
139.9609698038
 11
49.0966959995
 21
137.2399199331
  0
LINE
  5
261
100
AcDbEntity
  8
DRAFT
100
AcDbLine
 62
7
  6
CONTINUOUS
 10
49.0966959995
 20
71.8609698038
 11
49.0966959995
 21
69.1399199331
  0
LINE
  5
262
100
AcDbEntity
  8
DRAFT
100
AcDbLine
 62
7
  6
CONTINUOUS
 10
49.1512142534
 20
134.4510924596
 11
49.1512142534
 21
124.9497972773
  0
LINE
  5
263
100
AcDbEntity
  8
DRAFT
100
AcDbLine
 62
7
  6
CONTINUOUS
 10
49.1512142534
 20
124.1510924596
 11
49.1512142534
 21
119.0504448685
  0
LINE
  5
264
100
AcDbEntity
  8
DRAFT
100
AcDbLine
 62
7
  6
CONTINUOUS
 10
49.1512142534
 20
74.6497972773
 11
49.1512142534
 21
84.1510924596
  0
LINE
  5
265
100
AcDbEntity
  8
DRAFT
100
AcDbLine
 62
7
  6
CONTINUOUS
 10
49.1512142534
 20
84.9497972773
 11
49.1512142534
 21
90.0504448685
  0
LINE
  5
266
100
AcDbEntity
  8
DRAFT
100
AcDbLine
 62
7
  6
CONTINUOUS
 10
49.3519322126
 20
134.3973102445
 11
49.3519322126
 21
125.0035794924
  0
LINE
  5
267
100
AcDbEntity
  8
DRAFT
100
AcDbLine
 62
7
  6
CONTINUOUS
 10
49.3519322126
 20
124.0973102445
 11
49.3519322126
 21
85.0035794924
  0
LINE
  5
268
100
AcDbEntity
  8
DRAFT
100
AcDbLine
 62
7
  6
CONTINUOUS
 10
49.3519322126
 20
84.0973102445
 11
49.3519322126
 21
74.7035794924
  0
LINE
  5
269
100
AcDbEntity
  8
RACCORDO
100
AcDbLine
 62
250
  6
CONTINUOUS
 10
50.399294202
 20
-2.5565681049
 11
50.399294202
 21
-4.0556543454
  0
LINE
  5
26A
100
AcDbEntity
  8
RACCORDO
100
AcDbLine
 62
250
  6
CONTINUOUS
 10
50.399294202
 20
211.6574578418
 11
50.3992942027
 21
213.1565440823
  0
LINE
  5
26B
100
AcDbEntity
  8
DRAFT
100
AcDbLine
 62
7
  6
CONTINUOUS
 10
48.4086666374
 20
136.551890571
 11
49.0966959995
 21
137.2399199331
  0
LINE
  5
26C
100
AcDbEntity
  8
0
100
AcDbLine
 62
7
  6
CONTINUOUS
 10
147.8197209348
 20
11.9334235909
 11
147.5697209944
 21
11.8695938113
  0
LINE
  5
26D
100
AcDbEntity
  8
0
100
AcDbLine
 62
7
  6
CONTINUOUS
 10
150.4447209348
 20
11.9334235909
 11
150.132221054
 21
11.8695938113
  0
LINE
  5
26E
100
AcDbEntity
  8
0
100
AcDbLine
 62
7
  6
CONTINUOUS
 10
147.5697209944
 20
11.5504448685
 11
147.8822208752
 21
11.6142746537
  0
LINE
  5
26F
100
AcDbEntity
  8
0
100
AcDbLine
 62
7
  6
CONTINUOUS
 10
150.132221054
 20
11.5504448685
 11
150.507221054
 21
11.6142746537
  0
LINE
  5
270
100
AcDbEntity
  8
DRAFT
100
AcDbLine
 62
7
  6
CONTINUOUS
 10
148.8892717424
 20
4.8766274659
 11
149.1572209348
 21
4.8940825308
  0
LINE
  5
271
100
AcDbEntity
  8
DRAFT
100
AcDbLine
 62
7
  6
CONTINUOUS
 10
158.7450431083
 20
5.5661025305
 11
157.8072209348
 21
5.5050098033
  0
LINE
  5
272
100
AcDbEntity
  8
DRAFT
100
AcDbLine
 62
7
  6
CONTINUOUS
 10
127.6392717424
 20
4.8766274659
 11
127.9072209348
 21
4.8940825308
  0
LINE
  5
273
100
AcDbEntity
  8
DRAFT
100
AcDbLine
 62
7
  6
CONTINUOUS
 10
133.7450431083
 20
5.5661025305
 11
132.8072209348
 21
5.5050098033
  0
LINE
  5
274
100
AcDbEntity
  8
DRAFT
100
AcDbLine
 62
7
  6
CONTINUOUS
 10
127.6392717424
 20
4.8766274659
 11
125.8751701273
 21
4.8635351702
  0
LINE
  5
275
100
AcDbEntity
  8
DRAFT
100
AcDbLine
 62
7
  6
CONTINUOUS
 10
175.3072209348
 20
5.5050098033
 11
163.2072209348
 21
5.5050098033
  0
LINE
  5
276
100
AcDbEntity
  8
DRAFT
100
AcDbLine
 62
7
  6
CONTINUOUS
 10
157.8072209348
 20
5.5050098033
 11
138.2072209348
 21
5.5050098033
  0
LINE
  5
277
100
AcDbEntity
  8
DRAFT
100
AcDbLine
 62
7
  6
CONTINUOUS
 10
132.8072209348
 20
5.5050098033
 11
120.7072209348
 21
5.5050098033
  0
LINE
  5
278
100
AcDbEntity
  8
DRAFT
100
AcDbLine
 62
7
  6
CONTINUOUS
 10
177.4854037654
 20
5.5661025305
 11
176.2450431083
 21
5.5661025305
  0
LINE
  5
279
100
AcDbEntity
  8
DRAFT
100
AcDbLine
 62
7
  6
CONTINUOUS
 10
162.2693987613
 20
5.5661025305
 11
161.0290381043
 21
5.5661025305
  0
LINE
  5
27A
100
AcDbEntity
  8
DRAFT
100
AcDbLine
 62
7
  6
CONTINUOUS
 10
159.9854037654
 20
5.5661025305
 11
158.7450431083
 21
5.5661025305
  0
LINE
  5
27B
100
AcDbEntity
  8
DRAFT
100
AcDbLine
 62
7
  6
CONTINUOUS
 10
137.2693987613
 20
5.5661025305
 11
136.0290381043
 21
5.5661025305
  0
LINE
  5
27C
100
AcDbEntity
  8
DRAFT
100
AcDbLine
 62
7
  6
CONTINUOUS
 10
134.9854037654
 20
5.5661025305
 11
133.7450431083
 21
5.5661025305
  0
LINE
  5
27D
100
AcDbEntity
  8
DRAFT
100
AcDbLine
 62
7
  6
CONTINUOUS
 10
119.7693987613
 20
5.5661025305
 11
118.5290381043
 21
5.5661025305
  0
LINE
  5
27E
100
AcDbEntity
  8
DRAFT
100
AcDbLine
 62
7
  6
CONTINUOUS
 10
178.5072209348
 20
6.4082464479
 11
177.4854037654
 21
6.4082464479
  0
LINE
  5
27F
100
AcDbEntity
  8
DRAFT
100
AcDbLine
 62
7
  6
CONTINUOUS
 10
176.2450431083
 20
6.4082464479
 11
162.2693987613
 21
6.4082464479
  0
LINE
  5
280
100
AcDbEntity
  8
DRAFT
100
AcDbLine
 62
7
  6
CONTINUOUS
 10
161.0290381043
 20
6.4082464479
 11
159.9854037654
 21
6.4082464479
  0
LINE
  5
281
100
AcDbEntity
  8
DRAFT
100
AcDbLine
 62
7
  6
CONTINUOUS
 10
158.7450431083
 20
6.4082464479
 11
137.2693987613
 21
6.4082464479
  0
LINE
  5
282
100
AcDbEntity
  8
DRAFT
100
AcDbLine
 62
7
  6
CONTINUOUS
 10
136.0290381043
 20
6.4082464479
 11
134.9854037654
 21
6.4082464479
  0
LINE
  5
283
100
AcDbEntity
  8
DRAFT
100
AcDbLine
 62
7
  6
CONTINUOUS
 10
133.7450431083
 20
6.4082464479
 11
119.7693987613
 21
6.4082464479
  0
LINE
  5
284
100
AcDbEntity
  8
DRAFT
100
AcDbLine
 62
7
  6
CONTINUOUS
 10
118.5290381043
 20
6.4082464479
 11
117.5072209348
 21
6.4082464479
  0
LINE
  5
285
100
AcDbEntity
  8
0
100
AcDbLine
 62
7
  6
CONTINUOUS
 10
80.7572209348
 20
9.3004448685
 11
215.2572209348
 21
9.3004448685
  0
LINE
  5
286
100
AcDbEntity
  8
0
100
AcDbLine
 62
7
  6
CONTINUOUS
 10
215.2572209348
 20
9.8004448685
 11
80.7572209348
 21
9.8004448685
  0
LINE
  5
287
100
AcDbEntity
  8
0
100
AcDbLine
 62
7
  6
CONTINUOUS
 10
145.3822209348
 20
11.5504448685
 11
145.7572209348
 21
11.5504448685
  0
LINE
  5
288
100
AcDbEntity
  8
0
100
AcDbLine
 62
7
  6
CONTINUOUS
 10
147.1947209944
 20
11.5504448685
 11
147.5697209944
 21
11.5504448685
  0
LINE
  5
289
100
AcDbEntity
  8
0
100
AcDbLine
 62
7
  6
CONTINUOUS
 10
147.5697209944
 20
11.8695938113
 11
147.1947209944
 21
11.8695938113
  0
LINE
  5
28A
100
AcDbEntity
  8
0
100
AcDbLine
 62
7
  6
CONTINUOUS
 10
146.6322209944
 20
12.3164023134
 11
146.257220905
 21
12.3164023134
  0
LINE
  5
28B
100
AcDbEntity
  8
0
100
AcDbLine
 62
7
  6
CONTINUOUS
 10
146.257220905
 20
12.8908704194
 11
146.6947209348
 21
12.8908704194
  0
LINE
  5
28C
100
AcDbEntity
  8
0
100
AcDbLine
 62
7
  6
CONTINUOUS
 10
147.1947209944
 20
13.1461895379
 11
147.5697209944
 21
13.1461895379
  0
LINE
  5
28D
100
AcDbEntity
  8
0
100
AcDbLine
 62
7
  6
CONTINUOUS
 10
147.5697209944
 20
13.465338436
 11
147.1947209944
 21
13.465338436
  0
LINE
  5
28E
100
AcDbEntity
  8
0
100
AcDbLine
 62
7
  6
CONTINUOUS
 10
146.5697208752
 20
14.2312959703
 11
148.3822209348
 21
14.2312959703
  0
LINE
  5
28F
100
AcDbEntity
  8
0
100
AcDbLine
 62
7
  6
CONTINUOUS
 10
148.3822209348
 20
14.5504448685
 11
146.257220905
 21
14.5504448685
  0
LINE
  5
290
100
AcDbEntity
  8
0
100
AcDbLine
 62
7
  6
CONTINUOUS
 10
145.7572209348
 20
14.5504448685
 11
145.3822209348
 21
14.5504448685
  0
LINE
  5
291
100
AcDbEntity
  8
DRAFT
100
AcDbLine
 62
7
  6
CONTINUOUS
 10
146.8572209348
 20
4.8940825308
 11
147.1251701273
 21
4.8766274659
  0
LINE
  5
292
100
AcDbEntity
  8
DRAFT
100
AcDbLine
 62
7
  6
CONTINUOUS
 10
138.2072209348
 20
5.5050098033
 11
137.2693987613
 21
5.5661025305
  0
LINE
  5
293
100
AcDbEntity
  8
DRAFT
100
AcDbLine
 62
7
  6
CONTINUOUS
 10
168.1072209348
 20
4.8940825308
 11
168.3751701273
 21
4.8766274659
  0
LINE
  5
294
100
AcDbEntity
  8
DRAFT
100
AcDbLine
 62
7
  6
CONTINUOUS
 10
163.2072209348
 20
5.5050098033
 11
162.2693987613
 21
5.5661025305
  0
LINE
  5
295
100
AcDbEntity
  8
0
100
AcDbLine
 62
7
  6
CONTINUOUS
 10
149.757221054
 20
11.6142746537
 11
150.132221054
 21
11.5504448685
  0
LINE
  5
296
100
AcDbEntity
  8
0
100
AcDbLine
 62
7
  6
CONTINUOUS
 10
146.8822209348
 20
11.6142746537
 11
147.1947209944
 21
11.5504448685
  0
LINE
  5
297
100
AcDbEntity
  8
0
100
AcDbLine
 62
7
  6
CONTINUOUS
 10
150.132221054
 20
11.8695938113
 11
149.8197208156
 21
11.9334235909
  0
LINE
  5
298
100
AcDbEntity
  8
0
100
AcDbLine
 62
7
  6
CONTINUOUS
 10
147.1947209944
 20
11.8695938113
 11
146.9447208752
 21
11.9334235909
  0
LINE
  5
299
100
AcDbEntity
  8
DRAFT
100
AcDbLine
 62
7
  6
CONTINUOUS
 10
48.4086666374
 20
72.5489991659
 11
49.0966959995
 21
71.8609698038
  0
LINE
  5
29A
100
AcDbEntity
  8
DRAFT
100
AcDbLine
 62
7
  6
CONTINUOUS
 10
60.3334035322
 20
82.4183940609
 11
60.3508585972
 21
82.1504448685
  0
LINE
  5
29B
100
AcDbEntity
  8
DRAFT
100
AcDbLine
 62
7
  6
CONTINUOUS
 10
61.0228785969
 20
76.312622695
 11
60.9617858696
 21
77.2504448685
  0
LINE
  5
29C
100
AcDbEntity
  8
DRAFT
100
AcDbLine
 62
7
  6
CONTINUOUS
 10
60.3334035322
 20
103.6683940609
 11
60.3508585972
 21
103.4004448685
  0
LINE
  5
29D
100
AcDbEntity
  8
DRAFT
100
AcDbLine
 62
7
  6
CONTINUOUS
 10
61.0228785969
 20
93.812622695
 11
60.9617858696
 21
94.7504448685
  0
LINE
  5
29E
100
AcDbEntity
  8
DRAFT
100
AcDbLine
 62
7
  6
CONTINUOUS
 10
60.3334035322
 20
124.9183940609
 11
60.3508585972
 21
124.6504448685
  0
LINE
  5
29F
100
AcDbEntity
  8
DRAFT
100
AcDbLine
 62
7
  6
CONTINUOUS
 10
61.0228785969
 20
118.812622695
 11
60.9617858696
 21
119.7504448685
  0
LINE
  5
2A0
100
AcDbEntity
  8
DRAFT
100
AcDbLine
 62
7
  6
CONTINUOUS
 10
60.3334035322
 20
82.4183940609
 11
60.3203112365
 21
84.182495676
  0
LINE
  5
2A1
100
AcDbEntity
  8
DRAFT
100
AcDbLine
 62
7
  6
CONTINUOUS
 10
60.3334035322
 20
124.9183940609
 11
60.3203112365
 21
126.682495676
  0
LINE
  5
2A2
100
AcDbEntity
  8
DRAFT
100
AcDbLine
 62
7
  6
CONTINUOUS
 10
59.6177458702
 20
69.1399199331
 11
59.6177458702
 21
71.8609698038
  0
LINE
  5
2A3
100
AcDbEntity
  8
DRAFT
100
AcDbLine
 62
7
  6
CONTINUOUS
 10
59.6177458702
 20
137.2399199331
 11
59.6177458702
 21
139.9609698038
  0
LINE
  5
2A4
100
AcDbEntity
  8
DRAFT
100
AcDbLine
 62
7
  6
CONTINUOUS
 10
60.3072209348
 20
68.4504448685
 11
60.3072209348
 21
72.5504448685
  0
LINE
  5
2A5
100
AcDbEntity
  8
DRAFT
100
AcDbLine
 62
7
  6
CONTINUOUS
 10
60.3072209348
 20
136.5504448685
 11
60.3072209348
 21
140.6504448685
  0
LINE
  5
2A6
100
AcDbEntity
  8
DRAFT
100
AcDbLine
 62
7
  6
CONTINUOUS
 10
60.3203112365
 20
74.0504448685
 11
60.3203112365
 21
82.4183940609
  0
LINE
  5
2A7
100
AcDbEntity
  8
DRAFT
100
AcDbLine
 62
7
  6
CONTINUOUS
 10
60.3203112365
 20
84.182495676
 11
60.3203112365
 21
103.6683940609
  0
LINE
  5
2A8
100
AcDbEntity
  8
DRAFT
100
AcDbLine
 62
7
  6
CONTINUOUS
 10
60.3203112365
 20
105.432495676
 11
60.3203112365
 21
124.9183940609
  0
LINE
  5
2A9
100
AcDbEntity
  8
DRAFT
100
AcDbLine
 62
7
  6
CONTINUOUS
 10
60.3203112365
 20
126.682495676
 11
60.3203112365
 21
135.0504448685
  0
LINE
  5
2AA
100
AcDbEntity
  8
DRAFT
100
AcDbLine
 62
7
  6
CONTINUOUS
 10
60.3508585972
 20
133.736277628
 11
60.3508585972
 21
126.9504448685
  0
LINE
  5
2AB
100
AcDbEntity
  8
DRAFT
100
AcDbLine
 62
7
  6
CONTINUOUS
 10
60.3508585972
 20
124.6504448685
 11
60.3508585972
 21
117.8646121089
  0
LINE
  5
2AC
100
AcDbEntity
  8
DRAFT
100
AcDbLine
 62
7
  6
CONTINUOUS
 10
60.3508585972
 20
116.236277628
 11
60.3508585972
 21
105.7004448685
  0
LINE
  5
2AD
100
AcDbEntity
  8
DRAFT
100
AcDbLine
 62
7
  6
CONTINUOUS
 10
60.3508585972
 20
103.4004448685
 11
60.3508585972
 21
92.8646121089
  0
LINE
  5
2AE
100
AcDbEntity
  8
DRAFT
100
AcDbLine
 62
7
  6
CONTINUOUS
 10
60.3508585972
 20
91.236277628
 11
60.3508585972
 21
84.4504448685
  0
LINE
  5
2AF
100
AcDbEntity
  8
DRAFT
100
AcDbLine
 62
7
  6
CONTINUOUS
 10
60.3508585972
 20
82.1504448685
 11
60.3508585972
 21
75.3646121089
  0
LINE
  5
2B0
100
AcDbEntity
  8
DRAFT
100
AcDbLine
 62
7
  6
CONTINUOUS
 10
60.9617858696
 20
77.2504448685
 11
60.9617858696
 21
89.3504448685
  0
LINE
  5
2B1
100
AcDbEntity
  8
DRAFT
100
AcDbLine
 62
7
  6
CONTINUOUS
 10
60.9617858696
 20
94.7504448685
 11
60.9617858696
 21
114.3504448685
  0
LINE
  5
2B2
100
AcDbEntity
  8
DRAFT
100
AcDbLine
 62
7
  6
CONTINUOUS
 10
60.9617858696
 20
119.7504448685
 11
60.9617858696
 21
131.8504448685
  0
LINE
  5
2B3
100
AcDbEntity
  8
DRAFT
100
AcDbLine
 62
7
  6
CONTINUOUS
 10
61.0228785969
 20
75.0722620379
 11
61.0228785969
 21
76.312622695
  0
LINE
  5
2B4
100
AcDbEntity
  8
DRAFT
100
AcDbLine
 62
7
  6
CONTINUOUS
 10
61.0228785969
 20
90.288267042
 11
61.0228785969
 21
91.528627699
  0
LINE
  5
2B5
100
AcDbEntity
  8
DRAFT
100
AcDbLine
 62
7
  6
CONTINUOUS
 10
61.0228785969
 20
92.5722620379
 11
61.0228785969
 21
93.812622695
  0
LINE
  5
2B6
100
AcDbEntity
  8
DRAFT
100
AcDbLine
 62
7
  6
CONTINUOUS
 10
61.0228785969
 20
115.288267042
 11
61.0228785969
 21
116.528627699
  0
LINE
  5
2B7
100
AcDbEntity
  8
DRAFT
100
AcDbLine
 62
7
  6
CONTINUOUS
 10
61.0228785969
 20
117.5722620379
 11
61.0228785969
 21
118.812622695
  0
LINE
  5
2B8
100
AcDbEntity
  8
DRAFT
100
AcDbLine
 62
7
  6
CONTINUOUS
 10
61.0228785969
 20
132.788267042
 11
61.0228785969
 21
134.028627699
  0
LINE
  5
2B9
100
AcDbEntity
  8
DRAFT
100
AcDbLine
 62
7
  6
CONTINUOUS
 10
62.3650225143
 20
74.0504448685
 11
62.3650225143
 21
75.0722620379
  0
LINE
  5
2BA
100
AcDbEntity
  8
DRAFT
100
AcDbLine
 62
7
  6
CONTINUOUS
 10
62.3650225143
 20
76.312622695
 11
62.3650225143
 21
90.288267042
  0
LINE
  5
2BB
100
AcDbEntity
  8
DRAFT
100
AcDbLine
 62
7
  6
CONTINUOUS
 10
62.3650225143
 20
91.528627699
 11
62.3650225143
 21
92.5722620379
  0
LINE
  5
2BC
100
AcDbEntity
  8
DRAFT
100
AcDbLine
 62
7
  6
CONTINUOUS
 10
62.3650225143
 20
93.812622695
 11
62.3650225143
 21
115.288267042
  0
LINE
  5
2BD
100
AcDbEntity
  8
DRAFT
100
AcDbLine
 62
7
  6
CONTINUOUS
 10
62.3650225143
 20
116.528627699
 11
62.3650225143
 21
117.5722620379
  0
LINE
  5
2BE
100
AcDbEntity
  8
DRAFT
100
AcDbLine
 62
7
  6
CONTINUOUS
 10
62.3650225143
 20
118.812622695
 11
62.3650225143
 21
132.788267042
  0
LINE
  5
2BF
100
AcDbEntity
  8
DRAFT
100
AcDbLine
 62
7
  6
CONTINUOUS
 10
62.3650225143
 20
134.028627699
 11
62.3650225143
 21
135.0504448685
  0
LINE
  5
2C0
100
AcDbEntity
  8
0
100
AcDbLine
 62
7
  6
CONTINUOUS
 10
68.0072209348
 20
104.0504448089
 11
68.0072209348
 21
103.7379449281
  0
LINE
  5
2C1
100
AcDbEntity
  8
0
100
AcDbLine
 62
7
  6
CONTINUOUS
 10
68.0072209348
 20
102.3004448685
 11
68.0072209348
 21
101.9254448685
  0
LINE
  5
2C2
100
AcDbEntity
  8
0
100
AcDbLine
 62
7
  6
CONTINUOUS
 10
68.326369833
 20
103.6754448089
 11
68.326369833
 21
104.1129449281
  0
LINE
  5
2C3
100
AcDbEntity
  8
DRAFT
100
AcDbLine
 62
7
  6
CONTINUOUS
 10
60.3203112365
 20
103.6683940609
 11
60.3334035322
 21
105.432495676
  0
LINE
  5
2C4
100
AcDbEntity
  8
DRAFT
100
AcDbLine
 62
7
  6
CONTINUOUS
 10
60.3508585972
 20
126.9504448685
 11
60.3334035322
 21
126.682495676
  0
LINE
  5
2C5
100
AcDbEntity
  8
DRAFT
100
AcDbLine
 62
7
  6
CONTINUOUS
 10
60.9617858696
 20
131.8504448685
 11
61.0228785969
 21
132.788267042
  0
LINE
  5
2C6
100
AcDbEntity
  8
DRAFT
100
AcDbLine
 62
7
  6
CONTINUOUS
 10
60.3508585972
 20
105.7004448685
 11
60.3334035322
 21
105.432495676
  0
LINE
  5
2C7
100
AcDbEntity
  8
DRAFT
100
AcDbLine
 62
7
  6
CONTINUOUS
 10
60.9617858696
 20
114.3504448685
 11
61.0228785969
 21
115.288267042
  0
LINE
  5
2C8
100
AcDbEntity
  8
DRAFT
100
AcDbLine
 62
7
  6
CONTINUOUS
 10
60.3508585972
 20
84.4504448685
 11
60.3334035322
 21
84.182495676
  0
LINE
  5
2C9
100
AcDbEntity
  8
DRAFT
100
AcDbLine
 62
7
  6
CONTINUOUS
 10
60.9617858696
 20
89.3504448685
 11
61.0228785969
 21
90.288267042
  0
LINE
  5
2CA
100
AcDbEntity
  8
DRAFT
100
AcDbLine
 62
7
  6
CONTINUOUS
 10
60.3072209348
 20
140.6504448685
 11
59.6177458702
 21
139.9609698038
  0
LINE
  5
2CB
100
AcDbEntity
  8
0
100
AcDbLine
 62
7
  6
CONTINUOUS
 10
146.9447208752
 20
13.0823597583
 11
147.1947209944
 21
13.1461895379
  0
LINE
  5
2CC
100
AcDbEntity
  8
0
100
AcDbLine
 62
7
  6
CONTINUOUS
 10
147.1947209944
 20
13.465338436
 11
146.8822209348
 21
13.4015086564
  0
LINE
  5
2CD
100
AcDbEntity
  8
0
100
AcDbLine
 62
7
  6
CONTINUOUS
 10
149.8197208156
 20
14.1674661907
 11
150.132221054
 21
14.2312959703
  0
LINE
  5
2CE
100
AcDbEntity
  8
0
100
AcDbLine
 62
7
  6
CONTINUOUS
 10
150.132221054
 20
14.5504448685
 11
149.757221054
 21
14.4866150888
  0
LINE
  5
2CF
100
AcDbEntity
  8
0
100
AcDbLine
 62
7
  6
CONTINUOUS
 10
72.7572209348
 20
17.3004448685
 11
73.2572209348
 21
17.3004448685
  0
LINE
  5
2D0
100
AcDbEntity
  8
0
100
AcDbLine
 62
7
  6
CONTINUOUS
 10
150.507221054
 20
14.4866150888
 11
150.132221054
 21
14.5504448685
  0
LINE
  5
2D1
100
AcDbEntity
  8
0
100
AcDbLine
 62
7
  6
CONTINUOUS
 10
147.8822208752
 20
13.4015086564
 11
147.5697209944
 21
13.465338436
  0
LINE
  5
2D2
100
AcDbEntity
  8
0
100
AcDbLine
 62
7
  6
CONTINUOUS
 10
150.132221054
 20
14.2312959703
 11
150.4447209348
 21
14.1674661907
  0
LINE
  5
2D3
100
AcDbEntity
  8
0
100
AcDbLine
 62
7
  6
CONTINUOUS
 10
147.5697209944
 20
13.1461895379
 11
147.8197209348
 21
13.0823597583
  0
LINE
  5
2D4
100
AcDbEntity
  8
0
100
AcDbLine
 62
7
  6
CONTINUOUS
 10
146.5697208752
 20
11.8057640093
 11
146.8822209348
 21
11.6142746537
  0
LINE
  5
2D5
100
AcDbEntity
  8
DRAFT
100
AcDbLine
 62
7
  6
CONTINUOUS
 10
60.3072209348
 20
68.4504448685
 11
59.6177458702
 21
69.1399199331
  0
LINE
  5
2D6
100
AcDbEntity
  8
0
100
AcDbLine
 62
7
  6
CONTINUOUS
 10
69.6029656043
 20
104.1129449281
 11
69.6029656043
 21
103.6754448089
  0
LINE
  5
2D7
100
AcDbEntity
  8
0
100
AcDbLine
 62
7
  6
CONTINUOUS
 10
69.9221145918
 20
103.7379449281
 11
69.9221145918
 21
104.0504448089
  0
LINE
  5
2D8
100
AcDbEntity
  8
0
100
AcDbLine
 62
7
  6
CONTINUOUS
 10
70.3050932696
 20
103.2379448685
 11
70.3050932696
 21
102.9254448983
  0
LINE
  5
2D9
100
AcDbEntity
  8
0
100
AcDbLine
 62
7
  6
CONTINUOUS
 10
70.688071992
 20
104.1129449281
 11
70.688071992
 21
103.7379449281
  0
LINE
  5
2DA
100
AcDbEntity
  8
0
100
AcDbLine
 62
7
  6
CONTINUOUS
 10
71.0072209348
 20
101.9254448685
 11
71.0072209348
 21
102.3004448685
  0
LINE
  5
2DB
100
AcDbEntity
  8
0
100
AcDbLine
 62
7
  6
CONTINUOUS
 10
71.0072209348
 20
103.8004448685
 11
71.0072209348
 21
104.0504448089
  0
LINE
  5
2DC
100
AcDbEntity
  8
0
100
AcDbLine
 62
7
  6
CONTINUOUS
 10
72.7572209348
 20
191.8004448685
 11
72.7572209348
 21
17.3004448685
  0
LINE
  5
2DD
100
AcDbEntity
  8
0
100
AcDbLine
 62
7
  6
CONTINUOUS
 10
73.2572209348
 20
17.3004448685
 11
73.2572209348
 21
191.8004448685
  0
LINE
  5
2DE
100
AcDbEntity
  8
0
100
AcDbLine
 62
7
  6
CONTINUOUS
 10
68.0710507145
 20
107.0504449877
 11
68.0072209348
 21
106.6754449877
  0
LINE
  5
2DF
100
AcDbEntity
  8
0
100
AcDbLine
 62
7
  6
CONTINUOUS
 10
70.9433911496
 20
106.3004449877
 11
71.0072209348
 21
106.6754449877
  0
LINE
  5
2E0
100
AcDbEntity
  8
0
100
AcDbLine
 62
7
  6
CONTINUOUS
 10
68.326369833
 20
106.6754449877
 11
68.3901996126
 21
106.9879448685
  0
LINE
  5
2E1
100
AcDbEntity
  8
0
100
AcDbLine
 62
7
  6
CONTINUOUS
 10
68.0710507145
 20
104.3629448685
 11
68.0072209348
 21
104.0504448089
  0
LINE
  5
2E2
100
AcDbEntity
  8
0
100
AcDbLine
 62
7
  6
CONTINUOUS
 10
69.8582847228
 20
103.4254448685
 11
69.9221145918
 21
103.7379449281
  0
LINE
  5
2E3
100
AcDbEntity
  8
0
100
AcDbLine
 62
7
  6
CONTINUOUS
 10
70.688071992
 20
106.6754449877
 11
70.6242422124
 21
106.3629447493
  0
LINE
  5
2E4
100
AcDbEntity
  8
0
100
AcDbLine
 62
7
  6
CONTINUOUS
 10
70.9433911496
 20
103.4879448089
 11
71.0072209348
 21
103.8004448685
  0
LINE
  5
2E5
100
AcDbEntity
  8
0
100
AcDbLine
 62
7
  6
CONTINUOUS
 10
68.326369833
 20
104.1129449281
 11
68.3901996126
 21
104.3004449281
  0
LINE
  5
2E6
100
AcDbEntity
  8
0
100
AcDbLine
 62
7
  6
CONTINUOUS
 10
69.6029656043
 20
103.6754448089
 11
69.5391358246
 21
103.4879448089
  0
LINE
  5
2E7
100
AcDbEntity
  8
0
100
AcDbLine
 62
7
  6
CONTINUOUS
 10
70.688071992
 20
103.7379449281
 11
70.6242422124
 21
103.5504449281
  0
LINE
  5
2E8
100
AcDbEntity
  8
DRAFT
100
AcDbLine
 62
7
  6
CONTINUOUS
 10
118.8213881753
 20
204.2068072061
 11
118.5072209348
 21
203.5784248687
  0
LINE
  5
2E9
100
AcDbEntity
  8
0
100
AcDbLine
 62
7
  6
CONTINUOUS
 10
68.2625400533
 20
107.3629448685
 11
68.0710507145
 21
107.0504449877
  0
LINE
  5
2EA
100
AcDbEntity
  8
0
100
AcDbLine
 62
7
  6
CONTINUOUS
 10
149.4447208156
 20
11.8057640093
 11
149.757221054
 21
11.6142746537
  0
LINE
  5
2EB
100
AcDbEntity
  8
0
100
AcDbLine
 62
7
  6
CONTINUOUS
 10
148.1947209348
 20
13.2100193175
 11
147.8822208752
 21
13.4015086564
  0
LINE
  5
2EC
100
AcDbEntity
  8
0
100
AcDbLine
 62
7
  6
CONTINUOUS
 10
150.8197209348
 20
14.29512575
 11
150.507221054
 21
14.4866150888
  0
LINE
  5
2ED
100
AcDbEntity
  8
0
100
AcDbLine
 62
7
  6
CONTINUOUS
 10
146.9447208752
 20
11.9334235909
 11
146.7572208752
 21
12.0610831502
  0
LINE
  5
2EE
100
AcDbEntity
  8
0
100
AcDbLine
 62
7
  6
CONTINUOUS
 10
147.8197209348
 20
13.0823597583
 11
148.0072209348
 21
12.954700199
  0
LINE
  5
2EF
100
AcDbEntity
  8
0
100
AcDbLine
 62
7
  6
CONTINUOUS
 10
149.8197208156
 20
11.9334235909
 11
149.6322208156
 21
12.0610831502
  0
LINE
  5
2F0
100
AcDbEntity
  8
0
100
AcDbLine
 62
7
  6
CONTINUOUS
 10
150.4447209348
 20
14.1674661907
 11
150.6322209348
 21
14.0398066315
  0
LINE
  5
2F1
100
AcDbEntity
  8
DRAFT
100
AcDbLine
 62
7
  6
CONTINUOUS
 10
118.5072209348
 20
5.5224648682
 11
118.8213881753
 21
4.8940825308
  0
LINE
  5
2F2
100
AcDbEntity
  8
0
100
AcDbLine
 62
7
  6
CONTINUOUS
 10
68.3901996126
 20
103.4879448089
 11
68.326369833
 21
103.6754448089
  0
LINE
  5
2F3
100
AcDbEntity
  8
0
100
AcDbLine
 62
7
  6
CONTINUOUS
 10
69.5391358246
 20
104.3004449281
 11
69.6029656043
 21
104.1129449281
  0
LINE
  5
2F4
100
AcDbEntity
  8
0
100
AcDbLine
 62
7
  6
CONTINUOUS
 10
70.6242422124
 20
104.3004449281
 11
70.688071992
 21
104.1129449281
  0
LINE
  5
2F5
100
AcDbEntity
  8
0
100
AcDbLine
 62
7
  6
CONTINUOUS
 10
68.0072209348
 20
103.7379449281
 11
68.0710507145
 21
103.4254448685
  0
LINE
  5
2F6
100
AcDbEntity
  8
0
100
AcDbLine
 62
7
  6
CONTINUOUS
 10
68.3901996126
 20
106.3629447493
 11
68.326369833
 21
106.6754449877
  0
LINE
  5
2F7
100
AcDbEntity
  8
0
100
AcDbLine
 62
7
  6
CONTINUOUS
 10
69.9221145918
 20
104.0504448089
 11
69.8582847228
 21
104.3629448685
  0
LINE
  5
2F8
100
AcDbEntity
  8
0
100
AcDbLine
 62
7
  6
CONTINUOUS
 10
71.0072209348
 20
104.0504448089
 11
70.9433911496
 21
104.3629448685
  0
LINE
  5
2F9
100
AcDbEntity
  8
0
100
AcDbLine
 62
7
  6
CONTINUOUS
 10
70.6242422124
 20
106.9879448685
 11
70.688071992
 21
106.6754449877
  0
LINE
  5
2FA
100
AcDbEntity
  8
0
100
AcDbLine
 62
7
  6
CONTINUOUS
 10
68.0072209348
 20
106.6754449877
 11
68.0710507145
 21
106.3004449877
  0
LINE
  5
2FB
100
AcDbEntity
  8
0
100
AcDbLine
 62
7
  6
CONTINUOUS
 10
71.0072209348
 20
106.6754449877
 11
70.9433911496
 21
107.0504449877
  0
LINE
  5
2FC
100
AcDbEntity
  8
0
100
AcDbLine
 62
7
  6
CONTINUOUS
 10
80.7572209348
 20
9.8004448685
 11
80.7572209348
 21
9.3004448685
  0
LINE
  5
2FD
100
AcDbEntity
  8
0
100
AcDbLine
 62
7
  6
CONTINUOUS
 10
68.2625400533
 20
104.6754447493
 11
68.0710507145
 21
104.3629448685
  0
LINE
  5
2FE
100
AcDbEntity
  8
0
100
AcDbLine
 62
7
  6
CONTINUOUS
 10
70.751901794
 20
105.9879447493
 11
70.9433911496
 21
106.3004449877
  0
LINE
  5
2FF
100
AcDbEntity
  8
0
100
AcDbLine
 62
7
  6
CONTINUOUS
 10
69.6667953839
 20
103.1129448089
 11
69.8582847228
 21
103.4254448685
  0
LINE
  5
300
100
AcDbEntity
  8
0
100
AcDbLine
 62
7
  6
CONTINUOUS
 10
70.751901794
 20
103.1754449281
 11
70.9433911496
 21
103.4879448089
  0
LINE
  5
301
100
AcDbEntity
  8
0
100
AcDbLine
 62
7
  6
CONTINUOUS
 10
68.3901996126
 20
106.9879448685
 11
68.5178591718
 21
107.1754448685
  0
LINE
  5
302
100
AcDbEntity
  8
0
100
AcDbLine
 62
7
  6
CONTINUOUS
 10
68.3901996126
 20
104.3004449281
 11
68.5178591718
 21
104.4879449281
  0
LINE
  5
303
100
AcDbEntity
  8
0
100
AcDbLine
 62
7
  6
CONTINUOUS
 10
70.6242422124
 20
106.3629447493
 11
70.4965826531
 21
106.1754447493
  0
LINE
  5
304
100
AcDbEntity
  8
0
100
AcDbLine
 62
7
  6
CONTINUOUS
 10
69.5391358246
 20
103.4879448089
 11
69.4114762654
 21
103.3004448089
  0
LINE
  5
305
100
AcDbEntity
  8
0
100
AcDbLine
 62
7
  6
CONTINUOUS
 10
70.6242422124
 20
103.5504449281
 11
70.4965826531
 21
103.3629449281
  0
LINE
  5
306
100
AcDbEntity
  8
DRAFT
100
AcDbLine
 62
7
  6
CONTINUOUS
 10
60.9792409346
 20
134.0504448685
 11
60.3508585972
 21
133.736277628
  0
LINE
  5
307
100
AcDbEntity
  8
DRAFT
100
AcDbLine
 62
7
  6
CONTINUOUS
 10
60.3508585972
 20
75.3646121089
 11
60.9792409346
 21
75.0504448685
  0
LINE
  5
308
100
AcDbEntity
  8
0
100
AcDbLine
 62
7
  6
CONTINUOUS
 10
149.2572208156
 20
11.9972533705
 11
149.4447208156
 21
11.8057640093
  0
LINE
  5
309
100
AcDbEntity
  8
0
100
AcDbLine
 62
7
  6
CONTINUOUS
 10
151.0072209348
 20
14.1036364111
 11
150.8197209348
 21
14.29512575
  0
LINE
  5
30A
100
AcDbEntity
  8
0
100
AcDbLine
 62
7
  6
CONTINUOUS
 10
68.5178591718
 20
103.3004448089
 11
68.3901996126
 21
103.4879448089
  0
LINE
  5
30B
100
AcDbEntity
  8
0
100
AcDbLine
 62
7
  6
CONTINUOUS
 10
69.4114762654
 20
104.4879449281
 11
69.5391358246
 21
104.3004449281
  0
LINE
  5
30C
100
AcDbEntity
  8
0
100
AcDbLine
 62
7
  6
CONTINUOUS
 10
68.5178591718
 20
106.1754447493
 11
68.3901996126
 21
106.3629447493
  0
LINE
  5
30D
100
AcDbEntity
  8
0
100
AcDbLine
 62
7
  6
CONTINUOUS
 10
69.8582847228
 20
104.3629448685
 11
69.6029656043
 21
104.7379448685
  0
LINE
  5
30E
100
AcDbEntity
  8
0
100
AcDbLine
 62
7
  6
CONTINUOUS
 10
70.4965826531
 20
104.4879449281
 11
70.6242422124
 21
104.3004449281
  0
LINE
  5
30F
100
AcDbEntity
  8
0
100
AcDbLine
 62
7
  6
CONTINUOUS
 10
70.4965826531
 20
107.1754448685
 11
70.6242422124
 21
106.9879448685
  0
LINE
  5
310
100
AcDbEntity
  8
0
100
AcDbLine
 62
7
  6
CONTINUOUS
 10
68.0710507145
 20
103.4254448685
 11
68.2625400533
 21
103.1129448089
  0
LINE
  5
311
100
AcDbEntity
  8
0
100
AcDbLine
 62
7
  6
CONTINUOUS
 10
68.0710507145
 20
106.3004449877
 11
68.2625400533
 21
105.9879447493
  0
LINE
  5
312
100
AcDbEntity
  8
0
100
AcDbLine
 62
7
  6
CONTINUOUS
 10
70.9433911496
 20
104.3629448685
 11
70.751901794
 21
104.6754447493
  0
LINE
  5
313
100
AcDbEntity
  8
0
100
AcDbLine
 62
7
  6
CONTINUOUS
 10
70.9433911496
 20
107.0504449877
 11
70.751901794
 21
107.3629448685
  0
LINE
  5
314
100
AcDbEntity
  8
DRAFT
100
AcDbLine
 62
7
  6
CONTINUOUS
 10
136.3213881753
 20
204.2068072061
 11
136.0072209348
 21
203.5784248687
  0
LINE
  5
315
100
AcDbEntity
  8
0
100
AcDbLine
 62
7
  6
CONTINUOUS
 10
68.4540293922
 20
107.5504448685
 11
68.2625400533
 21
107.3629448685
  0
LINE
  5
316
100
AcDbEntity
  8
0
100
AcDbLine
 62
7
  6
CONTINUOUS
 10
70.5604124328
 20
105.8004447493
 11
70.751901794
 21
105.9879447493
  0
LINE
  5
317
100
AcDbEntity
  8
DRAFT
100
AcDbLine
 62
7
  6
CONTINUOUS
 10
60.9792409346
 20
116.5504448685
 11
60.3508585972
 21
116.236277628
  0
LINE
  5
318
100
AcDbEntity
  8
DRAFT
100
AcDbLine
 62
7
  6
CONTINUOUS
 10
60.3508585972
 20
92.8646121089
 11
60.9792409346
 21
92.5504448685
  0
LINE
  5
319
100
AcDbEntity
  8
0
100
AcDbLine
 62
7
  6
CONTINUOUS
 10
68.0072209348
 20
101.9254448685
 11
68.4540293922
 21
101.5504448685
  0
LINE
  5
31A
100
AcDbEntity
  8
0
100
AcDbLine
 62
7
  6
CONTINUOUS
 10
68.964667808
 20
101.5504448685
 11
68.5178591718
 21
101.9254448685
  0
LINE
  5
31B
100
AcDbEntity
  8
0
100
AcDbLine
 62
7
  6
CONTINUOUS
 10
68.2625400533
 20
105.9879447493
 11
68.4540293922
 21
105.8004447493
  0
LINE
  5
31C
100
AcDbEntity
  8
0
100
AcDbLine
 62
7
  6
CONTINUOUS
 10
70.751901794
 20
107.3629448685
 11
70.5604124328
 21
107.5504448685
  0
LINE
  5
31D
100
AcDbEntity
  8
0
100
AcDbLine
 62
7
  6
CONTINUOUS
 10
146.3822209646
 20
12.0610831502
 11
146.5697208752
 21
11.8057640093
  0
LINE
  5
31E
100
AcDbEntity
  8
0
100
AcDbLine
 62
7
  6
CONTINUOUS
 10
148.3822209348
 20
12.954700199
 11
148.1947209348
 21
13.2100193175
  0
LINE
  5
31F
100
AcDbEntity
  8
0
100
AcDbLine
 62
7
  6
CONTINUOUS
 10
148.0072209348
 20
12.954700199
 11
148.1322208156
 21
12.7632108602
  0
LINE
  5
320
100
AcDbEntity
  8
0
100
AcDbLine
 62
7
  6
CONTINUOUS
 10
149.6322208156
 20
12.0610831502
 11
149.382221054
 21
12.4440618726
  0
LINE
  5
321
100
AcDbEntity
  8
DRAFT
100
AcDbLine
 62
7
  6
CONTINUOUS
 10
136.0072209348
 20
5.5224648682
 11
136.3213881753
 21
4.8940825308
  0
LINE
  5
322
100
AcDbEntity
  8
DRAFT
100
AcDbLine
 62
7
  6
CONTINUOUS
 10
127.5540863109
 20
211.2057335907
 11
127.8070266771
 21
212.1497198889
  0
LINE
  5
323
100
AcDbEntity
  8
DRAFT
100
AcDbLine
 62
7
  6
CONTINUOUS
 10
48.4086666374
 20
68.451890571
 11
49.0966959995
 21
69.1399199331
  0
LINE
  5
324
100
AcDbEntity
  8
DRAFT
100
AcDbLine
 62
7
  6
CONTINUOUS
 10
60.3072209348
 20
72.5504448685
 11
59.6177458702
 21
71.8609698038
  0
LINE
  5
325
100
AcDbEntity
  8
0
100
AcDbLine
 62
7
  6
CONTINUOUS
 10
68.5178591718
 20
104.8629447493
 11
68.2625400533
 21
104.6754447493
  0
LINE
  5
326
100
AcDbEntity
  8
0
100
AcDbLine
 62
7
  6
CONTINUOUS
 10
69.4114762654
 20
102.9254448983
 11
69.6667953839
 21
103.1129448089
  0
LINE
  5
327
100
AcDbEntity
  8
0
100
AcDbLine
 62
7
  6
CONTINUOUS
 10
70.4965826531
 20
102.9879448387
 11
70.751901794
 21
103.1754449281
  0
LINE
  5
328
100
AcDbEntity
  8
0
100
AcDbLine
 62
7
  6
CONTINUOUS
 10
68.5178591718
 20
107.1754448685
 11
68.9008380284
 21
107.4254449877
  0
LINE
  5
329
100
AcDbEntity
  8
0
100
AcDbLine
 62
7
  6
CONTINUOUS
 10
70.4965826531
 20
106.1754447493
 11
70.1136039307
 21
105.9254449877
  0
LINE
  5
32A
100
AcDbEntity
  8
0
100
AcDbLine
 62
7
  6
CONTINUOUS
 10
68.5178591718
 20
104.4879449281
 11
68.7093485107
 21
104.6129449877
  0
LINE
  5
32B
100
AcDbEntity
  8
0
100
AcDbLine
 62
7
  6
CONTINUOUS
 10
69.4114762654
 20
103.3004448089
 11
69.2199869265
 21
103.1754449281
  0
LINE
  5
32C
100
AcDbEntity
  8
0
100
AcDbLine
 62
7
  6
CONTINUOUS
 10
70.4965826531
 20
103.3629449281
 11
70.3050932696
 21
103.2379448685
  0
LINE
  5
32D
100
AcDbEntity
  8
DRAFT
100
AcDbLine
 62
7
  6
CONTINUOUS
 10
246.6625096571
 20
84.0973102445
 11
247.6064959553
 21
84.3502506108
  0
LINE
  5
32E
100
AcDbEntity
  8
DRAFT
100
AcDbLine
 62
7
  6
CONTINUOUS
 10
49.3519322126
 20
84.0973102445
 11
48.4079459144
 21
84.3502506108
  0
LINE
  5
32F
100
AcDbEntity
  8
0
100
AcDbLine
 62
7
  6
CONTINUOUS
 10
68.7093485107
 20
103.1754449281
 11
68.5178591718
 21
103.3004448089
  0
LINE
  5
330
100
AcDbEntity
  8
0
100
AcDbLine
 62
7
  6
CONTINUOUS
 10
69.2199869265
 20
104.6129449877
 11
69.4114762654
 21
104.4879449281
  0
LINE
  5
331
100
AcDbEntity
  8
0
100
AcDbLine
 62
7
  6
CONTINUOUS
 10
70.3050932696
 20
104.6129449877
 11
70.4965826531
 21
104.4879449281
  0
LINE
  5
332
100
AcDbEntity
  8
0
100
AcDbLine
 62
7
  6
CONTINUOUS
 10
68.9008380284
 20
105.9254449877
 11
68.5178591718
 21
106.1754447493
  0
LINE
  5
333
100
AcDbEntity
  8
0
100
AcDbLine
 62
7
  6
CONTINUOUS
 10
70.1136039307
 20
107.4254449877
 11
70.4965826531
 21
107.1754448685
  0
LINE
  5
334
100
AcDbEntity
  8
0
100
AcDbLine
 62
7
  6
CONTINUOUS
 10
68.2625400533
 20
103.1129448089
 11
68.5178591718
 21
102.9254448983
  0
LINE
  5
335
100
AcDbEntity
  8
0
100
AcDbLine
 62
7
  6
CONTINUOUS
 10
70.751901794
 20
104.6754447493
 11
70.4965826531
 21
104.8629447493
  0
LINE
  5
336
100
AcDbEntity
  8
DRAFT
100
AcDbLine
 62
7
  6
CONTINUOUS
 10
48.4086666374
 20
140.6489991659
 11
49.0966959995
 21
139.9609698038
  0
LINE
  5
337
100
AcDbEntity
  8
DRAFT
100
AcDbLine
 62
7
  6
CONTINUOUS
 10
60.3072209348
 20
136.5504448685
 11
59.6177458702
 21
137.2399199331
  0
LINE
  5
338
100
AcDbEntity
  8
0
100
AcDbLine
 62
7
  6
CONTINUOUS
 10
150.6322209348
 20
14.0398066315
 11
150.882221054
 21
13.6568277749
  0
LINE
  5
339
100
AcDbEntity
  8
0
100
AcDbLine
 62
7
  6
CONTINUOUS
 10
146.257220905
 20
12.3164023134
 11
146.3822209646
 21
12.0610831502
  0
LINE
  5
33A
100
AcDbEntity
  8
0
100
AcDbLine
 62
7
  6
CONTINUOUS
 10
146.7572208752
 20
12.0610831502
 11
146.6322209944
 21
12.3164023134
  0
LINE
  5
33B
100
AcDbEntity
  8
0
100
AcDbLine
 62
7
  6
CONTINUOUS
 10
149.1322209348
 20
12.2525725337
 11
149.2572208156
 21
11.9972533705
  0
LINE
  5
33C
100
AcDbEntity
  8
DRAFT
100
AcDbLine
 62
7
  6
CONTINUOUS
 10
127.5540863109
 20
-2.1048438538
 11
127.8070266771
 21
-3.048830152
  0
LINE
  5
33D
100
AcDbEntity
  8
DRAFT
100
AcDbLine
 62
7
  6
CONTINUOUS
 10
117.5072209348
 20
-3.048830152
 11
117.5072209348
 21
6.4082464479
  0
LINE
  5
33E
100
AcDbEntity
  8
DRAFT
100
AcDbLine
 62
7
  6
CONTINUOUS
 10
117.5072209348
 20
202.692643289
 11
117.5072209348
 21
212.1497198889
  0
LINE
  5
33F
100
AcDbEntity
  8
DRAFT
100
AcDbLine
 62
7
  6
CONTINUOUS
 10
118.5290381043
 20
6.4082464479
 11
118.5290381043
 21
5.5661025305
  0
LINE
  5
340
100
AcDbEntity
  8
DRAFT
100
AcDbLine
 62
7
  6
CONTINUOUS
 10
118.5290381043
 20
202.692643289
 11
118.5290381043
 21
203.5347872064
  0
LINE
  5
341
100
AcDbEntity
  8
DRAFT
100
AcDbLine
 62
7
  6
CONTINUOUS
 10
161.3213881753
 20
204.2068072061
 11
161.0072209348
 21
203.5784248687
  0
LINE
  5
342
100
AcDbEntity
  8
0
100
AcDbLine
 62
7
  6
CONTINUOUS
 10
68.7093485107
 20
107.6754451069
 11
68.4540293922
 21
107.5504448685
  0
LINE
  5
343
100
AcDbEntity
  8
0
100
AcDbLine
 62
7
  6
CONTINUOUS
 10
70.3050932696
 20
105.6754448685
 11
70.5604124328
 21
105.8004447493
  0
LINE
  5
344
100
AcDbEntity
  8
0
100
AcDbLine
 62
7
  6
CONTINUOUS
 10
68.8370082488
 20
104.9879449877
 11
68.5178591718
 21
104.8629447493
  0
LINE
  5
345
100
AcDbEntity
  8
DRAFT
100
AcDbLine
 62
7
  6
CONTINUOUS
 10
48.9002079615
 20
68.4504448685
 11
60.3072209348
 21
68.4504448685
  0
LINE
  5
346
100
AcDbEntity
  8
DRAFT
100
AcDbLine
 62
7
  6
CONTINUOUS
 10
235.7072209348
 20
68.4504448685
 11
247.1142339082
 21
68.4504448685
  0
LINE
  5
347
100
AcDbEntity
  8
DRAFT
100
AcDbLine
 62
7
  6
CONTINUOUS
 10
49.0966959995
 20
69.1399199331
 11
59.6177458702
 21
69.1399199331
  0
LINE
  5
348
100
AcDbEntity
  8
DRAFT
100
AcDbLine
 62
7
  6
CONTINUOUS
 10
236.3966959995
 20
69.1399199331
 11
246.9177458702
 21
69.1399199331
  0
LINE
  5
349
100
AcDbEntity
  8
DRAFT
100
AcDbLine
 62
7
  6
CONTINUOUS
 10
246.9177458702
 20
71.8609698038
 11
236.3966959995
 21
71.8609698038
  0
LINE
  5
34A
100
AcDbEntity
  8
DRAFT
100
AcDbLine
 62
7
  6
CONTINUOUS
 10
59.6177458702
 20
71.8609698038
 11
49.0966959995
 21
71.8609698038
  0
LINE
  5
34B
100
AcDbEntity
  8
DRAFT
100
AcDbLine
 62
7
  6
CONTINUOUS
 10
247.1142339082
 20
72.5504448685
 11
235.7072209348
 21
72.5504448685
  0
LINE
  5
34C
100
AcDbEntity
  8
DRAFT
100
AcDbLine
 62
7
  6
CONTINUOUS
 10
60.3072209348
 20
72.5504448685
 11
48.9002079615
 21
72.5504448685
  0
LINE
  5
34D
100
AcDbEntity
  8
DRAFT
100
AcDbLine
 62
7
  6
CONTINUOUS
 10
247.6064959553
 20
74.0504448685
 11
233.6494193554
 21
74.0504448685
  0
LINE
  5
34E
100
AcDbEntity
  8
DRAFT
100
AcDbLine
 62
7
  6
CONTINUOUS
 10
62.3650225143
 20
74.0504448685
 11
48.4079459144
 21
74.0504448685
  0
LINE
  5
34F
100
AcDbEntity
  8
DRAFT
100
AcDbLine
 62
7
  6
CONTINUOUS
 10
62.3650225143
 20
75.0722620379
 11
61.0228785969
 21
75.0722620379
  0
LINE
  5
350
100
AcDbEntity
  8
DRAFT
100
AcDbLine
 62
7
  6
CONTINUOUS
 10
233.6494193554
 20
75.0722620379
 11
234.9915632728
 21
75.0722620379
  0
LINE
  5
351
100
AcDbEntity
  8
0
100
AcDbLine
 62
7
  6
CONTINUOUS
 10
68.5178591718
 20
102.9254448983
 11
68.8370082488
 21
102.8004448387
  0
LINE
  5
352
100
AcDbEntity
  8
0
100
AcDbLine
 62
7
  6
CONTINUOUS
 10
68.4540293922
 20
105.8004447493
 11
68.7093485107
 21
105.6754448685
  0
LINE
  5
353
100
AcDbEntity
  8
0
100
AcDbLine
 62
7
  6
CONTINUOUS
 10
70.5604124328
 20
107.5504448685
 11
70.3050932696
 21
107.6754451069
  0
LINE
  5
354
100
AcDbEntity
  8
DRAFT
100
AcDbLine
 62
7
  6
CONTINUOUS
 10
161.0072209348
 20
5.5224648682
 11
161.3213881753
 21
4.8940825308
  0
LINE
  5
355
100
AcDbEntity
  8
0
100
AcDbLine
 62
7
  6
CONTINUOUS
 10
151.1322211733
 20
13.8483172926
 11
151.0072209348
 21
14.1036364111
  0
LINE
  5
356
100
AcDbEntity
  8
0
100
AcDbLine
 62
7
  6
CONTINUOUS
 10
148.5072208156
 20
12.6355512115
 11
148.3822209348
 21
12.954700199
  0
LINE
  5
357
100
AcDbEntity
  8
DRAFT
100
AcDbLine
 62
7
  6
CONTINUOUS
 10
119.7693987613
 20
6.4082464479
 11
119.7693987613
 21
5.5661025305
  0
LINE
  5
358
100
AcDbEntity
  8
DRAFT
100
AcDbLine
 62
7
  6
CONTINUOUS
 10
119.7693987613
 20
202.692643289
 11
119.7693987613
 21
203.5347872064
  0
LINE
  5
359
100
AcDbEntity
  8
DRAFT
100
AcDbLine
 62
7
  6
CONTINUOUS
 10
120.7072209348
 20
6.3777024106
 11
120.7072209348
 21
5.5050098033
  0
LINE
  5
35A
100
AcDbEntity
  8
DRAFT
100
AcDbLine
 62
7
  6
CONTINUOUS
 10
120.7072209348
 20
202.7231873263
 11
120.7072209348
 21
203.5958799337
  0
LINE
  5
35B
100
AcDbEntity
  8
DRAFT
100
AcDbLine
 62
7
  6
CONTINUOUS
 10
60.9792409346
 20
91.5504448685
 11
60.3508585972
 21
91.236277628
  0
LINE
  5
35C
100
AcDbEntity
  8
0
100
AcDbLine
 62
7
  6
CONTINUOUS
 10
69.0923273673
 20
102.8004448387
 11
69.4114762654
 21
102.9254448983
  0
LINE
  5
35D
100
AcDbEntity
  8
0
100
AcDbLine
 62
7
  6
CONTINUOUS
 10
68.9008380284
 20
107.7379448685
 11
68.7093485107
 21
107.6754451069
  0
LINE
  5
35E
100
AcDbEntity
  8
0
100
AcDbLine
 62
7
  6
CONTINUOUS
 10
70.1136039307
 20
105.6129447493
 11
70.3050932696
 21
105.6754448685
  0
LINE
  5
35F
100
AcDbEntity
  8
0
100
AcDbLine
 62
7
  6
CONTINUOUS
 10
68.7093485107
 20
104.6129449877
 11
68.9008380284
 21
104.6754447493
  0
LINE
  5
360
100
AcDbEntity
  8
0
100
AcDbLine
 62
7
  6
CONTINUOUS
 10
69.2199869265
 20
103.1754449281
 11
69.0284975876
 21
103.1129448089
  0
LINE
  5
361
100
AcDbEntity
  8
0
100
AcDbLine
 62
7
  6
CONTINUOUS
 10
70.3050932696
 20
102.9254448983
 11
70.4965826531
 21
102.9879448387
  0
LINE
  5
362
100
AcDbEntity
  8
DRAFT
100
AcDbLine
 62
7
  6
CONTINUOUS
 10
62.3650225143
 20
76.312622695
 11
61.0228785969
 21
76.312622695
  0
LINE
  5
363
100
AcDbEntity
  8
DRAFT
100
AcDbLine
 62
7
  6
CONTINUOUS
 10
233.6494193554
 20
76.312622695
 11
234.9915632728
 21
76.312622695
  0
LINE
  5
364
100
AcDbEntity
  8
DRAFT
100
AcDbLine
 62
7
  6
CONTINUOUS
 10
62.334478477
 20
77.2504448685
 11
60.9617858696
 21
77.2504448685
  0
LINE
  5
365
100
AcDbEntity
  8
DRAFT
100
AcDbLine
 62
7
  6
CONTINUOUS
 10
233.6799633927
 20
77.2504448685
 11
235.052656
 21
77.2504448685
  0
LINE
  5
366
100
AcDbEntity
  8
0
100
AcDbLine
 62
7
  6
CONTINUOUS
 10
68.9008380284
 20
103.1129448089
 11
68.7093485107
 21
103.1754449281
  0
LINE
  5
367
100
AcDbEntity
  8
0
100
AcDbLine
 62
7
  6
CONTINUOUS
 10
69.0284975876
 20
104.6754447493
 11
69.2199869265
 21
104.6129449877
  0
LINE
  5
368
100
AcDbEntity
  8
0
100
AcDbLine
 62
7
  6
CONTINUOUS
 10
70.1136039307
 20
104.6754447493
 11
70.3050932696
 21
104.6129449877
  0
LINE
  5
369
100
AcDbEntity
  8
0
100
AcDbLine
 62
7
  6
CONTINUOUS
 10
68.7093485107
 20
105.6754448685
 11
68.9008380284
 21
105.6129447493
  0
LINE
  5
36A
100
AcDbEntity
  8
0
100
AcDbLine
 62
7
  6
CONTINUOUS
 10
70.3050932696
 20
107.6754451069
 11
70.1136039307
 21
107.7379448685
  0
LINE
  5
36B
100
AcDbEntity
  8
0
100
AcDbLine
 62
7
  6
CONTINUOUS
 10
70.4965826531
 20
104.8629447493
 11
70.1774337103
 21
104.9879449877
  0
LINE
  5
36C
100
AcDbEntity
  8
DRAFT
100
AcDbLine
 62
7
  6
CONTINUOUS
 10
60.3508585972
 20
117.8646121089
 11
60.9792409346
 21
117.5504448685
  0
LINE
  5
36D
100
AcDbEntity
  8
0
100
AcDbLine
 62
7
  6
CONTINUOUS
 10
148.1322208156
 20
12.7632108602
 11
148.1947209348
 21
12.5717214319
  0
LINE
  5
36E
100
AcDbEntity
  8
0
100
AcDbLine
 62
7
  6
CONTINUOUS
 10
149.0697208156
 20
12.4440618726
 11
149.1322209348
 21
12.2525725337
  0
LINE
  5
36F
100
AcDbEntity
  8
0
100
AcDbLine
 62
7
  6
CONTINUOUS
 10
151.1947209348
 20
13.6568277749
 11
151.1322211733
 21
13.8483172926
  0
LINE
  5
370
100
AcDbEntity
  8
DRAFT
100
AcDbLine
 62
7
  6
CONTINUOUS
 10
132.8072209348
 20
6.3777024106
 11
132.8072209348
 21
5.5050098033
  0
LINE
  5
371
100
AcDbEntity
  8
DRAFT
100
AcDbLine
 62
7
  6
CONTINUOUS
 10
132.8072209348
 20
202.7231873263
 11
132.8072209348
 21
203.5958799337
  0
LINE
  5
372
100
AcDbEntity
  8
DRAFT
100
AcDbLine
 62
7
  6
CONTINUOUS
 10
133.5072209348
 20
-2.305561813
 11
133.5072209348
 21
-2.605561813
  0
LINE
  5
373
100
AcDbEntity
  8
DRAFT
100
AcDbLine
 62
7
  6
CONTINUOUS
 10
133.5072209348
 20
211.4064515499
 11
133.5072209348
 21
211.7064515499
  0
LINE
  5
374
100
AcDbEntity
  8
DRAFT
100
AcDbLine
 62
7
  6
CONTINUOUS
 10
133.7450431083
 20
6.4082464479
 11
133.7450431083
 21
5.5661025305
  0
LINE
  5
375
100
AcDbEntity
  8
DRAFT
100
AcDbLine
 62
7
  6
CONTINUOUS
 10
133.7450431083
 20
202.692643289
 11
133.7450431083
 21
203.5347872064
  0
LINE
  5
376
100
AcDbEntity
  8
DRAFT
100
AcDbLine
 62
7
  6
CONTINUOUS
 10
134.9854037654
 20
6.4082464479
 11
134.9854037654
 21
5.5661025305
  0
LINE
  5
377
100
AcDbEntity
  8
DRAFT
100
AcDbLine
 62
7
  6
CONTINUOUS
 10
134.9854037654
 20
202.692643289
 11
134.9854037654
 21
203.5347872064
  0
LINE
  5
378
100
AcDbEntity
  8
DRAFT
100
AcDbLine
 62
7
  6
CONTINUOUS
 10
136.0290381043
 20
6.4082464479
 11
136.0290381043
 21
5.5661025305
  0
LINE
  5
379
100
AcDbEntity
  8
DRAFT
100
AcDbLine
 62
7
  6
CONTINUOUS
 10
136.0290381043
 20
202.692643289
 11
136.0290381043
 21
203.5347872064
  0
LINE
  5
37A
100
AcDbEntity
  8
DRAFT
100
AcDbLine
 62
7
  6
CONTINUOUS
 10
136.5072209348
 20
-2.6142886808
 11
136.5072209348
 21
-3.048830152
  0
LINE
  5
37B
100
AcDbEntity
  8
DRAFT
100
AcDbLine
 62
7
  6
CONTINUOUS
 10
136.5072209348
 20
211.7151784177
 11
136.5072209348
 21
212.1497198889
  0
LINE
  5
37C
100
AcDbEntity
  8
DRAFT
100
AcDbLine
 62
7
  6
CONTINUOUS
 10
137.2693987613
 20
6.4082464479
 11
137.2693987613
 21
5.5661025305
  0
LINE
  5
37D
100
AcDbEntity
  8
DRAFT
100
AcDbLine
 62
7
  6
CONTINUOUS
 10
137.2693987613
 20
202.692643289
 11
137.2693987613
 21
203.5347872064
  0
LINE
  5
37E
100
AcDbEntity
  8
DRAFT
100
AcDbLine
 62
7
  6
CONTINUOUS
 10
138.2072209348
 20
6.3777024106
 11
138.2072209348
 21
5.5050098033
  0
LINE
  5
37F
100
AcDbEntity
  8
DRAFT
100
AcDbLine
 62
7
  6
CONTINUOUS
 10
138.2072209348
 20
202.7231873263
 11
138.2072209348
 21
203.5958799337
  0
LINE
  5
380
100
AcDbEntity
  8
DRAFT
100
AcDbLine
 62
7
  6
CONTINUOUS
 10
62.334478477
 20
89.3504448685
 11
60.9617858696
 21
89.3504448685
  0
LINE
  5
381
100
AcDbEntity
  8
DRAFT
100
AcDbLine
 62
7
  6
CONTINUOUS
 10
233.6799633927
 20
89.3504448685
 11
235.052656
 21
89.3504448685
  0
LINE
  5
382
100
AcDbEntity
  8
DRAFT
100
AcDbLine
 62
7
  6
CONTINUOUS
 10
49.1512142534
 20
90.0504448685
 11
48.8512142534
 21
90.0504448685
  0
LINE
  5
383
100
AcDbEntity
  8
DRAFT
100
AcDbLine
 62
7
  6
CONTINUOUS
 10
246.8632276163
 20
90.0504448685
 11
247.1632276163
 21
90.0504448685
  0
LINE
  5
384
100
AcDbEntity
  8
DRAFT
100
AcDbLine
 62
7
  6
CONTINUOUS
 10
62.3650225143
 20
90.288267042
 11
61.0228785969
 21
90.288267042
  0
LINE
  5
385
100
AcDbEntity
  8
DRAFT
100
AcDbLine
 62
7
  6
CONTINUOUS
 10
233.6494193554
 20
90.288267042
 11
234.9915632728
 21
90.288267042
  0
LINE
  5
386
100
AcDbEntity
  8
DRAFT
100
AcDbLine
 62
7
  6
CONTINUOUS
 10
62.3650225143
 20
91.528627699
 11
61.0228785969
 21
91.528627699
  0
LINE
  5
387
100
AcDbEntity
  8
DRAFT
100
AcDbLine
 62
7
  6
CONTINUOUS
 10
233.6494193554
 20
91.528627699
 11
234.9915632728
 21
91.528627699
  0
LINE
  5
388
100
AcDbEntity
  8
DRAFT
100
AcDbLine
 62
7
  6
CONTINUOUS
 10
62.3650225143
 20
92.5722620379
 11
61.0228785969
 21
92.5722620379
  0
LINE
  5
389
100
AcDbEntity
  8
DRAFT
100
AcDbLine
 62
7
  6
CONTINUOUS
 10
233.6494193554
 20
92.5722620379
 11
234.9915632728
 21
92.5722620379
  0
LINE
  5
38A
100
AcDbEntity
  8
DRAFT
100
AcDbLine
 62
7
  6
CONTINUOUS
 10
48.4079459144
 20
93.0504448685
 11
48.8424873856
 21
93.0504448685
  0
LINE
  5
38B
100
AcDbEntity
  8
DRAFT
100
AcDbLine
 62
7
  6
CONTINUOUS
 10
247.1719544841
 20
93.0504448685
 11
247.6064959553
 21
93.0504448685
  0
LINE
  5
38C
100
AcDbEntity
  8
DRAFT
100
AcDbLine
 62
7
  6
CONTINUOUS
 10
62.3650225143
 20
93.812622695
 11
61.0228785969
 21
93.812622695
  0
LINE
  5
38D
100
AcDbEntity
  8
DRAFT
100
AcDbLine
 62
7
  6
CONTINUOUS
 10
233.6494193554
 20
93.812622695
 11
234.9915632728
 21
93.812622695
  0
LINE
  5
38E
100
AcDbEntity
  8
DRAFT
100
AcDbLine
 62
7
  6
CONTINUOUS
 10
62.334478477
 20
94.7504448685
 11
60.9617858696
 21
94.7504448685
  0
LINE
  5
38F
100
AcDbEntity
  8
DRAFT
100
AcDbLine
 62
7
  6
CONTINUOUS
 10
233.6799633927
 20
94.7504448685
 11
235.052656
 21
94.7504448685
  0
LINE
  5
390
100
AcDbEntity
  8
0
100
AcDbLine
 62
7
  6
CONTINUOUS
 10
70.1774337103
 20
104.9879449877
 11
69.7306251635
 21
105.0504447493
  0
LINE
  5
391
100
AcDbEntity
  8
0
100
AcDbLine
 62
7
  6
CONTINUOUS
 10
69.7306251635
 20
104.7379448685
 11
70.1136039307
 21
104.6754447493
  0
LINE
  5
392
100
AcDbEntity
  8
0
100
AcDbLine
 62
7
  6
CONTINUOUS
 10
69.2838167061
 20
105.8629448685
 11
68.9008380284
 21
105.9254449877
  0
LINE
  5
393
100
AcDbEntity
  8
0
100
AcDbLine
 62
7
  6
CONTINUOUS
 10
69.7306251635
 20
107.4879447493
 11
70.1136039307
 21
107.4254449877
  0
LINE
  5
394
100
AcDbEntity
  8
0
100
AcDbLine
 62
7
  6
CONTINUOUS
 10
68.9008380284
 20
105.6129447493
 11
69.2199869265
 21
105.5504449877
  0
LINE
  5
395
100
AcDbEntity
  8
0
100
AcDbLine
 62
7
  6
CONTINUOUS
 10
70.1136039307
 20
107.7379448685
 11
69.7944549431
 21
107.80044463
  0
LINE
  5
396
100
AcDbEntity
  8
0
100
AcDbLine
 62
7
  6
CONTINUOUS
 10
149.007221054
 20
12.7632108602
 11
149.0697208156
 21
12.4440618726
  0
LINE
  5
397
100
AcDbEntity
  8
0
100
AcDbLine
 62
7
  6
CONTINUOUS
 10
151.2572206964
 20
13.3376788768
 11
151.1947209348
 21
13.6568277749
  0
LINE
  5
398
100
AcDbEntity
  8
0
100
AcDbLine
 62
7
  6
CONTINUOUS
 10
149.382221054
 20
12.4440618726
 11
149.3197209348
 21
12.8270406398
  0
LINE
  5
399
100
AcDbEntity
  8
0
100
AcDbLine
 62
7
  6
CONTINUOUS
 10
150.882221054
 20
13.6568277749
 11
150.9447208156
 21
13.2738490972
  0
LINE
  5
39A
100
AcDbEntity
  8
0
100
AcDbLine
 62
7
  6
CONTINUOUS
 10
145.0072209348
 20
14.1036364111
 11
145.0072209348
 21
13.5929979953
  0
LINE
  5
39B
100
AcDbEntity
  8
0
100
AcDbLine
 62
7
  6
CONTINUOUS
 10
145.3822209348
 20
14.0398066315
 11
145.3822209348
 21
11.5504448685
  0
LINE
  5
39C
100
AcDbEntity
  8
0
100
AcDbLine
 62
7
  6
CONTINUOUS
 10
145.7572209348
 20
11.5504448685
 11
145.7572209348
 21
14.5504448685
  0
LINE
  5
39D
100
AcDbEntity
  8
0
100
AcDbLine
 62
7
  6
CONTINUOUS
 10
146.257220905
 20
14.5504448685
 11
146.257220905
 21
12.8908704194
  0
LINE
  5
39E
100
AcDbEntity
  8
0
100
AcDbLine
 62
7
  6
CONTINUOUS
 10
146.5697208752
 20
13.2100193175
 11
146.5697208752
 21
14.2312959703
  0
LINE
  5
39F
100
AcDbEntity
  8
0
100
AcDbLine
 62
7
  6
CONTINUOUS
 10
148.1947209348
 20
12.5717214319
 11
148.1947209348
 21
12.4440618726
  0
LINE
  5
3A0
100
AcDbEntity
  8
0
100
AcDbLine
 62
7
  6
CONTINUOUS
 10
148.3822209348
 20
14.2312959703
 11
148.3822209348
 21
14.5504448685
  0
LINE
  5
3A1
100
AcDbEntity
  8
0
100
AcDbLine
 62
7
  6
CONTINUOUS
 10
148.5072208156
 20
12.380232093
 11
148.5072208156
 21
12.6355512115
  0
LINE
  5
3A2
100
AcDbEntity
  8
0
100
AcDbLine
 62
7
  6
CONTINUOUS
 10
149.007221054
 20
13.3376788768
 11
149.007221054
 21
12.7632108602
  0
LINE
  5
3A3
100
AcDbEntity
  8
0
100
AcDbLine
 62
7
  6
CONTINUOUS
 10
149.3197209348
 20
12.8270406398
 11
149.3197209348
 21
13.2738490972
  0
LINE
  5
3A4
100
AcDbEntity
  8
DRAFT
100
AcDbLine
 62
7
  6
CONTINUOUS
 10
167.5540863109
 20
211.2057335907
 11
167.8070266771
 21
212.1497198889
  0
LINE
  5
3A5
100
AcDbEntity
  8
DRAFT
100
AcDbLine
 62
7
  6
CONTINUOUS
 10
117.9074151925
 20
-3.048830152
 11
118.1603555588
 21
-2.1048438538
  0
LINE
  5
3A6
100
AcDbEntity
  8
DRAFT
100
AcDbLine
 62
7
  6
CONTINUOUS
 10
177.8540863109
 20
211.2057335907
 11
178.1070266771
 21
212.1497198889
  0
LINE
  5
3A7
100
AcDbEntity
  8
RACCORDO
100
AcDbLine
 62
250
  6
CONTINUOUS
 10
248.0090484538
 20
215.5504448685
 11
245.6151476677
 21
213.1565440824
  0
LINE
  5
3A8
100
AcDbEntity
  8
RACCORDO
100
AcDbLine
 62
250
  6
CONTINUOUS
 10
251.0072209348
 20
212.5522723874
 11
248.6133201487
 21
210.1583716013
  0
LINE
  5
3A9
100
AcDbEntity
  8
DRAFT
100
AcDbLine
 62
7
  6
CONTINUOUS
 10
246.6625096571
 20
124.0973102445
 11
247.6064959553
 21
124.3502506108
  0
LINE
  5
3AA
100
AcDbEntity
  8
DRAFT
100
AcDbLine
 62
7
  6
CONTINUOUS
 10
48.4079459144
 20
74.4506391262
 11
49.3519322126
 21
74.7035794924
  0
LINE
  5
3AB
100
AcDbEntity
  8
0
100
AcDbLine
 62
7
  6
CONTINUOUS
 10
68.4540293922
 20
101.5504448685
 11
68.964667808
 21
101.5504448685
  0
LINE
  5
3AC
100
AcDbEntity
  8
0
100
AcDbLine
 62
7
  6
CONTINUOUS
 10
68.5178591718
 20
101.9254448685
 11
71.0072209348
 21
101.9254448685
  0
LINE
  5
3AD
100
AcDbEntity
  8
0
100
AcDbLine
 62
7
  6
CONTINUOUS
 10
71.0072209348
 20
102.3004448685
 11
68.0072209348
 21
102.3004448685
  0
LINE
  5
3AE
100
AcDbEntity
  8
0
100
AcDbLine
 62
7
  6
CONTINUOUS
 10
68.8370082488
 20
102.8004448387
 11
69.0923273673
 21
102.8004448387
  0
LINE
  5
3AF
100
AcDbEntity
  8
0
100
AcDbLine
 62
7
  6
CONTINUOUS
 10
69.0284975876
 20
103.1129448089
 11
68.9008380284
 21
103.1129448089
  0
LINE
  5
3B0
100
AcDbEntity
  8
0
100
AcDbLine
 62
7
  6
CONTINUOUS
 10
68.9008380284
 20
104.6754447493
 11
69.0284975876
 21
104.6754447493
  0
LINE
  5
3B1
100
AcDbEntity
  8
0
100
AcDbLine
 62
7
  6
CONTINUOUS
 10
69.6029656043
 20
104.7379448685
 11
69.7306251635
 21
104.7379448685
  0
LINE
  5
3B2
100
AcDbEntity
  8
0
100
AcDbLine
 62
7
  6
CONTINUOUS
 10
69.7306251635
 20
105.0504447493
 11
69.2838167061
 21
105.0504447493
  0
LINE
  5
3B3
100
AcDbEntity
  8
0
100
AcDbLine
 62
7
  6
CONTINUOUS
 10
69.2199869265
 20
105.5504449877
 11
69.7944549431
 21
105.5504449877
  0
LINE
  5
3B4
100
AcDbEntity
  8
0
100
AcDbLine
 62
7
  6
CONTINUOUS
 10
69.7306251635
 20
105.8629448685
 11
69.2838167061
 21
105.8629448685
  0
LINE
  5
3B5
100
AcDbEntity
  8
DRAFT
100
AcDbLine
 62
7
  6
CONTINUOUS
 10
49.3519322126
 20
124.0973102445
 11
48.4079459144
 21
124.3502506108
  0
LINE
  5
3B6
100
AcDbEntity
  8
DRAFT
100
AcDbLine
 62
7
  6
CONTINUOUS
 10
246.6625096571
 20
74.7035794924
 11
247.6064959553
 21
74.4506391262
  0
LINE
  5
3B7
100
AcDbEntity
  8
RACCORDO
100
AcDbLine
 62
250
  6
CONTINUOUS
 10
248.0090484538
 20
-6.4495551315
 11
245.6151476677
 21
-4.0556543454
  0
LINE
  5
3B8
100
AcDbEntity
  8
RACCORDO
100
AcDbLine
 62
250
  6
CONTINUOUS
 10
251.0072209348
 20
-3.4513826505
 11
248.6133201487
 21
-1.0574818644
  0
LINE
  5
3B9
100
AcDbEntity
  8
DRAFT
100
AcDbLine
 62
7
  6
CONTINUOUS
 10
167.5540863109
 20
-2.1048438538
 11
167.8070266771
 21
-3.048830152
  0
LINE
  5
3BA
100
AcDbEntity
  8
DRAFT
100
AcDbLine
 62
7
  6
CONTINUOUS
 10
118.1603555588
 20
211.2057335907
 11
117.9074151925
 21
212.1497198889
  0
LINE
  5
3BB
100
AcDbEntity
  8
DRAFT
100
AcDbLine
 62
7
  6
CONTINUOUS
 10
177.8540863109
 20
-2.1048438538
 11
178.1070266771
 21
-3.048830152
  0
LINE
  5
3BC
100
AcDbEntity
  8
0
100
AcDbLine
 62
7
  6
CONTINUOUS
 10
150.9447208156
 20
13.2738490972
 11
150.9447208156
 21
12.8270406398
  0
LINE
  5
3BD
100
AcDbEntity
  8
0
100
AcDbLine
 62
7
  6
CONTINUOUS
 10
151.2572206964
 20
12.7632108602
 11
151.2572206964
 21
13.3376788768
  0
LINE
  5
3BE
100
AcDbEntity
  8
DRAFT
100
AcDbLine
 62
7
  6
CONTINUOUS
 10
157.8072209348
 20
6.3777024106
 11
157.8072209348
 21
5.5050098033
  0
LINE
  5
3BF
100
AcDbEntity
  8
DRAFT
100
AcDbLine
 62
7
  6
CONTINUOUS
 10
157.8072209348
 20
202.7231873263
 11
157.8072209348
 21
203.5958799337
  0
LINE
  5
3C0
100
AcDbEntity
  8
DRAFT
100
AcDbLine
 62
7
  6
CONTINUOUS
 10
158.7450431083
 20
6.4082464479
 11
158.7450431083
 21
5.5661025305
  0
LINE
  5
3C1
100
AcDbEntity
  8
DRAFT
100
AcDbLine
 62
7
  6
CONTINUOUS
 10
158.7450431083
 20
202.692643289
 11
158.7450431083
 21
203.5347872064
  0
LINE
  5
3C2
100
AcDbEntity
  8
DRAFT
100
AcDbLine
 62
7
  6
CONTINUOUS
 10
128.2074151925
 20
-3.048830152
 11
128.4603555588
 21
-2.1048438538
  0
LINE
  5
3C3
100
AcDbEntity
  8
RACCORDO
100
AcDbLine
 62
250
  6
CONTINUOUS
 10
45.0072209348
 20
-3.4513826505
 11
47.4011217209
 21
-1.0574818644
  0
LINE
  5
3C4
100
AcDbEntity
  8
RACCORDO
100
AcDbLine
 62
250
  6
CONTINUOUS
 10
48.0053934159
 20
-6.4495551315
 11
50.399294202
 21
-4.0556543454
  0
LINE
  5
3C5
100
AcDbEntity
  8
DRAFT
100
AcDbLine
 62
7
  6
CONTINUOUS
 10
246.6625096571
 20
134.3973102445
 11
247.6064959553
 21
134.6502506108
  0
LINE
  5
3C6
100
AcDbEntity
  8
DRAFT
100
AcDbLine
 62
7
  6
CONTINUOUS
 10
49.3519322126
 20
85.0035794924
 11
48.4079459144
 21
84.7506391262
  0
LINE
  5
3C7
100
AcDbEntity
  8
0
100
AcDbLine
 62
7
  6
CONTINUOUS
 10
69.2838167061
 20
105.0504447493
 11
68.8370082488
 21
104.9879449877
  0
LINE
  5
3C8
100
AcDbEntity
  8
0
100
AcDbLine
 62
7
  6
CONTINUOUS
 10
69.2838167061
 20
107.4879447493
 11
69.7306251635
 21
107.4879447493
  0
LINE
  5
3C9
100
AcDbEntity
  8
0
100
AcDbLine
 62
7
  6
CONTINUOUS
 10
69.7944549431
 20
107.80044463
 11
69.2199869265
 21
107.80044463
  0
LINE
  5
3CA
100
AcDbEntity
  8
DRAFT
100
AcDbLine
 62
7
  6
CONTINUOUS
 10
62.334478477
 20
114.3504448685
 11
60.9617858696
 21
114.3504448685
  0
LINE
  5
3CB
100
AcDbEntity
  8
DRAFT
100
AcDbLine
 62
7
  6
CONTINUOUS
 10
233.6799633927
 20
114.3504448685
 11
235.052656
 21
114.3504448685
  0
LINE
  5
3CC
100
AcDbEntity
  8
DRAFT
100
AcDbLine
 62
7
  6
CONTINUOUS
 10
62.3650225143
 20
115.288267042
 11
61.0228785969
 21
115.288267042
  0
LINE
  5
3CD
100
AcDbEntity
  8
DRAFT
100
AcDbLine
 62
7
  6
CONTINUOUS
 10
233.6494193554
 20
115.288267042
 11
234.9915632728
 21
115.288267042
  0
LINE
  5
3CE
100
AcDbEntity
  8
DRAFT
100
AcDbLine
 62
7
  6
CONTINUOUS
 10
48.4079459144
 20
134.6502506108
 11
49.3519322126
 21
134.3973102445
  0
LINE
  5
3CF
100
AcDbEntity
  8
DRAFT
100
AcDbLine
 62
7
  6
CONTINUOUS
 10
246.6625096571
 20
85.0035794924
 11
247.6064959553
 21
84.7506391262
  0
LINE
  5
3D0
100
AcDbEntity
  8
RACCORDO
100
AcDbLine
 62
250
  6
CONTINUOUS
 10
45.0072209348
 20
212.5522723874
 11
47.4011217209
 21
210.1583716013
  0
LINE
  5
3D1
100
AcDbEntity
  8
RACCORDO
100
AcDbLine
 62
250
  6
CONTINUOUS
 10
48.0053934159
 20
215.5504448685
 11
50.399294202
 21
213.1565440824
  0
LINE
  5
3D2
100
AcDbEntity
  8
DRAFT
100
AcDbLine
 62
7
  6
CONTINUOUS
 10
128.4603555588
 20
211.2057335907
 11
128.2074151925
 21
212.1497198889
  0
LINE
  5
3D3
100
AcDbEntity
  8
DRAFT
100
AcDbLine
 62
7
  6
CONTINUOUS
 10
159.5072209348
 20
-3.048830152
 11
159.5072209348
 21
-2.6142886808
  0
LINE
  5
3D4
100
AcDbEntity
  8
DRAFT
100
AcDbLine
 62
7
  6
CONTINUOUS
 10
159.5072209348
 20
211.7151784177
 11
159.5072209348
 21
212.1497198889
  0
LINE
  5
3D5
100
AcDbEntity
  8
DRAFT
100
AcDbLine
 62
7
  6
CONTINUOUS
 10
159.9854037654
 20
6.4082464479
 11
159.9854037654
 21
5.5661025305
  0
LINE
  5
3D6
100
AcDbEntity
  8
DRAFT
100
AcDbLine
 62
7
  6
CONTINUOUS
 10
159.9854037654
 20
202.692643289
 11
159.9854037654
 21
203.5347872064
  0
LINE
  5
3D7
100
AcDbEntity
  8
DRAFT
100
AcDbLine
 62
7
  6
CONTINUOUS
 10
161.0290381043
 20
6.4082464479
 11
161.0290381043
 21
5.5661025305
  0
LINE
  5
3D8
100
AcDbEntity
  8
DRAFT
100
AcDbLine
 62
7
  6
CONTINUOUS
 10
161.0290381043
 20
202.692643289
 11
161.0290381043
 21
203.5347872064
  0
LINE
  5
3D9
100
AcDbEntity
  8
DRAFT
100
AcDbLine
 62
7
  6
CONTINUOUS
 10
162.2693987613
 20
6.4082464479
 11
162.2693987613
 21
5.5661025305
  0
LINE
  5
3DA
100
AcDbEntity
  8
DRAFT
100
AcDbLine
 62
7
  6
CONTINUOUS
 10
162.2693987613
 20
202.692643289
 11
162.2693987613
 21
203.5347872064
  0
LINE
  5
3DB
100
AcDbEntity
  8
DRAFT
100
AcDbLine
 62
7
  6
CONTINUOUS
 10
162.5072209348
 20
-2.305561813
 11
162.5072209348
 21
-2.605561813
  0
LINE
  5
3DC
100
AcDbEntity
  8
DRAFT
100
AcDbLine
 62
7
  6
CONTINUOUS
 10
162.5072209348
 20
211.4064515499
 11
162.5072209348
 21
211.7064515499
  0
LINE
  5
3DD
100
AcDbEntity
  8
DRAFT
100
AcDbLine
 62
7
  6
CONTINUOUS
 10
163.2072209348
 20
6.3777024106
 11
163.2072209348
 21
5.5050098033
  0
LINE
  5
3DE
100
AcDbEntity
  8
DRAFT
100
AcDbLine
 62
7
  6
CONTINUOUS
 10
163.2072209348
 20
202.7231873263
 11
163.2072209348
 21
203.5958799337
  0
LINE
  5
3DF
100
AcDbEntity
  8
0
100
AcDbLine
 62
7
  6
CONTINUOUS
 10
149.3197209348
 20
13.2738490972
 11
149.382221054
 21
13.6568277749
  0
LINE
  5
3E0
100
AcDbEntity
  8
0
100
AcDbLine
 62
7
  6
CONTINUOUS
 10
150.9447208156
 20
12.8270406398
 11
150.882221054
 21
12.4440618726
  0
LINE
  5
3E1
100
AcDbEntity
  8
0
100
AcDbLine
 62
7
  6
CONTINUOUS
 10
149.0697208156
 20
13.6568277749
 11
149.007221054
 21
13.3376788768
  0
LINE
  5
3E2
100
AcDbEntity
  8
0
100
AcDbLine
 62
7
  6
CONTINUOUS
 10
151.1947209348
 20
12.4440618726
 11
151.2572206964
 21
12.7632108602
  0
LINE
  5
3E3
100
AcDbEntity
  8
0
100
AcDbLine
 62
7
  6
CONTINUOUS
 10
69.7944549431
 20
105.5504449877
 11
70.1136039307
 21
105.6129447493
  0
LINE
  5
3E4
100
AcDbEntity
  8
0
100
AcDbLine
 62
7
  6
CONTINUOUS
 10
69.2199869265
 20
107.80044463
 11
68.9008380284
 21
107.7379448685
  0
LINE
  5
3E5
100
AcDbEntity
  8
0
100
AcDbLine
 62
7
  6
CONTINUOUS
 10
70.1136039307
 20
105.9254449877
 11
69.7306251635
 21
105.8629448685
  0
LINE
  5
3E6
100
AcDbEntity
  8
0
100
AcDbLine
 62
7
  6
CONTINUOUS
 10
68.9008380284
 20
107.4254449877
 11
69.2838167061
 21
107.4879447493
  0
LINE
  5
3E7
100
AcDbEntity
  8
DRAFT
100
AcDbLine
 62
7
  6
CONTINUOUS
 10
48.8424873856
 20
116.0504448685
 11
48.4079459144
 21
116.0504448685
  0
LINE
  5
3E8
100
AcDbEntity
  8
DRAFT
100
AcDbLine
 62
7
  6
CONTINUOUS
 10
247.1719544841
 20
116.0504448685
 11
247.6064959553
 21
116.0504448685
  0
LINE
  5
3E9
100
AcDbEntity
  8
DRAFT
100
AcDbLine
 62
7
  6
CONTINUOUS
 10
62.3650225143
 20
116.528627699
 11
61.0228785969
 21
116.528627699
  0
LINE
  5
3EA
100
AcDbEntity
  8
DRAFT
100
AcDbLine
 62
7
  6
CONTINUOUS
 10
233.6494193554
 20
116.528627699
 11
234.9915632728
 21
116.528627699
  0
LINE
  5
3EB
100
AcDbEntity
  8
DRAFT
100
AcDbLine
 62
7
  6
CONTINUOUS
 10
62.3650225143
 20
117.5722620379
 11
61.0228785969
 21
117.5722620379
  0
LINE
  5
3EC
100
AcDbEntity
  8
DRAFT
100
AcDbLine
 62
7
  6
CONTINUOUS
 10
233.6494193554
 20
117.5722620379
 11
234.9915632728
 21
117.5722620379
  0
LINE
  5
3ED
100
AcDbEntity
  8
DRAFT
100
AcDbLine
 62
7
  6
CONTINUOUS
 10
62.3650225143
 20
118.812622695
 11
61.0228785969
 21
118.812622695
  0
LINE
  5
3EE
100
AcDbEntity
  8
DRAFT
100
AcDbLine
 62
7
  6
CONTINUOUS
 10
233.6494193554
 20
118.812622695
 11
234.9915632728
 21
118.812622695
  0
LINE
  5
3EF
100
AcDbEntity
  8
DRAFT
100
AcDbLine
 62
7
  6
CONTINUOUS
 10
49.1512142534
 20
119.0504448685
 11
48.8512142534
 21
119.0504448685
  0
LINE
  5
3F0
100
AcDbEntity
  8
DRAFT
100
AcDbLine
 62
7
  6
CONTINUOUS
 10
246.8632276163
 20
119.0504448685
 11
247.1632276163
 21
119.0504448685
  0
LINE
  5
3F1
100
AcDbEntity
  8
DRAFT
100
AcDbLine
 62
7
  6
CONTINUOUS
 10
62.334478477
 20
119.7504448685
 11
60.9617858696
 21
119.7504448685
  0
LINE
  5
3F2
100
AcDbEntity
  8
DRAFT
100
AcDbLine
 62
7
  6
CONTINUOUS
 10
233.6799633927
 20
119.7504448685
 11
235.052656
 21
119.7504448685
  0
LINE
  5
3F3
100
AcDbEntity
  8
DRAFT
100
AcDbLine
 62
7
  6
CONTINUOUS
 10
175.3072209348
 20
6.3777024106
 11
175.3072209348
 21
5.5050098033
  0
LINE
  5
3F4
100
AcDbEntity
  8
DRAFT
100
AcDbLine
 62
7
  6
CONTINUOUS
 10
175.3072209348
 20
202.7231873263
 11
175.3072209348
 21
203.5958799337
  0
LINE
  5
3F5
100
AcDbEntity
  8
DRAFT
100
AcDbLine
 62
7
  6
CONTINUOUS
 10
176.2450431083
 20
6.4082464479
 11
176.2450431083
 21
5.5661025305
  0
LINE
  5
3F6
100
AcDbEntity
  8
DRAFT
100
AcDbLine
 62
7
  6
CONTINUOUS
 10
176.2450431083
 20
202.692643289
 11
176.2450431083
 21
203.5347872064
  0
LINE
  5
3F7
100
AcDbEntity
  8
DRAFT
100
AcDbLine
 62
7
  6
CONTINUOUS
 10
177.4854037654
 20
6.4082464479
 11
177.4854037654
 21
5.5661025305
  0
LINE
  5
3F8
100
AcDbEntity
  8
DRAFT
100
AcDbLine
 62
7
  6
CONTINUOUS
 10
177.4854037654
 20
202.692643289
 11
177.4854037654
 21
203.5347872064
  0
LINE
  5
3F9
100
AcDbEntity
  8
DRAFT
100
AcDbLine
 62
7
  6
CONTINUOUS
 10
178.5072209348
 20
212.1497198889
 11
178.5072209348
 21
202.692643289
  0
LINE
  5
3FA
100
AcDbEntity
  8
DRAFT
100
AcDbLine
 62
7
  6
CONTINUOUS
 10
178.5072209348
 20
6.4082464479
 11
178.5072209348
 21
-3.048830152
  0
LINE
  5
3FB
100
AcDbEntity
  8
0
100
AcDbLine
 62
7
  6
CONTINUOUS
 10
148.1947209348
 20
12.4440618726
 11
148.1322208156
 21
12.2525725337
  0
LINE
  5
3FC
100
AcDbEntity
  8
0
100
AcDbLine
 62
7
  6
CONTINUOUS
 10
149.1322209348
 20
13.8483172926
 11
149.0697208156
 21
13.6568277749
  0
LINE
  5
3FD
100
AcDbEntity
  8
0
100
AcDbLine
 62
7
  6
CONTINUOUS
 10
151.1322211733
 20
12.2525725337
 11
151.1947209348
 21
12.4440618726
  0
LINE
  5
3FE
100
AcDbEntity
  8
DRAFT
100
AcDbLine
 62
7
  6
CONTINUOUS
 10
235.0352009351
 20
117.5504448685
 11
235.6635832725
 21
117.8646121089
  0
LINE
  5
3FF
100
AcDbEntity
  8
DRAFT
100
AcDbLine
 62
7
  6
CONTINUOUS
 10
62.334478477
 20
131.8504448685
 11
60.9617858696
 21
131.8504448685
  0
LINE
  5
400
100
AcDbEntity
  8
DRAFT
100
AcDbLine
 62
7
  6
CONTINUOUS
 10
233.6799633927
 20
131.8504448685
 11
235.052656
 21
131.8504448685
  0
LINE
  5
401
100
AcDbEntity
  8
DRAFT
100
AcDbLine
 62
7
  6
CONTINUOUS
 10
62.3650225143
 20
132.788267042
 11
61.0228785969
 21
132.788267042
  0
LINE
  5
402
100
AcDbEntity
  8
DRAFT
100
AcDbLine
 62
7
  6
CONTINUOUS
 10
233.6494193554
 20
132.788267042
 11
234.9915632728
 21
132.788267042
  0
LINE
  5
403
100
AcDbEntity
  8
DRAFT
100
AcDbLine
 62
7
  6
CONTINUOUS
 10
62.3650225143
 20
134.028627699
 11
61.0228785969
 21
134.028627699
  0
LINE
  5
404
100
AcDbEntity
  8
DRAFT
100
AcDbLine
 62
7
  6
CONTINUOUS
 10
233.6494193554
 20
134.028627699
 11
234.9915632728
 21
134.028627699
  0
LINE
  5
405
100
AcDbEntity
  8
DRAFT
100
AcDbLine
 62
7
  6
CONTINUOUS
 10
48.4079459144
 20
135.0504448685
 11
62.3650225143
 21
135.0504448685
  0
LINE
  5
406
100
AcDbEntity
  8
DRAFT
100
AcDbLine
 62
7
  6
CONTINUOUS
 10
233.6494193554
 20
135.0504448685
 11
247.6064959553
 21
135.0504448685
  0
LINE
  5
407
100
AcDbEntity
  8
DRAFT
100
AcDbLine
 62
7
  6
CONTINUOUS
 10
235.6635832725
 20
91.236277628
 11
235.0352009351
 21
91.5504448685
  0
LINE
  5
408
100
AcDbEntity
  8
0
100
AcDbLine
 62
7
  6
CONTINUOUS
 10
148.3822209348
 20
12.0610831502
 11
148.5072208156
 21
12.380232093
  0
LINE
  5
409
100
AcDbEntity
  8
0
100
AcDbLine
 62
7
  6
CONTINUOUS
 10
149.2572208156
 20
14.1036364111
 11
149.1322209348
 21
13.8483172926
  0
LINE
  5
40A
100
AcDbEntity
  8
DRAFT
100
AcDbLine
 62
7
  6
CONTINUOUS
 10
134.6930536944
 20
4.8940825308
 11
135.0072209348
 21
5.5224648682
  0
LINE
  5
40B
100
AcDbEntity
  8
DRAFT
100
AcDbLine
 62
7
  6
CONTINUOUS
 10
235.7072209348
 20
136.5504448685
 11
236.3966959995
 21
137.2399199331
  0
LINE
  5
40C
100
AcDbEntity
  8
DRAFT
100
AcDbLine
 62
7
  6
CONTINUOUS
 10
48.9002079615
 20
136.5504448685
 11
60.3072209348
 21
136.5504448685
  0
LINE
  5
40D
100
AcDbEntity
  8
DRAFT
100
AcDbLine
 62
7
  6
CONTINUOUS
 10
235.7072209348
 20
136.5504448685
 11
247.1142339082
 21
136.5504448685
  0
LINE
  5
40E
100
AcDbEntity
  8
DRAFT
100
AcDbLine
 62
7
  6
CONTINUOUS
 10
49.0966959995
 20
137.2399199331
 11
59.6177458702
 21
137.2399199331
  0
LINE
  5
40F
100
AcDbEntity
  8
DRAFT
100
AcDbLine
 62
7
  6
CONTINUOUS
 10
236.3966959995
 20
137.2399199331
 11
246.9177458702
 21
137.2399199331
  0
LINE
  5
410
100
AcDbEntity
  8
DRAFT
100
AcDbLine
 62
7
  6
CONTINUOUS
 10
246.9177458702
 20
139.9609698038
 11
236.3966959995
 21
139.9609698038
  0
LINE
  5
411
100
AcDbEntity
  8
DRAFT
100
AcDbLine
 62
7
  6
CONTINUOUS
 10
59.6177458702
 20
139.9609698038
 11
49.0966959995
 21
139.9609698038
  0
LINE
  5
412
100
AcDbEntity
  8
DRAFT
100
AcDbLine
 62
7
  6
CONTINUOUS
 10
247.1142339082
 20
140.6504448685
 11
235.7072209348
 21
140.6504448685
  0
LINE
  5
413
100
AcDbEntity
  8
DRAFT
100
AcDbLine
 62
7
  6
CONTINUOUS
 10
60.3072209348
 20
140.6504448685
 11
48.9002079615
 21
140.6504448685
  0
LINE
  5
414
100
AcDbEntity
  8
DRAFT
100
AcDbLine
 62
7
  6
CONTINUOUS
 10
235.7072209348
 20
72.5504448685
 11
236.3966959995
 21
71.8609698038
  0
LINE
  5
415
100
AcDbEntity
  8
DRAFT
100
AcDbLine
 62
7
  6
CONTINUOUS
 10
135.0072209348
 20
203.5784248687
 11
134.6930536944
 21
204.2068072061
  0
LINE
  5
416
100
AcDbEntity
  8
DRAFT
100
AcDbLine
 62
7
  6
CONTINUOUS
 10
168.2074151925
 20
-3.048830152
 11
168.4603555588
 21
-2.1048438538
  0
LINE
  5
417
100
AcDbEntity
  8
0
100
AcDbLine
 62
7
  6
CONTINUOUS
 10
151.0072209348
 20
11.9972533705
 11
151.1322211733
 21
12.2525725337
  0
LINE
  5
418
100
AcDbEntity
  8
0
100
AcDbLine
 62
7
  6
CONTINUOUS
 10
148.1322208156
 20
12.2525725337
 11
148.0072209348
 21
12.0610831502
  0
LINE
  5
419
100
AcDbEntity
  8
0
100
AcDbLine
 62
7
  6
CONTINUOUS
 10
149.382221054
 20
13.6568277749
 11
149.6322208156
 21
14.0398066315
  0
LINE
  5
41A
100
AcDbEntity
  8
DRAFT
100
AcDbLine
 62
7
  6
CONTINUOUS
 10
247.6057752323
 20
140.6489991659
 11
246.9177458702
 21
139.9609698038
  0
LINE
  5
41B
100
AcDbEntity
  8
DRAFT
100
AcDbLine
 62
7
  6
CONTINUOUS
 10
235.0352009351
 20
92.5504448685
 11
235.6635832725
 21
92.8646121089
  0
LINE
  5
41C
100
AcDbEntity
  8
DRAFT
100
AcDbLine
 62
7
  6
CONTINUOUS
 10
49.3519322126
 20
125.0035794924
 11
48.4079459144
 21
124.7506391262
  0
LINE
  5
41D
100
AcDbEntity
  8
DRAFT
100
AcDbLine
 62
7
  6
CONTINUOUS
 10
246.6625096571
 20
125.0035794924
 11
247.6064959553
 21
124.7506391262
  0
LINE
  5
41E
100
AcDbEntity
  8
DRAFT
100
AcDbLine
 62
7
  6
CONTINUOUS
 10
235.6635832725
 20
116.236277628
 11
235.0352009351
 21
116.5504448685
  0
LINE
  5
41F
100
AcDbEntity
  8
DRAFT
100
AcDbLine
 62
7
  6
CONTINUOUS
 10
247.6057752323
 20
68.451890571
 11
246.9177458702
 21
69.1399199331
  0
LINE
  5
420
100
AcDbEntity
  8
DRAFT
100
AcDbLine
 62
7
  6
CONTINUOUS
 10
168.4603555588
 20
211.2057335907
 11
168.2074151925
 21
212.1497198889
  0
LINE
  5
421
100
AcDbEntity
  8
DRAFT
100
AcDbLine
 62
7
  6
CONTINUOUS
 10
159.6930536944
 20
4.8940825308
 11
160.0072209348
 21
5.5224648682
  0
LINE
  5
422
100
AcDbEntity
  8
0
100
AcDbLine
 62
7
  6
CONTINUOUS
 10
150.882221054
 20
12.4440618726
 11
150.6322209348
 21
12.0610831502
  0
LINE
  5
423
100
AcDbEntity
  8
0
100
AcDbLine
 62
7
  6
CONTINUOUS
 10
148.1947209348
 20
11.8057640093
 11
148.3822209348
 21
12.0610831502
  0
LINE
  5
424
100
AcDbEntity
  8
0
100
AcDbLine
 62
7
  6
CONTINUOUS
 10
145.3822209348
 20
14.5504448685
 11
145.0072209348
 21
14.1036364111
  0
LINE
  5
425
100
AcDbEntity
  8
0
100
AcDbLine
 62
7
  6
CONTINUOUS
 10
145.0072209348
 20
13.5929979953
 11
145.3822209348
 21
14.0398066315
  0
LINE
  5
426
100
AcDbEntity
  8
DRAFT
100
AcDbLine
 62
7
  6
CONTINUOUS
 10
160.0072209348
 20
203.5784248687
 11
159.6930536944
 21
204.2068072061
  0
LINE
  5
427
100
AcDbEntity
  8
0
100
AcDbLine
 62
7
  6
CONTINUOUS
 10
215.2572209348
 20
9.3004448685
 11
215.2572209348
 21
9.8004448685
  0
LINE
  5
428
100
AcDbEntity
  8
DRAFT
100
AcDbLine
 62
7
  6
CONTINUOUS
 10
177.1930536944
 20
4.8940825308
 11
177.5072209348
 21
5.5224648682
  0
LINE
  5
429
100
AcDbEntity
  8
0
100
AcDbLine
 62
7
  6
CONTINUOUS
 10
149.4447208156
 20
14.29512575
 11
149.2572208156
 21
14.1036364111
  0
LINE
  5
42A
100
AcDbEntity
  8
0
100
AcDbLine
 62
7
  6
CONTINUOUS
 10
150.8197209348
 20
11.8057640093
 11
151.0072209348
 21
11.9972533705
  0
LINE
  5
42B
100
AcDbEntity
  8
0
100
AcDbLine
 62
7
  6
CONTINUOUS
 10
146.6947209348
 20
12.8908704194
 11
146.9447208752
 21
13.0823597583
  0
LINE
  5
42C
100
AcDbEntity
  8
DRAFT
100
AcDbLine
 62
7
  6
CONTINUOUS
 10
235.0352009351
 20
75.0504448685
 11
235.6635832725
 21
75.3646121089
  0
LINE
  5
42D
100
AcDbEntity
  8
DRAFT
100
AcDbLine
 62
7
  6
CONTINUOUS
 10
235.6635832725
 20
133.736277628
 11
235.0352009351
 21
134.0504448685
  0
LINE
  5
42E
100
AcDbEntity
  8
DRAFT
100
AcDbLine
 62
7
  6
CONTINUOUS
 10
177.5072209348
 20
203.5784248687
 11
177.1930536944
 21
204.2068072061
  0
LINE
  5
42F
100
AcDbEntity
  8
0
100
AcDbLine
 62
7
  6
CONTINUOUS
 10
149.6322208156
 20
14.0398066315
 11
149.8197208156
 21
14.1674661907
  0
LINE
  5
430
100
AcDbEntity
  8
0
100
AcDbLine
 62
7
  6
CONTINUOUS
 10
148.0072209348
 20
12.0610831502
 11
147.8197209348
 21
11.9334235909
  0
LINE
  5
431
100
AcDbEntity
  8
0
100
AcDbLine
 62
7
  6
CONTINUOUS
 10
150.6322209348
 20
12.0610831502
 11
150.4447209348
 21
11.9334235909
  0
LINE
  5
432
100
AcDbEntity
  8
0
100
AcDbLine
 62
7
  6
CONTINUOUS
 10
146.8822209348
 20
13.4015086564
 11
146.5697208752
 21
13.2100193175
  0
LINE
  5
433
100
AcDbEntity
  8
0
100
AcDbLine
 62
7
  6
CONTINUOUS
 10
149.757221054
 20
14.4866150888
 11
149.4447208156
 21
14.29512575
  0
LINE
  5
434
100
AcDbEntity
  8
0
100
AcDbLine
 62
7
  6
CONTINUOUS
 10
147.8822208752
 20
11.6142746537
 11
148.1947209348
 21
11.8057640093
  0
LINE
  5
435
100
AcDbEntity
  8
0
100
AcDbLine
 62
7
  6
CONTINUOUS
 10
150.507221054
 20
11.6142746537
 11
150.8197209348
 21
11.8057640093
  0
LINE
  5
436
100
AcDbEntity
  8
DRAFT
100
AcDbLine
 62
7
  6
CONTINUOUS
 10
234.9915632728
 20
90.288267042
 11
235.052656
 21
89.3504448685
  0
LINE
  5
437
100
AcDbEntity
  8
DRAFT
100
AcDbLine
 62
7
  6
CONTINUOUS
 10
235.6810383374
 20
84.182495676
 11
235.6635832725
 21
84.4504448685
  0
LINE
  5
438
100
AcDbEntity
  8
DRAFT
100
AcDbLine
 62
7
  6
CONTINUOUS
 10
234.9915632728
 20
115.288267042
 11
235.052656
 21
114.3504448685
  0
LINE
  5
439
100
AcDbEntity
  8
DRAFT
100
AcDbLine
 62
7
  6
CONTINUOUS
 10
235.6810383374
 20
105.432495676
 11
235.6635832725
 21
105.7004448685
  0
LINE
  5
43A
100
AcDbEntity
  8
DRAFT
100
AcDbLine
 62
7
  6
CONTINUOUS
 10
234.9915632728
 20
132.788267042
 11
235.052656
 21
131.8504448685
  0
LINE
  5
43B
100
AcDbEntity
  8
DRAFT
100
AcDbLine
 62
7
  6
CONTINUOUS
 10
235.6810383374
 20
126.682495676
 11
235.6635832725
 21
126.9504448685
  0
LINE
  5
43C
100
AcDbEntity
  8
DRAFT
100
AcDbLine
 62
7
  6
CONTINUOUS
 10
235.6810383374
 20
84.182495676
 11
235.6941306331
 21
82.4183940609
  0
LINE
  5
43D
100
AcDbEntity
  8
DRAFT
100
AcDbLine
 62
7
  6
CONTINUOUS
 10
235.6810383374
 20
126.682495676
 11
235.6941306331
 21
124.9183940609
  0
LINE
  5
43E
100
AcDbEntity
  8
DRAFT
100
AcDbLine
 62
7
  6
CONTINUOUS
 10
233.6494193554
 20
135.0504448685
 11
233.6494193554
 21
134.028627699
  0
LINE
  5
43F
100
AcDbEntity
  8
DRAFT
100
AcDbLine
 62
7
  6
CONTINUOUS
 10
233.6494193554
 20
132.788267042
 11
233.6494193554
 21
118.812622695
  0
LINE
  5
440
100
AcDbEntity
  8
DRAFT
100
AcDbLine
 62
7
  6
CONTINUOUS
 10
233.6494193554
 20
117.5722620379
 11
233.6494193554
 21
116.528627699
  0
LINE
  5
441
100
AcDbEntity
  8
DRAFT
100
AcDbLine
 62
7
  6
CONTINUOUS
 10
233.6494193554
 20
115.288267042
 11
233.6494193554
 21
93.812622695
  0
LINE
  5
442
100
AcDbEntity
  8
DRAFT
100
AcDbLine
 62
7
  6
CONTINUOUS
 10
233.6494193554
 20
92.5722620379
 11
233.6494193554
 21
91.528627699
  0
LINE
  5
443
100
AcDbEntity
  8
DRAFT
100
AcDbLine
 62
7
  6
CONTINUOUS
 10
233.6494193554
 20
90.288267042
 11
233.6494193554
 21
76.312622695
  0
LINE
  5
444
100
AcDbEntity
  8
DRAFT
100
AcDbLine
 62
7
  6
CONTINUOUS
 10
233.6494193554
 20
75.0722620379
 11
233.6494193554
 21
74.0504448685
  0
LINE
  5
445
100
AcDbEntity
  8
DRAFT
100
AcDbLine
 62
7
  6
CONTINUOUS
 10
234.9915632728
 20
134.028627699
 11
234.9915632728
 21
132.788267042
  0
LINE
  5
446
100
AcDbEntity
  8
DRAFT
100
AcDbLine
 62
7
  6
CONTINUOUS
 10
234.9915632728
 20
118.812622695
 11
234.9915632728
 21
117.5722620379
  0
LINE
  5
447
100
AcDbEntity
  8
DRAFT
100
AcDbLine
 62
7
  6
CONTINUOUS
 10
234.9915632728
 20
116.528627699
 11
234.9915632728
 21
115.288267042
  0
LINE
  5
448
100
AcDbEntity
  8
DRAFT
100
AcDbLine
 62
7
  6
CONTINUOUS
 10
234.9915632728
 20
93.812622695
 11
234.9915632728
 21
92.5722620379
  0
LINE
  5
449
100
AcDbEntity
  8
DRAFT
100
AcDbLine
 62
7
  6
CONTINUOUS
 10
234.9915632728
 20
91.528627699
 11
234.9915632728
 21
90.288267042
  0
LINE
  5
44A
100
AcDbEntity
  8
DRAFT
100
AcDbLine
 62
7
  6
CONTINUOUS
 10
234.9915632728
 20
76.312622695
 11
234.9915632728
 21
75.0722620379
  0
LINE
  5
44B
100
AcDbEntity
  8
DRAFT
100
AcDbLine
 62
7
  6
CONTINUOUS
 10
235.052656
 20
131.8504448685
 11
235.052656
 21
119.7504448685
  0
LINE
  5
44C
100
AcDbEntity
  8
DRAFT
100
AcDbLine
 62
7
  6
CONTINUOUS
 10
235.052656
 20
114.3504448685
 11
235.052656
 21
94.7504448685
  0
LINE
  5
44D
100
AcDbEntity
  8
DRAFT
100
AcDbLine
 62
7
  6
CONTINUOUS
 10
235.052656
 20
89.3504448685
 11
235.052656
 21
77.2504448685
  0
LINE
  5
44E
100
AcDbEntity
  8
DRAFT
100
AcDbLine
 62
7
  6
CONTINUOUS
 10
235.6635832725
 20
75.3646121089
 11
235.6635832725
 21
82.1504448685
  0
LINE
  5
44F
100
AcDbEntity
  8
DRAFT
100
AcDbLine
 62
7
  6
CONTINUOUS
 10
235.6635832725
 20
84.4504448685
 11
235.6635832725
 21
91.236277628
  0
LINE
  5
450
100
AcDbEntity
  8
DRAFT
100
AcDbLine
 62
7
  6
CONTINUOUS
 10
235.6635832725
 20
92.8646121089
 11
235.6635832725
 21
103.4004448685
  0
LINE
  5
451
100
AcDbEntity
  8
DRAFT
100
AcDbLine
 62
7
  6
CONTINUOUS
 10
235.6635832725
 20
105.7004448685
 11
235.6635832725
 21
116.236277628
  0
LINE
  5
452
100
AcDbEntity
  8
DRAFT
100
AcDbLine
 62
7
  6
CONTINUOUS
 10
235.6635832725
 20
117.8646121089
 11
235.6635832725
 21
124.6504448685
  0
LINE
  5
453
100
AcDbEntity
  8
DRAFT
100
AcDbLine
 62
7
  6
CONTINUOUS
 10
235.6635832725
 20
126.9504448685
 11
235.6635832725
 21
133.736277628
  0
LINE
  5
454
100
AcDbEntity
  8
DRAFT
100
AcDbLine
 62
7
  6
CONTINUOUS
 10
235.6941306331
 20
74.0504448685
 11
235.6941306331
 21
82.4183940609
  0
LINE
  5
455
100
AcDbEntity
  8
DRAFT
100
AcDbLine
 62
7
  6
CONTINUOUS
 10
235.6941306331
 20
84.182495676
 11
235.6941306331
 21
103.6683940609
  0
LINE
  5
456
100
AcDbEntity
  8
DRAFT
100
AcDbLine
 62
7
  6
CONTINUOUS
 10
235.6941306331
 20
105.432495676
 11
235.6941306331
 21
124.9183940609
  0
LINE
  5
457
100
AcDbEntity
  8
DRAFT
100
AcDbLine
 62
7
  6
CONTINUOUS
 10
235.6941306331
 20
126.682495676
 11
235.6941306331
 21
135.0504448685
  0
LINE
  5
458
100
AcDbEntity
  8
DRAFT
100
AcDbLine
 62
7
  6
CONTINUOUS
 10
235.7072209348
 20
140.6504448685
 11
235.7072209348
 21
136.5504448685
  0
LINE
  5
459
100
AcDbEntity
  8
DRAFT
100
AcDbLine
 62
7
  6
CONTINUOUS
 10
235.7072209348
 20
72.5504448685
 11
235.7072209348
 21
68.4504448685
  0
LINE
  5
45A
100
AcDbEntity
  8
DRAFT
100
AcDbLine
 62
7
  6
CONTINUOUS
 10
236.3966959995
 20
139.9609698038
 11
236.3966959995
 21
137.2399199331
  0
LINE
  5
45B
100
AcDbEntity
  8
DRAFT
100
AcDbLine
 62
7
  6
CONTINUOUS
 10
236.3966959995
 20
71.8609698038
 11
236.3966959995
 21
69.1399199331
  0
LINE
  5
45C
100
AcDbEntity
  8
DRAFT
100
AcDbLine
 62
7
  6
CONTINUOUS
 10
235.6941306331
 20
105.432495676
 11
235.6810383374
 21
103.6683940609
  0
LINE
  5
45D
100
AcDbEntity
  8
DRAFT
100
AcDbLine
 62
7
  6
CONTINUOUS
 10
235.052656
 20
119.7504448685
 11
234.9915632728
 21
118.812622695
  0
LINE
  5
45E
100
AcDbEntity
  8
DRAFT
100
AcDbLine
 62
7
  6
CONTINUOUS
 10
235.6635832725
 20
124.6504448685
 11
235.6810383374
 21
124.9183940609
  0
LINE
  5
45F
100
AcDbEntity
  8
DRAFT
100
AcDbLine
 62
7
  6
CONTINUOUS
 10
235.052656
 20
94.7504448685
 11
234.9915632728
 21
93.812622695
  0
LINE
  5
460
100
AcDbEntity
  8
DRAFT
100
AcDbLine
 62
7
  6
CONTINUOUS
 10
235.6635832725
 20
103.4004448685
 11
235.6810383374
 21
103.6683940609
  0
LINE
  5
461
100
AcDbEntity
  8
DRAFT
100
AcDbLine
 62
7
  6
CONTINUOUS
 10
235.052656
 20
77.2504448685
 11
234.9915632728
 21
76.312622695
  0
LINE
  5
462
100
AcDbEntity
  8
DRAFT
100
AcDbLine
 62
7
  6
CONTINUOUS
 10
235.6635832725
 20
82.1504448685
 11
235.6810383374
 21
82.4183940609
  0
LINE
  5
463
100
AcDbEntity
  8
DRAFT
100
AcDbLine
 62
7
  6
CONTINUOUS
 10
235.7072209348
 20
68.4504448685
 11
236.3966959995
 21
69.1399199331
  0
LINE
  5
464
100
AcDbEntity
  8
0
100
AcDbLine
 62
7
  6
CONTINUOUS
 10
73.2572209348
 20
191.8004448685
 11
72.7572209348
 21
191.8004448685
  0
LINE
  5
465
100
AcDbEntity
  8
DRAFT
100
AcDbLine
 62
7
  6
CONTINUOUS
 10
235.7072209348
 20
140.6504448685
 11
236.3966959995
 21
139.9609698038
  0
LINE
  5
466
100
AcDbEntity
  8
RACCORDO
100
AcDbLine
 62
250
  6
CONTINUOUS
 10
245.6151476677
 20
-2.5565681049
 11
245.615147667
 21
-4.0556543454
  0
LINE
  5
467
100
AcDbEntity
  8
RACCORDO
100
AcDbLine
 62
250
  6
CONTINUOUS
 10
245.6151476677
 20
211.6574578418
 11
245.6151476677
 21
213.1565440824
  0
LINE
  5
468
100
AcDbEntity
  8
DRAFT
100
AcDbLine
 62
7
  6
CONTINUOUS
 10
246.6625096571
 20
74.7035794924
 11
246.6625096571
 21
84.0973102445
  0
LINE
  5
469
100
AcDbEntity
  8
DRAFT
100
AcDbLine
 62
7
  6
CONTINUOUS
 10
246.6625096571
 20
85.0035794924
 11
246.6625096571
 21
124.0973102445
  0
LINE
  5
46A
100
AcDbEntity
  8
DRAFT
100
AcDbLine
 62
7
  6
CONTINUOUS
 10
246.6625096571
 20
125.0035794924
 11
246.6625096571
 21
134.3973102445
  0
LINE
  5
46B
100
AcDbEntity
  8
DRAFT
100
AcDbLine
 62
7
  6
CONTINUOUS
 10
246.8632276163
 20
134.4510924596
 11
246.8632276163
 21
124.9497972773
  0
LINE
  5
46C
100
AcDbEntity
  8
DRAFT
100
AcDbLine
 62
7
  6
CONTINUOUS
 10
246.8632276163
 20
124.1510924596
 11
246.8632276163
 21
119.0504448685
  0
LINE
  5
46D
100
AcDbEntity
  8
DRAFT
100
AcDbLine
 62
7
  6
CONTINUOUS
 10
246.8632276163
 20
74.6497972773
 11
246.8632276163
 21
84.1510924596
  0
LINE
  5
46E
100
AcDbEntity
  8
DRAFT
100
AcDbLine
 62
7
  6
CONTINUOUS
 10
246.8632276163
 20
84.9497972773
 11
246.8632276163
 21
90.0504448685
  0
LINE
  5
46F
100
AcDbEntity
  8
DRAFT
100
AcDbLine
 62
7
  6
CONTINUOUS
 10
246.9177458702
 20
69.1399199331
 11
246.9177458702
 21
71.8609698038
  0
LINE
  5
470
100
AcDbEntity
  8
DRAFT
100
AcDbLine
 62
7
  6
CONTINUOUS
 10
246.9177458702
 20
137.2399199331
 11
246.9177458702
 21
139.9609698038
  0
LINE
  5
471
100
AcDbEntity
  8
DRAFT
100
AcDbLine
 62
250
  6
CONTINUOUS
 10
247.1142339082
 20
-1.0574818644
 11
247.1142339082
 21
68.4504448685
  0
LINE
  5
472
100
AcDbEntity
  8
DRAFT
100
AcDbLine
 62
250
  6
CONTINUOUS
 10
247.1142339082
 20
72.5504448685
 11
247.1142339082
 21
74.0504448685
  0
LINE
  5
473
100
AcDbEntity
  8
DRAFT
100
AcDbLine
 62
250
  6
CONTINUOUS
 10
247.1142339082
 20
135.0504448685
 11
247.1142339082
 21
136.5504448685
  0
LINE
  5
474
100
AcDbEntity
  8
DRAFT
100
AcDbLine
 62
250
  6
CONTINUOUS
 10
247.1142339082
 20
140.6504448685
 11
247.1142339082
 21
210.1583716013
  0
LINE
  5
475
100
AcDbEntity
  8
DRAFT
100
AcDbLine
 62
7
  6
CONTINUOUS
 10
247.1632276163
 20
134.5314772173
 11
247.1632276163
 21
124.8694125196
  0
LINE
  5
476
100
AcDbEntity
  8
DRAFT
100
AcDbLine
 62
7
  6
CONTINUOUS
 10
247.1632276163
 20
124.2314772173
 11
247.1632276163
 21
119.0504448685
  0
LINE
  5
477
100
AcDbEntity
  8
DRAFT
100
AcDbLine
 62
7
  6
CONTINUOUS
 10
247.1632276163
 20
90.0504448685
 11
247.1632276163
 21
84.8694125196
  0
LINE
  5
478
100
AcDbEntity
  8
DRAFT
100
AcDbLine
 62
7
  6
CONTINUOUS
 10
247.1632276163
 20
84.2314772173
 11
247.1632276163
 21
74.5694125196
  0
LINE
  5
479
100
AcDbEntity
  8
DRAFT
100
AcDbLine
 62
7
  6
CONTINUOUS
 10
247.2625096571
 20
74.0504448685
 11
247.2625096571
 21
74.542809977
  0
LINE
  5
47A
100
AcDbEntity
  8
DRAFT
100
AcDbLine
 62
7
  6
CONTINUOUS
 10
247.2625096571
 20
84.25807976
 11
247.2625096571
 21
84.842809977
  0
LINE
  5
47B
100
AcDbEntity
  8
DRAFT
100
AcDbLine
 62
7
  6
CONTINUOUS
 10
247.2625096571
 20
124.25807976
 11
247.2625096571
 21
124.842809977
  0
LINE
  5
47C
100
AcDbEntity
  8
DRAFT
100
AcDbLine
 62
7
  6
CONTINUOUS
 10
247.2625096571
 20
134.55807976
 11
247.2625096571
 21
135.0504448685
  0
LINE
  5
47D
100
AcDbEntity
  8
DRAFT
100
AcDbLine
 62
7
  6
CONTINUOUS
 10
247.3071122646
 20
74.5308587443
 11
247.3071122646
 21
84.2700309926
  0
LINE
  5
47E
100
AcDbEntity
  8
DRAFT
100
AcDbLine
 62
7
  6
CONTINUOUS
 10
247.3071122646
 20
84.8308587443
 11
247.3071122646
 21
93.0504448685
  0
LINE
  5
47F
100
AcDbEntity
  8
DRAFT
100
AcDbLine
 62
7
  6
CONTINUOUS
 10
247.3071122646
 20
116.0504448685
 11
247.3071122646
 21
124.2700309926
  0
LINE
  5
480
100
AcDbEntity
  8
DRAFT
100
AcDbLine
 62
7
  6
CONTINUOUS
 10
247.3071122646
 20
124.8308587443
 11
247.3071122646
 21
134.5700309926
  0
LINE
  5
481
100
AcDbEntity
  8
DRAFT
100
AcDbLine
 62
7
  6
CONTINUOUS
 10
247.6057752323
 20
68.451890571
 11
247.6057752323
 21
72.5489991659
  0
LINE
  5
482
100
AcDbEntity
  8
DRAFT
100
AcDbLine
 62
7
  6
CONTINUOUS
 10
247.6057752323
 20
136.551890571
 11
247.6057752323
 21
140.6489991659
  0
LINE
  5
483
100
AcDbEntity
  8
DRAFT
100
AcDbLine
 62
7
  6
CONTINUOUS
 10
247.6064959553
 20
74.0504448685
 11
247.6064959553
 21
74.4506391262
  0
LINE
  5
484
100
AcDbEntity
  8
DRAFT
100
AcDbLine
 62
7
  6
CONTINUOUS
 10
247.6064959553
 20
84.3502506108
 11
247.6064959553
 21
84.7506391262
  0
LINE
  5
485
100
AcDbEntity
  8
DRAFT
100
AcDbLine
 62
7
  6
CONTINUOUS
 10
247.6064959553
 20
93.0504448685
 11
247.6064959553
 21
116.0504448685
  0
LINE
  5
486
100
AcDbEntity
  8
DRAFT
100
AcDbLine
 62
7
  6
CONTINUOUS
 10
247.6064959553
 20
124.3502506108
 11
247.6064959553
 21
124.7506391262
  0
LINE
  5
487
100
AcDbEntity
  8
DRAFT
100
AcDbLine
 62
7
  6
CONTINUOUS
 10
247.6064959553
 20
134.6502506108
 11
247.6064959553
 21
135.0504448685
  0
LINE
  5
488
100
AcDbEntity
  8
RACCORDO
100
AcDbLine
 62
250
  6
CONTINUOUS
 10
248.6133201487
 20
-1.0574818644
 11
248.6133201487
 21
210.1583716013
  0
LINE
  5
489
100
AcDbEntity
  8
DRAFT
100
AcDbLine
 62
7
  6
CONTINUOUS
 10
247.6057752323
 20
72.5489991659
 11
246.9177458702
 21
71.8609698038
  0
LINE
  5
48A
100
AcDbEntity
  8
DRAFT
100
AcDbLine
 62
7
  6
CONTINUOUS
 10
162.2693987613
 20
203.5347872064
 11
163.2072209348
 21
203.5958799337
  0
LINE
  5
48B
100
AcDbEntity
  8
DRAFT
100
AcDbLine
 62
7
  6
CONTINUOUS
 10
168.3751701273
 20
204.2242622711
 11
168.1072209348
 21
204.2068072061
  0
LINE
  5
48C
100
AcDbEntity
  8
DRAFT
100
AcDbLine
 62
7
  6
CONTINUOUS
 10
137.2693987613
 20
203.5347872064
 11
138.2072209348
 21
203.5958799337
  0
LINE
  5
48D
100
AcDbEntity
  8
DRAFT
100
AcDbLine
 62
7
  6
CONTINUOUS
 10
147.1251701273
 20
204.2242622711
 11
146.8572209348
 21
204.2068072061
  0
LINE
  5
48E
100
AcDbEntity
  8
DRAFT
100
AcDbLine
 62
7
  6
CONTINUOUS
 10
119.7693987613
 20
203.5347872064
 11
120.7072209348
 21
203.5958799337
  0
LINE
  5
48F
100
AcDbEntity
  8
DRAFT
100
AcDbLine
 62
7
  6
CONTINUOUS
 10
125.8751701273
 20
204.2242622711
 11
125.6072209348
 21
204.2068072061
  0
LINE
  5
490
100
AcDbEntity
  8
DRAFT
100
AcDbLine
 62
7
  6
CONTINUOUS
 10
168.3751701273
 20
204.2242622711
 11
170.1392717424
 21
204.2373545668
  0
LINE
  5
491
100
AcDbEntity
  8
DRAFT
100
AcDbLine
 62
7
  6
CONTINUOUS
 10
147.1251701273
 20
204.2242622711
 11
148.8892717424
 21
204.2373545668
  0
LINE
  5
492
100
AcDbEntity
  8
DRAFT
100
AcDbLine
 62
7
  6
CONTINUOUS
 10
125.8751701273
 20
204.2242622711
 11
127.6392717424
 21
204.2373545668
  0
LINE
  5
493
100
AcDbEntity
  8
DRAFT
100
AcDbLine
 62
7
  6
CONTINUOUS
 10
117.5072209348
 20
202.692643289
 11
118.5290381043
 21
202.692643289
  0
LINE
  5
494
100
AcDbEntity
  8
DRAFT
100
AcDbLine
 62
7
  6
CONTINUOUS
 10
119.7693987613
 20
202.692643289
 11
133.7450431083
 21
202.692643289
  0
LINE
  5
495
100
AcDbEntity
  8
DRAFT
100
AcDbLine
 62
7
  6
CONTINUOUS
 10
134.9854037654
 20
202.692643289
 11
136.0290381043
 21
202.692643289
  0
LINE
  5
496
100
AcDbEntity
  8
DRAFT
100
AcDbLine
 62
7
  6
CONTINUOUS
 10
137.2693987613
 20
202.692643289
 11
158.7450431083
 21
202.692643289
  0
LINE
  5
497
100
AcDbEntity
  8
DRAFT
100
AcDbLine
 62
7
  6
CONTINUOUS
 10
159.9854037654
 20
202.692643289
 11
161.0290381043
 21
202.692643289
  0
LINE
  5
498
100
AcDbEntity
  8
DRAFT
100
AcDbLine
 62
7
  6
CONTINUOUS
 10
162.2693987613
 20
202.692643289
 11
176.2450431083
 21
202.692643289
  0
LINE
  5
499
100
AcDbEntity
  8
DRAFT
100
AcDbLine
 62
7
  6
CONTINUOUS
 10
177.4854037654
 20
202.692643289
 11
178.5072209348
 21
202.692643289
  0
LINE
  5
49A
100
AcDbEntity
  8
DRAFT
100
AcDbLine
 62
7
  6
CONTINUOUS
 10
118.5290381043
 20
203.5347872064
 11
119.7693987613
 21
203.5347872064
  0
LINE
  5
49B
100
AcDbEntity
  8
DRAFT
100
AcDbLine
 62
7
  6
CONTINUOUS
 10
133.7450431083
 20
203.5347872064
 11
134.9854037654
 21
203.5347872064
  0
LINE
  5
49C
100
AcDbEntity
  8
DRAFT
100
AcDbLine
 62
7
  6
CONTINUOUS
 10
136.0290381043
 20
203.5347872064
 11
137.2693987613
 21
203.5347872064
  0
LINE
  5
49D
100
AcDbEntity
  8
DRAFT
100
AcDbLine
 62
7
  6
CONTINUOUS
 10
158.7450431083
 20
203.5347872064
 11
159.9854037654
 21
203.5347872064
  0
LINE
  5
49E
100
AcDbEntity
  8
DRAFT
100
AcDbLine
 62
7
  6
CONTINUOUS
 10
161.0290381043
 20
203.5347872064
 11
162.2693987613
 21
203.5347872064
  0
LINE
  5
49F
100
AcDbEntity
  8
DRAFT
100
AcDbLine
 62
7
  6
CONTINUOUS
 10
176.2450431083
 20
203.5347872064
 11
177.4854037654
 21
203.5347872064
  0
LINE
  5
4A0
100
AcDbEntity
  8
DRAFT
100
AcDbLine
 62
7
  6
CONTINUOUS
 10
120.7072209348
 20
203.5958799337
 11
132.8072209348
 21
203.5958799337
  0
LINE
  5
4A1
100
AcDbEntity
  8
DRAFT
100
AcDbLine
 62
7
  6
CONTINUOUS
 10
138.2072209348
 20
203.5958799337
 11
157.8072209348
 21
203.5958799337
  0
LINE
  5
4A2
100
AcDbEntity
  8
DRAFT
100
AcDbLine
 62
7
  6
CONTINUOUS
 10
163.2072209348
 20
203.5958799337
 11
175.3072209348
 21
203.5958799337
  0
LINE
  5
4A3
100
AcDbEntity
  8
DRAFT
100
AcDbLine
 62
7
  6
CONTINUOUS
 10
177.1930536944
 20
204.2068072061
 11
170.4072209348
 21
204.2068072061
  0
LINE
  5
4A4
100
AcDbEntity
  8
DRAFT
100
AcDbLine
 62
7
  6
CONTINUOUS
 10
168.1072209348
 20
204.2068072061
 11
161.3213881753
 21
204.2068072061
  0
LINE
  5
4A5
100
AcDbEntity
  8
DRAFT
100
AcDbLine
 62
7
  6
CONTINUOUS
 10
159.6930536944
 20
204.2068072061
 11
149.1572209348
 21
204.2068072061
  0
LINE
  5
4A6
100
AcDbEntity
  8
DRAFT
100
AcDbLine
 62
7
  6
CONTINUOUS
 10
146.8572209348
 20
204.2068072061
 11
136.3213881753
 21
204.2068072061
  0
LINE
  5
4A7
100
AcDbEntity
  8
DRAFT
100
AcDbLine
 62
7
  6
CONTINUOUS
 10
134.6930536944
 20
204.2068072061
 11
127.9072209348
 21
204.2068072061
  0
LINE
  5
4A8
100
AcDbEntity
  8
DRAFT
100
AcDbLine
 62
7
  6
CONTINUOUS
 10
125.6072209348
 20
204.2068072061
 11
118.8213881753
 21
204.2068072061
  0
LINE
  5
4A9
100
AcDbEntity
  8
DRAFT
100
AcDbLine
 62
7
  6
CONTINUOUS
 10
117.5072209348
 20
204.2373545668
 11
125.8751701273
 21
204.2373545668
  0
LINE
  5
4AA
100
AcDbEntity
  8
DRAFT
100
AcDbLine
 62
7
  6
CONTINUOUS
 10
127.6392717424
 20
204.2373545668
 11
147.1251701273
 21
204.2373545668
  0
LINE
  5
4AB
100
AcDbEntity
  8
DRAFT
100
AcDbLine
 62
7
  6
CONTINUOUS
 10
148.8892717424
 20
204.2373545668
 11
168.3751701273
 21
204.2373545668
  0
LINE
  5
4AC
100
AcDbEntity
  8
DRAFT
100
AcDbLine
 62
7
  6
CONTINUOUS
 10
170.1392717424
 20
204.2373545668
 11
178.5072209348
 21
204.2373545668
  0
LINE
  5
4AD
100
AcDbEntity
  8
DRAFT
100
AcDbLine
 62
7
  6
CONTINUOUS
 10
132.8072209348
 20
203.5958799337
 11
133.7450431083
 21
203.5347872064
  0
LINE
  5
4AE
100
AcDbEntity
  8
DRAFT
100
AcDbLine
 62
7
  6
CONTINUOUS
 10
127.9072209348
 20
204.2068072061
 11
127.6392717424
 21
204.2242622711
  0
LINE
  5
4AF
100
AcDbEntity
  8
DRAFT
100
AcDbLine
 62
7
  6
CONTINUOUS
 10
157.8072209348
 20
203.5958799337
 11
158.7450431083
 21
203.5347872064
  0
LINE
  5
4B0
100
AcDbEntity
  8
DRAFT
100
AcDbLine
 62
7
  6
CONTINUOUS
 10
149.1572209348
 20
204.2068072061
 11
148.8892717424
 21
204.2242622711
  0
LINE
  5
4B1
100
AcDbEntity
  8
DRAFT
100
AcDbLine
 62
7
  6
CONTINUOUS
 10
175.3072209348
 20
203.5958799337
 11
176.2450431083
 21
203.5347872064
  0
LINE
  5
4B2
100
AcDbEntity
  8
DRAFT
100
AcDbLine
 62
7
  6
CONTINUOUS
 10
170.4072209348
 20
204.2068072061
 11
170.1392717424
 21
204.2242622711
  0
LINE
  5
4B3
100
AcDbEntity
  8
DRAFT
100
AcDbLine
 62
7
  6
CONTINUOUS
 10
247.6057752323
 20
136.551890571
 11
246.9177458702
 21
137.2399199331
  0
LWPOLYLINE
  5
4B4
100
AcDbEntity
  8
RACCORDO
100
AcDbPolyline
 62
250
  6
CONTINUOUS
 90
16
 70
0
 10
247.1142339082
 20
210.1583716013
 10
247.1058006689
 20
210.3158688982
 10
247.0818059864
 20
210.468909928
 10
247.0422498607
 20
210.6174946908
 10
246.9864423614
 20
210.7632707082
 10
246.9150734188
 20
210.9045904585
 10
246.830212824
 20
211.0365113772
 10
246.7312547633
 20
211.1587242361
 10
246.6188050503
 20
211.2715382634
 10
246.4967509162
 20
211.3709385792
 10
246.3647347741
 20
211.4563337394
 10
246.2231142109
 20
211.528315188
 10
246.0768492194
 20
211.5846423774
 10
245.9275931305
 20
211.6245684582
 10
245.7736926133
 20
211.6488402796
 10
245.6151476677
 20
211.6574578418
  0
LWPOLYLINE
  5
4B5
100
AcDbEntity
  8
RACCORDO
100
AcDbPolyline
 62
250
  6
CONTINUOUS
 90
16
 70
0
 10
248.6133201487
 20
210.1583716013
 10
248.5969172156
 20
210.4698648422
 10
248.548168773
 20
210.7783822812
 10
248.4674747846
 20
211.0805608067
 10
248.3556128571
 20
211.3730268416
 10
248.2136653804
 20
211.6526087758
 10
248.0429520929
 20
211.9163435749
 10
247.8449422014
 20
212.1615036774
 10
247.6218529043
 20
212.3849508693
 10
247.3767441716
 20
212.5835468393
 10
247.1125528486
 20
212.755064148
 10
246.8320927891
 20
212.8978199223
 10
246.538778749
 20
213.0102316722
 10
246.2359896631
 20
213.0912166288
 10
245.9269836056
 20
213.1401052822
 10
245.6151476677
 20
213.1565440824
  0
LINE
  5
4B6
100
AcDbEntity
  8
RACCORDO
100
AcDbLine
 62
7
  6
CONTINUOUS
 10
251.0072209348
 20
-3.4513826505
 11
251.0072209348
 21
212.5522723874
  0
LWPOLYLINE
  5
4B7
100
AcDbEntity
  8
RACCORDO
100
AcDbPolyline
 62
250
  6
CONTINUOUS
 90
16
 70
0
 10
50.399294202
 20
211.6574578418
 10
50.2417969051
 20
211.6490246026
 10
50.0887558753
 20
211.6250299201
 10
49.9401711125
 20
211.5854737943
 10
49.7943950951
 20
211.529666295
 10
49.6530753448
 20
211.4582973525
 10
49.5211544261
 20
211.3734367576
 10
49.3989415672
 20
211.2744786969
 10
49.2861275399
 20
211.1620289839
 10
49.1867272241
 20
211.0399748499
 10
49.1013320639
 20
210.9079587077
 10
49.0293506153
 20
210.7663381445
 10
48.9730234259
 20
210.6200731531
 10
48.9330973451
 20
210.4708170641
 10
48.9088255237
 20
210.3169165469
 10
48.9002079615
 20
210.1583716013
  0
LINE
  5
4B8
100
AcDbEntity
  8
RACCORDO
100
AcDbLine
 62
250
  6
CONTINUOUS
 10
48.9002079615
 20
210.1583716013
 11
47.4011217209
 21
210.1583716013
  0
LINE
  5
4B9
100
AcDbEntity
  8
RACCORDO
100
AcDbLine
 62
250
  6
CONTINUOUS
 10
247.1142339082
 20
210.1583716013
 11
248.6133201487
 21
210.1583716006
  0
LINE
  5
4BA
100
AcDbEntity
  8
DRAFT
100
AcDbLine
 62
7
  6
CONTINUOUS
 10
177.8540863109
 20
211.2057335907
 11
168.4603555588
 21
211.2057335907
  0
LINE
  5
4BB
100
AcDbEntity
  8
DRAFT
100
AcDbLine
 62
7
  6
CONTINUOUS
 10
167.5540863109
 20
211.2057335907
 11
128.4603555588
 21
211.2057335907
  0
LINE
  5
4BC
100
AcDbEntity
  8
DRAFT
100
AcDbLine
 62
7
  6
CONTINUOUS
 10
127.5540863109
 20
211.2057335907
 11
118.1603555588
 21
211.2057335907
  0
LINE
  5
4BD
100
AcDbEntity
  8
DRAFT
100
AcDbLine
 62
7
  6
CONTINUOUS
 10
177.907868526
 20
211.4064515499
 11
168.4065733437
 21
211.4064515499
  0
LINE
  5
4BE
100
AcDbEntity
  8
DRAFT
100
AcDbLine
 62
7
  6
CONTINUOUS
 10
167.607868526
 20
211.4064515499
 11
162.5072209348
 21
211.4064515499
  0
LINE
  5
4BF
100
AcDbEntity
  8
DRAFT
100
AcDbLine
 62
7
  6
CONTINUOUS
 10
118.1065733437
 20
211.4064515499
 11
127.607868526
 21
211.4064515499
  0
LINE
  5
4C0
100
AcDbEntity
  8
DRAFT
100
AcDbLine
 62
7
  6
CONTINUOUS
 10
128.4065733437
 20
211.4064515499
 11
133.5072209348
 21
211.4064515499
  0
LINE
  5
4C1
100
AcDbEntity
  8
ASSI
100
AcDbLine
 62
250
  6
CONTINUOUS
 10
245.6151476677
 20
211.6574578418
 11
178.5072209348
 21
211.6574578418
  0
LINE
  5
4C2
100
AcDbEntity
  8
ASSI
100
AcDbLine
 62
250
  6
CONTINUOUS
 10
117.5072209348
 20
211.6574578418
 11
50.399294202
 21
211.6574578418
  0
LINE
  5
4C3
100
AcDbEntity
  8
DRAFT
100
AcDbLine
 62
7
  6
CONTINUOUS
 10
118.026188586
 20
211.7064515499
 11
127.6882532837
 21
211.7064515499
  0
LINE
  5
4C4
100
AcDbEntity
  8
DRAFT
100
AcDbLine
 62
7
  6
CONTINUOUS
 10
128.326188586
 20
211.7064515499
 11
133.5072209348
 21
211.7064515499
  0
LINE
  5
4C5
100
AcDbEntity
  8
DRAFT
100
AcDbLine
 62
7
  6
CONTINUOUS
 10
162.5072209348
 20
211.7064515499
 11
167.6882532837
 21
211.7064515499
  0
LINE
  5
4C6
100
AcDbEntity
  8
DRAFT
100
AcDbLine
 62
7
  6
CONTINUOUS
 10
168.326188586
 20
211.7064515499
 11
177.9882532837
 21
211.7064515499
  0
LINE
  5
4C7
100
AcDbEntity
  8
DRAFT
100
AcDbLine
 62
7
  6
CONTINUOUS
 10
178.5072209348
 20
211.8057335907
 11
178.0148558263
 21
211.8057335907
  0
LINE
  5
4C8
100
AcDbEntity
  8
DRAFT
100
AcDbLine
 62
7
  6
CONTINUOUS
 10
168.2995860433
 20
211.8057335907
 11
167.7148558263
 21
211.8057335907
  0
LINE
  5
4C9
100
AcDbEntity
  8
DRAFT
100
AcDbLine
 62
7
  6
CONTINUOUS
 10
128.2995860433
 20
211.8057335907
 11
127.7148558263
 21
211.8057335907
  0
LINE
  5
4CA
100
AcDbEntity
  8
DRAFT
100
AcDbLine
 62
7
  6
CONTINUOUS
 10
117.9995860433
 20
211.8057335907
 11
117.5072209348
 21
211.8057335907
  0
LINE
  5
4CB
100
AcDbEntity
  8
DRAFT
100
AcDbLine
 62
7
  6
CONTINUOUS
 10
178.026807059
 20
211.8503361982
 11
168.2876348107
 21
211.8503361982
  0
LINE
  5
4CC
100
AcDbEntity
  8
DRAFT
100
AcDbLine
 62
7
  6
CONTINUOUS
 10
167.726807059
 20
211.8503361982
 11
159.5072209348
 21
211.8503361982
  0
LINE
  5
4CD
100
AcDbEntity
  8
DRAFT
100
AcDbLine
 62
7
  6
CONTINUOUS
 10
136.5072209348
 20
211.8503361982
 11
128.2876348107
 21
211.8503361982
  0
LINE
  5
4CE
100
AcDbEntity
  8
DRAFT
100
AcDbLine
 62
7
  6
CONTINUOUS
 10
127.726807059
 20
211.8503361982
 11
117.9876348107
 21
211.8503361982
  0
LINE
  5
4CF
100
AcDbEntity
  8
DRAFT
100
AcDbLine
 62
7
  6
CONTINUOUS
 10
178.5072209348
 20
212.1497198889
 11
178.1070266771
 21
212.1497198889
  0
LINE
  5
4D0
100
AcDbEntity
  8
DRAFT
100
AcDbLine
 62
7
  6
CONTINUOUS
 10
168.2074151925
 20
212.1497198889
 11
167.8070266771
 21
212.1497198889
  0
LINE
  5
4D1
100
AcDbEntity
  8
DRAFT
100
AcDbLine
 62
7
  6
CONTINUOUS
 10
159.5072209348
 20
212.1497198889
 11
136.5072209348
 21
212.1497198889
  0
LINE
  5
4D2
100
AcDbEntity
  8
DRAFT
100
AcDbLine
 62
7
  6
CONTINUOUS
 10
128.2074151925
 20
212.1497198889
 11
127.8070266771
 21
212.1497198889
  0
LINE
  5
4D3
100
AcDbEntity
  8
DRAFT
100
AcDbLine
 62
7
  6
CONTINUOUS
 10
117.9074151925
 20
212.1497198889
 11
117.5072209348
 21
212.1497198889
  0
LINE
  5
4D4
100
AcDbEntity
  8
RACCORDO
100
AcDbLine
 62
250
  6
CONTINUOUS
 10
245.6151476677
 20
213.1565440824
 11
50.399294202
 21
213.1565440824
  0
LINE
  5
4D5
100
AcDbEntity
  8
RACCORDO
100
AcDbLine
 62
7
  6
CONTINUOUS
 10
248.0090484538
 20
215.5504448685
 11
48.0053934159
 21
215.5504448685
  0
LWPOLYLINE
  5
4D6
100
AcDbEntity
  8
RACCORDO
100
AcDbPolyline
 62
250
  6
CONTINUOUS
 90
16
 70
0
 10
50.399294202
 20
213.1565440824
 10
50.0878009611
 20
213.1401411492
 10
49.7792835221
 20
213.0913927066
 10
49.4771049966
 20
213.0106987182
 10
49.1846389617
 20
212.8988367908
 10
48.9050570275
 20
212.756889314
 10
48.6413222284
 20
212.5861760265
 10
48.3961621259
 20
212.388166135
 10
48.172714934
 20
212.1650768379
 10
47.974118964
 20
211.9199681052
 10
47.8026016553
 20
211.6557767822
 10
47.659845881
 20
211.3753167227
 10
47.5474341311
 20
211.0820026826
 10
47.4664491745
 20
210.7792135967
 10
47.4175605211
 20
210.4702075393
 10
47.4011217209
 20
210.1583716013
  0
CIRCLE
  5
4D7
100
AcDbEntity
  8
DRAFT
100
AcDbCircle
 62
7
  6
CONTINUOUS
 10
98.0072209348
 20
39.5504448685
 40
20.5087275325
  0
CIRCLE
  5
4D8
100
AcDbEntity
  8
0
100
AcDbCircle
 62
7
  6
CONTINUOUS
 10
98.0072209348
 20
39.5504448685
 40
20.1
  0
CIRCLE
  5
4D9
100
AcDbEntity
  8
0
100
AcDbCircle
 62
7
  6
CONTINUOUS
 10
98.0072209348
 20
39.5504448685
 40
19.6
  0
CIRCLE
  5
4DA
100
AcDbEntity
  8
DRAFT
100
AcDbCircle
 62
7
  6
CONTINUOUS
 10
98.0072209348
 20
39.5504448685
 40
16.5087275325
  0
CIRCLE
  5
4DB
100
AcDbEntity
  8
0
100
AcDbCircle
 62
7
  6
CONTINUOUS
 10
98.0072209348
 20
39.5504448685
 40
16.1
  0
CIRCLE
  5
4DC
100
AcDbEntity
  8
0
100
AcDbCircle
 62
7
  6
CONTINUOUS
 10
98.0072209348
 20
39.5504448685
 40
15.6
  0
CIRCLE
  5
4DD
100
AcDbEntity
  8
DRAFT
100
AcDbCircle
 62
7
  6
CONTINUOUS
 10
98.0072209348
 20
39.5504448685
 40
13.0087275325
  0
CIRCLE
  5
4DE
100
AcDbEntity
  8
0
100
AcDbCircle
 62
7
  6
CONTINUOUS
 10
98.0072209348
 20
39.5504448685
 40
12.6
  0
CIRCLE
  5
4DF
100
AcDbEntity
  8
0
100
AcDbCircle
 62
7
  6
CONTINUOUS
 10
98.0072209348
 20
39.5504448685
 40
12.1
  0
CIRCLE
  5
4E0
100
AcDbEntity
  8
DRAFT
100
AcDbCircle
 62
7
  6
CONTINUOUS
 10
73.0072209348
 20
9.5504448685
 40
6.75
  0
CIRCLE
  5
4E1
100
AcDbEntity
  8
RACCORDO
100
AcDbCircle
 62
250
  6
CONTINUOUS
 10
73.0072209348
 20
9.5504448685
 40
6.7024430374
  0
CIRCLE
  5
4E2
100
AcDbEntity
  8
RACCORDO
100
AcDbCircle
 62
250
  6
CONTINUOUS
 10
73.0072209348
 20
9.5504448685
 40
6.204339262
  0
CIRCLE
  5
4E3
100
AcDbEntity
  8
DRAFT
100
AcDbCircle
 62
7
  6
CONTINUOUS
 10
73.0072209348
 20
9.5504448685
 40
5.3374886635
  0
CIRCLE
  5
4E4
100
AcDbEntity
  8
DRAFT
100
AcDbCircle
 62
7
  6
CONTINUOUS
 10
73.0072209348
 20
9.5504448685
 40
5.25
  0
CIRCLE
  5
4E5
100
AcDbEntity
  8
DRAFT
100
AcDbCircle
 62
7
  6
CONTINUOUS
 10
58.0072209348
 20
19.5504448685
 40
3.0
  0
CIRCLE
  5
4E6
100
AcDbEntity
  8
DRAFT
100
AcDbCircle
 62
7
  6
CONTINUOUS
 10
58.0072209348
 20
19.5504448685
 40
2.2930698704
  0
CIRCLE
  5
4E7
100
AcDbEntity
  8
0
100
AcDbCircle
 62
7
  6
CONTINUOUS
 10
58.0072209348
 20
19.5504448685
 40
1.5
  0
CIRCLE
  5
4E8
100
AcDbEntity
  8
DRAFT
100
AcDbCircle
 62
7
  6
CONTINUOUS
 10
73.0072209348
 20
199.5504448685
 40
6.75
  0
CIRCLE
  5
4E9
100
AcDbEntity
  8
RACCORDO
100
AcDbCircle
 62
250
  6
CONTINUOUS
 10
73.0072209348
 20
199.5504448685
 40
6.7024430374
  0
CIRCLE
  5
4EA
100
AcDbEntity
  8
RACCORDO
100
AcDbCircle
 62
250
  6
CONTINUOUS
 10
73.0072209348
 20
199.5504448685
 40
6.204339262
  0
CIRCLE
  5
4EB
100
AcDbEntity
  8
DRAFT
100
AcDbCircle
 62
7
  6
CONTINUOUS
 10
73.0072209348
 20
199.5504448685
 40
5.3374886635
  0
CIRCLE
  5
4EC
100
AcDbEntity
  8
DRAFT
100
AcDbCircle
 62
7
  6
CONTINUOUS
 10
73.0072209348
 20
199.5504448685
 40
5.25
  0
CIRCLE
  5
4ED
100
AcDbEntity
  8
DRAFT
100
AcDbCircle
 62
7
  6
CONTINUOUS
 10
58.0072209348
 20
189.5504448685
 40
3.0
  0
CIRCLE
  5
4EE
100
AcDbEntity
  8
DRAFT
100
AcDbCircle
 62
7
  6
CONTINUOUS
 10
58.0072209348
 20
189.5504448685
 40
2.2930698704
  0
CIRCLE
  5
4EF
100
AcDbEntity
  8
0
100
AcDbCircle
 62
7
  6
CONTINUOUS
 10
58.0072209348
 20
189.5504448685
 40
1.5
  0
CIRCLE
  5
4F0
100
AcDbEntity
  8
DRAFT
100
AcDbCircle
 62
7
  6
CONTINUOUS
 10
98.0072209348
 20
104.5504448685
 40
20.5087275325
  0
CIRCLE
  5
4F1
100
AcDbEntity
  8
0
100
AcDbCircle
 62
7
  6
CONTINUOUS
 10
98.0072209348
 20
104.5504448685
 40
20.1
  0
CIRCLE
  5
4F2
100
AcDbEntity
  8
0
100
AcDbCircle
 62
7
  6
CONTINUOUS
 10
98.0072209348
 20
104.5504448685
 40
19.6
  0
CIRCLE
  5
4F3
100
AcDbEntity
  8
DRAFT
100
AcDbCircle
 62
7
  6
CONTINUOUS
 10
98.0072209348
 20
104.5504448685
 40
16.5087275325
  0
CIRCLE
  5
4F4
100
AcDbEntity
  8
0
100
AcDbCircle
 62
7
  6
CONTINUOUS
 10
98.0072209348
 20
104.5504448685
 40
16.1
  0
CIRCLE
  5
4F5
100
AcDbEntity
  8
0
100
AcDbCircle
 62
7
  6
CONTINUOUS
 10
98.0072209348
 20
104.5504448685
 40
15.6
  0
CIRCLE
  5
4F6
100
AcDbEntity
  8
DRAFT
100
AcDbCircle
 62
7
  6
CONTINUOUS
 10
98.0072209348
 20
104.5504448685
 40
13.0087275325
  0
CIRCLE
  5
4F7
100
AcDbEntity
  8
0
100
AcDbCircle
 62
7
  6
CONTINUOUS
 10
98.0072209348
 20
104.5504448685
 40
12.6
  0
CIRCLE
  5
4F8
100
AcDbEntity
  8
0
100
AcDbCircle
 62
7
  6
CONTINUOUS
 10
98.0072209348
 20
104.5504448685
 40
12.1
  0
CIRCLE
  5
4F9
100
AcDbEntity
  8
DRAFT
100
AcDbCircle
 62
7
  6
CONTINUOUS
 10
98.0072209348
 20
169.5504448685
 40
20.5087275325
  0
CIRCLE
  5
4FA
100
AcDbEntity
  8
0
100
AcDbCircle
 62
7
  6
CONTINUOUS
 10
98.0072209348
 20
169.5504448685
 40
20.1
  0
CIRCLE
  5
4FB
100
AcDbEntity
  8
0
100
AcDbCircle
 62
7
  6
CONTINUOUS
 10
98.0072209348
 20
169.5504448685
 40
19.6
  0
CIRCLE
  5
4FC
100
AcDbEntity
  8
DRAFT
100
AcDbCircle
 62
7
  6
CONTINUOUS
 10
98.0072209348
 20
169.5504448685
 40
16.5087275325
  0
CIRCLE
  5
4FD
100
AcDbEntity
  8
0
100
AcDbCircle
 62
7
  6
CONTINUOUS
 10
98.0072209348
 20
169.5504448685
 40
16.1
  0
CIRCLE
  5
4FE
100
AcDbEntity
  8
0
100
AcDbCircle
 62
7
  6
CONTINUOUS
 10
98.0072209348
 20
169.5504448685
 40
15.6
  0
CIRCLE
  5
4FF
100
AcDbEntity
  8
DRAFT
100
AcDbCircle
 62
7
  6
CONTINUOUS
 10
98.0072209348
 20
169.5504448685
 40
13.0087275325
  0
CIRCLE
  5
500
100
AcDbEntity
  8
0
100
AcDbCircle
 62
7
  6
CONTINUOUS
 10
98.0072209348
 20
169.5504448685
 40
12.6
  0
CIRCLE
  5
501
100
AcDbEntity
  8
0
100
AcDbCircle
 62
7
  6
CONTINUOUS
 10
98.0072209348
 20
169.5504448685
 40
12.1
  0
CIRCLE
  5
502
100
AcDbEntity
  8
DRAFT
100
AcDbCircle
 62
7
  6
CONTINUOUS
 10
148.0072209348
 20
29.5504448685
 40
4.8
  0
CIRCLE
  5
503
100
AcDbEntity
  8
RACCORDO
100
AcDbCircle
 62
250
  6
CONTINUOUS
 10
148.0072209348
 20
29.5504448685
 40
4.7524429187
  0
CIRCLE
  5
504
100
AcDbEntity
  8
RACCORDO
100
AcDbCircle
 62
250
  6
CONTINUOUS
 10
148.0072209348
 20
29.5504448685
 40
4.2543272112
  0
CIRCLE
  5
505
100
AcDbEntity
  8
DRAFT
100
AcDbCircle
 62
7
  6
CONTINUOUS
 10
223.0072209348
 20
9.5504448685
 40
6.75
  0
CIRCLE
  5
506
100
AcDbEntity
  8
RACCORDO
100
AcDbCircle
 62
250
  6
CONTINUOUS
 10
223.0072209348
 20
9.5504448685
 40
6.7024430374
  0
CIRCLE
  5
507
100
AcDbEntity
  8
RACCORDO
100
AcDbCircle
 62
250
  6
CONTINUOUS
 10
223.0072209348
 20
9.5504448685
 40
6.204339262
  0
CIRCLE
  5
508
100
AcDbEntity
  8
DRAFT
100
AcDbCircle
 62
7
  6
CONTINUOUS
 10
223.0072209348
 20
9.5504448685
 40
5.3374886635
  0
CIRCLE
  5
509
100
AcDbEntity
  8
DRAFT
100
AcDbCircle
 62
7
  6
CONTINUOUS
 10
223.0072209348
 20
9.5504448685
 40
5.25
  0
CIRCLE
  5
50A
100
AcDbEntity
  8
DRAFT
100
AcDbCircle
 62
7
  6
CONTINUOUS
 10
238.0072209348
 20
19.5504448685
 40
3.0
  0
CIRCLE
  5
50B
100
AcDbEntity
  8
DRAFT
100
AcDbCircle
 62
7
  6
CONTINUOUS
 10
238.0072209348
 20
19.5504448685
 40
2.2930698704
  0
CIRCLE
  5
50C
100
AcDbEntity
  8
0
100
AcDbCircle
 62
7
  6
CONTINUOUS
 10
238.0072209348
 20
19.5504448685
 40
1.5
  0
CIRCLE
  5
50D
100
AcDbEntity
  8
DRAFT
100
AcDbCircle
 62
7
  6
CONTINUOUS
 10
198.0072209348
 20
39.5504448685
 40
20.5087275325
  0
CIRCLE
  5
50E
100
AcDbEntity
  8
0
100
AcDbCircle
 62
7
  6
CONTINUOUS
 10
198.0072209348
 20
39.5504448685
 40
20.1
  0
CIRCLE
  5
50F
100
AcDbEntity
  8
0
100
AcDbCircle
 62
7
  6
CONTINUOUS
 10
198.0072209348
 20
39.5504448685
 40
19.6
  0
CIRCLE
  5
510
100
AcDbEntity
  8
DRAFT
100
AcDbCircle
 62
7
  6
CONTINUOUS
 10
198.0072209348
 20
39.5504448685
 40
16.5087275325
  0
CIRCLE
  5
511
100
AcDbEntity
  8
0
100
AcDbCircle
 62
7
  6
CONTINUOUS
 10
198.0072209348
 20
39.5504448685
 40
16.1
  0
CIRCLE
  5
512
100
AcDbEntity
  8
0
100
AcDbCircle
 62
7
  6
CONTINUOUS
 10
198.0072209348
 20
39.5504448685
 40
15.6
  0
CIRCLE
  5
513
100
AcDbEntity
  8
DRAFT
100
AcDbCircle
 62
7
  6
CONTINUOUS
 10
198.0072209348
 20
39.5504448685
 40
13.0087275325
  0
CIRCLE
  5
514
100
AcDbEntity
  8
0
100
AcDbCircle
 62
7
  6
CONTINUOUS
 10
198.0072209348
 20
39.5504448685
 40
12.6
  0
CIRCLE
  5
515
100
AcDbEntity
  8
0
100
AcDbCircle
 62
7
  6
CONTINUOUS
 10
198.0072209348
 20
39.5504448685
 40
12.1
  0
CIRCLE
  5
516
100
AcDbEntity
  8
DRAFT
100
AcDbCircle
 62
7
  6
CONTINUOUS
 10
148.0072209348
 20
179.5504448685
 40
4.8
  0
CIRCLE
  5
517
100
AcDbEntity
  8
RACCORDO
100
AcDbCircle
 62
250
  6
CONTINUOUS
 10
148.0072209348
 20
179.5504448685
 40
4.7524429187
  0
CIRCLE
  5
518
100
AcDbEntity
  8
RACCORDO
100
AcDbCircle
 62
250
  6
CONTINUOUS
 10
148.0072209348
 20
179.5504448685
 40
4.2543272112
  0
CIRCLE
  5
519
100
AcDbEntity
  8
DRAFT
100
AcDbCircle
 62
7
  6
CONTINUOUS
 10
198.0072209348
 20
104.5504448685
 40
20.5087275325
  0
CIRCLE
  5
51A
100
AcDbEntity
  8
0
100
AcDbCircle
 62
7
  6
CONTINUOUS
 10
198.0072209348
 20
104.5504448685
 40
20.1
  0
CIRCLE
  5
51B
100
AcDbEntity
  8
0
100
AcDbCircle
 62
7
  6
CONTINUOUS
 10
198.0072209348
 20
104.5504448685
 40
19.6
  0
CIRCLE
  5
51C
100
AcDbEntity
  8
DRAFT
100
AcDbCircle
 62
7
  6
CONTINUOUS
 10
198.0072209348
 20
104.5504448685
 40
16.5087275325
  0
CIRCLE
  5
51D
100
AcDbEntity
  8
0
100
AcDbCircle
 62
7
  6
CONTINUOUS
 10
198.0072209348
 20
104.5504448685
 40
16.1
  0
CIRCLE
  5
51E
100
AcDbEntity
  8
0
100
AcDbCircle
 62
7
  6
CONTINUOUS
 10
198.0072209348
 20
104.5504448685
 40
15.6
  0
CIRCLE
  5
51F
100
AcDbEntity
  8
DRAFT
100
AcDbCircle
 62
7
  6
CONTINUOUS
 10
198.0072209348
 20
104.5504448685
 40
13.0087275325
  0
CIRCLE
  5
520
100
AcDbEntity
  8
0
100
AcDbCircle
 62
7
  6
CONTINUOUS
 10
198.0072209348
 20
104.5504448685
 40
12.6
  0
CIRCLE
  5
521
100
AcDbEntity
  8
0
100
AcDbCircle
 62
7
  6
CONTINUOUS
 10
198.0072209348
 20
104.5504448685
 40
12.1
  0
CIRCLE
  5
522
100
AcDbEntity
  8
DRAFT
100
AcDbCircle
 62
7
  6
CONTINUOUS
 10
198.0072209348
 20
169.5504448685
 40
20.5087275325
  0
CIRCLE
  5
523
100
AcDbEntity
  8
0
100
AcDbCircle
 62
7
  6
CONTINUOUS
 10
198.0072209348
 20
169.5504448685
 40
20.1
  0
CIRCLE
  5
524
100
AcDbEntity
  8
0
100
AcDbCircle
 62
7
  6
CONTINUOUS
 10
198.0072209348
 20
169.5504448685
 40
19.6
  0
CIRCLE
  5
525
100
AcDbEntity
  8
DRAFT
100
AcDbCircle
 62
7
  6
CONTINUOUS
 10
198.0072209348
 20
169.5504448685
 40
16.5087275325
  0
CIRCLE
  5
526
100
AcDbEntity
  8
0
100
AcDbCircle
 62
7
  6
CONTINUOUS
 10
198.0072209348
 20
169.5504448685
 40
16.1
  0
CIRCLE
  5
527
100
AcDbEntity
  8
0
100
AcDbCircle
 62
7
  6
CONTINUOUS
 10
198.0072209348
 20
169.5504448685
 40
15.6
  0
CIRCLE
  5
528
100
AcDbEntity
  8
DRAFT
100
AcDbCircle
 62
7
  6
CONTINUOUS
 10
198.0072209348
 20
169.5504448685
 40
13.0087275325
  0
CIRCLE
  5
529
100
AcDbEntity
  8
0
100
AcDbCircle
 62
7
  6
CONTINUOUS
 10
198.0072209348
 20
169.5504448685
 40
12.6
  0
CIRCLE
  5
52A
100
AcDbEntity
  8
0
100
AcDbCircle
 62
7
  6
CONTINUOUS
 10
198.0072209348
 20
169.5504448685
 40
12.1
  0
CIRCLE
  5
52B
100
AcDbEntity
  8
DRAFT
100
AcDbCircle
 62
7
  6
CONTINUOUS
 10
223.0072209348
 20
199.5504448685
 40
6.75
  0
CIRCLE
  5
52C
100
AcDbEntity
  8
RACCORDO
100
AcDbCircle
 62
250
  6
CONTINUOUS
 10
223.0072209348
 20
199.5504448685
 40
6.7024430374
  0
CIRCLE
  5
52D
100
AcDbEntity
  8
RACCORDO
100
AcDbCircle
 62
250
  6
CONTINUOUS
 10
223.0072209348
 20
199.5504448685
 40
6.204339262
  0
CIRCLE
  5
52E
100
AcDbEntity
  8
DRAFT
100
AcDbCircle
 62
7
  6
CONTINUOUS
 10
223.0072209348
 20
199.5504448685
 40
5.3374886635
  0
CIRCLE
  5
52F
100
AcDbEntity
  8
DRAFT
100
AcDbCircle
 62
7
  6
CONTINUOUS
 10
223.0072209348
 20
199.5504448685
 40
5.25
  0
CIRCLE
  5
530
100
AcDbEntity
  8
DRAFT
100
AcDbCircle
 62
7
  6
CONTINUOUS
 10
238.0072209348
 20
189.5504448685
 40
3.0
  0
CIRCLE
  5
531
100
AcDbEntity
  8
DRAFT
100
AcDbCircle
 62
7
  6
CONTINUOUS
 10
238.0072209348
 20
189.5504448685
 40
2.2930698704
  0
CIRCLE
  5
532
100
AcDbEntity
  8
0
100
AcDbCircle
 62
7
  6
CONTINUOUS
 10
238.0072209348
 20
189.5504448685
 40
1.5
  0
ELLIPSE
  5
533
100
AcDbEntity
  8
RACCORDO
100
AcDbEllipse
 62
7
  6
CONTINUOUS
 10
48.0090495677
 20
-3.4477264986
 30
0.0
 11
2.1239056338
 21
2.1239056338
 31
0.0
 40
0.998782766
 41
-3.9263818294
 42
-2.3568034778
  0
ELLIPSE
  5
534
100
AcDbEntity
  8
RACCORDO
100
AcDbEllipse
 62
7
  6
CONTINUOUS
 10
248.0053923019
 20
-3.4477264986
 30
0.0
 11
2.1239056338
 21
-2.1239056338
 31
0.0
 40
0.998782766
 41
-0.7847891758
 42
0.7847891758
  0
ELLIPSE
  5
535
100
AcDbEntity
  8
RACCORDO
100
AcDbEllipse
 62
7
  6
CONTINUOUS
 10
248.0053923019
 20
212.5486162356
 30
0.0
 11
2.1239056338
 21
2.1239056338
 31
0.0
 40
0.998782766
 41
-0.7847891758
 42
0.7847891758
  0
ELLIPSE
  5
536
100
AcDbEntity
  8
RACCORDO
100
AcDbEllipse
 62
7
  6
CONTINUOUS
 10
48.0090495677
 20
212.5486162356
 30
0.0
 11
2.1239056338
 21
-2.1239056338
 31
0.0
 40
0.998782766
 41
2.3568034778
 42
3.9263818294
  0
ELLIPSE
  5
537
100
AcDbEntity
  8
DRAFT
100
AcDbEllipse
 62
7
  6
CONTINUOUS
 10
247.1195932773
 20
104.5504448685
 30
0.0
 11
-0.0
 21
14.5
 31
0.0
 40
0.0087268678
 41
-0.0
 42
3.0660999067
  0
ELLIPSE
  5
538
100
AcDbEntity
  8
DRAFT
100
AcDbEllipse
 62
7
  6
CONTINUOUS
 10
247.1719544841
 20
104.5504448685
 30
0.0
 11
0.0
 21
11.5
 31
0.0
 40
0.0087268678
 41
6.2831853072
 42
9.4247779608
  0
ELLIPSE
  5
539
100
AcDbEntity
  8
DRAFT
100
AcDbEllipse
 62
7
  6
CONTINUOUS
 10
247.4719544841
 20
104.5504448685
 30
0.0
 11
0.0
 21
11.5
 31
0.0
 40
0.0087268678
 41
0.0
 42
3.0724035304
  0
ELLIPSE
  5
53A
100
AcDbEntity
  8
DRAFT
100
AcDbEllipse
 62
7
  6
CONTINUOUS
 10
48.8948485923
 20
104.5504448685
 30
0.0
 11
0.0
 21
14.5
 31
0.0
 40
0.0087268678
 41
3.1415926536
 42
6.2076925603
  0
ELLIPSE
  5
53B
100
AcDbEntity
  8
DRAFT
100
AcDbEllipse
 62
7
  6
CONTINUOUS
 10
48.8424873856
 20
104.5504448685
 30
0.0
 11
0.0
 21
11.5
 31
0.0
 40
0.0087268678
 41
3.1415926536
 42
6.2831853072
  0
ELLIPSE
  5
53C
100
AcDbEntity
  8
DRAFT
100
AcDbEllipse
 62
7
  6
CONTINUOUS
 10
48.5424873856
 20
104.5504448685
 30
0.0
 11
-0.0
 21
11.5
 31
0.0
 40
0.0087268678
 41
3.1415926536
 42
6.213996184
  0
ELLIPSE
  5
53D
100
AcDbEntity
  8
DRAFT
100
AcDbEllipse
 62
7
  6
CONTINUOUS
 10
148.0072209348
 20
211.662817211
 30
0.0
 11
14.5
 21
-0.0
 31
0.0
 40
0.0087268678
 41
3.1415926536
 42
6.2076925044
  0
ELLIPSE
  5
53E
100
AcDbEntity
  8
DRAFT
100
AcDbEllipse
 62
7
  6
CONTINUOUS
 10
148.0072209348
 20
211.7151784177
 30
0.0
 11
11.5
 21
0.0
 31
0.0
 40
0.0087268678
 41
3.1415926536
 42
6.2831853072
  0
ELLIPSE
  5
53F
100
AcDbEntity
  8
DRAFT
100
AcDbEllipse
 62
7
  6
CONTINUOUS
 10
148.0072209348
 20
212.0151784177
 30
0.0
 11
11.5
 21
0.0
 31
0.0
 40
0.0087268678
 41
3.1415926536
 42
6.2139999846
  0
ELLIPSE
  5
540
100
AcDbEntity
  8
DRAFT
100
AcDbEllipse
 62
7
  6
CONTINUOUS
 10
148.0072209348
 20
-2.561927474
 30
0.0
 11
14.5
 21
0.0
 31
0.0
 40
0.0087268678
 41
6.2831853072
 42
9.3492851694
  0
ELLIPSE
  5
541
100
AcDbEntity
  8
DRAFT
100
AcDbEllipse
 62
7
  6
CONTINUOUS
 10
148.0072209348
 20
-2.6142886808
 30
0.0
 11
11.5
 21
0.0
 31
0.0
 40
0.0087268678
 41
6.2831853072
 42
9.4247779608
  0
ELLIPSE
  5
542
100
AcDbEntity
  8
DRAFT
100
AcDbEllipse
 62
7
  6
CONTINUOUS
 10
148.0072209348
 20
-2.9142886808
 30
0.0
 11
11.5
 21
0.0
 31
0.0
 40
0.0087268678
 41
6.2831853072
 42
9.3555888376
  0
ELLIPSE
  5
543
100
AcDbEntity
  8
DRAFT
100
AcDbEllipse
 62
7
  6
CONTINUOUS
 10
48.9002079615
 20
136.5766274659
 30
0.0
 11
1.5
 21
0.0
 31
0.0
 40
0.0174550649
 41
-1.9046583244
 42
-1.5707963268
  0
ELLIPSE
  5
544
100
AcDbEntity
  8
DRAFT
100
AcDbEllipse
 62
7
  6
CONTINUOUS
 10
48.9002079615
 20
72.5242622711
 30
0.0
 11
1.5
 21
0.0
 31
0.0
 40
0.0174550649
 41
1.5707963268
 42
1.9046583244
  0
ELLIPSE
  5
545
100
AcDbEntity
  8
DRAFT
100
AcDbEllipse
 62
7
  6
CONTINUOUS
 10
48.9002079615
 20
68.4766274659
 30
0.0
 11
1.5
 21
0.0
 31
0.0
 40
0.0174550649
 41
-1.9046583244
 42
-1.5707963268
  0
ELLIPSE
  5
546
100
AcDbEntity
  8
DRAFT
100
AcDbEllipse
 62
7
  6
CONTINUOUS
 10
48.9002079615
 20
140.6242622711
 30
0.0
 11
1.5
 21
0.0
 31
0.0
 40
0.0174550649
 41
1.5707963268
 42
1.9046583244
  0
ELLIPSE
  5
547
100
AcDbEntity
  8
DRAFT
100
AcDbEllipse
 62
7
  6
CONTINUOUS
 10
247.1142339082
 20
140.6242622711
 30
0.0
 11
1.5
 21
-0.0
 31
0.0
 40
0.0174550649
 41
1.2369343291
 42
1.5707963268
  0
ELLIPSE
  5
548
100
AcDbEntity
  8
DRAFT
100
AcDbEllipse
 62
7
  6
CONTINUOUS
 10
247.1142339082
 20
68.4766274659
 30
0.0
 11
1.5
 21
-0.0
 31
0.0
 40
0.0174550649
 41
-1.5707963268
 42
-1.2369343291
  0
ELLIPSE
  5
549
100
AcDbEntity
  8
DRAFT
100
AcDbEllipse
 62
7
  6
CONTINUOUS
 10
247.1142339082
 20
72.5242622711
 30
0.0
 11
1.5
 21
0.0
 31
0.0
 40
0.0174550649
 41
1.2369343291
 42
1.5707963268
  0
ELLIPSE
  5
54A
100
AcDbEntity
  8
DRAFT
100
AcDbEllipse
 62
7
  6
CONTINUOUS
 10
247.1142339082
 20
136.5766274659
 30
0.0
 11
1.5
 21
0.0
 31
0.0
 40
0.0174550649
 41
-1.5707963268
 42
-1.2369343291
  0
ELLIPSE
  5
54B
100
AcDbEntity
  8
DRAFT
100
AcDbEllipse
 62
7
  6
CONTINUOUS
 10
49.1948485923
 20
104.5504448685
 30
0.0
 11
0.0
 21
14.5
 31
0.0
 40
0.0087268678
 41
3.1415926536
 42
6.2831853072
  0
ELLIPSE
  5
54C
100
AcDbEntity
  8
DRAFT
100
AcDbEllipse
 62
7
  6
CONTINUOUS
 10
246.8195932773
 20
104.5504448685
 30
0.0
 11
-0.0
 21
14.5
 31
0.0
 40
0.0087268678
 41
6.2831853072
 42
9.4247779608
  0
ELLIPSE
  5
54D
100
AcDbEntity
  8
DRAFT
100
AcDbEllipse
 62
7
  6
CONTINUOUS
 10
148.0072209348
 20
-2.261927474
 30
0.0
 11
14.5
 21
0.0
 31
0.0
 40
0.0087268678
 41
6.2831853072
 42
9.4247779725
  0
ELLIPSE
  5
54E
100
AcDbEntity
  8
DRAFT
100
AcDbEllipse
 62
7
  6
CONTINUOUS
 10
148.0072209348
 20
211.362817211
 30
0.0
 11
14.5
 21
-0.0
 31
0.0
 40
0.0087268678
 41
3.1415926536
 42
6.2831853072
  0
ENDSEC
  0
SECTION
  2
OBJECTS
  0
DICTIONARY
  5
C
100
AcDbDictionary
280
0
281
1
  3
ACAD_GROUP
350
D
  3
ACAD_MLINESTYLE
350
17
  3
ACAD_LAYOUT
350
1A
  3
ACAD_PLOTSETTINGS
350
19
  3
ACAD_PLOTSTYLENAME
350
E
  0
DICTIONARY
  5
D
102
{ACAD_REACTORS
330
C
102
}
100
AcDbDictionary
280
0
281
1
  0
ACDBDICTIONARYWDFLT
  5
E
102
{ACAD_REACTORS
330
C
102
}
100
AcDbDictionary
281
1
  3
Normal
350
F
100
AcDbDictionaryWithDefault
340
F
  0
DICTIONARY
  5
17
102
{ACAD_REACTORS
330
C
102
}
100
AcDbDictionary
280
0
281
1
  3
Standard
350
18
  0
DICTIONARY
  5
19
102
{ACAD_REACTORS
330
C
102
}
100
AcDbDictionary
281
1
  0
DICTIONARY
  5
1A
102
{ACAD_REACTORS
330
C
102
}
100
AcDbDictionary
281
1
  3
Model
350
54F
  3
Layout1
350
550
  0
ACDBPLACEHOLDER
  5
F
102
{ACAD_REACTORS
330
E
102
}
  0
MLINESTYLE
  5
18
102
{ACAD_REACTORS
330
17
102
}
100
AcDbMlineStyle
  2
STANDARD
 70
0
  3

 62
256
 51
90.0
 52
90.0
 71
2
 49
0.5
 62
256
  6
BYLAYER
 49
-0.5
 62
256
  6
BYLAYER
  0
LAYOUT
  5
54F
102
{ACAD_REACTORS
330
1A
102
}
100
AcDbPlotSettings
  1

  2
none_device
  4
ISO_A4_(297.00_x_210.00_MM)
  6

 40
0.0
 41
0.0
 42
0.0
 43
0.0
 44
297.0
 45
210.0
 46
0.0
 47
0.0
 48
0.0
 49
0.0
140
0.0
141
0.0
142
1.0
143
1.0
 70
1024
 72
1
 73
0
 74
0
  7

 75
0
147
1.0
148
0.0
149
0.0
100
AcDbLayout
  1
Model
 70
0
 71
0
 10
0.0
 20
0.0
 11
297.0
 21
210.0
 12
0.0
 22
0.0
 32
0.0
 14
0.0
 24
0.0
 34
0.0
 15
0.0
 25
0.0
 35
0.0
146
0.0
 13
0.0
 23
0.0
 33
0.0
 16
1.0
 26
0.0
 36
0.0
 17
0.0
 27
1.0
 37
0.0
 76
0
330
20E
345
0
346
0
  0
LAYOUT
  5
550
102
{ACAD_REACTORS
330
1A
102
}
100
AcDbPlotSettings
  1

  2
none_device
  4
ISO_A4_(297.00_x_210.00_MM)
  6

 40
0.0
 41
0.0
 42
0.0
 43
0.0
 44
297.0
 45
210.0
 46
0.0
 47
0.0
 48
0.0
 49
0.0
140
0.0
141
0.0
142
1.0
143
1.0
 70
0
 72
1
 73
0
 74
0
  7

 75
0
147
1.0
148
0.0
149
0.0
100
AcDbLayout
  1
Layout1
 70
0
 71
1
 10
0.0
 20
0.0
 11
297.0
 21
210.0
 12
0.0
 22
0.0
 32
0.0
 14
0.0
 24
0.0
 34
0.0
 15
0.0
 25
0.0
 35
0.0
146
0.0
 13
0.0
 23
0.0
 33
0.0
 16
1.0
 26
0.0
 36
0.0
 17
0.0
 27
1.0
 37
0.0
 76
0
330
20F
345
0
346
0
  0
ENDSEC
  0
EOF
