  0
SECTION
  2
HEADER
  9
$ACADVER
  1
AC1024
  9
$DWGCODEPAGE
  3
ANSI_1252
  9
$EXTMAX
 10
558.8
 20
431.8
 30
0.0
  9
$EXTMIN
 10
0.0
 20
0.0
 30
0.0
  9
$LIMMIN
 10
0.0
 20
0.0
  9
$LIMMAX
 10
558.8
 20
431.8
  9
$VIEWCTR
 10
279.4
 20
215.9
  9
$VIEWSIZE
 40
431.8
  9
$CLAYER
  8
0
  9
$LTSCALE
 40
30.734
  9
$CELTYPE
  6
BYLAYER
  9
$DIMSCALE
 40
1.0
  9
$DIMASZ
 40
3.0
  9
$DIMEXO
 40
0.5
  9
$DIMDLI
 40
21.2344
  9
$DIMEXE
 40
1.5
  9
$DIMCEN
 40
5.0292
  9
$DIMLFAC
 40
1.0
  9
$DIMBLK
  1
_FILLED
  9
$DIMALT
 70
0
  9
$DIMALTF
 40
0.0393700787
  9
$DIMTXT
 40
3.0
  9
$DIMTOL
 70
1
  9
$DIMLIM
 70
0
  9
$DIMTFAC
 40
1.0
  9
$DIMTP
 40
0.01
  9
$DIMTM
 40
0.01
  9
$DIMGAP
 40
0.625
  9
$DIMDSEP
 70
44
  9
$AUNITS
 70
0
  9
$PDMODE
 70
3
  9
$PDSIZE
 40
3.0
  9
$HANDSEED
  5
5BD
  9
$TILEMODE
 70
1
  9
$MEASUREMENT
 70
1
  9
$INSUNITS
 70
4
  0
ENDSEC
  0
SECTION
  2
CLASSES
  0
CLASS
  1
ACDBDICTIONARYWDFLT
  2
AcDbDictionaryWithDefault
  3
AutoCAD 2000
 90
0
 91
1
280
0
281
0
  0
CLASS
  1
ACDBPLACEHOLDER
  2
AcDbPlaceHolder
  3
AutoCAD 2000
 90
0
 91
1
280
0
281
0
  0
CLASS
  1
LAYOUT
  2
AcDbLayout
  3
AutoCAD 2000
 90
0
 91
0
280
0
281
0
  0
ENDSEC
  0
SECTION
  2
TABLES
  0
TABLE
  2
VPORT
  5
8
100
AcDbSymbolTable
 70
2
  0
VPORT
  5
1F4
100
AcDbSymbolTableRecord
100
AcDbViewportTableRecord
  2
*ACTIVE
 70
0
 10
0.0
 20
0.0
 11
1.0
 21
1.0
 12
279.4
 22
215.9
 13
0.0
 23
0.0
 14
1.0
 24
1.0
 15
0.0
 25
0.0
 16
0.0
 26
0.0
 36
1.0
 17
0.0
 27
0.0
 37
0.0
 40
431.8
 41
1.2941176471
 42
50.0
 43
0.0
 44
0.0
 50
0.0
 51
0.0
 71
0
 72
100
 73
1
 74
1
 75
0
 76
0
 77
0
 78
0
  0
ENDTAB
  0
TABLE
  2
LTYPE
  5
5
100
AcDbSymbolTable
 70
6
  0
LTYPE
  5
14
100
AcDbSymbolTableRecord
100
AcDbLinetypeTableRecord
  2
BYBLOCK
 70
0
  3

 72
65
 73
0
 40
0.0
  0
LTYPE
  5
15
100
AcDbSymbolTableRecord
100
AcDbLinetypeTableRecord
  2
BYLAYER
 70
0
  3

 72
65
 73
0
 40
0.0
  0
LTYPE
  5
16
100
AcDbSymbolTableRecord
100
AcDbLinetypeTableRecord
  2
CONTINUOUS
 70
64
  3
Solid line
 72
65
 73
0
 40
0.0
  0
LTYPE
  5
1F5
100
AcDbSymbolTableRecord
100
AcDbLinetypeTableRecord
  2
CENTER
 70
64
  3
____ _ ____ _ ____ _ ____ _ ____ _ ____ _ ____
 72
65
 73
4
 40
0.6
 49
0.375
 74
0
 49
-0.075
 74
0
 49
0.075
 74
0
 49
-0.075
 74
0
  0
LTYPE
  5
1F6
100
AcDbSymbolTableRecord
100
AcDbLinetypeTableRecord
  2
HIDDEN
 70
64
  3
- - - - - - - - - - - - - - - - - - - -
 72
65
 73
2
 40
0.2
 49
0.1
 74
0
 49
-0.1
 74
0
  0
LTYPE
  5
1F7
100
AcDbSymbolTableRecord
100
AcDbLinetypeTableRecord
  2
PHANTOM
 70
64
  3
_____ _ _ _____ _ _ _____ _ _ _____
 72
65
 73
6
 40
0.8
 49
0.45
 74
0
 49
-0.05
 74
0
 49
0.1
 74
0
 49
-0.05
 74
0
 49
0.1
 74
0
 49
-0.05
 74
0
  0
LTYPE
  5
1F8
100
AcDbSymbolTableRecord
100
AcDbLinetypeTableRecord
  2
DOT
 70
64
  3
. . . . . . . . . . . . . . . . . . . .
 72
65
 73
2
 40
0.2
 49
0.1
 74
0
 49
-0.1
 74
0
  0
LTYPE
  5
1F9
100
AcDbSymbolTableRecord
100
AcDbLinetypeTableRecord
  2
DASHED
 70
64
  3
- - - - - - - - - - - - - - - - - - - -
 72
65
 73
2
 40
0.2
 49
0.1
 74
0
 49
-0.1
 74
0
  0
ENDTAB
  0
TABLE
  2
LAYER
  5
2
100
AcDbSymbolTable
 70
36
  0
LAYER
  5
10
100
AcDbSymbolTableRecord
100
AcDbLayerTableRecord
  2
0
 70
0
 62
7
  6
CONTINUOUS
370
-3
390
F
  0
LAYER
  5
1FA
100
AcDbSymbolTableRecord
100
AcDbLayerTableRecord
  2
DEFAULT_1
 70
0
 62
7
  6
CENTER
370
-3
390
F
  0
LAYER
  5
1FB
100
AcDbSymbolTableRecord
100
AcDbLayerTableRecord
  2
DEFAULT_2
 70
0
 62
7
  6
HIDDEN
370
-3
390
F
  0
LAYER
  5
1FC
100
AcDbSymbolTableRecord
100
AcDbLayerTableRecord
  2
DEFAULT_3
 70
0
 62
7
  6
PHANTOM
370
-3
390
F
  0
LAYER
  5
1FD
100
AcDbSymbolTableRecord
100
AcDbLayerTableRecord
  2
ASSI
 70
0
 62
7
  6
CONTINUOUS
370
-3
390
F
  0
LAYER
  5
1FE
100
AcDbSymbolTableRecord
100
AcDbLayerTableRecord
  2
COLOR5
 70
0
 62
7
  6
CONTINUOUS
370
-3
390
F
  0
LAYER
  5
1FF
100
AcDbSymbolTableRecord
100
AcDbLayerTableRecord
  2
COORDINATE
 70
0
 62
7
  6
CONTINUOUS
370
-3
390
F
  0
LAYER
  5
200
100
AcDbSymbolTableRecord
100
AcDbLayerTableRecord
  2
COORD_ORIGINE
 70
0
 62
7
  6
CONTINUOUS
370
-3
390
F
  0
LAYER
  5
201
100
AcDbSymbolTableRecord
100
AcDbLayerTableRecord
  2
COSMETICHE
 70
0
 62
7
  6
CONTINUOUS
370
-3
390
F
  0
LAYER
  5
202
100
AcDbSymbolTableRecord
100
AcDbLayerTableRecord
  2
CURVE
 70
0
 62
7
  6
CONTINUOUS
370
-3
390
F
  0
LAYER
  5
203
100
AcDbSymbolTableRecord
100
AcDbLayerTableRecord
  2
DRAFT
 70
0
 62
7
  6
CONTINUOUS
370
-3
390
F
  0
LAYER
  5
204
100
AcDbSymbolTableRecord
100
AcDbLayerTableRecord
  2
IGES
 70
0
 62
7
  6
CONTINUOUS
370
-3
390
F
  0
LAYER
  5
205
100
AcDbSymbolTableRecord
100
AcDbLayerTableRecord
  2
IMPORT
 70
0
 62
7
  6
CONTINUOUS
370
-3
390
F
  0
LAYER
  5
206
100
AcDbSymbolTableRecord
100
AcDbLayerTableRecord
  2
IMPORT_IGES
 70
0
 62
7
  6
CONTINUOUS
370
-3
390
F
  0
LAYER
  5
207
100
AcDbSymbolTableRecord
100
AcDbLayerTableRecord
  2
INTF_1
 70
0
 62
7
  6
CONTINUOUS
370
-3
390
F
  0
LAYER
  5
208
100
AcDbSymbolTableRecord
100
AcDbLayerTableRecord
  2
INTF_11
 70
0
 62
7
  6
CONTINUOUS
370
-3
390
F
  0
LAYER
  5
209
100
AcDbSymbolTableRecord
100
AcDbLayerTableRecord
  2
INTF_2
 70
0
 62
7
  6
CONTINUOUS
370
-3
390
F
  0
LAYER
  5
20A
100
AcDbSymbolTableRecord
100
AcDbLayerTableRecord
  2
NOTE
 70
0
 62
7
  6
CONTINUOUS
370
-3
390
F
  0
LAYER
  5
20B
100
AcDbSymbolTableRecord
100
AcDbLayerTableRecord
  2
PIANI
 70
0
 62
7
  6
CONTINUOUS
370
-3
390
F
  0
LAYER
  5
20C
100
AcDbSymbolTableRecord
100
AcDbLayerTableRecord
  2
PIANI_ASSIEME
 70
0
 62
7
  6
CONTINUOUS
370
-3
390
F
  0
LAYER
  5
20D
100
AcDbSymbolTableRecord
100
AcDbLayerTableRecord
  2
PIANI_ORIGINE
 70
0
 62
7
  6
CONTINUOUS
370
-3
390
F
  0
LAYER
  5
20E
100
AcDbSymbolTableRecord
100
AcDbLayerTableRecord
  2
PUNTI
 70
0
 62
7
  6
CONTINUOUS
370
-3
390
F
  0
LAYER
  5
20F
100
AcDbSymbolTableRecord
100
AcDbLayerTableRecord
  2
RACCORDO
 70
0
 62
7
  6
CONTINUOUS
370
-3
390
F
  0
LAYER
  5
210
100
AcDbSymbolTableRecord
100
AcDbLayerTableRecord
  2
RGB____0____0____0__
 70
0
 62
7
  6
CONTINUOUS
370
-3
390
F
  0
LAYER
  5
211
100
AcDbSymbolTableRecord
100
AcDbLayerTableRecord
  2
SMUSSO
 70
0
 62
7
  6
CONTINUOUS
370
-3
390
F
  0
LAYER
  5
212
100
AcDbSymbolTableRecord
100
AcDbLayerTableRecord
  2
SNAPLINE
 70
0
 62
7
  6
CONTINUOUS
370
-3
390
F
  0
LAYER
  5
213
100
AcDbSymbolTableRecord
100
AcDbLayerTableRecord
  2
SUPERFICI
 70
0
 62
7
  6
CONTINUOUS
370
-3
390
F
  0
LAYER
  5
214
100
AcDbSymbolTableRecord
100
AcDbLayerTableRecord
  2
TRASH
 70
0
 62
7
  6
CONTINUOUS
370
-3
390
F
  0
LAYER
  5
215
100
AcDbSymbolTableRecord
100
AcDbLayerTableRecord
  2
XSEC_DATUMS
 70
0
 62
7
  6
CONTINUOUS
370
-3
390
F
  0
ENDTAB
  0
TABLE
  2
STYLE
  5
3
100
AcDbSymbolTable
 70
1
  0
STYLE
  5
11
100
AcDbSymbolTableRecord
100
AcDbTextStyleTableRecord
  2
STANDARD
 70
0
 40
0.0
 41
0.8
 50
0.0
 71
0
 42
0.2
  3
txt
  4

  0
STYLE
  5
216
100
AcDbSymbolTableRecord
100
AcDbTextStyleTableRecord
  2
TEXTSTYLE_1
 70
0
 40
0.0
 41
0.8
 50
0.0
 71
0
 42
0.2
  3
gdt
  4

  0
ENDTAB
  0
TABLE
  2
VIEW
  5
6
100
AcDbSymbolTable
 70
0
  0
ENDTAB
  0
TABLE
  2
UCS
  5
7
100
AcDbSymbolTable
 70
0
  0
ENDTAB
  0
TABLE
  2
APPID
  5
9
100
AcDbSymbolTable
 70
1
  0
APPID
  5
217
100
AcDbSymbolTableRecord
100
AcDbRegAppTableRecord
  2
ACAD
 70
0
  0
ENDTAB
  0
TABLE
  2
BLOCK_RECORD
  5
1
100
AcDbSymbolTable
 70
0
  0
BLOCK_RECORD
  5
218
100
AcDbSymbolTableRecord
100
AcDbBlockTableRecord
  2
*Model_Space
  0
BLOCK_RECORD
  5
219
100
AcDbSymbolTableRecord
100
AcDbBlockTableRecord
  2
*Paper_Space
  0
BLOCK_RECORD
  5
21A
100
AcDbSymbolTableRecord
100
AcDbBlockTableRecord
  2
_FILLED
  0
ENDTAB
  0
TABLE
  2
DIMSTYLE
  5
A
100
AcDbSymbolTable
 70
1
100
AcDbDimStyleTable
 71
0
  0
DIMSTYLE
105
21B
100
AcDbSymbolTableRecord
100
AcDbDimStyleTableRecord
  2
STANDARD
 70
0
  3

  4

 40
1.0
 41
3.0
 42
0.5
 43
0.38
 44
1.5
 45
0.0
 46
0.0
 47
0.01
 48
0.01
140
3.0
141
0.09
142
0.0
143
25.4
144
1.0
145
0.0
146
1.0
147
0.625
 71
1
 72
0
 73
0
 74
0
 75
0
 76
0
 77
1
 78
8
 79
2
170
0
171
1
172
0
173
0
174
0
175
0
176
0
177
0
178
0
270
2
179
2
271
2
272
2
273
2
274
2
275
0
280
0
281
0
282
0
283
1
284
8
285
0
286
0
287
3
288
0
340
11
278
44
341
21A
342
21A
343
21A
344
21A
  0
ENDTAB
  0
ENDSEC
  0
SECTION
  2
BLOCKS
  0
BLOCK
  5
20
100
AcDbEntity
  8
0
100
AcDbBlockBegin
  2
*Model_Space
 70
0
 10
0.0
 20
0.0
 30
0.0
  3
*Model_Space
  1

  0
ENDBLK
  5
21
100
AcDbEntity
  8
0
100
AcDbBlockEnd
  0
BLOCK
  5
1C
100
AcDbEntity
  8
0
100
AcDbBlockBegin
  2
*Paper_Space
 70
0
 10
0.0
 20
0.0
 30
0.0
  3
*Paper_Space
  1

  0
ENDBLK
  5
1D
100
AcDbEntity
  8
0
100
AcDbBlockEnd
  0
BLOCK
  5
21C
100
AcDbEntity
  8
0
100
AcDbBlockBegin
  2
_FILLED
 70
64
 10
0.0
 20
0.0
  3
_FILLED
  1

  0
SOLID
  5
21D
100
AcDbEntity
  8
0
  6
BYBLOCK
 62
0
100
AcDbTrace
 10
0.0
 20
0.0
 11
-1.0
 21
0.3166666667
 12
-1.0
 22
-0.3166666667
 13
-1.0
 23
-0.3166666667
  0
ENDBLK
  5
21E
100
AcDbEntity
  8
0
  6
BYBLOCK
 62
0
100
AcDbBlockEnd
  0
ENDSEC
  0
SECTION
  2
ENTITIES
  0
LINE
  5
21F
100
AcDbEntity
  8
RACCORDO
100
AcDbLine
 62
7
  6
CONTINUOUS
 10
-17.9418217019
 20
32.25
 11
-17.9883645373
 21
32.2220745004
  0
LINE
  5
220
100
AcDbEntity
  8
RACCORDO
100
AcDbLine
 62
7
  6
CONTINUOUS
 10
-8.0000380769
 20
-35.0
 11
-5.0305440373
 21
-35.0
  0
LINE
  5
221
100
AcDbEntity
  8
RACCORDO
100
AcDbLine
 62
7
  6
CONTINUOUS
 10
5.0305440373
 20
-35.0
 11
8.0000380769
 21
-35.0
  0
LINE
  5
222
100
AcDbEntity
  8
RACCORDO
100
AcDbLine
 62
7
  6
CONTINUOUS
 10
7.5174765822
 20
-34.9825462644
 11
5.9825843414
 21
-34.9825462644
  0
LINE
  5
223
100
AcDbEntity
  8
RACCORDO
100
AcDbLine
 62
7
  6
CONTINUOUS
 10
-5.9825843414
 20
-34.9825462644
 11
-7.5174765822
 21
-34.9825462644
  0
LINE
  5
224
100
AcDbEntity
  8
RACCORDO
100
AcDbLine
 62
7
  6
CONTINUOUS
 10
7.979966281
 20
-34.9799282041
 11
7.8174651591
 21
-34.9799282041
  0
LINE
  5
225
100
AcDbEntity
  8
RACCORDO
100
AcDbLine
 62
7
  6
CONTINUOUS
 10
-7.8174651591
 20
-34.9799282041
 11
-7.979966281
 21
-34.9799282041
  0
LINE
  5
226
100
AcDbEntity
  8
DRAFT
100
AcDbLine
 62
7
  6
CONTINUOUS
 10
5.0
 20
-34.9694559627
 11
-5.0
 21
-34.9694559627
  0
LINE
  5
227
100
AcDbEntity
  8
RACCORDO
100
AcDbLine
 62
7
  6
CONTINUOUS
 10
5.956403738
 20
-34.956365661
 11
-5.956403738
 21
-34.956365661
  0
LINE
  5
228
100
AcDbEntity
  8
DRAFT
100
AcDbLine
 62
7
  6
CONTINUOUS
 10
-18.2
 20
27.5
 11
-18.2183264224
 21
27.4816735776
  0
LINE
  5
229
100
AcDbEntity
  8
RACCORDO
100
AcDbLine
 62
7
  6
CONTINUOUS
 10
-18.2
 20
30.1054657825
 11
-18.1790886568
 21
30.1261680076
  0
LINE
  5
22A
100
AcDbEntity
  8
RACCORDO
100
AcDbLine
 62
7
  6
CONTINUOUS
 10
-17.9883645373
 20
30.2039226033
 11
-17.9243514584
 21
30.2672955372
  0
LINE
  5
22B
100
AcDbEntity
  8
RACCORDO
100
AcDbLine
 62
7
  6
CONTINUOUS
 10
-2.5000190385
 20
-33.0
 11
2.5000190385
 21
-33.0
  0
LINE
  5
22C
100
AcDbEntity
  8
RACCORDO
100
AcDbLine
 62
7
  6
CONTINUOUS
 10
-17.9418217019
 20
-28.25
 11
-17.9883645373
 21
-28.2220745004
  0
LINE
  5
22D
100
AcDbEntity
  8
DRAFT
100
AcDbLine
 62
7
  6
CONTINUOUS
 10
-10.7816735776
 20
34.0183264224
 11
-10.8
 21
34.0
  0
LINE
  5
22E
100
AcDbEntity
  8
DRAFT
100
AcDbLine
 62
7
  6
CONTINUOUS
 10
-10.7991273132
 20
32.1508726868
 11
-10.8
 21
32.15
  0
LINE
  5
22F
100
AcDbEntity
  8
RACCORDO
100
AcDbLine
 62
7
  6
CONTINUOUS
 10
2.5000190385
 20
-31.0
 11
-2.5000190385
 21
-31.0
  0
LINE
  5
230
100
AcDbEntity
  8
RACCORDO
100
AcDbLine
 62
7
  6
CONTINUOUS
 10
9.0
 20
-31.0
 11
25.2000380769
 21
-31.0
  0
LINE
  5
231
100
AcDbEntity
  8
RACCORDO
100
AcDbLine
 62
7
  6
CONTINUOUS
 10
-9.0
 20
-31.0
 11
-25.2000380769
 21
-31.0
  0
LINE
  5
232
100
AcDbEntity
  8
RACCORDO
100
AcDbLine
 62
7
  6
CONTINUOUS
 10
25.1825843414
 20
-30.9825462644
 11
12.4816735776
 21
-30.9825462644
  0
LINE
  5
233
100
AcDbEntity
  8
DRAFT
100
AcDbLine
 62
7
  6
CONTINUOUS
 10
9.2
 20
-30.9825462644
 11
9.0
 21
-30.9825462644
  0
LINE
  5
234
100
AcDbEntity
  8
DRAFT
100
AcDbLine
 62
7
  6
CONTINUOUS
 10
-9.0
 20
-30.9825462644
 11
-9.2
 21
-30.9825462644
  0
LINE
  5
235
100
AcDbEntity
  8
RACCORDO
100
AcDbLine
 62
7
  6
CONTINUOUS
 10
-12.4816735776
 20
-30.9825462644
 11
-25.1825843414
 21
-30.9825462644
  0
LINE
  5
236
100
AcDbEntity
  8
DRAFT
100
AcDbLine
 62
7
  6
CONTINUOUS
 10
12.4797396903
 20
-30.980612377
 11
9.2019338874
 21
-30.980612377
  0
LINE
  5
237
100
AcDbEntity
  8
DRAFT
100
AcDbLine
 62
7
  6
CONTINUOUS
 10
-9.2019338874
 20
-30.980612377
 11
-12.4797396903
 21
-30.980612377
  0
LINE
  5
238
100
AcDbEntity
  8
RACCORDO
100
AcDbLine
 62
250
  6
CONTINUOUS
 10
12.413601649
 20
-30.6424202064
 11
9.2356680678
 21
-30.6424202064
  0
LINE
  5
239
100
AcDbEntity
  8
RACCORDO
100
AcDbLine
 62
250
  6
CONTINUOUS
 10
-9.2356680678
 20
-30.6424202064
 11
-12.413601649
 21
-30.6424202064
  0
LINE
  5
23A
100
AcDbEntity
  8
RACCORDO
100
AcDbLine
 62
7
  6
CONTINUOUS
 10
-11.7048036857
 20
-30.0611739898
 11
-10.7388260102
 21
-30.0611739898
  0
LINE
  5
23B
100
AcDbEntity
  8
RACCORDO
100
AcDbLine
 62
7
  6
CONTINUOUS
 10
10.7388260102
 20
-30.0611739898
 11
11.7048036857
 21
-30.0611739898
  0
LINE
  5
23C
100
AcDbEntity
  8
DRAFT
100
AcDbLine
 62
7
  6
CONTINUOUS
 10
-18.2183264224
 20
-30.0183264224
 11
-12.4816735776
 21
-30.0183264224
  0
LINE
  5
23D
100
AcDbEntity
  8
DRAFT
100
AcDbLine
 62
7
  6
CONTINUOUS
 10
12.4816735776
 20
-30.0183264224
 11
18.2183264224
 21
-30.0183264224
  0
LINE
  5
23E
100
AcDbEntity
  8
DRAFT
100
AcDbLine
 62
7
  6
CONTINUOUS
 10
-18.2
 20
-30.0
 11
-10.8
 21
-30.0
  0
LINE
  5
23F
100
AcDbEntity
  8
DRAFT
100
AcDbLine
 62
7
  6
CONTINUOUS
 10
10.8
 20
-30.0
 11
18.2
 21
-30.0
  0
LINE
  5
240
100
AcDbEntity
  8
RACCORDO
100
AcDbLine
 62
250
  6
CONTINUOUS
 10
10.7380392387
 20
-29.6462255084
 11
9.243634339
 21
-29.6462255084
  0
LINE
  5
241
100
AcDbEntity
  8
RACCORDO
100
AcDbLine
 62
250
  6
CONTINUOUS
 10
-9.243634339
 20
-29.6462255084
 11
-10.7380392387
 21
-29.6462255084
  0
LINE
  5
242
100
AcDbEntity
  8
DRAFT
100
AcDbLine
 62
7
  6
CONTINUOUS
 10
9.0
 20
-29.25
 11
9.2
 21
-29.25
  0
LINE
  5
243
100
AcDbEntity
  8
DRAFT
100
AcDbLine
 62
7
  6
CONTINUOUS
 10
-9.0
 20
-29.25
 11
-9.2
 21
-29.25
  0
LINE
  5
244
100
AcDbEntity
  8
DRAFT
100
AcDbLine
 62
7
  6
CONTINUOUS
 10
7.0709444827
 20
-29.2290555173
 11
9.1209444827
 21
-29.2290555173
  0
LINE
  5
245
100
AcDbEntity
  8
DRAFT
100
AcDbLine
 62
7
  6
CONTINUOUS
 10
-7.0709444827
 20
-29.2290555173
 11
-9.1209444827
 21
-29.2290555173
  0
LINE
  5
246
100
AcDbEntity
  8
DRAFT
100
AcDbLine
 62
7
  6
CONTINUOUS
 10
7.093634339
 20
-29.206365661
 11
9.243634339
 21
-29.206365661
  0
LINE
  5
247
100
AcDbEntity
  8
DRAFT
100
AcDbLine
 62
7
  6
CONTINUOUS
 10
-7.093634339
 20
-29.206365661
 11
-9.243634339
 21
-29.206365661
  0
LINE
  5
248
100
AcDbEntity
  8
RACCORDO
100
AcDbLine
 62
7
  6
CONTINUOUS
 10
-4.5131093402
 20
-29.0130903017
 11
-3.4868906598
 21
-29.0130903017
  0
LINE
  5
249
100
AcDbEntity
  8
RACCORDO
100
AcDbLine
 62
7
  6
CONTINUOUS
 10
3.4868906598
 20
-29.0130903017
 11
4.5131093402
 21
-29.0130903017
  0
LINE
  5
24A
100
AcDbEntity
  8
RACCORDO
100
AcDbLine
 62
7
  6
CONTINUOUS
 10
-4.5000190385
 20
-29.0
 11
-3.4999809615
 21
-29.0
  0
LINE
  5
24B
100
AcDbEntity
  8
RACCORDO
100
AcDbLine
 62
7
  6
CONTINUOUS
 10
3.4999809615
 20
-29.0
 11
4.5000190385
 21
-29.0
  0
LINE
  5
24C
100
AcDbEntity
  8
RACCORDO
100
AcDbLine
 62
7
  6
CONTINUOUS
 10
3.3732279243
 20
-29.0
 11
-3.3732279243
 21
-29.0
  0
LINE
  5
24D
100
AcDbEntity
  8
RACCORDO
100
AcDbLine
 62
7
  6
CONTINUOUS
 10
-18.2
 20
-26.1054657825
 11
-18.1790886568
 21
-26.1261680076
  0
LINE
  5
24E
100
AcDbEntity
  8
RACCORDO
100
AcDbLine
 62
7
  6
CONTINUOUS
 10
-17.9243514584
 20
-26.2672955372
 11
-17.9883645373
 21
-26.2039226033
  0
LINE
  5
24F
100
AcDbEntity
  8
RACCORDO
100
AcDbLine
 62
7
  6
CONTINUOUS
 10
-12.4484200936
 20
-30.0515799064
 11
-12.4816735776
 21
-30.0183264224
  0
LINE
  5
250
100
AcDbEntity
  8
DRAFT
100
AcDbLine
 62
7
  6
CONTINUOUS
 10
-18.2
 20
-23.5
 11
-18.2183264224
 21
-23.4816735776
  0
LINE
  5
251
100
AcDbEntity
  8
RACCORDO
100
AcDbLine
 62
7
  6
CONTINUOUS
 10
-10.7388260102
 20
-30.0611739898
 11
-10.8
 21
-30.0
  0
LINE
  5
252
100
AcDbEntity
  8
RACCORDO
100
AcDbLine
 62
7
  6
CONTINUOUS
 10
-26.3
 20
27.0
 11
-26.3
 21
31.2500060923
  0
LINE
  5
253
100
AcDbEntity
  8
RACCORDO
100
AcDbLine
 62
7
  6
CONTINUOUS
 10
-26.2
 20
34.0000380769
 11
-26.2
 21
-30.0000380769
  0
LINE
  5
254
100
AcDbEntity
  8
RACCORDO
100
AcDbLine
 62
7
  6
CONTINUOUS
 10
-26.1825462644
 20
-29.9825843414
 11
-26.1825462644
 21
33.9825843414
  0
LINE
  5
255
100
AcDbEntity
  8
SMUSSO
100
AcDbLine
 62
7
  6
CONTINUOUS
 10
-26.2964891058
 20
-26.244206984
 11
-26.3
 21
-27.25
  0
LINE
  5
256
100
AcDbEntity
  8
DRAFT
100
AcDbLine
 62
7
  6
CONTINUOUS
 10
-10.7991273132
 20
28.0
 11
-10.8
 21
27.9991273132
  0
LINE
  5
257
100
AcDbEntity
  8
DRAFT
100
AcDbLine
 62
7
  6
CONTINUOUS
 10
-18.5
 20
19.7336228197
 11
-18.505243392
 21
19.7283794276
  0
LINE
  5
258
100
AcDbEntity
  8
DRAFT
100
AcDbLine
 62
7
  6
CONTINUOUS
 10
18.2
 20
-28.15
 11
17.9883645373
 21
-28.15
  0
LINE
  5
259
100
AcDbEntity
  8
DRAFT
100
AcDbLine
 62
7
  6
CONTINUOUS
 10
-17.9883645373
 20
-28.15
 11
-18.2
 21
-28.15
  0
LINE
  5
25A
100
AcDbEntity
  8
RACCORDO
100
AcDbLine
 62
250
  6
CONTINUOUS
 10
-17.922311299
 20
-27.6464466094
 11
-11.077688701
 21
-27.6464466094
  0
LINE
  5
25B
100
AcDbEntity
  8
RACCORDO
100
AcDbLine
 62
250
  6
CONTINUOUS
 10
17.922311299
 20
-27.6464466094
 11
11.077688701
 21
-27.6464466094
  0
LINE
  5
25C
100
AcDbEntity
  8
RACCORDO
100
AcDbLine
 62
250
  6
CONTINUOUS
 10
-17.9214592976
 20
-27.2928932188
 11
-11.0785407024
 21
-27.2928932188
  0
LINE
  5
25D
100
AcDbEntity
  8
RACCORDO
100
AcDbLine
 62
250
  6
CONTINUOUS
 10
17.9214592976
 20
-27.2928932188
 11
11.0785407024
 21
-27.2928932188
  0
LINE
  5
25E
100
AcDbEntity
  8
SMUSSO
100
AcDbLine
 62
7
  6
CONTINUOUS
 10
-26.2
 20
-27.25
 11
-26.3
 21
-27.25
  0
LINE
  5
25F
100
AcDbEntity
  8
RACCORDO
100
AcDbLine
 62
250
  6
CONTINUOUS
 10
-17.9214592976
 20
-26.767287244
 11
-11.0785407024
 21
-26.767287244
  0
LINE
  5
260
100
AcDbEntity
  8
RACCORDO
100
AcDbLine
 62
250
  6
CONTINUOUS
 10
17.9214592976
 20
-26.767287244
 11
11.0785407024
 21
-26.767287244
  0
LINE
  5
261
100
AcDbEntity
  8
RACCORDO
100
AcDbLine
 62
7
  6
CONTINUOUS
 10
-17.9243514584
 20
-26.2672955372
 11
-11.0756485416
 21
-26.2672955372
  0
LINE
  5
262
100
AcDbEntity
  8
RACCORDO
100
AcDbLine
 62
7
  6
CONTINUOUS
 10
17.9243514584
 20
-26.2672955372
 11
11.0756485416
 21
-26.2672955372
  0
LINE
  5
263
100
AcDbEntity
  8
DRAFT
100
AcDbLine
 62
7
  6
CONTINUOUS
 10
-11.0581782981
 20
-26.25
 11
-10.7991273132
 21
-26.25
  0
LINE
  5
264
100
AcDbEntity
  8
DRAFT
100
AcDbLine
 62
7
  6
CONTINUOUS
 10
10.7991273132
 20
-26.25
 11
11.0581782981
 21
-26.25
  0
LINE
  5
265
100
AcDbEntity
  8
SMUSSO
100
AcDbLine
 62
7
  6
CONTINUOUS
 10
-26.2
 20
-26.244206984
 11
-26.2964891058
 21
-26.244206984
  0
LINE
  5
266
100
AcDbEntity
  8
DRAFT
100
AcDbLine
 62
7
  6
CONTINUOUS
 10
7.093634339
 20
-26.243634339
 11
9.243634339
 21
-26.243634339
  0
LINE
  5
267
100
AcDbEntity
  8
DRAFT
100
AcDbLine
 62
7
  6
CONTINUOUS
 10
-7.093634339
 20
-26.243634339
 11
-9.243634339
 21
-26.243634339
  0
LINE
  5
268
100
AcDbEntity
  8
DRAFT
100
AcDbLine
 62
7
  6
CONTINUOUS
 10
7.0709444827
 20
-26.2209444827
 11
9.1209444827
 21
-26.2209444827
  0
LINE
  5
269
100
AcDbEntity
  8
DRAFT
100
AcDbLine
 62
7
  6
CONTINUOUS
 10
-7.0709444827
 20
-26.2209444827
 11
-9.1209444827
 21
-26.2209444827
  0
LINE
  5
26A
100
AcDbEntity
  8
DRAFT
100
AcDbLine
 62
7
  6
CONTINUOUS
 10
-9.2
 20
-26.2
 11
-9.1
 21
-26.2
  0
LINE
  5
26B
100
AcDbEntity
  8
DRAFT
100
AcDbLine
 62
7
  6
CONTINUOUS
 10
9.1
 20
-26.2
 11
9.2
 21
-26.2
  0
LINE
  5
26C
100
AcDbEntity
  8
DRAFT
100
AcDbLine
 62
7
  6
CONTINUOUS
 10
9.1
 20
-26.0
 11
9.0
 21
-26.0
  0
LINE
  5
26D
100
AcDbEntity
  8
DRAFT
100
AcDbLine
 62
7
  6
CONTINUOUS
 10
-9.0
 20
-26.0
 11
-9.1
 21
-26.0
  0
LINE
  5
26E
100
AcDbEntity
  8
RACCORDO
100
AcDbLine
 62
7
  6
CONTINUOUS
 10
-24.4867954653
 20
-15.7132045347
 11
-24.5
 21
-15.7
  0
LINE
  5
26F
100
AcDbEntity
  8
DRAFT
100
AcDbLine
 62
7
  6
CONTINUOUS
 10
-9.2
 20
-30.9825462644
 11
-9.2019338874
 21
-30.980612377
  0
LINE
  5
270
100
AcDbEntity
  8
DRAFT
100
AcDbLine
 62
7
  6
CONTINUOUS
 10
-10.8
 20
-28.15
 11
-10.7991273132
 21
-28.1508726868
  0
LINE
  5
271
100
AcDbEntity
  8
DRAFT
100
AcDbLine
 62
7
  6
CONTINUOUS
 10
-9.2
 20
-29.25
 11
-9.243634339
 21
-29.206365661
  0
LINE
  5
272
100
AcDbEntity
  8
DRAFT
100
AcDbLine
 62
7
  6
CONTINUOUS
 10
-9.1209444827
 20
-29.2290555173
 11
-9.1
 21
-29.25
  0
LINE
  5
273
100
AcDbEntity
  8
DRAFT
100
AcDbLine
 62
7
  6
CONTINUOUS
 10
-24.4764159065
 20
20.9394127892
 11
-24.5
 21
21.7336228197
  0
LINE
  5
274
100
AcDbEntity
  8
DRAFT
100
AcDbLine
 62
7
  6
CONTINUOUS
 10
-24.494756608
 20
19.7283794276
 11
-24.4912093131
 21
17.2
  0
LINE
  5
275
100
AcDbEntity
  8
DRAFT
100
AcDbLine
 62
7
  6
CONTINUOUS
 10
-24.5
 20
21.7336228197
 11
-24.5
 21
16.7
  0
LINE
  5
276
100
AcDbEntity
  8
DRAFT
100
AcDbLine
 62
7
  6
CONTINUOUS
 10
-24.5
 20
-15.7
 11
-24.5
 21
-17.7
  0
LINE
  5
277
100
AcDbEntity
  8
RACCORDO
100
AcDbLine
 62
7
  6
CONTINUOUS
 10
-24.4738193966
 20
-17.2131474193
 11
-24.4738193966
 21
-17.6738193966
  0
LINE
  5
278
100
AcDbEntity
  8
RACCORDO
100
AcDbLine
 62
7
  6
CONTINUOUS
 10
-24.1185710181
 20
17.2
 11
-24.1185710181
 21
16.6921322387
  0
LINE
  5
279
100
AcDbEntity
  8
DRAFT
100
AcDbLine
 62
7
  6
CONTINUOUS
 10
-24.0091376639
 20
17.2
 11
-24.0091376639
 21
16.6921322387
  0
LINE
  5
27A
100
AcDbEntity
  8
RACCORDO
100
AcDbLine
 62
7
  6
CONTINUOUS
 10
-24.4885442454
 20
17.2878679656
 11
-24.4747399816
 21
19.9242640687
  0
LINE
  5
27B
100
AcDbEntity
  8
ASSI
100
AcDbLine
 62
7
  6
CONTINUOUS
 10
-15.708509
 20
27.99999
 11
-15.837951
 21
27.596826
  0
LINE
  5
27C
100
AcDbEntity
  8
ASSI
100
AcDbLine
 62
7
  6
CONTINUOUS
 10
-15.4590232571
 20
27.5
 11
-15.298494
 21
27.999995
  0
LINE
  5
27D
100
AcDbEntity
  8
RACCORDO
100
AcDbLine
 62
250
  6
CONTINUOUS
 10
-4.5
 20
-23.8
 11
-2.9580736983
 21
-23.8
  0
LINE
  5
27E
100
AcDbEntity
  8
RACCORDO
100
AcDbLine
 62
250
  6
CONTINUOUS
 10
2.9580736983
 20
-23.8
 11
4.5
 21
-23.8
  0
LINE
  5
27F
100
AcDbEntity
  8
RACCORDO
100
AcDbLine
 62
7
  6
CONTINUOUS
 10
2.4953849082
 20
-23.5046341302
 11
-2.4953849082
 21
-23.5046341302
  0
LINE
  5
280
100
AcDbEntity
  8
DRAFT
100
AcDbLine
 62
7
  6
CONTINUOUS
 10
-18.2
 20
-23.5
 11
-10.8
 21
-23.5
  0
LINE
  5
281
100
AcDbEntity
  8
RACCORDO
100
AcDbLine
 62
7
  6
CONTINUOUS
 10
4.4973819397
 20
-23.5
 11
-4.4973819397
 21
-23.5
  0
LINE
  5
282
100
AcDbEntity
  8
DRAFT
100
AcDbLine
 62
7
  6
CONTINUOUS
 10
10.8
 20
-23.5
 11
18.2
 21
-23.5
  0
LINE
  5
283
100
AcDbEntity
  8
DRAFT
100
AcDbLine
 62
7
  6
CONTINUOUS
 10
18.2183264224
 20
-23.4816735776
 11
10.7816735776
 21
-23.4816735776
  0
LINE
  5
284
100
AcDbEntity
  8
DRAFT
100
AcDbLine
 62
7
  6
CONTINUOUS
 10
-10.7816735776
 20
-23.4816735776
 11
-18.2183264224
 21
-23.4816735776
  0
LINE
  5
285
100
AcDbEntity
  8
DRAFT
100
AcDbLine
 62
7
  6
CONTINUOUS
 10
26.3
 20
-23.0
 11
26.2
 21
-23.0
  0
LINE
  5
286
100
AcDbEntity
  8
DRAFT
100
AcDbLine
 62
7
  6
CONTINUOUS
 10
-7.0709444827
 20
-29.2290555173
 11
-7.093634339
 21
-29.206365661
  0
LINE
  5
287
100
AcDbEntity
  8
DRAFT
100
AcDbLine
 62
7
  6
CONTINUOUS
 10
-18.5261806034
 20
-17.6738193966
 11
-18.5
 21
-17.7
  0
LINE
  5
288
100
AcDbEntity
  8
DRAFT
100
AcDbLine
 62
7
  6
CONTINUOUS
 10
-10.7991273132
 20
-24.0
 11
-10.8
 21
-23.9991273132
  0
LINE
  5
289
100
AcDbEntity
  8
RACCORDO
100
AcDbLine
 62
250
  6
CONTINUOUS
 10
-3.4999809615
 20
-29.0
 11
-3.4868906598
 21
-29.0130903017
  0
LINE
  5
28A
100
AcDbEntity
  8
ASSI
100
AcDbLine
 62
7
  6
CONTINUOUS
 10
-14.227486
 20
27.99999
 11
-14.3708543165
 21
27.5
  0
LWPOLYLINE
  5
28B
100
AcDbEntity
  8
0
100
AcDbPolyline
 62
7
  6
CONTINUOUS
 90
13
 70
0
 10
2.239693128
 20
-21.7458299418
 10
2.2394850365
 20
-21.7458719366
 10
2.2387629146
 20
-21.7460103157
 10
2.2375104329
 20
-21.746236158
 10
2.2358300732
 20
-21.7465217581
 10
2.2337282351
 20
-21.7468595623
 10
2.231182791
 20
-21.7472472261
 10
2.2282563219
 20
-21.7476704731
 10
2.2249500504
 20
-21.7481256275
 10
2.2212508007
 20
-21.7486112757
 10
2.2172027339
 20
-21.7491190181
 10
2.2128091312
 20
-21.7496465168
 10
2.2080589808
 20
-21.7501933074
  0
LWPOLYLINE
  5
28C
100
AcDbEntity
  8
0
100
AcDbPolyline
 62
7
  6
CONTINUOUS
 90
13
 70
0
 10
-2.2396055358
 20
-21.9203782698
 10
-2.2394335963
 20
-21.9203439899
 10
-2.238628645
 20
-21.920190856
 10
-2.2372611249
 20
-21.9199464818
 10
-2.2354500006
 20
-21.9196418397
 10
-2.2332045984
 20
-21.9192850619
 10
-2.2305032837
 20
-21.9188786526
 10
-2.2274251433
 20
-21.918439095
 10
-2.2239817667
 20
-21.917971128
 10
-2.220156917
 20
-21.9174753517
 10
-2.2159908672
 20
-21.9169592951
 10
-2.2114871486
 20
-21.9164251086
 10
-2.2066373828
 20
-21.9158733793
  0
LWPOLYLINE
  5
28D
100
AcDbEntity
  8
0
100
AcDbPolyline
 62
7
  6
CONTINUOUS
 90
34
 70
0
 10
-2.2420111657
 20
-21.5176066815
 10
-2.2494879763
 20
-21.5184230133
 10
-2.2567181486
 20
-21.519247818
 10
-2.2637127726
 20
-21.5200830417
 10
-2.2705195994
 20
-21.5209355729
 10
-2.2771405355
 20
-21.5218073568
 10
-2.2835813761
 20
-21.5227010573
 10
-2.2898977366
 20
-21.5236271215
 10
-2.2960862219
 20
-21.5245886484
 10
-2.3021617358
 20
-21.525592012
 10
-2.3082139283
 20
-21.5266580702
 10
-2.3142200191
 20
-21.5277905918
 10
-2.3202212309
 20
-21.5290062485
 10
-2.3264092905
 20
-21.5303590438
 10
-2.3327383912
 20
-21.531859809
 10
-2.3392695004
 20
-21.5335471378
 10
-2.346353626
 20
-21.5355540599
 10
-2.3539605732
 20
-21.537935134
 10
-2.3621064208
 20
-21.5407700222
 10
-2.3711938863
 20
-21.5443140344
 10
-2.3813087944
 20
-21.5487783924
 10
-2.3922347851
 20
-21.5542817044
 10
-2.4038776695
 20
-21.5610206335
 10
-2.4162164357
 20
-21.5692951625
 10
-2.4288974725
 20
-21.5792454237
 10
-2.4413187264
 20
-21.5907631116
 10
-2.4532142005
 20
-21.6039321745
 10
-2.4643874284
 20
-21.6188361702
 10
-2.4744238457
 20
-21.6351918435
 10
-2.4830920168
 20
-21.6528480092
 10
-2.4902251687
 20
-21.6717740139
 10
-2.4955726975
 20
-21.6917548534
 10
-2.4989069334
 20
-21.7125935148
 10
-2.4999999889
 20
-21.7331190523
  0
LWPOLYLINE
  5
28E
100
AcDbEntity
  8
0
100
AcDbPolyline
 62
7
  6
CONTINUOUS
 90
34
 70
0
 10
2.2406202232
 20
-22.1487675082
 10
2.2482456694
 20
-22.147941184
 10
2.255615145
 20
-22.1471065259
 10
2.2627327031
 20
-22.1462624639
 10
2.2696318698
 20
-22.1454041068
 10
2.2763160069
 20
-22.1445297777
 10
2.2827951961
 20
-22.1436367353
 10
2.289117193
 20
-22.1427162962
 10
2.2952757875
 20
-22.1417666757
 10
2.3012956394
 20
-22.1407810118
 10
2.3072753501
 20
-22.139738056
 10
2.3131935778
 20
-22.1386347316
 10
2.3190914195
 20
-22.137455615
 10
2.3251627958
 20
-22.1361482455
 10
2.3313596509
 20
-22.1347039924
 10
2.3377433474
 20
-22.133086642
 10
2.3446684649
 20
-22.1311670941
 10
2.3520916766
 20
-22.1288988533
 10
2.3600416126
 20
-22.1262040394
 10
2.3689632183
 20
-22.1228212323
 10
2.3789395387
 20
-22.118545324
 10
2.3897622307
 20
-22.1132557653
 10
2.4013945966
 20
-22.1067243093
 10
2.4138442331
 20
-22.0986212675
 10
2.4267232322
 20
-22.0888043509
 10
2.4393903532
 20
-22.0773854678
 10
2.4515718374
 20
-22.0642591375
 10
2.463050993
 20
-22.0493307787
 10
2.4733694451
 20
-22.0329236334
 10
2.4822961784
 20
-22.0151901931
 10
2.4896643809
 20
-21.996166869
 10
2.4952092167
 20
-21.9761342813
 10
2.4987206634
 20
-21.9553176463
 10
2.4999999876
 20
-21.9331067163
  0
LINE
  5
28F
100
AcDbEntity
  8
0
100
AcDbLine
 62
7
  6
CONTINUOUS
 10
2.2080589808
 20
-21.7501933074
 11
2.1975652992
 21
-21.7513302799
  0
LINE
  5
290
100
AcDbEntity
  8
0
100
AcDbLine
 62
7
  6
CONTINUOUS
 10
-2.2066373828
 20
-21.9158733793
 11
-2.1959664412
 21
-21.9147299429
  0
LINE
  5
291
100
AcDbEntity
  8
0
100
AcDbLine
 62
7
  6
CONTINUOUS
 10
-2.2262942283
 20
-21.5159947598
 11
-2.2420111657
 21
-21.5176066815
  0
LINE
  5
292
100
AcDbEntity
  8
0
100
AcDbLine
 62
7
  6
CONTINUOUS
 10
2.2245434417
 20
-22.1504031582
 11
2.2406202232
 21
-22.1487675082
  0
LINE
  5
293
100
AcDbEntity
  8
0
100
AcDbLine
 62
7
  6
CONTINUOUS
 10
2.1975652992
 20
-21.7513302799
 11
2.1857356905
 21
-21.7525188702
  0
LINE
  5
294
100
AcDbEntity
  8
0
100
AcDbLine
 62
7
  6
CONTINUOUS
 10
-2.1959664412
 20
-21.9147299429
 11
-2.1839977327
 21
-21.9135395358
  0
LINE
  5
295
100
AcDbEntity
  8
0
100
AcDbLine
 62
7
  6
CONTINUOUS
 10
-2.2094591214
 20
-21.5143980964
 11
-2.2262942283
 21
-21.5159947598
  0
LINE
  5
296
100
AcDbEntity
  8
0
100
AcDbLine
 62
7
  6
CONTINUOUS
 10
2.2072287809
 20
-22.1520308819
 11
2.2245434417
 21
-22.1504031582
  0
LINE
  5
297
100
AcDbEntity
  8
0
100
AcDbLine
 62
7
  6
CONTINUOUS
 10
2.1857356905
 20
-21.7525188702
 11
2.1725761333
 21
-21.7537509509
  0
LINE
  5
298
100
AcDbEntity
  8
0
100
AcDbLine
 62
7
  6
CONTINUOUS
 10
-2.1839977327
 20
-21.9135395358
 11
-2.1707568332
 21
-21.9123111341
  0
LINE
  5
299
100
AcDbEntity
  8
0
100
AcDbLine
 62
7
  6
CONTINUOUS
 10
-2.1914261505
 20
-21.5128081384
 11
-2.2094591214
 21
-21.5143980964
  0
LINE
  5
29A
100
AcDbEntity
  8
0
100
AcDbLine
 62
7
  6
CONTINUOUS
 10
2.1725761333
 20
-21.7537509509
 11
2.158081628
 21
-21.755020891
  0
LINE
  5
29B
100
AcDbEntity
  8
0
100
AcDbLine
 62
7
  6
CONTINUOUS
 10
2.1885875443
 20
-22.153658462
 11
2.2072287809
 21
-22.1520308819
  0
LINE
  5
29C
100
AcDbEntity
  8
0
100
AcDbLine
 62
7
  6
CONTINUOUS
 10
-2.1707568332
 20
-21.9123111341
 11
-2.1562488149
 21
-21.9110501991
  0
LINE
  5
29D
100
AcDbEntity
  8
0
100
AcDbLine
 62
7
  6
CONTINUOUS
 10
2.158081628
 20
-21.755020891
 11
2.1422352793
 21
-21.756325037
  0
LINE
  5
29E
100
AcDbEntity
  8
0
100
AcDbLine
 62
7
  6
CONTINUOUS
 10
-2.1721326723
 20
-21.5112193225
 11
-2.1914261505
 21
-21.5128081384
  0
LINE
  5
29F
100
AcDbEntity
  8
0
100
AcDbLine
 62
7
  6
CONTINUOUS
 10
-2.1562488149
 20
-21.9110501991
 11
-2.1404681347
 21
-21.9097603495
  0
LINE
  5
2A0
100
AcDbEntity
  8
0
100
AcDbLine
 62
7
  6
CONTINUOUS
 10
2.1685421948
 20
-22.1552913495
 11
2.1885875443
 21
-22.153658462
  0
LINE
  5
2A1
100
AcDbEntity
  8
0
100
AcDbLine
 62
7
  6
CONTINUOUS
 10
-2.151510435
 20
-21.5096266122
 11
-2.1721326723
 21
-21.5112193225
  0
LINE
  5
2A2
100
AcDbEntity
  8
0
100
AcDbLine
 62
7
  6
CONTINUOUS
 10
2.1470096849
 20
-22.1569344735
 11
2.1685421948
 21
-22.1552913495
  0
LINE
  5
2A3
100
AcDbEntity
  8
0
100
AcDbLine
 62
7
  6
CONTINUOUS
 10
2.1422352793
 20
-21.756325037
 11
2.1158943396
 21
-21.7583388881
  0
LINE
  5
2A4
100
AcDbEntity
  8
0
100
AcDbLine
 62
7
  6
CONTINUOUS
 10
-2.1404681347
 20
-21.9097603495
 11
-2.1144010191
 21
-21.9077779315
  0
LINE
  5
2A5
100
AcDbEntity
  8
0
100
AcDbLine
 62
7
  6
CONTINUOUS
 10
-2.1179657599
 20
-21.5072233052
 11
-2.151510435
 21
-21.5096266122
  0
LINE
  5
2A6
100
AcDbEntity
  8
0
100
AcDbLine
 62
7
  6
CONTINUOUS
 10
2.1117696469
 20
-22.1594251638
 11
2.1470096849
 21
-22.1569344735
  0
LINE
  5
2A7
100
AcDbEntity
  8
0
100
AcDbLine
 62
7
  6
CONTINUOUS
 10
2.1158943396
 20
-21.7583388881
 11
2.0863905104
 21
-21.7604166585
  0
LINE
  5
2A8
100
AcDbEntity
  8
0
100
AcDbLine
 62
7
  6
CONTINUOUS
 10
-2.1144010191
 20
-21.9077779315
 11
-2.0854194167
 21
-21.9057437205
  0
LINE
  5
2A9
100
AcDbEntity
  8
0
100
AcDbLine
 62
7
  6
CONTINUOUS
 10
-2.0811377611
 20
-21.5047959885
 11
-2.1179657599
 21
-21.5072233052
  0
LINE
  5
2AA
100
AcDbEntity
  8
0
100
AcDbLine
 62
7
  6
CONTINUOUS
 10
2.0863905104
 20
-21.7604166585
 11
2.0536267114
 21
-21.762554394
  0
LINE
  5
2AB
100
AcDbEntity
  8
0
100
AcDbLine
 62
7
  6
CONTINUOUS
 10
-2.0854194167
 20
-21.9057437205
 11
-2.0534682519
 21
-21.9036617303
  0
LINE
  5
2AC
100
AcDbEntity
  8
0
100
AcDbLine
 62
7
  6
CONTINUOUS
 10
2.0728040902
 20
-22.1619539289
 11
2.1117696469
 21
-22.1594251638
  0
LINE
  5
2AD
100
AcDbEntity
  8
0
100
AcDbLine
 62
7
  6
CONTINUOUS
 10
-2.04087378
 20
-21.5023391026
 11
-2.0811377611
 21
-21.5047959885
  0
LINE
  5
2AE
100
AcDbEntity
  8
0
100
AcDbLine
 62
7
  6
CONTINUOUS
 10
2.029911224
 20
-22.1645261591
 11
2.0728040902
 21
-22.1619539289
  0
LINE
  5
2AF
100
AcDbEntity
  8
0
100
AcDbLine
 62
7
  6
CONTINUOUS
 10
-2.0534682519
 20
-21.9036617303
 11
-2.0061326031
 21
-21.9008153904
  0
LINE
  5
2B0
100
AcDbEntity
  8
0
100
AcDbLine
 62
7
  6
CONTINUOUS
 10
2.0536267114
 20
-21.762554394
 11
2.0047168386
 21
-21.7654921653
  0
LINE
  5
2B1
100
AcDbEntity
  8
0
100
AcDbLine
 62
7
  6
CONTINUOUS
 10
-1.9816066589
 20
-21.499010585
 11
-2.04087378
 21
-21.5023391026
  0
LINE
  5
2B2
100
AcDbEntity
  8
0
100
AcDbLine
 62
7
  6
CONTINUOUS
 10
2.0047168386
 20
-21.7654921653
 11
1.9496516067
 21
-21.7685243651
  0
LINE
  5
2B3
100
AcDbEntity
  8
0
100
AcDbLine
 62
7
  6
CONTINUOUS
 10
1.966300292
 20
-22.1680294472
 11
2.029911224
 21
-22.1645261591
  0
LINE
  5
2B4
100
AcDbEntity
  8
0
100
AcDbLine
 62
7
  6
CONTINUOUS
 10
-2.0061326031
 20
-21.9008153904
 11
-1.9391197123
 21
-21.8971487865
  0
LINE
  5
2B5
100
AcDbEntity
  8
0
100
AcDbLine
 62
7
  6
CONTINUOUS
 10
-1.8981520961
 20
-21.4947566471
 11
-1.9816066589
 21
-21.499010585
  0
LINE
  5
2B6
100
AcDbEntity
  8
0
100
AcDbLine
 62
7
  6
CONTINUOUS
 10
1.9496516067
 20
-21.7685243651
 11
1.8718742149
 21
-21.7724410598
  0
LINE
  5
2B7
100
AcDbEntity
  8
0
100
AcDbLine
 62
7
  6
CONTINUOUS
 10
-1.9391197123
 20
-21.8971487865
 11
-1.8631847639
 21
-21.8933690218
  0
LINE
  5
2B8
100
AcDbEntity
  8
0
100
AcDbLine
 62
7
  6
CONTINUOUS
 10
1.8759383015
 20
-22.1725344646
 11
1.966300292
 21
-22.1680294472
  0
LINE
  5
2B9
100
AcDbEntity
  8
0
100
AcDbLine
 62
7
  6
CONTINUOUS
 10
1.8718742149
 20
-21.7724410598
 11
1.7649774257
 21
-21.7773197363
  0
LINE
  5
2BA
100
AcDbEntity
  8
0
100
AcDbLine
 62
7
  6
CONTINUOUS
 10
-1.7838024924
 20
-21.4895114343
 11
-1.8981520961
 21
-21.4947566471
  0
LINE
  5
2BB
100
AcDbEntity
  8
0
100
AcDbLine
 62
7
  6
CONTINUOUS
 10
-1.8631847639
 20
-21.8933690218
 11
-1.7416624601
 21
-21.8879026614
  0
LINE
  5
2BC
100
AcDbEntity
  8
0
100
AcDbLine
 62
7
  6
CONTINUOUS
 10
1.7507734278
 20
-22.1781338885
 11
1.8759383015
 21
-22.1725344646
  0
LWPOLYLINE
  5
2BD
100
AcDbEntity
  8
0
100
AcDbPolyline
 62
7
  6
CONTINUOUS
 90
10
 70
0
 10
1.1496140264
 20
-21.7997676534
 10
1.2117207432
 20
-21.7971899599
 10
1.2960907999
 20
-21.7917690396
 10
1.3791760008
 20
-21.7841841744
 10
1.4608682056
 20
-21.7743574514
 10
1.5409799306
 20
-21.762213193
 10
1.6192953469
 20
-21.7476796237
 10
1.6956820653
 20
-21.7306674668
 10
1.7700373884
 20
-21.7110692105
 10
1.8262289531
 20
-21.6940139309
  0
LINE
  5
2BE
100
AcDbEntity
  8
0
100
AcDbLine
 62
7
  6
CONTINUOUS
 10
-1.6304298066
 20
-21.4832001942
 11
-1.7838024924
 21
-21.4895114343
  0
LINE
  5
2BF
100
AcDbEntity
  8
0
100
AcDbLine
 62
7
  6
CONTINUOUS
 10
1.7649774257
 20
-21.7773197363
 11
1.5986836597
 21
-21.7841184624
  0
LINE
  5
2C0
100
AcDbEntity
  8
0
100
AcDbLine
 62
7
  6
CONTINUOUS
 10
1.5806607564
 20
-22.1849417786
 11
1.7507734278
 21
-22.1781338885
  0
LINE
  5
2C1
100
AcDbEntity
  8
0
100
AcDbLine
 62
7
  6
CONTINUOUS
 10
-1.7416624601
 20
-21.8879026614
 11
-1.5592448974
 21
-21.8805999996
  0
LINE
  5
2C2
100
AcDbEntity
  8
0
100
AcDbLine
 62
7
  6
CONTINUOUS
 10
1.5986836597
 20
-21.7841184624
 11
1.378487457
 21
-21.7921579138
  0
LINE
  5
2C3
100
AcDbEntity
  8
0
100
AcDbLine
 62
7
  6
CONTINUOUS
 10
-1.3741706618
 20
-21.473837998
 11
-1.6304298066
 21
-21.4832001942
  0
LINE
  5
2C4
100
AcDbEntity
  8
0
100
AcDbLine
 62
7
  6
CONTINUOUS
 10
-1.5592448974
 20
-21.8805999996
 11
-1.3478900268
 21
-21.8730139016
  0
LINE
  5
2C5
100
AcDbEntity
  8
0
100
AcDbLine
 62
7
  6
CONTINUOUS
 10
1.2913475802
 20
-22.1951946728
 11
1.5806607564
 21
-22.1849417786
  0
LINE
  5
2C6
100
AcDbEntity
  8
0
100
AcDbLine
 62
7
  6
CONTINUOUS
 10
1.378487457
 20
-21.7921579138
 11
1.1534549377
 21
-21.7996447653
  0
LINE
  5
2C7
100
AcDbEntity
  8
0
100
AcDbLine
 62
7
  6
CONTINUOUS
 10
1.1445933681
 20
-22.1999762075
 11
1.2913475802
 21
-22.1951946728
  0
LINE
  5
2C8
100
AcDbEntity
  8
0
100
AcDbLine
 62
7
  6
CONTINUOUS
 10
-1.3478900268
 20
-21.8730139016
 11
-1.0518716084
 21
-21.8633715188
  0
LINE
  5
2C9
100
AcDbEntity
  8
0
100
AcDbLine
 62
7
  6
CONTINUOUS
 10
-0.8774214166
 20
-21.4580183285
 11
-1.3741706618
 21
-21.473837998
  0
LINE
  5
2CA
100
AcDbEntity
  8
0
100
AcDbLine
 62
7
  6
CONTINUOUS
 10
1.1416042227
 20
-21.4000239232
 11
0.8054245787
 21
-21.4103266582
  0
LINE
  5
2CB
100
AcDbEntity
  8
0
100
AcDbLine
 62
7
  6
CONTINUOUS
 10
-1.0518716084
 20
-21.8633715188
 11
-0.5548462671
 21
-21.8486281871
  0
LINE
  5
2CC
100
AcDbEntity
  8
0
100
AcDbLine
 62
7
  6
CONTINUOUS
 10
0.8054245787
 20
-21.4103266582
 11
0.1093998491
 21
-21.4300836463
  0
LINE
  5
2CD
100
AcDbEntity
  8
0
100
AcDbLine
 62
7
  6
CONTINUOUS
 10
-0.5548462671
 20
-21.8486281871
 11
1.1445935209
 21
-21.7999762026
  0
LINE
  5
2CE
100
AcDbEntity
  8
0
100
AcDbLine
 62
7
  6
CONTINUOUS
 10
0.1093998491
 20
-21.4300836463
 11
-0.8774214166
 21
-21.4580183285
  0
LINE
  5
2CF
100
AcDbEntity
  8
DRAFT
100
AcDbLine
 62
7
  6
CONTINUOUS
 10
9.2
 20
-22.2
 11
9.0
 21
-22.2
  0
LINE
  5
2D0
100
AcDbEntity
  8
DRAFT
100
AcDbLine
 62
7
  6
CONTINUOUS
 10
2.9192924359
 20
-22.2
 11
-2.9192924359
 21
-22.2
  0
LINE
  5
2D1
100
AcDbEntity
  8
DRAFT
100
AcDbLine
 62
7
  6
CONTINUOUS
 10
-9.0
 20
-22.2
 11
-9.2
 21
-22.2
  0
LINE
  5
2D2
100
AcDbEntity
  8
DRAFT
100
AcDbLine
 62
7
  6
CONTINUOUS
 10
7.0709444827
 20
-22.1790555173
 11
9.1209444827
 21
-22.1790555173
  0
LINE
  5
2D3
100
AcDbEntity
  8
DRAFT
100
AcDbLine
 62
7
  6
CONTINUOUS
 10
-7.0709444827
 20
-22.1790555173
 11
-9.1209444827
 21
-22.1790555173
  0
LINE
  5
2D4
100
AcDbEntity
  8
DRAFT
100
AcDbLine
 62
7
  6
CONTINUOUS
 10
7.093634339
 20
-22.156365661
 11
9.243634339
 21
-22.156365661
  0
LINE
  5
2D5
100
AcDbEntity
  8
DRAFT
100
AcDbLine
 62
7
  6
CONTINUOUS
 10
-7.093634339
 20
-22.156365661
 11
-9.243634339
 21
-22.156365661
  0
LINE
  5
2D6
100
AcDbEntity
  8
RACCORDO
100
AcDbLine
 62
7
  6
CONTINUOUS
 10
4.5000190385
 20
-20.5
 11
-4.5000190385
 21
-20.5
  0
LINE
  5
2D7
100
AcDbEntity
  8
RACCORDO
100
AcDbLine
 62
7
  6
CONTINUOUS
 10
4.5131093402
 20
-20.4869096983
 11
-4.5131093402
 21
-20.4869096983
  0
LINE
  5
2D8
100
AcDbEntity
  8
0
100
AcDbLine
 62
7
  6
CONTINUOUS
 10
0.998783328
 20
-22.061727528
 11
1.0489509199
 21
-22.0632811766
  0
LINE
  5
2D9
100
AcDbEntity
  8
0
100
AcDbLine
 62
7
  6
CONTINUOUS
 10
-1.4272092674
 20
-21.9905421668
 11
0.998783328
 21
-22.061727528
  0
LINE
  5
2DA
100
AcDbEntity
  8
0
100
AcDbLine
 62
7
  6
CONTINUOUS
 10
-1.6713771851
 20
-21.9814057228
 11
-1.4272092674
 21
-21.9905421668
  0
LINE
  5
2DB
100
AcDbEntity
  8
0
100
AcDbLine
 62
7
  6
CONTINUOUS
 10
-1.8089998584
 20
-21.9756057785
 11
-1.6713771851
 21
-21.9814057228
  0
LINE
  5
2DC
100
AcDbEntity
  8
0
100
AcDbLine
 62
7
  6
CONTINUOUS
 10
-1.9084863394
 20
-21.9709652445
 11
-1.8089998584
 21
-21.9756057785
  0
LINE
  5
2DD
100
AcDbEntity
  8
0
100
AcDbLine
 62
7
  6
CONTINUOUS
 10
1.9211604187
 20
-21.695887225
 11
1.8332530219
 21
-21.6917123184
  0
LINE
  5
2DE
100
AcDbEntity
  8
0
100
AcDbLine
 62
7
  6
CONTINUOUS
 10
-1.9787464578
 20
-21.9673688881
 11
-1.9084863394
 21
-21.9709652445
  0
LINE
  5
2DF
100
AcDbEntity
  8
0
100
AcDbLine
 62
7
  6
CONTINUOUS
 10
1.9871714048
 20
-21.6993107652
 11
1.9211604187
 21
-21.695887225
  0
LINE
  5
2E0
100
AcDbEntity
  8
0
100
AcDbLine
 62
7
  6
CONTINUOUS
 10
-2.0412224889
 20
-21.963866462
 11
-1.9787464578
 21
-21.9673688881
  0
LINE
  5
2E1
100
AcDbEntity
  8
0
100
AcDbLine
 62
7
  6
CONTINUOUS
 10
2.0464806123
 20
-21.7026706205
 11
1.9871714048
 21
-21.6993107652
  0
LINE
  5
2E2
100
AcDbEntity
  8
0
100
AcDbLine
 62
7
  6
CONTINUOUS
 10
-2.0832706609
 20
-21.9612946382
 11
-2.0412224889
 21
-21.963866462
  0
LINE
  5
2E3
100
AcDbEntity
  8
0
100
AcDbLine
 62
7
  6
CONTINUOUS
 10
2.0867435888
 20
-21.7051532851
 11
2.0464806123
 21
-21.7026706205
  0
LINE
  5
2E4
100
AcDbEntity
  8
0
100
AcDbLine
 62
7
  6
CONTINUOUS
 10
-2.1214376051
 20
-21.9587634017
 11
-2.0832706609
 21
-21.9612946382
  0
LINE
  5
2E5
100
AcDbEntity
  8
0
100
AcDbLine
 62
7
  6
CONTINUOUS
 10
2.1235324668
 20
-21.7076081085
 11
2.0867435888
 21
-21.7051532851
  0
LINE
  5
2E6
100
AcDbEntity
  8
0
100
AcDbLine
 62
7
  6
CONTINUOUS
 10
-2.144832088
 20
-21.9570950476
 11
-2.1214376051
 21
-21.9587634017
  0
LINE
  5
2E7
100
AcDbEntity
  8
0
100
AcDbLine
 62
7
  6
CONTINUOUS
 10
2.1569936621
 20
-21.7100405724
 11
2.1235324668
 21
-21.7076081085
  0
LINE
  5
2E8
100
AcDbEntity
  8
0
100
AcDbLine
 62
7
  6
CONTINUOUS
 10
-2.1666564722
 20
-21.9554395166
 11
-2.144832088
 21
-21.9570950476
  0
LINE
  5
2E9
100
AcDbEntity
  8
0
100
AcDbLine
 62
7
  6
CONTINUOUS
 10
2.1775372176
 20
-21.7116539553
 11
2.1569936621
 21
-21.7100405724
  0
LINE
  5
2EA
100
AcDbEntity
  8
0
100
AcDbLine
 62
7
  6
CONTINUOUS
 10
-2.1869749069
 20
-21.9537939978
 11
-2.1666564722
 21
-21.9554395166
  0
LINE
  5
2EB
100
AcDbEntity
  8
0
100
AcDbLine
 62
7
  6
CONTINUOUS
 10
2.1967324338
 20
-21.7132645242
 11
2.1775372176
 21
-21.7116539553
  0
LINE
  5
2EC
100
AcDbEntity
  8
0
100
AcDbLine
 62
7
  6
CONTINUOUS
 10
-2.2058648155
 20
-21.9521540314
 11
-2.1869749069
 21
-21.9537939978
  0
LINE
  5
2ED
100
AcDbEntity
  8
0
100
AcDbLine
 62
7
  6
CONTINUOUS
 10
2.214643701
 20
-21.7148771587
 11
2.1967324338
 21
-21.7132645242
  0
LINE
  5
2EE
100
AcDbEntity
  8
0
100
AcDbLine
 62
7
  6
CONTINUOUS
 10
-2.2234011144
 20
-21.9505144917
 11
-2.2058648155
 21
-21.9521540314
  0
LINE
  5
2EF
100
AcDbEntity
  8
0
100
AcDbLine
 62
7
  6
CONTINUOUS
 10
-0.4236952399
 20
-20.5423632427
 11
0.2196082143
 21
-20.6757831759
  0
LINE
  5
2F0
100
AcDbEntity
  8
0
100
AcDbLine
 62
7
  6
CONTINUOUS
 10
0.2196082143
 20
-20.6757831759
 11
0.4682887729
 21
-20.727929795
  0
LINE
  5
2F1
100
AcDbEntity
  8
0
100
AcDbLine
 62
7
  6
CONTINUOUS
 10
-0.623836235
 20
-20.5
 11
-0.4236952399
 21
-20.5423632427
  0
LWPOLYLINE
  5
2F2
100
AcDbEntity
  8
0
100
AcDbPolyline
 62
7
  6
CONTINUOUS
 90
23
 70
0
 10
0.4682887729
 20
-20.727929795
 10
0.6989649614
 20
-20.7774855078
 10
0.8076626382
 20
-20.8014269277
 10
0.9116723752
 20
-20.8247972659
 10
1.0109803594
 20
-20.8476161743
 10
1.1058875471
 20
-20.8699718217
 10
1.1962926275
 20
-20.8918557219
 10
1.2821658836
 20
-20.9132696994
 10
1.3638727653
 20
-20.9343128342
 10
1.4413626371
 20
-20.9549796271
 10
1.5145984226
 20
-20.9752625601
 10
1.5838869524
 20
-20.9952494404
 10
1.6492674484
 20
-21.0149574168
 10
1.7105918642
 20
-21.0343430762
 10
1.7678188601
 20
-21.0533872544
 10
1.8210140748
 20
-21.0721024988
 10
1.8700336687
 20
-21.090422083
 10
1.914528708
 20
-21.1081753686
 10
1.9545718031
 20
-21.1253275648
 10
1.9901629441
 20
-21.1417995801
 10
2.0209195703
 20
-21.1572873358
 10
2.0469953595
 20
-21.1716844556
 10
2.0556752354
 20
-21.1769889846
  0
LINE
  5
2F3
100
AcDbEntity
  8
RACCORDO
100
AcDbLine
 62
250
  6
CONTINUOUS
 10
-3.0
 20
-28.5000190385
 11
-2.9876600717
 21
-28.5123589668
  0
LINE
  5
2F4
100
AcDbEntity
  8
DRAFT
100
AcDbLine
 62
7
  6
CONTINUOUS
 10
-9.2
 20
-22.2
 11
-9.243634339
 21
-22.156365661
  0
LINE
  5
2F5
100
AcDbEntity
  8
DRAFT
100
AcDbLine
 62
7
  6
CONTINUOUS
 10
-9.1209444827
 20
-22.1790555173
 11
-9.1
 21
-22.2
  0
LINE
  5
2F6
100
AcDbEntity
  8
DRAFT
100
AcDbLine
 62
7
  6
CONTINUOUS
 10
5.0305440373
 20
-35.0
 11
5.0
 21
-34.9694559627
  0
LINE
  5
2F7
100
AcDbEntity
  8
RACCORDO
100
AcDbLine
 62
250
  6
CONTINUOUS
 10
-12.4816735776
 20
-17.1999428846
 11
-12.4510153074
 21
-17.2306011548
  0
LINE
  5
2F8
100
AcDbEntity
  8
DRAFT
100
AcDbLine
 62
7
  6
CONTINUOUS
 10
-7.0709444827
 20
-22.1790555173
 11
-7.093634339
 21
-22.156365661
  0
LINE
  5
2F9
100
AcDbEntity
  8
RACCORDO
100
AcDbLine
 62
250
  6
CONTINUOUS
 10
5.956403738
 20
-34.956365661
 11
5.9825843414
 21
-34.9825462644
  0
LINE
  5
2FA
100
AcDbEntity
  8
RACCORDO
100
AcDbLine
 62
7
  6
CONTINUOUS
 10
-17.922311299
 20
31.6464466094
 11
-17.9360038721
 21
34.0
  0
LINE
  5
2FB
100
AcDbEntity
  8
RACCORDO
100
AcDbLine
 62
7
  6
CONTINUOUS
 10
-18.5114557546
 20
17.2878679656
 11
-18.5252600184
 21
19.9242640687
  0
LINE
  5
2FC
100
AcDbEntity
  8
RACCORDO
100
AcDbLine
 62
7
  6
CONTINUOUS
 10
-18.5261806034
 20
-17.6738193966
 11
-18.5261806034
 21
-17.2131474193
  0
LINE
  5
2FD
100
AcDbEntity
  8
DRAFT
100
AcDbLine
 62
7
  6
CONTINUOUS
 10
-18.5
 20
-17.7
 11
-18.5
 21
-15.7
  0
LINE
  5
2FE
100
AcDbEntity
  8
DRAFT
100
AcDbLine
 62
7
  6
CONTINUOUS
 10
-18.5
 20
16.7
 11
-18.5
 21
21.7336228197
  0
LINE
  5
2FF
100
AcDbEntity
  8
RACCORDO
100
AcDbLine
 62
250
  6
CONTINUOUS
 10
-18.3935131738
 20
2.8094783551
 11
-18.3935131738
 21
1.1905216452
  0
LINE
  5
300
100
AcDbEntity
  8
DRAFT
100
AcDbLine
 62
7
  6
CONTINUOUS
 10
-18.2183264224
 20
-30.0183264224
 11
-18.2183264224
 21
-23.4816735776
  0
LINE
  5
301
100
AcDbEntity
  8
DRAFT
100
AcDbLine
 62
7
  6
CONTINUOUS
 10
-18.2183264224
 20
27.4816735776
 11
-18.2183264224
 21
34.0183264224
  0
LINE
  5
302
100
AcDbEntity
  8
DRAFT
100
AcDbLine
 62
7
  6
CONTINUOUS
 10
-18.2
 20
-30.0
 11
-18.2
 21
-23.5
  0
LINE
  5
303
100
AcDbEntity
  8
DRAFT
100
AcDbLine
 62
7
  6
CONTINUOUS
 10
-18.2
 20
27.5
 11
-18.2
 21
34.0
  0
LINE
  5
304
100
AcDbEntity
  8
RACCORDO
100
AcDbLine
 62
250
  6
CONTINUOUS
 10
-17.9883645373
 20
32.15
 11
-17.9883645373
 21
30.2039226033
  0
LINE
  5
305
100
AcDbEntity
  8
RACCORDO
100
AcDbLine
 62
250
  6
CONTINUOUS
 10
-17.9883645373
 20
-28.15
 11
-17.9883645373
 21
-26.2039226033
  0
LINE
  5
306
100
AcDbEntity
  8
DRAFT
100
AcDbLine
 62
7
  6
CONTINUOUS
 10
-17.9418217019
 20
34.0
 11
-17.9418217019
 21
32.25
  0
LINE
  5
307
100
AcDbEntity
  8
DRAFT
100
AcDbLine
 62
7
  6
CONTINUOUS
 10
-17.9418217019
 20
-28.25
 11
-17.9418217019
 21
-30.0
  0
LINE
  5
308
100
AcDbEntity
  8
RACCORDO
100
AcDbLine
 62
7
  6
CONTINUOUS
 10
-17.9214592976
 20
-27.2928932188
 11
-17.9214592976
 21
-26.767287244
  0
LINE
  5
309
100
AcDbEntity
  8
RACCORDO
100
AcDbLine
 62
7
  6
CONTINUOUS
 10
-17.9214592976
 20
30.767287244
 11
-17.9214592976
 21
31.2928932188
  0
LINE
  5
30A
100
AcDbEntity
  8
ASSI
100
AcDbLine
 62
7
  6
CONTINUOUS
 10
-17.298299
 20
27.5
 11
-17.298299
 21
27.99999
  0
LINE
  5
30B
100
AcDbEntity
  8
ASSI
100
AcDbLine
 62
7
  6
CONTINUOUS
 10
-17.70832
 20
27.99999
 11
-17.7083490148
 21
27.5
  0
LINE
  5
30C
100
AcDbEntity
  8
DRAFT
100
AcDbLine
 62
7
  6
CONTINUOUS
 10
-18.505243392
 20
19.7283794276
 11
-18.5087906869
 21
17.2
  0
LINE
  5
30D
100
AcDbEntity
  8
RACCORDO
100
AcDbLine
 62
7
  6
CONTINUOUS
 10
-17.9360038721
 20
-30.0
 11
-17.922311299
 21
-27.6464466094
  0
LINE
  5
30E
100
AcDbEntity
  8
DRAFT
100
AcDbLine
 62
7
  6
CONTINUOUS
 10
-18.5235840935
 20
20.9394127892
 11
-18.5
 21
21.7336228197
  0
LINE
  5
30F
100
AcDbEntity
  8
ASSI
100
AcDbLine
 62
7
  6
CONTINUOUS
 10
-11.268245
 20
27.999995
 11
-11.4287774097
 21
27.5
  0
LINE
  5
310
100
AcDbEntity
  8
DRAFT
100
AcDbLine
 62
7
  6
CONTINUOUS
 10
-24.5
 20
-17.7
 11
-18.5
 21
-17.7
  0
LINE
  5
311
100
AcDbEntity
  8
DRAFT
100
AcDbLine
 62
7
  6
CONTINUOUS
 10
18.5
 20
-17.7
 11
24.5
 21
-17.7
  0
LINE
  5
312
100
AcDbEntity
  8
DRAFT
100
AcDbLine
 62
7
  6
CONTINUOUS
 10
12.4816735776
 20
-17.6816735776
 11
10.7816735776
 21
-17.6816735776
  0
LINE
  5
313
100
AcDbEntity
  8
DRAFT
100
AcDbLine
 62
7
  6
CONTINUOUS
 10
-10.7816735776
 20
-17.6816735776
 11
-12.4816735776
 21
-17.6816735776
  0
LINE
  5
314
100
AcDbEntity
  8
DRAFT
100
AcDbLine
 62
7
  6
CONTINUOUS
 10
-24.4738193966
 20
-17.6738193966
 11
-18.5261806034
 21
-17.6738193966
  0
LINE
  5
315
100
AcDbEntity
  8
DRAFT
100
AcDbLine
 62
7
  6
CONTINUOUS
 10
18.5261806034
 20
-17.6738193966
 11
24.4738193966
 21
-17.6738193966
  0
LINE
  5
316
100
AcDbEntity
  8
RACCORDO
100
AcDbLine
 62
7
  6
CONTINUOUS
 10
-11.248465786
 20
-17.6380392387
 11
-10.7380392387
 21
-17.6380392387
  0
LINE
  5
317
100
AcDbEntity
  8
RACCORDO
100
AcDbLine
 62
7
  6
CONTINUOUS
 10
11.248465786
 20
-17.6380392387
 11
10.7380392387
 21
-17.6380392387
  0
LINE
  5
318
100
AcDbEntity
  8
RACCORDO
100
AcDbLine
 62
250
  6
CONTINUOUS
 10
12.4484200936
 20
-17.5292977866
 11
11.248465786
 21
-17.5292977866
  0
LINE
  5
319
100
AcDbEntity
  8
RACCORDO
100
AcDbLine
 62
250
  6
CONTINUOUS
 10
-11.248465786
 20
-17.5292977866
 11
-12.4484200936
 21
-17.5292977866
  0
LINE
  5
31A
100
AcDbEntity
  8
RACCORDO
100
AcDbLine
 62
250
  6
CONTINUOUS
 10
-10.9510724228
 20
-17.2306011548
 11
-7.093634339
 21
-17.2306011548
  0
LINE
  5
31B
100
AcDbEntity
  8
RACCORDO
100
AcDbLine
 62
250
  6
CONTINUOUS
 10
7.093634339
 20
-17.2306011548
 11
10.9510724228
 21
-17.2306011548
  0
LINE
  5
31C
100
AcDbEntity
  8
RACCORDO
100
AcDbLine
 62
250
  6
CONTINUOUS
 10
24.4738193966
 20
-17.2131474193
 11
18.5261806034
 21
-17.2131474193
  0
LINE
  5
31D
100
AcDbEntity
  8
RACCORDO
100
AcDbLine
 62
250
  6
CONTINUOUS
 10
-18.5261806034
 20
-17.2131474193
 11
-24.4738193966
 21
-17.2131474193
  0
LINE
  5
31E
100
AcDbEntity
  8
RACCORDO
100
AcDbLine
 62
250
  6
CONTINUOUS
 10
6.956365661
 20
-33.956403738
 11
6.9825462644
 21
-33.9825843414
  0
LINE
  5
31F
100
AcDbEntity
  8
RACCORDO
100
AcDbLine
 62
250
  6
CONTINUOUS
 10
-2.9945953222
 20
-24.0053856393
 11
-3.0
 21
-23.9999809615
  0
LINE
  5
320
100
AcDbEntity
  8
RACCORDO
100
AcDbLine
 62
250
  6
CONTINUOUS
 10
8.0000380769
 20
-35.0
 11
7.979966281
 21
-34.9799282041
  0
LINE
  5
321
100
AcDbEntity
  8
RACCORDO
100
AcDbLine
 62
250
  6
CONTINUOUS
 10
-10.981730693
 20
-15.7
 11
-10.9510724228
 21
-15.7306582703
  0
LINE
  5
322
100
AcDbEntity
  8
RACCORDO
100
AcDbLine
 62
250
  6
CONTINUOUS
 10
-2.4953849082
 20
-23.5046341302
 11
-2.5000190385
 21
-23.5
  0
LINE
  5
323
100
AcDbEntity
  8
RACCORDO
100
AcDbLine
 62
250
  6
CONTINUOUS
 10
-5.0130903017
 20
-20.9868906598
 11
-5.0
 21
-20.9999809615
  0
LINE
  5
324
100
AcDbEntity
  8
RACCORDO
100
AcDbLine
 62
250
  6
CONTINUOUS
 10
9.0
 20
-34.0000380769
 11
8.9799282041
 21
-33.979966281
  0
LINE
  5
325
100
AcDbEntity
  8
RACCORDO
100
AcDbLine
 62
250
  6
CONTINUOUS
 10
-4.5131093402
 20
-20.4869096983
 11
-4.5000190385
 21
-20.5
  0
LINE
  5
326
100
AcDbEntity
  8
RACCORDO
100
AcDbLine
 62
250
  6
CONTINUOUS
 10
4.5131093402
 20
-29.0130903017
 11
4.5000190385
 21
-29.0
  0
LINE
  5
327
100
AcDbEntity
  8
ASSI
100
AcDbLine
 62
7
  6
CONTINUOUS
 10
-15.025152
 20
27.999995
 11
-15.025152
 21
27.5
  0
LINE
  5
328
100
AcDbEntity
  8
ASSI
100
AcDbLine
 62
7
  6
CONTINUOUS
 10
-14.6151341508
 20
27.5
 11
-14.615136
 21
27.999995
  0
LINE
  5
329
100
AcDbEntity
  8
RACCORDO
100
AcDbLine
 62
250
  6
CONTINUOUS
 10
6.956365661
 20
-16.5284271247
 11
-6.956365661
 21
-16.5284271247
  0
LINE
  5
32A
100
AcDbEntity
  8
RACCORDO
100
AcDbLine
 62
250
  6
CONTINUOUS
 10
-10.9510724228
 20
-15.7306582703
 11
-7.0806582703
 21
-15.7306582703
  0
LINE
  5
32B
100
AcDbEntity
  8
RACCORDO
100
AcDbLine
 62
250
  6
CONTINUOUS
 10
7.0806582703
 20
-15.7306582703
 11
10.9510724228
 21
-15.7306582703
  0
LINE
  5
32C
100
AcDbEntity
  8
DRAFT
100
AcDbLine
 62
7
  6
CONTINUOUS
 10
-9.1209444827
 20
-15.7209444827
 11
-7.0709444827
 21
-15.7209444827
  0
LINE
  5
32D
100
AcDbEntity
  8
DRAFT
100
AcDbLine
 62
7
  6
CONTINUOUS
 10
7.0709444827
 20
-15.7209444827
 11
9.1209444827
 21
-15.7209444827
  0
LINE
  5
32E
100
AcDbEntity
  8
RACCORDO
100
AcDbLine
 62
250
  6
CONTINUOUS
 10
24.4867954653
 20
-15.7132045347
 11
18.5132045347
 21
-15.7132045347
  0
LINE
  5
32F
100
AcDbEntity
  8
RACCORDO
100
AcDbLine
 62
250
  6
CONTINUOUS
 10
-18.5132045347
 20
-15.7132045347
 11
-24.4867954653
 21
-15.7132045347
  0
LINE
  5
330
100
AcDbEntity
  8
DRAFT
100
AcDbLine
 62
7
  6
CONTINUOUS
 10
24.5
 20
-15.7
 11
18.5
 21
-15.7
  0
LINE
  5
331
100
AcDbEntity
  8
RACCORDO
100
AcDbLine
 62
7
  6
CONTINUOUS
 10
-10.981730693
 20
-15.7
 11
-9.1
 21
-15.7
  0
LINE
  5
332
100
AcDbEntity
  8
DRAFT
100
AcDbLine
 62
7
  6
CONTINUOUS
 10
9.1
 20
-15.7
 11
8.8659001248
 21
-15.7
  0
LINE
  5
333
100
AcDbEntity
  8
DRAFT
100
AcDbLine
 62
7
  6
CONTINUOUS
 10
-8.8659001248
 20
-15.7
 11
-9.1
 21
-15.7
  0
LINE
  5
334
100
AcDbEntity
  8
RACCORDO
100
AcDbLine
 62
7
  6
CONTINUOUS
 10
9.1
 20
-15.7
 11
10.981730693
 21
-15.7
  0
LINE
  5
335
100
AcDbEntity
  8
DRAFT
100
AcDbLine
 62
7
  6
CONTINUOUS
 10
-18.5
 20
-15.7
 11
-24.5
 21
-15.7
  0
LINE
  5
336
100
AcDbEntity
  8
RACCORDO
100
AcDbLine
 62
7
  6
CONTINUOUS
 10
6.9
 20
-15.2
 11
7.9798901257
 21
-15.2
  0
LINE
  5
337
100
AcDbEntity
  8
RACCORDO
100
AcDbLine
 62
7
  6
CONTINUOUS
 10
-6.9
 20
-15.2
 11
-7.9798901257
 21
-15.2
  0
LINE
  5
338
100
AcDbEntity
  8
RACCORDO
100
AcDbLine
 62
250
  6
CONTINUOUS
 10
6.9
 20
-15.1142135624
 11
-6.9
 21
-15.1142135624
  0
LINE
  5
339
100
AcDbEntity
  8
RACCORDO
100
AcDbLine
 62
250
  6
CONTINUOUS
 10
5.0130903017
 20
-28.5131093402
 11
5.0
 21
-28.5000190385
  0
LINE
  5
33A
100
AcDbEntity
  8
RACCORDO
100
AcDbLine
 62
7
  6
CONTINUOUS
 10
-9.2356680678
 20
-30.6424202064
 11
-9.2019338874
 21
-30.980612377
  0
LINE
  5
33B
100
AcDbEntity
  8
ASSI
100
AcDbLine
 62
7
  6
CONTINUOUS
 10
-13.429837
 20
27.999995
 11
-13.429837
 21
27.5
  0
LINE
  5
33C
100
AcDbEntity
  8
ASSI
100
AcDbLine
 62
7
  6
CONTINUOUS
 10
-13.019821
 20
27.5
 11
-13.019821
 21
27.999995
  0
LINE
  5
33D
100
AcDbEntity
  8
ASSI
100
AcDbLine
 62
7
  6
CONTINUOUS
 10
-12.609816
 20
27.999995
 11
-12.6098172194
 21
27.5
  0
LINE
  5
33E
100
AcDbEntity
  8
DRAFT
100
AcDbLine
 62
7
  6
CONTINUOUS
 10
-12.4816735776
 20
-30.9825462644
 11
-12.4816735776
 21
-30.0183264224
  0
LINE
  5
33F
100
AcDbEntity
  8
RACCORDO
100
AcDbLine
 62
7
  6
CONTINUOUS
 10
-12.4816735776
 20
-17.6816735776
 11
-12.4816735776
 21
-17.1999428846
  0
LINE
  5
340
100
AcDbEntity
  8
RACCORDO
100
AcDbLine
 62
250
  6
CONTINUOUS
 10
-12.4484200936
 20
-30.6666269111
 11
-12.4484200936
 21
-30.0515799064
  0
LINE
  5
341
100
AcDbEntity
  8
RACCORDO
100
AcDbLine
 62
250
  6
CONTINUOUS
 10
-12.4484200936
 20
-17.6484200936
 11
-12.4484200936
 21
-17.5292977866
  0
LINE
  5
342
100
AcDbEntity
  8
ASSI
100
AcDbLine
 62
7
  6
CONTINUOUS
 10
-12.1998022195
 20
27.5
 11
-12.199801
 21
28.0
  0
LINE
  5
343
100
AcDbEntity
  8
DRAFT
100
AcDbLine
 62
7
  6
CONTINUOUS
 10
3.0
 20
19.7336228197
 11
2.994756608
 21
19.7283794276
  0
LINE
  5
344
100
AcDbEntity
  8
DRAFT
100
AcDbLine
 62
7
  6
CONTINUOUS
 10
10.8
 20
27.5
 11
10.7816735776
 21
27.4816735776
  0
LINE
  5
345
100
AcDbEntity
  8
RACCORDO
100
AcDbLine
 62
7
  6
CONTINUOUS
 10
11.0756485416
 20
30.2672955372
 11
11.0581782981
 21
30.25
  0
LWPOLYLINE
  5
346
100
AcDbEntity
  8
0
100
AcDbPolyline
 62
7
  6
CONTINUOUS
 90
13
 70
0
 10
0.9117721695
 20
-12.9706101798
 10
1.0122547363
 20
-12.947957703
 10
1.1091924179
 20
-12.9256240618
 10
1.2024856989
 20
-12.9036065769
 10
1.2923396929
 20
-12.8818328582
 10
1.3786723237
 20
-12.8602997953
 10
1.4614256199
 20
-12.83900223
 10
1.5408333581
 20
-12.8178598831
 10
1.6168351248
 20
-12.7968675951
 10
1.6893990401
 20
-12.7760151513
 10
1.7587838758
 20
-12.7552057258
 10
1.8250237948
 20
-12.7344004182
 10
1.8880013222
 20
-12.7136077708
  0
LINE
  5
347
100
AcDbEntity
  8
0
100
AcDbLine
 62
7
  6
CONTINUOUS
 10
0.7003936133
 20
-13.0169444434
 11
0.9117721695
 21
-12.9706101798
  0
LWPOLYLINE
  5
348
100
AcDbEntity
  8
0
100
AcDbPolyline
 62
7
  6
CONTINUOUS
 90
30
 70
0
 10
-0.6864832195
 20
-12.9072988008
 10
-0.8070698753
 20
-12.9334820673
 10
-0.9245289978
 20
-12.9594811327
 10
-1.0382021067
 20
-12.9852116005
 10
-1.1477822492
 20
-13.0106569693
 10
-1.2531691296
 20
-13.035841737
 10
-1.3541089263
 20
-13.0607476919
 10
-1.4504574353
 20
-13.0853750752
 10
-1.5421521678
 20
-13.1097385268
 10
-1.6291396962
 20
-13.1338498645
 10
-1.7113718371
 20
-13.1577166411
 10
-1.7888641088
 20
-13.1813595554
 10
-1.861727251
 20
-13.2048267794
 10
-1.9299693533
 20
-13.2281330578
 10
-1.9936869966
 20
-13.2513204149
 10
-2.0531804229
 20
-13.2745143013
 10
-2.1084927731
 20
-13.2977553897
 10
-2.1597584552
 20
-13.3211266364
 10
-2.2074500016
 20
-13.344900375
 10
-2.2516927586
 20
-13.3692404877
 10
-2.2924825573
 20
-13.3942711884
 10
-2.3301279475
 20
-13.4203683455
 10
-2.3645833593
 20
-13.4477763628
 10
-2.3957926299
 20
-13.476820201
 10
-2.4239561997
 20
-13.5082822319
 10
-2.4491756445
 20
-13.543285622
 10
-2.4702928782
 20
-13.581533206
 10
-2.4859406114
 20
-13.6212988715
 10
-2.4957937029
 20
-13.6616021621
 10
-2.499890653
 20
-13.7026154966
  0
LINE
  5
349
100
AcDbEntity
  8
0
100
AcDbLine
 62
7
  6
CONTINUOUS
 10
0.6875175415
 20
-12.6189210562
 11
0.455780581
 21
-12.6686291222
  0
LINE
  5
34A
100
AcDbEntity
  8
0
100
AcDbLine
 62
7
  6
CONTINUOUS
 10
0.475253568
 20
-13.064866334
 11
0.7003936133
 21
-13.0169444434
  0
LINE
  5
34B
100
AcDbEntity
  8
0
100
AcDbLine
 62
7
  6
CONTINUOUS
 10
-0.6358590574
 20
-13.2971080751
 11
-0.3872863538
 21
-13.2441633362
  0
LINE
  5
34C
100
AcDbEntity
  8
0
100
AcDbLine
 62
7
  6
CONTINUOUS
 10
-0.4371214583
 20
-12.8543624343
 11
-0.6864832195
 21
-12.9072988008
  0
LINE
  5
34D
100
AcDbEntity
  8
0
100
AcDbLine
 62
7
  6
CONTINUOUS
 10
0.455780581
 20
-12.6686291222
 11
0.2068200089
 21
-12.7207857987
  0
LINE
  5
34E
100
AcDbEntity
  8
0
100
AcDbLine
 62
7
  6
CONTINUOUS
 10
-0.3872863538
 20
-13.2441633362
 11
-0.1351389138
 21
-13.1915797644
  0
LINE
  5
34F
100
AcDbEntity
  8
0
100
AcDbLine
 62
7
  6
CONTINUOUS
 10
0.2068200089
 20
-12.7207857987
 11
-0.4371214583
 21
-12.8543624343
  0
LWPOLYLINE
  5
350
100
AcDbEntity
  8
0
100
AcDbPolyline
 62
7
  6
CONTINUOUS
 90
3
 70
0
 10
-0.1351389138
 20
-13.1915797644
 10
0.1147952125
 20
-13.139895776
 10
0.475253568
 20
-13.064866334
  0
LINE
  5
351
100
AcDbEntity
  8
RACCORDO
100
AcDbLine
 62
250
  6
CONTINUOUS
 10
-6.9
 20
-12.7878679656
 11
-0.1172941472
 21
-12.7878679656
  0
LINE
  5
352
100
AcDbEntity
  8
RACCORDO
100
AcDbLine
 62
250
  6
CONTINUOUS
 10
1.6481527179
 20
-12.7878679656
 11
6.9
 21
-12.7878679656
  0
LINE
  5
353
100
AcDbEntity
  8
RACCORDO
100
AcDbLine
 62
7
  6
CONTINUOUS
 10
-6.9
 20
-12.7
 11
0.3064803476
 21
-12.7
  0
LINE
  5
354
100
AcDbEntity
  8
RACCORDO
100
AcDbLine
 62
7
  6
CONTINUOUS
 10
1.9270543706
 20
-12.7
 11
6.9
 21
-12.7
  0
LINE
  5
355
100
AcDbEntity
  8
0
100
AcDbLine
 62
7
  6
CONTINUOUS
 10
-0.371925171
 20
-11.5931912183
 11
0.2734043173
 21
-11.7269847662
  0
LWPOLYLINE
  5
356
100
AcDbEntity
  8
0
100
AcDbPolyline
 62
7
  6
CONTINUOUS
 90
24
 70
0
 10
0.2734043173
 20
-11.7269847662
 10
0.5204680734
 20
-11.7790141535
 10
0.6384869549
 20
-11.8043437946
 10
0.752161708
 20
-11.8291444242
 10
0.8611092784
 20
-11.8533720819
 10
0.965373815
 20
-11.8770676405
 10
1.0649483331
 20
-11.900254663
 10
1.1596515829
 20
-11.9229085448
 10
1.2495172108
 20
-11.9450474695
 10
1.3348515961
 20
-11.9667548871
 10
1.4155629851
 20
-11.9880125435
 10
1.4916778549
 20
-12.0088262509
 10
1.563602269
 20
-12.029307437
 10
1.6313628908
 20
-12.0494673426
 10
1.6948418994
 20
-12.0692692853
 10
1.7541322982
 20
-12.0887362984
 10
1.8093321886
 20
-12.1078956232
 10
1.8602405343
 20
-12.1266657793
 10
1.9064878533
 20
-12.1448731288
 10
1.9481507612
 20
-12.162486882
 10
1.9852097934
 20
-12.1794222596
 10
2.0172362428
 20
-12.1953555227
 10
2.0443880868
 20
-12.2101770925
 10
2.0556009443
 20
-12.2169580711
  0
LINE
  5
357
100
AcDbEntity
  8
DRAFT
100
AcDbLine
 62
7
  6
CONTINUOUS
 10
7.093634339
 20
-26.243634339
 11
7.0709444827
 21
-26.2209444827
  0
LINE
  5
358
100
AcDbEntity
  8
DRAFT
100
AcDbLine
 62
7
  6
CONTINUOUS
 10
12.4816735776
 20
-30.9825462644
 11
12.4797396903
 21
-30.980612377
  0
LINE
  5
359
100
AcDbEntity
  8
DRAFT
100
AcDbLine
 62
7
  6
CONTINUOUS
 10
9.1209444827
 20
-26.2209444827
 11
9.1
 21
-26.2
  0
LINE
  5
35A
100
AcDbEntity
  8
DRAFT
100
AcDbLine
 62
7
  6
CONTINUOUS
 10
9.2
 20
-26.2
 11
9.243634339
 21
-26.243634339
  0
LINE
  5
35B
100
AcDbEntity
  8
RACCORDO
100
AcDbLine
 62
7
  6
CONTINUOUS
 10
-11.0639961279
 20
-30.0
 11
-11.077688701
 21
-27.6464466094
  0
LINE
  5
35C
100
AcDbEntity
  8
RACCORDO
100
AcDbLine
 62
250
  6
CONTINUOUS
 10
-11.248465786
 20
-17.6380392387
 11
-11.248465786
 21
-17.5292977866
  0
LINE
  5
35D
100
AcDbEntity
  8
RACCORDO
100
AcDbLine
 62
7
  6
CONTINUOUS
 10
-11.0785407024
 20
-27.2928932188
 11
-11.0785407024
 21
-26.767287244
  0
LINE
  5
35E
100
AcDbEntity
  8
RACCORDO
100
AcDbLine
 62
7
  6
CONTINUOUS
 10
-11.0785407024
 20
30.767287244
 11
-11.0785407024
 21
31.2928932188
  0
LINE
  5
35F
100
AcDbEntity
  8
DRAFT
100
AcDbLine
 62
7
  6
CONTINUOUS
 10
-11.0581782981
 20
-26.25
 11
-11.0581782981
 21
-30.0
  0
LINE
  5
360
100
AcDbEntity
  8
DRAFT
100
AcDbLine
 62
7
  6
CONTINUOUS
 10
-11.0581782981
 20
30.25
 11
-11.0581782981
 21
34.0
  0
LINE
  5
361
100
AcDbEntity
  8
RACCORDO
100
AcDbLine
 62
250
  6
CONTINUOUS
 10
-10.9510724228
 20
-15.7306582703
 11
-10.9510724228
 21
-17.2306011548
  0
LINE
  5
362
100
AcDbEntity
  8
DRAFT
100
AcDbLine
 62
7
  6
CONTINUOUS
 10
-10.8
 20
34.0
 11
-10.8
 21
32.15
  0
LINE
  5
363
100
AcDbEntity
  8
DRAFT
100
AcDbLine
 62
7
  6
CONTINUOUS
 10
-10.8
 20
27.9991273132
 11
-10.8
 21
27.5
  0
LINE
  5
364
100
AcDbEntity
  8
DRAFT
100
AcDbLine
 62
7
  6
CONTINUOUS
 10
-10.8
 20
-23.5
 11
-10.8
 21
-23.9991273132
  0
LINE
  5
365
100
AcDbEntity
  8
DRAFT
100
AcDbLine
 62
7
  6
CONTINUOUS
 10
-10.8
 20
-28.15
 11
-10.8
 21
-30.0
  0
LINE
  5
366
100
AcDbEntity
  8
DRAFT
100
AcDbLine
 62
7
  6
CONTINUOUS
 10
-10.7991273132
 20
32.1508726868
 11
-10.7991273132
 21
28.0
  0
LINE
  5
367
100
AcDbEntity
  8
DRAFT
100
AcDbLine
 62
7
  6
CONTINUOUS
 10
-10.7991273132
 20
-24.0
 11
-10.7991273132
 21
-28.1508726868
  0
LINE
  5
368
100
AcDbEntity
  8
DRAFT
100
AcDbLine
 62
7
  6
CONTINUOUS
 10
-10.7816735776
 20
34.0183264224
 11
-10.7816735776
 21
27.4816735776
  0
LINE
  5
369
100
AcDbEntity
  8
DRAFT
100
AcDbLine
 62
7
  6
CONTINUOUS
 10
-10.7816735776
 20
-23.4816735776
 11
-10.7816735776
 21
-17.6816735776
  0
LINE
  5
36A
100
AcDbEntity
  8
RACCORDO
100
AcDbLine
 62
7
  6
CONTINUOUS
 10
-10.7380392387
 20
-17.6380392387
 11
-10.7380392387
 21
-29.6462255084
  0
LINE
  5
36B
100
AcDbEntity
  8
RACCORDO
100
AcDbLine
 62
7
  6
CONTINUOUS
 10
-9.243634339
 20
-29.6462255084
 11
-9.243634339
 21
-29.206365661
  0
LINE
  5
36C
100
AcDbEntity
  8
DRAFT
100
AcDbLine
 62
7
  6
CONTINUOUS
 10
-9.243634339
 20
-22.156365661
 11
-9.243634339
 21
-26.243634339
  0
LINE
  5
36D
100
AcDbEntity
  8
DRAFT
100
AcDbLine
 62
7
  6
CONTINUOUS
 10
-9.2
 20
-22.2
 11
-9.2
 21
-26.2
  0
LINE
  5
36E
100
AcDbEntity
  8
DRAFT
100
AcDbLine
 62
7
  6
CONTINUOUS
 10
-9.2
 20
-29.25
 11
-9.2
 21
-30.9825462644
  0
LINE
  5
36F
100
AcDbEntity
  8
DRAFT
100
AcDbLine
 62
7
  6
CONTINUOUS
 10
-9.1
 20
-15.7
 11
-9.1
 21
-15.7209444827
  0
LINE
  5
370
100
AcDbEntity
  8
DRAFT
100
AcDbLine
 62
7
  6
CONTINUOUS
 10
-9.1
 20
-22.1790555173
 11
-9.1
 21
-22.2
  0
LINE
  5
371
100
AcDbEntity
  8
DRAFT
100
AcDbLine
 62
7
  6
CONTINUOUS
 10
-9.1
 20
-26.0
 11
-9.1
 21
-26.2209444827
  0
LINE
  5
372
100
AcDbEntity
  8
DRAFT
100
AcDbLine
 62
7
  6
CONTINUOUS
 10
-9.1
 20
-29.2290555173
 11
-9.1
 21
-29.25
  0
LINE
  5
373
100
AcDbEntity
  8
RACCORDO
100
AcDbLine
 62
7
  6
CONTINUOUS
 10
-9.0
 20
-22.1790555173
 11
-9.0
 21
-26.2209444827
  0
LINE
  5
374
100
AcDbEntity
  8
RACCORDO
100
AcDbLine
 62
7
  6
CONTINUOUS
 10
-9.0
 20
-29.2290555173
 11
-9.0
 21
-34.0000380769
  0
LINE
  5
375
100
AcDbEntity
  8
RACCORDO
100
AcDbLine
 62
7
  6
CONTINUOUS
 10
-8.9799282041
 20
-22.1790555173
 11
-8.9799282041
 21
-26.2209444827
  0
LINE
  5
376
100
AcDbEntity
  8
RACCORDO
100
AcDbLine
 62
7
  6
CONTINUOUS
 10
-8.9799282041
 20
-29.2290555173
 11
-8.9799282041
 21
-33.979966281
  0
LINE
  5
377
100
AcDbEntity
  8
RACCORDO
100
AcDbLine
 62
7
  6
CONTINUOUS
 10
-11.077688701
 20
31.6464466094
 11
-11.0639961279
 21
34.0
  0
LINE
  5
378
100
AcDbEntity
  8
RACCORDO
100
AcDbLine
 62
7
  6
CONTINUOUS
 10
-12.4484200936
 20
-30.6666269111
 11
-12.4797396903
 21
-30.980612377
  0
LINE
  5
379
100
AcDbEntity
  8
SMUSSO
100
AcDbLine
 62
7
  6
CONTINUOUS
 10
-26.2964891058
 20
-26.244206984
 11
-26.2073966503
 21
-26.0972034041
  0
LINE
  5
37A
100
AcDbEntity
  8
DRAFT
100
AcDbLine
 62
7
  6
CONTINUOUS
 10
18.2183264224
 20
34.0183264224
 11
18.2
 21
34.0
  0
LWPOLYLINE
  5
37B
100
AcDbEntity
  8
0
100
AcDbPolyline
 62
7
  6
CONTINUOUS
 90
13
 70
0
 10
2.239486576
 20
-10.4127585821
 10
2.2393243082
 20
-10.412790463
 10
2.238399687
 20
-10.4129642423
 10
2.2368936896
 20
-10.413229866
 10
2.2349166672
 20
-10.4135577924
 10
2.2324769991
 20
-10.4139396414
 10
2.2295479027
 20
-10.4143732439
 10
2.2261904763
 20
-10.4148443699
 10
2.2224048288
 20
-10.415349123
 10
2.218173944
 20
-10.4158861857
 10
2.213534544
 20
-10.4164479028
 10
2.208483865
 20
-10.41703225
 10
2.2030096691
 20
-10.4176384408
  0
LWPOLYLINE
  5
37C
100
AcDbEntity
  8
0
100
AcDbPolyline
 62
7
  6
CONTINUOUS
 90
13
 70
0
 10
-2.2394336981
 20
-10.9872309627
 10
-2.2392570944
 20
-10.9871964916
 10
-2.2382703246
 20
-10.9870122267
 10
-2.2366944692
 20
-10.9867361606
 10
-2.2346573695
 20
-10.9864005552
 10
-2.2321747612
 20
-10.9860144796
 10
-2.2292192744
 20
-10.9855795233
 10
-2.2258561221
 20
-10.9851100054
 10
-2.2220899255
 20
-10.9846099878
 10
-2.2179047867
 20
-10.9840804986
 10
-2.2133347425
 20
-10.9835284758
 10
-2.2083794131
 20
-10.9829559357
 10
-2.2030279065
 20
-10.9823635394
  0
LWPOLYLINE
  5
37D
100
AcDbEntity
  8
0
100
AcDbPolyline
 62
7
  6
CONTINUOUS
 90
34
 70
0
 10
-2.242909826
 20
-10.5845899279
 10
-2.2504052575
 20
-10.5854125987
 10
-2.2576438897
 20
-10.5862431157
 10
-2.2646344406
 20
-10.5870830334
 10
-2.2714260932
 20
-10.5879392922
 10
-2.2780259782
 20
-10.5888143764
 10
-2.2844373857
 20
-10.5897104969
 10
-2.2907067248
 20
-10.5906365754
 10
-2.2968272465
 20
-10.5915946805
 10
-2.3028226752
 20
-10.5925920052
 10
-2.3087909775
 20
-10.5936504609
 10
-2.3147099983
 20
-10.5947735137
 10
-2.3206216317
 20
-10.5959775613
 10
-2.3267227622
 20
-10.5973174336
 10
-2.3329661229
 20
-10.5988031449
 10
-2.3394125944
 20
-10.6004727531
 10
-2.3464180514
 20
-10.6024601688
 10
-2.353949401
 20
-10.6048184106
 10
-2.3620230189
 20
-10.607626369
 10
-2.3710505088
 20
-10.6111417622
 10
-2.3811155447
 20
-10.6155745911
 10
-2.3920026396
 20
-10.6210438318
 10
-2.4036305805
 20
-10.6277543742
 10
-2.4159834213
 20
-10.6360138588
 10
-2.4286979416
 20
-10.6459628341
 10
-2.4411624785
 20
-10.6574922787
 10
-2.4531102626
 20
-10.6706932262
 10
-2.4643369518
 20
-10.6856489402
 10
-2.4744127544
 20
-10.7020586807
 10
-2.483106706
 20
-10.7197688572
 10
-2.4902527775
 20
-10.7387467171
 10
-2.4955967473
 20
-10.7587542478
 10
-2.4989179539
 20
-10.7795844975
 10
-2.4999986145
 20
-10.7992758208
  0
LWPOLYLINE
  5
37E
100
AcDbEntity
  8
0
100
AcDbPolyline
 62
7
  6
CONTINUOUS
 90
34
 70
0
 10
2.2340620458
 20
-10.8163379477
 10
2.2425456143
 20
-10.8154491573
 10
2.2506810318
 20
-10.8145564392
 10
2.2584827138
 20
-10.8136581561
 10
2.265988074
 20
-10.8127496322
 10
2.2732000515
 20
-10.8118298893
 10
2.280140386
 20
-10.8108953955
 10
2.2868772655
 20
-10.8099353056
 10
2.2934103744
 20
-10.8089471916
 10
2.299764936
 20
-10.8079243848
 10
2.3060500745
 20
-10.8068443002
 10
2.3122529003
 20
-10.8057021462
 10
2.3184117266
 20
-10.8044828137
 10
2.3247157684
 20
-10.8031349381
 10
2.3311216534
 20
-10.8016486101
 10
2.337695024
 20
-10.7999863619
 10
2.3447869246
 20
-10.7980196102
 10
2.3523583205
 20
-10.7957000048
 10
2.3604409895
 20
-10.7929479083
 10
2.369472955
 20
-10.789502729
 10
2.3795450224
 20
-10.7851548719
 10
2.3904422683
 20
-10.7797860128
 10
2.4020987688
 20
-10.7731852053
 10
2.4145104179
 20
-10.7650385508
 10
2.4273090137
 20
-10.7552050817
 10
2.4398726431
 20
-10.7437966316
 10
2.451929869
 20
-10.7307220394
 10
2.46328014
 20
-10.7158883467
 10
2.4734952894
 20
-10.6995875047
 10
2.4823447576
 20
-10.6819678553
 10
2.4896616653
 20
-10.6630619982
 10
2.495189932
 20
-10.6431076391
 10
2.4987084288
 20
-10.622310846
 10
2.4999999879
 20
-10.5999937416
  0
LINE
  5
37F
100
AcDbEntity
  8
0
100
AcDbLine
 62
7
  6
CONTINUOUS
 10
-2.2030279065
 20
-10.9823635394
 11
-2.1911867035
 21
-10.9811311482
  0
LINE
  5
380
100
AcDbEntity
  8
0
100
AcDbLine
 62
7
  6
CONTINUOUS
 10
2.2030096691
 20
-10.4176384408
 11
2.1908599515
 21
-10.4189015349
  0
LINE
  5
381
100
AcDbEntity
  8
0
100
AcDbLine
 62
7
  6
CONTINUOUS
 10
-2.2270952793
 20
-10.582960815
 11
-2.242909826
 21
-10.5845899279
  0
LINE
  5
382
100
AcDbEntity
  8
0
100
AcDbLine
 62
7
  6
CONTINUOUS
 10
2.2160034986
 20
-10.8181084667
 11
2.2340620458
 21
-10.8163379477
  0
LINE
  5
383
100
AcDbEntity
  8
0
100
AcDbLine
 62
7
  6
CONTINUOUS
 10
-2.1911867035
 20
-10.9811311482
 11
-2.1778031645
 21
-10.9798414831
  0
LINE
  5
384
100
AcDbEntity
  8
0
100
AcDbLine
 62
7
  6
CONTINUOUS
 10
2.1908599515
 20
-10.4189015349
 11
2.1770838765
 21
-10.420225231
  0
LINE
  5
385
100
AcDbEntity
  8
0
100
AcDbLine
 62
7
  6
CONTINUOUS
 10
-2.2100295541
 20
-10.5813372475
 11
-2.2270952793
 21
-10.582960815
  0
LINE
  5
386
100
AcDbEntity
  8
0
100
AcDbLine
 62
7
  6
CONTINUOUS
 10
2.196384315
 20
-10.8198787502
 11
2.2160034986
 21
-10.8181084667
  0
LINE
  5
387
100
AcDbEntity
  8
0
100
AcDbLine
 62
7
  6
CONTINUOUS
 10
-2.1778031645
 20
-10.9798414831
 11
-2.1628746212
 21
-10.9785031622
  0
LINE
  5
388
100
AcDbEntity
  8
0
100
AcDbLine
 62
7
  6
CONTINUOUS
 10
2.1770838765
 20
-10.420225231
 11
2.1616933456
 21
-10.421598913
  0
LINE
  5
389
100
AcDbEntity
  8
0
100
AcDbLine
 62
7
  6
CONTINUOUS
 10
-2.1915788628
 20
-10.5797081062
 11
-2.2100295541
 21
-10.5813372475
  0
LINE
  5
38A
100
AcDbEntity
  8
0
100
AcDbLine
 62
7
  6
CONTINUOUS
 10
-2.1628746212
 20
-10.9785031622
 11
-2.1463787199
 21
-10.9771214801
  0
LINE
  5
38B
100
AcDbEntity
  8
0
100
AcDbLine
 62
7
  6
CONTINUOUS
 10
2.1750974566
 20
-10.8216562526
 11
2.196384315
 21
-10.8198787502
  0
LINE
  5
38C
100
AcDbEntity
  8
0
100
AcDbLine
 62
7
  6
CONTINUOUS
 10
2.1616933456
 20
-10.421598913
 11
2.1446726991
 21
-10.4230164347
  0
LINE
  5
38D
100
AcDbEntity
  8
0
100
AcDbLine
 62
7
  6
CONTINUOUS
 10
-2.1716266134
 20
-10.5780659744
 11
-2.1915788628
 21
-10.5797081062
  0
LINE
  5
38E
100
AcDbEntity
  8
0
100
AcDbLine
 62
7
  6
CONTINUOUS
 10
-2.1463787199
 20
-10.9771214801
 11
-2.1282856524
 21
-10.9757001867
  0
LINE
  5
38F
100
AcDbEntity
  8
0
100
AcDbLine
 62
7
  6
CONTINUOUS
 10
2.1446726991
 20
-10.4230164347
 11
2.1259959689
 21
-10.424473621
  0
LINE
  5
390
100
AcDbEntity
  8
0
100
AcDbLine
 62
7
  6
CONTINUOUS
 10
2.1520546103
 20
-10.8234456417
 11
2.1750974566
 21
-10.8216562526
  0
LINE
  5
391
100
AcDbEntity
  8
0
100
AcDbLine
 62
7
  6
CONTINUOUS
 10
-2.1500312455
 20
-10.5764030085
 11
-2.1716266134
 21
-10.5780659744
  0
LINE
  5
392
100
AcDbEntity
  8
0
100
AcDbLine
 62
7
  6
CONTINUOUS
 10
2.1271709395
 20
-10.8252506111
 11
2.1520546103
 21
-10.8234456417
  0
LINE
  5
393
100
AcDbEntity
  8
0
100
AcDbLine
 62
7
  6
CONTINUOUS
 10
-2.1282856524
 20
-10.9757001867
 11
-2.098103905
 21
-10.9735017999
  0
LINE
  5
394
100
AcDbEntity
  8
0
100
AcDbLine
 62
7
  6
CONTINUOUS
 10
2.1259959689
 20
-10.424473621
 11
2.0948315345
 21
-10.4267256382
  0
LINE
  5
395
100
AcDbEntity
  8
0
100
AcDbLine
 62
7
  6
CONTINUOUS
 10
-2.1142673739
 20
-10.5738574205
 11
-2.1500312455
 21
-10.5764030085
  0
LINE
  5
396
100
AcDbEntity
  8
0
100
AcDbLine
 62
7
  6
CONTINUOUS
 10
-2.098103905
 20
-10.9735017999
 11
-2.0642145315
 21
-10.9712325021
  0
LINE
  5
397
100
AcDbEntity
  8
0
100
AcDbLine
 62
7
  6
CONTINUOUS
 10
2.0862476363
 20
-10.8279915439
 11
2.1271709395
 21
-10.8252506111
  0
LINE
  5
398
100
AcDbEntity
  8
0
100
AcDbLine
 62
7
  6
CONTINUOUS
 10
2.0948315345
 20
-10.4267256382
 11
2.0598050683
 21
-10.4290499792
  0
LINE
  5
399
100
AcDbEntity
  8
0
100
AcDbLine
 62
7
  6
CONTINUOUS
 10
-2.0741519473
 20
-10.571243269
 11
-2.1142673739
 21
-10.5738574205
  0
LINE
  5
39A
100
AcDbEntity
  8
0
100
AcDbLine
 62
7
  6
CONTINUOUS
 10
-2.0642145315
 20
-10.9712325021
 11
-2.0265603808
 21
-10.9689001642
  0
LINE
  5
39B
100
AcDbEntity
  8
0
100
AcDbLine
 62
7
  6
CONTINUOUS
 10
2.0598050683
 20
-10.4290499792
 11
2.0208224824
 21
-10.4314406643
  0
LINE
  5
39C
100
AcDbEntity
  8
0
100
AcDbLine
 62
7
  6
CONTINUOUS
 10
2.0408379816
 20
-10.8307760493
 11
2.0862476363
 21
-10.8279915439
  0
LINE
  5
39D
100
AcDbEntity
  8
0
100
AcDbLine
 62
7
  6
CONTINUOUS
 10
-2.0294353365
 20
-10.5685594113
 11
-2.0741519473
 21
-10.571243269
  0
LINE
  5
39E
100
AcDbEntity
  8
0
100
AcDbLine
 62
7
  6
CONTINUOUS
 10
-2.0265603808
 20
-10.9689001642
 11
-1.9704213106
 21
-10.9657030998
  0
LINE
  5
39F
100
AcDbEntity
  8
0
100
AcDbLine
 62
7
  6
CONTINUOUS
 10
2.0208224824
 20
-10.4314406643
 11
1.9625310237
 21
-10.4347241505
  0
LINE
  5
3A0
100
AcDbEntity
  8
0
100
AcDbLine
 62
7
  6
CONTINUOUS
 10
1.9730648257
 20
-10.8345587576
 11
2.0408379816
 21
-10.8307760493
  0
LINE
  5
3A1
100
AcDbEntity
  8
0
100
AcDbLine
 62
7
  6
CONTINUOUS
 10
-1.9623275188
 20
-10.564875055
 11
-2.0294353365
 21
-10.5685594113
  0
LINE
  5
3A2
100
AcDbEntity
  8
0
100
AcDbLine
 62
7
  6
CONTINUOUS
 10
-1.9704213106
 20
-10.9657030998
 11
-1.8906154636
 21
-10.9615828327
  0
LINE
  5
3A3
100
AcDbEntity
  8
0
100
AcDbLine
 62
7
  6
CONTINUOUS
 10
1.8968077212
 20
-10.8384215713
 11
1.9730648257
 21
-10.8345587576
  0
LINE
  5
3A4
100
AcDbEntity
  8
0
100
AcDbLine
 62
7
  6
CONTINUOUS
 10
1.9625310237
 20
-10.4347241505
 11
1.8792341371
 21
-10.4389725737
  0
LINE
  5
3A5
100
AcDbEntity
  8
0
100
AcDbLine
 62
7
  6
CONTINUOUS
 10
-1.865848911
 20
-10.5601028992
 11
-1.9623275188
 21
-10.564875055
  0
LINE
  5
3A6
100
AcDbEntity
  8
0
100
AcDbLine
 62
7
  6
CONTINUOUS
 10
-1.8906154636
 20
-10.9615828327
 11
-1.780626354
 21
-10.9564779415
  0
LINE
  5
3A7
100
AcDbEntity
  8
0
100
AcDbLine
 62
7
  6
CONTINUOUS
 10
1.7888478633
 20
-10.84338146
 11
1.8968077212
 21
-10.8384215713
  0
LINE
  5
3A8
100
AcDbEntity
  8
0
100
AcDbLine
 62
7
  6
CONTINUOUS
 10
1.8792341371
 20
-10.4389725737
 11
1.7636487489
 21
-10.4442644022
  0
LINE
  5
3A9
100
AcDbEntity
  8
0
100
AcDbLine
 62
7
  6
CONTINUOUS
 10
-1.7300416203
 20
-10.5541067372
 11
-1.865848911
 21
-10.5601028992
  0
LINE
  5
3AA
100
AcDbEntity
  8
0
100
AcDbLine
 62
7
  6
CONTINUOUS
 10
-1.780626354
 20
-10.9564779415
 11
-1.6327286933
 21
-10.9503247233
  0
LINE
  5
3AB
100
AcDbEntity
  8
0
100
AcDbLine
 62
7
  6
CONTINUOUS
 10
1.7636487489
 20
-10.4442644022
 11
1.6071013877
 21
-10.4506791065
  0
LINE
  5
3AC
100
AcDbEntity
  8
0
100
AcDbLine
 62
7
  6
CONTINUOUS
 10
1.6115684659
 20
-10.8506454871
 11
1.7888478633
 21
-10.84338146
  0
LINE
  5
3AD
100
AcDbEntity
  8
0
100
AcDbLine
 62
7
  6
CONTINUOUS
 10
-1.5411590456
 20
-10.546688243
 11
-1.7300416203
 21
-10.5541067372
  0
LINE
  5
3AE
100
AcDbEntity
  8
0
100
AcDbLine
 62
7
  6
CONTINUOUS
 10
-1.6327286933
 20
-10.9503247233
 11
-1.438497033
 21
-10.9430624772
  0
LINE
  5
3AF
100
AcDbEntity
  8
0
100
AcDbLine
 62
7
  6
CONTINUOUS
 10
1.6071013877
 20
-10.4506791065
 11
1.4000231106
 21
-10.4582948546
  0
LINE
  5
3B0
100
AcDbEntity
  8
0
100
AcDbLine
 62
7
  6
CONTINUOUS
 10
1.3333719843
 20
-10.8606684652
 11
1.6115684659
 21
-10.8506454871
  0
LINE
  5
3B1
100
AcDbEntity
  8
0
100
AcDbLine
 62
7
  6
CONTINUOUS
 10
-1.2111412375
 20
-10.5352776629
 11
-1.5411590456
 21
-10.546688243
  0
LINE
  5
3B2
100
AcDbEntity
  8
0
100
AcDbLine
 62
7
  6
CONTINUOUS
 10
-1.438497033
 20
-10.9430624772
 11
-1.189764576
 21
-10.9346383682
  0
LINE
  5
3B3
100
AcDbEntity
  8
0
100
AcDbLine
 62
7
  6
CONTINUOUS
 10
1.4000231106
 20
-10.4582948546
 11
1.1318629945
 21
-10.4672215715
  0
LINE
  5
3B4
100
AcDbEntity
  8
0
100
AcDbLine
 62
7
  6
CONTINUOUS
 10
-1.189764576
 20
-10.9346383682
 11
-0.8474894005
 21
-10.9240353315
  0
LINE
  5
3B5
100
AcDbEntity
  8
0
100
AcDbLine
 62
7
  6
CONTINUOUS
 10
1.1318629945
 20
-10.4672215715
 11
0.7910878212
 21
-10.4776371543
  0
LINE
  5
3B6
100
AcDbEntity
  8
0
100
AcDbLine
 62
7
  6
CONTINUOUS
 10
0.7622620361
 20
-10.8785035171
 11
1.3333719843
 21
-10.8606684652
  0
LINE
  5
3B7
100
AcDbEntity
  8
0
100
AcDbLine
 62
7
  6
CONTINUOUS
 10
-0.8474894005
 20
-10.9240353315
 11
-0.2843545615
 21
-10.9078920049
  0
LINE
  5
3B8
100
AcDbEntity
  8
0
100
AcDbLine
 62
7
  6
CONTINUOUS
 10
0.7910878212
 20
-10.4776371543
 11
0.244492777
 21
-10.4932190205
  0
LINE
  5
3B9
100
AcDbEntity
  8
0
100
AcDbLine
 62
7
  6
CONTINUOUS
 10
-0.2843545615
 20
-10.9078920049
 11
0.7622620361
 21
-10.8785035171
  0
LINE
  5
3BA
100
AcDbEntity
  8
0
100
AcDbLine
 62
7
  6
CONTINUOUS
 10
0.244492777
 20
-10.4932190205
 11
-1.2111412375
 21
-10.5352776629
  0
LINE
  5
3BB
100
AcDbEntity
  8
DRAFT
100
AcDbLine
 62
7
  6
CONTINUOUS
 10
-2.891366459
 20
-9.0
 11
2.891366459
 21
-9.0
  0
LINE
  5
3BC
100
AcDbEntity
  8
0
100
AcDbLine
 62
7
  6
CONTINUOUS
 10
-0.9144875678
 20
-10.2739547458
 11
-1.2205214439
 21
-10.2643601453
  0
LINE
  5
3BD
100
AcDbEntity
  8
0
100
AcDbLine
 62
7
  6
CONTINUOUS
 10
1.3590577879
 20
-10.3402062214
 11
-0.9144875678
 21
-10.2739547458
  0
LINE
  5
3BE
100
AcDbEntity
  8
0
100
AcDbLine
 62
7
  6
CONTINUOUS
 10
-1.2205214439
 20
-10.2643601453
 11
-1.465114373
 21
-10.2559846354
  0
LINE
  5
3BF
100
AcDbEntity
  8
0
100
AcDbLine
 62
7
  6
CONTINUOUS
 10
1.6297147986
 20
-10.3500592229
 11
1.3590577879
 21
-10.3402062214
  0
LINE
  5
3C0
100
AcDbEntity
  8
0
100
AcDbLine
 62
7
  6
CONTINUOUS
 10
-1.465114373
 20
-10.2559846354
 11
-1.6557972226
 21
-10.2487576458
  0
LINE
  5
3C1
100
AcDbEntity
  8
0
100
AcDbLine
 62
7
  6
CONTINUOUS
 10
1.7796155072
 20
-10.3562163865
 11
1.6297147986
 21
-10.3500592229
  0
LINE
  5
3C2
100
AcDbEntity
  8
0
100
AcDbLine
 62
7
  6
CONTINUOUS
 10
-1.6557972226
 20
-10.2487576458
 11
-1.8010929849
 21
-10.242612551
  0
LINE
  5
3C3
100
AcDbEntity
  8
0
100
AcDbLine
 62
7
  6
CONTINUOUS
 10
1.8877884941
 20
-10.3611436213
 11
1.7796155072
 21
-10.3562163865
  0
LINE
  5
3C4
100
AcDbEntity
  8
0
100
AcDbLine
 62
7
  6
CONTINUOUS
 10
-1.8010929849
 20
-10.242612551
 11
-1.8923450936
 21
-10.2383321342
  0
LINE
  5
3C5
100
AcDbEntity
  8
0
100
AcDbLine
 62
7
  6
CONTINUOUS
 10
1.9643186909
 20
-10.3649794411
 11
1.8877884941
 21
-10.3611436213
  0
LINE
  5
3C6
100
AcDbEntity
  8
0
100
AcDbLine
 62
7
  6
CONTINUOUS
 10
-1.8923450936
 20
-10.2383321342
 11
-1.9731119393
 21
-10.2341500762
  0
LINE
  5
3C7
100
AcDbEntity
  8
0
100
AcDbLine
 62
7
  6
CONTINUOUS
 10
2.0324759326
 20
-10.3687353841
 11
1.9643186909
 21
-10.3649794411
  0
LINE
  5
3C8
100
AcDbEntity
  8
0
100
AcDbLine
 62
7
  6
CONTINUOUS
 10
-1.9731119393
 20
-10.2341500762
 11
-2.0301101266
 21
-10.230887192
  0
LINE
  5
3C9
100
AcDbEntity
  8
0
100
AcDbLine
 62
7
  6
CONTINUOUS
 10
2.078248199
 20
-10.3715003424
 11
2.0324759326
 21
-10.3687353841
  0
LINE
  5
3CA
100
AcDbEntity
  8
0
100
AcDbLine
 62
7
  6
CONTINUOUS
 10
-2.0301101266
 20
-10.230887192
 11
-2.0683718135
 21
-10.2284986789
  0
LINE
  5
3CB
100
AcDbEntity
  8
0
100
AcDbLine
 62
7
  6
CONTINUOUS
 10
2.1195876836
 20
-10.3742218435
 11
2.078248199
 21
-10.3715003424
  0
LINE
  5
3CC
100
AcDbEntity
  8
0
100
AcDbLine
 62
7
  6
CONTINUOUS
 10
-2.0683718135
 20
-10.2284986789
 11
-2.1027816582
 21
-10.2261696658
  0
LINE
  5
3CD
100
AcDbEntity
  8
0
100
AcDbLine
 62
7
  6
CONTINUOUS
 10
2.1447722249
 20
-10.3760135957
 11
2.1195876836
 21
-10.3742218435
  0
LINE
  5
3CE
100
AcDbEntity
  8
0
100
AcDbLine
 62
7
  6
CONTINUOUS
 10
-2.1027816582
 20
-10.2261696658
 11
-2.123589224
 21
-10.2246549559
  0
LINE
  5
3CF
100
AcDbEntity
  8
0
100
AcDbLine
 62
7
  6
CONTINUOUS
 10
2.1681334275
 20
-10.3777895076
 11
2.1447722249
 21
-10.3760135957
  0
LINE
  5
3D0
100
AcDbEntity
  8
0
100
AcDbLine
 62
7
  6
CONTINUOUS
 10
-2.123589224
 20
-10.2246549559
 11
-2.1426994433
 21
-10.2231748754
  0
LINE
  5
3D1
100
AcDbEntity
  8
0
100
AcDbLine
 62
7
  6
CONTINUOUS
 10
2.1897447492
 20
-10.3795523363
 11
2.1681334275
 21
-10.3777895076
  0
LINE
  5
3D2
100
AcDbEntity
  8
0
100
AcDbLine
 62
7
  6
CONTINUOUS
 10
-2.1426994433
 20
-10.2231748754
 11
-2.160115098
 21
-10.2217344813
  0
LINE
  5
3D3
100
AcDbEntity
  8
0
100
AcDbLine
 62
7
  6
CONTINUOUS
 10
2.2096912215
 20
-10.3813062727
 11
2.1897447492
 21
-10.3795523363
  0
LINE
  5
3D4
100
AcDbEntity
  8
0
100
AcDbLine
 62
7
  6
CONTINUOUS
 10
-2.160115098
 20
-10.2217344813
 11
-2.1758541214
 21
-10.2203387219
  0
LINE
  5
3D5
100
AcDbEntity
  8
0
100
AcDbLine
 62
7
  6
CONTINUOUS
 10
-2.1758541214
 20
-10.2203387219
 11
-2.1899216625
 21
-10.2189950148
  0
LWPOLYLINE
  5
3D6
100
AcDbEntity
  8
0
100
AcDbPolyline
 62
7
  6
CONTINUOUS
 90
7
 70
0
 10
-2.1899216625
 20
-10.2189950148
 10
-2.2023088975
 20
-10.2177142112
 10
-2.2078831101
 20
-10.2171000744
 10
-2.2130237224
 20
-10.2165082112
 10
-2.2177436988
 20
-10.2159393967
 10
-2.2220463341
 20
-10.2153956604
 10
-2.2253814646
 20
-10.2149528751
  0
LINE
  5
3D7
100
AcDbEntity
  8
0
100
AcDbLine
 62
7
  6
CONTINUOUS
 10
0.4358463037
 20
-11.360762387
 11
-0.290046921
 21
-11.2101179668
  0
LWPOLYLINE
  5
3D8
100
AcDbEntity
  8
0
100
AcDbPolyline
 62
7
  6
CONTINUOUS
 90
11
 70
0
 10
-0.290046921
 20
-11.2101179668
 10
-0.5330837135
 20
-11.1588716688
 10
-0.6523104543
 20
-11.1332390819
 10
-0.7693818824
 20
-11.1076342311
 10
-0.8839408728
 20
-11.0820608739
 10
-0.9952215845
 20
-11.0566194926
 10
-1.1029077034
 20
-11.031317181
 10
-1.2067134382
 20
-11.0061583001
 10
-1.3059858617
 20
-10.9812457966
 10
-1.4005047754
 20
-10.9565887114
 10
-1.4488180291
 20
-10.9434318852
  0
LINE
  5
3D9
100
AcDbEntity
  8
0
100
AcDbLine
 62
7
  6
CONTINUOUS
 10
0.6604088211
 20
-11.4083621911
 11
0.4358463037
 21
-11.360762387
  0
LWPOLYLINE
  5
3DA
100
AcDbEntity
  8
0
100
AcDbPolyline
 62
7
  6
CONTINUOUS
 90
18
 70
0
 10
-2.2287812488
 20
-11.0775875797
 10
-2.1729973901
 20
-11.1064003117
 10
-2.1009925346
 20
-11.1394136793
 10
-2.0233296466
 20
-11.1712402447
 10
-1.9406332341
 20
-11.2019992263
 10
-1.8530470692
 20
-11.2319489009
 10
-1.760326475
 20
-11.2614002624
 10
-1.6627665727
 20
-11.290436633
 10
-1.5608708016
 20
-11.31907006
 10
-1.454809363
 20
-11.3473990102
 10
-1.3450108369
 20
-11.3754410173
 10
-1.2318861604
 20
-11.4032156564
 10
-1.115620086
 20
-11.4307923423
 10
-0.9966529992
 20
-11.4581738584
 10
-0.8753738132
 20
-11.4853738501
 10
-0.7518887814
 20
-11.5124654771
 10
-0.6265839936
 20
-11.5394562718
 10
-0.371925171
 20
-11.5931912183
  0
LINE
  5
3DB
100
AcDbEntity
  8
0
100
AcDbLine
 62
7
  6
CONTINUOUS
 10
-2.2691855891
 20
-11.0553066919
 11
-2.2285791083
 21
-11.077698554
  0
LINE
  5
3DC
100
AcDbEntity
  8
0
100
AcDbLine
 62
7
  6
CONTINUOUS
 10
-2.2911320287
 20
-11.043057259
 11
-2.2691855891
 21
-11.0553066919
  0
LINE
  5
3DD
100
AcDbEntity
  8
0
100
AcDbLine
 62
7
  6
CONTINUOUS
 10
-2.3113392062
 20
-11.0316419841
 11
-2.2911320287
 21
-11.043057259
  0
LINE
  5
3DE
100
AcDbEntity
  8
0
100
AcDbLine
 62
7
  6
CONTINUOUS
 10
-2.323844793
 20
-11.0244892897
 11
-2.3113392062
 21
-11.0316419841
  0
LINE
  5
3DF
100
AcDbEntity
  8
0
100
AcDbLine
 62
7
  6
CONTINUOUS
 10
-2.3355948083
 20
-11.0176888129
 11
-2.323844793
 21
-11.0244892897
  0
LINE
  5
3E0
100
AcDbEntity
  8
0
100
AcDbLine
 62
7
  6
CONTINUOUS
 10
-2.3466131423
 20
-11.0112230357
 11
-2.3355948083
 21
-11.0176888129
  0
LINE
  5
3E1
100
AcDbEntity
  8
RACCORDO
100
AcDbLine
 62
7
  6
CONTINUOUS
 10
11.0581782981
 20
-26.25
 11
11.0756485416
 21
-26.2672955372
  0
LINE
  5
3E2
100
AcDbEntity
  8
DRAFT
100
AcDbLine
 62
7
  6
CONTINUOUS
 10
10.8
 20
-23.5
 11
10.7816735776
 21
-23.4816735776
  0
LINE
  5
3E3
100
AcDbEntity
  8
RACCORDO
100
AcDbLine
 62
250
  6
CONTINUOUS
 10
-7.8174651591
 20
-34.9799282041
 11
-7.8174651591
 21
-29.2290555173
  0
LINE
  5
3E4
100
AcDbEntity
  8
RACCORDO
100
AcDbLine
 62
250
  6
CONTINUOUS
 10
-7.8174651591
 20
-26.2209444827
 11
-7.8174651591
 21
-22.1790555173
  0
LINE
  5
3E5
100
AcDbEntity
  8
RACCORDO
100
AcDbLine
 62
250
  6
CONTINUOUS
 10
-7.8174651591
 20
-15.7209444827
 11
-7.8174651591
 21
-15.2
  0
LINE
  5
3E6
100
AcDbEntity
  8
RACCORDO
100
AcDbLine
 62
7
  6
CONTINUOUS
 10
-7.5174753789
 20
-15.7209444827
 11
-7.5174765822
 21
-15.2
  0
LINE
  5
3E7
100
AcDbEntity
  8
RACCORDO
100
AcDbLine
 62
7
  6
CONTINUOUS
 10
-7.5174639076
 20
-26.2209444827
 11
-7.5174649369
 21
-22.1790555173
  0
LINE
  5
3E8
100
AcDbEntity
  8
RACCORDO
100
AcDbLine
 62
7
  6
CONTINUOUS
 10
-7.5174765822
 20
-34.9825462644
 11
-7.51746613
 21
-29.2290555173
  0
LINE
  5
3E9
100
AcDbEntity
  8
DRAFT
100
AcDbLine
 62
7
  6
CONTINUOUS
 10
-7.093634339
 20
-29.206365661
 11
-7.093634339
 21
-26.243634339
  0
LINE
  5
3EA
100
AcDbEntity
  8
RACCORDO
100
AcDbLine
 62
7
  6
CONTINUOUS
 10
-7.093634339
 20
-22.156365661
 11
-7.093634339
 21
-17.2306011548
  0
LINE
  5
3EB
100
AcDbEntity
  8
DRAFT
100
AcDbLine
 62
7
  6
CONTINUOUS
 10
-7.0709444827
 20
-29.2290555173
 11
-7.0709444827
 21
-26.2209444827
  0
LINE
  5
3EC
100
AcDbEntity
  8
DRAFT
100
AcDbLine
 62
7
  6
CONTINUOUS
 10
-7.0709444827
 20
-22.1790555173
 11
-7.0709444827
 21
-15.7209444827
  0
LINE
  5
3ED
100
AcDbEntity
  8
RACCORDO
100
AcDbLine
 62
7
  6
CONTINUOUS
 10
-6.9825462644
 20
-33.9825843414
 11
-6.9825462644
 21
-15.2
  0
LINE
  5
3EE
100
AcDbEntity
  8
RACCORDO
100
AcDbLine
 62
7
  6
CONTINUOUS
 10
-6.956365661
 20
-16.5284271247
 11
-6.956365661
 21
-33.956403738
  0
LINE
  5
3EF
100
AcDbEntity
  8
RACCORDO
100
AcDbLine
 62
7
  6
CONTINUOUS
 10
-6.9
 20
-15.2
 11
-6.9
 21
-12.7
  0
LINE
  5
3F0
100
AcDbEntity
  8
ASSI
100
AcDbLine
 62
7
  6
CONTINUOUS
 10
-3.723194
 20
7.25005
 11
-4.275888
 21
5.528587
  0
LINE
  5
3F1
100
AcDbEntity
  8
RACCORDO
100
AcDbLine
 62
250
  6
CONTINUOUS
 10
25.2000380769
 20
35.0
 11
25.1825843414
 21
34.9825462644
  0
LINE
  5
3F2
100
AcDbEntity
  8
RACCORDO
100
AcDbLine
 62
250
  6
CONTINUOUS
 10
26.2
 20
34.0000380769
 11
26.1825462644
 21
33.9825843414
  0
LINE
  5
3F3
100
AcDbEntity
  8
DRAFT
100
AcDbLine
 62
7
  6
CONTINUOUS
 10
18.2183264224
 20
-30.0183264224
 11
18.2
 21
-30.0
  0
LINE
  5
3F4
100
AcDbEntity
  8
RACCORDO
100
AcDbLine
 62
7
  6
CONTINUOUS
 10
7.0806582703
 20
-15.7306582703
 11
7.0709444827
 21
-15.7209444827
  0
LINE
  5
3F5
100
AcDbEntity
  8
ASSI
100
AcDbLine
 62
7
  6
CONTINUOUS
 10
-17.024957
 20
27.999995
 11
-16.8644250601
 21
27.5
  0
LINE
  5
3F6
100
AcDbEntity
  8
ASSI
100
AcDbLine
 62
7
  6
CONTINUOUS
 10
-16.4855
 20
27.596826
 11
-16.614937
 21
27.99999
  0
LINE
  5
3F7
100
AcDbEntity
  8
ASSI
100
AcDbLine
 62
7
  6
CONTINUOUS
 10
-13.6741121499
 20
27.5
 11
-13.817481
 21
27.999995
  0
LWPOLYLINE
  5
3F8
100
AcDbEntity
  8
0
100
AcDbPolyline
 62
7
  6
CONTINUOUS
 90
35
 70
0
 10
-2.4999999874
 20
-21.7331066477
 10
-2.4987080349
 20
-21.7554272977
 10
-2.4951743761
 20
-21.7762902583
 10
-2.4895995037
 20
-21.7963620336
 10
-2.4821954534
 20
-21.8154162411
 10
-2.4732294268
 20
-21.8331710686
 10
-2.4628697454
 20
-21.8495903192
 10
-2.4513492071
 20
-21.8645215993
 10
-2.4391293178
 20
-21.8776415972
 10
-2.4264288277
 20
-21.8890473039
 10
-2.4135231691
 20
-21.8988462262
 10
-2.4010565759
 20
-21.9069275162
 10
-2.3894205768
 20
-21.9134338377
 10
-2.378604083
 20
-21.9186980932
 10
-2.3686352774
 20
-21.922952685
 10
-2.3597200194
 20
-21.9263186927
 10
-2.3517761878
 20
-21.9289999586
 10
-2.3443551341
 20
-21.9312578908
 10
-2.3374265295
 20
-21.9331702164
 10
-2.3310344612
 20
-21.9347827369
 10
-2.324824435
 20
-21.9362237885
 10
-2.318734421
 20
-21.9375294187
 10
-2.3128123678
 20
-21.9387080991
 10
-2.3068653883
 20
-21.9398117551
 10
-2.3008522383
 20
-21.9408557057
 10
-2.2947938516
 20
-21.9418430257
 10
-2.2885924897
 20
-21.9427946821
 10
-2.2822234819
 20
-21.9437174821
 10
-2.2756927529
 20
-21.9446132203
 10
-2.2689532324
 20
-21.9454904286
 10
-2.2619966346
 20
-21.9463516111
 10
-2.2548178785
 20
-21.9471986592
 10
-2.2473783734
 20
-21.9480369909
 10
-2.2396705612
 20
-21.9488679644
 10
-2.2234011144
 20
-21.9505144917
  0
LWPOLYLINE
  5
3F9
100
AcDbEntity
  8
0
100
AcDbPolyline
 62
7
  6
CONTINUOUS
 90
32
 70
0
 10
-2.499999564
 20
-10.8004061988
 10
-2.4991504856
 20
-10.8180858787
 10
-2.4966268092
 20
-10.8361121286
 10
-2.4927454137
 20
-10.8529378277
 10
-2.4877925315
 20
-10.8685019902
 10
-2.4820194322
 20
-10.8827881587
 10
-2.4756105962
 20
-10.8958751771
 10
-2.4687962796
 20
-10.9077079843
 10
-2.4618927525
 20
-10.918135482
 10
-2.4551536311
 20
-10.927159161
 10
-2.4486709358
 20
-10.9349753241
 10
-2.4425061416
 20
-10.9417545495
 10
-2.4368325831
 20
-10.9475133831
 10
-2.4316579519
 20
-10.9524197904
 10
-2.4267373872
 20
-10.9568207464
 10
-2.4220687226
 20
-10.9607884552
 10
-2.417708425
 20
-10.9643336794
 10
-2.4134574884
 20
-10.967658735
 10
-2.4092864437
 20
-10.9708103939
 10
-2.4052311221
 20
-10.9737819699
 10
-2.4011750203
 20
-10.9766738639
 10
-2.3970954026
 20
-10.9795115207
 10
-2.3930073214
 20
-10.9822925242
 10
-2.3888485182
 20
-10.9850654532
 10
-2.3846041863
 20
-10.9878443361
 10
-2.3802799793
 20
-10.9906291401
 10
-2.3758477741
 20
-10.9934410137
 10
-2.3713055299
 20
-10.9962836303
 10
-2.3666506842
 20
-10.9991607352
 10
-2.3618579882
 20
-11.0020896116
 10
-2.356927092
 20
-11.0050717807
 10
-2.3466131423
 20
-11.0112230357
  0
LINE
  5
3FA
100
AcDbEntity
  8
RACCORDO
100
AcDbLine
 62
7
  6
CONTINUOUS
 10
-2.9876600717
 20
-28.5123589668
 11
-2.9945953222
 21
-24.0053856393
  0
LINE
  5
3FB
100
AcDbEntity
  8
DRAFT
100
AcDbLine
 62
7
  6
CONTINUOUS
 10
-2.994756608
 20
19.7283794276
 11
-2.9912093131
 21
17.2
  0
LINE
  5
3FC
100
AcDbEntity
  8
RACCORDO
100
AcDbLine
 62
7
  6
CONTINUOUS
 10
-5.0130903017
 20
-20.9868906598
 11
-5.0130903017
 21
-28.5131093402
  0
LINE
  5
3FD
100
AcDbEntity
  8
RACCORDO
100
AcDbLine
 62
7
  6
CONTINUOUS
 10
-5.0
 20
-28.5000190385
 11
-5.0
 21
-20.9999809615
  0
LINE
  5
3FE
100
AcDbEntity
  8
RACCORDO
100
AcDbLine
 62
7
  6
CONTINUOUS
 10
-4.5
 20
-23.8
 11
-4.5
 21
-20.5
  0
LINE
  5
3FF
100
AcDbEntity
  8
RACCORDO
100
AcDbLine
 62
250
  6
CONTINUOUS
 10
-4.4807247355
 20
-23.5
 11
-4.4807247355
 21
-20.5
  0
LINE
  5
400
100
AcDbEntity
  8
RACCORDO
100
AcDbLine
 62
250
  6
CONTINUOUS
 10
-3.4807628125
 20
-23.5
 11
-3.4807628125
 21
-20.5
  0
LINE
  5
401
100
AcDbEntity
  8
RACCORDO
100
AcDbLine
 62
7
  6
CONTINUOUS
 10
-3.0
 20
-23.9999809615
 11
-3.0
 21
-28.5000190385
  0
LINE
  5
402
100
AcDbEntity
  8
RACCORDO
100
AcDbLine
 62
7
  6
CONTINUOUS
 10
-3.0
 20
-31.4999809615
 11
-3.0
 21
-32.5000190385
  0
LINE
  5
403
100
AcDbEntity
  8
DRAFT
100
AcDbLine
 62
7
  6
CONTINUOUS
 10
-3.0
 20
16.7
 11
-3.0
 21
21.7336228197
  0
LINE
  5
404
100
AcDbEntity
  8
DRAFT
100
AcDbLine
 62
7
  6
CONTINUOUS
 10
-2.9192924359
 20
-22.2
 11
-2.9192924359
 21
-20.5
  0
LINE
  5
405
100
AcDbEntity
  8
RACCORDO
100
AcDbLine
 62
7
  6
CONTINUOUS
 10
-2.891366459
 20
-9.0
 11
-2.891366459
 21
-12.7
  0
LINE
  5
406
100
AcDbEntity
  8
RACCORDO
100
AcDbLine
 62
7
  6
CONTINUOUS
 10
-2.8913664589
 20
-20.5
 11
-2.891366459
 21
-22.2
  0
LINE
  5
407
100
AcDbEntity
  8
ASSI
100
AcDbLine
 62
7
  6
CONTINUOUS
 10
-2.889825
 20
7.25005
 11
-2.889831
 21
4.749931
  0
LINE
  5
408
100
AcDbEntity
  8
RACCORDO
100
AcDbLine
 62
7
  6
CONTINUOUS
 10
-2.9885442454
 20
17.2878679656
 11
-2.9747399816
 21
19.9242640687
  0
LINE
  5
409
100
AcDbEntity
  8
ASSI
100
AcDbLine
 62
7
  6
CONTINUOUS
 10
-4.025875
 20
4.749937
 11
-3.223169
 21
7.25005
  0
LINE
  5
40A
100
AcDbEntity
  8
DRAFT
100
AcDbLine
 62
7
  6
CONTINUOUS
 10
-24.4738193966
 20
-17.6738193966
 11
-24.5
 21
-17.7
  0
LINE
  5
40B
100
AcDbEntity
  8
DRAFT
100
AcDbLine
 62
7
  6
CONTINUOUS
 10
10.7816735776
 20
-17.6816735776
 11
10.7380392387
 21
-17.6380392387
  0
LINE
  5
40C
100
AcDbEntity
  8
DRAFT
100
AcDbLine
 62
7
  6
CONTINUOUS
 10
9.1209444827
 20
-15.7209444827
 11
9.1
 21
-15.7
  0
LINE
  5
40D
100
AcDbEntity
  8
RACCORDO
100
AcDbLine
 62
250
  6
CONTINUOUS
 10
25.1825843414
 20
-30.9825462644
 11
25.2000380769
 21
-31.0
  0
LINE
  5
40E
100
AcDbEntity
  8
RACCORDO
100
AcDbLine
 62
7
  6
CONTINUOUS
 10
12.4484200936
 20
-17.6484200936
 11
12.4816735776
 21
-17.6816735776
  0
LINE
  5
40F
100
AcDbEntity
  8
DRAFT
100
AcDbLine
 62
7
  6
CONTINUOUS
 10
-24.5
 20
19.7336228197
 11
-24.494756608
 21
19.7283794276
  0
LINE
  5
410
100
AcDbEntity
  8
RACCORDO
100
AcDbLine
 62
250
  6
CONTINUOUS
 10
26.1825462644
 20
-29.9825843414
 11
26.2
 21
-30.0000380769
  0
LINE
  5
411
100
AcDbEntity
  8
ASSI
100
AcDbLine
 62
7
  6
CONTINUOUS
 10
-5.328613
 20
7.25005
 11
-4.525913
 21
4.749931
  0
LINE
  5
412
100
AcDbEntity
  8
DRAFT
100
AcDbLine
 62
7
  6
CONTINUOUS
 10
-2.9764159065
 20
20.9394127892
 11
-3.0
 21
21.7336228197
  0
LINE
  5
413
100
AcDbEntity
  8
0
100
AcDbLine
 62
7
  6
CONTINUOUS
 10
-2.4999986184
 20
-10.4007231671
 11
-2.5
 21
-10.4
  0
LINE
  5
414
100
AcDbEntity
  8
0
100
AcDbLine
 62
7
  6
CONTINUOUS
 10
-2.1000007834
 20
-10.3994554708
 11
-2.1
 21
-10.4
  0
LINE
  5
415
100
AcDbEntity
  8
ASSI
100
AcDbLine
 62
7
  6
CONTINUOUS
 10
-2.389813
 20
4.749937
 11
-2.389806
 21
7.25005
  0
LINE
  5
416
100
AcDbEntity
  8
ASSI
100
AcDbLine
 62
7
  6
CONTINUOUS
 10
-1.889806
 20
7.25005
 11
-1.889806
 21
4.749937
  0
LINE
  5
417
100
AcDbEntity
  8
ASSI
100
AcDbLine
 62
7
  6
CONTINUOUS
 10
-1.389788
 20
4.749937
 11
-1.389788
 21
6.398594
  0
LINE
  5
418
100
AcDbEntity
  8
ASSI
100
AcDbLine
 62
7
  6
CONTINUOUS
 10
0.055694
 20
6.398594
 11
0.0557
 21
4.749937
  0
LINE
  5
419
100
AcDbEntity
  8
0
100
AcDbLine
 62
7
  6
CONTINUOUS
 10
-2.499999564
 20
-10.8004061988
 11
-2.4999986145
 21
-10.7992758208
  0
LINE
  5
41A
100
AcDbEntity
  8
0
100
AcDbLine
 62
7
  6
CONTINUOUS
 10
-2.499890653
 20
-13.7026154966
 11
-2.4999824442
 21
-13.7101416487
  0
LINE
  5
41B
100
AcDbEntity
  8
ASSI
100
AcDbLine
 62
7
  6
CONTINUOUS
 10
-0.200175
 20
7.25005
 11
-0.667044
 21
5.621887
  0
LINE
  5
41C
100
AcDbEntity
  8
ASSI
100
AcDbLine
 62
7
  6
CONTINUOUS
 10
-0.417044
 20
4.749944
 11
0.055694
 21
6.398594
  0
LINE
  5
41D
100
AcDbEntity
  8
ASSI
100
AcDbLine
 62
7
  6
CONTINUOUS
 10
1.691756
 20
7.250056
 11
0.889063
 21
4.749937
  0
LINE
  5
41E
100
AcDbEntity
  8
ASSI
100
AcDbLine
 62
7
  6
CONTINUOUS
 10
1.389081
 20
4.749944
 11
1.546938
 21
5.241606
  0
LINE
  5
41F
100
AcDbEntity
  8
ASSI
100
AcDbLine
 62
7
  6
CONTINUOUS
 10
1.699456
 20
5.716625
 11
1.941775
 21
6.4714
  0
LINE
  5
420
100
AcDbEntity
  8
RACCORDO
100
AcDbLine
 62
7
  6
CONTINUOUS
 10
-18.5132045347
 20
-15.7132045347
 11
-18.5
 21
-15.7
  0
LINE
  5
421
100
AcDbEntity
  8
ASSI
100
AcDbLine
 62
7
  6
CONTINUOUS
 10
-4.275888
 20
5.528587
 11
-4.828588
 21
7.25005
  0
LINE
  5
422
100
AcDbEntity
  8
ASSI
100
AcDbLine
 62
7
  6
CONTINUOUS
 10
-10.8
 20
27.8186845817
 11
-10.858214
 21
28.0
  0
LWPOLYLINE
  5
423
100
AcDbEntity
  8
0
100
AcDbPolyline
 62
7
  6
CONTINUOUS
 90
36
 70
0
 10
2.4999999881
 20
-21.9331192668
 10
2.4988653927
 20
-21.9122060359
 10
2.4954547648
 20
-21.8912079314
 10
2.4900056271
 20
-21.8710966674
 10
2.4827534717
 20
-21.8520714309
 10
2.4739557034
 20
-21.8343472483
 10
2.4637837473
 20
-21.8179535119
 10
2.4524751427
 20
-21.8030414729
 10
2.4404528564
 20
-21.7898932255
 10
2.4279184605
 20
-21.7784178116
 10
2.4151444606
 20
-21.7685251361
 10
2.4027428168
 20
-21.7603207483
 10
2.3910780276
 20
-21.7536632294
 10
2.3801605912
 20
-21.7482423792
 10
2.3700597876
 20
-21.7438485343
 10
2.3609844341
 20
-21.740361059
 10
2.3528506819
 20
-21.7375722861
 10
2.345244305
 20
-21.7352269058
 10
2.3381435039
 20
-21.7332455456
 10
2.331580845
 20
-21.7315758764
 10
2.3252069902
 20
-21.7300877533
 10
2.3189592007
 20
-21.7287431163
 10
2.3128832908
 20
-21.7275316255
 10
2.3067933005
 20
-21.7264014173
 10
2.3006495892
 20
-21.7253363671
 10
2.2944736766
 20
-21.7243325435
 10
2.2881787671
 20
-21.7233698685
 10
2.2817547358
 20
-21.7224426984
 10
2.2752018413
 20
-21.7215474363
 10
2.2684545878
 20
-21.7206725103
 10
2.2615015749
 20
-21.7198147746
 10
2.2543447626
 20
-21.7189729796
 10
2.2469397033
 20
-21.7181408305
 10
2.2392759252
 20
-21.7173165385
 10
2.2313538761
 20
-21.716499608
 10
2.214643701
 20
-21.7148771587
  0
LWPOLYLINE
  5
424
100
AcDbEntity
  8
0
100
AcDbPolyline
 62
7
  6
CONTINUOUS
 90
36
 70
0
 10
2.4999999887
 20
-10.6000060412
 10
2.4988978104
 20
-10.5793947503
 10
2.495547976
 20
-10.5585265525
 10
2.490182
 20
-10.538527151
 10
2.4830300936
 20
-10.5195922728
 10
2.4743434376
 20
-10.5019330666
 10
2.4642897403
 20
-10.4855796153
 10
2.4531015871
 20
-10.4706827263
 10
2.4411924683
 20
-10.457522536
 10
2.4287584029
 20
-10.4460141616
 10
2.4160664369
 20
-10.4360737477
 10
2.4037187844
 20
-10.4278090141
 10
2.392069765
 20
-10.4210798893
 10
2.3811390463
 20
-10.4155856155
 10
2.371017338
 20
-10.4111280743
 10
2.3619220097
 20
-10.4075893409
 10
2.3537649926
 20
-10.4047577534
 10
2.3461336508
 20
-10.4023757472
 10
2.3390064235
 20
-10.400363215
 10
2.3324149896
 20
-10.3986669939
 10
2.3260068233
 20
-10.3971547114
 10
2.3197170529
 20
-10.395787583
 10
2.3135893332
 20
-10.394554847
 10
2.307432146
 20
-10.3934032763
 10
2.3012073444
 20
-10.3923171374
 10
2.294928709
 20
-10.3912913489
 10
2.288486286
 20
-10.3903025405
 10
2.2818564053
 20
-10.3893439193
 10
2.2750394271
 20
-10.3884127866
 10
2.267964068
 20
-10.3874975489
 10
2.2606085124
 20
-10.3865945041
 10
2.2529708834
 20
-10.3857026886
 10
2.2450119477
 20
-10.3848170668
 10
2.2367171169
 20
-10.3839359052
 10
2.228079583
 20
-10.3830584245
 10
2.2096912215
 20
-10.3813062727
  0
LWPOLYLINE
  5
425
100
AcDbEntity
  8
0
100
AcDbPolyline
 62
7
  6
CONTINUOUS
 90
29
 70
0
 10
2.4999965005
 20
-21.1777507082
 10
2.4999602406
 20
-21.1724151121
 10
2.4967339795
 20
-21.1340651383
 10
2.4883403845
 20
-21.0958819145
 10
2.4745092247
 20
-21.0575146845
 10
2.4554094343
 20
-21.0201196921
 10
2.4325185408
 20
-20.9859267573
 10
2.4071339758
 20
-20.955423807
 10
2.3791678662
 20
-20.9274131299
 10
2.3485337957
 20
-20.9011776829
 10
2.3154331954
 20
-20.8764445414
 10
2.2799623861
 20
-20.8529450073
 10
2.2417392049
 20
-20.8302077867
 10
2.2006931395
 20
-20.8080613556
 10
2.1568358144
 20
-20.7864077872
 10
2.1098963685
 20
-20.765038886
 10
2.0597824624
 20
-20.7438648924
 10
2.0065017685
 20
-20.7228477518
 10
1.9500096864
 20
-20.7019322136
 10
1.8903378084
 20
-20.6810951102
 10
1.8274704748
 20
-20.6602978593
 10
1.7613687145
 20
-20.6394979796
 10
1.6921637302
 20
-20.6187068706
 10
1.6198150646
 20
-20.5978823785
 10
1.5440375295
 20
-20.5769194699
 10
1.4648637695
 20
-20.5558082053
 10
1.3823525229
 20
-20.5345430774
 10
1.29623342
 20
-20.5130348384
 10
1.242508355
 20
-20.5
  0
LWPOLYLINE
  5
426
100
AcDbEntity
  8
0
100
AcDbPolyline
 62
7
  6
CONTINUOUS
 90
34
 70
0
 10
2.4999967063
 20
-12.2177253047
 10
2.4999620475
 20
-12.2125146071
 10
2.4967761601
 20
-12.1743408281
 10
2.488490566
 20
-12.136401906
 10
2.4748758887
 20
-12.0983603802
 10
2.4561243077
 20
-12.0613340163
 10
2.4336838433
 20
-12.0274824444
 10
2.4088300196
 20
-11.997284757
 10
2.3815001229
 20
-11.969576888
 10
2.3516211574
 20
-11.9436547328
 10
2.3194098483
 20
-11.9192536349
 10
2.2849752339
 20
-11.8961080385
 10
2.2479425196
 20
-11.8737424145
 10
2.208253617
 20
-11.8519879814
 10
2.1659322797
 20
-11.8307497066
 10
2.1207027876
 20
-11.8098122003
 10
2.0724806683
 20
-11.7890872514
 10
2.0212753006
 20
-11.768536518
 10
1.9670125434
 20
-11.7480930611
 10
1.9097158915
 20
-11.7277327166
 10
1.8493676822
 20
-11.7074180261
 10
1.7858950736
 20
-11.6870975053
 10
1.7193980254
 20
-11.6667769635
 10
1.6498427536
 20
-11.6464197032
 10
1.5769642983
 20
-11.625928074
 10
1.500782944
 20
-11.6052913869
 10
1.4213481589
 20
-11.584504582
 10
1.3384189799
 20
-11.5634874829
 10
1.252038826
 20
-11.5422347224
 10
1.1622742296
 20
-11.520743117
 10
1.0689087919
 20
-11.4989406009
 10
0.9720226356
 20
-11.4768243211
 10
0.8717211818
 20
-11.4543925417
 10
0.6604088211
 20
-11.4083621911
  0
LINE
  5
427
100
AcDbEntity
  8
RACCORDO
100
AcDbLine
 62
7
  6
CONTINUOUS
 10
2.9885442454
 20
17.2878679656
 11
2.9747399816
 21
19.9242640687
  0
LINE
  5
428
100
AcDbEntity
  8
ASSI
100
AcDbLine
 62
7
  6
CONTINUOUS
 10
0.555719
 20
4.749937
 11
0.555719
 21
7.25005
  0
LINE
  5
429
100
AcDbEntity
  8
RACCORDO
100
AcDbLine
 62
7
  6
CONTINUOUS
 10
2.891366459
 20
-9.0
 11
2.891366459
 21
-12.7
  0
LINE
  5
42A
100
AcDbEntity
  8
RACCORDO
100
AcDbLine
 62
7
  6
CONTINUOUS
 10
2.891366459
 20
-22.2
 11
2.8913664589
 21
-20.5
  0
LINE
  5
42B
100
AcDbEntity
  8
DRAFT
100
AcDbLine
 62
7
  6
CONTINUOUS
 10
2.9192924359
 20
-20.5
 11
2.9192924359
 21
-22.2
  0
LINE
  5
42C
100
AcDbEntity
  8
RACCORDO
100
AcDbLine
 62
7
  6
CONTINUOUS
 10
3.0
 20
-32.5000190385
 11
3.0
 21
-31.4999809615
  0
LINE
  5
42D
100
AcDbEntity
  8
RACCORDO
100
AcDbLine
 62
7
  6
CONTINUOUS
 10
3.0
 20
-23.9999809615
 11
3.0
 21
-28.5000190385
  0
LINE
  5
42E
100
AcDbEntity
  8
DRAFT
100
AcDbLine
 62
7
  6
CONTINUOUS
 10
3.0
 20
16.7
 11
3.0
 21
21.7336228197
  0
LINE
  5
42F
100
AcDbEntity
  8
DRAFT
100
AcDbLine
 62
7
  6
CONTINUOUS
 10
2.994756608
 20
19.7283794276
 11
2.9912093131
 21
17.2
  0
LINE
  5
430
100
AcDbEntity
  8
RACCORDO
100
AcDbLine
 62
7
  6
CONTINUOUS
 10
2.9876600717
 20
-28.5123589668
 11
2.9945953222
 21
-24.0053856393
  0
LINE
  5
431
100
AcDbEntity
  8
DRAFT
100
AcDbLine
 62
7
  6
CONTINUOUS
 10
2.9764159065
 20
20.9394127892
 11
3.0
 21
21.7336228197
  0
LINE
  5
432
100
AcDbEntity
  8
RACCORDO
100
AcDbLine
 62
250
  6
CONTINUOUS
 10
-26.2
 20
-30.0000380769
 11
-26.1825462644
 21
-29.9825843414
  0
LINE
  5
433
100
AcDbEntity
  8
RACCORDO
100
AcDbLine
 62
7
  6
CONTINUOUS
 10
18.5132045347
 20
-15.7132045347
 11
18.5
 21
-15.7
  0
LINE
  5
434
100
AcDbEntity
  8
ASSI
100
AcDbLine
 62
7
  6
CONTINUOUS
 10
-1.389788
 20
6.398594
 11
-0.91705
 21
4.749937
  0
LINE
  5
435
100
AcDbEntity
  8
ASSI
100
AcDbLine
 62
7
  6
CONTINUOUS
 10
-0.667044
 20
5.621887
 11
-1.133913
 21
7.25005
  0
LINE
  5
436
100
AcDbEntity
  8
ASSI
100
AcDbLine
 62
7
  6
CONTINUOUS
 10
3.32785
 20
7.250056
 11
3.32785
 21
4.749944
  0
LINE
  5
437
100
AcDbEntity
  8
RACCORDO
100
AcDbLine
 62
250
  6
CONTINUOUS
 10
3.4807628125
 20
-20.5
 11
3.4807628125
 21
-23.5
  0
LINE
  5
438
100
AcDbEntity
  8
ASSI
100
AcDbLine
 62
7
  6
CONTINUOUS
 10
3.820981
 20
6.17915
 11
3.820975
 21
6.787538
  0
LINE
  5
439
100
AcDbEntity
  8
RACCORDO
100
AcDbLine
 62
250
  6
CONTINUOUS
 10
4.4807247355
 20
-20.5
 11
4.4807247355
 21
-23.5
  0
LINE
  5
43A
100
AcDbEntity
  8
RACCORDO
100
AcDbLine
 62
7
  6
CONTINUOUS
 10
4.5
 20
-20.5
 11
4.5
 21
-23.8
  0
LINE
  5
43B
100
AcDbEntity
  8
RACCORDO
100
AcDbLine
 62
7
  6
CONTINUOUS
 10
5.0
 20
-20.9999809615
 11
5.0
 21
-28.5000190385
  0
LINE
  5
43C
100
AcDbEntity
  8
RACCORDO
100
AcDbLine
 62
7
  6
CONTINUOUS
 10
5.0130903017
 20
-28.5131093402
 11
5.0130903017
 21
-20.9868906598
  0
LINE
  5
43D
100
AcDbEntity
  8
ASSI
100
AcDbLine
 62
7
  6
CONTINUOUS
 10
3.827875
 20
4.749944
 11
3.827931
 21
5.716631
  0
LINE
  5
43E
100
AcDbEntity
  8
DRAFT
100
AcDbLine
 62
7
  6
CONTINUOUS
 10
24.5
 20
19.7336228197
 11
24.494756608
 21
19.7283794276
  0
LINE
  5
43F
100
AcDbEntity
  8
RACCORDO
100
AcDbLine
 62
7
  6
CONTINUOUS
 10
-12.4484200936
 20
-17.6484200936
 11
-12.4816735776
 21
-17.6816735776
  0
LINE
  5
440
100
AcDbEntity
  8
RACCORDO
100
AcDbLine
 62
250
  6
CONTINUOUS
 10
-25.2000380769
 20
-31.0
 11
-25.1825843414
 21
-30.9825462644
  0
LINE
  5
441
100
AcDbEntity
  8
DRAFT
100
AcDbLine
 62
7
  6
CONTINUOUS
 10
-9.1
 20
-15.7
 11
-9.1209444827
 21
-15.7209444827
  0
LINE
  5
442
100
AcDbEntity
  8
DRAFT
100
AcDbLine
 62
7
  6
CONTINUOUS
 10
-10.7816735776
 20
-17.6816735776
 11
-10.7380392387
 21
-17.6380392387
  0
LINE
  5
443
100
AcDbEntity
  8
RACCORDO
100
AcDbLine
 62
7
  6
CONTINUOUS
 10
-7.0709444827
 20
-15.7209444827
 11
-7.0806582703
 21
-15.7306582703
  0
LINE
  5
444
100
AcDbEntity
  8
ASSI
100
AcDbLine
 62
7
  6
CONTINUOUS
 10
17.550097
 20
2.0
 11
15.9457391036
 21
1.4848971398
  0
LINE
  5
445
100
AcDbEntity
  8
ASSI
100
AcDbLine
 62
7
  6
CONTINUOUS
 10
16.138498
 20
1.136765
 11
17.550097
 21
1.589979
  0
LINE
  5
446
100
AcDbEntity
  8
ASSI
100
AcDbLine
 62
7
  6
CONTINUOUS
 10
4.765419
 20
4.749944
 11
5.328613
 21
4.74995
  0
LINE
  5
447
100
AcDbEntity
  8
ASSI
100
AcDbLine
 62
7
  6
CONTINUOUS
 10
0.889063
 20
4.749937
 11
1.389081
 21
4.749944
  0
LINE
  5
448
100
AcDbEntity
  8
ASSI
100
AcDbLine
 62
7
  6
CONTINUOUS
 10
-1.889806
 20
4.749937
 11
-1.389788
 21
4.749937
  0
LINE
  5
449
100
AcDbEntity
  8
ASSI
100
AcDbLine
 62
7
  6
CONTINUOUS
 10
0.0557
 20
4.749937
 11
0.555719
 21
4.749937
  0
LINE
  5
44A
100
AcDbEntity
  8
ASSI
100
AcDbLine
 62
7
  6
CONTINUOUS
 10
3.32785
 20
4.749944
 11
3.827875
 21
4.749944
  0
LINE
  5
44B
100
AcDbEntity
  8
ASSI
100
AcDbLine
 62
7
  6
CONTINUOUS
 10
-0.91705
 20
4.749937
 11
-0.417044
 21
4.749944
  0
LINE
  5
44C
100
AcDbEntity
  8
ASSI
100
AcDbLine
 62
7
  6
CONTINUOUS
 10
-2.889831
 20
4.749931
 11
-2.389813
 21
4.749937
  0
LINE
  5
44D
100
AcDbEntity
  8
ASSI
100
AcDbLine
 62
7
  6
CONTINUOUS
 10
2.494481
 20
4.749944
 11
2.994506
 21
4.749937
  0
LINE
  5
44E
100
AcDbEntity
  8
ASSI
100
AcDbLine
 62
7
  6
CONTINUOUS
 10
-4.525913
 20
4.749931
 11
-4.025875
 21
4.749937
  0
LINE
  5
44F
100
AcDbEntity
  8
ASSI
100
AcDbLine
 62
7
  6
CONTINUOUS
 10
1.546938
 20
5.241606
 11
2.336631
 21
5.241606
  0
LINE
  5
450
100
AcDbEntity
  8
ASSI
100
AcDbLine
 62
7
  6
CONTINUOUS
 10
2.184106
 20
5.716625
 11
1.699456
 21
5.716625
  0
LINE
  5
451
100
AcDbEntity
  8
ASSI
100
AcDbLine
 62
7
  6
CONTINUOUS
 10
3.827931
 20
5.716631
 11
4.264338
 21
5.716625
  0
LINE
  5
452
100
AcDbEntity
  8
ASSI
100
AcDbLine
 62
7
  6
CONTINUOUS
 10
4.4293317626
 20
6.17915
 11
3.820981
 21
6.17915
  0
LINE
  5
453
100
AcDbEntity
  8
ASSI
100
AcDbLine
 62
7
  6
CONTINUOUS
 10
17.550097
 20
0.683557
 11
16.1466796484
 21
1.1341381998
  0
LINE
  5
454
100
AcDbEntity
  8
DRAFT
100
AcDbLine
 62
7
  6
CONTINUOUS
 10
24.4738193966
 20
-17.6738193966
 11
24.5
 21
-17.7
  0
LINE
  5
455
100
AcDbEntity
  8
RACCORDO
100
AcDbLine
 62
250
  6
CONTINUOUS
 10
-26.1825462644
 20
33.9825843414
 11
-26.2
 21
34.0000380769
  0
LINE
  5
456
100
AcDbEntity
  8
ASSI
100
AcDbLine
 62
7
  6
CONTINUOUS
 10
2.336631
 20
5.241606
 11
2.494481
 21
4.749944
  0
LINE
  5
457
100
AcDbEntity
  8
ASSI
100
AcDbLine
 62
7
  6
CONTINUOUS
 10
1.941775
 20
6.4714
 11
2.184106
 21
5.716625
  0
LINE
  5
458
100
AcDbEntity
  8
ASSI
100
AcDbLine
 62
7
  6
CONTINUOUS
 10
2.994506
 20
4.749937
 11
2.1918
 21
7.250056
  0
LINE
  5
459
100
AcDbEntity
  8
RACCORDO
100
AcDbLine
 62
7
  6
CONTINUOUS
 10
6.9
 20
-15.2
 11
6.9
 21
-12.7
  0
LINE
  5
45A
100
AcDbEntity
  8
RACCORDO
100
AcDbLine
 62
7
  6
CONTINUOUS
 10
6.956365661
 20
-16.5284271247
 11
6.956365661
 21
-33.956403738
  0
LINE
  5
45B
100
AcDbEntity
  8
RACCORDO
100
AcDbLine
 62
7
  6
CONTINUOUS
 10
6.9825462644
 20
-33.9825843414
 11
6.9825462644
 21
-15.2
  0
LINE
  5
45C
100
AcDbEntity
  8
DRAFT
100
AcDbLine
 62
7
  6
CONTINUOUS
 10
7.0709444827
 20
-29.2290555173
 11
7.0709444827
 21
-26.2209444827
  0
LINE
  5
45D
100
AcDbEntity
  8
DRAFT
100
AcDbLine
 62
7
  6
CONTINUOUS
 10
7.0709444827
 20
-22.1790555173
 11
7.0709444827
 21
-15.7209444827
  0
LINE
  5
45E
100
AcDbEntity
  8
DRAFT
100
AcDbLine
 62
7
  6
CONTINUOUS
 10
7.093634339
 20
-29.206365661
 11
7.093634339
 21
-26.243634339
  0
LINE
  5
45F
100
AcDbEntity
  8
RACCORDO
100
AcDbLine
 62
7
  6
CONTINUOUS
 10
7.093634339
 20
-22.156365661
 11
7.093634339
 21
-17.2306011548
  0
LINE
  5
460
100
AcDbEntity
  8
RACCORDO
100
AcDbLine
 62
7
  6
CONTINUOUS
 10
7.51746613
 20
-29.2290555173
 11
7.5174765822
 21
-34.9825462644
  0
LINE
  5
461
100
AcDbEntity
  8
RACCORDO
100
AcDbLine
 62
7
  6
CONTINUOUS
 10
7.5174649369
 20
-22.1790555173
 11
7.5174639076
 21
-26.2209444827
  0
LINE
  5
462
100
AcDbEntity
  8
RACCORDO
100
AcDbLine
 62
7
  6
CONTINUOUS
 10
7.5174765822
 20
-15.2
 11
7.5174753789
 21
-15.7209444827
  0
LINE
  5
463
100
AcDbEntity
  8
RACCORDO
100
AcDbLine
 62
250
  6
CONTINUOUS
 10
7.8174651591
 20
-15.2
 11
7.8174651591
 21
-15.7209444827
  0
LINE
  5
464
100
AcDbEntity
  8
RACCORDO
100
AcDbLine
 62
250
  6
CONTINUOUS
 10
7.8174651591
 20
-22.1790555173
 11
7.8174651591
 21
-26.2209444827
  0
LINE
  5
465
100
AcDbEntity
  8
RACCORDO
100
AcDbLine
 62
250
  6
CONTINUOUS
 10
7.8174651591
 20
-29.2290555173
 11
7.8174651591
 21
-34.9799282041
  0
LINE
  5
466
100
AcDbEntity
  8
RACCORDO
100
AcDbLine
 62
7
  6
CONTINUOUS
 10
8.9799282041
 20
-22.1790555173
 11
8.9799282041
 21
-26.2209444827
  0
LINE
  5
467
100
AcDbEntity
  8
RACCORDO
100
AcDbLine
 62
7
  6
CONTINUOUS
 10
8.9799282041
 20
-29.2290555173
 11
8.9799282041
 21
-33.979966281
  0
LINE
  5
468
100
AcDbEntity
  8
RACCORDO
100
AcDbLine
 62
7
  6
CONTINUOUS
 10
9.0
 20
-22.1790555173
 11
9.0
 21
-26.2209444827
  0
LINE
  5
469
100
AcDbEntity
  8
RACCORDO
100
AcDbLine
 62
7
  6
CONTINUOUS
 10
9.0
 20
-29.2290555173
 11
9.0
 21
-34.0000380769
  0
LINE
  5
46A
100
AcDbEntity
  8
DRAFT
100
AcDbLine
 62
7
  6
CONTINUOUS
 10
9.1
 20
-15.7
 11
9.1
 21
-15.7209444827
  0
LINE
  5
46B
100
AcDbEntity
  8
DRAFT
100
AcDbLine
 62
7
  6
CONTINUOUS
 10
9.1
 20
-22.1790555173
 11
9.1
 21
-22.2
  0
LINE
  5
46C
100
AcDbEntity
  8
DRAFT
100
AcDbLine
 62
7
  6
CONTINUOUS
 10
9.1
 20
-26.0
 11
9.1
 21
-26.2209444827
  0
LINE
  5
46D
100
AcDbEntity
  8
DRAFT
100
AcDbLine
 62
7
  6
CONTINUOUS
 10
9.1
 20
-29.2290555173
 11
9.1
 21
-29.25
  0
LINE
  5
46E
100
AcDbEntity
  8
SMUSSO
100
AcDbLine
 62
7
  6
CONTINUOUS
 10
26.2964891058
 20
30.244206984
 11
26.2073966503
 21
30.0972034041
  0
LWPOLYLINE
  5
46F
100
AcDbEntity
  8
0
100
AcDbPolyline
 62
7
  6
CONTINUOUS
 90
5
 70
0
 10
-2.1107041025
 20
-13.7515233133
 10
-2.1101412933
 20
-13.7508842581
 10
-2.1044643246
 20
-13.745163281
 10
-2.0933040535
 20
-13.735685586
 10
-2.0768877432
 20
-13.7237202443
  0
LINE
  5
470
100
AcDbEntity
  8
DRAFT
100
AcDbLine
 62
7
  6
CONTINUOUS
 10
-18.2183264224
 20
-30.0183264224
 11
-18.2
 21
-30.0
  0
LINE
  5
471
100
AcDbEntity
  8
DRAFT
100
AcDbLine
 62
7
  6
CONTINUOUS
 10
-10.8
 20
-23.5
 11
-10.7816735776
 21
-23.4816735776
  0
LINE
  5
472
100
AcDbEntity
  8
ASSI
100
AcDbLine
 62
7
  6
CONTINUOUS
 10
3.820975
 20
6.787538
 11
4.429323
 21
6.787538
  0
LINE
  5
473
100
AcDbEntity
  8
ASSI
100
AcDbLine
 62
7
  6
CONTINUOUS
 10
0.555719
 20
7.25005
 11
-0.200175
 21
7.25005
  0
LINE
  5
474
100
AcDbEntity
  8
ASSI
100
AcDbLine
 62
7
  6
CONTINUOUS
 10
-1.133913
 20
7.25005
 11
-1.889806
 21
7.25005
  0
LINE
  5
475
100
AcDbEntity
  8
ASSI
100
AcDbLine
 62
7
  6
CONTINUOUS
 10
-2.389806
 20
7.25005
 11
-2.889825
 21
7.25005
  0
LINE
  5
476
100
AcDbEntity
  8
ASSI
100
AcDbLine
 62
7
  6
CONTINUOUS
 10
-3.223169
 20
7.25005
 11
-3.723194
 21
7.25005
  0
LINE
  5
477
100
AcDbEntity
  8
ASSI
100
AcDbLine
 62
7
  6
CONTINUOUS
 10
-4.828588
 20
7.25005
 11
-5.328613
 21
7.25005
  0
LINE
  5
478
100
AcDbEntity
  8
ASSI
100
AcDbLine
 62
7
  6
CONTINUOUS
 10
4.4987381227
 20
7.250056
 11
3.32785
 21
7.250056
  0
LINE
  5
479
100
AcDbEntity
  8
ASSI
100
AcDbLine
 62
7
  6
CONTINUOUS
 10
2.1918
 20
7.250056
 11
1.691756
 21
7.250056
  0
LINE
  5
47A
100
AcDbEntity
  8
RACCORDO
100
AcDbLine
 62
250
  6
CONTINUOUS
 10
-25.1825843414
 20
34.9825462644
 11
-25.2000380769
 21
35.0
  0
LINE
  5
47B
100
AcDbEntity
  8
ASSI
100
AcDbLine
 62
7
  6
CONTINUOUS
 10
4.264338
 20
5.716625
 11
4.765419
 21
4.749944
  0
LINE
  5
47C
100
AcDbEntity
  8
ASSI
100
AcDbLine
 62
7
  6
CONTINUOUS
 10
5.328613
 20
4.74995
 11
4.7963677133
 21
5.7767584823
  0
LINE
  5
47D
100
AcDbEntity
  8
RACCORDO
100
AcDbLine
 62
7
  6
CONTINUOUS
 10
12.4797396903
 20
-30.980612377
 11
12.4484200936
 21
-30.6666269111
  0
LINE
  5
47E
100
AcDbEntity
  8
RACCORDO
100
AcDbLine
 62
7
  6
CONTINUOUS
 10
11.0639961279
 20
34.0
 11
11.077688701
 21
31.6464466094
  0
LINE
  5
47F
100
AcDbEntity
  8
DRAFT
100
AcDbLine
 62
7
  6
CONTINUOUS
 10
9.2
 20
-30.9825462644
 11
9.2
 21
-29.25
  0
LINE
  5
480
100
AcDbEntity
  8
DRAFT
100
AcDbLine
 62
7
  6
CONTINUOUS
 10
9.2
 20
-26.2
 11
9.2
 21
-22.2
  0
LINE
  5
481
100
AcDbEntity
  8
RACCORDO
100
AcDbLine
 62
7
  6
CONTINUOUS
 10
9.243634339
 20
-29.6462255084
 11
9.243634339
 21
-29.206365661
  0
LINE
  5
482
100
AcDbEntity
  8
DRAFT
100
AcDbLine
 62
7
  6
CONTINUOUS
 10
9.243634339
 20
-26.243634339
 11
9.243634339
 21
-22.156365661
  0
LINE
  5
483
100
AcDbEntity
  8
RACCORDO
100
AcDbLine
 62
7
  6
CONTINUOUS
 10
10.7380392387
 20
-29.6462255084
 11
10.7380392387
 21
-17.6380392387
  0
LINE
  5
484
100
AcDbEntity
  8
DRAFT
100
AcDbLine
 62
7
  6
CONTINUOUS
 10
10.7816735776
 20
-17.6816735776
 11
10.7816735776
 21
-23.4816735776
  0
LINE
  5
485
100
AcDbEntity
  8
DRAFT
100
AcDbLine
 62
7
  6
CONTINUOUS
 10
10.7816735776
 20
27.4816735776
 11
10.7816735776
 21
34.0183264224
  0
LINE
  5
486
100
AcDbEntity
  8
DRAFT
100
AcDbLine
 62
7
  6
CONTINUOUS
 10
10.7991273132
 20
-28.1508726868
 11
10.7991273132
 21
-24.0
  0
LINE
  5
487
100
AcDbEntity
  8
DRAFT
100
AcDbLine
 62
7
  6
CONTINUOUS
 10
10.7991273132
 20
28.0
 11
10.7991273132
 21
32.1508726868
  0
LINE
  5
488
100
AcDbEntity
  8
DRAFT
100
AcDbLine
 62
7
  6
CONTINUOUS
 10
10.8
 20
-30.0
 11
10.8
 21
-28.15
  0
LINE
  5
489
100
AcDbEntity
  8
DRAFT
100
AcDbLine
 62
7
  6
CONTINUOUS
 10
10.8
 20
-23.9991273132
 11
10.8
 21
-23.5
  0
LINE
  5
48A
100
AcDbEntity
  8
DRAFT
100
AcDbLine
 62
7
  6
CONTINUOUS
 10
10.8
 20
27.5
 11
10.8
 21
27.9991273132
  0
LINE
  5
48B
100
AcDbEntity
  8
DRAFT
100
AcDbLine
 62
7
  6
CONTINUOUS
 10
10.8
 20
32.15
 11
10.8
 21
34.0
  0
LINE
  5
48C
100
AcDbEntity
  8
RACCORDO
100
AcDbLine
 62
250
  6
CONTINUOUS
 10
10.9510724228
 20
-15.7306582703
 11
10.9510724228
 21
-17.2306011548
  0
LINE
  5
48D
100
AcDbEntity
  8
DRAFT
100
AcDbLine
 62
7
  6
CONTINUOUS
 10
11.0581782981
 20
-30.0
 11
11.0581782981
 21
-26.25
  0
LINE
  5
48E
100
AcDbEntity
  8
DRAFT
100
AcDbLine
 62
7
  6
CONTINUOUS
 10
11.0581782981
 20
30.25
 11
11.0581782981
 21
34.0
  0
LINE
  5
48F
100
AcDbEntity
  8
RACCORDO
100
AcDbLine
 62
7
  6
CONTINUOUS
 10
11.0785407024
 20
31.2928932188
 11
11.0785407024
 21
30.767287244
  0
LINE
  5
490
100
AcDbEntity
  8
RACCORDO
100
AcDbLine
 62
7
  6
CONTINUOUS
 10
11.0785407024
 20
-26.767287244
 11
11.0785407024
 21
-27.2928932188
  0
LINE
  5
491
100
AcDbEntity
  8
RACCORDO
100
AcDbLine
 62
250
  6
CONTINUOUS
 10
11.248465786
 20
-17.6380392387
 11
11.248465786
 21
-17.5292977866
  0
LINE
  5
492
100
AcDbEntity
  8
RACCORDO
100
AcDbLine
 62
7
  6
CONTINUOUS
 10
11.077688701
 20
-27.6464466094
 11
11.0639961279
 21
-30.0
  0
LWPOLYLINE
  5
493
100
AcDbEntity
  8
0
100
AcDbPolyline
 62
7
  6
CONTINUOUS
 90
27
 70
0
 10
2.1108264301
 20
-12.1755742497
 10
2.1103476898
 20
-12.1761245815
 10
2.1058246418
 20
-12.1807904796
 10
2.0971043415
 20
-12.1884970386
 10
2.0843528019
 20
-12.1982880512
 10
2.067257979
 20
-12.2098846352
 10
2.0453806712
 20
-12.2231596866
 10
2.0189600887
 20
-12.2376520633
 10
1.9878440111
 20
-12.2532261042
 10
1.9518801536
 20
-12.2697768256
 10
1.9114553259
 20
-12.2870012123
 10
1.8665718934
 20
-12.3048208108
 10
1.8171579646
 20
-12.3232018274
 10
1.7635656635
 20
-12.3419742242
 10
1.7059478913
 20
-12.361069496
 10
1.6442344007
 20
-12.3805026931
 10
1.5784468984
 20
-12.4002612517
 10
1.5087327653
 20
-12.4203020298
 10
1.435051918
 20
-12.4406423317
 10
1.3570726689
 20
-12.4613762333
 10
1.2748205443
 20
-12.4824986654
 10
1.1883529189
 20
-12.504001932
 10
1.0973058641
 20
-12.5259843123
 10
1.0016814326
 20
-12.548454111
 10
0.9016080934
 20
-12.5713964962
 10
0.7968769557
 20
-12.5948794787
 10
0.6875175415
 20
-12.6189210562
  0
LINE
  5
494
100
AcDbEntity
  8
DRAFT
100
AcDbLine
 62
7
  6
CONTINUOUS
 10
-9.2
 20
-26.2
 11
-9.243634339
 21
-26.243634339
  0
LINE
  5
495
100
AcDbEntity
  8
RACCORDO
100
AcDbLine
 62
7
  6
CONTINUOUS
 10
-11.0756485416
 20
-26.2672955372
 11
-11.0581782981
 21
-26.25
  0
LINE
  5
496
100
AcDbEntity
  8
0
100
AcDbLine
 62
7
  6
CONTINUOUS
 10
-2.0768877432
 20
-13.7237202443
 11
-2.0548792065
 21
-13.7096730063
  0
LWPOLYLINE
  5
497
100
AcDbEntity
  8
0
100
AcDbPolyline
 62
7
  6
CONTINUOUS
 90
19
 70
0
 10
-2.0548792065
 20
-13.7096730063
 10
-2.0267035119
 20
-13.6936958415
 10
-1.9925746431
 20
-13.6762978563
 10
-1.9522904513
 20
-13.6576456704
 10
-1.905605009
 20
-13.6378463601
 10
-1.8527328697
 20
-13.6171541468
 10
-1.7935539946
 20
-13.5956369952
 10
-1.7279461806
 20
-13.5733430398
 10
-1.6561484438
 20
-13.5504168014
 10
-1.5780933276
 20
-13.5268757196
 10
-1.4938151411
 20
-13.5027555601
 10
-1.4037842499
 20
-13.4781942065
 10
-1.3080916255
 20
-13.4532015495
 10
-1.2068925176
 20
-13.4277944533
 10
-1.1008709731
 20
-13.4021057796
 10
-0.990199026
 20
-13.3761263266
 10
-0.8752161148
 20
-13.3498794627
 10
-0.756983585
 20
-13.3235391602
 10
-0.6358590574
 20
-13.2971080751
  0
LINE
  5
498
100
AcDbEntity
  8
DRAFT
100
AcDbLine
 62
7
  6
CONTINUOUS
 10
-18.2183264224
 20
34.0183264224
 11
-18.2
 21
34.0
  0
LINE
  5
499
100
AcDbEntity
  8
DRAFT
100
AcDbLine
 62
7
  6
CONTINUOUS
 10
-10.8
 20
27.5
 11
-10.7816735776
 21
27.4816735776
  0
LINE
  5
49A
100
AcDbEntity
  8
DRAFT
100
AcDbLine
 62
7
  6
CONTINUOUS
 10
-3.0
 20
19.7336228197
 11
-2.994756608
 21
19.7283794276
  0
LINE
  5
49B
100
AcDbEntity
  8
RACCORDO
100
AcDbLine
 62
250
  6
CONTINUOUS
 10
12.4484200936
 20
-30.6666269111
 11
12.4484200936
 21
-30.0515799064
  0
LINE
  5
49C
100
AcDbEntity
  8
RACCORDO
100
AcDbLine
 62
250
  6
CONTINUOUS
 10
12.4484200936
 20
-17.6484200936
 11
12.4484200936
 21
-17.5292977866
  0
LINE
  5
49D
100
AcDbEntity
  8
DRAFT
100
AcDbLine
 62
7
  6
CONTINUOUS
 10
12.4816735776
 20
-30.9825462644
 11
12.4816735776
 21
-30.0183264224
  0
LINE
  5
49E
100
AcDbEntity
  8
RACCORDO
100
AcDbLine
 62
7
  6
CONTINUOUS
 10
12.4816735776
 20
-17.6816735776
 11
12.4816735776
 21
-17.1999428846
  0
LINE
  5
49F
100
AcDbEntity
  8
RACCORDO
100
AcDbLine
 62
7
  6
CONTINUOUS
 10
9.2356680678
 20
-30.6424202064
 11
9.2019338874
 21
-30.980612377
  0
LWPOLYLINE
  5
4A0
100
AcDbEntity
  8
0
100
AcDbPolyline
 62
7
  6
CONTINUOUS
 90
17
 70
0
 10
2.1108653974
 20
-21.1356858061
 10
2.1114961556
 20
-21.1347578683
 10
2.1101810795
 20
-21.1363144208
 10
2.1063171527
 20
-21.1403143493
 10
2.1001993124
 20
-21.1458919343
 10
2.0918153829
 20
-21.1527188059
 10
2.0807679973
 20
-21.1608397491
 10
2.0667581494
 20
-21.1702066296
 10
2.0496086119
 20
-21.1807015457
 10
2.0290198513
 20
-21.1922972743
 10
2.0042733354
 20
-21.2051750961
 10
1.9750354348
 20
-21.2192774391
 10
1.9409171769
 20
-21.2345777239
 10
1.9008017108
 20
-21.2513442788
 10
1.8538827986
 20
-21.2696544895
 10
1.7998648451
 20
-21.2893807346
 10
1.7502377435
 20
-21.3064847545
  0
LINE
  5
4A1
100
AcDbEntity
  8
DRAFT
100
AcDbLine
 62
7
  6
CONTINUOUS
 10
-9.1209444827
 20
-26.2209444827
 11
-9.1
 21
-26.2
  0
LINE
  5
4A2
100
AcDbEntity
  8
DRAFT
100
AcDbLine
 62
7
  6
CONTINUOUS
 10
-12.4797396903
 20
-30.980612377
 11
-12.4816735776
 21
-30.9825462644
  0
LINE
  5
4A3
100
AcDbEntity
  8
DRAFT
100
AcDbLine
 62
7
  6
CONTINUOUS
 10
-7.0709444827
 20
-26.2209444827
 11
-7.093634339
 21
-26.243634339
  0
LWPOLYLINE
  5
4A4
100
AcDbEntity
  8
0
100
AcDbPolyline
 62
7
  6
CONTINUOUS
 90
20
 70
0
 10
1.8880013222
 20
-12.7136077708
 10
1.9477616734
 20
-12.6927846803
 10
2.0043211785
 20
-12.6718939628
 10
2.0576542382
 20
-12.6509120491
 10
2.1078165746
 20
-12.6297810191
 10
2.154802338
 20
-12.6084635681
 10
2.1987047493
 20
-12.5868715003
 10
2.2398003191
 20
-12.5647964751
 10
2.278080314
 20
-12.5421412744
 10
2.3136140153
 20
-12.5187383223
 10
2.3467822705
 20
-12.4941241502
 10
2.3774890351
 20
-12.4680391543
 10
2.4055444284
 20
-12.4402126366
 10
2.4310511727
 20
-12.4099216886
 10
2.4541035811
 20
-12.375983783
 10
2.4734255134
 20
-12.3388635043
 10
2.4875527644
 20
-12.3007105436
 10
2.4962952302
 20
-12.262642127
 10
2.4998999939
 20
-12.2243198576
 10
2.4999900798
 20
-12.2167290667
  0
LINE
  5
4A5
100
AcDbEntity
  8
RACCORDO
100
AcDbLine
 62
7
  6
CONTINUOUS
 10
-11.0581782981
 20
30.25
 11
-11.0756485416
 21
30.2672955372
  0
LINE
  5
4A6
100
AcDbEntity
  8
RACCORDO
100
AcDbLine
 62
7
  6
CONTINUOUS
 10
17.922311299
 20
-27.6464466094
 11
17.9360038721
 21
-30.0
  0
LINE
  5
4A7
100
AcDbEntity
  8
ASSI
100
AcDbLine
 62
7
  6
CONTINUOUS
 10
17.550097
 20
0.6310561729
 11
17.550097
 21
0.683557
  0
LINE
  5
4A8
100
AcDbEntity
  8
ASSI
100
AcDbLine
 62
7
  6
CONTINUOUS
 10
17.550097
 20
1.589979
 11
17.550097
 21
2.0
  0
LINE
  5
4A9
100
AcDbEntity
  8
RACCORDO
100
AcDbLine
 62
7
  6
CONTINUOUS
 10
17.9360038721
 20
34.0
 11
17.922311299
 21
31.6464466094
  0
LINE
  5
4AA
100
AcDbEntity
  8
RACCORDO
100
AcDbLine
 62
250
  6
CONTINUOUS
 10
-5.0130903017
 20
-28.5131093402
 11
-5.0
 21
-28.5000190385
  0
LINE
  5
4AB
100
AcDbEntity
  8
RACCORDO
100
AcDbLine
 62
250
  6
CONTINUOUS
 10
-4.5131093402
 20
-29.0130903017
 11
-4.5000190385
 21
-29.0
  0
LINE
  5
4AC
100
AcDbEntity
  8
RACCORDO
100
AcDbLine
 62
250
  6
CONTINUOUS
 10
4.5131093402
 20
-20.4869096983
 11
4.5000190385
 21
-20.5
  0
LINE
  5
4AD
100
AcDbEntity
  8
RACCORDO
100
AcDbLine
 62
250
  6
CONTINUOUS
 10
-8.9799282041
 20
-33.979966281
 11
-9.0
 21
-34.0000380769
  0
LINE
  5
4AE
100
AcDbEntity
  8
DRAFT
100
AcDbLine
 62
7
  6
CONTINUOUS
 10
-24.5
 20
16.7
 11
-18.5
 21
16.7
  0
LINE
  5
4AF
100
AcDbEntity
  8
DRAFT
100
AcDbLine
 62
7
  6
CONTINUOUS
 10
-3.0
 20
16.7
 11
3.0
 21
16.7
  0
LINE
  5
4B0
100
AcDbEntity
  8
DRAFT
100
AcDbLine
 62
7
  6
CONTINUOUS
 10
18.5
 20
16.7
 11
24.5
 21
16.7
  0
LINE
  5
4B1
100
AcDbEntity
  8
RACCORDO
100
AcDbLine
 62
7
  6
CONTINUOUS
 10
-24.4896549763
 20
17.2
 11
-18.5103450237
 21
17.2
  0
LINE
  5
4B2
100
AcDbEntity
  8
RACCORDO
100
AcDbLine
 62
7
  6
CONTINUOUS
 10
-2.9896549763
 20
17.2
 11
2.9896549763
 21
17.2
  0
LINE
  5
4B3
100
AcDbEntity
  8
RACCORDO
100
AcDbLine
 62
7
  6
CONTINUOUS
 10
18.5103450237
 20
17.2
 11
24.4896549763
 21
17.2
  0
LINE
  5
4B4
100
AcDbEntity
  8
RACCORDO
100
AcDbLine
 62
250
  6
CONTINUOUS
 10
-24.4885442454
 20
17.2878679656
 11
-18.5114557546
 21
17.2878679656
  0
LINE
  5
4B5
100
AcDbEntity
  8
RACCORDO
100
AcDbLine
 62
250
  6
CONTINUOUS
 10
-2.9885442454
 20
17.2878679656
 11
2.9885442454
 21
17.2878679656
  0
LINE
  5
4B6
100
AcDbEntity
  8
RACCORDO
100
AcDbLine
 62
250
  6
CONTINUOUS
 10
18.5114557546
 20
17.2878679656
 11
24.4885442454
 21
17.2878679656
  0
LINE
  5
4B7
100
AcDbEntity
  8
DRAFT
100
AcDbLine
 62
7
  6
CONTINUOUS
 10
18.5235840935
 20
20.9394127892
 11
18.5
 21
21.7336228197
  0
LINE
  5
4B8
100
AcDbEntity
  8
DRAFT
100
AcDbLine
 62
7
  6
CONTINUOUS
 10
18.505243392
 20
19.7283794276
 11
18.5087906869
 21
17.2
  0
LINE
  5
4B9
100
AcDbEntity
  8
RACCORDO
100
AcDbLine
 62
7
  6
CONTINUOUS
 10
17.9214592976
 20
31.2928932188
 11
17.9214592976
 21
30.767287244
  0
LINE
  5
4BA
100
AcDbEntity
  8
RACCORDO
100
AcDbLine
 62
7
  6
CONTINUOUS
 10
17.9214592976
 20
-26.767287244
 11
17.9214592976
 21
-27.2928932188
  0
LINE
  5
4BB
100
AcDbEntity
  8
DRAFT
100
AcDbLine
 62
7
  6
CONTINUOUS
 10
17.9418217019
 20
-30.0
 11
17.9418217019
 21
-28.25
  0
LINE
  5
4BC
100
AcDbEntity
  8
DRAFT
100
AcDbLine
 62
7
  6
CONTINUOUS
 10
17.9418217019
 20
32.25
 11
17.9418217019
 21
34.0
  0
LINE
  5
4BD
100
AcDbEntity
  8
RACCORDO
100
AcDbLine
 62
250
  6
CONTINUOUS
 10
17.9883645373
 20
32.15
 11
17.9883645373
 21
30.2039226033
  0
LINE
  5
4BE
100
AcDbEntity
  8
RACCORDO
100
AcDbLine
 62
250
  6
CONTINUOUS
 10
17.9883645373
 20
-26.2039226033
 11
17.9883645373
 21
-28.15
  0
LINE
  5
4BF
100
AcDbEntity
  8
DRAFT
100
AcDbLine
 62
7
  6
CONTINUOUS
 10
18.2
 20
34.0
 11
18.2
 21
27.5
  0
LINE
  5
4C0
100
AcDbEntity
  8
DRAFT
100
AcDbLine
 62
7
  6
CONTINUOUS
 10
18.2
 20
-23.5
 11
18.2
 21
-30.0
  0
LINE
  5
4C1
100
AcDbEntity
  8
DRAFT
100
AcDbLine
 62
7
  6
CONTINUOUS
 10
18.2183264224
 20
34.0183264224
 11
18.2183264224
 21
27.4816735776
  0
LINE
  5
4C2
100
AcDbEntity
  8
DRAFT
100
AcDbLine
 62
7
  6
CONTINUOUS
 10
18.2183264224
 20
-23.4816735776
 11
18.2183264224
 21
-30.0183264224
  0
LINE
  5
4C3
100
AcDbEntity
  8
RACCORDO
100
AcDbLine
 62
250
  6
CONTINUOUS
 10
18.3935131738
 20
1.1905216451
 11
18.3935131738
 21
2.809478355
  0
LINE
  5
4C4
100
AcDbEntity
  8
DRAFT
100
AcDbLine
 62
7
  6
CONTINUOUS
 10
18.5
 20
-15.7
 11
18.5
 21
-17.7
  0
LINE
  5
4C5
100
AcDbEntity
  8
DRAFT
100
AcDbLine
 62
7
  6
CONTINUOUS
 10
18.5
 20
16.7
 11
18.5
 21
21.7336228197
  0
LINE
  5
4C6
100
AcDbEntity
  8
RACCORDO
100
AcDbLine
 62
7
  6
CONTINUOUS
 10
18.5261806034
 20
-17.2131474193
 11
18.5261806034
 21
-17.6738193966
  0
LINE
  5
4C7
100
AcDbEntity
  8
RACCORDO
100
AcDbLine
 62
7
  6
CONTINUOUS
 10
18.5114557546
 20
17.2878679656
 11
18.5252600184
 21
19.9242640687
  0
LINE
  5
4C8
100
AcDbEntity
  8
RACCORDO
100
AcDbLine
 62
250
  6
CONTINUOUS
 10
5.0130903017
 20
-20.9868906598
 11
5.0
 21
-20.9999809615
  0
LINE
  5
4C9
100
AcDbEntity
  8
RACCORDO
100
AcDbLine
 62
250
  6
CONTINUOUS
 10
2.5000190385
 20
-23.5
 11
2.4953849082
 21
-23.5046341302
  0
LINE
  5
4CA
100
AcDbEntity
  8
RACCORDO
100
AcDbLine
 62
250
  6
CONTINUOUS
 10
10.9510724228
 20
-15.7306582703
 11
10.981730693
 21
-15.7
  0
LINE
  5
4CB
100
AcDbEntity
  8
RACCORDO
100
AcDbLine
 62
250
  6
CONTINUOUS
 10
-7.979966281
 20
-34.9799282041
 11
-8.0000380769
 21
-35.0
  0
LINE
  5
4CC
100
AcDbEntity
  8
RACCORDO
100
AcDbLine
 62
250
  6
CONTINUOUS
 10
3.0
 20
-23.9999809615
 11
2.9945953222
 21
-24.0053856393
  0
LINE
  5
4CD
100
AcDbEntity
  8
RACCORDO
100
AcDbLine
 62
250
  6
CONTINUOUS
 10
-6.9825462644
 20
-33.9825843414
 11
-6.956365661
 21
-33.956403738
  0
LINE
  5
4CE
100
AcDbEntity
  8
RACCORDO
100
AcDbLine
 62
250
  6
CONTINUOUS
 10
-5.9825843414
 20
-34.9825462644
 11
-5.956403738
 21
-34.956365661
  0
LINE
  5
4CF
100
AcDbEntity
  8
DRAFT
100
AcDbLine
 62
7
  6
CONTINUOUS
 10
7.093634339
 20
-22.156365661
 11
7.0709444827
 21
-22.1790555173
  0
LINE
  5
4D0
100
AcDbEntity
  8
DRAFT
100
AcDbLine
 62
250
  6
CONTINUOUS
 10
24.4747399816
 20
19.9242640687
 11
18.5252600184
 21
19.9242640687
  0
LINE
  5
4D1
100
AcDbEntity
  8
DRAFT
100
AcDbLine
 62
250
  6
CONTINUOUS
 10
2.9747399816
 20
19.9242640687
 11
-2.9747399816
 21
19.9242640687
  0
LINE
  5
4D2
100
AcDbEntity
  8
DRAFT
100
AcDbLine
 62
250
  6
CONTINUOUS
 10
-18.5252600184
 20
19.9242640687
 11
-24.4747399816
 21
19.9242640687
  0
LINE
  5
4D3
100
AcDbEntity
  8
RACCORDO
100
AcDbLine
 62
250
  6
CONTINUOUS
 10
12.4510153074
 20
-17.2306011548
 11
12.4816735776
 21
-17.1999428846
  0
LINE
  5
4D4
100
AcDbEntity
  8
DRAFT
100
AcDbLine
 62
7
  6
CONTINUOUS
 10
-5.0305440373
 20
-35.0
 11
-5.0
 21
-34.9694559627
  0
LINE
  5
4D5
100
AcDbEntity
  8
DRAFT
100
AcDbLine
 62
7
  6
CONTINUOUS
 10
9.1209444827
 20
-22.1790555173
 11
9.1
 21
-22.2
  0
LINE
  5
4D6
100
AcDbEntity
  8
DRAFT
100
AcDbLine
 62
7
  6
CONTINUOUS
 10
9.2
 20
-22.2
 11
9.243634339
 21
-22.156365661
  0
LINE
  5
4D7
100
AcDbEntity
  8
RACCORDO
100
AcDbLine
 62
250
  6
CONTINUOUS
 10
2.9876600717
 20
-28.5123589668
 11
3.0
 21
-28.5000190385
  0
LINE
  5
4D8
100
AcDbEntity
  8
RACCORDO
100
AcDbLine
 62
250
  6
CONTINUOUS
 10
3.4868906598
 20
-29.0130903017
 11
3.4999809615
 21
-29.0
  0
LWPOLYLINE
  5
4D9
100
AcDbEntity
  8
0
100
AcDbPolyline
 62
7
  6
CONTINUOUS
 90
22
 70
0
 10
1.8261442631
 20
-21.694041216
 10
1.8683798652
 20
-21.6802044274
 10
1.9229519395
 20
-21.6615734089
 10
1.9758920919
 20
-21.6425543651
 10
2.0271631194
 20
-21.6230770461
 10
2.0765015098
 20
-21.6031490931
 10
2.1235354089
 20
-21.5828321812
 10
2.1681667107
 20
-21.5620817967
 10
2.2103778207
 20
-21.5408064141
 10
2.2501053049
 20
-21.5189211938
 10
2.2873084445
 20
-21.4963122892
 10
2.3219904039
 20
-21.4728104065
 10
2.3542655026
 20
-21.4481050172
 10
2.3840451099
 20
-21.4219380117
 10
2.4111560356
 20
-21.3940342111
 10
2.4355637594
 20
-21.3638794101
 10
2.4573325329
 20
-21.330494453
 10
2.4754207939
 20
-21.2942776229
 10
2.488586856
 20
-21.2571713939
 10
2.4966814126
 20
-21.220194006
 10
2.4999308766
 20
-21.1830633807
 10
2.4999972093
 20
-21.1762461916
  0
LINE
  5
4DA
100
AcDbEntity
  8
0
100
AcDbLine
 62
7
  6
CONTINUOUS
 10
1.826144263
 20
-21.694041216
 11
1.8262289531
 21
-21.6940139309
  0
LWPOLYLINE
  5
4DB
100
AcDbEntity
  8
0
100
AcDbPolyline
 62
7
  6
CONTINUOUS
 90
10
 70
0
 10
1.7501874072
 20
-21.3065016836
 10
1.708415611
 20
-21.3197218162
 10
1.6498924607
 20
-21.3357933147
 10
1.5869136885
 20
-21.3503943447
 10
1.5195219006
 20
-21.3634053479
 10
1.4479010968
 20
-21.3746925421
 10
1.372349734
 20
-21.3841309253
 10
1.2930598514
 20
-21.3916335876
 10
1.2101411053
 20
-21.3971297519
 10
1.1416204191
 20
-21.4000234087
  0
LINE
  5
4DC
100
AcDbEntity
  8
DRAFT
100
AcDbLine
 62
250
  6
CONTINUOUS
 10
24.4764159065
 20
20.9394127892
 11
18.5235840935
 21
20.9394127892
  0
LINE
  5
4DD
100
AcDbEntity
  8
DRAFT
100
AcDbLine
 62
250
  6
CONTINUOUS
 10
2.9764159065
 20
20.9394127892
 11
-2.9764159065
 21
20.9394127892
  0
LINE
  5
4DE
100
AcDbEntity
  8
DRAFT
100
AcDbLine
 62
250
  6
CONTINUOUS
 10
-18.5235840935
 20
20.9394127892
 11
-24.4764159065
 21
20.9394127892
  0
LINE
  5
4DF
100
AcDbEntity
  8
DRAFT
100
AcDbLine
 62
7
  6
CONTINUOUS
 10
24.5
 20
21.7336228197
 11
18.5
 21
21.7336228197
  0
LINE
  5
4E0
100
AcDbEntity
  8
DRAFT
100
AcDbLine
 62
7
  6
CONTINUOUS
 10
3.0
 20
21.7336228197
 11
-3.0
 21
21.7336228197
  0
LINE
  5
4E1
100
AcDbEntity
  8
DRAFT
100
AcDbLine
 62
7
  6
CONTINUOUS
 10
-18.5
 20
21.7336228197
 11
-24.5
 21
21.7336228197
  0
LINE
  5
4E2
100
AcDbEntity
  8
RACCORDO
100
AcDbLine
 62
7
  6
CONTINUOUS
 10
24.4885442454
 20
17.2878679656
 11
24.4747399816
 21
19.9242640687
  0
LINE
  5
4E3
100
AcDbEntity
  8
DRAFT
100
AcDbLine
 62
7
  6
CONTINUOUS
 10
24.0091376639
 20
16.6921322387
 11
24.0091376639
 21
17.2
  0
LINE
  5
4E4
100
AcDbEntity
  8
RACCORDO
100
AcDbLine
 62
7
  6
CONTINUOUS
 10
24.1185710181
 20
16.6921322387
 11
24.1185710181
 21
17.2
  0
LINE
  5
4E5
100
AcDbEntity
  8
RACCORDO
100
AcDbLine
 62
7
  6
CONTINUOUS
 10
24.4738193966
 20
-17.6738193966
 11
24.4738193966
 21
-17.2131474193
  0
LINE
  5
4E6
100
AcDbEntity
  8
DRAFT
100
AcDbLine
 62
7
  6
CONTINUOUS
 10
24.5
 20
-17.7
 11
24.5
 21
-15.7
  0
LINE
  5
4E7
100
AcDbEntity
  8
DRAFT
100
AcDbLine
 62
7
  6
CONTINUOUS
 10
24.5
 20
16.7
 11
24.5
 21
21.7336228197
  0
LINE
  5
4E8
100
AcDbEntity
  8
RACCORDO
100
AcDbLine
 62
7
  6
CONTINUOUS
 10
26.1825462644
 20
-29.9825843414
 11
26.1825462644
 21
33.9825843414
  0
LINE
  5
4E9
100
AcDbEntity
  8
RACCORDO
100
AcDbLine
 62
7
  6
CONTINUOUS
 10
26.2
 20
34.0000380769
 11
26.2
 21
-30.0000380769
  0
LINE
  5
4EA
100
AcDbEntity
  8
RACCORDO
100
AcDbLine
 62
7
  6
CONTINUOUS
 10
26.3
 20
-27.2500060923
 11
26.3
 21
-23.0
  0
LINE
  5
4EB
100
AcDbEntity
  8
DRAFT
100
AcDbLine
 62
7
  6
CONTINUOUS
 10
24.494756608
 20
19.7283794276
 11
24.4912093131
 21
17.2
  0
LINE
  5
4EC
100
AcDbEntity
  8
SMUSSO
100
AcDbLine
 62
7
  6
CONTINUOUS
 10
26.2964891058
 20
30.244206984
 11
26.3
 21
31.25
  0
LINE
  5
4ED
100
AcDbEntity
  8
DRAFT
100
AcDbLine
 62
7
  6
CONTINUOUS
 10
24.4764159065
 20
20.9394127892
 11
24.5
 21
21.7336228197
  0
LINE
  5
4EE
100
AcDbEntity
  8
DRAFT
100
AcDbLine
 62
7
  6
CONTINUOUS
 10
10.7991273132
 20
-24.0
 11
10.8
 21
-23.9991273132
  0
LINE
  5
4EF
100
AcDbEntity
  8
DRAFT
100
AcDbLine
 62
7
  6
CONTINUOUS
 10
18.5261806034
 20
-17.6738193966
 11
18.5
 21
-17.7
  0
LINE
  5
4F0
100
AcDbEntity
  8
DRAFT
100
AcDbLine
 62
7
  6
CONTINUOUS
 10
7.093634339
 20
-29.206365661
 11
7.0709444827
 21
-29.2290555173
  0
LINE
  5
4F1
100
AcDbEntity
  8
DRAFT
100
AcDbLine
 62
7
  6
CONTINUOUS
 10
9.1209444827
 20
-29.2290555173
 11
9.1
 21
-29.25
  0
LINE
  5
4F2
100
AcDbEntity
  8
DRAFT
100
AcDbLine
 62
7
  6
CONTINUOUS
 10
9.2
 20
-29.25
 11
9.243634339
 21
-29.206365661
  0
LINE
  5
4F3
100
AcDbEntity
  8
DRAFT
100
AcDbLine
 62
7
  6
CONTINUOUS
 10
10.8
 20
-28.15
 11
10.7991273132
 21
-28.1508726868
  0
LINE
  5
4F4
100
AcDbEntity
  8
DRAFT
100
AcDbLine
 62
7
  6
CONTINUOUS
 10
9.2019338874
 20
-30.980612377
 11
9.2
 21
-30.9825462644
  0
LINE
  5
4F5
100
AcDbEntity
  8
RACCORDO
100
AcDbLine
 62
7
  6
CONTINUOUS
 10
24.4867954653
 20
-15.7132045347
 11
24.5
 21
-15.7
  0
LINE
  5
4F6
100
AcDbEntity
  8
RACCORDO
100
AcDbLine
 62
7
  6
CONTINUOUS
 10
10.7388260102
 20
-30.0611739898
 11
10.8
 21
-30.0
  0
LINE
  5
4F7
100
AcDbEntity
  8
DRAFT
100
AcDbLine
 62
7
  6
CONTINUOUS
 10
18.2
 20
-23.5
 11
18.2183264224
 21
-23.4816735776
  0
LINE
  5
4F8
100
AcDbEntity
  8
DRAFT
100
AcDbLine
 62
7
  6
CONTINUOUS
 10
-26.2
 20
27.0
 11
-26.3
 21
27.0
  0
LINE
  5
4F9
100
AcDbEntity
  8
DRAFT
100
AcDbLine
 62
7
  6
CONTINUOUS
 10
18.2183264224
 20
27.4816735776
 11
10.7816735776
 21
27.4816735776
  0
LINE
  5
4FA
100
AcDbEntity
  8
DRAFT
100
AcDbLine
 62
7
  6
CONTINUOUS
 10
-10.7816735776
 20
27.4816735776
 11
-18.2183264224
 21
27.4816735776
  0
LINE
  5
4FB
100
AcDbEntity
  8
DRAFT
100
AcDbLine
 62
7
  6
CONTINUOUS
 10
18.2
 20
27.5
 11
10.8
 21
27.5
  0
LINE
  5
4FC
100
AcDbEntity
  8
DRAFT
100
AcDbLine
 62
7
  6
CONTINUOUS
 10
-10.8
 20
27.5
 11
-18.2
 21
27.5
  0
LINE
  5
4FD
100
AcDbEntity
  8
ASSI
100
AcDbLine
 62
7
  6
CONTINUOUS
 10
-15.837951
 20
27.596826
 11
-16.4855
 21
27.596826
  0
LINE
  5
4FE
100
AcDbEntity
  8
ASSI
100
AcDbLine
 62
7
  6
CONTINUOUS
 10
-16.614937
 20
27.99999
 11
-17.024957
 21
27.999995
  0
LINE
  5
4FF
100
AcDbEntity
  8
ASSI
100
AcDbLine
 62
7
  6
CONTINUOUS
 10
-17.298299
 20
27.99999
 11
-17.70832
 21
27.99999
  0
LINE
  5
500
100
AcDbEntity
  8
ASSI
100
AcDbLine
 62
7
  6
CONTINUOUS
 10
-13.019821
 20
27.999995
 11
-13.429837
 21
27.999995
  0
LINE
  5
501
100
AcDbEntity
  8
ASSI
100
AcDbLine
 62
7
  6
CONTINUOUS
 10
-14.615136
 20
27.999995
 11
-15.025152
 21
27.999995
  0
LINE
  5
502
100
AcDbEntity
  8
ASSI
100
AcDbLine
 62
7
  6
CONTINUOUS
 10
-10.858214
 20
28.0
 11
-11.268245
 21
27.999995
  0
LINE
  5
503
100
AcDbEntity
  8
ASSI
100
AcDbLine
 62
7
  6
CONTINUOUS
 10
-12.199801
 20
28.0
 11
-12.609816
 21
27.999995
  0
LINE
  5
504
100
AcDbEntity
  8
ASSI
100
AcDbLine
 62
7
  6
CONTINUOUS
 10
-13.817481
 20
27.999995
 11
-14.227486
 21
27.99999
  0
LINE
  5
505
100
AcDbEntity
  8
ASSI
100
AcDbLine
 62
7
  6
CONTINUOUS
 10
-15.298494
 20
27.999995
 11
-15.708509
 21
27.99999
  0
LINE
  5
506
100
AcDbEntity
  8
DRAFT
100
AcDbLine
 62
7
  6
CONTINUOUS
 10
18.5
 20
19.7336228197
 11
18.505243392
 21
19.7283794276
  0
LINE
  5
507
100
AcDbEntity
  8
DRAFT
100
AcDbLine
 62
7
  6
CONTINUOUS
 10
10.7991273132
 20
28.0
 11
10.8
 21
27.9991273132
  0
LINE
  5
508
100
AcDbEntity
  8
RACCORDO
100
AcDbLine
 62
7
  6
CONTINUOUS
 10
12.4484200936
 20
-30.0515799064
 11
12.4816735776
 21
-30.0183264224
  0
LINE
  5
509
100
AcDbEntity
  8
RACCORDO
100
AcDbLine
 62
7
  6
CONTINUOUS
 10
17.9883645373
 20
-26.2039226033
 11
17.9243514584
 21
-26.2672955372
  0
LINE
  5
50A
100
AcDbEntity
  8
RACCORDO
100
AcDbLine
 62
7
  6
CONTINUOUS
 10
18.2
 20
-26.1054657825
 11
18.1790886568
 21
-26.1261680076
  0
LINE
  5
50B
100
AcDbEntity
  8
SMUSSO
100
AcDbLine
 62
7
  6
CONTINUOUS
 10
26.2
 20
30.244206984
 11
26.2964891058
 21
30.244206984
  0
LINE
  5
50C
100
AcDbEntity
  8
DRAFT
100
AcDbLine
 62
7
  6
CONTINUOUS
 10
11.0581782981
 20
30.25
 11
10.7991273132
 21
30.25
  0
LINE
  5
50D
100
AcDbEntity
  8
DRAFT
100
AcDbLine
 62
7
  6
CONTINUOUS
 10
-10.7991273132
 20
30.25
 11
-11.0581782981
 21
30.25
  0
LINE
  5
50E
100
AcDbEntity
  8
RACCORDO
100
AcDbLine
 62
7
  6
CONTINUOUS
 10
-17.9243514584
 20
30.2672955372
 11
-11.0756485416
 21
30.2672955372
  0
LINE
  5
50F
100
AcDbEntity
  8
RACCORDO
100
AcDbLine
 62
7
  6
CONTINUOUS
 10
17.9243514584
 20
30.2672955372
 11
11.0756485416
 21
30.2672955372
  0
LINE
  5
510
100
AcDbEntity
  8
RACCORDO
100
AcDbLine
 62
250
  6
CONTINUOUS
 10
-17.9214592976
 20
30.767287244
 11
-11.0785407024
 21
30.767287244
  0
LINE
  5
511
100
AcDbEntity
  8
RACCORDO
100
AcDbLine
 62
250
  6
CONTINUOUS
 10
17.9214592976
 20
30.767287244
 11
11.0785407024
 21
30.767287244
  0
LINE
  5
512
100
AcDbEntity
  8
SMUSSO
100
AcDbLine
 62
7
  6
CONTINUOUS
 10
26.2
 20
31.25
 11
26.3
 21
31.25
  0
LINE
  5
513
100
AcDbEntity
  8
RACCORDO
100
AcDbLine
 62
250
  6
CONTINUOUS
 10
-17.9214592976
 20
31.2928932188
 11
-11.0785407024
 21
31.2928932188
  0
LINE
  5
514
100
AcDbEntity
  8
RACCORDO
100
AcDbLine
 62
250
  6
CONTINUOUS
 10
17.9214592976
 20
31.2928932188
 11
11.0785407024
 21
31.2928932188
  0
LINE
  5
515
100
AcDbEntity
  8
RACCORDO
100
AcDbLine
 62
250
  6
CONTINUOUS
 10
-17.922311299
 20
31.6464466094
 11
-11.077688701
 21
31.6464466094
  0
LINE
  5
516
100
AcDbEntity
  8
RACCORDO
100
AcDbLine
 62
250
  6
CONTINUOUS
 10
17.922311299
 20
31.6464466094
 11
11.077688701
 21
31.6464466094
  0
LINE
  5
517
100
AcDbEntity
  8
DRAFT
100
AcDbLine
 62
7
  6
CONTINUOUS
 10
-18.2
 20
32.15
 11
-17.9883645373
 21
32.15
  0
LINE
  5
518
100
AcDbEntity
  8
DRAFT
100
AcDbLine
 62
7
  6
CONTINUOUS
 10
17.9883645373
 20
32.15
 11
18.2
 21
32.15
  0
LINE
  5
519
100
AcDbEntity
  8
DRAFT
100
AcDbLine
 62
7
  6
CONTINUOUS
 10
10.7991273132
 20
32.1508726868
 11
10.8
 21
32.15
  0
LINE
  5
51A
100
AcDbEntity
  8
DRAFT
100
AcDbLine
 62
7
  6
CONTINUOUS
 10
10.7816735776
 20
34.0183264224
 11
10.8
 21
34.0
  0
LINE
  5
51B
100
AcDbEntity
  8
DRAFT
100
AcDbLine
 62
7
  6
CONTINUOUS
 10
18.2
 20
27.5
 11
18.2183264224
 21
27.4816735776
  0
LINE
  5
51C
100
AcDbEntity
  8
RACCORDO
100
AcDbLine
 62
7
  6
CONTINUOUS
 10
17.9418217019
 20
-28.25
 11
17.9883645373
 21
-28.2220745004
  0
LINE
  5
51D
100
AcDbEntity
  8
DRAFT
100
AcDbLine
 62
7
  6
CONTINUOUS
 10
10.8
 20
34.0
 11
18.2
 21
34.0
  0
LINE
  5
51E
100
AcDbEntity
  8
DRAFT
100
AcDbLine
 62
7
  6
CONTINUOUS
 10
-10.8
 20
34.0
 11
-18.2
 21
34.0
  0
LINE
  5
51F
100
AcDbEntity
  8
DRAFT
100
AcDbLine
 62
7
  6
CONTINUOUS
 10
18.2183264224
 20
34.0183264224
 11
10.7816735776
 21
34.0183264224
  0
LINE
  5
520
100
AcDbEntity
  8
DRAFT
100
AcDbLine
 62
7
  6
CONTINUOUS
 10
-10.7816735776
 20
34.0183264224
 11
-18.2183264224
 21
34.0183264224
  0
LINE
  5
521
100
AcDbEntity
  8
RACCORDO
100
AcDbLine
 62
7
  6
CONTINUOUS
 10
25.1825843414
 20
34.9825462644
 11
-25.1825843414
 21
34.9825462644
  0
LINE
  5
522
100
AcDbEntity
  8
RACCORDO
100
AcDbLine
 62
7
  6
CONTINUOUS
 10
25.2000380769
 20
35.0
 11
-25.2000380769
 21
35.0
  0
LINE
  5
523
100
AcDbEntity
  8
RACCORDO
100
AcDbLine
 62
7
  6
CONTINUOUS
 10
17.9243514584
 20
30.2672955372
 11
17.9883645373
 21
30.2039226033
  0
LINE
  5
524
100
AcDbEntity
  8
RACCORDO
100
AcDbLine
 62
7
  6
CONTINUOUS
 10
18.2
 20
30.1054657825
 11
18.1790886568
 21
30.1261680076
  0
LINE
  5
525
100
AcDbEntity
  8
RACCORDO
100
AcDbLine
 62
7
  6
CONTINUOUS
 10
17.9418217019
 20
32.25
 11
17.9883645373
 21
32.2220745004
  0
ARC
  5
526
100
AcDbEntity
  8
RACCORDO
100
AcDbCircle
 62
250
  6
CONTINUOUS
 10
10.9509344983
 20
-17.2307390794
 40
1.5000808155
100
AcDbArc
 50
0.0052680449
 51
89.9947319551
  0
ARC
  5
527
100
AcDbEntity
  8
RACCORDO
100
AcDbCircle
 62
250
  6
CONTINUOUS
 10
-10.9509345345
 20
-17.2307390432
 40
1.5000807793
100
AcDbArc
 50
90.0052666627
 51
179.9947333373
  0
CIRCLE
  5
528
100
AcDbEntity
  8
0
100
AcDbCircle
 62
7
  6
CONTINUOUS
 10
-17.25
 20
2.0
 40
1.4523612067
  0
CIRCLE
  5
529
100
AcDbEntity
  8
0
100
AcDbCircle
 62
7
  6
CONTINUOUS
 10
17.25
 20
2.0
 40
1.4523612067
  0
CIRCLE
  5
52A
100
AcDbEntity
  8
0
100
AcDbCircle
 62
7
  6
CONTINUOUS
 10
17.25
 20
2.0
 40
1.4025954105
  0
CIRCLE
  5
52B
100
AcDbEntity
  8
0
100
AcDbCircle
 62
7
  6
CONTINUOUS
 10
-17.25
 20
2.0
 40
1.4025954105
  0
ARC
  5
52C
100
AcDbEntity
  8
ASSI
100
AcDbCircle
 62
7
  6
CONTINUOUS
 10
4.498725
 20
6.483343
 40
0.7667158029
100
AcDbArc
 50
292.8428447433
 51
89.9990193551
  0
ARC
  5
52D
100
AcDbEntity
  8
RACCORDO
100
AcDbCircle
 62
7
  6
CONTINUOUS
 10
-2.49999833
 20
-24.00000167
 40
0.5000040937
100
AcDbArc
 50
90.0023730085
 51
179.9976269915
  0
ARC
  5
52E
100
AcDbEntity
  8
RACCORDO
100
AcDbCircle
 62
7
  6
CONTINUOUS
 10
2.49999833
 20
-24.00000167
 40
0.5000040938
100
AcDbArc
 50
0.0023730116
 51
89.9976269884
  0
ARC
  5
52F
100
AcDbEntity
  8
ASSI
100
AcDbCircle
 62
7
  6
CONTINUOUS
 10
4.429323
 20
6.483343
 40
0.304195
100
AcDbArc
 50
270.0016504601
 51
90.0
  0
ARC
  5
530
100
AcDbEntity
  8
0
100
AcDbCircle
 62
250
  6
CONTINUOUS
 10
-2.3000106664
 20
-10.799906289
 40
0.1999487546
100
AcDbArc
 50
180.1432212425
 51
291.9612044355
  0
ARC
  5
531
100
AcDbEntity
  8
0
100
AcDbCircle
 62
7
  6
CONTINUOUS
 10
-2.2997142642
 20
-10.3999740724
 40
0.1997074521
100
AcDbArc
 50
294.1854226378
 51
359.992561652
  0
ARC
  5
532
100
AcDbEntity
  8
0
100
AcDbCircle
 62
7
  6
CONTINUOUS
 10
-2.299702614
 20
-10.4000192232
 40
0.1996959513
100
AcDbArc
 50
0.1617438615
 51
66.0988868246
  0
ARC
  5
533
100
AcDbEntity
  8
0
100
AcDbCircle
 62
250
  6
CONTINUOUS
 10
-2.1399693281
 20
-10.9159163799
 40
0.1844848571
100
AcDbArc
 50
241.2904775704
 51
241.8006323434
  0
SPLINE
  5
534
100
AcDbEntity
  8
0
100
AcDbSpline
 62
7
  6
CONTINUOUS
 70
0
 71
3
 72
14
 73
10
 74
0
 42
0.0000001
 43
0.0000001
 44
0.0000000001
 40
0.0
 40
0.0
 40
0.0
 40
0.0
 40
0.2486303472
 40
0.3738051794
 40
0.4990365967
 40
0.6242697001
 40
0.7495504565
 40
0.8746867361
 40
1.0
 40
1.0
 40
1.0
 40
1.0
 10
-2.5
 20
-10.4
 30
0.0
 10
-2.5
 20
-10.3671925943
 30
0.0
 10
-2.4869423592
 20
-10.3168845489
 30
0.0
 10
-2.4484003927
 20
-10.2629155825
 30
0.0
 10
-2.4100245971
 20
-10.2306347723
 30
0.0
 10
-2.3649021385
 20
-10.2089766278
 30
0.0
 10
-2.3159254311
 20
-10.1985024668
 30
0.0
 10
-2.2658706497
 20
-10.200936549
 30
0.0
 10
-2.2339200889
 20
-10.2107682055
 30
0.0
 10
-2.2188017238
 20
-10.2174655634
 30
0.0
  0
SPLINE
  5
535
100
AcDbEntity
  8
0
100
AcDbSpline
 62
7
  6
CONTINUOUS
 70
0
 71
3
 72
8
 73
4
 74
0
 42
0.0000001
 43
0.0000001
 44
0.0000000001
 40
0.0
 40
0.0
 40
0.0
 40
0.0
 40
1.0
 40
1.0
 40
1.0
 40
1.0
 10
1.1415840287
 20
-21.8000247311
 30
0.0
 10
1.1386214369
 20
-21.8001212392
 30
0.0
 10
1.1356569086
 20
-21.8005033678
 30
0.0
 10
1.1327615274
 20
-21.8011382158
 30
0.0
  0
SPLINE
  5
536
100
AcDbEntity
  8
0
100
AcDbSpline
 62
7
  6
CONTINUOUS
 70
0
 71
3
 72
9
 73
5
 74
0
 42
0.0000001
 43
0.0000001
 44
0.0000000001
 40
0.0
 40
0.0
 40
0.0
 40
0.0
 40
0.2404054169
 40
1.0
 40
1.0
 40
1.0
 40
1.0
 10
1.1327615274
 20
-21.8011382158
 30
0.0
 10
1.131019026
 20
-21.8015202807
 30
0.0
 10
1.1238541838
 20
-21.8034885864
 30
0.0
 10
1.1171280491
 20
-21.8069010067
 30
0.0
 10
1.112418565
 20
-21.8099978665
 30
0.0
  0
SPLINE
  5
537
100
AcDbEntity
  8
0
100
AcDbSpline
 62
7
  6
CONTINUOUS
 70
0
 71
3
 72
11
 73
7
 74
0
 42
0.0000001
 43
0.0000001
 44
0.0000000001
 40
0.0
 40
0.0
 40
0.0
 40
0.0
 40
0.1900193341
 40
0.4268910393
 40
0.702846575
 40
1.0
 40
1.0
 40
1.0
 40
1.0
 10
1.112418565
 20
-21.8099978665
 30
0.0
 10
1.1013880262
 20
-21.8172513218
 30
0.0
 10
1.0808878955
 20
-21.83988982
 30
0.0
 10
1.0601160966
 20
-21.8844856199
 30
0.0
 10
1.0468718206
 20
-21.9394793955
 30
0.0
 10
1.0437007712
 20
-21.9793550682
 30
0.0
 10
1.0437007712
 20
-22.0
 30
0.0
  0
SPLINE
  5
538
100
AcDbEntity
  8
0
100
AcDbSpline
 62
7
  6
CONTINUOUS
 70
0
 71
3
 72
13
 73
9
 74
0
 42
0.0000001
 43
0.0000001
 44
0.0000000001
 40
0.0
 40
0.0
 40
0.0
 40
0.0
 40
0.3198256295
 40
0.6036036047
 40
0.7237475572
 40
0.8277031985
 40
0.9180496877
 40
1.0
 40
1.0
 40
1.0
 40
1.0
 10
1.0437007712
 20
-22.0
 30
0.0
 10
1.0437007712
 20
-22.0258576147
 30
0.0
 10
1.0484841224
 20
-22.0747234044
 30
0.0
 10
1.0658937413
 20
-22.1313414408
 30
0.0
 10
1.0871335576
 20
-22.1667420709
 30
0.0
 10
1.1046079234
 20
-22.1855255108
 30
0.0
 10
1.1238716007
 20
-22.1974826578
 30
0.0
 10
1.137991569
 20
-22.2001905537
 30
0.0
 10
1.1446136837
 20
-22.1999753983
 30
0.0
  0
SPLINE
  5
539
100
AcDbEntity
  8
0
100
AcDbSpline
 62
250
  6
CONTINUOUS
 70
0
 71
3
 72
13
 73
9
 74
0
 42
0.0000001
 43
0.0000001
 44
0.0000000001
 40
0.0
 40
0.0
 40
0.0
 40
0.0
 40
0.3197835439
 40
0.6035824764
 40
0.7237499703
 40
0.8277102195
 40
0.9180528743
 40
1.0
 40
1.0
 40
1.0
 40
1.0
 10
1.2425009181
 20
-21.6
 30
0.0
 10
1.2425009181
 20
-21.5741488946
 30
0.0
 10
1.2377015475
 20
-21.5252924009
 30
0.0
 10
1.2203102331
 20
-21.4686793484
 30
0.0
 10
1.1990876016
 20
-21.4332691341
 30
0.0
 10
1.1816175523
 20
-21.4144824536
 30
0.0
 10
1.1623572323
 20
-21.4025254532
 30
0.0
 10
1.1482416383
 20
-21.3998132843
 30
0.0
 10
1.14162042
 20
-21.4000235273
 30
0.0
  0
SPLINE
  5
53A
100
AcDbEntity
  8
0
100
AcDbSpline
 62
7
  6
CONTINUOUS
 70
0
 71
3
 72
13
 73
9
 74
0
 42
0.0000001
 43
0.0000001
 44
0.0000000001
 40
0.0
 40
0.0
 40
0.0
 40
0.0
 40
0.0821097234
 40
0.1732962085
 40
0.2781443327
 40
0.3988600852
 40
0.682177497
 40
1.0
 40
1.0
 40
1.0
 40
1.0
 10
1.1446136837
 20
-22.1999753983
 30
0.0
 10
1.1511673698
 20
-22.1997624662
 30
0.0
 10
1.1649745182
 20
-22.1962650775
 30
0.0
 10
1.1836483662
 20
-22.1836999548
 30
0.0
 10
1.2005707628
 20
-22.1646134603
 30
0.0
 10
1.2210604933
 20
-22.129285738
 30
0.0
 10
1.2378733926
 20
-22.0734512278
 30
0.0
 10
1.2425009181
 20
-22.0253807701
 30
0.0
 10
1.2425009181
 20
-22.0
 30
0.0
  0
SPLINE
  5
53B
100
AcDbEntity
  8
0
100
AcDbSpline
 62
250
  6
CONTINUOUS
 70
0
 71
3
 72
11
 73
7
 74
0
 42
0.0000001
 43
0.0000001
 44
0.0000000001
 40
0.0
 40
0.0
 40
0.0
 40
0.0
 40
0.2579673535
 40
0.5085167828
 40
0.753895825
 40
1.0
 40
1.0
 40
1.0
 40
1.0
 10
-1.9676158239
 20
-10.9656173964
 30
0.0
 10
-1.9761499177
 20
-10.991897378
 30
0.0
 10
-2.0033862341
 20
-11.0412008993
 30
0.0
 10
-2.0705816659
 20
-11.0903361918
 30
0.0
 10
-2.1512740415
 20
-11.1063044864
 30
0.0
 10
-2.203914469
 20
-11.0909607914
 30
0.0
 10
-2.227145994
 20
-11.0785044834
 30
0.0
  0
SPLINE
  5
53C
100
AcDbEntity
  8
0
100
AcDbSpline
 62
250
  6
CONTINUOUS
 70
0
 71
3
 72
8
 73
4
 74
0
 42
0.0000001
 43
0.0000001
 44
0.0000000001
 40
0.0
 40
0.0
 40
0.0
 40
0.0
 40
1.0
 40
1.0
 40
1.0
 40
1.0
 10
1.14459352
 20
-21.7999760821
 30
0.0
 10
1.1475757725
 20
-21.7998806056
 30
0.0
 10
1.1505602081
 20
-21.7994960133
 30
0.0
 10
1.1534744628
 20
-21.7988556497
 30
0.0
  0
SPLINE
  5
53D
100
AcDbEntity
  8
0
100
AcDbSpline
 62
250
  6
CONTINUOUS
 70
0
 71
3
 72
9
 73
5
 74
0
 42
0.0000001
 43
0.0000001
 44
0.0000000001
 40
0.0
 40
0.0
 40
0.0
 40
0.0
 40
0.240422443
 40
1.0
 40
1.0
 40
1.0
 40
1.0
 10
1.1534744628
 20
-21.7988556497
 30
0.0
 10
1.1552139603
 20
-21.7984734214
 30
0.0
 10
1.1623659861
 20
-21.796506296
 30
0.0
 10
1.1690809016
 20
-21.7931009952
 30
0.0
 10
1.1737831217
 20
-21.7900107154
 30
0.0
  0
SPLINE
  5
53E
100
AcDbEntity
  8
0
100
AcDbSpline
 62
250
  6
CONTINUOUS
 70
0
 71
3
 72
11
 73
7
 74
0
 42
0.0000001
 43
0.0000001
 44
0.0000000001
 40
0.0
 40
0.0
 40
0.0
 40
0.0
 40
0.1900067207
 40
0.4269175101
 40
0.7028698905
 40
1.0
 40
1.0
 40
1.0
 40
1.0
 10
1.1737831217
 20
-21.7900107154
 30
0.0
 10
1.1848151318
 20
-21.7827605236
 30
0.0
 10
1.2053190748
 20
-21.7601191216
 30
0.0
 10
1.2260739549
 20
-21.7155121302
 30
0.0
 10
1.2393173795
 20
-21.6605180498
 30
0.0
 10
1.2425009181
 20
-21.6206438014
 30
0.0
 10
1.2425009181
 20
-21.6
 30
0.0
  0
SPLINE
  5
53F
100
AcDbEntity
  8
0
100
AcDbSpline
 62
7
  6
CONTINUOUS
 70
0
 71
3
 72
11
 73
7
 74
0
 42
0.0000001
 43
0.0000001
 44
0.0000000001
 40
0.0
 40
0.0
 40
0.0
 40
0.0
 40
0.2501227561
 40
0.5000554141
 40
0.7499628983
 40
1.0
 40
1.0
 40
1.0
 40
1.0
 10
-2.3281138427
 20
-10.5979264391
 30
0.0
 10
-2.3515023716
 20
-10.5944900054
 30
0.0
 10
-2.3974463275
 20
-10.5792967186
 30
0.0
 10
-2.4540698798
 20
-10.5341741509
 30
0.0
 10
-2.4908586252
 20
-10.4719143085
 30
0.0
 10
-2.4999076605
 20
-10.4243545321
 30
0.0
 10
-2.499998608
 20
-10.4007231671
 30
0.0
  0
SPLINE
  5
540
100
AcDbEntity
  8
0
100
AcDbSpline
 62
250
  6
CONTINUOUS
 70
0
 71
3
 72
11
 73
7
 74
0
 42
0.0000001
 43
0.0000001
 44
0.0000000001
 40
0.0
 40
0.0
 40
0.0
 40
0.0
 40
0.2237573934
 40
0.4663292757
 40
0.7276293815
 40
1.0
 40
1.0
 40
1.0
 40
1.0
 10
1.8262276949
 20
-21.6940074778
 30
0.0
 10
1.8433587145
 20
-21.6884866982
 30
0.0
 10
1.8769259399
 20
-21.6694359567
 30
0.0
 10
1.9148916884
 20
-21.6235150578
 30
0.0
 10
1.9387886062
 20
-21.5650086546
 30
0.0
 10
1.9445548897
 20
-21.5219089931
 30
0.0
 10
1.9445548897
 20
-21.5
 30
0.0
  0
SPLINE
  5
541
100
AcDbEntity
  8
0
100
AcDbSpline
 62
250
  6
CONTINUOUS
 70
0
 71
3
 72
12
 73
8
 74
0
 42
0.0000001
 43
0.0000001
 44
0.0000000001
 40
0.0
 40
0.0
 40
0.0
 40
0.0
 40
0.2816400046
 40
0.5427156939
 40
0.7763209832
 40
0.8879309435
 40
1.0
 40
1.0
 40
1.0
 40
1.0
 10
1.9445548897
 20
-21.5
 30
0.0
 10
1.9445548897
 20
-21.4701984414
 30
0.0
 10
1.9342790082
 20
-21.4123050443
 30
0.0
 10
1.891153247
 20
-21.3397456481
 30
0.0
 10
1.833826137
 20
-21.3042463243
 30
0.0
 10
1.7851419394
 20
-21.2981920351
 30
0.0
 10
1.7614808649
 20
-21.3027166161
 30
0.0
 10
1.7502389555
 20
-21.3064907223
 30
0.0
  0
SPLINE
  5
542
100
AcDbEntity
  8
0
100
AcDbSpline
 62
7
  6
CONTINUOUS
 70
0
 71
3
 72
11
 73
7
 74
0
 42
0.0000001
 43
0.0000001
 44
0.0000000001
 40
0.0
 40
0.0
 40
0.0
 40
0.0
 40
0.2971534273
 40
0.5731089638
 40
0.809980668
 40
1.0
 40
1.0
 40
1.0
 40
1.0
 10
1.2425009181
 20
-22.0
 30
0.0
 10
1.2425009181
 20
-21.9793550677
 30
0.0
 10
1.2393298685
 20
-21.9394793942
 30
0.0
 10
1.226085592
 20
-21.8844856178
 30
0.0
 10
1.2053137923
 20
-21.8398898177
 30
0.0
 10
1.1848136609
 20
-21.8172513198
 30
0.0
 10
1.1737831217
 20
-21.8099978648
 30
0.0
  0
SPLINE
  5
543
100
AcDbEntity
  8
0
100
AcDbSpline
 62
7
  6
CONTINUOUS
 70
0
 71
3
 72
9
 73
5
 74
0
 42
0.0000001
 43
0.0000001
 44
0.0000000001
 40
0.0
 40
0.0
 40
0.0
 40
0.0
 40
0.2661520947
 40
1.0
 40
1.0
 40
1.0
 40
1.0
 10
1.1737831217
 20
-21.8099978648
 30
0.0
 10
1.1713726233
 20
-21.8084127708
 30
0.0
 10
1.1620100834
 20
-21.8029697797
 30
0.0
 10
1.1510554162
 20
-21.8
 30
0.0
 10
1.1431008446
 20
-21.8
 30
0.0
  0
SPLINE
  5
544
100
AcDbEntity
  8
RACCORDO
100
AcDbSpline
 62
7
  6
CONTINUOUS
 70
0
 71
3
 72
18
 73
14
 74
0
 42
0.0000001
 43
0.0000001
 44
0.0000000001
 40
0.0
 40
0.0
 40
0.0
 40
0.0
 40
0.0055514488
 40
0.0203076173
 40
0.0442717459
 40
0.0773273216
 40
0.1191918314
 40
0.1695545623
 40
0.2937670744
 40
0.4451261953
 40
0.6177682784
 40
0.8052189692
 40
1.0
 40
1.0
 40
1.0
 40
1.0
 10
-7.5171147696
 20
-34.9825462644
 30
0.0
 10
-7.51750783
 20
-34.982153204
 30
0.0
 10
-7.5198662821
 20
-34.9824933225
 30
0.0
 10
-7.5239956913
 20
-34.9818023549
 30
0.0
 10
-7.5313428412
 20
-34.9818285685
 30
0.0
 10
-7.5411707309
 20
-34.981484592
 30
0.0
 10
-7.5537402762
 20
-34.9813008739
 30
0.0
 10
-7.5753980009
 20
-34.9809716872
 30
0.0
 10
-7.6080403252
 20
-34.9806536311
 30
0.0
 10
-7.6529161151
 20
-34.9803363993
 30
0.0
 10
-7.7041287903
 20
-34.980104955
 30
0.0
 10
-7.7596882946
 20
-34.9799604152
 30
0.0
 10
-7.7979615683
 20
-34.9799282041
 30
0.0
 10
-7.8174651591
 20
-34.9799282041
 30
0.0
  0
SPLINE
  5
545
100
AcDbEntity
  8
RACCORDO
100
AcDbSpline
 62
7
  6
CONTINUOUS
 70
0
 71
3
 72
18
 73
14
 74
0
 42
0.0000001
 43
0.0000001
 44
0.0000000001
 40
0.0
 40
0.0
 40
0.0
 40
0.0
 40
0.1947810308
 40
0.3822317216
 40
0.5548738047
 40
0.7062329256
 40
0.8304454377
 40
0.8808081686
 40
0.9226726784
 40
0.9557282541
 40
0.9796923827
 40
0.9944485512
 40
1.0
 40
1.0
 40
1.0
 40
1.0
 10
7.8174651591
 20
-34.9799282041
 30
0.0
 10
7.7979615683
 20
-34.9799282041
 30
0.0
 10
7.7596882946
 20
-34.9799604152
 30
0.0
 10
7.7041287903
 20
-34.980104955
 30
0.0
 10
7.6529161151
 20
-34.9803363993
 30
0.0
 10
7.6080403252
 20
-34.9806536311
 30
0.0
 10
7.5753980009
 20
-34.9809716872
 30
0.0
 10
7.5537402762
 20
-34.9813008739
 30
0.0
 10
7.5411707309
 20
-34.981484592
 30
0.0
 10
7.5313428412
 20
-34.9818285685
 30
0.0
 10
7.5239956913
 20
-34.9818023549
 30
0.0
 10
7.5198662821
 20
-34.9824933225
 30
0.0
 10
7.51750783
 20
-34.982153204
 30
0.0
 10
7.5171147696
 20
-34.9825462644
 30
0.0
  0
SPLINE
  5
546
100
AcDbEntity
  8
RACCORDO
100
AcDbSpline
 62
7
  6
CONTINUOUS
 70
0
 71
3
 72
8
 73
4
 74
0
 42
0.0000001
 43
0.0000001
 44
0.0000000001
 40
0.0
 40
0.0
 40
0.0
 40
0.0
 40
1.0
 40
1.0
 40
1.0
 40
1.0
 10
-26.3000009595
 20
-27.25
 30
0.0
 10
-26.3000009595
 20
-27.398062819
 30
0.0
 10
-26.2654848475
 20
-27.5496433448
 30
0.0
 10
-26.2013507957
 20
-27.6830952904
 30
0.0
  0
SPLINE
  5
547
100
AcDbEntity
  8
RACCORDO
100
AcDbSpline
 62
7
  6
CONTINUOUS
 70
0
 71
3
 72
8
 73
4
 74
0
 42
0.0000001
 43
0.0000001
 44
0.0000000001
 40
0.0
 40
0.0
 40
0.0
 40
0.0
 40
1.0
 40
1.0
 40
1.0
 40
1.0
 10
26.3000009595
 20
31.25
 30
0.0
 10
26.3000009595
 20
31.398062819
 30
0.0
 10
26.2654848475
 20
31.5496433448
 30
0.0
 10
26.2013507957
 20
31.6830952904
 30
0.0
  0
SPLINE
  5
548
100
AcDbEntity
  8
RACCORDO
100
AcDbSpline
 62
250
  6
CONTINUOUS
 70
0
 71
3
 72
13
 73
9
 74
0
 42
0.0000001
 43
0.0000001
 44
0.0000000001
 40
0.0
 40
0.0
 40
0.0
 40
0.0
 40
0.0295807136
 40
0.0975174707
 40
0.198273505
 40
0.3262975305
 40
0.6419353693
 40
1.0
 40
1.0
 40
1.0
 40
1.0
 10
-12.4510153074
 20
-17.2306011548
 30
0.0
 10
-12.4504737128
 20
-17.2334964049
 30
0.0
 10
-12.4506767087
 20
-17.2432856396
 30
0.0
 10
-12.4498398208
 20
-17.2629572105
 30
0.0
 10
-12.4496433249
 20
-17.2925325549
 30
0.0
 10
-12.4489936664
 20
-17.3467232081
 30
0.0
 10
-12.4485882333
 20
-17.4265637584
 30
0.0
 10
-12.4484200936
 20
-17.4936438504
 30
0.0
 10
-12.4484200936
 20
-17.5292977866
 30
0.0
  0
SPLINE
  5
549
100
AcDbEntity
  8
RACCORDO
100
AcDbSpline
 62
250
  6
CONTINUOUS
 70
0
 71
3
 72
16
 73
12
 74
0
 42
0.0000001
 43
0.0000001
 44
0.0000000001
 40
0.0
 40
0.0
 40
0.0
 40
0.0
 40
0.1433890756
 40
0.2764240446
 40
0.3931518386
 40
0.4976469636
 40
0.6033156584
 40
0.7215567164
 40
0.787024678
 40
0.8559779911
 40
1.0
 40
1.0
 40
1.0
 40
1.0
 10
12.4510153074
 20
-17.2306011548
 30
0.0
 10
12.4509930647
 20
-17.0966352638
 30
0.0
 10
12.4160331154
 20
-16.8367371145
 30
0.0
 10
12.2625194995
 20
-16.4967526798
 30
0.0
 10
12.0212856745
 20
-16.2550500344
 30
0.0
 10
11.713265833
 20
-16.1654401235
 30
0.0
 10
11.4043424845
 20
-16.2552105452
 30
0.0
 10
11.2042307727
 20
-16.4498341493
 30
0.0
 10
11.0844339499
 20
-16.6539091168
 30
0.0
 10
10.9878554765
 20
-16.8965179723
 30
0.0
 10
10.957239609
 20
-17.0961853287
 30
0.0
 10
10.9510724228
 20
-17.2306011548
 30
0.0
  0
SPLINE
  5
54A
100
AcDbEntity
  8
RACCORDO
100
AcDbSpline
 62
250
  6
CONTINUOUS
 70
0
 71
3
 72
16
 73
12
 74
0
 42
0.0000001
 43
0.0000001
 44
0.0000000001
 40
0.0
 40
0.0
 40
0.0
 40
0.0
 40
0.143981122
 40
0.2778466854
 40
0.396078834
 40
0.5016617362
 40
0.5535368957
 40
0.606964674
 40
0.7237072643
 40
0.8566639024
 40
1.0
 40
1.0
 40
1.0
 40
1.0
 10
-10.9510724228
 20
-17.2306011548
 30
0.0
 10
-10.953644304
 20
-17.0960489408
 30
0.0
 10
-11.0002764529
 20
-16.8366728453
 30
0.0
 10
-11.1569311862
 20
-16.4955371017
 30
0.0
 10
-11.4044106324
 20
-16.2553980473
 30
0.0
 10
-11.6643424756
 20
-16.1803615289
 30
0.0
 10
-11.861850572
 20
-16.2077457239
 30
0.0
 10
-12.0549654632
 20
-16.2898413354
 30
0.0
 10
-12.2628970607
 20
-16.4967107403
 30
0.0
 10
-12.4159382094
 20
-16.8367379016
 30
0.0
 10
-12.4509607673
 20
-17.0966272679
 30
0.0
 10
-12.4510153074
 20
-17.2306011548
 30
0.0
  0
SPLINE
  5
54B
100
AcDbEntity
  8
RACCORDO
100
AcDbSpline
 62
250
  6
CONTINUOUS
 70
0
 71
3
 72
14
 73
10
 74
0
 42
0.0000001
 43
0.0000001
 44
0.0000000001
 40
0.0
 40
0.0
 40
0.0
 40
0.0
 40
0.0257376351
 40
0.0918675801
 40
0.1923872548
 40
0.3212744637
 40
0.4725046174
 40
0.6400525167
 40
1.0
 40
1.0
 40
1.0
 40
1.0
 10
12.4510153074
 20
-17.2306011548
 30
0.0
 10
12.4499468688
 20
-17.2329306344
 30
0.0
 10
12.4513230047
 20
-17.2425653195
 30
0.0
 10
12.44945669
 20
-17.2612948511
 30
0.0
 10
12.4497986277
 20
-17.290935204
 30
0.0
 10
12.4491285833
 20
-17.3287508601
 30
0.0
 10
12.4489037236
 20
-17.3733546554
 30
0.0
 10
12.4485174315
 20
-17.4409261915
 30
0.0
 10
12.4484200936
 20
-17.4934561139
 30
0.0
 10
12.4484200936
 20
-17.5292977866
 30
0.0
  0
SPLINE
  5
54C
100
AcDbEntity
  8
RACCORDO
100
AcDbSpline
 62
7
  6
CONTINUOUS
 70
0
 71
3
 72
13
 73
9
 74
0
 42
0.0000001
 43
0.0000001
 44
0.0000000001
 40
0.0
 40
0.0
 40
0.0
 40
0.0
 40
0.3242649262
 40
0.6168804545
 40
0.7443690683
 40
0.8540301398
 40
0.9408673722
 40
1.0
 40
1.0
 40
1.0
 40
1.0
 10
11.7048036857
 20
-30.0611739898
 30
0.0
 10
11.7785362765
 20
-30.1276487729
 30
0.0
 10
11.9192309008
 20
-30.2536248887
 30
0.0
 10
12.0910176055
 20
-30.4034391516
 30
0.0
 10
12.2158334732
 20
-30.5069626765
 30
0.0
 10
12.2938534782
 20
-30.5683815704
 30
0.0
 10
12.3576555338
 20
-30.6134228795
 30
0.0
 10
12.3965411358
 20
-30.6363639684
 30
0.0
 10
12.413601649
 20
-30.6424202064
 30
0.0
  0
SPLINE
  5
54D
100
AcDbEntity
  8
RACCORDO
100
AcDbSpline
 62
250
  6
CONTINUOUS
 70
0
 71
3
 72
9
 73
5
 74
0
 42
0.0000001
 43
0.0000001
 44
0.0000000001
 40
0.0
 40
0.0
 40
0.0
 40
0.0
 40
0.5032447452
 40
1.0
 40
1.0
 40
1.0
 40
1.0
 10
10.9510724228
 20
-17.2306011548
 30
0.0
 10
11.0260681096
 20
-17.2340420619
 30
0.0
 10
11.1696125717
 20
-17.3098887019
 30
0.0
 10
11.248465786
 20
-17.4551913135
 30
0.0
 10
11.248465786
 20
-17.5292977866
 30
0.0
  0
SPLINE
  5
54E
100
AcDbEntity
  8
RACCORDO
100
AcDbSpline
 62
7
  6
CONTINUOUS
 70
0
 71
3
 72
13
 73
9
 74
0
 42
0.0000001
 43
0.0000001
 44
0.0000000001
 40
0.0
 40
0.0
 40
0.0
 40
0.0
 40
0.0591274272
 40
0.1459548619
 40
0.2556075814
 40
0.3830769553
 40
0.6757153088
 40
1.0
 40
1.0
 40
1.0
 40
1.0
 10
-12.413601649
 20
-30.6424202064
 30
0.0
 10
-12.3965426344
 20
-30.6363645004
 30
0.0
 10
-12.3576600899
 20
-30.6134275667
 30
0.0
 10
-12.2938642577
 20
-30.5683894827
 30
0.0
 10
-12.2158542311
 20
-30.5069765774
 30
0.0
 10
-12.0910357717
 20
-30.4034584109
 30
0.0
 10
-11.919245687
 20
-30.2536369867
 30
0.0
 10
-11.7785407789
 20
-30.127652832
 30
0.0
 10
-11.7048036857
 20
-30.0611739898
 30
0.0
  0
SPLINE
  5
54F
100
AcDbEntity
  8
RACCORDO
100
AcDbSpline
 62
250
  6
CONTINUOUS
 70
0
 71
3
 72
9
 73
5
 74
0
 42
0.0000001
 43
0.0000001
 44
0.0000000001
 40
0.0
 40
0.0
 40
0.0
 40
0.0
 40
0.5011414684
 40
1.0
 40
1.0
 40
1.0
 40
1.0
 10
-10.9510724228
 20
-17.2306011548
 30
0.0
 10
-11.0259391793
 20
-17.232032186
 30
0.0
 10
-11.1707056345
 20
-17.3091280258
 30
0.0
 10
-11.248465786
 20
-17.4547584706
 30
0.0
 10
-11.248465786
 20
-17.5292977866
 30
0.0
  0
ELLIPSE
  5
550
100
AcDbEntity
  8
RACCORDO
100
AcDbEllipse
 62
7
  6
CONTINUOUS
 10
-2.4999809608
 20
-31.5000190392
 30
0.0
 11
-0.3535803156
 21
0.3535803156
 31
0.0
 40
0.9999238505
 41
-0.7853600872
 42
0.7853600872
  0
ELLIPSE
  5
551
100
AcDbEntity
  8
RACCORDO
100
AcDbEllipse
 62
7
  6
CONTINUOUS
 10
-2.4999809608
 20
-32.4999809608
 30
0.0
 11
0.3535803156
 21
0.3535803156
 31
0.0
 40
0.9999238505
 41
2.3562325664
 42
3.9269527408
  0
ELLIPSE
  5
552
100
AcDbEntity
  8
RACCORDO
100
AcDbEllipse
 62
7
  6
CONTINUOUS
 10
2.4999809608
 20
-32.4999809608
 30
0.0
 11
0.3535803156
 21
-0.3535803156
 31
0.0
 40
0.9999238505
 41
-0.7853600872
 42
0.7853600872
  0
ELLIPSE
  5
553
100
AcDbEntity
  8
RACCORDO
100
AcDbEllipse
 62
7
  6
CONTINUOUS
 10
2.4999809608
 20
-31.5000190392
 30
0.0
 11
0.3535803156
 21
0.3535803156
 31
0.0
 40
0.9999238505
 41
-0.7853600872
 42
0.7853600872
  0
ELLIPSE
  5
554
100
AcDbEntity
  8
RACCORDO
100
AcDbEllipse
 62
7
  6
CONTINUOUS
 10
-4.4999809608
 20
-28.4999809608
 30
0.0
 11
-0.3535803156
 21
-0.3535803156
 31
0.0
 40
0.9999238505
 41
-0.7853600872
 42
0.7853600872
  0
ELLIPSE
  5
555
100
AcDbEntity
  8
RACCORDO
100
AcDbEllipse
 62
7
  6
CONTINUOUS
 10
4.4999809608
 20
-28.4999809608
 30
0.0
 11
0.3535803156
 21
-0.3535803156
 31
0.0
 40
0.9999238505
 41
-0.7853600872
 42
0.7853600872
  0
ELLIPSE
  5
556
100
AcDbEntity
  8
RACCORDO
100
AcDbEllipse
 62
7
  6
CONTINUOUS
 10
-4.4999809608
 20
-21.0000190392
 30
0.0
 11
-0.3535803156
 21
0.3535803156
 31
0.0
 40
0.9999238505
 41
-0.7853600872
 42
0.7853600872
  0
ELLIPSE
  5
557
100
AcDbEntity
  8
RACCORDO
100
AcDbEllipse
 62
7
  6
CONTINUOUS
 10
4.4999809608
 20
-21.0000190392
 30
0.0
 11
0.3535803156
 21
0.3535803156
 31
0.0
 40
0.9999238505
 41
-0.7853600872
 42
0.7853600872
  0
ELLIPSE
  5
558
100
AcDbEntity
  8
RACCORDO
100
AcDbEllipse
 62
7
  6
CONTINUOUS
 10
-3.5000190392
 20
-28.4999809608
 30
0.0
 11
-0.3535803156
 21
0.3535803156
 31
0.0
 40
0.9999238505
 41
2.3562325664
 42
3.9269527408
  0
ELLIPSE
  5
559
100
AcDbEntity
  8
RACCORDO
100
AcDbEllipse
 62
7
  6
CONTINUOUS
 10
3.5000190392
 20
-28.4999809608
 30
0.0
 11
-0.3535803156
 21
-0.3535803156
 31
0.0
 40
0.9999238505
 41
-0.7853600872
 42
0.7853600872
  0
ELLIPSE
  5
55A
100
AcDbEntity
  8
RACCORDO
100
AcDbEllipse
 62
7
  6
CONTINUOUS
 10
7.9999619216
 20
-33.9999619216
 30
0.0
 11
0.7071606311
 21
-0.7071606311
 31
0.0
 40
0.9999238505
 41
-0.7853600872
 42
0.7853600872
  0
ELLIPSE
  5
55B
100
AcDbEntity
  8
RACCORDO
100
AcDbEllipse
 62
7
  6
CONTINUOUS
 10
7.9999619216
 20
-16.2
 30
0.0
 11
1.0000380784
 21
0.0
 31
0.0
 40
0.9999619231
 41
0.4999478125
 42
1.5707963268
  0
ELLIPSE
  5
55C
100
AcDbEntity
  8
RACCORDO
100
AcDbEllipse
 62
7
  6
CONTINUOUS
 10
-7.9999619216
 20
-16.2
 30
0.0
 11
1.0000380784
 21
0.0
 31
0.0
 40
0.9999619231
 41
1.5707963268
 42
2.6416448411
  0
ELLIPSE
  5
55D
100
AcDbEntity
  8
RACCORDO
100
AcDbEllipse
 62
7
  6
CONTINUOUS
 10
-7.9999619216
 20
-33.9999619216
 30
0.0
 11
0.7071606311
 21
0.7071606311
 31
0.0
 40
0.9999238505
 41
-3.9269527408
 42
-2.3562325664
  0
ELLIPSE
  5
55E
100
AcDbEntity
  8
RACCORDO
100
AcDbEllipse
 62
7
  6
CONTINUOUS
 10
-4.5130712625
 20
-28.5130712625
 30
0.0
 11
0.3535803156
 21
0.3535803156
 31
0.0
 40
0.9999238505
 41
-3.9269527408
 42
-2.3562325664
  0
ELLIPSE
  5
55F
100
AcDbEntity
  8
RACCORDO
100
AcDbEllipse
 62
7
  6
CONTINUOUS
 10
7.9798901257
 20
-16.2
 30
0.0
 11
-1.0000380784
 21
0.0
 31
0.0
 40
0.9999619231
 41
3.6415404661
 42
4.7123889804
  0
ELLIPSE
  5
560
100
AcDbEntity
  8
RACCORDO
100
AcDbEllipse
 62
7
  6
CONTINUOUS
 10
7.9798901257
 20
-33.9798901257
 30
0.0
 11
-0.7071606311
 21
0.7071606311
 31
0.0
 40
0.9999238505
 41
2.3562325664
 42
3.9269527408
  0
ELLIPSE
  5
561
100
AcDbEntity
  8
RACCORDO
100
AcDbEllipse
 62
7
  6
CONTINUOUS
 10
6.9738193966
 20
-16.5284271247
 30
0.0
 11
-0.0
 21
2.0
 31
0.0
 40
0.0087268678
 41
0.8443550313
 42
1.5707963268
  0
ELLIPSE
  5
562
100
AcDbEntity
  8
RACCORDO
100
AcDbEllipse
 62
7
  6
CONTINUOUS
 10
-3.4876791696
 20
-28.5123208304
 30
0.0
 11
-0.1974604745
 21
0.4604056033
 31
0.0
 40
0.9977701902
 41
-3.3166167002
 42
-1.97522005
  0
ELLIPSE
  5
563
100
AcDbEntity
  8
RACCORDO
100
AcDbEllipse
 62
7
  6
CONTINUOUS
 10
-5.9563275827
 20
-33.9563275827
 30
0.0
 11
0.7071606311
 21
0.7071606311
 31
0.0
 40
0.9999238505
 41
2.3562325664
 42
3.9269527408
  0
ELLIPSE
  5
564
100
AcDbEntity
  8
RACCORDO
100
AcDbEllipse
 62
7
  6
CONTINUOUS
 10
5.9563275827
 20
-33.9563275827
 30
0.0
 11
0.7071606311
 21
-0.7071606311
 31
0.0
 40
0.9999238505
 41
-0.7853600872
 42
0.7853600872
  0
ELLIPSE
  5
565
100
AcDbEntity
  8
RACCORDO
100
AcDbEllipse
 62
7
  6
CONTINUOUS
 10
-4.5130712625
 20
-20.9869287375
 30
0.0
 11
0.3535803156
 21
-0.3535803156
 31
0.0
 40
0.9999238505
 41
2.3562325664
 42
3.9269527408
  0
ELLIPSE
  5
566
100
AcDbEntity
  8
RACCORDO
100
AcDbEllipse
 62
7
  6
CONTINUOUS
 10
4.5130712625
 20
-28.5130712625
 30
0.0
 11
0.3535803156
 21
-0.3535803156
 31
0.0
 40
0.9999238505
 41
-0.7853600872
 42
0.7853600872
  0
ELLIPSE
  5
567
100
AcDbEntity
  8
RACCORDO
100
AcDbEllipse
 62
7
  6
CONTINUOUS
 10
5.982508186
 20
-33.982508186
 30
0.0
 11
0.7071606311
 21
-0.7071606311
 31
0.0
 40
0.9999238505
 41
-0.7853600872
 42
0.7853600872
  0
ELLIPSE
  5
568
100
AcDbEntity
  8
RACCORDO
100
AcDbEllipse
 62
7
  6
CONTINUOUS
 10
4.5130712625
 20
-20.9869287375
 30
0.0
 11
0.3535803156
 21
0.3535803156
 31
0.0
 40
0.9999238505
 41
-0.7853600872
 42
0.7853600872
  0
ELLIPSE
  5
569
100
AcDbEntity
  8
RACCORDO
100
AcDbEllipse
 62
7
  6
CONTINUOUS
 10
-6.9738193966
 20
-16.5284271247
 30
0.0
 11
0.0
 21
2.0
 31
0.0
 40
0.0087268678
 41
-1.5707963268
 42
-0.8443550313
  0
ELLIPSE
  5
56A
100
AcDbEntity
  8
RACCORDO
100
AcDbEllipse
 62
7
  6
CONTINUOUS
 10
-5.982508186
 20
-33.982508186
 30
0.0
 11
0.7071606311
 21
0.7071606311
 31
0.0
 40
0.9999238505
 41
-3.9269527408
 42
-2.3562325664
  0
ELLIPSE
  5
56B
100
AcDbEntity
  8
RACCORDO
100
AcDbEllipse
 62
7
  6
CONTINUOUS
 10
-7.9798901257
 20
-33.9798901257
 30
0.0
 11
-0.7071606311
 21
-0.7071606311
 31
0.0
 40
0.9999238505
 41
-0.7853600872
 42
0.7853600872
  0
ELLIPSE
  5
56C
100
AcDbEntity
  8
RACCORDO
100
AcDbEllipse
 62
7
  6
CONTINUOUS
 10
-7.9798901257
 20
-16.2
 30
0.0
 11
-1.0000380784
 21
0.0
 31
0.0
 40
0.9999619231
 41
-1.5707963268
 42
-0.4999478125
  0
ELLIPSE
  5
56D
100
AcDbEntity
  8
RACCORDO
100
AcDbEllipse
 62
7
  6
CONTINUOUS
 10
3.4876791696
 20
-28.5123208304
 30
0.0
 11
0.1974604745
 21
0.4604056033
 31
0.0
 40
0.9977701902
 41
-4.3079652572
 42
-2.966568607
  0
ELLIPSE
  5
56E
100
AcDbEntity
  8
RACCORDO
100
AcDbEllipse
 62
7
  6
CONTINUOUS
 10
-2.4945762244
 20
-24.0054237756
 30
0.0
 11
-0.1974604745
 21
0.4604056033
 31
0.0
 40
0.9977701902
 41
-0.4043475708
 42
1.1663726036
  0
ELLIPSE
  5
56F
100
AcDbEntity
  8
RACCORDO
100
AcDbEllipse
 62
7
  6
CONTINUOUS
 10
2.4945762244
 20
-24.0054237756
 30
0.0
 11
0.1974604745
 21
0.4604056033
 31
0.0
 40
0.9977701902
 41
-1.1663726036
 42
0.4043475708
  0
ELLIPSE
  5
570
100
AcDbEntity
  8
RACCORDO
100
AcDbEllipse
 62
7
  6
CONTINUOUS
 10
3.4869287375
 20
-28.5130712625
 30
0.0
 11
0.3535803156
 21
0.3535803156
 31
0.0
 40
0.9999238505
 41
-2.5855560905
 42
-2.3562325664
  0
ELLIPSE
  5
571
100
AcDbEntity
  8
RACCORDO
100
AcDbEllipse
 62
7
  6
CONTINUOUS
 10
-3.4869287375
 20
-28.5130712625
 30
0.0
 11
-0.3535803156
 21
0.3535803156
 31
0.0
 40
0.9999238505
 41
-3.9269527408
 42
-3.6976292167
  0
ELLIPSE
  5
572
100
AcDbEntity
  8
RACCORDO
100
AcDbEllipse
 62
7
  6
CONTINUOUS
 10
25.2999939076
 20
-27.2499939076
 30
0.0
 11
-0.7071153971
 21
0.7071153971
 31
0.0
 40
0.9999878154
 41
3.4790692464
 42
3.9269847247
  0
ELLIPSE
  5
573
100
AcDbEntity
  8
RACCORDO
100
AcDbEllipse
 62
7
  6
CONTINUOUS
 10
-25.2999939076
 20
31.2499939076
 30
0.0
 11
0.7071153971
 21
-0.7071153971
 31
0.0
 40
0.9999878154
 41
3.4790692464
 42
3.9269847247
  0
ELLIPSE
  5
574
100
AcDbEntity
  8
RACCORDO
100
AcDbEllipse
 62
7
  6
CONTINUOUS
 10
-13.15
 20
-26.1259994896
 30
0.0
 11
5.0291737662
 21
-0.0
 31
0.0
 40
0.0057596502
 41
-0.6341187308
 42
-0.5997578827
  0
ELLIPSE
  5
575
100
AcDbEntity
  8
RACCORDO
100
AcDbEllipse
 62
7
  6
CONTINUOUS
 10
-13.15
 20
-26.1259994896
 30
0.0
 11
5.0291737662
 21
-0.0
 31
0.0
 40
0.0057596502
 41
-3.1357748894
 42
-1.0841841935
  0
ELLIPSE
  5
576
100
AcDbEntity
  8
RACCORDO
100
AcDbEllipse
 62
7
  6
CONTINUOUS
 10
13.15
 20
-26.1259994896
 30
0.0
 11
5.0291737662
 21
-0.0
 31
0.0
 40
0.0057596502
 41
-2.0574846291
 42
-0.0058177642
  0
ELLIPSE
  5
577
100
AcDbEntity
  8
RACCORDO
100
AcDbEllipse
 62
7
  6
CONTINUOUS
 10
13.15
 20
-26.1259994896
 30
0.0
 11
5.0291737662
 21
-0.0
 31
0.0
 40
0.0057596502
 41
-2.5414567309
 42
-2.5075706048
  0
ELLIPSE
  5
578
100
AcDbEntity
  8
RACCORDO
100
AcDbEllipse
 62
7
  6
CONTINUOUS
 10
-13.15
 20
30.1259994896
 30
0.0
 11
5.0291737662
 21
-0.0
 31
0.0
 40
0.0057596502
 41
1.0841080245
 42
3.1357748894
  0
ELLIPSE
  5
579
100
AcDbEntity
  8
RACCORDO
100
AcDbEllipse
 62
7
  6
CONTINUOUS
 10
13.15
 20
30.1259994896
 30
0.0
 11
5.0291737662
 21
-0.0
 31
0.0
 40
0.0057596502
 41
0.0058177642
 42
2.0574084601
  0
ELLIPSE
  5
57A
100
AcDbEntity
  8
RACCORDO
100
AcDbEllipse
 62
7
  6
CONTINUOUS
 10
26.2074971739
 20
25.0972863359
 30
0.0
 11
0.0
 21
5.0
 31
0.0
 40
0.0034906727
 41
0.0057595865
 42
0.4442096283
  0
ELLIPSE
  5
57B
100
AcDbEntity
  8
RACCORDO
100
AcDbEllipse
 62
7
  6
CONTINUOUS
 10
-26.2074971739
 20
-21.0972863359
 30
0.0
 11
-0.0
 21
5.0
 31
0.0
 40
0.0034906727
 41
-3.1358330671
 42
-2.6973830253
  0
ELLIPSE
  5
57C
100
AcDbEntity
  8
RACCORDO
100
AcDbEllipse
 62
7
  6
CONTINUOUS
 10
-26.2074971739
 20
22.0
 30
0.0
 11
0.0
 21
5.0
 31
0.0
 40
0.0034906727
 41
-0.4441729643
 42
-0.0
  0
ELLIPSE
  5
57D
100
AcDbEntity
  8
RACCORDO
100
AcDbEllipse
 62
7
  6
CONTINUOUS
 10
26.2074971739
 20
-18.0
 30
0.0
 11
-0.0
 21
5.0
 31
0.0
 40
0.0034906727
 41
-3.5857717162
 42
-3.1415926536
  0
ELLIPSE
  5
57E
100
AcDbEntity
  8
RACCORDO
100
AcDbEllipse
 62
7
  6
CONTINUOUS
 10
17.9243682125
 20
30.767287244
 30
0.0
 11
-0.0
 21
0.5
 31
0.0
 40
0.0058178298
 41
-4.7123889804
 42
-3.1473522401
  0
ELLIPSE
  5
57F
100
AcDbEntity
  8
RACCORDO
100
AcDbEllipse
 62
7
  6
CONTINUOUS
 10
17.9243682125
 20
31.2928932188
 30
0.0
 11
0.0
 21
0.5
 31
0.0
 40
0.0058178298
 41
0.7853981634
 42
1.5707963268
  0
ELLIPSE
  5
580
100
AcDbEntity
  8
RACCORDO
100
AcDbEllipse
 62
7
  6
CONTINUOUS
 10
-17.9243682125
 20
31.2928932188
 30
0.0
 11
-0.0
 21
0.5
 31
0.0
 40
0.0058178298
 41
-1.5707963268
 42
-0.7853981634
  0
ELLIPSE
  5
581
100
AcDbEntity
  8
RACCORDO
100
AcDbEllipse
 62
7
  6
CONTINUOUS
 10
-17.9243682125
 20
30.767287244
 30
0.0
 11
0.0
 21
0.5
 31
0.0
 40
0.0058178298
 41
-3.1358330671
 42
-1.5707963268
  0
ELLIPSE
  5
582
100
AcDbEntity
  8
RACCORDO
100
AcDbEllipse
 62
7
  6
CONTINUOUS
 10
-17.9243682125
 20
-26.767287244
 30
0.0
 11
-0.0
 21
0.5
 31
0.0
 40
0.0058178298
 41
-1.5707963268
 42
-0.0057595865
  0
ELLIPSE
  5
583
100
AcDbEntity
  8
RACCORDO
100
AcDbEllipse
 62
7
  6
CONTINUOUS
 10
-17.9243682125
 20
-27.2928932188
 30
0.0
 11
0.0
 21
0.5
 31
0.0
 40
0.0058178298
 41
-2.3561944902
 42
-1.5707963268
  0
ELLIPSE
  5
584
100
AcDbEntity
  8
RACCORDO
100
AcDbEllipse
 62
7
  6
CONTINUOUS
 10
-11.0756317875
 20
31.2928932188
 30
0.0
 11
-0.0
 21
0.5
 31
0.0
 40
0.0058178298
 41
0.7853981634
 42
1.5707963268
  0
ELLIPSE
  5
585
100
AcDbEntity
  8
RACCORDO
100
AcDbEllipse
 62
7
  6
CONTINUOUS
 10
-11.0756317875
 20
30.767287244
 30
0.0
 11
0.0
 21
0.5
 31
0.0
 40
0.0058178298
 41
1.5707963268
 42
3.1358330671
  0
ELLIPSE
  5
586
100
AcDbEntity
  8
RACCORDO
100
AcDbEllipse
 62
7
  6
CONTINUOUS
 10
-11.0756317875
 20
-26.767287244
 30
0.0
 11
0.0
 21
0.5
 31
0.0
 40
0.0058178298
 41
0.0057595865
 42
1.5707963268
  0
ELLIPSE
  5
587
100
AcDbEntity
  8
RACCORDO
100
AcDbEllipse
 62
7
  6
CONTINUOUS
 10
-11.0756317875
 20
-27.2928932188
 30
0.0
 11
0.0
 21
0.5
 31
0.0
 40
0.0058178298
 41
-4.7123889804
 42
-3.926990817
  0
ELLIPSE
  5
588
100
AcDbEntity
  8
RACCORDO
100
AcDbEllipse
 62
7
  6
CONTINUOUS
 10
11.0756317875
 20
30.767287244
 30
0.0
 11
0.0
 21
0.5
 31
0.0
 40
0.0058178298
 41
-3.1358330671
 42
-1.5707963268
  0
ELLIPSE
  5
589
100
AcDbEntity
  8
RACCORDO
100
AcDbEllipse
 62
7
  6
CONTINUOUS
 10
11.0756317875
 20
31.2928932188
 30
0.0
 11
-0.0
 21
0.5
 31
0.0
 40
0.0058178298
 41
-1.5707963268
 42
-0.7853981634
  0
ELLIPSE
  5
58A
100
AcDbEntity
  8
RACCORDO
100
AcDbEllipse
 62
7
  6
CONTINUOUS
 10
17.9243682125
 20
-27.2928932188
 30
0.0
 11
0.0
 21
0.5
 31
0.0
 40
0.0058178298
 41
-4.7123889804
 42
-3.926990817
  0
ELLIPSE
  5
58B
100
AcDbEntity
  8
RACCORDO
100
AcDbEllipse
 62
7
  6
CONTINUOUS
 10
17.9243682125
 20
-26.767287244
 30
0.0
 11
-0.0
 21
0.5
 31
0.0
 40
0.0058178298
 41
0.0057595865
 42
1.5707963268
  0
ELLIPSE
  5
58C
100
AcDbEntity
  8
RACCORDO
100
AcDbEllipse
 62
7
  6
CONTINUOUS
 10
11.0756317875
 20
-26.767287244
 30
0.0
 11
0.0
 21
0.5
 31
0.0
 40
0.0058178298
 41
-1.5707963268
 42
-0.0057595865
  0
ELLIPSE
  5
58D
100
AcDbEntity
  8
RACCORDO
100
AcDbEllipse
 62
7
  6
CONTINUOUS
 10
11.0756317875
 20
-27.2928932188
 30
0.0
 11
0.0
 21
0.5
 31
0.0
 40
0.0058178298
 41
-2.3561944902
 42
-1.5707963268
  0
ELLIPSE
  5
58E
100
AcDbEntity
  8
RACCORDO
100
AcDbEllipse
 62
7
  6
CONTINUOUS
 10
-20.0
 20
-26.2039900105
 30
0.0
 11
2.0116695065
 21
-0.0
 31
0.0
 40
0.0057596502
 41
0.0058177642
 42
0.4622673645
  0
ELLIPSE
  5
58F
100
AcDbEntity
  8
RACCORDO
100
AcDbEllipse
 62
7
  6
CONTINUOUS
 10
20.0
 20
-26.2039900105
 30
0.0
 11
2.0116695065
 21
-0.0
 31
0.0
 40
0.0057596502
 41
2.680835117
 42
3.1357748894
  0
ELLIPSE
  5
590
100
AcDbEntity
  8
RACCORDO
100
AcDbEllipse
 62
7
  6
CONTINUOUS
 10
-20.0
 20
30.2039900105
 30
0.0
 11
2.0116695065
 21
-0.0
 31
0.0
 40
0.0057596502
 41
-0.4607437773
 42
-0.0058177642
  0
ELLIPSE
  5
591
100
AcDbEntity
  8
RACCORDO
100
AcDbEllipse
 62
7
  6
CONTINUOUS
 10
20.0
 20
30.2039900105
 30
0.0
 11
2.0116695065
 21
0.0
 31
0.0
 40
0.0057596502
 41
-3.1357748894
 42
-2.679325289
  0
ELLIPSE
  5
592
100
AcDbEntity
  8
RACCORDO
100
AcDbEllipse
 62
7
  6
CONTINUOUS
 10
25.1999619216
 20
-29.9999619216
 30
0.0
 11
0.7071606311
 21
-0.7071606311
 31
0.0
 40
0.9999238505
 41
-0.7853600872
 42
0.7853600872
  0
ELLIPSE
  5
593
100
AcDbEntity
  8
RACCORDO
100
AcDbEllipse
 62
7
  6
CONTINUOUS
 10
25.1999619216
 20
33.9999619216
 30
0.0
 11
0.7071606311
 21
0.7071606311
 31
0.0
 40
0.9999238505
 41
-0.7853600872
 42
0.7853600872
  0
ELLIPSE
  5
594
100
AcDbEntity
  8
RACCORDO
100
AcDbEllipse
 62
7
  6
CONTINUOUS
 10
-25.1999619216
 20
33.9999619216
 30
0.0
 11
0.7071606311
 21
-0.7071606311
 31
0.0
 40
0.9999238505
 41
2.3562325664
 42
3.9269527408
  0
ELLIPSE
  5
595
100
AcDbEntity
  8
RACCORDO
100
AcDbEllipse
 62
7
  6
CONTINUOUS
 10
-25.1999619216
 20
-29.9999619216
 30
0.0
 11
0.7071606311
 21
0.7071606311
 31
0.0
 40
0.9999238505
 41
2.3562325664
 42
3.9269527408
  0
ELLIPSE
  5
596
100
AcDbEntity
  8
DRAFT
100
AcDbEllipse
 62
7
  6
CONTINUOUS
 10
24.4769614433
 20
20.3485281374
 30
0.0
 11
-0.0
 21
0.6
 31
0.0
 40
0.0052360356
 41
0.1745329252
 42
2.3561944902
  0
ELLIPSE
  5
597
100
AcDbEntity
  8
RACCORDO
100
AcDbEllipse
 62
7
  6
CONTINUOUS
 10
24.4896549763
 20
17.5
 30
0.0
 11
0.0
 21
0.3
 31
0.0
 40
0.0052360356
 41
-3.926990817
 42
-3.1415926536
  0
ELLIPSE
  5
598
100
AcDbEntity
  8
RACCORDO
100
AcDbEllipse
 62
7
  6
CONTINUOUS
 10
11.248465786
 20
-17.64851148
 30
0.0
 11
1.2
 21
0.0
 31
0.0
 40
0.0087268678
 41
0.0087266463
 42
1.5707963268
  0
ELLIPSE
  5
599
100
AcDbEntity
  8
RACCORDO
100
AcDbEllipse
 62
7
  6
CONTINUOUS
 10
-11.248465786
 20
-17.64851148
 30
0.0
 11
1.2
 21
0.0
 31
0.0
 40
0.0087268678
 41
1.5707963268
 42
3.1328660073
  0
ELLIPSE
  5
59A
100
AcDbEntity
  8
RACCORDO
100
AcDbEllipse
 62
7
  6
CONTINUOUS
 10
-11.248465786
 20
-30.05148852
 30
0.0
 11
1.2
 21
-0.0
 31
0.0
 40
0.0087268678
 41
-3.1328660073
 42
-1.960897061
  0
ELLIPSE
  5
59B
100
AcDbEntity
  8
RACCORDO
100
AcDbEllipse
 62
7
  6
CONTINUOUS
 10
11.248465786
 20
-30.05148852
 30
0.0
 11
1.2
 21
0.0
 31
0.0
 40
0.0087268678
 41
-1.1806955926
 42
-0.0087266463
  0
ELLIPSE
  5
59C
100
AcDbEntity
  8
RACCORDO
100
AcDbEllipse
 62
7
  6
CONTINUOUS
 10
-10.7467661065
 20
-29.6462255084
 30
0.0
 11
0.0
 21
1.0
 31
0.0
 40
0.0087268678
 41
-1.9986825055
 42
-1.5707963268
  0
ELLIPSE
  5
59D
100
AcDbEntity
  8
RACCORDO
100
AcDbEllipse
 62
7
  6
CONTINUOUS
 10
-4.4973819397
 20
-23.8
 30
0.0
 11
0.0
 21
0.3
 31
0.0
 40
0.0087268678
 41
-0.0
 42
1.5707963268
  0
ELLIPSE
  5
59E
100
AcDbEntity
  8
RACCORDO
100
AcDbEllipse
 62
7
  6
CONTINUOUS
 10
-25.182508186
 20
-29.982508186
 30
0.0
 11
0.7071606311
 21
0.7071606311
 31
0.0
 40
0.9999238505
 41
2.3562325664
 42
3.9269527408
  0
ELLIPSE
  5
59F
100
AcDbEntity
  8
RACCORDO
100
AcDbEllipse
 62
7
  6
CONTINUOUS
 10
-25.182508186
 20
33.982508186
 30
0.0
 11
-0.7071606311
 21
0.7071606311
 31
0.0
 40
0.9999238505
 41
-0.7853600872
 42
0.7853600872
  0
ELLIPSE
  5
5A0
100
AcDbEntity
  8
RACCORDO
100
AcDbEllipse
 62
7
  6
CONTINUOUS
 10
25.182508186
 20
33.982508186
 30
0.0
 11
-0.7071606311
 21
-0.7071606311
 31
0.0
 40
0.9999238505
 41
2.3562325664
 42
3.9269527408
  0
ELLIPSE
  5
5A1
100
AcDbEntity
  8
RACCORDO
100
AcDbEllipse
 62
7
  6
CONTINUOUS
 10
25.182508186
 20
-29.982508186
 30
0.0
 11
0.7071606311
 21
-0.7071606311
 31
0.0
 40
0.9999238505
 41
-0.7853600872
 42
0.7853600872
  0
ELLIPSE
  5
5A2
100
AcDbEntity
  8
RACCORDO
100
AcDbEllipse
 62
7
  6
CONTINUOUS
 10
-9.2349074712
 20
-29.6462255084
 30
0.0
 11
0.0
 21
1.0
 31
0.0
 40
0.0087268678
 41
-4.7123889804
 42
-3.2288591162
  0
ELLIPSE
  5
5A3
100
AcDbEntity
  8
RACCORDO
100
AcDbEllipse
 62
7
  6
CONTINUOUS
 10
9.2349074712
 20
-29.6462255084
 30
0.0
 11
0.0
 21
1.0
 31
0.0
 40
0.0087268678
 41
-3.054326191
 42
-1.5707963268
  0
ELLIPSE
  5
5A4
100
AcDbEntity
  8
RACCORDO
100
AcDbEllipse
 62
7
  6
CONTINUOUS
 10
-7.0805440373
 20
-17.2306011548
 30
0.0
 11
-0.0
 21
1.5
 31
0.0
 40
0.0087268678
 41
0.0087266463
 42
1.5707963268
  0
ELLIPSE
  5
5A5
100
AcDbEntity
  8
RACCORDO
100
AcDbEllipse
 62
7
  6
CONTINUOUS
 10
7.0805440373
 20
-17.2306011548
 30
0.0
 11
0.0
 21
1.5
 31
0.0
 40
0.0087268678
 41
-1.5707963268
 42
-0.0087266463
  0
ELLIPSE
  5
5A6
100
AcDbEntity
  8
DRAFT
100
AcDbEllipse
 62
7
  6
CONTINUOUS
 10
-0.0
 20
-8.9930185058
 30
0.0
 11
3.0
 21
0.0
 31
0.0
 40
0.0087268678
 41
-2.8716598578
 42
-0.2699327958
  0
ELLIPSE
  5
5A7
100
AcDbEntity
  8
RACCORDO
100
AcDbEllipse
 62
7
  6
CONTINUOUS
 10
10.9816164601
 20
-17.2000571176
 30
0.0
 11
1.0607409467
 21
1.0607409467
 31
0.0
 40
0.9999238505
 41
-0.7853600872
 42
0.7853600872
  0
ELLIPSE
  5
5A8
100
AcDbEntity
  8
DRAFT
100
AcDbEllipse
 62
7
  6
CONTINUOUS
 10
2.9769614433
 20
20.3485281374
 30
0.0
 11
0.0
 21
0.6
 31
0.0
 40
0.0052360356
 41
0.1745329252
 42
2.3561944902
  0
ELLIPSE
  5
5A9
100
AcDbEntity
  8
DRAFT
100
AcDbEllipse
 62
7
  6
CONTINUOUS
 10
-2.9769614433
 20
20.3485281374
 30
0.0
 11
0.0
 21
0.6
 31
0.0
 40
0.0052360356
 41
-2.3561944902
 42
-0.1745329252
  0
ELLIPSE
  5
5AA
100
AcDbEntity
  8
DRAFT
100
AcDbEllipse
 62
7
  6
CONTINUOUS
 10
18.5230385567
 20
20.3485281374
 30
0.0
 11
0.0
 21
0.6
 31
0.0
 40
0.0052360356
 41
-2.3561944902
 42
-0.1745329252
  0
ELLIPSE
  5
5AB
100
AcDbEntity
  8
DRAFT
100
AcDbEllipse
 62
7
  6
CONTINUOUS
 10
-18.5230385567
 20
20.3485281374
 30
0.0
 11
0.0
 21
0.6
 31
0.0
 40
0.0052360356
 41
0.1745329252
 42
2.3561944902
  0
ELLIPSE
  5
5AC
100
AcDbEntity
  8
RACCORDO
100
AcDbEllipse
 62
7
  6
CONTINUOUS
 10
-18.5130903017
 20
-17.2131474193
 30
0.0
 11
0.0
 21
1.5
 31
0.0
 40
0.0087268678
 41
0.0087266463
 42
1.5707963268
  0
ELLIPSE
  5
5AD
100
AcDbEntity
  8
RACCORDO
100
AcDbEllipse
 62
7
  6
CONTINUOUS
 10
-24.4869096983
 20
-17.2131474193
 30
0.0
 11
0.0
 21
1.5
 31
0.0
 40
0.0087268678
 41
-1.5707963268
 42
-0.0087266463
  0
ELLIPSE
  5
5AE
100
AcDbEntity
  8
RACCORDO
100
AcDbEllipse
 62
7
  6
CONTINUOUS
 10
24.4869096983
 20
-17.2131474193
 30
0.0
 11
0.0
 21
1.5
 31
0.0
 40
0.0087268678
 41
0.0087266463
 42
1.5707963268
  0
ELLIPSE
  5
5AF
100
AcDbEntity
  8
RACCORDO
100
AcDbEllipse
 62
7
  6
CONTINUOUS
 10
18.5130903017
 20
-17.2131474193
 30
0.0
 11
0.0
 21
1.5
 31
0.0
 40
0.0087268678
 41
-1.5707963268
 42
-0.0087266463
  0
ELLIPSE
  5
5B0
100
AcDbEntity
  8
RACCORDO
100
AcDbEllipse
 62
7
  6
CONTINUOUS
 10
-10.9816164601
 20
-17.2000571176
 30
0.0
 11
1.0607409467
 21
-1.0607409467
 31
0.0
 40
0.9999238505
 41
2.3562325664
 42
3.9269527408
  0
ELLIPSE
  5
5B1
100
AcDbEntity
  8
RACCORDO
100
AcDbEllipse
 62
7
  6
CONTINUOUS
 10
-11.248465786
 20
-30.6675430786
 30
0.0
 11
1.2
 21
0.0
 31
0.0
 40
0.0874886635
 41
2.8999514672
 42
3.1328660073
  0
ELLIPSE
  5
5B2
100
AcDbEntity
  8
RACCORDO
100
AcDbEllipse
 62
7
  6
CONTINUOUS
 10
11.248465786
 20
-30.6675430786
 30
0.0
 11
1.2
 21
0.0
 31
0.0
 40
0.0874886635
 41
0.0087266463
 42
0.2416411864
  0
ELLIPSE
  5
5B3
100
AcDbEntity
  8
RACCORDO
100
AcDbEllipse
 62
7
  6
CONTINUOUS
 10
-2.9896549763
 20
17.5
 30
0.0
 11
-0.0
 21
0.3
 31
0.0
 40
0.0052360356
 41
-3.1415926536
 42
-2.3561944902
  0
ELLIPSE
  5
5B4
100
AcDbEntity
  8
RACCORDO
100
AcDbEllipse
 62
7
  6
CONTINUOUS
 10
-18.5103450237
 20
17.5
 30
0.0
 11
0.0
 21
0.3
 31
0.0
 40
0.0052360356
 41
-3.926990817
 42
-3.1415926536
  0
ELLIPSE
  5
5B5
100
AcDbEntity
  8
RACCORDO
100
AcDbEllipse
 62
7
  6
CONTINUOUS
 10
10.7467661065
 20
-29.6462255084
 30
0.0
 11
0.0
 21
1.0
 31
0.0
 40
0.0087268678
 41
-4.7123889804
 42
-4.2845028016
  0
ELLIPSE
  5
5B6
100
AcDbEntity
  8
RACCORDO
100
AcDbEllipse
 62
7
  6
CONTINUOUS
 10
18.5103450237
 20
17.5
 30
0.0
 11
0.0
 21
0.3
 31
0.0
 40
0.0052360356
 41
-3.1415926536
 42
-2.3561944902
  0
ELLIPSE
  5
5B7
100
AcDbEntity
  8
RACCORDO
100
AcDbEllipse
 62
7
  6
CONTINUOUS
 10
2.9896549763
 20
17.5
 30
0.0
 11
0.0
 21
0.3
 31
0.0
 40
0.0052360356
 41
-3.926990817
 42
-3.1415926536
  0
ELLIPSE
  5
5B8
100
AcDbEntity
  8
DRAFT
100
AcDbEllipse
 62
7
  6
CONTINUOUS
 10
-24.4769614433
 20
20.3485281374
 30
0.0
 11
0.0
 21
0.6
 31
0.0
 40
0.0052360356
 41
-2.3561944902
 42
-0.1745329252
  0
ELLIPSE
  5
5B9
100
AcDbEntity
  8
RACCORDO
100
AcDbEllipse
 62
7
  6
CONTINUOUS
 10
-24.4896549763
 20
17.5
 30
0.0
 11
-0.0
 21
0.3
 31
0.0
 40
0.0052360356
 41
-3.1415926536
 42
-2.3561944902
  0
ELLIPSE
  5
5BA
100
AcDbEntity
  8
RACCORDO
100
AcDbEllipse
 62
7
  6
CONTINUOUS
 10
4.4973819397
 20
-23.8
 30
0.0
 11
0.0
 21
0.3
 31
0.0
 40
0.0087268678
 41
-1.5707963268
 42
0.0
  0
ENDSEC
  0
SECTION
  2
OBJECTS
  0
DICTIONARY
  5
C
100
AcDbDictionary
280
0
281
1
  3
ACAD_GROUP
350
D
  3
ACAD_MLINESTYLE
350
17
  3
ACAD_LAYOUT
350
1A
  3
ACAD_PLOTSETTINGS
350
19
  3
ACAD_PLOTSTYLENAME
350
E
  0
DICTIONARY
  5
D
102
{ACAD_REACTORS
330
C
102
}
100
AcDbDictionary
280
0
281
1
  0
ACDBDICTIONARYWDFLT
  5
E
102
{ACAD_REACTORS
330
C
102
}
100
AcDbDictionary
281
1
  3
Normal
350
F
100
AcDbDictionaryWithDefault
340
F
  0
DICTIONARY
  5
17
102
{ACAD_REACTORS
330
C
102
}
100
AcDbDictionary
280
0
281
1
  3
Standard
350
18
  0
DICTIONARY
  5
19
102
{ACAD_REACTORS
330
C
102
}
100
AcDbDictionary
281
1
  0
DICTIONARY
  5
1A
102
{ACAD_REACTORS
330
C
102
}
100
AcDbDictionary
281
1
  3
Model
350
5BB
  3
Layout1
350
5BC
  0
ACDBPLACEHOLDER
  5
F
102
{ACAD_REACTORS
330
E
102
}
  0
MLINESTYLE
  5
18
102
{ACAD_REACTORS
330
17
102
}
100
AcDbMlineStyle
  2
STANDARD
 70
0
  3

 62
256
 51
90.0
 52
90.0
 71
2
 49
0.5
 62
256
  6
BYLAYER
 49
-0.5
 62
256
  6
BYLAYER
  0
LAYOUT
  5
5BB
102
{ACAD_REACTORS
330
1A
102
}
100
AcDbPlotSettings
  1

  2
none_device
  4
ANSI_C_(22.00_x_17.00_Inches)
  6

 40
0.0
 41
0.0
 42
0.0
 43
0.0
 44
558.8
 45
431.8
 46
0.0
 47
0.0
 48
0.0
 49
0.0
140
0.0
141
0.0
142
1.0
143
1.0
 70
1024
 72
1
 73
0
 74
0
  7

 75
0
147
1.0
148
0.0
149
0.0
100
AcDbLayout
  1
Model
 70
0
 71
0
 10
0.0
 20
0.0
 11
558.8
 21
431.8
 12
0.0
 22
0.0
 32
0.0
 14
0.0
 24
0.0
 34
0.0
 15
0.0
 25
0.0
 35
0.0
146
0.0
 13
0.0
 23
0.0
 33
0.0
 16
1.0
 26
0.0
 36
0.0
 17
0.0
 27
1.0
 37
0.0
 76
0
330
218
345
0
346
0
  0
LAYOUT
  5
5BC
102
{ACAD_REACTORS
330
1A
102
}
100
AcDbPlotSettings
  1

  2
none_device
  4
ANSI_C_(22.00_x_17.00_Inches)
  6

 40
0.0
 41
0.0
 42
0.0
 43
0.0
 44
558.8
 45
431.8
 46
0.0
 47
0.0
 48
0.0
 49
0.0
140
0.0
141
0.0
142
1.0
143
1.0
 70
0
 72
1
 73
0
 74
0
  7

 75
0
147
1.0
148
0.0
149
0.0
100
AcDbLayout
  1
Layout1
 70
0
 71
1
 10
0.0
 20
0.0
 11
558.8
 21
431.8
 12
0.0
 22
0.0
 32
0.0
 14
0.0
 24
0.0
 34
0.0
 15
0.0
 25
0.0
 35
0.0
146
0.0
 13
0.0
 23
0.0
 33
0.0
 16
1.0
 26
0.0
 36
0.0
 17
0.0
 27
1.0
 37
0.0
 76
0
330
219
345
0
346
0
  0
ENDSEC
  0
EOF
