  0
SECTION
  2
HEADER
  9
$ACADVER
  1
AC1024
  9
$DWGCODEPAGE
  3
ANSI_1252
  9
$EXTMAX
 10
297.0
 20
210.0
 30
0.0
  9
$EXTMIN
 10
0.0
 20
0.0
 30
0.0
  9
$LIMMIN
 10
0.0
 20
0.0
  9
$LIMMAX
 10
297.0
 20
210.0
  9
$VIEWCTR
 10
148.5
 20
105.0
  9
$VIEWSIZE
 40
210.0
  9
$CLAYER
  8
0
  9
$LTSCALE
 40
16.335
  9
$CELTYPE
  6
BYLAYER
  9
$DIMSCALE
 40
1.0
  9
$DIMASZ
 40
3.0
  9
$DIMEXO
 40
0.5
  9
$DIMDLI
 40
11.286
  9
$DIMEXE
 40
1.5
  9
$DIMCEN
 40
2.673
  9
$DIMLFAC
 40
1.0
  9
$DIMBLK
  1
_FILLED
  9
$DIMALT
 70
0
  9
$DIMALTF
 40
0.0393700787
  9
$DIMTXT
 40
3.0
  9
$DIMTOL
 70
1
  9
$DIMLIM
 70
0
  9
$DIMTFAC
 40
1.0
  9
$DIMTP
 40
0.01
  9
$DIMTM
 40
0.01
  9
$DIMGAP
 40
0.625
  9
$DIMDSEP
 70
44
  9
$AUNITS
 70
0
  9
$PDMODE
 70
3
  9
$PDSIZE
 40
3.0
  9
$HANDSEED
  5
4B5
  9
$TILEMODE
 70
1
  9
$MEASUREMENT
 70
1
  9
$INSUNITS
 70
4
  0
ENDSEC
  0
SECTION
  2
CLASSES
  0
CLASS
  1
ACDBDICTIONARYWDFLT
  2
AcDbDictionaryWithDefault
  3
AutoCAD 2000
 90
0
 91
1
280
0
281
0
  0
CLASS
  1
ACDBPLACEHOLDER
  2
AcDbPlaceHolder
  3
AutoCAD 2000
 90
0
 91
1
280
0
281
0
  0
CLASS
  1
LAYOUT
  2
AcDbLayout
  3
AutoCAD 2000
 90
0
 91
0
280
0
281
0
  0
ENDSEC
  0
SECTION
  2
TABLES
  0
TABLE
  2
VPORT
  5
8
100
AcDbSymbolTable
 70
2
  0
VPORT
  5
1F4
100
AcDbSymbolTableRecord
100
AcDbViewportTableRecord
  2
*ACTIVE
 70
0
 10
0.0
 20
0.0
 11
1.0
 21
1.0
 12
148.5
 22
105.0
 13
0.0
 23
0.0
 14
1.0
 24
1.0
 15
0.0
 25
0.0
 16
0.0
 26
0.0
 36
1.0
 17
0.0
 27
0.0
 37
0.0
 40
210.0
 41
1.4142857143
 42
50.0
 43
0.0
 44
0.0
 50
0.0
 51
0.0
 71
0
 72
100
 73
1
 74
1
 75
0
 76
0
 77
0
 78
0
  0
ENDTAB
  0
TABLE
  2
LTYPE
  5
5
100
AcDbSymbolTable
 70
6
  0
LTYPE
  5
14
100
AcDbSymbolTableRecord
100
AcDbLinetypeTableRecord
  2
BYBLOCK
 70
0
  3

 72
65
 73
0
 40
0.0
  0
LTYPE
  5
15
100
AcDbSymbolTableRecord
100
AcDbLinetypeTableRecord
  2
BYLAYER
 70
0
  3

 72
65
 73
0
 40
0.0
  0
LTYPE
  5
16
100
AcDbSymbolTableRecord
100
AcDbLinetypeTableRecord
  2
CONTINUOUS
 70
64
  3
Solid line
 72
65
 73
0
 40
0.0
  0
LTYPE
  5
1F5
100
AcDbSymbolTableRecord
100
AcDbLinetypeTableRecord
  2
CENTER
 70
64
  3
____ _ ____ _ ____ _ ____ _ ____ _ ____ _ ____
 72
65
 73
4
 40
0.6
 49
0.375
 74
0
 49
-0.075
 74
0
 49
0.075
 74
0
 49
-0.075
 74
0
  0
LTYPE
  5
1F6
100
AcDbSymbolTableRecord
100
AcDbLinetypeTableRecord
  2
HIDDEN
 70
64
  3
- - - - - - - - - - - - - - - - - - - -
 72
65
 73
2
 40
0.2
 49
0.1
 74
0
 49
-0.1
 74
0
  0
LTYPE
  5
1F7
100
AcDbSymbolTableRecord
100
AcDbLinetypeTableRecord
  2
PHANTOM
 70
64
  3
_____ _ _ _____ _ _ _____ _ _ _____
 72
65
 73
6
 40
0.8
 49
0.45
 74
0
 49
-0.05
 74
0
 49
0.1
 74
0
 49
-0.05
 74
0
 49
0.1
 74
0
 49
-0.05
 74
0
  0
LTYPE
  5
1F8
100
AcDbSymbolTableRecord
100
AcDbLinetypeTableRecord
  2
DOT
 70
64
  3
. . . . . . . . . . . . . . . . . . . .
 72
65
 73
2
 40
0.2
 49
0.1
 74
0
 49
-0.1
 74
0
  0
LTYPE
  5
1F9
100
AcDbSymbolTableRecord
100
AcDbLinetypeTableRecord
  2
DASHED
 70
64
  3
- - - - - - - - - - - - - - - - - - - -
 72
65
 73
2
 40
0.2
 49
0.1
 74
0
 49
-0.1
 74
0
  0
ENDTAB
  0
TABLE
  2
LAYER
  5
2
100
AcDbSymbolTable
 70
36
  0
LAYER
  5
10
100
AcDbSymbolTableRecord
100
AcDbLayerTableRecord
  2
0
 70
0
 62
7
  6
CONTINUOUS
370
-3
390
F
  0
LAYER
  5
1FA
100
AcDbSymbolTableRecord
100
AcDbLayerTableRecord
  2
DEFAULT_1
 70
0
 62
7
  6
CENTER
370
-3
390
F
  0
LAYER
  5
1FB
100
AcDbSymbolTableRecord
100
AcDbLayerTableRecord
  2
DEFAULT_2
 70
0
 62
7
  6
HIDDEN
370
-3
390
F
  0
LAYER
  5
1FC
100
AcDbSymbolTableRecord
100
AcDbLayerTableRecord
  2
DEFAULT_3
 70
0
 62
7
  6
PHANTOM
370
-3
390
F
  0
LAYER
  5
1FD
100
AcDbSymbolTableRecord
100
AcDbLayerTableRecord
  2
ASSI
 70
0
 62
7
  6
CONTINUOUS
370
-3
390
F
  0
LAYER
  5
1FE
100
AcDbSymbolTableRecord
100
AcDbLayerTableRecord
  2
COLOR5
 70
0
 62
7
  6
CONTINUOUS
370
-3
390
F
  0
LAYER
  5
1FF
100
AcDbSymbolTableRecord
100
AcDbLayerTableRecord
  2
COORDINATE
 70
0
 62
7
  6
CONTINUOUS
370
-3
390
F
  0
LAYER
  5
200
100
AcDbSymbolTableRecord
100
AcDbLayerTableRecord
  2
COORD_ORIGINE
 70
0
 62
7
  6
CONTINUOUS
370
-3
390
F
  0
LAYER
  5
201
100
AcDbSymbolTableRecord
100
AcDbLayerTableRecord
  2
CURVE
 70
0
 62
7
  6
CONTINUOUS
370
-3
390
F
  0
LAYER
  5
202
100
AcDbSymbolTableRecord
100
AcDbLayerTableRecord
  2
DRAFT
 70
0
 62
7
  6
CONTINUOUS
370
-3
390
F
  0
LAYER
  5
203
100
AcDbSymbolTableRecord
100
AcDbLayerTableRecord
  2
IGS
 70
0
 62
7
  6
CONTINUOUS
370
-3
390
F
  0
LAYER
  5
204
100
AcDbSymbolTableRecord
100
AcDbLayerTableRecord
  2
NOTE
 70
0
 62
7
  6
CONTINUOUS
370
-3
390
F
  0
LAYER
  5
205
100
AcDbSymbolTableRecord
100
AcDbLayerTableRecord
  2
PIANI
 70
0
 62
7
  6
CONTINUOUS
370
-3
390
F
  0
LAYER
  5
206
100
AcDbSymbolTableRecord
100
AcDbLayerTableRecord
  2
PIANI_ORIGINE
 70
0
 62
7
  6
CONTINUOUS
370
-3
390
F
  0
LAYER
  5
207
100
AcDbSymbolTableRecord
100
AcDbLayerTableRecord
  2
PUNTI
 70
0
 62
7
  6
CONTINUOUS
370
-3
390
F
  0
LAYER
  5
208
100
AcDbSymbolTableRecord
100
AcDbLayerTableRecord
  2
RACCORDO
 70
0
 62
7
  6
CONTINUOUS
370
-3
390
F
  0
LAYER
  5
209
100
AcDbSymbolTableRecord
100
AcDbLayerTableRecord
  2
SMUSSO
 70
0
 62
7
  6
CONTINUOUS
370
-3
390
F
  0
LAYER
  5
20A
100
AcDbSymbolTableRecord
100
AcDbLayerTableRecord
  2
SNAPLINE
 70
0
 62
7
  6
CONTINUOUS
370
-3
390
F
  0
LAYER
  5
20B
100
AcDbSymbolTableRecord
100
AcDbLayerTableRecord
  2
SUPERFICI
 70
0
 62
7
  6
CONTINUOUS
370
-3
390
F
  0
LAYER
  5
20C
100
AcDbSymbolTableRecord
100
AcDbLayerTableRecord
  2
TRASH
 70
0
 62
7
  6
CONTINUOUS
370
-3
390
F
  0
LAYER
  5
20D
100
AcDbSymbolTableRecord
100
AcDbLayerTableRecord
  2
XSEC_DATUMS
 70
0
 62
7
  6
CONTINUOUS
370
-3
390
F
  0
ENDTAB
  0
TABLE
  2
STYLE
  5
3
100
AcDbSymbolTable
 70
1
  0
STYLE
  5
11
100
AcDbSymbolTableRecord
100
AcDbTextStyleTableRecord
  2
STANDARD
 70
0
 40
0.0
 41
0.8
 50
0.0
 71
0
 42
0.2
  3
txt
  4

  0
STYLE
  5
20E
100
AcDbSymbolTableRecord
100
AcDbTextStyleTableRecord
  2
TEXTSTYLE_1
 70
0
 40
0.0
 41
0.8
 50
0.0
 71
0
 42
0.2
  3
gdt
  4

  0
ENDTAB
  0
TABLE
  2
VIEW
  5
6
100
AcDbSymbolTable
 70
0
  0
ENDTAB
  0
TABLE
  2
UCS
  5
7
100
AcDbSymbolTable
 70
0
  0
ENDTAB
  0
TABLE
  2
APPID
  5
9
100
AcDbSymbolTable
 70
1
  0
APPID
  5
20F
100
AcDbSymbolTableRecord
100
AcDbRegAppTableRecord
  2
ACAD
 70
0
  0
ENDTAB
  0
TABLE
  2
BLOCK_RECORD
  5
1
100
AcDbSymbolTable
 70
0
  0
BLOCK_RECORD
  5
210
100
AcDbSymbolTableRecord
100
AcDbBlockTableRecord
  2
*Model_Space
  0
BLOCK_RECORD
  5
211
100
AcDbSymbolTableRecord
100
AcDbBlockTableRecord
  2
*Paper_Space
  0
BLOCK_RECORD
  5
212
100
AcDbSymbolTableRecord
100
AcDbBlockTableRecord
  2
_FILLED
  0
ENDTAB
  0
TABLE
  2
DIMSTYLE
  5
A
100
AcDbSymbolTable
 70
1
100
AcDbDimStyleTable
 71
0
  0
DIMSTYLE
105
213
100
AcDbSymbolTableRecord
100
AcDbDimStyleTableRecord
  2
STANDARD
 70
0
  3

  4

 40
1.0
 41
3.0
 42
0.5
 43
0.38
 44
1.5
 45
0.0
 46
0.0
 47
0.01
 48
0.01
140
3.0
141
0.09
142
0.0
143
25.4
144
1.0
145
0.0
146
1.0
147
0.625
 71
1.0
 72
0.0
 73
0
 74
0
 75
0
 76
0
 77
1
 78
8
 79
2
170
0
171
1
172
0
173
0
174
0
175
0
176
0
177
0
178
0
270
2
179
2
271
2
272
2
273
2
274
2
275
0
280
0
281
0
282
0
283
1
284
8
285
0
286
0
287
3
288
0
340
11
278
44
341
212
342
212
343
212
344
212
  0
ENDTAB
  0
ENDSEC
  0
SECTION
  2
BLOCKS
  0
BLOCK
  5
20
100
AcDbEntity
  8
0
100
AcDbBlockBegin
  2
*Model_Space
 70
0
 10
0.0
 20
0.0
 30
0.0
  3
*Model_Space
  1

  0
ENDBLK
  5
21
100
AcDbEntity
  8
0
100
AcDbBlockEnd
  0
BLOCK
  5
1C
100
AcDbEntity
  8
0
100
AcDbBlockBegin
  2
*Paper_Space
 70
0
 10
0.0
 20
0.0
 30
0.0
  3
*Paper_Space
  1

  0
ENDBLK
  5
1D
100
AcDbEntity
  8
0
100
AcDbBlockEnd
  0
BLOCK
  5
214
100
AcDbEntity
  8
0
100
AcDbBlockBegin
  2
_FILLED
 70
64
 10
0.0
 20
0.0
  3
_FILLED
  1

  0
SOLID
  5
215
100
AcDbEntity
  8
0
  6
BYBLOCK
 62
0
100
AcDbTrace
 10
0.0
 20
0.0
 11
-1.0
 21
0.3166666667
 12
-1.0
 22
-0.3166666667
 13
-1.0
 23
-0.3166666667
  0
ENDBLK
  5
216
100
AcDbEntity
  8
0
  6
BYBLOCK
 62
0
100
AcDbBlockEnd
  0
ENDSEC
  0
SECTION
  2
ENTITIES
  0
LINE
  5
217
100
AcDbEntity
  8
DRAFT
100
AcDbLine
 62
7
  6
CONTINUOUS
 10
100.7806728831
 20
67.0972782258
 11
101.3182697505
 21
66.8745983122
  0
LINE
  5
218
100
AcDbEntity
  8
DRAFT
100
AcDbLine
 62
7
  6
CONTINUOUS
 10
101.3673409627
 20
67.1653993343
 11
101.0006728831
 21
67.3172782258
  0
LINE
  5
219
100
AcDbEntity
  8
DRAFT
100
AcDbLine
 62
7
  6
CONTINUOUS
 10
101.5673409627
 20
67.3653993343
 11
101.788996149
 21
67.27358675
  0
LINE
  5
21A
100
AcDbEntity
  8
DRAFT
100
AcDbLine
 62
7
  6
CONTINUOUS
 10
100.7806728831
 20
81.5972782258
 11
101.0006728831
 21
81.3772782258
  0
LINE
  5
21B
100
AcDbEntity
  8
RACCORDO
100
AcDbLine
 62
7
  6
CONTINUOUS
 10
100.2406728831
 20
64.9768518047
 11
100.2406728831
 21
147.7177046469
  0
LINE
  5
21C
100
AcDbEntity
  8
DRAFT
100
AcDbLine
 62
7
  6
CONTINUOUS
 10
100.7806728831
 20
82.0972782258
 11
100.7806728831
 21
81.5972782258
  0
LINE
  5
21D
100
AcDbEntity
  8
DRAFT
100
AcDbLine
 62
7
  6
CONTINUOUS
 10
100.7806728831
 20
66.5972782258
 11
100.7806728831
 21
67.0972782258
  0
LINE
  5
21E
100
AcDbEntity
  8
DRAFT
100
AcDbLine
 62
7
  6
CONTINUOUS
 10
100.7806728831
 20
86.5972782258
 11
100.7806728831
 21
87.0972782258
  0
LINE
  5
21F
100
AcDbEntity
  8
DRAFT
100
AcDbLine
 62
7
  6
CONTINUOUS
 10
100.7806728831
 20
96.0972782258
 11
100.7806728831
 21
96.5972782258
  0
LINE
  5
220
100
AcDbEntity
  8
DRAFT
100
AcDbLine
 62
7
  6
CONTINUOUS
 10
100.7806728831
 20
116.0972782258
 11
100.7806728831
 21
116.5972782258
  0
LINE
  5
221
100
AcDbEntity
  8
DRAFT
100
AcDbLine
 62
7
  6
CONTINUOUS
 10
101.0006728831
 20
67.3172782258
 11
101.0006728831
 21
81.3772782258
  0
LINE
  5
222
100
AcDbEntity
  8
DRAFT
100
AcDbLine
 62
7
  6
CONTINUOUS
 10
101.0006728831
 20
82.0972782258
 11
101.0006728831
 21
86.3772782258
  0
LINE
  5
223
100
AcDbEntity
  8
DRAFT
100
AcDbLine
 62
7
  6
CONTINUOUS
 10
101.0006728831
 20
96.8172782258
 11
101.0006728831
 21
115.8772782258
  0
LINE
  5
224
100
AcDbEntity
  8
DRAFT
100
AcDbLine
 62
7
  6
CONTINUOUS
 10
101.3673409627
 20
81.5291571173
 11
101.5673409627
 21
81.3291571173
  0
LINE
  5
225
100
AcDbEntity
  8
DRAFT
100
AcDbLine
 62
7
  6
CONTINUOUS
 10
101.3917863492
 20
81.8504097116
 11
101.8117863492
 21
81.4304097116
  0
LINE
  5
226
100
AcDbEntity
  8
DRAFT
100
AcDbLine
 62
7
  6
CONTINUOUS
 10
111.415036317
 20
72.9490856193
 11
111.515036317
 21
72.8490856193
  0
LINE
  5
227
100
AcDbEntity
  8
DRAFT
100
AcDbLine
 62
7
  6
CONTINUOUS
 10
111.497941561
 20
72.9834260958
 11
111.597941561
 21
72.8834260958
  0
LINE
  5
228
100
AcDbEntity
  8
DRAFT
100
AcDbLine
 62
7
  6
CONTINUOUS
 10
101.0006728831
 20
86.3772782258
 11
100.7806728831
 21
86.5972782258
  0
LINE
  5
229
100
AcDbEntity
  8
DRAFT
100
AcDbLine
 62
7
  6
CONTINUOUS
 10
101.3673409627
 20
86.5291571173
 11
101.1473409627
 21
86.7491571173
  0
LINE
  5
22A
100
AcDbEntity
  8
DRAFT
100
AcDbLine
 62
7
  6
CONTINUOUS
 10
101.1473409627
 20
86.7491571173
 11
101.1473409627
 21
87.0972782258
  0
LINE
  5
22B
100
AcDbEntity
  8
DRAFT
100
AcDbLine
 62
7
  6
CONTINUOUS
 10
101.1473409627
 20
96.0972782258
 11
101.1473409627
 21
96.4453993343
  0
LINE
  5
22C
100
AcDbEntity
  8
DRAFT
100
AcDbLine
 62
7
  6
CONTINUOUS
 10
101.1473409627
 20
116.2491571173
 11
101.1473409627
 21
116.5972782258
  0
LINE
  5
22D
100
AcDbEntity
  8
DRAFT
100
AcDbLine
 62
7
  6
CONTINUOUS
 10
101.3673409627
 20
67.1653993343
 11
101.3673409627
 21
81.5291571173
  0
LINE
  5
22E
100
AcDbEntity
  8
DRAFT
100
AcDbLine
 62
7
  6
CONTINUOUS
 10
101.3673409627
 20
82.0972782258
 11
101.3673409627
 21
86.5291571173
  0
LINE
  5
22F
100
AcDbEntity
  8
DRAFT
100
AcDbLine
 62
7
  6
CONTINUOUS
 10
101.3673409627
 20
96.6653993343
 11
101.3673409627
 21
116.0291571173
  0
LINE
  5
230
100
AcDbEntity
  8
DRAFT
100
AcDbLine
 62
7
  6
CONTINUOUS
 10
101.3917863492
 20
82.0972782258
 11
101.3917863492
 21
81.8504097116
  0
LINE
  5
231
100
AcDbEntity
  8
DRAFT
100
AcDbLine
 62
7
  6
CONTINUOUS
 10
101.5406728831
 20
92.0972782258
 11
101.5406728831
 21
87.0972782258
  0
LINE
  5
232
100
AcDbEntity
  8
DRAFT
100
AcDbLine
 62
7
  6
CONTINUOUS
 10
101.5673409627
 20
81.3291571173
 11
101.5673409627
 21
67.3653993343
  0
LINE
  5
233
100
AcDbEntity
  8
DRAFT
100
AcDbLine
 62
7
  6
CONTINUOUS
 10
101.8117863492
 20
81.4304097116
 11
101.8117863492
 21
67.5151186596
  0
LINE
  5
234
100
AcDbEntity
  8
DRAFT
100
AcDbLine
 62
7
  6
CONTINUOUS
 10
101.9073409627
 20
116.5972782258
 11
101.9073409627
 21
96.0972782258
  0
LINE
  5
235
100
AcDbEntity
  8
DRAFT
100
AcDbLine
 62
7
  6
CONTINUOUS
 10
101.9073409627
 20
87.0972782258
 11
101.9073409627
 21
82.0972782258
  0
LINE
  5
236
100
AcDbEntity
  8
DRAFT
100
AcDbLine
 62
7
  6
CONTINUOUS
 10
102.0406728831
 20
66.0772782258
 11
102.0406728831
 21
66.5972782258
  0
LINE
  5
237
100
AcDbEntity
  8
DRAFT
100
AcDbLine
 62
7
  6
CONTINUOUS
 10
102.0406728831
 20
92.0972782258
 11
102.0406728831
 21
96.0972782258
  0
LINE
  5
238
100
AcDbEntity
  8
DRAFT
100
AcDbLine
 62
7
  6
CONTINUOUS
 10
102.0406728831
 20
116.5972782258
 11
102.0406728831
 21
146.6172782258
  0
LINE
  5
239
100
AcDbEntity
  8
DRAFT
100
AcDbLine
 62
7
  6
CONTINUOUS
 10
102.1517863492
 20
67.5151186596
 11
102.1517863492
 21
82.0972782258
  0
LINE
  5
23A
100
AcDbEntity
  8
DRAFT
100
AcDbLine
 62
7
  6
CONTINUOUS
 10
103.5492501251
 20
67.5858554679
 11
103.5492501251
 21
94.0472782258
  0
LINE
  5
23B
100
AcDbEntity
  8
DRAFT
100
AcDbLine
 62
7
  6
CONTINUOUS
 10
103.5492501251
 20
95.3472782258
 11
103.5492501251
 21
117.3472782258
  0
LINE
  5
23C
100
AcDbEntity
  8
DRAFT
100
AcDbLine
 62
7
  6
CONTINUOUS
 10
103.5492501251
 20
118.6472782258
 11
103.5492501251
 21
145.1087009838
  0
LWPOLYLINE
  5
23D
100
AcDbEntity
  8
DRAFT
100
AcDbPolyline
 62
7
  6
CONTINUOUS
 90
46
 70
0
 10
101.950727934
 20
96.2042306625
 10
101.972352182
 20
96.3171577322
 10
101.9940549747
 20
96.4695981213
 10
102.015711609
 20
96.6616724114
 10
102.0369479756
 20
96.8937423465
 10
102.0577383784
 20
97.1665083453
 10
102.0781085136
 20
97.4792699893
 10
102.0977613608
 20
97.8302877669
 10
102.1167295872
 20
98.221695626
 10
102.1349805256
 20
98.6513596188
 10
102.1521191548
 20
99.1111383899
 10
102.1680627468
 20
99.6001253936
 10
102.1828940297
 20
100.1192271757
 10
102.1964661659
 20
100.6630220184
 10
102.20878475
 20
101.2327792202
 10
102.2198441875
 20
101.8272294826
 10
102.2294808579
 20
102.4371431916
 10
102.2376604753
 20
103.0615038229
 10
102.2444173256
 20
103.7013279008
 10
102.2496906452
 20
104.3504353842
 10
102.2534736707
 20
105.0098607277
 10
102.2557731655
 20
105.6785694768
 10
102.2565486576
 20
106.3472782258
 10
102.2557731655
 20
107.0159869748
 10
102.2534736707
 20
107.6846957239
 10
102.2496906452
 20
108.3441210675
 10
102.2444173256
 20
108.9932285508
 10
102.2376604753
 20
109.6330526287
 10
102.2294808579
 20
110.25741326
 10
102.2198441875
 20
110.867326969
 10
102.20878475
 20
111.4617772314
 10
102.1964661659
 20
112.0315344333
 10
102.1828940297
 20
112.5753292759
 10
102.1680627468
 20
113.094431058
 10
102.1521191548
 20
113.5834180617
 10
102.1349805256
 20
114.0431968328
 10
102.1167295872
 20
114.4728608256
 10
102.0977613608
 20
114.8642686847
 10
102.0781085136
 20
115.2152864623
 10
102.0577383784
 20
115.5280481063
 10
102.0369479756
 20
115.8008141051
 10
102.015711609
 20
116.0328840403
 10
101.9940549747
 20
116.2249583303
 10
101.972352182
 20
116.3773987194
 10
101.950727934
 20
116.4903257891
 10
101.9290575276
 20
116.5636189579
  0
LWPOLYLINE
  5
23E
100
AcDbEntity
  8
RACCORDO
100
AcDbPolyline
 62
7
  6
CONTINUOUS
 90
12
 70
0
 10
110.9066949703
 20
141.149385569
 10
110.9239254896
 20
141.2364581271
 10
110.9529158791
 20
141.3228070259
 10
110.9931394395
 20
141.40512747
 10
111.044009983
 20
141.4818050944
 10
111.1044797977
 20
141.5511296945
 10
111.1733719283
 20
141.6118145689
 10
111.2495901355
 20
141.6629488657
 10
111.331864983
 20
141.7036813958
 10
111.4188017276
 20
141.7333073958
 10
111.5088921506
 20
141.7512993984
 10
111.5944776973
 20
141.7573110587
  0
LINE
  5
23F
100
AcDbEntity
  8
RACCORDO
100
AcDbLine
 62
7
  6
CONTINUOUS
 10
191.6810993042
 20
64.2772782258
 11
100.940246462
 21
64.2772782258
  0
LINE
  5
240
100
AcDbEntity
  8
DRAFT
100
AcDbLine
 62
7
  6
CONTINUOUS
 10
156.5606728831
 20
64.8172782258
 11
156.0606728831
 21
64.8172782258
  0
LINE
  5
241
100
AcDbEntity
  8
DRAFT
100
AcDbLine
 62
7
  6
CONTINUOUS
 10
136.5606728831
 20
64.8172782258
 11
136.0606728831
 21
64.8172782258
  0
LINE
  5
242
100
AcDbEntity
  8
DRAFT
100
AcDbLine
 62
7
  6
CONTINUOUS
 10
155.8406728831
 20
65.0372782258
 11
136.7806728831
 21
65.0372782258
  0
LINE
  5
243
100
AcDbEntity
  8
DRAFT
100
AcDbLine
 62
7
  6
CONTINUOUS
 10
156.5606728831
 20
65.1839463055
 11
156.2125517746
 21
65.1839463055
  0
LINE
  5
244
100
AcDbEntity
  8
DRAFT
100
AcDbLine
 62
7
  6
CONTINUOUS
 10
136.4087939916
 20
65.1839463055
 11
136.0606728831
 21
65.1839463055
  0
LINE
  5
245
100
AcDbEntity
  8
RACCORDO
100
AcDbLine
 62
250
  6
CONTINUOUS
 10
110.9066949703
 20
71.5451708826
 11
110.90061293
 21
71.6371916189
  0
LINE
  5
246
100
AcDbEntity
  8
RACCORDO
100
AcDbLine
 62
250
  6
CONTINUOUS
 10
110.90061293
 20
141.0573648327
 11
110.9066949703
 21
141.149385569
  0
LINE
  5
247
100
AcDbEntity
  8
DRAFT
100
AcDbLine
 62
7
  6
CONTINUOUS
 10
155.9925517746
 20
65.4039463055
 11
136.6287939916
 21
65.4039463055
  0
LINE
  5
248
100
AcDbEntity
  8
DRAFT
100
AcDbLine
 62
7
  6
CONTINUOUS
 10
156.5606728831
 20
65.9439463055
 11
136.0606728831
 21
65.9439463055
  0
LINE
  5
249
100
AcDbEntity
  8
DRAFT
100
AcDbLine
 62
7
  6
CONTINUOUS
 10
190.5806728831
 20
66.0772782258
 11
156.5606728831
 21
66.0772782258
  0
LINE
  5
24A
100
AcDbEntity
  8
DRAFT
100
AcDbLine
 62
7
  6
CONTINUOUS
 10
136.0606728831
 20
66.0772782258
 11
102.0406728831
 21
66.0772782258
  0
LINE
  5
24B
100
AcDbEntity
  8
DRAFT
100
AcDbLine
 62
7
  6
CONTINUOUS
 10
191.8406728831
 20
66.5972782258
 11
190.135433072
 21
66.5972782258
  0
LINE
  5
24C
100
AcDbEntity
  8
DRAFT
100
AcDbLine
 62
7
  6
CONTINUOUS
 10
102.4859126941
 20
66.5972782258
 11
100.7806728831
 21
66.5972782258
  0
LINE
  5
24D
100
AcDbEntity
  8
DRAFT
100
AcDbLine
 62
7
  6
CONTINUOUS
 10
190.809559417
 20
67.5151186596
 11
190.469559417
 21
67.5151186596
  0
LINE
  5
24E
100
AcDbEntity
  8
DRAFT
100
AcDbLine
 62
7
  6
CONTINUOUS
 10
102.1517863492
 20
67.5151186596
 11
101.8117863492
 21
67.5151186596
  0
LINE
  5
24F
100
AcDbEntity
  8
DRAFT
100
AcDbLine
 62
7
  6
CONTINUOUS
 10
189.072095641
 20
67.5858554679
 11
158.1106728831
 21
67.5858554679
  0
LINE
  5
250
100
AcDbEntity
  8
DRAFT
100
AcDbLine
 62
7
  6
CONTINUOUS
 10
156.8106728831
 20
67.5858554679
 11
135.8106728831
 21
67.5858554679
  0
LINE
  5
251
100
AcDbEntity
  8
DRAFT
100
AcDbLine
 62
7
  6
CONTINUOUS
 10
134.5106728831
 20
67.5858554679
 11
103.5492501251
 21
67.5858554679
  0
LWPOLYLINE
  5
252
100
AcDbEntity
  8
RACCORDO
100
AcDbPolyline
 62
7
  6
CONTINUOUS
 90
12
 70
0
 10
111.6005862762
 20
70.9372182728
 10
111.5088921506
 20
70.9432570532
 10
111.4188017276
 20
70.9612490558
 10
111.331864983
 20
70.9908750558
 10
111.2495901355
 20
71.0316075859
 10
111.1733719283
 20
71.0827418827
 10
111.1044797977
 20
71.1434267571
 10
111.044009983
 20
71.2127513572
 10
110.9931394395
 20
71.2894289816
 10
110.9529158791
 20
71.3717494258
 10
110.9239254896
 20
71.4580983245
 10
110.9066949703
 20
71.5451708826
  0
LWPOLYLINE
  5
253
100
AcDbEntity
  8
DRAFT
100
AcDbPolyline
 62
7
  6
CONTINUOUS
 90
46
 70
0
 10
156.4537204463
 20
65.9873332767
 10
156.3407933767
 20
66.0089575247
 10
156.1883529875
 20
66.0306603174
 10
155.9962786975
 20
66.0523169517
 10
155.7642087624
 20
66.0735533184
 10
155.4914427635
 20
66.0943437211
 10
155.1786811196
 20
66.1147138563
 10
154.827663342
 20
66.1343667036
 10
154.4362554828
 20
66.1533349299
 10
154.0065914901
 20
66.1715858683
 10
153.546812719
 20
66.1887244976
 10
153.0578257152
 20
66.2046680896
 10
152.5387239331
 20
66.2194993724
 10
151.9949290905
 20
66.2330715086
 10
151.4251718886
 20
66.2453900927
 10
150.8307216263
 20
66.2564495303
 10
150.2208079173
 20
66.2660862006
 10
149.596447286
 20
66.2742658181
 10
148.9566232081
 20
66.2810226683
 10
148.3075157247
 20
66.286295988
 10
147.6480903811
 20
66.2900790134
 10
146.9793816321
 20
66.2923785083
 10
146.3106728831
 20
66.2931540004
 10
145.641964134
 20
66.2923785083
 10
144.973255385
 20
66.2900790134
 10
144.3138300414
 20
66.286295988
 10
143.6647225581
 20
66.2810226683
 10
143.0248984802
 20
66.2742658181
 10
142.4005378489
 20
66.2660862006
 10
141.7906241399
 20
66.2564495303
 10
141.1961738775
 20
66.2453900927
 10
140.6264166756
 20
66.2330715086
 10
140.082621833
 20
66.2194993724
 10
139.5635200509
 20
66.2046680896
 10
139.0745330472
 20
66.1887244976
 10
138.614754276
 20
66.1715858683
 10
138.1850902833
 20
66.1533349299
 10
137.7936824242
 20
66.1343667036
 10
137.4426646466
 20
66.1147138563
 10
137.1299030026
 20
66.0943437211
 10
136.8571370038
 20
66.0735533184
 10
136.6250670686
 20
66.0523169517
 10
136.4329927786
 20
66.0306603174
 10
136.2805523895
 20
66.0089575247
 10
136.1676253198
 20
65.9873332767
 10
136.094332151
 20
65.9656628703
  0
LINE
  5
254
100
AcDbEntity
  8
RACCORDO
100
AcDbLine
 62
7
  6
CONTINUOUS
 10
110.538394608
 20
141.4195831547
 11
110.538394608
 21
118.6472782258
  0
LINE
  5
255
100
AcDbEntity
  8
RACCORDO
100
AcDbLine
 62
7
  6
CONTINUOUS
 10
110.538394608
 20
94.0472782258
 11
110.538394608
 21
71.2749732969
  0
LINE
  5
256
100
AcDbEntity
  8
DRAFT
100
AcDbLine
 62
7
  6
CONTINUOUS
 10
110.815036317
 20
92.8472782258
 11
110.815036317
 21
72.3472782258
  0
LINE
  5
257
100
AcDbEntity
  8
RACCORDO
100
AcDbLine
 62
7
  6
CONTINUOUS
 10
110.90061293
 20
71.6371916189
 11
110.90061293
 21
72.3472782258
  0
LINE
  5
258
100
AcDbEntity
  8
RACCORDO
100
AcDbLine
 62
7
  6
CONTINUOUS
 10
110.90061293
 20
92.8472782258
 11
110.90061293
 21
94.2283839387
  0
LINE
  5
259
100
AcDbEntity
  8
RACCORDO
100
AcDbLine
 62
7
  6
CONTINUOUS
 10
110.90061293
 20
118.4661725129
 11
110.90061293
 21
141.0573648327
  0
LINE
  5
25A
100
AcDbEntity
  8
DRAFT
100
AcDbLine
 62
7
  6
CONTINUOUS
 10
111.415036317
 20
92.0459570843
 11
111.415036317
 21
72.9490856193
  0
LINE
  5
25B
100
AcDbEntity
  8
DRAFT
100
AcDbLine
 62
7
  6
CONTINUOUS
 10
111.497941561
 20
92.0208553962
 11
111.497941561
 21
72.9834260958
  0
LINE
  5
25C
100
AcDbEntity
  8
DRAFT
100
AcDbLine
 62
7
  6
CONTINUOUS
 10
111.515036317
 20
72.8490856193
 11
111.515036317
 21
72.3472782258
  0
LINE
  5
25D
100
AcDbEntity
  8
DRAFT
100
AcDbLine
 62
7
  6
CONTINUOUS
 10
111.597941561
 20
72.8834260958
 11
111.597941561
 21
72.3472782258
  0
LINE
  5
25E
100
AcDbEntity
  8
RACCORDO
100
AcDbLine
 62
250
  6
CONTINUOUS
 10
111.6005862762
 20
141.7573381788
 11
111.6005862762
 21
118.2283639484
  0
LINE
  5
25F
100
AcDbEntity
  8
RACCORDO
100
AcDbLine
 62
250
  6
CONTINUOUS
 10
111.6005862762
 20
94.4661925032
 11
111.6005862762
 21
92.8472782258
  0
LINE
  5
260
100
AcDbEntity
  8
RACCORDO
100
AcDbLine
 62
250
  6
CONTINUOUS
 10
111.6005862762
 20
70.9372182728
 11
111.6005862762
 21
72.3472782258
  0
LINE
  5
261
100
AcDbEntity
  8
DRAFT
100
AcDbLine
 62
7
  6
CONTINUOUS
 10
112.9066684288
 20
72.3472782258
 11
112.9066684288
 21
92.8472782258
  0
LINE
  5
262
100
AcDbEntity
  8
RACCORDO
100
AcDbLine
 62
7
  6
CONTINUOUS
 10
111.3695005536
 20
117.9972782258
 11
111.6005862762
 21
118.2283639484
  0
LWPOLYLINE
  5
263
100
AcDbEntity
  8
RACCORDO
100
AcDbPolyline
 62
250
  6
CONTINUOUS
 90
13
 70
0
 10
144.1606728831
 20
70.7844980864
 10
144.2520412176
 20
70.7904864554
 10
144.3418462146
 20
70.8083490998
 10
144.4285512857
 20
70.8377803848
 10
144.5106728831
 20
70.8782767328
 10
144.5868058834
 20
70.9291452403
 10
144.6556476299
 20
70.9895155329
 10
144.7160202213
 20
71.0583546581
 10
144.7668906657
 20
71.1344847595
 10
144.8073885558
 20
71.2166032299
 10
144.8368209615
 20
71.3033049995
 10
144.854684286
 20
71.3931065771
 10
144.8606728831
 20
71.4844714326
  0
LINE
  5
264
100
AcDbEntity
  8
RACCORDO
100
AcDbLine
 62
250
  6
CONTINUOUS
 10
181.0268680689
 20
70.9372453929
 11
181.0207594899
 21
70.9372182728
  0
LINE
  5
265
100
AcDbEntity
  8
RACCORDO
100
AcDbLine
 62
7
  6
CONTINUOUS
 10
111.2383679541
 20
70.5749999507
 11
134.5106728831
 21
70.5749999507
  0
LINE
  5
266
100
AcDbEntity
  8
RACCORDO
100
AcDbLine
 62
7
  6
CONTINUOUS
 10
135.8106728831
 20
70.5749999507
 11
144.1606728831
 21
70.5749999507
  0
LINE
  5
267
100
AcDbEntity
  8
RACCORDO
100
AcDbLine
 62
7
  6
CONTINUOUS
 10
148.4606728831
 20
70.5749999507
 11
156.8106728831
 21
70.5749999507
  0
LINE
  5
268
100
AcDbEntity
  8
RACCORDO
100
AcDbLine
 62
7
  6
CONTINUOUS
 10
158.1106728831
 20
70.5749999507
 11
181.382977812
 21
70.5749999507
  0
LINE
  5
269
100
AcDbEntity
  8
RACCORDO
100
AcDbLine
 62
7
  6
CONTINUOUS
 10
156.9154199566
 20
70.7844980864
 11
148.4606728831
 21
70.7844980864
  0
LINE
  5
26A
100
AcDbEntity
  8
RACCORDO
100
AcDbLine
 62
7
  6
CONTINUOUS
 10
144.1606728831
 20
70.7844980864
 11
135.7059258095
 21
70.7844980864
  0
LINE
  5
26B
100
AcDbEntity
  8
RACCORDO
100
AcDbLine
 62
7
  6
CONTINUOUS
 10
181.0207594899
 20
70.9372182728
 11
157.9295671702
 21
70.9372182728
  0
LINE
  5
26C
100
AcDbEntity
  8
RACCORDO
100
AcDbLine
 62
7
  6
CONTINUOUS
 10
134.691778596
 20
70.9372182728
 11
111.6005862762
 21
70.9372182728
  0
LINE
  5
26D
100
AcDbEntity
  8
RACCORDO
100
AcDbLine
 62
250
  6
CONTINUOUS
 10
156.9184476483
 20
71.4844714326
 11
147.7606728831
 21
71.4844714326
  0
LINE
  5
26E
100
AcDbEntity
  8
RACCORDO
100
AcDbLine
 62
250
  6
CONTINUOUS
 10
135.7028981178
 20
71.4844714326
 11
144.8606728831
 21
71.4844714326
  0
LINE
  5
26F
100
AcDbEntity
  8
RACCORDO
100
AcDbLine
 62
250
  6
CONTINUOUS
 10
110.90061293
 20
71.6371916189
 11
134.9295871604
 21
71.6371916189
  0
LINE
  5
270
100
AcDbEntity
  8
RACCORDO
100
AcDbLine
 62
250
  6
CONTINUOUS
 10
157.6917586057
 20
71.6371916189
 11
181.7207328361
 21
71.6371916189
  0
LINE
  5
271
100
AcDbEntity
  8
RACCORDO
100
AcDbLine
 62
7
  6
CONTINUOUS
 10
110.815036317
 20
72.3472782258
 11
112.9066684288
 21
72.3472782258
  0
LINE
  5
272
100
AcDbEntity
  8
RACCORDO
100
AcDbLine
 62
7
  6
CONTINUOUS
 10
179.7146773374
 20
72.3472782258
 11
181.8063094492
 21
72.3472782258
  0
LWPOLYLINE
  5
273
100
AcDbEntity
  8
RACCORDO
100
AcDbPolyline
 62
7
  6
CONTINUOUS
 90
19
 70
0
 10
148.4606728831
 20
70.7844980864
 10
148.4107749226
 20
70.7867187975
 10
148.3601624142
 20
70.7926322659
 10
148.3091261015
 20
70.8024213864
 10
148.2579952495
 20
70.8162486763
 10
148.2071075937
 20
70.8342500547
 10
148.1568106123
 20
70.8565381016
 10
148.1076029949
 20
70.8831398238
 10
148.0598065586
 20
70.9141414654
 10
148.0135886641
 20
70.9497695422
 10
147.969542897
 20
70.9899857566
 10
147.9281413804
 20
71.0348151214
 10
147.8895807835
 20
71.0846818972
 10
147.8546971865
 20
71.1393535576
 10
147.8241309035
 20
71.198813707
 10
147.7982696864
 20
71.2639377459
 10
147.7781830567
 20
71.3348313031
 10
147.7652481471
 20
71.4106232281
 10
147.7606728831
 20
71.49058024
  0
LINE
  5
274
100
AcDbEntity
  8
RACCORDO
100
AcDbLine
 62
7
  6
CONTINUOUS
 10
111.3695005536
 20
94.6972782258
 11
111.6005862762
 21
94.4661925032
  0
LINE
  5
275
100
AcDbEntity
  8
DRAFT
100
AcDbLine
 62
7
  6
CONTINUOUS
 10
111.5184097894
 20
92.8308429285
 11
111.615306041
 21
92.3463616705
  0
LINE
  5
276
100
AcDbEntity
  8
DRAFT
100
AcDbLine
 62
7
  6
CONTINUOUS
 10
111.5996698214
 20
92.8472782258
 11
111.7033360428
 21
92.3289471189
  0
LINE
  5
277
100
AcDbEntity
  8
DRAFT
100
AcDbLine
 62
7
  6
CONTINUOUS
 10
117.7539482424
 20
117.4550529911
 11
117.7539482424
 21
109.0418137638
  0
LINE
  5
278
100
AcDbEntity
  8
DRAFT
100
AcDbLine
 62
7
  6
CONTINUOUS
 10
117.7539482424
 20
103.6527426878
 11
117.7539482424
 21
95.2395034605
  0
LWPOLYLINE
  5
279
100
AcDbEntity
  8
DRAFT
100
AcDbPolyline
 62
7
  6
CONTINUOUS
 90
3
 70
0
 10
101.9073409627
 20
96.0972782258
 10
101.9290575276
 20
96.1309374937
 10
101.950727934
 20
96.2042306625
  0
LINE
  5
27A
100
AcDbEntity
  8
RACCORDO
100
AcDbLine
 62
7
  6
CONTINUOUS
 10
135.1606728831
 20
141.2884505553
 11
134.9295871604
 21
141.0573648327
  0
LINE
  5
27B
100
AcDbEntity
  8
RACCORDO
100
AcDbLine
 62
7
  6
CONTINUOUS
 10
135.7028981178
 20
134.8930932233
 11
135.629580497
 21
134.8491028295
  0
LINE
  5
27C
100
AcDbEntity
  8
DRAFT
100
AcDbLine
 62
7
  6
CONTINUOUS
 10
146.3106728831
 20
139.7105243126
 11
144.8606728831
 21
138.8733664223
  0
LINE
  5
27D
100
AcDbEntity
  8
DRAFT
100
AcDbLine
 62
7
  6
CONTINUOUS
 10
146.3106728831
 20
139.5472782258
 11
144.8606728831
 21
138.7101203355
  0
LINE
  5
27E
100
AcDbEntity
  8
RACCORDO
100
AcDbLine
 62
250
  6
CONTINUOUS
 10
144.1606728831
 20
76.3472782258
 11
144.8606728831
 21
76.3472782234
  0
LINE
  5
27F
100
AcDbEntity
  8
DRAFT
100
AcDbLine
 62
7
  6
CONTINUOUS
 10
144.8606728831
 20
73.8211900294
 11
146.3106728831
 21
72.984032139
  0
LINE
  5
280
100
AcDbEntity
  8
DRAFT
100
AcDbLine
 62
7
  6
CONTINUOUS
 10
144.8606728831
 20
73.9844361161
 11
146.3106728831
 21
73.1472782258
  0
LINE
  5
281
100
AcDbEntity
  8
RACCORDO
100
AcDbLine
 62
7
  6
CONTINUOUS
 10
135.7028981178
 20
77.8014632283
 11
135.6295858278
 21
77.8454504236
  0
LINE
  5
282
100
AcDbEntity
  8
RACCORDO
100
AcDbLine
 62
7
  6
CONTINUOUS
 10
134.9295871604
 20
71.6371916189
 11
135.1606728831
 21
71.4061058963
  0
LINE
  5
283
100
AcDbEntity
  8
DRAFT
100
AcDbLine
 62
7
  6
CONTINUOUS
 10
117.815036317
 20
116.5972782258
 11
117.815036317
 21
95.7972782258
  0
LINE
  5
284
100
AcDbEntity
  8
RACCORDO
100
AcDbLine
 62
7
  6
CONTINUOUS
 10
117.90061293
 20
95.1661725129
 11
117.90061293
 21
95.7972782258
  0
LINE
  5
285
100
AcDbEntity
  8
RACCORDO
100
AcDbLine
 62
7
  6
CONTINUOUS
 10
117.90061293
 20
116.5972782258
 11
117.90061293
 21
117.5283839387
  0
LINE
  5
286
100
AcDbEntity
  8
DRAFT
100
AcDbLine
 62
7
  6
CONTINUOUS
 10
118.215036317
 20
115.7923673074
 11
118.215036317
 21
96.5990751384
  0
LINE
  5
287
100
AcDbEntity
  8
DRAFT
100
AcDbLine
 62
7
  6
CONTINUOUS
 10
118.297941561
 20
115.7582300826
 11
118.297941561
 21
96.6332164767
  0
LINE
  5
288
100
AcDbEntity
  8
DRAFT
100
AcDbLine
 62
7
  6
CONTINUOUS
 10
118.515036317
 20
116.5972782258
 11
118.515036317
 21
116.0948911682
  0
LINE
  5
289
100
AcDbEntity
  8
DRAFT
100
AcDbLine
 62
7
  6
CONTINUOUS
 10
118.515036317
 20
96.2966026109
 11
118.515036317
 21
95.7972782258
  0
LINE
  5
28A
100
AcDbEntity
  8
DRAFT
100
AcDbLine
 62
7
  6
CONTINUOUS
 10
118.597941561
 20
116.5972782258
 11
118.597941561
 21
116.0607539434
  0
LINE
  5
28B
100
AcDbEntity
  8
DRAFT
100
AcDbLine
 62
7
  6
CONTINUOUS
 10
118.597941561
 20
96.3307439492
 11
118.597941561
 21
95.7972782258
  0
LINE
  5
28C
100
AcDbEntity
  8
RACCORDO
100
AcDbLine
 62
250
  6
CONTINUOUS
 10
118.6005862762
 20
118.2283639484
 11
118.6005862762
 21
116.5972782258
  0
LINE
  5
28D
100
AcDbEntity
  8
RACCORDO
100
AcDbLine
 62
250
  6
CONTINUOUS
 10
118.6005862762
 20
95.7972782258
 11
118.6005862762
 21
94.4661925032
  0
LINE
  5
28E
100
AcDbEntity
  8
DRAFT
100
AcDbLine
 62
7
  6
CONTINUOUS
 10
119.9066684288
 20
95.7972782258
 11
119.9066684288
 21
116.5972782258
  0
LINE
  5
28F
100
AcDbEntity
  8
ASSI
100
AcDbLine
 62
7
  6
CONTINUOUS
 10
120.2106728831
 20
129.1472782258
 11
120.2106728831
 21
131.5472782258
  0
LINE
  5
290
100
AcDbEntity
  8
DRAFT
100
AcDbLine
 62
7
  6
CONTINUOUS
 10
136.4087939916
 20
147.5106101461
 11
136.5606728831
 21
147.8772782258
  0
LINE
  5
291
100
AcDbEntity
  8
DRAFT
100
AcDbLine
 62
7
  6
CONTINUOUS
 10
136.6287939916
 20
147.2906101461
 11
136.7806728831
 21
147.6572782258
  0
LINE
  5
292
100
AcDbEntity
  8
DRAFT
100
AcDbLine
 62
7
  6
CONTINUOUS
 10
135.7028981178
 20
141.9040028664
 11
135.8106728831
 21
142.1195565009
  0
LWPOLYLINE
  5
293
100
AcDbEntity
  8
RACCORDO
100
AcDbPolyline
 62
7
  6
CONTINUOUS
 90
6
 70
0
 10
135.629580497
 20
134.8491017633
 10
135.62478567
 20
134.8424670139
 10
135.6118266723
 20
134.8298779644
 10
135.5918133485
 20
134.8113346149
 10
135.5659927332
 20
134.7860526741
 10
135.5353780556
 20
134.7548164333
  0
LINE
  5
294
100
AcDbEntity
  8
RACCORDO
100
AcDbLine
 62
7
  6
CONTINUOUS
 10
134.9796763245
 20
134.1997288159
 11
134.9295871604
 21
134.1491084268
  0
LINE
  5
295
100
AcDbEntity
  8
DRAFT
100
AcDbLine
 62
7
  6
CONTINUOUS
 10
136.6967162526
 20
134.4747672243
 11
136.3992190576
 21
134.1747672243
  0
LINE
  5
296
100
AcDbEntity
  8
DRAFT
100
AcDbLine
 62
7
  6
CONTINUOUS
 10
136.7070792375
 20
134.4498962257
 11
136.4095820425
 21
134.1498962257
  0
LINE
  5
297
100
AcDbEntity
  8
DRAFT
100
AcDbLine
 62
7
  6
CONTINUOUS
 10
118.515036317
 20
116.0948911682
 11
118.215036317
 21
115.7923673074
  0
LINE
  5
298
100
AcDbEntity
  8
DRAFT
100
AcDbLine
 62
7
  6
CONTINUOUS
 10
118.597941561
 20
116.0607539434
 11
118.297941561
 21
115.7582300826
  0
LWPOLYLINE
  5
299
100
AcDbEntity
  8
RACCORDO
100
AcDbPolyline
 62
7
  6
CONTINUOUS
 90
3
 70
0
 10
118.200160326
 20
117.8281730175
 10
118.1105370627
 20
117.7382448996
 10
118.068823828
 20
117.6969620284
  0
LWPOLYLINE
  5
29A
100
AcDbEntity
  8
RACCORDO
100
AcDbPolyline
 62
7
  6
CONTINUOUS
 90
7
 70
0
 10
118.068823828
 20
117.6969620284
 10
117.9958290023
 20
117.6235628244
 10
117.9645474114
 20
117.5929167621
 10
117.9391059964
 20
117.5668836687
 10
117.9202623011
 20
117.5465413303
 10
117.9072587818
 20
117.5332935237
 10
117.9000954385
 20
117.5283706119
  0
LINE
  5
29B
100
AcDbEntity
  8
DRAFT
100
AcDbLine
 62
7
  6
CONTINUOUS
 10
100.7806728831
 20
96.5972782258
 11
101.0006728831
 21
96.8172782258
  0
LINE
  5
29C
100
AcDbEntity
  8
DRAFT
100
AcDbLine
 62
7
  6
CONTINUOUS
 10
101.1473409627
 20
96.4453993343
 11
101.3673409627
 21
96.6653993343
  0
LINE
  5
29D
100
AcDbEntity
  8
RACCORDO
100
AcDbLine
 62
7
  6
CONTINUOUS
 10
118.5500580988
 20
118.1783631596
 11
118.2480703546
 21
117.8757693072
  0
LINE
  5
29E
100
AcDbEntity
  8
RACCORDO
100
AcDbLine
 62
7
  6
CONTINUOUS
 10
118.2480703546
 20
117.8757693072
 11
118.200160326
 21
117.8281730175
  0
LINE
  5
29F
100
AcDbEntity
  8
RACCORDO
100
AcDbLine
 62
7
  6
CONTINUOUS
 10
135.4206337376
 20
134.6400846089
 11
134.9796763245
 21
134.1997288159
  0
LWPOLYLINE
  5
2A0
100
AcDbEntity
  8
RACCORDO
100
AcDbPolyline
 62
7
  6
CONTINUOUS
 90
3
 70
0
 10
135.5353780556
 20
134.7548164333
 10
135.4619474975
 20
134.6818324007
 10
135.4206337376
 20
134.6400846089
  0
LINE
  5
2A1
100
AcDbEntity
  8
RACCORDO
100
AcDbLine
 62
7
  6
CONTINUOUS
 10
118.6005862762
 20
118.2283639484
 11
118.5500580988
 21
118.1783631596
  0
LINE
  5
2A2
100
AcDbEntity
  8
DRAFT
100
AcDbLine
 62
7
  6
CONTINUOUS
 10
101.1473409627
 20
116.2491571173
 11
100.7806728831
 21
116.0972782258
  0
LINE
  5
2A3
100
AcDbEntity
  8
DRAFT
100
AcDbLine
 62
7
  6
CONTINUOUS
 10
101.3673409627
 20
116.0291571173
 11
101.0006728831
 21
115.8772782258
  0
LINE
  5
2A4
100
AcDbEntity
  8
RACCORDO
100
AcDbLine
 62
7
  6
CONTINUOUS
 10
146.3106728831
 20
77.7972782258
 11
156.9184476483
 21
77.8014632283
  0
LINE
  5
2A5
100
AcDbEntity
  8
DRAFT
100
AcDbLine
 62
7
  6
CONTINUOUS
 10
135.9106728831
 20
77.8197892273
 11
156.7106728831
 21
77.8197892273
  0
LINE
  5
2A6
100
AcDbEntity
  8
RACCORDO
100
AcDbLine
 62
7
  6
CONTINUOUS
 10
156.9917599384
 20
77.8454504236
 11
156.7106728831
 21
77.8454504236
  0
LINE
  5
2A7
100
AcDbEntity
  8
RACCORDO
100
AcDbLine
 62
7
  6
CONTINUOUS
 10
135.9106728831
 20
77.8454504236
 11
135.6295858278
 21
77.8454504236
  0
LINE
  5
2A8
100
AcDbEntity
  8
DRAFT
100
AcDbLine
 62
7
  6
CONTINUOUS
 10
136.7354848598
 20
77.9197892273
 11
155.7720591991
 21
77.9197892273
  0
LINE
  5
2A9
100
AcDbEntity
  8
DRAFT
100
AcDbLine
 62
7
  6
CONTINUOUS
 10
136.7108171663
 20
77.9446602259
 11
155.7617572941
 21
77.9446602259
  0
LINE
  5
2AA
100
AcDbEntity
  8
DRAFT
100
AcDbLine
 62
7
  6
CONTINUOUS
 10
135.9106728831
 20
78.2197892273
 11
136.4132694824
 21
78.2197892273
  0
LINE
  5
2AB
100
AcDbEntity
  8
DRAFT
100
AcDbLine
 62
7
  6
CONTINUOUS
 10
156.0720591991
 20
78.2197892273
 11
156.7106728831
 21
78.2197892273
  0
LINE
  5
2AC
100
AcDbEntity
  8
DRAFT
100
AcDbLine
 62
7
  6
CONTINUOUS
 10
135.9106728831
 20
78.2446602259
 11
136.4132694824
 21
78.2446602259
  0
LINE
  5
2AD
100
AcDbEntity
  8
DRAFT
100
AcDbLine
 62
7
  6
CONTINUOUS
 10
156.0617572941
 20
78.2446602259
 11
156.7106728831
 21
78.2446602259
  0
LINE
  5
2AE
100
AcDbEntity
  8
RACCORDO
100
AcDbLine
 62
250
  6
CONTINUOUS
 10
134.9295871604
 20
78.5454480248
 11
135.9106728831
 21
78.5454480248
  0
LINE
  5
2AF
100
AcDbEntity
  8
RACCORDO
100
AcDbLine
 62
250
  6
CONTINUOUS
 10
156.7106728831
 20
78.5454480248
 11
157.6917586057
 21
78.5454480248
  0
LINE
  5
2B0
100
AcDbEntity
  8
DRAFT
100
AcDbLine
 62
7
  6
CONTINUOUS
 10
156.7106728831
 20
79.8472782258
 11
135.9106728831
 21
79.8472782258
  0
LINE
  5
2B1
100
AcDbEntity
  8
ASSI
100
AcDbLine
 62
7
  6
CONTINUOUS
 10
171.5106728831
 20
80.2472782258
 11
169.1106728831
 21
80.2472782258
  0
LINE
  5
2B2
100
AcDbEntity
  8
ASSI
100
AcDbLine
 62
7
  6
CONTINUOUS
 10
123.5106728831
 20
80.2472782258
 11
121.1106728831
 21
80.2472782258
  0
LINE
  5
2B3
100
AcDbEntity
  8
RACCORDO
100
AcDbLine
 62
7
  6
CONTINUOUS
 10
135.7028981178
 20
77.8014632283
 11
144.960544034
 21
77.8014111291
  0
LINE
  5
2B4
100
AcDbEntity
  8
RACCORDO
100
AcDbLine
 62
7
  6
CONTINUOUS
 10
144.960544034
 20
77.8014111291
 11
146.3106728831
 21
77.7996306284
  0
LINE
  5
2B5
100
AcDbEntity
  8
DRAFT
100
AcDbLine
 62
7
  6
CONTINUOUS
 10
101.1473409627
 20
96.4453993343
 11
100.7806728831
 21
96.5972782258
  0
LINE
  5
2B6
100
AcDbEntity
  8
DRAFT
100
AcDbLine
 62
7
  6
CONTINUOUS
 10
101.3673409627
 20
96.6653993343
 11
101.0006728831
 21
96.8172782258
  0
LWPOLYLINE
  5
2B7
100
AcDbEntity
  8
DRAFT
100
AcDbPolyline
 62
7
  6
CONTINUOUS
 90
3
 70
0
 10
156.5606728831
 20
65.9439463055
 10
156.5270136151
 20
65.9656628703
 10
156.4537204463
 20
65.9873332767
  0
LWPOLYLINE
  5
2B8
100
AcDbEntity
  8
RACCORDO
100
AcDbPolyline
 62
7
  6
CONTINUOUS
 90
6
 70
0
 10
117.9000954385
 20
95.1661858397
 10
117.9072587818
 20
95.1612629279
 10
117.9202623011
 20
95.1480151213
 10
117.9391059964
 20
95.1276727829
 10
117.9645474114
 20
95.1016396895
 10
117.9958290023
 20
95.0709936272
  0
LINE
  5
2B9
100
AcDbEntity
  8
RACCORDO
100
AcDbLine
 62
7
  6
CONTINUOUS
 10
118.5500580988
 20
94.516193292
 11
118.6005862762
 21
94.4661925032
  0
LWPOLYLINE
  5
2BA
100
AcDbEntity
  8
RACCORDO
100
AcDbPolyline
 62
7
  6
CONTINUOUS
 90
7
 70
0
 10
135.4621050884
 20
78.012564749
 10
135.5355276674
 20
77.9396002584
 10
135.5661380714
 20
77.9083728755
 10
135.5919267667
 20
77.8831084185
 10
135.611889935
 20
77.8645938937
 10
135.6248050757
 20
77.8520422949
 10
135.629580497
 20
77.8454536221
  0
LWPOLYLINE
  5
2BB
100
AcDbEntity
  8
RACCORDO
100
AcDbPolyline
 62
7
  6
CONTINUOUS
 90
3
 70
0
 10
135.3307641796
 20
78.1440336031
 10
135.4208028005
 20
78.0543018566
 10
135.4621050884
 20
78.012564749
  0
LINE
  5
2BC
100
AcDbEntity
  8
DRAFT
100
AcDbLine
 62
7
  6
CONTINUOUS
 10
101.0006728831
 20
115.8772782258
 11
100.7806728831
 21
116.0972782258
  0
LINE
  5
2BD
100
AcDbEntity
  8
DRAFT
100
AcDbLine
 62
7
  6
CONTINUOUS
 10
101.3673409627
 20
116.0291571173
 11
101.1473409627
 21
116.2491571173
  0
LINE
  5
2BE
100
AcDbEntity
  8
RACCORDO
100
AcDbLine
 62
7
  6
CONTINUOUS
 10
134.9797324109
 20
78.4947709798
 11
135.2830859208
 21
78.1920282421
  0
LINE
  5
2BF
100
AcDbEntity
  8
RACCORDO
100
AcDbLine
 62
7
  6
CONTINUOUS
 10
135.2830859208
 20
78.1920282421
 11
135.3307641796
 21
78.1440336031
  0
LINE
  5
2C0
100
AcDbEntity
  8
DRAFT
100
AcDbLine
 62
7
  6
CONTINUOUS
 10
136.4132694824
 20
78.2446602259
 11
136.7354848598
 21
77.9197892273
  0
LINE
  5
2C1
100
AcDbEntity
  8
DRAFT
100
AcDbLine
 62
7
  6
CONTINUOUS
 10
118.215036317
 20
96.5990751384
 11
118.515036317
 21
96.2966026109
  0
LINE
  5
2C2
100
AcDbEntity
  8
DRAFT
100
AcDbLine
 62
7
  6
CONTINUOUS
 10
118.297941561
 20
96.6332164767
 11
118.597941561
 21
96.3307439492
  0
LINE
  5
2C3
100
AcDbEntity
  8
RACCORDO
100
AcDbLine
 62
7
  6
CONTINUOUS
 10
118.1105370627
 20
94.956311552
 11
118.5500580988
 21
94.516193292
  0
LWPOLYLINE
  5
2C4
100
AcDbEntity
  8
RACCORDO
100
AcDbPolyline
 62
7
  6
CONTINUOUS
 90
3
 70
0
 10
117.9958290023
 20
95.0709936272
 10
118.068823828
 20
94.9975944232
 10
118.1105370627
 20
94.956311552
  0
LINE
  5
2C5
100
AcDbEntity
  8
RACCORDO
100
AcDbLine
 62
7
  6
CONTINUOUS
 10
134.9295871604
 20
78.5454480248
 11
134.9797324109
 21
78.4947709798
  0
LINE
  5
2C6
100
AcDbEntity
  8
RACCORDO
100
AcDbLine
 62
7
  6
CONTINUOUS
 10
135.7059258095
 20
70.7844980864
 11
135.8106728831
 21
70.5749999507
  0
LINE
  5
2C7
100
AcDbEntity
  8
DRAFT
100
AcDbLine
 62
7
  6
CONTINUOUS
 10
136.4087939916
 20
65.1839463055
 11
136.5606728831
 21
64.8172782258
  0
LINE
  5
2C8
100
AcDbEntity
  8
DRAFT
100
AcDbLine
 62
7
  6
CONTINUOUS
 10
136.6287939916
 20
65.4039463055
 11
136.7806728831
 21
65.0372782258
  0
LINE
  5
2C9
100
AcDbEntity
  8
ASSI
100
AcDbLine
 62
7
  6
CONTINUOUS
 10
124.4106728831
 20
131.5472782258
 11
124.4106728831
 21
129.1472782258
  0
LINE
  5
2CA
100
AcDbEntity
  8
DRAFT
100
AcDbLine
 62
7
  6
CONTINUOUS
 10
117.7918318757
 20
103.7167708477
 11
117.8106728831
 21
103.7492020145
  0
LINE
  5
2CB
100
AcDbEntity
  8
DRAFT
100
AcDbLine
 62
7
  6
CONTINUOUS
 10
117.7729235813
 20
103.6846209599
 11
117.7918318757
 21
103.7167708477
  0
LINE
  5
2CC
100
AcDbEntity
  8
DRAFT
100
AcDbLine
 62
7
  6
CONTINUOUS
 10
117.7539482424
 20
103.6527426878
 11
117.7729235813
 21
103.6846209599
  0
LINE
  5
2CD
100
AcDbEntity
  8
DRAFT
100
AcDbLine
 62
7
  6
CONTINUOUS
 10
111.615306041
 20
92.3463616705
 11
111.415036317
 21
92.0459570843
  0
LINE
  5
2CE
100
AcDbEntity
  8
DRAFT
100
AcDbLine
 62
7
  6
CONTINUOUS
 10
111.7033360428
 20
92.3289471189
 11
111.497941561
 21
92.0208553962
  0
LINE
  5
2CF
100
AcDbEntity
  8
DRAFT
100
AcDbLine
 62
7
  6
CONTINUOUS
 10
155.8406728831
 20
147.6572782258
 11
156.0606728831
 21
147.8772782258
  0
LINE
  5
2D0
100
AcDbEntity
  8
DRAFT
100
AcDbLine
 62
7
  6
CONTINUOUS
 10
155.9925517746
 20
147.2906101461
 11
156.2125517746
 21
147.5106101461
  0
LINE
  5
2D1
100
AcDbEntity
  8
RACCORDO
100
AcDbLine
 62
7
  6
CONTINUOUS
 10
117.7539482424
 20
117.4550529911
 11
117.90061293
 21
117.5283839387
  0
LINE
  5
2D2
100
AcDbEntity
  8
DRAFT
100
AcDbLine
 62
7
  6
CONTINUOUS
 10
116.5033303851
 20
117.3472782258
 11
116.7735062991
 21
117.4550529911
  0
LINE
  5
2D3
100
AcDbEntity
  8
DRAFT
100
AcDbLine
 62
7
  6
CONTINUOUS
 10
191.8406728831
 20
82.0972782258
 11
190.469559417
 21
82.0972782258
  0
LINE
  5
2D4
100
AcDbEntity
  8
DRAFT
100
AcDbLine
 62
7
  6
CONTINUOUS
 10
100.7806728831
 20
82.0972782258
 11
102.1517863492
 21
82.0972782258
  0
LINE
  5
2D5
100
AcDbEntity
  8
ASSI
100
AcDbLine
 62
7
  6
CONTINUOUS
 10
121.1106728831
 20
84.4472782258
 11
123.5106728831
 21
84.4472782258
  0
LINE
  5
2D6
100
AcDbEntity
  8
ASSI
100
AcDbLine
 62
7
  6
CONTINUOUS
 10
169.1106728831
 20
84.4472782258
 11
171.5106728831
 21
84.4472782258
  0
LINE
  5
2D7
100
AcDbEntity
  8
DRAFT
100
AcDbLine
 62
7
  6
CONTINUOUS
 10
111.615306041
 20
92.3463616705
 11
111.7033360428
 21
92.3289471189
  0
LINE
  5
2D8
100
AcDbEntity
  8
DRAFT
100
AcDbLine
 62
7
  6
CONTINUOUS
 10
111.415036317
 20
92.0459570843
 11
111.497941561
 21
92.0208553962
  0
LINE
  5
2D9
100
AcDbEntity
  8
DRAFT
100
AcDbLine
 62
7
  6
CONTINUOUS
 10
116.5033303851
 20
95.3472782258
 11
116.7735062991
 21
95.2395034605
  0
LINE
  5
2DA
100
AcDbEntity
  8
RACCORDO
100
AcDbLine
 62
7
  6
CONTINUOUS
 10
117.7539482424
 20
95.2395034605
 11
117.9005862759
 21
95.1661858397
  0
LINE
  5
2DB
100
AcDbEntity
  8
DRAFT
100
AcDbLine
 62
7
  6
CONTINUOUS
 10
156.0606728831
 20
64.8172782258
 11
155.8406728831
 21
65.0372782258
  0
LINE
  5
2DC
100
AcDbEntity
  8
DRAFT
100
AcDbLine
 62
7
  6
CONTINUOUS
 10
156.2125517746
 20
65.1839463055
 11
155.9925517746
 21
65.4039463055
  0
LINE
  5
2DD
100
AcDbEntity
  8
DRAFT
100
AcDbLine
 62
7
  6
CONTINUOUS
 10
117.7539482424
 20
109.0418137638
 11
117.7729235813
 21
109.0099354917
  0
LINE
  5
2DE
100
AcDbEntity
  8
DRAFT
100
AcDbLine
 62
7
  6
CONTINUOUS
 10
117.7729235813
 20
109.0099354917
 11
117.7918318757
 21
108.9777856039
  0
LINE
  5
2DF
100
AcDbEntity
  8
DRAFT
100
AcDbLine
 62
7
  6
CONTINUOUS
 10
117.7918318757
 20
108.9777856039
 11
117.8106728831
 21
108.9453544372
  0
LINE
  5
2E0
100
AcDbEntity
  8
RACCORDO
100
AcDbLine
 62
7
  6
CONTINUOUS
 10
134.5106728831
 20
145.1087009838
 11
134.6917652692
 21
146.5580195768
  0
LINE
  5
2E1
100
AcDbEntity
  8
RACCORDO
100
AcDbLine
 62
7
  6
CONTINUOUS
 10
157.5057654775
 20
141.3340690429
 11
157.4606728831
 21
141.2884505553
  0
LWPOLYLINE
  5
2E2
100
AcDbEntity
  8
RACCORDO
100
AcDbPolyline
 62
7
  6
CONTINUOUS
 90
3
 70
0
 10
111.1525206933
 20
94.4804863992
 10
111.0759616905
 20
94.4036783706
 10
111.0406318884
 20
94.3686858938
  0
LWPOLYLINE
  5
2E3
100
AcDbEntity
  8
RACCORDO
100
AcDbPolyline
 62
7
  6
CONTINUOUS
 90
7
 70
0
 10
111.0406318884
 20
94.3686858938
 10
110.9792869994
 20
94.3070184132
 10
110.9532719125
 20
94.2814868998
 10
110.9321750691
 20
94.2599527414
 10
110.9165793521
 20
94.2432381799
 10
110.9059018787
 20
94.2324009794
 10
110.900142649
 20
94.2283706119
  0
LWPOLYLINE
  5
2E4
100
AcDbEntity
  8
RACCORDO
100
AcDbPolyline
 62
7
  6
CONTINUOUS
 90
3
 70
0
 10
111.323882066
 20
94.6521856314
 10
111.1937498939
 20
94.5214662646
 10
111.1525206933
 20
94.4804863992
  0
LWPOLYLINE
  5
2E5
100
AcDbEntity
  8
RACCORDO
100
AcDbPolyline
 62
7
  6
CONTINUOUS
 90
3
 70
0
 10
157.6774647097
 20
141.5054304156
 10
157.5940273403
 20
141.4218050125
 10
157.5057654775
 20
141.3340690429
  0
LINE
  5
2E6
100
AcDbEntity
  8
RACCORDO
100
AcDbLine
 62
7
  6
CONTINUOUS
 10
157.7542727382
 20
141.5819894183
 11
157.6774647097
 21
141.5054304156
  0
LWPOLYLINE
  5
2E7
100
AcDbEntity
  8
RACCORDO
100
AcDbPolyline
 62
7
  6
CONTINUOUS
 90
3
 70
0
 10
157.8509326956
 20
141.6786641095
 10
157.789265215
 20
141.6173192204
 10
157.7542727382
 20
141.5819894183
  0
LINE
  5
2E8
100
AcDbEntity
  8
RACCORDO
100
AcDbLine
 62
7
  6
CONTINUOUS
 10
111.3695005536
 20
94.6972782258
 11
111.323882066
 21
94.6521856314
  0
LINE
  5
2E9
100
AcDbEntity
  8
RACCORDO
100
AcDbLine
 62
7
  6
CONTINUOUS
 10
189.072095641
 20
94.0472782258
 11
190.521414234
 21
94.2283706119
  0
LINE
  5
2EA
100
AcDbEntity
  8
DRAFT
100
AcDbLine
 62
7
  6
CONTINUOUS
 10
100.7806728831
 20
87.0972782258
 11
101.9073409627
 21
87.0972782258
  0
LINE
  5
2EB
100
AcDbEntity
  8
DRAFT
100
AcDbLine
 62
7
  6
CONTINUOUS
 10
190.7140048034
 20
87.0972782258
 11
191.8406728831
 21
87.0972782258
  0
LINE
  5
2EC
100
AcDbEntity
  8
RACCORDO
100
AcDbLine
 62
7
  6
CONTINUOUS
 10
103.5492501251
 20
94.0472782258
 11
102.0999315321
 21
94.2283706119
  0
LINE
  5
2ED
100
AcDbEntity
  8
DRAFT
100
AcDbLine
 62
7
  6
CONTINUOUS
 10
181.1063094492
 20
72.8490856193
 11
181.0234042052
 21
72.8834260958
  0
LINE
  5
2EE
100
AcDbEntity
  8
DRAFT
100
AcDbLine
 62
7
  6
CONTINUOUS
 10
181.2063094492
 20
72.9490856193
 11
181.1234042052
 21
72.9834260958
  0
LINE
  5
2EF
100
AcDbEntity
  8
RACCORDO
100
AcDbLine
 62
7
  6
CONTINUOUS
 10
111.323882066
 20
118.0423708202
 11
111.3695005536
 21
117.9972782258
  0
LWPOLYLINE
  5
2F0
100
AcDbEntity
  8
RACCORDO
100
AcDbPolyline
 62
7
  6
CONTINUOUS
 90
3
 70
0
 10
157.6774647097
 20
71.189126036
 10
157.7542727382
 20
71.1125670333
 10
157.789265215
 20
71.0772372312
  0
LWPOLYLINE
  5
2F1
100
AcDbEntity
  8
RACCORDO
100
AcDbPolyline
 62
7
  6
CONTINUOUS
 90
7
 70
0
 10
157.789265215
 20
71.0772372312
 10
157.8509326956
 20
71.0158923421
 10
157.8764642091
 20
70.9898772552
 10
157.8979983675
 20
70.9687804119
 10
157.9147129289
 20
70.9531846949
 10
157.9255501294
 20
70.9425072215
 10
157.929580497
 20
70.9367479917
  0
LWPOLYLINE
  5
2F2
100
AcDbEntity
  8
RACCORDO
100
AcDbPolyline
 62
7
  6
CONTINUOUS
 90
3
 70
0
 10
157.5057654775
 20
71.3604874087
 10
157.6364848443
 20
71.2303552367
 10
157.6774647097
 20
71.189126036
  0
LWPOLYLINE
  5
2F3
100
AcDbEntity
  8
RACCORDO
100
AcDbPolyline
 62
7
  6
CONTINUOUS
 90
3
 70
0
 10
111.1525206933
 20
118.2140700524
 10
111.2361460964
 20
118.130632683
 10
111.323882066
 20
118.0423708202
  0
LINE
  5
2F4
100
AcDbEntity
  8
RACCORDO
100
AcDbLine
 62
7
  6
CONTINUOUS
 10
111.0759616905
 20
118.290878081
 11
111.1525206933
 21
118.2140700524
  0
LWPOLYLINE
  5
2F5
100
AcDbEntity
  8
RACCORDO
100
AcDbPolyline
 62
7
  6
CONTINUOUS
 90
3
 70
0
 10
110.9792869994
 20
118.3875380384
 10
111.0406318884
 20
118.3258705578
 10
111.0759616905
 20
118.290878081
  0
LINE
  5
2F6
100
AcDbEntity
  8
RACCORDO
100
AcDbLine
 62
7
  6
CONTINUOUS
 10
157.4606728831
 20
71.4061058963
 11
157.5057654775
 21
71.3604874087
  0
LINE
  5
2F7
100
AcDbEntity
  8
RACCORDO
100
AcDbLine
 62
7
  6
CONTINUOUS
 10
134.5106728831
 20
67.5858554679
 11
134.6917652692
 21
66.1365368749
  0
LINE
  5
2F8
100
AcDbEntity
  8
DRAFT
100
AcDbLine
 62
7
  6
CONTINUOUS
 10
114.7295419568
 20
102.8673592316
 11
114.9303660929
 21
103.0151293998
  0
LINE
  5
2F9
100
AcDbEntity
  8
DRAFT
100
AcDbLine
 62
7
  6
CONTINUOUS
 10
191.0806728831
 20
92.0972782258
 11
190.135433072
 21
92.0972782258
  0
LINE
  5
2FA
100
AcDbEntity
  8
DRAFT
100
AcDbLine
 62
7
  6
CONTINUOUS
 10
101.5406728831
 20
92.0972782258
 11
102.4859126941
 21
92.0972782258
  0
LINE
  5
2FB
100
AcDbEntity
  8
RACCORDO
100
AcDbLine
 62
7
  6
CONTINUOUS
 10
110.815036317
 20
92.8472782258
 11
112.9066684288
 21
92.8472782258
  0
LINE
  5
2FC
100
AcDbEntity
  8
RACCORDO
100
AcDbLine
 62
7
  6
CONTINUOUS
 10
179.7146773374
 20
92.8472782258
 11
181.8063094492
 21
92.8472782258
  0
LINE
  5
2FD
100
AcDbEntity
  8
DRAFT
100
AcDbLine
 62
7
  6
CONTINUOUS
 10
189.072095641
 20
94.0472782258
 11
182.0829511581
 21
94.0472782258
  0
LINE
  5
2FE
100
AcDbEntity
  8
DRAFT
100
AcDbLine
 62
7
  6
CONTINUOUS
 10
103.5492501251
 20
94.0472782258
 11
110.538394608
 21
94.0472782258
  0
LINE
  5
2FF
100
AcDbEntity
  8
RACCORDO
100
AcDbLine
 62
7
  6
CONTINUOUS
 10
190.521414234
 20
94.2283706119
 11
181.7207594902
 21
94.2283706119
  0
LINE
  5
300
100
AcDbEntity
  8
RACCORDO
100
AcDbLine
 62
7
  6
CONTINUOUS
 10
110.9005862759
 20
94.2283706119
 11
102.0999315321
 21
94.2283706119
  0
LINE
  5
301
100
AcDbEntity
  8
DRAFT
100
AcDbLine
 62
7
  6
CONTINUOUS
 10
114.7295419568
 20
109.82719722
 11
114.9303660929
 21
109.6794270518
  0
LINE
  5
302
100
AcDbEntity
  8
DRAFT
100
AcDbLine
 62
7
  6
CONTINUOUS
 10
134.5106728831
 20
145.1087009838
 11
134.5106728831
 21
142.1195565009
  0
LINE
  5
303
100
AcDbEntity
  8
DRAFT
100
AcDbLine
 62
7
  6
CONTINUOUS
 10
134.5106728831
 20
67.5858554679
 11
134.5106728831
 21
70.5749999507
  0
LINE
  5
304
100
AcDbEntity
  8
RACCORDO
100
AcDbLine
 62
7
  6
CONTINUOUS
 10
134.6917652692
 20
66.1365368749
 11
134.6917652692
 21
70.9371916187
  0
LINE
  5
305
100
AcDbEntity
  8
RACCORDO
100
AcDbLine
 62
7
  6
CONTINUOUS
 10
134.6917652692
 20
141.7573648329
 11
134.6917652692
 21
146.5580195768
  0
LINE
  5
306
100
AcDbEntity
  8
RACCORDO
100
AcDbLine
 62
250
  6
CONTINUOUS
 10
134.9295871604
 20
141.0573648327
 11
134.9295871604
 21
134.1491084268
  0
LINE
  5
307
100
AcDbEntity
  8
RACCORDO
100
AcDbLine
 62
250
  6
CONTINUOUS
 10
134.9295871604
 20
78.5454480248
 11
134.9295871604
 21
71.6371916189
  0
LINE
  5
308
100
AcDbEntity
  8
RACCORDO
100
AcDbLine
 62
7
  6
CONTINUOUS
 10
135.1606728831
 20
146.5809870493
 11
135.1606728831
 21
141.2884505553
  0
LINE
  5
309
100
AcDbEntity
  8
RACCORDO
100
AcDbLine
 62
7
  6
CONTINUOUS
 10
135.1606728831
 20
71.4061058963
 11
135.1606728831
 21
66.1135694023
  0
LINE
  5
30A
100
AcDbEntity
  8
RACCORDO
100
AcDbLine
 62
7
  6
CONTINUOUS
 10
135.629580497
 20
146.5580195768
 11
135.629580497
 21
134.8491028295
  0
LINE
  5
30B
100
AcDbEntity
  8
RACCORDO
100
AcDbLine
 62
7
  6
CONTINUOUS
 10
135.629580497
 20
77.8454536221
 11
135.629580497
 21
66.1365368749
  0
LINE
  5
30C
100
AcDbEntity
  8
RACCORDO
100
AcDbLine
 62
7
  6
CONTINUOUS
 10
135.7028981178
 20
71.4844714326
 11
135.7028981178
 21
77.8014632283
  0
LINE
  5
30D
100
AcDbEntity
  8
DRAFT
100
AcDbLine
 62
7
  6
CONTINUOUS
 10
135.7028981178
 20
134.8930932233
 11
135.7028981178
 21
141.9040028664
  0
LINE
  5
30E
100
AcDbEntity
  8
DRAFT
100
AcDbLine
 62
7
  6
CONTINUOUS
 10
135.8106728831
 20
145.1087009838
 11
135.8106728831
 21
142.1195565009
  0
LINE
  5
30F
100
AcDbEntity
  8
DRAFT
100
AcDbLine
 62
7
  6
CONTINUOUS
 10
135.8106728831
 20
67.5858554679
 11
135.8106728831
 21
70.5749999507
  0
LINE
  5
310
100
AcDbEntity
  8
RACCORDO
100
AcDbLine
 62
7
  6
CONTINUOUS
 10
135.9106728831
 20
77.8197892273
 11
135.9106728831
 21
79.8472782258
  0
LINE
  5
311
100
AcDbEntity
  8
RACCORDO
100
AcDbLine
 62
7
  6
CONTINUOUS
 10
135.9106728831
 20
132.8472782258
 11
135.9106728831
 21
134.8747672243
  0
LINE
  5
312
100
AcDbEntity
  8
DRAFT
100
AcDbLine
 62
7
  6
CONTINUOUS
 10
136.0606728831
 20
64.8172782258
 11
136.0606728831
 21
66.4352161131
  0
LINE
  5
313
100
AcDbEntity
  8
DRAFT
100
AcDbLine
 62
7
  6
CONTINUOUS
 10
136.0606728831
 20
146.2593403385
 11
136.0606728831
 21
147.8772782258
  0
LWPOLYLINE
  5
314
100
AcDbEntity
  8
RACCORDO
100
AcDbPolyline
 62
7
  6
CONTINUOUS
 90
6
 70
0
 10
157.929580497
 20
141.7578084599
 10
157.9255501294
 20
141.7520492301
 10
157.9147129289
 20
141.7413717567
 10
157.8979983675
 20
141.7257760397
 10
157.8764642091
 20
141.7046791964
 10
157.8509326956
 20
141.6786641095
  0
LINE
  5
315
100
AcDbEntity
  8
RACCORDO
100
AcDbLine
 62
250
  6
CONTINUOUS
 10
111.6005862762
 20
94.4661925032
 11
118.6005862762
 21
94.4661925032
  0
LINE
  5
316
100
AcDbEntity
  8
RACCORDO
100
AcDbLine
 62
250
  6
CONTINUOUS
 10
174.0207594899
 20
94.4661925032
 11
181.0207594899
 21
94.4661925032
  0
LINE
  5
317
100
AcDbEntity
  8
RACCORDO
100
AcDbLine
 62
7
  6
CONTINUOUS
 10
190.5443817066
 20
94.6972782258
 11
181.2518452126
 21
94.6972782258
  0
LINE
  5
318
100
AcDbEntity
  8
RACCORDO
100
AcDbLine
 62
7
  6
CONTINUOUS
 10
102.0769640595
 20
94.6972782258
 11
111.3695005536
 21
94.6972782258
  0
LINE
  5
319
100
AcDbEntity
  8
RACCORDO
100
AcDbLine
 62
7
  6
CONTINUOUS
 10
102.0999315321
 20
95.1661858397
 11
117.9005862759
 21
95.1661858397
  0
LINE
  5
31A
100
AcDbEntity
  8
RACCORDO
100
AcDbLine
 62
7
  6
CONTINUOUS
 10
174.7207594902
 20
95.1661858397
 11
190.521414234
 21
95.1661858397
  0
LINE
  5
31B
100
AcDbEntity
  8
DRAFT
100
AcDbLine
 62
7
  6
CONTINUOUS
 10
175.847839467
 20
95.2395034605
 11
174.8673975237
 21
95.2395034605
  0
LINE
  5
31C
100
AcDbEntity
  8
DRAFT
100
AcDbLine
 62
7
  6
CONTINUOUS
 10
117.7539482424
 20
95.2395034605
 11
116.7735062991
 21
95.2395034605
  0
LINE
  5
31D
100
AcDbEntity
  8
DRAFT
100
AcDbLine
 62
7
  6
CONTINUOUS
 10
103.5492501251
 20
95.3472782258
 11
116.5033303851
 21
95.3472782258
  0
LINE
  5
31E
100
AcDbEntity
  8
DRAFT
100
AcDbLine
 62
7
  6
CONTINUOUS
 10
176.118015381
 20
95.3472782258
 11
189.072095641
 21
95.3472782258
  0
LINE
  5
31F
100
AcDbEntity
  8
RACCORDO
100
AcDbLine
 62
7
  6
CONTINUOUS
 10
117.815036317
 20
95.7972782258
 11
119.9066684288
 21
95.7972782258
  0
LINE
  5
320
100
AcDbEntity
  8
RACCORDO
100
AcDbLine
 62
7
  6
CONTINUOUS
 10
172.7146773374
 20
95.7972782258
 11
174.8063094492
 21
95.7972782258
  0
LINE
  5
321
100
AcDbEntity
  8
DRAFT
100
AcDbLine
 62
7
  6
CONTINUOUS
 10
191.8406728831
 20
96.0972782258
 11
190.2227349958
 21
96.0972782258
  0
LINE
  5
322
100
AcDbEntity
  8
DRAFT
100
AcDbLine
 62
7
  6
CONTINUOUS
 10
100.7806728831
 20
96.0972782258
 11
102.3986107704
 21
96.0972782258
  0
LWPOLYLINE
  5
323
100
AcDbEntity
  8
RACCORDO
100
AcDbPolyline
 62
7
  6
CONTINUOUS
 90
6
 70
0
 10
110.900142649
 20
118.4661858397
 10
110.9059018787
 20
118.4621554722
 10
110.9165793521
 20
118.4513182717
 10
110.9321750691
 20
118.4346037102
 10
110.9532719125
 20
118.4130695519
 10
110.9792869994
 20
118.3875380384
  0
LINE
  5
324
100
AcDbEntity
  8
RACCORDO
100
AcDbLine
 62
7
  6
CONTINUOUS
 10
135.8106728831
 20
67.5858554679
 11
135.629580497
 21
66.1365368749
  0
LINE
  5
325
100
AcDbEntity
  8
RACCORDO
100
AcDbLine
 62
7
  6
CONTINUOUS
 10
157.9295671702
 20
141.7573381788
 11
158.1106728831
 21
142.1195565009
  0
LINE
  5
326
100
AcDbEntity
  8
DRAFT
100
AcDbLine
 62
7
  6
CONTINUOUS
 10
100.7806728831
 20
67.0972782258
 11
101.0006728831
 21
67.3172782258
  0
LINE
  5
327
100
AcDbEntity
  8
DRAFT
100
AcDbLine
 62
7
  6
CONTINUOUS
 10
101.5673409627
 20
67.3653993343
 11
101.3673409627
 21
67.1653993343
  0
LINE
  5
328
100
AcDbEntity
  8
RACCORDO
100
AcDbLine
 62
7
  6
CONTINUOUS
 10
110.90061293
 20
94.2283839387
 11
110.538394608
 21
94.0472782258
  0
LINE
  5
329
100
AcDbEntity
  8
RACCORDO
100
AcDbLine
 62
7
  6
CONTINUOUS
 10
103.5492501251
 20
95.3472782258
 11
102.0999315321
 21
95.1661858397
  0
LINE
  5
32A
100
AcDbEntity
  8
RACCORDO
100
AcDbLine
 62
7
  6
CONTINUOUS
 10
189.072095641
 20
95.3472782258
 11
190.521414234
 21
95.1661858397
  0
LINE
  5
32B
100
AcDbEntity
  8
DRAFT
100
AcDbLine
 62
7
  6
CONTINUOUS
 10
191.0540048034
 20
81.3291571173
 11
190.809559417
 21
81.4304097116
  0
LINE
  5
32C
100
AcDbEntity
  8
DRAFT
100
AcDbLine
 62
7
  6
CONTINUOUS
 10
191.6206728831
 20
81.3772782258
 11
191.2540048034
 21
81.5291571173
  0
LINE
  5
32D
100
AcDbEntity
  8
DRAFT
100
AcDbLine
 62
7
  6
CONTINUOUS
 10
191.8406728831
 20
81.5972782258
 11
191.229559417
 21
81.8504097116
  0
LINE
  5
32E
100
AcDbEntity
  8
RACCORDO
100
AcDbLine
 62
7
  6
CONTINUOUS
 10
110.90061293
 20
118.4661725129
 11
110.538394608
 21
118.6472782258
  0
LINE
  5
32F
100
AcDbEntity
  8
RACCORDO
100
AcDbLine
 62
7
  6
CONTINUOUS
 10
157.9295671702
 20
70.9372182728
 11
158.1106728831
 21
70.5749999507
  0
LINE
  5
330
100
AcDbEntity
  8
RACCORDO
100
AcDbLine
 62
7
  6
CONTINUOUS
 10
135.8106728831
 20
145.1087009838
 11
135.629580497
 21
146.5580195768
  0
LINE
  5
331
100
AcDbEntity
  8
RACCORDO
100
AcDbLine
 62
250
  6
CONTINUOUS
 10
144.1606728831
 20
70.5749999507
 11
144.1606728831
 21
76.3472782258
  0
LINE
  5
332
100
AcDbEntity
  8
DRAFT
100
AcDbLine
 62
7
  6
CONTINUOUS
 10
144.8606728831
 20
142.1195565009
 11
144.8606728831
 21
136.3472782258
  0
LINE
  5
333
100
AcDbEntity
  8
RACCORDO
100
AcDbLine
 62
7
  6
CONTINUOUS
 10
144.8606728831
 20
71.2750266056
 11
144.8606728831
 21
76.3472782258
  0
LINE
  5
334
100
AcDbEntity
  8
DRAFT
100
AcDbLine
 62
7
  6
CONTINUOUS
 10
146.3106728831
 20
139.7105243126
 11
146.3106728831
 21
139.5472782258
  0
LINE
  5
335
100
AcDbEntity
  8
DRAFT
100
AcDbLine
 62
7
  6
CONTINUOUS
 10
146.3106728831
 20
72.984032139
 11
146.3106728831
 21
73.1472782258
  0
LINE
  5
336
100
AcDbEntity
  8
DRAFT
100
AcDbLine
 62
7
  6
CONTINUOUS
 10
155.7720591991
 20
134.4747672243
 11
155.7617572941
 21
134.4498962257
  0
LINE
  5
337
100
AcDbEntity
  8
DRAFT
100
AcDbLine
 62
7
  6
CONTINUOUS
 10
156.0720591991
 20
134.1747672243
 11
156.0617572941
 21
134.1498962257
  0
LINE
  5
338
100
AcDbEntity
  8
DRAFT
100
AcDbLine
 62
7
  6
CONTINUOUS
 10
103.5492501251
 20
67.5858554679
 11
102.0406728831
 21
66.0772782258
  0
LINE
  5
339
100
AcDbEntity
  8
RACCORDO
100
AcDbLine
 62
250
  6
CONTINUOUS
 10
110.90061293
 20
71.6371916189
 11
110.538394608
 21
71.2749732969
  0
LINE
  5
33A
100
AcDbEntity
  8
RACCORDO
100
AcDbLine
 62
250
  6
CONTINUOUS
 10
181.0207594899
 20
141.7573381788
 11
181.382977812
 21
142.1195565009
  0
LINE
  5
33B
100
AcDbEntity
  8
RACCORDO
100
AcDbLine
 62
250
  6
CONTINUOUS
 10
111.6005862762
 20
70.9372182728
 11
111.2383679541
 21
70.5749999507
  0
LINE
  5
33C
100
AcDbEntity
  8
RACCORDO
100
AcDbLine
 62
250
  6
CONTINUOUS
 10
181.7207328361
 20
141.0573648327
 11
182.0829511581
 21
141.4195831547
  0
LINE
  5
33D
100
AcDbEntity
  8
DRAFT
100
AcDbLine
 62
7
  6
CONTINUOUS
 10
118.215036317
 20
96.5990751384
 11
118.297941561
 21
96.6332164767
  0
LINE
  5
33E
100
AcDbEntity
  8
DRAFT
100
AcDbLine
 62
7
  6
CONTINUOUS
 10
118.515036317
 20
96.2966026109
 11
118.597941561
 21
96.3307439492
  0
LINE
  5
33F
100
AcDbEntity
  8
DRAFT
100
AcDbLine
 62
7
  6
CONTINUOUS
 10
118.215036317
 20
115.7923673074
 11
118.297941561
 21
115.7582300826
  0
LINE
  5
340
100
AcDbEntity
  8
DRAFT
100
AcDbLine
 62
7
  6
CONTINUOUS
 10
118.515036317
 20
116.0948911682
 11
118.597941561
 21
116.0607539434
  0
LINE
  5
341
100
AcDbEntity
  8
DRAFT
100
AcDbLine
 62
7
  6
CONTINUOUS
 10
191.2540048034
 20
86.5291571173
 11
191.6206728831
 21
86.3772782258
  0
LINE
  5
342
100
AcDbEntity
  8
DRAFT
100
AcDbLine
 62
7
  6
CONTINUOUS
 10
191.4740048034
 20
86.7491571173
 11
191.8406728831
 21
86.5972782258
  0
LINE
  5
343
100
AcDbEntity
  8
DRAFT
100
AcDbLine
 62
7
  6
CONTINUOUS
 10
103.5492501251
 20
145.1087009838
 11
102.0406728831
 21
146.6172782258
  0
LINE
  5
344
100
AcDbEntity
  8
RACCORDO
100
AcDbLine
 62
250
  6
CONTINUOUS
 10
110.90061293
 20
141.0573648327
 11
110.538394608
 21
141.4195831547
  0
LINE
  5
345
100
AcDbEntity
  8
RACCORDO
100
AcDbLine
 62
250
  6
CONTINUOUS
 10
181.0207594899
 20
70.9372182728
 11
181.382977812
 21
70.5749999507
  0
LINE
  5
346
100
AcDbEntity
  8
RACCORDO
100
AcDbLine
 62
250
  6
CONTINUOUS
 10
111.6005862762
 20
141.7573381788
 11
111.2383679541
 21
142.1195565009
  0
LINE
  5
347
100
AcDbEntity
  8
RACCORDO
100
AcDbLine
 62
250
  6
CONTINUOUS
 10
181.7207328361
 20
71.6371916189
 11
182.0829511581
 21
71.2749732969
  0
LINE
  5
348
100
AcDbEntity
  8
DRAFT
100
AcDbLine
 62
7
  6
CONTINUOUS
 10
155.7720591991
 20
77.9197892273
 11
155.7617572941
 21
77.9446602259
  0
LINE
  5
349
100
AcDbEntity
  8
DRAFT
100
AcDbLine
 62
7
  6
CONTINUOUS
 10
156.0720591991
 20
78.2197892273
 11
156.0617572941
 21
78.2446602259
  0
LINE
  5
34A
100
AcDbEntity
  8
DRAFT
100
AcDbLine
 62
7
  6
CONTINUOUS
 10
147.7606728831
 20
142.1195565009
 11
147.7606728831
 21
136.3472782258
  0
LINE
  5
34B
100
AcDbEntity
  8
RACCORDO
100
AcDbLine
 62
7
  6
CONTINUOUS
 10
147.7606728831
 20
71.4844714326
 11
147.7606728831
 21
76.3472782258
  0
LINE
  5
34C
100
AcDbEntity
  8
RACCORDO
100
AcDbLine
 62
250
  6
CONTINUOUS
 10
148.4606728831
 20
70.7844980864
 11
148.4606728831
 21
70.5749999507
  0
LINE
  5
34D
100
AcDbEntity
  8
DRAFT
100
AcDbLine
 62
7
  6
CONTINUOUS
 10
189.072095641
 20
145.1087009838
 11
190.5806728831
 21
146.6172782258
  0
LINE
  5
34E
100
AcDbEntity
  8
DRAFT
100
AcDbLine
 62
7
  6
CONTINUOUS
 10
101.1473409627
 20
86.7491571173
 11
100.7806728831
 21
86.5972782258
  0
LINE
  5
34F
100
AcDbEntity
  8
DRAFT
100
AcDbLine
 62
7
  6
CONTINUOUS
 10
101.3673409627
 20
86.5291571173
 11
101.0006728831
 21
86.3772782258
  0
LINE
  5
350
100
AcDbEntity
  8
DRAFT
100
AcDbLine
 62
7
  6
CONTINUOUS
 10
174.1063094492
 20
116.0954708323
 11
174.0234042052
 21
116.0611303558
  0
LINE
  5
351
100
AcDbEntity
  8
DRAFT
100
AcDbLine
 62
7
  6
CONTINUOUS
 10
174.4063094492
 20
115.7954708323
 11
174.3234042052
 21
115.7611303558
  0
LINE
  5
352
100
AcDbEntity
  8
DRAFT
100
AcDbLine
 62
7
  6
CONTINUOUS
 10
174.1063094492
 20
96.2990856193
 11
174.0234042052
 21
96.3334260958
  0
LINE
  5
353
100
AcDbEntity
  8
DRAFT
100
AcDbLine
 62
7
  6
CONTINUOUS
 10
174.4063094492
 20
96.5990856193
 11
174.3234042052
 21
96.6334260958
  0
LINE
  5
354
100
AcDbEntity
  8
DRAFT
100
AcDbLine
 62
7
  6
CONTINUOUS
 10
189.072095641
 20
67.5858554679
 11
190.5806728831
 21
66.0772782258
  0
LINE
  5
355
100
AcDbEntity
  8
DRAFT
100
AcDbLine
 62
7
  6
CONTINUOUS
 10
191.2540048034
 20
67.1653993343
 11
191.0540048034
 21
67.3653993343
  0
LINE
  5
356
100
AcDbEntity
  8
DRAFT
100
AcDbLine
 62
7
  6
CONTINUOUS
 10
191.6206728831
 20
67.3172782258
 11
191.8406728831
 21
67.0972782258
  0
LINE
  5
357
100
AcDbEntity
  8
DRAFT
100
AcDbLine
 62
7
  6
CONTINUOUS
 10
136.3992190576
 20
134.1747672243
 11
136.4095820425
 21
134.1498962257
  0
LINE
  5
358
100
AcDbEntity
  8
DRAFT
100
AcDbLine
 62
7
  6
CONTINUOUS
 10
136.6967162526
 20
134.4747672243
 11
136.7070792375
 21
134.4498962257
  0
LINE
  5
359
100
AcDbEntity
  8
RACCORDO
100
AcDbLine
 62
7
  6
CONTINUOUS
 10
156.8106728831
 20
145.1087009838
 11
156.9917652692
 21
146.5580195768
  0
LINE
  5
35A
100
AcDbEntity
  8
RACCORDO
100
AcDbLine
 62
7
  6
CONTINUOUS
 10
134.691778596
 20
70.9372182728
 11
134.5106728831
 21
70.5749999507
  0
LINE
  5
35B
100
AcDbEntity
  8
RACCORDO
100
AcDbLine
 62
7
  6
CONTINUOUS
 10
181.7207328361
 20
118.4661725129
 11
182.0829511581
 21
118.6472782258
  0
LINE
  5
35C
100
AcDbEntity
  8
DRAFT
100
AcDbLine
 62
7
  6
CONTINUOUS
 10
100.7806728831
 20
81.5972782258
 11
101.3917863492
 21
81.8504097116
  0
LINE
  5
35D
100
AcDbEntity
  8
DRAFT
100
AcDbLine
 62
7
  6
CONTINUOUS
 10
101.0006728831
 20
81.3772782258
 11
101.3673409627
 21
81.5291571173
  0
LINE
  5
35E
100
AcDbEntity
  8
DRAFT
100
AcDbLine
 62
7
  6
CONTINUOUS
 10
101.5673409627
 20
81.3291571173
 11
101.8117863492
 21
81.4304097116
  0
LINE
  5
35F
100
AcDbEntity
  8
RACCORDO
100
AcDbLine
 62
7
  6
CONTINUOUS
 10
189.072095641
 20
117.3472782258
 11
190.521414234
 21
117.5283706119
  0
LINE
  5
360
100
AcDbEntity
  8
RACCORDO
100
AcDbLine
 62
7
  6
CONTINUOUS
 10
103.5492501251
 20
117.3472782258
 11
102.0999315321
 21
117.5283706119
  0
LINE
  5
361
100
AcDbEntity
  8
RACCORDO
100
AcDbLine
 62
7
  6
CONTINUOUS
 10
181.7207328361
 20
94.2283839387
 11
182.0829511581
 21
94.0472782258
  0
LINE
  5
362
100
AcDbEntity
  8
RACCORDO
100
AcDbLine
 62
7
  6
CONTINUOUS
 10
134.691778596
 20
141.7573381788
 11
134.5106728831
 21
142.1195565009
  0
LINE
  5
363
100
AcDbEntity
  8
RACCORDO
100
AcDbLine
 62
7
  6
CONTINUOUS
 10
156.8106728831
 20
67.5858554679
 11
156.9917652692
 21
66.1365368749
  0
LINE
  5
364
100
AcDbEntity
  8
DRAFT
100
AcDbLine
 62
7
  6
CONTINUOUS
 10
156.5606728831
 20
147.8772782258
 11
156.5606728831
 21
146.2593403385
  0
LINE
  5
365
100
AcDbEntity
  8
DRAFT
100
AcDbLine
 62
7
  6
CONTINUOUS
 10
156.5606728831
 20
64.8172782258
 11
156.5606728831
 21
66.4352161131
  0
LINE
  5
366
100
AcDbEntity
  8
RACCORDO
100
AcDbLine
 62
7
  6
CONTINUOUS
 10
156.5606728831
 20
132.8472782258
 11
156.5606728831
 21
134.8747672243
  0
LINE
  5
367
100
AcDbEntity
  8
RACCORDO
100
AcDbLine
 62
7
  6
CONTINUOUS
 10
156.7106728831
 20
77.8197892273
 11
156.7106728831
 21
79.8472782258
  0
LINE
  5
368
100
AcDbEntity
  8
DRAFT
100
AcDbLine
 62
7
  6
CONTINUOUS
 10
156.8106728831
 20
145.1087009838
 11
156.8106728831
 21
142.1195565009
  0
LINE
  5
369
100
AcDbEntity
  8
DRAFT
100
AcDbLine
 62
7
  6
CONTINUOUS
 10
156.8106728831
 20
67.5858554679
 11
156.8106728831
 21
70.5749999507
  0
LINE
  5
36A
100
AcDbEntity
  8
DRAFT
100
AcDbLine
 62
7
  6
CONTINUOUS
 10
156.9184476483
 20
141.9040028664
 11
156.9184476483
 21
134.8930932233
  0
LINE
  5
36B
100
AcDbEntity
  8
RACCORDO
100
AcDbLine
 62
7
  6
CONTINUOUS
 10
156.9184476483
 20
77.8014632283
 11
156.9184476483
 21
71.4844714326
  0
LINE
  5
36C
100
AcDbEntity
  8
RACCORDO
100
AcDbLine
 62
7
  6
CONTINUOUS
 10
156.9917652692
 20
66.1365368749
 11
156.9917652692
 21
77.8454536221
  0
LINE
  5
36D
100
AcDbEntity
  8
RACCORDO
100
AcDbLine
 62
7
  6
CONTINUOUS
 10
156.9917652692
 20
134.8491028295
 11
156.9917652692
 21
146.5580195768
  0
LINE
  5
36E
100
AcDbEntity
  8
RACCORDO
100
AcDbLine
 62
7
  6
CONTINUOUS
 10
157.4606728831
 20
146.5809870493
 11
157.4606728831
 21
141.2884505553
  0
LINE
  5
36F
100
AcDbEntity
  8
RACCORDO
100
AcDbLine
 62
7
  6
CONTINUOUS
 10
157.4606728831
 20
71.4061058963
 11
157.4606728831
 21
66.1135694023
  0
LINE
  5
370
100
AcDbEntity
  8
RACCORDO
100
AcDbLine
 62
250
  6
CONTINUOUS
 10
157.6917586057
 20
71.6371916189
 11
157.6917586057
 21
78.5454480248
  0
LINE
  5
371
100
AcDbEntity
  8
RACCORDO
100
AcDbLine
 62
250
  6
CONTINUOUS
 10
157.6917586057
 20
134.1491084268
 11
157.6917586057
 21
141.0573648327
  0
LINE
  5
372
100
AcDbEntity
  8
RACCORDO
100
AcDbLine
 62
7
  6
CONTINUOUS
 10
157.929580497
 20
146.5580195768
 11
157.929580497
 21
141.7573648329
  0
LINE
  5
373
100
AcDbEntity
  8
RACCORDO
100
AcDbLine
 62
7
  6
CONTINUOUS
 10
157.929580497
 20
70.9371916187
 11
157.929580497
 21
66.1365368749
  0
LINE
  5
374
100
AcDbEntity
  8
DRAFT
100
AcDbLine
 62
7
  6
CONTINUOUS
 10
158.1106728831
 20
145.1087009838
 11
158.1106728831
 21
142.1195565009
  0
LINE
  5
375
100
AcDbEntity
  8
DRAFT
100
AcDbLine
 62
7
  6
CONTINUOUS
 10
158.1106728831
 20
67.5858554679
 11
158.1106728831
 21
70.5749999507
  0
LWPOLYLINE
  5
376
100
AcDbEntity
  8
RACCORDO
100
AcDbPolyline
 62
7
  6
CONTINUOUS
 90
6
 70
0
 10
134.6917652692
 20
70.9367479917
 10
134.6957956367
 20
70.9425072215
 10
134.7066328372
 20
70.9531846949
 10
134.7233473986
 20
70.9687804119
 10
134.744881557
 20
70.9898772552
 10
134.7704130705
 20
71.0158923421
  0
LINE
  5
377
100
AcDbEntity
  8
DRAFT
100
AcDbLine
 62
7
  6
CONTINUOUS
 10
100.7806728831
 20
116.5972782258
 11
102.3986107704
 21
116.5972782258
  0
LINE
  5
378
100
AcDbEntity
  8
RACCORDO
100
AcDbLine
 62
7
  6
CONTINUOUS
 10
117.815036317
 20
116.5972782258
 11
119.9066684288
 21
116.5972782258
  0
LINE
  5
379
100
AcDbEntity
  8
RACCORDO
100
AcDbLine
 62
7
  6
CONTINUOUS
 10
172.7146773374
 20
116.5972782258
 11
174.8063094492
 21
116.5972782258
  0
LINE
  5
37A
100
AcDbEntity
  8
DRAFT
100
AcDbLine
 62
7
  6
CONTINUOUS
 10
190.2227349958
 20
116.5972782258
 11
191.8406728831
 21
116.5972782258
  0
LINE
  5
37B
100
AcDbEntity
  8
DRAFT
100
AcDbLine
 62
7
  6
CONTINUOUS
 10
189.072095641
 20
117.3472782258
 11
176.118015381
 21
117.3472782258
  0
LINE
  5
37C
100
AcDbEntity
  8
DRAFT
100
AcDbLine
 62
7
  6
CONTINUOUS
 10
116.5033303851
 20
117.3472782258
 11
103.5492501251
 21
117.3472782258
  0
LINE
  5
37D
100
AcDbEntity
  8
DRAFT
100
AcDbLine
 62
7
  6
CONTINUOUS
 10
116.7735062991
 20
117.4550529911
 11
117.7539482424
 21
117.4550529911
  0
LINE
  5
37E
100
AcDbEntity
  8
DRAFT
100
AcDbLine
 62
7
  6
CONTINUOUS
 10
174.8673975237
 20
117.4550529911
 11
175.847839467
 21
117.4550529911
  0
LINE
  5
37F
100
AcDbEntity
  8
RACCORDO
100
AcDbLine
 62
7
  6
CONTINUOUS
 10
190.521414234
 20
117.5283706119
 11
174.7207594902
 21
117.5283706119
  0
LINE
  5
380
100
AcDbEntity
  8
RACCORDO
100
AcDbLine
 62
7
  6
CONTINUOUS
 10
117.9005862759
 20
117.5283706119
 11
102.0999315321
 21
117.5283706119
  0
LINE
  5
381
100
AcDbEntity
  8
RACCORDO
100
AcDbLine
 62
7
  6
CONTINUOUS
 10
190.5443817066
 20
117.9972782258
 11
181.2518452126
 21
117.9972782258
  0
LINE
  5
382
100
AcDbEntity
  8
RACCORDO
100
AcDbLine
 62
7
  6
CONTINUOUS
 10
102.0769640595
 20
117.9972782258
 11
111.3695005536
 21
117.9972782258
  0
LINE
  5
383
100
AcDbEntity
  8
RACCORDO
100
AcDbLine
 62
250
  6
CONTINUOUS
 10
181.0207594899
 20
118.2283639484
 11
174.0207594899
 21
118.2283639484
  0
LINE
  5
384
100
AcDbEntity
  8
RACCORDO
100
AcDbLine
 62
250
  6
CONTINUOUS
 10
118.6005862762
 20
118.2283639484
 11
111.6005862762
 21
118.2283639484
  0
LINE
  5
385
100
AcDbEntity
  8
RACCORDO
100
AcDbLine
 62
7
  6
CONTINUOUS
 10
102.0999315321
 20
118.4661858397
 11
110.9005862759
 21
118.4661858397
  0
LINE
  5
386
100
AcDbEntity
  8
RACCORDO
100
AcDbLine
 62
7
  6
CONTINUOUS
 10
181.7207594902
 20
118.4661858397
 11
190.521414234
 21
118.4661858397
  0
LINE
  5
387
100
AcDbEntity
  8
DRAFT
100
AcDbLine
 62
7
  6
CONTINUOUS
 10
189.072095641
 20
118.6472782258
 11
182.0829511581
 21
118.6472782258
  0
LINE
  5
388
100
AcDbEntity
  8
DRAFT
100
AcDbLine
 62
7
  6
CONTINUOUS
 10
103.5492501251
 20
118.6472782258
 11
110.538394608
 21
118.6472782258
  0
LWPOLYLINE
  5
389
100
AcDbEntity
  8
RACCORDO
100
AcDbPolyline
 62
7
  6
CONTINUOUS
 90
6
 70
0
 10
181.7212031171
 20
94.2283706119
 10
181.7154438874
 20
94.2324009794
 10
181.704766414
 20
94.2432381799
 10
181.689170697
 20
94.2599527414
 10
181.6680738537
 20
94.2814868998
 10
181.6420587667
 20
94.3070184132
  0
LINE
  5
38A
100
AcDbEntity
  8
RACCORDO
100
AcDbLine
 62
7
  6
CONTINUOUS
 10
158.1106728831
 20
67.5858554679
 11
157.929580497
 21
66.1365368749
  0
LINE
  5
38B
100
AcDbEntity
  8
RACCORDO
100
AcDbLine
 62
7
  6
CONTINUOUS
 10
135.1155802886
 20
71.3604874087
 11
135.1606728831
 21
71.4061058963
  0
LWPOLYLINE
  5
38C
100
AcDbEntity
  8
RACCORDO
100
AcDbPolyline
 62
7
  6
CONTINUOUS
 90
3
 70
0
 10
181.2974637001
 20
118.0423708202
 10
181.4275958722
 20
118.173090187
 10
181.4688250728
 20
118.2140700524
  0
LWPOLYLINE
  5
38D
100
AcDbEntity
  8
RACCORDO
100
AcDbPolyline
 62
7
  6
CONTINUOUS
 90
7
 70
0
 10
181.5807138777
 20
118.3258705578
 10
181.6420587667
 20
118.3875380384
 10
181.6680738537
 20
118.4130695519
 10
181.689170697
 20
118.4346037102
 10
181.704766414
 20
118.4513182717
 10
181.7154438874
 20
118.4621554722
 10
181.7212031171
 20
118.4661858397
  0
LWPOLYLINE
  5
38E
100
AcDbEntity
  8
RACCORDO
100
AcDbPolyline
 62
7
  6
CONTINUOUS
 90
3
 70
0
 10
181.4688250728
 20
118.2140700524
 10
181.5453840756
 20
118.290878081
 10
181.5807138777
 20
118.3258705578
  0
LWPOLYLINE
  5
38F
100
AcDbEntity
  8
RACCORDO
100
AcDbPolyline
 62
7
  6
CONTINUOUS
 90
3
 70
0
 10
134.9438810565
 20
71.189126036
 10
135.0273184259
 20
71.2727514391
 10
135.1155802886
 20
71.3604874087
  0
LINE
  5
390
100
AcDbEntity
  8
RACCORDO
100
AcDbLine
 62
7
  6
CONTINUOUS
 10
134.8670730279
 20
71.1125670333
 11
134.9438810565
 21
71.189126036
  0
LWPOLYLINE
  5
391
100
AcDbEntity
  8
RACCORDO
100
AcDbPolyline
 62
7
  6
CONTINUOUS
 90
3
 70
0
 10
134.7704130705
 20
71.0158923421
 10
134.8320805511
 20
71.0772372312
 10
134.8670730279
 20
71.1125670333
  0
LINE
  5
392
100
AcDbEntity
  8
RACCORDO
100
AcDbLine
 62
7
  6
CONTINUOUS
 10
181.2518452126
 20
117.9972782258
 11
181.2974637001
 21
118.0423708202
  0
LINE
  5
393
100
AcDbEntity
  8
DRAFT
100
AcDbLine
 62
7
  6
CONTINUOUS
 10
177.8918038093
 20
109.82719722
 11
177.6909796733
 21
109.6794270518
  0
LINE
  5
394
100
AcDbEntity
  8
DRAFT
100
AcDbLine
 62
7
  6
CONTINUOUS
 10
177.8918038093
 20
102.8673592316
 11
177.6909796733
 21
103.0151293998
  0
LINE
  5
395
100
AcDbEntity
  8
RACCORDO
100
AcDbLine
 62
7
  6
CONTINUOUS
 10
181.2974637001
 20
94.6521856314
 11
181.2518452126
 21
94.6972782258
  0
LWPOLYLINE
  5
396
100
AcDbEntity
  8
RACCORDO
100
AcDbPolyline
 62
7
  6
CONTINUOUS
 90
3
 70
0
 10
135.1155802886
 20
141.3340690429
 10
134.9848609218
 20
141.464201215
 10
134.9438810565
 20
141.5054304156
  0
LWPOLYLINE
  5
397
100
AcDbEntity
  8
RACCORDO
100
AcDbPolyline
 62
7
  6
CONTINUOUS
 90
7
 70
0
 10
134.8320805511
 20
141.6173192204
 10
134.7704130705
 20
141.6786641095
 10
134.744881557
 20
141.7046791964
 10
134.7233473986
 20
141.7257760397
 10
134.7066328372
 20
141.7413717567
 10
134.6957956367
 20
141.7520492301
 10
134.6917652692
 20
141.7578084599
  0
LWPOLYLINE
  5
398
100
AcDbEntity
  8
RACCORDO
100
AcDbPolyline
 62
7
  6
CONTINUOUS
 90
3
 70
0
 10
134.9438810565
 20
141.5054304156
 10
134.8670730279
 20
141.5819894183
 10
134.8320805511
 20
141.6173192204
  0
LINE
  5
399
100
AcDbEntity
  8
DRAFT
100
AcDbLine
 62
7
  6
CONTINUOUS
 10
181.1234042052
 20
92.2111303558
 11
181.0234042052
 21
92.3111303558
  0
LINE
  5
39A
100
AcDbEntity
  8
DRAFT
100
AcDbLine
 62
7
  6
CONTINUOUS
 10
181.2063094492
 20
92.2454708323
 11
181.1063094492
 21
92.3454708323
  0
LWPOLYLINE
  5
39B
100
AcDbEntity
  8
RACCORDO
100
AcDbPolyline
 62
7
  6
CONTINUOUS
 90
3
 70
0
 10
181.4688250728
 20
94.4804863992
 10
181.3851996698
 20
94.5639237686
 10
181.2974637001
 20
94.6521856314
  0
LINE
  5
39C
100
AcDbEntity
  8
RACCORDO
100
AcDbLine
 62
7
  6
CONTINUOUS
 10
181.5453840756
 20
94.4036783706
 11
181.4688250728
 21
94.4804863992
  0
LWPOLYLINE
  5
39D
100
AcDbEntity
  8
RACCORDO
100
AcDbPolyline
 62
7
  6
CONTINUOUS
 90
3
 70
0
 10
181.6420587667
 20
94.3070184132
 10
181.5807138777
 20
94.3686858938
 10
181.5453840756
 20
94.4036783706
  0
LINE
  5
39E
100
AcDbEntity
  8
RACCORDO
100
AcDbLine
 62
7
  6
CONTINUOUS
 10
135.1606728831
 20
141.2884505553
 11
135.1155802886
 21
141.3340690429
  0
LINE
  5
39F
100
AcDbEntity
  8
RACCORDO
100
AcDbLine
 62
7
  6
CONTINUOUS
 10
158.1106728831
 20
145.1087009838
 11
157.929580497
 21
146.5580195768
  0
LINE
  5
3A0
100
AcDbEntity
  8
DRAFT
100
AcDbLine
 62
7
  6
CONTINUOUS
 10
111.415036317
 20
72.9490856193
 11
111.497941561
 21
72.9834260958
  0
LINE
  5
3A1
100
AcDbEntity
  8
DRAFT
100
AcDbLine
 62
7
  6
CONTINUOUS
 10
111.515036317
 20
72.8490856193
 11
111.597941561
 21
72.8834260958
  0
LINE
  5
3A2
100
AcDbEntity
  8
DRAFT
100
AcDbLine
 62
7
  6
CONTINUOUS
 10
176.118015381
 20
95.3472782258
 11
175.847839467
 21
95.2395034605
  0
LINE
  5
3A3
100
AcDbEntity
  8
RACCORDO
100
AcDbLine
 62
7
  6
CONTINUOUS
 10
103.5492501251
 20
118.6472782258
 11
102.0999315321
 21
118.4661858397
  0
LINE
  5
3A4
100
AcDbEntity
  8
RACCORDO
100
AcDbLine
 62
7
  6
CONTINUOUS
 10
189.072095641
 20
118.6472782258
 11
190.521414234
 21
118.4661858397
  0
LINE
  5
3A5
100
AcDbEntity
  8
DRAFT
100
AcDbLine
 62
7
  6
CONTINUOUS
 10
176.118015381
 20
117.3472782258
 11
175.847839467
 21
117.4550529911
  0
LINE
  5
3A6
100
AcDbEntity
  8
ASSI
100
AcDbLine
 62
7
  6
CONTINUOUS
 10
168.2106728831
 20
129.1472782258
 11
168.2106728831
 21
131.5472782258
  0
LINE
  5
3A7
100
AcDbEntity
  8
DRAFT
100
AcDbLine
 62
7
  6
CONTINUOUS
 10
155.9925517746
 20
65.4039463055
 11
155.8406728831
 21
65.0372782258
  0
LINE
  5
3A8
100
AcDbEntity
  8
DRAFT
100
AcDbLine
 62
7
  6
CONTINUOUS
 10
156.2125517746
 20
65.1839463055
 11
156.0606728831
 21
64.8172782258
  0
LINE
  5
3A9
100
AcDbEntity
  8
RACCORDO
100
AcDbLine
 62
7
  6
CONTINUOUS
 10
156.9154199566
 20
70.7844980864
 11
156.8106728831
 21
70.5749999507
  0
LINE
  5
3AA
100
AcDbEntity
  8
DRAFT
100
AcDbLine
 62
7
  6
CONTINUOUS
 10
174.8295138904
 20
108.9777856039
 11
174.8106728831
 21
108.9453544372
  0
LINE
  5
3AB
100
AcDbEntity
  8
DRAFT
100
AcDbLine
 62
7
  6
CONTINUOUS
 10
174.8484221848
 20
109.0099354917
 11
174.8295138904
 21
108.9777856039
  0
LINE
  5
3AC
100
AcDbEntity
  8
DRAFT
100
AcDbLine
 62
7
  6
CONTINUOUS
 10
174.8673975237
 20
109.0418137638
 11
174.8484221848
 21
109.0099354917
  0
LWPOLYLINE
  5
3AD
100
AcDbEntity
  8
RACCORDO
100
AcDbPolyline
 62
7
  6
CONTINUOUS
 90
6
 70
0
 10
156.9917652692
 20
77.8454546883
 10
156.9965600961
 20
77.8520894377
 10
157.0095190938
 20
77.8646784872
 10
157.0295324176
 20
77.8832218367
 10
157.0553530329
 20
77.9085037775
 10
157.0859677105
 20
77.9397400183
  0
LINE
  5
3AE
100
AcDbEntity
  8
DRAFT
100
AcDbLine
 62
7
  6
CONTINUOUS
 10
136.6287939916
 20
65.4039463055
 11
136.4087939916
 21
65.1839463055
  0
LINE
  5
3AF
100
AcDbEntity
  8
DRAFT
100
AcDbLine
 62
7
  6
CONTINUOUS
 10
136.7806728831
 20
65.0372782258
 11
136.5606728831
 21
64.8172782258
  0
LINE
  5
3B0
100
AcDbEntity
  8
DRAFT
100
AcDbLine
 62
7
  6
CONTINUOUS
 10
191.4740048034
 20
116.2491571173
 11
191.2540048034
 21
116.0291571173
  0
LINE
  5
3B1
100
AcDbEntity
  8
DRAFT
100
AcDbLine
 62
7
  6
CONTINUOUS
 10
191.8406728831
 20
116.0972782258
 11
191.6206728831
 21
115.8772782258
  0
LINE
  5
3B2
100
AcDbEntity
  8
RACCORDO
100
AcDbLine
 62
7
  6
CONTINUOUS
 10
174.8673975237
 20
95.2395034605
 11
174.7207328361
 21
95.1661725129
  0
LINE
  5
3B3
100
AcDbEntity
  8
RACCORDO
100
AcDbLine
 62
7
  6
CONTINUOUS
 10
174.8673975237
 20
117.4550529911
 11
174.7207594902
 21
117.5283706119
  0
LWPOLYLINE
  5
3B4
100
AcDbEntity
  8
RACCORDO
100
AcDbPolyline
 62
7
  6
CONTINUOUS
 90
6
 70
0
 10
174.7212503277
 20
117.5283706119
 10
174.7140869844
 20
117.5332935237
 10
174.701083465
 20
117.5465413303
 10
174.6822397697
 20
117.5668836687
 10
174.6567983548
 20
117.5929167621
 10
174.6255167638
 20
117.6235628244
  0
LINE
  5
3B5
100
AcDbEntity
  8
DRAFT
100
AcDbLine
 62
7
  6
CONTINUOUS
 10
136.4087939916
 20
147.5106101461
 11
136.6287939916
 21
147.2906101461
  0
LINE
  5
3B6
100
AcDbEntity
  8
DRAFT
100
AcDbLine
 62
7
  6
CONTINUOUS
 10
136.5606728831
 20
147.8772782258
 11
136.7806728831
 21
147.6572782258
  0
LINE
  5
3B7
100
AcDbEntity
  8
DRAFT
100
AcDbLine
 62
7
  6
CONTINUOUS
 10
191.2540048034
 20
96.6653993343
 11
191.4740048034
 21
96.4453993343
  0
LINE
  5
3B8
100
AcDbEntity
  8
DRAFT
100
AcDbLine
 62
7
  6
CONTINUOUS
 10
191.6206728831
 20
96.8172782258
 11
191.8406728831
 21
96.5972782258
  0
LINE
  5
3B9
100
AcDbEntity
  8
DRAFT
100
AcDbLine
 62
7
  6
CONTINUOUS
 10
174.8673975237
 20
103.6527426878
 11
174.8484221848
 21
103.6846209599
  0
LINE
  5
3BA
100
AcDbEntity
  8
DRAFT
100
AcDbLine
 62
7
  6
CONTINUOUS
 10
174.8484221848
 20
103.6846209599
 11
174.8295138904
 21
103.7167708477
  0
LINE
  5
3BB
100
AcDbEntity
  8
DRAFT
100
AcDbLine
 62
7
  6
CONTINUOUS
 10
174.8295138904
 20
103.7167708477
 11
174.8106728831
 21
103.7492020145
  0
LINE
  5
3BC
100
AcDbEntity
  8
DRAFT
100
AcDbLine
 62
7
  6
CONTINUOUS
 10
156.9184476483
 20
141.9040028664
 11
156.8106728831
 21
142.1195565009
  0
LINE
  5
3BD
100
AcDbEntity
  8
DRAFT
100
AcDbLine
 62
7
  6
CONTINUOUS
 10
155.9925517746
 20
147.2906101461
 11
155.8406728831
 21
147.6572782258
  0
LINE
  5
3BE
100
AcDbEntity
  8
DRAFT
100
AcDbLine
 62
7
  6
CONTINUOUS
 10
156.2125517746
 20
147.5106101461
 11
156.0606728831
 21
147.8772782258
  0
LINE
  5
3BF
100
AcDbEntity
  8
ASSI
100
AcDbLine
 62
7
  6
CONTINUOUS
 10
172.4106728831
 20
131.5472782258
 11
172.4106728831
 21
129.1472782258
  0
LINE
  5
3C0
100
AcDbEntity
  8
DRAFT
100
AcDbLine
 62
7
  6
CONTINUOUS
 10
172.7146773374
 20
116.5972782258
 11
172.7146773374
 21
95.7972782258
  0
LINE
  5
3C1
100
AcDbEntity
  8
RACCORDO
100
AcDbLine
 62
250
  6
CONTINUOUS
 10
174.0207594899
 20
94.4661925032
 11
174.0207594899
 21
95.7972782258
  0
LINE
  5
3C2
100
AcDbEntity
  8
RACCORDO
100
AcDbLine
 62
250
  6
CONTINUOUS
 10
174.0207594899
 20
116.5972782258
 11
174.0207594899
 21
118.2283639484
  0
LINE
  5
3C3
100
AcDbEntity
  8
DRAFT
100
AcDbLine
 62
7
  6
CONTINUOUS
 10
174.0234042052
 20
95.7972782258
 11
174.0234042052
 21
96.3334260958
  0
LINE
  5
3C4
100
AcDbEntity
  8
DRAFT
100
AcDbLine
 62
7
  6
CONTINUOUS
 10
174.0234042052
 20
116.0611303558
 11
174.0234042052
 21
116.5972782258
  0
LINE
  5
3C5
100
AcDbEntity
  8
DRAFT
100
AcDbLine
 62
7
  6
CONTINUOUS
 10
174.1063094492
 20
95.7972782258
 11
174.1063094492
 21
96.2990856193
  0
LINE
  5
3C6
100
AcDbEntity
  8
DRAFT
100
AcDbLine
 62
7
  6
CONTINUOUS
 10
174.1063094492
 20
116.0954708323
 11
174.1063094492
 21
116.5972782258
  0
LINE
  5
3C7
100
AcDbEntity
  8
DRAFT
100
AcDbLine
 62
7
  6
CONTINUOUS
 10
174.3234042052
 20
96.6334260958
 11
174.3234042052
 21
115.7611303558
  0
LINE
  5
3C8
100
AcDbEntity
  8
DRAFT
100
AcDbLine
 62
7
  6
CONTINUOUS
 10
174.4063094492
 20
96.5990856193
 11
174.4063094492
 21
115.7954708323
  0
LINE
  5
3C9
100
AcDbEntity
  8
RACCORDO
100
AcDbLine
 62
7
  6
CONTINUOUS
 10
174.7207328361
 20
117.5283839387
 11
174.7207328361
 21
116.5972782258
  0
LINE
  5
3CA
100
AcDbEntity
  8
RACCORDO
100
AcDbLine
 62
7
  6
CONTINUOUS
 10
174.7207328361
 20
95.7972782258
 11
174.7207328361
 21
95.1661725129
  0
LINE
  5
3CB
100
AcDbEntity
  8
DRAFT
100
AcDbLine
 62
7
  6
CONTINUOUS
 10
174.8063094492
 20
95.7972782258
 11
174.8063094492
 21
116.5972782258
  0
LINE
  5
3CC
100
AcDbEntity
  8
DRAFT
100
AcDbLine
 62
7
  6
CONTINUOUS
 10
174.8673975237
 20
95.2395034605
 11
174.8673975237
 21
103.6527426878
  0
LINE
  5
3CD
100
AcDbEntity
  8
DRAFT
100
AcDbLine
 62
7
  6
CONTINUOUS
 10
174.8673975237
 20
109.0418137638
 11
174.8673975237
 21
117.4550529911
  0
LINE
  5
3CE
100
AcDbEntity
  8
RACCORDO
100
AcDbLine
 62
7
  6
CONTINUOUS
 10
157.6416694417
 20
78.4948276357
 11
157.6917586057
 21
78.5454480248
  0
LWPOLYLINE
  5
3CF
100
AcDbEntity
  8
RACCORDO
100
AcDbPolyline
 62
7
  6
CONTINUOUS
 90
3
 70
0
 10
174.0712876673
 20
94.516193292
 10
174.2233874054
 20
94.6688995466
 10
174.3732754115
 20
94.8187871444
  0
LWPOLYLINE
  5
3D0
100
AcDbEntity
  8
RACCORDO
100
AcDbPolyline
 62
7
  6
CONTINUOUS
 90
3
 70
0
 10
174.4211854401
 20
94.8663834341
 10
174.5108087034
 20
94.956311552
 10
174.5525219381
 20
94.9975944232
  0
LWPOLYLINE
  5
3D1
100
AcDbEntity
  8
RACCORDO
100
AcDbPolyline
 62
7
  6
CONTINUOUS
 90
7
 70
0
 10
174.5525219381
 20
94.9975944232
 10
174.6255167638
 20
95.0709936272
 10
174.6567983548
 20
95.1016396895
 10
174.6822397697
 20
95.1276727829
 10
174.701083465
 20
95.1480151213
 10
174.7140869844
 20
95.1612629279
 10
174.7212503277
 20
95.1661858397
  0
LINE
  5
3D2
100
AcDbEntity
  8
DRAFT
100
AcDbLine
 62
7
  6
CONTINUOUS
 10
174.0234042052
 20
96.3334260958
 11
174.3234042052
 21
96.6334260958
  0
LINE
  5
3D3
100
AcDbEntity
  8
DRAFT
100
AcDbLine
 62
7
  6
CONTINUOUS
 10
174.1063094492
 20
96.2990856193
 11
174.4063094492
 21
96.5990856193
  0
LINE
  5
3D4
100
AcDbEntity
  8
DRAFT
100
AcDbLine
 62
7
  6
CONTINUOUS
 10
155.7617572941
 20
77.9446602259
 11
156.0617572941
 21
78.2446602259
  0
LINE
  5
3D5
100
AcDbEntity
  8
DRAFT
100
AcDbLine
 62
7
  6
CONTINUOUS
 10
155.7720591991
 20
77.9197892273
 11
156.0720591991
 21
78.2197892273
  0
LINE
  5
3D6
100
AcDbEntity
  8
RACCORDO
100
AcDbLine
 62
7
  6
CONTINUOUS
 10
174.3732754115
 20
94.8187871444
 11
174.4211854401
 21
94.8663834341
  0
LINE
  5
3D7
100
AcDbEntity
  8
RACCORDO
100
AcDbLine
 62
7
  6
CONTINUOUS
 10
157.2007120285
 20
78.0544718427
 11
157.6416694417
 21
78.4948276357
  0
LWPOLYLINE
  5
3D8
100
AcDbEntity
  8
RACCORDO
100
AcDbPolyline
 62
7
  6
CONTINUOUS
 90
3
 70
0
 10
157.0859677105
 20
77.9397400183
 10
157.1593982686
 20
78.0127240509
 10
157.2007120285
 20
78.0544718427
  0
LINE
  5
3D9
100
AcDbEntity
  8
RACCORDO
100
AcDbLine
 62
7
  6
CONTINUOUS
 10
174.0207594899
 20
94.4661925032
 11
174.0712876673
 21
94.516193292
  0
LINE
  5
3DA
100
AcDbEntity
  8
DRAFT
100
AcDbLine
 62
7
  6
CONTINUOUS
 10
146.3106728831
 20
73.1472782258
 11
147.7606728831
 21
73.9844361161
  0
LINE
  5
3DB
100
AcDbEntity
  8
DRAFT
100
AcDbLine
 62
7
  6
CONTINUOUS
 10
146.3106728831
 20
72.984032139
 11
147.7606728831
 21
73.8211900294
  0
LINE
  5
3DC
100
AcDbEntity
  8
DRAFT
100
AcDbLine
 62
7
  6
CONTINUOUS
 10
191.2540048034
 20
96.6653993343
 11
191.6206728831
 21
96.8172782258
  0
LINE
  5
3DD
100
AcDbEntity
  8
DRAFT
100
AcDbLine
 62
7
  6
CONTINUOUS
 10
181.1063094492
 20
92.3454708323
 11
181.0234042052
 21
92.3111303558
  0
LINE
  5
3DE
100
AcDbEntity
  8
DRAFT
100
AcDbLine
 62
7
  6
CONTINUOUS
 10
181.2063094492
 20
92.2454708323
 11
181.1234042052
 21
92.2111303558
  0
LINE
  5
3DF
100
AcDbEntity
  8
DRAFT
100
AcDbLine
 62
7
  6
CONTINUOUS
 10
191.4740048034
 20
96.4453993343
 11
191.8406728831
 21
96.5972782258
  0
LINE
  5
3E0
100
AcDbEntity
  8
DRAFT
100
AcDbLine
 62
7
  6
CONTINUOUS
 10
146.3106728831
 20
134.8972782258
 11
135.7028981178
 21
134.8930932233
  0
LINE
  5
3E1
100
AcDbEntity
  8
DRAFT
100
AcDbLine
 62
7
  6
CONTINUOUS
 10
135.9106728831
 20
132.8472782258
 11
156.5606728831
 21
132.8472782258
  0
LINE
  5
3E2
100
AcDbEntity
  8
RACCORDO
100
AcDbLine
 62
250
  6
CONTINUOUS
 10
157.6917586057
 20
134.1491084268
 11
156.5606728831
 21
134.1491084268
  0
LINE
  5
3E3
100
AcDbEntity
  8
RACCORDO
100
AcDbLine
 62
250
  6
CONTINUOUS
 10
135.9106728831
 20
134.1491084268
 11
134.9295871604
 21
134.1491084268
  0
LINE
  5
3E4
100
AcDbEntity
  8
DRAFT
100
AcDbLine
 62
7
  6
CONTINUOUS
 10
156.5606728831
 20
134.1498962257
 11
156.0617572941
 21
134.1498962257
  0
LINE
  5
3E5
100
AcDbEntity
  8
DRAFT
100
AcDbLine
 62
7
  6
CONTINUOUS
 10
136.4095820425
 20
134.1498962257
 11
135.9106728831
 21
134.1498962257
  0
LINE
  5
3E6
100
AcDbEntity
  8
DRAFT
100
AcDbLine
 62
7
  6
CONTINUOUS
 10
156.5606728831
 20
134.1747672243
 11
156.0720591991
 21
134.1747672243
  0
LINE
  5
3E7
100
AcDbEntity
  8
DRAFT
100
AcDbLine
 62
7
  6
CONTINUOUS
 10
136.3992190576
 20
134.1747672243
 11
135.9106728831
 21
134.1747672243
  0
LINE
  5
3E8
100
AcDbEntity
  8
DRAFT
100
AcDbLine
 62
7
  6
CONTINUOUS
 10
155.7617572941
 20
134.4498962257
 11
136.7070792375
 21
134.4498962257
  0
LINE
  5
3E9
100
AcDbEntity
  8
DRAFT
100
AcDbLine
 62
7
  6
CONTINUOUS
 10
155.7720591991
 20
134.4747672243
 11
136.6967162526
 21
134.4747672243
  0
LINE
  5
3EA
100
AcDbEntity
  8
RACCORDO
100
AcDbLine
 62
7
  6
CONTINUOUS
 10
135.6295858278
 20
134.849106028
 11
135.9106728831
 21
134.849106028
  0
LINE
  5
3EB
100
AcDbEntity
  8
RACCORDO
100
AcDbLine
 62
7
  6
CONTINUOUS
 10
156.5606728831
 20
134.849106028
 11
156.9917599384
 21
134.849106028
  0
LINE
  5
3EC
100
AcDbEntity
  8
DRAFT
100
AcDbLine
 62
7
  6
CONTINUOUS
 10
156.5606728831
 20
134.8747672243
 11
135.9106728831
 21
134.8747672243
  0
LINE
  5
3ED
100
AcDbEntity
  8
DRAFT
100
AcDbLine
 62
7
  6
CONTINUOUS
 10
156.9184476483
 20
134.8930932233
 11
146.3106728831
 21
134.8972782258
  0
LINE
  5
3EE
100
AcDbEntity
  8
DRAFT
100
AcDbLine
 62
7
  6
CONTINUOUS
 10
191.2540048034
 20
116.0291571173
 11
191.6206728831
 21
115.8772782258
  0
LINE
  5
3EF
100
AcDbEntity
  8
DRAFT
100
AcDbLine
 62
7
  6
CONTINUOUS
 10
191.4740048034
 20
116.2491571173
 11
191.8406728831
 21
116.0972782258
  0
LINE
  5
3F0
100
AcDbEntity
  8
DRAFT
100
AcDbLine
 62
7
  6
CONTINUOUS
 10
147.7606728831
 20
138.7101203355
 11
146.3106728831
 21
139.5472782258
  0
LINE
  5
3F1
100
AcDbEntity
  8
DRAFT
100
AcDbLine
 62
7
  6
CONTINUOUS
 10
147.7606728831
 20
138.8733664223
 11
146.3106728831
 21
139.7105243126
  0
LWPOLYLINE
  5
3F2
100
AcDbEntity
  8
DRAFT
100
AcDbPolyline
 62
7
  6
CONTINUOUS
 90
3
 70
0
 10
136.0606728831
 20
146.7506101461
 10
136.094332151
 20
146.7288935813
 10
136.1676253198
 20
146.7072231749
  0
LINE
  5
3F3
100
AcDbEntity
  8
RACCORDO
100
AcDbLine
 62
7
  6
CONTINUOUS
 10
174.0712876673
 20
118.1783631596
 11
174.0207594899
 21
118.2283639484
  0
LWPOLYLINE
  5
3F4
100
AcDbEntity
  8
RACCORDO
100
AcDbPolyline
 62
7
  6
CONTINUOUS
 90
7
 70
0
 10
157.1592406777
 20
134.6819917026
 10
157.0858180988
 20
134.7549561932
 10
157.0552076948
 20
134.7861835761
 10
157.0294189994
 20
134.8114480331
 10
157.0094558311
 20
134.8299625579
 10
156.9965406904
 20
134.8425141567
 10
156.9917652692
 20
134.8491028295
  0
LWPOLYLINE
  5
3F5
100
AcDbEntity
  8
RACCORDO
100
AcDbPolyline
 62
7
  6
CONTINUOUS
 90
3
 70
0
 10
157.6416133552
 20
134.1997854718
 10
157.4884878549
 20
134.3522993148
 10
157.3382598453
 20
134.5025282096
  0
LWPOLYLINE
  5
3F6
100
AcDbEntity
  8
RACCORDO
100
AcDbPolyline
 62
7
  6
CONTINUOUS
 90
3
 70
0
 10
157.2905815865
 20
134.5505228485
 10
157.2005429656
 20
134.640254595
 10
157.1592406777
 20
134.6819917026
  0
LINE
  5
3F7
100
AcDbEntity
  8
DRAFT
100
AcDbLine
 62
7
  6
CONTINUOUS
 10
174.3234042052
 20
115.7611303558
 11
174.0234042052
 21
116.0611303558
  0
LINE
  5
3F8
100
AcDbEntity
  8
DRAFT
100
AcDbLine
 62
7
  6
CONTINUOUS
 10
174.4063094492
 20
115.7954708323
 11
174.1063094492
 21
116.0954708323
  0
LINE
  5
3F9
100
AcDbEntity
  8
DRAFT
100
AcDbLine
 62
7
  6
CONTINUOUS
 10
156.0617572941
 20
134.1498962257
 11
155.7617572941
 21
134.4498962257
  0
LINE
  5
3FA
100
AcDbEntity
  8
DRAFT
100
AcDbLine
 62
7
  6
CONTINUOUS
 10
156.0720591991
 20
134.1747672243
 11
155.7720591991
 21
134.4747672243
  0
LINE
  5
3FB
100
AcDbEntity
  8
RACCORDO
100
AcDbLine
 62
7
  6
CONTINUOUS
 10
157.3382598453
 20
134.5025282096
 11
157.2905815865
 21
134.5505228485
  0
LINE
  5
3FC
100
AcDbEntity
  8
RACCORDO
100
AcDbLine
 62
7
  6
CONTINUOUS
 10
174.5108087034
 20
117.7382448996
 11
174.0712876673
 21
118.1783631596
  0
LWPOLYLINE
  5
3FD
100
AcDbEntity
  8
RACCORDO
100
AcDbPolyline
 62
7
  6
CONTINUOUS
 90
3
 70
0
 10
174.6255167638
 20
117.6235628244
 10
174.5525219381
 20
117.6969620284
 10
174.5108087034
 20
117.7382448996
  0
LINE
  5
3FE
100
AcDbEntity
  8
RACCORDO
100
AcDbLine
 62
7
  6
CONTINUOUS
 10
157.6917586057
 20
134.1491084268
 11
157.6416133552
 21
134.1997854718
  0
LINE
  5
3FF
100
AcDbEntity
  8
DRAFT
100
AcDbLine
 62
7
  6
CONTINUOUS
 10
179.7146773374
 20
92.8472782258
 11
179.7146773374
 21
72.3472782258
  0
LWPOLYLINE
  5
400
100
AcDbEntity
  8
DRAFT
100
AcDbPolyline
 62
7
  6
CONTINUOUS
 90
3
 70
0
 10
190.7140048034
 20
116.5972782258
 10
190.6922882386
 20
116.5636189579
 10
190.6706178321
 20
116.4903257891
  0
LINE
  5
401
100
AcDbEntity
  8
RACCORDO
100
AcDbLine
 62
7
  6
CONTINUOUS
 10
181.2518452126
 20
94.6972782258
 11
181.0207594899
 21
94.4661925032
  0
LINE
  5
402
100
AcDbEntity
  8
RACCORDO
100
AcDbLine
 62
7
  6
CONTINUOUS
 10
157.6917586057
 20
71.6371916189
 11
157.4606728831
 21
71.4061058963
  0
LINE
  5
403
100
AcDbEntity
  8
RACCORDO
100
AcDbLine
 62
7
  6
CONTINUOUS
 10
156.9184476483
 20
77.8014632283
 11
156.9917652692
 21
77.8454536221
  0
LINE
  5
404
100
AcDbEntity
  8
RACCORDO
100
AcDbLine
 62
7
  6
CONTINUOUS
 10
156.9184476483
 20
134.8930932233
 11
156.9917599384
 21
134.849106028
  0
LINE
  5
405
100
AcDbEntity
  8
RACCORDO
100
AcDbLine
 62
7
  6
CONTINUOUS
 10
157.4606728831
 20
141.2884505553
 11
157.6917586057
 21
141.0573648327
  0
LINE
  5
406
100
AcDbEntity
  8
RACCORDO
100
AcDbLine
 62
7
  6
CONTINUOUS
 10
181.2518452126
 20
117.9972782258
 11
181.0207594899
 21
118.2283639484
  0
LINE
  5
407
100
AcDbEntity
  8
RACCORDO
100
AcDbLine
 62
250
  6
CONTINUOUS
 10
181.7146507958
 20
141.149385569
 11
181.7207328361
 21
141.0573648327
  0
LINE
  5
408
100
AcDbEntity
  8
RACCORDO
100
AcDbLine
 62
250
  6
CONTINUOUS
 10
181.0207594899
 20
70.9372182728
 11
181.0207594899
 21
72.3472782258
  0
LINE
  5
409
100
AcDbEntity
  8
RACCORDO
100
AcDbLine
 62
250
  6
CONTINUOUS
 10
181.0207594899
 20
92.8472782258
 11
181.0207594899
 21
94.4661925032
  0
LINE
  5
40A
100
AcDbEntity
  8
RACCORDO
100
AcDbLine
 62
250
  6
CONTINUOUS
 10
181.0207594899
 20
118.2283639484
 11
181.0207594899
 21
141.7573381788
  0
LINE
  5
40B
100
AcDbEntity
  8
DRAFT
100
AcDbLine
 62
7
  6
CONTINUOUS
 10
181.0234042052
 20
72.3472782258
 11
181.0234042052
 21
72.8834260958
  0
LINE
  5
40C
100
AcDbEntity
  8
DRAFT
100
AcDbLine
 62
7
  6
CONTINUOUS
 10
181.0234042052
 20
92.3111303558
 11
181.0234042052
 21
92.8472782258
  0
LINE
  5
40D
100
AcDbEntity
  8
DRAFT
100
AcDbLine
 62
7
  6
CONTINUOUS
 10
181.1063094492
 20
72.3472782258
 11
181.1063094492
 21
72.8490856193
  0
LINE
  5
40E
100
AcDbEntity
  8
DRAFT
100
AcDbLine
 62
7
  6
CONTINUOUS
 10
181.1063094492
 20
92.3454708323
 11
181.1063094492
 21
92.8472782258
  0
LINE
  5
40F
100
AcDbEntity
  8
DRAFT
100
AcDbLine
 62
7
  6
CONTINUOUS
 10
181.1234042052
 20
72.9834260958
 11
181.1234042052
 21
92.2111303558
  0
LINE
  5
410
100
AcDbEntity
  8
DRAFT
100
AcDbLine
 62
7
  6
CONTINUOUS
 10
181.2063094492
 20
72.9490856193
 11
181.2063094492
 21
92.2454708323
  0
LINE
  5
411
100
AcDbEntity
  8
RACCORDO
100
AcDbLine
 62
7
  6
CONTINUOUS
 10
181.7207328361
 20
141.0573648327
 11
181.7207328361
 21
118.4661725129
  0
LINE
  5
412
100
AcDbEntity
  8
RACCORDO
100
AcDbLine
 62
7
  6
CONTINUOUS
 10
181.7207328361
 20
94.2283839387
 11
181.7207328361
 21
92.8472782258
  0
LINE
  5
413
100
AcDbEntity
  8
RACCORDO
100
AcDbLine
 62
7
  6
CONTINUOUS
 10
181.7207328361
 20
72.3472782258
 11
181.7207328361
 21
71.6371916189
  0
LINE
  5
414
100
AcDbEntity
  8
DRAFT
100
AcDbLine
 62
7
  6
CONTINUOUS
 10
181.8063094492
 20
92.8472782258
 11
181.8063094492
 21
72.3472782258
  0
LINE
  5
415
100
AcDbEntity
  8
RACCORDO
100
AcDbLine
 62
7
  6
CONTINUOUS
 10
182.0829511581
 20
71.2749732969
 11
182.0829511581
 21
94.0472782258
  0
LINE
  5
416
100
AcDbEntity
  8
RACCORDO
100
AcDbLine
 62
7
  6
CONTINUOUS
 10
182.0829511581
 20
118.6472782258
 11
182.0829511581
 21
141.4195831547
  0
LINE
  5
417
100
AcDbEntity
  8
RACCORDO
100
AcDbLine
 62
250
  6
CONTINUOUS
 10
181.7207328361
 20
71.6371916189
 11
181.7146507958
 21
71.5451708826
  0
LINE
  5
418
100
AcDbEntity
  8
RACCORDO
100
AcDbLine
 62
250
  6
CONTINUOUS
 10
111.5944776973
 20
141.7573110587
 11
111.6005862762
 21
141.7573381788
  0
LINE
  5
419
100
AcDbEntity
  8
RACCORDO
100
AcDbLine
 62
250
  6
CONTINUOUS
 10
181.7207328361
 20
141.0573648327
 11
157.6917586057
 21
141.0573648327
  0
LINE
  5
41A
100
AcDbEntity
  8
RACCORDO
100
AcDbLine
 62
250
  6
CONTINUOUS
 10
110.90061293
 20
141.0573648327
 11
134.9295871604
 21
141.0573648327
  0
LINE
  5
41B
100
AcDbEntity
  8
RACCORDO
100
AcDbLine
 62
7
  6
CONTINUOUS
 10
111.6005862762
 20
141.7573381788
 11
134.691778596
 21
141.7573381788
  0
LINE
  5
41C
100
AcDbEntity
  8
RACCORDO
100
AcDbLine
 62
7
  6
CONTINUOUS
 10
157.9295671702
 20
141.7573381788
 11
181.0207594899
 21
141.7573381788
  0
LINE
  5
41D
100
AcDbEntity
  8
DRAFT
100
AcDbLine
 62
7
  6
CONTINUOUS
 10
156.9184476483
 20
141.9040028664
 11
147.7606728831
 21
141.9040028664
  0
LINE
  5
41E
100
AcDbEntity
  8
DRAFT
100
AcDbLine
 62
7
  6
CONTINUOUS
 10
144.8606728831
 20
141.9040028664
 11
135.7028981178
 21
141.9040028664
  0
LINE
  5
41F
100
AcDbEntity
  8
RACCORDO
100
AcDbLine
 62
7
  6
CONTINUOUS
 10
181.382977812
 20
142.1195565009
 11
158.1106728831
 21
142.1195565009
  0
LINE
  5
420
100
AcDbEntity
  8
DRAFT
100
AcDbLine
 62
7
  6
CONTINUOUS
 10
156.8106728831
 20
142.1195565009
 11
147.7606728831
 21
142.1195565009
  0
LINE
  5
421
100
AcDbEntity
  8
DRAFT
100
AcDbLine
 62
7
  6
CONTINUOUS
 10
144.8606728831
 20
142.1195565009
 11
135.8106728831
 21
142.1195565009
  0
LINE
  5
422
100
AcDbEntity
  8
RACCORDO
100
AcDbLine
 62
7
  6
CONTINUOUS
 10
134.5106728831
 20
142.1195565009
 11
111.2383679541
 21
142.1195565009
  0
LWPOLYLINE
  5
423
100
AcDbEntity
  8
RACCORDO
100
AcDbPolyline
 62
7
  6
CONTINUOUS
 90
12
 70
0
 10
181.0207594899
 20
141.7573381788
 10
181.1124536155
 20
141.7512993984
 10
181.2025440385
 20
141.7333073958
 10
181.2894807832
 20
141.7036813958
 10
181.3717556306
 20
141.6629488657
 10
181.4479738378
 20
141.6118145689
 10
181.5168659684
 20
141.5511296945
 10
181.5773357831
 20
141.4818050944
 10
181.6282063266
 20
141.40512747
 10
181.6684298871
 20
141.3228070259
 10
181.6974202765
 20
141.2364581271
 10
181.7146507958
 20
141.149385569
  0
LWPOLYLINE
  5
424
100
AcDbEntity
  8
DRAFT
100
AcDbPolyline
 62
7
  6
CONTINUOUS
 90
46
 70
0
 10
136.1676253198
 20
146.7072231749
 10
136.2805523895
 20
146.6855989269
 10
136.4329927786
 20
146.6638961342
 10
136.6250670686
 20
146.6422394999
 10
136.8571370038
 20
146.6210031332
 10
137.1299030026
 20
146.6002127305
 10
137.4426646466
 20
146.5798425953
 10
137.7936824242
 20
146.560189748
 10
138.1850902833
 20
146.5412215217
 10
138.614754276
 20
146.5229705833
 10
139.0745330472
 20
146.5058319541
 10
139.5635200509
 20
146.489888362
 10
140.082621833
 20
146.4750570792
 10
140.6264166756
 20
146.461484943
 10
141.1961738775
 20
146.4491663589
 10
141.7906241399
 20
146.4381069213
 10
142.4005378489
 20
146.428470251
 10
143.0248984802
 20
146.4202906336
 10
143.6647225581
 20
146.4135337833
 10
144.3138300414
 20
146.4082604636
 10
144.973255385
 20
146.4044774382
 10
145.641964134
 20
146.4021779433
 10
146.3106728831
 20
146.4014024512
 10
146.9793816321
 20
146.4021779433
 10
147.6480903811
 20
146.4044774382
 10
148.3075157247
 20
146.4082604636
 10
148.9566232081
 20
146.4135337833
 10
149.596447286
 20
146.4202906336
 10
150.2208079173
 20
146.428470251
 10
150.8307216263
 20
146.4381069213
 10
151.4251718886
 20
146.4491663589
 10
151.9949290905
 20
146.461484943
 10
152.5387239331
 20
146.4750570792
 10
153.0578257152
 20
146.489888362
 10
153.546812719
 20
146.5058319541
 10
154.0065914901
 20
146.5229705833
 10
154.4362554828
 20
146.5412215217
 10
154.827663342
 20
146.560189748
 10
155.1786811196
 20
146.5798425953
 10
155.4914427635
 20
146.6002127305
 10
155.7642087624
 20
146.6210031332
 10
155.9962786975
 20
146.6422394999
 10
156.1883529875
 20
146.6638961342
 10
156.3407933767
 20
146.6855989269
 10
156.4537204463
 20
146.7072231749
 10
156.5270136151
 20
146.7288935813
  0
LWPOLYLINE
  5
425
100
AcDbEntity
  8
DRAFT
100
AcDbPolyline
 62
7
  6
CONTINUOUS
 90
46
 70
0
 10
190.6706178321
 20
116.4903257891
 10
190.6489935841
 20
116.3773987194
 10
190.6272907914
 20
116.2249583303
 10
190.6056341572
 20
116.0328840403
 10
190.5843977905
 20
115.8008141051
 10
190.5636073877
 20
115.5280481063
 10
190.5432372525
 20
115.2152864623
 10
190.5235844053
 20
114.8642686847
 10
190.5046161789
 20
114.4728608256
 10
190.4863652405
 20
114.0431968328
 10
190.4692266113
 20
113.5834180617
 10
190.4532830193
 20
113.094431058
 10
190.4384517365
 20
112.5753292759
 10
190.4248796002
 20
112.0315344333
 10
190.4125610161
 20
111.4617772314
 10
190.4015015786
 20
110.867326969
 10
190.3918649082
 20
110.25741326
 10
190.3836852908
 20
109.6330526287
 10
190.3769284406
 20
108.9932285508
 10
190.3716551209
 20
108.3441210675
 10
190.3678720955
 20
107.6846957239
 10
190.3655726006
 20
107.0159869748
 10
190.3647971085
 20
106.3472782258
 10
190.3655726006
 20
105.6785694768
 10
190.3678720955
 20
105.0098607277
 10
190.3716551209
 20
104.3504353842
 10
190.3769284406
 20
103.7013279008
 10
190.3836852908
 20
103.0615038229
 10
190.3918649082
 20
102.4371431916
 10
190.4015015786
 20
101.8272294826
 10
190.4125610161
 20
101.2327792202
 10
190.4248796002
 20
100.6630220184
 10
190.4384517365
 20
100.1192271757
 10
190.4532830193
 20
99.6001253936
 10
190.4692266113
 20
99.1111383899
 10
190.4863652405
 20
98.6513596188
 10
190.5046161789
 20
98.221695626
 10
190.5235844053
 20
97.8302877669
 10
190.5432372525
 20
97.4792699893
 10
190.5636073877
 20
97.1665083453
 10
190.5843977905
 20
96.8937423465
 10
190.6056341572
 20
96.6616724114
 10
190.6272907914
 20
96.4695981213
 10
190.6489935841
 20
96.3171577322
 10
190.6706178321
 20
96.2042306625
 10
190.6922882386
 20
96.1309374937
  0
LWPOLYLINE
  5
426
100
AcDbEntity
  8
RACCORDO
100
AcDbPolyline
 62
7
  6
CONTINUOUS
 90
12
 70
0
 10
181.7146507958
 20
71.5451708826
 10
181.6974202765
 20
71.4580983245
 10
181.6684298871
 20
71.3717494258
 10
181.6282063266
 20
71.2894289816
 10
181.5773357831
 20
71.2127513572
 10
181.5168659684
 20
71.1434267571
 10
181.4479738378
 20
71.0827418827
 10
181.3717556306
 20
71.0316075859
 10
181.2894807832
 20
70.9908750558
 10
181.2025440385
 20
70.9612490558
 10
181.1124536155
 20
70.9432570532
 10
181.0268680689
 20
70.9372453929
  0
LINE
  5
427
100
AcDbEntity
  8
DRAFT
100
AcDbLine
 62
7
  6
CONTINUOUS
 10
103.5492501251
 20
145.1087009838
 11
134.5106728831
 21
145.1087009838
  0
LINE
  5
428
100
AcDbEntity
  8
DRAFT
100
AcDbLine
 62
7
  6
CONTINUOUS
 10
135.8106728831
 20
145.1087009838
 11
156.8106728831
 21
145.1087009838
  0
LINE
  5
429
100
AcDbEntity
  8
DRAFT
100
AcDbLine
 62
7
  6
CONTINUOUS
 10
158.1106728831
 20
145.1087009838
 11
189.072095641
 21
145.1087009838
  0
LINE
  5
42A
100
AcDbEntity
  8
DRAFT
100
AcDbLine
 62
7
  6
CONTINUOUS
 10
102.0406728831
 20
146.6172782258
 11
136.0606728831
 21
146.6172782258
  0
LINE
  5
42B
100
AcDbEntity
  8
DRAFT
100
AcDbLine
 62
7
  6
CONTINUOUS
 10
156.5606728831
 20
146.6172782258
 11
190.5806728831
 21
146.6172782258
  0
LINE
  5
42C
100
AcDbEntity
  8
DRAFT
100
AcDbLine
 62
7
  6
CONTINUOUS
 10
136.0606728831
 20
146.7506101461
 11
156.5606728831
 21
146.7506101461
  0
LINE
  5
42D
100
AcDbEntity
  8
DRAFT
100
AcDbLine
 62
7
  6
CONTINUOUS
 10
136.6287939916
 20
147.2906101461
 11
155.9925517746
 21
147.2906101461
  0
LINE
  5
42E
100
AcDbEntity
  8
DRAFT
100
AcDbLine
 62
7
  6
CONTINUOUS
 10
136.0606728831
 20
147.5106101461
 11
136.4087939916
 21
147.5106101461
  0
LINE
  5
42F
100
AcDbEntity
  8
DRAFT
100
AcDbLine
 62
7
  6
CONTINUOUS
 10
156.2125517746
 20
147.5106101461
 11
156.5606728831
 21
147.5106101461
  0
LINE
  5
430
100
AcDbEntity
  8
DRAFT
100
AcDbLine
 62
7
  6
CONTINUOUS
 10
136.7806728831
 20
147.6572782258
 11
155.8406728831
 21
147.6572782258
  0
LINE
  5
431
100
AcDbEntity
  8
DRAFT
100
AcDbLine
 62
7
  6
CONTINUOUS
 10
136.0606728831
 20
147.8772782258
 11
136.5606728831
 21
147.8772782258
  0
LINE
  5
432
100
AcDbEntity
  8
DRAFT
100
AcDbLine
 62
7
  6
CONTINUOUS
 10
156.0606728831
 20
147.8772782258
 11
156.5606728831
 21
147.8772782258
  0
LINE
  5
433
100
AcDbEntity
  8
RACCORDO
100
AcDbLine
 62
7
  6
CONTINUOUS
 10
100.940246462
 20
148.4172782258
 11
191.6810993042
 21
148.4172782258
  0
LINE
  5
434
100
AcDbEntity
  8
DRAFT
100
AcDbLine
 62
7
  6
CONTINUOUS
 10
189.072095641
 20
145.1087009838
 11
189.072095641
 21
118.6472782258
  0
LINE
  5
435
100
AcDbEntity
  8
DRAFT
100
AcDbLine
 62
7
  6
CONTINUOUS
 10
189.072095641
 20
117.3472782258
 11
189.072095641
 21
95.3472782258
  0
LINE
  5
436
100
AcDbEntity
  8
DRAFT
100
AcDbLine
 62
7
  6
CONTINUOUS
 10
189.072095641
 20
94.0472782258
 11
189.072095641
 21
67.5858554679
  0
LINE
  5
437
100
AcDbEntity
  8
DRAFT
100
AcDbLine
 62
7
  6
CONTINUOUS
 10
190.469559417
 20
67.5151186596
 11
190.469559417
 21
82.0972782258
  0
LINE
  5
438
100
AcDbEntity
  8
DRAFT
100
AcDbLine
 62
7
  6
CONTINUOUS
 10
190.5806728831
 20
146.6172782258
 11
190.5806728831
 21
116.5972782258
  0
LINE
  5
439
100
AcDbEntity
  8
DRAFT
100
AcDbLine
 62
7
  6
CONTINUOUS
 10
190.5806728831
 20
96.0972782258
 11
190.5806728831
 21
92.0972782258
  0
LINE
  5
43A
100
AcDbEntity
  8
DRAFT
100
AcDbLine
 62
7
  6
CONTINUOUS
 10
190.5806728831
 20
66.5972782258
 11
190.5806728831
 21
66.0772782258
  0
LINE
  5
43B
100
AcDbEntity
  8
DRAFT
100
AcDbLine
 62
7
  6
CONTINUOUS
 10
190.7140048034
 20
116.5972782258
 11
190.7140048034
 21
96.0972782258
  0
LINE
  5
43C
100
AcDbEntity
  8
DRAFT
100
AcDbLine
 62
7
  6
CONTINUOUS
 10
190.7140048034
 20
87.0972782258
 11
190.7140048034
 21
82.0972782258
  0
LINE
  5
43D
100
AcDbEntity
  8
DRAFT
100
AcDbLine
 62
7
  6
CONTINUOUS
 10
190.809559417
 20
67.5151186596
 11
190.809559417
 21
81.4304097116
  0
LINE
  5
43E
100
AcDbEntity
  8
DRAFT
100
AcDbLine
 62
7
  6
CONTINUOUS
 10
191.0540048034
 20
67.3653993343
 11
191.0540048034
 21
81.3291571173
  0
LINE
  5
43F
100
AcDbEntity
  8
DRAFT
100
AcDbLine
 62
7
  6
CONTINUOUS
 10
191.0806728831
 20
92.0972782258
 11
191.0806728831
 21
87.0972782258
  0
LINE
  5
440
100
AcDbEntity
  8
DRAFT
100
AcDbLine
 62
7
  6
CONTINUOUS
 10
191.229559417
 20
81.8504097116
 11
191.229559417
 21
82.0972782258
  0
LINE
  5
441
100
AcDbEntity
  8
DRAFT
100
AcDbLine
 62
7
  6
CONTINUOUS
 10
191.2540048034
 20
116.0291571173
 11
191.2540048034
 21
96.6653993343
  0
LINE
  5
442
100
AcDbEntity
  8
DRAFT
100
AcDbLine
 62
7
  6
CONTINUOUS
 10
191.2540048034
 20
86.5291571173
 11
191.2540048034
 21
82.0972782258
  0
LINE
  5
443
100
AcDbEntity
  8
DRAFT
100
AcDbLine
 62
7
  6
CONTINUOUS
 10
191.2540048034
 20
81.5291571173
 11
191.2540048034
 21
67.1653993343
  0
LINE
  5
444
100
AcDbEntity
  8
DRAFT
100
AcDbLine
 62
7
  6
CONTINUOUS
 10
191.4740048034
 20
116.5972782258
 11
191.4740048034
 21
116.2491571173
  0
LINE
  5
445
100
AcDbEntity
  8
DRAFT
100
AcDbLine
 62
7
  6
CONTINUOUS
 10
191.4740048034
 20
96.4453993343
 11
191.4740048034
 21
96.0972782258
  0
LINE
  5
446
100
AcDbEntity
  8
DRAFT
100
AcDbLine
 62
7
  6
CONTINUOUS
 10
191.4740048034
 20
87.0972782258
 11
191.4740048034
 21
86.7491571173
  0
LINE
  5
447
100
AcDbEntity
  8
DRAFT
100
AcDbLine
 62
7
  6
CONTINUOUS
 10
191.6206728831
 20
115.8772782258
 11
191.6206728831
 21
96.8172782258
  0
LINE
  5
448
100
AcDbEntity
  8
DRAFT
100
AcDbLine
 62
7
  6
CONTINUOUS
 10
191.6206728831
 20
86.3772782258
 11
191.6206728831
 21
82.0972782258
  0
LINE
  5
449
100
AcDbEntity
  8
DRAFT
100
AcDbLine
 62
7
  6
CONTINUOUS
 10
191.6206728831
 20
81.3772782258
 11
191.6206728831
 21
67.3172782258
  0
LINE
  5
44A
100
AcDbEntity
  8
DRAFT
100
AcDbLine
 62
7
  6
CONTINUOUS
 10
191.8406728831
 20
116.5972782258
 11
191.8406728831
 21
116.0972782258
  0
LINE
  5
44B
100
AcDbEntity
  8
DRAFT
100
AcDbLine
 62
7
  6
CONTINUOUS
 10
191.8406728831
 20
96.5972782258
 11
191.8406728831
 21
96.0972782258
  0
LINE
  5
44C
100
AcDbEntity
  8
DRAFT
100
AcDbLine
 62
7
  6
CONTINUOUS
 10
191.8406728831
 20
87.0972782258
 11
191.8406728831
 21
86.5972782258
  0
LINE
  5
44D
100
AcDbEntity
  8
DRAFT
100
AcDbLine
 62
7
  6
CONTINUOUS
 10
191.8406728831
 20
67.0972782258
 11
191.8406728831
 21
66.5972782258
  0
LINE
  5
44E
100
AcDbEntity
  8
DRAFT
100
AcDbLine
 62
7
  6
CONTINUOUS
 10
191.8406728831
 20
81.5972782258
 11
191.8406728831
 21
82.0972782258
  0
LINE
  5
44F
100
AcDbEntity
  8
RACCORDO
100
AcDbLine
 62
7
  6
CONTINUOUS
 10
192.3806728831
 20
147.7177046469
 11
192.3806728831
 21
64.9768518047
  0
LINE
  5
450
100
AcDbEntity
  8
DRAFT
100
AcDbLine
 62
7
  6
CONTINUOUS
 10
191.4740048034
 20
86.7491571173
 11
191.2540048034
 21
86.5291571173
  0
LINE
  5
451
100
AcDbEntity
  8
DRAFT
100
AcDbLine
 62
7
  6
CONTINUOUS
 10
191.8406728831
 20
86.5972782258
 11
191.6206728831
 21
86.3772782258
  0
LINE
  5
452
100
AcDbEntity
  8
DRAFT
100
AcDbLine
 62
7
  6
CONTINUOUS
 10
181.0234042052
 20
72.8834260958
 11
181.1234042052
 21
72.9834260958
  0
LINE
  5
453
100
AcDbEntity
  8
DRAFT
100
AcDbLine
 62
7
  6
CONTINUOUS
 10
181.1063094492
 20
72.8490856193
 11
181.2063094492
 21
72.9490856193
  0
LINE
  5
454
100
AcDbEntity
  8
DRAFT
100
AcDbLine
 62
7
  6
CONTINUOUS
 10
190.809559417
 20
81.4304097116
 11
191.229559417
 21
81.8504097116
  0
LINE
  5
455
100
AcDbEntity
  8
DRAFT
100
AcDbLine
 62
7
  6
CONTINUOUS
 10
191.0540048034
 20
81.3291571173
 11
191.2540048034
 21
81.5291571173
  0
LINE
  5
456
100
AcDbEntity
  8
DRAFT
100
AcDbLine
 62
7
  6
CONTINUOUS
 10
191.6206728831
 20
81.3772782258
 11
191.8406728831
 21
81.5972782258
  0
LINE
  5
457
100
AcDbEntity
  8
DRAFT
100
AcDbLine
 62
7
  6
CONTINUOUS
 10
191.0540048034
 20
67.3653993343
 11
190.8323496171
 21
67.27358675
  0
LINE
  5
458
100
AcDbEntity
  8
DRAFT
100
AcDbLine
 62
7
  6
CONTINUOUS
 10
191.2540048034
 20
67.1653993343
 11
191.6206728831
 21
67.3172782258
  0
LINE
  5
459
100
AcDbEntity
  8
DRAFT
100
AcDbLine
 62
7
  6
CONTINUOUS
 10
191.8406728831
 20
67.0972782258
 11
191.3030760156
 21
66.8745983122
  0
CIRCLE
  5
45A
100
AcDbEntity
  8
ASSI
100
AcDbCircle
 62
7
  6
CONTINUOUS
 10
122.3106728831
 20
82.3472782258
 40
6.75
  0
CIRCLE
  5
45B
100
AcDbEntity
  8
ASSI
100
AcDbCircle
 62
7
  6
CONTINUOUS
 10
122.3106728831
 20
82.3472782258
 40
4.75
  0
ARC
  5
45C
100
AcDbEntity
  8
ASSI
100
AcDbCircle
 62
7
  6
CONTINUOUS
 10
123.5106728831
 20
82.3472782258
 40
2.1
100
AcDbArc
 50
270.0
 51
90.0
  0
ARC
  5
45D
100
AcDbEntity
  8
ASSI
100
AcDbCircle
 62
7
  6
CONTINUOUS
 10
121.1106728831
 20
82.3472782258
 40
2.1
100
AcDbArc
 50
90.0
 51
270.0
  0
CIRCLE
  5
45E
100
AcDbEntity
  8
ASSI
100
AcDbCircle
 62
7
  6
CONTINUOUS
 10
131.3106728831
 20
106.3472782258
 40
10.25
  0
CIRCLE
  5
45F
100
AcDbEntity
  8
ASSI
100
AcDbCircle
 62
7
  6
CONTINUOUS
 10
131.3106728831
 20
106.3472782258
 40
9.75
  0
CIRCLE
  5
460
100
AcDbEntity
  8
ASSI
100
AcDbCircle
 62
7
  6
CONTINUOUS
 10
131.3106728831
 20
106.3472782258
 40
9.25
  0
CIRCLE
  5
461
100
AcDbEntity
  8
ASSI
100
AcDbCircle
 62
7
  6
CONTINUOUS
 10
122.3106728831
 20
130.3472782258
 40
6.75
  0
CIRCLE
  5
462
100
AcDbEntity
  8
ASSI
100
AcDbCircle
 62
7
  6
CONTINUOUS
 10
122.3106728831
 20
130.3472782258
 40
4.75
  0
ARC
  5
463
100
AcDbEntity
  8
DRAFT
100
AcDbCircle
 62
7
  6
CONTINUOUS
 10
116.3106728831
 20
106.3472782258
 40
3.8222782751
100
AcDbArc
 50
114.4350787189
 51
245.5649212811
  0
ARC
  5
464
100
AcDbEntity
  8
DRAFT
100
AcDbCircle
 62
7
  6
CONTINUOUS
 10
116.3106728831
 20
106.3472782258
 40
3.6067246406
100
AcDbArc
 50
112.5012556499
 51
247.4987443501
  0
ARC
  5
465
100
AcDbEntity
  8
DRAFT
100
AcDbCircle
 62
7
  6
CONTINUOUS
 10
116.3106728831
 20
106.3472782258
 40
3.0567246406
100
AcDbArc
 50
61.8251410554
 51
298.1748589446
  0
ARC
  5
466
100
AcDbEntity
  8
DRAFT
100
AcDbCircle
 62
7
  6
CONTINUOUS
 10
116.3106728831
 20
106.3472782258
 40
3.0
100
AcDbArc
 50
60.0
 51
300.0
  0
ARC
  5
467
100
AcDbEntity
  8
ASSI
100
AcDbCircle
 62
7
  6
CONTINUOUS
 10
122.3106728831
 20
131.5472782258
 40
2.1
100
AcDbArc
 50
0.0
 51
180.0
  0
ARC
  5
468
100
AcDbEntity
  8
ASSI
100
AcDbCircle
 62
7
  6
CONTINUOUS
 10
122.3106728831
 20
129.1472782258
 40
2.1
100
AcDbArc
 50
180.0
 51
360.0
  0
CIRCLE
  5
469
100
AcDbEntity
  8
DRAFT
100
AcDbCircle
 62
7
  6
CONTINUOUS
 10
116.3106728831
 20
106.3472782258
 40
1.5
  0
CIRCLE
  5
46A
100
AcDbEntity
  8
SMUSSO
100
AcDbCircle
 62
7
  6
CONTINUOUS
 10
116.3106728831
 20
106.3472782258
 40
1.4345107419
  0
CIRCLE
  5
46B
100
AcDbEntity
  8
ASSI
100
AcDbCircle
 62
7
  6
CONTINUOUS
 10
170.3106728831
 20
82.3472782258
 40
6.75
  0
CIRCLE
  5
46C
100
AcDbEntity
  8
ASSI
100
AcDbCircle
 62
7
  6
CONTINUOUS
 10
170.3106728831
 20
82.3472782258
 40
4.75
  0
ARC
  5
46D
100
AcDbEntity
  8
RACCORDO
100
AcDbCircle
 62
250
  6
CONTINUOUS
 10
146.3106728831
 20
76.3472782258
 40
2.15
100
AcDbArc
 50
137.4397506628
 51
180.0
  0
ARC
  5
46E
100
AcDbEntity
  8
ASSI
100
AcDbCircle
 62
7
  6
CONTINUOUS
 10
169.1106728831
 20
82.3472782258
 40
2.1
100
AcDbArc
 50
90.0
 51
270.0
  0
ARC
  5
46F
100
AcDbEntity
  8
ASSI
100
AcDbCircle
 62
7
  6
CONTINUOUS
 10
171.5106728831
 20
82.3472782258
 40
2.1
100
AcDbArc
 50
270.0
 51
90.0
  0
ARC
  5
470
100
AcDbEntity
  8
RACCORDO
100
AcDbCircle
 62
7
  6
CONTINUOUS
 10
146.3106728831
 20
76.3472782258
 40
1.45
100
AcDbArc
 50
0.0
 51
180.0
  0
ARC
  5
471
100
AcDbEntity
  8
ASSI
100
AcDbCircle
 62
7
  6
CONTINUOUS
 10
146.3106728831
 20
76.3472782258
 40
1.45
100
AcDbArc
 50
180.0
 51
360.0
  0
ARC
  5
472
100
AcDbEntity
  8
DRAFT
100
AcDbCircle
 62
7
  6
CONTINUOUS
 10
146.3106728831
 20
106.3472782258
 40
31.7722782751
100
AcDbArc
 50
339.744094052
 51
353.7119561196
  0
ARC
  5
473
100
AcDbEntity
  8
DRAFT
100
AcDbCircle
 62
7
  6
CONTINUOUS
 10
146.3106728831
 20
106.3472782258
 40
31.7722782751
100
AcDbArc
 50
6.2880438804
 51
20.255905948
  0
ARC
  5
474
100
AcDbEntity
  8
DRAFT
100
AcDbCircle
 62
7
  6
CONTINUOUS
 10
146.3106728831
 20
106.3472782258
 40
31.7722782751
100
AcDbArc
 50
159.744094052
 51
173.7119561196
  0
ARC
  5
475
100
AcDbEntity
  8
DRAFT
100
AcDbCircle
 62
7
  6
CONTINUOUS
 10
146.3106728831
 20
106.3472782258
 40
31.7722782751
100
AcDbArc
 50
186.2880438804
 51
200.255905948
  0
ARC
  5
476
100
AcDbEntity
  8
DRAFT
100
AcDbCircle
 62
7
  6
CONTINUOUS
 10
146.3106728831
 20
106.3472782258
 40
31.5567246406
100
AcDbArc
 50
186.0612956474
 51
200.6093199003
  0
ARC
  5
477
100
AcDbEntity
  8
DRAFT
100
AcDbCircle
 62
7
  6
CONTINUOUS
 10
146.3106728831
 20
106.3472782258
 40
31.5567246406
100
AcDbArc
 50
159.3906800997
 51
173.9387043526
  0
ARC
  5
478
100
AcDbEntity
  8
DRAFT
100
AcDbCircle
 62
7
  6
CONTINUOUS
 10
146.3106728831
 20
106.3472782258
 40
31.5567246406
100
AcDbArc
 50
6.0612956474
 51
20.6093199003
  0
ARC
  5
479
100
AcDbEntity
  8
DRAFT
100
AcDbCircle
 62
7
  6
CONTINUOUS
 10
146.3106728831
 20
106.3472782258
 40
31.5567246406
100
AcDbArc
 50
339.3906800997
 51
353.9387043526
  0
CIRCLE
  5
47A
100
AcDbEntity
  8
ASSI
100
AcDbCircle
 62
7
  6
CONTINUOUS
 10
161.3106728831
 20
106.3472782258
 40
10.25
  0
CIRCLE
  5
47B
100
AcDbEntity
  8
ASSI
100
AcDbCircle
 62
7
  6
CONTINUOUS
 10
161.3106728831
 20
106.3472782258
 40
9.75
  0
CIRCLE
  5
47C
100
AcDbEntity
  8
ASSI
100
AcDbCircle
 62
7
  6
CONTINUOUS
 10
161.3106728831
 20
106.3472782258
 40
9.25
  0
CIRCLE
  5
47D
100
AcDbEntity
  8
ASSI
100
AcDbCircle
 62
7
  6
CONTINUOUS
 10
170.3106728831
 20
130.3472782258
 40
6.75
  0
CIRCLE
  5
47E
100
AcDbEntity
  8
ASSI
100
AcDbCircle
 62
7
  6
CONTINUOUS
 10
170.3106728831
 20
130.3472782258
 40
4.75
  0
ARC
  5
47F
100
AcDbEntity
  8
DRAFT
100
AcDbCircle
 62
7
  6
CONTINUOUS
 10
176.3106728831
 20
106.3472782258
 40
3.8222782751
100
AcDbArc
 50
294.4350787189
 51
65.5649212811
  0
ARC
  5
480
100
AcDbEntity
  8
DRAFT
100
AcDbCircle
 62
7
  6
CONTINUOUS
 10
176.3106728831
 20
106.3472782258
 40
3.6067246406
100
AcDbArc
 50
292.5012556499
 51
67.4987443501
  0
ARC
  5
481
100
AcDbEntity
  8
DRAFT
100
AcDbCircle
 62
7
  6
CONTINUOUS
 10
176.3106728831
 20
106.3472782258
 40
3.0567246406
100
AcDbArc
 50
241.8251410554
 51
118.1748589446
  0
ARC
  5
482
100
AcDbEntity
  8
DRAFT
100
AcDbCircle
 62
7
  6
CONTINUOUS
 10
176.3106728831
 20
106.3472782258
 40
3.0
100
AcDbArc
 50
240.0
 51
120.0
  0
ARC
  5
483
100
AcDbEntity
  8
ASSI
100
AcDbCircle
 62
7
  6
CONTINUOUS
 10
170.3106728831
 20
131.5472782258
 40
2.1
100
AcDbArc
 50
0.0
 51
180.0
  0
ARC
  5
484
100
AcDbEntity
  8
ASSI
100
AcDbCircle
 62
7
  6
CONTINUOUS
 10
170.3106728831
 20
129.1472782258
 40
2.1
100
AcDbArc
 50
180.0
 51
360.0
  0
CIRCLE
  5
485
100
AcDbEntity
  8
DRAFT
100
AcDbCircle
 62
7
  6
CONTINUOUS
 10
176.3106728831
 20
106.3472782258
 40
1.5
  0
ARC
  5
486
100
AcDbEntity
  8
DRAFT
100
AcDbCircle
 62
7
  6
CONTINUOUS
 10
146.3106728831
 20
136.3472782258
 40
1.45
100
AcDbArc
 50
180.0
 51
360.0
  0
ARC
  5
487
100
AcDbEntity
  8
ASSI
100
AcDbCircle
 62
7
  6
CONTINUOUS
 10
146.3106728831
 20
136.3472782258
 40
1.45
100
AcDbArc
 50
0.0
 51
180.0
  0
CIRCLE
  5
488
100
AcDbEntity
  8
SMUSSO
100
AcDbCircle
 62
7
  6
CONTINUOUS
 10
176.3106728831
 20
106.3472782258
 40
1.4345107419
  0
ELLIPSE
  5
489
100
AcDbEntity
  8
RACCORDO
100
AcDbEllipse
 62
7
  6
CONTINUOUS
 10
100.9410995641
 20
147.7168515448
 30
0.0
 11
0.4955779812
 21
-0.4955779812
 31
0.0
 40
0.998782766
 41
2.3568034778
 42
3.9263818294
  0
ELLIPSE
  5
48A
100
AcDbEntity
  8
RACCORDO
100
AcDbEllipse
 62
7
  6
CONTINUOUS
 10
100.9410995641
 20
64.9777049068
 30
0.0
 11
0.4955779812
 21
0.4955779812
 31
0.0
 40
0.998782766
 41
2.3568034778
 42
3.9263818294
  0
ELLIPSE
  5
48B
100
AcDbEntity
  8
RACCORDO
100
AcDbEllipse
 62
7
  6
CONTINUOUS
 10
191.6802462021
 20
64.9777049068
 30
0.0
 11
-0.4955779812
 21
0.4955779812
 31
0.0
 40
0.998782766
 41
2.3568034778
 42
3.9263818294
  0
ELLIPSE
  5
48C
100
AcDbEntity
  8
RACCORDO
100
AcDbEllipse
 62
7
  6
CONTINUOUS
 10
191.6802462021
 20
147.7168515448
 30
0.0
 11
-0.4955779812
 21
-0.4955779812
 31
0.0
 40
0.998782766
 41
2.3568034778
 42
3.9263818294
  0
ELLIPSE
  5
48D
100
AcDbEntity
  8
RACCORDO
100
AcDbEllipse
 62
7
  6
CONTINUOUS
 10
181.3829245033
 20
71.2750266056
 30
0.0
 11
-0.4950124418
 21
0.4950124418
 31
0.0
 40
0.9999238505
 41
-3.9269527408
 42
-2.3562325664
  0
ELLIPSE
  5
48E
100
AcDbEntity
  8
RACCORDO
100
AcDbEllipse
 62
7
  6
CONTINUOUS
 10
190.5213075749
 20
117.7661925032
 30
0.0
 11
-0.0
 21
0.7
 31
0.0
 40
0.0349207695
 41
-1.2343630206
 42
-0.0043633231
  0
ELLIPSE
  5
48F
100
AcDbEntity
  8
RACCORDO
100
AcDbEllipse
 62
7
  6
CONTINUOUS
 10
190.5213075749
 20
118.2283639484
 30
0.0
 11
-0.0
 21
0.7
 31
0.0
 40
0.0349207695
 41
-3.1372293305
 42
-1.907229633
  0
ELLIPSE
  5
490
100
AcDbEntity
  8
RACCORDO
100
AcDbEllipse
 62
7
  6
CONTINUOUS
 10
111.2384212629
 20
71.2750266056
 30
0.0
 11
0.4950124418
 21
0.4950124418
 31
0.0
 40
0.9999238505
 41
-3.9269527408
 42
-2.3562325664
  0
ELLIPSE
  5
491
100
AcDbEntity
  8
DRAFT
100
AcDbEllipse
 62
7
  6
CONTINUOUS
 10
190.2227349958
 20
106.3472782258
 30
0.0
 11
-0.0
 21
10.25
 31
0.0
 40
0.0349207695
 41
-0.0
 42
3.1415926536
  0
ELLIPSE
  5
492
100
AcDbEntity
  8
DRAFT
100
AcDbEllipse
 62
7
  6
CONTINUOUS
 10
146.3106728831
 20
66.4352161131
 30
0.0
 11
10.25
 21
0.0
 31
0.0
 40
0.0349207695
 41
-0.0
 42
3.1415926536
  0
ELLIPSE
  5
493
100
AcDbEntity
  8
RACCORDO
100
AcDbEllipse
 62
7
  6
CONTINUOUS
 10
111.2384212629
 20
141.419529846
 30
0.0
 11
0.4950124418
 21
-0.4950124418
 31
0.0
 40
0.9999238505
 41
2.3562325664
 42
3.9269527408
  0
ELLIPSE
  5
494
100
AcDbEntity
  8
DRAFT
100
AcDbEllipse
 62
7
  6
CONTINUOUS
 10
102.3986107704
 20
106.3472782258
 30
0.0
 11
-0.0
 21
10.25
 31
0.0
 40
0.0349207695
 41
-3.1415926536
 42
0.0
  0
ELLIPSE
  5
495
100
AcDbEntity
  8
DRAFT
100
AcDbEllipse
 62
7
  6
CONTINUOUS
 10
146.3106728831
 20
146.2593403385
 30
0.0
 11
10.25
 21
0.0
 31
0.0
 40
0.0349207695
 41
3.1415926536
 42
6.2831853072
  0
ELLIPSE
  5
496
100
AcDbEntity
  8
RACCORDO
100
AcDbEllipse
 62
7
  6
CONTINUOUS
 10
181.3829245033
 20
141.419529846
 30
0.0
 11
0.4950124418
 21
0.4950124418
 31
0.0
 40
0.9999238505
 41
-0.7853600872
 42
0.7853600872
  0
ELLIPSE
  5
497
100
AcDbEntity
  8
RACCORDO
100
AcDbEllipse
 62
7
  6
CONTINUOUS
 10
157.6917586057
 20
146.5579129177
 30
0.0
 11
0.7
 21
0.0
 31
0.0
 40
0.0349207695
 41
1.907229633
 42
3.1372293305
  0
ELLIPSE
  5
498
100
AcDbEntity
  8
RACCORDO
100
AcDbEllipse
 62
7
  6
CONTINUOUS
 10
157.2295871604
 20
146.5579129177
 30
0.0
 11
0.7
 21
0.0
 31
0.0
 40
0.0349207695
 41
0.0043633231
 42
1.2343630206
  0
ELLIPSE
  5
499
100
AcDbEntity
  8
RACCORDO
100
AcDbEllipse
 62
7
  6
CONTINUOUS
 10
135.3917586057
 20
146.5579129177
 30
0.0
 11
0.7
 21
-0.0
 31
0.0
 40
0.0349207695
 41
1.907229633
 42
3.1372293305
  0
ELLIPSE
  5
49A
100
AcDbEntity
  8
RACCORDO
100
AcDbEllipse
 62
7
  6
CONTINUOUS
 10
134.9295871604
 20
146.5579129177
 30
0.0
 11
0.7
 21
-0.0
 31
0.0
 40
0.0349207695
 41
0.0043633231
 42
1.2343630206
  0
ELLIPSE
  5
49B
100
AcDbEntity
  8
RACCORDO
100
AcDbEllipse
 62
7
  6
CONTINUOUS
 10
102.1000381912
 20
118.2283639484
 30
0.0
 11
0.0
 21
0.7
 31
0.0
 40
0.0349207695
 41
-4.3759556742
 42
-3.1459559767
  0
ELLIPSE
  5
49C
100
AcDbEntity
  8
RACCORDO
100
AcDbEllipse
 62
7
  6
CONTINUOUS
 10
102.1000381912
 20
117.7661925032
 30
0.0
 11
0.0
 21
0.7
 31
0.0
 40
0.0349207695
 41
0.0043633231
 42
1.2343630206
  0
ELLIPSE
  5
49D
100
AcDbEntity
  8
RACCORDO
100
AcDbEllipse
 62
7
  6
CONTINUOUS
 10
102.1000381912
 20
94.9283639484
 30
0.0
 11
0.0
 21
0.7
 31
0.0
 40
0.0349207695
 41
-4.3759556742
 42
-3.1459559767
  0
ELLIPSE
  5
49E
100
AcDbEntity
  8
RACCORDO
100
AcDbEllipse
 62
7
  6
CONTINUOUS
 10
102.1000381912
 20
94.4661925032
 30
0.0
 11
0.0
 21
0.7
 31
0.0
 40
0.0349207695
 41
0.0043633231
 42
1.2343630206
  0
ELLIPSE
  5
49F
100
AcDbEntity
  8
RACCORDO
100
AcDbEllipse
 62
7
  6
CONTINUOUS
 10
135.3917586057
 20
66.1366435339
 30
0.0
 11
0.7
 21
0.0
 31
0.0
 40
0.0349207695
 41
-3.1372293305
 42
-1.907229633
  0
ELLIPSE
  5
4A0
100
AcDbEntity
  8
RACCORDO
100
AcDbEllipse
 62
7
  6
CONTINUOUS
 10
134.9295871604
 20
66.1366435339
 30
0.0
 11
0.7
 21
0.0
 31
0.0
 40
0.0349207695
 41
-1.2343630206
 42
-0.0043633231
  0
ELLIPSE
  5
4A1
100
AcDbEntity
  8
RACCORDO
100
AcDbEllipse
 62
7
  6
CONTINUOUS
 10
157.6917586057
 20
66.1366435339
 30
0.0
 11
0.7
 21
-0.0
 31
0.0
 40
0.0349207695
 41
-3.1372293305
 42
-1.907229633
  0
ELLIPSE
  5
4A2
100
AcDbEntity
  8
RACCORDO
100
AcDbEllipse
 62
7
  6
CONTINUOUS
 10
157.2295871604
 20
66.1366435339
 30
0.0
 11
0.7
 21
0.0
 31
0.0
 40
0.0349207695
 41
-1.2343630206
 42
-0.0043633231
  0
ELLIPSE
  5
4A3
100
AcDbEntity
  8
RACCORDO
100
AcDbEllipse
 62
7
  6
CONTINUOUS
 10
156.9153933028
 20
71.4844714326
 30
0.0
 11
0.0
 21
0.7
 31
0.0
 40
0.0043633508
 41
-3.1328660073
 42
-1.5707963268
  0
ELLIPSE
  5
4A4
100
AcDbEntity
  8
RACCORDO
100
AcDbEllipse
 62
7
  6
CONTINUOUS
 10
148.4606728831
 20
71.2750266056
 30
0.0
 11
-0.0
 21
0.7000266549
 31
0.0
 40
0.9999619231
 41
-4.7123889804
 42
-3.1415926536
  0
ELLIPSE
  5
4A5
100
AcDbEntity
  8
RACCORDO
100
AcDbEllipse
 62
7
  6
CONTINUOUS
 10
144.1606728831
 20
71.2750266056
 30
0.0
 11
-0.0
 21
0.7000266549
 31
0.0
 40
0.9999619231
 41
-3.1415926536
 42
-1.5707963268
  0
ELLIPSE
  5
4A6
100
AcDbEntity
  8
DRAFT
100
AcDbEllipse
 62
7
  6
CONTINUOUS
 10
190.975433072
 20
79.3472782258
 30
0.0
 11
0.0
 21
12.75
 31
0.0
 40
0.0349207695
 41
-3.5233469163
 42
-3.4687607913
  0
ELLIPSE
  5
4A7
100
AcDbEntity
  8
RACCORDO
100
AcDbEllipse
 62
7
  6
CONTINUOUS
 10
135.7059524634
 20
71.4844714326
 30
0.0
 11
-0.0
 21
0.7
 31
0.0
 40
0.0043633508
 41
-4.7123889804
 42
-3.1503192998
  0
ELLIPSE
  5
4A8
100
AcDbEntity
  8
DRAFT
100
AcDbEllipse
 62
7
  6
CONTINUOUS
 10
113.6603370623
 20
79.3472782258
 30
0.0
 11
12.7616628606
 21
12.7461100102
 31
0.0
 40
0.024677657
 41
-2.9079406172
 42
-2.7897217731
  0
ELLIPSE
  5
4A9
100
AcDbEntity
  8
DRAFT
100
AcDbEllipse
 62
7
  6
CONTINUOUS
 10
101.2259126941
 20
79.3472782258
 30
0.0
 11
0.0
 21
12.75
 31
0.0
 40
0.0349207695
 41
-3.1415926536
 42
-2.9326433601
  0
ELLIPSE
  5
4AA
100
AcDbEntity
  8
DRAFT
100
AcDbEllipse
 62
7
  6
CONTINUOUS
 10
191.395433072
 20
79.3472782258
 30
0.0
 11
-0.0
 21
12.75
 31
0.0
 40
0.0349207695
 41
-3.3505419471
 42
-3.1415926536
  0
ELLIPSE
  5
4AB
100
AcDbEntity
  8
DRAFT
100
AcDbEllipse
 62
7
  6
CONTINUOUS
 10
178.9610087038
 20
79.3472782258
 30
0.0
 11
12.7616628606
 21
-12.7461100102
 31
0.0
 40
0.024677657
 41
-0.3518708805
 42
-0.2336520363
  0
ELLIPSE
  5
4AC
100
AcDbEntity
  8
DRAFT
100
AcDbEllipse
 62
7
  6
CONTINUOUS
 10
190.635433072
 20
79.3472782258
 30
0.0
 11
0.0
 21
12.75
 31
0.0
 40
0.0349207695
 41
6.2831853072
 42
9.043023698
  0
ELLIPSE
  5
4AD
100
AcDbEntity
  8
DRAFT
100
AcDbEllipse
 62
7
  6
CONTINUOUS
 10
190.135433072
 20
79.3472782258
 30
0.0
 11
-0.0
 21
12.75
 31
0.0
 40
0.0349207695
 41
0.0
 42
3.1415926536
  0
ELLIPSE
  5
4AE
100
AcDbEntity
  8
DRAFT
100
AcDbEllipse
 62
7
  6
CONTINUOUS
 10
101.9859126941
 20
79.3472782258
 30
0.0
 11
0.0
 21
12.75
 31
0.0
 40
0.0349207695
 41
-2.7598383908
 42
-0.0616991121
  0
ELLIPSE
  5
4AF
100
AcDbEntity
  8
DRAFT
100
AcDbEllipse
 62
7
  6
CONTINUOUS
 10
102.4859126941
 20
79.3472782258
 30
0.0
 11
-0.0
 21
12.75
 31
0.0
 40
0.0349207695
 41
-3.1415926536
 42
-0.0
  0
ELLIPSE
  5
4B0
100
AcDbEntity
  8
DRAFT
100
AcDbEllipse
 62
7
  6
CONTINUOUS
 10
101.6459126941
 20
79.3472782258
 30
0.0
 11
0.0
 21
12.75
 31
0.0
 40
0.0349207695
 41
-2.8144245159
 42
-2.7598383908
  0
ELLIPSE
  5
4B1
100
AcDbEntity
  8
RACCORDO
100
AcDbEllipse
 62
7
  6
CONTINUOUS
 10
190.5213075749
 20
94.4661925032
 30
0.0
 11
0.0
 21
0.7
 31
0.0
 40
0.0349207695
 41
-1.2343630206
 42
-0.0043633231
  0
ELLIPSE
  5
4B2
100
AcDbEntity
  8
RACCORDO
100
AcDbEllipse
 62
7
  6
CONTINUOUS
 10
190.5213075749
 20
94.9283639484
 30
0.0
 11
0.0
 21
0.7
 31
0.0
 40
0.0349207695
 41
-3.1372293305
 42
-1.907229633
  0
ENDSEC
  0
SECTION
  2
OBJECTS
  0
DICTIONARY
  5
C
100
AcDbDictionary
280
0
281
1
  3
ACAD_GROUP
350
D
  3
ACAD_MLINESTYLE
350
17
  3
ACAD_LAYOUT
350
1A
  3
ACAD_PLOTSETTINGS
350
19
  3
ACAD_PLOTSTYLENAME
350
E
  0
DICTIONARY
  5
D
102
{ACAD_REACTORS
330
C
102
}
100
AcDbDictionary
280
0
281
1
  0
ACDBDICTIONARYWDFLT
  5
E
102
{ACAD_REACTORS
330
C
102
}
100
AcDbDictionary
281
1
  3
Normal
350
F
100
AcDbDictionaryWithDefault
340
F
  0
DICTIONARY
  5
17
102
{ACAD_REACTORS
330
C
102
}
100
AcDbDictionary
280
0
281
1
  3
Standard
350
18
  0
DICTIONARY
  5
19
102
{ACAD_REACTORS
330
C
102
}
100
AcDbDictionary
281
1
  0
DICTIONARY
  5
1A
102
{ACAD_REACTORS
330
C
102
}
100
AcDbDictionary
281
1
  3
Model
350
4B3
  3
Layout1
350
4B4
  0
ACDBPLACEHOLDER
  5
F
102
{ACAD_REACTORS
330
E
102
}
  0
MLINESTYLE
  5
18
102
{ACAD_REACTORS
330
17
102
}
100
AcDbMlineStyle
  2
STANDARD
 70
0
  3

 62
256
 51
90.0
 52
90.0
 71
2
 49
0.5
 62
256
  6
BYLAYER
 49
-0.5
 62
256
  6
BYLAYER
  0
LAYOUT
  5
4B3
102
{ACAD_REACTORS
330
1A
102
}
100
AcDbPlotSettings
  1

  2
none_device
  4
ISO_A4_(297.00_x_210.00_MM)
  6

 40
0.0
 41
0.0
 42
0.0
 43
0.0
 44
297.0
 45
210.0
 46
0.0
 47
0.0
 48
0.0
 49
0.0
140
0.0
141
0.0
142
1.0
143
1.0
 70
1024
 72
1
 73
0
 74
0
  7

 75
0
147
1.0
148
0.0
149
0.0
100
AcDbLayout
  1
Model
 70
0
 71
0
 10
0.0
 20
0.0
 11
297.0
 21
210.0
 12
0.0
 22
0.0
 32
0.0
 14
0.0
 24
0.0
 34
0.0
 15
0.0
 25
0.0
 35
0.0
146
0.0
 13
0.0
 23
0.0
 33
0.0
 16
1.0
 26
0.0
 36
0.0
 17
0.0
 27
1.0
 37
0.0
 76
0
330
210
345
0
346
0
  0
LAYOUT
  5
4B4
102
{ACAD_REACTORS
330
1A
102
}
100
AcDbPlotSettings
  1

  2
none_device
  4
ISO_A4_(297.00_x_210.00_MM)
  6

 40
0.0
 41
0.0
 42
0.0
 43
0.0
 44
297.0
 45
210.0
 46
0.0
 47
0.0
 48
0.0
 49
0.0
140
0.0
141
0.0
142
1.0
143
1.0
 70
0
 72
1
 73
0
 74
0
  7

 75
0
147
1.0
148
0.0
149
0.0
100
AcDbLayout
  1
Layout1
 70
0
 71
1
 10
0.0
 20
0.0
 11
297.0
 21
210.0
 12
0.0
 22
0.0
 32
0.0
 14
0.0
 24
0.0
 34
0.0
 15
0.0
 25
0.0
 35
0.0
146
0.0
 13
0.0
 23
0.0
 33
0.0
 16
1.0
 26
0.0
 36
0.0
 17
0.0
 27
1.0
 37
0.0
 76
0
330
211
345
0
346
0
  0
ENDSEC
  0
EOF
