  0
SECTION
  2
HEADER
  9
$ACADVER
  1
AC1021
  9
$DWGCODEPAGE
  3
ANSI_1252
  9
$EXTMAX
 10
297.0
 20
210.0
 30
0.0
  9
$EXTMIN
 10
0.0
 20
0.0
 30
0.0
  9
$LIMMIN
 10
0.0
 20
0.0
  9
$LIMMAX
 10
297.0
 20
210.0
  9
$VIEWCTR
 10
148.5
 20
105.0
  9
$VIEWSIZE
 40
210.0
  9
$CLAYER
  8
0
  9
$LTSCALE
 40
16.335
  9
$CELTYPE
  6
BYLAYER
  9
$DIMSCALE
 40
1.0
  9
$DIMASZ
 40
3.0
  9
$DIMEXO
 40
0.5
  9
$DIMDLI
 40
11.286
  9
$DIMEXE
 40
1.5
  9
$DIMCEN
 40
2.673
  9
$DIMLFAC
 40
1.0
  9
$DIMBLK
  1
_FILLED
  9
$DIMALT
 70
0
  9
$DIMALTF
 40
0.0393700787
  9
$DIMTXT
 40
3.0
  9
$DIMTOL
 70
1
  9
$DIMLIM
 70
0
  9
$DIMTFAC
 40
1.0
  9
$DIMTP
 40
0.01
  9
$DIMTM
 40
0.01
  9
$DIMGAP
 40
0.625
  9
$DIMDSEP
 70
44
  9
$AUNITS
 70
0
  9
$PDMODE
 70
3
  9
$PDSIZE
 40
3.0
  9
$HANDSEED
  5
4D2
  9
$TILEMODE
 70
1
  9
$MEASUREMENT
 70
1
  9
$INSUNITS
 70
4
  0
ENDSEC
  0
SECTION
  2
CLASSES
  0
CLASS
  1
ACDBDICTIONARYWDFLT
  2
AcDbDictionaryWithDefault
  3
AutoCAD 2000
 90
0
 91
1
280
0
281
0
  0
CLASS
  1
ACDBPLACEHOLDER
  2
AcDbPlaceHolder
  3
AutoCAD 2000
 90
0
 91
1
280
0
281
0
  0
CLASS
  1
LAYOUT
  2
AcDbLayout
  3
AutoCAD 2000
 90
0
 91
0
280
0
281
0
  0
ENDSEC
  0
SECTION
  2
TABLES
  0
TABLE
  2
VPORT
  5
8
100
AcDbSymbolTable
 70
2
  0
VPORT
  5
1F4
100
AcDbSymbolTableRecord
100
AcDbViewportTableRecord
  2
*ACTIVE
 70
0
 10
0.0
 20
0.0
 11
1.0
 21
1.0
 12
148.5
 22
105.0
 13
0.0
 23
0.0
 14
1.0
 24
1.0
 15
0.0
 25
0.0
 16
0.0
 26
0.0
 36
1.0
 17
0.0
 27
0.0
 37
0.0
 40
210.0
 41
1.4142857143
 42
50.0
 43
0.0
 44
0.0
 50
0.0
 51
0.0
 71
0
 72
100
 73
1
 74
1
 75
0
 76
0
 77
0
 78
0
  0
ENDTAB
  0
TABLE
  2
LTYPE
  5
5
100
AcDbSymbolTable
 70
6
  0
LTYPE
  5
14
100
AcDbSymbolTableRecord
100
AcDbLinetypeTableRecord
  2
BYBLOCK
 70
0
  3

 72
65
 73
0
 40
0.0
  0
LTYPE
  5
15
100
AcDbSymbolTableRecord
100
AcDbLinetypeTableRecord
  2
BYLAYER
 70
0
  3

 72
65
 73
0
 40
0.0
  0
LTYPE
  5
16
100
AcDbSymbolTableRecord
100
AcDbLinetypeTableRecord
  2
CONTINUOUS
 70
64
  3
Solid line
 72
65
 73
0
 40
0.0
  0
LTYPE
  5
1F5
100
AcDbSymbolTableRecord
100
AcDbLinetypeTableRecord
  2
CENTER
 70
64
  3
____ _ ____ _ ____ _ ____ _ ____ _ ____ _ ____
 72
65
 73
4
 40
0.6
 49
0.375
 74
0
 49
-0.075
 74
0
 49
0.075
 74
0
 49
-0.075
 74
0
  0
LTYPE
  5
1F6
100
AcDbSymbolTableRecord
100
AcDbLinetypeTableRecord
  2
HIDDEN
 70
64
  3
- - - - - - - - - - - - - - - - - - - -
 72
65
 73
2
 40
0.2
 49
0.1
 74
0
 49
-0.1
 74
0
  0
LTYPE
  5
1F7
100
AcDbSymbolTableRecord
100
AcDbLinetypeTableRecord
  2
PHANTOM
 70
64
  3
_____ _ _ _____ _ _ _____ _ _ _____
 72
65
 73
6
 40
0.8
 49
0.45
 74
0
 49
-0.05
 74
0
 49
0.1
 74
0
 49
-0.05
 74
0
 49
0.1
 74
0
 49
-0.05
 74
0
  0
LTYPE
  5
1F8
100
AcDbSymbolTableRecord
100
AcDbLinetypeTableRecord
  2
DOT
 70
64
  3
. . . . . . . . . . . . . . . . . . . .
 72
65
 73
2
 40
0.2
 49
0.1
 74
0
 49
-0.1
 74
0
  0
LTYPE
  5
1F9
100
AcDbSymbolTableRecord
100
AcDbLinetypeTableRecord
  2
DASHED
 70
64
  3
- - - - - - - - - - - - - - - - - - - -
 72
65
 73
2
 40
0.2
 49
0.1
 74
0
 49
-0.1
 74
0
  0
ENDTAB
  0
TABLE
  2
LAYER
  5
2
100
AcDbSymbolTable
 70
36
  0
LAYER
  5
10
100
AcDbSymbolTableRecord
100
AcDbLayerTableRecord
  2
0
 70
0
 62
7
  6
CONTINUOUS
370
-3
390
F
  0
LAYER
  5
1FA
100
AcDbSymbolTableRecord
100
AcDbLayerTableRecord
  2
DEFAULT_1
 70
0
 62
7
  6
CENTER
370
-3
390
F
  0
LAYER
  5
1FB
100
AcDbSymbolTableRecord
100
AcDbLayerTableRecord
  2
DEFAULT_2
 70
0
 62
7
  6
HIDDEN
370
-3
390
F
  0
LAYER
  5
1FC
100
AcDbSymbolTableRecord
100
AcDbLayerTableRecord
  2
DEFAULT_3
 70
0
 62
7
  6
PHANTOM
370
-3
390
F
  0
LAYER
  5
1FD
100
AcDbSymbolTableRecord
100
AcDbLayerTableRecord
  2
ASSI
 70
0
 62
7
  6
CONTINUOUS
370
-3
390
F
  0
LAYER
  5
1FE
100
AcDbSymbolTableRecord
100
AcDbLayerTableRecord
  2
COLOR5
 70
0
 62
7
  6
CONTINUOUS
370
-3
390
F
  0
LAYER
  5
1FF
100
AcDbSymbolTableRecord
100
AcDbLayerTableRecord
  2
COORDINATE
 70
0
 62
7
  6
CONTINUOUS
370
-3
390
F
  0
LAYER
  5
200
100
AcDbSymbolTableRecord
100
AcDbLayerTableRecord
  2
COORD_ORIGINE
 70
0
 62
7
  6
CONTINUOUS
370
-3
390
F
  0
LAYER
  5
201
100
AcDbSymbolTableRecord
100
AcDbLayerTableRecord
  2
COPY_PUBLISH
 70
0
 62
7
  6
CONTINUOUS
370
-3
390
F
  0
LAYER
  5
202
100
AcDbSymbolTableRecord
100
AcDbLayerTableRecord
  2
COSMETICI
 70
0
 62
7
  6
CONTINUOUS
370
-3
390
F
  0
LAYER
  5
203
100
AcDbSymbolTableRecord
100
AcDbLayerTableRecord
  2
CURVE
 70
0
 62
7
  6
CONTINUOUS
370
-3
390
F
  0
LAYER
  5
204
100
AcDbSymbolTableRecord
100
AcDbLayerTableRecord
  2
DRAFT
 70
0
 62
7
  6
CONTINUOUS
370
-3
390
F
  0
LAYER
  5
205
100
AcDbSymbolTableRecord
100
AcDbLayerTableRecord
  2
IMPORT_IGES
 70
0
 62
7
  6
CONTINUOUS
370
-3
390
F
  0
LAYER
  5
206
100
AcDbSymbolTableRecord
100
AcDbLayerTableRecord
  2
NOTE
 70
0
 62
7
  6
CONTINUOUS
370
-3
390
F
  0
LAYER
  5
207
100
AcDbSymbolTableRecord
100
AcDbLayerTableRecord
  2
PIANI
 70
0
 62
7
  6
CONTINUOUS
370
-3
390
F
  0
LAYER
  5
208
100
AcDbSymbolTableRecord
100
AcDbLayerTableRecord
  2
PIANI_ORIGINE
 70
0
 62
7
  6
CONTINUOUS
370
-3
390
F
  0
LAYER
  5
209
100
AcDbSymbolTableRecord
100
AcDbLayerTableRecord
  2
PUNTI
 70
0
 62
7
  6
CONTINUOUS
370
-3
390
F
  0
LAYER
  5
20A
100
AcDbSymbolTableRecord
100
AcDbLayerTableRecord
  2
RACCORDO
 70
0
 62
7
  6
CONTINUOUS
370
-3
390
F
  0
LAYER
  5
20B
100
AcDbSymbolTableRecord
100
AcDbLayerTableRecord
  2
SIMBOLI
 70
0
 62
7
  6
CONTINUOUS
370
-3
390
F
  0
LAYER
  5
20C
100
AcDbSymbolTableRecord
100
AcDbLayerTableRecord
  2
SMUSSO
 70
0
 62
7
  6
CONTINUOUS
370
-3
390
F
  0
LAYER
  5
20D
100
AcDbSymbolTableRecord
100
AcDbLayerTableRecord
  2
SNAPLINE
 70
0
 62
7
  6
CONTINUOUS
370
-3
390
F
  0
LAYER
  5
20E
100
AcDbSymbolTableRecord
100
AcDbLayerTableRecord
  2
SUPERFICI
 70
0
 62
7
  6
CONTINUOUS
370
-3
390
F
  0
LAYER
  5
20F
100
AcDbSymbolTableRecord
100
AcDbLayerTableRecord
  2
TRASH
 70
0
 62
7
  6
CONTINUOUS
370
-3
390
F
  0
ENDTAB
  0
TABLE
  2
STYLE
  5
3
100
AcDbSymbolTable
 70
1
  0
STYLE
  5
11
100
AcDbSymbolTableRecord
100
AcDbTextStyleTableRecord
  2
STANDARD
 70
0
 40
0.0
 41
0.8
 50
0.0
 71
0
 42
0.2
  3
txt
  4

  0
STYLE
  5
210
100
AcDbSymbolTableRecord
100
AcDbTextStyleTableRecord
  2
TEXTSTYLE_1
 70
0
 40
0.0
 41
0.8
 50
0.0
 71
0
 42
0.2
  3
gdt
  4

  0
ENDTAB
  0
TABLE
  2
VIEW
  5
6
100
AcDbSymbolTable
 70
0
  0
ENDTAB
  0
TABLE
  2
UCS
  5
7
100
AcDbSymbolTable
 70
0
  0
ENDTAB
  0
TABLE
  2
APPID
  5
9
100
AcDbSymbolTable
 70
1
  0
APPID
  5
211
100
AcDbSymbolTableRecord
100
AcDbRegAppTableRecord
  2
ACAD
 70
0
  0
ENDTAB
  0
TABLE
  2
BLOCK_RECORD
  5
1
100
AcDbSymbolTable
 70
0
  0
BLOCK_RECORD
  5
212
100
AcDbSymbolTableRecord
100
AcDbBlockTableRecord
  2
*Model_Space
  0
BLOCK_RECORD
  5
213
100
AcDbSymbolTableRecord
100
AcDbBlockTableRecord
  2
*Paper_Space
  0
ENDTAB
  0
TABLE
  2
DIMSTYLE
  5
A
100
AcDbSymbolTable
 70
1
100
AcDbDimStyleTable
 71
0
  0
DIMSTYLE
105
214
100
AcDbSymbolTableRecord
100
AcDbDimStyleTableRecord
  2
STANDARD
 70
0
  3

  4

 40
1.0
 41
3.0
 42
0.5
 43
0.38
 44
1.5
 45
0.0
 46
0.0
 47
0.01
 48
0.01
140
3.0
141
0.09
142
0.0
143
25.4
144
1.0
145
0.0
146
1.0
147
0.625
 71
1.0
 72
0.0
 73
0
 74
0
 75
0
 76
0
 77
1
 78
8
170
0
171
2
172
0
173
0
174
0
175
0
176
0
177
0
178
0
270
2
271
2
272
2
273
2
274
2
275
0
280
0
281
0
282
0
283
1
284
8
285
0
286
0
287
3
288
0
340
11
278
44
  0
ENDTAB
  0
ENDSEC
  0
SECTION
  2
BLOCKS
  0
BLOCK
  5
20
100
AcDbEntity
  8
0
100
AcDbBlockBegin
  2
*Model_Space
 70
0
 10
0.0
 20
0.0
 30
0.0
  3
*Model_Space
  1

  0
ENDBLK
  5
21
100
AcDbEntity
  8
0
100
AcDbBlockEnd
  0
BLOCK
  5
1C
100
AcDbEntity
  8
0
100
AcDbBlockBegin
  2
*Paper_Space
 70
0
 10
0.0
 20
0.0
 30
0.0
  3
*Paper_Space
  1

  0
ENDBLK
  5
1D
100
AcDbEntity
  8
0
100
AcDbBlockEnd
  0
ENDSEC
  0
SECTION
  2
ENTITIES
  0
LINE
  5
215
100
AcDbEntity
  8
RACCORDO
100
AcDbLine
 62
7
  6
CONTINUOUS
 10
7.0
 20
-42.2467267598
 11
-7.0
 21
-42.2467267598
  0
LINE
  5
216
100
AcDbEntity
  8
RACCORDO
100
AcDbLine
 62
253
  6
CONTINUOUS
 10
7.5
 20
-41.7467267598
 11
-7.5
 21
-41.7467267598
  0
LWPOLYLINE
  5
217
100
AcDbEntity
  8
IMPORT_IGES
100
AcDbPolyline
 62
253
  6
CONTINUOUS
 90
10
 70
0
 10
-17.8004547099
 20
-39.16518839
 10
-17.4132176818
 20
-39.2279115376
 10
-17.0257596662
 20
-39.2892547833
 10
-16.6380855827
 20
-39.3492173486
 10
-16.2501998979
 20
-39.407798541
 10
-15.8621079917
 20
-39.4649975455
 10
-15.4738161597
 20
-39.5208134412
 10
-15.0853297903
 20
-39.575245471
 10
-14.6966533621
 20
-39.6282930256
 10
-14.307791812
 20
-39.6799554466
  0
LWPOLYLINE
  5
218
100
AcDbEntity
  8
IMPORT_IGES
100
AcDbPolyline
 62
7
  6
CONTINUOUS
 90
22
 70
0
 10
-18.0872018172
 20
-39.4499448277
 10
-18.2018913733
 20
-39.4275844968
 10
-18.3144585035
 20
-39.3987367719
 10
-18.4249032078
 20
-39.363401653
 10
-18.5336365488
 20
-39.3213911469
 10
-18.6402474639
 20
-39.2728932468
 10
-18.7435027658
 20
-39.2184719326
 10
-18.843317395
 20
-39.1580905476
 10
-18.9397764109
 20
-39.0917857485
 10
-19.0319018047
 20
-39.0202314855
 10
-19.1196497276
 20
-38.9433747399
 10
-19.2030640284
 20
-38.8612685303
 10
-19.2812982449
 20
-38.7747458631
 10
-19.3543002897
 20
-38.6837614573
 10
-19.4221222503
 20
-38.5883605939
 10
-19.4840739271
 20
-38.489512122
 10
-19.540143241
 20
-38.3870999369
 10
-19.5903422711
 20
-38.2812401433
 10
-19.634017055
 20
-38.1732499042
 10
-19.6709496054
 20
-38.0635682738
 10
-19.7013579097
 20
-37.9517561979
 10
-19.7252419678
 20
-37.8378136765
  0
LWPOLYLINE
  5
219
100
AcDbEntity
  8
IMPORT_IGES
100
AcDbPolyline
 62
253
  6
CONTINUOUS
 90
22
 70
0
 10
-17.8003932196
 20
-39.1647989664
 10
-17.9152127395
 20
-39.1424261135
 10
-18.0285342902
 20
-39.1133773841
 10
-18.1399699025
 20
-39.0777516168
 10
-18.2491392154
 20
-39.0356696681
 10
-18.3556670921
 20
-38.9872753842
 10
-18.4591852179
 20
-38.9327358123
 10
-18.559337974
 20
-38.8722385781
 10
-18.6557840203
 20
-38.8059901411
 10
-18.7481939115
 20
-38.7342168276
 10
-18.8362514956
 20
-38.6571641052
 10
-18.9196551419
 20
-38.5750958221
 10
-18.9981193882
 20
-38.4882927991
 10
-19.0713759348
 20
-38.3970516961
 10
-19.1391736235
 20
-38.3016851667
 10
-19.2012795831
 20
-38.2025209035
 10
-19.2574972317
 20
-38.0998674264
 10
-19.3076148753
 20
-37.9941053636
 10
-19.3514242507
 20
-37.8856963673
 10
-19.3887826773
 20
-37.7750518344
 10
-19.4195946967
 20
-37.6625227269
 10
-19.4437734871
 20
-37.548497024
  0
LWPOLYLINE
  5
21A
100
AcDbEntity
  8
IMPORT_IGES
100
AcDbPolyline
 62
253
  6
CONTINUOUS
 90
10
 70
0
 10
17.4772961036
 20
-37.2270544448
 10
15.5486861163
 20
-37.5250283495
 10
13.6162714131
 20
-37.7880480726
 10
11.6800519939
 20
-38.016113614
 10
9.7393921705
 20
-38.2092766956
 10
7.7949276312
 20
-38.3674855956
 10
5.8485654404
 20
-38.4905851481
 10
3.9009412864
 20
-38.578523631
 10
1.9514194811
 20
-38.6313527663
 10
0.0000000243
 20
-38.6490725541
  0
LWPOLYLINE
  5
21B
100
AcDbEntity
  8
IMPORT_IGES
100
AcDbPolyline
 62
253
  6
CONTINUOUS
 90
10
 70
0
 10
14.3077909478
 20
-39.6799563619
 10
14.6966580601
 20
-39.6282931067
 10
15.0853382269
 20
-39.5752449296
 10
15.4738265136
 20
-39.5208125086
 10
15.862117839
 20
-39.4649965605
 10
16.2502074235
 20
-39.4077977779
 10
16.6380907885
 20
-39.3492168239
 10
17.0257631587
 20
-39.2892544188
 10
17.4132194624
 20
-39.2279113456
 10
17.8004547803
 20
-39.1651883826
  0
LINE
  5
21C
100
AcDbEntity
  8
IMPORT_IGES
100
AcDbLine
 62
7
  6
CONTINUOUS
 10
13.6497814887
 20
-39.8618535714
 11
14.9864769834
 21
-39.6917432628
  0
LWPOLYLINE
  5
21D
100
AcDbEntity
  8
IMPORT_IGES
100
AcDbPolyline
 62
253
  6
CONTINUOUS
 90
10
 70
0
 10
13.9107614573
 20
-39.6280886896
 10
12.3717628203
 20
-39.8132713274
 10
10.8302767481
 20
-39.9767525295
 10
9.2866092977
 20
-40.1184985526
 10
7.7409201115
 20
-40.2384899218
 10
6.1936627392
 20
-40.3366874331
 10
4.6455858306
 20
-40.4130528676
 10
3.0971447872
 20
-40.4675846919
 10
1.5485004465
 20
-40.5002973404
 10
-0.0000397183
 20
-40.5112016988
  0
LINE
  5
21E
100
AcDbEntity
  8
IMPORT_IGES
100
AcDbLine
 62
7
  6
CONTINUOUS
 10
12.1530043886
 20
-39.8637554787
 11
14.0057248995
 21
-39.6418857707
  0
LWPOLYLINE
  5
21F
100
AcDbEntity
  8
IMPORT_IGES
100
AcDbPolyline
 62
7
  6
CONTINUOUS
 90
5
 70
0
 10
7.5
 20
-40.4383099692
 10
8.9178622932
 20
-40.3362822214
 10
10.552728827
 20
-40.1946369511
 10
12.1307566858
 20
-40.0356291753
 10
13.6497814887
 20
-39.8618535714
  0
LINE
  5
220
100
AcDbEntity
  8
IMPORT_IGES
100
AcDbLine
 62
7
  6
CONTINUOUS
 10
-15.0333844109
 20
-39.692505897
 11
-14.3077781437
 21
-39.6799554162
  0
LINE
  5
221
100
AcDbEntity
  8
IMPORT_IGES
100
AcDbLine
 62
7
  6
CONTINUOUS
 10
-15.7448179283
 20
-39.7025854988
 11
-15.0333844109
 21
-39.692505897
  0
LINE
  5
222
100
AcDbEntity
  8
IMPORT_IGES
100
AcDbLine
 62
7
  6
CONTINUOUS
 10
-16.4420765808
 20
-39.7101952033
 11
-15.7448179283
 21
-39.7025854988
  0
LWPOLYLINE
  5
223
100
AcDbEntity
  8
IMPORT_IGES
100
AcDbPolyline
 62
253
  6
CONTINUOUS
 90
10
 70
0
 10
-0.0000397183
 20
-40.5112016988
 10
-1.5486070082
 20
-40.500305588
 10
-3.0972723768
 20
-40.4675981622
 10
-4.6457282359
 20
-40.4130687992
 10
-6.1938145801
 20
-40.3367024644
 10
-7.7410749423
 20
-40.2385018013
 10
-9.2867578383
 20
-40.1185079806
 10
-10.8304088524
 20
-39.9767615027
 10
-12.3718693143
 20
-39.8132813514
 10
-13.9108332237
 20
-39.6281016577
  0
LWPOLYLINE
  5
224
100
AcDbEntity
  8
IMPORT_IGES
100
AcDbPolyline
 62
253
  6
CONTINUOUS
 90
10
 70
0
 10
0.0000000243
 20
-38.6490725541
 10
-1.9514194405
 20
-38.6313527679
 10
-3.9009412539
 20
-38.5785236339
 10
-5.8485654158
 20
-38.4905851521
 10
-7.7949276146
 20
-38.3674856004
 10
-9.739392162
 20
-38.2092767009
 10
-11.6800519934
 20
-38.0161136194
 10
-13.6162714206
 20
-37.7880480779
 10
-15.5486861318
 20
-37.5250283544
 10
-17.477296127
 20
-37.227054449
  0
LINE
  5
225
100
AcDbEntity
  8
IMPORT_IGES
100
AcDbLine
 62
7
  6
CONTINUOUS
 10
15.7448228774
 20
-39.7025860185
 11
16.4420704311
 21
-39.7101941388
  0
LINE
  5
226
100
AcDbEntity
  8
IMPORT_IGES
100
AcDbLine
 62
7
  6
CONTINUOUS
 10
15.0333911438
 20
-39.6925064504
 11
15.7448228774
 21
-39.7025860185
  0
LINE
  5
227
100
AcDbEntity
  8
IMPORT_IGES
100
AcDbLine
 62
7
  6
CONTINUOUS
 10
14.3077754897
 20
-39.67995541
 11
15.0333911438
 21
-39.6925064504
  0
LWPOLYLINE
  5
228
100
AcDbEntity
  8
IMPORT_IGES
100
AcDbPolyline
 62
7
  6
CONTINUOUS
 90
9
 70
0
 10
14.3077754897
 20
-39.67995541
 10
14.3030202129
 20
-39.6797850256
 10
14.2971732418
 20
-39.6794369859
 10
14.2902345763
 20
-39.6789112908
 10
14.282275683
 20
-39.6782191014
 10
14.2732250953
 20
-39.6773492566
 10
14.2628684138
 20
-39.6762682735
 10
14.2512132438
 20
-39.6749777725
 10
14.2382519799
 20
-39.6734761331
  0
LWPOLYLINE
  5
229
100
AcDbEntity
  8
IMPORT_IGES
100
AcDbPolyline
 62
253
  6
CONTINUOUS
 90
10
 70
0
 10
-19.444848582
 20
-37.5477158943
 10
-19.4371219844
 20
-37.5485292046
 10
-19.4213845881
 20
-37.5479121315
 10
-19.3977203852
 20
-37.5458613879
 10
-19.3661862735
 20
-37.5423264581
 10
-19.3268785082
 20
-37.5373408319
 10
-19.2800171562
 20
-37.5310087058
 10
-19.2257921536
 20
-37.5232543249
 10
-19.1643590633
 20
-37.5140833182
 10
-19.0210950299
 20
-37.4920038821
  0
LWPOLYLINE
  5
22A
100
AcDbEntity
  8
IMPORT_IGES
100
AcDbPolyline
 62
7
  6
CONTINUOUS
 90
15
 70
0
 10
-14.0057249046
 20
-39.6418857704
 10
-12.1530043064
 20
-39.8637554875
 10
-10.2892816669
 20
-40.0548218716
 10
-8.4225751589
 20
-40.2141285852
 10
-6.5534261192
 20
-40.3416294299
 10
-4.6823765975
 20
-40.4372874306
 10
-2.8099691989
 20
-40.5010748463
 10
-0.9367469159
 20
-40.5329731789
 10
0.936747023
 20
-40.532973178
 10
2.8099693045
 20
-40.5010748436
 10
4.6823766997
 20
-40.4372874263
 10
6.5534262166
 20
-40.3416294243
 10
8.4225752512
 20
-40.2141285783
 10
10.2892817543
 20
-40.0548218636
 10
12.1530043886
 20
-39.8637554787
  0
LWPOLYLINE
  5
22B
100
AcDbEntity
  8
IMPORT_IGES
100
AcDbPolyline
 62
7
  6
CONTINUOUS
 90
6
 70
0
 10
-14.9864845425
 20
-39.6917429595
 10
-13.649321655
 20
-39.8619293129
 10
-12.1303953102
 20
-40.0357179056
 10
-10.5528996618
 20
-40.1946783151
 10
-8.9183468765
 20
-40.3362757455
 10
-7.5
 20
-40.4383101224
  0
LWPOLYLINE
  5
22C
100
AcDbEntity
  8
IMPORT_IGES
100
AcDbPolyline
 62
253
  6
CONTINUOUS
 90
19
 70
0
 10
-6.7521144087
 20
38.7909836471
 10
-6.8940351964
 20
38.726067553
 10
-7.0306311861
 20
38.6531906
 10
-7.1619023779
 20
38.5723527881
 10
-7.2882994184
 20
38.483179011
 10
-7.4093716609
 20
38.386044375
 10
-7.5237671654
 20
38.2820741994
 10
-7.6314066426
 20
38.1712043051
 10
-7.7323693818
 20
38.0534988711
 10
-7.8255413109
 20
37.9302757539
 10
-7.9108422844
 20
37.8014781634
 10
-7.9883524478
 20
37.6671628897
 10
-8.0571981656
 20
37.5288181598
 10
-8.1172909309
 20
37.3864013013
 10
-8.1687192507
 20
37.2399549866
 10
-8.2108750098
 20
37.0910954597
 10
-8.2435555035
 20
36.9403614685
 10
-8.2669634366
 20
36.787214265
 10
-8.2810988091
 20
36.6316538492
  0
LWPOLYLINE
  5
22D
100
AcDbEntity
  8
IMPORT_IGES
100
AcDbPolyline
 62
253
  6
CONTINUOUS
 90
37
 70
0
 10
-6.5586017472
 20
38.3299623741
 10
-6.6132093851
 20
38.3061332932
 10
-6.6673123952
 20
38.2806041274
 10
-6.7208886873
 20
38.2533365197
 10
-6.7739545166
 20
38.224269911
 10
-6.8264476388
 20
38.1933847438
 10
-6.8782345961
 20
38.1607140049
 10
-6.9292976246
 20
38.1262296697
 10
-6.9796226399
 20
38.0899010767
 10
-7.0290944952
 20
38.0517773982
 10
-7.0776884158
 20
38.0118524267
 10
-7.1252944919
 20
37.9701967883
 10
-7.1716780855
 20
37.9269986712
 10
-7.2166997226
 20
37.8823707585
 10
-7.2602218301
 20
37.8364239072
 10
-7.3020985153
 20
37.7892958479
 10
-7.3423477693
 20
37.740972658
 10
-7.3810092845
 20
37.6914163141
 10
-7.4180663653
 20
37.6406657248
 10
-7.4535107341
 20
37.5887634269
 10
-7.4873332061
 20
37.5357505913
 10
-7.5195164571
 20
37.4816648641
 10
-7.5500065255
 20
37.4265938218
 10
-7.5787418754
 20
37.3706392002
 10
-7.6057018868
 20
37.313837756
 10
-7.630888253
 20
37.2561780665
 10
-7.6542360897
 20
37.1977952802
 10
-7.675651924
 20
37.1389380374
 10
-7.6951364292
 20
37.0796437007
 10
-7.7126957875
 20
37.0199472509
 10
-7.7282858934
 20
36.9601039549
 10
-7.7419431863
 20
36.9001366517
 10
-7.7537041815
 20
36.8400637556
 10
-7.7635544468
 20
36.7801724229
 10
-7.7715183753
 20
36.7206118344
 10
-7.7776448995
 20
36.6613687655
 10
-7.7819697318
 20
36.6025051577
  0
LINE
  5
22E
100
AcDbEntity
  8
IMPORT_IGES
100
AcDbLine
 62
7
  6
CONTINUOUS
 10
-13.9108876188
 20
-39.6280054785
 11
-14.0462246701
 21
-39.6477119367
  0
LINE
  5
22F
100
AcDbEntity
  8
IMPORT_IGES
100
AcDbLine
 62
7
  6
CONTINUOUS
 10
-14.0462246701
 20
-39.6477119367
 11
-14.1266309098
 21
-39.6589851854
  0
LINE
  5
230
100
AcDbEntity
  8
IMPORT_IGES
100
AcDbLine
 62
7
  6
CONTINUOUS
 10
-14.1266309098
 20
-39.6589851854
 11
-14.1707461171
 21
-39.6649376776
  0
LINE
  5
231
100
AcDbEntity
  8
IMPORT_IGES
100
AcDbLine
 62
7
  6
CONTINUOUS
 10
-14.1707461171
 20
-39.6649376776
 11
-14.2077003115
 21
-39.6697252111
  0
LWPOLYLINE
  5
232
100
AcDbEntity
  8
IMPORT_IGES
100
AcDbPolyline
 62
7
  6
CONTINUOUS
 90
10
 70
0
 10
-14.2077003115
 20
-39.6697252111
 10
-14.238248502
 20
-39.6734757392
 10
-14.2512076024
 20
-39.6749771514
 10
-14.2628611531
 20
-39.6762675082
 10
-14.2732164967
 20
-39.6773484365
 10
-14.2822662906
 20
-39.6782183094
 10
-14.2902258234
 20
-39.6789105968
 10
-14.297166858
 20
-39.6794364554
 10
-14.3030176314
 20
-39.6797847285
 10
-14.3077781437
 20
-39.6799554162
  0
LINE
  5
233
100
AcDbEntity
  8
IMPORT_IGES
100
AcDbLine
 62
7
  6
CONTINUOUS
 10
14.2382519799
 20
-39.6734761331
 11
14.2076981132
 21
-39.6697249153
  0
LINE
  5
234
100
AcDbEntity
  8
IMPORT_IGES
100
AcDbLine
 62
7
  6
CONTINUOUS
 10
14.2076981132
 20
-39.6697249153
 11
14.1707366151
 21
-39.664936402
  0
LINE
  5
235
100
AcDbEntity
  8
IMPORT_IGES
100
AcDbLine
 62
7
  6
CONTINUOUS
 10
14.1707366151
 20
-39.664936402
 11
14.1266129163
 21
-39.6589826977
  0
LINE
  5
236
100
AcDbEntity
  8
IMPORT_IGES
100
AcDbLine
 62
7
  6
CONTINUOUS
 10
14.1266129163
 20
-39.6589826977
 11
14.0461940995
 21
-39.6477075465
  0
LINE
  5
237
100
AcDbEntity
  8
IMPORT_IGES
100
AcDbLine
 62
7
  6
CONTINUOUS
 10
14.0461940995
 20
-39.6477075465
 11
13.9108337126
 21
-39.6279976243
  0
LINE
  5
238
100
AcDbEntity
  8
IMPORT_IGES
100
AcDbLine
 62
253
  6
CONTINUOUS
 10
-17.738855314
 20
-37.2740952464
 11
-17.477412341
 21
-37.2270752041
  0
LINE
  5
239
100
AcDbEntity
  8
IMPORT_IGES
100
AcDbLine
 62
253
  6
CONTINUOUS
 10
-18.5583934643
 20
-37.41611275
 11
-17.738855314
 21
-37.2740952464
  0
LINE
  5
23A
100
AcDbEntity
  8
IMPORT_IGES
100
AcDbLine
 62
253
  6
CONTINUOUS
 10
-18.8525022606
 20
-37.4649213836
 11
-18.5583934643
 21
-37.41611275
  0
LINE
  5
23B
100
AcDbEntity
  8
IMPORT_IGES
100
AcDbLine
 62
253
  6
CONTINUOUS
 10
-19.0210950299
 20
-37.4920038821
 11
-18.8525022606
 21
-37.4649213836
  0
LWPOLYLINE
  5
23C
100
AcDbEntity
  8
IMPORT_IGES
100
AcDbPolyline
 62
253
  6
CONTINUOUS
 90
8
 70
0
 10
19.225796449
 20
-37.5232554134
 10
19.2800201183
 20
-37.5310095302
 10
19.3268803825
 20
-37.5373414502
 10
19.3661873054
 20
-37.5423269104
 10
19.3977208642
 20
-37.5458616957
 10
19.4213847595
 20
-37.5479123201
 10
19.4371220109
 20
-37.5485293171
 10
19.4448485662
 20
-37.5477159836
  0
LINE
  5
23D
100
AcDbEntity
  8
IMPORT_IGES
100
AcDbLine
 62
253
  6
CONTINUOUS
 10
19.0960385522
 20
-37.5036975124
 11
19.225796449
 21
-37.5232554134
  0
LINE
  5
23E
100
AcDbEntity
  8
IMPORT_IGES
100
AcDbLine
 62
253
  6
CONTINUOUS
 10
18.9398066322
 20
-37.4789876514
 11
19.0960385522
 21
-37.5036975124
  0
LINE
  5
23F
100
AcDbEntity
  8
IMPORT_IGES
100
AcDbLine
 62
253
  6
CONTINUOUS
 10
18.759619322
 20
-37.4497232037
 11
18.9398066322
 21
-37.4789876514
  0
LINE
  5
240
100
AcDbEntity
  8
IMPORT_IGES
100
AcDbLine
 62
253
  6
CONTINUOUS
 10
18.4509675334
 20
-37.3979637982
 11
18.759619322
 21
-37.4497232037
  0
LINE
  5
241
100
AcDbEntity
  8
IMPORT_IGES
100
AcDbLine
 62
253
  6
CONTINUOUS
 10
17.9859453653
 20
-37.3174374644
 11
18.4509675334
 21
-37.3979637982
  0
LWPOLYLINE
  5
242
100
AcDbEntity
  8
IMPORT_IGES
100
AcDbPolyline
 62
253
  6
CONTINUOUS
 90
3
 70
0
 10
17.4774122001
 20
-37.2270751789
 10
17.6135064097
 20
-37.2517972695
 10
17.9859453653
 20
-37.3174374644
  0
LWPOLYLINE
  5
243
100
AcDbEntity
  8
IMPORT_IGES
100
AcDbPolyline
 62
7
  6
CONTINUOUS
 90
10
 70
0
 10
6.5587214237
 20
38.3302480195
 10
6.541224876
 20
38.3199022933
 10
6.524042162
 20
38.3094231177
 10
6.5071734844
 20
38.2988109771
 10
6.4908293386
 20
38.2879784596
 10
6.4747994214
 20
38.2770134374
 10
6.4584526811
 20
38.2661791864
 10
6.4415787195
 20
38.2555633514
 10
6.4243877427
 20
38.2450778271
 10
6.4068795494
 20
38.2347221287
  0
LINE
  5
244
100
AcDbEntity
  8
IMPORT_IGES
100
AcDbLine
 62
7
  6
CONTINUOUS
 10
7.6387661916
 20
36.5034277081
 11
7.784927932
 21
36.601322632
  0
LWPOLYLINE
  5
245
100
AcDbEntity
  8
IMPORT_IGES
100
AcDbPolyline
 62
253
  6
CONTINUOUS
 90
10
 70
0
 10
-22.5954320437
 20
-10.8430991642
 10
-22.4063534305
 20
-13.826691163
 10
-22.1769041478
 20
-16.8074520352
 10
-21.9071264202
 20
-19.7848355507
 10
-21.5970701233
 20
-22.7582960029
 10
-21.2467919953
 20
-25.727288627
 10
-20.8563556126
 20
-28.691269665
 10
-20.4258324239
 20
-31.6496960564
 10
-19.9553017504
 20
-34.6020255738
 10
-19.4448499828
 20
-37.5477172155
  0
LINE
  5
246
100
AcDbEntity
  8
IMPORT_IGES
100
AcDbLine
 62
7
  6
CONTINUOUS
 10
-23.2301919729
 20
34.6905852755
 11
-23.2382846522
 21
34.9700937106
  0
LINE
  5
247
100
AcDbEntity
  8
IMPORT_IGES
100
AcDbLine
 62
7
  6
CONTINUOUS
 10
-23.2229499193
 20
34.3780406718
 11
-23.2301919729
 21
34.6905852755
  0
LINE
  5
248
100
AcDbEntity
  8
IMPORT_IGES
100
AcDbLine
 62
7
  6
CONTINUOUS
 10
-23.216663423
 20
34.036594767
 11
-23.2229499193
 21
34.3780406718
  0
LINE
  5
249
100
AcDbEntity
  8
IMPORT_IGES
100
AcDbLine
 62
7
  6
CONTINUOUS
 10
-23.2114141689
 20
33.6710768366
 11
-23.216663423
 21
34.036594767
  0
LINE
  5
24A
100
AcDbEntity
  8
IMPORT_IGES
100
AcDbLine
 62
7
  6
CONTINUOUS
 10
-23.2072509376
 20
33.284814536
 11
-23.2114141689
 21
33.6710768366
  0
LINE
  5
24B
100
AcDbEntity
  8
IMPORT_IGES
100
AcDbLine
 62
7
  6
CONTINUOUS
 10
-23.2042391717
 20
32.882982169
 11
-23.2072509376
 21
33.284814536
  0
LINE
  5
24C
100
AcDbEntity
  8
IMPORT_IGES
100
AcDbLine
 62
7
  6
CONTINUOUS
 10
-23.2024186469
 20
32.4720243116
 11
-23.2042391717
 21
32.882982169
  0
LINE
  5
24D
100
AcDbEntity
  8
IMPORT_IGES
100
AcDbLine
 62
7
  6
CONTINUOUS
 10
-23.2018027939
 20
32.0538425404
 11
-23.2024186469
 21
32.4720243116
  0
LINE
  5
24E
100
AcDbEntity
  8
IMPORT_IGES
100
AcDbLine
 62
7
  6
CONTINUOUS
 10
-23.3
 20
2.5032732402
 11
-23.3
 21
35.6032727419
  0
LINE
  5
24F
100
AcDbEntity
  8
IMPORT_IGES
100
AcDbLine
 62
7
  6
CONTINUOUS
 10
-23.2934535196
 20
1.7325902855
 11
-23.2934535196
 21
2.3116865222
  0
LINE
  5
250
100
AcDbEntity
  8
IMPORT_IGES
100
AcDbLine
 62
7
  6
CONTINUOUS
 10
-23.2934535189
 20
35.7948433569
 11
-23.2934535189
 21
38.7074404334
  0
LINE
  5
251
100
AcDbEntity
  8
IMPORT_IGES
100
AcDbLine
 62
253
  6
CONTINUOUS
 10
-22.9537604783
 20
1.7325902855
 11
-22.9537604783
 21
38.4132765949
  0
LINE
  5
252
100
AcDbEntity
  8
IMPORT_IGES
100
AcDbLine
 62
7
  6
CONTINUOUS
 10
-23.2024184682
 20
5.6344579327
 11
-23.2018027939
 21
32.0538425404
  0
LINE
  5
253
100
AcDbEntity
  8
IMPORT_IGES
100
AcDbLine
 62
7
  6
CONTINUOUS
 10
-23.2042390829
 20
5.2235658384
 11
-23.2024184682
 21
5.6344579327
  0
LINE
  5
254
100
AcDbEntity
  8
IMPORT_IGES
100
AcDbLine
 62
7
  6
CONTINUOUS
 10
-23.2072511411
 20
4.8217108415
 11
-23.2042390829
 21
5.2235658384
  0
LINE
  5
255
100
AcDbEntity
  8
IMPORT_IGES
100
AcDbLine
 62
7
  6
CONTINUOUS
 10
-23.2114146057
 20
4.4354465353
 11
-23.2072511411
 21
4.8217108415
  0
LINE
  5
256
100
AcDbEntity
  8
IMPORT_IGES
100
AcDbLine
 62
7
  6
CONTINUOUS
 10
-23.2166640588
 20
4.069928623
 11
-23.2114146057
 21
4.4354465353
  0
LINE
  5
257
100
AcDbEntity
  8
IMPORT_IGES
100
AcDbLine
 62
7
  6
CONTINUOUS
 10
-23.2229507101
 20
3.7284844499
 11
-23.2166640588
 21
4.069928623
  0
LINE
  5
258
100
AcDbEntity
  8
IMPORT_IGES
100
AcDbLine
 62
7
  6
CONTINUOUS
 10
-23.2301928618
 20
3.4159427509
 11
-23.2229507101
 21
3.7284844499
  0
LWPOLYLINE
  5
259
100
AcDbEntity
  8
IMPORT_IGES
100
AcDbPolyline
 62
7
  6
CONTINUOUS
 90
25
 70
0
 10
-23.2936096088
 20
38.7082591185
 10
-23.2903070451
 20
38.8274038206
 10
-23.2799837048
 20
38.9453815459
 10
-23.2626395879
 20
39.0621922944
 10
-23.2381350113
 20
39.1782687435
 10
-23.2066096581
 20
39.2931782158
 10
-23.1684825775
 20
39.4056226787
 10
-23.1237133025
 20
39.5155460253
 10
-23.0723423002
 20
39.6230043626
 10
-23.0149100207
 20
39.7268679782
 10
-22.9513519261
 20
39.8270997548
 10
-22.8817325545
 20
39.9237368099
 10
-22.80678597
 20
40.0157607829
 10
-22.7264578333
 20
40.1031214623
 10
-22.6408024838
 20
40.1858690597
 10
-22.5507170033
 20
40.2631358491
 10
-22.4561528373
 20
40.3348659383
 10
-22.3571585403
 20
40.4011152195
 10
-22.2547768583
 20
40.4611836431
 10
-22.1489662736
 20
40.5150028574
 10
-22.039768304
 20
40.5626412141
 10
-21.928350249
 20
40.6036037193
 10
-21.8151012083
 20
40.6377253752
 10
-21.6996320822
 20
40.6651711796
 10
-21.5819428707
 20
40.6859411326
  0
LWPOLYLINE
  5
25A
100
AcDbEntity
  8
IMPORT_IGES
100
AcDbPolyline
 62
253
  6
CONTINUOUS
 90
25
 70
0
 10
-22.9528173732
 20
38.4134963313
 10
-22.9492194255
 20
38.5322235169
 10
-22.9385750357
 20
38.6505623546
 10
-22.9209163217
 20
38.7680945263
 10
-22.8962982029
 20
38.8844123975
 10
-22.8648033585
 20
38.9990950983
 10
-22.8265469244
 20
39.1117113439
 10
-22.7816667227
 20
39.221854959
 10
-22.7303182457
 20
39.3291439427
 10
-22.6726828682
 20
39.4331974939
 10
-22.6089627916
 20
39.5336487763
 10
-22.5393837309
 20
39.6301403458
 10
-22.4641957437
 20
39.7223252706
 10
-22.3836673954
 20
39.809875525
 10
-22.2980820465
 20
39.8924842085
 10
-22.2077408536
 20
39.9698610457
 10
-22.1129611954
 20
40.0417339753
 10
-22.0140804152
 20
40.1078469673
 10
-21.9114533493
 20
40.1679634709
 10
-21.8054091496
 20
40.2218880136
 10
-21.6963558197
 20
40.2694105429
 10
-21.584793329
 20
40.3103260116
 10
-21.4711618818
 20
40.3445006286
 10
-21.3558309715
 20
40.3718503495
 10
-21.2392109918
 20
40.3923008312
  0
LINE
  5
25B
100
AcDbEntity
  8
IMPORT_IGES
100
AcDbLine
 62
7
  6
CONTINUOUS
 10
-23.2382855754
 20
3.1364376889
 11
-23.2301928618
 21
3.4159427509
  0
LWPOLYLINE
  5
25C
100
AcDbEntity
  8
IMPORT_IGES
100
AcDbPolyline
 62
7
  6
CONTINUOUS
 90
5
 70
0
 10
-23.2616506128
 20
2.6010068247
 10
-23.256684105
 20
2.6878171883
 10
-23.2518375663
 20
2.7852962458
 10
-23.2471551236
 20
2.8925311207
 10
-23.2382855754
 20
3.1364376889
  0
LWPOLYLINE
  5
25D
100
AcDbEntity
  8
IMPORT_IGES
100
AcDbPolyline
 62
7
  6
CONTINUOUS
 90
7
 70
0
 10
-23.2934535196
 20
2.3116865222
 10
-23.2879717898
 20
2.3316588512
 10
-23.2825625582
 20
2.3629302688
 10
-23.2772258246
 20
2.4055007749
 10
-23.2719457655
 20
2.4595805011
 10
-23.2667382046
 20
2.5249593159
 10
-23.2616506128
 20
2.6010068247
  0
LWPOLYLINE
  5
25E
100
AcDbEntity
  8
IMPORT_IGES
100
AcDbPolyline
 62
7
  6
CONTINUOUS
 90
10
 70
0
 10
-11.2604945495
 20
-20.60640042
 10
-11.2229770286
 20
-20.6370037717
 10
-11.1825702036
 20
-20.6641865392
 10
-11.1392740745
 20
-20.6879487225
 10
-11.0928522435
 20
-20.7084267659
 10
-11.0435411084
 20
-20.725484225
 10
-10.9920498629
 20
-20.7387117673
 10
-10.9386149048
 20
-20.7479729483
 10
-10.8829998362
 20
-20.7534042123
 10
-10.8252046572
 20
-20.7550055594
  0
LWPOLYLINE
  5
25F
100
AcDbEntity
  8
IMPORT_IGES
100
AcDbPolyline
 62
7
  6
CONTINUOUS
 90
10
 70
0
 10
-11.0712823524
 20
-20.4663630152
 10
-11.0920161032
 20
-20.4460250595
 10
-11.1112549372
 20
-20.4229732895
 10
-11.1289988545
 20
-20.3972077052
 10
-11.145387195
 20
-20.368577651
 10
-11.1602806188
 20
-20.3372337825
 10
-11.1732611056
 20
-20.3036280662
 10
-11.1841893153
 20
-20.2679111575
 10
-11.193204588
 20
-20.2299324009
 10
-11.2003069237
 20
-20.1896917965
  0
LWPOLYLINE
  5
260
100
AcDbEntity
  8
IMPORT_IGES
100
AcDbPolyline
 62
253
  6
CONTINUOUS
 90
10
 70
0
 10
-17.477296127
 20
-37.227054449
 10
-17.9833750331
 20
-34.3052108352
 10
-18.4496959461
 20
-31.3778562592
 10
-18.8762588659
 20
-28.444990721
 10
-19.2631277752
 20
-25.506071476
 10
-19.6102386914
 20
-22.5616412687
 10
-19.9173996663
 20
-19.6133283333
 10
-20.1845467174
 20
-16.6616754143
 10
-20.4117438271
 20
-13.7061397672
 10
-20.5989909957
 20
-10.7467213918
  0
LWPOLYLINE
  5
261
100
AcDbEntity
  8
IMPORT_IGES
100
AcDbPolyline
 62
7
  6
CONTINUOUS
 90
7
 70
0
 10
-23.2616498993
 20
35.5055312415
 10
-23.2667375835
 20
35.581579024
 10
-23.2719452524
 20
35.6469576534
 10
-23.2772254282
 20
35.7010364676
 10
-23.2825622849
 20
35.7436052459
 10
-23.2879716485
 20
35.774874209
 10
-23.2934535189
 20
35.7948433569
  0
LWPOLYLINE
  5
262
100
AcDbEntity
  8
IMPORT_IGES
100
AcDbPolyline
 62
7
  6
CONTINUOUS
 90
4
 70
0
 10
-23.2471542329
 20
35.2140036379
 10
-23.2518367181
 20
35.3212398996
 10
-23.2566833163
 20
35.4187201471
 10
-23.2616498993
 20
35.5055312415
  0
LINE
  5
263
100
AcDbEntity
  8
IMPORT_IGES
100
AcDbLine
 62
7
  6
CONTINUOUS
 10
-23.2382846522
 20
34.9700937106
 11
-23.2471542329
 21
35.2140036379
  0
LINE
  5
264
100
AcDbEntity
  8
IMPORT_IGES
100
AcDbLine
 62
253
  6
CONTINUOUS
 10
-20.9544458309
 20
38.4132765677
 11
-20.9544458309
 21
1.7325905878
  0
LINE
  5
265
100
AcDbEntity
  8
IMPORT_IGES
100
AcDbLine
 62
7
  6
CONTINUOUS
 10
-11.4517053589
 20
-20.210973912
 11
-11.2003069237
 21
-20.1896917965
  0
LWPOLYLINE
  5
266
100
AcDbEntity
  8
IMPORT_IGES
100
AcDbPolyline
 62
7
  6
CONTINUOUS
 90
10
 70
0
 10
-9.3008527379
 20
-20.7550055594
 10
-9.2519232444
 20
-20.7531008885
 10
-9.2052704085
 20
-20.7483299997
 10
-9.1608942303
 20
-20.740692893
 10
-9.1186248639
 20
-20.7299698239
 10
-9.0786321551
 20
-20.7163805369
 10
-9.0414256417
 20
-20.700584266
 10
-9.0071751696
 20
-20.6828007558
 10
-8.975710893
 20
-20.6628102616
 10
-8.9470328118
 20
-20.6406127836
  0
LWPOLYLINE
  5
267
100
AcDbEntity
  8
IMPORT_IGES
100
AcDbPolyline
 62
7
  6
CONTINUOUS
 90
13
 70
0
 10
-9.3008527324
 20
-20.5581433564
 10
-9.2755537402
 20
-20.55724415
 10
-9.2505450286
 20
-20.5541601676
 10
-9.2258265975
 20
-20.5488914091
 10
-9.201330243
 20
-20.5414711007
 10
-9.1771241691
 20
-20.5318660162
 10
-9.1534129876
 20
-20.5199764771
 10
-9.1301821738
 20
-20.5058411472
 10
-9.1074462525
 20
-20.4894213628
 10
-9.0854534091
 20
-20.4705014542
 10
-9.0642863722
 20
-20.4490095316
 10
-9.0438624132
 20
-20.4250174849
 10
-9.0241815323
 20
-20.398525314
  0
LWPOLYLINE
  5
268
100
AcDbEntity
  8
IMPORT_IGES
100
AcDbPolyline
 62
7
  6
CONTINUOUS
 90
10
 70
0
 10
-10.7653479297
 20
-19.4288459267
 10
-10.8060755168
 20
-19.4302449918
 10
-10.8469814017
 20
-19.4346871872
 10
-10.8880655844
 20
-19.4421725127
 10
-10.9294953033
 20
-19.4526924654
 10
-10.97110332
 20
-19.4662555484
 10
-11.012387919
 20
-19.4828872706
 10
-11.0531818619
 20
-19.5025961351
 10
-11.0936523872
 20
-19.5253736388
 10
-11.1337994948
 20
-19.5512197818
  0
LWPOLYLINE
  5
269
100
AcDbEntity
  8
IMPORT_IGES
100
AcDbPolyline
 62
7
  6
CONTINUOUS
 90
13
 70
0
 10
-10.8252046572
 20
-20.7550055594
 10
-10.7713261814
 20
-20.7532429742
 10
-10.7194352182
 20
-20.748146562
 10
-10.6695317676
 20
-20.7397163228
 10
-10.6217043897
 20
-20.7280318542
 10
-10.5758645243
 20
-20.7130135587
 10
-10.5317464917
 20
-20.6944226432
 10
-10.4888948575
 20
-20.6717615678
 10
-10.447765056
 20
-20.6455278723
 10
-10.4094577103
 20
-20.6169753833
 10
-10.3743396947
 20
-20.5865220427
 10
-10.3420441348
 20
-20.5537499085
 10
-10.3125710306
 20
-20.5186589807
  0
LWPOLYLINE
  5
26A
100
AcDbEntity
  8
IMPORT_IGES
100
AcDbPolyline
 62
7
  6
CONTINUOUS
 90
13
 70
0
 10
-5.4753411241
 20
-19.5485594149
 10
-5.5136742699
 20
-19.5497690844
 10
-5.5506426462
 20
-19.5532195948
 10
-5.5862462529
 20
-19.5589109463
 10
-5.6203973814
 20
-19.5667880712
 10
-5.6531837404
 20
-19.5769060371
 10
-5.6848684561
 20
-19.5894300468
 10
-5.7158075906
 20
-19.6046838324
 10
-5.7456450819
 20
-19.6223436617
 10
-5.77357587
 20
-19.6416035417
 10
-5.7993316016
 20
-19.6621948079
 10
-5.82318063
 20
-19.6843861248
 10
-5.8451229553
 20
-19.7081774922
  0
LWPOLYLINE
  5
26B
100
AcDbEntity
  8
IMPORT_IGES
100
AcDbPolyline
 62
7
  6
CONTINUOUS
 90
10
 70
0
 10
-4.8528308664
 20
-19.9781979169
 10
-4.8282216642
 20
-19.9776706969
 10
-4.8043041062
 20
-19.976246043
 10
-4.7810781927
 20
-19.9739239554
 10
-4.7585049641
 20
-19.9706622593
 10
-4.7366233799
 20
-19.9665031293
 10
-4.7155503182
 20
-19.9615730897
 10
-4.6953247383
 20
-19.9559143152
 10
-4.675907681
 20
-19.949484631
 10
-4.6572991461
 20
-19.9422840372
  0
LINE
  5
26C
100
AcDbEntity
  8
IMPORT_IGES
100
AcDbLine
 62
7
  6
CONTINUOUS
 10
7.4020000175
 20
-21.9692289765
 11
12.5979995355
 21
-21.9692289765
  0
LINE
  5
26D
100
AcDbEntity
  8
IMPORT_IGES
100
AcDbLine
 62
7
  6
CONTINUOUS
 10
12.5979995355
 20
-20.96922695
 11
7.4020000175
 21
-20.96922695
  0
LINE
  5
26E
100
AcDbEntity
  8
IMPORT_IGES
100
AcDbLine
 62
7
  6
CONTINUOUS
 10
-12.9973397001
 20
-20.7217518087
 11
-11.7084244266
 21
-20.7217521901
  0
LINE
  5
26F
100
AcDbEntity
  8
IMPORT_IGES
100
AcDbLine
 62
7
  6
CONTINUOUS
 10
-7.0103341714
 20
-20.7217521901
 11
-6.7456346005
 21
-20.7217521901
  0
LINE
  5
270
100
AcDbEntity
  8
IMPORT_IGES
100
AcDbLine
 62
7
  6
CONTINUOUS
 10
-11.7084244266
 20
-20.4916372831
 11
-12.664802437
 21
-20.4916358403
  0
LINE
  5
271
100
AcDbEntity
  8
IMPORT_IGES
100
AcDbLine
 62
7
  6
CONTINUOUS
 10
4.0041329339
 20
-20.1146876156
 11
2.5724552674
 21
-20.1146876156
  0
LINE
  5
272
100
AcDbEntity
  8
IMPORT_IGES
100
AcDbLine
 62
7
  6
CONTINUOUS
 10
4.0041329339
 20
-19.3794928427
 11
2.5724476942
 21
-19.3794928427
  0
LINE
  5
273
100
AcDbEntity
  8
IMPORT_IGES
100
AcDbLine
 62
7
  6
CONTINUOUS
 10
9.3350315074
 20
-19.1057738308
 11
8.9505198142
 21
-19.1057738308
  0
LINE
  5
274
100
AcDbEntity
  8
IMPORT_IGES
100
AcDbLine
 62
7
  6
CONTINUOUS
 10
-11.028717272
 20
-19.0271399851
 11
-10.2505795658
 21
-19.0271399851
  0
LINE
  5
275
100
AcDbEntity
  8
IMPORT_IGES
100
AcDbLine
 62
7
  6
CONTINUOUS
 10
9.0466476977
 20
-19.0096422966
 11
9.2389043421
 21
-19.0096422966
  0
LWPOLYLINE
  5
276
100
AcDbEntity
  8
IMPORT_IGES
100
AcDbPolyline
 62
7
  6
CONTINUOUS
 90
10
 70
0
 10
-4.8275610726
 20
-19.7267998794
 10
-4.8380158144
 20
-19.7266617931
 10
-4.8484494871
 20
-19.7262247059
 10
-4.8588620908
 20
-19.7254886176
 10
-4.8692620614
 20
-19.7244522134
 10
-4.879640963
 20
-19.7231168082
 10
-4.8899734876
 20
-19.721486347
 10
-4.9002511992
 20
-19.7195621449
 10
-4.9104825338
 20
-19.7173428869
 10
-4.9206674915
 20
-19.7148285729
  0
LWPOLYLINE
  5
277
100
AcDbEntity
  8
IMPORT_IGES
100
AcDbPolyline
 62
7
  6
CONTINUOUS
 90
10
 70
0
 10
-12.3242837178
 20
-18.961963218
 10
-12.2883311545
 20
-18.9631665257
 10
-12.2538996695
 20
-18.9669300068
 10
-12.220989263
 20
-18.9732536612
 10
-12.1894475493
 20
-18.982306556
 10
-12.159426914
 20
-18.9939196241
 10
-12.1313845141
 20
-19.0075856651
 10
-12.1054727352
 20
-19.0231356122
 10
-12.0815391916
 20
-19.0407385321
 10
-12.0595838834
 20
-19.060394425
  0
LWPOLYLINE
  5
278
100
AcDbEntity
  8
IMPORT_IGES
100
AcDbPolyline
 62
7
  6
CONTINUOUS
 90
10
 70
0
 10
-10.8291950533
 20
-19.6403398062
 10
-10.7886450036
 20
-19.6417654524
 10
-10.7497455135
 20
-19.6462655856
 10
-10.712496583
 20
-19.6538402058
 10
-10.6767037859
 20
-19.6646672995
 10
-10.6425615484
 20
-19.6785688803
 10
-10.6106531496
 20
-19.6950109887
 10
-10.5811730156
 20
-19.7138156381
 10
-10.5539267203
 20
-19.7351608151
 10
-10.5289142635
 20
-19.7590465197
  0
LWPOLYLINE
  5
279
100
AcDbEntity
  8
IMPORT_IGES
100
AcDbPolyline
 62
7
  6
CONTINUOUS
 90
13
 70
0
 10
-9.303512983
 20
-18.961963218
 10
-9.2773986933
 20
-18.9629466232
 10
-9.251431424
 20
-18.9662253589
 10
-9.2256111753
 20
-18.9717994251
 10
-9.1996067357
 20
-18.9797226133
 10
-9.1737493165
 20
-18.9899411321
 10
-9.1490325523
 20
-19.0022936068
 10
-9.125868321
 20
-19.0167420805
 10
-9.1038447446
 20
-19.0333245102
 10
-9.0827198229
 20
-19.0519933922
 10
-9.0624128891
 20
-19.0727328922
 10
-9.0430046101
 20
-19.0955588445
 10
-9.0244949857
 20
-19.1204712493
  0
LWPOLYLINE
  5
27A
100
AcDbEntity
  8
IMPORT_IGES
100
AcDbPolyline
 62
7
  6
CONTINUOUS
 90
10
 70
0
 10
-10.8252047807
 20
-20.5581433564
 10
-10.8565380453
 20
-20.5567599614
 10
-10.8869842431
 20
-20.5531130456
 10
-10.9165433741
 20
-20.5472026089
 10
-10.94536312
 20
-20.5389487638
 10
-10.973295799
 20
-20.5284313979
 10
-10.9998983662
 20
-20.5158901738
 10
-11.02502314
 20
-20.5014049791
 10
-11.0488178021
 20
-20.4848959262
 10
-11.0712823524
 20
-20.4663630152
  0
LWPOLYLINE
  5
27B
100
AcDbEntity
  8
IMPORT_IGES
100
AcDbPolyline
 62
7
  6
CONTINUOUS
 90
10
 70
0
 10
-5.4979537341
 20
-19.7999578099
 10
-5.4715190615
 20
-19.8011790521
 10
-5.4443960172
 20
-19.8041701753
 10
-5.4165846011
 20
-19.8089311796
 10
-5.388051327
 20
-19.8155974877
 10
-5.3588296812
 20
-19.8240336769
 10
-5.3290201221
 20
-19.8338334787
 10
-5.2986561359
 20
-19.8448614702
 10
-5.2677042365
 20
-19.8572530744
 10
-5.2361644238
 20
-19.8710082911
  0
LINE
  5
27C
100
AcDbEntity
  8
IMPORT_IGES
100
AcDbLine
 62
7
  6
CONTINUOUS
 10
-12.7060366794
 20
-19.3530283804
 11
-12.9521146025
 21
-19.3277545418
  0
LINE
  5
27D
100
AcDbEntity
  8
IMPORT_IGES
100
AcDbLine
 62
7
  6
CONTINUOUS
 10
-11.1843451872
 20
-19.8292210902
 11
-11.409140192
 21
-19.7999589081
  0
LWPOLYLINE
  5
27E
100
AcDbEntity
  8
IMPORT_IGES
100
AcDbPolyline
 62
7
  6
CONTINUOUS
 90
10
 70
0
 10
-5.0059665995
 20
-19.9601964028
 10
-4.9905563941
 20
-19.9639817608
 10
-4.9747319992
 20
-19.9673214224
 10
-4.9584934151
 20
-19.9702153875
 10
-4.9418233477
 20
-19.9726644577
 10
-4.924739091
 20
-19.9746678314
 10
-4.9072925264
 20
-19.9762231046
 10
-4.8895009477
 20
-19.9773294759
 10
-4.871347061
 20
-19.9779877467
 10
-4.8528308664
 20
-19.9781979169
  0
LWPOLYLINE
  5
27F
100
AcDbEntity
  8
IMPORT_IGES
100
AcDbPolyline
 62
7
  6
CONTINUOUS
 90
10
 70
0
 10
-5.3077421036
 20
-19.5725021869
 10
-5.3274639242
 20
-19.5674091966
 10
-5.3469257576
 20
-19.5629288086
 10
-5.3661276037
 20
-19.5590610226
 10
-5.3850893822
 20
-19.5558117477
 10
-5.4037911734
 20
-19.5531750749
 10
-5.422173219
 20
-19.5511332779
 10
-5.4402155996
 20
-19.5496804478
 10
-5.4579382347
 20
-19.5488224935
 10
-5.4753411241
 20
-19.5485594149
  0
LWPOLYLINE
  5
280
100
AcDbEntity
  8
IMPORT_IGES
100
AcDbPolyline
 62
7
  6
CONTINUOUS
 90
9
 70
0
 10
-4.9206674915
 20
-19.7148285729
 10
-4.9354126747
 20
-19.710670948
 10
-4.9502768271
 20
-19.7061308409
 10
-4.9652599488
 20
-19.7012082518
 10
-4.9803510168
 20
-19.6958545409
 10
-4.995561054
 20
-19.6901183479
 10
-5.0109231295
 20
-19.6841455922
 10
-5.0264482663
 20
-19.6779849133
 10
-5.0421254414
 20
-19.6715876718
  0
LWPOLYLINE
  5
281
100
AcDbEntity
  8
IMPORT_IGES
100
AcDbPolyline
 62
7
  6
CONTINUOUS
 90
10
 70
0
 10
-5.0421254414
 20
-19.6715876718
 10
-5.0869814214
 20
-19.6527821248
 10
-5.1156751141
 20
-19.6410263098
 10
-5.1440357328
 20
-19.6296864223
 10
-5.172043381
 20
-19.6186839213
 10
-5.1997179552
 20
-19.6080973478
 10
-5.2271191455
 20
-19.5981623253
 10
-5.2542668487
 20
-19.5889573949
 10
-5.2811411681
 20
-19.5804040154
 10
-5.3077421036
 20
-19.5725021869
  0
LWPOLYLINE
  5
282
100
AcDbEntity
  8
IMPORT_IGES
100
AcDbPolyline
 62
7
  6
CONTINUOUS
 90
10
 70
0
 10
-5.2361644238
 20
-19.8710082911
 10
-5.2092300336
 20
-19.8829795225
 10
-5.1826548431
 20
-19.8945105206
 10
-5.1564388525
 20
-19.9056012853
 10
-5.1306087101
 20
-19.9163519859
 10
-5.1051377675
 20
-19.9266624532
 10
-5.0799460797
 20
-19.9362321793
 10
-5.0550069982
 20
-19.9449609949
 10
-5.0303471715
 20
-19.9529490695
 10
-5.0059665995
 20
-19.9601964028
  0
LWPOLYLINE
  5
283
100
AcDbEntity
  8
IMPORT_IGES
100
AcDbPolyline
 62
7
  6
CONTINUOUS
 90
10
 70
0
 10
-9.0256604237
 20
-18.8278958003
 10
-9.0519863735
 20
-18.8146549759
 10
-9.0794271529
 20
-18.8029166608
 10
-9.107982762
 20
-18.792680855
 10
-9.1377226493
 20
-18.7839122952
 10
-9.1685773662
 20
-18.7766462446
 10
-9.2003385675
 20
-18.7709884933
 10
-9.2329368048
 20
-18.7669743044
 10
-9.2664415264
 20
-18.7645684147
 10
-9.3008527324
 20
-18.7637708242
  0
LWPOLYLINE
  5
284
100
AcDbEntity
  8
IMPORT_IGES
100
AcDbPolyline
 62
7
  6
CONTINUOUS
 90
13
 70
0
 10
-11.8746930183
 20
-18.9193985085
 10
-11.9006431459
 20
-18.8959385878
 10
-11.9292703756
 20
-18.874022233
 10
-11.9605747074
 20
-18.8536494441
 10
-11.9952648263
 20
-18.8344611758
 10
-12.0326320473
 20
-18.8168164735
 10
-12.0705503153
 20
-18.801792473
 10
-12.1078078569
 20
-18.7899358733
 10
-12.1456164455
 20
-18.7806999753
 10
-12.1854853467
 20
-18.7735218176
 10
-12.227917649
 20
-18.7682137463
 10
-12.2724102639
 20
-18.7649634151
 10
-12.3189631914
 20
-18.7637708242
  0
LWPOLYLINE
  5
285
100
AcDbEntity
  8
IMPORT_IGES
100
AcDbPolyline
 62
7
  6
CONTINUOUS
 90
13
 70
0
 10
-10.3347113172
 20
-19.6060870605
 10
-10.363549386
 20
-19.5786334351
 10
-10.3938872882
 20
-19.5533108373
 10
-10.4257250237
 20
-19.5301192672
 10
-10.4592220736
 20
-19.5089042084
 10
-10.4942189568
 20
-19.4898201773
 10
-10.5302372301
 20
-19.4733307225
 10
-10.5671726435
 20
-19.4596259627
 10
-10.6051294469
 20
-19.4485157792
 10
-10.6439419466
 20
-19.4398933646
 10
-10.6835549114
 20
-19.4337231164
 10
-10.7240235724
 20
-19.4300406371
 10
-10.7653479297
 20
-19.4288459267
  0
LWPOLYLINE
  5
286
100
AcDbEntity
  8
IMPORT_IGES
100
AcDbPolyline
 62
7
  6
CONTINUOUS
 90
10
 70
0
 10
-12.0595838834
 20
-19.060394425
 10
-12.0383534125
 20
-19.0823534813
 10
-12.0195329401
 20
-19.1056090472
 10
-12.0031224662
 20
-19.1301611226
 10
-11.9890518906
 20
-19.1561904089
 10
-11.9773913136
 20
-19.1835162047
 10
-11.968351036
 20
-19.2115964058
 10
-11.9620011583
 20
-19.2402503108
 10
-11.95827158
 20
-19.269658621
 10
-11.9571623012
 20
-19.2998213366
  0
LWPOLYLINE
  5
287
100
AcDbEntity
  8
IMPORT_IGES
100
AcDbPolyline
 62
7
  6
CONTINUOUS
 90
10
 70
0
 10
-10.5289142635
 20
-19.7590465197
 10
-10.5049864793
 20
-19.7859381962
 10
-10.4837326252
 20
-19.8152344847
 10
-10.4651527011
 20
-19.8469353852
 10
-10.4491343917
 20
-19.8812515647
 10
-10.4357900124
 20
-19.9179723561
 10
-10.4254565089
 20
-19.9564657589
 10
-10.4182461964
 20
-19.9965211061
 10
-10.4140467596
 20
-20.0383490646
 10
-10.4128581986
 20
-20.0819496343
  0
LWPOLYLINE
  5
288
100
AcDbEntity
  8
IMPORT_IGES
100
AcDbPolyline
 62
7
  6
CONTINUOUS
 90
13
 70
0
 10
-9.7442831521
 20
-20.5532089891
 10
-9.718441769
 20
-20.5839930055
 10
-9.6901058123
 20
-20.6126161831
 10
-9.6592752822
 20
-20.6390785219
 10
-9.6255097691
 20
-20.6637433299
 10
-9.5892496825
 20
-20.6862472992
 10
-9.551816251
 20
-20.7055005053
 10
-9.5138115561
 20
-20.7209755034
 10
-9.4746335163
 20
-20.7331997384
 10
-9.4337971161
 20
-20.7426656204
 10
-9.3911406837
 20
-20.7495372863
 10
-9.346825891
 20
-20.7536505993
 10
-9.3008527379
 20
-20.7550055594
  0
LWPOLYLINE
  5
289
100
AcDbEntity
  8
IMPORT_IGES
100
AcDbPolyline
 62
7
  6
CONTINUOUS
 90
22
 70
0
 10
-9.7442831521
 20
-20.5532089891
 10
-9.7597994515
 20
-20.5328559352
 10
-9.7748881159
 20
-20.5108880596
 10
-9.7895491454
 20
-20.4873053626
 10
-9.8038353288
 20
-20.4621408126
 10
-9.8176938773
 20
-20.4353614411
 10
-9.8309664238
 20
-20.4068683418
 10
-9.8436532706
 20
-20.376658873
 10
-9.8557541155
 20
-20.3447356765
 10
-9.8671096845
 20
-20.3110077714
 10
-9.8776953024
 20
-20.275465413
 10
-9.8875356445
 20
-20.2381183462
 10
-9.8965454624
 20
-20.1989048245
 10
-9.9047287199
 20
-20.1578195668
 10
-9.9120814531
 20
-20.1148678543
 10
-9.9185065224
 20
-20.0700037843
 10
-9.9239981114
 20
-20.023231121
 10
-9.9285620366
 20
-19.9745461001
 10
-9.9321186067
 20
-19.9238915267
 10
-9.9346412582
 20
-19.8712483355
 10
-9.9361565548
 20
-19.8166355918
 10
-9.9366644964
 20
-19.7600532953
  0
LWPOLYLINE
  5
28A
100
AcDbEntity
  8
IMPORT_IGES
100
AcDbPolyline
 62
7
  6
CONTINUOUS
 90
13
 70
0
 10
-9.5788540408
 20
-20.3998554926
 10
-9.5599150017
 20
-20.4255416879
 10
-9.5400854312
 20
-20.448913553
 10
-9.5193653294
 20
-20.4699710878
 10
-9.4977548497
 20
-20.4886636883
 10
-9.4752538386
 20
-20.5050419587
 10
-9.4518618362
 20
-20.5192577105
 10
-9.4272803688
 20
-20.5314096813
 10
-9.4018079101
 20
-20.5413991337
 10
-9.376339421
 20
-20.5490816674
 10
-9.3511732218
 20
-20.554409149
 10
-9.3260109923
 20
-20.557429712
 10
-9.3008527324
 20
-20.5581433564
  0
LWPOLYLINE
  5
28B
100
AcDbEntity
  8
0
100
AcDbPolyline
 62
253
  6
CONTINUOUS
 90
13
 70
0
 10
-15.9130434783
 20
-4.3952961612
 10
-15.9134499756
 20
-4.3863975263
 10
-15.9145872976
 20
-4.3776963146
 10
-15.9164626234
 20
-4.3691805494
 10
-15.919118117
 20
-4.3607689126
 10
-15.9225246845
 20
-4.352524114
 10
-15.9265878669
 20
-4.3446580908
 10
-15.9313414034
 20
-4.3371970727
 10
-15.9367758775
 20
-4.3301198769
 10
-15.9427393328
 20
-4.3235787329
 10
-15.9491906029
 20
-4.3176336779
 10
-15.9561964814
 20
-4.3122488242
 10
-15.9637681159
 20
-4.3074385115
  0
LWPOLYLINE
  5
28C
100
AcDbEntity
  8
0
100
AcDbPolyline
 62
7
  6
CONTINUOUS
 90
8
 70
0
 10
-15.8969071777
 20
-3.2015125363
 10
-15.8968404557
 20
-3.2150300408
 10
-15.8964777597
 20
-3.2284400921
 10
-15.8958311208
 20
-3.2415763506
 10
-15.8950840303
 20
-3.2542312865
 10
-15.8942308497
 20
-3.2662126558
 10
-15.8930944793
 20
-3.277355943
 10
-15.8915920599
 20
-3.2874782528
  0
LINE
  5
28D
100
AcDbEntity
  8
0
100
AcDbLine
 62
7
  6
CONTINUOUS
 10
-15.8
 20
-4.4003165983
 11
-15.8
 21
-6.2057669384
  0
LINE
  5
28E
100
AcDbEntity
  8
0
100
AcDbLine
 62
253
  6
CONTINUOUS
 10
-15.9130434783
 20
-6.3093581595
 11
-15.9130434783
 21
-4.5106244707
  0
LWPOLYLINE
  5
28F
100
AcDbEntity
  8
0
100
AcDbPolyline
 62
253
  6
CONTINUOUS
 90
3
 70
0
 10
-15.9130434783
 20
-4.5106244707
 10
-15.912959384
 20
-4.4719495461
 10
-15.9130434783
 20
-4.3952961612
  0
LINE
  5
290
100
AcDbEntity
  8
0
100
AcDbLine
 62
7
  6
CONTINUOUS
 10
-15.8967567497
 20
-3.1746922131
 11
-15.8969071777
 21
-3.2015125363
  0
LINE
  5
291
100
AcDbEntity
  8
IMPORT_IGES
100
AcDbLine
 62
7
  6
CONTINUOUS
 10
21.4669310058
 20
40.5881185515
 11
21.3530739747
 21
40.4902120655
  0
LINE
  5
292
100
AcDbEntity
  8
IMPORT_IGES
100
AcDbLine
 62
7
  6
CONTINUOUS
 10
21.5817908125
 20
40.6858682632
 11
21.4669310058
 21
40.5881185515
  0
LINE
  5
293
100
AcDbEntity
  8
IMPORT_IGES
100
AcDbLine
 62
7
  6
CONTINUOUS
 10
21.3530739747
 20
40.4902120655
 11
21.2381974943
 21
40.3924475122
  0
LWPOLYLINE
  5
294
100
AcDbEntity
  8
IMPORT_IGES
100
AcDbPolyline
 62
7
  6
CONTINUOUS
 90
10
 70
0
 10
-9.3008527324
 20
-18.7637708242
 10
-9.3490878137
 20
-18.7656613959
 10
-9.39520738
 20
-18.7704159891
 10
-9.4392114311
 20
-18.7780346037
 10
-9.4812653152
 20
-18.7887146667
 10
-9.5212036842
 20
-18.8022587512
 10
-9.5585304935
 20
-18.8180745765
 10
-9.5930803949
 20
-18.8359647157
 10
-9.6250187367
 20
-18.8561265957
 10
-9.6543455187
 20
-18.8785602165
  0
LWPOLYLINE
  5
295
100
AcDbEntity
  8
IMPORT_IGES
100
AcDbPolyline
 62
7
  6
CONTINUOUS
 90
19
 70
0
 10
-12.3189631914
 20
-18.7637708242
 10
-12.3526863043
 20
-18.7643553676
 10
-12.3852199091
 20
-18.7659416834
 10
-12.4165640059
 20
-18.7685297715
 10
-12.4466831901
 20
-18.772153261
 10
-12.4756128663
 20
-18.7767785228
 10
-12.5034592482
 20
-18.78230467
 10
-12.5302292753
 20
-18.7887418469
 10
-12.555916008
 20
-18.7960799092
 10
-12.5806048414
 20
-18.8041875361
 10
-12.6042850295
 20
-18.813053731
 10
-12.6269673183
 20
-18.8226894906
 10
-12.6487693403
 20
-18.8329964848
 10
-12.6696984894
 20
-18.8439534314
 10
-12.6897473718
 20
-18.8555816127
 10
-12.7090114387
 20
-18.8678465456
 10
-12.7275225072
 20
-18.8807367359
 10
-12.7452487602
 20
-18.8942636779
 10
-12.7621901978
 20
-18.9084273715
  0
LINE
  5
296
100
AcDbEntity
  8
IMPORT_IGES
100
AcDbLine
 62
7
  6
CONTINUOUS
 10
-10.2505795658
 20
-18.7983550067
 11
-11.2202595919
 21
-18.7983550067
  0
LINE
  5
297
100
AcDbEntity
  8
IMPORT_IGES
100
AcDbLine
 62
7
  6
CONTINUOUS
 10
-7.7658595591
 20
-18.7717522587
 11
-7.486527662
 21
-18.7717522587
  0
LINE
  5
298
100
AcDbEntity
  8
IMPORT_IGES
100
AcDbLine
 62
7
  6
CONTINUOUS
 10
-6.2454983111
 20
-18.7717522587
 11
-5.9821277762
 21
-18.7717522587
  0
LINE
  5
299
100
AcDbEntity
  8
IMPORT_IGES
100
AcDbLine
 62
7
  6
CONTINUOUS
 10
9.2389043421
 20
-18.6251327331
 11
9.0466476977
 21
-18.6251327331
  0
LINE
  5
29A
100
AcDbEntity
  8
IMPORT_IGES
100
AcDbLine
 62
7
  6
CONTINUOUS
 10
10.4014497745
 20
-18.5930890288
 11
9.3350315074
 21
-18.5930890288
  0
LINE
  5
29B
100
AcDbEntity
  8
IMPORT_IGES
100
AcDbLine
 62
7
  6
CONTINUOUS
 10
9.0092731579
 20
-18.5293282474
 11
10.4014736972
 21
-18.5293282474
  0
LWPOLYLINE
  5
29C
100
AcDbEntity
  8
0
100
AcDbPolyline
 62
7
  6
CONTINUOUS
 90
8
 70
0
 10
-14.9721102018
 20
-6.4770536688
 10
-14.9631157136
 20
-6.4880726459
 10
-14.9533141831
 20
-6.4992178481
 10
-14.9428316554
 20
-6.5103259783
 10
-14.932068569
 20
-6.5214625528
 10
-14.9211629826
 20
-6.5325524451
 10
-14.9099871892
 20
-6.5433482218
 10
-14.8985507246
 20
-6.5537058214
  0
LINE
  5
29D
100
AcDbEntity
  8
0
100
AcDbLine
 62
7
  6
CONTINUOUS
 10
-14.988129474
 20
-6.4567564956
 11
-14.9721102018
 21
-6.4770536688
  0
LWPOLYLINE
  5
29E
100
AcDbEntity
  8
IMPORT_IGES
100
AcDbPolyline
 62
7
  6
CONTINUOUS
 90
10
 70
0
 10
-8.8304497426
 20
-19.0101523247
 10
-8.8478361047
 20
-18.9845162704
 10
-8.8663509412
 20
-18.9601917613
 10
-8.885994252
 20
-18.9371787976
 10
-8.9068360987
 20
-18.9154309964
 10
-8.9288064197
 20
-18.8949947404
 10
-8.9516950312
 20
-18.876009178
 10
-8.9754318716
 20
-18.8585206919
 10
-9.0000870025
 20
-18.8424828994
 10
-9.0256604237
 20
-18.8278958003
  0
LWPOLYLINE
  5
29F
100
AcDbEntity
  8
0
100
AcDbPolyline
 62
7
  6
CONTINUOUS
 90
10
 70
0
 10
-14.988129474
 20
-6.4567564956
 10
-14.9905260695
 20
-6.4531079131
 10
-14.9926780594
 20
-6.4493334195
 10
-14.9945739411
 20
-6.4454362758
 10
-14.9962040085
 20
-6.4414094999
 10
-14.9975560713
 20
-6.4372671996
 10
-14.9986180192
 20
-6.4330446398
 10
-14.9993825914
 20
-6.4287563473
 10
-14.9998449248
 20
-6.4243960239
 10
-15.0
 20
-6.4199679265
  0
LWPOLYLINE
  5
2A0
100
AcDbEntity
  8
0
100
AcDbPolyline
 62
253
  6
CONTINUOUS
 90
13
 70
0
 10
-14.847826087
 20
-5.7131609061
 10
-14.8549342339
 20
-5.700935097
 10
-14.8619434214
 20
-5.688677438
 10
-14.8687129567
 20
-5.6766339653
 10
-14.8751069481
 20
-5.6650464319
 10
-14.8809970386
 20
-5.6541474459
 10
-14.8862649814
 20
-5.6441558027
 10
-14.8908050159
 20
-5.6352720877
 10
-14.8945259663
 20
-5.6276746962
 10
-14.8973530935
 20
-5.6215162186
 10
-14.8992296241
 20
-5.616920319
 10
-14.900117876
 20
-5.6139792764
 10
-14.8999999997
 20
-5.6127521634
  0
LWPOLYLINE
  5
2A1
100
AcDbEntity
  8
0
100
AcDbPolyline
 62
253
  6
CONTINUOUS
 90
10
 70
0
 10
-13.1913993252
 20
-4.6801769032
 10
-13.1913559341
 20
-4.6872751861
 10
-13.1918192691
 20
-4.6944768682
 10
-13.1927905945
 20
-4.701776032
 10
-13.1942590866
 20
-4.7091865538
 10
-13.1962382477
 20
-4.716682313
 10
-13.1987650842
 20
-4.724196932
 10
-13.2018519221
 20
-4.7317037177
 10
-13.2054872235
 20
-4.7392159203
 10
-13.2096714284
 20
-4.7467267598
  0
LINE
  5
2A2
100
AcDbEntity
  8
0
100
AcDbLine
 62
7
  6
CONTINUOUS
 10
-15.0
 20
-5.7859572444
 11
-15.0
 21
-6.4199679265
  0
LINE
  5
2A3
100
AcDbEntity
  8
0
100
AcDbLine
 62
253
  6
CONTINUOUS
 10
-14.8985507246
 20
-5.8010185557
 11
-14.8985507246
 21
-6.5537058214
  0
LWPOLYLINE
  5
2A4
100
AcDbEntity
  8
0
100
AcDbPolyline
 62
7
  6
CONTINUOUS
 90
10
 70
0
 10
-15.8
 20
-6.2057669384
 10
-15.8002797645
 20
-6.2120000552
 10
-15.8009936327
 20
-6.2178725223
 10
-15.8021483763
 20
-6.2233841279
 10
-15.8037763735
 20
-6.2285466478
 10
-15.8058573991
 20
-6.233346513
 10
-15.8083185866
 20
-6.2377456939
 10
-15.8111386583
 20
-6.2417311458
 10
-15.8143479647
 20
-6.2453139043
 10
-15.8179502476
 20
-6.248492387
  0
LINE
  5
2A5
100
AcDbEntity
  8
IMPORT_IGES
100
AcDbLine
 62
253
  6
CONTINUOUS
 10
22.9537604785
 20
38.4132761245
 11
23.2934535188
 21
38.7074403446
  0
LWPOLYLINE
  5
2A6
100
AcDbEntity
  8
IMPORT_IGES
100
AcDbPolyline
 62
7
  6
CONTINUOUS
 90
10
 70
0
 10
1.5376535011
 20
-14.3736265536
 10
1.5576709912
 20
-14.3685594918
 10
1.5773832942
 20
-14.3639796452
 10
1.5967904103
 20
-14.3598870138
 10
1.6159012834
 20
-14.3562274526
 10
1.6347069696
 20
-14.3530551066
 10
1.6531806365
 20
-14.3505324104
 10
1.6713133401
 20
-14.3487135088
 10
1.6891140245
 20
-14.347544257
 10
1.7065826897
 20
-14.3470246549
  0
LWPOLYLINE
  5
2A7
100
AcDbEntity
  8
IMPORT_IGES
100
AcDbPolyline
 62
7
  6
CONTINUOUS
 90
10
 70
0
 10
0.0226125831
 20
-14.3736265536
 10
0.0426300766
 20
-14.3685594945
 10
0.0623423832
 20
-14.3639796497
 10
0.0817495029
 20
-14.359887019
 10
0.1008603798
 20
-14.3562274573
 10
0.1196660698
 20
-14.3530551098
 10
0.1381397409
 20
-14.3505324123
 10
0.1562724492
 20
-14.3487135099
 10
0.1740731386
 20
-14.3475442574
 10
0.1915418092
 20
-14.3470246549
  0
LINE
  5
2A8
100
AcDbEntity
  8
IMPORT_IGES
100
AcDbLine
 62
7
  6
CONTINUOUS
 10
1.0654501384
 20
-14.7819854255
 11
1.3048773453
 21
-14.7500601272
  0
LINE
  5
2A9
100
AcDbEntity
  8
IMPORT_IGES
100
AcDbLine
 62
7
  6
CONTINUOUS
 10
-0.4495905014
 20
-14.7819854255
 11
-0.2101635352
 21
-14.7500601272
  0
LWPOLYLINE
  5
2AA
100
AcDbEntity
  8
IMPORT_IGES
100
AcDbPolyline
 62
7
  6
CONTINUOUS
 90
10
 70
0
 10
9.7116158706
 20
-13.5322078187
 10
9.6360237545
 20
-13.5359293412
 10
9.5606292025
 20
-13.5412494537
 10
9.4854322146
 20
-13.548168156
 10
9.4104209732
 20
-13.5566869976
 10
9.3356072959
 20
-13.566804429
 10
9.2610266356
 20
-13.5785158025
 10
9.1866908097
 20
-13.5918195688
 10
9.1125880007
 20
-13.6067172771
 10
9.0387182086
 20
-13.6232089276
  0
LWPOLYLINE
  5
2AB
100
AcDbEntity
  8
IMPORT_IGES
100
AcDbPolyline
 62
7
  6
CONTINUOUS
 90
10
 70
0
 10
-1.3301500023
 20
-13.3387708242
 10
-1.3783850966
 20
-13.3406613578
 10
-1.4245046737
 20
-13.345415923
 10
-1.4685087337
 20
-13.3530345198
 10
-1.5105626261
 20
-13.363714577
 10
-1.5505010014
 20
-13.3772586657
 10
-1.5878278108
 20
-13.3930744998
 10
-1.6223777049
 20
-13.4109646506
 10
-1.6543160332
 20
-13.4311265467
 10
-1.6836427957
 20
-13.4535601883
  0
LWPOLYLINE
  5
2AC
100
AcDbEntity
  8
IMPORT_IGES
100
AcDbPolyline
 62
7
  6
CONTINUOUS
 90
10
 70
0
 10
-2.8451908828
 20
-13.3387708242
 10
-2.8934259651
 20
-13.3406613574
 10
-2.939545535
 20
-13.3454159223
 10
-2.9835495926
 20
-13.3530345191
 10
-3.0256034873
 20
-13.3637145757
 10
-3.0655418697
 20
-13.377258664
 10
-3.1028686916
 20
-13.3930745
 10
-3.1374186035
 20
-13.4109646556
 10
-3.1693569549
 20
-13.4311265589
 10
-3.1986837457
 20
-13.4535602097
  0
LWPOLYLINE
  5
2AD
100
AcDbEntity
  8
IMPORT_IGES
100
AcDbPolyline
 62
7
  6
CONTINUOUS
 90
10
 70
0
 10
-1.3301499858
 20
-15.3300055594
 10
-1.2812205482
 20
-15.3281009431
 10
-1.2345677547
 20
-15.323330093
 10
-1.1901916053
 20
-15.3156930091
 10
-1.1479222527
 20
-15.304969946
 10
-1.1079295442
 20
-15.2913806491
 10
-1.0707230218
 20
-15.2755843551
 10
-1.0364725327
 20
-15.2578008094
 10
-1.0050082297
 20
-15.2378102665
 10
-0.9763301126
 20
-15.2156127264
  0
LWPOLYLINE
  5
2AE
100
AcDbEntity
  8
IMPORT_IGES
100
AcDbPolyline
 62
7
  6
CONTINUOUS
 90
10
 70
0
 10
-2.8451908663
 20
-15.3300055594
 10
-2.7962614205
 20
-15.3281009422
 10
-2.7496086214
 20
-15.3233300904
 10
-2.705232469
 20
-15.3156930039
 10
-2.6629631158
 20
-15.3049699369
 10
-2.6229704093
 20
-15.2913806353
 10
-2.5857638919
 20
-15.2755843368
 10
-2.5515134111
 20
-15.2578007873
 10
-2.5200491193
 20
-15.237810241
 10
-2.4913710167
 20
-15.2156126979
  0
LWPOLYLINE
  5
2AF
100
AcDbEntity
  8
IMPORT_IGES
100
AcDbPolyline
 62
7
  6
CONTINUOUS
 90
10
 70
0
 10
1.6853001325
 20
-15.3313357102
 10
1.7489308209
 20
-15.329030174
 10
1.8099222583
 20
-15.3221363229
 10
1.8682744446
 20
-15.310654157
 10
1.9242505842
 20
-15.294261917
 10
1.9775874727
 20
-15.2732813621
 10
2.0274954973
 20
-15.24867777
 10
2.0737114539
 20
-15.2207728998
 10
2.1164985465
 20
-15.1892449924
 10
2.1558567754
 20
-15.1540940477
  0
LWPOLYLINE
  5
2B0
100
AcDbEntity
  8
IMPORT_IGES
100
AcDbPolyline
 62
7
  6
CONTINUOUS
 90
10
 70
0
 10
0.1702592835
 20
-15.3313357102
 10
0.233889917
 20
-15.3290301696
 10
0.2948813045
 20
-15.3221363156
 10
0.353233446
 20
-15.3106541481
 10
0.4092095452
 20
-15.2942619074
 10
0.4625463983
 20
-15.2732813533
 10
0.5124543948
 20
-15.2486777651
 10
0.558670331
 20
-15.2207729025
 10
0.6014574107
 20
-15.1892450059
 10
0.6408156336
 20
-15.1540940751
  0
LWPOLYLINE
  5
2B1
100
AcDbEntity
  8
IMPORT_IGES
100
AcDbPolyline
 62
7
  6
CONTINUOUS
 90
13
 70
0
 10
-1.3301499858
 20
-15.1331433564
 10
-1.3048507835
 20
-15.1322441522
 10
-1.2798419023
 20
-15.1291601484
 10
-1.2551233422
 20
-15.1238913449
 10
-1.2306269002
 20
-15.1164709555
 10
-1.2064207793
 20
-15.1068657664
 10
-1.1827095888
 20
-15.0949761364
 10
-1.159478806
 20
-15.0808407212
 10
-1.1367429537
 20
-15.0644208652
 10
-1.1147502094
 20
-15.0455009597
 10
-1.0935832991
 20
-15.0240091353
 10
-1.0731594969
 20
-15.0000172614
 10
-1.0534788027
 20
-14.9735253382
  0
LWPOLYLINE
  5
2B2
100
AcDbEntity
  8
IMPORT_IGES
100
AcDbPolyline
 62
7
  6
CONTINUOUS
 90
13
 70
0
 10
-2.8451908663
 20
-15.1331433564
 10
-2.8198916745
 20
-15.132244152
 10
-2.7948828024
 20
-15.1291601488
 10
-2.7701642502
 20
-15.1238913469
 10
-2.745667815
 20
-15.1164709604
 10
-2.7214616997
 20
-15.1068657751
 10
-2.697750512
 20
-15.0949761488
 10
-2.6745197287
 20
-15.0808407382
 10
-2.6517838732
 20
-15.0644208865
 10
-2.629791123
 20
-15.0455009819
 10
-2.6086242043
 20
-15.0240091537
 10
-2.588200391
 20
-15.0000172724
 10
-2.5685196832
 20
-14.9735253382
  0
LWPOLYLINE
  5
2B3
100
AcDbEntity
  8
IMPORT_IGES
100
AcDbPolyline
 62
7
  6
CONTINUOUS
 90
10
 70
0
 10
1.6759892817
 20
-13.3387708242
 10
1.6243021851
 20
-13.340577022
 10
1.5746492046
 20
-13.3457930455
 10
1.5270303404
 20
-13.3544188947
 10
1.4812647843
 20
-13.3666765864
 10
1.4375333445
 20
-13.3823441037
 10
1.3963784452
 20
-13.4007553969
 10
1.3579808946
 20
-13.4216884493
 10
1.3221598846
 20
-13.4453652775
 10
1.2889154152
 20
-13.4717858816
  0
LWPOLYLINE
  5
2B4
100
AcDbEntity
  8
IMPORT_IGES
100
AcDbPolyline
 62
7
  6
CONTINUOUS
 90
10
 70
0
 10
0.1609481688
 20
-13.3387708242
 10
0.1092612298
 20
-13.3405769997
 10
0.0596083757
 20
-13.3457930051
 10
0.0119896064
 20
-13.3544188406
 10
-0.0337758858
 20
-13.3666765189
 10
-0.0775072931
 20
-13.3823440272
 10
-0.1186621922
 20
-13.4007553272
 10
-0.1570597753
 20
-13.4216884061
 10
-0.1928808501
 20
-13.4453652767
 10
-0.2261254167
 20
-13.4717859389
  0
LWPOLYLINE
  5
2B5
100
AcDbEntity
  8
IMPORT_IGES
100
AcDbPolyline
 62
7
  6
CONTINUOUS
 90
10
 70
0
 10
1.6028310054
 20
-14.1661242391
 10
1.5984516747
 20
-14.1661484523
 10
1.5940942496
 20
-14.1660974403
 10
1.5897587301
 20
-14.1659712031
 10
1.5854432344
 20
-14.1657760394
 10
1.5811496443
 20
-14.1655056505
 10
1.576883605
 20
-14.1651411406
 10
1.5726469984
 20
-14.1646762111
 10
1.5684379428
 20
-14.1641171606
 10
1.564256438
 20
-14.1634639891
  0
LWPOLYLINE
  5
2B6
100
AcDbEntity
  8
IMPORT_IGES
100
AcDbPolyline
 62
7
  6
CONTINUOUS
 90
10
 70
0
 10
0.0877901249
 20
-14.1661242391
 10
0.0834107538
 20
-14.1661484502
 10
0.0790532983
 20
-14.1660974361
 10
0.0747177584
 20
-14.1659711968
 10
0.0704022524
 20
-14.1657760302
 10
0.066108662
 20
-14.1655056383
 10
0.0618426328
 20
-14.1651411276
 10
0.0576060466
 20
-14.1646762002
 10
0.0533970215
 20
-14.1641171541
 10
0.0492155575
 20
-14.1634639891
  0
LINE
  5
2B7
100
AcDbEntity
  8
IMPORT_IGES
100
AcDbLine
 62
7
  6
CONTINUOUS
 10
9.5834443346
 20
-15.5490301485
 11
10.704940185
 21
-15.5490301485
  0
LINE
  5
2B8
100
AcDbEntity
  8
IMPORT_IGES
100
AcDbLine
 62
7
  6
CONTINUOUS
 10
9.6475295722
 20
-15.4849439795
 11
10.640854016
 21
-15.4849439795
  0
LINE
  5
2B9
100
AcDbEntity
  8
IMPORT_IGES
100
AcDbLine
 62
7
  6
CONTINUOUS
 10
3.2415755003
 20
-15.2967534895
 11
3.4810027573
 21
-15.2967534895
  0
LINE
  5
2BA
100
AcDbEntity
  8
IMPORT_IGES
100
AcDbLine
 62
7
  6
CONTINUOUS
 10
10.640854016
 20
-15.2926854725
 11
9.6475295722
 21
-15.2926854725
  0
LINE
  5
2BB
100
AcDbEntity
  8
IMPORT_IGES
100
AcDbLine
 62
7
  6
CONTINUOUS
 10
11.890521
 20
-15.2286024187
 11
11.3171628338
 21
-15.2286024187
  0
LINE
  5
2BC
100
AcDbEntity
  8
IMPORT_IGES
100
AcDbLine
 62
7
  6
CONTINUOUS
 10
10.704940185
 20
-15.2286030288
 11
9.5834443346
 21
-15.2286030288
  0
LINE
  5
2BD
100
AcDbEntity
  8
IMPORT_IGES
100
AcDbLine
 62
7
  6
CONTINUOUS
 10
11.3228661939
 20
-15.1645168598
 11
11.826435104
 21
-15.1645168598
  0
LINE
  5
2BE
100
AcDbEntity
  8
IMPORT_IGES
100
AcDbLine
 62
7
  6
CONTINUOUS
 10
11.7183737457
 20
-14.5877487893
 11
11.3732311875
 21
-14.5877487893
  0
LINE
  5
2BF
100
AcDbEntity
  8
IMPORT_IGES
100
AcDbLine
 62
7
  6
CONTINUOUS
 10
11.3089000806
 20
-14.5877487893
 11
11.1855808646
 21
-14.5877487893
  0
LINE
  5
2C0
100
AcDbEntity
  8
IMPORT_IGES
100
AcDbLine
 62
7
  6
CONTINUOUS
 10
11.1214946955
 20
-14.5236626203
 11
11.3145057112
 21
-14.5236626203
  0
LINE
  5
2C1
100
AcDbEntity
  8
IMPORT_IGES
100
AcDbLine
 62
7
  6
CONTINUOUS
 10
11.3788368575
 20
-14.5236622145
 11
11.7824595491
 21
-14.5236622145
  0
LINE
  5
2C2
100
AcDbEntity
  8
IMPORT_IGES
100
AcDbLine
 62
7
  6
CONTINUOUS
 10
8.5720638561
 20
-14.2673240633
 11
8.0453939736
 21
-14.2673240633
  0
LINE
  5
2C3
100
AcDbEntity
  8
IMPORT_IGES
100
AcDbLine
 62
7
  6
CONTINUOUS
 10
11.6021361543
 20
-14.2673216696
 11
11.401263997
 21
-14.2673216696
  0
LINE
  5
2C4
100
AcDbEntity
  8
IMPORT_IGES
100
AcDbLine
 62
7
  6
CONTINUOUS
 10
11.3369338214
 20
-14.2673216696
 11
8.6363935843
 21
-14.2673216696
  0
LINE
  5
2C5
100
AcDbEntity
  8
IMPORT_IGES
100
AcDbLine
 62
7
  6
CONTINUOUS
 10
8.0453939736
 20
-14.0109769936
 11
8.5496371612
 21
-14.0109769936
  0
LINE
  5
2C6
100
AcDbEntity
  8
IMPORT_IGES
100
AcDbLine
 62
7
  6
CONTINUOUS
 10
8.613968268
 20
-14.0109769936
 11
8.7182912974
 21
-14.0109769936
  0
LINE
  5
2C7
100
AcDbEntity
  8
IMPORT_IGES
100
AcDbLine
 62
7
  6
CONTINUOUS
 10
9.0387181302
 20
-14.0109769936
 11
11.1607488826
 21
-14.0109769936
  0
LINE
  5
2C8
100
AcDbEntity
  8
IMPORT_IGES
100
AcDbLine
 62
7
  6
CONTINUOUS
 10
8.7823767665
 20
-13.9468945499
 11
8.9746322474
 21
-13.9468945499
  0
LINE
  5
2C9
100
AcDbEntity
  8
IMPORT_IGES
100
AcDbLine
 62
7
  6
CONTINUOUS
 10
10.5767689397
 20
-13.7546360429
 11
9.71161573
 21
-13.7546360429
  0
LINE
  5
2CA
100
AcDbEntity
  8
IMPORT_IGES
100
AcDbLine
 62
7
  6
CONTINUOUS
 10
9.775701114
 20
-13.6905535992
 11
10.5126830416
 21
-13.6905535992
  0
LINE
  5
2CB
100
AcDbEntity
  8
IMPORT_IGES
100
AcDbLine
 62
7
  6
CONTINUOUS
 10
8.9746318507
 20
-13.5303381766
 11
8.782376767
 21
-13.5303381766
  0
LINE
  5
2CC
100
AcDbEntity
  8
IMPORT_IGES
100
AcDbLine
 62
7
  6
CONTINUOUS
 10
8.7182912976
 20
-13.466250145
 11
9.0387182086
 21
-13.466250145
  0
LINE
  5
2CD
100
AcDbEntity
  8
IMPORT_IGES
100
AcDbLine
 62
7
  6
CONTINUOUS
 10
10.5126828931
 20
-13.4342089231
 11
9.7757009939
 21
-13.4342089231
  0
LINE
  5
2CE
100
AcDbEntity
  8
IMPORT_IGES
100
AcDbLine
 62
7
  6
CONTINUOUS
 10
9.7116158706
 20
-13.3701227541
 11
10.5767688891
 21
-13.3701227541
  0
LINE
  5
2CF
100
AcDbEntity
  8
IMPORT_IGES
100
AcDbLine
 62
7
  6
CONTINUOUS
 10
3.3267055456
 20
-13.3387707675
 11
3.4810027573
 21
-13.3387707675
  0
LWPOLYLINE
  5
2D0
100
AcDbEntity
  8
IMPORT_IGES
100
AcDbPolyline
 62
7
  6
CONTINUOUS
 90
10
 70
0
 10
0.1715893602
 20
-15.1331433564
 10
0.1401726893
 20
-15.1321213036
 10
0.1097855363
 20
-15.128803014
 10
0.0804279011
 20
-15.1231884876
 10
0.0519664429
 20
-15.1151761343
 10
0.0245345025
 20
-15.1048675443
 10
-0.0014678976
 20
-15.092567487
 10
-0.0259074166
 20
-15.0783775524
 10
-0.0489173954
 20
-15.0621961506
 10
-0.0704978338
 20
-15.0440232816
  0
LWPOLYLINE
  5
2D1
100
AcDbEntity
  8
IMPORT_IGES
100
AcDbPolyline
 62
7
  6
CONTINUOUS
 90
10
 70
0
 10
1.6866302406
 20
-15.1331433564
 10
1.6552136148
 20
-15.1321213205
 10
1.6248264986
 20
-15.1288030487
 10
1.595468892
 20
-15.1231885411
 10
1.5670074534
 20
-15.1151762105
 10
1.5395755243
 20
-15.104867644
 10
1.5135731295
 20
-15.0925676032
 10
1.4891336105
 20
-15.0783776754
 10
1.4661236256
 20
-15.0621962734
 10
1.444543175
 20
-15.0440233972
  0
LWPOLYLINE
  5
2D2
100
AcDbEntity
  8
IMPORT_IGES
100
AcDbPolyline
 62
7
  6
CONTINUOUS
 90
10
 70
0
 10
0.1915418092
 20
-14.3470246549
 10
0.2281859226
 20
-14.3483704902
 10
0.2634076526
 20
-14.3524908364
 10
0.2972069992
 20
-14.3593856935
 10
0.329753607
 20
-14.3692125723
 10
0.3608778314
 20
-14.381813962
 10
0.3900707385
 20
-14.3967173305
 10
0.4171626836
 20
-14.4137651671
 10
0.4423233115
 20
-14.4331149825
 10
0.4655526221
 20
-14.4547667767
  0
LWPOLYLINE
  5
2D3
100
AcDbEntity
  8
IMPORT_IGES
100
AcDbPolyline
 62
7
  6
CONTINUOUS
 90
10
 70
0
 10
1.7065826897
 20
-14.3470246549
 10
1.7432267089
 20
-14.3483704866
 10
1.7784483712
 20
-14.3524908309
 10
1.8122476766
 20
-14.3593856878
 10
1.8447942694
 20
-14.3692125649
 10
1.8759185053
 20
-14.3818139545
 10
1.9051114514
 20
-14.3967173344
 10
1.9322034636
 20
-14.4137651971
 10
1.957364186
 20
-14.4331150499
 10
1.9805936187
 20
-14.4547668929
  0
LWPOLYLINE
  5
2D4
100
AcDbEntity
  8
IMPORT_IGES
100
AcDbPolyline
 62
7
  6
CONTINUOUS
 90
13
 70
0
 10
-2.8478511751
 20
-13.536963218
 10
-2.8217367752
 20
-13.5379466274
 10
-2.7957694272
 20
-13.5412253705
 10
-2.7699491311
 20
-13.5467994475
 10
-2.7439446872
 20
-13.5547226491
 10
-2.7180872951
 20
-13.5649411845
 10
-2.6933705538
 20
-13.5772936811
 10
-2.670206324
 20
-13.5917421942
 10
-2.6481827451
 20
-13.6083246685
 10
-2.6270578335
 20
-13.6269935651
 10
-2.6067509282
 20
-13.6477330376
 10
-2.5873426902
 20
-13.6705589323
 10
-2.5688331197
 20
-13.6954712493
  0
LWPOLYLINE
  5
2D5
100
AcDbEntity
  8
IMPORT_IGES
100
AcDbPolyline
 62
7
  6
CONTINUOUS
 90
13
 70
0
 10
-1.3328102365
 20
-13.536963218
 10
-1.3066958374
 20
-13.5379466278
 10
-1.2807284912
 20
-13.5412253716
 10
-1.254908198
 20
-13.5467994493
 10
-1.2289037582
 20
-13.5547226518
 10
-1.2030463715
 20
-13.5649411883
 10
-1.1783296359
 20
-13.577293686
 10
-1.1551654122
 20
-13.5917422008
 10
-1.1331418397
 20
-13.6083246768
 10
-1.1120169346
 20
-13.6269935737
 10
-1.0917100355
 20
-13.6477330447
 10
-1.0723018037
 20
-13.6705589365
 10
-1.0537922392
 20
-13.6954712493
  0
LWPOLYLINE
  5
2D6
100
AcDbEntity
  8
IMPORT_IGES
100
AcDbPolyline
 62
7
  6
CONTINUOUS
 90
10
 70
0
 10
0.1662689109
 20
-13.5356330927
 10
0.1971001031
 20
-13.5370177471
 10
0.2267067527
 20
-13.5405648498
 10
0.2550888597
 20
-13.5462744009
 10
0.2823924386
 20
-13.5542642255
 10
0.3084714748
 20
-13.5644164985
 10
0.3328879249
 20
-13.5763777441
 10
0.3554957741
 20
-13.5900301373
 10
0.3764410371
 20
-13.6054915031
 10
0.3957237139
 20
-13.6227618416
  0
LWPOLYLINE
  5
2D7
100
AcDbEntity
  8
IMPORT_IGES
100
AcDbPolyline
 62
7
  6
CONTINUOUS
 90
10
 70
0
 10
1.6813097914
 20
-13.5356330927
 10
1.7121410793
 20
-13.537017749
 10
1.7417478001
 20
-13.540564849
 10
1.7701299539
 20
-13.5462743929
 10
1.7974335544
 20
-13.5542642088
 10
1.8235125878
 20
-13.5644164685
 10
1.8479290124
 20
-13.5763776872
 10
1.8705368143
 20
-13.5900300364
 10
1.8914820074
 20
-13.6054913446
 10
1.9107645917
 20
-13.6227616117
  0
LWPOLYLINE
  5
2D8
100
AcDbEntity
  8
IMPORT_IGES
100
AcDbPolyline
 62
253
  6
CONTINUOUS
 90
8
 70
0
 10
-22.5954315505
 20
-10.8431078107
 10
-22.5878626088
 20
-10.8438085529
 10
-22.5720505678
 20
-10.8440252819
 10
-22.5480666791
 20
-10.8437619399
 10
-22.5160166903
 20
-10.8430287417
 10
-22.4760386114
 20
-10.8418291467
 10
-22.4282999751
 20
-10.8401597119
 10
-22.3103761656
 20
-10.8354580249
  0
LINE
  5
2D9
100
AcDbEntity
  8
IMPORT_IGES
100
AcDbLine
 62
7
  6
CONTINUOUS
 10
-0.1862208155
 20
-13.8867944415
 11
-0.4256480232
 21
-13.8442279811
  0
LINE
  5
2DA
100
AcDbEntity
  8
IMPORT_IGES
100
AcDbLine
 62
7
  6
CONTINUOUS
 10
1.3288200134
 20
-13.8867944415
 11
1.0893928573
 21
-13.8442279811
  0
LWPOLYLINE
  5
2DB
100
AcDbEntity
  8
IMPORT_IGES
100
AcDbPolyline
 62
7
  6
CONTINUOUS
 90
19
 70
0
 10
11.0736757627
 20
-18.0116781642
 10
11.1152565227
 20
-18.0231921808
 10
11.1550964797
 20
-18.0366832499
 10
11.1931956335
 20
-18.0521513715
 10
11.2297166818
 20
-18.0695115672
 10
11.2644969271
 20
-18.0888488155
 10
11.297048276
 20
-18.1104180514
 10
11.3268889899
 20
-18.1341455604
 10
11.3545008076
 20
-18.1601050571
 10
11.3808408522
 20
-18.1887726201
 10
11.4066425611
 20
-18.220474839
 10
11.4311724968
 20
-18.2548851243
 10
11.4531874707
 20
-18.2914997857
 10
11.4725674107
 20
-18.3299814906
 10
11.4894323888
 20
-18.3706675716
 10
11.5028994327
 20
-18.4140663352
 10
11.5126742183
 20
-18.460347217
 10
11.5190510698
 20
-18.5093407814
 10
11.5220299872
 20
-18.5610470284
  0
LWPOLYLINE
  5
2DC
100
AcDbEntity
  8
IMPORT_IGES
100
AcDbPolyline
 62
7
  6
CONTINUOUS
 90
10
 70
0
 10
-2.5699985704
 20
-13.4028958245
 10
-2.5963245501
 20
-13.3896549953
 10
-2.623765352
 20
-13.377916676
 10
-2.652320976
 20
-13.3676808666
 10
-2.6820608703
 20
-13.3589123039
 10
-2.7129155868
 20
-13.3516462511
 10
-2.7446767808
 20
-13.3459884978
 10
-2.777275004
 20
-13.3419743072
 10
-2.8107797046
 20
-13.339568416
 10
-2.8451908828
 20
-13.3387708242
  0
LWPOLYLINE
  5
2DD
100
AcDbEntity
  8
IMPORT_IGES
100
AcDbPolyline
 62
7
  6
CONTINUOUS
 90
10
 70
0
 10
-1.0549576772
 20
-13.4028958003
 10
-1.0812835846
 20
-13.389654999
 10
-1.1087243327
 20
-13.3779166997
 10
-1.1372799213
 20
-13.3676809023
 10
-1.1670197987
 20
-13.3589123416
 10
-1.1978745168
 20
-13.3516462829
 10
-1.2296357306
 20
-13.3459885222
 10
-1.262233992
 20
-13.3419743248
 10
-1.2957387493
 20
-13.3395684255
 10
-1.3301500023
 20
-13.3387708242
  0
LINE
  5
2DE
100
AcDbEntity
  8
IMPORT_IGES
100
AcDbLine
 62
7
  6
CONTINUOUS
 10
17.8016731922
 20
-39.1645877835
 11
18.0845935631
 21
-39.4507726793
  0
LINE
  5
2DF
100
AcDbEntity
  8
IMPORT_IGES
100
AcDbLine
 62
253
  6
CONTINUOUS
 10
19.6323939212
 20
-37.7392939605
 11
19.5380863353
 21
-37.6438981903
  0
LWPOLYLINE
  5
2E0
100
AcDbEntity
  8
0
100
AcDbPolyline
 62
253
  6
CONTINUOUS
 90
13
 70
0
 10
-14.1376811594
 20
-4.1317232122
 10
-14.1311781113
 20
-4.1431917844
 10
-14.1250030727
 20
-4.1546136032
 10
-14.1192636559
 20
-4.1657896205
 10
-14.114059882
 20
-4.1765250715
 10
-14.1094824371
 20
-4.1866328695
 10
-14.1056110924
 20
-4.1959368656
 10
-14.102513314
 20
-4.204274919
 10
-14.1002430868
 20
-4.2115017223
 10
-14.098839974
 20
-4.2174913338
 10
-14.0983284276
 20
-4.2221393726
 10
-14.0987173622
 20
-4.2253648372
 10
-14.1
 20
-4.2271115176
  0
LWPOLYLINE
  5
2E1
100
AcDbEntity
  8
0
100
AcDbPolyline
 62
253
  6
CONTINUOUS
 90
16
 70
0
 10
-13.2615998524
 20
-4.7973527625
 10
-13.267098115
 20
-4.7874715173
 10
-13.2728449454
 20
-4.7777079609
 10
-13.278766474
 20
-4.7681875989
 10
-13.2847865801
 20
-4.7590328188
 10
-13.2908278834
 20
-4.7503612972
 10
-13.296812739
 20
-4.7422844902
 10
-13.3026642174
 20
-4.7349062261
 10
-13.3083070904
 20
-4.728321371
 10
-13.3136688121
 20
-4.7226145895
 10
-13.3186804571
 20
-4.7178592517
 10
-13.3232775891
 20
-4.714116508
 10
-13.3274010906
 20
-4.7114344945
 10
-13.3309979469
 20
-4.7098476946
 10
-13.3340219222
 20
-4.7093765073
 10
-13.3364341402
 20
-4.7100269935
  0
LINE
  5
2E2
100
AcDbEntity
  8
IMPORT_IGES
100
AcDbLine
 62
7
  6
CONTINUOUS
 10
-7.7658594455
 20
-18.7717525022
 11
-7.0103341714
 21
-20.7217521901
  0
LINE
  5
2E3
100
AcDbEntity
  8
IMPORT_IGES
100
AcDbLine
 62
7
  6
CONTINUOUS
 10
-6.9797401677
 20
-20.1883607963
 11
-7.4865277673
 21
-18.7717520144
  0
LWPOLYLINE
  5
2E4
100
AcDbEntity
  8
IMPORT_IGES
100
AcDbPolyline
 62
7
  6
CONTINUOUS
 90
10
 70
0
 10
-8.7089358152
 20
-19.299821334
 10
-8.7191419578
 20
-19.2624406369
 10
-8.7302051163
 20
-19.2263341726
 10
-8.7421252907
 20
-19.1915019409
 10
-8.7549467008
 20
-19.1579111684
 10
-8.7686251268
 20
-19.1255946287
 10
-8.7830279099
 20
-19.0946506424
 10
-8.7981108304
 20
-19.065111983
 10
-8.813918108
 20
-19.0369458772
 10
-8.8304497426
 20
-19.0101523247
  0
LINE
  5
2E5
100
AcDbEntity
  8
IMPORT_IGES
100
AcDbLine
 62
253
  6
CONTINUOUS
 10
-20.9544458347
 20
38.4132765671
 11
-21.2381794555
 21
40.3923557222
  0
LWPOLYLINE
  5
2E6
100
AcDbEntity
  8
IMPORT_IGES
100
AcDbPolyline
 62
7
  6
CONTINUOUS
 90
10
 70
0
 10
-11.4517053589
 20
-20.210973912
 10
-11.4443610674
 20
-20.2661177694
 10
-11.433324873
 20
-20.3186021693
 10
-11.4185967758
 20
-20.3684271117
 10
-11.3998880233
 20
-20.4157825129
 10
-11.3774873678
 20
-20.4604784565
 10
-11.352261067
 20
-20.5019451939
 10
-11.3244978733
 20
-20.5399928089
 10
-11.2939090341
 20
-20.5748112176
 10
-11.2604945495
 20
-20.60640042
  0
LWPOLYLINE
  5
2E7
100
AcDbEntity
  8
IMPORT_IGES
100
AcDbPolyline
 62
7
  6
CONTINUOUS
 90
10
 70
0
 10
-11.7110845819
 20
-19.3051419304
 10
-11.7129268537
 20
-19.2555094352
 10
-11.7189709464
 20
-19.2073545603
 10
-11.7292168599
 20
-19.1606773057
 10
-11.7438215411
 20
-19.1151904601
 10
-11.7626280431
 20
-19.0711812348
 10
-11.7851655258
 20
-19.0295112637
 10
-11.8112770426
 20
-18.9904677579
 10
-11.8411195401
 20
-18.9537635061
 10
-11.8746930183
 20
-18.9193985085
  0
LWPOLYLINE
  5
2E8
100
AcDbEntity
  8
IMPORT_IGES
100
AcDbPolyline
 62
7
  6
CONTINUOUS
 90
10
 70
0
 10
-10.1587993786
 20
-20.0606671961
 10
-10.1610872668
 20
-19.998570344
 10
-10.167943312
 20
-19.9391698663
 10
-10.1793675142
 20
-19.8824657632
 10
-10.1956981218
 20
-19.8281905512
 10
-10.2165968863
 20
-19.7766117136
 10
-10.2410490627
 20
-19.7285317008
 10
-10.2687164024
 20
-19.684217996
 10
-10.2999371539
 20
-19.6434031159
 10
-10.3347113172
 20
-19.6060870605
  0
LWPOLYLINE
  5
2E9
100
AcDbEntity
  8
IMPORT_IGES
100
AcDbPolyline
 62
7
  6
CONTINUOUS
 90
25
 70
0
 10
-9.6905866608
 20
-19.7600531712
 10
-9.6904568413
 20
-19.7994995541
 10
-9.6899341005
 20
-19.8377607235
 10
-9.6890184386
 20
-19.8748366793
 10
-9.6877126545
 20
-19.9107125347
 10
-9.6860139492
 20
-19.9454031766
 10
-9.6839139254
 20
-19.9789532654
 10
-9.681399389
 20
-20.0113610358
 10
-9.6784835341
 20
-20.0426282531
 10
-9.6751975458
 20
-20.072804874
 10
-9.6715522409
 20
-20.101888832
 10
-9.6675368026
 20
-20.1298821934
 10
-9.6631499656
 20
-20.1568411143
 10
-9.6583904786
 20
-20.1827731343
 10
-9.653259593
 20
-20.2076707136
 10
-9.6477597979
 20
-20.231567389
 10
-9.6419269072
 20
-20.2544893475
 10
-9.6357251071
 20
-20.2764104021
 10
-9.6290494452
 20
-20.2972855288
 10
-9.6218642122
 20
-20.3171229145
 10
-9.6142051174
 20
-20.3359143722
 10
-9.6060743353
 20
-20.3535903174
 10
-9.597472591
 20
-20.370127555
 10
-9.5883991595
 20
-20.3855492801
 10
-9.5788540408
 20
-20.3998554926
  0
LINE
  5
2EA
100
AcDbEntity
  8
IMPORT_IGES
100
AcDbLine
 62
7
  6
CONTINUOUS
 10
-11.7084244266
 20
-20.7217521054
 11
-11.7084244266
 21
-20.4916369625
  0
LINE
  5
2EB
100
AcDbEntity
  8
IMPORT_IGES
100
AcDbLine
 62
7
  6
CONTINUOUS
 10
-10.2505795658
 20
-19.0271399851
 11
-10.2505795658
 21
-18.7983550067
  0
LWPOLYLINE
  5
2EC
100
AcDbEntity
  8
IMPORT_IGES
100
AcDbPolyline
 62
7
  6
CONTINUOUS
 90
10
 70
0
 10
-10.4128581986
 20
-20.0819496343
 10
-10.4144747187
 20
-20.1308260594
 10
-10.4192233179
 20
-20.1772339143
 10
-10.4271039961
 20
-20.2211731989
 10
-10.4384101566
 20
-20.2628245604
 10
-10.452848396
 20
-20.3020073517
 10
-10.4695385048
 20
-20.338179631
 10
-10.4881870796
 20
-20.3711607512
 10
-10.5090875237
 20
-20.4011313594
 10
-10.5322398371
 20
-20.4280914556
  0
LWPOLYLINE
  5
2ED
100
AcDbEntity
  8
IMPORT_IGES
100
AcDbPolyline
 62
7
  6
CONTINUOUS
 90
10
 70
0
 10
-12.7060366794
 20
-19.3530283804
 10
-12.7046557512
 20
-19.3119687428
 10
-12.7004960632
 20
-19.2730689588
 10
-12.6935576155
 20
-19.2363290285
 10
-12.6835670002
 20
-19.2015834487
 10
-12.6707976252
 20
-19.1689977225
 10
-12.6560697139
 20
-19.13906836
 10
-12.6396566743
 20
-19.1119608645
 10
-12.6212850984
 20
-19.0875097327
 10
-12.6009549864
 20
-19.0657149646
  0
LWPOLYLINE
  5
2EE
100
AcDbEntity
  8
IMPORT_IGES
100
AcDbPolyline
 62
7
  6
CONTINUOUS
 90
10
 70
0
 10
-11.9571623012
 20
-19.2998213366
 10
-11.9583419768
 20
-19.3299894591
 10
-11.9623696204
 20
-19.3607434959
 10
-11.9692452319
 20
-19.392083447
 10
-11.9790210798
 20
-19.4241561028
 10
-11.9916448957
 20
-19.4568146729
 10
-12.0069598742
 20
-19.4896187859
 10
-12.0249137469
 20
-19.5224216512
 10
-12.0455587823
 20
-19.5553700594
 10
-12.0688949803
 20
-19.5884640104
  0
LWPOLYLINE
  5
2EF
100
AcDbEntity
  8
IMPORT_IGES
100
AcDbPolyline
 62
253
  6
CONTINUOUS
 90
37
 70
0
 10
-7.6417267011
 20
36.5022435576
 10
-7.6373919858
 20
36.5613808233
 10
-7.6312312352
 20
36.6209493631
 10
-7.6232067396
 20
36.6808809309
 10
-7.6132664441
 20
36.7411885194
 10
-7.601384996
 20
36.8017085876
 10
-7.5875788086
 20
36.8621288284
 10
-7.571808159
 20
36.9224298182
 10
-7.554033039
 20
36.9825884245
 10
-7.5343008218
 20
37.0423303472
 10
-7.5126047467
 20
37.1016199466
 10
-7.4889503093
 20
37.1604136463
 10
-7.4634485635
 20
37.218436761
 10
-7.4361737228
 20
37.2755501489
 10
-7.4071351031
 20
37.3317561724
 10
-7.3763642805
 20
37.3869992877
 10
-7.3439073811
 20
37.4411968936
 10
-7.3097947484
 20
37.4942937303
 10
-7.2740279759
 20
37.5462715833
 10
-7.2366267011
 20
37.5970807108
 10
-7.1976221036
 20
37.6466769616
 10
-7.1570277598
 20
37.6950465889
 10
-7.1148503693
 20
37.7421818887
 10
-7.0711202944
 20
37.7880481773
 10
-7.0259194499
 20
37.8325639292
 10
-6.9792962925
 20
37.8756826746
 10
-6.9313650626
 20
37.9172951454
 10
-6.88234719
 20
37.9572147152
 10
-6.8323134657
 20
37.9953986122
 10
-6.7813126844
 20
38.031832993
 10
-6.7295521527
 20
38.0664061002
 10
-6.6770756711
 20
38.0991346097
 10
-6.6239246032
 20
38.1300359602
 10
-6.5703038904
 20
38.1590385468
 10
-6.5162941865
 20
38.186156711
 10
-6.4618539495
 20
38.21146822
 10
-6.4070019468
 20
38.2350168324
  0
LWPOLYLINE
  5
2F0
100
AcDbEntity
  8
IMPORT_IGES
100
AcDbPolyline
 62
253
  6
CONTINUOUS
 90
16
 70
0
 10
-6.6434598668
 20
36.4440509125
 10
-6.6361080093
 20
36.5193301145
 10
-6.623420616
 20
36.5929951956
 10
-6.605397687
 20
36.6650461558
 10
-6.5818763715
 20
36.7358499355
 10
-6.5530195204
 20
36.8050395943
 10
-6.5193156853
 20
36.8715143108
 10
-6.4806947688
 20
36.9352339255
 10
-6.4372268684
 20
36.9962385979
 10
-6.3896108289
 20
37.0535479851
 10
-6.337780794
 20
37.1071116785
 10
-6.28180262
 20
37.1569800866
 10
-6.22257272
 20
37.2023240918
 10
-6.1603898983
 20
37.2428673215
 10
-6.0949553505
 20
37.2788861483
 10
-6.0262690768
 20
37.3103805723
  0
LINE
  5
2F1
100
AcDbEntity
  8
IMPORT_IGES
100
AcDbLine
 62
253
  6
CONTINUOUS
 10
-17.7432639895
 20
-38.834511301
 11
-17.477412341
 21
-37.2270752041
  0
LINE
  5
2F2
100
AcDbEntity
  8
IMPORT_IGES
100
AcDbLine
 62
253
  6
CONTINUOUS
 10
-17.7866945615
 20
-39.0898790864
 11
-17.7432639895
 21
-38.834511301
  0
LWPOLYLINE
  5
2F3
100
AcDbEntity
  8
0
100
AcDbPolyline
 62
7
  6
CONTINUOUS
 90
8
 70
0
 10
-13.5154378147
 20
-3.8574099572
 10
-13.5103923351
 20
-3.8441109886
 10
-13.5056410684
 20
-3.8300499991
 10
-13.501262412
 20
-3.8154177966
 10
-13.4969994048
 20
-3.8005284134
 10
-13.4928480776
 20
-3.7855389751
 10
-13.4890865675
 20
-3.770462601
 10
-13.4858348663
 20
-3.7553795794
  0
LINE
  5
2F4
100
AcDbEntity
  8
0
100
AcDbLine
 62
7
  6
CONTINUOUS
 10
-13.5250060706
 20
-3.8814317148
 11
-13.5154378147
 21
-3.8574099572
  0
LWPOLYLINE
  5
2F5
100
AcDbEntity
  8
0
100
AcDbPolyline
 62
7
  6
CONTINUOUS
 90
10
 70
0
 10
-13.5250060706
 20
-3.8814317148
 10
-13.526967538
 20
-3.8853315187
 10
-13.5291603504
 20
-3.8890824434
 10
-13.5315874349
 20
-3.892672897
 10
-13.5342596915
 20
-3.8960979647
 10
-13.5371709974
 20
-3.8993400356
 10
-13.5402968675
 20
-3.9023709893
 10
-13.5436283517
 20
-3.9051772745
 10
-13.5471733358
 20
-3.9077578288
 10
-13.550930643
 20
-3.9101061765
  0
LWPOLYLINE
  5
2F6
100
AcDbEntity
  8
0
100
AcDbPolyline
 62
253
  6
CONTINUOUS
 90
13
 70
0
 10
-14.2391304348
 20
-4.1317232122
 10
-14.2461642218
 20
-4.1439919512
 10
-14.2532750715
 20
-4.1561909142
 10
-14.2603202568
 20
-4.1680752393
 10
-14.2671583591
 20
-4.1794063646
 10
-14.2736521126
 20
-4.1899568256
 10
-14.2796711582
 20
-4.1995148199
 10
-14.2850946642
 20
-4.2078884632
 10
-14.2898137234
 20
-4.2149095973
 10
-14.2937335583
 20
-4.2204372007
 10
-14.2967754592
 20
-4.2243602743
 10
-14.298878351
 20
-4.2266000447
 10
-14.3000000003
 20
-4.2271115174
  0
LWPOLYLINE
  5
2F7
100
AcDbEntity
  8
0
100
AcDbPolyline
 62
253
  6
CONTINUOUS
 90
13
 70
0
 10
-15.9637681159
 20
-4.3074385115
 10
-15.9570875651
 20
-4.2960724206
 10
-15.9502834992
 20
-4.2850137708
 10
-15.9434744927
 20
-4.2744552815
 10
-15.9367792064
 20
-4.2645809555
 10
-15.930314319
 20
-4.255562873
 10
-15.9241924944
 20
-4.2475581921
 10
-15.9185204175
 20
-4.2407064106
 10
-15.9133969359
 20
-4.2351269346
 10
-15.9089113365
 20
-4.2309169975
 10
-15.9051417901
 20
-4.2281499659
 10
-15.9021539884
 20
-4.2268740608
 10
-15.9
 20
-4.2271115176
  0
LINE
  5
2F8
100
AcDbEntity
  8
IMPORT_IGES
100
AcDbLine
 62
253
  6
CONTINUOUS
 10
-21.5823695985
 20
-10.8003078261
 11
-20.5983663796
 21
-10.7466864621
  0
LINE
  5
2F9
100
AcDbEntity
  8
IMPORT_IGES
100
AcDbLine
 62
253
  6
CONTINUOUS
 10
-22.0812660369
 20
-10.8251481196
 11
-21.5823695985
 21
-10.8003078261
  0
LINE
  5
2FA
100
AcDbEntity
  8
IMPORT_IGES
100
AcDbLine
 62
253
  6
CONTINUOUS
 10
-22.3103761656
 20
-10.8354580249
 11
-22.0812660369
 21
-10.8251481196
  0
LINE
  5
2FB
100
AcDbEntity
  8
IMPORT_IGES
100
AcDbLine
 62
7
  6
CONTINUOUS
 10
20.5983643175
 20
-10.7467213875
 11
-20.5983643178
 21
-10.7467213875
  0
LWPOLYLINE
  5
2FC
100
AcDbEntity
  8
IMPORT_IGES
100
AcDbPolyline
 62
253
  6
CONTINUOUS
 90
6
 70
0
 10
22.4760356357
 20
-10.8418219034
 10
22.5160147554
 20
-10.8430217855
 10
22.5480656371
 20
-10.8437552882
 10
22.5720502273
 20
-10.8440189487
 10
22.5878627368
 20
-10.8438025507
 10
22.5954318734
 20
-10.8431021497
  0
LINE
  5
2FD
100
AcDbEntity
  8
IMPORT_IGES
100
AcDbLine
 62
253
  6
CONTINUOUS
 10
22.3729964572
 20
-10.8380237713
 11
22.4760356357
 21
-10.8418219034
  0
LINE
  5
2FE
100
AcDbEntity
  8
IMPORT_IGES
100
AcDbLine
 62
253
  6
CONTINUOUS
 10
22.1641958719
 20
-10.828990763
 11
22.3729964572
 21
-10.8380237713
  0
LINE
  5
2FF
100
AcDbEntity
  8
IMPORT_IGES
100
AcDbLine
 62
253
  6
CONTINUOUS
 10
21.6920330412
 20
-10.8059455251
 11
22.1641958719
 21
-10.828990763
  0
LINE
  5
300
100
AcDbEntity
  8
IMPORT_IGES
100
AcDbLine
 62
253
  6
CONTINUOUS
 10
20.8553543962
 20
-10.7611294736
 11
21.6920330412
 21
-10.8059455251
  0
LINE
  5
301
100
AcDbEntity
  8
IMPORT_IGES
100
AcDbLine
 62
253
  6
CONTINUOUS
 10
20.5983667044
 20
-10.7466807746
 11
20.8553543962
 21
-10.7611294736
  0
LWPOLYLINE
  5
302
100
AcDbEntity
  8
IMPORT_IGES
100
AcDbPolyline
 62
7
  6
CONTINUOUS
 90
10
 70
0
 10
0.4547772519
 20
-13.4082061334
 10
0.4242431308
 20
-13.3937140121
 10
0.3931243984
 20
-13.3808999026
 10
0.3614210546
 20
-13.3697638049
 10
0.3290581358
 20
-13.360284039
 10
0.2961106058
 20
-13.3524822849
 10
0.2628033549
 20
-13.3464235823
 10
0.229211347
 20
-13.3421296114
 10
0.1952596182
 20
-13.339578692
 10
0.1609481688
 20
-13.3387708242
  0
LWPOLYLINE
  5
303
100
AcDbEntity
  8
IMPORT_IGES
100
AcDbPolyline
 62
7
  6
CONTINUOUS
 90
10
 70
0
 10
1.9698183175
 20
-13.4082062274
 10
1.939284246
 20
-13.3937141002
 10
1.9081655521
 20
-13.380899983
 10
1.876462236
 20
-13.3697638759
 10
1.844099334
 20
-13.3602840981
 10
1.8111518097
 20
-13.3524823304
 10
1.7778445533
 20
-13.346423615
 10
1.7442525282
 20
-13.3421296325
 10
1.710300771
 20
-13.3395787022
 10
1.6759892817
 20
-13.3387708242
  0
LWPOLYLINE
  5
304
100
AcDbEntity
  8
0
100
AcDbPolyline
 62
253
  6
CONTINUOUS
 90
13
 70
0
 10
-14.2391304348
 20
-4.1317232122
 10
-14.2312195996
 20
-4.1358207596
 10
-14.2231148261
 20
-4.1391865964
 10
-14.2148021522
 20
-4.1418204781
 10
-14.2061903909
 20
-4.1437264822
 10
-14.197348083
 20
-4.1448984783
 10
-14.1885050481
 20
-4.1453124584
 10
-14.1796665745
 20
-4.1449261601
 10
-14.1708195758
 20
-4.143758293
 10
-14.1621725736
 20
-4.141864345
 10
-14.1537983848
 20
-4.1392499393
 10
-14.1456322979
 20
-4.1358751709
 10
-14.1376811594
 20
-4.1317232122
  0
LINE
  5
305
100
AcDbEntity
  8
0
100
AcDbLine
 62
7
  6
CONTINUOUS
 10
-15.9
 20
-4.2271115176
 11
-16.449069357
 21
-3.9101061765
  0
LINE
  5
306
100
AcDbEntity
  8
0
100
AcDbLine
 62
7
  6
CONTINUOUS
 10
-15.8635658598
 20
-3.3243863475
 11
-14.3
 21
-4.2271115176
  0
LINE
  5
307
100
AcDbEntity
  8
0
100
AcDbLine
 62
253
  6
CONTINUOUS
 10
-15.9637681159
 20
-4.3074385115
 11
-16.6156144091
 21
-3.9310948787
  0
LINE
  5
308
100
AcDbEntity
  8
0
100
AcDbLine
 62
253
  6
CONTINUOUS
 10
-15.8967567497
 20
-3.1746922131
 11
-14.2391304348
 21
-4.1317232122
  0
LWPOLYLINE
  5
309
100
AcDbEntity
  8
0
100
AcDbPolyline
 62
253
  6
CONTINUOUS
 90
13
 70
0
 10
-13.2096711744
 20
-4.7467267595
 10
-13.2191177136
 20
-4.7407191761
 10
-13.2287717891
 20
-4.7347888536
 10
-13.2385091671
 20
-4.729012114
 10
-13.2482045422
 20
-4.7234633033
 10
-13.25773315
 20
-4.7182138352
 10
-13.2669723725
 20
-4.7133312718
 10
-13.2758033163
 20
-4.7088784542
 10
-13.2841123423
 20
-4.7049126935
 10
-13.2917925282
 20
-4.7014850337
 10
-13.2987450445
 20
-4.6986395945
 10
-13.3048804261
 20
-4.6964130032
 10
-13.3101197239
 20
-4.6948339239
  0
LWPOLYLINE
  5
30A
100
AcDbEntity
  8
0
100
AcDbPolyline
 62
7
  6
CONTINUOUS
 90
10
 70
0
 10
-15.8635658598
 20
-3.3243863475
 10
-15.8688240151
 20
-3.321027506
 10
-15.8735527866
 20
-3.3174730444
 10
-15.8777486053
 20
-3.3137172043
 10
-15.8814054801
 20
-3.3097260575
 10
-15.8845217724
 20
-3.3055239038
 10
-15.8871009812
 20
-3.3011928625
 10
-15.8891424479
 20
-3.2967578828
 10
-15.8906405545
 20
-3.2921871626
 10
-15.8915920599
 20
-3.2874782528
  0
LWPOLYLINE
  5
30B
100
AcDbEntity
  8
IMPORT_IGES
100
AcDbPolyline
 62
7
  6
CONTINUOUS
 90
10
 70
0
 10
-0.2570501721
 20
-15.1787353391
 10
-0.2194661676
 20
-15.2100422447
 10
-0.179232528
 20
-15.2378735424
 10
-0.1363492531
 20
-15.2622292324
 10
-0.0905817707
 20
-15.2832589403
 10
-0.0421646531
 20
-15.3008130405
 10
0.0081983828
 20
-15.3144426552
 10
0.0602727647
 20
-15.3239981589
 10
0.114293065
 20
-15.3296291772
 10
0.1702592835
 20
-15.3313357102
  0
LWPOLYLINE
  5
30C
100
AcDbEntity
  8
IMPORT_IGES
100
AcDbPolyline
 62
7
  6
CONTINUOUS
 90
10
 70
0
 10
1.2579908127
 20
-15.1787352238
 10
1.2955748717
 20
-15.2100421837
 10
1.335808549
 20
-15.237873523
 10
1.3786918449
 20
-15.2622292417
 10
1.4244593323
 20
-15.2832589625
 10
1.4728764382
 20
-15.3008130628
 10
1.5232394432
 20
-15.3144426744
 10
1.5753137739
 20
-15.3239981749
 10
1.6293340037
 20
-15.3296291868
 10
1.6853001325
 20
-15.3313357102
  0
LWPOLYLINE
  5
30D
100
AcDbEntity
  8
IMPORT_IGES
100
AcDbPolyline
 62
7
  6
CONTINUOUS
 90
19
 70
0
 10
-0.0704978338
 20
-15.0440232816
 10
-0.0802404285
 20
-15.0349477147
 10
-0.0898461867
 20
-15.0250288118
 10
-0.0993151085
 20
-15.014266573
 10
-0.1086860024
 20
-15.0026641949
 10
-0.11792006
 20
-14.990218481
 10
-0.1269008554
 20
-14.976919841
 10
-0.1356047945
 20
-14.9627705043
 10
-0.1440554714
 20
-14.9477682417
 10
-0.1522072436
 20
-14.9318967752
 10
-0.1600636288
 20
-14.915146412
 10
-0.1676211091
 20
-14.897526845
 10
-0.174823488
 20
-14.8790508746
 10
-0.1816633182
 20
-14.8597292881
 10
-0.188148047
 20
-14.8395512982
 10
-0.1942438186
 20
-14.8184973434
 10
-0.1999393479
 20
-14.796560903
 10
-0.2052459201
 20
-14.7737484976
 10
-0.2101635352
 20
-14.7500601272
  0
LWPOLYLINE
  5
30E
100
AcDbEntity
  8
IMPORT_IGES
100
AcDbPolyline
 62
7
  6
CONTINUOUS
 90
19
 70
0
 10
1.444543175
 20
-15.0440233972
 10
1.434800573
 20
-15.0349478243
 10
1.4251948069
 20
-15.0250289158
 10
1.4157258767
 20
-15.0142666717
 10
1.4063549736
 20
-15.002664289
 10
1.3971209063
 20
-14.9902185707
 10
1.388140101
 20
-14.9769199262
 10
1.3794361517
 20
-14.9627705847
 10
1.3709854643
 20
-14.947768317
 10
1.3628336825
 20
-14.9318968449
 10
1.3549772884
 20
-14.9151464754
 10
1.3474197999
 20
-14.8975269015
 10
1.3402174141
 20
-14.8790509238
 10
1.3333775781
 20
-14.8597293296
 10
1.3268928448
 20
-14.8395513317
 10
1.3207970693
 20
-14.8184973686
 10
1.3151015368
 20
-14.7965609199
 10
1.3097949621
 20
-14.7737485062
 10
1.3048773453
 20
-14.7500601272
  0
LINE
  5
30F
100
AcDbEntity
  8
IMPORT_IGES
100
AcDbLine
 62
253
  6
CONTINUOUS
 10
19.5380863353
 20
-37.6438981903
 11
19.4439449995
 21
-37.547552177
  0
LINE
  5
310
100
AcDbEntity
  8
IMPORT_IGES
100
AcDbLine
 62
253
  6
CONTINUOUS
 10
19.7265256529
 20
-37.8356306192
 11
19.6323939212
 21
-37.7392939605
  0
LWPOLYLINE
  5
311
100
AcDbEntity
  8
IMPORT_IGES
100
AcDbPolyline
 62
7
  6
CONTINUOUS
 90
10
 70
0
 10
0.4655526221
 20
-14.4547667767
 10
0.4876973189
 20
-14.4786843916
 10
0.5073749724
 20
-14.5042947239
 10
0.5245855824
 20
-14.5315977733
 10
0.5394308675
 20
-14.5607730102
 10
0.5518091091
 20
-14.5916409644
 10
0.5614151518
 20
-14.6236632254
 10
0.5681472769
 20
-14.6566603229
 10
0.572107203
 20
-14.6908117273
 10
0.5732949302
 20
-14.7261174385
  0
LWPOLYLINE
  5
312
100
AcDbEntity
  8
IMPORT_IGES
100
AcDbPolyline
 62
7
  6
CONTINUOUS
 90
13
 70
0
 10
-3.2886213873
 20
-15.1282089777
 10
-3.2627800177
 20
-15.1589929488
 10
-3.2344440759
 20
-15.1876160941
 10
-3.203613562
 20
-15.2140784137
 10
-3.1698480709
 20
-15.2387432165
 10
-3.1335880077
 20
-15.2612471937
 10
-3.0961545874
 20
-15.2805004182
 10
-3.0581498866
 20
-15.2959754531
 10
-3.0189718286
 20
-15.3081997354
 10
-2.978135399
 20
-15.3176656488
 10
-2.9354789264
 20
-15.3245373212
 10
-2.8911640821
 20
-15.3286506248
 10
-2.8451908663
 20
-15.3300055594
  0
LWPOLYLINE
  5
313
100
AcDbEntity
  8
IMPORT_IGES
100
AcDbPolyline
 62
7
  6
CONTINUOUS
 90
13
 70
0
 10
-1.7735804826
 20
-15.1282089584
 10
-1.7477391281
 20
-15.1589929228
 10
-1.7194031983
 20
-15.1876160639
 10
-1.6885726931
 20
-15.2140783818
 10
-1.6548072064
 20
-15.2387431862
 10
-1.6185471443
 20
-15.2612471675
 10
-1.5811137252
 20
-15.2805003963
 10
-1.543109028
 20
-15.2959754351
 10
-1.5039309738
 20
-15.3081997215
 10
-1.4630945443
 20
-15.3176656388
 10
-1.4204380667
 20
-15.3245373147
 10
-1.3761232139
 20
-15.3286506216
 10
-1.3301499858
 20
-15.3300055594
  0
LWPOLYLINE
  5
314
100
AcDbEntity
  8
IMPORT_IGES
100
AcDbPolyline
 62
7
  6
CONTINUOUS
 90
22
 70
0
 10
-3.2886213873
 20
-15.1282089777
 10
-3.3041376584
 20
-15.1078559583
 10
-3.3192263
 20
-15.0858881184
 10
-3.3338873121
 20
-15.0623054581
 10
-3.3481734847
 20
-15.0371409474
 10
-3.3620320278
 20
-15.0103616161
 10
-3.3753045716
 20
-14.9818685543
 10
-3.3879914192
 20
-14.9516591199
 10
-3.4000922675
 20
-14.9197359549
 10
-3.4114478376
 20
-14.8860080747
 10
-3.4220334513
 20
-14.8504657333
 10
-3.4318737868
 20
-14.8131186768
 10
-3.4408835995
 20
-14.7739051587
 10
-3.449066855
 20
-14.7328198984
 10
-3.4564195878
 20
-14.6898681764
 10
-3.4628446566
 20
-14.6450040884
 10
-3.4683362449
 20
-14.5982313985
 10
-3.4729001694
 20
-14.5495463425
 10
-3.4764567385
 20
-14.4988917239
 10
-3.4789793886
 20
-14.4462484771
 10
-3.4804946835
 20
-14.3916356675
 10
-3.481002623
 20
-14.3350532953
  0
LWPOLYLINE
  5
315
100
AcDbEntity
  8
IMPORT_IGES
100
AcDbPolyline
 62
7
  6
CONTINUOUS
 90
22
 70
0
 10
-1.7735804826
 20
-15.1282089584
 10
-1.7890967518
 20
-15.1078559341
 10
-1.8041853918
 20
-15.08588809
 10
-1.8188464025
 20
-15.0623054261
 10
-1.8331325737
 20
-15.0371409126
 10
-1.8469911157
 20
-15.0103615793
 10
-1.860263659
 20
-14.9818685161
 10
-1.8729505066
 20
-14.9516590811
 10
-1.8850513556
 20
-14.9197359163
 10
-1.896406927
 20
-14.886008037
 10
-1.9069925429
 20
-14.8504656972
 10
-1.9168328813
 20
-14.8131186429
 10
-1.9258426974
 20
-14.7739051275
 10
-1.9340259566
 20
-14.7328198702
 10
-1.9413786935
 20
-14.6898681517
 10
-1.9478037664
 20
-14.6450040673
 10
-1.9532953588
 20
-14.5982313811
 10
-1.9578592872
 20
-14.549546329
 10
-1.9614158597
 20
-14.498891714
 10
-1.9639385123
 20
-14.4462484706
 10
-1.965453809
 20
-14.3916356644
 10
-1.9659617499
 20
-14.3350532954
  0
LWPOLYLINE
  5
316
100
AcDbEntity
  8
IMPORT_IGES
100
AcDbPolyline
 62
7
  6
CONTINUOUS
 90
13
 70
0
 10
-3.1231922424
 20
-14.9748554789
 10
-3.1042532653
 20
-15.0005415746
 10
-3.0844237417
 20
-15.023913375
 10
-3.0637036717
 20
-15.0449708801
 10
-3.0420932015
 20
-15.0636634996
 10
-3.0195921849
 20
-15.0800418239
 10
-2.9962001831
 20
-15.0942576237
 10
-2.9716187442
 20
-15.1064096224
 10
-2.9461463202
 20
-15.1163990967
 10
-2.9206778286
 20
-15.1240816472
 10
-2.8955115754
 20
-15.1294091407
 10
-2.8703492546
 20
-15.1324297105
 10
-2.8451908663
 20
-15.1331433564
  0
LWPOLYLINE
  5
317
100
AcDbEntity
  8
IMPORT_IGES
100
AcDbPolyline
 62
7
  6
CONTINUOUS
 90
13
 70
0
 10
-1.6081512943
 20
-14.9748554926
 10
-1.5892123242
 20
-15.0005415825
 10
-1.5693828076
 20
-15.0239133784
 10
-1.5486627445
 20
-15.0449708805
 10
-1.5270522812
 20
-15.0636634987
 10
-1.5045512714
 20
-15.080041823
 10
-1.4811592762
 20
-15.0942576229
 10
-1.4565778439
 20
-15.1064096216
 10
-1.4311054262
 20
-15.116399096
 10
-1.4056369399
 20
-15.1240816467
 10
-1.3804706905
 20
-15.1294091404
 10
-1.3553083725
 20
-15.1324297103
 10
-1.3301499858
 20
-15.1331433564
  0
LWPOLYLINE
  5
318
100
AcDbEntity
  8
IMPORT_IGES
100
AcDbPolyline
 62
7
  6
CONTINUOUS
 90
10
 70
0
 10
-2.3747879928
 20
-13.5851523247
 10
-2.3921743707
 20
-13.5595162419
 10
-2.4106892162
 20
-13.5351917122
 10
-2.4303325295
 20
-13.5121787357
 10
-2.4511743719
 20
-13.4904309298
 10
-2.473144682
 20
-13.4699946771
 10
-2.4960332754
 20
-13.4510091254
 10
-2.5197700905
 20
-13.4335206574
 10
-2.5444251888
 20
-13.4174828904
 10
-2.5699985704
 20
-13.4028958245
  0
LWPOLYLINE
  5
319
100
AcDbEntity
  8
IMPORT_IGES
100
AcDbPolyline
 62
253
  6
CONTINUOUS
 90
19
 70
0
 10
-8.2810772646
 20
1.4744861418
 10
-8.2669595753
 20
1.3190877273
 10
-8.2435639724
 20
1.1660634649
 10
-8.210890456
 20
1.0154133543
 10
-8.1687344942
 20
0.8665858201
 10
-8.1173006189
 20
0.7201324377
 10
-8.0572024252
 20
0.5777079343
 10
-7.9883533535
 20
0.4393677624
 10
-7.9108399634
 20
0.3050564695
 10
-7.8255355291
 20
0.1762624247
 10
-7.732359876
 20
0.0530423754
 10
-7.6313931786
 20
-0.0646604256
 10
-7.5237492352
 20
-0.1755278506
 10
-7.4093575341
 20
-0.2794910472
 10
-7.2882885868
 20
-0.3766188678
 10
-7.161867727
 20
-0.4657997413
 10
-7.0305367324
 20
-0.5466631439
 10
-6.8938538252
 20
-0.6195795994
 10
-6.7518190054
 20
-0.6845491077
  0
LWPOLYLINE
  5
31A
100
AcDbEntity
  8
IMPORT_IGES
100
AcDbPolyline
 62
253
  6
CONTINUOUS
 90
37
 70
0
 10
-7.7819697318
 20
1.5040413226
 10
-7.7776202256
 20
1.4446200042
 10
-7.7714995277
 20
1.3851103035
 10
-7.7635641224
 20
1.3255203248
 10
-7.7537622799
 20
1.2658146293
 10
-7.7420548877
 20
1.2060454407
 10
-7.7284287578
 20
1.1463496044
 10
-7.7128515575
 20
1.0867345738
 10
-7.6952896878
 20
1.0272034556
 10
-7.6757513077
 20
0.9678811939
 10
-7.6542223367
 20
0.9087890976
 10
-7.6307329084
 20
0.8500542886
 10
-7.6053826464
 20
0.7919605745
 10
-7.5782315425
 20
0.7346769282
 10
-7.5493384962
 20
0.6783699212
 10
-7.5187849952
 20
0.6232228958
 10
-7.486563879
 20
0.5692142593
 10
-7.4526524574
 20
0.5162939477
 10
-7.4170818895
 20
0.4644906255
 10
-7.3798895516
 20
0.4138262217
 10
-7.3411112306
 20
0.3643230678
 10
-7.3007766871
 20
0.3160100035
 10
-7.2589506175
 20
0.2689670034
 10
-7.2157085598
 20
0.2232858869
 10
-7.171078341
 20
0.178998307
 10
-7.1250497492
 20
0.1360988748
 10
-7.077728728
 20
0.09469366
 10
-7.0293187844
 20
0.0549533742
 10
-6.9798553859
 20
0.016889786
 10
-6.9293735815
 20
-0.0194913234
 10
-6.8780995171
 20
-0.0540636099
 10
-6.8260668333
 20
-0.0868538639
 10
-6.7733050216
 20
-0.1178904164
 10
-6.7200801576
 20
-0.1470643282
 10
-6.6665410579
 20
-0.1743490847
 10
-6.6126914931
 20
-0.199795232
 10
-6.5586017472
 20
-0.2234158937
  0
LWPOLYLINE
  5
31B
100
AcDbEntity
  8
IMPORT_IGES
100
AcDbPolyline
 62
7
  6
CONTINUOUS
 90
10
 70
0
 10
-8.6650407359
 20
-19.7600532944
 10
-8.6653651463
 20
-19.7030529555
 10
-8.6667500332
 20
-19.6474746452
 10
-8.6691953966
 20
-19.5933183633
 10
-8.6725975984
 20
-19.5405256631
 10
-8.6770602766
 20
-19.4891549914
 10
-8.6828943459
 20
-19.4393816887
 10
-8.6902034445
 20
-19.3912642016
 10
-8.6988839343
 20
-19.3447440833
 10
-8.7089358152
 20
-19.299821334
  0
LWPOLYLINE
  5
31C
100
AcDbEntity
  8
IMPORT_IGES
100
AcDbPolyline
 62
7
  6
CONTINUOUS
 90
25
 70
0
 10
-8.9111185715
 20
-19.7600534225
 10
-8.911257745
 20
-19.720572887
 10
-8.9118007445
 20
-19.6822832832
 10
-8.91274757
 20
-19.6451846111
 10
-8.9140965917
 20
-19.609292125
 10
-8.9158494393
 20
-19.5745905707
 10
-8.9180110023
 20
-19.5410341851
 10
-8.9205943123
 20
-19.5086247558
 10
-8.9235863377
 20
-19.4773604954
 10
-8.9269528725
 20
-19.4471902779
 10
-8.9306831149
 20
-19.4181160486
 10
-8.9347878667
 20
-19.3901358623
 10
-8.9392653274
 20
-19.3631927579
 10
-8.9441165466
 20
-19.3372792311
 10
-8.9493404746
 20
-19.3124027862
 10
-8.9549321621
 20
-19.2885289752
 10
-8.9608561635
 20
-19.2656316836
 10
-8.9671479243
 20
-19.2437370259
 10
-8.9739088316
 20
-19.2228888973
 10
-8.9811739453
 20
-19.2030794767
 10
-8.9889082054
 20
-19.1843165851
 10
-8.9971078189
 20
-19.1666675808
 10
-9.0057715212
 20
-19.1501549164
 10
-9.0149005768
 20
-19.1347561392
 10
-9.0244949857
 20
-19.1204712493
  0
LINE
  5
31D
100
AcDbEntity
  8
RACCORDO
100
AcDbLine
 62
7
  6
CONTINUOUS
 10
-7.5
 20
-41.7467267598
 11
-7.5
 21
-40.2770604914
  0
LINE
  5
31E
100
AcDbEntity
  8
RACCORDO
100
AcDbLine
 62
253
  6
CONTINUOUS
 10
-7.0
 20
-42.2467267598
 11
-7.0
 21
-40.3111671469
  0
LINE
  5
31F
100
AcDbEntity
  8
IMPORT_IGES
100
AcDbLine
 62
7
  6
CONTINUOUS
 10
-11.2202595919
 20
-18.7983550067
 11
-11.409140192
 21
-19.7999589081
  0
LINE
  5
320
100
AcDbEntity
  8
IMPORT_IGES
100
AcDbLine
 62
7
  6
CONTINUOUS
 10
-11.028717272
 20
-19.0271399851
 11
-11.1337994948
 21
-19.5512197818
  0
LWPOLYLINE
  5
321
100
AcDbEntity
  8
IMPORT_IGES
100
AcDbPolyline
 62
253
  6
CONTINUOUS
 90
4
 70
0
 10
-17.8004547101
 20
-39.16518839
 10
-17.7989095381
 20
-39.1579719149
 10
-17.796080402
 20
-39.1428941143
 10
-17.7866945615
 20
-39.0898790864
  0
LINE
  5
322
100
AcDbEntity
  8
IMPORT_IGES
100
AcDbLine
 62
253
  6
CONTINUOUS
 10
6.0260967205
 20
37.3104439258
 11
6.4070019462
 21
38.2350168308
  0
LINE
  5
323
100
AcDbEntity
  8
IMPORT_IGES
100
AcDbLine
 62
253
  6
CONTINUOUS
 10
6.558601501
 20
38.3299617866
 11
6.7518844652
 21
38.7910720312
  0
LWPOLYLINE
  5
324
100
AcDbEntity
  8
0
100
AcDbPolyline
 62
253
  6
CONTINUOUS
 90
10
 70
0
 10
-13.2096714284
 20
-4.7467267598
 10
-13.2139563159
 20
-4.7533937487
 10
-13.2186432997
 20
-4.7598352364
 10
-13.2237303081
 20
-4.7660485218
 10
-13.2292497611
 20
-4.7720718436
 10
-13.2351655924
 20
-4.7778618273
 10
-13.2413718532
 20
-4.7832959793
 10
-13.2478308005
 20
-4.7883349753
 10
-13.2545742982
 20
-4.7930201632
 10
-13.2615998524
 20
-4.7973527625
  0
LWPOLYLINE
  5
325
100
AcDbEntity
  8
0
100
AcDbPolyline
 62
7
  6
CONTINUOUS
 90
8
 70
0
 10
13.4875479642
 20
-3.9057165952
 10
13.4735079799
 20
-3.907996566
 10
13.4589551724
 20
-3.9109123431
 10
13.4440939851
 20
-3.9144364166
 10
13.4290678974
 20
-3.9181892357
 10
13.4140109994
 20
-3.9220888
 10
13.3990737214
 20
-3.9263694237
 10
13.3843855909
 20
-3.9310948787
  0
LWPOLYLINE
  5
326
100
AcDbEntity
  8
IMPORT_IGES
100
AcDbPolyline
 62
7
  6
CONTINUOUS
 90
10
 70
0
 10
11.1841324992
 20
-13.8176221452
 10
11.1181014951
 20
-13.790922092
 10
11.051699218
 20
-13.7652850625
 10
10.9849256679
 20
-13.7407110568
 10
10.917770428
 20
-13.7171965896
 10
10.8502439151
 20
-13.6947451462
 10
10.7823773797
 20
-13.6733671823
 10
10.7141812386
 20
-13.6530661831
 10
10.6456450751
 20
-13.6338386634
 10
10.5767688891
 20
-13.6156846232
  0
LINE
  5
327
100
AcDbEntity
  8
IMPORT_IGES
100
AcDbLine
 62
7
  6
CONTINUOUS
 10
7.1161545818
 20
-19.3712292477
 11
7.0255238142
 21
-19.2805996329
  0
LWPOLYLINE
  5
328
100
AcDbEntity
  8
IMPORT_IGES
100
AcDbPolyline
 62
7
  6
CONTINUOUS
 90
10
 70
0
 10
0.3957237139
 20
-13.6227618416
 10
0.4143043797
 20
-13.6423331954
 10
0.4307858779
 20
-13.6631690668
 10
0.4451682085
 20
-13.6852694558
 10
0.4575208113
 20
-13.7087895184
 10
0.4677742464
 20
-13.7335740985
 10
0.4757201947
 20
-13.7591577279
 10
0.4812892162
 20
-13.7853852502
 10
0.4845507509
 20
-13.8124118218
 10
0.4855047986
 20
-13.8402374425
  0
LWPOLYLINE
  5
329
100
AcDbEntity
  8
IMPORT_IGES
100
AcDbPolyline
 62
7
  6
CONTINUOUS
 90
10
 70
0
 10
1.9107645917
 20
-13.6227616117
 10
1.9293453254
 20
-13.6423330303
 10
1.9458268798
 20
-13.6631689572
 10
1.9602092549
 20
-13.6852693924
 10
1.9725618889
 20
-13.708789493
 10
1.9828153437
 20
-13.733574102
 10
1.9907613047
 20
-13.7591577485
 10
1.996330334
 20
-13.7853852756
 10
1.9995918696
 20
-13.8124118403
 10
2.0005459115
 20
-13.8402374425
  0
LWPOLYLINE
  5
32A
100
AcDbEntity
  8
IMPORT_IGES
100
AcDbPolyline
 62
7
  6
CONTINUOUS
 90
10
 70
0
 10
1.9805936187
 20
-14.4547668929
 10
2.0027382845
 20
-14.4786844277
 10
2.0224159024
 20
-14.5042946975
 10
2.0396264725
 20
-14.5315977024
 10
2.05447171
 20
-14.5607729137
 10
2.0668498997
 20
-14.5916408601
 10
2.0764558959
 20
-14.6236631272
 10
2.0831879834
 20
-14.6566602436
 10
2.0871478775
 20
-14.6908116807
 10
2.0883355781
 20
-14.7261174385
  0
LWPOLYLINE
  5
32B
100
AcDbEntity
  8
IMPORT_IGES
100
AcDbPolyline
 62
7
  6
CONTINUOUS
 90
10
 70
0
 10
0.731582627
 20
-14.4068813896
 10
0.7102290021
 20
-14.3810831165
 10
0.6866651391
 20
-14.3570168585
 10
0.6608910382
 20
-14.3346826157
 10
0.6327933373
 20
-14.3139484183
 10
0.6024853984
 20
-14.294946236
 10
0.570307307
 20
-14.2780719775
 10
0.5363724249
 20
-14.2634576121
 10
0.5005673902
 20
-14.2509711704
 10
0.4628922031
 20
-14.2406126525
  0
LWPOLYLINE
  5
32C
100
AcDbEntity
  8
IMPORT_IGES
100
AcDbPolyline
 62
7
  6
CONTINUOUS
 90
10
 70
0
 10
2.2466235928
 20
-14.4068815016
 10
2.2252700808
 20
-14.381083272
 10
2.2017063075
 20
-14.3570170422
 10
2.1759322728
 20
-14.3346828123
 10
2.1478346161
 20
-14.3139486111
 10
2.1175266981
 20
-14.2949464097
 10
2.0853486008
 20
-14.2780721218
 10
2.0514136851
 20
-14.2634577186
 10
2.0156085901
 20
-14.2509712288
 10
1.977933316
 20
-14.2406126524
  0
LWPOLYLINE
  5
32D
100
AcDbEntity
  8
IMPORT_IGES
100
AcDbPolyline
 62
7
  6
CONTINUOUS
 90
10
 70
0
 10
-0.8597469961
 20
-13.5851523247
 10
-0.8771333445
 20
-13.559516287
 10
-0.8956481701
 20
-13.53519179
 10
-0.9152914729
 20
-13.5121788336
 10
-0.9361333135
 20
-13.4904310347
 10
-0.9581036314
 20
-13.4699947764
 10
-0.9809922449
 20
-13.4510092088
 10
-1.0047290934
 20
-13.4335207153
 10
-1.0293842375
 20
-13.4174829125
 10
-1.0549576772
 20
-13.4028958003
  0
LWPOLYLINE
  5
32E
100
AcDbEntity
  8
IMPORT_IGES
100
AcDbPolyline
 62
7
  6
CONTINUOUS
 90
10
 70
0
 10
0.6594602569
 20
-13.5943385033
 10
0.6430897526
 20
-13.5691364258
 10
0.625083396
 20
-13.5450026535
 10
0.6054411873
 20
-13.5219371865
 10
0.5841060073
 20
-13.4998575306
 10
0.5611349751
 20
-13.47884618
 10
0.5366994477
 20
-13.4591506167
 10
0.5108565442
 20
-13.4408533349
 10
0.4835491456
 20
-13.4238718405
 10
0.4547772519
 20
-13.4082061334
  0
LWPOLYLINE
  5
32F
100
AcDbEntity
  8
IMPORT_IGES
100
AcDbPolyline
 62
7
  6
CONTINUOUS
 90
25
 70
0
 10
-3.2349248528
 20
-14.3350534196
 10
-3.2347950297
 20
-14.3744998355
 10
-3.2342722849
 20
-14.4127610322
 10
-3.2333566184
 20
-14.4498370096
 10
-3.232050829
 20
-14.4857128805
 10
-3.2303521179
 20
-14.5204035322
 10
-3.2282520888
 20
-14.5539536265
 10
-3.2257375475
 20
-14.5863613982
 10
-3.2228216882
 20
-14.6176286126
 10
-3.2195356965
 20
-14.6478052274
 10
-3.2158903898
 20
-14.6768891766
 10
-3.2118749507
 20
-14.7048825263
 10
-3.2074881125
 20
-14.7318414316
 10
-3.2027286233
 20
-14.757773432
 10
-3.197597735
 20
-14.782670988
 10
-3.1920979357
 20
-14.8065676371
 10
-3.1862650366
 20
-14.8294895648
 10
-3.1800632265
 20
-14.8514105856
 10
-3.17338756
 20
-14.872285679
 10
-3.166202331
 20
-14.8921230326
 10
-3.1585432454
 20
-14.9109144589
 10
-3.1504124765
 20
-14.928590375
 10
-3.1418107486
 20
-14.9451275865
 10
-3.1327373372
 20
-14.9605492879
 10
-3.1231922424
 20
-14.9748554789
  0
LINE
  5
330
100
AcDbEntity
  8
IMPORT_IGES
100
AcDbLine
 62
7
  6
CONTINUOUS
 10
-5.8451229401
 20
-19.7081774842
 11
-5.8451229706
 21
-19.9808589972
  0
LINE
  5
331
100
AcDbEntity
  8
IMPORT_IGES
100
AcDbLine
 62
7
  6
CONTINUOUS
 10
-4.4843791768
 20
-19.8265608396
 11
-4.4843791768
 21
-19.5445679064
  0
LINE
  5
332
100
AcDbEntity
  8
IMPORT_IGES
100
AcDbLine
 62
253
  6
CONTINUOUS
 10
3.0775928719
 20
39.875642124
 11
2.9894920941
 21
39.3834844106
  0
LWPOLYLINE
  5
333
100
AcDbEntity
  8
IMPORT_IGES
100
AcDbPolyline
 62
7
  6
CONTINUOUS
 90
10
 70
0
 10
-9.8661664403
 20
-19.2040505644
 10
-9.8820049165
 20
-19.2561937277
 10
-9.8957440804
 20
-19.3108288711
 10
-9.9073839322
 20
-19.3679559945
 10
-9.9167938419
 20
-19.4276860987
 10
-9.9241044394
 20
-19.4899081829
 10
-9.9297076146
 20
-19.5542892449
 10
-9.9337339974
 20
-19.6207182839
 10
-9.936052958
 20
-19.6893063008
 10
-9.9366644964
 20
-19.7600532953
  0
LWPOLYLINE
  5
334
100
AcDbEntity
  8
IMPORT_IGES
100
AcDbPolyline
 62
7
  6
CONTINUOUS
 90
10
 70
0
 10
-12.9704571365
 20
-20.5550747456
 10
-12.9768669629
 20
-20.5733096525
 10
-12.9824218707
 20
-20.5916442499
 10
-12.98712186
 20
-20.6100785377
 10
-12.9909679974
 20
-20.6286505073
 10
-12.9939592164
 20
-20.6473221674
 10
-12.9960923164
 20
-20.665979544
 10
-12.9973662307
 20
-20.6845846459
 10
-12.997782026
 20
-20.7031754644
 10
-12.9973397025
 20
-20.7217519994
  0
LWPOLYLINE
  5
335
100
AcDbEntity
  8
IMPORT_IGES
100
AcDbPolyline
 62
7
  6
CONTINUOUS
 90
10
 70
0
 10
-11.7587308652
 20
-19.5353599727
 10
-11.748692812
 20
-19.5102275302
 10
-11.739840878
 20
-19.4849496058
 10
-11.7321750634
 20
-19.4595261996
 10
-11.72569552
 20
-19.433912449
 10
-11.7204020959
 20
-19.4081532167
 10
-11.7162943356
 20
-19.3823830899
 10
-11.7133720873
 20
-19.3566469311
 10
-11.7116355027
 20
-19.330899878
 10
-11.7110845819
 20
-19.3051419304
  0
LINE
  5
336
100
AcDbEntity
  8
IMPORT_IGES
100
AcDbLine
 62
253
  6
CONTINUOUS
 10
-6.0260967205
 20
0.7961025545
 11
-6.4070019462
 21
-0.1284703505
  0
LINE
  5
337
100
AcDbEntity
  8
IMPORT_IGES
100
AcDbLine
 62
253
  6
CONTINUOUS
 10
-6.558601501
 20
-0.2234153063
 11
-6.7518844652
 21
-0.6845255508
  0
LINE
  5
338
100
AcDbEntity
  8
IMPORT_IGES
100
AcDbLine
 62
253
  6
CONTINUOUS
 10
-7.6417266988
 20
1.6043029121
 11
-7.7819690967
 21
1.5040413721
  0
LWPOLYLINE
  5
339
100
AcDbEntity
  8
0
100
AcDbPolyline
 62
253
  6
CONTINUOUS
 90
13
 70
0
 10
-14.847826087
 20
-5.7131609061
 10
-14.855329297
 20
-5.7179622739
 10
-14.8622961169
 20
-5.7232978399
 10
-14.868733329
 20
-5.7291798098
 10
-14.8746902737
 20
-5.735685358
 10
-14.8801271903
 20
-5.7427579335
 10
-14.8849077697
 20
-5.7502097635
 10
-14.8889924273
 20
-5.7580569512
 10
-14.8924042151
 20
-5.7663019341
 10
-14.8950872792
 20
-5.7747370025
 10
-14.8970102098
 20
-5.7832964876
 10
-14.8981706891
 20
-5.7920561773
 10
-14.8985507246
 20
-5.8010185557
  0
LINE
  5
33A
100
AcDbEntity
  8
IMPORT_IGES
100
AcDbLine
 62
253
  6
CONTINUOUS
 10
-6.5586015022
 20
-0.2234153058
 11
-6.4070019436
 21
-0.1284703515
  0
LINE
  5
33B
100
AcDbEntity
  8
0
100
AcDbLine
 62
253
  6
CONTINUOUS
 10
-14.1376811594
 20
-4.1317232122
 11
-13.4858348663
 21
-3.7553795794
  0
LINE
  5
33C
100
AcDbEntity
  8
0
100
AcDbLine
 62
7
  6
CONTINUOUS
 10
-14.1
 20
-4.2271115176
 11
-13.550930643
 21
-3.9101061765
  0
LINE
  5
33D
100
AcDbEntity
  8
0
100
AcDbLine
 62
7
  6
CONTINUOUS
 10
13.5131355446
 20
-3.9019920691
 11
13.4875479642
 21
-3.9057165952
  0
LWPOLYLINE
  5
33E
100
AcDbEntity
  8
0
100
AcDbPolyline
 62
7
  6
CONTINUOUS
 90
10
 70
0
 10
13.5131355446
 20
-3.9019920691
 10
13.5174936075
 20
-3.9017408477
 10
13.5218384098
 20
-3.9017644166
 10
13.5261613761
 20
-3.9020711066
 10
13.5304637
 20
-3.9026728149
 10
13.5347270687
 20
-3.9035730443
 10
13.5389148867
 20
-3.9047646504
 10
13.543010943
 20
-3.9062466576
 10
13.5470182606
 20
-3.9080264268
 10
13.550930643
 20
-3.9101061765
  0
LWPOLYLINE
  5
33F
100
AcDbEntity
  8
0
100
AcDbPolyline
 62
7
  6
CONTINUOUS
 90
10
 70
0
 10
-16.4868644554
 20
-3.9019920691
 10
-16.4825063925
 20
-3.9017408477
 10
-16.4781615902
 20
-3.9017644166
 10
-16.4738386239
 20
-3.9020711066
 10
-16.4695363
 20
-3.9026728149
 10
-16.4652729313
 20
-3.9035730443
 10
-16.4610851133
 20
-3.9047646504
 10
-16.456989057
 20
-3.9062466576
 10
-16.4529817394
 20
-3.9080264268
 10
-16.449069357
 20
-3.9101061765
  0
LINE
  5
340
100
AcDbEntity
  8
0
100
AcDbLine
 62
253
  6
CONTINUOUS
 10
16.8086006748
 20
-4.6801769032
 11
16.7089144185
 21
-4.683844991
  0
LINE
  5
341
100
AcDbEntity
  8
0
100
AcDbLine
 62
253
  6
CONTINUOUS
 10
-13.1913993252
 20
-4.6801769032
 11
-13.2910855815
 21
-4.683844991
  0
LWPOLYLINE
  5
342
100
AcDbEntity
  8
0
100
AcDbPolyline
 62
253
  6
CONTINUOUS
 90
13
 70
0
 10
14.0869565217
 20
-4.3952961612
 10
14.1010987485
 20
-4.3952532295
 10
14.1152190258
 20
-4.3953119282
 10
14.1290339203
 20
-4.3954710816
 10
14.1422661244
 20
-4.3957274979
 10
14.1546500037
 20
-4.3960760321
 10
14.1659369347
 20
-4.396509689
 10
14.1759003284
 20
-4.397019765
 10
14.1843401502
 20
-4.3975960221
 10
14.191086934
 20
-4.3982268923
 10
14.1960052205
 20
-4.398899711
 10
14.1989962642
 20
-4.3996009723
 10
14.2
 20
-4.4003165987
  0
LWPOLYLINE
  5
343
100
AcDbEntity
  8
0
100
AcDbPolyline
 62
253
  6
CONTINUOUS
 90
13
 70
0
 10
-15.9130434783
 20
-4.3952961612
 10
-15.8989012515
 20
-4.3952532295
 10
-15.8847809742
 20
-4.3953119282
 10
-15.8709660797
 20
-4.3954710816
 10
-15.8577338756
 20
-4.3957274979
 10
-15.8453499963
 20
-4.3960760321
 10
-15.8340630653
 20
-4.396509689
 10
-15.8240996716
 20
-4.397019765
 10
-15.8156598498
 20
-4.3975960221
 10
-15.808913066
 20
-4.3982268923
 10
-15.8039947795
 20
-4.398899711
 10
-15.8010037358
 20
-4.3996009723
 10
-15.8
 20
-4.4003165987
  0
LWPOLYLINE
  5
344
100
AcDbEntity
  8
0
100
AcDbPolyline
 62
253
  6
CONTINUOUS
 90
13
 70
0
 10
-14.8985507246
 20
-5.8010185557
 10
-14.9117343235
 20
-5.8009160745
 10
-14.9247134281
 20
-5.8005529054
 10
-14.9372618514
 20
-5.7999353775
 10
-14.9491609117
 20
-5.7990742524
 10
-14.9602032439
 20
-5.797984537
 10
-14.9701964132
 20
-5.7966852218
 10
-14.9789662685
 20
-5.7951989499
 10
-14.9863599773
 20
-5.7935516227
 10
-14.9922486895
 20
-5.7917719482
 10
-14.9965297824
 20
-5.789890941
 10
-14.9991286493
 20
-5.7879413814
 10
-15.0
 20
-5.7859572444
  0
LWPOLYLINE
  5
345
100
AcDbEntity
  8
0
100
AcDbPolyline
 62
253
  6
CONTINUOUS
 90
13
 70
0
 10
15.1014492754
 20
-5.8010185557
 10
15.0882656765
 20
-5.8009160745
 10
15.0752865719
 20
-5.8005529054
 10
15.0627381486
 20
-5.7999353775
 10
15.0508390883
 20
-5.7990742524
 10
15.0397967561
 20
-5.797984537
 10
15.0298035868
 20
-5.7966852218
 10
15.0210337315
 20
-5.7951989499
 10
15.0136400227
 20
-5.7935516227
 10
15.0077513105
 20
-5.7917719482
 10
15.0034702176
 20
-5.789890941
 10
15.0008713507
 20
-5.7879413814
 10
15.0
 20
-5.7859572444
  0
LINE
  5
346
100
AcDbEntity
  8
IMPORT_IGES
100
AcDbLine
 62
7
  6
CONTINUOUS
 10
7.0255238568
 20
-13.5129085049
 11
8.6480098142
 21
-15.1353946329
  0
LINE
  5
347
100
AcDbEntity
  8
IMPORT_IGES
100
AcDbLine
 62
7
  6
CONTINUOUS
 10
11.1099277195
 20
-17.5973116571
 11
12.8838447745
 21
-19.3712290288
  0
LINE
  5
348
100
AcDbEntity
  8
IMPORT_IGES
100
AcDbLine
 62
7
  6
CONTINUOUS
 10
9.9999997765
 20
-16.4873823459
 11
11.0507728532
 21
-17.538156354
  0
LINE
  5
349
100
AcDbEntity
  8
IMPORT_IGES
100
AcDbLine
 62
7
  6
CONTINUOUS
 10
9.9093699828
 20
-16.3967534836
 11
8.7185082957
 21
-15.2058899339
  0
LINE
  5
34A
100
AcDbEntity
  8
IMPORT_IGES
100
AcDbLine
 62
7
  6
CONTINUOUS
 10
12.9744762162
 20
-19.2805987813
 11
11.1245097745
 21
-17.4306330288
  0
LINE
  5
34B
100
AcDbEntity
  8
IMPORT_IGES
100
AcDbLine
 62
7
  6
CONTINUOUS
 10
8.6306318142
 20
-14.9367556329
 11
7.1161548142
 21
-13.4222786329
  0
LINE
  5
34C
100
AcDbEntity
  8
IMPORT_IGES
100
AcDbLine
 62
7
  6
CONTINUOUS
 10
8.7011298165
 20
-15.0072500046
 11
9.9999997765
 21
-16.3061208959
  0
LINE
  5
34D
100
AcDbEntity
  8
IMPORT_IGES
100
AcDbLine
 62
7
  6
CONTINUOUS
 10
11.0653545708
 20
-17.3714756902
 11
10.0906305015
 21
-16.3967497583
  0
LWPOLYLINE
  5
34E
100
AcDbEntity
  8
IMPORT_IGES
100
AcDbPolyline
 62
7
  6
CONTINUOUS
 90
10
 70
0
 10
2.1745013698
 20
-13.5943385033
 10
2.1581309466
 20
-13.5691365436
 10
2.1401246511
 20
-13.5450028615
 10
2.1204824833
 20
-13.5219374568
 10
2.0991473262
 20
-13.4998578345
 10
2.0761762967
 20
-13.4788464898
 10
2.051740746
 20
-13.4591509081
 10
2.0258977911
 20
-13.4408535847
 10
1.9985903149
 20
-13.4238720245
 10
1.9698183175
 20
-13.4082062274
  0
LWPOLYLINE
  5
34F
100
AcDbEntity
  8
IMPORT_IGES
100
AcDbPolyline
 62
7
  6
CONTINUOUS
 90
10
 70
0
 10
-2.2532741199
 20
-13.874821348
 10
-2.2634802701
 20
-13.8374406547
 10
-2.2745434312
 20
-13.8013341921
 10
-2.2864636032
 20
-13.7665019603
 10
-2.2992850035
 20
-13.7329111849
 10
-2.3129634146
 20
-13.7005946401
 10
-2.3273661843
 20
-13.6696506494
 10
-2.3424490952
 20
-13.6401119872
 10
-2.3582563647
 20
-13.6119458789
 10
-2.3747879928
 20
-13.5851523247
  0
LWPOLYLINE
  5
350
100
AcDbEntity
  8
IMPORT_IGES
100
AcDbPolyline
 62
7
  6
CONTINUOUS
 90
10
 70
0
 10
-0.738233192
 20
-13.8748213061
 10
-0.7484393487
 20
-13.8374406241
 10
-0.7595025112
 20
-13.8013341706
 10
-0.7714226794
 20
-13.7665019456
 10
-0.7842440688
 20
-13.7329111739
 10
-0.7979224639
 20
-13.7005946307
 10
-0.8123252188
 20
-13.6696506416
 10
-0.8274081182
 20
-13.6401119818
 10
-0.8432153773
 20
-13.6119458762
 10
-0.8597469961
 20
-13.5851523247
  0
LWPOLYLINE
  5
351
100
AcDbEntity
  8
IMPORT_IGES
100
AcDbPolyline
 62
7
  6
CONTINUOUS
 90
10
 70
0
 10
0.8273535177
 20
-14.7207968523
 10
0.8257866457
 20
-14.6780242428
 10
0.8218224257
 20
-14.6371255186
 10
0.8154608576
 20
-14.5981006797
 10
0.8065302567
 20
-14.5608172018
 10
0.7952023078
 20
-14.5254076091
 10
0.781992065
 20
-14.4922694743
 10
0.7670712129
 20
-14.4615353216
 10
0.7502680669
 20
-14.4330726266
 10
0.731582627
 20
-14.4068813896
  0
LWPOLYLINE
  5
352
100
AcDbEntity
  8
IMPORT_IGES
100
AcDbPolyline
 62
7
  6
CONTINUOUS
 90
10
 70
0
 10
0.7315826342
 20
-13.845558069
 10
0.7308184585
 20
-13.8171460706
 10
0.7282399616
 20
-13.7887880111
 10
0.7238471435
 20
-13.7604838906
 10
0.7176373832
 20
-13.7321393897
 10
0.7096133016
 20
-13.7038488278
 10
0.6997827619
 20
-13.6758951624
 10
0.688148385
 20
-13.6483727128
 10
0.67470755
 20
-13.6211871598
 10
0.6594602569
 20
-13.5943385033
  0
LWPOLYLINE
  5
353
100
AcDbEntity
  8
IMPORT_IGES
100
AcDbPolyline
 62
7
  6
CONTINUOUS
 90
10
 70
0
 10
-2.2093791023
 20
-14.3350532944
 10
-2.2097035063
 20
-14.2780529397
 10
-2.2110883854
 20
-14.2224746175
 10
-2.2135337394
 20
-14.1683183279
 10
-2.2169359282
 20
-14.1155256236
 10
-2.2213985921
 20
-14.0641549519
 10
-2.2272326511
 20
-14.0143816544
 10
-2.2345417455
 20
-13.9662641781
 10
-2.2432222351
 20
-13.919744076
 10
-2.2532741199
 20
-13.874821348
  0
LWPOLYLINE
  5
354
100
AcDbEntity
  8
IMPORT_IGES
100
AcDbPolyline
 62
7
  6
CONTINUOUS
 90
10
 70
0
 10
-0.6943382218
 20
-14.3350532944
 10
-0.69466262
 20
-14.2780529222
 10
-0.6960474917
 20
-14.2224745855
 10
-0.698492837
 20
-14.1683182843
 10
-0.7018950134
 20
-14.1155255708
 10
-0.7063576634
 20
-14.0641548928
 10
-0.7121917136
 20
-14.014381593
 10
-0.7195008062
 20
-13.9662641191
 10
-0.728181299
 20
-13.9197440235
 10
-0.738233192
 20
-13.8748213061
  0
LWPOLYLINE
  5
355
100
AcDbEntity
  8
IMPORT_IGES
100
AcDbPolyline
 62
7
  6
CONTINUOUS
 90
25
 70
0
 10
-2.4554569378
 20
-14.3350534225
 10
-2.4555961117
 20
-14.2955728388
 10
-2.4561391103
 20
-14.2572831926
 10
-2.4570859335
 20
-14.2201844838
 10
-2.4584349516
 20
-14.1842919673
 10
-2.4601877943
 20
-14.1495903882
 10
-2.462349351
 20
-14.1160339824
 10
-2.4649326533
 20
-14.0836245373
 10
-2.4679246696
 20
-14.0523602655
 10
-2.4712911943
 20
-14.0221900402
 10
-2.4750214251
 20
-13.993115806
 10
-2.4791261643
 20
-13.9651356184
 10
-2.4836036132
 20
-13.938192517
 10
-2.4884548217
 20
-13.9122789976
 10
-2.4936787398
 20
-13.8874025643
 10
-2.4992704194
 20
-13.8635287687
 10
-2.5051944175
 20
-13.8406314977
 10
-2.511486177
 20
-13.8187368644
 10
-2.5182470787
 20
-13.7978887604
 10
-2.5255121799
 20
-13.7780793639
 10
-2.5332464234
 20
-13.7593164967
 10
-2.5414460182
 20
-13.7416675159
 10
-2.5501097007
 20
-13.7251548739
 10
-2.5592387345
 20
-13.7097561184
 10
-2.5688331197
 20
-13.6954712493
  0
LWPOLYLINE
  5
356
100
AcDbEntity
  8
IMPORT_IGES
100
AcDbPolyline
 62
7
  6
CONTINUOUS
 90
25
 70
0
 10
-0.9404160574
 20
-14.3350534225
 10
-0.9405552313
 20
-14.2955728388
 10
-0.9410982299
 20
-14.2572831926
 10
-0.9420450531
 20
-14.2201844838
 10
-0.9433940711
 20
-14.1842919673
 10
-0.9451469139
 20
-14.1495903882
 10
-0.9473084706
 20
-14.1160339824
 10
-0.9498917729
 20
-14.0836245373
 10
-0.9528837892
 20
-14.0523602655
 10
-0.9562503139
 20
-14.0221900402
 10
-0.9599805447
 20
-13.993115806
 10
-0.9640852839
 20
-13.9651356184
 10
-0.9685627328
 20
-13.938192517
 10
-0.9734139412
 20
-13.9122789976
 10
-0.9786378594
 20
-13.8874025643
 10
-0.984229539
 20
-13.8635287687
 10
-0.990153537
 20
-13.8406314977
 10
-0.9964452965
 20
-13.8187368644
 10
-1.0032061983
 20
-13.7978887604
 10
-1.0104712995
 20
-13.7780793639
 10
-1.018205543
 20
-13.7593164967
 10
-1.0264051378
 20
-13.7416675159
 10
-1.0350688203
 20
-13.7251548739
 10
-1.0441978541
 20
-13.7097561184
 10
-1.0537922392
 20
-13.6954712493
  0
LWPOLYLINE
  5
357
100
AcDbEntity
  8
IMPORT_IGES
100
AcDbPolyline
 62
7
  6
CONTINUOUS
 90
25
 70
0
 10
-1.7198839143
 20
-14.3350531712
 10
-1.7197540935
 20
-14.3744996046
 10
-1.7192313508
 20
-14.4127608183
 10
-1.7183156862
 20
-14.449836812
 10
-1.7170098984
 20
-14.4857126986
 10
-1.7153111887
 20
-14.5204033652
 10
-1.7132111608
 20
-14.553953474
 10
-1.7106966204
 20
-14.5863612595
 10
-1.7077807618
 20
-14.6176284872
 10
-1.7044947705
 20
-14.6478051146
 10
-1.700849464
 20
-14.676889076
 10
-1.6968340249
 20
-14.7048824372
 10
-1.6924471864
 20
-14.7318413535
 10
-1.6876876968
 20
-14.7577733644
 10
-1.6825568077
 20
-14.7826709304
 10
-1.6770570075
 20
-14.8065675889
 10
-1.6712241072
 20
-14.8294895256
 10
-1.6650222958
 20
-14.8514105548
 10
-1.6583466276
 20
-14.8722856561
 10
-1.6511613965
 20
-14.8921230171
 10
-1.6435023087
 20
-14.9109144504
 10
-1.6353715373
 20
-14.9285903728
 10
-1.6267698066
 20
-14.9451275902
 10
-1.6176963922
 20
-14.9605492967
 10
-1.6081512943
 20
-14.9748554926
  0
LINE
  5
358
100
AcDbEntity
  8
IMPORT_IGES
100
AcDbLine
 62
253
  6
CONTINUOUS
 10
-0.0000022419
 20
-38.6490198172
 11
-0.000002281
 21
-40.5110994386
  0
LINE
  5
359
100
AcDbEntity
  8
IMPORT_IGES
100
AcDbLine
 62
7
  6
CONTINUOUS
 10
0.0976879965
 20
-22.2447786074
 11
0.0976879965
 21
-21.5087966041
  0
LINE
  5
35A
100
AcDbEntity
  8
IMPORT_IGES
100
AcDbLine
 62
7
  6
CONTINUOUS
 10
0.097688
 20
-17.9853824977
 11
0.097688
 21
-17.2494076958
  0
LWPOLYLINE
  5
35B
100
AcDbEntity
  8
IMPORT_IGES
100
AcDbPolyline
 62
7
  6
CONTINUOUS
 90
9
 70
0
 10
-6.877335027
 20
-20.5076030072
 10
-6.8676238367
 20
-20.4732087349
 10
-6.8574112758
 20
-20.4385439333
 10
-6.8466973444
 20
-20.4036086022
 10
-6.835468985
 20
-20.3684010338
 10
-6.823739255
 20
-20.332922936
 10
-6.8115473263
 20
-20.2971794326
 10
-6.7989062562
 20
-20.2611722316
 10
-6.7858029874
 20
-20.2248996251
  0
LWPOLYLINE
  5
35C
100
AcDbEntity
  8
IMPORT_IGES
100
AcDbPolyline
 62
7
  6
CONTINUOUS
 90
10
 70
0
 10
-8.7361371905
 20
-20.3145269049
 10
-8.720417826
 20
-20.2623789049
 10
-8.7067303598
 20
-20.2077873593
 10
-8.6950747918
 20
-20.1507522683
 10
-8.6855537337
 20
-20.0911689639
 10
-8.6780645739
 20
-20.029142114
 10
-8.6722994777
 20
-19.9649857217
 10
-8.6681558335
 20
-19.8988044549
 10
-8.6657362529
 20
-19.8304936458
 10
-8.6650407359
 20
-19.7600532944
  0
LWPOLYLINE
  5
35D
100
AcDbEntity
  8
IMPORT_IGES
100
AcDbPolyline
 62
7
  6
CONTINUOUS
 90
10
 70
0
 10
-12.6648027066
 20
-20.4916365626
 10
-12.6551966251
 20
-20.4766476895
 10
-12.6451914833
 20
-20.4618058912
 10
-12.634787281
 20
-20.4471111677
 10
-12.6239810999
 20
-20.4325542918
 10
-12.6127758583
 20
-20.4181444907
 10
-12.6011803117
 20
-20.403909446
 10
-12.5891973786
 20
-20.3898583849
 10
-12.5768241405
 20
-20.3759820801
 10
-12.5640605974
 20
-20.3622805317
  0
LWPOLYLINE
  5
35E
100
AcDbEntity
  8
0
100
AcDbPolyline
 62
7
  6
CONTINUOUS
 90
8
 70
0
 10
-15.889741183
 20
-6.2960782723
 10
-15.8780680417
 20
-6.2892617371
 10
-15.8666359446
 20
-6.2822426075
 10
-15.8555829305
 20
-6.2751144726
 10
-15.8449969798
 20
-6.2681400053
 10
-15.8350473998
 20
-6.2614104445
 10
-15.8259652153
 20
-6.2548546753
 10
-15.8179502476
 20
-6.248492387
  0
LINE
  5
35F
100
AcDbEntity
  8
0
100
AcDbLine
 62
7
  6
CONTINUOUS
 10
-13.2910855815
 20
-4.683844991
 11
-14.9
 21
-5.6127521636
  0
LINE
  5
360
100
AcDbEntity
  8
0
100
AcDbLine
 62
253
  6
CONTINUOUS
 10
-13.2615998524
 20
-4.7973527625
 11
-14.6314393851
 21
-5.5882299855
  0
LINE
  5
361
100
AcDbEntity
  8
0
100
AcDbLine
 62
253
  6
CONTINUOUS
 10
-14.6314393851
 20
-5.5882299855
 11
-14.847826087
 21
-5.7131609061
  0
LINE
  5
362
100
AcDbEntity
  8
0
100
AcDbLine
 62
7
  6
CONTINUOUS
 10
-15.9130434783
 20
-6.3093581595
 11
-15.889741183
 21
-6.2960782723
  0
LWPOLYLINE
  5
363
100
AcDbEntity
  8
0
100
AcDbPolyline
 62
7
  6
CONTINUOUS
 90
8
 70
0
 10
-16.5124520358
 20
-3.9057165952
 10
-16.5264920201
 20
-3.907996566
 10
-16.5410448276
 20
-3.9109123431
 10
-16.5559060149
 20
-3.9144364166
 10
-16.5709321026
 20
-3.9181892357
 10
-16.5859890006
 20
-3.9220888
 10
-16.6009262786
 20
-3.9263694237
 10
-16.6156144091
 20
-3.9310948787
  0
LINE
  5
364
100
AcDbEntity
  8
0
100
AcDbLine
 62
7
  6
CONTINUOUS
 10
-16.4868644554
 20
-3.9019920691
 11
-16.5124520358
 21
-3.9057165952
  0
LWPOLYLINE
  5
365
100
AcDbEntity
  8
IMPORT_IGES
100
AcDbPolyline
 62
253
  6
CONTINUOUS
 90
37
 70
0
 10
-6.4070019468
 20
-0.1284703521
 10
-6.4614837848
 20
-0.1050664127
 10
-6.515777107
 20
-0.0797956924
 10
-6.5698050955
 20
-0.0526448288
 10
-6.6235630366
 20
-0.023560378
 10
-6.6768880736
 20
0.0074282311
 10
-6.7294903706
 20
0.0402035245
 10
-6.7813385997
 20
0.0747967064
 10
-6.8323978353
 20
0.1112380406
 10
-6.8824242742
 20
0.149393198
 10
-6.9313820225
 20
0.189256933
 10
-6.9792316858
 20
0.2308098239
 10
-7.0257498877
 20
0.2738572255
 10
-7.0708293391
 20
0.318283564
 10
-7.1144753147
 20
0.3640808054
 10
-7.1566456252
 20
0.4112009721
 10
-7.1972772545
 20
0.4595734987
 10
-7.2363278769
 20
0.509151663
 10
-7.2737807972
 20
0.5599280139
 10
-7.3095954109
 20
0.6118677517
 10
-7.3437401648
 20
0.6649269901
 10
-7.3762064965
 20
0.7190884071
 10
-7.4069893114
 20
0.7743431553
 10
-7.436065739
 20
0.8306512124
 10
-7.4633854622
 20
0.8879085328
 10
-7.4889203775
 20
0.9460541438
 10
-7.5126045007
 20
1.0049443913
 10
-7.5343337223
 20
1.0643090484
 10
-7.5540907257
 20
1.1240672393
 10
-7.571878357
 20
1.1841683236
 10
-7.5876586626
 20
1.2443798667
 10
-7.6014617048
 20
1.3046659118
 10
-7.6133174716
 20
1.3649930553
 10
-7.62322519
 20
1.4251442087
 10
-7.6312247475
 20
1.4850478194
 10
-7.6373760884
 20
1.5447685418
 10
-7.6417267011
 20
1.6043029227
  0
LWPOLYLINE
  5
366
100
AcDbEntity
  8
IMPORT_IGES
100
AcDbPolyline
 62
253
  6
CONTINUOUS
 90
16
 70
0
 10
-6.0260945601
 20
0.7961018025
 10
-6.0948481986
 20
0.8276273223
 10
-6.1603342318
 20
0.8636689337
 10
-6.2225526596
 20
0.9042266366
 10
-6.2817971175
 20
0.9495741337
 10
-6.3377739701
 20
0.9994377224
 10
-6.3896023114
 20
1.0529962949
 10
-6.4372213253
 20
1.1103030097
 10
-6.4806918278
 20
1.1713047084
 10
-6.5193153613
 20
1.2350208076
 10
-6.5530230449
 20
1.3014986264
 10
-6.5818837593
 20
1.3706908456
 10
-6.6054056897
 20
1.441474925
 10
-6.6234248976
 20
1.5134766842
 10
-6.6361053214
 20
1.5870703035
 10
-6.6434469612
 20
1.6622557829
  0
LINE
  5
367
100
AcDbEntity
  8
IMPORT_IGES
100
AcDbLine
 62
7
  6
CONTINUOUS
 10
12.8838447854
 20
-13.4222768183
 11
12.974476
 21
-13.5129068087
  0
LWPOLYLINE
  5
368
100
AcDbEntity
  8
IMPORT_IGES
100
AcDbPolyline
 62
7
  6
CONTINUOUS
 90
10
 70
0
 10
-0.4495905014
 20
-14.7819854255
 10
-0.4422715911
 20
-14.8362826254
 10
-0.4312497435
 20
-14.8881741653
 10
-0.4165249583
 20
-14.9376600452
 10
-0.3978514724
 20
-14.9849373438
 10
-0.375475049
 20
-15.0298089823
 10
-0.3501329783
 20
-15.0716837247
 10
-0.3220710236
 20
-15.1103644923
 10
-0.2910434215
 20
-15.1460483637
 10
-0.2570501721
 20
-15.1787353391
  0
LWPOLYLINE
  5
369
100
AcDbEntity
  8
IMPORT_IGES
100
AcDbPolyline
 62
7
  6
CONTINUOUS
 90
10
 70
0
 10
1.0654501384
 20
-14.7819854255
 10
1.0727691296
 20
-14.836282597
 10
1.0837910465
 20
-14.8881741118
 10
1.098515889
 20
-14.9376599698
 10
1.117189419
 20
-14.9849372491
 10
1.1395658747
 20
-15.0298088717
 10
1.1649079704
 20
-15.0716836038
 10
1.1929699444
 20
-15.1103643676
 10
1.2239975585
 20
-15.1460482409
 10
1.2579908127
 20
-15.1787352238
  0
LWPOLYLINE
  5
36A
100
AcDbEntity
  8
IMPORT_IGES
100
AcDbPolyline
 62
7
  6
CONTINUOUS
 90
10
 70
0
 10
2.3423941657
 20
-14.7207968523
 10
2.3408272996
 20
-14.6780242657
 10
2.3368630932
 20
-14.6371255622
 10
2.3305015463
 20
-14.5981007421
 10
2.3215709748
 20
-14.5608172817
 10
2.3102430629
 20
-14.5254077045
 10
2.2970328635
 20
-14.4922695809
 10
2.2821120608
 20
-14.4615354342
 10
2.2653089705
 20
-14.4330727411
 10
2.2466235928
 20
-14.4068815016
  0
LWPOLYLINE
  5
36B
100
AcDbEntity
  8
IMPORT_IGES
100
AcDbPolyline
 62
7
  6
CONTINUOUS
 90
10
 70
0
 10
2.2466237471
 20
-13.845558069
 10
2.2458595714
 20
-13.8171460706
 10
2.2432810745
 20
-13.7887880111
 10
2.2388882564
 20
-13.7604838905
 10
2.2326784961
 20
-13.7321393897
 10
2.2246544145
 20
-13.7038488278
 10
2.2148238748
 20
-13.6758951624
 10
2.2031894979
 20
-13.6483727128
 10
2.1897486629
 20
-13.6211871598
 10
2.1745013698
 20
-13.5943385033
  0
LINE
  5
36C
100
AcDbEntity
  8
IMPORT_IGES
100
AcDbLine
 62
7
  6
CONTINUOUS
 10
1.8
 20
33.7882083975
 11
1.8
 21
33.7508019427
  0
LINE
  5
36D
100
AcDbEntity
  8
IMPORT_IGES
100
AcDbLine
 62
7
  6
CONTINUOUS
 10
1.8
 20
30.3550309369
 11
1.8
 21
30.3183380829
  0
LINE
  5
36E
100
AcDbEntity
  8
IMPORT_IGES
100
AcDbLine
 62
7
  6
CONTINUOUS
 10
1.8
 20
7.7882083975
 11
1.8
 21
7.7508019427
  0
LINE
  5
36F
100
AcDbEntity
  8
IMPORT_IGES
100
AcDbLine
 62
7
  6
CONTINUOUS
 10
1.8
 20
4.3550309369
 11
1.8
 21
4.3183380829
  0
LINE
  5
370
100
AcDbEntity
  8
IMPORT_IGES
100
AcDbLine
 62
7
  6
CONTINUOUS
 10
2.7627216186
 20
-14.0597122367
 11
2.7627216186
 21
-13.8282664056
  0
LINE
  5
371
100
AcDbEntity
  8
IMPORT_IGES
100
AcDbLine
 62
7
  6
CONTINUOUS
 10
3.2415755003
 20
-13.7710682984
 11
3.2415755003
 21
-15.2967534895
  0
LINE
  5
372
100
AcDbEntity
  8
IMPORT_IGES
100
AcDbLine
 62
7
  6
CONTINUOUS
 10
3.4810027573
 20
-15.2967534895
 11
3.4810027573
 21
-13.3387707362
  0
LWPOLYLINE
  5
373
100
AcDbEntity
  8
IMPORT_IGES
100
AcDbPolyline
 62
7
  6
CONTINUOUS
 90
10
 70
0
 10
0.5732949302
 20
-14.7261174385
 10
0.5718988356
 20
-14.7637088711
 10
0.5675152807
 20
-14.800106506
 10
0.5601442656
 20
-14.835310343
 10
0.5496601142
 20
-14.869507214
 10
0.5361885024
 20
-14.9025102872
 10
0.5201064586
 20
-14.9337590677
 10
0.5015396588
 20
-14.963066724
 10
0.480362427
 20
-14.9906200877
 10
0.456574763
 20
-15.0164191587
  0
LWPOLYLINE
  5
374
100
AcDbEntity
  8
IMPORT_IGES
100
AcDbPolyline
 62
7
  6
CONTINUOUS
 90
10
 70
0
 10
2.0883355781
 20
-14.7261174385
 10
2.0869394797
 20
-14.7637090715
 10
2.082555929
 20
-14.8001068546
 10
2.0751849259
 20
-14.8353107878
 10
2.0647007866
 20
-14.8695077002
 10
2.051229195
 20
-14.9025107627
 10
2.0351472029
 20
-14.9337594885
 10
2.0165804944
 20
-14.9630670486
 10
1.9954033854
 20
-14.990620272
 10
1.9716158759
 20
-15.0164191587
  0
LINE
  5
375
100
AcDbEntity
  8
IMPORT_IGES
100
AcDbLine
 62
7
  6
CONTINUOUS
 10
0.0226125831
 20
-14.3736265536
 11
0.0492155575
 21
-14.1634639891
  0
LINE
  5
376
100
AcDbEntity
  8
IMPORT_IGES
100
AcDbLine
 62
7
  6
CONTINUOUS
 10
1.5376535011
 20
-14.3736265536
 11
1.564256438
 21
-14.1634639891
  0
LWPOLYLINE
  5
377
100
AcDbEntity
  8
IMPORT_IGES
100
AcDbPolyline
 62
7
  6
CONTINUOUS
 90
10
 70
0
 10
-0.1862208155
 20
-13.8867944415
 10
-0.1796976555
 20
-13.8488501477
 10
-0.1714086604
 20
-13.8129554124
 10
-0.1613538303
 20
-13.7791102356
 10
-0.1494264935
 20
-13.747166028
 10
-0.1357333216
 20
-13.7172713788
 10
-0.1205943301
 20
-13.6898720565
 10
-0.1041161909
 20
-13.6651166505
 10
-0.0861922321
 20
-13.6428565712
 10
-0.0668224538
 20
-13.6230918187
  0
LWPOLYLINE
  5
378
100
AcDbEntity
  8
IMPORT_IGES
100
AcDbPolyline
 62
7
  6
CONTINUOUS
 90
10
 70
0
 10
-2.2804755047
 20
-14.8895269223
 10
-2.2647561584
 20
-14.8373789151
 10
-2.2510687063
 20
-14.782787364
 10
-2.2394131485
 20
-14.7257522689
 10
-2.2298920953
 20
-14.6661689624
 10
-2.2224029364
 20
-14.6041421121
 10
-2.2166378408
 20
-14.5399857199
 10
-2.212494198
 20
-14.4738044532
 10
-2.2100746185
 20
-14.4054936447
 10
-2.2093791023
 20
-14.3350532944
  0
LWPOLYLINE
  5
379
100
AcDbEntity
  8
IMPORT_IGES
100
AcDbPolyline
 62
7
  6
CONTINUOUS
 90
10
 70
0
 10
-0.7654345721
 20
-14.8895269399
 10
-0.74971524
 20
-14.8373789208
 10
-0.7360277998
 20
-14.7827873605
 10
-0.7243722515
 20
-14.7257522588
 10
-0.7148512049
 20
-14.6661689488
 10
-0.7073620502
 20
-14.6041420975
 10
-0.7015969576
 20
-14.5399857063
 10
-0.697453317
 20
-14.4738044423
 10
-0.6950337384
 20
-14.4054936383
 10
-0.6943382218
 20
-14.3350532944
  0
LWPOLYLINE
  5
37A
100
AcDbEntity
  8
IMPORT_IGES
100
AcDbPolyline
 62
7
  6
CONTINUOUS
 90
10
 70
0
 10
-3.4105046469
 20
-13.7790505644
 10
-3.4263431022
 20
-13.8311937266
 10
-3.4400822491
 20
-13.8858288689
 10
-3.4517220876
 20
-13.9429559912
 10
-3.4611319889
 20
-14.002686094
 10
-3.4684425818
 20
-14.0649081768
 10
-3.474045753
 20
-14.1292892385
 10
-3.4780721314
 20
-14.1957182786
 10
-3.4803910881
 20
-14.2643062975
 10
-3.481002623
 20
-14.3350532953
  0
LWPOLYLINE
  5
37B
100
AcDbEntity
  8
IMPORT_IGES
100
AcDbPolyline
 62
7
  6
CONTINUOUS
 90
10
 70
0
 10
-1.8954637459
 20
-13.7790505467
 10
-1.9113022009
 20
-13.8311937141
 10
-1.925041349
 20
-13.8858288606
 10
-1.93668119
 20
-13.9429559862
 10
-1.946091096
 20
-14.0026860913
 10
-1.953401695
 20
-14.0649081755
 10
-1.9590048715
 20
-14.129289238
 10
-1.9630312535
 20
-14.1957182788
 10
-1.965350213
 20
-14.2643062979
 10
-1.9659617499
 20
-14.3350532954
  0
LINE
  5
37C
100
AcDbEntity
  8
IMPORT_IGES
100
AcDbLine
 62
7
  6
CONTINUOUS
 10
-6.2454982019
 20
-18.7717520148
 11
-6.7858029874
 21
-20.2248996251
  0
LINE
  5
37D
100
AcDbEntity
  8
IMPORT_IGES
100
AcDbLine
 62
7
  6
CONTINUOUS
 10
-6.7456346005
 20
-20.7217521901
 11
-5.982127891
 21
-18.7717525021
  0
LWPOLYLINE
  5
37E
100
AcDbEntity
  8
IMPORT_IGES
100
AcDbPolyline
 62
7
  6
CONTINUOUS
 90
10
 70
0
 10
-11.1843451872
 20
-19.8292210902
 10
-11.1728696156
 20
-19.8117912166
 10
-11.1601846879
 20
-19.7948989208
 10
-11.1462904041
 20
-19.7785442028
 10
-11.131162338
 20
-19.7626693654
 10
-11.1148249158
 20
-19.7473321059
 10
-11.0973514163
 20
-19.7327055155
 10
-11.0787662658
 20
-19.7188472915
 10
-11.059045038
 20
-19.7056997366
 10
-11.038187733
 20
-19.6932628508
  0
LWPOLYLINE
  5
37F
100
AcDbEntity
  8
IMPORT_IGES
100
AcDbPolyline
 62
7
  6
CONTINUOUS
 90
25
 70
0
 10
-9.566490446
 20
-19.1019023876
 10
-9.5764724184
 20
-19.1169297114
 10
-9.5860493593
 20
-19.1330418834
 10
-9.5952212686
 20
-19.1502389037
 10
-9.6039985032
 20
-19.1685301717
 10
-9.6123707063
 20
-19.1879062881
 10
-9.6203068069
 20
-19.2083390544
 10
-9.6277861825
 20
-19.2298270205
 10
-9.6348294558
 20
-19.2523716367
 10
-9.6414674236
 20
-19.2759490559
 10
-9.6477148757
 20
-19.3005404573
 10
-9.6535570225
 20
-19.3261646617
 10
-9.658980292
 20
-19.3528542839
 10
-9.6639785901
 20
-19.3806073617
 10
-9.6685580109
 20
-19.4094258572
 10
-9.6727232659
 20
-19.4393482713
 10
-9.6764881085
 20
-19.4703722861
 10
-9.6798387853
 20
-19.5025002195
 10
-9.6827387466
 20
-19.5357775269
 10
-9.6851763179
 20
-19.5702051366
 10
-9.6871631739
 20
-19.6057821203
 10
-9.6886977887
 20
-19.6425511486
 10
-9.6897796539
 20
-19.6805264449
 10
-9.6904092779
 20
-19.7196937857
 10
-9.6905866608
 20
-19.7600531712
  0
LWPOLYLINE
  5
380
100
AcDbEntity
  8
IMPORT_IGES
100
AcDbPolyline
 62
7
  6
CONTINUOUS
 90
9
 70
0
 10
-12.0688949803
 20
-19.5884640104
 10
-12.1054382275
 20
-19.6338930571
 10
-12.1449920547
 20
-19.6792718373
 10
-12.1875564618
 20
-19.7246003512
 10
-12.2334109725
 20
-19.7696863375
 10
-12.2822760631
 20
-19.8147220574
 10
-12.3333131628
 20
-19.8602842946
 10
-12.386242748
 20
-19.9065653106
 10
-12.4413443423
 20
-19.9533728439
  0
LWPOLYLINE
  5
381
100
AcDbEntity
  8
IMPORT_IGES
100
AcDbPolyline
 62
7
  6
CONTINUOUS
 90
10
 70
0
 10
-12.8124488427
 20
-20.2961037996
 10
-12.8362342446
 20
-20.3252266101
 10
-12.8584706114
 20
-20.3543024405
 10
-12.8791579432
 20
-20.3833312907
 10
-12.898307168
 20
-20.4123666076
 10
-12.9159073577
 20
-20.4413549444
 10
-12.9319257279
 20
-20.4701359607
 10
-12.9463513503
 20
-20.4986562095
 10
-12.9591951532
 20
-20.5269691378
 10
-12.9704571365
 20
-20.5550747456
  0
LWPOLYLINE
  5
382
100
AcDbEntity
  8
IMPORT_IGES
100
AcDbPolyline
 62
253
  6
CONTINUOUS
 90
19
 70
0
 10
6.7521105121
 20
-0.6844392507
 10
6.8940297871
 20
-0.6195245045
 10
7.0306248087
 20
-0.5466485444
 10
7.1618955769
 20
-0.4658113705
 10
7.2882929278
 20
-0.3766377757
 10
7.4093660253
 20
-0.279502967
 10
7.5237623612
 20
-0.1755325655
 10
7.6314024606
 20
-0.0646624898
 10
7.7323657984
 20
0.0530431787
 10
7.8255382913
 20
0.1762665756
 10
7.9108397932
 20
0.3050644916
 10
7.9883504501
 20
0.439380136
 10
8.0571966176
 20
0.5777252715
 10
8.1172897961
 20
0.7201426244
 10
8.168718485
 20
0.8665894685
 10
8.2108745383
 20
1.0154493881
 10
8.2435552407
 20
1.166183578
 10
8.2669633074
 20
1.3193308434
 10
8.2810987385
 20
1.4748911843
  0
LWPOLYLINE
  5
383
100
AcDbEntity
  8
IMPORT_IGES
100
AcDbPolyline
 62
253
  6
CONTINUOUS
 90
37
 70
0
 10
6.5586017472
 20
-0.2234158937
 10
6.6132093851
 20
-0.1995868129
 10
6.6673123952
 20
-0.174057647
 10
6.7208886874
 20
-0.1467900393
 10
6.7739545166
 20
-0.1177234306
 10
6.8264476389
 20
-0.0868382634
 10
6.8782345961
 20
-0.0541675245
 10
6.9292976247
 20
-0.0196831893
 10
6.97962264
 20
0.0166454038
 10
7.0290944953
 20
0.0547690822
 10
7.0776884158
 20
0.0946940537
 10
7.1252944919
 20
0.1363496921
 10
7.1716780855
 20
0.1795478092
 10
7.2166997226
 20
0.2241757219
 10
7.2602218301
 20
0.2701225731
 10
7.3020985153
 20
0.3172506324
 10
7.3423477692
 20
0.3655738223
 10
7.3810092844
 20
0.4151301662
 10
7.4180663653
 20
0.4658807555
 10
7.453510734
 20
0.5177830534
 10
7.487333206
 20
0.570795889
 10
7.519516457
 20
0.6248816161
 10
7.5500065255
 20
0.6799526584
 10
7.5787418753
 20
0.73590728
 10
7.6057018867
 20
0.7927087242
 10
7.6308882529
 20
0.8503684137
 10
7.6542360896
 20
0.9087511999
 10
7.6756519239
 20
0.9676084428
 10
7.6951364291
 20
1.0269027794
 10
7.7126957874
 20
1.0865992292
 10
7.7282858933
 20
1.1464425252
 10
7.7419431863
 20
1.2064098284
 10
7.7537041814
 20
1.2664827245
 10
7.7635544468
 20
1.3263740573
 10
7.7715183753
 20
1.3859346458
 10
7.7776448994
 20
1.4451777148
 10
7.7819697318
 20
1.5040413226
  0
LINE
  5
384
100
AcDbEntity
  8
IMPORT_IGES
100
AcDbLine
 62
253
  6
CONTINUOUS
 10
-8.2810939589
 20
1.4747952819
 11
-7.781969096
 21
1.5040413599
  0
LINE
  5
385
100
AcDbEntity
  8
IMPORT_IGES
100
AcDbLine
 62
253
  6
CONTINUOUS
 10
-7.6417266994
 20
1.6043029228
 11
-6.6434590971
 21
1.6624891912
  0
LINE
  5
386
100
AcDbEntity
  8
IMPORT_IGES
100
AcDbLine
 62
253
  6
CONTINUOUS
 10
-23.2934535196
 20
1.7325902855
 11
-20.9544458309
 21
1.7325902854
  0
LINE
  5
387
100
AcDbEntity
  8
IMPORT_IGES
100
AcDbLine
 62
253
  6
CONTINUOUS
 10
20.954445828
 20
1.7325902854
 11
23.2934535196
 21
1.7325902855
  0
LINE
  5
388
100
AcDbEntity
  8
IMPORT_IGES
100
AcDbLine
 62
253
  6
CONTINUOUS
 10
6.6434590971
 20
1.6624891912
 11
7.6417266994
 21
1.6043029228
  0
LINE
  5
389
100
AcDbEntity
  8
IMPORT_IGES
100
AcDbLine
 62
253
  6
CONTINUOUS
 10
7.781969096
 20
1.5040413599
 11
8.2810939589
 21
1.4747952819
  0
LWPOLYLINE
  5
38A
100
AcDbEntity
  8
0
100
AcDbPolyline
 62
253
  6
CONTINUOUS
 90
13
 70
0
 10
15.7608695652
 20
-4.1317232122
 10
15.7687804004
 20
-4.1358207596
 10
15.7768851739
 20
-4.1391865964
 10
15.7851978478
 20
-4.1418204781
 10
15.7938096091
 20
-4.1437264822
 10
15.802651917
 20
-4.1448984783
 10
15.8114949519
 20
-4.1453124584
 10
15.8203334255
 20
-4.1449261601
 10
15.8291804242
 20
-4.143758293
 10
15.8378274264
 20
-4.141864345
 10
15.8462016152
 20
-4.1392499393
 10
15.8543677021
 20
-4.1358751709
 10
15.8623188406
 20
-4.1317232122
  0
LINE
  5
38B
100
AcDbEntity
  8
0
100
AcDbLine
 62
7
  6
CONTINUOUS
 10
14.1
 20
-4.2271115176
 11
13.550930643
 21
-3.9101061765
  0
LINE
  5
38C
100
AcDbEntity
  8
0
100
AcDbLine
 62
253
  6
CONTINUOUS
 10
14.0362318841
 20
-4.3074385115
 11
13.3843855909
 21
-3.9310948787
  0
LINE
  5
38D
100
AcDbEntity
  8
IMPORT_IGES
100
AcDbLine
 62
253
  6
CONTINUOUS
 10
6.4070019429
 20
-0.1284703518
 11
6.5586015019
 21
-0.2234153059
  0
LINE
  5
38E
100
AcDbEntity
  8
IMPORT_IGES
100
AcDbLine
 62
7
  6
CONTINUOUS
 10
4.0041329339
 20
-20.1146866541
 11
4.0041329339
 21
-19.3794926231
  0
LINE
  5
38F
100
AcDbEntity
  8
IMPORT_IGES
100
AcDbLine
 62
7
  6
CONTINUOUS
 10
4.3962370327
 20
-22.2447787127
 11
4.3962370327
 21
-21.5088508827
  0
LINE
  5
390
100
AcDbEntity
  8
IMPORT_IGES
100
AcDbLine
 62
7
  6
CONTINUOUS
 10
4.396237
 20
-17.9853354611
 11
4.396237
 21
-17.2494076335
  0
LWPOLYLINE
  5
391
100
AcDbEntity
  8
IMPORT_IGES
100
AcDbPolyline
 62
253
  6
CONTINUOUS
 90
16
 70
0
 10
6.6434594139
 20
1.6624925733
 10
6.6361077752
 20
1.5872146687
 10
6.6234205454
 20
1.5135505626
 10
6.6053977244
 20
1.4415002548
 10
6.581876443
 20
1.3706966975
 10
6.5530195705
 20
1.3015069386
 10
6.5193157144
 20
1.2350321223
 10
6.4806947957
 20
1.1713125158
 10
6.4372268934
 20
1.1103078518
 10
6.3896108524
 20
1.0529984735
 10
6.3377808206
 20
0.9994347916
 10
6.28180265
 20
0.9495663953
 10
6.2225727416
 20
0.9042223953
 10
6.1603898955
 20
0.863679162
 10
6.0949553115
 20
0.8276603249
 10
6.0262689896
 20
0.7961658843
  0
LWPOLYLINE
  5
392
100
AcDbEntity
  8
IMPORT_IGES
100
AcDbPolyline
 62
7
  6
CONTINUOUS
 90
10
 70
0
 10
1.3288200134
 20
-13.8867944415
 10
1.3353432359
 20
-13.8488501553
 10
1.3436322782
 20
-13.8129554213
 10
1.3536871406
 20
-13.7791102397
 10
1.3656144889
 20
-13.7471660193
 10
1.3793076572
 20
-13.7172713513
 10
1.3944466472
 20
-13.6898720084
 10
1.4109247927
 20
-13.6651165815
 10
1.4288487598
 20
-13.6428564798
 10
1.4482185486
 20
-13.6230917032
  0
LWPOLYLINE
  5
393
100
AcDbEntity
  8
IMPORT_IGES
100
AcDbPolyline
 62
7
  6
CONTINUOUS
 90
25
 70
0
 10
-3.1108286303
 20
-13.6769024132
 10
-3.1208105899
 20
-13.6919297335
 10
-3.13038752
 20
-13.7080419008
 10
-3.1395594205
 20
-13.7252389152
 10
-3.1483366479
 20
-13.7435301757
 10
-3.1567088458
 20
-13.7629062833
 10
-3.1646449447
 20
-13.7833390408
 10
-3.172124324
 20
-13.8048269973
 10
-3.1791676042
 20
-13.8273716036
 10
-3.1858055782
 20
-13.8509490156
 10
-3.1920530337
 20
-13.8755404135
 10
-3.1978951828
 20
-13.901164617
 10
-3.2033184551
 20
-13.9278542411
 10
-3.2083167566
 20
-13.9556073237
 10
-3.2128961813
 20
-13.9844258269
 10
-3.21706144
 20
-14.0143482519
 10
-3.2208262865
 20
-14.0453722804
 10
-3.2241769672
 20
-14.0775002308
 10
-3.227076932
 20
-14.110777559
 10
-3.2295145063
 20
-14.1452051935
 10
-3.2315013649
 20
-14.1807822058
 10
-3.2330359814
 20
-14.2175512674
 10
-3.2341178473
 20
-14.2555266021
 10
-3.2347474711
 20
-14.2946939862
 10
-3.2349248528
 20
-14.3350534196
  0
LWPOLYLINE
  5
394
100
AcDbEntity
  8
IMPORT_IGES
100
AcDbPolyline
 62
7
  6
CONTINUOUS
 90
25
 70
0
 10
-1.5957877921
 20
-13.6769025211
 10
-1.6057697444
 20
-13.6919298392
 10
-1.6153466674
 20
-13.7080420034
 10
-1.6245185611
 20
-13.7252390136
 10
-1.633295782
 20
-13.7435302689
 10
-1.6416679736
 20
-13.7629063702
 10
-1.6496040665
 20
-13.7833391204
 10
-1.6570834399
 20
-13.8048270686
 10
-1.6641267146
 20
-13.8273716658
 10
-1.6707646831
 20
-13.8509490677
 10
-1.6770121329
 20
-13.8755404546
 10
-1.6828542765
 20
-13.9011646461
 10
-1.6882775435
 20
-13.9278542571
 10
-1.6932758398
 20
-13.9556073255
 10
-1.6978552596
 20
-13.9844258134
 10
-1.7020205138
 20
-14.0143482217
 10
-1.7057853562
 20
-14.0453722323
 10
-1.7091360331
 20
-14.0775001634
 10
-1.7120359949
 20
-14.1107774708
 10
-1.7144735669
 20
-14.1452050828
 10
-1.7164604237
 20
-14.1807820711
 10
-1.7179950395
 20
-14.217551107
 10
-1.7190769055
 20
-14.2555264142
 10
-1.7197065304
 20
-14.2946937689
 10
-1.7198839143
 20
-14.3350531712
  0
LWPOLYLINE
  5
395
100
AcDbEntity
  8
IMPORT_IGES
100
AcDbPolyline
 62
7
  6
CONTINUOUS
 90
28
 70
0
 10
-9.0241815323
 20
-20.398525314
 10
-9.0157172864
 20
-20.3859027901
 10
-9.0076042766
 20
-20.372399358
 10
-8.9998425029
 20
-20.3580150177
 10
-8.9924225205
 20
-20.3427324882
 10
-8.9853537743
 20
-20.3265690505
 10
-8.9786645984
 20
-20.3095765475
 10
-8.9723909454
 20
-20.2917621075
 10
-8.9664968626
 20
-20.2731186022
 10
-8.9609028272
 20
-20.2536764895
 10
-8.9555842599
 20
-20.2334468447
 10
-8.95056574
 20
-20.2124185927
 10
-8.9458414819
 20
-20.1905889651
 10
-8.9414099879
 20
-20.1679701014
 10
-8.9372727558
 20
-20.1445498622
 10
-8.9334284935
 20
-20.1202890608
 10
-8.9298742466
 20
-20.0951878196
 10
-8.9266129694
 20
-20.0692460162
 10
-8.9236522334
 20
-20.0424240971
 10
-8.9209868256
 20
-20.0147201979
 10
-8.9186219589
 20
-19.9861361829
 10
-8.9165808439
 20
-19.956638092
 10
-8.9148734689
 20
-19.9262269239
 10
-8.9134898455
 20
-19.8949016799
 10
-8.9124232195
 20
-19.8626254033
 10
-8.9116713394
 20
-19.8293857755
 10
-8.9112364568
 20
-19.7951951152
 10
-8.9111185715
 20
-19.7600534225
  0
LWPOLYLINE
  5
396
100
AcDbEntity
  8
IMPORT_IGES
100
AcDbPolyline
 62
7
  6
CONTINUOUS
 90
28
 70
0
 10
-2.5685196832
 20
-14.9735253382
 10
-2.5600554596
 20
-14.9609028376
 10
-2.5519424705
 20
-14.9473994293
 10
-2.544180716
 20
-14.9330151134
 10
-2.5367607522
 20
-14.917732609
 10
-2.5296920229
 20
-14.9015691969
 10
-2.5230028595
 20
-14.8845767195
 10
-2.5167292119
 20
-14.8667623058
 10
-2.5108351302
 20
-14.8481188267
 10
-2.5052410965
 20
-14.8286767377
 10
-2.4999225328
 20
-14.8084471136
 10
-2.4949040172
 20
-14.7874188796
 10
-2.4901797651
 20
-14.7655892656
 10
-2.48574828
 20
-14.7429704104
 10
-2.4816110586
 20
-14.7195501753
 10
-2.4777668066
 20
-14.6952893744
 10
-2.4742125691
 20
-14.6701881304
 10
-2.4709513011
 20
-14.6442463207
 10
-2.4679905731
 20
-14.6174243916
 10
-2.4653251715
 20
-14.5897204789
 10
-2.4629603099
 20
-14.5611364467
 10
-2.4609191992
 20
-14.5316383339
 10
-2.4592118277
 20
-14.5012271391
 10
-2.4578282072
 20
-14.4699018636
 10
-2.4567615833
 20
-14.43762555
 10
-2.4560097048
 20
-14.404385879
 10
-2.455574823
 20
-14.3701951699
 10
-2.4554569378
 20
-14.3350534225
  0
LWPOLYLINE
  5
397
100
AcDbEntity
  8
IMPORT_IGES
100
AcDbPolyline
 62
7
  6
CONTINUOUS
 90
13
 70
0
 10
-9.566490446
 20
-19.1019023876
 10
-9.5505613848
 20
-19.080334603
 10
-9.5334052665
 20
-19.06040903
 10
-9.515022091
 20
-19.0421256684
 10
-9.4953434252
 20
-19.025348081
 10
-9.4744377023
 20
-19.010212705
 10
-9.4525102213
 20
-18.997128853
 10
-9.4294955647
 20
-18.9862538196
 10
-9.4054591501
 20
-18.9774303102
 10
-9.3808025294
 20
-18.9705957525
 10
-9.3556595533
 20
-18.9657292892
 10
-9.3298963712
 20
-18.9628517777
 10
-9.303512983
 20
-18.961963218
  0
LWPOLYLINE
  5
398
100
AcDbEntity
  8
IMPORT_IGES
100
AcDbPolyline
 62
7
  6
CONTINUOUS
 90
13
 70
0
 10
-3.1108286303
 20
-13.6769024132
 10
-3.0948995914
 20
-13.6553346721
 10
-3.0777434957
 20
-13.6354091281
 10
-3.059360343
 20
-13.6171257813
 10
-3.0396817033
 20
-13.6003481911
 10
-3.0187760067
 20
-13.5852127981
 10
-2.9968485434
 20
-13.572128924
 10
-2.9738338938
 20
-13.5612538613
 10
-2.9497974775
 20
-13.5524303176
 10
-2.9251408427
 20
-13.545595737
 10
-2.8999978387
 20
-13.5407292675
 10
-2.8742346162
 20
-13.5378517612
 10
-2.8478511751
 20
-13.536963218
  0
LWPOLYLINE
  5
399
100
AcDbEntity
  8
IMPORT_IGES
100
AcDbPolyline
 62
7
  6
CONTINUOUS
 90
13
 70
0
 10
-1.5957877921
 20
-13.6769025211
 10
-1.5798587482
 20
-13.6553347637
 10
-1.5627026466
 20
-13.6354092046
 10
-1.5443194873
 20
-13.6171258438
 10
-1.5246408402
 20
-13.6003482406
 10
-1.5037351353
 20
-13.5852128358
 10
-1.4818076633
 20
-13.5721289514
 10
-1.4587930047
 20
-13.5612538804
 10
-1.4347565789
 20
-13.55243033
 10
-1.4100999344
 20
-13.5455957441
 10
-1.3849569205
 20
-13.5407292708
 10
-1.3591936879
 20
-13.5378517621
 10
-1.3328102365
 20
-13.536963218
  0
LWPOLYLINE
  5
39A
100
AcDbEntity
  8
IMPORT_IGES
100
AcDbPolyline
 62
7
  6
CONTINUOUS
 90
10
 70
0
 10
-10.3125710306
 20
-20.5186589807
 10
-10.281366653
 20
-20.4767151398
 10
-10.2535641836
 20
-20.4323860498
 10
-10.2291636222
 20
-20.3856717108
 10
-10.2079946337
 20
-20.3363731691
 10
-10.1902275533
 20
-20.2846893783
 10
-10.176373387
 20
-20.2312171995
 10
-10.1666024701
 20
-20.1761555864
 10
-10.1607444673
 20
-20.1193055853
 10
-10.1587993786
 20
-20.0606671961
  0
LWPOLYLINE
  5
39B
100
AcDbEntity
  8
IMPORT_IGES
100
AcDbPolyline
 62
7
  6
CONTINUOUS
 90
10
 70
0
 10
-11.9182580595
 20
-19.7736516692
 10
-11.894913414
 20
-19.7469265537
 10
-11.8729416237
 20
-19.7202403329
 10
-11.8523426887
 20
-19.6935930069
 10
-11.8330739487
 20
-19.6669536817
 10
-11.815178064
 20
-19.6403532513
 10
-11.7987830152
 20
-19.613884397
 10
-11.7839314626
 20
-19.5875780127
 10
-11.7705807459
 20
-19.5614032046
 10
-11.7587308652
 20
-19.5353599727
  0
LWPOLYLINE
  5
39C
100
AcDbEntity
  8
IMPORT_IGES
100
AcDbPolyline
 62
7
  6
CONTINUOUS
 90
6
 70
0
 10
-12.5640605974
 20
-20.3622805317
 10
-12.5370332754
 20
-20.3360786286
 10
-12.5090170365
 20
-20.3096432474
 10
-12.4800118807
 20
-20.282974388
 10
-12.4499468021
 20
-20.2561325252
 10
-12.4188928066
 20
-20.2290571841
  0
LWPOLYLINE
  5
39D
100
AcDbEntity
  8
IMPORT_IGES
100
AcDbPolyline
 62
7
  6
CONTINUOUS
 90
13
 70
0
 10
-12.7621901978
 20
-18.9084273715
 10
-12.7873926303
 20
-18.9315924781
 10
-12.8113026694
 20
-18.9575193748
 10
-12.8339203153
 20
-18.9862080617
 10
-12.8556584011
 20
-19.0183210946
 10
-12.8761040936
 20
-19.0531959176
 10
-12.8940188935
 20
-19.0888448635
 10
-12.9087591287
 20
-19.1241337188
 10
-12.9209684713
 20
-19.1601966969
 10
-12.9313394384
 20
-19.198448771
 10
-12.9401028687
 20
-19.2393615987
 10
-12.9470279235
 20
-19.2824635223
 10
-12.9521146025
 20
-19.3277545418
  0
LWPOLYLINE
  5
39E
100
AcDbEntity
  8
IMPORT_IGES
100
AcDbPolyline
 62
7
  6
CONTINUOUS
 90
10
 70
0
 10
-12.6009549864
 20
-19.0657149646
 10
-12.5774630637
 20
-19.0442247133
 10
-12.5520190884
 20
-19.0251579475
 10
-12.5246230604
 20
-19.0085146671
 10
-12.495088686
 20
-18.9942054264
 10
-12.4636022588
 20
-18.9823196711
 10
-12.4307226603
 20
-18.9731257388
 10
-12.3966361842
 20
-18.9667130755
 10
-12.3611565367
 20
-18.9629922352
 10
-12.3242837178
 20
-18.961963218
  0
LINE
  5
39F
100
AcDbEntity
  8
IMPORT_IGES
100
AcDbLine
 62
253
  6
CONTINUOUS
 10
-23.3
 20
6.0532732402
 11
-23.2018027939
 21
6.0532732402
  0
LINE
  5
3A0
100
AcDbEntity
  8
IMPORT_IGES
100
AcDbLine
 62
253
  6
CONTINUOUS
 10
23.2018027939
 20
6.0532732402
 11
23.3
 21
6.0532732402
  0
LINE
  5
3A1
100
AcDbEntity
  8
0
100
AcDbLine
 62
7
  6
CONTINUOUS
 10
14.1364341402
 20
-3.3243863475
 11
15.7
 21
-4.2271115176
  0
LINE
  5
3A2
100
AcDbEntity
  8
0
100
AcDbLine
 62
253
  6
CONTINUOUS
 10
15.5976625073
 20
-4.0374955734
 11
15.7319885952
 21
-4.1149158788
  0
LINE
  5
3A3
100
AcDbEntity
  8
0
100
AcDbLine
 62
253
  6
CONTINUOUS
 10
14.1032432503
 20
-3.1746922131
 11
15.5976625073
 21
-4.0374955734
  0
LINE
  5
3A4
100
AcDbEntity
  8
0
100
AcDbLine
 62
253
  6
CONTINUOUS
 10
15.7319885952
 20
-4.1149158788
 11
15.7608695652
 21
-4.1317232122
  0
LWPOLYLINE
  5
3A5
100
AcDbEntity
  8
0
100
AcDbPolyline
 62
253
  6
CONTINUOUS
 90
13
 70
0
 10
16.7903288256
 20
-4.7467267595
 10
16.7808822864
 20
-4.7407191761
 10
16.7712282109
 20
-4.7347888536
 10
16.7614908329
 20
-4.729012114
 10
16.7517954578
 20
-4.7234633033
 10
16.74226685
 20
-4.7182138352
 10
16.7330276275
 20
-4.7133312718
 10
16.7241966837
 20
-4.7088784542
 10
16.7158876577
 20
-4.7049126935
 10
16.7082074718
 20
-4.7014850337
 10
16.7012549555
 20
-4.6986395945
 10
16.6951195739
 20
-4.6964130032
 10
16.6898802761
 20
-4.6948339239
  0
LWPOLYLINE
  5
3A6
100
AcDbEntity
  8
0
100
AcDbPolyline
 62
7
  6
CONTINUOUS
 90
10
 70
0
 10
14.1364341402
 20
-3.3243863475
 10
14.1311759849
 20
-3.321027506
 10
14.1264472134
 20
-3.3174730444
 10
14.1222513947
 20
-3.3137172043
 10
14.1185945199
 20
-3.3097260575
 10
14.1154782276
 20
-3.3055239038
 10
14.1128990188
 20
-3.3011928625
 10
14.1108575521
 20
-3.2967578828
 10
14.1093594455
 20
-3.2921871626
 10
14.1084079401
 20
-3.2874782528
  0
LINE
  5
3A7
100
AcDbEntity
  8
IMPORT_IGES
100
AcDbLine
 62
253
  6
CONTINUOUS
 10
7.7819690967
 20
1.5040413733
 11
7.641726699
 21
1.6043029154
  0
LINE
  5
3A8
100
AcDbEntity
  8
IMPORT_IGES
100
AcDbLine
 62
253
  6
CONTINUOUS
 10
6.7518844652
 20
-0.6845255508
 11
6.558601501
 21
-0.2234153063
  0
LINE
  5
3A9
100
AcDbEntity
  8
IMPORT_IGES
100
AcDbLine
 62
253
  6
CONTINUOUS
 10
6.4070019462
 20
-0.1284703505
 11
6.0260967205
 21
0.7961025545
  0
LINE
  5
3AA
100
AcDbEntity
  8
IMPORT_IGES
100
AcDbLine
 62
253
  6
CONTINUOUS
 10
-2.9894920941
 20
39.3834844106
 11
-3.0775928719
 21
39.875642124
  0
LINE
  5
3AB
100
AcDbEntity
  8
IMPORT_IGES
100
AcDbLine
 62
7
  6
CONTINUOUS
 10
8.5496371612
 20
-14.0109769936
 11
8.5302107036
 21
-13.7889459665
  0
LINE
  5
3AC
100
AcDbEntity
  8
IMPORT_IGES
100
AcDbLine
 62
7
  6
CONTINUOUS
 10
8.8655458142
 20
-17.6218396329
 11
8.9505198142
 21
-18.5930906329
  0
LINE
  5
3AD
100
AcDbEntity
  8
IMPORT_IGES
100
AcDbLine
 62
7
  6
CONTINUOUS
 10
8.572063831
 20
-14.2673238245
 11
8.6306318142
 21
-14.9367556329
  0
LINE
  5
3AE
100
AcDbEntity
  8
IMPORT_IGES
100
AcDbLine
 62
7
  6
CONTINUOUS
 10
8.6480098142
 20
-15.1353946329
 11
8.8509638142
 21
-17.4551606329
  0
LINE
  5
3AF
100
AcDbEntity
  8
IMPORT_IGES
100
AcDbLine
 62
7
  6
CONTINUOUS
 10
8.5981710535
 20
-13.8304214361
 11
8.613968268
 21
-14.0109769936
  0
LINE
  5
3B0
100
AcDbEntity
  8
IMPORT_IGES
100
AcDbLine
 62
7
  6
CONTINUOUS
 10
8.7011298165
 20
-15.0072500046
 11
8.6363935843
 21
-14.2673216696
  0
LINE
  5
3B1
100
AcDbEntity
  8
IMPORT_IGES
100
AcDbLine
 62
7
  6
CONTINUOUS
 10
9.0092541183
 20
-18.529128823
 11
8.9247003198
 21
-17.5626836653
  0
LINE
  5
3B2
100
AcDbEntity
  8
IMPORT_IGES
100
AcDbLine
 62
7
  6
CONTINUOUS
 10
8.7185082957
 20
-15.2058899339
 11
8.9101186022
 21
-17.3960030015
  0
LWPOLYLINE
  5
3B3
100
AcDbEntity
  8
IMPORT_IGES
100
AcDbPolyline
 62
7
  6
CONTINUOUS
 90
61
 70
0
 10
10.640854
 20
-18.5610458087
 10
10.6415672172
 20
-18.580561341
 10
10.6432537636
 20
-18.5994957356
 10
10.6459136393
 20
-18.6178489926
 10
10.6496093987
 20
-18.6356255412
 10
10.6542784872
 20
-18.6528209521
 10
10.6597332421
 20
-18.6694219378
 10
10.6659440143
 20
-18.6854088209
 10
10.6729404529
 20
-18.7008012787
 10
10.6806238411
 20
-18.7156450561
 10
10.6889827964
 20
-18.7299601725
 10
10.6980287015
 20
-18.7437266084
 10
10.7076969871
 20
-18.7569300501
 10
10.7179845796
 20
-18.769577415
 10
10.7288945527
 20
-18.7816617858
 10
10.7403715588
 20
-18.7931480972
 10
10.7524313904
 20
-18.8040520689
 10
10.7650582549
 20
-18.8143579813
 10
10.7781494269
 20
-18.8239836096
 10
10.7917020808
 20
-18.8329199732
 10
10.8057190421
 20
-18.8411760527
 10
10.8201060618
 20
-18.848696566
 10
10.8348760013
 20
-18.8554806849
 10
10.8500159992
 20
-18.8615292376
 10
10.8653932217
 20
-18.8667894263
 10
10.8810007992
 20
-18.871251634
 10
10.8968456014
 20
-18.8749254778
 10
10.9128154033
 20
-18.8777870108
 10
10.9289157515
 20
-18.879831293
 10
10.9451410995
 20
-18.8810632644
 10
10.9613625827
 20
-18.8814737985
 10
10.9775761819
 20
-18.8810568945
 10
10.9937859162
 20
-18.8798185533
 10
11.0098749794
 20
-18.8777676512
 10
11.0258448554
 20
-18.8748984433
 10
11.0416940602
 20
-18.8712166745
 10
11.0573013348
 20
-18.8667484558
 10
11.072667181
 20
-18.8614863319
 10
11.0877910971
 20
-18.8554377581
 10
11.1025503186
 20
-18.8486512109
 10
11.1169390461
 20
-18.8411221544
 10
11.1309630791
 20
-18.8328551245
 10
11.1445170513
 20
-18.8239122063
 10
11.1575968335
 20
-18.8142891477
 10
11.170206555
 20
-18.8039902008
 10
11.1822532376
 20
-18.7930902069
 10
11.1937265897
 20
-18.7815999445
 10
11.2046369029
 20
-18.769508635
 10
11.2149220747
 20
-18.7568587842
 10
11.2245814512
 20
-18.7436615185
 10
11.2336156863
 20
-18.7299057115
 10
11.241964638
 20
-18.7156004899
 10
11.2496415543
 20
-18.7007632466
 10
11.2566331872
 20
-18.6853765888
 10
11.2628396514
 20
-18.6693974648
 10
11.2682898785
 20
-18.6528096358
 10
11.2729549369
 20
-18.6356293406
 10
11.2766481462
 20
-18.6178622439
 10
11.2793072798
 20
-18.5995102338
 10
11.2809945644
 20
-18.580571422
 10
11.28171
 20
-18.5610458087
  0
LINE
  5
3B4
100
AcDbEntity
  8
RACCORDO
100
AcDbLine
 62
253
  6
CONTINUOUS
 10
7.0
 20
-40.3111671475
 11
7.0
 21
-42.2467267598
  0
LINE
  5
3B5
100
AcDbEntity
  8
IMPORT_IGES
100
AcDbLine
 62
7
  6
CONTINUOUS
 10
7.4020000175
 20
-20.96922695
 11
7.4020000175
 21
-21.9692289765
  0
LINE
  5
3B6
100
AcDbEntity
  8
RACCORDO
100
AcDbLine
 62
7
  6
CONTINUOUS
 10
7.5
 20
-41.7467267598
 11
7.5
 21
-40.2770604916
  0
LINE
  5
3B7
100
AcDbEntity
  8
IMPORT_IGES
100
AcDbLine
 62
7
  6
CONTINUOUS
 10
8.0453939736
 20
-14.0109769936
 11
8.0453939736
 21
-14.2673243025
  0
LINE
  5
3B8
100
AcDbEntity
  8
IMPORT_IGES
100
AcDbLine
 62
7
  6
CONTINUOUS
 10
8.7182912976
 20
-13.466250145
 11
8.7182912976
 21
-13.7171372707
  0
LINE
  5
3B9
100
AcDbEntity
  8
IMPORT_IGES
100
AcDbLine
 62
7
  6
CONTINUOUS
 10
8.7182912974
 20
-14.0109769936
 11
8.7182912974
 21
-13.7850716646
  0
LINE
  5
3BA
100
AcDbEntity
  8
IMPORT_IGES
100
AcDbLine
 62
7
  6
CONTINUOUS
 10
8.782377
 20
-13.6955614233
 11
8.7823765352
 21
-13.5303371418
  0
LINE
  5
3BB
100
AcDbEntity
  8
IMPORT_IGES
100
AcDbLine
 62
7
  6
CONTINUOUS
 10
8.7823765352
 20
-13.9468945499
 11
8.782377
 21
-13.7630257588
  0
LINE
  5
3BC
100
AcDbEntity
  8
IMPORT_IGES
100
AcDbLine
 62
7
  6
CONTINUOUS
 10
8.9505198142
 20
-18.5930906329
 11
8.9505198142
 21
-19.1057742764
  0
LINE
  5
3BD
100
AcDbEntity
  8
IMPORT_IGES
100
AcDbLine
 62
7
  6
CONTINUOUS
 10
8.9746318507
 20
-13.6392528266
 11
8.9746318507
 21
-13.5303381766
  0
LINE
  5
3BE
100
AcDbEntity
  8
IMPORT_IGES
100
AcDbLine
 62
7
  6
CONTINUOUS
 10
8.9746322474
 20
-13.9468945499
 11
8.9746322474
 21
-13.7055255321
  0
LINE
  5
3BF
100
AcDbEntity
  8
IMPORT_IGES
100
AcDbLine
 62
7
  6
CONTINUOUS
 10
9.0387181302
 20
-13.6891488289
 11
9.0387181302
 21
-14.0109769936
  0
LINE
  5
3C0
100
AcDbEntity
  8
IMPORT_IGES
100
AcDbLine
 62
7
  6
CONTINUOUS
 10
9.038718
 20
-13.6232089509
 11
9.0387184173
 21
-13.466250145
  0
LINE
  5
3C1
100
AcDbEntity
  8
IMPORT_IGES
100
AcDbLine
 62
7
  6
CONTINUOUS
 10
9.0466476977
 20
-18.6251327331
 11
9.0466476977
 21
-19.0096422966
  0
LINE
  5
3C2
100
AcDbEntity
  8
IMPORT_IGES
100
AcDbLine
 62
7
  6
CONTINUOUS
 10
9.2389043421
 20
-19.0096422966
 11
9.2389043421
 21
-18.6251327331
  0
LINE
  5
3C3
100
AcDbEntity
  8
IMPORT_IGES
100
AcDbLine
 62
7
  6
CONTINUOUS
 10
9.3350315074
 20
-19.1057733853
 11
9.3350315074
 21
-18.5930890288
  0
LINE
  5
3C4
100
AcDbEntity
  8
IMPORT_IGES
100
AcDbLine
 62
7
  6
CONTINUOUS
 10
9.5834443346
 20
-15.2286030288
 11
9.5834443346
 21
-15.5490301485
  0
LINE
  5
3C5
100
AcDbEntity
  8
IMPORT_IGES
100
AcDbLine
 62
7
  6
CONTINUOUS
 10
9.6475295722
 20
-15.2926854725
 11
9.6475295722
 21
-15.4849439795
  0
LINE
  5
3C6
100
AcDbEntity
  8
IMPORT_IGES
100
AcDbLine
 62
7
  6
CONTINUOUS
 10
9.7116157413
 20
-13.3701227541
 11
9.711616
 21
-13.5322078136
  0
LINE
  5
3C7
100
AcDbEntity
  8
IMPORT_IGES
100
AcDbLine
 62
7
  6
CONTINUOUS
 10
9.71161573
 20
-13.7546360429
 11
9.71161573
 21
-13.5963290075
  0
LINE
  5
3C8
100
AcDbEntity
  8
IMPORT_IGES
100
AcDbLine
 62
7
  6
CONTINUOUS
 10
9.775701114
 20
-13.5947725477
 11
9.775701114
 21
-13.6905535992
  0
LINE
  5
3C9
100
AcDbEntity
  8
IMPORT_IGES
100
AcDbLine
 62
7
  6
CONTINUOUS
 10
9.775701
 20
-13.5306810171
 11
9.775701
 21
-13.4342089231
  0
LWPOLYLINE
  5
3CA
100
AcDbEntity
  8
IMPORT_IGES
100
AcDbPolyline
 62
253
  6
CONTINUOUS
 90
37
 70
0
 10
7.6417267011
 20
1.6043029227
 10
7.6373919858
 20
1.5451656571
 10
7.6312312352
 20
1.4855971174
 10
7.6232067396
 20
1.4256655495
 10
7.6132664441
 20
1.365357961
 10
7.601384996
 20
1.3048378929
 10
7.5875788086
 20
1.2444176521
 10
7.571808159
 20
1.1841166623
 10
7.554033039
 20
1.1239580559
 10
7.5343008219
 20
1.0642161332
 10
7.5126047467
 20
1.0049265338
 10
7.4889503093
 20
0.9461328342
 10
7.4634485635
 20
0.8881097194
 10
7.4361737229
 20
0.8309963315
 10
7.4071351031
 20
0.774790308
 10
7.3763642805
 20
0.7195471927
 10
7.3439073811
 20
0.6653495868
 10
7.3097947484
 20
0.6122527501
 10
7.2740279759
 20
0.5602748971
 10
7.2366267011
 20
0.5094657695
 10
7.1976221036
 20
0.4598695188
 10
7.1570277599
 20
0.4114998914
 10
7.1148503693
 20
0.3643645917
 10
7.0711202944
 20
0.318498303
 10
7.0259194499
 20
0.2739825512
 10
6.9792962925
 20
0.2308638057
 10
6.9313650625
 20
0.189251335
 10
6.8823471899
 20
0.1493317651
 10
6.8323134657
 20
0.1111478681
 10
6.7813126844
 20
0.0747134873
 10
6.7295521527
 20
0.0401403801
 10
6.6770756711
 20
0.0074118706
 10
6.6239246032
 20
-0.0234894799
 10
6.5703038904
 20
-0.0524920665
 10
6.5162941865
 20
-0.0796102307
 10
6.4618539495
 20
-0.1049217397
 10
6.4070019468
 20
-0.1284703521
  0
LWPOLYLINE
  5
3CB
100
AcDbEntity
  8
IMPORT_IGES
100
AcDbPolyline
 62
7
  6
CONTINUOUS
 90
10
 70
0
 10
0.6637450319
 20
-14.0756741628
 10
0.6776984589
 20
-14.0526872928
 10
0.6900722048
 20
-14.0289900353
 10
0.7008662694
 20
-14.0045823905
 10
0.7101130499
 20
-13.9793777033
 10
0.7177801493
 20
-13.9534626288
 10
0.7237703765
 20
-13.9270971316
 10
0.7280513345
 20
-13.9003678667
 10
0.7306554204
 20
-13.8731881792
 10
0.7315826342
 20
-13.845558069
  0
LWPOLYLINE
  5
3CC
100
AcDbEntity
  8
IMPORT_IGES
100
AcDbPolyline
 62
7
  6
CONTINUOUS
 90
10
 70
0
 10
2.1787859819
 20
-14.0756740564
 10
2.1927394326
 20
-14.0526872616
 10
2.2051132015
 20
-14.0289900634
 10
2.2159072887
 20
-14.0045824616
 10
2.2251540923
 20
-13.9793778009
 10
2.2328212142
 20
-13.9534627368
 10
2.2388114601
 20
-13.9270972349
 10
2.2430924318
 20
-13.9003679506
 10
2.2456965274
 20
-13.8731882287
 10
2.2466237471
 20
-13.845558069
  0
LWPOLYLINE
  5
3CD
100
AcDbEntity
  8
IMPORT_IGES
100
AcDbPolyline
 62
7
  6
CONTINUOUS
 90
28
 70
0
 10
-1.0534788027
 20
-14.9735253382
 10
-1.0450145791
 20
-14.9609028376
 10
-1.0369015901
 20
-14.9473994293
 10
-1.0291398355
 20
-14.9330151134
 10
-1.0217198717
 20
-14.917732609
 10
-1.0146511424
 20
-14.9015691969
 10
-1.0079619791
 20
-14.8845767195
 10
-1.0016883315
 20
-14.8667623058
 10
-0.9957942498
 20
-14.8481188267
 10
-0.990200216
 20
-14.8286767377
 10
-0.9848816524
 20
-14.8084471136
 10
-0.9798631367
 20
-14.7874188796
 10
-0.9751388847
 20
-14.7655892656
 10
-0.9707073996
 20
-14.7429704104
 10
-0.9665701781
 20
-14.7195501753
 10
-0.9627259261
 20
-14.6952893744
 10
-0.9591716887
 20
-14.6701881304
 10
-0.9559104207
 20
-14.6442463207
 10
-0.9529496926
 20
-14.6174243916
 10
-0.9502842911
 20
-14.5897204789
 10
-0.9479194295
 20
-14.5611364467
 10
-0.9458783187
 20
-14.5316383339
 10
-0.9441709473
 20
-14.5012271391
 10
-0.9427873267
 20
-14.4699018636
 10
-0.9417207029
 20
-14.43762555
 10
-0.9409688243
 20
-14.404385879
 10
-0.9405339425
 20
-14.3701951699
 10
-0.9404160574
 20
-14.3350534225
  0
LWPOLYLINE
  5
3CE
100
AcDbEntity
  8
IMPORT_IGES
100
AcDbPolyline
 62
7
  6
CONTINUOUS
 90
10
 70
0
 10
-4.4843791768
 20
-19.5445679064
 10
-4.4995802293
 20
-19.5608672316
 10
-4.5155769407
 20
-19.5767311204
 10
-4.532369311
 20
-19.5921595727
 10
-4.5499764044
 20
-19.6071771292
 10
-4.5683791568
 20
-19.6217592492
 10
-4.5875203749
 20
-19.6358323108
 10
-4.6073809944
 20
-19.6493717734
 10
-4.6279800798
 20
-19.6624021776
 10
-4.6493176309
 20
-19.6749235233
  0
LWPOLYLINE
  5
3CF
100
AcDbEntity
  8
IMPORT_IGES
100
AcDbPolyline
 62
7
  6
CONTINUOUS
 90
10
 70
0
 10
-10.5322398371
 20
-20.4280914556
 10
-10.558917509
 20
-20.4550916373
 10
-10.5872434051
 20
-20.4790184269
 10
-10.6172175254
 20
-20.4998718244
 10
-10.6490795057
 20
-20.517737297
 10
-10.6825897101
 20
-20.5325293775
 10
-10.7170292306
 20
-20.5439916639
 10
-10.7521584312
 20
-20.5520386888
 10
-10.7882169479
 20
-20.5567559197
 10
-10.8252047807
 20
-20.5581433564
  0
LWPOLYLINE
  5
3D0
100
AcDbEntity
  8
IMPORT_IGES
100
AcDbPolyline
 62
7
  6
CONTINUOUS
 90
10
 70
0
 10
-0.2261254167
 20
-13.4717859389
 10
-0.2584641321
 20
-13.5014317095
 10
-0.2883772704
 20
-13.534137857
 10
-0.3158648315
 20
-13.5699043813
 10
-0.3410825582
 20
-13.6088995587
 10
-0.3638747078
 20
-13.650955113
 10
-0.3837740519
 20
-13.6955662152
 10
-0.4006248478
 20
-13.7425645892
 10
-0.4145828382
 20
-13.7921185112
 10
-0.4256480232
 20
-13.8442279811
  0
LWPOLYLINE
  5
3D1
100
AcDbEntity
  8
IMPORT_IGES
100
AcDbPolyline
 62
7
  6
CONTINUOUS
 90
10
 70
0
 10
-8.9470328118
 20
-20.6406127836
 10
-8.9178296459
 20
-20.6148150183
 10
-8.8899740459
 20
-20.586345243
 10
-8.8634660118
 20
-20.5552034575
 10
-8.8381788584
 20
-20.5213049813
 10
-8.8142392709
 20
-20.4847344951
 10
-8.7920273048
 20
-20.4457460401
 10
-8.7716696453
 20
-20.404424297
 10
-8.7530396072
 20
-20.3606845853
 10
-8.7361371905
 20
-20.3145269049
  0
LWPOLYLINE
  5
3D2
100
AcDbEntity
  8
IMPORT_IGES
100
AcDbPolyline
 62
7
  6
CONTINUOUS
 90
10
 70
0
 10
-2.4913710167
 20
-15.2156126979
 10
-2.4621680776
 20
-15.1898151568
 10
-2.4343126415
 20
-15.1613455564
 10
-2.4078047085
 20
-15.1302038967
 10
-2.3825175812
 20
-15.0963055024
 10
-2.3585779569
 20
-15.0597350488
 10
-2.3363659278
 20
-15.0207465614
 10
-2.3160081915
 20
-14.9794247154
 10
-2.2973780505
 20
-14.9356848358
 10
-2.2804755047
 20
-14.8895269223
  0
LWPOLYLINE
  5
3D3
100
AcDbEntity
  8
IMPORT_IGES
100
AcDbPolyline
 62
7
  6
CONTINUOUS
 90
10
 70
0
 10
-9.6543455187
 20
-18.8785602165
 10
-9.6835529745
 20
-18.9041510415
 10
-9.711436354
 20
-18.9324507863
 10
-9.7379956571
 20
-18.9634594509
 10
-9.7633560478
 20
-18.9972640053
 10
-9.7873923622
 20
-19.0337774795
 10
-9.8097291079
 20
-19.0727389635
 10
-9.8302411207
 20
-19.1140614873
 10
-9.8490535649
 20
-19.157832021
 10
-9.8661664403
 20
-19.2040505644
  0
LWPOLYLINE
  5
3D4
100
AcDbEntity
  8
IMPORT_IGES
100
AcDbPolyline
 62
7
  6
CONTINUOUS
 90
10
 70
0
 10
-3.1986837457
 20
-13.4535602097
 10
-3.2278910328
 20
-13.4791508544
 10
-3.2557742922
 20
-13.5074504612
 10
-3.2823335238
 20
-13.5384590303
 10
-3.3076939013
 20
-13.5722635278
 10
-3.3317302512
 20
-13.6087769875
 10
-3.3540670527
 20
-13.6477385109
 10
-3.3745791324
 20
-13.6890611317
 10
-3.3933916638
 20
-13.7328318162
 10
-3.4105046469
 20
-13.7790505644
  0
LWPOLYLINE
  5
3D5
100
AcDbEntity
  8
IMPORT_IGES
100
AcDbPolyline
 62
7
  6
CONTINUOUS
 90
10
 70
0
 10
-1.6836427957
 20
-13.4535601883
 10
-1.7128500981
 20
-13.4791508561
 10
-1.7407333705
 20
-13.50745048
 10
-1.7672926129
 20
-13.5384590601
 10
-1.7926529993
 20
-13.572263562
 10
-1.8166893557
 20
-13.60877702
 10
-1.8390261608
 20
-13.6477385372
 10
-1.8595382406
 20
-13.6890611478
 10
-1.8783507689
 20
-13.7328318177
 10
-1.8954637459
 20
-13.7790505467
  0
LWPOLYLINE
  5
3D6
100
AcDbEntity
  8
IMPORT_IGES
100
AcDbPolyline
 62
7
  6
CONTINUOUS
 90
9
 70
0
 10
-12.2409547107
 20
-20.0773020803
 10
-12.1960093741
 20
-20.0384870983
 10
-12.1522948449
 20
-19.9999804276
 10
-12.1097221071
 20
-19.9618473745
 10
-12.0683801767
 20
-19.9240226326
 10
-12.0285361019
 20
-19.8863102831
 10
-11.9902788988
 20
-19.8486450195
 10
-11.9535195514
 20
-19.8110921482
 10
-11.9182580595
 20
-19.7736516692
  0
LINE
  5
3D7
100
AcDbEntity
  8
IMPORT_IGES
100
AcDbLine
 62
7
  6
CONTINUOUS
 10
-12.4188928066
 20
-20.2290571841
 11
-12.3545281253
 21
-20.1736013207
  0
LINE
  5
3D8
100
AcDbEntity
  8
IMPORT_IGES
100
AcDbLine
 62
7
  6
CONTINUOUS
 10
-12.3545281253
 20
-20.1736013207
 11
-12.2409547107
 21
-20.0773020803
  0
LWPOLYLINE
  5
3D9
100
AcDbEntity
  8
IMPORT_IGES
100
AcDbPolyline
 62
7
  6
CONTINUOUS
 90
10
 70
0
 10
-12.4413443423
 20
-19.9533728439
 10
-12.5388156676
 20
-20.0337962287
 10
-12.5777419285
 20
-20.0667841277
 10
-12.6153967283
 20
-20.0996705914
 10
-12.6518606595
 20
-20.1324095248
 10
-12.6870531297
 20
-20.165047023
 10
-12.7207323609
 20
-20.1977213711
 10
-12.7528177604
 20
-20.230478664
 10
-12.783389921
 20
-20.2632728069
 10
-12.8124488427
 20
-20.2961037996
  0
LWPOLYLINE
  5
3DA
100
AcDbEntity
  8
0
100
AcDbPolyline
 62
7
  6
CONTINUOUS
 90
8
 70
0
 10
15.0278897982
 20
-6.4770536688
 10
15.0368842864
 20
-6.4880726459
 10
15.0466858169
 20
-6.4992178481
 10
15.0571683446
 20
-6.5103259783
 10
15.067931431
 20
-6.5214625528
 10
15.0788370174
 20
-6.5325524451
 10
15.0900128108
 20
-6.5433482218
 10
15.1014492754
 20
-6.5537058214
  0
LINE
  5
3DB
100
AcDbEntity
  8
0
100
AcDbLine
 62
7
  6
CONTINUOUS
 10
15.011870526
 20
-6.4567564956
 11
15.0278897982
 21
-6.4770536688
  0
LWPOLYLINE
  5
3DC
100
AcDbEntity
  8
0
100
AcDbPolyline
 62
7
  6
CONTINUOUS
 90
10
 70
0
 10
15.011870526
 20
-6.4567564956
 10
15.0094739305
 20
-6.4531079131
 10
15.0073219406
 20
-6.4493334195
 10
15.0054260589
 20
-6.4454362758
 10
15.0037959915
 20
-6.4414094999
 10
15.0024439287
 20
-6.4372671996
 10
15.0013819808
 20
-6.4330446398
 10
15.0006174086
 20
-6.4287563473
 10
15.0001550752
 20
-6.4243960239
 10
15.0
 20
-6.4199679265
  0
LINE
  5
3DD
100
AcDbEntity
  8
IMPORT_IGES
100
AcDbLine
 62
253
  6
CONTINUOUS
 10
-6.7518844652
 20
38.7910720312
 11
-6.558601501
 21
38.3299617866
  0
LINE
  5
3DE
100
AcDbEntity
  8
IMPORT_IGES
100
AcDbLine
 62
253
  6
CONTINUOUS
 10
-6.4070019462
 20
38.2350168308
 11
-6.0260967205
 21
37.3104439258
  0
LWPOLYLINE
  5
3DF
100
AcDbEntity
  8
IMPORT_IGES
100
AcDbPolyline
 62
7
  6
CONTINUOUS
 90
34
 70
0
 10
10.4014497745
 20
-18.5930890288
 10
10.4089944435
 20
-18.6562213978
 10
10.4218093433
 20
-18.7155678879
 10
10.4398944738
 20
-18.7711284991
 10
10.4639586839
 20
-18.8230537784
 10
10.4932931249
 20
-18.8711931789
 10
10.5257712498
 20
-18.9150950595
 10
10.5611466996
 20
-18.9545670898
 10
10.5996658334
 20
-18.9898016002
 10
10.6399411815
 20
-19.0209239418
 10
10.6817441711
 20
-19.0480450602
 10
10.7253033751
 20
-19.0710540098
 10
10.7699170423
 20
-19.0897433052
 10
10.8155954297
 20
-19.1038925894
 10
10.8623282803
 20
-19.1137222194
 10
10.9093830725
 20
-19.1196857807
 10
10.9567864483
 20
-19.1219460291
 10
11.0045117657
 20
-19.1203402088
 10
11.0517465765
 20
-19.1148336379
 10
11.0986095539
 20
-19.1054690479
 10
11.1449820247
 20
-19.0922037072
 10
11.1896955219
 20
-19.0748747391
 10
11.2324903205
 20
-19.053310857
 10
11.2736261456
 20
-19.0276833474
 10
11.3127137045
 20
-18.998343193
 10
11.349983245
 20
-18.9654941381
 10
11.3852045193
 20
-18.9289324383
 10
11.4172974917
 20
-18.8883978439
 10
11.4466418142
 20
-18.8438107147
 10
11.4728578347
 20
-18.7952506909
 10
11.4937265614
 20
-18.7426964433
 10
11.5085083305
 20
-18.6861408621
 10
11.5179428057
 20
-18.6255910572
 10
11.5220299872
 20
-18.5610470284
  0
LWPOLYLINE
  5
3E0
100
AcDbEntity
  8
IMPORT_IGES
100
AcDbPolyline
 62
253
  6
CONTINUOUS
 90
19
 70
0
 10
7.6387661916
 20
36.5034277081
 10
7.6274347178
 20
36.6277511068
 10
7.6083889461
 20
36.7511088954
 10
7.5817063129
 20
36.8730232139
 10
7.5474775337
 20
36.9930731462
 10
7.5058486666
 20
37.1107413815
 10
7.4570519599
 20
37.2254271135
 10
7.401354822
 20
37.3366113766
 10
7.338965017
 20
37.4439750093
 10
7.2700686684
 20
37.5472380185
 10
7.194913887
 20
37.6460354426
 10
7.113813131
 20
37.7399628719
 10
7.0270563461
 20
37.8286901831
 10
6.934990801
 20
37.9118651787
 10
6.837956648
 20
37.98918335
 10
6.7362477082
 20
38.0603999119
 10
6.630217445
 20
38.1252430349
 10
6.5202896175
 20
38.183430162
 10
6.4068795494
 20
38.2347221287
  0
LWPOLYLINE
  5
3E1
100
AcDbEntity
  8
IMPORT_IGES
100
AcDbPolyline
 62
253
  6
CONTINUOUS
 90
19
 70
0
 10
8.2810772682
 20
36.6320602659
 10
8.2669595671
 20
36.7874587472
 10
8.2435639502
 20
36.9404830671
 10
8.2108904177
 20
37.0911332257
 10
8.1687344381
 20
37.2399607962
 10
8.1173005427
 20
37.3864142054
 10
8.057202326
 20
37.5288387334
 10
7.9883532279
 20
37.6671789305
 10
7.9108398085
 20
37.8014902465
 10
7.8255353425
 20
37.9302843113
 10
7.7323596553
 20
38.0535043778
 10
7.6313929216
 20
38.1712071932
 10
7.5237489402
 20
38.2820746291
 10
7.4093575176
 20
38.3860376634
 10
7.2882888473
 20
38.4831653183
 10
7.1618673092
 20
38.5723465314
 10
7.030534363
 20
38.6532109486
 10
6.8938485489
 20
38.7261289241
 10
6.7518098669
 20
38.7911004579
  0
LWPOLYLINE
  5
3E2
100
AcDbEntity
  8
IMPORT_IGES
100
AcDbPolyline
 62
7
  6
CONTINUOUS
 90
61
 70
0
 10
11.28171
 20
-18.5610458087
 10
11.2809953828
 20
-18.5415159802
 10
11.2793068871
 20
-18.5225699568
 10
11.2766445128
 20
-18.5042077384
 10
11.2729453684
 20
-18.4864252557
 10
11.2682723455
 20
-18.469226578
 10
11.2628141183
 20
-18.4526239133
 10
11.2566006793
 20
-18.4366369081
 10
11.2496020359
 20
-18.4212459157
 10
11.2419168852
 20
-18.4064042045
 10
11.2335567243
 20
-18.3920916925
 10
11.2245100561
 20
-18.3783284616
 10
11.2148410864
 20
-18.3651280251
 10
11.2045527989
 20
-18.3524831819
 10
11.1936422098
 20
-18.3404011331
 10
11.1821645739
 20
-18.3289169951
 10
11.1701040152
 20
-18.3180150121
 10
11.1574764096
 20
-18.3077109399
 10
11.1443846396
 20
-18.2980871622
 10
11.1308315741
 20
-18.2891527203
 10
11.1168143442
 20
-18.280898573
 10
11.1024272256
 20
-18.2733799809
 10
11.087657396
 20
-18.266597785
 10
11.0725176777
 20
-18.2605511443
 10
11.0571408137
 20
-18.2552927964
 10
11.0415336447
 20
-18.2508323392
 10
11.0256893301
 20
-18.2471601749
 10
11.0097200908
 20
-18.2443002471
 10
10.9936203808
 20
-18.242257498
 10
10.9773957461
 20
-18.2410269855
 10
10.9611750463
 20
-18.2406178266
 10
10.9449623014
 20
-18.2410360232
 10
10.9287534914
 20
-18.2422755733
 10
10.9126654154
 20
-18.2443275878
 10
10.8966965995
 20
-18.2471978088
 10
10.8808485178
 20
-18.2508804943
 10
10.8652423915
 20
-18.2553495293
 10
10.8498777117
 20
-18.2606123691
 10
10.8347549874
 20
-18.2666615584
 10
10.8199969673
 20
-18.2734486163
 10
10.8056094563
 20
-18.2809780737
 10
10.7915866496
 20
-18.2892453998
 10
10.7780338814
 20
-18.2981885201
 10
10.7649552762
 20
-18.3078116877
 10
10.7523467095
 20
-18.3181106497
 10
10.7403011426
 20
-18.3290105732
 10
10.7288288667
 20
-18.3405006759
 10
10.7179195905
 20
-18.3525917402
 10
10.7076354009
 20
-18.3652412804
 10
10.6979769501
 20
-18.3784381761
 10
10.6889435859
 20
-18.3921935477
 10
10.6805954388
 20
-18.4064982714
 10
10.6729192563
 20
-18.4213349536
 10
10.6659282908
 20
-18.4367209879
 10
10.6597224303
 20
-18.4526994317
 10
10.6542727578
 20
-18.4692865264
 10
10.6496081903
 20
-18.4864660307
 10
10.6459153669
 20
-18.5042322777
 10
10.6432565005
 20
-18.5225833786
 10
10.6415693782
 20
-18.5415212222
 10
10.640854
 20
-18.5610458087
  0
LINE
  5
3E3
100
AcDbEntity
  8
IMPORT_IGES
100
AcDbLine
 62
7
  6
CONTINUOUS
 10
10.5126828931
 20
-13.6016246986
 11
10.5126828931
 21
-13.4342089231
  0
LINE
  5
3E4
100
AcDbEntity
  8
IMPORT_IGES
100
AcDbLine
 62
7
  6
CONTINUOUS
 10
10.5126831206
 20
-13.6671246698
 11
10.5126827509
 21
-13.6905535992
  0
LINE
  5
3E5
100
AcDbEntity
  8
IMPORT_IGES
100
AcDbLine
 62
7
  6
CONTINUOUS
 10
10.576769
 20
-13.6156846405
 11
10.5767687783
 21
-13.3701227541
  0
LINE
  5
3E6
100
AcDbEntity
  8
IMPORT_IGES
100
AcDbLine
 62
7
  6
CONTINUOUS
 10
10.5767687783
 20
-13.7546360429
 11
10.576769
 21
-13.6814718474
  0
LINE
  5
3E7
100
AcDbEntity
  8
IMPORT_IGES
100
AcDbLine
 62
7
  6
CONTINUOUS
 10
10.640854016
 20
-15.4849439795
 11
10.640854016
 21
-15.2926854725
  0
LINE
  5
3E8
100
AcDbEntity
  8
IMPORT_IGES
100
AcDbLine
 62
7
  6
CONTINUOUS
 10
10.704940185
 20
-15.5490301485
 11
10.704940185
 21
-15.2286030288
  0
LINE
  5
3E9
100
AcDbEntity
  8
IMPORT_IGES
100
AcDbLine
 62
7
  6
CONTINUOUS
 10
11.1214946955
 20
-14.5236626203
 11
11.1214946955
 21
-15.1846259768
  0
LINE
  5
3EA
100
AcDbEntity
  8
IMPORT_IGES
100
AcDbLine
 62
7
  6
CONTINUOUS
 10
11.1855808646
 20
-14.5877487893
 11
11.1855808646
 21
-15.1205398078
  0
LINE
  5
3EB
100
AcDbEntity
  8
IMPORT_IGES
100
AcDbLine
 62
7
  6
CONTINUOUS
 10
11.6021363065
 20
-14.2673216696
 11
11.602136
 21
-14.186679719
  0
LINE
  5
3EC
100
AcDbEntity
  8
IMPORT_IGES
100
AcDbLine
 62
7
  6
CONTINUOUS
 10
11.826435104
 20
-15.1645168598
 11
11.826435104
 21
-14.6609470184
  0
LINE
  5
3ED
100
AcDbEntity
  8
IMPORT_IGES
100
AcDbLine
 62
7
  6
CONTINUOUS
 10
11.890521
 20
-15.2286020798
 11
11.890521
 21
-14.5968618087
  0
LINE
  5
3EE
100
AcDbEntity
  8
IMPORT_IGES
100
AcDbLine
 62
7
  6
CONTINUOUS
 10
12.5979995355
 20
-21.9692289765
 11
12.5979995355
 21
-20.96922695
  0
LINE
  5
3EF
100
AcDbEntity
  8
IMPORT_IGES
100
AcDbLine
 62
7
  6
CONTINUOUS
 10
11.0653545708
 20
-17.3714756902
 11
11.2522616983
 21
-15.2351185615
  0
LINE
  5
3F0
100
AcDbEntity
  8
IMPORT_IGES
100
AcDbLine
 62
7
  6
CONTINUOUS
 10
11.2696401775
 20
-15.0364786322
 11
11.3089000806
 21
-14.5877487893
  0
LINE
  5
3F1
100
AcDbEntity
  8
IMPORT_IGES
100
AcDbLine
 62
7
  6
CONTINUOUS
 10
11.3145057112
 20
-14.5236626203
 11
11.3369338214
 21
-14.2673216696
  0
LINE
  5
3F2
100
AcDbEntity
  8
IMPORT_IGES
100
AcDbLine
 62
7
  6
CONTINUOUS
 10
11.1099277195
 20
-17.5973116571
 11
11.0736757627
 21
-18.0116781642
  0
LINE
  5
3F3
100
AcDbEntity
  8
IMPORT_IGES
100
AcDbLine
 62
7
  6
CONTINUOUS
 10
11.3732311875
 20
-14.5877487893
 11
11.3401403651
 21
-14.9659812386
  0
LINE
  5
3F4
100
AcDbEntity
  8
IMPORT_IGES
100
AcDbLine
 62
7
  6
CONTINUOUS
 10
11.1245097745
 20
-17.4306330288
 11
11.3171627983
 21
-15.2286027572
  0
LINE
  5
3F5
100
AcDbEntity
  8
IMPORT_IGES
100
AcDbLine
 62
7
  6
CONTINUOUS
 10
11.401263997
 20
-14.2673216696
 11
11.3788368575
 21
-14.5236622145
  0
LINE
  5
3F6
100
AcDbEntity
  8
IMPORT_IGES
100
AcDbLine
 62
7
  6
CONTINUOUS
 10
11.0100571621
 20
-18.0024257766
 11
11.0507728532
 21
-17.538156354
  0
LWPOLYLINE
  5
3F7
100
AcDbEntity
  8
IMPORT_IGES
100
AcDbPolyline
 62
7
  6
CONTINUOUS
 90
37
 70
0
 10
10.4014736972
 20
-18.5293282474
 10
10.4040624331
 20
-18.5029841788
 10
10.4075048647
 20
-18.477298056
 10
10.411800992
 20
-18.452269879
 10
10.4168924336
 20
-18.427910037
 10
10.422837571
 20
-18.4042081408
 10
10.4298115483
 20
-18.3811330229
 10
10.4379392927
 20
-18.3587264983
 10
10.4470958771
 20
-18.336946752
 10
10.4570816638
 20
-18.3156371716
 10
10.4677971007
 20
-18.2947694335
 10
10.4793417399
 20
-18.2743718613
 10
10.491814601
 20
-18.254372814
 10
10.5052459461
 20
-18.2346960797
 10
10.5196055131
 20
-18.2154178704
 10
10.5349015347
 20
-18.1966951802
 10
10.551214202
 20
-18.1785015993
 10
10.5684633238
 20
-18.1608635375
 10
10.5864165602
 20
-18.1440172195
 10
10.6050398139
 20
-18.1280058044
 10
10.6243671822
 20
-18.1127861329
 10
10.6442686161
 20
-18.0984649521
 10
10.6647311873
 20
-18.0850550549
 10
10.6857678242
 20
-18.0725436484
 10
10.7072872623
 20
-18.0609991004
 10
10.7292325225
 20
-18.0504419276
 10
10.7516605839
 20
-18.0408516133
 10
10.7746511202
 20
-18.0322349765
 10
10.7982012458
 20
-18.0245734424
 10
10.8223138464
 20
-18.0178855857
 10
10.8470772526
 20
-18.0122339495
 10
10.8725003193
 20
-18.0075573101
 10
10.8985741916
 20
-18.0039168912
 10
10.9253606354
 20
-18.0015589069
 10
10.9528802395
 20
-18.0005654288
 10
10.981112415
 20
-18.0008543853
 10
11.0100571621
 20
-18.0024257766
  0
LWPOLYLINE
  5
3F8
100
AcDbEntity
  8
IMPORT_IGES
100
AcDbPolyline
 62
7
  6
CONTINUOUS
 90
7
 70
0
 10
23.2934535188
 20
35.7948796602
 10
23.2879717892
 20
35.7749031687
 10
23.282562564
 20
35.7436279556
 10
23.2772258434
 20
35.7010540208
 10
23.2719458058
 20
35.6469712429
 10
23.2667382728
 20
35.5815897434
 10
23.2616507089
 20
35.5055398861
  0
LINE
  5
3F9
100
AcDbEntity
  8
IMPORT_IGES
100
AcDbLine
 62
7
  6
CONTINUOUS
 10
-19.4437734871
 20
-37.548497024
 11
-19.7266972512
 21
-37.8346853519
  0
LWPOLYLINE
  5
3FA
100
AcDbEntity
  8
IMPORT_IGES
100
AcDbPolyline
 62
7
  6
CONTINUOUS
 90
13
 70
0
 10
0.6408156336
 20
-15.1540940751
 10
0.6700484618
 20
-15.1245956353
 10
0.6969127948
 20
-15.0937441139
 10
0.7214086327
 20
-15.0615395108
 10
0.7436369569
 20
-15.0279193541
 10
0.7634967859
 20
-14.9929461158
 10
0.7806851756
 20
-14.9568072118
 10
0.7950921028
 20
-14.919382625
 10
0.8068275907
 20
-14.8807923726
 10
0.8159187636
 20
-14.8415839223
 10
0.8223746632
 20
-14.8019397635
 10
0.8261862479
 20
-14.7616774068
 10
0.8273535177
 20
-14.7207968523
  0
LWPOLYLINE
  5
3FB
100
AcDbEntity
  8
IMPORT_IGES
100
AcDbPolyline
 62
7
  6
CONTINUOUS
 90
13
 70
0
 10
2.1558567754
 20
-15.1540940477
 10
2.1850894616
 20
-15.1245957629
 10
2.2119536834
 20
-15.0937443561
 10
2.2364494409
 20
-15.0615398275
 10
2.2586777275
 20
-15.0279196879
 10
2.2785375498
 20
-14.9929464265
 10
2.2957259275
 20
-14.95680751
 10
2.3101328204
 20
-14.9193829587
 10
2.3218682688
 20
-14.8807927524
 10
2.3309594135
 20
-14.8415842979
 10
2.3374153013
 20
-14.8019400642
 10
2.3412268854
 20
-14.7616775823
 10
2.3423941657
 20
-14.7207968523
  0
LWPOLYLINE
  5
3FC
100
AcDbEntity
  8
IMPORT_IGES
100
AcDbPolyline
 62
7
  6
CONTINUOUS
 90
10
 70
0
 10
-5.8451229553
 20
-19.9808589893
 10
-5.8240466354
 20
-19.9607603743
 10
-5.8031095949
 20
-19.9415932367
 10
-5.7823118337
 20
-19.9233575766
 10
-5.7617107025
 20
-19.9059164547
 10
-5.7412488507
 20
-19.8894068102
 10
-5.7207542257
 20
-19.8742394607
 10
-5.7001694769
 20
-19.8605513454
 10
-5.679551955
 20
-19.848205525
 10
-5.6589016599
 20
-19.8372019995
  0
LWPOLYLINE
  5
3FD
100
AcDbEntity
  8
IMPORT_IGES
100
AcDbPolyline
 62
7
  6
CONTINUOUS
 90
10
 70
0
 10
0.456574763
 20
-15.0164191587
 10
0.4310726708
 20
-15.0403217153
 10
0.4038862763
 20
-15.0615758837
 10
0.3750155794
 20
-15.080181664
 10
0.3442691611
 20
-15.0962522724
 10
0.3118384405
 20
-15.1096744926
 10
0.2782976745
 20
-15.1201086759
 10
0.2438382819
 20
-15.1274416062
 10
0.2082688438
 20
-15.1317864997
 10
0.1715893602
 20
-15.1331433564
  0
LWPOLYLINE
  5
3FE
100
AcDbEntity
  8
IMPORT_IGES
100
AcDbPolyline
 62
7
  6
CONTINUOUS
 90
10
 70
0
 10
1.9716158759
 20
-15.0164191587
 10
1.9461137983
 20
-15.0403217069
 10
1.9189274086
 20
-15.0615758703
 10
1.8900567069
 20
-15.0801816486
 10
1.8593102745
 20
-15.0962522598
 10
1.8268795301
 20
-15.109674486
 10
1.793338729
 20
-15.1201086741
 10
1.7588792896
 20
-15.1274416063
 10
1.7233097935
 20
-15.1317865004
 10
1.6866302406
 20
-15.1331433564
  0
LWPOLYLINE
  5
3FF
100
AcDbEntity
  8
IMPORT_IGES
100
AcDbPolyline
 62
7
  6
CONTINUOUS
 90
10
 70
0
 10
3.2415755003
 20
-13.7710682984
 10
3.2204217649
 20
-13.7905361725
 10
3.1982158473
 20
-13.8097171568
 10
3.1749577474
 20
-13.828611251
 10
3.1506068296
 20
-13.8471980795
 10
3.1252037296
 20
-13.8654980181
 10
3.0988703541
 20
-13.8835721941
 10
3.0716473388
 20
-13.9014409833
 10
3.0434940481
 20
-13.91908401
 10
3.0144104819
 20
-13.9365012741
  0
LWPOLYLINE
  5
400
100
AcDbEntity
  8
IMPORT_IGES
100
AcDbPolyline
 62
7
  6
CONTINUOUS
 90
10
 70
0
 10
3.1139163252
 20
-13.5995194589
 10
3.1450831303
 20
-13.5709309094
 10
3.1744230937
 20
-13.5422214293
 10
3.2019362154
 20
-13.5133910187
 10
3.2276945591
 20
-13.4844062793
 10
3.2516260611
 20
-13.4553006093
 10
3.27351453
 20
-13.4261742037
 10
3.2932879017
 20
-13.3970604606
 10
3.3110182403
 20
-13.3679259819
 10
3.3267055456
 20
-13.3387707675
  0
LWPOLYLINE
  5
401
100
AcDbEntity
  8
IMPORT_IGES
100
AcDbPolyline
 62
7
  6
CONTINUOUS
 90
10
 70
0
 10
1.2889154152
 20
-13.4717858816
 10
1.2565767608
 20
-13.5014316311
 10
1.2266636711
 20
-13.5341377642
 10
1.1991761461
 20
-13.5699042811
 10
1.173958445
 20
-13.6088994579
 10
1.1511663085
 20
-13.6509550183
 10
1.1312669593
 20
-13.6955661338
 10
1.1144161381
 20
-13.7425645279
 10
1.1004581041
 20
-13.7921184771
 10
1.0893928573
 20
-13.8442279811
  0
LWPOLYLINE
  5
402
100
AcDbEntity
  8
IMPORT_IGES
100
AcDbPolyline
 62
7
  6
CONTINUOUS
 90
10
 70
0
 10
-0.9763301126
 20
-15.2156127264
 10
-0.9471271561
 20
-15.1898151847
 10
-0.9192717058
 20
-15.1613455836
 10
-0.8927637618
 20
-15.1302039229
 10
-0.8674766263
 20
-15.0963055276
 10
-0.843536997
 20
-15.0597350729
 10
-0.8213249676
 20
-15.0207465841
 10
-0.8009672359
 20
-14.9794247367
 10
-0.7823371041
 20
-14.9356848552
 10
-0.7654345721
 20
-14.8895269399
  0
LWPOLYLINE
  5
403
100
AcDbEntity
  8
IMPORT_IGES
100
AcDbPolyline
 62
7
  6
CONTINUOUS
 90
10
 70
0
 10
-0.0668224538
 20
-13.6230918187
 10
-0.046564111
 20
-13.6055955698
 10
-0.0247897228
 20
-13.5899730727
 10
-0.0014992894
 20
-13.5762243273
 10
0.0234483505
 20
-13.5642547984
 10
0.0499120357
 20
-13.5541590212
 10
0.0774682827
 20
-13.5462206015
 10
0.1059759303
 20
-13.5405340745
 10
0.1355761397
 20
-13.5370049049
 10
0.1662689109
 20
-13.5356330927
  0
LWPOLYLINE
  5
404
100
AcDbEntity
  8
IMPORT_IGES
100
AcDbPolyline
 62
7
  6
CONTINUOUS
 90
10
 70
0
 10
1.4482185486
 20
-13.6230917032
 10
1.4684768594
 20
-13.6055954812
 10
1.4902512198
 20
-13.5899730072
 10
1.51354163
 20
-13.5762242811
 10
1.5384892507
 20
-13.5642547675
 10
1.5649529211
 20
-13.5541590018
 10
1.5925091586
 20
-13.5462205908
 10
1.6210168024
 20
-13.5405340701
 10
1.6506170133
 20
-13.5370049041
 10
1.6813097914
 20
-13.5356330927
  0
LWPOLYLINE
  5
405
100
AcDbEntity
  8
IMPORT_IGES
100
AcDbPolyline
 62
7
  6
CONTINUOUS
 90
13
 70
0
 10
0.3629339056
 20
-14.0860110116
 10
0.3813153856
 20
-14.0731128847
 10
0.3983255528
 20
-14.0588731337
 10
0.4139644073
 20
-14.0432917584
 10
0.4282959897
 20
-14.026387591
 10
0.4412562594
 20
-14.0081417994
 10
0.452653094
 20
-13.9884978875
 10
0.4625081167
 20
-13.9674712252
 10
0.4707997045
 20
-13.9450464427
 10
0.4772708657
 20
-13.9211209337
 10
0.4818359365
 20
-13.8956604964
 10
0.4845805808
 20
-13.8686993326
 10
0.4855047986
 20
-13.8402374425
  0
LWPOLYLINE
  5
406
100
AcDbEntity
  8
IMPORT_IGES
100
AcDbPolyline
 62
7
  6
CONTINUOUS
 90
13
 70
0
 10
1.877974949
 20
-14.0860109047
 10
1.8963563897
 20
-14.0731127744
 10
1.9133665273
 20
-14.0588730249
 10
1.929005362
 20
-14.0432916561
 10
1.9433369347
 20
-14.0263875017
 10
1.9562972045
 20
-14.0081417281
 10
1.9676940482
 20
-13.9884978344
 10
1.9775490917
 20
-13.9674711911
 10
1.9858407092
 20
-13.9450464277
 10
1.9923119
 20
-13.9211209324
 10
1.9968769972
 20
-13.8956605011
 10
1.9996216677
 20
-13.8686993378
 10
2.0005459115
 20
-13.8402374425
  0
LWPOLYLINE
  5
407
100
AcDbEntity
  8
0
100
AcDbPolyline
 62
253
  6
CONTINUOUS
 90
13
 70
0
 10
15.152173913
 20
-5.7131609061
 10
15.144670703
 20
-5.7179622739
 10
15.1377038831
 20
-5.7232978399
 10
15.131266671
 20
-5.7291798098
 10
15.1253097263
 20
-5.735685358
 10
15.1198728097
 20
-5.7427579335
 10
15.1150922303
 20
-5.7502097635
 10
15.1110075727
 20
-5.7580569512
 10
15.1075957849
 20
-5.7663019341
 10
15.1049127208
 20
-5.7747370025
 10
15.1029897902
 20
-5.7832964876
 10
15.1018293109
 20
-5.7920561773
 10
15.1014492754
 20
-5.8010185557
  0
LWPOLYLINE
  5
408
100
AcDbEntity
  8
IMPORT_IGES
100
AcDbPolyline
 62
7
  6
CONTINUOUS
 90
10
 70
0
 10
0.3629339056
 20
-14.0860110116
 10
0.335731668
 20
-14.1024412591
 10
0.307611616
 20
-14.1170219012
 10
0.2785737496
 20
-14.1297529378
 10
0.2485174142
 20
-14.1406778212
 10
0.2175432644
 20
-14.1497530991
 10
0.1859532641
 20
-14.1568484154
 10
0.1538480681
 20
-14.1619203182
 10
0.1211270217
 20
-14.1650122594
 10
0.0877901249
 20
-14.1661242391
  0
LWPOLYLINE
  5
409
100
AcDbEntity
  8
IMPORT_IGES
100
AcDbPolyline
 62
7
  6
CONTINUOUS
 90
10
 70
0
 10
1.877974949
 20
-14.0860109047
 10
1.8507727695
 20
-14.1024411627
 10
1.8226527564
 20
-14.1170218166
 10
1.7936149099
 20
-14.1297528664
 10
1.7635585751
 20
-14.1406777654
 10
1.7325844068
 20
-14.1497530604
 10
1.7009943693
 20
-14.1568483912
 10
1.6688891173
 20
-14.1619203046
 10
1.636167996
 20
-14.1650122539
 10
1.6028310054
 20
-14.1661242391
  0
LWPOLYLINE
  5
40A
100
AcDbEntity
  8
0
100
AcDbPolyline
 62
7
  6
CONTINUOUS
 90
8
 70
0
 10
14.110258817
 20
-6.2960782723
 10
14.1219319583
 20
-6.2892617371
 10
14.1333640554
 20
-6.2822426075
 10
14.1444170695
 20
-6.2751144726
 10
14.1550030202
 20
-6.2681400053
 10
14.1649526002
 20
-6.2614104445
 10
14.1740347847
 20
-6.2548546753
 10
14.1820497524
 20
-6.248492387
  0
LINE
  5
40B
100
AcDbEntity
  8
0
100
AcDbLine
 62
253
  6
CONTINUOUS
 10
15.8623188406
 20
-4.1317232122
 11
16.5141651337
 21
-3.7553795794
  0
LINE
  5
40C
100
AcDbEntity
  8
0
100
AcDbLine
 62
7
  6
CONTINUOUS
 10
15.9
 20
-4.2271115176
 11
16.449069357
 21
-3.9101061765
  0
LINE
  5
40D
100
AcDbEntity
  8
0
100
AcDbLine
 62
7
  6
CONTINUOUS
 10
16.7089144185
 20
-4.683844991
 11
15.1
 21
-5.6127521636
  0
LINE
  5
40E
100
AcDbEntity
  8
0
100
AcDbLine
 62
253
  6
CONTINUOUS
 10
16.7384001476
 20
-4.7973527625
 11
15.2958702949
 21
-5.6301977614
  0
LINE
  5
40F
100
AcDbEntity
  8
0
100
AcDbLine
 62
253
  6
CONTINUOUS
 10
15.2958702949
 20
-5.6301977614
 11
15.152173913
 21
-5.7131609061
  0
LINE
  5
410
100
AcDbEntity
  8
0
100
AcDbLine
 62
7
  6
CONTINUOUS
 10
14.0869565217
 20
-6.3093581595
 11
14.110258817
 21
-6.2960782723
  0
LWPOLYLINE
  5
411
100
AcDbEntity
  8
IMPORT_IGES
100
AcDbPolyline
 62
7
  6
CONTINUOUS
 90
10
 70
0
 10
-11.038187733
 20
-19.6932628508
 10
-11.0173965948
 20
-19.6824092711
 10
-10.9959546411
 20
-19.6727767921
 10
-10.9738618718
 20
-19.6643654139
 10
-10.951060623
 20
-19.6571455238
 10
-10.9276085586
 20
-19.6511467344
 10
-10.9036786702
 20
-19.6464578841
 10
-10.8793286218
 20
-19.6431085857
 10
-10.8545007495
 20
-19.6410692264
 10
-10.8291950533
 20
-19.6403398062
  0
LWPOLYLINE
  5
412
100
AcDbEntity
  8
IMPORT_IGES
100
AcDbPolyline
 62
7
  6
CONTINUOUS
 90
10
 70
0
 10
0.4628922031
 20
-14.2406126525
 10
0.4927475779
 20
-14.2259112193
 10
0.520741077
 20
-14.2102002285
 10
0.5468727004
 20
-14.1934796801
 10
0.5711727451
 20
-14.1756118525
 10
0.5936109142
 20
-14.1567344673
 10
0.6140963165
 20
-14.1372606892
 10
0.632598655
 20
-14.1173282399
 10
0.6491482268
 20
-14.0967993978
 10
0.6637450319
 20
-14.0756741628
  0
LWPOLYLINE
  5
413
100
AcDbEntity
  8
0
100
AcDbPolyline
 62
253
  6
CONTINUOUS
 90
13
 70
0
 10
15.152173913
 20
-5.7131609061
 10
15.1450657661
 20
-5.700935097
 10
15.1380565786
 20
-5.688677438
 10
15.1312870433
 20
-5.6766339653
 10
15.1248930519
 20
-5.6650464319
 10
15.1190029614
 20
-5.6541474459
 10
15.1137350186
 20
-5.6441558027
 10
15.1091949841
 20
-5.6352720877
 10
15.1054740337
 20
-5.6276746962
 10
15.1026469065
 20
-5.6215162186
 10
15.1007703759
 20
-5.616920319
 10
15.099882124
 20
-5.6139792764
 10
15.1000000003
 20
-5.6127521634
  0
LWPOLYLINE
  5
414
100
AcDbEntity
  8
0
100
AcDbPolyline
 62
253
  6
CONTINUOUS
 90
13
 70
0
 10
15.8623188406
 20
-4.1317232122
 10
15.8688218887
 20
-4.1431917844
 10
15.8749969273
 20
-4.1546136032
 10
15.8807363441
 20
-4.1657896205
 10
15.885940118
 20
-4.1765250715
 10
15.8905175629
 20
-4.1866328695
 10
15.8943889076
 20
-4.1959368656
 10
15.897486686
 20
-4.204274919
 10
15.8997569132
 20
-4.2115017223
 10
15.901160026
 20
-4.2174913338
 10
15.9016715724
 20
-4.2221393726
 10
15.9012826378
 20
-4.2253648372
 10
15.9
 20
-4.2271115176
  0
LWPOLYLINE
  5
415
100
AcDbEntity
  8
0
100
AcDbPolyline
 62
253
  6
CONTINUOUS
 90
16
 70
0
 10
16.7384001476
 20
-4.7973527625
 10
16.732901885
 20
-4.7874715173
 10
16.7271550546
 20
-4.7777079609
 10
16.721233526
 20
-4.7681875989
 10
16.7152134199
 20
-4.7590328188
 10
16.7091721166
 20
-4.7503612972
 10
16.703187261
 20
-4.7422844902
 10
16.6973357826
 20
-4.7349062261
 10
16.6916929096
 20
-4.728321371
 10
16.6863311879
 20
-4.7226145895
 10
16.6813195429
 20
-4.7178592517
 10
16.6767224109
 20
-4.714116508
 10
16.6725989094
 20
-4.7114344945
 10
16.6690020531
 20
-4.7098476946
 10
16.6659780778
 20
-4.7093765073
 10
16.6635658598
 20
-4.7100269935
  0
LWPOLYLINE
  5
416
100
AcDbEntity
  8
IMPORT_IGES
100
AcDbPolyline
 62
253
  6
CONTINUOUS
 90
3
 70
0
 10
17.7958830095
 20
-39.1418117377
 10
17.7988544871
 20
-39.1576905352
 10
17.8004547802
 20
-39.1651883826
  0
LINE
  5
417
100
AcDbEntity
  8
IMPORT_IGES
100
AcDbLine
 62
253
  6
CONTINUOUS
 10
17.7858471233
 20
-39.0850022955
 11
17.7958830095
 21
-39.1418117377
  0
LINE
  5
418
100
AcDbEntity
  8
IMPORT_IGES
100
AcDbLine
 62
253
  6
CONTINUOUS
 10
17.7385982226
 20
-38.8067450603
 11
17.7858471233
 21
-39.0850022955
  0
LINE
  5
419
100
AcDbEntity
  8
IMPORT_IGES
100
AcDbLine
 62
253
  6
CONTINUOUS
 10
17.4774122001
 20
-37.2270751789
 11
17.7385982226
 21
-38.8067450603
  0
LWPOLYLINE
  5
41A
100
AcDbEntity
  8
0
100
AcDbPolyline
 62
253
  6
CONTINUOUS
 90
13
 70
0
 10
14.0869565217
 20
-4.3952961612
 10
14.0865500244
 20
-4.3863975263
 10
14.0854127024
 20
-4.3776963146
 10
14.0835373766
 20
-4.3691805494
 10
14.080881883
 20
-4.3607689126
 10
14.0774753155
 20
-4.352524114
 10
14.0734121331
 20
-4.3446580908
 10
14.0686585966
 20
-4.3371970727
 10
14.0632241225
 20
-4.3301198769
 10
14.0572606672
 20
-4.3235787329
 10
14.0508093971
 20
-4.3176336779
 10
14.0438035186
 20
-4.3122488242
 10
14.0362318841
 20
-4.3074385115
  0
LWPOLYLINE
  5
41B
100
AcDbEntity
  8
0
100
AcDbPolyline
 62
7
  6
CONTINUOUS
 90
8
 70
0
 10
14.1030928223
 20
-3.2015125363
 10
14.1031595443
 20
-3.2150300408
 10
14.1035222403
 20
-3.2284400921
 10
14.1041688792
 20
-3.2415763506
 10
14.1049159697
 20
-3.2542312865
 10
14.1057691503
 20
-3.2662126558
 10
14.1069055207
 20
-3.277355943
 10
14.1084079401
 20
-3.2874782528
  0
LINE
  5
41C
100
AcDbEntity
  8
0
100
AcDbLine
 62
7
  6
CONTINUOUS
 10
14.2
 20
-4.4003165983
 11
14.2
 21
-6.2057669384
  0
LINE
  5
41D
100
AcDbEntity
  8
0
100
AcDbLine
 62
7
  6
CONTINUOUS
 10
15.0
 20
-5.7859572444
 11
15.0
 21
-6.4199679265
  0
LINE
  5
41E
100
AcDbEntity
  8
0
100
AcDbLine
 62
253
  6
CONTINUOUS
 10
15.1014492754
 20
-5.8010185557
 11
15.1014492754
 21
-6.5537058214
  0
LINE
  5
41F
100
AcDbEntity
  8
0
100
AcDbLine
 62
253
  6
CONTINUOUS
 10
14.0869565217
 20
-6.3093581595
 11
14.0869565217
 21
-4.5106244707
  0
LWPOLYLINE
  5
420
100
AcDbEntity
  8
0
100
AcDbPolyline
 62
253
  6
CONTINUOUS
 90
3
 70
0
 10
14.0869565217
 20
-4.5106244707
 10
14.087040616
 20
-4.4719495461
 10
14.0869565217
 20
-4.3952961612
  0
LINE
  5
421
100
AcDbEntity
  8
0
100
AcDbLine
 62
7
  6
CONTINUOUS
 10
14.1032432503
 20
-3.1746922131
 11
14.1030928223
 21
-3.2015125363
  0
LWPOLYLINE
  5
422
100
AcDbEntity
  8
0
100
AcDbPolyline
 62
7
  6
CONTINUOUS
 90
10
 70
0
 10
14.2
 20
-6.2057669384
 10
14.1997202355
 20
-6.2120000552
 10
14.1990063673
 20
-6.2178725223
 10
14.1978516237
 20
-6.2233841279
 10
14.1962236265
 20
-6.2285466478
 10
14.1941426009
 20
-6.233346513
 10
14.1916814134
 20
-6.2377456939
 10
14.1888613417
 20
-6.2417311458
 10
14.1856520353
 20
-6.2453139043
 10
14.1820497524
 20
-6.248492387
  0
LINE
  5
423
100
AcDbEntity
  8
IMPORT_IGES
100
AcDbLine
 62
253
  6
CONTINUOUS
 10
20.9544458524
 20
38.413276568
 11
21.2381794368
 21
40.3923557249
  0
LWPOLYLINE
  5
424
100
AcDbEntity
  8
0
100
AcDbPolyline
 62
7
  6
CONTINUOUS
 90
10
 70
0
 10
16.4749939294
 20
-3.8814317148
 10
16.473032462
 20
-3.8853315187
 10
16.4708396496
 20
-3.8890824434
 10
16.4684125651
 20
-3.892672897
 10
16.4657403085
 20
-3.8960979647
 10
16.4628290026
 20
-3.8993400356
 10
16.4597031325
 20
-3.9023709893
 10
16.4563716483
 20
-3.9051772745
 10
16.4528266642
 20
-3.9077578288
 10
16.449069357
 20
-3.9101061765
  0
LWPOLYLINE
  5
425
100
AcDbEntity
  8
0
100
AcDbPolyline
 62
253
  6
CONTINUOUS
 90
13
 70
0
 10
15.7608695652
 20
-4.1317232122
 10
15.7538357782
 20
-4.1439919512
 10
15.7467249285
 20
-4.1561909142
 10
15.7396797432
 20
-4.1680752393
 10
15.7328416409
 20
-4.1794063646
 10
15.7263478874
 20
-4.1899568256
 10
15.7203288418
 20
-4.1995148199
 10
15.7149053358
 20
-4.2078884632
 10
15.7101862766
 20
-4.2149095973
 10
15.7062664417
 20
-4.2204372007
 10
15.7032245408
 20
-4.2243602743
 10
15.701121649
 20
-4.2266000447
 10
15.6999999997
 20
-4.2271115174
  0
LWPOLYLINE
  5
426
100
AcDbEntity
  8
0
100
AcDbPolyline
 62
253
  6
CONTINUOUS
 90
13
 70
0
 10
14.0362318841
 20
-4.3074385115
 10
14.0429124349
 20
-4.2960724206
 10
14.0497165008
 20
-4.2850137708
 10
14.0565255073
 20
-4.2744552815
 10
14.0632207936
 20
-4.2645809555
 10
14.069685681
 20
-4.255562873
 10
14.0758075056
 20
-4.2475581921
 10
14.0814795825
 20
-4.2407064106
 10
14.0866030641
 20
-4.2351269346
 10
14.0910886635
 20
-4.2309169975
 10
14.0948582099
 20
-4.2281499659
 10
14.0978460116
 20
-4.2268740608
 10
14.1
 20
-4.2271115176
  0
LINE
  5
427
100
AcDbEntity
  8
IMPORT_IGES
100
AcDbLine
 62
253
  6
CONTINUOUS
 10
-17.9902941742
 20
-39.3553851392
 11
-17.8959862874
 21
-39.2599890649
  0
LINE
  5
428
100
AcDbEntity
  8
IMPORT_IGES
100
AcDbLine
 62
7
  6
CONTINUOUS
 10
7.0255238568
 20
-13.5129085049
 11
7.1161548142
 21
-13.4222786329
  0
LWPOLYLINE
  5
429
100
AcDbEntity
  8
IMPORT_IGES
100
AcDbPolyline
 62
253
  6
CONTINUOUS
 90
3
 70
0
 10
-17.8959862874
 20
-39.2599890649
 10
-17.8324003903
 20
-39.1965062155
 10
-17.8003932196
 20
-39.1647989664
  0
LWPOLYLINE
  5
42A
100
AcDbEntity
  8
IMPORT_IGES
100
AcDbPolyline
 62
253
  6
CONTINUOUS
 90
3
 70
0
 10
-18.0858739895
 20
-39.4505610954
 10
-18.0538727426
 20
-39.4188603368
 10
-17.9902941742
 20
-39.3553851392
  0
LWPOLYLINE
  5
42B
100
AcDbEntity
  8
IMPORT_IGES
100
AcDbPolyline
 62
7
  6
CONTINUOUS
 90
10
 70
0
 10
3.0144104819
 20
-13.9365012741
 10
2.9855722496
 20
-13.9534616257
 10
2.956953016
 20
-13.96963626
 10
2.9285527811
 20
-13.9850251769
 10
2.9003726088
 20
-13.999670835
 10
2.8724114352
 20
-14.0135307758
 10
2.8446660686
 20
-14.0264776239
 10
2.817135445
 20
-14.0384689208
 10
2.7898206283
 20
-14.0495471251
 10
2.7627216186
 20
-14.0597122367
  0
LWPOLYLINE
  5
42C
100
AcDbEntity
  8
IMPORT_IGES
100
AcDbPolyline
 62
7
  6
CONTINUOUS
 90
10
 70
0
 10
-4.6493176309
 20
-19.6749235233
 10
-4.6701372672
 20
-19.6860338736
 10
-4.6907592148
 20
-19.695798464
 10
-4.7111834739
 20
-19.7042172945
 10
-4.7314847294
 20
-19.7112781223
 10
-4.7515882962
 20
-19.7169931902
 10
-4.7712701194
 20
-19.721399227
 10
-4.7904555141
 20
-19.7245084756
 10
-4.8092191651
 20
-19.7263086931
 10
-4.8275610726
 20
-19.7267998794
  0
LWPOLYLINE
  5
42D
100
AcDbEntity
  8
IMPORT_IGES
100
AcDbPolyline
 62
7
  6
CONTINUOUS
 90
10
 70
0
 10
1.977933316
 20
-14.2406126524
 10
2.0077885263
 20
-14.2259112345
 10
2.0357818978
 20
-14.2102002561
 10
2.0619134305
 20
-14.1934797171
 10
2.0862134216
 20
-14.1756119013
 10
2.108651574
 20
-14.1567345249
 10
2.1291369954
 20
-14.1372607372
 10
2.1476393885
 20
-14.1173282548
 10
2.1641890507
 20
-14.0967993612
 10
2.1787859819
 20
-14.0756740564
  0
LWPOLYLINE
  5
42E
100
AcDbEntity
  8
IMPORT_IGES
100
AcDbPolyline
 62
7
  6
CONTINUOUS
 90
10
 70
0
 10
2.7627216186
 20
-13.8282664056
 10
2.8085847648
 20
-13.8057838193
 10
2.8527453656
 20
-13.7825140479
 10
2.8952034212
 20
-13.7584570916
 10
2.9359693753
 20
-13.7335412838
 10
2.975032784
 20
-13.707838291
 10
3.0123623165
 20
-13.6815631122
 10
3.047947529
 20
-13.6547874137
 10
3.0817988652
 20
-13.6274395293
 10
3.1139163252
 20
-13.5995194589
  0
LWPOLYLINE
  5
42F
100
AcDbEntity
  8
IMPORT_IGES
100
AcDbPolyline
 62
7
  6
CONTINUOUS
 90
10
 70
0
 10
-5.6589016599
 20
-19.8372019995
 10
-5.6412144036
 20
-19.8293532114
 10
-5.6234447928
 20
-19.8224328977
 10
-5.6055928276
 20
-19.8164410586
 10
-5.587613984
 20
-19.8113788117
 10
-5.569552786
 20
-19.8072450393
 10
-5.5515428048
 20
-19.8040363882
 10
-5.5336285644
 20
-19.8017517408
 10
-5.5157655408
 20
-19.8003922147
 10
-5.4979537341
 20
-19.7999578099
  0
LWPOLYLINE
  5
430
100
AcDbEntity
  8
IMPORT_IGES
100
AcDbPolyline
 62
7
  6
CONTINUOUS
 90
10
 70
0
 10
-4.6572991461
 20
-19.9422840372
 10
-4.6381416777
 20
-19.9339403933
 10
-4.6189475232
 20
-19.9244535566
 10
-4.5997166829
 20
-19.9138235269
 10
-4.5804188625
 20
-19.9020308768
 10
-4.5610843561
 20
-19.8890950338
 10
-4.5418040462
 20
-19.8750742804
 10
-4.5226082267
 20
-19.8599880439
 10
-4.5034666035
 20
-19.843816897
 10
-4.4843791768
 20
-19.8265608396
  0
LINE
  5
431
100
AcDbEntity
  8
IMPORT_IGES
100
AcDbLine
 62
7
  6
CONTINUOUS
 10
8.5302107036
 20
-13.7889459665
 11
8.7182912976
 21
-13.7171372707
  0
LINE
  5
432
100
AcDbEntity
  8
IMPORT_IGES
100
AcDbLine
 62
253
  6
CONTINUOUS
 10
-23.2934535189
 20
38.7074404334
 11
-22.9537604783
 21
38.4132765949
  0
LWPOLYLINE
  5
433
100
AcDbEntity
  8
0
100
AcDbPolyline
 62
253
  6
CONTINUOUS
 90
10
 70
0
 10
16.8086006748
 20
-4.6801769032
 10
16.8086440659
 20
-4.6872751861
 10
16.8081807309
 20
-4.6944768682
 10
16.8072094055
 20
-4.701776032
 10
16.8057409134
 20
-4.7091865538
 10
16.8037617523
 20
-4.716682313
 10
16.8012349158
 20
-4.724196932
 10
16.7981480779
 20
-4.7317037177
 10
16.7945127765
 20
-4.7392159203
 10
16.7903285716
 20
-4.7467267598
  0
LWPOLYLINE
  5
434
100
AcDbEntity
  8
0
100
AcDbPolyline
 62
7
  6
CONTINUOUS
 90
8
 70
0
 10
16.4845621853
 20
-3.8574099572
 10
16.4896076649
 20
-3.8441109886
 10
16.4943589316
 20
-3.8300499991
 10
16.498737588
 20
-3.8154177966
 10
16.5030005952
 20
-3.8005284134
 10
16.5071519224
 20
-3.7855389751
 10
16.5109134325
 20
-3.770462601
 10
16.5141651337
 20
-3.7553795794
  0
LINE
  5
435
100
AcDbEntity
  8
0
100
AcDbLine
 62
7
  6
CONTINUOUS
 10
16.4749939294
 20
-3.8814317148
 11
16.4845621853
 21
-3.8574099572
  0
LWPOLYLINE
  5
436
100
AcDbEntity
  8
0
100
AcDbPolyline
 62
253
  6
CONTINUOUS
 90
10
 70
0
 10
16.7903285716
 20
-4.7467267598
 10
16.7860436841
 20
-4.7533937487
 10
16.7813567003
 20
-4.7598352364
 10
16.7762696919
 20
-4.7660485218
 10
16.7707502389
 20
-4.7720718436
 10
16.7648344076
 20
-4.7778618273
 10
16.7586281468
 20
-4.7832959793
 10
16.7521691995
 20
-4.7883349753
 10
16.7454257018
 20
-4.7930201632
 10
16.7384001476
 20
-4.7973527625
  0
LINE
  5
437
100
AcDbEntity
  8
IMPORT_IGES
100
AcDbLine
 62
7
  6
CONTINUOUS
 10
11.1855808646
 20
-15.1205398078
 11
11.2696401775
 21
-15.0364786322
  0
LINE
  5
438
100
AcDbEntity
  8
IMPORT_IGES
100
AcDbLine
 62
7
  6
CONTINUOUS
 10
11.1214946955
 20
-15.1846259768
 11
9.9999997765
 21
-16.3061208959
  0
LINE
  5
439
100
AcDbEntity
  8
IMPORT_IGES
100
AcDbLine
 62
7
  6
CONTINUOUS
 10
12.8838447854
 20
-13.4222768183
 11
11.7824597971
 21
-14.5236620116
  0
LINE
  5
43A
100
AcDbEntity
  8
IMPORT_IGES
100
AcDbLine
 62
7
  6
CONTINUOUS
 10
8.8509638142
 20
-17.4551606329
 11
7.0255238142
 21
-19.2805996329
  0
LINE
  5
43B
100
AcDbEntity
  8
IMPORT_IGES
100
AcDbLine
 62
7
  6
CONTINUOUS
 10
11.3401403651
 20
-14.9659812386
 11
11.7183737457
 21
-14.5877487893
  0
LINE
  5
43C
100
AcDbEntity
  8
IMPORT_IGES
100
AcDbLine
 62
7
  6
CONTINUOUS
 10
9.9093699828
 20
-16.3967534836
 11
8.9101186022
 21
-17.3960030015
  0
LINE
  5
43D
100
AcDbEntity
  8
IMPORT_IGES
100
AcDbLine
 62
7
  6
CONTINUOUS
 10
8.9247003198
 20
-17.5626836653
 11
9.9999997765
 21
-16.4873823459
  0
LINE
  5
43E
100
AcDbEntity
  8
IMPORT_IGES
100
AcDbLine
 62
7
  6
CONTINUOUS
 10
11.826435104
 20
-14.6609470184
 11
11.3228661939
 21
-15.1645168598
  0
LINE
  5
43F
100
AcDbEntity
  8
IMPORT_IGES
100
AcDbLine
 62
7
  6
CONTINUOUS
 10
11.2522616983
 20
-15.2351185615
 11
10.0906305015
 21
-16.3967497583
  0
LINE
  5
440
100
AcDbEntity
  8
IMPORT_IGES
100
AcDbLine
 62
7
  6
CONTINUOUS
 10
11.890521
 20
-14.5968618087
 11
12.974476
 21
-13.5129068087
  0
LINE
  5
441
100
AcDbEntity
  8
IMPORT_IGES
100
AcDbLine
 62
7
  6
CONTINUOUS
 10
7.1161545818
 20
-19.3712292477
 11
8.8655458142
 21
-17.6218396329
  0
LWPOLYLINE
  5
442
100
AcDbEntity
  8
IMPORT_IGES
100
AcDbPolyline
 62
7
  6
CONTINUOUS
 90
8
 70
0
 10
11.266040632
 20
-13.7228883536
 10
11.2539610496
 20
-13.7337099519
 10
11.2421971429
 20
-13.7454363533
 10
11.2306749105
 20
-13.7580597396
 10
11.2191334229
 20
-13.7715891119
 10
11.2074857035
 20
-13.7860274704
 10
11.195818729
 20
-13.8013718148
 10
11.1841324992
 20
-13.8176221452
  0
LWPOLYLINE
  5
443
100
AcDbEntity
  8
IMPORT_IGES
100
AcDbPolyline
 62
7
  6
CONTINUOUS
 90
60
 70
0
 10
11.6021361543
 20
-14.1866796393
 10
11.6172537759
 20
-14.1733795677
 10
11.6313916883
 20
-14.1600132057
 10
11.6445498916
 20
-14.1465805534
 10
11.6567254075
 20
-14.1331115616
 10
11.6679212142
 20
-14.1195762794
 10
11.6781462464
 20
-14.1058848543
 10
11.6873757306
 20
-14.0920050806
 10
11.6956344404
 20
-14.0779691639
 10
11.7030056312
 20
-14.0637838689
 10
11.709518984
 20
-14.049445589
 10
11.7151448179
 20
-14.0349579308
 10
11.7198773457
 20
-14.0203384792
 10
11.723685555
 20
-14.005574733
 10
11.7266004582
 20
-13.9906791932
 10
11.7287093053
 20
-13.9757069477
 10
11.730030713
 20
-13.9606240537
 10
11.7305460645
 20
-13.9454644538
 10
11.7302867596
 20
-13.9303850642
 10
11.7292693124
 20
-13.9154130022
 10
11.7274772087
 20
-13.9005211504
 10
11.7248923056
 20
-13.8857850737
 10
11.7215150055
 20
-13.8711851148
 10
11.717344906
 20
-13.856740931
 10
11.7123626572
 20
-13.8425870581
 10
11.7065576535
 20
-13.8287628808
 10
11.6999405005
 20
-13.8152290146
 10
11.6925236655
 20
-13.8020018409
 10
11.6842984902
 20
-13.7890660722
 10
11.6752736329
 20
-13.7764369962
 10
11.6654875359
 20
-13.7641768566
 10
11.6548933008
 20
-13.7522365702
 10
11.6435378261
 20
-13.7406652203
 10
11.6316002483
 20
-13.7296723006
 10
11.6190267813
 20
-13.7192394155
 10
11.6058712113
 20
-13.7093849607
 10
11.5924740341
 20
-13.7003736164
 10
11.5789303607
 20
-13.6922890648
 10
11.5651450802
 20
-13.6850476239
 10
11.551173356
 20
-13.6786629273
 10
11.5370452665
 20
-13.6731441044
 10
11.5227307334
 20
-13.6684820258
 10
11.5081946847
 20
-13.6646629381
 10
11.4933824085
 20
-13.6616898838
 10
11.4783486168
 20
-13.6595598203
 10
11.4632223733
 20
-13.6582498653
 10
11.4479684236
 20
-13.6577681028
 10
11.4326220221
 20
-13.6581064489
 10
11.417417996
 20
-13.6592177685
 10
11.402403567
 20
-13.6610917475
 10
11.3875315133
 20
-13.6637387
 10
11.3728949971
 20
-13.6671424337
 10
11.3584971006
 20
-13.6712798173
 10
11.3443347416
 20
-13.676173982
 10
11.330491835
 20
-13.6818781282
 10
11.3170093035
 20
-13.6883918068
 10
11.3038462245
 20
-13.6957154668
 10
11.2909637448
 20
-13.7039036565
 10
11.2783618887
 20
-13.7129637402
 10
11.266040632
 20
-13.7228883536
  0
LINE
  5
444
100
AcDbEntity
  8
IMPORT_IGES
100
AcDbLine
 62
7
  6
CONTINUOUS
 10
-21.2392109918
 20
40.3923008312
 11
-21.5807760991
 21
40.6860151421
  0
LINE
  5
445
100
AcDbEntity
  8
IMPORT_IGES
100
AcDbLine
 62
253
  6
CONTINUOUS
 10
20.954445828
 20
1.7325902762
 11
20.954445828
 21
38.4132765681
  0
LINE
  5
446
100
AcDbEntity
  8
IMPORT_IGES
100
AcDbLine
 62
7
  6
CONTINUOUS
 10
23.2091896865
 20
33.4798968782
 11
23.2056018049
 21
33.0858320467
  0
LINE
  5
447
100
AcDbEntity
  8
IMPORT_IGES
100
AcDbLine
 62
7
  6
CONTINUOUS
 10
23.2139055232
 20
33.8566839719
 11
23.2091896865
 21
33.4798968782
  0
LINE
  5
448
100
AcDbEntity
  8
IMPORT_IGES
100
AcDbLine
 62
7
  6
CONTINUOUS
 10
23.2196887029
 20
34.2109300384
 11
23.2139055232
 21
33.8566839719
  0
LINE
  5
449
100
AcDbEntity
  8
IMPORT_IGES
100
AcDbLine
 62
7
  6
CONTINUOUS
 10
23.2264531156
 20
34.537922448
 11
23.2196887029
 21
34.2109300384
  0
LINE
  5
44A
100
AcDbEntity
  8
IMPORT_IGES
100
AcDbLine
 62
7
  6
CONTINUOUS
 10
23.2341367257
 20
34.834681552
 11
23.2264531156
 21
34.537922448
  0
LWPOLYLINE
  5
44B
100
AcDbEntity
  8
IMPORT_IGES
100
AcDbPolyline
 62
7
  6
CONTINUOUS
 90
6
 70
0
 10
23.2616507089
 20
35.5055398861
 10
23.2566842277
 20
35.4187275112
 10
23.2518377156
 20
35.3212467786
 10
23.247155297
 20
35.214010532
 10
23.2426384963
 20
35.0969340955
 10
23.2341367257
 20
34.834681552
  0
LWPOLYLINE
  5
44C
100
AcDbEntity
  8
IMPORT_IGES
100
AcDbPolyline
 62
253
  6
CONTINUOUS
 90
10
 70
0
 10
20.5989908625
 20
-10.7467213918
 10
20.4117437062
 20
-13.7061397686
 10
20.1845466088
 20
-16.6616754166
 10
19.91739957
 20
-19.6133283356
 10
19.6102386074
 20
-22.5616412701
 10
19.2631277035
 20
-25.5060714758
 10
18.8762588063
 20
-28.4449907194
 10
18.4496958986
 20
-31.3778562566
 10
17.9833749977
 20
-34.3052108317
 10
17.4772961036
 20
-37.2270544448
  0
LINE
  5
44D
100
AcDbEntity
  8
IMPORT_IGES
100
AcDbLine
 62
7
  6
CONTINUOUS
 10
12.9744762162
 20
-19.2805987813
 11
12.8838447745
 21
-19.3712290288
  0
LINE
  5
44E
100
AcDbEntity
  8
IMPORT_IGES
100
AcDbLine
 62
7
  6
CONTINUOUS
 10
1.7349351573
 20
20.8532732402
 11
1.698606334
 21
20.8532732402
  0
LINE
  5
44F
100
AcDbEntity
  8
IMPORT_IGES
100
AcDbLine
 62
7
  6
CONTINUOUS
 10
-1.6974873857
 20
20.8532732402
 11
-1.7349351573
 21
20.8532732402
  0
LWPOLYLINE
  5
450
100
AcDbEntity
  8
IMPORT_IGES
100
AcDbPolyline
 62
7
  6
CONTINUOUS
 90
7
 70
0
 10
23.2616499863
 20
2.6010169731
 10
23.2667376459
 20
2.5249670233
 10
23.27194529
 20
2.4595858932
 10
23.2772254465
 20
2.4055042147
 10
23.2825622917
 20
2.3629321983
 10
23.2879716494
 20
2.3316596334
 10
23.2934535196
 20
2.31168652
  0
LWPOLYLINE
  5
451
100
AcDbEntity
  8
IMPORT_IGES
100
AcDbPolyline
 62
7
  6
CONTINUOUS
 90
4
 70
0
 10
23.2471543859
 20
2.8925491087
 10
23.2518368511
 20
2.7853116462
 10
23.2566834265
 20
2.6878298998
 10
23.2616499863
 20
2.6010169731
  0
LINE
  5
452
100
AcDbEntity
  8
IMPORT_IGES
100
AcDbLine
 62
7
  6
CONTINUOUS
 10
23.2382848363
 20
3.136460529
 11
23.2471543859
 21
2.8925491087
  0
LINE
  5
453
100
AcDbEntity
  8
IMPORT_IGES
100
AcDbLine
 62
7
  6
CONTINUOUS
 10
23.23019217
 20
3.4159694282
 11
23.2382848363
 21
3.136460529
  0
LINE
  5
454
100
AcDbEntity
  8
IMPORT_IGES
100
AcDbLine
 62
7
  6
CONTINUOUS
 10
23.2229501071
 20
3.7285135985
 11
23.23019217
 21
3.4159694282
  0
LINE
  5
455
100
AcDbEntity
  8
IMPORT_IGES
100
AcDbLine
 62
7
  6
CONTINUOUS
 10
23.2166635737
 20
4.0699583941
 11
23.2229501071
 21
3.7285135985
  0
LINE
  5
456
100
AcDbEntity
  8
IMPORT_IGES
100
AcDbLine
 62
7
  6
CONTINUOUS
 10
23.2114142509
 20
4.4354748142
 11
23.2166635737
 21
4.0699583941
  0
LINE
  5
457
100
AcDbEntity
  8
IMPORT_IGES
100
AcDbLine
 62
7
  6
CONTINUOUS
 10
23.2072509175
 20
4.8217353932
 11
23.2114142509
 21
4.4354748142
  0
LINE
  5
458
100
AcDbEntity
  8
IMPORT_IGES
100
AcDbLine
 62
7
  6
CONTINUOUS
 10
23.2042389736
 20
5.2235843218
 11
23.2072509175
 21
4.8217353932
  0
LINE
  5
459
100
AcDbEntity
  8
IMPORT_IGES
100
AcDbLine
 62
7
  6
CONTINUOUS
 10
23.2024184354
 20
5.6344682178
 11
23.2042389736
 21
5.2235843218
  0
LINE
  5
45A
100
AcDbEntity
  8
IMPORT_IGES
100
AcDbLine
 62
7
  6
CONTINUOUS
 10
23.2018027939
 20
6.0524583203
 11
23.2024184354
 21
5.6344682178
  0
LINE
  5
45B
100
AcDbEntity
  8
IMPORT_IGES
100
AcDbLine
 62
253
  6
CONTINUOUS
 10
22.9537604785
 20
38.4132761245
 11
22.9537604785
 21
1.7325902855
  0
LINE
  5
45C
100
AcDbEntity
  8
IMPORT_IGES
100
AcDbLine
 62
7
  6
CONTINUOUS
 10
23.2934535188
 20
38.7074403446
 11
23.2934535188
 21
35.7948796602
  0
LINE
  5
45D
100
AcDbEntity
  8
IMPORT_IGES
100
AcDbLine
 62
7
  6
CONTINUOUS
 10
23.2934535196
 20
2.31168652
 11
23.2934535196
 21
1.7325902855
  0
LINE
  5
45E
100
AcDbEntity
  8
IMPORT_IGES
100
AcDbLine
 62
7
  6
CONTINUOUS
 10
23.3
 20
2.5032732402
 11
23.3
 21
35.6032727419
  0
LINE
  5
45F
100
AcDbEntity
  8
IMPORT_IGES
100
AcDbLine
 62
7
  6
CONTINUOUS
 10
23.2024183485
 20
32.4721284089
 11
23.2018027939
 21
6.0524583203
  0
LWPOLYLINE
  5
460
100
AcDbEntity
  8
IMPORT_IGES
100
AcDbPolyline
 62
7
  6
CONTINUOUS
 90
3
 70
0
 10
23.2056018049
 20
33.0858320467
 10
23.2042390019
 20
32.8829652589
 10
23.2024183485
 20
32.4721284089
  0
LWPOLYLINE
  5
461
100
AcDbEntity
  8
IMPORT_IGES
100
AcDbPolyline
 62
253
  6
CONTINUOUS
 90
10
 70
0
 10
19.4448500254
 20
-37.5477169381
 10
19.9553017865
 20
-34.6020253177
 10
20.425832454
 20
-31.6496958215
 10
20.8563556373
 20
-28.6912694515
 10
21.2467920151
 20
-25.7272884362
 10
21.5970701388
 20
-22.7582958347
 10
21.9071264323
 20
-19.7848354023
 10
22.1769041574
 20
-16.8074519026
 10
22.4063534382
 20
-13.8266910431
 10
22.5954320499
 20
-10.8430990541
  0
LINE
  5
462
100
AcDbEntity
  8
IMPORT_IGES
100
AcDbLine
 62
253
  6
CONTINUOUS
 10
-7.7819690967
 20
36.6025051071
 11
-7.641726699
 21
36.5022435649
  0
LWPOLYLINE
  5
463
100
AcDbEntity
  8
IMPORT_IGES
100
AcDbPolyline
 62
7
  6
CONTINUOUS
 90
22
 70
0
 10
19.7252123441
 20
-37.8379950935
 10
19.7013443656
 20
-37.951847341
 10
19.6709487983
 20
-38.0635912618
 10
19.6340256423
 20
-38.1732268559
 10
19.5903559569
 20
-38.2812001868
 10
19.5401586828
 20
-38.387065191
 10
19.4840906413
 20
-38.4894836783
 10
19.422140756
 20
-38.5883327406
 10
19.3543201034
 20
-38.6837352861
 10
19.281318735
 20
-38.7747218494
 10
19.2030844886
 20
-38.8612471018
 10
19.1196695263
 20
-38.9433563719
 10
19.0319203859
 20
-39.0202161809
 10
18.9397931201
 20
-39.0917734727
 10
18.8433316761
 20
-39.1580813032
 10
18.7435144328
 20
-39.2184653618
 10
18.640248338
 20
-39.2728901992
 10
18.5336264439
 20
-39.3213912646
 10
18.424906287
 20
-39.3634005943
 10
18.3145070461
 20
-39.3987288672
 10
18.2020095423
 20
-39.4275654045
 10
18.0874137757
 20
-39.4499102061
  0
LWPOLYLINE
  5
464
100
AcDbEntity
  8
IMPORT_IGES
100
AcDbPolyline
 62
253
  6
CONTINUOUS
 90
22
 70
0
 10
19.4439449995
 20
-37.547552177
 10
19.419722655
 20
-37.6619951834
 10
19.3888498907
 20
-37.7748317286
 10
19.351431962
 20
-37.8856755546
 10
19.3075965407
 20
-37.9941471723
 10
19.2574932665
 20
-38.0998751988
 10
19.201293231
 20
-38.2024976259
 10
19.1391880239
 20
-38.3016636023
 10
19.0713902009
 20
-38.3970328231
 10
18.998132878
 20
-38.4882769691
 10
18.9196671476
 20
-38.5750832972
 10
18.8362612546
 20
-38.6571550489
 10
18.7482011051
 20
-38.7342108956
 10
18.655788365
 20
-38.8059869662
 10
18.5593392219
 20
-38.8722377738
 10
18.4591837107
 20
-38.9327366639
 10
18.3556201183
 20
-38.9872984034
 10
18.2490449623
 20
-39.0357092008
 10
18.1399636193
 20
-39.0777538302
 10
18.0288058364
 20
-39.1132992256
 10
17.9159123804
 20
-39.1422682878
 10
17.8016731922
 20
-39.1645877835
  0
LINE
  5
465
100
AcDbEntity
  8
IMPORT_IGES
100
AcDbLine
 62
253
  6
CONTINUOUS
 10
-6.4070019429
 20
38.2350168322
 11
-6.5586015019
 21
38.3299617862
  0
LINE
  5
466
100
AcDbEntity
  8
IMPORT_IGES
100
AcDbLine
 62
253
  6
CONTINUOUS
 10
23.3
 20
32.0532732402
 11
23.2018027939
 21
32.0532732402
  0
LINE
  5
467
100
AcDbEntity
  8
IMPORT_IGES
100
AcDbLine
 62
253
  6
CONTINUOUS
 10
-23.2018027939
 20
32.0532732402
 11
-23.3
 21
32.0532732402
  0
LINE
  5
468
100
AcDbEntity
  8
IMPORT_IGES
100
AcDbLine
 62
253
  6
CONTINUOUS
 10
8.2810939589
 20
36.6317511985
 11
7.781969096
 21
36.6025051205
  0
LINE
  5
469
100
AcDbEntity
  8
IMPORT_IGES
100
AcDbLine
 62
253
  6
CONTINUOUS
 10
7.6417266994
 20
36.5022435575
 11
6.6434590971
 21
36.4440572892
  0
LINE
  5
46A
100
AcDbEntity
  8
IMPORT_IGES
100
AcDbLine
 62
253
  6
CONTINUOUS
 10
22.9537604785
 20
38.413276568
 11
20.954445828
 21
38.413276568
  0
LINE
  5
46B
100
AcDbEntity
  8
IMPORT_IGES
100
AcDbLine
 62
253
  6
CONTINUOUS
 10
-20.9544458309
 20
38.413276568
 11
-22.9537604783
 21
38.413276568
  0
LINE
  5
46C
100
AcDbEntity
  8
IMPORT_IGES
100
AcDbLine
 62
253
  6
CONTINUOUS
 10
-6.6434590971
 20
36.4440572892
 11
-7.6417266994
 21
36.5022435575
  0
LINE
  5
46D
100
AcDbEntity
  8
IMPORT_IGES
100
AcDbLine
 62
253
  6
CONTINUOUS
 10
-7.781969096
 20
36.6025051205
 11
-8.2810939589
 21
36.6317511985
  0
LWPOLYLINE
  5
46E
100
AcDbEntity
  8
IMPORT_IGES
100
AcDbPolyline
 62
253
  6
CONTINUOUS
 90
19
 70
0
 10
6.5587214237
 20
38.3302480195
 10
6.671550384
 20
38.2788219247
 10
6.7809837785
 20
38.2205169948
 10
6.8866027217
 20
38.1555562201
 10
6.988006067
 20
38.0841857203
 10
7.0848021695
 20
38.0066804698
 10
7.1766118942
 20
37.9233451529
 10
7.2630788956
 20
37.8345070958
 10
7.3438809703
 20
37.7405014768
 10
7.418720024
 20
37.6416758108
 10
7.487314027
 20
37.5383993006
 10
7.5493935909
 20
37.4310740652
 10
7.6047149883
 20
37.3201217459
 10
7.6530460378
 20
37.2060233134
 10
7.6942315874
 20
37.0891625954
 10
7.7281562033
 20
36.9698245284
 10
7.7546715248
 20
36.8484034644
 10
7.773629616
 20
36.7254129818
 10
7.784927932
 20
36.601322632
  0
LWPOLYLINE
  5
46F
100
AcDbEntity
  8
IMPORT_IGES
100
AcDbPolyline
 62
253
  6
CONTINUOUS
 90
16
 70
0
 10
6.0260855035
 20
37.3104497453
 10
6.0948431965
 20
37.2789219892
 10
6.1603322688
 20
37.2428787005
 10
6.2225527202
 20
37.2023198792
 10
6.2817978477
 20
37.1569720088
 10
6.3377743545
 20
37.1071086058
 10
6.3896023496
 20
37.0535502193
 10
6.4372213554
 20
36.9962435045
 10
6.4806918496
 20
36.9352418063
 10
6.5193153744
 20
36.8715257079
 10
6.5530230469
 20
36.8050479024
 10
6.5818837501
 20
36.7358556969
 10
6.6054056751
 20
36.665071596
 10
6.6234248858
 20
36.593069768
 10
6.6361053183
 20
36.5194760447
 10
6.6434469728
 20
36.4442904261
  0
LWPOLYLINE
  5
470
100
AcDbEntity
  8
IMPORT_IGES
100
AcDbPolyline
 62
253
  6
CONTINUOUS
 90
13
 70
0
 10
-2.9894920779
 20
39.3834843212
 10
-2.4918585917
 20
39.4649729047
 10
-1.9932326411
 20
39.5314918117
 10
-1.4940670501
 20
39.5830899332
 10
-0.9952164385
 20
39.6198087881
 10
-0.496717746
 20
39.6417686866
 10
0.0022145031
 20
39.649048715
 10
0.5013153534
 20
39.6416307558
 10
0.9999838913
 20
39.6195226807
 10
1.4985037021
 20
39.5826906058
 10
1.9966754223
 20
39.5310783533
 10
2.4938191966
 20
39.464678023
 10
2.9894920779
 20
39.3834843212
  0
LWPOLYLINE
  5
471
100
AcDbEntity
  8
IMPORT_IGES
100
AcDbPolyline
 62
253
  6
CONTINUOUS
 90
10
 70
0
 10
3.0776052691
 20
39.8756418656
 10
2.3946252725
 20
39.9647265645
 10
1.7108470831
 20
40.0314757201
 10
1.0265523023
 20
40.075915707
 10
0.3421414399
 20
40.0981055828
 10
-0.342225321
 20
40.0980947183
 10
-1.0266276394
 20
40.075891154
 10
-1.7109055125
 20
40.0314509777
 10
-2.3946585449
 20
39.9647099559
 10
-3.0776052704
 20
39.8756418656
  0
LWPOLYLINE
  5
472
100
AcDbEntity
  8
IMPORT_IGES
100
AcDbPolyline
 62
253
  6
CONTINUOUS
 90
25
 70
0
 10
21.2381974943
 20
40.3924475122
 10
21.3552617466
 20
40.3719675489
 10
21.4709149713
 20
40.3445669495
 10
21.5847482078
 20
40.3103410533
 10
21.696357976
 20
40.2694096773
 10
21.805350161
 20
40.2219158319
 10
21.9113412072
 20
40.1680247529
 10
22.0139578339
 20
40.1079237473
 10
22.1128337194
 20
40.0418247948
 10
22.2076137247
 20
39.9699635306
 10
22.2979607544
 20
39.8925944992
 10
22.3835559852
 20
39.8099896371
 10
22.4640956401
 20
39.7224408036
 10
22.5392955873
 20
39.6302552134
 10
22.6088873649
 20
39.5337602054
 10
22.6726200615
 20
39.4333033246
 10
22.7302676851
 20
39.3292419812
 10
22.7816277498
 20
39.2219430113
 10
22.8265182806
 20
39.111788085
 10
22.8647836704
 20
38.9991592486
 10
22.896285943
 20
38.8844628617
 10
22.9209096494
 20
38.7681314271
 10
22.9385721549
 20
38.650586354
 10
22.9492187299
 20
38.5322350786
 10
22.9528173724
 20
38.4134960633
  0
LWPOLYLINE
  5
473
100
AcDbEntity
  8
IMPORT_IGES
100
AcDbPolyline
 62
7
  6
CONTINUOUS
 90
25
 70
0
 10
21.5819428398
 20
40.6859411312
 10
21.6996366649
 20
40.6651696475
 10
21.8151086426
 20
40.6377228747
 10
21.928358773
 20
40.6036008127
 10
22.0397757959
 20
40.562638342
 10
22.1489709714
 20
40.5150005822
 10
22.2547780804
 20
40.4611828921
 10
22.3571556441
 20
40.4011171161
 10
22.4561451412
 20
40.3348714097
 10
22.5507047885
 20
40.2631455979
 10
22.6407861406
 20
40.1858839512
 10
22.726437643
 20
40.1031421992
 10
22.8067628486
 20
40.0157873557
 10
22.8817075862
 20
39.9237693124
 10
22.951326027
 20
39.8271381777
 10
23.0148842384
 20
39.7269112898
 10
23.0723178856
 20
39.623051557
 10
23.1236913034
 20
39.515596071
 10
23.1684635633
 20
39.4056734458
 10
23.2065944054
 20
39.293227509
 10
23.2381240895
 20
39.1783144329
 10
23.2626324669
 20
39.0622313488
 10
23.2799794877
 20
38.9454106336
 10
23.2903052017
 20
38.8274199103
 10
23.2936096088
 20
38.7082591788
  0
ARC
  5
474
100
AcDbEntity
  8
IMPORT_IGES
100
AcDbCircle
 62
7
  6
CONTINUOUS
 10
-11.7473394642
 20
-21.8937372884
 40
5.0634287862
100
AcDbArc
 50
15.8877790328
 51
19.6821898433
  0
ARC
  5
475
100
AcDbEntity
  8
IMPORT_IGES
100
AcDbCircle
 62
7
  6
CONTINUOUS
 10
-0.0003378507
 20
-19.7470896534
 40
2.4995303298
100
AcDbArc
 50
87.7525337768
 51
272.2474555539
  0
ARC
  5
476
100
AcDbEntity
  8
IMPORT_IGES
100
AcDbCircle
 62
7
  6
CONTINUOUS
 10
-0.0003373179
 20
-19.7470905291
 40
1.7643818066
100
AcDbArc
 50
86.8152957546
 51
273.1847131162
  0
ARC
  5
477
100
AcDbEntity
  8
RACCORDO
100
AcDbCircle
 62
7
  6
CONTINUOUS
 10
-7.0
 20
-41.7467267598
 40
0.5
100
AcDbArc
 50
180.0
 51
270.0
  0
ARC
  5
478
100
AcDbEntity
  8
IMPORT_IGES
100
AcDbCircle
 62
253
  6
CONTINUOUS
 10
-291.72
 20
19.0532732402
 40
300.5156556053
100
AcDbArc
 50
356.6466228332
 51
3.3534544849
  0
ARC
  5
479
100
AcDbEntity
  8
IMPORT_IGES
100
AcDbCircle
 62
7
  6
CONTINUOUS
 10
-291.72
 20
19.0532732402
 40
300.0156746438
100
AcDbArc
 50
356.6466045292
 51
3.3533957289
  0
ARC
  5
47A
100
AcDbEntity
  8
IMPORT_IGES
100
AcDbCircle
 62
253
  6
CONTINUOUS
 10
-291.72
 20
19.0532732402
 40
299.8698217187
100
AcDbArc
 50
356.6641611719
 51
3.335838715
  0
ARC
  5
47B
100
AcDbEntity
  8
IMPORT_IGES
100
AcDbCircle
 62
253
  6
CONTINUOUS
 10
-291.72
 20
19.0532732402
 40
298.8698597956
100
AcDbArc
 50
356.6641618241
 51
3.3358835804
  0
ARC
  5
47C
100
AcDbEntity
  8
IMPORT_IGES
100
AcDbCircle
 62
7
  6
CONTINUOUS
 10
-197.9
 20
1.7325902854
 40
221.1934535197
100
AcDbArc
 50
349.6945508184
 51
0.0000001527
  0
ARC
  5
47D
100
AcDbEntity
  8
IMPORT_IGES
100
AcDbCircle
 62
253
  6
CONTINUOUS
 10
-197.9
 20
1.7325902854
 40
220.853760478
100
AcDbArc
 50
356.7357410781
 51
360.0
  0
ARC
  5
47E
100
AcDbEntity
  8
IMPORT_IGES
100
AcDbCircle
 62
253
  6
CONTINUOUS
 10
-197.9
 20
1.7325902854
 40
218.854445828
100
AcDbArc
 50
356.7311611119
 51
359.9999999976
  0
CIRCLE
  5
47F
100
AcDbEntity
  8
IMPORT_IGES
100
AcDbCircle
 62
253
  6
CONTINUOUS
 10
-15.0
 20
-4.7467267598
 40
3.9
  0
CIRCLE
  5
480
100
AcDbEntity
  8
IMPORT_IGES
100
AcDbCircle
 62
7
  6
CONTINUOUS
 10
-15.0
 20
-4.7467267598
 40
2.9
  0
CIRCLE
  5
481
100
AcDbEntity
  8
0
100
AcDbCircle
 62
7
  6
CONTINUOUS
 10
-15.0
 20
-4.7467267598
 40
2.6226074497
  0
CIRCLE
  5
482
100
AcDbEntity
  8
0
100
AcDbCircle
 62
253
  6
CONTINUOUS
 10
-15.0
 20
-4.7467267598
 40
2.6214658591
  0
CIRCLE
  5
483
100
AcDbEntity
  8
0
100
AcDbCircle
 62
253
  6
CONTINUOUS
 10
-15.0
 20
-4.7467267598
 40
2.5325156041
  0
CIRCLE
  5
484
100
AcDbEntity
  8
0
100
AcDbCircle
 62
253
  6
CONTINUOUS
 10
-15.0
 20
-4.7467267598
 40
2.3336716959
  0
ARC
  5
485
100
AcDbEntity
  8
0
100
AcDbCircle
 62
253
  6
CONTINUOUS
 10
-15.0
 20
-4.7467267598
 40
1.8098246557
100
AcDbArc
 50
2.1073233327
 51
33.2133851259
  0
ARC
  5
486
100
AcDbEntity
  8
0
100
AcDbCircle
 62
253
  6
CONTINUOUS
 10
-15.0
 20
-4.7467267598
 40
1.8098246557
100
AcDbArc
 50
239.702312008
 51
273.2133851259
  0
ARC
  5
487
100
AcDbEntity
  8
0
100
AcDbCircle
 62
253
  6
CONTINUOUS
 10
-15.0
 20
-4.7467267598
 40
1.8098246557
100
AcDbArc
 50
119.702312008
 51
153.2133851259
  0
ARC
  5
488
100
AcDbEntity
  8
0
100
AcDbCircle
 62
253
  6
CONTINUOUS
 10
-15.0
 20
-4.7467267598
 40
1.7100709361
100
AcDbArc
 50
2.1073233326
 51
30.3977241472
  0
ARC
  5
489
100
AcDbEntity
  8
0
100
AcDbCircle
 62
253
  6
CONTINUOUS
 10
-15.0
 20
-4.7467267598
 40
1.7100709361
100
AcDbArc
 50
241.4246792562
 51
270.3977241472
  0
ARC
  5
48A
100
AcDbEntity
  8
0
100
AcDbCircle
 62
253
  6
CONTINUOUS
 10
-15.0
 20
-4.7467267598
 40
1.7100709361
100
AcDbArc
 50
121.4246792562
 51
150.3977241472
  0
CIRCLE
  5
48B
100
AcDbEntity
  8
0
100
AcDbCircle
 62
7
  6
CONTINUOUS
 10
-15.0
 20
-4.7467267598
 40
0.8
  0
ARC
  5
48C
100
AcDbEntity
  8
0
100
AcDbCircle
 62
7
  6
CONTINUOUS
 10
-14.2
 20
-4.0539064368
 40
0.2
100
AcDbArc
 50
240.0
 51
300.0
  0
ARC
  5
48D
100
AcDbEntity
  8
0
100
AcDbCircle
 62
7
  6
CONTINUOUS
 10
-16.0
 20
-4.4003165983
 40
0.2
100
AcDbArc
 50
0.0
 51
60.0
  0
ARC
  5
48E
100
AcDbEntity
  8
0
100
AcDbCircle
 62
7
  6
CONTINUOUS
 10
-14.8
 20
-5.7859572444
 40
0.2
100
AcDbArc
 50
120.0
 51
180.0
  0
ARC
  5
48F
100
AcDbEntity
  8
IMPORT_IGES
100
AcDbCircle
 62
7
  6
CONTINUOUS
 10
-23.1
 20
35.6032732402
 40
0.2
100
AcDbArc
 50
152.2933991176
 51
180.0
  0
ARC
  5
490
100
AcDbEntity
  8
IMPORT_IGES
100
AcDbCircle
 62
7
  6
CONTINUOUS
 10
-23.1
 20
2.5032732402
 40
0.2
100
AcDbArc
 50
180.0
 51
207.7068608773
  0
ARC
  5
491
100
AcDbEntity
  8
IMPORT_IGES
100
AcDbCircle
 62
7
  6
CONTINUOUS
 10
0.0
 20
-107.7467267598
 40
149.9934535197
100
AcDbArc
 50
81.7272308258
 51
98.2727691858
  0
ARC
  5
492
100
AcDbEntity
  8
IMPORT_IGES
100
AcDbCircle
 62
253
  6
CONTINUOUS
 10
0.0
 20
-107.7467267598
 40
149.653760478
100
AcDbArc
 50
81.8413002285
 51
98.1586995212
  0
ARC
  5
493
100
AcDbEntity
  8
IMPORT_IGES
100
AcDbCircle
 62
253
  6
CONTINUOUS
 10
0.0
 20
-107.7467267598
 40
147.654445828
100
AcDbArc
 50
81.8413002326
 51
88.8056854517
  0
ARC
  5
494
100
AcDbEntity
  8
IMPORT_IGES
100
AcDbCircle
 62
253
  6
CONTINUOUS
 10
0.0
 20
-107.7467267598
 40
147.654445828
100
AcDbArc
 50
91.1943145483
 51
98.1586997685
  0
ARC
  5
495
100
AcDbEntity
  8
IMPORT_IGES
100
AcDbCircle
 62
7
  6
CONTINUOUS
 10
4.2982111248
 20
-19.747089713
 40
2.4995303983
100
AcDbArc
 50
87.7525332692
 51
272.2474644379
  0
ARC
  5
496
100
AcDbEntity
  8
IMPORT_IGES
100
AcDbCircle
 62
7
  6
CONTINUOUS
 10
4.2982109053
 20
-19.7470893652
 40
1.7644875843
100
AcDbArc
 50
86.8152741487
 51
167.9753374891
  0
ARC
  5
497
100
AcDbEntity
  8
IMPORT_IGES
100
AcDbCircle
 62
7
  6
CONTINUOUS
 10
4.2982136877
 20
-19.7470884576
 40
1.7644865344
100
AcDbArc
 50
192.0247333248
 51
273.1846522492
  0
ARC
  5
498
100
AcDbEntity
  8
RACCORDO
100
AcDbCircle
 62
7
  6
CONTINUOUS
 10
7.0
 20
-41.7467267598
 40
0.5
100
AcDbArc
 50
270.0
 51
360.0
  0
ARC
  5
499
100
AcDbEntity
  8
IMPORT_IGES
100
AcDbCircle
 62
7
  6
CONTINUOUS
 10
9.823439035
 20
-16.898220407
 40
3.3678786032
100
AcDbArc
 50
78.1908523146
 51
90.8121673701
  0
ARC
  5
49A
100
AcDbEntity
  8
IMPORT_IGES
100
AcDbCircle
 62
7
  6
CONTINUOUS
 10
9.823835876
 20
-16.895062387
 40
3.36473525
100
AcDbArc
 50
104.6186131128
 51
108.0304156157
  0
ARC
  5
49B
100
AcDbEntity
  8
IMPORT_IGES
100
AcDbCircle
 62
7
  6
CONTINUOUS
 10
9.823426056
 20
-16.8982877225
 40
3.3038608082
100
AcDbArc
 50
77.9583996918
 51
90.8276783019
  0
ARC
  5
49C
100
AcDbEntity
  8
IMPORT_IGES
100
AcDbCircle
 62
7
  6
CONTINUOUS
 10
9.8241510371
 20
-16.8976511753
 40
3.3032403192
100
AcDbArc
 50
91.9523400308
 51
103.755350352
  0
ARC
  5
49D
100
AcDbEntity
  8
IMPORT_IGES
100
AcDbCircle
 62
7
  6
CONTINUOUS
 10
9.8230025726
 20
-16.8970947521
 40
3.3027863214
100
AcDbArc
 50
66.0844267229
 51
76.8076183982
  0
ARC
  5
49E
100
AcDbEntity
  8
IMPORT_IGES
100
AcDbCircle
 62
7
  6
CONTINUOUS
 10
9.8238879926
 20
-16.8952205102
 40
3.3008164781
100
AcDbArc
 50
104.9091174913
 51
108.3928942978
  0
ARC
  5
49F
100
AcDbEntity
  8
IMPORT_IGES
100
AcDbCircle
 62
7
  6
CONTINUOUS
 10
9.822464049
 20
-16.8915097838
 40
3.2968401943
100
AcDbArc
 50
109.567581672
 51
111.7991126312
  0
ARC
  5
4A0
100
AcDbEntity
  8
IMPORT_IGES
100
AcDbCircle
 62
7
  6
CONTINUOUS
 10
11.4432239045
 20
-13.9469032388
 40
0.2896506718
100
AcDbArc
 50
166.2125359506
 51
192.7801383509
  0
CIRCLE
  5
4A1
100
AcDbEntity
  8
IMPORT_IGES
100
AcDbCircle
 62
7
  6
CONTINUOUS
 10
10.961282
 20
-18.5610458087
 40
0.192257
  0
ARC
  5
4A2
100
AcDbEntity
  8
IMPORT_IGES
100
AcDbCircle
 62
253
  6
CONTINUOUS
 10
0.0
 20
15.4232732402
 40
17.4656556053
100
AcDbArc
 50
247.2583239727
 51
292.7426972815
  0
ARC
  5
4A3
100
AcDbEntity
  8
IMPORT_IGES
100
AcDbCircle
 62
253
  6
CONTINUOUS
 10
0.0
 20
22.6832732402
 40
17.4656556053
100
AcDbArc
 50
67.2583577966
 51
79.8510206703
  0
ARC
  5
4A4
100
AcDbEntity
  8
IMPORT_IGES
100
AcDbCircle
 62
253
  6
CONTINUOUS
 10
0.0
 20
22.6832732402
 40
17.4656556053
100
AcDbArc
 50
100.1489793297
 51
112.7427117131
  0
ARC
  5
4A5
100
AcDbEntity
  8
IMPORT_IGES
100
AcDbCircle
 62
7
  6
CONTINUOUS
 10
0.0
 20
22.6832732402
 40
16.9656746438
100
AcDbArc
 50
100.14897933
 51
112.7419039497
  0
ARC
  5
4A6
100
AcDbEntity
  8
IMPORT_IGES
100
AcDbCircle
 62
7
  6
CONTINUOUS
 10
0.0
 20
22.6832732402
 40
16.9656746438
100
AcDbArc
 50
67.2580960994
 51
79.8510206701
  0
ARC
  5
4A7
100
AcDbEntity
  8
IMPORT_IGES
100
AcDbCircle
 62
7
  6
CONTINUOUS
 10
0.0
 20
15.4232732402
 40
16.9656746438
100
AcDbArc
 50
247.2580960494
 51
292.7419039497
  0
ARC
  5
4A8
100
AcDbEntity
  8
IMPORT_IGES
100
AcDbCircle
 62
253
  6
CONTINUOUS
 10
0.0
 20
15.4232732402
 40
16.8198217187
100
AcDbArc
 50
247.6093355267
 51
292.3906644706
  0
ARC
  5
4A9
100
AcDbEntity
  8
IMPORT_IGES
100
AcDbCircle
 62
253
  6
CONTINUOUS
 10
0.0
 20
22.6832732402
 40
16.8198217187
100
AcDbArc
 50
67.6093362933
 51
112.3906644706
  0
ARC
  5
4AA
100
AcDbEntity
  8
IMPORT_IGES
100
AcDbCircle
 62
253
  6
CONTINUOUS
 10
0.0
 20
22.6832732402
 40
15.8198597956
100
AcDbArc
 50
67.6093811085
 51
112.3913290562
  0
ARC
  5
4AB
100
AcDbEntity
  8
IMPORT_IGES
100
AcDbCircle
 62
253
  6
CONTINUOUS
 10
0.0
 20
15.4232732402
 40
15.8198597956
100
AcDbArc
 50
247.6093437895
 51
292.3913287315
  0
CIRCLE
  5
4AC
100
AcDbEntity
  8
IMPORT_IGES
100
AcDbCircle
 62
7
  6
CONTINUOUS
 10
0.0
 20
19.0532732402
 40
2.5
  0
CIRCLE
  5
4AD
100
AcDbEntity
  8
IMPORT_IGES
100
AcDbCircle
 62
7
  6
CONTINUOUS
 10
0.0
 20
6.0532732402
 40
2.5
  0
CIRCLE
  5
4AE
100
AcDbEntity
  8
IMPORT_IGES
100
AcDbCircle
 62
7
  6
CONTINUOUS
 10
0.0
 20
6.0532732402
 40
2.475
  0
CIRCLE
  5
4AF
100
AcDbEntity
  8
IMPORT_IGES
100
AcDbCircle
 62
7
  6
CONTINUOUS
 10
0.0
 20
19.0532732402
 40
2.475
  0
CIRCLE
  5
4B0
100
AcDbEntity
  8
IMPORT_IGES
100
AcDbCircle
 62
253
  6
CONTINUOUS
 10
0.0
 20
6.0532732402
 40
0.0250000466
  0
CIRCLE
  5
4B1
100
AcDbEntity
  8
IMPORT_IGES
100
AcDbCircle
 62
253
  6
CONTINUOUS
 10
0.0
 20
19.0532732402
 40
0.0250000449
  0
CIRCLE
  5
4B2
100
AcDbEntity
  8
IMPORT_IGES
100
AcDbCircle
 62
253
  6
CONTINUOUS
 10
15.0
 20
-4.7467267598
 40
3.9
  0
CIRCLE
  5
4B3
100
AcDbEntity
  8
IMPORT_IGES
100
AcDbCircle
 62
7
  6
CONTINUOUS
 10
15.0
 20
-4.7467267598
 40
2.9
  0
CIRCLE
  5
4B4
100
AcDbEntity
  8
0
100
AcDbCircle
 62
7
  6
CONTINUOUS
 10
15.0
 20
-4.7467267598
 40
2.6226074497
  0
CIRCLE
  5
4B5
100
AcDbEntity
  8
0
100
AcDbCircle
 62
253
  6
CONTINUOUS
 10
15.0
 20
-4.7467267598
 40
2.6214658591
  0
CIRCLE
  5
4B6
100
AcDbEntity
  8
0
100
AcDbCircle
 62
253
  6
CONTINUOUS
 10
15.0
 20
-4.7467267598
 40
2.5325156041
  0
CIRCLE
  5
4B7
100
AcDbEntity
  8
0
100
AcDbCircle
 62
253
  6
CONTINUOUS
 10
15.0
 20
-4.7467267598
 40
2.3336716959
  0
ARC
  5
4B8
100
AcDbEntity
  8
0
100
AcDbCircle
 62
253
  6
CONTINUOUS
 10
15.0
 20
-4.7467267598
 40
1.8098246557
100
AcDbArc
 50
2.1073233327
 51
33.2133851259
  0
ARC
  5
4B9
100
AcDbEntity
  8
0
100
AcDbCircle
 62
253
  6
CONTINUOUS
 10
15.0
 20
-4.7467267598
 40
1.8098246557
100
AcDbArc
 50
239.702312008
 51
273.2133851259
  0
ARC
  5
4BA
100
AcDbEntity
  8
0
100
AcDbCircle
 62
253
  6
CONTINUOUS
 10
15.0
 20
-4.7467267598
 40
1.8098246557
100
AcDbArc
 50
119.702312008
 51
153.2133851259
  0
ARC
  5
4BB
100
AcDbEntity
  8
0
100
AcDbCircle
 62
253
  6
CONTINUOUS
 10
15.0
 20
-4.7467267598
 40
1.7100709361
100
AcDbArc
 50
2.1073233326
 51
30.3977241472
  0
ARC
  5
4BC
100
AcDbEntity
  8
0
100
AcDbCircle
 62
253
  6
CONTINUOUS
 10
15.0
 20
-4.7467267598
 40
1.7100709361
100
AcDbArc
 50
241.4246792562
 51
270.3977241472
  0
ARC
  5
4BD
100
AcDbEntity
  8
0
100
AcDbCircle
 62
253
  6
CONTINUOUS
 10
15.0
 20
-4.7467267598
 40
1.7100709361
100
AcDbArc
 50
121.4246792562
 51
150.3977241472
  0
CIRCLE
  5
4BE
100
AcDbEntity
  8
0
100
AcDbCircle
 62
7
  6
CONTINUOUS
 10
15.0
 20
-4.7467267598
 40
0.8
  0
ARC
  5
4BF
100
AcDbEntity
  8
0
100
AcDbCircle
 62
7
  6
CONTINUOUS
 10
15.8
 20
-4.0539064368
 40
0.2
100
AcDbArc
 50
240.0
 51
300.0
  0
ARC
  5
4C0
100
AcDbEntity
  8
0
100
AcDbCircle
 62
7
  6
CONTINUOUS
 10
14.0
 20
-4.4003165983
 40
0.2
100
AcDbArc
 50
0.0
 51
60.0
  0
ARC
  5
4C1
100
AcDbEntity
  8
0
100
AcDbCircle
 62
7
  6
CONTINUOUS
 10
15.2
 20
-5.7859572444
 40
0.2
100
AcDbArc
 50
120.0
 51
180.0
  0
ARC
  5
4C2
100
AcDbEntity
  8
IMPORT_IGES
100
AcDbCircle
 62
7
  6
CONTINUOUS
 10
23.1
 20
2.5032732402
 40
0.2
100
AcDbArc
 50
332.2931208633
 51
360.0
  0
ARC
  5
4C3
100
AcDbEntity
  8
IMPORT_IGES
100
AcDbCircle
 62
7
  6
CONTINUOUS
 10
-0.0
 20
69.5530697512
 40
110.4934535196
100
AcDbArc
 50
260.5785801943
 51
261.4422672143
  0
ARC
  5
4C4
100
AcDbEntity
  8
IMPORT_IGES
100
AcDbCircle
 62
7
  6
CONTINUOUS
 10
-0.0
 20
69.5530697512
 40
110.4934535196
100
AcDbArc
 50
278.5577355004
 51
279.4215311719
  0
CIRCLE
  5
4C5
100
AcDbEntity
  8
IMPORT_IGES
100
AcDbCircle
 62
7
  6
CONTINUOUS
 10
0.0
 20
32.0532732402
 40
2.5
  0
CIRCLE
  5
4C6
100
AcDbEntity
  8
IMPORT_IGES
100
AcDbCircle
 62
7
  6
CONTINUOUS
 10
0.0
 20
32.0532732402
 40
2.475
  0
ARC
  5
4C7
100
AcDbEntity
  8
IMPORT_IGES
100
AcDbCircle
 62
7
  6
CONTINUOUS
 10
23.1
 20
35.6032732402
 40
0.2
100
AcDbArc
 50
0.0
 51
27.7072775136
  0
CIRCLE
  5
4C8
100
AcDbEntity
  8
IMPORT_IGES
100
AcDbCircle
 62
253
  6
CONTINUOUS
 10
0.0
 20
32.0532732402
 40
0.0250000466
  0
ARC
  5
4C9
100
AcDbEntity
  8
IMPORT_IGES
100
AcDbCircle
 62
253
  6
CONTINUOUS
 10
291.72
 20
19.0532732402
 40
300.5156556053
100
AcDbArc
 50
176.6466231094
 51
183.3534544988
  0
ARC
  5
4CA
100
AcDbEntity
  8
IMPORT_IGES
100
AcDbCircle
 62
7
  6
CONTINUOUS
 10
291.72
 20
19.0532732402
 40
300.0156746438
100
AcDbArc
 50
176.6466045292
 51
183.353395471
  0
ARC
  5
4CB
100
AcDbEntity
  8
IMPORT_IGES
100
AcDbCircle
 62
253
  6
CONTINUOUS
 10
291.72
 20
19.0532732402
 40
299.8698217187
100
AcDbArc
 50
176.6641611719
 51
183.3358388288
  0
ARC
  5
4CC
100
AcDbEntity
  8
IMPORT_IGES
100
AcDbCircle
 62
253
  6
CONTINUOUS
 10
291.72
 20
19.0532732402
 40
298.8698597956
100
AcDbArc
 50
176.6641624023
 51
183.3358836325
  0
ARC
  5
4CD
100
AcDbEntity
  8
IMPORT_IGES
100
AcDbCircle
 62
7
  6
CONTINUOUS
 10
197.9
 20
1.7325902854
 40
221.1934535197
100
AcDbArc
 50
179.9999998472
 51
190.3054015744
  0
ARC
  5
4CE
100
AcDbEntity
  8
IMPORT_IGES
100
AcDbCircle
 62
253
  6
CONTINUOUS
 10
197.9
 20
1.7325902854
 40
220.853760478
100
AcDbArc
 50
180.0
 51
183.2642589505
  0
ARC
  5
4CF
100
AcDbEntity
  8
IMPORT_IGES
100
AcDbCircle
 62
253
  6
CONTINUOUS
 10
197.9
 20
1.7325902854
 40
218.854445828
100
AcDbArc
 50
179.9999999208
 51
183.2688388881
  0
ENDSEC
  0
SECTION
  2
OBJECTS
  0
DICTIONARY
  5
C
100
AcDbDictionary
280
0
281
1
  3
ACAD_GROUP
350
D
  3
ACAD_MLINESTYLE
350
17
  3
ACAD_LAYOUT
350
1A
  3
ACAD_PLOTSETTINGS
350
19
  3
ACAD_PLOTSTYLENAME
350
E
  0
DICTIONARY
  5
D
102
{ACAD_REACTORS
330
C
102
}
100
AcDbDictionary
280
0
281
1
  0
ACDBDICTIONARYWDFLT
  5
E
102
{ACAD_REACTORS
330
C
102
}
100
AcDbDictionary
281
1
  3
Normal
350
F
100
AcDbDictionaryWithDefault
340
F
  0
DICTIONARY
  5
17
102
{ACAD_REACTORS
330
C
102
}
100
AcDbDictionary
280
0
281
1
  3
Standard
350
18
  0
DICTIONARY
  5
19
102
{ACAD_REACTORS
330
C
102
}
100
AcDbDictionary
281
1
  0
DICTIONARY
  5
1A
102
{ACAD_REACTORS
330
C
102
}
100
AcDbDictionary
281
1
  3
Model
350
4D0
  3
Layout1
350
4D1
  0
ACDBPLACEHOLDER
  5
F
102
{ACAD_REACTORS
330
E
102
}
  0
MLINESTYLE
  5
18
102
{ACAD_REACTORS
330
17
102
}
100
AcDbMlineStyle
  2
STANDARD
 70
0
  3

 62
256
 51
90.0
 52
90.0
 71
2
 49
0.5
 62
256
  6
BYLAYER
 49
-0.5
 62
256
  6
BYLAYER
  0
LAYOUT
  5
4D0
102
{ACAD_REACTORS
330
1A
102
}
100
AcDbPlotSettings
  1

  2
none_device
  4
ISO_A4_(297.00_x_210.00_MM)
  6

 40
0.0
 41
0.0
 42
0.0
 43
0.0
 44
297.0
 45
210.0
 46
0.0
 47
0.0
 48
0.0
 49
0.0
140
0.0
141
0.0
142
1.0
143
1.0
 70
1024
 72
1
 73
0
 74
0
  7

 75
0
147
1.0
148
0.0
149
0.0
100
AcDbLayout
  1
Model
 70
0
 71
0
 10
0.0
 20
0.0
 11
297.0
 21
210.0
 12
0.0
 22
0.0
 32
0.0
 14
0.0
 24
0.0
 34
0.0
 15
0.0
 25
0.0
 35
0.0
146
0.0
 13
0.0
 23
0.0
 33
0.0
 16
1.0
 26
0.0
 36
0.0
 17
0.0
 27
1.0
 37
0.0
 76
0
330
212
345
0
346
0
  0
LAYOUT
  5
4D1
102
{ACAD_REACTORS
330
1A
102
}
100
AcDbPlotSettings
  1

  2
none_device
  4
ISO_A4_(297.00_x_210.00_MM)
  6

 40
0.0
 41
0.0
 42
0.0
 43
0.0
 44
297.0
 45
210.0
 46
0.0
 47
0.0
 48
0.0
 49
0.0
140
0.0
141
0.0
142
1.0
143
1.0
 70
0
 72
1
 73
0
 74
0
  7

 75
0
147
1.0
148
0.0
149
0.0
100
AcDbLayout
  1
Layout1
 70
0
 71
1
 10
0.0
 20
0.0
 11
297.0
 21
210.0
 12
0.0
 22
0.0
 32
0.0
 14
0.0
 24
0.0
 34
0.0
 15
0.0
 25
0.0
 35
0.0
146
0.0
 13
0.0
 23
0.0
 33
0.0
 16
1.0
 26
0.0
 36
0.0
 17
0.0
 27
1.0
 37
0.0
 76
0
330
213
345
0
346
0
  0
ENDSEC
  0
EOF
