  0
SECTION
  2
HEADER
  9
$ACADVER
  1
AC1021
  9
$DWGCODEPAGE
  3
ANSI_1252
  9
$EXTMAX
 10
297.0
 20
210.0
 30
0.0
  9
$EXTMIN
 10
0.0
 20
0.0
 30
0.0
  9
$LIMMIN
 10
0.0
 20
0.0
  9
$LIMMAX
 10
297.0
 20
210.0
  9
$VIEWCTR
 10
148.5
 20
105.0
  9
$VIEWSIZE
 40
210.0
  9
$CLAYER
  8
0
  9
$LTSCALE
 40
16.335
  9
$CELTYPE
  6
BYLAYER
  9
$DIMSCALE
 40
1.0
  9
$DIMASZ
 40
3.0
  9
$DIMEXO
 40
0.5
  9
$DIMDLI
 40
11.286
  9
$DIMEXE
 40
1.5
  9
$DIMCEN
 40
2.673
  9
$DIMLFAC
 40
1.0
  9
$DIMBLK
  1
_FILLED
  9
$DIMALT
 70
0
  9
$DIMALTF
 40
0.0393700787
  9
$DIMTXT
 40
3.0
  9
$DIMTOL
 70
1
  9
$DIMLIM
 70
0
  9
$DIMTFAC
 40
1.0
  9
$DIMTP
 40
0.01
  9
$DIMTM
 40
0.01
  9
$DIMGAP
 40
0.625
  9
$DIMDSEP
 70
44
  9
$AUNITS
 70
0
  9
$PDMODE
 70
3
  9
$PDSIZE
 40
3.0
  9
$HANDSEED
  5
50C
  9
$TILEMODE
 70
1
  9
$MEASUREMENT
 70
1
  9
$INSUNITS
 70
4
  0
ENDSEC
  0
SECTION
  2
CLASSES
  0
CLASS
  1
ACDBDICTIONARYWDFLT
  2
AcDbDictionaryWithDefault
  3
AutoCAD 2000
 90
0
 91
1
280
0
281
0
  0
CLASS
  1
ACDBPLACEHOLDER
  2
AcDbPlaceHolder
  3
AutoCAD 2000
 90
0
 91
1
280
0
281
0
  0
CLASS
  1
LAYOUT
  2
AcDbLayout
  3
AutoCAD 2000
 90
0
 91
0
280
0
281
0
  0
ENDSEC
  0
SECTION
  2
TABLES
  0
TABLE
  2
VPORT
  5
8
100
AcDbSymbolTable
 70
2
  0
VPORT
  5
1F4
100
AcDbSymbolTableRecord
100
AcDbViewportTableRecord
  2
*ACTIVE
 70
0
 10
0.0
 20
0.0
 11
1.0
 21
1.0
 12
148.5
 22
105.0
 13
0.0
 23
0.0
 14
1.0
 24
1.0
 15
0.0
 25
0.0
 16
0.0
 26
0.0
 36
1.0
 17
0.0
 27
0.0
 37
0.0
 40
210.0
 41
1.4142857143
 42
50.0
 43
0.0
 44
0.0
 50
0.0
 51
0.0
 71
0
 72
100
 73
1
 74
1
 75
0
 76
0
 77
0
 78
0
  0
ENDTAB
  0
TABLE
  2
LTYPE
  5
5
100
AcDbSymbolTable
 70
6
  0
LTYPE
  5
14
100
AcDbSymbolTableRecord
100
AcDbLinetypeTableRecord
  2
BYBLOCK
 70
0
  3

 72
65
 73
0
 40
0.0
  0
LTYPE
  5
15
100
AcDbSymbolTableRecord
100
AcDbLinetypeTableRecord
  2
BYLAYER
 70
0
  3

 72
65
 73
0
 40
0.0
  0
LTYPE
  5
16
100
AcDbSymbolTableRecord
100
AcDbLinetypeTableRecord
  2
CONTINUOUS
 70
64
  3
Solid line
 72
65
 73
0
 40
0.0
  0
LTYPE
  5
1F5
100
AcDbSymbolTableRecord
100
AcDbLinetypeTableRecord
  2
CENTER
 70
64
  3
____ _ ____ _ ____ _ ____ _ ____ _ ____ _ ____
 72
65
 73
4
 40
0.6
 49
0.375
 74
0
 49
-0.075
 74
0
 49
0.075
 74
0
 49
-0.075
 74
0
  0
LTYPE
  5
1F6
100
AcDbSymbolTableRecord
100
AcDbLinetypeTableRecord
  2
HIDDEN
 70
64
  3
- - - - - - - - - - - - - - - - - - - -
 72
65
 73
2
 40
0.2
 49
0.1
 74
0
 49
-0.1
 74
0
  0
LTYPE
  5
1F7
100
AcDbSymbolTableRecord
100
AcDbLinetypeTableRecord
  2
PHANTOM
 70
64
  3
_____ _ _ _____ _ _ _____ _ _ _____
 72
65
 73
6
 40
0.8
 49
0.45
 74
0
 49
-0.05
 74
0
 49
0.1
 74
0
 49
-0.05
 74
0
 49
0.1
 74
0
 49
-0.05
 74
0
  0
LTYPE
  5
1F8
100
AcDbSymbolTableRecord
100
AcDbLinetypeTableRecord
  2
DOT
 70
64
  3
. . . . . . . . . . . . . . . . . . . .
 72
65
 73
2
 40
0.2
 49
0.1
 74
0
 49
-0.1
 74
0
  0
LTYPE
  5
1F9
100
AcDbSymbolTableRecord
100
AcDbLinetypeTableRecord
  2
DASHED
 70
64
  3
- - - - - - - - - - - - - - - - - - - -
 72
65
 73
2
 40
0.2
 49
0.1
 74
0
 49
-0.1
 74
0
  0
ENDTAB
  0
TABLE
  2
LAYER
  5
2
100
AcDbSymbolTable
 70
36
  0
LAYER
  5
10
100
AcDbSymbolTableRecord
100
AcDbLayerTableRecord
  2
0
 70
0
 62
7
  6
CONTINUOUS
370
-3
390
F
  0
LAYER
  5
1FA
100
AcDbSymbolTableRecord
100
AcDbLayerTableRecord
  2
DEFAULT_1
 70
0
 62
7
  6
CENTER
370
-3
390
F
  0
LAYER
  5
1FB
100
AcDbSymbolTableRecord
100
AcDbLayerTableRecord
  2
DEFAULT_2
 70
0
 62
7
  6
HIDDEN
370
-3
390
F
  0
LAYER
  5
1FC
100
AcDbSymbolTableRecord
100
AcDbLayerTableRecord
  2
DEFAULT_3
 70
0
 62
7
  6
PHANTOM
370
-3
390
F
  0
LAYER
  5
1FD
100
AcDbSymbolTableRecord
100
AcDbLayerTableRecord
  2
ASSI
 70
0
 62
7
  6
CONTINUOUS
370
-3
390
F
  0
LAYER
  5
1FE
100
AcDbSymbolTableRecord
100
AcDbLayerTableRecord
  2
COLOR5
 70
0
 62
7
  6
CONTINUOUS
370
-3
390
F
  0
LAYER
  5
1FF
100
AcDbSymbolTableRecord
100
AcDbLayerTableRecord
  2
COORDINATE
 70
0
 62
7
  6
CONTINUOUS
370
-3
390
F
  0
LAYER
  5
200
100
AcDbSymbolTableRecord
100
AcDbLayerTableRecord
  2
COORD_ORIGINE
 70
0
 62
7
  6
CONTINUOUS
370
-3
390
F
  0
LAYER
  5
201
100
AcDbSymbolTableRecord
100
AcDbLayerTableRecord
  2
COPY_PUBLISH
 70
0
 62
7
  6
CONTINUOUS
370
-3
390
F
  0
LAYER
  5
202
100
AcDbSymbolTableRecord
100
AcDbLayerTableRecord
  2
COSMETICI
 70
0
 62
7
  6
CONTINUOUS
370
-3
390
F
  0
LAYER
  5
203
100
AcDbSymbolTableRecord
100
AcDbLayerTableRecord
  2
CURVE
 70
0
 62
7
  6
CONTINUOUS
370
-3
390
F
  0
LAYER
  5
204
100
AcDbSymbolTableRecord
100
AcDbLayerTableRecord
  2
DRAFT
 70
0
 62
7
  6
CONTINUOUS
370
-3
390
F
  0
LAYER
  5
205
100
AcDbSymbolTableRecord
100
AcDbLayerTableRecord
  2
IMPORT_IGES
 70
0
 62
7
  6
CONTINUOUS
370
-3
390
F
  0
LAYER
  5
206
100
AcDbSymbolTableRecord
100
AcDbLayerTableRecord
  2
NOTE
 70
0
 62
7
  6
CONTINUOUS
370
-3
390
F
  0
LAYER
  5
207
100
AcDbSymbolTableRecord
100
AcDbLayerTableRecord
  2
PIANI
 70
0
 62
7
  6
CONTINUOUS
370
-3
390
F
  0
LAYER
  5
208
100
AcDbSymbolTableRecord
100
AcDbLayerTableRecord
  2
PIANI_ORIGINE
 70
0
 62
7
  6
CONTINUOUS
370
-3
390
F
  0
LAYER
  5
209
100
AcDbSymbolTableRecord
100
AcDbLayerTableRecord
  2
PUNTI
 70
0
 62
7
  6
CONTINUOUS
370
-3
390
F
  0
LAYER
  5
20A
100
AcDbSymbolTableRecord
100
AcDbLayerTableRecord
  2
RACCORDO
 70
0
 62
7
  6
CONTINUOUS
370
-3
390
F
  0
LAYER
  5
20B
100
AcDbSymbolTableRecord
100
AcDbLayerTableRecord
  2
SIMBOLI
 70
0
 62
7
  6
CONTINUOUS
370
-3
390
F
  0
LAYER
  5
20C
100
AcDbSymbolTableRecord
100
AcDbLayerTableRecord
  2
SMUSSO
 70
0
 62
7
  6
CONTINUOUS
370
-3
390
F
  0
LAYER
  5
20D
100
AcDbSymbolTableRecord
100
AcDbLayerTableRecord
  2
SUPERFICI
 70
0
 62
7
  6
CONTINUOUS
370
-3
390
F
  0
LAYER
  5
20E
100
AcDbSymbolTableRecord
100
AcDbLayerTableRecord
  2
TRASH
 70
0
 62
7
  6
CONTINUOUS
370
-3
390
F
  0
ENDTAB
  0
TABLE
  2
STYLE
  5
3
100
AcDbSymbolTable
 70
1
  0
STYLE
  5
11
100
AcDbSymbolTableRecord
100
AcDbTextStyleTableRecord
  2
STANDARD
 70
0
 40
0.0
 41
0.8
 50
0.0
 71
0
 42
0.2
  3
txt
  4

  0
STYLE
  5
20F
100
AcDbSymbolTableRecord
100
AcDbTextStyleTableRecord
  2
TEXTSTYLE_1
 70
0
 40
0.0
 41
0.8
 50
0.0
 71
0
 42
0.2
  3
gdt
  4

  0
ENDTAB
  0
TABLE
  2
VIEW
  5
6
100
AcDbSymbolTable
 70
0
  0
ENDTAB
  0
TABLE
  2
UCS
  5
7
100
AcDbSymbolTable
 70
0
  0
ENDTAB
  0
TABLE
  2
APPID
  5
9
100
AcDbSymbolTable
 70
1
  0
APPID
  5
210
100
AcDbSymbolTableRecord
100
AcDbRegAppTableRecord
  2
ACAD
 70
0
  0
ENDTAB
  0
TABLE
  2
BLOCK_RECORD
  5
1
100
AcDbSymbolTable
 70
0
  0
BLOCK_RECORD
  5
211
100
AcDbSymbolTableRecord
100
AcDbBlockTableRecord
  2
*Model_Space
  0
BLOCK_RECORD
  5
212
100
AcDbSymbolTableRecord
100
AcDbBlockTableRecord
  2
*Paper_Space
  0
ENDTAB
  0
TABLE
  2
DIMSTYLE
  5
A
100
AcDbSymbolTable
 70
1
100
AcDbDimStyleTable
 71
0
  0
DIMSTYLE
105
213
100
AcDbSymbolTableRecord
100
AcDbDimStyleTableRecord
  2
STANDARD
 70
0
  3

  4

 40
1.0
 41
3.0
 42
0.5
 43
0.38
 44
1.5
 45
0.0
 46
0.0
 47
0.01
 48
0.01
140
3.0
141
0.09
142
0.0
143
25.4
144
1.0
145
0.0
146
1.0
147
0.625
 71
1.0
 72
0.0
 73
0
 74
0
 75
0
 76
0
 77
1
 78
8
170
0
171
2
172
0
173
0
174
0
175
0
176
0
177
0
178
0
270
2
271
2
272
2
273
2
274
2
275
0
280
0
281
0
282
0
283
1
284
8
285
0
286
0
287
3
288
0
340
11
278
44
  0
ENDTAB
  0
ENDSEC
  0
SECTION
  2
BLOCKS
  0
BLOCK
  5
20
100
AcDbEntity
  8
0
100
AcDbBlockBegin
  2
*Model_Space
 70
0
 10
0.0
 20
0.0
 30
0.0
  3
*Model_Space
  1

  0
ENDBLK
  5
21
100
AcDbEntity
  8
0
100
AcDbBlockEnd
  0
BLOCK
  5
1C
100
AcDbEntity
  8
0
100
AcDbBlockBegin
  2
*Paper_Space
 70
0
 10
0.0
 20
0.0
 30
0.0
  3
*Paper_Space
  1

  0
ENDBLK
  5
1D
100
AcDbEntity
  8
0
100
AcDbBlockEnd
  0
ENDSEC
  0
SECTION
  2
ENTITIES
  0
LWPOLYLINE
  5
214
100
AcDbEntity
  8
RACCORDO
100
AcDbPolyline
 62
7
  6
CONTINUOUS
 90
8
 70
0
 10
18.1164709979
 20
-113.7319629345
 10
18.0654753122
 20
-113.7389599162
 10
18.0144216613
 20
-113.7426533828
 10
17.9633100455
 20
-113.7430433342
 10
17.9118458733
 20
-113.7400960148
 10
17.860323736
 20
-113.7338451802
 10
17.8096274074
 20
-113.7243920976
 10
17.7599164394
 20
-113.7117242857
  0
LWPOLYLINE
  5
215
100
AcDbEntity
  8
RACCORDO
100
AcDbPolyline
 62
253
  6
CONTINUOUS
 90
8
 70
0
 10
18.0989043715
 20
-113.7172418199
 10
18.0478635423
 20
-113.7242389858
 10
17.9964790168
 20
-113.7279360168
 10
17.9449639403
 20
-113.7283175775
 10
17.8935319995
 20
-113.725382085
 10
17.8423965363
 20
-113.719141716
 10
17.7917696627
 20
-113.7096223557
 10
17.7418613812
 20
-113.6968634909
  0
LWPOLYLINE
  5
216
100
AcDbEntity
  8
RACCORDO
100
AcDbPolyline
 62
253
  6
CONTINUOUS
 90
7
 70
0
 10
18.0786848282
 20
-113.6956793189
 10
18.0276440987
 20
-113.7026729263
 10
17.9762602909
 20
-113.7063670426
 10
17.9247465357
 20
-113.7067463452
 10
17.8733165027
 20
-113.7038092608
 10
17.8221835145
 20
-113.697567972
 10
17.7838356705
 20
-113.690356819
  0
LINE
  5
217
100
AcDbEntity
  8
RACCORDO
100
AcDbLine
 62
253
  6
CONTINUOUS
 10
10.2200758188
 20
-114.3311615134
 11
12.6325167138
 21
-114.1070243654
  0
LINE
  5
218
100
AcDbEntity
  8
RACCORDO
100
AcDbLine
 62
7
  6
CONTINUOUS
 10
10.2202933351
 20
-114.3334974137
 11
12.507802458
 21
-114.120987592
  0
LINE
  5
219
100
AcDbEntity
  8
RACCORDO
100
AcDbLine
 62
253
  6
CONTINUOUS
 10
12.6325167138
 20
-114.1070243654
 11
13.6386956201
 21
-114.0143471423
  0
LINE
  5
21A
100
AcDbEntity
  8
RACCORDO
100
AcDbLine
 62
7
  6
CONTINUOUS
 10
12.507802458
 20
-114.120987592
 11
13.6271547281
 21
-114.0179228194
  0
LINE
  5
21B
100
AcDbEntity
  8
RACCORDO
100
AcDbLine
 62
253
  6
CONTINUOUS
 10
13.6386956201
 20
-114.0143471423
 11
14.3504583448
 21
-113.9495246055
  0
LINE
  5
21C
100
AcDbEntity
  8
RACCORDO
100
AcDbLine
 62
7
  6
CONTINUOUS
 10
13.6271547281
 20
-114.0179228194
 11
14.4516046875
 21
-113.9430227835
  0
LINE
  5
21D
100
AcDbEntity
  8
RACCORDO
100
AcDbLine
 62
253
  6
CONTINUOUS
 10
14.3504583448
 20
-113.9495246055
 11
15.0177696046
 21
-113.8897018588
  0
LINE
  5
21E
100
AcDbEntity
  8
RACCORDO
100
AcDbLine
 62
7
  6
CONTINUOUS
 10
14.4516046875
 20
-113.9430227835
 11
15.0465998408
 21
-113.8899099076
  0
LINE
  5
21F
100
AcDbEntity
  8
RACCORDO
100
AcDbLine
 62
253
  6
CONTINUOUS
 10
15.0177696046
 20
-113.8897018588
 11
15.6333060025
 21
-113.8358212983
  0
LINE
  5
220
100
AcDbEntity
  8
RACCORDO
100
AcDbLine
 62
7
  6
CONTINUOUS
 10
15.0465998408
 20
-113.8899099076
 11
15.5733587826
 21
-113.8439229064
  0
LINE
  5
221
100
AcDbEntity
  8
RACCORDO
100
AcDbLine
 62
253
  6
CONTINUOUS
 10
15.6333060025
 20
-113.8358212983
 11
16.0117342965
 21
-113.8036262659
  0
LINE
  5
222
100
AcDbEntity
  8
RACCORDO
100
AcDbLine
 62
7
  6
CONTINUOUS
 10
15.5733587826
 20
-113.8439229064
 11
15.9873762831
 21
-113.8087810662
  0
LINE
  5
223
100
AcDbEntity
  8
RACCORDO
100
AcDbLine
 62
253
  6
CONTINUOUS
 10
16.0117342965
 20
-113.8036262659
 11
16.3625055165
 21
-113.7746977655
  0
LINE
  5
224
100
AcDbEntity
  8
RACCORDO
100
AcDbLine
 62
7
  6
CONTINUOUS
 10
15.9873762831
 20
-113.8087810662
 11
16.3533278549
 21
-113.7787766395
  0
LINE
  5
225
100
AcDbEntity
  8
RACCORDO
100
AcDbLine
 62
253
  6
CONTINUOUS
 10
16.3625055165
 20
-113.7746977655
 11
16.6841378607
 21
-113.749242056
  0
LINE
  5
226
100
AcDbEntity
  8
RACCORDO
100
AcDbLine
 62
7
  6
CONTINUOUS
 10
16.3533278549
 20
-113.7787766395
 11
16.6363758008
 21
-113.7565254879
  0
LINE
  5
227
100
AcDbEntity
  8
RACCORDO
100
AcDbLine
 62
253
  6
CONTINUOUS
 10
16.6841378607
 20
-113.749242056
 11
16.9756387677
 21
-113.7274249148
  0
LINE
  5
228
100
AcDbEntity
  8
RACCORDO
100
AcDbLine
 62
7
  6
CONTINUOUS
 10
16.6363758008
 20
-113.7565254879
 11
16.8866904294
 21
-113.7378188553
  0
LINE
  5
229
100
AcDbEntity
  8
RACCORDO
100
AcDbLine
 62
7
  6
CONTINUOUS
 10
16.8866904294
 20
-113.7378188553
 11
17.076456211
 21
-113.72447217
  0
LWPOLYLINE
  5
22A
100
AcDbEntity
  8
RACCORDO
100
AcDbPolyline
 62
253
  6
CONTINUOUS
 90
7
 70
0
 10
16.9756387677
 20
-113.7274249148
 10
17.2356640563
 20
-113.7094389239
 10
17.3532997105
 20
-113.7019415421
 10
17.4623696948
 20
-113.6954753256
 10
17.5630008161
 20
-113.6900416659
 10
17.6550299967
 20
-113.6856671072
 10
17.7385665731
 20
-113.6823494262
  0
LINE
  5
22B
100
AcDbEntity
  8
RACCORDO
100
AcDbLine
 62
7
  6
CONTINUOUS
 10
17.076456211
 20
-113.72447217
 11
17.2176434591
 21
-113.7151762496
  0
LINE
  5
22C
100
AcDbEntity
  8
RACCORDO
100
AcDbLine
 62
7
  6
CONTINUOUS
 10
17.2176434591
 20
-113.7151762496
 11
17.3437782278
 21
-113.7074814455
  0
LINE
  5
22D
100
AcDbEntity
  8
RACCORDO
100
AcDbLine
 62
7
  6
CONTINUOUS
 10
17.3437782278
 20
-113.7074814455
 11
17.4340597567
 21
-113.702437026
  0
LINE
  5
22E
100
AcDbEntity
  8
RACCORDO
100
AcDbLine
 62
7
  6
CONTINUOUS
 10
17.4340597567
 20
-113.702437026
 11
17.5150740058
 21
-113.698341416
  0
LINE
  5
22F
100
AcDbEntity
  8
RACCORDO
100
AcDbLine
 62
7
  6
CONTINUOUS
 10
17.5150740058
 20
-113.698341416
 11
17.5698304523
 21
-113.6958680012
  0
LINE
  5
230
100
AcDbEntity
  8
RACCORDO
100
AcDbLine
 62
7
  6
CONTINUOUS
 10
17.5698304523
 20
-113.6958680012
 11
17.6194791422
 21
-113.6938862603
  0
LINE
  5
231
100
AcDbEntity
  8
RACCORDO
100
AcDbLine
 62
7
  6
CONTINUOUS
 10
17.6194791422
 20
-113.6938862603
 11
17.6640389485
 21
-113.6923744203
  0
LWPOLYLINE
  5
232
100
AcDbEntity
  8
RACCORDO
100
AcDbPolyline
 62
253
  6
CONTINUOUS
 90
9
 70
0
 10
17.7385665731
 20
-113.6823494262
 10
17.8134952666
 20
-113.6800961443
 10
17.8793166103
 20
-113.6789523702
 10
17.9359799692
 20
-113.6789368
 10
17.9835301763
 20
-113.6800345495
 10
18.0216128364
 20
-113.6822522071
 10
18.0501090435
 20
-113.685598564
 10
18.0691338326
 20
-113.6900743353
 10
18.0786848282
 20
-113.6956793189
  0
LINE
  5
233
100
AcDbEntity
  8
RACCORDO
100
AcDbLine
 62
7
  6
CONTINUOUS
 10
17.6640389485
 20
-113.6923744203
 11
17.6909122055
 21
-113.6916151062
  0
LINE
  5
234
100
AcDbEntity
  8
RACCORDO
100
AcDbLine
 62
7
  6
CONTINUOUS
 10
17.6909122055
 20
-113.6916151062
 11
17.7155119862
 21
-113.691044079
  0
LINE
  5
235
100
AcDbEntity
  8
RACCORDO
100
AcDbLine
 62
7
  6
CONTINUOUS
 10
17.7155119862
 20
-113.691044079
 11
17.7378073485
 21
-113.6906508624
  0
LINE
  5
236
100
AcDbEntity
  8
RACCORDO
100
AcDbLine
 62
7
  6
CONTINUOUS
 10
17.7378073485
 20
-113.6906508624
 11
17.7577350159
 21
-113.6904227525
  0
LINE
  5
237
100
AcDbEntity
  8
RACCORDO
100
AcDbLine
 62
7
  6
CONTINUOUS
 10
-16.7446291897
 20
-113.6904302787
 11
-16.7309986547
 21
-113.6903471526
  0
LINE
  5
238
100
AcDbEntity
  8
RACCORDO
100
AcDbLine
 62
7
  6
CONTINUOUS
 10
17.7577350159
 20
-113.6904227525
 11
17.7752608777
 21
-113.6903431678
  0
LINE
  5
239
100
AcDbEntity
  8
RACCORDO
100
AcDbLine
 62
7
  6
CONTINUOUS
 10
-16.7309986547
 20
-113.6903471526
 11
-16.7149762857
 21
-113.6903744447
  0
LWPOLYLINE
  5
23A
100
AcDbEntity
  8
RACCORDO
100
AcDbPolyline
 62
7
  6
CONTINUOUS
 90
10
 70
0
 10
17.7752608777
 20
-113.6903431678
 10
17.7903060741
 20
-113.6903914933
 10
17.796850321
 20
-113.6904552602
 10
17.8027394287
 20
-113.6905401179
 10
17.8079714228
 20
-113.690641624
 10
17.8124680331
 20
-113.690752836
 10
17.8162497963
 20
-113.6908678971
 10
17.8193100182
 20
-113.6909798049
 10
17.8215301399
 20
-113.6910755856
 10
17.8224382488
 20
-113.6911198644
  0
LINE
  5
23B
100
AcDbEntity
  8
RACCORDO
100
AcDbLine
 62
7
  6
CONTINUOUS
 10
-16.7149762857
 20
-113.6903744447
 11
-16.6966215398
 21
-113.6905339715
  0
LINE
  5
23C
100
AcDbEntity
  8
RACCORDO
100
AcDbLine
 62
7
  6
CONTINUOUS
 10
-16.6966215398
 20
-113.6905339715
 11
-16.6759435253
 21
-113.6908438231
  0
LINE
  5
23D
100
AcDbEntity
  8
RACCORDO
100
AcDbLine
 62
7
  6
CONTINUOUS
 10
-16.6759435253
 20
-113.6908438231
 11
-16.6529192466
 21
-113.6913201103
  0
LINE
  5
23E
100
AcDbEntity
  8
RACCORDO
100
AcDbLine
 62
7
  6
CONTINUOUS
 10
-16.6529192466
 20
-113.6913201103
 11
-16.6275265065
 21
-113.6919772012
  0
LINE
  5
23F
100
AcDbEntity
  8
RACCORDO
100
AcDbLine
 62
7
  6
CONTINUOUS
 10
-16.6275265065
 20
-113.6919772012
 11
-16.5997160419
 21
-113.6928288202
  0
LINE
  5
240
100
AcDbEntity
  8
RACCORDO
100
AcDbLine
 62
7
  6
CONTINUOUS
 10
-16.5997160419
 20
-113.6928288202
 11
-16.5533309201
 21
-113.6944999311
  0
LWPOLYLINE
  5
241
100
AcDbEntity
  8
RACCORDO
100
AcDbPolyline
 62
253
  6
CONTINUOUS
 90
5
 70
0
 10
-16.6968832827
 20
-113.6820592792
 10
-16.6147049105
 20
-113.6852464138
 10
-16.5237113401
 20
-113.6895090149
 10
-16.4239400464
 20
-113.6948288756
 10
-16.3158007932
 20
-113.7011748974
  0
LINE
  5
242
100
AcDbEntity
  8
RACCORDO
100
AcDbLine
 62
7
  6
CONTINUOUS
 10
-16.5533309201
 20
-113.6944999311
 11
-16.5011309864
 21
-113.6966819428
  0
LINE
  5
243
100
AcDbEntity
  8
RACCORDO
100
AcDbLine
 62
7
  6
CONTINUOUS
 10
-16.5011309864
 20
-113.6966819428
 11
-16.4428406288
 21
-113.6994182074
  0
LINE
  5
244
100
AcDbEntity
  8
RACCORDO
100
AcDbLine
 62
7
  6
CONTINUOUS
 10
-16.4428406288
 20
-113.6994182074
 11
-16.355095628
 21
-113.7040061099
  0
LINE
  5
245
100
AcDbEntity
  8
RACCORDO
100
AcDbLine
 62
7
  6
CONTINUOUS
 10
-16.355095628
 20
-113.7040061099
 11
-16.255103335
 21
-113.7097690659
  0
LINE
  5
246
100
AcDbEntity
  8
RACCORDO
100
AcDbLine
 62
7
  6
CONTINUOUS
 10
-16.255103335
 20
-113.7097690659
 11
-16.111815897
 21
-113.7187761517
  0
LINE
  5
247
100
AcDbEntity
  8
RACCORDO
100
AcDbLine
 62
253
  6
CONTINUOUS
 10
-16.3158007932
 20
-113.7011748974
 11
-16.0744296794
 21
-113.7169230431
  0
LINE
  5
248
100
AcDbEntity
  8
RACCORDO
100
AcDbLine
 62
7
  6
CONTINUOUS
 10
-16.111815897
 20
-113.7187761517
 11
-15.9473514307
 21
-113.7299317134
  0
LINE
  5
249
100
AcDbEntity
  8
RACCORDO
100
AcDbLine
 62
253
  6
CONTINUOUS
 10
-16.0744296794
 20
-113.7169230431
 11
-15.800818712
 21
-113.7365910851
  0
LINE
  5
24A
100
AcDbEntity
  8
RACCORDO
100
AcDbLine
 62
7
  6
CONTINUOUS
 10
-15.9473514307
 20
-113.7299317134
 11
-15.7209430461
 21
-113.7463348574
  0
LINE
  5
24B
100
AcDbEntity
  8
RACCORDO
100
AcDbLine
 62
253
  6
CONTINUOUS
 10
-15.800818712
 20
-113.7365910851
 11
-15.4958255793
 21
-113.7600384626
  0
LINE
  5
24C
100
AcDbEntity
  8
RACCORDO
100
AcDbLine
 62
7
  6
CONTINUOUS
 10
-15.7209430461
 20
-113.7463348574
 11
-15.4616111942
 21
-113.766211027
  0
LINE
  5
24D
100
AcDbEntity
  8
RACCORDO
100
AcDbLine
 62
253
  6
CONTINUOUS
 10
-15.4958255793
 20
-113.7600384626
 11
-15.160701071
 21
-113.7870906795
  0
LINE
  5
24E
100
AcDbEntity
  8
RACCORDO
100
AcDbLine
 62
7
  6
CONTINUOUS
 10
-15.4616111942
 20
-113.766211027
 11
-15.1157825993
 21
-113.7940058602
  0
LINE
  5
24F
100
AcDbEntity
  8
RACCORDO
100
AcDbLine
 62
253
  6
CONTINUOUS
 10
-15.160701071
 20
-113.7870906795
 11
-14.7971924217
 21
-113.8175190021
  0
LINE
  5
250
100
AcDbEntity
  8
RACCORDO
100
AcDbLine
 62
7
  6
CONTINUOUS
 10
-15.1157825993
 20
-113.7940058602
 11
-14.7220057641
 21
-113.8269289204
  0
LINE
  5
251
100
AcDbEntity
  8
RACCORDO
100
AcDbLine
 62
253
  6
CONTINUOUS
 10
-14.7971924217
 20
-113.8175190021
 11
-14.4065505172
 21
-113.8511274632
  0
LINE
  5
252
100
AcDbEntity
  8
RACCORDO
100
AcDbLine
 62
7
  6
CONTINUOUS
 10
-14.7220057641
 20
-113.8269289204
 11
-14.279285555
 21
-113.8650829972
  0
LINE
  5
253
100
AcDbEntity
  8
RACCORDO
100
AcDbLine
 62
253
  6
CONTINUOUS
 10
-14.4065505172
 20
-113.8511274632
 11
-13.774302577
 21
-113.9069214106
  0
LINE
  5
254
100
AcDbEntity
  8
RACCORDO
100
AcDbLine
 62
7
  6
CONTINUOUS
 10
-14.279285555
 20
-113.8650829972
 11
-13.7103227627
 21
-113.9153392145
  0
LINE
  5
255
100
AcDbEntity
  8
RACCORDO
100
AcDbLine
 62
253
  6
CONTINUOUS
 10
-13.774302577
 20
-113.9069214106
 11
-13.0926611114
 21
-113.9683608695
  0
LINE
  5
256
100
AcDbEntity
  8
RACCORDO
100
AcDbLine
 62
7
  6
CONTINUOUS
 10
-13.7103227627
 20
-113.9153392145
 11
-12.9844274447
 21
-113.9807749892
  0
LINE
  5
257
100
AcDbEntity
  8
RACCORDO
100
AcDbLine
 62
7
  6
CONTINUOUS
 10
-12.9844274447
 20
-113.9807749892
 11
-11.9657927756
 21
-114.0740777531
  0
LINE
  5
258
100
AcDbEntity
  8
RACCORDO
100
AcDbLine
 62
253
  6
CONTINUOUS
 10
-13.0926611114
 20
-113.9683608695
 11
-12.1180163944
 21
-114.0575872161
  0
LINE
  5
259
100
AcDbEntity
  8
RACCORDO
100
AcDbLine
 62
7
  6
CONTINUOUS
 10
-11.9657927756
 20
-114.0740777531
 11
-9.1702933289
 21
-114.3334974137
  0
LINE
  5
25A
100
AcDbEntity
  8
RACCORDO
100
AcDbLine
 62
253
  6
CONTINUOUS
 10
-12.1180163944
 20
-114.0575872161
 11
-9.1700758126
 21
-114.3311615134
  0
LWPOLYLINE
  5
25B
100
AcDbEntity
  8
RACCORDO
100
AcDbPolyline
 62
253
  6
CONTINUOUS
 90
5
 70
0
 10
-17.0286848221
 20
-113.6956793189
 10
-16.9776440435
 20
-113.7026729314
 10
-16.926260191
 20
-113.7063670463
 10
-16.8747463959
 20
-113.7067463419
 10
-16.8233163286
 20
-113.7038092458
  0
LWPOLYLINE
  5
25C
100
AcDbEntity
  8
RACCORDO
100
AcDbPolyline
 62
253
  6
CONTINUOUS
 90
8
 70
0
 10
-17.0489043653
 20
-113.7172418199
 10
-16.9978635361
 20
-113.7242389858
 10
-16.9464790107
 20
-113.7279360168
 10
-16.8949639342
 20
-113.7283175775
 10
-16.8435319934
 20
-113.725382085
 10
-16.7923965302
 20
-113.719141716
 10
-16.7417696566
 20
-113.7096223557
 10
-16.691861375
 20
-113.6968634909
  0
LWPOLYLINE
  5
25D
100
AcDbEntity
  8
RACCORDO
100
AcDbPolyline
 62
7
  6
CONTINUOUS
 90
8
 70
0
 10
-16.7099164332
 20
-113.7117242857
 10
-16.7596274013
 20
-113.7243920976
 10
-16.8103237299
 20
-113.7338451802
 10
-16.8618458671
 20
-113.7400960148
 10
-16.9133100393
 20
-113.7430433342
 10
-16.9644216552
 20
-113.7426533828
 10
-17.015475306
 20
-113.7389599162
 10
-17.0664709918
 20
-113.7319629345
  0
LWPOLYLINE
  5
25E
100
AcDbEntity
  8
RACCORDO
100
AcDbPolyline
 62
253
  6
CONTINUOUS
 90
3
 70
0
 10
-16.8233163286
 20
-113.7038092458
 10
-16.7721833118
 20
-113.6975679415
 10
-16.7338466735
 20
-113.6903588852
  0
LWPOLYLINE
  5
25F
100
AcDbEntity
  8
RACCORDO
100
AcDbPolyline
 62
7
  6
CONTINUOUS
 90
10
 70
0
 10
-16.7734655244
 20
-113.6911760892
 10
-16.7732481304
 20
-113.6911633222
 10
-16.7722221829
 20
-113.6911089808
 10
-16.7703544174
 20
-113.6910230044
 10
-16.7677731693
 20
-113.6909211543
 10
-16.7644863756
 20
-113.69081146
 10
-16.7604739459
 20
-113.6907004566
 10
-16.7558259297
 20
-113.6905967095
 10
-16.7505504418
 20
-113.6905052397
 10
-16.7446291897
 20
-113.6904302787
  0
LWPOLYLINE
  5
260
100
AcDbEntity
  8
RACCORDO
100
AcDbPolyline
 62
7
  6
CONTINUOUS
 90
3
 70
0
 10
17.7599164394
 20
-113.7117242857
 10
17.71103128
 20
-113.6958542258
 10
17.699812783
 20
-113.6913969825
  0
LINE
  5
261
100
AcDbEntity
  8
RACCORDO
100
AcDbLine
 62
253
  6
CONTINUOUS
 10
17.7418613812
 20
-113.6968634909
 11
17.723515953
 21
-113.6908914598
  0
LWPOLYLINE
  5
262
100
AcDbEntity
  8
0
100
AcDbPolyline
 62
253
  6
CONTINUOUS
 90
13
 70
0
 10
-66.7039069937
 20
-77.299110698
 10
-66.7118195333
 20
-77.2950125145
 10
-66.7199257755
 20
-77.2916462676
 10
-66.7282396871
 20
-77.2890122111
 10
-66.7368525667
 20
-77.2871063583
 10
-66.7456957684
 20
-77.2859347671
 10
-66.7545391467
 20
-77.2855212172
 10
-66.7633771646
 20
-77.2859080188
 10
-66.7722231458
 20
-77.2870764498
 10
-66.7808689682
 20
-77.288970692
 10
-66.7892419487
 20
-77.2915850032
 10
-66.7974066641
 20
-77.2949593976
 10
-66.805356269
 20
-77.299110698
  0
LWPOLYLINE
  5
263
100
AcDbEntity
  8
0
100
AcDbPolyline
 62
253
  6
CONTINUOUS
 90
3
 70
0
 10
-66.6075909669
 20
-77.3546730201
 10
-66.6786472158
 20
-77.3138328523
 10
-66.7039069937
 20
-77.299110698
  0
LINE
  5
264
100
AcDbEntity
  8
0
100
AcDbLine
 62
7
  6
CONTINUOUS
 10
-65.0794715686
 20
-78.1064475627
 11
-66.6430374285
 21
-77.2037223926
  0
LINE
  5
265
100
AcDbEntity
  8
0
100
AcDbLine
 62
7
  6
CONTINUOUS
 10
-65.0430374285
 20
-77.2037223926
 11
-64.4939680715
 21
-77.5207277337
  0
LINE
  5
266
100
AcDbEntity
  8
0
100
AcDbLine
 62
253
  6
CONTINUOUS
 10
-65.0462806788
 20
-78.2561416971
 11
-66.2479866498
 21
-77.5623570095
  0
LINE
  5
267
100
AcDbEntity
  8
0
100
AcDbLine
 62
253
  6
CONTINUOUS
 10
-64.9792693125
 20
-77.1233953987
 11
-64.3274230194
 21
-77.4997390315
  0
LINE
  5
268
100
AcDbEntity
  8
0
100
AcDbLine
 62
253
  6
CONTINUOUS
 10
-66.2479866498
 20
-77.5623570095
 11
-66.6075909669
 21
-77.3546730201
  0
LWPOLYLINE
  5
269
100
AcDbEntity
  8
0
100
AcDbPolyline
 62
7
  6
CONTINUOUS
 90
10
 70
0
 10
-65.0794715686
 20
-78.1064475627
 10
-65.0741995861
 20
-78.1098185345
 10
-65.0694613835
 20
-78.1133823263
 10
-65.0652605443
 20
-78.1171447797
 10
-65.0616043229
 20
-78.1211404023
 10
-65.0584931117
 20
-78.1253444551
 10
-65.0559196254
 20
-78.129673329
 10
-65.0538832228
 20
-78.1341015782
 10
-65.052390739
 20
-78.1386615328
 10
-65.0514453686
 20
-78.1433556574
  0
LWPOLYLINE
  5
26A
100
AcDbEntity
  8
0
100
AcDbPolyline
 62
7
  6
CONTINUOUS
 90
8
 70
0
 10
-65.9709272266
 20
-74.9537802413
 10
-65.9799217149
 20
-74.9427612643
 10
-65.9897232454
 20
-74.931616062
 10
-66.0002057731
 20
-74.9205079319
 10
-66.0109688595
 20
-74.9093713574
 10
-66.0218744459
 20
-74.8982814651
 10
-66.0330502392
 20
-74.8874856884
 10
-66.0444867038
 20
-74.8771280888
  0
LINE
  5
26B
100
AcDbEntity
  8
0
100
AcDbLine
 62
7
  6
CONTINUOUS
 10
-65.9549079545
 20
-74.9740774146
 11
-65.9709272266
 21
-74.9537802413
  0
LWPOLYLINE
  5
26C
100
AcDbEntity
  8
0
100
AcDbPolyline
 62
7
  6
CONTINUOUS
 90
10
 70
0
 10
-65.9549079545
 20
-74.9740774146
 10
-65.952511359
 20
-74.9777259971
 10
-65.9503593691
 20
-74.9815004907
 10
-65.9484634873
 20
-74.9853976343
 10
-65.94683342
 20
-74.9894244103
 10
-65.9454813572
 20
-74.9935667106
 10
-65.9444194093
 20
-74.9977892704
 10
-65.9436548371
 20
-75.0020775629
 10
-65.9431925036
 20
-75.0064378863
 10
-65.9430374285
 20
-75.0108659837
  0
LWPOLYLINE
  5
26D
100
AcDbEntity
  8
0
100
AcDbPolyline
 62
253
  6
CONTINUOUS
 90
16
 70
0
 10
-66.0952113415
 20
-75.7176730041
 10
-66.0895214082
 20
-75.7274432997
 10
-66.0838766283
 20
-75.737265538
 10
-66.0783495605
 20
-75.7470134655
 10
-66.0730112557
 20
-75.756561775
 10
-66.0679303354
 20
-75.7657877303
 10
-66.0631721106
 20
-75.774572742
 10
-66.0587977511
 20
-75.7828038778
 10
-66.0548635035
 20
-75.7903753044
 10
-66.0514199588
 20
-75.7971896646
 10
-66.0485113926
 20
-75.8031593464
 10
-66.0461752103
 20
-75.8082075829
 10
-66.0444414629
 20
-75.8122694427
 10
-66.0433324455
 20
-75.8152926956
 10
-66.0428624182
 20
-75.8172384718
 10
-66.043037429
 20
-75.8180817469
  0
LWPOLYLINE
  5
26E
100
AcDbEntity
  8
0
100
AcDbPolyline
 62
253
  6
CONTINUOUS
 90
13
 70
0
 10
-66.805356269
 20
-77.299110698
 10
-66.811859317
 20
-77.287642126
 10
-66.8180343556
 20
-77.2762203074
 10
-66.8237737723
 20
-77.2650442903
 10
-66.8289775463
 20
-77.2543088394
 10
-66.8335549912
 20
-77.2442010415
 10
-66.8374263359
 20
-77.2348970454
 10
-66.8405241144
 20
-77.226558992
 10
-66.8427943418
 20
-77.2193321886
 10
-66.8441974546
 20
-77.2133425769
 10
-66.8447090011
 20
-77.2086945379
 10
-66.8443200664
 20
-77.2054690731
 10
-66.8430374285
 20
-77.2037223926
  0
LWPOLYLINE
  5
26F
100
AcDbEntity
  8
0
100
AcDbPolyline
 62
253
  6
CONTINUOUS
 90
16
 70
0
 10
-67.6814375761
 20
-76.6334811476
 10
-67.6759393415
 20
-76.6433623439
 10
-67.6701925386
 20
-76.6531258576
 10
-67.6642710354
 20
-76.6626461848
 10
-67.6582509556
 20
-76.6718009329
 10
-67.6522096745
 20
-76.6804724327
 10
-67.6462248249
 20
-76.6885492431
 10
-67.6403733279
 20
-76.6959275423
 10
-67.6347304225
 20
-76.7025124449
 10
-67.6293686712
 20
-76.7082192653
 10
-67.6243570028
 20
-76.7129746306
 10
-67.6197598513
 20
-76.7167173935
 10
-67.6156363381
 20
-76.7193994155
 10
-67.6120394779
 20
-76.7209862167
 10
-67.6090155031
 20
-76.7214574028
 10
-67.6066032883
 20
-76.7208069166
  0
LWPOLYLINE
  5
270
100
AcDbEntity
  8
0
100
AcDbPolyline
 62
7
  6
CONTINUOUS
 90
8
 70
0
 10
-67.4275995894
 20
55.3626509845
 10
-67.4326450593
 20
55.3493520406
 10
-67.4373963224
 20
55.3352910651
 10
-67.4417749815
 20
55.3206588648
 10
-67.4460379947
 20
55.3057694713
 10
-67.4501893299
 20
55.2907800102
 10
-67.4539508502
 20
55.2757036009
 10
-67.4572025622
 20
55.2606205323
  0
LINE
  5
271
100
AcDbEntity
  8
0
100
AcDbLine
 62
7
  6
CONTINUOUS
 10
-67.4180313578
 20
55.3866726677
 11
-67.4275995894
 21
55.3626509845
  0
LWPOLYLINE
  5
272
100
AcDbEntity
  8
0
100
AcDbPolyline
 62
7
  6
CONTINUOUS
 90
10
 70
0
 10
-67.4180313578
 20
55.3866726677
 10
-67.4160698905
 20
55.3905724716
 10
-67.413877078
 20
55.3943233963
 10
-67.4114499936
 20
55.3979138499
 10
-67.408777737
 20
55.4013389176
 10
-67.4058664311
 20
55.4045809885
 10
-67.402740561
 20
55.4076119422
 10
-67.3994090768
 20
55.4104182274
 10
-67.3958640927
 20
55.4129987817
 10
-67.3921067855
 20
55.4153471294
  0
LWPOLYLINE
  5
273
100
AcDbEntity
  8
0
100
AcDbPolyline
 62
253
  6
CONTINUOUS
 90
16
 70
0
 10
-66.7039069937
 20
55.6369641651
 10
-66.6982906359
 20
55.6467769401
 10
-66.6926067178
 20
55.6565765824
 10
-66.6869282987
 20
55.6662371275
 10
-66.6813283724
 20
55.67563439
 10
-66.6758789208
 20
55.6846475738
 10
-66.6706499899
 20
55.6931608232
 10
-66.665708797
 20
55.7010646974
 10
-66.661118873
 20
55.708257569
 10
-66.6569392365
 20
55.7146469461
 10
-66.6532236237
 20
55.720150679
 10
-66.6500198139
 20
55.7246979903
 10
-66.6473690139
 20
55.7282303892
 10
-66.6453053088
 20
55.7307024528
 10
-66.643855231
 20
55.7320823964
 10
-66.6430374279
 20
55.7323524701
  0
LWPOLYLINE
  5
274
100
AcDbEntity
  8
0
100
AcDbPolyline
 62
253
  6
CONTINUOUS
 90
13
 70
0
 10
-64.9792693125
 20
55.8126794644
 10
-64.9859498632
 20
55.8013133738
 10
-64.9927539289
 20
55.7902547242
 10
-64.9995629352
 20
55.7796962351
 10
-65.0062582214
 20
55.7698219092
 10
-65.0127231087
 20
55.7608038267
 10
-65.0188449333
 20
55.7527991457
 10
-65.0245170101
 20
55.7459473641
 10
-65.0296404918
 20
55.7403678878
 10
-65.0341260913
 20
55.7361579505
 10
-65.0378956379
 20
55.7333909188
 10
-65.0408834398
 20
55.7321150137
 10
-65.0430374285
 20
55.7323524704
  0
LWPOLYLINE
  5
275
100
AcDbEntity
  8
0
100
AcDbPolyline
 62
253
  6
CONTINUOUS
 90
10
 70
0
 10
-67.733366214
 20
56.2519677127
 10
-67.7290793126
 20
56.2586363067
 10
-67.7243927515
 20
56.265077282
 10
-67.7193086263
 20
56.2712879812
 10
-67.7137971555
 20
56.2773044577
 10
-67.7078918258
 20
56.2830856456
 10
-67.7016907081
 20
56.2885156884
 10
-67.695228858
 20
56.2935573424
 10
-67.6884769948
 20
56.2982496439
 10
-67.6814375761
 20
56.3025937154
  0
LWPOLYLINE
  5
276
100
AcDbEntity
  8
0
100
AcDbPolyline
 62
253
  6
CONTINUOUS
 90
13
 70
0
 10
-66.0952113415
 20
57.218401859
 10
-66.0877055714
 20
57.2232053382
 10
-66.080736786
 20
57.2285428356
 10
-66.0742982134
 20
57.2344265736
 10
-66.0683406418
 20
57.2409337313
 10
-66.0629037326
 20
57.2480077816
 10
-66.0581234622
 20
57.2554609893
 10
-66.0540393885
 20
57.2633100859
 10
-66.0506285029
 20
57.2715568863
 10
-66.047946449
 20
57.2799918315
 10
-66.0460245914
 20
57.2885486348
 10
-66.0448653422
 20
57.2973036996
 10
-66.0444867038
 20
57.3062595086
  0
LWPOLYLINE
  5
277
100
AcDbEntity
  8
0
100
AcDbPolyline
 62
7
  6
CONTINUOUS
 90
8
 70
0
 10
-65.0532962455
 20
57.8013192252
 10
-65.0649693867
 20
57.79450269
 10
-65.0764014839
 20
57.7874835604
 10
-65.087454498
 20
57.7803554255
 10
-65.0980404487
 20
57.7733809582
 10
-65.1079900286
 20
57.7666513974
 10
-65.1170722132
 20
57.7600956282
 10
-65.1250871809
 20
57.7537333399
  0
LINE
  5
278
100
AcDbEntity
  8
0
100
AcDbLine
 62
7
  6
CONTINUOUS
 10
-67.6519518469
 20
56.1890859439
 11
-66.0430374285
 21
57.1179931165
  0
LINE
  5
279
100
AcDbEntity
  8
0
100
AcDbLine
 62
253
  6
CONTINUOUS
 10
-67.6814375761
 20
56.3025937154
 11
-66.1190061286
 21
57.2047770168
  0
LINE
  5
27A
100
AcDbEntity
  8
0
100
AcDbLine
 62
253
  6
CONTINUOUS
 10
-66.1190061286
 20
57.2047770168
 11
-66.0952113415
 21
57.218401859
  0
LINE
  5
27B
100
AcDbEntity
  8
0
100
AcDbLine
 62
7
  6
CONTINUOUS
 10
-65.0299939502
 20
57.8145991124
 11
-65.0532962455
 21
57.8013192252
  0
LWPOLYLINE
  5
27C
100
AcDbEntity
  8
0
100
AcDbPolyline
 62
7
  6
CONTINUOUS
 90
8
 70
0
 10
68.5054893937
 20
-77.5251173311
 10
68.5195293519
 20
-77.5228373643
 10
68.5340821455
 20
-77.519921591
 10
68.5489433322
 20
-77.5163975209
 10
68.5639694318
 20
-77.5126447019
 10
68.5790263535
 20
-77.5087451331
 10
68.5939636671
 20
-77.5044645006
 10
68.6086518437
 20
-77.4997390315
  0
LINE
  5
27D
100
AcDbEntity
  8
0
100
AcDbLine
 62
7
  6
CONTINUOUS
 10
68.47990189
 20
-77.5288418411
 11
68.5054893937
 21
-77.5251173311
  0
LINE
  5
27E
100
AcDbEntity
  8
0
100
AcDbLine
 62
7
  6
CONTINUOUS
 10
-66.8430374285
 20
55.7323524704
 11
-67.3921067855
 21
55.4153471294
  0
LINE
  5
27F
100
AcDbEntity
  8
0
100
AcDbLine
 62
253
  6
CONTINUOUS
 10
-67.2353470301
 20
55.3887279579
 11
-67.4572025622
 21
55.2606205323
  0
LINE
  5
280
100
AcDbEntity
  8
0
100
AcDbLine
 62
253
  6
CONTINUOUS
 10
-66.805356269
 20
55.6369641651
 11
-67.2353470301
 21
55.3887279579
  0
LWPOLYLINE
  5
281
100
AcDbEntity
  8
0
100
AcDbPolyline
 62
7
  6
CONTINUOUS
 90
10
 70
0
 10
68.47990189
 20
-77.5288418411
 10
68.4755438272
 20
-77.5290930625
 10
68.4711990248
 20
-77.5290694936
 10
68.4668760585
 20
-77.5287628036
 10
68.4625737346
 20
-77.5281610953
 10
68.4583103659
 20
-77.5272608659
 10
68.4541225479
 20
-77.5260692598
 10
68.4500264916
 20
-77.5245872525
 10
68.446019174
 20
-77.5228074834
 10
68.4421067916
 20
-77.5207277337
  0
LWPOLYLINE
  5
282
100
AcDbEntity
  8
0
100
AcDbPolyline
 62
7
  6
CONTINUOUS
 90
10
 70
0
 10
-64.4561729731
 20
-77.5288418411
 10
-64.4605310359
 20
-77.5290930625
 10
-64.4648758383
 20
-77.5290694936
 10
-64.4691988045
 20
-77.5287628036
 10
-64.4735011284
 20
-77.5281610953
 10
-64.4777644972
 20
-77.5272608659
 10
-64.4819523151
 20
-77.5260692598
 10
-64.4860483715
 20
-77.5245872525
 10
-64.4900556891
 20
-77.5228074834
 10
-64.4939680715
 20
-77.5207277337
  0
LINE
  5
283
100
AcDbEntity
  8
0
100
AcDbLine
 62
253
  6
CONTINUOUS
 10
65.1844367598
 20
-76.750657007
 11
65.284123016
 21
-76.7469889189
  0
LINE
  5
284
100
AcDbEntity
  8
0
100
AcDbLine
 62
253
  6
CONTINUOUS
 10
-67.7516381033
 20
-76.750657007
 11
-67.6519518471
 21
-76.7469889189
  0
LWPOLYLINE
  5
285
100
AcDbEntity
  8
0
100
AcDbPolyline
 62
253
  6
CONTINUOUS
 90
16
 70
0
 10
67.9060809129
 20
-77.035537749
 10
67.8947744328
 20
-77.0355802285
 10
67.8834455658
 20
-77.0355576306
 10
67.8722399364
 20
-77.0354702445
 10
67.8613015866
 20
-77.0353191922
 10
67.8507711309
 20
-77.0351064144
 10
67.8407839472
 20
-77.0348346458
 10
67.8314684252
 20
-77.0345073789
 10
67.8229443269
 20
-77.03412882
 10
67.8153212492
 20
-77.0337038352
 10
67.8086971968
 20
-77.0332378873
 10
67.8031573354
 20
-77.0327369658
 10
67.7987728991
 20
-77.0322075104
 10
67.7956002598
 20
-77.0316563278
 10
67.793680208
 20
-77.0310905034
 10
67.7930374346
 20
-77.0305173112
  0
LWPOLYLINE
  5
286
100
AcDbEntity
  8
0
100
AcDbPolyline
 62
253
  6
CONTINUOUS
 90
16
 70
0
 10
-65.0299939502
 20
-77.035537749
 10
-65.0413004303
 20
-77.0355802285
 10
-65.0526292972
 20
-77.0355576306
 10
-65.0638349267
 20
-77.0354702445
 10
-65.0747732764
 20
-77.0353191922
 10
-65.0853037322
 20
-77.0351064144
 10
-65.0952909159
 20
-77.0348346458
 10
-65.1046064379
 20
-77.0345073789
 10
-65.1131305362
 20
-77.03412882
 10
-65.1207536139
 20
-77.0337038352
 10
-65.1273776662
 20
-77.0332378873
 10
-65.1329175277
 20
-77.0327369658
 10
-65.137301964
 20
-77.0322075104
 10
-65.1404746033
 20
-77.0316563278
 10
-65.1423946551
 20
-77.0310905034
 10
-65.1430374285
 20
-77.0305173112
  0
LWPOLYLINE
  5
287
100
AcDbEntity
  8
0
100
AcDbPolyline
 62
253
  6
CONTINUOUS
 90
13
 70
0
 10
-66.0444867038
 20
-75.6298153544
 10
-66.0313031053
 20
-75.6299178357
 10
-66.018324001
 20
-75.6302810047
 10
-66.005775578
 20
-75.6308985326
 10
-65.9938765178
 20
-75.6317596576
 10
-65.9828341856
 20
-75.6328493729
 10
-65.9728410163
 20
-75.6341486881
 10
-65.9640711609
 20
-75.6356349599
 10
-65.9566774519
 20
-75.6372822871
 10
-65.9507887395
 20
-75.6390619615
 10
-65.9465076464
 20
-75.6409429688
 10
-65.9439087792
 20
-75.6428925285
 10
-65.9430374285
 20
-75.6448766658
  0
LWPOLYLINE
  5
288
100
AcDbEntity
  8
0
100
AcDbPolyline
 62
253
  6
CONTINUOUS
 90
13
 70
0
 10
66.8915881592
 20
-75.6298153544
 10
66.9047717578
 20
-75.6299178357
 10
66.9177508621
 20
-75.6302810047
 10
66.9302992851
 20
-75.6308985326
 10
66.9421983453
 20
-75.6317596576
 10
66.9532406775
 20
-75.6328493729
 10
66.9632338468
 20
-75.6341486881
 10
66.9720037022
 20
-75.6356349599
 10
66.9793974112
 20
-75.6372822871
 10
66.9852861236
 20
-75.6390619615
 10
66.9895672167
 20
-75.6409429688
 10
66.9921660839
 20
-75.6428925285
 10
66.9930374346
 20
-75.6448766658
  0
LINE
  5
289
100
AcDbEntity
  8
RACCORDO
100
AcDbLine
 62
253
  6
CONTINUOUS
 10
18.0989043715
 20
-113.7172418199
 11
18.1164709979
 21
-113.7319629345
  0
LWPOLYLINE
  5
28A
100
AcDbEntity
  8
0
100
AcDbPolyline
 62
253
  6
CONTINUOUS
 90
13
 70
0
 10
-65.0299939502
 20
-77.035537749
 10
-65.0295869045
 20
-77.0444396558
 10
-65.0284488929
 20
-77.0531435346
 10
-65.0265727163
 20
-77.0616613614
 10
-65.0239161427
 20
-77.0700743455
 10
-65.0205082946
 20
-77.0783198747
 10
-65.0164437652
 20
-77.0861863187
 10
-65.0116882848
 20
-77.093647785
 10
-65.0062517869
 20
-77.1007251074
 10
-65.0002879336
 20
-77.1072653149
 10
-64.9938384489
 20
-77.1132081007
 10
-64.9868359589
 20
-77.1185895783
 10
-64.9792693125
 20
-77.1233953987
  0
LWPOLYLINE
  5
28B
100
AcDbEntity
  8
0
100
AcDbPolyline
 62
253
  6
CONTINUOUS
 90
13
 70
0
 10
-65.0299939502
 20
55.9005371141
 10
-65.0295869045
 20
55.8916352073
 10
-65.0284488929
 20
55.8829313284
 10
-65.0265727163
 20
55.8744135017
 10
-65.0239161427
 20
55.8660005175
 10
-65.0205082946
 20
55.8577549884
 10
-65.0164437652
 20
55.8498885444
 10
-65.0116882848
 20
55.8424270781
 10
-65.0062517869
 20
55.8353497556
 10
-65.0002879336
 20
55.8288095482
 10
-64.9938384489
 20
55.8228667624
 10
-64.9868359589
 20
55.8174852848
 10
-64.9792693125
 20
55.8126794644
  0
LWPOLYLINE
  5
28C
100
AcDbEntity
  8
0
100
AcDbPolyline
 62
253
  6
CONTINUOUS
 90
10
 70
0
 10
-67.7516381033
 20
-76.750657007
 10
-67.7516821935
 20
-76.7435655347
 10
-67.7512195227
 20
-76.7363683834
 10
-67.7502488003
 20
-76.7290714703
 10
-67.7487809321
 20
-76.7216601656
 10
-67.7468022722
 20
-76.7141613551
 10
-67.7442754768
 20
-76.7066436958
 10
-67.7411881201
 20
-76.6991346436
 10
-67.7375518457
 20
-76.6916201993
 10
-67.733366214
 20
-76.6841071504
  0
LWPOLYLINE
  5
28D
100
AcDbEntity
  8
0
100
AcDbPolyline
 62
253
  6
CONTINUOUS
 90
10
 70
0
 10
-67.7516381033
 20
56.1854178561
 10
-67.7516821935
 20
56.1925093284
 10
-67.7512195227
 20
56.1997064797
 10
-67.7502488003
 20
56.2070033928
 10
-67.7487809321
 20
56.2144146975
 10
-67.7468022722
 20
56.2219135079
 10
-67.7442754768
 20
56.2294311673
 10
-67.7411881201
 20
56.2369402195
 10
-67.7375518457
 20
56.2444546637
 10
-67.733366214
 20
56.2519677127
  0
LWPOLYLINE
  5
28E
100
AcDbEntity
  8
0
100
AcDbPolyline
 62
7
  6
CONTINUOUS
 90
8
 70
0
 10
-65.0461302508
 20
-78.2293213738
 10
-65.0461969728
 20
-78.2158038694
 10
-65.0465596687
 20
-78.2023938181
 10
-65.0472063076
 20
-78.1892575596
 10
-65.0479533981
 20
-78.1766026237
 10
-65.0488065787
 20
-78.1646212543
 10
-65.0499429491
 20
-78.1534779672
 10
-65.0514453686
 20
-78.1433556574
  0
LWPOLYLINE
  5
28F
100
AcDbEntity
  8
0
100
AcDbPolyline
 62
7
  6
CONTINUOUS
 90
8
 70
0
 10
-65.0461302508
 20
54.7067534892
 10
-65.0461969728
 20
54.7202709937
 10
-65.0465596687
 20
54.733681045
 10
-65.0472063076
 20
54.7468173035
 10
-65.0479533981
 20
54.7594722393
 10
-65.0488065787
 20
54.7714536087
 10
-65.0499429491
 20
54.7825968959
 10
-65.0514453686
 20
54.7927192057
  0
LINE
  5
290
100
AcDbEntity
  8
0
100
AcDbLine
 62
253
  6
CONTINUOUS
 10
-66.0444867038
 20
-75.6298153544
 11
-66.0444867038
 21
-74.8771280888
  0
LINE
  5
291
100
AcDbEntity
  8
0
100
AcDbLine
 62
253
  6
CONTINUOUS
 10
-66.0444867038
 20
57.3062595086
 11
-66.0444867038
 21
58.0589467743
  0
LINE
  5
292
100
AcDbEntity
  8
0
100
AcDbLine
 62
7
  6
CONTINUOUS
 10
-65.9430374285
 20
-75.6448766658
 11
-65.9430374285
 21
-75.0108659837
  0
LINE
  5
293
100
AcDbEntity
  8
0
100
AcDbLine
 62
7
  6
CONTINUOUS
 10
-65.9430374285
 20
57.2911981973
 11
-65.9430374285
 21
57.9252088794
  0
LINE
  5
294
100
AcDbEntity
  8
0
100
AcDbLine
 62
7
  6
CONTINUOUS
 10
-65.1430374285
 20
-77.0305173119
 11
-65.1430374285
 21
-75.2250669717
  0
LINE
  5
295
100
AcDbEntity
  8
0
100
AcDbLine
 62
7
  6
CONTINUOUS
 10
-65.1430374285
 20
55.9055575512
 11
-65.1430374285
 21
57.7110078913
  0
LINE
  5
296
100
AcDbEntity
  8
0
100
AcDbLine
 62
253
  6
CONTINUOUS
 10
-65.0300780007
 20
55.9771924375
 11
-65.0299939502
 21
55.9005371141
  0
LINE
  5
297
100
AcDbEntity
  8
0
100
AcDbLine
 62
253
  6
CONTINUOUS
 10
-65.0299898148
 20
-76.180069112
 11
-65.0298901826
 21
-76.6523002709
  0
LWPOLYLINE
  5
298
100
AcDbEntity
  8
0
100
AcDbPolyline
 62
253
  6
CONTINUOUS
 90
3
 70
0
 10
-65.0299939502
 20
-76.6841071504
 10
-65.0300780007
 20
-76.9588824256
 10
-65.0299939502
 20
-77.035537749
  0
LINE
  5
299
100
AcDbEntity
  8
0
100
AcDbLine
 62
253
  6
CONTINUOUS
 10
-65.0299939502
 20
-75.1214757507
 11
-65.0299898148
 21
-76.180069112
  0
LINE
  5
29A
100
AcDbEntity
  8
0
100
AcDbLine
 62
253
  6
CONTINUOUS
 10
-65.0299939502
 20
57.8145991124
 11
-65.0300780007
 21
55.9771924375
  0
LINE
  5
29B
100
AcDbEntity
  8
0
100
AcDbLine
 62
253
  6
CONTINUOUS
 10
-65.0298901826
 20
-76.6523002709
 11
-65.0299939502
 21
-76.6841071504
  0
LINE
  5
29C
100
AcDbEntity
  8
0
100
AcDbLine
 62
7
  6
CONTINUOUS
 10
-65.0462806788
 20
54.679933166
 11
-65.0461302508
 21
54.7067534892
  0
LINE
  5
29D
100
AcDbEntity
  8
0
100
AcDbLine
 62
7
  6
CONTINUOUS
 10
-65.0462806788
 20
-78.2561416971
 11
-65.0461302508
 21
-78.2293213738
  0
LWPOLYLINE
  5
29E
100
AcDbEntity
  8
0
100
AcDbPolyline
 62
7
  6
CONTINUOUS
 90
10
 70
0
 10
-65.1430374285
 20
57.7110078913
 10
-65.1427540725
 20
57.7172590481
 10
-65.1420368396
 20
57.7231443478
 10
-65.140878879
 20
57.7286636079
 10
-65.139246679
 20
57.7338277998
 10
-65.1371614681
 20
57.7386242142
 10
-65.1346992964
 20
57.7430173556
 10
-65.1318825215
 20
57.7469950566
 10
-65.1286797268
 20
57.7505675628
 10
-65.1250871809
 20
57.7537333399
  0
LWPOLYLINE
  5
29F
100
AcDbEntity
  8
0
100
AcDbPolyline
 62
7
  6
CONTINUOUS
 90
10
 70
0
 10
-65.1430374285
 20
-75.2250669717
 10
-65.1427540725
 20
-75.218815815
 10
-65.1420368396
 20
-75.2129305153
 10
-65.140878879
 20
-75.2074112551
 10
-65.139246679
 20
-75.2022470632
 10
-65.1371614681
 20
-75.1974506489
 10
-65.1346992964
 20
-75.1930575075
 10
-65.1318825215
 20
-75.1890798065
 10
-65.1286797268
 20
-75.1855073003
 10
-65.1250871809
 20
-75.1823415232
  0
LWPOLYLINE
  5
2A0
100
AcDbEntity
  8
0
100
AcDbPolyline
 62
7
  6
CONTINUOUS
 90
8
 70
0
 10
-64.4305854693
 20
-77.5251173311
 10
-64.4165455112
 20
-77.5228373643
 10
-64.4019927176
 20
-77.519921591
 10
-64.3871315309
 20
-77.5163975209
 10
-64.3721054313
 20
-77.5126447019
 10
-64.3570485095
 20
-77.5087451331
 10
-64.342111196
 20
-77.5044645006
 10
-64.3274230194
 20
-77.4997390315
  0
LINE
  5
2A1
100
AcDbEntity
  8
0
100
AcDbLine
 62
7
  6
CONTINUOUS
 10
-64.4561729731
 20
-77.5288418411
 11
-64.4305854693
 21
-77.5251173311
  0
LWPOLYLINE
  5
2A2
100
AcDbEntity
  8
RACCORDO
100
AcDbPolyline
 62
253
  6
CONTINUOUS
 90
22
 70
0
 10
8.9399613151
 20
-51.7299216075
 10
8.7083938523
 20
-51.7725323774
 10
8.477629365
 20
-51.8073983965
 10
8.2476678532
 20
-51.8345196649
 10
8.0188517117
 20
-51.8538113622
 10
7.7908385457
 20
-51.8653583088
 10
7.5626011704
 20
-51.8694149656
 10
7.3334528871
 20
-51.8660559691
 10
7.1040803945
 20
-51.8552066829
 10
6.8755166039
 20
-51.8368976582
 10
6.6484284683
 20
-51.8112658079
 10
6.4221490346
 20
-51.7781742192
 10
6.1957103553
 20
-51.7372427053
 10
5.9684599434
 20
-51.6884294136
 10
5.7410502859
 20
-51.6317761968
 10
5.514470896
 20
-51.5670284259
 10
5.2884184085
 20
-51.4939832886
 10
5.0631961885
 20
-51.4128435973
 10
4.8407038457
 20
-51.3239631598
 10
4.6215745831
 20
-51.2274599121
 10
4.4051751976
 20
-51.1232159183
 10
4.1915056892
 20
-51.0112311784
  0
LWPOLYLINE
  5
2A3
100
AcDbEntity
  8
RACCORDO
100
AcDbPolyline
 62
253
  6
CONTINUOUS
 90
22
 70
0
 10
-12.9443556732
 20
-50.3756007194
 10
-13.1662043636
 20
-50.2967189972
 10
-13.3834852815
 20
-50.2115316118
 10
-13.5961984268
 20
-50.1200385633
 10
-13.8040048668
 20
-50.0223375925
 10
-14.0072435342
 20
-49.9183309586
 10
-14.2069312277
 20
-49.8077254388
 10
-14.403699964
 20
-49.6902423209
 10
-14.5969177264
 20
-49.5661603171
 10
-14.7857052631
 20
-49.4360223413
 10
-14.9695534323
 20
-49.30028044
 10
-15.1489713759
 20
-49.1584825666
 10
-15.3246072676
 20
-49.0098154961
 10
-15.4970052515
 20
-48.8539167395
 10
-15.6656211836
 20
-48.6911487858
 10
-15.8294708057
 20
-48.5217858764
 10
-15.9887154339
 20
-48.3455006882
 10
-16.1431937522
 20
-48.1626205443
 10
-16.2914375545
 20
-47.9744016561
 10
-16.4329574387
 20
-47.7812627608
 10
-16.5682428071
 20
-47.5827851212
 10
-16.6972936594
 20
-47.3789687374
  0
LWPOLYLINE
  5
2A4
100
AcDbEntity
  8
RACCORDO
100
AcDbPolyline
 62
253
  6
CONTINUOUS
 90
10
 70
0
 10
18.0786848282
 20
-113.6956793189
 10
18.0809311055
 20
-113.6985218705
 10
18.0831774748
 20
-113.701252747
 10
18.0854239318
 20
-113.7038719461
 10
18.087670468
 20
-113.7063794652
 10
18.089917083
 20
-113.708775303
 10
18.0921637845
 20
-113.7110594595
 10
18.0944105717
 20
-113.7132319329
 10
18.0966574357
 20
-113.7152927204
 10
18.0989043715
 20
-113.7172418199
  0
LWPOLYLINE
  5
2A5
100
AcDbEntity
  8
RACCORDO
100
AcDbPolyline
 62
253
  6
CONTINUOUS
 90
22
 70
0
 10
8.6132582458
 20
-49.4072984224
 10
8.4486558434
 20
-49.4383996248
 10
8.2857037861
 20
-49.4636114121
 10
8.1246190337
 20
-49.4831627867
 10
7.9665204819
 20
-49.497219727
 10
7.8106774133
 20
-49.5061425485
 10
7.6544934705
 20
-49.5101971996
 10
7.4970735623
 20
-49.5093447513
 10
7.3396203752
 20
-49.5035293029
 10
7.1826693304
 20
-49.4927754897
 10
7.0275025705
 20
-49.4772475682
 10
6.8731344799
 20
-49.4569231266
 10
6.7167318528
 20
-49.431308424
 10
6.5577254254
 20
-49.4000035572
 10
6.3971128466
 20
-49.3628904414
 10
6.2344884673
 20
-49.3195580916
 10
6.0695638836
 20
-49.2695375531
 10
5.903212328
 20
-49.2126891911
 10
5.7367825917
 20
-49.1491511424
 10
5.5709120967
 20
-49.0789193056
 10
5.4055686444
 20
-49.0017260249
 10
5.24108124
 20
-48.9174412311
  0
LWPOLYLINE
  5
2A6
100
AcDbEntity
  8
RACCORDO
100
AcDbPolyline
 62
253
  6
CONTINUOUS
 90
22
 70
0
 10
8.4111692346
 20
-48.4280867778
 10
8.2792193582
 20
-48.4526606673
 10
8.1489151843
 20
-48.4728938077
 10
8.020256713
 20
-48.4887861988
 10
7.8938428272
 20
-48.5002082312
 10
7.769074644
 20
-48.5072895144
 10
7.6441555147
 20
-48.510418877
 10
7.5182618084
 20
-48.5097137589
 10
7.392217156
 20
-48.5050567202
 10
7.2666958016
 20
-48.4964842694
 10
7.14258005
 20
-48.4841934089
 10
7.0189875965
 20
-48.4679871364
 10
6.8939457707
 20
-48.4473109526
 10
6.7667720233
 20
-48.4222281409
 10
6.6381489035
 20
-48.3926754179
 10
6.5081513894
 20
-48.357908435
 10
6.3762869309
 20
-48.3177574964
 10
6.243048078
 20
-48.2723922979
 10
6.1099874586
 20
-48.2215775776
 10
5.9776226155
 20
-48.1652349151
 10
5.8454360059
 20
-48.1034427308
 10
5.71342763
 20
-48.0362010248
  0
LWPOLYLINE
  5
2A7
100
AcDbEntity
  8
RACCORDO
100
AcDbPolyline
 62
253
  6
CONTINUOUS
 90
22
 70
0
 10
8.5426973671
 20
-49.7700841114
 10
8.3776134302
 20
-49.8006778193
 10
8.2127138816
 20
-49.8255609015
 10
8.0481989819
 20
-49.8448172034
 10
7.8846875841
 20
-49.8585082819
 10
7.7219425533
 20
-49.8667865077
 10
7.558863614
 20
-49.869755776
 10
7.3951269599
 20
-49.8673828653
 10
7.2314054405
 20
-49.8596382847
 10
7.0680878806
 20
-49.8465360198
 10
6.9058370061
 20
-49.828159602
 10
6.7443342295
 20
-49.804503313
 10
6.5825119412
 20
-49.775354224
 10
6.4201296845
 20
-49.740526178
 10
6.2578338856
 20
-49.7000128025
 10
6.0959133077
 20
-49.6537661218
 10
5.9343636013
 20
-49.6016550873
 10
5.773629559
 20
-49.5436911706
 10
5.6146531865
 20
-49.4801344742
 10
5.4578688694
 20
-49.4111349605
 10
5.3032330717
 20
-49.3366494363
 10
5.1509433486
 20
-49.2567338047
  0
LWPOLYLINE
  5
2A8
100
AcDbEntity
  8
RACCORDO
100
AcDbPolyline
 62
253
  6
CONTINUOUS
 90
22
 70
0
 10
-23.0015164936
 20
-41.7133049252
 10
-23.1690570626
 20
-41.7066150492
 10
-23.3351918951
 20
-41.6944083305
 10
-23.4997445774
 20
-41.6768069863
 10
-23.6621331125
 20
-41.6540029074
 10
-23.8226143835
 20
-41.6260892062
 10
-23.9822607829
 20
-41.592925411
 10
-24.141367797
 20
-41.5544095427
 10
-24.2992856141
 20
-41.5106578736
 10
-24.45565315
 20
-41.4617637001
 10
-24.6098376941
 20
-41.4079537763
 10
-24.762151807
 20
-41.3491481535
 10
-24.9136148569
 20
-41.2848886553
 10
-25.0644582956
 20
-41.2149155794
 10
-25.2140052221
 20
-41.1393775515
 10
-25.3618671332
 20
-41.058339574
 10
-25.5079925949
 20
-40.9716948334
 10
-25.651981867
 20
-40.8795418828
 10
-25.7929705553
 20
-40.7823513092
 10
-25.9305695254
 20
-40.6803716985
 10
-26.0648170996
 20
-40.5735545197
 10
-26.1955367903
 20
-40.4620023223
  0
LWPOLYLINE
  5
2A9
100
AcDbEntity
  8
RACCORDO
100
AcDbPolyline
 62
253
  6
CONTINUOUS
 90
22
 70
0
 10
-23.0478677941
 20
-43.7124630512
 10
-23.2828144395
 20
-43.7027916028
 10
-23.5153174057
 20
-43.6857503648
 10
-23.7453766926
 20
-43.6613393373
 10
-23.9726507048
 20
-43.629553171
 10
-24.1974810378
 20
-43.5903972152
 10
-24.4208924779
 20
-43.5438875178
 10
-24.6435536388
 20
-43.4899481808
 10
-24.8647959068
 20
-43.4286551022
 10
-25.0836382274
 20
-43.360252024
 10
-25.2994569216
 20
-43.2850255525
 10
-25.5128756683
 20
-43.2026890814
 10
-25.7247844496
 20
-43.1126265344
 10
-25.9358656678
 20
-43.014620359
 10
-26.1454369207
 20
-42.9088881077
 10
-26.352340983
 20
-42.7954663614
 10
-26.5567826204
 20
-42.6741039892
 10
-26.7585570672
 20
-42.5450521219
 10
-26.9558928017
 20
-42.4091007328
 10
-27.1481993166
 20
-42.2665131462
 10
-27.3360671192
 20
-42.1170260377
 10
-27.5194962094
 20
-41.9606394074
  0
LWPOLYLINE
  5
2AA
100
AcDbEntity
  8
RACCORDO
100
AcDbPolyline
 62
253
  6
CONTINUOUS
 90
22
 70
0
 10
-22.9099319106
 20
-41.3743999913
 10
-23.0769365825
 20
-41.3663255983
 10
-23.2410346313
 20
-41.3529221684
 10
-23.4020686012
 20
-41.3344557078
 10
-23.5590085218
 20
-41.3113378615
 10
-23.7126282543
 20
-41.2837442255
 10
-23.8654550365
 20
-41.2513360896
 10
-24.0183293437
 20
-41.2138719072
 10
-24.1700895242
 20
-41.171572313
 10
-24.3202246753
 20
-41.1245836824
 10
-24.4675165142
 20
-41.073366371
 10
-24.6129273797
 20
-41.0176652299
 10
-24.7591283408
 20
-40.9563258638
 10
-24.9066087701
 20
-40.888807983
 10
-25.0543368551
 20
-40.8152374626
 10
-25.2025490077
 20
-40.7351494764
 10
-25.3514004298
 20
-40.6480326367
 10
-25.5000270237
 20
-40.5539475345
 10
-25.6471412963
 20
-40.4533507997
 10
-25.7921212119
 20
-40.3463919875
 10
-25.9349406311
 20
-40.2328041754
 10
-26.0752514594
 20
-40.1125402603
  0
LWPOLYLINE
  5
2AB
100
AcDbEntity
  8
RACCORDO
100
AcDbPolyline
 62
253
  6
CONTINUOUS
 90
22
 70
0
 10
-22.8783757805
 20
-40.3750503908
 10
-23.0121689126
 20
-40.3682391562
 10
-23.1434063513
 20
-40.3575898252
 10
-23.2720880966
 20
-40.3431023979
 10
-23.3976175962
 20
-40.3247904151
 10
-23.5205914025
 20
-40.3026403361
 10
-23.6427991721
 20
-40.276611538
 10
-23.7650522482
 20
-40.246627448
 10
-23.8865392877
 20
-40.2127646389
 10
-24.0066159176
 20
-40.1752122072
 10
-24.1244634094
 20
-40.1343713582
 10
-24.2409004916
 20
-40.0898408864
 10
-24.3577389773
 20
-40.0406062716
 10
-24.4756819329
 20
-39.9865576147
 10
-24.5940262921
 20
-39.9278048148
 10
-24.7124746685
 20
-39.8636630489
 10
-24.8314510115
 20
-39.793856336
 10
-24.9505313718
 20
-39.718660657
 10
-25.0681465161
 20
-39.6382191325
 10
-25.1837733666
 20
-39.5525794692
 10
-25.2979350011
 20
-39.4616939604
 10
-25.4106314195
 20
-39.365562606
  0
LWPOLYLINE
  5
2AC
100
AcDbEntity
  8
RACCORDO
100
AcDbPolyline
 62
253
  6
CONTINUOUS
 90
22
 70
0
 10
-12.0659772381
 20
-48.2007985031
 10
-12.2240777014
 20
-48.1454317332
 10
-12.3778042162
 20
-48.0857897527
 10
-12.5270833912
 20
-48.0221793637
 10
-12.6710292236
 20
-47.9553037552
 10
-12.8104546907
 20
-47.8851096109
 10
-12.9477412784
 20
-47.8105290705
 10
-13.0836446938
 20
-47.7310808745
 10
-13.2170954295
 20
-47.6473179548
 10
-13.3476421149
 20
-47.559529357
 10
-13.47425651
 20
-47.4684984027
 10
-13.5977809772
 20
-47.3737128746
 10
-13.7204222743
 20
-47.2733285779
 10
-13.8424734463
 20
-47.1667145543
 10
-13.9630114619
 20
-47.0542673637
 10
-14.0821821307
 20
-46.9354282583
 10
-14.2000007406
 20
-46.8096469095
 10
-14.3156412327
 20
-46.677239006
 10
-14.428004588
 20
-46.5389985736
 10
-14.536536732
 20
-46.3952407713
 10
-14.6411317217
 20
-46.245717703
 10
-14.7414395956
 20
-46.0904812282
  0
LWPOLYLINE
  5
2AD
100
AcDbEntity
  8
RACCORDO
100
AcDbPolyline
 62
253
  6
CONTINUOUS
 90
22
 70
0
 10
-11.7513856334
 20
-47.2517318375
 10
-11.8779445232
 20
-47.2070385119
 10
-12.0009078181
 20
-47.1594088385
 10
-12.1202755182
 20
-47.1088428173
 10
-12.2354641709
 20
-47.0555276446
 10
-12.3470572288
 20
-46.9992761242
 10
-12.4568050495
 20
-46.939526667
 10
-12.5654796383
 20
-46.8759691637
 10
-12.6723089899
 20
-46.8089137236
 10
-12.7767274461
 20
-46.7387290863
 10
-12.8780694097
 20
-46.6660270131
 10
-12.9770004779
 20
-46.5901957426
 10
-13.0749517837
 20
-46.5097687293
 10
-13.1725460738
 20
-46.4244595034
 10
-13.2691606016
 20
-46.3345545347
 10
-13.3643582598
 20
-46.2394466873
 10
-13.4584807614
 20
-46.1387427252
 10
-13.5511863936
 20
-46.0328358844
 10
-13.64101291
 20
-45.922298736
 10
-13.7274728954
 20
-45.8073221374
 10
-13.8110537652
 20
-45.6877152313
 10
-13.8917555193
 20
-45.5634780177
  0
LWPOLYLINE
  5
2AE
100
AcDbEntity
  8
RACCORDO
100
AcDbPolyline
 62
253
  6
CONTINUOUS
 90
22
 70
0
 10
-12.3084775961
 20
-48.4796996864
 10
-12.4667413332
 20
-48.4236526463
 10
-12.6219900725
 20
-48.3627522533
 10
-12.7740923058
 20
-48.29717125
 10
-12.9225428694
 20
-48.2272723729
 10
-13.0676233133
 20
-48.1530690113
 10
-13.2103384517
 20
-48.0741010035
 10
-13.3509520984
 20
-47.9901776755
 10
-13.488866803
 20
-47.9016099122
 10
-13.6237528263
 20
-47.8086042381
 10
-13.7550779965
 20
-47.7115643561
 10
-13.8831153593
 20
-47.6103260206
 10
-14.0086830274
 20
-47.5041710249
 10
-14.1318961638
 20
-47.392817924
 10
-14.2521917608
 20
-47.2765844122
 10
-14.3692957544
 20
-47.1555733229
 10
-14.4831463868
 20
-47.0296689899
 10
-14.5933641923
 20
-46.8991037445
 10
-14.6992634214
 20
-46.7645738446
 10
-14.800542866
 20
-46.6264263543
 10
-14.897218633
 20
-46.4846020993
 10
-14.9891475862
 20
-46.3392482706
  0
LWPOLYLINE
  5
2AF
100
AcDbEntity
  8
RACCORDO
100
AcDbPolyline
 62
253
  6
CONTINUOUS
 90
22
 70
0
 10
-35.5981785488
 20
-25.7302173082
 10
-35.7399279997
 20
-25.6406534211
 10
-35.8777016258
 20
-25.5470146764
 10
-36.0114077568
 20
-25.449495124
 10
-36.140638314
 20
-25.3485519448
 10
-36.2656623209
 20
-25.2441373349
 10
-36.3873382609
 20
-25.1355934462
 10
-36.5058710428
 20
-25.0226842187
 10
-36.6207560496
 20
-24.9058352532
 10
-36.7317272213
 20
-24.7853078889
 10
-36.8383499914
 20
-24.6616148559
 10
-36.9408550712
 20
-24.5345306362
 10
-37.0398961709
 20
-24.4031487534
 10
-37.135543883
 20
-24.2671285727
 10
-37.2272863064
 20
-24.1269372583
 10
-37.3148194889
 20
-23.9828253556
 10
-37.3980454806
 20
-23.8347260784
 10
-37.4766673728
 20
-23.682924646
 10
-37.5501718717
 20
-23.5282607961
 10
-37.61834627
 20
-23.3711443776
 10
-37.6811994903
 20
-23.2115142001
 10
-37.7386299645
 20
-23.0495473179
  0
LWPOLYLINE
  5
2B0
100
AcDbEntity
  8
RACCORDO
100
AcDbPolyline
 62
253
  6
CONTINUOUS
 90
22
 70
0
 10
-36.6378990155
 20
-27.4383633813
 10
-36.8365330547
 20
-27.3125143385
 10
-37.0293659109
 20
-27.1815047104
 10
-37.2163975841
 20
-27.045334497
 10
-37.3973295691
 20
-26.9041698634
 10
-37.5724603711
 20
-26.7578446445
 10
-37.742685505
 20
-26.605860345
 10
-37.9085460582
 20
-26.4478169284
 10
-38.0695009434
 20
-26.2841144312
 10
-38.2248224134
 20
-26.1154544676
 10
-38.3741136494
 20
-25.9423970851
 10
-38.5177714702
 20
-25.7643822361
 10
-38.6562585845
 20
-25.5804313918
 10
-38.7900571941
 20
-25.3900149451
 10
-38.9186850974
 20
-25.1936625031
 10
-39.0411583983
 20
-24.9919843582
 10
-39.1575288638
 20
-24.7846606421
 10
-39.2677447269
 20
-24.5720112232
 10
-39.3706667915
 20
-24.3556059993
 10
-39.4659153254
 20
-24.1359682696
 10
-39.5538700608
 20
-23.9125747348
 10
-39.6345309976
 20
-23.6854253951
  0
LWPOLYLINE
  5
2B1
100
AcDbEntity
  8
RACCORDO
100
AcDbPolyline
 62
253
  6
CONTINUOUS
 90
22
 70
0
 10
-35.3494115064
 20
-25.4825093175
 10
-35.4900045983
 20
-25.392014352
 10
-35.6254159623
 20
-25.2983576169
 10
-35.7556422409
 20
-25.2018482079
 10
-35.8799972758
 20
-25.1033576054
 10
-35.9992390486
 20
-25.0026509494
 10
-36.1153868564
 20
-24.8981712894
 10
-36.2290477988
 20
-24.7892892021
 10
-36.3393261733
 20
-24.6767765886
 10
-36.4458527129
 20
-24.5610156653
 10
-36.5478025314
 20
-24.4430142531
 10
-36.6458814644
 20
-24.3220702171
 10
-36.7418255278
 20
-24.1958482873
 10
-36.8357883857
 20
-24.0636358727
 10
-36.9269393999
 20
-23.9260578905
 10
-37.0152508961
 20
-23.7825935837
 10
-37.1006015892
 20
-23.6327224763
 10
-37.1822734441
 20
-23.4769290907
 10
-37.259379774
 20
-23.3162526266
 10
-37.331456658
 20
-23.1511336202
 10
-37.3983479971
 20
-22.9813539798
 10
-37.4597287812
 20
-22.80704696
  0
LWPOLYLINE
  5
2B2
100
AcDbEntity
  8
RACCORDO
100
AcDbPolyline
 62
253
  6
CONTINUOUS
 90
22
 70
0
 10
-29.3714705384
 20
-36.8163211812
 10
-29.480706171
 20
-36.6893219204
 10
-29.5840162479
 20
-36.5608071928
 10
-29.6814906112
 20
-36.4310793924
 10
-29.7727135545
 20
-36.3011905004
 10
-29.8583624788
 20
-36.1706878547
 10
-29.9399658811
 20
-36.0374559182
 10
-30.0179375934
 20
-35.9007000544
 10
-30.0916278608
 20
-35.7614338703
 10
-30.1607903078
 20
-35.6201333717
 10
-30.2249261133
 20
-35.4779910551
 10
-30.2845086758
 20
-35.3341421463
 10
-30.3405270063
 20
-35.1858861467
 10
-30.39291941
 20
-35.0325301078
 10
-30.4410847983
 20
-34.8748789765
 10
-30.4848700722
 20
-34.7123759578
 10
-30.524013307
 20
-34.5445368094
 10
-30.5579569592
 20
-34.3720479553
 10
-30.586146263
 20
-34.1961465514
 10
-30.6082589557
 20
-34.0173825706
 10
-30.6240793398
 20
-33.8355943001
 10
-30.6333302694
 20
-33.6510016325
  0
LWPOLYLINE
  5
2B3
100
AcDbEntity
  8
RACCORDO
100
AcDbPolyline
 62
253
  6
CONTINUOUS
 90
22
 70
0
 10
-28.6244928841
 20
-36.1517011414
 10
-28.7117494349
 20
-36.0497161411
 10
-28.7944239354
 20
-35.9469859865
 10
-28.8725163855
 20
-35.8435106775
 10
-28.9456150986
 20
-35.7397440572
 10
-29.0141317614
 20
-35.6352322826
 10
-29.0793014335
 20
-35.5286138245
 10
-29.1416376365
 20
-35.4192341176
 10
-29.2006268489
 20
-35.3077477272
 10
-29.2559635659
 20
-35.1947568202
 10
-29.3073772443
 20
-35.0811239961
 10
-29.3551384273
 20
-34.9659866554
 10
-29.3997532398
 20
-34.8473591658
 10
-29.4416177613
 20
-34.724682064
 10
-29.4803359124
 20
-34.5985148133
 10
-29.515225579
 20
-34.4685501722
 10
-29.5463860755
 20
-34.3342767319
 10
-29.5737180876
 20
-34.1962059013
 10
-29.5962415586
 20
-34.0555646645
 10
-29.6136298031
 20
-33.9127620165
 10
-29.6262095065
 20
-33.7673889625
 10
-29.6339806689
 20
-33.6194455024
  0
LWPOLYLINE
  5
2B4
100
AcDbEntity
  8
RACCORDO
100
AcDbPolyline
 62
253
  6
CONTINUOUS
 90
22
 70
0
 10
-29.7209326005
 20
-36.9366065122
 10
-29.8299694973
 20
-36.808936483
 10
-29.9339686529
 20
-36.678570826
 10
-30.0329025493
 20
-36.5457248945
 10
-30.12651507
 20
-36.4109654094
 10
-30.2150567393
 20
-36.2741631913
 10
-30.2991676706
 20
-36.1344173212
 10
-30.3789809968
 20
-35.9914307639
 10
-30.4541347529
 20
-35.8457714786
 10
-30.5244466386
 20
-35.6977831905
 10
-30.5896576312
 20
-35.5480816024
 10
-30.6499220723
 20
-35.3963879506
 10
-30.7055893649
 20
-35.2416711935
 10
-30.7566185207
 20
-35.0836300112
 10
-30.8026808077
 20
-34.9228210386
 10
-30.8435902964
 20
-34.7594703644
 10
-30.8792356698
 20
-34.5935086974
 10
-30.9094044666
 20
-34.4253269752
 10
-30.9338509393
 20
-34.2558710498
 10
-30.952487766
 20
-34.0855920915
 10
-30.9652993087
 20
-33.9144308002
 10
-30.9722352032
 20
-33.7425862155
  0
LWPOLYLINE
  5
2B5
100
AcDbEntity
  8
RACCORDO
100
AcDbPolyline
 62
253
  6
CONTINUOUS
 90
22
 70
0
 10
-31.2195696855
 20
-38.2605659312
 10
-31.3722554261
 20
-38.0813280107
 10
-31.517832528
 20
-37.898913112
 10
-31.6563009913
 20
-37.713321235
 10
-31.787416162
 20
-37.5248064924
 10
-31.9114226941
 20
-37.3331147715
 10
-32.0290545496
 20
-37.1374837348
 10
-32.140719715
 20
-36.937356002
 10
-32.2460102037
 20
-36.7332889534
 10
-32.3444360186
 20
-36.526192392
 10
-32.4357822529
 20
-36.3167123725
 10
-32.5202638132
 20
-36.1042028402
 10
-32.598035422
 20
-35.8876354346
 10
-32.6693870773
 20
-35.666424159
 10
-32.7340287811
 20
-35.4411550101
 10
-32.7912452616
 20
-35.2125576171
 10
-32.8410125609
 20
-34.9802678516
 10
-32.8833546369
 20
-34.744649842
 10
-32.9176280915
 20
-34.5075256023
 10
-32.9436184588
 20
-34.2695024703
 10
-32.9615402047
 20
-34.0299731082
 10
-32.9713933293
 20
-33.7889375159
  0
LWPOLYLINE
  5
2B6
100
AcDbEntity
  8
RACCORDO
100
AcDbPolyline
 62
253
  6
CONTINUOUS
 90
22
 70
0
 10
-38.6662287006
 20
-18.3043279616
 10
-38.6973299029
 20
-18.1397255592
 10
-38.7225416902
 20
-17.9767735018
 10
-38.7420930649
 20
-17.8156887495
 10
-38.7561500052
 20
-17.6575901977
 10
-38.7650728266
 20
-17.501747129
 10
-38.7691274777
 20
-17.3455631863
 10
-38.7682750294
 20
-17.188143278
 10
-38.762459581
 20
-17.030690091
 10
-38.7517057678
 20
-16.8737390461
 10
-38.7361778464
 20
-16.7185722863
 10
-38.7158534047
 20
-16.5642041957
 10
-38.6902387021
 20
-16.4078015685
 10
-38.6589338353
 20
-16.2487951412
 10
-38.6218207195
 20
-16.0881825623
 10
-38.5784883697
 20
-15.925558183
 10
-38.5284678312
 20
-15.7606335994
 10
-38.4716194692
 20
-15.5942820438
 10
-38.4080814205
 20
-15.4278523074
 10
-38.3378495837
 20
-15.2619818125
 10
-38.2606563031
 20
-15.0966383601
 10
-38.1763715092
 20
-14.9321509558
  0
LWPOLYLINE
  5
2B7
100
AcDbEntity
  8
RACCORDO
100
AcDbPolyline
 62
253
  6
CONTINUOUS
 90
22
 70
0
 10
-37.6870170559
 20
-18.1022389504
 10
-37.7115909455
 20
-17.9702890739
 10
-37.7318240858
 20
-17.8399849001
 10
-37.7477164769
 20
-17.7113264288
 10
-37.7591385093
 20
-17.584912543
 10
-37.7662197925
 20
-17.4601443598
 10
-37.7693491551
 20
-17.3352252304
 10
-37.768644037
 20
-17.2093315241
 10
-37.7639869983
 20
-17.0832868717
 10
-37.7554145475
 20
-16.9577655173
 10
-37.7431236871
 20
-16.8336497658
 10
-37.7269174145
 20
-16.7100573123
 10
-37.7062412307
 20
-16.5850154865
 10
-37.681158419
 20
-16.457841739
 10
-37.6516056961
 20
-16.3292186193
 10
-37.6168387131
 20
-16.1992211051
 10
-37.5766877746
 20
-16.0673566466
 10
-37.531322576
 20
-15.9341177937
 10
-37.4805078557
 20
-15.8010571744
 10
-37.4241651932
 20
-15.6686923312
 10
-37.3623730089
 20
-15.5365057217
 10
-37.2951313029
 20
-15.4044973457
  0
LWPOLYLINE
  5
2B8
100
AcDbEntity
  8
RACCORDO
100
AcDbPolyline
 62
253
  6
CONTINUOUS
 90
22
 70
0
 10
-39.0290143895
 20
-18.2337670828
 10
-39.0596080974
 20
-18.0686831459
 10
-39.0844911797
 20
-17.9037835974
 10
-39.1037474815
 20
-17.7392686977
 10
-39.11743856
 20
-17.5757572998
 10
-39.1257167858
 20
-17.413012269
 10
-39.1286860541
 20
-17.2499333298
 10
-39.1263131434
 20
-17.0861966756
 10
-39.1185685628
 20
-16.9224751562
 10
-39.1054662979
 20
-16.7591575964
 10
-39.0870898801
 20
-16.5969067218
 10
-39.0634335911
 20
-16.4354039453
 10
-39.0342845021
 20
-16.2735816569
 10
-38.9994564562
 20
-16.1111994003
 10
-38.9589430806
 20
-15.9489036014
 10
-38.9126964
 20
-15.7869830234
 10
-38.8605853654
 20
-15.6254333171
 10
-38.8026214487
 20
-15.4646992748
 10
-38.7390647524
 20
-15.3057229022
 10
-38.6700652386
 20
-15.1489385852
 10
-38.5955797144
 20
-14.9943027875
 10
-38.5156640828
 20
-14.8420130643
  0
LWPOLYLINE
  5
2B9
100
AcDbEntity
  8
RACCORDO
100
AcDbPolyline
 62
253
  6
CONTINUOUS
 90
22
 70
0
 10
-40.9888518856
 20
-18.6310310308
 10
-41.0314626555
 20
-18.3994635681
 10
-41.0663286746
 20
-18.1686990808
 10
-41.093449943
 20
-17.9387375689
 10
-41.1127416403
 20
-17.7099214274
 10
-41.1242885869
 20
-17.4819082614
 10
-41.1283452437
 20
-17.2536708861
 10
-41.1249862472
 20
-17.0245226028
 10
-41.114136961
 20
-16.7951501103
 10
-41.0958279363
 20
-16.5665863197
 10
-41.070196086
 20
-16.339498184
 10
-41.0371044973
 20
-16.1132187503
 10
-40.9961729834
 20
-15.886780071
 10
-40.9473596917
 20
-15.6595296591
 10
-40.8907064749
 20
-15.4321200016
 10
-40.825958704
 20
-15.2055406118
 10
-40.7529135667
 20
-14.9794881242
 10
-40.6717738754
 20
-14.7542659043
 10
-40.5828934379
 20
-14.5317735615
 10
-40.4863901902
 20
-14.3126442989
 10
-40.3821461964
 20
-14.0962449134
 10
-40.2701614565
 20
-13.882575405
  0
LWPOLYLINE
  5
2BA
100
AcDbEntity
  8
RACCORDO
100
AcDbPolyline
 62
253
  6
CONTINUOUS
 90
22
 70
0
 10
-30.9722352033
 20
13.3104467779
 10
-30.9655453273
 20
13.4779873468
 10
-30.9533386087
 20
13.6441221793
 10
-30.9357372644
 20
13.8086748617
 10
-30.9129331855
 20
13.9710633967
 10
-30.8850194843
 20
14.1315446678
 10
-30.8518556891
 20
14.2911910671
 10
-30.8133398208
 20
14.4502980812
 10
-30.7695881517
 20
14.6082158984
 10
-30.7206939782
 20
14.7645834342
 10
-30.6668840544
 20
14.9187679783
 10
-30.6080784316
 20
15.0710820913
 10
-30.5438189334
 20
15.2225451411
 10
-30.4738458575
 20
15.3733885799
 10
-30.3983078296
 20
15.5229355064
 10
-30.3172698521
 20
15.6707974175
 10
-30.2306251116
 20
15.8169228791
 10
-30.1384721609
 20
15.9609121513
 10
-30.0412815873
 20
16.1019008395
 10
-29.9393019766
 20
16.2394998096
 10
-29.8324847978
 20
16.3737473839
 10
-29.7209326005
 20
16.5044670746
  0
LWPOLYLINE
  5
2BB
100
AcDbEntity
  8
RACCORDO
100
AcDbPolyline
 62
253
  6
CONTINUOUS
 90
22
 70
0
 10
-32.9713933293
 20
13.3567980783
 10
-32.9617218809
 20
13.5917447237
 10
-32.9446806429
 20
13.8242476899
 10
-32.9202696155
 20
14.0543069769
 10
-32.8884834491
 20
14.2815809891
 10
-32.8493274933
 20
14.506411322
 10
-32.8028177959
 20
14.7298227621
 10
-32.7488784589
 20
14.952483923
 10
-32.6875853803
 20
15.173726191
 10
-32.6191823021
 20
15.3925685116
 10
-32.5439558306
 20
15.6083872058
 10
-32.4616193595
 20
15.8218059525
 10
-32.3715568125
 20
16.0337147338
 10
-32.2735506371
 20
16.2447959521
 10
-32.1678183858
 20
16.4543672049
 10
-32.0543966395
 20
16.6612712672
 10
-31.9330342673
 20
16.8657129046
 10
-31.8039824
 20
17.0674873515
 10
-31.6680310109
 20
17.264823086
 10
-31.5254434243
 20
17.4571296009
 10
-31.3759563158
 20
17.6449974034
 10
-31.2195696855
 20
17.8284264937
  0
LWPOLYLINE
  5
2BC
100
AcDbEntity
  8
RACCORDO
100
AcDbPolyline
 62
253
  6
CONTINUOUS
 90
22
 70
0
 10
-30.6333302695
 20
13.2188621949
 10
-30.6252558764
 20
13.3858668668
 10
-30.6118524466
 20
13.5499649155
 10
-30.5933859859
 20
13.7109988855
 10
-30.5702681396
 20
13.8679388061
 10
-30.5426745036
 20
14.0215585385
 10
-30.5102663678
 20
14.1743853207
 10
-30.4728021853
 20
14.3272596279
 10
-30.4305025911
 20
14.4790198084
 10
-30.3835139605
 20
14.6291549595
 10
-30.3322966491
 20
14.7764467984
 10
-30.276595508
 20
14.921857664
 10
-30.215256142
 20
15.0680586251
 10
-30.1477382611
 20
15.2155390543
 10
-30.0741677407
 20
15.3632671393
 10
-29.9940797546
 20
15.5114792919
 10
-29.9069629148
 20
15.6603307141
 10
-29.8128778126
 20
15.8089573079
 10
-29.7122810778
 20
15.9560715805
 10
-29.6053222656
 20
16.1010514962
 10
-29.4917344535
 20
16.2438709154
 10
-29.3714705384
 20
16.3841817436
  0
LWPOLYLINE
  5
2BD
100
AcDbEntity
  8
RACCORDO
100
AcDbPolyline
 62
253
  6
CONTINUOUS
 90
22
 70
0
 10
-29.6339806689
 20
13.1873060648
 10
-29.6271694343
 20
13.3210991969
 10
-29.6165201033
 20
13.4523366356
 10
-29.602032676
 20
13.5810183808
 10
-29.5837206932
 20
13.7065478805
 10
-29.5615706142
 20
13.8295216867
 10
-29.5355418161
 20
13.9517294563
 10
-29.5055577261
 20
14.0739825324
 10
-29.4716949171
 20
14.1954695719
 10
-29.4341424853
 20
14.3155462019
 10
-29.3933016363
 20
14.4333936936
 10
-29.3487711645
 20
14.5498307758
 10
-29.2995365497
 20
14.6666692616
 10
-29.2454878929
 20
14.7846122172
 10
-29.1867350929
 20
14.9029565763
 10
-29.1225933271
 20
15.0214049528
 10
-29.0527866141
 20
15.1403812957
 10
-28.9775909351
 20
15.259461656
 10
-28.8971494106
 20
15.3770768003
 10
-28.8115097473
 20
15.4927036508
 10
-28.7206242385
 20
15.6068652853
 10
-28.6244928841
 20
15.7195617038
  0
LWPOLYLINE
  5
2BE
100
AcDbEntity
  8
RACCORDO
100
AcDbPolyline
 62
253
  6
CONTINUOUS
 90
22
 70
0
 10
-37.4597287812
 20
2.3749075224
 10
-37.4043620113
 20
2.5330079856
 10
-37.3447200309
 20
2.6867345005
 10
-37.2811096419
 20
2.8360136755
 10
-37.2142340333
 20
2.9799595078
 10
-37.1440398891
 20
3.119384975
 10
-37.0694593486
 20
3.2566715626
 10
-36.9900111526
 20
3.3925749781
 10
-36.9062482329
 20
3.5260257138
 10
-36.8184596351
 20
3.6565723992
 10
-36.7274286808
 20
3.7831867943
 10
-36.6326431527
 20
3.9067112615
 10
-36.532258856
 20
4.0293525585
 10
-36.4256448324
 20
4.1514037306
 10
-36.3131976418
 20
4.2719417461
 10
-36.1943585364
 20
4.3911124149
 10
-36.0685771876
 20
4.5089310249
 10
-35.9361692841
 20
4.624571517
 10
-35.7979288517
 20
4.7369348722
 10
-35.6541710494
 20
4.8454670162
 10
-35.5046479811
 20
4.950062006
 10
-35.3494115063
 20
5.0503698798
  0
LWPOLYLINE
  5
2BF
100
AcDbEntity
  8
RACCORDO
100
AcDbPolyline
 62
253
  6
CONTINUOUS
 90
22
 70
0
 10
-36.5106621156
 20
2.0603159176
 10
-36.46596879
 20
2.1868748074
 10
-36.4183391166
 20
2.3098381024
 10
-36.3677730954
 20
2.4292058025
 10
-36.3144579227
 20
2.5443944552
 10
-36.2582064023
 20
2.655987513
 10
-36.1984569451
 20
2.7657353337
 10
-36.1348994418
 20
2.8744099225
 10
-36.0678440018
 20
2.9812392742
 10
-35.9976593644
 20
3.0856577304
 10
-35.9249572912
 20
3.186999694
 10
-35.8491260207
 20
3.2859307622
 10
-35.7686990074
 20
3.383882068
 10
-35.6833897815
 20
3.4814763581
 10
-35.5934848129
 20
3.5780908858
 10
-35.4983769654
 20
3.673288544
 10
-35.3976730033
 20
3.7674110457
 10
-35.2917661625
 20
3.8601166778
 10
-35.1812290142
 20
3.9499431943
 10
-35.0662524155
 20
4.0364031797
 10
-34.9466455094
 20
4.1199840495
 10
-34.8224082958
 20
4.2006858036
  0
LWPOLYLINE
  5
2C0
100
AcDbEntity
  8
RACCORDO
100
AcDbPolyline
 62
253
  6
CONTINUOUS
 90
22
 70
0
 10
-37.7386299645
 20
2.6174078804
 10
-37.6825829244
 20
2.7756716175
 10
-37.6216825314
 20
2.9309203567
 10
-37.5561015281
 20
3.08302259
 10
-37.486202651
 20
3.2314731536
 10
-37.4119992895
 20
3.3765535976
 10
-37.3330312816
 20
3.5192687359
 10
-37.2491079536
 20
3.6598823826
 10
-37.1605401903
 20
3.7977970872
 10
-37.0675345162
 20
3.9326831105
 10
-36.9704946343
 20
4.0640082808
 10
-36.8692562987
 20
4.1920456435
 10
-36.763101303
 20
4.3176133116
 10
-36.6517482021
 20
4.440826448
 10
-36.5355146903
 20
4.5611220451
 10
-36.414503601
 20
4.6782260386
 10
-36.2885992681
 20
4.792076671
 10
-36.1580340226
 20
4.9022944766
 10
-36.0235041227
 20
5.0081937056
 10
-35.8853566324
 20
5.1094731502
 10
-35.7435323774
 20
5.2061489172
 10
-35.5981785487
 20
5.2980778704
  0
LWPOLYLINE
  5
2C1
100
AcDbEntity
  8
RACCORDO
100
AcDbPolyline
 62
253
  6
CONTINUOUS
 90
22
 70
0
 10
-39.6345309975
 20
3.2532859575
 10
-39.5556492753
 20
3.4751346478
 10
-39.4704618899
 20
3.6924155657
 10
-39.3789688414
 20
3.9051287111
 10
-39.2812678706
 20
4.112935151
 10
-39.1772612367
 20
4.3161738185
 10
-39.0666557169
 20
4.515861512
 10
-38.949172599
 20
4.7126302483
 10
-38.8250905952
 20
4.9058480107
 10
-38.6949526194
 20
5.0946355474
 10
-38.5592107181
 20
5.2784837166
 10
-38.4174128447
 20
5.4579016601
 10
-38.2687457742
 20
5.6335375519
 10
-38.1128470176
 20
5.8059355358
 10
-37.9500790639
 20
5.9745514678
 10
-37.7807161546
 20
6.13840109
 10
-37.6044309663
 20
6.2976457182
 10
-37.4215508224
 20
6.4521240364
 10
-37.2333319342
 20
6.6003678387
 10
-37.0401930389
 20
6.741887723
 10
-36.8417153993
 20
6.8771730913
 10
-36.6378990155
 20
7.0062239436
  0
LWPOLYLINE
  5
2C2
100
AcDbEntity
  8
0
100
AcDbPolyline
 62
7
  6
CONTINUOUS
 90
8
 70
0
 10
-67.4275995894
 20
-77.5734238786
 10
-67.4326450593
 20
-77.5867228224
 10
-67.4373963224
 20
-77.600783798
 10
-67.4417749815
 20
-77.6154159983
 10
-67.4460379947
 20
-77.6303053918
 10
-67.4501893299
 20
-77.6452948529
 10
-67.4539508502
 20
-77.6603712621
 10
-67.4572025622
 20
-77.6754543308
  0
LINE
  5
2C3
100
AcDbEntity
  8
0
100
AcDbLine
 62
7
  6
CONTINUOUS
 10
-67.4180313578
 20
-77.5494021953
 11
-67.4275995894
 21
-77.5734238786
  0
LWPOLYLINE
  5
2C4
100
AcDbEntity
  8
RACCORDO
100
AcDbPolyline
 62
253
  6
CONTINUOUS
 90
22
 70
0
 10
-26.0752514594
 20
19.6804008227
 10
-25.9482521985
 20
19.7896364552
 10
-25.8197374709
 20
19.8929465321
 10
-25.6900096705
 20
19.9904208954
 10
-25.5601207785
 20
20.0816438388
 10
-25.4296181328
 20
20.1672927631
 10
-25.2963861963
 20
20.2488961654
 10
-25.1596303325
 20
20.3268678776
 10
-25.0203641484
 20
20.400558145
 10
-24.8790636498
 20
20.4697205921
 10
-24.7369213332
 20
20.5338563975
 10
-24.5930724244
 20
20.5934389601
 10
-24.4448164248
 20
20.6494572905
 10
-24.291460386
 20
20.7018496943
 10
-24.1338092546
 20
20.7500150826
 10
-23.9713062359
 20
20.7938003565
 10
-23.8034670875
 20
20.8329435913
 10
-23.6309782334
 20
20.8668872434
 10
-23.4550768295
 20
20.8950765473
 10
-23.2763128487
 20
20.91718924
 10
-23.0945245783
 20
20.9330096241
 10
-22.9099319106
 20
20.9422605536
  0
LWPOLYLINE
  5
2C5
100
AcDbEntity
  8
RACCORDO
100
AcDbPolyline
 62
253
  6
CONTINUOUS
 90
22
 70
0
 10
-25.4106314195
 20
18.9334231683
 10
-25.3086464192
 20
19.0206797192
 10
-25.2059162646
 20
19.1033542196
 10
-25.1024409556
 20
19.1814466697
 10
-24.9986743353
 20
19.2545453828
 10
-24.8941625607
 20
19.3230620456
 10
-24.7875441026
 20
19.3882317177
 10
-24.6781643957
 20
19.4505679207
 10
-24.5666780053
 20
19.5095571331
 10
-24.4536870983
 20
19.5648938501
 10
-24.3400542742
 20
19.6163075285
 10
-24.2249169335
 20
19.6640687115
 10
-24.106289444
 20
19.708683524
 10
-23.9836123421
 20
19.7505480456
 10
-23.8574450914
 20
19.7892661967
 10
-23.7274804503
 20
19.8241558633
 10
-23.5932070101
 20
19.8553163598
 10
-23.4551361794
 20
19.8826483718
 10
-23.3144949427
 20
19.9051718429
 10
-23.1716922947
 20
19.9225600873
 10
-23.0263192406
 20
19.9351397908
 10
-22.8783757805
 20
19.9429109532
  0
LWPOLYLINE
  5
2C6
100
AcDbEntity
  8
RACCORDO
100
AcDbPolyline
 62
253
  6
CONTINUOUS
 90
22
 70
0
 10
-26.1955367903
 20
20.0298628848
 10
-26.0678667611
 20
20.1388997815
 10
-25.9375011041
 20
20.2428989371
 10
-25.8046551726
 20
20.3418328335
 10
-25.6698956875
 20
20.4354453542
 10
-25.5330934694
 20
20.5239870235
 10
-25.3933475994
 20
20.6080979549
 10
-25.250361042
 20
20.687911281
 10
-25.1047017567
 20
20.7630650372
 10
-24.9567134686
 20
20.8333769229
 10
-24.8070118805
 20
20.8985879155
 10
-24.6553182288
 20
20.9588523565
 10
-24.5006014716
 20
21.0145196491
 10
-24.3425602893
 20
21.0655488049
 10
-24.1817513167
 20
21.111611092
 10
-24.0184006425
 20
21.1525205806
 10
-23.8524389756
 20
21.1881659541
 10
-23.6842572534
 20
21.2183347509
 10
-23.5148013279
 20
21.2427812235
 10
-23.3445223696
 20
21.2614180503
 10
-23.1733610783
 20
21.2742295929
 10
-23.0015164936
 20
21.2811654874
  0
LWPOLYLINE
  5
2C7
100
AcDbEntity
  8
RACCORDO
100
AcDbPolyline
 62
253
  6
CONTINUOUS
 90
22
 70
0
 10
-27.5194962094
 20
21.5284999697
 10
-27.3402582888
 20
21.6811857103
 10
-27.1578433901
 20
21.8267628123
 10
-26.9722515131
 20
21.9652312756
 10
-26.7837367705
 20
22.0963464463
 10
-26.5920450496
 20
22.2203529783
 10
-26.3964140129
 20
22.3379848338
 10
-26.1962862801
 20
22.4496499992
 10
-25.9922192315
 20
22.554940488
 10
-25.7851226702
 20
22.6533663028
 10
-25.5756426506
 20
22.7447125371
 10
-25.3631331183
 20
22.8291940975
 10
-25.1465657127
 20
22.9069657063
 10
-24.9253544371
 20
22.9783173616
 10
-24.7000852882
 20
23.0429590654
 10
-24.4714878952
 20
23.1001755458
 10
-24.2391981297
 20
23.1499428451
 10
-24.0035801201
 20
23.1922849211
 10
-23.7664558804
 20
23.2265583758
 10
-23.5284327484
 20
23.2525487431
 10
-23.2889033863
 20
23.270470489
 10
-23.047867794
 20
23.2803236136
  0
LINE
  5
2C8
100
AcDbEntity
  8
RACCORDO
100
AcDbLine
 62
253
  6
CONTINUOUS
 10
-29.6339806689
 20
-33.6194455024
 11
-30.6333302695
 21
-33.6510016325
  0
LINE
  5
2C9
100
AcDbEntity
  8
RACCORDO
100
AcDbLine
 62
253
  6
CONTINUOUS
 10
-32.9713933293
 20
-33.7889375159
 11
-30.9722352037
 21
-33.7425862156
  0
LINE
  5
2CA
100
AcDbEntity
  8
RACCORDO
100
AcDbLine
 62
253
  6
CONTINUOUS
 10
34.0213933355
 20
-33.788937516
 11
32.0222352098
 21
-33.7425862157
  0
LINE
  5
2CB
100
AcDbEntity
  8
RACCORDO
100
AcDbLine
 62
253
  6
CONTINUOUS
 10
30.6839806751
 20
-33.6194455024
 11
31.6833302756
 21
-33.6510016326
  0
LWPOLYLINE
  5
2CC
100
AcDbEntity
  8
0
100
AcDbPolyline
 62
253
  6
CONTINUOUS
 90
13
 70
0
 10
66.2321678694
 20
-77.299110698
 10
66.2242553298
 20
-77.2950125145
 10
66.2161490876
 20
-77.2916462676
 10
66.207835176
 20
-77.2890122111
 10
66.1992222964
 20
-77.2871063583
 10
66.1903790946
 20
-77.2859347671
 10
66.1815357164
 20
-77.2855212172
 10
66.1726976985
 20
-77.2859080188
 10
66.1638517173
 20
-77.2870764498
 10
66.1552058949
 20
-77.288970692
 10
66.1468329144
 20
-77.2915850032
 10
66.138668199
 20
-77.2949593976
 10
66.130718594
 20
-77.299110698
  0
LINE
  5
2CD
100
AcDbEntity
  8
RACCORDO
100
AcDbLine
 62
253
  6
CONTINUOUS
 10
-37.2951313029
 20
-15.4044973457
 11
-38.1763715093
 21
-14.9321509558
  0
LINE
  5
2CE
100
AcDbEntity
  8
RACCORDO
100
AcDbLine
 62
253
  6
CONTINUOUS
 10
-40.2701614565
 20
-13.882575405
 11
-38.5156640834
 21
-14.8420130642
  0
LWPOLYLINE
  5
2CF
100
AcDbEntity
  8
0
100
AcDbPolyline
 62
253
  6
CONTINUOUS
 90
3
 70
0
 10
66.3284838962
 20
-77.3546730201
 10
66.2574276473
 20
-77.3138328523
 10
66.2321678694
 20
-77.299110698
  0
LINE
  5
2D0
100
AcDbEntity
  8
0
100
AcDbLine
 62
7
  6
CONTINUOUS
 10
67.8566032944
 20
-78.1064475627
 11
66.2930374346
 21
-77.2037223926
  0
LINE
  5
2D1
100
AcDbEntity
  8
0
100
AcDbLine
 62
7
  6
CONTINUOUS
 10
67.8930374346
 20
-77.2037223926
 11
68.4421067916
 21
-77.5207277337
  0
LWPOLYLINE
  5
2D2
100
AcDbEntity
  8
0
100
AcDbPolyline
 62
253
  6
CONTINUOUS
 90
3
 70
0
 10
68.4102616832
 20
-77.3852026548
 10
68.4574464212
 20
-77.4124405401
 10
68.5567338853
 20
-77.4697656618
  0
LINE
  5
2D3
100
AcDbEntity
  8
0
100
AcDbLine
 62
253
  6
CONTINUOUS
 10
68.5567338853
 20
-77.4697656618
 11
68.6086518437
 21
-77.4997390315
  0
LINE
  5
2D4
100
AcDbEntity
  8
0
100
AcDbLine
 62
253
  6
CONTINUOUS
 10
67.3257870277
 20
-77.9304811758
 11
66.4144907221
 21
-77.4043828565
  0
LINE
  5
2D5
100
AcDbEntity
  8
0
100
AcDbLine
 62
253
  6
CONTINUOUS
 10
67.8897941843
 20
-78.2561416971
 11
67.3257870277
 21
-77.9304811758
  0
LINE
  5
2D6
100
AcDbEntity
  8
0
100
AcDbLine
 62
253
  6
CONTINUOUS
 10
67.9568055505
 20
-77.1233953987
 11
68.4102616832
 21
-77.3852026548
  0
LINE
  5
2D7
100
AcDbEntity
  8
0
100
AcDbLine
 62
253
  6
CONTINUOUS
 10
66.4144907221
 20
-77.4043828565
 11
66.3284838962
 21
-77.3546730201
  0
LINE
  5
2D8
100
AcDbEntity
  8
RACCORDO
100
AcDbLine
 62
253
  6
CONTINUOUS
 10
17.7472936655
 20
-47.3789687374
 11
16.0391475927
 21
-46.339248271
  0
LINE
  5
2D9
100
AcDbEntity
  8
RACCORDO
100
AcDbLine
 62
253
  6
CONTINUOUS
 10
14.9417555255
 20
-45.5634780177
 11
15.7914396017
 21
-46.0904812284
  0
LWPOLYLINE
  5
2DA
100
AcDbEntity
  8
RACCORDO
100
AcDbPolyline
 62
253
  6
CONTINUOUS
 90
22
 70
0
 10
-34.8224082958
 20
-24.6328252412
 10
-34.9348709298
 20
-24.5600299729
 10
-35.0432012201
 20
-24.4851886624
 10
-35.1473991669
 20
-24.4083013097
 10
-35.2469549111
 20
-24.3296779176
 10
-35.3423783118
 20
-24.2490084833
 10
-35.4351989457
 20
-24.1653629982
 10
-35.5260811703
 20
-24.0782694764
 10
-35.6143606283
 20
-23.9881999038
 10
-35.6995738243
 20
-23.895640229
 10
-35.7812123214
 20
-23.8013472704
 10
-35.8597845567
 20
-23.7045642095
 10
-35.9363523461
 20
-23.6035065395
 10
-36.0114696134
 20
-23.4977275517
 10
-36.0845824348
 20
-23.3876739549
 10
-36.155090855
 20
-23.272901368
 10
-36.2232240339
 20
-23.1529588097
 10
-36.2887528116
 20
-23.0282972613
 10
-36.3503897521
 20
-22.8998252855
 10
-36.4077057104
 20
-22.7678457362
 10
-36.4611298316
 20
-22.6320557595
 10
-36.5106621157
 20
-22.4924553552
  0
LWPOLYLINE
  5
2DB
100
AcDbEntity
  8
0
100
AcDbPolyline
 62
253
  6
CONTINUOUS
 90
13
 70
0
 10
-66.805356269
 20
55.6369641651
 10
-66.811859317
 20
55.6484327371
 10
-66.8180343556
 20
55.6598545557
 10
-66.8237737723
 20
55.6710305728
 10
-66.8289775463
 20
55.6817660237
 10
-66.8335549912
 20
55.6918738216
 10
-66.8374263359
 20
55.7011778177
 10
-66.8405241144
 20
55.7095158711
 10
-66.8427943418
 20
55.7167426745
 10
-66.8441974546
 20
55.7227322862
 10
-66.8447090011
 20
55.7273803251
 10
-66.8443200664
 20
55.73060579
 10
-66.8430374285
 20
55.7323524704
  0
LWPOLYLINE
  5
2DC
100
AcDbEntity
  8
0
100
AcDbPolyline
 62
253
  6
CONTINUOUS
 90
16
 70
0
 10
-67.6814375761
 20
56.3025937154
 10
-67.6759393415
 20
56.2927125191
 10
-67.6701925386
 20
56.2829490055
 10
-67.6642710354
 20
56.2734286783
 10
-67.6582509556
 20
56.2642739302
 10
-67.6522096745
 20
56.2556024304
 10
-67.6462248249
 20
56.2475256199
 10
-67.6403733279
 20
56.2401473208
 10
-67.6347304225
 20
56.2335624181
 10
-67.6293686712
 20
56.2278555978
 10
-67.6243570028
 20
56.2231002324
 10
-67.6197598513
 20
56.2193574696
 10
-67.6156363381
 20
56.2166754476
 10
-67.6120394779
 20
56.2150886464
 10
-67.6090155031
 20
56.2146174602
 10
-67.6066032883
 20
56.2152679464
  0
LWPOLYLINE
  5
2DD
100
AcDbEntity
  8
RACCORDO
100
AcDbPolyline
 62
253
  6
CONTINUOUS
 90
22
 70
0
 10
-38.515664083
 20
-5.5901263733
 10
-38.5936407649
 20
-5.4416870464
 10
-38.6661368527
 20
-5.2917067017
 10
-38.7331699826
 20
-5.1403992264
 10
-38.7946153385
 20
-4.9883645903
 10
-38.8506819996
 20
-4.8354268822
 10
-38.9017845103
 20
-4.6805871471
 10
-38.9479822969
 20
-4.5235384968
 10
-38.9890511486
 20
-4.3649018209
 10
-39.0248913201
 20
-4.2050364758
 10
-39.0553828312
 20
-4.0446037818
 10
-39.0806127244
 20
-3.8832930793
 10
-39.1006938914
 20
-3.7199924813
 10
-39.1155171496
 20
-3.5543716934
 10
-39.1248727616
 20
-3.387091242
 10
-39.12862277
 20
-3.218520082
 10
-39.1266489544
 20
-3.0486493498
 10
-39.1188367942
 20
-2.8778745069
 10
-39.1051616326
 20
-2.7071794344
 10
-39.0856441841
 20
-2.5370254254
 10
-39.0602615809
 20
-2.3673550263
 10
-39.0290143894
 20
-2.1983723547
  0
LWPOLYLINE
  5
2DE
100
AcDbEntity
  8
RACCORDO
100
AcDbPolyline
 62
253
  6
CONTINUOUS
 90
22
 70
0
 10
-40.2701614565
 20
-6.5495640327
 10
-40.3792590592
 20
-6.341258545
 10
-40.4807523973
 20
-6.1313844508
 10
-40.5746414708
 20
-5.9199417502
 10
-40.6607508494
 20
-5.7072235989
 10
-40.7392559634
 20
-5.4929368411
 10
-40.810683104
 20
-5.2762020097
 10
-40.8753008483
 20
-5.0564021195
 10
-40.9328406192
 20
-4.8341541556
 10
-40.9830229761
 20
-4.6104296075
 10
-41.0257842878
 20
-4.3859119
 10
-41.0611881855
 20
-4.1599176081
 10
-41.0891461225
 20
-3.9313679467
 10
-41.1098108941
 20
-3.6995631618
 10
-41.1230297049
 20
-3.4652030073
 10
-41.1282556224
 20
-3.22930796
 10
-41.1253735437
 20
-2.9915751223
 10
-41.1144985716
 20
-2.7523073919
 10
-41.0954290822
 20
-2.5134339382
 10
-41.0680978674
 20
-2.2755978176
 10
-41.0325721352
 20
-2.0381559738
 10
-40.9888518857
 20
-1.8011084067
  0
LWPOLYLINE
  5
2DF
100
AcDbEntity
  8
RACCORDO
100
AcDbPolyline
 62
253
  6
CONTINUOUS
 90
22
 70
0
 10
-38.1763715093
 20
-5.4999884819
 10
-38.2528812157
 20
-5.3513209969
 10
-38.3233225294
 20
-5.2025062031
 10
-38.3878470903
 20
-5.0538134639
 10
-38.4462964084
 20
-4.9063405827
 10
-38.4992094849
 20
-4.7595051738
 10
-38.547556607
 20
-4.6109492301
 10
-38.5915488269
 20
-4.4598241053
 10
-38.630796394
 20
-4.3072461366
 10
-38.6651706218
 20
-4.1537309664
 10
-38.6944610484
 20
-4.0005638365
 10
-38.718927878
 20
-3.8467837624
 10
-38.7389069093
 20
-3.689500333
 10
-38.7541749239
 20
-3.5280195943
 10
-38.7643250268
 20
-3.3632980596
 10
-38.7690728725
 20
-3.1948985772
 10
-38.7680531873
 20
-3.0224310444
 10
-38.7608863956
 20
-2.8466740873
 10
-38.747324204
 20
-2.6689710226
 10
-38.7271851134
 20
-2.4899353265
 10
-38.7002248921
 20
-2.3094561753
 10
-38.6662287005
 20
-2.127811476
  0
LWPOLYLINE
  5
2E0
100
AcDbEntity
  8
RACCORDO
100
AcDbPolyline
 62
253
  6
CONTINUOUS
 90
22
 70
0
 10
-37.2951313029
 20
-5.0276420919
 10
-37.3561291667
 20
-4.9083682234
 10
-37.4125252949
 20
-4.789388602
 10
-37.4643196875
 20
-4.6707032279
 10
-37.511225795
 20
-4.552835501
 10
-37.553530167
 20
-4.4352620212
 10
-37.5920924514
 20
-4.3164125892
 10
-37.6272520058
 20
-4.1955462745
 10
-37.6586694727
 20
-4.0734040076
 10
-37.6861864278
 20
-3.9506383798
 10
-37.7097409609
 20
-3.8281590337
 10
-37.7293949822
 20
-3.7050563266
 10
-37.745175798
 20
-3.5792539225
 10
-37.7573397659
 20
-3.4500879983
 10
-37.7656305282
 20
-3.3182223769
 10
-37.7693063177
 20
-3.1835721909
 10
-37.7683401024
 20
-3.045632299
 10
-37.7627589143
 20
-2.9049078424
 10
-37.7519020827
 20
-2.7628293773
 10
-37.735549384
 20
-2.6198737558
 10
-37.7139210417
 20
-2.4755641258
 10
-37.6870170559
 20
-2.3299004872
  0
LINE
  5
2E1
100
AcDbEntity
  8
RACCORDO
100
AcDbLine
 62
253
  6
CONTINUOUS
 10
-22.8783757805
 20
19.9429109532
 11
-22.9099319106
 21
20.9422605537
  0
LINE
  5
2E2
100
AcDbEntity
  8
RACCORDO
100
AcDbLine
 62
253
  6
CONTINUOUS
 10
-23.047867794
 20
23.2803236136
 11
-23.0015164937
 21
21.281165488
  0
LINE
  5
2E3
100
AcDbEntity
  8
RACCORDO
100
AcDbLine
 62
253
  6
CONTINUOUS
 10
-23.0478677941
 20
-43.7124630512
 11
-23.0015164938
 21
-41.7133049256
  0
LINE
  5
2E4
100
AcDbEntity
  8
RACCORDO
100
AcDbLine
 62
253
  6
CONTINUOUS
 10
-22.8783757805
 20
-40.3750503908
 11
-22.9099319107
 21
-41.3743999914
  0
LWPOLYLINE
  5
2E5
100
AcDbEntity
  8
0
100
AcDbPolyline
 62
7
  6
CONTINUOUS
 90
10
 70
0
 10
-67.4180313578
 20
-77.5494021953
 10
-67.4160698905
 20
-77.5455023915
 10
-67.413877078
 20
-77.5417514668
 10
-67.4114499936
 20
-77.5381610132
 10
-67.408777737
 20
-77.5347359455
 10
-67.4058664311
 20
-77.5314938746
 10
-67.402740561
 20
-77.5284629209
 10
-67.3994090768
 20
-77.5256566356
 10
-67.3958640927
 20
-77.5230760814
 10
-67.3921067855
 20
-77.5207277337
  0
LWPOLYLINE
  5
2E6
100
AcDbEntity
  8
0
100
AcDbPolyline
 62
253
  6
CONTINUOUS
 90
16
 70
0
 10
-66.7039069937
 20
-77.299110698
 10
-66.6982906359
 20
-77.289297923
 10
-66.6926067178
 20
-77.2794982807
 10
-66.6869282987
 20
-77.2698377356
 10
-66.6813283724
 20
-77.2604404731
 10
-66.6758789208
 20
-77.2514272892
 10
-66.6706499899
 20
-77.2429140399
 10
-66.665708797
 20
-77.2350101656
 10
-66.661118873
 20
-77.2278172941
 10
-66.6569392365
 20
-77.221427917
 10
-66.6532236237
 20
-77.215924184
 10
-66.6500198139
 20
-77.2113768728
 10
-66.6473690139
 20
-77.2078444738
 10
-66.6453053088
 20
-77.2053724103
 10
-66.643855231
 20
-77.2039924666
 10
-66.6430374279
 20
-77.203722393
  0
LWPOLYLINE
  5
2E7
100
AcDbEntity
  8
RACCORDO
100
AcDbPolyline
 62
253
  6
CONTINUOUS
 90
22
 70
0
 10
-14.9891475863
 20
25.9071088331
 10
-14.8995836992
 20
26.048858284
 10
-14.8059449545
 20
26.18663191
 10
-14.7084254021
 20
26.3203380411
 10
-14.6074822229
 20
26.4495685983
 10
-14.503067613
 20
26.5745926052
 10
-14.3945237243
 20
26.6962685451
 10
-14.2816144968
 20
26.814801327
 10
-14.1647655313
 20
26.9296863339
 10
-14.0442381671
 20
27.0406575055
 10
-13.920545134
 20
27.1472802756
 10
-13.7934609143
 20
27.2497853554
 10
-13.6620790315
 20
27.3488264552
 10
-13.5260588509
 20
27.4444741672
 10
-13.3858675365
 20
27.5362165906
 10
-13.2417556338
 20
27.6237497732
 10
-13.0936563565
 20
27.7069757648
 10
-12.9418549241
 20
27.7855976571
 10
-12.7871910742
 20
27.8591021559
 10
-12.6300746557
 20
27.9272765542
 10
-12.4704444782
 20
27.9901297746
 10
-12.308477596
 20
28.0475602488
  0
LWPOLYLINE
  5
2E8
100
AcDbEntity
  8
RACCORDO
100
AcDbPolyline
 62
253
  6
CONTINUOUS
 90
22
 70
0
 10
-16.6972936594
 20
26.9468292996
 10
-16.5714446167
 20
27.145463339
 10
-16.4404349886
 20
27.3382961952
 10
-16.3042647752
 20
27.5253278683
 10
-16.1631001415
 20
27.7062598534
 10
-16.0167749226
 20
27.8813906553
 10
-15.8647906231
 20
28.0516157892
 10
-15.7067472065
 20
28.2174763425
 10
-15.5430447093
 20
28.3784312277
 10
-15.3743847457
 20
28.5337526977
 10
-15.2013273632
 20
28.6830439337
 10
-15.0233125142
 20
28.8267017544
 10
-14.8393616699
 20
28.9651888688
 10
-14.6489452232
 20
29.0989874784
 10
-14.4525927812
 20
29.2276153816
 10
-14.2509146363
 20
29.3500886826
 10
-14.0435909202
 20
29.466459148
 10
-13.8309415014
 20
29.5766750112
 10
-13.6145362774
 20
29.6795970758
 10
-13.3948985477
 20
29.7748456097
 10
-13.171505013
 20
29.862800345
 10
-12.9443556732
 20
29.9434612818
  0
LWPOLYLINE
  5
2E9
100
AcDbEntity
  8
RACCORDO
100
AcDbPolyline
 62
253
  6
CONTINUOUS
 90
22
 70
0
 10
-14.7414395956
 20
25.6583417907
 10
-14.6509446301
 20
25.7989348825
 10
-14.557287895
 20
25.9343462465
 10
-14.460778486
 20
26.0645725251
 10
-14.3622878835
 20
26.18892756
 10
-14.2615812275
 20
26.3081693329
 10
-14.1571015675
 20
26.4243171407
 10
-14.0482194802
 20
26.5379780831
 10
-13.9357068668
 20
26.6482564576
 10
-13.8199459435
 20
26.7547829972
 10
-13.7019445312
 20
26.8567328157
 10
-13.5810004952
 20
26.9548117487
 10
-13.4547785654
 20
27.050755812
 10
-13.3225661508
 20
27.1447186699
 10
-13.1849881686
 20
27.2358696842
 10
-13.0415238618
 20
27.3241811804
 10
-12.8916527544
 20
27.4095318735
 10
-12.7358593688
 20
27.4912037283
 10
-12.5751829047
 20
27.5683100583
 10
-12.4100638983
 20
27.6403869422
 10
-12.2402842579
 20
27.7072782813
 10
-12.0659772381
 20
27.7686590654
  0
LWPOLYLINE
  5
2EA
100
AcDbEntity
  8
RACCORDO
100
AcDbPolyline
 62
253
  6
CONTINUOUS
 90
22
 70
0
 10
-13.8917555193
 20
25.1313385801
 10
-13.818960251
 20
25.243801214
 10
-13.7441189405
 20
25.3521315043
 10
-13.6672315878
 20
25.4563294511
 10
-13.5886081957
 20
25.5558851954
 10
-13.5079387614
 20
25.651308596
 10
-13.4242932763
 20
25.74412923
 10
-13.3371997546
 20
25.8350114546
 10
-13.247130182
 20
25.9232909125
 10
-13.1545705071
 20
26.0085041085
 10
-13.0602775485
 20
26.0901426057
 10
-12.9634944876
 20
26.168714841
 10
-12.8624368176
 20
26.2452826303
 10
-12.7566578299
 20
26.3203998977
 10
-12.646604233
 20
26.3935127191
 10
-12.5318316461
 20
26.4640211392
 10
-12.4118890878
 20
26.5321543182
 10
-12.2872275395
 20
26.5976830958
 10
-12.1587555636
 20
26.6593200364
 10
-12.0267760143
 20
26.7166359946
 10
-11.8909860376
 20
26.7700601158
 10
-11.7513856333
 20
26.8195923999
  0
LWPOLYLINE
  5
2EB
100
AcDbEntity
  8
RACCORDO
100
AcDbPolyline
 62
253
  6
CONTINUOUS
 90
22
 70
0
 10
5.1509433486
 20
28.8245943672
 10
5.2993826755
 20
28.9025710491
 10
5.4493630202
 20
28.9750671369
 10
5.6006704955
 20
29.0421002669
 10
5.7527051316
 20
29.1035456227
 10
5.9056428397
 20
29.1596122839
 10
6.0604825748
 20
29.2107147945
 10
6.2175312251
 20
29.2569125811
 10
6.376167901
 20
29.2979814328
 10
6.5360332461
 20
29.3338216044
 10
6.69646594
 20
29.3643131154
 10
6.8577766426
 20
29.3895430087
 10
7.0210772406
 20
29.4096241757
 10
7.1866980285
 20
29.4244474338
 10
7.3539784799
 20
29.4338030459
 10
7.5225496399
 20
29.4375530543
 10
7.6924203721
 20
29.4355792387
 10
7.863195215
 20
29.4277670785
 10
8.0338902875
 20
29.4140919168
 10
8.2040442965
 20
29.3945744684
 10
8.3737146955
 20
29.3691918651
 10
8.5426973672
 20
29.3379446737
  0
LWPOLYLINE
  5
2EC
100
AcDbEntity
  8
RACCORDO
100
AcDbPolyline
 62
253
  6
CONTINUOUS
 90
22
 70
0
 10
4.191505689
 20
30.5790917406
 10
4.3998111768
 20
30.6881893434
 10
4.609685271
 20
30.7896826815
 10
4.8211279717
 20
30.8835717551
 10
5.033846123
 20
30.9696811337
 10
5.2481328808
 20
31.0481862477
 10
5.4648677121
 20
31.1196133882
 10
5.6846676024
 20
31.1842311326
 10
5.9069155662
 20
31.2417709034
 10
6.1306401143
 20
31.2919532604
 10
6.3551578219
 20
31.3347145721
 10
6.5811521138
 20
31.3701184698
 10
6.8097017751
 20
31.3980764068
 10
7.0415065601
 20
31.4187411783
 10
7.2758667146
 20
31.4319599892
 10
7.5117617619
 20
31.4371859066
 10
7.7494945995
 20
31.4343038279
 10
7.98876233
 20
31.4234288559
 10
8.2276357837
 20
31.4043593665
 10
8.4654719042
 20
31.3770281517
 10
8.7029137481
 20
31.3415024195
 10
8.9399613152
 20
31.2977821699
  0
LWPOLYLINE
  5
2ED
100
AcDbEntity
  8
RACCORDO
100
AcDbPolyline
 62
253
  6
CONTINUOUS
 90
22
 70
0
 10
5.24108124
 20
28.4853017935
 10
5.389748725
 20
28.5618114999
 10
5.5385635188
 20
28.6322528136
 10
5.687256258
 20
28.6967773746
 10
5.8347291392
 20
28.7552266927
 10
5.9815645481
 20
28.8081397691
 10
6.1301204917
 20
28.8564868913
 10
6.2812456166
 20
28.9004791112
 10
6.4338235853
 20
28.9397266782
 10
6.5873387555
 20
28.974100906
 10
6.7405058854
 20
29.0033913327
 10
6.8942859595
 20
29.0278581622
 10
7.0515693889
 20
29.0478371936
 10
7.2130501276
 20
29.0631052082
 10
7.3777716623
 20
29.073255311
 10
7.5461711447
 20
29.0780031568
 10
7.7186386775
 20
29.0769834715
 10
7.8943956346
 20
29.0698166798
 10
8.0720986993
 20
29.0562544883
 10
8.2511343954
 20
29.0361153976
 10
8.4316135466
 20
29.0091551763
 10
8.6132582459
 20
28.9751589848
  0
LWPOLYLINE
  5
2EE
100
AcDbEntity
  8
RACCORDO
100
AcDbPolyline
 62
253
  6
CONTINUOUS
 90
22
 70
0
 10
5.71342763
 20
27.6040615872
 10
5.8327014986
 20
27.665059451
 10
5.9516811199
 20
27.7214555792
 10
6.0703664939
 20
27.7732499717
 10
6.1882342209
 20
27.8201560793
 10
6.3058077007
 20
27.8624604512
 10
6.4246571327
 20
27.9010227357
 10
6.5455234473
 20
27.9361822901
 10
6.6676657143
 20
27.9675997569
 10
6.7904313421
 20
27.995116712
 10
6.9129106882
 20
28.0186712452
 10
7.0360133953
 20
28.0383252665
 10
7.1618157994
 20
28.0541060822
 10
7.2909817236
 20
28.0662700501
 10
7.422847345
 20
28.0745608124
 10
7.557497531
 20
28.0782366019
 10
7.6954374229
 20
28.0772703866
 10
7.8361618795
 20
28.0716891986
 10
7.9782403446
 20
28.060832367
 10
8.1211959661
 20
28.0444796682
 10
8.2655055961
 20
28.022851326
 10
8.4111692347
 20
27.9959473402
  0
LINE
  5
2EF
100
AcDbEntity
  8
RACCORDO
100
AcDbLine
 62
253
  6
CONTINUOUS
 10
-30.8104450054
 20
-33.6992882552
 11
-30.6333302695
 21
-33.6510016325
  0
LINE
  5
2F0
100
AcDbEntity
  8
RACCORDO
100
AcDbLine
 62
253
  6
CONTINUOUS
 10
39.3885749365
 20
-14.8894823625
 11
39.5656640895
 21
-14.8420130642
  0
LINE
  5
2F1
100
AcDbEntity
  8
RACCORDO
100
AcDbLine
 62
253
  6
CONTINUOUS
 10
-30.9722352037
 20
-33.7425862156
 11
-30.8104450054
 21
-33.6992882552
  0
LINE
  5
2F2
100
AcDbEntity
  8
RACCORDO
100
AcDbLine
 62
253
  6
CONTINUOUS
 10
39.2263715155
 20
-14.9321509558
 11
39.3885749365
 21
-14.8894823625
  0
LINE
  5
2F3
100
AcDbEntity
  8
RACCORDO
100
AcDbLine
 62
253
  6
CONTINUOUS
 10
39.8017296826
 20
-18.2878937543
 11
40.079014396
 21
-18.2337670827
  0
LINE
  5
2F4
100
AcDbEntity
  8
RACCORDO
100
AcDbLine
 62
253
  6
CONTINUOUS
 10
39.7162287067
 20
-18.3043279616
 11
39.8017296826
 21
-18.2878937543
  0
LINE
  5
2F5
100
AcDbEntity
  8
RACCORDO
100
AcDbLine
 62
253
  6
CONTINUOUS
 10
-38.9439281242
 20
-18.2505119179
 11
-38.6662287006
 21
-18.3043279616
  0
LINE
  5
2F6
100
AcDbEntity
  8
RACCORDO
100
AcDbLine
 62
253
  6
CONTINUOUS
 10
-39.0290143899
 20
-18.2337670827
 11
-38.9439281242
 21
-18.2505119179
  0
LINE
  5
2F7
100
AcDbEntity
  8
RACCORDO
100
AcDbLine
 62
253
  6
CONTINUOUS
 10
-38.3539007519
 20
-14.8854110109
 11
-38.1763715093
 21
-14.9321509558
  0
LINE
  5
2F8
100
AcDbEntity
  8
RACCORDO
100
AcDbLine
 62
253
  6
CONTINUOUS
 10
31.8451368555
 20
-33.6951512573
 11
32.0222352098
 21
-33.7425862157
  0
LINE
  5
2F9
100
AcDbEntity
  8
RACCORDO
100
AcDbLine
 62
253
  6
CONTINUOUS
 10
-38.5156640834
 20
-14.8420130642
 11
-38.3539007519
 21
-14.8854110109
  0
LINE
  5
2FA
100
AcDbEntity
  8
RACCORDO
100
AcDbLine
 62
253
  6
CONTINUOUS
 10
31.6833302756
 20
-33.6510016325
 11
31.8451368555
 21
-33.6951512573
  0
LINE
  5
2FB
100
AcDbEntity
  8
RACCORDO
100
AcDbLine
 62
253
  6
CONTINUOUS
 10
30.5037336654
 20
-36.8448392282
 11
30.770932607
 21
-36.9366065123
  0
LINE
  5
2FC
100
AcDbEntity
  8
RACCORDO
100
AcDbLine
 62
253
  6
CONTINUOUS
 10
30.4214705445
 20
-36.8163211812
 11
30.5037336654
 21
-36.8448392282
  0
LWPOLYLINE
  5
2FD
100
AcDbEntity
  8
0
100
AcDbPolyline
 62
7
  6
CONTINUOUS
 90
10
 70
0
 10
67.8566032944
 20
-78.1064475627
 10
67.861875277
 20
-78.1098185345
 10
67.8666134796
 20
-78.1133823263
 10
67.8708143188
 20
-78.1171447797
 10
67.8744705402
 20
-78.1211404023
 10
67.8775817514
 20
-78.1253444551
 10
67.8801552376
 20
-78.129673329
 10
67.8821916402
 20
-78.1341015782
 10
67.883684124
 20
-78.1386615328
 10
67.8846294945
 20
-78.1433556574
  0
LINE
  5
2FE
100
AcDbEntity
  8
RACCORDO
100
AcDbLine
 62
253
  6
CONTINUOUS
 10
-37.6733155148
 20
2.5603632952
 11
-37.4597287812
 21
2.3749075224
  0
LINE
  5
2FF
100
AcDbEntity
  8
RACCORDO
100
AcDbLine
 62
253
  6
CONTINUOUS
 10
-37.7386299648
 20
2.6174078807
 11
-37.6733155148
 21
2.5603632952
  0
LINE
  5
300
100
AcDbEntity
  8
RACCORDO
100
AcDbLine
 62
253
  6
CONTINUOUS
 10
-35.479786368
 20
5.1796124808
 11
-35.3494115064
 21
5.0503698799
  0
LINE
  5
301
100
AcDbEntity
  8
RACCORDO
100
AcDbLine
 62
253
  6
CONTINUOUS
 10
15.9094933953
 20
-46.2096192121
 11
16.0391475927
 21
-46.339248271
  0
LINE
  5
302
100
AcDbEntity
  8
RACCORDO
100
AcDbLine
 62
253
  6
CONTINUOUS
 10
-35.5981785491
 20
5.2980778708
 11
-35.479786368
 21
5.1796124808
  0
LINE
  5
303
100
AcDbEntity
  8
RACCORDO
100
AcDbLine
 62
253
  6
CONTINUOUS
 10
15.7914396018
 20
-46.0904812283
 11
15.9094933953
 21
-46.2096192121
  0
LINE
  5
304
100
AcDbEntity
  8
RACCORDO
100
AcDbLine
 62
253
  6
CONTINUOUS
 10
13.1729601721
 20
-48.2666274153
 11
13.3584776025
 21
-48.4796996867
  0
LINE
  5
305
100
AcDbEntity
  8
RACCORDO
100
AcDbLine
 62
253
  6
CONTINUOUS
 10
13.1159772443
 20
-48.2007985031
 11
13.1729601721
 21
-48.2666274153
  0
LWPOLYLINE
  5
306
100
AcDbEntity
  8
0
100
AcDbPolyline
 62
7
  6
CONTINUOUS
 90
10
 70
0
 10
-65.9549079545
 20
57.9619974485
 10
-65.952511359
 20
57.958348866
 10
-65.9503593691
 20
57.9545743723
 10
-65.9484634873
 20
57.9506772287
 10
-65.94683342
 20
57.9466504528
 10
-65.9454813572
 20
57.9425081525
 10
-65.9444194093
 20
57.9382855927
 10
-65.9436548371
 20
57.9339973002
 10
-65.9431925036
 20
57.9296369768
 10
-65.9430374285
 20
57.9252088794
  0
LINE
  5
307
100
AcDbEntity
  8
RACCORDO
100
AcDbLine
 62
253
  6
CONTINUOUS
 10
-34.8224082958
 20
4.2006858036
 11
-35.3494115064
 21
5.0503698799
  0
LINE
  5
308
100
AcDbEntity
  8
RACCORDO
100
AcDbLine
 62
253
  6
CONTINUOUS
 10
-36.6378990155
 20
7.0062239436
 11
-35.5981785491
 21
5.2980778708
  0
LWPOLYLINE
  5
309
100
AcDbEntity
  8
0
100
AcDbPolyline
 62
253
  6
CONTINUOUS
 90
16
 70
0
 10
-66.0952113415
 20
57.218401859
 10
-66.0895214082
 20
57.2086315633
 10
-66.0838766283
 20
57.1988093251
 10
-66.0783495605
 20
57.1890613976
 10
-66.0730112557
 20
57.1795130881
 10
-66.0679303354
 20
57.1702871328
 10
-66.0631721106
 20
57.161502121
 10
-66.0587977511
 20
57.1532709853
 10
-66.0548635035
 20
57.1456995587
 10
-66.0514199588
 20
57.1388851985
 10
-66.0485113926
 20
57.1329155167
 10
-66.0461752103
 20
57.1278672802
 10
-66.0444414629
 20
57.1238054204
 10
-66.0433324455
 20
57.1207821675
 10
-66.0428624182
 20
57.1188363913
 10
-66.043037429
 20
57.1179931162
  0
LINE
  5
30A
100
AcDbEntity
  8
RACCORDO
100
AcDbLine
 62
253
  6
CONTINUOUS
 10
-3.1415056831
 20
-51.0112311784
 11
-4.1009433424
 21
-49.2567338053
  0
LINE
  5
30B
100
AcDbEntity
  8
RACCORDO
100
AcDbLine
 62
253
  6
CONTINUOUS
 10
-4.6634276238
 20
-48.0362010248
 11
-4.1910812339
 21
-48.9174412312
  0
LINE
  5
30C
100
AcDbEntity
  8
RACCORDO
100
AcDbLine
 62
253
  6
CONTINUOUS
 10
-7.509442196
 20
29.2528584085
 11
-7.5632582397
 21
28.9751589848
  0
LINE
  5
30D
100
AcDbEntity
  8
RACCORDO
100
AcDbLine
 62
253
  6
CONTINUOUS
 10
-7.4926973608
 20
29.3379446741
 11
-7.509442196
 21
29.2528584085
  0
LINE
  5
30E
100
AcDbEntity
  8
RACCORDO
100
AcDbLine
 62
253
  6
CONTINUOUS
 10
-4.144341289
 20
28.6628310361
 11
-4.1910812339
 21
28.4853017936
  0
LINE
  5
30F
100
AcDbEntity
  8
RACCORDO
100
AcDbLine
 62
253
  6
CONTINUOUS
 10
-22.9540815354
 20
-41.5362065712
 11
-23.0015164938
 21
-41.7133049256
  0
LINE
  5
310
100
AcDbEntity
  8
RACCORDO
100
AcDbLine
 62
253
  6
CONTINUOUS
 10
-4.1009433423
 20
28.8245943676
 11
-4.144341289
 21
28.6628310361
  0
LINE
  5
311
100
AcDbEntity
  8
RACCORDO
100
AcDbLine
 62
253
  6
CONTINUOUS
 10
-22.9099319106
 20
-41.3743999914
 11
-22.9540815354
 21
-41.5362065712
  0
LINE
  5
312
100
AcDbEntity
  8
RACCORDO
100
AcDbLine
 62
253
  6
CONTINUOUS
 10
-26.1037695063
 20
-40.1948033811
 11
-26.1955367904
 21
-40.4620023228
  0
LINE
  5
313
100
AcDbEntity
  8
RACCORDO
100
AcDbLine
 62
253
  6
CONTINUOUS
 10
-26.0752514594
 20
-40.1125402603
 11
-26.1037695063
 21
-40.1948033811
  0
LINE
  5
314
100
AcDbEntity
  8
RACCORDO
100
AcDbLine
 62
253
  6
CONTINUOUS
 10
-4.6634276238
 20
27.6040615872
 11
-4.1910812339
 21
28.4853017936
  0
LINE
  5
315
100
AcDbEntity
  8
RACCORDO
100
AcDbLine
 62
253
  6
CONTINUOUS
 10
-3.1415056831
 20
30.5790917407
 11
-4.1009433423
 21
28.8245943676
  0
LWPOLYLINE
  5
316
100
AcDbEntity
  8
0
100
AcDbPolyline
 62
253
  6
CONTINUOUS
 90
13
 70
0
 10
-64.9792693125
 20
-77.1233953987
 10
-64.9859498632
 20
-77.1347614893
 10
-64.9927539289
 20
-77.1458201388
 10
-64.9995629352
 20
-77.156378628
 10
-65.0062582214
 20
-77.1662529539
 10
-65.0127231087
 20
-77.1752710364
 10
-65.0188449333
 20
-77.1832757173
 10
-65.0245170101
 20
-77.190127499
 10
-65.0296404918
 20
-77.1957069752
 10
-65.0341260913
 20
-77.1999169125
 10
-65.0378956379
 20
-77.2026839443
 10
-65.0408834398
 20
-77.2039598494
 10
-65.0430374285
 20
-77.2037223926
  0
LINE
  5
317
100
AcDbEntity
  8
RACCORDO
100
AcDbLine
 62
253
  6
CONTINUOUS
 10
-36.6378990155
 20
-27.4383633813
 11
-35.5981785491
 21
-25.7302173084
  0
LINE
  5
318
100
AcDbEntity
  8
RACCORDO
100
AcDbLine
 62
253
  6
CONTINUOUS
 10
-34.8224082958
 20
-24.6328252412
 11
-35.3494115065
 21
-25.4825093175
  0
LWPOLYLINE
  5
319
100
AcDbEntity
  8
0
100
AcDbPolyline
 62
253
  6
CONTINUOUS
 90
10
 70
0
 10
-67.733366214
 20
-76.6841071504
 10
-67.7290793126
 20
-76.6774385564
 10
-67.7243927515
 20
-76.670997581
 10
-67.7193086263
 20
-76.6647868818
 10
-67.7137971555
 20
-76.6587704053
 10
-67.7078918258
 20
-76.6529892174
 10
-67.7016907081
 20
-76.6475591746
 10
-67.695228858
 20
-76.6425175207
 10
-67.6884769948
 20
-76.6378252192
 10
-67.6814375761
 20
-76.6334811476
  0
LWPOLYLINE
  5
31A
100
AcDbEntity
  8
0
100
AcDbPolyline
 62
253
  6
CONTINUOUS
 90
13
 70
0
 10
66.8408635216
 20
57.218401859
 10
66.8483692916
 20
57.2232053382
 10
66.8553380771
 20
57.2285428356
 10
66.8617766496
 20
57.2344265736
 10
66.8677342213
 20
57.2409337313
 10
66.8731711305
 20
57.2480077816
 10
66.8779514008
 20
57.2554609893
 10
66.8820354745
 20
57.2633100859
 10
66.8854463602
 20
57.2715568863
 10
66.888128414
 20
57.2799918315
 10
66.8900502717
 20
57.2885486348
 10
66.8912095209
 20
57.2973036996
 10
66.8915881592
 20
57.3062595086
  0
LINE
  5
31B
100
AcDbEntity
  8
RACCORDO
100
AcDbLine
 62
253
  6
CONTINUOUS
 10
14.9417555255
 20
25.1313385801
 11
15.7914396017
 21
25.6583417907
  0
LINE
  5
31C
100
AcDbEntity
  8
RACCORDO
100
AcDbLine
 62
253
  6
CONTINUOUS
 10
17.7472936655
 20
26.9468292997
 11
16.0391475927
 21
25.9071088334
  0
LWPOLYLINE
  5
31D
100
AcDbEntity
  8
0
100
AcDbPolyline
 62
7
  6
CONTINUOUS
 90
8
 70
0
 10
67.8827786176
 20
57.8013192252
 10
67.8711054763
 20
57.79450269
 10
67.8596733792
 20
57.7874835604
 10
67.8486203651
 20
57.7803554255
 10
67.8380344144
 20
57.7733809582
 10
67.8280848344
 20
57.7666513974
 10
67.8190026499
 20
57.7600956282
 10
67.8109876822
 20
57.7537333399
  0
LINE
  5
31E
100
AcDbEntity
  8
0
100
AcDbLine
 62
7
  6
CONTINUOUS
 10
65.2841230161
 20
56.1890859439
 11
66.8930374346
 21
57.1179931165
  0
LINE
  5
31F
100
AcDbEntity
  8
0
100
AcDbLine
 62
7
  6
CONTINUOUS
 10
66.0930374346
 20
55.7323524704
 11
65.5439680776
 21
55.4153471294
  0
LINE
  5
320
100
AcDbEntity
  8
0
100
AcDbLine
 62
253
  6
CONTINUOUS
 10
65.254637287
 20
56.3025937154
 11
66.8170687344
 21
57.2047770168
  0
LINE
  5
321
100
AcDbEntity
  8
0
100
AcDbLine
 62
253
  6
CONTINUOUS
 10
66.130718594
 20
55.6369641651
 11
65.4788723009
 21
55.2606205323
  0
LINE
  5
322
100
AcDbEntity
  8
0
100
AcDbLine
 62
253
  6
CONTINUOUS
 10
66.8170687344
 20
57.2047770168
 11
66.8408635216
 21
57.218401859
  0
LINE
  5
323
100
AcDbEntity
  8
0
100
AcDbLine
 62
7
  6
CONTINUOUS
 10
67.9060809129
 20
57.8145991124
 11
67.8827786176
 21
57.8013192252
  0
LINE
  5
324
100
AcDbEntity
  8
RACCORDO
100
AcDbLine
 62
253
  6
CONTINUOUS
 10
-40.2701614565
 20
-6.5495640326
 11
-38.5156640834
 21
-5.5901263734
  0
LINE
  5
325
100
AcDbEntity
  8
RACCORDO
100
AcDbLine
 62
253
  6
CONTINUOUS
 10
-37.2951313029
 20
-5.0276420919
 11
-38.1763715093
 21
-5.4999884818
  0
LINE
  5
326
100
AcDbEntity
  8
RACCORDO
100
AcDbLine
 62
253
  6
CONTINUOUS
 10
-37.6870170559
 20
-18.1022389504
 11
-38.6662287006
 21
-18.3043279616
  0
LINE
  5
327
100
AcDbEntity
  8
RACCORDO
100
AcDbLine
 62
253
  6
CONTINUOUS
 10
38.7370170621
 20
-2.3299004873
 11
39.7162287067
 21
-2.1278114761
  0
LINE
  5
328
100
AcDbEntity
  8
RACCORDO
100
AcDbLine
 62
253
  6
CONTINUOUS
 10
42.0388518918
 20
-1.8011084068
 11
40.079014396
 21
-2.198372355
  0
LINE
  5
329
100
AcDbEntity
  8
RACCORDO
100
AcDbLine
 62
253
  6
CONTINUOUS
 10
-40.9888518856
 20
-18.6310310308
 11
-39.0290143898
 21
-18.2337670827
  0
LINE
  5
32A
100
AcDbEntity
  8
RACCORDO
100
AcDbLine
 62
253
  6
CONTINUOUS
 10
-40.9888518857
 20
-1.8011084067
 11
-39.0290143898
 21
-2.1983723549
  0
LINE
  5
32B
100
AcDbEntity
  8
RACCORDO
100
AcDbLine
 62
253
  6
CONTINUOUS
 10
42.0388518918
 20
-18.6310310309
 11
40.079014396
 21
-18.2337670827
  0
LINE
  5
32C
100
AcDbEntity
  8
RACCORDO
100
AcDbLine
 62
253
  6
CONTINUOUS
 10
38.7370170621
 20
-18.1022389504
 11
39.7162287067
 21
-18.3043279616
  0
LINE
  5
32D
100
AcDbEntity
  8
RACCORDO
100
AcDbLine
 62
253
  6
CONTINUOUS
 10
-37.6870170559
 20
-2.3299004872
 11
-38.6662287005
 21
-2.127811476
  0
LINE
  5
32E
100
AcDbEntity
  8
RACCORDO
100
AcDbLine
 62
253
  6
CONTINUOUS
 10
37.5606621218
 20
-22.4924553553
 11
38.5097287873
 21
-22.80704696
  0
LINE
  5
32F
100
AcDbEntity
  8
RACCORDO
100
AcDbLine
 62
253
  6
CONTINUOUS
 10
-36.5106621156
 20
2.0603159176
 11
-37.4597287812
 21
2.3749075224
  0
LINE
  5
330
100
AcDbEntity
  8
RACCORDO
100
AcDbLine
 62
253
  6
CONTINUOUS
 10
-39.6345309975
 20
3.2532859575
 11
-37.7386299648
 21
2.6174078807
  0
LINE
  5
331
100
AcDbEntity
  8
RACCORDO
100
AcDbLine
 62
253
  6
CONTINUOUS
 10
40.6845310036
 20
-23.6854253951
 11
38.7886299709
 21
-23.0495473183
  0
LWPOLYLINE
  5
332
100
AcDbEntity
  8
0
100
AcDbPolyline
 62
7
  6
CONTINUOUS
 90
8
 70
0
 10
-65.9709272266
 20
57.9822946217
 10
-65.9799217149
 20
57.9933135988
 10
-65.9897232454
 20
58.004458801
 10
-66.0002057731
 20
58.0155669312
 10
-66.0109688595
 20
58.0267035057
 10
-66.0218744459
 20
58.037793398
 10
-66.0330502392
 20
58.0485891747
 10
-66.0444867038
 20
58.0589467743
  0
LINE
  5
333
100
AcDbEntity
  8
0
100
AcDbLine
 62
7
  6
CONTINUOUS
 10
-65.9549079545
 20
57.9619974485
 11
-65.9709272266
 21
57.9822946217
  0
LINE
  5
334
100
AcDbEntity
  8
RACCORDO
100
AcDbLine
 62
253
  6
CONTINUOUS
 10
-26.1674951102
 20
19.9478036001
 11
-26.0752514593
 21
19.6804008227
  0
LINE
  5
335
100
AcDbEntity
  8
RACCORDO
100
AcDbLine
 62
253
  6
CONTINUOUS
 10
-26.1955367903
 20
20.0298628852
 11
-26.1674951102
 21
19.9478036001
  0
LINE
  5
336
100
AcDbEntity
  8
RACCORDO
100
AcDbLine
 62
253
  6
CONTINUOUS
 10
-22.9582185523
 20
21.1193753602
 11
-22.9099319106
 21
20.9422605537
  0
LINE
  5
337
100
AcDbEntity
  8
RACCORDO
100
AcDbLine
 62
253
  6
CONTINUOUS
 10
-4.1484126406
 20
-49.0796446522
 11
-4.1009433424
 21
-49.2567338053
  0
LINE
  5
338
100
AcDbEntity
  8
RACCORDO
100
AcDbLine
 62
253
  6
CONTINUOUS
 10
-23.0015164937
 20
21.281165488
 11
-22.9582185523
 21
21.1193753602
  0
LINE
  5
339
100
AcDbEntity
  8
RACCORDO
100
AcDbLine
 62
253
  6
CONTINUOUS
 10
-4.1910812339
 20
-48.9174412312
 11
-4.1484126406
 21
-49.0796446522
  0
LINE
  5
33A
100
AcDbEntity
  8
RACCORDO
100
AcDbLine
 62
253
  6
CONTINUOUS
 10
-7.5468240324
 20
-49.4927993984
 11
-7.4926973608
 21
-49.7700841117
  0
LINE
  5
33B
100
AcDbEntity
  8
RACCORDO
100
AcDbLine
 62
253
  6
CONTINUOUS
 10
-7.5632582397
 20
-49.4072984224
 11
-7.5468240324
 21
-49.4927993984
  0
LINE
  5
33C
100
AcDbEntity
  8
RACCORDO
100
AcDbLine
 62
253
  6
CONTINUOUS
 10
10.2200758188
 20
-114.3311615134
 11
10.2202933351
 21
-114.3334974137
  0
LINE
  5
33D
100
AcDbEntity
  8
RACCORDO
100
AcDbLine
 62
253
  6
CONTINUOUS
 10
13.3014330172
 20
27.9822457992
 11
13.1159772443
 21
27.7686590654
  0
LINE
  5
33E
100
AcDbEntity
  8
RACCORDO
100
AcDbLine
 62
253
  6
CONTINUOUS
 10
13.3584776026
 20
28.047560249
 11
13.3014330172
 21
27.9822457992
  0
LINE
  5
33F
100
AcDbEntity
  8
RACCORDO
100
AcDbLine
 62
253
  6
CONTINUOUS
 10
15.9206822029
 20
25.7887166524
 11
15.7914396018
 21
25.6583417907
  0
LINE
  5
340
100
AcDbEntity
  8
RACCORDO
100
AcDbLine
 62
253
  6
CONTINUOUS
 10
-35.468549493
 20
-25.6005631137
 11
-35.5981785491
 21
-25.7302173084
  0
LINE
  5
341
100
AcDbEntity
  8
RACCORDO
100
AcDbLine
 62
253
  6
CONTINUOUS
 10
16.0391475927
 20
25.9071088334
 11
15.9206822029
 21
25.7887166524
  0
LINE
  5
342
100
AcDbEntity
  8
RACCORDO
100
AcDbLine
 62
253
  6
CONTINUOUS
 10
-35.3494115064
 20
-25.4825093175
 11
-35.468549493
 21
-25.6005631137
  0
LINE
  5
343
100
AcDbEntity
  8
RACCORDO
100
AcDbLine
 62
253
  6
CONTINUOUS
 10
-37.5255576947
 20
-22.864029889
 11
-37.7386299648
 21
-23.0495473183
  0
LINE
  5
344
100
AcDbEntity
  8
RACCORDO
100
AcDbLine
 62
253
  6
CONTINUOUS
 10
-37.4597287812
 20
-22.80704696
 11
-37.5255576947
 21
-22.864029889
  0
LINE
  5
345
100
AcDbEntity
  8
RACCORDO
100
AcDbLine
 62
253
  6
CONTINUOUS
 10
30.6888733219
 20
16.4764253944
 11
30.4214705446
 21
16.3841817436
  0
LINE
  5
346
100
AcDbEntity
  8
RACCORDO
100
AcDbLine
 62
253
  6
CONTINUOUS
 10
30.7709326071
 20
16.5044670746
 11
30.6888733219
 21
16.4764253944
  0
LINE
  5
347
100
AcDbEntity
  8
RACCORDO
100
AcDbLine
 62
253
  6
CONTINUOUS
 10
-31.2195696855
 20
17.8284264937
 11
-29.7209326009
 21
16.5044670746
  0
LINE
  5
348
100
AcDbEntity
  8
RACCORDO
100
AcDbLine
 62
253
  6
CONTINUOUS
 10
32.2695696916
 20
-38.2605659313
 11
30.770932607
 21
-36.9366065123
  0
LINE
  5
349
100
AcDbEntity
  8
RACCORDO
100
AcDbLine
 62
253
  6
CONTINUOUS
 10
29.6744928902
 20
-36.1517011414
 11
30.4214705445
 21
-36.8163211812
  0
LINE
  5
34A
100
AcDbEntity
  8
RACCORDO
100
AcDbLine
 62
253
  6
CONTINUOUS
 10
-28.6244928841
 20
15.7195617038
 11
-29.3714705384
 21
16.3841817436
  0
LINE
  5
34B
100
AcDbEntity
  8
RACCORDO
100
AcDbLine
 62
253
  6
CONTINUOUS
 10
26.4606314256
 20
-39.365562606
 11
27.1252514655
 21
-40.1125402603
  0
LINE
  5
34C
100
AcDbEntity
  8
RACCORDO
100
AcDbLine
 62
253
  6
CONTINUOUS
 10
-25.4106314195
 20
18.9334231683
 11
-26.0752514593
 21
19.6804008227
  0
LINE
  5
34D
100
AcDbEntity
  8
RACCORDO
100
AcDbLine
 62
253
  6
CONTINUOUS
 10
-27.5194962094
 20
21.5284999697
 11
-26.1955367904
 21
20.0298628852
  0
LINE
  5
34E
100
AcDbEntity
  8
RACCORDO
100
AcDbLine
 62
253
  6
CONTINUOUS
 10
28.5694962155
 20
-41.9606394074
 11
27.2455367965
 21
-40.4620023228
  0
LINE
  5
34F
100
AcDbEntity
  8
RACCORDO
100
AcDbLine
 62
253
  6
CONTINUOUS
 10
-12.9443556732
 20
29.9434612818
 11
-12.3084775964
 21
28.047560249
  0
LINE
  5
350
100
AcDbEntity
  8
RACCORDO
100
AcDbLine
 62
253
  6
CONTINUOUS
 10
13.9943556793
 20
-50.3756007195
 11
13.3584776025
 21
-48.4796996867
  0
LINE
  5
351
100
AcDbEntity
  8
RACCORDO
100
AcDbLine
 62
253
  6
CONTINUOUS
 10
12.8013856395
 20
-47.2517318376
 11
13.1159772443
 21
-48.2007985031
  0
LINE
  5
352
100
AcDbEntity
  8
RACCORDO
100
AcDbLine
 62
253
  6
CONTINUOUS
 10
-11.7513856333
 20
26.8195923999
 11
-12.0659772381
 21
27.7686590654
  0
LINE
  5
353
100
AcDbEntity
  8
RACCORDO
100
AcDbLine
 62
253
  6
CONTINUOUS
 10
8.4111692346
 20
-48.4280867778
 11
8.6132582458
 21
-49.4072984224
  0
LINE
  5
354
100
AcDbEntity
  8
RACCORDO
100
AcDbLine
 62
253
  6
CONTINUOUS
 10
-7.3611692285
 20
27.9959473402
 11
-7.5632582397
 21
28.9751589848
  0
LINE
  5
355
100
AcDbEntity
  8
RACCORDO
100
AcDbLine
 62
253
  6
CONTINUOUS
 10
-7.8899613089
 20
31.2977821699
 11
-7.4926973608
 21
29.3379446741
  0
LINE
  5
356
100
AcDbEntity
  8
RACCORDO
100
AcDbLine
 62
253
  6
CONTINUOUS
 10
8.9399613151
 20
-51.7299216075
 11
8.5426973669
 21
-49.7700841117
  0
LINE
  5
357
100
AcDbEntity
  8
RACCORDO
100
AcDbLine
 62
253
  6
CONTINUOUS
 10
-9.1700758126
 20
-114.3311615134
 11
-9.1702933289
 21
-114.3334974137
  0
LINE
  5
358
100
AcDbEntity
  8
RACCORDO
100
AcDbLine
 62
253
  6
CONTINUOUS
 10
8.9399613152
 20
31.2977821699
 11
8.542697367
 21
29.3379446741
  0
LINE
  5
359
100
AcDbEntity
  8
RACCORDO
100
AcDbLine
 62
253
  6
CONTINUOUS
 10
-7.889961309
 20
-51.7299216076
 11
-7.4926973608
 21
-49.7700841117
  0
LINE
  5
35A
100
AcDbEntity
  8
RACCORDO
100
AcDbLine
 62
253
  6
CONTINUOUS
 10
-7.3611692285
 20
-48.4280867778
 11
-7.5632582397
 21
-49.4072984224
  0
LINE
  5
35B
100
AcDbEntity
  8
RACCORDO
100
AcDbLine
 62
253
  6
CONTINUOUS
 10
8.4111692347
 20
27.9959473402
 11
8.6132582458
 21
28.9751589848
  0
LINE
  5
35C
100
AcDbEntity
  8
RACCORDO
100
AcDbLine
 62
253
  6
CONTINUOUS
 10
-11.7513856334
 20
-47.2517318375
 11
-12.0659772382
 21
-48.2007985031
  0
LINE
  5
35D
100
AcDbEntity
  8
RACCORDO
100
AcDbLine
 62
253
  6
CONTINUOUS
 10
12.8013856395
 20
26.8195923999
 11
13.1159772443
 21
27.7686590654
  0
LINE
  5
35E
100
AcDbEntity
  8
RACCORDO
100
AcDbLine
 62
253
  6
CONTINUOUS
 10
13.9943556794
 20
29.9434612818
 11
13.3584776026
 21
28.047560249
  0
LINE
  5
35F
100
AcDbEntity
  8
RACCORDO
100
AcDbLine
 62
253
  6
CONTINUOUS
 10
-12.9443556732
 20
-50.3756007194
 11
-12.3084775964
 21
-48.4796996867
  0
LINE
  5
360
100
AcDbEntity
  8
RACCORDO
100
AcDbLine
 62
253
  6
CONTINUOUS
 10
28.5694962156
 20
21.5284999697
 11
27.2455367965
 21
20.0298628851
  0
LINE
  5
361
100
AcDbEntity
  8
RACCORDO
100
AcDbLine
 62
253
  6
CONTINUOUS
 10
-27.5194962094
 20
-41.9606394074
 11
-26.1955367904
 21
-40.4620023228
  0
LINE
  5
362
100
AcDbEntity
  8
RACCORDO
100
AcDbLine
 62
253
  6
CONTINUOUS
 10
-25.4106314195
 20
-39.365562606
 11
-26.0752514594
 21
-40.1125402603
  0
LINE
  5
363
100
AcDbEntity
  8
RACCORDO
100
AcDbLine
 62
253
  6
CONTINUOUS
 10
26.4606314257
 20
18.9334231683
 11
27.1252514655
 21
19.6804008226
  0
LINE
  5
364
100
AcDbEntity
  8
RACCORDO
100
AcDbLine
 62
253
  6
CONTINUOUS
 10
-28.6244928841
 20
-36.1517011414
 11
-29.3714705384
 21
-36.8163211812
  0
LINE
  5
365
100
AcDbEntity
  8
RACCORDO
100
AcDbLine
 62
253
  6
CONTINUOUS
 10
29.6744928902
 20
15.7195617037
 11
30.4214705446
 21
16.3841817436
  0
LINE
  5
366
100
AcDbEntity
  8
RACCORDO
100
AcDbLine
 62
253
  6
CONTINUOUS
 10
32.2695696916
 20
17.8284264936
 11
30.7709326071
 21
16.5044670746
  0
LINE
  5
367
100
AcDbEntity
  8
RACCORDO
100
AcDbLine
 62
253
  6
CONTINUOUS
 10
-31.2195696855
 20
-38.2605659312
 11
-29.7209326009
 21
-36.9366065122
  0
LINE
  5
368
100
AcDbEntity
  8
RACCORDO
100
AcDbLine
 62
253
  6
CONTINUOUS
 10
40.6845310037
 20
3.2532859574
 11
38.7886299709
 21
2.6174078806
  0
LINE
  5
369
100
AcDbEntity
  8
RACCORDO
100
AcDbLine
 62
253
  6
CONTINUOUS
 10
-39.6345309976
 20
-23.6854253951
 11
-37.7386299648
 21
-23.0495473183
  0
LINE
  5
36A
100
AcDbEntity
  8
RACCORDO
100
AcDbLine
 62
253
  6
CONTINUOUS
 10
-36.5106621157
 20
-22.4924553552
 11
-37.4597287812
 21
-22.80704696
  0
LINE
  5
36B
100
AcDbEntity
  8
RACCORDO
100
AcDbLine
 62
253
  6
CONTINUOUS
 10
37.5606621218
 20
2.0603159176
 11
38.5097287873
 21
2.3749075224
  0
LINE
  5
36C
100
AcDbEntity
  8
RACCORDO
100
AcDbLine
 62
253
  6
CONTINUOUS
 10
31.8604450821
 20
13.2671488366
 11
31.6833302756
 21
13.2188621949
  0
LINE
  5
36D
100
AcDbEntity
  8
RACCORDO
100
AcDbLine
 62
253
  6
CONTINUOUS
 10
-38.3385749304
 20
-5.5426570752
 11
-38.5156640834
 21
-5.5901263734
  0
LINE
  5
36E
100
AcDbEntity
  8
RACCORDO
100
AcDbLine
 62
253
  6
CONTINUOUS
 10
32.0222352098
 20
13.310446778
 11
31.8604450821
 21
13.2671488366
  0
LINE
  5
36F
100
AcDbEntity
  8
RACCORDO
100
AcDbLine
 62
253
  6
CONTINUOUS
 10
-38.1763715093
 20
-5.4999884819
 11
-38.3385749304
 21
-5.5426570752
  0
LINE
  5
370
100
AcDbEntity
  8
RACCORDO
100
AcDbLine
 62
253
  6
CONTINUOUS
 10
-38.7517296765
 20
-2.1442456833
 11
-39.0290143898
 21
-2.1983723549
  0
LINE
  5
371
100
AcDbEntity
  8
RACCORDO
100
AcDbLine
 62
253
  6
CONTINUOUS
 10
-38.6662287005
 20
-2.127811476
 11
-38.7517296765
 21
-2.1442456833
  0
LINE
  5
372
100
AcDbEntity
  8
RACCORDO
100
AcDbLine
 62
253
  6
CONTINUOUS
 10
39.9939281304
 20
-2.1816275198
 11
39.7162287067
 21
-2.1278114761
  0
LINE
  5
373
100
AcDbEntity
  8
RACCORDO
100
AcDbLine
 62
253
  6
CONTINUOUS
 10
40.079014396
 20
-2.198372355
 11
39.9939281304
 21
-2.1816275198
  0
LINE
  5
374
100
AcDbEntity
  8
RACCORDO
100
AcDbLine
 62
253
  6
CONTINUOUS
 10
39.4039007581
 20
-5.5467284267
 11
39.2263715155
 21
-5.4999884819
  0
LINE
  5
375
100
AcDbEntity
  8
RACCORDO
100
AcDbLine
 62
253
  6
CONTINUOUS
 10
-30.7951368534
 20
13.2630118208
 11
-30.9722352037
 21
13.310446778
  0
LINE
  5
376
100
AcDbEntity
  8
RACCORDO
100
AcDbLine
 62
253
  6
CONTINUOUS
 10
39.5656640895
 20
-5.5901263734
 11
39.4039007581
 21
-5.5467284267
  0
LINE
  5
377
100
AcDbEntity
  8
RACCORDO
100
AcDbLine
 62
253
  6
CONTINUOUS
 10
-30.6333302695
 20
13.2188621949
 11
-30.7951368534
 21
13.2630118208
  0
LINE
  5
378
100
AcDbEntity
  8
RACCORDO
100
AcDbLine
 62
253
  6
CONTINUOUS
 10
-29.4537336561
 20
16.4126997895
 11
-29.7209326009
 21
16.5044670746
  0
LINE
  5
379
100
AcDbEntity
  8
RACCORDO
100
AcDbLine
 62
253
  6
CONTINUOUS
 10
-29.3714705384
 20
16.3841817436
 11
-29.4537336561
 21
16.4126997895
  0
LWPOLYLINE
  5
37A
100
AcDbEntity
  8
0
100
AcDbPolyline
 62
7
  6
CONTINUOUS
 90
10
 70
0
 10
-65.0794715686
 20
54.8296273004
 10
-65.0741995861
 20
54.8262563286
 10
-65.0694613835
 20
54.8226925368
 10
-65.0652605443
 20
54.8189300834
 10
-65.0616043229
 20
54.8149344608
 10
-65.0584931117
 20
54.810730408
 10
-65.0559196254
 20
54.8064015341
 10
-65.0538832228
 20
54.8019732849
 10
-65.052390739
 20
54.7974133303
 10
-65.0514453686
 20
54.7927192057
  0
LINE
  5
37B
100
AcDbEntity
  8
RACCORDO
100
AcDbLine
 62
253
  6
CONTINUOUS
 10
38.723315521
 20
-22.9925027328
 11
38.5097287873
 21
-22.80704696
  0
LINE
  5
37C
100
AcDbEntity
  8
RACCORDO
100
AcDbLine
 62
253
  6
CONTINUOUS
 10
38.7886299709
 20
-23.0495473183
 11
38.723315521
 21
-22.9925027328
  0
LINE
  5
37D
100
AcDbEntity
  8
RACCORDO
100
AcDbLine
 62
253
  6
CONTINUOUS
 10
36.5297863742
 20
-25.6117519185
 11
36.3994115126
 21
-25.4825093175
  0
LINE
  5
37E
100
AcDbEntity
  8
RACCORDO
100
AcDbLine
 62
253
  6
CONTINUOUS
 10
-14.8594933919
 20
25.7774797773
 11
-14.9891475866
 21
25.9071088334
  0
LINE
  5
37F
100
AcDbEntity
  8
RACCORDO
100
AcDbLine
 62
253
  6
CONTINUOUS
 10
36.6481785552
 20
-25.7302173085
 11
36.5297863742
 21
-25.6117519185
  0
LINE
  5
380
100
AcDbEntity
  8
RACCORDO
100
AcDbLine
 62
253
  6
CONTINUOUS
 10
-14.7414395956
 20
25.6583417907
 11
-14.8594933919
 21
25.7774797773
  0
LINE
  5
381
100
AcDbEntity
  8
RACCORDO
100
AcDbLine
 62
253
  6
CONTINUOUS
 10
-12.122960167
 20
27.834487979
 11
-12.3084775964
 21
28.047560249
  0
LINE
  5
382
100
AcDbEntity
  8
RACCORDO
100
AcDbLine
 62
253
  6
CONTINUOUS
 10
-12.0659772381
 20
27.7686590654
 11
-12.122960167
 21
27.834487979
  0
LWPOLYLINE
  5
383
100
AcDbEntity
  8
0
100
AcDbPolyline
 62
7
  6
CONTINUOUS
 90
8
 70
0
 10
66.9651476364
 20
-74.9537802413
 10
66.9561531482
 20
-74.9427612643
 10
66.9463516177
 20
-74.931616062
 10
66.93586909
 20
-74.9205079319
 10
66.9251060036
 20
-74.9093713574
 10
66.9142004172
 20
-74.8982814651
 10
66.9030246238
 20
-74.8874856884
 10
66.8915881592
 20
-74.8771280888
  0
LINE
  5
384
100
AcDbEntity
  8
0
100
AcDbLine
 62
7
  6
CONTINUOUS
 10
66.9811669086
 20
-74.9740774146
 11
66.9651476364
 21
-74.9537802413
  0
LINE
  5
385
100
AcDbEntity
  8
RACCORDO
100
AcDbLine
 62
253
  6
CONTINUOUS
 10
8.5594422021
 20
-49.6849978461
 11
8.6132582458
 21
-49.4072984224
  0
LINE
  5
386
100
AcDbEntity
  8
RACCORDO
100
AcDbLine
 62
253
  6
CONTINUOUS
 10
8.5426973669
 20
-49.7700841117
 11
8.5594422021
 21
-49.6849978461
  0
LINE
  5
387
100
AcDbEntity
  8
RACCORDO
100
AcDbLine
 62
253
  6
CONTINUOUS
 10
5.1943412951
 20
-49.0949704739
 11
5.24108124
 21
-48.9174412312
  0
LINE
  5
388
100
AcDbEntity
  8
RACCORDO
100
AcDbLine
 62
253
  6
CONTINUOUS
 10
24.0040816061
 20
21.1040673722
 11
24.0515164999
 21
21.281165488
  0
LINE
  5
389
100
AcDbEntity
  8
RACCORDO
100
AcDbLine
 62
253
  6
CONTINUOUS
 10
5.1509433485
 20
-49.2567338053
 11
5.1943412951
 21
-49.0949704739
  0
LINE
  5
38A
100
AcDbEntity
  8
RACCORDO
100
AcDbLine
 62
253
  6
CONTINUOUS
 10
23.9599319168
 20
20.9422605537
 11
24.0040816061
 21
21.1040673722
  0
LINE
  5
38B
100
AcDbEntity
  8
RACCORDO
100
AcDbLine
 62
253
  6
CONTINUOUS
 10
27.1537695977
 20
19.7626641899
 11
27.2455367965
 21
20.0298628851
  0
LINE
  5
38C
100
AcDbEntity
  8
RACCORDO
100
AcDbLine
 62
253
  6
CONTINUOUS
 10
27.1252514655
 20
19.6804008226
 11
27.1537695977
 21
19.7626641899
  0
LINE
  5
38D
100
AcDbEntity
  8
RACCORDO
100
AcDbLine
 62
253
  6
CONTINUOUS
 10
-14.8706821966
 20
-46.2208560899
 11
-14.7414395956
 21
-46.0904812283
  0
LINE
  5
38E
100
AcDbEntity
  8
RACCORDO
100
AcDbLine
 62
253
  6
CONTINUOUS
 10
-14.9308431239
 20
-46.2811128781
 11
-14.8706821966
 21
-46.2208560899
  0
LINE
  5
38F
100
AcDbEntity
  8
RACCORDO
100
AcDbLine
 62
253
  6
CONTINUOUS
 10
36.4781424114
 20
5.1282671839
 11
36.6033208152
 21
5.2530645982
  0
LINE
  5
390
100
AcDbEntity
  8
RACCORDO
100
AcDbLine
 62
253
  6
CONTINUOUS
 10
36.3994115126
 20
5.0503698799
 11
36.4781424114
 21
5.1282671839
  0
LINE
  5
391
100
AcDbEntity
  8
RACCORDO
100
AcDbLine
 62
253
  6
CONTINUOUS
 10
30.6839806751
 20
13.1873060648
 11
31.6833302756
 21
13.2188621949
  0
LINE
  5
392
100
AcDbEntity
  8
RACCORDO
100
AcDbLine
 62
253
  6
CONTINUOUS
 10
34.0213933354
 20
13.3567980783
 11
32.0222352098
 21
13.310446778
  0
LINE
  5
393
100
AcDbEntity
  8
RACCORDO
100
AcDbLine
 62
253
  6
CONTINUOUS
 10
-32.9713933293
 20
13.3567980783
 11
-30.9722352037
 21
13.310446778
  0
LINE
  5
394
100
AcDbEntity
  8
RACCORDO
100
AcDbLine
 62
253
  6
CONTINUOUS
 10
-29.6339806689
 20
13.1873060648
 11
-30.6333302695
 21
13.2188621949
  0
LWPOLYLINE
  5
395
100
AcDbEntity
  8
RACCORDO
100
AcDbPolyline
 62
253
  6
CONTINUOUS
 90
22
 70
0
 10
23.9599319168
 20
20.9422605537
 10
24.1269365886
 20
20.9341861606
 10
24.2910346374
 20
20.9207827308
 10
24.4520686074
 20
20.9023162702
 10
24.6090085279
 20
20.8791984238
 10
24.7626282604
 20
20.8516047878
 10
24.9154550426
 20
20.819196652
 10
25.0683293498
 20
20.7817324696
 10
25.2200895303
 20
20.7394328753
 10
25.3702246814
 20
20.6924442448
 10
25.5175165203
 20
20.6412269333
 10
25.6629273858
 20
20.5855257922
 10
25.8091283469
 20
20.5241864262
 10
25.9566087762
 20
20.4566685454
 10
26.1043368612
 20
20.383098025
 10
26.2525490138
 20
20.3030100388
 10
26.4014004359
 20
20.215893199
 10
26.5500270298
 20
20.1218080968
 10
26.6971413024
 20
20.0212113621
 10
26.8421212181
 20
19.9142525499
 10
26.9849406372
 20
19.8006647378
 10
27.1252514655
 20
19.6804008226
  0
LWPOLYLINE
  5
396
100
AcDbEntity
  8
RACCORDO
100
AcDbPolyline
 62
253
  6
CONTINUOUS
 90
22
 70
0
 10
23.9283757866
 20
19.9429109532
 10
24.0621689187
 20
19.9360997185
 10
24.1934063574
 20
19.9254503876
 10
24.3220881027
 20
19.9109629602
 10
24.4476176024
 20
19.8926509775
 10
24.5705914086
 20
19.8705008984
 10
24.6927991782
 20
19.8444721004
 10
24.8150522543
 20
19.8144880103
 10
24.9365392938
 20
19.7806252013
 10
25.0566159237
 20
19.7430727695
 10
25.1744634155
 20
19.7022319205
 10
25.2909004977
 20
19.6577014488
 10
25.4077389835
 20
19.608466834
 10
25.5256819391
 20
19.5544181771
 10
25.6440262982
 20
19.4956653772
 10
25.7624746747
 20
19.4315236113
 10
25.8814510176
 20
19.3617168983
 10
26.0005313779
 20
19.2865212194
 10
26.1181465222
 20
19.2060796949
 10
26.2337733727
 20
19.1204400316
 10
26.3479350072
 20
19.0295545227
 10
26.4606314257
 20
18.9334231683
  0
LWPOLYLINE
  5
397
100
AcDbEntity
  8
0
100
AcDbPolyline
 62
253
  6
CONTINUOUS
 90
13
 70
0
 10
-66.7039069937
 20
55.6369641651
 10
-66.7118195333
 20
55.6410623485
 10
-66.7199257755
 20
55.6444285955
 10
-66.7282396871
 20
55.647062652
 10
-66.7368525667
 20
55.6489685048
 10
-66.7456957684
 20
55.650140096
 10
-66.7545391467
 20
55.6505536459
 10
-66.7633771646
 20
55.6501668443
 10
-66.7722231458
 20
55.6489984133
 10
-66.7808689682
 20
55.6471041711
 10
-66.7892419487
 20
55.6444898598
 10
-66.7974066641
 20
55.6411154655
 10
-66.805356269
 20
55.6369641651
  0
LINE
  5
398
100
AcDbEntity
  8
RACCORDO
100
AcDbLine
 62
253
  6
CONTINUOUS
 10
38.3451313091
 20
-5.0276420919
 11
39.2263715155
 21
-5.4999884819
  0
LINE
  5
399
100
AcDbEntity
  8
RACCORDO
100
AcDbLine
 62
253
  6
CONTINUOUS
 10
41.3201614626
 20
-6.5495640327
 11
39.5656640895
 21
-5.5901263734
  0
LWPOLYLINE
  5
39A
100
AcDbEntity
  8
0
100
AcDbPolyline
 62
253
  6
CONTINUOUS
 90
3
 70
0
 10
-66.6075909669
 20
55.581401843
 10
-66.6786472158
 20
55.6222420108
 10
-66.7039069937
 20
55.6369641651
  0
LINE
  5
39B
100
AcDbEntity
  8
0
100
AcDbLine
 62
7
  6
CONTINUOUS
 10
-65.0794715686
 20
54.8296273004
 11
-66.6430374285
 21
55.7323524704
  0
LINE
  5
39C
100
AcDbEntity
  8
0
100
AcDbLine
 62
7
  6
CONTINUOUS
 10
-65.0430374285
 20
55.7323524704
 11
-64.4939680715
 21
55.4153471294
  0
LWPOLYLINE
  5
39D
100
AcDbEntity
  8
0
100
AcDbPolyline
 62
253
  6
CONTINUOUS
 90
3
 70
0
 10
-64.4786284419
 20
55.523634323
 10
-64.3793409778
 20
55.4663092012
 10
-64.3274230194
 20
55.4363358316
  0
LINE
  5
39E
100
AcDbEntity
  8
0
100
AcDbLine
 62
253
  6
CONTINUOUS
 10
-64.7020710891
 20
55.6526343558
 11
-64.4786284419
 21
55.523634323
  0
LINE
  5
39F
100
AcDbEntity
  8
0
100
AcDbLine
 62
253
  6
CONTINUOUS
 10
-65.0462806788
 20
54.679933166
 11
-66.2479866498
 21
55.3737178536
  0
LINE
  5
3A0
100
AcDbEntity
  8
0
100
AcDbLine
 62
253
  6
CONTINUOUS
 10
-64.9792693125
 20
55.8126794644
 11
-64.7020710891
 21
55.6526343558
  0
LINE
  5
3A1
100
AcDbEntity
  8
0
100
AcDbLine
 62
253
  6
CONTINUOUS
 10
-66.2479866498
 20
55.3737178536
 11
-66.6075909669
 21
55.581401843
  0
LINE
  5
3A2
100
AcDbEntity
  8
RACCORDO
100
AcDbLine
 62
253
  6
CONTINUOUS
 10
-16.6972936594
 20
26.9468292997
 11
-14.9891475866
 21
25.9071088334
  0
LINE
  5
3A3
100
AcDbEntity
  8
RACCORDO
100
AcDbLine
 62
253
  6
CONTINUOUS
 10
-13.8917555193
 20
25.1313385801
 11
-14.7414395956
 21
25.6583417907
  0
LWPOLYLINE
  5
3A4
100
AcDbEntity
  8
0
100
AcDbPolyline
 62
7
  6
CONTINUOUS
 90
10
 70
0
 10
66.9811669086
 20
-74.9740774146
 10
66.9835635041
 20
-74.9777259971
 10
66.985715494
 20
-74.9815004907
 10
66.9876113758
 20
-74.9853976343
 10
66.9892414431
 20
-74.9894244103
 10
66.9905935059
 20
-74.9935667106
 10
66.9916554538
 20
-74.9977892704
 10
66.992420026
 20
-75.0020775629
 10
66.9928823594
 20
-75.0064378863
 10
66.9930374346
 20
-75.0108659837
  0
LINE
  5
3A5
100
AcDbEntity
  8
RACCORDO
100
AcDbLine
 62
253
  6
CONTINUOUS
 10
35.872408302
 20
-24.6328252412
 11
36.3994115126
 21
-25.4825093175
  0
LINE
  5
3A6
100
AcDbEntity
  8
RACCORDO
100
AcDbLine
 62
253
  6
CONTINUOUS
 10
37.6878990216
 20
-27.4383633813
 11
36.6481785553
 21
-25.7302173085
  0
LWPOLYLINE
  5
3A7
100
AcDbEntity
  8
0
100
AcDbPolyline
 62
253
  6
CONTINUOUS
 90
16
 70
0
 10
66.8408635216
 20
-75.7176730041
 10
66.8465534548
 20
-75.7274432997
 10
66.8521982348
 20
-75.737265538
 10
66.8577253026
 20
-75.7470134655
 10
66.8630636074
 20
-75.756561775
 10
66.8681445277
 20
-75.7657877303
 10
66.8729027525
 20
-75.774572742
 10
66.8772771119
 20
-75.7828038778
 10
66.8812113595
 20
-75.7903753044
 10
66.8846549043
 20
-75.7971896646
 10
66.8875634705
 20
-75.8031593464
 10
66.8898996528
 20
-75.8082075829
 10
66.8916334002
 20
-75.8122694427
 10
66.8927424175
 20
-75.8152926956
 10
66.8932124449
 20
-75.8172384718
 10
66.893037434
 20
-75.8180817469
  0
LWPOLYLINE
  5
3A8
100
AcDbEntity
  8
0
100
AcDbPolyline
 62
253
  6
CONTINUOUS
 90
13
 70
0
 10
66.130718594
 20
-77.299110698
 10
66.1242155461
 20
-77.287642126
 10
66.1180405075
 20
-77.2762203074
 10
66.1123010908
 20
-77.2650442903
 10
66.1070973168
 20
-77.2543088394
 10
66.1025198719
 20
-77.2442010415
 10
66.0986485271
 20
-77.2348970454
 10
66.0955507486
 20
-77.226558992
 10
66.0932805213
 20
-77.2193321886
 10
66.0918774084
 20
-77.2133425769
 10
66.091365862
 20
-77.2086945379
 10
66.0917547967
 20
-77.2054690731
 10
66.0930374346
 20
-77.2037223926
  0
LWPOLYLINE
  5
3A9
100
AcDbEntity
  8
0
100
AcDbPolyline
 62
253
  6
CONTINUOUS
 90
16
 70
0
 10
65.254637287
 20
-76.6334811476
 10
65.2601355216
 20
-76.6433623439
 10
65.2658823245
 20
-76.6531258576
 10
65.2718038276
 20
-76.6626461848
 10
65.2778239075
 20
-76.6718009329
 10
65.2838651886
 20
-76.6804724327
 10
65.2898500382
 20
-76.6885492431
 10
65.2957015352
 20
-76.6959275423
 10
65.3013444406
 20
-76.7025124449
 10
65.3067061918
 20
-76.7082192653
 10
65.3117178602
 20
-76.7129746306
 10
65.3163150118
 20
-76.7167173935
 10
65.320438525
 20
-76.7193994155
 10
65.3240353852
 20
-76.7209862167
 10
65.3270593599
 20
-76.7214574028
 10
65.3294715748
 20
-76.7208069166
  0
LINE
  5
3AA
100
AcDbEntity
  8
RACCORDO
100
AcDbLine
 62
253
  6
CONTINUOUS
 10
4.1915056892
 20
30.5790917408
 11
5.1509433485
 21
28.8245943676
  0
LINE
  5
3AB
100
AcDbEntity
  8
RACCORDO
100
AcDbLine
 62
253
  6
CONTINUOUS
 10
5.71342763
 20
27.6040615872
 11
5.24108124
 21
28.4853017936
  0
LINE
  5
3AC
100
AcDbEntity
  8
RACCORDO
100
AcDbLine
 62
253
  6
CONTINUOUS
 10
27.2174952039
 20
-40.3799432932
 11
27.1252514655
 21
-40.1125402603
  0
LINE
  5
3AD
100
AcDbEntity
  8
RACCORDO
100
AcDbLine
 62
253
  6
CONTINUOUS
 10
27.2455367965
 20
-40.4620023228
 11
27.2174952039
 21
-40.3799432932
  0
LINE
  5
3AE
100
AcDbEntity
  8
RACCORDO
100
AcDbLine
 62
253
  6
CONTINUOUS
 10
24.0082186221
 20
-41.5515150335
 11
23.9599319168
 21
-41.3743999914
  0
LINE
  5
3AF
100
AcDbEntity
  8
RACCORDO
100
AcDbLine
 62
253
  6
CONTINUOUS
 10
5.1984126467
 20
28.6475052147
 11
5.1509433485
 21
28.8245943676
  0
LINE
  5
3B0
100
AcDbEntity
  8
RACCORDO
100
AcDbLine
 62
253
  6
CONTINUOUS
 10
24.0515164999
 20
-41.7133049256
 11
24.0082186221
 21
-41.5515150335
  0
LINE
  5
3B1
100
AcDbEntity
  8
RACCORDO
100
AcDbLine
 62
253
  6
CONTINUOUS
 10
5.24108124
 20
28.4853017936
 11
5.1984126467
 21
28.6475052147
  0
LINE
  5
3B2
100
AcDbEntity
  8
RACCORDO
100
AcDbLine
 62
253
  6
CONTINUOUS
 10
8.5968240386
 20
29.0606599607
 11
8.542697367
 21
29.3379446741
  0
LINE
  5
3B3
100
AcDbEntity
  8
RACCORDO
100
AcDbLine
 62
253
  6
CONTINUOUS
 10
8.6132582458
 20
28.9751589848
 11
8.5968240386
 21
29.0606599607
  0
LINE
  5
3B4
100
AcDbEntity
  8
RACCORDO
100
AcDbLine
 62
253
  6
CONTINUOUS
 10
23.9283757866
 20
-40.3750503908
 11
23.9599319168
 21
-41.3743999914
  0
LINE
  5
3B5
100
AcDbEntity
  8
RACCORDO
100
AcDbLine
 62
253
  6
CONTINUOUS
 10
24.0978678002
 20
-43.7124630512
 11
24.0515164999
 21
-41.7133049256
  0
LINE
  5
3B6
100
AcDbEntity
  8
RACCORDO
100
AcDbLine
 62
253
  6
CONTINUOUS
 10
24.0978678002
 20
23.2803236136
 11
24.0515164999
 21
21.281165488
  0
LINE
  5
3B7
100
AcDbEntity
  8
RACCORDO
100
AcDbLine
 62
253
  6
CONTINUOUS
 10
23.9283757867
 20
19.9429109532
 11
23.9599319168
 21
20.9422605537
  0
LWPOLYLINE
  5
3B8
100
AcDbEntity
  8
RACCORDO
100
AcDbPolyline
 62
253
  6
CONTINUOUS
 90
22
 70
0
 10
30.6839806751
 20
-33.6194455024
 10
30.6771694404
 20
-33.7532386345
 10
30.6665201094
 20
-33.8844760732
 10
30.6520326821
 20
-34.0131578185
 10
30.6337206994
 20
-34.1386873181
 10
30.6115706203
 20
-34.2616611244
 10
30.5855418222
 20
-34.3838688939
 10
30.5555577322
 20
-34.5061219701
 10
30.5216949232
 20
-34.6276090096
 10
30.4841424914
 20
-34.7476856395
 10
30.4433016424
 20
-34.8655331313
 10
30.3987711707
 20
-34.9819702135
 10
30.3495365559
 20
-35.0988086992
 10
30.295487899
 20
-35.2167516548
 10
30.2367350991
 20
-35.3350960139
 10
30.1725933332
 20
-35.4535443904
 10
30.1027866202
 20
-35.5725207334
 10
30.0275909413
 20
-35.6916010937
 10
29.9471494168
 20
-35.809216238
 10
29.8615097535
 20
-35.9248430885
 10
29.7706242446
 20
-36.0390047229
 10
29.6744928902
 20
-36.1517011414
  0
LINE
  5
3B9
100
AcDbEntity
  8
RACCORDO
100
AcDbLine
 62
253
  6
CONTINUOUS
 10
5.71342763
 20
-48.0362010248
 11
5.24108124
 21
-48.9174412312
  0
LINE
  5
3BA
100
AcDbEntity
  8
RACCORDO
100
AcDbLine
 62
253
  6
CONTINUOUS
 10
4.1915056892
 20
-51.0112311784
 11
5.1509433485
 21
-49.2567338053
  0
LWPOLYLINE
  5
3BB
100
AcDbEntity
  8
0
100
AcDbPolyline
 62
253
  6
CONTINUOUS
 90
16
 70
0
 10
66.2321678694
 20
55.6369641651
 10
66.2377842272
 20
55.6467769401
 10
66.2434681453
 20
55.6565765824
 10
66.2491465643
 20
55.6662371275
 10
66.2547464907
 20
55.67563439
 10
66.2601959422
 20
55.6846475738
 10
66.2654248732
 20
55.6931608232
 10
66.2703660661
 20
55.7010646974
 10
66.27495599
 20
55.708257569
 10
66.2791356266
 20
55.7146469461
 10
66.2828512394
 20
55.720150679
 10
66.2860550492
 20
55.7246979903
 10
66.2887058492
 20
55.7282303892
 10
66.2907695542
 20
55.7307024528
 10
66.2922196321
 20
55.7320823964
 10
66.2930374352
 20
55.7323524701
  0
LWPOLYLINE
  5
3BC
100
AcDbEntity
  8
0
100
AcDbPolyline
 62
253
  6
CONTINUOUS
 90
13
 70
0
 10
67.9568055505
 20
55.8126794644
 10
67.9501249999
 20
55.8013133738
 10
67.9433209341
 20
55.7902547242
 10
67.9365119278
 20
55.7796962351
 10
67.9298166416
 20
55.7698219092
 10
67.9233517544
 20
55.7608038267
 10
67.9172299298
 20
55.7527991457
 10
67.9115578529
 20
55.7459473641
 10
67.9064343712
 20
55.7403678878
 10
67.9019487718
 20
55.7361579505
 10
67.8981792251
 20
55.7333909188
 10
67.8951914233
 20
55.7321150137
 10
67.8930374346
 20
55.7323524704
  0
LINE
  5
3BD
100
AcDbEntity
  8
RACCORDO
100
AcDbLine
 62
253
  6
CONTINUOUS
 10
37.6878990216
 20
7.0062239436
 11
36.6481785553
 21
5.2980778708
  0
LINE
  5
3BE
100
AcDbEntity
  8
RACCORDO
100
AcDbLine
 62
253
  6
CONTINUOUS
 10
35.872408302
 20
4.2006858036
 11
36.3994115126
 21
5.0503698798
  0
LWPOLYLINE
  5
3BF
100
AcDbEntity
  8
0
100
AcDbPolyline
 62
253
  6
CONTINUOUS
 90
10
 70
0
 10
65.2027086491
 20
56.2519677127
 10
65.2069955504
 20
56.2586363067
 10
65.2116821116
 20
56.265077282
 10
65.2167662368
 20
56.2712879812
 10
65.2222777076
 20
56.2773044577
 10
65.2281830373
 20
56.2830856456
 10
65.234384155
 20
56.2885156884
 10
65.2408460051
 20
56.2935573424
 10
65.2475978683
 20
56.2982496439
 10
65.254637287
 20
56.3025937154
  0
LINE
  5
3C0
100
AcDbEntity
  8
RACCORDO
100
AcDbLine
 62
253
  6
CONTINUOUS
 10
-12.2514330109
 20
-48.4143852367
 11
-12.0659772382
 21
-48.2007985031
  0
LINE
  5
3C1
100
AcDbEntity
  8
RACCORDO
100
AcDbLine
 62
253
  6
CONTINUOUS
 10
-12.3084775964
 20
-48.4796996867
 11
-12.2514330109
 21
-48.4143852367
  0
LINE
  5
3C2
100
AcDbEntity
  8
RACCORDO
100
AcDbLine
 62
253
  6
CONTINUOUS
 10
36.6033208152
 20
5.2530645982
 11
36.6481785553
 21
5.2980778708
  0
LINE
  5
3C3
100
AcDbEntity
  8
RACCORDO
100
AcDbLine
 62
253
  6
CONTINUOUS
 10
-14.9891475866
 20
-46.339248271
 11
-14.9308431239
 21
-46.2811128781
  0
LINE
  5
3C4
100
AcDbEntity
  8
RACCORDO
100
AcDbLine
 62
253
  6
CONTINUOUS
 10
38.5755577009
 20
2.4318904513
 11
38.7886299709
 21
2.6174078806
  0
LINE
  5
3C5
100
AcDbEntity
  8
RACCORDO
100
AcDbLine
 62
253
  6
CONTINUOUS
 10
38.5097287873
 20
2.3749075224
 11
38.5755577009
 21
2.4318904513
  0
LWPOLYLINE
  5
3C6
100
AcDbEntity
  8
0
100
AcDbPolyline
 62
253
  6
CONTINUOUS
 90
13
 70
0
 10
-66.0952113415
 20
-75.7176730041
 10
-66.0877055714
 20
-75.7128695249
 10
-66.080736786
 20
-75.7075320275
 10
-66.0742982134
 20
-75.7016482894
 10
-66.0683406418
 20
-75.6951411318
 10
-66.0629037326
 20
-75.6880670814
 10
-66.0581234622
 20
-75.6806138737
 10
-66.0540393885
 20
-75.6727647771
 10
-66.0506285029
 20
-75.6645179767
 10
-66.047946449
 20
-75.6560830316
 10
-66.0460245914
 20
-75.6475262283
 10
-66.0448653422
 20
-75.6387711635
 10
-66.0444867038
 20
-75.6298153544
  0
LINE
  5
3C7
100
AcDbEntity
  8
RACCORDO
100
AcDbLine
 62
253
  6
CONTINUOUS
 10
-13.8917555193
 20
-45.5634780177
 11
-14.7414395956
 21
-46.0904812283
  0
LINE
  5
3C8
100
AcDbEntity
  8
RACCORDO
100
AcDbLine
 62
253
  6
CONTINUOUS
 10
-16.6972936594
 20
-47.3789687374
 11
-14.9891475866
 21
-46.339248271
  0
LWPOLYLINE
  5
3C9
100
AcDbEntity
  8
0
100
AcDbPolyline
 62
7
  6
CONTINUOUS
 90
8
 70
0
 10
-65.0532962455
 20
-75.1347556379
 10
-65.0649693867
 20
-75.141572173
 10
-65.0764014839
 20
-75.1485913027
 10
-65.087454498
 20
-75.1557194376
 10
-65.0980404487
 20
-75.1626939049
 10
-65.1079900286
 20
-75.1694234656
 10
-65.1170722132
 20
-75.1759792349
 10
-65.1250871809
 20
-75.1823415232
  0
LWPOLYLINE
  5
3CA
100
AcDbEntity
  8
0
100
AcDbPolyline
 62
253
  6
CONTINUOUS
 90
3
 70
0
 10
-66.1857981813
 20
-75.7700183861
 10
-66.1190061286
 20
-75.7312978462
 10
-66.0952113415
 20
-75.7176730041
  0
LWPOLYLINE
  5
3CB
100
AcDbEntity
  8
0
100
AcDbPolyline
 62
253
  6
CONTINUOUS
 90
4
 70
0
 10
-66.4974249657
 20
-75.9499096989
 10
-66.4600735502
 20
-75.9283262985
 10
-66.4415655011
 20
-75.9176550993
 10
-66.4046023499
 20
-75.8962999861
  0
LINE
  5
3CC
100
AcDbEntity
  8
0
100
AcDbLine
 62
253
  6
CONTINUOUS
 10
-67.1050554212
 20
-76.3007067554
 11
-67.079422156
 21
-76.2858996658
  0
LWPOLYLINE
  5
3CD
100
AcDbEntity
  8
0
100
AcDbPolyline
 62
253
  6
CONTINUOUS
 90
3
 70
0
 10
-67.3250131163
 20
-76.4277276911
 10
-67.2664086768
 20
-76.3938641009
 10
-67.2382116541
 20
-76.3776096444
  0
LWPOLYLINE
  5
3CE
100
AcDbEntity
  8
0
100
AcDbPolyline
 62
253
  6
CONTINUOUS
 90
3
 70
0
 10
-66.4046023499
 20
-75.8962999861
 10
-66.3858730617
 20
-75.8854889246
 10
-66.3669716194
 20
-75.8745903092
  0
LINE
  5
3CF
100
AcDbEntity
  8
0
100
AcDbLine
 62
253
  6
CONTINUOUS
 10
-67.2382116541
 20
-76.3776096444
 11
-67.1050554212
 21
-76.3007067554
  0
LWPOLYLINE
  5
3D0
100
AcDbEntity
  8
0
100
AcDbPolyline
 62
253
  6
CONTINUOUS
 90
4
 70
0
 10
-67.6814375761
 20
-76.6334811476
 10
-67.6010324084
 20
-76.5869980807
 10
-67.5625251642
 20
-76.5648270346
 10
-67.4889960378
 20
-76.5223492347
  0
LWPOLYLINE
  5
3D1
100
AcDbEntity
  8
0
100
AcDbPolyline
 62
253
  6
CONTINUOUS
 90
3
 70
0
 10
-66.5358472496
 20
-75.9720643276
 10
-66.5164523645
 20
-75.9608766221
 10
-66.4974249657
 20
-75.9499096989
  0
LINE
  5
3D2
100
AcDbEntity
  8
0
100
AcDbLine
 62
253
  6
CONTINUOUS
 10
-67.079422156
 20
-76.2858996658
 11
-66.980596571
 21
-76.2288315198
  0
LINE
  5
3D3
100
AcDbEntity
  8
0
100
AcDbLine
 62
253
  6
CONTINUOUS
 10
-66.3083445792
 20
-75.8407208289
 11
-66.227381626
 21
-75.7939815534
  0
LINE
  5
3D4
100
AcDbEntity
  8
0
100
AcDbLine
 62
253
  6
CONTINUOUS
 10
-66.867736338
 20
-76.163708992
 11
-66.5959673808
 21
-76.0067615151
  0
LINE
  5
3D5
100
AcDbEntity
  8
0
100
AcDbLine
 62
253
  6
CONTINUOUS
 10
-66.3669716194
 20
-75.8745903092
 11
-66.3083445792
 21
-75.8407208289
  0
LINE
  5
3D6
100
AcDbEntity
  8
RACCORDO
100
AcDbLine
 62
253
  6
CONTINUOUS
 10
41.3201614626
 20
-13.882575405
 11
39.5656640895
 21
-14.8420130643
  0
LINE
  5
3D7
100
AcDbEntity
  8
RACCORDO
100
AcDbLine
 62
253
  6
CONTINUOUS
 10
38.3451313091
 20
-15.4044973457
 11
39.2263715155
 21
-14.9321509558
  0
LINE
  5
3D8
100
AcDbEntity
  8
RACCORDO
100
AcDbLine
 62
253
  6
CONTINUOUS
 10
-29.6388732795
 20
-36.9085648196
 11
-29.3714705384
 21
-36.8163211812
  0
LINE
  5
3D9
100
AcDbEntity
  8
RACCORDO
100
AcDbLine
 62
253
  6
CONTINUOUS
 10
-29.7209326009
 20
-36.9366065122
 11
-29.6388732795
 21
-36.9085648196
  0
LWPOLYLINE
  5
3DA
100
AcDbEntity
  8
RACCORDO
100
AcDbPolyline
 62
253
  6
CONTINUOUS
 90
22
 70
0
 10
-7.5632582397
 20
28.9751589848
 10
-7.3986558373
 20
29.0062601872
 10
-7.2357037799
 20
29.0314719744
 10
-7.0746190276
 20
29.0510233491
 10
-6.9165204758
 20
29.0650802894
 10
-6.7606774071
 20
29.0740031108
 10
-6.6044934644
 20
29.078057762
 10
-6.4470735562
 20
29.0772053137
 10
-6.2896203691
 20
29.0713898652
 10
-6.1326693242
 20
29.060636052
 10
-5.9775025644
 20
29.0451081306
 10
-5.8231344738
 20
29.024783689
 10
-5.6667318466
 20
28.9991689864
 10
-5.5077254193
 20
28.9678641196
 10
-5.3471128404
 20
28.9307510038
 10
-5.1844884611
 20
28.8874186539
 10
-5.0195638775
 20
28.8373981155
 10
-4.8532123219
 20
28.7805497535
 10
-4.6867825856
 20
28.7170117047
 10
-4.5209120906
 20
28.646779868
 10
-4.3555686382
 20
28.5695865873
 10
-4.1910812339
 20
28.4853017935
  0
LWPOLYLINE
  5
3DB
100
AcDbEntity
  8
RACCORDO
100
AcDbPolyline
 62
253
  6
CONTINUOUS
 90
22
 70
0
 10
-7.3611692285
 20
27.9959473402
 10
-7.229219352
 20
28.0205212297
 10
-7.0989151782
 20
28.04075437
 10
-6.9702567069
 20
28.0566467612
 10
-6.8438428211
 20
28.0680687936
 10
-6.7190746379
 20
28.0751500768
 10
-6.5941555086
 20
28.0782794394
 10
-6.4682618022
 20
28.0775743213
 10
-6.3422171498
 20
28.0729172826
 10
-6.2166957954
 20
28.0643448317
 10
-6.0925800439
 20
28.0520539713
 10
-5.9689875904
 20
28.0358476987
 10
-5.8439457646
 20
28.015171515
 10
-5.7167720171
 20
27.9900887032
 10
-5.5881488974
 20
27.9605359803
 10
-5.4581513833
 20
27.9257689974
 10
-5.3262869247
 20
27.8856180588
 10
-5.1930480718
 20
27.8402528603
 10
-5.0599874525
 20
27.78943814
 10
-4.9276226094
 20
27.7330954774
 10
-4.7954359998
 20
27.6713032932
 10
-4.6634276238
 20
27.6040615872
  0
LWPOLYLINE
  5
3DC
100
AcDbEntity
  8
RACCORDO
100
AcDbPolyline
 62
253
  6
CONTINUOUS
 90
22
 70
0
 10
-7.4926973609
 20
29.3379446737
 10
-7.327613424
 20
29.3685383817
 10
-7.1627138755
 20
29.3934214639
 10
-6.9981989758
 20
29.4126777657
 10
-6.8346875779
 20
29.4263688442
 10
-6.6719425471
 20
29.4346470701
 10
-6.5088636079
 20
29.4376163383
 10
-6.3451269537
 20
29.4352434277
 10
-6.1814054343
 20
29.427498847
 10
-6.0180878745
 20
29.4143965822
 10
-5.8558369999
 20
29.3960201644
 10
-5.6943342234
 20
29.3723638753
 10
-5.532511935
 20
29.3432147863
 10
-5.3701296784
 20
29.3083867404
 10
-5.2078338795
 20
29.2678733649
 10
-5.0459133016
 20
29.2216266842
 10
-4.8843635952
 20
29.1695156496
 10
-4.7236295529
 20
29.111551733
 10
-4.5646531803
 20
29.0479950366
 10
-4.4078688633
 20
28.9789955229
 10
-4.2532330656
 20
28.9045099986
 10
-4.1009433425
 20
28.8245943671
  0
LWPOLYLINE
  5
3DD
100
AcDbEntity
  8
RACCORDO
100
AcDbPolyline
 62
253
  6
CONTINUOUS
 90
22
 70
0
 10
-7.8899613089
 20
31.2977821699
 10
-7.6583938462
 20
31.3403929398
 10
-7.4276293589
 20
31.3752589589
 10
-7.197667847
 20
31.4023802273
 10
-6.9688517055
 20
31.4216719246
 10
-6.7408385395
 20
31.4332188711
 10
-6.5126011642
 20
31.4372755279
 10
-6.283452881
 20
31.4339165315
 10
-6.0540803884
 20
31.4230672452
 10
-5.8255165978
 20
31.4047582206
 10
-5.5984284622
 20
31.3791263703
 10
-5.3721490285
 20
31.3460347815
 10
-5.1457103491
 20
31.3051032676
 10
-4.9184599373
 20
31.2562899759
 10
-4.6910502797
 20
31.1996367591
 10
-4.4644708899
 20
31.1348889882
 10
-4.2384184023
 20
31.061843851
 10
-4.0131961824
 20
30.9807041596
 10
-3.7907038396
 20
30.8918237221
 10
-3.571574577
 20
30.7953204745
 10
-3.3551751915
 20
30.6910764807
 10
-3.1415056831
 20
30.5790917407
  0
LWPOLYLINE
  5
3DE
100
AcDbEntity
  8
RACCORDO
100
AcDbPolyline
 62
253
  6
CONTINUOUS
 90
22
 70
0
 10
24.0515164998
 20
21.2811654875
 10
24.2190570687
 20
21.2744756116
 10
24.3851919012
 20
21.2622688929
 10
24.5497445836
 20
21.2446675487
 10
24.7121331186
 20
21.2218634697
 10
24.8726143897
 20
21.1939497685
 10
25.032260789
 20
21.1607859734
 10
25.1913678031
 20
21.122270105
 10
25.3492856203
 20
21.078518436
 10
25.5056531561
 20
21.0296242625
 10
25.6598377002
 20
20.9758143387
 10
25.8121518132
 20
20.9170087159
 10
25.963614863
 20
20.8527492176
 10
26.1144583018
 20
20.7827761418
 10
26.2640052282
 20
20.7072381138
 10
26.4118671393
 20
20.6262001364
 10
26.557992601
 20
20.5395553958
 10
26.7019818732
 20
20.4474024452
 10
26.8429705614
 20
20.3502118715
 10
26.9805695315
 20
20.2482322609
 10
27.1148171058
 20
20.1414150821
 10
27.2455367965
 20
20.0298628847
  0
LWPOLYLINE
  5
3DF
100
AcDbEntity
  8
RACCORDO
100
AcDbPolyline
 62
253
  6
CONTINUOUS
 90
22
 70
0
 10
24.0978678002
 20
23.2803236136
 10
24.3328144456
 20
23.2706521651
 10
24.5653174118
 20
23.2536109272
 10
24.7953766987
 20
23.2291998997
 10
25.0226507109
 20
23.1974137334
 10
25.2474810439
 20
23.1582577776
 10
25.470892484
 20
23.1117480801
 10
25.6935536449
 20
23.0578087431
 10
25.9147959129
 20
22.9965156645
 10
26.1336382335
 20
22.9281125864
 10
26.3494569277
 20
22.8528861148
 10
26.5628756744
 20
22.7705496437
 10
26.7747844557
 20
22.6804870967
 10
26.985865674
 20
22.5824809214
 10
27.1954369268
 20
22.4767486701
 10
27.4023409891
 20
22.3633269237
 10
27.6067826265
 20
22.2419645515
 10
27.8085570733
 20
22.1129126843
 10
28.0058928079
 20
21.9769612951
 10
28.1981993228
 20
21.8343737085
 10
28.3860671253
 20
21.6848866
 10
28.5694962156
 20
21.5284999697
  0
LWPOLYLINE
  5
3E0
100
AcDbEntity
  8
RACCORDO
100
AcDbPolyline
 62
253
  6
CONTINUOUS
 90
22
 70
0
 10
13.1159772443
 20
27.7686590654
 10
13.2740777075
 20
27.7132922956
 10
13.4278042224
 20
27.6536503151
 10
13.5770833974
 20
27.5900399261
 10
13.7210292297
 20
27.5231643176
 10
13.8604546969
 20
27.4529701733
 10
13.9977412845
 20
27.3783896328
 10
14.1336447
 20
27.2989414368
 10
14.2670954357
 20
27.2151785172
 10
14.3976421211
 20
27.1273899194
 10
14.5242565162
 20
27.036358965
 10
14.6477809833
 20
26.9415734369
 10
14.7704222804
 20
26.8411891402
 10
14.8924734524
 20
26.7345751166
 10
15.013011468
 20
26.6221279261
 10
15.1321821368
 20
26.5032888207
 10
15.2500007468
 20
26.3775074718
 10
15.3656412389
 20
26.2450995684
 10
15.4780045941
 20
26.1068591359
 10
15.5865367381
 20
25.9631013336
 10
15.6911317279
 20
25.8135782654
 10
15.7914396017
 20
25.6583417906
  0
LWPOLYLINE
  5
3E1
100
AcDbEntity
  8
RACCORDO
100
AcDbPolyline
 62
253
  6
CONTINUOUS
 90
22
 70
0
 10
12.8013856395
 20
26.8195923999
 10
12.9279445293
 20
26.7748990743
 10
13.0509078242
 20
26.7272694009
 10
13.1702755243
 20
26.6767033797
 10
13.2854641771
 20
26.623388207
 10
13.3970572349
 20
26.5671366865
 10
13.5068050556
 20
26.5073872294
 10
13.6154796444
 20
26.443829726
 10
13.7223089961
 20
26.376774286
 10
13.8267274522
 20
26.3065896486
 10
13.9280694159
 20
26.2338875755
 10
14.0270004841
 20
26.158056305
 10
14.1249517898
 20
26.0776292917
 10
14.22254608
 20
25.9923200658
 10
14.3191606077
 20
25.9024150971
 10
14.4143582659
 20
25.8073072496
 10
14.5084807676
 20
25.7066032876
 10
14.6011863997
 20
25.6006964467
 10
14.6910129162
 20
25.4901592984
 10
14.7774729016
 20
25.3751826997
 10
14.8610537714
 20
25.2555757936
 10
14.9417555255
 20
25.1313385801
  0
LWPOLYLINE
  5
3E2
100
AcDbEntity
  8
RACCORDO
100
AcDbPolyline
 62
253
  6
CONTINUOUS
 90
22
 70
0
 10
13.3584776023
 20
28.0475602488
 10
13.5167413394
 20
27.9915132086
 10
13.6719900786
 20
27.9306128157
 10
13.8240923119
 20
27.8650318124
 10
13.9725428755
 20
27.7951329352
 10
14.1176233195
 20
27.7209295737
 10
14.2603384578
 20
27.6419615658
 10
14.4009521045
 20
27.5580382379
 10
14.5388668091
 20
27.4694704746
 10
14.6737528324
 20
27.3764648004
 10
14.8050780026
 20
27.2794249185
 10
14.9331153654
 20
27.178186583
 10
15.0586830335
 20
27.0720315872
 10
15.1818961699
 20
26.9606784864
 10
15.302191767
 20
26.8444449745
 10
15.4192957605
 20
26.7234338852
 10
15.5331463929
 20
26.5975295523
 10
15.6433641984
 20
26.4669643068
 10
15.7492634275
 20
26.3324344069
 10
15.8505428721
 20
26.1942869167
 10
15.9472186391
 20
26.0524626616
 10
16.0391475923
 20
25.9071088329
  0
LWPOLYLINE
  5
3E3
100
AcDbEntity
  8
RACCORDO
100
AcDbPolyline
 62
253
  6
CONTINUOUS
 90
22
 70
0
 10
36.6481785549
 20
5.2980778705
 10
36.7899280058
 20
5.2085139835
 10
36.9277016319
 20
5.1148752388
 10
37.061407763
 20
5.0173556864
 10
37.1906383201
 20
4.9164125072
 10
37.3156623271
 20
4.8119978973
 10
37.437338267
 20
4.7034540085
 10
37.5558710489
 20
4.5905447811
 10
37.6707560558
 20
4.4736958156
 10
37.7817272274
 20
4.3531684513
 10
37.8883499975
 20
4.2294754183
 10
37.9908550773
 20
4.1023911986
 10
38.0898961771
 20
3.9710093158
 10
38.1855438891
 20
3.8349891351
 10
38.2772863125
 20
3.6947978207
 10
38.3648194951
 20
3.550685918
 10
38.4480454867
 20
3.4025866407
 10
38.526667379
 20
3.2507852084
 10
38.6001718778
 20
3.0961213585
 10
38.6683462761
 20
2.9390049399
 10
38.7311994965
 20
2.7793747624
 10
38.7886299707
 20
2.6174078803
  0
LWPOLYLINE
  5
3E4
100
AcDbEntity
  8
RACCORDO
100
AcDbPolyline
 62
253
  6
CONTINUOUS
 90
22
 70
0
 10
37.6878990216
 20
7.0062239436
 10
37.8865330609
 20
6.8803749009
 10
38.0793659171
 20
6.7493652728
 10
38.2663975902
 20
6.6131950594
 10
38.4473295752
 20
6.4720304258
 10
38.6224603772
 20
6.3257052068
 10
38.7926855111
 20
6.1737209073
 10
38.9585460644
 20
6.0156774907
 10
39.1195009496
 20
5.8519749936
 10
39.2748224195
 20
5.6833150299
 10
39.4241136555
 20
5.5102576474
 10
39.5677714763
 20
5.3322427984
 10
39.7062585907
 20
5.1482919542
 10
39.8400572003
 20
4.9578755074
 10
39.9686851035
 20
4.7615230654
 10
40.0911584045
 20
4.5598449206
 10
40.2075288699
 20
4.3525212045
 10
40.3177447331
 20
4.1398717856
 10
40.4206667977
 20
3.9234665617
 10
40.5159153316
 20
3.703828832
 10
40.6038700669
 20
3.4804352972
 10
40.6845310037
 20
3.2532859574
  0
LWPOLYLINE
  5
3E5
100
AcDbEntity
  8
RACCORDO
100
AcDbPolyline
 62
253
  6
CONTINUOUS
 90
22
 70
0
 10
36.3994115125
 20
5.0503698798
 10
36.5400046044
 20
4.9598749144
 10
36.6754159684
 20
4.8662181793
 10
36.805642247
 20
4.7697087703
 10
36.9299972819
 20
4.6712181678
 10
37.0492390547
 20
4.5705115118
 10
37.1653868626
 20
4.4660318518
 10
37.279047805
 20
4.3571497644
 10
37.3893261795
 20
4.244637151
 10
37.495852719
 20
4.1288762277
 10
37.5978025376
 20
4.0108748154
 10
37.6958814706
 20
3.8899307795
 10
37.7918255339
 20
3.7637088497
 10
37.8857883918
 20
3.631496435
 10
37.9769394061
 20
3.4939184529
 10
38.0652509023
 20
3.350454146
 10
38.1506015954
 20
3.2005830386
 10
38.2322734502
 20
3.044789653
 10
38.3093797802
 20
2.884113189
 10
38.3814566641
 20
2.7189941826
 10
38.4483480032
 20
2.5492145422
 10
38.5097287873
 20
2.3749075223
  0
LWPOLYLINE
  5
3E6
100
AcDbEntity
  8
RACCORDO
100
AcDbPolyline
 62
253
  6
CONTINUOUS
 90
22
 70
0
 10
35.872408302
 20
4.2006858036
 10
35.9848709359
 20
4.1278905353
 10
36.0932012262
 20
4.0530492248
 10
36.197399173
 20
3.9761618721
 10
36.2969549172
 20
3.89753848
 10
36.3923783179
 20
3.8168690457
 10
36.4851989519
 20
3.7332235605
 10
36.5760811765
 20
3.6461300388
 10
36.6643606344
 20
3.5560604662
 10
36.7495738304
 20
3.4635007914
 10
36.8312123276
 20
3.3692078327
 10
36.9097845628
 20
3.2724247718
 10
36.9863523522
 20
3.1713671018
 10
37.0614696195
 20
3.0655881141
 10
37.134582441
 20
2.9555345173
 10
37.2050908611
 20
2.8407619303
 10
37.2732240401
 20
2.7208193721
 10
37.3387528177
 20
2.5961578237
 10
37.4003897583
 20
2.4676858478
 10
37.4577057165
 20
2.3357062986
 10
37.5111298377
 20
2.1999163218
 10
37.5606621218
 20
2.0603159176
  0
LWPOLYLINE
  5
3E7
100
AcDbEntity
  8
RACCORDO
100
AcDbPolyline
 62
253
  6
CONTINUOUS
 90
22
 70
0
 10
39.5656640891
 20
-14.8420130643
 10
39.643640771
 20
-14.9904523912
 10
39.7161368588
 20
-15.1404327359
 10
39.7831699887
 20
-15.2917402112
 10
39.8446153446
 20
-15.4437748473
 10
39.9006820058
 20
-15.5967125555
 10
39.9517845164
 20
-15.7515522905
 10
39.997982303
 20
-15.9086009408
 10
40.0390511547
 20
-16.0672376167
 10
40.0748913263
 20
-16.2271029619
 10
40.1053828373
 20
-16.3875356558
 10
40.1306127306
 20
-16.5488463584
 10
40.1506938976
 20
-16.7121469564
 10
40.1655171557
 20
-16.8777677443
 10
40.1748727678
 20
-17.0450481956
 10
40.1786227762
 20
-17.2136193556
 10
40.1766489606
 20
-17.3834900879
 10
40.1688368004
 20
-17.5542649307
 10
40.1551616387
 20
-17.7249600032
 10
40.1356441903
 20
-17.8951140122
 10
40.110261587
 20
-18.0647844113
 10
40.0790143956
 20
-18.2337670829
  0
LWPOLYLINE
  5
3E8
100
AcDbEntity
  8
RACCORDO
100
AcDbPolyline
 62
253
  6
CONTINUOUS
 90
22
 70
0
 10
41.3201614628
 20
-13.8825754053
 10
41.4292590654
 20
-14.0908808928
 10
41.5307524035
 20
-14.3007549869
 10
41.624641477
 20
-14.5121976874
 10
41.7107508555
 20
-14.7249158388
 10
41.7892559696
 20
-14.9392025966
 10
41.8606831101
 20
-15.1559374279
 10
41.9253008545
 20
-15.3757373182
 10
41.9828406253
 20
-15.597985282
 10
42.0330229822
 20
-15.8217098301
 10
42.0757842939
 20
-16.0462275377
 10
42.1111881917
 20
-16.2722218295
 10
42.1391461287
 20
-16.5007714909
 10
42.1598109002
 20
-16.7325762759
 10
42.173029711
 20
-16.9669364304
 10
42.1782556285
 20
-17.2028314776
 10
42.1753735498
 20
-17.4405643153
 10
42.1644985778
 20
-17.6798320457
 10
42.1454290884
 20
-17.9187054995
 10
42.1180978735
 20
-18.15654162
 10
42.0825721414
 20
-18.3939834638
 10
42.0388518918
 20
-18.6310310309
  0
LWPOLYLINE
  5
3E9
100
AcDbEntity
  8
RACCORDO
100
AcDbPolyline
 62
253
  6
CONTINUOUS
 90
22
 70
0
 10
39.2263715154
 20
-14.9321509558
 10
39.3028812218
 20
-15.0808184407
 10
39.3733225355
 20
-15.2296332346
 10
39.4378470965
 20
-15.3783259737
 10
39.4962964145
 20
-15.525798855
 10
39.549209491
 20
-15.6726342639
 10
39.5975566132
 20
-15.8211902075
 10
39.6415488331
 20
-15.9723153323
 10
39.6807964001
 20
-16.1248933011
 10
39.7151706279
 20
-16.2784084712
 10
39.7444610545
 20
-16.4315756012
 10
39.7689278841
 20
-16.5853556753
 10
39.7889069154
 20
-16.7426391047
 10
39.80417493
 20
-16.9041198434
 10
39.8143250329
 20
-17.068841378
 10
39.8190728787
 20
-17.2372408604
 10
39.8180531934
 20
-17.4097083933
 10
39.8108864017
 20
-17.5854653504
 10
39.7973242102
 20
-17.763168415
 10
39.7771851195
 20
-17.9422041111
 10
39.7502248982
 20
-18.1226832623
 10
39.7162287067
 20
-18.3043279616
  0
LWPOLYLINE
  5
3EA
100
AcDbEntity
  8
RACCORDO
100
AcDbPolyline
 62
253
  6
CONTINUOUS
 90
22
 70
0
 10
38.3451313091
 20
-15.4044973457
 10
38.4061291729
 20
-15.5237712143
 10
38.462525301
 20
-15.6427508356
 10
38.5143196936
 20
-15.7614362097
 10
38.5612258012
 20
-15.8793039367
 10
38.6035301731
 20
-15.9968774164
 10
38.6420924576
 20
-16.1157268485
 10
38.6772520119
 20
-16.2365931631
 10
38.7086694788
 20
-16.35873543
 10
38.7361864339
 20
-16.4815010578
 10
38.759740967
 20
-16.603980404
 10
38.7793949884
 20
-16.727083111
 10
38.7951758041
 20
-16.8528855152
 10
38.807339772
 20
-16.9820514394
 10
38.8156305343
 20
-17.1139170607
 10
38.8193063238
 20
-17.2485672467
 10
38.8183401085
 20
-17.3865071387
 10
38.8127589204
 20
-17.5272315952
 10
38.8019020888
 20
-17.6693100603
 10
38.7855493901
 20
-17.8122656819
 10
38.7639210479
 20
-17.9565753119
 10
38.7370170621
 20
-18.1022389504
  0
LWPOLYLINE
  5
3EB
100
AcDbEntity
  8
RACCORDO
100
AcDbPolyline
 62
253
  6
CONTINUOUS
 90
22
 70
0
 10
32.0222352094
 20
-33.7425862155
 10
32.0155453334
 20
-33.9101267845
 10
32.0033386148
 20
-34.076261617
 10
31.9857372706
 20
-34.2408142993
 10
31.9629331916
 20
-34.4032028344
 10
31.9350194904
 20
-34.5636841054
 10
31.9018556953
 20
-34.7233305048
 10
31.8633398269
 20
-34.8824375189
 10
31.8195881579
 20
-35.040355336
 10
31.7706939843
 20
-35.1967228719
 10
31.7168840606
 20
-35.350907416
 10
31.6580784377
 20
-35.5032215289
 10
31.5938189395
 20
-35.6546845787
 10
31.5238458637
 20
-35.8055280175
 10
31.4483078357
 20
-35.955074944
 10
31.3672698583
 20
-36.1029368551
 10
31.2806251177
 20
-36.2490623168
 10
31.188472167
 20
-36.3930515889
 10
31.0912815934
 20
-36.5340402772
 10
30.9893019827
 20
-36.6716392473
 10
30.882484804
 20
-36.8058868215
 10
30.7709326066
 20
-36.9366065122
  0
LWPOLYLINE
  5
3EC
100
AcDbEntity
  8
RACCORDO
100
AcDbPolyline
 62
253
  6
CONTINUOUS
 90
22
 70
0
 10
34.0213933355
 20
-33.7889375156
 10
34.011721887
 20
-34.0238841612
 10
33.9946806491
 20
-34.2563871275
 10
33.9702696216
 20
-34.4864464145
 10
33.9384834553
 20
-34.7137204267
 10
33.8993274994
 20
-34.9385507597
 10
33.852817802
 20
-35.1619621997
 10
33.798878465
 20
-35.3846233606
 10
33.7375853864
 20
-35.6058656287
 10
33.6691823083
 20
-35.8247079492
 10
33.5939558367
 20
-36.0405266434
 10
33.5116193656
 20
-36.2539453902
 10
33.4215568186
 20
-36.4658541715
 10
33.3235506432
 20
-36.6769353897
 10
33.217818392
 20
-36.8865066426
 10
33.1043966456
 20
-37.0934107049
 10
32.9830342734
 20
-37.2978523422
 10
32.8539824061
 20
-37.4996267891
 10
32.718031017
 20
-37.6969625236
 10
32.5754434304
 20
-37.8892690385
 10
32.4259563219
 20
-38.0771368411
 10
32.2695696916
 20
-38.2605659313
  0
LWPOLYLINE
  5
3ED
100
AcDbEntity
  8
RACCORDO
100
AcDbPolyline
 62
253
  6
CONTINUOUS
 90
22
 70
0
 10
31.6833302756
 20
-33.6510016325
 10
31.6752558825
 20
-33.8180063044
 10
31.6618524527
 20
-33.9821043531
 10
31.6433859921
 20
-34.1431383231
 10
31.6202681457
 20
-34.3000782437
 10
31.5926745097
 20
-34.4536979762
 10
31.5602663739
 20
-34.6065247583
 10
31.5228021914
 20
-34.7593990656
 10
31.4805025972
 20
-34.9111592461
 10
31.4335139667
 20
-35.0612943972
 10
31.3822966552
 20
-35.208586236
 10
31.3265955141
 20
-35.3539971016
 10
31.2652561481
 20
-35.5001980627
 10
31.1977382672
 20
-35.647678492
 10
31.1241677469
 20
-35.795406577
 10
31.0440797607
 20
-35.9436187295
 10
30.9569629209
 20
-36.0924701517
 10
30.8628778187
 20
-36.2410967456
 10
30.762281084
 20
-36.3882110181
 10
30.6553222718
 20
-36.5331909338
 10
30.5417344597
 20
-36.676010353
 10
30.4214705445
 20
-36.8163211813
  0
LWPOLYLINE
  5
3EE
100
AcDbEntity
  8
RACCORDO
100
AcDbPolyline
 62
253
  6
CONTINUOUS
 90
22
 70
0
 10
37.5606621218
 20
-22.4924553553
 10
37.5159687962
 20
-22.619014245
 10
37.4683391227
 20
-22.74197754
 10
37.4177731016
 20
-22.8613452401
 10
37.3644579289
 20
-22.9765338928
 10
37.3082064084
 20
-23.0881269507
 10
37.2484569513
 20
-23.1978747714
 10
37.1848994479
 20
-23.3065493602
 10
37.1178440079
 20
-23.4133787118
 10
37.0476593705
 20
-23.517797168
 10
36.9749572974
 20
-23.6191391316
 10
36.8991260269
 20
-23.7180701998
 10
36.8186990136
 20
-23.8160215056
 10
36.7333897877
 20
-23.9136157957
 10
36.643484819
 20
-24.0102303235
 10
36.5483769715
 20
-24.1054279817
 10
36.4476730095
 20
-24.1995504833
 10
36.3417661686
 20
-24.2922561154
 10
36.2312290203
 20
-24.3820826319
 10
36.1162524216
 20
-24.4685426173
 10
35.9966455155
 20
-24.5521234871
 10
35.872408302
 20
-24.6328252412
  0
LWPOLYLINE
  5
3EF
100
AcDbEntity
  8
0
100
AcDbPolyline
 62
7
  6
CONTINUOUS
 90
8
 70
0
 10
65.5084752736
 20
55.3626509845
 10
65.5034298037
 20
55.3493520406
 10
65.4986785407
 20
55.3352910651
 10
65.4942998816
 20
55.3206588648
 10
65.4900368684
 20
55.3057694713
 10
65.4858855331
 20
55.2907800102
 10
65.4821240129
 20
55.2757036009
 10
65.4788723009
 20
55.2606205323
  0
LINE
  5
3F0
100
AcDbEntity
  8
0
100
AcDbLine
 62
7
  6
CONTINUOUS
 10
65.5180435052
 20
55.3866726677
 11
65.5084752736
 21
55.3626509845
  0
LWPOLYLINE
  5
3F1
100
AcDbEntity
  8
0
100
AcDbPolyline
 62
7
  6
CONTINUOUS
 90
10
 70
0
 10
65.5180435052
 20
55.3866726677
 10
65.5200049726
 20
55.3905724716
 10
65.522197785
 20
55.3943233963
 10
65.5246248695
 20
55.3979138499
 10
65.5272971261
 20
55.4013389176
 10
65.530208432
 20
55.4045809885
 10
65.5333343021
 20
55.4076119422
 10
65.5366657863
 20
55.4104182274
 10
65.5402107704
 20
55.4129987817
 10
65.5439680776
 20
55.4153471294
  0
LWPOLYLINE
  5
3F2
100
AcDbEntity
  8
RACCORDO
100
AcDbPolyline
 62
253
  6
CONTINUOUS
 90
22
 70
0
 10
16.0391475924
 20
-46.3392482707
 10
15.9495837054
 20
-46.4809977216
 10
15.8559449607
 20
-46.6187713477
 10
15.7584254082
 20
-46.7524774787
 10
15.6574822291
 20
-46.8817080359
 10
15.5530676192
 20
-47.0067320428
 10
15.4445237304
 20
-47.1284079827
 10
15.3316145029
 20
-47.2469407647
 10
15.2147655375
 20
-47.3618257715
 10
15.0942381732
 20
-47.4727969431
 10
14.9705451402
 20
-47.5794197133
 10
14.8434609205
 20
-47.6819247931
 10
14.7120790377
 20
-47.7809658928
 10
14.576058857
 20
-47.8766136049
 10
14.4358675426
 20
-47.9683560283
 10
14.2917556399
 20
-48.0558892108
 10
14.1436563626
 20
-48.1391152025
 10
13.9918549303
 20
-48.2177370947
 10
13.8371910803
 20
-48.2912415936
 10
13.6800746618
 20
-48.3594159919
 10
13.5204444843
 20
-48.4222692122
 10
13.3584776022
 20
-48.4796996864
  0
LWPOLYLINE
  5
3F3
100
AcDbEntity
  8
RACCORDO
100
AcDbPolyline
 62
253
  6
CONTINUOUS
 90
22
 70
0
 10
17.7472936656
 20
-47.3789687373
 10
17.6214446228
 20
-47.5776027766
 10
17.4904349947
 20
-47.7704356328
 10
17.3542647813
 20
-47.957467306
 10
17.2131001477
 20
-48.138399291
 10
17.0667749287
 20
-48.313530093
 10
16.9147906292
 20
-48.4837552269
 10
16.7567472126
 20
-48.6496157801
 10
16.5930447155
 20
-48.8105706653
 10
16.4243847518
 20
-48.9658921353
 10
16.2513273693
 20
-49.1151833713
 10
16.0733125203
 20
-49.2588411921
 10
15.889361676
 20
-49.3973283064
 10
15.6989452293
 20
-49.531126916
 10
15.5025927873
 20
-49.6597548193
 10
15.3009146425
 20
-49.7822281202
 10
15.0935909264
 20
-49.8985985857
 10
14.8809415075
 20
-50.0088144488
 10
14.6645362836
 20
-50.1117365134
 10
14.4448985538
 20
-50.2069850473
 10
14.2215050191
 20
-50.2949397827
 10
13.9943556793
 20
-50.3756007195
  0
LWPOLYLINE
  5
3F4
100
AcDbEntity
  8
RACCORDO
100
AcDbPolyline
 62
253
  6
CONTINUOUS
 90
22
 70
0
 10
15.7914396017
 20
-46.0904812283
 10
15.7009446363
 20
-46.2310743202
 10
15.6072879012
 20
-46.3664856842
 10
15.5107784922
 20
-46.4967119628
 10
15.4122878897
 20
-46.6210669977
 10
15.3115812336
 20
-46.7403087705
 10
15.2071015737
 20
-46.8564565783
 10
15.0982194863
 20
-46.9701175207
 10
14.9857068729
 20
-47.0803958952
 10
14.8699459496
 20
-47.1869224348
 10
14.7519445373
 20
-47.2888722533
 10
14.6310005013
 20
-47.3869511863
 10
14.5047785716
 20
-47.4828952497
 10
14.3725661569
 20
-47.5768581076
 10
14.2349881748
 20
-47.6680091218
 10
14.0915238679
 20
-47.756320618
 10
13.9416527605
 20
-47.8416713111
 10
13.7858593749
 20
-47.923343166
 10
13.6251829108
 20
-48.0004494959
 10
13.4600639045
 20
-48.0725263799
 10
13.2902842641
 20
-48.139417719
 10
13.1159772442
 20
-48.2007985031
  0
LWPOLYLINE
  5
3F5
100
AcDbEntity
  8
RACCORDO
100
AcDbPolyline
 62
253
  6
CONTINUOUS
 90
22
 70
0
 10
14.9417555255
 20
-45.5634780177
 10
14.8689602572
 20
-45.6759406517
 10
14.7941189467
 20
-45.784270942
 10
14.7172315939
 20
-45.8884688888
 10
14.6386082019
 20
-45.988024633
 10
14.5579387676
 20
-46.0834480337
 10
14.4742932824
 20
-46.1762686676
 10
14.3871997607
 20
-46.2671508922
 10
14.2971301881
 20
-46.3554303501
 10
14.2045705132
 20
-46.4406435462
 10
14.1102775546
 20
-46.5222820433
 10
14.0134944937
 20
-46.6008542786
 10
13.9124368237
 20
-46.677422068
 10
13.806657836
 20
-46.7525393353
 10
13.6966042392
 20
-46.8256521567
 10
13.5818316522
 20
-46.8961605769
 10
13.461889094
 20
-46.9642937558
 10
13.3372275456
 20
-47.0298225335
 10
13.2087555697
 20
-47.091459474
 10
13.0767760205
 20
-47.1487754323
 10
12.9409860437
 20
-47.2021995535
 10
12.8013856395
 20
-47.2517318376
  0
LINE
  5
3F6
100
AcDbEntity
  8
0
100
AcDbLine
 62
7
  6
CONTINUOUS
 10
-67.6519518469
 20
-76.7469889192
 11
-66.0430374285
 21
-75.8180817466
  0
LINE
  5
3F7
100
AcDbEntity
  8
0
100
AcDbLine
 62
7
  6
CONTINUOUS
 10
-66.8430374285
 20
-77.2037223926
 11
-67.3921067855
 21
-77.5207277337
  0
LINE
  5
3F8
100
AcDbEntity
  8
0
100
AcDbLine
 62
253
  6
CONTINUOUS
 10
-67.2353470301
 20
-77.5473469052
 11
-67.4572025622
 21
-77.6754543308
  0
LWPOLYLINE
  5
3F9
100
AcDbEntity
  8
0
100
AcDbPolyline
 62
253
  6
CONTINUOUS
 90
3
 70
0
 10
-67.4889960378
 20
-76.5223492347
 10
-67.4539446041
 20
-76.502138019
 10
-67.3556886844
 20
-76.4454099373
  0
LWPOLYLINE
  5
3FA
100
AcDbEntity
  8
0
100
AcDbPolyline
 62
253
  6
CONTINUOUS
 90
3
 70
0
 10
-66.980596571
 20
-76.2288315198
 10
-66.957014687
 20
-76.2152353976
 10
-66.8894066093
 20
-76.1762018557
  0
LINE
  5
3FB
100
AcDbEntity
  8
0
100
AcDbLine
 62
253
  6
CONTINUOUS
 10
-66.8894066093
 20
-76.1762018557
 11
-66.867736338
 21
-76.163708992
  0
LINE
  5
3FC
100
AcDbEntity
  8
0
100
AcDbLine
 62
253
  6
CONTINUOUS
 10
-67.3556886844
 20
-76.4454099373
 11
-67.3250131163
 21
-76.4277276911
  0
LWPOLYLINE
  5
3FD
100
AcDbEntity
  8
0
100
AcDbPolyline
 62
253
  6
CONTINUOUS
 90
3
 70
0
 10
-66.5959673808
 20
-76.0067615151
 10
-66.5755657317
 20
-75.9950057406
 10
-66.5358472496
 20
-75.9720643276
  0
LINE
  5
3FE
100
AcDbEntity
  8
0
100
AcDbLine
 62
253
  6
CONTINUOUS
 10
-66.227381626
 20
-75.7939815534
 11
-66.1857981813
 21
-75.7700183861
  0
LINE
  5
3FF
100
AcDbEntity
  8
0
100
AcDbLine
 62
253
  6
CONTINUOUS
 10
-66.805356269
 20
-77.299110698
 11
-67.2353470301
 21
-77.5473469052
  0
LINE
  5
400
100
AcDbEntity
  8
0
100
AcDbLine
 62
7
  6
CONTINUOUS
 10
-65.0299939502
 20
-75.1214757507
 11
-65.0532962455
 21
-75.1347556379
  0
LWPOLYLINE
  5
401
100
AcDbEntity
  8
RACCORDO
100
AcDbPolyline
 62
253
  6
CONTINUOUS
 90
22
 70
0
 10
-4.1009433424
 20
-49.2567338049
 10
-4.2493826693
 20
-49.3347104868
 10
-4.399363014
 20
-49.4072065746
 10
-4.5506704893
 20
-49.4742397045
 10
-4.7027051254
 20
-49.5356850604
 10
-4.8556428336
 20
-49.5917517215
 10
-5.0104825686
 20
-49.6428542321
 10
-5.1675312189
 20
-49.6890520187
 10
-5.3261678948
 20
-49.7301208705
 10
-5.48603324
 20
-49.765961042
 10
-5.6464659339
 20
-49.7964525531
 10
-5.8077766365
 20
-49.8216824463
 10
-5.9710772345
 20
-49.8417636133
 10
-6.1366980224
 20
-49.8565868714
 10
-6.3039784738
 20
-49.8659424835
 10
-6.4725496337
 20
-49.8696924919
 10
-6.642420366
 20
-49.8677186763
 10
-6.8131952088
 20
-49.8599065161
 10
-6.9838902814
 20
-49.8462313545
 10
-7.1540442903
 20
-49.826713906
 10
-7.3237146894
 20
-49.8013313028
 10
-7.492697361
 20
-49.7700841113
  0
LWPOLYLINE
  5
402
100
AcDbEntity
  8
RACCORDO
100
AcDbPolyline
 62
253
  6
CONTINUOUS
 90
22
 70
0
 10
-4.1910812339
 20
-48.9174412312
 10
-4.3397487188
 20
-48.9939509376
 10
-4.4885635127
 20
-49.0643922512
 10
-4.6372562519
 20
-49.1289168122
 10
-4.7847291331
 20
-49.1873661303
 10
-4.931564542
 20
-49.2402792068
 10
-5.0801204856
 20
-49.2886263289
 10
-5.2312456105
 20
-49.3326185488
 10
-5.3838235792
 20
-49.3718661159
 10
-5.5373387493
 20
-49.4062403437
 10
-5.6905058793
 20
-49.4355307703
 10
-5.8442859534
 20
-49.4599975999
 10
-6.0015693828
 20
-49.4799766312
 10
-6.1630501215
 20
-49.4952446458
 10
-6.3277716562
 20
-49.5053947487
 10
-6.4961711385
 20
-49.5101425944
 10
-6.6686386714
 20
-49.5091229091
 10
-6.8443956285
 20
-49.5019561174
 10
-7.0220986931
 20
-49.4883939259
 10
-7.2011343893
 20
-49.4682548352
 10
-7.3816135405
 20
-49.441294614
 10
-7.5632582398
 20
-49.4072984224
  0
LWPOLYLINE
  5
403
100
AcDbEntity
  8
RACCORDO
100
AcDbPolyline
 62
253
  6
CONTINUOUS
 90
22
 70
0
 10
-4.6634276238
 20
-48.0362010248
 10
-4.7827014924
 20
-48.0971988886
 10
-4.9016811137
 20
-48.1535950168
 10
-5.0203664878
 20
-48.2053894094
 10
-5.1382342148
 20
-48.2522955169
 10
-5.2558076945
 20
-48.2945998889
 10
-5.3746571266
 20
-48.3331621733
 10
-5.4955234412
 20
-48.3683217277
 10
-5.6176657081
 20
-48.3997391946
 10
-5.7404313359
 20
-48.4272561497
 10
-5.8629106821
 20
-48.4508106828
 10
-5.9860133891
 20
-48.4704647041
 10
-6.1118157933
 20
-48.4862455199
 10
-6.2409817175
 20
-48.4984094877
 10
-6.3728473388
 20
-48.50670025
 10
-6.5074975249
 20
-48.5103760396
 10
-6.6454374168
 20
-48.5094098243
 10
-6.7861618734
 20
-48.5038286362
 10
-6.9282403384
 20
-48.4929718046
 10
-7.07119596
 20
-48.4766191059
 10
-7.21550559
 20
-48.4549907636
 10
-7.3611692285
 20
-48.4280867778
  0
LWPOLYLINE
  5
404
100
AcDbEntity
  8
RACCORDO
100
AcDbPolyline
 62
253
  6
CONTINUOUS
 90
22
 70
0
 10
13.9943556794
 20
29.9434612818
 10
14.2162043697
 20
29.8645795596
 10
14.4334852876
 20
29.7793921742
 10
14.6461984329
 20
29.6878991257
 10
14.8540048729
 20
29.5901981549
 10
15.0572435404
 20
29.4861915209
 10
15.2569312339
 20
29.3755860011
 10
15.4536999702
 20
29.2581028832
 10
15.6469177325
 20
29.1340208794
 10
15.8357052693
 20
29.0038829037
 10
16.0195534385
 20
28.8681410023
 10
16.198971382
 20
28.726343129
 10
16.3746072738
 20
28.5776760585
 10
16.5470052577
 20
28.4217773019
 10
16.7156211897
 20
28.2590093482
 10
16.8794708118
 20
28.0896464388
 10
17.03871544
 20
27.9133612505
 10
17.1931937583
 20
27.7304811066
 10
17.3414375606
 20
27.5422622184
 10
17.4829574449
 20
27.3491233231
 10
17.6182428132
 20
27.1506456836
 10
17.7472936655
 20
26.9468292997
  0
LWPOLYLINE
  5
405
100
AcDbEntity
  8
RACCORDO
100
AcDbPolyline
 62
253
  6
CONTINUOUS
 90
22
 70
0
 10
30.4214705445
 20
16.3841817436
 10
30.5307061771
 20
16.2571824828
 10
30.634016254
 20
16.1286677551
 10
30.7314906173
 20
15.9989399548
 10
30.8227135606
 20
15.8690510627
 10
30.908362485
 20
15.738548417
 10
30.9899658873
 20
15.6053164805
 10
31.0679375995
 20
15.4685606168
 10
31.1416278669
 20
15.3292944326
 10
31.2107903139
 20
15.1879939341
 10
31.2749261194
 20
15.0458516175
 10
31.3345086819
 20
14.9020027087
 10
31.3905270124
 20
14.7537467091
 10
31.4429194161
 20
14.6003906702
 10
31.4910848045
 20
14.4427395388
 10
31.5348700784
 20
14.2802365202
 10
31.5740133132
 20
14.1123973718
 10
31.6079569653
 20
13.9399085177
 10
31.6361462692
 20
13.7640071137
 10
31.6582589619
 20
13.585243133
 10
31.674079346
 20
13.4034548625
 10
31.6833302755
 20
13.2188621948
  0
LWPOLYLINE
  5
406
100
AcDbEntity
  8
RACCORDO
100
AcDbPolyline
 62
253
  6
CONTINUOUS
 90
22
 70
0
 10
29.6744928902
 20
15.7195617037
 10
29.7617494411
 20
15.6175767035
 10
29.8444239415
 20
15.5148465489
 10
29.9225163916
 20
15.4113712399
 10
29.9956151047
 20
15.3076046196
 10
30.0641317675
 20
15.2030928449
 10
30.1293014396
 20
15.0964743868
 10
30.1916376426
 20
14.9870946799
 10
30.250626855
 20
14.8756082896
 10
30.305963572
 20
14.7626173826
 10
30.3573772504
 20
14.6489845585
 10
30.4051384334
 20
14.5338472178
 10
30.4497532459
 20
14.4152197282
 10
30.4916177675
 20
14.2925426263
 10
30.5303359185
 20
14.1663753757
 10
30.5652255852
 20
14.0364107345
 10
30.5963860817
 20
13.9021372943
 10
30.6237180937
 20
13.7640664636
 10
30.6462415647
 20
13.6234252269
 10
30.6636298092
 20
13.4806225789
 10
30.6762095127
 20
13.3352495249
 10
30.6839806751
 20
13.1873060648
  0
LWPOLYLINE
  5
407
100
AcDbEntity
  8
RACCORDO
100
AcDbPolyline
 62
253
  6
CONTINUOUS
 90
22
 70
0
 10
30.7709326067
 20
16.5044670745
 10
30.8799695034
 20
16.3767970454
 10
30.983968659
 20
16.2464313884
 10
31.0829025554
 20
16.1135854569
 10
31.1765150761
 20
15.9788259718
 10
31.2650567454
 20
15.8420237537
 10
31.3491676768
 20
15.7022778836
 10
31.4289810029
 20
15.5592913262
 10
31.5041347591
 20
15.413632041
 10
31.5744466448
 20
15.2656437528
 10
31.6396576374
 20
15.1159421648
 10
31.6999220784
 20
14.964248513
 10
31.755589371
 20
14.8095317559
 10
31.8066185268
 20
14.6514905736
 10
31.8526808139
 20
14.490681601
 10
31.8935903025
 20
14.3273309268
 10
31.9292356759
 20
14.1613692598
 10
31.9594044728
 20
13.9931875376
 10
31.9838509454
 20
13.8237316122
 10
32.0024877722
 20
13.6534526538
 10
32.0152993148
 20
13.4822913626
 10
32.0222352093
 20
13.3104467778
  0
LWPOLYLINE
  5
408
100
AcDbEntity
  8
RACCORDO
100
AcDbPolyline
 62
253
  6
CONTINUOUS
 90
22
 70
0
 10
32.2695696916
 20
17.8284264936
 10
32.4222554322
 20
17.6491885731
 10
32.5678325341
 20
17.4667736744
 10
32.7063009975
 20
17.2811817974
 10
32.8374161682
 20
17.0926670547
 10
32.9614227002
 20
16.9009753338
 10
33.0790545557
 20
16.7053442971
 10
33.1907197211
 20
16.5052165644
 10
33.2960102099
 20
16.3011495158
 10
33.3944360247
 20
16.0940529544
 10
33.485782259
 20
15.8845729349
 10
33.5702638193
 20
15.6720634026
 10
33.6480354281
 20
15.4554959969
 10
33.7193870835
 20
15.2342847214
 10
33.7840287872
 20
15.0090155725
 10
33.8412452677
 20
14.7804181794
 10
33.891012567
 20
14.548128414
 10
33.933354643
 20
14.3125104044
 10
33.9676280977
 20
14.0753861646
 10
33.9936184649
 20
13.8373630327
 10
34.0115402109
 20
13.5978336706
 10
34.0213933354
 20
13.3567980783
  0
LWPOLYLINE
  5
409
100
AcDbEntity
  8
RACCORDO
100
AcDbPolyline
 62
253
  6
CONTINUOUS
 90
22
 70
0
 10
39.7162287067
 20
-2.127811476
 10
39.7473299091
 20
-2.2924138785
 10
39.7725416963
 20
-2.4553659358
 10
39.792093071
 20
-2.6164506881
 10
39.8061500113
 20
-2.77454924
 10
39.8150728327
 20
-2.9303923086
 10
39.8191274839
 20
-3.0865762514
 10
39.8182750356
 20
-3.2439961596
 10
39.8124595871
 20
-3.4014493467
 10
39.8017057739
 20
-3.5584003915
 10
39.7861778525
 20
-3.7135671514
 10
39.7658534108
 20
-3.8679352419
 10
39.7402387083
 20
-4.0243378691
 10
39.7089338415
 20
-4.1833442965
 10
39.6718207257
 20
-4.3439568753
 10
39.6284883758
 20
-4.5065812546
 10
39.5784678374
 20
-4.6715058383
 10
39.5216194754
 20
-4.8378573939
 10
39.4580814266
 20
-5.0042871302
 10
39.3878495899
 20
-5.1701576252
 10
39.3106563092
 20
-5.3355010775
 10
39.2263715154
 20
-5.4999884819
  0
LWPOLYLINE
  5
40A
100
AcDbEntity
  8
RACCORDO
100
AcDbPolyline
 62
253
  6
CONTINUOUS
 90
22
 70
0
 10
38.7370170621
 20
-2.3299004873
 10
38.7615909516
 20
-2.4618503637
 10
38.7818240919
 20
-2.5921545376
 10
38.7977164831
 20
-2.7208130089
 10
38.8091385155
 20
-2.8472268947
 10
38.8162197987
 20
-2.9719950779
 10
38.8193491612
 20
-3.0969142072
 10
38.8186440432
 20
-3.2228079135
 10
38.8139870045
 20
-3.3488525659
 10
38.8054145536
 20
-3.4743739203
 10
38.7931236932
 20
-3.5984896718
 10
38.7769174206
 20
-3.7220821254
 10
38.7562412369
 20
-3.8471239512
 10
38.7311584251
 20
-3.9742976986
 10
38.7016057022
 20
-4.1029208184
 10
38.6668387193
 20
-4.2329183325
 10
38.6266877807
 20
-4.364782791
 10
38.5813225821
 20
-4.4980216439
 10
38.5305078619
 20
-4.6310822633
 10
38.4741651993
 20
-4.7634471064
 10
38.412373015
 20
-4.895633716
 10
38.3451313091
 20
-5.0276420919
  0
LWPOLYLINE
  5
40B
100
AcDbEntity
  8
RACCORDO
100
AcDbPolyline
 62
253
  6
CONTINUOUS
 90
22
 70
0
 10
40.0790143956
 20
-2.1983723548
 10
40.1096081036
 20
-2.3634562917
 10
40.1344911858
 20
-2.5283558403
 10
40.1537474876
 20
-2.69287074
 10
40.1674385661
 20
-2.8563821378
 10
40.1757167919
 20
-3.0191271686
 10
40.1786860602
 20
-3.1822061079
 10
40.1763131496
 20
-3.345942762
 10
40.1685685689
 20
-3.5096642814
 10
40.1554663041
 20
-3.6729818413
 10
40.1370898862
 20
-3.8352327158
 10
40.1134335972
 20
-3.9967354923
 10
40.0842845082
 20
-4.1585577807
 10
40.0494564623
 20
-4.3209400373
 10
40.0089430868
 20
-4.4832358363
 10
39.9626964061
 20
-4.6451564142
 10
39.9105853715
 20
-4.8067061206
 10
39.8526214549
 20
-4.9674401628
 10
39.7890647585
 20
-5.1264165354
 10
39.7200652448
 20
-5.2832008525
 10
39.6455797205
 20
-5.4378366501
 10
39.565664089
 20
-5.5901263733
  0
LWPOLYLINE
  5
40C
100
AcDbEntity
  8
RACCORDO
100
AcDbPolyline
 62
253
  6
CONTINUOUS
 90
22
 70
0
 10
42.0388518918
 20
-1.8011084068
 10
42.0814626616
 20
-2.0326758696
 10
42.1163286808
 20
-2.2634403569
 10
42.1434499492
 20
-2.4934018687
 10
42.1627416465
 20
-2.7222180102
 10
42.174288593
 20
-2.9502311762
 10
42.1783452498
 20
-3.1784685515
 10
42.1749862534
 20
-3.4076168348
 10
42.1641369671
 20
-3.6369893274
 10
42.1458279425
 20
-3.8655531179
 10
42.1201960921
 20
-4.0926412536
 10
42.0871045034
 20
-4.3189206873
 10
42.0461729895
 20
-4.5453593666
 10
41.9973596978
 20
-4.7726097785
 10
41.940706481
 20
-5.000019436
 10
41.8759587101
 20
-5.2265988259
 10
41.8029135729
 20
-5.4526513134
 10
41.7217738815
 20
-5.6778735333
 10
41.632893444
 20
-5.9003658762
 10
41.5363901964
 20
-6.1194951388
 10
41.4321462026
 20
-6.3358945243
 10
41.3201614626
 20
-6.5495640327
  0
LWPOLYLINE
  5
40D
100
AcDbEntity
  8
RACCORDO
100
AcDbPolyline
 62
253
  6
CONTINUOUS
 90
22
 70
0
 10
38.5097287873
 20
-22.80704696
 10
38.4543620175
 20
-22.9651474232
 10
38.394720037
 20
-23.1188739381
 10
38.331109648
 20
-23.2681531131
 10
38.2642340395
 20
-23.4120989455
 10
38.1940398952
 20
-23.5515244126
 10
38.1194593547
 20
-23.6888110003
 10
38.0400111587
 20
-23.8247144157
 10
37.9562482391
 20
-23.9581651514
 10
37.8684596413
 20
-24.0887118368
 10
37.7774286869
 20
-24.2153262319
 10
37.6826431588
 20
-24.3388506991
 10
37.5822588621
 20
-24.4614919961
 10
37.4756448385
 20
-24.5835431682
 10
37.363197648
 20
-24.7040811838
 10
37.2443585425
 20
-24.8232518526
 10
37.1185771937
 20
-24.9410704625
 10
36.9861692903
 20
-25.0567109546
 10
36.8479288578
 20
-25.1690743099
 10
36.7041710555
 20
-25.2776064539
 10
36.5546479873
 20
-25.3822014436
 10
36.3994115125
 20
-25.4825093175
  0
LWPOLYLINE
  5
40E
100
AcDbEntity
  8
RACCORDO
100
AcDbPolyline
 62
253
  6
CONTINUOUS
 90
22
 70
0
 10
38.7886299707
 20
-23.049547318
 10
38.7325829305
 20
-23.2078110551
 10
38.6716825375
 20
-23.3630597943
 10
38.6061015343
 20
-23.5151620277
 10
38.5362026571
 20
-23.6636125913
 10
38.4619992956
 20
-23.8086930352
 10
38.3830312877
 20
-23.9514081735
 10
38.2991079597
 20
-24.0920218202
 10
38.2105401965
 20
-24.2299365249
 10
38.1175345223
 20
-24.3648225482
 10
38.0204946404
 20
-24.4961477184
 10
37.9192563049
 20
-24.6241850811
 10
37.8131013091
 20
-24.7497527493
 10
37.7017482083
 20
-24.8729658857
 10
37.5855146964
 20
-24.9932614827
 10
37.4645036071
 20
-25.1103654762
 10
37.3385992742
 20
-25.2242161087
 10
37.2080340287
 20
-25.3344339142
 10
37.0735041288
 20
-25.4403331432
 10
36.9353566385
 20
-25.5416125879
 10
36.7935323835
 20
-25.6382883549
 10
36.6481785548
 20
-25.7302173081
  0
LWPOLYLINE
  5
40F
100
AcDbEntity
  8
RACCORDO
100
AcDbPolyline
 62
253
  6
CONTINUOUS
 90
22
 70
0
 10
40.6845310036
 20
-23.6854253951
 10
40.6056492814
 20
-23.9072740855
 10
40.5204618961
 20
-24.1245550034
 10
40.4289688476
 20
-24.3372681487
 10
40.3312678768
 20
-24.5450745887
 10
40.2272612428
 20
-24.7483132561
 10
40.116655723
 20
-24.9480009496
 10
39.9991726051
 20
-25.1447696859
 10
39.8750906013
 20
-25.3379874483
 10
39.7449526256
 20
-25.526774985
 10
39.6092107242
 20
-25.7106231542
 10
39.4674128509
 20
-25.8900410978
 10
39.3187457804
 20
-26.0656769895
 10
39.1628470238
 20
-26.2380749734
 10
39.0000790701
 20
-26.4066909055
 10
38.8307161607
 20
-26.5705405276
 10
38.6544309724
 20
-26.7297851558
 10
38.4715508285
 20
-26.8842634741
 10
38.2833319403
 20
-27.0325072763
 10
38.090193045
 20
-27.1740271606
 10
37.8917154054
 20
-27.3093125289
 10
37.6878990216
 20
-27.4383633813
  0
LWPOLYLINE
  5
410
100
AcDbEntity
  8
RACCORDO
100
AcDbPolyline
 62
253
  6
CONTINUOUS
 90
22
 70
0
 10
27.1252514655
 20
-40.1125402603
 10
26.9982522046
 20
-40.2217758929
 10
26.869737477
 20
-40.3250859698
 10
26.7400096767
 20
-40.4225603331
 10
26.6101207846
 20
-40.5137832764
 10
26.4796181389
 20
-40.5994322007
 10
26.3463862024
 20
-40.681035603
 10
26.2096303387
 20
-40.7590073152
 10
26.0703641545
 20
-40.8326975827
 10
25.9290636559
 20
-40.9018600297
 10
25.7869213394
 20
-40.9659958352
 10
25.6430724306
 20
-41.0255783977
 10
25.4948164309
 20
-41.0815967281
 10
25.3414603921
 20
-41.1339891319
 10
25.1838092607
 20
-41.1821545202
 10
25.021306242
 20
-41.2259397941
 10
24.8534670937
 20
-41.2650830289
 10
24.6809782396
 20
-41.2990266811
 10
24.5050768356
 20
-41.3272159849
 10
24.3263128548
 20
-41.3493286776
 10
24.1445245844
 20
-41.3651490617
 10
23.9599319167
 20
-41.3743999913
  0
LWPOLYLINE
  5
411
100
AcDbEntity
  8
RACCORDO
100
AcDbPolyline
 62
253
  6
CONTINUOUS
 90
22
 70
0
 10
26.4606314256
 20
-39.365562606
 10
26.3586464254
 20
-39.4528191568
 10
26.2559162707
 20
-39.5354936573
 10
26.1524409618
 20
-39.6135861073
 10
26.0486743415
 20
-39.6866848205
 10
25.9441625668
 20
-39.7552014832
 10
25.8375441087
 20
-39.8203711554
 10
25.7281644018
 20
-39.8827073584
 10
25.6166780115
 20
-39.9416965708
 10
25.5036871044
 20
-39.9970332877
 10
25.3900542804
 20
-40.0484469661
 10
25.2749169396
 20
-40.0962081492
 10
25.1562894501
 20
-40.1408229617
 10
25.0336123482
 20
-40.1826874832
 10
24.9074450975
 20
-40.2214056343
 10
24.7774804564
 20
-40.2562953009
 10
24.6432070162
 20
-40.2874557974
 10
24.5051361855
 20
-40.3147878095
 10
24.3644949488
 20
-40.3373112805
 10
24.2216923008
 20
-40.354699525
 10
24.0763192467
 20
-40.3672792284
 10
23.9283757866
 20
-40.3750503908
  0
LWPOLYLINE
  5
412
100
AcDbEntity
  8
RACCORDO
100
AcDbPolyline
 62
253
  6
CONTINUOUS
 90
22
 70
0
 10
27.2455367964
 20
-40.4620023224
 10
27.1178667673
 20
-40.5710392192
 10
26.9875011103
 20
-40.6750383748
 10
26.8546551788
 20
-40.7739722712
 10
26.7198956936
 20
-40.8675847919
 10
26.5830934755
 20
-40.9561264612
 10
26.4433476055
 20
-41.0402373925
 10
26.3003610481
 20
-41.1200507187
 10
26.1547017629
 20
-41.1952044748
 10
26.0067134747
 20
-41.2655163605
 10
25.8570118867
 20
-41.3307273531
 10
25.7053182349
 20
-41.3909917941
 10
25.5506014778
 20
-41.4466590868
 10
25.3925602954
 20
-41.4976882425
 10
25.2317513229
 20
-41.5437505296
 10
25.0684006487
 20
-41.5846600183
 10
24.9024389817
 20
-41.6203053917
 10
24.7342572595
 20
-41.6504741885
 10
24.5648013341
 20
-41.6749206611
 10
24.3945223757
 20
-41.6935574879
 10
24.2233610845
 20
-41.7063690306
 10
24.0515164997
 20
-41.7133049251
  0
LWPOLYLINE
  5
413
100
AcDbEntity
  8
RACCORDO
100
AcDbPolyline
 62
253
  6
CONTINUOUS
 90
22
 70
0
 10
28.5694962155
 20
-41.9606394074
 10
28.390258295
 20
-42.1133251479
 10
28.2078433962
 20
-42.2589022499
 10
28.0222515193
 20
-42.3973707132
 10
27.8337367766
 20
-42.5284858839
 10
27.6420450557
 20
-42.652492416
 10
27.446414019
 20
-42.7701242715
 10
27.2462862862
 20
-42.8817894368
 10
27.0422192376
 20
-42.9870799256
 10
26.8351226763
 20
-43.0855057405
 10
26.6256426567
 20
-43.1768519747
 10
26.4131331244
 20
-43.2613335351
 10
26.1965657188
 20
-43.3391051439
 10
25.9753544433
 20
-43.4104567992
 10
25.7500852944
 20
-43.475098503
 10
25.5214879013
 20
-43.5323149835
 10
25.2891981359
 20
-43.5820822828
 10
25.0535801263
 20
-43.6244243588
 10
24.8164558865
 20
-43.6586978134
 10
24.5784327546
 20
-43.6846881807
 10
24.3389033924
 20
-43.7026099266
 10
24.0978678002
 20
-43.7124630512
  0
LWPOLYLINE
  5
414
100
AcDbEntity
  8
RACCORDO
100
AcDbPolyline
 62
253
  6
CONTINUOUS
 90
22
 70
0
 10
-3.1415056834
 20
-51.0112311785
 10
-3.3498111709
 20
-51.1203287811
 10
-3.559685265
 20
-51.2218221192
 10
-3.7711279655
 20
-51.3157111927
 10
-3.9838461169
 20
-51.4018205713
 10
-4.1981328747
 20
-51.4803256853
 10
-4.414867706
 20
-51.5517528259
 10
-4.6346675963
 20
-51.6163705702
 10
-4.8569155601
 20
-51.6739103411
 10
-5.0806401082
 20
-51.724092698
 10
-5.3051578158
 20
-51.7668540097
 10
-5.5311521076
 20
-51.8022579074
 10
-5.759701769
 20
-51.8302158444
 10
-5.991506554
 20
-51.850880616
 10
-6.2258667085
 20
-51.8640994268
 10
-6.4617617558
 20
-51.8693253443
 10
-6.6994945934
 20
-51.8664432656
 10
-6.9387623239
 20
-51.8555682935
 10
-7.1776357776
 20
-51.8364988041
 10
-7.4154718981
 20
-51.8091675893
 10
-7.6529137419
 20
-51.7736418571
 10
-7.889961309
 20
-51.7299216076
  0
LWPOLYLINE
  5
415
100
AcDbEntity
  8
0
100
AcDbPolyline
 62
7
  6
CONTINUOUS
 90
8
 70
0
 10
68.5054893937
 20
55.4109575319
 10
68.5195293519
 20
55.4132374988
 10
68.5340821455
 20
55.416153272
 10
68.5489433322
 20
55.4196773422
 10
68.5639694318
 20
55.4234301612
 10
68.5790263535
 20
55.4273297299
 10
68.5939636671
 20
55.4316103625
 10
68.6086518437
 20
55.4363358316
  0
LINE
  5
416
100
AcDbEntity
  8
0
100
AcDbLine
 62
7
  6
CONTINUOUS
 10
68.47990189
 20
55.4072330219
 11
68.5054893937
 21
55.4109575319
  0
LWPOLYLINE
  5
417
100
AcDbEntity
  8
0
100
AcDbPolyline
 62
7
  6
CONTINUOUS
 90
10
 70
0
 10
68.47990189
 20
55.4072330219
 10
68.4755438272
 20
55.4069818006
 10
68.4711990248
 20
55.4070053695
 10
68.4668760585
 20
55.4073120595
 10
68.4625737346
 20
55.4079137678
 10
68.4583103659
 20
55.4088139972
 10
68.4541225479
 20
55.4100056032
 10
68.4500264916
 20
55.4114876105
 10
68.446019174
 20
55.4132673797
 10
68.4421067916
 20
55.4153471294
  0
LWPOLYLINE
  5
418
100
AcDbEntity
  8
0
100
AcDbPolyline
 62
7
  6
CONTINUOUS
 90
10
 70
0
 10
-64.4561729731
 20
55.4072330219
 10
-64.4605310359
 20
55.4069818006
 10
-64.4648758383
 20
55.4070053695
 10
-64.4691988045
 20
55.4073120595
 10
-64.4735011284
 20
55.4079137678
 10
-64.4777644972
 20
55.4088139972
 10
-64.4819523151
 20
55.4100056032
 10
-64.4860483715
 20
55.4114876105
 10
-64.4900556891
 20
55.4132673797
 10
-64.4939680715
 20
55.4153471294
  0
LINE
  5
419
100
AcDbEntity
  8
0
100
AcDbLine
 62
253
  6
CONTINUOUS
 10
65.1844367598
 20
56.1854178561
 11
65.284123016
 21
56.1890859441
  0
LINE
  5
41A
100
AcDbEntity
  8
0
100
AcDbLine
 62
253
  6
CONTINUOUS
 10
-67.7516381033
 20
56.1854178561
 11
-67.6519518471
 21
56.1890859441
  0
LWPOLYLINE
  5
41B
100
AcDbEntity
  8
0
100
AcDbPolyline
 62
253
  6
CONTINUOUS
 90
16
 70
0
 10
67.9060809129
 20
55.9005371141
 10
67.8947744328
 20
55.9004946346
 10
67.8834455658
 20
55.9005172325
 10
67.8722399364
 20
55.9006046186
 10
67.8613015866
 20
55.9007556709
 10
67.8507711309
 20
55.9009684486
 10
67.8407839472
 20
55.9012402173
 10
67.8314684252
 20
55.9015674841
 10
67.8229443269
 20
55.9019460431
 10
67.8153212492
 20
55.9023710279
 10
67.8086971968
 20
55.9028369758
 10
67.8031573354
 20
55.9033378973
 10
67.7987728991
 20
55.9038673526
 10
67.7956002598
 20
55.9044185352
 10
67.793680208
 20
55.9049843597
 10
67.7930374346
 20
55.9055575519
  0
LWPOLYLINE
  5
41C
100
AcDbEntity
  8
0
100
AcDbPolyline
 62
253
  6
CONTINUOUS
 90
16
 70
0
 10
-65.0299939502
 20
55.9005371141
 10
-65.0413004303
 20
55.9004946346
 10
-65.0526292972
 20
55.9005172325
 10
-65.0638349267
 20
55.9006046186
 10
-65.0747732764
 20
55.9007556709
 10
-65.0853037322
 20
55.9009684486
 10
-65.0952909159
 20
55.9012402173
 10
-65.1046064379
 20
55.9015674841
 10
-65.1131305362
 20
55.9019460431
 10
-65.1207536139
 20
55.9023710279
 10
-65.1273776662
 20
55.9028369758
 10
-65.1329175277
 20
55.9033378973
 10
-65.137301964
 20
55.9038673526
 10
-65.1404746033
 20
55.9044185352
 10
-65.1423946551
 20
55.9049843597
 10
-65.1430374285
 20
55.9055575519
  0
LWPOLYLINE
  5
41D
100
AcDbEntity
  8
0
100
AcDbPolyline
 62
253
  6
CONTINUOUS
 90
13
 70
0
 10
-66.0444867038
 20
57.3062595086
 10
-66.0313031053
 20
57.3061570274
 10
-66.018324001
 20
57.3057938584
 10
-66.005775578
 20
57.3051763305
 10
-65.9938765178
 20
57.3043152055
 10
-65.9828341856
 20
57.3032254902
 10
-65.9728410163
 20
57.301926175
 10
-65.9640711609
 20
57.3004399032
 10
-65.9566774519
 20
57.298792576
 10
-65.9507887395
 20
57.2970129016
 10
-65.9465076464
 20
57.2951318943
 10
-65.9439087792
 20
57.2931823345
 10
-65.9430374285
 20
57.2911981973
  0
LWPOLYLINE
  5
41E
100
AcDbEntity
  8
0
100
AcDbPolyline
 62
253
  6
CONTINUOUS
 90
13
 70
0
 10
66.8915881592
 20
57.3062595086
 10
66.9047717578
 20
57.3061570274
 10
66.9177508621
 20
57.3057938584
 10
66.9302992851
 20
57.3051763305
 10
66.9421983453
 20
57.3043152055
 10
66.9532406775
 20
57.3032254902
 10
66.9632338468
 20
57.301926175
 10
66.9720037022
 20
57.3004399032
 10
66.9793974112
 20
57.298792576
 10
66.9852861236
 20
57.2970129016
 10
66.9895672167
 20
57.2951318943
 10
66.9921660839
 20
57.2931823345
 10
66.9930374346
 20
57.2911981973
  0
LWPOLYLINE
  5
41F
100
AcDbEntity
  8
0
100
AcDbPolyline
 62
253
  6
CONTINUOUS
 90
13
 70
0
 10
67.9060809129
 20
-77.035537749
 10
67.9064879585
 20
-77.0444396558
 10
67.9076259702
 20
-77.0531435346
 10
67.9095021468
 20
-77.0616613614
 10
67.9121587204
 20
-77.0700743455
 10
67.9155665685
 20
-77.0783198747
 10
67.9196310979
 20
-77.0861863187
 10
67.9243865783
 20
-77.093647785
 10
67.9298230762
 20
-77.1007251074
 10
67.9357869294
 20
-77.1072653149
 10
67.9422364142
 20
-77.1132081007
 10
67.9492389042
 20
-77.1185895783
 10
67.9568055505
 20
-77.1233953987
  0
LWPOLYLINE
  5
420
100
AcDbEntity
  8
0
100
AcDbPolyline
 62
253
  6
CONTINUOUS
 90
13
 70
0
 10
67.9060809129
 20
55.9005371141
 10
67.9064879585
 20
55.8916352073
 10
67.9076259702
 20
55.8829313284
 10
67.9095021468
 20
55.8744135017
 10
67.9121587204
 20
55.8660005175
 10
67.9155665685
 20
55.8577549884
 10
67.9196310979
 20
55.8498885444
 10
67.9243865783
 20
55.8424270781
 10
67.9298230762
 20
55.8353497556
 10
67.9357869294
 20
55.8288095482
 10
67.9422364142
 20
55.8228667624
 10
67.9492389042
 20
55.8174852848
 10
67.9568055505
 20
55.8126794644
  0
LWPOLYLINE
  5
421
100
AcDbEntity
  8
0
100
AcDbPolyline
 62
253
  6
CONTINUOUS
 90
10
 70
0
 10
65.1844367598
 20
-76.750657007
 10
65.1843926696
 20
-76.7435655347
 10
65.1848553404
 20
-76.7363683834
 10
65.1858260627
 20
-76.7290714703
 10
65.187293931
 20
-76.7216601656
 10
65.1892725908
 20
-76.7141613551
 10
65.1917993862
 20
-76.7066436958
 10
65.194886743
 20
-76.6991346436
 10
65.1985230173
 20
-76.6916201993
 10
65.2027086491
 20
-76.6841071504
  0
LWPOLYLINE
  5
422
100
AcDbEntity
  8
0
100
AcDbPolyline
 62
253
  6
CONTINUOUS
 90
10
 70
0
 10
65.1844367598
 20
56.1854178561
 10
65.1843926696
 20
56.1925093284
 10
65.1848553404
 20
56.1997064797
 10
65.1858260627
 20
56.2070033928
 10
65.187293931
 20
56.2144146975
 10
65.1892725908
 20
56.2219135079
 10
65.1917993862
 20
56.2294311673
 10
65.194886743
 20
56.2369402195
 10
65.1985230173
 20
56.2444546637
 10
65.2027086491
 20
56.2519677127
  0
LWPOLYLINE
  5
423
100
AcDbEntity
  8
0
100
AcDbPolyline
 62
7
  6
CONTINUOUS
 90
8
 70
0
 10
67.8899446123
 20
-78.2293213738
 10
67.8898778903
 20
-78.2158038694
 10
67.8895151943
 20
-78.2023938181
 10
67.8888685555
 20
-78.1892575596
 10
67.8881214649
 20
-78.1766026237
 10
67.8872682843
 20
-78.1646212543
 10
67.8861319139
 20
-78.1534779672
 10
67.8846294945
 20
-78.1433556574
  0
LWPOLYLINE
  5
424
100
AcDbEntity
  8
0
100
AcDbPolyline
 62
7
  6
CONTINUOUS
 90
8
 70
0
 10
67.8899446123
 20
54.7067534892
 10
67.8898778903
 20
54.7202709937
 10
67.8895151943
 20
54.733681045
 10
67.8888685555
 20
54.7468173035
 10
67.8881214649
 20
54.7594722393
 10
67.8872682843
 20
54.7714536087
 10
67.8861319139
 20
54.7825968959
 10
67.8846294945
 20
54.7927192057
  0
LINE
  5
425
100
AcDbEntity
  8
0
100
AcDbLine
 62
253
  6
CONTINUOUS
 10
66.8915881592
 20
-75.6298153544
 11
66.8915881592
 21
-74.8771280888
  0
LINE
  5
426
100
AcDbEntity
  8
0
100
AcDbLine
 62
253
  6
CONTINUOUS
 10
66.8915881592
 20
57.3062595086
 11
66.8915881592
 21
58.0589467743
  0
LINE
  5
427
100
AcDbEntity
  8
0
100
AcDbLine
 62
7
  6
CONTINUOUS
 10
66.9930374346
 20
-75.6448766658
 11
66.9930374346
 21
-75.0108659837
  0
LINE
  5
428
100
AcDbEntity
  8
0
100
AcDbLine
 62
7
  6
CONTINUOUS
 10
66.9930374346
 20
57.2911981973
 11
66.9930374346
 21
57.9252088794
  0
LINE
  5
429
100
AcDbEntity
  8
0
100
AcDbLine
 62
7
  6
CONTINUOUS
 10
67.7930374346
 20
-77.0305173119
 11
67.7930374346
 21
-75.2250669717
  0
LINE
  5
42A
100
AcDbEntity
  8
0
100
AcDbLine
 62
7
  6
CONTINUOUS
 10
67.7930374346
 20
55.9055575512
 11
67.7930374346
 21
57.7110078913
  0
LINE
  5
42B
100
AcDbEntity
  8
0
100
AcDbLine
 62
253
  6
CONTINUOUS
 10
67.9059968623
 20
55.9771924375
 11
67.9060809129
 21
55.9005371141
  0
LINE
  5
42C
100
AcDbEntity
  8
0
100
AcDbLine
 62
253
  6
CONTINUOUS
 10
67.9060850482
 20
-76.180069112
 11
67.9061846804
 21
-76.6523002709
  0
LWPOLYLINE
  5
42D
100
AcDbEntity
  8
0
100
AcDbPolyline
 62
253
  6
CONTINUOUS
 90
3
 70
0
 10
67.9060809129
 20
-76.6841071504
 10
67.9059968623
 20
-76.9588824256
 10
67.9060809129
 20
-77.035537749
  0
LINE
  5
42E
100
AcDbEntity
  8
0
100
AcDbLine
 62
253
  6
CONTINUOUS
 10
67.9060809129
 20
-75.1214757507
 11
67.9060850482
 21
-76.180069112
  0
LINE
  5
42F
100
AcDbEntity
  8
0
100
AcDbLine
 62
253
  6
CONTINUOUS
 10
67.9060809129
 20
57.8145991124
 11
67.9059968623
 21
55.9771924375
  0
LINE
  5
430
100
AcDbEntity
  8
0
100
AcDbLine
 62
253
  6
CONTINUOUS
 10
67.9061846804
 20
-76.6523002709
 11
67.9060809129
 21
-76.6841071504
  0
LINE
  5
431
100
AcDbEntity
  8
0
100
AcDbLine
 62
7
  6
CONTINUOUS
 10
67.8897941843
 20
54.679933166
 11
67.8899446123
 21
54.7067534892
  0
LINE
  5
432
100
AcDbEntity
  8
0
100
AcDbLine
 62
7
  6
CONTINUOUS
 10
67.8897941843
 20
-78.2561416971
 11
67.8899446123
 21
-78.2293213738
  0
LWPOLYLINE
  5
433
100
AcDbEntity
  8
0
100
AcDbPolyline
 62
7
  6
CONTINUOUS
 90
10
 70
0
 10
67.7930374346
 20
57.7110078913
 10
67.7933207905
 20
57.7172590481
 10
67.7940380234
 20
57.7231443478
 10
67.7951959841
 20
57.7286636079
 10
67.7968281841
 20
57.7338277998
 10
67.798913395
 20
57.7386242142
 10
67.8013755667
 20
57.7430173556
 10
67.8041923416
 20
57.7469950566
 10
67.8073951362
 20
57.7505675628
 10
67.8109876822
 20
57.7537333399
  0
LWPOLYLINE
  5
434
100
AcDbEntity
  8
0
100
AcDbPolyline
 62
7
  6
CONTINUOUS
 90
10
 70
0
 10
67.7930374346
 20
-75.2250669717
 10
67.7933207905
 20
-75.218815815
 10
67.7940380234
 20
-75.2129305153
 10
67.7951959841
 20
-75.2074112551
 10
67.7968281841
 20
-75.2022470632
 10
67.798913395
 20
-75.1974506489
 10
67.8013755667
 20
-75.1930575075
 10
67.8041923416
 20
-75.1890798065
 10
67.8073951362
 20
-75.1855073003
 10
67.8109876822
 20
-75.1823415232
  0
LWPOLYLINE
  5
435
100
AcDbEntity
  8
0
100
AcDbPolyline
 62
7
  6
CONTINUOUS
 90
8
 70
0
 10
-64.4305854693
 20
55.4109575319
 10
-64.4165455112
 20
55.4132374988
 10
-64.4019927176
 20
55.416153272
 10
-64.3871315309
 20
55.4196773422
 10
-64.3721054313
 20
55.4234301612
 10
-64.3570485095
 20
55.4273297299
 10
-64.342111196
 20
55.4316103625
 10
-64.3274230194
 20
55.4363358316
  0
LINE
  5
436
100
AcDbEntity
  8
0
100
AcDbLine
 62
7
  6
CONTINUOUS
 10
-64.4561729731
 20
55.4072330219
 11
-64.4305854693
 21
55.4109575319
  0
LWPOLYLINE
  5
437
100
AcDbEntity
  8
RACCORDO
100
AcDbPolyline
 62
253
  6
CONTINUOUS
 90
10
 70
0
 10
-17.0489043653
 20
-113.7172418199
 10
-17.0466574349
 20
-113.7152927252
 10
-17.044410575
 20
-113.7132319418
 10
-17.0421637905
 20
-113.7110594715
 10
-17.0399170903
 20
-113.7087753171
 10
-17.0376704753
 20
-113.7063794799
 10
-17.0354239378
 20
-113.7038719599
 10
-17.0331774781
 20
-113.7012527582
 10
-17.0309311048
 20
-113.6985218772
 10
-17.0286848221
 20
-113.6956793189
  0
LINE
  5
438
100
AcDbEntity
  8
RACCORDO
100
AcDbLine
 62
253
  6
CONTINUOUS
 10
-17.0664709918
 20
-113.7319629345
 11
-17.0489043653
 21
-113.7172418199
  0
LWPOLYLINE
  5
439
100
AcDbEntity
  8
0
100
AcDbPolyline
 62
253
  6
CONTINUOUS
 90
13
 70
0
 10
66.2321678694
 20
55.6369641651
 10
66.2242553298
 20
55.6410623485
 10
66.2161490876
 20
55.6444285955
 10
66.207835176
 20
55.647062652
 10
66.1992222964
 20
55.6489685048
 10
66.1903790946
 20
55.650140096
 10
66.1815357164
 20
55.6505536459
 10
66.1726976985
 20
55.6501668443
 10
66.1638517173
 20
55.6489984133
 10
66.1552058949
 20
55.6471041711
 10
66.1468329144
 20
55.6444898598
 10
66.138668199
 20
55.6411154655
 10
66.130718594
 20
55.6369641651
  0
LWPOLYLINE
  5
43A
100
AcDbEntity
  8
0
100
AcDbPolyline
 62
253
  6
CONTINUOUS
 90
3
 70
0
 10
66.3284838962
 20
55.581401843
 10
66.2574276473
 20
55.6222420108
 10
66.2321678694
 20
55.6369641651
  0
LINE
  5
43B
100
AcDbEntity
  8
0
100
AcDbLine
 62
7
  6
CONTINUOUS
 10
67.8566032944
 20
54.8296273004
 11
66.2930374346
 21
55.7323524704
  0
LINE
  5
43C
100
AcDbEntity
  8
0
100
AcDbLine
 62
7
  6
CONTINUOUS
 10
67.8930374346
 20
55.7323524704
 11
68.4421067916
 21
55.4153471294
  0
LINE
  5
43D
100
AcDbEntity
  8
0
100
AcDbLine
 62
253
  6
CONTINUOUS
 10
67.3257870277
 20
55.0055936873
 11
66.4144907221
 21
55.5316920066
  0
LINE
  5
43E
100
AcDbEntity
  8
0
100
AcDbLine
 62
253
  6
CONTINUOUS
 10
67.8897941843
 20
54.679933166
 11
67.3257870277
 21
55.0055936873
  0
LINE
  5
43F
100
AcDbEntity
  8
0
100
AcDbLine
 62
253
  6
CONTINUOUS
 10
67.9568055505
 20
55.8126794644
 11
68.6086518437
 21
55.4363358316
  0
LINE
  5
440
100
AcDbEntity
  8
0
100
AcDbLine
 62
253
  6
CONTINUOUS
 10
66.4144907221
 20
55.5316920066
 11
66.3284838962
 21
55.581401843
  0
LWPOLYLINE
  5
441
100
AcDbEntity
  8
0
100
AcDbPolyline
 62
7
  6
CONTINUOUS
 90
10
 70
0
 10
67.8566032944
 20
54.8296273004
 10
67.861875277
 20
54.8262563286
 10
67.8666134796
 20
54.8226925368
 10
67.8708143188
 20
54.8189300834
 10
67.8744705402
 20
54.8149344608
 10
67.8775817514
 20
54.810730408
 10
67.8801552376
 20
54.8064015341
 10
67.8821916402
 20
54.8019732849
 10
67.883684124
 20
54.7974133303
 10
67.8846294945
 20
54.7927192057
  0
LWPOLYLINE
  5
442
100
AcDbEntity
  8
0
100
AcDbPolyline
 62
253
  6
CONTINUOUS
 90
16
 70
0
 10
65.254637287
 20
56.3025937154
 10
65.2601355216
 20
56.2927125191
 10
65.2658823245
 20
56.2829490055
 10
65.2718038276
 20
56.2734286783
 10
65.2778239075
 20
56.2642739302
 10
65.2838651886
 20
56.2556024304
 10
65.2898500382
 20
56.2475256199
 10
65.2957015352
 20
56.2401473208
 10
65.3013444406
 20
56.2335624181
 10
65.3067061918
 20
56.2278555978
 10
65.3117178602
 20
56.2231002324
 10
65.3163150118
 20
56.2193574696
 10
65.320438525
 20
56.2166754476
 10
65.3240353852
 20
56.2150886464
 10
65.3270593599
 20
56.2146174602
 10
65.3294715748
 20
56.2152679464
  0
LWPOLYLINE
  5
443
100
AcDbEntity
  8
0
100
AcDbPolyline
 62
7
  6
CONTINUOUS
 90
8
 70
0
 10
65.5084752736
 20
-77.5734238786
 10
65.5034298037
 20
-77.5867228224
 10
65.4986785407
 20
-77.600783798
 10
65.4942998816
 20
-77.6154159983
 10
65.4900368684
 20
-77.6303053918
 10
65.4858855331
 20
-77.6452948529
 10
65.4821240129
 20
-77.6603712621
 10
65.4788723009
 20
-77.6754543308
  0
LINE
  5
444
100
AcDbEntity
  8
0
100
AcDbLine
 62
7
  6
CONTINUOUS
 10
65.5180435052
 20
-77.5494021953
 11
65.5084752736
 21
-77.5734238786
  0
LWPOLYLINE
  5
445
100
AcDbEntity
  8
0
100
AcDbPolyline
 62
7
  6
CONTINUOUS
 90
10
 70
0
 10
65.5180435052
 20
-77.5494021953
 10
65.5200049726
 20
-77.5455023915
 10
65.522197785
 20
-77.5417514668
 10
65.5246248695
 20
-77.5381610132
 10
65.5272971261
 20
-77.5347359455
 10
65.530208432
 20
-77.5314938746
 10
65.5333343021
 20
-77.5284629209
 10
65.5366657863
 20
-77.5256566356
 10
65.5402107704
 20
-77.5230760814
 10
65.5439680776
 20
-77.5207277337
  0
LWPOLYLINE
  5
446
100
AcDbEntity
  8
RACCORDO
100
AcDbPolyline
 62
253
  6
CONTINUOUS
 90
9
 70
0
 10
-17.0286848221
 20
-113.6956793189
 10
-17.0191459822
 20
-113.6901361557
 10
-17.0004794052
 20
-113.6856896552
 10
-16.9726879257
 20
-113.6823434316
 10
-16.9357647903
 20
-113.6800995106
 10
-16.889721834
 20
-113.6789556244
 10
-16.8345895362
 20
-113.6789056321
 10
-16.7702791838
 20
-113.6799433322
 10
-16.6968832827
 20
-113.6820592792
  0
LWPOLYLINE
  5
447
100
AcDbEntity
  8
0
100
AcDbPolyline
 62
7
  6
CONTINUOUS
 90
8
 70
0
 10
66.9651476364
 20
57.9822946217
 10
66.9561531482
 20
57.9933135988
 10
66.9463516177
 20
58.004458801
 10
66.93586909
 20
58.0155669312
 10
66.9251060036
 20
58.0267035057
 10
66.9142004172
 20
58.037793398
 10
66.9030246238
 20
58.0485891747
 10
66.8915881592
 20
58.0589467743
  0
LINE
  5
448
100
AcDbEntity
  8
0
100
AcDbLine
 62
7
  6
CONTINUOUS
 10
66.9811669086
 20
57.9619974485
 11
66.9651476364
 21
57.9822946217
  0
LWPOLYLINE
  5
449
100
AcDbEntity
  8
0
100
AcDbPolyline
 62
7
  6
CONTINUOUS
 90
10
 70
0
 10
66.9811669086
 20
57.9619974485
 10
66.9835635041
 20
57.958348866
 10
66.985715494
 20
57.9545743723
 10
66.9876113758
 20
57.9506772287
 10
66.9892414431
 20
57.9466504528
 10
66.9905935059
 20
57.9425081525
 10
66.9916554538
 20
57.9382855927
 10
66.992420026
 20
57.9339973002
 10
66.9928823594
 20
57.9296369768
 10
66.9930374346
 20
57.9252088794
  0
LWPOLYLINE
  5
44A
100
AcDbEntity
  8
0
100
AcDbPolyline
 62
253
  6
CONTINUOUS
 90
16
 70
0
 10
66.8408635216
 20
57.218401859
 10
66.8465534548
 20
57.2086315633
 10
66.8521982348
 20
57.1988093251
 10
66.8577253026
 20
57.1890613976
 10
66.8630636074
 20
57.1795130881
 10
66.8681445277
 20
57.1702871328
 10
66.8729027525
 20
57.161502121
 10
66.8772771119
 20
57.1532709853
 10
66.8812113595
 20
57.1456995587
 10
66.8846549043
 20
57.1388851985
 10
66.8875634705
 20
57.1329155167
 10
66.8898996528
 20
57.1278672802
 10
66.8916334002
 20
57.1238054204
 10
66.8927424175
 20
57.1207821675
 10
66.8932124449
 20
57.1188363913
 10
66.893037434
 20
57.1179931162
  0
LWPOLYLINE
  5
44B
100
AcDbEntity
  8
0
100
AcDbPolyline
 62
253
  6
CONTINUOUS
 90
13
 70
0
 10
66.130718594
 20
55.6369641651
 10
66.1242155461
 20
55.6484327371
 10
66.1180405075
 20
55.6598545557
 10
66.1123010908
 20
55.6710305728
 10
66.1070973168
 20
55.6817660237
 10
66.1025198719
 20
55.6918738216
 10
66.0986485271
 20
55.7011778177
 10
66.0955507486
 20
55.7095158711
 10
66.0932805213
 20
55.7167426745
 10
66.0918774084
 20
55.7227322862
 10
66.091365862
 20
55.7273803251
 10
66.0917547967
 20
55.73060579
 10
66.0930374346
 20
55.7323524704
  0
LWPOLYLINE
  5
44C
100
AcDbEntity
  8
0
100
AcDbPolyline
 62
253
  6
CONTINUOUS
 90
16
 70
0
 10
66.2321678694
 20
-77.299110698
 10
66.2377842272
 20
-77.289297923
 10
66.2434681453
 20
-77.2794982807
 10
66.2491465643
 20
-77.2698377356
 10
66.2547464907
 20
-77.2604404731
 10
66.2601959422
 20
-77.2514272892
 10
66.2654248732
 20
-77.2429140399
 10
66.2703660661
 20
-77.2350101656
 10
66.27495599
 20
-77.2278172941
 10
66.2791356266
 20
-77.221427917
 10
66.2828512394
 20
-77.215924184
 10
66.2860550492
 20
-77.2113768728
 10
66.2887058492
 20
-77.2078444738
 10
66.2907695542
 20
-77.2053724103
 10
66.2922196321
 20
-77.2039924666
 10
66.2930374352
 20
-77.203722393
  0
LWPOLYLINE
  5
44D
100
AcDbEntity
  8
0
100
AcDbPolyline
 62
253
  6
CONTINUOUS
 90
13
 70
0
 10
67.9568055505
 20
-77.1233953987
 10
67.9501249999
 20
-77.1347614893
 10
67.9433209341
 20
-77.1458201388
 10
67.9365119278
 20
-77.156378628
 10
67.9298166416
 20
-77.1662529539
 10
67.9233517544
 20
-77.1752710364
 10
67.9172299298
 20
-77.1832757173
 10
67.9115578529
 20
-77.190127499
 10
67.9064343712
 20
-77.1957069752
 10
67.9019487718
 20
-77.1999169125
 10
67.8981792251
 20
-77.2026839443
 10
67.8951914233
 20
-77.2039598494
 10
67.8930374346
 20
-77.2037223926
  0
LWPOLYLINE
  5
44E
100
AcDbEntity
  8
0
100
AcDbPolyline
 62
253
  6
CONTINUOUS
 90
10
 70
0
 10
65.2027086491
 20
-76.6841071504
 10
65.2069955504
 20
-76.6774385564
 10
65.2116821116
 20
-76.670997581
 10
65.2167662368
 20
-76.6647868818
 10
65.2222777076
 20
-76.6587704053
 10
65.2281830373
 20
-76.6529892174
 10
65.234384155
 20
-76.6475591746
 10
65.2408460051
 20
-76.6425175207
 10
65.2475978683
 20
-76.6378252192
 10
65.254637287
 20
-76.6334811476
  0
LWPOLYLINE
  5
44F
100
AcDbEntity
  8
0
100
AcDbPolyline
 62
253
  6
CONTINUOUS
 90
13
 70
0
 10
66.8408635216
 20
-75.7176730041
 10
66.8483692916
 20
-75.7128695249
 10
66.8553380771
 20
-75.7075320275
 10
66.8617766496
 20
-75.7016482894
 10
66.8677342213
 20
-75.6951411318
 10
66.8731711305
 20
-75.6880670814
 10
66.8779514008
 20
-75.6806138737
 10
66.8820354745
 20
-75.6727647771
 10
66.8854463602
 20
-75.6645179767
 10
66.888128414
 20
-75.6560830316
 10
66.8900502717
 20
-75.6475262283
 10
66.8912095209
 20
-75.6387711635
 10
66.8915881592
 20
-75.6298153544
  0
LWPOLYLINE
  5
450
100
AcDbEntity
  8
0
100
AcDbPolyline
 62
7
  6
CONTINUOUS
 90
8
 70
0
 10
67.8827786176
 20
-75.1347556379
 10
67.8711054763
 20
-75.141572173
 10
67.8596733792
 20
-75.1485913027
 10
67.8486203651
 20
-75.1557194376
 10
67.8380344144
 20
-75.1626939049
 10
67.8280848344
 20
-75.1694234656
 10
67.8190026499
 20
-75.1759792349
 10
67.8109876822
 20
-75.1823415232
  0
LINE
  5
451
100
AcDbEntity
  8
0
100
AcDbLine
 62
7
  6
CONTINUOUS
 10
65.2841230161
 20
-76.7469889192
 11
66.8930374346
 21
-75.8180817466
  0
LINE
  5
452
100
AcDbEntity
  8
0
100
AcDbLine
 62
7
  6
CONTINUOUS
 10
66.0930374346
 20
-77.2037223926
 11
65.5439680776
 21
-77.5207277337
  0
LINE
  5
453
100
AcDbEntity
  8
0
100
AcDbLine
 62
253
  6
CONTINUOUS
 10
66.729349756
 20
-75.7820716744
 11
66.8170687344
 21
-75.7312978462
  0
LINE
  5
454
100
AcDbEntity
  8
0
100
AcDbLine
 62
253
  6
CONTINUOUS
 10
65.254637287
 20
-76.6334811476
 11
66.729349756
 21
-75.7820716744
  0
LINE
  5
455
100
AcDbEntity
  8
0
100
AcDbLine
 62
253
  6
CONTINUOUS
 10
66.130718594
 20
-77.299110698
 11
65.4788723009
 21
-77.6754543308
  0
LINE
  5
456
100
AcDbEntity
  8
0
100
AcDbLine
 62
253
  6
CONTINUOUS
 10
66.8170687344
 20
-75.7312978462
 11
66.8408635216
 21
-75.7176730041
  0
LINE
  5
457
100
AcDbEntity
  8
0
100
AcDbLine
 62
7
  6
CONTINUOUS
 10
67.9060809129
 20
-75.1214757507
 11
67.8827786176
 21
-75.1347556379
  0
LWPOLYLINE
  5
458
100
AcDbEntity
  8
RACCORDO
100
AcDbPolyline
 62
7
  6
CONTINUOUS
 90
3
 70
0
 10
-16.6498117573
 20
-113.6913965775
 10
-16.6610312739
 20
-113.6958542258
 10
-16.7099164332
 20
-113.7117242857
  0
LINE
  5
459
100
AcDbEntity
  8
RACCORDO
100
AcDbLine
 62
253
  6
CONTINUOUS
 10
-16.691861375
 20
-113.6968634909
 11
-16.6735136148
 21
-113.6908907006
  0
CIRCLE
  5
45A
100
AcDbEntity
  8
RACCORDO
100
AcDbCircle
 62
253
  6
CONTINUOUS
 10
-65.9430374285
 20
-76.6841071504
 40
3.9499107093
  0
CIRCLE
  5
45B
100
AcDbEntity
  8
RACCORDO
100
AcDbCircle
 62
253
  6
CONTINUOUS
 10
-65.9430374285
 20
-76.6841071504
 40
3.4499868617
  0
CIRCLE
  5
45C
100
AcDbEntity
  8
DRAFT
100
AcDbCircle
 62
7
  6
CONTINUOUS
 10
-65.9430374285
 20
-76.6841071504
 40
2.9
  0
CIRCLE
  5
45D
100
AcDbEntity
  8
0
100
AcDbCircle
 62
7
  6
CONTINUOUS
 10
-65.9430374285
 20
-76.6841071504
 40
2.7226074497
  0
CIRCLE
  5
45E
100
AcDbEntity
  8
0
100
AcDbCircle
 62
253
  6
CONTINUOUS
 10
-65.9430374285
 20
-76.6841071504
 40
2.7214658591
  0
CIRCLE
  5
45F
100
AcDbEntity
  8
0
100
AcDbCircle
 62
253
  6
CONTINUOUS
 10
-65.9430374285
 20
-76.6841071504
 40
2.6357943273
  0
CIRCLE
  5
460
100
AcDbEntity
  8
0
100
AcDbCircle
 62
253
  6
CONTINUOUS
 10
-65.9430374285
 20
-76.6841071504
 40
2.4415748396
  0
ARC
  5
461
100
AcDbEntity
  8
0
100
AcDbCircle
 62
253
  6
CONTINUOUS
 10
-65.9430374285
 20
-76.6841071504
 40
1.8098246557
100
AcDbArc
 50
182.1073233326
 51
213.2133851259
  0
ARC
  5
462
100
AcDbEntity
  8
0
100
AcDbCircle
 62
253
  6
CONTINUOUS
 10
-65.9430374285
 20
-76.6841071504
 40
1.8098246557
100
AcDbArc
 50
59.702312008
 51
93.2133851259
  0
ARC
  5
463
100
AcDbEntity
  8
0
100
AcDbCircle
 62
253
  6
CONTINUOUS
 10
-65.9430374285
 20
-76.6841071504
 40
1.8098246557
100
AcDbArc
 50
299.702312008
 51
333.2133851259
  0
ARC
  5
464
100
AcDbEntity
  8
0
100
AcDbCircle
 62
253
  6
CONTINUOUS
 10
-65.9430374285
 20
-76.6841071504
 40
1.7100709361
100
AcDbArc
 50
61.4246792562
 51
90.3977241472
  0
ARC
  5
465
100
AcDbEntity
  8
0
100
AcDbCircle
 62
253
  6
CONTINUOUS
 10
-65.9430374285
 20
-76.6841071504
 40
1.7100709361
100
AcDbArc
 50
301.4246792562
 51
330.3977241472
  0
ARC
  5
466
100
AcDbEntity
  8
0
100
AcDbCircle
 62
253
  6
CONTINUOUS
 10
-65.9430374285
 20
-76.6841071504
 40
1.7100709361
100
AcDbArc
 50
182.1073233246
 51
210.3977241472
  0
CIRCLE
  5
467
100
AcDbEntity
  8
0
100
AcDbCircle
 62
7
  6
CONTINUOUS
 10
-65.9430374285
 20
-76.6841071504
 40
0.8
  0
ARC
  5
468
100
AcDbEntity
  8
0
100
AcDbCircle
 62
7
  6
CONTINUOUS
 10
-66.7430374285
 20
-77.3769274734
 40
0.2
100
AcDbArc
 50
60.0
 51
120.0
  0
ARC
  5
469
100
AcDbEntity
  8
0
100
AcDbCircle
 62
7
  6
CONTINUOUS
 10
-64.9430374285
 20
-77.0305173119
 40
0.2
100
AcDbArc
 50
180.0
 51
240.0
  0
ARC
  5
46A
100
AcDbEntity
  8
0
100
AcDbCircle
 62
7
  6
CONTINUOUS
 10
-66.1430374285
 20
-75.6448766658
 40
0.2
100
AcDbArc
 50
300.0
 51
360.0
  0
ARC
  5
46B
100
AcDbEntity
  8
RACCORDO
100
AcDbCircle
 62
253
  6
CONTINUOUS
 10
-40.6112066767
 20
-33.9660697188
 40
10.9826972631
100
AcDbArc
 50
1.8086088295
 51
58.1913911706
  0
ARC
  5
46C
100
AcDbEntity
  8
RACCORDO
100
AcDbCircle
 62
253
  6
CONTINUOUS
 10
-46.9749999969
 20
-10.2160697188
 40
10.9826972631
100
AcDbArc
 50
331.8086088295
 51
28.1913911706
  0
ARC
  5
46D
100
AcDbEntity
  8
RACCORDO
100
AcDbCircle
 62
253
  6
CONTINUOUS
 10
-40.6112066767
 20
-33.9660697188
 40
9.982849568
100
AcDbArc
 50
1.8086088295
 51
58.1913911706
  0
ARC
  5
46E
100
AcDbEntity
  8
RACCORDO
100
AcDbCircle
 62
253
  6
CONTINUOUS
 10
-46.9749999969
 20
-10.2160697188
 40
9.982849568
100
AcDbArc
 50
331.8086088295
 51
28.1913911706
  0
ARC
  5
46F
100
AcDbEntity
  8
RACCORDO
100
AcDbCircle
 62
253
  6
CONTINUOUS
 10
-40.6112066767
 20
-33.9660697188
 40
9.6415619032
100
AcDbArc
 50
1.3281881642
 51
58.671811836
  0
ARC
  5
470
100
AcDbEntity
  8
RACCORDO
100
AcDbCircle
 62
253
  6
CONTINUOUS
 10
-46.9749999969
 20
-10.2160697188
 40
9.6415619032
100
AcDbArc
 50
331.3281881642
 51
28.671811836
  0
ARC
  5
471
100
AcDbEntity
  8
RACCORDO
100
AcDbCircle
 62
253
  6
CONTINUOUS
 10
-40.6112066767
 20
-33.9660697188
 40
7.6418665129
100
AcDbArc
 50
1.3281881642
 51
58.6718118357
  0
ARC
  5
472
100
AcDbEntity
  8
RACCORDO
100
AcDbCircle
 62
253
  6
CONTINUOUS
 10
-46.9749999969
 20
-10.2160697188
 40
7.6418665129
100
AcDbArc
 50
331.3281881642
 51
28.6718118359
  0
ARC
  5
473
100
AcDbEntity
  8
RACCORDO
100
AcDbCircle
 62
253
  6
CONTINUOUS
 10
0.5250000031
 20
-57.7160697188
 40
10.9826972631
100
AcDbArc
 50
61.8086088295
 51
118.1913911706
  0
ARC
  5
474
100
AcDbEntity
  8
RACCORDO
100
AcDbCircle
 62
253
  6
CONTINUOUS
 10
-23.2249999969
 20
-51.3522763986
 40
10.9826972631
100
AcDbArc
 50
31.8086088295
 51
88.1913911706
  0
ARC
  5
475
100
AcDbEntity
  8
RACCORDO
100
AcDbCircle
 62
253
  6
CONTINUOUS
 10
-23.2249999969
 20
-51.3522763986
 40
9.982849568
100
AcDbArc
 50
31.8086088295
 51
88.1913911706
  0
ARC
  5
476
100
AcDbEntity
  8
RACCORDO
100
AcDbCircle
 62
253
  6
CONTINUOUS
 10
0.5250000031
 20
-57.7160697188
 40
9.982849568
100
AcDbArc
 50
61.8086088295
 51
118.1913911706
  0
ARC
  5
477
100
AcDbEntity
  8
RACCORDO
100
AcDbCircle
 62
253
  6
CONTINUOUS
 10
-23.2249999969
 20
-51.3522763986
 40
9.6415619032
100
AcDbArc
 50
31.3281881642
 51
88.671811836
  0
ARC
  5
478
100
AcDbEntity
  8
RACCORDO
100
AcDbCircle
 62
253
  6
CONTINUOUS
 10
0.5250000031
 20
-57.7160697188
 40
9.6415619032
100
AcDbArc
 50
61.3281881642
 51
118.671811836
  0
ARC
  5
479
100
AcDbEntity
  8
RACCORDO
100
AcDbCircle
 62
253
  6
CONTINUOUS
 10
-23.2249999969
 20
-51.3522763986
 40
7.6418665129
100
AcDbArc
 50
31.3281881642
 51
88.671811836
  0
ARC
  5
47A
100
AcDbEntity
  8
RACCORDO
100
AcDbCircle
 62
253
  6
CONTINUOUS
 10
0.5250000031
 20
-57.7160697188
 40
7.6418665129
100
AcDbArc
 50
61.3281881642
 51
118.6718118382
  0
ARC
  5
47B
100
AcDbEntity
  8
RACCORDO
100
AcDbCircle
 62
7
  6
CONTINUOUS
 10
0.5250000031
 20
-10.2160697188
 40
105.0
100
AcDbArc
 50
279.644693392
 51
260.355306608
  0
ARC
  5
47C
100
AcDbEntity
  8
RACCORDO
100
AcDbCircle
 62
253
  6
CONTINUOUS
 10
0.5250000031
 20
-10.2160697188
 40
104.9825449351
100
AcDbArc
 50
279.6365876983
 51
360.0
  0
ARC
  5
47D
100
AcDbEntity
  8
0
100
AcDbCircle
 62
253
  6
CONTINUOUS
 10
0.5250000031
 20
-10.2160697188
 40
104.9825449351
100
AcDbArc
 50
0.0
 51
180.0
  0
ARC
  5
47E
100
AcDbEntity
  8
RACCORDO
100
AcDbCircle
 62
253
  6
CONTINUOUS
 10
0.5250000031
 20
-10.2160697188
 40
104.9825449351
100
AcDbArc
 50
180.0
 51
260.3634123017
  0
ARC
  5
47F
100
AcDbEntity
  8
RACCORDO
100
AcDbCircle
 62
7
  6
CONTINUOUS
 10
0.5250000031
 20
-10.2160697188
 40
104.5678605624
100
AcDbArc
 50
264.6800252054
 51
275.3199747946
  0
ARC
  5
480
100
AcDbEntity
  8
RACCORDO
100
AcDbCircle
 62
253
  6
CONTINUOUS
 10
0.5250000031
 20
-10.2160697188
 40
104.5655145565
100
AcDbArc
 50
264.6800252054
 51
275.3199747946
  0
CIRCLE
  5
481
100
AcDbEntity
  8
RACCORDO
100
AcDbCircle
 62
253
  6
CONTINUOUS
 10
0.5250000031
 20
-10.2160697188
 40
101.2017105464
  0
CIRCLE
  5
482
100
AcDbEntity
  8
RACCORDO
100
AcDbCircle
 62
253
  6
CONTINUOUS
 10
0.5250000031
 20
-10.2160697188
 40
99.2524262813
  0
CIRCLE
  5
483
100
AcDbEntity
  8
RACCORDO
100
AcDbCircle
 62
253
  6
CONTINUOUS
 10
0.5250000031
 20
-10.2160697188
 40
56.9653945262
  0
CIRCLE
  5
484
100
AcDbEntity
  8
RACCORDO
100
AcDbCircle
 62
253
  6
CONTINUOUS
 10
0.5250000031
 20
-10.2160697188
 40
54.9656991359
  0
CIRCLE
  5
485
100
AcDbEntity
  8
RACCORDO
100
AcDbCircle
 62
253
  6
CONTINUOUS
 10
0.5250000031
 20
-10.2160697188
 40
54.9033878771
  0
CIRCLE
  5
486
100
AcDbEntity
  8
RACCORDO
100
AcDbCircle
 62
253
  6
CONTINUOUS
 10
0.5250000031
 20
-10.2160697188
 40
52.9036924868
  0
ARC
  5
487
100
AcDbEntity
  8
RACCORDO
100
AcDbCircle
 62
253
  6
CONTINUOUS
 10
0.5250000031
 20
-10.2160697188
 40
42.3581334871
100
AcDbArc
 50
221.4587408582
 51
228.5412591417
  0
ARC
  5
488
100
AcDbEntity
  8
RACCORDO
100
AcDbCircle
 62
253
  6
CONTINUOUS
 10
0.5250000031
 20
-10.2160697188
 40
42.3581334871
100
AcDbArc
 50
251.4587408582
 51
258.5412591417
  0
ARC
  5
489
100
AcDbEntity
  8
RACCORDO
100
AcDbCircle
 62
253
  6
CONTINUOUS
 10
0.5250000031
 20
-10.2160697188
 40
42.3581334871
100
AcDbArc
 50
281.4587408582
 51
288.5412591417
  0
ARC
  5
48A
100
AcDbEntity
  8
RACCORDO
100
AcDbCircle
 62
253
  6
CONTINUOUS
 10
0.5250000031
 20
-10.2160697188
 40
42.3581334871
100
AcDbArc
 50
311.4587408582
 51
318.5412591417
  0
ARC
  5
48B
100
AcDbEntity
  8
RACCORDO
100
AcDbCircle
 62
253
  6
CONTINUOUS
 10
0.5250000031
 20
-10.2160697188
 40
42.3581334871
100
AcDbArc
 50
341.4587408582
 51
348.5412591417
  0
ARC
  5
48C
100
AcDbEntity
  8
RACCORDO
100
AcDbCircle
 62
253
  6
CONTINUOUS
 10
0.5250000031
 20
-10.2160697188
 40
42.3581334871
100
AcDbArc
 50
11.4587408582
 51
18.5412591417
  0
ARC
  5
48D
100
AcDbEntity
  8
RACCORDO
100
AcDbCircle
 62
253
  6
CONTINUOUS
 10
0.5250000031
 20
-10.2160697188
 40
42.3581334871
100
AcDbArc
 50
41.4587408582
 51
48.5412591417
  0
ARC
  5
48E
100
AcDbEntity
  8
RACCORDO
100
AcDbCircle
 62
253
  6
CONTINUOUS
 10
0.5250000031
 20
-10.2160697188
 40
42.3581334871
100
AcDbArc
 50
71.4587408582
 51
78.5412591417
  0
ARC
  5
48F
100
AcDbEntity
  8
RACCORDO
100
AcDbCircle
 62
253
  6
CONTINUOUS
 10
0.5250000031
 20
-10.2160697188
 40
42.3581334871
100
AcDbArc
 50
101.4587408582
 51
108.5412591417
  0
ARC
  5
490
100
AcDbEntity
  8
RACCORDO
100
AcDbCircle
 62
253
  6
CONTINUOUS
 10
0.5250000031
 20
-10.2160697188
 40
42.3581334871
100
AcDbArc
 50
131.4587408582
 51
138.5412591417
  0
ARC
  5
491
100
AcDbEntity
  8
RACCORDO
100
AcDbCircle
 62
253
  6
CONTINUOUS
 10
0.5250000031
 20
-10.2160697188
 40
42.3581334871
100
AcDbArc
 50
161.4587408582
 51
168.5412591417
  0
ARC
  5
492
100
AcDbEntity
  8
RACCORDO
100
AcDbCircle
 62
253
  6
CONTINUOUS
 10
0.5250000031
 20
-10.2160697188
 40
42.3581334871
100
AcDbArc
 50
191.4587408582
 51
198.5412591417
  0
ARC
  5
493
100
AcDbEntity
  8
RACCORDO
100
AcDbCircle
 62
253
  6
CONTINUOUS
 10
0.5250000031
 20
-10.2160697188
 40
40.3584380968
100
AcDbArc
 50
71.4587408582
 51
78.5412591417
  0
ARC
  5
494
100
AcDbEntity
  8
RACCORDO
100
AcDbCircle
 62
253
  6
CONTINUOUS
 10
0.5250000031
 20
-10.2160697188
 40
40.3584380968
100
AcDbArc
 50
41.4587408582
 51
48.5412591417
  0
ARC
  5
495
100
AcDbEntity
  8
RACCORDO
100
AcDbCircle
 62
253
  6
CONTINUOUS
 10
0.5250000031
 20
-10.2160697188
 40
40.3584380968
100
AcDbArc
 50
11.4587408582
 51
18.5412591417
  0
ARC
  5
496
100
AcDbEntity
  8
RACCORDO
100
AcDbCircle
 62
253
  6
CONTINUOUS
 10
0.5250000031
 20
-10.2160697188
 40
40.3584380968
100
AcDbArc
 50
341.4587408582
 51
348.5412591417
  0
ARC
  5
497
100
AcDbEntity
  8
RACCORDO
100
AcDbCircle
 62
253
  6
CONTINUOUS
 10
0.5250000031
 20
-10.2160697188
 40
40.3584380968
100
AcDbArc
 50
311.4587408582
 51
318.5412591417
  0
ARC
  5
498
100
AcDbEntity
  8
RACCORDO
100
AcDbCircle
 62
253
  6
CONTINUOUS
 10
0.5250000031
 20
-10.2160697188
 40
40.3584380968
100
AcDbArc
 50
281.4587408582
 51
288.5412591417
  0
ARC
  5
499
100
AcDbEntity
  8
RACCORDO
100
AcDbCircle
 62
253
  6
CONTINUOUS
 10
0.5250000031
 20
-10.2160697188
 40
40.3584380968
100
AcDbArc
 50
251.4587408582
 51
258.5412591417
  0
ARC
  5
49A
100
AcDbEntity
  8
RACCORDO
100
AcDbCircle
 62
253
  6
CONTINUOUS
 10
0.5250000031
 20
-10.2160697188
 40
40.3584380968
100
AcDbArc
 50
221.4587408582
 51
228.5412591417
  0
ARC
  5
49B
100
AcDbEntity
  8
RACCORDO
100
AcDbCircle
 62
253
  6
CONTINUOUS
 10
0.5250000031
 20
-10.2160697188
 40
40.3584380968
100
AcDbArc
 50
191.4587408582
 51
198.5412591417
  0
ARC
  5
49C
100
AcDbEntity
  8
RACCORDO
100
AcDbCircle
 62
253
  6
CONTINUOUS
 10
0.5250000031
 20
-10.2160697188
 40
40.3584380968
100
AcDbArc
 50
161.4587408582
 51
168.5412591417
  0
ARC
  5
49D
100
AcDbEntity
  8
RACCORDO
100
AcDbCircle
 62
253
  6
CONTINUOUS
 10
0.5250000031
 20
-10.2160697188
 40
40.3584380968
100
AcDbArc
 50
131.4587408582
 51
138.5412591417
  0
ARC
  5
49E
100
AcDbEntity
  8
RACCORDO
100
AcDbCircle
 62
253
  6
CONTINUOUS
 10
0.5250000031
 20
-10.2160697188
 40
40.3584380968
100
AcDbArc
 50
101.4587408582
 51
108.5412591417
  0
ARC
  5
49F
100
AcDbEntity
  8
RACCORDO
100
AcDbCircle
 62
253
  6
CONTINUOUS
 10
0.5250000031
 20
-10.2160697188
 40
40.017150432
100
AcDbArc
 50
71.6609463184
 51
78.3390536815
  0
ARC
  5
4A0
100
AcDbEntity
  8
RACCORDO
100
AcDbCircle
 62
253
  6
CONTINUOUS
 10
0.5250000031
 20
-10.2160697188
 40
40.017150432
100
AcDbArc
 50
41.6609463184
 51
48.3390536815
  0
ARC
  5
4A1
100
AcDbEntity
  8
RACCORDO
100
AcDbCircle
 62
253
  6
CONTINUOUS
 10
0.5250000031
 20
-10.2160697188
 40
40.017150432
100
AcDbArc
 50
11.6609463184
 51
18.3390536815
  0
ARC
  5
4A2
100
AcDbEntity
  8
RACCORDO
100
AcDbCircle
 62
253
  6
CONTINUOUS
 10
0.5250000031
 20
-10.2160697188
 40
40.017150432
100
AcDbArc
 50
341.6609463184
 51
348.3390536815
  0
ARC
  5
4A3
100
AcDbEntity
  8
RACCORDO
100
AcDbCircle
 62
253
  6
CONTINUOUS
 10
0.5250000031
 20
-10.2160697188
 40
40.017150432
100
AcDbArc
 50
311.6609463184
 51
318.3390536815
  0
ARC
  5
4A4
100
AcDbEntity
  8
RACCORDO
100
AcDbCircle
 62
253
  6
CONTINUOUS
 10
0.5250000031
 20
-10.2160697188
 40
40.017150432
100
AcDbArc
 50
281.6609463184
 51
288.3390536815
  0
ARC
  5
4A5
100
AcDbEntity
  8
RACCORDO
100
AcDbCircle
 62
253
  6
CONTINUOUS
 10
0.5250000031
 20
-10.2160697188
 40
40.017150432
100
AcDbArc
 50
251.6609463184
 51
258.3390536815
  0
ARC
  5
4A6
100
AcDbEntity
  8
RACCORDO
100
AcDbCircle
 62
253
  6
CONTINUOUS
 10
0.5250000031
 20
-10.2160697188
 40
40.017150432
100
AcDbArc
 50
221.6609463184
 51
228.3390536815
  0
ARC
  5
4A7
100
AcDbEntity
  8
RACCORDO
100
AcDbCircle
 62
253
  6
CONTINUOUS
 10
0.5250000031
 20
-10.2160697188
 40
40.017150432
100
AcDbArc
 50
191.6609463184
 51
198.3390536815
  0
ARC
  5
4A8
100
AcDbEntity
  8
RACCORDO
100
AcDbCircle
 62
253
  6
CONTINUOUS
 10
0.5250000031
 20
-10.2160697188
 40
40.017150432
100
AcDbArc
 50
161.6609463184
 51
168.3390536815
  0
ARC
  5
4A9
100
AcDbEntity
  8
RACCORDO
100
AcDbCircle
 62
253
  6
CONTINUOUS
 10
0.5250000031
 20
-10.2160697188
 40
40.017150432
100
AcDbArc
 50
131.6609463184
 51
138.3390536815
  0
ARC
  5
4AA
100
AcDbEntity
  8
RACCORDO
100
AcDbCircle
 62
253
  6
CONTINUOUS
 10
0.5250000031
 20
-10.2160697188
 40
40.017150432
100
AcDbArc
 50
101.6609463184
 51
108.3390536815
  0
ARC
  5
4AB
100
AcDbEntity
  8
RACCORDO
100
AcDbCircle
 62
253
  6
CONTINUOUS
 10
0.5250000031
 20
-10.2160697188
 40
39.0173027369
100
AcDbArc
 50
71.6609463184
 51
78.3390536815
  0
ARC
  5
4AC
100
AcDbEntity
  8
RACCORDO
100
AcDbCircle
 62
253
  6
CONTINUOUS
 10
0.5250000031
 20
-10.2160697188
 40
39.0173027369
100
AcDbArc
 50
41.6609463184
 51
48.3390536815
  0
ARC
  5
4AD
100
AcDbEntity
  8
RACCORDO
100
AcDbCircle
 62
253
  6
CONTINUOUS
 10
0.5250000031
 20
-10.2160697188
 40
39.0173027369
100
AcDbArc
 50
11.6609463184
 51
18.3390536815
  0
ARC
  5
4AE
100
AcDbEntity
  8
RACCORDO
100
AcDbCircle
 62
253
  6
CONTINUOUS
 10
0.5250000031
 20
-10.2160697188
 40
39.0173027369
100
AcDbArc
 50
341.6609463184
 51
348.3390536815
  0
ARC
  5
4AF
100
AcDbEntity
  8
RACCORDO
100
AcDbCircle
 62
253
  6
CONTINUOUS
 10
0.5250000031
 20
-10.2160697188
 40
39.0173027369
100
AcDbArc
 50
311.6609463184
 51
318.3390536815
  0
ARC
  5
4B0
100
AcDbEntity
  8
RACCORDO
100
AcDbCircle
 62
253
  6
CONTINUOUS
 10
0.5250000031
 20
-10.2160697188
 40
39.0173027369
100
AcDbArc
 50
281.6609463184
 51
288.3390536815
  0
ARC
  5
4B1
100
AcDbEntity
  8
RACCORDO
100
AcDbCircle
 62
253
  6
CONTINUOUS
 10
0.5250000031
 20
-10.2160697188
 40
39.0173027369
100
AcDbArc
 50
251.6609463184
 51
258.3390536815
  0
ARC
  5
4B2
100
AcDbEntity
  8
RACCORDO
100
AcDbCircle
 62
253
  6
CONTINUOUS
 10
0.5250000031
 20
-10.2160697188
 40
39.0173027369
100
AcDbArc
 50
221.6609463184
 51
228.3390536815
  0
ARC
  5
4B3
100
AcDbEntity
  8
RACCORDO
100
AcDbCircle
 62
253
  6
CONTINUOUS
 10
0.5250000031
 20
-10.2160697188
 40
39.0173027369
100
AcDbArc
 50
191.6609463184
 51
198.3390536815
  0
ARC
  5
4B4
100
AcDbEntity
  8
RACCORDO
100
AcDbCircle
 62
253
  6
CONTINUOUS
 10
0.5250000031
 20
-10.2160697188
 40
39.0173027369
100
AcDbArc
 50
161.6609463184
 51
168.3390536815
  0
ARC
  5
4B5
100
AcDbEntity
  8
RACCORDO
100
AcDbCircle
 62
253
  6
CONTINUOUS
 10
0.5250000031
 20
-10.2160697188
 40
39.0173027369
100
AcDbArc
 50
131.6609463184
 51
138.3390536815
  0
ARC
  5
4B6
100
AcDbEntity
  8
RACCORDO
100
AcDbCircle
 62
253
  6
CONTINUOUS
 10
0.5250000031
 20
-10.2160697188
 40
39.0173027369
100
AcDbArc
 50
101.6609463184
 51
108.3390536815
  0
ARC
  5
4B7
100
AcDbEntity
  8
RACCORDO
100
AcDbCircle
 62
253
  6
CONTINUOUS
 10
-40.6112066767
 20
13.5339302812
 40
10.9826972631
100
AcDbArc
 50
301.8086088295
 51
358.1913911706
  0
ARC
  5
4B8
100
AcDbEntity
  8
RACCORDO
100
AcDbCircle
 62
253
  6
CONTINUOUS
 10
-23.2249999969
 20
30.9201369609
 40
10.9826972631
100
AcDbArc
 50
271.8086088295
 51
328.1913911707
  0
ARC
  5
4B9
100
AcDbEntity
  8
RACCORDO
100
AcDbCircle
 62
253
  6
CONTINUOUS
 10
0.5250000031
 20
37.2839302812
 40
10.9826972631
100
AcDbArc
 50
241.8086088295
 51
298.1913911708
  0
ARC
  5
4BA
100
AcDbEntity
  8
RACCORDO
100
AcDbCircle
 62
253
  6
CONTINUOUS
 10
0.5250000031
 20
37.2839302812
 40
9.982849568
100
AcDbArc
 50
241.8086088295
 51
298.1913911706
  0
ARC
  5
4BB
100
AcDbEntity
  8
RACCORDO
100
AcDbCircle
 62
253
  6
CONTINUOUS
 10
-23.2249999969
 20
30.9201369609
 40
9.982849568
100
AcDbArc
 50
271.8086088295
 51
328.1913911706
  0
ARC
  5
4BC
100
AcDbEntity
  8
RACCORDO
100
AcDbCircle
 62
253
  6
CONTINUOUS
 10
-40.6112066767
 20
13.5339302812
 40
9.982849568
100
AcDbArc
 50
301.8086088295
 51
358.1913911706
  0
ARC
  5
4BD
100
AcDbEntity
  8
RACCORDO
100
AcDbCircle
 62
253
  6
CONTINUOUS
 10
0.5250000031
 20
37.2839302812
 40
9.6415619032
100
AcDbArc
 50
241.3281881642
 51
298.671811836
  0
ARC
  5
4BE
100
AcDbEntity
  8
RACCORDO
100
AcDbCircle
 62
253
  6
CONTINUOUS
 10
-23.2249999969
 20
30.9201369609
 40
9.6415619032
100
AcDbArc
 50
271.3281881642
 51
328.671811836
  0
ARC
  5
4BF
100
AcDbEntity
  8
RACCORDO
100
AcDbCircle
 62
253
  6
CONTINUOUS
 10
-40.6112066767
 20
13.5339302812
 40
9.6415619032
100
AcDbArc
 50
301.3281881642
 51
358.671811836
  0
ARC
  5
4C0
100
AcDbEntity
  8
RACCORDO
100
AcDbCircle
 62
253
  6
CONTINUOUS
 10
0.5250000031
 20
37.2839302812
 40
7.6418665129
100
AcDbArc
 50
241.3281881642
 51
298.6718118337
  0
ARC
  5
4C1
100
AcDbEntity
  8
RACCORDO
100
AcDbCircle
 62
253
  6
CONTINUOUS
 10
-23.2249999969
 20
30.9201369609
 40
7.6418665129
100
AcDbArc
 50
271.3281881642
 51
328.6718118351
  0
ARC
  5
4C2
100
AcDbEntity
  8
RACCORDO
100
AcDbCircle
 62
253
  6
CONTINUOUS
 10
-40.6112066767
 20
13.5339302812
 40
7.6418665129
100
AcDbArc
 50
301.3281881642
 51
358.6718118359
  0
CIRCLE
  5
4C3
100
AcDbEntity
  8
RACCORDO
100
AcDbCircle
 62
253
  6
CONTINUOUS
 10
-65.9430374285
 20
56.2519677127
 40
3.9499107093
  0
CIRCLE
  5
4C4
100
AcDbEntity
  8
RACCORDO
100
AcDbCircle
 62
253
  6
CONTINUOUS
 10
-65.9430374285
 20
56.2519677127
 40
3.4499868617
  0
CIRCLE
  5
4C5
100
AcDbEntity
  8
DRAFT
100
AcDbCircle
 62
7
  6
CONTINUOUS
 10
-65.9430374285
 20
56.2519677127
 40
2.9
  0
CIRCLE
  5
4C6
100
AcDbEntity
  8
0
100
AcDbCircle
 62
7
  6
CONTINUOUS
 10
-65.9430374285
 20
56.2519677127
 40
2.7226074497
  0
CIRCLE
  5
4C7
100
AcDbEntity
  8
0
100
AcDbCircle
 62
253
  6
CONTINUOUS
 10
-65.9430374285
 20
56.2519677127
 40
2.7214658591
  0
CIRCLE
  5
4C8
100
AcDbEntity
  8
0
100
AcDbCircle
 62
253
  6
CONTINUOUS
 10
-65.9430374285
 20
56.2519677127
 40
2.6357943273
  0
CIRCLE
  5
4C9
100
AcDbEntity
  8
0
100
AcDbCircle
 62
253
  6
CONTINUOUS
 10
-65.9430374285
 20
56.2519677127
 40
2.4415748396
  0
ARC
  5
4CA
100
AcDbEntity
  8
0
100
AcDbCircle
 62
253
  6
CONTINUOUS
 10
-65.9430374285
 20
56.2519677127
 40
1.8098246557
100
AcDbArc
 50
182.1073233326
 51
213.2133851259
  0
ARC
  5
4CB
100
AcDbEntity
  8
0
100
AcDbCircle
 62
253
  6
CONTINUOUS
 10
-65.9430374285
 20
56.2519677127
 40
1.8098246557
100
AcDbArc
 50
59.702312008
 51
93.2133851259
  0
ARC
  5
4CC
100
AcDbEntity
  8
0
100
AcDbCircle
 62
253
  6
CONTINUOUS
 10
-65.9430374285
 20
56.2519677127
 40
1.8098246557
100
AcDbArc
 50
299.702312008
 51
333.2133851259
  0
ARC
  5
4CD
100
AcDbEntity
  8
0
100
AcDbCircle
 62
253
  6
CONTINUOUS
 10
-65.9430374285
 20
56.2519677127
 40
1.7100709361
100
AcDbArc
 50
61.4246792562
 51
90.3977241472
  0
ARC
  5
4CE
100
AcDbEntity
  8
0
100
AcDbCircle
 62
253
  6
CONTINUOUS
 10
-65.9430374285
 20
56.2519677127
 40
1.7100709361
100
AcDbArc
 50
301.4246792562
 51
330.3977241472
  0
ARC
  5
4CF
100
AcDbEntity
  8
0
100
AcDbCircle
 62
253
  6
CONTINUOUS
 10
-65.9430374285
 20
56.2519677127
 40
1.7100709361
100
AcDbArc
 50
182.1073233246
 51
210.3977241472
  0
CIRCLE
  5
4D0
100
AcDbEntity
  8
0
100
AcDbCircle
 62
7
  6
CONTINUOUS
 10
-65.9430374285
 20
56.2519677127
 40
0.8
  0
ARC
  5
4D1
100
AcDbEntity
  8
0
100
AcDbCircle
 62
7
  6
CONTINUOUS
 10
-66.7430374285
 20
55.5591473897
 40
0.2
100
AcDbArc
 50
60.0
 51
120.0
  0
ARC
  5
4D2
100
AcDbEntity
  8
0
100
AcDbCircle
 62
7
  6
CONTINUOUS
 10
-64.9430374285
 20
55.9055575512
 40
0.2
100
AcDbArc
 50
180.0
 51
240.0
  0
ARC
  5
4D3
100
AcDbEntity
  8
0
100
AcDbCircle
 62
7
  6
CONTINUOUS
 10
-66.1430374285
 20
57.2911981973
 40
0.2
100
AcDbArc
 50
300.0
 51
360.0
  0
ARC
  5
4D4
100
AcDbEntity
  8
RACCORDO
100
AcDbCircle
 62
253
  6
CONTINUOUS
 10
48.0250000031
 20
-10.2160697188
 40
10.9826972631
100
AcDbArc
 50
151.8086088295
 51
208.1913911705
  0
ARC
  5
4D5
100
AcDbEntity
  8
RACCORDO
100
AcDbCircle
 62
253
  6
CONTINUOUS
 10
41.6612066828
 20
-33.9660697188
 40
10.9826972631
100
AcDbArc
 50
121.8086088295
 51
178.1913911706
  0
ARC
  5
4D6
100
AcDbEntity
  8
RACCORDO
100
AcDbCircle
 62
253
  6
CONTINUOUS
 10
24.2750000031
 20
-51.3522763986
 40
10.9826972631
100
AcDbArc
 50
91.8086088295
 51
148.1913911707
  0
ARC
  5
4D7
100
AcDbEntity
  8
RACCORDO
100
AcDbCircle
 62
253
  6
CONTINUOUS
 10
24.2750000031
 20
-51.3522763986
 40
9.982849568
100
AcDbArc
 50
91.8086088295
 51
148.1913911706
  0
ARC
  5
4D8
100
AcDbEntity
  8
RACCORDO
100
AcDbCircle
 62
253
  6
CONTINUOUS
 10
41.6612066828
 20
-33.9660697188
 40
9.982849568
100
AcDbArc
 50
121.8086088295
 51
178.1913911706
  0
ARC
  5
4D9
100
AcDbEntity
  8
RACCORDO
100
AcDbCircle
 62
253
  6
CONTINUOUS
 10
48.0250000031
 20
-10.2160697188
 40
9.982849568
100
AcDbArc
 50
151.8086088295
 51
208.1913911706
  0
ARC
  5
4DA
100
AcDbEntity
  8
RACCORDO
100
AcDbCircle
 62
253
  6
CONTINUOUS
 10
24.2750000031
 20
-51.3522763986
 40
9.6415619032
100
AcDbArc
 50
91.3281881642
 51
148.671811836
  0
ARC
  5
4DB
100
AcDbEntity
  8
RACCORDO
100
AcDbCircle
 62
253
  6
CONTINUOUS
 10
41.6612066828
 20
-33.9660697188
 40
9.6415619032
100
AcDbArc
 50
121.3281881642
 51
178.671811836
  0
ARC
  5
4DC
100
AcDbEntity
  8
RACCORDO
100
AcDbCircle
 62
253
  6
CONTINUOUS
 10
48.0250000031
 20
-10.2160697188
 40
9.6415619032
100
AcDbArc
 50
151.3281881642
 51
208.671811836
  0
ARC
  5
4DD
100
AcDbEntity
  8
RACCORDO
100
AcDbCircle
 62
253
  6
CONTINUOUS
 10
24.2750000031
 20
-51.3522763986
 40
7.6418665129
100
AcDbArc
 50
91.3281881642
 51
148.6718118351
  0
ARC
  5
4DE
100
AcDbEntity
  8
RACCORDO
100
AcDbCircle
 62
253
  6
CONTINUOUS
 10
41.6612066828
 20
-33.9660697188
 40
7.6418665129
100
AcDbArc
 50
121.3281881642
 51
178.6718118337
  0
ARC
  5
4DF
100
AcDbEntity
  8
RACCORDO
100
AcDbCircle
 62
253
  6
CONTINUOUS
 10
48.0250000031
 20
-10.2160697188
 40
7.6418665129
100
AcDbArc
 50
151.3281881642
 51
208.6718118384
  0
CIRCLE
  5
4E0
100
AcDbEntity
  8
RACCORDO
100
AcDbCircle
 62
253
  6
CONTINUOUS
 10
66.9930374346
 20
-76.6841071504
 40
3.9499107093
  0
CIRCLE
  5
4E1
100
AcDbEntity
  8
RACCORDO
100
AcDbCircle
 62
253
  6
CONTINUOUS
 10
66.9930374346
 20
-76.6841071504
 40
3.4499868617
  0
CIRCLE
  5
4E2
100
AcDbEntity
  8
DRAFT
100
AcDbCircle
 62
7
  6
CONTINUOUS
 10
66.9930374346
 20
-76.6841071504
 40
2.9
  0
CIRCLE
  5
4E3
100
AcDbEntity
  8
0
100
AcDbCircle
 62
7
  6
CONTINUOUS
 10
66.9930374346
 20
-76.6841071504
 40
2.7226074497
  0
CIRCLE
  5
4E4
100
AcDbEntity
  8
0
100
AcDbCircle
 62
253
  6
CONTINUOUS
 10
66.9930374346
 20
-76.6841071504
 40
2.7214658591
  0
CIRCLE
  5
4E5
100
AcDbEntity
  8
0
100
AcDbCircle
 62
253
  6
CONTINUOUS
 10
66.9930374346
 20
-76.6841071504
 40
2.6357943273
  0
CIRCLE
  5
4E6
100
AcDbEntity
  8
0
100
AcDbCircle
 62
253
  6
CONTINUOUS
 10
66.9930374346
 20
-76.6841071504
 40
2.4415748396
  0
ARC
  5
4E7
100
AcDbEntity
  8
0
100
AcDbCircle
 62
253
  6
CONTINUOUS
 10
66.9930374346
 20
-76.6841071504
 40
1.8098246557
100
AcDbArc
 50
182.1073233326
 51
213.2133851259
  0
ARC
  5
4E8
100
AcDbEntity
  8
0
100
AcDbCircle
 62
253
  6
CONTINUOUS
 10
66.9930374346
 20
-76.6841071504
 40
1.8098246557
100
AcDbArc
 50
59.702312008
 51
93.2133851259
  0
ARC
  5
4E9
100
AcDbEntity
  8
0
100
AcDbCircle
 62
253
  6
CONTINUOUS
 10
66.9930374346
 20
-76.6841071504
 40
1.8098246557
100
AcDbArc
 50
299.702312008
 51
333.2133851259
  0
ARC
  5
4EA
100
AcDbEntity
  8
0
100
AcDbCircle
 62
253
  6
CONTINUOUS
 10
66.9930374346
 20
-76.6841071504
 40
1.7100709361
100
AcDbArc
 50
61.4246792562
 51
90.3977241472
  0
ARC
  5
4EB
100
AcDbEntity
  8
0
100
AcDbCircle
 62
253
  6
CONTINUOUS
 10
66.9930374346
 20
-76.6841071504
 40
1.7100709361
100
AcDbArc
 50
301.4246792562
 51
330.3977241472
  0
ARC
  5
4EC
100
AcDbEntity
  8
0
100
AcDbCircle
 62
253
  6
CONTINUOUS
 10
66.9930374346
 20
-76.6841071504
 40
1.7100709361
100
AcDbArc
 50
182.1073233246
 51
210.3977241472
  0
CIRCLE
  5
4ED
100
AcDbEntity
  8
0
100
AcDbCircle
 62
7
  6
CONTINUOUS
 10
66.9930374346
 20
-76.6841071504
 40
0.8
  0
ARC
  5
4EE
100
AcDbEntity
  8
0
100
AcDbCircle
 62
7
  6
CONTINUOUS
 10
66.1930374346
 20
-77.3769274734
 40
0.2
100
AcDbArc
 50
60.0
 51
120.0
  0
ARC
  5
4EF
100
AcDbEntity
  8
0
100
AcDbCircle
 62
7
  6
CONTINUOUS
 10
67.9930374346
 20
-77.0305173119
 40
0.2
100
AcDbArc
 50
180.0
 51
240.0
  0
ARC
  5
4F0
100
AcDbEntity
  8
0
100
AcDbCircle
 62
7
  6
CONTINUOUS
 10
66.7930374346
 20
-75.6448766658
 40
0.2
100
AcDbArc
 50
300.0
 51
360.0
  0
ARC
  5
4F1
100
AcDbEntity
  8
RACCORDO
100
AcDbCircle
 62
253
  6
CONTINUOUS
 10
24.2750000031
 20
30.9201369609
 40
10.9826972631
100
AcDbArc
 50
211.8086088295
 51
268.1913911706
  0
ARC
  5
4F2
100
AcDbEntity
  8
RACCORDO
100
AcDbCircle
 62
253
  6
CONTINUOUS
 10
41.6612066828
 20
13.5339302812
 40
10.9826972631
100
AcDbArc
 50
181.8086088295
 51
238.1913911707
  0
ARC
  5
4F3
100
AcDbEntity
  8
RACCORDO
100
AcDbCircle
 62
253
  6
CONTINUOUS
 10
41.6612066828
 20
13.5339302812
 40
9.982849568
100
AcDbArc
 50
181.8086088295
 51
238.1913911706
  0
ARC
  5
4F4
100
AcDbEntity
  8
RACCORDO
100
AcDbCircle
 62
253
  6
CONTINUOUS
 10
24.2750000031
 20
30.9201369609
 40
9.982849568
100
AcDbArc
 50
211.8086088295
 51
268.1913911706
  0
ARC
  5
4F5
100
AcDbEntity
  8
RACCORDO
100
AcDbCircle
 62
253
  6
CONTINUOUS
 10
41.6612066828
 20
13.5339302812
 40
9.6415619032
100
AcDbArc
 50
181.3281881642
 51
238.671811836
  0
ARC
  5
4F6
100
AcDbEntity
  8
RACCORDO
100
AcDbCircle
 62
253
  6
CONTINUOUS
 10
24.2750000031
 20
30.9201369609
 40
9.6415619032
100
AcDbArc
 50
211.3281881642
 51
268.671811836
  0
ARC
  5
4F7
100
AcDbEntity
  8
RACCORDO
100
AcDbCircle
 62
253
  6
CONTINUOUS
 10
41.6612066828
 20
13.5339302812
 40
7.6418665129
100
AcDbArc
 50
181.3281881642
 51
238.671811836
  0
ARC
  5
4F8
100
AcDbEntity
  8
RACCORDO
100
AcDbCircle
 62
253
  6
CONTINUOUS
 10
24.2750000031
 20
30.9201369609
 40
7.6418665129
100
AcDbArc
 50
211.3281881642
 51
268.671811836
  0
CIRCLE
  5
4F9
100
AcDbEntity
  8
RACCORDO
100
AcDbCircle
 62
253
  6
CONTINUOUS
 10
66.9930374346
 20
56.2519677127
 40
3.9499107093
  0
CIRCLE
  5
4FA
100
AcDbEntity
  8
RACCORDO
100
AcDbCircle
 62
253
  6
CONTINUOUS
 10
66.9930374346
 20
56.2519677127
 40
3.4499868617
  0
CIRCLE
  5
4FB
100
AcDbEntity
  8
DRAFT
100
AcDbCircle
 62
7
  6
CONTINUOUS
 10
66.9930374346
 20
56.2519677127
 40
2.9
  0
CIRCLE
  5
4FC
100
AcDbEntity
  8
0
100
AcDbCircle
 62
7
  6
CONTINUOUS
 10
66.9930374346
 20
56.2519677127
 40
2.7226074497
  0
CIRCLE
  5
4FD
100
AcDbEntity
  8
0
100
AcDbCircle
 62
253
  6
CONTINUOUS
 10
66.9930374346
 20
56.2519677127
 40
2.7214658591
  0
CIRCLE
  5
4FE
100
AcDbEntity
  8
0
100
AcDbCircle
 62
253
  6
CONTINUOUS
 10
66.9930374346
 20
56.2519677127
 40
2.6357943273
  0
CIRCLE
  5
4FF
100
AcDbEntity
  8
0
100
AcDbCircle
 62
253
  6
CONTINUOUS
 10
66.9930374346
 20
56.2519677127
 40
2.4415748396
  0
ARC
  5
500
100
AcDbEntity
  8
0
100
AcDbCircle
 62
253
  6
CONTINUOUS
 10
66.9930374346
 20
56.2519677127
 40
1.8098246557
100
AcDbArc
 50
182.1073233326
 51
213.2133851259
  0
ARC
  5
501
100
AcDbEntity
  8
0
100
AcDbCircle
 62
253
  6
CONTINUOUS
 10
66.9930374346
 20
56.2519677127
 40
1.8098246557
100
AcDbArc
 50
59.702312008
 51
93.2133851259
  0
ARC
  5
502
100
AcDbEntity
  8
0
100
AcDbCircle
 62
253
  6
CONTINUOUS
 10
66.9930374346
 20
56.2519677127
 40
1.8098246557
100
AcDbArc
 50
299.702312008
 51
333.2133851259
  0
ARC
  5
503
100
AcDbEntity
  8
0
100
AcDbCircle
 62
253
  6
CONTINUOUS
 10
66.9930374346
 20
56.2519677127
 40
1.7100709361
100
AcDbArc
 50
61.4246792562
 51
90.3977241472
  0
ARC
  5
504
100
AcDbEntity
  8
0
100
AcDbCircle
 62
253
  6
CONTINUOUS
 10
66.9930374346
 20
56.2519677127
 40
1.7100709361
100
AcDbArc
 50
301.4246792562
 51
330.3977241472
  0
ARC
  5
505
100
AcDbEntity
  8
0
100
AcDbCircle
 62
253
  6
CONTINUOUS
 10
66.9930374346
 20
56.2519677127
 40
1.7100709361
100
AcDbArc
 50
182.1073233246
 51
210.3977241472
  0
CIRCLE
  5
506
100
AcDbEntity
  8
0
100
AcDbCircle
 62
7
  6
CONTINUOUS
 10
66.9930374346
 20
56.2519677127
 40
0.8
  0
ARC
  5
507
100
AcDbEntity
  8
0
100
AcDbCircle
 62
7
  6
CONTINUOUS
 10
66.1930374346
 20
55.5591473897
 40
0.2
100
AcDbArc
 50
60.0
 51
120.0
  0
ARC
  5
508
100
AcDbEntity
  8
0
100
AcDbCircle
 62
7
  6
CONTINUOUS
 10
67.9930374346
 20
55.9055575512
 40
0.2
100
AcDbArc
 50
180.0
 51
240.0
  0
ARC
  5
509
100
AcDbEntity
  8
0
100
AcDbCircle
 62
7
  6
CONTINUOUS
 10
66.7930374346
 20
57.2911981973
 40
0.2
100
AcDbArc
 50
300.0
 51
360.0
  0
ENDSEC
  0
SECTION
  2
OBJECTS
  0
DICTIONARY
  5
C
100
AcDbDictionary
280
0
281
1
  3
ACAD_GROUP
350
D
  3
ACAD_MLINESTYLE
350
17
  3
ACAD_LAYOUT
350
1A
  3
ACAD_PLOTSETTINGS
350
19
  3
ACAD_PLOTSTYLENAME
350
E
  0
DICTIONARY
  5
D
102
{ACAD_REACTORS
330
C
102
}
100
AcDbDictionary
280
0
281
1
  0
ACDBDICTIONARYWDFLT
  5
E
102
{ACAD_REACTORS
330
C
102
}
100
AcDbDictionary
281
1
  3
Normal
350
F
100
AcDbDictionaryWithDefault
340
F
  0
DICTIONARY
  5
17
102
{ACAD_REACTORS
330
C
102
}
100
AcDbDictionary
280
0
281
1
  3
Standard
350
18
  0
DICTIONARY
  5
19
102
{ACAD_REACTORS
330
C
102
}
100
AcDbDictionary
281
1
  0
DICTIONARY
  5
1A
102
{ACAD_REACTORS
330
C
102
}
100
AcDbDictionary
281
1
  3
Model
350
50A
  3
Layout1
350
50B
  0
ACDBPLACEHOLDER
  5
F
102
{ACAD_REACTORS
330
E
102
}
  0
MLINESTYLE
  5
18
102
{ACAD_REACTORS
330
17
102
}
100
AcDbMlineStyle
  2
STANDARD
 70
0
  3

 62
256
 51
90.0
 52
90.0
 71
2
 49
0.5
 62
256
  6
BYLAYER
 49
-0.5
 62
256
  6
BYLAYER
  0
LAYOUT
  5
50A
102
{ACAD_REACTORS
330
1A
102
}
100
AcDbPlotSettings
  1

  2
none_device
  4
ISO_A4_(297.00_x_210.00_MM)
  6

 40
0.0
 41
0.0
 42
0.0
 43
0.0
 44
297.0
 45
210.0
 46
0.0
 47
0.0
 48
0.0
 49
0.0
140
0.0
141
0.0
142
1.0
143
1.0
 70
1024
 72
1
 73
0
 74
0
  7

 75
0
147
1.0
148
0.0
149
0.0
100
AcDbLayout
  1
Model
 70
0
 71
0
 10
0.0
 20
0.0
 11
297.0
 21
210.0
 12
0.0
 22
0.0
 32
0.0
 14
0.0
 24
0.0
 34
0.0
 15
0.0
 25
0.0
 35
0.0
146
0.0
 13
0.0
 23
0.0
 33
0.0
 16
1.0
 26
0.0
 36
0.0
 17
0.0
 27
1.0
 37
0.0
 76
0
330
211
345
0
346
0
  0
LAYOUT
  5
50B
102
{ACAD_REACTORS
330
1A
102
}
100
AcDbPlotSettings
  1

  2
none_device
  4
ISO_A4_(297.00_x_210.00_MM)
  6

 40
0.0
 41
0.0
 42
0.0
 43
0.0
 44
297.0
 45
210.0
 46
0.0
 47
0.0
 48
0.0
 49
0.0
140
0.0
141
0.0
142
1.0
143
1.0
 70
0
 72
1
 73
0
 74
0
  7

 75
0
147
1.0
148
0.0
149
0.0
100
AcDbLayout
  1
Layout1
 70
0
 71
1
 10
0.0
 20
0.0
 11
297.0
 21
210.0
 12
0.0
 22
0.0
 32
0.0
 14
0.0
 24
0.0
 34
0.0
 15
0.0
 25
0.0
 35
0.0
146
0.0
 13
0.0
 23
0.0
 33
0.0
 16
1.0
 26
0.0
 36
0.0
 17
0.0
 27
1.0
 37
0.0
 76
0
330
212
345
0
346
0
  0
ENDSEC
  0
EOF
