  0
SECTION
  2
HEADER
  9
$ACADVER
  1
AC1027
  9
$DWGCODEPAGE
  3
ANSI_1252
  9
$EXTMAX
 10
297.0
 20
210.0
 30
0.0
  9
$EXTMIN
 10
0.0
 20
0.0
 30
0.0
  9
$LIMMIN
 10
0.0
 20
0.0
  9
$LIMMAX
 10
297.0
 20
210.0
  9
$VIEWCTR
 10
148.5
 20
105.0
  9
$VIEWSIZE
 40
210.0
  9
$CLAYER
  8
0
  9
$LTSCALE
 40
16.335
  9
$CELTYPE
  6
BYLAYER
  9
$DIMSCALE
 40
1.0
  9
$DIMASZ
 40
3.0
  9
$DIMEXO
 40
0.5
  9
$DIMDLI
 40
11.286
  9
$DIMEXE
 40
1.5
  9
$DIMCEN
 40
2.673
  9
$DIMLFAC
 40
1.0
  9
$DIMBLK
  1
_FILLED
  9
$DIMALT
 70
0
  9
$DIMALTF
 40
0.0393700787
  9
$DIMTXT
 40
3.0
  9
$DIMTOL
 70
1
  9
$DIMLIM
 70
0
  9
$DIMTFAC
 40
1.0
  9
$DIMTP
 40
0.01
  9
$DIMTM
 40
0.01
  9
$DIMGAP
 40
0.625
  9
$DIMDSEP
 70
44
  9
$AUNITS
 70
0
  9
$PDMODE
 70
3
  9
$PDSIZE
 40
3.0
  9
$HANDSEED
  5
496
  9
$TILEMODE
 70
1
  9
$MEASUREMENT
 70
1
  9
$INSUNITS
 70
4
  0
ENDSEC
  0
SECTION
  2
CLASSES
  0
CLASS
  1
ACDBDICTIONARYWDFLT
  2
AcDbDictionaryWithDefault
  3
AutoCAD 2000
 90
0
 91
1
280
0
281
0
  0
CLASS
  1
ACDBPLACEHOLDER
  2
AcDbPlaceHolder
  3
AutoCAD 2000
 90
0
 91
1
280
0
281
0
  0
CLASS
  1
LAYOUT
  2
AcDbLayout
  3
AutoCAD 2000
 90
0
 91
0
280
0
281
0
  0
ENDSEC
  0
SECTION
  2
TABLES
  0
TABLE
  2
VPORT
  5
8
100
AcDbSymbolTable
 70
2
  0
VPORT
  5
1F4
100
AcDbSymbolTableRecord
100
AcDbViewportTableRecord
  2
*ACTIVE
 70
0
 10
0.0
 20
0.0
 11
1.0
 21
1.0
 12
148.5
 22
105.0
 13
0.0
 23
0.0
 14
1.0
 24
1.0
 15
0.0
 25
0.0
 16
0.0
 26
0.0
 36
1.0
 17
0.0
 27
0.0
 37
0.0
 40
210.0
 41
1.4142857143
 42
50.0
 43
0.0
 44
0.0
 50
0.0
 51
0.0
 71
0
 72
100
 73
1
 74
1
 75
0
 76
0
 77
0
 78
0
  0
ENDTAB
  0
TABLE
  2
LTYPE
  5
5
100
AcDbSymbolTable
 70
6
  0
LTYPE
  5
14
100
AcDbSymbolTableRecord
100
AcDbLinetypeTableRecord
  2
BYBLOCK
 70
0
  3

 72
65
 73
0
 40
0.0
  0
LTYPE
  5
15
100
AcDbSymbolTableRecord
100
AcDbLinetypeTableRecord
  2
BYLAYER
 70
0
  3

 72
65
 73
0
 40
0.0
  0
LTYPE
  5
16
100
AcDbSymbolTableRecord
100
AcDbLinetypeTableRecord
  2
CONTINUOUS
 70
64
  3
Solid line
 72
65
 73
0
 40
0.0
  0
LTYPE
  5
1F5
100
AcDbSymbolTableRecord
100
AcDbLinetypeTableRecord
  2
CENTER
 70
64
  3
____ _ ____ _ ____ _ ____ _ ____ _ ____ _ ____
 72
65
 73
4
 40
0.6
 49
0.375
 74
0
 49
-0.075
 74
0
 49
0.075
 74
0
 49
-0.075
 74
0
  0
LTYPE
  5
1F6
100
AcDbSymbolTableRecord
100
AcDbLinetypeTableRecord
  2
HIDDEN
 70
64
  3
- - - - - - - - - - - - - - - - - - - -
 72
65
 73
2
 40
0.2
 49
0.1
 74
0
 49
-0.1
 74
0
  0
LTYPE
  5
1F7
100
AcDbSymbolTableRecord
100
AcDbLinetypeTableRecord
  2
PHANTOM
 70
64
  3
_____ _ _ _____ _ _ _____ _ _ _____
 72
65
 73
6
 40
0.8
 49
0.45
 74
0
 49
-0.05
 74
0
 49
0.1
 74
0
 49
-0.05
 74
0
 49
0.1
 74
0
 49
-0.05
 74
0
  0
LTYPE
  5
1F8
100
AcDbSymbolTableRecord
100
AcDbLinetypeTableRecord
  2
DOT
 70
64
  3
. . . . . . . . . . . . . . . . . . . .
 72
65
 73
2
 40
0.2
 49
0.1
 74
0
 49
-0.1
 74
0
  0
LTYPE
  5
1F9
100
AcDbSymbolTableRecord
100
AcDbLinetypeTableRecord
  2
DASHED
 70
64
  3
- - - - - - - - - - - - - - - - - - - -
 72
65
 73
2
 40
0.2
 49
0.1
 74
0
 49
-0.1
 74
0
  0
ENDTAB
  0
TABLE
  2
LAYER
  5
2
100
AcDbSymbolTable
 70
36
  0
LAYER
  5
10
100
AcDbSymbolTableRecord
100
AcDbLayerTableRecord
  2
0
 70
0
 62
7
  6
CONTINUOUS
370
-3
390
F
  0
LAYER
  5
1FA
100
AcDbSymbolTableRecord
100
AcDbLayerTableRecord
  2
DEFAULT_1
 70
0
 62
7
  6
CENTER
370
-3
390
F
  0
LAYER
  5
1FB
100
AcDbSymbolTableRecord
100
AcDbLayerTableRecord
  2
DEFAULT_2
 70
0
 62
7
  6
HIDDEN
370
-3
390
F
  0
LAYER
  5
1FC
100
AcDbSymbolTableRecord
100
AcDbLayerTableRecord
  2
DEFAULT_3
 70
0
 62
7
  6
PHANTOM
370
-3
390
F
  0
LAYER
  5
1FD
100
AcDbSymbolTableRecord
100
AcDbLayerTableRecord
  2
ASSI
 70
0
 62
7
  6
CONTINUOUS
370
-3
390
F
  0
LAYER
  5
1FE
100
AcDbSymbolTableRecord
100
AcDbLayerTableRecord
  2
COLOR5
 70
0
 62
7
  6
CONTINUOUS
370
-3
390
F
  0
LAYER
  5
1FF
100
AcDbSymbolTableRecord
100
AcDbLayerTableRecord
  2
COORDINATE
 70
0
 62
7
  6
CONTINUOUS
370
-3
390
F
  0
LAYER
  5
200
100
AcDbSymbolTableRecord
100
AcDbLayerTableRecord
  2
COORD_ORIGINE
 70
0
 62
7
  6
CONTINUOUS
370
-3
390
F
  0
LAYER
  5
201
100
AcDbSymbolTableRecord
100
AcDbLayerTableRecord
  2
COPY_PUBLISH
 70
0
 62
7
  6
CONTINUOUS
370
-3
390
F
  0
LAYER
  5
202
100
AcDbSymbolTableRecord
100
AcDbLayerTableRecord
  2
COSMETICI
 70
0
 62
7
  6
CONTINUOUS
370
-3
390
F
  0
LAYER
  5
203
100
AcDbSymbolTableRecord
100
AcDbLayerTableRecord
  2
CURVE
 70
0
 62
7
  6
CONTINUOUS
370
-3
390
F
  0
LAYER
  5
204
100
AcDbSymbolTableRecord
100
AcDbLayerTableRecord
  2
DRAFT
 70
0
 62
7
  6
CONTINUOUS
370
-3
390
F
  0
LAYER
  5
205
100
AcDbSymbolTableRecord
100
AcDbLayerTableRecord
  2
IMPORT_IGES
 70
0
 62
7
  6
CONTINUOUS
370
-3
390
F
  0
LAYER
  5
206
100
AcDbSymbolTableRecord
100
AcDbLayerTableRecord
  2
NOTE
 70
0
 62
7
  6
CONTINUOUS
370
-3
390
F
  0
LAYER
  5
207
100
AcDbSymbolTableRecord
100
AcDbLayerTableRecord
  2
PIANI
 70
0
 62
7
  6
CONTINUOUS
370
-3
390
F
  0
LAYER
  5
208
100
AcDbSymbolTableRecord
100
AcDbLayerTableRecord
  2
PIANI_ORIGINE
 70
0
 62
7
  6
CONTINUOUS
370
-3
390
F
  0
LAYER
  5
209
100
AcDbSymbolTableRecord
100
AcDbLayerTableRecord
  2
PUNTI
 70
0
 62
7
  6
CONTINUOUS
370
-3
390
F
  0
LAYER
  5
20A
100
AcDbSymbolTableRecord
100
AcDbLayerTableRecord
  2
RACCORDO
 70
0
 62
7
  6
CONTINUOUS
370
-3
390
F
  0
LAYER
  5
20B
100
AcDbSymbolTableRecord
100
AcDbLayerTableRecord
  2
SIMBOLI
 70
0
 62
7
  6
CONTINUOUS
370
-3
390
F
  0
LAYER
  5
20C
100
AcDbSymbolTableRecord
100
AcDbLayerTableRecord
  2
SMUSSO
 70
0
 62
7
  6
CONTINUOUS
370
-3
390
F
  0
LAYER
  5
20D
100
AcDbSymbolTableRecord
100
AcDbLayerTableRecord
  2
SNAPLINE
 70
0
 62
7
  6
CONTINUOUS
370
-3
390
F
  0
LAYER
  5
20E
100
AcDbSymbolTableRecord
100
AcDbLayerTableRecord
  2
SUPERFICI
 70
0
 62
7
  6
CONTINUOUS
370
-3
390
F
  0
LAYER
  5
20F
100
AcDbSymbolTableRecord
100
AcDbLayerTableRecord
  2
TRASH
 70
0
 62
7
  6
CONTINUOUS
370
-3
390
F
  0
ENDTAB
  0
TABLE
  2
STYLE
  5
3
100
AcDbSymbolTable
 70
1
  0
STYLE
  5
11
100
AcDbSymbolTableRecord
100
AcDbTextStyleTableRecord
  2
STANDARD
 70
0
 40
0.0
 41
0.8
 50
0.0
 71
0
 42
0.2
  3
txt
  4

  0
STYLE
  5
210
100
AcDbSymbolTableRecord
100
AcDbTextStyleTableRecord
  2
TEXTSTYLE_1
 70
0
 40
0.0
 41
0.8
 50
0.0
 71
0
 42
0.2
  3
gdt
  4

  0
ENDTAB
  0
TABLE
  2
VIEW
  5
6
100
AcDbSymbolTable
 70
0
  0
ENDTAB
  0
TABLE
  2
UCS
  5
7
100
AcDbSymbolTable
 70
0
  0
ENDTAB
  0
TABLE
  2
APPID
  5
9
100
AcDbSymbolTable
 70
1
  0
APPID
  5
211
100
AcDbSymbolTableRecord
100
AcDbRegAppTableRecord
  2
ACAD
 70
0
  0
ENDTAB
  0
TABLE
  2
BLOCK_RECORD
  5
1
100
AcDbSymbolTable
 70
0
  0
BLOCK_RECORD
  5
212
100
AcDbSymbolTableRecord
100
AcDbBlockTableRecord
  2
*Model_Space
  0
BLOCK_RECORD
  5
213
100
AcDbSymbolTableRecord
100
AcDbBlockTableRecord
  2
*Paper_Space
  0
BLOCK_RECORD
  5
214
100
AcDbSymbolTableRecord
100
AcDbBlockTableRecord
  2
_FILLED
  0
ENDTAB
  0
TABLE
  2
DIMSTYLE
  5
A
100
AcDbSymbolTable
 70
1
100
AcDbDimStyleTable
 71
0
  0
DIMSTYLE
105
215
100
AcDbSymbolTableRecord
100
AcDbDimStyleTableRecord
  2
STANDARD
 70
0
  3

  4

 40
1.0
 41
3.0
 42
0.5
 43
0.38
 44
1.5
 45
0.0
 46
0.0
 47
0.01
 48
0.01
140
3.0
141
0.09
142
0.0
143
25.4
144
1.0
145
0.0
146
1.0
147
0.625
 71
1.0
 72
0.0
 73
0
 74
0
 75
0
 76
0
 77
1
 78
8
 79
2
170
0
171
1
172
0
173
0
174
0
175
0
176
0
177
0
178
0
270
2
179
2
271
2
272
2
273
2
274
2
275
0
280
0
281
0
282
0
283
1
284
8
285
0
286
0
287
3
288
0
340
11
278
44
341
214
342
214
343
214
344
214
  0
ENDTAB
  0
ENDSEC
  0
SECTION
  2
BLOCKS
  0
BLOCK
  5
20
100
AcDbEntity
  8
0
100
AcDbBlockBegin
  2
*Model_Space
 70
0
 10
0.0
 20
0.0
 30
0.0
  3
*Model_Space
  1

  0
ENDBLK
  5
21
100
AcDbEntity
  8
0
100
AcDbBlockEnd
  0
BLOCK
  5
1C
100
AcDbEntity
  8
0
100
AcDbBlockBegin
  2
*Paper_Space
 70
0
 10
0.0
 20
0.0
 30
0.0
  3
*Paper_Space
  1

  0
ENDBLK
  5
1D
100
AcDbEntity
  8
0
100
AcDbBlockEnd
  0
BLOCK
  5
216
100
AcDbEntity
  8
0
100
AcDbBlockBegin
  2
_FILLED
 70
64
 10
0.0
 20
0.0
  3
_FILLED
  1

  0
SOLID
  5
217
100
AcDbEntity
  8
0
  6
BYBLOCK
 62
0
100
AcDbTrace
 10
0.0
 20
0.0
 11
-1.0
 21
0.3166666667
 12
-1.0
 22
-0.3166666667
 13
-1.0
 23
-0.3166666667
  0
ENDBLK
  5
218
100
AcDbEntity
  8
0
  6
BYBLOCK
 62
0
100
AcDbBlockEnd
  0
ENDSEC
  0
SECTION
  2
ENTITIES
  0
LINE
  5
219
100
AcDbEntity
  8
0
100
AcDbLine
 62
7
  6
CONTINUOUS
 10
70.75
 20
-165.5
 11
-144.25
 21
-165.5
  0
LINE
  5
21A
100
AcDbEntity
  8
0
100
AcDbLine
 62
250
  6
CONTINUOUS
 10
-140.4267753914
 20
-114.4465841422
 11
-121.5573120005
 21
-121.0755622942
  0
LINE
  5
21B
100
AcDbEntity
  8
0
100
AcDbLine
 62
7
  6
CONTINUOUS
 10
50.679775419
 20
-145.5
 11
-130.1377925671
 21
-145.5
  0
LINE
  5
21C
100
AcDbEntity
  8
0
100
AcDbLine
 62
250
  6
CONTINUOUS
 10
-104.25
 20
-165.5
 11
-104.25
 21
-145.5
  0
LINE
  5
21D
100
AcDbEntity
  8
0
100
AcDbLine
 62
7
  6
CONTINUOUS
 10
-153.6847316954
 20
-152.185510924
 11
-46.1847316954
 21
153.814489076
  0
LINE
  5
21E
100
AcDbEntity
  8
0
100
AcDbLine
 62
7
  6
CONTINUOUS
 10
-134.8152683046
 20
-158.814489076
 11
-27.3152683046
 21
147.185510924
  0
LINE
  5
21F
100
AcDbEntity
  8
ASSI
100
AcDbLine
 62
7
  6
CONTINUOUS
 10
134.9521276653
 20
103.98125
 11
135.1436170042
 21
104.0374999464
  0
LINE
  5
220
100
AcDbEntity
  8
ASSI
100
AcDbLine
 62
7
  6
CONTINUOUS
 10
135.5265957713
 20
102.6875001073
 11
135.335106343
 21
102.63125
  0
LINE
  5
221
100
AcDbEntity
  8
ASSI
100
AcDbLine
 62
7
  6
CONTINUOUS
 10
136.5478724241
 20
102.4625
 11
136.739361763
 21
102.5187501073
  0
LINE
  5
222
100
AcDbEntity
  8
ASSI
100
AcDbLine
 62
7
  6
CONTINUOUS
 10
135.0797872245
 20
104.31875
 11
134.7606382817
 21
104.2062500268
  0
LINE
  5
223
100
AcDbEntity
  8
ASSI
100
AcDbLine
 62
7
  6
CONTINUOUS
 10
135.3989362121
 20
102.3500001073
 11
135.7180851102
 21
102.4625
  0
LINE
  5
224
100
AcDbEntity
  8
ASSI
100
AcDbLine
 62
7
  6
CONTINUOUS
 10
139.0329787225
 20
97.3750000268
 11
141.65
 21
98.1625
  0
LINE
  5
225
100
AcDbEntity
  8
ASSI
100
AcDbLine
 62
7
  6
CONTINUOUS
 10
134.6329787225
 20
87.95
 11
137.25
 21
88.7374995708
  0
LINE
  5
226
100
AcDbEntity
  8
ASSI
100
AcDbLine
 62
7
  6
CONTINUOUS
 10
134.25
 20
99.6499997854
 11
137.25
 21
100.5499998927
  0
LINE
  5
227
100
AcDbEntity
  8
ASSI
100
AcDbLine
 62
7
  6
CONTINUOUS
 10
141.65
 20
98.5
 11
138.65
 21
97.5999999732
  0
LINE
  5
228
100
AcDbEntity
  8
ASSI
100
AcDbLine
 62
7
  6
CONTINUOUS
 10
137.25
 20
89.0749995708
 11
134.25
 21
88.1750004292
  0
LINE
  5
229
100
AcDbEntity
  8
ASSI
100
AcDbLine
 62
7
  6
CONTINUOUS
 10
135.0159574449
 20
100.2124998927
 11
134.25
 21
99.9874997854
  0
LINE
  5
22A
100
AcDbEntity
  8
ASSI
100
AcDbLine
 62
7
  6
CONTINUOUS
 10
136.9946808815
 20
100.775
 11
135.2712765634
 21
100.26875
  0
LINE
  5
22B
100
AcDbEntity
  8
ASSI
100
AcDbLine
 62
7
  6
CONTINUOUS
 10
139.5436170042
 20
95.7437498927
 11
139.3521276653
 21
95.6875001073
  0
LINE
  5
22C
100
AcDbEntity
  8
ASSI
100
AcDbLine
 62
7
  6
CONTINUOUS
 10
135.4627659917
 20
92.3375
 11
135.2712765634
 21
92.2812495708
  0
LINE
  5
22D
100
AcDbEntity
  8
ASSI
100
AcDbLine
 62
7
  6
CONTINUOUS
 10
140.7563829064
 20
93.8312501073
 11
140.9478724241
 21
93.8874998927
  0
LINE
  5
22E
100
AcDbEntity
  8
ASSI
100
AcDbLine
 62
7
  6
CONTINUOUS
 10
135.1436170042
 20
91.49375
 11
134.9521276653
 21
91.4374995708
  0
LINE
  5
22F
100
AcDbEntity
  8
ASSI
100
AcDbLine
 62
7
  6
CONTINUOUS
 10
136.3563829064
 20
89.5812495708
 11
136.5478724241
 21
89.6375
  0
LINE
  5
230
100
AcDbEntity
  8
0
100
AcDbLine
 62
7
  6
CONTINUOUS
 10
-44.7331619583
 20
-19.022385337
 11
62.7668380417
 21
-161.522385337
  0
LINE
  5
231
100
AcDbEntity
  8
RACCORDO
100
AcDbLine
 62
250
  6
CONTINUOUS
 10
-16.5277777778
 20
89.0150073685
 11
-16.7374781575
 21
87.9571322474
  0
LINE
  5
232
100
AcDbEntity
  8
RACCORDO
100
AcDbLine
 62
250
  6
CONTINUOUS
 10
-56.9722222222
 20
-115.0150073685
 11
-56.7625218425
 21
-113.9571322474
  0
LINE
  5
233
100
AcDbEntity
  8
RACCORDO
100
AcDbLine
 62
250
  6
CONTINUOUS
 10
-21.1944444444
 20
65.4730825912
 11
-21.4321156536
 21
64.274103078
  0
LINE
  5
234
100
AcDbEntity
  8
RACCORDO
100
AcDbLine
 62
250
  6
CONTINUOUS
 10
-52.3055555556
 20
-91.4730825912
 11
-52.0678843464
 21
-90.274103078
  0
LINE
  5
235
100
AcDbEntity
  8
RACCORDO
100
AcDbLine
 62
250
  6
CONTINUOUS
 10
-51.5277777778
 20
-87.5494284616
 11
-51.7069662869
 21
-88.4533804052
  0
LINE
  5
236
100
AcDbEntity
  8
RACCORDO
100
AcDbLine
 62
250
  6
CONTINUOUS
 10
-21.9722222222
 20
61.5494284616
 11
-21.7930337131
 21
62.4533804052
  0
LINE
  5
237
100
AcDbEntity
  8
RACCORDO
100
AcDbLine
 62
250
  6
CONTINUOUS
 10
-56.1944444444
 20
-111.0913532389
 11
-56.4034461219
 21
-112.1457036178
  0
LINE
  5
238
100
AcDbEntity
  8
RACCORDO
100
AcDbLine
 62
250
  6
CONTINUOUS
 10
-17.3055555556
 20
85.0913532389
 11
-17.0965538781
 21
86.1457036178
  0
LINE
  5
239
100
AcDbEntity
  8
ASSI
100
AcDbLine
 62
7
  6
CONTINUOUS
 10
99.1352632903
 20
102.0
 11
123.5538475773
 21
116.0980762114
  0
LINE
  5
23A
100
AcDbEntity
  8
ASSI
100
AcDbLine
 62
7
  6
CONTINUOUS
 10
135.0159574449
 20
94.025
 11
134.7606382817
 21
93.9125004292
  0
LINE
  5
23B
100
AcDbEntity
  8
ASSI
100
AcDbLine
 62
7
  6
CONTINUOUS
 10
139.3521276653
 20
95.6875001073
 11
139.0968085021
 21
95.5749998927
  0
LINE
  5
23C
100
AcDbEntity
  8
ASSI
100
AcDbLine
 62
7
  6
CONTINUOUS
 10
134.7606382817
 20
93.5750004292
 11
135.0159574449
 21
93.6875
  0
LINE
  5
23D
100
AcDbEntity
  8
ASSI
100
AcDbLine
 62
7
  6
CONTINUOUS
 10
134.9521276653
 20
91.4374995708
 11
134.6968085021
 21
91.325
  0
LINE
  5
23E
100
AcDbEntity
  8
ASSI
100
AcDbLine
 62
7
  6
CONTINUOUS
 10
140.9478724241
 20
93.8874998927
 11
141.2031915426
 21
94.0000001073
  0
LINE
  5
23F
100
AcDbEntity
  8
ASSI
100
AcDbLine
 62
7
  6
CONTINUOUS
 10
135.335106343
 20
92.0
 11
135.6542553306
 21
92.1124995708
  0
LINE
  5
240
100
AcDbEntity
  8
RACCORDO
100
AcDbLine
 62
250
  6
CONTINUOUS
 10
-111.0739898174
 20
37.7537637779
 11
-110.3614975254
 21
37.2672228162
  0
LINE
  5
241
100
AcDbEntity
  8
RACCORDO
100
AcDbLine
 62
250
  6
CONTINUOUS
 10
-99.5124802903
 20
29.8587338569
 11
-98.6720937991
 21
29.284857541
  0
LINE
  5
242
100
AcDbEntity
  8
RACCORDO
100
AcDbLine
 62
250
  6
CONTINUOUS
 10
37.5739898174
 20
-63.7537637779
 11
36.8614975254
 21
-63.2672228162
  0
LINE
  5
243
100
AcDbEntity
  8
RACCORDO
100
AcDbLine
 62
250
  6
CONTINUOUS
 10
26.0124802903
 20
-55.8587338569
 11
25.1720937991
 21
-55.284857541
  0
LINE
  5
244
100
AcDbEntity
  8
RACCORDO
100
AcDbLine
 62
250
  6
CONTINUOUS
 10
22.7091918539
 20
-53.6030110223
 11
23.3180149365
 21
-54.0187591944
  0
LINE
  5
245
100
AcDbEntity
  8
RACCORDO
100
AcDbLine
 62
250
  6
CONTINUOUS
 10
34.2707013811
 20
-61.4980409433
 11
35.0139504972
 21
-62.0055848758
  0
LINE
  5
246
100
AcDbEntity
  8
RACCORDO
100
AcDbLine
 62
250
  6
CONTINUOUS
 10
-96.2091918539
 20
27.6030110223
 11
-96.8180149365
 21
28.0187591944
  0
LINE
  5
247
100
AcDbEntity
  8
RACCORDO
100
AcDbLine
 62
250
  6
CONTINUOUS
 10
-107.7707013811
 20
35.4980409433
 11
-108.5139504972
 21
36.0055848758
  0
LINE
  5
248
100
AcDbEntity
  8
RACCORDO
100
AcDbLine
 62
250
  6
CONTINUOUS
 10
-87.5037637779
 20
61.3239898174
 11
-87.0172228162
 21
60.6114975254
  0
LINE
  5
249
100
AcDbEntity
  8
RACCORDO
100
AcDbLine
 62
250
  6
CONTINUOUS
 10
-85.2480409433
 20
58.0207013811
 11
-85.7555848758
 21
58.7639504972
  0
LINE
  5
24A
100
AcDbEntity
  8
RACCORDO
100
AcDbLine
 62
250
  6
CONTINUOUS
 10
-52.3055555556
 20
65.4730825912
 11
-52.0678843464
 21
64.274103078
  0
LINE
  5
24B
100
AcDbEntity
  8
RACCORDO
100
AcDbLine
 62
250
  6
CONTINUOUS
 10
-16.5277777778
 20
-115.0150073685
 11
-16.7374781575
 21
-113.9571322474
  0
LINE
  5
24C
100
AcDbEntity
  8
RACCORDO
100
AcDbLine
 62
250
  6
CONTINUOUS
 10
-21.1944444444
 20
-91.4730825912
 11
-21.4321156536
 21
-90.274103078
  0
LINE
  5
24D
100
AcDbEntity
  8
RACCORDO
100
AcDbLine
 62
250
  6
CONTINUOUS
 10
-21.9722222222
 20
-87.5494284616
 11
-21.7930337131
 21
-88.4533804052
  0
LINE
  5
24E
100
AcDbEntity
  8
RACCORDO
100
AcDbLine
 62
250
  6
CONTINUOUS
 10
-17.3055555556
 20
-111.0913532389
 11
-17.0965538781
 21
-112.1457036178
  0
LINE
  5
24F
100
AcDbEntity
  8
RACCORDO
100
AcDbLine
 62
250
  6
CONTINUOUS
 10
-51.5277777778
 20
61.5494284616
 11
-51.7069662869
 21
62.4533804052
  0
LINE
  5
250
100
AcDbEntity
  8
RACCORDO
100
AcDbLine
 62
250
  6
CONTINUOUS
 10
-87.5037637779
 20
-87.3239898174
 11
-87.0172228162
 21
-86.6114975254
  0
LINE
  5
251
100
AcDbEntity
  8
RACCORDO
100
AcDbLine
 62
250
  6
CONTINUOUS
 10
-79.6087338569
 20
-75.7624802903
 11
-79.034857541
 21
-74.9220937991
  0
LINE
  5
252
100
AcDbEntity
  8
RACCORDO
100
AcDbLine
 62
250
  6
CONTINUOUS
 10
14.0037637779
 20
61.3239898174
 11
13.5172228162
 21
60.6114975254
  0
LINE
  5
253
100
AcDbEntity
  8
RACCORDO
100
AcDbLine
 62
250
  6
CONTINUOUS
 10
6.1087338569
 20
49.7624802903
 11
5.534857541
 21
48.9220937991
  0
LINE
  5
254
100
AcDbEntity
  8
RACCORDO
100
AcDbLine
 62
250
  6
CONTINUOUS
 10
3.8530110223
 20
46.4591918539
 11
4.2687591944
 21
47.0680149365
  0
LINE
  5
255
100
AcDbEntity
  8
RACCORDO
100
AcDbLine
 62
250
  6
CONTINUOUS
 10
11.7480409433
 20
58.0207013811
 11
12.2555848758
 21
58.7639504972
  0
LINE
  5
256
100
AcDbEntity
  8
RACCORDO
100
AcDbLine
 62
250
  6
CONTINUOUS
 10
-77.3530110223
 20
-72.4591918539
 11
-77.7687591944
 21
-73.0680149365
  0
LINE
  5
257
100
AcDbEntity
  8
RACCORDO
100
AcDbLine
 62
250
  6
CONTINUOUS
 10
-85.2480409433
 20
-84.0207013811
 11
-85.7555848758
 21
-84.7639504972
  0
LINE
  5
258
100
AcDbEntity
  8
ASSI
100
AcDbLine
 62
7
  6
CONTINUOUS
 10
134.7606382817
 20
103.8687499464
 11
134.9521276653
 21
103.98125
  0
LINE
  5
259
100
AcDbEntity
  8
ASSI
100
AcDbLine
 62
7
  6
CONTINUOUS
 10
136.739361763
 20
102.8562499464
 11
136.5478724241
 21
102.7437498927
  0
LINE
  5
25A
100
AcDbEntity
  8
ASSI
100
AcDbLine
 62
7
  6
CONTINUOUS
 10
126.689375
 20
94.62407
 11
126.302094
 21
94.406701
  0
LINE
  5
25B
100
AcDbEntity
  8
ASSI
100
AcDbLine
 62
7
  6
CONTINUOUS
 10
136.5478724241
 20
89.6375
 11
136.8031915426
 21
89.7499995708
  0
LINE
  5
25C
100
AcDbEntity
  8
ASSI
100
AcDbLine
 62
7
  6
CONTINUOUS
 10
135.7819148898
 20
86.3749995708
 11
135.6542553306
 21
86.3187504292
  0
LINE
  5
25D
100
AcDbEntity
  8
ASSI
100
AcDbLine
 62
7
  6
CONTINUOUS
 10
135.6542553306
 20
85.41875
 11
135.7819148898
 21
85.4750004292
  0
LINE
  5
25E
100
AcDbEntity
  8
RACCORDO
100
AcDbLine
 62
250
  6
CONTINUOUS
 10
-135.8957036178
 20
6.6534461219
 11
-134.8413532389
 21
6.4444444444
  0
LINE
  5
25F
100
AcDbEntity
  8
RACCORDO
100
AcDbLine
 62
250
  6
CONTINUOUS
 10
-112.2033804052
 20
1.9569662869
 11
-111.2994284616
 21
1.7777777778
  0
LINE
  5
260
100
AcDbEntity
  8
RACCORDO
100
AcDbLine
 62
250
  6
CONTINUOUS
 10
38.7033804052
 20
-27.9569662869
 11
37.7994284616
 21
-27.7777777778
  0
LINE
  5
261
100
AcDbEntity
  8
RACCORDO
100
AcDbLine
 62
250
  6
CONTINUOUS
 10
40.524103078
 20
-28.3178843464
 11
41.7230825912
 21
-28.5555555556
  0
LINE
  5
262
100
AcDbEntity
  8
RACCORDO
100
AcDbLine
 62
250
  6
CONTINUOUS
 10
61.3413532389
 20
-32.4444444444
 11
62.3957036178
 21
-32.6534461219
  0
LINE
  5
263
100
AcDbEntity
  8
RACCORDO
100
AcDbLine
 62
250
  6
CONTINUOUS
 10
64.2071322474
 20
-33.0125218425
 11
65.2650073685
 21
-33.2222222222
  0
LINE
  5
264
100
AcDbEntity
  8
RACCORDO
100
AcDbLine
 62
250
  6
CONTINUOUS
 10
-114.024103078
 20
2.3178843464
 11
-115.2230825912
 21
2.5555555556
  0
LINE
  5
265
100
AcDbEntity
  8
RACCORDO
100
AcDbLine
 62
250
  6
CONTINUOUS
 10
-137.7071322474
 20
7.0125218425
 11
-138.7650073685
 21
7.2222222222
  0
LINE
  5
266
100
AcDbEntity
  8
0
100
AcDbLine
 62
7
  6
CONTINUOUS
 10
-28.7668380417
 20
-6.977614663
 11
78.7331619583
 21
-149.477614663
  0
LINE
  5
267
100
AcDbEntity
  8
RACCORDO
100
AcDbLine
 62
250
  6
CONTINUOUS
 10
37.5739898174
 20
37.7537637779
 11
36.8614975254
 21
37.2672228162
  0
LINE
  5
268
100
AcDbEntity
  8
RACCORDO
100
AcDbLine
 62
250
  6
CONTINUOUS
 10
26.0124802903
 20
29.8587338569
 11
25.1720937991
 21
29.284857541
  0
LINE
  5
269
100
AcDbEntity
  8
RACCORDO
100
AcDbLine
 62
250
  6
CONTINUOUS
 10
22.7091918539
 20
27.6030110223
 11
23.3180149365
 21
28.0187591944
  0
LINE
  5
26A
100
AcDbEntity
  8
RACCORDO
100
AcDbLine
 62
250
  6
CONTINUOUS
 10
34.2707013811
 20
35.4980409433
 11
35.0139504972
 21
36.0055848758
  0
LINE
  5
26B
100
AcDbEntity
  8
RACCORDO
100
AcDbLine
 62
250
  6
CONTINUOUS
 10
-96.2091918539
 20
-53.6030110223
 11
-96.8180149365
 21
-54.0187591944
  0
LINE
  5
26C
100
AcDbEntity
  8
ASSI
100
AcDbLine
 62
7
  6
CONTINUOUS
 10
134.7606382817
 20
104.2062500268
 11
134.5053191409
 21
104.0374999464
  0
LINE
  5
26D
100
AcDbEntity
  8
ASSI
100
AcDbLine
 62
7
  6
CONTINUOUS
 10
136.739361763
 20
102.5187501073
 11
136.9946808815
 21
102.6875001073
  0
LINE
  5
26E
100
AcDbEntity
  8
ASSI
100
AcDbLine
 62
7
  6
CONTINUOUS
 10
134.7606382817
 20
93.9125004292
 11
134.5053191409
 21
93.7437504292
  0
LINE
  5
26F
100
AcDbEntity
  8
ASSI
100
AcDbLine
 62
7
  6
CONTINUOUS
 10
135.6542553306
 20
92.1124995708
 11
135.9095744491
 21
92.2812495708
  0
LINE
  5
270
100
AcDbEntity
  8
ASSI
100
AcDbLine
 62
7
  6
CONTINUOUS
 10
136.739361763
 20
94.9249997854
 11
136.5478724241
 21
94.8125002146
  0
LINE
  5
271
100
AcDbEntity
  8
ASSI
100
AcDbLine
 62
7
  6
CONTINUOUS
 10
139.1606382817
 20
95.2374998927
 11
139.5436170042
 21
95.4625
  0
LINE
  5
272
100
AcDbEntity
  8
ASSI
100
AcDbLine
 62
7
  6
CONTINUOUS
 10
135.6542553306
 20
92.4499995708
 11
135.4627659917
 21
92.3375
  0
LINE
  5
273
100
AcDbEntity
  8
ASSI
100
AcDbLine
 62
7
  6
CONTINUOUS
 10
134.7606382817
 20
90.9875
 11
135.1436170042
 21
91.2125004292
  0
LINE
  5
274
100
AcDbEntity
  8
ASSI
100
AcDbLine
 62
7
  6
CONTINUOUS
 10
141.139361763
 20
94.3375001073
 11
140.7563829064
 21
94.1125
  0
LINE
  5
275
100
AcDbEntity
  8
ASSI
100
AcDbLine
 62
7
  6
CONTINUOUS
 10
136.739361763
 20
90.0874995708
 11
136.3563829064
 21
89.8625004292
  0
LINE
  5
276
100
AcDbEntity
  8
RACCORDO
100
AcDbLine
 62
250
  6
CONTINUOUS
 10
-112.2033804052
 20
-27.9569662869
 11
-111.2994284616
 21
-27.7777777778
  0
LINE
  5
277
100
AcDbEntity
  8
RACCORDO
100
AcDbLine
 62
250
  6
CONTINUOUS
 10
38.7033804052
 20
1.9569662869
 11
37.7994284616
 21
1.7777777778
  0
LINE
  5
278
100
AcDbEntity
  8
RACCORDO
100
AcDbLine
 62
250
  6
CONTINUOUS
 10
40.524103078
 20
2.3178843464
 11
41.7230825912
 21
2.5555555556
  0
LINE
  5
279
100
AcDbEntity
  8
RACCORDO
100
AcDbLine
 62
250
  6
CONTINUOUS
 10
61.3413532389
 20
6.4444444444
 11
62.3957036178
 21
6.6534461219
  0
LINE
  5
27A
100
AcDbEntity
  8
RACCORDO
100
AcDbLine
 62
250
  6
CONTINUOUS
 10
64.2071322474
 20
7.0125218425
 11
65.2650073685
 21
7.2222222222
  0
LINE
  5
27B
100
AcDbEntity
  8
RACCORDO
100
AcDbLine
 62
250
  6
CONTINUOUS
 10
-114.024103078
 20
-28.3178843464
 11
-115.2230825912
 21
-28.5555555556
  0
LINE
  5
27C
100
AcDbEntity
  8
RACCORDO
100
AcDbLine
 62
250
  6
CONTINUOUS
 10
-134.8413532389
 20
-32.4444444444
 11
-135.8957036178
 21
-32.6534461219
  0
LINE
  5
27D
100
AcDbEntity
  8
RACCORDO
100
AcDbLine
 62
250
  6
CONTINUOUS
 10
-137.7071322474
 20
-33.0125218425
 11
-138.7650073685
 21
-33.2222222222
  0
LINE
  5
27E
100
AcDbEntity
  8
ASSI
100
AcDbLine
 62
7
  6
CONTINUOUS
 10
135.6542553306
 20
102.8
 11
135.5265957713
 21
102.6875001073
  0
LINE
  5
27F
100
AcDbEntity
  8
ASSI
100
AcDbLine
 62
7
  6
CONTINUOUS
 10
135.7180851102
 20
102.4625
 11
135.9095744491
 21
102.63125
  0
LINE
  5
280
100
AcDbEntity
  8
0
100
AcDbLine
 62
250
  6
CONTINUOUS
 10
-11.9041590981
 20
-29.3304681463
 11
-27.8704830148
 21
-41.3752388203
  0
LINE
  5
281
100
AcDbEntity
  8
0
100
AcDbLine
 62
250
  6
CONTINUOUS
 10
30.75
 20
-165.5
 11
30.75
 21
-145.5
  0
LINE
  5
282
100
AcDbEntity
  8
ASSI
100
AcDbLine
 62
7
  6
CONTINUOUS
 10
136.8031915426
 20
94.53125
 11
137.0585106611
 21
94.7562497854
  0
LINE
  5
283
100
AcDbEntity
  8
ASSI
100
AcDbLine
 62
7
  6
CONTINUOUS
 10
139.0968085021
 20
95.5749998927
 11
138.9053191409
 21
95.4062498927
  0
LINE
  5
284
100
AcDbEntity
  8
ASSI
100
AcDbLine
 62
7
  6
CONTINUOUS
 10
134.6968085021
 20
91.325
 11
134.5053191409
 21
91.15625
  0
LINE
  5
285
100
AcDbEntity
  8
ASSI
100
AcDbLine
 62
7
  6
CONTINUOUS
 10
141.2031915426
 20
94.0000001073
 11
141.3946808815
 21
94.1687501073
  0
LINE
  5
286
100
AcDbEntity
  8
ASSI
100
AcDbLine
 62
7
  6
CONTINUOUS
 10
136.8031915426
 20
89.7499995708
 11
136.9946808815
 21
89.9187495708
  0
LINE
  5
287
100
AcDbEntity
  8
ASSI
100
AcDbLine
 62
7
  6
CONTINUOUS
 10
134.6329787225
 20
103.6999999464
 11
134.7606382817
 21
103.8687499464
  0
LINE
  5
288
100
AcDbEntity
  8
ASSI
100
AcDbLine
 62
7
  6
CONTINUOUS
 10
135.7819148898
 20
102.96875
 11
135.6542553306
 21
102.8
  0
LINE
  5
289
100
AcDbEntity
  8
ASSI
100
AcDbLine
 62
7
  6
CONTINUOUS
 10
136.8670213223
 20
103.0249999464
 11
136.739361763
 21
102.8562499464
  0
LINE
  5
28A
100
AcDbEntity
  8
ASSI
100
AcDbLine
 62
7
  6
CONTINUOUS
 10
129.197655
 20
97.018141
 11
128.127635
 21
95.748398
  0
LINE
  5
28B
100
AcDbEntity
  8
ASSI
100
AcDbLine
 62
7
  6
CONTINUOUS
 10
128.712838
 20
95.748398
 11
129.832247
 21
97.076748
  0
LINE
  5
28C
100
AcDbEntity
  8
ASSI
100
AcDbLine
 62
7
  6
CONTINUOUS
 10
134.5053191409
 20
104.0374999464
 11
134.3138297852
 21
103.7562500536
  0
LINE
  5
28D
100
AcDbEntity
  8
ASSI
100
AcDbLine
 62
7
  6
CONTINUOUS
 10
135.9095744491
 20
102.63125
 11
136.1010637879
 21
102.9125000536
  0
LINE
  5
28E
100
AcDbEntity
  8
ASSI
100
AcDbLine
 62
7
  6
CONTINUOUS
 10
136.9946808815
 20
102.6875001073
 11
137.1861702204
 21
102.96875
  0
LINE
  5
28F
100
AcDbEntity
  8
ASSI
100
AcDbLine
 62
7
  6
CONTINUOUS
 10
134.5053191409
 20
93.7437504292
 11
134.3138297852
 21
93.4624995708
  0
LINE
  5
290
100
AcDbEntity
  8
ASSI
100
AcDbLine
 62
7
  6
CONTINUOUS
 10
134.5053191409
 20
91.15625
 11
134.3138297852
 21
90.8750004292
  0
LINE
  5
291
100
AcDbEntity
  8
ASSI
100
AcDbLine
 62
7
  6
CONTINUOUS
 10
135.9095744491
 20
92.2812495708
 11
136.1010637879
 21
92.5625004292
  0
LINE
  5
292
100
AcDbEntity
  8
ASSI
100
AcDbLine
 62
7
  6
CONTINUOUS
 10
138.9053191409
 20
95.4062498927
 11
138.7138297852
 21
95.125
  0
LINE
  5
293
100
AcDbEntity
  8
ASSI
100
AcDbLine
 62
7
  6
CONTINUOUS
 10
136.9946808815
 20
89.9187495708
 11
137.1861702204
 21
90.2000004292
  0
LINE
  5
294
100
AcDbEntity
  8
ASSI
100
AcDbLine
 62
7
  6
CONTINUOUS
 10
134.6329787225
 20
93.4062504292
 11
134.7606382817
 21
93.5750004292
  0
LINE
  5
295
100
AcDbEntity
  8
ASSI
100
AcDbLine
 62
7
  6
CONTINUOUS
 10
136.8670213223
 20
95.0937497854
 11
136.739361763
 21
94.9249997854
  0
LINE
  5
296
100
AcDbEntity
  8
ASSI
100
AcDbLine
 62
7
  6
CONTINUOUS
 10
135.7819148898
 20
92.6187495708
 11
135.6542553306
 21
92.4499995708
  0
LINE
  5
297
100
AcDbEntity
  8
ASSI
100
AcDbLine
 62
7
  6
CONTINUOUS
 10
134.6329787225
 20
90.81875
 11
134.7606382817
 21
90.9875
  0
LINE
  5
298
100
AcDbEntity
  8
ASSI
100
AcDbLine
 62
7
  6
CONTINUOUS
 10
139.0329787225
 20
95.0687498927
 11
139.1606382817
 21
95.2374998927
  0
LINE
  5
299
100
AcDbEntity
  8
ASSI
100
AcDbLine
 62
7
  6
CONTINUOUS
 10
136.8670213223
 20
90.2562495708
 11
136.739361763
 21
90.0874995708
  0
LINE
  5
29A
100
AcDbEntity
  8
ASSI
100
AcDbLine
 62
7
  6
CONTINUOUS
 10
141.2670213223
 20
94.5062501073
 11
141.139361763
 21
94.3375001073
  0
LINE
  5
29B
100
AcDbEntity
  8
ASSI
100
AcDbLine
 62
7
  6
CONTINUOUS
 10
136.5478724241
 20
94.4749995708
 11
136.8031915426
 21
94.53125
  0
LINE
  5
29C
100
AcDbEntity
  8
ASSI
100
AcDbLine
 62
7
  6
CONTINUOUS
 10
137.0585106611
 20
94.7562497854
 11
137.1861702204
 21
94.9812502146
  0
LINE
  5
29D
100
AcDbEntity
  8
ASSI
100
AcDbLine
 62
7
  6
CONTINUOUS
 10
135.7819148898
 20
86.1500004292
 11
135.5265957713
 21
85.6999995708
  0
LINE
  5
29E
100
AcDbEntity
  8
ASSI
100
AcDbLine
 62
7
  6
CONTINUOUS
 10
135.6542553306
 20
85.6999995708
 11
135.9095744491
 21
86.1500004292
  0
LINE
  5
29F
100
AcDbEntity
  8
ASSI
100
AcDbLine
 62
7
  6
CONTINUOUS
 10
141.3946808815
 20
94.1687501073
 11
141.5861702204
 21
94.45
  0
LINE
  5
2A0
100
AcDbEntity
  8
ASSI
100
AcDbLine
 62
7
  6
CONTINUOUS
 10
99.25
 20
102.0662432703
 11
124.25
 21
109.0
  0
LINE
  5
2A1
100
AcDbEntity
  8
ASSI
100
AcDbLine
 62
7
  6
CONTINUOUS
 10
136.0372340083
 20
89.5250004292
 11
136.3563829064
 21
89.5812495708
  0
LINE
  5
2A2
100
AcDbEntity
  8
ASSI
100
AcDbLine
 62
7
  6
CONTINUOUS
 10
135.4627659917
 20
91.5500004292
 11
135.1436170042
 21
91.49375
  0
LINE
  5
2A3
100
AcDbEntity
  8
ASSI
100
AcDbLine
 62
7
  6
CONTINUOUS
 10
140.4372340083
 20
93.775
 11
140.7563829064
 21
93.8312501073
  0
LINE
  5
2A4
100
AcDbEntity
  8
ASSI
100
AcDbLine
 62
7
  6
CONTINUOUS
 10
139.8627659917
 20
95.8
 11
139.5436170042
 21
95.7437498927
  0
LINE
  5
2A5
100
AcDbEntity
  8
ASSI
100
AcDbLine
 62
7
  6
CONTINUOUS
 10
136.3563829064
 20
89.8625004292
 11
135.9734042287
 21
89.80625
  0
LINE
  5
2A6
100
AcDbEntity
  8
ASSI
100
AcDbLine
 62
7
  6
CONTINUOUS
 10
135.1436170042
 20
91.2125004292
 11
135.5265957713
 21
91.2687495708
  0
LINE
  5
2A7
100
AcDbEntity
  8
ASSI
100
AcDbLine
 62
7
  6
CONTINUOUS
 10
140.7563829064
 20
94.1125
 11
140.3734042287
 21
94.0562498927
  0
LINE
  5
2A8
100
AcDbEntity
  8
ASSI
100
AcDbLine
 62
7
  6
CONTINUOUS
 10
139.5436170042
 20
95.4625
 11
139.9265957713
 21
95.5187501073
  0
LINE
  5
2A9
100
AcDbEntity
  8
ASSI
100
AcDbLine
 62
7
  6
CONTINUOUS
 10
125.0538475773
 20
74.5
 11
142.25
 21
74.5
  0
LINE
  5
2AA
100
AcDbEntity
  8
ASSI
100
AcDbLine
 62
7
  6
CONTINUOUS
 10
83.25
 20
89.0
 11
83.25
 21
102.0
  0
LINE
  5
2AB
100
AcDbEntity
  8
ASSI
100
AcDbLine
 62
7
  6
CONTINUOUS
 10
87.05
 20
102.0
 11
87.05
 21
89.0
  0
LINE
  5
2AC
100
AcDbEntity
  8
ASSI
100
AcDbLine
 62
7
  6
CONTINUOUS
 10
89.55
 20
89.0
 11
89.55
 21
102.0
  0
LINE
  5
2AD
100
AcDbEntity
  8
ASSI
100
AcDbLine
 62
7
  6
CONTINUOUS
 10
92.05
 20
102.0
 11
92.05
 21
89.0
  0
LINE
  5
2AE
100
AcDbEntity
  8
ASSI
100
AcDbLine
 62
7
  6
CONTINUOUS
 10
94.55
 20
89.0
 11
94.55
 21
102.0
  0
LINE
  5
2AF
100
AcDbEntity
  8
ASSI
100
AcDbLine
 62
7
  6
CONTINUOUS
 10
134.5691489428
 20
103.5312499464
 11
134.6329787225
 21
103.6999999464
  0
LINE
  5
2B0
100
AcDbEntity
  8
ASSI
100
AcDbLine
 62
7
  6
CONTINUOUS
 10
135.8457446694
 20
103.1375
 11
135.7819148898
 21
102.96875
  0
LINE
  5
2B1
100
AcDbEntity
  8
ASSI
100
AcDbLine
 62
7
  6
CONTINUOUS
 10
136.9308511019
 20
103.1937499464
 11
136.8670213223
 21
103.0249999464
  0
LINE
  5
2B2
100
AcDbEntity
  8
ASSI
100
AcDbLine
 62
7
  6
CONTINUOUS
 10
135.5265957713
 20
104.3750000268
 11
135.0797872245
 21
104.31875
  0
LINE
  5
2B3
100
AcDbEntity
  8
ASSI
100
AcDbLine
 62
7
  6
CONTINUOUS
 10
152.25
 20
80.0
 11
159.05
 21
80.0
  0
LINE
  5
2B4
100
AcDbEntity
  8
ASSI
100
AcDbLine
 62
7
  6
CONTINUOUS
 10
142.25
 20
80.1
 11
152.25
 21
80.1
  0
LINE
  5
2B5
100
AcDbEntity
  8
ASSI
100
AcDbLine
 62
7
  6
CONTINUOUS
 10
124.6620757021
 20
82.0
 11
142.25
 21
82.0
  0
LINE
  5
2B6
100
AcDbEntity
  8
ASSI
100
AcDbLine
 62
7
  6
CONTINUOUS
 10
142.25
 20
84.9
 11
152.25
 21
84.9
  0
LINE
  5
2B7
100
AcDbEntity
  8
ASSI
100
AcDbLine
 62
7
  6
CONTINUOUS
 10
152.25
 20
85.0
 11
159.05
 21
85.0
  0
LINE
  5
2B8
100
AcDbEntity
  8
ASSI
100
AcDbLine
 62
7
  6
CONTINUOUS
 10
83.25
 20
89.0
 11
124.6620757021
 21
89.0
  0
LINE
  5
2B9
100
AcDbEntity
  8
ASSI
100
AcDbLine
 62
7
  6
CONTINUOUS
 10
135.4627659917
 20
89.5250004292
 11
136.0372340083
 21
89.5250004292
  0
LINE
  5
2BA
100
AcDbEntity
  8
ASSI
100
AcDbLine
 62
7
  6
CONTINUOUS
 10
135.9734042287
 20
89.80625
 11
135.5265957713
 21
89.80625
  0
LINE
  5
2BB
100
AcDbEntity
  8
ASSI
100
AcDbLine
 62
250
  6
CONTINUOUS
 10
97.05
 20
90.0
 11
94.55
 21
90.0
  0
LINE
  5
2BC
100
AcDbEntity
  8
ASSI
100
AcDbLine
 62
250
  6
CONTINUOUS
 10
92.05
 20
90.0
 11
89.55
 21
90.0
  0
LINE
  5
2BD
100
AcDbEntity
  8
ASSI
100
AcDbLine
 62
250
  6
CONTINUOUS
 10
87.05
 20
90.0
 11
83.25
 21
90.0
  0
LINE
  5
2BE
100
AcDbEntity
  8
ASSI
100
AcDbLine
 62
7
  6
CONTINUOUS
 10
135.5265957713
 20
91.2687495708
 11
135.9734042287
 21
91.2687495708
  0
LINE
  5
2BF
100
AcDbEntity
  8
ASSI
100
AcDbLine
 62
7
  6
CONTINUOUS
 10
83.25
 20
91.5
 11
31.8334775856
 21
91.5
  0
LINE
  5
2C0
100
AcDbEntity
  8
ASSI
100
AcDbLine
 62
7
  6
CONTINUOUS
 10
136.0372340083
 20
91.5500004292
 11
135.4627659917
 21
91.5500004292
  0
LINE
  5
2C1
100
AcDbEntity
  8
ASSI
100
AcDbLine
 62
7
  6
CONTINUOUS
 10
135.0797872245
 20
92.0
 11
135.335106343
 21
92.0
  0
LINE
  5
2C2
100
AcDbEntity
  8
ASSI
100
AcDbLine
 62
7
  6
CONTINUOUS
 10
136.9308511019
 20
92.1124995708
 11
137.25
 21
92.1124995708
  0
LINE
  5
2C3
100
AcDbEntity
  8
ASSI
100
AcDbLine
 62
7
  6
CONTINUOUS
 10
135.2712765634
 20
92.2812495708
 11
135.1436170042
 21
92.2812495708
  0
LINE
  5
2C4
100
AcDbEntity
  8
ASSI
100
AcDbLine
 62
7
  6
CONTINUOUS
 10
138.65
 20
92.6499997854
 11
141.65
 21
92.6499997854
  0
LINE
  5
2C5
100
AcDbEntity
  8
ASSI
100
AcDbLine
 62
7
  6
CONTINUOUS
 10
141.139361763
 20
92.9874997854
 11
138.65
 21
92.9874997854
  0
LINE
  5
2C6
100
AcDbEntity
  8
ASSI
100
AcDbLine
 62
7
  6
CONTINUOUS
 10
142.25
 20
93.0
 11
159.55
 21
93.0
  0
LINE
  5
2C7
100
AcDbEntity
  8
ASSI
100
AcDbLine
 62
7
  6
CONTINUOUS
 10
141.2031915426
 20
93.3250001073
 11
140.6925531268
 21
93.3250001073
  0
LINE
  5
2C8
100
AcDbEntity
  8
ASSI
100
AcDbLine
 62
7
  6
CONTINUOUS
 10
135.9095744491
 20
93.7437504292
 11
136.9308511019
 21
93.7437504292
  0
LINE
  5
2C9
100
AcDbEntity
  8
ASSI
100
AcDbLine
 62
7
  6
CONTINUOUS
 10
139.8627659917
 20
93.775
 11
140.4372340083
 21
93.775
  0
LINE
  5
2CA
100
AcDbEntity
  8
ASSI
100
AcDbLine
 62
7
  6
CONTINUOUS
 10
137.25
 20
94.025
 11
135.5904255509
 21
94.025
  0
LINE
  5
2CB
100
AcDbEntity
  8
ASSI
100
AcDbLine
 62
7
  6
CONTINUOUS
 10
140.3734042287
 20
94.0562498927
 11
139.9265957713
 21
94.0562498927
  0
LINE
  5
2CC
100
AcDbEntity
  8
ASSI
100
AcDbLine
 62
7
  6
CONTINUOUS
 10
134.25
 20
94.4749995708
 11
134.5691489428
 21
94.4749995708
  0
LINE
  5
2CD
100
AcDbEntity
  8
ASSI
100
AcDbLine
 62
7
  6
CONTINUOUS
 10
136.4202126861
 20
94.4749995708
 11
136.5478724241
 21
94.4749995708
  0
LINE
  5
2CE
100
AcDbEntity
  8
ASSI
100
AcDbLine
 62
250
  6
CONTINUOUS
 10
123.7285714286
 20
89.0
 11
99.55
 21
90.0
  0
LINE
  5
2CF
100
AcDbEntity
  8
0
100
AcDbLine
 62
250
  6
CONTINUOUS
 10
-59.4426879995
 20
116.0755622942
 11
-40.5732246086
 21
109.4465841422
  0
LINE
  5
2D0
100
AcDbEntity
  8
ASSI
100
AcDbLine
 62
7
  6
CONTINUOUS
 10
97.05
 20
102.0
 11
97.05
 21
89.0
  0
LINE
  5
2D1
100
AcDbEntity
  8
ASSI
100
AcDbLine
 62
7
  6
CONTINUOUS
 10
99.25
 20
89.0
 11
99.25
 21
88.9337567297
  0
LINE
  5
2D2
100
AcDbEntity
  8
ASSI
100
AcDbLine
 62
7
  6
CONTINUOUS
 10
99.25
 20
102.0
 11
99.25
 21
102.0662432703
  0
LINE
  5
2D3
100
AcDbEntity
  8
ASSI
100
AcDbLine
 62
7
  6
CONTINUOUS
 10
99.55
 20
89.0
 11
99.55
 21
102.0
  0
LINE
  5
2D4
100
AcDbEntity
  8
ASSI
100
AcDbLine
 62
7
  6
CONTINUOUS
 10
134.3138297852
 20
103.7562500536
 11
134.25
 21
103.475
  0
LINE
  5
2D5
100
AcDbEntity
  8
ASSI
100
AcDbLine
 62
7
  6
CONTINUOUS
 10
136.1010637879
 20
102.9125000536
 11
136.1648935676
 21
103.1937499464
  0
LINE
  5
2D6
100
AcDbEntity
  8
ASSI
100
AcDbLine
 62
7
  6
CONTINUOUS
 10
134.5691489428
 20
93.18125
 11
134.6329787225
 21
93.4062504292
  0
LINE
  5
2D7
100
AcDbEntity
  8
ASSI
100
AcDbLine
 62
7
  6
CONTINUOUS
 10
135.8457446694
 20
92.84375
 11
135.7819148898
 21
92.6187495708
  0
LINE
  5
2D8
100
AcDbEntity
  8
ASSI
100
AcDbLine
 62
250
  6
CONTINUOUS
 10
99.55
 20
101.0
 11
118.8928571429
 21
101.8
  0
LINE
  5
2D9
100
AcDbEntity
  8
ASSI
100
AcDbLine
 62
7
  6
CONTINUOUS
 10
136.5478724241
 20
94.8125002146
 11
136.4202126861
 21
94.8125002146
  0
LINE
  5
2DA
100
AcDbEntity
  8
ASSI
100
AcDbLine
 62
7
  6
CONTINUOUS
 10
126.089734
 20
94.827009
 11
126.561955
 21
94.827009
  0
LINE
  5
2DB
100
AcDbEntity
  8
ASSI
100
AcDbLine
 62
7
  6
CONTINUOUS
 10
129.916846
 20
94.84243
 11
130.391663
 21
94.84243
  0
LINE
  5
2DC
100
AcDbEntity
  8
ASSI
100
AcDbLine
 62
7
  6
CONTINUOUS
 10
126.561955
 20
95.245335
 11
128.132916
 21
95.245335
  0
LINE
  5
2DD
100
AcDbEntity
  8
ASSI
100
AcDbLine
 62
7
  6
CONTINUOUS
 10
128.712838
 20
95.245335
 11
129.916846
 21
95.245335
  0
LINE
  5
2DE
100
AcDbEntity
  8
ASSI
100
AcDbLine
 62
7
  6
CONTINUOUS
 10
139.9265957713
 20
95.5187501073
 11
140.3734042287
 21
95.5187501073
  0
LINE
  5
2DF
100
AcDbEntity
  8
ASSI
100
AcDbLine
 62
7
  6
CONTINUOUS
 10
129.916846
 20
95.748398
 11
128.712838
 21
95.748398
  0
LINE
  5
2E0
100
AcDbEntity
  8
ASSI
100
AcDbLine
 62
7
  6
CONTINUOUS
 10
128.127635
 20
95.748398
 11
126.561955
 21
95.748398
  0
LINE
  5
2E1
100
AcDbEntity
  8
ASSI
100
AcDbLine
 62
7
  6
CONTINUOUS
 10
140.4372340083
 20
95.8
 11
139.8627659917
 21
95.8
  0
LINE
  5
2E2
100
AcDbEntity
  8
ASSI
100
AcDbLine
 62
7
  6
CONTINUOUS
 10
130.391663
 20
96.151466
 11
129.916846
 21
96.151466
  0
LINE
  5
2E3
100
AcDbEntity
  8
ASSI
100
AcDbLine
 62
7
  6
CONTINUOUS
 10
126.561955
 20
96.166887
 11
126.089734
 21
96.166887
  0
LINE
  5
2E4
100
AcDbEntity
  8
ASSI
100
AcDbLine
 62
7
  6
CONTINUOUS
 10
134.5691489428
 20
96.5000002146
 11
134.25
 21
96.5000002146
  0
LINE
  5
2E5
100
AcDbEntity
  8
ASSI
100
AcDbLine
 62
7
  6
CONTINUOUS
 10
142.25
 20
98.0
 11
159.55
 21
98.0
  0
LINE
  5
2E6
100
AcDbEntity
  8
ASSI
100
AcDbLine
 62
7
  6
CONTINUOUS
 10
83.25
 20
99.5
 11
17.7276407342
 21
99.5
  0
LINE
  5
2E7
100
AcDbEntity
  8
ASSI
100
AcDbLine
 62
250
  6
CONTINUOUS
 10
83.25
 20
101.0
 11
87.05
 21
101.0
  0
LINE
  5
2E8
100
AcDbEntity
  8
ASSI
100
AcDbLine
 62
250
  6
CONTINUOUS
 10
89.55
 20
101.0
 11
92.05
 21
101.0
  0
LINE
  5
2E9
100
AcDbEntity
  8
ASSI
100
AcDbLine
 62
250
  6
CONTINUOUS
 10
94.55
 20
101.0
 11
97.05
 21
101.0
  0
LINE
  5
2EA
100
AcDbEntity
  8
ASSI
100
AcDbLine
 62
7
  6
CONTINUOUS
 10
124.25
 20
102.0
 11
118.8928571429
 21
102.0
  0
LINE
  5
2EB
100
AcDbEntity
  8
ASSI
100
AcDbLine
 62
7
  6
CONTINUOUS
 10
83.25
 20
102.0
 11
118.0547784105
 21
102.0
  0
LINE
  5
2EC
100
AcDbEntity
  8
ASSI
100
AcDbLine
 62
7
  6
CONTINUOUS
 10
135.0797872245
 20
102.3500001073
 11
135.3989362121
 21
102.3500001073
  0
LINE
  5
2ED
100
AcDbEntity
  8
ASSI
100
AcDbLine
 62
7
  6
CONTINUOUS
 10
135.335106343
 20
102.63125
 11
135.1436170042
 21
102.63125
  0
LINE
  5
2EE
100
AcDbEntity
  8
ASSI
100
AcDbLine
 62
7
  6
CONTINUOUS
 10
135.1436170042
 20
104.0374999464
 11
135.335106343
 21
104.0374999464
  0
LINE
  5
2EF
100
AcDbEntity
  8
ASSI
100
AcDbLine
 62
7
  6
CONTINUOUS
 10
135.8457446694
 20
104.0937500536
 11
135.9734042287
 21
104.0937500536
  0
LINE
  5
2F0
100
AcDbEntity
  8
ASSI
100
AcDbLine
 62
7
  6
CONTINUOUS
 10
135.9734042287
 20
104.3750000268
 11
135.5265957713
 21
104.3750000268
  0
LINE
  5
2F1
100
AcDbEntity
  8
ASSI
100
AcDbLine
 62
7
  6
CONTINUOUS
 10
134.25
 20
104.825
 11
137.25
 21
104.825
  0
LINE
  5
2F2
100
AcDbEntity
  8
ASSI
100
AcDbLine
 62
7
  6
CONTINUOUS
 10
136.739361763
 20
105.1625
 11
134.25
 21
105.1625
  0
LINE
  5
2F3
100
AcDbEntity
  8
ASSI
100
AcDbLine
 62
7
  6
CONTINUOUS
 10
136.8031915426
 20
105.5
 11
136.2925531268
 21
105.5
  0
LINE
  5
2F4
100
AcDbEntity
  8
ASSI
100
AcDbLine
 62
7
  6
CONTINUOUS
 10
152.25
 20
106.0
 11
159.05
 21
106.0
  0
LINE
  5
2F5
100
AcDbEntity
  8
ASSI
100
AcDbLine
 62
7
  6
CONTINUOUS
 10
142.25
 20
106.1
 11
152.25
 21
106.1
  0
LINE
  5
2F6
100
AcDbEntity
  8
ASSI
100
AcDbLine
 62
7
  6
CONTINUOUS
 10
124.25
 20
109.0
 11
142.25
 21
109.0
  0
LINE
  5
2F7
100
AcDbEntity
  8
ASSI
100
AcDbLine
 62
7
  6
CONTINUOUS
 10
135.5265957713
 20
89.80625
 11
135.1436170042
 21
89.8625004292
  0
LINE
  5
2F8
100
AcDbEntity
  8
ASSI
100
AcDbLine
 62
7
  6
CONTINUOUS
 10
135.9734042287
 20
91.2687495708
 11
136.3563829064
 21
91.2125004292
  0
LINE
  5
2F9
100
AcDbEntity
  8
ASSI
100
AcDbLine
 62
7
  6
CONTINUOUS
 10
118.8928571429
 20
101.8
 11
118.8928571429
 21
102.0
  0
LINE
  5
2FA
100
AcDbEntity
  8
ASSI
100
AcDbLine
 62
250
  6
CONTINUOUS
 10
123.8531859255
 20
89.0
 11
123.8531859255
 21
82.1100564904
  0
LINE
  5
2FB
100
AcDbEntity
  8
ASSI
100
AcDbLine
 62
7
  6
CONTINUOUS
 10
124.25
 20
81.9695330392
 11
124.25
 21
74.609700868
  0
LINE
  5
2FC
100
AcDbEntity
  8
ASSI
100
AcDbLine
 62
7
  6
CONTINUOUS
 10
124.25
 20
89.0
 11
124.25
 21
116.390299132
  0
LINE
  5
2FD
100
AcDbEntity
  8
ASSI
100
AcDbLine
 62
250
  6
CONTINUOUS
 10
124.6620757021
 20
89.0
 11
124.6620757021
 21
82.0
  0
LINE
  5
2FE
100
AcDbEntity
  8
ASSI
100
AcDbLine
 62
7
  6
CONTINUOUS
 10
134.3138297852
 20
90.8750004292
 11
134.25
 21
90.5375004292
  0
LINE
  5
2FF
100
AcDbEntity
  8
ASSI
100
AcDbLine
 62
7
  6
CONTINUOUS
 10
137.1861702204
 20
94.9812502146
 11
137.25
 21
95.3187502146
  0
LINE
  5
300
100
AcDbEntity
  8
ASSI
100
AcDbLine
 62
7
  6
CONTINUOUS
 10
137.1861702204
 20
90.2000004292
 11
137.25
 21
90.5375004292
  0
LINE
  5
301
100
AcDbEntity
  8
ASSI
100
AcDbLine
 62
7
  6
CONTINUOUS
 10
138.7138297852
 20
95.125
 11
138.65
 21
94.7875
  0
LINE
  5
302
100
AcDbEntity
  8
ASSI
100
AcDbLine
 62
7
  6
CONTINUOUS
 10
141.5861702204
 20
94.45
 11
141.65
 21
94.7875
  0
LINE
  5
303
100
AcDbEntity
  8
ASSI
100
AcDbLine
 62
7
  6
CONTINUOUS
 10
134.3138297852
 20
93.4624995708
 11
134.25
 21
93.18125
  0
LINE
  5
304
100
AcDbEntity
  8
ASSI
100
AcDbLine
 62
7
  6
CONTINUOUS
 10
137.1861702204
 20
102.96875
 11
137.25
 21
103.2500000536
  0
LINE
  5
305
100
AcDbEntity
  8
ASSI
100
AcDbLine
 62
7
  6
CONTINUOUS
 10
134.5691489428
 20
90.5375004292
 11
134.6329787225
 21
90.81875
  0
LINE
  5
306
100
AcDbEntity
  8
ASSI
100
AcDbLine
 62
7
  6
CONTINUOUS
 10
136.1010637879
 20
92.5625004292
 11
136.1648935676
 21
92.84375
  0
LINE
  5
307
100
AcDbEntity
  8
ASSI
100
AcDbLine
 62
7
  6
CONTINUOUS
 10
136.9308511019
 20
95.375
 11
136.8670213223
 21
95.0937497854
  0
LINE
  5
308
100
AcDbEntity
  8
ASSI
100
AcDbLine
 62
7
  6
CONTINUOUS
 10
136.9308511019
 20
90.5375004292
 11
136.8670213223
 21
90.2562495708
  0
LINE
  5
309
100
AcDbEntity
  8
ASSI
100
AcDbLine
 62
7
  6
CONTINUOUS
 10
138.9691489428
 20
94.7875
 11
139.0329787225
 21
95.0687498927
  0
LINE
  5
30A
100
AcDbEntity
  8
ASSI
100
AcDbLine
 62
7
  6
CONTINUOUS
 10
141.3308511019
 20
94.7875
 11
141.2670213223
 21
94.5062501073
  0
LINE
  5
30B
100
AcDbEntity
  8
ASSI
100
AcDbLine
 62
7
  6
CONTINUOUS
 10
142.25
 20
110.9
 11
152.25
 21
110.9
  0
LINE
  5
30C
100
AcDbEntity
  8
ASSI
100
AcDbLine
 62
7
  6
CONTINUOUS
 10
152.25
 20
111.0
 11
159.05
 21
111.0
  0
LINE
  5
30D
100
AcDbEntity
  8
ASSI
100
AcDbLine
 62
7
  6
CONTINUOUS
 10
125.0538475773
 20
116.5
 11
142.25
 21
116.5
  0
LINE
  5
30E
100
AcDbEntity
  8
ASSI
100
AcDbLine
 62
7
  6
CONTINUOUS
 10
136.4202126861
 20
104.31875
 11
135.9734042287
 21
104.3750000268
  0
LINE
  5
30F
100
AcDbEntity
  8
ASSI
100
AcDbLine
 62
7
  6
CONTINUOUS
 10
139.9265957713
 20
94.0562498927
 11
139.5436170042
 21
94.1125
  0
LINE
  5
310
100
AcDbEntity
  8
ASSI
100
AcDbLine
 62
7
  6
CONTINUOUS
 10
140.3734042287
 20
95.5187501073
 11
140.7563829064
 21
95.4625
  0
LINE
  5
311
100
AcDbEntity
  8
ASSI
100
AcDbLine
 62
7
  6
CONTINUOUS
 10
135.9734042287
 20
104.0937500536
 11
136.3563829064
 21
104.0374999464
  0
LINE
  5
312
100
AcDbEntity
  8
ASSI
100
AcDbLine
 62
7
  6
CONTINUOUS
 10
135.1436170042
 20
89.5812495708
 11
135.4627659917
 21
89.5250004292
  0
LINE
  5
313
100
AcDbEntity
  8
ASSI
100
AcDbLine
 62
7
  6
CONTINUOUS
 10
136.3563829064
 20
91.49375
 11
136.0372340083
 21
91.5500004292
  0
LINE
  5
314
100
AcDbEntity
  8
ASSI
100
AcDbLine
 62
7
  6
CONTINUOUS
 10
139.5436170042
 20
93.8312501073
 11
139.8627659917
 21
93.775
  0
LINE
  5
315
100
AcDbEntity
  8
ASSI
100
AcDbLine
 62
7
  6
CONTINUOUS
 10
140.7563829064
 20
95.7437498927
 11
140.4372340083
 21
95.8
  0
LINE
  5
316
100
AcDbEntity
  8
ASSI
100
AcDbLine
 62
7
  6
CONTINUOUS
 10
136.1648935676
 20
94.53125
 11
136.4202126861
 21
94.4749995708
  0
LINE
  5
317
100
AcDbEntity
  8
ASSI
100
AcDbLine
 62
7
  6
CONTINUOUS
 10
136.8031915426
 20
96.3875
 11
136.5478724241
 21
96.4437497854
  0
LINE
  5
318
100
AcDbEntity
  8
ASSI
100
AcDbLine
 62
7
  6
CONTINUOUS
 10
99.25
 20
88.9337567297
 11
123.8531859255
 21
82.1100564904
  0
LINE
  5
319
100
AcDbEntity
  8
ASSI
100
AcDbLine
 62
7
  6
CONTINUOUS
 10
134.9521276653
 20
89.6375
 11
135.1436170042
 21
89.5812495708
  0
LINE
  5
31A
100
AcDbEntity
  8
ASSI
100
AcDbLine
 62
7
  6
CONTINUOUS
 10
134.25
 20
87.7249995708
 11
137.25
 21
86.8250004292
  0
LINE
  5
31B
100
AcDbEntity
  8
ASSI
100
AcDbLine
 62
7
  6
CONTINUOUS
 10
137.25
 20
87.1625004292
 11
134.6329787225
 21
87.95
  0
LINE
  5
31C
100
AcDbEntity
  8
ASSI
100
AcDbLine
 62
7
  6
CONTINUOUS
 10
126.089734
 20
96.166887
 11
126.089734
 21
94.827009
  0
LINE
  5
31D
100
AcDbEntity
  8
ASSI
100
AcDbLine
 62
7
  6
CONTINUOUS
 10
126.561955
 20
94.827009
 11
126.561955
 21
95.245335
  0
LINE
  5
31E
100
AcDbEntity
  8
ASSI
100
AcDbLine
 62
7
  6
CONTINUOUS
 10
126.561955
 20
95.748398
 11
126.561955
 21
96.166887
  0
LINE
  5
31F
100
AcDbEntity
  8
ASSI
100
AcDbLine
 62
7
  6
CONTINUOUS
 10
129.916846
 20
96.151466
 11
129.916846
 21
95.748398
  0
LINE
  5
320
100
AcDbEntity
  8
ASSI
100
AcDbLine
 62
7
  6
CONTINUOUS
 10
129.916846
 20
95.245335
 11
129.916846
 21
94.84243
  0
LINE
  5
321
100
AcDbEntity
  8
ASSI
100
AcDbLine
 62
7
  6
CONTINUOUS
 10
130.391663
 20
94.84243
 11
130.391663
 21
96.151466
  0
LINE
  5
322
100
AcDbEntity
  8
ASSI
100
AcDbLine
 62
7
  6
CONTINUOUS
 10
134.25
 20
105.1625
 11
134.25
 21
104.825
  0
LINE
  5
323
100
AcDbEntity
  8
ASSI
100
AcDbLine
 62
7
  6
CONTINUOUS
 10
134.25
 20
103.475
 11
134.25
 21
103.1937499464
  0
LINE
  5
324
100
AcDbEntity
  8
ASSI
100
AcDbLine
 62
7
  6
CONTINUOUS
 10
134.25
 20
101.8999998927
 11
134.25
 21
101.5624998927
  0
LINE
  5
325
100
AcDbEntity
  8
ASSI
100
AcDbLine
 62
7
  6
CONTINUOUS
 10
134.25
 20
99.9874997854
 11
134.25
 21
99.6499997854
  0
LINE
  5
326
100
AcDbEntity
  8
ASSI
100
AcDbLine
 62
7
  6
CONTINUOUS
 10
134.25
 20
96.5000002146
 11
134.25
 21
94.4749995708
  0
LINE
  5
327
100
AcDbEntity
  8
ASSI
100
AcDbLine
 62
7
  6
CONTINUOUS
 10
134.25
 20
93.18125
 11
134.25
 21
92.84375
  0
LINE
  5
328
100
AcDbEntity
  8
ASSI
100
AcDbLine
 62
7
  6
CONTINUOUS
 10
134.25
 20
88.1750004292
 11
134.25
 21
87.7249995708
  0
LINE
  5
329
100
AcDbEntity
  8
ASSI
100
AcDbLine
 62
7
  6
CONTINUOUS
 10
134.5691489428
 20
92.84375
 11
134.5691489428
 21
93.18125
  0
LINE
  5
32A
100
AcDbEntity
  8
ASSI
100
AcDbLine
 62
7
  6
CONTINUOUS
 10
134.5691489428
 20
94.4749995708
 11
134.5691489428
 21
96.05
  0
LINE
  5
32B
100
AcDbEntity
  8
ASSI
100
AcDbLine
 62
7
  6
CONTINUOUS
 10
134.5691489428
 20
103.1375
 11
134.5691489428
 21
103.5312499464
  0
LINE
  5
32C
100
AcDbEntity
  8
ASSI
100
AcDbLine
 62
7
  6
CONTINUOUS
 10
135.0159574449
 20
101.3375001073
 11
135.0159574449
 21
100.2124998927
  0
LINE
  5
32D
100
AcDbEntity
  8
ASSI
100
AcDbLine
 62
7
  6
CONTINUOUS
 10
135.0159574449
 20
93.6875
 11
135.0159574449
 21
94.025
  0
LINE
  5
32E
100
AcDbEntity
  8
ASSI
100
AcDbLine
 62
7
  6
CONTINUOUS
 10
135.2712765634
 20
100.26875
 11
135.2712765634
 21
101.28125
  0
LINE
  5
32F
100
AcDbEntity
  8
ASSI
100
AcDbLine
 62
7
  6
CONTINUOUS
 10
135.5904255509
 20
94.025
 11
135.5904255509
 21
93.6312495708
  0
LINE
  5
330
100
AcDbEntity
  8
ASSI
100
AcDbLine
 62
7
  6
CONTINUOUS
 10
135.8457446694
 20
103.5312499464
 11
135.8457446694
 21
103.1375
  0
LINE
  5
331
100
AcDbEntity
  8
ASSI
100
AcDbLine
 62
7
  6
CONTINUOUS
 10
135.8457446694
 20
93.18125
 11
135.8457446694
 21
92.84375
  0
LINE
  5
332
100
AcDbEntity
  8
ASSI
100
AcDbLine
 62
7
  6
CONTINUOUS
 10
136.1648935676
 20
92.84375
 11
136.1648935676
 21
93.18125
  0
LINE
  5
333
100
AcDbEntity
  8
ASSI
100
AcDbLine
 62
7
  6
CONTINUOUS
 10
136.1648935676
 20
103.1937499464
 11
136.1648935676
 21
103.475
  0
LINE
  5
334
100
AcDbEntity
  8
ASSI
100
AcDbLine
 62
7
  6
CONTINUOUS
 10
136.5478724241
 20
102.7437498927
 11
136.5478724241
 21
102.4625
  0
LINE
  5
335
100
AcDbEntity
  8
ASSI
100
AcDbLine
 62
7
  6
CONTINUOUS
 10
136.5478724241
 20
96.4437497854
 11
136.5478724241
 21
96.1625002146
  0
LINE
  5
336
100
AcDbEntity
  8
ASSI
100
AcDbLine
 62
7
  6
CONTINUOUS
 10
136.9308511019
 20
103.5312499464
 11
136.9308511019
 21
103.1937499464
  0
LINE
  5
337
100
AcDbEntity
  8
ASSI
100
AcDbLine
 62
7
  6
CONTINUOUS
 10
136.9308511019
 20
95.5999997854
 11
136.9308511019
 21
95.375
  0
LINE
  5
338
100
AcDbEntity
  8
ASSI
100
AcDbLine
 62
7
  6
CONTINUOUS
 10
136.9308511019
 20
93.7437504292
 11
136.9308511019
 21
92.1124995708
  0
LINE
  5
339
100
AcDbEntity
  8
ASSI
100
AcDbLine
 62
7
  6
CONTINUOUS
 10
137.25
 20
86.8250004292
 11
137.25
 21
87.1625004292
  0
LINE
  5
33A
100
AcDbEntity
  8
ASSI
100
AcDbLine
 62
7
  6
CONTINUOUS
 10
137.25
 20
88.7374995708
 11
137.25
 21
89.0749995708
  0
LINE
  5
33B
100
AcDbEntity
  8
ASSI
100
AcDbLine
 62
7
  6
CONTINUOUS
 10
137.25
 20
92.1124995708
 11
137.25
 21
94.025
  0
LINE
  5
33C
100
AcDbEntity
  8
ASSI
100
AcDbLine
 62
7
  6
CONTINUOUS
 10
137.25
 20
95.3187502146
 11
137.25
 21
95.54375
  0
LINE
  5
33D
100
AcDbEntity
  8
ASSI
100
AcDbLine
 62
7
  6
CONTINUOUS
 10
137.25
 20
100.5499998927
 11
137.25
 21
101.0000001073
  0
LINE
  5
33E
100
AcDbEntity
  8
ASSI
100
AcDbLine
 62
7
  6
CONTINUOUS
 10
137.25
 20
103.2500000536
 11
137.25
 21
103.475
  0
LINE
  5
33F
100
AcDbEntity
  8
ASSI
100
AcDbLine
 62
7
  6
CONTINUOUS
 10
137.25
 20
104.825
 11
137.25
 21
105.1625
  0
LINE
  5
340
100
AcDbEntity
  8
ASSI
100
AcDbLine
 62
7
  6
CONTINUOUS
 10
138.65
 20
97.5999999732
 11
138.65
 21
97.15
  0
LINE
  5
341
100
AcDbEntity
  8
ASSI
100
AcDbLine
 62
7
  6
CONTINUOUS
 10
138.65
 20
92.9874997854
 11
138.65
 21
92.6499997854
  0
LINE
  5
342
100
AcDbEntity
  8
0
100
AcDbLine
 62
250
  6
CONTINUOUS
 10
54.6436206104
 20
-117.5449668297
 11
38.6772966937
 21
-129.5897375037
  0
LINE
  5
343
100
AcDbEntity
  8
ASSI
100
AcDbLine
 62
7
  6
CONTINUOUS
 10
136.5478724241
 20
91.4374995708
 11
136.3563829064
 21
91.49375
  0
LINE
  5
344
100
AcDbEntity
  8
ASSI
100
AcDbLine
 62
7
  6
CONTINUOUS
 10
135.1436170042
 20
92.2812495708
 11
134.9521276653
 21
92.3375
  0
LINE
  5
345
100
AcDbEntity
  8
ASSI
100
AcDbLine
 62
7
  6
CONTINUOUS
 10
139.3521276653
 20
93.8874998927
 11
139.5436170042
 21
93.8312501073
  0
LINE
  5
346
100
AcDbEntity
  8
ASSI
100
AcDbLine
 62
7
  6
CONTINUOUS
 10
140.9478724241
 20
95.6875001073
 11
140.7563829064
 21
95.7437498927
  0
LINE
  5
347
100
AcDbEntity
  8
ASSI
100
AcDbLine
 62
7
  6
CONTINUOUS
 10
134.25
 20
101.5624998927
 11
135.0159574449
 21
101.3375001073
  0
LINE
  5
348
100
AcDbEntity
  8
ASSI
100
AcDbLine
 62
7
  6
CONTINUOUS
 10
135.2712765634
 20
101.28125
 11
136.9946808815
 21
100.775
  0
LINE
  5
349
100
AcDbEntity
  8
ASSI
100
AcDbLine
 62
7
  6
CONTINUOUS
 10
135.1436170042
 20
102.63125
 11
134.9521276653
 21
102.6875001073
  0
LINE
  5
34A
100
AcDbEntity
  8
ASSI
100
AcDbLine
 62
7
  6
CONTINUOUS
 10
135.335106343
 20
104.0374999464
 11
135.5265957713
 21
103.98125
  0
LINE
  5
34B
100
AcDbEntity
  8
ASSI
100
AcDbLine
 62
7
  6
CONTINUOUS
 10
136.3563829064
 20
104.0374999464
 11
136.5478724241
 21
103.98125
  0
LINE
  5
34C
100
AcDbEntity
  8
ASSI
100
AcDbLine
 62
7
  6
CONTINUOUS
 10
138.65
 20
97.15
 11
141.65
 21
96.2500000536
  0
LINE
  5
34D
100
AcDbEntity
  8
ASSI
100
AcDbLine
 62
7
  6
CONTINUOUS
 10
137.25
 20
101.0000001073
 11
134.25
 21
101.8999998927
  0
LINE
  5
34E
100
AcDbEntity
  8
ASSI
100
AcDbLine
 62
7
  6
CONTINUOUS
 10
141.65
 20
96.5875000536
 11
139.0329787225
 21
97.3750000268
  0
LINE
  5
34F
100
AcDbEntity
  8
ASSI
100
AcDbLine
 62
7
  6
CONTINUOUS
 10
134.7606382817
 20
92.1124995708
 11
135.0797872245
 21
92.0
  0
LINE
  5
350
100
AcDbEntity
  8
ASSI
100
AcDbLine
 62
7
  6
CONTINUOUS
 10
134.6968085021
 20
89.7499995708
 11
134.9521276653
 21
89.6375
  0
LINE
  5
351
100
AcDbEntity
  8
ASSI
100
AcDbLine
 62
7
  6
CONTINUOUS
 10
136.8031915426
 20
91.325
 11
136.5478724241
 21
91.4374995708
  0
LINE
  5
352
100
AcDbEntity
  8
ASSI
100
AcDbLine
 62
7
  6
CONTINUOUS
 10
99.1352632903
 20
89.0
 11
123.5538475773
 21
74.9019237886
  0
LINE
  5
353
100
AcDbEntity
  8
ASSI
100
AcDbLine
 62
7
  6
CONTINUOUS
 10
141.65
 20
92.6499997854
 11
141.65
 21
92.9874997854
  0
LINE
  5
354
100
AcDbEntity
  8
ASSI
100
AcDbLine
 62
7
  6
CONTINUOUS
 10
141.65
 20
96.2500000536
 11
141.65
 21
96.5875000536
  0
LINE
  5
355
100
AcDbEntity
  8
ASSI
100
AcDbLine
 62
7
  6
CONTINUOUS
 10
141.65
 20
98.1625
 11
141.65
 21
98.5
  0
LINE
  5
356
100
AcDbEntity
  8
ASSI
100
AcDbLine
 62
7
  6
CONTINUOUS
 10
142.25
 20
74.5
 11
142.25
 21
116.5
  0
LINE
  5
357
100
AcDbEntity
  8
ASSI
100
AcDbLine
 62
7
  6
CONTINUOUS
 10
152.25
 20
111.0
 11
152.25
 21
106.0
  0
LINE
  5
358
100
AcDbEntity
  8
ASSI
100
AcDbLine
 62
7
  6
CONTINUOUS
 10
152.25
 20
85.0
 11
152.25
 21
80.0
  0
LINE
  5
359
100
AcDbEntity
  8
ASSI
100
AcDbLine
 62
7
  6
CONTINUOUS
 10
134.7606382817
 20
102.4625
 11
135.0797872245
 21
102.3500001073
  0
LINE
  5
35A
100
AcDbEntity
  8
ASSI
100
AcDbLine
 62
7
  6
CONTINUOUS
 10
136.739361763
 20
104.2062500268
 11
136.4202126861
 21
104.31875
  0
LINE
  5
35B
100
AcDbEntity
  8
ASSI
100
AcDbLine
 62
7
  6
CONTINUOUS
 10
136.4202126861
 20
94.8125002146
 11
136.1648935676
 21
94.9249997854
  0
LINE
  5
35C
100
AcDbEntity
  8
ASSI
100
AcDbLine
 62
7
  6
CONTINUOUS
 10
139.0968085021
 20
94.0000001073
 11
139.3521276653
 21
93.8874998927
  0
LINE
  5
35D
100
AcDbEntity
  8
ASSI
100
AcDbLine
 62
7
  6
CONTINUOUS
 10
141.2031915426
 20
95.5749998927
 11
140.9478724241
 21
95.6875001073
  0
LINE
  5
35E
100
AcDbEntity
  8
ASSI
100
AcDbLine
 62
7
  6
CONTINUOUS
 10
126.3020941296
 20
96.5932989273
 11
126.6893754046
 21
96.3759297729
  0
LINE
  5
35F
100
AcDbEntity
  8
ASSI
100
AcDbLine
 62
7
  6
CONTINUOUS
 10
135.1436170042
 20
89.8625004292
 11
134.7606382817
 21
90.0874995708
  0
LINE
  5
360
100
AcDbEntity
  8
ASSI
100
AcDbLine
 62
7
  6
CONTINUOUS
 10
136.3563829064
 20
91.2125004292
 11
136.739361763
 21
90.9875
  0
LINE
  5
361
100
AcDbEntity
  8
ASSI
100
AcDbLine
 62
7
  6
CONTINUOUS
 10
134.9521276653
 20
92.3375
 11
134.7606382817
 21
92.4499995708
  0
LINE
  5
362
100
AcDbEntity
  8
ASSI
100
AcDbLine
 62
7
  6
CONTINUOUS
 10
135.9734042287
 20
94.6437495708
 11
136.1648935676
 21
94.53125
  0
LINE
  5
363
100
AcDbEntity
  8
ASSI
100
AcDbLine
 62
7
  6
CONTINUOUS
 10
139.5436170042
 20
94.1125
 11
139.1606382817
 21
94.3375001073
  0
LINE
  5
364
100
AcDbEntity
  8
ASSI
100
AcDbLine
 62
7
  6
CONTINUOUS
 10
136.5478724241
 20
96.1625002146
 11
136.739361763
 21
96.05
  0
LINE
  5
365
100
AcDbEntity
  8
ASSI
100
AcDbLine
 62
7
  6
CONTINUOUS
 10
140.7563829064
 20
95.4625
 11
141.139361763
 21
95.2374998927
  0
LINE
  5
366
100
AcDbEntity
  8
ASSI
100
AcDbLine
 62
7
  6
CONTINUOUS
 10
134.5053191409
 20
92.2812495708
 11
134.7606382817
 21
92.1124995708
  0
LINE
  5
367
100
AcDbEntity
  8
ASSI
100
AcDbLine
 62
7
  6
CONTINUOUS
 10
124.590447
 20
93.789877
 11
124.939783
 21
93.543459
  0
LINE
  5
368
100
AcDbEntity
  8
ASSI
100
AcDbLine
 62
7
  6
CONTINUOUS
 10
134.6329787225
 20
92.6187495708
 11
134.5691489428
 21
92.84375
  0
LINE
  5
369
100
AcDbEntity
  8
ASSI
100
AcDbLine
 62
7
  6
CONTINUOUS
 10
135.7819148898
 20
93.4062504292
 11
135.8457446694
 21
93.18125
  0
LINE
  5
36A
100
AcDbEntity
  8
ASSI
100
AcDbLine
 62
7
  6
CONTINUOUS
 10
134.6329787225
 20
90.2562495708
 11
134.5691489428
 21
90.5375004292
  0
LINE
  5
36B
100
AcDbEntity
  8
ASSI
100
AcDbLine
 62
7
  6
CONTINUOUS
 10
134.25
 20
92.84375
 11
134.3138297852
 21
92.5625004292
  0
LINE
  5
36C
100
AcDbEntity
  8
ASSI
100
AcDbLine
 62
7
  6
CONTINUOUS
 10
136.1648935676
 20
93.18125
 11
136.1010637879
 21
93.4624995708
  0
LINE
  5
36D
100
AcDbEntity
  8
ASSI
100
AcDbLine
 62
7
  6
CONTINUOUS
 10
136.8670213223
 20
90.81875
 11
136.9308511019
 21
90.5375004292
  0
LINE
  5
36E
100
AcDbEntity
  8
ASSI
100
AcDbLine
 62
7
  6
CONTINUOUS
 10
134.25
 20
103.1937499464
 11
134.3138297852
 21
102.9125000536
  0
LINE
  5
36F
100
AcDbEntity
  8
ASSI
100
AcDbLine
 62
7
  6
CONTINUOUS
 10
136.8670213223
 20
95.88125
 11
136.9308511019
 21
95.5999997854
  0
LINE
  5
370
100
AcDbEntity
  8
ASSI
100
AcDbLine
 62
7
  6
CONTINUOUS
 10
136.1648935676
 20
103.475
 11
136.1010637879
 21
103.7562500536
  0
LINE
  5
371
100
AcDbEntity
  8
ASSI
100
AcDbLine
 62
7
  6
CONTINUOUS
 10
134.25
 20
90.5375004292
 11
134.3138297852
 21
90.2000004292
  0
LINE
  5
372
100
AcDbEntity
  8
ASSI
100
AcDbLine
 62
7
  6
CONTINUOUS
 10
137.25
 20
90.5375004292
 11
137.1861702204
 21
90.8750004292
  0
LINE
  5
373
100
AcDbEntity
  8
ASSI
100
AcDbLine
 62
7
  6
CONTINUOUS
 10
138.65
 20
94.7875
 11
138.7138297852
 21
94.45
  0
LINE
  5
374
100
AcDbEntity
  8
ASSI
100
AcDbLine
 62
7
  6
CONTINUOUS
 10
137.25
 20
95.54375
 11
137.1861702204
 21
95.9374997854
  0
LINE
  5
375
100
AcDbEntity
  8
ASSI
100
AcDbLine
 62
250
  6
CONTINUOUS
 10
159.05
 20
111.0
 11
159.05
 21
106.0
  0
LINE
  5
376
100
AcDbEntity
  8
ASSI
100
AcDbLine
 62
250
  6
CONTINUOUS
 10
159.05
 20
85.0
 11
159.05
 21
80.0
  0
LINE
  5
377
100
AcDbEntity
  8
ASSI
100
AcDbLine
 62
250
  6
CONTINUOUS
 10
159.55
 20
98.0
 11
159.55
 21
93.0
  0
LINE
  5
378
100
AcDbEntity
  8
ASSI
100
AcDbLine
 62
7
  6
CONTINUOUS
 10
161.25
 20
108.8
 11
161.25
 21
108.2
  0
LINE
  5
379
100
AcDbEntity
  8
ASSI
100
AcDbLine
 62
7
  6
CONTINUOUS
 10
161.25
 20
82.8
 11
161.25
 21
82.2
  0
LINE
  5
37A
100
AcDbEntity
  8
ASSI
100
AcDbLine
 62
7
  6
CONTINUOUS
 10
161.75
 20
95.8
 11
161.75
 21
95.2
  0
LINE
  5
37B
100
AcDbEntity
  8
ASSI
100
AcDbLine
 62
7
  6
CONTINUOUS
 10
134.9521276653
 20
102.6875001073
 11
134.7606382817
 21
102.8
  0
LINE
  5
37C
100
AcDbEntity
  8
ASSI
100
AcDbLine
 62
7
  6
CONTINUOUS
 10
136.5478724241
 20
103.98125
 11
136.739361763
 21
103.8687499464
  0
LINE
  5
37D
100
AcDbEntity
  8
ASSI
100
AcDbLine
 62
7
  6
CONTINUOUS
 10
134.5053191409
 20
102.63125
 11
134.7606382817
 21
102.4625
  0
LINE
  5
37E
100
AcDbEntity
  8
ASSI
100
AcDbLine
 62
7
  6
CONTINUOUS
 10
136.9946808815
 20
104.0374999464
 11
136.739361763
 21
104.2062500268
  0
LINE
  5
37F
100
AcDbEntity
  8
ASSI
100
AcDbLine
 62
7
  6
CONTINUOUS
 10
140.6925531268
 20
93.3250001073
 11
141.139361763
 21
92.9874997854
  0
LINE
  5
380
100
AcDbEntity
  8
ASSI
100
AcDbLine
 62
7
  6
CONTINUOUS
 10
141.65
 20
92.9874997854
 11
141.2031915426
 21
93.3250001073
  0
LINE
  5
381
100
AcDbEntity
  8
ASSI
100
AcDbLine
 62
7
  6
CONTINUOUS
 10
136.2925531268
 20
105.5
 11
136.739361763
 21
105.1625
  0
LINE
  5
382
100
AcDbEntity
  8
ASSI
100
AcDbLine
 62
7
  6
CONTINUOUS
 10
137.25
 20
105.1625
 11
136.8031915426
 21
105.5
  0
LINE
  5
383
100
AcDbEntity
  8
ASSI
100
AcDbLine
 62
7
  6
CONTINUOUS
 10
134.5053191409
 20
89.9187495708
 11
134.6968085021
 21
89.7499995708
  0
LINE
  5
384
100
AcDbEntity
  8
ASSI
100
AcDbLine
 62
7
  6
CONTINUOUS
 10
136.9946808815
 20
91.15625
 11
136.8031915426
 21
91.325
  0
LINE
  5
385
100
AcDbEntity
  8
ASSI
100
AcDbLine
 62
7
  6
CONTINUOUS
 10
138.9053191409
 20
94.1687501073
 11
139.0968085021
 21
94.0000001073
  0
LINE
  5
386
100
AcDbEntity
  8
ASSI
100
AcDbLine
 62
7
  6
CONTINUOUS
 10
137.0585106611
 20
96.1625002146
 11
136.8031915426
 21
96.3875
  0
LINE
  5
387
100
AcDbEntity
  8
ASSI
100
AcDbLine
 62
7
  6
CONTINUOUS
 10
141.3946808815
 20
95.4062498927
 11
141.2031915426
 21
95.5749998927
  0
LINE
  5
388
100
AcDbEntity
  8
ASSI
100
AcDbLine
 62
7
  6
CONTINUOUS
 10
135.5265957713
 20
103.98125
 11
135.6542553306
 21
103.8687499464
  0
LINE
  5
389
100
AcDbEntity
  8
ASSI
100
AcDbLine
 62
7
  6
CONTINUOUS
 10
136.1648935676
 20
94.9249997854
 11
134.5691489428
 21
96.5000002146
  0
LINE
  5
38A
100
AcDbEntity
  8
ASSI
100
AcDbLine
 62
7
  6
CONTINUOUS
 10
134.5691489428
 20
96.05
 11
135.9734042287
 21
94.6437495708
  0
LINE
  5
38B
100
AcDbEntity
  8
ASSI
100
AcDbLine
 62
7
  6
CONTINUOUS
 10
135.5904255509
 20
93.6312495708
 11
135.7819148898
 21
93.4062504292
  0
LINE
  5
38C
100
AcDbEntity
  8
ASSI
100
AcDbLine
 62
7
  6
CONTINUOUS
 10
128.132916
 20
95.245335
 11
129.197655306
 21
93.9818586369
  0
LINE
  5
38D
100
AcDbEntity
  8
ASSI
100
AcDbLine
 62
7
  6
CONTINUOUS
 10
129.8293829944
 20
93.9203830067
 11
128.712838
 21
95.245335
  0
LINE
  5
38E
100
AcDbEntity
  8
ASSI
100
AcDbLine
 62
7
  6
CONTINUOUS
 10
135.6542553306
 20
86.3187504292
 11
135.7819148898
 21
86.1500004292
  0
LINE
  5
38F
100
AcDbEntity
  8
ASSI
100
AcDbLine
 62
7
  6
CONTINUOUS
 10
134.7606382817
 20
90.0874995708
 11
134.6329787225
 21
90.2562495708
  0
LINE
  5
390
100
AcDbEntity
  8
ASSI
100
AcDbLine
 62
7
  6
CONTINUOUS
 10
134.7606382817
 20
92.4499995708
 11
134.6329787225
 21
92.6187495708
  0
LINE
  5
391
100
AcDbEntity
  8
ASSI
100
AcDbLine
 62
7
  6
CONTINUOUS
 10
136.739361763
 20
90.9875
 11
136.8670213223
 21
90.81875
  0
LINE
  5
392
100
AcDbEntity
  8
ASSI
100
AcDbLine
 62
7
  6
CONTINUOUS
 10
136.739361763
 20
96.05
 11
136.8670213223
 21
95.88125
  0
LINE
  5
393
100
AcDbEntity
  8
ASSI
100
AcDbLine
 62
7
  6
CONTINUOUS
 10
139.1606382817
 20
94.3375001073
 11
139.0329787225
 21
94.5062501073
  0
LINE
  5
394
100
AcDbEntity
  8
ASSI
100
AcDbLine
 62
7
  6
CONTINUOUS
 10
134.7606382817
 20
102.8
 11
134.6329787225
 21
102.96875
  0
LINE
  5
395
100
AcDbEntity
  8
ASSI
100
AcDbLine
 62
7
  6
CONTINUOUS
 10
141.139361763
 20
95.2374998927
 11
141.2670213223
 21
95.0687498927
  0
LINE
  5
396
100
AcDbEntity
  8
ASSI
100
AcDbLine
 62
7
  6
CONTINUOUS
 10
135.6542553306
 20
103.8687499464
 11
135.7819148898
 21
103.6999999464
  0
LINE
  5
397
100
AcDbEntity
  8
ASSI
100
AcDbLine
 62
7
  6
CONTINUOUS
 10
136.1010637879
 20
103.7562500536
 11
135.8457446694
 21
104.0937500536
  0
LINE
  5
398
100
AcDbEntity
  8
ASSI
100
AcDbLine
 62
7
  6
CONTINUOUS
 10
136.739361763
 20
103.8687499464
 11
136.8670213223
 21
103.6999999464
  0
LINE
  5
399
100
AcDbEntity
  8
ASSI
100
AcDbLine
 62
7
  6
CONTINUOUS
 10
134.3138297852
 20
90.2000004292
 11
134.5053191409
 21
89.9187495708
  0
LINE
  5
39A
100
AcDbEntity
  8
ASSI
100
AcDbLine
 62
7
  6
CONTINUOUS
 10
134.3138297852
 20
92.5625004292
 11
134.5053191409
 21
92.2812495708
  0
LINE
  5
39B
100
AcDbEntity
  8
ASSI
100
AcDbLine
 62
7
  6
CONTINUOUS
 10
137.1861702204
 20
90.8750004292
 11
136.9946808815
 21
91.15625
  0
LINE
  5
39C
100
AcDbEntity
  8
ASSI
100
AcDbLine
 62
7
  6
CONTINUOUS
 10
136.1010637879
 20
93.4624995708
 11
135.9095744491
 21
93.7437504292
  0
LINE
  5
39D
100
AcDbEntity
  8
ASSI
100
AcDbLine
 62
7
  6
CONTINUOUS
 10
138.7138297852
 20
94.45
 11
138.9053191409
 21
94.1687501073
  0
LINE
  5
39E
100
AcDbEntity
  8
ASSI
100
AcDbLine
 62
7
  6
CONTINUOUS
 10
134.3138297852
 20
102.9125000536
 11
134.5053191409
 21
102.63125
  0
LINE
  5
39F
100
AcDbEntity
  8
ASSI
100
AcDbLine
 62
7
  6
CONTINUOUS
 10
141.5861702204
 20
95.125
 11
141.3946808815
 21
95.4062498927
  0
LINE
  5
3A0
100
AcDbEntity
  8
ASSI
100
AcDbLine
 62
7
  6
CONTINUOUS
 10
135.7819148898
 20
85.4750004292
 11
135.6542553306
 21
85.6999995708
  0
LINE
  5
3A1
100
AcDbEntity
  8
ASSI
100
AcDbLine
 62
7
  6
CONTINUOUS
 10
135.9095744491
 20
86.1500004292
 11
135.7819148898
 21
86.3749995708
  0
LINE
  5
3A2
100
AcDbEntity
  8
ASSI
100
AcDbLine
 62
7
  6
CONTINUOUS
 10
137.1861702204
 20
95.9374997854
 11
137.0585106611
 21
96.1625002146
  0
LINE
  5
3A3
100
AcDbEntity
  8
ASSI
100
AcDbLine
 62
7
  6
CONTINUOUS
 10
135.5265957713
 20
85.6999995708
 11
135.6542553306
 21
85.41875
  0
LINE
  5
3A4
100
AcDbEntity
  8
ASSI
100
AcDbLine
 62
7
  6
CONTINUOUS
 10
134.6329787225
 20
102.96875
 11
134.5691489428
 21
103.1375
  0
LINE
  5
3A5
100
AcDbEntity
  8
ASSI
100
AcDbLine
 62
7
  6
CONTINUOUS
 10
135.7819148898
 20
103.6999999464
 11
135.8457446694
 21
103.5312499464
  0
LINE
  5
3A6
100
AcDbEntity
  8
ASSI
100
AcDbLine
 62
7
  6
CONTINUOUS
 10
136.8670213223
 20
103.6999999464
 11
136.9308511019
 21
103.5312499464
  0
LINE
  5
3A7
100
AcDbEntity
  8
ASSI
100
AcDbLine
 62
7
  6
CONTINUOUS
 10
139.0329787225
 20
94.5062501073
 11
138.9691489428
 21
94.7875
  0
LINE
  5
3A8
100
AcDbEntity
  8
ASSI
100
AcDbLine
 62
7
  6
CONTINUOUS
 10
137.25
 20
103.475
 11
137.1861702204
 21
103.7562500536
  0
LINE
  5
3A9
100
AcDbEntity
  8
ASSI
100
AcDbLine
 62
7
  6
CONTINUOUS
 10
141.2670213223
 20
95.0687498927
 11
141.3308511019
 21
94.7875
  0
LINE
  5
3AA
100
AcDbEntity
  8
ASSI
100
AcDbLine
 62
7
  6
CONTINUOUS
 10
141.65
 20
94.7875
 11
141.5861702204
 21
95.125
  0
LINE
  5
3AB
100
AcDbEntity
  8
ASSI
100
AcDbLine
 62
7
  6
CONTINUOUS
 10
137.1861702204
 20
103.7562500536
 11
136.9946808815
 21
104.0374999464
  0
ARC
  5
3AC
100
AcDbEntity
  8
0
100
AcDbCircle
 62
7
  6
CONTINUOUS
 10
-144.25
 20
-155.5
 40
10.0
100
AcDbArc
 50
160.6432581054
 51
340.6432581054
  0
ARC
  5
3AD
100
AcDbEntity
  8
RACCORDO
100
AcDbCircle
 62
7
  6
CONTINUOUS
 10
-125.032217915
 20
-30.5
 40
14.0
100
AcDbArc
 50
191.2122714176
 51
322.4461775352
  0
ARC
  5
3AE
100
AcDbEntity
  8
RACCORDO
100
AcDbCircle
 62
7
  6
CONTINUOUS
 10
-125.032217915
 20
-30.5
 40
14.0
100
AcDbArc
 50
358.8291103573
 51
11.2122714176
  0
ARC
  5
3AF
100
AcDbEntity
  8
RACCORDO
100
AcDbCircle
 62
250
  6
CONTINUOUS
 10
-125.0367348798
 20
-30.5014734089
 40
10.1498766862
100
AcDbArc
 50
191.2090708178
 51
11.2154720302
  0
ARC
  5
3B0
100
AcDbEntity
  8
DRAFT
100
AcDbCircle
 62
7
  6
CONTINUOUS
 10
-125.0322186565
 20
-30.4999962598
 40
10.0
100
AcDbArc
 50
191.2122932642
 51
11.2122495711
  0
ARC
  5
3B1
100
AcDbEntity
  8
RACCORDO
100
AcDbCircle
 62
7
  6
CONTINUOUS
 10
-103.6415908357
 20
-58.6783874001
 40
9.0
100
AcDbArc
 50
34.3280707142
 51
45.8162098906
  0
ARC
  5
3B2
100
AcDbEntity
  8
RACCORDO
100
AcDbCircle
 62
7
  6
CONTINUOUS
 10
-82.4283874001
 20
-79.8915908357
 40
9.0
100
AcDbArc
 50
235.6719292858
 51
55.6719292858
  0
ARC
  5
3B3
100
AcDbEntity
  8
RACCORDO
100
AcDbCircle
 62
250
  6
CONTINUOUS
 10
-103.5883123794
 20
-58.6433476586
 40
8.1990088382
100
AcDbArc
 50
34.3358189092
 51
43.5027532643
  0
ARC
  5
3B4
100
AcDbEntity
  8
RACCORDO
100
AcDbCircle
 62
250
  6
CONTINUOUS
 10
-82.4303866898
 20
-79.8950070403
 40
5.1598764499
100
AcDbArc
 50
235.6688707461
 51
55.6749878326
  0
ARC
  5
3B5
100
AcDbEntity
  8
DRAFT
100
AcDbCircle
 62
7
  6
CONTINUOUS
 10
-82.4283874001
 20
-79.8915908357
 40
5.0
100
AcDbArc
 50
235.6719292858
 51
55.6719292858
  0
ARC
  5
3B6
100
AcDbEntity
  8
RACCORDO
100
AcDbCircle
 62
7
  6
CONTINUOUS
 10
-19.25
 20
-101.282217915
 40
14.0
100
AcDbArc
 50
281.2122714176
 51
101.2122714177
  0
ARC
  5
3B7
100
AcDbEntity
  8
RACCORDO
100
AcDbCircle
 62
7
  6
CONTINUOUS
 10
-54.25
 20
-101.282217915
 40
14.0
100
AcDbArc
 50
78.7877285824
 51
258.7877285824
  0
ARC
  5
3B8
100
AcDbEntity
  8
RACCORDO
100
AcDbCircle
 62
250
  6
CONTINUOUS
 10
-54.25147352
 20
-101.2867348418
 40
10.1498765787
100
AcDbArc
 50
78.7845273125
 51
258.7909298395
  0
ARC
  5
3B9
100
AcDbEntity
  8
RACCORDO
100
AcDbCircle
 62
250
  6
CONTINUOUS
 10
-19.2485264754
 20
-101.2867348153
 40
10.1498765688
100
AcDbArc
 50
281.2090701063
 51
101.2154727418
  0
ARC
  5
3BA
100
AcDbEntity
  8
DRAFT
100
AcDbCircle
 62
7
  6
CONTINUOUS
 10
-54.2499962506
 20
-101.2822186583
 40
10.0
100
AcDbArc
 50
78.7877504828
 51
258.7877066819
  0
ARC
  5
3BB
100
AcDbEntity
  8
DRAFT
100
AcDbCircle
 62
7
  6
CONTINUOUS
 10
-19.2500037402
 20
-101.2822186565
 40
10.0
100
AcDbArc
 50
281.2122932642
 51
101.2122495711
  0
ARC
  5
3BC
100
AcDbEntity
  8
RACCORDO
100
AcDbCircle
 62
7
  6
CONTINUOUS
 10
-36.75
 20
-13.0
 40
125.0
100
AcDbArc
 50
311.6189597032
 51
91.3476921543
  0
ARC
  5
3BD
100
AcDbEntity
  8
RACCORDO
100
AcDbCircle
 62
7
  6
CONTINUOUS
 10
-36.75
 20
-13.0
 40
125.0
100
AcDbArc
 50
229.9388215709
 51
302.4416597044
  0
ARC
  5
3BE
100
AcDbEntity
  8
RACCORDO
100
AcDbCircle
 62
7
  6
CONTINUOUS
 10
-36.75
 20
-13.0
 40
125.0
100
AcDbArc
 50
101.5431764518
 51
219.7433561191
  0
ARC
  5
3BF
100
AcDbEntity
  8
RACCORDO
100
AcDbCircle
 62
250
  6
CONTINUOUS
 10
-36.75
 20
-13.0
 40
124.0
100
AcDbArc
 50
101.8205754663
 51
219.4658810678
  0
ARC
  5
3C0
100
AcDbEntity
  8
RACCORDO
100
AcDbCircle
 62
250
  6
CONTINUOUS
 10
-36.75
 20
-13.0
 40
124.0
100
AcDbArc
 50
229.7639994944
 51
302.4045047023
  0
ARC
  5
3C1
100
AcDbEntity
  8
RACCORDO
100
AcDbCircle
 62
250
  6
CONTINUOUS
 10
-36.75
 20
-13.0
 40
124.0
100
AcDbArc
 50
311.6560685697
 51
91.5224528317
  0
ARC
  5
3C2
100
AcDbEntity
  8
RACCORDO
100
AcDbCircle
 62
250
  6
CONTINUOUS
 10
-36.75
 20
-13.0
 40
122.8
100
AcDbArc
 50
311.7013976332
 51
91.7359198739
  0
ARC
  5
3C3
100
AcDbEntity
  8
RACCORDO
100
AcDbCircle
 62
250
  6
CONTINUOUS
 10
-36.75
 20
-13.0
 40
122.8
100
AcDbArc
 50
229.55056031
 51
302.3592048513
  0
ARC
  5
3C4
100
AcDbEntity
  8
RACCORDO
100
AcDbCircle
 62
250
  6
CONTINUOUS
 10
-36.75
 20
-13.0
 40
122.8
100
AcDbArc
 50
102.1603342111
 51
219.1261137974
  0
ARC
  5
3C5
100
AcDbEntity
  8
RACCORDO
100
AcDbCircle
 62
7
  6
CONTINUOUS
 10
-36.75
 20
-13.0
 40
121.8
100
AcDbArc
 50
311.7398581059
 51
91.9170122838
  0
ARC
  5
3C6
100
AcDbEntity
  8
RACCORDO
100
AcDbCircle
 62
7
  6
CONTINUOUS
 10
-36.75
 20
-13.0
 40
121.8
100
AcDbArc
 50
229.3695158144
 51
302.3208426111
  0
ARC
  5
3C7
100
AcDbEntity
  8
RACCORDO
100
AcDbCircle
 62
7
  6
CONTINUOUS
 10
-36.75
 20
-13.0
 40
121.8
100
AcDbArc
 50
102.4486558524
 51
218.8378748244
  0
ARC
  5
3C8
100
AcDbEntity
  8
RACCORDO
100
AcDbCircle
 62
250
  6
CONTINUOUS
 10
-36.75
 20
-13.0
 40
109.9476640438
100
AcDbArc
 50
106.3658343185
 51
214.9216849734
  0
ARC
  5
3C9
100
AcDbEntity
  8
RACCORDO
100
AcDbCircle
 62
250
  6
CONTINUOUS
 10
-36.75
 20
-13.0
 40
109.9476640438
100
AcDbArc
 50
226.9438053282
 51
301.8118647621
  0
ARC
  5
3CA
100
AcDbEntity
  8
RACCORDO
100
AcDbCircle
 62
250
  6
CONTINUOUS
 10
-36.75
 20
-13.0
 40
109.9476640438
100
AcDbArc
 50
312.2489416661
 51
94.3433725814
  0
ARC
  5
3CB
100
AcDbEntity
  8
RACCORDO
100
AcDbCircle
 62
7
  6
CONTINUOUS
 10
-36.75
 20
-13.0
 40
109.0
100
AcDbArc
 50
106.7246783539
 51
214.5615348152
  0
ARC
  5
3CC
100
AcDbEntity
  8
RACCORDO
100
AcDbCircle
 62
7
  6
CONTINUOUS
 10
-36.75
 20
-13.0
 40
109.0
100
AcDbArc
 50
226.7243896786
 51
301.7663453842
  0
ARC
  5
3CD
100
AcDbEntity
  8
RACCORDO
100
AcDbCircle
 62
7
  6
CONTINUOUS
 10
-36.75
 20
-13.0
 40
109.0
100
AcDbArc
 50
312.294456393
 51
94.5623002961
  0
ARC
  5
3CE
100
AcDbEntity
  8
RACCORDO
100
AcDbCircle
 62
7
  6
CONTINUOUS
 10
-36.75
 20
-13.0
 40
104.0
100
AcDbArc
 50
258.7877285824
 51
281.2122714176
  0
ARC
  5
3CF
100
AcDbEntity
  8
RACCORDO
100
AcDbCircle
 62
7
  6
CONTINUOUS
 10
-36.75
 20
-13.0
 40
104.0
100
AcDbArc
 50
348.7877285824
 51
11.2122714176
  0
ARC
  5
3D0
100
AcDbEntity
  8
RACCORDO
100
AcDbCircle
 62
7
  6
CONTINUOUS
 10
-36.75
 20
-13.0
 40
104.0
100
AcDbArc
 50
78.7877285824
 51
95.7895577801
  0
ARC
  5
3D1
100
AcDbEntity
  8
RACCORDO
100
AcDbCircle
 62
7
  6
CONTINUOUS
 10
-36.75
 20
-13.0
 40
104.0
100
AcDbArc
 50
168.7877285824
 51
191.2122714176
  0
ARC
  5
3D2
100
AcDbEntity
  8
RACCORDO
100
AcDbCircle
 62
250
  6
CONTINUOUS
 10
-36.75
 20
-13.0
 40
102.9215409043
100
AcDbArc
 50
78.7877285824
 51
96.0720414756
  0
ARC
  5
3D3
100
AcDbEntity
  8
RACCORDO
100
AcDbCircle
 62
250
  6
CONTINUOUS
 10
-36.75
 20
-13.0
 40
102.9215409043
100
AcDbArc
 50
258.7877285824
 51
281.2122714177
  0
ARC
  5
3D4
100
AcDbEntity
  8
RACCORDO
100
AcDbCircle
 62
250
  6
CONTINUOUS
 10
-36.75
 20
-13.0
 40
102.9215409043
100
AcDbArc
 50
168.7877285824
 51
191.2122714176
  0
ARC
  5
3D5
100
AcDbEntity
  8
RACCORDO
100
AcDbCircle
 62
250
  6
CONTINUOUS
 10
-36.75
 20
-13.0
 40
102.9215409043
100
AcDbArc
 50
348.7877285824
 51
11.2122714176
  0
ARC
  5
3D6
100
AcDbEntity
  8
RACCORDO
100
AcDbCircle
 62
250
  6
CONTINUOUS
 10
-36.75
 20
-13.0
 40
101.0748657696
100
AcDbArc
 50
168.7877285824
 51
191.2122714176
  0
ARC
  5
3D7
100
AcDbEntity
  8
RACCORDO
100
AcDbCircle
 62
250
  6
CONTINUOUS
 10
-36.75
 20
-13.0
 40
101.0748657696
100
AcDbArc
 50
348.7877285824
 51
11.2122714176
  0
ARC
  5
3D8
100
AcDbEntity
  8
RACCORDO
100
AcDbCircle
 62
250
  6
CONTINUOUS
 10
-36.75
 20
-13.0
 40
101.0748657696
100
AcDbArc
 50
78.7877285824
 51
96.5699771897
  0
ARC
  5
3D9
100
AcDbEntity
  8
RACCORDO
100
AcDbCircle
 62
250
  6
CONTINUOUS
 10
-36.75
 20
-13.0
 40
101.0748657696
100
AcDbArc
 50
258.7877285824
 51
281.2122714176
  0
ARC
  5
3DA
100
AcDbEntity
  8
RACCORDO
100
AcDbCircle
 62
250
  6
CONTINUOUS
 10
-36.75
 20
-13.0
 40
100.1546953306
100
AcDbArc
 50
258.7877285824
 51
281.2122714176
  0
ARC
  5
3DB
100
AcDbEntity
  8
RACCORDO
100
AcDbCircle
 62
250
  6
CONTINUOUS
 10
-36.75
 20
-13.0
 40
100.1546953306
100
AcDbArc
 50
78.7877285824
 51
96.8268521687
  0
ARC
  5
3DC
100
AcDbEntity
  8
RACCORDO
100
AcDbCircle
 62
250
  6
CONTINUOUS
 10
-36.75
 20
-13.0
 40
100.1546953306
100
AcDbArc
 50
168.7877285824
 51
191.2122714176
  0
ARC
  5
3DD
100
AcDbEntity
  8
RACCORDO
100
AcDbCircle
 62
250
  6
CONTINUOUS
 10
-36.75
 20
-13.0
 40
100.1546953306
100
AcDbArc
 50
348.7877285824
 51
11.2122714176
  0
ARC
  5
3DE
100
AcDbEntity
  8
DRAFT
100
AcDbCircle
 62
7
  6
CONTINUOUS
 10
-36.75
 20
-13.0
 40
100.0
100
AcDbArc
 50
168.7877285824
 51
191.2122714176
  0
ARC
  5
3DF
100
AcDbEntity
  8
DRAFT
100
AcDbCircle
 62
7
  6
CONTINUOUS
 10
-36.75
 20
-13.0
 40
100.0
100
AcDbArc
 50
348.7877285824
 51
11.2122714176
  0
ARC
  5
3E0
100
AcDbEntity
  8
DRAFT
100
AcDbCircle
 62
7
  6
CONTINUOUS
 10
-36.75
 20
-13.0
 40
100.0
100
AcDbArc
 50
258.7877285824
 51
281.2122714176
  0
ARC
  5
3E1
100
AcDbEntity
  8
DRAFT
100
AcDbCircle
 62
7
  6
CONTINUOUS
 10
-36.75
 20
-13.0
 40
100.0
100
AcDbArc
 50
78.7877285824
 51
96.8705011276
  0
ARC
  5
3E2
100
AcDbEntity
  8
ASSI
100
AcDbCircle
 62
7
  6
CONTINUOUS
 10
-36.75
 20
-13.0
 40
97.5
100
AcDbArc
 50
344.7388435553
 51
15.2610208095
  0
ARC
  5
3E3
100
AcDbEntity
  8
ASSI
100
AcDbCircle
 62
7
  6
CONTINUOUS
 10
-36.75
 20
-13.0
 40
97.5
100
AcDbArc
 50
74.7416134599
 51
97.5968087865
  0
ARC
  5
3E4
100
AcDbEntity
  8
ASSI
100
AcDbCircle
 62
7
  6
CONTINUOUS
 10
-36.75
 20
-13.0
 40
97.5
100
AcDbArc
 50
164.7388435553
 51
195.2610208095
  0
ARC
  5
3E5
100
AcDbEntity
  8
ASSI
100
AcDbCircle
 62
7
  6
CONTINUOUS
 10
-36.75
 20
-13.0
 40
97.5
100
AcDbArc
 50
254.7416134599
 51
285.2582557305
  0
ARC
  5
3E6
100
AcDbEntity
  8
ASSI
100
AcDbCircle
 62
7
  6
CONTINUOUS
 10
-36.75
 20
-13.0
 40
97.0
100
AcDbArc
 50
344.4069733287
 51
15.5931020382
  0
ARC
  5
3E7
100
AcDbEntity
  8
ASSI
100
AcDbCircle
 62
7
  6
CONTINUOUS
 10
-36.75
 20
-13.0
 40
97.0
100
AcDbArc
 50
74.406180165
 51
97.7470265981
  0
ARC
  5
3E8
100
AcDbEntity
  8
ASSI
100
AcDbCircle
 62
7
  6
CONTINUOUS
 10
-36.75
 20
-13.0
 40
97.0
100
AcDbArc
 50
164.4069733287
 51
195.5931020382
  0
ARC
  5
3E9
100
AcDbEntity
  8
ASSI
100
AcDbCircle
 62
7
  6
CONTINUOUS
 10
-36.75
 20
-13.0
 40
97.0
100
AcDbArc
 50
254.406180165
 51
285.5938939357
  0
ARC
  5
3EA
100
AcDbEntity
  8
RACCORDO
100
AcDbCircle
 62
7
  6
CONTINUOUS
 10
-36.75
 20
-13.0
 40
90.0
100
AcDbArc
 50
34.3280707142
 51
55.6719292858
  0
ARC
  5
3EB
100
AcDbEntity
  8
RACCORDO
100
AcDbCircle
 62
7
  6
CONTINUOUS
 10
-36.75
 20
-13.0
 40
90.0
100
AcDbArc
 50
313.4098178806
 51
325.6719292858
  0
ARC
  5
3EC
100
AcDbEntity
  8
RACCORDO
100
AcDbCircle
 62
7
  6
CONTINUOUS
 10
-36.75
 20
-13.0
 40
90.0
100
AcDbArc
 50
124.3280707142
 51
145.6719292858
  0
ARC
  5
3ED
100
AcDbEntity
  8
RACCORDO
100
AcDbCircle
 62
7
  6
CONTINUOUS
 10
-36.75
 20
-13.0
 40
90.0
100
AcDbArc
 50
221.2347102475
 51
235.6719292858
  0
ARC
  5
3EE
100
AcDbEntity
  8
RACCORDO
100
AcDbCircle
 62
250
  6
CONTINUOUS
 10
-36.75
 20
-13.0
 40
89.1372327234
100
AcDbArc
 50
124.3280707142
 51
145.6719292858
  0
ARC
  5
3EF
100
AcDbEntity
  8
RACCORDO
100
AcDbCircle
 62
250
  6
CONTINUOUS
 10
-36.75
 20
-13.0
 40
89.1372327234
100
AcDbArc
 50
34.3280707142
 51
55.6719292858
  0
ARC
  5
3F0
100
AcDbEntity
  8
RACCORDO
100
AcDbCircle
 62
250
  6
CONTINUOUS
 10
-36.75
 20
-13.0
 40
89.1372327234
100
AcDbArc
 50
313.4717699698
 51
325.6719292858
  0
ARC
  5
3F1
100
AcDbEntity
  8
RACCORDO
100
AcDbCircle
 62
250
  6
CONTINUOUS
 10
-36.75
 20
-13.0
 40
89.1372327234
100
AcDbArc
 50
220.9211902251
 51
235.6719292858
  0
ARC
  5
3F2
100
AcDbEntity
  8
ASSI
100
AcDbCircle
 62
7
  6
CONTINUOUS
 10
-36.75
 20
-13.0
 40
89.0
100
AcDbArc
 50
342.4153840982
 51
17.5846621635
  0
ARC
  5
3F3
100
AcDbEntity
  8
ASSI
100
AcDbCircle
 62
7
  6
CONTINUOUS
 10
-36.75
 20
-13.0
 40
89.0
100
AcDbArc
 50
72.4153840982
 51
100.4148278968
  0
ARC
  5
3F4
100
AcDbEntity
  8
ASSI
100
AcDbCircle
 62
7
  6
CONTINUOUS
 10
-36.75
 20
-13.0
 40
89.0
100
AcDbArc
 50
162.4153840982
 51
197.5846621635
  0
ARC
  5
3F5
100
AcDbEntity
  8
ASSI
100
AcDbCircle
 62
7
  6
CONTINUOUS
 10
-36.75
 20
-13.0
 40
89.0
100
AcDbArc
 50
252.4153840982
 51
287.5846621635
  0
ARC
  5
3F6
100
AcDbEntity
  8
ASSI
100
AcDbCircle
 62
7
  6
CONTINUOUS
 10
-36.75
 20
-13.0
 40
88.5
100
AcDbArc
 50
342.4374599902
 51
17.5625501286
  0
ARC
  5
3F7
100
AcDbEntity
  8
ASSI
100
AcDbCircle
 62
7
  6
CONTINUOUS
 10
-36.75
 20
-13.0
 40
88.5
100
AcDbArc
 50
72.4374599902
 51
100.6008390833
  0
ARC
  5
3F8
100
AcDbEntity
  8
ASSI
100
AcDbCircle
 62
7
  6
CONTINUOUS
 10
-36.75
 20
-13.0
 40
88.5
100
AcDbArc
 50
162.4374599902
 51
197.5625501286
  0
ARC
  5
3F9
100
AcDbEntity
  8
ASSI
100
AcDbCircle
 62
7
  6
CONTINUOUS
 10
-36.75
 20
-13.0
 40
88.5
100
AcDbArc
 50
252.4374599902
 51
287.5625501286
  0
ARC
  5
3FA
100
AcDbEntity
  8
RACCORDO
100
AcDbCircle
 62
250
  6
CONTINUOUS
 10
-36.75
 20
-13.0
 40
86.9000111621
100
AcDbArc
 50
124.3280707142
 51
145.6719292858
  0
ARC
  5
3FB
100
AcDbEntity
  8
RACCORDO
100
AcDbCircle
 62
250
  6
CONTINUOUS
 10
-36.75
 20
-13.0
 40
86.9000111621
100
AcDbArc
 50
313.638473638
 51
325.6719292858
  0
ARC
  5
3FC
100
AcDbEntity
  8
RACCORDO
100
AcDbCircle
 62
250
  6
CONTINUOUS
 10
-36.75
 20
-13.0
 40
86.9000111621
100
AcDbArc
 50
34.3280707142
 51
55.6719292858
  0
ARC
  5
3FD
100
AcDbEntity
  8
RACCORDO
100
AcDbCircle
 62
250
  6
CONTINUOUS
 10
-36.75
 20
-13.0
 40
86.9000111621
100
AcDbArc
 50
220.0756025522
 51
235.6719292858
  0
ARC
  5
3FE
100
AcDbEntity
  8
RACCORDO
100
AcDbCircle
 62
250
  6
CONTINUOUS
 10
-36.75
 20
-13.0
 40
86.1638748109
100
AcDbArc
 50
219.7860192506
 51
235.6719292858
  0
ARC
  5
3FF
100
AcDbEntity
  8
RACCORDO
100
AcDbCircle
 62
250
  6
CONTINUOUS
 10
-36.75
 20
-13.0
 40
86.1638748109
100
AcDbArc
 50
34.3280707142
 51
55.6719292858
  0
ARC
  5
400
100
AcDbEntity
  8
RACCORDO
100
AcDbCircle
 62
250
  6
CONTINUOUS
 10
-36.75
 20
-13.0
 40
86.1638748109
100
AcDbArc
 50
313.6952212036
 51
325.6719292858
  0
ARC
  5
401
100
AcDbEntity
  8
RACCORDO
100
AcDbCircle
 62
250
  6
CONTINUOUS
 10
-36.75
 20
-13.0
 40
86.1638748109
100
AcDbArc
 50
124.3280707142
 51
145.6719292858
  0
ARC
  5
402
100
AcDbEntity
  8
DRAFT
100
AcDbCircle
 62
7
  6
CONTINUOUS
 10
-36.75
 20
-13.0
 40
86.0
100
AcDbArc
 50
124.3280707142
 51
145.6719292858
  0
ARC
  5
403
100
AcDbEntity
  8
DRAFT
100
AcDbCircle
 62
7
  6
CONTINUOUS
 10
-36.75
 20
-13.0
 40
86.0
100
AcDbArc
 50
219.7209061968
 51
235.6719292858
  0
ARC
  5
404
100
AcDbEntity
  8
DRAFT
100
AcDbCircle
 62
7
  6
CONTINUOUS
 10
-36.75
 20
-13.0
 40
86.0
100
AcDbArc
 50
313.7079523258
 51
325.6719292858
  0
ARC
  5
405
100
AcDbEntity
  8
DRAFT
100
AcDbCircle
 62
7
  6
CONTINUOUS
 10
-36.75
 20
-13.0
 40
86.0
100
AcDbArc
 50
34.3280707142
 51
55.6719292858
  0
ARC
  5
406
100
AcDbEntity
  8
ASSI
100
AcDbCircle
 62
7
  6
CONTINUOUS
 10
-36.75
 20
-13.0
 40
80.5
100
AcDbArc
 50
314.1663581131
 51
329.2018197451
  0
ARC
  5
407
100
AcDbEntity
  8
ASSI
100
AcDbCircle
 62
7
  6
CONTINUOUS
 10
-36.75
 20
-13.0
 40
80.5
100
AcDbArc
 50
346.6906679357
 51
13.3087810515
  0
ARC
  5
408
100
AcDbEntity
  8
ASSI
100
AcDbCircle
 62
7
  6
CONTINUOUS
 10
-36.75
 20
-13.0
 40
80.5
100
AcDbArc
 50
30.7981806687
 51
59.2018037731
  0
ARC
  5
409
100
AcDbEntity
  8
ASSI
100
AcDbCircle
 62
7
  6
CONTINUOUS
 10
-36.75
 20
-13.0
 40
80.5
100
AcDbArc
 50
76.6937334121
 51
103.3057314847
  0
ARC
  5
40A
100
AcDbEntity
  8
ASSI
100
AcDbCircle
 62
7
  6
CONTINUOUS
 10
-36.75
 20
-13.0
 40
80.5
100
AcDbArc
 50
123.5288049831
 51
149.2018197451
  0
ARC
  5
40B
100
AcDbEntity
  8
ASSI
100
AcDbCircle
 62
7
  6
CONTINUOUS
 10
-36.75
 20
-13.0
 40
80.5
100
AcDbArc
 50
166.6906679357
 51
193.3087810515
  0
ARC
  5
40C
100
AcDbEntity
  8
ASSI
100
AcDbCircle
 62
7
  6
CONTINUOUS
 10
-36.75
 20
-13.0
 40
80.5
100
AcDbArc
 50
217.3469111292
 51
239.2018037731
  0
ARC
  5
40D
100
AcDbEntity
  8
ASSI
100
AcDbCircle
 62
7
  6
CONTINUOUS
 10
-36.75
 20
-13.0
 40
80.5
100
AcDbArc
 50
256.6937334121
 51
283.3057314847
  0
ARC
  5
40E
100
AcDbEntity
  8
DRAFT
100
AcDbCircle
 62
7
  6
CONTINUOUS
 10
-36.75
 20
-13.0
 40
80.0
100
AcDbArc
 50
168.7877285824
 51
191.2122714176
  0
ARC
  5
40F
100
AcDbEntity
  8
DRAFT
100
AcDbCircle
 62
7
  6
CONTINUOUS
 10
-36.75
 20
-13.0
 40
80.0
100
AcDbArc
 50
348.7877285824
 51
11.2122714176
  0
ARC
  5
410
100
AcDbEntity
  8
DRAFT
100
AcDbCircle
 62
7
  6
CONTINUOUS
 10
-36.75
 20
-13.0
 40
80.0
100
AcDbArc
 50
258.7877285824
 51
281.2122714176
  0
ARC
  5
411
100
AcDbEntity
  8
DRAFT
100
AcDbCircle
 62
7
  6
CONTINUOUS
 10
-36.75
 20
-13.0
 40
80.0
100
AcDbArc
 50
78.7877285824
 51
101.2122714176
  0
ARC
  5
412
100
AcDbEntity
  8
ASSI
100
AcDbCircle
 62
7
  6
CONTINUOUS
 10
-36.75
 20
-13.0
 40
80.0
100
AcDbArc
 50
314.2111461388
 51
329.1584908308
  0
ARC
  5
413
100
AcDbEntity
  8
ASSI
100
AcDbCircle
 62
7
  6
CONTINUOUS
 10
-36.75
 20
-13.0
 40
80.0
100
AcDbArc
 50
30.8415089226
 51
59.1583960593
  0
ARC
  5
414
100
AcDbEntity
  8
ASSI
100
AcDbCircle
 62
7
  6
CONTINUOUS
 10
-36.75
 20
-13.0
 40
80.0
100
AcDbArc
 50
124.0057977581
 51
149.1584908308
  0
ARC
  5
415
100
AcDbEntity
  8
ASSI
100
AcDbCircle
 62
7
  6
CONTINUOUS
 10
-36.75
 20
-13.0
 40
80.0
100
AcDbArc
 50
217.1103363417
 51
239.1583960593
  0
ARC
  5
416
100
AcDbEntity
  8
RACCORDO
100
AcDbCircle
 62
250
  6
CONTINUOUS
 10
-36.75
 20
-13.0
 40
79.8547795547
100
AcDbArc
 50
258.7877285824
 51
281.2122714176
  0
ARC
  5
417
100
AcDbEntity
  8
RACCORDO
100
AcDbCircle
 62
250
  6
CONTINUOUS
 10
-36.75
 20
-13.0
 40
79.8547795547
100
AcDbArc
 50
78.7877285824
 51
101.2122714176
  0
ARC
  5
418
100
AcDbEntity
  8
RACCORDO
100
AcDbCircle
 62
250
  6
CONTINUOUS
 10
-36.75
 20
-13.0
 40
79.8547795547
100
AcDbArc
 50
168.7877285824
 51
191.2122714176
  0
ARC
  5
419
100
AcDbEntity
  8
RACCORDO
100
AcDbCircle
 62
250
  6
CONTINUOUS
 10
-36.75
 20
-13.0
 40
79.8547795547
100
AcDbArc
 50
348.7877285824
 51
11.2122714176
  0
ARC
  5
41A
100
AcDbEntity
  8
RACCORDO
100
AcDbCircle
 62
250
  6
CONTINUOUS
 10
-36.75
 20
-13.0
 40
78.7776909242
100
AcDbArc
 50
168.7877285823
 51
191.2122714177
  0
ARC
  5
41B
100
AcDbEntity
  8
RACCORDO
100
AcDbCircle
 62
250
  6
CONTINUOUS
 10
-36.75
 20
-13.0
 40
78.7776909242
100
AcDbArc
 50
348.7877285824
 51
11.2122714176
  0
ARC
  5
41C
100
AcDbEntity
  8
RACCORDO
100
AcDbCircle
 62
250
  6
CONTINUOUS
 10
-36.75
 20
-13.0
 40
78.7776909242
100
AcDbArc
 50
78.7877285824
 51
101.2122714177
  0
ARC
  5
41D
100
AcDbEntity
  8
RACCORDO
100
AcDbCircle
 62
250
  6
CONTINUOUS
 10
-36.75
 20
-13.0
 40
78.7776909242
100
AcDbArc
 50
258.7877285824
 51
281.2122714177
  0
ARC
  5
41E
100
AcDbEntity
  8
RACCORDO
100
AcDbCircle
 62
250
  6
CONTINUOUS
 10
-36.75
 20
-13.0
 40
76.9215409043
100
AcDbArc
 50
78.7877285824
 51
101.2122714176
  0
ARC
  5
41F
100
AcDbEntity
  8
RACCORDO
100
AcDbCircle
 62
250
  6
CONTINUOUS
 10
-36.75
 20
-13.0
 40
76.9215409043
100
AcDbArc
 50
258.7877285824
 51
281.2122714176
  0
ARC
  5
420
100
AcDbEntity
  8
RACCORDO
100
AcDbCircle
 62
250
  6
CONTINUOUS
 10
-36.75
 20
-13.0
 40
76.9215409043
100
AcDbArc
 50
168.7877285824
 51
191.2122714176
  0
ARC
  5
421
100
AcDbEntity
  8
RACCORDO
100
AcDbCircle
 62
250
  6
CONTINUOUS
 10
-36.75
 20
-13.0
 40
76.9215409043
100
AcDbArc
 50
348.7877285824
 51
11.2122714176
  0
ARC
  5
422
100
AcDbEntity
  8
DRAFT
100
AcDbCircle
 62
7
  6
CONTINUOUS
 10
-36.75
 20
-13.0
 40
76.0
100
AcDbArc
 50
128.2770279933
 51
145.6719292858
  0
ARC
  5
423
100
AcDbEntity
  8
DRAFT
100
AcDbCircle
 62
7
  6
CONTINUOUS
 10
-36.75
 20
-13.0
 40
76.0
100
AcDbArc
 50
215.0878656812
 51
235.6719292858
  0
ARC
  5
424
100
AcDbEntity
  8
DRAFT
100
AcDbCircle
 62
7
  6
CONTINUOUS
 10
-36.75
 20
-13.0
 40
76.0
100
AcDbArc
 50
314.5913403975
 51
325.6719292858
  0
ARC
  5
425
100
AcDbEntity
  8
DRAFT
100
AcDbCircle
 62
7
  6
CONTINUOUS
 10
-36.75
 20
-13.0
 40
76.0
100
AcDbArc
 50
34.3280707142
 51
55.6719292858
  0
ARC
  5
426
100
AcDbEntity
  8
RACCORDO
100
AcDbCircle
 62
7
  6
CONTINUOUS
 10
-36.75
 20
-13.0
 40
76.0
100
AcDbArc
 50
258.7877285824
 51
281.2122714177
  0
ARC
  5
427
100
AcDbEntity
  8
RACCORDO
100
AcDbCircle
 62
7
  6
CONTINUOUS
 10
-36.75
 20
-13.0
 40
76.0
100
AcDbArc
 50
348.7877285824
 51
11.2122714176
  0
ARC
  5
428
100
AcDbEntity
  8
RACCORDO
100
AcDbCircle
 62
7
  6
CONTINUOUS
 10
-36.75
 20
-13.0
 40
76.0
100
AcDbArc
 50
78.7877285824
 51
101.2122714176
  0
ARC
  5
429
100
AcDbEntity
  8
RACCORDO
100
AcDbCircle
 62
7
  6
CONTINUOUS
 10
-36.75
 20
-13.0
 40
76.0
100
AcDbArc
 50
168.7877285824
 51
191.2122714176
  0
ARC
  5
42A
100
AcDbEntity
  8
RACCORDO
100
AcDbCircle
 62
250
  6
CONTINUOUS
 10
-36.75
 20
-13.0
 40
75.8440346823
100
AcDbArc
 50
215.003393887
 51
235.6719292858
  0
ARC
  5
42B
100
AcDbEntity
  8
RACCORDO
100
AcDbCircle
 62
250
  6
CONTINUOUS
 10
-36.75
 20
-13.0
 40
75.8440346823
100
AcDbArc
 50
34.3280707142
 51
55.6719292858
  0
ARC
  5
42C
100
AcDbEntity
  8
RACCORDO
100
AcDbCircle
 62
250
  6
CONTINUOUS
 10
-36.75
 20
-13.0
 40
75.8440346823
100
AcDbArc
 50
314.6069966616
 51
325.6719292858
  0
ARC
  5
42D
100
AcDbEntity
  8
RACCORDO
100
AcDbCircle
 62
250
  6
CONTINUOUS
 10
-36.75
 20
-13.0
 40
75.8440346823
100
AcDbArc
 50
128.4628788613
 51
145.6719292858
  0
ARC
  5
42E
100
AcDbEntity
  8
RACCORDO
100
AcDbCircle
 62
250
  6
CONTINUOUS
 10
-36.75
 20
-13.0
 40
74.982363778
100
AcDbArc
 50
129.5254912923
 51
145.6719292858
  0
ARC
  5
42F
100
AcDbEntity
  8
RACCORDO
100
AcDbCircle
 62
250
  6
CONTINUOUS
 10
-36.75
 20
-13.0
 40
74.982363778
100
AcDbArc
 50
314.6946571989
 51
325.6719292858
  0
ARC
  5
430
100
AcDbEntity
  8
RACCORDO
100
AcDbCircle
 62
250
  6
CONTINUOUS
 10
-36.75
 20
-13.0
 40
74.982363778
100
AcDbArc
 50
34.3280707142
 51
55.6719292858
  0
ARC
  5
431
100
AcDbEntity
  8
RACCORDO
100
AcDbCircle
 62
250
  6
CONTINUOUS
 10
-36.75
 20
-13.0
 40
74.982363778
100
AcDbArc
 50
214.5303350949
 51
235.6719292858
  0
ARC
  5
432
100
AcDbEntity
  8
RACCORDO
100
AcDbCircle
 62
250
  6
CONTINUOUS
 10
-36.75
 20
-13.0
 40
72.7372327234
100
AcDbArc
 50
132.5927768663
 51
145.6719292858
  0
ARC
  5
433
100
AcDbEntity
  8
RACCORDO
100
AcDbCircle
 62
250
  6
CONTINUOUS
 10
-36.75
 20
-13.0
 40
72.7372327234
100
AcDbArc
 50
34.3280707142
 51
55.6719292858
  0
ARC
  5
434
100
AcDbEntity
  8
RACCORDO
100
AcDbCircle
 62
250
  6
CONTINUOUS
 10
-36.75
 20
-13.0
 40
72.7372327234
100
AcDbArc
 50
314.9328173147
 51
325.6719292858
  0
ARC
  5
435
100
AcDbEntity
  8
RACCORDO
100
AcDbCircle
 62
250
  6
CONTINUOUS
 10
-36.75
 20
-13.0
 40
72.7372327234
100
AcDbArc
 50
214.3280707142
 51
235.6719292858
  0
ARC
  5
436
100
AcDbEntity
  8
RACCORDO
100
AcDbCircle
 62
7
  6
CONTINUOUS
 10
-36.75
 20
-13.0
 40
72.0
100
AcDbArc
 50
34.3280707142
 51
55.6719292858
  0
ARC
  5
437
100
AcDbEntity
  8
RACCORDO
100
AcDbCircle
 62
7
  6
CONTINUOUS
 10
-36.75
 20
-13.0
 40
72.0
100
AcDbArc
 50
315.0142612154
 51
325.6719292858
  0
ARC
  5
438
100
AcDbEntity
  8
RACCORDO
100
AcDbCircle
 62
7
  6
CONTINUOUS
 10
-36.75
 20
-13.0
 40
72.0
100
AcDbArc
 50
133.715657037
 51
145.6719292858
  0
ARC
  5
439
100
AcDbEntity
  8
RACCORDO
100
AcDbCircle
 62
7
  6
CONTINUOUS
 10
-36.75
 20
-13.0
 40
72.0
100
AcDbArc
 50
214.3280707142
 51
235.6719292858
  0
ARC
  5
43A
100
AcDbEntity
  8
ASSI
100
AcDbCircle
 62
7
  6
CONTINUOUS
 10
-36.75
 20
-13.0
 40
72.0
100
AcDbArc
 50
55.6719292858
 51
108.5091850948
  0
ARC
  5
43B
100
AcDbEntity
  8
ASSI
100
AcDbCircle
 62
7
  6
CONTINUOUS
 10
-36.75
 20
-13.0
 40
72.0
100
AcDbArc
 50
325.6719292858
 51
34.3280707142
  0
ARC
  5
43C
100
AcDbEntity
  8
ASSI
100
AcDbCircle
 62
7
  6
CONTINUOUS
 10
-36.75
 20
-13.0
 40
72.0
100
AcDbArc
 50
235.6719292858
 51
299.0465723634
  0
ARC
  5
43D
100
AcDbEntity
  8
ASSI
100
AcDbCircle
 62
7
  6
CONTINUOUS
 10
-36.75
 20
-13.0
 40
72.0
100
AcDbArc
 50
145.6719292858
 51
187.5729334387
  0
ARC
  5
43E
100
AcDbEntity
  8
ASSI
100
AcDbCircle
 62
7
  6
CONTINUOUS
 10
-36.75
 20
-13.0
 40
72.0
100
AcDbArc
 50
212.7782084983
 51
214.3280707142
  0
ARC
  5
43F
100
AcDbEntity
  8
0
100
AcDbCircle
 62
7
  6
CONTINUOUS
 10
-36.75
 20
-13.0
 40
16.0
100
AcDbArc
 50
345.7134327777
 51
268.3473832229
  0
ARC
  5
440
100
AcDbEntity
  8
0
100
AcDbCircle
 62
7
  6
CONTINUOUS
 10
-36.75
 20
-13.0
 40
10.0
100
AcDbArc
 50
37.0303896057
 51
217.0303896057
  0
ARC
  5
441
100
AcDbEntity
  8
RACCORDO
100
AcDbCircle
 62
7
  6
CONTINUOUS
 10
-36.75
 20
150.5
 40
15.0
100
AcDbArc
 50
292.4625285549
 51
208.8240783914
  0
ARC
  5
442
100
AcDbEntity
  8
RACCORDO
100
AcDbCircle
 62
7
  6
CONTINUOUS
 10
-19.25
 20
75.282217915
 40
14.0
100
AcDbArc
 50
258.7877285823
 51
78.7877285824
  0
ARC
  5
443
100
AcDbEntity
  8
RACCORDO
100
AcDbCircle
 62
7
  6
CONTINUOUS
 10
-54.25
 20
75.282217915
 40
14.0
100
AcDbArc
 50
257.1234615408
 51
281.2122714177
  0
ARC
  5
444
100
AcDbEntity
  8
RACCORDO
100
AcDbCircle
 62
7
  6
CONTINUOUS
 10
-125.032217915
 20
4.5
 40
14.0
100
AcDbArc
 50
348.7877285824
 51
168.7877285824
  0
ARC
  5
445
100
AcDbEntity
  8
RACCORDO
100
AcDbCircle
 62
250
  6
CONTINUOUS
 10
-54.2295062846
 20
75.1803696334
 40
12.9745698523
100
AcDbArc
 50
257.4017169427
 51
281.2109522231
  0
ARC
  5
446
100
AcDbEntity
  8
RACCORDO
100
AcDbCircle
 62
250
  6
CONTINUOUS
 10
-36.75
 20
150.5
 40
12.0
100
AcDbArc
 50
307.0999508845
 51
194.1936778189
  0
ARC
  5
447
100
AcDbEntity
  8
RACCORDO
100
AcDbCircle
 62
250
  6
CONTINUOUS
 10
-54.2315454624
 20
75.1902376723
 40
11.1284960307
100
AcDbArc
 50
258.5568649977
 51
281.2111528486
  0
ARC
  5
448
100
AcDbEntity
  8
RACCORDO
100
AcDbCircle
 62
250
  6
CONTINUOUS
 10
-54.2511639214
 20
75.288156509
 40
10.1512720105
100
AcDbArc
 50
259.6149759553
 51
281.2121979282
  0
ARC
  5
449
100
AcDbEntity
  8
RACCORDO
100
AcDbCircle
 62
250
  6
CONTINUOUS
 10
-19.2485266223
 20
75.2867347861
 40
10.149876681
100
AcDbArc
 50
258.7845280392
 51
78.7909291127
  0
ARC
  5
44A
100
AcDbEntity
  8
RACCORDO
100
AcDbCircle
 62
250
  6
CONTINUOUS
 10
-125.0367348402
 20
4.5014735469
 40
10.1498765469
100
AcDbArc
 50
348.784527162
 51
168.79092999
  0
ARC
  5
44B
100
AcDbEntity
  8
DRAFT
100
AcDbCircle
 62
7
  6
CONTINUOUS
 10
-125.0322186583
 20
4.4999962506
 40
10.0
100
AcDbArc
 50
348.7877504828
 51
168.7877066819
  0
ARC
  5
44C
100
AcDbEntity
  8
DRAFT
100
AcDbCircle
 62
7
  6
CONTINUOUS
 10
-19.2500037494
 20
75.2822186583
 40
10.0
100
AcDbArc
 50
258.7877504828
 51
78.7877066819
  0
ARC
  5
44D
100
AcDbEntity
  8
0
100
AcDbCircle
 62
7
  6
CONTINUOUS
 10
-36.75
 20
150.5
 40
10.0
100
AcDbArc
 50
340.6432581054
 51
160.6432581054
  0
ARC
  5
44E
100
AcDbEntity
  8
DRAFT
100
AcDbCircle
 62
7
  6
CONTINUOUS
 10
-54.2499986143
 20
75.2822039404
 40
9.9999860226
100
AcDbArc
 50
259.734321157
 51
281.2122791989
  0
ARC
  5
44F
100
AcDbEntity
  8
RACCORDO
100
AcDbCircle
 62
7
  6
CONTINUOUS
 10
-82.4283874001
 20
53.8915908357
 40
9.0
100
AcDbArc
 50
63.7786755537
 51
124.3280707142
  0
ARC
  5
450
100
AcDbEntity
  8
RACCORDO
100
AcDbCircle
 62
7
  6
CONTINUOUS
 10
-103.6415908357
 20
32.6783874001
 40
9.0
100
AcDbArc
 50
145.6719292858
 51
325.6719292858
  0
ARC
  5
451
100
AcDbEntity
  8
RACCORDO
100
AcDbCircle
 62
250
  6
CONTINUOUS
 10
-82.3979655192
 20
53.8452873312
 40
8.1926985017
100
AcDbArc
 50
63.4093841068
 51
124.3211547209
  0
ARC
  5
452
100
AcDbEntity
  8
RACCORDO
100
AcDbCircle
 62
250
  6
CONTINUOUS
 10
-82.398663917
 20
53.8465680068
 40
5.9540162428
100
AcDbArc
 50
60.6553547434
 51
124.3199541061
  0
ARC
  5
453
100
AcDbEntity
  8
RACCORDO
100
AcDbCircle
 62
250
  6
CONTINUOUS
 10
-82.4304190344
 20
53.8946379911
 40
5.1602127018
100
AcDbArc
 50
58.5784552951
 51
124.3285216892
  0
ARC
  5
454
100
AcDbEntity
  8
RACCORDO
100
AcDbCircle
 62
250
  6
CONTINUOUS
 10
-103.6450072282
 20
32.6803860358
 40
5.1598750835
100
AcDbArc
 50
145.6688635724
 51
325.6749950066
  0
ARC
  5
455
100
AcDbEntity
  8
DRAFT
100
AcDbCircle
 62
7
  6
CONTINUOUS
 10
-82.4283884466
 20
53.8915852548
 40
5.0000040186
100
AcDbArc
 50
58.2188842448
 51
124.3280247469
  0
ARC
  5
456
100
AcDbEntity
  8
DRAFT
100
AcDbCircle
 62
7
  6
CONTINUOUS
 10
-103.6415908357
 20
32.6783874001
 40
5.0
100
AcDbArc
 50
145.6719292858
 51
325.6719292858
  0
ARC
  5
457
100
AcDbEntity
  8
RACCORDO
100
AcDbCircle
 62
7
  6
CONTINUOUS
 10
51.532217915
 20
-30.5
 40
14.0
100
AcDbArc
 50
168.7877285824
 51
348.7877285824
  0
ARC
  5
458
100
AcDbEntity
  8
RACCORDO
100
AcDbCircle
 62
250
  6
CONTINUOUS
 10
51.5367347397
 20
-30.5014735376
 40
10.1498765527
100
AcDbArc
 50
168.7845271032
 51
348.7909300487
  0
ARC
  5
459
100
AcDbEntity
  8
DRAFT
100
AcDbCircle
 62
7
  6
CONTINUOUS
 10
51.5322186583
 20
-30.4999962506
 40
10.0
100
AcDbArc
 50
168.7877504828
 51
348.7877066819
  0
ARC
  5
45A
100
AcDbEntity
  8
0
100
AcDbCircle
 62
7
  6
CONTINUOUS
 10
70.75
 20
-155.5
 40
10.0
100
AcDbArc
 50
217.0303896057
 51
37.0303896057
  0
ARC
  5
45B
100
AcDbEntity
  8
RACCORDO
100
AcDbCircle
 62
7
  6
CONTINUOUS
 10
8.9283874001
 20
-79.8915908357
 40
9.0
100
AcDbArc
 50
170.4127280518
 51
263.6512860026
  0
ARC
  5
45C
100
AcDbEntity
  8
RACCORDO
100
AcDbCircle
 62
7
  6
CONTINUOUS
 10
30.1415908357
 20
-58.6783874001
 40
9.0
100
AcDbArc
 50
325.6719292858
 51
145.6719292858
  0
ARC
  5
45D
100
AcDbEntity
  8
RACCORDO
100
AcDbCircle
 62
250
  6
CONTINUOUS
 10
8.9021612532
 20
-79.8342608611
 40
8.2044058809
100
AcDbArc
 50
176.0661855784
 51
257.9974747592
  0
ARC
  5
45E
100
AcDbEntity
  8
RACCORDO
100
AcDbCircle
 62
250
  6
CONTINUOUS
 10
30.1450069923
 20
-58.6803863193
 40
5.1598759651
100
AcDbArc
 50
325.668867649
 51
145.67499093
  0
ARC
  5
45F
100
AcDbEntity
  8
DRAFT
100
AcDbCircle
 62
7
  6
CONTINUOUS
 10
30.1415908357
 20
-58.6783874001
 40
5.0
100
AcDbArc
 50
325.6719292858
 51
145.6719292858
  0
ARC
  5
460
100
AcDbEntity
  8
RACCORDO
100
AcDbCircle
 62
7
  6
CONTINUOUS
 10
51.532217915
 20
4.5
 40
14.0
100
AcDbArc
 50
11.2122714176
 51
191.2122714176
  0
ARC
  5
461
100
AcDbEntity
  8
RACCORDO
100
AcDbCircle
 62
250
  6
CONTINUOUS
 10
51.536734768
 20
4.5014734691
 40
10.1498766121
100
AcDbArc
 50
11.2090703615
 51
191.2154724866
  0
ARC
  5
462
100
AcDbEntity
  8
DRAFT
100
AcDbCircle
 62
7
  6
CONTINUOUS
 10
51.5322186565
 20
4.4999962598
 40
10.0
100
AcDbArc
 50
11.2122932642
 51
191.2122495711
  0
ARC
  5
463
100
AcDbEntity
  8
RACCORDO
100
AcDbCircle
 62
7
  6
CONTINUOUS
 10
30.1415908357
 20
32.6783874001
 40
9.0
100
AcDbArc
 50
214.3280707142
 51
34.3280707142
  0
ARC
  5
464
100
AcDbEntity
  8
RACCORDO
100
AcDbCircle
 62
7
  6
CONTINUOUS
 10
8.9283874001
 20
53.8915908357
 40
9.0
100
AcDbArc
 50
55.6719292858
 51
235.6719292858
  0
ARC
  5
465
100
AcDbEntity
  8
RACCORDO
100
AcDbCircle
 62
250
  6
CONTINUOUS
 10
30.1450072669
 20
32.6803860615
 40
5.1598750991
100
AcDbArc
 50
214.3250049868
 51
34.3311364343
  0
ARC
  5
466
100
AcDbEntity
  8
RACCORDO
100
AcDbCircle
 62
250
  6
CONTINUOUS
 10
8.93038581
 20
53.8950072663
 40
5.1598749852
100
AcDbArc
 50
55.668861264
 51
235.6749973152
  0
ARC
  5
467
100
AcDbEntity
  8
DRAFT
100
AcDbCircle
 62
7
  6
CONTINUOUS
 10
8.9283874001
 20
53.8915908357
 40
5.0
100
AcDbArc
 50
55.6719292858
 51
235.6719292858
  0
ARC
  5
468
100
AcDbEntity
  8
DRAFT
100
AcDbCircle
 62
7
  6
CONTINUOUS
 10
30.1415908357
 20
32.6783874001
 40
5.0
100
AcDbArc
 50
214.3280707142
 51
34.3280707142
  0
ARC
  5
469
100
AcDbEntity
  8
ASSI
100
AcDbCircle
 62
7
  6
CONTINUOUS
 10
125.0538475773
 20
113.5
 40
3.0
100
AcDbArc
 50
90.0
 51
120.0
  0
ARC
  5
46A
100
AcDbEntity
  8
ASSI
100
AcDbCircle
 62
7
  6
CONTINUOUS
 10
125.0538475773
 20
77.5
 40
3.0
100
AcDbArc
 50
240.0
 51
270.0
  0
ARC
  5
46B
100
AcDbEntity
  8
ASSI
100
AcDbCircle
 62
7
  6
CONTINUOUS
 10
128.25
 20
95.5
 40
2.9735749324
100
AcDbArc
 50
202.0885431658
 51
183.4298241508
  0
ARC
  5
46C
100
AcDbEntity
  8
ASSI
100
AcDbCircle
 62
7
  6
CONTINUOUS
 10
122.644428
 20
95.589938
 40
2.6508884458
100
AcDbArc
 50
317.2312789315
 51
354.2011723825
  0
ARC
  5
46D
100
AcDbEntity
  8
ASSI
100
AcDbCircle
 62
7
  6
CONTINUOUS
 10
123.073813
 20
95.381315
 40
2.6190759282
100
AcDbArc
 50
315.4348969444
 51
337.5658553844
  0
CIRCLE
  5
46E
100
AcDbEntity
  8
ASSI
100
AcDbCircle
 62
7
  6
CONTINUOUS
 10
128.25
 20
95.5
 40
2.497595
  0
ARC
  5
46F
100
AcDbEntity
  8
ASSI
100
AcDbCircle
 62
7
  6
CONTINUOUS
 10
128.25
 20
95.5
 40
2.2337503191
100
AcDbArc
 50
209.3041411838
 51
314.9957558872
  0
ARC
  5
470
100
AcDbEntity
  8
ASSI
100
AcDbCircle
 62
7
  6
CONTINUOUS
 10
128.25
 20
95.5
 40
2.2337501706
100
AcDbArc
 50
44.9002628452
 51
150.6958588162
  0
ARC
  5
471
100
AcDbEntity
  8
ASSI
100
AcDbCircle
 62
7
  6
CONTINUOUS
 10
159.05
 20
108.2
 40
2.2
100
AcDbArc
 50
270.0
 51
360.0
  0
ARC
  5
472
100
AcDbEntity
  8
ASSI
100
AcDbCircle
 62
7
  6
CONTINUOUS
 10
159.05
 20
108.8
 40
2.2
100
AcDbArc
 50
0.0
 51
90.0
  0
ARC
  5
473
100
AcDbEntity
  8
ASSI
100
AcDbCircle
 62
7
  6
CONTINUOUS
 10
159.55
 20
95.2
 40
2.2
100
AcDbArc
 50
270.0
 51
360.0
  0
ARC
  5
474
100
AcDbEntity
  8
ASSI
100
AcDbCircle
 62
7
  6
CONTINUOUS
 10
159.55
 20
95.8
 40
2.2
100
AcDbArc
 50
0.0
 51
90.0
  0
ARC
  5
475
100
AcDbEntity
  8
ASSI
100
AcDbCircle
 62
7
  6
CONTINUOUS
 10
159.05
 20
82.2
 40
2.2
100
AcDbArc
 50
270.0
 51
360.0
  0
ARC
  5
476
100
AcDbEntity
  8
ASSI
100
AcDbCircle
 62
7
  6
CONTINUOUS
 10
159.05
 20
82.8
 40
2.2
100
AcDbArc
 50
0.0
 51
90.0
  0
ARC
  5
477
100
AcDbEntity
  8
ASSI
100
AcDbCircle
 62
7
  6
CONTINUOUS
 10
128.25
 20
95.5
 40
1.7896378839
100
AcDbArc
 50
209.3041347443
 51
301.9732647944
  0
ARC
  5
478
100
AcDbEntity
  8
ASSI
100
AcDbCircle
 62
7
  6
CONTINUOUS
 10
128.25
 20
95.5
 40
1.78963742
100
AcDbArc
 50
58.02673736
 51
150.6958652557
  0
SPLINE
  5
479
100
AcDbEntity
  8
RACCORDO
100
AcDbSpline
 62
250
  6
CONTINUOUS
 70
0
 71
3
 72
31
 73
27
 74
0
 42
0.0000001
 43
0.0000001
 44
0.0000000001
 40
0.0
 40
0.0
 40
0.0
 40
0.0
 40
0.0313177199
 40
0.0626335818
 40
0.0939469942
 40
0.1252559975
 40
0.1877807827
 40
0.2502761526
 40
0.2815490315
 40
0.3128131866
 40
0.344068804
 40
0.3753162392
 40
0.4377146748
 40
0.5000922535
 40
0.5624607463
 40
0.6248337022
 40
0.6560637594
 40
0.6873002222
 40
0.7185446113
 40
0.7497981247
 40
0.8122599428
 40
0.8747615145
 40
0.9060632178
 40
0.9373717424
 40
0.9686844347
 40
1.0
 40
1.0
 40
1.0
 40
1.0
 10
-17.0965538781
 20
-112.1457036178
 30
0.0
 10
-16.7384128765
 20
-112.0747076951
 30
0.0
 10
-16.0286421265
 20
-111.8973353482
 30
0.0
 10
-14.9957377035
 20
-111.5280826414
 30
0.0
 10
-14.0040227531
 20
-111.0590803288
 30
0.0
 10
-12.7509927007
 20
-110.3078726168
 30
0.0
 10
-11.3327319961
 20
-109.1433579741
 30
0.0
 10
-10.170102481
 20
-107.7241426629
 30
0.0
 10
-9.4207399648
 20
-106.4715618814
 30
0.0
 10
-8.9531993874
 20
-105.4810958783
 30
0.0
 10
-8.5850578757
 20
-104.4498581021
 30
0.0
 10
-8.2315730911
 20
-103.035296765
 30
0.0
 10
-8.05251217
 20
-101.212401802
 30
0.0
 10
-8.2678640765
 20
-99.0274516426
 30
0.0
 10
-8.9038018315
 20
-96.9263534677
 30
0.0
 10
-9.7654364451
 20
-95.3107170167
 30
0.0
 10
-10.6319572047
 20
-94.1389866484
 30
0.0
 10
-11.3655020285
 20
-93.3269259378
 30
0.0
 10
-12.1752095579
 20
-92.590385818
 30
0.0
 10
-13.3451657374
 20
-91.719056777
 30
0.0
 10
-14.9604519029
 20
-90.8510889464
 30
0.0
 10
-16.7148989534
 20
-90.3156528998
 30
0.0
 10
-18.1593028179
 20
-90.0991136065
 30
0.0
 10
-19.2547505789
 20
-90.0437575085
 30
0.0
 10
-20.3502937627
 20
-90.0963536243
 30
0.0
 10
-21.0739984691
 20
-90.2031161875
 30
0.0
 10
-21.4321156536
 20
-90.274103078
 30
0.0
  0
SPLINE
  5
47A
100
AcDbEntity
  8
RACCORDO
100
AcDbSpline
 62
250
  6
CONTINUOUS
 70
0
 71
3
 72
31
 73
27
 74
0
 42
0.0000001
 43
0.0000001
 44
0.0000000001
 40
0.0
 40
0.0
 40
0.0
 40
0.0
 40
0.031317665
 40
0.0626335083
 40
0.0939469274
 40
0.1252559366
 40
0.1877807722
 40
0.2502761449
 40
0.2815490096
 40
0.3128131657
 40
0.3440687897
 40
0.3753162342
 40
0.4377146857
 40
0.5000922658
 40
0.5624607714
 40
0.624833729
 40
0.6560637915
 40
0.6873002639
 40
0.7185446632
 40
0.7497981834
 40
0.8122599585
 40
0.8747615471
 40
0.9060632125
 40
0.9373717695
 40
0.9686844916
 40
1.0
 40
1.0
 40
1.0
 40
1.0
 10
-135.8957036178
 20
6.6534461219
 30
0.0
 10
-135.8247077924
 20
7.0115864873
 30
0.0
 10
-135.6473353864
 20
7.7213563256
 30
0.0
 10
-135.2780831559
 20
8.754260073
 30
0.0
 10
-134.8090809668
 20
9.7459749876
 30
0.0
 10
-134.0578734909
 20
10.9990060458
 30
0.0
 10
-132.8933581691
 20
12.4172670294
 30
0.0
 10
-131.4741432028
 20
13.5798977791
 30
0.0
 10
-130.2215620105
 20
14.3292593046
 30
0.0
 10
-129.2310966106
 20
14.7968009608
 30
0.0
 10
-128.1998583511
 20
15.1649417594
 30
0.0
 10
-126.7852968358
 20
15.5184271783
 30
0.0
 10
-124.9624014785
 20
15.6974877736
 30
0.0
 10
-122.7774510131
 20
15.48213582
 30
0.0
 10
-120.6763527504
 20
14.8461977852
 30
0.0
 10
-119.0607160237
 20
13.9845631843
 30
0.0
 10
-117.8889857579
 20
13.1180419788
 30
0.0
 10
-117.0769247777
 20
12.3844970306
 30
0.0
 10
-116.3403847034
 20
11.5747890372
 30
0.0
 10
-115.4690561336
 20
10.4048329081
 30
0.0
 10
-114.6010885545
 20
8.7895469072
 30
0.0
 10
-114.0656528066
 20
7.0351005584
 30
0.0
 10
-113.8491134666
 20
5.5906965723
 30
0.0
 10
-113.7937577512
 20
4.4952485058
 30
0.0
 10
-113.8463539941
 20
3.3997052955
 30
0.0
 10
-113.9531162608
 20
2.6760008669
 30
0.0
 10
-114.024103078
 20
2.3178843464
 30
0.0
  0
SPLINE
  5
47B
100
AcDbEntity
  8
RACCORDO
100
AcDbSpline
 62
250
  6
CONTINUOUS
 70
0
 71
3
 72
31
 73
27
 74
0
 42
0.0000001
 43
0.0000001
 44
0.0000000001
 40
0.0
 40
0.0
 40
0.0
 40
0.0
 40
0.0313159154
 40
0.0626286595
 40
0.0939371257
 40
0.1252387559
 40
0.1877403061
 40
0.250202053
 40
0.2814555489
 40
0.3126999194
 40
0.3439363706
 40
0.3751664132
 40
0.4375393192
 40
0.4999077731
 40
0.5622853006
 40
0.6246837002
 40
0.6559311172
 40
0.6871867138
 40
0.7184508413
 40
0.749723684
 40
0.8122190099
 40
0.8747437614
 40
0.9060527148
 40
0.9373660687
 40
0.9686819769
 40
1.0
 40
1.0
 40
1.0
 40
1.0
 10
-114.024103078
 20
-28.3178843464
 30
0.0
 10
-113.9531154739
 20
-28.6760055514
 30
0.0
 10
-113.8463520501
 20
-29.3997149105
 30
0.0
 10
-113.793757447
 20
-30.4952622143
 30
0.0
 10
-113.8491148782
 20
-31.5907089649
 30
0.0
 10
-114.0656555898
 20
-33.035110791
 30
0.0
 10
-114.6010918805
 20
-34.7895557402
 30
0.0
 10
-115.4690605389
 20
-36.404839975
 30
0.0
 10
-116.3403892828
 20
-37.5747948368
 30
0.0
 10
-117.0769298389
 20
-38.3845011916
 30
0.0
 10
-117.888989934
 20
-39.1180459208
 30
0.0
 10
-119.0607204119
 20
-39.9845650799
 30
0.0
 10
-120.6763556668
 20
-40.8461991741
 30
0.0
 10
-122.7774524523
 20
-41.4821360361
 30
0.0
 10
-124.9624010928
 20
-41.6974878018
 30
0.0
 10
-126.7852948638
 20
-41.518427234
 30
0.0
 10
-128.1998553782
 20
-41.164942818
 30
0.0
 10
-129.2310926275
 20
-40.7968021098
 30
0.0
 10
-130.2215577185
 20
-40.3292619142
 30
0.0
 10
-131.474137981
 20
-39.5799010093
 30
0.0
 10
-132.8933528192
 20
-38.4172729678
 30
0.0
 10
-134.0578674651
 20
-36.9990142713
 30
0.0
 10
-134.8090755639
 20
-35.7459863754
 30
0.0
 10
-135.2780784253
 20
-34.7542724956
 30
0.0
 10
-135.6473334793
 20
-33.7213652854
 30
0.0
 10
-135.8247068699
 20
-33.0115905649
 30
0.0
 10
-135.8957036178
 20
-32.6534461219
 30
0.0
  0
SPLINE
  5
47C
100
AcDbEntity
  8
RACCORDO
100
AcDbSpline
 62
250
  6
CONTINUOUS
 70
0
 71
3
 72
31
 73
27
 74
0
 42
0.0000001
 43
0.0000001
 44
0.0000000001
 40
0.0
 40
0.0
 40
0.0
 40
0.0
 40
0.0313158335
 40
0.0626286131
 40
0.0939371174
 40
0.1252387699
 40
0.187740341
 40
0.2502020941
 40
0.2814555971
 40
0.3126999757
 40
0.3439364333
 40
0.3751664817
 40
0.4375394018
 40
0.4999078701
 40
0.5622854121
 40
0.6246838269
 40
0.6559312501
 40
0.6871868532
 40
0.7184509924
 40
0.7497238441
 40
0.8122191739
 40
0.8747439442
 40
0.906052915
 40
0.937366327
 40
0.9686822328
 40
1.0
 40
1.0
 40
1.0
 40
1.0
 10
40.524103078
 20
2.3178843464
 30
0.0
 10
40.4531156364
 20
2.6760046091
 30
0.0
 10
40.3463523789
 20
3.3997134341
 30
0.0
 10
40.2937573916
 20
4.4952606181
 30
0.0
 10
40.3491148146
 20
5.5907084992
 30
0.0
 10
40.5656556688
 20
7.0351112591
 30
0.0
 10
41.1010922357
 20
8.7895567401
 30
0.0
 10
41.9690613
 20
10.4048412056
 30
0.0
 10
42.8403903386
 20
11.5747961634
 30
0.0
 10
43.5769312919
 20
12.3845024875
 30
0.0
 10
44.3889915487
 20
13.1180473908
 30
0.0
 10
45.5607226011
 20
13.9845662954
 30
0.0
 10
47.1763583037
 20
14.8462003656
 30
0.0
 10
49.2774557765
 20
15.4821367538
 30
0.0
 10
51.4624050013
 20
15.6974879052
 30
0.0
 10
53.2852991089
 20
15.5184265091
 30
0.0
 10
54.6998598265
 20
15.1649415772
 30
0.0
 10
55.7310971743
 20
14.7968002915
 30
0.0
 10
56.7215623351
 20
14.3292595083
 30
0.0
 10
57.9741424612
 20
13.5798978089
 30
0.0
 10
59.3933568748
 20
12.4172686932
 30
0.0
 10
60.5578711865
 20
10.9990090977
 30
0.0
 10
61.3090789346
 20
9.7459797096
 30
0.0
 10
61.7780815269
 20
8.7542647529
 30
0.0
 10
62.1473348937
 20
7.7213594311
 30
0.0
 10
62.3247075179
 20
7.0115876513
 30
0.0
 10
62.3957036178
 20
6.6534461219
 30
0.0
  0
SPLINE
  5
47D
100
AcDbEntity
  8
RACCORDO
100
AcDbSpline
 62
250
  6
CONTINUOUS
 70
0
 71
3
 72
31
 73
27
 74
0
 42
0.0000001
 43
0.0000001
 44
0.0000000001
 40
0.0
 40
0.0
 40
0.0
 40
0.0
 40
0.0313176392
 40
0.0626334946
 40
0.0939469189
 40
0.1252558913
 40
0.1877806634
 40
0.2502760199
 40
0.2815488857
 40
0.312813041
 40
0.3440686569
 40
0.3753160935
 40
0.4377145361
 40
0.5000921049
 40
0.5624606003
 40
0.6248335475
 40
0.656063606
 40
0.6873000749
 40
0.7185444682
 40
0.7497979841
 40
0.8122597506
 40
0.8747613483
 40
0.9060630271
 40
0.9373715919
 40
0.9686843719
 40
1.0
 40
1.0
 40
1.0
 40
1.0
 10
62.3957036178
 20
-32.6534461219
 30
0.0
 10
62.3247078657
 20
-33.0115861966
 30
0.0
 10
62.1473354693
 20
-33.721355871
 30
0.0
 10
61.7780833758
 20
-34.7542595638
 30
0.0
 10
61.3090812989
 20
-35.7459742813
 30
0.0
 10
60.5578745544
 20
-36.9990044812
 30
0.0
 10
59.3933603469
 20
-38.4172645782
 30
0.0
 10
57.974146597
 20
-39.579895333
 30
0.0
 10
56.7215658702
 20
-40.3292572863
 30
0.0
 10
55.7311007469
 20
-40.7967993133
 30
0.0
 10
54.699862826
 20
-41.1649404898
 30
0.0
 10
53.2853017146
 20
-41.5184263215
 30
0.0
 10
51.4624067817
 20
-41.6974878405
 30
0.0
 10
49.2774565889
 20
-41.4821369317
 30
0.0
 10
47.176358254
 20
-40.8462002405
 30
0.0
 10
45.5607216585
 20
-39.9845661559
 30
0.0
 10
44.3889905598
 20
-39.1180463916
 30
0.0
 10
43.5769298018
 20
-38.3845014236
 30
0.0
 10
42.8403889969
 20
-37.5747943423
 30
0.0
 10
41.9690598941
 20
-36.4048388658
 30
0.0
 10
41.1010910287
 20
-34.7895535932
 30
0.0
 10
40.5656546047
 20
-33.0351072704
 30
0.0
 10
40.3491141301
 20
-31.5907031037
 30
0.0
 10
40.2937576965
 20
-30.4952541446
 30
0.0
 10
40.3463533893
 20
-29.3997087243
 30
0.0
 10
40.4531160209
 20
-28.6760022417
 30
0.0
 10
40.524103078
 20
-28.3178843464
 30
0.0
  0
SPLINE
  5
47E
100
AcDbEntity
  8
RACCORDO
100
AcDbSpline
 62
250
  6
CONTINUOUS
 70
0
 71
3
 72
31
 73
27
 74
0
 42
0.0000001
 43
0.0000001
 44
0.0000000001
 40
0.0
 40
0.0
 40
0.0
 40
0.0
 40
0.0313158742
 40
0.0626286278
 40
0.0939370995
 40
0.1252387296
 40
0.187740279
 40
0.2502020254
 40
0.2814555218
 40
0.3126998925
 40
0.3439363434
 40
0.3751663861
 40
0.4375392941
 40
0.4999077498
 40
0.5622852771
 40
0.6246836773
 40
0.6559310949
 40
0.6871866915
 40
0.7184508191
 40
0.749723661
 40
0.8122189902
 40
0.8747437401
 40
0.9060526893
 40
0.9373660318
 40
0.9686819178
 40
1.0
 40
1.0
 40
1.0
 40
1.0
 10
-21.4321156536
 20
64.274103078
 30
0.0
 10
-21.0739949245
 20
64.2031155485
 30
0.0
 10
-20.350285941
 20
64.0963521331
 30
0.0
 10
-19.2547389508
 20
64.043757532
 30
0.0
 10
-18.1592920213
 20
64.0991147816
 30
0.0
 10
-16.7148901433
 20
64.3156554455
 30
0.0
 10
-14.9604451021
 20
64.8510914458
 30
0.0
 10
-13.3451610149
 20
65.7190602588
 30
0.0
 10
-12.1752057662
 20
66.5903885012
 30
0.0
 10
-11.3654997213
 20
67.3269293913
 30
0.0
 10
-10.6319545462
 20
68.1389890629
 30
0.0
 10
-9.7654355385
 20
69.3107196971
 30
0.0
 10
-8.9038011383
 20
70.9263547883
 30
0.0
 10
-8.2678641162
 20
73.0274516013
 30
0.0
 10
-8.0525122696
 20
75.2124001984
 30
0.0
 10
-8.2315723483
 20
77.0352940867
 30
0.0
 10
-8.5850572526
 20
78.4498544502
 30
0.0
 10
-8.9531970373
 20
79.4810920568
 30
0.0
 10
-9.4207381699
 20
80.4715566938
 30
0.0
 10
-10.1700980782
 20
81.7241375474
 30
0.0
 10
-11.3327267797
 20
83.1433519569
 30
0.0
 10
-12.750985102
 20
84.3078668936
 30
0.0
 10
-14.0040128644
 20
85.0590748455
 30
0.0
 10
-14.9957262827
 20
85.5280776159
 30
0.0
 10
-16.0286336689
 20
85.8973330368
 30
0.0
 10
-16.7384087726
 20
86.0747066776
 30
0.0
 10
-17.0965538781
 20
86.1457036178
 30
0.0
  0
SPLINE
  5
47F
100
AcDbEntity
  8
RACCORDO
100
AcDbSpline
 62
250
  6
CONTINUOUS
 70
0
 71
3
 72
31
 73
27
 74
0
 42
0.0000001
 43
0.0000001
 44
0.0000000001
 40
0.0
 40
0.0
 40
0.0
 40
0.0
 40
0.0313177763
 40
0.0626335532
 40
0.0939469986
 40
0.125256169
 40
0.1877818748
 40
0.2502789175
 40
0.2815528567
 40
0.3128182245
 40
0.344075095
 40
0.3753238187
 40
0.4377245194
 40
0.5001034778
 40
0.5624722367
 40
0.6248443078
 40
0.6560734243
 40
0.6873086681
 40
0.7185516299
 40
0.7498035929
 40
0.8122625044
 40
0.8747620876
 40
0.9060631861
 40
0.9373713674
 40
0.9686841019
 40
1.0
 40
1.0
 40
1.0
 40
1.0
 10
-16.7374781575
 20
87.9571322474
 30
0.0
 10
-16.3198714199
 20
87.8743474618
 30
0.0
 10
-15.49225155
 20
87.6675258581
 30
0.0
 10
-14.2878474056
 20
87.236957015
 30
0.0
 10
-13.1314703406
 20
86.6900776499
 30
0.0
 10
-11.6703818438
 20
85.8141229686
 30
0.0
 10
-10.0166215779
 20
84.4562114869
 30
0.0
 10
-8.6609489369
 20
82.8012838951
 30
0.0
 10
-7.7871999162
 20
81.3406436123
 30
0.0
 10
-7.2420246572
 20
80.1856704703
 30
0.0
 10
-6.8128282534
 20
78.9831278696
 30
0.0
 10
-6.4006811494
 20
77.3336212713
 30
0.0
 10
-6.19202147
 20
75.2079708624
 30
0.0
 10
-6.4432812271
 20
72.6601982391
 30
0.0
 10
-7.1849485536
 20
70.2102714521
 30
0.0
 10
-8.1896910336
 20
68.3264267885
 30
0.0
 10
-9.2001044596
 20
66.9602101833
 30
0.0
 10
-10.0553973599
 20
66.0133390498
 30
0.0
 10
-10.9995091652
 20
65.1545483358
 30
0.0
 10
-12.3636207726
 20
64.1385449331
 30
0.0
 10
-14.2469873054
 20
63.1264283036
 30
0.0
 10
-16.292631674
 20
62.501999768
 30
0.0
 10
-17.9768090383
 20
62.2494181826
 30
0.0
 10
-19.2541291172
 20
62.1848274206
 30
0.0
 10
-20.5315770615
 20
62.2461212721
 30
0.0
 10
-21.3754508215
 20
62.3706066304
 30
0.0
 10
-21.7930337131
 20
62.4533804052
 30
0.0
  0
SPLINE
  5
480
100
AcDbEntity
  8
RACCORDO
100
AcDbSpline
 62
250
  6
CONTINUOUS
 70
0
 71
3
 72
31
 73
27
 74
0
 42
0.0000001
 43
0.0000001
 44
0.0000000001
 40
0.0
 40
0.0
 40
0.0
 40
0.0
 40
0.0313156741
 40
0.0626283653
 40
0.0939365798
 40
0.1252377165
 40
0.1877372932
 40
0.2501962428
 40
0.2814482116
 40
0.3126911574
 40
0.3439263924
 40
0.3751555162
 40
0.4375276106
 40
0.4998963963
 40
0.5622753584
 40
0.6246760611
 40
0.6559247832
 40
0.6871816628
 40
0.7184470446
 40
0.7497209935
 40
0.8122180595
 40
0.8747437854
 40
0.9060529532
 40
0.9373663983
 40
0.9686821908
 40
1.0
 40
1.0
 40
1.0
 40
1.0
 10
-21.7930337131
 20
-88.4533804052
 30
0.0
 10
-21.3754538492
 20
-88.3706070198
 30
0.0
 10
-20.5315836732
 20
-88.2461224389
 30
0.0
 10
-19.2541390145
 20
-88.1848272174
 30
0.0
 10
-17.9768184805
 20
-88.249417142
 30
0.0
 10
-16.2926401024
 20
-88.501997856
 30
0.0
 10
-14.2469943666
 20
-89.1264251765
 30
0.0
 10
-12.36362687
 20
-90.138541155
 30
0.0
 10
-10.9995144139
 20
-91.1545440392
 30
0.0
 10
-10.0554022919
 20
-92.0133340188
 30
0.0
 10
-9.200109019
 20
-92.9602044998
 30
0.0
 10
-8.1896947807
 20
-94.3264208711
 30
0.0
 10
-7.1849509081
 20
-96.2102656742
 30
0.0
 10
-6.4432821922
 20
-98.6601928323
 30
0.0
 10
-6.1920214433
 20
-101.2079658147
 30
0.0
 10
-6.4006804007
 20
-103.3336163445
 30
0.0
 10
-6.8128268811
 20
-104.9831232272
 30
0.0
 10
-7.2420229069
 20
-106.1856662744
 30
0.0
 10
-7.7871979546
 20
-107.3406400128
 30
0.0
 10
-8.6609468631
 20
-108.8012811104
 30
0.0
 10
-10.0166196329
 20
-110.4562095526
 30
0.0
 10
-11.6703800907
 20
-111.8141216705
 30
0.0
 10
-13.1314686211
 20
-112.6900767637
 30
0.0
 10
-14.2878457962
 20
-113.2369562826
 30
0.0
 10
-15.4922504486
 20
-113.6675256931
 30
0.0
 10
-16.3198710075
 20
-113.8743472442
 30
0.0
 10
-16.7374781575
 20
-113.9571322474
 30
0.0
  0
SPLINE
  5
481
100
AcDbEntity
  8
RACCORDO
100
AcDbSpline
 62
250
  6
CONTINUOUS
 70
0
 71
3
 72
31
 73
27
 74
0
 42
0.0000001
 43
0.0000001
 44
0.0000000001
 40
0.0
 40
0.0
 40
0.0
 40
0.0
 40
0.0313178104
 40
0.062633604
 40
0.0939470504
 40
0.1252562192
 40
0.1877819475
 40
0.2502790193
 40
0.2815529785
 40
0.3128183627
 40
0.344075239
 40
0.3753239608
 40
0.4377246679
 40
0.5001036313
 40
0.5624724205
 40
0.6248445147
 40
0.6560736392
 40
0.6873088778
 40
0.7185518267
 40
0.7498037948
 40
0.8122627183
 40
0.8747622742
 40
0.906063413
 40
0.9373716285
 40
0.9686843213
 40
1.0
 40
1.0
 40
1.0
 40
1.0
 10
-56.7625218425
 20
-113.9571322474
 30
0.0
 10
-57.1801290304
 20
-113.8743473521
 30
0.0
 10
-58.007749571
 20
-113.6675255742
 30
0.0
 10
-59.2121543232
 20
-113.2369563254
 30
0.0
 10
-60.3685314994
 20
-112.6900766846
 30
0.0
 10
-61.8296200923
 20
-111.8141215825
 30
0.0
 10
-63.4833806114
 20
-110.4562093268
 30
0.0
 10
-64.8390534959
 20
-108.8012806503
 30
0.0
 10
-65.7128024602
 20
-107.34063929
 30
0.0
 10
-66.2579774687
 20
-106.1856653925
 30
0.0
 10
-66.687173393
 20
-104.9831223268
 30
0.0
 10
-67.099319749
 20
-103.3336154011
 30
0.0
 10
-67.3079785705
 20
-101.2079647822
 30
0.0
 10
-67.0567176023
 20
-98.6601916926
 30
0.0
 10
-66.3150486177
 20
-96.2102645451
 30
0.0
 10
-65.3103045271
 20
-94.3264197998
 30
0.0
 10
-64.299890144
 20
-92.9602034653
 30
0.0
 10
-63.4445967029
 20
-92.0133329988
 30
0.0
 10
-62.5004844105
 20
-91.1545430835
 30
0.0
 10
-61.1363720828
 20
-90.1385405674
 30
0.0
 10
-59.2530051134
 20
-89.1264250093
 30
0.0
 10
-57.2073599626
 20
-88.5019979053
 30
0.0
 10
-55.5231818285
 20
-88.2494171762
 30
0.0
 10
-54.2458612347
 20
-88.1848272673
 30
0.0
 10
-52.9684164618
 20
-88.246122345
 30
0.0
 10
-52.1245462299
 20
-88.3706070981
 30
0.0
 10
-51.7069662869
 20
-88.4533804052
 30
0.0
  0
SPLINE
  5
482
100
AcDbEntity
  8
RACCORDO
100
AcDbSpline
 62
250
  6
CONTINUOUS
 70
0
 71
3
 72
31
 73
27
 74
0
 42
0.0000001
 43
0.0000001
 44
0.0000000001
 40
0.0
 40
0.0
 40
0.0
 40
0.0
 40
0.031317803
 40
0.0626335859
 40
0.0939470223
 40
0.1252561851
 40
0.1877818964
 40
0.2502789361
 40
0.2815528748
 40
0.3128182453
 40
0.3440751174
 40
0.3753238343
 40
0.4377245282
 40
0.5001034799
 40
0.5624722497
 40
0.6248443615
 40
0.6560734548
 40
0.6873086775
 40
0.7185516212
 40
0.7498035803
 40
0.8122624985
 40
0.8747620796
 40
0.9060631778
 40
0.937371357
 40
0.9686840835
 40
1.0
 40
1.0
 40
1.0
 40
1.0
 10
-137.7071322474
 20
-33.0125218425
 30
0.0
 10
-137.6243473192
 20
-33.4301289212
 30
0.0
 10
-137.4175257096
 20
-34.2577492464
 30
0.0
 10
-136.9869565642
 20
-35.4621536325
 30
0.0
 10
-136.4400771981
 20
-36.6185305316
 30
0.0
 10
-135.5641224714
 20
-38.079618824
 30
0.0
 10
-134.2062109488
 20
-39.7333789597
 30
0.0
 10
-132.5512832657
 20
-41.0890515278
 30
0.0
 10
-131.0906429423
 20
-41.9628004565
 30
0.0
 10
-129.9356697183
 20
-42.5079756622
 30
0.0
 10
-128.7331271209
 20
-42.9371719682
 30
0.0
 10
-127.0836206616
 20
-43.3493189383
 30
0.0
 10
-124.9579705271
 20
-43.5579785182
 30
0.0
 10
-122.4101979521
 20
-43.3067187038
 30
0.0
 10
-119.9602705817
 20
-42.5650511636
 30
0.0
 10
-118.0764256926
 20
-41.5603082421
 30
0.0
 10
-116.7102092355
 20
-40.5498947134
 30
0.0
 10
-115.7633387865
 20
-39.6946023256
 30
0.0
 10
-114.9045484827
 20
-38.7504909467
 30
0.0
 10
-113.888545155
 20
-37.3863795465
 30
0.0
 10
-112.8764284763
 20
-35.5030130237
 30
0.0
 10
-112.2519998979
 20
-33.457368622
 30
0.0
 10
-111.9994182337
 20
-31.7731913196
 30
0.0
 10
-111.9348276397
 20
-30.4958713966
 30
0.0
 10
-111.9961209274
 20
-29.2184232829
 30
0.0
 10
-112.1206069223
 20
-28.3745494907
 30
0.0
 10
-112.2033804052
 20
-27.9569662869
 30
0.0
  0
SPLINE
  5
483
100
AcDbEntity
  8
RACCORDO
100
AcDbSpline
 62
250
  6
CONTINUOUS
 70
0
 71
3
 72
31
 73
27
 74
0
 42
0.0000001
 43
0.0000001
 44
0.0000000001
 40
0.0
 40
0.0
 40
0.0
 40
0.0
 40
0.0313156626
 40
0.0626284071
 40
0.0939366546
 40
0.1252377709
 40
0.187737368
 40
0.2501962816
 40
0.2814482536
 40
0.312691201
 40
0.3439264322
 40
0.3751555532
 40
0.4375276449
 40
0.4998964263
 40
0.5622753838
 40
0.6246760818
 40
0.6559248022
 40
0.6871816802
 40
0.7184470562
 40
0.7497209995
 40
0.8122180491
 40
0.874743775
 40
0.9060529435
 40
0.9373663924
 40
0.9686821897
 40
1.0
 40
1.0
 40
1.0
 40
1.0
 10
-112.2033804052
 20
1.9569662869
 30
0.0
 10
-112.1206070766
 20
2.3745460018
 30
0.0
 10
-111.9961223853
 20
3.2184167325
 30
0.0
 10
-111.9348271987
 20
4.4958624205
 30
0.0
 10
-111.9994173945
 20
5.7731838401
 30
0.0
 10
-112.2519984637
 20
7.4573626142
 30
0.0
 10
-112.8764261104
 20
9.5030077479
 30
0.0
 10
-113.8885422879
 20
11.3863749152
 30
0.0
 10
-114.9045451044
 20
12.7504868943
 30
0.0
 10
-115.7633352282
 20
13.6945989016
 30
0.0
 10
-116.7102057685
 20
14.5498920025
 30
0.0
 10
-118.0764221351
 20
15.5603060289
 30
0.0
 10
-119.9602669384
 20
16.5650496148
 30
0.0
 10
-122.4101940197
 20
17.3067180115
 30
0.0
 10
-124.9579668307
 20
17.5579785302
 30
0.0
 10
-127.0836171944
 20
17.3493194474
 30
0.0
 10
-128.7331239418
 20
16.9371728811
 30
0.0
 10
-129.9356668427
 20
16.5079768189
 30
0.0
 10
-131.0906403935
 20
15.9628017964
 30
0.0
 10
-132.5512811345
 20
15.0890530361
 30
0.0
 10
-134.2062093665
 20
13.7333804837
 30
0.0
 10
-135.5641213053
 20
12.0796201879
 30
0.0
 10
-136.4400766407
 20
10.6185317107
 30
0.0
 10
-136.9869558883
 20
9.4621542981
 30
0.0
 10
-137.41752606
 20
8.2577497408
 30
0.0
 10
-137.6243468182
 20
7.4301289222
 30
0.0
 10
-137.7071322474
 20
7.0125218425
 30
0.0
  0
SPLINE
  5
484
100
AcDbEntity
  8
RACCORDO
100
AcDbSpline
 62
250
  6
CONTINUOUS
 70
0
 71
3
 72
31
 73
27
 74
0
 42
0.0000001
 43
0.0000001
 44
0.0000000001
 40
0.0
 40
0.0
 40
0.0
 40
0.0
 40
0.0313157704
 40
0.0626285335
 40
0.0939367603
 40
0.1252378782
 40
0.1877374681
 40
0.2501963791
 40
0.2814483461
 40
0.3126912896
 40
0.3439265182
 40
0.3751556358
 40
0.4375277194
 40
0.499896493
 40
0.5622754424
 40
0.6246761327
 40
0.6559248488
 40
0.6871817222
 40
0.7184470951
 40
0.7497210358
 40
0.812218071
 40
0.8747437997
 40
0.9060529641
 40
0.937366404
 40
0.9686821942
 40
1.0
 40
1.0
 40
1.0
 40
1.0
 10
38.7033804052
 20
-27.9569662869
 30
0.0
 10
38.6206068484
 20
-28.3745474505
 30
0.0
 10
38.496121858
 20
-29.2184198888
 30
0.0
 10
38.4348272832
 20
-30.495867056
 30
0.0
 10
38.499417883
 20
-31.7731884368
 30
0.0
 10
38.7519993855
 20
-33.4573667918
 30
0.0
 10
39.3764277933
 20
-35.5030115704
 30
0.0
 10
40.3885443498
 20
-37.3863782966
 30
0.0
 10
41.404547513
 20
-38.7504898276
 30
0.0
 10
42.263337827
 20
-39.6946014476
 30
0.0
 10
43.2102085036
 20
-40.5498941929
 30
0.0
 10
44.5764249344
 20
-41.5603078111
 30
0.0
 10
46.4602697747
 20
-42.5650507823
 30
0.0
 10
48.9101967135
 20
-43.3067184899
 30
0.0
 10
51.4579692416
 20
-43.5579784988
 30
0.0
 10
53.5836192984
 20
-43.3493191181
 30
0.0
 10
55.23312576
 20
-42.9371723367
 30
0.0
 10
56.4356684425
 20
-42.5079761499
 30
0.0
 10
57.5906417922
 20
-41.9628010299
 30
0.0
 10
59.0512821922
 20
-41.0890522336
 30
0.0
 10
60.70621017
 20
-39.7333796868
 30
0.0
 10
62.0641218395
 20
-38.0796194412
 30
0.0
 10
62.9400770023
 20
-36.6185310256
 30
0.0
 10
63.4869560665
 20
-35.4621538312
 30
0.0
 10
63.917526115
 20
-34.2577495294
 30
0.0
 10
64.1243468331
 20
-33.4301288631
 30
0.0
 10
64.2071322474
 20
-33.0125218425
 30
0.0
  0
SPLINE
  5
485
100
AcDbEntity
  8
RACCORDO
100
AcDbSpline
 62
250
  6
CONTINUOUS
 70
0
 71
3
 72
31
 73
27
 74
0
 42
0.0000001
 43
0.0000001
 44
0.0000000001
 40
0.0
 40
0.0
 40
0.0
 40
0.0
 40
0.0313177935
 40
0.0626335726
 40
0.0939470059
 40
0.1252561676
 40
0.1877818828
 40
0.2502789176
 40
0.2815528553
 40
0.3128182256
 40
0.3440750972
 40
0.3753238115
 40
0.4377244973
 40
0.500103443
 40
0.5624722115
 40
0.6248442874
 40
0.6560734029
 40
0.6873086313
 40
0.7185515722
 40
0.7498035349
 40
0.8122624487
 40
0.8747620308
 40
0.9060631341
 40
0.9373713123
 40
0.9686840296
 40
1.0
 40
1.0
 40
1.0
 40
1.0
 10
64.2071322474
 20
7.0125218425
 30
0.0
 10
64.12434735
 20
7.4301287959
 30
0.0
 10
63.9175257842
 20
8.2577489451
 30
0.0
 10
63.4869567619
 20
9.4621531372
 30
0.0
 10
62.9400774973
 20
10.6185299638
 30
0.0
 10
62.0641228547
 20
12.0796183016
 30
0.0
 10
60.7062114321
 20
13.733378488
 30
0.0
 10
59.0512838279
 20
15.0890511062
 30
0.0
 10
57.5906436286
 20
15.9628000814
 30
0.0
 10
56.4356704606
 20
16.5079753531
 30
0.0
 10
55.2331279341
 20
16.9371717245
 30
0.0
 10
53.5836216528
 20
17.3493187798
 30
0.0
 10
51.4579717627
 20
17.5579784891
 30
0.0
 10
48.9101993728
 20
17.3067189729
 30
0.0
 10
46.4602724875
 20
16.5650518821
 30
0.0
 10
44.5764275809
 20
15.5603094592
 30
0.0
 10
43.2102110562
 20
14.5498961953
 30
0.0
 10
42.2633402108
 20
13.6946037385
 30
0.0
 10
41.4045496982
 20
12.7504924304
 30
0.0
 10
40.3885461834
 20
11.3863812273
 30
0.0
 10
39.3764292639
 20
9.5030148337
 30
0.0
 10
38.7520003126
 20
7.4573705216
 30
0.0
 10
38.4994184241
 20
5.7731931769
 30
0.0
 10
38.4348276871
 20
4.4958733362
 30
0.0
 10
38.4961206707
 20
3.2184246079
 30
0.0
 10
38.6206068178
 20
2.3745502167
 30
0.0
 10
38.7033804052
 20
1.9569662869
 30
0.0
  0
SPLINE
  5
486
100
AcDbEntity
  8
RACCORDO
100
AcDbSpline
 62
250
  6
CONTINUOUS
 70
0
 71
3
 72
27
 73
23
 74
0
 42
0.0000001
 43
0.0000001
 44
0.0000000001
 40
0.0
 40
0.0
 40
0.0
 40
0.0
 40
0.0625770262
 40
0.093898874
 40
0.1252165495
 40
0.1877569284
 40
0.2502659557
 40
0.2815450057
 40
0.3128150988
 40
0.3752546571
 40
0.4376657929
 40
0.5000584474
 40
0.5624453379
 40
0.6248404233
 40
0.6872573133
 40
0.7185150785
 40
0.7497820844
 40
0.8122701182
 40
0.8747958018
 40
0.9061085554
 40
0.9374273094
 40
1.0
 40
1.0
 40
1.0
 40
1.0
 10
-108.5139504972
 20
36.0055848758
 30
0.0
 10
-108.7337852903
 20
35.6836498177
 30
0.0
 10
-109.0169847918
 20
35.166139208
 30
0.0
 10
-109.2869234221
 20
34.4333198979
 30
0.0
 10
-109.4837981076
 20
33.6775669994
 30
0.0
 10
-109.588879744
 20
32.7024283691
 30
0.0
 10
-109.5011989286
 20
31.7258022067
 30
0.0
 10
-109.3181742116
 20
30.967407953
 30
0.0
 10
-109.0620094875
 20
30.2309772662
 30
0.0
 10
-108.6081215633
 20
29.3631366536
 30
0.0
 10
-107.8717758023
 20
28.4490371588
 30
0.0
 10
-106.971753433
 20
27.695781312
 30
0.0
 10
-105.9424125087
 20
27.1321776187
 30
0.0
 10
-104.8231385734
 20
26.7795653555
 30
0.0
 10
-103.8499203996
 20
26.6729697219
 30
0.0
 10
-103.0710643108
 20
26.7025347126
 30
0.0
 10
-102.2983652151
 20
26.8081383777
 30
0.0
 10
-101.3571107293
 20
27.0818613238
 30
0.0
 10
-100.4873013319
 20
27.5344826494
 30
0.0
 10
-99.8551284749
 20
27.9928041426
 30
0.0
 10
-99.2708456717
 20
28.5108621865
 30
0.0
 10
-98.8919203604
 20
28.9629495669
 30
0.0
 10
-98.6720937991
 20
29.284857541
 30
0.0
  0
SPLINE
  5
487
100
AcDbEntity
  8
RACCORDO
100
AcDbSpline
 62
250
  6
CONTINUOUS
 70
0
 71
3
 72
27
 73
23
 74
0
 42
0.0000001
 43
0.0000001
 44
0.0000000001
 40
0.0
 40
0.0
 40
0.0
 40
0.0
 40
0.0625764048
 40
0.0938983774
 40
0.1252161544
 40
0.1877566424
 40
0.2502657182
 40
0.2815448083
 40
0.3128149413
 40
0.3752545729
 40
0.4376657811
 40
0.5000585093
 40
0.5624454721
 40
0.6248406276
 40
0.6872575814
 40
0.718515384
 40
0.7497824329
 40
0.8122704958
 40
0.8747962895
 40
0.9061091741
 40
0.9374280245
 40
1.0
 40
1.0
 40
1.0
 40
1.0
 10
35.0139504972
 20
-62.0055848758
 30
0.0
 10
35.2337832953
 20
-61.6836531423
 30
0.0
 10
35.5169814076
 20
-61.1661454304
 30
0.0
 10
35.7869207154
 20
-60.4333289941
 30
0.0
 10
35.9837968952
 20
-59.6775743041
 30
0.0
 10
36.0888797368
 20
-58.7024341567
 30
0.0
 10
36.0011996333
 20
-57.7258066715
 30
0.0
 10
35.8181752419
 20
-56.9674115108
 30
0.0
 10
35.562010638
 20
-56.230979767
 30
0.0
 10
35.1081225448
 20
-55.3631379028
 30
0.0
 10
34.3717759765
 20
-54.4490372651
 30
0.0
 10
33.471752467
 20
-53.6957806133
 30
0.0
 10
32.4424101445
 20
-53.1321766517
 30
0.0
 10
31.3231347904
 20
-52.7795644193
 30
0.0
 10
30.349915463
 20
-52.6729697207
 30
0.0
 10
29.5710584669
 20
-52.702534826
 30
0.0
 10
28.7983588537
 20
-52.8081398629
 30
0.0
 10
27.8571035044
 20
-53.081863752
 30
0.0
 10
26.9872931375
 20
-53.5344871031
 30
0.0
 10
26.3551196803
 20
-53.9928113788
 30
0.0
 10
25.7708403932
 20
-54.5108687682
 30
0.0
 10
25.391917637
 20
-54.9629531012
 30
0.0
 10
25.1720937991
 20
-55.284857541
 30
0.0
  0
SPLINE
  5
488
100
AcDbEntity
  8
RACCORDO
100
AcDbSpline
 62
250
  6
CONTINUOUS
 70
0
 71
3
 72
27
 73
23
 74
0
 42
0.0000001
 43
0.0000001
 44
0.0000000001
 40
0.0
 40
0.0
 40
0.0
 40
0.0
 40
0.0625764048
 40
0.0938983774
 40
0.1252161544
 40
0.1877566424
 40
0.2502657182
 40
0.2815448083
 40
0.3128149413
 40
0.3752545729
 40
0.4376657811
 40
0.5000585093
 40
0.5624454721
 40
0.6248406276
 40
0.6872575814
 40
0.718515384
 40
0.7497824329
 40
0.8122704958
 40
0.8747962895
 40
0.9061091741
 40
0.9374280245
 40
1.0
 40
1.0
 40
1.0
 40
1.0
 10
12.2555848758
 20
58.7639504972
 30
0.0
 10
11.9336531423
 20
58.9837832953
 30
0.0
 10
11.4161454304
 20
59.2669814076
 30
0.0
 10
10.6833289941
 20
59.5369207154
 30
0.0
 10
9.9275743041
 20
59.7337968952
 30
0.0
 10
8.9524341567
 20
59.8388797368
 30
0.0
 10
7.9758066715
 20
59.7511996333
 30
0.0
 10
7.2174115108
 20
59.5681752419
 30
0.0
 10
6.480979767
 20
59.312010638
 30
0.0
 10
5.6131379028
 20
58.8581225448
 30
0.0
 10
4.6990372651
 20
58.1217759765
 30
0.0
 10
3.9457806133
 20
57.221752467
 30
0.0
 10
3.3821766517
 20
56.1924101445
 30
0.0
 10
3.0295644193
 20
55.0731347904
 30
0.0
 10
2.9229697207
 20
54.099915463
 30
0.0
 10
2.952534826
 20
53.3210584669
 30
0.0
 10
3.0581398629
 20
52.5483588537
 30
0.0
 10
3.331863752
 20
51.6071035044
 30
0.0
 10
3.7844871031
 20
50.7372931375
 30
0.0
 10
4.2428113788
 20
50.1051196803
 30
0.0
 10
4.7608687682
 20
49.5208403932
 30
0.0
 10
5.2129531012
 20
49.141917637
 30
0.0
 10
5.534857541
 20
48.9220937991
 30
0.0
  0
SPLINE
  5
489
100
AcDbEntity
  8
RACCORDO
100
AcDbSpline
 62
250
  6
CONTINUOUS
 70
0
 71
3
 72
27
 73
23
 74
0
 42
0.0000001
 43
0.0000001
 44
0.0000000001
 40
0.0
 40
0.0
 40
0.0
 40
0.0
 40
0.0625728235
 40
0.0938915279
 40
0.1252042673
 40
0.1877299292
 40
0.2502179408
 40
0.2814849361
 40
0.3127426906
 40
0.3751595577
 40
0.43755462
 40
0.4999414829
 40
0.5623341089
 40
0.6247452211
 40
0.687184755
 40
0.7184548345
 40
0.7497338734
 40
0.8122428769
 40
0.8747832347
 40
0.9061008999
 40
0.9374226545
 40
1.0
 40
1.0
 40
1.0
 40
1.0
 10
25.1720937991
 20
29.284857541
 30
0.0
 10
25.39192091
 20
28.9629489526
 30
0.0
 10
25.7708465516
 20
28.5108611849
 30
0.0
 10
26.3551297736
 20
27.9928029847
 30
0.0
 10
26.9873024571
 20
27.5344821803
 30
0.0
 10
27.8571115897
 20
27.0818613271
 30
0.0
 10
28.7983656605
 20
26.8081381291
 30
0.0
 10
29.5710645269
 20
26.7025350042
 30
0.0
 10
30.3499202897
 20
26.6729694732
 30
0.0
 10
31.3231380918
 20
26.7795652984
 30
0.0
 10
32.4424116301
 20
27.1321770936
 30
0.0
 10
33.4717521523
 20
27.6957804098
 30
0.0
 10
34.3717744213
 20
28.4490356024
 30
0.0
 10
35.1081197316
 20
29.3631346944
 30
0.0
 10
35.5620086786
 20
30.2309743913
 30
0.0
 10
35.8181725788
 20
30.9674049972
 30
0.0
 10
36.001198652
 20
31.7257986049
 30
0.0
 10
36.0888783022
 20
32.702424455
 30
0.0
 10
35.9837990853
 20
33.6775629832
 30
0.0
 10
35.7869235354
 20
34.4333148585
 30
0.0
 10
35.516986189
 20
35.1661359457
 30
0.0
 10
35.2337867334
 20
35.6836484065
 30
0.0
 10
35.0139504972
 20
36.0055848758
 30
0.0
  0
SPLINE
  5
48A
100
AcDbEntity
  8
RACCORDO
100
AcDbSpline
 62
250
  6
CONTINUOUS
 70
0
 71
3
 72
27
 73
23
 74
0
 42
0.0000001
 43
0.0000001
 44
0.0000000001
 40
0.0
 40
0.0
 40
0.0
 40
0.0
 40
0.0625763975
 40
0.0938983724
 40
0.1252161522
 40
0.1877566416
 40
0.2502657029
 40
0.2815447968
 40
0.3128149545
 40
0.3752546263
 40
0.437665807
 40
0.5000585213
 40
0.5624454992
 40
0.624840634
 40
0.6872576475
 40
0.7185154428
 40
0.7497824697
 40
0.8122705133
 40
0.8747962995
 40
0.9061091938
 40
0.9374280541
 40
1.0
 40
1.0
 40
1.0
 40
1.0
 10
-85.7555848758
 20
-84.7639504972
 30
0.0
 10
-85.4336531811
 20
-84.983783272
 30
0.0
 10
-84.9161454984
 20
-85.2669813706
 30
0.0
 10
-84.1833290804
 20
-85.5369206896
 30
0.0
 10
-83.4275743525
 20
-85.733796887
 30
0.0
 10
-82.4524342696
 20
-85.8388797263
 30
0.0
 10
-81.4758068416
 20
-85.75119966
 30
0.0
 10
-80.7174115926
 20
-85.5681752609
 30
0.0
 10
-79.9809794391
 20
-85.3120105294
 30
0.0
 10
-79.1131373984
 20
-84.8581222388
 30
0.0
 10
-78.1990368834
 20
-84.1217755453
 30
0.0
 10
-77.4457803818
 20
-83.2217521287
 30
0.0
 10
-76.8821765524
 20
-82.1924098687
 30
0.0
 10
-76.5295642478
 20
-81.073134185
 30
0.0
 10
-76.4229696853
 20
-80.0999146333
 30
0.0
 10
-76.4525348634
 20
-79.3210574495
 30
0.0
 10
-76.5581400586
 20
-78.5483581635
 30
0.0
 10
-76.8318638942
 20
-77.6071031283
 30
0.0
 10
-77.2844872533
 20
-76.737292883
 30
0.0
 10
-77.7428116082
 20
-76.1051193892
 30
0.0
 10
-78.2608690127
 20
-75.5208401985
 30
0.0
 10
-78.7129532474
 20
-75.1419175239
 30
0.0
 10
-79.034857541
 20
-74.9220937991
 30
0.0
  0
SPLINE
  5
48B
100
AcDbEntity
  8
RACCORDO
100
AcDbSpline
 62
250
  6
CONTINUOUS
 70
0
 71
3
 72
29
 73
25
 74
0
 42
0.0000001
 43
0.0000001
 44
0.0000000001
 40
0.0
 40
0.0
 40
0.0
 40
0.0
 40
0.0313208109
 40
0.0626388624
 40
0.0939527482
 40
0.1252600462
 40
0.1877739031
 40
0.250248913
 40
0.2815091822
 40
0.3127602821
 40
0.3751646235
 40
0.4375487382
 40
0.4999262301
 40
0.5623109639
 40
0.6247155212
 40
0.6871491494
 40
0.7184162344
 40
0.7496921386
 40
0.8121942103
 40
0.8747266093
 40
0.9060397341
 40
0.9373573274
 40
0.9686778505
 40
1.0
 40
1.0
 40
1.0
 40
1.0
 10
-96.8180149365
 20
28.0187591944
 30
0.0
 10
-96.969454451
 20
27.7969961075
 30
0.0
 10
-97.2943864907
 20
27.3680995336
 30
0.0
 10
-97.8424340126
 20
26.776069097
 30
0.0
 10
-98.4460392628
 20
26.2407466136
 30
0.0
 10
-99.3158941042
 20
25.610253675
 30
0.0
 10
-100.5128332457
 20
24.9874159187
 30
0.0
 10
-101.8080161585
 20
24.6108519154
 30
0.0
 10
-102.8712520185
 20
24.4655557179
 30
0.0
 10
-103.9429605162
 20
24.4248807924
 30
0.0
 10
-105.2821314298
 20
24.5715297374
 30
0.0
 10
-106.8223280183
 20
25.0566621525
 30
0.0
 10
-108.238836576
 20
25.8321304025
 30
0.0
 10
-109.4774453797
 20
26.868606475
 30
0.0
 10
-110.4908434929
 20
28.1264683024
 30
0.0
 10
-111.1155327715
 20
29.3207148444
 30
0.0
 10
-111.4680958474
 20
30.3341450392
 30
0.0
 10
-111.7199881775
 20
31.3778018274
 30
0.0
 10
-111.840700955
 20
32.7217472946
 30
0.0
 10
-111.6960522608
 20
34.0637147118
 30
0.0
 10
-111.4252279967
 20
35.1035897253
 30
0.0
 10
-111.1462092485
 20
35.860704937
 30
0.0
 10
-110.794180701
 20
36.5866765912
 30
0.0
 10
-110.5129379274
 20
37.0454464379
 30
0.0
 10
-110.3614975254
 20
37.2672228162
 30
0.0
  0
SPLINE
  5
48C
100
AcDbEntity
  8
RACCORDO
100
AcDbSpline
 62
250
  6
CONTINUOUS
 70
0
 71
3
 72
29
 73
25
 74
0
 42
0.0000001
 43
0.0000001
 44
0.0000000001
 40
0.0
 40
0.0
 40
0.0
 40
0.0
 40
0.0313204972
 40
0.0626384286
 40
0.0939523791
 40
0.1252597568
 40
0.1877736087
 40
0.2502486132
 40
0.281508867
 40
0.3127599796
 40
0.3751643337
 40
0.4375484871
 40
0.4999260037
 40
0.5623107648
 40
0.6247153413
 40
0.6871490175
 40
0.7184161148
 40
0.7496920355
 40
0.8121941353
 40
0.8747265642
 40
0.9060396926
 40
0.9373572886
 40
0.9686778324
 40
1.0
 40
1.0
 40
1.0
 40
1.0
 10
4.2687591944
 20
47.0680149365
 30
0.0
 10
4.046998243
 20
47.2194528094
 30
0.0
 10
3.6181046026
 20
47.5443825405
 30
0.0
 10
3.026075939
 20
48.0924272801
 30
0.0
 10
2.4907525255
 20
48.6960319916
 30
0.0
 10
1.8602578995
 20
49.5658871037
 30
0.0
 10
1.2374187946
 20
50.762826215
 30
0.0
 10
0.8608535309
 20
52.0580085312
 30
0.0
 10
0.715556361
 20
53.1212441891
 30
0.0
 10
0.674880365
 20
54.1929527336
 30
0.0
 10
0.8215281322
 20
55.5321243414
 30
0.0
 10
1.3066594582
 20
57.0723219764
 30
0.0
 10
2.0821270281
 20
58.4888318099
 30
0.0
 10
3.1186026873
 20
59.7274417757
 30
0.0
 10
4.3764645491
 20
60.7408411567
 30
0.0
 10
5.570711418
 20
61.3655313253
 30
0.0
 10
6.5841420952
 20
61.7180950244
 30
0.0
 10
7.6277992766
 20
61.9699878223
 30
0.0
 10
8.9717453588
 20
62.0907010347
 30
0.0
 10
10.3137133452
 20
61.9460525362
 30
0.0
 10
11.3535886919
 20
61.6752283169
 30
0.0
 10
12.1107041685
 20
61.3962096117
 30
0.0
 10
12.8366761617
 20
61.0441809372
 30
0.0
 10
13.2954463035
 20
60.7629380067
 30
0.0
 10
13.5172228162
 20
60.6114975254
 30
0.0
  0
SPLINE
  5
48D
100
AcDbEntity
  8
RACCORDO
100
AcDbSpline
 62
250
  6
CONTINUOUS
 70
0
 71
3
 72
29
 73
25
 74
0
 42
0.0000001
 43
0.0000001
 44
0.0000000001
 40
0.0
 40
0.0
 40
0.0
 40
0.0
 40
0.03132213
 40
0.0626426453
 40
0.0939602419
 40
0.1252733693
 40
0.1878057668
 40
0.2503078389
 40
0.2815837431
 40
0.3128508279
 40
0.3752844561
 40
0.4376890134
 40
0.5000737469
 40
0.5624512394
 40
0.6248353547
 40
0.6872396961
 40
0.7184907955
 40
0.7497510646
 40
0.8122260756
 40
0.8747399312
 40
0.9060472295
 40
0.9373611099
 40
0.9686791544
 40
1.0
 40
1.0
 40
1.0
 40
1.0
 10
36.8614975254
 20
37.2672228162
 30
0.0
 10
37.0129379351
 20
37.0454466462
 30
0.0
 10
37.2941804118
 20
36.5866768873
 30
0.0
 10
37.646209093
 20
35.8607055386
 30
0.0
 10
37.9252278054
 20
35.1035903222
 30
0.0
 10
38.1960522033
 20
34.0637153093
 30
0.0
 10
38.3407009595
 20
32.72174788
 30
0.0
 10
38.2199882857
 20
31.3778024169
 30
0.0
 10
37.9680960268
 20
30.3341456096
 30
0.0
 10
37.6155330229
 20
29.3207153922
 30
0.0
 10
36.9908438298
 20
28.1264688085
 30
0.0
 10
35.9774458076
 20
26.868606912
 30
0.0
 10
34.7388370757
 20
25.8321307495
 30
0.0
 10
33.322328565
 20
25.0566623963
 30
0.0
 10
31.7821319999
 20
24.5715298726
 30
0.0
 10
30.4429610959
 20
24.4248808349
 30
0.0
 10
29.3712526003
 20
24.4655556847
 30
0.0
 10
28.3080167275
 20
24.6108518084
 30
0.0
 10
27.0128337842
 20
24.9874157112
 30
0.0
 10
25.8158946229
 20
25.6102534143
 30
0.0
 10
24.946039736
 20
26.2407462084
 30
0.0
 10
24.3424346059
 20
26.7760686597
 30
0.0
 10
23.7943867375
 20
27.3680990464
 30
0.0
 10
23.4694547135
 20
27.7969959269
 30
0.0
 10
23.3180149365
 20
28.0187591944
 30
0.0
  0
SPLINE
  5
48E
100
AcDbEntity
  8
RACCORDO
100
AcDbSpline
 62
250
  6
CONTINUOUS
 70
0
 71
3
 72
29
 73
25
 74
0
 42
0.0000001
 43
0.0000001
 44
0.0000000001
 40
0.0
 40
0.0
 40
0.0
 40
0.0
 40
0.0313205097
 40
0.0626384406
 40
0.093952384
 40
0.1252597581
 40
0.187773613
 40
0.2502486462
 40
0.2815089275
 40
0.3127600356
 40
0.3751643982
 40
0.4375485355
 40
0.4999260502
 40
0.5623108067
 40
0.6247153868
 40
0.6871490377
 40
0.7184161347
 40
0.7496920501
 40
0.8121941431
 40
0.8747265702
 40
0.9060396972
 40
0.9373572917
 40
0.9686778335
 40
1.0
 40
1.0
 40
1.0
 40
1.0
 10
23.3180149365
 20
-54.0187591944
 30
0.0
 10
23.4694528748
 20
-53.7969981588
 30
0.0
 10
23.7943826671
 20
-53.368104436
 30
0.0
 10
24.3424274592
 20
-52.7760757632
 30
0.0
 10
24.946032112
 20
-52.2407524284
 30
0.0
 10
25.8158871824
 20
-51.6102578606
 30
0.0
 10
27.0128265026
 20
-50.9874186218
 30
0.0
 10
28.3080093596
 20
-50.610853372
 30
0.0
 10
29.3712454714
 20
-50.4655562349
 30
0.0
 10
30.4429542942
 20
-50.4248804477
 30
0.0
 10
31.7821257692
 20
-50.5715284571
 30
0.0
 10
33.3223232363
 20
-51.0566600202
 30
0.0
 10
34.7388327793
 20
-51.8321277127
 30
0.0
 10
35.9774425844
 20
-52.8686035207
 30
0.0
 10
36.9908416419
 20
-54.1264653527
 30
0.0
 10
37.6155316104
 20
-55.3207121016
 30
0.0
 10
37.9680951484
 20
-56.3341425545
 30
0.0
 10
38.2199878734
 20
-57.3777996422
 30
0.0
 10
38.340701023
 20
-58.7217456073
 30
0.0
 10
38.1960525047
 20
-60.0637135026
 30
0.0
 10
37.9252282806
 20
-61.1035888061
 30
0.0
 10
37.6462095782
 20
-61.8607042386
 30
0.0
 10
37.2941809193
 20
-62.5866761943
 30
0.0
 10
37.0129380017
 20
-63.0454463121
 30
0.0
 10
36.8614975254
 20
-63.2672228162
 30
0.0
  0
SPLINE
  5
48F
100
AcDbEntity
  8
RACCORDO
100
AcDbSpline
 62
250
  6
CONTINUOUS
 70
0
 71
3
 72
29
 73
25
 74
0
 42
0.0000001
 43
0.0000001
 44
0.0000000001
 40
0.0
 40
0.0
 40
0.0
 40
0.0
 40
0.0313205539
 40
0.062638499
 40
0.0939524319
 40
0.125259792
 40
0.1877736246
 40
0.2502486322
 40
0.2815089093
 40
0.3127600172
 40
0.3751643848
 40
0.4375485183
 40
0.4999260331
 40
0.562310789
 40
0.6247153706
 40
0.6871490156
 40
0.7184161238
 40
0.7496920482
 40
0.8121941392
 40
0.8747265731
 40
0.9060397004
 40
0.9373572934
 40
0.9686778336
 40
1.0
 40
1.0
 40
1.0
 40
1.0
 10
-77.7687591944
 20
-73.0680149365
 30
0.0
 10
-77.5469978574
 20
-73.2194531069
 30
0.0
 10
-77.1181037366
 20
-73.5443832076
 30
0.0
 10
-76.5260748416
 20
-74.0924283703
 30
0.0
 10
-75.9907516683
 20
-74.6960330467
 30
0.0
 10
-75.3602574618
 20
-75.5658878814
 30
0.0
 10
-74.7374185464
 20
-76.7628267602
 30
0.0
 10
-74.3608534298
 20
-78.058009181
 30
0.0
 10
-74.2155562706
 20
-79.1212450296
 30
0.0
 10
-74.174880421
 20
-80.1929538571
 30
0.0
 10
-74.3215283661
 20
-81.5321253505
 30
0.0
 10
-74.8066598543
 20
-83.0723228523
 30
0.0
 10
-75.582127454
 20
-84.4888324048
 30
0.0
 10
-76.6186031981
 20
-85.7274422757
 30
0.0
 10
-77.8764649458
 20
-86.7408413711
 30
0.0
 10
-79.0707117039
 20
-87.365531446
 30
0.0
 10
-80.0841422589
 20
-87.7180950706
 30
0.0
 10
-81.1277994956
 20
-87.9699878512
 30
0.0
 10
-82.4717455776
 20
-88.090701029
 30
0.0
 10
-83.8137135201
 20
-87.9460525049
 30
0.0
 10
-84.8535888685
 20
-87.6752282609
 30
0.0
 10
-85.6107042756
 20
-87.3962095601
 30
0.0
 10
-86.3366762069
 20
-87.0441809122
 30
0.0
 10
-86.7954463123
 20
-86.7629380015
 30
0.0
 10
-87.0172228162
 20
-86.6114975254
 30
0.0
  0
SPLINE
  5
490
100
AcDbEntity
  8
RACCORDO
100
AcDbSpline
 62
250
  6
CONTINUOUS
 70
0
 71
3
 72
31
 73
27
 74
0
 42
0.0000001
 43
0.0000001
 44
0.0000000001
 40
0.0
 40
0.0
 40
0.0
 40
0.0
 40
0.0313155781
 40
0.0626282714
 40
0.0939367906
 40
0.1252384877
 40
0.1877400602
 40
0.2502018968
 40
0.2814554175
 40
0.3126998033
 40
0.3439362653
 40
0.3751663224
 40
0.4375392744
 40
0.499907767
 40
0.5622853388
 40
0.6246837752
 40
0.6559312084
 40
0.6871868272
 40
0.7184509904
 40
0.7497238659
 40
0.8122192301
 40
0.8747440064
 40
0.9060530093
 40
0.9373664232
 40
0.9686822857
 40
1.0
 40
1.0
 40
1.0
 40
1.0
 10
-52.0678843464
 20
-90.274103078
 30
0.0
 10
-52.4260016719
 20
-90.2031161396
 30
0.0
 10
-53.1497065379
 20
-90.0963535283
 30
0.0
 10
-54.2452498203
 20
-90.0437576578
 30
0.0
 10
-55.3406974567
 20
-90.0991136178
 30
0.0
 10
-56.7851011665
 20
-90.3156530328
 30
0.0
 10
-58.5395484351
 20
-90.8510889465
 30
0.0
 10
-60.1548346177
 20
-91.7190573189
 30
0.0
 10
-61.3247912603
 20
-92.5903861997
 30
0.0
 10
-62.1344983167
 20
-93.326926872
 30
0.0
 10
-62.8680435489
 20
-94.1389871298
 30
0.0
 10
-63.734563767
 20
-95.3107178495
 30
0.0
 10
-64.5961985266
 20
-96.9263540895
 30
0.0
 10
-65.2321360802
 20
-99.0274522333
 30
0.0
 10
-65.4474878119
 20
-101.2124022679
 30
0.0
 10
-65.2684271142
 20
-103.0352972162
 30
0.0
 10
-64.9149417182
 20
-104.449858352
 30
0.0
 10
-64.546801056
 20
-105.4810965484
 30
0.0
 10
-64.0792592284
 20
-106.4715620351
 30
0.0
 10
-63.3298977133
 20
-107.7241433611
 30
0.0
 10
-62.1672673265
 20
-109.1433577804
 30
0.0
 10
-60.7490071252
 20
-110.3078726244
 30
0.0
 10
-59.4959769701
 20
-111.0590800069
 30
0.0
 10
-58.5042620514
 20
-111.5280824009
 30
0.0
 10
-57.4713576788
 20
-111.8973351054
 30
0.0
 10
-56.7615870456
 20
-112.0747076496
 30
0.0
 10
-56.4034461219
 20
-112.1457036178
 30
0.0
  0
ELLIPSE
  5
491
100
AcDbEntity
  8
ASSI
100
AcDbEllipse
 62
7
  6
CONTINUOUS
 10
117.8766133485
 20
101.7574825001
 30
0.0
 11
1.0161890143
 21
0.0449942605
 31
0.0
 40
0.2345105639
 41
-0.0103831571
 42
1.3841851752
  0
ELLIPSE
  5
492
100
AcDbEntity
  8
ASSI
100
AcDbEllipse
 62
7
  6
CONTINUOUS
 10
124.6620757021
 20
78.7857142857
 30
0.0
 11
0.0
 21
3.2142857143
 31
0.0
 40
0.9333333333
 41
0.0
 42
0.1377942089
  0
ELLIPSE
  5
493
100
AcDbEntity
  8
ASSI
100
AcDbEllipse
 62
7
  6
CONTINUOUS
 10
124.6620757021
 20
78.5478022682
 30
0.0
 11
-2.273063759
 21
3.4100516399
 31
0.0
 40
0.5741412044
 41
-0.7219687998
 42
-0.5867543057
  0
ENDSEC
  0
SECTION
  2
OBJECTS
  0
DICTIONARY
  5
C
100
AcDbDictionary
280
0
281
1
  3
ACAD_GROUP
350
D
  3
ACAD_MLINESTYLE
350
17
  3
ACAD_LAYOUT
350
1A
  3
ACAD_PLOTSETTINGS
350
19
  3
ACAD_PLOTSTYLENAME
350
E
  0
DICTIONARY
  5
D
102
{ACAD_REACTORS
330
C
102
}
100
AcDbDictionary
280
0
281
1
  0
ACDBDICTIONARYWDFLT
  5
E
102
{ACAD_REACTORS
330
C
102
}
100
AcDbDictionary
281
1
  3
Normal
350
F
100
AcDbDictionaryWithDefault
340
F
  0
DICTIONARY
  5
17
102
{ACAD_REACTORS
330
C
102
}
100
AcDbDictionary
280
0
281
1
  3
Standard
350
18
  0
DICTIONARY
  5
19
102
{ACAD_REACTORS
330
C
102
}
100
AcDbDictionary
281
1
  0
DICTIONARY
  5
1A
102
{ACAD_REACTORS
330
C
102
}
100
AcDbDictionary
281
1
  3
Model
350
494
  3
Layout1
350
495
  0
ACDBPLACEHOLDER
  5
F
102
{ACAD_REACTORS
330
E
102
}
  0
MLINESTYLE
  5
18
102
{ACAD_REACTORS
330
17
102
}
100
AcDbMlineStyle
  2
STANDARD
 70
0
  3

 62
256
 51
90.0
 52
90.0
 71
2
 49
0.5
 62
256
  6
BYLAYER
 49
-0.5
 62
256
  6
BYLAYER
  0
LAYOUT
  5
494
102
{ACAD_REACTORS
330
1A
102
}
100
AcDbPlotSettings
  1

  2
none_device
  4
ISO_A4_(297.00_x_210.00_MM)
  6

 40
0.0
 41
0.0
 42
0.0
 43
0.0
 44
297.0
 45
210.0
 46
0.0
 47
0.0
 48
0.0
 49
0.0
140
0.0
141
0.0
142
1.0
143
1.0
 70
1024
 72
1
 73
0
 74
0
  7

 75
0
147
1.0
148
0.0
149
0.0
100
AcDbLayout
  1
Model
 70
0
 71
0
 10
0.0
 20
0.0
 11
297.0
 21
210.0
 12
0.0
 22
0.0
 32
0.0
 14
0.0
 24
0.0
 34
0.0
 15
0.0
 25
0.0
 35
0.0
146
0.0
 13
0.0
 23
0.0
 33
0.0
 16
1.0
 26
0.0
 36
0.0
 17
0.0
 27
1.0
 37
0.0
 76
0
330
212
345
0
346
0
  0
LAYOUT
  5
495
102
{ACAD_REACTORS
330
1A
102
}
100
AcDbPlotSettings
  1

  2
none_device
  4
ISO_A4_(297.00_x_210.00_MM)
  6

 40
0.0
 41
0.0
 42
0.0
 43
0.0
 44
297.0
 45
210.0
 46
0.0
 47
0.0
 48
0.0
 49
0.0
140
0.0
141
0.0
142
1.0
143
1.0
 70
0
 72
1
 73
0
 74
0
  7

 75
0
147
1.0
148
0.0
149
0.0
100
AcDbLayout
  1
Layout1
 70
0
 71
1
 10
0.0
 20
0.0
 11
297.0
 21
210.0
 12
0.0
 22
0.0
 32
0.0
 14
0.0
 24
0.0
 34
0.0
 15
0.0
 25
0.0
 35
0.0
146
0.0
 13
0.0
 23
0.0
 33
0.0
 16
1.0
 26
0.0
 36
0.0
 17
0.0
 27
1.0
 37
0.0
 76
0
330
213
345
0
346
0
  0
ENDSEC
  0
EOF
