  0
SECTION
  2
HEADER
  9
$ACADVER
  1
AC1021
  9
$DWGCODEPAGE
  3
ANSI_1252
  9
$EXTMAX
 10
297.0
 20
210.0
 30
0.0
  9
$EXTMIN
 10
0.0
 20
0.0
 30
0.0
  9
$LIMMIN
 10
0.0
 20
0.0
  9
$LIMMAX
 10
297.0
 20
210.0
  9
$VIEWCTR
 10
148.5
 20
105.0
  9
$VIEWSIZE
 40
210.0
  9
$CLAYER
  8
0
  9
$LTSCALE
 40
16.335
  9
$CELTYPE
  6
BYLAYER
  9
$DIMSCALE
 40
1.0
  9
$DIMASZ
 40
3.0
  9
$DIMEXO
 40
0.5
  9
$DIMDLI
 40
11.286
  9
$DIMEXE
 40
1.5
  9
$DIMCEN
 40
2.673
  9
$DIMLFAC
 40
1.0
  9
$DIMBLK
  1
_FILLED
  9
$DIMALT
 70
0
  9
$DIMALTF
 40
0.0393700787
  9
$DIMTXT
 40
3.0
  9
$DIMTOL
 70
1
  9
$DIMLIM
 70
0
  9
$DIMTFAC
 40
1.0
  9
$DIMTP
 40
0.01
  9
$DIMTM
 40
0.01
  9
$DIMGAP
 40
0.625
  9
$DIMDSEP
 70
44
  9
$AUNITS
 70
0
  9
$PDMODE
 70
3
  9
$PDSIZE
 40
3.0
  9
$HANDSEED
  5
320
  9
$TILEMODE
 70
1
  9
$MEASUREMENT
 70
1
  9
$INSUNITS
 70
4
  0
ENDSEC
  0
SECTION
  2
CLASSES
  0
CLASS
  1
ACDBDICTIONARYWDFLT
  2
AcDbDictionaryWithDefault
  3
AutoCAD 2000
 90
0
 91
1
280
0
281
0
  0
CLASS
  1
ACDBPLACEHOLDER
  2
AcDbPlaceHolder
  3
AutoCAD 2000
 90
0
 91
1
280
0
281
0
  0
CLASS
  1
LAYOUT
  2
AcDbLayout
  3
AutoCAD 2000
 90
0
 91
0
280
0
281
0
  0
ENDSEC
  0
SECTION
  2
TABLES
  0
TABLE
  2
VPORT
  5
8
100
AcDbSymbolTable
 70
2
  0
VPORT
  5
1F4
100
AcDbSymbolTableRecord
100
AcDbViewportTableRecord
  2
*ACTIVE
 70
0
 10
0.0
 20
0.0
 11
1.0
 21
1.0
 12
148.5
 22
105.0
 13
0.0
 23
0.0
 14
1.0
 24
1.0
 15
0.0
 25
0.0
 16
0.0
 26
0.0
 36
1.0
 17
0.0
 27
0.0
 37
0.0
 40
210.0
 41
1.4142857143
 42
50.0
 43
0.0
 44
0.0
 50
0.0
 51
0.0
 71
0
 72
100
 73
1
 74
1
 75
0
 76
0
 77
0
 78
0
  0
ENDTAB
  0
TABLE
  2
LTYPE
  5
5
100
AcDbSymbolTable
 70
6
  0
LTYPE
  5
14
100
AcDbSymbolTableRecord
100
AcDbLinetypeTableRecord
  2
BYBLOCK
 70
0
  3

 72
65
 73
0
 40
0.0
  0
LTYPE
  5
15
100
AcDbSymbolTableRecord
100
AcDbLinetypeTableRecord
  2
BYLAYER
 70
0
  3

 72
65
 73
0
 40
0.0
  0
LTYPE
  5
16
100
AcDbSymbolTableRecord
100
AcDbLinetypeTableRecord
  2
CONTINUOUS
 70
64
  3
Solid line
 72
65
 73
0
 40
0.0
  0
LTYPE
  5
1F5
100
AcDbSymbolTableRecord
100
AcDbLinetypeTableRecord
  2
CENTER
 70
64
  3
____ _ ____ _ ____ _ ____ _ ____ _ ____ _ ____
 72
65
 73
4
 40
0.6
 49
0.375
 74
0
 49
-0.075
 74
0
 49
0.075
 74
0
 49
-0.075
 74
0
  0
LTYPE
  5
1F6
100
AcDbSymbolTableRecord
100
AcDbLinetypeTableRecord
  2
HIDDEN
 70
64
  3
- - - - - - - - - - - - - - - - - - - -
 72
65
 73
2
 40
0.2
 49
0.1
 74
0
 49
-0.1
 74
0
  0
LTYPE
  5
1F7
100
AcDbSymbolTableRecord
100
AcDbLinetypeTableRecord
  2
PHANTOM
 70
64
  3
_____ _ _ _____ _ _ _____ _ _ _____
 72
65
 73
6
 40
0.8
 49
0.45
 74
0
 49
-0.05
 74
0
 49
0.1
 74
0
 49
-0.05
 74
0
 49
0.1
 74
0
 49
-0.05
 74
0
  0
LTYPE
  5
1F8
100
AcDbSymbolTableRecord
100
AcDbLinetypeTableRecord
  2
DOT
 70
64
  3
. . . . . . . . . . . . . . . . . . . .
 72
65
 73
2
 40
0.2
 49
0.1
 74
0
 49
-0.1
 74
0
  0
LTYPE
  5
1F9
100
AcDbSymbolTableRecord
100
AcDbLinetypeTableRecord
  2
DASHED
 70
64
  3
- - - - - - - - - - - - - - - - - - - -
 72
65
 73
2
 40
0.2
 49
0.1
 74
0
 49
-0.1
 74
0
  0
ENDTAB
  0
TABLE
  2
LAYER
  5
2
100
AcDbSymbolTable
 70
36
  0
LAYER
  5
10
100
AcDbSymbolTableRecord
100
AcDbLayerTableRecord
  2
0
 70
0
 62
7
  6
CONTINUOUS
370
-3
390
F
  0
LAYER
  5
1FA
100
AcDbSymbolTableRecord
100
AcDbLayerTableRecord
  2
DEFAULT_1
 70
0
 62
7
  6
CENTER
370
-3
390
F
  0
LAYER
  5
1FB
100
AcDbSymbolTableRecord
100
AcDbLayerTableRecord
  2
DEFAULT_2
 70
0
 62
7
  6
HIDDEN
370
-3
390
F
  0
LAYER
  5
1FC
100
AcDbSymbolTableRecord
100
AcDbLayerTableRecord
  2
DEFAULT_3
 70
0
 62
7
  6
PHANTOM
370
-3
390
F
  0
LAYER
  5
1FD
100
AcDbSymbolTableRecord
100
AcDbLayerTableRecord
  2
ASSI
 70
0
 62
7
  6
CONTINUOUS
370
-3
390
F
  0
LAYER
  5
1FE
100
AcDbSymbolTableRecord
100
AcDbLayerTableRecord
  2
COLOR5
 70
0
 62
7
  6
CONTINUOUS
370
-3
390
F
  0
LAYER
  5
1FF
100
AcDbSymbolTableRecord
100
AcDbLayerTableRecord
  2
COORDINATE
 70
0
 62
7
  6
CONTINUOUS
370
-3
390
F
  0
LAYER
  5
200
100
AcDbSymbolTableRecord
100
AcDbLayerTableRecord
  2
COORD_ORIGINE
 70
0
 62
7
  6
CONTINUOUS
370
-3
390
F
  0
LAYER
  5
201
100
AcDbSymbolTableRecord
100
AcDbLayerTableRecord
  2
COPY_PUBLISH
 70
0
 62
7
  6
CONTINUOUS
370
-3
390
F
  0
LAYER
  5
202
100
AcDbSymbolTableRecord
100
AcDbLayerTableRecord
  2
COSMETICI
 70
0
 62
7
  6
CONTINUOUS
370
-3
390
F
  0
LAYER
  5
203
100
AcDbSymbolTableRecord
100
AcDbLayerTableRecord
  2
CURVE
 70
0
 62
7
  6
CONTINUOUS
370
-3
390
F
  0
LAYER
  5
204
100
AcDbSymbolTableRecord
100
AcDbLayerTableRecord
  2
DRAFT
 70
0
 62
7
  6
CONTINUOUS
370
-3
390
F
  0
LAYER
  5
205
100
AcDbSymbolTableRecord
100
AcDbLayerTableRecord
  2
IMPORT_IGES
 70
0
 62
7
  6
CONTINUOUS
370
-3
390
F
  0
LAYER
  5
206
100
AcDbSymbolTableRecord
100
AcDbLayerTableRecord
  2
NOTE
 70
0
 62
7
  6
CONTINUOUS
370
-3
390
F
  0
LAYER
  5
207
100
AcDbSymbolTableRecord
100
AcDbLayerTableRecord
  2
PIANI
 70
0
 62
7
  6
CONTINUOUS
370
-3
390
F
  0
LAYER
  5
208
100
AcDbSymbolTableRecord
100
AcDbLayerTableRecord
  2
PIANI_ORIGINE
 70
0
 62
7
  6
CONTINUOUS
370
-3
390
F
  0
LAYER
  5
209
100
AcDbSymbolTableRecord
100
AcDbLayerTableRecord
  2
PUNTI
 70
0
 62
7
  6
CONTINUOUS
370
-3
390
F
  0
LAYER
  5
20A
100
AcDbSymbolTableRecord
100
AcDbLayerTableRecord
  2
RACCORDO
 70
0
 62
7
  6
CONTINUOUS
370
-3
390
F
  0
LAYER
  5
20B
100
AcDbSymbolTableRecord
100
AcDbLayerTableRecord
  2
SIMBOLI
 70
0
 62
7
  6
CONTINUOUS
370
-3
390
F
  0
LAYER
  5
20C
100
AcDbSymbolTableRecord
100
AcDbLayerTableRecord
  2
SMUSSO
 70
0
 62
7
  6
CONTINUOUS
370
-3
390
F
  0
LAYER
  5
20D
100
AcDbSymbolTableRecord
100
AcDbLayerTableRecord
  2
SUPERFICI
 70
0
 62
7
  6
CONTINUOUS
370
-3
390
F
  0
LAYER
  5
20E
100
AcDbSymbolTableRecord
100
AcDbLayerTableRecord
  2
TRASH
 70
0
 62
7
  6
CONTINUOUS
370
-3
390
F
  0
ENDTAB
  0
TABLE
  2
STYLE
  5
3
100
AcDbSymbolTable
 70
1
  0
STYLE
  5
11
100
AcDbSymbolTableRecord
100
AcDbTextStyleTableRecord
  2
STANDARD
 70
0
 40
0.0
 41
0.8
 50
0.0
 71
0
 42
0.2
  3
txt
  4

  0
STYLE
  5
20F
100
AcDbSymbolTableRecord
100
AcDbTextStyleTableRecord
  2
TEXTSTYLE_1
 70
0
 40
0.0
 41
0.8
 50
0.0
 71
0
 42
0.2
  3
gdt
  4

  0
ENDTAB
  0
TABLE
  2
VIEW
  5
6
100
AcDbSymbolTable
 70
0
  0
ENDTAB
  0
TABLE
  2
UCS
  5
7
100
AcDbSymbolTable
 70
0
  0
ENDTAB
  0
TABLE
  2
APPID
  5
9
100
AcDbSymbolTable
 70
1
  0
APPID
  5
210
100
AcDbSymbolTableRecord
100
AcDbRegAppTableRecord
  2
ACAD
 70
0
  0
ENDTAB
  0
TABLE
  2
BLOCK_RECORD
  5
1
100
AcDbSymbolTable
 70
0
  0
BLOCK_RECORD
  5
211
100
AcDbSymbolTableRecord
100
AcDbBlockTableRecord
  2
*Model_Space
  0
BLOCK_RECORD
  5
212
100
AcDbSymbolTableRecord
100
AcDbBlockTableRecord
  2
*Paper_Space
  0
ENDTAB
  0
TABLE
  2
DIMSTYLE
  5
A
100
AcDbSymbolTable
 70
1
100
AcDbDimStyleTable
 71
0
  0
DIMSTYLE
105
213
100
AcDbSymbolTableRecord
100
AcDbDimStyleTableRecord
  2
STANDARD
 70
0
  3

  4

 40
1.0
 41
3.0
 42
0.5
 43
0.38
 44
1.5
 45
0.0
 46
0.0
 47
0.01
 48
0.01
140
3.0
141
0.09
142
0.0
143
25.4
144
1.0
145
0.0
146
1.0
147
0.625
 71
1.0
 72
0.0
 73
0
 74
0
 75
0
 76
0
 77
1
 78
8
170
0
171
2
172
0
173
0
174
0
175
0
176
0
177
0
178
0
270
2
271
2
272
2
273
2
274
2
275
0
280
0
281
0
282
0
283
1
284
8
285
0
286
0
287
3
288
0
340
11
278
44
  0
ENDTAB
  0
ENDSEC
  0
SECTION
  2
BLOCKS
  0
BLOCK
  5
20
100
AcDbEntity
  8
0
100
AcDbBlockBegin
  2
*Model_Space
 70
0
 10
0.0
 20
0.0
 30
0.0
  3
*Model_Space
  1

  0
ENDBLK
  5
21
100
AcDbEntity
  8
0
100
AcDbBlockEnd
  0
BLOCK
  5
1C
100
AcDbEntity
  8
0
100
AcDbBlockBegin
  2
*Paper_Space
 70
0
 10
0.0
 20
0.0
 30
0.0
  3
*Paper_Space
  1

  0
ENDBLK
  5
1D
100
AcDbEntity
  8
0
100
AcDbBlockEnd
  0
ENDSEC
  0
SECTION
  2
ENTITIES
  0
LINE
  5
214
100
AcDbEntity
  8
0
100
AcDbLine
 62
7
  6
CONTINUOUS
 10
130.0
 20
-195.0
 11
-130.0
 21
-195.0
  0
LINE
  5
215
100
AcDbEntity
  8
0
100
AcDbLine
 62
7
  6
CONTINUOUS
 10
-115.8230225939
 20
-175.0
 11
0.001764551
 21
-175.0
  0
LINE
  5
216
100
AcDbEntity
  8
0
100
AcDbLine
 62
7
  6
CONTINUOUS
 10
130.0
 20
-175.0
 11
40.0
 21
-175.0
  0
LINE
  5
217
100
AcDbEntity
  8
0
100
AcDbLine
 62
253
  6
CONTINUOUS
 10
-107.1589133949
 20
-150.6738472488
 11
-125.9995837019
 21
-143.963471523
  0
LINE
  5
218
100
AcDbEntity
  8
0
100
AcDbLine
 62
253
  6
CONTINUOUS
 10
-10.0
 20
-145.0
 11
10.0
 21
-145.0
  0
LWPOLYLINE
  5
219
100
AcDbEntity
  8
RACCORDO
100
AcDbPolyline
 62
253
  6
CONTINUOUS
 90
118
 70
0
 10
22.8728320873
 20
-131.718093136
 10
23.263051892
 20
-131.6308565431
 10
23.6495233978
 20
-131.5330647285
 10
24.0321445072
 20
-131.424755442
 10
24.4107605747
 20
-131.3059526305
 10
24.7853248806
 20
-131.1767096817
 10
25.1558989435
 20
-131.0371075699
 10
25.5225945207
 20
-130.8871310497
 10
25.8851040197
 20
-130.7268704554
 10
26.2428645906
 20
-130.5565688435
 10
26.59583549
 20
-130.3762303179
 10
26.9438739546
 20
-130.1859386357
 10
27.286274032
 20
-129.9860673905
 10
27.62292528
 20
-129.7766653479
 10
27.9537731722
 20
-129.557785045
 10
28.2782084173
 20
-129.3298165954
 10
28.5961570112
 20
-129.0928008048
 10
28.9075482722
 20
-128.8468071964
 10
29.2117921822
 20
-128.5922779842
 10
29.5088323253
 20
-128.3292528089
 10
29.7986038906
 20
-128.0578090989
 10
30.0805207684
 20
-127.7784537127
 10
30.3545387267
 20
-127.4912227988
 10
30.6206074952
 20
-127.1962016435
 10
30.8781508878
 20
-126.8939776702
 10
31.1271265031
 20
-126.5846051682
 10
31.3675124583
 20
-126.2681528895
 10
31.598784026
 20
-125.945235253
 10
31.8209218636
 20
-125.6158954848
 10
32.0339122434
 20
-125.2802113865
 10
32.2372606662
 20
-124.938852808
 10
32.4309610715
 20
-124.591870089
 10
32.6150194713
 20
-124.2393286803
 10
32.7889822243
 20
-123.8819230065
 10
32.9528640092
 20
-123.5196893075
 10
33.1066833167
 20
-123.152698525
 10
33.2500156612
 20
-122.7816973891
 10
33.3828957152
 20
-122.4066980977
 10
33.5053557308
 20
-122.0277838421
 10
33.616992386
 20
-121.6458064688
 10
33.7178456011
 20
-121.260791502
 10
33.8079775737
 20
-120.8727938295
 10
33.8870438457
 20
-120.482706239
 10
33.9550981763
 20
-120.0905914876
 10
34.0122227037
 20
-119.6964489894
 10
34.0581390422
 20
-119.3010718531
 10
34.0929281091
 20
-118.9044243452
 10
34.1166731835
 20
-118.5065837359
 10
34.1291219865
 20
-118.1085065419
 10
34.1303559654
 20
-117.7101977449
 10
34.1204870092
 20
-117.3116706862
 10
34.0993305273
 20
-116.9138869567
 10
34.0669839755
 20
-116.5168500702
 10
34.0235676165
 20
-116.1205498245
 10
33.9689503495
 20
-115.7259188462
 10
33.9032116822
 20
-115.3328474486
 10
33.8265088315
 20
-114.9414126139
 10
33.738844261
 20
-114.5528177494
 10
33.6402282733
 20
-114.166870757
 10
33.5309025598
 20
-113.7837040179
 10
33.4112296861
 20
-113.40499829
 10
33.2812502529
 20
-113.0307760571
 10
33.1411806403
 20
-112.6609296739
 10
32.9916505908
 20
-112.2969376807
 10
32.8327447835
 20
-111.9388838566
 10
32.6646227285
 20
-111.5865800844
 10
32.4880191989
 20
-111.2410941577
 10
32.3030217962
 20
-110.9024703928
 10
32.1097616423
 20
-110.5705478554
 10
31.9090243728
 20
-110.2460875633
 10
31.7009880564
 20
-109.9292073356
 10
31.4856597132
 20
-109.6196671271
 10
31.2635527275
 20
-109.3176941079
 10
31.034772537
 20
-109.023249635
 10
30.799368317
 20
-108.7362459049
 10
30.5577556469
 20
-108.4568391996
 10
30.309935116
 20
-108.184902565
 10
30.0560320794
 20
-107.9204333267
 10
29.7966342919
 20
-107.6637788571
 10
29.5317964698
 20
-107.414907721
 10
29.2615553142
 20
-107.1737241209
 10
28.986454486
 20
-106.9404858748
 10
28.7065481484
 20
-106.7151652926
 10
28.421839802
 20
-106.4976670569
 10
28.1327812249
 20
-106.2881548234
 10
27.8393893177
 20
-106.0865708036
 10
27.5416734331
 20
-105.8928542301
 10
27.2400591938
 20
-105.7071716393
 10
26.934534354
 20
-105.5294644963
 10
26.6251063354
 20
-105.359678205
 10
26.3122152592
 20
-105.1979934103
 10
25.9958088056
 20
-105.0443472146
 10
25.6759031796
 20
-104.8986962368
 10
25.3530251026
 20
-104.7612606159
 10
25.0271306415
 20
-104.6320014086
 10
24.6981944583
 20
-104.5108614887
 10
24.3667542128
 20
-104.3980459646
 10
24.0327141258
 20
-104.2935162204
 10
23.6960686961
 20
-104.197225817
 10
23.3574737045
 20
-104.1093828259
 10
23.0168487739
 20
-104.0299683668
 10
22.6741403768
 20
-103.9589314518
 10
22.3300274787
 20
-103.896449253
 10
21.984409424
 20
-103.842515357
 10
21.6372229294
 20
-103.7970824141
 10
21.2891875768
 20
-103.760284992
 10
20.9401911769
 20
-103.7321217392
 10
20.5901552832
 20
-103.7125577611
 10
20.2398367767
 20
-103.7016976525
 10
19.8891032989
 20
-103.6995574306
 10
19.5378737999
 20
-103.7061032259
 10
19.186971565
 20
-103.7213868199
 10
18.8362220836
 20
-103.7454453483
 10
18.485568954
 20
-103.7782434361
 10
18.1360058663
 20
-103.8197492721
 10
17.7877831962
 20
-103.869967242
 10
17.4404094176
 20
-103.9289220409
 10
17.0937626431
 20
-103.9966252786
  0
LWPOLYLINE
  5
21A
100
AcDbEntity
  8
RACCORDO
100
AcDbPolyline
 62
253
  6
CONTINUOUS
 90
118
 70
0
 10
22.6868170277
 20
-130.8258023364
 10
23.0496915608
 20
-130.7447883659
 10
23.4094037559
 20
-130.653753434
 10
23.7656869205
 20
-130.5528299608
 10
24.1180440712
 20
-130.4422310307
 10
24.4664455103
 20
-130.3220493493
 10
24.8113106811
 20
-130.1921767324
 10
25.1525625952
 20
-130.0526305837
 10
25.4897462148
 20
-129.9035918083
 10
25.8226914444
 20
-129.7451329383
 10
26.1511834601
 20
-129.5773438453
 10
26.4749124344
 20
-129.4003807697
 10
26.7935641685
 20
-129.2144128818
 10
27.1068594886
 20
-129.0195956653
 10
27.414579184
 20
-128.8160656586
 10
27.7165017016
 20
-128.6039670557
 10
28.0123932544
 20
-128.3834582402
 10
28.3020229172
 20
-128.154716213
 10
28.5851706432
 20
-127.9179116535
 10
28.8616046855
 20
-127.6732221549
 10
29.1310997546
 20
-127.4208398833
 10
29.393446558
 20
-127.1609555442
 10
29.6484496196
 20
-126.8937534881
 10
29.8959045366
 20
-126.6194495422
 10
30.1355891976
 20
-126.3382863221
 10
30.3672915674
 20
-126.0504974229
 10
30.5908329134
 20
-125.7563009175
 10
30.8060454747
 20
-125.4559153936
 10
31.0127633791
 20
-125.1495640239
 10
31.2108263042
 20
-124.8374895523
 10
31.4000728728
 20
-124.5199438867
 10
31.5803354631
 20
-124.1971875532
 10
31.7514683867
 20
-123.8694750521
 10
31.9133461387
 20
-123.5370449873
 10
32.0658466609
 20
-123.200134602
 10
32.2088523331
 20
-122.858999024
 10
32.3422445119
 20
-122.5139081759
 10
32.4659047123
 20
-122.1651335931
 10
32.5797269853
 20
-121.8129610844
 10
32.6836146619
 20
-121.4576824662
 10
32.7774698491
 20
-121.099607064
 10
32.8612198003
 20
-120.7390256458
 10
32.9348032803
 20
-120.3762076218
 10
32.998141116
 20
-120.0115007793
 10
33.0511870264
 20
-119.6452160892
 10
33.0939208627
 20
-119.2775637988
 10
33.1263138036
 20
-118.9087072591
 10
33.1483155784
 20
-118.5389928506
 10
33.1598950205
 20
-118.1688782303
 10
33.1610550613
 20
-117.7985822411
 10
33.1517968859
 20
-117.4282593128
 10
33.132120044
 20
-117.0582997403
 10
33.1020359998
 20
-116.6891081239
 10
33.0615759206
 20
-116.320945388
 10
33.0107695295
 20
-115.953999655
 10
32.9496347294
 20
-115.5885083273
 10
32.8782331306
 20
-115.224907065
 10
32.7966638552
 20
-114.8636504392
 10
32.7049627203
 20
-114.5048572229
 10
32.6032536145
 20
-114.1489452306
 10
32.4918474492
 20
-113.7968289464
 10
32.3709263578
 20
-113.4488755238
 10
32.2406762128
 20
-113.1053768185
 10
32.1015073994
 20
-112.7670816436
 10
31.9536617419
 20
-112.434233202
 10
31.7973533475
 20
-112.1070074725
 10
31.6330106301
 20
-111.7859683902
 10
31.4609045972
 20
-111.4712858125
 10
31.2812359722
 20
-111.1629864263
 10
31.0944036156
 20
-110.8614257366
 10
30.9008084379
 20
-110.5669242471
 10
30.700649957
 20
-110.2794723222
 10
30.4940090727
 20
-109.99889978
 10
30.2811415344
 20
-109.7253087094
 10
30.0622991619
 20
-109.4587936524
 10
29.837513294
 20
-109.1991875957
 10
29.6069638832
 20
-108.9465310919
 10
29.3709307236
 20
-108.700975178
 10
29.1295845675
 20
-108.462536287
 10
28.8831848985
 20
-108.2313186047
 10
28.6319665229
 20
-108.0074028562
 10
28.3760472951
 20
-107.790764164
 10
28.1156678469
 20
-107.5814807585
 10
27.8510108525
 20
-107.3795828321
 10
27.5820845982
 20
-107.1849766978
 10
27.3091263249
 20
-106.9977386698
 10
27.0323668105
 20
-106.8179380517
 10
26.7518032277
 20
-106.6455037086
 10
26.4676112486
 20
-106.4804840382
 10
26.1799839992
 20
-106.3229314122
 10
25.8889061232
 20
-106.1727913077
 10
25.5945608193
 20
-106.0301196681
 10
25.2971808984
 20
-105.8949857457
 10
24.9968178557
 20
-105.7673825607
 10
24.6936662009
 20
-105.6473758996
 10
24.3879182946
 20
-105.5350193912
 10
24.0796114143
 20
-105.4303088288
 10
23.7688963976
 20
-105.3332872237
 10
23.4559713822
 20
-105.2440044117
 10
23.1409589565
 20
-105.1624845287
 10
22.8240745018
 20
-105.0887830393
 10
22.5055432543
 20
-105.0229547947
 10
22.1854625252
 20
-104.9650178769
 10
21.8639915456
 20
-104.9150035372
 10
21.5412904258
 20
-104.872942493
 10
21.217482889
 20
-104.8388552981
 10
20.8927996073
 20
-104.812773414
 10
20.5674619209
 20
-104.7947273439
 10
20.241589419
 20
-104.7847403537
 10
19.9153302793
 20
-104.7828314492
 10
19.5888845163
 20
-104.7890189822
 10
19.2624207731
 20
-104.8033191772
 10
18.9361247589
 20
-104.8257408678
 10
18.6102294617
 20
-104.8562868432
 10
18.2849952764
 20
-104.8949542874
 10
17.9606456317
 20
-104.9417331704
 10
17.6373647245
 20
-104.9966075169
 10
17.3153514752
 20
-105.0595589822
  0
LWPOLYLINE
  5
21B
100
AcDbEntity
  8
RACCORDO
100
AcDbPolyline
 62
253
  6
CONTINUOUS
 90
124
 70
0
 10
23.2475192362
 20
-133.515420172
 10
23.6632488058
 20
-133.4229530297
 10
24.0760824092
 20
-133.3195202705
 10
24.4859090182
 20
-133.205151837
 10
24.892797641
 20
-133.0798233849
 10
25.2964580426
 20
-132.9436200716
 10
25.6962435118
 20
-132.7967430708
 10
26.0920634077
 20
-132.6392083739
 10
26.4837961336
 20
-132.4710778206
 10
26.8707560414
 20
-132.2926343177
 10
27.2528400084
 20
-132.1039058711
 10
27.6299523656
 20
-131.9049578874
 10
28.0014290927
 20
-131.6961420014
 10
28.3671512289
 20
-131.477511996
 10
28.7270566898
 20
-131.2491210856
 10
29.0805789523
 20
-131.0113308439
 10
29.4276313209
 20
-130.7641932648
 10
29.7681388593
 20
-130.5077729102
 10
30.1015659042
 20
-130.2424590647
 10
30.4278598349
 20
-129.968286255
 10
30.7469332333
 20
-129.6853436485
 10
31.0582138011
 20
-129.3941106522
 10
31.3616459902
 20
-129.0946319309
 10
31.6571714249
 20
-128.7869924003
 10
31.9442319848
 20
-128.4717393151
 10
32.2227682021
 20
-128.1489425033
 10
32.4927549877
 20
-127.8186648505
 10
32.7537053524
 20
-127.4814489921
 10
33.0055874397
 20
-127.1373577334
 10
33.2483779915
 20
-126.7864602699
 10
33.4816227274
 20
-126.4293128251
 10
33.7053272275
 20
-126.0659358432
 10
33.919460795
 20
-125.6964371411
 10
34.1235368623
 20
-125.3215068548
 10
34.3175590603
 20
-124.941178635
 10
34.5015333706
 20
-124.5555410319
 10
34.6750018595
 20
-124.1653680798
 10
34.8379636249
 20
-123.7707537159
 10
34.9904659988
 20
-123.3717166241
 10
35.1321476263
 20
-122.9689176078
 10
35.2630609041
 20
-122.5623477691
 10
35.3832311605
 20
-122.1521153581
 10
35.492280846
 20
-121.7390548615
 10
35.5902566788
 20
-121.3232047716
 10
35.677225615
 20
-120.9046098823
 10
35.7528663214
 20
-120.4841105121
 10
35.8172448725
 20
-120.0617449612
 10
35.8704422759
 20
-119.6375390192
 10
35.9121840751
 20
-119.2123090789
 10
35.9425554997
 20
-118.786054127
 10
35.9616486165
 20
-118.3588175627
 10
35.969222739
 20
-117.9314758385
 10
35.9653719628
 20
-117.5040142877
 10
35.9502082216
 20
-117.0764658893
 10
35.9235404964
 20
-116.6497706305
 10
35.8854746924
 20
-116.2239255954
 10
35.8361369707
 20
-115.7989258842
 10
35.7753877684
 20
-115.3756994858
 10
35.7033458926
 20
-114.9542313422
 10
35.6201457295
 20
-114.5345013411
 10
35.5256894049
 20
-114.1174201527
 10
35.4200580811
 20
-113.7028441197
 10
35.3034397662
 20
-113.2908537351
 10
35.1759125905
 20
-112.8826855549
 10
35.0374899542
 20
-112.478147923
 10
34.8884389107
 20
-112.0773409246
 10
34.7292282411
 20
-111.6819290857
 10
34.5599110099
 20
-111.291921996
 10
34.3807127396
 20
-110.907193577
 10
34.1923601703
 20
-110.5291988234
 10
33.994934316
 20
-110.1579886019
 10
33.7886127317
 20
-109.7933785344
 10
33.5742550284
 20
-109.4364699698
 10
33.3519657031
 20
-109.0873211561
 10
33.1218654291
 20
-108.7457318102
 10
32.8848190157
 20
-108.4124194482
 10
32.6410256233
 20
-108.0875070269
 10
32.3904704919
 20
-107.7707284059
 10
32.1336787878
 20
-107.4622228615
 10
31.8707607325
 20
-107.1619448065
 10
31.6017558802
 20
-106.8697955626
 10
31.3270685546
 20
-106.5858392105
 10
31.0467409628
 20
-106.3099755104
 10
30.7608487321
 20
-106.0421599665
 10
30.4698319396
 20
-105.7825452409
 10
30.1737294661
 20
-105.5310579727
 10
29.8725866899
 20
-105.2876291596
 10
29.566838117
 20
-105.0524243024
 10
29.2565010443
 20
-104.8253726475
 10
28.9416087491
 20
-104.6064066983
 10
28.6226038399
 20
-104.3957043106
 10
28.2994697418
 20
-104.1931937696
 10
27.9722395066
 20
-103.9988144309
 10
27.6414131594
 20
-103.8127700596
 10
27.3069742614
 20
-103.6350088879
 10
26.9689199247
 20
-103.4654592837
 10
26.6277526847
 20
-103.3043063311
 10
26.2834489746
 20
-103.1515049098
 10
25.9359776918
 20
-103.0069871364
 10
25.585812716
 20
-102.8709158357
 10
25.2328973445
 20
-102.7432418639
 10
24.8771997618
 20
-102.6239118957
 10
24.5192142037
 20
-102.5130952195
 10
24.158833264
 20
-102.4107451074
 10
23.7960424317
 20
-102.3168174156
 10
23.4314575539
 20
-102.2315007607
 10
23.0649774775
 20
-102.1547712681
 10
22.6965470298
 20
-102.0865778089
 10
22.3268330846
 20
-102.0270867008
 10
21.9557177032
 20
-101.9762859587
 10
21.5831302682
 20
-101.9341300508
 10
21.209792001
 20
-101.9007557411
 10
20.8355733867
 20
-101.8761639579
 10
20.4603862404
 20
-101.8603154416
 10
20.0849992909
 20
-101.8533094241
 10
19.7092549793
 20
-101.8551626648
 10
19.3330684343
 20
-101.8658402833
 10
18.9573059165
 20
-101.8853891921
 10
18.5817715115
 20
-101.9138550271
 10
18.2063994975
 20
-101.9511964336
 10
17.8322442989
 20
-101.9973590942
 10
17.4595662789
 20
-102.0523430181
 10
17.0878329958
 20
-102.1161839503
 10
16.7169069913
 20
-102.1888962074
  0
LWPOLYLINE
  5
21C
100
AcDbEntity
  8
DRAFT
100
AcDbPolyline
 62
7
  6
CONTINUOUS
 90
115
 70
0
 10
-22.6530612245
 20
-130.6638800023
 10
-23.015649096
 20
-130.5828552384
 10
-23.3753859098
 20
-130.4916277162
 10
-23.7321777512
 20
-130.3902242476
 10
-24.0861132878
 20
-130.2786109692
 10
-24.4369168998
 20
-130.1568757905
 10
-24.7839514331
 20
-130.0252342812
 10
-25.1271549755
 20
-129.883692093
 10
-25.4664114586
 20
-129.7323120569
 10
-25.8010101104
 20
-129.5714072949
 10
-26.1308241109
 20
-129.4010260129
 10
-26.4558162956
 20
-129.2212024892
 10
-26.7754199179
 20
-129.032239547
 10
-27.0896097829
 20
-128.834133836
 10
-27.3982618359
 20
-128.6269800225
 10
-27.7006732606
 20
-128.4112377991
 10
-27.9967183761
 20
-128.1869878726
 10
-28.2863960106
 20
-127.9542514458
 10
-28.5692039367
 20
-127.7134075212
 10
-28.8451503395
 20
-127.4644344779
 10
-29.1141197272
 20
-127.2074597683
 10
-29.3754406581
 20
-126.9430934054
 10
-29.6290040989
 20
-126.6714470997
 10
-29.8748415779
 20
-126.392520505
 10
-30.1125100823
 20
-126.1067616005
 10
-30.3420452691
 20
-125.8141250019
 10
-30.5633569666
 20
-125.5147660506
 10
-30.7758329779
 20
-125.2094383313
 10
-30.9793960873
 20
-124.8982770833
 10
-31.174104212
 20
-124.5812561945
 10
-31.3595683684
 20
-124.2588903508
 10
-31.5358453343
 20
-123.931106519
 10
-31.7028840731
 20
-123.5980799653
 10
-31.8601556703
 20
-123.2606992042
 10
-32.0076238121
 20
-122.9191160226
 10
-32.14536855
 20
-122.573273061
 10
-32.273057759
 20
-122.2237450736
 10
-32.3907613666
 20
-121.8704379196
 10
-32.4984785121
 20
-121.5135278544
 10
-32.5957931517
 20
-121.1539934073
 10
-32.6827205234
 20
-120.7919709873
 10
-32.7593510767
 20
-120.4273917322
 10
-32.8254040865
 20
-120.0609230911
 10
-32.8809539091
 20
-119.6924383203
 10
-32.9260563368
 20
-119.3221144964
 10
-32.9604247886
 20
-118.9510699995
 10
-32.9841179901
 20
-118.5794845103
 10
-32.9972403961
 20
-118.20720833
 10
-32.9995941959
 20
-117.8348598928
 10
-32.9912695595
 20
-117.4623276995
 10
-32.9723578226
 20
-117.0897323121
 10
-32.9426798901
 20
-116.7180335338
 10
-32.902300563
 20
-116.3471498261
 10
-32.8513584424
 20
-115.977148572
 10
-32.7898027714
 20
-115.6092049129
 10
-32.7176193952
 20
-115.2430760707
 10
-32.6350431579
 20
-114.8789662965
 10
-32.5424114499
 20
-114.5187126032
 10
-32.4397569003
 20
-114.162412626
 10
-32.327277277
 20
-113.8099060868
 10
-32.205563337
 20
-113.4626362034
 10
-32.0745943413
 20
-113.1205429752
 10
-31.9346124605
 20
-112.7836052564
 10
-31.7865961031
 20
-112.4533218801
 10
-31.6307312689
 20
-112.1300082701
 10
-31.4670278642
 20
-111.8132573741
 10
-31.2961860805
 20
-111.5034854976
 10
-31.1183086544
 20
-111.2007048363
 10
-30.9334593848
 20
-110.9048059053
 10
-30.7422650469
 20
-110.6160255053
 10
-30.54489215
 20
-110.334425178
 10
-30.3413108251
 20
-110.0598438594
 10
-30.1318410179
 20
-109.7921872302
 10
-29.916503599
 20
-109.5313242582
 10
-29.6953916303
 20
-109.2772828063
 10
-29.4689228325
 20
-109.0302095264
 10
-29.2372606842
 20
-108.7901358047
 10
-29.0003293447
 20
-108.5569270656
 10
-28.758179492
 20
-108.3304823439
 10
-28.5107609747
 20
-108.1106324093
 10
-28.2581952403
 20
-107.8974377139
 10
-28.0007828114
 20
-107.6911427673
 10
-27.7386507719
 20
-107.4917429991
 10
-27.47171794
 20
-107.2991347375
 10
-27.1999645151
 20
-107.1134143452
 10
-26.9232903676
 20
-106.9344223686
 10
-26.6418245066
 20
-106.7622035524
 10
-26.3558814067
 20
-106.5971616242
 10
-26.0655426315
 20
-106.4392723107
 10
-25.7707262822
 20
-106.2884475141
 10
-25.4714896684
 20
-106.1449972815
 10
-25.1676842421
 20
-106.0087875794
 10
-24.8594349439
 20
-105.8798353835
 10
-24.54719445
 20
-105.7586813943
 10
-24.230969402
 20
-105.6452908954
 10
-23.9106933546
 20
-105.5395883013
 10
-23.5866904064
 20
-105.4420606668
 10
-23.2587612793
 20
-105.3526222896
 10
-22.9270121245
 20
-105.2712508956
 10
-22.5922031705
 20
-105.1985409216
 10
-22.2542499798
 20
-105.1344791168
 10
-21.9131008562
 20
-105.0789866948
 10
-21.5695401686
 20
-105.0325786062
 10
-21.223327477
 20
-104.9952478227
 10
-20.8745270781
 20
-104.9669250778
 10
-20.5243557747
 20
-104.9480577249
 10
-20.1726795636
 20
-104.9386939424
 10
-19.8194158999
 20
-104.9387390639
 10
-19.4658372042
 20
-104.9484591748
 10
-19.1117834579
 20
-104.9679216145
 10
-18.7571678198
 20
-104.9970433922
 10
-18.4033585077
 20
-105.0359007132
 10
-18.0507219945
 20
-105.0845334374
 10
-17.6986268295
 20
-105.1429237897
 10
-17.3469387755
 20
-105.2110792811
  0
LWPOLYLINE
  5
21D
100
AcDbEntity
  8
RACCORDO
100
AcDbPolyline
 62
253
  6
CONTINUOUS
 90
53
 70
0
 10
-109.718093136
 20
-44.8728320873
 10
-109.6320487154
 20
-45.2586469337
 10
-109.5352381758
 20
-45.6418414458
 10
-109.4276871715
 20
-46.0223115047
 10
-109.3093558622
 20
-46.4002048339
 10
-109.1803357236
 20
-46.7751657391
 10
-109.0408581667
 20
-47.1463384412
 10
-108.8909335681
 20
-47.513608422
 10
-108.7306241983
 20
-47.8768917998
 10
-108.5602549011
 20
-48.2353872896
 10
-108.3798461052
 20
-48.5889888804
 10
-108.1894665836
 20
-48.9376187863
 10
-107.9895275338
 20
-49.2805298753
 10
-107.7800901947
 20
-49.6175900466
 10
-107.5611963891
 20
-49.9487673085
 10
-107.3332391908
 20
-50.2734780043
 10
-107.0962724293
 20
-50.5916385249
 10
-106.8503536829
 20
-50.9031887632
 10
-106.5958899389
 20
-51.2075939842
 10
-106.3329229229
 20
-51.504804203
 10
-106.0615279578
 20
-51.7947478958
 10
-105.7821696489
 20
-52.0768732946
 10
-105.4948557727
 20
-52.3511622756
 10
-105.1996994049
 20
-52.6175366108
 10
-104.8973300611
 20
-52.8753734236
 10
-104.5878149871
 20
-53.1246156937
 10
-104.2712103424
 20
-53.3652561366
 10
-103.9481346677
 20
-53.5967679335
 10
-103.6186406306
 20
-53.8191267664
 10
-103.2827969051
 20
-54.0323239642
 10
-102.9412495525
 20
-54.2358777261
 10
-102.5940358426
 20
-54.4297898037
 10
-102.2412344291
 20
-54.6140576511
 10
-101.8835553545
 20
-54.7882157022
 10
-101.5210263033
 20
-54.9522794194
 10
-101.1537270446
 20
-55.1062663714
 10
-100.7824460849
 20
-55.2497383742
 10
-100.4072259931
 20
-55.3827201271
 10
-100.0281198681
 20
-55.5052551006
 10
-99.6459306199
 20
-55.616957983
 10
-99.2606867963
 20
-55.7178735356
 10
-98.8724403952
 20
-55.8080589168
 10
-98.482026418
 20
-55.8871717359
 10
-98.089447905
 20
-55.9552731176
 10
-97.6947642666
 20
-56.0124363152
 10
-97.2988903604
 20
-56.0583613905
 10
-96.9018442523
 20
-56.0931207112
 10
-96.503649394
 20
-56.1168078804
 10
-96.1052225405
 20
-56.1291782264
 10
-95.7065585877
 20
-56.1303163939
 10
-95.3076809459
 20
-56.1203316334
 10
-94.9095417032
 20
-56.0990377942
 10
-94.6992760208
 20
-56.0818384182
  0
LWPOLYLINE
  5
21E
100
AcDbEntity
  8
RACCORDO
100
AcDbPolyline
 62
253
  6
CONTINUOUS
 90
54
 70
0
 10
-108.8258023364
 20
-44.6868170277
 10
-108.7457703154
 20
-45.0455652803
 10
-108.6556740072
 20
-45.4022329316
 10
-108.5555573763
 20
-45.7565387246
 10
-108.4454563639
 20
-46.1082384714
 10
-108.3254517193
 20
-46.4570012418
 10
-108.1956651854
 20
-46.8024170884
 10
-108.0561804696
 20
-47.1442091932
 10
-107.9070922664
 20
-47.4821111535
 10
-107.7485608886
 20
-47.8157363556
 10
-107.5807075395
 20
-48.1448156286
 10
-107.4036652277
 20
-48.4690955298
 10
-107.2176305587
 20
-48.7882212551
 10
-107.0227775839
 20
-49.1018965054
 10
-106.8192379015
 20
-49.4099239882
 10
-106.6071496234
 20
-49.7121018383
 10
-106.3866834519
 20
-50.0081880129
 10
-106.1580122334
 20
-50.2979660374
 10
-105.921270389
 20
-50.5812656029
 10
-105.676633149
 20
-50.8578569689
 10
-105.4242951702
 20
-51.1275110536
 10
-105.1644108139
 20
-51.3900538519
 10
-104.8971346235
 20
-51.6453112006
 10
-104.6227040782
 20
-51.8930493733
 10
-104.3414034393
 20
-52.1330057774
 10
-104.0534815383
 20
-52.3649566268
 10
-103.759143653
 20
-52.5887346046
 10
-103.4586111395
 20
-52.8041703226
 10
-103.1521158173
 20
-53.0110927292
 10
-102.8398929466
 20
-53.2093474965
 10
-102.5221722471
 20
-53.3987866117
 10
-102.199201462
 20
-53.5792472873
 10
-101.8712471886
 20
-53.7505742559
 10
-101.5385625351
 20
-53.9126332479
 10
-101.2013781657
 20
-54.0653046136
 10
-100.8599563438
 20
-54.2084666954
 10
-100.5146041557
 20
-54.3419866491
 10
-100.1656230736
 20
-54.4657388657
 10
-99.8132727878
 20
-54.5796310577
 10
-99.457797939
 20
-54.6835826518
 10
-99.0995094576
 20
-54.7774939707
 10
-98.738696854
 20
-54.8612913071
 10
-98.3755758359
 20
-54.9349221696
 10
-98.0104385735
 20
-54.9983101785
 10
-97.6436509402
 20
-55.0513911832
 10
-97.2755360361
 20
-55.0941275633
 10
-96.9063090321
 20
-55.126490228
 10
-96.5362660593
 20
-55.1484390559
 10
-96.1658260591
 20
-55.1599471666
 10
-95.7951996581
 20
-55.161017654
 10
-95.4245519844
 20
-55.1516514739
 10
-95.0542617412
 20
-55.1318475846
 10
-94.6847184873
 20
-55.1016152493
 10
-94.3364811004
 20
-55.0632219109
  0
LWPOLYLINE
  5
21F
100
AcDbEntity
  8
RACCORDO
100
AcDbPolyline
 62
253
  6
CONTINUOUS
 90
124
 70
0
 10
-111.515420172
 20
1.2475192362
 10
-111.4228009384
 20
1.663845638
 10
-111.3192207007
 20
2.0771804481
 10
-111.204710495
 20
2.4874126236
 10
-111.0792439158
 20
2.8946028784
 10
-110.94291039
 20
3.2984693902
 10
-110.7959213899
 20
3.6983906588
 10
-110.6383067425
 20
4.0942566474
 10
-110.4701161112
 20
4.4859658693
 10
-110.2916024988
 20
4.8729167876
 10
-110.1027996684
 20
5.2550118522
 10
-109.903766928
 20
5.6321495523
 10
-109.694806664
 20
6.0037316126
 10
-109.4759423608
 20
6.3696877223
 10
-109.2472556591
 20
6.7299048832
 10
-109.0091471597
 20
7.0837329076
 10
-108.7616716038
 20
7.4310700005
 10
-108.5048911086
 20
7.7718557741
 10
-108.2392273748
 20
8.1055166367
 10
-107.9647417654
 20
8.4319699383
 10
-107.6814976579
 20
8.7511591128
 10
-107.3899278084
 20
9.0625650346
 10
-107.0900461626
 20
9.3661639886
 10
-106.7819681015
 20
9.6618644479
 10
-106.4662859154
 20
9.9490639621
 10
-106.1430770658
 20
10.227691915
 10
-105.8123974875
 20
10.497735037
 10
-105.4748133658
 20
10.758697567
 10
-105.1303932969
 20
11.0105429601
 10
-104.7792013295
 20
11.2532540196
 10
-104.4218007979
 20
11.4863842009
 10
-104.0582273938
 20
11.7099328411
 10
-103.6885740758
 20
11.9238770682
 10
-103.3134926904
 20
12.1277585791
 10
-102.9330203354
 20
12.3215843846
 10
-102.547242079
 20
12.5053573153
 10
-102.1568830554
 20
12.6786366307
 10
-101.7619906264
 20
12.8414384297
 10
-101.3626299122
 20
12.9937915513
 10
-100.9595523737
 20
13.1352991911
 10
-100.5527984234
 20
13.2659964242
 10
-100.1424270555
 20
13.3859277677
 10
-99.7292155982
 20
13.4947354789
 10
-99.3131909658
 20
13.5924730433
 10
-98.8944094537
 20
13.6792004602
 10
-98.4736888471
 20
13.7545946791
 10
-98.0510464918
 20
13.8187242174
 10
-97.6265291304
 20
13.8716670825
 10
-97.2009934758
 20
13.9131392256
 10
-96.774445611
 20
13.9432229241
 10
-96.3469217152
 20
13.962013839
 10
-95.9193170035
 20
13.9692721413
 10
-95.491625666
 20
13.9650919519
 10
-95.0638715646
 20
13.9495861033
 10
-94.6369864482
 20
13.922565806
 10
-94.2109678616
 20
13.8841383426
 10
-93.7858101469
 20
13.8344291466
 10
-93.3624312305
 20
13.7732975756
 10
-92.9408147969
 20
13.7008635594
 10
-92.5209416651
 20
13.6172608614
 10
-92.1037157205
 20
13.5223878458
 10
-91.688985429
 20
13.416323644
 10
-91.2768387749
 20
13.2992587954
 10
-90.8685285418
 20
13.1712745656
 10
-90.4638597007
 20
13.0323810076
 10
-90.0629352116
 20
12.8828491394
 10
-89.6674451844
 20
12.7231618254
 10
-89.2774076389
 20
12.5533740204
 10
-88.8926875895
 20
12.3737097313
 10
-88.5147396865
 20
12.1849044482
 10
-88.1436232878
 20
11.9870450436
 10
-87.7791452162
 20
11.7803031245
 10
-87.4223806082
 20
11.5655291981
 10
-87.0733858592
 20
11.3428301813
 10
-86.7319622664
 20
11.1123241683
 10
-86.3988062103
 20
10.8748595172
 10
-86.0740296079
 20
10.6306289596
 10
-85.7573768915
 20
10.3796243371
 10
-85.4489985523
 20
10.12237402
 10
-85.1488460808
 20
9.8589834058
 10
-84.8568232465
 20
9.5894969559
 10
-84.573013545
 20
9.3143365375
 10
-84.2973187412
 20
9.0335421066
 10
-84.0296921411
 20
8.7471911156
 10
-83.770299876
 20
8.4557467885
 10
-83.5190713737
 20
8.1592461212
 10
-83.2759351403
 20
7.857735291
 10
-83.0410627437
 20
7.5516753825
 10
-82.8143893084
 20
7.2410869906
 10
-82.5958424618
 20
6.9259982877
 10
-82.385590485
 20
6.606865451
 10
-82.1835721607
 20
6.2836915094
 10
-81.9897179553
 20
5.9564877634
 10
-81.804192683
 20
5.6257063242
 10
-81.6269411598
 20
5.2913402018
 10
-81.4578957777
 20
4.9533763499
 10
-81.2972124377
 20
4.6122414689
 10
-81.1448356875
 20
4.267911459
 10
-81.0007066751
 20
3.920356838
 10
-80.8649862659
 20
3.5699802823
 10
-80.7376113127
 20
3.2167028506
 10
-80.6185390555
 20
2.8605172373
 10
-80.5079726938
 20
2.5019168227
 10
-80.4058531226
 20
2.1407027558
 10
-80.3121442734
 20
1.7769536741
 10
-80.227102935
 20
1.411558674
 10
-80.1507458227
 20
1.0445559863
 10
-80.082986275
 20
0.6757465978
 10
-80.0239462368
 20
0.3056447575
 10
-79.9735950959
 20
-0.065830096
 10
-79.9319060474
 20
-0.4387868507
 10
-79.8990218118
 20
-0.8127679383
 10
-79.8749357604
 20
-1.188197534
 10
-79.8596057734
 20
-1.5648674978
 10
-79.8531491925
 20
-1.9413878906
 10
-79.8556557204
 20
-2.3179057519
 10
-79.8670274654
 20
-2.6945213047
 10
-79.8871425543
 20
-3.0697874094
 10
-79.9161121491
 20
-3.4438334487
 10
-79.953856106
 20
-3.8167926938
 10
-80.0000082784
 20
-4.1872256081
 10
-80.0544790641
 20
-4.5547379411
 10
-80.1174309925
 20
-4.9199836279
 10
-80.1888962074
 20
-5.2830930087
  0
LWPOLYLINE
  5
220
100
AcDbEntity
  8
DRAFT
100
AcDbPolyline
 62
7
  6
CONTINUOUS
 90
115
 70
0
 10
-108.6638800023
 20
0.6530612245
 10
-108.5828552384
 20
1.015649096
 10
-108.4916277162
 20
1.3753859098
 10
-108.3902242476
 20
1.7321777512
 10
-108.2786109692
 20
2.0861132878
 10
-108.1568757905
 20
2.4369168998
 10
-108.0252342812
 20
2.7839514332
 10
-107.883692093
 20
3.1271549755
 10
-107.7323120569
 20
3.4664114586
 10
-107.5714072949
 20
3.8010101104
 10
-107.4010260129
 20
4.1308241109
 10
-107.2212024892
 20
4.4558162956
 10
-107.032239547
 20
4.775419918
 10
-106.834133836
 20
5.0896097829
 10
-106.6269800225
 20
5.3982618359
 10
-106.4112377991
 20
5.7006732606
 10
-106.1869878726
 20
5.9967183761
 10
-105.9542514458
 20
6.2863960106
 10
-105.7134075212
 20
6.5692039367
 10
-105.4644344779
 20
6.8451503395
 10
-105.2074597683
 20
7.1141197272
 10
-104.9430934054
 20
7.3754406581
 10
-104.6714470997
 20
7.6290040989
 10
-104.392520505
 20
7.8748415779
 10
-104.1067616005
 20
8.1125100823
 10
-103.8141250019
 20
8.3420452691
 10
-103.5147660506
 20
8.5633569667
 10
-103.2094383313
 20
8.7758329779
 10
-102.8982770833
 20
8.9793960873
 10
-102.5812561945
 20
9.174104212
 10
-102.2588903508
 20
9.3595683684
 10
-101.931106519
 20
9.5358453343
 10
-101.5980799653
 20
9.7028840731
 10
-101.2606992042
 20
9.8601556703
 10
-100.9191160226
 20
10.0076238121
 10
-100.573273061
 20
10.14536855
 10
-100.2237450736
 20
10.273057759
 10
-99.8704379196
 20
10.3907613666
 10
-99.5135278544
 20
10.4984785121
 10
-99.1539934073
 20
10.5957931517
 10
-98.7919709873
 20
10.6827205234
 10
-98.4273917322
 20
10.7593510767
 10
-98.0609230911
 20
10.8254040865
 10
-97.6924383203
 20
10.8809539091
 10
-97.3221144964
 20
10.9260563368
 10
-96.9510699995
 20
10.9604247886
 10
-96.5794845103
 20
10.9841179901
 10
-96.20720833
 20
10.9972403961
 10
-95.8348598928
 20
10.9995941959
 10
-95.4623276995
 20
10.9912695595
 10
-95.0897323121
 20
10.9723578226
 10
-94.7180335338
 20
10.9426798901
 10
-94.3471498261
 20
10.902300563
 10
-93.977148572
 20
10.8513584424
 10
-93.6092049129
 20
10.7898027714
 10
-93.2430760707
 20
10.7176193952
 10
-92.8789662965
 20
10.6350431579
 10
-92.5187126032
 20
10.5424114499
 10
-92.162412626
 20
10.4397569003
 10
-91.8099060868
 20
10.327277277
 10
-91.4626362034
 20
10.2055633369
 10
-91.1205429752
 20
10.0745943413
 10
-90.7836052564
 20
9.9346124605
 10
-90.4533218801
 20
9.7865961031
 10
-90.1300082701
 20
9.6307312689
 10
-89.8132573741
 20
9.4670278642
 10
-89.5034854976
 20
9.2961860805
 10
-89.2007048363
 20
9.1183086544
 10
-88.9048059053
 20
8.9334593848
 10
-88.6160255053
 20
8.7422650469
 10
-88.334425178
 20
8.54489215
 10
-88.0598438594
 20
8.3413108251
 10
-87.7921872302
 20
8.1318410179
 10
-87.5313242582
 20
7.916503599
 10
-87.2772828063
 20
7.6953916303
 10
-87.0302095264
 20
7.4689228325
 10
-86.7901358047
 20
7.2372606842
 10
-86.5569270656
 20
7.0003293447
 10
-86.3304823439
 20
6.758179492
 10
-86.1106324093
 20
6.5107609747
 10
-85.8974377139
 20
6.2581952403
 10
-85.6911427673
 20
6.0007828113
 10
-85.4917429991
 20
5.7386507719
 10
-85.2991347375
 20
5.47171794
 10
-85.1134143452
 20
5.1999645151
 10
-84.9344223686
 20
4.9232903676
 10
-84.7622035524
 20
4.6418245066
 10
-84.5971616242
 20
4.3558814067
 10
-84.4392723107
 20
4.0655426315
 10
-84.2884475141
 20
3.7707262822
 10
-84.1449972815
 20
3.4714896684
 10
-84.0087875794
 20
3.1676842421
 10
-83.8798353835
 20
2.8594349439
 10
-83.7586813943
 20
2.54719445
 10
-83.6452908954
 20
2.230969402
 10
-83.5395883013
 20
1.9106933546
 10
-83.4420606668
 20
1.5866904064
 10
-83.3526222896
 20
1.2587612793
 10
-83.2712508956
 20
0.9270121245
 10
-83.1985409216
 20
0.5922031705
 10
-83.1344791168
 20
0.2542499798
 10
-83.0789866948
 20
-0.0868991438
 10
-83.0325786062
 20
-0.4304598314
 10
-82.9952478227
 20
-0.776672523
 10
-82.9669250778
 20
-1.1254729219
 10
-82.9480577249
 20
-1.4756442253
 10
-82.9386939424
 20
-1.8273204364
 10
-82.9387390639
 20
-2.1805841001
 10
-82.9484591748
 20
-2.5341627958
 10
-82.9679216145
 20
-2.8882165421
 10
-82.9970433922
 20
-3.2428321802
 10
-83.0359007132
 20
-3.5966414923
 10
-83.0845334374
 20
-3.9492780055
 10
-83.1429237897
 20
-4.3013731705
 10
-83.2110792811
 20
-4.6530612245
  0
LWPOLYLINE
  5
221
100
AcDbEntity
  8
DRAFT
100
AcDbPolyline
 62
7
  6
CONTINUOUS
 90
115
 70
0
 10
17.3469387755
 20
-105.2110792811
 10
17.7029349957
 20
-105.1421633906
 10
18.059279434
 20
-105.0832489109
 10
18.4161111703
 20
-105.0343289441
 10
18.7740916217
 20
-104.9954295319
 10
19.132833793
 20
-104.9665033846
 10
19.4908979251
 20
-104.9474525081
 10
19.8483839981
 20
-104.9383698492
 10
20.2054465029
 20
-104.9391813213
 10
20.5607117955
 20
-104.949576666
 10
20.914238402
 20
-104.9696586605
 10
21.2661887546
 20
-104.9993773432
 10
21.6153213429
 20
-105.0382282659
 10
21.961582616
 20
-105.0862896575
 10
22.3052036937
 20
-105.1435662599
 10
22.6453431055
 20
-105.2094702844
 10
22.9820220948
 20
-105.2840800422
 10
23.3153533973
 20
-105.3674173814
 10
23.6446059751
 20
-105.4588289268
 10
23.9696876828
 20
-105.5583452782
 10
24.2907800317
 20
-105.6660504626
 10
24.6075390966
 20
-105.7813831906
 10
24.9200055233
 20
-105.9044143066
 10
25.2281924612
 20
-106.0351900733
 10
25.5316949403
 20
-106.173119437
 10
25.8303935891
 20
-106.3181889207
 10
26.1244252654
 20
-106.4705339798
 10
26.4137543076
 20
-106.6297900974
 10
26.6984465378
 20
-106.7960393891
 10
26.9784300088
 20
-106.9693161245
 10
27.2534507054
 20
-107.1491850068
 10
27.5233824971
 20
-107.3355998976
 10
27.7883173126
 20
-107.5287238003
 10
28.0483195426
 20
-107.7284350017
 10
28.3034661955
 20
-107.9348365777
 10
28.5536300805
 20
-108.1479346721
 10
28.7985622106
 20
-108.3674616623
 10
29.0381567433
 20
-108.5933713324
 10
29.2724455806
 20
-108.8258182887
 10
29.5013792897
 20
-109.0648364539
 10
29.725027778
 20
-109.3105679286
 10
29.9432313639
 20
-109.5629731135
 10
30.155588413
 20
-109.8218143034
 10
30.3619746057
 20
-110.0870214761
 10
30.5623994451
 20
-110.3587664249
 10
30.7566530141
 20
-110.6371757825
 10
30.9447488267
 20
-110.9223568705
 10
31.1265394905
 20
-111.2142988847
 10
31.3015643379
 20
-111.5129525999
 10
31.4697762952
 20
-111.8183778553
 10
31.6310630863
 20
-112.1306077189
 10
31.78485361
 20
-112.4495549396
 10
31.9311768632
 20
-112.7756207063
 10
32.0698170007
 20
-113.1084913787
 10
32.1998214691
 20
-113.4470089885
 10
32.3210016502
 20
-113.791271658
 10
32.4333312803
 20
-114.1412603029
 10
32.536091707
 20
-114.4956397104
 10
32.6291060451
 20
-114.8546954994
 10
32.7123213623
 20
-115.2182050547
 10
32.7852075756
 20
-115.5840648032
 10
32.8474910755
 20
-115.9520744372
 10
32.8992221459
 20
-116.3224739355
 10
32.9403709703
 20
-116.6938113989
 10
32.9707731813
 20
-117.065954419
 10
32.9903883512
 20
-117.4390501651
 10
32.9993914236
 20
-117.8120576944
 10
32.9976881139
 20
-118.1848225095
 10
32.9851908123
 20
-118.5574903539
 10
32.9621018503
 20
-118.9294638166
 10
32.9283193731
 20
-119.3008849121
 10
32.8837814638
 20
-119.6715819237
 10
32.8287700695
 20
-120.0404809936
 10
32.7632298308
 20
-120.4074204473
 10
32.6870844722
 20
-120.772511876
 10
32.600606117
 20
-121.1350864918
 10
32.5036987845
 20
-121.4952241708
 10
32.3963511222
 20
-121.8527775305
 10
32.2789850031
 20
-122.206733643
 10
32.1516017346
 20
-122.5569078922
 10
32.0141301724
 20
-122.9034026584
 10
31.8669062764
 20
-123.2456336536
 10
31.7098518132
 20
-123.5836537113
 10
31.543000799
 20
-123.91731537
 10
31.3668799167
 20
-124.2457338331
 10
31.1815394665
 20
-124.5687352102
 10
30.9869228761
 20
-124.8863908371
 10
30.7834183069
 20
-125.1981850954
 10
30.5709653933
 20
-125.5041469571
 10
30.3496433466
 20
-125.8041378923
 10
30.1200703914
 20
-126.097394165
 10
29.8823384955
 20
-126.3837571162
 10
29.6364101871
 20
-126.6632750289
 10
29.3827292785
 20
-126.935499124
 10
29.1212635465
 20
-127.2004304317
 10
28.8521227754
 20
-127.4579560882
 10
28.5759814746
 20
-127.707462543
 10
28.2929564256
 20
-127.9488209764
 10
28.0030384244
 20
-128.182053928
 10
27.7067293871
 20
-128.4067823029
 10
27.40402882
 20
-128.6229859985
 10
27.0950643916
 20
-128.8305827132
 10
26.7805441766
 20
-129.0291086612
 10
26.4605941939
 20
-129.2184677195
 10
26.1352382157
 20
-129.3986643036
 10
25.8050432529
 20
-129.5693953325
 10
25.4700454322
 20
-129.7306269856
 10
25.1303731958
 20
-129.8823101958
 10
24.7867416247
 20
-130.0241296555
 10
24.4392681833
 20
-130.1560218429
 10
24.0880140912
 20
-130.2779815042
 10
23.7336177286
 20
-130.3897925792
 10
23.3763553746
 20
-130.4913669165
 10
23.0161384434
 20
-130.5827383694
 10
22.6530612245
 20
-130.6638800023
  0
LWPOLYLINE
  5
222
100
AcDbEntity
  8
RACCORDO
100
AcDbPolyline
 62
253
  6
CONTINUOUS
 90
118
 70
0
 10
-17.0937626431
 20
-103.9966252786
 10
-17.439476608
 20
-103.929063493
 10
-17.7861084749
 20
-103.8702070216
 10
-18.1337793698
 20
-103.8200418655
 10
-18.4830172404
 20
-103.7785256639
 10
-18.8335340529
 20
-103.7456665736
 10
-19.1842248107
 20
-103.7215407366
 10
-19.5351294386
 20
-103.7061938429
 10
-19.8864391469
 20
-103.6995765747
 10
-20.2372695692
 20
-103.7016499467
 10
-20.5876876374
 20
-103.7124520646
 10
-20.9378401421
 20
-103.7319623623
 10
-21.2869519008
 20
-103.7600768938
 10
-21.6350994766
 20
-103.7968320578
 10
-21.9823971528
 20
-103.8422277574
 10
-22.3281128593
 20
-103.8961260433
 10
-22.6723069492
 20
-103.9585751377
 10
-23.0150829917
 20
-104.0295809576
 10
-23.3557581235
 20
-104.1089611002
 10
-23.6943807998
 20
-104.1967649797
 10
-24.0310362402
 20
-104.2930135221
 10
-24.3650796236
 20
-104.3974987631
 10
-24.6965006684
 20
-104.5102578086
 10
-25.0254107262
 20
-104.6313388796
 10
-25.3513308033
 20
-104.7605645768
 10
-25.6742917805
 20
-104.8979852433
 10
-25.9943331847
 20
-105.0436454033
 10
-26.3109732887
 20
-105.1973700562
 10
-26.6242433069
 20
-105.35922736
 10
-26.9341508965
 20
-105.5292531384
 10
-27.2401624931
 20
-105.7072346895
 10
-27.5422762892
 20
-105.8932447223
 10
-27.840499455
 20
-106.0873237723
 10
-28.1342945623
 20
-106.2892211681
 10
-28.4236186346
 20
-106.4989919033
 10
-28.7084858326
 20
-106.7167019541
 10
-28.988427865
 20
-106.9421255823
 10
-29.2634050025
 20
-107.1753213014
 10
-29.5333960091
 20
-107.4163559003
 10
-29.7979450944
 20
-107.6650225858
 10
-30.0570033707
 20
-107.9213913073
 10
-30.3105273299
 20
-108.1855197709
 10
-30.5580546229
 20
-108.4571881193
 10
-30.7995216107
 20
-108.7364507904
 10
-31.0348684177
 20
-109.0233813354
 10
-31.2636241782
 20
-109.3177927843
 10
-31.4857282895
 20
-109.6197639635
 10
-31.7010873501
 20
-109.929342154
 10
-31.909167059
 20
-110.2462964777
 10
-32.1099547026
 20
-110.5708670264
 10
-32.3032779889
 20
-110.9029359253
 10
-32.4883472798
 20
-111.2417384673
 10
-32.6650460802
 20
-111.5874678594
 10
-32.833272116
 20
-111.9400475409
 10
-32.9922423492
 20
-112.2983093838
 10
-33.1417688504
 20
-112.6623879421
 10
-33.2817947628
 20
-113.0322532253
 10
-33.4117264286
 20
-113.4064873862
 10
-33.5313538347
 20
-113.7851917352
 10
-33.6406300573
 20
-114.1683500755
 10
-33.7392095536
 20
-114.5543612726
 10
-33.8268650861
 20
-114.9431458833
 10
-33.9035712628
 20
-115.3348432124
 10
-33.9692982317
 20
-115.7281708944
 10
-34.0238782399
 20
-116.1230366134
 10
-34.0672419558
 20
-116.5195653833
 10
-34.0995246027
 20
-116.9167914898
 10
-34.1206050452
 20
-117.3147048428
 10
-34.1303870575
 20
-117.7133220535
 10
-34.1290626819
 20
-118.1117090496
 10
-34.1165252346
 20
-118.5098453034
 10
-34.0926882519
 20
-118.9077329205
 10
-34.0577955543
 20
-119.3044643977
 10
-34.0117526981
 20
-119.7000187485
 10
-33.9544887161
 20
-120.0943754208
 10
-33.8863059638
 20
-120.4866214203
 10
-33.8071240957
 20
-120.8767207406
 10
-33.7168894601
 20
-121.2646470067
 10
-33.6159695238
 20
-121.6494970073
 10
-33.5043329288
 20
-122.0311448864
 10
-33.3819119372
 20
-122.4096361924
 10
-33.2490427404
 20
-122.7843217389
 10
-33.1056651161
 20
-123.1552099861
 10
-32.951769105
 20
-123.5221969889
 10
-32.7877893794
 20
-123.8844634514
 10
-32.6136983141
 20
-124.2419385784
 10
-32.429489301
 20
-124.5945857271
 10
-32.2356537832
 20
-124.9416372175
 10
-32.0322033955
 20
-125.2829935876
 10
-31.8191278737
 20
-125.6186386543
 10
-31.5969091926
 20
-125.9479316821
 10
-31.3655619903
 20
-126.2707982693
 10
-31.1251049218
 20
-126.5871918162
 10
-30.876047114
 20
-126.8965167024
 10
-30.618404685
 20
-127.1987124305
 10
-30.3522253884
 20
-127.493716244
 10
-30.0780862716
 20
-127.7809343315
 10
-29.7960354746
 20
-128.0602821117
 10
-29.5061191879
 20
-128.3317225104
 10
-29.208930725
 20
-128.5947398937
 10
-28.9045327828
 20
-128.8492570423
 10
-28.5929840037
 20
-129.0952339854
 10
-28.27488841
 20
-129.3322191033
 10
-27.9503236205
 20
-129.5601375557
 10
-27.6193571875
 20
-129.7789540443
 10
-27.2825923794
 20
-129.9882853619
 10
-26.9401102039
 20
-130.1880691321
 10
-26.5919949548
 20
-130.3782666648
 10
-26.2388669
 20
-130.5585402744
 10
-25.880814319
 20
-130.7288320844
 10
-25.5179312746
 20
-130.8891101231
 10
-25.1508567123
 20
-131.0390865287
 10
-24.7796564515
 20
-131.1787172947
 10
-24.4044605165
 20
-131.3079695018
 10
-24.0260123065
 20
-131.4265846701
 10
-23.6446297314
 20
-131.5344595401
 10
-23.2602017197
 20
-131.6316387285
 10
-22.8728320873
 20
-131.718093136
  0
LWPOLYLINE
  5
223
100
AcDbEntity
  8
RACCORDO
100
AcDbPolyline
 62
253
  6
CONTINUOUS
 90
118
 70
0
 10
-17.3153514752
 20
-105.0595589822
 10
-17.6364356181
 20
-104.9967772016
 10
-17.9589747125
 20
-104.9419955454
 10
-18.2827737044
 20
-104.8952466928
 10
-18.6076936738
 20
-104.8565566106
 10
-18.9334718142
 20
-104.8259565773
 10
-19.2597224927
 20
-104.8034712354
 10
-19.5861891197
 20
-104.7891038121
 10
-19.912709664
 20
-104.7828488724
 10
-20.2390600121
 20
-104.7846944458
 10
-20.5650271932
 20
-104.794622738
 10
-20.8904755902
 20
-104.812615807
 10
-21.2152685417
 20
-104.8386499959
 10
-21.5391812046
 20
-104.8726942222
 10
-21.8619858857
 20
-104.9147170476
 10
-22.1835501768
 20
-104.96469631
 10
-22.503708946
 20
-105.0225994503
 10
-22.8223040497
 20
-105.0883943589
 10
-23.1392382603
 20
-105.1620620858
 10
-23.4542803226
 20
-105.243544806
 10
-23.7672162665
 20
-105.3327856004
 10
-24.077934366
 20
-105.4297623911
 10
-24.3862258997
 20
-105.5344212613
 10
-24.6919543578
 20
-105.6467229431
 10
-24.9951302325
 20
-105.766690206
 10
-25.2955659568
 20
-105.8942750511
 10
-25.5930719235
 20
-106.0294194755
 10
-25.8876421675
 20
-106.172158761
 10
-26.179074252
 20
-106.3224489916
 10
-26.4671442869
 20
-106.4802227247
 10
-26.7518039491
 20
-106.6455052734
 10
-27.0328431381
 20
-106.8182387392
 10
-27.3100640386
 20
-106.9983638307
 10
-27.5834015839
 20
-107.1859033733
 10
-27.8525855111
 20
-107.3807527575
 10
-28.1173847702
 20
-107.5828305343
 10
-28.3777960755
 20
-107.7922161546
 10
-28.6336560286
 20
-108.0088760431
 10
-28.8846807503
 20
-108.2326777065
 10
-29.130730487
 20
-108.4636196421
 10
-29.3716644865
 20
-108.7017058762
 10
-29.6073652374
 20
-108.9469635934
 10
-29.8377195783
 20
-109.1994314638
 10
-30.0623828916
 20
-109.4589001604
 10
-30.2811497939
 20
-109.7253189649
 10
-30.4940048703
 20
-109.9988983719
 10
-30.7006868723
 20
-110.2795333971
 10
-30.900887348
 20
-110.5670444653
 10
-31.0944946881
 20
-110.8615531667
 10
-31.2813214924
 20
-111.1631023753
 10
-31.4610198583
 20
-111.4714775786
 10
-31.6332476631
 20
-111.7864393981
 10
-31.7977271065
 20
-112.1078044937
 10
-31.9541260785
 20
-112.4352589395
 10
-32.1020242941
 20
-112.7682766704
 10
-32.2412139138
 20
-113.1067220863
 10
-32.3714355933
 20
-113.4502767204
 10
-32.4922848961
 20
-113.7981378468
 10
-32.6036237503
 20
-114.1501401172
 10
-32.7052942565
 20
-114.5060576071
 10
-32.7969748319
 20
-114.8649647541
 10
-32.8785446137
 20
-115.2264382979
 10
-32.9499569777
 20
-115.5903173555
 10
-33.0110828127
 20
-115.9560232361
 10
-33.0618607288
 20
-116.3231730909
 10
-33.1022747734
 20
-116.6915682755
 10
-33.1322949708
 20
-117.060912763
 10
-33.1519019078
 20
-117.4309144753
 10
-33.1610872086
 20
-117.8012891405
 10
-33.1598421062
 20
-118.1717484273
 10
-33.1481687403
 20
-118.5419924801
 10
-33.1260848513
 20
-118.9117236355
 10
-33.0936078059
 20
-119.2806560511
 10
-33.0507620553
 20
-119.6485102353
 10
-32.9975878712
 20
-120.0149873673
 10
-32.9341309094
 20
-120.379775145
 10
-32.8604434444
 20
-120.7425918817
 10
-32.776597901
 20
-121.1031329013
 10
-32.6826805948
 20
-121.4610511376
 10
-32.5787917536
 20
-121.816002907
 10
-32.4650053355
 20
-122.1677902374
 10
-32.3413627329
 20
-122.5162866727
 10
-32.2079344518
 20
-122.861274299
 10
-32.0648558225
 20
-123.202405815
 10
-31.9122610808
 20
-123.5393547758
 10
-31.7502653293
 20
-123.8718594638
 10
-31.5789938634
 20
-124.1996702168
 10
-31.3986046952
 20
-124.5224875408
 10
-31.2092620366
 20
-124.8400322969
 10
-31.0111205289
 20
-125.1520735699
 10
-30.8043294758
 20
-125.4583823025
 10
-30.5890470878
 20
-125.7587203959
 10
-30.3654389258
 20
-126.0528653446
 10
-30.1336607358
 20
-126.3406134171
 10
-29.8938846898
 20
-126.62175215
 10
-29.6463263619
 20
-126.8960411652
 10
-29.391210254
 20
-127.1632333379
 10
-29.1287389233
 20
-127.4231132125
 10
-28.8591086676
 20
-127.6754941844
 10
-28.5825360238
 20
-127.9201780267
 10
-28.2992448666
 20
-128.1569736001
 10
-28.0094683268
 20
-128.3857018171
 10
-27.71343942
 20
-128.6061823817
 10
-27.411395741
 20
-128.8182353039
 10
-27.1035650712
 20
-129.021708173
 10
-26.790163245
 20
-129.2164614376
 10
-26.4714329089
 20
-129.4023459312
 10
-26.1476312249
 20
-129.5792208043
 10
-25.8189947594
 20
-129.7469555518
 10
-25.4857792933
 20
-129.9054112645
 10
-25.1482463291
 20
-130.0544656865
 10
-24.8066390754
 20
-130.194010069
 10
-24.4611990218
 20
-130.3239404472
 10
-24.1122140671
 20
-130.4441497135
 10
-23.7599982196
 20
-130.5545268225
 10
-23.4048456502
 20
-130.6549747369
 10
-23.0470259371
 20
-130.7454228767
 10
-22.6868170277
 20
-130.8258023364
  0
LWPOLYLINE
  5
224
100
AcDbEntity
  8
RACCORDO
100
AcDbPolyline
 62
253
  6
CONTINUOUS
 90
124
 70
0
 10
-16.7169069913
 20
-102.1888962074
 10
-17.0871299335
 20
-102.1162948763
 10
-17.4582859286
 20
-102.0525327767
 10
-17.8305117954
 20
-101.997593875
 10
-18.204357769
 20
-101.9514305369
 10
-18.579544601
 20
-101.9140510213
 10
-18.9549626582
 20
-101.8855389216
 10
-19.3306729022
 20
-101.8659406026
 10
-19.7068760711
 20
-101.855203513
 10
-20.0826655204
 20
-101.8532934649
 10
-20.458120657
 20
-101.8602485058
 10
-20.8334048406
 20
-101.8760479499
 10
-21.2077258949
 20
-101.9005955576
 10
-21.5811673274
 20
-101.933931967
 10
-21.9538635936
 20
-101.9760547699
 10
-22.3250843498
 20
-102.0268263708
 10
-22.6948922688
 20
-102.0862908004
 10
-23.0634133407
 20
-102.1544617285
 10
-23.4299956261
 20
-102.231176716
 10
-23.794704487
 20
-102.3164888484
 10
-24.1576313216
 20
-102.4104196693
 10
-24.518145302
 20
-102.5127780169
 10
-24.8762984572
 20
-102.6236281964
 10
-25.2321610924
 20
-102.7429965822
 10
-25.5851104851
 20
-102.8706523939
 10
-25.935144469
 20
-103.0066503525
 10
-26.2823507173
 20
-103.1510417711
 10
-26.6262221184
 20
-103.3036054166
 10
-26.9666694733
 20
-103.4643388876
 10
-27.3038313938
 20
-103.63336225
 10
-27.6375281902
 20
-103.8106463552
 10
-27.9678912804
 20
-103.9963093809
 10
-28.2948128188
 20
-104.1903517538
 10
-28.6177397484
 20
-104.3925757355
 10
-28.9366493766
 20
-104.6030556028
 10
-29.251550562
 20
-104.8218470685
 10
-29.561919179
 20
-105.0487354015
 10
-29.86769301
 20
-105.2837716109
 10
-30.1688841405
 20
-105.5270426719
 10
-30.4650631847
 20
-105.7783961168
 10
-30.7561873692
 20
-106.0379012874
 10
-31.0422160485
 20
-106.3056307245
 10
-31.3227077919
 20
-106.5814430821
 10
-31.5975982854
 20
-106.8653967907
 10
-31.8668348486
 20
-107.1575777861
 10
-32.1299787011
 20
-107.457891268
 10
-32.386984818
 20
-107.7664367846
 10
-32.6377482805
 20
-108.083259339
 10
-32.8817250123
 20
-108.408187122
 10
-33.1189160694
 20
-108.7414687243
 10
-33.3491353987
 20
-109.0829991982
 10
-33.5715395273
 20
-109.4320817973
 10
-33.7860086405
 20
-109.7889105594
 10
-33.9924373754
 20
-110.1534335872
 10
-34.1899852037
 20
-110.5245890215
 10
-34.3784841298
 20
-110.9025752133
 10
-34.5578437768
 20
-111.2873273422
 10
-34.7273280787
 20
-111.6773880255
 10
-34.886713552
 20
-112.0728951851
 10
-35.0359448739
 20
-112.4738275793
 10
-35.1745373416
 20
-112.8784831087
 10
-35.3022180846
 20
-113.2867531765
 10
-35.4189792266
 20
-113.6988381338
 10
-35.5247438024
 20
-114.1134896276
 10
-35.6193218543
 20
-114.5306167017
 10
-35.7026341369
 20
-114.9503735511
 10
-35.7747855385
 20
-115.3718691909
 10
-35.8356437447
 20
-115.7951268587
 10
-35.8850877585
 20
-116.220158578
 10
-35.9232576439
 20
-116.6460468336
 10
-35.9500278111
 20
-117.0728011834
 10
-35.9652914864
 20
-117.5004199956
 10
-35.9692379634
 20
-117.9279599525
 10
-35.9617544842
 20
-118.3553906571
 10
-35.9427474735
 20
-118.7827242704
 10
-35.9124580144
 20
-119.2090733485
 10
-35.8707927348
 20
-119.6343956176
 10
-35.8176676095
 20
-120.058690987
 10
-35.7533615372
 20
-120.4811286974
 10
-35.6777957781
 20
-120.9016718728
 10
-35.5909023664
 20
-121.3202932918
 10
-35.4930008243
 20
-121.7361715258
 10
-35.3840262647
 20
-122.1492612339
 10
-35.2639298323
 20
-122.5595245081
 10
-35.1330804754
 20
-122.9661474507
 10
-34.9914352682
 20
-123.3690607894
 10
-34.8389583864
 20
-123.7682343938
 10
-34.6760549174
 20
-124.1629111308
 10
-34.5027079157
 20
-124.5530055437
 10
-34.3188906106
 20
-124.9384907953
 10
-34.1250174918
 20
-125.3186973282
 10
-33.9210840268
 20
-125.6935513513
 10
-33.7070842093
 20
-126.0630044863
 10
-33.4834529346
 20
-126.4264263877
 10
-33.2501836475
 20
-126.7837619351
 10
-33.0073046048
 20
-127.1349371362
 10
-32.755325525
 20
-127.4792961827
 10
-32.4942735292
 20
-127.8167516967
 10
-32.2241769176
 20
-128.1472588828
 10
-31.9455692663
 20
-128.4702304816
 10
-31.6585051445
 20
-128.7855719126
 10
-31.3630165895
 20
-129.093245755
 10
-31.0596229134
 20
-129.3927563493
 10
-30.7483801521
 20
-129.6840276386
 10
-30.4293461794
 20
-129.9670061257
 10
-30.1030602509
 20
-130.2412368702
 10
-29.7695861509
 20
-130.5066489121
 10
-29.4289991628
 20
-130.7631887975
 10
-29.081871444
 20
-131.0104360389
 10
-28.7282804262
 20
-131.2483200993
 10
-28.3683106548
 20
-131.4767950336
 10
-28.0025589275
 20
-131.6954867419
 10
-27.6311122051
 20
-131.9043292564
 10
-27.2540654359
 20
-132.1032824157
 10
-26.8720393796
 20
-132.2920214906
 10
-26.485131501
 20
-132.4704852277
 10
-26.0934429198
 20
-132.638641331
 10
-25.6976096647
 20
-132.796220161
 10
-25.2977352683
 20
-132.9431681623
 10
-24.8939277965
 20
-133.0794596809
 10
-24.4868375373
 20
-133.2048793876
 10
-24.0767559777
 20
-133.3193370156
 10
-23.6636128581
 20
-133.4228607995
 10
-23.2475192362
 20
-133.515420172
  0
LWPOLYLINE
  5
225
100
AcDbEntity
  8
RACCORDO
100
AcDbPolyline
 62
253
  6
CONTINUOUS
 90
103
 70
0
 10
-51.8398710041
 20
-97.0027843946
 10
-51.639158458
 20
-97.136892397
 10
-51.4339398461
 20
-97.2648521488
 10
-51.2243987088
 20
-97.3864999857
 10
-51.0106632479
 20
-97.5017036659
 10
-50.7929811374
 20
-97.6102808172
 10
-50.5717268661
 20
-97.712007674
 10
-50.3471101737
 20
-97.8067557929
 10
-50.1193519872
 20
-97.8944090747
 10
-49.888861685
 20
-97.9747955116
 10
-49.6558906955
 20
-98.0478162501
 10
-49.4206668041
 20
-98.1133975361
 10
-49.1835746421
 20
-98.1714380211
 10
-48.9449132334
 20
-98.2218732216
 10
-48.7048620949
 20
-98.2646781653
 10
-48.463627047
 20
-98.2998264623
 10
-48.2214590843
 20
-98.3272849029
 10
-47.9785672378
 20
-98.3470338572
 10
-47.7350939644
 20
-98.3590601358
 10
-47.4912699838
 20
-98.3633394707
 10
-47.2473631661
 20
-98.3598628133
 10
-47.003590765
 20
-98.3486339522
 10
-46.760213797
 20
-98.3296513775
 10
-46.5175299413
 20
-98.3029249501
 10
-46.275775428
 20
-98.2684783413
 10
-46.0351330705
 20
-98.2263309261
 10
-45.7958334583
 20
-98.1765144435
 10
-45.5582013173
 20
-98.1190925251
 10
-45.3225076174
 20
-98.0541240278
 10
-45.0889770692
 20
-97.9816642509
 10
-44.8578642914
 20
-97.9017954202
 10
-44.6294278741
 20
-97.814605202
 10
-44.4038969757
 20
-97.720178436
 10
-44.1814837095
 20
-97.6186121891
 10
-43.9624200293
 20
-97.5100121892
 10
-43.7469578313
 20
-97.3944977737
 10
-43.5353052018
 20
-97.2721849119
 10
-43.327655618
 20
-97.1431871035
 10
-43.1241903445
 20
-97.007613449
 10
-42.9251042711
 20
-96.8655935942
 10
-42.7306240545
 20
-96.7172830164
 10
-42.5409434131
 20
-96.562817398
 10
-42.3562147879
 20
-96.4023202394
 10
-42.1766136701
 20
-96.2359344495
 10
-42.0023847841
 20
-96.0638676133
 10
-41.8337552973
 20
-95.8863439504
 10
-41.6708592564
 20
-95.7035071357
 10
-41.5138816619
 20
-95.515558103
 10
-41.3630910284
 20
-95.3228360594
 10
-41.2186175979
 20
-95.1255372942
 10
-41.0806118075
 20
-94.923886646
 10
-40.9493259172
 20
-94.7183070658
 10
-40.8248455064
 20
-94.5090136033
 10
-40.7072784285
 20
-94.2962588336
 10
-40.5968433754
 20
-94.0805548888
 10
-40.493599613
 20
-93.8621839206
 10
-40.3975700638
 20
-93.6413553489
 10
-40.3088555105
 20
-93.4184987048
 10
-40.227474336
 20
-93.1939165379
 10
-40.1534110161
 20
-92.9678237496
 10
-40.0866732934
 20
-92.7405324956
 10
-40.027236232
 20
-92.5123230405
 10
-39.9750574379
 20
-92.283417955
 10
-39.9300931604
 20
-92.054034023
 10
-39.8922962358
 20
-91.8244297241
 10
-39.8615978968
 20
-91.5947556275
 10
-39.8379229439
 20
-91.3650413129
 10
-39.8212183237
 20
-91.135519253
 10
-39.8114253893
 20
-90.9064118084
 10
-39.8084859666
 20
-90.6777473764
 10
-39.8123478207
 20
-90.4497097024
 10
-39.8229467794
 20
-90.2225368948
 10
-39.84022653
 20
-89.996329659
 10
-39.8641214544
 20
-89.7713124811
 10
-39.8945567333
 20
-89.5476551037
 10
-39.9314860903
 20
-89.3253746704
 10
-39.9748502403
 20
-89.1046463541
 10
-40.0245862772
 20
-88.8856334096
 10
-40.0806707451
 20
-88.668337009
 10
-40.1430721301
 20
-88.452841149
 10
-40.2117046959
 20
-88.2393887263
 10
-40.2864627149
 20
-88.0282383917
 10
-40.3672248084
 20
-87.8196747068
 10
-40.4539183649
 20
-87.6138293496
 10
-40.5465185337
 20
-87.4107038372
 10
-40.6449288934
 20
-87.2104782157
 10
-40.7490744884
 20
-87.0132852426
 10
-40.8589921458
 20
-86.8190585277
 10
-40.974653621
 20
-86.6278853039
 10
-41.095947742
 20
-86.4399940208
 10
-41.2227936819
 20
-86.2555423082
 10
-41.3551502659
 20
-86.0746248666
 10
-41.4928698995
 20
-85.8974858607
 10
-41.635676229
 20
-85.7244967774
 10
-41.7834376297
 20
-85.555801111
 10
-41.9360117527
 20
-85.3915510729
 10
-42.0930560989
 20
-85.2320929976
 10
-42.2544140897
 20
-85.0775377653
 10
-42.4199302568
 20
-84.9279868265
 10
-42.589229684
 20
-84.7837228544
 10
-42.7620612553
 20
-84.6448813112
 10
-42.938314042
 20
-84.5114701898
 10
-43.1178074437
 20
-84.3835583042
  0
LWPOLYLINE
  5
226
100
AcDbEntity
  8
RACCORDO
100
AcDbPolyline
 62
253
  6
CONTINUOUS
 90
103
 70
0
 10
-52.2544665986
 20
-97.6026281709
 10
-52.0329192242
 20
-97.7507238581
 10
-51.8066821848
 20
-97.8917705495
 10
-51.5758130609
 20
-98.0257300237
 10
-51.3401383909
 20
-98.152718512
 10
-51.0999466289
 20
-98.2725429369
 10
-50.8559917306
 20
-98.3847082007
 10
-50.6083120195
 20
-98.4891472651
 10
-50.3569915391
 20
-98.5858674708
 10
-50.1028573562
 20
-98.674500148
 10
-49.8459698241
 20
-98.7549833445
 10
-49.586391541
 20
-98.8273382172
 10
-49.3249536899
 20
-98.8913368619
 10
-49.0617813674
 20
-98.9469301843
 10
-48.7968672242
 20
-98.9941465369
 10
-48.5308414856
 20
-99.0328885679
 10
-48.2637714654
 20
-99.0631465588
 10
-47.9956985971
 20
-99.0849249184
 10
-47.7272102866
 20
-99.0981595167
 10
-47.4583099688
 20
-99.1028468876
 10
-47.1890917419
 20
-99.0989995768
 10
-46.9202732546
 20
-99.086590304
 10
-46.6518859849
 20
-99.0656186153
 10
-46.3839810501
 20
-99.0361110683
 10
-46.1172976993
 20
-98.9980949775
 10
-45.8518462476
 20
-98.9515689395
 10
-45.5876810738
 20
-98.8965766708
 10
-45.3255976119
 20
-98.8332275109
 10
-45.0656134907
 20
-98.7615307541
 10
-44.8077544179
 20
-98.6815354243
 10
-44.5528161753
 20
-98.593424611
 10
-44.3008177131
 20
-98.4972185466
 10
-44.0517597727
 20
-98.3929694189
 10
-43.8063980207
 20
-98.2809211534
 10
-43.564734519
 20
-98.1611036523
 10
-43.3267621878
 20
-98.0335705534
 10
-43.0932097168
 20
-97.8986126879
 10
-42.8640689874
 20
-97.7562662091
 10
-42.6393178532
 20
-97.6065868625
 10
-42.4196505938
 20
-97.4499045464
 10
-42.2050344371
 20
-97.2862508395
 10
-41.9954469304
 20
-97.1156913132
 10
-41.7915845115
 20
-96.9386149976
 10
-41.59338472
 20
-96.7550255215
 10
-41.4008302292
 20
-96.5650189437
 10
-41.2146717764
 20
-96.3691297848
 10
-41.0348568201
 20
-96.1673545183
 10
-40.861334097
 20
-95.9597962726
 10
-40.6948436698
 20
-95.747154512
 10
-40.5353429792
 20
-95.5294220955
 10
-40.3827499724
 20
-95.3067015051
 10
-40.2377355794
 20
-95.0798587259
 10
-40.1002726461
 20
-94.8488868904
 10
-39.9702487104
 20
-94.6138790715
 10
-39.8482014514
 20
-94.3758498511
 10
-39.7341347893
 20
-94.1348499632
 10
-39.6278985855
 20
-93.8909007431
 10
-39.5297998381
 20
-93.6449682236
 10
-39.4398318261
 20
-93.3971120308
 10
-39.3578572144
 20
-93.1473268571
 10
-39.2839924924
 20
-92.8964749414
 10
-39.2182173537
 20
-92.6446216834
 10
-39.1604169268
 20
-92.3917368075
 10
-39.1105744414
 20
-92.1385320745
 10
-39.0686556692
 20
-91.8850800382
 10
-39.0345725604
 20
-91.6313243278
 10
-39.0082371125
 20
-91.3777768332
 10
-38.9895985245
 20
-91.1244326829
 10
-38.9785987247
 20
-90.8712954507
 10
-38.9751487623
 20
-90.618883778
 10
-38.9792161047
 20
-90.3671610499
 10
-38.9907399777
 20
-90.1161457054
 10
-39.0096010707
 20
-89.866433196
 10
-39.0357696954
 20
-89.6180507443
 10
-39.0692019644
 20
-89.3709364906
 10
-39.1097699769
 20
-89.1255470428
 10
-39.1574469017
 20
-88.8818610225
 10
-39.2122041206
 20
-88.6398502972
 10
-39.2739231743
 20
-88.3999568338
 10
-39.3426374156
 20
-88.1620456161
 10
-39.4182760471
 20
-87.9261879771
 10
-39.500580674
 20
-87.693131453
 10
-39.5895436097
 20
-87.4629194136
 10
-39.6851635442
 20
-87.2354318935
 10
-39.7872094912
 20
-87.0111686314
 10
-39.895666396
 20
-86.7901302492
 10
-40.0105620283
 20
-86.5722289341
 10
-40.1317432776
 20
-86.3578298389
 10
-40.2592850277
 20
-86.146794176
 10
-40.3931421501
 20
-85.939163266
 10
-40.532996818
 20
-85.7355717664
 10
-40.6789880401
 20
-85.5358921054
 10
-40.8310308791
 20
-85.340146992
 10
-40.988493133
 20
-85.1491999941
 10
-41.1514780564
 20
-84.963035862
 10
-41.3199662393
 20
-84.7815651796
 10
-41.4931641898
 20
-84.6055492968
 10
-41.6711742972
 20
-84.4349916311
 10
-41.8540017289
 20
-84.2697910085
 10
-42.0407255768
 20
-84.1105658014
 10
-42.2310833983
 20
-83.9574979564
 10
-42.4254624777
 20
-83.81032344
 10
-42.6239240247
 20
-83.6689995896
  0
LWPOLYLINE
  5
227
100
AcDbEntity
  8
RACCORDO
100
AcDbPolyline
 62
253
  6
CONTINUOUS
 90
15
 70
0
 10
-77.4342887912
 20
-75.5204602687
 10
-77.6081439468
 20
-75.260874816
 10
-77.7741714296
 20
-74.9966169411
 10
-77.9323288031
 20
-74.7277586181
 10
-78.0826611636
 20
-74.4542051029
 10
-78.2250391864
 20
-74.1761947681
 10
-78.3591650272
 20
-73.8943013551
 10
-78.4849903297
 20
-73.6085932464
 10
-78.6024949932
 20
-73.3191497119
 10
-78.7114356398
 20
-73.0265636539
 10
-78.8117733499
 20
-72.7309023649
 10
-78.9034945967
 20
-72.4322460471
 10
-78.9864069818
 20
-72.1312076947
 10
-79.0604810459
 20
-71.827851907
 10
-79.0665880279
 20
-71.7992414108
  0
LWPOLYLINE
  5
228
100
AcDbEntity
  8
DRAFT
100
AcDbPolyline
 62
7
  6
CONTINUOUS
 90
100
 70
0
 10
-74.8592336485
 20
-73.7406526588
 10
-74.9947262346
 20
-73.5376116522
 10
-75.1233628978
 20
-73.3306044359
 10
-75.2451139025
 20
-73.1196829865
 10
-75.3600402188
 20
-72.9047194558
 10
-75.4680216216
 20
-72.6859450473
 10
-75.5687618679
 20
-72.4639518119
 10
-75.6622212762
 20
-72.2387857708
 10
-75.7483934204
 20
-72.0105066777
 10
-75.8270424036
 20
-71.7797290659
 10
-75.8981373341
 20
-71.5464918741
 10
-75.9616764119
 20
-71.3108604652
 10
-76.0174787373
 20
-71.073488876
 10
-76.0655180094
 20
-70.8344312223
 10
-76.1058026107
 20
-70.5937328612
 10
-76.1382154352
 20
-70.3520326218
 10
-76.1627418023
 20
-70.1093598701
 10
-76.1793928841
 20
-69.8657767518
 10
-76.1881024295
 20
-69.6219673355
 10
-76.1888602406
 20
-69.3779642212
 10
-76.1816881972
 20
-69.1338152203
 10
-76.1665806765
 20
-68.8902214533
 10
-76.1435343972
 20
-68.6472074157
 10
-76.1125791632
 20
-68.4048149842
 10
-76.0737715002
 20
-68.1637638686
 10
-76.0271175767
 20
-67.9240828253
 10
-75.9726520152
 20
-67.6857926957
 10
-75.9104860546
 20
-67.4495924523
 10
-75.8406250395
 20
-67.2154783448
 10
-75.7631168392
 20
-66.9834851278
 10
-75.6781480671
 20
-66.7543593287
 10
-75.5857373326
 20
-66.5281153048
 10
-75.4859310076
 20
-66.3047487171
 10
-75.3789681583
 20
-66.0849668574
 10
-75.2648620512
 20
-65.8687532877
 10
-75.1436733236
 20
-65.6561129133
 10
-75.0157217144
 20
-65.4477732955
 10
-74.8810554308
 20
-65.243751596
 10
-74.7397073108
 20
-65.0439965221
 10
-74.5919819269
 20
-64.8491214744
 10
-74.4378815125
 20
-64.6590685859
 10
-74.2774878685
 20
-64.4738408848
 10
-74.111231297
 20
-64.2941318887
 10
-73.9390891961
 20
-64.1198807685
 10
-73.7611697519
 20
-63.9510722914
 10
-73.5781047975
 20
-63.7884569963
 10
-73.3898489894
 20
-63.6319865929
 10
-73.1965318498
 20
-63.4816134815
 10
-72.999050657
 20
-63.3380794136
 10
-72.7974175531
 20
-63.2013949284
 10
-72.5916986943
 20
-63.0714382499
 10
-72.3828721685
 20
-62.9487469132
 10
-72.1709237158
 20
-62.8333206794
 10
-71.9559346939
 20
-62.7250412391
 10
-71.739022976
 20
-62.6242689879
 10
-71.5203708101
 20
-62.5310665236
 10
-71.2998476765
 20
-62.4452545602
 10
-71.0780968045
 20
-62.3668350611
 10
-70.8551294958
 20
-62.2957684588
 10
-70.6309703039
 20
-62.2319838454
 10
-70.4062765496
 20
-62.1754428299
 10
-70.1811853496
 20
-62.1261216723
 10
-69.9555795338
 20
-62.0839439055
 10
-69.729729908
 20
-62.048798502
 10
-69.5035603181
 20
-62.0206205406
 10
-69.277153372
 20
-61.9993819946
 10
-69.0510133971
 20
-61.9850337579
 10
-68.8252490918
 20
-61.97752739
 10
-68.5997439105
 20
-61.9768309011
 10
-68.3746600188
 20
-61.9829258133
 10
-68.1498549864
 20
-61.9957733051
 10
-67.9254511675
 20
-62.0153381141
 10
-67.7020035493
 20
-62.0416140207
 10
-67.4796045026
 20
-62.0745489354
 10
-67.2581274923
 20
-62.1141369365
 10
-67.0377944864
 20
-62.1604486472
 10
-66.8184382748
 20
-62.2134910307
 10
-66.6001789806
 20
-62.2732072059
 10
-66.3836648279
 20
-62.3395813282
 10
-66.1689392057
 20
-62.4125777731
 10
-65.9558975664
 20
-62.4922028324
 10
-65.7449612189
 20
-62.5785154136
 10
-65.5359683785
 20
-62.6715751225
 10
-65.3290058043
 20
-62.7713071543
 10
-65.1248632368
 20
-62.8775832246
 10
-64.9235417929
 20
-62.990411378
 10
-64.7249529285
 20
-63.1097945076
 10
-64.5297486397
 20
-63.2356143994
 10
-64.3377834107
 20
-63.3679952293
 10
-64.149103868
 20
-63.5068451558
 10
-63.9646497311
 20
-63.6517421907
 10
-63.7844160627
 20
-63.8027483292
 10
-63.6083035655
 20
-63.9598641922
 10
-63.4371139011
 20
-64.1225978474
 10
-63.2707987127
 20
-64.291062223
 10
-63.1093007716
 20
-64.4652312685
 10
-62.9534160215
 20
-64.6444243682
 10
-62.8033792159
 20
-64.8284548282
 10
-62.6588573909
 20
-65.0176197097
 10
-62.5197995306
 20
-65.2119736491
  0
LINE
  5
229
100
AcDbEntity
  8
0
100
AcDbLine
 62
253
  6
CONTINUOUS
 10
-90.0
 20
-175.0
 11
-90.0
 21
-195.0
  0
LWPOLYLINE
  5
22A
100
AcDbEntity
  8
RACCORDO
100
AcDbPolyline
 62
253
  6
CONTINUOUS
 90
118
 70
0
 10
-83.0595589822
 20
-4.6846485248
 10
-82.9978817813
 20
-4.3696033236
 10
-82.9437524235
 20
-4.052177861
 10
-82.8972735455
 20
-3.7325456914
 10
-82.8585341272
 20
-3.4107543655
 10
-82.8276494887
 20
-3.087123745
 10
-82.8047299902
 20
-2.7622482863
 10
-82.7898336929
 20
-2.4363173189
 10
-82.7830178503
 20
-2.1095515033
 10
-82.7843215263
 20
-1.7825776032
 10
-82.7937554747
 20
-1.4555804132
 10
-82.8113296111
 20
-1.1287260148
 10
-82.8370035804
 20
-0.8026410107
 10
-82.8707179427
 20
-0.4777147135
 10
-82.9124427304
 20
-0.154012864
 10
-82.9621466965
 20
0.1683298283
 10
-83.0197722254
 20
0.4890652429
 10
-83.0852898059
 20
0.8081191979
 10
-83.1587319237
 20
1.1256424158
 10
-83.2400955326
 20
1.4415676132
 10
-83.3292960767
 20
1.7555094975
 10
-83.4262394649
 20
2.0671031714
 10
-83.5308359043
 20
2.3760655859
 10
-83.6430587707
 20
2.6823368768
 10
-83.7629110672
 20
2.9859052408
 10
-83.8903237702
 20
3.2865638787
 10
-84.025237626
 20
3.584152597
 10
-84.1676999432
 20
3.8787163565
 10
-84.3176512523
 20
4.1700402946
 10
-84.4750248451
 20
4.4579199779
 10
-84.6398931203
 20
4.7424020241
 10
-84.8122014618
 20
5.0232819287
 10
-84.9918891291
 20
5.3003585266
 10
-85.1790303261
 20
5.5736402022
 10
-85.3735473229
 20
5.8428821206
 10
-85.5753444845
 20
6.1078194608
 10
-85.7844947733
 20
6.3684299326
 10
-86.0009717907
 20
6.6245506152
 10
-86.2246434413
 20
6.8758897483
 10
-86.4554863738
 20
7.1222774721
 10
-86.6935063322
 20
7.3635708435
 10
-86.938732383
 20
7.5996503003
 10
-87.1911831501
 20
7.8303813408
 10
-87.4506470913
 20
8.055417191
 10
-87.7170765027
 20
8.2745551571
 10
-87.99066573
 20
8.4877668563
 10
-88.271305639
 20
8.694788849
 10
-88.5588185974
 20
8.8953160079
 10
-88.8533175086
 20
9.0892329526
 10
-89.1548333822
 20
9.2763472867
 10
-89.463159272
 20
9.4563186299
 10
-89.7780765286
 20
9.6288179341
 10
-90.0994028147
 20
9.7935675175
 10
-90.4268266596
 20
9.9502368082
 10
-90.759850474
 20
10.0984175889
 10
-91.0983495748
 20
10.2379026847
 10
-91.4419933972
 20
10.3684242639
 10
-91.7899709816
 20
10.4895721429
 10
-92.1421251884
 20
10.6012089902
 10
-92.4982213642
 20
10.7031719608
 10
-92.857298367
 20
10.7951286492
 10
-93.2189208823
 20
10.8769567694
 10
-93.5829405085
 20
10.9486146811
 10
-93.948780874
 20
11.0099749248
 10
-94.3160465781
 20
11.0609752351
 10
-94.6845492467
 20
11.1016027487
 10
-95.0540290302
 20
11.1318311309
 10
-95.4242056175
 20
11.1516393042
 10
-95.7947828593
 20
11.1610158501
 10
-96.1654736279
 20
11.1599500744
 10
-96.5359878492
 20
11.1484413074
 10
-96.9060168816
 20
11.1265051186
 10
-97.2752449873
 20
11.0941598722
 10
-97.6433750957
 20
11.0514324974
 10
-98.0101246487
 20
10.9983625003
 10
-98.3752019734
 20
10.9349920818
 10
-98.7383118843
 20
10.8613748129
 10
-99.0991617331
 20
10.7775798095
 10
-99.4574619255
 20
10.68367601
 10
-99.8129340819
 20
10.5797365532
 10
-100.1653080038
 20
10.46584664
 10
-100.5143104694
 20
10.3420951202
 10
-100.8596680435
 20
10.208581653
 10
-101.2010928294
 20
10.065428254
 10
-101.5382876258
 20
9.9127625006
 10
-101.8709822669
 20
9.7507080195
 10
-102.1989380028
 20
9.5793895922
 10
-102.5219103883
 20
9.3989379174
 10
-102.8396374286
 20
9.2095050544
 10
-103.1518684499
 20
9.0112548506
 10
-103.4583716932
 20
8.8043368572
 10
-103.7589139866
 20
8.5889041612
 10
-104.0532653951
 20
8.3651258362
 10
-104.3412022035
 20
8.1331726542
 10
-104.6225187777
 20
7.8932119911
 10
-104.896967709
 20
7.6454661397
 10
-105.1642652848
 20
7.3901967622
 10
-105.4241759889
 20
7.1276348519
 10
-105.6765418057
 20
6.8579573444
 10
-105.9212011433
 20
6.5813461876
 10
-106.157957653
 20
6.2980333263
 10
-106.3866392043
 20
6.0082457547
 10
-106.6071121171
 20
5.7121536892
 10
-106.8192034016
 20
5.409974639
 10
-107.022743671
 20
5.1019494389
 10
-107.2175974427
 20
4.7882762887
 10
-107.4036339304
 20
4.4691510114
 10
-107.5806784826
 20
4.1448706758
 10
-107.7485347159
 20
3.8157894898
 10
-107.9070698653
 20
3.482160054
 10
-108.0561622702
 20
3.1442520573
 10
-108.1956508906
 20
2.8024535737
 10
-108.3254410419
 20
2.4570309471
 10
-108.4454490538
 20
2.1082607587
 10
-108.5555527665
 20
1.7565542052
 10
-108.655671416
 20
1.4022425918
 10
-108.7457692507
 20
1.0455697419
 10
-108.8258023364
 20
0.6868170277
  0
LWPOLYLINE
  5
22B
100
AcDbEntity
  8
RACCORDO
100
AcDbPolyline
 62
253
  6
CONTINUOUS
 90
118
 70
0
 10
-81.9966252786
 20
-4.9062373569
 10
-81.9301020098
 20
-4.5670575689
 10
-81.8719756388
 20
-4.2259144275
 10
-81.8222193976
 20
-3.8826924078
 10
-81.7806893732
 20
-3.5368034979
 10
-81.7474689442
 20
-3.1886056157
 10
-81.7228888929
 20
-2.8394003196
 10
-81.7070173494
 20
-2.4890677819
 10
-81.6997603992
 20
-2.1374959549
 10
-81.7012410601
 20
-1.7859997475
 10
-81.7115486098
 20
-1.4344758436
 10
-81.7306005646
 20
-1.0828089866
 10
-81.7582978394
 20
-0.7323073682
 10
-81.7946941254
 20
-0.3830715328
 10
-81.839776834
 20
-0.0348093975
 10
-81.8933751483
 20
0.3117440123
 10
-81.9555087647
 20
0.6565610572
 10
-82.0262161426
 20
0.9998325827
 10
-82.1053704406
 20
1.3411370853
 10
-82.1930633962
 20
1.6807039432
 10
-82.2892690359
 20
2.0184418196
 10
-82.3937012854
 20
2.3534306071
 10
-82.5063900391
 20
2.6855716882
 10
-82.627394957
 20
3.0150629484
 10
-82.7564919621
 20
3.3414094892
 10
-82.8937204638
 20
3.664613521
 10
-83.0391397621
 20
3.9847404143
 10
-83.19256608
 20
4.3013742012
 10
-83.3540506285
 20
4.6145317141
 10
-83.5236481835
 20
4.9242329613
 10
-83.7011891737
 20
5.230051771
 10
-83.8867387267
 20
5.5319980962
 10
-84.0803444398
 20
5.8300677653
 10
-84.2818188925
 20
6.1237981562
 10
-84.491235708
 20
6.4131828639
 10
-84.7086402637
 20
6.6982020309
 10
-84.9338108814
 20
6.9783569557
 10
-85.1668124283
 20
7.2536112571
 10
-85.4077043852
 20
7.5239420817
 10
-85.6562642228
 20
7.7888550765
 10
-85.9125636005
 20
8.0482975388
 10
-86.1766583953
 20
8.3022305139
 10
-86.448308278
 20
8.5501649006
 10
-86.7275671109
 20
8.792032238
 10
-87.0145093511
 20
9.0277775006
 10
-87.3089300669
 20
9.2569171156
 10
-87.6109066769
 20
9.4793867496
 10
-87.9204883275
 20
9.695096434
 10
-88.2374311581
 20
9.9035097403
 10
-88.5619638121
 20
10.1046077216
 10
-88.8939802709
 20
10.2982239862
 10
-89.2327377288
 20
10.4835850874
 10
-89.5784264426
 20
10.6605766896
 10
-89.9309730311
 20
10.8290943347
 10
-90.2892404018
 20
10.9883647865
 10
-90.6533770262
 20
11.1382071297
 10
-91.0233392488
 20
11.2785573798
 10
-91.3976989294
 20
11.4088103403
 10
-91.7765668795
 20
11.5287557427
 10
-92.1599177555
 20
11.6383464145
 10
-92.5461121696
 20
11.7372252121
 10
-92.9350576388
 20
11.8251593891
 10
-93.3269067668
 20
11.902128662
 10
-93.7203783966
 20
11.9681076071
 10
-94.1153682332
 20
12.0229287341
 10
-94.5120134426
 20
12.0665222158
 10
-94.9093857375
 20
12.0990264053
 10
-95.3074875038
 20
12.1203226645
 10
-95.7063231137
 20
12.1303115033
 10
-96.1049588802
 20
12.1291791665
 10
-96.5033856786
 20
12.1168166792
 10
-96.9015943804
 20
12.0931388767
 10
-97.2986438472
 20
12.0583893695
 10
-97.6944950067
 20
12.0124749129
 10
-98.0891453866
 20
11.9553230503
 10
-98.4817025593
 20
11.88723197
 10
-98.8721180699
 20
11.8081276278
 10
-99.2603779541
 20
11.7179493923
 10
-99.6456368296
 20
11.6170397126
 10
-100.0278410161
 20
11.5053406508
 10
-100.406963641
 20
11.3828081754
 10
-100.7821964433
 20
11.2498300856
 10
-101.1534834129
 20
11.1063642138
 10
-101.5207849003
 20
10.9523846722
 10
-101.8833157964
 20
10.7883284261
 10
-102.2409968914
 20
10.614177736
 10
-102.5937999446
 20
10.4299173118
 10
-102.9410166312
 20
10.2360119484
 10
-103.282568732
 20
10.0324641991
 10
-103.6184185383
 20
9.8192722627
 10
-103.947920387
 20
9.5969170507
 10
-104.2710055316
 20
9.3654072584
 10
-104.5876213574
 20
9.1247671221
 10
-104.8971498959
 20
8.8755223926
 10
-105.1995350974
 20
8.6176804826
 10
-105.494709566
 20
8.3512982051
 10
-105.7820439468
 20
8.0769968449
 10
-106.06142768
 20
7.7948512546
 10
-106.3328503801
 20
7.5048828143
 10
-106.5958399678
 20
7.2076517629
 10
-106.8503181166
 20
6.9032326441
 10
-107.0962461804
 20
6.5916726064
 10
-107.3332188925
 20
6.2735061697
 10
-107.5611780168
 20
5.9487949311
 10
-107.7800704589
 20
5.617621121
 10
-107.9895069133
 20
5.2805637988
 10
-108.1894467447
 20
4.9376537203
 10
-108.3798275081
 20
4.5890241965
 10
-108.5602381331
 20
4.2354213713
 10
-108.7306100905
 20
3.8769223564
 10
-108.890922671
 20
3.5136338154
 10
-109.04085037
 20
3.1463580421
 10
-109.1803309672
 20
2.7751782947
 10
-109.3093540179
 20
2.4002097175
 10
-109.4276873114
 20
2.0223109932
 10
-109.5352391347
 20
1.6418387976
 10
-109.6320496197
 20
1.2586444527
 10
-109.718093136
 20
0.8728320873
  0
LWPOLYLINE
  5
22C
100
AcDbEntity
  8
RACCORDO
100
AcDbPolyline
 62
253
  6
CONTINUOUS
 90
72
 70
0
 10
-75.0027843946
 20
29.8398710041
 10
-75.1365657668
 20
29.6396643491
 10
-75.2643348548
 20
29.4347992416
 10
-75.3859126025
 20
29.2254481383
 10
-75.5011820982
 20
29.0116684915
 10
-75.6099087562
 20
28.7937575237
 10
-75.7117685801
 20
28.5722693689
 10
-75.8066295319
 20
28.3474232715
 10
-75.8943795279
 20
28.1194325386
 10
-75.9747909687
 20
27.8888754093
 10
-76.047744118
 20
27.6561343713
 10
-76.11322678
 20
27.4213191269
 10
-76.1712022321
 20
27.1846084677
 10
-76.2216119852
 20
26.9462539116
 10
-76.2644162042
 20
26.706478419
 10
-76.2995950933
 20
26.4654118797
 10
-76.3271125907
 20
26.2232275014
 10
-76.3469264552
 20
25.980208246
 10
-76.3590079211
 20
25.7366492051
 10
-76.3633367574
 20
25.4928275293
 10
-76.3599109399
 20
25.2489650319
 10
-76.3487393722
 20
25.0052940662
 10
-76.3298278693
 20
24.7620930889
 10
-76.3031912469
 20
24.5196411706
 10
-76.2688525891
 20
24.2781349574
 10
-76.2268334165
 20
24.0377579906
 10
-76.1771668749
 20
23.7987377363
 10
-76.119907209
 20
23.5613548232
 10
-76.0551074134
 20
23.3258680461
 10
-75.9828228627
 20
23.0925140302
 10
-75.9031308503
 20
22.8615407737
 10
-75.8161133992
 20
22.6332006007
 10
-75.7218543197
 20
22.4077300377
 10
-75.6204537705
 20
22.1853549728
 10
-75.5120174723
 20
21.9663107186
 10
-75.3966619199
 20
21.7508470569
 10
-75.2745038115
 20
21.5391767874
 10
-75.1456534338
 20
21.3314905422
 10
-75.0102204467
 20
21.1279733077
 10
-74.8683425625
 20
20.9288331177
 10
-74.7201748886
 20
20.7342955911
 10
-74.5658536012
 20
20.5445549326
 10
-74.4055145001
 20
20.3597772761
 10
-74.2393088039
 20
20.1801436457
 10
-74.0674391408
 20
20.0058897873
 10
-73.8901231512
 20
19.8372344519
 10
-73.7075097166
 20
19.6743146753
 10
-73.5197956097
 20
19.5173100183
 10
-73.3272964107
 20
19.3664702176
 10
-73.1301987542
 20
19.221920742
 10
-72.9287339707
 20
19.0838196414
 10
-72.7233241822
 20
18.9524214105
 10
-72.5141749471
 20
18.8278080726
 10
-72.3015459557
 20
18.7100942364
 10
-72.0859751346
 20
18.5995138663
 10
-71.8677532257
 20
18.4961288988
 10
-71.6470820923
 20
18.3999568743
 10
-71.4243940018
 20
18.311098965
 10
-71.2000026797
 20
18.2295760076
 10
-70.9741125138
 20
18.155366502
 10
-70.7470050257
 20
18.0884687471
 10
-70.5189528303
 20
18.0288577263
 10
-70.2901846586
 20
17.9764944969
 10
-70.0609069637
 20
17.9313351704
 10
-69.8313667367
 20
17.8933335998
 10
-69.601725447
 20
17.8624257227
 10
-69.3720359441
 20
17.8385407895
 10
-69.1425347106
 20
17.8216265069
 10
-68.9134392019
 20
17.8116238252
 10
-68.6847871235
 20
17.8084746632
 10
-68.4567769854
 20
17.8121262667
 10
-68.3796209749
 20
17.8156545952
  0
LWPOLYLINE
  5
22D
100
AcDbEntity
  8
RACCORDO
100
AcDbPolyline
 62
253
  6
CONTINUOUS
 90
70
 70
0
 10
-75.6026281709
 20
30.2544665986
 10
-75.7503903101
 20
30.0334943748
 10
-75.8912215183
 20
29.8076436414
 10
-76.0250819397
 20
29.5769709473
 10
-76.1521281656
 20
29.341238942
 10
-76.2721228857
 20
29.1007980139
 10
-76.3844441707
 20
28.8565908618
 10
-76.4889988667
 20
28.6086552027
 10
-76.5858203345
 20
28.357076176
 10
-76.6744949278
 20
28.1028731322
 10
-76.754919762
 20
27.8462448112
 10
-76.8271615428
 20
27.5871157146
 10
-76.8910767882
 20
27.3260943508
 10
-76.9466450202
 20
27.0632604559
 10
-76.9938650109
 20
26.798651563
 10
-77.032633463
 20
26.5328106758
 10
-77.0629452424
 20
26.2657208166
 10
-77.0847972435
 20
25.9975081891
 10
-77.0981020383
 20
25.7289265495
 10
-77.1028445244
 20
25.4600289543
 10
-77.0990501174
 20
25.1908595944
 10
-77.0867067802
 20
24.9221526624
 10
-77.0658174368
 20
24.6539598003
 10
-77.0364065448
 20
24.3863112761
 10
-76.9985081316
 20
24.119901352
 10
-76.9521264919
 20
23.8547419649
 10
-76.8972998695
 20
23.5908854875
 10
-76.8341266539
 20
23.329077357
 10
-76.7626155784
 20
23.0693212896
 10
-76.682815451
 20
22.8116571984
 10
-76.5948984256
 20
22.5568734217
 10
-76.4988811046
 20
22.3049813427
 10
-76.3948185176
 20
22.0559897887
 10
-76.2829534624
 20
21.8106704748
 10
-76.1633159956
 20
21.5690290082
 10
-76.0359592102
 20
21.3310551207
 10
-75.901171962
 20
21.0974833463
 10
-75.758987049
 20
20.8683028251
 10
-75.6094632998
 20
20.643494495
 10
-75.4529384527
 20
20.4237670966
 10
-75.2894416436
 20
20.2090883482
 10
-75.1190408519
 20
19.9994354518
 10
-74.942140387
 20
19.7955178794
 10
-74.7587508152
 20
19.5972816494
 10
-74.5689613596
 20
19.4047009376
 10
-74.3733011481
 20
19.2185140645
 10
-74.1717737375
 20
19.0386714527
 10
-73.9644750941
 20
18.8651191037
 10
-73.7520777946
 20
18.6985762983
 10
-73.5345668192
 20
18.5389921696
 10
-73.3120523531
 20
18.3862934203
 10
-73.0853968613
 20
18.2411558253
 10
-72.8545831089
 20
18.1035483243
 10
-72.6197145295
 20
17.9733626146
 10
-72.3818333405
 20
17.8511532318
 10
-72.1409982825
 20
17.7369306703
 10
-71.8972227342
 20
17.6305384081
 10
-71.6514764177
 20
17.5322808821
 10
-71.4038316366
 20
17.4421541615
 10
-71.1542704174
 20
17.3600184517
 10
-70.9036207175
 20
17.2859797126
 10
-70.6519409189
 20
17.2200125796
 10
-70.399207937
 20
17.1620072483
 10
-70.1461206669
 20
17.1119513302
 10
-69.8927392648
 20
17.0698090723
 10
-69.6390200536
 20
17.0354935647
 10
-69.3854996854
 20
17.0089251509
 10
-69.1321783545
 20
16.9900557133
 10
-68.8790547543
 20
16.9788243495
 10
-68.6787110364
 20
16.9759017301
  0
LWPOLYLINE
  5
22E
100
AcDbEntity
  8
RACCORDO
100
AcDbPolyline
 62
253
  6
CONTINUOUS
 90
112
 70
0
 10
-41.3528782148
 20
-81.8300294497
 10
-41.1229567781
 20
-81.9933823247
 10
-40.8974378033
 20
-82.162845975
 10
-40.6762433893
 20
-82.3384762881
 10
-40.4589717345
 20
-82.5205569896
 10
-40.2458658335
 20
-82.7089117113
 10
-40.0378240503
 20
-82.9029153582
 10
-39.8348263602
 20
-83.1026715432
 10
-39.6367547041
 20
-83.3082016415
 10
-39.4443820097
 20
-83.5187736196
 10
-39.2577060314
 20
-83.7344886163
 10
-39.0766178247
 20
-83.9553781658
 10
-38.9017563742
 20
-84.1806169448
 10
-38.7331737385
 20
-84.4102338426
 10
-38.5707402615
 20
-84.644333415
 10
-38.4148487244
 20
-84.882209159
 10
-38.2655491739
 20
-85.1238459297
 10
-38.1227453239
 20
-85.3693852215
 10
-37.9866315458
 20
-85.6183557766
 10
-37.8572109824
 20
-85.8707860886
 10
-37.7344584141
 20
-86.1267623186
 10
-37.6185419588
 20
-86.3858976606
 10
-37.5094518239
 20
-86.6482722627
 10
-37.4071980017
 20
-86.9139079672
 10
-37.3119945904
 20
-87.1823277795
 10
-37.2238612065
 20
-87.4536041175
 10
-37.1428041361
 20
-87.7277531303
 10
-37.069035791
 20
-88.0042098534
 10
-37.0026063851
 20
-88.2829823588
 10
-36.9435194649
 20
-88.5641359589
 10
-36.8919348971
 20
-88.8471869891
 10
-36.8479015188
 20
-89.1321523117
 10
-36.8114480758
 20
-89.419071987
 10
-36.7827192655
 20
-89.7074919519
 10
-36.7617698344
 20
-89.9974280153
 10
-36.7486445676
 20
-90.2889039344
 10
-36.7434867591
 20
-90.5814719313
 10
-36.746358857
 20
-90.8751428376
 10
-36.7573183879
 20
-91.1699271381
 10
-36.7765137944
 20
-91.4653704777
 10
-36.8040262816
 20
-91.7615194449
 10
-36.8399134417
 20
-92.0583295847
 10
-36.8843008016
 20
-92.3552031851
 10
-36.9373083713
 20
-92.6522095799
 10
-36.9989738919
 20
-92.9492606584
 10
-37.0693124236
 20
-93.2455146579
 10
-37.1484688398
 20
-93.5409864189
 10
-37.2364737408
 20
-93.8356195997
 10
-37.3331817792
 20
-94.1284573848
 10
-37.438781346
 20
-94.4195380338
 10
-37.553270774
 20
-94.7087592363
 10
-37.6762259502
 20
-94.9949459801
 10
-37.8078136914
 20
-95.278025468
 10
-37.9480565512
 20
-95.5579858043
 10
-38.0963133439
 20
-95.8337387166
 10
-38.2526747613
 20
-96.1051199316
 10
-38.4172297506
 20
-96.372193656
 10
-38.5893268059
 20
-96.634213502
 10
-38.7690515952
 20
-96.8910770641
 10
-38.9564798326
 20
-97.142776477
 10
-39.1509331626
 20
-97.3887094915
 10
-39.3524731816
 20
-97.6287792236
 10
-39.5611766076
 20
-97.8629663178
 10
-39.7763737809
 20
-98.0907895243
 10
-39.9981178722
 20
-98.3121699177
 10
-40.2264683975
 20
-98.5270676894
 10
-40.4607502976
 20
-98.7350668523
 10
-40.7010140759
 20
-98.936100899
 10
-40.9472947445
 20
-99.1301182861
 10
-41.198878413
 20
-99.3167339471
 10
-41.4557984355
 20
-99.4958789421
 10
-41.7180783926
 20
-99.667508396
 10
-41.98497367
 20
-99.8312837711
 10
-42.2564814842
 20
-99.9871296668
 10
-42.5326323614
 20
-100.1350154014
 10
-42.812716076
 20
-100.2746812294
 10
-43.0967184273
 20
-100.406064678
 10
-43.3846535324
 20
-100.5291318277
 10
-43.675839303
 20
-100.6436780215
 10
-43.9702772509
 20
-100.7496567534
 10
-44.2679396689
 20
-100.8470293497
 10
-44.5680870558
 20
-100.9356163195
 10
-44.8707089535
 20
-101.0153703051
 10
-45.1757641589
 20
-101.0862679372
 10
-45.4824539533
 20
-101.1481810596
 10
-45.7906890031
 20
-101.2010610844
 10
-46.1004828887
 20
-101.2449038993
 10
-46.4111802046
 20
-101.2796631878
 10
-46.7227417095
 20
-101.305312722
 10
-47.0351116518
 20
-101.3218416549
 10
-47.3476010228
 20
-101.3292411493
 10
-47.6601575907
 20
-101.3274883206
 10
-47.9727213903
 20
-101.316586775
 10
-48.2845844185
 20
-101.2965826637
 10
-48.5956614406
 20
-101.2674641082
 10
-48.9059113088
 20
-101.229242856
 10
-49.2146867604
 20
-101.1820154346
 10
-49.5219110356
 20
-101.1257801222
 10
-49.8275241089
 20
-101.0605564264
 10
-50.1309005401
 20
-100.9864867381
 10
-50.431963932
 20
-100.9035766709
 10
-50.7306468126
 20
-100.8118559583
 10
-51.0263358195
 20
-100.7115166799
 10
-51.318951165
 20
-100.6025720926
 10
-51.6084250981
 20
-100.4850613596
 10
-51.8941630371
 20
-100.3592283328
 10
-52.1760860452
 20
-100.2250926979
 10
-52.4541253616
 20
-100.0827032404
 10
-52.7277045141
 20
-99.9323595931
 10
-52.9965842231
 20
-99.7741917151
 10
-53.2608601335
 20
-99.6081539567
 10
-53.5204602687
 20
-99.4342887912
  0
LWPOLYLINE
  5
22F
100
AcDbEntity
  8
DRAFT
100
AcDbPolyline
 62
7
  6
CONTINUOUS
 90
100
 70
0
 10
-43.2119736491
 20
-84.5197995306
 10
-43.017632646
 20
-84.6588476481
 10
-42.8284794706
 20
-84.8033596196
 10
-42.644459491
 20
-84.9533864464
 10
-42.465275705
 20
-85.1092608753
 10
-42.2911147571
 20
-85.2707483418
 10
-42.1226570971
 20
-85.4370534957
 10
-41.9599284734
 20
-85.6082338998
 10
-41.8028162488
 20
-85.784337548
 10
-41.6518130772
 20
-85.9645623309
 10
-41.5069187101
 20
-86.1490070736
 10
-41.3680707827
 20
-86.3376771738
 10
-41.2356908866
 20
-86.5296338671
 10
-41.1098704449
 20
-86.7248311575
 10
-40.9904856703
 20
-86.9234139151
 10
-40.8776555899
 20
-87.1247291872
 10
-40.7713777733
 20
-87.3288646253
 10
-40.6716437173
 20
-87.5358200032
 10
-40.5785811289
 20
-87.7448073018
 10
-40.4922642766
 20
-87.9557408907
 10
-40.4126340417
 20
-88.1687814234
 10
-40.3396324758
 20
-88.383505924
 10
-40.2732537226
 20
-88.6000178419
 10
-40.2135329774
 20
-88.8182748899
 10
-40.1604857496
 20
-89.03763048
 10
-40.1141686074
 20
-89.2579654047
 10
-40.0745748618
 20
-89.4794459658
 10
-40.0416344328
 20
-89.7018490971
 10
-40.0153533761
 20
-89.9253008474
 10
-39.9957836438
 20
-90.1497093383
 10
-39.9829316021
 20
-90.3745199534
 10
-39.9768324495
 20
-90.599610084
 10
-39.9775250637
 20
-90.825122422
 10
-39.9850282412
 20
-91.0508959491
 10
-39.9993741
 20
-91.2770486986
 10
-40.0206109279
 20
-91.5034704973
 10
-40.0487877445
 20
-91.7296537178
 10
-40.0839323211
 20
-91.9555134917
 10
-40.1261098718
 20
-92.1811282265
 10
-40.1754321647
 20
-92.4062305866
 10
-40.231976238
 20
-92.6309402665
 10
-40.2957652493
 20
-92.8551176332
 10
-40.366836602
 20
-93.0781012728
 10
-40.4452602054
 20
-93.2998637194
 10
-40.5310766632
 20
-93.5203965696
 10
-40.6242860823
 20
-93.7390612142
 10
-40.7250700679
 20
-93.9559926376
 10
-40.8333637159
 20
-94.1710041213
 10
-40.9488017598
 20
-94.3829690096
 10
-41.0714993364
 20
-94.5918002361
 10
-41.2014598766
 20
-94.7975177568
 10
-41.3381505249
 20
-94.9991518052
 10
-41.4816968909
 20
-95.1966416332
 10
-41.6320846273
 20
-95.3899696704
 10
-41.7885651802
 20
-95.5782307204
 10
-41.9511818849
 20
-95.7612901902
 10
-42.1199872481
 20
-95.939198524
 10
-42.294236645
 20
-96.1113312308
 10
-42.4739488145
 20
-96.2775838209
 10
-42.6591811011
 20
-96.437975181
 10
-42.8492354167
 20
-96.5920712349
 10
-43.0441049956
 20
-96.7397874326
 10
-43.2438513875
 20
-96.8811243377
 10
-43.4478677654
 20
-97.0157819108
 10
-43.6562098729
 20
-97.1437300981
 10
-43.8688561533
 20
-97.2649178521
 10
-44.0850723485
 20
-97.3790215333
 10
-44.3048492641
 20
-97.4859783266
 10
-44.5282075693
 20
-97.5857772081
 10
-44.7544460513
 20
-97.6781818431
 10
-44.9835729029
 20
-97.7631473575
 10
-45.2155699587
 20
-97.840653586
 10
-45.4496852832
 20
-97.9105120638
 10
-45.685880792
 20
-97.9726739789
 10
-45.9241635259
 20
-98.0271349896
 10
-46.1638390269
 20
-98.0737849277
 10
-46.4048891999
 20
-98.112589651
 10
-46.6472825691
 20
-98.1435424657
 10
-46.8902957484
 20
-98.1665864029
 10
-47.1338846155
 20
-98.1816915016
 10
-47.3780269028
 20
-98.1888612452
 10
-47.6220245189
 20
-98.1881013572
 10
-47.8658314039
 20
-98.179389928
 10
-48.1094132198
 20
-98.1627371538
 10
-48.3520836976
 20
-98.1382094209
 10
-48.5937794598
 20
-98.105795681
 10
-48.8344723702
 20
-98.0655105162
 10
-49.0735250899
 20
-98.0174708412
 10
-49.31089302
 20
-97.9616681393
 10
-49.5465212922
 20
-97.8981288316
 10
-49.7797550961
 20
-97.8270340009
 10
-50.0105285684
 20
-97.7483856105
 10
-50.2388032762
 20
-97.6622143962
 10
-50.4639654212
 20
-97.5687559576
 10
-50.6859555706
 20
-97.4680166123
 10
-50.9047273847
 20
-97.3600361396
 10
-51.1196885877
 20
-97.2451107903
 10
-51.3306079015
 20
-97.1233607914
 10
-51.5376132505
 20
-96.9947251664
 10
-51.7406526588
 20
-96.8592336485
  0
LWPOLYLINE
  5
230
100
AcDbEntity
  8
RACCORDO
100
AcDbPolyline
 62
253
  6
CONTINUOUS
 90
103
 70
0
 10
-62.3835583042
 20
-65.1178074437
 10
-62.5114965095
 20
-64.9382781532
 10
-62.6449243487
 20
-64.7620059625
 10
-62.7837720889
 20
-64.5891701275
 10
-62.9280273083
 20
-64.4198842193
 10
-63.0775563603
 20
-64.2543942695
 10
-63.2320859521
 20
-64.0930633265
 10
-63.3915135916
 20
-63.936047594
 10
-63.5557274992
 20
-63.7835040573
 10
-63.7243928225
 20
-63.6357646764
 10
-63.8973584095
 20
-63.4929720247
 10
-64.0744794866
 20
-63.3552599406
 10
-64.2553938969
 20
-63.2228990081
 10
-64.4398661022
 20
-63.0960330073
 10
-64.6277933702
 20
-62.9747111078
 10
-64.8190016524
 20
-62.8590255105
 10
-65.0132674576
 20
-62.7490842757
 10
-65.2104961328
 20
-62.6449197583
 10
-65.4107164654
 20
-62.5465125616
 10
-65.6137716703
 20
-62.4539436594
 10
-65.8195000064
 20
-62.36729535
 10
-66.0279258371
 20
-62.2865785196
 10
-66.2388828061
 20
-62.2118757345
 10
-66.4521181845
 20
-62.1432932401
 10
-66.6675040419
 20
-62.0808988976
 10
-66.8848815462
 20
-62.0247686323
 10
-67.1040859301
 20
-61.974968828
 10
-67.3249985455
 20
-61.9315541778
 10
-67.5474279499
 20
-61.8945910846
 10
-67.7712249824
 20
-61.8641321883
 10
-67.9963338625
 20
-61.8402262265
 10
-68.2225443181
 20
-61.8229463547
 10
-68.4496680024
 20
-61.8123492841
 10
-68.6776807294
 20
-61.8084861936
 10
-68.9063719722
 20
-61.8114241267
 10
-69.1355280513
 20
-61.8212187199
 10
-69.3651111191
 20
-61.8379291452
 10
-69.5949071473
 20
-61.8616159153
 10
-69.8246731142
 20
-61.8923326183
 10
-70.0543424414
 20
-61.9301488323
 10
-70.283748977
 20
-61.9751275103
 10
-70.512648648
 20
-62.0273155968
 10
-70.7408340194
 20
-62.0867568327
 10
-70.968073881
 20
-62.1534887475
 10
-71.1940970172
 20
-62.2275365414
 10
-71.4186254223
 20
-62.3089037803
 10
-71.6414528759
 20
-62.397610789
 10
-71.8622653341
 20
-62.4936364295
 10
-72.0806362939
 20
-62.5968833612
 10
-72.2963671969
 20
-62.7073361143
 10
-72.5091638615
 20
-62.8249316134
 10
-72.7184850096
 20
-62.9494356621
 10
-72.9240715312
 20
-63.0807341952
 10
-73.1257167742
 20
-63.2187445436
 10
-73.3229930715
 20
-63.3632097298
 10
-73.515667324
 20
-63.5139699917
 10
-73.7035561142
 20
-63.670901552
 10
-73.8863454658
 20
-63.8337568069
 10
-74.0638391342
 20
-64.0023569893
 10
-74.2358866272
 20
-64.1765634669
 10
-74.4022694282
 20
-64.3561578763
 10
-74.562785242
 20
-64.5409052007
 10
-74.7172845426
 20
-64.7306259892
 10
-74.8656318903
 20
-64.9251561427
 10
-75.007691455
 20
-65.1243036321
 10
-75.1433068034
 20
-65.3278417367
 10
-75.2723369779
 20
-65.5355587355
 10
-75.3946750483
 20
-65.7472759707
 10
-75.5102076307
 20
-65.9627987936
 10
-75.6188082559
 20
-66.1818955746
 10
-75.7203591229
 20
-66.4043103118
 10
-75.8147592414
 20
-66.6298131509
 10
-75.9019088757
 20
-66.858176052
 10
-75.9817213987
 20
-67.089151123
 10
-76.0541213611
 20
-67.3224984823
 10
-76.119042034
 20
-67.5580057178
 10
-76.1764275628
 20
-67.7954469229
 10
-76.2262202933
 20
-68.034556114
 10
-76.2683649633
 20
-68.2750618717
 10
-76.3028282061
 20
-68.5167642484
 10
-76.3295798198
 20
-68.7594528385
 10
-76.348588531
 20
-69.0028567888
 10
-76.3598422541
 20
-69.2466803267
 10
-76.3633403932
 20
-69.4906636036
 10
-76.3590781606
 20
-69.7345543993
 10
-76.3470659592
 20
-69.9780757574
 10
-76.3273289388
 20
-70.2210064042
 10
-76.2998822842
 20
-70.4631961178
 10
-76.2647479696
 20
-70.7044312796
 10
-76.2219600681
 20
-70.9444673014
 10
-76.1715445836
 20
-71.1831072212
 10
-76.1135274887
 20
-71.420170282
 10
-76.0479731722
 20
-71.6553605481
 10
-75.974978648
 20
-71.8883083616
 10
-75.8946156927
 20
-72.1187885214
 10
-75.8069825821
 20
-72.3465476674
 10
-75.7122469166
 20
-72.5711839193
 10
-75.610522475
 20
-72.7924768531
 10
-75.5019358089
 20
-73.010215805
 10
-75.3867057539
 20
-73.224030972
 10
-75.2650112677
 20
-73.4336753822
 10
-75.1369835267
 20
-73.6390172669
 10
-75.0027843946
 20
-73.8398710041
  0
LWPOLYLINE
  5
231
100
AcDbEntity
  8
RACCORDO
100
AcDbPolyline
 62
253
  6
CONTINUOUS
 90
103
 70
0
 10
-61.6689995896
 20
-64.6239240247
 10
-61.8103598559
 20
-64.4254187981
 10
-61.9575565427
 20
-64.2310127781
 10
-62.1106324779
 20
-64.0406448915
 10
-62.269848905
 20
-63.8539331963
 10
-62.4350270074
 20
-63.6711351214
 10
-62.605557307
 20
-63.493156086
 10
-62.7815400833
 20
-63.3199889127
 10
-62.9629728067
 20
-63.1515333544
 10
-63.149105482
 20
-62.9885733972
 10
-63.3400277315
 20
-62.8311260401
 10
-63.5357544548
 20
-62.6790902769
 10
-63.7354325253
 20
-62.5330955286
 10
-63.9390491656
 20
-62.3932205605
 10
-64.1467218777
 20
-62.2593320306
 10
-64.3577965268
 20
-62.131762871
 10
-64.5722405607
 20
-62.0105584898
 10
-64.7901840749
 20
-61.8956437421
 10
-65.0112163575
 20
-61.7871868263
 10
-65.2354020012
 20
-61.6851729989
 10
-65.462763701
 20
-61.5896056452
 10
-65.692825891
 20
-61.5006939891
 10
-65.9256684978
 20
-61.4184421
 10
-66.1612880146
 20
-61.3428556433
 10
-66.3990809574
 20
-61.2741621293
 10
-66.6390672726
 20
-61.212405158
 10
-66.8812908941
 20
-61.1575751904
 10
-67.1251804408
 20
-61.1098362394
 10
-67.3707362467
 20
-61.0692341613
 10
-67.6180075686
 20
-61.0357791332
 10
-67.8664917194
 20
-61.0095956701
 10
-68.1162080992
 20
-60.99072981
 10
-68.3671717222
 20
-60.9792104551
 10
-68.6188681388
 20
-60.9751487567
 10
-68.8713103731
 20
-60.9786006053
 10
-69.1245037191
 20
-60.9896028123
 10
-69.3779164874
 20
-61.0082493161
 10
-69.6315549724
 20
-61.0346026966
 10
-69.8854142416
 20
-61.0687091378
 10
-70.138939731
 20
-61.1106483501
 10
-70.3921702972
 20
-61.1605076567
 10
-70.6450507392
 20
-61.2183225024
 10
-70.8968788618
 20
-61.2841044143
 10
-71.1476759367
 20
-61.3579628314
 10
-71.3973854953
 20
-61.4399236299
 10
-71.6451818596
 20
-61.529881327
 10
-71.89108214
 20
-61.6279747181
 10
-72.1350149798
 20
-61.7342088794
 10
-72.376015644
 20
-61.8482830812
 10
-72.6140738068
 20
-61.9703552509
 10
-72.8491277201
 20
-62.1004136801
 10
-73.080131037
 20
-62.2379036497
 10
-73.3069807793
 20
-62.3829345816
 10
-73.5296937043
 20
-62.5355366839
 10
-73.7474017956
 20
-62.6950310639
 10
-73.9599923225
 20
-62.86148951
 10
-74.1674828013
 20
-63.0349646543
 10
-74.3692026524
 20
-63.2147390132
 10
-74.5650566008
 20
-63.400866968
 10
-74.7550403037
 20
-63.5933979833
 10
-74.9386243902
 20
-63.7915948082
 10
-75.1157191168
 20
-63.9954826328
 10
-75.2863142984
 20
-64.2051163433
 10
-75.450006696
 20
-64.4197898692
 10
-75.6067298701
 20
-64.6395280831
 10
-75.756452917
 20
-64.8643615014
 10
-75.8988341879
 20
-65.0935790192
 10
-76.0338164057
 20
-65.3272056169
 10
-76.1613649611
 20
-65.5652464988
 10
-76.2811821979
 20
-65.8069472443
 10
-76.3932110361
 20
-66.0523120778
 10
-76.4974254995
 20
-66.3013413476
 10
-76.5935862696
 20
-66.553261305
 10
-76.6816357306
 20
-66.8080485535
 10
-76.7615600857
 20
-67.065706135
 10
-76.8331984195
 20
-67.3254874055
 10
-76.8965076083
 20
-67.587362928
 10
-76.951472586
 20
-67.8513189244
 10
-76.9979876959
 20
-68.1166210916
 10
-77.0360148029
 20
-68.3832470237
 10
-77.0655484552
 20
-68.6511552228
 10
-77.0865460797
 20
-68.9195729038
 10
-77.0989768736
 20
-69.188450644
 10
-77.1028449937
 20
-69.4577554547
 10
-77.0981750531
 20
-69.7267309724
 10
-77.084952439
 20
-69.9952720526
 10
-77.0631829673
 20
-70.2633861483
 10
-77.0329351628
 20
-70.5304799051
 10
-76.994205778
 20
-70.7965060828
 10
-76.9470037521
 20
-71.0614030935
 10
-76.8914278736
 20
-71.3245521168
 10
-76.8274520807
 20
-71.5859584672
 10
-76.7551233129
 20
-71.8454991239
 10
-76.6746639584
 20
-72.1023605085
 10
-76.586053636
 20
-72.3564828428
 10
-76.4893532778
 20
-72.6078029745
 10
-76.3849230802
 20
-72.8555029447
 10
-76.2727531153
 20
-73.099504592
 10
-76.1529125823
 20
-73.339763557
 10
-76.0258952262
 20
-73.575517028
 10
-75.8918936462
 20
-73.8064735132
 10
-75.7507919165
 20
-74.0328092733
 10
-75.6026281709
 20
-74.2544665986
  0
LINE
  5
232
100
AcDbEntity
  8
0
100
AcDbLine
 62
7
  6
CONTINUOUS
 10
-9.4203351535
 20
183.3551878629
 11
-139.4203351535
 21
-181.6448121371
  0
LINE
  5
233
100
AcDbEntity
  8
0
100
AcDbLine
 62
7
  6
CONTINUOUS
 10
9.4203351535
 20
176.6448121371
 11
-120.5796648465
 21
-188.3551878629
  0
LWPOLYLINE
  5
234
100
AcDbEntity
  8
RACCORDO
100
AcDbPolyline
 62
253
  6
CONTINUOUS
 90
54
 70
0
 10
-95.3684335176
 20
-57.9606267747
 10
-95.4915328985
 20
-57.9650897893
 10
-95.9192270477
 20
-57.9692724707
 10
-96.3468346407
 20
-57.9620164715
 10
-96.7743615896
 20
-57.9432277108
 10
-97.200912367
 20
-57.9131460405
 10
-97.6264506408
 20
-57.8716758054
 10
-98.0509704812
 20
-57.8187347219
 10
-98.4736153215
 20
-57.7546068445
 10
-98.8943384553
 20
-57.6792141678
 10
-99.3131225007
 20
-57.5924881687
 10
-99.7291497091
 20
-57.4947518901
 10
-100.1423638229
 20
-57.3859453202
 10
-100.5527378894
 20
-57.2660149814
 10
-100.9594945035
 20
-57.1353186405
 10
-101.3625746236
 20
-56.9938117959
 10
-101.7619378837
 20
-56.8414593554
 10
-102.1568328865
 20
-56.6786580986
 10
-102.5471945058
 20
-56.5053791967
 10
-102.9329753845
 20
-56.3216065372
 10
-103.3134504681
 20
-56.1277807988
 10
-103.6885347854
 20
-55.9238990894
 10
-104.0581911389
 20
-55.7099544532
 10
-104.4217674665
 20
-55.4864053067
 10
-104.77917082
 20
-55.253274486
 10
-105.1303654953
 20
-55.010562691
 10
-105.4747879108
 20
-54.7587166978
 10
-105.812373844
 20
-54.4977538407
 10
-106.1430548745
 20
-54.227710539
 10
-106.4662650949
 20
-53.9490823906
 10
-106.7819486263
 20
-53.6618826453
 10
-107.0900279505
 20
-53.3661819406
 10
-107.3899108853
 20
-53.0625826194
 10
-107.6814824525
 20
-52.7511756727
 10
-107.9647282978
 20
-52.4319853451
 10
-108.2392145685
 20
-52.1055322719
 10
-108.5048769905
 20
-51.7718742081
 10
-108.7616551299
 20
-51.431092661
 10
-109.0091289216
 20
-51.0837592258
 10
-109.2472367033
 20
-50.7299338839
 10
-109.4759232663
 20
-50.3697188132
 10
-109.6947882352
 20
-50.0037633578
 10
-109.903750251
 20
-49.6321799826
 10
-110.1027855151
 20
-49.255039502
 10
-110.2915909715
 20
-48.8729409083
 10
-110.4701072211
 20
-48.4859856792
 10
-110.6383005752
 20
-48.0942713947
 10
-110.7959176263
 20
-47.6984004198
 10
-110.9429087111
 20
-47.2984739106
 10
-111.0792440011
 20
-46.8946022438
 10
-111.2047116449
 20
-46.4874087652
 10
-111.3192221125
 20
-46.0771759217
 10
-111.4228019596
 20
-45.6638423952
 10
-111.515420172
 20
-45.2475192362
  0
LINE
  5
235
100
AcDbEntity
  8
0
100
AcDbLine
 62
253
  6
CONTINUOUS
 10
-10.0
 20
-62.0
 11
10.0
 21
-62.0
  0
LWPOLYLINE
  5
236
100
AcDbEntity
  8
RACCORDO
100
AcDbPolyline
 62
253
  6
CONTINUOUS
 90
30
 70
0
 10
-36.7513223116
 20
47.0090046389
 10
-36.7465074033
 20
46.8815311283
 10
-36.7434628643
 20
46.5879762679
 10
-36.7484423128
 20
46.2954680574
 10
-36.7613851019
 20
46.004012131
 10
-36.7821565607
 20
45.7140624072
 10
-36.8107165206
 20
45.4255791012
 10
-36.8470046712
 20
45.1385627004
 10
-36.8908702531
 20
44.8535217585
 10
-36.94228504
 20
44.5704349027
 10
-37.0012002062
 20
44.2892666078
 10
-37.0674497014
 20
44.0104989363
 10
-37.1410136043
 20
43.7341032165
 10
-37.221858892
 20
43.4600348731
 10
-37.3098157935
 20
43.1887475931
 10
-37.4048786463
 20
42.9201919284
 10
-37.5070242928
 20
42.6543288912
 10
-37.6160731425
 20
42.3916240706
 10
-37.7320529583
 20
42.131990437
 10
-37.8549318259
 20
41.8754124301
 10
-37.9844592936
 20
41.6224601038
 10
-38.1206727077
 20
41.3730721731
 10
-38.2635590543
 20
41.1271950658
 10
-38.412813138
 20
40.8854093261
 10
-38.5684244886
 20
40.6477200151
 10
-38.7304569476
 20
40.4139977963
 10
-38.8987347389
 20
40.1846212917
 10
-39.0734167534
 20
39.9593916219
 10
-39.2544166283
 20
39.7383729238
 10
-39.4014110561
 20
39.5683708562
  0
LWPOLYLINE
  5
237
100
AcDbEntity
  8
DRAFT
100
AcDbPolyline
 62
7
  6
CONTINUOUS
 90
54
 70
0
 10
-94.2757458313
 20
-54.8926959631
 10
-94.3224739355
 20
-54.8992221459
 10
-94.6938113989
 20
-54.9403709703
 10
-95.065954419
 20
-54.9707731813
 10
-95.4390501651
 20
-54.9903883512
 10
-95.8120576944
 20
-54.9993914236
 10
-96.1848225095
 20
-54.9976881139
 10
-96.5574903539
 20
-54.9851908123
 10
-96.9294638166
 20
-54.9621018503
 10
-97.3008849121
 20
-54.9283193731
 10
-97.6715819237
 20
-54.8837814638
 10
-98.0404809936
 20
-54.8287700695
 10
-98.4074204473
 20
-54.7632298308
 10
-98.772511876
 20
-54.6870844722
 10
-99.1350864918
 20
-54.600606117
 10
-99.4952241708
 20
-54.5036987845
 10
-99.8527775305
 20
-54.3963511222
 10
-100.206733643
 20
-54.2789850031
 10
-100.5569078922
 20
-54.1516017346
 10
-100.9034026584
 20
-54.0141301724
 10
-101.2456336536
 20
-53.8669062764
 10
-101.5836537113
 20
-53.7098518132
 10
-101.91731537
 20
-53.543000799
 10
-102.2457338331
 20
-53.3668799167
 10
-102.5687352102
 20
-53.1815394665
 10
-102.8863908371
 20
-52.9869228761
 10
-103.1981850954
 20
-52.7834183069
 10
-103.5041469571
 20
-52.5709653933
 10
-103.8041378923
 20
-52.3496433466
 10
-104.097394165
 20
-52.1200703914
 10
-104.3837571162
 20
-51.8823384955
 10
-104.6632750289
 20
-51.6364101871
 10
-104.935499124
 20
-51.3827292785
 10
-105.2004304317
 20
-51.1212635465
 10
-105.4579560882
 20
-50.8521227754
 10
-105.707462543
 20
-50.5759814746
 10
-105.9488209764
 20
-50.2929564256
 10
-106.182053928
 20
-50.0030384244
 10
-106.4067823029
 20
-49.7067293871
 10
-106.6229859985
 20
-49.40402882
 10
-106.8305827132
 20
-49.0950643916
 10
-107.0291086612
 20
-48.7805441766
 10
-107.2184677195
 20
-48.4605941939
 10
-107.3986643036
 20
-48.1352382157
 10
-107.5693953325
 20
-47.8050432529
 10
-107.7306269856
 20
-47.4700454322
 10
-107.8823101958
 20
-47.1303731958
 10
-108.0241296555
 20
-46.7867416247
 10
-108.1560218429
 20
-46.4392681833
 10
-108.2779815042
 20
-46.0880140912
 10
-108.3897925792
 20
-45.7336177286
 10
-108.4913669165
 20
-45.3763553746
 10
-108.5827383694
 20
-45.0161384434
 10
-108.6638800023
 20
-44.6530612245
  0
LINE
  5
238
100
AcDbEntity
  8
RACCORDO
100
AcDbLine
 62
253
  6
CONTINUOUS
 10
-112.5796954979
 20
-45.4693877551
 11
-111.515420172
 21
-45.2475192362
  0
LINE
  5
239
100
AcDbEntity
  8
RACCORDO
100
AcDbLine
 62
253
  6
CONTINUOUS
 10
112.5796954979
 20
1.4693877551
 11
111.515420172
 21
1.2475192362
  0
LINE
  5
23A
100
AcDbEntity
  8
RACCORDO
100
AcDbLine
 62
253
  6
CONTINUOUS
 10
83.2110792811
 20
-4.6530612245
 11
81.9966252786
 21
-4.9062373569
  0
LINE
  5
23B
100
AcDbEntity
  8
RACCORDO
100
AcDbLine
 62
253
  6
CONTINUOUS
 10
79.2952637855
 20
-5.4693877551
 11
80.1888962074
 21
-5.2830930087
  0
LINE
  5
23C
100
AcDbEntity
  8
RACCORDO
100
AcDbLine
 62
253
  6
CONTINUOUS
 10
108.6638800023
 20
0.6530612245
 11
109.718093136
 21
0.8728320873
  0
LINE
  5
23D
100
AcDbEntity
  8
RACCORDO
100
AcDbLine
 62
253
  6
CONTINUOUS
 10
-108.6638800023
 20
-44.6530612245
 11
-109.718093136
 21
-44.8728320873
  0
LINE
  5
23E
100
AcDbEntity
  8
RACCORDO
100
AcDbLine
 62
253
  6
CONTINUOUS
 10
-112.5796954979
 20
1.4693877551
 11
-111.515420172
 21
1.2475192362
  0
LINE
  5
23F
100
AcDbEntity
  8
RACCORDO
100
AcDbLine
 62
253
  6
CONTINUOUS
 10
112.5796954979
 20
-45.4693877551
 11
111.515420172
 21
-45.2475192362
  0
LINE
  5
240
100
AcDbEntity
  8
RACCORDO
100
AcDbLine
 62
253
  6
CONTINUOUS
 10
-83.2110792811
 20
-4.6530612245
 11
-81.9966252786
 21
-4.9062373569
  0
LINE
  5
241
100
AcDbEntity
  8
RACCORDO
100
AcDbLine
 62
253
  6
CONTINUOUS
 10
83.2110792811
 20
-39.3469387755
 11
81.9966252786
 21
-39.0937626431
  0
LINE
  5
242
100
AcDbEntity
  8
RACCORDO
100
AcDbLine
 62
253
  6
CONTINUOUS
 10
79.2952637855
 20
-38.5306122449
 11
80.1888962074
 21
-38.7169069913
  0
LINE
  5
243
100
AcDbEntity
  8
RACCORDO
100
AcDbLine
 62
253
  6
CONTINUOUS
 10
-79.2952637855
 20
-5.4693877551
 11
-80.1888962074
 21
-5.2830930087
  0
LINE
  5
244
100
AcDbEntity
  8
RACCORDO
100
AcDbLine
 62
253
  6
CONTINUOUS
 10
108.6638800023
 20
-44.6530612245
 11
109.718093136
 21
-44.8728320873
  0
LINE
  5
245
100
AcDbEntity
  8
RACCORDO
100
AcDbLine
 62
253
  6
CONTINUOUS
 10
-108.6638800023
 20
0.6530612245
 11
-109.718093136
 21
0.8728320873
  0
LINE
  5
246
100
AcDbEntity
  8
RACCORDO
100
AcDbLine
 62
253
  6
CONTINUOUS
 10
78.1497494133
 20
-76.0149670614
 11
77.4342887912
 21
-75.5204602687
  0
LINE
  5
247
100
AcDbEntity
  8
RACCORDO
100
AcDbLine
 62
253
  6
CONTINUOUS
 10
-78.1497494133
 20
32.0149670614
 11
-77.4342887912
 21
31.5204602687
  0
LINE
  5
248
100
AcDbEntity
  8
RACCORDO
100
AcDbLine
 62
253
  6
CONTINUOUS
 10
62.5197995306
 20
-65.2119736491
 11
61.6689995896
 21
-64.6239240247
  0
LINE
  5
249
100
AcDbEntity
  8
RACCORDO
100
AcDbLine
 62
253
  6
CONTINUOUS
 10
59.2292837658
 20
-62.9376592465
 11
59.8300294497
 21
-63.3528782148
  0
LINE
  5
24A
100
AcDbEntity
  8
RACCORDO
100
AcDbLine
 62
253
  6
CONTINUOUS
 10
-74.8592336485
 20
29.7406526588
 11
-75.6026281709
 21
30.2544665986
  0
LINE
  5
24B
100
AcDbEntity
  8
RACCORDO
100
AcDbLine
 62
253
  6
CONTINUOUS
 10
74.8592336485
 20
-73.7406526588
 11
75.6026281709
 21
-74.2544665986
  0
LINE
  5
24C
100
AcDbEntity
  8
0
100
AcDbLine
 62
7
  6
CONTINUOUS
 10
-10.0
 20
-145.0
 11
-10.0
 21
-22.2211111266
  0
LINE
  5
24D
100
AcDbEntity
  8
ASSI
100
AcDbLine
 62
7
  6
CONTINUOUS
 10
-9.9999979918
 20
-22.2211111266
 11
-9.9993922284
 21
-22.11025
  0
LWPOLYLINE
  5
24E
100
AcDbEntity
  8
RACCORDO
100
AcDbPolyline
 62
253
  6
CONTINUOUS
 90
61
 70
0
 10
-75.2290855538
 20
-61.0247152335
 10
-75.143810362
 20
-60.9572739157
 10
-74.8921675384
 20
-60.7698381626
 10
-74.6353449196
 20
-60.5900942315
 10
-74.373348271
 20
-60.4179654537
 10
-74.106282046
 20
-60.2533672497
 10
-73.8348962609
 20
-60.0969580695
 10
-73.5591228903
 20
-59.9486483447
 10
-73.2791300706
 20
-59.8083479776
 10
-72.9960212637
 20
-59.6767068537
 10
-72.7098072508
 20
-59.5537042095
 10
-72.4205619994
 20
-59.4391713691
 10
-72.1294791049
 20
-59.3335357434
 10
-71.8366669595
 20
-59.2368023342
 10
-71.5420811787
 20
-59.1487795716
 10
-71.2466787966
 20
-59.0696064852
 10
-70.9505191546
 20
-58.9992527867
 10
-70.6535843207
 20
-58.9375736483
 10
-70.3567071356
 20
-58.8845473543
 10
-70.0599819684
 20
-58.840135145
 10
-69.7633331663
 20
-58.8042184414
 10
-69.4673307342
 20
-58.7766685203
 10
-69.1720238329
 20
-58.7574239537
 10
-68.877361268
 20
-58.7464073611
 10
-68.5837558796
 20
-58.7434779241
 10
-68.2911895175
 20
-58.7485738682
 10
-67.999659326
 20
-58.7616359123
 10
-67.7095951227
 20
-58.782538709
 10
-67.4209457592
 20
-58.8112414387
 10
-67.1337231134
 20
-58.8476833509
 10
-66.8484457417
 20
-58.8917230438
 10
-66.5650807168
 20
-58.9433368388
 10
-66.2836039092
 20
-59.0024702879
 10
-66.0045416663
 20
-59.0689520184
 10
-65.727854383
 20
-59.1427727779
 10
-65.4535080171
 20
-59.2238888731
 10
-65.1820326848
 20
-59.3120948634
 10
-64.9133929041
 20
-59.4073900078
 10
-64.6475353764
 20
-59.5097487443
 10
-64.3849599664
 20
-59.6189466184
 10
-64.1256444115
 20
-59.7349775987
 10
-63.869508754
 20
-59.8578479813
 10
-63.6169637081
 20
-59.9873688501
 10
-63.3679494037
 20
-60.1235500732
 10
-63.1224111348
 20
-60.2664054132
 10
-62.8807653086
 20
-60.4157676865
 10
-62.6428510328
 20
-60.5717407682
 10
-62.4087026203
 20
-60.7342665401
 10
-62.1790294088
 20
-60.9029551564
 10
-61.9537153758
 20
-61.0779484662
 10
-61.7327427164
 20
-61.2591818891
 10
-61.5169736586
 20
-61.4459829074
 10
-61.3063805897
 20
-61.638465825
 10
-61.1008586727
 20
-61.8366284598
 10
-60.9011661912
 20
-62.0396506334
 10
-60.707287545
 20
-62.2476549202
 10
-60.5191146584
 20
-62.4606584496
 10
-60.3372846697
 20
-62.6777050374
 10
-60.1619791906
 20
-62.8985330387
 10
-59.9929122445
 20
-63.1235645634
 10
-59.8300294497
 20
-63.3528782148
  0
LINE
  5
24F
100
AcDbEntity
  8
RACCORDO
100
AcDbLine
 62
253
  6
CONTINUOUS
 10
54.0149670614
 20
-100.1497494133
 11
53.5204602687
 21
-99.4342887912
  0
LINE
  5
250
100
AcDbEntity
  8
RACCORDO
100
AcDbLine
 62
253
  6
CONTINUOUS
 10
43.2119736491
 20
-84.5197995306
 11
42.6239240247
 21
-83.6689995896
  0
LINE
  5
251
100
AcDbEntity
  8
RACCORDO
100
AcDbLine
 62
253
  6
CONTINUOUS
 10
40.9376592465
 20
-81.2292837658
 11
41.3528782148
 21
-81.8300294497
  0
LINE
  5
252
100
AcDbEntity
  8
RACCORDO
100
AcDbLine
 62
253
  6
CONTINUOUS
 10
51.7406526588
 20
-96.8592336485
 11
52.2544665986
 21
-97.6026281709
  0
LINE
  5
253
100
AcDbEntity
  8
RACCORDO
100
AcDbLine
 62
253
  6
CONTINUOUS
 10
17.3469387755
 20
-105.2110792811
 11
17.0937626431
 21
-103.9966252786
  0
LINE
  5
254
100
AcDbEntity
  8
RACCORDO
100
AcDbLine
 62
253
  6
CONTINUOUS
 10
-17.3469387755
 20
61.2110792811
 11
-17.0937626431
 21
59.9966252786
  0
LINE
  5
255
100
AcDbEntity
  8
RACCORDO
100
AcDbLine
 62
253
  6
CONTINUOUS
 10
16.7169069913
 20
-102.1888962074
 11
16.5306122449
 21
-101.2952637855
  0
LINE
  5
256
100
AcDbEntity
  8
RACCORDO
100
AcDbLine
 62
253
  6
CONTINUOUS
 10
-16.7169069913
 20
58.1888962074
 11
-16.5306122449
 21
57.2952637855
  0
LINE
  5
257
100
AcDbEntity
  8
RACCORDO
100
AcDbLine
 62
253
  6
CONTINUOUS
 10
22.6530612245
 20
-130.6638800023
 11
22.8728320873
 21
-131.718093136
  0
LINE
  5
258
100
AcDbEntity
  8
RACCORDO
100
AcDbLine
 62
253
  6
CONTINUOUS
 10
23.2475192362
 20
-133.515420172
 11
23.4693877551
 21
-134.5796954979
  0
LINE
  5
259
100
AcDbEntity
  8
ASSI
100
AcDbLine
 62
7
  6
CONTINUOUS
 10
9.9993922284
 20
-22.11025
 11
9.9999894788
 21
-22.221111126
  0
LINE
  5
25A
100
AcDbEntity
  8
0
100
AcDbLine
 62
7
  6
CONTINUOUS
 10
10.0
 20
-145.0
 11
10.0
 21
-22.2211111266
  0
LINE
  5
25B
100
AcDbEntity
  8
RACCORDO
100
AcDbLine
 62
253
  6
CONTINUOUS
 10
-17.3469387755
 20
-105.2110792811
 11
-17.0937626431
 21
-103.9966252786
  0
LINE
  5
25C
100
AcDbEntity
  8
RACCORDO
100
AcDbLine
 62
253
  6
CONTINUOUS
 10
17.3469387755
 20
61.2110792811
 11
17.0937626431
 21
59.9966252786
  0
LINE
  5
25D
100
AcDbEntity
  8
RACCORDO
100
AcDbLine
 62
253
  6
CONTINUOUS
 10
-16.7169069913
 20
-102.1888962074
 11
-16.5306122449
 21
-101.2952637855
  0
LINE
  5
25E
100
AcDbEntity
  8
RACCORDO
100
AcDbLine
 62
253
  6
CONTINUOUS
 10
16.7169069913
 20
58.1888962074
 11
16.5306122449
 21
57.2952637855
  0
LINE
  5
25F
100
AcDbEntity
  8
RACCORDO
100
AcDbLine
 62
253
  6
CONTINUOUS
 10
22.6530612245
 20
86.6638800023
 11
22.8728320873
 21
87.718093136
  0
LINE
  5
260
100
AcDbEntity
  8
RACCORDO
100
AcDbLine
 62
253
  6
CONTINUOUS
 10
-22.6530612245
 20
-130.6638800023
 11
-22.8728320873
 21
-131.718093136
  0
LINE
  5
261
100
AcDbEntity
  8
RACCORDO
100
AcDbLine
 62
253
  6
CONTINUOUS
 10
23.2475192362
 20
89.515420172
 11
23.4693877551
 21
90.5796954979
  0
LINE
  5
262
100
AcDbEntity
  8
RACCORDO
100
AcDbLine
 62
253
  6
CONTINUOUS
 10
-23.2475192362
 20
-133.515420172
 11
-23.4693877551
 21
-134.5796954979
  0
LINE
  5
263
100
AcDbEntity
  8
RACCORDO
100
AcDbLine
 62
253
  6
CONTINUOUS
 10
-54.0149670614
 20
-100.1497494133
 11
-53.5204602687
 21
-99.4342887912
  0
LINE
  5
264
100
AcDbEntity
  8
RACCORDO
100
AcDbLine
 62
253
  6
CONTINUOUS
 10
54.0149670614
 20
56.1497494133
 11
53.5204602687
 21
55.4342887912
  0
LINE
  5
265
100
AcDbEntity
  8
RACCORDO
100
AcDbLine
 62
253
  6
CONTINUOUS
 10
-43.2119736491
 20
-84.5197995306
 11
-42.6239240247
 21
-83.6689995896
  0
LINE
  5
266
100
AcDbEntity
  8
RACCORDO
100
AcDbLine
 62
253
  6
CONTINUOUS
 10
43.2119736491
 20
40.5197995306
 11
42.6239240247
 21
39.6689995896
  0
LINE
  5
267
100
AcDbEntity
  8
RACCORDO
100
AcDbLine
 62
253
  6
CONTINUOUS
 10
40.9376592465
 20
37.2292837658
 11
41.3528782148
 21
37.8300294497
  0
LINE
  5
268
100
AcDbEntity
  8
RACCORDO
100
AcDbLine
 62
253
  6
CONTINUOUS
 10
-40.9376592465
 20
-81.2292837658
 11
-41.3528782148
 21
-81.8300294497
  0
LINE
  5
269
100
AcDbEntity
  8
RACCORDO
100
AcDbLine
 62
253
  6
CONTINUOUS
 10
51.7406526588
 20
52.8592336485
 11
52.2544665986
 21
53.6026281709
  0
LINE
  5
26A
100
AcDbEntity
  8
RACCORDO
100
AcDbLine
 62
253
  6
CONTINUOUS
 10
-51.7406526588
 20
-96.8592336485
 11
-52.2544665986
 21
-97.6026281709
  0
LINE
  5
26B
100
AcDbEntity
  8
RACCORDO
100
AcDbLine
 62
253
  6
CONTINUOUS
 10
-78.1497494133
 20
-76.0149670614
 11
-77.4342887912
 21
-75.5204602687
  0
LINE
  5
26C
100
AcDbEntity
  8
RACCORDO
100
AcDbLine
 62
253
  6
CONTINUOUS
 10
78.1497494133
 20
32.0149670614
 11
77.4342887912
 21
31.5204602687
  0
LINE
  5
26D
100
AcDbEntity
  8
RACCORDO
100
AcDbLine
 62
253
  6
CONTINUOUS
 10
-62.5197995306
 20
-65.2119736491
 11
-61.6689995896
 21
-64.6239240247
  0
LINE
  5
26E
100
AcDbEntity
  8
RACCORDO
100
AcDbLine
 62
253
  6
CONTINUOUS
 10
62.5197995306
 20
21.2119736491
 11
61.6689995896
 21
20.6239240247
  0
LINE
  5
26F
100
AcDbEntity
  8
RACCORDO
100
AcDbLine
 62
253
  6
CONTINUOUS
 10
59.2292837658
 20
18.9376592465
 11
59.8300294497
 21
19.3528782148
  0
LINE
  5
270
100
AcDbEntity
  8
RACCORDO
100
AcDbLine
 62
253
  6
CONTINUOUS
 10
-59.2292837658
 20
-62.9376592465
 11
-59.8300294497
 21
-63.3528782148
  0
LINE
  5
271
100
AcDbEntity
  8
RACCORDO
100
AcDbLine
 62
253
  6
CONTINUOUS
 10
74.8592336485
 20
29.7406526588
 11
75.6026281709
 21
30.2544665986
  0
LINE
  5
272
100
AcDbEntity
  8
RACCORDO
100
AcDbLine
 62
253
  6
CONTINUOUS
 10
-74.8592336485
 20
-73.7406526588
 11
-75.6026281709
 21
-74.2544665986
  0
LWPOLYLINE
  5
273
100
AcDbEntity
  8
RACCORDO
100
AcDbPolyline
 62
253
  6
CONTINUOUS
 90
74
 70
0
 10
-69.4620697088
 20
14.7764716115
 10
-69.4787161456
 20
14.7775742927
 10
-69.7746712909
 20
14.8054396528
 10
-70.0712865416
 20
14.8416721952
 10
-70.367973492
 20
14.8864012474
 10
-70.6648104322
 20
14.9397488033
 10
-70.9617001088
 20
15.0017503174
 10
-71.2577829062
 20
15.0724182904
 10
-71.5530722505
 20
15.1518993843
 10
-71.8475129647
 20
15.240222347
 10
-72.1401342108
 20
15.3372339097
 10
-72.4309668757
 20
15.4431205537
 10
-72.7199157963
 20
15.5578824038
 10
-73.0058137592
 20
15.6810928787
 10
-73.2885861564
 20
15.8129165049
 10
-73.5682228275
 20
15.9533777279
 10
-73.8436486931
 20
16.1018390275
 10
-74.1147025125
 20
16.2583912513
 10
-74.381445497
 20
16.4231226721
 10
-74.6431354479
 20
16.5953841649
 10
-74.8996715318
 20
16.7752619721
 10
-75.1510444004
 20
16.9628307311
 10
-75.3966514279
 20
17.1574119967
 10
-75.6363961881
 20
17.3590677596
 10
-75.8702590076
 20
17.5678738587
 10
-76.0977571231
 20
17.783158628
 10
-76.3188115228
 20
18.0049753602
 10
-76.5333826969
 20
18.2333829563
 10
-76.7410537705
 20
18.4677032174
 10
-76.9417553626
 20
18.7079822767
 10
-77.1354391351
 20
18.9542589771
 10
-77.3217282277
 20
19.205828654
 10
-77.5005538486
 20
19.4627219884
 10
-77.6718712231
 20
19.7249648928
 10
-77.8353497566
 20
19.9918297144
 10
-77.9909201502
 20
20.2633242409
 10
-78.1385455239
 20
20.5394684764
 10
-78.2779556
 20
20.8195375467
 10
-78.4090886049
 20
21.1035259509
 10
-78.5319100536
 20
21.3914389394
 10
-78.6462033677
 20
21.682553022
 10
-78.7519142257
 20
21.9768512503
 10
-78.8490128977
 20
22.2743235459
 10
-78.9373334049
 20
22.5742429948
 10
-79.0168281601
 20
22.8765805221
 10
-79.0874750189
 20
23.1813130869
 10
-79.1491607147
 20
23.4877103178
 10
-79.2018444254
 20
23.7957215395
 10
-79.2455134637
 20
24.1053223636
 10
-79.280111657
 20
24.4158109563
 10
-79.3056094299
 20
24.7271244662
 10
-79.3219998472
 20
25.0392306954
 10
-79.3292753213
 20
25.3514648136
 10
-79.327415752
 20
25.6637715004
 10
-79.3164218442
 20
25.9760941796
 10
-79.2963318103
 20
26.2877589301
 10
-79.2671297874
 20
26.598710102
 10
-79.2288303503
 20
26.9088774081
 10
-79.1815325107
 20
27.2175594873
 10
-79.1252322911
 20
27.5246691925
 10
-79.0599517787
 20
27.8301569299
 10
-78.9858439579
 20
28.1333742823
 10
-78.9029216774
 20
28.4342226761
 10
-78.8112083504
 20
28.7326570401
 10
-78.7108860818
 20
29.0281079567
 10
-78.601964479
 20
29.3205116342
 10
-78.4844859912
 20
29.6097845993
 10
-78.3586944476
 20
29.8953286294
 10
-78.224606031
 20
30.1770692613
 10
-78.0822728184
 20
30.454933496
 10
-77.9320048219
 20
30.7283282314
 10
-77.7739355875
 20
30.9970088293
 10
-77.608016065
 20
31.2610767557
 10
-77.4342887912
 20
31.5204602687
  0
LWPOLYLINE
  5
274
100
AcDbEntity
  8
DRAFT
100
AcDbPolyline
 62
7
  6
CONTINUOUS
 90
71
 70
0
 10
-68.318910583
 20
17.9861106955
 10
-68.3745199534
 20
17.9829316021
 10
-68.599610084
 20
17.9768324495
 10
-68.825122422
 20
17.9775250637
 10
-69.0508959491
 20
17.9850282412
 10
-69.2770486986
 20
17.9993741
 10
-69.5034704973
 20
18.0206109279
 10
-69.7296537178
 20
18.0487877445
 10
-69.9555134917
 20
18.0839323211
 10
-70.1811282265
 20
18.1261098718
 10
-70.4062305866
 20
18.1754321647
 10
-70.6309402665
 20
18.231976238
 10
-70.8551176332
 20
18.2957652493
 10
-71.0781012728
 20
18.366836602
 10
-71.2998637194
 20
18.4452602054
 10
-71.5203965696
 20
18.5310766632
 10
-71.7390612142
 20
18.6242860823
 10
-71.9559926376
 20
18.7250700679
 10
-72.1710041213
 20
18.8333637159
 10
-72.3829690096
 20
18.9488017598
 10
-72.5918002361
 20
19.0714993364
 10
-72.7975177568
 20
19.2014598766
 10
-72.9991518052
 20
19.3381505249
 10
-73.1966416331
 20
19.4816968909
 10
-73.3899696704
 20
19.6320846273
 10
-73.5782307204
 20
19.7885651802
 10
-73.7612901902
 20
19.9511818849
 10
-73.939198524
 20
20.1199872481
 10
-74.1113312308
 20
20.294236645
 10
-74.2775838209
 20
20.4739488145
 10
-74.437975181
 20
20.6591811011
 10
-74.5920712349
 20
20.8492354167
 10
-74.7397874326
 20
21.0441049956
 10
-74.8811243377
 20
21.2438513875
 10
-75.0157819108
 20
21.4478677654
 10
-75.143730098
 20
21.6562098729
 10
-75.2649178521
 20
21.8688561533
 10
-75.3790215333
 20
22.0850723485
 10
-75.4859783266
 20
22.3048492641
 10
-75.5857772081
 20
22.5282075693
 10
-75.6781818431
 20
22.7544460512
 10
-75.7631473575
 20
22.9835729029
 10
-75.840653586
 20
23.2155699587
 10
-75.9105120638
 20
23.4496852832
 10
-75.9726739789
 20
23.685880792
 10
-76.0271349896
 20
23.9241635258
 10
-76.0737849277
 20
24.1638390269
 10
-76.112589651
 20
24.4048891999
 10
-76.1435424657
 20
24.6472825691
 10
-76.1665864029
 20
24.8902957484
 10
-76.1816915016
 20
25.1338846155
 10
-76.1888612452
 20
25.3780269027
 10
-76.1881013572
 20
25.6220245189
 10
-76.179389928
 20
25.8658314039
 10
-76.1627371538
 20
26.1094132198
 10
-76.1382094209
 20
26.3520836976
 10
-76.105795681
 20
26.5937794598
 10
-76.0655105162
 20
26.8344723702
 10
-76.0174708412
 20
27.0735250899
 10
-75.9616681393
 20
27.31089302
 10
-75.8981288316
 20
27.5465212922
 10
-75.8270340009
 20
27.7797550961
 10
-75.7483856105
 20
28.0105285684
 10
-75.6622143962
 20
28.2388032762
 10
-75.5687559576
 20
28.4639654212
 10
-75.4680166123
 20
28.6859555706
 10
-75.3600361396
 20
28.9047273847
 10
-75.2451107903
 20
29.1196885877
 10
-75.1233607914
 20
29.3306079015
 10
-74.9947251664
 20
29.5376132505
 10
-74.8592336485
 20
29.7406526588
  0
LWPOLYLINE
  5
275
100
AcDbEntity
  8
RACCORDO
100
AcDbPolyline
 62
253
  6
CONTINUOUS
 90
43
 70
0
 10
-31.2354966032
 20
62.4957460509
 10
-31.0480145043
 20
62.3112144684
 10
-30.7617751804
 20
62.0430228835
 10
-30.4704781586
 20
61.7831077421
 10
-30.174183707
 20
61.5314349579
 10
-29.8729139917
 20
61.2878973408
 10
-29.5671755318
 20
61.0526774477
 10
-29.2570323303
 20
60.8257397675
 10
-28.9424672066
 20
60.6069845911
 10
-28.6238492803
 20
60.3965057645
 10
-28.3011634272
 20
60.1942204778
 10
-27.9744400134
 20
60.0000807349
 10
-27.6441014261
 20
59.8142403819
 10
-27.310126688
 20
59.6366351423
 10
-26.9725183269
 20
59.4672057192
 10
-26.631717794
 20
59.3061229356
 10
-26.2876753887
 20
59.1533263966
 10
-25.9403884626
 20
59.0087615633
 10
-25.5903519419
 20
58.8726193816
 10
-25.2375052896
 20
58.7448525231
 10
-24.8818218801
 20
58.6254044505
 10
-24.5238297238
 20
58.5144656617
 10
-24.163427153
 20
58.4119941396
 10
-23.8005943168
 20
58.3179405127
 10
-23.4359636094
 20
58.2325003272
 10
-23.0694348058
 20
58.1556516422
 10
-22.7009518587
 20
58.0873412625
 10
-22.3311952108
 20
58.0277368374
 10
-21.9600323314
 20
57.976828242
 10
-21.5874071085
 20
57.9345681846
 10
-21.2140976607
 20
57.9010903133
 10
-20.8399620923
 20
57.8764039081
 10
-20.4649240955
 20
57.860463081
 10
-20.0898454606
 20
57.8533435852
 10
-19.7146876577
 20
57.8550563009
 10
-19.3392464584
 20
57.8655778237
 10
-18.9641244285
 20
57.8849551956
 10
-18.5893326045
 20
57.9131546081
 10
-18.2146002387
 20
57.9502131331
 10
-17.8400991642
 20
57.9962972302
 10
-17.4657935621
 20
58.0514657717
 10
-17.0914429628
 20
58.1156652497
 10
-16.7169069913
 20
58.1888962074
  0
LWPOLYLINE
  5
276
100
AcDbEntity
  8
RACCORDO
100
AcDbPolyline
 62
253
  6
CONTINUOUS
 90
43
 70
0
 10
-30.5428375757
 20
64.4405194744
 10
-30.312086519
 20
64.1871841069
 10
-30.0584407674
 20
63.9228721171
 10
-29.7993602342
 20
63.6664077247
 10
-29.5349104066
 20
63.4177482297
 10
-29.2651158092
 20
63.1768103383
 10
-28.9904122749
 20
62.9437565499
 10
-28.7108226151
 20
62.7185216075
 10
-28.4263832345
 20
62.5010469903
 10
-28.1375358235
 20
62.291511544
 10
-27.844287219
 20
62.0898519384
 10
-27.5466584067
 20
61.8960119044
 10
-27.2450972001
 20
61.7101882651
 10
-26.9395903141
 20
61.5323257209
 10
-26.6301470782
 20
61.3623657479
 10
-26.3172335749
 20
61.2005089723
 10
-26.0008001511
 20
61.0466970916
 10
-25.6808605268
 20
60.9008819569
 10
-25.3579591548
 20
60.7632901002
 10
-25.0320551831
 20
60.6338855012
 10
-24.7031200119
 20
60.512608343
 10
-24.3716993002
 20
60.3996620033
 10
-24.0377084456
 20
60.295010651
 10
-23.7011304847
 20
60.1986055746
 10
-23.3625954397
 20
60.1106453203
 10
-23.0220247271
 20
60.0311078213
 10
-22.6793632975
 20
59.9599451064
 10
-22.3352597831
 20
59.8973334348
 10
-21.9895855414
 20
59.8432625611
 10
-21.6423059145
 20
59.7976877738
 10
-21.29419487
 20
59.760752733
 10
-20.9451203066
 20
59.7324641184
 10
-20.5950234879
 20
59.7127792408
 10
-20.2447745277
 20
59.7017901917
 10
-19.8943508876
 20
59.6995112022
 10
-19.5435610556
 20
59.7059144597
 10
-19.1930115613
 20
59.721049669
 10
-18.8426745996
 20
59.7448935987
 10
-18.4923482139
 20
59.7774702542
 10
-18.1423704044
 20
59.8189141405
 10
-17.7927715468
 20
59.869275011
 10
-17.4432769784
 20
59.92851134
 10
-17.0937626431
 20
59.9966252786
  0
LWPOLYLINE
  5
277
100
AcDbEntity
  8
RACCORDO
100
AcDbPolyline
 62
253
  6
CONTINUOUS
 90
45
 70
0
 10
-30.1445100873
 20
65.5589004994
 10
-30.0642732655
 20
65.4611351251
 10
-29.839385998
 20
65.2012946709
 10
-29.6089399048
 20
64.9486413128
 10
-29.3731512525
 20
64.7032267757
 10
-29.1321037411
 20
64.4649624236
 10
-28.8860589437
 20
64.233947802
 10
-28.6352550899
 20
64.0102603423
 10
-28.3797107586
 20
63.7937871682
 10
-28.119627225
 20
63.5845824822
 10
-27.8552175182
 20
63.3827098491
 10
-27.5864884905
 20
63.1880810371
 10
-27.3136655852
 20
63.0007705961
 10
-27.0369847773
 20
62.8208578517
 10
-26.7564692019
 20
62.6482928686
 10
-26.4722946408
 20
62.4831271178
 10
-26.1846523407
 20
62.3254146422
 10
-25.8935529203
 20
62.1751165286
 10
-25.5991828668
 20
62.0322906303
 10
-25.3017710301
 20
61.8970043245
 10
-25.001384912
 20
61.7692572878
 10
-24.6982234418
 20
61.6491159013
 10
-24.3924766141
 20
61.5366316639
 10
-24.0841878608
 20
61.4318011498
 10
-23.7735183821
 20
61.3346688628
 10
-23.4606561526
 20
61.2452796153
 10
-23.1456995376
 20
61.1636499609
 10
-22.828864727
 20
61.0898358482
 10
-22.5103764752
 20
61.02389243
 10
-22.1903048263
 20
60.9658336108
 10
-21.868782372
 20
60.915689233
 10
-21.5459947987
 20
60.8734974606
 10
-21.222116256
 20
60.8392860453
 10
-20.8973599634
 20
60.8130838329
 10
-20.5719651749
 20
60.7949220006
 10
-20.2461568498
 20
60.7848245009
 10
-19.9201852631
 20
60.7828005706
 10
-19.5941483366
 20
60.7888549215
 10
-19.2680134477
 20
60.8030057947
 10
-18.9421056905
 20
60.8252565752
 10
-18.6165170349
 20
60.8556201132
 10
-18.2908905865
 20
60.8941801997
 10
-17.9652520159
 20
60.9410109718
 10
-17.6400018489
 20
60.9961262516
 10
-17.3153514752
 20
61.0595589822
  0
LINE
  5
278
100
AcDbEntity
  8
0
100
AcDbLine
 62
253
  6
CONTINUOUS
 10
40.0
 20
-195.0
 11
40.0
 21
-175.0
  0
LWPOLYLINE
  5
279
100
AcDbEntity
  8
DRAFT
100
AcDbPolyline
 62
7
  6
CONTINUOUS
 90
43
 70
0
 10
-17.3469387755
 20
61.2110792811
 10
-17.7029349957
 20
61.1421633906
 10
-18.059279434
 20
61.0832489109
 10
-18.4161111703
 20
61.0343289441
 10
-18.7740916217
 20
60.9954295319
 10
-19.132833793
 20
60.9665033846
 10
-19.4908979251
 20
60.9474525081
 10
-19.8483839981
 20
60.9383698492
 10
-20.2054465029
 20
60.9391813213
 10
-20.5607117955
 20
60.949576666
 10
-20.914238402
 20
60.9696586605
 10
-21.2661887546
 20
60.9993773432
 10
-21.6153213429
 20
61.0382282659
 10
-21.961582616
 20
61.0862896575
 10
-22.3052036937
 20
61.1435662599
 10
-22.6453431055
 20
61.2094702844
 10
-22.9820220948
 20
61.2840800422
 10
-23.3153533973
 20
61.3674173814
 10
-23.6446059751
 20
61.4588289268
 10
-23.9696876828
 20
61.5583452782
 10
-24.2907800317
 20
61.6660504626
 10
-24.6075390966
 20
61.7813831906
 10
-24.9200055233
 20
61.9044143066
 10
-25.2281924612
 20
62.0351900733
 10
-25.5316949402
 20
62.173119437
 10
-25.8303935891
 20
62.3181889207
 10
-26.1244252654
 20
62.4705339798
 10
-26.4137543076
 20
62.6297900974
 10
-26.6984465378
 20
62.7960393891
 10
-26.9784300088
 20
62.9693161245
 10
-27.2534507054
 20
63.1491850068
 10
-27.5233824971
 20
63.3355998976
 10
-27.7883173126
 20
63.5287238003
 10
-28.0483195426
 20
63.7284350017
 10
-28.3034661955
 20
63.9348365777
 10
-28.5536300805
 20
64.1479346721
 10
-28.7985622106
 20
64.3674616623
 10
-29.0381567433
 20
64.5933713324
 10
-29.2724455806
 20
64.8258182887
 10
-29.5013792897
 20
65.0648364539
 10
-29.725027778
 20
65.3105679286
 10
-29.9432313639
 20
65.5629731134
 10
-30.0825691967
 20
65.7328114616
  0
LWPOLYLINE
  5
27A
100
AcDbEntity
  8
RACCORDO
100
AcDbPolyline
 62
253
  6
CONTINUOUS
 90
118
 70
0
 10
17.3153514752
 20
61.0595589822
 10
17.6313951925
 20
60.9976989439
 10
17.9496859371
 20
60.9434581362
 10
18.2700468591
 20
60.8969292477
 10
18.5924120301
 20
60.8581928386
 10
18.9164745248
 20
60.8273513733
 10
19.2416847778
 20
60.8045019487
 10
19.5678511379
 20
60.7896955996
 10
19.8947536454
 20
60.7829822334
 10
20.2218157012
 20
60.784394364
 10
20.5488536061
 20
60.793939344
 10
20.875699837
 20
60.8116235694
 10
21.2017739017
 20
60.8374071508
 10
21.5267572712
 20
60.8712388652
 10
21.8505130092
 20
60.9130840711
 10
22.1727420742
 20
60.9628839181
 10
22.4931418289
 20
61.0205575568
 10
22.8116978968
 20
61.0860715069
 10
23.128569855
 20
61.1594476759
 10
23.443550927
 20
61.2406327653
 10
23.7564053254
 20
61.3295626957
 10
24.067202107
 20
61.4262715975
 10
24.3758618932
 20
61.530764114
 10
24.6821065804
 20
61.6429711323
 10
24.9857201738
 20
61.7628353356
 10
25.2864987576
 20
61.8902952115
 10
25.5842746689
 20
62.0252948
 10
25.8788849955
 20
62.1677841071
 10
26.1699784292
 20
62.317618433
 10
26.4575008658
 20
62.4747889129
 10
26.7417200238
 20
62.6394864367
 10
27.0225210013
 20
62.8117214775
 10
27.2996035941
 20
62.9913860212
 10
27.5729080739
 20
63.1785153638
 10
27.842181807
 20
63.3730278265
 10
28.1071662014
 20
63.5748337457
 10
28.3677973962
 20
63.7839738373
 10
28.6238904039
 20
64.0003992417
 10
28.8751798509
 20
64.2239952902
 10
29.1215273502
 20
64.4547653278
 10
29.3627915169
 20
64.6927175671
 10
29.5988503273
 20
64.9378796858
 10
29.8295912195
 20
65.1902958687
 10
30.0546789244
 20
65.4497731855
 10
30.2738938237
 20
65.7162506677
 10
30.4871865024
 20
65.9899004878
 10
30.6942939704
 20
66.2706158891
 10
30.8949086896
 20
66.5582177322
 10
31.0888940756
 20
66.8527875614
 10
31.2760509755
 20
67.1543412354
 10
31.4560497233
 20
67.4626838975
 10
31.6285680475
 20
67.7776052006
 10
31.7933270034
 20
68.0989174749
 10
31.949999869
 20
68.4263134598
 10
32.0981902368
 20
68.7593198644
 10
32.2376933812
 20
69.0978209094
 10
32.368236645
 20
69.4414778816
 10
32.4894086007
 20
69.7894792009
 10
32.6010724324
 20
70.1416724849
 10
32.703062781
 20
70.4978187524
 10
32.7950427429
 20
70.8569421256
 10
32.876889259
 20
71.2186017432
 10
32.9485625295
 20
71.5826543803
 10
33.0099356754
 20
71.9485247915
 10
33.0609462726
 20
72.3158140218
 10
33.1015823647
 20
72.6843369599
 10
33.1318186966
 20
73.0538452313
 10
33.151633721
 20
73.4240639226
 10
33.1610148246
 20
73.7946914389
 10
33.1599507145
 20
74.165435909
 10
33.1484402436
 20
74.5360113996
 10
33.1264986601
 20
74.9061048351
 10
33.0941458265
 20
75.2753829308
 10
33.0514108963
 20
75.6435407931
 10
32.9983339945
 20
76.0103038026
 10
32.9349573657
 20
76.3753865035
 10
32.8613369974
 20
76.7384857973
 10
32.7775413722
 20
77.0993172885
 10
32.6836318536
 20
77.4576212255
 10
32.5796743628
 20
77.8131361642
 10
32.4657566634
 20
78.1655735528
 10
32.3419741457
 20
78.5146369636
 10
32.2084213559
 20
78.8600659325
 10
32.0652250262
 20
79.201559014
 10
31.912541113
 20
79.5387588256
 10
31.7505233472
 20
79.8713482222
 10
31.5792793855
 20
80.1991419328
 10
31.3988949709
 20
80.5219847781
 10
31.2094977779
 20
80.8396492519
 10
31.0112690685
 20
81.1518467371
 10
30.8043706354
 20
81.4583231432
 10
30.5889570633
 20
81.7588423321
 10
30.3651950891
 20
82.05317691
 10
30.1332648461
 20
82.3410909963
 10
29.8933495762
 20
82.6223619931
 10
29.6456576697
 20
82.896761429
 10
29.3904130874
 20
83.164045039
 10
29.1278249591
 20
83.4239930091
 10
28.8580856302
 20
83.6764250876
 10
28.5813935446
 20
83.9211604276
 10
28.2979835847
 20
84.1579980498
 10
28.0080781587
 20
84.3867676877
 10
27.7118547494
 20
84.6073282517
 10
27.4095318998
 20
84.8195049533
 10
27.1013489842
 20
85.0231284322
 10
26.7875085311
 20
85.2180595337
 10
26.4681973057
 20
85.4041720659
 10
26.1437215894
 20
85.581284999
 10
25.8144691395
 20
85.749184908
 10
25.4806927391
 20
85.9077419197
 10
25.1426647359
 20
86.0568360608
 10
24.8008131353
 20
86.1962935341
 10
24.455407066
 20
86.3260252449
 10
24.1067250208
 20
86.445953434
 10
23.755218891
 20
86.5559502702
 10
23.4012353777
 20
86.6559408321
 10
23.0450072068
 20
86.7459030097
 10
22.6868170277
 20
86.8258023364
  0
LWPOLYLINE
  5
27B
100
AcDbEntity
  8
RACCORDO
100
AcDbPolyline
 62
253
  6
CONTINUOUS
 90
118
 70
0
 10
17.0937626431
 20
59.9966252786
 10
17.434016315
 20
59.9299276151
 10
17.7760836423
 20
59.8716779753
 10
18.1200810872
 20
59.8218513821
 10
18.4665836831
 20
59.7803181763
 10
18.8152481619
 20
59.747151225
 10
19.1648148091
 20
59.7226454736
 10
19.5153997451
 20
59.7068649265
 10
19.8671189783
 20
59.6997225246
 10
20.2187103293
 20
59.7013207492
 10
20.5702779514
 20
59.7117435839
 10
20.9219359766
 20
59.7309152031
 10
21.2724259516
 20
59.7587325989
 10
21.6217212539
 20
59.7952634462
 10
21.9700402568
 20
59.8404806418
 10
22.3164751032
 20
59.8941682277
 10
22.6609319506
 20
59.9563475058
 10
23.0036648707
 20
60.0270602479
 10
23.3442720463
 20
60.1061388809
 10
23.6828337015
 20
60.1936119959
 10
24.019403053
 20
60.2895216134
 10
24.3535240272
 20
60.3937317291
 10
24.6853335588
 20
60.5063274955
 10
25.0148001
 20
60.6273040875
 10
25.3411977727
 20
60.7564051051
 10
25.6645243458
 20
60.8936969621
 10
25.9848512967
 20
61.0392103082
 10
26.3015433559
 20
61.1926507183
 10
26.6144621666
 20
61.3539934605
 10
26.9237786473
 20
61.5233733841
 10
27.2293067222
 20
61.7007441292
 10
27.5311647342
 20
61.8862207606
 10
27.8292429619
 20
62.0797981768
 10
28.1229997761
 20
62.2812565383
 10
28.4124167828
 20
62.4906707828
 10
28.6974864813
 20
62.7080847291
 10
28.9776663261
 20
62.9332411659
 10
29.2528930098
 20
63.1661843355
 10
29.5231697999
 20
63.4069949341
 10
29.7880379661
 20
63.6554777407
 10
30.0474504103
 20
63.9117031223
 10
30.3013628511
 20
64.1757280374
 10
30.5493060609
 20
64.4473426041
 10
30.7912273416
 20
64.7266174909
 10
31.0270566928
 20
65.0136099042
 10
31.256284247
 20
65.3080943468
 10
31.4788440147
 20
65.6101531188
 10
31.694647707
 20
65.9198305335
 10
31.9031371043
 20
66.236847879
 10
32.1042822906
 20
66.5614200522
 10
32.2979274082
 20
66.893455032
 10
32.4833093827
 20
67.2322168126
 10
32.6603129897
 20
67.5778892389
 10
32.8288345576
 20
67.9304053996
 10
32.9881139167
 20
68.2886542338
 10
33.1379756504
 20
68.6527930126
 10
33.2783503292
 20
69.0227692716
 10
33.408629428
 20
69.3971544784
 10
33.5286032779
 20
69.776064594
 10
33.6382240071
 20
70.1594691699
 10
33.7371291677
 20
70.5457130524
 10
33.8250837517
 20
70.9346981943
 10
33.902069675
 20
71.3265827849
 10
33.9680629363
 20
71.7200866139
 10
34.0228962299
 20
72.1151016961
 10
34.0664995334
 20
72.5117688903
 10
34.0990119979
 20
72.9091719419
 10
34.1203156422
 20
73.3073190103
 10
34.1303101248
 20
73.7062087269
 10
34.1291801745
 20
74.1049021708
 10
34.1168154338
 20
74.5033947883
 10
34.0931319458
 20
74.9016728846
 10
34.0583758901
 20
75.2987763526
 10
34.0124544544
 20
75.6946574756
 10
33.955295026
 20
76.0893223753
 10
33.8871976241
 20
76.481885505
 10
33.8080918596
 20
76.872290169
 10
33.7179136911
 20
77.260530631
 10
33.6169964009
 20
77.6457931099
 10
33.5052767888
 20
78.0280430092
 10
33.3827153793
 20
78.4072343517
 10
33.24970545
 20
78.7825331877
 10
33.1061952391
 20
79.153895627
 10
32.9521683293
 20
79.5212698256
 10
32.7880969316
 20
79.8838086291
 10
32.6139913611
 20
80.2413798813
 10
32.4298105442
 20
80.594008614
 10
32.2359733343
 20
80.9410837502
 10
32.0324625392
 20
81.2825678317
 10
31.8192948931
 20
81.6183822566
 10
31.5969618003
 20
81.9478559751
 10
31.3654722127
 20
82.2709161092
 10
31.1248499545
 20
82.587514163
 10
30.8756307946
 20
82.8970192704
 10
30.6178396587
 20
83.199357664
 10
30.3515162336
 20
83.4944798713
 10
30.0772393947
 20
83.7817968629
 10
29.7950642412
 20
84.0612194333
 10
29.5050305934
 20
84.3327152128
 10
29.2077132691
 20
84.5957872206
 10
28.9031894591
 20
84.850352054
 10
28.5915033641
 20
85.0963757709
 10
28.2731961821
 20
85.3334430336
 10
27.9483302678
 20
85.5614939475
 10
27.6169870875
 20
85.7804767738
 10
27.2797503212
 20
85.989996754
 10
26.9366400297
 20
86.1900169132
 10
26.587800343
 20
86.38047084
 10
26.2340146592
 20
86.5609309723
 10
25.8753575792
 20
86.7313258477
 10
25.5119390008
 20
86.8916381771
 10
25.1446075021
 20
87.0415363312
 10
24.7734468889
 20
87.1809542673
 10
24.3985726339
 20
87.3098868764
 10
24.0208894349
 20
87.4281105171
 10
23.6407694335
 20
87.5355373928
 10
23.2580489056
 20
87.6322063758
 10
22.8728320873
 20
87.718093136
  0
LWPOLYLINE
  5
27C
100
AcDbEntity
  8
RACCORDO
100
AcDbPolyline
 62
253
  6
CONTINUOUS
 90
124
 70
0
 10
16.7169069913
 20
58.1888962074
 10
17.0820490802
 20
58.117113821
 10
17.4489254691
 20
58.0539373835
 10
17.8176682782
 20
57.9993401051
 10
18.188868469
 20
57.9531969509
 10
18.5621977573
 20
57.9155714927
 10
18.9364104355
 20
57.8867373429
 10
19.3116353508
 20
57.8667549324
 10
19.6880057378
 20
57.855538597
 10
20.064279678
 20
57.8531799188
 10
20.4405692612
 20
57.8597555201
 10
20.8170090591
 20
57.8751968373
 10
21.192378979
 20
57.8994145494
 10
21.5666670247
 20
57.9324763717
 10
21.9401038215
 20
57.9743567786
 10
22.3118156319
 20
58.0248578475
 10
22.6817224112
 20
58.0839992976
 10
23.0500895282
 20
58.1518273034
 10
23.4165450283
 20
58.2282024449
 10
23.7811835969
 20
58.3131551665
 10
24.1440678862
 20
58.4067285516
 10
24.5047638144
 20
58.5088143426
 10
24.8634446394
 20
58.6195047865
 10
25.220065114
 20
58.7387914475
 10
25.573844998
 20
58.8664319028
 10
25.9247590947
 20
59.0024855838
 10
26.2729206315
 20
59.14699781
 10
26.6177357204
 20
59.2997228687
 10
26.9591591639
 20
59.4606999843
 10
27.2972866825
 20
59.6300080206
 10
27.6317177215
 20
59.8074727434
 10
27.9624498581
 20
59.9931496117
 10
28.2895029438
 20
60.187108365
 10
28.6124943392
 20
60.3892047224
 10
28.9314219377
 20
60.5995067009
 10
29.2462725904
 20
60.8180775475
 10
29.556631879
 20
61.0447735832
 10
29.862483729
 20
61.279671869
 10
30.1637956139
 20
61.5228322022
 10
30.4601127747
 20
61.7740924788
 10
30.7513919548
 20
62.0335255225
 10
31.0375935442
 20
62.3012001704
 10
31.3182524299
 20
62.5769551367
 10
31.5932951472
 20
62.8608420392
 10
31.8626780409
 20
63.1529538706
 10
32.1259656564
 20
63.4531968714
 10
32.3831118696
 20
63.7616681407
 10
32.6340128662
 20
64.0784152621
 10
32.8781313067
 20
64.4032749452
 10
33.1154708428
 20
64.736498011
 10
33.3458429819
 20
65.0779773252
 10
33.5684034812
 20
65.4270180143
 10
33.7830335122
 20
65.7838160998
 10
33.9896267974
 20
66.1483177961
 10
34.1873391218
 20
66.5194573454
 10
34.3760012753
 20
66.8974312785
 10
34.5555240424
 20
67.2821767449
 10
34.7251711722
 20
67.6722381777
 10
34.8847192366
 20
68.0677533197
 10
35.0341127488
 20
68.4687012678
 10
35.1728664423
 20
68.8733825277
 10
35.3007079888
 20
69.281691435
 10
35.4176287663
 20
69.6938255817
 10
35.5235492825
 20
70.1085306859
 10
35.6182788522
 20
70.5257162728
 10
35.7017387293
 20
70.9455362094
 10
35.774033154
 20
71.367092348
 10
35.8350290612
 20
71.7904034509
 10
35.8846060781
 20
72.2154861195
 10
35.9229056944
 20
72.6414292439
 10
35.9498031317
 20
73.0682390936
 10
35.965190629
 20
73.4959174236
 10
35.9692560303
 20
73.9235373594
 10
35.9618863682
 20
74.3510788958
 10
35.9429876993
 20
74.7785439359
 10
35.9127993749
 20
75.205030496
 10
35.8712243459
 20
75.6305057774
 10
35.8181818539
 20
76.0549602615
 10
35.753960077
 20
76.477520225
 10
35.6784825165
 20
76.8981295912
 10
35.5916797792
 20
77.3167802895
 10
35.4938755657
 20
77.7326654505
 10
35.3850151076
 20
78.145718772
 10
35.2650401645
 20
78.5559233709
 10
35.1342934998
 20
78.9625429032
 10
34.992727564
 20
79.3655323902
 10
34.840309467
 20
79.7648373967
 10
34.677428252
 20
80.1597053292
 10
34.5040440194
 20
80.5500888505
 10
34.3201506776
 20
80.9359226465
 10
34.1262135326
 20
81.316426888
 10
33.9222425102
 20
81.6914900629
 10
33.7082187813
 20
82.0611015867
 10
33.484588776
 20
82.424634401
 10
33.2513644289
 20
82.7820121979
 10
33.0085571421
 20
83.1331825353
 10
32.7566341605
 20
83.4775568377
 10
32.4956086365
 20
83.8150714341
 10
32.2255219396
 20
84.1456575607
 10
31.9469047404
 20
84.4687233771
 10
31.659806364
 20
84.7841782466
 10
31.3642634869
 20
85.0919804626
 10
31.0608076481
 20
85.3916174994
 10
30.749495005
 20
85.6830109006
 10
30.4303833262
 20
85.9661094075
 10
30.1040241899
 20
86.2404483712
 10
29.770485048
 20
86.5059531205
 10
29.4298378988
 20
86.7625739916
 10
29.0826569525
 20
87.0098921724
 10
28.7290214504
 20
87.2478363072
 10
28.3690144447
 20
87.4763614004
 10
28.0032297588
 20
87.6950976761
 10
27.631756867
 20
87.9039787063
 10
27.2546883813
 20
88.1029648862
 10
26.8726346572
 20
88.2917372029
 10
26.4856912363
 20
88.4702360916
 10
26.0939611313
 20
88.6384274241
 10
25.6980755911
 20
88.7960418381
 10
25.2981334872
 20
88.9430271703
 10
24.894247521
 20
89.0793561002
 10
24.4870772017
 20
89.2048090366
 10
24.0769171583
 20
89.3192943228
 10
23.6636941291
 20
89.4228415639
 10
23.2475192362
 20
89.515420172
  0
LWPOLYLINE
  5
27D
100
AcDbEntity
  8
RACCORDO
100
AcDbPolyline
 62
253
  6
CONTINUOUS
 90
112
 70
0
 10
41.3528782148
 20
37.8300294497
 10
41.123109667
 20
37.9932649616
 10
40.8977165289
 20
38.1626261606
 10
40.6766207667
 20
38.3381685902
 10
40.4594150968
 20
38.5201777456
 10
40.2463476644
 20
38.7084747991
 10
40.038332719
 20
38.9024281539
 10
39.8353513903
 20
39.1021428856
 10
39.6372842568
 20
39.3076386561
 10
39.4449165976
 20
39.5181724615
 10
39.258248342
 20
39.7338458423
 10
39.0771684748
 20
39.9546899366
 10
38.9023222905
 20
40.1798674172
 10
38.7337723653
 20
40.4093904986
 10
38.5713791402
 20
40.6433805229
 10
38.4155106742
 20
40.8811690503
 10
38.2662207584
 20
41.1227160711
 10
38.1234088811
 20
41.3681876963
 10
37.9872305922
 20
41.6172246864
 10
37.8576560486
 20
41.8699053107
 10
37.7346886394
 20
42.1262655349
 10
37.6185492099
 20
42.3858808583
 10
37.5092224875
 20
42.6488790301
 10
37.406721151
 20
42.9152347758
 10
37.3113275709
 20
43.184291717
 10
37.2230954419
 20
43.4560605041
 10
37.1420003373
 20
43.7306195703
 10
37.0682280763
 20
44.0074105311
 10
37.001828546
 20
44.2864369595
 10
36.9428079351
 20
44.5677686736
 10
36.8913033581
 20
44.8509418821
 10
36.8473614292
 20
45.1359731615
 10
36.8110145843
 20
45.4229026551
 10
36.7823929214
 20
45.7112966604
 10
36.7615487654
 20
46.0011694283
 10
36.748530074
 20
46.2925460357
 10
36.7434732904
 20
46.58500342
 10
36.7464377697
 20
46.8785516794
 10
36.7574842125
 20
47.1732018885
 10
36.7767630684
 20
47.4685265015
 10
36.8043537389
 20
47.7645784686
 10
36.8403151977
 20
48.0613069893
 10
36.8847795179
 20
48.3581221835
 10
36.9378694396
 20
48.6551045427
 10
36.9996195838
 20
48.952154861
 10
37.0700429613
 20
49.2484057864
 10
37.1492866767
 20
49.5438696305
 10
37.2373791605
 20
49.838492503
 10
37.3341666315
 20
50.131299391
 10
37.4398345643
 20
50.4223184154
 10
37.5543843096
 20
50.7114572966
 10
37.6773921748
 20
50.9975530953
 10
37.8090228893
 20
51.2805324042
 10
37.9493009593
 20
51.5603839369
 10
38.0975915892
 20
51.8360333673
 10
38.2539870443
 20
52.1073212527
 10
38.4185745416
 20
52.3743069977
 10
38.5907040187
 20
52.6362437117
 10
38.770462237
 20
52.8930301827
 10
38.9579237201
 20
53.1446573623
 10
39.1524081432
 20
53.3905189292
 10
39.3539774663
 20
53.6305176895
 10
39.5627079465
 20
53.8646346197
 10
39.7779266923
 20
54.0923853816
 10
39.9996868719
 20
54.3136905131
 10
40.2280478629
 20
54.528510811
 10
40.4623311221
 20
54.7364289574
 10
40.7025833174
 20
54.9373757613
 10
40.9488430808
 20
55.1313025208
 10
41.200404258
 20
55.3178311058
 10
41.4572978004
 20
55.4968925845
 10
41.719549617
 20
55.668442144
 10
41.9864301119
 20
55.8321480935
 10
42.2579448531
 20
55.9879399822
 10
42.5341162514
 20
56.1357819316
 10
42.8142244386
 20
56.2754057692
 10
43.0982624001
 20
56.4067497756
 10
43.3862371308
 20
56.5297791565
 10
43.6774351252
 20
56.6442787512
 10
43.9718489228
 20
56.7501970401
 10
44.2694593249
 20
56.8475009464
 10
44.569521403
 20
56.9360167584
 10
44.8720021788
 20
57.0156944681
 10
45.1768824944
 20
57.0865142207
 10
45.4834254552
 20
57.1483623284
 10
45.7915560526
 20
57.2011967419
 10
46.1012740397
 20
57.2450061666
 10
46.411944054
 20
57.2797373042
 10
46.7235581552
 20
57.305363482
 10
47.0360298575
 20
57.3218730233
 10
47.3485968299
 20
57.3292500896
 10
47.6611848292
 20
57.3274677474
 10
47.9737555754
 20
57.3165343349
 10
48.2855929686
 20
57.29650307
 10
48.5965990623
 20
57.2673645524
 10
48.9067452658
 20
57.2291288782
 10
49.215414259
 20
57.1818932138
 10
49.5225327542
 20
57.125657862
 10
49.8280373838
 20
57.060440348
 10
50.1313225323
 20
56.9863771322
 10
50.4323209178
 20
56.9034719589
 10
50.7309560614
 20
56.8117559797
 10
51.0266072104
 20
56.7114201308
 10
51.3191955584
 20
56.6024762382
 10
51.6086523852
 20
56.4849646688
 10
51.8943727769
 20
56.3591322766
 10
52.1762771978
 20
56.2249978286
 10
52.4542975117
 20
56.0826110402
 10
52.7278488129
 20
55.9322775205
 10
52.9966890825
 20
55.7741293191
 10
53.2609168655
 20
55.608118891
 10
53.5204602687
 20
55.4342887912
  0
LWPOLYLINE
  5
27E
100
AcDbEntity
  8
DRAFT
100
AcDbPolyline
 62
7
  6
CONTINUOUS
 90
100
 70
0
 10
43.2119736491
 20
40.5197995306
 10
43.017632646
 20
40.6588476481
 10
42.8284794706
 20
40.8033596196
 10
42.644459491
 20
40.9533864464
 10
42.465275705
 20
41.1092608753
 10
42.2911147571
 20
41.2707483418
 10
42.1226570971
 20
41.4370534957
 10
41.9599284734
 20
41.6082338998
 10
41.8028162488
 20
41.784337548
 10
41.6518130772
 20
41.9645623309
 10
41.5069187101
 20
42.1490070736
 10
41.3680707827
 20
42.3376771738
 10
41.2356908866
 20
42.5296338671
 10
41.1098704449
 20
42.7248311575
 10
40.9904856703
 20
42.9234139151
 10
40.8776555899
 20
43.1247291872
 10
40.7713777733
 20
43.3288646253
 10
40.6716437173
 20
43.5358200032
 10
40.5785811289
 20
43.7448073018
 10
40.4922642766
 20
43.9557408907
 10
40.4126340417
 20
44.1687814234
 10
40.3396324758
 20
44.383505924
 10
40.2732537226
 20
44.6000178419
 10
40.2135329774
 20
44.8182748899
 10
40.1604857496
 20
45.03763048
 10
40.1141686074
 20
45.2579654047
 10
40.0745748618
 20
45.4794459658
 10
40.0416344328
 20
45.7018490971
 10
40.0153533761
 20
45.9253008474
 10
39.9957836438
 20
46.1497093383
 10
39.9829316021
 20
46.3745199534
 10
39.9768324495
 20
46.599610084
 10
39.9775250637
 20
46.825122422
 10
39.9850282412
 20
47.0508959491
 10
39.9993741
 20
47.2770486986
 10
40.0206109279
 20
47.5034704973
 10
40.0487877445
 20
47.7296537178
 10
40.0839323211
 20
47.9555134917
 10
40.1261098718
 20
48.1811282265
 10
40.1754321647
 20
48.4062305866
 10
40.231976238
 20
48.6309402665
 10
40.2957652493
 20
48.8551176332
 10
40.366836602
 20
49.0781012728
 10
40.4452602054
 20
49.2998637194
 10
40.5310766632
 20
49.5203965696
 10
40.6242860823
 20
49.7390612142
 10
40.7250700679
 20
49.9559926376
 10
40.8333637159
 20
50.1710041213
 10
40.9488017598
 20
50.3829690096
 10
41.0714993364
 20
50.5918002361
 10
41.2014598766
 20
50.7975177568
 10
41.3381505249
 20
50.9991518052
 10
41.4816968909
 20
51.1966416331
 10
41.6320846273
 20
51.3899696704
 10
41.7885651802
 20
51.5782307204
 10
41.9511818849
 20
51.7612901902
 10
42.1199872481
 20
51.939198524
 10
42.294236645
 20
52.1113312308
 10
42.4739488145
 20
52.2775838209
 10
42.6591811011
 20
52.437975181
 10
42.8492354167
 20
52.5920712349
 10
43.0441049956
 20
52.7397874326
 10
43.2438513875
 20
52.8811243377
 10
43.4478677654
 20
53.0157819108
 10
43.6562098729
 20
53.143730098
 10
43.8688561533
 20
53.2649178521
 10
44.0850723485
 20
53.3790215333
 10
44.3048492641
 20
53.4859783266
 10
44.5282075693
 20
53.5857772081
 10
44.7544460512
 20
53.6781818431
 10
44.9835729029
 20
53.7631473575
 10
45.2155699587
 20
53.840653586
 10
45.4496852832
 20
53.9105120638
 10
45.685880792
 20
53.9726739789
 10
45.9241635258
 20
54.0271349896
 10
46.1638390269
 20
54.0737849277
 10
46.4048891999
 20
54.112589651
 10
46.6472825691
 20
54.1435424657
 10
46.8902957484
 20
54.1665864029
 10
47.1338846155
 20
54.1816915016
 10
47.3780269027
 20
54.1888612452
 10
47.6220245189
 20
54.1881013572
 10
47.8658314039
 20
54.179389928
 10
48.1094132198
 20
54.1627371538
 10
48.3520836976
 20
54.1382094209
 10
48.5937794598
 20
54.105795681
 10
48.8344723702
 20
54.0655105162
 10
49.0735250899
 20
54.0174708412
 10
49.31089302
 20
53.9616681393
 10
49.5465212922
 20
53.8981288316
 10
49.7797550961
 20
53.8270340009
 10
50.0105285684
 20
53.7483856105
 10
50.2388032762
 20
53.6622143962
 10
50.4639654212
 20
53.5687559576
 10
50.6859555706
 20
53.4680166123
 10
50.9047273847
 20
53.3600361396
 10
51.1196885877
 20
53.2451107903
 10
51.3306079015
 20
53.1233607914
 10
51.5376132505
 20
52.9947251664
 10
51.7406526588
 20
52.8592336485
  0
LWPOLYLINE
  5
27F
100
AcDbEntity
  8
RACCORDO
100
AcDbPolyline
 62
253
  6
CONTINUOUS
 90
103
 70
0
 10
62.3835583042
 20
21.1178074437
 10
62.5114773383
 20
20.938304254
 10
62.6448870693
 20
20.7620537666
 10
62.7837180893
 20
20.5892353918
 10
62.9279588613
 20
20.4199622234
 10
63.0774755143
 20
20.2544811732
 10
63.2319932302
 20
20.0931573516
 10
63.3914096305
 20
19.9361470372
 10
63.555613071
 20
19.7836072831
 10
63.724266868
 20
19.6358717955
 10
63.8972197742
 20
19.4930831094
 10
64.0743270442
 20
19.3553749297
 10
64.2552245975
 20
19.2230191181
 10
64.4396755658
 20
19.0961599931
 10
64.6275782398
 20
18.9748455915
 10
64.8187601577
 20
18.859166863
 10
65.012996583
 20
18.7492324192
 10
65.210194055
 20
18.6450737307
 10
65.4103869789
 20
18.5466686052
 10
65.6134203885
 20
18.4540976804
 10
65.8191312376
 20
18.3674443937
 10
66.0275451222
 20
18.2867196253
 10
66.2384990977
 20
18.2120053616
 10
66.4517375577
 20
18.1434095716
 10
66.6671241916
 20
18.0810029481
 10
66.8844996275
 20
18.0248613165
 10
67.1036993589
 20
17.9750507209
 10
67.3245970809
 20
17.9316269821
 10
67.5469981294
 20
17.8946560507
 10
67.7707563699
 20
17.864188972
 10
67.9958177034
 20
17.8402733663
 10
68.2219702541
 20
17.8229816939
 10
68.4490273999
 20
17.8123696923
 10
68.6769717533
 20
17.808487697
 10
68.905589453
 20
17.8114024339
 10
69.1346705889
 20
17.8211692704
 10
69.3641947332
 20
17.8378486684
 10
69.5939466371
 20
17.8615023209
 10
69.8236844749
 20
17.8921852725
 10
70.0533623697
 20
17.9299722089
 10
70.2828023359
 20
17.9749269362
 10
70.511771098
 20
18.0271013957
 10
70.7401142635
 20
18.0865575202
 10
70.9676653325
 20
18.1533618989
 10
71.1940813551
 20
18.2275311391
 10
71.4189351737
 20
18.3090215246
 10
71.6419976857
 20
18.3978376317
 10
71.8629807039
 20
18.4939610233
 10
72.0813897192
 20
18.597254259
 10
72.2969408551
 20
18.707641387
 10
72.5094403202
 20
18.8250901708
 10
72.7185508591
 20
18.9494762585
 10
72.9240776203
 20
19.0807382217
 10
73.1257388198
 20
19.2187601532
 10
73.3230910859
 20
19.3632839351
 10
73.5159268321
 20
19.5141798135
 10
73.7040260472
 20
19.671307003
 10
73.8869741163
 20
19.8343352228
 10
74.064544281
 20
20.0030486315
 10
74.2366247492
 20
20.1773352306
 10
74.4030077886
 20
20.3569809408
 10
74.5634898641
 20
20.5417429258
 10
74.7179289619
 20
20.7314437475
 10
74.8662109227
 20
20.9259411955
 10
75.0082028105
 20
21.1250452962
 10
75.1437473232
 20
21.3285263796
 10
75.2727153383
 20
21.53619014
 10
75.3950024307
 20
21.7478640404
 10
75.5104911983
 20
21.9633487202
 10
75.6190553538
 20
22.1824147657
 10
75.7205769811
 20
22.4048083533
 10
75.8149533697
 20
22.6302985083
 10
75.9020826874
 20
22.8586542947
 10
75.981878271
 20
23.089629717
 10
76.0542634124
 20
23.3229835468
 10
76.1191685897
 20
23.5584951778
 10
76.1765378433
 20
23.7959373475
 10
76.2263140548
 20
24.0350453319
 10
76.2684414069
 20
24.2755431485
 10
76.3028867466
 20
24.5172275831
 10
76.329621096
 20
24.759891436
 10
76.348614122
 20
25.0032690642
 10
76.3598538752
 20
25.2470649645
 10
76.36333983
 20
25.4910190515
 10
76.359067161
 20
25.7348835053
 10
76.3470458552
 20
25.9783836538
 10
76.3273007547
 20
26.2212961311
 10
76.299847004
 20
26.4634686108
 10
76.2647064626
 20
26.7046876158
 10
76.2219131058
 20
26.9447084826
 10
76.1714933738
 20
27.1833318732
 10
76.1134736198
 20
27.4203761465
 10
76.0479181644
 20
27.6555464047
 10
75.9749239874
 20
27.8884735298
 10
75.894563021
 20
28.1189321861
 10
75.8069335365
 20
28.3466693259
 10
75.7122027184
 20
28.5712842346
 10
75.6104843069
 20
28.7925565257
 10
75.501904793
 20
29.0102756045
 10
75.3866823552
 20
29.2240727894
 10
75.2649955844
 20
29.4337014425
 10
75.1369756932
 20
29.6390294003
 10
75.0027843946
 20
29.8398710041
  0
LWPOLYLINE
  5
280
100
AcDbEntity
  8
RACCORDO
100
AcDbPolyline
 62
253
  6
CONTINUOUS
 90
103
 70
0
 10
61.6689995896
 20
20.6239240247
 10
61.810338041
 20
20.4254472555
 10
61.9575148774
 20
20.231065245
 10
62.110572878
 20
20.0407169083
 10
62.2697736072
 20
19.8540194277
 10
62.4349378307
 20
19.6712310742
 10
62.6054549401
 20
19.4932598405
 10
62.7814254625
 20
19.3200987771
 10
62.9628465833
 20
19.1516473937
 10
63.1489664158
 20
18.9886915777
 10
63.3398747214
 20
18.8312486698
 10
63.5355862555
 20
18.6792173508
 10
63.7352455951
 20
18.5332280095
 10
63.9388386594
 20
18.3933604061
 10
64.1464842577
 20
18.2594802977
 10
64.3575298681
 20
18.1319187427
 10
64.5719412977
 20
18.0107214399
 10
64.7898502581
 20
17.8958130002
 10
65.0108525158
 20
17.7873588424
 10
65.2350141759
 20
17.6853428363
 10
65.4623563852
 20
17.5897696115
 10
65.6924054705
 20
17.5008494611
 10
65.9252450401
 20
17.4185855918
 10
66.1608679067
 20
17.3429843435
 10
66.3986614482
 20
17.2742766944
 10
66.6386454503
 20
17.212507549
 10
66.8808640154
 20
17.1576661246
 10
67.124737101
 20
17.1099162717
 10
67.3702615015
 20
17.0693050224
 10
67.6174899778
 20
17.0358416138
 10
67.8659217245
 20
17.0096472647
 10
68.1155741416
 20
16.9907676099
 10
68.3664641969
 20
16.9792320789
 10
68.6180852632
 20
16.9751497975
 10
68.8704465313
 20
16.9785749058
 10
69.123557116
 20
16.9895459129
 10
69.3769046894
 20
17.0081596845
 10
69.6304947405
 20
17.034475827
 10
69.8843232348
 20
17.0685431628
 10
70.1378576147
 20
17.1104525357
 10
70.3911260684
 20
17.1602836828
 10
70.6440842288
 20
17.2180792305
 10
70.8960842747
 20
17.2838838152
 10
71.1472210765
 20
17.3578344089
 10
71.3973648825
 20
17.439928756
 10
71.645523844
 20
17.530011556
 10
71.8916816242
 20
17.628227044
 10
72.1357998995
 20
17.7345758534
 10
72.3768472835
 20
17.8486930193
 10
72.6147155465
 20
17.9706762619
 10
72.8494407568
 20
18.1005742246
 10
73.0802036511
 20
18.2379484591
 10
73.3069859267
 20
18.3829429023
 10
73.5297197231
 20
18.5355531465
 10
73.747510036
 20
18.6951130723
 10
73.9602724627
 20
18.8617289416
 10
74.167995697
 20
19.0354196138
 10
74.3698965502
 20
19.2153778281
 10
74.5658362575
 20
19.4016285372
 10
74.7558541171
 20
19.5942503224
 10
74.9394392061
 20
19.7925034812
 10
75.1164988871
 20
19.9964052314
 10
75.2870262244
 20
20.2060179545
 10
75.4506456318
 20
20.4206564005
 10
75.60729543
 20
20.6403459197
 10
75.7569401692
 20
20.865116335
 10
75.8992516844
 20
21.0942758714
 10
76.0341775565
 20
21.3278548537
 10
76.1616782679
 20
21.5658532261
 10
76.281454837
 20
21.8075201489
 10
76.3934509445
 20
22.0528619209
 10
76.4976397301
 20
22.301876941
 10
76.5937780592
 20
22.5537890061
 10
76.6818081861
 20
22.8085768462
 10
76.7617163307
 20
23.0662414597
 10
76.8333380666
 20
23.3260274156
 10
76.8966291099
 20
23.5879039809
 10
76.951575604
 20
23.8518586329
 10
76.9980720575
 20
24.1171520325
 10
77.0360798892
 20
24.3837581371
 10
77.0655942585
 20
24.6516390062
 10
77.08657434
 20
24.9200276235
 10
77.098989975
 20
25.1888748627
 10
77.1028447152
 20
25.45814745
 10
77.0981629449
 20
25.7270939696
 10
77.0849300775
 20
25.9956116875
 10
77.0631518283
 20
26.2637056944
 10
77.0328962748
 20
26.5307804291
 10
76.9941598582
 20
26.7967887639
 10
76.9469518089
 20
27.0616690195
 10
76.8913714164
 20
27.3247998522
 10
76.827392758
 20
27.5861854979
 10
76.7550626703
 20
27.8457040337
 10
76.6746036967
 20
28.1025426245
 10
76.5859956519
 20
28.356641288
 10
76.4892992854
 20
28.6079371082
 10
76.3848743583
 20
28.8556135315
 10
76.272711087
 20
29.0995924627
 10
76.152878508
 20
29.3398295078
 10
76.0258694451
 20
29.5755631019
 10
75.8918761711
 20
29.8065021708
 10
75.7507830419
 20
30.0328225708
 10
75.6026281709
 20
30.2544665986
  0
LWPOLYLINE
  5
281
100
AcDbEntity
  8
RACCORDO
100
AcDbPolyline
 62
253
  6
CONTINUOUS
 90
103
 70
0
 10
51.8398710041
 20
53.0027843946
 10
51.6390219233
 20
53.1369805424
 10
51.4336980741
 20
53.2649976515
 10
51.2240854461
 20
53.3866752821
 10
51.0103216257
 20
53.501880871
 10
50.7926494067
 20
53.6104397549
 10
50.5714229755
 20
53.7121415839
 10
50.3468527521
 20
53.8068595868
 10
50.1191602216
 20
53.8944793943
 10
49.888732234
 20
53.9748383601
 10
49.655818171
 20
54.0478377198
 10
49.4206471234
 20
54.113402688
 10
49.1835849458
 20
54.1714356719
 10
48.9449202393
 20
54.2218718564
 10
48.7048416863
 20
54.2646814706
 10
48.463565623
 20
54.2998344172
 10
48.2213388264
 20
54.3272966046
 10
47.9783744534
 20
54.3470464502
 10
47.7348384887
 20
54.3590686828
 10
47.4909599476
 20
54.3633399726
 10
47.2470089008
 20
54.3598521232
 10
47.0032320091
 20
54.3486116998
 10
46.7598933123
 20
54.3296212334
 10
46.5172867453
 20
54.3028942357
 10
46.2756673093
 20
54.2684611744
 10
46.0352395379
 20
54.2263513275
 10
45.7962094406
 20
54.1765989736
 10
45.5588512853
 20
54.1192605562
 10
45.32343774
 20
54.0543963841
 10
45.0901895955
 20
53.9820616572
 10
44.8593050636
 20
53.9023190132
 10
44.6310424333
 20
53.8152509279
 10
44.4056330094
 20
53.7209377717
 10
44.1832402844
 20
53.6194481302
 10
43.964048633
 20
53.5108519194
 10
43.7483682226
 20
53.3952829201
 10
43.5365146113
 20
53.2729096243
 10
43.3287035889
 20
53.1438613982
 10
43.1250926959
 20
53.0082355993
 10
42.9259075147
 20
52.8661860525
 10
42.7313910659
 20
52.7178874513
 10
42.5417142266
 20
52.5634657396
 10
42.3570010078
 20
52.4030255383
 10
42.1774236414
 20
52.2367090937
 10
42.0032276508
 20
52.0647269038
 10
41.8346215626
 20
51.8872853983
 10
41.6717376307
 20
51.7045251287
 10
41.5147635633
 20
51.5166487366
 10
41.3639588074
 20
51.3239821268
 10
41.2194501191
 20
51.1267128579
 10
41.0813953468
 20
50.9250713811
 10
40.950054499
 20
50.7194887137
 10
40.8255102523
 20
50.5101725222
 10
40.7078759074
 20
50.2973815264
 10
40.5973867051
 20
50.0816585479
 10
40.4941041898
 20
49.8632959051
 10
40.3980446854
 20
49.6424951625
 10
40.3093088106
 20
49.419691052
 10
40.2279163969
 20
49.1951980593
 10
40.1538449358
 20
48.9692208647
 10
40.0870916645
 20
48.7420426718
 10
40.0276319486
 20
48.5139433617
 10
39.9754236393
 20
48.2851451483
 10
39.9304179198
 20
48.0558346095
 10
39.8925706366
 20
47.8262689073
 10
39.8618161844
 20
47.5965987754
 10
39.8380798928
 20
47.3668250686
 10
39.8213137445
 20
47.1371692189
 10
39.8114658669
 20
46.9078639615
 10
39.8084835949
 20
46.6789410381
 10
39.8123206608
 20
46.4505649587
 10
39.8229186142
 20
46.2229949047
 10
39.8402205079
 20
45.9963956261
 10
39.8641596677
 20
45.7709970551
 10
39.8946609611
 20
45.5469654547
 10
39.931668702
 20
45.3243676394
 10
39.9751216491
 20
45.1033650811
 10
40.0249500379
 20
44.8841342939
 10
40.0811016227
 20
44.6667638323
 10
40.1435084189
 20
44.4514135298
 10
40.2120917607
 20
44.2382429293
 10
40.2867882379
 20
44.0273600815
 10
40.3674918271
 20
43.8190140344
 10
40.4541189531
 20
43.6133718645
 10
40.5466639838
 20
43.4103967191
 10
40.645046016
 20
43.2102484279
 10
40.7491844773
 20
43.0130841273
 10
40.8591045081
 20
42.8188665561
 10
40.9747778468
 20
42.6276865741
 10
41.0960964626
 20
42.4397708627
 10
41.2229684797
 20
42.2552959152
 10
41.3553498352
 20
42.0743602872
 10
41.4930955185
 20
41.8972042791
 10
41.6359241943
 20
41.7242052087
 10
41.7837033777
 20
41.5555065254
 10
41.9362904835
 20
41.3912596846
 10
42.0933380737
 20
41.2318149394
 10
42.2546886385
 20
41.0772823645
 10
42.4201860119
 20
40.9277624173
 10
42.5894500254
 20
40.7835405531
 10
42.7622270164
 20
40.6447520504
 10
42.9384066265
 20
40.5114021884
 10
43.1178074437
 20
40.3835583042
  0
LWPOLYLINE
  5
282
100
AcDbEntity
  8
RACCORDO
100
AcDbPolyline
 62
253
  6
CONTINUOUS
 90
103
 70
0
 10
52.2544665986
 20
53.6026281709
 10
52.0327648755
 20
53.7508154503
 10
51.8064125668
 20
53.8919264865
 10
51.5754674989
 20
54.0259233925
 10
51.3397629715
 20
54.1529161944
 10
51.0995811347
 20
54.2727187739
 10
50.855656412
 20
54.3848559471
 10
50.6080287033
 20
54.4892635237
 10
50.3567804935
 20
54.5859463999
 10
50.1027143975
 20
54.6745474597
 10
49.8458897619
 20
54.7550079159
 10
49.5863700757
 20
54.8273456746
 10
49.3249648931
 20
54.8913343085
 10
49.0617885106
 20
54.9469274204
 10
48.7968443895
 20
54.9941500822
 10
48.5307736126
 20
55.0328973522
 10
48.2636384771
 20
55.0631578189
 10
47.9954855638
 20
55.0849372612
 10
47.7269283527
 20
55.0981689256
 10
47.4579680865
 20
55.1028461912
 10
47.1887010652
 20
55.0989849733
 10
46.9198773802
 20
55.0865657169
 10
46.6515325509
 20
55.0655855455
 10
46.3837132746
 20
55.036074291
 10
46.1171782207
 20
54.9980759978
 10
45.8519630094
 20
54.9515959009
 10
45.5880958545
 20
54.8966723219
 10
45.3263145052
 20
54.8334128819
 10
45.0666382843
 20
54.7618344679
 10
44.8090909455
 20
54.6819784667
 10
44.5544057987
 20
54.5940023291
 10
44.3025977606
 20
54.4979320043
 10
44.0536722491
 20
54.3938128603
 10
43.8083363237
 20
54.2818435229
 10
43.5665357438
 20
54.1620214106
 10
43.3283214326
 20
54.0344307693
 10
43.0945445071
 20
53.8994123971
 10
42.8652268689
 20
53.7570089969
 10
42.6403160389
 20
53.6072702702
 10
42.4205371649
 20
53.450558284
 10
42.2058792327
 20
53.2869207621
 10
41.9962973195
 20
53.1164078371
 10
41.7924524137
 20
52.939393259
 10
41.59427752
 20
52.755881816
 10
41.401759767
 20
52.5659684715
 10
41.215628299
 20
52.370168753
 10
41.0358261252
 20
52.1684782871
 10
40.8623066297
 20
51.9610009149
 10
40.6958020742
 20
51.7484193455
 10
40.5362635355
 20
51.5307185477
 10
40.3836155206
 20
51.3080087973
 10
40.2385404834
 20
51.0811628994
 10
40.1010092918
 20
50.8501648544
 10
39.9709114317
 20
50.6151169207
 10
39.8488019255
 20
50.3770680206
 10
39.7346921918
 20
50.1360777691
 10
39.6284245958
 20
49.8921586491
 10
39.5303010889
 20
49.646284384
 10
39.4403181363
 20
49.3985275939
 10
39.3583355022
 20
49.148869886
 10
39.2844555154
 20
48.8981420718
 10
39.2186537271
 20
48.6464106016
 10
39.1608195633
 20
48.393644148
 10
39.1109344466
 20
48.1405200108
 10
39.0689595491
 20
47.8871103489
 10
39.0348110648
 20
47.6333593678
 10
39.0084118823
 20
47.3797461064
 10
38.9897076159
 20
47.1262535804
 10
38.9786425715
 20
46.8728978274
 10
38.9751471759
 20
46.620201549
 10
38.9791928785
 20
46.3681053203
 10
38.9907132804
 20
46.1166506465
 10
39.0095945165
 20
45.8665056504
 10
39.0358144901
 20
45.6177030184
 10
39.0693214046
 20
45.3701752301
 10
39.1099707845
 20
45.1244346343
 10
39.1577489546
 20
44.880447284
 10
39.2126150206
 20
44.6381972426
 10
39.2743976304
 20
44.3982193207
 10
39.3431035517
 20
44.1604660677
 10
39.4186927442
 20
43.9249210146
 10
39.5009392828
 20
43.6921617088
 10
39.5898359551
 20
43.4621886097
 10
39.6853804927
 20
43.234924912
 10
39.7873698079
 20
43.0108295375
 10
39.8957991342
 20
42.7898777109
 10
40.0106844436
 20
42.5720069969
 10
40.1318672385
 20
42.3576177678
 10
40.2594239639
 20
42.146575588
 10
40.3933074427
 20
41.9389173092
 10
40.5331897075
 20
41.7352995916
 10
40.6792086119
 20
41.5356001901
 10
40.8312804443
 20
41.3398364476
 10
40.9887667817
 20
41.1488779842
 10
41.1517713221
 20
40.9627107086
 10
41.3202744055
 20
40.7812440976
 10
41.4934753967
 20
40.6052422631
 10
41.6714770873
 20
40.4347096166
 10
41.8542844878
 20
40.2695441886
 10
42.0409687453
 20
40.1103645698
 10
42.2312648391
 20
39.95735294
 10
42.425562834
 20
39.810245433
 10
42.6239240247
 20
39.6689995896
  0
LWPOLYLINE
  5
283
100
AcDbEntity
  8
RACCORDO
100
AcDbPolyline
 62
253
  6
CONTINUOUS
 90
112
 70
0
 10
77.4342887912
 20
31.5204602687
 10
77.6081523399
 20
31.2608607254
 10
77.774185513
 20
30.9965928133
 10
77.932345914
 20
30.7277285339
 10
78.0826778136
 20
30.4541744154
 10
78.2250528063
 20
30.1761676102
 10
78.3591756672
 20
29.8942781227
 10
78.4849984611
 20
29.6085745553
 10
78.6025006769
 20
29.3191359514
 10
78.71144022
 20
29.0265507795
 10
78.8117787141
 20
28.7308857473
 10
78.9035019955
 20
28.4322216301
 10
78.9864171013
 20
28.1311687348
 10
79.0604952311
 20
27.8277867623
 10
79.1257295962
 20
27.5221598853
 10
79.1819739521
 20
27.2149338078
 10
79.2292068327
 20
26.9061674261
 10
79.2674321787
 20
26.5959385996
 10
79.2965563586
 20
26.284918079
 10
79.316567486
 20
25.9731706692
 10
79.3274785303
 20
25.6607576081
 10
79.329247798
 20
25.3483389394
 10
79.3218753367
 20
25.0359682445
 10
79.3053800237
 20
24.7237041172
 10
79.2797628218
 20
24.4122070465
 10
79.2450285753
 20
24.1014998619
 10
79.2012083885
 20
23.7916552344
 10
79.1483574779
 20
23.4833993855
 10
79.0864837346
 20
23.176749967
 10
79.0156327999
 20
22.8717646083
 10
78.9359321329
 20
22.5692181748
 10
78.8474097604
 20
22.2691563549
 10
78.7501084877
 20
21.9715849733
 10
78.6441926812
 20
21.6772064085
 10
78.5296960915
 20
21.3860322555
 10
78.4066694312
 20
21.0980776466
 10
78.2753157069
 20
20.8140368936
 10
78.1356634203
 20
20.5338902506
 10
77.9877801207
 20
20.25765791
 10
77.8319400288
 20
19.9860794475
 10
77.6681780811
 20
19.7191344961
 10
77.4965656816
 20
19.4568154883
 10
77.3174436929
 20
19.1998653999
 10
77.1308581039
 20
18.9482616826
 10
76.9368768821
 20
18.7019698245
 10
76.7358842275
 20
18.4616988418
 10
76.5279329888
 20
18.2274142419
 10
76.3130884094
 20
17.9990649688
 10
76.0917616753
 20
17.7773196903
 10
75.8639923483
 20
17.5621177616
 10
75.629859555
 20
17.3534072251
 10
75.3898403681
 20
17.1518549296
 10
75.1439519024
 20
16.9573823232
 10
74.8922932305
 20
16.7699297599
 10
74.6354690748
 20
16.5901784571
 10
74.3734876659
 20
16.4180533487
 10
74.106451038
 20
16.2534681809
 10
73.8351069646
 20
16.0970754464
 10
73.5593935571
 20
15.9487872187
 10
73.2794727743
 20
15.8085118418
 10
72.9964273347
 20
15.6768884976
 10
72.7102677114
 20
15.5538935627
 10
72.4210681471
 20
15.4393613167
 10
72.1300024199
 20
15.3337170819
 10
71.837165363
 20
15.2369612459
 10
71.5425262543
 20
15.1489066315
 10
71.2470631691
 20
15.0697036059
 10
70.9508326327
 20
14.9993243264
 10
70.6538195972
 20
14.9376213104
 10
70.356886407
 20
14.8845767573
 10
70.060147499
 20
14.8401552491
 10
69.7635070389
 20
14.8042351887
 10
69.467504162
 20
14.776682226
 10
69.1721959265
 20
14.7574302392
 10
68.8775232727
 20
14.7464064528
 10
68.5838447117
 20
14.7434775897
 10
68.291095345
 20
14.7485831066
 10
67.9993193857
 20
14.7616608116
 10
67.7090329611
 20
14.7825869321
 10
67.4201863267
 20
14.8113310898
 10
67.1327897665
 20
14.8478223231
 10
66.847443356
 20
14.8918917464
 10
66.5641892676
 20
14.9435007543
 10
66.2829278803
 20
15.0026129621
 10
66.0040413162
 20
15.0690783626
 10
65.7274355336
 20
15.1428927816
 10
65.4531311219
 20
15.2240061077
 10
65.1816777287
 20
15.3122154755
 10
64.9130338926
 20
15.407525659
 10
64.6471522879
 20
15.5099049815
 10
64.3845701947
 20
15.6191148492
 10
64.1252820775
 20
15.7351442046
 10
63.869191295
 20
15.8580050367
 10
63.6166958904
 20
15.987510726
 10
63.3677392885
 20
16.1236668102
 10
63.1222635924
 20
16.2664915929
 10
62.8806627387
 20
16.4158329799
 10
62.642767183
 20
16.5717980926
 10
62.4086197909
 20
16.7343249667
 10
62.1789331023
 20
16.9030278931
 10
61.9535861625
 20
17.0780537275
 10
61.7325658514
 20
17.2593323927
 10
61.5167520608
 20
17.4461800466
 10
61.306118616
 20
17.6387132029
 10
61.1005591557
 20
17.8369275776
 10
60.9008454421
 20
18.039985665
 10
60.7069641082
 20
18.2480118662
 10
60.518805124
 20
18.4610219772
 10
60.3370132434
 20
18.6780380481
 10
60.1617729996
 20
18.8987914295
 10
59.992796382
 20
19.123711862
 10
59.8300294497
 20
19.3528782148
  0
LWPOLYLINE
  5
284
100
AcDbEntity
  8
DRAFT
100
AcDbPolyline
 62
7
  6
CONTINUOUS
 90
100
 70
0
 10
74.8592336485
 20
29.7406526588
 10
74.9947262346
 20
29.5376116522
 10
75.1233628978
 20
29.3306044359
 10
75.2451139025
 20
29.1196829865
 10
75.3600402188
 20
28.9047194558
 10
75.4680216216
 20
28.6859450473
 10
75.5687618679
 20
28.4639518119
 10
75.6622212762
 20
28.2387857708
 10
75.7483934204
 20
28.0105066777
 10
75.8270424036
 20
27.7797290659
 10
75.8981373341
 20
27.5464918741
 10
75.9616764119
 20
27.3108604652
 10
76.0174787373
 20
27.073488876
 10
76.0655180094
 20
26.8344312223
 10
76.1058026107
 20
26.5937328612
 10
76.1382154352
 20
26.3520326218
 10
76.1627418023
 20
26.1093598701
 10
76.1793928841
 20
25.8657767518
 10
76.1881024295
 20
25.6219673355
 10
76.1888602406
 20
25.3779642212
 10
76.1816881972
 20
25.1338152203
 10
76.1665806765
 20
24.8902214533
 10
76.1435343972
 20
24.6472074157
 10
76.1125791632
 20
24.4048149842
 10
76.0737715002
 20
24.1637638686
 10
76.0271175767
 20
23.9240828253
 10
75.9726520152
 20
23.6857926957
 10
75.9104860546
 20
23.4495924523
 10
75.8406250395
 20
23.2154783448
 10
75.7631168392
 20
22.9834851278
 10
75.6781480671
 20
22.7543593287
 10
75.5857373326
 20
22.5281153048
 10
75.4859310076
 20
22.3047487171
 10
75.3789681583
 20
22.0849668574
 10
75.2648620512
 20
21.8687532877
 10
75.1436733236
 20
21.6561129133
 10
75.0157217144
 20
21.4477732955
 10
74.8810554308
 20
21.243751596
 10
74.7397073108
 20
21.0439965221
 10
74.5919819269
 20
20.8491214744
 10
74.4378815125
 20
20.6590685859
 10
74.2774878685
 20
20.4738408848
 10
74.111231297
 20
20.2941318887
 10
73.9390891961
 20
20.1198807685
 10
73.7611697519
 20
19.9510722914
 10
73.5781047975
 20
19.7884569963
 10
73.3898489894
 20
19.6319865929
 10
73.1965318498
 20
19.4816134815
 10
72.999050657
 20
19.3380794136
 10
72.7974175531
 20
19.2013949284
 10
72.5916986943
 20
19.0714382499
 10
72.3828721685
 20
18.9487469132
 10
72.1709237158
 20
18.8333206794
 10
71.9559346939
 20
18.7250412391
 10
71.739022976
 20
18.6242689879
 10
71.5203708101
 20
18.5310665236
 10
71.2998476765
 20
18.4452545602
 10
71.0780968045
 20
18.3668350611
 10
70.8551294958
 20
18.2957684588
 10
70.6309703039
 20
18.2319838454
 10
70.4062765496
 20
18.1754428299
 10
70.1811853496
 20
18.1261216723
 10
69.9555795338
 20
18.0839439055
 10
69.729729908
 20
18.048798502
 10
69.5035603181
 20
18.0206205406
 10
69.277153372
 20
17.9993819946
 10
69.0510133971
 20
17.9850337579
 10
68.8252490918
 20
17.97752739
 10
68.5997439105
 20
17.9768309011
 10
68.3746600188
 20
17.9829258133
 10
68.1498549864
 20
17.9957733051
 10
67.9254511674
 20
18.0153381141
 10
67.7020035492
 20
18.0416140207
 10
67.4796045026
 20
18.0745489354
 10
67.2581274923
 20
18.1141369365
 10
67.0377944864
 20
18.1604486472
 10
66.8184382748
 20
18.2134910307
 10
66.6001789806
 20
18.2732072059
 10
66.3836648279
 20
18.3395813282
 10
66.1689392057
 20
18.4125777731
 10
65.9558975664
 20
18.4922028324
 10
65.7449612189
 20
18.5785154136
 10
65.5359683785
 20
18.6715751225
 10
65.3290058043
 20
18.7713071543
 10
65.1248632368
 20
18.8775832246
 10
64.9235417929
 20
18.990411378
 10
64.7249529285
 20
19.1097945076
 10
64.5297486397
 20
19.2356143994
 10
64.3377834107
 20
19.3679952293
 10
64.149103868
 20
19.5068451558
 10
63.9646497311
 20
19.6517421907
 10
63.7844160627
 20
19.8027483292
 10
63.6083035655
 20
19.9598641922
 10
63.4371139011
 20
20.1225978474
 10
63.2707987127
 20
20.291062223
 10
63.1093007716
 20
20.4652312685
 10
62.9534160215
 20
20.6444243682
 10
62.8033792159
 20
20.8284548282
 10
62.6588573909
 20
21.0176197097
 10
62.5197995306
 20
21.2119736491
  0
LWPOLYLINE
  5
285
100
AcDbEntity
  8
RACCORDO
100
AcDbPolyline
 62
253
  6
CONTINUOUS
 90
124
 70
0
 10
80.1888962074
 20
-5.2830930087
 10
80.1172842204
 20
-4.9189949828
 10
80.0542300839
 20
-4.5530095603
 10
79.9997049888
 20
-4.1850055902
 10
79.9535692083
 20
-3.8143846153
 10
79.915896847
 20
-3.4414841507
 10
79.8869976396
 20
-3.0675753459
 10
79.8669336524
 20
-2.6925257487
 10
79.8556140386
 20
-2.3162058387
 10
79.8531570959
 20
-1.9398930983
 10
79.8596422455
 20
-1.563474186
 10
79.8749955762
 20
-1.1868149547
 10
79.8991433173
 20
-0.8111731692
 10
79.9321513987
 20
-0.436581249
 10
79.9739948311
 20
-0.0627870997
 10
80.0244949517
 20
0.3093611371
 10
80.0836721975
 20
0.6798009336
 10
80.1515697978
 20
1.0487821171
 10
80.2280621341
 20
1.4159091224
 10
80.3132338744
 20
1.7814088741
 10
80.4070713857
 20
2.1452146738
 10
80.5093197109
 20
2.5064723417
 10
80.6200199716
 20
2.8651220108
 10
80.7392264427
 20
3.2213436131
 10
80.8667227295
 20
3.5746221045
 10
81.0025484763
 20
3.9249525644
 10
81.1467709435
 20
4.2724252405
 10
81.2992269957
 20
4.6166509003
 10
81.4599729021
 20
4.9576567093
 10
81.6290672151
 20
5.2954683752
 10
81.8063598637
 20
5.6296788222
 10
81.9919154339
 20
5.9603006951
 10
82.1857921386
 20
6.2873411159
 10
82.3878396006
 20
6.6103688784
 10
82.5981291523
 20
6.9293792579
 10
82.8167197277
 20
7.2443629998
 10
83.0434511261
 20
7.5548659562
 10
83.278402689
 20
7.860867999
 10
83.521631853
 20
8.1623409692
 10
83.7729537247
 20
8.4588021913
 10
84.0324403765
 20
8.7502022705
 10
84.3001618403
 20
9.0365072927
 10
84.575937287
 20
9.3172414745
 10
84.8598065114
 20
9.592319584
 10
85.1518748781
 20
9.8617089699
 10
85.4520652425
 20
10.1249977995
 10
85.7604717104
 20
10.3821417253
 10
86.0771449063
 20
10.6330350897
 10
86.4019469019
 20
10.8771592241
 10
86.7351381427
 20
11.1145267271
 10
87.0766016887
 20
11.3449405306
 10
87.4256388314
 20
11.5675488849
 10
87.7824503595
 20
11.782234102
 10
88.1469777137
 20
11.9888888568
 10
88.518137088
 20
12.1866579661
 10
88.8961194269
 20
12.3753679577
 10
89.2808675524
 20
12.5549337666
 10
89.6709247628
 20
12.7246207363
 10
90.06642446
 20
12.8842043519
 10
90.4673501183
 20
13.0336301969
 10
90.8720141735
 20
13.1724178617
 10
91.2803135588
 20
13.3002967615
 10
91.692443302
 20
13.4172565167
 10
92.1071533195
 20
13.5232172054
 10
92.5243559746
 20
13.617988697
 10
92.9442023547
 20
13.7014915771
 10
93.3657900886
 20
13.7738277871
 10
93.7891389577
 20
13.8348637537
 10
94.2142645948
 20
13.884479475
 10
94.6402486698
 20
13.9228155023
 10
95.0670974766
 20
13.9497463531
 10
95.4948127641
 20
13.9651649182
 10
95.9224603681
 20
13.9692602532
 10
96.3500145532
 20
13.9619196383
 10
96.7774829374
 20
13.9430490301
 10
97.2039734172
 20
13.9128884703
 10
97.6294481727
 20
13.8713430081
 10
98.0539027226
 20
13.8183298041
 10
98.4764883455
 20
13.7541310931
 10
98.897162937
 20
13.678668131
 10
99.3159045001
 20
13.5918730458
 10
99.7318893096
 20
13.49406911
 10
100.145065918
 20
13.3851937838
 10
100.5554025364
 20
13.2651961247
 10
100.9621013204
 20
13.1344420578
 10
101.3650927406
 20
12.9928903981
 10
101.7643469451
 20
12.8405034398
 10
102.1591236305
 20
12.6776773804
 10
102.5493449223
 20
12.5043923766
 10
102.9349763226
 20
12.3206238404
 10
103.3153421863
 20
12.1267848048
 10
103.6903762418
 20
11.9228645432
 10
104.0600224125
 20
11.7088626336
 10
104.4236214978
 20
11.4852306848
 10
104.7811070354
 20
11.2519680976
 10
105.1324163891
 20
11.0090976518
 10
105.4768990348
 20
10.7571290151
 10
105.8144657206
 20
10.4960919155
 10
106.1450735538
 20
10.2260123306
 10
106.4681461749
 20
9.9474161669
 10
106.7835883679
 20
9.660360543
 10
107.0913632717
 20
9.364874892
 10
107.3909877358
 20
9.0614627353
 10
107.6823910458
 20
8.750175395
 10
107.965513959
 20
8.4310749149
 10
108.2398972483
 20
8.1046979133
 10
108.5054758298
 20
7.7710979341
 10
108.7621898281
 20
7.4303600806
 10
109.0095962469
 20
7.0830843931
 10
109.2476199578
 20
6.7293505804
 10
109.476219636
 20
6.3692413846
 10
109.6950129726
 20
6.0033759076
 10
109.903926574
 20
5.6318548159
 10
110.1029282933
 20
5.25476016
 10
110.2917084054
 20
4.8726950315
 10
110.4702076946
 20
4.4857577538
 10
110.6383920123
 20
4.0940488016
 10
110.7960004952
 20
3.6981839176
 10
110.9429821845
 20
3.2982637114
 10
111.0793085601
 20
2.8943991037
 10
111.2047645297
 20
2.4872286179
 10
111.3192596751
 20
2.077039806
 10
111.4228218333
 20
1.6637663224
 10
111.515420172
 20
1.2475192362
  0
LWPOLYLINE
  5
286
100
AcDbEntity
  8
DRAFT
100
AcDbPolyline
 62
7
  6
CONTINUOUS
 90
115
 70
0
 10
83.2110792811
 20
-4.6530612245
 10
83.1421633906
 20
-4.2970650043
 10
83.0832489109
 20
-3.940720566
 10
83.0343289441
 20
-3.5838888297
 10
82.9954295319
 20
-3.2259083783
 10
82.9665033846
 20
-2.867166207
 10
82.9474525081
 20
-2.5091020749
 10
82.9383698492
 20
-2.1516160019
 10
82.9391813213
 20
-1.7945534971
 10
82.949576666
 20
-1.4392882045
 10
82.9696586605
 20
-1.085761598
 10
82.9993773432
 20
-0.7338112454
 10
83.0382282659
 20
-0.3846786571
 10
83.0862896575
 20
-0.038417384
 10
83.1435662599
 20
0.3052036937
 10
83.2094702844
 20
0.6453431055
 10
83.2840800422
 20
0.9820220948
 10
83.3674173814
 20
1.3153533973
 10
83.4588289268
 20
1.6446059751
 10
83.5583452782
 20
1.9696876828
 10
83.6660504626
 20
2.2907800317
 10
83.7813831906
 20
2.6075390966
 10
83.9044143066
 20
2.9200055233
 10
84.0351900733
 20
3.2281924612
 10
84.173119437
 20
3.5316949403
 10
84.3181889207
 20
3.8303935891
 10
84.4705339798
 20
4.1244252654
 10
84.6297900974
 20
4.4137543076
 10
84.7960393891
 20
4.6984465378
 10
84.9693161245
 20
4.9784300088
 10
85.1491850068
 20
5.2534507054
 10
85.3355998976
 20
5.5233824971
 10
85.5287238003
 20
5.7883173126
 10
85.7284350017
 20
6.0483195426
 10
85.9348365777
 20
6.3034661955
 10
86.1479346721
 20
6.5536300805
 10
86.3674616623
 20
6.7985622106
 10
86.5933713324
 20
7.0381567433
 10
86.8258182887
 20
7.2724455806
 10
87.0648364539
 20
7.5013792897
 10
87.3105679286
 20
7.725027778
 10
87.5629731134
 20
7.9432313639
 10
87.8218143034
 20
8.155588413
 10
88.0870214761
 20
8.3619746057
 10
88.3587664249
 20
8.5623994451
 10
88.6371757825
 20
8.7566530141
 10
88.9223568705
 20
8.9447488267
 10
89.2142988847
 20
9.1265394905
 10
89.5129525999
 20
9.3015643379
 10
89.8183778553
 20
9.4697762952
 10
90.1306077189
 20
9.6310630863
 10
90.4495549396
 20
9.78485361
 10
90.7756207063
 20
9.9311768632
 10
91.1084913787
 20
10.0698170007
 10
91.4470089885
 20
10.1998214691
 10
91.791271658
 20
10.3210016502
 10
92.1412603029
 20
10.4333312803
 10
92.4956397104
 20
10.536091707
 10
92.8546954994
 20
10.6291060451
 10
93.2182050547
 20
10.7123213623
 10
93.5840648032
 20
10.7852075756
 10
93.9520744372
 20
10.8474910755
 10
94.3224739355
 20
10.8992221459
 10
94.6938113989
 20
10.9403709703
 10
95.065954419
 20
10.9707731813
 10
95.4390501651
 20
10.9903883512
 10
95.8120576944
 20
10.9993914236
 10
96.1848225095
 20
10.9976881139
 10
96.5574903539
 20
10.9851908123
 10
96.9294638166
 20
10.9621018503
 10
97.3008849121
 20
10.9283193731
 10
97.6715819237
 20
10.8837814638
 10
98.0404809936
 20
10.8287700695
 10
98.4074204473
 20
10.7632298308
 10
98.772511876
 20
10.6870844722
 10
99.1350864918
 20
10.600606117
 10
99.4952241708
 20
10.5036987845
 10
99.8527775305
 20
10.3963511222
 10
100.206733643
 20
10.2789850031
 10
100.5569078922
 20
10.1516017346
 10
100.9034026584
 20
10.0141301724
 10
101.2456336536
 20
9.8669062764
 10
101.5836537113
 20
9.7098518132
 10
101.91731537
 20
9.543000799
 10
102.2457338331
 20
9.3668799167
 10
102.5687352102
 20
9.1815394665
 10
102.8863908371
 20
8.9869228761
 10
103.1981850954
 20
8.7834183069
 10
103.5041469571
 20
8.5709653933
 10
103.8041378923
 20
8.3496433466
 10
104.097394165
 20
8.1200703914
 10
104.3837571162
 20
7.8823384955
 10
104.6632750289
 20
7.6364101871
 10
104.935499124
 20
7.3827292785
 10
105.2004304317
 20
7.1212635465
 10
105.4579560882
 20
6.8521227754
 10
105.707462543
 20
6.5759814746
 10
105.9488209764
 20
6.2929564256
 10
106.182053928
 20
6.0030384244
 10
106.4067823029
 20
5.7067293871
 10
106.6229859985
 20
5.40402882
 10
106.8305827132
 20
5.0950643916
 10
107.0291086612
 20
4.7805441766
 10
107.2184677195
 20
4.4605941939
 10
107.3986643036
 20
4.1352382157
 10
107.5693953325
 20
3.8050432529
 10
107.7306269856
 20
3.4700454322
 10
107.8823101958
 20
3.1303731958
 10
108.0241296555
 20
2.7867416247
 10
108.1560218429
 20
2.4392681833
 10
108.2779815042
 20
2.0880140912
 10
108.3897925792
 20
1.7336177286
 10
108.4913669165
 20
1.3763553746
 10
108.5827383694
 20
1.0161384434
 10
108.6638800023
 20
0.6530612245
  0
LINE
  5
287
100
AcDbEntity
  8
0
100
AcDbLine
 62
253
  6
CONTINUOUS
 10
90.0
 20
-195.0
 11
90.0
 21
-175.0
  0
LWPOLYLINE
  5
288
100
AcDbEntity
  8
RACCORDO
100
AcDbPolyline
 62
253
  6
CONTINUOUS
 90
118
 70
0
 10
83.0595589822
 20
-39.3153514752
 10
82.9979441672
 20
-39.6300561411
 10
82.9438236813
 20
-39.9473711736
 10
82.8973171601
 20
-40.2671261739
 10
82.8585227709
 20
-40.5893508025
 10
82.8275851129
 20
-40.9136522016
 10
82.8046452533
 20
-41.2392108083
 10
82.789762258
 20
-41.5658338309
 10
82.7829940804
 20
-41.8933016851
 10
82.784376848
 20
-42.2207672389
 10
82.7939040187
 20
-42.5480045382
 10
82.8115695078
 20
-42.8748876656
 10
82.837308152
 20
-43.2006924068
 10
82.8710153576
 20
-43.5248400139
 10
82.9126514471
 20
-43.8474611741
 10
82.9622419493
 20
-44.168900433
 10
83.019785418
 20
-44.4891338148
 10
83.0852330702
 20
-44.8078592906
 10
83.1585812974
 20
-45.1250259816
 10
83.2397954797
 20
-45.4404593374
 10
83.3288129611
 20
-45.7538855769
 10
83.425578318
 20
-46.0650669232
 10
83.5300249147
 20
-46.3737636961
 10
83.6421196105
 20
-46.6798681813
 10
83.7618679843
 20
-46.98335553
 10
83.8892135241
 20
-47.2840311557
 10
84.0240976854
 20
-47.5817182435
 10
84.1665477618
 20
-47.8764071253
 10
84.3165026021
 20
-48.1678749149
 10
84.4739006695
 20
-48.4559227003
 10
84.6387983147
 20
-48.7405658442
 10
84.8111374436
 20
-49.0215949598
 10
84.9908598785
 20
-49.2988139741
 10
85.1780292033
 20
-49.5722167967
 10
85.3725628805
 20
-49.8415549461
 10
85.5743668257
 20
-50.1065689121
 10
85.7835117109
 20
-50.367236201
 10
85.9999640913
 20
-50.6233885701
 10
86.2235956692
 20
-50.8747421089
 10
86.4543981604
 20
-51.1211453316
 10
86.6923788862
 20
-51.3624568488
 10
86.9375654038
 20
-51.5985554425
 10
87.189989839
 20
-51.8293186676
 10
87.4494490261
 20
-52.0544050442
 10
87.7158892837
 20
-52.2736043906
 10
87.9894971787
 20
-52.4868806003
 10
88.2701646857
 20
-52.6939702067
 10
88.5577136228
 20
-52.8945669237
 10
88.8522453619
 20
-53.0885473276
 10
89.1537857146
 20
-53.2757164733
 10
89.4621318376
 20
-53.4557374049
 10
89.7770669199
 20
-53.6282826336
 10
90.0984070954
 20
-53.7930740533
 10
90.4258423552
 20
-53.9497823412
 10
90.7588822602
 20
-54.0980027145
 10
91.0974042452
 20
-54.2375284017
 10
91.4410754358
 20
-54.3680901606
 10
91.7890853312
 20
-54.4892776037
 10
92.1412782988
 20
-54.600953512
 10
92.4974181418
 20
-54.7029541301
 10
92.8565394068
 20
-54.7949456156
 10
93.2182055619
 20
-54.8768054392
 10
93.5822693746
 20
-54.9484923456
 10
93.9481538057
 20
-55.0098788059
 10
94.3154621835
 20
-55.0609024469
 10
94.6840070499
 20
-55.1015506791
 10
95.0535311203
 20
-55.1317974401
 10
95.4237550872
 20
-55.1516215464
 10
95.794381628
 20
-55.1610113442
 10
96.1651229484
 20
-55.1599560201
 10
96.535689803
 20
-55.1484547649
 10
96.9057724736
 20
-55.1265230621
 10
97.2750517116
 20
-55.0941795494
 10
97.6432291086
 20
-55.0514515274
 10
98.0100232567
 20
-54.9983786322
 10
98.3751427302
 20
-54.9350032269
 10
98.7382909269
 20
-54.8613793698
 10
99.0991765082
 20
-54.7775761587
 10
99.4575141422
 20
-54.6836615363
 10
99.8130257045
 20
-54.5797083572
 10
100.1654404548
 20
-54.4658017622
 10
100.5144880552
 20
-54.342029321
 10
100.8598954817
 20
-54.2084900274
 10
101.2013738293
 20
-54.0653057589
 10
101.5386264867
 20
-53.9126032933
 10
101.8713872786
 20
-53.7505036349
 10
102.1994126256
 20
-53.579133087
 10
102.5224459347
 20
-53.398628718
 10
102.8402314862
 20
-53.2091394395
 10
103.1525123203
 20
-53.0108331966
 10
103.459027832
 20
-52.8038803196
 10
103.7595303849
 20
-52.5884490451
 10
104.0538094257
 20
-52.3647000251
 10
104.3416637504
 20
-52.1327900089
 10
104.6228603244
 20
-51.8929122608
 10
104.8971825858
 20
-51.6452666243
 10
105.1644475194
 20
-51.3900177635
 10
105.4244572474
 20
-51.1273426188
 10
105.6769988246
 20
-50.8574549999
 10
105.9218673432
 20
-50.5805712741
 10
106.1588787628
 20
-50.2968990082
 10
106.387837371
 20
-50.0066826259
 10
106.6085243346
 20
-49.7102001089
 10
106.8207308467
 20
-49.4077316448
 10
107.0243350976
 20
-49.0994654086
 10
107.2192455708
 20
-48.7855374009
 10
107.4053539395
 20
-48.466102089
 10
107.5824585965
 20
-48.1414973502
 10
107.7503324999
 20
-47.812137806
 10
107.9088518257
 20
-47.478268409
 10
108.0578940877
 20
-47.1401710584
 10
108.1972659503
 20
-46.7983296713
 10
108.326884861
 20
-46.4530164128
 10
108.4466799341
 20
-46.1045118526
 10
108.5565136592
 20
-45.7533254399
 10
108.6563178604
 20
-45.3998253158
 10
108.7460882872
 20
-45.0442278218
 10
108.8258023364
 20
-44.6868170277
  0
LWPOLYLINE
  5
289
100
AcDbEntity
  8
RACCORDO
100
AcDbPolyline
 62
253
  6
CONTINUOUS
 90
118
 70
0
 10
81.9966252786
 20
-39.0937626431
 10
81.9301328819
 20
-39.4325716969
 10
81.8720232286
 20
-39.7735968958
 10
81.8222664048
 20
-40.1169536526
 10
81.780696239
 20
-40.4633107699
 10
81.747411246
 20
-40.8122296904
 10
81.7227982176
 20
-41.16216715
 10
81.7069531608
 20
-41.5132425836
 10
81.6997539545
 20
-41.8655700154
 10
81.7013017384
 20
-42.2175958209
 10
81.7117080964
 20
-42.5693757786
 10
81.7308745114
 20
-42.9210718891
 10
81.7586268689
 20
-43.2712763628
 10
81.7949807534
 20
-43.6196806162
 10
81.8399716983
 20
-43.9667797587
 10
81.8934778303
 20
-44.3123571259
 10
81.9555387969
 20
-44.6566315813
 10
82.026166177
 20
-44.9995497159
 10
82.1052079503
 20
-45.3404738341
 10
82.1927324851
 20
-45.6795151013
 10
82.2887386611
 20
-46.0166987422
 10
82.3929885828
 20
-46.3512405246
 10
82.5055196447
 20
-46.6830951174
 10
82.6263808835
 20
-47.0124089614
 10
82.7553678586
 20
-47.3386672731
 10
82.8925295895
 20
-47.6618876177
 10
83.0379135928
 20
-47.9821219279
 10
83.1913246457
 20
-48.2988906663
 10
83.3528154225
 20
-48.6122012954
 10
83.5224387737
 20
-48.9220838957
 10
83.7000097093
 20
-49.2280769656
 10
83.8855931145
 20
-49.5301832747
 10
84.0792371117
 20
-49.8284057635
 10
84.2807405255
 20
-50.1222673509
 10
84.4901747269
 20
-50.4117557692
 10
84.7075878598
 20
-50.6968565472
 10
84.9327521178
 20
-50.9770732023
 10
85.1657255834
 20
-51.2523628391
 10
85.4065749286
 20
-51.5227086283
 10
85.6550922411
 20
-51.7876374846
 10
85.9113487754
 20
-52.047100092
 10
86.1754007854
 20
-52.3010541835
 10
86.4470234741
 20
-52.5490222534
 10
86.7262780849
 20
-52.790943232
 10
87.0132315197
 20
-53.0267550589
 10
87.3076719762
 20
-53.255964136
 10
87.6096788624
 20
-53.4785056975
 10
87.9192993637
 20
-53.6942902519
 10
88.236276941
 20
-53.9027725091
 10
88.5608356128
 20
-54.1039296248
 10
88.8928741064
 20
-54.2975989458
 10
89.2316510218
 20
-54.4830095578
 10
89.577354633
 20
-54.6600467298
 10
89.9299136072
 20
-54.8286063202
 10
90.28819828
 20
-54.9879187345
 10
90.6523595263
 20
-55.1378045738
 10
91.0223513306
 20
-55.2781982912
 10
91.3967458335
 20
-55.4084937129
 10
91.7756555343
 20
-55.5284807811
 10
92.1590534562
 20
-55.6381120091
 10
92.5452955118
 20
-55.7370284757
 10
92.9342879951
 20
-55.8249967566
 10
93.3261847746
 20
-55.9019971409
 10
93.7197037185
 20
-55.9680043135
 10
94.1147393982
 20
-56.0228506767
 10
94.5114301371
 20
-56.0664664269
 10
94.9088501084
 20
-56.0989902204
 10
95.3070028444
 20
-56.1203035474
 10
95.7058915897
 20
-56.1303066733
 10
96.1045817036
 20
-56.1291855788
 10
96.503065076
 20
-56.1168309951
 10
96.9013315672
 20
-56.0931579413
 10
97.2984360374
 20
-56.0584105249
 10
97.6943380306
 20
-56.0124954656
 10
98.0890364397
 20
-55.9553403279
 10
98.4816389537
 20
-55.88724393
 10
98.872095684
 20
-55.8081327599
 10
99.2603940779
 20
-55.717945666
 10
99.6456931369
 20
-55.6170241109
 10
100.0279397369
 20
-55.5053103642
 10
100.4071064226
 20
-55.382760097
 10
100.782387603
 20
-55.2497592797
 10
101.153728126
 20
-55.1062655537
 10
101.5210874325
 20
-54.9522530524
 10
101.8836804165
 20
-54.7881571816
 10
102.2414322472
 20
-54.6139572756
 10
102.5943102092
 20
-54.4296407481
 10
102.9415927191
 20
-54.2356794589
 10
103.2832067341
 20
-54.032070126
 10
103.6191093106
 20
-53.8188169247
 10
103.9486260863
 20
-53.5964262036
 10
104.2716698609
 20
-53.3649197227
 10
104.5882068282
 20
-53.1243099613
 10
104.8976463113
 20
-52.875110972
 10
105.199907312
 20
-52.6173624822
 10
105.4949477838
 20
-52.3510896566
 10
105.7822402546
 20
-52.0768040878
 10
106.061726559
 20
-51.7945327488
 10
106.3333422116
 20
-51.5043414608
 10
106.5965566263
 20
-51.2068183922
 10
106.8513022995
 20
-50.9020087572
 10
107.0975283191
 20
-50.5899877187
 10
107.3347374601
 20
-50.2714060287
 10
107.5628247042
 20
-49.9463864937
 10
107.7817848145
 20
-49.6149524438
 10
107.9912789489
 20
-49.2776196872
 10
108.1912929049
 20
-48.9343754132
 10
108.3817371654
 20
-48.5853964756
 10
108.5621709338
 20
-48.2314961865
 10
108.7325230465
 20
-47.8727385394
 10
108.8927763088
 20
-47.5092445325
 10
109.0425864801
 20
-47.1419256793
 10
109.1818824752
 20
-46.7708645805
 10
109.3106660187
 20
-46.39617879
 10
109.4287200212
 20
-46.0188410668
 10
109.5359602806
 20
-45.6392463884
 10
109.6324255353
 20
-45.2572086243
 10
109.718093136
 20
-44.8728320873
  0
LWPOLYLINE
  5
28A
100
AcDbEntity
  8
RACCORDO
100
AcDbPolyline
 62
253
  6
CONTINUOUS
 90
112
 70
0
 10
59.8300294497
 20
-63.3528782148
 10
59.997996702
 20
-63.1170545599
 10
60.171199428
 20
-62.8869479745
 10
60.3497100781
 20
-62.6624896591
 10
60.5336999953
 20
-62.443583096
 10
60.7231383914
 20
-62.2301876808
 10
60.9177932263
 20
-62.0223229891
 10
61.1178019474
 20
-61.8198182875
 10
61.3231603603
 20
-61.6227181061
 10
61.5334264252
 20
-61.4313768331
 10
61.7487282665
 20
-61.2457082225
 10
61.969070183
 20
-61.0656913206
 10
62.1938299358
 20
-60.8917971228
 10
62.4230655112
 20
-60.7240258923
 10
62.6568496912
 20
-60.562297586
 10
62.8945864113
 20
-60.4069844714
 10
63.1363226022
 20
-60.2580947187
 10
63.3821355611
 20
-60.1155681948
 10
63.6314757899
 20
-59.9796956179
 10
63.8843974958
 20
-59.8504852495
 10
64.1409608371
 20
-59.7279040871
 10
64.4006241478
 20
-59.6122009206
 10
64.6634263745
 20
-59.5033983435
 10
64.9294308433
 20
-59.4014765624
 10
65.1981298415
 20
-59.3066397151
 10
65.4695650574
 20
-59.2189165403
 10
65.7437831302
 20
-59.1383072683
 10
66.0202799934
 20
-59.0649909707
 10
66.2990788112
 20
-58.9990090561
 10
66.5802293822
 20
-58.9403746503
 10
66.863262975
 20
-58.8892407097
 10
67.1482046538
 20
-58.8456545059
 10
67.4350858724
 20
-58.8096467316
 10
67.7234422631
 20
-58.7813602957
 10
68.013284174
 20
-58.7608510038
 10
68.3046403608
 20
-58.7481631892
 10
68.5970684068
 20
-58.7434360641
 10
68.8905743627
 20
-58.7467307971
 10
69.1851730603
 20
-58.7581065237
 10
69.4804292507
 20
-58.7777116383
 10
69.7763943989
 20
-58.8056263527
 10
70.0730188726
 20
-58.8419091086
 10
70.369709045
 20
-58.8866879325
 10
70.6665403175
 20
-58.9400845337
 10
70.9634182591
 20
-59.0021347591
 10
71.2594865972
 20
-59.0728508218
 10
71.5547590184
 20
-59.1523790989
 10
71.849180043
 20
-59.2407486396
 10
72.1417813465
 20
-59.3378067194
 10
72.4325950624
 20
-59.4437401827
 10
72.7215247514
 20
-59.5585487741
 10
73.0074019342
 20
-59.6818053278
 10
73.2901518106
 20
-59.8136744305
 10
73.569764383
 20
-59.9541804506
 10
73.8451638427
 20
-60.1026850702
 10
74.1161884078
 20
-60.2592788114
 10
74.3828998132
 20
-60.4240502351
 10
74.6445567362
 20
-60.59635033
 10
74.9010583949
 20
-60.7762652345
 10
75.1523953831
 20
-60.9638696391
 10
75.3979657921
 20
-61.1584854442
 10
75.6376734349
 20
-61.3601747578
 10
75.8714983975
 20
-61.5690132502
 10
76.0989579155
 20
-61.7843291718
 10
76.3199730474
 20
-62.0061758966
 10
76.5345042186
 20
-62.2346121906
 10
76.7421343559
 20
-62.4689594428
 10
76.9427938173
 20
-62.7092634156
 10
77.1364345448
 20
-62.9555632598
 10
77.322680293
 20
-63.2071549188
 10
77.5014622708
 20
-63.4640688499
 10
77.6727357192
 20
-63.726331138
 10
77.8361706694
 20
-63.9932153477
 10
77.9916983428
 20
-64.264730203
 10
78.1392813322
 20
-64.5408947479
 10
78.2786484191
 20
-64.8209824789
 10
78.4097378587
 20
-65.104988614
 10
78.5325151604
 20
-65.3929176352
 10
78.6467628039
 20
-65.6840421542
 10
78.752425573
 20
-65.9783426007
 10
78.8494747581
 20
-66.2758114033
 10
78.9377463152
 20
-66.5757254481
 10
79.017192796
 20
-66.8780530152
 10
79.0877919804
 20
-67.1827736642
 10
79.1494320557
 20
-67.4891687938
 10
79.2020734595
 20
-67.7971935928
 10
79.2457020007
 20
-68.1068179312
 10
79.2802587477
 20
-68.4173343611
 10
79.3057130049
 20
-68.7286878898
 10
79.322058801
 20
-69.0408384801
 10
79.3292892937
 20
-69.3530919795
 10
79.3273830855
 20
-69.6653831629
 10
79.316342801
 20
-69.9776651148
 10
79.2962125544
 20
-70.2892638768
 10
79.2669809457
 20
-70.6001060645
 10
79.2286587927
 20
-70.9101390468
 10
79.1813380883
 20
-71.2187146805
 10
79.1250155048
 20
-71.5257602386
 10
79.0597117531
 20
-71.8312119067
 10
78.985569041
 20
-72.1344315606
 10
78.9025898621
 20
-72.435346582
 10
78.8108069371
 20
-72.7338858732
 10
78.7104217233
 20
-73.0294122846
 10
78.6014454659
 20
-73.3218445588
 10
78.4839197559
 20
-73.6111166696
 10
78.3581049478
 20
-73.8966152117
 10
78.2240169803
 20
-74.1782630833
 10
78.0817091429
 20
-74.4559902874
 10
77.931510385
 20
-74.7291973288
 10
77.7735609303
 20
-74.9976378072
 10
77.6078060644
 20
-75.261415871
 10
77.4342887912
 20
-75.5204602687
  0
LWPOLYLINE
  5
28B
100
AcDbEntity
  8
DRAFT
100
AcDbPolyline
 62
7
  6
CONTINUOUS
 90
100
 70
0
 10
62.5197995306
 20
-65.2119736491
 10
62.6588476481
 20
-65.017632646
 10
62.8033596196
 20
-64.8284794706
 10
62.9533864464
 20
-64.644459491
 10
63.1092608753
 20
-64.465275705
 10
63.2707483418
 20
-64.2911147571
 10
63.4370534957
 20
-64.1226570971
 10
63.6082338998
 20
-63.9599284734
 10
63.784337548
 20
-63.8028162488
 10
63.9645623309
 20
-63.6518130772
 10
64.1490070736
 20
-63.5069187101
 10
64.3376771738
 20
-63.3680707827
 10
64.5296338671
 20
-63.2356908866
 10
64.7248311575
 20
-63.1098704449
 10
64.9234139151
 20
-62.9904856703
 10
65.1247291872
 20
-62.8776555899
 10
65.3288646253
 20
-62.7713777733
 10
65.5358200032
 20
-62.6716437173
 10
65.7448073018
 20
-62.5785811289
 10
65.9557408907
 20
-62.4922642766
 10
66.1687814234
 20
-62.4126340417
 10
66.383505924
 20
-62.3396324758
 10
66.6000178419
 20
-62.2732537226
 10
66.8182748899
 20
-62.2135329774
 10
67.03763048
 20
-62.1604857496
 10
67.2579654047
 20
-62.1141686074
 10
67.4794459658
 20
-62.0745748618
 10
67.7018490971
 20
-62.0416344328
 10
67.9253008473
 20
-62.0153533761
 10
68.1497093383
 20
-61.9957836438
 10
68.3745199534
 20
-61.9829316021
 10
68.599610084
 20
-61.9768324495
 10
68.825122422
 20
-61.9775250637
 10
69.0508959491
 20
-61.9850282412
 10
69.2770486986
 20
-61.9993741
 10
69.5034704973
 20
-62.0206109279
 10
69.7296537178
 20
-62.0487877445
 10
69.9555134917
 20
-62.0839323211
 10
70.1811282265
 20
-62.1261098718
 10
70.4062305866
 20
-62.1754321647
 10
70.6309402665
 20
-62.231976238
 10
70.8551176332
 20
-62.2957652493
 10
71.0781012728
 20
-62.366836602
 10
71.2998637194
 20
-62.4452602054
 10
71.5203965696
 20
-62.5310766632
 10
71.7390612142
 20
-62.6242860823
 10
71.9559926376
 20
-62.7250700679
 10
72.1710041213
 20
-62.8333637159
 10
72.3829690096
 20
-62.9488017598
 10
72.5918002361
 20
-63.0714993364
 10
72.7975177568
 20
-63.2014598766
 10
72.9991518052
 20
-63.3381505249
 10
73.1966416331
 20
-63.4816968909
 10
73.3899696704
 20
-63.6320846273
 10
73.5782307204
 20
-63.7885651802
 10
73.7612901902
 20
-63.9511818849
 10
73.939198524
 20
-64.1199872481
 10
74.1113312308
 20
-64.294236645
 10
74.2775838209
 20
-64.4739488145
 10
74.437975181
 20
-64.6591811011
 10
74.5920712349
 20
-64.8492354167
 10
74.7397874326
 20
-65.0441049956
 10
74.8811243377
 20
-65.2438513875
 10
75.0157819108
 20
-65.4478677654
 10
75.1437300981
 20
-65.6562098729
 10
75.2649178521
 20
-65.8688561533
 10
75.3790215333
 20
-66.0850723485
 10
75.4859783266
 20
-66.3048492641
 10
75.5857772081
 20
-66.5282075693
 10
75.6781818431
 20
-66.7544460513
 10
75.7631473575
 20
-66.9835729029
 10
75.840653586
 20
-67.2155699587
 10
75.9105120638
 20
-67.4496852832
 10
75.9726739789
 20
-67.685880792
 10
76.0271349896
 20
-67.9241635258
 10
76.0737849277
 20
-68.1638390269
 10
76.112589651
 20
-68.4048891999
 10
76.1435424657
 20
-68.6472825691
 10
76.1665864029
 20
-68.8902957484
 10
76.1816915016
 20
-69.1338846155
 10
76.1888612452
 20
-69.3780269027
 10
76.1881013572
 20
-69.6220245189
 10
76.179389928
 20
-69.8658314039
 10
76.1627371538
 20
-70.1094132198
 10
76.1382094209
 20
-70.3520836976
 10
76.105795681
 20
-70.5937794598
 10
76.0655105162
 20
-70.8344723702
 10
76.0174708412
 20
-71.0735250899
 10
75.9616681393
 20
-71.31089302
 10
75.8981288316
 20
-71.5465212922
 10
75.8270340009
 20
-71.7797550961
 10
75.7483856105
 20
-72.0105285684
 10
75.6622143962
 20
-72.2388032762
 10
75.5687559576
 20
-72.4639654212
 10
75.4680166123
 20
-72.6859555706
 10
75.3600361396
 20
-72.9047273847
 10
75.2451107903
 20
-73.1196885877
 10
75.1233607914
 20
-73.3306079015
 10
74.9947251664
 20
-73.5376132505
 10
74.8592336485
 20
-73.7406526588
  0
LWPOLYLINE
  5
28C
100
AcDbEntity
  8
RACCORDO
100
AcDbPolyline
 62
253
  6
CONTINUOUS
 90
103
 70
0
 10
43.1178074437
 20
-84.3835583042
 10
42.9391595521
 20
-84.5108492199
 10
42.7635815396
 20
-84.6436959828
 10
42.5912604977
 20
-84.7820431238
 10
42.4222986425
 20
-84.9259095645
 10
42.2569727317
 20
-85.0751586975
 10
42.0957131959
 20
-85.2294740307
 10
41.9386815944
 20
-85.388761239
 10
41.7860424441
 20
-85.5529149791
 10
41.6381890125
 20
-85.7215435463
 10
41.4952701558
 20
-85.8944916468
 10
41.3574169665
 20
-86.0716212043
 10
41.224938288
 20
-86.2525207738
 10
41.0980285355
 20
-86.4368733385
 10
40.9766766266
 20
-86.624650767
 10
40.8608587304
 20
-86.8158712416
 10
40.7506386922
 20
-87.0104265361
 10
40.64612819
 20
-87.2081261901
 10
40.547383273
 20
-87.4088784727
 10
40.4544726847
 20
-87.6125652841
 10
40.3675022306
 20
-87.8189881233
 10
40.2865798782
 20
-88.0279221711
 10
40.2118140062
 20
-88.239065573
 10
40.143242938
 20
-88.4522827995
 10
40.0808803687
 20
-88.6675716921
 10
40.0247950731
 20
-88.8847726006
 10
39.9750466623
 20
-89.1037185325
 10
39.9316588531
 20
-89.3244213727
 10
39.8946951055
 20
-89.5467398094
 10
39.8642227558
 20
-89.7704776803
 10
39.8402963509
 20
-89.9955661726
 10
39.8229918929
 20
-90.2218046871
 10
39.8123706955
 20
-90.4489959259
 10
39.808487476
 20
-90.6770740439
 10
39.8114087285
 20
-90.9058168198
 10
39.8211895224
 20
-91.1350219684
 10
39.8378881478
 20
-91.3646444409
 10
39.8615636519
 20
-91.5944653559
 10
39.8922690201
 20
-91.824246501
 10
39.9300742472
 20
-92.0539286626
 10
39.9750423478
 20
-92.2833471108
 10
40.0272198393
 20
-92.5122563996
 10
40.0866510808
 20
-92.7404521628
 10
40.1533739574
 20
-92.9677041714
 10
40.227413473
 20
-93.1937401439
 10
40.3087732446
 20
-93.4182819731
 10
40.397473521
 20
-93.6411231399
 10
40.4934932948
 20
-93.8619498183
 10
40.5967356294
 20
-94.0803361402
 10
40.7071850473
 20
-94.2960832743
 10
40.8247786589
 20
-94.5088971481
 10
40.9492831425
 20
-94.718237601
 10
41.0805852895
 20
-94.9238463413
 10
41.2186020221
 20
-95.1255154911
 10
41.363075268
 20
-95.3228154588
 10
41.5138461351
 20
-95.5155141256
 10
41.6707900399
 20
-95.7034268535
 10
41.8336551238
 20
-95.8862349371
 10
42.0022603374
 20
-96.0637405807
 10
42.1764683352
 20
-96.235795628
 10
42.3560615444
 20
-96.402182996
 10
42.54080173
 20
-96.5626981977
 10
42.7305119799
 20
-96.7171946857
 10
42.9250385406
 20
-96.8655451372
 10
43.1241927558
 20
-97.0076149981
 10
43.327745644
 20
-97.1432449665
 10
43.5354882381
 20
-97.2722947282
 10
43.7472479737
 20
-97.39465946
 10
43.9628252648
 20
-97.5102212814
 10
44.1819739941
 20
-97.618845581
 10
44.4044369837
 20
-97.7204145367
 10
44.6299848114
 20
-97.8148279043
 10
44.8583761207
 20
-97.9019815927
 10
45.089358913
 20
-97.9817895121
 10
45.3226960383
 20
-98.0541792194
 10
45.5581715991
 20
-98.1190849284
 10
45.7955554597
 20
-98.1764519726
 10
46.0345850813
 20
-98.2262258459
 10
46.2749973357
 20
-98.2683547103
 10
46.5165861429
 20
-98.3028056964
 10
46.7591473089
 20
-98.3295510524
 10
47.0024373614
 20
-98.3485624733
 10
47.2461615634
 20
-98.3598265508
 10
47.4900600501
 20
-98.3633413134
 10
47.7339067435
 20
-98.3590997656
 10
47.9774435462
 20
-98.3471071986
 10
48.220429927
 20
-98.3273849838
 10
48.4626843814
 20
-98.2999485128
 10
48.7039953822
 20
-98.2648185302
 10
48.9441156063
 20
-98.2220285336
 10
49.1828103841
 20
-98.1716122372
 10
49.4198811661
 20
-98.1136031329
 10
49.6550511588
 20
-98.0480647306
 10
49.8879688426
 20
-97.9750909952
 10
50.1184054816
 20
-97.8947561115
 10
50.3461122528
 20
-97.807158097
 10
50.5707160919
 20
-97.7124530157
 10
50.791995647
 20
-97.6107529792
 10
51.0097397945
 20
-97.5021826777
 10
51.2236056434
 20
-97.3869437252
 10
51.4333528501
 20
-97.2652053533
 10
51.6388375054
 20
-97.1370995729
 10
51.8398710041
 20
-97.0027843946
  0
LWPOLYLINE
  5
28D
100
AcDbEntity
  8
RACCORDO
100
AcDbPolyline
 62
253
  6
CONTINUOUS
 90
103
 70
0
 10
42.6239240247
 20
-83.6689995896
 10
42.4263739593
 20
-83.8096168552
 10
42.23273722
 20
-83.9561780021
 10
42.0429518982
 20
-84.1087239046
 10
41.8566037
 20
-84.2675207835
 10
41.673980372
 20
-84.4323809665
 10
41.4960806399
 20
-84.6026732171
 10
41.3229017452
 20
-84.7785076161
 10
41.1543370786
 20
-84.9598702066
 10
40.9912486465
 20
-85.1459589355
 10
40.8336657026
 20
-85.3368646238
 10
40.6814742825
 20
-85.5326008261
 10
40.5353453595
 20
-85.7322594742
 10
40.3954091343
 20
-85.9357366495
 10
40.2614822496
 20
-86.1432414933
 10
40.1337850306
 20
-86.3543388329
 10
40.0122864325
 20
-86.5691099302
 10
39.8969820469
 20
-86.7875702603
 10
39.7881472447
 20
-87.0091855003
 10
39.685773646
 20
-87.2340740499
 10
39.589856566
 20
-87.4622055138
 10
39.5006958219
 20
-87.6928209128
 10
39.4183595254
 20
-87.9258631162
 10
39.3427957865
 20
-88.1614661951
 10
39.2741419293
 20
-88.3991549443
 10
39.2124236676
 20
-88.6389440138
 10
39.1576511948
 20
-88.8808823741
 10
39.1099514365
 20
-89.1245423336
 10
39.0693511789
 20
-89.3699764594
 10
39.0358779606
 20
-89.6171818646
 10
39.0096724963
 20
-89.8656431566
 10
38.9907834128
 20
-90.1153908435
 10
38.9792361471
 20
-90.3664290159
 10
38.9751496451
 20
-90.6181974207
 10
38.9785834396
 20
-90.8706964852
 10
38.9895708914
 20
-91.1239441006
 10
39.0082035904
 20
-91.3774004631
 10
39.0345437293
 20
-91.631066425
 10
39.0686380983
 20
-91.8849424542
 10
39.1105655274
 20
-92.1384821345
 10
39.1604128831
 20
-92.3917259267
 10
39.2182161031
 20
-92.6446170246
 10
39.2839871723
 20
-92.896456591
 10
39.3578356338
 20
-93.1472670892
 10
39.4397872634
 20
-93.396990868
 10
39.5297367141
 20
-93.6448020505
 10
39.6278226462
 20
-93.8907174933
 10
39.7340502879
 20
-94.1346660957
 10
39.8481194816
 20
-94.3756836856
 10
39.9701879444
 20
-94.6137598074
 10
40.1002442014
 20
-94.8488328393
 10
40.23773478
 20
-95.0798573757
 10
40.3827698887
 20
-95.3067315419
 10
40.5353789917
 20
-95.5294709725
 10
40.6948821548
 20
-95.7472052481
 10
40.8613525608
 20
-95.9598224704
 10
41.0348414966
 20
-96.167339292
 10
41.214626299
 20
-96.3690802035
 10
41.4007595562
 20
-96.5649475535
 10
41.5932925
 20
-96.7549393936
 10
41.7914880073
 20
-96.9385286055
 10
41.9953674359
 20
-97.1156233583
 10
42.2049894508
 20
-97.2862156026
 10
42.4196595956
 20
-97.4499106273
 10
42.6394053936
 20
-97.6066450939
 10
42.8642548366
 20
-97.7563848849
 10
43.0935007734
 20
-97.8987873038
 10
43.3271748659
 20
-98.0337978473
 10
43.5652758315
 20
-98.1613789045
 10
43.8070333628
 20
-98.2812231852
 10
44.0524514877
 20
-98.393271404
 10
44.3015306847
 20
-98.4974998095
 10
44.5534816044
 20
-98.5936663422
 10
44.8082770488
 20
-98.6817111115
 10
45.0659235936
 20
-98.7616229215
 10
45.3256698967
 20
-98.8332456186
 10
45.5874818606
 20
-98.8965355403
 10
45.8513501096
 20
-98.9514786279
 10
46.1165493087
 20
-98.9979762865
 10
46.3830498498
 20
-99.0359917349
 10
46.6508173609
 20
-99.0655185285
 10
46.9191097366
 20
-99.0865172732
 10
47.1878783553
 20
-99.0989604224
 10
47.4570896763
 20
-99.1028486049
 10
47.7260161814
 20
-99.0981988517
 10
47.9945741812
 20
-99.0849949963
 10
48.2627500088
 20
-99.0632434019
 10
48.5299151985
 20
-99.0330082074
 10
48.7960244462
 20
-98.9942813869
 10
49.0610141717
 20
-98.9470764448
 10
49.3242243834
 20
-98.8915025501
 10
49.585639612
 20
-98.8275374505
 10
49.8451575367
 20
-98.7552250339
 10
50.1019856648
 20
-98.6747879812
 10
50.356060816
 20
-98.5862104498
 10
50.6073233373
 20
-98.4895490583
 10
50.8549866928
 20
-98.3851505038
 10
51.0989743394
 20
-98.2730082508
 10
51.3392402594
 20
-98.1531876906
 10
51.5750478906
 20
-98.0261577184
 10
51.8061142314
 20
-97.8921022577
 10
52.0326064735
 20
-97.7509131619
 10
52.2544665986
 20
-97.6026281709
  0
LWPOLYLINE
  5
28E
100
AcDbEntity
  8
DRAFT
100
AcDbPolyline
 62
7
  6
CONTINUOUS
 90
115
 70
0
 10
22.6530612245
 20
86.6638800023
 10
23.015649096
 20
86.5828552384
 10
23.3753859098
 20
86.4916277162
 10
23.7321777512
 20
86.3902242476
 10
24.0861132878
 20
86.2786109692
 10
24.4369168998
 20
86.1568757905
 10
24.7839514332
 20
86.0252342812
 10
25.1271549755
 20
85.883692093
 10
25.4664114586
 20
85.7323120569
 10
25.8010101104
 20
85.5714072949
 10
26.1308241109
 20
85.4010260129
 10
26.4558162956
 20
85.2212024892
 10
26.775419918
 20
85.032239547
 10
27.0896097829
 20
84.834133836
 10
27.3982618359
 20
84.6269800225
 10
27.7006732606
 20
84.4112377991
 10
27.9967183761
 20
84.1869878726
 10
28.2863960106
 20
83.9542514458
 10
28.5692039367
 20
83.7134075212
 10
28.8451503395
 20
83.4644344779
 10
29.1141197272
 20
83.2074597683
 10
29.3754406581
 20
82.9430934054
 10
29.6290040989
 20
82.6714470997
 10
29.8748415779
 20
82.392520505
 10
30.1125100823
 20
82.1067616005
 10
30.3420452691
 20
81.8141250019
 10
30.5633569667
 20
81.5147660506
 10
30.7758329779
 20
81.2094383313
 10
30.9793960873
 20
80.8982770833
 10
31.174104212
 20
80.5812561945
 10
31.3595683684
 20
80.2588903508
 10
31.5358453343
 20
79.931106519
 10
31.7028840731
 20
79.5980799653
 10
31.8601556703
 20
79.2606992042
 10
32.0076238121
 20
78.9191160226
 10
32.14536855
 20
78.573273061
 10
32.273057759
 20
78.2237450736
 10
32.3907613666
 20
77.8704379196
 10
32.4984785121
 20
77.5135278544
 10
32.5957931517
 20
77.1539934073
 10
32.6827205234
 20
76.7919709873
 10
32.7593510767
 20
76.4273917322
 10
32.8254040865
 20
76.0609230911
 10
32.8809539091
 20
75.6924383203
 10
32.9260563368
 20
75.3221144964
 10
32.9604247886
 20
74.9510699995
 10
32.9841179901
 20
74.5794845103
 10
32.9972403961
 20
74.20720833
 10
32.9995941959
 20
73.8348598928
 10
32.9912695595
 20
73.4623276995
 10
32.9723578226
 20
73.0897323121
 10
32.9426798901
 20
72.7180335338
 10
32.902300563
 20
72.3471498261
 10
32.8513584424
 20
71.977148572
 10
32.7898027714
 20
71.6092049129
 10
32.7176193952
 20
71.2430760707
 10
32.6350431579
 20
70.8789662965
 10
32.5424114499
 20
70.5187126032
 10
32.4397569003
 20
70.162412626
 10
32.327277277
 20
69.8099060868
 10
32.2055633369
 20
69.4626362034
 10
32.0745943413
 20
69.1205429752
 10
31.9346124605
 20
68.7836052564
 10
31.7865961031
 20
68.4533218801
 10
31.6307312689
 20
68.1300082701
 10
31.4670278642
 20
67.8132573741
 10
31.2961860805
 20
67.5034854976
 10
31.1183086544
 20
67.2007048363
 10
30.9334593848
 20
66.9048059053
 10
30.7422650469
 20
66.6160255053
 10
30.54489215
 20
66.334425178
 10
30.3413108251
 20
66.0598438594
 10
30.1318410179
 20
65.7921872302
 10
29.916503599
 20
65.5313242582
 10
29.6953916303
 20
65.2772828063
 10
29.4689228325
 20
65.0302095264
 10
29.2372606842
 20
64.7901358047
 10
29.0003293447
 20
64.5569270656
 10
28.758179492
 20
64.3304823439
 10
28.5107609747
 20
64.1106324093
 10
28.2581952403
 20
63.8974377139
 10
28.0007828113
 20
63.6911427673
 10
27.7386507719
 20
63.4917429991
 10
27.47171794
 20
63.2991347375
 10
27.1999645151
 20
63.1134143452
 10
26.9232903676
 20
62.9344223686
 10
26.6418245066
 20
62.7622035524
 10
26.3558814067
 20
62.5971616242
 10
26.0655426315
 20
62.4392723107
 10
25.7707262822
 20
62.2884475141
 10
25.4714896684
 20
62.1449972815
 10
25.1676842421
 20
62.0087875794
 10
24.8594349439
 20
61.8798353835
 10
24.54719445
 20
61.7586813943
 10
24.230969402
 20
61.6452908954
 10
23.9106933546
 20
61.5395883013
 10
23.5866904064
 20
61.4420606668
 10
23.2587612793
 20
61.3526222896
 10
22.9270121245
 20
61.2712508956
 10
22.5922031705
 20
61.1985409216
 10
22.2542499798
 20
61.1344791168
 10
21.9131008562
 20
61.0789866948
 10
21.5695401686
 20
61.0325786062
 10
21.223327477
 20
60.9952478227
 10
20.8745270781
 20
60.9669250778
 10
20.5243557747
 20
60.9480577249
 10
20.1726795636
 20
60.9386939424
 10
19.8194158999
 20
60.9387390639
 10
19.4658372042
 20
60.9484591748
 10
19.1117834579
 20
60.9679216145
 10
18.7571678198
 20
60.9970433922
 10
18.4033585077
 20
61.0359007132
 10
18.0507219945
 20
61.0845334374
 10
17.6986268295
 20
61.1429237897
 10
17.3469387755
 20
61.2110792811
  0
LWPOLYLINE
  5
28F
100
AcDbEntity
  8
RACCORDO
100
AcDbPolyline
 62
253
  6
CONTINUOUS
 90
103
 70
0
 10
75.0027843946
 20
-73.8398710041
 10
75.1377539191
 20
-73.6378237362
 10
75.2663575117
 20
-73.4314375344
 10
75.388449878
 20
-73.2209122227
 10
75.5039131671
 20
-73.0064006682
 10
75.6125911413
 20
-72.7881550497
 10
75.7142943963
 20
-72.5665325518
 10
75.8089044702
 20
-72.3417756714
 10
75.8963356661
 20
-72.1140922853
 10
75.9764695094
 20
-71.8837985597
 10
76.0492095841
 20
-71.6511784926
 10
76.1145043519
 20
-71.4164330352
 10
76.1723079523
 20
-71.1797546782
 10
76.2225630992
 20
-70.9413666228
 10
76.2652191354
 20
-70.7015173688
 10
76.3002393223
 20
-70.460433957
 10
76.3275874215
 20
-70.2183439283
 10
76.3472351071
 20
-69.9754775013
 10
76.3591608587
 20
-69.7320668931
 10
76.3633436838
 20
-69.4883674011
 10
76.3597797005
 20
-69.2446227235
 10
76.3484770205
 20
-69.0010664734
 10
76.3294400163
 20
-68.7579696933
 10
76.3026831381
 20
-68.5156168999
 10
76.268232238
 20
-68.2742263978
 10
76.2261119004
 20
-68.0339904567
 10
76.176355645
 20
-67.7951273603
 10
76.1190177086
 20
-67.5579119921
 10
76.0541528148
 20
-67.3226059069
 10
75.9818165117
 20
-67.0894415505
 10
75.9020813785
 20
-66.8586510522
 10
75.8150265519
 20
-66.6304812907
 10
75.7207370197
 20
-66.4051739295
 10
75.6193125691
 20
-66.1829553501
 10
75.5108568446
 20
-65.9640581821
 10
75.3954867261
 20
-65.7487344365
 10
75.2733229506
 20
-65.5372046013
 10
75.1444773819
 20
-65.3296612612
 10
75.0090584998
 20
-65.1262866307
 10
74.8672047358
 20
-64.9272891373
 10
74.7190722636
 20
-64.732895149
 10
74.5647964532
 20
-64.5432969586
 10
74.4045105743
 20
-64.3586571383
 10
74.2383648343
 20
-64.1791556877
 10
74.0665621456
 20
-64.0050287032
 10
73.8893190011
 20
-63.8364937549
 10
73.7067834391
 20
-63.6736873238
 10
73.5191523065
 20
-63.5167892326
 10
73.3267414382
 20
-63.3660494881
 10
73.1297370079
 20
-63.2215933125
 10
72.9283700693
 20
-63.0835786372
 10
72.723063287
 20
-62.9522603105
 10
72.5140218639
 20
-62.8277201277
 10
72.3015051699
 20
-62.7100724944
 10
72.0860517859
 20
-62.5995516696
 10
71.8679530287
 20
-62.4962197385
 10
71.6474095867
 20
-62.4000935329
 10
71.4248516881
 20
-62.3112733696
 10
71.2005937617
 20
-62.2297804254
 10
70.9748386885
 20
-62.155592687
 10
70.747862396
 20
-62.0887070358
 10
70.5199348313
 20
-62.0290984327
 10
70.2912863436
 20
-61.9767290681
 10
70.0621242361
 20
-61.9315558177
 10
69.8326917575
 20
-61.8935324819
 10
69.6031535061
 20
-61.8625961362
 10
69.373573664
 20
-61.8386774834
 10
69.1441908311
 20
-61.8217238059
 10
68.9152196509
 20
-61.8116751241
 10
68.6867016446
 20
-61.8084727071
 10
68.4588424867
 20
-61.8120627461
 10
68.2318580099
 20
-61.8223790117
 10
68.0057962957
 20
-61.8393682017
 10
67.7808476556
 20
-61.8629724985
 10
67.5572163163
 20
-61.8931183112
 10
67.3349696876
 20
-61.9297531208
 10
67.1142765784
 20
-61.9728175961
 10
66.8953079822
 20
-62.0222463894
 10
66.6781334992
 20
-62.0779956779
 10
66.4629168881
 20
-62.1400016017
 10
66.249811368
 20
-62.2081930609
 10
66.0388956828
 20
-62.2825225756
 10
65.8303811223
 20
-62.3629076577
 10
65.6244809878
 20
-62.4492581509
 10
65.4212516185
 20
-62.5415332408
 10
65.2208309311
 20
-62.6396621295
 10
65.0233985284
 20
-62.7435536139
 10
64.8290651913
 20
-62.8531455121
 10
64.6379771507
 20
-62.9683562551
 10
64.4502865972
 20
-63.0891005979
 10
64.2661168746
 20
-63.2153055246
 10
64.0856254641
 20
-63.3468684927
 10
63.9089746654
 20
-63.4836829549
 10
63.7363017838
 20
-63.6256576449
 10
63.5677780076
 20
-63.7726565322
 10
63.4035432154
 20
-63.9245659397
 10
63.2436895368
 20
-64.0813220904
 10
63.0883755089
 20
-64.2427885584
 10
62.9377245575
 20
-64.4088543488
 10
62.7917814492
 20
-64.579506216
 10
62.6506617369
 20
-64.7546581127
 10
62.5145396807
 20
-64.9341379056
 10
62.3835583042
 20
-65.1178074437
  0
LWPOLYLINE
  5
290
100
AcDbEntity
  8
RACCORDO
100
AcDbPolyline
 62
253
  6
CONTINUOUS
 90
103
 70
0
 10
75.6026281709
 20
-74.2544665986
 10
75.7516413297
 20
-74.0314227565
 10
75.8934041975
 20
-73.8039034578
 10
76.02788031
 20
-73.571968218
 10
76.1551626826
 20
-73.3354440633
 10
76.2750852327
 20
-73.0946225651
 10
76.3872300946
 20
-72.8502627405
 10
76.4915281333
 20
-72.6024347647
 10
76.5879932661
 20
-72.3511922765
 10
76.6763462733
 20
-72.0972726509
 10
76.7565337074
 20
-71.8407764146
 10
76.8285711686
 20
-71.5817256454
 10
76.8922961349
 20
-71.3207400519
 10
76.9476874843
 20
-71.0578676141
 10
76.9947435933
 20
-70.7931776026
 10
77.033343664
 20
-70.527319466
 10
77.0634735449
 20
-70.2603342423
 10
77.0851407867
 20
-69.9922896938
 10
77.0982703401
 20
-69.7238712807
 10
77.1028515994
 20
-69.4551090679
 10
77.0989052202
 20
-69.1860700842
 10
77.0864169829
 20
-68.9174891127
 10
77.0653878184
 20
-68.6494103181
 10
77.0358440264
 20
-68.3818713401
 10
76.9978234187
 20
-68.1155892103
 10
76.9513310201
 20
-67.8505855896
 10
76.8964047052
 20
-67.5869027561
 10
76.8331451289
 20
-67.3252790988
 10
76.7615634302
 20
-67.0657219475
 10
76.6817061598
 20
-66.8082672924
 10
76.5937405037
 20
-66.5536852534
 10
76.4976818385
 20
-66.3019811683
 10
76.3935861823
 20
-66.0531698873
 10
76.2816945256
 20
-65.808023133
 10
76.1620349294
 20
-65.5665438877
 10
76.0346622752
 20
-65.328724523
 10
75.8998693433
 20
-65.0953074417
 10
75.7576898575
 20
-64.8662845612
 10
75.6081816511
 20
-64.6416339637
 10
75.4516835469
 20
-64.4220637731
 10
75.2882259531
 20
-64.2075431561
 10
75.1178754736
 20
-63.9980478415
 10
74.9410334868
 20
-63.7942823516
 10
74.7577100914
 20
-63.5961917728
 10
74.5679948043
 20
-63.4037513065
 10
74.372414921
 20
-63.2176973192
 10
74.1709734256
 20
-63.0379797623
 10
73.9637666787
 20
-62.8645452607
 10
73.7514668637
 20
-62.6981128103
 10
73.534058756
 20
-62.5386316286
 10
73.3116525845
 20
-62.3860285189
 10
73.0851107931
 20
-62.2409790107
 10
72.854416026
 20
-62.1034522161
 10
72.6196716965
 20
-61.9733398757
 10
72.381920152
 20
-61.8511961004
 10
72.1412211009
 20
-61.7370318756
 10
71.8975868349
 20
-61.6306904342
 10
71.6519841306
 20
-61.5324746893
 10
71.4044866461
 20
-61.4423807443
 10
71.1550749695
 20
-61.3602690213
 10
70.9045699481
 20
-61.2862441932
 10
70.6530275928
 20
-61.2202799548
 10
70.4004271758
 20
-61.162267602
 10
70.1474675998
 20
-61.1121964665
 10
69.8942051046
 20
-61.0700310129
 10
69.6405999595
 20
-61.0356842033
 10
69.3872006052
 20
-61.0090776393
 10
69.1340100178
 20
-60.9901646701
 10
68.8810241102
 20
-60.9788831857
 10
68.6287747193
 20
-60.9751418612
 10
68.3772492543
 20
-60.9789054253
 10
68.1264422857
 20
-60.9901163041
 10
67.876890713
 20
-61.0086612836
 10
67.6285838283
 20
-61.0345135928
 10
67.3814981686
 20
-61.0676253484
 10
67.1361462902
 20
-61.1078643278
 10
66.8925017748
 20
-61.1552135049
 10
66.650541761
 20
-61.2096345542
 10
66.4107795285
 20
-61.2709768045
 10
66.1731706843
 20
-61.3392414034
 10
65.9376962545
 20
-61.4143923518
 10
65.7049037552
 20
-61.4962380636
 10
65.47474816
 20
-61.5847915502
 10
65.2471983487
 20
-61.6800273155
 10
65.0228198064
 20
-61.7817121761
 10
64.8015723944
 20
-61.8898701243
 10
64.583409041
 20
-62.0044880179
 10
64.3688832507
 20
-62.125293715
 10
64.1579387108
 20
-62.2523303238
 10
63.9505355342
 20
-62.3855884439
 10
63.7472519523
 20
-62.5247342779
 10
63.5480284676
 20
-62.6698313911
 10
63.3528220088
 20
-62.8208728369
 10
63.1622377923
 20
-62.9774366519
 10
62.9762485606
 20
-63.1395703099
 10
62.7947763686
 20
-63.3073055119
 10
62.6183549331
 20
-63.4802131041
 10
62.4469495475
 20
-63.6583441399
 10
62.2804897702
 20
-63.8417451259
 10
62.119461775
 20
-64.0299941007
 10
61.9639952189
 20
-64.2229904911
 10
61.8138586944
 20
-64.4209483194
 10
61.6689995896
 20
-64.6239240247
  0
LWPOLYLINE
  5
291
100
AcDbEntity
  8
RACCORDO
100
AcDbPolyline
 62
253
  6
CONTINUOUS
 90
112
 70
0
 10
53.5204602687
 20
-99.4342887912
 10
53.2608298545
 20
-99.6081758863
 10
52.9965086855
 20
-99.7742394363
 10
52.7275687153
 20
-99.9324368101
 10
52.4539106915
 20
-100.0828160941
 10
52.1757774633
 20
-100.2252445389
 10
51.8937563216
 20
-100.3594146242
 10
51.6079142297
 20
-100.4852766643
 10
51.3183320617
 20
-100.6028117569
 10
51.02562091
 20
-100.7117709871
 10
50.7298498795
 20
-100.8121133405
 10
50.4310975707
 20
-100.9038276904
 10
50.129990023
 20
-100.9867231898
 10
49.8266051361
 20
-101.0607681741
 10
49.5210088975
 20
-101.1259596018
 10
49.213808098
 20
-101.1821629986
 10
48.9050595191
 20
-101.2293609672
 10
48.5948431
 20
-101.2675532415
 10
48.2837970868
 20
-101.2966447485
 10
47.9719651844
 20
-101.3166248275
 10
47.6594300306
 20
-101.3275042311
 10
47.3468829748
 20
-101.3292346592
 10
47.0343681669
 20
-101.3218113525
 10
46.7219538486
 20
-101.3052578167
 10
46.4103600628
 20
-101.2795835615
 10
46.099635139
 20
-101.2447944207
 10
45.7898256746
 20
-101.200921852
 10
45.4816397972
 20
-101.1480290911
 10
45.1751134325
 20
-101.0861326794
 10
44.870285348
 20
-101.0152704249
 10
44.567857112
 20
-100.9355521151
 10
44.2678446493
 20
-100.8470000435
 10
43.9702841244
 20
-100.7496617475
 10
43.6758951661
 20
-100.6436990655
 10
43.3846811709
 20
-100.529139046
 10
43.0966658248
 20
-100.4060386728
 10
42.812585411
 20
-100.2746184602
 10
42.5324367142
 20
-100.1349130256
 10
42.2562229768
 20
-99.9869842878
 10
41.9846752591
 20
-99.8311066494
 10
41.7177761631
 20
-99.6673186549
 10
41.4555149085
 20
-99.4956882958
 10
41.1986168825
 20
-99.3165458594
 10
40.9470555718
 20
-99.1299363311
 10
40.7008005111
 20
-98.9359285584
 10
40.4605553307
 20
-98.7348988285
 10
40.2262801851
 20
-98.5268950451
 10
39.9979295331
 20
-98.31198724
 10
39.776182912
 20
-98.0905933343
 10
39.5609808845
 20
-97.8627524104
 10
39.3522702218
 20
-97.628544104
 10
39.1507247901
 20
-97.3884538061
 10
38.9562684883
 20
-97.1425007031
 10
38.7688390577
 20
-96.8907818756
 10
38.589117106
 20
-96.6339042846
 10
38.4170280629
 20
-96.3718769161
 10
38.2524850672
 20
-96.1048010774
 10
38.0961383846
 20
-95.833424529
 10
37.9479007129
 20
-95.5576874974
 10
37.807679731
 20
-95.2777498064
 10
37.6761104947
 20
-94.9946877648
 10
37.5531686356
 20
-94.7085124959
 10
37.438689174
 20
-94.4192975537
 10
37.3330955136
 20
-94.1282083051
 10
37.2363866017
 20
-93.8353374745
 10
37.1483766166
 20
-93.5406564434
 10
37.0692181321
 20
-93.2451412194
 10
36.9988828525
 20
-92.948846297
 10
36.9372235603
 20
-92.6517586789
 10
36.8842257047
 20
-92.3547447675
 10
36.8398544505
 20
-92.0579082969
 10
36.8039873619
 20
-91.76116415
 10
36.7764915031
 20
-91.465087558
 10
36.7573058366
 20
-91.1697308848
 10
36.7463528809
 20
-90.8750395871
 10
36.7434869675
 20
-90.5814218993
 10
36.7486479019
 20
-90.2888491679
 10
36.7617750708
 20
-89.9973289348
 10
36.7827342515
 20
-89.7073177349
 10
36.8114859406
 20
-89.4187744085
 10
36.8479691854
 20
-89.1317006467
 10
36.8920318268
 20
-88.8466114694
 10
36.9436456567
 20
-88.5634878926
 10
37.0027620709
 20
-88.2822917953
 10
37.0692140153
 20
-88.0035042243
 10
37.1429794442
 20
-87.727101007
 10
37.2240277463
 20
-87.4530328723
 10
37.3121947541
 20
-87.1817387078
 10
37.4074753958
 20
-86.9131636851
 10
37.5098457316
 20
-86.6472739897
 10
37.6191295146
 20
-86.3845362178
 10
37.7353713532
 20
-86.1248375885
 10
37.8585220837
 20
-85.8681879549
 10
37.9882846496
 20
-85.6152352869
 10
38.1246904649
 20
-85.3659450758
 10
38.2677349225
 20
-85.1202371175
 10
38.4170889838
 20
-84.8786901885
 10
38.5726935708
 20
-84.6413655574
 10
38.7346640058
 20
-84.40807864
 10
38.9029482684
 20
-84.1790385197
 10
39.0777964024
 20
-83.953926176
 10
39.2590268421
 20
-83.7329244392
 10
39.4459610321
 20
-83.5169982525
 10
39.6387713792
 20
-83.3060840969
 10
39.8373934673
 20
-83.1001100802
 10
40.0408250147
 20
-82.9000419968
 10
40.2492160004
 20
-82.7058868762
 10
40.4625586765
 20
-82.5175144806
 10
40.6796413303
 20
-82.335706774
 10
40.9001199585
 20
-82.1606970703
 10
41.1245051987
 20
-81.9921549229
 10
41.3528782148
 20
-81.8300294497
  0
LWPOLYLINE
  5
292
100
AcDbEntity
  8
DRAFT
100
AcDbPolyline
 62
7
  6
CONTINUOUS
 90
100
 70
0
 10
51.7406526588
 20
-96.8592336485
 10
51.5376116522
 20
-96.9947262346
 10
51.3306044359
 20
-97.1233628978
 10
51.1196829865
 20
-97.2451139025
 10
50.9047194558
 20
-97.3600402188
 10
50.6859450473
 20
-97.4680216216
 10
50.4639518119
 20
-97.5687618679
 10
50.2387857708
 20
-97.6622212762
 10
50.0105066777
 20
-97.7483934204
 10
49.7797290659
 20
-97.8270424036
 10
49.5464918741
 20
-97.8981373341
 10
49.3108604652
 20
-97.9616764119
 10
49.073488876
 20
-98.0174787373
 10
48.8344312223
 20
-98.0655180094
 10
48.5937328612
 20
-98.1058026107
 10
48.3520326218
 20
-98.1382154352
 10
48.1093598701
 20
-98.1627418023
 10
47.8657767518
 20
-98.1793928841
 10
47.6219673355
 20
-98.1881024295
 10
47.3779642212
 20
-98.1888602406
 10
47.1338152203
 20
-98.1816881972
 10
46.8902214533
 20
-98.1665806765
 10
46.6472074157
 20
-98.1435343972
 10
46.4048149842
 20
-98.1125791632
 10
46.1637638686
 20
-98.0737715002
 10
45.9240828253
 20
-98.0271175767
 10
45.6857926957
 20
-97.9726520152
 10
45.4495924523
 20
-97.9104860546
 10
45.2154783448
 20
-97.8406250395
 10
44.9834851278
 20
-97.7631168392
 10
44.7543593287
 20
-97.6781480671
 10
44.5281153048
 20
-97.5857373326
 10
44.3047487171
 20
-97.4859310076
 10
44.0849668574
 20
-97.3789681583
 10
43.8687532877
 20
-97.2648620512
 10
43.6561129133
 20
-97.1436733236
 10
43.4477732955
 20
-97.0157217144
 10
43.243751596
 20
-96.8810554308
 10
43.0439965221
 20
-96.7397073108
 10
42.8491214744
 20
-96.5919819269
 10
42.6590685859
 20
-96.4378815125
 10
42.4738408848
 20
-96.2774878685
 10
42.2941318887
 20
-96.111231297
 10
42.1198807685
 20
-95.9390891961
 10
41.9510722914
 20
-95.7611697519
 10
41.7884569963
 20
-95.5781047975
 10
41.6319865929
 20
-95.3898489894
 10
41.4816134815
 20
-95.1965318498
 10
41.3380794136
 20
-94.999050657
 10
41.2013949284
 20
-94.7974175531
 10
41.0714382499
 20
-94.5916986943
 10
40.9487469132
 20
-94.3828721685
 10
40.8333206794
 20
-94.1709237158
 10
40.7250412391
 20
-93.9559346939
 10
40.6242689879
 20
-93.739022976
 10
40.5310665236
 20
-93.5203708101
 10
40.4452545602
 20
-93.2998476765
 10
40.3668350611
 20
-93.0780968045
 10
40.2957684588
 20
-92.8551294958
 10
40.2319838454
 20
-92.6309703039
 10
40.1754428299
 20
-92.4062765496
 10
40.1261216723
 20
-92.1811853496
 10
40.0839439055
 20
-91.9555795338
 10
40.048798502
 20
-91.729729908
 10
40.0206205406
 20
-91.5035603181
 10
39.9993819946
 20
-91.277153372
 10
39.9850337579
 20
-91.0510133971
 10
39.97752739
 20
-90.8252490918
 10
39.9768309011
 20
-90.5997439105
 10
39.9829258133
 20
-90.3746600188
 10
39.9957733051
 20
-90.1498549864
 10
40.0153381141
 20
-89.9254511675
 10
40.0416140207
 20
-89.7020035493
 10
40.0745489354
 20
-89.4796045026
 10
40.1141369365
 20
-89.2581274923
 10
40.1604486472
 20
-89.0377944864
 10
40.2134910307
 20
-88.8184382748
 10
40.2732072059
 20
-88.6001789806
 10
40.3395813282
 20
-88.3836648279
 10
40.4125777731
 20
-88.1689392057
 10
40.4922028324
 20
-87.9558975664
 10
40.5785154136
 20
-87.7449612189
 10
40.6715751225
 20
-87.5359683785
 10
40.7713071543
 20
-87.3290058043
 10
40.8775832246
 20
-87.1248632368
 10
40.990411378
 20
-86.9235417929
 10
41.1097945076
 20
-86.7249529285
 10
41.2356143994
 20
-86.5297486397
 10
41.3679952293
 20
-86.3377834107
 10
41.5068451558
 20
-86.149103868
 10
41.6517421907
 20
-85.9646497311
 10
41.8027483292
 20
-85.7844160627
 10
41.9598641922
 20
-85.6083035655
 10
42.1225978474
 20
-85.4371139011
 10
42.291062223
 20
-85.2707987127
 10
42.4652312685
 20
-85.1093007716
 10
42.6444243682
 20
-84.9534160215
 10
42.8284548282
 20
-84.8033792159
 10
43.0176197097
 20
-84.6588573909
 10
43.2119736491
 20
-84.5197995306
  0
LWPOLYLINE
  5
293
100
AcDbEntity
  8
RACCORDO
100
AcDbPolyline
 62
253
  6
CONTINUOUS
 90
118
 70
0
 10
108.8258023364
 20
0.6868170277
 10
108.7459261236
 20
1.0449100056
 10
108.6559854013
 20
1.4010687516
 10
108.5560123457
 20
1.7550103191
 10
108.4460240727
 20
2.1065098532
 10
108.3260956001
 20
2.4552114235
 10
108.1963622159
 20
2.8006377725
 10
108.0569018166
 20
3.1425097978
 10
107.9078033763
 20
3.4805585345
 10
107.7492517602
 20
3.814333369
 10
107.5813709475
 20
4.1435587286
 10
107.4042907781
 20
4.4679868719
 10
107.2182323716
 20
4.7872213155
 10
107.0233931448
 20
5.1009358238
 10
106.819889455
 20
5.4089673198
 10
106.6078249082
 20
5.7111677727
 10
106.3873671127
 20
6.0072961614
 10
106.15868881
 20
6.2971328734
 10
105.9218863271
 20
6.5805491456
 10
105.6770841186
 20
6.8573612598
 10
105.4245154512
 20
7.127282171
 10
105.1644364189
 20
7.3900287013
 10
104.8970445918
 20
7.6453947989
 10
104.6225455884
 20
7.8931884577
 10
104.3412214072
 20
8.1331566874
 10
104.0533433006
 20
8.3650648244
 10
103.7591016244
 20
8.5887656374
 10
103.4586545305
 20
8.8041401318
 10
103.152202355
 20
9.0110360579
 10
102.8400086006
 20
9.2092763162
 10
102.5223266474
 20
9.3986974668
 10
102.1994152163
 20
9.579131763
 10
101.8715309239
 20
9.7504310663
 10
101.5389200056
 20
9.9124652864
 10
101.2018190182
 20
10.0651124177
 10
100.8604842713
 20
10.2082539936
 10
100.5151970091
 20
10.3417669598
 10
100.1662473233
 20
10.4655273238
 10
99.8139043634
 20
10.5794366613
 10
99.4584176052
 20
10.6834108551
 10
99.1000896224
 20
10.7773505845
 10
98.7392173398
 20
10.8611781068
 10
98.3760458882
 20
10.9348337183
 10
98.0108759631
 20
10.9982405731
 10
97.6440655723
 20
11.051337117
 10
97.2759431834
 20
11.0940860861
 10
96.9067320923
 20
11.1264591382
 10
96.5367207802
 20
11.1484185044
 10
96.166309617
 20
11.1599389523
 10
95.7957048831
 20
11.1610232964
 10
95.4250757221
 20
11.1516720799
 10
95.0547948922
 20
11.1318836299
 10
94.6852468427
 20
11.1016659711
 10
94.3167153244
 20
11.0610500552
 10
93.949434608
 20
11.0100710674
 10
93.58365355
 20
10.9487512698
 10
93.2197956778
 20
10.8771533465
 10
92.8583269202
 20
10.7953816415
 10
92.4993850727
 20
10.7034805328
 10
92.1433701231
 20
10.6015739889
 10
91.7911516688
 20
10.4899617615
 10
91.4430903078
 20
10.3688230422
 10
91.0994847712
 20
10.2383458417
 10
90.7610617268
 20
10.0989308016
 10
90.4280511799
 20
9.9508107774
 10
90.100643608
 20
9.7942028589
 10
89.7794244404
 20
9.6295443117
 10
89.464563202
 20
9.457105323
 10
89.1560904089
 20
9.2770881332
 10
88.8543856826
 20
9.0899064464
 10
88.5597647171
 20
8.8959599525
 10
88.2722210857
 20
8.6954523765
 10
87.9916180354
 20
8.4884919485
 10
87.7180605129
 20
8.2753430049
 10
87.4516343265
 20
8.0562573317
 10
87.1921857451
 20
7.8312844569
 10
86.9397841321
 20
7.6006401445
 10
86.694541298
 20
7.3645797339
 10
86.4563898212
 20
7.1231963992
 10
86.2254166774
 20
6.8767271152
 10
86.0017238195
 20
6.6254242054
 10
85.7852676182
 20
6.3693793333
 10
85.576115003
 20
6.1088110434
 10
85.3743156721
 20
5.8439172014
 10
85.1798036123
 20
5.5747374192
 10
84.9926593312
 20
5.3015126347
 10
84.8129508394
 20
5.0244691854
 10
84.6406220393
 20
4.7436261512
 10
84.4757230512
 20
4.4591637412
 10
84.3183029885
 20
4.1712707078
 10
84.1683116649
 20
3.8799409085
 10
84.0258090315
 20
3.5853695058
 10
83.8908584573
 20
3.2877808896
 10
83.7634436132
 20
2.9872061835
 10
83.6436265412
 20
2.6838289714
 10
83.5314650691
 20
2.3778504168
 10
83.4269587384
 20
2.0693170564
 10
83.3301568975
 20
1.7584016234
 10
83.2411020536
 20
1.4452833585
 10
83.1598048447
 20
1.1300300426
 10
83.0863326516
 20
0.8128922009
 10
83.0207341851
 20
0.4940578519
 10
82.9630036687
 20
0.1734583586
 10
82.9131734494
 20
-0.148856894
 10
82.8713113408
 20
-0.4726216549
 10
82.8374689766
 20
-0.7975514729
 10
82.811677564
 20
-1.123490043
 10
82.7939813804
 20
-1.4501378346
 10
82.7844144748
 20
-1.7769860494
 10
82.782971137
 20
-2.1038700776
 10
82.7896447552
 20
-2.4306040041
 10
82.8044072101
 20
-2.756675374
 10
82.8272140847
 20
-3.0818644744
 10
82.8580197364
 20
-3.4059792464
 10
82.8967407932
 20
-3.7285323877
 10
82.9432880643
 20
-4.0492361455
 10
82.9975884841
 20
-4.368001356
 10
83.0595589822
 20
-4.6846485248
  0
LWPOLYLINE
  5
294
100
AcDbEntity
  8
RACCORDO
100
AcDbPolyline
 62
253
  6
CONTINUOUS
 90
118
 70
0
 10
109.718093136
 20
0.8728320873
 10
109.632234448
 20
1.2579463788
 10
109.5355874601
 20
1.6405933762
 10
109.4281761953
 20
2.0206687829
 10
109.3099594793
 20
2.398345553
 10
109.1810267448
 20
2.7732421216
 10
109.0416075267
 20
3.144425822
 10
108.8917044984
 20
3.5117798726
 10
108.7313861357
 20
3.875221723
 10
108.560997792
 20
4.2338789614
 10
108.3805574756
 20
4.587636529
 10
108.1901364117
 20
4.9364253851
 10
107.9901747528
 20
5.2794547463
 10
107.7807556792
 20
5.6165589078
 10
107.5619000621
 20
5.9477403353
 10
107.3339654592
 20
6.2724736914
 10
107.0970090562
 20
6.5906809266
 10
106.8510847265
 20
6.9022958975
 10
106.5965524887
 20
7.2068235306
 10
106.3334016937
 20
7.5042654674
 10
106.0617588778
 20
7.7944960915
 10
105.7821977046
 20
8.0768457499
 10
105.494761428
 20
8.3512528082
 10
105.1995288867
 20
8.6176844854
 10
104.8971348508
 20
8.8755351981
 10
104.587670321
 20
9.1247353522
 10
104.2711683343
 20
9.3652920431
 10
103.9481818376
 20
9.5967351267
 10
103.6187331433
 20
9.8190641867
 10
103.2829209797
 20
10.0322458819
 10
102.9414161683
 20
10.2357815601
 10
102.5942666359
 20
10.429665803
 10
102.2415404058
 20
10.6139036017
 10
101.8839404113
 20
10.7880348503
 10
101.5215014991
 20
10.952073718
 10
101.1542962204
 20
11.1060391469
 10
100.7830843588
 20
11.2495019423
 10
100.407897592
 20
11.3824916919
 10
100.0287998354
 20
11.5050462022
 10
99.6465978539
 20
11.6167730674
 10
99.2613110324
 20
11.7177174017
 10
98.8730005625
 20
11.8079354895
 10
98.4825328605
 20
11.8870764639
 10
98.0899193344
 20
11.9551981119
 10
97.6952110444
 20
12.0123773579
 10
97.299329163
 20
12.058316689
 10
96.9023004676
 20
12.0930884527
 10
96.5041396671
 20
12.1167866185
 10
96.1057436559
 20
12.1291693587
 10
95.7071029381
 20
12.1303226769
 10
95.3082453325
 20
12.1203543436
 10
94.910116298
 20
12.099076578
 10
94.5126969568
 20
12.0665838713
 10
94.1159994643
 20
12.0229998074
 10
93.7210073701
 20
11.96819974
 10
93.3276235625
 20
11.9022621265
 10
92.9359121722
 20
11.8253462644
 10
92.54708931
 20
11.7374659741
 10
92.1609825572
 20
11.6386385198
 10
91.7777043054
 20
11.5290993803
 10
91.3988885492
 20
11.4092024962
 10
91.0245496891
 20
11.2789903304
 10
90.6545879257
 20
11.1386777215
 10
90.2904589369
 20
10.9888806011
 10
89.9322301357
 20
10.8296771654
 10
89.5797294032
 20
10.6612339301
 10
89.2340501715
 20
10.4842921593
 10
88.8952359933
 20
10.2989359171
 10
88.5631262431
 20
10.1053004098
 10
88.2385092473
 20
9.9041890282
 10
87.9215011614
 20
9.6957736972
 10
87.6118632646
 20
9.4800677483
 10
87.3098548062
 20
9.2576204564
 10
87.0154460854
 20
9.0285384536
 10
86.7285405309
 20
8.7928689317
 10
86.4493004146
 20
8.5510578587
 10
86.1776324415
 20
8.303141778
 10
85.9135012593
 20
8.0492081938
 10
85.6571604522
 20
7.7897651009
 10
85.4085514908
 20
7.5248524506
 10
85.1676053856
 20
7.2545220011
 10
84.934566163
 20
6.9792836836
 10
84.7093890812
 20
6.699171301
 10
84.4919948625
 20
6.4142098221
 10
84.2825829352
 20
6.1248800152
 10
84.0811015431
 20
5.8312005193
 10
83.8874834177
 20
5.5331790958
 10
83.7019125362
 20
5.2312646779
 10
83.5243352503
 20
4.9254482964
 10
83.3546920711
 20
4.6157336232
 10
83.193166787
 20
4.3025731334
 10
83.0397013066
 20
3.9859251355
 10
82.8942477918
 20
3.6657944119
 10
82.7570155586
 20
3.3426870549
 10
82.6279605649
 20
3.0165486483
 10
82.507030545
 20
2.6873641015
 10
82.3944346325
 20
2.355681649
 10
82.2901387676
 20
2.0214283325
 10
82.1940922327
 20
1.6845751631
 10
82.1064933026
 20
1.345719357
 10
82.0273184357
 20
1.0048220138
 10
81.9565203183
 20
0.6617882532
 10
81.8942758618
 20
0.3171155689
 10
81.8405550251
 20
-0.0294136805
 10
81.7953271446
 20
-0.3777435747
 10
81.7587868968
 20
-0.7269823597
 10
81.7309587123
 20
-1.0773283523
 10
81.7117794878
 20
-1.4287755188
 10
81.7013406453
 20
-1.7801417241
 10
81.699709236
 20
-2.1315426234
 10
81.7068098079
 20
-2.4830803704
 10
81.7225523463
 20
-2.8335633932
 10
81.7470164146
 20
-3.1831154843
 10
81.7801433907
 20
-3.5318445991
 10
81.8216686038
 20
-3.8785380594
 10
81.8715279581
 20
-4.2228686443
 10
81.9298390438
 20
-4.565396101
 10
81.9966252786
 20
-4.9062373569
  0
LWPOLYLINE
  5
295
100
AcDbEntity
  8
RACCORDO
100
AcDbPolyline
 62
253
  6
CONTINUOUS
 90
124
 70
0
 10
111.515420172
 20
-45.2475192362
 10
111.4228323156
 20
-45.6637409517
 10
111.3192672085
 20
-46.0770249693
 10
111.204755285
 20
-46.4872600503
 10
111.0792658455
 20
-46.8945241329
 10
110.9428913088
 20
-47.2985176413
 10
110.7958540619
 20
-47.6985665521
 10
110.6381789545
 20
-48.0945598125
 10
110.4699206428
 20
-48.4863966918
 10
110.2913590996
 20
-48.8734263713
 10
110.1025289968
 20
-49.2555418876
 10
109.903489824
 20
-49.6326518184
 10
109.6945705513
 20
-50.0041386507
 10
109.4758204927
 20
-50.3698963908
 10
109.2472970018
 20
-50.7298495515
 10
109.0093513662
 20
-51.0834380344
 10
108.7620261797
 20
-51.4305863456
 10
108.505395011
 20
-51.7712075404
 10
108.2398646835
 20
-52.1047377311
 10
107.9654754964
 20
-52.4311150822
 10
107.6823111263
 20
-52.7502613731
 10
107.3908518854
 20
-53.0616040393
 10
107.091146056
 20
-53.3650847655
 10
106.7832751646
 20
-53.6606479535
 10
106.4677767973
 20
-53.9477434072
 10
106.1447101644
 20
-54.2263200356
 10
105.8141488107
 20
-54.4963439556
 10
105.4766576834
 20
-54.757310562
 10
105.1322937149
 20
-55.0091887714
 10
104.7811322858
 20
-55.2519549522
 10
104.4237702384
 20
-55.4851364427
 10
104.0602525942
 20
-55.7087243065
 10
103.69066307
 20
-55.9227042647
 10
103.3156593205
 20
-56.1266178083
 10
102.9352852061
 20
-56.320469156
 10
102.5496190685
 20
-56.5042643331
 10
102.1593715729
 20
-56.6775712115
 10
101.7645873823
 20
-56.8404080641
 10
101.3653342637
 20
-56.9928014069
 10
100.9623571958
 20
-57.1343559938
 10
100.5556941715
 20
-57.2651077801
 10
100.1454065793
 20
-57.3851000918
 10
99.732272498
 20
-57.4939735725
 10
99.316316506
 20
-57.5917816978
 10
98.8975972498
 20
-57.6785842144
 10
98.4769403052
 20
-57.7540562063
 10
98.0543612153
 20
-57.8182654152
 10
97.6299085524
 20
-57.8712905526
 10
97.2044522513
 20
-57.912848128
 10
96.7780088361
 20
-57.9430198225
 10
96.3506040342
 20
-57.9619020984
 10
95.923114951
 20
-57.9692577019
 10
95.4955461767
 20
-57.9651838472
 10
95.067911225
 20
-57.949790054
 10
94.6410927169
 20
-57.9228799989
 10
94.215061669
 20
-57.8845594831
 10
93.7898392115
 20
-57.8349544946
 10
93.3663741446
 20
-57.7739199084
 10
92.9446167929
 20
-57.701561801
 10
92.5245814736
 20
-57.6180276258
 10
92.1073030386
 20
-57.5232533078
 10
91.6926925442
 20
-57.4173288231
 10
91.2807752189
 20
-57.3004346179
 10
90.8727468029
 20
-57.1726580511
 10
90.4685180087
 20
-57.0340694819
 10
90.068086369
 20
-56.8848789357
 10
89.672768246
 20
-56.7253932741
 10
89.2822881517
 20
-56.5555368457
 10
88.8968043482
 20
-56.3756651166
 10
88.5182779017
 20
-56.1867306176
 10
88.1469457842
 20
-55.9888779296
 10
87.7824374692
 20
-55.7822204593
 10
87.425802744
 20
-55.5676504559
 10
87.0771904894
 20
-55.3453533268
 10
86.7363110773
 20
-55.1153659133
 10
86.4035598971
 20
-54.8783398428
 10
86.0789236407
 20
-54.6343970747
 10
85.7622712039
 20
-54.383602073
 10
85.4538256414
 20
-54.1265033356
 10
85.1535328724
 20
-53.8631893186
 10
84.8613014391
 20
-53.5937229422
 10
84.5773034225
 20
-53.3185983
 10
84.3014724909
 20
-53.0378778839
 10
84.0337304138
 20
-52.7516161636
 10
83.7742373079
 20
-52.4602794219
 10
83.5229283427
 20
-52.1639137887
 10
83.2797267262
 20
-51.8625558892
 10
83.0447812741
 20
-51.5566421321
 10
82.8180202264
 20
-51.246188063
 10
82.5993780071
 20
-50.9312272502
 10
82.3890203383
 20
-50.6122072844
 10
82.1868828314
 20
-50.2891268275
 10
81.9928988189
 20
-49.9620020935
 10
81.8072395584
 20
-49.631290545
 10
81.6298484891
 20
-49.2969790404
 10
81.4606591374
 20
-48.9590610795
 10
81.299837941
 20
-48.6179874089
 10
81.1473301994
 20
-48.2737245786
 10
81.0030766041
 20
-47.9262523192
 10
80.8672476704
 20
-47.576024461
 10
80.7397900863
 20
-47.2229770551
 10
80.6206530953
 20
-46.8670866119
 10
80.5100235264
 20
-46.5088505787
 10
80.4078518207
 20
-46.1481387711
 10
80.3140949042
 20
-45.7849601314
 10
80.2289657526
 20
-45.420002158
 10
80.1524498725
 20
-45.0531809611
 10
80.084487229
 20
-44.6844230588
 10
80.025242279
 20
-44.3144128384
 10
79.9747027558
 20
-43.9431747688
 10
79.9328255626
 20
-43.5704943272
 10
79.8997442394
 20
-43.1966826397
 10
79.8754344187
 20
-42.8213117618
 10
79.8598686924
 20
-42.4445951213
 10
79.8531999718
 20
-42.067790526
 10
79.8555129266
 20
-41.6906674222
 10
79.8667071469
 20
-41.3132100927
 10
79.8866999492
 20
-40.9369844998
 10
79.9156157339
 20
-40.5618526861
 10
79.9533577405
 20
-40.1876881447
 10
79.9995580118
 20
-39.8160710166
 10
80.0541275075
 20
-39.4474415353
 10
80.1172294069
 20
-39.0810973677
 10
80.1888962074
 20
-38.7169069913
  0
LWPOLYLINE
  5
296
100
AcDbEntity
  8
DRAFT
100
AcDbPolyline
 62
7
  6
CONTINUOUS
 90
115
 70
0
 10
108.6638800023
 20
-44.6530612245
 10
108.5828552384
 20
-45.015649096
 10
108.4916277162
 20
-45.3753859098
 10
108.3902242476
 20
-45.7321777512
 10
108.2786109692
 20
-46.0861132878
 10
108.1568757905
 20
-46.4369168998
 10
108.0252342812
 20
-46.7839514332
 10
107.883692093
 20
-47.1271549755
 10
107.7323120569
 20
-47.4664114586
 10
107.5714072949
 20
-47.8010101104
 10
107.4010260129
 20
-48.1308241109
 10
107.2212024892
 20
-48.4558162956
 10
107.032239547
 20
-48.775419918
 10
106.834133836
 20
-49.0896097829
 10
106.6269800225
 20
-49.3982618359
 10
106.4112377991
 20
-49.7006732606
 10
106.1869878726
 20
-49.9967183761
 10
105.9542514458
 20
-50.2863960106
 10
105.7134075212
 20
-50.5692039367
 10
105.4644344779
 20
-50.8451503395
 10
105.2074597683
 20
-51.1141197272
 10
104.9430934054
 20
-51.3754406581
 10
104.6714470997
 20
-51.6290040989
 10
104.392520505
 20
-51.8748415779
 10
104.1067616005
 20
-52.1125100823
 10
103.8141250019
 20
-52.3420452691
 10
103.5147660506
 20
-52.5633569667
 10
103.2094383313
 20
-52.7758329779
 10
102.8982770833
 20
-52.9793960873
 10
102.5812561945
 20
-53.174104212
 10
102.2588903508
 20
-53.3595683684
 10
101.931106519
 20
-53.5358453343
 10
101.5980799653
 20
-53.7028840731
 10
101.2606992042
 20
-53.8601556703
 10
100.9191160226
 20
-54.0076238121
 10
100.573273061
 20
-54.14536855
 10
100.2237450736
 20
-54.273057759
 10
99.8704379196
 20
-54.3907613666
 10
99.5135278544
 20
-54.4984785121
 10
99.1539934073
 20
-54.5957931517
 10
98.7919709873
 20
-54.6827205234
 10
98.4273917322
 20
-54.7593510767
 10
98.0609230911
 20
-54.8254040865
 10
97.6924383203
 20
-54.8809539091
 10
97.3221144964
 20
-54.9260563368
 10
96.9510699995
 20
-54.9604247886
 10
96.5794845103
 20
-54.9841179901
 10
96.20720833
 20
-54.9972403961
 10
95.8348598928
 20
-54.9995941959
 10
95.4623276995
 20
-54.9912695595
 10
95.0897323121
 20
-54.9723578226
 10
94.7180335338
 20
-54.9426798901
 10
94.3471498261
 20
-54.902300563
 10
93.977148572
 20
-54.8513584424
 10
93.6092049129
 20
-54.7898027714
 10
93.2430760707
 20
-54.7176193952
 10
92.8789662965
 20
-54.6350431579
 10
92.5187126032
 20
-54.5424114499
 10
92.162412626
 20
-54.4397569003
 10
91.8099060868
 20
-54.327277277
 10
91.4626362034
 20
-54.2055633369
 10
91.1205429752
 20
-54.0745943413
 10
90.7836052564
 20
-53.9346124605
 10
90.4533218801
 20
-53.7865961031
 10
90.1300082701
 20
-53.6307312689
 10
89.8132573741
 20
-53.4670278642
 10
89.5034854976
 20
-53.2961860805
 10
89.2007048363
 20
-53.1183086544
 10
88.9048059053
 20
-52.9334593848
 10
88.6160255053
 20
-52.7422650469
 10
88.334425178
 20
-52.54489215
 10
88.0598438594
 20
-52.3413108251
 10
87.7921872302
 20
-52.1318410179
 10
87.5313242582
 20
-51.916503599
 10
87.2772828063
 20
-51.6953916303
 10
87.0302095264
 20
-51.4689228325
 10
86.7901358047
 20
-51.2372606842
 10
86.5569270656
 20
-51.0003293447
 10
86.3304823439
 20
-50.758179492
 10
86.1106324093
 20
-50.5107609747
 10
85.8974377139
 20
-50.2581952403
 10
85.6911427673
 20
-50.0007828114
 10
85.4917429991
 20
-49.7386507719
 10
85.2991347375
 20
-49.47171794
 10
85.1134143452
 20
-49.1999645151
 10
84.9344223686
 20
-48.9232903676
 10
84.7622035524
 20
-48.6418245066
 10
84.5971616242
 20
-48.3558814067
 10
84.4392723107
 20
-48.0655426315
 10
84.2884475141
 20
-47.7707262822
 10
84.1449972815
 20
-47.4714896684
 10
84.0087875794
 20
-47.1676842421
 10
83.8798353835
 20
-46.8594349439
 10
83.7586813943
 20
-46.54719445
 10
83.6452908954
 20
-46.230969402
 10
83.5395883013
 20
-45.9106933546
 10
83.4420606668
 20
-45.5866904064
 10
83.3526222896
 20
-45.2587612793
 10
83.2712508956
 20
-44.9270121245
 10
83.1985409216
 20
-44.5922031705
 10
83.1344791168
 20
-44.2542499798
 10
83.0789866948
 20
-43.9131008562
 10
83.0325786062
 20
-43.5695401686
 10
82.9952478227
 20
-43.223327477
 10
82.9669250778
 20
-42.8745270781
 10
82.9480577249
 20
-42.5243557747
 10
82.9386939424
 20
-42.1726795636
 10
82.9387390639
 20
-41.8194158999
 10
82.9484591748
 20
-41.4658372042
 10
82.9679216145
 20
-41.1117834579
 10
82.9970433922
 20
-40.7571678198
 10
83.0359007132
 20
-40.4033585077
 10
83.0845334374
 20
-40.0507219945
 10
83.1429237897
 20
-39.6986268295
 10
83.2110792811
 20
-39.3469387755
  0
LINE
  5
297
100
AcDbEntity
  8
0
100
AcDbLine
 62
253
  6
CONTINUOUS
 10
-4.0004162981
 20
138.963471523
 11
-22.8410866051
 21
145.6738472488
  0
ARC
  5
298
100
AcDbEntity
  8
RACCORDO
100
AcDbCircle
 62
7
  6
CONTINUOUS
 10
-20.0
 20
-117.9374796417
 40
17.0
100
AcDbArc
 50
78.2242560141
 51
258.2242560141
  0
ARC
  5
299
100
AcDbEntity
  8
RACCORDO
100
AcDbCircle
 62
7
  6
CONTINUOUS
 10
-95.9374796417
 20
-42.0
 40
17.0
100
AcDbArc
 50
191.7757439859
 51
270.6734491485
  0
ARC
  5
29A
100
AcDbEntity
  8
RACCORDO
100
AcDbCircle
 62
7
  6
CONTINUOUS
 10
-68.6895165896
 20
-69.476313154
 40
11.5
100
AcDbArc
 50
198.9191728499
 51
214.6511666165
  0
ARC
  5
29B
100
AcDbEntity
  8
RACCORDO
100
AcDbCircle
 62
7
  6
CONTINUOUS
 10
-68.6895165896
 20
-69.476313154
 40
11.5
100
AcDbArc
 50
34.6511666165
 51
121.8723062469
  0
ARC
  5
29C
100
AcDbEntity
  8
RACCORDO
100
AcDbCircle
 62
7
  6
CONTINUOUS
 10
-47.476313154
 20
-90.6895165896
 40
11.5
100
AcDbArc
 50
235.3488333835
 51
55.3488333835
  0
ARC
  5
29D
100
AcDbEntity
  8
0
100
AcDbCircle
 62
7
  6
CONTINUOUS
 10
-130.0
 20
-185.0
 40
10.0
100
AcDbArc
 50
160.3959118492
 51
340.3959118492
  0
ARC
  5
29E
100
AcDbEntity
  8
RACCORDO
100
AcDbCircle
 62
7
  6
CONTINUOUS
 10
-20.0
 20
73.9374796417
 40
17.0
100
AcDbArc
 50
227.017652506
 51
281.7757439859
  0
ARC
  5
29F
100
AcDbEntity
  8
RACCORDO
100
AcDbCircle
 62
7
  6
CONTINUOUS
 10
-95.9374796417
 20
-2.0
 40
17.0
100
AcDbArc
 50
348.2242560141
 51
168.2242560141
  0
ARC
  5
2A0
100
AcDbEntity
  8
RACCORDO
100
AcDbCircle
 62
7
  6
CONTINUOUS
 10
-47.476313154
 20
46.6895165896
 40
11.5
100
AcDbArc
 50
310.765989795
 51
10.0162015649
  0
ARC
  5
2A1
100
AcDbEntity
  8
RACCORDO
100
AcDbCircle
 62
7
  6
CONTINUOUS
 10
-68.6895165896
 20
25.476313154
 40
11.5
100
AcDbArc
 50
145.3488333835
 51
264.8098528137
  0
ARC
  5
2A2
100
AcDbEntity
  8
0
100
AcDbCircle
 62
7
  6
CONTINUOUS
 10
40.0
 20
-145.0
 40
50.0
100
AcDbArc
 50
180.0
 51
270.0
  0
ARC
  5
2A3
100
AcDbEntity
  8
0
100
AcDbCircle
 62
7
  6
CONTINUOUS
 10
40.0
 20
-145.0
 40
30.0
100
AcDbArc
 50
180.0
 51
270.0
  0
ARC
  5
2A4
100
AcDbEntity
  8
RACCORDO
100
AcDbCircle
 62
7
  6
CONTINUOUS
 10
20.0
 20
-117.9374796417
 40
17.0
100
AcDbArc
 50
281.7757439859
 51
101.7757439859
  0
ARC
  5
2A5
100
AcDbEntity
  8
RACCORDO
100
AcDbCircle
 62
7
  6
CONTINUOUS
 10
0.0
 20
-22.0
 40
142.0
100
AcDbArc
 50
276.4967772162
 51
94.4043645796
  0
ARC
  5
2A6
100
AcDbEntity
  8
RACCORDO
100
AcDbCircle
 62
7
  6
CONTINUOUS
 10
0.0
 20
-22.0
 40
142.0
100
AcDbArc
 50
103.6061013037
 51
217.1854608015
  0
ARC
  5
2A7
100
AcDbEntity
  8
RACCORDO
100
AcDbCircle
 62
7
  6
CONTINUOUS
 10
0.0
 20
-22.0
 40
142.0
100
AcDbArc
 50
226.3877946784
 51
267.4541927259
  0
ARC
  5
2A8
100
AcDbEntity
  8
RACCORDO
100
AcDbCircle
 62
253
  6
CONTINUOUS
 10
0.0
 20
-22.0
 40
141.0
100
AcDbArc
 50
276.2664163467
 51
94.5852177514
  0
ARC
  5
2A9
100
AcDbEntity
  8
RACCORDO
100
AcDbCircle
 62
253
  6
CONTINUOUS
 10
0.0
 20
-22.0
 40
141.0
100
AcDbArc
 50
103.8732467982
 51
216.9183159512
  0
ARC
  5
2AA
100
AcDbEntity
  8
RACCORDO
100
AcDbCircle
 62
253
  6
CONTINUOUS
 10
0.0
 20
-22.0
 40
141.0
100
AcDbArc
 50
226.2063280623
 51
267.2734069645
  0
ARC
  5
2AB
100
AcDbEntity
  8
RACCORDO
100
AcDbCircle
 62
253
  6
CONTINUOUS
 10
0.0
 20
-22.0
 40
137.4206294583
100
AcDbArc
 50
275.5738419713
 51
95.2578166455
  0
ARC
  5
2AC
100
AcDbEntity
  8
RACCORDO
100
AcDbCircle
 62
253
  6
CONTINUOUS
 10
0.0
 20
-22.0
 40
137.4206294583
100
AcDbArc
 50
104.8661379558
 51
215.9255258616
  0
ARC
  5
2AD
100
AcDbEntity
  8
RACCORDO
100
AcDbCircle
 62
253
  6
CONTINUOUS
 10
0.0
 20
-22.0
 40
137.4206294583
100
AcDbArc
 50
225.5343642753
 51
266.6860702613
  0
ARC
  5
2AE
100
AcDbEntity
  8
RACCORDO
100
AcDbCircle
 62
7
  6
CONTINUOUS
 10
0.0
 20
-22.0
 40
136.5
100
AcDbArc
 50
275.4275178911
 51
95.4364631731
  0
ARC
  5
2AF
100
AcDbEntity
  8
RACCORDO
100
AcDbCircle
 62
7
  6
CONTINUOUS
 10
0.0
 20
-22.0
 40
136.5
100
AcDbArc
 50
105.1318506287
 51
215.6602435949
  0
ARC
  5
2B0
100
AcDbEntity
  8
RACCORDO
100
AcDbCircle
 62
7
  6
CONTINUOUS
 10
0.0
 20
-22.0
 40
136.5
100
AcDbArc
 50
225.3550943864
 51
266.5512678633
  0
ARC
  5
2B1
100
AcDbEntity
  8
RACCORDO
100
AcDbCircle
 62
253
  6
CONTINUOUS
 10
0.0
 20
-22.0
 40
118.9128442573
100
AcDbArc
 50
274.8240819056
 51
99.4650073905
  0
ARC
  5
2B2
100
AcDbEntity
  8
RACCORDO
100
AcDbCircle
 62
253
  6
CONTINUOUS
 10
0.0
 20
-22.0
 40
118.9128442573
100
AcDbArc
 50
111.244953235
 51
209.5466963726
  0
ARC
  5
2B3
100
AcDbEntity
  8
RACCORDO
100
AcDbCircle
 62
253
  6
CONTINUOUS
 10
0.0
 20
-22.0
 40
118.9128442573
100
AcDbArc
 50
221.3268709967
 51
265.1759180939
  0
ARC
  5
2B4
100
AcDbEntity
  8
RACCORDO
100
AcDbCircle
 62
7
  6
CONTINUOUS
 10
0.0
 20
-22.0
 40
118.0
100
AcDbArc
 50
274.8614716654
 51
99.7120258454
  0
ARC
  5
2B5
100
AcDbEntity
  8
RACCORDO
100
AcDbCircle
 62
7
  6
CONTINUOUS
 10
0.0
 20
-22.0
 40
118.0
100
AcDbArc
 50
111.6292464342
 51
209.1632632668
  0
ARC
  5
2B6
100
AcDbEntity
  8
RACCORDO
100
AcDbCircle
 62
7
  6
CONTINUOUS
 10
0.0
 20
-22.0
 40
118.0
100
AcDbArc
 50
221.0794720969
 51
265.1385283346
  0
ARC
  5
2B7
100
AcDbEntity
  8
RACCORDO
100
AcDbCircle
 62
7
  6
CONTINUOUS
 10
-0.0
 20
-22.0
 40
115.0
100
AcDbArc
 50
78.2242560141
 51
100.555051436
  0
ARC
  5
2B8
100
AcDbEntity
  8
RACCORDO
100
AcDbCircle
 62
7
  6
CONTINUOUS
 10
0.0
 20
-22.0
 40
115.0
100
AcDbArc
 50
348.2242560141
 51
11.7757439859
  0
ARC
  5
2B9
100
AcDbEntity
  8
RACCORDO
100
AcDbCircle
 62
7
  6
CONTINUOUS
 10
0.0
 20
-22.0
 40
115.0
100
AcDbArc
 50
258.2242560141
 51
265.0113556215
  0
ARC
  5
2BA
100
AcDbEntity
  8
RACCORDO
100
AcDbCircle
 62
7
  6
CONTINUOUS
 10
0.0
 20
-22.0
 40
115.0
100
AcDbArc
 50
274.9886443784
 51
281.7757439859
  0
ARC
  5
2BB
100
AcDbEntity
  8
RACCORDO
100
AcDbCircle
 62
7
  6
CONTINUOUS
 10
0.0
 20
-22.0
 40
115.0
100
AcDbArc
 50
168.2242560141
 51
191.7757439859
  0
ARC
  5
2BC
100
AcDbEntity
  8
RACCORDO
100
AcDbCircle
 62
253
  6
CONTINUOUS
 10
0.0
 20
-22.0
 40
113.9128442573
100
AcDbArc
 50
258.2242560141
 51
264.9636068296
  0
ARC
  5
2BD
100
AcDbEntity
  8
RACCORDO
100
AcDbCircle
 62
253
  6
CONTINUOUS
 10
0.0
 20
-22.0
 40
113.9128442573
100
AcDbArc
 50
275.0363931676
 51
281.7757439859
  0
ARC
  5
2BE
100
AcDbEntity
  8
RACCORDO
100
AcDbCircle
 62
253
  6
CONTINUOUS
 10
0.0
 20
-22.0
 40
113.9128442573
100
AcDbArc
 50
348.2242560141
 51
11.7757439859
  0
ARC
  5
2BF
100
AcDbEntity
  8
RACCORDO
100
AcDbCircle
 62
253
  6
CONTINUOUS
 10
0.0
 20
-22.0
 40
113.9128442573
100
AcDbArc
 50
168.2242560141
 51
191.7757439859
  0
ARC
  5
2C0
100
AcDbEntity
  8
RACCORDO
100
AcDbCircle
 62
253
  6
CONTINUOUS
 10
0.0
 20
-22.0
 40
113.9128442573
100
AcDbArc
 50
78.2242560141
 51
100.8724966897
  0
ARC
  5
2C1
100
AcDbEntity
  8
RACCORDO
100
AcDbCircle
 62
253
  6
CONTINUOUS
 10
0.0
 20
-22.0
 40
112.0768772276
100
AcDbArc
 50
258.2242560141
 51
264.8808664798
  0
ARC
  5
2C2
100
AcDbEntity
  8
RACCORDO
100
AcDbCircle
 62
253
  6
CONTINUOUS
 10
0.0
 20
-22.0
 40
112.0768772276
100
AcDbArc
 50
275.1191335195
 51
281.7757439859
  0
ARC
  5
2C3
100
AcDbEntity
  8
RACCORDO
100
AcDbCircle
 62
253
  6
CONTINUOUS
 10
0.0
 20
-22.0
 40
112.0768772276
100
AcDbArc
 50
348.2242560141
 51
11.7757439859
  0
ARC
  5
2C4
100
AcDbEntity
  8
RACCORDO
100
AcDbCircle
 62
253
  6
CONTINUOUS
 10
0.0
 20
-22.0
 40
112.0768772276
100
AcDbArc
 50
168.2242560141
 51
191.7757439859
  0
ARC
  5
2C5
100
AcDbEntity
  8
RACCORDO
100
AcDbCircle
 62
253
  6
CONTINUOUS
 10
0.0
 20
-22.0
 40
112.0768772276
100
AcDbArc
 50
78.2242560141
 51
101.4272517161
  0
ARC
  5
2C6
100
AcDbEntity
  8
RACCORDO
100
AcDbCircle
 62
253
  6
CONTINUOUS
 10
0.0
 20
-22.0
 40
111.1654034356
100
AcDbArc
 50
168.2242560141
 51
191.7757439859
  0
ARC
  5
2C7
100
AcDbEntity
  8
RACCORDO
100
AcDbCircle
 62
253
  6
CONTINUOUS
 10
0.0
 20
-22.0
 40
111.1654034356
100
AcDbArc
 50
78.2242560141
 51
101.7096109142
  0
ARC
  5
2C8
100
AcDbEntity
  8
RACCORDO
100
AcDbCircle
 62
253
  6
CONTINUOUS
 10
0.0
 20
-22.0
 40
111.1654034356
100
AcDbArc
 50
348.2242560141
 51
11.7757439859
  0
ARC
  5
2C9
100
AcDbEntity
  8
RACCORDO
100
AcDbCircle
 62
253
  6
CONTINUOUS
 10
0.0
 20
-22.0
 40
111.1654034356
100
AcDbArc
 50
258.2242560141
 51
264.8387744608
  0
ARC
  5
2CA
100
AcDbEntity
  8
RACCORDO
100
AcDbCircle
 62
253
  6
CONTINUOUS
 10
0.0
 20
-22.0
 40
111.1654034356
100
AcDbArc
 50
275.1612255391
 51
281.7757439859
  0
ARC
  5
2CB
100
AcDbEntity
  8
DRAFT
100
AcDbCircle
 62
7
  6
CONTINUOUS
 10
0.0
 20
-22.0
 40
111.0
100
AcDbArc
 50
348.2242560141
 51
11.7757439859
  0
ARC
  5
2CC
100
AcDbEntity
  8
DRAFT
100
AcDbCircle
 62
7
  6
CONTINUOUS
 10
0.0
 20
-22.0
 40
111.0
100
AcDbArc
 50
275.1689299217
 51
281.7757439859
  0
ARC
  5
2CD
100
AcDbEntity
  8
DRAFT
100
AcDbCircle
 62
7
  6
CONTINUOUS
 10
0.0
 20
-22.0
 40
111.0
100
AcDbArc
 50
168.2242560141
 51
191.7757439859
  0
ARC
  5
2CE
100
AcDbEntity
  8
DRAFT
100
AcDbCircle
 62
7
  6
CONTINUOUS
 10
0.0
 20
-22.0
 40
111.0
100
AcDbArc
 50
78.2242560141
 51
101.7613411557
  0
ARC
  5
2CF
100
AcDbEntity
  8
DRAFT
100
AcDbCircle
 62
7
  6
CONTINUOUS
 10
0.0
 20
-22.0
 40
111.0
100
AcDbArc
 50
258.2242560141
 51
264.8310700783
  0
ARC
  5
2D0
100
AcDbEntity
  8
RACCORDO
100
AcDbCircle
 62
7
  6
CONTINUOUS
 10
-0.0
 20
-22.0
 40
95.0
100
AcDbArc
 50
125.351472254
 51
145.3488333835
  0
ARC
  5
2D1
100
AcDbEntity
  8
RACCORDO
100
AcDbCircle
 62
7
  6
CONTINUOUS
 10
0.0
 20
-22.0
 40
95.0
100
AcDbArc
 50
34.6511666165
 51
55.3488333835
  0
ARC
  5
2D2
100
AcDbEntity
  8
RACCORDO
100
AcDbCircle
 62
7
  6
CONTINUOUS
 10
0.0
 20
-22.0
 40
95.0
100
AcDbArc
 50
304.6511666165
 51
325.3488333835
  0
ARC
  5
2D3
100
AcDbEntity
  8
RACCORDO
100
AcDbCircle
 62
7
  6
CONTINUOUS
 10
0.0
 20
-22.0
 40
95.0
100
AcDbArc
 50
214.6511666165
 51
235.3488333835
  0
ARC
  5
2D4
100
AcDbEntity
  8
RACCORDO
100
AcDbCircle
 62
253
  6
CONTINUOUS
 10
0.0
 20
-22.0
 40
94.1302754058
100
AcDbArc
 50
304.6511666165
 51
325.3488333835
  0
ARC
  5
2D5
100
AcDbEntity
  8
RACCORDO
100
AcDbCircle
 62
253
  6
CONTINUOUS
 10
0.0
 20
-22.0
 40
94.1302754058
100
AcDbArc
 50
214.6511666165
 51
235.3488333835
  0
ARC
  5
2D6
100
AcDbEntity
  8
RACCORDO
100
AcDbCircle
 62
253
  6
CONTINUOUS
 10
0.0
 20
-22.0
 40
94.1302754058
100
AcDbArc
 50
126.1140723116
 51
145.3488333835
  0
ARC
  5
2D7
100
AcDbEntity
  8
RACCORDO
100
AcDbCircle
 62
253
  6
CONTINUOUS
 10
0.0
 20
-22.0
 40
94.1302754058
100
AcDbArc
 50
34.6511666165
 51
55.3488333835
  0
ARC
  5
2D8
100
AcDbEntity
  8
RACCORDO
100
AcDbCircle
 62
253
  6
CONTINUOUS
 10
0.0
 20
-22.0
 40
91.9036814598
100
AcDbArc
 50
304.6511666165
 51
325.3488333835
  0
ARC
  5
2D9
100
AcDbEntity
  8
RACCORDO
100
AcDbCircle
 62
253
  6
CONTINUOUS
 10
0.0
 20
-22.0
 40
91.9036814598
100
AcDbArc
 50
214.6511666165
 51
235.3488333835
  0
ARC
  5
2DA
100
AcDbEntity
  8
RACCORDO
100
AcDbCircle
 62
253
  6
CONTINUOUS
 10
0.0
 20
-22.0
 40
91.9036814598
100
AcDbArc
 50
128.2067579537
 51
145.3488333835
  0
ARC
  5
2DB
100
AcDbEntity
  8
RACCORDO
100
AcDbCircle
 62
253
  6
CONTINUOUS
 10
0.0
 20
-22.0
 40
91.9036814598
100
AcDbArc
 50
34.6511666165
 51
55.3488333835
  0
ARC
  5
2DC
100
AcDbEntity
  8
RACCORDO
100
AcDbCircle
 62
253
  6
CONTINUOUS
 10
0.0
 20
-22.0
 40
91.1745024262
100
AcDbArc
 50
214.6511666165
 51
235.3488333835
  0
ARC
  5
2DD
100
AcDbEntity
  8
RACCORDO
100
AcDbCircle
 62
253
  6
CONTINUOUS
 10
0.0
 20
-22.0
 40
91.1745024262
100
AcDbArc
 50
128.9421087186
 51
145.3488333835
  0
ARC
  5
2DE
100
AcDbEntity
  8
RACCORDO
100
AcDbCircle
 62
253
  6
CONTINUOUS
 10
0.0
 20
-22.0
 40
91.1745024262
100
AcDbArc
 50
34.6511666165
 51
55.3488333835
  0
ARC
  5
2DF
100
AcDbEntity
  8
RACCORDO
100
AcDbCircle
 62
253
  6
CONTINUOUS
 10
0.0
 20
-22.0
 40
91.1745024262
100
AcDbArc
 50
304.6511666165
 51
325.3488333835
  0
ARC
  5
2E0
100
AcDbEntity
  8
DRAFT
100
AcDbCircle
 62
7
  6
CONTINUOUS
 10
0.0
 20
-22.0
 40
91.0
100
AcDbArc
 50
304.6511666165
 51
325.3488333835
  0
ARC
  5
2E1
100
AcDbEntity
  8
DRAFT
100
AcDbCircle
 62
7
  6
CONTINUOUS
 10
0.0
 20
-22.0
 40
91.0
100
AcDbArc
 50
34.6511666165
 51
55.3488333835
  0
ARC
  5
2E2
100
AcDbEntity
  8
DRAFT
100
AcDbCircle
 62
7
  6
CONTINUOUS
 10
0.0
 20
-22.0
 40
91.0
100
AcDbArc
 50
214.6511666165
 51
235.3488333835
  0
ARC
  5
2E3
100
AcDbEntity
  8
DRAFT
100
AcDbCircle
 62
7
  6
CONTINUOUS
 10
0.0
 20
-22.0
 40
91.0
100
AcDbArc
 50
129.1224720014
 51
145.3488333835
  0
ARC
  5
2E4
100
AcDbEntity
  8
DRAFT
100
AcDbCircle
 62
7
  6
CONTINUOUS
 10
0.0
 20
-22.0
 40
85.0
100
AcDbArc
 50
348.2242560141
 51
11.7757439859
  0
ARC
  5
2E5
100
AcDbEntity
  8
DRAFT
100
AcDbCircle
 62
7
  6
CONTINUOUS
 10
0.0
 20
-22.0
 40
85.0
100
AcDbArc
 50
276.7564245245
 51
281.7757439859
  0
ARC
  5
2E6
100
AcDbEntity
  8
DRAFT
100
AcDbCircle
 62
7
  6
CONTINUOUS
 10
0.0
 20
-22.0
 40
85.0
100
AcDbArc
 50
168.2242560141
 51
184.1868058189
  0
ARC
  5
2E7
100
AcDbEntity
  8
DRAFT
100
AcDbCircle
 62
7
  6
CONTINUOUS
 10
0.0
 20
-22.0
 40
85.0
100
AcDbArc
 50
78.2242560141
 51
101.7757439859
  0
ARC
  5
2E8
100
AcDbEntity
  8
DRAFT
100
AcDbCircle
 62
7
  6
CONTINUOUS
 10
0.0
 20
-22.0
 40
85.0
100
AcDbArc
 50
258.2242560141
 51
263.2435754755
  0
ARC
  5
2E9
100
AcDbEntity
  8
RACCORDO
100
AcDbCircle
 62
253
  6
CONTINUOUS
 10
0.0
 20
-22.0
 40
84.8452222287
100
AcDbArc
 50
168.2242560141
 51
183.9518557447
  0
ARC
  5
2EA
100
AcDbEntity
  8
RACCORDO
100
AcDbCircle
 62
253
  6
CONTINUOUS
 10
0.0
 20
-22.0
 40
84.8452222287
100
AcDbArc
 50
78.2242560141
 51
101.7757439859
  0
ARC
  5
2EB
100
AcDbEntity
  8
RACCORDO
100
AcDbCircle
 62
253
  6
CONTINUOUS
 10
0.0
 20
-22.0
 40
84.8452222287
100
AcDbArc
 50
348.2242560141
 51
11.7757439859
  0
ARC
  5
2EC
100
AcDbEntity
  8
RACCORDO
100
AcDbCircle
 62
253
  6
CONTINUOUS
 10
0.0
 20
-22.0
 40
84.8452222287
100
AcDbArc
 50
276.7687978672
 51
281.7757439859
  0
ARC
  5
2ED
100
AcDbEntity
  8
RACCORDO
100
AcDbCircle
 62
253
  6
CONTINUOUS
 10
0.0
 20
-22.0
 40
84.8452222287
100
AcDbArc
 50
258.2242560141
 51
263.2312021327
  0
ARC
  5
2EE
100
AcDbEntity
  8
RACCORDO
100
AcDbCircle
 62
253
  6
CONTINUOUS
 10
0.0
 20
-22.0
 40
83.7594369512
100
AcDbArc
 50
276.8568840024
 51
281.7757439859
  0
ARC
  5
2EF
100
AcDbEntity
  8
RACCORDO
100
AcDbCircle
 62
253
  6
CONTINUOUS
 10
0.0
 20
-22.0
 40
83.7594369512
100
AcDbArc
 50
258.2242560141
 51
263.1431159979
  0
ARC
  5
2F0
100
AcDbEntity
  8
RACCORDO
100
AcDbCircle
 62
253
  6
CONTINUOUS
 10
0.0
 20
-22.0
 40
83.7594369512
100
AcDbArc
 50
348.2242560141
 51
11.7757439859
  0
ARC
  5
2F1
100
AcDbEntity
  8
RACCORDO
100
AcDbCircle
 62
253
  6
CONTINUOUS
 10
0.0
 20
-22.0
 40
83.7594369512
100
AcDbArc
 50
168.2242560141
 51
182.1824154086
  0
ARC
  5
2F2
100
AcDbEntity
  8
RACCORDO
100
AcDbCircle
 62
253
  6
CONTINUOUS
 10
0.0
 20
-22.0
 40
83.7594369512
100
AcDbArc
 50
78.2242560141
 51
101.7757439859
  0
ARC
  5
2F3
100
AcDbEntity
  8
RACCORDO
100
AcDbCircle
 62
253
  6
CONTINUOUS
 10
0.0
 20
-22.0
 40
81.9128442573
100
AcDbArc
 50
277.0123499453
 51
281.7757439859
  0
ARC
  5
2F4
100
AcDbEntity
  8
RACCORDO
100
AcDbCircle
 62
253
  6
CONTINUOUS
 10
0.0
 20
-22.0
 40
81.9128442573
100
AcDbArc
 50
258.2242560141
 51
262.9876500607
  0
ARC
  5
2F5
100
AcDbEntity
  8
RACCORDO
100
AcDbCircle
 62
253
  6
CONTINUOUS
 10
0.0
 20
-22.0
 40
81.9128442573
100
AcDbArc
 50
348.2242560141
 51
11.7757439859
  0
ARC
  5
2F6
100
AcDbEntity
  8
RACCORDO
100
AcDbCircle
 62
253
  6
CONTINUOUS
 10
0.0
 20
-22.0
 40
81.9128442573
100
AcDbArc
 50
168.2242560141
 51
178.6797898001
  0
ARC
  5
2F7
100
AcDbEntity
  8
RACCORDO
100
AcDbCircle
 62
253
  6
CONTINUOUS
 10
0.0
 20
-22.0
 40
81.9128442573
100
AcDbArc
 50
78.2242560141
 51
101.7757439859
  0
ARC
  5
2F8
100
AcDbEntity
  8
RACCORDO
100
AcDbCircle
 62
7
  6
CONTINUOUS
 10
-0.0
 20
-22.0
 40
81.0
100
AcDbArc
 50
78.2242560141
 51
101.7757439859
  0
ARC
  5
2F9
100
AcDbEntity
  8
RACCORDO
100
AcDbCircle
 62
7
  6
CONTINUOUS
 10
0.0
 20
-22.0
 40
81.0
100
AcDbArc
 50
348.2242560141
 51
11.7757439859
  0
ARC
  5
2FA
100
AcDbEntity
  8
RACCORDO
100
AcDbCircle
 62
7
  6
CONTINUOUS
 10
0.0
 20
-22.0
 40
81.0
100
AcDbArc
 50
277.0918340715
 51
281.7757439859
  0
ARC
  5
2FB
100
AcDbEntity
  8
RACCORDO
100
AcDbCircle
 62
7
  6
CONTINUOUS
 10
0.0
 20
-22.0
 40
81.0
100
AcDbArc
 50
258.2242560141
 51
262.9081659285
  0
ARC
  5
2FC
100
AcDbEntity
  8
RACCORDO
100
AcDbCircle
 62
7
  6
CONTINUOUS
 10
0.0
 20
-22.0
 40
81.0
100
AcDbArc
 50
168.2242560141
 51
176.611539339
  0
ARC
  5
2FD
100
AcDbEntity
  8
DRAFT
100
AcDbCircle
 62
7
  6
CONTINUOUS
 10
0.0
 20
-22.0
 40
76.0
100
AcDbArc
 50
304.6511666165
 51
325.3488333835
  0
ARC
  5
2FE
100
AcDbEntity
  8
DRAFT
100
AcDbCircle
 62
7
  6
CONTINUOUS
 10
0.0
 20
-22.0
 40
76.0
100
AcDbArc
 50
34.6511666165
 51
55.3488333835
  0
ARC
  5
2FF
100
AcDbEntity
  8
DRAFT
100
AcDbCircle
 62
7
  6
CONTINUOUS
 10
0.0
 20
-22.0
 40
76.0
100
AcDbArc
 50
214.6511666165
 51
235.3488333835
  0
ARC
  5
300
100
AcDbEntity
  8
RACCORDO
100
AcDbCircle
 62
253
  6
CONTINUOUS
 10
0.0
 20
-22.0
 40
75.8343831348
100
AcDbArc
 50
214.6511666165
 51
235.3488333835
  0
ARC
  5
301
100
AcDbEntity
  8
RACCORDO
100
AcDbCircle
 62
253
  6
CONTINUOUS
 10
0.0
 20
-22.0
 40
75.8343831348
100
AcDbArc
 50
34.6511666165
 51
55.3488333835
  0
ARC
  5
302
100
AcDbEntity
  8
RACCORDO
100
AcDbCircle
 62
253
  6
CONTINUOUS
 10
0.0
 20
-22.0
 40
75.8343831348
100
AcDbArc
 50
304.6511666165
 51
325.3488333835
  0
ARC
  5
303
100
AcDbEntity
  8
RACCORDO
100
AcDbCircle
 62
253
  6
CONTINUOUS
 10
0.0
 20
-22.0
 40
74.9657549128
100
AcDbArc
 50
304.6511666165
 51
325.3488333835
  0
ARC
  5
304
100
AcDbEntity
  8
RACCORDO
100
AcDbCircle
 62
253
  6
CONTINUOUS
 10
0.0
 20
-22.0
 40
74.9657549128
100
AcDbArc
 50
214.6511666165
 51
235.3488333835
  0
ARC
  5
305
100
AcDbEntity
  8
RACCORDO
100
AcDbCircle
 62
253
  6
CONTINUOUS
 10
0.0
 20
-22.0
 40
74.9657549128
100
AcDbArc
 50
34.6511666165
 51
55.3488333835
  0
ARC
  5
306
100
AcDbEntity
  8
RACCORDO
100
AcDbCircle
 62
253
  6
CONTINUOUS
 10
0.0
 20
-22.0
 40
72.7302754058
100
AcDbArc
 50
304.6511666165
 51
325.3488333835
  0
ARC
  5
307
100
AcDbEntity
  8
RACCORDO
100
AcDbCircle
 62
253
  6
CONTINUOUS
 10
0.0
 20
-22.0
 40
72.7302754058
100
AcDbArc
 50
214.6511666165
 51
235.3488333835
  0
ARC
  5
308
100
AcDbEntity
  8
RACCORDO
100
AcDbCircle
 62
253
  6
CONTINUOUS
 10
0.0
 20
-22.0
 40
72.7302754058
100
AcDbArc
 50
34.6511666165
 51
55.3488333835
  0
ARC
  5
309
100
AcDbEntity
  8
RACCORDO
100
AcDbCircle
 62
7
  6
CONTINUOUS
 10
0.0
 20
-22.0
 40
72.0
100
AcDbArc
 50
34.6511666165
 51
55.3488333835
  0
ARC
  5
30A
100
AcDbEntity
  8
RACCORDO
100
AcDbCircle
 62
7
  6
CONTINUOUS
 10
0.0
 20
-22.0
 40
72.0
100
AcDbArc
 50
304.6511666165
 51
325.3488333835
  0
ARC
  5
30B
100
AcDbEntity
  8
RACCORDO
100
AcDbCircle
 62
7
  6
CONTINUOUS
 10
0.0
 20
-22.0
 40
72.0
100
AcDbArc
 50
214.6511666165
 51
235.3488333835
  0
ARC
  5
30C
100
AcDbEntity
  8
0
100
AcDbCircle
 62
7
  6
CONTINUOUS
 10
0.0
 20
-22.0
 40
72.0
100
AcDbArc
 50
325.3488333835
 51
34.6511666165
  0
ARC
  5
30D
100
AcDbEntity
  8
0
100
AcDbCircle
 62
7
  6
CONTINUOUS
 10
0.0
 20
-22.0
 40
72.0
100
AcDbArc
 50
277.983651465
 51
304.6511666165
  0
ARC
  5
30E
100
AcDbEntity
  8
0
100
AcDbCircle
 62
7
  6
CONTINUOUS
 10
0.0
 20
-22.0
 40
72.0
100
AcDbArc
 50
235.3488333835
 51
262.016348535
  0
ARC
  5
30F
100
AcDbEntity
  8
0
100
AcDbCircle
 62
7
  6
CONTINUOUS
 10
0.0
 20
-22.0
 40
72.0
100
AcDbArc
 50
197.0288675641
 51
214.6511666165
  0
ARC
  5
310
100
AcDbEntity
  8
0
100
AcDbCircle
 62
7
  6
CONTINUOUS
 10
0.0
 20
-22.0
 40
72.0
100
AcDbArc
 50
55.3488333835
 51
123.7611810891
  0
ARC
  5
311
100
AcDbEntity
  8
ASSI
100
AcDbCircle
 62
7
  6
CONTINUOUS
 10
0.0
 20
-22.0
 40
15.0
100
AcDbArc
 50
311.8143840055
 51
228.1856159945
  0
ARC
  5
312
100
AcDbEntity
  8
ASSI
100
AcDbCircle
 62
7
  6
CONTINUOUS
 10
0.0
 20
-22.0
 40
10.0
100
AcDbArc
 50
359.368301233
 51
180.6316987666
  0
ARC
  5
313
100
AcDbEntity
  8
RACCORDO
100
AcDbCircle
 62
7
  6
CONTINUOUS
 10
47.476313154
 20
-90.6895165896
 40
11.5
100
AcDbArc
 50
124.6511666165
 51
304.6511666165
  0
ARC
  5
314
100
AcDbEntity
  8
0
100
AcDbCircle
 62
7
  6
CONTINUOUS
 10
130.0
 20
-185.0
 40
10.0
100
AcDbArc
 50
270.0
 51
90.0
  0
ARC
  5
315
100
AcDbEntity
  8
RACCORDO
100
AcDbCircle
 62
7
  6
CONTINUOUS
 10
95.9374796417
 20
-42.0
 40
17.0
100
AcDbArc
 50
168.2242560141
 51
348.2242560141
  0
ARC
  5
316
100
AcDbEntity
  8
RACCORDO
100
AcDbCircle
 62
7
  6
CONTINUOUS
 10
68.6895165896
 20
-69.476313154
 40
11.5
100
AcDbArc
 50
325.3488333835
 51
145.3488333835
  0
ARC
  5
317
100
AcDbEntity
  8
RACCORDO
100
AcDbCircle
 62
7
  6
CONTINUOUS
 10
20.0
 20
73.9374796417
 40
17.0
100
AcDbArc
 50
258.2242560141
 51
78.2242560141
  0
ARC
  5
318
100
AcDbEntity
  8
RACCORDO
100
AcDbCircle
 62
7
  6
CONTINUOUS
 10
95.9374796417
 20
-2.0
 40
17.0
100
AcDbArc
 50
11.7757439859
 51
191.7757439859
  0
ARC
  5
319
100
AcDbEntity
  8
RACCORDO
100
AcDbCircle
 62
7
  6
CONTINUOUS
 10
0.0
 20
180.0
 40
15.0
100
AcDbArc
 50
292.2145836367
 51
208.5776331017
  0
ARC
  5
31A
100
AcDbEntity
  8
RACCORDO
100
AcDbCircle
 62
253
  6
CONTINUOUS
 10
0.0
 20
180.0
 40
12.0
100
AcDbArc
 50
306.8546712128
 51
193.9414727592
  0
ARC
  5
31B
100
AcDbEntity
  8
RACCORDO
100
AcDbCircle
 62
7
  6
CONTINUOUS
 10
68.6895165896
 20
25.476313154
 40
11.5
100
AcDbArc
 50
214.6511666165
 51
34.6511666165
  0
ARC
  5
31C
100
AcDbEntity
  8
RACCORDO
100
AcDbCircle
 62
7
  6
CONTINUOUS
 10
47.476313154
 20
46.6895165896
 40
11.5
100
AcDbArc
 50
55.3488333835
 51
235.3488333835
  0
ARC
  5
31D
100
AcDbEntity
  8
0
100
AcDbCircle
 62
7
  6
CONTINUOUS
 10
0.0
 20
180.0
 40
10.0
100
AcDbArc
 50
340.3959118492
 51
160.3959118492
  0
ENDSEC
  0
SECTION
  2
OBJECTS
  0
DICTIONARY
  5
C
100
AcDbDictionary
280
0
281
1
  3
ACAD_GROUP
350
D
  3
ACAD_MLINESTYLE
350
17
  3
ACAD_LAYOUT
350
1A
  3
ACAD_PLOTSETTINGS
350
19
  3
ACAD_PLOTSTYLENAME
350
E
  0
DICTIONARY
  5
D
102
{ACAD_REACTORS
330
C
102
}
100
AcDbDictionary
280
0
281
1
  0
ACDBDICTIONARYWDFLT
  5
E
102
{ACAD_REACTORS
330
C
102
}
100
AcDbDictionary
281
1
  3
Normal
350
F
100
AcDbDictionaryWithDefault
340
F
  0
DICTIONARY
  5
17
102
{ACAD_REACTORS
330
C
102
}
100
AcDbDictionary
280
0
281
1
  3
Standard
350
18
  0
DICTIONARY
  5
19
102
{ACAD_REACTORS
330
C
102
}
100
AcDbDictionary
281
1
  0
DICTIONARY
  5
1A
102
{ACAD_REACTORS
330
C
102
}
100
AcDbDictionary
281
1
  3
Model
350
31E
  3
Layout1
350
31F
  0
ACDBPLACEHOLDER
  5
F
102
{ACAD_REACTORS
330
E
102
}
  0
MLINESTYLE
  5
18
102
{ACAD_REACTORS
330
17
102
}
100
AcDbMlineStyle
  2
STANDARD
 70
0
  3

 62
256
 51
90.0
 52
90.0
 71
2
 49
0.5
 62
256
  6
BYLAYER
 49
-0.5
 62
256
  6
BYLAYER
  0
LAYOUT
  5
31E
102
{ACAD_REACTORS
330
1A
102
}
100
AcDbPlotSettings
  1

  2
none_device
  4
ISO_A4_(297.00_x_210.00_MM)
  6

 40
0.0
 41
0.0
 42
0.0
 43
0.0
 44
297.0
 45
210.0
 46
0.0
 47
0.0
 48
0.0
 49
0.0
140
0.0
141
0.0
142
1.0
143
1.0
 70
1024
 72
1
 73
0
 74
0
  7

 75
0
147
1.0
148
0.0
149
0.0
100
AcDbLayout
  1
Model
 70
0
 71
0
 10
0.0
 20
0.0
 11
297.0
 21
210.0
 12
0.0
 22
0.0
 32
0.0
 14
0.0
 24
0.0
 34
0.0
 15
0.0
 25
0.0
 35
0.0
146
0.0
 13
0.0
 23
0.0
 33
0.0
 16
1.0
 26
0.0
 36
0.0
 17
0.0
 27
1.0
 37
0.0
 76
0
330
211
345
0
346
0
  0
LAYOUT
  5
31F
102
{ACAD_REACTORS
330
1A
102
}
100
AcDbPlotSettings
  1

  2
none_device
  4
ISO_A4_(297.00_x_210.00_MM)
  6

 40
0.0
 41
0.0
 42
0.0
 43
0.0
 44
297.0
 45
210.0
 46
0.0
 47
0.0
 48
0.0
 49
0.0
140
0.0
141
0.0
142
1.0
143
1.0
 70
0
 72
1
 73
0
 74
0
  7

 75
0
147
1.0
148
0.0
149
0.0
100
AcDbLayout
  1
Layout1
 70
0
 71
1
 10
0.0
 20
0.0
 11
297.0
 21
210.0
 12
0.0
 22
0.0
 32
0.0
 14
0.0
 24
0.0
 34
0.0
 15
0.0
 25
0.0
 35
0.0
146
0.0
 13
0.0
 23
0.0
 33
0.0
 16
1.0
 26
0.0
 36
0.0
 17
0.0
 27
1.0
 37
0.0
 76
0
330
212
345
0
346
0
  0
ENDSEC
  0
EOF
