  0
SECTION
  2
HEADER
  9
$ACADVER
  1
AC1024
  9
$DWGCODEPAGE
  3
ANSI_1252
  9
$EXTMAX
 10
420.0
 20
297.0
 30
0.0
  9
$EXTMIN
 10
0.0
 20
-0.0
 30
0.0
  9
$LIMMIN
 10
0.0
 20
-0.0
  9
$LIMMAX
 10
420.0
 20
297.0
  9
$VIEWCTR
 10
210.0
 20
148.5
  9
$VIEWSIZE
 40
297.0
  9
$CLAYER
  8
0
  9
$LTSCALE
 40
23.1
  9
$CELTYPE
  6
BYLAYER
  9
$DIMSCALE
 40
1.0
  9
$DIMASZ
 40
3.0
  9
$DIMEXO
 40
0.5
  9
$DIMDLI
 40
15.96
  9
$DIMEXE
 40
1.5
  9
$DIMCEN
 40
3.78
  9
$DIMLFAC
 40
1.0
  9
$DIMBLK
  1
_FILLED
  9
$DIMALT
 70
0
  9
$DIMALTF
 40
0.0393700787
  9
$DIMTXT
 40
3.0
  9
$DIMTOL
 70
1
  9
$DIMLIM
 70
0
  9
$DIMTFAC
 40
1.0
  9
$DIMTP
 40
0.01
  9
$DIMTM
 40
0.01
  9
$DIMGAP
 40
0.625
  9
$DIMDSEP
 70
44
  9
$AUNITS
 70
0
  9
$PDMODE
 70
3
  9
$PDSIZE
 40
3.0
  9
$HANDSEED
  5
45A
  9
$TILEMODE
 70
1
  9
$MEASUREMENT
 70
1
  9
$INSUNITS
 70
4
  0
ENDSEC
  0
SECTION
  2
CLASSES
  0
CLASS
  1
ACDBDICTIONARYWDFLT
  2
AcDbDictionaryWithDefault
  3
AutoCAD 2000
 90
0
 91
1
280
0
281
0
  0
CLASS
  1
ACDBPLACEHOLDER
  2
AcDbPlaceHolder
  3
AutoCAD 2000
 90
0
 91
1
280
0
281
0
  0
CLASS
  1
LAYOUT
  2
AcDbLayout
  3
AutoCAD 2000
 90
0
 91
0
280
0
281
0
  0
ENDSEC
  0
SECTION
  2
TABLES
  0
TABLE
  2
VPORT
  5
8
100
AcDbSymbolTable
 70
2
  0
VPORT
  5
1F4
100
AcDbSymbolTableRecord
100
AcDbViewportTableRecord
  2
*ACTIVE
 70
0
 10
0.0
 20
0.0
 11
1.0
 21
1.0
 12
210.0
 22
148.5
 13
0.0
 23
0.0
 14
1.0
 24
1.0
 15
0.0
 25
0.0
 16
0.0
 26
0.0
 36
1.0
 17
0.0
 27
0.0
 37
0.0
 40
297.0
 41
1.4141414141
 42
50.0
 43
0.0
 44
0.0
 50
0.0
 51
0.0
 71
0
 72
100
 73
1
 74
1
 75
0
 76
0
 77
0
 78
0
  0
ENDTAB
  0
TABLE
  2
LTYPE
  5
5
100
AcDbSymbolTable
 70
6
  0
LTYPE
  5
14
100
AcDbSymbolTableRecord
100
AcDbLinetypeTableRecord
  2
BYBLOCK
 70
0
  3

 72
65
 73
0
 40
0.0
  0
LTYPE
  5
15
100
AcDbSymbolTableRecord
100
AcDbLinetypeTableRecord
  2
BYLAYER
 70
0
  3

 72
65
 73
0
 40
0.0
  0
LTYPE
  5
16
100
AcDbSymbolTableRecord
100
AcDbLinetypeTableRecord
  2
CONTINUOUS
 70
64
  3
Solid line
 72
65
 73
0
 40
0.0
  0
LTYPE
  5
1F5
100
AcDbSymbolTableRecord
100
AcDbLinetypeTableRecord
  2
CENTER
 70
64
  3
____ _ ____ _ ____ _ ____ _ ____ _ ____ _ ____
 72
65
 73
4
 40
0.6
 49
0.375
 74
0
 49
-0.075
 74
0
 49
0.075
 74
0
 49
-0.075
 74
0
  0
LTYPE
  5
1F6
100
AcDbSymbolTableRecord
100
AcDbLinetypeTableRecord
  2
HIDDEN
 70
64
  3
- - - - - - - - - - - - - - - - - - - -
 72
65
 73
2
 40
0.2
 49
0.1
 74
0
 49
-0.1
 74
0
  0
LTYPE
  5
1F7
100
AcDbSymbolTableRecord
100
AcDbLinetypeTableRecord
  2
PHANTOM
 70
64
  3
_____ _ _ _____ _ _ _____ _ _ _____
 72
65
 73
6
 40
0.8
 49
0.45
 74
0
 49
-0.05
 74
0
 49
0.1
 74
0
 49
-0.05
 74
0
 49
0.1
 74
0
 49
-0.05
 74
0
  0
LTYPE
  5
1F8
100
AcDbSymbolTableRecord
100
AcDbLinetypeTableRecord
  2
DOT
 70
64
  3
. . . . . . . . . . . . . . . . . . . .
 72
65
 73
2
 40
0.2
 49
0.1
 74
0
 49
-0.1
 74
0
  0
LTYPE
  5
1F9
100
AcDbSymbolTableRecord
100
AcDbLinetypeTableRecord
  2
DASHED
 70
64
  3
- - - - - - - - - - - - - - - - - - - -
 72
65
 73
2
 40
0.2
 49
0.1
 74
0
 49
-0.1
 74
0
  0
ENDTAB
  0
TABLE
  2
LAYER
  5
2
100
AcDbSymbolTable
 70
36
  0
LAYER
  5
10
100
AcDbSymbolTableRecord
100
AcDbLayerTableRecord
  2
0
 70
0
 62
7
  6
CONTINUOUS
370
-3
390
F
  0
LAYER
  5
1FA
100
AcDbSymbolTableRecord
100
AcDbLayerTableRecord
  2
DEFAULT_1
 70
0
 62
7
  6
CENTER
370
-3
390
F
  0
LAYER
  5
1FB
100
AcDbSymbolTableRecord
100
AcDbLayerTableRecord
  2
DEFAULT_2
 70
0
 62
7
  6
HIDDEN
370
-3
390
F
  0
LAYER
  5
1FC
100
AcDbSymbolTableRecord
100
AcDbLayerTableRecord
  2
DEFAULT_3
 70
0
 62
7
  6
PHANTOM
370
-3
390
F
  0
LAYER
  5
1FD
100
AcDbSymbolTableRecord
100
AcDbLayerTableRecord
  2
10
 70
0
 62
7
  6
CONTINUOUS
370
-3
390
F
  0
LAYER
  5
1FE
100
AcDbSymbolTableRecord
100
AcDbLayerTableRecord
  2
11
 70
0
 62
7
  6
CONTINUOUS
370
-3
390
F
  0
LAYER
  5
1FF
100
AcDbSymbolTableRecord
100
AcDbLayerTableRecord
  2
11_1
 70
0
 62
7
  6
CONTINUOUS
370
-3
390
F
  0
LAYER
  5
200
100
AcDbSymbolTableRecord
100
AcDbLayerTableRecord
  2
11_2
 70
0
 62
7
  6
CONTINUOUS
370
-3
390
F
  0
LAYER
  5
201
100
AcDbSymbolTableRecord
100
AcDbLayerTableRecord
  2
11_3
 70
0
 62
7
  6
CONTINUOUS
370
-3
390
F
  0
LAYER
  5
202
100
AcDbSymbolTableRecord
100
AcDbLayerTableRecord
  2
11_4
 70
0
 62
7
  6
CONTINUOUS
370
-3
390
F
  0
LAYER
  5
203
100
AcDbSymbolTableRecord
100
AcDbLayerTableRecord
  2
11_5
 70
0
 62
7
  6
CONTINUOUS
370
-3
390
F
  0
LAYER
  5
204
100
AcDbSymbolTableRecord
100
AcDbLayerTableRecord
  2
11_6
 70
0
 62
7
  6
CONTINUOUS
370
-3
390
F
  0
LAYER
  5
205
100
AcDbSymbolTableRecord
100
AcDbLayerTableRecord
  2
12
 70
0
 62
7
  6
CONTINUOUS
370
-3
390
F
  0
LAYER
  5
206
100
AcDbSymbolTableRecord
100
AcDbLayerTableRecord
  2
12_1
 70
0
 62
7
  6
CONTINUOUS
370
-3
390
F
  0
LAYER
  5
207
100
AcDbSymbolTableRecord
100
AcDbLayerTableRecord
  2
12_2
 70
0
 62
7
  6
CONTINUOUS
370
-3
390
F
  0
LAYER
  5
208
100
AcDbSymbolTableRecord
100
AcDbLayerTableRecord
  2
12_3
 70
0
 62
7
  6
CONTINUOUS
370
-3
390
F
  0
LAYER
  5
209
100
AcDbSymbolTableRecord
100
AcDbLayerTableRecord
  2
12_4
 70
0
 62
7
  6
CONTINUOUS
370
-3
390
F
  0
LAYER
  5
20A
100
AcDbSymbolTableRecord
100
AcDbLayerTableRecord
  2
12_5
 70
0
 62
7
  6
CONTINUOUS
370
-3
390
F
  0
LAYER
  5
20B
100
AcDbSymbolTableRecord
100
AcDbLayerTableRecord
  2
2
 70
0
 62
7
  6
CONTINUOUS
370
-3
390
F
  0
LAYER
  5
20C
100
AcDbSymbolTableRecord
100
AcDbLayerTableRecord
  2
3
 70
0
 62
7
  6
CONTINUOUS
370
-3
390
F
  0
LAYER
  5
20D
100
AcDbSymbolTableRecord
100
AcDbLayerTableRecord
  2
4
 70
0
 62
7
  6
CONTINUOUS
370
-3
390
F
  0
LAYER
  5
20E
100
AcDbSymbolTableRecord
100
AcDbLayerTableRecord
  2
5
 70
0
 62
7
  6
CONTINUOUS
370
-3
390
F
  0
LAYER
  5
20F
100
AcDbSymbolTableRecord
100
AcDbLayerTableRecord
  2
6
 70
0
 62
7
  6
CONTINUOUS
370
-3
390
F
  0
LAYER
  5
210
100
AcDbSymbolTableRecord
100
AcDbLayerTableRecord
  2
7
 70
0
 62
7
  6
CONTINUOUS
370
-3
390
F
  0
LAYER
  5
211
100
AcDbSymbolTableRecord
100
AcDbLayerTableRecord
  2
8
 70
0
 62
7
  6
CONTINUOUS
370
-3
390
F
  0
LAYER
  5
212
100
AcDbSymbolTableRecord
100
AcDbLayerTableRecord
  2
9
 70
0
 62
7
  6
CONTINUOUS
370
-3
390
F
  0
LAYER
  5
213
100
AcDbSymbolTableRecord
100
AcDbLayerTableRecord
  2
ASSI
 70
0
 62
7
  6
CONTINUOUS
370
-3
390
F
  0
LAYER
  5
214
100
AcDbSymbolTableRecord
100
AcDbLayerTableRecord
  2
COLOR1
 70
0
 62
7
  6
CONTINUOUS
370
-3
390
F
  0
LAYER
  5
215
100
AcDbSymbolTableRecord
100
AcDbLayerTableRecord
  2
COLOR10
 70
0
 62
7
  6
CONTINUOUS
370
-3
390
F
  0
LAYER
  5
216
100
AcDbSymbolTableRecord
100
AcDbLayerTableRecord
  2
COLOR13
 70
0
 62
7
  6
CONTINUOUS
370
-3
390
F
  0
LAYER
  5
217
100
AcDbSymbolTableRecord
100
AcDbLayerTableRecord
  2
COLOR16
 70
0
 62
7
  6
CONTINUOUS
370
-3
390
F
  0
LAYER
  5
218
100
AcDbSymbolTableRecord
100
AcDbLayerTableRecord
  2
COLOR5
 70
0
 62
7
  6
CONTINUOUS
370
-3
390
F
  0
LAYER
  5
219
100
AcDbSymbolTableRecord
100
AcDbLayerTableRecord
  2
COORDINATE
 70
0
 62
7
  6
CONTINUOUS
370
-3
390
F
  0
LAYER
  5
21A
100
AcDbSymbolTableRecord
100
AcDbLayerTableRecord
  2
COPY_PUBLISH
 70
0
 62
7
  6
CONTINUOUS
370
-3
390
F
  0
LAYER
  5
21B
100
AcDbSymbolTableRecord
100
AcDbLayerTableRecord
  2
COSMETICI
 70
0
 62
7
  6
CONTINUOUS
370
-3
390
F
  0
LAYER
  5
21C
100
AcDbSymbolTableRecord
100
AcDbLayerTableRecord
  2
CURVE
 70
0
 62
7
  6
CONTINUOUS
370
-3
390
F
  0
LAYER
  5
21D
100
AcDbSymbolTableRecord
100
AcDbLayerTableRecord
  2
DRAFT
 70
0
 62
7
  6
CONTINUOUS
370
-3
390
F
  0
LAYER
  5
21E
100
AcDbSymbolTableRecord
100
AcDbLayerTableRecord
  2
IMPORT_IGES
 70
0
 62
7
  6
CONTINUOUS
370
-3
390
F
  0
LAYER
  5
21F
100
AcDbSymbolTableRecord
100
AcDbLayerTableRecord
  2
INTF_10
 70
0
 62
7
  6
CONTINUOUS
370
-3
390
F
  0
LAYER
  5
220
100
AcDbSymbolTableRecord
100
AcDbLayerTableRecord
  2
INTF_11
 70
0
 62
7
  6
CONTINUOUS
370
-3
390
F
  0
LAYER
  5
221
100
AcDbSymbolTableRecord
100
AcDbLayerTableRecord
  2
INTF_12
 70
0
 62
7
  6
CONTINUOUS
370
-3
390
F
  0
LAYER
  5
222
100
AcDbSymbolTableRecord
100
AcDbLayerTableRecord
  2
INTF_2
 70
0
 62
7
  6
CONTINUOUS
370
-3
390
F
  0
LAYER
  5
223
100
AcDbSymbolTableRecord
100
AcDbLayerTableRecord
  2
INTF_3
 70
0
 62
7
  6
CONTINUOUS
370
-3
390
F
  0
LAYER
  5
224
100
AcDbSymbolTableRecord
100
AcDbLayerTableRecord
  2
INTF_4
 70
0
 62
7
  6
CONTINUOUS
370
-3
390
F
  0
LAYER
  5
225
100
AcDbSymbolTableRecord
100
AcDbLayerTableRecord
  2
INTF_5
 70
0
 62
7
  6
CONTINUOUS
370
-3
390
F
  0
LAYER
  5
226
100
AcDbSymbolTableRecord
100
AcDbLayerTableRecord
  2
INTF_6
 70
0
 62
7
  6
CONTINUOUS
370
-3
390
F
  0
LAYER
  5
227
100
AcDbSymbolTableRecord
100
AcDbLayerTableRecord
  2
INTF_7
 70
0
 62
7
  6
CONTINUOUS
370
-3
390
F
  0
LAYER
  5
228
100
AcDbSymbolTableRecord
100
AcDbLayerTableRecord
  2
INTF_8
 70
0
 62
7
  6
CONTINUOUS
370
-3
390
F
  0
LAYER
  5
229
100
AcDbSymbolTableRecord
100
AcDbLayerTableRecord
  2
INTF_9
 70
0
 62
7
  6
CONTINUOUS
370
-3
390
F
  0
LAYER
  5
22A
100
AcDbSymbolTableRecord
100
AcDbLayerTableRecord
  2
INTF_YELLOW
 70
0
 62
7
  6
CONTINUOUS
370
-3
390
F
  0
LAYER
  5
22B
100
AcDbSymbolTableRecord
100
AcDbLayerTableRecord
  2
NOTE
 70
0
 62
7
  6
CONTINUOUS
370
-3
390
F
  0
LAYER
  5
22C
100
AcDbSymbolTableRecord
100
AcDbLayerTableRecord
  2
PALE_STEEL
 70
0
 62
7
  6
CONTINUOUS
370
-3
390
F
  0
LAYER
  5
22D
100
AcDbSymbolTableRecord
100
AcDbLayerTableRecord
  2
PIANI
 70
0
 62
7
  6
CONTINUOUS
370
-3
390
F
  0
LAYER
  5
22E
100
AcDbSymbolTableRecord
100
AcDbLayerTableRecord
  2
PUNTI
 70
0
 62
7
  6
CONTINUOUS
370
-3
390
F
  0
LAYER
  5
22F
100
AcDbSymbolTableRecord
100
AcDbLayerTableRecord
  2
RACCORDO
 70
0
 62
7
  6
CONTINUOUS
370
-3
390
F
  0
LAYER
  5
230
100
AcDbSymbolTableRecord
100
AcDbLayerTableRecord
  2
SIMBOLI
 70
0
 62
7
  6
CONTINUOUS
370
-3
390
F
  0
LAYER
  5
231
100
AcDbSymbolTableRecord
100
AcDbLayerTableRecord
  2
SMUSSO
 70
0
 62
7
  6
CONTINUOUS
370
-3
390
F
  0
LAYER
  5
232
100
AcDbSymbolTableRecord
100
AcDbLayerTableRecord
  2
SNAPLINE
 70
0
 62
7
  6
CONTINUOUS
370
-3
390
F
  0
LAYER
  5
233
100
AcDbSymbolTableRecord
100
AcDbLayerTableRecord
  2
SUPERFICI
 70
0
 62
7
  6
CONTINUOUS
370
-3
390
F
  0
LAYER
  5
234
100
AcDbSymbolTableRecord
100
AcDbLayerTableRecord
  2
TRASH
 70
0
 62
7
  6
CONTINUOUS
370
-3
390
F
  0
LAYER
  5
235
100
AcDbSymbolTableRecord
100
AcDbLayerTableRecord
  2
VIMAR-IS-02KU3_1_1
 70
0
 62
7
  6
CONTINUOUS
370
-3
390
F
  0
LAYER
  5
236
100
AcDbSymbolTableRecord
100
AcDbLayerTableRecord
  2
VIMAR-IS-02KU3_1_1_10
 70
0
 62
7
  6
CONTINUOUS
370
-3
390
F
  0
LAYER
  5
237
100
AcDbSymbolTableRecord
100
AcDbLayerTableRecord
  2
VIMAR-IS-02KU3_1_1_11
 70
0
 62
7
  6
CONTINUOUS
370
-3
390
F
  0
LAYER
  5
238
100
AcDbSymbolTableRecord
100
AcDbLayerTableRecord
  2
VIMAR-IS-02KU3_1_1_2
 70
0
 62
7
  6
CONTINUOUS
370
-3
390
F
  0
LAYER
  5
239
100
AcDbSymbolTableRecord
100
AcDbLayerTableRecord
  2
VIMAR-IS-02KU3_1_1_41
 70
0
 62
7
  6
CONTINUOUS
370
-3
390
F
  0
LAYER
  5
23A
100
AcDbSymbolTableRecord
100
AcDbLayerTableRecord
  2
VIMAR-IS-02KU3_1_1_42
 70
0
 62
7
  6
CONTINUOUS
370
-3
390
F
  0
LAYER
  5
23B
100
AcDbSymbolTableRecord
100
AcDbLayerTableRecord
  2
VIMAR-IS-02KU3_1_1_43
 70
0
 62
7
  6
CONTINUOUS
370
-3
390
F
  0
LAYER
  5
23C
100
AcDbSymbolTableRecord
100
AcDbLayerTableRecord
  2
VIMAR-IS-02KU3_1_1_44
 70
0
 62
7
  6
CONTINUOUS
370
-3
390
F
  0
LAYER
  5
23D
100
AcDbSymbolTableRecord
100
AcDbLayerTableRecord
  2
VIMAR-IS-02KU3_1_1_45
 70
0
 62
7
  6
CONTINUOUS
370
-3
390
F
  0
LAYER
  5
23E
100
AcDbSymbolTableRecord
100
AcDbLayerTableRecord
  2
VIMAR-IS-02KU3_1_1_7
 70
0
 62
7
  6
CONTINUOUS
370
-3
390
F
  0
LAYER
  5
23F
100
AcDbSymbolTableRecord
100
AcDbLayerTableRecord
  2
VIMAR-IS-02KU3_1_1_8
 70
0
 62
7
  6
CONTINUOUS
370
-3
390
F
  0
LAYER
  5
240
100
AcDbSymbolTableRecord
100
AcDbLayerTableRecord
  2
VIMAR-IS-02KU3_1_1_9
 70
0
 62
7
  6
CONTINUOUS
370
-3
390
F
  0
LAYER
  5
241
100
AcDbSymbolTableRecord
100
AcDbLayerTableRecord
  2
___SHELL
 70
0
 62
7
  6
CONTINUOUS
370
-3
390
F
  0
ENDTAB
  0
TABLE
  2
STYLE
  5
3
100
AcDbSymbolTable
 70
1
  0
STYLE
  5
11
100
AcDbSymbolTableRecord
100
AcDbTextStyleTableRecord
  2
STANDARD
 70
0
 40
0.0
 41
0.8
 50
0.0
 71
0
 42
0.2
  3
txt
  4

  0
STYLE
  5
242
100
AcDbSymbolTableRecord
100
AcDbTextStyleTableRecord
  2
TEXTSTYLE_1
 70
0
 40
0.0
 41
0.8
 50
0.0
 71
0
 42
0.2
  3
gdt
  4

  0
ENDTAB
  0
TABLE
  2
VIEW
  5
6
100
AcDbSymbolTable
 70
0
  0
ENDTAB
  0
TABLE
  2
UCS
  5
7
100
AcDbSymbolTable
 70
0
  0
ENDTAB
  0
TABLE
  2
APPID
  5
9
100
AcDbSymbolTable
 70
1
  0
APPID
  5
243
100
AcDbSymbolTableRecord
100
AcDbRegAppTableRecord
  2
ACAD
 70
0
  0
ENDTAB
  0
TABLE
  2
BLOCK_RECORD
  5
1
100
AcDbSymbolTable
 70
0
  0
BLOCK_RECORD
  5
244
100
AcDbSymbolTableRecord
100
AcDbBlockTableRecord
  2
*Model_Space
  0
BLOCK_RECORD
  5
245
100
AcDbSymbolTableRecord
100
AcDbBlockTableRecord
  2
*Paper_Space
  0
BLOCK_RECORD
  5
246
100
AcDbSymbolTableRecord
100
AcDbBlockTableRecord
  2
_FILLED
  0
ENDTAB
  0
TABLE
  2
DIMSTYLE
  5
A
100
AcDbSymbolTable
 70
1
100
AcDbDimStyleTable
 71
0
  0
DIMSTYLE
105
247
100
AcDbSymbolTableRecord
100
AcDbDimStyleTableRecord
  2
STANDARD
 70
0
  3

  4

 40
1.0
 41
3.0
 42
0.5
 43
0.38
 44
1.5
 45
0.0
 46
0.0
 47
0.01
 48
0.01
140
3.0
141
0.09
142
0.0
143
25.4
144
1.0
145
0.0
146
1.0
147
0.625
 71
1
 72
0
 73
0
 74
0
 75
0
 76
0
 77
1
 78
8
 79
2
170
0
171
1
172
0
173
0
174
0
175
0
176
0
177
0
178
0
270
2
179
2
271
2
272
2
273
2
274
2
275
0
280
0
281
0
282
0
283
1
284
8
285
0
286
0
287
3
288
0
340
11
278
44
341
246
342
246
343
246
344
246
  0
ENDTAB
  0
ENDSEC
  0
SECTION
  2
BLOCKS
  0
BLOCK
  5
20
100
AcDbEntity
  8
0
100
AcDbBlockBegin
  2
*Model_Space
 70
0
 10
0.0
 20
0.0
 30
0.0
  3
*Model_Space
  1

  0
ENDBLK
  5
21
100
AcDbEntity
  8
0
100
AcDbBlockEnd
  0
BLOCK
  5
1C
100
AcDbEntity
  8
0
100
AcDbBlockBegin
  2
*Paper_Space
 70
0
 10
0.0
 20
0.0
 30
0.0
  3
*Paper_Space
  1

  0
ENDBLK
  5
1D
100
AcDbEntity
  8
0
100
AcDbBlockEnd
  0
BLOCK
  5
248
100
AcDbEntity
  8
0
100
AcDbBlockBegin
  2
_FILLED
 70
64
 10
0.0
 20
0.0
  3
_FILLED
  1

  0
SOLID
  5
249
100
AcDbEntity
  8
0
  6
BYBLOCK
 62
0
100
AcDbTrace
 10
0.0
 20
0.0
 11
-1.0
 21
0.3166666667
 12
-1.0
 22
-0.3166666667
 13
-1.0
 23
-0.3166666667
  0
ENDBLK
  5
24A
100
AcDbEntity
  8
0
  6
BYBLOCK
 62
0
100
AcDbBlockEnd
  0
ENDSEC
  0
SECTION
  2
ENTITIES
  0
LINE
  5
24B
100
AcDbEntity
  8
IMPORT_IGES
100
AcDbLine
 62
7
  6
CONTINUOUS
 10
69.4221908151
 20
134.3464560751
 11
69.4221908151
 21
136.2364854139
  0
LINE
  5
24C
100
AcDbEntity
  8
IMPORT_IGES
100
AcDbLine
 62
7
  6
CONTINUOUS
 10
69.4221908151
 20
137.3364854139
 11
69.4221908151
 21
139.2265147421
  0
LINE
  5
24D
100
AcDbEntity
  8
IMPORT_IGES
100
AcDbLine
 62
7
  6
CONTINUOUS
 10
69.4221908151
 20
175.3464560454
 11
69.4221908151
 21
177.2364853843
  0
LINE
  5
24E
100
AcDbEntity
  8
IMPORT_IGES
100
AcDbLine
 62
7
  6
CONTINUOUS
 10
69.4221908151
 20
178.3364853843
 11
69.4221908151
 21
180.2265147124
  0
LINE
  5
24F
100
AcDbEntity
  8
IMPORT_IGES
100
AcDbLine
 62
250
  6
CONTINUOUS
 10
69.474177299
 20
128.2859182562
 11
69.4741769895
 21
130.411708339
  0
LINE
  5
250
100
AcDbEntity
  8
IMPORT_IGES
100
AcDbLine
 62
250
  6
CONTINUOUS
 10
69.4742337594
 20
184.1612637407
 11
69.4742339507
 21
186.2870525388
  0
LINE
  5
251
100
AcDbEntity
  8
IMPORT_IGES
100
AcDbLine
 62
7
  6
CONTINUOUS
 10
70.5110434222
 20
134.3464560857
 11
70.5110434222
 21
136.2364854139
  0
LINE
  5
252
100
AcDbEntity
  8
IMPORT_IGES
100
AcDbLine
 62
7
  6
CONTINUOUS
 10
70.5110434222
 20
137.3364854139
 11
70.5110434222
 21
139.2265147528
  0
LINE
  5
253
100
AcDbEntity
  8
IMPORT_IGES
100
AcDbLine
 62
7
  6
CONTINUOUS
 10
70.5110434222
 20
175.3464560561
 11
70.5110434222
 21
177.2364853843
  0
LINE
  5
254
100
AcDbEntity
  8
IMPORT_IGES
100
AcDbLine
 62
7
  6
CONTINUOUS
 10
70.5110434222
 20
178.3364853843
 11
70.5110434222
 21
180.2265147231
  0
LINE
  5
255
100
AcDbEntity
  8
IMPORT_IGES
100
AcDbLine
 62
7
  6
CONTINUOUS
 10
75.762303433
 20
145.8652507847
 11
75.762303433
 21
152.0670427847
  0
LINE
  5
256
100
AcDbEntity
  8
IMPORT_IGES
100
AcDbLine
 62
7
  6
CONTINUOUS
 10
77.272486933
 20
152.0670427847
 11
77.272486933
 21
145.8652507847
  0
LINE
  5
257
100
AcDbEntity
  8
IMPORT_IGES
100
AcDbLine
 62
7
  6
CONTINUOUS
 10
78.6096795785
 20
163.9426194147
 11
78.6096795785
 21
165.7288626147
  0
LINE
  5
258
100
AcDbEntity
  8
IMPORT_IGES
100
AcDbLine
 62
7
  6
CONTINUOUS
 10
79.5250161101
 20
149.7375410969
 11
79.5250161101
 21
150.1342046958
  0
LINE
  5
259
100
AcDbEntity
  8
IMPORT_IGES
100
AcDbLine
 62
7
  6
CONTINUOUS
 10
79.5276795785
 20
165.7288631302
 11
79.5276795785
 21
163.9426194147
  0
LINE
  5
25A
100
AcDbEntity
  8
IMPORT_IGES
100
AcDbLine
 62
7
  6
CONTINUOUS
 10
79.8470810708
 20
148.229698633
 11
79.8470810708
 21
149.7375410969
  0
LINE
  5
25B
100
AcDbEntity
  8
IMPORT_IGES
100
AcDbLine
 62
7
  6
CONTINUOUS
 10
80.0611196518
 20
148.2968014104
 11
80.0611196517
 21
150.0243764429
  0
LWPOLYLINE
  5
25C
100
AcDbEntity
  8
IMPORT_IGES
100
AcDbPolyline
 62
7
  6
CONTINUOUS
 90
10
 70
0
 10
85.6755768252
 20
149.2931610656
 10
85.6716351248
 20
149.3493230293
 10
85.6670819179
 20
149.4046636662
 10
85.6619172044
 20
149.4591829765
 10
85.6561529813
 20
149.5128987028
 10
85.6497772516
 20
149.5657931025
 10
85.6427540248
 20
149.6178129468
 10
85.6350713039
 20
149.6689404929
 10
85.6267410858
 20
149.7191934838
 10
85.6177633705
 20
149.7685719192
  0
LINE
  5
25D
100
AcDbEntity
  8
IMPORT_IGES
100
AcDbLine
 62
7
  6
CONTINUOUS
 10
83.334516433
 20
148.1952411484
 11
83.334516433
 21
149.3288737847
  0
LINE
  5
25E
100
AcDbEntity
  8
IMPORT_IGES
100
AcDbLine
 62
7
  6
CONTINUOUS
 10
83.7537816403
 20
146.7742392639
 11
83.7537816403
 21
147.2617695306
  0
LINE
  5
25F
100
AcDbEntity
  8
IMPORT_IGES
100
AcDbLine
 62
7
  6
CONTINUOUS
 10
83.762628433
 20
149.3288737847
 11
83.762628433
 21
148.0177612847
  0
LINE
  5
260
100
AcDbEntity
  8
IMPORT_IGES
100
AcDbLine
 62
7
  6
CONTINUOUS
 10
83.946253933
 20
146.9615722847
 11
83.946253933
 21
147.2438587847
  0
LINE
  5
261
100
AcDbEntity
  8
IMPORT_IGES
100
AcDbLine
 62
7
  6
CONTINUOUS
 10
84.500122933
 20
147.4072387847
 11
84.500122933
 21
147.5005657847
  0
LINE
  5
262
100
AcDbEntity
  8
IMPORT_IGES
100
AcDbLine
 62
7
  6
CONTINUOUS
 10
84.5001414622
 20
147.1922194035
 11
84.5001414622
 21
147.0497647256
  0
LINE
  5
263
100
AcDbEntity
  8
IMPORT_IGES
100
AcDbLine
 62
7
  6
CONTINUOUS
 10
84.823900933
 20
150.4340632847
 11
84.823900933
 21
147.3770737847
  0
LINE
  5
264
100
AcDbEntity
  8
IMPORT_IGES
100
AcDbLine
 62
7
  6
CONTINUOUS
 10
84.8327661617
 20
150.6496699848
 11
84.8327661617
 21
150.9075360006
  0
LINE
  5
265
100
AcDbEntity
  8
IMPORT_IGES
100
AcDbLine
 62
7
  6
CONTINUOUS
 10
85.0468221626
 20
150.9075360006
 11
85.0468221626
 21
150.6806545823
  0
LINE
  5
266
100
AcDbEntity
  8
IMPORT_IGES
100
AcDbLine
 62
7
  6
CONTINUOUS
 10
85.0468221626
 20
147.3854760176
 11
85.0468221626
 21
149.872878648
  0
LINE
  5
267
100
AcDbEntity
  8
IMPORT_IGES
100
AcDbLine
 62
7
  6
CONTINUOUS
 10
85.2341037434
 20
149.2931610656
 11
85.2341037434
 21
148.2407375702
  0
LINE
  5
268
100
AcDbEntity
  8
IMPORT_IGES
100
AcDbLine
 62
7
  6
CONTINUOUS
 10
85.6177633705
 20
150.2386469265
 11
85.6177633705
 21
149.7685719192
  0
LINE
  5
269
100
AcDbEntity
  8
IMPORT_IGES
100
AcDbLine
 62
7
  6
CONTINUOUS
 10
85.7603421654
 20
149.2931610656
 11
85.7603421654
 21
148.2407375702
  0
LWPOLYLINE
  5
26A
100
AcDbEntity
  8
IMPORT_IGES
100
AcDbPolyline
 62
7
  6
CONTINUOUS
 90
25
 70
0
 10
85.4338895619
 20
148.2407462802
 10
85.4265406048
 20
148.1873566538
 10
85.4185772123
 20
148.1353598613
 10
85.4099993844
 20
148.0847559026
 10
85.4008217956
 20
148.0355267045
 10
85.3910297714
 20
147.9876903402
 10
85.3805792885
 20
147.9413010299
 10
85.3695523432
 20
147.8964732793
 10
85.3578669392
 20
147.8530925827
 10
85.3452330648
 20
147.8108696432
 10
85.3315902536
 20
147.7696681896
 10
85.3169989719
 20
147.7296244932
 10
85.3013506071
 20
147.6908580706
 10
85.284569976
 20
147.6531257392
 10
85.2667322617
 20
147.6166706818
 10
85.2479544014
 20
147.5823419637
 10
85.228188872
 20
147.5502552516
 10
85.2074831967
 20
147.5202948789
 10
85.1860968819
 20
147.4929629114
 10
85.1640120751
 20
147.4684154352
 10
85.1412466288
 20
147.4464963641
 10
85.1181136079
 20
147.4272395061
 10
85.0947173674
 20
147.4106561303
 10
85.0709535523
 20
147.3967349674
 10
85.0468221626
 20
147.3854760176
  0
LWPOLYLINE
  5
26B
100
AcDbEntity
  8
IMPORT_IGES
100
AcDbPolyline
 62
7
  6
CONTINUOUS
 90
10
 70
0
 10
85.3724015925
 20
149.872878648
 10
85.3856649419
 20
149.8139415332
 10
85.3979158799
 20
149.7536075196
 10
85.4091544066
 20
149.6918766073
 10
85.4193406877
 20
149.6287115811
 10
85.4285145574
 20
149.5641496562
 10
85.4367955188
 20
149.4983024776
 10
85.4442234062
 20
149.4312072606
 10
85.4507583853
 20
149.3628267899
 10
85.4564004561
 20
149.2931610656
  0
LWPOLYLINE
  5
26C
100
AcDbEntity
  8
IMPORT_IGES
100
AcDbPolyline
 62
7
  6
CONTINUOUS
 90
25
 70
0
 10
85.4762907407
 20
150.2386469265
 10
85.4594993257
 20
150.2739721259
 10
85.4425275986
 20
150.3074124988
 10
85.4253755594
 20
150.3389680451
 10
85.4080338753
 20
150.3685347464
 10
85.390511879
 20
150.3962166211
 10
85.3728375692
 20
150.4223257246
 10
85.3550186346
 20
150.446879316
 10
85.3370473865
 20
150.4698601362
 10
85.3189287579
 20
150.4915284631
 10
85.3006640383
 20
150.5119112754
 10
85.2822519382
 20
150.5309815945
 10
85.2636935221
 20
150.5489187624
 10
85.2449258088
 20
150.565778567
 10
85.2260117797
 20
150.5815052205
 10
85.2071414425
 20
150.5961107015
 10
85.1883139786
 20
150.6095667465
 10
85.1695302067
 20
150.6219016191
 10
85.1509825909
 20
150.633212089
 10
85.1326693209
 20
150.6434971318
 10
85.114592207
 20
150.652757772
 10
85.0969491446
 20
150.6610938528
 10
85.079806099
 20
150.6685386554
 10
85.063097105
 20
150.6750588985
 10
85.0468221626
 20
150.6806545823
  0
LINE
  5
26D
100
AcDbEntity
  8
IMPORT_IGES
100
AcDbLine
 62
7
  6
CONTINUOUS
 10
78.7947965968
 20
145.7414662554
 11
78.9324731103
 21
145.5963966854
  0
LINE
  5
26E
100
AcDbEntity
  8
IMPORT_IGES
100
AcDbLine
 62
7
  6
CONTINUOUS
 10
80.0693101314
 20
147.0716945469
 11
80.1249866089
 21
147.0044997665
  0
LINE
  5
26F
100
AcDbEntity
  8
IMPORT_IGES
100
AcDbLine
 62
7
  6
CONTINUOUS
 10
78.9123520116
 20
152.540836592
 11
78.7721718441
 21
152.398184846
  0
LINE
  5
270
100
AcDbEntity
  8
IMPORT_IGES
100
AcDbLine
 62
7
  6
CONTINUOUS
 10
82.3711724048
 20
148.8615140353
 11
83.7830491396
 21
147.4740601831
  0
LINE
  5
271
100
AcDbEntity
  8
IMPORT_IGES
100
AcDbLine
 62
7
  6
CONTINUOUS
 10
78.7721718441
 20
152.398184846
 11
80.896102338
 21
150.3110265488
  0
LINE
  5
272
100
AcDbEntity
  8
IMPORT_IGES
100
AcDbLine
 62
7
  6
CONTINUOUS
 10
84.024730132
 20
147.2365398661
 11
84.3045424539
 21
146.9615722847
  0
LINE
  5
273
100
AcDbEntity
  8
IMPORT_IGES
100
AcDbLine
 62
7
  6
CONTINUOUS
 10
84.4951761542
 20
146.7742392639
 11
86.1269580907
 21
145.1707104078
  0
LINE
  5
274
100
AcDbEntity
  8
IMPORT_IGES
100
AcDbLine
 62
7
  6
CONTINUOUS
 10
81.0971160959
 20
150.1134898349
 11
82.2284288578
 21
149.0017723966
  0
LINE
  5
275
100
AcDbEntity
  8
IMPORT_IGES
100
AcDbLine
 62
7
  6
CONTINUOUS
 10
84.041419933
 20
147.5005657847
 11
83.5151204149
 21
148.0177612847
  0
LINE
  5
276
100
AcDbEntity
  8
IMPORT_IGES
100
AcDbLine
 62
7
  6
CONTINUOUS
 10
83.334516433
 20
148.1952411484
 11
82.5162874329
 21
148.9993162847
  0
LINE
  5
277
100
AcDbEntity
  8
IMPORT_IGES
100
AcDbLine
 62
7
  6
CONTINUOUS
 10
81.1584778358
 20
150.3335985661
 11
78.9123520116
 21
152.540836592
  0
LINE
  5
278
100
AcDbEntity
  8
IMPORT_IGES
100
AcDbLine
 62
7
  6
CONTINUOUS
 10
86.4123034303
 20
145.1707104078
 11
84.5001414622
 21
147.0497647256
  0
LINE
  5
279
100
AcDbEntity
  8
IMPORT_IGES
100
AcDbLine
 62
7
  6
CONTINUOUS
 10
82.373543948
 20
149.1395746972
 11
81.359511433
 21
150.1360432847
  0
LINE
  5
27A
100
AcDbEntity
  8
IMPORT_IGES
100
AcDbLine
 62
7
  6
CONTINUOUS
 10
86.0931078116
 20
152.6713575347
 11
83.8773656718
 21
150.5674765347
  0
LINE
  5
27B
100
AcDbEntity
  8
IMPORT_IGES
100
AcDbLine
 62
7
  6
CONTINUOUS
 10
83.6285631004
 20
150.3312322475
 11
82.373543948
 21
149.1395746972
  0
LINE
  5
27C
100
AcDbEntity
  8
IMPORT_IGES
100
AcDbLine
 62
7
  6
CONTINUOUS
 10
80.1249866089
 20
147.0044997665
 11
78.7947965968
 21
145.7414662554
  0
LINE
  5
27D
100
AcDbEntity
  8
IMPORT_IGES
100
AcDbLine
 62
7
  6
CONTINUOUS
 10
82.2284288578
 20
149.0017723966
 11
80.9022284347
 21
147.7425293266
  0
LINE
  5
27E
100
AcDbEntity
  8
IMPORT_IGES
100
AcDbLine
 62
7
  6
CONTINUOUS
 10
84.1967702553
 20
150.5949605425
 11
86.3835670916
 21
152.6713575347
  0
LINE
  5
27F
100
AcDbEntity
  8
IMPORT_IGES
100
AcDbLine
 62
7
  6
CONTINUOUS
 10
82.5162874329
 20
148.9993162847
 11
83.947965433
 21
150.3587137847
  0
LINE
  5
280
100
AcDbEntity
  8
IMPORT_IGES
100
AcDbLine
 62
7
  6
CONTINUOUS
 10
78.9324731103
 20
145.5963966854
 11
80.9605646589
 21
147.5220971991
  0
LINE
  5
281
100
AcDbEntity
  8
IMPORT_IGES
100
AcDbLine
 62
7
  6
CONTINUOUS
 10
81.1667359329
 20
147.7178872847
 11
82.3711724048
 21
148.8615140353
  0
LWPOLYLINE
  5
282
100
AcDbEntity
  8
IMPORT_IGES
100
AcDbPolyline
 62
7
  6
CONTINUOUS
 90
19
 70
0
 10
85.2694541354
 20
147.2753612086
 10
85.3009329146
 20
147.3038576198
 10
85.3314505465
 20
147.3357613597
 10
85.361007031
 20
147.3710724283
 10
85.3897142566
 20
147.4098740872
 10
85.4174603348
 20
147.4520830749
 10
85.4439096002
 20
147.4974496063
 10
85.4689922272
 20
147.5461259951
 10
85.4927780415
 20
147.5979599276
 10
85.5151408536
 20
147.6522446786
 10
85.5360527537
 20
147.7088477708
 10
85.5555416518
 20
147.7679016815
 10
85.5735650886
 20
147.8290971175
 10
85.5900716566
 20
147.8923260994
 10
85.6051127634
 20
147.9576966065
 10
85.6188001727
 20
148.0252232846
 10
85.6311711393
 20
148.0949110155
 10
85.6421884085
 20
148.1667549174
 10
85.6518519803
 20
148.2407549901
  0
LINE
  5
283
100
AcDbEntity
  8
IMPORT_IGES
100
AcDbLine
 62
7
  6
CONTINUOUS
 10
143.4223011644
 20
134.3464560602
 11
143.4223011644
 21
136.2364853991
  0
LINE
  5
284
100
AcDbEntity
  8
IMPORT_IGES
100
AcDbLine
 62
7
  6
CONTINUOUS
 10
143.4223011644
 20
137.3364853991
 11
143.4223011644
 21
139.2265147272
  0
LINE
  5
285
100
AcDbEntity
  8
IMPORT_IGES
100
AcDbLine
 62
7
  6
CONTINUOUS
 10
143.4223011533
 20
175.3464560454
 11
143.4223011533
 21
177.2364853843
  0
LINE
  5
286
100
AcDbEntity
  8
IMPORT_IGES
100
AcDbLine
 62
7
  6
CONTINUOUS
 10
143.4223011533
 20
178.3364853843
 11
143.4223011533
 21
180.2265147124
  0
LINE
  5
287
100
AcDbEntity
  8
IMPORT_IGES
100
AcDbLine
 62
7
  6
CONTINUOUS
 10
144.5111537715
 20
134.3464560709
 11
144.5111537715
 21
136.2364853991
  0
LINE
  5
288
100
AcDbEntity
  8
IMPORT_IGES
100
AcDbLine
 62
7
  6
CONTINUOUS
 10
144.5111537715
 20
137.3364853991
 11
144.5111537715
 21
139.2265147379
  0
LINE
  5
289
100
AcDbEntity
  8
IMPORT_IGES
100
AcDbLine
 62
7
  6
CONTINUOUS
 10
144.5111537604
 20
175.3464560561
 11
144.5111537604
 21
177.2364853843
  0
LINE
  5
28A
100
AcDbEntity
  8
IMPORT_IGES
100
AcDbLine
 62
7
  6
CONTINUOUS
 10
144.5111537604
 20
178.3364853843
 11
144.5111537604
 21
180.2265147231
  0
LWPOLYLINE
  5
28B
100
AcDbEntity
  8
IMPORT_IGES
100
AcDbPolyline
 62
7
  6
CONTINUOUS
 90
6
 70
0
 10
239.7924789827
 20
130.5541406522
 10
239.6941102087
 20
130.5336286561
 10
239.5971669643
 20
130.5082954158
 10
239.5014162052
 20
130.4780559222
 10
239.4070909757
 20
130.4429951845
 10
239.3148904089
 20
130.4033682302
  0
LINE
  5
28C
100
AcDbEntity
  8
IMPORT_IGES
100
AcDbLine
 62
7
  6
CONTINUOUS
 10
189.6079083634
 20
137.2729219554
 11
189.6079083634
 21
177.6729219554
  0
LWPOLYLINE
  5
28D
100
AcDbEntity
  8
IMPORT_IGES
100
AcDbPolyline
 62
250
  6
CONTINUOUS
 90
22
 70
0
 10
239.3875957544
 20
131.1993094239
 10
239.444986301
 20
131.2087796918
 10
239.5022388095
 20
131.2216997635
 10
239.55903939
 20
131.2380831602
 10
239.6151768886
 20
131.2579474626
 10
239.6702256786
 20
131.2812010278
 10
239.7235668397
 20
131.3075750277
 10
239.7746688997
 20
131.3367117084
 10
239.8235658129
 20
131.3685120229
 10
239.8704969324
 20
131.4030776216
 10
239.915201786
 20
131.4401915912
 10
239.9575071983
 20
131.4796623927
 10
239.9976928185
 20
131.5217677259
 10
240.0355192608
 20
131.5663473
 10
240.0707609058
 20
131.6131748058
 10
240.1035727704
 20
131.6625329823
 10
240.1338512993
 20
131.7144894526
 10
240.1611423266
 20
131.7685242009
 10
240.1850835437
 20
131.8240249549
 10
240.2055224646
 20
131.8805600524
 10
240.2224452066
 20
131.9379064713
 10
240.2358231759
 20
131.9957321561
  0
LWPOLYLINE
  5
28E
100
AcDbEntity
  8
IMPORT_IGES
100
AcDbPolyline
 62
250
  6
CONTINUOUS
 90
25
 70
0
 10
239.3876075156
 20
131.1993095008
 10
239.2901518605
 20
131.1839301709
 10
239.1932455049
 20
131.1635336693
 10
239.0970750553
 20
131.1381166094
 10
239.001628507
 20
131.1076100085
 10
238.9073256358
 20
131.072074042
 10
238.8149730173
 20
131.031800244
 10
238.724912057
 20
130.9869861362
 10
238.6371445876
 20
130.9376722622
 10
238.5519237923
 20
130.8840210645
 10
238.4694023796
 20
130.8261428343
 10
238.3897780116
 20
130.764178854
 10
238.3133510922
 20
130.6983710312
 10
238.2402795585
 20
130.6288644171
 10
238.1707276476
 20
130.5558101495
 10
238.1049700177
 20
130.4794971885
 10
238.043167535
 20
130.4001197501
 10
237.9854335166
 20
130.3178139658
 10
237.9319403881
 20
130.2328041187
 10
237.8827187613
 20
130.1450806046
 10
237.8380020817
 20
130.0549713171
 10
237.798165991
 20
129.9632610096
 10
237.7633094212
 20
129.8703668648
 10
237.7333533049
 20
129.7762816739
 10
237.7083066096
 20
129.6811924997
  0
LINE
  5
28F
100
AcDbEntity
  8
IMPORT_IGES
100
AcDbLine
 62
7
  6
CONTINUOUS
 10
239.8922732863
 20
130.5698314042
 11
239.7924789827
 21
130.5541406522
  0
LINE
  5
290
100
AcDbEntity
  8
IMPORT_IGES
100
AcDbLine
 62
7
  6
CONTINUOUS
 10
335.0598067289
 20
143.1658005217
 11
333.5598067289
 21
143.0470803539
  0
LINE
  5
291
100
AcDbEntity
  8
IMPORT_IGES
100
AcDbLine
 62
7
  6
CONTINUOUS
 10
237.2338091419
 20
128.2862806598
 11
69.4741772452
 21
128.2863324205
  0
LINE
  5
292
100
AcDbEntity
  8
IMPORT_IGES
100
AcDbLine
 62
250
  6
CONTINUOUS
 10
236.7366626881
 20
128.9135683584
 11
69.4741771846
 21
128.9135683584
  0
LINE
  5
293
100
AcDbEntity
  8
IMPORT_IGES
100
AcDbLine
 62
250
  6
CONTINUOUS
 10
69.4741769189
 20
130.411708339
 11
236.365715095
 21
130.4117054684
  0
LINE
  5
294
100
AcDbEntity
  8
IMPORT_IGES
100
AcDbLine
 62
7
  6
CONTINUOUS
 10
69.4221908151
 20
136.2364854139
 11
70.5110434222
 21
136.2364854139
  0
LINE
  5
295
100
AcDbEntity
  8
IMPORT_IGES
100
AcDbLine
 62
7
  6
CONTINUOUS
 10
143.4223011644
 20
136.2364853991
 11
144.5111537715
 21
136.2364853991
  0
LINE
  5
296
100
AcDbEntity
  8
IMPORT_IGES
100
AcDbLine
 62
7
  6
CONTINUOUS
 10
228.4224114916
 20
136.2364854139
 11
229.5112640987
 21
136.2364854139
  0
LINE
  5
297
100
AcDbEntity
  8
IMPORT_IGES
100
AcDbLine
 62
7
  6
CONTINUOUS
 10
353.0598067289
 20
136.7864853973
 11
341.0598067289
 21
136.7864853973
  0
LINE
  5
298
100
AcDbEntity
  8
IMPORT_IGES
100
AcDbLine
 62
7
  6
CONTINUOUS
 10
69.4741772477
 20
128.2862806484
 11
69.1483523525
 21
128.2888862824
  0
LWPOLYLINE
  5
299
100
AcDbEntity
  8
IMPORT_IGES
100
AcDbPolyline
 62
250
  6
CONTINUOUS
 90
109
 70
0
 10
69.4741771152
 20
128.9135741831
 10
68.8259683012
 20
128.9234027087
 10
68.1864209394
 20
128.9524910433
 10
67.5563182155
 20
129.0002371439
 10
66.9368818078
 20
129.0659706511
 10
66.3282586013
 20
129.1491067939
 10
65.7295400482
 20
129.2492986949
 10
65.1410223794
 20
129.3661116205
 10
64.563481151
 20
129.4990089837
 10
63.996680332
 20
129.6476826149
 10
63.4416720078
 20
129.8114848605
 10
62.8981700066
 20
129.9901222883
 10
62.363941782
 20
130.1841125875
 10
61.8390338802
 20
130.3933762598
 10
61.3242201917
 20
130.6175843883
 10
60.8184905356
 20
130.8572682287
 10
60.3223385166
 20
131.1123816437
 10
59.8362855673
 20
131.382853269
 10
59.3594867204
 20
131.6693070239
 10
58.8931210153
 20
131.9706449126
 10
58.4372899917
 20
132.2862759244
 10
57.9898525806
 20
132.6174300802
 10
57.5517026875
 20
132.9634286195
 10
57.1234357479
 20
133.3238038313
 10
56.7027045059
 20
133.7007453176
 10
56.2907755072
 20
134.0935080449
 10
55.8874590281
 20
134.502680793
 10
55.4888932924
 20
134.9330809337
 10
55.0948577354
 20
135.3862686049
 10
54.7075120441
 20
135.8610490452
 10
54.3270585008
 20
136.3584489171
 10
53.9546434268
 20
136.878337321
 10
53.5913576127
 20
137.4204338435
 10
53.2376031533
 20
137.9854889768
 10
52.8949998261
 20
138.572423841
 10
52.5647000871
 20
139.1807400201
 10
52.2462593076
 20
139.8125806518
 10
51.9413687841
 20
140.4656969927
 10
51.6495788522
 20
141.1419813113
 10
51.3679929185
 20
141.850159505
 10
51.0975789296
 20
142.5907447095
 10
50.8396816143
 20
143.3626750428
 10
50.5932504531
 20
144.172589337
 10
50.3604207358
 20
145.0180414731
 10
50.1419063141
 20
145.9007119187
 10
49.9360447253
 20
146.833591501
 10
49.7445573897
 20
147.8170509426
 10
49.569497066
 20
148.8489690593
 10
49.4116754315
 20
149.9394219522
 10
49.2725041717
 20
151.1018314512
 10
49.1565721098
 20
152.3236103341
 10
49.0678127992
 20
153.5757312602
 10
49.0061390113
 20
154.8560538555
 10
48.9711930933
 20
156.162132548
 10
48.9620740218
 20
157.4656276771
 10
48.9773996492
 20
158.7687520429
 10
49.019085062
 20
160.0708542295
 10
49.0874654182
 20
161.3403333256
 10
49.1825542002
 20
162.5763578361
 10
49.3044248763
 20
163.7802766408
 10
49.4490249094
 20
164.9237811132
 10
49.6113225893
 20
165.9924996815
 10
49.7899978939
 20
167.0011653455
 10
49.9851103151
 20
167.9642346505
 10
50.1946679014
 20
168.8806462793
 10
50.4161446662
 20
169.748100333
 10
50.6507380868
 20
170.5781619191
 10
50.8973228968
 20
171.3716747985
 10
51.1537927476
 20
172.126557223
 10
51.4217890355
 20
172.8506714762
 10
51.7005899186
 20
173.5443400744
 10
51.9894725446
 20
174.2083529822
 10
52.2913431946
 20
174.8505764711
 10
52.6067851077
 20
175.4722649071
 10
52.9344698292
 20
176.071148464
 10
53.2748540785
 20
176.6490980243
 10
53.6264560755
 20
177.2054315056
 10
53.9873490702
 20
177.738932388
 10
54.3568863127
 20
178.2502495598
 10
54.7338166595
 20
178.739101254
 10
55.1171816923
 20
179.2057543452
 10
55.507157994
 20
179.6517797349
 10
55.9018190207
 20
180.076292218
 10
56.3013446787
 20
180.4808032665
 10
56.709454935
 20
180.8699012926
 10
57.1261699459
 20
181.2439290987
 10
57.5501513282
 20
181.6019839555
 10
57.9837370165
 20
181.9461454284
 10
58.4265034852
 20
182.2758981152
 10
58.8778450695
 20
182.5905620253
 10
59.3402028843
 20
182.8913903786
 10
59.8138385924
 20
183.1778370148
 10
60.2977851977
 20
183.4487458968
 10
60.7928370675
 20
183.704587738
 10
61.2986030082
 20
183.9452574544
 10
61.8146637932
 20
184.1706489029
 10
62.3418473218
 20
184.3811433148
 10
62.8792912177
 20
184.5763723889
 10
63.4268039439
 20
184.7562439074
 10
63.9862673625
 20
184.9212028497
 10
64.5578308654
 20
185.0709580868
 10
65.1401378576
 20
185.2048185626
 10
65.7328303791
 20
185.3223861148
 10
66.3348999651
 20
185.4231399617
 10
66.9458691346
 20
185.5066724945
 10
67.5661043835
 20
185.5726284506
 10
68.1951067934
 20
185.6204649093
 10
68.8315014509
 20
185.6495723314
 10
69.4742340857
 20
185.6593966115
  0
LWPOLYLINE
  5
29A
100
AcDbEntity
  8
IMPORT_IGES
100
AcDbPolyline
 62
250
  6
CONTINUOUS
 90
106
 70
0
 10
69.4741769189
 20
130.411708339
 10
68.8570001016
 20
130.4221269511
 10
68.2483270805
 20
130.4504402096
 10
67.6481578555
 20
130.4966481146
 10
67.0562609592
 20
130.5611297403
 10
66.4728678592
 20
130.6435060124
 10
65.8986729582
 20
130.7426397082
 10
65.3337738562
 20
130.8583931752
 10
64.7780729533
 20
130.9909040658
 10
64.2319718527
 20
131.1394481145
 10
63.6954846281
 20
131.3038703886
 10
63.1685972057
 20
131.4843258209
 10
62.6516689682
 20
131.6805549439
 10
62.1447430742
 20
131.8923607307
 10
61.6477763649
 20
132.1199402082
 10
61.1609987465
 20
132.3636249903
 10
60.6843492948
 20
132.6238024307
 10
60.2178889338
 20
132.9000851756
 10
59.7620303421
 20
133.1916427776
 10
59.316691604
 20
133.4987298587
 10
58.8819546352
 20
133.8210917969
 10
58.4584778602
 20
134.1571342796
 10
58.0472795262
 20
134.5055173033
 10
57.6473413861
 20
134.8675808715
 10
57.2562671238
 20
135.245750682
 10
56.8738613112
 20
135.639515439
 10
56.5003193764
 20
136.0493864383
 10
56.1338312872
 20
136.4793232658
 10
55.7737577826
 20
136.9293348892
 10
55.4207381236
 20
137.3994123407
 10
55.074880061
 20
137.8934883032
 10
54.7357155164
 20
138.4114189396
 10
54.4037125681
 20
138.953348087
 10
54.0803832012
 20
139.5236399383
 10
53.7656887484
 20
140.1220482648
 10
53.459667877
 20
140.7488192952
 10
53.1639485737
 20
141.4090559095
 10
52.8781274065
 20
142.1038177738
 10
52.6026078073
 20
142.8320452219
 10
52.3402280592
 20
143.5956621357
 10
52.0909215754
 20
144.3954453587
 10
51.8547549426
 20
145.2306180474
 10
51.6347662035
 20
146.1007735532
 10
51.4311022454
 20
147.0059517886
 10
51.243616181
 20
147.9461128411
 10
51.0749053914
 20
148.9207303236
 10
50.9249477626
 20
149.9317945539
 10
50.7937654085
 20
150.9773152143
 10
50.6840220519
 20
152.0507949645
 10
50.5966887886
 20
153.1563517947
 10
50.5307945227
 20
154.2898677149
 10
50.4860896893
 20
155.4324914144
 10
50.4625647402
 20
156.5840568568
 10
50.4602292236
 20
157.7447300787
 10
50.4788622191
 20
158.896157879
 10
50.5181407238
 20
160.0377828765
 10
50.5783877405
 20
161.1701624524
 10
50.6603513583
 20
162.2766155501
 10
50.7649722763
 20
163.3538038279
 10
50.8913097953
 20
164.4050656274
 10
51.0372899062
 20
165.4237349171
 10
51.2032426396
 20
166.4081882432
 10
51.3888379649
 20
167.3600490594
 10
51.5910117806
 20
168.2775216954
 10
51.8099334574
 20
169.1606131939
 10
52.0454336247
 20
170.0093165121
 10
52.2939400688
 20
170.8218148512
 10
52.555039111
 20
171.5965979006
 10
52.8291444302
 20
172.3351759709
 10
53.1139248488
 20
173.0402631953
 10
53.4088790353
 20
173.711089337
 10
53.7145083213
 20
174.3484246327
 10
54.029985525
 20
174.9572939253
 10
54.3556984294
 20
175.5380654538
 10
54.6912592514
 20
176.0903709793
 10
55.0346774601
 20
176.6181306273
 10
55.3854923509
 20
177.1213339008
 10
55.7441646284
 20
177.5999912968
 10
56.1100858754
 20
178.0580544324
 10
56.482607251
 20
178.4955093684
 10
56.8623775961
 20
178.9123700439
 10
57.2507350164
 20
179.3126298927
 10
57.647494035
 20
179.6969179733
 10
58.0528401288
 20
180.0646052271
 10
58.4686678352
 20
180.417797913
 10
58.8959010392
 20
180.7577947721
 10
59.3336158558
 20
181.0832970631
 10
59.7809351677
 20
181.3925148212
 10
60.2375469338
 20
181.6849545201
 10
60.7037631952
 20
181.9611096862
 10
61.1796429577
 20
182.2206709333
 10
61.6652467458
 20
182.4633106013
 10
62.1605140349
 20
182.6893563503
 10
62.6653222577
 20
182.8994817754
 10
63.1794740895
 20
183.0938320976
 10
63.7031668549
 20
183.2722620959
 10
64.2368699603
 20
183.4350097017
 10
64.7808876412
 20
183.5824173801
 10
65.3349156621
 20
183.714142666
 10
65.8985107226
 20
183.8293960962
 10
66.4717424099
 20
183.9283651211
 10
67.054541137
 20
184.0108622903
 10
67.6462548416
 20
184.0755357897
 10
68.2466661699
 20
184.1219350148
 10
68.8559924758
 20
184.1505105701
 10
69.4742337594
 20
184.1612624556
  0
LINE
  5
29B
100
AcDbEntity
  8
IMPORT_IGES
100
AcDbLine
 62
7
  6
CONTINUOUS
 10
84.823900933
 20
147.3770737847
 11
84.500122933
 21
147.4072387847
  0
LINE
  5
29C
100
AcDbEntity
  8
IMPORT_IGES
100
AcDbLine
 62
7
  6
CONTINUOUS
 10
83.946253933
 20
147.2438587847
 11
84.024730132
 21
147.2365398661
  0
LINE
  5
29D
100
AcDbEntity
  8
IMPORT_IGES
100
AcDbLine
 62
7
  6
CONTINUOUS
 10
84.5001414622
 20
147.1922194035
 11
84.8301637011
 21
147.1614433392
  0
LINE
  5
29E
100
AcDbEntity
  8
IMPORT_IGES
100
AcDbLine
 62
7
  6
CONTINUOUS
 10
80.9605646589
 20
147.5220971991
 11
83.7537816403
 21
147.2617695306
  0
LINE
  5
29F
100
AcDbEntity
  8
IMPORT_IGES
100
AcDbLine
 62
7
  6
CONTINUOUS
 10
80.9022284347
 20
147.7425293266
 11
80.7474896174
 21
147.7569525868
  0
LINE
  5
2A0
100
AcDbEntity
  8
IMPORT_IGES
100
AcDbLine
 62
7
  6
CONTINUOUS
 10
83.7830491396
 20
147.4740601831
 11
81.1667359329
 21
147.7178872847
  0
LWPOLYLINE
  5
2A1
100
AcDbEntity
  8
IMPORT_IGES
100
AcDbPolyline
 62
250
  6
CONTINUOUS
 90
3
 70
0
 10
240.2188288133
 20
182.56930219
 10
240.2295434354
 20
182.5742752628
 10
240.2358013025
 20
182.5773216096
  0
LINE
  5
2A2
100
AcDbEntity
  8
IMPORT_IGES
100
AcDbLine
 62
250
  6
CONTINUOUS
 10
239.991440877
 20
182.4654669059
 11
240.2188288133
 21
182.56930219
  0
LWPOLYLINE
  5
2A3
100
AcDbEntity
  8
IMPORT_IGES
100
AcDbPolyline
 62
250
  6
CONTINUOUS
 90
23
 70
0
 10
237.6349614836
 20
184.8596682141
 10
237.6075991835
 20
184.8474865614
 10
237.5761555474
 20
184.8332728475
 10
237.5407782448
 20
184.8170557351
 10
237.5017401272
 20
184.7989089729
 10
237.4593508578
 20
184.7789128967
 10
237.4136898167
 20
184.757040326
 10
237.3646974576
 20
184.7331995306
 10
237.3124830534
 20
184.707356761
 10
237.257334906
 20
184.6795542982
 10
237.1994497571
 20
184.649791195
 10
237.1388610147
 20
184.6179955323
 10
237.0758307755
 20
184.5842607407
 10
237.0109095873
 20
184.5488587847
 10
236.9445558609
 20
184.5119355205
 10
236.8766360706
 20
184.4734592997
 10
236.8068788499
 20
184.4333914041
 10
236.7352323724
 20
184.3916006452
 10
236.662195766
 20
184.3481844688
 10
236.588398994
 20
184.3033961896
 10
236.5142536778
 20
184.257338471
 10
236.4399258698
 20
184.2099520853
 10
236.3657053143
 20
184.1612624556
  0
LINE
  5
2A4
100
AcDbEntity
  8
IMPORT_IGES
100
AcDbLine
 62
250
  6
CONTINUOUS
 10
237.7083049192
 20
184.891777814
 11
237.702303496
 21
184.8891068556
  0
LINE
  5
2A5
100
AcDbEntity
  8
IMPORT_IGES
100
AcDbLine
 62
250
  6
CONTINUOUS
 10
239.3883222994
 20
182.1969727913
 11
239.991440877
 21
182.4654669059
  0
LINE
  5
2A6
100
AcDbEntity
  8
IMPORT_IGES
100
AcDbLine
 62
250
  6
CONTINUOUS
 10
237.702303496
 20
184.8891068556
 11
237.6349614836
 21
184.8596682141
  0
LINE
  5
2A7
100
AcDbEntity
  8
IMPORT_IGES
100
AcDbLine
 62
250
  6
CONTINUOUS
 10
239.0770033057
 20
182.0615661881
 11
239.3883222994
 21
182.1969727913
  0
LINE
  5
2A8
100
AcDbEntity
  8
IMPORT_IGES
100
AcDbLine
 62
250
  6
CONTINUOUS
 10
238.831141501
 20
181.9560553891
 11
239.0770033057
 21
182.0615661881
  0
LINE
  5
2A9
100
AcDbEntity
  8
IMPORT_IGES
100
AcDbLine
 62
7
  6
CONTINUOUS
 10
218.913318966
 20
149.4892850846
 11
219.3257189122
 21
149.5993158504
  0
LWPOLYLINE
  5
2AA
100
AcDbEntity
  8
IMPORT_IGES
100
AcDbPolyline
 62
7
  6
CONTINUOUS
 90
19
 70
0
 10
219.3257189122
 20
149.5993158504
 10
219.3948157632
 20
149.6175216804
 10
219.4619507361
 20
149.6363848684
 10
219.5271238308
 20
149.6559054143
 10
219.5904580253
 20
149.6758514509
 10
219.6518303416
 20
149.6964548456
 10
219.7108718462
 20
149.7184111998
 10
219.7676163437
 20
149.7418351705
 10
219.8220300294
 20
149.7666121007
 10
219.8736425553
 20
149.7930936215
 10
219.922502038
 20
149.8213863948
 10
219.968560361
 20
149.8513837585
 10
220.0112028262
 20
149.8831173582
 10
220.0503330289
 20
149.9168813948
 10
220.0860473739
 20
149.9523816674
 10
220.1180203775
 20
149.9887672174
 10
220.1461435451
 20
150.0257543922
 10
220.1705253712
 20
150.0636268445
 10
220.1911658559
 20
150.1023845743
  0
LINE
  5
2AB
100
AcDbEntity
  8
IMPORT_IGES
100
AcDbLine
 62
7
  6
CONTINUOUS
 10
218.1079083634
 20
149.2782373814
 11
218.913318966
 21
149.4892850846
  0
LINE
  5
2AC
100
AcDbEntity
  8
IMPORT_IGES
100
AcDbLine
 62
7
  6
CONTINUOUS
 10
215.3079083634
 20
136.9729219554
 11
189.9079083634
 21
136.9729219554
  0
LINE
  5
2AD
100
AcDbEntity
  8
IMPORT_IGES
100
AcDbLine
 62
7
  6
CONTINUOUS
 10
69.4221908151
 20
137.3364854139
 11
70.5110434222
 21
137.3364854139
  0
LINE
  5
2AE
100
AcDbEntity
  8
IMPORT_IGES
100
AcDbLine
 62
7
  6
CONTINUOUS
 10
143.4223011644
 20
137.3364853991
 11
144.5111537715
 21
137.3364853991
  0
LINE
  5
2AF
100
AcDbEntity
  8
IMPORT_IGES
100
AcDbLine
 62
7
  6
CONTINUOUS
 10
228.4224114916
 20
137.3364854139
 11
229.5112640987
 21
137.3364854139
  0
LINE
  5
2B0
100
AcDbEntity
  8
IMPORT_IGES
100
AcDbLine
 62
7
  6
CONTINUOUS
 10
363.7669135101
 20
141.7864853974
 11
369.5598067289
 21
141.7864853974
  0
LINE
  5
2B1
100
AcDbEntity
  8
ASSI
100
AcDbLine
 62
7
  6
CONTINUOUS
 10
353.0598067289
 20
141.8864853983
 11
363.4669135101
 21
141.8864854014
  0
LINE
  5
2B2
100
AcDbEntity
  8
IMPORT_IGES
100
AcDbLine
 62
7
  6
CONTINUOUS
 10
335.9448753524
 20
142.7864853973
 11
353.0598067289
 21
142.7864853973
  0
LINE
  5
2B3
100
AcDbEntity
  8
IMPORT_IGES
100
AcDbLine
 62
7
  6
CONTINUOUS
 10
86.4123034303
 20
145.1707104078
 11
86.1269580907
 21
145.1707104078
  0
LINE
  5
2B4
100
AcDbEntity
  8
IMPORT_IGES
100
AcDbLine
 62
7
  6
CONTINUOUS
 10
77.272486933
 20
145.8652507847
 11
75.762303433
 21
145.8652507847
  0
LINE
  5
2B5
100
AcDbEntity
  8
ASSI
100
AcDbLine
 62
7
  6
CONTINUOUS
 10
363.4669135102
 20
146.6864853932
 11
353.0598067289
 21
146.6864853963
  0
LINE
  5
2B6
100
AcDbEntity
  8
IMPORT_IGES
100
AcDbLine
 62
7
  6
CONTINUOUS
 10
84.4951761542
 20
146.7742392639
 11
83.7537816403
 21
146.7742392639
  0
LINE
  5
2B7
100
AcDbEntity
  8
IMPORT_IGES
100
AcDbLine
 62
7
  6
CONTINUOUS
 10
369.5598067289
 20
146.7864853972
 11
363.7669135101
 21
146.7864853972
  0
LINE
  5
2B8
100
AcDbEntity
  8
IMPORT_IGES
100
AcDbLine
 62
7
  6
CONTINUOUS
 10
84.3045424539
 20
146.9615722847
 11
83.946253933
 21
146.9615722847
  0
LINE
  5
2B9
100
AcDbEntity
  8
IMPORT_IGES
100
AcDbLine
 62
7
  6
CONTINUOUS
 10
353.2598067289
 20
147.3671305189
 11
353.0598067289
 21
147.3671305189
  0
LINE
  5
2BA
100
AcDbEntity
  8
IMPORT_IGES
100
AcDbLine
 62
7
  6
CONTINUOUS
 10
84.500122933
 20
147.5005657847
 11
84.041419933
 21
147.5005657847
  0
LINE
  5
2BB
100
AcDbEntity
  8
IMPORT_IGES
100
AcDbLine
 62
7
  6
CONTINUOUS
 10
353.2598067289
 20
147.6493886123
 11
353.0598067289
 21
147.6493886123
  0
LINE
  5
2BC
100
AcDbEntity
  8
IMPORT_IGES
100
AcDbLine
 62
7
  6
CONTINUOUS
 10
353.2598067289
 20
147.7703563879
 11
353.0598067289
 21
147.7703563879
  0
LINE
  5
2BD
100
AcDbEntity
  8
IMPORT_IGES
100
AcDbLine
 62
250
  6
CONTINUOUS
 10
239.1467224061
 20
132.4812814484
 11
238.831141229
 21
132.6169160432
  0
LWPOLYLINE
  5
2BE
100
AcDbEntity
  8
IMPORT_IGES
100
AcDbPolyline
 62
250
  6
CONTINUOUS
 90
4
 70
0
 10
237.7022371504
 20
129.6839299652
 10
237.6334741468
 20
129.7140464977
 10
237.6054366627
 20
129.7264930828
 10
237.5733309803
 20
129.7409935789
  0
LINE
  5
2BF
100
AcDbEntity
  8
IMPORT_IGES
100
AcDbLine
 62
250
  6
CONTINUOUS
 10
239.5221556885
 20
132.3170936709
 11
239.1467224061
 21
132.4812814484
  0
LINE
  5
2C0
100
AcDbEntity
  8
IMPORT_IGES
100
AcDbLine
 62
250
  6
CONTINUOUS
 10
239.9450864179
 20
132.1284485941
 11
239.5221556885
 21
132.3170936709
  0
LINE
  5
2C1
100
AcDbEntity
  8
IMPORT_IGES
100
AcDbLine
 62
250
  6
CONTINUOUS
 10
237.7083066096
 20
129.6811924997
 11
237.7022371504
 21
129.6839299652
  0
LINE
  5
2C2
100
AcDbEntity
  8
IMPORT_IGES
100
AcDbLine
 62
250
  6
CONTINUOUS
 10
240.073644852
 20
132.0701335776
 11
239.9450864179
 21
132.1284485941
  0
LWPOLYLINE
  5
2C3
100
AcDbEntity
  8
IMPORT_IGES
100
AcDbPolyline
 62
250
  6
CONTINUOUS
 90
20
 70
0
 10
237.5733309803
 20
129.7409935789
 10
237.4977230599
 20
129.775935926
 10
237.4548078164
 20
129.7961737691
 10
237.4088346631
 20
129.8182920295
 10
237.3595264842
 20
129.842333649
 10
237.3070255195
 20
129.8683536442
 10
237.2517317672
 20
129.8963284949
 10
237.1936282924
 20
129.9262116979
 10
237.1329651537
 20
129.9580635281
 10
237.070139069
 20
129.9918082348
 10
237.0053265846
 20
130.0271716839
 10
236.9391661051
 20
130.0639465774
 10
236.8717678996
 20
130.102210408
 10
236.8024716781
 20
130.1421082403
 10
236.7313458988
 20
130.1836291546
 10
236.6590862532
 20
130.2266292646
 10
236.5859675538
 20
130.2710554273
 10
236.5123785977
 20
130.3168076326
 10
236.4388129331
 20
130.3637382519
 10
236.3657150951
 20
130.4117054684
  0
LWPOLYLINE
  5
2C4
100
AcDbEntity
  8
IMPORT_IGES
100
AcDbPolyline
 62
250
  6
CONTINUOUS
 90
3
 70
0
 10
240.2358013014
 20
131.9956491881
 10
240.2298149082
 20
131.998517019
 10
240.073644852
 20
132.0701335776
  0
LINE
  5
2C5
100
AcDbEntity
  8
IMPORT_IGES
100
AcDbLine
 62
7
  6
CONTINUOUS
 10
221.0459648643
 20
160.1410889596
 11
218.1079078643
 21
159.0392789596
  0
LINE
  5
2C6
100
AcDbEntity
  8
IMPORT_IGES
100
AcDbLine
 62
7
  6
CONTINUOUS
 10
222.6073598643
 20
166.7360529596
 11
218.1079078643
 21
165.3096389596
  0
LINE
  5
2C7
100
AcDbEntity
  8
IMPORT_IGES
100
AcDbLine
 62
7
  6
CONTINUOUS
 10
219.0061588643
 20
154.0643509596
 11
218.1079078643
 21
153.8210459596
  0
LINE
  5
2C8
100
AcDbEntity
  8
IMPORT_IGES
100
AcDbLine
 62
7
  6
CONTINUOUS
 10
221.3710248643
 20
154.6836319596
 11
219.7012218643
 21
154.2520519596
  0
LINE
  5
2C9
100
AcDbEntity
  8
IMPORT_IGES
100
AcDbLine
 62
7
  6
CONTINUOUS
 10
218.1079078643
 20
156.6790689596
 11
222.6073598643
 21
157.0998179596
  0
LINE
  5
2CA
100
AcDbEntity
  8
IMPORT_IGES
100
AcDbLine
 62
7
  6
CONTINUOUS
 10
221.0337178643
 20
157.7908319596
 11
218.1079078643
 21
157.5978679596
  0
LINE
  5
2CB
100
AcDbEntity
  8
IMPORT_IGES
100
AcDbLine
 62
7
  6
CONTINUOUS
 10
353.2598067289
 20
147.9316467057
 11
353.0598067289
 21
147.9316467057
  0
LINE
  5
2CC
100
AcDbEntity
  8
IMPORT_IGES
100
AcDbLine
 62
7
  6
CONTINUOUS
 10
83.5151204149
 20
148.0177612847
 11
83.762628433
 21
148.0177612847
  0
LINE
  5
2CD
100
AcDbEntity
  8
IMPORT_IGES
100
AcDbLine
 62
7
  6
CONTINUOUS
 10
353.2598067289
 20
148.0526144812
 11
353.0598067289
 21
148.0526144812
  0
LINE
  5
2CE
100
AcDbEntity
  8
IMPORT_IGES
100
AcDbLine
 62
7
  6
CONTINUOUS
 10
353.2598067289
 20
148.213904799
 11
353.0598067289
 21
148.213904799
  0
LINE
  5
2CF
100
AcDbEntity
  8
IMPORT_IGES
100
AcDbLine
 62
7
  6
CONTINUOUS
 10
85.2341037434
 20
148.2407375702
 11
85.4338895619
 21
148.2407462802
  0
LINE
  5
2D0
100
AcDbEntity
  8
IMPORT_IGES
100
AcDbLine
 62
7
  6
CONTINUOUS
 10
353.2598067289
 20
148.3348724256
 11
353.0598067289
 21
148.3348724256
  0
LINE
  5
2D1
100
AcDbEntity
  8
IMPORT_IGES
100
AcDbLine
 62
7
  6
CONTINUOUS
 10
353.2598067289
 20
149.0203563879
 11
353.0598067289
 21
149.0203563879
  0
LINE
  5
2D2
100
AcDbEntity
  8
IMPORT_IGES
100
AcDbLine
 62
7
  6
CONTINUOUS
 10
353.2598067289
 20
149.141324089
 11
353.0598067289
 21
149.141324089
  0
LINE
  5
2D3
100
AcDbEntity
  8
IMPORT_IGES
100
AcDbLine
 62
7
  6
CONTINUOUS
 10
85.4564004561
 20
149.2931610656
 11
85.2341037434
 21
149.2931610656
  0
LINE
  5
2D4
100
AcDbEntity
  8
IMPORT_IGES
100
AcDbLine
 62
7
  6
CONTINUOUS
 10
85.6755768252
 20
149.2931610656
 11
85.7603421654
 21
149.2931610656
  0
LINE
  5
2D5
100
AcDbEntity
  8
IMPORT_IGES
100
AcDbLine
 62
7
  6
CONTINUOUS
 10
353.2598067289
 20
149.302614444
 11
353.0598067289
 21
149.302614444
  0
LINE
  5
2D6
100
AcDbEntity
  8
IMPORT_IGES
100
AcDbLine
 62
7
  6
CONTINUOUS
 10
83.334516433
 20
149.3288737847
 11
83.762628433
 21
149.3288737847
  0
LINE
  5
2D7
100
AcDbEntity
  8
IMPORT_IGES
100
AcDbLine
 62
7
  6
CONTINUOUS
 10
353.0598067289
 20
149.423582008
 11
353.2598067289
 21
149.423582008
  0
LINE
  5
2D8
100
AcDbEntity
  8
IMPORT_IGES
100
AcDbLine
 62
7
  6
CONTINUOUS
 10
353.0598067289
 20
149.6251950795
 11
353.2598067289
 21
149.6251950795
  0
LINE
  5
2D9
100
AcDbEntity
  8
IMPORT_IGES
100
AcDbLine
 62
7
  6
CONTINUOUS
 10
353.0598067289
 20
149.7058402384
 11
353.2598067289
 21
149.7058402384
  0
LINE
  5
2DA
100
AcDbEntity
  8
IMPORT_IGES
100
AcDbLine
 62
7
  6
CONTINUOUS
 10
79.8470810708
 20
149.7375410969
 11
79.5250161101
 21
149.7375410969
  0
LINE
  5
2DB
100
AcDbEntity
  8
IMPORT_IGES
100
AcDbLine
 62
7
  6
CONTINUOUS
 10
353.2598067289
 20
149.7461628179
 11
353.0598067289
 21
149.7461628179
  0
LINE
  5
2DC
100
AcDbEntity
  8
IMPORT_IGES
100
AcDbLine
 62
7
  6
CONTINUOUS
 10
353.2598067289
 20
149.7864853973
 11
353.0598067289
 21
149.7864853973
  0
LINE
  5
2DD
100
AcDbEntity
  8
IMPORT_IGES
100
AcDbLine
 62
7
  6
CONTINUOUS
 10
287.0598067289
 20
149.7864853973
 11
313.0598067289
 21
149.7864853973
  0
LINE
  5
2DE
100
AcDbEntity
  8
IMPORT_IGES
100
AcDbLine
 62
7
  6
CONTINUOUS
 10
85.0468221626
 20
149.872878648
 11
85.3724015925
 21
149.872878648
  0
LINE
  5
2DF
100
AcDbEntity
  8
IMPORT_IGES
100
AcDbLine
 62
7
  6
CONTINUOUS
 10
220.248492339
 20
150.1023845743
 11
220.1911658559
 21
150.1023845743
  0
LINE
  5
2E0
100
AcDbEntity
  8
IMPORT_IGES
100
AcDbLine
 62
7
  6
CONTINUOUS
 10
79.5250161101
 20
150.1342046958
 11
79.8479019846
 21
150.1342046958
  0
LINE
  5
2E1
100
AcDbEntity
  8
IMPORT_IGES
100
AcDbLine
 62
7
  6
CONTINUOUS
 10
85.4762907407
 20
150.2386469265
 11
85.6177633705
 21
150.2386469265
  0
LINE
  5
2E2
100
AcDbEntity
  8
IMPORT_IGES
100
AcDbLine
 62
7
  6
CONTINUOUS
 10
353.0598067289
 20
150.3826649124
 11
353.2598067289
 21
150.3826649124
  0
LINE
  5
2E3
100
AcDbEntity
  8
IMPORT_IGES
100
AcDbLine
 62
7
  6
CONTINUOUS
 10
311.0598067289
 20
150.6964853973
 11
308.8598067289
 21
150.6964853973
  0
LINE
  5
2E4
100
AcDbEntity
  8
IMPORT_IGES
100
AcDbLine
 62
7
  6
CONTINUOUS
 10
306.3598067289
 20
150.6964853973
 11
304.1598067289
 21
150.6964853973
  0
LINE
  5
2E5
100
AcDbEntity
  8
IMPORT_IGES
100
AcDbLine
 62
7
  6
CONTINUOUS
 10
301.6598067289
 20
150.6964853973
 11
299.4598067289
 21
150.6964853973
  0
LINE
  5
2E6
100
AcDbEntity
  8
IMPORT_IGES
100
AcDbLine
 62
7
  6
CONTINUOUS
 10
296.9598067289
 20
150.6964853973
 11
294.7598067289
 21
150.6964853973
  0
LINE
  5
2E7
100
AcDbEntity
  8
IMPORT_IGES
100
AcDbLine
 62
7
  6
CONTINUOUS
 10
292.2598067289
 20
150.6964853973
 11
290.0598067289
 21
150.6964853973
  0
LINE
  5
2E8
100
AcDbEntity
  8
IMPORT_IGES
100
AcDbLine
 62
7
  6
CONTINUOUS
 10
84.8327661617
 20
150.9075360006
 11
85.0468221626
 21
150.9075360006
  0
LINE
  5
2E9
100
AcDbEntity
  8
IMPORT_IGES
100
AcDbLine
 62
7
  6
CONTINUOUS
 10
353.0598067289
 20
151.3615198071
 11
353.2598067289
 21
151.3615198071
  0
LINE
  5
2EA
100
AcDbEntity
  8
IMPORT_IGES
100
AcDbLine
 62
7
  6
CONTINUOUS
 10
219.8687450661
 20
151.6199237945
 11
218.1079083634
 21
151.6199237945
  0
LINE
  5
2EB
100
AcDbEntity
  8
IMPORT_IGES
100
AcDbLine
 62
7
  6
CONTINUOUS
 10
220.6056464704
 20
151.6510666515
 11
221.8408335862
 21
151.6510666515
  0
LINE
  5
2EC
100
AcDbEntity
  8
IMPORT_IGES
100
AcDbLine
 62
7
  6
CONTINUOUS
 10
353.0598067289
 20
151.7008788521
 11
353.2598067289
 21
151.7008788521
  0
LINE
  5
2ED
100
AcDbEntity
  8
IMPORT_IGES
100
AcDbLine
 62
7
  6
CONTINUOUS
 10
75.762303433
 20
152.0670427847
 11
77.272486933
 21
152.0670427847
  0
LINE
  5
2EE
100
AcDbEntity
  8
IMPORT_IGES
100
AcDbLine
 62
7
  6
CONTINUOUS
 10
243.2243750211
 20
152.2864854059
 11
257.7598067289
 21
152.2864854059
  0
LINE
  5
2EF
100
AcDbEntity
  8
IMPORT_IGES
100
AcDbLine
 62
7
  6
CONTINUOUS
 10
218.1079083634
 20
152.5553566944
 11
222.5547911739
 21
152.5553566944
  0
LINE
  5
2F0
100
AcDbEntity
  8
IMPORT_IGES
100
AcDbLine
 62
7
  6
CONTINUOUS
 10
353.2598067289
 20
152.6695008213
 11
353.0598067289
 21
152.6695008213
  0
LINE
  5
2F1
100
AcDbEntity
  8
IMPORT_IGES
100
AcDbLine
 62
7
  6
CONTINUOUS
 10
86.0931078116
 20
152.6713575347
 11
86.3835670916
 21
152.6713575347
  0
LINE
  5
2F2
100
AcDbEntity
  8
IMPORT_IGES
100
AcDbLine
 62
7
  6
CONTINUOUS
 10
353.0598067289
 20
152.8519697125
 11
353.2598067289
 21
152.8519697125
  0
LINE
  5
2F3
100
AcDbEntity
  8
IMPORT_IGES
100
AcDbLine
 62
250
  6
CONTINUOUS
 10
353.0598067289
 20
152.9431187426
 11
353.2598067289
 21
152.9431187426
  0
LINE
  5
2F4
100
AcDbEntity
  8
IMPORT_IGES
100
AcDbLine
 62
7
  6
CONTINUOUS
 10
287.0598067289
 20
153.0364853973
 11
290.0598067289
 21
153.0364853973
  0
LINE
  5
2F5
100
AcDbEntity
  8
IMPORT_IGES
100
AcDbLine
 62
7
  6
CONTINUOUS
 10
292.2598067289
 20
153.0364853973
 11
294.7598067289
 21
153.0364853973
  0
LINE
  5
2F6
100
AcDbEntity
  8
IMPORT_IGES
100
AcDbLine
 62
7
  6
CONTINUOUS
 10
296.9598067289
 20
153.0364853973
 11
299.4598067289
 21
153.0364853973
  0
LINE
  5
2F7
100
AcDbEntity
  8
IMPORT_IGES
100
AcDbLine
 62
7
  6
CONTINUOUS
 10
301.6598067289
 20
153.0364853973
 11
304.1598067289
 21
153.0364853973
  0
LINE
  5
2F8
100
AcDbEntity
  8
IMPORT_IGES
100
AcDbLine
 62
7
  6
CONTINUOUS
 10
306.3598067289
 20
153.0364853973
 11
308.8598067289
 21
153.0364853973
  0
LINE
  5
2F9
100
AcDbEntity
  8
IMPORT_IGES
100
AcDbLine
 62
7
  6
CONTINUOUS
 10
311.0598067289
 20
153.0364853973
 11
313.0598067289
 21
153.0364853973
  0
LINE
  5
2FA
100
AcDbEntity
  8
IMPORT_IGES
100
AcDbLine
 62
250
  6
CONTINUOUS
 10
353.0598067289
 20
153.2134978669
 11
353.2598067289
 21
153.2134978669
  0
LINE
  5
2FB
100
AcDbEntity
  8
ASSI
100
AcDbLine
 62
7
  6
CONTINUOUS
 10
287.0598067289
 20
153.6364853973
 11
257.7598067289
 21
153.6364853973
  0
LINE
  5
2FC
100
AcDbEntity
  8
IMPORT_IGES
100
AcDbLine
 62
250
  6
CONTINUOUS
 10
353.0598067289
 20
153.6671132977
 11
353.2598067289
 21
153.6671132977
  0
LINE
  5
2FD
100
AcDbEntity
  8
ASSI
100
AcDbLine
 62
7
  6
CONTINUOUS
 10
311.0598067289
 20
154.0833619217
 11
308.8598067289
 21
154.0833619217
  0
LINE
  5
2FE
100
AcDbEntity
  8
ASSI
100
AcDbLine
 62
7
  6
CONTINUOUS
 10
306.3598067289
 20
154.0833619217
 11
304.1598067289
 21
154.0833619217
  0
LINE
  5
2FF
100
AcDbEntity
  8
ASSI
100
AcDbLine
 62
7
  6
CONTINUOUS
 10
301.6598067289
 20
154.0833619217
 11
299.4598067289
 21
154.0833619217
  0
LINE
  5
300
100
AcDbEntity
  8
ASSI
100
AcDbLine
 62
7
  6
CONTINUOUS
 10
296.9598067289
 20
154.0833619217
 11
294.7598067289
 21
154.0833619217
  0
LINE
  5
301
100
AcDbEntity
  8
ASSI
100
AcDbLine
 62
7
  6
CONTINUOUS
 10
292.2598067289
 20
154.0833619217
 11
290.0598067289
 21
154.0833619217
  0
LINE
  5
302
100
AcDbEntity
  8
IMPORT_IGES
100
AcDbLine
 62
250
  6
CONTINUOUS
 10
353.0598067289
 20
154.2356135727
 11
353.2598067289
 21
154.2356135727
  0
LINE
  5
303
100
AcDbEntity
  8
IMPORT_IGES
100
AcDbLine
 62
7
  6
CONTINUOUS
 10
353.0598067289
 20
154.4822556908
 11
353.2598067289
 21
154.4822556908
  0
LINE
  5
304
100
AcDbEntity
  8
IMPORT_IGES
100
AcDbLine
 62
7
  6
CONTINUOUS
 10
353.0598067289
 20
154.7670442993
 11
353.2598067289
 21
154.7670442993
  0
LINE
  5
305
100
AcDbEntity
  8
IMPORT_IGES
100
AcDbLine
 62
7
  6
CONTINUOUS
 10
353.2598067289
 20
154.7864853973
 11
370.0598067289
 21
154.7864853973
  0
LINE
  5
306
100
AcDbEntity
  8
IMPORT_IGES
100
AcDbLine
 62
250
  6
CONTINUOUS
 10
353.0598067289
 20
154.9641875616
 11
353.2598067289
 21
154.9641875616
  0
LINE
  5
307
100
AcDbEntity
  8
IMPORT_IGES
100
AcDbLine
 62
7
  6
CONTINUOUS
 10
290.0598067289
 20
155.5364853973
 11
292.2598067289
 21
155.5364853973
  0
LINE
  5
308
100
AcDbEntity
  8
IMPORT_IGES
100
AcDbLine
 62
7
  6
CONTINUOUS
 10
294.7598067289
 20
155.5364853973
 11
296.9598067289
 21
155.5364853973
  0
LINE
  5
309
100
AcDbEntity
  8
IMPORT_IGES
100
AcDbLine
 62
7
  6
CONTINUOUS
 10
299.4598067289
 20
155.5364853973
 11
301.6598067289
 21
155.5364853973
  0
LINE
  5
30A
100
AcDbEntity
  8
IMPORT_IGES
100
AcDbLine
 62
7
  6
CONTINUOUS
 10
304.1598067289
 20
155.5364853973
 11
306.3598067289
 21
155.5364853973
  0
LINE
  5
30B
100
AcDbEntity
  8
IMPORT_IGES
100
AcDbLine
 62
7
  6
CONTINUOUS
 10
308.8598067289
 20
155.5364853973
 11
311.0598067289
 21
155.5364853973
  0
LINE
  5
30C
100
AcDbEntity
  8
IMPORT_IGES
100
AcDbLine
 62
250
  6
CONTINUOUS
 10
353.0598067289
 20
155.621410125
 11
353.2598067289
 21
155.621410125
  0
LINE
  5
30D
100
AcDbEntity
  8
IMPORT_IGES
100
AcDbLine
 62
250
  6
CONTINUOUS
 10
353.0598067289
 20
156.1794740574
 11
353.2598067289
 21
156.1794740574
  0
LINE
  5
30E
100
AcDbEntity
  8
ASSI
100
AcDbLine
 62
7
  6
CONTINUOUS
 10
341.1832567289
 20
156.2345833973
 11
341.9213487289
 21
156.2345833973
  0
LINE
  5
30F
100
AcDbEntity
  8
ASSI
100
AcDbLine
 62
7
  6
CONTINUOUS
 10
347.1651287289
 20
156.2586873973
 11
347.9072807289
 21
156.2586873973
  0
LINE
  5
310
100
AcDbEntity
  8
IMPORT_IGES
100
AcDbLine
 62
7
  6
CONTINUOUS
 10
353.0598067289
 20
156.4246160919
 11
353.2598067289
 21
156.4246160919
  0
LINE
  5
311
100
AcDbEntity
  8
IMPORT_IGES
100
AcDbLine
 62
7
  6
CONTINUOUS
 10
353.2598067289
 20
156.7537434036
 11
353.0598067289
 21
156.7537434036
  0
LINE
  5
312
100
AcDbEntity
  8
ASSI
100
AcDbLine
 62
7
  6
CONTINUOUS
 10
341.9213487289
 20
156.8884373973
 11
344.3768017289
 21
156.8884373973
  0
LINE
  5
313
100
AcDbEntity
  8
ASSI
100
AcDbLine
 62
7
  6
CONTINUOUS
 10
345.2832347289
 20
156.8884373973
 11
347.1651287289
 21
156.8884373973
  0
LINE
  5
314
100
AcDbEntity
  8
ASSI
100
AcDbLine
 62
7
  6
CONTINUOUS
 10
347.1651287289
 20
157.6747383973
 11
345.2832347289
 21
157.6747383973
  0
LINE
  5
315
100
AcDbEntity
  8
ASSI
100
AcDbLine
 62
7
  6
CONTINUOUS
 10
344.3685477289
 20
157.6747383973
 11
341.9213487289
 21
157.6747383973
  0
LINE
  5
316
100
AcDbEntity
  8
ASSI
100
AcDbLine
 62
7
  6
CONTINUOUS
 10
347.9072807289
 20
158.3047433973
 11
347.1651287289
 21
158.3047433973
  0
LINE
  5
317
100
AcDbEntity
  8
ASSI
100
AcDbLine
 62
7
  6
CONTINUOUS
 10
341.9213487289
 20
158.3288473973
 11
341.1832567289
 21
158.3288473973
  0
LINE
  5
318
100
AcDbEntity
  8
IMPORT_IGES
100
AcDbLine
 62
7
  6
CONTINUOUS
 10
353.0598067289
 20
158.4061987335
 11
353.2598067289
 21
158.4061987335
  0
LINE
  5
319
100
AcDbEntity
  8
IMPORT_IGES
100
AcDbLine
 62
7
  6
CONTINUOUS
 10
85.7603421654
 20
148.2407375702
 11
85.6518519803
 21
148.2407549901
  0
LWPOLYLINE
  5
31A
100
AcDbEntity
  8
IMPORT_IGES
100
AcDbPolyline
 62
7
  6
CONTINUOUS
 90
25
 70
0
 10
221.3048592818
 20
150.3847366787
 10
221.2527067126
 20
150.3849813161
 10
221.2023823463
 20
150.3877461263
 10
221.1538861831
 20
150.3930311092
 10
221.1072295203
 20
150.4007594124
 10
221.0624010605
 20
150.4110078883
 10
221.0193669117
 20
150.4240070948
 10
220.9781005107
 20
150.4398443794
 10
220.9386284207
 20
150.4584323946
 10
220.9009964396
 20
150.4797396554
 10
220.8650769288
 20
150.5037791821
 10
220.8309975269
 20
150.5305379545
 10
220.7991869468
 20
150.5599454273
 10
220.769716456
 20
150.5919920839
 10
220.7425147871
 20
150.6266874408
 10
220.7177968499
 20
150.6639895024
 10
220.6956652931
 20
150.7039127229
 10
220.676017468
 20
150.746442648
 10
220.6587603394
 20
150.7914939191
 10
220.6438476971
 20
150.8390478161
 10
220.6313257512
 20
150.889123059
 10
220.6212400962
 20
150.9416904494
 10
220.6136059301
 20
150.9967402543
 10
220.6084080548
 20
151.0542822066
 10
220.6056464704
 20
151.1143163062
  0
LINE
  5
31B
100
AcDbEntity
  8
IMPORT_IGES
100
AcDbLine
 62
7
  6
CONTINUOUS
 10
219.7012218643
 20
155.1512809596
 11
221.3710248643
 21
154.6836319596
  0
LINE
  5
31C
100
AcDbEntity
  8
IMPORT_IGES
100
AcDbLine
 62
7
  6
CONTINUOUS
 10
218.1079078643
 20
155.6025649596
 11
219.0061588643
 21
155.3434019596
  0
LINE
  5
31D
100
AcDbEntity
  8
IMPORT_IGES
100
AcDbLine
 62
7
  6
CONTINUOUS
 10
215.6079083634
 20
177.6729219554
 11
215.6079083634
 21
137.2729219554
  0
LINE
  5
31E
100
AcDbEntity
  8
IMPORT_IGES
100
AcDbLine
 62
7
  6
CONTINUOUS
 10
218.1079083634
 20
149.2782373814
 11
218.1079083634
 21
150.1816501607
  0
LINE
  5
31F
100
AcDbEntity
  8
IMPORT_IGES
100
AcDbLine
 62
7
  6
CONTINUOUS
 10
218.1079083634
 20
151.6199237945
 11
218.1079083634
 21
152.5553566944
  0
LINE
  5
320
100
AcDbEntity
  8
IMPORT_IGES
100
AcDbLine
 62
7
  6
CONTINUOUS
 10
218.1079078643
 20
152.8311549596
 11
218.1079078643
 21
153.8210459596
  0
LINE
  5
321
100
AcDbEntity
  8
IMPORT_IGES
100
AcDbLine
 62
7
  6
CONTINUOUS
 10
218.1079078643
 20
155.6025649596
 11
218.1079078643
 21
156.5315879596
  0
LINE
  5
322
100
AcDbEntity
  8
IMPORT_IGES
100
AcDbLine
 62
7
  6
CONTINUOUS
 10
218.1079078643
 20
156.6790689596
 11
218.1079078643
 21
157.5978679596
  0
LINE
  5
323
100
AcDbEntity
  8
IMPORT_IGES
100
AcDbLine
 62
7
  6
CONTINUOUS
 10
218.1079078643
 20
158.9075549596
 11
218.1079078643
 21
159.0392789596
  0
LINE
  5
324
100
AcDbEntity
  8
IMPORT_IGES
100
AcDbLine
 62
7
  6
CONTINUOUS
 10
218.1079078643
 20
160.3437699596
 11
218.1079078643
 21
161.2422909596
  0
LINE
  5
325
100
AcDbEntity
  8
IMPORT_IGES
100
AcDbLine
 62
7
  6
CONTINUOUS
 10
218.1079078643
 20
161.7478979596
 11
218.1079078643
 21
162.6871099596
  0
LINE
  5
326
100
AcDbEntity
  8
IMPORT_IGES
100
AcDbLine
 62
7
  6
CONTINUOUS
 10
218.1079078643
 20
164.4819579596
 11
218.1079078643
 21
165.3096389596
  0
LINE
  5
327
100
AcDbEntity
  8
IMPORT_IGES
100
AcDbLine
 62
7
  6
CONTINUOUS
 10
219.0061588643
 20
154.0643509596
 11
219.0061588643
 21
155.3434019596
  0
LINE
  5
328
100
AcDbEntity
  8
IMPORT_IGES
100
AcDbLine
 62
7
  6
CONTINUOUS
 10
219.7012218643
 20
154.2520519596
 11
219.7012218643
 21
155.1512809596
  0
LINE
  5
329
100
AcDbEntity
  8
IMPORT_IGES
100
AcDbLine
 62
7
  6
CONTINUOUS
 10
219.8687450661
 20
151.1163407607
 11
219.8687450661
 21
151.6199237945
  0
LINE
  5
32A
100
AcDbEntity
  8
IMPORT_IGES
100
AcDbLine
 62
7
  6
CONTINUOUS
 10
220.6056464704
 20
151.1143163062
 11
220.6056464704
 21
151.6510666515
  0
LINE
  5
32B
100
AcDbEntity
  8
IMPORT_IGES
100
AcDbLine
 62
7
  6
CONTINUOUS
 10
222.6073598643
 20
166.7360529596
 11
222.6073598643
 21
165.7157779596
  0
LINE
  5
32C
100
AcDbEntity
  8
IMPORT_IGES
100
AcDbLine
 62
7
  6
CONTINUOUS
 10
222.6073598643
 20
163.9742239596
 11
222.6073598643
 21
163.0356539596
  0
LINE
  5
32D
100
AcDbEntity
  8
IMPORT_IGES
100
AcDbLine
 62
7
  6
CONTINUOUS
 10
222.6073598643
 20
160.8360159596
 11
222.6073598643
 21
159.8975809596
  0
LINE
  5
32E
100
AcDbEntity
  8
IMPORT_IGES
100
AcDbLine
 62
7
  6
CONTINUOUS
 10
222.6073598643
 20
158.0290769596
 11
222.6073598643
 21
157.0998179596
  0
LINE
  5
32F
100
AcDbEntity
  8
IMPORT_IGES
100
AcDbLine
 62
7
  6
CONTINUOUS
 10
222.6073598643
 20
155.1202729596
 11
222.6073598643
 21
154.2116979596
  0
LINE
  5
330
100
AcDbEntity
  8
IMPORT_IGES
100
AcDbLine
 62
7
  6
CONTINUOUS
 10
222.6076298643
 20
162.6871099596
 11
222.6076298643
 21
161.7478979596
  0
LWPOLYLINE
  5
331
100
AcDbEntity
  8
IMPORT_IGES
100
AcDbPolyline
 62
7
  6
CONTINUOUS
 90
19
 70
0
 10
219.8687450661
 20
151.1163407607
 10
219.8673413415
 20
151.07871758
 10
219.8636107089
 20
151.0419255394
 10
219.8575531684
 20
151.0059646391
 10
219.8491846217
 20
150.9707977036
 10
219.8384891671
 20
150.9364619083
 10
219.8254190994
 20
150.9030687794
 10
219.8099968575
 20
150.8706112209
 10
219.7922000025
 20
150.8390963287
 10
219.7719135125
 20
150.808656917
 10
219.7491451424
 20
150.779249787
 10
219.7238871373
 20
150.7509181374
 10
219.6960012101
 20
150.7239243787
 10
219.6654758319
 20
150.6982907173
 10
219.6323225318
 20
150.6739949468
 10
219.5964376097
 20
150.6512328584
 10
219.5577864989
 20
150.6300697161
 10
219.5164037661
 20
150.6104402561
 10
219.4722894113
 20
150.5923444782
  0
LWPOLYLINE
  5
332
100
AcDbEntity
  8
IMPORT_IGES
100
AcDbPolyline
 62
7
  6
CONTINUOUS
 90
22
 70
0
 10
221.867320198
 20
150.9152786971
 10
221.8606569329
 20
150.8717408862
 10
221.8514542911
 20
150.8294004561
 10
221.8397122729
 20
150.7882574069
 10
221.8253307625
 20
150.7481090116
 10
221.8084098755
 20
150.7091579972
 10
221.7892499588
 20
150.6720125447
 10
221.7678752647
 20
150.6367270687
 10
221.7442615408
 20
150.6032471545
 10
221.718636376
 20
150.5720177395
 10
221.6909097847
 20
150.5431334168
 10
221.6611717526
 20
150.5164995932
 10
221.6299198257
 20
150.492277426
 10
221.5971036551
 20
150.4705113486
 10
221.5627735898
 20
150.4511569276
 10
221.5275782225
 20
150.4342420205
 10
221.4915364391
 20
150.4197500392
 10
221.4546293537
 20
150.4076975717
 10
221.4174489018
 20
150.3981622398
 10
221.380192395
 20
150.3911699172
 10
221.3426625217
 20
150.3866947302
 10
221.3048592818
 20
150.3847366787
  0
LWPOLYLINE
  5
333
100
AcDbEntity
  8
IMPORT_IGES
100
AcDbPolyline
 62
250
  6
CONTINUOUS
 90
3
 70
0
 10
237.2337714455
 20
186.2870525239
 10
236.8258889274
 20
185.7719739324
 10
236.7366504664
 20
185.6595444108
  0
LINE
  5
334
100
AcDbEntity
  8
IMPORT_IGES
100
AcDbLine
 62
250
  6
CONTINUOUS
 10
237.7083049589
 20
184.8917778234
 11
238.116638666
 21
185.4080834626
  0
LWPOLYLINE
  5
335
100
AcDbEntity
  8
IMPORT_IGES
100
AcDbPolyline
 62
250
  6
CONTINUOUS
 90
3
 70
0
 10
238.116638666
 20
185.4080834626
 10
238.1848155532
 20
185.493407476
 10
238.206181514
 20
185.5197343602
  0
LINE
  5
336
100
AcDbEntity
  8
IMPORT_IGES
100
AcDbLine
 62
250
  6
CONTINUOUS
 10
240.2358061689
 20
182.5773236016
 11
240.6911363126
 21
183.1454774175
  0
LWPOLYLINE
  5
337
100
AcDbEntity
  8
IMPORT_IGES
100
AcDbPolyline
 62
250
  6
CONTINUOUS
 90
4
 70
0
 10
239.8922736466
 20
184.0031393145
 10
239.8707679608
 20
183.9767917205
 10
239.8406358332
 20
183.9395300776
 10
239.3876072855
 20
183.3736597702
  0
LINE
  5
338
100
AcDbEntity
  8
IMPORT_IGES
100
AcDbLine
 62
250
  6
CONTINUOUS
 10
240.6911363126
 20
183.1454774175
 11
240.7431317903
 21
183.2094582302
  0
LINE
  5
339
100
AcDbEntity
  8
IMPORT_IGES
100
AcDbLine
 62
7
  6
CONTINUOUS
 10
220.1092498643
 20
158.9682879596
 11
222.6073598643
 21
159.8975809596
  0
LWPOLYLINE
  5
33A
100
AcDbEntity
  8
IMPORT_IGES
100
AcDbPolyline
 62
7
  6
CONTINUOUS
 90
5
 70
0
 10
219.4722894113
 20
150.5923444782
 10
219.3334032703
 20
150.5475381691
 10
219.1913106177
 20
150.5026259536
 10
219.0460114534
 20
150.4576078317
 10
218.8974676798
 20
150.4126180594
  0
LINE
  5
33B
100
AcDbEntity
  8
IMPORT_IGES
100
AcDbLine
 62
7
  6
CONTINUOUS
 10
218.1079078643
 20
152.8311549596
 11
222.6073598643
 21
154.2116979596
  0
LINE
  5
33C
100
AcDbEntity
  8
IMPORT_IGES
100
AcDbLine
 62
7
  6
CONTINUOUS
 10
218.8974676798
 20
150.4126180594
 11
218.4329782668
 21
150.2756707463
  0
LINE
  5
33D
100
AcDbEntity
  8
IMPORT_IGES
100
AcDbLine
 62
7
  6
CONTINUOUS
 10
218.4329782668
 20
150.2756707463
 11
218.1079083634
 21
150.1816501607
  0
LINE
  5
33E
100
AcDbEntity
  8
IMPORT_IGES
100
AcDbLine
 62
7
  6
CONTINUOUS
 10
219.5102478643
 20
164.8581009596
 11
222.6073598643
 21
165.7157779596
  0
LWPOLYLINE
  5
33F
100
AcDbEntity
  8
IMPORT_IGES
100
AcDbPolyline
 62
7
  6
CONTINUOUS
 90
25
 70
0
 10
79.9449222398
 20
150.2291922639
 10
79.9403267377
 20
150.2286873444
 10
79.9355954316
 20
150.2278283919
 10
79.9307283214
 20
150.2266154065
 10
79.9257101955
 20
150.2250664006
 10
79.9205562656
 20
150.2231633618
 10
79.9153121664
 20
150.2208522524
 10
79.9099540046
 20
150.2181167234
 10
79.9045056735
 20
150.2149731239
 10
79.8990844884
 20
150.2114164633
 10
79.8936673101
 20
150.2074093174
 10
79.8882772778
 20
150.2029891104
 10
79.8831011238
 20
150.1982631248
 10
79.8781474756
 20
150.1932002183
 10
79.8734077057
 20
150.1878315331
 10
79.8690426641
 20
150.1823577786
 10
79.8650914401
 20
150.1767893077
 10
79.8615149445
 20
150.1711157675
 10
79.8583567595
 20
150.1655068087
 10
79.8556453885
 20
150.1599946805
 10
79.8533523283
 20
150.1545471337
 10
79.8514356505
 20
150.1492370715
 10
79.8498813793
 20
150.144088795
 10
79.8487034907
 20
150.1390780031
 10
79.8479019846
 20
150.1342046958
  0
LINE
  5
340
100
AcDbEntity
  8
IMPORT_IGES
100
AcDbLine
 62
7
  6
CONTINUOUS
 10
80.0611196517
 20
150.0243764429
 11
81.0971160959
 21
150.1134898349
  0
LINE
  5
341
100
AcDbEntity
  8
IMPORT_IGES
100
AcDbLine
 62
7
  6
CONTINUOUS
 10
83.947965433
 20
150.3587137847
 11
84.823900933
 21
150.4340632847
  0
LINE
  5
342
100
AcDbEntity
  8
IMPORT_IGES
100
AcDbLine
 62
7
  6
CONTINUOUS
 10
81.359511433
 20
150.1360432847
 11
83.6285631004
 21
150.3312322475
  0
LINE
  5
343
100
AcDbEntity
  8
IMPORT_IGES
100
AcDbLine
 62
7
  6
CONTINUOUS
 10
83.8773656718
 20
150.5674765347
 11
81.1584778358
 21
150.3335985661
  0
LINE
  5
344
100
AcDbEntity
  8
IMPORT_IGES
100
AcDbLine
 62
7
  6
CONTINUOUS
 10
84.8327661617
 20
150.6496699848
 11
84.1967702553
 21
150.5949605425
  0
LINE
  5
345
100
AcDbEntity
  8
IMPORT_IGES
100
AcDbLine
 62
7
  6
CONTINUOUS
 10
80.896102338
 20
150.3110265488
 11
79.9449222398
 21
150.2291922639
  0
LINE
  5
346
100
AcDbEntity
  8
IMPORT_IGES
100
AcDbLine
 62
7
  6
CONTINUOUS
 10
311.0598067289
 20
159.0364853973
 11
308.8598067289
 21
159.0364853973
  0
LINE
  5
347
100
AcDbEntity
  8
IMPORT_IGES
100
AcDbLine
 62
7
  6
CONTINUOUS
 10
306.3598067289
 20
159.0364853973
 11
304.1598067289
 21
159.0364853973
  0
LINE
  5
348
100
AcDbEntity
  8
IMPORT_IGES
100
AcDbLine
 62
7
  6
CONTINUOUS
 10
301.6598067289
 20
159.0364853973
 11
299.4598067289
 21
159.0364853973
  0
LINE
  5
349
100
AcDbEntity
  8
IMPORT_IGES
100
AcDbLine
 62
7
  6
CONTINUOUS
 10
296.9598067289
 20
159.0364853973
 11
294.7598067289
 21
159.0364853973
  0
LINE
  5
34A
100
AcDbEntity
  8
IMPORT_IGES
100
AcDbLine
 62
7
  6
CONTINUOUS
 10
290.0598067289
 20
159.0364853973
 11
292.2598067289
 21
159.0364853973
  0
LINE
  5
34B
100
AcDbEntity
  8
IMPORT_IGES
100
AcDbLine
 62
7
  6
CONTINUOUS
 10
353.0598067289
 20
159.7864853973
 11
370.0598067289
 21
159.7864853973
  0
LINE
  5
34C
100
AcDbEntity
  8
IMPORT_IGES
100
AcDbLine
 62
7
  6
CONTINUOUS
 10
353.0598067289
 20
160.4474676783
 11
353.2598067289
 21
160.4474676783
  0
LINE
  5
34D
100
AcDbEntity
  8
ASSI
100
AcDbLine
 62
7
  6
CONTINUOUS
 10
311.0598067289
 20
160.4896088729
 11
308.8598067289
 21
160.4896088729
  0
LINE
  5
34E
100
AcDbEntity
  8
ASSI
100
AcDbLine
 62
7
  6
CONTINUOUS
 10
306.3598067289
 20
160.4896088729
 11
304.1598067289
 21
160.4896088729
  0
LINE
  5
34F
100
AcDbEntity
  8
ASSI
100
AcDbLine
 62
7
  6
CONTINUOUS
 10
301.6598067289
 20
160.4896088729
 11
299.4598067289
 21
160.4896088729
  0
LINE
  5
350
100
AcDbEntity
  8
ASSI
100
AcDbLine
 62
7
  6
CONTINUOUS
 10
296.9598067289
 20
160.4896088729
 11
294.7598067289
 21
160.4896088729
  0
LINE
  5
351
100
AcDbEntity
  8
ASSI
100
AcDbLine
 62
7
  6
CONTINUOUS
 10
292.2598067289
 20
160.4896088729
 11
290.0598067289
 21
160.4896088729
  0
LINE
  5
352
100
AcDbEntity
  8
IMPORT_IGES
100
AcDbLine
 62
7
  6
CONTINUOUS
 10
353.0598067289
 20
160.8243436749
 11
353.2598067289
 21
160.8243436749
  0
LINE
  5
353
100
AcDbEntity
  8
ASSI
100
AcDbLine
 62
7
  6
CONTINUOUS
 10
287.0598067289
 20
160.9364853973
 11
257.7598067289
 21
160.9364853973
  0
LINE
  5
354
100
AcDbEntity
  8
IMPORT_IGES
100
AcDbLine
 62
7
  6
CONTINUOUS
 10
353.0598067289
 20
161.115953439
 11
353.2598067289
 21
161.115953439
  0
LINE
  5
355
100
AcDbEntity
  8
IMPORT_IGES
100
AcDbLine
 62
7
  6
CONTINUOUS
 10
287.0598067289
 20
161.5364853973
 11
290.0598067289
 21
161.5364853973
  0
LINE
  5
356
100
AcDbEntity
  8
IMPORT_IGES
100
AcDbLine
 62
7
  6
CONTINUOUS
 10
292.2598067289
 20
161.5364853973
 11
294.7598067289
 21
161.5364853973
  0
LINE
  5
357
100
AcDbEntity
  8
IMPORT_IGES
100
AcDbLine
 62
7
  6
CONTINUOUS
 10
296.9598067289
 20
161.5364853973
 11
299.4598067289
 21
161.5364853973
  0
LINE
  5
358
100
AcDbEntity
  8
IMPORT_IGES
100
AcDbLine
 62
7
  6
CONTINUOUS
 10
301.6598067289
 20
161.5364853973
 11
304.1598067289
 21
161.5364853973
  0
LINE
  5
359
100
AcDbEntity
  8
IMPORT_IGES
100
AcDbLine
 62
7
  6
CONTINUOUS
 10
306.3598067289
 20
161.5364853973
 11
308.8598067289
 21
161.5364853973
  0
LINE
  5
35A
100
AcDbEntity
  8
IMPORT_IGES
100
AcDbLine
 62
7
  6
CONTINUOUS
 10
311.0598067289
 20
161.5364853973
 11
313.0598067289
 21
161.5364853973
  0
LINE
  5
35B
100
AcDbEntity
  8
IMPORT_IGES
100
AcDbLine
 62
7
  6
CONTINUOUS
 10
222.6076298643
 20
161.7478979596
 11
218.1079078643
 21
161.7478979596
  0
LINE
  5
35C
100
AcDbEntity
  8
IMPORT_IGES
100
AcDbLine
 62
7
  6
CONTINUOUS
 10
353.0598067289
 20
162.1613148982
 11
353.2598067289
 21
162.1613148982
  0
LINE
  5
35D
100
AcDbEntity
  8
IMPORT_IGES
100
AcDbLine
 62
7
  6
CONTINUOUS
 10
257.7598067289
 20
162.2864853887
 11
243.2243746725
 21
162.2864853887
  0
LINE
  5
35E
100
AcDbEntity
  8
IMPORT_IGES
100
AcDbLine
 62
7
  6
CONTINUOUS
 10
353.0598067289
 20
162.4358714754
 11
353.2598067289
 21
162.4358714754
  0
LINE
  5
35F
100
AcDbEntity
  8
IMPORT_IGES
100
AcDbLine
 62
7
  6
CONTINUOUS
 10
218.1079078643
 20
162.6871099596
 11
222.6076298643
 21
162.6871099596
  0
LINE
  5
360
100
AcDbEntity
  8
IMPORT_IGES
100
AcDbLine
 62
7
  6
CONTINUOUS
 10
353.0598067289
 20
162.7871675427
 11
353.2598067289
 21
162.7871675427
  0
LINE
  5
361
100
AcDbEntity
  8
IMPORT_IGES
100
AcDbLine
 62
7
  6
CONTINUOUS
 10
353.0598067289
 20
162.9423518116
 11
353.2598067289
 21
162.9423518116
  0
LINE
  5
362
100
AcDbEntity
  8
IMPORT_IGES
100
AcDbLine
 62
250
  6
CONTINUOUS
 10
353.0598067289
 20
163.0446709405
 11
353.2598067289
 21
163.0446709405
  0
LINE
  5
363
100
AcDbEntity
  8
IMPORT_IGES
100
AcDbLine
 62
250
  6
CONTINUOUS
 10
353.0598067289
 20
163.3228668181
 11
353.2598067289
 21
163.3228668181
  0
LINE
  5
364
100
AcDbEntity
  8
IMPORT_IGES
100
AcDbLine
 62
7
  6
CONTINUOUS
 10
82.1133411785
 20
163.3306194147
 11
81.1887099785
 21
163.3306194147
  0
LINE
  5
365
100
AcDbEntity
  8
IMPORT_IGES
100
AcDbLine
 62
7
  6
CONTINUOUS
 10
76.9486496882
 20
163.3306194147
 11
76.0240179785
 21
163.3306194147
  0
LINE
  5
366
100
AcDbEntity
  8
IMPORT_IGES
100
AcDbLine
 62
250
  6
CONTINUOUS
 10
353.0598067289
 20
163.7250937159
 11
353.2598067289
 21
163.7250937159
  0
LINE
  5
367
100
AcDbEntity
  8
IMPORT_IGES
100
AcDbLine
 62
7
  6
CONTINUOUS
 10
290.0598067289
 20
163.8764853973
 11
292.2598067289
 21
163.8764853973
  0
LINE
  5
368
100
AcDbEntity
  8
IMPORT_IGES
100
AcDbLine
 62
7
  6
CONTINUOUS
 10
294.7598067289
 20
163.8764853973
 11
296.9598067289
 21
163.8764853973
  0
LINE
  5
369
100
AcDbEntity
  8
IMPORT_IGES
100
AcDbLine
 62
7
  6
CONTINUOUS
 10
299.4598067289
 20
163.8764853973
 11
301.6598067289
 21
163.8764853973
  0
LINE
  5
36A
100
AcDbEntity
  8
IMPORT_IGES
100
AcDbLine
 62
7
  6
CONTINUOUS
 10
304.1598067289
 20
163.8764853973
 11
306.3598067289
 21
163.8764853973
  0
LINE
  5
36B
100
AcDbEntity
  8
IMPORT_IGES
100
AcDbLine
 62
7
  6
CONTINUOUS
 10
308.8598067289
 20
163.8764853973
 11
311.0598067289
 21
163.8764853973
  0
LINE
  5
36C
100
AcDbEntity
  8
IMPORT_IGES
100
AcDbLine
 62
7
  6
CONTINUOUS
 10
79.5276795785
 20
163.9426194147
 11
78.6096795785
 21
163.9426194147
  0
LINE
  5
36D
100
AcDbEntity
  8
IMPORT_IGES
100
AcDbLine
 62
250
  6
CONTINUOUS
 10
353.0598067289
 20
164.351437636
 11
353.2598067289
 21
164.351437636
  0
LINE
  5
36E
100
AcDbEntity
  8
IMPORT_IGES
100
AcDbLine
 62
7
  6
CONTINUOUS
 10
353.0598067289
 20
164.5931020016
 11
353.2598067289
 21
164.5931020016
  0
LINE
  5
36F
100
AcDbEntity
  8
IMPORT_IGES
100
AcDbLine
 62
7
  6
CONTINUOUS
 10
287.0598067289
 20
164.7864853973
 11
313.0598067289
 21
164.7864853973
  0
LINE
  5
370
100
AcDbEntity
  8
IMPORT_IGES
100
AcDbLine
 62
7
  6
CONTINUOUS
 10
353.0598067289
 20
165.3656123216
 11
353.2598067289
 21
165.3656123216
  0
LINE
  5
371
100
AcDbEntity
  8
IMPORT_IGES
100
AcDbLine
 62
7
  6
CONTINUOUS
 10
353.2598067289
 20
165.6725699837
 11
353.0598067289
 21
165.6725699837
  0
LINE
  5
372
100
AcDbEntity
  8
IMPORT_IGES
100
AcDbLine
 62
250
  6
CONTINUOUS
 10
353.0598067289
 20
165.9638074258
 11
353.2598067289
 21
165.9638074258
  0
LINE
  5
373
100
AcDbEntity
  8
IMPORT_IGES
100
AcDbLine
 62
7
  6
CONTINUOUS
 10
353.0598067289
 20
166.2864853824
 11
353.2598067289
 21
166.2864853824
  0
LINE
  5
374
100
AcDbEntity
  8
IMPORT_IGES
100
AcDbLine
 62
7
  6
CONTINUOUS
 10
363.7669135101
 20
167.7864853974
 11
369.5598067289
 21
167.7864853974
  0
LINE
  5
375
100
AcDbEntity
  8
ASSI
100
AcDbLine
 62
7
  6
CONTINUOUS
 10
353.0598067289
 20
167.8864853983
 11
363.4669135101
 21
167.8864854014
  0
LINE
  5
376
100
AcDbEntity
  8
IMPORT_IGES
100
AcDbLine
 62
7
  6
CONTINUOUS
 10
82.1133411785
 20
168.5326194147
 11
81.1887099785
 21
168.5326194147
  0
LINE
  5
377
100
AcDbEntity
  8
IMPORT_IGES
100
AcDbLine
 62
7
  6
CONTINUOUS
 10
76.9486491785
 20
168.5326194147
 11
76.0240179785
 21
168.5326194147
  0
LINE
  5
378
100
AcDbEntity
  8
IMPORT_IGES
100
AcDbLine
 62
7
  6
CONTINUOUS
 10
218.1079078643
 20
160.3437699596
 11
221.0459648643
 21
160.1410889596
  0
LINE
  5
379
100
AcDbEntity
  8
IMPORT_IGES
100
AcDbLine
 62
7
  6
CONTINUOUS
 10
222.6073598643
 20
160.8360159596
 11
218.1079078643
 21
161.2422909596
  0
LINE
  5
37A
100
AcDbEntity
  8
IMPORT_IGES
100
AcDbLine
 62
7
  6
CONTINUOUS
 10
222.6073598643
 20
163.9742239596
 11
219.5102478643
 21
164.8581009596
  0
LINE
  5
37B
100
AcDbEntity
  8
IMPORT_IGES
100
AcDbLine
 62
7
  6
CONTINUOUS
 10
222.6073598643
 20
155.1202729596
 11
218.1079078643
 21
156.5315879596
  0
LINE
  5
37C
100
AcDbEntity
  8
IMPORT_IGES
100
AcDbLine
 62
7
  6
CONTINUOUS
 10
218.1079078643
 20
164.4819579596
 11
222.6073598643
 21
163.0356539596
  0
LINE
  5
37D
100
AcDbEntity
  8
IMPORT_IGES
100
AcDbLine
 62
7
  6
CONTINUOUS
 10
222.6073598643
 20
158.0290769596
 11
220.1092498643
 21
158.9682879596
  0
LINE
  5
37E
100
AcDbEntity
  8
IMPORT_IGES
100
AcDbLine
 62
7
  6
CONTINUOUS
 10
218.1079078643
 20
158.9075549596
 11
221.0337178643
 21
157.7908319596
  0
LINE
  5
37F
100
AcDbEntity
  8
IMPORT_IGES
100
AcDbLine
 62
250
  6
CONTINUOUS
 10
239.8707679472
 20
130.596179084
 11
239.8922736437
 21
130.5698315082
  0
LINE
  5
380
100
AcDbEntity
  8
IMPORT_IGES
100
AcDbLine
 62
250
  6
CONTINUOUS
 10
238.1848239779
 20
129.0795316425
 11
238.206181749
 21
129.0532372185
  0
LINE
  5
381
100
AcDbEntity
  8
IMPORT_IGES
100
AcDbLine
 62
250
  6
CONTINUOUS
 10
240.7431317903
 20
131.3635125647
 11
240.6911363135
 21
131.4274933798
  0
LINE
  5
382
100
AcDbEntity
  8
IMPORT_IGES
100
AcDbLine
 62
250
  6
CONTINUOUS
 10
239.6983405724
 20
130.8106309941
 11
239.8707679472
 21
130.596179084
  0
LINE
  5
383
100
AcDbEntity
  8
IMPORT_IGES
100
AcDbLine
 62
250
  6
CONTINUOUS
 10
240.6911363135
 20
131.4274933798
 11
240.2358061757
 21
131.9956472088
  0
LINE
  5
384
100
AcDbEntity
  8
IMPORT_IGES
100
AcDbLine
 62
250
  6
CONTINUOUS
 10
239.3876073159
 20
131.1993110003
 11
239.6983405724
 21
130.8106309941
  0
LINE
  5
385
100
AcDbEntity
  8
IMPORT_IGES
100
AcDbLine
 62
250
  6
CONTINUOUS
 10
238.116676403
 20
129.1648068841
 11
238.1848239779
 21
129.0795316425
  0
LINE
  5
386
100
AcDbEntity
  8
IMPORT_IGES
100
AcDbLine
 62
250
  6
CONTINUOUS
 10
237.7083053077
 20
129.6811943781
 11
238.116676403
 21
129.1648068841
  0
LINE
  5
387
100
AcDbEntity
  8
IMPORT_IGES
100
AcDbLine
 62
250
  6
CONTINUOUS
 10
236.7366626881
 20
128.9134268138
 11
237.2338091419
 21
128.2859182716
  0
LWPOLYLINE
  5
388
100
AcDbEntity
  8
IMPORT_IGES
100
AcDbPolyline
 62
7
  6
CONTINUOUS
 90
88
 70
0
 10
220.248492339
 20
150.1023845743
 10
220.2543042071
 20
150.0919055875
 10
220.2604705493
 20
150.0811359746
 10
220.2669913654
 20
150.0700757356
 10
220.2738302731
 20
150.0587304802
 10
220.2810236549
 20
150.0470945987
 10
220.2886806578
 20
150.0351512625
 10
220.296796401
 20
150.0228921784
 10
220.3053757654
 20
150.0103256396
 10
220.3145425409
 20
149.9974596973
 10
220.3243109768
 20
149.9842965812
 10
220.3346668238
 20
149.9708340615
 10
220.345691124
 20
149.9570735
 10
220.3573841005
 20
149.9430185741
 10
220.3697455301
 20
149.9286656064
 10
220.382855785
 20
149.9140049256
 10
220.3966975111
 20
149.8990330147
 10
220.4112880626
 20
149.8837533907
 10
220.4267598731
 20
149.8681669328
 10
220.4430909713
 20
149.8522612133
 10
220.4603033286
 20
149.83604866
 10
220.4785952933
 20
149.8195674356
 10
220.4979473419
 20
149.8028072951
 10
220.5183789979
 20
149.7857784835
 10
220.5401471803
 20
149.7685498988
 10
220.5632510184
 20
149.7510927677
 10
220.587691383
 20
149.7334358635
 10
220.6137278047
 20
149.7157344042
 10
220.6415319884
 20
149.6978785029
 10
220.6709322293
 20
149.6799780464
 10
220.7016729443
 20
149.6625179134
 10
220.7338806364
 20
149.6454981314
 10
220.7674288026
 20
149.6289186729
 10
220.8016823511
 20
149.6132643335
 10
220.8364671095
 20
149.598662806
 10
220.8719572502
 20
149.5849863978
 10
220.9080401985
 20
149.5723368259
 10
220.9446501348
 20
149.5607410276
 10
220.9818528787
 20
149.5501720658
 10
221.0197333145
 20
149.5406508456
 10
221.0582900162
 20
149.5321615527
 10
221.0975244098
 20
149.5247200014
 10
221.1375256577
 20
149.5183945407
 10
221.1783450119
 20
149.5131809737
 10
221.2199312203
 20
149.5090834971
 10
221.2622196893
 20
149.5061830504
 10
221.3054616925
 20
149.5044977466
 10
221.3494059563
 20
149.5040094725
 10
221.3932340654
 20
149.5047448286
 10
221.4369594175
 20
149.5067471204
 10
221.480568615
 20
149.5099730423
 10
221.5232030503
 20
149.5143192769
 10
221.56455623
 20
149.5197807826
 10
221.6049346475
 20
149.526362601
 10
221.6443991744
 20
149.5339765397
 10
221.6829063223
 20
149.5426085842
 10
221.7204995797
 20
149.5522727489
 10
221.7573702839
 20
149.5629228855
 10
221.7935681463
 20
149.5745545719
 10
221.8290434555
 20
149.5871722302
 10
221.8638384141
 20
149.6007429777
 10
221.8979471772
 20
149.6152590334
 10
221.9313755897
 20
149.6307281784
 10
221.964183389
 20
149.6471408735
 10
221.9963931911
 20
149.6645000551
 10
222.0279823799
 20
149.6828027868
 10
222.0589428451
 20
149.70203072
 10
222.0892836517
 20
149.7221860445
 10
222.1189957348
 20
149.7432665705
 10
222.1480437887
 20
149.7652473799
 10
222.1764308122
 20
149.7881287498
 10
222.2041538066
 20
149.8119104031
 10
222.2311684705
 20
149.8365665909
 10
222.2575019313
 20
149.8621323718
 10
222.2831270615
 20
149.8885726873
 10
222.3079181769
 20
149.9157566124
 10
222.3320108594
 20
149.9439223884
 10
222.355269527
 20
149.972831774
 10
222.3771617492
 20
150.0016391212
 10
222.3975797208
 20
150.030268624
 10
222.4166312469
 20
150.0587960885
 10
222.4341073119
 20
150.0866032846
 10
222.449865727
 20
150.113467812
 10
222.4640486808
 20
150.1396120711
 10
222.4768737241
 20
150.1650850326
 10
222.4884133736
 20
150.1899030202
 10
222.4985951125
 20
150.2140497101
 10
222.5074189408
 20
150.2375251024
  0
LWPOLYLINE
  5
389
100
AcDbEntity
  8
IMPORT_IGES
100
AcDbPolyline
 62
7
  6
CONTINUOUS
 90
10
 70
0
 10
221.8408335862
 20
151.6510666515
 10
221.8545967521
 20
151.5688287932
 10
221.8657230397
 20
151.4866486825
 10
221.8742124493
 20
151.4045263195
 10
221.8801558794
 20
151.3223774872
 10
221.8834624314
 20
151.2402864025
 10
221.8838594088
 20
151.1585057161
 10
221.8812559131
 20
151.0771196449
 10
221.8757428428
 20
150.9960439719
 10
221.867320198
 20
150.9152786971
  0
LINE
  5
38A
100
AcDbEntity
  8
IMPORT_IGES
100
AcDbLine
 62
7
  6
CONTINUOUS
 10
228.4224114916
 20
134.3464560751
 11
228.4224114916
 21
136.2364854139
  0
LINE
  5
38B
100
AcDbEntity
  8
IMPORT_IGES
100
AcDbLine
 62
7
  6
CONTINUOUS
 10
228.4224114916
 20
137.3364854139
 11
228.4224114916
 21
139.2265147421
  0
LINE
  5
38C
100
AcDbEntity
  8
IMPORT_IGES
100
AcDbLine
 62
7
  6
CONTINUOUS
 10
228.4224114916
 20
175.3464560454
 11
228.4224114916
 21
177.2364853843
  0
LINE
  5
38D
100
AcDbEntity
  8
IMPORT_IGES
100
AcDbLine
 62
7
  6
CONTINUOUS
 10
228.4224114916
 20
178.3364853843
 11
228.4224114916
 21
180.2265147124
  0
LINE
  5
38E
100
AcDbEntity
  8
IMPORT_IGES
100
AcDbLine
 62
7
  6
CONTINUOUS
 10
229.5112640987
 20
134.3464560857
 11
229.5112640987
 21
136.2364854139
  0
LINE
  5
38F
100
AcDbEntity
  8
IMPORT_IGES
100
AcDbLine
 62
7
  6
CONTINUOUS
 10
229.5112640987
 20
137.3364854139
 11
229.5112640987
 21
139.2265147528
  0
LINE
  5
390
100
AcDbEntity
  8
IMPORT_IGES
100
AcDbLine
 62
7
  6
CONTINUOUS
 10
229.5112640987
 20
175.3464560561
 11
229.5112640987
 21
177.2364853843
  0
LINE
  5
391
100
AcDbEntity
  8
IMPORT_IGES
100
AcDbLine
 62
7
  6
CONTINUOUS
 10
229.5112640987
 20
178.3364853843
 11
229.5112640987
 21
180.2265147231
  0
LINE
  5
392
100
AcDbEntity
  8
IMPORT_IGES
100
AcDbLine
 62
250
  6
CONTINUOUS
 10
236.4863764006
 20
184.6684724782
 11
236.3657140713
 21
184.1612637407
  0
LINE
  5
393
100
AcDbEntity
  8
IMPORT_IGES
100
AcDbLine
 62
250
  6
CONTINUOUS
 10
236.5425408309
 20
184.8981737858
 11
236.4863764006
 21
184.6684724782
  0
LINE
  5
394
100
AcDbEntity
  8
IMPORT_IGES
100
AcDbLine
 62
250
  6
CONTINUOUS
 10
236.6109988329
 20
185.1719975668
 11
236.5425408309
 21
184.8981737858
  0
LINE
  5
395
100
AcDbEntity
  8
IMPORT_IGES
100
AcDbLine
 62
250
  6
CONTINUOUS
 10
236.722501879
 20
185.6061228967
 11
236.6109988329
 21
185.1719975668
  0
LWPOLYLINE
  5
396
100
AcDbEntity
  8
IMPORT_IGES
100
AcDbPolyline
 62
250
  6
CONTINUOUS
 90
4
 70
0
 10
236.7366504664
 20
185.6594024482
 10
236.7348661181
 20
185.6529885425
 10
236.7319136019
 20
185.6419748147
 10
236.722501879
 20
185.6061228967
  0
LWPOLYLINE
  5
397
100
AcDbEntity
  8
IMPORT_IGES
100
AcDbPolyline
 62
250
  6
CONTINUOUS
 90
5
 70
0
 10
239.3876074841
 20
183.3736612617
 10
239.3857130189
 20
183.3669724042
 10
239.3824283046
 20
183.3557048831
 10
239.3777278214
 20
183.3398617653
 10
239.3715648824
 20
183.3195494551
  0
LWPOLYLINE
  5
398
100
AcDbEntity
  8
IMPORT_IGES
100
AcDbPolyline
 62
250
  6
CONTINUOUS
 90
3
 70
0
 10
239.3715648824
 20
183.3195494551
 10
239.3548336815
 20
183.2657256417
 10
239.344192172
 20
183.2322230649
  0
LWPOLYLINE
  5
399
100
AcDbEntity
  8
IMPORT_IGES
100
AcDbPolyline
 62
250
  6
CONTINUOUS
 90
20
 70
0
 10
239.344192172
 20
183.2322230649
 10
239.3183828929
 20
183.1530242922
 10
239.3033735117
 20
183.1080064992
 10
239.2868919705
 20
183.0596912031
 10
239.268918161
 20
183.0078310643
 10
239.2493922866
 20
182.9525880774
 10
239.2283000239
 20
182.8943348335
 10
239.2056734863
 20
182.8330145827
 10
239.181413327
 20
182.768819525
 10
239.1555731525
 20
182.7021865149
 10
239.128442496
 20
182.6334066907
 10
239.1001531087
 20
182.5630817628
 10
239.0706369114
 20
182.4913730783
 10
239.0399098341
 20
182.4178856639
 10
239.0080822491
 20
182.3428964967
 10
238.9751484542
 20
182.2669005024
 10
238.9409423071
 20
182.1898254963
 10
238.9054484674
 20
182.1119469486
 10
238.8688194013
 20
182.0338736003
 10
238.831141501
 20
181.9560553891
  0
LWPOLYLINE
  5
39A
100
AcDbEntity
  8
IMPORT_IGES
100
AcDbPolyline
 62
7
  6
CONTINUOUS
 90
19
 70
0
 10
222.5074189408
 20
150.2375251024
 10
222.5379182293
 20
150.328748884
 10
222.5649278228
 20
150.4249609084
 10
222.5884477212
 20
150.5261611757
 10
222.6084254893
 20
150.6325876572
 10
222.6249135624
 20
150.7440023816
 10
222.638069246
 20
150.8596914349
 10
222.6478797902
 20
150.9795446122
 10
222.6543579449
 20
151.1036721183
 10
222.6576992652
 20
151.2316906543
 10
222.6578792294
 20
151.3634919057
 10
222.6549223591
 20
151.4991841869
 10
222.6490977743
 20
151.6387091417
 10
222.6404831565
 20
151.7820796
 10
222.629000824
 20
151.9292827319
 10
222.6146868521
 20
152.0802216918
 10
222.5975532656
 20
152.234864198
 10
222.5775880395
 20
152.3932425322
 10
222.5547911739
 20
152.5553566944
  0
LINE
  5
39B
100
AcDbEntity
  8
IMPORT_IGES
100
AcDbLine
 62
7
  6
CONTINUOUS
 10
353.0598067289
 20
171.7864853973
 11
335.9448753524
 21
171.7864853973
  0
LINE
  5
39C
100
AcDbEntity
  8
ASSI
100
AcDbLine
 62
7
  6
CONTINUOUS
 10
363.4669135102
 20
172.6864853932
 11
353.0598067289
 21
172.6864853963
  0
LINE
  5
39D
100
AcDbEntity
  8
IMPORT_IGES
100
AcDbLine
 62
7
  6
CONTINUOUS
 10
369.5598067289
 20
172.7864853972
 11
363.7669135101
 21
172.7864853972
  0
LINE
  5
39E
100
AcDbEntity
  8
IMPORT_IGES
100
AcDbLine
 62
7
  6
CONTINUOUS
 10
69.4221908151
 20
177.2364853843
 11
70.5110434222
 21
177.2364853843
  0
LINE
  5
39F
100
AcDbEntity
  8
IMPORT_IGES
100
AcDbLine
 62
7
  6
CONTINUOUS
 10
143.4223011533
 20
177.2364853843
 11
144.5111537604
 21
177.2364853843
  0
LINE
  5
3A0
100
AcDbEntity
  8
IMPORT_IGES
100
AcDbLine
 62
7
  6
CONTINUOUS
 10
228.4224114916
 20
177.2364853843
 11
229.5112640987
 21
177.2364853843
  0
LINE
  5
3A1
100
AcDbEntity
  8
IMPORT_IGES
100
AcDbLine
 62
7
  6
CONTINUOUS
 10
353.0598067289
 20
177.7864853973
 11
341.0598067289
 21
177.7864853973
  0
LINE
  5
3A2
100
AcDbEntity
  8
IMPORT_IGES
100
AcDbLine
 62
7
  6
CONTINUOUS
 10
189.9079083634
 20
177.9729219554
 11
215.3079083634
 21
177.9729219554
  0
LINE
  5
3A3
100
AcDbEntity
  8
IMPORT_IGES
100
AcDbLine
 62
7
  6
CONTINUOUS
 10
69.4221908151
 20
178.3364853843
 11
70.5110434222
 21
178.3364853843
  0
LINE
  5
3A4
100
AcDbEntity
  8
IMPORT_IGES
100
AcDbLine
 62
7
  6
CONTINUOUS
 10
143.4223011533
 20
178.3364853843
 11
144.5111537604
 21
178.3364853843
  0
LINE
  5
3A5
100
AcDbEntity
  8
IMPORT_IGES
100
AcDbLine
 62
7
  6
CONTINUOUS
 10
228.4224114916
 20
178.3364853843
 11
229.5112640987
 21
178.3364853843
  0
LWPOLYLINE
  5
3A6
100
AcDbEntity
  8
IMPORT_IGES
100
AcDbPolyline
 62
250
  6
CONTINUOUS
 90
18
 70
0
 10
238.831141229
 20
132.6169160432
 10
238.8685827516
 20
132.539480265
 10
238.9050388324
 20
132.4617406886
 10
238.9404212227
 20
132.3841371955
 10
238.9745816809
 20
132.3072523338
 10
239.0075254964
 20
132.2313737548
 10
239.0393961882
 20
132.156480385
 10
239.0702089965
 20
132.0831041392
 10
239.0998391962
 20
132.0114803452
 10
239.1282171491
 20
131.9411526252
 10
239.1554056964
 20
131.8722674482
 10
239.1812796169
 20
131.8054552687
 10
239.2055186882
 20
131.7410185915
 10
239.2280320344
 20
131.6794195731
 10
239.2489623153
 20
131.6208475167
 10
239.2683620346
 20
131.5652228613
 10
239.2862693947
 20
131.512870983
 10
239.3027051498
 20
131.4640562575
  0
LINE
  5
3A7
100
AcDbEntity
  8
IMPORT_IGES
100
AcDbLine
 62
250
  6
CONTINUOUS
 10
239.3854679571
 20
131.2058508366
 11
239.3876075156
 21
131.1993095008
  0
LINE
  5
3A8
100
AcDbEntity
  8
IMPORT_IGES
100
AcDbLine
 62
250
  6
CONTINUOUS
 10
239.3027051498
 20
131.4640562575
 11
239.3312707717
 21
131.3769983627
  0
LINE
  5
3A9
100
AcDbEntity
  8
IMPORT_IGES
100
AcDbLine
 62
250
  6
CONTINUOUS
 10
239.3312707717
 20
131.3769983627
 11
239.3541078045
 21
131.3059139547
  0
LINE
  5
3AA
100
AcDbEntity
  8
IMPORT_IGES
100
AcDbLine
 62
250
  6
CONTINUOUS
 10
239.3541078045
 20
131.3059139547
 11
239.3854679571
 21
131.2058508366
  0
LWPOLYLINE
  5
3AB
100
AcDbEntity
  8
IMPORT_IGES
100
AcDbPolyline
 62
250
  6
CONTINUOUS
 90
3
 70
0
 10
236.7318173663
 20
128.9313392842
 10
236.7348136157
 20
128.920124311
 10
236.7366626881
 20
128.9135683584
  0
LINE
  5
3AC
100
AcDbEntity
  8
IMPORT_IGES
100
AcDbLine
 62
250
  6
CONTINUOUS
 10
236.7083605976
 20
129.0209278938
 11
236.7318173663
 21
128.9313392842
  0
LINE
  5
3AD
100
AcDbEntity
  8
IMPORT_IGES
100
AcDbLine
 62
250
  6
CONTINUOUS
 10
236.6419634935
 20
129.2786572804
 11
236.7083605976
 21
129.0209278938
  0
LINE
  5
3AE
100
AcDbEntity
  8
IMPORT_IGES
100
AcDbLine
 62
250
  6
CONTINUOUS
 10
236.5959125946
 20
129.4607070233
 11
236.6419634935
 21
129.2786572804
  0
LINE
  5
3AF
100
AcDbEntity
  8
IMPORT_IGES
100
AcDbLine
 62
250
  6
CONTINUOUS
 10
236.5075127653
 20
129.8180933795
 11
236.5959125946
 21
129.4607070233
  0
LINE
  5
3B0
100
AcDbEntity
  8
IMPORT_IGES
100
AcDbLine
 62
250
  6
CONTINUOUS
 10
236.4276480214
 20
130.1493069232
 11
236.5075127653
 21
129.8180933795
  0
LINE
  5
3B1
100
AcDbEntity
  8
IMPORT_IGES
100
AcDbLine
 62
250
  6
CONTINUOUS
 10
236.365715095
 20
130.4117069037
 11
236.4276480214
 21
130.1493069232
  0
LWPOLYLINE
  5
3B2
100
AcDbEntity
  8
IMPORT_IGES
100
AcDbPolyline
 62
7
  6
CONTINUOUS
 90
10
 70
0
 10
243.2293095355
 20
162.5343416215
 10
243.1156824913
 20
164.8489367186
 10
242.9613366758
 20
167.1597326807
 10
242.7662720891
 20
169.4667295077
 10
242.5304020124
 20
171.7706483257
 10
242.2538131644
 20
174.0707680086
 10
241.9367657013
 20
176.3649251784
 10
241.5793463417
 20
178.6523987092
 10
241.1814683671
 20
180.9339097268
 10
240.7431317772
 20
183.2094582314
  0
LINE
  5
3B3
100
AcDbEntity
  8
IMPORT_IGES
100
AcDbLine
 62
7
  6
CONTINUOUS
 10
243.2254884672
 20
162.091997024
 11
243.2518545825
 21
159.8762213033
  0
LWPOLYLINE
  5
3B4
100
AcDbEntity
  8
IMPORT_IGES
100
AcDbPolyline
 62
7
  6
CONTINUOUS
 90
6
 70
0
 10
243.22442569
 20
152.191002105
 10
243.2248227815
 20
152.1413640492
 10
243.2255077483
 20
152.101263451
 10
243.2264871366
 20
152.0707606825
 10
243.2277544004
 20
152.0498771908
 10
243.2293095395
 20
152.0386298827
  0
LINE
  5
3B5
100
AcDbEntity
  8
IMPORT_IGES
100
AcDbLine
 62
7
  6
CONTINUOUS
 10
243.2518545825
 20
159.8762213033
 11
243.2603932346
 21
158.8442976376
  0
LINE
  5
3B6
100
AcDbEntity
  8
IMPORT_IGES
100
AcDbLine
 62
7
  6
CONTINUOUS
 10
243.2244402103
 20
162.2553959041
 11
243.2254884672
 21
162.091997024
  0
LINE
  5
3B7
100
AcDbEntity
  8
IMPORT_IGES
100
AcDbLine
 62
7
  6
CONTINUOUS
 10
243.2603932346
 20
158.8442976376
 11
243.2644228013
 21
157.9640819735
  0
LINE
  5
3B8
100
AcDbEntity
  8
IMPORT_IGES
100
AcDbLine
 62
7
  6
CONTINUOUS
 10
243.2644228013
 20
157.9640819735
 11
243.2652713382
 21
157.0666039181
  0
LINE
  5
3B9
100
AcDbEntity
  8
IMPORT_IGES
100
AcDbLine
 62
7
  6
CONTINUOUS
 10
243.2244435098
 20
152.3184017787
 11
243.22442569
 21
152.191002105
  0
LINE
  5
3BA
100
AcDbEntity
  8
IMPORT_IGES
100
AcDbLine
 62
7
  6
CONTINUOUS
 10
243.2652713382
 20
157.0666039181
 11
243.2628151644
 21
156.1742343263
  0
LINE
  5
3BB
100
AcDbEntity
  8
IMPORT_IGES
100
AcDbLine
 62
7
  6
CONTINUOUS
 10
243.2628151644
 20
156.1742343263
 11
243.2574332764
 21
155.3138735197
  0
LINE
  5
3BC
100
AcDbEntity
  8
IMPORT_IGES
100
AcDbLine
 62
7
  6
CONTINUOUS
 10
243.2263713396
 20
152.5774365876
 11
243.2244435098
 21
152.3184017787
  0
LINE
  5
3BD
100
AcDbEntity
  8
IMPORT_IGES
100
AcDbLine
 62
7
  6
CONTINUOUS
 10
243.2574332764
 20
155.3138735197
 11
243.2478589266
 21
154.3238395762
  0
LINE
  5
3BE
100
AcDbEntity
  8
IMPORT_IGES
100
AcDbLine
 62
7
  6
CONTINUOUS
 10
243.2478589266
 20
154.3238395762
 11
243.2263713396
 21
152.5774365876
  0
LWPOLYLINE
  5
3BF
100
AcDbEntity
  8
IMPORT_IGES
100
AcDbPolyline
 62
7
  6
CONTINUOUS
 90
7
 70
0
 10
243.2293095355
 20
162.534340912
 10
243.2277562875
 20
162.5231109304
 10
243.2264901437
 20
162.5022704544
 10
243.2255111042
 20
162.4718418093
 10
243.2248257461
 20
162.4318541009
 10
243.2244274923
 20
162.3823714208
 10
243.2244402103
 20
162.2553959041
  0
LWPOLYLINE
  5
3C0
100
AcDbEntity
  8
IMPORT_IGES
100
AcDbPolyline
 62
250
  6
CONTINUOUS
 90
22
 70
0
 10
237.7083049516
 20
129.6811928944
 10
237.6917769297
 20
129.6208495093
 10
237.6713239439
 20
129.5611986311
 10
237.6470595231
 20
129.5026537689
 10
237.619146032
 20
129.4456891667
 10
237.5876631221
 20
129.3905642552
 10
237.5525668864
 20
129.337348415
 10
237.5140772759
 20
129.2863923136
 10
237.472445461
 20
129.2380194512
 10
237.4276932646
 20
129.1922824231
 10
237.3800882455
 20
129.1494573091
 10
237.3299195143
 20
129.1098225336
 10
237.277240299
 20
129.073420214
 10
237.222388418
 20
129.0404671358
 10
237.1656944195
 20
129.0111597098
 10
237.1072144216
 20
128.985507029
 10
237.0473210872
 20
128.963678432
 10
236.9864064884
 20
128.9458068827
 10
236.9245282101
 20
128.9318337427
 10
236.8619571996
 20
128.9217764241
 10
236.7991924352
 20
128.9156830842
 10
236.7366625565
 20
128.9135684338
  0
LWPOLYLINE
  5
3C1
100
AcDbEntity
  8
IMPORT_IGES
100
AcDbPolyline
 62
7
  6
CONTINUOUS
 90
22
 70
0
 10
238.2060720017
 20
129.0532629279
 10
238.1891327964
 20
128.9914483057
 10
238.1685170301
 20
128.9313272864
 10
238.1442247028
 20
128.87289987
 10
238.1161226784
 20
128.8159496881
 10
238.084344093
 20
128.760693109
 10
238.0492883551
 20
128.7077792379
 10
238.0109222606
 20
128.6572345836
 10
237.9692790136
 20
128.6090326372
 10
237.9248576345
 20
128.5637429772
 10
237.8776263709
 20
128.5213992764
 10
237.8276169752
 20
128.4819678619
 10
237.7754237244
 20
128.4459172944
 10
237.7210213258
 20
128.4132863144
 10
237.6644350722
 20
128.3840361814
 10
237.6063351193
 20
128.3585192344
 10
237.5467033297
 20
128.3367876782
 10
237.4855578407
 20
128.3187893079
 10
237.4236232207
 20
128.3047198485
 10
237.3611409922
 20
128.2946445415
 10
237.2978696326
 20
128.2884981452
 10
237.2338091419
 20
128.2862806598
  0
LWPOLYLINE
  5
3C2
100
AcDbEntity
  8
IMPORT_IGES
100
AcDbPolyline
 62
250
  6
CONTINUOUS
 90
22
 70
0
 10
236.365715095
 20
130.4117054684
 10
236.4293648209
 20
130.5735858997
 10
236.4997218066
 20
130.7304247914
 10
236.5767860521
 20
130.8822221437
 10
236.660748316
 20
131.0290172315
 10
236.7514178398
 20
131.1707707799
 10
236.8482223478
 20
131.3073649633
 10
236.9514040821
 20
131.4391161582
 10
237.0607208007
 20
131.5657079881
 10
237.1748735025
 20
131.6860734986
 10
237.2936987963
 20
131.7999252702
 10
237.4173600733
 20
131.9075507224
 10
237.5450485066
 20
132.0087451589
 10
237.6769773555
 20
132.1036127097
 10
237.8129333606
 20
132.1920492448
 10
237.9514679166
 20
132.2735376779
 10
238.0922013543
 20
132.3478540884
 10
238.2355133428
 20
132.4152223969
 10
238.3810942843
 20
132.4757972791
 10
238.5288409796
 20
132.5296302935
 10
238.6788566278
 20
132.5766698815
 10
238.831141229
 20
132.6169160432
  0
LINE
  5
3C3
100
AcDbEntity
  8
IMPORT_IGES
100
AcDbLine
 62
7
  6
CONTINUOUS
 10
341.0598067289
 20
177.7864853973
 11
313.0598067289
 21
165.7864853973
  0
LWPOLYLINE
  5
3C4
100
AcDbEntity
  8
IMPORT_IGES
100
AcDbPolyline
 62
7
  6
CONTINUOUS
 90
200
 70
0
 10
69.4742339506
 20
186.2866901449
 10
69.1425150243
 20
186.2840125867
 10
68.8120476385
 20
186.2764162763
 10
68.482831793
 20
186.2639012137
 10
68.1547493158
 20
186.2464413354
 10
67.8279183789
 20
186.2240627049
 10
67.5026934992
 20
186.1968435127
 10
67.1790765466
 20
186.1647654058
 10
66.8570656512
 20
186.1278467372
 10
66.5370097201
 20
186.0862207571
 10
66.2189187882
 20
186.0398795748
 10
65.9027828207
 20
185.988831081
 10
65.5889206207
 20
185.9332321976
 10
65.2773617906
 20
185.8730815296
 10
64.968076728
 20
185.808380472
 10
64.6612954281
 20
185.739290132
 10
64.3569995463
 20
185.6658011411
 10
64.0552074271
 20
185.5879228677
 10
63.7562040999
 20
185.5058445242
 10
63.4598865867
 20
185.4195191126
 10
63.1663578655
 20
185.3289936309
 10
62.8762118991
 20
185.2345982848
 10
62.5894851141
 20
185.1363195479
 10
62.3061410839
 20
185.0341709467
 10
62.0266644919
 20
184.9285232663
 10
61.7512697306
 20
184.8194651978
 10
61.4797424076
 20
184.7069080502
 10
61.2119240289
 20
184.5909565355
 10
60.9478804882
 20
184.4716688835
 10
60.6875458918
 20
184.3489868644
 10
60.430564065
 20
184.2228405012
 10
60.1770547521
 20
184.0933208515
 10
59.9268982088
 20
183.9603368575
 10
59.6793790265
 20
183.8235453693
 10
59.4344967158
 20
183.6829548794
 10
59.1922517662
 20
183.5385568953
 10
58.951930237
 20
183.389982789
 10
58.7133969251
 20
183.2371962734
 10
58.4767870337
 20
183.0802336358
 10
58.2417922318
 20
182.9188351102
 10
58.0083025495
 20
182.7529530254
 10
57.7764279567
 20
182.5826350528
 10
57.5461900321
 20
182.4077644401
 10
57.3175491129
 20
182.2283138182
 10
57.0905448618
 20
182.0443105563
 10
56.8653178469
 20
181.8557200105
 10
56.6418072445
 20
181.6624881959
 10
56.4200738782
 20
181.4646690974
 10
56.2004407867
 20
181.2623900256
 10
55.982939355
 20
181.0556758274
 10
55.767538198
 20
180.8445016559
 10
55.5544661999
 20
180.6289202814
 10
55.343705737
 20
180.4089083315
 10
55.135274433
 20
180.1844891786
 10
54.9294540428
 20
179.9557857099
 10
54.7262859101
 20
179.7228430055
 10
54.5257286911
 20
179.4856159853
 10
54.3279401107
 20
179.2440922967
 10
54.1329141135
 20
178.9982597471
 10
53.9406567547
 20
178.7481305291
 10
53.751343925
 20
178.4937288669
 10
53.5650977781
 20
178.235254311
 10
53.3817961602
 20
177.9725073109
 10
53.2012485005
 20
177.7049134403
 10
53.0234780455
 20
177.4325959494
 10
52.8484615488
 20
177.1554315879
 10
52.6759387002
 20
176.872476178
 10
52.5059318801
 20
176.5838066219
 10
52.3384187083
 20
176.2893460174
 10
52.1730717341
 20
175.9879194806
 10
52.0098417994
 20
175.6795338888
 10
51.8487780625
 20
175.3641823647
 10
51.6897005472
 20
175.0406693921
 10
51.5324867616
 20
174.7088666743
 10
51.3772591976
 20
174.3689025081
 10
51.224205355
 20
174.0199662669
 10
51.0731875692
 20
173.6617725234
 10
50.9243435048
 20
173.2946067049
 10
50.7782736556
 20
172.9185144674
 10
50.6350507643
 20
172.5336890907
 10
50.4946020882
 20
172.139937295
 10
50.3573098926
 20
171.7367248977
 10
50.2232116058
 20
171.3242686261
 10
50.0922697994
 20
170.9023517529
 10
49.9647544531
 20
170.4697899128
 10
49.8406232835
 20
170.0265381522
 10
49.7199185739
 20
169.5726414246
 10
49.6030371543
 20
169.107050226
 10
49.4899317732
 20
168.6296119846
 10
49.380649682
 20
168.1404792721
 10
49.2757294641
 20
167.6390602988
 10
49.1751705514
 20
167.1256570986
 10
49.078973512
 20
166.5999676377
 10
48.9876786342
 20
166.0604940243
 10
48.9012521573
 20
165.5074873766
 10
48.8197278419
 20
164.9406965764
 10
48.743747258
 20
164.3578703778
 10
48.6732267666
 20
163.7585661108
 10
48.6082500068
 20
163.1432264454
 10
48.549709465
 20
162.510928146
 10
48.4976006599
 20
161.8609195447
 10
48.4519280727
 20
161.1939523093
 10
48.4135976341
 20
160.5113582082
 10
48.3827665984
 20
159.810808435
 10
48.3592777112
 20
159.0946317961
 10
48.3435651392
 20
158.3711464788
 10
48.3357797325
 20
157.6378112618
 10
48.335770641
 20
156.8971673664
 10
48.3435194811
 20
156.1651566446
 10
48.3591658787
 20
155.4446495219
 10
48.382570208
 20
154.7327755728
 10
48.4132952077
 20
154.0368653728
 10
48.451449755
 20
153.3594296927
 10
48.4969249727
 20
152.6979577616
 10
48.5489569682
 20
152.0522478429
 10
48.6075702748
 20
151.4225856971
 10
48.6727403592
 20
150.8086855636
 10
48.7436297285
 20
150.2094884233
 10
48.8202135306
 20
149.625070689
 10
48.9025166176
 20
149.055355948
 10
48.9897760528
 20
148.4990559436
 10
49.081976247
 20
147.9559465243
 10
49.1791327895
 20
147.4262518417
 10
49.2805295116
 20
146.9093560926
 10
49.3861688409
 20
146.4050083802
 10
49.4960483498
 20
145.9134596015
 10
49.6094445871
 20
145.4348466445
 10
49.7262488823
 20
144.9696592367
 10
49.8465699058
 20
144.5174076506
 10
49.9700102182
 20
144.0767595927
 10
50.0964256278
 20
143.6480142482
 10
50.2259603263
 20
143.2308724319
 10
50.3586494496
 20
142.8231042936
 10
50.4945572419
 20
142.4243340921
 10
50.6336194589
 20
142.0349375688
 10
50.7756785031
 20
141.6538120972
 10
50.9208520696
 20
141.2806168529
 10
51.0690224631
 20
140.9156926605
 10
51.2196790012
 20
140.5589593675
 10
51.3727350283
 20
140.2105705882
 10
51.5282772
 20
139.8703727083
 10
51.6860547998
 20
139.5378247327
 10
51.8459987577
 20
139.212980711
 10
52.0081781438
 20
138.8957865936
 10
52.1725494524
 20
138.5855392361
 10
52.3390397869
 20
138.2823173217
 10
52.5077220438
 20
137.9860421672
 10
52.6787714072
 20
137.6957745778
 10
52.8521698385
 20
137.4115065195
 10
53.0279353762
 20
137.1332460264
 10
53.2062973191
 20
136.8600780055
 10
53.3872694852
 20
136.5918947294
 10
53.5708380566
 20
136.3288039255
 10
53.7571908782
 20
136.0702136828
 10
53.9464350225
 20
135.8159468895
 10
54.1384634171
 20
135.5661806574
 10
54.3331426898
 20
135.320854411
 10
54.5304534848
 20
135.0799908087
 10
54.7304151579
 20
134.8435671921
 10
54.9329524043
 20
134.6114550099
 10
55.1380868868
 20
134.3836168129
 10
55.3457969425
 20
134.1600900504
 10
55.5559422779
 20
133.9408585189
 10
55.7685302448
 20
133.7259149868
 10
55.9835534914
 20
133.5152666856
 10
56.2008496696
 20
133.3089191072
 10
56.4204985223
 20
133.1068061148
 10
56.6424203065
 20
132.9089938452
 10
56.8662134454
 20
132.7156862008
 10
57.0918274555
 20
132.526934909
 10
57.3193128202
 20
132.3426882424
 10
57.5484194123
 20
132.1629949213
 10
57.7791196231
 20
131.9878740603
 10
58.0114410612
 20
131.8173065447
 10
58.2452164248
 20
131.6512837511
 10
58.4803133979
 20
131.4898761587
 10
58.7168642966
 20
131.3330132882
 10
58.9550987674
 20
131.1804750778
 10
59.1948461296
 20
131.0323236401
 10
59.4362770641
 20
130.8884968626
 10
59.6801332596
 20
130.7485883458
 10
59.9263883243
 20
130.6126031067
 10
60.1750686501
 20
130.4805361282
 10
60.4269951012
 20
130.3519659598
 10
60.6822249256
 20
130.2268192499
 10
60.9407008753
 20
130.1051693501
 10
61.2030720703
 20
129.9868148645
 10
61.4694036162
 20
129.8716805221
 10
61.7396304075
 20
129.7598415939
 10
62.0142062471
 20
129.6513224966
 10
62.2934124207
 20
129.5460076959
 10
62.5769676427
 20
129.4440127262
 10
62.8644818589
 20
129.3457086064
 10
63.1560419358
 20
129.2510952605
 10
63.4515610069
 20
129.1601727645
 10
63.7503884187
 20
129.0733123663
 10
64.0525692489
 20
128.990528136
 10
64.3580584198
 20
128.9118060034
 10
64.6660700446
 20
128.8374750056
 10
64.9765904466
 20
128.7675544901
  0
LWPOLYLINE
  5
3C5
100
AcDbEntity
  8
IMPORT_IGES
100
AcDbPolyline
 62
7
  6
CONTINUOUS
 90
15
 70
0
 10
64.9765904466
 20
128.7675544901
 10
65.2896333024
 20
128.7020251096
 10
65.6044537554
 20
128.641157859
 10
65.9209738423
 20
128.5849925854
 10
66.2392715265
 20
128.5334894419
 10
66.5588358409
 20
128.4867998829
 10
66.8796450638
 20
128.4449441531
 10
67.2017209169
 20
128.4079020079
 10
67.5246175993
 20
128.3757641675
 10
67.8483408165
 20
128.348552596
 10
68.1728848628
 20
128.3262453294
 10
68.4977868207
 20
128.3088671957
 10
68.822892384
 20
128.2964264711
 10
69.1483558589
 20
128.2889148793
 10
69.4741772452
 20
128.2863324205
  0
LINE
  5
3C6
100
AcDbEntity
  8
IMPORT_IGES
100
AcDbLine
 62
250
  6
CONTINUOUS
 10
236.3657140713
 20
184.1612637407
 11
69.4742337594
 21
184.1612624556
  0
LINE
  5
3C7
100
AcDbEntity
  8
IMPORT_IGES
100
AcDbLine
 62
250
  6
CONTINUOUS
 10
69.4742339513
 20
185.6594039352
 11
236.7366504664
 21
185.6594024482
  0
LINE
  5
3C8
100
AcDbEntity
  8
IMPORT_IGES
100
AcDbLine
 62
7
  6
CONTINUOUS
 10
69.4742339506
 20
186.2866901449
 11
237.2337714352
 21
186.2866125172
  0
LWPOLYLINE
  5
3C9
100
AcDbEntity
  8
IMPORT_IGES
100
AcDbPolyline
 62
250
  6
CONTINUOUS
 90
22
 70
0
 10
236.7366504766
 20
185.6594029054
 10
236.7991814232
 20
185.6572895215
 10
236.8619470122
 20
185.6511973323
 10
236.924518708
 20
185.641141038
 10
236.9863976282
 20
185.6271687792
 10
237.04731292
 20
185.6092979803
 10
237.1072070768
 20
185.5874700383
 10
237.1656878667
 20
185.5618179684
 10
237.2223825346
 20
185.5325111119
 10
237.277235054
 20
185.4995584748
 10
237.3299149311
 20
185.4631564227
 10
237.3800843109
 20
185.4235217722
 10
237.4276899825
 20
185.3806966196
 10
237.4724428065
 20
185.3349594076
 10
237.5140751963
 20
185.2865862009
 10
237.5525653358
 20
185.23562954
 10
237.5876620313
 20
185.1824129474
 10
237.6191453292
 20
185.1272871378
 10
237.6470591618
 20
185.0703214507
 10
237.6713238501
 20
185.0117752907
 10
237.6917769612
 20
184.9521229093
 10
237.7083049192
 20
184.891777814
  0
LWPOLYLINE
  5
3CA
100
AcDbEntity
  8
IMPORT_IGES
100
AcDbPolyline
 62
7
  6
CONTINUOUS
 90
22
 70
0
 10
237.2337714352
 20
186.2866125172
 10
237.297834004
 20
186.2844319521
 10
237.361107869
 20
186.2783133912
 10
237.4235930301
 20
186.2682568345
 10
237.4855314782
 20
186.2541939682
 10
237.5466812225
 20
186.2361931061
 10
237.6063162901
 20
186.2144591904
 10
237.6644178088
 20
186.1889430878
 10
237.7210046509
 20
186.1596939315
 10
237.7754074604
 20
186.1270640634
 10
237.8276010186
 20
186.0910149246
 10
237.8776105442
 20
186.051585074
 10
237.9248423374
 20
186.00924253
 10
237.9692649123
 20
185.963953511
 10
238.0109097548
 20
185.9157517986
 10
238.0492776235
 20
185.8652067553
 10
238.0843256741
 20
185.8122894437
 10
238.1160967509
 20
185.7570288012
 10
238.1442201449
 20
185.7000810018
 10
238.1685722867
 20
185.6416647704
 10
238.1892767458
 20
185.5815613822
 10
238.2063335221
 20
185.5197708371
  0
LINE
  5
3CB
100
AcDbEntity
  8
IMPORT_IGES
100
AcDbLine
 62
7
  6
CONTINUOUS
 10
333.5598067289
 20
171.5258904407
 11
335.0598067289
 21
171.4071702729
  0
LWPOLYLINE
  5
3CC
100
AcDbEntity
  8
IMPORT_IGES
100
AcDbPolyline
 62
7
  6
CONTINUOUS
 90
4
 70
0
 10
239.892293322
 20
184.0032930965
 10
239.7925650629
 20
184.0188342255
 10
239.6942465008
 20
184.0392318288
 10
239.5973376356
 20
184.0644859063
  0
LWPOLYLINE
  5
3CD
100
AcDbEntity
  8
IMPORT_IGES
100
AcDbPolyline
 62
7
  6
CONTINUOUS
 90
22
 70
0
 10
239.8922736333
 20
184.003139283
 10
239.9510588458
 20
183.9936365981
 10
240.0087371865
 20
183.9808334875
 10
240.0653086552
 20
183.9647299512
 10
240.1209146416
 20
183.9452715864
 10
240.1754137561
 20
183.9225127959
 10
240.2283818304
 20
183.8966167886
 10
240.2798920706
 20
183.8675077975
 10
240.3298712706
 20
183.8352615897
 10
240.3776756439
 20
183.8002686744
 10
240.4232308321
 20
183.7625271311
 10
240.4666111936
 20
183.7220388804
 10
240.5073960159
 20
183.6792001937
 10
240.5455880988
 20
183.6339373133
 10
240.5811846426
 20
183.586323997
 10
240.6137565358
 20
183.5369777895
 10
240.6432229724
 20
183.4859670091
 10
240.6696647584
 20
183.4332233376
 10
240.6928952012
 20
183.379159365
 10
240.7128520698
 20
183.3239126215
 10
240.7295975952
 20
183.267345577
 10
240.7431317772
 20
183.2094582314
  0
LWPOLYLINE
  5
3CE
100
AcDbEntity
  8
IMPORT_IGES
100
AcDbPolyline
 62
250
  6
CONTINUOUS
 90
22
 70
0
 10
239.3876072652
 20
183.3736596166
 10
239.4444380246
 20
183.3642823335
 10
239.501286695
 20
183.3514736265
 10
239.5578273918
 20
183.3352366268
 10
239.6138778745
 20
183.3155239009
 10
239.6689957846
 20
183.2923761688
 10
239.7224945543
 20
183.266024462
 10
239.7738277415
 20
183.2368342018
 10
239.8230184446
 20
183.2049044534
 10
239.8702404454
 20
183.1701596519
 10
239.9152303988
 20
183.1328297274
 10
239.9578056674
 20
183.0930924566
 10
239.9982079266
 20
183.0507034849
 10
240.0362145548
 20
183.0058324826
 10
240.0715816267
 20
182.9587187135
 10
240.1044268222
 20
182.9091538873
 10
240.1346558204
 20
182.8570715478
 10
240.161812147
 20
182.802987706
 10
240.1855660289
 20
182.747594296
 10
240.2058161506
 20
182.6913563382
 10
240.2225790399
 20
182.6344807089
 10
240.235804061
 20
182.5773231851
  0
LWPOLYLINE
  5
3CF
100
AcDbEntity
  8
IMPORT_IGES
100
AcDbPolyline
 62
250
  6
CONTINUOUS
 90
22
 70
0
 10
238.831141501
 20
181.9560553891
 10
238.678792924
 20
181.9963220301
 10
238.5287213761
 20
182.0433836163
 10
238.3809268575
 20
182.0972401475
 10
238.235306404
 20
182.1578408352
 10
238.0919629797
 20
182.2252364681
 10
237.951205477
 20
182.2995794118
 10
237.812654125
 20
182.381093827
 10
237.6766886944
 20
182.4695555531
 10
237.5447573899
 20
182.5644444735
 10
237.4170741242
 20
182.6656561962
 10
237.2934249846
 20
182.7732951132
 10
237.1746164372
 20
182.887154284
 10
237.0604850971
 20
183.0075208468
 10
236.9511943494
 20
183.1341076634
 10
236.8480408149
 20
183.2658463782
 10
236.7512670806
 20
183.4024204314
 10
236.6606305596
 20
183.5441463828
 10
236.5767001121
 20
183.690905557
 10
236.4996653583
 20
183.8426583955
 10
236.429336678
 20
183.9994444567
 10
236.3657140713
 20
184.1612637407
  0
LINE
  5
3D0
100
AcDbEntity
  8
IMPORT_IGES
100
AcDbLine
 62
7
  6
CONTINUOUS
 10
341.0598067289
 20
136.7864853973
 11
313.0598067289
 21
148.7864853973
  0
LWPOLYLINE
  5
3D1
100
AcDbEntity
  8
IMPORT_IGES
100
AcDbPolyline
 62
7
  6
CONTINUOUS
 90
22
 70
0
 10
238.2063335221
 20
185.5197708371
 10
238.2323164175
 20
185.4222324975
 10
238.2629801917
 20
185.3266095562
 10
238.2983248446
 20
185.2329020131
 10
238.33846949
 20
185.1408868704
 10
238.383295014
 20
185.0507871259
 10
238.4324440758
 20
184.9632717732
 10
238.4859428087
 20
184.8783587939
 10
238.5437650792
 20
184.7960302065
 10
238.6054751465
 20
184.7169010595
 10
238.6711015639
 20
184.6409951275
 10
238.7406157781
 20
184.568288636
 10
238.8134963882
 20
184.4993253099
 10
238.8897682189
 20
184.4341327645
 10
238.9694064455
 20
184.3726833844
 10
239.0518151929
 20
184.3154380486
 10
239.1370150767
 20
184.2624276714
 10
239.2249854813
 20
184.2136213384
 10
239.3150686852
 20
184.1693871867
 10
239.4072805447
 20
184.1297588569
 10
239.5016052036
 20
184.0947027083
 10
239.5973373709
 20
184.0644859552
  0
LWPOLYLINE
  5
3D2
100
AcDbEntity
  8
IMPORT_IGES
100
AcDbPolyline
 62
250
  6
CONTINUOUS
 90
25
 70
0
 10
237.7083065682
 20
184.8917782065
 10
237.7334798641
 20
184.7962515421
 10
237.763592507
 20
184.7017812525
 10
237.7986293922
 20
184.6085540837
 10
237.838663978
 20
184.5165618472
 10
237.8835912206
 20
184.4262213439
 10
237.9330284174
 20
184.3383171425
 10
237.9867361374
 20
184.2531752163
 10
238.0446784801
 20
184.1707839235
 10
238.1066768561
 20
184.0913662195
 10
238.1726142386
 20
184.0150539793
 10
238.2423239124
 20
183.9420396689
 10
238.315521414
 20
183.8726132502
 10
238.3920343837
 20
183.8069239468
 10
238.4717038168
 20
183.7451085386
 10
238.5542305858
 20
183.6873997592
 10
238.6394182622
 20
183.6339313374
 10
238.7271078952
 20
183.5848110003
 10
238.8170369415
 20
183.5401987424
 10
238.9091998123
 20
183.5001288576
 10
239.0032547132
 20
183.4647904391
 10
239.0983908337
 20
183.4344676159
 10
239.1941865357
 20
183.4092125263
 10
239.2906543099
 20
183.3889477126
 10
239.3876074841
 20
183.3736612617
  0
LWPOLYLINE
  5
3D3
100
AcDbEntity
  8
IMPORT_IGES
100
AcDbPolyline
 62
250
  6
CONTINUOUS
 90
46
 70
0
 10
240.2358013025
 20
182.5773216096
 10
240.4493988964
 20
181.4692003081
 10
240.6534344311
 20
180.3588565952
 10
240.8478917684
 20
179.2463623416
 10
241.0327596733
 20
178.1317593144
 10
241.2080165489
 20
177.0151501577
 10
241.3736330793
 20
175.896698761
 10
241.5295955586
 20
174.7764778558
 10
241.6758900909
 20
173.6545612499
 10
241.8124918588
 20
172.5311153808
 10
241.9393950798
 20
171.4061618442
 10
242.056581829
 20
170.2798272339
 10
242.1640179989
 20
169.1524366322
 10
242.2616999798
 20
168.0240469358
 10
242.3496212809
 20
166.8947514814
 10
242.4277579237
 20
165.7649312578
 10
242.4961114701
 20
164.6346920148
 10
242.5546869613
 20
163.5040794343
 10
242.603479169
 20
162.3733851201
 10
242.6424942406
 20
161.2427931994
 10
242.6717451571
 20
160.1122709465
 10
242.6912397124
 20
158.9817847347
 10
242.7009824786
 20
157.8515230555
 10
242.7009824391
 20
156.7214480786
 10
242.6912395909
 20
155.5911865555
 10
242.6717449556
 20
154.460700772
 10
242.6424939715
 20
153.3301791106
 10
242.6034788387
 20
152.1995876125
 10
242.5546865676
 20
151.0688934753
 10
242.4961110143
 20
149.9382809185
 10
242.4277574089
 20
148.8080414676
 10
242.3496207048
 20
147.6782207405
 10
242.2616993359
 20
146.5489245698
 10
242.1640172858
 20
145.4205340831
 10
242.0565810433
 20
144.2931426231
 10
241.939394218
 20
143.1668071013
 10
241.8124909316
 20
142.0418527495
 10
241.6758891127
 20
140.9184061889
 10
241.5295945449
 20
139.7964890106
 10
241.37363206
 20
138.6762677513
 10
241.2080155577
 20
137.5578162291
 10
241.0327587483
 20
136.4412071925
 10
240.8478909677
 20
135.3266046416
 10
240.6534338244
 20
134.2141112671
 10
240.4493985544
 20
133.10376882
 10
240.2358013014
 20
131.9956491881
  0
LWPOLYLINE
  5
3D4
100
AcDbEntity
  8
IMPORT_IGES
100
AcDbPolyline
 62
250
  6
CONTINUOUS
 90
22
 70
0
 10
238.831141501
 20
181.9560553891
 10
239.2607812742
 20
179.6301849565
 10
239.6476516561
 20
177.2984141006
 10
239.9917526467
 20
174.9607428212
 10
240.2931707032
 20
172.6163867733
 10
240.5518193683
 20
170.266130302
 10
240.7674392709
 20
167.9123264429
 10
240.9399872479
 20
165.5549716294
 10
241.0695064624
 20
163.194069428
 10
241.1558670325
 20
160.8319835741
 10
241.1990256639
 20
158.4687128776
 10
241.1990256509
 20
156.1042585286
 10
241.1558669934
 20
153.7409878326
 10
241.0695063973
 20
151.3789019796
 10
240.9399871567
 20
149.0179997797
 10
240.7674391537
 20
146.6606449681
 10
240.5518192251
 20
144.3068411113
 10
240.2931705341
 20
141.9565846429
 10
239.9917524518
 20
139.6122285983
 10
239.6476514354
 20
137.2745573227
 10
239.2607810278
 20
134.942786471
 10
238.831141229
 20
132.6169160432
  0
LWPOLYLINE
  5
3D5
100
AcDbEntity
  8
IMPORT_IGES
100
AcDbPolyline
 62
7
  6
CONTINUOUS
 90
10
 70
0
 10
240.7431317773
 20
131.3635125634
 10
241.1814683703
 20
133.6390610742
 10
241.5793463475
 20
135.9205720982
 10
241.9367657089
 20
138.2080456353
 10
242.2538131731
 20
140.5022028406
 10
242.5304020215
 20
142.802322559
 10
242.766272098
 20
145.1062413258
 10
242.9613366838
 20
147.413237986
 10
243.1156824976
 20
149.7240336946
 10
243.2293095395
 20
152.0386284516
  0
LWPOLYLINE
  5
3D6
100
AcDbEntity
  8
IMPORT_IGES
100
AcDbPolyline
 62
7
  6
CONTINUOUS
 90
22
 70
0
 10
240.7431317773
 20
131.3635125634
 10
240.7295691741
 20
131.3055298339
 10
240.7127911031
 20
131.2488804824
 10
240.6927975643
 20
131.1935645087
 10
240.6695245179
 20
131.1394446957
 10
240.6430360038
 20
131.0866582606
 10
240.6135241407
 20
131.0356168551
 10
240.5809082035
 20
130.9862526041
 10
240.5452689175
 20
130.9386333826
 10
240.5070405766
 20
130.893374468
 10
240.4662264336
 20
130.8505502132
 10
240.4228232359
 20
130.8100862653
 10
240.3772555191
 20
130.7723748429
 10
240.3294495541
 20
130.7374182932
 10
240.2794790701
 20
130.7052142691
 10
240.2279897908
 20
130.6761479486
 10
240.1750546307
 20
130.6503008469
 10
240.1206006754
 20
130.6275914489
 10
240.0650549047
 20
130.6081603867
 10
240.0085596455
 20
130.592054538
 10
239.9509725709
 20
130.5792270251
 10
239.8922936811
 20
130.5696778482
  0
LWPOLYLINE
  5
3D7
100
AcDbEntity
  8
IMPORT_IGES
100
AcDbPolyline
 62
7
  6
CONTINUOUS
 90
5
 70
0
 10
238.3386852421
 20
129.4322166704
 10
238.2985204353
 20
129.3401912927
 10
238.2631308173
 20
129.246457161
 10
238.2324017073
 20
129.1507928404
 10
238.2063331053
 20
129.0531983307
  0
LWPOLYLINE
  5
3D8
100
AcDbEntity
  8
IMPORT_IGES
100
AcDbPolyline
 62
7
  6
CONTINUOUS
 90
11
 70
0
 10
238.9694085649
 20
130.200288953
 10
238.8897703105
 20
130.1388397195
 10
238.8134984198
 20
130.0736472937
 10
238.7406177164
 20
130.0046840593
 10
238.6711033768
 20
129.9319776325
 10
238.6054768144
 20
129.8560717267
 10
238.5437665813
 20
129.776942566
 10
238.4859441255
 20
129.6946139263
 10
238.4324452034
 20
129.6097008488
 10
238.3833056375
 20
129.5221830266
 10
238.3384896053
 20
129.4320807665
  0
LINE
  5
3D9
100
AcDbEntity
  8
IMPORT_IGES
100
AcDbLine
 62
7
  6
CONTINUOUS
 10
239.0517358189
 20
130.2573450955
 11
238.9693689215
 21
130.2001225462
  0
LWPOLYLINE
  5
3DA
100
AcDbEntity
  8
IMPORT_IGES
100
AcDbPolyline
 62
7
  6
CONTINUOUS
 90
4
 70
0
 10
239.3150704985
 20
130.4035844531
 10
239.224987436
 20
130.3593504824
 10
239.1370171276
 20
130.3105443344
 10
239.0518172993
 20
130.2575341296
  0
LINE
  5
3DB
100
AcDbEntity
  8
IMPORT_IGES
100
AcDbLine
 62
7
  6
CONTINUOUS
 10
320.0598067289
 20
165.740176155
 11
333.5598067289
 21
171.5258904407
  0
LINE
  5
3DC
100
AcDbEntity
  8
IMPORT_IGES
100
AcDbLine
 62
7
  6
CONTINUOUS
 10
313.0598067289
 20
161.9785988444
 11
318.5598067289
 21
164.3357417015
  0
LINE
  5
3DD
100
AcDbEntity
  8
IMPORT_IGES
100
AcDbLine
 62
7
  6
CONTINUOUS
 10
335.0598067289
 20
171.4071702729
 11
335.9448753524
 21
171.7864853973
  0
LINE
  5
3DE
100
AcDbEntity
  8
IMPORT_IGES
100
AcDbLine
 62
7
  6
CONTINUOUS
 10
333.5598067289
 20
143.0470803539
 11
320.0598067289
 21
148.8327946397
  0
LINE
  5
3DF
100
AcDbEntity
  8
IMPORT_IGES
100
AcDbLine
 62
7
  6
CONTINUOUS
 10
335.9448753524
 20
142.7864853973
 11
335.0598067289
 21
143.1658005217
  0
LINE
  5
3E0
100
AcDbEntity
  8
IMPORT_IGES
100
AcDbLine
 62
7
  6
CONTINUOUS
 10
318.5598067289
 20
150.2372290931
 11
313.0598067289
 21
152.5943719502
  0
LINE
  5
3E1
100
AcDbEntity
  8
IMPORT_IGES
100
AcDbLine
 62
7
  6
CONTINUOUS
 10
257.7598067289
 20
152.2864853973
 11
257.7598067289
 21
162.2864853973
  0
LINE
  5
3E2
100
AcDbEntity
  8
IMPORT_IGES
100
AcDbLine
 62
7
  6
CONTINUOUS
 10
335.9448753524
 20
171.7864853973
 11
344.0214962701
 21
177.7864853973
  0
LINE
  5
3E3
100
AcDbEntity
  8
ASSI
100
AcDbLine
 62
7
  6
CONTINUOUS
 10
342.1205107289
 20
155.9173843973
 11
341.5151807289
 21
155.5776313973
  0
LINE
  5
3E4
100
AcDbEntity
  8
ASSI
100
AcDbLine
 62
7
  6
CONTINUOUS
 10
341.5151807252
 20
158.9953393994
 11
342.1205116608
 21
158.6555858743
  0
LINE
  5
3E5
100
AcDbEntity
  8
IMPORT_IGES
100
AcDbLine
 62
7
  6
CONTINUOUS
 10
344.0214962701
 20
136.7864853973
 11
335.9448753524
 21
142.7864853973
  0
LINE
  5
3E6
100
AcDbEntity
  8
IMPORT_IGES
100
AcDbLine
 62
7
  6
CONTINUOUS
 10
287.0598067289
 20
149.7864853973
 11
287.0598067289
 21
164.7864853973
  0
LINE
  5
3E7
100
AcDbEntity
  8
IMPORT_IGES
100
AcDbLine
 62
7
  6
CONTINUOUS
 10
318.5598067289
 20
164.3357417015
 11
320.0598067289
 21
165.740176155
  0
LINE
  5
3E8
100
AcDbEntity
  8
ASSI
100
AcDbLine
 62
7
  6
CONTINUOUS
 10
338.8398327289
 20
154.6135203973
 11
339.3858537289
 21
154.2283623973
  0
LINE
  5
3E9
100
AcDbEntity
  8
IMPORT_IGES
100
AcDbLine
 62
7
  6
CONTINUOUS
 10
320.0598067289
 20
148.8327946397
 11
318.5598067289
 21
150.2372290931
  0
LINE
  5
3EA
100
AcDbEntity
  8
IMPORT_IGES
100
AcDbLine
 62
7
  6
CONTINUOUS
 10
290.0598067289
 20
150.6964853973
 11
290.0598067289
 21
155.5364853973
  0
LINE
  5
3EB
100
AcDbEntity
  8
IMPORT_IGES
100
AcDbLine
 62
7
  6
CONTINUOUS
 10
290.0598067289
 20
159.0364853973
 11
290.0598067289
 21
163.8764853973
  0
LINE
  5
3EC
100
AcDbEntity
  8
IMPORT_IGES
100
AcDbLine
 62
7
  6
CONTINUOUS
 10
292.2598067289
 20
155.5364853973
 11
292.2598067289
 21
150.6964853973
  0
LINE
  5
3ED
100
AcDbEntity
  8
IMPORT_IGES
100
AcDbLine
 62
7
  6
CONTINUOUS
 10
292.2598067289
 20
159.0364853973
 11
292.2598067289
 21
163.8764853973
  0
LINE
  5
3EE
100
AcDbEntity
  8
IMPORT_IGES
100
AcDbLine
 62
7
  6
CONTINUOUS
 10
294.7598067289
 20
150.6964853973
 11
294.7598067289
 21
155.5364853973
  0
LINE
  5
3EF
100
AcDbEntity
  8
IMPORT_IGES
100
AcDbLine
 62
7
  6
CONTINUOUS
 10
294.7598067289
 20
159.0364853973
 11
294.7598067289
 21
163.8764853973
  0
LINE
  5
3F0
100
AcDbEntity
  8
IMPORT_IGES
100
AcDbLine
 62
7
  6
CONTINUOUS
 10
296.9598067289
 20
163.8764853973
 11
296.9598067289
 21
159.0364853973
  0
LINE
  5
3F1
100
AcDbEntity
  8
IMPORT_IGES
100
AcDbLine
 62
7
  6
CONTINUOUS
 10
296.9598067289
 20
155.5364853973
 11
296.9598067289
 21
150.6964853973
  0
LINE
  5
3F2
100
AcDbEntity
  8
IMPORT_IGES
100
AcDbLine
 62
7
  6
CONTINUOUS
 10
299.4598067289
 20
150.6964853973
 11
299.4598067289
 21
155.5364853973
  0
LINE
  5
3F3
100
AcDbEntity
  8
IMPORT_IGES
100
AcDbLine
 62
7
  6
CONTINUOUS
 10
299.4598067289
 20
159.0364853973
 11
299.4598067289
 21
163.8764853973
  0
LINE
  5
3F4
100
AcDbEntity
  8
IMPORT_IGES
100
AcDbLine
 62
7
  6
CONTINUOUS
 10
301.6598067289
 20
163.8764853973
 11
301.6598067289
 21
159.0364853973
  0
LINE
  5
3F5
100
AcDbEntity
  8
IMPORT_IGES
100
AcDbLine
 62
7
  6
CONTINUOUS
 10
301.6598067289
 20
155.5364853973
 11
301.6598067289
 21
150.6964853973
  0
LINE
  5
3F6
100
AcDbEntity
  8
IMPORT_IGES
100
AcDbLine
 62
7
  6
CONTINUOUS
 10
304.1598067289
 20
150.6964853973
 11
304.1598067289
 21
155.5364853973
  0
LINE
  5
3F7
100
AcDbEntity
  8
IMPORT_IGES
100
AcDbLine
 62
7
  6
CONTINUOUS
 10
304.1598067289
 20
159.0364853973
 11
304.1598067289
 21
163.8764853973
  0
LINE
  5
3F8
100
AcDbEntity
  8
IMPORT_IGES
100
AcDbLine
 62
7
  6
CONTINUOUS
 10
306.3598067289
 20
163.8764853973
 11
306.3598067289
 21
159.0364853973
  0
LINE
  5
3F9
100
AcDbEntity
  8
IMPORT_IGES
100
AcDbLine
 62
7
  6
CONTINUOUS
 10
306.3598067289
 20
155.5364853973
 11
306.3598067289
 21
150.6964853973
  0
LINE
  5
3FA
100
AcDbEntity
  8
IMPORT_IGES
100
AcDbLine
 62
7
  6
CONTINUOUS
 10
308.8598067289
 20
150.6964853973
 11
308.8598067289
 21
155.5364853973
  0
LINE
  5
3FB
100
AcDbEntity
  8
IMPORT_IGES
100
AcDbLine
 62
7
  6
CONTINUOUS
 10
308.8598067289
 20
159.0364853973
 11
308.8598067289
 21
163.8764853973
  0
LINE
  5
3FC
100
AcDbEntity
  8
IMPORT_IGES
100
AcDbLine
 62
7
  6
CONTINUOUS
 10
311.0598067289
 20
163.8764853973
 11
311.0598067289
 21
159.0364853973
  0
LINE
  5
3FD
100
AcDbEntity
  8
IMPORT_IGES
100
AcDbLine
 62
7
  6
CONTINUOUS
 10
311.0598067289
 20
155.5364853973
 11
311.0598067289
 21
150.6964853973
  0
LINE
  5
3FE
100
AcDbEntity
  8
IMPORT_IGES
100
AcDbLine
 62
7
  6
CONTINUOUS
 10
313.0598067289
 20
165.7864853973
 11
313.0598067289
 21
148.7864853973
  0
LINE
  5
3FF
100
AcDbEntity
  8
IMPORT_IGES
100
AcDbLine
 62
7
  6
CONTINUOUS
 10
318.5598067289
 20
150.2372290931
 11
318.5598067289
 21
164.3357417015
  0
LINE
  5
400
100
AcDbEntity
  8
IMPORT_IGES
100
AcDbLine
 62
7
  6
CONTINUOUS
 10
320.0598067289
 20
165.740176155
 11
320.0598067289
 21
148.8327946397
  0
LINE
  5
401
100
AcDbEntity
  8
ASSI
100
AcDbLine
 62
7
  6
CONTINUOUS
 10
346.0410157289
 20
159.6593773973
 11
344.3685477289
 21
157.6747383973
  0
LINE
  5
402
100
AcDbEntity
  8
ASSI
100
AcDbLine
 62
7
  6
CONTINUOUS
 10
345.2832347289
 20
157.6747383973
 11
347.0328987289
 21
159.7509823973
  0
LINE
  5
403
100
AcDbEntity
  8
ASSI
100
AcDbLine
 62
7
  6
CONTINUOUS
 10
344.3768017289
 20
156.8884373973
 11
346.041016432
 21
154.913592563
  0
LINE
  5
404
100
AcDbEntity
  8
ASSI
100
AcDbLine
 62
7
  6
CONTINUOUS
 10
347.028422484
 20
154.817504688
 11
345.2832347289
 21
156.8884373973
  0
LINE
  5
405
100
AcDbEntity
  8
IMPORT_IGES
100
AcDbLine
 62
7
  6
CONTINUOUS
 10
333.5598067289
 20
143.0470803539
 11
333.5598067289
 21
171.5258904407
  0
LINE
  5
406
100
AcDbEntity
  8
IMPORT_IGES
100
AcDbLine
 62
7
  6
CONTINUOUS
 10
335.0598067289
 20
143.1658005217
 11
335.0598067289
 21
171.4071702729
  0
LINE
  5
407
100
AcDbEntity
  8
ASSI
100
AcDbLine
 62
7
  6
CONTINUOUS
 10
341.1832567289
 20
158.3288473973
 11
341.1832567289
 21
156.2345833973
  0
LINE
  5
408
100
AcDbEntity
  8
ASSI
100
AcDbLine
 62
7
  6
CONTINUOUS
 10
341.9213487289
 20
156.2345833973
 11
341.9213487289
 21
156.8884373973
  0
LINE
  5
409
100
AcDbEntity
  8
ASSI
100
AcDbLine
 62
7
  6
CONTINUOUS
 10
341.9213487289
 20
157.6747383973
 11
341.9213487289
 21
158.3288473973
  0
LINE
  5
40A
100
AcDbEntity
  8
ASSI
100
AcDbLine
 62
7
  6
CONTINUOUS
 10
347.1651287289
 20
158.3047433973
 11
347.1651287289
 21
157.6747383973
  0
LINE
  5
40B
100
AcDbEntity
  8
ASSI
100
AcDbLine
 62
7
  6
CONTINUOUS
 10
347.1651287289
 20
156.8884373973
 11
347.1651287289
 21
156.2586873973
  0
LINE
  5
40C
100
AcDbEntity
  8
ASSI
100
AcDbLine
 62
7
  6
CONTINUOUS
 10
347.9072807289
 20
156.2586873973
 11
347.9072807289
 21
158.3047433973
  0
LINE
  5
40D
100
AcDbEntity
  8
IMPORT_IGES
100
AcDbLine
 62
7
  6
CONTINUOUS
 10
353.0598067289
 20
136.7864853973
 11
353.0598067289
 21
177.7864853973
  0
LINE
  5
40E
100
AcDbEntity
  8
IMPORT_IGES
100
AcDbLine
 62
7
  6
CONTINUOUS
 10
353.2598067289
 20
147.3671305189
 11
353.2598067289
 21
149.7864853973
  0
LINE
  5
40F
100
AcDbEntity
  8
IMPORT_IGES
100
AcDbLine
 62
7
  6
CONTINUOUS
 10
353.2598067289
 20
150.3826649124
 11
353.2598067289
 21
152.6695008213
  0
LINE
  5
410
100
AcDbEntity
  8
IMPORT_IGES
100
AcDbLine
 62
7
  6
CONTINUOUS
 10
353.2598067289
 20
152.8519697125
 11
353.2598067289
 21
154.4822556908
  0
LINE
  5
411
100
AcDbEntity
  8
IMPORT_IGES
100
AcDbLine
 62
7
  6
CONTINUOUS
 10
353.2598067289
 20
154.7670442993
 11
353.2598067289
 21
156.4246160919
  0
LINE
  5
412
100
AcDbEntity
  8
IMPORT_IGES
100
AcDbLine
 62
7
  6
CONTINUOUS
 10
353.2598067289
 20
156.7537434036
 11
353.2598067289
 21
158.4061987335
  0
LINE
  5
413
100
AcDbEntity
  8
IMPORT_IGES
100
AcDbLine
 62
7
  6
CONTINUOUS
 10
353.2598067289
 20
160.4474676783
 11
353.2598067289
 21
162.7871675427
  0
LINE
  5
414
100
AcDbEntity
  8
IMPORT_IGES
100
AcDbLine
 62
7
  6
CONTINUOUS
 10
353.2598067289
 20
162.9423518116
 11
353.2598067289
 21
164.5931020016
  0
LINE
  5
415
100
AcDbEntity
  8
IMPORT_IGES
100
AcDbLine
 62
7
  6
CONTINUOUS
 10
353.2598067289
 20
165.3656123216
 11
353.2598067289
 21
166.2864853824
  0
LINE
  5
416
100
AcDbEntity
  8
IMPORT_IGES
100
AcDbLine
 62
7
  6
CONTINUOUS
 10
363.4669135101
 20
141.8864854014
 11
363.4669135102
 21
146.6864853932
  0
LINE
  5
417
100
AcDbEntity
  8
IMPORT_IGES
100
AcDbLine
 62
7
  6
CONTINUOUS
 10
363.4669135101
 20
167.8864854014
 11
363.4669135102
 21
172.6864853932
  0
LINE
  5
418
100
AcDbEntity
  8
IMPORT_IGES
100
AcDbLine
 62
250
  6
CONTINUOUS
 10
363.7669135101
 20
141.7864853974
 11
363.7669135101
 21
146.7864853972
  0
LINE
  5
419
100
AcDbEntity
  8
IMPORT_IGES
100
AcDbLine
 62
250
  6
CONTINUOUS
 10
363.7669135101
 20
167.7864853974
 11
363.7669135101
 21
172.7864853972
  0
LINE
  5
41A
100
AcDbEntity
  8
IMPORT_IGES
100
AcDbLine
 62
250
  6
CONTINUOUS
 10
369.5598067289
 20
141.7864853974
 11
369.5598067289
 21
146.7864853972
  0
LINE
  5
41B
100
AcDbEntity
  8
IMPORT_IGES
100
AcDbLine
 62
250
  6
CONTINUOUS
 10
369.5598067289
 20
167.7864853974
 11
369.5598067289
 21
172.7864853972
  0
LINE
  5
41C
100
AcDbEntity
  8
IMPORT_IGES
100
AcDbLine
 62
250
  6
CONTINUOUS
 10
370.0598067289
 20
154.7864853973
 11
370.0598067289
 21
159.7864853973
  0
CIRCLE
  5
41D
100
AcDbEntity
  8
IMPORT_IGES
100
AcDbCircle
 62
250
  6
CONTINUOUS
 10
69.9666171186
 20
136.7864854139
 40
3.3999788348
  0
CIRCLE
  5
41E
100
AcDbEntity
  8
IMPORT_IGES
100
AcDbCircle
 62
7
  6
CONTINUOUS
 10
69.9666171186
 20
136.7864854139
 40
2.9
  0
CIRCLE
  5
41F
100
AcDbEntity
  8
IMPORT_IGES
100
AcDbCircle
 62
7
  6
CONTINUOUS
 10
69.9666171186
 20
136.7864854139
 40
2.4999993374
  0
ARC
  5
420
100
AcDbEntity
  8
IMPORT_IGES
100
AcDbCircle
 62
250
  6
CONTINUOUS
 10
69.9666171186
 20
136.7864854139
 40
2.2222222222
100
AcDbArc
 50
284.1813512976
 51
75.8186487024
  0
ARC
  5
421
100
AcDbEntity
  8
IMPORT_IGES
100
AcDbCircle
 62
250
  6
CONTINUOUS
 10
69.9666171186
 20
136.7864854139
 40
2.222209717
100
AcDbArc
 50
104.1819873104
 51
255.8180126897
  0
ARC
  5
422
100
AcDbEntity
  8
IMPORT_IGES
100
AcDbCircle
 62
7
  6
CONTINUOUS
 10
80.1350953566
 20
147.6755440087
 40
0.6256461971
100
AcDbArc
 50
89.9952981597
 51
96.7904741412
  0
ARC
  5
423
100
AcDbEntity
  8
IMPORT_IGES
100
AcDbCircle
 62
7
  6
CONTINUOUS
 10
80.1351469329
 20
147.6846547847
 40
0.6164857967
100
AcDbArc
 50
117.8572889372
 51
263.8694806328
  0
ARC
  5
424
100
AcDbEntity
  8
IMPORT_IGES
100
AcDbCircle
 62
7
  6
CONTINUOUS
 10
80.1351286461
 20
147.684571596
 40
0.6162272683
100
AcDbArc
 50
6.7410764673
 51
89.9983225619
  0
ARC
  5
425
100
AcDbEntity
  8
IMPORT_IGES
100
AcDbCircle
 62
7
  6
CONTINUOUS
 10
85.0932887526
 20
147.0507626132
 40
0.2854448654
100
AcDbArc
 50
157.1864668287
 51
51.8909034579
  0
CIRCLE
  5
426
100
AcDbEntity
  8
IMPORT_IGES
100
AcDbCircle
 62
250
  6
CONTINUOUS
 10
143.966727468
 20
136.7864853991
 40
3.3999788348
  0
CIRCLE
  5
427
100
AcDbEntity
  8
IMPORT_IGES
100
AcDbCircle
 62
7
  6
CONTINUOUS
 10
143.966727468
 20
136.7864853991
 40
2.9
  0
CIRCLE
  5
428
100
AcDbEntity
  8
IMPORT_IGES
100
AcDbCircle
 62
7
  6
CONTINUOUS
 10
143.966727468
 20
136.7864853991
 40
2.4999993374
  0
ARC
  5
429
100
AcDbEntity
  8
IMPORT_IGES
100
AcDbCircle
 62
250
  6
CONTINUOUS
 10
143.966727468
 20
136.7864853991
 40
2.2222222222
100
AcDbArc
 50
284.1813512976
 51
75.8186487024
  0
ARC
  5
42A
100
AcDbEntity
  8
IMPORT_IGES
100
AcDbCircle
 62
250
  6
CONTINUOUS
 10
143.966727468
 20
136.7864853991
 40
2.222209717
100
AcDbArc
 50
104.1819873104
 51
255.8180126897
  0
ARC
  5
42B
100
AcDbEntity
  8
IMPORT_IGES
100
AcDbCircle
 62
7
  6
CONTINUOUS
 10
189.9079083634
 20
137.2729219554
 40
0.3
100
AcDbArc
 50
180.0000000015
 51
269.9999999985
  0
ARC
  5
42C
100
AcDbEntity
  8
IMPORT_IGES
100
AcDbCircle
 62
7
  6
CONTINUOUS
 10
215.3079083634
 20
137.2729219554
 40
0.3
100
AcDbArc
 50
269.9999999996
 51
359.9999999994
  0
ARC
  5
42D
100
AcDbEntity
  8
IMPORT_IGES
100
AcDbCircle
 62
7
  6
CONTINUOUS
 10
79.0686795785
 20
163.6366194147
 40
3.0600000422
100
AcDbArc
 50
354.2608296023
 51
185.739170325
  0
ARC
  5
42E
100
AcDbEntity
  8
IMPORT_IGES
100
AcDbCircle
 62
7
  6
CONTINUOUS
 10
79.0686795785
 20
168.8386194147
 40
3.0600000422
100
AcDbArc
 50
354.2608296023
 51
185.7391703977
  0
ARC
  5
42F
100
AcDbEntity
  8
IMPORT_IGES
100
AcDbCircle
 62
7
  6
CONTINUOUS
 10
79.0686795785
 20
163.6366194147
 40
2.1420002094
100
AcDbArc
 50
351.7867901066
 51
77.6263759503
  0
ARC
  5
430
100
AcDbEntity
  8
IMPORT_IGES
100
AcDbCircle
 62
7
  6
CONTINUOUS
 10
79.0686795785
 20
168.8386194147
 40
2.1420002094
100
AcDbArc
 50
351.7867901068
 51
188.2132098932
  0
ARC
  5
431
100
AcDbEntity
  8
IMPORT_IGES
100
AcDbCircle
 62
7
  6
CONTINUOUS
 10
79.0686795786
 20
163.6366194147
 40
2.1419996751
100
AcDbArc
 50
102.3736270231
 51
188.2132118485
  0
CIRCLE
  5
432
100
AcDbEntity
  8
IMPORT_IGES
100
AcDbCircle
 62
250
  6
CONTINUOUS
 10
69.9666171186
 20
177.7864853843
 40
3.3999788348
  0
CIRCLE
  5
433
100
AcDbEntity
  8
IMPORT_IGES
100
AcDbCircle
 62
7
  6
CONTINUOUS
 10
69.9666171186
 20
177.7864853843
 40
2.9
  0
CIRCLE
  5
434
100
AcDbEntity
  8
IMPORT_IGES
100
AcDbCircle
 62
7
  6
CONTINUOUS
 10
69.9666171186
 20
177.7864853843
 40
2.4999993374
  0
ARC
  5
435
100
AcDbEntity
  8
IMPORT_IGES
100
AcDbCircle
 62
250
  6
CONTINUOUS
 10
69.9666171186
 20
177.7864853843
 40
2.2222222222
100
AcDbArc
 50
284.1813512976
 51
75.8186487024
  0
ARC
  5
436
100
AcDbEntity
  8
IMPORT_IGES
100
AcDbCircle
 62
250
  6
CONTINUOUS
 10
69.9666171186
 20
177.7864853843
 40
2.222209717
100
AcDbArc
 50
104.1819873104
 51
255.8180126897
  0
CIRCLE
  5
437
100
AcDbEntity
  8
IMPORT_IGES
100
AcDbCircle
 62
250
  6
CONTINUOUS
 10
143.9667274569
 20
177.7864853843
 40
3.3999788348
  0
CIRCLE
  5
438
100
AcDbEntity
  8
IMPORT_IGES
100
AcDbCircle
 62
7
  6
CONTINUOUS
 10
143.9667274569
 20
177.7864853843
 40
2.9
  0
CIRCLE
  5
439
100
AcDbEntity
  8
IMPORT_IGES
100
AcDbCircle
 62
7
  6
CONTINUOUS
 10
143.9667274569
 20
177.7864853843
 40
2.4999993374
  0
ARC
  5
43A
100
AcDbEntity
  8
IMPORT_IGES
100
AcDbCircle
 62
250
  6
CONTINUOUS
 10
143.9667274569
 20
177.7864853843
 40
2.2222222222
100
AcDbArc
 50
284.1813512976
 51
75.8186487024
  0
ARC
  5
43B
100
AcDbEntity
  8
IMPORT_IGES
100
AcDbCircle
 62
250
  6
CONTINUOUS
 10
143.9667274569
 20
177.7864853843
 40
2.222209717
100
AcDbArc
 50
104.1819873104
 51
255.8180126897
  0
ARC
  5
43C
100
AcDbEntity
  8
IMPORT_IGES
100
AcDbCircle
 62
7
  6
CONTINUOUS
 10
215.3079083634
 20
177.6729219554
 40
0.3
100
AcDbArc
 50
0.0
 51
90.0000000013
  0
ARC
  5
43D
100
AcDbEntity
  8
IMPORT_IGES
100
AcDbCircle
 62
7
  6
CONTINUOUS
 10
189.9079083634
 20
177.6729219554
 40
0.3
100
AcDbArc
 50
90.0000000006
 51
180.0000000004
  0
ARC
  5
43E
100
AcDbEntity
  8
ASSI
100
AcDbCircle
 62
7
  6
CONTINUOUS
 10
336.4692957289
 20
157.1009773973
 40
4.0936814123
100
AcDbArc
 50
315.4348980565
 51
337.5658614806
  0
CIRCLE
  5
43F
100
AcDbEntity
  8
IMPORT_IGES
100
AcDbCircle
 62
250
  6
CONTINUOUS
 10
228.9668377951
 20
136.7864854139
 40
3.3999788348
  0
CIRCLE
  5
440
100
AcDbEntity
  8
IMPORT_IGES
100
AcDbCircle
 62
7
  6
CONTINUOUS
 10
228.9668377951
 20
136.7864854139
 40
2.9
  0
ARC
  5
441
100
AcDbEntity
  8
IMPORT_IGES
100
AcDbCircle
 62
7
  6
CONTINUOUS
 10
369.559806729
 20
144.2864853973
 40
2.5
100
AcDbArc
 50
270.0001903095
 51
89.9999999998
  0
CIRCLE
  5
442
100
AcDbEntity
  8
IMPORT_IGES
100
AcDbCircle
 62
7
  6
CONTINUOUS
 10
228.9668377951
 20
136.7864854139
 40
2.4999993374
  0
ARC
  5
443
100
AcDbEntity
  8
IMPORT_IGES
100
AcDbCircle
 62
250
  6
CONTINUOUS
 10
228.9668377951
 20
136.7864854139
 40
2.2222222222
100
AcDbArc
 50
284.1813512976
 51
75.8186487024
  0
ARC
  5
444
100
AcDbEntity
  8
IMPORT_IGES
100
AcDbCircle
 62
250
  6
CONTINUOUS
 10
228.9668377951
 20
136.7864854139
 40
2.222209717
100
AcDbArc
 50
104.1819873104
 51
255.8180126897
  0
ARC
  5
445
100
AcDbEntity
  8
IMPORT_IGES
100
AcDbCircle
 62
7
  6
CONTINUOUS
 10
363.7669135101
 20
146.2864853973
 40
0.5
100
AcDbArc
 50
90.0006776766
 51
126.8698976446
  0
ARC
  5
446
100
AcDbEntity
  8
IMPORT_IGES
100
AcDbCircle
 62
7
  6
CONTINUOUS
 10
363.7669135101
 20
142.2864853973
 40
0.5
100
AcDbArc
 50
233.1301023547
 51
269.9999999992
  0
CIRCLE
  5
447
100
AcDbEntity
  8
IMPORT_IGES
100
AcDbCircle
 62
7
  6
CONTINUOUS
 10
344.0598067289
 20
157.2864853973
 40
6.0
  0
ARC
  5
448
100
AcDbEntity
  8
ASSI
100
AcDbCircle
 62
7
  6
CONTINUOUS
 10
344.5598067289
 20
157.2864853973
 40
4.6477727604
100
AcDbArc
 50
202.0885400607
 51
183.4298334223
  0
ARC
  5
449
100
AcDbEntity
  8
ASSI
100
AcDbCircle
 62
7
  6
CONTINUOUS
 10
335.7981567289
 20
157.4270613973
 40
4.143405103
100
AcDbArc
 50
317.2312690148
 51
354.2011523126
  0
CIRCLE
  5
44A
100
AcDbEntity
  8
ASSI
100
AcDbCircle
 62
7
  6
CONTINUOUS
 10
344.5598067289
 20
157.2864853973
 40
3.903804
  0
ARC
  5
44B
100
AcDbEntity
  8
ASSI
100
AcDbCircle
 62
7
  6
CONTINUOUS
 10
344.5598067289
 20
157.2864853973
 40
3.4914079543
100
AcDbArc
 50
44.9002637264
 51
150.6958558882
  0
ARC
  5
44C
100
AcDbEntity
  8
ASSI
100
AcDbCircle
 62
7
  6
CONTINUOUS
 10
344.5598067289
 20
157.2864853973
 40
3.49140795
100
AcDbArc
 50
209.3041441118
 51
314.9957650772
  0
CIRCLE
  5
44D
100
AcDbEntity
  8
IMPORT_IGES
100
AcDbCircle
 62
250
  6
CONTINUOUS
 10
228.9668377951
 20
177.7864853843
 40
3.3999788348
  0
CIRCLE
  5
44E
100
AcDbEntity
  8
IMPORT_IGES
100
AcDbCircle
 62
7
  6
CONTINUOUS
 10
228.9668377951
 20
177.7864853843
 40
2.9
  0
ARC
  5
44F
100
AcDbEntity
  8
ASSI
100
AcDbCircle
 62
7
  6
CONTINUOUS
 10
344.5598067289
 20
157.2864853973
 40
2.7972490994
100
AcDbArc
 50
209.3041427885
 51
301.973278903
  0
ARC
  5
450
100
AcDbEntity
  8
ASSI
100
AcDbCircle
 62
7
  6
CONTINUOUS
 10
344.5598067289
 20
157.2864853973
 40
2.7972480307
100
AcDbArc
 50
58.0267242642
 51
150.6958572115
  0
ARC
  5
451
100
AcDbEntity
  8
IMPORT_IGES
100
AcDbCircle
 62
7
  6
CONTINUOUS
 10
369.559806729
 20
170.2864853973
 40
2.5
100
AcDbArc
 50
270.0001903095
 51
89.9999999998
  0
ARC
  5
452
100
AcDbEntity
  8
IMPORT_IGES
100
AcDbCircle
 62
7
  6
CONTINUOUS
 10
370.059806729
 20
157.2864853973
 40
2.5
100
AcDbArc
 50
270.0
 51
90.0
  0
CIRCLE
  5
453
100
AcDbEntity
  8
IMPORT_IGES
100
AcDbCircle
 62
7
  6
CONTINUOUS
 10
228.9668377951
 20
177.7864853843
 40
2.4999993374
  0
ARC
  5
454
100
AcDbEntity
  8
IMPORT_IGES
100
AcDbCircle
 62
250
  6
CONTINUOUS
 10
228.9668377951
 20
177.7864853843
 40
2.2222222222
100
AcDbArc
 50
284.1813512976
 51
75.8186487024
  0
ARC
  5
455
100
AcDbEntity
  8
IMPORT_IGES
100
AcDbCircle
 62
250
  6
CONTINUOUS
 10
228.9668377951
 20
177.7864853843
 40
2.222209717
100
AcDbArc
 50
104.1819873104
 51
255.8180126897
  0
ARC
  5
456
100
AcDbEntity
  8
IMPORT_IGES
100
AcDbCircle
 62
7
  6
CONTINUOUS
 10
363.7669135101
 20
172.2864853973
 40
0.5
100
AcDbArc
 50
90.0006776766
 51
126.8698976446
  0
ARC
  5
457
100
AcDbEntity
  8
IMPORT_IGES
100
AcDbCircle
 62
7
  6
CONTINUOUS
 10
363.7669135101
 20
168.2864853973
 40
0.5
100
AcDbArc
 50
233.1301023547
 51
269.9999999992
  0
ENDSEC
  0
SECTION
  2
OBJECTS
  0
DICTIONARY
  5
C
100
AcDbDictionary
280
0
281
1
  3
ACAD_GROUP
350
D
  3
ACAD_MLINESTYLE
350
17
  3
ACAD_LAYOUT
350
1A
  3
ACAD_PLOTSETTINGS
350
19
  3
ACAD_PLOTSTYLENAME
350
E
  0
DICTIONARY
  5
D
102
{ACAD_REACTORS
330
C
102
}
100
AcDbDictionary
280
0
281
1
  0
ACDBDICTIONARYWDFLT
  5
E
102
{ACAD_REACTORS
330
C
102
}
100
AcDbDictionary
281
1
  3
Normal
350
F
100
AcDbDictionaryWithDefault
340
F
  0
DICTIONARY
  5
17
102
{ACAD_REACTORS
330
C
102
}
100
AcDbDictionary
280
0
281
1
  3
Standard
350
18
  0
DICTIONARY
  5
19
102
{ACAD_REACTORS
330
C
102
}
100
AcDbDictionary
281
1
  0
DICTIONARY
  5
1A
102
{ACAD_REACTORS
330
C
102
}
100
AcDbDictionary
281
1
  3
Model
350
458
  3
Layout1
350
459
  0
ACDBPLACEHOLDER
  5
F
102
{ACAD_REACTORS
330
E
102
}
  0
MLINESTYLE
  5
18
102
{ACAD_REACTORS
330
17
102
}
100
AcDbMlineStyle
  2
STANDARD
 70
0
  3

 62
256
 51
90.0
 52
90.0
 71
2
 49
0.5
 62
256
  6
BYLAYER
 49
-0.5
 62
256
  6
BYLAYER
  0
LAYOUT
  5
458
102
{ACAD_REACTORS
330
1A
102
}
100
AcDbPlotSettings
  1

  2
none_device
  4
ISO_A3_(420.00_x_297.00_MM)
  6

 40
0.0
 41
0.0
 42
0.0
 43
0.0
 44
420.0
 45
297.0
 46
0.0
 47
0.0
 48
0.0
 49
0.0
140
0.0
141
0.0
142
1.0
143
1.0
 70
1024
 72
1
 73
0
 74
0
  7

 75
0
147
1.0
148
0.0
149
0.0
100
AcDbLayout
  1
Model
 70
0
 71
0
 10
0.0
 20
0.0
 11
420.0
 21
297.0
 12
0.0
 22
0.0
 32
0.0
 14
0.0
 24
0.0
 34
0.0
 15
0.0
 25
0.0
 35
0.0
146
0.0
 13
0.0
 23
0.0
 33
0.0
 16
1.0
 26
0.0
 36
0.0
 17
0.0
 27
1.0
 37
0.0
 76
0
330
244
345
0
346
0
  0
LAYOUT
  5
459
102
{ACAD_REACTORS
330
1A
102
}
100
AcDbPlotSettings
  1

  2
none_device
  4
ISO_A3_(420.00_x_297.00_MM)
  6

 40
0.0
 41
0.0
 42
0.0
 43
0.0
 44
420.0
 45
297.0
 46
0.0
 47
0.0
 48
0.0
 49
0.0
140
0.0
141
0.0
142
1.0
143
1.0
 70
0
 72
1
 73
0
 74
0
  7

 75
0
147
1.0
148
0.0
149
0.0
100
AcDbLayout
  1
Layout1
 70
0
 71
1
 10
0.0
 20
0.0
 11
420.0
 21
297.0
 12
0.0
 22
0.0
 32
0.0
 14
0.0
 24
0.0
 34
0.0
 15
0.0
 25
0.0
 35
0.0
146
0.0
 13
0.0
 23
0.0
 33
0.0
 16
1.0
 26
0.0
 36
0.0
 17
0.0
 27
1.0
 37
0.0
 76
0
330
245
345
0
346
0
  0
ENDSEC
  0
EOF
