  0
SECTION
  2
HEADER
  9
$ACADVER
  1
AC1024
  9
$DWGCODEPAGE
  3
ANSI_1252
  9
$EXTMAX
 10
420.0
 20
297.0
 30
0.0
  9
$EXTMIN
 10
0.0
 20
-0.0
 30
0.0
  9
$LIMMIN
 10
0.0
 20
-0.0
  9
$LIMMAX
 10
420.0
 20
297.0
  9
$VIEWCTR
 10
210.0
 20
148.5
  9
$VIEWSIZE
 40
297.0
  9
$CLAYER
  8
0
  9
$LTSCALE
 40
23.1
  9
$CELTYPE
  6
BYLAYER
  9
$DIMSCALE
 40
1.0
  9
$DIMASZ
 40
3.0
  9
$DIMEXO
 40
0.5
  9
$DIMDLI
 40
15.96
  9
$DIMEXE
 40
1.5
  9
$DIMCEN
 40
3.78
  9
$DIMLFAC
 40
1.0
  9
$DIMBLK
  1
_FILLED
  9
$DIMALT
 70
0
  9
$DIMALTF
 40
0.0393700787
  9
$DIMTXT
 40
3.0
  9
$DIMTOL
 70
1
  9
$DIMLIM
 70
0
  9
$DIMTFAC
 40
1.0
  9
$DIMTP
 40
0.01
  9
$DIMTM
 40
0.01
  9
$DIMGAP
 40
0.625
  9
$DIMDSEP
 70
44
  9
$AUNITS
 70
0
  9
$PDMODE
 70
3
  9
$PDSIZE
 40
3.0
  9
$HANDSEED
  5
489
  9
$TILEMODE
 70
1
  9
$MEASUREMENT
 70
1
  9
$INSUNITS
 70
4
  0
ENDSEC
  0
SECTION
  2
CLASSES
  0
CLASS
  1
ACDBDICTIONARYWDFLT
  2
AcDbDictionaryWithDefault
  3
AutoCAD 2000
 90
0
 91
1
280
0
281
0
  0
CLASS
  1
ACDBPLACEHOLDER
  2
AcDbPlaceHolder
  3
AutoCAD 2000
 90
0
 91
1
280
0
281
0
  0
CLASS
  1
LAYOUT
  2
AcDbLayout
  3
AutoCAD 2000
 90
0
 91
0
280
0
281
0
  0
ENDSEC
  0
SECTION
  2
TABLES
  0
TABLE
  2
VPORT
  5
8
100
AcDbSymbolTable
 70
2
  0
VPORT
  5
1F4
100
AcDbSymbolTableRecord
100
AcDbViewportTableRecord
  2
*ACTIVE
 70
0
 10
0.0
 20
0.0
 11
1.0
 21
1.0
 12
210.0
 22
148.5
 13
0.0
 23
0.0
 14
1.0
 24
1.0
 15
0.0
 25
0.0
 16
0.0
 26
0.0
 36
1.0
 17
0.0
 27
0.0
 37
0.0
 40
297.0
 41
1.4141414141
 42
50.0
 43
0.0
 44
0.0
 50
0.0
 51
0.0
 71
0
 72
100
 73
1
 74
1
 75
0
 76
0
 77
0
 78
0
  0
ENDTAB
  0
TABLE
  2
LTYPE
  5
5
100
AcDbSymbolTable
 70
6
  0
LTYPE
  5
14
100
AcDbSymbolTableRecord
100
AcDbLinetypeTableRecord
  2
BYBLOCK
 70
0
  3

 72
65
 73
0
 40
0.0
  0
LTYPE
  5
15
100
AcDbSymbolTableRecord
100
AcDbLinetypeTableRecord
  2
BYLAYER
 70
0
  3

 72
65
 73
0
 40
0.0
  0
LTYPE
  5
16
100
AcDbSymbolTableRecord
100
AcDbLinetypeTableRecord
  2
CONTINUOUS
 70
64
  3
Solid line
 72
65
 73
0
 40
0.0
  0
LTYPE
  5
1F5
100
AcDbSymbolTableRecord
100
AcDbLinetypeTableRecord
  2
CENTER
 70
64
  3
____ _ ____ _ ____ _ ____ _ ____ _ ____ _ ____
 72
65
 73
4
 40
0.6
 49
0.375
 74
0
 49
-0.075
 74
0
 49
0.075
 74
0
 49
-0.075
 74
0
  0
LTYPE
  5
1F6
100
AcDbSymbolTableRecord
100
AcDbLinetypeTableRecord
  2
HIDDEN
 70
64
  3
- - - - - - - - - - - - - - - - - - - -
 72
65
 73
2
 40
0.2
 49
0.1
 74
0
 49
-0.1
 74
0
  0
LTYPE
  5
1F7
100
AcDbSymbolTableRecord
100
AcDbLinetypeTableRecord
  2
PHANTOM
 70
64
  3
_____ _ _ _____ _ _ _____ _ _ _____
 72
65
 73
6
 40
0.8
 49
0.45
 74
0
 49
-0.05
 74
0
 49
0.1
 74
0
 49
-0.05
 74
0
 49
0.1
 74
0
 49
-0.05
 74
0
  0
LTYPE
  5
1F8
100
AcDbSymbolTableRecord
100
AcDbLinetypeTableRecord
  2
DOT
 70
64
  3
. . . . . . . . . . . . . . . . . . . .
 72
65
 73
2
 40
0.2
 49
0.1
 74
0
 49
-0.1
 74
0
  0
LTYPE
  5
1F9
100
AcDbSymbolTableRecord
100
AcDbLinetypeTableRecord
  2
DASHED
 70
64
  3
- - - - - - - - - - - - - - - - - - - -
 72
65
 73
2
 40
0.2
 49
0.1
 74
0
 49
-0.1
 74
0
  0
ENDTAB
  0
TABLE
  2
LAYER
  5
2
100
AcDbSymbolTable
 70
36
  0
LAYER
  5
10
100
AcDbSymbolTableRecord
100
AcDbLayerTableRecord
  2
0
 70
0
 62
7
  6
CONTINUOUS
370
-3
390
F
  0
LAYER
  5
1FA
100
AcDbSymbolTableRecord
100
AcDbLayerTableRecord
  2
DEFAULT_1
 70
0
 62
7
  6
CENTER
370
-3
390
F
  0
LAYER
  5
1FB
100
AcDbSymbolTableRecord
100
AcDbLayerTableRecord
  2
DEFAULT_2
 70
0
 62
7
  6
HIDDEN
370
-3
390
F
  0
LAYER
  5
1FC
100
AcDbSymbolTableRecord
100
AcDbLayerTableRecord
  2
DEFAULT_3
 70
0
 62
7
  6
PHANTOM
370
-3
390
F
  0
LAYER
  5
1FD
100
AcDbSymbolTableRecord
100
AcDbLayerTableRecord
  2
10
 70
0
 62
7
  6
CONTINUOUS
370
-3
390
F
  0
LAYER
  5
1FE
100
AcDbSymbolTableRecord
100
AcDbLayerTableRecord
  2
11
 70
0
 62
7
  6
CONTINUOUS
370
-3
390
F
  0
LAYER
  5
1FF
100
AcDbSymbolTableRecord
100
AcDbLayerTableRecord
  2
11_1
 70
0
 62
7
  6
CONTINUOUS
370
-3
390
F
  0
LAYER
  5
200
100
AcDbSymbolTableRecord
100
AcDbLayerTableRecord
  2
11_2
 70
0
 62
7
  6
CONTINUOUS
370
-3
390
F
  0
LAYER
  5
201
100
AcDbSymbolTableRecord
100
AcDbLayerTableRecord
  2
11_3
 70
0
 62
7
  6
CONTINUOUS
370
-3
390
F
  0
LAYER
  5
202
100
AcDbSymbolTableRecord
100
AcDbLayerTableRecord
  2
11_4
 70
0
 62
7
  6
CONTINUOUS
370
-3
390
F
  0
LAYER
  5
203
100
AcDbSymbolTableRecord
100
AcDbLayerTableRecord
  2
11_5
 70
0
 62
7
  6
CONTINUOUS
370
-3
390
F
  0
LAYER
  5
204
100
AcDbSymbolTableRecord
100
AcDbLayerTableRecord
  2
11_6
 70
0
 62
7
  6
CONTINUOUS
370
-3
390
F
  0
LAYER
  5
205
100
AcDbSymbolTableRecord
100
AcDbLayerTableRecord
  2
12
 70
0
 62
7
  6
CONTINUOUS
370
-3
390
F
  0
LAYER
  5
206
100
AcDbSymbolTableRecord
100
AcDbLayerTableRecord
  2
12_1
 70
0
 62
7
  6
CONTINUOUS
370
-3
390
F
  0
LAYER
  5
207
100
AcDbSymbolTableRecord
100
AcDbLayerTableRecord
  2
12_2
 70
0
 62
7
  6
CONTINUOUS
370
-3
390
F
  0
LAYER
  5
208
100
AcDbSymbolTableRecord
100
AcDbLayerTableRecord
  2
12_3
 70
0
 62
7
  6
CONTINUOUS
370
-3
390
F
  0
LAYER
  5
209
100
AcDbSymbolTableRecord
100
AcDbLayerTableRecord
  2
12_4
 70
0
 62
7
  6
CONTINUOUS
370
-3
390
F
  0
LAYER
  5
20A
100
AcDbSymbolTableRecord
100
AcDbLayerTableRecord
  2
12_5
 70
0
 62
7
  6
CONTINUOUS
370
-3
390
F
  0
LAYER
  5
20B
100
AcDbSymbolTableRecord
100
AcDbLayerTableRecord
  2
2
 70
0
 62
7
  6
CONTINUOUS
370
-3
390
F
  0
LAYER
  5
20C
100
AcDbSymbolTableRecord
100
AcDbLayerTableRecord
  2
3
 70
0
 62
7
  6
CONTINUOUS
370
-3
390
F
  0
LAYER
  5
20D
100
AcDbSymbolTableRecord
100
AcDbLayerTableRecord
  2
4
 70
0
 62
7
  6
CONTINUOUS
370
-3
390
F
  0
LAYER
  5
20E
100
AcDbSymbolTableRecord
100
AcDbLayerTableRecord
  2
5
 70
0
 62
7
  6
CONTINUOUS
370
-3
390
F
  0
LAYER
  5
20F
100
AcDbSymbolTableRecord
100
AcDbLayerTableRecord
  2
6
 70
0
 62
7
  6
CONTINUOUS
370
-3
390
F
  0
LAYER
  5
210
100
AcDbSymbolTableRecord
100
AcDbLayerTableRecord
  2
7
 70
0
 62
7
  6
CONTINUOUS
370
-3
390
F
  0
LAYER
  5
211
100
AcDbSymbolTableRecord
100
AcDbLayerTableRecord
  2
9
 70
0
 62
7
  6
CONTINUOUS
370
-3
390
F
  0
LAYER
  5
212
100
AcDbSymbolTableRecord
100
AcDbLayerTableRecord
  2
ASSI
 70
0
 62
7
  6
CONTINUOUS
370
-3
390
F
  0
LAYER
  5
213
100
AcDbSymbolTableRecord
100
AcDbLayerTableRecord
  2
COLOR1
 70
0
 62
7
  6
CONTINUOUS
370
-3
390
F
  0
LAYER
  5
214
100
AcDbSymbolTableRecord
100
AcDbLayerTableRecord
  2
COLOR10
 70
0
 62
7
  6
CONTINUOUS
370
-3
390
F
  0
LAYER
  5
215
100
AcDbSymbolTableRecord
100
AcDbLayerTableRecord
  2
COLOR16
 70
0
 62
7
  6
CONTINUOUS
370
-3
390
F
  0
LAYER
  5
216
100
AcDbSymbolTableRecord
100
AcDbLayerTableRecord
  2
COLOR18
 70
0
 62
7
  6
CONTINUOUS
370
-3
390
F
  0
LAYER
  5
217
100
AcDbSymbolTableRecord
100
AcDbLayerTableRecord
  2
COLOR5
 70
0
 62
7
  6
CONTINUOUS
370
-3
390
F
  0
LAYER
  5
218
100
AcDbSymbolTableRecord
100
AcDbLayerTableRecord
  2
COORDINATE
 70
0
 62
7
  6
CONTINUOUS
370
-3
390
F
  0
LAYER
  5
219
100
AcDbSymbolTableRecord
100
AcDbLayerTableRecord
  2
COPY_PUBLISH
 70
0
 62
7
  6
CONTINUOUS
370
-3
390
F
  0
LAYER
  5
21A
100
AcDbSymbolTableRecord
100
AcDbLayerTableRecord
  2
COSMETICI
 70
0
 62
7
  6
CONTINUOUS
370
-3
390
F
  0
LAYER
  5
21B
100
AcDbSymbolTableRecord
100
AcDbLayerTableRecord
  2
CURVE
 70
0
 62
7
  6
CONTINUOUS
370
-3
390
F
  0
LAYER
  5
21C
100
AcDbSymbolTableRecord
100
AcDbLayerTableRecord
  2
DRAFT
 70
0
 62
7
  6
CONTINUOUS
370
-3
390
F
  0
LAYER
  5
21D
100
AcDbSymbolTableRecord
100
AcDbLayerTableRecord
  2
IMPORT_IGES
 70
0
 62
7
  6
CONTINUOUS
370
-3
390
F
  0
LAYER
  5
21E
100
AcDbSymbolTableRecord
100
AcDbLayerTableRecord
  2
INTF_10
 70
0
 62
7
  6
CONTINUOUS
370
-3
390
F
  0
LAYER
  5
21F
100
AcDbSymbolTableRecord
100
AcDbLayerTableRecord
  2
INTF_11
 70
0
 62
7
  6
CONTINUOUS
370
-3
390
F
  0
LAYER
  5
220
100
AcDbSymbolTableRecord
100
AcDbLayerTableRecord
  2
INTF_12
 70
0
 62
7
  6
CONTINUOUS
370
-3
390
F
  0
LAYER
  5
221
100
AcDbSymbolTableRecord
100
AcDbLayerTableRecord
  2
INTF_2
 70
0
 62
7
  6
CONTINUOUS
370
-3
390
F
  0
LAYER
  5
222
100
AcDbSymbolTableRecord
100
AcDbLayerTableRecord
  2
INTF_3
 70
0
 62
7
  6
CONTINUOUS
370
-3
390
F
  0
LAYER
  5
223
100
AcDbSymbolTableRecord
100
AcDbLayerTableRecord
  2
INTF_4
 70
0
 62
7
  6
CONTINUOUS
370
-3
390
F
  0
LAYER
  5
224
100
AcDbSymbolTableRecord
100
AcDbLayerTableRecord
  2
INTF_5
 70
0
 62
7
  6
CONTINUOUS
370
-3
390
F
  0
LAYER
  5
225
100
AcDbSymbolTableRecord
100
AcDbLayerTableRecord
  2
INTF_6
 70
0
 62
7
  6
CONTINUOUS
370
-3
390
F
  0
LAYER
  5
226
100
AcDbSymbolTableRecord
100
AcDbLayerTableRecord
  2
INTF_7
 70
0
 62
7
  6
CONTINUOUS
370
-3
390
F
  0
LAYER
  5
227
100
AcDbSymbolTableRecord
100
AcDbLayerTableRecord
  2
INTF_9
 70
0
 62
7
  6
CONTINUOUS
370
-3
390
F
  0
LAYER
  5
228
100
AcDbSymbolTableRecord
100
AcDbLayerTableRecord
  2
INTF_YELLOW
 70
0
 62
7
  6
CONTINUOUS
370
-3
390
F
  0
LAYER
  5
229
100
AcDbSymbolTableRecord
100
AcDbLayerTableRecord
  2
NOTE
 70
0
 62
7
  6
CONTINUOUS
370
-3
390
F
  0
LAYER
  5
22A
100
AcDbSymbolTableRecord
100
AcDbLayerTableRecord
  2
PALE_STEEL
 70
0
 62
7
  6
CONTINUOUS
370
-3
390
F
  0
LAYER
  5
22B
100
AcDbSymbolTableRecord
100
AcDbLayerTableRecord
  2
PIANI
 70
0
 62
7
  6
CONTINUOUS
370
-3
390
F
  0
LAYER
  5
22C
100
AcDbSymbolTableRecord
100
AcDbLayerTableRecord
  2
PUNTI
 70
0
 62
7
  6
CONTINUOUS
370
-3
390
F
  0
LAYER
  5
22D
100
AcDbSymbolTableRecord
100
AcDbLayerTableRecord
  2
RACCORDO
 70
0
 62
7
  6
CONTINUOUS
370
-3
390
F
  0
LAYER
  5
22E
100
AcDbSymbolTableRecord
100
AcDbLayerTableRecord
  2
SIMBOLI
 70
0
 62
7
  6
CONTINUOUS
370
-3
390
F
  0
LAYER
  5
22F
100
AcDbSymbolTableRecord
100
AcDbLayerTableRecord
  2
SMUSSO
 70
0
 62
7
  6
CONTINUOUS
370
-3
390
F
  0
LAYER
  5
230
100
AcDbSymbolTableRecord
100
AcDbLayerTableRecord
  2
SNAPLINE
 70
0
 62
7
  6
CONTINUOUS
370
-3
390
F
  0
LAYER
  5
231
100
AcDbSymbolTableRecord
100
AcDbLayerTableRecord
  2
SUPERFICI
 70
0
 62
7
  6
CONTINUOUS
370
-3
390
F
  0
LAYER
  5
232
100
AcDbSymbolTableRecord
100
AcDbLayerTableRecord
  2
TRASH
 70
0
 62
7
  6
CONTINUOUS
370
-3
390
F
  0
LAYER
  5
233
100
AcDbSymbolTableRecord
100
AcDbLayerTableRecord
  2
VIMAR-IS-02KU3_1_1
 70
0
 62
7
  6
CONTINUOUS
370
-3
390
F
  0
LAYER
  5
234
100
AcDbSymbolTableRecord
100
AcDbLayerTableRecord
  2
VIMAR-IS-02KU3_1_1_10
 70
0
 62
7
  6
CONTINUOUS
370
-3
390
F
  0
LAYER
  5
235
100
AcDbSymbolTableRecord
100
AcDbLayerTableRecord
  2
VIMAR-IS-02KU3_1_1_11
 70
0
 62
7
  6
CONTINUOUS
370
-3
390
F
  0
LAYER
  5
236
100
AcDbSymbolTableRecord
100
AcDbLayerTableRecord
  2
VIMAR-IS-02KU3_1_1_2
 70
0
 62
7
  6
CONTINUOUS
370
-3
390
F
  0
LAYER
  5
237
100
AcDbSymbolTableRecord
100
AcDbLayerTableRecord
  2
VIMAR-IS-02KU3_1_1_41
 70
0
 62
7
  6
CONTINUOUS
370
-3
390
F
  0
LAYER
  5
238
100
AcDbSymbolTableRecord
100
AcDbLayerTableRecord
  2
VIMAR-IS-02KU3_1_1_42
 70
0
 62
7
  6
CONTINUOUS
370
-3
390
F
  0
LAYER
  5
239
100
AcDbSymbolTableRecord
100
AcDbLayerTableRecord
  2
VIMAR-IS-02KU3_1_1_43
 70
0
 62
7
  6
CONTINUOUS
370
-3
390
F
  0
LAYER
  5
23A
100
AcDbSymbolTableRecord
100
AcDbLayerTableRecord
  2
VIMAR-IS-02KU3_1_1_44
 70
0
 62
7
  6
CONTINUOUS
370
-3
390
F
  0
LAYER
  5
23B
100
AcDbSymbolTableRecord
100
AcDbLayerTableRecord
  2
VIMAR-IS-02KU3_1_1_45
 70
0
 62
7
  6
CONTINUOUS
370
-3
390
F
  0
LAYER
  5
23C
100
AcDbSymbolTableRecord
100
AcDbLayerTableRecord
  2
VIMAR-IS-02KU3_1_1_7
 70
0
 62
7
  6
CONTINUOUS
370
-3
390
F
  0
LAYER
  5
23D
100
AcDbSymbolTableRecord
100
AcDbLayerTableRecord
  2
VIMAR-IS-02KU3_1_1_8
 70
0
 62
7
  6
CONTINUOUS
370
-3
390
F
  0
LAYER
  5
23E
100
AcDbSymbolTableRecord
100
AcDbLayerTableRecord
  2
VIMAR-IS-02KU3_1_1_9
 70
0
 62
7
  6
CONTINUOUS
370
-3
390
F
  0
LAYER
  5
23F
100
AcDbSymbolTableRecord
100
AcDbLayerTableRecord
  2
___SHELL
 70
0
 62
7
  6
CONTINUOUS
370
-3
390
F
  0
ENDTAB
  0
TABLE
  2
STYLE
  5
3
100
AcDbSymbolTable
 70
1
  0
STYLE
  5
11
100
AcDbSymbolTableRecord
100
AcDbTextStyleTableRecord
  2
STANDARD
 70
0
 40
0.0
 41
0.8
 50
0.0
 71
0
 42
0.2
  3
txt
  4

  0
STYLE
  5
240
100
AcDbSymbolTableRecord
100
AcDbTextStyleTableRecord
  2
TEXTSTYLE_1
 70
0
 40
0.0
 41
0.8
 50
0.0
 71
0
 42
0.2
  3
gdt
  4

  0
ENDTAB
  0
TABLE
  2
VIEW
  5
6
100
AcDbSymbolTable
 70
0
  0
ENDTAB
  0
TABLE
  2
UCS
  5
7
100
AcDbSymbolTable
 70
0
  0
ENDTAB
  0
TABLE
  2
APPID
  5
9
100
AcDbSymbolTable
 70
1
  0
APPID
  5
241
100
AcDbSymbolTableRecord
100
AcDbRegAppTableRecord
  2
ACAD
 70
0
  0
ENDTAB
  0
TABLE
  2
BLOCK_RECORD
  5
1
100
AcDbSymbolTable
 70
0
  0
BLOCK_RECORD
  5
242
100
AcDbSymbolTableRecord
100
AcDbBlockTableRecord
  2
*Model_Space
  0
BLOCK_RECORD
  5
243
100
AcDbSymbolTableRecord
100
AcDbBlockTableRecord
  2
*Paper_Space
  0
BLOCK_RECORD
  5
244
100
AcDbSymbolTableRecord
100
AcDbBlockTableRecord
  2
_FILLED
  0
ENDTAB
  0
TABLE
  2
DIMSTYLE
  5
A
100
AcDbSymbolTable
 70
1
100
AcDbDimStyleTable
 71
0
  0
DIMSTYLE
105
245
100
AcDbSymbolTableRecord
100
AcDbDimStyleTableRecord
  2
STANDARD
 70
0
  3

  4

 40
1.0
 41
3.0
 42
0.5
 43
0.38
 44
1.5
 45
0.0
 46
0.0
 47
0.01
 48
0.01
140
3.0
141
0.09
142
0.0
143
25.4
144
1.0
145
0.0
146
1.0
147
0.625
 71
1
 72
0
 73
0
 74
0
 75
0
 76
0
 77
1
 78
8
 79
2
170
0
171
1
172
0
173
0
174
0
175
0
176
0
177
0
178
0
270
2
179
2
271
2
272
2
273
2
274
2
275
0
280
0
281
0
282
0
283
1
284
8
285
0
286
0
287
3
288
0
340
11
278
44
341
244
342
244
343
244
344
244
  0
ENDTAB
  0
ENDSEC
  0
SECTION
  2
BLOCKS
  0
BLOCK
  5
20
100
AcDbEntity
  8
0
100
AcDbBlockBegin
  2
*Model_Space
 70
0
 10
0.0
 20
0.0
 30
0.0
  3
*Model_Space
  1

  0
ENDBLK
  5
21
100
AcDbEntity
  8
0
100
AcDbBlockEnd
  0
BLOCK
  5
1C
100
AcDbEntity
  8
0
100
AcDbBlockBegin
  2
*Paper_Space
 70
0
 10
0.0
 20
0.0
 30
0.0
  3
*Paper_Space
  1

  0
ENDBLK
  5
1D
100
AcDbEntity
  8
0
100
AcDbBlockEnd
  0
BLOCK
  5
246
100
AcDbEntity
  8
0
100
AcDbBlockBegin
  2
_FILLED
 70
64
 10
0.0
 20
0.0
  3
_FILLED
  1

  0
SOLID
  5
247
100
AcDbEntity
  8
0
  6
BYBLOCK
 62
0
100
AcDbTrace
 10
0.0
 20
0.0
 11
-1.0
 21
0.3166666667
 12
-1.0
 22
-0.3166666667
 13
-1.0
 23
-0.3166666667
  0
ENDBLK
  5
248
100
AcDbEntity
  8
0
  6
BYBLOCK
 62
0
100
AcDbBlockEnd
  0
ENDSEC
  0
SECTION
  2
ENTITIES
  0
LINE
  5
249
100
AcDbEntity
  8
IMPORT_IGES
100
AcDbLine
 62
7
  6
CONTINUOUS
 10
25.341830537
 20
141.9107874191
 11
25.2829275356
 21
142.4979456541
  0
LWPOLYLINE
  5
24A
100
AcDbEntity
  8
IMPORT_IGES
100
AcDbPolyline
 62
7
  6
CONTINUOUS
 90
11
 70
0
 10
25.0444096928
 20
149.1238803075
 10
25.0373490879
 20
148.425503232
 10
25.0373246352
 20
147.7204164466
 10
25.0443119109
 20
147.0234217168
 10
25.0584318003
 20
146.337269868
 10
25.0795634182
 20
145.6592100748
 10
25.1073196849
 20
144.9957916264
 10
25.1418036424
 20
144.3491453754
 10
25.1829122487
 20
143.7171404692
 10
25.2299492981
 20
143.0999336394
 10
25.2829265848
 20
142.4979543123
  0
LWPOLYLINE
  5
24B
100
AcDbEntity
  8
IMPORT_IGES
100
AcDbPolyline
 62
7
  6
CONTINUOUS
 90
11
 70
0
 10
25.0444054347
 20
149.1235998889
 10
25.0586398379
 20
149.8129292717
 10
25.0799100247
 20
150.4955466227
 10
25.1078171784
 20
151.1636229701
 10
25.142492322
 20
151.814901148
 10
25.1838044325
 20
152.4516383223
 10
25.2309616248
 20
153.0727770188
 10
25.2839559879
 20
153.6776629773
 10
25.3427954329
 20
154.2669504581
 10
25.4067118077
 20
154.8415447681
 10
25.475631684
 20
155.4010629113
  0
LINE
  5
24C
100
AcDbEntity
  8
IMPORT_IGES
100
AcDbLine
 62
7
  6
CONTINUOUS
 10
25.5496325063
 20
155.9459142727
 11
25.4756329842
 21
155.4010690066
  0
LWPOLYLINE
  5
24D
100
AcDbEntity
  8
IMPORT_IGES
100
AcDbPolyline
 62
7
  6
CONTINUOUS
 90
71
 70
0
 10
25.5496284902
 20
155.9458878837
 10
25.6281543599
 20
156.4780739801
 10
25.7111856409
 20
156.9978324365
 10
25.7987459855
 20
157.5049520169
 10
25.8903584843
 20
158.0008533088
 10
25.9860263982
 20
158.4858505848
 10
26.0857464664
 20
158.9596295723
 10
26.1890319976
 20
159.4226680406
 10
26.2958435212
 20
159.8748512332
 10
26.4062205078
 20
160.3162939065
 10
26.5197946768
 20
160.7478180995
 10
26.6365314569
 20
161.1693631819
 10
26.7564654195
 20
161.5809897839
 10
26.8793319984
 20
161.9837018352
 10
27.0051365941
 20
162.3775994307
 10
27.1338738061
 20
162.7625824754
 10
27.2652628663
 20
163.1393546143
 10
27.3993577251
 20
163.5081109926
 10
27.5361044321
 20
163.868656465
 10
27.675060367
 20
164.2211092403
 10
27.8161707593
 20
164.5653441776
 10
27.9594903796
 20
164.9014864178
 10
28.1047409199
 20
165.2300295925
 10
28.2518558094
 20
165.5509046652
 10
28.4009016189
 20
165.8641806723
 10
28.5517997525
 20
166.1705583558
 10
28.7044725106
 20
166.4699656569
 10
28.8589975928
 20
166.7624746343
 10
29.015529502
 20
167.0490022054
 10
29.1740355818
 20
167.3295403141
 10
29.3345484886
 20
167.6040970166
 10
29.4973206945
 20
167.8736133983
 10
29.6623641653
 20
168.1381455003
 10
29.8296669353
 20
168.3976372816
 10
29.9994455793
 20
168.6528617052
 10
30.1717568463
 20
168.9039691803
 10
30.3465439873
 20
169.1508092977
 10
30.5238533302
 20
169.3937037927
 10
30.7036913962
 20
169.6326897649
 10
30.886051664
 20
169.8677301148
 10
31.0709608975
 20
170.0990352792
 10
31.2584953988
 20
170.3267041692
 10
31.4485788658
 20
170.5506378737
 10
31.6410091557
 20
170.7707500968
 10
31.8357779789
 20
170.9870288201
 10
32.032893625
 20
171.199486062
 10
32.2321788202
 20
171.4080715814
 10
32.4336630716
 20
171.6128103745
 10
32.637316872
 20
171.8136774452
 10
32.8428744256
 20
172.0105475642
 10
33.0503237042
 20
172.203403708
 10
33.2596767359
 20
172.3922629001
 10
33.4707038092
 20
172.5770509817
 10
33.683433893
 20
172.7577845206
 10
33.8978380184
 20
172.9344469489
 10
34.1135995664
 20
173.1069144047
 10
34.3306357003
 20
173.2751138507
 10
34.5490292568
 20
173.4391183242
 10
34.7687121273
 20
173.5990230737
 10
34.9895584735
 20
173.7547608099
 10
35.2116941336
 20
173.9063988222
 10
35.4354285133
 20
174.0542342279
 10
35.6606837608
 20
174.1982643355
 10
35.8875377279
 20
174.3384918365
 10
36.1165333755
 20
174.4752219226
 10
36.3476260344
 20
174.6084482542
 10
36.5808603738
 20
174.7381771709
 10
36.8169133621
 20
174.8647328829
 10
37.0558172807
 20
174.9881504766
 10
37.2975398482
 20
175.1083948657
 10
37.5426611881
 20
175.2256850013
  0
LWPOLYLINE
  5
24E
100
AcDbEntity
  8
IMPORT_IGES
100
AcDbPolyline
 62
7
  6
CONTINUOUS
 90
21
 70
0
 10
27.3956252616
 20
132.674520532
 10
27.531426195
 20
132.3168286291
 10
27.6696668564
 20
131.9666142627
 10
27.810326413
 20
131.6238908355
 10
27.9534256976
 20
131.2886449449
 10
28.0987131029
 20
130.960405564
 10
28.2461754964
 20
130.639129512
 10
28.3958260104
 20
130.3248599698
 10
28.5474524347
 20
130.0172554533
 10
28.7009759172
 20
129.716421998
 10
28.8564753099
 20
129.4222535683
 10
29.0139749575
 20
129.1340905736
 10
29.1734325832
 20
128.8519752345
 10
29.3348904639
 20
128.5758653303
 10
29.4984997752
 20
128.3049746083
 10
29.6642578555
 20
128.0392741268
 10
29.8321673664
 20
127.7787928275
 10
30.0023874682
 20
127.5228312822
 10
30.1749509377
 20
127.2712788185
 10
30.3498249981
 20
127.0242461089
 10
30.5270704799
 20
126.7813657427
  0
LINE
  5
24F
100
AcDbEntity
  8
IMPORT_IGES
100
AcDbLine
 62
7
  6
CONTINUOUS
 10
27.3956651799
 20
132.6744127374
 11
27.2626204069
 21
133.0400022958
  0
LWPOLYLINE
  5
250
100
AcDbEntity
  8
IMPORT_IGES
100
AcDbPolyline
 62
7
  6
CONTINUOUS
 90
20
 70
0
 10
25.3418323145
 20
141.9107730614
 10
25.405934899
 20
141.3372583392
 10
25.4751855361
 20
140.7775887119
 10
25.5496330279
 20
140.2315856131
 10
25.6286921928
 20
139.6975817958
 10
25.7123708664
 20
139.175246266
 10
25.8006612131
 20
138.6649100175
 10
25.892954544
 20
138.1658987854
 10
25.9892688242
 20
137.6778666096
 10
26.0895860887
 20
137.2011594502
 10
26.1932437527
 20
136.7361409219
 10
26.3001594361
 20
136.283206886
 10
26.4104155191
 20
135.8419614812
 10
26.5235965582
 20
135.4115807383
 10
26.6395899178
 20
134.9923709437
 10
26.7585082336
 20
134.584025811
 10
26.8802739695
 20
134.184802512
 10
27.0048924756
 20
133.7945245971
 10
27.1323584019
 20
133.413368516
 10
27.2625781618
 20
133.0401207898
  0
LINE
  5
251
100
AcDbEntity
  8
IMPORT_IGES
100
AcDbLine
 62
7
  6
CONTINUOUS
 10
45.1238300749
 20
125.1502376677
 11
45.1238300749
 21
127.0402670065
  0
LINE
  5
252
100
AcDbEntity
  8
IMPORT_IGES
100
AcDbLine
 62
7
  6
CONTINUOUS
 10
45.1238300749
 20
128.1402670065
 11
45.1238300749
 21
130.0302963347
  0
LINE
  5
253
100
AcDbEntity
  8
IMPORT_IGES
100
AcDbLine
 62
7
  6
CONTINUOUS
 10
45.1238300749
 20
166.150237638
 11
45.1238300749
 21
168.0402669769
  0
LINE
  5
254
100
AcDbEntity
  8
IMPORT_IGES
100
AcDbLine
 62
7
  6
CONTINUOUS
 10
45.1238300749
 20
169.1402669769
 11
45.1238300749
 21
171.0302963051
  0
LINE
  5
255
100
AcDbEntity
  8
IMPORT_IGES
100
AcDbLine
 62
250
  6
CONTINUOUS
 10
46.1758161784
 20
121.2154890281
 11
46.1758167383
 21
119.0897127008
  0
LINE
  5
256
100
AcDbEntity
  8
IMPORT_IGES
100
AcDbLine
 62
250
  6
CONTINUOUS
 10
46.1758848847
 20
177.0896838323
 11
46.1758730188
 21
174.9650453333
  0
LINE
  5
257
100
AcDbEntity
  8
IMPORT_IGES
100
AcDbLine
 62
7
  6
CONTINUOUS
 10
46.212682682
 20
125.1502376784
 11
46.212682682
 21
127.0402670065
  0
LINE
  5
258
100
AcDbEntity
  8
IMPORT_IGES
100
AcDbLine
 62
7
  6
CONTINUOUS
 10
46.212682682
 20
128.1402670065
 11
46.212682682
 21
130.0302963454
  0
LINE
  5
259
100
AcDbEntity
  8
IMPORT_IGES
100
AcDbLine
 62
7
  6
CONTINUOUS
 10
46.212682682
 20
166.1502376487
 11
46.212682682
 21
168.0402669769
  0
LINE
  5
25A
100
AcDbEntity
  8
IMPORT_IGES
100
AcDbLine
 62
7
  6
CONTINUOUS
 10
46.212682682
 20
169.1402669769
 11
46.212682682
 21
171.0302963158
  0
LWPOLYLINE
  5
25B
100
AcDbEntity
  8
IMPORT_IGES
100
AcDbPolyline
 62
7
  6
CONTINUOUS
 90
10
 70
0
 10
62.377216085
 20
140.0969426582
 10
62.3732604191
 20
140.1532591775
 10
62.3686955528
 20
140.2087155849
 10
62.363521486
 20
140.2633118804
 10
62.3577486355
 20
140.3170656119
 10
62.3513665846
 20
140.3699592316
 10
62.3443440836
 20
140.4219400958
 10
62.3366707159
 20
140.4729906566
 10
62.3283568981
 20
140.523128462
 10
62.3194026303
 20
140.5723535119
  0
LINE
  5
25C
100
AcDbEntity
  8
IMPORT_IGES
100
AcDbLine
 62
7
  6
CONTINUOUS
 10
52.4639426927
 20
136.6690323773
 11
52.4639426927
 21
142.8708243773
  0
LINE
  5
25D
100
AcDbEntity
  8
IMPORT_IGES
100
AcDbLine
 62
7
  6
CONTINUOUS
 10
53.9741261927
 20
142.8708243773
 11
53.9741261927
 21
136.6690323773
  0
LINE
  5
25E
100
AcDbEntity
  8
IMPORT_IGES
100
AcDbLine
 62
7
  6
CONTINUOUS
 10
55.3113188383
 20
154.7464010073
 11
55.3113188383
 21
156.5326442073
  0
LINE
  5
25F
100
AcDbEntity
  8
IMPORT_IGES
100
AcDbLine
 62
7
  6
CONTINUOUS
 10
56.2266553699
 20
140.5413226895
 11
56.2266553699
 21
140.9379862885
  0
LINE
  5
260
100
AcDbEntity
  8
IMPORT_IGES
100
AcDbLine
 62
7
  6
CONTINUOUS
 10
56.2293188383
 20
156.5326447229
 11
56.2293188383
 21
154.7464010073
  0
LINE
  5
261
100
AcDbEntity
  8
IMPORT_IGES
100
AcDbLine
 62
7
  6
CONTINUOUS
 10
56.5487203305
 20
139.0334802256
 11
56.5487203305
 21
140.5413226895
  0
LINE
  5
262
100
AcDbEntity
  8
IMPORT_IGES
100
AcDbLine
 62
7
  6
CONTINUOUS
 10
56.7627589116
 20
139.100583003
 11
56.7627589114
 21
140.8281580355
  0
LINE
  5
263
100
AcDbEntity
  8
IMPORT_IGES
100
AcDbLine
 62
7
  6
CONTINUOUS
 10
60.0361556927
 20
138.999022741
 11
60.0361556927
 21
140.1326553773
  0
LINE
  5
264
100
AcDbEntity
  8
IMPORT_IGES
100
AcDbLine
 62
7
  6
CONTINUOUS
 10
60.4554209001
 20
137.5780208566
 11
60.4554209001
 21
138.0655511233
  0
LINE
  5
265
100
AcDbEntity
  8
IMPORT_IGES
100
AcDbLine
 62
7
  6
CONTINUOUS
 10
60.4642676927
 20
140.1326553773
 11
60.4642676927
 21
138.8215428773
  0
LINE
  5
266
100
AcDbEntity
  8
IMPORT_IGES
100
AcDbLine
 62
7
  6
CONTINUOUS
 10
60.6478931927
 20
137.7653538773
 11
60.6478931927
 21
138.0476403773
  0
LINE
  5
267
100
AcDbEntity
  8
IMPORT_IGES
100
AcDbLine
 62
7
  6
CONTINUOUS
 10
61.2017621927
 20
138.2110203773
 11
61.2017621927
 21
138.3043473773
  0
LINE
  5
268
100
AcDbEntity
  8
IMPORT_IGES
100
AcDbLine
 62
7
  6
CONTINUOUS
 10
61.201780722
 20
137.9960009962
 11
61.201780722
 21
137.8535463182
  0
LINE
  5
269
100
AcDbEntity
  8
IMPORT_IGES
100
AcDbLine
 62
7
  6
CONTINUOUS
 10
61.5255401927
 20
141.2378448773
 11
61.5255401927
 21
138.1808553773
  0
LINE
  5
26A
100
AcDbEntity
  8
IMPORT_IGES
100
AcDbLine
 62
7
  6
CONTINUOUS
 10
61.5344054215
 20
141.4534515775
 11
61.5344054215
 21
141.7113175933
  0
LINE
  5
26B
100
AcDbEntity
  8
IMPORT_IGES
100
AcDbLine
 62
7
  6
CONTINUOUS
 10
61.7484614224
 20
141.7113175933
 11
61.7484614224
 21
141.4844361749
  0
LINE
  5
26C
100
AcDbEntity
  8
IMPORT_IGES
100
AcDbLine
 62
7
  6
CONTINUOUS
 10
61.7484614224
 20
138.1892576102
 11
61.7484614224
 21
140.6766602407
  0
LINE
  5
26D
100
AcDbEntity
  8
IMPORT_IGES
100
AcDbLine
 62
7
  6
CONTINUOUS
 10
61.9357430032
 20
140.0969426582
 11
61.9357430032
 21
139.0445191628
  0
LWPOLYLINE
  5
26E
100
AcDbEntity
  8
IMPORT_IGES
100
AcDbPolyline
 62
7
  6
CONTINUOUS
 90
22
 70
0
 10
57.4491288772
 20
138.5607341794
 10
57.4392663217
 20
138.6007032489
 10
57.4269824671
 20
138.639868185
 10
57.4122773135
 20
138.6782289876
 10
57.3950594613
 20
138.7159791294
 10
57.37542031
 20
138.7529251378
 10
57.3536340584
 20
138.7884865945
 10
57.3296432994
 20
138.8225496687
 10
57.30350544
 20
138.8552281913
 10
57.2756669003
 20
138.8862832364
 10
57.2461958688
 20
138.9157112627
 10
57.2150241569
 20
138.9435158114
 10
57.1823936189
 20
138.9694685808
 10
57.1482920745
 20
138.9936388428
 10
57.1127317041
 20
139.0159573253
 10
57.0759909024
 20
139.0359879108
 10
57.0379597961
 20
139.0536697302
 10
56.9987482586
 20
139.0690636525
 10
56.9589643046
 20
139.0819161673
 10
56.9188106057
 20
139.0921427711
 10
56.8780844903
 20
139.0998279673
 10
56.8367859585
 20
139.1049717559
  0
LINE
  5
26F
100
AcDbEntity
  8
IMPORT_IGES
100
AcDbLine
 62
7
  6
CONTINUOUS
 10
62.3194026303
 20
141.0424285192
 11
62.3194026303
 21
140.5723535119
  0
LINE
  5
270
100
AcDbEntity
  8
IMPORT_IGES
100
AcDbLine
 62
7
  6
CONTINUOUS
 10
62.4619814252
 20
140.0969426582
 11
62.4619814252
 21
139.0445191628
  0
LWPOLYLINE
  5
271
100
AcDbEntity
  8
IMPORT_IGES
100
AcDbPolyline
 62
7
  6
CONTINUOUS
 90
40
 70
0
 10
62.1355288217
 20
139.0445278728
 10
62.1292410353
 20
138.9987350038
 10
62.1226372167
 20
138.9545302349
 10
62.1157173661
 20
138.9119135663
 10
62.1084611905
 20
138.870931976
 10
62.1008889827
 20
138.8315384858
 10
62.0930616219
 20
138.7935921614
 10
62.0850077894
 20
138.7570731507
 10
62.0766988039
 20
138.7220013057
 10
62.0681095
 20
138.6882952475
 10
62.0592198589
 20
138.6559499666
 10
62.0500498995
 20
138.6249704725
 10
62.0406345129
 20
138.5952904155
 10
62.0309562105
 20
138.5669244111
 10
62.0210324809
 20
138.5398578438
 10
62.0109506815
 20
138.5139805168
 10
62.0007295306
 20
138.4892842482
 10
61.9903503098
 20
138.4657772199
 10
61.9798442213
 20
138.4433737812
 10
61.969213906
 20
138.4220707517
 10
61.958456723
 20
138.4018713117
 10
61.9475959522
 20
138.3826993521
 10
61.9366166486
 20
138.3645410764
 10
61.9255337573
 20
138.347410281
 10
61.9144153928
 20
138.3312722459
 10
61.9032660946
 20
138.3161440286
 10
61.8920813232
 20
138.3020085715
 10
61.8809155754
 20
138.2887799826
 10
61.8697798386
 20
138.2764701764
 10
61.8586631253
 20
138.2650672383
 10
61.8475869702
 20
138.2544495325
 10
61.8365701955
 20
138.2446225625
 10
61.8255939791
 20
138.2355808248
 10
61.8146233889
 20
138.2271861731
 10
61.8036611038
 20
138.2194248982
 10
61.7927044449
 20
138.2123107093
 10
61.7817104442
 20
138.2057465879
 10
61.7706647788
 20
138.1997001945
 10
61.7595817716
 20
138.1942038686
 10
61.7484614224
 20
138.1892576102
  0
LWPOLYLINE
  5
272
100
AcDbEntity
  8
IMPORT_IGES
100
AcDbPolyline
 62
7
  6
CONTINUOUS
 90
16
 70
0
 10
62.1779300005
 20
141.0424285192
 10
62.1551999358
 20
141.0900017628
 10
62.1313270579
 20
141.1351071334
 10
62.106311367
 20
141.1777446311
 10
62.0800852146
 20
141.2179739895
 10
62.0527162492
 20
141.2557354749
 10
62.0244074157
 20
141.2908498859
 10
61.9950445977
 20
141.3233132919
 10
61.9647419117
 20
141.3531296235
 10
61.9340446516
 20
141.3801314709
 10
61.902919923
 20
141.4041988604
 10
61.8714006205
 20
141.4254517658
 10
61.8401307214
 20
141.4440826988
 10
61.8093248849
 20
141.4601558299
 10
61.7787684519
 20
141.4736069886
 10
61.7484614223
 20
141.4844361749
  0
LWPOLYLINE
  5
273
100
AcDbEntity
  8
IMPORT_IGES
100
AcDbPolyline
 62
7
  6
CONTINUOUS
 90
10
 70
0
 10
62.0740408522
 20
140.6766602407
 10
62.0872609777
 20
140.6179570681
 10
62.0994818265
 20
140.5577988519
 10
62.1107033986
 20
140.496185592
 10
62.1208889645
 20
140.4330805276
 10
62.1300752538
 20
140.3685204195
 10
62.1383724547
 20
140.3026155503
 10
62.1458172967
 20
140.2354026808
 10
62.1523730504
 20
140.1668450501
 10
62.1580397158
 20
140.0969426582
  0
LINE
  5
274
100
AcDbEntity
  8
IMPORT_IGES
100
AcDbLine
 62
7
  6
CONTINUOUS
 10
56.7709493912
 20
137.8754761396
 11
56.8266258686
 21
137.8082813592
  0
LINE
  5
275
100
AcDbEntity
  8
IMPORT_IGES
100
AcDbLine
 62
7
  6
CONTINUOUS
 10
59.0728116646
 20
139.6652956279
 11
60.4846883993
 21
138.2778417757
  0
LINE
  5
276
100
AcDbEntity
  8
IMPORT_IGES
100
AcDbLine
 62
7
  6
CONTINUOUS
 10
55.4738111039
 20
143.2019664386
 11
57.5977415977
 21
141.1148081414
  0
LINE
  5
277
100
AcDbEntity
  8
IMPORT_IGES
100
AcDbLine
 62
7
  6
CONTINUOUS
 10
60.7263693917
 20
138.0403214587
 11
61.0061817136
 21
137.7653538773
  0
LINE
  5
278
100
AcDbEntity
  8
IMPORT_IGES
100
AcDbLine
 62
7
  6
CONTINUOUS
 10
61.1968154139
 20
137.5780208566
 11
62.8285973504
 21
135.9744920005
  0
LINE
  5
279
100
AcDbEntity
  8
IMPORT_IGES
100
AcDbLine
 62
7
  6
CONTINUOUS
 10
57.7987553557
 20
140.9172714275
 11
58.9300681176
 21
139.8055539893
  0
LINE
  5
27A
100
AcDbEntity
  8
IMPORT_IGES
100
AcDbLine
 62
7
  6
CONTINUOUS
 10
60.7430591927
 20
138.3043473773
 11
60.2167596746
 21
138.8215428773
  0
LINE
  5
27B
100
AcDbEntity
  8
IMPORT_IGES
100
AcDbLine
 62
7
  6
CONTINUOUS
 10
60.0361556927
 20
138.999022741
 11
59.2179266927
 21
139.8030978773
  0
LINE
  5
27C
100
AcDbEntity
  8
IMPORT_IGES
100
AcDbLine
 62
7
  6
CONTINUOUS
 10
57.8601170955
 20
141.1373801587
 11
55.6139912714
 21
143.3446181846
  0
LINE
  5
27D
100
AcDbEntity
  8
IMPORT_IGES
100
AcDbLine
 62
7
  6
CONTINUOUS
 10
63.11394269
 20
135.9744920005
 11
61.201780722
 21
137.8535463182
  0
LINE
  5
27E
100
AcDbEntity
  8
IMPORT_IGES
100
AcDbLine
 62
7
  6
CONTINUOUS
 10
59.0751832077
 20
139.9433562898
 11
58.0611506927
 21
140.9398248773
  0
LINE
  5
27F
100
AcDbEntity
  8
IMPORT_IGES
100
AcDbLine
 62
7
  6
CONTINUOUS
 10
55.4964358565
 20
136.545247848
 11
55.63411237
 21
136.400178278
  0
LINE
  5
280
100
AcDbEntity
  8
IMPORT_IGES
100
AcDbLine
 62
7
  6
CONTINUOUS
 10
55.6139912714
 20
143.3446181846
 11
55.4738111039
 21
143.2019664386
  0
LINE
  5
281
100
AcDbEntity
  8
IMPORT_IGES
100
AcDbLine
 62
7
  6
CONTINUOUS
 10
62.7947470714
 20
143.4751391273
 11
60.5790049316
 21
141.3712581273
  0
LINE
  5
282
100
AcDbEntity
  8
IMPORT_IGES
100
AcDbLine
 62
7
  6
CONTINUOUS
 10
60.3302023602
 20
141.1350138401
 11
59.0751832077
 21
139.9433562898
  0
LINE
  5
283
100
AcDbEntity
  8
IMPORT_IGES
100
AcDbLine
 62
7
  6
CONTINUOUS
 10
56.8266258686
 20
137.8082813592
 11
55.4964358565
 21
136.545247848
  0
LINE
  5
284
100
AcDbEntity
  8
IMPORT_IGES
100
AcDbLine
 62
7
  6
CONTINUOUS
 10
58.9300681176
 20
139.8055539893
 11
57.6038676945
 21
138.5463109192
  0
LINE
  5
285
100
AcDbEntity
  8
IMPORT_IGES
100
AcDbLine
 62
7
  6
CONTINUOUS
 10
60.8984095151
 20
141.3987421351
 11
63.0852063514
 21
143.4751391273
  0
LINE
  5
286
100
AcDbEntity
  8
IMPORT_IGES
100
AcDbLine
 62
7
  6
CONTINUOUS
 10
59.2179266927
 20
139.8030978773
 11
60.6496046927
 21
141.1624953773
  0
LINE
  5
287
100
AcDbEntity
  8
IMPORT_IGES
100
AcDbLine
 62
7
  6
CONTINUOUS
 10
55.63411237
 20
136.400178278
 11
57.6622039187
 21
138.3258787918
  0
LINE
  5
288
100
AcDbEntity
  8
IMPORT_IGES
100
AcDbLine
 62
7
  6
CONTINUOUS
 10
57.8683751927
 20
138.5216688773
 11
59.0728116646
 21
139.6652956279
  0
LWPOLYLINE
  5
289
100
AcDbEntity
  8
IMPORT_IGES
100
AcDbPolyline
 62
7
  6
CONTINUOUS
 90
19
 70
0
 10
61.971093379
 20
138.0791428139
 10
62.0020393453
 20
138.1070718605
 10
62.0321301494
 20
138.1384396723
 10
62.0613657914
 20
138.1732462492
 10
62.0898727392
 20
138.2115575453
 10
62.1175245249
 20
138.2533076066
 10
62.1439417445
 20
138.2982985707
 10
62.169051417
 20
138.3466943987
 10
62.1929265234
 20
138.3983311295
 10
62.2154066018
 20
138.4525190178
 10
62.2364608068
 20
138.5091337301
 10
62.2561199838
 20
138.5682995998
 10
62.2743162079
 20
138.629699882
 10
62.2909951506
 20
138.6932235936
 10
62.3062111405
 20
138.7589817177
 10
62.3200592382
 20
138.8269904582
 10
62.3325711309
 20
138.8972552166
 10
62.3437151315
 20
138.9697705914
 10
62.35349124
 20
139.0445365828
  0
LINE
  5
28A
100
AcDbEntity
  8
IMPORT_IGES
100
AcDbLine
 62
7
  6
CONTINUOUS
 10
37.7805332615
 20
120.8460115023
 11
38.0311176825
 21
120.7352964072
  0
LWPOLYLINE
  5
28B
100
AcDbEntity
  8
IMPORT_IGES
100
AcDbPolyline
 62
7
  6
CONTINUOUS
 90
35
 70
0
 10
37.7805319762
 20
120.8460120442
 10
37.5333517387
 20
120.9596645675
 10
37.2897158922
 20
121.0761491722
 10
37.0494835555
 20
121.19557151
 10
36.8119442928
 20
121.3182244503
 10
36.5771100996
 20
121.4440789958
 10
36.3449689804
 20
121.573164144
 10
36.114774513
 20
121.7058597566
 10
35.8864547991
 20
121.8421886298
 10
35.660081737
 20
121.9821279675
 10
35.4351245998
 20
122.1259892438
 10
35.2114887893
 20
122.2737896579
 10
34.9892689037
 20
122.4255120106
 10
34.7682180109
 20
122.5814161785
 10
34.5481948236
 20
122.7415833143
 10
34.3293406292
 20
122.9059322653
 10
34.1118323572
 20
123.0744794497
 10
33.8955737088
 20
123.247311849
 10
33.6806609829
 20
123.4243424818
 10
33.4675600062
 20
123.6053268215
 10
33.2563444143
 20
123.7902163087
 10
33.0469405716
 20
123.9790595029
 10
32.8395933975
 20
124.1717575559
 10
32.6343149543
 20
124.3683059209
 10
32.4310931798
 20
124.5687091446
 10
32.2301368062
 20
124.7728820192
 10
32.0314902803
 20
124.9807815248
 10
31.8351091554
 20
125.1924506813
 10
31.6410688232
 20
125.40793334
 10
31.449359902
 20
125.6272303733
 10
31.2599917735
 20
125.8503409089
 10
31.0730679749
 20
126.0773061818
 10
30.8886470573
 20
126.3080413433
 10
30.7066704695
 20
126.5426312422
 10
30.5270660953
 20
126.7813716595
  0
LINE
  5
28C
100
AcDbEntity
  8
IMPORT_IGES
100
AcDbLine
 62
7
  6
CONTINUOUS
 10
127.1239404242
 20
125.1502376529
 11
127.1239404242
 21
127.0402669917
  0
LINE
  5
28D
100
AcDbEntity
  8
IMPORT_IGES
100
AcDbLine
 62
7
  6
CONTINUOUS
 10
127.1239404242
 20
128.1402669917
 11
127.1239404242
 21
130.0302963199
  0
LINE
  5
28E
100
AcDbEntity
  8
IMPORT_IGES
100
AcDbLine
 62
7
  6
CONTINUOUS
 10
127.1239404131
 20
166.150237638
 11
127.1239404131
 21
168.0402669769
  0
LINE
  5
28F
100
AcDbEntity
  8
IMPORT_IGES
100
AcDbLine
 62
7
  6
CONTINUOUS
 10
127.1239404131
 20
169.1402669769
 11
127.1239404131
 21
171.0302963051
  0
LINE
  5
290
100
AcDbEntity
  8
IMPORT_IGES
100
AcDbLine
 62
7
  6
CONTINUOUS
 10
128.2127930313
 20
125.1502376636
 11
128.2127930313
 21
127.0402669917
  0
LINE
  5
291
100
AcDbEntity
  8
IMPORT_IGES
100
AcDbLine
 62
7
  6
CONTINUOUS
 10
128.2127930313
 20
128.1402669917
 11
128.2127930313
 21
130.0302963306
  0
LINE
  5
292
100
AcDbEntity
  8
IMPORT_IGES
100
AcDbLine
 62
7
  6
CONTINUOUS
 10
128.2127930202
 20
166.1502376487
 11
128.2127930202
 21
168.0402669769
  0
LINE
  5
293
100
AcDbEntity
  8
IMPORT_IGES
100
AcDbLine
 62
7
  6
CONTINUOUS
 10
128.2127930202
 20
169.1402669769
 11
128.2127930202
 21
171.0302963157
  0
LWPOLYLINE
  5
294
100
AcDbEntity
  8
IMPORT_IGES
100
AcDbPolyline
 62
7
  6
CONTINUOUS
 90
12
 70
0
 10
40.4603941803
 20
176.3103514998
 10
40.1797149975
 20
176.22872158
 10
39.901888207
 20
176.1435126565
 10
39.6269275647
 20
176.0547121838
 10
39.3548193147
 20
175.9623327075
 10
39.0859337873
 20
175.8666486107
 10
38.8203345451
 20
175.7676777826
 10
38.5579580255
 20
175.6654023339
 10
38.298983871
 20
175.5600429807
 10
38.0434721826
 20
175.4516295308
 10
37.7913628592
 20
175.3401321762
 10
37.5426552401
 20
175.2256822094
  0
LINE
  5
295
100
AcDbEntity
  8
IMPORT_IGES
100
AcDbLine
 62
7
  6
CONTINUOUS
 10
169.1239404242
 20
125.1502376529
 11
169.1239404242
 21
127.0402669917
  0
LINE
  5
296
100
AcDbEntity
  8
IMPORT_IGES
100
AcDbLine
 62
7
  6
CONTINUOUS
 10
169.1239404242
 20
128.1402669917
 11
169.1239404242
 21
130.0302963199
  0
LINE
  5
297
100
AcDbEntity
  8
IMPORT_IGES
100
AcDbLine
 62
7
  6
CONTINUOUS
 10
169.1239404131
 20
166.150237638
 11
169.1239404131
 21
168.0402669769
  0
LINE
  5
298
100
AcDbEntity
  8
IMPORT_IGES
100
AcDbLine
 62
7
  6
CONTINUOUS
 10
169.1239404131
 20
169.1402669769
 11
169.1239404131
 21
171.0302963051
  0
LINE
  5
299
100
AcDbEntity
  8
IMPORT_IGES
100
AcDbLine
 62
7
  6
CONTINUOUS
 10
170.2127930313
 20
125.1502376635
 11
170.2127930313
 21
127.0402669917
  0
LINE
  5
29A
100
AcDbEntity
  8
IMPORT_IGES
100
AcDbLine
 62
7
  6
CONTINUOUS
 10
170.2127930313
 20
128.1402669917
 11
170.2127930313
 21
130.0302963306
  0
LINE
  5
29B
100
AcDbEntity
  8
IMPORT_IGES
100
AcDbLine
 62
7
  6
CONTINUOUS
 10
170.2127930202
 20
166.1502376487
 11
170.2127930202
 21
168.0402669769
  0
LINE
  5
29C
100
AcDbEntity
  8
IMPORT_IGES
100
AcDbLine
 62
7
  6
CONTINUOUS
 10
170.2127930202
 20
169.1402669769
 11
170.2127930202
 21
171.0302963157
  0
LWPOLYLINE
  5
29D
100
AcDbEntity
  8
IMPORT_IGES
100
AcDbPolyline
 62
7
  6
CONTINUOUS
 90
5
 70
0
 10
44.9431789963
 20
119.1259402973
 10
45.2508411374
 20
119.1103575146
 10
45.5587819489
 20
119.0991956384
 10
45.8671071492
 20
119.0924492297
 10
46.1758167383
 20
119.0901182886
  0
LWPOLYLINE
  5
29E
100
AcDbEntity
  8
IMPORT_IGES
100
AcDbPolyline
 62
7
  6
CONTINUOUS
 90
26
 70
0
 10
45.2508307459
 20
119.1103579652
 10
44.943167936
 20
119.1259258654
 10
44.635890651
 20
119.1459317665
 10
44.3293146849
 20
119.1703368479
 10
44.0234419223
 20
119.1991485606
 10
43.7182704786
 20
119.2323594536
 10
43.4141104935
 20
119.2699083527
 10
43.1109370525
 20
119.3118087155
 10
42.8087750702
 20
119.3580470843
 10
42.5080094306
 20
119.4085219121
 10
42.2085412109
 20
119.4632722542
 10
41.910469334
 20
119.5222590551
 10
41.6144754518
 20
119.5852636016
 10
41.3205487356
 20
119.6523075546
 10
41.0287000142
 20
119.7233692532
 10
40.7396434257
 20
119.7981650007
 10
40.4534212913
 20
119.8767004818
 10
40.1699912897
 20
119.9589700118
 10
39.889940595
 20
120.0446728398
 10
39.6133310597
 20
120.1338140222
 10
39.3401008314
 20
120.2263885026
 10
39.0706515269
 20
120.3220803608
 10
38.8051468923
 20
120.4208361432
 10
38.5434231815
 20
120.5227093035
 10
38.2853907729
 20
120.627544282
 10
38.0311157234
 20
120.735297254
  0
LWPOLYLINE
  5
29F
100
AcDbEntity
  8
IMPORT_IGES
100
AcDbPolyline
 62
250
  6
CONTINUOUS
 90
25
 70
0
 10
265.0892467733
 20
122.0030910932
 10
264.9917911101
 20
121.9877117616
 10
264.8948847477
 20
121.9673152579
 10
264.7987142926
 20
121.9418981955
 10
264.7032677406
 20
121.911391592
 10
264.6089648668
 20
121.875855623
 10
264.5166122458
 20
121.835581822
 10
264.4265512825
 20
121.7907677106
 10
264.3387838101
 20
121.7414538326
 10
264.2535630123
 20
121.6878026307
 10
264.1710415977
 20
121.6299243962
 10
264.0914172283
 20
121.5679604114
 10
264.0149903087
 20
121.5021525846
 10
263.9419187764
 20
121.4326459677
 10
263.8723668678
 20
121.3595916983
 10
263.8066092405
 20
121.283278736
 10
263.7448067623
 20
121.2039012987
 10
263.6870727485
 20
121.1215955164
 10
263.6335796203
 20
121.0365856651
 10
263.5843579879
 20
120.9488621344
 10
263.5396413008
 20
120.8587528227
 10
263.4998052056
 20
120.7670424914
 10
263.4649486352
 20
120.6741483267
 10
263.4349925207
 20
120.5800631171
 10
263.4099458293
 20
120.4849739255
  0
LWPOLYLINE
  5
2A0
100
AcDbEntity
  8
IMPORT_IGES
100
AcDbPolyline
 62
7
  6
CONTINUOUS
 90
22
 70
0
 10
265.5939328256
 20
121.3734594093
 10
265.4942047307
 20
121.3579183051
 10
265.3958863265
 20
121.3375207474
 10
265.298977613
 20
121.312266736
 10
265.2032442354
 20
121.2820615125
 10
265.1089205486
 20
121.2469998353
 10
265.0167096165
 20
121.2073659805
 10
264.9266265519
 20
121.1631319999
 10
264.8386562421
 20
121.1143258416
 10
264.7534564129
 20
121.0613156261
 10
264.6710476783
 20
121.0040704385
 10
264.5914094244
 20
120.9426211936
 10
264.515137535
 20
120.8774287563
 10
264.4422568338
 20
120.8084655102
 10
264.3727424971
 20
120.7357590716
 10
264.3071159385
 20
120.6598531541
 10
264.2454057102
 20
120.5807239817
 10
264.1875832598
 20
120.4983953304
 10
264.1340843442
 20
120.4134822415
 10
264.0849447886
 20
120.3259644072
 10
264.0401287678
 20
120.2358621354
 10
263.9999645617
 20
120.1438513902
  0
LINE
  5
2A1
100
AcDbEntity
  8
IMPORT_IGES
100
AcDbLine
 62
7
  6
CONTINUOUS
 10
361.0614459887
 20
133.9695821143
 11
359.5614459887
 21
133.8508619466
  0
LINE
  5
2A2
100
AcDbEntity
  8
IMPORT_IGES
100
AcDbLine
 62
7
  6
CONTINUOUS
 10
262.9354518647
 20
119.0900675963
 11
46.1758167383
 21
119.0901182886
  0
LINE
  5
2A3
100
AcDbEntity
  8
IMPORT_IGES
100
AcDbLine
 62
250
  6
CONTINUOUS
 10
262.4383074735
 20
119.7173495526
 11
46.175816613
 21
119.7173499565
  0
LINE
  5
2A4
100
AcDbEntity
  8
IMPORT_IGES
100
AcDbLine
 62
250
  6
CONTINUOUS
 10
46.1758161784
 20
121.2154890281
 11
262.0673547389
 21
121.2154881245
  0
LWPOLYLINE
  5
2A5
100
AcDbEntity
  8
IMPORT_IGES
100
AcDbPolyline
 62
250
  6
CONTINUOUS
 90
112
 70
0
 10
46.1758161784
 20
121.2154890281
 10
45.6035602174
 20
121.2242943193
 10
45.037785646
 20
121.2487361405
 10
44.4784924642
 20
121.2888144917
 10
43.92534763
 20
121.3448085637
 10
43.3786841854
 20
121.4164391657
 10
42.8395012561
 20
121.5028687251
 10
42.3078946484
 20
121.6040307929
 10
41.7837685561
 20
121.7199918181
 10
41.2678346856
 20
121.8501135752
 10
40.7601287423
 20
121.9943280633
 10
40.2606150209
 20
122.1527032833
 10
39.769898112
 20
122.3248050132
 10
39.2880338507
 20
122.5104888006
 10
38.8149664018
 20
122.709899098
 10
38.3511328513
 20
122.9230350397
 10
37.8965891479
 20
123.1499920894
 10
37.4512793429
 20
123.3906747835
 10
37.0154726752
 20
123.6447958656
 10
36.5890459844
 20
123.9128183569
 10
36.172122431
 20
124.1942792362
 10
35.7653407355
 20
124.4875021836
 10
35.3697278452
 20
124.7913505602
 10
34.9842568129
 20
125.106961005
 10
34.6064855172
 20
125.4360671143
 10
34.2363438453
 20
125.7779877102
 10
33.87390191
 20
126.1334039707
 10
33.5169279291
 20
126.5060930267
 10
33.1643161739
 20
126.8968889169
 10
32.817172373
 20
127.3049576026
 10
32.4765819305
 20
127.7315740993
 10
32.1423520806
 20
128.1768844478
 10
31.8146755892
 20
128.6407426073
 10
31.4952161572
 20
129.1239854707
 10
31.1839803722
 20
129.6265889148
 10
30.8809616466
 20
130.1485770629
 10
30.5878039196
 20
130.6908591777
 10
30.3052181045
 20
131.2519476567
 10
30.032493288
 20
131.8333301024
 10
29.7691406682
 20
132.4403785862
 10
29.5151728096
 20
133.0715026505
 10
29.2705771477
 20
133.7282927529
 10
29.0348271885
 20
134.4208923374
 10
28.8070703171
 20
135.1492715884
 10
28.5881591483
 20
135.9134603215
 10
28.3801250323
 20
136.7236914278
 10
28.1820384944
 20
137.5817193829
 10
27.9948290093
 20
138.4857897112
 10
27.8233163519
 20
139.4408718772
 10
27.6669722649
 20
140.4534997472
 10
27.5263250057
 20
141.5171394549
 10
27.4077791212
 20
142.6171588649
 10
27.3131735629
 20
143.7566324812
 10
27.2406693794
 20
144.9324857999
 10
27.1911542631
 20
146.1208631744
 10
27.1649793102
 20
147.321689424
 10
27.1617934245
 20
148.5350397294
 10
27.1814310107
 20
149.7372839864
 10
27.2238547664
 20
150.9279405242
 10
27.2891019939
 20
152.1074910135
 10
27.3771190041
 20
153.2537503628
 10
27.4898745762
 20
154.3648909713
 10
27.625399931
 20
155.4427404399
 10
27.7777350415
 20
156.4705964792
 10
27.9466994305
 20
157.4415886691
 10
28.1324735753
 20
158.3625874297
 10
28.3296388809
 20
159.2375017326
 10
28.537269233
 20
160.0646504924
 10
28.7562907459
 20
160.8457147945
 10
28.984063167
 20
161.5896468662
 10
29.2194704877
 20
162.2958266489
 10
29.4636287167
 20
162.9648742014
 10
29.7172456271
 20
163.6076019269
 10
29.980171621
 20
164.2257152245
 10
30.2525562964
 20
164.8175086952
 10
30.5355562199
 20
165.3886785453
 10
30.8301257656
 20
165.9408726901
 10
31.1353105595
 20
166.4724432144
 10
31.4494040464
 20
166.9841425787
 10
31.7725159227
 20
167.4759180274
 10
32.1045364919
 20
167.9478223162
 10
32.4434301102
 20
168.4007661724
 10
32.7889406218
 20
168.8345539935
 10
33.1413241825
 20
169.2493813822
 10
33.4993136153
 20
169.6467458735
 10
33.8619676138
 20
170.0260330725
 10
34.2302274846
 20
170.3878573743
 10
34.6056499705
 20
170.7355594989
 10
34.9880641551
 20
171.0697694019
 10
35.3776409549
 20
171.3898571278
 10
35.7764498618
 20
171.6972735297
 10
36.1853092593
 20
171.9929871722
 10
36.603400764
 20
172.2760294907
 10
37.0303387173
 20
172.544945645
 10
37.4659618382
 20
172.7992121374
 10
37.9104314079
 20
173.0393524656
 10
38.3638456116
 20
173.2654822829
 10
38.8263627014
 20
173.4775575813
 10
39.2978244252
 20
173.6756223688
 10
39.7778542128
 20
173.8599243237
 10
40.2662813939
 20
174.0305707266
 10
40.7632766387
 20
174.1874542969
 10
41.2689753881
 20
174.3305008707
 10
41.7837493759
 20
174.4599444013
 10
42.3072268682
 20
174.5755509355
 10
42.8384281044
 20
174.6765444492
 10
43.3773969269
 20
174.763000887
 10
43.9240894933
 20
174.8348443044
 10
44.4773945145
 20
174.8910708435
 10
45.036941561
 20
174.9313458851
 10
45.6031010625
 20
174.9560040483
 10
46.1758730188
 20
174.9650453333
  0
LINE
  5
2A6
100
AcDbEntity
  8
IMPORT_IGES
100
AcDbLine
 62
7
  6
CONTINUOUS
 10
61.5255401927
 20
138.1808553773
 11
61.2017621927
 21
138.2110203773
  0
LINE
  5
2A7
100
AcDbEntity
  8
IMPORT_IGES
100
AcDbLine
 62
7
  6
CONTINUOUS
 10
60.6478931927
 20
138.0476403773
 11
60.7263693917
 21
138.0403214587
  0
LINE
  5
2A8
100
AcDbEntity
  8
IMPORT_IGES
100
AcDbLine
 62
7
  6
CONTINUOUS
 10
61.201780722
 20
137.9960009962
 11
61.5318028669
 21
137.9652249405
  0
LINE
  5
2A9
100
AcDbEntity
  8
IMPORT_IGES
100
AcDbLine
 62
7
  6
CONTINUOUS
 10
57.6622039187
 20
138.3258787918
 11
60.4554209001
 21
138.0655511233
  0
LINE
  5
2AA
100
AcDbEntity
  8
IMPORT_IGES
100
AcDbLine
 62
7
  6
CONTINUOUS
 10
57.6038676945
 20
138.5463109192
 11
57.4491288772
 21
138.5607341794
  0
LINE
  5
2AB
100
AcDbEntity
  8
IMPORT_IGES
100
AcDbLine
 62
7
  6
CONTINUOUS
 10
60.4846883993
 20
138.2778417757
 11
57.8683751927
 21
138.5216688773
  0
LWPOLYLINE
  5
2AC
100
AcDbEntity
  8
IMPORT_IGES
100
AcDbPolyline
 62
7
  6
CONTINUOUS
 90
21
 70
0
 10
245.0868582962
 20
140.418887151
 10
245.1449396824
 20
140.4350652581
 10
245.2016023304
 20
140.4516317643
 10
245.2569330924
 20
140.4684195762
 10
245.3108451163
 20
140.4855957872
 10
245.3630778456
 20
140.5036616777
 10
245.413613637
 20
140.522694202
 10
245.4624701337
 20
140.5426164059
 10
245.5094397091
 20
140.5636987072
 10
245.5545912744
 20
140.5859835935
 10
245.5978559184
 20
140.6094285772
 10
245.6388192808
 20
140.6341766139
 10
245.6774481308
 20
140.6603209974
 10
245.7137756992
 20
140.6877684338
 10
245.7474873178
 20
140.7163819972
 10
245.7785294912
 20
140.7463424169
 10
245.8069557148
 20
140.7774689635
 10
245.8326118072
 20
140.8090825232
 10
245.8554463745
 20
140.8409567247
 10
245.8755108107
 20
140.8733179393
 10
245.8928051156
 20
140.906166167
  0
LINE
  5
2AD
100
AcDbEntity
  8
IMPORT_IGES
100
AcDbLine
 62
7
  6
CONTINUOUS
 10
244.7077981241
 20
144.8681325523
 11
243.8095471241
 21
144.6248275523
  0
LINE
  5
2AE
100
AcDbEntity
  8
IMPORT_IGES
100
AcDbLine
 62
7
  6
CONTINUOUS
 10
244.6146437507
 20
140.2929841703
 11
245.0868582962
 21
140.418887151
  0
LINE
  5
2AF
100
AcDbEntity
  8
IMPORT_IGES
100
AcDbLine
 62
7
  6
CONTINUOUS
 10
243.8095476232
 20
140.0820189741
 11
244.6146437507
 21
140.2929841703
  0
LINE
  5
2B0
100
AcDbEntity
  8
IMPORT_IGES
100
AcDbLine
 62
7
  6
CONTINUOUS
 10
247.0726641241
 20
145.4874135523
 11
245.4028611241
 21
145.0558335523
  0
LINE
  5
2B1
100
AcDbEntity
  8
IMPORT_IGES
100
AcDbLine
 62
7
  6
CONTINUOUS
 10
45.1238300749
 20
127.0402670065
 11
46.212682682
 21
127.0402670065
  0
LINE
  5
2B2
100
AcDbEntity
  8
IMPORT_IGES
100
AcDbLine
 62
7
  6
CONTINUOUS
 10
127.1239404242
 20
127.0402669917
 11
128.2127930313
 21
127.0402669917
  0
LINE
  5
2B3
100
AcDbEntity
  8
IMPORT_IGES
100
AcDbLine
 62
7
  6
CONTINUOUS
 10
169.1239404242
 20
127.0402669917
 11
170.2127930313
 21
127.0402669917
  0
LINE
  5
2B4
100
AcDbEntity
  8
IMPORT_IGES
100
AcDbLine
 62
7
  6
CONTINUOUS
 10
254.1240507514
 20
127.0402670065
 11
255.2129033585
 21
127.0402670065
  0
LINE
  5
2B5
100
AcDbEntity
  8
IMPORT_IGES
100
AcDbLine
 62
7
  6
CONTINUOUS
 10
379.0614459887
 20
127.5902669899
 11
367.0614459887
 21
127.5902669899
  0
LINE
  5
2B6
100
AcDbEntity
  8
IMPORT_IGES
100
AcDbLine
 62
7
  6
CONTINUOUS
 10
241.0095476232
 20
127.776703548
 11
215.6095476232
 21
127.776703548
  0
LINE
  5
2B7
100
AcDbEntity
  8
IMPORT_IGES
100
AcDbLine
 62
7
  6
CONTINUOUS
 10
45.1238300749
 20
128.1402670065
 11
46.212682682
 21
128.1402670065
  0
LINE
  5
2B8
100
AcDbEntity
  8
IMPORT_IGES
100
AcDbLine
 62
7
  6
CONTINUOUS
 10
127.1239404242
 20
128.1402669917
 11
128.2127930313
 21
128.1402669917
  0
LINE
  5
2B9
100
AcDbEntity
  8
IMPORT_IGES
100
AcDbLine
 62
7
  6
CONTINUOUS
 10
169.1239404242
 20
128.1402669917
 11
170.2127930313
 21
128.1402669917
  0
LINE
  5
2BA
100
AcDbEntity
  8
IMPORT_IGES
100
AcDbLine
 62
7
  6
CONTINUOUS
 10
254.1240507514
 20
128.1402670065
 11
255.2129033585
 21
128.1402670065
  0
LINE
  5
2BB
100
AcDbEntity
  8
IMPORT_IGES
100
AcDbLine
 62
7
  6
CONTINUOUS
 10
389.7685527699
 20
132.59026699
 11
395.5614459887
 21
132.59026699
  0
LINE
  5
2BC
100
AcDbEntity
  8
ASSI
100
AcDbLine
 62
7
  6
CONTINUOUS
 10
379.0614459887
 20
132.690266991
 11
389.4685527699
 21
132.6902669941
  0
LINE
  5
2BD
100
AcDbEntity
  8
IMPORT_IGES
100
AcDbLine
 62
7
  6
CONTINUOUS
 10
361.9465146122
 20
133.5902669899
 11
379.0614459887
 21
133.5902669899
  0
LINE
  5
2BE
100
AcDbEntity
  8
IMPORT_IGES
100
AcDbLine
 62
7
  6
CONTINUOUS
 10
63.11394269
 20
135.9744920005
 11
62.8285973504
 21
135.9744920005
  0
LINE
  5
2BF
100
AcDbEntity
  8
IMPORT_IGES
100
AcDbLine
 62
7
  6
CONTINUOUS
 10
53.9741261927
 20
136.6690323773
 11
52.4639426927
 21
136.6690323773
  0
LINE
  5
2C0
100
AcDbEntity
  8
IMPORT_IGES
100
AcDbLine
 62
250
  6
CONTINUOUS
 10
263.4099442176
 20
175.6955592466
 11
263.4047311621
 21
175.6932230304
  0
LINE
  5
2C1
100
AcDbEntity
  8
IMPORT_IGES
100
AcDbLine
 62
250
  6
CONTINUOUS
 10
265.4194629003
 20
173.1462102723
 11
265.2906050415
 21
173.0887120891
  0
LWPOLYLINE
  5
2C2
100
AcDbEntity
  8
IMPORT_IGES
100
AcDbPolyline
 62
250
  6
CONTINUOUS
 90
26
 70
0
 10
263.3485655613
 20
175.6687350236
 10
263.3259235611
 20
175.6587252878
 10
263.2999676573
 20
175.6470918801
 10
263.2707865002
 20
175.6338525743
 10
263.2385162557
 20
175.61903255
 10
263.2033040691
 20
175.6026560704
 10
263.1652430242
 20
175.5847185802
 10
263.1244023562
 20
175.5652047934
 10
263.0809329107
 20
175.5441262472
 10
263.0349646955
 20
175.5214929926
 10
262.9865266703
 20
175.4972714471
 10
262.9356950956
 20
175.4714333848
 10
262.8827141268
 20
175.4440147343
 10
262.827816682
 20
175.4150780309
 10
262.7711121491
 20
175.3846212846
 10
262.7127028058
 20
175.352695102
 10
262.6528178965
 20
175.3194505064
 10
262.5917093764
 20
175.2849510933
 10
262.5293554879
 20
175.2491947769
 10
262.4656151524
 20
175.2121829371
 10
262.4004672936
 20
175.173821352
 10
262.3343058468
 20
175.1341671084
 10
262.267668324
 20
175.0934228314
 10
262.2008768151
 20
175.0516750762
 10
262.1340318205
 20
175.0088755644
 10
262.067344574
 20
174.9650440482
  0
LINE
  5
2C3
100
AcDbEntity
  8
IMPORT_IGES
100
AcDbLine
 62
250
  6
CONTINUOUS
 10
264.6127845749
 20
172.7951264873
 11
264.5326323963
 21
172.7597449004
  0
LINE
  5
2C4
100
AcDbEntity
  8
IMPORT_IGES
100
AcDbLine
 62
250
  6
CONTINUOUS
 10
265.2906050415
 20
173.0887120891
 11
265.152431118
 21
173.0279535428
  0
LINE
  5
2C5
100
AcDbEntity
  8
IMPORT_IGES
100
AcDbLine
 62
250
  6
CONTINUOUS
 10
263.4047311621
 20
175.6932230304
 11
263.3485655613
 21
175.6687350236
  0
LINE
  5
2C6
100
AcDbEntity
  8
IMPORT_IGES
100
AcDbLine
 62
250
  6
CONTINUOUS
 10
264.7725320085
 20
172.86448577
 11
264.6127845749
 21
172.7951264873
  0
LINE
  5
2C7
100
AcDbEntity
  8
IMPORT_IGES
100
AcDbLine
 62
250
  6
CONTINUOUS
 10
265.152431118
 20
173.0279535428
 11
265.0064650745
 21
172.9646820937
  0
LINE
  5
2C8
100
AcDbEntity
  8
IMPORT_IGES
100
AcDbLine
 62
250
  6
CONTINUOUS
 10
265.0064650745
 20
172.9646820937
 11
264.7725320085
 21
172.86448577
  0
LINE
  5
2C9
100
AcDbEntity
  8
IMPORT_IGES
100
AcDbLine
 62
7
  6
CONTINUOUS
 10
245.2118871241
 20
155.6618825523
 11
248.3089991241
 21
156.5195595523
  0
LINE
  5
2CA
100
AcDbEntity
  8
IMPORT_IGES
100
AcDbLine
 62
7
  6
CONTINUOUS
 10
243.8095471241
 20
147.4828505523
 11
248.3089991241
 21
147.9035995523
  0
LINE
  5
2CB
100
AcDbEntity
  8
IMPORT_IGES
100
AcDbLine
 62
7
  6
CONTINUOUS
 10
246.7353571241
 20
148.5946135523
 11
243.8095471241
 21
148.4016495523
  0
LINE
  5
2CC
100
AcDbEntity
  8
ASSI
100
AcDbLine
 62
7
  6
CONTINUOUS
 10
389.4685527699
 20
137.4902669858
 11
379.0614459887
 21
137.4902669889
  0
LINE
  5
2CD
100
AcDbEntity
  8
IMPORT_IGES
100
AcDbLine
 62
7
  6
CONTINUOUS
 10
61.1968154139
 20
137.5780208566
 11
60.4554209001
 21
137.5780208566
  0
LINE
  5
2CE
100
AcDbEntity
  8
IMPORT_IGES
100
AcDbLine
 62
7
  6
CONTINUOUS
 10
395.5614459887
 20
137.5902669898
 11
389.7685527699
 21
137.5902669898
  0
LINE
  5
2CF
100
AcDbEntity
  8
IMPORT_IGES
100
AcDbLine
 62
7
  6
CONTINUOUS
 10
61.0061817136
 20
137.7653538773
 11
60.6478931927
 21
137.7653538773
  0
LINE
  5
2D0
100
AcDbEntity
  8
IMPORT_IGES
100
AcDbLine
 62
7
  6
CONTINUOUS
 10
379.2614459887
 20
138.1709121116
 11
379.0614459887
 21
138.1709121116
  0
LINE
  5
2D1
100
AcDbEntity
  8
IMPORT_IGES
100
AcDbLine
 62
7
  6
CONTINUOUS
 10
61.2017621927
 20
138.3043473773
 11
60.7430591927
 21
138.3043473773
  0
LINE
  5
2D2
100
AcDbEntity
  8
IMPORT_IGES
100
AcDbLine
 62
7
  6
CONTINUOUS
 10
379.2614459887
 20
138.4531702049
 11
379.0614459887
 21
138.4531702049
  0
LINE
  5
2D3
100
AcDbEntity
  8
IMPORT_IGES
100
AcDbLine
 62
7
  6
CONTINUOUS
 10
379.2614459887
 20
138.5741379805
 11
379.0614459887
 21
138.5741379805
  0
LINE
  5
2D4
100
AcDbEntity
  8
IMPORT_IGES
100
AcDbLine
 62
7
  6
CONTINUOUS
 10
379.2614459887
 20
138.7354282983
 11
379.0614459887
 21
138.7354282983
  0
LINE
  5
2D5
100
AcDbEntity
  8
IMPORT_IGES
100
AcDbLine
 62
7
  6
CONTINUOUS
 10
60.2167596746
 20
138.8215428773
 11
60.4642676927
 21
138.8215428773
  0
LINE
  5
2D6
100
AcDbEntity
  8
IMPORT_IGES
100
AcDbLine
 62
7
  6
CONTINUOUS
 10
379.2614459887
 20
138.8563960739
 11
379.0614459887
 21
138.8563960739
  0
LINE
  5
2D7
100
AcDbEntity
  8
IMPORT_IGES
100
AcDbLine
 62
7
  6
CONTINUOUS
 10
379.2614459887
 20
139.0176863916
 11
379.0614459887
 21
139.0176863916
  0
LINE
  5
2D8
100
AcDbEntity
  8
IMPORT_IGES
100
AcDbLine
 62
7
  6
CONTINUOUS
 10
61.9357430032
 20
139.0445191628
 11
62.1355288217
 21
139.0445278728
  0
LINE
  5
2D9
100
AcDbEntity
  8
IMPORT_IGES
100
AcDbLine
 62
7
  6
CONTINUOUS
 10
379.2614459887
 20
139.1386540182
 11
379.0614459887
 21
139.1386540182
  0
LINE
  5
2DA
100
AcDbEntity
  8
IMPORT_IGES
100
AcDbLine
 62
7
  6
CONTINUOUS
 10
379.2614459887
 20
139.8241379805
 11
379.0614459887
 21
139.8241379805
  0
LINE
  5
2DB
100
AcDbEntity
  8
IMPORT_IGES
100
AcDbLine
 62
7
  6
CONTINUOUS
 10
379.2614459887
 20
139.9451056816
 11
379.0614459887
 21
139.9451056816
  0
LINE
  5
2DC
100
AcDbEntity
  8
IMPORT_IGES
100
AcDbLine
 62
7
  6
CONTINUOUS
 10
62.1580397158
 20
140.0969426582
 11
61.9357430032
 21
140.0969426582
  0
LINE
  5
2DD
100
AcDbEntity
  8
IMPORT_IGES
100
AcDbLine
 62
7
  6
CONTINUOUS
 10
62.377216085
 20
140.0969426582
 11
62.4619814252
 21
140.0969426582
  0
LINE
  5
2DE
100
AcDbEntity
  8
IMPORT_IGES
100
AcDbLine
 62
7
  6
CONTINUOUS
 10
379.2614459887
 20
140.1063960366
 11
379.0614459887
 21
140.1063960366
  0
LINE
  5
2DF
100
AcDbEntity
  8
IMPORT_IGES
100
AcDbLine
 62
7
  6
CONTINUOUS
 10
60.0361556927
 20
140.1326553773
 11
60.4642676927
 21
140.1326553773
  0
LINE
  5
2E0
100
AcDbEntity
  8
IMPORT_IGES
100
AcDbLine
 62
7
  6
CONTINUOUS
 10
379.0614459887
 20
140.2273636006
 11
379.2614459887
 21
140.2273636006
  0
LINE
  5
2E1
100
AcDbEntity
  8
IMPORT_IGES
100
AcDbLine
 62
7
  6
CONTINUOUS
 10
379.0614459887
 20
140.4289766722
 11
379.2614459887
 21
140.4289766722
  0
LINE
  5
2E2
100
AcDbEntity
  8
IMPORT_IGES
100
AcDbLine
 62
7
  6
CONTINUOUS
 10
379.0614459887
 20
140.509621831
 11
379.2614459887
 21
140.509621831
  0
LINE
  5
2E3
100
AcDbEntity
  8
IMPORT_IGES
100
AcDbLine
 62
7
  6
CONTINUOUS
 10
56.5487203305
 20
140.5413226895
 11
56.2266553699
 21
140.5413226895
  0
LINE
  5
2E4
100
AcDbEntity
  8
IMPORT_IGES
100
AcDbLine
 62
7
  6
CONTINUOUS
 10
379.2614459887
 20
140.5499444105
 11
379.0614459887
 21
140.5499444105
  0
LINE
  5
2E5
100
AcDbEntity
  8
IMPORT_IGES
100
AcDbLine
 62
7
  6
CONTINUOUS
 10
379.2614459887
 20
140.5902669899
 11
379.0614459887
 21
140.5902669899
  0
LINE
  5
2E6
100
AcDbEntity
  8
IMPORT_IGES
100
AcDbLine
 62
7
  6
CONTINUOUS
 10
313.0614459887
 20
140.5902669899
 11
339.0614459887
 21
140.5902669899
  0
LINE
  5
2E7
100
AcDbEntity
  8
IMPORT_IGES
100
AcDbLine
 62
7
  6
CONTINUOUS
 10
61.7484614224
 20
140.6766602407
 11
62.0740408522
 21
140.6766602407
  0
LINE
  5
2E8
100
AcDbEntity
  8
IMPORT_IGES
100
AcDbLine
 62
7
  6
CONTINUOUS
 10
245.9501315988
 20
140.906166167
 11
245.8928051156
 21
140.906166167
  0
LINE
  5
2E9
100
AcDbEntity
  8
IMPORT_IGES
100
AcDbLine
 62
7
  6
CONTINUOUS
 10
56.2266553699
 20
140.9379862885
 11
56.5495412443
 21
140.9379862885
  0
LINE
  5
2EA
100
AcDbEntity
  8
IMPORT_IGES
100
AcDbLine
 62
7
  6
CONTINUOUS
 10
62.1779300005
 20
141.0424285192
 11
62.3194026303
 21
141.0424285192
  0
LINE
  5
2EB
100
AcDbEntity
  8
IMPORT_IGES
100
AcDbLine
 62
7
  6
CONTINUOUS
 10
379.0614459887
 20
141.1864465051
 11
379.2614459887
 21
141.1864465051
  0
LINE
  5
2EC
100
AcDbEntity
  8
IMPORT_IGES
100
AcDbLine
 62
7
  6
CONTINUOUS
 10
337.0614459887
 20
141.5002669899
 11
334.8614459887
 21
141.5002669899
  0
LINE
  5
2ED
100
AcDbEntity
  8
IMPORT_IGES
100
AcDbLine
 62
7
  6
CONTINUOUS
 10
332.3614459887
 20
141.5002669899
 11
330.1614459887
 21
141.5002669899
  0
LINE
  5
2EE
100
AcDbEntity
  8
IMPORT_IGES
100
AcDbLine
 62
7
  6
CONTINUOUS
 10
327.6614459887
 20
141.5002669899
 11
325.4614459887
 21
141.5002669899
  0
LINE
  5
2EF
100
AcDbEntity
  8
IMPORT_IGES
100
AcDbLine
 62
7
  6
CONTINUOUS
 10
322.9614459887
 20
141.5002669899
 11
320.7614459887
 21
141.5002669899
  0
LINE
  5
2F0
100
AcDbEntity
  8
IMPORT_IGES
100
AcDbLine
 62
7
  6
CONTINUOUS
 10
318.2614459887
 20
141.5002669899
 11
316.0614459887
 21
141.5002669899
  0
LINE
  5
2F1
100
AcDbEntity
  8
IMPORT_IGES
100
AcDbLine
 62
7
  6
CONTINUOUS
 10
61.5344054215
 20
141.7113175933
 11
61.7484614224
 21
141.7113175933
  0
LINE
  5
2F2
100
AcDbEntity
  8
IMPORT_IGES
100
AcDbLine
 62
7
  6
CONTINUOUS
 10
379.0614459887
 20
142.1653013997
 11
379.2614459887
 21
142.1653013997
  0
LINE
  5
2F3
100
AcDbEntity
  8
IMPORT_IGES
100
AcDbLine
 62
7
  6
CONTINUOUS
 10
245.5703843259
 20
142.4237053872
 11
243.8095476232
 21
142.4237053872
  0
LINE
  5
2F4
100
AcDbEntity
  8
IMPORT_IGES
100
AcDbLine
 62
7
  6
CONTINUOUS
 10
246.3072857302
 20
142.4548482442
 11
247.542472846
 21
142.4548482442
  0
LINE
  5
2F5
100
AcDbEntity
  8
IMPORT_IGES
100
AcDbLine
 62
7
  6
CONTINUOUS
 10
379.0614459887
 20
142.5046604447
 11
379.2614459887
 21
142.5046604447
  0
LINE
  5
2F6
100
AcDbEntity
  8
IMPORT_IGES
100
AcDbLine
 62
7
  6
CONTINUOUS
 10
268.9309488201
 20
142.8424107244
 11
267.7324661735
 21
142.8424111501
  0
LINE
  5
2F7
100
AcDbEntity
  8
IMPORT_IGES
100
AcDbLine
 62
7
  6
CONTINUOUS
 10
52.4639426927
 20
142.8708243773
 11
53.9741261927
 21
142.8708243773
  0
LINE
  5
2F8
100
AcDbEntity
  8
IMPORT_IGES
100
AcDbLine
 62
7
  6
CONTINUOUS
 10
268.9260017653
 20
143.0902669986
 11
283.5614459887
 21
143.0902669986
  0
LINE
  5
2F9
100
AcDbEntity
  8
IMPORT_IGES
100
AcDbLine
 62
7
  6
CONTINUOUS
 10
243.8095476232
 20
143.3591382871
 11
248.2564304337
 21
143.3591382871
  0
LINE
  5
2FA
100
AcDbEntity
  8
IMPORT_IGES
100
AcDbLine
 62
7
  6
CONTINUOUS
 10
267.7272863568
 20
143.3955830417
 11
266.7601108558
 21
143.395568258
  0
LINE
  5
2FB
100
AcDbEntity
  8
IMPORT_IGES
100
AcDbLine
 62
7
  6
CONTINUOUS
 10
379.2614459887
 20
143.4732824139
 11
379.0614459887
 21
143.4732824139
  0
LINE
  5
2FC
100
AcDbEntity
  8
IMPORT_IGES
100
AcDbLine
 62
7
  6
CONTINUOUS
 10
62.7947470714
 20
143.4751391273
 11
63.0852063514
 21
143.4751391273
  0
LINE
  5
2FD
100
AcDbEntity
  8
IMPORT_IGES
100
AcDbLine
 62
7
  6
CONTINUOUS
 10
379.0614459887
 20
143.6557513051
 11
379.2614459887
 21
143.6557513051
  0
LINE
  5
2FE
100
AcDbEntity
  8
IMPORT_IGES
100
AcDbLine
 62
250
  6
CONTINUOUS
 10
379.0614459887
 20
143.7469003352
 11
379.2614459887
 21
143.7469003352
  0
LINE
  5
2FF
100
AcDbEntity
  8
IMPORT_IGES
100
AcDbLine
 62
7
  6
CONTINUOUS
 10
313.0614459887
 20
143.8402669899
 11
316.0614459887
 21
143.8402669899
  0
LINE
  5
300
100
AcDbEntity
  8
IMPORT_IGES
100
AcDbLine
 62
7
  6
CONTINUOUS
 10
318.2614459887
 20
143.8402669899
 11
320.7614459887
 21
143.8402669899
  0
LINE
  5
301
100
AcDbEntity
  8
IMPORT_IGES
100
AcDbLine
 62
7
  6
CONTINUOUS
 10
322.9614459887
 20
143.8402669899
 11
325.4614459887
 21
143.8402669899
  0
LINE
  5
302
100
AcDbEntity
  8
IMPORT_IGES
100
AcDbLine
 62
7
  6
CONTINUOUS
 10
327.6614459887
 20
143.8402669899
 11
330.1614459887
 21
143.8402669899
  0
LINE
  5
303
100
AcDbEntity
  8
IMPORT_IGES
100
AcDbLine
 62
7
  6
CONTINUOUS
 10
332.3614459887
 20
143.8402669899
 11
334.8614459887
 21
143.8402669899
  0
LINE
  5
304
100
AcDbEntity
  8
IMPORT_IGES
100
AcDbLine
 62
7
  6
CONTINUOUS
 10
337.0614459887
 20
143.8402669899
 11
339.0614459887
 21
143.8402669899
  0
LINE
  5
305
100
AcDbEntity
  8
IMPORT_IGES
100
AcDbLine
 62
250
  6
CONTINUOUS
 10
379.0614459887
 20
144.0172794595
 11
379.2614459887
 21
144.0172794595
  0
LINE
  5
306
100
AcDbEntity
  8
ASSI
100
AcDbLine
 62
7
  6
CONTINUOUS
 10
313.0614459887
 20
144.4402669899
 11
283.5614459887
 21
144.4402669899
  0
LINE
  5
307
100
AcDbEntity
  8
IMPORT_IGES
100
AcDbLine
 62
250
  6
CONTINUOUS
 10
379.0614459887
 20
144.4708948903
 11
379.2614459887
 21
144.4708948903
  0
LINE
  5
308
100
AcDbEntity
  8
ASSI
100
AcDbLine
 62
7
  6
CONTINUOUS
 10
337.0614459887
 20
144.8871435143
 11
334.8614459887
 21
144.8871435143
  0
LINE
  5
309
100
AcDbEntity
  8
ASSI
100
AcDbLine
 62
7
  6
CONTINUOUS
 10
332.3614459887
 20
144.8871435143
 11
330.1614459887
 21
144.8871435143
  0
LINE
  5
30A
100
AcDbEntity
  8
ASSI
100
AcDbLine
 62
7
  6
CONTINUOUS
 10
327.6614459887
 20
144.8871435143
 11
325.4614459887
 21
144.8871435143
  0
LINE
  5
30B
100
AcDbEntity
  8
ASSI
100
AcDbLine
 62
7
  6
CONTINUOUS
 10
322.9614459887
 20
144.8871435143
 11
320.7614459887
 21
144.8871435143
  0
LINE
  5
30C
100
AcDbEntity
  8
ASSI
100
AcDbLine
 62
7
  6
CONTINUOUS
 10
318.2614459887
 20
144.8871435143
 11
316.0614459887
 21
144.8871435143
  0
LINE
  5
30D
100
AcDbEntity
  8
IMPORT_IGES
100
AcDbLine
 62
250
  6
CONTINUOUS
 10
379.0614459887
 20
145.0393951654
 11
379.2614459887
 21
145.0393951654
  0
LINE
  5
30E
100
AcDbEntity
  8
IMPORT_IGES
100
AcDbLine
 62
7
  6
CONTINUOUS
 10
379.0614459887
 20
145.2860372834
 11
379.2614459887
 21
145.2860372834
  0
LINE
  5
30F
100
AcDbEntity
  8
IMPORT_IGES
100
AcDbLine
 62
7
  6
CONTINUOUS
 10
379.0614459887
 20
145.570825892
 11
379.2614459887
 21
145.570825892
  0
LINE
  5
310
100
AcDbEntity
  8
IMPORT_IGES
100
AcDbLine
 62
7
  6
CONTINUOUS
 10
379.2614459887
 20
145.5902669899
 11
396.0614459887
 21
145.5902669899
  0
LINE
  5
311
100
AcDbEntity
  8
IMPORT_IGES
100
AcDbLine
 62
250
  6
CONTINUOUS
 10
379.0614459887
 20
145.7679691542
 11
379.2614459887
 21
145.7679691542
  0
LINE
  5
312
100
AcDbEntity
  8
IMPORT_IGES
100
AcDbLine
 62
7
  6
CONTINUOUS
 10
316.0614459887
 20
146.3402669899
 11
318.2614459887
 21
146.3402669899
  0
LINE
  5
313
100
AcDbEntity
  8
IMPORT_IGES
100
AcDbLine
 62
7
  6
CONTINUOUS
 10
320.7614459887
 20
146.3402669899
 11
322.9614459887
 21
146.3402669899
  0
LINE
  5
314
100
AcDbEntity
  8
IMPORT_IGES
100
AcDbLine
 62
7
  6
CONTINUOUS
 10
325.4614459887
 20
146.3402669899
 11
327.6614459887
 21
146.3402669899
  0
LINE
  5
315
100
AcDbEntity
  8
IMPORT_IGES
100
AcDbLine
 62
7
  6
CONTINUOUS
 10
330.1614459887
 20
146.3402669899
 11
332.3614459887
 21
146.3402669899
  0
LINE
  5
316
100
AcDbEntity
  8
IMPORT_IGES
100
AcDbLine
 62
7
  6
CONTINUOUS
 10
334.8614459887
 20
146.3402669899
 11
337.0614459887
 21
146.3402669899
  0
LINE
  5
317
100
AcDbEntity
  8
IMPORT_IGES
100
AcDbLine
 62
250
  6
CONTINUOUS
 10
379.0614459887
 20
146.4251917176
 11
379.2614459887
 21
146.4251917176
  0
LINE
  5
318
100
AcDbEntity
  8
IMPORT_IGES
100
AcDbLine
 62
250
  6
CONTINUOUS
 10
379.0614459887
 20
146.9832556501
 11
379.2614459887
 21
146.9832556501
  0
LINE
  5
319
100
AcDbEntity
  8
ASSI
100
AcDbLine
 62
7
  6
CONTINUOUS
 10
367.1848959887
 20
147.0383649899
 11
367.9229879887
 21
147.0383649899
  0
LINE
  5
31A
100
AcDbEntity
  8
ASSI
100
AcDbLine
 62
7
  6
CONTINUOUS
 10
373.1667679887
 20
147.0624689899
 11
373.9089199887
 21
147.0624689899
  0
LINE
  5
31B
100
AcDbEntity
  8
IMPORT_IGES
100
AcDbLine
 62
7
  6
CONTINUOUS
 10
379.0614459887
 20
147.2283976846
 11
379.2614459887
 21
147.2283976846
  0
LINE
  5
31C
100
AcDbEntity
  8
IMPORT_IGES
100
AcDbLine
 62
7
  6
CONTINUOUS
 10
379.2614459887
 20
147.5575249963
 11
379.0614459887
 21
147.5575249963
  0
LINE
  5
31D
100
AcDbEntity
  8
ASSI
100
AcDbLine
 62
7
  6
CONTINUOUS
 10
367.9229879887
 20
147.6922189899
 11
370.3784409887
 21
147.6922189899
  0
LINE
  5
31E
100
AcDbEntity
  8
ASSI
100
AcDbLine
 62
7
  6
CONTINUOUS
 10
371.2848739887
 20
147.6922189899
 11
373.1667679887
 21
147.6922189899
  0
LINE
  5
31F
100
AcDbEntity
  8
ASSI
100
AcDbLine
 62
7
  6
CONTINUOUS
 10
373.1667679887
 20
148.4785199899
 11
371.2848739887
 21
148.4785199899
  0
LINE
  5
320
100
AcDbEntity
  8
ASSI
100
AcDbLine
 62
7
  6
CONTINUOUS
 10
370.3701869887
 20
148.4785199899
 11
367.9229879887
 21
148.4785199899
  0
LINE
  5
321
100
AcDbEntity
  8
ASSI
100
AcDbLine
 62
7
  6
CONTINUOUS
 10
373.9089199887
 20
149.1085249899
 11
373.1667679887
 21
149.1085249899
  0
LINE
  5
322
100
AcDbEntity
  8
ASSI
100
AcDbLine
 62
7
  6
CONTINUOUS
 10
367.9229879887
 20
149.1326289899
 11
367.1848959887
 21
149.1326289899
  0
LINE
  5
323
100
AcDbEntity
  8
IMPORT_IGES
100
AcDbLine
 62
7
  6
CONTINUOUS
 10
379.0614459887
 20
149.2099803262
 11
379.2614459887
 21
149.2099803262
  0
LINE
  5
324
100
AcDbEntity
  8
IMPORT_IGES
100
AcDbLine
 62
7
  6
CONTINUOUS
 10
62.4619814252
 20
139.0445191629
 11
62.35349124
 21
139.0445365828
  0
LWPOLYLINE
  5
325
100
AcDbEntity
  8
IMPORT_IGES
100
AcDbPolyline
 62
7
  6
CONTINUOUS
 90
28
 70
0
 10
247.0064985416
 20
141.1885182714
 10
246.9575712264
 20
141.1887146501
 10
246.9103343139
 20
141.1910774389
 10
246.864787804
 20
141.1956066378
 10
246.8209216124
 20
141.2022709175
 10
246.7787458235
 20
141.2111016073
 10
246.7382906908
 20
141.2221926951
 10
246.6995897115
 20
141.2355998721
 10
246.6626093885
 20
141.2512674472
 10
246.6272794837
 20
141.2691223348
 10
246.593497777
 20
141.2892264615
 10
246.5613664884
 20
141.3115179007
 10
246.53112204
 20
141.3357377877
 10
246.5028041318
 20
141.3618016901
 10
246.4763730636
 20
141.3897940401
 10
246.4519461576
 20
141.4197092693
 10
246.4295831012
 20
141.4516377134
 10
246.4092242068
 20
141.4854890368
 10
246.3908077338
 20
141.5209866636
 10
246.3743813567
 20
141.5579707642
 10
246.3598974009
 20
141.5966011683
 10
246.347151102
 20
141.6370807894
 10
246.3360545324
 20
141.6795180062
 10
246.3266956196
 20
141.72380444
 10
246.3191333813
 20
141.7698178684
 10
246.3133874898
 20
141.8175175506
 10
246.3094382728
 20
141.8669442274
 10
246.3072857302
 20
141.9180978989
  0
LINE
  5
326
100
AcDbEntity
  8
IMPORT_IGES
100
AcDbLine
 62
250
  6
CONTINUOUS
 10
265.0841979967
 20
123.1822680743
 11
264.6947789974
 21
123.3496502751
  0
LWPOLYLINE
  5
327
100
AcDbEntity
  8
IMPORT_IGES
100
AcDbPolyline
 62
250
  6
CONTINUOUS
 90
3
 70
0
 10
264.6947789974
 20
123.3496502751
 10
264.6137552982
 20
123.3849690815
 10
264.532780016
 20
123.4206973218
  0
LINE
  5
328
100
AcDbEntity
  8
IMPORT_IGES
100
AcDbLine
 62
250
  6
CONTINUOUS
 10
265.2253980166
 20
123.1205840274
 11
265.0841979967
 21
123.1822680743
  0
LINE
  5
329
100
AcDbEntity
  8
IMPORT_IGES
100
AcDbLine
 62
250
  6
CONTINUOUS
 10
263.4099458293
 20
120.4849739255
 11
263.3668159814
 21
120.5037599997
  0
LWPOLYLINE
  5
32A
100
AcDbEntity
  8
IMPORT_IGES
100
AcDbPolyline
 62
250
  6
CONTINUOUS
 90
3
 70
0
 10
263.3668159814
 20
120.5037599997
 10
263.3236660315
 20
120.5228703479
 10
263.2969200496
 20
120.5348779702
  0
LINE
  5
32B
100
AcDbEntity
  8
IMPORT_IGES
100
AcDbLine
 62
250
  6
CONTINUOUS
 10
265.4206507482
 20
123.0337798205
 11
265.2253980166
 21
123.1205840274
  0
LINE
  5
32C
100
AcDbEntity
  8
IMPORT_IGES
100
AcDbLine
 62
250
  6
CONTINUOUS
 10
265.8867577984
 20
122.8235987469
 11
265.4206507482
 21
123.0337798205
  0
LWPOLYLINE
  5
32D
100
AcDbEntity
  8
IMPORT_IGES
100
AcDbPolyline
 62
250
  6
CONTINUOUS
 90
23
 70
0
 10
263.2969200496
 20
120.5348779702
 10
263.2337843337
 20
120.5637332297
 10
263.1978134063
 20
120.5804566792
 10
263.1591616213
 20
120.5987317332
 10
263.117717889
 20
120.618553381
 10
263.0736545281
 20
120.6399348591
 10
263.0272183783
 20
120.6628785145
 10
262.9783173045
 20
120.6873848499
 10
262.9271049756
 20
120.7134924908
 10
262.8738719036
 20
120.7411679223
 10
262.818691254
 20
120.7703031738
 10
262.7618404189
 20
120.8008956959
 10
262.7035591318
 20
120.832902311
 10
262.6438438853
 20
120.8661342385
 10
262.583061533
 20
120.9004499726
 10
262.521385705
 20
120.9358806957
 10
262.458496917
 20
120.9724889965
 10
262.3946015991
 20
121.0101643131
 10
262.3300548448
 20
121.0488775262
 10
262.2647699397
 20
121.088822852
 10
262.1989405421
 20
121.1300136123
 10
262.1330246533
 20
121.1722683665
 10
262.067354739
 20
121.2154881245
  0
LINE
  5
32E
100
AcDbEntity
  8
IMPORT_IGES
100
AcDbLine
 62
7
  6
CONTINUOUS
 10
215.3095476232
 20
128.076703548
 11
215.3095476232
 21
168.476703548
  0
LWPOLYLINE
  5
32F
100
AcDbEntity
  8
IMPORT_IGES
100
AcDbPolyline
 62
250
  6
CONTINUOUS
 90
6
 70
0
 10
265.937439473
 20
173.3811242905
 10
265.9314184355
 20
173.3779111593
 10
265.9209892921
 20
173.3728319806
 10
265.9061373085
 20
173.3658854226
 10
265.886805798
 20
173.3570991612
 10
265.4194629003
 20
173.1462102723
  0
LINE
  5
330
100
AcDbEntity
  8
IMPORT_IGES
100
AcDbLine
 62
7
  6
CONTINUOUS
 10
246.7476041241
 20
150.9448705523
 11
243.8095471241
 21
149.8430605523
  0
LINE
  5
331
100
AcDbEntity
  8
IMPORT_IGES
100
AcDbLine
 62
7
  6
CONTINUOUS
 10
245.8108891241
 20
149.7720695523
 11
248.3089991241
 21
150.7013625523
  0
LINE
  5
332
100
AcDbEntity
  8
IMPORT_IGES
100
AcDbLine
 62
7
  6
CONTINUOUS
 10
248.3089991241
 20
157.5398345523
 11
243.8095471241
 21
156.1134205523
  0
LINE
  5
333
100
AcDbEntity
  8
IMPORT_IGES
100
AcDbLine
 62
7
  6
CONTINUOUS
 10
243.8095471241
 20
143.6349365523
 11
248.3089991241
 21
145.0154795523
  0
LWPOLYLINE
  5
334
100
AcDbEntity
  8
IMPORT_IGES
100
AcDbPolyline
 62
7
  6
CONTINUOUS
 90
28
 70
0
 10
56.6465614996
 20
141.0329738565
 10
56.6425088896
 20
141.0325380464
 10
56.6383430076
 20
141.0318283395
 10
56.6340638537
 20
141.0308447358
 10
56.6296626849
 20
141.0296011861
 10
56.6251482441
 20
141.0280837397
 10
56.6205467607
 20
141.0262505443
 10
56.6158431246
 20
141.0240930055
 10
56.6110524459
 20
141.0216197178
 10
56.6062462843
 20
141.0188146123
 10
56.6014094867
 20
141.0156583085
 10
56.5965572062
 20
141.0121701869
 10
56.591806462
 20
141.0083923214
 10
56.5871538172
 20
141.0043025402
 10
56.5826027086
 20
140.999923015
 10
56.5782804657
 20
140.995362334
 10
56.5742009359
 20
140.9906100098
 10
56.5703502718
 20
140.9856765297
 10
56.5668142608
 20
140.9807019434
 10
56.5636161314
 20
140.97569578
 10
56.5607326552
 20
140.9706485103
 10
56.5581799337
 20
140.9656715969
 10
56.5559744608
 20
140.9607845731
 10
56.5540997426
 20
140.9559679056
 10
56.5525223998
 20
140.9512744571
 10
56.5512313059
 20
140.9467218485
 10
56.5502375874
 20
140.942292459
 10
56.5495412443
 20
140.9379862885
  0
LINE
  5
335
100
AcDbEntity
  8
IMPORT_IGES
100
AcDbLine
 62
7
  6
CONTINUOUS
 10
56.7627589114
 20
140.8281580355
 11
57.7987553557
 21
140.9172714275
  0
LINE
  5
336
100
AcDbEntity
  8
IMPORT_IGES
100
AcDbLine
 62
7
  6
CONTINUOUS
 10
60.6496046927
 20
141.1624953773
 11
61.5255401927
 21
141.2378448773
  0
LINE
  5
337
100
AcDbEntity
  8
IMPORT_IGES
100
AcDbLine
 62
7
  6
CONTINUOUS
 10
58.0611506927
 20
140.9398248773
 11
60.3302023602
 21
141.1350138401
  0
LINE
  5
338
100
AcDbEntity
  8
IMPORT_IGES
100
AcDbLine
 62
7
  6
CONTINUOUS
 10
60.5790049316
 20
141.3712581273
 11
57.8601170955
 21
141.1373801587
  0
LINE
  5
339
100
AcDbEntity
  8
IMPORT_IGES
100
AcDbLine
 62
7
  6
CONTINUOUS
 10
61.5344054215
 20
141.4534515775
 11
60.8984095151
 21
141.3987421351
  0
LINE
  5
33A
100
AcDbEntity
  8
IMPORT_IGES
100
AcDbLine
 62
7
  6
CONTINUOUS
 10
57.5977415977
 20
141.1148081414
 11
56.6465614996
 21
141.0329738565
  0
LINE
  5
33B
100
AcDbEntity
  8
IMPORT_IGES
100
AcDbLine
 62
7
  6
CONTINUOUS
 10
337.0614459887
 20
149.8402669899
 11
334.8614459887
 21
149.8402669899
  0
LINE
  5
33C
100
AcDbEntity
  8
IMPORT_IGES
100
AcDbLine
 62
7
  6
CONTINUOUS
 10
332.3614459887
 20
149.8402669899
 11
330.1614459887
 21
149.8402669899
  0
LINE
  5
33D
100
AcDbEntity
  8
IMPORT_IGES
100
AcDbLine
 62
7
  6
CONTINUOUS
 10
327.6614459887
 20
149.8402669899
 11
325.4614459887
 21
149.8402669899
  0
LINE
  5
33E
100
AcDbEntity
  8
IMPORT_IGES
100
AcDbLine
 62
7
  6
CONTINUOUS
 10
322.9614459887
 20
149.8402669899
 11
320.7614459887
 21
149.8402669899
  0
LINE
  5
33F
100
AcDbEntity
  8
IMPORT_IGES
100
AcDbLine
 62
7
  6
CONTINUOUS
 10
316.0614459887
 20
149.8402669899
 11
318.2614459887
 21
149.8402669899
  0
LINE
  5
340
100
AcDbEntity
  8
IMPORT_IGES
100
AcDbLine
 62
7
  6
CONTINUOUS
 10
379.0614459887
 20
150.5902669899
 11
396.0614459887
 21
150.5902669899
  0
LINE
  5
341
100
AcDbEntity
  8
IMPORT_IGES
100
AcDbLine
 62
7
  6
CONTINUOUS
 10
379.0614459887
 20
151.2512492709
 11
379.2614459887
 21
151.2512492709
  0
LINE
  5
342
100
AcDbEntity
  8
ASSI
100
AcDbLine
 62
7
  6
CONTINUOUS
 10
337.0614459887
 20
151.2933904655
 11
334.8614459887
 21
151.2933904655
  0
LINE
  5
343
100
AcDbEntity
  8
ASSI
100
AcDbLine
 62
7
  6
CONTINUOUS
 10
332.3614459887
 20
151.2933904655
 11
330.1614459887
 21
151.2933904655
  0
LINE
  5
344
100
AcDbEntity
  8
ASSI
100
AcDbLine
 62
7
  6
CONTINUOUS
 10
327.6614459887
 20
151.2933904655
 11
325.4614459887
 21
151.2933904655
  0
LINE
  5
345
100
AcDbEntity
  8
ASSI
100
AcDbLine
 62
7
  6
CONTINUOUS
 10
322.9614459887
 20
151.2933904655
 11
320.7614459887
 21
151.2933904655
  0
LINE
  5
346
100
AcDbEntity
  8
ASSI
100
AcDbLine
 62
7
  6
CONTINUOUS
 10
318.2614459887
 20
151.2933904655
 11
316.0614459887
 21
151.2933904655
  0
LINE
  5
347
100
AcDbEntity
  8
IMPORT_IGES
100
AcDbLine
 62
7
  6
CONTINUOUS
 10
379.0614459887
 20
151.6281252675
 11
379.2614459887
 21
151.6281252675
  0
LINE
  5
348
100
AcDbEntity
  8
ASSI
100
AcDbLine
 62
7
  6
CONTINUOUS
 10
313.0614459887
 20
151.7402669899
 11
283.5614459887
 21
151.7402669899
  0
LINE
  5
349
100
AcDbEntity
  8
IMPORT_IGES
100
AcDbLine
 62
7
  6
CONTINUOUS
 10
379.0614459887
 20
151.9197350316
 11
379.2614459887
 21
151.9197350316
  0
LINE
  5
34A
100
AcDbEntity
  8
IMPORT_IGES
100
AcDbLine
 62
7
  6
CONTINUOUS
 10
313.0614459887
 20
152.3402669899
 11
316.0614459887
 21
152.3402669899
  0
LINE
  5
34B
100
AcDbEntity
  8
IMPORT_IGES
100
AcDbLine
 62
7
  6
CONTINUOUS
 10
318.2614459887
 20
152.3402669899
 11
320.7614459887
 21
152.3402669899
  0
LINE
  5
34C
100
AcDbEntity
  8
IMPORT_IGES
100
AcDbLine
 62
7
  6
CONTINUOUS
 10
322.9614459887
 20
152.3402669899
 11
325.4614459887
 21
152.3402669899
  0
LINE
  5
34D
100
AcDbEntity
  8
IMPORT_IGES
100
AcDbLine
 62
7
  6
CONTINUOUS
 10
327.6614459887
 20
152.3402669899
 11
330.1614459887
 21
152.3402669899
  0
LINE
  5
34E
100
AcDbEntity
  8
IMPORT_IGES
100
AcDbLine
 62
7
  6
CONTINUOUS
 10
332.3614459887
 20
152.3402669899
 11
334.8614459887
 21
152.3402669899
  0
LINE
  5
34F
100
AcDbEntity
  8
IMPORT_IGES
100
AcDbLine
 62
7
  6
CONTINUOUS
 10
337.0614459887
 20
152.3402669899
 11
339.0614459887
 21
152.3402669899
  0
LINE
  5
350
100
AcDbEntity
  8
IMPORT_IGES
100
AcDbLine
 62
7
  6
CONTINUOUS
 10
248.3092691241
 20
152.5516795523
 11
243.8095471241
 21
152.5516795523
  0
LINE
  5
351
100
AcDbEntity
  8
IMPORT_IGES
100
AcDbLine
 62
7
  6
CONTINUOUS
 10
266.7599209828
 20
152.7849510126
 11
267.7272718189
 21
152.784943158
  0
LINE
  5
352
100
AcDbEntity
  8
IMPORT_IGES
100
AcDbLine
 62
7
  6
CONTINUOUS
 10
379.0614459887
 20
152.9650964908
 11
379.2614459887
 21
152.9650964908
  0
LINE
  5
353
100
AcDbEntity
  8
IMPORT_IGES
100
AcDbLine
 62
7
  6
CONTINUOUS
 10
283.5614459887
 20
153.0902669813
 11
268.926001555
 21
153.0902669813
  0
LINE
  5
354
100
AcDbEntity
  8
IMPORT_IGES
100
AcDbLine
 62
7
  6
CONTINUOUS
 10
379.0614459887
 20
153.2396530681
 11
379.2614459887
 21
153.2396530681
  0
LINE
  5
355
100
AcDbEntity
  8
IMPORT_IGES
100
AcDbLine
 62
7
  6
CONTINUOUS
 10
243.8095471241
 20
153.4908915523
 11
248.3092691241
 21
153.4908915523
  0
LINE
  5
356
100
AcDbEntity
  8
IMPORT_IGES
100
AcDbLine
 62
7
  6
CONTINUOUS
 10
379.0614459887
 20
153.5909491353
 11
379.2614459887
 21
153.5909491353
  0
LINE
  5
357
100
AcDbEntity
  8
IMPORT_IGES
100
AcDbLine
 62
7
  6
CONTINUOUS
 10
379.0614459887
 20
153.7461334042
 11
379.2614459887
 21
153.7461334042
  0
LINE
  5
358
100
AcDbEntity
  8
IMPORT_IGES
100
AcDbLine
 62
250
  6
CONTINUOUS
 10
379.0614459887
 20
153.8484525331
 11
379.2614459887
 21
153.8484525331
  0
LINE
  5
359
100
AcDbEntity
  8
IMPORT_IGES
100
AcDbLine
 62
250
  6
CONTINUOUS
 10
379.0614459887
 20
154.1266484107
 11
379.2614459887
 21
154.1266484107
  0
LINE
  5
35A
100
AcDbEntity
  8
IMPORT_IGES
100
AcDbLine
 62
7
  6
CONTINUOUS
 10
58.8149804383
 20
154.1344010073
 11
57.8903492383
 21
154.1344010073
  0
LINE
  5
35B
100
AcDbEntity
  8
IMPORT_IGES
100
AcDbLine
 62
7
  6
CONTINUOUS
 10
53.6502889479
 20
154.1344010073
 11
52.7256572383
 21
154.1344010073
  0
LINE
  5
35C
100
AcDbEntity
  8
IMPORT_IGES
100
AcDbLine
 62
250
  6
CONTINUOUS
 10
379.0614459887
 20
154.5288753085
 11
379.2614459887
 21
154.5288753085
  0
LINE
  5
35D
100
AcDbEntity
  8
IMPORT_IGES
100
AcDbLine
 62
7
  6
CONTINUOUS
 10
316.0614459887
 20
154.6802669899
 11
318.2614459887
 21
154.6802669899
  0
LINE
  5
35E
100
AcDbEntity
  8
IMPORT_IGES
100
AcDbLine
 62
7
  6
CONTINUOUS
 10
320.7614459887
 20
154.6802669899
 11
322.9614459887
 21
154.6802669899
  0
LINE
  5
35F
100
AcDbEntity
  8
IMPORT_IGES
100
AcDbLine
 62
7
  6
CONTINUOUS
 10
325.4614459887
 20
154.6802669899
 11
327.6614459887
 21
154.6802669899
  0
LINE
  5
360
100
AcDbEntity
  8
IMPORT_IGES
100
AcDbLine
 62
7
  6
CONTINUOUS
 10
330.1614459887
 20
154.6802669899
 11
332.3614459887
 21
154.6802669899
  0
LINE
  5
361
100
AcDbEntity
  8
IMPORT_IGES
100
AcDbLine
 62
7
  6
CONTINUOUS
 10
334.8614459887
 20
154.6802669899
 11
337.0614459887
 21
154.6802669899
  0
LINE
  5
362
100
AcDbEntity
  8
IMPORT_IGES
100
AcDbLine
 62
7
  6
CONTINUOUS
 10
56.2293188383
 20
154.7464010073
 11
55.3113188383
 21
154.7464010073
  0
LINE
  5
363
100
AcDbEntity
  8
IMPORT_IGES
100
AcDbLine
 62
250
  6
CONTINUOUS
 10
379.0614459887
 20
155.1552192287
 11
379.2614459887
 21
155.1552192287
  0
LINE
  5
364
100
AcDbEntity
  8
IMPORT_IGES
100
AcDbLine
 62
7
  6
CONTINUOUS
 10
379.0614459887
 20
155.3968835943
 11
379.2614459887
 21
155.3968835943
  0
LINE
  5
365
100
AcDbEntity
  8
IMPORT_IGES
100
AcDbLine
 62
7
  6
CONTINUOUS
 10
313.0614459887
 20
155.5902669899
 11
339.0614459887
 21
155.5902669899
  0
LINE
  5
366
100
AcDbEntity
  8
IMPORT_IGES
100
AcDbLine
 62
7
  6
CONTINUOUS
 10
379.0614459887
 20
156.1693939142
 11
379.2614459887
 21
156.1693939142
  0
LINE
  5
367
100
AcDbEntity
  8
IMPORT_IGES
100
AcDbLine
 62
7
  6
CONTINUOUS
 10
379.2614459887
 20
156.4763515763
 11
379.0614459887
 21
156.4763515763
  0
LINE
  5
368
100
AcDbEntity
  8
IMPORT_IGES
100
AcDbLine
 62
250
  6
CONTINUOUS
 10
379.0614459887
 20
156.7675890185
 11
379.2614459887
 21
156.7675890185
  0
LINE
  5
369
100
AcDbEntity
  8
IMPORT_IGES
100
AcDbLine
 62
7
  6
CONTINUOUS
 10
379.0614459887
 20
157.090266975
 11
379.2614459887
 21
157.090266975
  0
LINE
  5
36A
100
AcDbEntity
  8
IMPORT_IGES
100
AcDbLine
 62
7
  6
CONTINUOUS
 10
389.7685527699
 20
158.59026699
 11
395.5614459887
 21
158.59026699
  0
LINE
  5
36B
100
AcDbEntity
  8
ASSI
100
AcDbLine
 62
7
  6
CONTINUOUS
 10
379.0614459887
 20
158.690266991
 11
389.4685527699
 21
158.6902669941
  0
LINE
  5
36C
100
AcDbEntity
  8
IMPORT_IGES
100
AcDbLine
 62
7
  6
CONTINUOUS
 10
58.8149804383
 20
159.3364010073
 11
57.8903492383
 21
159.3364010073
  0
LINE
  5
36D
100
AcDbEntity
  8
IMPORT_IGES
100
AcDbLine
 62
7
  6
CONTINUOUS
 10
53.6502884383
 20
159.3364010073
 11
52.7256572383
 21
159.3364010073
  0
LINE
  5
36E
100
AcDbEntity
  8
IMPORT_IGES
100
AcDbLine
 62
7
  6
CONTINUOUS
 10
243.8095471241
 20
151.1475515523
 11
246.7476041241
 21
150.9448705523
  0
LINE
  5
36F
100
AcDbEntity
  8
IMPORT_IGES
100
AcDbLine
 62
7
  6
CONTINUOUS
 10
248.3089991241
 20
151.6397975523
 11
243.8095471241
 21
152.0460725523
  0
LINE
  5
370
100
AcDbEntity
  8
IMPORT_IGES
100
AcDbLine
 62
7
  6
CONTINUOUS
 10
245.4028611241
 20
145.9550625523
 11
247.0726641241
 21
145.4874135523
  0
LINE
  5
371
100
AcDbEntity
  8
IMPORT_IGES
100
AcDbLine
 62
7
  6
CONTINUOUS
 10
243.8095471241
 20
146.4063465523
 11
244.7077981241
 21
146.1471835523
  0
LINE
  5
372
100
AcDbEntity
  8
IMPORT_IGES
100
AcDbLine
 62
7
  6
CONTINUOUS
 10
248.3089991241
 20
145.9240545523
 11
243.8095471241
 21
147.3353695523
  0
LINE
  5
373
100
AcDbEntity
  8
IMPORT_IGES
100
AcDbLine
 62
7
  6
CONTINUOUS
 10
248.3089991241
 20
148.8328585523
 11
245.8108891241
 21
149.7720695523
  0
LINE
  5
374
100
AcDbEntity
  8
IMPORT_IGES
100
AcDbLine
 62
7
  6
CONTINUOUS
 10
243.8095471241
 20
149.7113365523
 11
246.7353571241
 21
148.5946135523
  0
LWPOLYLINE
  5
375
100
AcDbEntity
  8
IMPORT_IGES
100
AcDbPolyline
 62
250
  6
CONTINUOUS
 90
5
 70
0
 10
265.9374367213
 20
122.7994112057
 10
265.9314087865
 20
122.8026554085
 10
265.9209603473
 20
122.8077692127
 10
265.9060657023
 20
122.8147570992
 10
265.8867577984
 20
122.8235987469
  0
LWPOLYLINE
  5
376
100
AcDbEntity
  8
IMPORT_IGES
100
AcDbPolyline
 62
250
  6
CONTINUOUS
 90
3
 70
0
 10
262.9354342196
 20
177.0908212966
 10
262.527536816
 20
176.5757427072
 10
262.4382964217
 20
176.4633131867
  0
LINE
  5
377
100
AcDbEntity
  8
IMPORT_IGES
100
AcDbLine
 62
250
  6
CONTINUOUS
 10
263.8183162592
 20
176.2119471512
 11
263.4099443733
 21
175.6955585978
  0
LINE
  5
378
100
AcDbEntity
  8
IMPORT_IGES
100
AcDbLine
 62
250
  6
CONTINUOUS
 10
265.9374415793
 20
173.3811247066
 11
266.3927746997
 21
173.949263366
  0
LWPOLYLINE
  5
379
100
AcDbEntity
  8
IMPORT_IGES
100
AcDbPolyline
 62
250
  6
CONTINUOUS
 90
3
 70
0
 10
263.9078208452
 20
176.3235157974
 10
263.8864623931
 20
176.2972205575
 10
263.8183162592
 20
176.2119471512
  0
LWPOLYLINE
  5
37A
100
AcDbEntity
  8
IMPORT_IGES
100
AcDbPolyline
 62
250
  6
CONTINUOUS
 90
4
 70
0
 10
265.5939127923
 20
174.806920922
 10
265.5724071187
 20
174.7805733263
 10
265.5422750034
 20
174.7433116817
 10
265.0892465429
 20
174.1774413633
  0
LINE
  5
37B
100
AcDbEntity
  8
IMPORT_IGES
100
AcDbLine
 62
250
  6
CONTINUOUS
 10
266.3927746997
 20
173.949263366
 11
266.4447710469
 21
174.0132398385
  0
LWPOLYLINE
  5
37C
100
AcDbEntity
  8
IMPORT_IGES
100
AcDbPolyline
 62
7
  6
CONTINUOUS
 90
5
 70
0
 10
245.1739286711
 20
141.3961260709
 10
245.0371453157
 20
141.351965022
 10
244.8966310939
 20
141.307532535
 10
244.7523860056
 20
141.2628286098
 10
244.6043737419
 20
141.2179818799
  0
LINE
  5
37D
100
AcDbEntity
  8
IMPORT_IGES
100
AcDbLine
 62
7
  6
CONTINUOUS
 10
244.6043737419
 20
141.2179818799
 11
244.1383148419
 21
141.0805267264
  0
LINE
  5
37E
100
AcDbEntity
  8
IMPORT_IGES
100
AcDbLine
 62
7
  6
CONTINUOUS
 10
244.1383148419
 20
141.0805267264
 11
243.8095476232
 21
140.9854317534
  0
LINE
  5
37F
100
AcDbEntity
  8
IMPORT_IGES
100
AcDbLine
 62
7
  6
CONTINUOUS
 10
379.0614459887
 20
162.5902669899
 11
361.9465146122
 21
162.5902669899
  0
LINE
  5
380
100
AcDbEntity
  8
ASSI
100
AcDbLine
 62
7
  6
CONTINUOUS
 10
389.4685527699
 20
163.4902669858
 11
379.0614459887
 21
163.4902669889
  0
LINE
  5
381
100
AcDbEntity
  8
IMPORT_IGES
100
AcDbLine
 62
7
  6
CONTINUOUS
 10
395.5614459887
 20
163.5902669898
 11
389.7685527699
 21
163.5902669898
  0
LINE
  5
382
100
AcDbEntity
  8
IMPORT_IGES
100
AcDbLine
 62
7
  6
CONTINUOUS
 10
45.1238300749
 20
168.0402669769
 11
46.212682682
 21
168.0402669769
  0
LINE
  5
383
100
AcDbEntity
  8
IMPORT_IGES
100
AcDbLine
 62
7
  6
CONTINUOUS
 10
127.1239404131
 20
168.0402669769
 11
128.2127930202
 21
168.0402669769
  0
LINE
  5
384
100
AcDbEntity
  8
IMPORT_IGES
100
AcDbLine
 62
7
  6
CONTINUOUS
 10
169.1239404131
 20
168.0402669769
 11
170.2127930202
 21
168.0402669769
  0
LINE
  5
385
100
AcDbEntity
  8
IMPORT_IGES
100
AcDbLine
 62
7
  6
CONTINUOUS
 10
254.1240507514
 20
168.0402669769
 11
255.2129033585
 21
168.0402669769
  0
LINE
  5
386
100
AcDbEntity
  8
IMPORT_IGES
100
AcDbLine
 62
7
  6
CONTINUOUS
 10
379.0614459887
 20
168.5902669899
 11
367.0614459887
 21
168.5902669899
  0
LINE
  5
387
100
AcDbEntity
  8
IMPORT_IGES
100
AcDbLine
 62
7
  6
CONTINUOUS
 10
215.6095476232
 20
168.776703548
 11
241.0095476232
 21
168.776703548
  0
LINE
  5
388
100
AcDbEntity
  8
IMPORT_IGES
100
AcDbLine
 62
7
  6
CONTINUOUS
 10
45.1238300749
 20
169.1402669769
 11
46.212682682
 21
169.1402669769
  0
LINE
  5
389
100
AcDbEntity
  8
IMPORT_IGES
100
AcDbLine
 62
7
  6
CONTINUOUS
 10
127.1239404131
 20
169.1402669769
 11
128.2127930202
 21
169.1402669769
  0
LINE
  5
38A
100
AcDbEntity
  8
IMPORT_IGES
100
AcDbLine
 62
7
  6
CONTINUOUS
 10
169.1239404131
 20
169.1402669769
 11
170.2127930202
 21
169.1402669769
  0
LINE
  5
38B
100
AcDbEntity
  8
IMPORT_IGES
100
AcDbLine
 62
7
  6
CONTINUOUS
 10
254.1240507514
 20
169.1402669769
 11
255.2129033585
 21
169.1402669769
  0
LINE
  5
38C
100
AcDbEntity
  8
IMPORT_IGES
100
AcDbLine
 62
250
  6
CONTINUOUS
 10
262.0673533311
 20
174.9650453333
 11
46.1758730188
 21
174.9650453333
  0
LINE
  5
38D
100
AcDbEntity
  8
IMPORT_IGES
100
AcDbLine
 62
7
  6
CONTINUOUS
 10
359.5614459887
 20
162.3296720333
 11
361.0614459887
 21
162.2109518656
  0
LINE
  5
38E
100
AcDbEntity
  8
IMPORT_IGES
100
AcDbLine
 62
7
  6
CONTINUOUS
 10
248.3089991241
 20
154.7780055523
 11
245.2118871241
 21
155.6618825523
  0
LINE
  5
38F
100
AcDbEntity
  8
IMPORT_IGES
100
AcDbLine
 62
7
  6
CONTINUOUS
 10
243.8095471241
 20
155.2857395523
 11
248.3089991241
 21
153.8394355523
  0
LINE
  5
390
100
AcDbEntity
  8
IMPORT_IGES
100
AcDbLine
 62
250
  6
CONTINUOUS
 10
265.5939009727
 20
121.3736115289
 11
265.5723421063
 21
121.3999748957
  0
LINE
  5
391
100
AcDbEntity
  8
IMPORT_IGES
100
AcDbLine
 62
250
  6
CONTINUOUS
 10
263.9078208038
 20
119.8570179618
 11
263.8864548093
 21
119.8833446873
  0
LINE
  5
392
100
AcDbEntity
  8
IMPORT_IGES
100
AcDbLine
 62
250
  6
CONTINUOUS
 10
266.4447710469
 20
122.1672941416
 11
266.3927746945
 21
122.2312705862
  0
LINE
  5
393
100
AcDbEntity
  8
IMPORT_IGES
100
AcDbLine
 62
250
  6
CONTINUOUS
 10
265.5723421063
 20
121.3999748957
 11
265.4559554213
 21
121.5445651985
  0
LINE
  5
394
100
AcDbEntity
  8
IMPORT_IGES
100
AcDbLine
 62
250
  6
CONTINUOUS
 10
266.3927746945
 20
122.2312705862
 11
265.9374415591
 21
122.7994091521
  0
LINE
  5
395
100
AcDbEntity
  8
IMPORT_IGES
100
AcDbLine
 62
250
  6
CONTINUOUS
 10
265.4559554213
 20
121.5445651985
 11
265.2618644057
 21
121.7871380239
  0
LINE
  5
396
100
AcDbEntity
  8
IMPORT_IGES
100
AcDbLine
 62
250
  6
CONTINUOUS
 10
265.2618644057
 20
121.7871380239
 11
265.0892349499
 21
122.0030910142
  0
LINE
  5
397
100
AcDbEntity
  8
IMPORT_IGES
100
AcDbLine
 62
250
  6
CONTINUOUS
 10
263.8864548093
 20
119.8833446873
 11
263.8182779054
 21
119.9686684519
  0
LINE
  5
398
100
AcDbEntity
  8
IMPORT_IGES
100
AcDbLine
 62
250
  6
CONTINUOUS
 10
263.8182779054
 20
119.9686684519
 11
263.4099442113
 21
120.4849743107
  0
LWPOLYLINE
  5
399
100
AcDbEntity
  8
IMPORT_IGES
100
AcDbPolyline
 62
250
  6
CONTINUOUS
 90
3
 70
0
 10
262.4383074735
 20
119.7172211992
 10
262.9142176274
 20
119.1167061044
 10
262.9354518647
 20
119.0897126664
  0
LWPOLYLINE
  5
39A
100
AcDbEntity
  8
IMPORT_IGES
100
AcDbPolyline
 62
7
  6
CONTINUOUS
 90
91
 70
0
 10
245.9501315988
 20
140.906166167
 10
245.9557019556
 20
140.8961195916
 10
245.9616079427
 20
140.8857878789
 10
245.96784956
 20
140.8751710288
 10
245.974392888
 20
140.8642763388
 10
245.9812718463
 20
140.8530965115
 10
245.9885881939
 20
140.8416096544
 10
245.9963349683
 20
140.829807369
 10
246.004519132
 20
140.8176980539
 10
246.0132633316
 20
140.8052850122
 10
246.0225803392
 20
140.7925692208
 10
246.0324573828
 20
140.7795497029
 10
246.0429787922
 20
140.7662268316
 10
246.0541461959
 20
140.7526038477
 10
246.0659579654
 20
140.7386775104
 10
246.078493546
 20
140.72443847
 10
246.0917385354
 20
140.7098858976
 10
246.1057073359
 20
140.695020622
 10
246.1205225994
 20
140.6798357803
 10
246.1361615036
 20
140.6643196412
 10
246.1526468708
 20
140.6484839359
 10
246.1701698197
 20
140.632356995
 10
246.1887078648
 20
140.6159306538
 10
246.2082834916
 20
140.5992130771
 10
246.229155275
 20
140.5822570899
 10
246.2513307834
 20
140.5650291943
 10
246.2748024485
 20
140.5475628883
 10
246.2998061404
 20
140.5300114911
 10
246.32652909
 20
140.512258054
 10
246.3547840664
 20
140.4944195256
 10
246.384245247
 20
140.4770000715
 10
246.4150024177
 20
140.4600189358
 10
246.4469657926
 20
140.4434568744
 10
246.4795401916
 20
140.4277603199
 10
246.5125549002
 20
140.4130529001
 10
246.546180633
 20
140.3992109873
 10
246.5803343535
 20
140.3863101318
 10
246.6149644624
 20
140.3743714521
 10
246.6501225591
 20
140.3633738297
 10
246.685880405
 20
140.3533294597
 10
246.7222474117
 20
140.3442256982
 10
246.7592141677
 20
140.336075189
 10
246.7968242003
 20
140.3289280587
 10
246.8350443329
 20
140.3227801849
 10
246.8739077421
 20
140.3176356899
 10
246.913557486
 20
140.3135570675
 10
246.9541654856
 20
140.3105386261
 10
246.9955598198
 20
140.3085860572
 10
247.037367783
 20
140.3077789299
 10
247.0798588527
 20
140.3081659976
 10
247.1227635514
 20
140.3096985067
 10
247.1649007412
 20
140.3123097655
 10
247.205953481
 20
140.3160138111
 10
247.2462387119
 20
140.3207966064
 10
247.2855261192
 20
140.3265493471
 10
247.3236285767
 20
140.3332456534
 10
247.3607332105
 20
140.3409119053
 10
247.3971710842
 20
140.3495184384
 10
247.4330586288
 20
140.3590772585
 10
247.4682794132
 20
140.36957636
 10
247.502815208
 20
140.380950062
 10
247.5366282294
 20
140.3931770149
 10
247.5697562612
 20
140.4062785684
 10
247.6022944254
 20
140.4202530912
 10
247.6342575274
 20
140.4350989206
 10
247.6656307618
 20
140.4508177194
 10
247.6964648349
 20
140.4674128448
 10
247.7267951819
 20
140.4848980862
 10
247.7565863677
 20
140.5032596542
 10
247.785782793
 20
140.5224595379
 10
247.8143730966
 20
140.5424896563
 10
247.8423686397
 20
140.5633580903
 10
247.8697479067
 20
140.5850510723
 10
247.8965182584
 20
140.6075729044
 10
247.9226723341
 20
140.6309192844
 10
247.9481665353
 20
140.6550635385
 10
247.9730312246
 20
140.6800461408
 10
247.9972360395
 20
140.7058266171
 10
248.0206462933
 20
140.7322568715
 10
248.0433830372
 20
140.7595570954
 10
248.06532522
 20
140.7875070973
 10
248.0859750021
 20
140.8152982066
 10
248.105230365
 20
140.8428496588
 10
248.1231933271
 20
140.8702422184
 10
248.139672104
 20
140.896909509
 10
248.1545262901
 20
140.9226347071
 10
248.167896291
 20
140.9476346362
 10
248.1800115393
 20
140.9719933902
 10
248.1909485124
 20
140.9957390003
 10
248.2006307328
 20
141.0188434353
 10
248.2090582006
 20
141.0413066951
  0
LINE
  5
39B
100
AcDbEntity
  8
IMPORT_IGES
100
AcDbLine
 62
7
  6
CONTINUOUS
 10
241.3095476232
 20
168.476703548
 11
241.3095476232
 21
128.076703548
  0
LINE
  5
39C
100
AcDbEntity
  8
IMPORT_IGES
100
AcDbLine
 62
7
  6
CONTINUOUS
 10
243.8095476232
 20
140.0820189741
 11
243.8095476232
 21
140.9854317534
  0
LINE
  5
39D
100
AcDbEntity
  8
IMPORT_IGES
100
AcDbLine
 62
7
  6
CONTINUOUS
 10
243.8095476232
 20
142.4237053872
 11
243.8095476232
 21
143.3591382871
  0
LINE
  5
39E
100
AcDbEntity
  8
IMPORT_IGES
100
AcDbLine
 62
7
  6
CONTINUOUS
 10
243.8095471241
 20
143.6349365523
 11
243.8095471241
 21
144.6248275523
  0
LINE
  5
39F
100
AcDbEntity
  8
IMPORT_IGES
100
AcDbLine
 62
7
  6
CONTINUOUS
 10
243.8095471241
 20
146.4063465523
 11
243.8095471241
 21
147.3353695523
  0
LINE
  5
3A0
100
AcDbEntity
  8
IMPORT_IGES
100
AcDbLine
 62
7
  6
CONTINUOUS
 10
243.8095471241
 20
147.4828505523
 11
243.8095471241
 21
148.4016495523
  0
LINE
  5
3A1
100
AcDbEntity
  8
IMPORT_IGES
100
AcDbLine
 62
7
  6
CONTINUOUS
 10
243.8095471241
 20
149.7113365523
 11
243.8095471241
 21
149.8430605523
  0
LINE
  5
3A2
100
AcDbEntity
  8
IMPORT_IGES
100
AcDbLine
 62
7
  6
CONTINUOUS
 10
243.8095471241
 20
151.1475515523
 11
243.8095471241
 21
152.0460725523
  0
LINE
  5
3A3
100
AcDbEntity
  8
IMPORT_IGES
100
AcDbLine
 62
7
  6
CONTINUOUS
 10
243.8095471241
 20
152.5516795523
 11
243.8095471241
 21
153.4908915523
  0
LINE
  5
3A4
100
AcDbEntity
  8
IMPORT_IGES
100
AcDbLine
 62
7
  6
CONTINUOUS
 10
243.8095471241
 20
155.2857395523
 11
243.8095471241
 21
156.1134205523
  0
LINE
  5
3A5
100
AcDbEntity
  8
IMPORT_IGES
100
AcDbLine
 62
7
  6
CONTINUOUS
 10
244.7077981241
 20
144.8681325523
 11
244.7077981241
 21
146.1471835523
  0
LINE
  5
3A6
100
AcDbEntity
  8
IMPORT_IGES
100
AcDbLine
 62
7
  6
CONTINUOUS
 10
245.4028611241
 20
145.0558335523
 11
245.4028611241
 21
145.9550625523
  0
LINE
  5
3A7
100
AcDbEntity
  8
IMPORT_IGES
100
AcDbLine
 62
7
  6
CONTINUOUS
 10
245.5703843259
 20
141.9201223534
 11
245.5703843259
 21
142.4237053872
  0
LINE
  5
3A8
100
AcDbEntity
  8
IMPORT_IGES
100
AcDbLine
 62
7
  6
CONTINUOUS
 10
246.3072857302
 20
141.9180978989
 11
246.3072857302
 21
142.4548482442
  0
LINE
  5
3A9
100
AcDbEntity
  8
IMPORT_IGES
100
AcDbLine
 62
7
  6
CONTINUOUS
 10
248.3089991241
 20
157.5398345523
 11
248.3089991241
 21
156.5195595523
  0
LINE
  5
3AA
100
AcDbEntity
  8
IMPORT_IGES
100
AcDbLine
 62
7
  6
CONTINUOUS
 10
248.3089991241
 20
154.7780055523
 11
248.3089991241
 21
153.8394355523
  0
LINE
  5
3AB
100
AcDbEntity
  8
IMPORT_IGES
100
AcDbLine
 62
7
  6
CONTINUOUS
 10
248.3089991241
 20
151.6397975523
 11
248.3089991241
 21
150.7013625523
  0
LINE
  5
3AC
100
AcDbEntity
  8
IMPORT_IGES
100
AcDbLine
 62
7
  6
CONTINUOUS
 10
248.3089991241
 20
148.8328585523
 11
248.3089991241
 21
147.9035995523
  0
LINE
  5
3AD
100
AcDbEntity
  8
IMPORT_IGES
100
AcDbLine
 62
7
  6
CONTINUOUS
 10
248.3089991241
 20
145.9240545523
 11
248.3089991241
 21
145.0154795523
  0
LINE
  5
3AE
100
AcDbEntity
  8
IMPORT_IGES
100
AcDbLine
 62
7
  6
CONTINUOUS
 10
248.3092691241
 20
153.4908915523
 11
248.3092691241
 21
152.5516795523
  0
LWPOLYLINE
  5
3AF
100
AcDbEntity
  8
IMPORT_IGES
100
AcDbPolyline
 62
7
  6
CONTINUOUS
 90
19
 70
0
 10
245.5703843259
 20
141.9201223534
 10
245.5687704845
 20
141.8806646991
 10
245.5647150497
 20
141.8423187703
 10
245.5582180216
 20
141.8050845669
 10
245.5492501723
 20
141.7689309156
 10
245.5378407297
 20
141.7338889897
 10
245.524077377
 20
141.700052309
 10
245.5079846654
 20
141.6674342121
 10
245.4895380436
 20
141.6360213604
 10
245.4687515418
 20
141.605867258
 10
245.4456499025
 20
141.5769394423
 10
245.4202083831
 20
141.5492703758
 10
245.3923667859
 20
141.523010951
 10
245.362137138
 20
141.4981830429
 10
245.3295074123
 20
141.4747647763
 10
245.2943813306
 20
141.4528414191
 10
245.2567268001
 20
141.4324413937
 10
245.2165759136
 20
141.4135362777
 10
245.1739286711
 20
141.3961260709
  0
LWPOLYLINE
  5
3B0
100
AcDbEntity
  8
IMPORT_IGES
100
AcDbPolyline
 62
7
  6
CONTINUOUS
 90
22
 70
0
 10
247.5689594578
 20
141.7190602898
 10
247.5624388567
 20
141.6762323386
 10
247.5534449934
 20
141.6345401175
 10
247.5419778678
 20
141.5939836267
 10
247.5279514155
 20
141.5543755215
 10
247.511451701
 20
141.5159031464
 10
247.4927369176
 20
141.4791285353
 10
247.4718363488
 20
141.4440913558
 10
247.4487207113
 20
141.4107519401
 10
247.4235603486
 20
141.3795533193
 10
247.3962737498
 20
141.3505755478
 10
247.366942426
 20
141.3237385711
 10
247.3359812533
 20
141.2992452568
 10
247.3033305358
 20
141.2771363058
 10
247.2690499695
 20
141.2573710172
 10
247.2337335186
 20
141.2400301558
 10
247.1973854907
 20
141.2250866143
 10
247.1600015782
 20
141.2125675
 10
247.1221628229
 20
141.2026348998
 10
247.0840629053
 20
141.1953428428
 10
247.0455081449
 20
141.1906373
 10
247.0064985416
 20
141.1885182714
  0
LWPOLYLINE
  5
3B1
100
AcDbEntity
  8
IMPORT_IGES
100
AcDbPolyline
 62
7
  6
CONTINUOUS
 90
19
 70
0
 10
248.2090582006
 20
141.0413066951
 10
248.2391631234
 20
141.1310519084
 10
248.2658945428
 20
141.2259470811
 10
248.2892524586
 20
141.3259922132
 10
248.3092116173
 20
141.4314165323
 10
248.3257972725
 20
141.5419908108
 10
248.3390851848
 20
141.6570273656
 10
248.349050578
 20
141.7764268062
 10
248.3557182282
 20
141.9002885232
 10
248.3592382243
 20
142.0282230049
 10
248.3595798664
 20
142.1601216475
 10
248.3567738544
 20
142.2960930548
 10
248.3510623771
 20
142.4360735266
 10
248.3425199674
 20
142.5800744601
 10
248.3310720923
 20
142.7280844582
 10
248.3167373424
 20
142.880005629
 10
248.2995219144
 20
143.0358053422
 10
248.2794196115
 20
143.1955162282
 10
248.2564304337
 20
143.3591382871
  0
LWPOLYLINE
  5
3B2
100
AcDbEntity
  8
IMPORT_IGES
100
AcDbPolyline
 62
7
  6
CONTINUOUS
 90
9
 70
0
 10
267.7311207347
 20
153.3402669899
 10
267.7305809094
 20
153.33985935
 10
267.7289779811
 20
153.3327507301
 10
267.7276444559
 20
153.3168083377
 10
267.7265835219
 20
153.2920629506
 10
267.7257919911
 20
153.258556884
 10
267.7252602988
 20
153.2163368688
 10
267.7249939907
 20
153.1654584081
 10
267.7252146894
 20
153.0381127128
  0
LINE
  5
3B3
100
AcDbEntity
  8
IMPORT_IGES
100
AcDbLine
 62
7
  6
CONTINUOUS
 10
44.9259604671
 20
177.0543444298
 11
45.2368401329
 21
177.0700052305
  0
LWPOLYLINE
  5
3B4
100
AcDbEntity
  8
IMPORT_IGES
100
AcDbPolyline
 62
250
  6
CONTINUOUS
 90
112
 70
0
 10
46.1758846965
 20
176.4631836201
 10
45.5462494233
 20
176.4540164241
 10
44.9247174776
 20
176.4268194284
 10
44.3118432146
 20
176.3820519823
 10
43.7083186051
 20
176.3202009027
 10
43.1144350653
 20
176.2417280914
 10
42.5300917106
 20
176.1470176952
 10
41.9555976788
 20
176.0364867341
 10
41.3914178044
 20
175.9105903925
 10
40.8376633504
 20
175.7697153715
 10
40.2957983569
 20
175.6146468084
 10
39.7652837471
 20
175.44564434
 10
39.2433745345
 20
175.2620363246
 10
38.730152052
 20
175.0638661667
 10
38.2265372151
 20
174.8514934701
 10
37.7311813518
 20
174.6242624794
 10
37.2445781803
 20
174.3821948271
 10
36.7672967695
 20
174.1253534968
 10
36.2982164543
 20
173.8528765687
 10
35.8374484065
 20
173.5649209527
 10
35.3855593314
 20
173.2621112107
 10
34.9420863441
 20
172.9443617273
 10
34.5081633353
 20
172.6126993576
 10
34.0833234755
 20
172.2669717988
 10
33.6649803335
 20
171.9049835304
 10
33.2539792175
 20
171.5271451985
 10
32.8506719654
 20
171.1334376125
 10
32.4522787644
 20
170.7204531306
 10
32.058460655
 20
170.2867173327
 10
31.6713298538
 20
169.8334058776
 10
31.2920236643
 20
169.3608065274
 10
30.9214938906
 20
168.869053975
 10
30.5605373864
 20
168.3581049738
 10
30.2100691016
 20
167.8280806867
 10
29.8714896674
 20
167.279924978
 10
29.5452006345
 20
166.7131348136
 10
29.2304140473
 20
166.1256374514
 10
28.9283419117
 20
165.5193733915
 10
28.6384452649
 20
164.8930709911
 10
28.3578862815
 20
164.2395440421
 10
28.0879474594
 20
163.5601281115
 10
27.8289598479
 20
162.854204342
 10
27.5780509703
 20
162.1112168955
 10
27.3369087142
 20
161.3314543845
 10
27.1070049109
 20
160.5145598672
 10
26.8868578863
 20
159.6483851557
 10
26.6785046992
 20
158.7319732754
 10
26.4842592425
 20
157.76649297
 10
26.3045461205
 20
156.7427749213
 10
26.140595546
 20
155.6493286642
 10
25.9972588227
 20
154.4978233547
 10
25.8792046061
 20
153.3139437664
 10
25.7868775167
 20
152.0993158248
 10
25.7203168463
 20
150.8536530367
 10
25.6798995677
 20
149.600211207
 10
25.6639459036
 20
148.3403758337
 10
25.671046487
 20
147.0738991795
 10
25.7017858273
 20
145.8216876977
 10
25.7574399504
 20
144.5835230001
 10
25.8391154777
 20
143.3606855905
 10
25.9455050789
 20
142.1762159318
 10
26.0756051991
 20
141.0320123584
 10
26.2284229094
 20
139.9274316499
 10
26.3994016659
 20
138.8814812676
 10
26.5835721911
 20
137.9048469473
 10
26.7798195246
 20
136.9869265843
 10
26.988877851
 20
136.1146510577
 10
27.2090520091
 20
135.2877313024
 10
27.4382445222
 20
134.5065879099
 10
27.6782162886
 20
133.7594061047
 10
27.9279728624
 20
133.0451700984
 10
28.1857866732
 20
132.3650047295
 10
28.4537409418
 20
131.7106616971
 10
28.731082607
 20
131.0821232648
 10
29.0167489672
 20
130.4798431305
 10
29.3135541556
 20
129.8966385711
 10
29.6219461841
 20
129.3312314609
 10
29.9406877616
 20
128.7853969796
 10
30.2706257996
 20
128.2568803929
 10
30.6114118249
 20
127.7453465536
 10
30.9618997104
 20
127.2516463573
 10
31.3217491158
 20
126.7754247523
 10
31.6905146459
 20
126.3165417134
 10
32.0672940002
 20
125.8754101157
 10
32.4510989197
 20
125.4524418522
 10
32.8398948308
 20
125.0489943524
 10
33.2342369986
 20
124.6635765083
 10
33.6372207639
 20
124.292589654
 10
34.0486137036
 20
123.9360302711
 10
34.4676013798
 20
123.5944087148
 10
34.8969637687
 20
123.2654994526
 10
35.3373744206
 20
122.949148316
 10
35.7876398609
 20
122.6465891492
 10
36.2480025397
 20
122.3580192376
 10
36.7179264707
 20
122.0841656827
 10
37.1973722947
 20
121.8253154378
 10
37.6872689846
 20
121.5808546977
 10
38.1870732681
 20
121.3509271294
 10
38.6963497319
 20
121.1356152746
 10
39.2162641656
 20
120.9344113542
 10
39.7465096986
 20
120.747521361
 10
40.2864194498
 20
120.5752712407
 10
40.8366779324
 20
120.4175893374
 10
41.3972153187
 20
120.274727234
 10
41.9670680636
 20
120.1471960239
 10
42.5456795643
 20
120.0354243135
 10
43.1326418097
 20
119.9398006585
 10
43.7275485755
 20
119.8607082329
 10
44.3298218889
 20
119.7985440367
 10
44.9389425272
 20
119.7536839904
 10
45.5544510955
 20
119.7264955555
 10
46.1758165977
 20
119.7173503598
  0
LWPOLYLINE
  5
3B5
100
AcDbEntity
  8
IMPORT_IGES
100
AcDbPolyline
 62
7
  6
CONTINUOUS
 90
4
 70
0
 10
46.1758826769
 20
177.0904663931
 10
45.8617558317
 20
177.0880580172
 10
45.5487437371
 20
177.0812377196
 10
45.2368463931
 20
177.0700055006
  0
LINE
  5
3B6
100
AcDbEntity
  8
IMPORT_IGES
100
AcDbLine
 62
250
  6
CONTINUOUS
 10
46.1758748403
 20
176.4631840342
 11
262.4382964217
 21
176.4631840342
  0
LINE
  5
3B7
100
AcDbEntity
  8
IMPORT_IGES
100
AcDbLine
 62
7
  6
CONTINUOUS
 10
262.9380655075
 20
177.0901961746
 11
46.1758826769
 21
177.0904663931
  0
LWPOLYLINE
  5
3B8
100
AcDbEntity
  8
IMPORT_IGES
100
AcDbPolyline
 62
250
  6
CONTINUOUS
 90
25
 70
0
 10
262.4382964218
 20
176.4631844487
 10
262.4929869962
 20
176.4615527709
 10
262.5478821311
 20
176.4568758927
 10
262.6026907289
 20
176.4491656204
 10
262.6570753089
 20
176.438452847
 10
262.7108438467
 20
176.4247515329
 10
262.7639477089
 20
176.4080213546
 10
262.8161385843
 20
176.3882927762
 10
262.867165538
 20
176.365676427
 10
262.9169803647
 20
176.3401852908
 10
262.9653390484
 20
176.3119174654
 10
263.0120133295
 20
176.2810228403
 10
263.0569580578
 20
176.2475220229
 10
263.099951039
 20
176.2115503557
 10
263.1408090378
 20
176.1732927831
 10
263.1795013141
 20
176.1327885828
 10
263.2158291571
 20
176.0902252434
 10
263.2496407546
 20
176.0458174063
 10
263.2809122927
 20
175.9996088396
 10
263.3094780604
 20
175.9518180337
 10
263.3352511019
 20
175.9026795113
 10
263.3582594527
 20
175.8522498335
 10
263.3784450488
 20
175.8007125476
 10
263.3956996163
 20
175.7483888597
 10
263.4099442176
 20
175.6955592466
  0
LINE
  5
3B9
100
AcDbEntity
  8
IMPORT_IGES
100
AcDbLine
 62
7
  6
CONTINUOUS
 10
262.9475885727
 20
177.0900506434
 11
262.9354533783
 21
177.0904156906
  0
LINE
  5
3BA
100
AcDbEntity
  8
IMPORT_IGES
100
AcDbLine
 62
7
  6
CONTINUOUS
 10
265.5939325943
 20
174.8070746885
 11
265.4942044505
 21
174.8226157953
  0
LWPOLYLINE
  5
3BB
100
AcDbEntity
  8
IMPORT_IGES
100
AcDbPolyline
 62
250
  6
CONTINUOUS
 90
22
 70
0
 10
265.0892465219
 20
174.1774412057
 10
265.146144754
 20
174.1680758822
 10
265.203044297
 20
174.1552732372
 10
265.2596221003
 20
174.1390422162
 10
265.3157059874
 20
174.1193420671
 10
265.3708502204
 20
174.0962169294
 10
265.4243496164
 20
174.0699005674
 10
265.4756542061
 20
174.0407588633
 10
265.5247906191
 20
174.0088964397
 10
265.5719246435
 20
173.9742513182
 10
265.6167677109
 20
173.9370866369
 10
265.6591778538
 20
173.8975633385
 10
265.6994792633
 20
173.8553621513
 10
265.7374716216
 20
173.8106207676
 10
265.7728740157
 20
173.7635836742
 10
265.8057790984
 20
173.7140207145
 10
265.8360714866
 20
173.6618608999
 10
265.8632856317
 20
173.6076500875
 10
265.8870913348
 20
173.5521030405
 10
265.9073880091
 20
173.4956823082
 10
265.9241881383
 20
173.4385741685
 10
265.937439473
 20
173.3811242905
  0
LWPOLYLINE
  5
3BC
100
AcDbEntity
  8
IMPORT_IGES
100
AcDbPolyline
 62
7
  6
CONTINUOUS
 90
24
 70
0
 10
265.4942044505
 20
174.8226157953
 10
265.3957498197
 20
174.8431236336
 10
265.2988066283
 20
174.8684568479
 10
265.2030559191
 20
174.8986963039
 10
265.1087307361
 20
174.9337569943
 10
265.0165302121
 20
174.9733838968
 10
264.9264709589
 20
175.0176148327
 10
264.8385363646
 20
175.0664119807
 10
264.753375727
 20
175.1194068543
 10
264.6710088553
 20
175.1766293369
 10
264.5914159403
 20
175.2380495451
 10
264.5151868516
 20
175.3032093427
 10
264.4423456248
 20
175.3721354442
 10
264.3728682245
 20
175.444801135
 10
264.3072724132
 20
175.5206681345
 10
264.2455858219
 20
175.5997592874
 10
264.1877808197
 20
175.682051749
 10
264.1342922767
 20
175.7669387042
 10
264.0851504688
 20
175.8544393157
 10
264.0403251202
 20
175.9445344208
 10
264.000160273
 20
176.036559716
 10
263.9647706078
 20
176.1302937668
 10
263.934041444
 20
176.2259580077
 10
263.9079727816
 20
176.3235524387
  0
LWPOLYLINE
  5
3BD
100
AcDbEntity
  8
IMPORT_IGES
100
AcDbPolyline
 62
250
  6
CONTINUOUS
 90
25
 70
0
 10
264.5327804099
 20
172.759837272
 10
264.399405745
 20
172.7947120011
 10
264.2677493122
 20
172.8347755054
 10
264.1378111113
 20
172.8800277849
 10
264.0095462436
 20
172.9304233174
 10
263.8829996079
 20
172.9860076252
 10
263.7583059007
 20
173.0469172743
 10
263.6352584372
 20
173.1132713722
 10
263.5140639021
 20
173.1849508114
 10
263.3954770462
 20
173.2617348363
 10
263.2794566328
 20
173.3436375752
 10
263.1660438985
 20
173.4306448996
 10
263.0561173038
 20
173.5224936684
 10
262.9497898831
 20
173.6192083852
 10
262.8469486019
 20
173.7207645462
 10
262.7481328171
 20
173.8268254995
 10
262.6532364194
 20
173.9375054774
 10
262.562365518
 20
174.0526902476
 10
262.4763777971
 20
174.1717004607
 10
262.3954613849
 20
174.29429826
 10
262.3194281532
 20
174.4207215023
 10
262.248571402
 20
174.5510044087
 10
262.1829888979
 20
174.6851583862
 10
262.1225828743
 20
174.8231720277
 10
262.0673533311
 20
174.9650453333
  0
LWPOLYLINE
  5
3BE
100
AcDbEntity
  8
IMPORT_IGES
100
AcDbPolyline
 62
7
  6
CONTINUOUS
 90
8
 70
0
 10
267.7311514629
 20
142.8402669899
 10
267.7306176787
 20
142.8406747445
 10
267.729027633
 20
142.8477843404
 10
267.7276960364
 20
142.8637280467
 10
267.7266235935
 20
142.8884740745
 10
267.7258095996
 20
142.9219794626
 10
267.7252519408
 20
142.9641979722
 10
267.7249498275
 20
143.0150737918
  0
LWPOLYLINE
  5
3BF
100
AcDbEntity
  8
IMPORT_IGES
100
AcDbPolyline
 62
250
  6
CONTINUOUS
 90
19
 70
0
 10
264.532780016
 20
123.4206973218
 10
264.5704396714
 20
123.3441264083
 10
264.6069947433
 20
123.2670769795
 10
264.6423680447
 20
123.1899775196
 10
264.6764028931
 20
123.1133758655
 10
264.7091325621
 20
123.0375839802
 10
264.7407605736
 20
122.9626619736
 10
264.7712601285
 20
122.889149612
 10
264.8005548667
 20
122.8172824257
 10
264.8287526952
 20
122.7466683893
 10
264.8559764797
 20
122.6774627775
 10
264.8820128132
 20
122.6102948226
 10
264.9064881679
 20
122.5455097725
 10
264.929356515
 20
122.4835557192
 10
264.9506996377
 20
122.4246505683
 10
264.9703802222
 20
122.3688055584
 10
264.9883703836
 20
122.3163782385
 10
265.0047834746
 20
122.2675694134
 10
265.0196883038
 20
122.2222445951
  0
LWPOLYLINE
  5
3C0
100
AcDbEntity
  8
IMPORT_IGES
100
AcDbPolyline
 62
7
  6
CONTINUOUS
 90
10
 70
0
 10
247.542472846
 20
142.4548482442
 10
247.5539323109
 20
142.3721635765
 10
247.5633255812
 20
142.2896852876
 10
247.5706526569
 20
142.2074133775
 10
247.5759974479
 20
142.1253128677
 10
247.5792760443
 20
142.0434187366
 10
247.5802367164
 20
141.9618359197
 10
247.5787955545
 20
141.8805993955
 10
247.5750364683
 20
141.7996741855
 10
247.5689594578
 20
141.7190602898
  0
LINE
  5
3C1
100
AcDbEntity
  8
IMPORT_IGES
100
AcDbLine
 62
7
  6
CONTINUOUS
 10
254.1240507514
 20
125.1502376677
 11
254.1240507514
 21
127.0402670065
  0
LINE
  5
3C2
100
AcDbEntity
  8
IMPORT_IGES
100
AcDbLine
 62
7
  6
CONTINUOUS
 10
254.1240507514
 20
128.1402670065
 11
254.1240507514
 21
130.0302963347
  0
LINE
  5
3C3
100
AcDbEntity
  8
IMPORT_IGES
100
AcDbLine
 62
7
  6
CONTINUOUS
 10
254.1240507514
 20
166.150237638
 11
254.1240507514
 21
168.0402669769
  0
LINE
  5
3C4
100
AcDbEntity
  8
IMPORT_IGES
100
AcDbLine
 62
7
  6
CONTINUOUS
 10
254.1240507514
 20
169.1402669769
 11
254.1240507514
 21
171.0302963051
  0
LINE
  5
3C5
100
AcDbEntity
  8
IMPORT_IGES
100
AcDbLine
 62
7
  6
CONTINUOUS
 10
255.2129033585
 20
125.1502376784
 11
255.2129033585
 21
127.0402670065
  0
LINE
  5
3C6
100
AcDbEntity
  8
IMPORT_IGES
100
AcDbLine
 62
7
  6
CONTINUOUS
 10
255.2129033585
 20
128.1402670065
 11
255.2129033585
 21
130.0302963454
  0
LINE
  5
3C7
100
AcDbEntity
  8
IMPORT_IGES
100
AcDbLine
 62
7
  6
CONTINUOUS
 10
255.2129033585
 20
166.1502376487
 11
255.2129033585
 21
168.0402669769
  0
LINE
  5
3C8
100
AcDbEntity
  8
IMPORT_IGES
100
AcDbLine
 62
7
  6
CONTINUOUS
 10
255.2129033585
 20
169.1402669769
 11
255.2129033585
 21
171.0302963157
  0
LINE
  5
3C9
100
AcDbEntity
  8
IMPORT_IGES
100
AcDbLine
 62
250
  6
CONTINUOUS
 10
262.1937693494
 20
175.4960387557
 11
262.0673533311
 21
174.9650466184
  0
LINE
  5
3CA
100
AcDbEntity
  8
IMPORT_IGES
100
AcDbLine
 62
250
  6
CONTINUOUS
 10
262.244271347
 20
175.7023504262
 11
262.1937693494
 21
175.4960387557
  0
LINE
  5
3CB
100
AcDbEntity
  8
IMPORT_IGES
100
AcDbLine
 62
250
  6
CONTINUOUS
 10
262.3336456564
 20
176.0588282417
 11
262.244271347
 21
175.7023504262
  0
LINE
  5
3CC
100
AcDbEntity
  8
IMPORT_IGES
100
AcDbLine
 62
250
  6
CONTINUOUS
 10
262.430798926
 20
176.4351729539
 11
262.3336456564
 21
176.0588282417
  0
LWPOLYLINE
  5
3CD
100
AcDbEntity
  8
IMPORT_IGES
100
AcDbPolyline
 62
250
  6
CONTINUOUS
 90
3
 70
0
 10
262.4382964217
 20
176.4631840342
 10
262.4367466859
 20
176.4575920827
 10
262.430798926
 20
176.4351729539
  0
LWPOLYLINE
  5
3CE
100
AcDbEntity
  8
IMPORT_IGES
100
AcDbPolyline
 62
250
  6
CONTINUOUS
 90
5
 70
0
 10
265.0892467415
 20
174.1774428547
 10
265.0875947034
 20
174.1716160294
 10
265.0848152233
 20
174.16207582
 10
265.0808908702
 20
174.1488254657
 10
265.0757887597
 20
174.1319402811
  0
LWPOLYLINE
  5
3CF
100
AcDbEntity
  8
IMPORT_IGES
100
AcDbPolyline
 62
250
  6
CONTINUOUS
 90
3
 70
0
 10
265.0757887597
 20
174.1319402811
 10
265.0620458174
 20
174.0873876313
 10
265.0533645445
 20
174.0597114458
  0
LWPOLYLINE
  5
3D0
100
AcDbEntity
  8
IMPORT_IGES
100
AcDbPolyline
 62
250
  6
CONTINUOUS
 90
12
 70
0
 10
265.0533645445
 20
174.0597114458
 10
265.0323609173
 20
173.9941740868
 10
265.0201060384
 20
173.9566848528
 10
265.0066342395
 20
173.9162719207
 10
264.991944846
 20
173.8728885274
 10
264.976000262
 20
173.8267242464
 10
264.9587834106
 20
173.7779958327
 10
264.9403156216
 20
173.726625047
 10
264.9205251472
 20
173.6727750627
 10
264.8994376852
 20
173.6167208331
 10
264.8772308264
 20
173.5585112591
 10
264.8539219077
 20
173.498395551
  0
LWPOLYLINE
  5
3D1
100
AcDbEntity
  8
IMPORT_IGES
100
AcDbPolyline
 62
250
  6
CONTINUOUS
 90
11
 70
0
 10
264.8539219077
 20
173.498395551
 10
264.8041311859
 20
173.3732627204
 10
264.7779414301
 20
173.3086469676
 10
264.7508675701
 20
173.2429722695
 10
264.7227835045
 20
173.1760103983
 10
264.6937440347
 20
173.1079897794
 10
264.6637700067
 20
173.0392601361
 10
264.6326669595
 20
172.9697866707
 10
264.6003940813
 20
172.899780991
 10
264.5670799167
 20
172.8296871652
 10
264.5327804099
 20
172.759837272
  0
LINE
  5
3D2
100
AcDbEntity
  8
IMPORT_IGES
100
AcDbLine
 62
7
  6
CONTINUOUS
 10
267.7324661735
 20
142.8424135627
 11
267.7311514629
 21
142.8402669899
  0
LINE
  5
3D3
100
AcDbEntity
  8
IMPORT_IGES
100
AcDbLine
 62
7
  6
CONTINUOUS
 10
367.0614459887
 20
168.5902669899
 11
339.0614459887
 21
156.5902669899
  0
LINE
  5
3D4
100
AcDbEntity
  8
IMPORT_IGES
100
AcDbLine
 62
7
  6
CONTINUOUS
 10
346.0614459887
 20
156.5439577476
 11
359.5614459887
 21
162.3296720333
  0
LINE
  5
3D5
100
AcDbEntity
  8
IMPORT_IGES
100
AcDbLine
 62
7
  6
CONTINUOUS
 10
339.0614459887
 20
152.782380437
 11
344.5614459887
 21
155.1395232941
  0
LINE
  5
3D6
100
AcDbEntity
  8
IMPORT_IGES
100
AcDbLine
 62
7
  6
CONTINUOUS
 10
361.0614459887
 20
162.2109518656
 11
361.9465146122
 21
162.5902669899
  0
LWPOLYLINE
  5
3D7
100
AcDbEntity
  8
IMPORT_IGES
100
AcDbPolyline
 62
7
  6
CONTINUOUS
 90
8
 70
0
 10
44.9259665296
 20
177.0543410474
 10
44.6162014168
 20
177.0342646727
 10
44.3078428646
 20
177.009837314
 10
44.0008904318
 20
176.9810428311
 10
43.6953445597
 20
176.9478973643
 10
43.391498383
 20
176.9105102727
 10
43.0893604998
 20
176.8688756156
 10
42.788922312
 20
176.8229993337
  0
LINE
  5
3D8
100
AcDbEntity
  8
IMPORT_IGES
100
AcDbLine
 62
7
  6
CONTINUOUS
 10
367.0614459887
 20
127.5902669899
 11
339.0614459887
 21
139.5902669899
  0
LINE
  5
3D9
100
AcDbEntity
  8
IMPORT_IGES
100
AcDbLine
 62
7
  6
CONTINUOUS
 10
359.5614459887
 20
133.8508619466
 11
346.0614459887
 21
139.6365762323
  0
LINE
  5
3DA
100
AcDbEntity
  8
IMPORT_IGES
100
AcDbLine
 62
7
  6
CONTINUOUS
 10
361.9465146122
 20
133.5902669899
 11
361.0614459887
 21
133.9695821143
  0
LINE
  5
3DB
100
AcDbEntity
  8
IMPORT_IGES
100
AcDbLine
 62
7
  6
CONTINUOUS
 10
344.5614459887
 20
141.0410106857
 11
339.0614459887
 21
143.3981535429
  0
LINE
  5
3DC
100
AcDbEntity
  8
IMPORT_IGES
100
AcDbLine
 62
7
  6
CONTINUOUS
 10
267.7324532408
 20
153.3381206492
 11
267.7311207347
 21
153.3402669899
  0
LINE
  5
3DD
100
AcDbEntity
  8
IMPORT_IGES
100
AcDbLine
 62
250
  6
CONTINUOUS
 10
265.0196883038
 20
122.2222445951
 11
265.0451819917
 21
122.1429462116
  0
LWPOLYLINE
  5
3DE
100
AcDbEntity
  8
IMPORT_IGES
100
AcDbPolyline
 62
250
  6
CONTINUOUS
 90
3
 70
0
 10
265.0835285507
 20
122.0206467586
 10
265.0870437251
 20
122.0096199154
 10
265.0892467733
 20
122.0030910932
  0
LINE
  5
3DF
100
AcDbEntity
  8
IMPORT_IGES
100
AcDbLine
 62
250
  6
CONTINUOUS
 10
265.0451819917
 20
122.1429462116
 11
265.0835285507
 21
122.0206467586
  0
LINE
  5
3E0
100
AcDbEntity
  8
IMPORT_IGES
100
AcDbLine
 62
250
  6
CONTINUOUS
 10
262.4383074735
 20
119.7173495526
 11
262.4368075076
 21
119.7227872213
  0
LINE
  5
3E1
100
AcDbEntity
  8
IMPORT_IGES
100
AcDbLine
 62
250
  6
CONTINUOUS
 10
262.4368075076
 20
119.7227872213
 11
262.4310279008
 21
119.7445208689
  0
LINE
  5
3E2
100
AcDbEntity
  8
IMPORT_IGES
100
AcDbLine
 62
250
  6
CONTINUOUS
 10
262.4310279008
 20
119.7445208689
 11
262.3353250922
 21
120.1150938815
  0
LINE
  5
3E3
100
AcDbEntity
  8
IMPORT_IGES
100
AcDbLine
 62
250
  6
CONTINUOUS
 10
262.3353250922
 20
120.1150938815
 11
262.2459179471
 21
120.47151121
  0
LINE
  5
3E4
100
AcDbEntity
  8
IMPORT_IGES
100
AcDbLine
 62
250
  6
CONTINUOUS
 10
262.2459179471
 20
120.47151121
 11
262.1950633645
 21
120.6791051641
  0
LINE
  5
3E5
100
AcDbEntity
  8
IMPORT_IGES
100
AcDbLine
 62
250
  6
CONTINUOUS
 10
262.1950633645
 20
120.6791051641
 11
262.0673547389
 21
121.2154890281
  0
LWPOLYLINE
  5
3E6
100
AcDbEntity
  8
IMPORT_IGES
100
AcDbPolyline
 62
7
  6
CONTINUOUS
 90
10
 70
0
 10
268.9309488287
 20
153.3381231843
 10
268.8173217832
 20
155.6527182771
 10
268.6629759658
 20
157.963514238
 10
268.4679113764
 20
160.270511067
 10
268.2320412964
 20
162.5744298913
 10
267.9554524444
 20
164.8745495838
 10
267.6384049765
 20
167.168706763
 10
267.2809856116
 20
169.4561803019
 10
266.8831076308
 20
171.7376913275
 10
266.4447710343
 20
174.0132398398
  0
LWPOLYLINE
  5
3E7
100
AcDbEntity
  8
IMPORT_IGES
100
AcDbPolyline
 62
7
  6
CONTINUOUS
 90
10
 70
0
 10
267.7324525078
 20
153.3381233417
 10
267.6311384401
 20
155.4206941171
 10
267.4965417483
 20
157.5003102201
 10
267.3286624321
 20
159.5769716505
 10
267.127439871
 20
161.6512138592
 10
266.8929346856
 20
163.7225013954
 10
266.6253287382
 20
165.7892279068
 10
266.3246826497
 20
167.8508579425
 10
265.9909357992
 20
169.9079269533
 10
265.6240881868
 20
171.9604349393
  0
LINE
  5
3E8
100
AcDbEntity
  8
IMPORT_IGES
100
AcDbLine
 62
7
  6
CONTINUOUS
 10
268.9268774488
 20
152.9267359941
 11
268.953555932
 21
150.6731585741
  0
LINE
  5
3E9
100
AcDbEntity
  8
IMPORT_IGES
100
AcDbLine
 62
7
  6
CONTINUOUS
 10
268.953555932
 20
150.6731585741
 11
268.9618087906
 21
149.6827438033
  0
LINE
  5
3EA
100
AcDbEntity
  8
IMPORT_IGES
100
AcDbLine
 62
7
  6
CONTINUOUS
 10
267.7252146894
 20
153.0381127128
 11
267.7272718189
 21
152.7850171102
  0
LINE
  5
3EB
100
AcDbEntity
  8
IMPORT_IGES
100
AcDbLine
 62
7
  6
CONTINUOUS
 10
268.9618087906
 20
149.6827438033
 11
268.9658454992
 21
148.8402068258
  0
LWPOLYLINE
  5
3EC
100
AcDbEntity
  8
IMPORT_IGES
100
AcDbPolyline
 62
7
  6
CONTINUOUS
 90
7
 70
0
 10
268.9259406296
 20
143.0392759583
 10
268.9261190656
 20
142.9845752708
 10
268.9265463078
 20
142.9385166475
 10
268.9272410371
 20
142.9012000779
 10
268.9282094805
 20
142.8727047718
 10
268.929445411
 20
142.8530924504
 10
268.9309488287
 20
142.8424114753
  0
LINE
  5
3ED
100
AcDbEntity
  8
IMPORT_IGES
100
AcDbLine
 62
7
  6
CONTINUOUS
 10
268.9658454992
 20
148.8402068258
 11
268.9669852555
 21
147.9791645964
  0
LINE
  5
3EE
100
AcDbEntity
  8
IMPORT_IGES
100
AcDbLine
 62
7
  6
CONTINUOUS
 10
267.7249498275
 20
143.0150737918
 11
267.7251148612
 21
143.1424141465
  0
LINE
  5
3EF
100
AcDbEntity
  8
IMPORT_IGES
100
AcDbLine
 62
7
  6
CONTINUOUS
 10
268.9669852555
 20
147.9791645964
 11
268.9650783524
 21
147.1227298785
  0
LINE
  5
3F0
100
AcDbEntity
  8
IMPORT_IGES
100
AcDbLine
 62
7
  6
CONTINUOUS
 10
268.9263410553
 20
143.1741427535
 11
268.9259406296
 21
143.0392759583
  0
LINE
  5
3F1
100
AcDbEntity
  8
IMPORT_IGES
100
AcDbLine
 62
7
  6
CONTINUOUS
 10
268.9650783524
 20
147.1227298785
 11
268.9603873579
 21
146.2905565612
  0
LWPOLYLINE
  5
3F2
100
AcDbEntity
  8
IMPORT_IGES
100
AcDbPolyline
 62
7
  6
CONTINUOUS
 90
3
 70
0
 10
267.7251148612
 20
143.1424141465
 10
267.7263064261
 20
143.3030550542
 10
267.7272870939
 20
143.3955298204
  0
LINE
  5
3F3
100
AcDbEntity
  8
IMPORT_IGES
100
AcDbLine
 62
7
  6
CONTINUOUS
 10
268.9603873579
 20
146.2905565612
 11
268.9516342865
 21
145.3216699531
  0
LINE
  5
3F4
100
AcDbEntity
  8
IMPORT_IGES
100
AcDbLine
 62
7
  6
CONTINUOUS
 10
268.9297425891
 20
143.5417583105
 11
268.9263410553
 21
143.1741427535
  0
LINE
  5
3F5
100
AcDbEntity
  8
IMPORT_IGES
100
AcDbLine
 62
7
  6
CONTINUOUS
 10
268.9516342865
 20
145.3216699531
 11
268.9297425891
 21
143.5417583105
  0
LWPOLYLINE
  5
3F6
100
AcDbEntity
  8
IMPORT_IGES
100
AcDbPolyline
 62
7
  6
CONTINUOUS
 90
10
 70
0
 10
267.7272863568
 20
143.3955830417
 10
267.6317401064
 20
141.2541145557
 10
267.5009964793
 20
139.1156674264
 10
267.3350554755
 20
136.9802416539
 10
267.1338524641
 20
134.8472546208
 10
266.897452076
 20
132.7172889444
 10
266.6260482038
 20
130.5920924765
 10
266.3197054784
 20
128.4722478343
 10
265.9783592688
 20
126.3571724005
 10
265.6020095752
 20
124.2468661752
  0
LWPOLYLINE
  5
3F7
100
AcDbEntity
  8
IMPORT_IGES
100
AcDbPolyline
 62
7
  6
CONTINUOUS
 90
9
 70
0
 10
268.9309488287
 20
153.3381225045
 10
268.9294483774
 20
153.3274850265
 10
268.9282142468
 20
153.3079498315
 10
268.927246437
 20
153.2795454569
 10
268.9265506835
 20
153.2423086335
 10
268.9261212508
 20
153.1963020638
 10
268.9259409317
 20
153.1416288245
 10
268.9260155695
 20
153.0783935033
 10
268.9268774488
 20
152.9267359941
  0
LWPOLYLINE
  5
3F8
100
AcDbEntity
  8
IMPORT_IGES
100
AcDbPolyline
 62
7
  6
CONTINUOUS
 90
10
 70
0
 10
265.6238627425
 20
124.2201411714
 10
265.9908120662
 20
126.2726303561
 10
266.32463558
 20
128.3296852707
 10
266.625333284
 20
130.3913059151
 10
266.8929574494
 20
132.4580292878
 10
267.1274558048
 20
134.5293183903
 10
267.3286715364
 20
136.6035622274
 10
267.4965523727
 20
138.6802238004
 10
267.631150585
 20
140.759840108
 10
267.7324661735
 20
142.8424111501
  0
LWPOLYLINE
  5
3F9
100
AcDbEntity
  8
IMPORT_IGES
100
AcDbPolyline
 62
7
  6
CONTINUOUS
 90
10
 70
0
 10
266.4447710344
 20
122.1672941403
 10
266.8831076309
 20
124.4428426527
 10
267.2809856117
 20
126.7243536782
 10
267.6384049766
 20
129.0118272171
 10
267.9554524444
 20
131.3059844241
 10
268.2320412964
 20
133.6061041443
 10
268.4679113765
 20
135.910022913
 10
268.6629759658
 20
138.2170195752
 10
268.8173217832
 20
140.5278152858
 10
268.9309488287
 20
142.8424100448
  0
LWPOLYLINE
  5
3FA
100
AcDbEntity
  8
IMPORT_IGES
100
AcDbPolyline
 62
250
  6
CONTINUOUS
 90
22
 70
0
 10
265.9374394529
 20
122.7994095682
 10
265.9245433801
 20
122.7433188435
 10
265.9082256043
 20
122.6874285148
 10
265.8885126708
 20
122.6320631866
 10
265.8653711398
 20
122.5774025426
 10
265.8388721315
 20
122.5238891664
 10
265.8092933142
 20
122.4722062687
 10
265.7770333765
 20
122.4228742581
 10
265.7421923006
 20
122.3758605932
 10
265.704693008
 20
122.3310053352
 10
265.6648132816
 20
122.2885822971
 10
265.6227221941
 20
122.2487234367
 10
265.5780783488
 20
122.2111268565
 10
265.5310309091
 20
122.1759843304
 10
265.4818394387
 20
122.1435640803
 10
265.4302663305
 20
122.1137930221
 10
265.3762476534
 20
122.0867935015
 10
265.3203631481
 20
122.0629965772
 10
265.2633520209
 20
122.0426870723
 10
265.2056812303
 20
122.0259376071
 10
265.1475309194
 20
122.012728292
 10
265.0892465516
 20
122.0030927578
  0
LWPOLYLINE
  5
3FB
100
AcDbEntity
  8
IMPORT_IGES
100
AcDbPolyline
 62
7
  6
CONTINUOUS
 90
22
 70
0
 10
266.4447710344
 20
122.1672941403
 10
266.4312392649
 20
122.1094120102
 10
266.4144946386
 20
122.0528472007
 10
266.3945371554
 20
121.9975997118
 10
266.3713008114
 20
121.9435269203
 10
266.3448516105
 20
121.8907714493
 10
266.3153875651
 20
121.8397611683
 10
266.2828765133
 20
121.7904713246
 10
266.2473506169
 20
121.7429266709
 10
266.2091043738
 20
121.6976293344
 10
266.1680095354
 20
121.6545369882
 10
266.1241943502
 20
121.6136919592
 10
266.0783380623
 20
121.5757233556
 10
266.030492706
 20
121.5407566155
 10
265.9806062469
 20
121.5086663009
 10
265.9292018257
 20
121.4797052052
 10
265.8763061025
 20
121.4539093859
 10
265.8218924172
 20
121.4312427856
 10
265.7664039308
 20
121.4118500257
 10
265.7099883635
 20
121.3957793132
 10
265.6524979951
 20
121.3829824411
 10
265.5939328256
 20
121.3734594093
  0
LWPOLYLINE
  5
3FC
100
AcDbEntity
  8
IMPORT_IGES
100
AcDbPolyline
 62
7
  6
CONTINUOUS
 90
25
 70
0
 10
263.9339552001
 20
119.9545182871
 10
263.893163655
 20
119.8030122344
 10
263.8757641094
 20
119.7502021954
 10
263.8555124764
 20
119.6986141616
 10
263.8323238657
 20
119.6480988114
 10
263.8062831675
 20
119.5988054664
 10
263.7776450522
 20
119.5511820908
 10
263.7463902278
 20
119.5052430243
 10
263.7125379862
 20
119.4609739272
 10
263.6764008737
 20
119.4187797457
 10
263.6379583403
 20
119.3786793576
 10
263.5972309359
 20
119.3406538851
 10
263.5545928568
 20
119.3050516403
 10
263.5100268987
 20
119.2718945459
 10
263.4635502659
 20
119.2411606792
 10
263.4155887677
 20
119.213132585
 10
263.3661287585
 20
119.1878345914
 10
263.3151838839
 20
119.1652423703
 10
263.2632208904
 20
119.1455654816
 10
263.2102303254
 20
119.1288396178
 10
263.1562216416
 20
119.1150290863
 10
263.1016899431
 20
119.1042363702
 10
263.0468002649
 20
119.0964956302
 10
262.9913875721
 20
119.0917727056
 10
262.9354518647
 20
119.0900675963
  0
LWPOLYLINE
  5
3FD
100
AcDbEntity
  8
IMPORT_IGES
100
AcDbPolyline
 62
250
  6
CONTINUOUS
 90
25
 70
0
 10
263.4099441714
 20
120.4849743202
 10
263.395700107
 20
120.432146543
 10
263.3784462178
 20
120.3798244953
 10
263.3582614093
 20
120.3282886279
 10
263.3352539132
 20
120.2778601102
 10
263.3094817676
 20
120.2287224965
 10
263.2809169386
 20
120.1809323942
 10
263.2496463447
 20
120.1347243245
 10
263.215835656
 20
120.0903167738
 10
263.1795086926
 20
120.0477535505
 10
263.1408172428
 20
120.0072493095
 10
263.0999599904
 20
119.9689915459
 10
263.0569676876
 20
119.9330195648
 10
263.0120235524
 20
119.8995183266
 10
262.9653497609
 20
119.8686231904
 10
262.9169914819
 20
119.8403547847
 10
262.8671769687
 20
119.8148630135
 10
262.8161502258
 20
119.79224599
 10
262.7639594743
 20
119.7725167076
 10
262.7108556496
 20
119.7557858111
 10
262.6570870705
 20
119.742083791
 10
262.6027023939
 20
119.7313703303
 10
262.5478936508
 20
119.7236593898
 10
262.4929983118
 20
119.7189818617
 10
262.4383074733
 20
119.7173495529
  0
LWPOLYLINE
  5
3FE
100
AcDbEntity
  8
IMPORT_IGES
100
AcDbPolyline
 62
7
  6
CONTINUOUS
 90
3
 70
0
 10
263.9339552001
 20
119.9545182871
 10
263.9646189278
 20
120.0501412968
 10
263.9999140838
 20
120.1437178004
  0
LWPOLYLINE
  5
3FF
100
AcDbEntity
  8
IMPORT_IGES
100
AcDbPolyline
 62
250
  6
CONTINUOUS
 90
25
 70
0
 10
262.0673547389
 20
121.2154881245
 10
262.1221808489
 20
121.3564366807
 10
262.1821672501
 20
121.4936381901
 10
262.2473139424
 20
121.6270926527
 10
262.3177081513
 20
121.7567936143
 10
262.3932626513
 20
121.8827475292
 10
262.4737157662
 20
122.0049737599
 10
262.559253349
 20
122.1237068582
 10
262.6496895466
 20
122.2387122724
 10
262.7442051234
 20
122.3493057104
 10
262.8427023131
 20
122.4553833208
 10
262.945278882
 20
122.557048955
 10
263.0514088934
 20
122.6539298752
 10
263.1611992528
 20
122.7459950123
 10
263.2745430547
 20
122.8332754355
 10
263.3905936465
 20
122.9154916145
 10
263.5093209545
 20
122.9926365421
 10
263.6307550522
 20
123.0647172256
 10
263.754139508
 20
123.1314751566
 10
263.8792633218
 20
123.1927882617
 10
264.0063374935
 20
123.2487786143
 10
264.135238592
 20
123.2995539254
 10
264.2659254733
 20
123.3451500989
 10
264.3984392813
 20
123.3855312311
 10
264.532780016
 20
123.4206973218
  0
LWPOLYLINE
  5
400
100
AcDbEntity
  8
IMPORT_IGES
100
AcDbPolyline
 62
250
  6
CONTINUOUS
 90
25
 70
0
 10
263.4099458666
 20
175.6955596392
 10
263.4351191693
 20
175.6000329817
 10
263.4652318162
 20
175.5055627049
 10
263.5002687021
 20
175.4123355544
 10
263.540303283
 20
175.3203433443
 10
263.5852305153
 20
175.2300028718
 10
263.6346677009
 20
175.1420986962
 10
263.6883754107
 20
175.0569567894
 10
263.7463177435
 20
174.9745655118
 10
263.8083161128
 20
174.8951478163
 10
263.8742534947
 20
174.8188355763
 10
263.943963173
 20
174.7458212609
 10
264.0171606804
 20
174.6763948368
 10
264.0936736565
 20
174.6107055287
 10
264.1733430974
 20
174.5488901158
 10
264.255869874
 20
174.4911813328
 10
264.341057558
 20
174.4377129085
 10
264.4287471983
 20
174.3885925699
 10
264.5186762494
 20
174.3439803125
 10
264.610839122
 20
174.3039104298
 10
264.7048940218
 20
174.2685720147
 10
264.8000301369
 20
174.2382491958
 10
264.8958258284
 20
174.2129941111
 10
264.9922935874
 20
174.192729302
 10
265.0892467415
 20
174.1774428547
  0
LWPOLYLINE
  5
401
100
AcDbEntity
  8
IMPORT_IGES
100
AcDbPolyline
 62
7
  6
CONTINUOUS
 90
46
 70
0
 10
263.9079727816
 20
176.3235524387
 10
263.9005430981
 20
176.3523238164
 10
263.8922973003
 20
176.3808169317
 10
263.8832353883
 20
176.4090317845
 10
263.8733546921
 20
176.4369916716
 10
263.8626578817
 20
176.4646732962
 10
263.8511529667
 20
176.4920067682
 10
263.8388292223
 20
176.5189959018
 10
263.8256973733
 20
176.5456368829
 10
263.8117976029
 20
176.5718483787
 10
263.7971317849
 20
176.5976221114
 10
263.7816980456
 20
176.6229663589
 10
263.7655309472
 20
176.6478246223
 10
263.7486248802
 20
176.6722014484
 10
263.730985454
 20
176.6960922904
 10
263.7126640587
 20
176.7194270093
 10
263.6936611681
 20
176.7422008301
 10
263.6739763083
 20
176.7644185278
 10
263.6536594476
 20
176.7860242877
 10
263.6327087948
 20
176.8070170685
 10
263.611126141
 20
176.8273979116
 10
263.5889668281
 20
176.8471141263
 10
263.5662268437
 20
176.8661656903
 10
263.5429102002
 20
176.8845526259
 10
263.5190842762
 20
176.9022223091
 10
263.4947525235
 20
176.9191696141
 10
263.4699114903
 20
176.9353996666
 10
263.4446181995
 20
176.9508752198
 10
263.4188663916
 20
176.9655974424
 10
263.3926623261
 20
176.9795651656
 10
263.3660818044
 20
176.992737636
 10
263.3391246121
 20
177.005111594
 10
263.3117909637
 20
177.0166902992
 10
263.2841573038
 20
177.0274427773
 10
263.2562277689
 20
177.0373654434
 10
263.2279982225
 20
177.0464618823
 10
263.1995327004
 20
177.0547118743
 10
263.1708322381
 20
177.0621143366
 10
263.1418958002
 20
177.068670352
 10
263.1127843154
 20
177.0743629485
 10
263.0833883074
 20
177.0791922695
 10
263.0538172526
 20
177.0831581717
 10
263.0244605094
 20
177.0862432534
 10
262.9954478638
 20
177.0884417142
 10
262.9666495299
 20
177.0897593546
 10
262.9380655075
 20
177.0901961746
  0
LWPOLYLINE
  5
402
100
AcDbEntity
  8
IMPORT_IGES
100
AcDbPolyline
 62
7
  6
CONTINUOUS
 90
22
 70
0
 10
266.4447710343
 20
174.0132398398
 10
266.4297445671
 20
174.0746758
 10
266.411799154
 20
174.1338561685
 10
266.3909347949
 20
174.1907809453
 10
266.3670705942
 20
174.2454356368
 10
266.3402874476
 20
174.2978347366
 10
266.3108280421
 20
174.3480217258
 10
266.2786785626
 20
174.3960194122
 10
266.2438528242
 20
174.4418049881
 10
266.2066349594
 20
174.4853535107
 10
266.1670065739
 20
174.526760722
 10
266.124986062
 20
174.5659308801
 10
266.0809127387
 20
174.6025518167
 10
266.0348845669
 20
174.6366109388
 10
265.9868035836
 20
174.6681208394
 10
265.9367152159
 20
174.6968071292
 10
265.88464231
 20
174.7226583213
 10
265.8305620196
 20
174.7456859027
 10
265.7744512328
 20
174.7656499449
 10
265.7163022454
 20
174.7824704718
 10
265.6561227616
 20
174.7962274595
 10
265.5939127813
 20
174.806920908
  0
LWPOLYLINE
  5
403
100
AcDbEntity
  8
IMPORT_IGES
100
AcDbPolyline
 62
250
  6
CONTINUOUS
 90
46
 70
0
 10
265.9374367456
 20
173.3811226595
 10
266.1510346815
 20
172.2730004647
 10
266.35507054
 20
171.1626558703
 10
266.5495281833
 20
170.0501607476
 10
266.7343963765
 20
168.9355568675
 10
266.9096535235
 20
167.8189468706
 10
267.0752703094
 20
166.7004946354
 10
267.231233028
 20
165.580272894
 10
267.3775277839
 20
164.4583554542
 10
267.5141297616
 20
163.3349087409
 10
267.641033179
 20
162.2099543437
 10
267.7582201103
 20
161.0836188629
 10
267.8656564471
 20
159.9562273876
 10
267.9633385797
 20
158.8278368167
 10
268.0512600175
 20
157.6985404852
 10
268.1293967816
 20
156.568719383
 10
268.1977504342
 20
155.4384792604
 10
268.2563260162
 20
154.3078657992
 10
268.3051182995
 20
153.177170604
 10
268.3441334314
 20
152.0465778026
 10
268.3733843929
 20
150.916054669
 10
268.392878978
 20
149.7855675766
 10
268.4026217588
 20
148.6553050177
 10
268.4026217187
 20
147.5252291616
 10
268.3928788547
 20
146.3949667587
 10
268.3733841884
 20
145.2644800948
 10
268.3441331581
 20
144.1339575526
 10
268.3051179638
 20
143.0033651737
 10
268.2563256159
 20
141.8726701557
 10
268.1977499706
 20
140.7420567182
 10
268.1293962578
 20
139.6118163877
 10
268.0512594311
 20
138.4819947821
 10
267.9633379244
 20
137.3526977342
 10
267.8656557213
 20
136.2243063731
 10
267.7582193106
 20
135.0969140397
 10
267.6410323021
 20
133.9705776476
 10
267.514128818
 20
132.8456224353
 10
267.3775267881
 20
131.7221750308
 10
267.2312319955
 20
130.6002570186
 10
267.0752692702
 20
129.4800349235
 10
266.909652511
 20
128.3615825622
 10
266.7343954289
 20
127.244972685
 10
266.549527359
 20
126.1303692828
 10
266.3550699094
 20
125.0178750437
 10
266.1510343156
 20
123.907531722
 10
265.9374367213
 20
122.7994112057
  0
LWPOLYLINE
  5
404
100
AcDbEntity
  8
IMPORT_IGES
100
AcDbPolyline
 62
250
  6
CONTINUOUS
 90
22
 70
0
 10
264.5327804099
 20
172.759837272
 10
264.9624202074
 20
170.4339668126
 10
265.3492906106
 20
168.1021959292
 10
265.6933916196
 20
165.7645246217
 10
265.9948096913
 20
163.420168545
 10
266.2534583688
 20
161.0699120442
 10
266.4690782808
 20
158.7161081552
 10
266.6416262642
 20
156.3587533114
 10
266.771145482
 20
153.9978510795
 10
266.8575060522
 20
151.635765195
 10
266.9006646809
 20
149.2724944678
 10
266.9006646621
 20
146.9080400881
 10
266.8575059956
 20
144.5447693617
 10
266.7711453877
 20
142.1826834786
 10
266.6416261321
 20
139.8217812487
 10
266.4690781111
 20
137.4644264077
 10
266.2534581616
 20
135.1106225222
 10
265.9948094465
 20
132.7603660255
 10
265.6933913373
 20
130.4160099535
 10
265.3492902911
 20
128.0783386515
 10
264.9624198506
 20
125.7465677743
 10
264.532780016
 20
123.4206973218
  0
LWPOLYLINE
  5
405
100
AcDbEntity
  8
IMPORT_IGES
100
AcDbPolyline
 62
7
  6
CONTINUOUS
 90
10
 70
0
 10
265.6018437638
 20
171.9336368342
 10
265.9782655426
 20
169.8233442845
 10
266.3196654118
 20
167.7082791115
 10
266.6260433715
 20
165.5884413153
 10
266.8974579109
 20
163.4632474251
 10
267.1338505408
 20
161.3332809118
 10
267.3350457933
 20
159.2002921872
 10
267.5009851792
 20
157.064864722
 10
267.6317271877
 20
154.9264150456
 10
267.7272718189
 20
152.784943158
  0
LINE
  5
406
100
AcDbEntity
  8
IMPORT_IGES
100
AcDbLine
 62
7
  6
CONTINUOUS
 10
283.5614459887
 20
143.0902669899
 11
283.5614459887
 21
153.0902669899
  0
LWPOLYLINE
  5
407
100
AcDbEntity
  8
IMPORT_IGES
100
AcDbPolyline
 62
7
  6
CONTINUOUS
 90
9
 70
0
 10
40.4604039453
 20
176.3103542631
 10
40.7435241212
 20
176.3881683306
 10
41.0290297587
 20
176.4621409278
 10
41.3169757566
 20
176.5322976586
 10
41.6071155153
 20
176.598478761
 10
41.8994420968
 20
176.6606771835
 10
42.1939624391
 20
176.7188999778
 10
42.4904507558
 20
176.7730085365
 10
42.7889213933
 20
176.8229991355
  0
LINE
  5
408
100
AcDbEntity
  8
IMPORT_IGES
100
AcDbLine
 62
7
  6
CONTINUOUS
 10
344.5614459887
 20
155.1395232941
 11
346.0614459887
 21
156.5439577476
  0
LINE
  5
409
100
AcDbEntity
  8
IMPORT_IGES
100
AcDbLine
 62
7
  6
CONTINUOUS
 10
361.9465146122
 20
162.5902669899
 11
370.0231355299
 21
168.5902669899
  0
LINE
  5
40A
100
AcDbEntity
  8
ASSI
100
AcDbLine
 62
7
  6
CONTINUOUS
 10
368.1221499887
 20
146.7211659899
 11
367.5168199887
 21
146.3814129899
  0
LINE
  5
40B
100
AcDbEntity
  8
ASSI
100
AcDbLine
 62
7
  6
CONTINUOUS
 10
367.5168199849
 20
149.7991209921
 11
368.1221509206
 21
149.4593674669
  0
LINE
  5
40C
100
AcDbEntity
  8
ASSI
100
AcDbLine
 62
7
  6
CONTINUOUS
 10
364.8414719887
 20
145.4173019899
 11
365.3874929887
 21
145.0321439899
  0
LINE
  5
40D
100
AcDbEntity
  8
IMPORT_IGES
100
AcDbLine
 62
7
  6
CONTINUOUS
 10
370.0231355299
 20
127.5902669899
 11
361.9465146122
 21
133.5902669899
  0
LINE
  5
40E
100
AcDbEntity
  8
IMPORT_IGES
100
AcDbLine
 62
7
  6
CONTINUOUS
 10
346.0614459887
 20
139.6365762323
 11
344.5614459887
 21
141.0410106857
  0
LINE
  5
40F
100
AcDbEntity
  8
IMPORT_IGES
100
AcDbLine
 62
7
  6
CONTINUOUS
 10
313.0614459887
 20
140.5902669899
 11
313.0614459887
 21
155.5902669899
  0
LINE
  5
410
100
AcDbEntity
  8
IMPORT_IGES
100
AcDbLine
 62
7
  6
CONTINUOUS
 10
316.0614459887
 20
141.5002669899
 11
316.0614459887
 21
146.3402669899
  0
LINE
  5
411
100
AcDbEntity
  8
IMPORT_IGES
100
AcDbLine
 62
7
  6
CONTINUOUS
 10
316.0614459887
 20
149.8402669899
 11
316.0614459887
 21
154.6802669899
  0
LINE
  5
412
100
AcDbEntity
  8
IMPORT_IGES
100
AcDbLine
 62
7
  6
CONTINUOUS
 10
318.2614459887
 20
146.3402669899
 11
318.2614459887
 21
141.5002669899
  0
LINE
  5
413
100
AcDbEntity
  8
IMPORT_IGES
100
AcDbLine
 62
7
  6
CONTINUOUS
 10
318.2614459887
 20
149.8402669899
 11
318.2614459887
 21
154.6802669899
  0
LINE
  5
414
100
AcDbEntity
  8
IMPORT_IGES
100
AcDbLine
 62
7
  6
CONTINUOUS
 10
320.7614459887
 20
141.5002669899
 11
320.7614459887
 21
146.3402669899
  0
LINE
  5
415
100
AcDbEntity
  8
IMPORT_IGES
100
AcDbLine
 62
7
  6
CONTINUOUS
 10
320.7614459887
 20
149.8402669899
 11
320.7614459887
 21
154.6802669899
  0
LINE
  5
416
100
AcDbEntity
  8
IMPORT_IGES
100
AcDbLine
 62
7
  6
CONTINUOUS
 10
322.9614459887
 20
154.6802669899
 11
322.9614459887
 21
149.8402669899
  0
LINE
  5
417
100
AcDbEntity
  8
IMPORT_IGES
100
AcDbLine
 62
7
  6
CONTINUOUS
 10
322.9614459887
 20
146.3402669899
 11
322.9614459887
 21
141.5002669899
  0
LINE
  5
418
100
AcDbEntity
  8
IMPORT_IGES
100
AcDbLine
 62
7
  6
CONTINUOUS
 10
325.4614459887
 20
141.5002669899
 11
325.4614459887
 21
146.3402669899
  0
LINE
  5
419
100
AcDbEntity
  8
IMPORT_IGES
100
AcDbLine
 62
7
  6
CONTINUOUS
 10
325.4614459887
 20
149.8402669899
 11
325.4614459887
 21
154.6802669899
  0
LINE
  5
41A
100
AcDbEntity
  8
IMPORT_IGES
100
AcDbLine
 62
7
  6
CONTINUOUS
 10
327.6614459887
 20
154.6802669899
 11
327.6614459887
 21
149.8402669899
  0
LINE
  5
41B
100
AcDbEntity
  8
IMPORT_IGES
100
AcDbLine
 62
7
  6
CONTINUOUS
 10
327.6614459887
 20
146.3402669899
 11
327.6614459887
 21
141.5002669899
  0
LINE
  5
41C
100
AcDbEntity
  8
IMPORT_IGES
100
AcDbLine
 62
7
  6
CONTINUOUS
 10
330.1614459887
 20
141.5002669899
 11
330.1614459887
 21
146.3402669899
  0
LINE
  5
41D
100
AcDbEntity
  8
IMPORT_IGES
100
AcDbLine
 62
7
  6
CONTINUOUS
 10
330.1614459887
 20
149.8402669899
 11
330.1614459887
 21
154.6802669899
  0
LINE
  5
41E
100
AcDbEntity
  8
IMPORT_IGES
100
AcDbLine
 62
7
  6
CONTINUOUS
 10
332.3614459887
 20
154.6802669899
 11
332.3614459887
 21
149.8402669899
  0
LINE
  5
41F
100
AcDbEntity
  8
IMPORT_IGES
100
AcDbLine
 62
7
  6
CONTINUOUS
 10
332.3614459887
 20
146.3402669899
 11
332.3614459887
 21
141.5002669899
  0
LINE
  5
420
100
AcDbEntity
  8
IMPORT_IGES
100
AcDbLine
 62
7
  6
CONTINUOUS
 10
334.8614459887
 20
141.5002669899
 11
334.8614459887
 21
146.3402669899
  0
LINE
  5
421
100
AcDbEntity
  8
IMPORT_IGES
100
AcDbLine
 62
7
  6
CONTINUOUS
 10
334.8614459887
 20
149.8402669899
 11
334.8614459887
 21
154.6802669899
  0
LINE
  5
422
100
AcDbEntity
  8
IMPORT_IGES
100
AcDbLine
 62
7
  6
CONTINUOUS
 10
337.0614459887
 20
154.6802669899
 11
337.0614459887
 21
149.8402669899
  0
LINE
  5
423
100
AcDbEntity
  8
IMPORT_IGES
100
AcDbLine
 62
7
  6
CONTINUOUS
 10
337.0614459887
 20
146.3402669899
 11
337.0614459887
 21
141.5002669899
  0
LINE
  5
424
100
AcDbEntity
  8
IMPORT_IGES
100
AcDbLine
 62
7
  6
CONTINUOUS
 10
339.0614459887
 20
156.5902669899
 11
339.0614459887
 21
139.5902669899
  0
LINE
  5
425
100
AcDbEntity
  8
ASSI
100
AcDbLine
 62
7
  6
CONTINUOUS
 10
372.0426549887
 20
150.4631589899
 11
370.3701869887
 21
148.4785199899
  0
LINE
  5
426
100
AcDbEntity
  8
ASSI
100
AcDbLine
 62
7
  6
CONTINUOUS
 10
371.2848739887
 20
148.4785199899
 11
373.0345379887
 21
150.5547639899
  0
LINE
  5
427
100
AcDbEntity
  8
ASSI
100
AcDbLine
 62
7
  6
CONTINUOUS
 10
370.3784409887
 20
147.6922189899
 11
372.0426556918
 21
145.7173741556
  0
LINE
  5
428
100
AcDbEntity
  8
ASSI
100
AcDbLine
 62
7
  6
CONTINUOUS
 10
373.0300617438
 20
145.6212862806
 11
371.2848739887
 21
147.6922189899
  0
LINE
  5
429
100
AcDbEntity
  8
IMPORT_IGES
100
AcDbLine
 62
7
  6
CONTINUOUS
 10
344.5614459887
 20
141.0410106857
 11
344.5614459887
 21
155.1395232941
  0
LINE
  5
42A
100
AcDbEntity
  8
IMPORT_IGES
100
AcDbLine
 62
7
  6
CONTINUOUS
 10
346.0614459887
 20
156.5439577476
 11
346.0614459887
 21
139.6365762323
  0
LINE
  5
42B
100
AcDbEntity
  8
IMPORT_IGES
100
AcDbLine
 62
7
  6
CONTINUOUS
 10
359.5614459887
 20
133.8508619466
 11
359.5614459887
 21
162.3296720333
  0
LINE
  5
42C
100
AcDbEntity
  8
IMPORT_IGES
100
AcDbLine
 62
7
  6
CONTINUOUS
 10
361.0614459887
 20
133.9695821143
 11
361.0614459887
 21
162.2109518656
  0
LINE
  5
42D
100
AcDbEntity
  8
ASSI
100
AcDbLine
 62
7
  6
CONTINUOUS
 10
367.1848959887
 20
149.1326289899
 11
367.1848959887
 21
147.0383649899
  0
LINE
  5
42E
100
AcDbEntity
  8
ASSI
100
AcDbLine
 62
7
  6
CONTINUOUS
 10
367.9229879887
 20
147.0383649899
 11
367.9229879887
 21
147.6922189899
  0
LINE
  5
42F
100
AcDbEntity
  8
ASSI
100
AcDbLine
 62
7
  6
CONTINUOUS
 10
367.9229879887
 20
148.4785199899
 11
367.9229879887
 21
149.1326289899
  0
LINE
  5
430
100
AcDbEntity
  8
ASSI
100
AcDbLine
 62
7
  6
CONTINUOUS
 10
373.1667679887
 20
149.1085249899
 11
373.1667679887
 21
148.4785199899
  0
LINE
  5
431
100
AcDbEntity
  8
ASSI
100
AcDbLine
 62
7
  6
CONTINUOUS
 10
373.1667679887
 20
147.6922189899
 11
373.1667679887
 21
147.0624689899
  0
LINE
  5
432
100
AcDbEntity
  8
ASSI
100
AcDbLine
 62
7
  6
CONTINUOUS
 10
373.9089199887
 20
147.0624689899
 11
373.9089199887
 21
149.1085249899
  0
LINE
  5
433
100
AcDbEntity
  8
IMPORT_IGES
100
AcDbLine
 62
7
  6
CONTINUOUS
 10
379.0614459887
 20
127.5902669899
 11
379.0614459887
 21
168.5902669899
  0
LINE
  5
434
100
AcDbEntity
  8
IMPORT_IGES
100
AcDbLine
 62
7
  6
CONTINUOUS
 10
379.2614459887
 20
138.1709121116
 11
379.2614459887
 21
140.5902669899
  0
LINE
  5
435
100
AcDbEntity
  8
IMPORT_IGES
100
AcDbLine
 62
7
  6
CONTINUOUS
 10
379.2614459887
 20
141.1864465051
 11
379.2614459887
 21
143.4732824139
  0
LINE
  5
436
100
AcDbEntity
  8
IMPORT_IGES
100
AcDbLine
 62
7
  6
CONTINUOUS
 10
379.2614459887
 20
143.6557513051
 11
379.2614459887
 21
145.2860372834
  0
LINE
  5
437
100
AcDbEntity
  8
IMPORT_IGES
100
AcDbLine
 62
7
  6
CONTINUOUS
 10
379.2614459887
 20
145.570825892
 11
379.2614459887
 21
147.2283976846
  0
LINE
  5
438
100
AcDbEntity
  8
IMPORT_IGES
100
AcDbLine
 62
7
  6
CONTINUOUS
 10
379.2614459887
 20
147.5575249963
 11
379.2614459887
 21
149.2099803262
  0
LINE
  5
439
100
AcDbEntity
  8
IMPORT_IGES
100
AcDbLine
 62
7
  6
CONTINUOUS
 10
379.2614459887
 20
151.2512492709
 11
379.2614459887
 21
153.5909491353
  0
LINE
  5
43A
100
AcDbEntity
  8
IMPORT_IGES
100
AcDbLine
 62
7
  6
CONTINUOUS
 10
379.2614459887
 20
153.7461334042
 11
379.2614459887
 21
155.3968835943
  0
LINE
  5
43B
100
AcDbEntity
  8
IMPORT_IGES
100
AcDbLine
 62
7
  6
CONTINUOUS
 10
379.2614459887
 20
156.1693939142
 11
379.2614459887
 21
157.090266975
  0
LINE
  5
43C
100
AcDbEntity
  8
IMPORT_IGES
100
AcDbLine
 62
7
  6
CONTINUOUS
 10
389.4685527699
 20
132.6902669941
 11
389.4685527699
 21
137.4902669858
  0
LINE
  5
43D
100
AcDbEntity
  8
IMPORT_IGES
100
AcDbLine
 62
7
  6
CONTINUOUS
 10
389.4685527699
 20
158.6902669941
 11
389.4685527699
 21
163.4902669858
  0
LINE
  5
43E
100
AcDbEntity
  8
IMPORT_IGES
100
AcDbLine
 62
250
  6
CONTINUOUS
 10
389.7685527699
 20
132.59026699
 11
389.7685527699
 21
137.5902669898
  0
LINE
  5
43F
100
AcDbEntity
  8
IMPORT_IGES
100
AcDbLine
 62
250
  6
CONTINUOUS
 10
389.7685527699
 20
158.59026699
 11
389.7685527699
 21
163.5902669898
  0
LINE
  5
440
100
AcDbEntity
  8
IMPORT_IGES
100
AcDbLine
 62
250
  6
CONTINUOUS
 10
395.5614459887
 20
132.59026699
 11
395.5614459887
 21
137.5902669898
  0
LINE
  5
441
100
AcDbEntity
  8
IMPORT_IGES
100
AcDbLine
 62
250
  6
CONTINUOUS
 10
395.5614459887
 20
158.59026699
 11
395.5614459887
 21
163.5902669898
  0
LINE
  5
442
100
AcDbEntity
  8
IMPORT_IGES
100
AcDbLine
 62
250
  6
CONTINUOUS
 10
396.0614459887
 20
145.5902669899
 11
396.0614459887
 21
150.5902669899
  0
CIRCLE
  5
443
100
AcDbEntity
  8
IMPORT_IGES
100
AcDbCircle
 62
250
  6
CONTINUOUS
 10
45.6682563784
 20
127.5902670065
 40
3.3999784094
  0
CIRCLE
  5
444
100
AcDbEntity
  8
IMPORT_IGES
100
AcDbCircle
 62
250
  6
CONTINUOUS
 10
127.6683667278
 20
127.5902669917
 40
3.3999784094
  0
CIRCLE
  5
445
100
AcDbEntity
  8
IMPORT_IGES
100
AcDbCircle
 62
7
  6
CONTINUOUS
 10
45.6682563784
 20
127.5902670065
 40
2.9
  0
CIRCLE
  5
446
100
AcDbEntity
  8
IMPORT_IGES
100
AcDbCircle
 62
7
  6
CONTINUOUS
 10
127.6683667278
 20
127.5902669917
 40
2.9
  0
CIRCLE
  5
447
100
AcDbEntity
  8
IMPORT_IGES
100
AcDbCircle
 62
7
  6
CONTINUOUS
 10
45.6682563784
 20
127.5902670065
 40
2.4999993374
  0
CIRCLE
  5
448
100
AcDbEntity
  8
IMPORT_IGES
100
AcDbCircle
 62
7
  6
CONTINUOUS
 10
127.6683667278
 20
127.5902669917
 40
2.4999993374
  0
ARC
  5
449
100
AcDbEntity
  8
IMPORT_IGES
100
AcDbCircle
 62
250
  6
CONTINUOUS
 10
45.6682563784
 20
127.5902670065
 40
2.2222222222
100
AcDbArc
 50
284.1813512976
 51
75.8186487024
  0
ARC
  5
44A
100
AcDbEntity
  8
IMPORT_IGES
100
AcDbCircle
 62
250
  6
CONTINUOUS
 10
127.6683667278
 20
127.5902669917
 40
2.2222222222
100
AcDbArc
 50
284.1813512976
 51
75.8186487024
  0
ARC
  5
44B
100
AcDbEntity
  8
IMPORT_IGES
100
AcDbCircle
 62
250
  6
CONTINUOUS
 10
45.6682563784
 20
127.5902670065
 40
2.222209717
100
AcDbArc
 50
104.1819873104
 51
255.8180126897
  0
ARC
  5
44C
100
AcDbEntity
  8
IMPORT_IGES
100
AcDbCircle
 62
250
  6
CONTINUOUS
 10
127.6683667278
 20
127.5902669917
 40
2.222209717
100
AcDbArc
 50
104.1819873104
 51
255.8180126897
  0
ARC
  5
44D
100
AcDbEntity
  8
IMPORT_IGES
100
AcDbCircle
 62
7
  6
CONTINUOUS
 10
56.8367346164
 20
138.4793256006
 40
0.6256461979
100
AcDbArc
 50
89.9952981585
 51
96.7904741315
  0
ARC
  5
44E
100
AcDbEntity
  8
IMPORT_IGES
100
AcDbCircle
 62
7
  6
CONTINUOUS
 10
56.8367861927
 20
138.4884363773
 40
0.6164857967
100
AcDbArc
 50
117.8572889387
 51
263.8694806331
  0
ARC
  5
44F
100
AcDbEntity
  8
IMPORT_IGES
100
AcDbCircle
 62
7
  6
CONTINUOUS
 10
61.7949280133
 20
137.8545442061
 40
0.2854448654
100
AcDbArc
 50
157.1864726368
 51
51.8909076968
  0
CIRCLE
  5
450
100
AcDbEntity
  8
IMPORT_IGES
100
AcDbCircle
 62
250
  6
CONTINUOUS
 10
169.6683667278
 20
127.5902669917
 40
3.3999784094
  0
CIRCLE
  5
451
100
AcDbEntity
  8
IMPORT_IGES
100
AcDbCircle
 62
7
  6
CONTINUOUS
 10
169.6683667278
 20
127.5902669917
 40
2.9
  0
CIRCLE
  5
452
100
AcDbEntity
  8
IMPORT_IGES
100
AcDbCircle
 62
7
  6
CONTINUOUS
 10
169.6683667278
 20
127.5902669917
 40
2.4999993374
  0
ARC
  5
453
100
AcDbEntity
  8
IMPORT_IGES
100
AcDbCircle
 62
250
  6
CONTINUOUS
 10
169.6683667278
 20
127.5902669917
 40
2.2222222222
100
AcDbArc
 50
284.1813512976
 51
75.8186487024
  0
ARC
  5
454
100
AcDbEntity
  8
IMPORT_IGES
100
AcDbCircle
 62
250
  6
CONTINUOUS
 10
169.6683667278
 20
127.5902669917
 40
2.222209717
100
AcDbArc
 50
104.1819873104
 51
255.8180126897
  0
ARC
  5
455
100
AcDbEntity
  8
IMPORT_IGES
100
AcDbCircle
 62
7
  6
CONTINUOUS
 10
215.6095476232
 20
128.0767035481
 40
0.3
100
AcDbArc
 50
180.0000000016
 51
269.9999999985
  0
ARC
  5
456
100
AcDbEntity
  8
IMPORT_IGES
100
AcDbCircle
 62
7
  6
CONTINUOUS
 10
55.7703188383
 20
154.4404010073
 40
3.0600000423
100
AcDbArc
 50
354.2608296024
 51
185.7391703248
  0
ARC
  5
457
100
AcDbEntity
  8
IMPORT_IGES
100
AcDbCircle
 62
7
  6
CONTINUOUS
 10
55.7703188383
 20
159.6424010073
 40
3.0600000423
100
AcDbArc
 50
354.2608296024
 51
185.7391703976
  0
ARC
  5
458
100
AcDbEntity
  8
IMPORT_IGES
100
AcDbCircle
 62
7
  6
CONTINUOUS
 10
55.7703188383
 20
154.4404010073
 40
2.1420002094
100
AcDbArc
 50
351.7867901072
 51
77.62637595
  0
ARC
  5
459
100
AcDbEntity
  8
IMPORT_IGES
100
AcDbCircle
 62
7
  6
CONTINUOUS
 10
55.7703188383
 20
159.6424010073
 40
2.1420002094
100
AcDbArc
 50
351.7867901068
 51
188.2132098932
  0
ARC
  5
45A
100
AcDbEntity
  8
IMPORT_IGES
100
AcDbCircle
 62
7
  6
CONTINUOUS
 10
55.7703188383
 20
154.4404010073
 40
2.141999675
100
AcDbArc
 50
102.3736270233
 51
188.2132118495
  0
CIRCLE
  5
45B
100
AcDbEntity
  8
IMPORT_IGES
100
AcDbCircle
 62
250
  6
CONTINUOUS
 10
45.6682563784
 20
168.5902669769
 40
3.3999784094
  0
CIRCLE
  5
45C
100
AcDbEntity
  8
IMPORT_IGES
100
AcDbCircle
 62
250
  6
CONTINUOUS
 10
127.6683667167
 20
168.5902669769
 40
3.3999784094
  0
CIRCLE
  5
45D
100
AcDbEntity
  8
IMPORT_IGES
100
AcDbCircle
 62
7
  6
CONTINUOUS
 10
127.6683667167
 20
168.5902669769
 40
2.9
  0
CIRCLE
  5
45E
100
AcDbEntity
  8
IMPORT_IGES
100
AcDbCircle
 62
7
  6
CONTINUOUS
 10
45.6682563784
 20
168.5902669769
 40
2.9
  0
CIRCLE
  5
45F
100
AcDbEntity
  8
IMPORT_IGES
100
AcDbCircle
 62
7
  6
CONTINUOUS
 10
45.6682563784
 20
168.5902669769
 40
2.4999993374
  0
CIRCLE
  5
460
100
AcDbEntity
  8
IMPORT_IGES
100
AcDbCircle
 62
7
  6
CONTINUOUS
 10
127.6683667167
 20
168.5902669769
 40
2.4999993374
  0
ARC
  5
461
100
AcDbEntity
  8
IMPORT_IGES
100
AcDbCircle
 62
250
  6
CONTINUOUS
 10
45.6682563784
 20
168.5902669769
 40
2.2222222222
100
AcDbArc
 50
284.1813512976
 51
75.8186487024
  0
ARC
  5
462
100
AcDbEntity
  8
IMPORT_IGES
100
AcDbCircle
 62
250
  6
CONTINUOUS
 10
127.6683667167
 20
168.5902669769
 40
2.2222222222
100
AcDbArc
 50
284.1813512976
 51
75.8186487024
  0
ARC
  5
463
100
AcDbEntity
  8
IMPORT_IGES
100
AcDbCircle
 62
250
  6
CONTINUOUS
 10
45.6682563784
 20
168.5902669769
 40
2.222209717
100
AcDbArc
 50
104.1819873104
 51
255.8180126897
  0
ARC
  5
464
100
AcDbEntity
  8
IMPORT_IGES
100
AcDbCircle
 62
250
  6
CONTINUOUS
 10
127.6683667167
 20
168.5902669769
 40
2.222209717
100
AcDbArc
 50
104.1819873104
 51
255.8180126897
  0
CIRCLE
  5
465
100
AcDbEntity
  8
IMPORT_IGES
100
AcDbCircle
 62
250
  6
CONTINUOUS
 10
169.6683667167
 20
168.5902669769
 40
3.3999784094
  0
CIRCLE
  5
466
100
AcDbEntity
  8
IMPORT_IGES
100
AcDbCircle
 62
7
  6
CONTINUOUS
 10
169.6683667167
 20
168.5902669769
 40
2.9
  0
CIRCLE
  5
467
100
AcDbEntity
  8
IMPORT_IGES
100
AcDbCircle
 62
7
  6
CONTINUOUS
 10
169.6683667167
 20
168.5902669769
 40
2.4999993374
  0
ARC
  5
468
100
AcDbEntity
  8
IMPORT_IGES
100
AcDbCircle
 62
250
  6
CONTINUOUS
 10
169.6683667167
 20
168.5902669769
 40
2.2222222222
100
AcDbArc
 50
284.1813512976
 51
75.8186487024
  0
ARC
  5
469
100
AcDbEntity
  8
IMPORT_IGES
100
AcDbCircle
 62
250
  6
CONTINUOUS
 10
169.6683667167
 20
168.5902669769
 40
2.222209717
100
AcDbArc
 50
104.1819873104
 51
255.8180126897
  0
ARC
  5
46A
100
AcDbEntity
  8
IMPORT_IGES
100
AcDbCircle
 62
7
  6
CONTINUOUS
 10
215.6095476232
 20
168.476703548
 40
0.3
100
AcDbArc
 50
89.9999999989
 51
180.0000000011
  0
ARC
  5
46B
100
AcDbEntity
  8
ASSI
100
AcDbCircle
 62
7
  6
CONTINUOUS
 10
362.4709349887
 20
147.9047589899
 40
4.0936814123
100
AcDbArc
 50
315.4348980565
 51
337.5658614806
  0
CIRCLE
  5
46C
100
AcDbEntity
  8
IMPORT_IGES
100
AcDbCircle
 62
250
  6
CONTINUOUS
 10
254.6684770549
 20
127.5902670065
 40
3.3999784094
  0
CIRCLE
  5
46D
100
AcDbEntity
  8
IMPORT_IGES
100
AcDbCircle
 62
7
  6
CONTINUOUS
 10
254.6684770549
 20
127.5902670065
 40
2.9
  0
ARC
  5
46E
100
AcDbEntity
  8
IMPORT_IGES
100
AcDbCircle
 62
7
  6
CONTINUOUS
 10
395.5614459887
 20
135.0902669899
 40
2.5
100
AcDbArc
 50
270.0001903095
 51
89.9999999998
  0
CIRCLE
  5
46F
100
AcDbEntity
  8
IMPORT_IGES
100
AcDbCircle
 62
7
  6
CONTINUOUS
 10
254.6684770549
 20
127.5902670065
 40
2.4999993374
  0
ARC
  5
470
100
AcDbEntity
  8
IMPORT_IGES
100
AcDbCircle
 62
250
  6
CONTINUOUS
 10
254.6684770549
 20
127.5902670065
 40
2.2222222222
100
AcDbArc
 50
284.1813512976
 51
75.8186487024
  0
ARC
  5
471
100
AcDbEntity
  8
IMPORT_IGES
100
AcDbCircle
 62
250
  6
CONTINUOUS
 10
254.6684770549
 20
127.5902670065
 40
2.222209717
100
AcDbArc
 50
104.1819873104
 51
255.8180126897
  0
ARC
  5
472
100
AcDbEntity
  8
IMPORT_IGES
100
AcDbCircle
 62
7
  6
CONTINUOUS
 10
389.7685527699
 20
137.0902669899
 40
0.5
100
AcDbArc
 50
90.0006776766
 51
126.8698976447
  0
ARC
  5
473
100
AcDbEntity
  8
IMPORT_IGES
100
AcDbCircle
 62
7
  6
CONTINUOUS
 10
389.7685527699
 20
133.0902669899
 40
0.5
100
AcDbArc
 50
233.1301023546
 51
269.9999999992
  0
ARC
  5
474
100
AcDbEntity
  8
IMPORT_IGES
100
AcDbCircle
 62
7
  6
CONTINUOUS
 10
241.0095476232
 20
128.0767035481
 40
0.3
100
AcDbArc
 50
270.0000000015
 51
359.9999999984
  0
CIRCLE
  5
475
100
AcDbEntity
  8
IMPORT_IGES
100
AcDbCircle
 62
7
  6
CONTINUOUS
 10
370.0614459887
 20
148.0902669899
 40
6.0
  0
ARC
  5
476
100
AcDbEntity
  8
ASSI
100
AcDbCircle
 62
7
  6
CONTINUOUS
 10
370.5614459887
 20
148.0902669899
 40
4.6477727604
100
AcDbArc
 50
202.0885400607
 51
183.4298334223
  0
ARC
  5
477
100
AcDbEntity
  8
ASSI
100
AcDbCircle
 62
7
  6
CONTINUOUS
 10
361.7997959887
 20
148.2308429899
 40
4.143405103
100
AcDbArc
 50
317.2312690148
 51
354.2011523126
  0
CIRCLE
  5
478
100
AcDbEntity
  8
ASSI
100
AcDbCircle
 62
7
  6
CONTINUOUS
 10
370.5614459887
 20
148.0902669899
 40
3.903804
  0
ARC
  5
479
100
AcDbEntity
  8
ASSI
100
AcDbCircle
 62
7
  6
CONTINUOUS
 10
370.5614459887
 20
148.0902669899
 40
3.4914079543
100
AcDbArc
 50
44.9002637264
 51
150.6958558882
  0
ARC
  5
47A
100
AcDbEntity
  8
ASSI
100
AcDbCircle
 62
7
  6
CONTINUOUS
 10
370.5614459887
 20
148.0902669899
 40
3.49140795
100
AcDbArc
 50
209.3041441118
 51
314.9957650772
  0
CIRCLE
  5
47B
100
AcDbEntity
  8
IMPORT_IGES
100
AcDbCircle
 62
250
  6
CONTINUOUS
 10
254.6684770549
 20
168.5902669769
 40
3.3999784094
  0
CIRCLE
  5
47C
100
AcDbEntity
  8
IMPORT_IGES
100
AcDbCircle
 62
7
  6
CONTINUOUS
 10
254.6684770549
 20
168.5902669769
 40
2.9
  0
ARC
  5
47D
100
AcDbEntity
  8
ASSI
100
AcDbCircle
 62
7
  6
CONTINUOUS
 10
370.5614459887
 20
148.0902669899
 40
2.7972490994
100
AcDbArc
 50
209.3041427885
 51
301.973278903
  0
ARC
  5
47E
100
AcDbEntity
  8
ASSI
100
AcDbCircle
 62
7
  6
CONTINUOUS
 10
370.5614459887
 20
148.0902669899
 40
2.7972480307
100
AcDbArc
 50
58.0267242642
 51
150.6958572115
  0
ARC
  5
47F
100
AcDbEntity
  8
IMPORT_IGES
100
AcDbCircle
 62
7
  6
CONTINUOUS
 10
395.5614459887
 20
161.0902669899
 40
2.5
100
AcDbArc
 50
270.0001903095
 51
89.9999999998
  0
ARC
  5
480
100
AcDbEntity
  8
IMPORT_IGES
100
AcDbCircle
 62
7
  6
CONTINUOUS
 10
396.0614459887
 20
148.0902669899
 40
2.5
100
AcDbArc
 50
270.0
 51
90.0
  0
CIRCLE
  5
481
100
AcDbEntity
  8
IMPORT_IGES
100
AcDbCircle
 62
7
  6
CONTINUOUS
 10
254.6684770549
 20
168.5902669769
 40
2.4999993374
  0
ARC
  5
482
100
AcDbEntity
  8
IMPORT_IGES
100
AcDbCircle
 62
250
  6
CONTINUOUS
 10
254.6684770549
 20
168.5902669769
 40
2.2222222222
100
AcDbArc
 50
284.1813512976
 51
75.8186487024
  0
ARC
  5
483
100
AcDbEntity
  8
IMPORT_IGES
100
AcDbCircle
 62
250
  6
CONTINUOUS
 10
254.6684770549
 20
168.5902669769
 40
2.222209717
100
AcDbArc
 50
104.1819873104
 51
255.8180126897
  0
ARC
  5
484
100
AcDbEntity
  8
IMPORT_IGES
100
AcDbCircle
 62
7
  6
CONTINUOUS
 10
389.7685527699
 20
163.0902669899
 40
0.5
100
AcDbArc
 50
90.0006776766
 51
126.8698976447
  0
ARC
  5
485
100
AcDbEntity
  8
IMPORT_IGES
100
AcDbCircle
 62
7
  6
CONTINUOUS
 10
389.7685527699
 20
159.0902669899
 40
0.5
100
AcDbArc
 50
233.1301023547
 51
269.9999999992
  0
ARC
  5
486
100
AcDbEntity
  8
IMPORT_IGES
100
AcDbCircle
 62
7
  6
CONTINUOUS
 10
241.0095476232
 20
168.476703548
 40
0.3
100
AcDbArc
 50
0.0
 51
90.0000000011
  0
ENDSEC
  0
SECTION
  2
OBJECTS
  0
DICTIONARY
  5
C
100
AcDbDictionary
280
0
281
1
  3
ACAD_GROUP
350
D
  3
ACAD_MLINESTYLE
350
17
  3
ACAD_LAYOUT
350
1A
  3
ACAD_PLOTSETTINGS
350
19
  3
ACAD_PLOTSTYLENAME
350
E
  0
DICTIONARY
  5
D
102
{ACAD_REACTORS
330
C
102
}
100
AcDbDictionary
280
0
281
1
  0
ACDBDICTIONARYWDFLT
  5
E
102
{ACAD_REACTORS
330
C
102
}
100
AcDbDictionary
281
1
  3
Normal
350
F
100
AcDbDictionaryWithDefault
340
F
  0
DICTIONARY
  5
17
102
{ACAD_REACTORS
330
C
102
}
100
AcDbDictionary
280
0
281
1
  3
Standard
350
18
  0
DICTIONARY
  5
19
102
{ACAD_REACTORS
330
C
102
}
100
AcDbDictionary
281
1
  0
DICTIONARY
  5
1A
102
{ACAD_REACTORS
330
C
102
}
100
AcDbDictionary
281
1
  3
Model
350
487
  3
Layout1
350
488
  0
ACDBPLACEHOLDER
  5
F
102
{ACAD_REACTORS
330
E
102
}
  0
MLINESTYLE
  5
18
102
{ACAD_REACTORS
330
17
102
}
100
AcDbMlineStyle
  2
STANDARD
 70
0
  3

 62
256
 51
90.0
 52
90.0
 71
2
 49
0.5
 62
256
  6
BYLAYER
 49
-0.5
 62
256
  6
BYLAYER
  0
LAYOUT
  5
487
102
{ACAD_REACTORS
330
1A
102
}
100
AcDbPlotSettings
  1

  2
none_device
  4
ISO_A3_(420.00_x_297.00_MM)
  6

 40
0.0
 41
0.0
 42
0.0
 43
0.0
 44
420.0
 45
297.0
 46
0.0
 47
0.0
 48
0.0
 49
0.0
140
0.0
141
0.0
142
1.0
143
1.0
 70
1024
 72
1
 73
0
 74
0
  7

 75
0
147
1.0
148
0.0
149
0.0
100
AcDbLayout
  1
Model
 70
0
 71
0
 10
0.0
 20
0.0
 11
420.0
 21
297.0
 12
0.0
 22
0.0
 32
0.0
 14
0.0
 24
0.0
 34
0.0
 15
0.0
 25
0.0
 35
0.0
146
0.0
 13
0.0
 23
0.0
 33
0.0
 16
1.0
 26
0.0
 36
0.0
 17
0.0
 27
1.0
 37
0.0
 76
0
330
242
345
0
346
0
  0
LAYOUT
  5
488
102
{ACAD_REACTORS
330
1A
102
}
100
AcDbPlotSettings
  1

  2
none_device
  4
ISO_A3_(420.00_x_297.00_MM)
  6

 40
0.0
 41
0.0
 42
0.0
 43
0.0
 44
420.0
 45
297.0
 46
0.0
 47
0.0
 48
0.0
 49
0.0
140
0.0
141
0.0
142
1.0
143
1.0
 70
0
 72
1
 73
0
 74
0
  7

 75
0
147
1.0
148
0.0
149
0.0
100
AcDbLayout
  1
Layout1
 70
0
 71
1
 10
0.0
 20
0.0
 11
420.0
 21
297.0
 12
0.0
 22
0.0
 32
0.0
 14
0.0
 24
0.0
 34
0.0
 15
0.0
 25
0.0
 35
0.0
146
0.0
 13
0.0
 23
0.0
 33
0.0
 16
1.0
 26
0.0
 36
0.0
 17
0.0
 27
1.0
 37
0.0
 76
0
330
243
345
0
346
0
  0
ENDSEC
  0
EOF
