  0
SECTION
  2
HEADER
  9
$ACADVER
  1
AC1015
  9
$DWGCODEPAGE
  3
ANSI_1252
  9
$EXTMAX
 10
297.0
 20
210.0
 30
0.0
  9
$EXTMIN
 10
0.0
 20
0.0
 30
0.0
  9
$LIMMIN
 10
0.0
 20
0.0
  9
$LIMMAX
 10
297.0
 20
210.0
  9
$VIEWCTR
 10
148.5
 20
105.0
  9
$VIEWSIZE
 40
210.0
  9
$CLAYER
  8
0
  9
$LTSCALE
 40
16.335
  9
$CELTYPE
  6
BYLAYER
  9
$DIMSCALE
 40
1.0
  9
$DIMASZ
 40
3.0
  9
$DIMEXO
 40
1.85625
  9
$DIMDLI
 40
11.286
  9
$DIMEXE
 40
5.346
  9
$DIMCEN
 40
2.673
  9
$DIMLFAC
 40
1.0
  9
$DIMBLK
  1
_FILLED
  9
$DIMTXT
 40
3.0
  9
$DIMTOL
 70
1
  9
$DIMLIM
 70
0
  9
$DIMTFAC
 40
1.0
  9
$DIMTP
 40
0.01
  9
$DIMTM
 40
0.01
  9
$PDMODE
 70
3
  9
$PDSIZE
 40
3.0
  9
$HANDSEED
  5
3BA
  9
$TILEMODE
 70
1
  9
$MEASUREMENT
 70
1
  9
$INSUNITS
 70
4
  0
ENDSEC
  0
SECTION
  2
CLASSES
  0
CLASS
  1
ACDBDICTIONARYWDFLT
  2
AcDbDictionaryWithDefault
  3
AutoCAD 2000
 90
0
280
0
281
0
  0
CLASS
  1
ACDBPLACEHOLDER
  2
AcDbPlaceHolder
  3
AutoCAD 2000
 90
0
280
0
281
0
  0
CLASS
  1
LAYOUT
  2
AcDbLayout
  3
AutoCAD 2000
 90
0
280
0
281
0
  0
ENDSEC
  0
SECTION
  2
TABLES
  0
TABLE
  2
VPORT
  5
8
100
AcDbSymbolTable
 70
2
  0
VPORT
  5
1F4
100
AcDbSymbolTableRecord
100
AcDbViewportTableRecord
  2
*ACTIVE
 70
0
 10
0.0
 20
0.0
 11
1.0
 21
1.0
 12
148.5
 22
105.0
 13
0.0
 23
0.0
 14
1.0
 24
1.0
 15
0.0
 25
0.0
 16
0.0
 26
0.0
 36
1.0
 17
0.0
 27
0.0
 37
0.0
 40
210.0
 41
1.4142857143
 42
50.0
 43
0.0
 44
0.0
 50
0.0
 51
0.0
 71
0
 72
100
 73
1
 74
1
 75
0
 76
0
 77
0
 78
0
  0
ENDTAB
  0
TABLE
  2
LTYPE
  5
5
100
AcDbSymbolTable
 70
6
  0
LTYPE
  5
14
100
AcDbSymbolTableRecord
100
AcDbLinetypeTableRecord
  2
BYBLOCK
 70
0
  3

 72
65
 73
0
 40
0.0
  0
LTYPE
  5
15
100
AcDbSymbolTableRecord
100
AcDbLinetypeTableRecord
  2
BYLAYER
 70
0
  3

 72
65
 73
0
 40
0.0
  0
LTYPE
  5
16
100
AcDbSymbolTableRecord
100
AcDbLinetypeTableRecord
  2
CONTINUOUS
 70
64
  3
Solid line
 72
65
 73
0
 40
0.0
  0
LTYPE
  5
1F5
100
AcDbSymbolTableRecord
100
AcDbLinetypeTableRecord
  2
CENTER
 70
64
  3
____ _ ____ _ ____ _ ____ _ ____ _ ____ _ ____
 72
65
 73
4
 40
0.6
 49
0.375
 74
0
 49
-0.075
 74
0
 49
0.075
 74
0
 49
-0.075
 74
0
  0
LTYPE
  5
1F6
100
AcDbSymbolTableRecord
100
AcDbLinetypeTableRecord
  2
HIDDEN
 70
64
  3
- - - - - - - - - - - - - - - - - - - -
 72
65
 73
2
 40
0.2
 49
0.1
 74
0
 49
-0.1
 74
0
  0
LTYPE
  5
1F7
100
AcDbSymbolTableRecord
100
AcDbLinetypeTableRecord
  2
PHANTOM
 70
64
  3
_____ _ _ _____ _ _ _____ _ _ _____
 72
65
 73
6
 40
0.8
 49
0.45
 74
0
 49
-0.05
 74
0
 49
0.1
 74
0
 49
-0.05
 74
0
 49
0.1
 74
0
 49
-0.05
 74
0
  0
LTYPE
  5
1F8
100
AcDbSymbolTableRecord
100
AcDbLinetypeTableRecord
  2
DOT
 70
64
  3
. . . . . . . . . . . . . . . . . . . .
 72
65
 73
2
 40
0.2
 49
0.1
 74
0
 49
-0.1
 74
0
  0
LTYPE
  5
1F9
100
AcDbSymbolTableRecord
100
AcDbLinetypeTableRecord
  2
DASHED
 70
64
  3
- - - - - - - - - - - - - - - - - - - -
 72
65
 73
2
 40
0.2
 49
0.1
 74
0
 49
-0.1
 74
0
  0
ENDTAB
  0
TABLE
  2
LAYER
  5
2
100
AcDbSymbolTable
 70
36
  0
LAYER
  5
10
100
AcDbSymbolTableRecord
100
AcDbLayerTableRecord
  2
0
 70
0
 62
7
  6
CONTINUOUS
370
-3
390
F
  0
LAYER
  5
1FA
100
AcDbSymbolTableRecord
100
AcDbLayerTableRecord
  2
DEFAULT_1
 70
0
 62
7
  6
CENTER
370
-3
390
F
  0
LAYER
  5
1FB
100
AcDbSymbolTableRecord
100
AcDbLayerTableRecord
  2
DEFAULT_2
 70
0
 62
7
  6
HIDDEN
370
-3
390
F
  0
LAYER
  5
1FC
100
AcDbSymbolTableRecord
100
AcDbLayerTableRecord
  2
DEFAULT_3
 70
0
 62
7
  6
PHANTOM
370
-3
390
F
  0
LAYER
  5
1FD
100
AcDbSymbolTableRecord
100
AcDbLayerTableRecord
  2
ASSI
 70
0
 62
7
  6
CONTINUOUS
370
-3
390
F
  0
LAYER
  5
1FE
100
AcDbSymbolTableRecord
100
AcDbLayerTableRecord
  2
COLOR5
 70
0
 62
7
  6
CONTINUOUS
370
-3
390
F
  0
LAYER
  5
1FF
100
AcDbSymbolTableRecord
100
AcDbLayerTableRecord
  2
COORDINATE
 70
0
 62
7
  6
CONTINUOUS
370
-3
390
F
  0
LAYER
  5
200
100
AcDbSymbolTableRecord
100
AcDbLayerTableRecord
  2
COORD_ORIGINE
 70
0
 62
7
  6
CONTINUOUS
370
-3
390
F
  0
LAYER
  5
201
100
AcDbSymbolTableRecord
100
AcDbLayerTableRecord
  2
COPY_PUBLISH
 70
0
 62
7
  6
CONTINUOUS
370
-3
390
F
  0
LAYER
  5
202
100
AcDbSymbolTableRecord
100
AcDbLayerTableRecord
  2
COSMETIC
 70
0
 62
7
  6
CONTINUOUS
370
-3
390
F
  0
LAYER
  5
203
100
AcDbSymbolTableRecord
100
AcDbLayerTableRecord
  2
CURVE
 70
0
 62
7
  6
CONTINUOUS
370
-3
390
F
  0
LAYER
  5
204
100
AcDbSymbolTableRecord
100
AcDbLayerTableRecord
  2
DRAFT
 70
0
 62
7
  6
CONTINUOUS
370
-3
390
F
  0
LAYER
  5
205
100
AcDbSymbolTableRecord
100
AcDbLayerTableRecord
  2
IMPORT_IGES
 70
0
 62
7
  6
CONTINUOUS
370
-3
390
F
  0
LAYER
  5
206
100
AcDbSymbolTableRecord
100
AcDbLayerTableRecord
  2
INTF_1
 70
0
 62
7
  6
CONTINUOUS
370
-3
390
F
  0
LAYER
  5
207
100
AcDbSymbolTableRecord
100
AcDbLayerTableRecord
  2
INTF_2
 70
0
 62
7
  6
CONTINUOUS
370
-3
390
F
  0
LAYER
  5
208
100
AcDbSymbolTableRecord
100
AcDbLayerTableRecord
  2
NOTE
 70
0
 62
7
  6
CONTINUOUS
370
-3
390
F
  0
LAYER
  5
209
100
AcDbSymbolTableRecord
100
AcDbLayerTableRecord
  2
PIANI
 70
0
 62
7
  6
CONTINUOUS
370
-3
390
F
  0
LAYER
  5
20A
100
AcDbSymbolTableRecord
100
AcDbLayerTableRecord
  2
PIANI_ORIGINE
 70
0
 62
7
  6
CONTINUOUS
370
-3
390
F
  0
LAYER
  5
20B
100
AcDbSymbolTableRecord
100
AcDbLayerTableRecord
  2
PUNTI
 70
0
 62
7
  6
CONTINUOUS
370
-3
390
F
  0
LAYER
  5
20C
100
AcDbSymbolTableRecord
100
AcDbLayerTableRecord
  2
PUNZONI
 70
0
 62
7
  6
CONTINUOUS
370
-3
390
F
  0
LAYER
  5
20D
100
AcDbSymbolTableRecord
100
AcDbLayerTableRecord
  2
RACCORDO
 70
0
 62
7
  6
CONTINUOUS
370
-3
390
F
  0
LAYER
  5
20E
100
AcDbSymbolTableRecord
100
AcDbLayerTableRecord
  2
RGB__0__0__0
 70
0
 62
7
  6
CONTINUOUS
370
-3
390
F
  0
LAYER
  5
20F
100
AcDbSymbolTableRecord
100
AcDbLayerTableRecord
  2
RGB__255__255__255__
 70
0
 62
7
  6
CONTINUOUS
370
-3
390
F
  0
LAYER
  5
210
100
AcDbSymbolTableRecord
100
AcDbLayerTableRecord
  2
RGB____0____0____0__
 70
0
 62
7
  6
CONTINUOUS
370
-3
390
F
  0
LAYER
  5
211
100
AcDbSymbolTableRecord
100
AcDbLayerTableRecord
  2
SMUSSO
 70
0
 62
7
  6
CONTINUOUS
370
-3
390
F
  0
LAYER
  5
212
100
AcDbSymbolTableRecord
100
AcDbLayerTableRecord
  2
SNAPLINE
 70
0
 62
7
  6
CONTINUOUS
370
-3
390
F
  0
LAYER
  5
213
100
AcDbSymbolTableRecord
100
AcDbLayerTableRecord
  2
SUPERFICI
 70
0
 62
7
  6
CONTINUOUS
370
-3
390
F
  0
LAYER
  5
214
100
AcDbSymbolTableRecord
100
AcDbLayerTableRecord
  2
TRASH
 70
0
 62
7
  6
CONTINUOUS
370
-3
390
F
  0
LAYER
  5
215
100
AcDbSymbolTableRecord
100
AcDbLayerTableRecord
  2
XSEC_DATUMS
 70
0
 62
7
  6
CONTINUOUS
370
-3
390
F
  0
ENDTAB
  0
TABLE
  2
STYLE
  5
3
100
AcDbSymbolTable
 70
1
  0
STYLE
  5
11
100
AcDbSymbolTableRecord
100
AcDbTextStyleTableRecord
  2
STANDARD
 70
0
 40
0.0
 41
0.8
 50
0.0
 71
0
 42
0.2
  3
txt
  4

  0
STYLE
  5
216
100
AcDbSymbolTableRecord
100
AcDbTextStyleTableRecord
  2
TEXTSTYLE_1
 70
0
 40
0.0
 41
0.8
 50
0.0
 71
0
 42
0.2
  3
gdt
  4

  0
ENDTAB
  0
TABLE
  2
VIEW
  5
6
100
AcDbSymbolTable
 70
0
  0
ENDTAB
  0
TABLE
  2
UCS
  5
7
100
AcDbSymbolTable
 70
0
  0
ENDTAB
  0
TABLE
  2
APPID
  5
9
100
AcDbSymbolTable
 70
1
  0
APPID
  5
217
100
AcDbSymbolTableRecord
100
AcDbRegAppTableRecord
  2
ACAD
 70
0
  0
ENDTAB
  0
TABLE
  2
BLOCK_RECORD
  5
1
100
AcDbSymbolTable
 70
0
  0
BLOCK_RECORD
  5
218
100
AcDbSymbolTableRecord
100
AcDbBlockTableRecord
  2
*Model_Space
  0
BLOCK_RECORD
  5
219
100
AcDbSymbolTableRecord
100
AcDbBlockTableRecord
  2
*Paper_Space
  0
ENDTAB
  0
TABLE
  2
DIMSTYLE
  5
A
100
AcDbSymbolTable
 70
1
100
AcDbDimStyleTable
 71
0
  0
DIMSTYLE
105
21A
100
AcDbSymbolTableRecord
100
AcDbDimStyleTableRecord
  2
STANDARD
 70
0
  3

  4

 40
1.0
 41
3.0
 42
0.0625
 43
0.38
 44
0.18
 45
0.0
 46
0.0
 47
0.01
 48
0.01
140
3.0
141
0.09
142
0.0
143
25.4
144
1.0
145
0.0
146
1.0
147
0.09
 71
1.0
 72
0.0
 73
0
 74
0
 75
0
 76
0
 77
1
 78
8
170
0
171
2
172
0
173
0
174
0
175
0
176
0
177
0
178
0
270
2
271
2
272
2
273
2
274
2
275
0
280
0
281
0
282
0
283
1
284
8
285
0
286
0
287
3
288
0
340
11
  0
ENDTAB
  0
ENDSEC
  0
SECTION
  2
BLOCKS
  0
BLOCK
  5
20
100
AcDbEntity
  8
0
100
AcDbBlockBegin
  2
*Model_Space
 70
0
 10
0.0
 20
0.0
 30
0.0
  3
*Model_Space
  1

  0
ENDBLK
  5
21
100
AcDbEntity
  8
0
100
AcDbBlockEnd
  0
BLOCK
  5
1C
100
AcDbEntity
  8
0
100
AcDbBlockBegin
  2
*Paper_Space
 70
0
 10
0.0
 20
0.0
 30
0.0
  3
*Paper_Space
  1

  0
ENDBLK
  5
1D
100
AcDbEntity
  8
0
100
AcDbBlockEnd
  0
ENDSEC
  0
SECTION
  2
ENTITIES
  0
LINE
  5
21B
100
AcDbEntity
  8
0
100
AcDbLine
 62
7
  6
CONTINUOUS
 10
22.25
 20
-44.3224648886
 11
26.05
 21
-43.3224648886
  0
LINE
  5
21C
100
AcDbEntity
  8
RACCORDO
100
AcDbLine
 62
7
  6
CONTINUOUS
 10
-32.5000571154
 20
-46.4224648886
 11
32.5000571154
 21
-46.4224648886
  0
LINE
  5
21D
100
AcDbEntity
  8
DRAFT
100
AcDbLine
 62
7
  6
CONTINUOUS
 10
20.0
 20
-46.1257513837
 11
15.0
 21
-46.1257513837
  0
LINE
  5
21E
100
AcDbEntity
  8
RACCORDO
100
AcDbLine
 62
253
  6
CONTINUOUS
 10
-32.1596257422
 20
-46.0820408894
 11
15.0
 21
-46.0820408894
  0
LINE
  5
21F
100
AcDbEntity
  8
RACCORDO
100
AcDbLine
 62
253
  6
CONTINUOUS
 10
20.0
 20
-46.0820408894
 11
32.1596268489
 21
-46.0820408894
  0
LINE
  5
220
100
AcDbEntity
  8
0
100
AcDbLine
 62
7
  6
CONTINUOUS
 10
-26.05
 20
-43.3224648886
 11
-22.25
 21
-44.3224648886
  0
LINE
  5
221
100
AcDbEntity
  8
0
100
AcDbLine
 62
7
  6
CONTINUOUS
 10
-1.0
 20
46.4703845583
 11
-0.9962301617
 21
46.4723255644
  0
LINE
  5
222
100
AcDbEntity
  8
RACCORDO
100
AcDbLine
 62
7
  6
CONTINUOUS
 10
15.0
 20
-45.1724648886
 11
20.0
 21
-45.1724648886
  0
LINE
  5
223
100
AcDbEntity
  8
RACCORDO
100
AcDbLine
 62
253
  6
CONTINUOUS
 10
-32.1596331162
 20
-45.0820789664
 11
15.0
 21
-45.0820789664
  0
LINE
  5
224
100
AcDbEntity
  8
RACCORDO
100
AcDbLine
 62
253
  6
CONTINUOUS
 10
20.0
 20
-45.0820789664
 11
32.1596331162
 21
-45.0820789664
  0
LINE
  5
225
100
AcDbEntity
  8
0
100
AcDbLine
 62
7
  6
CONTINUOUS
 10
-26.75
 20
-44.9224648886
 11
-26.25
 21
-44.9224648886
  0
LINE
  5
226
100
AcDbEntity
  8
0
100
AcDbLine
 62
7
  6
CONTINUOUS
 10
26.25
 20
-44.9224648886
 11
26.75
 21
-44.9224648886
  0
LINE
  5
227
100
AcDbEntity
  8
RACCORDO
100
AcDbLine
 62
253
  6
CONTINUOUS
 10
32.6596140778
 20
-44.5820980048
 11
33.6595760008
 21
-44.5820980048
  0
LINE
  5
228
100
AcDbEntity
  8
RACCORDO
100
AcDbLine
 62
253
  6
CONTINUOUS
 10
-32.6596140778
 20
-44.5820980048
 11
-33.6595760008
 21
-44.5820980048
  0
LINE
  5
229
100
AcDbEntity
  8
RACCORDO
100
AcDbLine
 62
253
  6
CONTINUOUS
 10
15.0
 20
-44.1724648886
 11
20.0
 21
-44.1724648886
  0
LINE
  5
22A
100
AcDbEntity
  8
0
100
AcDbLine
 62
7
  6
CONTINUOUS
 10
22.25
 20
-43.4724648886
 11
-22.25
 21
-43.4724648886
  0
LINE
  5
22B
100
AcDbEntity
  8
0
100
AcDbLine
 62
7
  6
CONTINUOUS
 10
22.25
 20
-43.2724648886
 11
-22.25
 21
-43.2724648886
  0
LINE
  5
22C
100
AcDbEntity
  8
0
100
AcDbLine
 62
7
  6
CONTINUOUS
 10
22.25
 20
-43.1724648886
 11
-22.25
 21
-43.1724648886
  0
LINE
  5
22D
100
AcDbEntity
  8
0
100
AcDbLine
 62
7
  6
CONTINUOUS
 10
22.25
 20
-42.9724648886
 11
-22.25
 21
-42.9724648886
  0
LINE
  5
22E
100
AcDbEntity
  8
0
100
AcDbLine
 62
7
  6
CONTINUOUS
 10
-25.0
 20
-41.1724648886
 11
-28.0
 21
-41.1724648886
  0
LINE
  5
22F
100
AcDbEntity
  8
SMUSSO
100
AcDbLine
 62
7
  6
CONTINUOUS
 10
-28.0
 20
-40.4224648886
 11
-25.0
 21
-40.4224648886
  0
LINE
  5
230
100
AcDbEntity
  8
SMUSSO
100
AcDbLine
 62
7
  6
CONTINUOUS
 10
-28.0
 20
-40.1224648886
 11
-25.0
 21
-40.1224648886
  0
LINE
  5
231
100
AcDbEntity
  8
0
100
AcDbLine
 62
7
  6
CONTINUOUS
 10
1.1717239618
 20
-39.6907407873
 11
1.3020689487
 21
-39.6907407873
  0
LINE
  5
232
100
AcDbEntity
  8
0
100
AcDbLine
 62
7
  6
CONTINUOUS
 10
1.3289654255
 20
-39.4155684047
 11
1.1717239618
 21
-39.4155684047
  0
LINE
  5
233
100
AcDbEntity
  8
0
100
AcDbLine
 62
7
  6
CONTINUOUS
 10
-30.2360679775
 20
-39.1724648886
 11
-32.5
 21
-39.1724648886
  0
LINE
  5
234
100
AcDbEntity
  8
0
100
AcDbLine
 62
7
  6
CONTINUOUS
 10
-32.5
 20
-38.9724648886
 11
-30.2494443758
 21
-38.9724648886
  0
LINE
  5
235
100
AcDbEntity
  8
0
100
AcDbLine
 62
7
  6
CONTINUOUS
 10
-32.5
 20
-38.8724648886
 11
-30.2494443758
 21
-38.8724648886
  0
LINE
  5
236
100
AcDbEntity
  8
0
100
AcDbLine
 62
7
  6
CONTINUOUS
 10
-30.2360679775
 20
-38.6724648886
 11
-32.5
 21
-38.6724648886
  0
LINE
  5
237
100
AcDbEntity
  8
0
100
AcDbLine
 62
7
  6
CONTINUOUS
 10
-31.1
 20
-38.4724648886
 11
-30.9
 21
-38.4724648886
  0
LINE
  5
238
100
AcDbEntity
  8
0
100
AcDbLine
 62
7
  6
CONTINUOUS
 10
-1.286206916
 20
-38.3997062378
 11
-0.0944827199
 21
-38.3997062378
  0
LINE
  5
239
100
AcDbEntity
  8
0
100
AcDbLine
 62
7
  6
CONTINUOUS
 10
-0.0944827199
 20
-38.1224648886
 11
-1.5737930983
 21
-38.1224648886
  0
LINE
  5
23A
100
AcDbEntity
  8
0
100
AcDbLine
 62
7
  6
CONTINUOUS
 10
-32.1
 20
-34.6725595273
 11
-31.1
 21
-38.4724648886
  0
LINE
  5
23B
100
AcDbEntity
  8
0
100
AcDbLine
 62
7
  6
CONTINUOUS
 10
-31.1
 20
28.6275351114
 11
-32.1
 21
24.8276297501
  0
LINE
  5
23C
100
AcDbEntity
  8
0
100
AcDbLine
 62
7
  6
CONTINUOUS
 10
-22.25
 20
-42.1224648886
 11
-26.05
 21
-43.1224648886
  0
LINE
  5
23D
100
AcDbEntity
  8
SMUSSO
100
AcDbLine
 62
7
  6
CONTINUOUS
 10
-25.0
 20
-37.7224648886
 11
-28.0
 21
-37.7224648886
  0
LINE
  5
23E
100
AcDbEntity
  8
SMUSSO
100
AcDbLine
 62
7
  6
CONTINUOUS
 10
-25.0
 20
-37.4224648886
 11
-28.0
 21
-37.4224648886
  0
LINE
  5
23F
100
AcDbEntity
  8
ASSI
100
AcDbLine
 62
7
  6
CONTINUOUS
 10
-25.0
 20
-36.6724648886
 11
-28.0
 21
-36.6724648886
  0
LINE
  5
240
100
AcDbEntity
  8
0
100
AcDbLine
 62
7
  6
CONTINUOUS
 10
-29.9
 20
-34.6725595273
 11
-30.95
 21
-34.6725595273
  0
LINE
  5
241
100
AcDbEntity
  8
0
100
AcDbLine
 62
7
  6
CONTINUOUS
 10
-31.05
 20
-34.6725595273
 11
-32.1
 21
-34.6725595273
  0
LINE
  5
242
100
AcDbEntity
  8
0
100
AcDbLine
 62
7
  6
CONTINUOUS
 10
26.05
 20
-43.1224648886
 11
22.25
 21
-42.1224648886
  0
LINE
  5
243
100
AcDbEntity
  8
RACCORDO
100
AcDbLine
 62
7
  6
CONTINUOUS
 10
-34.0
 20
35.0775922268
 11
-34.0
 21
-44.922522004
  0
LINE
  5
244
100
AcDbEntity
  8
RACCORDO
100
AcDbLine
 62
253
  6
CONTINUOUS
 10
-33.6595760008
 20
34.7371608536
 11
-33.6595760008
 21
-44.5820917375
  0
LINE
  5
245
100
AcDbEntity
  8
RACCORDO
100
AcDbLine
 62
253
  6
CONTINUOUS
 10
-32.6596140778
 20
34.7371682276
 11
-32.6596140778
 21
-44.5820980048
  0
LINE
  5
246
100
AcDbEntity
  8
0
100
AcDbLine
 62
7
  6
CONTINUOUS
 10
-32.5
 20
29.3275351114
 11
-32.5
 21
28.8275351114
  0
LINE
  5
247
100
AcDbEntity
  8
0
100
AcDbLine
 62
7
  6
CONTINUOUS
 10
-32.5
 20
-38.6724648886
 11
-32.5
 21
-39.1724648886
  0
LINE
  5
248
100
AcDbEntity
  8
RACCORDO
100
AcDbLine
 62
253
  6
CONTINUOUS
 10
-32.1596331162
 20
-45.0820789664
 11
-32.1596331162
 21
-46.0820408894
  0
LINE
  5
249
100
AcDbEntity
  8
RACCORDO
100
AcDbLine
 62
253
  6
CONTINUOUS
 10
-32.1596331162
 20
35.2371491892
 11
-32.1596331162
 21
36.2371111122
  0
LINE
  5
24A
100
AcDbEntity
  8
0
100
AcDbLine
 62
7
  6
CONTINUOUS
 10
-31.25
 20
-34.6725595273
 11
-31.25
 21
24.8276297501
  0
LINE
  5
24B
100
AcDbEntity
  8
0
100
AcDbLine
 62
7
  6
CONTINUOUS
 10
-31.05
 20
-34.6725595273
 11
-31.05
 21
24.8276297501
  0
LINE
  5
24C
100
AcDbEntity
  8
0
100
AcDbLine
 62
7
  6
CONTINUOUS
 10
-30.95
 20
-34.6725595273
 11
-30.95
 21
24.8276297501
  0
LINE
  5
24D
100
AcDbEntity
  8
0
100
AcDbLine
 62
7
  6
CONTINUOUS
 10
-30.75
 20
-34.6725595273
 11
-30.75
 21
24.8276297501
  0
LINE
  5
24E
100
AcDbEntity
  8
0
100
AcDbLine
 62
7
  6
CONTINUOUS
 10
0.6089655757
 20
-38.5466027789
 11
0.8717240691
 21
-38.6810855203
  0
LINE
  5
24F
100
AcDbEntity
  8
SMUSSO
100
AcDbLine
 62
253
  6
CONTINUOUS
 10
-28.0
 20
-37.7224648886
 11
-28.0
 21
-37.4224648886
  0
LINE
  5
250
100
AcDbEntity
  8
SMUSSO
100
AcDbLine
 62
253
  6
CONTINUOUS
 10
-28.0
 20
-40.1224648886
 11
-28.0
 21
-40.4224648886
  0
LINE
  5
251
100
AcDbEntity
  8
0
100
AcDbLine
 62
7
  6
CONTINUOUS
 10
-26.75
 20
-44.9224648886
 11
-26.75
 21
-41.1724648886
  0
LINE
  5
252
100
AcDbEntity
  8
0
100
AcDbLine
 62
7
  6
CONTINUOUS
 10
-26.55
 20
-44.9224648886
 11
-26.55
 21
-41.1724648886
  0
LINE
  5
253
100
AcDbEntity
  8
0
100
AcDbLine
 62
7
  6
CONTINUOUS
 10
-26.45
 20
-44.9224648886
 11
-26.45
 21
-41.1724648886
  0
LINE
  5
254
100
AcDbEntity
  8
0
100
AcDbLine
 62
7
  6
CONTINUOUS
 10
-26.25
 20
-44.9224648886
 11
-26.25
 21
-41.1724648886
  0
LINE
  5
255
100
AcDbEntity
  8
0
100
AcDbLine
 62
7
  6
CONTINUOUS
 10
-26.05
 20
-43.1224648886
 11
-26.05
 21
-43.3224648886
  0
LINE
  5
256
100
AcDbEntity
  8
0
100
AcDbLine
 62
7
  6
CONTINUOUS
 10
-26.0
 20
-3.0010856204
 11
-26.0
 21
-2.6514304393
  0
LINE
  5
257
100
AcDbEntity
  8
SMUSSO
100
AcDbLine
 62
253
  6
CONTINUOUS
 10
-25.0
 20
-37.7224648886
 11
-25.0
 21
-37.4224648886
  0
LINE
  5
258
100
AcDbEntity
  8
SMUSSO
100
AcDbLine
 62
253
  6
CONTINUOUS
 10
-25.0
 20
-40.1224648886
 11
-25.0
 21
-40.4224648886
  0
LINE
  5
259
100
AcDbEntity
  8
0
100
AcDbLine
 62
7
  6
CONTINUOUS
 10
-29.9
 20
24.8276297501
 11
-30.9
 21
28.6275351114
  0
LINE
  5
25A
100
AcDbEntity
  8
0
100
AcDbLine
 62
7
  6
CONTINUOUS
 10
-22.25
 20
-42.1224648886
 11
-22.25
 21
-43.1724648886
  0
LINE
  5
25B
100
AcDbEntity
  8
0
100
AcDbLine
 62
7
  6
CONTINUOUS
 10
-22.25
 20
-43.2724648886
 11
-22.25
 21
-44.3224648886
  0
LINE
  5
25C
100
AcDbEntity
  8
RACCORDO
100
AcDbLine
 62
7
  6
CONTINUOUS
 10
-20.0
 20
34.3275351114
 11
-20.0
 21
36.2808216065
  0
LINE
  5
25D
100
AcDbEntity
  8
0
100
AcDbLine
 62
7
  6
CONTINUOUS
 10
-30.9
 20
-38.4724648886
 11
-29.9
 21
-34.6725595273
  0
LINE
  5
25E
100
AcDbEntity
  8
RACCORDO
100
AcDbLine
 62
7
  6
CONTINUOUS
 10
-15.0
 20
34.3275351114
 11
-15.0
 21
36.2808216065
  0
LINE
  5
25F
100
AcDbEntity
  8
0
100
AcDbLine
 62
7
  6
CONTINUOUS
 10
-26.0
 20
-2.6514304393
 11
-27.3179311156
 21
-1.8693614565
  0
LINE
  5
260
100
AcDbEntity
  8
0
100
AcDbLine
 62
7
  6
CONTINUOUS
 10
-27.2910344601
 20
-2.2066027932
 11
-26.0
 21
-3.0010856204
  0
LINE
  5
261
100
AcDbEntity
  8
0
100
AcDbLine
 62
7
  6
CONTINUOUS
 10
-14.0
 20
37.6952514293
 11
-14.0
 21
36.2730099432
  0
LINE
  5
262
100
AcDbEntity
  8
RACCORDO
100
AcDbLine
 62
7
  6
CONTINUOUS
 10
-14.0
 20
36.2730099432
 11
-14.0
 21
37.6952514293
  0
LINE
  5
263
100
AcDbEntity
  8
0
100
AcDbLine
 62
7
  6
CONTINUOUS
 10
-11.85
 20
40.0987488219
 11
-11.85
 21
39.6721348149
  0
LINE
  5
264
100
AcDbEntity
  8
RACCORDO
100
AcDbLine
 62
7
  6
CONTINUOUS
 10
-11.85
 20
39.6721348149
 11
-11.85
 21
40.0987488219
  0
LINE
  5
265
100
AcDbEntity
  8
0
100
AcDbLine
 62
7
  6
CONTINUOUS
 10
-11.35
 20
39.5950014622
 11
-11.35
 21
39.1722635102
  0
LINE
  5
266
100
AcDbEntity
  8
0
100
AcDbLine
 62
7
  6
CONTINUOUS
 10
-10.1
 20
41.9384675524
 11
-10.1
 21
41.4716715117
  0
LINE
  5
267
100
AcDbEntity
  8
RACCORDO
100
AcDbLine
 62
7
  6
CONTINUOUS
 10
-10.1
 20
41.4716715117
 11
-10.1
 21
41.9384675524
  0
LINE
  5
268
100
AcDbEntity
  8
0
100
AcDbLine
 62
7
  6
CONTINUOUS
 10
-9.45
 20
41.3909167214
 11
-9.45
 21
40.971800207
  0
LINE
  5
269
100
AcDbEntity
  8
0
100
AcDbLine
 62
7
  6
CONTINUOUS
 10
-8.35
 20
43.7112162267
 11
-8.35
 21
43.2712082085
  0
LINE
  5
26A
100
AcDbEntity
  8
RACCORDO
100
AcDbLine
 62
7
  6
CONTINUOUS
 10
-8.35
 20
43.2712082085
 11
-8.35
 21
43.7112162267
  0
LINE
  5
26B
100
AcDbEntity
  8
0
100
AcDbLine
 62
7
  6
CONTINUOUS
 10
-7.85
 20
43.2067781905
 11
-7.85
 21
42.7713369038
  0
LINE
  5
26C
100
AcDbEntity
  8
RACCORDO
100
AcDbLine
 62
253
  6
CONTINUOUS
 10
32.5000571154
 20
-46.4224648886
 11
32.1596268489
 21
-46.0820408894
  0
LINE
  5
26D
100
AcDbEntity
  8
RACCORDO
100
AcDbLine
 62
253
  6
CONTINUOUS
 10
34.0
 20
-44.922522004
 11
33.6595760008
 21
-44.5820906308
  0
LINE
  5
26E
100
AcDbEntity
  8
0
100
AcDbLine
 62
7
  6
CONTINUOUS
 10
-4.1
 20
45.4098170158
 11
-4.1
 21
45.0707449052
  0
LINE
  5
26F
100
AcDbEntity
  8
RACCORDO
100
AcDbLine
 62
7
  6
CONTINUOUS
 10
-4.1
 20
45.0707449052
 11
-4.1
 21
45.4098170158
  0
LINE
  5
270
100
AcDbEntity
  8
0
100
AcDbLine
 62
7
  6
CONTINUOUS
 10
-3.6
 20
45.0262437366
 11
-3.6
 21
44.5708736006
  0
LINE
  5
271
100
AcDbEntity
  8
0
100
AcDbLine
 62
7
  6
CONTINUOUS
 10
-11.4755174175
 20
-5.6724648886
 11
-10.8198921711
 21
-5.6724648886
  0
LINE
  5
272
100
AcDbEntity
  8
0
100
AcDbLine
 62
7
  6
CONTINUOUS
 10
10.8198921711
 20
-5.6724648886
 11
11.4755174175
 21
-5.6724648886
  0
LINE
  5
273
100
AcDbEntity
  8
0
100
AcDbLine
 62
7
  6
CONTINUOUS
 10
11.4755174175
 20
-4.1724648886
 11
10.8198921711
 21
-4.1724648886
  0
LINE
  5
274
100
AcDbEntity
  8
0
100
AcDbLine
 62
7
  6
CONTINUOUS
 10
-10.8198921711
 20
-4.1724648886
 11
-11.4755174175
 21
-4.1724648886
  0
LINE
  5
275
100
AcDbEntity
  8
0
100
AcDbLine
 62
7
  6
CONTINUOUS
 10
-0.75
 20
6.5530525289
 11
-0.75
 21
5.8974272825
  0
LINE
  5
276
100
AcDbEntity
  8
0
100
AcDbLine
 62
7
  6
CONTINUOUS
 10
-0.75
 20
-15.7423570597
 11
-0.75
 21
-16.3979823061
  0
LINE
  5
277
100
AcDbEntity
  8
0
100
AcDbLine
 62
7
  6
CONTINUOUS
 10
-0.0944827199
 20
-38.3997062378
 11
-0.0944827199
 21
-38.1224648886
  0
LINE
  5
278
100
AcDbEntity
  8
0
100
AcDbLine
 62
7
  6
CONTINUOUS
 10
-1.3006896377
 20
-39.3079821401
 11
-1.286206916
 21
-38.3997062378
  0
LINE
  5
279
100
AcDbEntity
  8
0
100
AcDbLine
 62
7
  6
CONTINUOUS
 10
-1.5737930983
 20
-38.1224648886
 11
-1.6027586311
 21
-39.6803959542
  0
LINE
  5
27A
100
AcDbEntity
  8
RACCORDO
100
AcDbLine
 62
253
  6
CONTINUOUS
 10
32.5000571154
 20
36.5775351114
 11
32.1596257422
 21
36.2371111122
  0
LINE
  5
27B
100
AcDbEntity
  8
RACCORDO
100
AcDbLine
 62
253
  6
CONTINUOUS
 10
34.0
 20
35.0775922268
 11
33.6595760008
 21
34.7371619603
  0
LINE
  5
27C
100
AcDbEntity
  8
0
100
AcDbLine
 62
7
  6
CONTINUOUS
 10
0.75
 20
-16.3979823061
 11
0.75
 21
-15.7423570597
  0
LINE
  5
27D
100
AcDbEntity
  8
0
100
AcDbLine
 62
7
  6
CONTINUOUS
 10
0.75
 20
5.8974272825
 11
0.75
 21
6.5530525289
  0
LINE
  5
27E
100
AcDbEntity
  8
0
100
AcDbLine
 62
7
  6
CONTINUOUS
 10
1.1717239618
 20
-39.4155684047
 11
1.1717239618
 21
-39.6907407873
  0
LINE
  5
27F
100
AcDbEntity
  8
0
100
AcDbLine
 62
7
  6
CONTINUOUS
 10
3.6
 20
45.0262437366
 11
3.6
 21
44.5708736006
  0
LINE
  5
280
100
AcDbEntity
  8
0
100
AcDbLine
 62
7
  6
CONTINUOUS
 10
4.1
 20
45.4098170158
 11
4.1
 21
45.0707449052
  0
LINE
  5
281
100
AcDbEntity
  8
RACCORDO
100
AcDbLine
 62
7
  6
CONTINUOUS
 10
4.1
 20
45.0707449052
 11
4.1
 21
45.4098170158
  0
LINE
  5
282
100
AcDbEntity
  8
RACCORDO
100
AcDbLine
 62
253
  6
CONTINUOUS
 10
-34.0
 20
35.0775922268
 11
-33.6595760008
 21
34.7371608536
  0
LINE
  5
283
100
AcDbEntity
  8
RACCORDO
100
AcDbLine
 62
253
  6
CONTINUOUS
 10
-32.5000571154
 20
36.5775351114
 11
-32.1596268489
 21
36.2371111122
  0
LINE
  5
284
100
AcDbEntity
  8
0
100
AcDbLine
 62
7
  6
CONTINUOUS
 10
7.85
 20
43.2067781905
 11
7.85
 21
42.7713369038
  0
LINE
  5
285
100
AcDbEntity
  8
RACCORDO
100
AcDbLine
 62
253
  6
CONTINUOUS
 10
-34.0
 20
-44.922522004
 11
-33.6595760008
 21
-44.5820917375
  0
LINE
  5
286
100
AcDbEntity
  8
0
100
AcDbLine
 62
7
  6
CONTINUOUS
 10
8.35
 20
43.7112162267
 11
8.35
 21
43.2712082085
  0
LINE
  5
287
100
AcDbEntity
  8
RACCORDO
100
AcDbLine
 62
7
  6
CONTINUOUS
 10
8.35
 20
43.2712082085
 11
8.35
 21
43.7112162267
  0
LINE
  5
288
100
AcDbEntity
  8
0
100
AcDbLine
 62
7
  6
CONTINUOUS
 10
9.45
 20
41.3909167214
 11
9.45
 21
40.971800207
  0
LINE
  5
289
100
AcDbEntity
  8
0
100
AcDbLine
 62
7
  6
CONTINUOUS
 10
10.1
 20
41.9384675524
 11
10.1
 21
41.4716715117
  0
LINE
  5
28A
100
AcDbEntity
  8
RACCORDO
100
AcDbLine
 62
7
  6
CONTINUOUS
 10
10.1
 20
41.4716715117
 11
10.1
 21
41.9384675524
  0
LINE
  5
28B
100
AcDbEntity
  8
0
100
AcDbLine
 62
7
  6
CONTINUOUS
 10
11.35
 20
39.5950014622
 11
11.35
 21
39.1722635102
  0
LINE
  5
28C
100
AcDbEntity
  8
0
100
AcDbLine
 62
7
  6
CONTINUOUS
 10
11.85
 20
40.0987488219
 11
11.85
 21
39.6721348149
  0
LINE
  5
28D
100
AcDbEntity
  8
RACCORDO
100
AcDbLine
 62
7
  6
CONTINUOUS
 10
11.85
 20
39.6721348149
 11
11.85
 21
40.0987488219
  0
LINE
  5
28E
100
AcDbEntity
  8
RACCORDO
100
AcDbLine
 62
253
  6
CONTINUOUS
 10
-32.5000571154
 20
-46.4224648886
 11
-32.1596257422
 21
-46.0820408894
  0
LINE
  5
28F
100
AcDbEntity
  8
0
100
AcDbLine
 62
7
  6
CONTINUOUS
 10
14.0
 20
37.6952514293
 11
14.0
 21
36.2730099432
  0
LINE
  5
290
100
AcDbEntity
  8
RACCORDO
100
AcDbLine
 62
7
  6
CONTINUOUS
 10
14.0
 20
36.2730099432
 11
14.0
 21
37.6952514293
  0
LINE
  5
291
100
AcDbEntity
  8
RACCORDO
100
AcDbLine
 62
7
  6
CONTINUOUS
 10
15.0
 20
-46.1257513837
 11
15.0
 21
-44.1724648886
  0
LINE
  5
292
100
AcDbEntity
  8
RACCORDO
100
AcDbLine
 62
7
  6
CONTINUOUS
 10
20.0
 20
-44.1724648886
 11
20.0
 21
-46.1257513837
  0
LINE
  5
293
100
AcDbEntity
  8
0
100
AcDbLine
 62
7
  6
CONTINUOUS
 10
22.25
 20
-42.1224648886
 11
22.25
 21
-43.1724648886
  0
LINE
  5
294
100
AcDbEntity
  8
0
100
AcDbLine
 62
7
  6
CONTINUOUS
 10
22.25
 20
-43.2724648886
 11
22.25
 21
-44.3224648886
  0
LINE
  5
295
100
AcDbEntity
  8
0
100
AcDbLine
 62
7
  6
CONTINUOUS
 10
24.25
 20
30.5775351114
 11
24.25
 21
27.5775351114
  0
LINE
  5
296
100
AcDbEntity
  8
SMUSSO
100
AcDbLine
 62
7
  6
CONTINUOUS
 10
25.0
 20
30.5775351114
 11
25.0
 21
27.5775351114
  0
LINE
  5
297
100
AcDbEntity
  8
SMUSSO
100
AcDbLine
 62
7
  6
CONTINUOUS
 10
25.3
 20
30.5775351114
 11
25.3
 21
27.5775351114
  0
LINE
  5
298
100
AcDbEntity
  8
0
100
AcDbLine
 62
7
  6
CONTINUOUS
 10
26.05
 20
-43.3224648886
 11
26.05
 21
-43.1224648886
  0
LINE
  5
299
100
AcDbEntity
  8
0
100
AcDbLine
 62
7
  6
CONTINUOUS
 10
26.25
 20
-44.9224648886
 11
26.25
 21
-34.9037115397
  0
LINE
  5
29A
100
AcDbEntity
  8
0
100
AcDbLine
 62
7
  6
CONTINUOUS
 10
26.25
 20
-28.9412182375
 11
26.25
 21
25.3414671339
  0
LINE
  5
29B
100
AcDbEntity
  8
0
100
AcDbLine
 62
7
  6
CONTINUOUS
 10
26.45
 20
-34.1198712869
 11
26.45
 21
-44.9224648886
  0
LINE
  5
29C
100
AcDbEntity
  8
0
100
AcDbLine
 62
7
  6
CONTINUOUS
 10
26.45
 20
-29.7250584903
 11
26.45
 21
25.3280907356
  0
LINE
  5
29D
100
AcDbEntity
  8
0
100
AcDbLine
 62
7
  6
CONTINUOUS
 10
26.55
 20
-34.0505144367
 11
26.55
 21
-44.9224648886
  0
LINE
  5
29E
100
AcDbEntity
  8
0
100
AcDbLine
 62
7
  6
CONTINUOUS
 10
26.55
 20
-29.7944153405
 11
26.55
 21
25.3280907356
  0
LINE
  5
29F
100
AcDbEntity
  8
0
100
AcDbLine
 62
7
  6
CONTINUOUS
 10
26.75
 20
-44.9224648886
 11
26.75
 21
-34.6405214728
  0
LINE
  5
2A0
100
AcDbEntity
  8
0
100
AcDbLine
 62
7
  6
CONTINUOUS
 10
26.75
 20
-29.2044083044
 11
26.75
 21
25.3414671339
  0
LINE
  5
2A1
100
AcDbEntity
  8
0
100
AcDbLine
 62
7
  6
CONTINUOUS
 10
-29.9
 20
24.8276297501
 11
-30.95
 21
24.8276297501
  0
LINE
  5
2A2
100
AcDbEntity
  8
0
100
AcDbLine
 62
7
  6
CONTINUOUS
 10
-31.05
 20
24.8276297501
 11
-32.1
 21
24.8276297501
  0
LINE
  5
2A3
100
AcDbEntity
  8
SMUSSO
100
AcDbLine
 62
7
  6
CONTINUOUS
 10
27.7
 20
27.5775351114
 11
27.7
 21
30.5775351114
  0
LINE
  5
2A4
100
AcDbEntity
  8
SMUSSO
100
AcDbLine
 62
7
  6
CONTINUOUS
 10
28.0
 20
27.5775351114
 11
28.0
 21
30.5775351114
  0
LINE
  5
2A5
100
AcDbEntity
  8
ASSI
100
AcDbLine
 62
7
  6
CONTINUOUS
 10
28.75
 20
27.5775351114
 11
28.75
 21
30.5775351114
  0
LINE
  5
2A6
100
AcDbEntity
  8
SMUSSO
100
AcDbLine
 62
253
  6
CONTINUOUS
 10
25.3
 20
27.5775351114
 11
25.0
 21
27.5775351114
  0
LINE
  5
2A7
100
AcDbEntity
  8
SMUSSO
100
AcDbLine
 62
253
  6
CONTINUOUS
 10
27.7
 20
27.5775351114
 11
28.0
 21
27.5775351114
  0
LINE
  5
2A8
100
AcDbEntity
  8
0
100
AcDbLine
 62
7
  6
CONTINUOUS
 10
-30.9
 20
28.6275351114
 11
-31.1
 21
28.6275351114
  0
LINE
  5
2A9
100
AcDbEntity
  8
0
100
AcDbLine
 62
7
  6
CONTINUOUS
 10
24.25
 20
28.8275351114
 11
-32.5
 21
28.8275351114
  0
LINE
  5
2AA
100
AcDbEntity
  8
0
100
AcDbLine
 62
7
  6
CONTINUOUS
 10
-32.5
 20
29.0275351114
 11
24.25
 21
29.0275351114
  0
LINE
  5
2AB
100
AcDbEntity
  8
0
100
AcDbLine
 62
7
  6
CONTINUOUS
 10
-32.5
 20
29.1275351114
 11
24.25
 21
29.1275351114
  0
LINE
  5
2AC
100
AcDbEntity
  8
0
100
AcDbLine
 62
7
  6
CONTINUOUS
 10
24.25
 20
29.3275351114
 11
-32.5
 21
29.3275351114
  0
LINE
  5
2AD
100
AcDbEntity
  8
SMUSSO
100
AcDbLine
 62
253
  6
CONTINUOUS
 10
25.3
 20
30.5775351114
 11
25.0
 21
30.5775351114
  0
LINE
  5
2AE
100
AcDbEntity
  8
SMUSSO
100
AcDbLine
 62
253
  6
CONTINUOUS
 10
27.7
 20
30.5775351114
 11
28.0
 21
30.5775351114
  0
LINE
  5
2AF
100
AcDbEntity
  8
RACCORDO
100
AcDbLine
 62
253
  6
CONTINUOUS
 10
32.1596331162
 20
-45.0820789664
 11
32.1596331162
 21
-46.0820408894
  0
LINE
  5
2B0
100
AcDbEntity
  8
RACCORDO
100
AcDbLine
 62
253
  6
CONTINUOUS
 10
32.1596331162
 20
35.2371491892
 11
32.1596331162
 21
36.2371111122
  0
LINE
  5
2B1
100
AcDbEntity
  8
RACCORDO
100
AcDbLine
 62
253
  6
CONTINUOUS
 10
32.6596140778
 20
-44.5820980048
 11
32.6596140778
 21
34.7371682276
  0
LINE
  5
2B2
100
AcDbEntity
  8
RACCORDO
100
AcDbLine
 62
253
  6
CONTINUOUS
 10
33.6595760008
 20
-44.5820906308
 11
33.6595760008
 21
34.7371619603
  0
LINE
  5
2B3
100
AcDbEntity
  8
RACCORDO
100
AcDbLine
 62
7
  6
CONTINUOUS
 10
34.0
 20
35.0775922268
 11
34.0
 21
-44.922522004
  0
LINE
  5
2B4
100
AcDbEntity
  8
RACCORDO
100
AcDbLine
 62
253
  6
CONTINUOUS
 10
-15.0
 20
34.3275351114
 11
-20.0
 21
34.3275351114
  0
LINE
  5
2B5
100
AcDbEntity
  8
RACCORDO
100
AcDbLine
 62
253
  6
CONTINUOUS
 10
32.6596140778
 20
34.7371682276
 11
33.6595760008
 21
34.7371682276
  0
LINE
  5
2B6
100
AcDbEntity
  8
RACCORDO
100
AcDbLine
 62
253
  6
CONTINUOUS
 10
-32.6596140778
 20
34.7371682276
 11
-33.6595760008
 21
34.7371682276
  0
LINE
  5
2B7
100
AcDbEntity
  8
0
100
AcDbLine
 62
7
  6
CONTINUOUS
 10
-1.5117241442
 20
-40.5121200465
 11
-1.8034482822
 21
-40.644533866
  0
LINE
  5
2B8
100
AcDbEntity
  8
0
100
AcDbLine
 62
7
  6
CONTINUOUS
 10
0.8055173159
 20
-40.4748786919
 11
0.4910345674
 21
-40.5721200787
  0
LINE
  5
2B9
100
AcDbEntity
  8
RACCORDO
100
AcDbLine
 62
253
  6
CONTINUOUS
 10
32.1596331162
 20
35.2371491892
 11
-15.0
 21
35.2371491892
  0
LINE
  5
2BA
100
AcDbEntity
  8
RACCORDO
100
AcDbLine
 62
253
  6
CONTINUOUS
 10
-20.0
 20
35.2371491892
 11
-32.1596331162
 21
35.2371491892
  0
LINE
  5
2BB
100
AcDbEntity
  8
RACCORDO
100
AcDbLine
 62
7
  6
CONTINUOUS
 10
-15.0
 20
35.3275351114
 11
-20.0
 21
35.3275351114
  0
LINE
  5
2BC
100
AcDbEntity
  8
RACCORDO
100
AcDbLine
 62
253
  6
CONTINUOUS
 10
32.1596257422
 20
36.2371111122
 11
-15.0
 21
36.2371111122
  0
LINE
  5
2BD
100
AcDbEntity
  8
RACCORDO
100
AcDbLine
 62
253
  6
CONTINUOUS
 10
-20.0
 20
36.2371111122
 11
-32.1596268489
 21
36.2371111122
  0
LINE
  5
2BE
100
AcDbEntity
  8
DRAFT
100
AcDbLine
 62
7
  6
CONTINUOUS
 10
-15.0
 20
36.2808216065
 11
-20.0
 21
36.2808216065
  0
LINE
  5
2BF
100
AcDbEntity
  8
RACCORDO
100
AcDbLine
 62
7
  6
CONTINUOUS
 10
-32.5000571154
 20
36.5775351114
 11
-14.0
 21
36.5775351114
  0
LINE
  5
2C0
100
AcDbEntity
  8
RACCORDO
100
AcDbLine
 62
7
  6
CONTINUOUS
 10
14.0
 20
36.5775351114
 11
32.5000571154
 21
36.5775351114
  0
LINE
  5
2C1
100
AcDbEntity
  8
RACCORDO
100
AcDbLine
 62
253
  6
CONTINUOUS
 10
-11.5859638345
 20
40.4107686049
 11
-11.5869645544
 21
40.4104995593
  0
LINE
  5
2C2
100
AcDbEntity
  8
0
100
AcDbLine
 62
7
  6
CONTINUOUS
 10
-11.3527218341
 20
39.1824607857
 11
-13.2111830683
 21
38.6864044442
  0
LINE
  5
2C3
100
AcDbEntity
  8
0
100
AcDbLine
 62
7
  6
CONTINUOUS
 10
-9.4522661967
 20
40.9802904496
 11
-11.5858698257
 21
40.4107937117
  0
LINE
  5
2C4
100
AcDbEntity
  8
0
100
AcDbLine
 62
7
  6
CONTINUOUS
 10
11.3527218341
 20
39.1824607857
 11
13.2111831066
 21
38.686404434
  0
LINE
  5
2C5
100
AcDbEntity
  8
0
100
AcDbLine
 62
7
  6
CONTINUOUS
 10
9.4522661967
 20
40.9802904496
 11
11.5858698508
 21
40.410793705
  0
LINE
  5
2C6
100
AcDbEntity
  8
RACCORDO
100
AcDbLine
 62
253
  6
CONTINUOUS
 10
11.5869776846
 20
40.4104960074
 11
11.5858593725
 21
40.4107965016
  0
LINE
  5
2C7
100
AcDbEntity
  8
0
100
AcDbLine
 62
7
  6
CONTINUOUS
 10
0.9962301617
 20
46.4723255644
 11
1.0
 21
46.4703845583
  0
LINE
  5
2C8
100
AcDbEntity
  8
RACCORDO
100
AcDbLine
 62
253
  6
CONTINUOUS
 10
-8.0985385769
 20
44.0165110144
 11
-8.0994588336
 21
44.0162629979
  0
LINE
  5
2C9
100
AcDbEntity
  8
RACCORDO
100
AcDbLine
 62
253
  6
CONTINUOUS
 10
-3.8636924747
 20
45.7069765739
 11
-3.8641522741
 21
45.7068529115
  0
LINE
  5
2CA
100
AcDbEntity
  8
RACCORDO
100
AcDbLine
 62
253
  6
CONTINUOUS
 10
-9.842255035
 20
42.2471238147
 11
-9.8425947139
 21
42.2470328024
  0
LINE
  5
2CB
100
AcDbEntity
  8
0
100
AcDbLine
 62
7
  6
CONTINUOUS
 10
-7.851882502
 20
42.778389645
 11
-9.8421571977
 21
42.2471499473
  0
LINE
  5
2CC
100
AcDbEntity
  8
0
100
AcDbLine
 62
7
  6
CONTINUOUS
 10
-5.9784430292
 20
44.5824022255
 11
-8.0984447193
 21
44.0165360869
  0
LINE
  5
2CD
100
AcDbEntity
  8
0
100
AcDbLine
 62
7
  6
CONTINUOUS
 10
-0.9964071715
 20
46.4723059958
 11
-3.8637144327
 21
45.7069707153
  0
LINE
  5
2CE
100
AcDbEntity
  8
0
100
AcDbLine
 62
7
  6
CONTINUOUS
 10
7.851882502
 20
42.778389645
 11
9.8421572115
 21
42.2471499437
  0
LINE
  5
2CF
100
AcDbEntity
  8
0
100
AcDbLine
 62
7
  6
CONTINUOUS
 10
5.9784430292
 20
44.5824022255
 11
8.0984447433
 21
44.0165360805
  0
LINE
  5
2D0
100
AcDbEntity
  8
0
100
AcDbLine
 62
7
  6
CONTINUOUS
 10
0.9964071715
 20
46.4723059958
 11
3.8637151046
 21
45.706970536
  0
LINE
  5
2D1
100
AcDbEntity
  8
RACCORDO
100
AcDbLine
 62
253
  6
CONTINUOUS
 10
9.8426065494
 20
42.2470296233
 11
9.8422124823
 21
42.2471351851
  0
LINE
  5
2D2
100
AcDbEntity
  8
RACCORDO
100
AcDbLine
 62
253
  6
CONTINUOUS
 10
8.0994663944
 20
44.0162609438
 11
8.0984672036
 21
44.0165300843
  0
CIRCLE
  5
2D3
100
AcDbEntity
  8
ASSI
100
AcDbCircle
 62
7
  6
CONTINUOUS
 10
-20.0
 20
-4.9224648886
 40
2.25
  0
ARC
  5
2D4
100
AcDbEntity
  8
ASSI
100
AcDbCircle
 62
7
  6
CONTINUOUS
 10
-25.0
 20
-38.9224648886
 40
2.25
100
AcDbArc
 50
270.0
 51
90.0
  0
ARC
  5
2D5
100
AcDbEntity
  8
0
100
AcDbCircle
 62
7
  6
CONTINUOUS
 10
-28.0
 20
-38.9224648886
 40
2.25
100
AcDbArc
 50
90.0
 51
270.0
  0
ARC
  5
2D6
100
AcDbEntity
  8
RACCORDO
100
AcDbCircle
 62
253
  6
CONTINUOUS
 10
-32.1595490805
 20
-44.5820139691
 40
1.5000269226
100
AcDbArc
 50
180.0029704915
 51
269.9970717791
  0
ARC
  5
2D7
100
AcDbEntity
  8
SMUSSO
100
AcDbCircle
 62
7
  6
CONTINUOUS
 10
-25.0
 20
-38.9224648886
 40
1.4999997289
100
AcDbArc
 50
270.0
 51
90.0
  0
ARC
  5
2D8
100
AcDbEntity
  8
SMUSSO
100
AcDbCircle
 62
7
  6
CONTINUOUS
 10
-28.0
 20
-38.9224648886
 40
1.4999997289
100
AcDbArc
 50
90.0
 51
270.0
  0
CIRCLE
  5
2D9
100
AcDbEntity
  8
SMUSSO
100
AcDbCircle
 62
7
  6
CONTINUOUS
 10
-20.0
 20
-4.9224648886
 40
1.4999997289
  0
ARC
  5
2DA
100
AcDbEntity
  8
SMUSSO
100
AcDbCircle
 62
7
  6
CONTINUOUS
 10
-25.0
 20
-38.9224648886
 40
1.1999998741
100
AcDbArc
 50
270.0
 51
90.0
  0
ARC
  5
2DB
100
AcDbEntity
  8
SMUSSO
100
AcDbCircle
 62
7
  6
CONTINUOUS
 10
-28.0
 20
-38.9224648886
 40
1.1999998741
100
AcDbArc
 50
90.0
 51
270.0
  0
CIRCLE
  5
2DC
100
AcDbEntity
  8
SMUSSO
100
AcDbCircle
 62
7
  6
CONTINUOUS
 10
-20.0
 20
-4.9224648886
 40
1.1999998741
  0
ARC
  5
2DD
100
AcDbEntity
  8
RACCORDO
100
AcDbCircle
 62
253
  6
CONTINUOUS
 10
-32.1596406806
 20
-44.5821055692
 40
0.4999730782
100
AcDbArc
 50
179.9991331474
 51
270.0008668527
  0
ARC
  5
2DE
100
AcDbEntity
  8
0
100
AcDbCircle
 62
7
  6
CONTINUOUS
 10
-9.0949247458
 20
50.0534794651
 40
8.6721622163
100
AcDbArc
 50
267.3830511231
 51
267.6216910312
  0
CIRCLE
  5
2DF
100
AcDbEntity
  8
RACCORDO
100
AcDbCircle
 62
253
  6
CONTINUOUS
 10
-25.0
 20
22.0775351114
 40
3.2326972483
  0
ARC
  5
2E0
100
AcDbEntity
  8
0
100
AcDbCircle
 62
7
  6
CONTINUOUS
 10
-11.1127690991
 20
42.7376105084
 40
3.1552894563
100
AcDbArc
 50
265.0967025247
 51
265.5811815628
  0
CIRCLE
  5
2E1
100
AcDbEntity
  8
RACCORDO
100
AcDbCircle
 62
253
  6
CONTINUOUS
 10
-25.0
 20
22.0775351114
 40
2.232849568
  0
CIRCLE
  5
2E2
100
AcDbEntity
  8
DRAFT
100
AcDbCircle
 62
7
  6
CONTINUOUS
 10
-25.0
 20
22.0775351114
 40
1.9008987014
  0
ARC
  5
2E3
100
AcDbEntity
  8
RACCORDO
100
AcDbCircle
 62
253
  6
CONTINUOUS
 10
-32.1595490805
 20
34.7370841919
 40
1.5000269226
100
AcDbArc
 50
90.0029704915
 51
179.9970717791
  0
ARC
  5
2E4
100
AcDbEntity
  8
RACCORDO
100
AcDbCircle
 62
7
  6
CONTINUOUS
 10
-12.8659265461
 20
37.3931895929
 40
1.3385081204
100
AcDbArc
 50
104.9443805148
 51
106.4052337212
  0
ARC
  5
2E5
100
AcDbEntity
  8
RACCORDO
100
AcDbCircle
 62
7
  6
CONTINUOUS
 10
-11.423242401
 20
39.8014980669
 40
0.6306268477
100
AcDbArc
 50
104.9532666562
 51
105.2187671025
  0
ARC
  5
2E6
100
AcDbEntity
  8
RACCORDO
100
AcDbCircle
 62
7
  6
CONTINUOUS
 10
-7.9645922402
 20
43.5150409852
 40
0.5190515988
100
AcDbArc
 50
104.9549393548
 51
105.7369854692
  0
ARC
  5
2E7
100
AcDbEntity
  8
RACCORDO
100
AcDbCircle
 62
253
  6
CONTINUOUS
 10
-32.1596406806
 20
34.737175792
 40
0.4999730782
100
AcDbArc
 50
89.9991331474
 51
180.0008668527
  0
ARC
  5
2E8
100
AcDbEntity
  8
RACCORDO
100
AcDbCircle
 62
7
  6
CONTINUOUS
 10
-3.759500732
 20
45.3164029441
 40
0.404226449
100
AcDbArc
 50
104.936601049
 51
106.312969751
  0
ARC
  5
2E9
100
AcDbEntity
  8
RACCORDO
100
AcDbCircle
 62
253
  6
CONTINUOUS
 10
-8.0841812092
 20
43.9012249534
 40
0.1200707099
100
AcDbArc
 50
97.5649141915
 51
97.7647390875
  0
CIRCLE
  5
2EA
100
AcDbEntity
  8
0
100
AcDbCircle
 62
7
  6
CONTINUOUS
 10
0.0
 20
-4.9224648886
 40
11.5
  0
ARC
  5
2EB
100
AcDbEntity
  8
0
100
AcDbCircle
 62
7
  6
CONTINUOUS
 10
0.0
 20
-4.9224648886
 40
11.25
100
AcDbArc
 50
93.8225537293
 51
176.1774462707
  0
ARC
  5
2EC
100
AcDbEntity
  8
0
100
AcDbCircle
 62
7
  6
CONTINUOUS
 10
0.0
 20
-4.9224648886
 40
11.25
100
AcDbArc
 50
183.8225537293
 51
266.1774462707
  0
ARC
  5
2ED
100
AcDbEntity
  8
0
100
AcDbCircle
 62
7
  6
CONTINUOUS
 10
0.0
 20
-4.9224648886
 40
11.25
100
AcDbArc
 50
273.8225537293
 51
356.1774462707
  0
ARC
  5
2EE
100
AcDbEntity
  8
0
100
AcDbCircle
 62
7
  6
CONTINUOUS
 10
0.0
 20
-4.9224648886
 40
11.25
100
AcDbArc
 50
3.8225537293
 51
86.1774462707
  0
ARC
  5
2EF
100
AcDbEntity
  8
0
100
AcDbCircle
 62
7
  6
CONTINUOUS
 10
0.0
 20
-4.9224648886
 40
10.8458548116
100
AcDbArc
 50
93.9652158992
 51
176.0347841008
  0
ARC
  5
2F0
100
AcDbEntity
  8
0
100
AcDbCircle
 62
7
  6
CONTINUOUS
 10
0.0
 20
-4.9224648886
 40
10.8458548116
100
AcDbArc
 50
3.9652158992
 51
86.0347841008
  0
ARC
  5
2F1
100
AcDbEntity
  8
0
100
AcDbCircle
 62
7
  6
CONTINUOUS
 10
0.0
 20
-4.9224648886
 40
10.8458548116
100
AcDbArc
 50
183.9652158992
 51
266.0347841008
  0
ARC
  5
2F2
100
AcDbEntity
  8
0
100
AcDbCircle
 62
7
  6
CONTINUOUS
 10
0.0
 20
-4.9224648886
 40
10.8458548116
100
AcDbArc
 50
273.9652158992
 51
356.0347841008
  0
CIRCLE
  5
2F3
100
AcDbEntity
  8
0
100
AcDbCircle
 62
7
  6
CONTINUOUS
 10
0.0
 20
-4.9224648886
 40
3.8405728739
  0
ARC
  5
2F4
100
AcDbEntity
  8
0
100
AcDbCircle
 62
253
  6
CONTINUOUS
 10
25.0
 20
-31.9224648886
 40
3.2326972631
100
AcDbArc
 50
302.7751509834
 51
57.2248490166
  0
ARC
  5
2F5
100
AcDbEntity
  8
0
100
AcDbCircle
 62
253
  6
CONTINUOUS
 10
25.0
 20
-31.9224648886
 40
3.2326972631
100
AcDbArc
 50
67.2522960293
 51
90.0
  0
ARC
  5
2F6
100
AcDbEntity
  8
0
100
AcDbCircle
 62
253
  6
CONTINUOUS
 10
25.0
 20
-31.9224648886
 40
3.2326972631
100
AcDbArc
 50
270.0
 51
292.7477039707
  0
ARC
  5
2F7
100
AcDbEntity
  8
RACCORDO
100
AcDbCircle
 62
253
  6
CONTINUOUS
 10
25.0
 20
-31.9224648886
 40
3.2326972483
100
AcDbArc
 50
90.0
 51
270.0
  0
ARC
  5
2F8
100
AcDbEntity
  8
0
100
AcDbCircle
 62
7
  6
CONTINUOUS
 10
25.0
 20
-31.9224648886
 40
2.6326972631
100
AcDbArc
 50
53.9316593308
 51
56.5804240191
  0
ARC
  5
2F9
100
AcDbEntity
  8
0
100
AcDbCircle
 62
7
  6
CONTINUOUS
 10
25.0
 20
-31.9224648886
 40
2.6326972631
100
AcDbArc
 50
303.4195759809
 51
306.0683406692
  0
CIRCLE
  5
2FA
100
AcDbEntity
  8
ASSI
100
AcDbCircle
 62
7
  6
CONTINUOUS
 10
0.0
 20
-31.9224648886
 40
2.25
  0
CIRCLE
  5
2FB
100
AcDbEntity
  8
ASSI
100
AcDbCircle
 62
7
  6
CONTINUOUS
 10
20.0
 20
-4.9224648886
 40
2.25
  0
CIRCLE
  5
2FC
100
AcDbEntity
  8
RACCORDO
100
AcDbCircle
 62
253
  6
CONTINUOUS
 10
25.0
 20
-31.9224648886
 40
2.232849568
  0
CIRCLE
  5
2FD
100
AcDbEntity
  8
DRAFT
100
AcDbCircle
 62
7
  6
CONTINUOUS
 10
25.0
 20
-31.9224648886
 40
1.9008987014
  0
ARC
  5
2FE
100
AcDbEntity
  8
RACCORDO
100
AcDbCircle
 62
253
  6
CONTINUOUS
 10
32.1595490805
 20
-44.5820139691
 40
1.5000269226
100
AcDbArc
 50
270.0029704915
 51
359.9970717791
  0
CIRCLE
  5
2FF
100
AcDbEntity
  8
SMUSSO
100
AcDbCircle
 62
7
  6
CONTINUOUS
 10
20.0
 20
-4.9224648886
 40
1.4999997289
  0
CIRCLE
  5
300
100
AcDbEntity
  8
SMUSSO
100
AcDbCircle
 62
7
  6
CONTINUOUS
 10
0.0
 20
-31.9224648886
 40
1.4999997289
  0
CIRCLE
  5
301
100
AcDbEntity
  8
SMUSSO
100
AcDbCircle
 62
7
  6
CONTINUOUS
 10
20.0
 20
-4.9224648886
 40
1.1999998741
  0
CIRCLE
  5
302
100
AcDbEntity
  8
SMUSSO
100
AcDbCircle
 62
7
  6
CONTINUOUS
 10
0.0
 20
-31.9224648886
 40
1.1999998741
  0
ARC
  5
303
100
AcDbEntity
  8
RACCORDO
100
AcDbCircle
 62
253
  6
CONTINUOUS
 10
32.1596406755
 20
-44.5821055641
 40
0.4999730782
100
AcDbArc
 50
269.9991337245
 51
0.0008662756
  0
ARC
  5
304
100
AcDbEntity
  8
0
100
AcDbCircle
 62
7
  6
CONTINUOUS
 10
9.0949247458
 20
50.0534794651
 40
8.6721622163
100
AcDbArc
 50
272.3783089688
 51
272.6169488769
  0
ARC
  5
305
100
AcDbEntity
  8
0
100
AcDbCircle
 62
7
  6
CONTINUOUS
 10
11.1127690991
 20
42.7376105085
 40
3.1552894564
100
AcDbArc
 50
274.4188184372
 51
274.9032974753
  0
CIRCLE
  5
306
100
AcDbEntity
  8
ASSI
100
AcDbCircle
 62
7
  6
CONTINUOUS
 10
0.0
 20
22.0775351114
 40
2.25
  0
ARC
  5
307
100
AcDbEntity
  8
ASSI
100
AcDbCircle
 62
7
  6
CONTINUOUS
 10
26.5
 20
30.5775351114
 40
2.25
100
AcDbArc
 50
0.0
 51
180.0
  0
ARC
  5
308
100
AcDbEntity
  8
0
100
AcDbCircle
 62
7
  6
CONTINUOUS
 10
26.5
 20
27.5775351114
 40
2.25
100
AcDbArc
 50
180.0
 51
360.0
  0
ARC
  5
309
100
AcDbEntity
  8
RACCORDO
100
AcDbCircle
 62
253
  6
CONTINUOUS
 10
32.1595490805
 20
34.7370841919
 40
1.5000269226
100
AcDbArc
 50
0.0029704915
 51
89.9970717791
  0
ARC
  5
30A
100
AcDbEntity
  8
SMUSSO
100
AcDbCircle
 62
7
  6
CONTINUOUS
 10
26.5
 20
27.5775351114
 40
1.4999997289
100
AcDbArc
 50
180.0
 51
360.0
  0
ARC
  5
30B
100
AcDbEntity
  8
SMUSSO
100
AcDbCircle
 62
7
  6
CONTINUOUS
 10
26.5
 20
30.5775351114
 40
1.4999997289
100
AcDbArc
 50
0.0
 51
180.0
  0
CIRCLE
  5
30C
100
AcDbEntity
  8
SMUSSO
100
AcDbCircle
 62
7
  6
CONTINUOUS
 10
0.0
 20
22.0775351114
 40
1.4999997289
  0
ARC
  5
30D
100
AcDbEntity
  8
RACCORDO
100
AcDbCircle
 62
7
  6
CONTINUOUS
 10
12.8832779258
 20
37.4537245877
 40
1.2755470353
100
AcDbArc
 50
71.0644006221
 51
75.1063292709
  0
ARC
  5
30E
100
AcDbEntity
  8
SMUSSO
100
AcDbCircle
 62
7
  6
CONTINUOUS
 10
26.5
 20
30.5775351114
 40
1.1999998741
100
AcDbArc
 50
0.0
 51
180.0
  0
ARC
  5
30F
100
AcDbEntity
  8
SMUSSO
100
AcDbCircle
 62
7
  6
CONTINUOUS
 10
26.5
 20
27.5775351114
 40
1.1999998741
100
AcDbArc
 50
180.0
 51
360.0
  0
CIRCLE
  5
310
100
AcDbEntity
  8
SMUSSO
100
AcDbCircle
 62
7
  6
CONTINUOUS
 10
0.0
 20
22.0775351114
 40
1.1999998741
  0
ARC
  5
311
100
AcDbEntity
  8
RACCORDO
100
AcDbCircle
 62
253
  6
CONTINUOUS
 10
32.1596406755
 20
34.7371757869
 40
0.4999730782
100
AcDbArc
 50
359.9991337245
 51
90.0008662756
  0
ARC
  5
312
100
AcDbEntity
  8
RACCORDO
100
AcDbCircle
 62
253
  6
CONTINUOUS
 10
11.5611878236
 20
40.2036647038
 40
0.212135582
100
AcDbArc
 50
82.7477824868
 51
82.8924480604
  0
SPLINE
  5
313
100
AcDbEntity
  8
RACCORDO
100
AcDbSpline
 62
7
  6
CONTINUOUS
 70
0
 71
3
 72
9
 73
5
 74
3
 42
0.0000001
 43
0.0000001
 44
0.0000000001
 12
0.0504598369
 22
-0.0134726809
 32
0.0
 13
0.0480197221
 23
-0.0206233058
 33
0.0
 40
0.0
 40
0.0
 40
0.0
 40
0.0
 40
0.6919521842
 40
1.0
 40
1.0
 40
1.0
 40
1.0
 10
3.8636806469
 20
45.7069792916
 30
0.0
 10
3.8753192451
 20
45.703871808
 30
0.0
 10
3.8919464658
 20
45.6986400904
 30
0.0
 10
3.9081175796
 20
45.6921534584
 30
0.0
 10
3.9130483698
 20
45.6900358036
 30
0.0
 11
3.8636806469
 21
45.7069792916
 31
0.0
 11
3.8981113455
 21
45.6960307608
 31
0.0
 11
3.9130483698
 21
45.6900358036
 31
0.0
  0
SPLINE
  5
314
100
AcDbEntity
  8
RACCORDO
100
AcDbSpline
 62
7
  6
CONTINUOUS
 70
0
 71
3
 72
12
 73
8
 74
6
 42
0.0000001
 43
0.0000001
 44
0.0000000001
 12
0.3272515639
 22
-0.1405466081
 32
0.0
 13
0.0
 23
-0.3558067551
 33
0.0
 40
0.0
 40
0.0
 40
0.0
 40
0.0
 40
0.1031267343
 40
0.2886267798
 40
0.4801883528
 40
0.701745897
 40
1.0
 40
1.0
 40
1.0
 40
1.0
 10
3.9130483698
 20
45.6900358036
 30
0.0
 10
3.9242978315
 20
45.6852044327
 30
0.0
 10
3.9550439647
 20
45.6699422894
 30
0.0
 10
4.0016122378
 20
45.6363886726
 30
0.0
 10
4.0491747355
 20
45.5828665916
 30
0.0
 10
4.0888932129
 20
45.5074593914
 30
0.0
 10
4.1
 20
45.445190624
 30
0.0
 10
4.1
 20
45.4098170158
 30
0.0
 11
3.9130483698
 21
45.6900358036
 31
0.0
 11
3.9459173415
 21
45.6736717528
 31
0.0
 11
3.9994250365
 21
45.6350296394
 31
0.0
 11
4.0446933545
 21
45.5840746077
 31
0.0
 11
4.0813561658
 21
45.5142872836
 31
0.0
 11
4.1
 21
45.4098170158
 31
0.0
  0
SPLINE
  5
315
100
AcDbEntity
  8
RACCORDO
100
AcDbSpline
 62
7
  6
CONTINUOUS
 70
0
 71
3
 72
12
 73
8
 74
6
 42
0.0000001
 43
0.0000001
 44
0.0000000001
 12
0.0
 22
0.3977463001
 32
0.0
 13
0.3819324116
 23
0.1118362801
 33
0.0
 40
0.0
 40
0.0
 40
0.0
 40
0.0
 40
0.2797589605
 40
0.5250842909
 40
0.7781844748
 40
0.9550348847
 40
1.0
 40
1.0
 40
1.0
 40
1.0
 10
-4.1
 20
45.4098170158
 30
0.0
 10
-4.1
 20
45.4469080463
 30
0.0
 10
-4.0868320039
 20
45.5172479
 30
0.0
 10
-4.033557813
 20
45.6075284067
 30
0.0
 10
-3.9643694707
 20
45.6670722626
 30
0.0
 10
-3.9068168818
 20
45.6937637135
 30
0.0
 10
-3.8787660059
 20
45.7026796935
 30
0.0
 10
-3.8730414609
 20
45.7043559372
 30
0.0
 11
-4.1
 21
45.4098170158
 31
0.0
 11
-4.0795023321
 21
45.519185871
 31
0.0
 11
-4.0299846284
 21
45.6032650913
 31
0.0
 11
-3.9537669979
 21
45.6690317515
 31
0.0
 11
-3.8900905304
 21
45.6989190003
 31
0.0
 11
-3.8730414609
 21
45.7043559372
 31
0.0
  0
SPLINE
  5
316
100
AcDbEntity
  8
RACCORDO
100
AcDbSpline
 62
7
  6
CONTINUOUS
 70
0
 71
3
 72
10
 73
6
 74
4
 42
0.0000001
 43
0.0000001
 44
0.0000000001
 12
0.0714009416
 22
-0.0190605209
 32
0.0
 13
0.0669402188
 23
-0.0313855597
 33
0.0
 40
0.0
 40
0.0
 40
0.0
 40
0.0
 40
0.1844960835
 40
0.651262811
 40
1.0
 40
1.0
 40
1.0
 40
1.0
 10
8.0984667464
 20
44.0165303151
 30
0.0
 10
8.1028578111
 20
44.0153581179
 30
0.0
 10
8.1183056445
 20
44.0110241086
 30
0.0
 10
8.1416810273
 20
44.0031771542
 30
0.0
 10
8.1601856668
 20
43.9953072324
 30
0.0
 10
8.1679671814
 20
43.9916587951
 30
0.0
 11
8.0984667464
 21
44.0165303151
 31
0.0
 11
8.111592235
 21
44.0128402469
 31
0.0
 11
8.1442571854
 21
44.0017691763
 31
0.0
 11
8.1679671814
 21
43.9916587951
 31
0.0
  0
SPLINE
  5
317
100
AcDbEntity
  8
RACCORDO
100
AcDbSpline
 62
7
  6
CONTINUOUS
 70
0
 71
3
 72
12
 73
8
 74
6
 42
0.0000001
 43
0.0000001
 44
0.0000000001
 12
0.3188403072
 22
-0.1494913176
 32
0.0
 13
0.0
 23
-0.3519498325
 33
0.0
 40
0.0
 40
0.0
 40
0.0
 40
0.0
 40
0.0432967586
 40
0.2105113501
 40
0.4321565289
 40
0.6825814237
 40
1.0
 40
1.0
 40
1.0
 40
1.0
 10
8.1679671814
 20
43.9916587951
 30
0.0
 10
8.1725687653
 20
43.9895012986
 30
0.0
 10
8.1947180166
 20
43.9785302765
 30
0.0
 10
8.2376555383
 20
43.9510645737
 30
0.0
 10
8.2912339668
 20
43.8974082746
 30
0.0
 10
8.3374308411
 20
43.8157832278
 30
0.0
 10
8.35
 20
43.7484546983
 30
0.0
 10
8.35
 20
43.7112162267
 30
0.0
 11
8.1679671814
 21
43.9916587951
 31
0.0
 11
8.1816276419
 21
43.9848865218
 31
0.0
 11
8.2311296533
 21
43.9530587285
 31
0.0
 11
8.2861895787
 21
43.8977988866
 31
0.0
 11
8.3294929002
 21
43.8210333144
 31
0.0
 11
8.35
 21
43.7112162267
 31
0.0
  0
SPLINE
  5
318
100
AcDbEntity
  8
RACCORDO
100
AcDbSpline
 62
7
  6
CONTINUOUS
 70
0
 71
3
 72
12
 73
8
 74
6
 42
0.0000001
 43
0.0000001
 44
0.0000000001
 12
0.0
 22
0.4182632335
 32
0.0
 13
0.4026994349
 23
0.1135053379
 33
0.0
 40
0.0
 40
0.0
 40
0.0
 40
0.0
 40
0.283308081
 40
0.5259414712
 40
0.7534895372
 40
0.8944837442
 40
1.0
 40
1.0
 40
1.0
 40
1.0
 10
-8.35
 20
43.7112162267
 30
0.0
 10
-8.35
 20
43.7507153447
 30
0.0
 10
-8.3352882687
 20
43.8248932976
 30
0.0
 10
-8.27855615
 20
43.9154435056
 30
0.0
 10
-8.2118677421
 20
43.9707103944
 30
0.0
 10
-8.152230727
 20
43.9998620468
 30
0.0
 10
-8.1195341407
 20
44.0106446852
 30
0.0
 10
-8.1053703619
 20
44.0146369046
 30
0.0
 11
-8.35
 21
43.7112162267
 31
0.0
 11
-8.326928995
 21
43.8274459632
 31
0.0
 11
-8.2731854621
 21
43.9135317464
 31
0.0
 11
-8.2000791326
 21
43.9744722361
 31
0.0
 11
-8.1472162287
 21
44.0006120888
 31
0.0
 11
-8.1053703619
 21
44.0146369046
 31
0.0
  0
SPLINE
  5
319
100
AcDbEntity
  8
RACCORDO
100
AcDbSpline
 62
7
  6
CONTINUOUS
 70
0
 71
3
 72
10
 73
6
 74
4
 42
0.0000001
 43
0.0000001
 44
0.0000000001
 12
0.0679854424
 22
-0.0181554821
 32
0.0
 13
0.0643656354
 23
-0.0285018438
 33
0.0
 40
0.0
 40
0.0
 40
0.0
 40
0.0
 40
0.1148767086
 40
0.6286282196
 40
1.0
 40
1.0
 40
1.0
 40
1.0
 10
9.842212324
 20
42.2471355395
 30
0.0
 10
9.8448156386
 20
42.2464403255
 30
0.0
 10
9.8590355934
 20
42.2425382324
 30
0.0
 10
9.881405673
 20
42.2354196308
 30
0.0
 10
9.900686678
 20
42.2276696327
 30
0.0
 10
9.9086545382
 20
42.2241413726
 30
0.0
 11
9.842212324
 21
42.2471355395
 31
0.0
 11
9.8500075421
 21
42.2449950433
 31
0.0
 11
9.8844157766
 21
42.2339178675
 31
0.0
 11
9.9086545382
 21
42.2241413726
 31
0.0
  0
SPLINE
  5
31A
100
AcDbEntity
  8
RACCORDO
100
AcDbSpline
 62
7
  6
CONTINUOUS
 70
0
 71
3
 72
12
 73
8
 74
6
 42
0.0000001
 43
0.0000001
 44
0.0000000001
 12
0.3318278574
 22
-0.1469371925
 32
0.0
 13
0.0
 23
-0.3627288119
 33
0.0
 40
0.0
 40
0.0
 40
0.0
 40
0.0
 40
0.041622383
 40
0.1985179175
 40
0.4210331114
 40
0.6776812902
 40
1.0
 40
1.0
 40
1.0
 40
1.0
 10
9.9086545382
 20
42.2241413726
 30
0.0
 10
9.9132583602
 20
42.2221027472
 30
0.0
 10
9.9350222085
 20
42.2119391125
 30
0.0
 10
9.9789339872
 20
42.1857283265
 30
0.0
 10
10.0357548578
 20
42.1325928252
 30
0.0
 10
10.0861860257
 20
42.0482489221
 30
0.0
 10
10.1
 20
41.97743898
 30
0.0
 10
10.1
 20
41.9384675524
 30
0.0
 11
9.9086545382
 21
42.2241413726
 31
0.0
 11
9.9223380527
 21
42.2177443348
 31
0.0
 11
9.9711193899
 21
42.1884323976
 31
0.0
 11
10.0299766279
 21
42.1332023248
 31
0.0
 11
10.0776097687
 21
42.0532178336
 31
0.0
 11
10.1
 21
41.9384675524
 31
0.0
  0
SPLINE
  5
31B
100
AcDbEntity
  8
RACCORDO
100
AcDbSpline
 62
7
  6
CONTINUOUS
 70
0
 71
3
 72
12
 73
8
 74
6
 42
0.0000001
 43
0.0000001
 44
0.0000000001
 12
0.0
 22
0.4184576642
 32
0.0
 13
0.4014662746
 23
0.1184637674
 33
0.0
 40
0.0
 40
0.0
 40
0.0
 40
0.0
 40
0.2912095635
 40
0.5373661312
 40
0.7556446373
 40
0.8942103082
 40
1.0
 40
1.0
 40
1.0
 40
1.0
 10
-10.1
 20
41.9384675524
 30
0.0
 10
-10.1
 20
41.979087177
 30
0.0
 10
-10.0845573176
 20
42.0549571687
 30
0.0
 10
-10.0265216801
 20
42.1451560794
 30
0.0
 10
-9.9605086875
 20
42.1992396588
 30
0.0
 10
-9.9024695868
 20
42.2280375329
 30
0.0
 10
-9.8701667317
 20
42.2390856393
 30
0.0
 10
-9.8560097339
 20
42.2432630544
 30
0.0
 11
-10.1
 21
41.9384675524
 31
0.0
 11
-10.0756773324
 21
42.0578743904
 31
0.0
 11
-10.0201180638
 21
42.1446120685
 31
0.0
 11
-9.9496486263
 21
42.202724987
 31
0.0
 11
-9.8978279164
 21
42.2287392688
 31
0.0
 11
-9.8560097339
 21
42.2432630544
 31
0.0
  0
SPLINE
  5
31C
100
AcDbEntity
  8
RACCORDO
100
AcDbSpline
 62
7
  6
CONTINUOUS
 70
0
 71
3
 72
9
 73
5
 74
3
 42
0.0000001
 43
0.0000001
 44
0.0000000001
 12
0.0776514288
 22
-0.020727489
 32
0.0
 13
0.0730245016
 23
-0.0336496658
 33
0.0
 40
0.0
 40
0.0
 40
0.0
 40
0.0
 40
0.4716512832
 40
1.0
 40
1.0
 40
1.0
 40
1.0
 10
11.5858589519
 20
40.4107965885
 30
0.0
 10
11.5980670839
 20
40.4075378729
 30
0.0
 10
11.6237529725
 20
40.3998679728
 30
0.0
 10
11.6487138332
 20
40.3900267517
 30
0.0
 10
11.6615746338
 20
40.3841004991
 30
0.0
 11
11.5858589519
 21
40.4107965885
 31
0.0
 11
11.6221353625
 21
40.3998198154
 31
0.0
 11
11.6615746338
 21
40.3841004991
 31
0.0
  0
SPLINE
  5
31D
100
AcDbEntity
  8
RACCORDO
100
AcDbSpline
 62
7
  6
CONTINUOUS
 70
0
 71
3
 72
11
 73
7
 74
5
 42
0.0000001
 43
0.0000001
 44
0.0000000001
 12
0.3271960313
 22
-0.1507718214
 32
0.0
 13
0.0
 23
-0.3600499813
 33
0.0
 40
0.0
 40
0.0
 40
0.0
 40
0.0
 40
0.1558049303
 40
0.3855184074
 40
0.6582715719
 40
1.0
 40
1.0
 40
1.0
 40
1.0
 10
11.6615746338
 20
40.3841004991
 30
0.0
 10
11.678567552
 20
40.3762701681
 30
0.0
 10
11.7192006457
 20
40.3537560536
 30
0.0
 10
11.7795053046
 20
40.301294026
 30
0.0
 10
11.8346845255
 20
40.2144406631
 30
0.0
 10
11.85
 20
40.1397619266
 30
0.0
 10
11.85
 20
40.0987488219
 30
0.0
 11
11.6615746338
 21
40.3841004991
 31
0.0
 11
11.7105425937
 21
40.3567312575
 31
0.0
 11
11.7728059411
 21
40.302289142
 31
0.0
 11
11.8252802157
 21
40.2192793371
 31
0.0
 11
11.85
 21
40.0987488219
 31
0.0
  0
SPLINE
  5
31E
100
AcDbEntity
  8
RACCORDO
100
AcDbSpline
 62
7
  6
CONTINUOUS
 70
0
 71
3
 72
13
 73
9
 74
7
 42
0.0000001
 43
0.0000001
 44
0.0000000001
 12
0.0
 22
0.4371679327
 32
0.0
 13
0.4219006603
 23
0.1147809286
 33
0.0
 40
0.0
 40
0.0
 40
0.0
 40
0.0
 40
0.289308313
 40
0.5296472534
 40
0.7332064994
 40
0.864337058
 40
0.9675274504
 40
1.0
 40
1.0
 40
1.0
 40
1.0
 10
-11.85
 20
40.0987488219
 30
0.0
 10
-11.85
 20
40.1409075943
 30
0.0
 10
-11.8335049435
 20
40.2191005504
 30
0.0
 10
-11.7730950544
 20
40.3095699361
 30
0.0
 10
-11.7066861547
 20
40.3624847702
 30
0.0
 10
-11.6491989826
 20
40.3907146724
 30
0.0
 10
-11.6123717787
 20
40.4033585808
 30
0.0
 10
-11.5933519916
 20
40.4087667764
 30
0.0
 10
-11.5887852615
 20
40.4100091862
 30
0.0
 11
-11.85
 21
40.0987488219
 31
0.0
 11
-11.8238812449
 21
40.2224988499
 31
0.0
 11
-11.7657579893
 21
40.3100264008
 31
0.0
 11
-11.6963657366
 21
40.3657386947
 31
0.0
 11
-11.6450354287
 21
40.3912627693
 31
0.0
 11
-11.6024404109
 21
40.4061192373
 31
0.0
 11
-11.5887852615
 21
40.4100091862
 31
0.0
  0
SPLINE
  5
31F
100
AcDbEntity
  8
RACCORDO
100
AcDbSpline
 62
7
  6
CONTINUOUS
 70
0
 71
3
 72
14
 73
10
 74
8
 42
0.0000001
 43
0.0000001
 44
0.0000000001
 12
1.2042418755
 22
-0.4143812853
 32
0.0
 13
0.0
 23
-1.2730916121
 33
0.0
 40
0.0
 40
0.0
 40
0.0
 40
0.0
 40
0.095644049
 40
0.2052743209
 40
0.3432397094
 40
0.4762692563
 40
0.6116700189
 40
0.7849730056
 40
1.0
 40
1.0
 40
1.0
 40
1.0
 10
13.2971995504
 20
38.6602440148
 30
0.0
 10
13.3355924067
 20
38.6470329801
 30
0.0
 10
13.4165582254
 20
38.6144269865
 30
0.0
 10
13.5444887348
 20
38.543929827
 30
0.0
 10
13.6731997026
 20
38.4449904142
 30
0.0
 10
13.7908111963
 20
38.3177765075
 30
0.0
 10
13.8936249321
 20
38.1599477076
 30
0.0
 10
13.9772760125
 20
37.952253605
 30
0.0
 10
14.0
 20
37.786501117
 30
0.0
 10
14.0
 20
37.6952514293
 30
0.0
 11
13.2971995504
 21
38.6602440148
 31
0.0
 11
13.4100740801
 21
38.6145742902
 31
0.0
 11
13.5322502998
 21
38.5471014584
 31
0.0
 11
13.6714442617
 21
38.439978368
 31
0.0
 11
13.7863901394
 21
38.3156005226
 31
0.0
 11
13.8804660906
 21
38.1711576486
 31
0.0
 11
13.9627845208
 21
37.9664590207
 31
0.0
 11
14.0
 21
37.6952514293
 31
0.0
  0
SPLINE
  5
320
100
AcDbEntity
  8
RACCORDO
100
AcDbSpline
 62
7
  6
CONTINUOUS
 70
0
 71
3
 72
13
 73
9
 74
7
 42
0.0000001
 43
0.0000001
 44
0.0000000001
 12
0.0
 22
1.3277817192
 32
0.0
 13
1.2742787482
 23
0.3753272911
 33
0.0
 40
0.0
 40
0.0
 40
0.0
 40
0.0
 40
0.2072312637
 40
0.4146912091
 40
0.5959654942
 40
0.7928166667
 40
0.9296662543
 40
1.0
 40
1.0
 40
1.0
 40
1.0
 10
-14.0
 20
37.6952514293
 30
0.0
 10
-14.0
 20
37.7869707238
 30
0.0
 10
-13.9746158705
 20
37.971484054
 30
0.0
 10
-13.8677573549
 20
38.2162009139
 30
0.0
 10
-13.7058965342
 20
38.4216477479
 30
0.0
 10
-13.5231666934
 20
38.5622655766
 30
0.0
 10
-13.3609148654
 20
38.639327757
 30
0.0
 10
-13.2738351021
 20
38.6684052201
 30
0.0
 10
-13.2439601696
 20
38.6772046115
 30
0.0
 11
-14.0
 21
37.6952514293
 31
0.0
 11
-13.9624005355
 21
37.967828283
 31
0.0
 11
-13.8523109317
 21
38.2203343814
 31
0.0
 11
-13.7033868242
 21
38.4094231896
 31
0.0
 11
-13.4964478097
 21
38.5690895225
 31
0.0
 11
-13.3325110009
 21
38.6474599985
 31
0.0
 11
-13.2439601696
 21
38.6772046115
 31
0.0
  0
SPLINE
  5
321
100
AcDbEntity
  8
0
100
AcDbSpline
 62
7
  6
CONTINUOUS
 70
0
 71
3
 72
10
 73
6
 74
4
 42
0.0000001
 43
0.0000001
 44
0.0000000001
 12
0.0
 22
-0.4834864405
 32
0.0
 13
0.4739814676
 23
-0.0407129642
 33
0.0
 40
0.0
 40
0.0
 40
0.0
 40
0.0
 40
0.1908576466
 40
0.728429657
 40
1.0
 40
1.0
 40
1.0
 40
1.0
 10
-11.85
 20
39.6721348149
 30
0.0
 10
-11.85
 20
39.6413757868
 30
0.0
 10
-11.6740366835
 20
39.6410633059
 30
0.0
 10
-11.5486413675
 20
39.6109806025
 30
0.0
 10
-11.4253715811
 20
39.5975536947
 30
0.0
 10
-11.3824651445
 20
39.5938682168
 30
0.0
 11
-11.85
 21
39.6721348149
 31
0.0
 11
-11.7636001581
 21
39.6397291428
 31
0.0
 11
-11.5056605365
 21
39.6077960184
 31
0.0
 11
-11.3824651445
 21
39.5938682168
 31
0.0
  0
SPLINE
  5
322
100
AcDbEntity
  8
0
100
AcDbSpline
 62
7
  6
CONTINUOUS
 70
0
 71
3
 72
29
 73
25
 74
23
 42
0.0000001
 43
0.0000001
 44
0.0000000001
 12
22.5616747829
 22
-1.7458462318
 32
0.0
 13
22.5616747829
 23
1.7458462318
 33
0.0
 40
0.0
 40
0.0
 40
0.0
 40
0.0
 40
0.0118320759
 40
0.0377347141
 40
0.0703673276
 40
0.109257625
 40
0.1538405695
 40
0.2034674035
 40
0.2574154379
 40
0.3148987504
 40
0.3750797329
 40
0.4370813574
 40
0.5
 40
0.5629186426
 40
0.6249202671
 40
0.6851012496
 40
0.7425845621
 40
0.7965325965
 40
0.8461594305
 40
0.890742375
 40
0.9296326724
 40
0.9622652859
 40
0.9881679241
 40
1.0
 40
1.0
 40
1.0
 40
1.0
 10
-11.3558731071
 20
39.5917001482
 30
0.0
 10
-11.2668892907
 20
39.5848144865
 30
0.0
 10
-10.9651591398
 20
39.5726937499
 30
0.0
 10
-10.4456231828
 20
39.5422722153
 30
0.0
 10
-9.7037186636
 20
39.5172762653
 30
0.0
 10
-8.8272611487
 20
39.4916342171
 30
0.0
 10
-7.8197168698
 20
39.469336757
 30
0.0
 10
-6.6989273977
 20
39.4495713591
 30
0.0
 10
-5.4802147108
 20
39.4330427576
 30
0.0
 10
-4.1816643654
 20
39.4198918783
 30
0.0
 10
-2.8221162239
 20
39.4103582503
 30
0.0
 10
-1.4214224386
 20
39.404577653
 30
0.0
 10
0.0
 20
39.402641315
 30
0.0
 10
1.4214224386
 20
39.404577653
 30
0.0
 10
2.8221162239
 20
39.4103582503
 30
0.0
 10
4.1816643654
 20
39.4198918783
 30
0.0
 10
5.4802147108
 20
39.4330427576
 30
0.0
 10
6.6989273977
 20
39.4495713591
 30
0.0
 10
7.8197168698
 20
39.469336757
 30
0.0
 10
8.8272611487
 20
39.4916342171
 30
0.0
 10
9.7037186636
 20
39.5172762653
 30
0.0
 10
10.4456231828
 20
39.5422722153
 30
0.0
 10
10.9651591398
 20
39.5726937499
 30
0.0
 10
11.2668892907
 20
39.5848144865
 30
0.0
 10
11.3558731071
 20
39.5917001482
 30
0.0
 11
-11.3558731071
 21
39.5917001482
 31
0.0
 11
-11.0799424758
 21
39.5768010985
 31
0.0
 11
-10.492653904
 21
39.5471963589
 31
0.0
 11
-9.7523588108
 21
39.5194135033
 31
0.0
 11
-8.8698523658
 21
39.4938576683
 31
0.0
 11
-7.8580035002
 21
39.4709015155
 31
0.0
 11
-6.7315672488
 21
39.4508797974
 31
0.0
 11
-5.5069695887
 21
39.4340844757
 31
0.0
 11
-4.2020679115
 21
39.420760464
 31
0.0
 11
-2.8358906218
 21
39.4111020563
 31
0.0
 11
-1.428359661
 21
39.4052500941
 31
0.0
 11
0.0
 21
39.4032899121
 31
0.0
 11
1.428359661
 21
39.4052500941
 31
0.0
 11
2.8358906218
 21
39.4111020563
 31
0.0
 11
4.2020679115
 21
39.420760464
 31
0.0
 11
5.5069695887
 21
39.4340844757
 31
0.0
 11
6.7315672488
 21
39.4508797974
 31
0.0
 11
7.8580035002
 21
39.4709015155
 31
0.0
 11
8.8698523658
 21
39.4938576683
 31
0.0
 11
9.7523588108
 21
39.5194135033
 31
0.0
 11
10.492653904
 21
39.5471963589
 31
0.0
 11
11.0799424758
 21
39.5768010985
 31
0.0
 11
11.3558731071
 21
39.5917001482
 31
0.0
  0
SPLINE
  5
323
100
AcDbEntity
  8
0
100
AcDbSpline
 62
7
  6
CONTINUOUS
 70
0
 71
3
 72
10
 73
6
 74
4
 42
0.0000001
 43
0.0000001
 44
0.0000000001
 12
0.4739814676
 22
0.0407129642
 32
0.0
 13
-0.0
 23
0.4834864405
 33
0.0
 40
0.0
 40
0.0
 40
0.0
 40
0.0
 40
0.271570343
 40
0.8091423534
 40
1.0
 40
1.0
 40
1.0
 40
1.0
 10
11.3824651445
 20
39.5938682168
 30
0.0
 10
11.4253715811
 20
39.5975536947
 30
0.0
 10
11.5486413675
 20
39.6109806025
 30
0.0
 10
11.6740366835
 20
39.6410633059
 30
0.0
 10
11.85
 20
39.6413757868
 30
0.0
 10
11.85
 20
39.6721348149
 30
0.0
 11
11.3824651445
 21
39.5938682168
 31
0.0
 11
11.5056605365
 21
39.6077960184
 31
0.0
 11
11.7636001581
 21
39.6397291428
 31
0.0
 11
11.85
 21
39.6721348149
 31
0.0
  0
SPLINE
  5
324
100
AcDbEntity
  8
0
100
AcDbSpline
 62
7
  6
CONTINUOUS
 70
0
 71
3
 72
10
 73
6
 74
4
 42
0.0000001
 43
0.0000001
 44
0.0000000001
 12
0.0
 22
-0.6225357639
 32
0.0
 13
0.6428204572
 23
-0.0294673959
 33
0.0
 40
0.0
 40
0.0
 40
0.0
 40
0.0
 40
0.146878117
 40
0.5635824006
 40
1.0
 40
1.0
 40
1.0
 40
1.0
 10
-10.1
 20
41.4716715117
 30
0.0
 10
-10.1
 20
41.4411925514
 30
0.0
 10
-9.9229296158
 20
41.4457785179
 30
0.0
 10
-9.7625500855
 20
41.4063584836
 30
0.0
 10
-9.5843953441
 20
41.394648082
 30
0.0
 10
-9.4908826239
 20
41.3903613853
 30
0.0
 11
-10.1
 21
41.4716715117
 31
0.0
 11
-10.0135930999
 21
41.4417624699
 31
0.0
 11
-9.7558508455
 21
41.4123651802
 31
0.0
 11
-9.4908826239
 21
41.3903613853
 31
0.0
  0
SPLINE
  5
325
100
AcDbEntity
  8
0
100
AcDbSpline
 62
7
  6
CONTINUOUS
 70
0
 71
3
 72
27
 73
23
 74
21
 42
0.0000001
 43
0.0000001
 44
0.0000000001
 12
19.6183675751
 22
-0.8174210993
 32
0.0
 13
19.6183675751
 23
0.8174210993
 33
0.0
 40
0.0
 40
0.0
 40
0.0
 40
0.0
 40
0.006299106
 40
0.0372418724
 40
0.0760911876
 40
0.1221860723
 40
0.1747400339
 40
0.2328553329
 40
0.2955386838
 40
0.3617184173
 40
0.4302629093
 40
0.5
 40
0.5697370907
 40
0.6382815827
 40
0.7044613162
 40
0.7671446671
 40
0.8252599661
 40
0.8778139277
 40
0.9239088124
 40
0.9627581276
 40
0.993700894
 40
1.0
 40
1.0
 40
1.0
 40
1.0
 10
-9.4547969554
 20
41.3887873471
 30
0.0
 10
-9.4136042299
 20
41.3870710064
 30
0.0
 10
-9.1685923865
 20
41.3782712262
 30
0.0
 10
-8.7009786612
 20
41.3523236481
 30
0.0
 10
-7.9658990718
 20
41.3303814791
 30
0.0
 10
-7.1015578245
 20
41.3076386198
 30
0.0
 10
-6.1133234727
 20
41.2885261161
 30
0.0
 10
-5.0212700305
 20
41.2720919132
 30
0.0
 10
-3.8430654867
 20
41.2590719412
 30
0.0
 10
-2.5991790027
 20
41.2495756707
 30
0.0
 10
-1.3108005703
 20
41.2438145963
 30
0.0
 10
0.0
 20
41.2418813239
 30
0.0
 10
1.3108005703
 20
41.2438145963
 30
0.0
 10
2.5991790027
 20
41.2495756707
 30
0.0
 10
3.8430654867
 20
41.2590719412
 30
0.0
 10
5.0212700305
 20
41.2720919132
 30
0.0
 10
6.1133234727
 20
41.2885261161
 30
0.0
 10
7.1015578245
 20
41.3076386198
 30
0.0
 10
7.9658990718
 20
41.3303814791
 30
0.0
 10
8.7009786612
 20
41.3523236481
 30
0.0
 10
9.1685923865
 20
41.3782712262
 30
0.0
 10
9.4136042299
 20
41.3870710064
 30
0.0
 10
9.4547969554
 20
41.3887873471
 30
0.0
 11
-9.4547969554
 21
41.3887873471
 31
0.0
 11
-9.3311832784
 21
41.3839826382
 31
0.0
 11
-8.7468565782
 21
41.3571004771
 31
0.0
 11
-8.0128687369
 21
41.3321786582
 31
0.0
 11
-7.14177849
 21
41.3096436008
 31
0.0
 11
-6.148490433
 21
41.2898808858
 31
0.0
 11
-5.05
 21
41.2732286588
 31
0.0
 11
-3.8651026669
 21
41.259971844
 31
0.0
 11
-2.6140723555
 21
41.2503372693
 31
0.0
 11
-1.3183145414
 21
41.2444897848
 31
0.0
 11
0.0
 21
41.2425294426
 31
0.0
 11
1.3183145414
 21
41.2444897848
 31
0.0
 11
2.6140723555
 21
41.2503372693
 31
0.0
 11
3.8651026669
 21
41.259971844
 31
0.0
 11
5.05
 21
41.2732286588
 31
0.0
 11
6.148490433
 21
41.2898808858
 31
0.0
 11
7.14177849
 21
41.3096436008
 31
0.0
 11
8.0128687369
 21
41.3321786582
 31
0.0
 11
8.7468565782
 21
41.3571004771
 31
0.0
 11
9.3311832784
 21
41.3839826382
 31
0.0
 11
9.4547969554
 21
41.3887873471
 31
0.0
  0
SPLINE
  5
326
100
AcDbEntity
  8
0
100
AcDbSpline
 62
7
  6
CONTINUOUS
 70
0
 71
3
 72
10
 73
6
 74
4
 42
0.0000001
 43
0.0000001
 44
0.0000000001
 12
0.6428204572
 22
0.0294673959
 32
0.0
 13
-0.0
 23
0.6225357639
 33
0.0
 40
0.0
 40
0.0
 40
0.0
 40
0.0
 40
0.4364175994
 40
0.853121883
 40
1.0
 40
1.0
 40
1.0
 40
1.0
 10
9.4908826239
 20
41.3903613853
 30
0.0
 10
9.5843953441
 20
41.394648082
 30
0.0
 10
9.7625500855
 20
41.4063584836
 30
0.0
 10
9.9229296158
 20
41.4457785179
 30
0.0
 10
10.1
 20
41.4411925514
 30
0.0
 10
10.1
 20
41.4716715117
 30
0.0
 11
9.4908826239
 21
41.3903613853
 31
0.0
 11
9.7558508455
 21
41.4123651802
 31
0.0
 11
10.0135930999
 21
41.4417624699
 31
0.0
 11
10.1
 21
41.4716715117
 31
0.0
  0
SPLINE
  5
327
100
AcDbEntity
  8
0
100
AcDbSpline
 62
7
  6
CONTINUOUS
 70
0
 71
3
 72
10
 73
6
 74
4
 42
0.0000001
 43
0.0000001
 44
0.0000000001
 12
0.0
 22
-0.5086383938
 32
0.0
 13
0.517852854
 23
-0.0272664614
 33
0.0
 40
0.0
 40
0.0
 40
0.0
 40
0.0
 40
0.1610940388
 40
0.6196636459
 40
1.0
 40
1.0
 40
1.0
 40
1.0
 10
-8.35
 20
43.2712082085
 30
0.0
 10
-8.35
 20
43.2438953374
 30
0.0
 10
-8.190164605
 20
43.2502607383
 30
0.0
 10
-8.0595549794
 20
43.2177422912
 30
0.0
 10
-7.919940457
 20
43.2068606619
 30
0.0
 10
-7.8542877015
 20
43.203403853
 30
0.0
 11
-8.35
 21
43.2712082085
 31
0.0
 11
-8.2722276494
 21
43.2454129026
 31
0.0
 11
-8.0403593494
 21
43.2200981144
 31
0.0
 11
-7.8542877015
 21
43.203403853
 31
0.0
  0
SPLINE
  5
328
100
AcDbEntity
  8
0
100
AcDbSpline
 62
7
  6
CONTINUOUS
 70
0
 71
3
 72
26
 73
22
 74
20
 42
0.0000001
 43
0.0000001
 44
0.0000000001
 12
15.9825373574
 22
-0.8415271528
 32
0.0
 13
15.9825373574
 23
0.8415271528
 33
0.0
 40
0.0
 40
0.0
 40
0.0
 40
0.0
 40
0.0120376044
 40
0.0454692287
 40
0.0873564633
 40
0.1369228122
 40
0.1932471938
 40
0.2552819081
 40
0.3218724944
 40
0.3917794055
 40
0.4637011924
 40
0.5362988076
 40
0.6082205945
 40
0.6781275056
 40
0.7447180919
 40
0.8067528062
 40
0.8630771878
 40
0.9126435367
 40
0.9545307713
 40
0.9879623956
 40
1.0
 40
1.0
 40
1.0
 40
1.0
 10
-7.8542877015
 20
43.203403853
 30
0.0
 10
-7.790157214
 20
43.200027196
 30
0.0
 10
-7.5394299426
 20
43.1925945836
 30
0.0
 10
-7.0937218771
 20
43.1685470996
 30
0.0
 10
-6.4358167952
 20
43.1501913922
 30
0.0
 10
-5.6643843649
 20
43.1310537673
 30
0.0
 10
-4.785288115
 20
43.1153161101
 30
0.0
 10
-3.817750789
 20
43.1020595139
 30
0.0
 10
-2.7788856787
 20
43.0919557698
 30
0.0
 10
-1.6883204941
 20
43.085085774
 30
0.0
 10
-0.5662875385
 20
43.0816213955
 30
0.0
 10
0.5662875385
 20
43.0816213955
 30
0.0
 10
1.6883204941
 20
43.085085774
 30
0.0
 10
2.7788856787
 20
43.0919557698
 30
0.0
 10
3.817750789
 20
43.1020595139
 30
0.0
 10
4.785288115
 20
43.1153161101
 30
0.0
 10
5.6643843649
 20
43.1310537673
 30
0.0
 10
6.4358167952
 20
43.1501913922
 30
0.0
 10
7.0937218771
 20
43.1685470996
 30
0.0
 10
7.5394299426
 20
43.1925945836
 30
0.0
 10
7.790157214
 20
43.200027196
 30
0.0
 10
7.8542877015
 20
43.203403853
 30
0.0
 11
-7.8542877015
 21
43.203403853
 31
0.0
 11
-7.6587143676
 21
43.1957354106
 31
0.0
 11
-7.134402028
 21
43.1727786223
 31
0.0
 11
-6.4771892774
 21
43.1516553909
 31
0.0
 11
-5.6993187459
 21
43.1327592022
 31
0.0
 11
-4.8152806897
 21
43.1164420566
 31
0.0
 11
-3.8415430651
 21
43.1030079116
 31
0.0
 11
-2.7962447616
 21
43.0927070199
 31
0.0
 11
-1.698857709
 21
43.0857312676
 31
0.0
 11
-0.5698241516
 21
43.0822105997
 31
0.0
 11
0.5698241516
 21
43.0822105997
 31
0.0
 11
1.698857709
 21
43.0857312676
 31
0.0
 11
2.7962447616
 21
43.0927070199
 31
0.0
 11
3.8415430651
 21
43.1030079116
 31
0.0
 11
4.8152806897
 21
43.1164420566
 31
0.0
 11
5.6993187459
 21
43.1327592022
 31
0.0
 11
6.4771892774
 21
43.1516553909
 31
0.0
 11
7.134402028
 21
43.1727786223
 31
0.0
 11
7.6587143676
 21
43.1957354106
 31
0.0
 11
7.8542877015
 21
43.203403853
 31
0.0
  0
SPLINE
  5
329
100
AcDbEntity
  8
0
100
AcDbSpline
 62
7
  6
CONTINUOUS
 70
0
 71
3
 72
10
 73
6
 74
4
 42
0.0000001
 43
0.0000001
 44
0.0000000001
 12
0.517852854
 22
0.0272664614
 32
0.0
 13
0.0
 23
0.5086383938
 33
0.0
 40
0.0
 40
0.0
 40
0.0
 40
0.0
 40
0.3803363541
 40
0.8389059612
 40
1.0
 40
1.0
 40
1.0
 40
1.0
 10
7.8542877015
 20
43.203403853
 30
0.0
 10
7.919940457
 20
43.2068606619
 30
0.0
 10
8.0595549794
 20
43.2177422912
 30
0.0
 10
8.190164605
 20
43.2502607383
 30
0.0
 10
8.35
 20
43.2438953374
 30
0.0
 10
8.35
 20
43.2712082085
 30
0.0
 11
7.8542877015
 21
43.203403853
 31
0.0
 11
8.0403593494
 21
43.2200981144
 31
0.0
 11
8.2722276494
 21
43.2454129026
 31
0.0
 11
8.35
 21
43.2712082085
 31
0.0
  0
SPLINE
  5
32A
100
AcDbEntity
  8
0
100
AcDbSpline
 62
7
  6
CONTINUOUS
 70
0
 71
3
 72
10
 73
6
 74
4
 42
0.0000001
 43
0.0000001
 44
0.0000000001
 12
0.0
 22
-0.4972450617
 32
0.0
 13
0.5145635336
 23
-0.0114193253
 33
0.0
 40
0.0
 40
0.0
 40
0.0
 40
0.0
 40
0.1165958762
 40
0.4522380988
 40
1.0
 40
1.0
 40
1.0
 40
1.0
 10
-4.1
 20
45.0707449052
 30
0.0
 10
-4.1
 20
45.0514193307
 30
0.0
 10
-3.983946754
 20
45.062580105
 30
0.0
 10
-3.8578282901
 20
45.0293885133
 30
0.0
 10
-3.6997951464
 20
45.0285582222
 30
0.0
 10
-3.6058423799
 20
45.0264731984
 30
0.0
 11
-4.1
 21
45.0707449052
 31
0.0
 11
-4.044081344
 21
45.0554346345
 31
0.0
 11
-3.877850691
 21
45.040541988
 31
0.0
 11
-3.6058423799
 21
45.0264731984
 31
0.0
  0
LINE
  5
32B
100
AcDbEntity
  8
0
100
AcDbLine
 62
7
  6
CONTINUOUS
 10
-3.6058423799
 20
45.0264731984
 11
-3.6017435452
 21
45.0263811873
  0
SPLINE
  5
32C
100
AcDbEntity
  8
0
100
AcDbSpline
 62
7
  6
CONTINUOUS
 70
0
 71
3
 72
20
 73
16
 74
14
 42
0.0000001
 43
0.0000001
 44
0.0000000001
 12
7.4464610699
 22
-0.1690564419
 32
0.0
 13
7.4464610699
 23
0.1690564419
 33
0.0
 40
0.0
 40
0.0
 40
0.0
 40
0.0
 40
0.0508864644
 40
0.1145609141
 40
0.1887407943
 40
0.2714054202
 40
0.3603018848
 40
0.4530069
 40
0.5469931
 40
0.6396981152
 40
0.7285945798
 40
0.8112592057
 40
0.8854390859
 40
0.9491135356
 40
1.0
 40
1.0
 40
1.0
 40
1.0
 10
-3.6017435452
 20
45.0263811873
 30
0.0
 10
-3.4754355198
 20
45.0235136258
 30
0.0
 10
-3.2073257129
 20
45.0107559804
 30
0.0
 10
-2.7507669276
 20
45.0016947408
 30
0.0
 10
-2.2223999492
 20
44.9919340807
 30
0.0
 10
-1.6319049183
 20
44.9850051904
 30
0.0
 10
-0.9973714707
 20
44.9800787149
 30
0.0
 10
-0.3354905845
 20
44.9776229037
 30
0.0
 10
0.3354905845
 20
44.9776229037
 30
0.0
 10
0.9973714707
 20
44.9800787149
 30
0.0
 10
1.6319049183
 20
44.9850051904
 30
0.0
 10
2.2223999492
 20
44.9919340807
 30
0.0
 10
2.7507669276
 20
45.0016947408
 30
0.0
 10
3.2073257129
 20
45.0107559804
 30
0.0
 10
3.4754355198
 20
45.0235136258
 30
0.0
 10
3.6017435452
 20
45.0263811873
 30
0.0
 11
-3.6017435452
 21
45.0263811873
 31
0.0
 11
-3.2354760885
 21
45.0136120256
 31
0.0
 11
-2.7768544437
 21
45.0023092887
 31
0.0
 11
-2.2424874483
 21
44.9928732971
 31
0.0
 11
-1.6469512411
 21
44.98556144
 31
0.0
 11
-1.0064904973
 21
44.9805731657
 31
0.0
 11
-0.3385753164
 21
44.9780445414
 31
0.0
 11
0.3385753164
 21
44.9780445414
 31
0.0
 11
1.0064904973
 21
44.9805731657
 31
0.0
 11
1.6469512411
 21
44.98556144
 31
0.0
 11
2.2424874483
 21
44.9928732971
 31
0.0
 11
2.7768544437
 21
45.0023092887
 31
0.0
 11
3.2354760885
 21
45.0136120256
 31
0.0
 11
3.6017435452
 21
45.0263811873
 31
0.0
  0
LINE
  5
32D
100
AcDbEntity
  8
0
100
AcDbLine
 62
7
  6
CONTINUOUS
 10
3.6017435452
 20
45.0263811873
 11
3.6058423799
 21
45.0264731984
  0
SPLINE
  5
32E
100
AcDbEntity
  8
0
100
AcDbSpline
 62
7
  6
CONTINUOUS
 70
0
 71
3
 72
10
 73
6
 74
4
 42
0.0000001
 43
0.0000001
 44
0.0000000001
 12
0.5145635336
 22
0.0114193253
 32
0.0
 13
-0.0
 23
0.4972450617
 33
0.0
 40
0.0
 40
0.0
 40
0.0
 40
0.0
 40
0.5477619012
 40
0.8834041238
 40
1.0
 40
1.0
 40
1.0
 40
1.0
 10
3.6058423799
 20
45.0264731984
 30
0.0
 10
3.6997951464
 20
45.0285582222
 30
0.0
 10
3.8578282901
 20
45.0293885133
 30
0.0
 10
3.983946754
 20
45.062580105
 30
0.0
 10
4.1
 20
45.0514193307
 30
0.0
 10
4.1
 20
45.0707449052
 30
0.0
 11
3.6058423799
 21
45.0264731984
 31
0.0
 11
3.877850691
 21
45.040541988
 31
0.0
 11
4.044081344
 21
45.0554346345
 31
0.0
 11
4.1
 21
45.0707449052
 31
0.0
  0
SPLINE
  5
32F
100
AcDbEntity
  8
0
100
AcDbSpline
 62
7
  6
CONTINUOUS
 70
0
 71
3
 72
20
 73
16
 74
14
 42
0.0000001
 43
0.0000001
 44
0.0000000001
 12
0.9535426023
 22
1.2117111228
 32
0.0
 13
0.9535426023
 23
-1.2117111228
 33
0.0
 40
0.0
 40
0.0
 40
0.0
 40
0.0
 40
0.0123596862
 40
0.0553578501
 40
0.1241536295
 40
0.2147717897
 40
0.3219551275
 40
0.4394799193
 40
0.5605200807
 40
0.6780448725
 40
0.7852282103
 40
0.8758463705
 40
0.9446421499
 40
0.9876403138
 40
1.0
 40
1.0
 40
1.0
 40
1.0
 10
-0.9987749934
 20
46.4743281914
 30
0.0
 10
-0.9948464977
 20
46.4793203145
 30
0.0
 10
-0.9380452887
 20
46.4694844918
 30
0.0
 10
-0.8763054372
 20
46.4872756
 30
0.0
 10
-0.7306302968
 20
46.4838356023
 30
0.0
 10
-0.5582918316
 20
46.4902829939
 30
0.0
 10
-0.3473479548
 20
46.4916310218
 30
0.0
 10
-0.118343947
 20
46.4931819522
 30
0.0
 10
0.118343947
 20
46.4931819522
 30
0.0
 10
0.3473479548
 20
46.4916310218
 30
0.0
 10
0.5582918316
 20
46.4902829939
 30
0.0
 10
0.7306302968
 20
46.4838356023
 30
0.0
 10
0.8763054372
 20
46.4872756
 30
0.0
 10
0.9380452887
 20
46.4694844918
 30
0.0
 10
0.9948464977
 20
46.4793203145
 30
0.0
 10
0.9987749934
 20
46.4743281914
 30
0.0
 11
-0.9987749934
 21
46.4743281914
 31
0.0
 11
-0.9709418174
 21
46.4758139926
 31
0.0
 11
-0.8854560257
 21
46.4809278879
 31
0.0
 11
-0.7485107482
 21
46.4854290432
 31
0.0
 11
-0.5680647467
 21
46.4890558678
 31
0.0
 11
-0.354604887
 21
46.4915975837
 31
0.0
 11
-0.1205366803
 21
46.4929064757
 31
0.0
 11
0.1205366803
 21
46.4929064757
 31
0.0
 11
0.354604887
 21
46.4915975837
 31
0.0
 11
0.5680647467
 21
46.4890558678
 31
0.0
 11
0.7485107482
 21
46.4854290432
 31
0.0
 11
0.8854560257
 21
46.4809278879
 31
0.0
 11
0.9709418174
 21
46.4758139926
 31
0.0
 11
0.9987749934
 21
46.4743281914
 31
0.0
  0
SPLINE
  5
330
100
AcDbEntity
  8
0
100
AcDbSpline
 62
7
  6
CONTINUOUS
 70
0
 71
3
 72
14
 73
10
 74
8
 42
0.0000001
 43
0.0000001
 44
0.0000000001
 12
2.5469585715
 22
0.5041118565
 32
0.0
 13
2.3705690943
 23
0.0407809498
 33
0.0
 40
0.0
 40
0.0
 40
0.0
 40
0.0
 40
0.0153588936
 40
0.0999083865
 40
0.2382739544
 40
0.4274692073
 40
0.6633052688
 40
0.9405326319
 40
1.0
 40
1.0
 40
1.0
 40
1.0
 10
-5.9797289128
 20
44.5897161797
 30
0.0
 10
-5.9666894242
 20
44.5922970465
 30
0.0
 10
-5.8529737416
 20
44.5870095854
 30
0.0
 10
-5.7087733428
 20
44.6238949132
 30
0.0
 10
-5.3577795205
 20
44.6289980502
 30
0.0
 10
-4.9236462497
 20
44.6510791444
 30
0.0
 10
-4.364555202
 20
44.6644587073
 30
0.0
 10
-3.9129860585
 20
44.6742645614
 30
0.0
 10
-3.6469921233
 20
44.6790067184
 30
0.0
 10
-3.6000016216
 20
44.679815097
 30
0.0
 11
-5.9797289128
 21
44.5897161797
 31
0.0
 11
-5.9329849574
 21
44.5911618302
 31
0.0
 11
-5.7334368347
 21
44.6109968544
 31
0.0
 11
-5.4058132074
 21
44.6299355913
 31
0.0
 11
-4.9574326459
 21
44.647554981
 31
0.0
 11
-4.398311231
 21
44.6634614353
 31
0.0
 11
-3.7409388112
 21
44.6772996304
 31
0.0
 11
-3.6000016216
 21
44.679815097
 31
0.0
  0
SPLINE
  5
331
100
AcDbEntity
  8
0
100
AcDbSpline
 62
7
  6
CONTINUOUS
 70
0
 71
3
 72
14
 73
10
 74
8
 42
0.0000001
 43
0.0000001
 44
0.0000000001
 12
2.3705690943
 22
-0.0407809498
 32
0.0
 13
2.5469585715
 23
-0.5041118565
 33
0.0
 40
0.0
 40
0.0
 40
0.0
 40
0.0
 40
0.0594673681
 40
0.3366947312
 40
0.5725307927
 40
0.7617260456
 40
0.9000916135
 40
0.9846411064
 40
1.0
 40
1.0
 40
1.0
 40
1.0
 10
3.6000016216
 20
44.679815097
 30
0.0
 10
3.6469921233
 20
44.6790067184
 30
0.0
 10
3.9129860585
 20
44.6742645614
 30
0.0
 10
4.364555202
 20
44.6644587073
 30
0.0
 10
4.9236462497
 20
44.6510791444
 30
0.0
 10
5.3577795205
 20
44.6289980502
 30
0.0
 10
5.7087733428
 20
44.6238949132
 30
0.0
 10
5.8529737416
 20
44.5870095854
 30
0.0
 10
5.9666894242
 20
44.5922970465
 30
0.0
 10
5.9797289128
 20
44.5897161797
 30
0.0
 11
3.6000016216
 21
44.679815097
 31
0.0
 11
3.7409388112
 21
44.6772996304
 31
0.0
 11
4.398311231
 21
44.6634614353
 31
0.0
 11
4.9574326459
 21
44.647554981
 31
0.0
 11
5.4058132074
 21
44.6299355913
 31
0.0
 11
5.7334368347
 21
44.6109968544
 31
0.0
 11
5.9329849574
 21
44.5911618302
 31
0.0
 11
5.9797289128
 21
44.5897161797
 31
0.0
  0
SPLINE
  5
332
100
AcDbEntity
  8
RACCORDO
100
AcDbSpline
 62
253
  6
CONTINUOUS
 70
0
 71
3
 72
8
 73
4
 74
2
 42
0.0000001
 43
0.0000001
 44
0.0000000001
 12
-0.0
 22
0.0417945035
 32
0.0
 13
-0.0538150356
 23
0.0070145303
 33
0.0
 40
0.0
 40
0.0
 40
0.0
 40
0.0
 40
1.0
 40
1.0
 40
1.0
 40
1.0
 10
9.8776457135
 20
42.2281707142
 30
0.0
 10
9.8776457135
 20
42.2421022154
 30
0.0
 10
9.8607008471
 20
42.2458879041
 30
0.0
 10
9.8427625018
 20
42.2482260809
 30
0.0
 11
9.8776457135
 21
42.2281707142
 31
0.0
 11
9.8427625018
 21
42.2482260809
 31
0.0
  0
SPLINE
  5
333
100
AcDbEntity
  8
0
100
AcDbSpline
 62
7
  6
CONTINUOUS
 70
0
 71
3
 72
29
 73
25
 74
23
 42
0.0000001
 43
0.0000001
 44
0.0000000001
 12
0.0
 22
-15.7143409904
 32
0.0
 13
-0.0
 23
15.7143409904
 33
0.0
 40
0.0
 40
0.0
 40
0.0
 40
0.0
 40
0.0053343182
 40
0.0205668846
 40
0.045520658
 40
0.0797081588
 40
0.1224407337
 40
0.1728520868
 40
0.2299181545
 40
0.2924787159
 40
0.3592613351
 40
0.4289074259
 40
0.5
 40
0.5710925741
 40
0.6407386649
 40
0.7075212841
 40
0.7700818455
 40
0.8271479132
 40
0.8775592663
 40
0.9202918412
 40
0.954479342
 40
0.9794331154
 40
0.9946656818
 40
1.0
 40
1.0
 40
1.0
 40
1.0
 10
-7.85
 20
42.7713369038
 30
0.0
 10
-7.85
 20
42.7433951385
 30
0.0
 10
-7.6853411218
 20
42.7522557757
 30
0.0
 10
-7.5022442034
 20
42.7060587141
 30
0.0
 10
-7.0829652728
 20
42.6980407244
 30
0.0
 10
-6.562754958
 20
42.6707753543
 30
0.0
 10
-5.8911835467
 20
42.6533627721
 30
0.0
 10
-5.1062339848
 20
42.6350914791
 30
0.0
 10
-4.2151337458
 20
42.6204512239
 30
0.0
 10
-3.2389385235
 20
42.6084351861
 30
0.0
 10
-2.1965947212
 20
42.5997389403
 30
0.0
 10
-1.1095994839
 20
42.5944239296
 30
0.0
 10
0.0
 20
42.5926439608
 30
0.0
 10
1.1095994839
 20
42.5944239296
 30
0.0
 10
2.1965947212
 20
42.5997389403
 30
0.0
 10
3.2389385235
 20
42.6084351861
 30
0.0
 10
4.2151337458
 20
42.6204512239
 30
0.0
 10
5.1062339848
 20
42.6350914791
 30
0.0
 10
5.8911835467
 20
42.6533627721
 30
0.0
 10
6.562754958
 20
42.6707753543
 30
0.0
 10
7.0829652728
 20
42.6980407244
 30
0.0
 10
7.5022442034
 20
42.7060587141
 30
0.0
 10
7.6853411218
 20
42.7522557757
 30
0.0
 10
7.85
 20
42.7433951385
 30
0.0
 10
7.85
 20
42.7713369038
 30
0.0
 11
-7.85
 21
42.7713369038
 31
0.0
 11
-7.7700983188
 21
42.7459912618
 31
0.0
 11
-7.5320198429
 21
42.7211615839
 31
0.0
 11
-7.1406111635
 21
42.6973533309
 31
0.0
 11
-6.6038402327
 21
42.67505117
 31
0.0
 11
-5.9326341587
 21
42.6547091091
 31
0.0
 11
-5.1406567615
 21
42.6367412537
 31
0.0
 11
-4.244030417
 21
42.6215133776
 31
0.0
 11
-3.2610078521
 21
42.6093354764
 31
0.0
 11
-2.2116005712
 21
42.6004554571
 31
0.0
 11
-1.1171714804
 21
42.5950540913
 31
0.0
 11
0.0
 21
42.5932413352
 31
0.0
 11
1.1171714804
 21
42.5950540913
 31
0.0
 11
2.2116005712
 21
42.6004554571
 31
0.0
 11
3.2610078521
 21
42.6093354764
 31
0.0
 11
4.244030417
 21
42.6215133776
 31
0.0
 11
5.1406567615
 21
42.6367412537
 31
0.0
 11
5.9326341587
 21
42.6547091091
 31
0.0
 11
6.6038402327
 21
42.67505117
 31
0.0
 11
7.1406111635
 21
42.6973533309
 31
0.0
 11
7.5320198429
 21
42.7211615839
 31
0.0
 11
7.7700983188
 21
42.7459912618
 31
0.0
 11
7.85
 21
42.7713369038
 31
0.0
  0
SPLINE
  5
334
100
AcDbEntity
  8
RACCORDO
100
AcDbSpline
 62
253
  6
CONTINUOUS
 70
0
 71
3
 72
28
 73
24
 74
22
 42
0.0000001
 43
0.0000001
 44
0.0000000001
 12
-0.0000000008
 22
-16.7160057439
 32
0.0
 13
0.0000000009
 23
16.7160057439
 33
0.0
 40
0.0
 40
0.0
 40
0.0
 40
0.0
 40
0.0035862176
 40
0.0154579599
 40
0.0387116054
 40
0.0735615956
 40
0.1194557047
 40
0.1750488509
 40
0.2384974125
 40
0.3086241713
 40
0.383264559
 40
0.4610301805
 40
0.539518749
 40
0.6172710975
 40
0.6918849796
 40
0.7619730797
 40
0.8253710817
 40
0.8809031681
 40
0.9267159952
 40
0.9614642549
 40
0.9846192522
 40
0.9964307605
 40
1.0
 40
1.0
 40
1.0
 40
1.0
 10
-8.35
 20
43.7112162267
 30
0.0
 10
-8.35
 20
43.6912338153
 30
0.0
 10
-8.222742886
 20
43.6886298075
 30
0.0
 10
-8.0543500876
 20
43.6506227388
 30
0.0
 10
-7.6344993589
 20
43.6370482292
 30
0.0
 10
-7.0704080821
 20
43.6074001018
 30
0.0
 10
-6.3050629864
 20
43.5864752429
 30
0.0
 10
-5.3884118107
 20
43.5653077447
 30
0.0
 10
-4.3337904511
 20
43.548454492
 30
0.0
 10
-3.1739042998
 20
43.5351459832
 30
0.0
 10
-1.9339154015
 20
43.526139823
 30
0.0
 10
-0.6473955826
 20
43.5215716613
 30
0.0
 10
0.6565021963
 20
43.5215877816
 30
0.0
 10
1.9428002424
 20
43.5261877056
 30
0.0
 10
3.1823518882
 20
43.5352245595
 30
0.0
 10
4.3415928197
 20
43.5485612928
 30
0.0
 10
5.3953761991
 20
43.5654412828
 30
0.0
 10
6.3109533034
 20
43.5866255284
 30
0.0
 10
7.0749275819
 20
43.6075720338
 30
0.0
 10
7.6374951113
 20
43.6371739827
 30
0.0
 10
8.0557490349
 20
43.6508121227
 30
0.0
 10
8.2234250675
 20
43.6886189778
 30
0.0
 10
8.35
 20
43.6913284176
 30
0.0
 10
8.35
 20
43.7112162267
 30
0.0
 11
-8.35
 21
43.7112162267
 31
0.0
 11
-8.29418343
 21
43.6893488676
 31
0.0
 11
-8.097239873
 21
43.6649585328
 31
0.0
 11
-7.7094367453
 21
43.6384500454
 31
0.0
 11
-7.127461118
 21
43.612528169
 31
0.0
 11
-6.3606717597
 21
43.5884856126
 31
0.0
 11
-5.4316171368
 21
43.5673348226
 31
0.0
 11
-4.3711554403
 21
43.5498081692
 31
0.0
 11
-3.1989947693
 21
43.5362309368
 31
0.0
 11
-1.951339601
 21
43.5270224995
 31
0.0
 11
-0.6514174069
 21
43.5223543531
 31
0.0
 11
0.6605979559
 21
43.5223707674
 31
0.0
 11
1.9602981592
 21
43.527071467
 31
0.0
 11
3.2075100149
 21
43.5363111874
 31
0.0
 11
4.3790240823
 21
43.549917986
 31
0.0
 11
5.4386400636
 21
43.5674714351
 31
0.0
 11
6.3666732079
 21
43.5886458836
 31
0.0
 11
7.1321027945
 21
43.612700922
 31
0.0
 11
7.7123767488
 21
43.6386105785
 31
0.0
 11
8.0985300359
 21
43.6650749257
 31
0.0
 11
8.2944665789
 21
43.689404218
 31
0.0
 11
8.35
 21
43.7112162267
 31
0.0
  0
SPLINE
  5
335
100
AcDbEntity
  8
RACCORDO
100
AcDbSpline
 62
253
  6
CONTINUOUS
 70
0
 71
3
 72
8
 73
4
 74
2
 42
0.0000001
 43
0.0000001
 44
0.0000000001
 12
0.0
 22
-0.0583505813
 32
0.0
 13
0.0767785375
 23
-0.0037403118
 33
0.0
 40
0.0
 40
0.0
 40
0.0
 40
0.0
 40
1.0
 40
1.0
 40
1.0
 40
1.0
 10
-8.1276457135
 20
44.0009193885
 30
0.0
 10
-8.1276457135
 20
43.9814691948
 30
0.0
 10
-8.0989087056
 20
43.9808810158
 30
0.0
 10
-8.0733158598
 20
43.9796342452
 30
0.0
 11
-8.1276457135
 21
44.0009193885
 31
0.0
 11
-8.0733158598
 21
43.9796342452
 31
0.0
  0
SPLINE
  5
336
100
AcDbEntity
  8
RACCORDO
100
AcDbSpline
 62
253
  6
CONTINUOUS
 70
0
 71
3
 72
27
 73
23
 74
21
 42
0.0000001
 43
0.0000001
 44
0.0000000001
 12
21.3238244004
 22
-1.038802706
 32
0.0
 13
5.184601935
 23
12.7906848788
 33
0.0
 40
0.0
 40
0.0
 40
0.0
 40
0.0
 40
0.0119195205
 40
0.0352664649
 40
0.0702564062
 40
0.1163347797
 40
0.172151143
 40
0.2358544713
 40
0.3062628077
 40
0.3812029022
 40
0.4592807786
 40
0.5380845061
 40
0.616149057
 40
0.6910625396
 40
0.7614320642
 40
0.8250846304
 40
0.8808396908
 40
0.9268364588
 40
0.961724258
 40
0.9849721682
 40
0.9968311958
 40
1.0
 40
1.0
 40
1.0
 40
1.0
 10
-8.0733158598
 20
43.9796342452
 30
0.0
 10
-7.9885926058
 20
43.9755069018
 30
0.0
 10
-7.8398680396
 20
43.9419408656
 30
0.0
 10
-7.4311976757
 20
43.9287257648
 30
0.0
 10
-6.8821279589
 20
43.8998683439
 30
0.0
 10
-6.13716355
 20
43.8795001104
 30
0.0
 10
-5.2449222327
 20
43.8588964272
 30
0.0
 10
-4.2183847471
 20
43.8424919411
 30
0.0
 10
-3.089385539
 20
43.8295377623
 30
0.0
 10
-1.8824166606
 20
43.8207714641
 30
0.0
 10
-0.6301559144
 20
43.8163249075
 30
0.0
 10
0.6390200296
 20
43.8163406079
 30
0.0
 10
1.8910649143
 20
43.8208180496
 30
0.0
 10
3.0976082004
 20
43.8296142418
 30
0.0
 10
4.2259793858
 20
43.8425958683
 30
0.0
 10
5.2517012318
 20
43.8590263829
 30
0.0
 10
6.1428971059
 20
43.8796463826
 30
0.0
 10
6.8865272201
 20
43.9000356028
 30
0.0
 10
7.4341137984
 20
43.9288482466
 30
0.0
 10
7.8412298662
 20
43.9421250005
 30
0.0
 10
8.0026914669
 20
43.978528938
 30
0.0
 10
8.1210696414
 20
43.9814108836
 30
0.0
 10
8.1265459709
 20
43.9949212756
 30
0.0
 11
-8.0733158598
 21
43.9796342452
 31
0.0
 11
-7.8816149221
 21
43.955893891
 31
0.0
 11
-7.5041399035
 21
43.9300909936
 31
0.0
 11
-6.9376615872
 21
43.9048594866
 31
0.0
 11
-6.1912915262
 21
43.8814570953
 31
0.0
 11
-5.286977078
 21
43.8608694948
 31
0.0
 11
-4.2547547099
 21
43.8438095657
 31
0.0
 11
-3.1138078972
 21
43.8305938421
 31
0.0
 11
-1.8993768625
 21
43.8216306228
 31
0.0
 11
-0.6340706463
 21
43.8170867655
 31
0.0
 11
0.6430067238
 21
43.8171027435
 31
0.0
 11
1.908096873
 21
43.8216782724
 31
0.0
 11
3.1220964048
 21
43.8306719439
 31
0.0
 11
4.262413865
 21
43.8439164329
 31
0.0
 11
5.2938130482
 21
43.8610024454
 31
0.0
 11
6.1971332522
 21
43.8816130666
 31
0.0
 11
6.9421797969
 21
43.9050275972
 31
0.0
 11
7.5070017049
 21
43.9302472274
 31
0.0
 11
7.8828709831
 21
43.9560071177
 31
0.0
 11
8.0735914352
 21
43.9796881302
 31
0.0
 11
8.1265459709
 21
43.9949212756
 31
0.0
  0
SPLINE
  5
337
100
AcDbEntity
  8
RACCORDO
100
AcDbSpline
 62
253
  6
CONTINUOUS
 70
0
 71
3
 72
8
 73
4
 74
2
 42
0.0000001
 43
0.0000001
 44
0.0000000001
 12
0.002150314
 22
0.0053049375
 32
0.0
 13
-0.0
 23
0.0067213563
 33
0.0
 40
0.0
 40
0.0
 40
0.0
 40
0.0
 40
1.0
 40
1.0
 40
1.0
 40
1.0
 10
8.1265459709
 20
43.9949212756
 30
0.0
 10
8.1272627422
 20
43.9966895881
 30
0.0
 10
8.1276457135
 20
43.9986789364
 30
0.0
 10
8.1276457135
 20
44.0009193885
 30
0.0
 11
8.1265459709
 21
43.9949212756
 31
0.0
 11
8.1276457135
 21
44.0009193885
 31
0.0
  0
SPLINE
  5
338
100
AcDbEntity
  8
0
100
AcDbSpline
 62
7
  6
CONTINUOUS
 70
0
 71
3
 72
25
 73
21
 74
19
 42
0.0000001
 43
0.0000001
 44
0.0000000001
 12
0.0
 22
-7.206231992
 32
0.0
 13
-0.0
 23
7.206231992
 33
0.0
 40
0.0
 40
0.0
 40
0.0
 40
0.0
 40
0.0078405846
 40
0.0304592868
 40
0.0673045729
 40
0.117278032
 40
0.1788689969
 40
0.25021006
 40
0.3291360938
 40
0.4132508263
 40
0.5
 40
0.5867491737
 40
0.6708639062
 40
0.74978994
 40
0.8211310031
 40
0.882721968
 40
0.9326954271
 40
0.9695407132
 40
0.9921594154
 40
1.0
 40
1.0
 40
1.0
 40
1.0
 10
-3.6
 20
44.5708736006
 30
0.0
 10
-3.6
 20
44.5520399101
 30
0.0
 10
-3.4862728453
 20
44.5645987547
 30
0.0
 10
-3.3636097042
 20
44.5318394138
 30
0.0
 10
-3.0796435784
 20
44.5316827954
 30
0.0
 10
-2.7323570828
 20
44.5156661491
 30
0.0
 10
-2.2897826028
 20
44.5078103203
 30
0.0
 10
-1.7820560734
 20
44.4992922054
 30
0.0
 10
-1.218732739
 20
44.4936352182
 30
0.0
 10
-0.6188282342
 20
44.4899881722
 30
0.0
 10
0.0
 20
44.4887986311
 30
0.0
 10
0.6188282342
 20
44.4899881722
 30
0.0
 10
1.218732739
 20
44.4936352182
 30
0.0
 10
1.7820560734
 20
44.4992922054
 30
0.0
 10
2.2897826028
 20
44.5078103203
 30
0.0
 10
2.7323570828
 20
44.5156661491
 30
0.0
 10
3.0796435784
 20
44.5316827954
 30
0.0
 10
3.3636097042
 20
44.5318394138
 30
0.0
 10
3.4862728453
 20
44.5645987547
 30
0.0
 10
3.6
 20
44.5520399101
 30
0.0
 10
3.6
 20
44.5708736006
 30
0.0
 11
-3.6
 21
44.5708736006
 31
0.0
 11
-3.5453079108
 21
44.5566909897
 31
0.0
 11
-3.3828934348
 21
44.5429393103
 31
0.0
 11
-3.1176914536
 21
44.5300364001
 31
0.0
 11
-2.7577599952
 21
44.5183743077
 31
0.0
 11
-2.3140353949
 21
44.5083073796
 31
0.0
 11
-1.8
 21
44.5001414946
 31
0.0
 11
-1.231272516
 21
44.4941247688
 31
0.0
 11
-0.6251334396
 21
44.4904400174
 31
0.0
 11
0.0
 21
44.4891991997
 31
0.0
 11
0.6251334396
 21
44.4904400174
 31
0.0
 11
1.231272516
 21
44.4941247688
 31
0.0
 11
1.8
 21
44.5001414946
 31
0.0
 11
2.3140353949
 21
44.5083073796
 31
0.0
 11
2.7577599952
 21
44.5183743077
 31
0.0
 11
3.1176914536
 21
44.5300364001
 31
0.0
 11
3.3828934348
 21
44.5429393103
 31
0.0
 11
3.5453079108
 21
44.5566909897
 31
0.0
 11
3.6
 21
44.5708736006
 31
0.0
  0
SPLINE
  5
339
100
AcDbEntity
  8
RACCORDO
100
AcDbSpline
 62
253
  6
CONTINUOUS
 70
0
 71
3
 72
24
 73
20
 74
18
 42
0.0000001
 43
0.0000001
 44
0.0000000001
 12
-0.0000000318
 22
-8.2070354092
 32
0.0
 13
0.0000000424
 23
8.2070354092
 33
0.0
 40
0.0
 40
0.0
 40
0.0
 40
0.0
 40
0.0087552341
 40
0.0340587179
 40
0.0752045021
 40
0.1308689219
 40
0.1991895888
 40
0.2777514009
 40
0.3643768602
 40
0.4553477115
 40
0.5481833088
 40
0.6390270783
 40
0.7253929431
 40
0.8037418979
 40
0.8718547936
 40
0.9270409344
 40
0.9676482071
 40
0.9921530691
 40
1.0
 40
1.0
 40
1.0
 40
1.0
 10
-4.1
 20
45.4098170158
 30
0.0
 10
-4.1000000001
 20
45.3858655103
 30
0.0
 10
-3.9546262681
 20
45.40399824
 30
0.0
 10
-3.7989580706
 20
45.3618054002
 30
0.0
 10
-3.4378012148
 20
45.3633174295
 30
0.0
 10
-2.9977882094
 20
45.343744653
 30
0.0
 10
-2.439569682
 20
45.335045301
 30
0.0
 10
-1.8022275729
 20
45.3254924745
 30
0.0
 10
-1.101046517
 20
45.3197289567
 30
0.0
 10
-0.3613719072
 20
45.3166227993
 30
0.0
 10
0.3900557722
 20
45.3166828662
 30
0.0
 10
1.1286700263
 20
45.3199036728
 30
0.0
 10
1.8282168368
 20
45.3257863436
 30
0.0
 10
2.4636742451
 20
45.3354300795
 30
0.0
 10
3.0194900479
 20
45.3443189601
 30
0.0
 10
3.4560592317
 20
45.3637694999
 30
0.0
 10
3.8121985727
 20
45.3630307788
 30
0.0
 10
3.9629827307
 20
45.4032638286
 30
0.0
 10
4.0999999999
 20
45.388350336
 30
0.0
 10
4.1
 20
45.4098170158
 30
0.0
 11
-4.1
 21
45.4098170158
 31
0.0
 11
-4.030207411
 21
45.3927270748
 31
0.0
 11
-3.8231980227
 21
45.3762187608
 31
0.0
 11
-3.4858631038
 21
45.3608483416
 31
0.0
 11
-3.0292291511
 21
45.34713359
 31
0.0
 11
-2.4686386832
 21
45.3355499764
 31
0.0
 11
-1.8239424822
 21
45.3265102276
 31
0.0
 11
-1.1130314646
 21
45.3202920985
 31
0.0
 11
-0.3664369891
 21
45.3171712059
 31
0.0
 11
0.3954680426
 21
45.3172326646
 31
0.0
 11
1.1410190311
 21
45.320473629
 31
0.0
 11
1.8497984714
 21
45.3268041758
 31
0.0
 11
2.4927458502
 21
45.3359655915
 31
0.0
 11
3.0516277203
 21
45.3476952856
 31
0.0
 11
3.504330938
 21
45.3615315544
 31
0.0
 11
3.8372346345
 21
45.3770526831
 31
0.0
 11
4.0376602077
 21
45.393657951
 31
0.0
 11
4.1
 21
45.4098170158
 31
0.0
  0
SPLINE
  5
33A
100
AcDbEntity
  8
RACCORDO
100
AcDbSpline
 62
253
  6
CONTINUOUS
 70
0
 71
3
 72
8
 73
4
 74
2
 42
0.0000001
 43
0.0000001
 44
0.0000000001
 12
-0.0
 22
-0.0404834292
 32
0.0
 13
0.0498728772
 23
-0.0015023667
 33
0.0
 40
0.0
 40
0.0
 40
0.0
 40
0.0
 40
1.0
 40
1.0
 40
1.0
 40
1.0
 10
-3.8776457135
 20
45.6995201776
 30
0.0
 10
-3.8776457135
 20
45.6860257012
 30
0.0
 10
-3.8651028097
 20
45.6821345824
 30
0.0
 10
-3.8484785173
 20
45.6816337935
 30
0.0
 11
-3.8776457135
 21
45.6995201776
 31
0.0
 11
-3.8484785173
 21
45.6816337935
 31
0.0
  0
SPLINE
  5
33B
100
AcDbEntity
  8
RACCORDO
100
AcDbSpline
 62
253
  6
CONTINUOUS
 70
0
 71
3
 72
8
 73
4
 74
2
 42
0.0000001
 43
0.0000001
 44
0.0000000001
 12
0.0338437282
 22
-0.0010195059
 32
0.0
 13
0.0371880391
 23
0.0025233339
 33
0.0
 40
0.0
 40
0.0
 40
0.0
 40
0.0
 40
1.0
 40
1.0
 40
1.0
 40
1.0
 10
-3.8484785173
 20
45.6816337935
 30
0.0
 10
-3.8371972746
 20
45.6812939582
 30
0.0
 10
-3.8240365615
 20
45.6825153623
 30
0.0
 10
-3.8116405484
 20
45.6833564736
 30
0.0
 11
-3.8484785173
 21
45.6816337935
 31
0.0
 11
-3.8116405484
 21
45.6833564736
 31
0.0
  0
SPLINE
  5
33C
100
AcDbEntity
  8
RACCORDO
100
AcDbSpline
 62
253
  6
CONTINUOUS
 70
0
 71
3
 72
22
 73
18
 74
16
 42
0.0000001
 43
0.0000001
 44
0.0000000001
 12
10.2801259268
 22
0.6975412292
 32
0.0
 13
8.6648847196
 23
0.15785131
 33
0.0
 40
0.0
 40
0.0
 40
0.0
 40
0.0
 40
0.025862831
 40
0.0679167414
 40
0.1248102015
 40
0.1946392417
 40
0.2749355899
 40
0.3634736083
 40
0.4564529783
 40
0.5513382671
 40
0.6441877525
 40
0.7324604612
 40
0.8125392591
 40
0.8821559675
 40
0.9385605656
 40
0.9800642301
 40
1.0
 40
1.0
 40
1.0
 40
1.0
 10
-3.8116405484
 20
45.6833564736
 30
0.0
 10
-3.723016162
 20
45.6893699373
 30
0.0
 10
-3.5929294668
 20
45.6541155564
 30
0.0
 10
-3.2513585992
 20
45.6555410791
 30
0.0
 10
-2.8352093674
 20
45.6370319652
 30
0.0
 10
-2.3072647209
 20
45.6288033863
 30
0.0
 10
-1.7044876365
 20
45.6197690067
 30
0.0
 10
-1.0413336552
 20
45.6143178151
 30
0.0
 10
-0.3417736987
 20
45.6113801918
 30
0.0
 10
0.3689019774
 20
45.6114369398
 30
0.0
 10
1.067459132
 20
45.6144830639
 30
0.0
 10
1.7290675677
 20
45.6200467892
 30
0.0
 10
2.3300622772
 20
45.6291673427
 30
0.0
 10
2.8557345673
 20
45.6375746699
 30
0.0
 10
3.2686270484
 20
45.6559693109
 30
0.0
 10
3.5914524476
 20
45.6553017501
 30
0.0
 10
3.7128505882
 20
45.6842166644
 30
0.0
 10
3.7704309708
 20
45.6852656269
 30
0.0
 11
-3.8116405484
 21
45.6833564736
 31
0.0
 11
-3.6158525751
 21
45.6677447895
 31
0.0
 11
-3.296814725
 21
45.6532073279
 31
0.0
 11
-2.8649449792
 21
45.6402364892
 31
0.0
 11
-2.3347573406
 21
45.6292809549
 31
0.0
 11
-1.7250248622
 21
45.6207314564
 31
0.0
 11
-1.0526686712
 21
45.6148504734
 31
0.0
 11
-0.3465640923
 21
45.6118988332
 31
0.0
 11
0.3740207224
 21
45.6119569296
 31
0.0
 11
1.0791384294
 21
45.6150221274
 31
0.0
 11
1.7494787676
 21
45.6210093747
 31
0.0
 11
2.357557318
 21
45.6296739447
 31
0.0
 11
2.8861292247
 21
45.6407675858
 31
0.0
 11
3.3142812313
 21
45.6538534227
 31
0.0
 11
3.6291293706
 21
45.6685331201
 31
0.0
 11
3.7704309708
 21
45.6852656269
 31
0.0
  0
SPLINE
  5
33D
100
AcDbEntity
  8
RACCORDO
100
AcDbSpline
 62
253
  6
CONTINUOUS
 70
0
 71
3
 72
9
 73
5
 74
3
 42
0.0000001
 43
0.0000001
 44
0.0000000001
 12
0.1068041006
 22
0.0019456886
 32
0.0
 13
0.0274318512
 23
0.0728507629
 33
0.0
 40
0.0
 40
0.0
 40
0.0
 40
0.0
 40
0.4146029217
 40
1.0
 40
1.0
 40
1.0
 40
1.0
 10
3.7704309708
 20
45.6852656269
 30
0.0
 10
3.7851914016
 20
45.685534523
 30
0.0
 10
3.8236756896
 20
45.6848622958
 30
0.0
 10
3.8713799189
 20
45.6798858383
 30
0.0
 10
3.8767327607
 20
45.6941013795
 30
0.0
 11
3.7704309708
 21
45.6852656269
 31
0.0
 11
3.8186876652
 21
45.6842372301
 31
0.0
 11
3.8767327607
 21
45.6941013795
 31
0.0
  0
SPLINE
  5
33E
100
AcDbEntity
  8
RACCORDO
100
AcDbSpline
 62
253
  6
CONTINUOUS
 70
0
 71
3
 72
8
 73
4
 74
2
 42
0.0000001
 43
0.0000001
 44
0.0000000001
 12
0.0017902515
 22
0.0047543706
 32
0.0
 13
-0.0
 23
0.0061090023
 33
0.0
 40
0.0
 40
0.0
 40
0.0
 40
0.0
 40
1.0
 40
1.0
 40
1.0
 40
1.0
 10
3.8767327607
 20
45.6941013795
 30
0.0
 10
3.8773295112
 20
45.6956861697
 30
0.0
 10
3.8776457135
 20
45.6974838435
 30
0.0
 10
3.8776457135
 20
45.6995201776
 30
0.0
 11
3.8767327607
 21
45.6941013795
 31
0.0
 11
3.8776457135
 21
45.6995201776
 31
0.0
  0
SPLINE
  5
33F
100
AcDbEntity
  8
RACCORDO
100
AcDbSpline
 62
253
  6
CONTINUOUS
 70
0
 71
3
 72
8
 73
4
 74
2
 42
0.0000001
 43
0.0000001
 44
0.0000000001
 12
-0.0
 22
0.0514489221
 32
0.0
 13
-0.0649769737
 23
0.0082691115
 33
0.0
 40
0.0
 40
0.0
 40
0.0
 40
0.0
 40
1.0
 40
1.0
 40
1.0
 40
1.0
 10
11.6276457135
 20
40.3884519837
 30
0.0
 10
11.6276457135
 20
40.4056016244
 30
0.0
 10
11.6096262512
 20
40.4113468444
 30
0.0
 10
11.5879672599
 20
40.4141032149
 30
0.0
 11
11.6276457135
 21
40.3884519837
 31
0.0
 11
11.5879672599
 21
40.4141032149
 31
0.0
  0
SPLINE
  5
340
100
AcDbEntity
  8
RACCORDO
100
AcDbSpline
 62
253
  6
CONTINUOUS
 70
0
 71
3
 72
8
 73
4
 74
2
 42
0.0000001
 43
0.0000001
 44
0.0000000001
 12
0.0
 22
0.037905736
 32
0.0
 13
-0.0465432418
 23
0.006200563
 33
0.0
 40
0.0
 40
0.0
 40
0.0
 40
0.0
 40
1.0
 40
1.0
 40
1.0
 40
1.0
 10
8.1276457135
 20
44.0009193885
 30
0.0
 10
8.1276457135
 20
44.0135546339
 30
0.0
 10
8.1155184676
 20
44.0182299168
 30
0.0
 10
8.1000040536
 20
44.0202967711
 30
0.0
 11
8.1276457135
 21
44.0009193885
 31
0.0
 11
8.1000040536
 21
44.0202967711
 31
0.0
  0
SPLINE
  5
341
100
AcDbEntity
  8
0
100
AcDbSpline
 62
7
  6
CONTINUOUS
 70
0
 71
3
 72
28
 73
24
 74
22
 42
0.0000001
 43
0.0000001
 44
0.0000000001
 12
0.0
 22
-12.0108299154
 32
0.0
 13
-0.0
 23
12.0108299154
 33
0.0
 40
0.0
 40
0.0
 40
0.0
 40
0.0
 40
0.0058296363
 40
0.0225255265
 40
0.0498484145
 40
0.0872085814
 40
0.1337788546
 40
0.1885226201
 40
0.2502192263
 40
0.3174920194
 40
0.3888394226
 40
0.4626686445
 40
0.5373313555
 40
0.6111605774
 40
0.6825079806
 40
0.7497807737
 40
0.8114773799
 40
0.8662211454
 40
0.9127914186
 40
0.9501515855
 40
0.9774744735
 40
0.9941703637
 40
1.0
 40
1.0
 40
1.0
 40
1.0
 10
-6.0
 20
44.5708736006
 30
0.0
 10
-6.0
 20
44.5475340104
 30
0.0
 10
-5.8615449567
 20
44.5569300652
 30
0.0
 10
-5.7087733428
 20
44.517852288
 30
0.0
 10
-5.3577795205
 20
44.5127491509
 30
0.0
 10
-4.9236462497
 20
44.4906680567
 30
0.0
 10
-4.364555202
 20
44.4772884938
 30
0.0
 10
-3.7134625382
 20
44.4631499732
 30
0.0
 10
-2.977577779
 20
44.4521735334
 30
0.0
 10
-2.1757698722
 20
44.4434632556
 30
0.0
 10
-1.3251829374
 20
44.43760215
 30
0.0
 10
-0.4450475715
 20
44.4346211844
 30
0.0
 10
0.4450475715
 20
44.4346211844
 30
0.0
 10
1.3251829374
 20
44.43760215
 30
0.0
 10
2.1757698722
 20
44.4434632556
 30
0.0
 10
2.977577779
 20
44.4521735334
 30
0.0
 10
3.7134625382
 20
44.4631499732
 30
0.0
 10
4.364555202
 20
44.4772884938
 30
0.0
 10
4.9236462497
 20
44.4906680567
 30
0.0
 10
5.3577795205
 20
44.5127491509
 30
0.0
 10
5.7087733428
 20
44.517852288
 30
0.0
 10
5.8615449567
 20
44.5569300652
 30
0.0
 10
6.0
 20
44.5475340104
 30
0.0
 10
6.0
 20
44.5708736006
 30
0.0
 11
-6.0
 21
44.5708736006
 31
0.0
 11
-5.9329849574
 21
44.5505853709
 31
0.0
 11
-5.7334368347
 21
44.5307503468
 31
0.0
 11
-5.4058132074
 21
44.5118116098
 31
0.0
 11
-4.9574326459
 21
44.4941922202
 31
0.0
 11
-4.398311231
 21
44.4782857658
 31
0.0
 11
-3.7409388112
 21
44.4644475707
 31
0.0
 11
-3.0
 21
44.4529867573
 31
0.0
 11
-2.1920461462
 21
44.4441593411
 31
0.0
 11
-1.3351256037
 21
44.4381625121
 31
0.0
 11
-0.4483805615
 21
44.4351302295
 31
0.0
 11
0.4483805615
 21
44.4351302295
 31
0.0
 11
1.3351256037
 21
44.4381625121
 31
0.0
 11
2.1920461462
 21
44.4441593411
 31
0.0
 11
3.0
 21
44.4529867573
 31
0.0
 11
3.7409388112
 21
44.4644475707
 31
0.0
 11
4.398311231
 21
44.4782857658
 31
0.0
 11
4.9574326459
 21
44.4941922202
 31
0.0
 11
5.4058132074
 21
44.5118116098
 31
0.0
 11
5.7334368347
 21
44.5307503468
 31
0.0
 11
5.9329849574
 21
44.5505853709
 31
0.0
 11
6.0
 21
44.5708736006
 31
0.0
  0
SPLINE
  5
342
100
AcDbEntity
  8
RACCORDO
100
AcDbSpline
 62
253
  6
CONTINUOUS
 70
0
 71
3
 72
30
 73
26
 74
24
 42
0.0000001
 43
0.0000001
 44
0.0000000001
 12
-0.0000000016
 22
-28.0258827577
 32
0.0
 13
0.0000000017
 23
28.0258827578
 33
0.0
 40
0.0
 40
0.0
 40
0.0
 40
0.0
 40
0.0048779131
 40
0.0187619038
 40
0.0415974919
 40
0.0729963771
 40
0.1122933416
 40
0.1588910789
 40
0.2117428018
 40
0.2700913987
 40
0.3325791213
 40
0.3983495674
 40
0.4658405231
 40
0.534148572
 40
0.6016398465
 40
0.6674114466
 40
0.7299000328
 40
0.7882506162
 40
0.8411034844
 40
0.8877034573
 40
0.9270014626
 40
0.958402284
 40
0.9812381431
 40
0.9951220848
 40
1.0
 40
1.0
 40
1.0
 40
1.0
 10
-14.0
 20
37.6952514293
 30
0.0
 10
-14.0
 20
37.6496821559
 30
0.0
 10
-13.7334278278
 20
37.6600744149
 30
0.0
 10
-13.4339692528
 20
37.5856061421
 30
0.0
 10
-12.7497919845
 20
37.5692838352
 30
0.0
 10
-11.8978526072
 20
37.5232828627
 30
0.0
 10
-10.7946933947
 20
37.492457699
 30
0.0
 10
-9.5016327269
 20
37.4603549027
 30
0.0
 10
-8.0268352624
 20
37.4339304853
 30
0.0
 10
-6.40467163
 20
37.4116905458
 30
0.0
 10
-4.6613948242
 20
37.3947244886
 30
0.0
 10
-2.8327711166
 20
37.3831985355
 30
0.0
 10
-0.9497159216
 20
37.3773806015
 30
0.0
 10
0.9494132774
 20
37.377380134
 30
0.0
 10
2.8324822338
 20
37.383197173
 30
0.0
 10
4.6611277725
 20
37.394722338
 30
0.0
 10
6.4044419949
 20
37.4116878464
 30
0.0
 10
8.0266429507
 20
37.433927408
 30
0.0
 10
9.5014905996
 20
37.4603518784
 30
0.0
 10
10.7945924318
 20
37.4924549203
 30
0.0
 10
11.8978007443
 20
37.5232807637
 30
0.0
 10
12.7497691041
 20
37.5692830646
 30
0.0
 10
13.433967949
 20
37.5856057926
 30
0.0
 10
13.7334284501
 20
37.6600744079
 30
0.0
 10
14.0
 20
37.649682136
 30
0.0
 10
14.0
 20
37.6952514293
 30
0.0
 11
-14.0
 21
37.6952514293
 31
0.0
 11
-13.8702767839
 21
37.6521131015
 31
0.0
 11
-13.4834762769
 21
37.6097714746
 31
0.0
 11
-12.8447944922
 21
37.5689107723
 31
0.0
 11
-11.9656578014
 21
37.5303611287
 31
0.0
 11
-10.8648953947
 21
37.4949413579
 31
0.0
 11
-9.5593385307
 21
37.4631975501
 31
0.0
 11
-8.0783749851
 21
37.4358409856
 31
0.0
 11
-6.4432598754
 21
37.4132665804
 31
0.0
 11
-4.6920714252
 21
37.3959983059
 31
0.0
 11
-2.8488339005
 21
37.3842742475
 31
0.0
 11
-0.9573494957
 21
37.3783722494
 31
0.0
 11
0.9570438744
 21
37.378371774
 31
0.0
 11
2.848537215
 21
37.3842728486
 31
0.0
 11
4.6918070878
 21
37.3959961723
 31
0.0
 11
6.4430197486
 21
37.4132637561
 31
0.0
 11
8.0781905425
 21
37.4358380287
 31
0.0
 11
9.5591861943
 21
37.4631943197
 31
0.0
 11
10.864805713
 21
37.4949388536
 31
0.0
 11
11.9655972967
 21
37.530358868
 31
0.0
 11
12.8447882206
 21
37.5689104439
 31
0.0
 11
13.4834775874
 21
37.6097715787
 31
0.0
 11
13.8702767236
 21
37.6521130933
 31
0.0
 11
14.0
 21
37.6952514293
 31
0.0
  0
SPLINE
  5
343
100
AcDbEntity
  8
RACCORDO
100
AcDbSpline
 62
253
  6
CONTINUOUS
 70
0
 71
3
 72
8
 73
4
 74
2
 42
0.0000001
 43
0.0000001
 44
0.0000000001
 12
-0.0206238881
 22
-0.0069071417
 32
0.0
 13
0.0
 23
-0.0226469325
 33
0.0
 40
0.0
 40
0.0
 40
0.0
 40
0.0
 40
1.0
 40
1.0
 40
1.0
 40
1.0
 10
-3.8664255311
 20
45.7136405813
 30
0.0
 10
-3.8733001604
 20
45.7113382007
 30
0.0
 10
-3.8776457135
 20
45.7070691551
 30
0.0
 10
-3.8776457135
 20
45.6995201776
 30
0.0
 11
-3.8664255311
 21
45.7136405813
 31
0.0
 11
-3.8776457135
 21
45.6995201776
 31
0.0
  0
SPLINE
  5
344
100
AcDbEntity
  8
0
100
AcDbSpline
 62
7
  6
CONTINUOUS
 70
0
 71
3
 72
8
 73
4
 74
2
 42
0.0000001
 43
0.0000001
 44
0.0000000001
 12
-0.0
 22
0.0335910897
 32
0.0
 13
0.0360723457
 23
0.007139691
 33
0.0
 40
0.0
 40
0.0
 40
0.0
 40
0.0
 40
1.0
 40
1.0
 40
1.0
 40
1.0
 10
-6.0
 20
44.5708736006
 30
0.0
 10
-6.0
 20
44.5820706305
 30
0.0
 10
-5.991753028
 20
44.5873362827
 30
0.0
 10
-5.9797289128
 20
44.5897161797
 30
0.0
 11
-6.0
 21
44.5708736006
 31
0.0
 11
-5.9797289128
 21
44.5897161797
 31
0.0
  0
SPLINE
  5
345
100
AcDbEntity
  8
RACCORDO
100
AcDbSpline
 62
253
  6
CONTINUOUS
 70
0
 71
3
 72
8
 73
4
 74
2
 42
0.0000001
 43
0.0000001
 44
0.0000000001
 12
0.0
 22
-0.0763636252
 32
0.0
 13
0.0914184115
 23
-0.0108155841
 33
0.0
 40
0.0
 40
0.0
 40
0.0
 40
0.0
 40
1.0
 40
1.0
 40
1.0
 40
1.0
 10
-13.2588190451
 20
38.6609286353
 30
0.0
 10
-13.2588190451
 20
38.6354740936
 30
0.0
 10
-13.2359849501
 20
38.6259232026
 30
0.0
 10
-13.2055121463
 20
38.6223180079
 30
0.0
 11
-13.2588190451
 21
38.6609286353
 31
0.0
 11
-13.2055121463
 21
38.6223180079
 31
0.0
  0
SPLINE
  5
346
100
AcDbEntity
  8
RACCORDO
100
AcDbSpline
 62
253
  6
CONTINUOUS
 70
0
 71
3
 72
30
 73
26
 74
24
 42
0.0000001
 43
0.0000001
 44
0.0000000001
 12
31.662489065
 22
-3.7459447012
 32
0.0
 13
10.0332249733
 23
19.42625486
 33
0.0
 40
0.0
 40
0.0
 40
0.0
 40
0.0
 40
0.0020079041
 40
0.0159412253
 40
0.0388578069
 40
0.0703681052
 40
0.1098044965
 40
0.1565675656
 40
0.2096068114
 40
0.2681624334
 40
0.3308718683
 40
0.3968756735
 40
0.4646060934
 40
0.5331565054
 40
0.6008872451
 40
0.6668922086
 40
0.7296025101
 40
0.7881601259
 40
0.841200521
 40
0.8879658338
 40
0.9274032698
 40
0.9589155107
 40
0.9818323663
 40
0.9957656339
 40
1.0
 40
1.0
 40
1.0
 40
1.0
 10
-13.2055121463
 20
38.6223180079
 30
0.0
 10
-13.1843203987
 20
38.6198108419
 30
0.0
 10
-12.9867444233
 20
38.6227350311
 30
0.0
 10
-12.7227547647
 20
38.5570893981
 30
0.0
 10
-12.074798753
 20
38.541629329
 30
0.0
 10
-11.2679624037
 20
38.4980646363
 30
0.0
 10
-10.2232061115
 20
38.4688710335
 30
0.0
 10
-8.9986020243
 20
38.4384679182
 30
0.0
 10
-7.6018825689
 20
38.4134424239
 30
0.0
 10
-6.0655987124
 20
38.3923798874
 30
0.0
 10
-4.414613601
 20
38.3763120517
 30
0.0
 10
-2.6827999709
 20
38.3653962844
 30
0.0
 10
-0.8994365392
 20
38.3598863678
 30
0.0
 10
0.8991499177
 20
38.3598859225
 30
0.0
 10
2.682526383
 20
38.3653949953
 30
0.0
 10
4.4143606893
 20
38.3763100115
 30
0.0
 10
6.0653812387
 20
38.3923773307
 30
0.0
 10
7.601700444
 20
38.4134395061
 30
0.0
 10
8.9984674301
 20
38.43846505
 30
0.0
 10
10.2231105049
 20
38.4688684045
 30
0.0
 10
11.2679132995
 20
38.4980626269
 30
0.0
 10
12.0747771044
 20
38.541628636
 30
0.0
 10
12.722753543
 20
38.5570889881
 30
0.0
 10
13.0018709708
 20
38.6264964226
 30
0.0
 10
13.2412514276
 20
38.6184116153
 30
0.0
 10
13.2554128769
 20
38.645830907
 30
0.0
 11
-13.2055121463
 21
38.6223180079
 31
0.0
 11
-13.1359647267
 21
38.6200738323
 31
0.0
 11
-12.769640138
 21
38.5799742966
 31
0.0
 11
-12.16477191
 21
38.5412766245
 31
0.0
 11
-11.3321778432
 21
38.5047679092
 31
0.0
 11
-10.28969151
 21
38.4712232977
 31
0.0
 11
-9.0532528123
 21
38.441160046
 31
0.0
 11
-7.6506936901
 21
38.4152517824
 31
0.0
 11
-6.1021440489
 21
38.3938724888
 31
0.0
 11
-4.4436661326
 21
38.3775184264
 31
0.0
 11
-2.6980123702
 21
38.3664150504
 31
0.0
 11
-0.9066659802
 21
38.3608255146
 31
0.0
 11
0.9063765392
 21
38.3608250634
 31
0.0
 11
2.6977313917
 21
38.3664137255
 31
0.0
 11
4.4434157924
 21
38.3775164037
 31
0.0
 11
6.1019166373
 21
38.3938698127
 31
0.0
 11
7.6505190194
 21
38.415248979
 31
0.0
 11
9.0531085482
 21
38.4411569839
 31
0.0
 11
10.2896065872
 21
38.4712209225
 31
0.0
 11
11.3321205593
 21
38.5047657632
 31
0.0
 11
12.1647659736
 21
38.5412763127
 31
0.0
 11
12.7696414376
 21
38.5799743808
 31
0.0
 11
13.1359646085
 21
38.6200738395
 31
0.0
 11
13.2554128769
 21
38.645830907
 31
0.0
  0
SPLINE
  5
347
100
AcDbEntity
  8
RACCORDO
100
AcDbSpline
 62
253
  6
CONTINUOUS
 70
0
 71
3
 72
8
 73
4
 74
2
 42
0.0000001
 43
0.0000001
 44
0.0000000001
 12
0.0066301586
 22
0.0128372633
 32
0.0
 13
-0.0
 23
0.0174775795
 33
0.0
 40
0.0
 40
0.0
 40
0.0
 40
0.0
 40
1.0
 40
1.0
 40
1.0
 40
1.0
 10
13.2554128769
 20
38.645830907
 30
0.0
 10
13.2576229298
 20
38.6501099948
 30
0.0
 10
13.2588190451
 20
38.6551027755
 30
0.0
 10
13.2588190451
 20
38.6609286353
 30
0.0
 11
13.2554128769
 21
38.645830907
 31
0.0
 11
13.2588190451
 21
38.6609286353
 31
0.0
  0
SPLINE
  5
348
100
AcDbEntity
  8
RACCORDO
100
AcDbSpline
 62
253
  6
CONTINUOUS
 70
0
 71
3
 72
8
 73
4
 74
2
 42
0.0000001
 43
0.0000001
 44
0.0000000001
 12
0.0
 22
0.0698491753
 32
0.0
 13
-0.0797400791
 23
0.0128750265
 33
0.0
 40
0.0
 40
0.0
 40
0.0
 40
0.0
 40
1.0
 40
1.0
 40
1.0
 40
1.0
 10
13.2588190451
 20
38.6609286353
 30
0.0
 10
13.2588190451
 20
38.6842116937
 30
0.0
 10
13.239714588
 20
38.6941886587
 30
0.0
 10
13.2131345616
 20
38.6984803342
 30
0.0
 11
13.2588190451
 21
38.6609286353
 31
0.0
 11
13.2131345616
 21
38.6984803342
 31
0.0
  0
SPLINE
  5
349
100
AcDbEntity
  8
0
100
AcDbSpline
 62
7
  6
CONTINUOUS
 70
0
 71
3
 72
32
 73
28
 74
26
 42
0.0000001
 43
0.0000001
 44
0.0000000001
 12
0.0
 22
-22.7214050793
 32
0.0
 13
-0.0
 23
22.7214050793
 33
0.0
 40
0.0
 40
0.0
 40
0.0
 40
0.0
 40
0.0041872119
 40
0.0160247387
 40
0.0354569951
 40
0.0621977373
 40
0.0958323568
 40
0.1358338688
 40
0.181573444
 40
0.2323310797
 40
0.287307271
 40
0.3456357737
 40
0.4063973499
 40
0.4686343167
 40
0.5313656833
 40
0.5936026501
 40
0.6543642263
 40
0.712692729
 40
0.7676689203
 40
0.818426556
 40
0.8641661312
 40
0.9041676432
 40
0.9378022627
 40
0.9645430049
 40
0.9839752613
 40
0.9958127881
 40
1.0
 40
1.0
 40
1.0
 40
1.0
 10
-11.35
 20
39.1722635102
 30
0.0
 10
-11.35
 20
39.1405503979
 30
0.0
 10
-11.1671490195
 20
39.1427506412
 30
0.0
 10
-10.9589079664
 20
39.0921965561
 30
0.0
 10
-10.4875474618
 20
39.0768081708
 30
0.0
 10
-9.897930664
 20
39.0431867279
 30
0.0
 10
-9.1327738491
 20
39.0188701386
 30
0.0
 10
-8.2308360076
 20
38.9938015211
 30
0.0
 10
-7.1966312646
 20
38.9723436359
 30
0.0
 10
-6.049743028
 20
38.9535824102
 30
0.0
 10
-4.8072011044
 20
38.9382654525
 30
0.0
 10
-3.4889246934
 20
38.926523632
 30
0.0
 10
-2.1156055306
 20
38.9185923538
 30
0.0
 10
-0.7089292281
 20
38.9145921805
 30
0.0
 10
0.7089292281
 20
38.9145921805
 30
0.0
 10
2.1156055306
 20
38.9185923538
 30
0.0
 10
3.4889246934
 20
38.926523632
 30
0.0
 10
4.8072011044
 20
38.9382654525
 30
0.0
 10
6.049743028
 20
38.9535824102
 30
0.0
 10
7.1966312646
 20
38.9723436359
 30
0.0
 10
8.2308360076
 20
38.9938015211
 30
0.0
 10
9.1327738491
 20
39.0188701386
 30
0.0
 10
9.897930664
 20
39.0431867279
 30
0.0
 10
10.4875474618
 20
39.0768081708
 30
0.0
 10
10.9589079664
 20
39.0921965561
 30
0.0
 10
11.1671490195
 20
39.1427506412
 30
0.0
 10
11.35
 20
39.1405503979
 30
0.0
 10
11.35
 20
39.1722635102
 30
0.0
 11
-11.35
 21
39.1722635102
 31
0.0
 11
-11.2605018599
 21
39.1399900477
 31
0.0
 11
-10.9934188788
 21
39.1082255569
 31
0.0
 11
-10.5529631148
 21
39.0774709829
 31
0.0
 11
-9.9460808185
 21
39.0482113437
 31
0.0
 11
-9.1823428862
 21
39.0209080812
 31
0.0
 11
-8.2737939212
 21
38.9959917843
 31
0.0
 11
-7.2347622836
 21
38.9738553978
 31
0.0
 11
-6.081634123
 21
38.9548480258
 31
0.0
 11
-4.8325949593
 21
38.9392694258
 31
0.0
 11
-3.5073428862
 21
38.9273652817
 31
0.0
 11
-2.1267779205
 21
38.919323329
 31
0.0
 11
-0.7126723967
 21
38.915270394
 31
0.0
 11
0.7126723967
 21
38.915270394
 31
0.0
 11
2.1267779205
 21
38.919323329
 31
0.0
 11
3.5073428862
 21
38.9273652817
 31
0.0
 11
4.8325949593
 21
38.9392694258
 31
0.0
 11
6.081634123
 21
38.9548480258
 31
0.0
 11
7.2347622836
 21
38.9738553978
 31
0.0
 11
8.2737939212
 21
38.9959917843
 31
0.0
 11
9.1823428862
 21
39.0209080812
 31
0.0
 11
9.9460808185
 21
39.0482113437
 31
0.0
 11
10.5529631148
 21
39.0774709829
 31
0.0
 11
10.9934188788
 21
39.1082255569
 31
0.0
 11
11.2605018599
 21
39.1399900477
 31
0.0
 11
11.35
 21
39.1722635102
 31
0.0
  0
SPLINE
  5
34A
100
AcDbEntity
  8
RACCORDO
100
AcDbSpline
 62
253
  6
CONTINUOUS
 70
0
 71
3
 72
8
 73
4
 74
2
 42
0.0000001
 43
0.0000001
 44
0.0000000001
 12
-0.0459345799
 22
-0.0062638589
 32
0.0
 13
0.0
 23
-0.0375151526
 33
0.0
 40
0.0
 40
0.0
 40
0.0
 40
0.0
 40
1.0
 40
1.0
 40
1.0
 40
1.0
 10
-8.1004034611
 20
44.0201947559
 30
0.0
 10
-8.1157149878
 20
44.018106803
 30
0.0
 10
-8.1276457135
 20
44.0134244394
 30
0.0
 10
-8.1276457135
 20
44.0009193885
 30
0.0
 11
-8.1004034611
 21
44.0201947559
 31
0.0
 11
-8.1276457135
 21
44.0009193885
 31
0.0
  0
SPLINE
  5
34B
100
AcDbEntity
  8
RACCORDO
100
AcDbSpline
 62
253
  6
CONTINUOUS
 70
0
 71
3
 72
30
 73
26
 74
24
 42
0.0000001
 43
0.0000001
 44
0.0000000001
 12
-0.0000000004
 22
-23.7231556633
 32
0.0
 13
0.0000000004
 23
23.7231556633
 33
0.0
 40
0.0
 40
0.0
 40
0.0
 40
0.0
 40
0.0030675867
 40
0.0131174657
 40
0.0327655229
 40
0.0620566095
 40
0.1005472725
 40
0.147326325
 40
0.2011326894
 40
0.2611503559
 40
0.3258570163
 40
0.3942689537
 40
0.4646497487
 40
0.5359296914
 40
0.606298986
 40
0.6746882695
 40
0.7393612455
 40
0.7993351781
 40
0.8530881345
 40
0.8998055385
 40
0.9382172958
 40
0.9674060077
 40
0.9869557019
 40
0.9969484098
 40
1.0
 40
1.0
 40
1.0
 40
1.0
 10
-11.85
 20
40.0987488219
 30
0.0
 10
-11.85
 20
40.0744912097
 30
0.0
 10
-11.6987300729
 20
40.0664999337
 30
0.0
 10
-11.494720665
 20
40.0218162689
 30
0.0
 10
-10.9938972823
 20
40.0006068418
 30
0.0
 10
-10.3203425423
 20
39.9632136806
 30
0.0
 10
-9.4080525567
 20
39.9344561437
 30
0.0
 10
-8.3111014552
 20
39.9056710624
 30
0.0
 10
-7.0405040226
 20
39.881451828
 30
0.0
 10
-5.6291335822
 20
39.8611365841
 30
0.0
 10
-4.1018638166
 20
39.8455711898
 30
0.0
 10
-2.492702268
 20
39.8349971085
 30
0.0
 10
-0.8315054093
 20
39.8296638127
 30
0.0
 10
0.8451677992
 20
39.8296857183
 30
0.0
 10
2.5060944401
 20
39.835062442
 30
0.0
 10
4.1147192429
 20
39.8456785471
 30
0.0
 10
5.6411972399
 20
39.8612839954
 30
0.0
 10
7.0515325434
 20
39.881635574
 30
0.0
 10
8.3208730544
 20
39.905889214
 30
0.0
 10
9.4162918422
 20
39.9346949953
 30
0.0
 10
10.3266445306
 20
39.9634786765
 30
0.0
 10
10.998054056
 20
40.0008050257
 30
0.0
 10
11.4966338159
 20
40.0220862462
 30
0.0
 10
11.6996447493
 20
40.0665044882
 30
0.0
 10
11.85
 20
40.0746177058
 30
0.0
 10
11.85
 20
40.0987488219
 30
0.0
 11
-11.85
 21
40.0987488219
 31
0.0
 11
-11.7830555878
 21
40.0702123289
 31
0.0
 11
-11.5467833462
 21
40.0383208588
 31
0.0
 11
-11.0819691581
 21
40.0035364346
 31
0.0
 11
-10.387931911
 21
39.9693845241
 31
0.0
 11
-9.4753757013
 21
39.9373020938
 31
0.0
 11
-8.3660067503
 21
39.9083475734
 31
0.0
 11
-7.089795179
 21
39.8833298685
 31
0.0
 11
-5.6661372291
 21
39.8626289458
 31
0.0
 11
-4.131172971
 21
39.8467703513
 31
0.0
 11
-2.5082617005
 21
39.8359954868
 31
0.0
 11
-0.8386159338
 21
39.830577991
 31
0.0
 11
0.852369243
 21
39.8306003107
 31
0.0
 11
2.5217420373
 21
39.8360619088
 31
0.0
 11
4.1441155909
 21
39.8468797651
 31
0.0
 11
5.6782802819
 21
39.8627791396
 31
0.0
 11
7.1009000626
 21
39.8835182158
 31
0.0
 11
8.3758437048
 21
39.9085703063
 31
0.0
 11
9.4837488646
 21
39.9375553472
 31
0.0
 11
10.3944314661
 21
39.9696535236
 31
0.0
 11
11.0860383422
 21
40.0037805719
 31
0.0
 11
11.5485179974
 21
40.0384917206
 31
0.0
 11
11.7834338398
 21
40.0702928349
 31
0.0
 11
11.85
 21
40.0987488219
 31
0.0
  0
SPLINE
  5
34C
100
AcDbEntity
  8
RACCORDO
100
AcDbSpline
 62
253
  6
CONTINUOUS
 70
0
 71
3
 72
8
 73
4
 74
2
 42
0.0000001
 43
0.0000001
 44
0.0000000001
 12
0.0
 22
0.0235573876
 32
0.0
 13
-0.0204813653
 23
0.0077187393
 33
0.0
 40
0.0
 40
0.0
 40
0.0
 40
0.0
 40
1.0
 40
1.0
 40
1.0
 40
1.0
 10
3.8776457135
 20
45.6995201776
 30
0.0
 10
3.8776457135
 20
45.7073726402
 30
0.0
 10
3.8733985209
 20
45.7119731948
 30
0.0
 10
3.8665713992
 20
45.7145461078
 30
0.0
 11
3.8776457135
 21
45.6995201776
 31
0.0
 11
3.8665713992
 21
45.7145461078
 31
0.0
  0
SPLINE
  5
34D
100
AcDbEntity
  8
0
100
AcDbSpline
 62
7
  6
CONTINUOUS
 70
0
 71
3
 72
8
 73
4
 74
2
 42
0.0000001
 43
0.0000001
 44
0.0000000001
 12
0.0
 22
-0.0295610678
 32
0.0
 13
0.0404308606
 23
0.0047204256
 33
0.0
 40
0.0
 40
0.0
 40
0.0
 40
0.0
 40
1.0
 40
1.0
 40
1.0
 40
1.0
 10
-1.0
 20
46.4703845583
 30
0.0
 10
-1.0
 20
46.460530869
 30
0.0
 10
-0.9844187709
 20
46.4633816488
 30
0.0
 10
-0.9709418174
 20
46.464955124
 30
0.0
 11
-1.0
 21
46.4703845583
 31
0.0
 11
-0.9709418174
 21
46.464955124
 31
0.0
  0
SPLINE
  5
34E
100
AcDbEntity
  8
0
100
AcDbSpline
 62
7
  6
CONTINUOUS
 70
0
 71
3
 72
19
 73
15
 74
13
 42
0.0000001
 43
0.0000001
 44
0.0000000001
 12
2.6950840015
 22
0.3146592334
 32
0.0
 13
0.3061395467
 23
1.7206722664
 33
0.0
 40
0.0
 40
0.0
 40
0.0
 40
0.0
 40
0.0434600479
 40
0.1129948278
 40
0.2045864032
 40
0.3129210986
 40
0.4317083352
 40
0.5540487034
 40
0.67283594
 40
0.7811706354
 40
0.8727622108
 40
0.9422969907
 40
0.9857570386
 40
1.0
 40
1.0
 40
1.0
 40
1.0
 10
-0.9709418174
 20
46.464955124
 30
0.0
 10
-0.9318989908
 20
46.4695134924
 30
0.0
 10
-0.8763054372
 20
46.4534935166
 30
0.0
 10
-0.7306302968
 20
46.4569335142
 30
0.0
 10
-0.5582918316
 20
46.4504861227
 30
0.0
 10
-0.3473479548
 20
46.4491380948
 30
0.0
 10
-0.118343947
 20
46.4475871644
 30
0.0
 10
0.118343947
 20
46.4475871644
 30
0.0
 10
0.3473479548
 20
46.4491380948
 30
0.0
 10
0.5582918316
 20
46.4504861227
 30
0.0
 10
0.7306302968
 20
46.4569335142
 30
0.0
 10
0.8763054372
 20
46.4534935166
 30
0.0
 10
0.9389065402
 20
46.4715328052
 30
0.0
 10
0.9984292703
 20
46.460815971
 30
0.0
 10
0.9998827149
 20
46.4689851272
 30
0.0
 11
-0.9709418174
 21
46.464955124
 31
0.0
 11
-0.8854560257
 21
46.4598412287
 31
0.0
 11
-0.7485107482
 21
46.4553400733
 31
0.0
 11
-0.5680647467
 21
46.4517132488
 31
0.0
 11
-0.354604887
 21
46.4491715329
 31
0.0
 11
-0.1205366803
 21
46.4478626409
 31
0.0
 11
0.1205366803
 21
46.4478626409
 31
0.0
 11
0.354604887
 21
46.4491715329
 31
0.0
 11
0.5680647467
 21
46.4517132488
 31
0.0
 11
0.7485107482
 21
46.4553400733
 31
0.0
 11
0.8854560257
 21
46.4598412287
 31
0.0
 11
0.9709418174
 21
46.464955124
 31
0.0
 11
0.9998827149
 21
46.4689851272
 31
0.0
  0
LINE
  5
34F
100
AcDbEntity
  8
0
100
AcDbLine
 62
7
  6
CONTINUOUS
 10
0.9998827149
 20
46.4689851272
 11
1.0
 21
46.4703845583
  0
SPLINE
  5
350
100
AcDbEntity
  8
RACCORDO
100
AcDbSpline
 62
253
  6
CONTINUOUS
 70
0
 71
3
 72
8
 73
4
 74
2
 42
0.0000001
 43
0.0000001
 44
0.0000000001
 12
-0.0797402707
 22
-0.0128750102
 32
0.0
 13
0.0
 23
-0.0698493024
 33
0.0
 40
0.0
 40
0.0
 40
0.0
 40
0.0
 40
1.0
 40
1.0
 40
1.0
 40
1.0
 10
-13.2131344419
 20
38.6984803742
 30
0.0
 10
-13.2397145322
 20
38.6941887042
 30
0.0
 10
-13.2588190451
 20
38.6842117361
 30
0.0
 10
-13.2588190451
 20
38.6609286353
 30
0.0
 11
-13.2131344419
 21
38.6984803742
 31
0.0
 11
-13.2588190451
 21
38.6609286353
 31
0.0
  0
SPLINE
  5
351
100
AcDbEntity
  8
RACCORDO
100
AcDbSpline
 62
253
  6
CONTINUOUS
 70
0
 71
3
 72
8
 73
4
 74
2
 42
0.0000001
 43
0.0000001
 44
0.0000000001
 12
0.0
 22
-0.0714070421
 32
0.0
 13
0.0929299714
 23
-0.0070947356
 33
0.0
 40
0.0
 40
0.0
 40
0.0
 40
0.0
 40
1.0
 40
1.0
 40
1.0
 40
1.0
 10
-11.6276457135
 20
40.3884519837
 30
0.0
 10
-11.6276457135
 20
40.3646496363
 30
0.0
 10
-11.592934451
 20
40.3628157728
 30
0.0
 10
-11.5619577939
 20
40.360450861
 30
0.0
 11
-11.6276457135
 21
40.3884519837
 31
0.0
 11
-11.5619577939
 21
40.360450861
 31
0.0
  0
SPLINE
  5
352
100
AcDbEntity
  8
RACCORDO
100
AcDbSpline
 62
253
  6
CONTINUOUS
 70
0
 71
3
 72
29
 73
25
 74
23
 42
0.0000001
 43
0.0000001
 44
0.0000000001
 12
30.1916766726
 22
-2.3049825526
 32
0.0
 13
6.6678707655
 23
18.9649157708
 33
0.0
 40
0.0
 40
0.0
 40
0.0
 40
0.0
 40
0.0100840906
 40
0.02979888
 40
0.0591895217
 40
0.0978109858
 40
0.1447490115
 40
0.1987382339
 40
0.2589598648
 40
0.3238864278
 40
0.3925308589
 40
0.4631508396
 40
0.5346730237
 40
0.605281465
 40
0.6739031656
 40
0.7387959296
 40
0.7989736786
 40
0.8529093115
 40
0.8997854797
 40
0.9383277705
 40
0.9676156884
 40
0.9872317847
 40
0.9972585037
 40
1.0
 40
1.0
 40
1.0
 40
1.0
 10
-11.5619577939
 20
40.360450861
 30
0.0
 10
-11.4604725933
 20
40.3527029767
 30
0.0
 10
-11.2790323836
 20
40.3129641291
 30
0.0
 10
-10.7876065878
 20
40.2921509527
 30
0.0
 10
-10.1266906179
 20
40.2554604444
 30
0.0
 10
-9.2315189727
 20
40.2272420352
 30
0.0
 10
-8.1551512076
 20
40.1989972157
 30
0.0
 10
-6.908395415
 20
40.1752324051
 30
0.0
 10
-5.5235080569
 20
40.15529832
 30
0.0
 10
-4.0248961233
 20
40.1400250218
 30
0.0
 10
-2.4459290089
 20
40.1296493201
 30
0.0
 10
-0.8159029791
 20
40.1244161116
 30
0.0
 10
0.8293090078
 20
40.1244376006
 30
0.0
 10
2.4590698925
 20
40.1297134292
 30
0.0
 10
4.0375103354
 20
40.1401303556
 30
0.0
 10
5.5353453637
 20
40.1554429626
 30
0.0
 10
6.9192170133
 20
40.1754126929
 30
0.0
 10
8.1647394778
 20
40.1992112622
 30
0.0
 10
9.2396036895
 20
40.2274764061
 30
0.0
 10
10.1328743942
 20
40.2557204216
 30
0.0
 10
10.7916854158
 20
40.2923454742
 30
0.0
 10
11.2809096923
 20
40.313228923
 30
0.0
 10
11.478159688
 20
40.3563851723
 30
0.0
 10
11.6204621185
 20
40.3643782179
 30
0.0
 10
11.6265554327
 20
40.3817089664
 30
0.0
 11
-11.5619577939
 21
40.360450861
 31
0.0
 11
-11.3301175858
 21
40.3291581766
 31
0.0
 11
-10.8740261718
 21
40.2950261933
 31
0.0
 11
-10.1930116364
 21
40.261515191
 31
0.0
 11
-9.2975788786
 21
40.230034709
 31
0.0
 11
-8.2090262828
 21
40.2016234733
 31
0.0
 11
-6.9567616482
 21
40.1770752057
 31
0.0
 11
-5.5598173861
 21
40.1567626902
 31
0.0
 11
-4.0536553117
 21
40.1412016723
 31
0.0
 11
-2.4611964897
 21
40.1306289727
 31
0.0
 11
-0.822880081
 21
40.1253131331
 31
0.0
 11
0.8363753227
 21
40.1253350314
 31
0.0
 11
2.4744238816
 21
40.1306941469
 31
0.0
 11
4.0663550831
 21
40.1413090267
 31
0.0
 11
5.5717325946
 21
40.1569100606
 31
0.0
 11
6.9676581797
 21
40.1772600094
 31
0.0
 11
8.2186786793
 21
40.2018420179
 31
0.0
 11
9.30579496
 21
40.2302831994
 31
0.0
 11
10.199389284
 21
40.2617791277
 31
0.0
 11
10.8780190218
 21
40.2952657438
 31
0.0
 11
11.3318198058
 21
40.3293258008
 31
0.0
 11
11.562328916
 21
40.3605298646
 31
0.0
 11
11.6265554327
 21
40.3817089664
 31
0.0
  0
SPLINE
  5
353
100
AcDbEntity
  8
RACCORDO
100
AcDbSpline
 62
253
  6
CONTINUOUS
 70
0
 71
3
 72
8
 73
4
 74
2
 42
0.0000001
 43
0.0000001
 44
0.0000000001
 12
0.0021367437
 22
0.0060773771
 32
0.0
 13
0.0
 23
0.0074342598
 33
0.0
 40
0.0
 40
0.0
 40
0.0
 40
0.0
 40
1.0
 40
1.0
 40
1.0
 40
1.0
 10
11.6265554327
 20
40.3817089664
 30
0.0
 10
11.6272676806
 20
40.3837347588
 30
0.0
 10
11.6276457135
 20
40.3859738971
 30
0.0
 10
11.6276457135
 20
40.3884519837
 30
0.0
 11
11.6265554327
 21
40.3817089664
 31
0.0
 11
11.6276457135
 21
40.3884519837
 31
0.0
  0
SPLINE
  5
354
100
AcDbEntity
  8
0
100
AcDbSpline
 62
7
  6
CONTINUOUS
 70
0
 71
3
 72
8
 73
4
 74
2
 42
0.0000001
 43
0.0000001
 44
0.0000000001
 12
0.0360723457
 22
-0.007139691
 32
0.0
 13
0.0
 23
-0.0335910897
 33
0.0
 40
0.0
 40
0.0
 40
0.0
 40
0.0
 40
1.0
 40
1.0
 40
1.0
 40
1.0
 10
5.9797289128
 20
44.5897161797
 30
0.0
 10
5.991753028
 20
44.5873362827
 30
0.0
 10
6.0
 20
44.5820706305
 30
0.0
 10
6.0
 20
44.5708736006
 30
0.0
 11
5.9797289128
 21
44.5897161797
 31
0.0
 11
6.0
 21
44.5708736006
 31
0.0
  0
SPLINE
  5
355
100
AcDbEntity
  8
0
100
AcDbSpline
 62
7
  6
CONTINUOUS
 70
0
 71
3
 72
30
 73
26
 74
24
 42
0.0000001
 43
0.0000001
 44
0.0000000001
 12
0.0
 22
-18.917459824
 32
0.0
 13
-0.0
 23
18.917459824
 33
0.0
 40
0.0
 40
0.0
 40
0.0
 40
0.0
 40
0.0049019753
 40
0.0188559175
 40
0.0417342915
 40
0.0731313154
 40
0.1124693533
 40
0.1590191657
 40
0.2119157268
 40
0.270175098
 40
0.3327130773
 40
0.3983655547
 40
0.4659102854
 40
0.5340897146
 40
0.6016344453
 40
0.6672869227
 40
0.729824902
 40
0.7880842732
 40
0.8409808343
 40
0.8875306467
 40
0.9268686846
 40
0.9582657085
 40
0.9811440825
 40
0.9950980247
 40
1.0
 40
1.0
 40
1.0
 40
1.0
 10
-9.45
 20
40.971800207
 30
0.0
 10
-9.45
 20
40.9408892332
 30
0.0
 10
-9.2691084451
 20
40.9480931899
 30
0.0
 10
-9.0663766292
 20
40.897618167
 30
0.0
 10
-8.6038071653
 20
40.8866695641
 30
0.0
 10
-8.0282241603
 20
40.8556148802
 30
0.0
 10
-7.2836489479
 20
40.8348410557
 30
0.0
 10
-6.4105906884
 20
40.8131823065
 30
0.0
 10
-5.4156853517
 20
40.795371425
 30
0.0
 10
-4.3206880187
 20
40.7803684508
 30
0.0
 10
-3.1449664268
 20
40.7689336746
 30
0.0
 10
-1.9107339723
 20
40.7611586494
 30
0.0
 10
-0.6408882921
 20
40.7572378858
 30
0.0
 10
0.6408882921
 20
40.7572378858
 30
0.0
 10
1.9107339723
 20
40.7611586494
 30
0.0
 10
3.1449664268
 20
40.7689336746
 30
0.0
 10
4.3206880187
 20
40.7803684508
 30
0.0
 10
5.4156853517
 20
40.795371425
 30
0.0
 10
6.4105906884
 20
40.8131823065
 30
0.0
 10
7.2836489479
 20
40.8348410557
 30
0.0
 10
8.0282241603
 20
40.8556148802
 30
0.0
 10
8.6038071653
 20
40.8866695641
 30
0.0
 10
9.0663766292
 20
40.897618167
 30
0.0
 10
9.2691084451
 20
40.9480931899
 30
0.0
 10
9.45
 20
40.9408892332
 30
0.0
 10
9.45
 20
40.971800207
 30
0.0
 11
-9.45
 21
40.971800207
 31
0.0
 11
-9.36198219
 21
40.9426067171
 31
0.0
 11
-9.0995683654
 21
40.9139570467
 31
0.0
 11
-8.6676467992
 21
40.8863848849
 31
0.0
 11
-8.074263373
 21
40.860403849
 31
0.0
 11
-7.3304716972
 21
40.8364979164
 31
0.0
 11
-6.4501272034
 21
40.8151124095
 31
0.0
 11
-5.449629044
 21
40.7966456999
 31
0.0
 11
-4.3476146066
 21
40.7814417872
 31
0.0
 11
-3.164612335
 21
40.7697838918
 31
0.0
 11
-1.9226593233
 21
40.7618891781
 31
0.0
 11
-0.6448908063
 21
40.7579047097
 31
0.0
 11
0.6448908063
 21
40.7579047097
 31
0.0
 11
1.9226593233
 21
40.7618891781
 31
0.0
 11
3.164612335
 21
40.7697838918
 31
0.0
 11
4.3476146066
 21
40.7814417872
 31
0.0
 11
5.449629044
 21
40.7966456999
 31
0.0
 11
6.4501272034
 21
40.8151124095
 31
0.0
 11
7.3304716972
 21
40.8364979164
 31
0.0
 11
8.074263373
 21
40.860403849
 31
0.0
 11
8.6676467992
 21
40.8863848849
 31
0.0
 11
9.0995683654
 21
40.9139570467
 31
0.0
 11
9.36198219
 21
40.9426067171
 31
0.0
 11
9.45
 21
40.971800207
 31
0.0
  0
SPLINE
  5
356
100
AcDbEntity
  8
RACCORDO
100
AcDbSpline
 62
253
  6
CONTINUOUS
 70
0
 71
3
 72
8
 73
4
 74
2
 42
0.0000001
 43
0.0000001
 44
0.0000000001
 12
-0.0537464321
 22
-0.0070296064
 32
0.0
 13
0.0
 23
-0.0417448089
 33
0.0
 40
0.0
 40
0.0
 40
0.0
 40
0.0
 40
1.0
 40
1.0
 40
1.0
 40
1.0
 10
-9.8427459844
 20
42.2481893745
 30
0.0
 10
-9.8606614618
 20
42.2458461724
 30
0.0
 10
-9.8776457135
 20
42.2420856505
 30
0.0
 10
-9.8776457135
 20
42.2281707142
 30
0.0
 11
-9.8427459844
 21
42.2481893745
 31
0.0
 11
-9.8776457135
 21
42.2281707142
 31
0.0
  0
SPLINE
  5
357
100
AcDbEntity
  8
RACCORDO
100
AcDbSpline
 62
253
  6
CONTINUOUS
 70
0
 71
3
 72
30
 73
26
 74
24
 42
0.0000001
 43
0.0000001
 44
0.0000000001
 12
-0.0000000003
 22
-20.220226496
 32
0.0
 13
0.0000000003
 23
20.220226496
 33
0.0
 40
0.0
 40
0.0
 40
0.0
 40
0.0
 40
0.0024816576
 40
0.0103806766
 40
0.0259764453
 40
0.0510736878
 40
0.0867551398
 40
0.1332652448
 40
0.1881616821
 40
0.2499009225
 40
0.3174430534
 40
0.388871248
 40
0.4630251544
 40
0.5377693408
 40
0.6119063045
 40
0.6832988032
 40
0.7507913482
 40
0.8124623881
 40
0.8672809624
 40
0.9136803183
 40
0.949210472
 40
0.9741778466
 40
0.9896792786
 40
0.9975314272
 40
1.0
 40
1.0
 40
1.0
 40
1.0
 10
-10.1
 20
41.9384675524
 30
0.0
 10
-10.1
 20
41.9217409927
 30
0.0
 10
-10.0000759715
 20
41.9116044223
 30
0.0
 10
-9.8602170127
 20
41.8820625084
 30
0.0
 10
-9.5105031005
 20
41.8620056623
 30
0.0
 10
-9.0085998436
 20
41.832291941
 30
0.0
 10
-8.2805148384
 20
41.806294457
 30
0.0
 10
-7.3590151593
 20
41.7801714356
 30
0.0
 10
-6.2588854902
 20
41.757602444
 30
0.0
 10
-5.0178914845
 20
41.73862048
 30
0.0
 10
-3.6650954966
 20
41.724041134
 30
0.0
 10
-2.2286747833
 20
41.7141034541
 30
0.0
 10
-0.7436579304
 20
41.7090971321
 30
0.0
 10
0.7596147037
 20
41.7091240394
 30
0.0
 10
2.2442765898
 20
41.7141835285
 30
0.0
 10
3.6800079323
 20
41.7241726003
 30
0.0
 10
5.0317688407
 20
41.7388002897
 30
0.0
 10
6.2714435356
 20
41.7578260548
 30
0.0
 10
7.3698400824
 20
41.7804328086
 30
0.0
 10
8.289053635
 20
41.806567498
 30
0.0
 10
9.014468465
 20
41.8325701974
 30
0.0
 10
9.5139191833
 20
41.8621955779
 30
0.0
 10
9.8616324402
 20
41.8822754614
 30
0.0
 10
10.0007112208
 20
41.9116287858
 30
0.0
 10
10.1
 20
41.9218291851
 30
0.0
 10
10.1
 20
41.9384675524
 30
0.0
 11
-10.1
 21
41.9384675524
 31
0.0
 11
-10.0547399246
 21
41.9167990088
 31
0.0
 11
-9.8968424439
 21
41.8927397266
 31
0.0
 11
-9.5826223163
 21
41.8660691902
 31
0.0
 11
-9.075931116
 21
41.8379304798
 31
0.0
 11
-8.3549958043
 21
41.8097201022
 31
0.0
 11
-7.4149339308
 21
41.7828834614
 31
0.0
 11
-6.3051626925
 21
41.7594604344
 31
0.0
 11
-5.0569311603
 21
41.7401155733
 31
0.0
 11
-3.6912956776
 21
41.7251772512
 31
0.0
 11
-2.2470367807
 21
41.7150683556
 31
0.0
 11
-0.7476367197
 21
41.7099541341
 31
0.0
 11
0.7637076578
 21
41.7099814904
 31
0.0
 11
2.262764945
 21
41.7151500829
 31
0.0
 11
3.706301676
 21
41.7253112363
 31
0.0
 11
5.0709339134
 21
41.7402996637
 31
0.0
 11
6.3177855485
 21
41.759689659
 31
0.0
 11
7.4259811349
 21
41.783154894
 31
0.0
 11
8.3638020582
 21
41.8100147405
 31
0.0
 11
9.0816768018
 21
41.8381978953
 31
0.0
 11
9.5857410209
 21
41.8662820062
 31
0.0
 11
9.8980533655
 21
41.8928748289
 31
0.0
 11
10.0550031529
 21
41.916861971
 31
0.0
 11
10.1
 21
41.9384675524
 31
0.0
  0
SPLINE
  5
358
100
AcDbEntity
  8
RACCORDO
100
AcDbSpline
 62
253
  6
CONTINUOUS
 70
0
 71
3
 72
8
 73
4
 74
2
 42
0.0000001
 43
0.0000001
 44
0.0000000001
 12
-0.065644015
 22
-0.0081781214
 32
0.0
 13
0.0
 23
-0.051795443
 33
0.0
 40
0.0
 40
0.0
 40
0.0
 40
0.0
 40
1.0
 40
1.0
 40
1.0
 40
1.0
 10
-11.5874142906
 20
40.4141094947
 30
0.0
 10
-11.6092956289
 20
40.4113834542
 30
0.0
 10
-11.6276457135
 20
40.4057171314
 30
0.0
 10
-11.6276457135
 20
40.3884519837
 30
0.0
 11
-11.5874142906
 21
40.4141094947
 31
0.0
 11
-11.6276457135
 21
40.3884519837
 31
0.0
  0
SPLINE
  5
359
100
AcDbEntity
  8
RACCORDO
100
AcDbSpline
 62
253
  6
CONTINUOUS
 70
0
 71
3
 72
8
 73
4
 74
2
 42
0.0000001
 43
0.0000001
 44
0.0000000001
 12
0.0
 22
-0.0490747974
 32
0.0
 13
0.0627034161
 23
-0.0073897966
 33
0.0
 40
0.0
 40
0.0
 40
0.0
 40
0.0
 40
1.0
 40
1.0
 40
1.0
 40
1.0
 10
-9.8776457135
 20
42.2281707142
 30
0.0
 10
-9.8776457135
 20
42.2118124484
 30
0.0
 10
-9.8542833959
 20
42.2094424207
 30
0.0
 10
-9.8333822572
 20
42.2069791552
 30
0.0
 11
-9.8776457135
 21
42.2281707142
 31
0.0
 11
-9.8333822572
 21
42.2069791552
 31
0.0
  0
SPLINE
  5
35A
100
AcDbEntity
  8
RACCORDO
100
AcDbSpline
 62
253
  6
CONTINUOUS
 70
0
 71
3
 72
29
 73
25
 74
23
 42
0.0000001
 43
0.0000001
 44
0.0000000001
 12
25.1991622796
 22
-2.969801238
 32
0.0
 13
4.2846008783
 23
17.1499062385
 33
0.0
 40
0.0
 40
0.0
 40
0.0
 40
0.0
 40
0.0079202743
 40
0.0235579072
 40
0.048722549
 40
0.0844998193
 40
0.1311348033
 40
0.1861786551
 40
0.2480836851
 40
0.315807187
 40
0.3874271913
 40
0.4617802263
 40
0.5367251271
 40
0.6110611743
 40
0.6826453869
 40
0.7503191707
 40
0.8121558175
 40
0.8671215977
 40
0.9136455372
 40
0.9492711028
 40
0.9743055266
 40
0.9898485712
 40
0.997721844
 40
1.0
 40
1.0
 40
1.0
 40
1.0
 10
-9.8333822572
 20
42.2069791552
 30
0.0
 10
-9.7668541651
 20
42.1991386084
 30
0.0
 10
-9.6431411889
 20
42.1730081485
 30
0.0
 10
-9.301126311
 20
42.1533919077
 30
0.0
 10
-8.8102725521
 20
42.1243328927
 30
0.0
 10
-8.0982166614
 20
42.0989075752
 30
0.0
 10
-7.197004154
 20
42.0733595564
 30
0.0
 10
-6.1210942835
 20
42.0512874597
 30
0.0
 10
-4.9074211474
 20
42.0327233796
 30
0.0
 10
-3.5844073728
 20
42.0184649495
 30
0.0
 10
-2.1796098841
 20
42.0087460787
 30
0.0
 10
-0.727286092
 20
42.0038499392
 30
0.0
 10
0.7428915747
 20
42.0038762608
 30
0.0
 10
2.1948682182
 20
42.008824376
 30
0.0
 10
3.598991522
 20
42.0185935187
 30
0.0
 10
4.9209930152
 20
42.0328992129
 30
0.0
 10
6.133375898
 20
42.0515061311
 30
0.0
 10
7.207590821
 20
42.0736151599
 30
0.0
 10
8.1065675459
 20
42.0991745815
 30
0.0
 10
8.8160120539
 20
42.1246049767
 30
0.0
 10
9.304467259
 20
42.1535776652
 30
0.0
 10
9.6445255128
 20
42.1732163336
 30
0.0
 10
9.7795075796
 20
42.2017040464
 30
0.0
 10
9.8739634605
 20
42.2115182523
 30
0.0
 10
9.8772171236
 20
42.2245416396
 30
0.0
 11
-9.8333822572
 21
42.2069791552
 31
0.0
 11
-9.6789600266
 21
42.1834497829
 31
0.0
 11
-9.3716578619
 21
42.1573663256
 31
0.0
 11
-8.87612152
 21
42.1298471295
 31
0.0
 11
-8.1710577763
 21
42.1022578314
 31
0.0
 11
-7.2516919623
 21
42.0760119053
 31
0.0
 11
-6.1663526775
 21
42.0531045386
 31
0.0
 11
-4.9456013456
 21
42.034185552
 31
0.0
 11
-3.61003077
 21
42.0195760689
 31
0.0
 11
-2.1975676339
 21
42.0096897273
 31
0.0
 11
-0.7311772913
 21
42.0046880808
 31
0.0
 11
0.7468944231
 21
42.0047148356
 31
0.0
 11
2.2129495455
 21
42.0097696465
 31
0.0
 11
3.6247064171
 21
42.0197070969
 31
0.0
 11
4.9592958524
 21
42.0343655743
 31
0.0
 11
6.178697676
 21
42.0533287002
 31
0.0
 11
7.2624960069
 21
42.0762773448
 31
0.0
 11
8.1796702441
 21
42.1025459555
 31
0.0
 11
8.8817407984
 21
42.1301086328
 31
0.0
 11
9.3747079645
 21
42.1575744407
 31
0.0
 11
9.680144382
 21
42.1835818866
 31
0.0
 11
9.8336396745
 21
42.2070407353
 31
0.0
 11
9.8772171236
 21
42.2245416396
 31
0.0
  0
SPLINE
  5
35B
100
AcDbEntity
  8
RACCORDO
100
AcDbSpline
 62
253
  6
CONTINUOUS
 70
0
 71
3
 72
8
 73
4
 74
2
 42
0.0000001
 43
0.0000001
 44
0.0000000001
 12
0.0008442302
 22
0.0033791872
 32
0.0
 13
0.0
 23
0.0038860101
 33
0.0
 40
0.0
 40
0.0
 40
0.0
 40
0.0
 40
1.0
 40
1.0
 40
1.0
 40
1.0
 10
9.8772171236
 20
42.2245416396
 30
0.0
 10
9.8774985336
 20
42.2256680353
 30
0.0
 10
9.8776457135
 20
42.2268753775
 30
0.0
 10
9.8776457135
 20
42.2281707142
 30
0.0
 11
9.8772171236
 21
42.2245416396
 31
0.0
 11
9.8776457135
 21
42.2281707142
 31
0.0
  0
SPLINE
  5
35C
100
AcDbEntity
  8
0
100
AcDbSpline
 62
7
  6
CONTINUOUS
 70
0
 71
3
 72
8
 73
4
 74
2
 42
0.0000001
 43
0.0000001
 44
0.0000000001
 12
0.0
 22
-0.8440452122
 32
0.0
 13
0.5119653664
 23
-0.5245290804
 33
0.0
 40
0.0
 40
0.0
 40
0.0
 40
0.0
 40
1.0
 40
1.0
 40
1.0
 40
1.0
 10
-29.0475862045
 20
-2.5624957527
 30
0.0
 10
-29.0475862045
 20
-2.8438441568
 30
0.0
 10
-28.9627586203
 20
-3.0693614297
 30
0.0
 10
-28.7921034981
 20
-3.2442044565
 30
0.0
 11
-29.0475862045
 21
-2.5624957527
 31
0.0
 11
-28.7921034981
 21
-3.2442044565
 31
0.0
  0
SPLINE
  5
35D
100
AcDbEntity
  8
0
100
AcDbSpline
 62
7
  6
CONTINUOUS
 70
0
 71
3
 72
8
 73
4
 74
2
 42
0.0000001
 43
0.0000001
 44
0.0000000001
 12
0.4997587694
 22
-0.5120229316
 32
0.0
 13
0.8379540719
 23
0.0
 33
0.0
 40
0.0
 40
0.0
 40
0.0
 40
0.0
 40
1.0
 40
1.0
 40
1.0
 40
1.0
 10
-28.7921034981
 20
-3.2442044565
 30
0.0
 10
-28.6255172417
 20
-3.414878767
 30
0.0
 10
-28.4041379243
 20
-3.5017751866
 30
0.0
 10
-28.1248199004
 20
-3.5017751866
 30
0.0
 11
-28.7921034981
 21
-3.2442044565
 31
0.0
 11
-28.1248199004
 21
-3.5017751866
 31
0.0
  0
SPLINE
  5
35E
100
AcDbEntity
  8
0
100
AcDbSpline
 62
7
  6
CONTINUOUS
 70
0
 71
3
 72
8
 73
4
 74
2
 42
0.0000001
 43
0.0000001
 44
0.0000000001
 12
0.8317010575
 22
0.0
 32
0.0
 13
0.5090034544
 23
0.496512832
 33
0.0
 40
0.0
 40
0.0
 40
0.0
 40
0.0
 40
1.0
 40
1.0
 40
1.0
 40
1.0
 10
-28.1248199004
 20
-3.5017751866
 30
0.0
 10
-27.8475862145
 20
-3.5017751866
 30
0.0
 10
-27.6262068748
 20
-3.4190167003
 30
0.0
 10
-27.4565390567
 20
-3.253512423
 30
0.0
 11
-28.1248199004
 21
-3.5017751866
 31
0.0
 11
-27.4565390567
 21
-3.253512423
 31
0.0
  0
SPLINE
  5
35F
100
AcDbEntity
  8
0
100
AcDbSpline
 62
7
  6
CONTINUOUS
 70
0
 71
3
 72
8
 73
4
 74
2
 42
0.0000001
 43
0.0000001
 44
0.0000000001
 12
0.5027204216
 22
0.4903839809
 32
0.0
 13
0.0049189449
 23
0.782078012
 33
0.0
 40
0.0
 40
0.0
 40
0.0
 40
0.0
 40
1.0
 40
1.0
 40
1.0
 40
1.0
 10
-27.4565390567
 20
-3.253512423
 30
0.0
 10
-27.2889655828
 20
-3.090051096
 30
0.0
 10
-27.2020689845
 20
-2.8790165894
 30
0.0
 10
-27.2004293362
 20
-2.6183239188
 30
0.0
 11
-27.4565390567
 21
-3.253512423
 31
0.0
 11
-27.2004293362
 21
-2.6183239188
 31
0.0
  0
SPLINE
  5
360
100
AcDbEntity
  8
0
100
AcDbSpline
 62
7
  6
CONTINUOUS
 70
0
 71
3
 72
8
 73
4
 74
2
 42
0.0000001
 43
0.0000001
 44
0.0000000001
 12
0.0012882232
 22
0.2048185327
 32
0.0
 13
-0.0451849467
 23
0.2168869893
 33
0.0
 40
0.0
 40
0.0
 40
0.0
 40
0.0
 40
1.0
 40
1.0
 40
1.0
 40
1.0
 10
-27.2004293362
 20
-2.6183239188
 30
0.0
 10
-27.1999999285
 20
-2.5500510745
 30
0.0
 10
-27.208275795
 20
-2.4817752652
 30
0.0
 10
-27.2233374439
 20
-2.4094796021
 30
0.0
 11
-27.2004293362
 21
-2.6183239188
 31
0.0
 11
-27.2233374439
 21
-2.4094796021
 31
0.0
  0
SPLINE
  5
361
100
AcDbEntity
  8
0
100
AcDbSpline
 62
7
  6
CONTINUOUS
 70
0
 71
3
 72
8
 73
4
 74
2
 42
0.0000001
 43
0.0000001
 44
0.0000000001
 12
-0.0479188197
 22
0.230009534
 32
0.0
 13
-0.0744827986
 23
0.1800000966
 33
0.0
 40
0.0
 40
0.0
 40
0.0
 40
0.0
 40
1.0
 40
1.0
 40
1.0
 40
1.0
 10
-27.2233374439
 20
-2.4094796021
 30
0.0
 10
-27.2393103838
 20
-2.3328097575
 30
0.0
 10
-27.2662068605
 20
-2.2666028254
 30
0.0
 10
-27.2910344601
 20
-2.2066027932
 30
0.0
 11
-27.2233374439
 21
-2.4094796021
 31
0.0
 11
-27.2910344601
 21
-2.2066027932
 31
0.0
  0
SPLINE
  5
362
100
AcDbEntity
  8
0
100
AcDbSpline
 62
7
  6
CONTINUOUS
 70
0
 71
3
 72
8
 73
4
 74
2
 42
0.0000001
 43
0.0000001
 44
0.0000000001
 12
0.3793768588
 22
-0.1407365756
 32
0.0
 13
0.352498945
 23
-0.2091751899
 33
0.0
 40
0.0
 40
0.0
 40
0.0
 40
0.0
 40
1.0
 40
1.0
 40
1.0
 40
1.0
 10
-27.6823210519
 20
-1.6921044119
 30
0.0
 10
-27.5558620989
 20
-1.7390166037
 30
0.0
 10
-27.435430764
 20
-1.7996363932
 30
0.0
 10
-27.3179311156
 20
-1.8693614565
 30
0.0
 11
-27.6823210519
 21
-1.6921044119
 31
0.0
 11
-27.3179311156
 21
-1.8693614565
 31
0.0
  0
SPLINE
  5
363
100
AcDbEntity
  8
0
100
AcDbSpline
 62
7
  6
CONTINUOUS
 70
0
 71
3
 72
8
 73
4
 74
2
 42
0.0000001
 43
0.0000001
 44
0.0000000001
 12
0.4903395186
 22
0.0022806501
 32
0.0
 13
0.3902781901
 23
-0.1447806178
 33
0.0
 40
0.0
 40
0.0
 40
0.0
 40
0.0
 40
1.0
 40
1.0
 40
1.0
 40
1.0
 10
-28.1227568292
 20
-1.6197768231
 30
0.0
 10
-27.959310323
 20
-1.6190166064
 30
0.0
 10
-27.8124137819
 20
-1.6438442059
 30
0.0
 10
-27.6823210519
 20
-1.6921044119
 30
0.0
 11
-28.1227568292
 21
-1.6197768231
 31
0.0
 11
-27.6823210519
 21
-1.6921044119
 31
0.0
  0
SPLINE
  5
364
100
AcDbEntity
  8
0
100
AcDbSpline
 62
7
  6
CONTINUOUS
 70
0
 71
3
 72
8
 73
4
 74
2
 42
0.0000001
 43
0.0000001
 44
0.0000000001
 12
0.5016448378
 22
0.5231878502
 32
0.0
 13
0.8441432853
 23
0.0039262498
 33
0.0
 40
0.0
 40
0.0
 40
0.0
 40
0.0
 40
1.0
 40
1.0
 40
1.0
 40
1.0
 10
-28.7927321876
 20
-1.8844470434
 30
0.0
 10
-28.6255172417
 20
-1.7100510933
 30
0.0
 10
-28.4041379243
 20
-1.621085573
 30
0.0
 10
-28.1227568292
 20
-1.6197768231
 30
0.0
 11
-28.7927321876
 21
-1.8844470434
 31
0.0
 11
-28.1227568292
 21
-1.6197768231
 31
0.0
  0
SPLINE
  5
365
100
AcDbEntity
  8
0
100
AcDbSpline
 62
7
  6
CONTINUOUS
 70
0
 71
3
 72
8
 73
4
 74
2
 42
0.0000001
 43
0.0000001
 44
0.0000000001
 12
0.0
 22
0.8318166829
 32
0.0
 13
0.510079298
 23
0.5319845261
 33
0.0
 40
0.0
 40
0.0
 40
0.0
 40
0.0
 40
1.0
 40
1.0
 40
1.0
 40
1.0
 10
-29.0475862045
 20
-2.5624957527
 30
0.0
 10
-29.0475862045
 20
-2.2852235251
 30
0.0
 10
-28.9627586203
 20
-2.0617752187
 30
0.0
 10
-28.7927321876
 20
-1.8844470434
 30
0.0
 11
-29.0475862045
 21
-2.5624957527
 31
0.0
 11
-28.7927321876
 21
-1.8844470434
 31
0.0
  0
SPLINE
  5
366
100
AcDbEntity
  8
0
100
AcDbSpline
 62
7
  6
CONTINUOUS
 70
0
 71
3
 72
8
 73
4
 74
2
 42
0.0000001
 43
0.0000001
 44
0.0000000001
 12
1.2478098739
 22
-0.0076552794
 32
0.0
 13
0.3289656937
 23
-1.0551724434
 33
0.0
 40
0.0
 40
0.0
 40
0.0
 40
0.0
 40
1.0
 40
1.0
 40
1.0
 40
1.0
 10
-28.2014538404
 20
-4.0019820489
 30
0.0
 10
-27.7855172157
 20
-4.0045338087
 30
0.0
 10
-27.5227586329
 20
-4.1866028719
 30
0.0
 10
-27.4131034017
 20
-4.5383270197
 30
0.0
 11
-28.2014538404
 21
-4.0019820489
 31
0.0
 11
-27.4131034017
 21
-4.5383270197
 31
0.0
  0
SPLINE
  5
367
100
AcDbEntity
  8
0
100
AcDbSpline
 62
7
  6
CONTINUOUS
 70
0
 71
3
 72
8
 73
4
 74
2
 42
0.0000001
 43
0.0000001
 44
0.0000000001
 12
0.4639170974
 22
0.5485507818
 32
0.0
 13
0.7756384145
 23
-0.0047585204
 33
0.0
 40
0.0
 40
0.0
 40
0.0
 40
0.0
 40
1.0
 40
1.0
 40
1.0
 40
1.0
 10
-28.8215355843
 20
-4.2763495449
 30
0.0
 10
-28.6668965518
 20
-4.0934992843
 30
0.0
 10
-28.4599999785
 20
-4.0003958755
 30
0.0
 10
-28.2014538404
 20
-4.0019820489
 30
0.0
 11
-28.8215355843
 21
-4.2763495449
 31
0.0
 11
-28.2014538404
 21
-4.0019820489
 31
0.0
  0
SPLINE
  5
368
100
AcDbEntity
  8
0
100
AcDbSpline
 62
7
  6
CONTINUOUS
 70
0
 71
3
 72
8
 73
4
 74
2
 42
0.0000001
 43
0.0000001
 44
0.0000000001
 12
0.0
 22
0.7511372038
 32
0.0
 13
0.4547035905
 23
0.5376564292
 33
0.0
 40
0.0
 40
0.0
 40
0.0
 40
0.0
 40
1.0
 40
1.0
 40
1.0
 40
1.0
 10
-29.0475862045
 20
-4.9190507169
 30
0.0
 10
-29.0475862045
 20
-4.668671649
 30
0.0
 10
-28.9731034478
 20
-4.4555683546
 30
0.0
 10
-28.8215355843
 20
-4.2763495449
 30
0.0
 11
-29.0475862045
 21
-4.9190507169
 31
0.0
 11
-28.8215355843
 21
-4.2763495449
 31
0.0
  0
SPLINE
  5
369
100
AcDbEntity
  8
0
100
AcDbSpline
 62
7
  6
CONTINUOUS
 70
0
 71
3
 72
8
 73
4
 74
2
 42
0.0000001
 43
0.0000001
 44
0.0000000001
 12
-0.456249386
 22
0.5302355206
 32
0.0
 13
0.0
 23
0.7695529989
 33
0.0
 40
0.0
 40
0.0
 40
0.0
 40
0.0
 40
1.0
 40
1.0
 40
1.0
 40
1.0
 10
-28.8189513553
 20
-5.567486086
 30
0.0
 10
-28.971034484
 20
-5.3907409125
 30
0.0
 10
-29.0475862045
 20
-5.1755683832
 30
0.0
 10
-29.0475862045
 20
-4.9190507169
 30
0.0
 11
-28.8189513553
 21
-5.567486086
 31
0.0
 11
-29.0475862045
 21
-4.9190507169
 31
0.0
  0
SPLINE
  5
36A
100
AcDbEntity
  8
0
100
AcDbSpline
 62
7
  6
CONTINUOUS
 70
0
 71
3
 72
8
 73
4
 74
2
 42
0.0000001
 43
0.0000001
 44
0.0000000001
 12
-0.7822573757
 22
-0.007198795
 32
0.0
 13
-0.4623713103
 23
0.5373501861
 33
0.0
 40
0.0
 40
0.0
 40
0.0
 40
0.0
 40
1.0
 40
1.0
 40
1.0
 40
1.0
 10
-28.19924752
 20
-5.835237748
 30
0.0
 10
-28.4599999785
 20
-5.8376373463
 30
0.0
 10
-28.6648275852
 20
-5.7466028147
 30
0.0
 10
-28.8189513553
 20
-5.567486086
 30
0.0
 11
-28.19924752
 21
-5.835237748
 31
0.0
 11
-28.8189513553
 21
-5.567486086
 31
0.0
  0
SPLINE
  5
36B
100
AcDbEntity
  8
0
100
AcDbSpline
 62
7
  6
CONTINUOUS
 70
0
 71
3
 72
8
 73
4
 74
2
 42
0.0000001
 43
0.0000001
 44
0.0000000001
 12
-0.3599999249
 22
-1.0551724434
 32
0.0
 13
-1.2411909128
 23
-0.0114221728
 33
0.0
 40
0.0
 40
0.0
 40
0.0
 40
0.0
 40
1.0
 40
1.0
 40
1.0
 40
1.0
 10
-27.4027586579
 20
-5.2997063809
 30
0.0
 10
-27.5227586329
 20
-5.6514305287
 30
0.0
 10
-27.7855172157
 20
-5.831430357
 30
0.0
 10
-28.19924752
 20
-5.835237748
 30
0.0
 11
-27.4027586579
 21
-5.2997063809
 31
0.0
 11
-28.19924752
 21
-5.835237748
 31
0.0
  0
SPLINE
  5
36C
100
AcDbEntity
  8
0
100
AcDbSpline
 62
7
  6
CONTINUOUS
 70
0
 71
3
 72
8
 73
4
 74
2
 42
0.0000001
 43
0.0000001
 44
0.0000000001
 12
-0.1328299568
 22
0.1644564755
 32
0.0
 13
-0.0744827986
 23
0.1924130917
 33
0.0
 40
0.0
 40
0.0
 40
0.0
 40
0.0
 40
1.0
 40
1.0
 40
1.0
 40
1.0
 10
-27.2984818841
 20
-5.478662846
 30
0.0
 10
-27.3427585363
 20
-5.4238440209
 30
0.0
 10
-27.3779310584
 20
-5.3638440781
 30
0.0
 10
-27.4027586579
 20
-5.2997063809
 30
0.0
 11
-27.2984818841
 21
-5.478662846
 31
0.0
 11
-27.4027586579
 21
-5.2997063809
 31
0.0
  0
SPLINE
  5
36D
100
AcDbEntity
  8
0
100
AcDbSpline
 62
7
  6
CONTINUOUS
 70
0
 71
3
 72
8
 73
4
 74
2
 42
0.0000001
 43
0.0000001
 44
0.0000000001
 12
-0.1767015138
 22
0.1109520472
 32
0.0
 13
-0.1278593017
 23
0.1583023184
 33
0.0
 40
0.0
 40
0.0
 40
0.0
 40
0.0
 40
1.0
 40
1.0
 40
1.0
 40
1.0
 10
-27.1452373571
 20
-5.6139317458
 30
0.0
 10
-27.2041378617
 20
-5.5769477301
 30
0.0
 10
-27.2558621168
 20
-5.5314302855
 30
0.0
 10
-27.2984818841
 20
-5.478662846
 30
0.0
 11
-27.1452373571
 21
-5.6139317458
 31
0.0
 11
-27.2984818841
 21
-5.478662846
 31
0.0
  0
SPLINE
  5
36E
100
AcDbEntity
  8
0
100
AcDbSpline
 62
7
  6
CONTINUOUS
 70
0
 71
3
 72
8
 73
4
 74
2
 42
0.0000001
 43
0.0000001
 44
0.0000000001
 12
-0.4717646842
 22
0.0
 32
0.0
 13
-0.3570913395
 23
0.2242200099
 33
0.0
 40
0.0
 40
0.0
 40
0.0
 40
0.0
 40
1.0
 40
1.0
 40
1.0
 40
1.0
 10
-26.7324002185
 20
-5.7279822045
 30
0.0
 10
-26.8896551132
 20
-5.7279822045
 30
0.0
 10
-27.0262069106
 20
-5.6886717491
 30
0.0
 10
-27.1452373571
 20
-5.6139317458
 30
0.0
 11
-26.7324002185
 21
-5.7279822045
 31
0.0
 11
-27.1452373571
 21
-5.6139317458
 31
0.0
  0
SPLINE
  5
36F
100
AcDbEntity
  8
0
100
AcDbSpline
 62
7
  6
CONTINUOUS
 70
0
 71
3
 72
8
 73
4
 74
2
 42
0.0000001
 43
0.0000001
 44
0.0000000001
 12
-0.4171821091
 22
-0.476779166
 32
0.0
 13
-0.7261661883
 23
0.0
 33
0.0
 40
0.0
 40
0.0
 40
0.0
 40
0.0
 40
1.0
 40
1.0
 40
1.0
 40
1.0
 10
-26.1609393685
 20
-5.4883660279
 30
0.0
 10
-26.3000000715
 20
-5.6472924166
 30
0.0
 10
-26.4903448224
 20
-5.7279822045
 30
0.0
 10
-26.7324002185
 20
-5.7279822045
 30
0.0
 11
-26.1609393685
 21
-5.4883660279
 31
0.0
 11
-26.7324002185
 21
-5.7279822045
 31
0.0
  0
SPLINE
  5
370
100
AcDbEntity
  8
0
100
AcDbSpline
 62
7
  6
CONTINUOUS
 70
0
 71
3
 72
8
 73
4
 74
2
 42
0.0000001
 43
0.0000001
 44
0.0000000001
 12
0.0
 22
-0.6704601299
 32
0.0
 13
-0.4083353069
 23
-0.4666685431
 33
0.0
 40
0.0
 40
0.0
 40
0.0
 40
0.0
 40
1.0
 40
1.0
 40
1.0
 40
1.0
 10
-25.954482913
 20
-4.9189782073
 30
0.0
 10
-25.954482913
 20
-5.1424649172
 30
0.0
 10
-26.0248275995
 20
-5.3328098469
 30
0.0
 10
-26.1609393685
 20
-5.4883660279
 30
0.0
 11
-25.954482913
 21
-4.9189782073
 31
0.0
 11
-26.1609393685
 21
-5.4883660279
 31
0.0
  0
SPLINE
  5
371
100
AcDbEntity
  8
0
100
AcDbSpline
 62
7
  6
CONTINUOUS
 70
0
 71
3
 72
8
 73
4
 74
2
 42
0.0000001
 43
0.0000001
 44
0.0000000001
 12
0.4065029761
 22
-0.4615184344
 32
0.0
 13
0.0
 23
-0.6764368762
 33
0.0
 40
0.0
 40
0.0
 40
0.0
 40
0.0
 40
1.0
 40
1.0
 40
1.0
 40
1.0
 10
-26.1603285916
 20
-4.3513840755
 30
0.0
 10
-26.0248275995
 20
-4.5052235537
 30
0.0
 10
-25.954482913
 20
-4.6934992485
 30
0.0
 10
-25.954482913
 20
-4.9189782073
 30
0.0
 11
-26.1603285916
 21
-4.3513840755
 31
0.0
 11
-25.954482913
 21
-4.9189782073
 31
0.0
  0
SPLINE
  5
372
100
AcDbEntity
  8
0
100
AcDbSpline
 62
7
  6
CONTINUOUS
 70
0
 71
3
 72
8
 73
4
 74
2
 42
0.0000001
 43
0.0000001
 44
0.0000000001
 12
0.7324301166
 22
-0.0037948133
 32
0.0
 13
0.4190144399
 23
-0.4757231795
 33
0.0
 40
0.0
 40
0.0
 40
0.0
 40
0.0
 40
1.0
 40
1.0
 40
1.0
 40
1.0
 10
-26.7344881946
 20
-4.1087860796
 30
0.0
 10
-26.4903448224
 20
-4.1100510173
 30
0.0
 10
-26.3000000715
 20
-4.1928096824
 30
0.0
 10
-26.1603285916
 20
-4.3513840755
 30
0.0
 11
-26.7344881946
 21
-4.1087860796
 31
0.0
 11
-26.1603285916
 21
-4.3513840755
 31
0.0
  0
SPLINE
  5
373
100
AcDbEntity
  8
0
100
AcDbSpline
 62
7
  6
CONTINUOUS
 70
0
 71
3
 72
8
 73
4
 74
2
 42
0.0000001
 43
0.0000001
 44
0.0000000001
 12
0.3557378017
 22
0.2392030046
 32
0.0
 13
0.4655007558
 23
-0.0024118184
 33
0.0
 40
0.0
 40
0.0
 40
0.0
 40
0.0
 40
1.0
 40
1.0
 40
1.0
 40
1.0
 10
-27.146855055
 20
-4.2270267514
 30
0.0
 10
-27.0282757878
 20
-4.1472924166
 30
0.0
 10
-26.8896551132
 20
-4.1079821401
 30
0.0
 10
-26.7344881946
 20
-4.1087860796
 30
0.0
 11
-27.146855055
 21
-4.2270267514
 31
0.0
 11
-26.7344881946
 21
-4.1087860796
 31
0.0
  0
SPLINE
  5
374
100
AcDbEntity
  8
0
100
AcDbSpline
 62
7
  6
CONTINUOUS
 70
0
 71
3
 72
8
 73
4
 74
2
 42
0.0000001
 43
0.0000001
 44
0.0000000001
 12
0.1799998283
 22
0.3786206245
 32
0.0
 13
0.3642625846
 23
0.2449351862
 33
0.0
 40
0.0
 40
0.0
 40
0.0
 40
0.0
 40
1.0
 40
1.0
 40
1.0
 40
1.0
 10
-27.4131034017
 20
-4.5383270197
 30
0.0
 10
-27.3531034589
 20
-4.4121201449
 30
0.0
 10
-27.2682759166
 20
-4.3086718135
 30
0.0
 10
-27.146855055
 20
-4.2270267514
 30
0.0
 11
-27.4131034017
 21
-4.5383270197
 31
0.0
 11
-27.146855055
 21
-4.2270267514
 31
0.0
  0
SPLINE
  5
375
100
AcDbEntity
  8
0
100
AcDbSpline
 62
7
  6
CONTINUOUS
 70
0
 71
3
 72
8
 73
4
 74
2
 42
0.0000001
 43
0.0000001
 44
0.0000000001
 12
0.2899413358
 22
-0.2749960286
 32
0.0
 13
0.4655172229
 23
-0.0124132633
 33
0.0
 40
0.0
 40
0.0
 40
0.0
 40
0.0
 40
1.0
 40
1.0
 40
1.0
 40
1.0
 10
-27.1373366995
 20
-5.2949374575
 30
0.0
 10
-27.0406895876
 20
-5.3866028004
 30
0.0
 10
-26.9144827127
 20
-5.4341891222
 30
0.0
 10
-26.7593103051
 20
-5.4383268767
 30
0.0
 11
-27.1373366995
 21
-5.2949374575
 31
0.0
 11
-26.7593103051
 21
-5.4383268767
 31
0.0
  0
SPLINE
  5
376
100
AcDbEntity
  8
0
100
AcDbSpline
 62
7
  6
CONTINUOUS
 70
0
 71
3
 72
8
 73
4
 74
2
 42
0.0000001
 43
0.0000001
 44
0.0000000001
 12
0.0
 22
-0.4531034231
 32
0.0
 13
0.3121276845
 23
-0.2960387605
 33
0.0
 40
0.0
 40
0.0
 40
0.0
 40
0.0
 40
1.0
 40
1.0
 40
1.0
 40
1.0
 10
-27.2931035161
 20
-4.9190165215
 30
0.0
 10
-27.2931035161
 20
-5.0700509958
 30
0.0
 10
-27.241379261
 20
-5.1962578707
 30
0.0
 10
-27.1373366995
 20
-5.2949374575
 30
0.0
 11
-27.2931035161
 21
-4.9190165215
 31
0.0
 11
-27.1373366995
 21
-5.2949374575
 31
0.0
  0
SPLINE
  5
377
100
AcDbEntity
  8
0
100
AcDbSpline
 62
7
  6
CONTINUOUS
 70
0
 71
3
 72
8
 73
4
 74
2
 42
0.0000001
 43
0.0000001
 44
0.0000000001
 12
-0.3042006243
 22
-0.3042006243
 32
0.0
 13
0.0
 23
-0.4344824553
 33
0.0
 40
0.0
 40
0.0
 40
0.0
 40
0.0
 40
1.0
 40
1.0
 40
1.0
 40
1.0
 10
-27.1399790529
 20
-4.5507197079
 30
0.0
 10
-27.241379261
 20
-4.652119916
 30
0.0
 10
-27.2931035161
 20
-4.7741890364
 30
0.0
 10
-27.2931035161
 20
-4.9190165215
 30
0.0
 11
-27.1399790529
 21
-4.5507197079
 31
0.0
 11
-27.2931035161
 21
-4.9190165215
 31
0.0
  0
SPLINE
  5
378
100
AcDbEntity
  8
0
100
AcDbSpline
 62
7
  6
CONTINUOUS
 70
0
 71
3
 72
8
 73
4
 74
2
 42
0.0000001
 43
0.0000001
 44
0.0000000001
 12
-0.4655172229
 22
0.0
 32
0.0
 13
-0.297868396
 23
-0.297868396
 33
0.0
 40
0.0
 40
0.0
 40
0.0
 40
0.0
 40
1.0
 40
1.0
 40
1.0
 40
1.0
 10
-26.7593103051
 20
-4.3997063451
 30
0.0
 10
-26.9144827127
 20
-4.3997063451
 30
0.0
 10
-27.0406895876
 20
-4.4514302426
 30
0.0
 10
-27.1399790529
 20
-4.5507197079
 30
0.0
 11
-26.7593103051
 21
-4.3997063451
 31
0.0
 11
-27.1399790529
 21
-4.5507197079
 31
0.0
  0
SPLINE
  5
379
100
AcDbEntity
  8
0
100
AcDbSpline
 62
7
  6
CONTINUOUS
 70
0
 71
3
 72
8
 73
4
 74
2
 42
0.0000001
 43
0.0000001
 44
0.0000000001
 12
-0.2916578902
 22
0.3042023214
 32
0.0
 13
-0.4717238545
 23
0.0
 33
0.0
 40
0.0
 40
0.0
 40
0.0
 40
0.0
 40
1.0
 40
1.0
 40
1.0
 40
1.0
 10
-26.3765737927
 20
-4.5528310164
 30
0.0
 10
-26.4737930894
 20
-4.4514302426
 30
0.0
 10
-26.6020690203
 20
-4.3997063451
 30
0.0
 10
-26.7593103051
 20
-4.3997063451
 30
0.0
 11
-26.3765737927
 21
-4.5528310164
 31
0.0
 11
-26.7593103051
 21
-4.3997063451
 31
0.0
  0
SPLINE
  5
37A
100
AcDbEntity
  8
0
100
AcDbSpline
 62
7
  6
CONTINUOUS
 70
0
 71
3
 72
8
 73
4
 74
2
 42
0.0000001
 43
0.0000001
 44
0.0000000001
 12
0.0
 22
0.4346597593
 32
0.0
 13
-0.2855835306
 23
0.2978666989
 33
0.0
 40
0.0
 40
0.0
 40
0.0
 40
0.0
 40
1.0
 40
1.0
 40
1.0
 40
1.0
 10
-26.2317240834
 20
-4.9190756228
 30
0.0
 10
-26.2317240834
 20
-4.7741890364
 30
0.0
 10
-26.2813792825
 20
-4.652119916
 30
0.0
 10
-26.3765737927
 20
-4.5528310164
 30
0.0
 11
-26.2317240834
 21
-4.9190756228
 31
0.0
 11
-26.3765737927
 21
-4.5528310164
 31
0.0
  0
SPLINE
  5
37B
100
AcDbEntity
  8
0
100
AcDbSpline
 62
7
  6
CONTINUOUS
 70
0
 71
3
 72
8
 73
4
 74
2
 42
0.0000001
 43
0.0000001
 44
0.0000000001
 12
0.2933632096
 22
0.2902089013
 32
0.0
 13
0.0
 23
0.4529261191
 33
0.0
 40
0.0
 40
0.0
 40
0.0
 40
0.0
 40
1.0
 40
1.0
 40
1.0
 40
1.0
 10
-26.379167019
 20
-5.2929941711
 30
0.0
 10
-26.2813792825
 20
-5.1962578707
 30
0.0
 10
-26.2317240834
 20
-5.0700509958
 30
0.0
 10
-26.2317240834
 20
-4.9190756228
 30
0.0
 11
-26.379167019
 21
-5.2929941711
 31
0.0
 11
-26.2317240834
 21
-4.9190756228
 31
0.0
  0
SPLINE
  5
37C
100
AcDbEntity
  8
0
100
AcDbSpline
 62
7
  6
CONTINUOUS
 70
0
 71
3
 72
8
 73
4
 74
2
 42
0.0000001
 43
0.0000001
 44
0.0000000001
 12
0.4717238545
 22
0.0124132633
 32
0.0
 13
0.2838782112
 23
0.2808258878
 33
0.0
 40
0.0
 40
0.0
 40
0.0
 40
0.0
 40
1.0
 40
1.0
 40
1.0
 40
1.0
 10
-26.7593103051
 20
-5.4383268767
 30
0.0
 10
-26.6020690203
 20
-5.4341891222
 30
0.0
 10
-26.4737930894
 20
-5.3866028004
 30
0.0
 10
-26.379167019
 20
-5.2929941711
 30
0.0
 11
-26.7593103051
 21
-5.4383268767
 31
0.0
 11
-26.379167019
 21
-5.2929941711
 31
0.0
  0
SPLINE
  5
37D
100
AcDbEntity
  8
0
100
AcDbSpline
 62
7
  6
CONTINUOUS
 70
0
 71
3
 72
8
 73
4
 74
2
 42
0.0000001
 43
0.0000001
 44
0.0000000001
 12
-0.3553061136
 22
0.3647390944
 32
0.0
 13
-0.5834483206
 23
0.0124137998
 33
0.0
 40
0.0
 40
0.0
 40
0.0
 40
0.0
 40
1.0
 40
1.0
 40
1.0
 40
1.0
 10
-27.6546680448
 20
-2.0964583632
 30
0.0
 10
-27.773103416
 20
-1.9748786651
 30
0.0
 10
-27.9303447902
 20
-1.9148786776
 30
0.0
 10
-28.1248275638
 20
-1.9107407444
 30
0.0
 11
-27.6546680448
 21
-2.0964583632
 31
0.0
 11
-28.1248275638
 21
-1.9107407444
 31
0.0
  0
SPLINE
  5
37E
100
AcDbEntity
  8
0
100
AcDbSpline
 62
7
  6
CONTINUOUS
 70
0
 71
3
 72
8
 73
4
 74
2
 42
0.0000001
 43
0.0000001
 44
0.0000000001
 12
0.0
 22
0.5773748871
 32
0.0
 13
-0.3460730366
 23
0.3552608895
 33
0.0
 40
0.0
 40
0.0
 40
0.0
 40
0.0
 40
1.0
 40
1.0
 40
1.0
 40
1.0
 10
-27.4793103337
 20
-2.5604403964
 30
0.0
 10
-27.4793103337
 20
-2.3679821007
 30
0.0
 10
-27.5393103659
 20
-2.2148786597
 30
0.0
 10
-27.6546680448
 20
-2.0964583632
 30
0.0
 11
-27.4793103337
 21
-2.5604403964
 31
0.0
 11
-27.6546680448
 21
-2.0964583632
 31
0.0
  0
SPLINE
  5
37F
100
AcDbEntity
  8
0
100
AcDbSpline
 62
7
  6
CONTINUOUS
 70
0
 71
3
 72
8
 73
4
 74
2
 42
0.0000001
 43
0.0000001
 44
0.0000000001
 12
0.3507034422
 22
0.3507034422
 32
0.0
 13
0.0
 23
0.595728654
 33
0.0
 40
0.0
 40
0.0
 40
0.0
 40
0.0
 40
1.0
 40
1.0
 40
1.0
 40
1.0
 10
-27.6562115133
 20
-3.0331591361
 30
0.0
 10
-27.5393103659
 20
-2.9162579887
 30
0.0
 10
-27.4793103337
 20
-2.7590166145
 30
0.0
 10
-27.4793103337
 20
-2.5604403964
 30
0.0
 11
-27.6562115133
 21
-3.0331591361
 31
0.0
 11
-27.4793103337
 21
-2.5604403964
 31
0.0
  0
SPLINE
  5
380
100
AcDbEntity
  8
0
100
AcDbSpline
 62
7
  6
CONTINUOUS
 70
0
 71
3
 72
8
 73
4
 74
2
 42
0.0000001
 43
0.0000001
 44
0.0000000001
 12
0.5835803674
 22
0.0
 32
0.0
 13
0.350675708
 23
0.350675708
 33
0.0
 40
0.0
 40
0.0
 40
0.0
 40
0.0
 40
1.0
 40
1.0
 40
1.0
 40
1.0
 10
-28.1248715794
 20
-3.2079821043
 30
0.0
 10
-27.9303447902
 20
-3.2079821043
 30
0.0
 10
-27.773103416
 20
-3.1500510388
 30
0.0
 10
-27.6562115133
 20
-3.0331591361
 30
0.0
 11
-28.1248715794
 21
-3.2079821043
 31
0.0
 11
-27.6562115133
 21
-3.0331591361
 31
0.0
  0
SPLINE
  5
381
100
AcDbEntity
  8
0
100
AcDbSpline
 62
7
  6
CONTINUOUS
 70
0
 71
3
 72
8
 73
4
 74
2
 42
0.0000001
 43
0.0000001
 44
0.0000000001
 12
0.3552671746
 22
-0.3460791269
 32
0.0
 13
0.5771093739
 23
0.0
 33
0.0
 40
0.0
 40
0.0
 40
0.0
 40
0.0
 40
1.0
 40
1.0
 40
1.0
 40
1.0
 10
-28.5929051365
 20
-3.0346913298
 30
0.0
 10
-28.4744827449
 20
-3.1500510388
 30
0.0
 10
-28.3172413707
 20
-3.2079821043
 30
0.0
 10
-28.1248715794
 20
-3.2079821043
 30
0.0
 11
-28.5929051365
 21
-3.0346913298
 31
0.0
 11
-28.1248715794
 21
-3.2079821043
 31
0.0
  0
SPLINE
  5
382
100
AcDbEntity
  8
0
100
AcDbSpline
 62
7
  6
CONTINUOUS
 70
0
 71
3
 72
8
 73
4
 74
2
 42
0.0000001
 43
0.0000001
 44
0.0000000001
 12
0.0
 22
-0.5958621204
 32
0.0
 13
0.3647328764
 23
-0.3553000233
 33
0.0
 40
0.0
 40
0.0
 40
0.0
 40
0.0
 40
1.0
 40
1.0
 40
1.0
 40
1.0
 10
-28.776551716
 20
-2.5603959077
 30
0.0
 10
-28.776551716
 20
-2.7590166145
 30
0.0
 10
-28.7144827619
 20
-2.9162579887
 30
0.0
 10
-28.5929051365
 20
-3.0346913298
 30
0.0
 11
-28.776551716
 21
-2.5603959077
 31
0.0
 11
-28.5929051365
 21
-3.0346913298
 31
0.0
  0
SPLINE
  5
383
100
AcDbEntity
  8
0
100
AcDbSpline
 62
7
  6
CONTINUOUS
 70
0
 71
3
 72
8
 73
4
 74
2
 42
0.0000001
 43
0.0000001
 44
0.0000000001
 12
-0.3600534796
 22
-0.3600534461
 32
0.0
 13
0.0
 23
-0.5772414207
 33
0.0
 40
0.0
 40
0.0
 40
0.0
 40
0.0
 40
1.0
 40
1.0
 40
1.0
 40
1.0
 10
-28.5944649354
 20
-2.0948608444
 30
0.0
 10
-28.7144827619
 20
-2.2148786597
 30
0.0
 10
-28.776551716
 20
-2.3679821007
 30
0.0
 10
-28.776551716
 20
-2.5603959077
 30
0.0
 11
-28.5944649354
 21
-2.0948608444
 31
0.0
 11
-28.776551716
 21
-2.5603959077
 31
0.0
  0
SPLINE
  5
384
100
AcDbEntity
  8
0
100
AcDbSpline
 62
7
  6
CONTINUOUS
 70
0
 71
3
 72
8
 73
4
 74
2
 42
0.0000001
 43
0.0000001
 44
0.0000000001
 12
-0.5772414207
 22
-0.0124137998
 32
0.0
 13
-0.3599465714
 23
-0.3599465379
 33
0.0
 40
0.0
 40
0.0
 40
0.0
 40
0.0
 40
1.0
 40
1.0
 40
1.0
 40
1.0
 10
-28.1248275638
 20
-1.9107407444
 30
0.0
 10
-28.3172413707
 20
-1.9148786776
 30
0.0
 10
-28.4744827449
 20
-1.9748786651
 30
0.0
 10
-28.5944649354
 20
-2.0948608444
 30
0.0
 11
-28.1248275638
 21
-1.9107407444
 31
0.0
 11
-28.5944649354
 21
-2.0948608444
 31
0.0
  0
SPLINE
  5
385
100
AcDbEntity
  8
0
100
AcDbSpline
 62
7
  6
CONTINUOUS
 70
0
 71
3
 72
8
 73
4
 74
2
 42
0.0000001
 43
0.0000001
 44
0.0000000001
 12
0.3397903543
 22
-0.3306064629
 32
0.0
 13
0.5400000215
 23
-0.0124143362
 33
0.0
 40
0.0
 40
0.0
 40
0.0
 40
0.0
 40
1.0
 40
1.0
 40
1.0
 40
1.0
 10
-28.5960220629
 20
-5.3798487986
 30
0.0
 10
-28.4827586114
 20
-5.4900509529
 30
0.0
 10
-28.3379310369
 20
-5.5459131413
 30
0.0
 10
-28.1579310298
 20
-5.5500512533
 30
0.0
 11
-28.5960220629
 21
-5.3798487986
 31
0.0
 11
-28.1579310298
 21
-5.5500512533
 31
0.0
  0
SPLINE
  5
386
100
AcDbEntity
  8
0
100
AcDbSpline
 62
7
  6
CONTINUOUS
 70
0
 71
3
 72
8
 73
4
 74
2
 42
0.0000001
 43
0.0000001
 44
0.0000000001
 12
0.0
 22
-0.5835800993
 32
0.0
 13
0.3491751973
 23
-0.3397376514
 33
0.0
 40
0.0
 40
0.0
 40
0.0
 40
0.0
 40
1.0
 40
1.0
 40
1.0
 40
1.0
 10
-28.7724137828
 20
-4.9189725058
 30
0.0
 10
-28.7724137828
 20
-5.1134992056
 30
0.0
 10
-28.7124137953
 20
-5.2666029148
 30
0.0
 10
-28.5960220629
 20
-5.3798487986
 30
0.0
 11
-28.7724137828
 21
-4.9189725058
 31
0.0
 11
-28.5960220629
 21
-5.3798487986
 31
0.0
  0
SPLINE
  5
387
100
AcDbEntity
  8
0
100
AcDbSpline
 62
7
  6
CONTINUOUS
 70
0
 71
3
 72
8
 73
4
 74
2
 42
0.0000001
 43
0.0000001
 44
0.0000000001
 12
-0.3429770464
 22
-0.3398870615
 32
0.0
 13
0.0
 23
-0.5771093739
 33
0.0
 40
0.0
 40
0.0
 40
0.0
 40
0.0
 40
1.0
 40
1.0
 40
1.0
 40
1.0
 10
-28.5980881132
 20
-4.462272553
 30
0.0
 10
-28.7124137953
 20
-4.5755682402
 30
0.0
 10
-28.7724137828
 20
-4.7266027146
 30
0.0
 10
-28.7724137828
 20
-4.9189725058
 30
0.0
 11
-28.5980881132
 21
-4.462272553
 31
0.0
 11
-28.7724137828
 21
-4.9189725058
 31
0.0
  0
SPLINE
  5
388
100
AcDbEntity
  8
0
100
AcDbSpline
 62
7
  6
CONTINUOUS
 70
0
 71
3
 72
8
 73
4
 74
2
 42
0.0000001
 43
0.0000001
 44
0.0000000001
 12
-0.5400000215
 22
0.0
 32
0.0
 13
-0.3459885052
 23
-0.3428713891
 33
0.0
 40
0.0
 40
0.0
 40
0.0
 40
0.0
 40
1.0
 40
1.0
 40
1.0
 40
1.0
 10
-28.1579310298
 20
-4.2900510245
 30
0.0
 10
-28.3379310369
 20
-4.2900510245
 30
0.0
 10
-28.4827586114
 20
-4.34798209
 30
0.0
 10
-28.5980881132
 20
-4.462272553
 30
0.0
 11
-28.1579310298
 21
-4.2900510245
 31
0.0
 11
-28.5980881132
 21
-4.462272553
 31
0.0
  0
SPLINE
  5
389
100
AcDbEntity
  8
0
100
AcDbSpline
 62
7
  6
CONTINUOUS
 70
0
 71
3
 72
8
 73
4
 74
2
 42
0.0000001
 43
0.0000001
 44
0.0000000001
 12
-0.3398732396
 22
0.3429912092
 32
0.0
 13
-0.5400000215
 23
0.0
 33
0.0
 40
0.0
 40
0.0
 40
0.0
 40
0.0
 40
1.0
 40
1.0
 40
1.0
 40
1.0
 10
-27.7177434017
 20
-4.4623124931
 30
0.0
 10
-27.8310344815
 20
-4.34798209
 30
0.0
 10
-27.9779310226
 20
-4.2900510245
 30
0.0
 10
-28.1579310298
 20
-4.2900510245
 30
0.0
 11
-27.7177434017
 21
-4.4623124931
 31
0.0
 11
-28.1579310298
 21
-4.2900510245
 31
0.0
  0
SPLINE
  5
38A
100
AcDbEntity
  8
0
100
AcDbSpline
 62
7
  6
CONTINUOUS
 70
0
 71
3
 72
8
 73
4
 74
2
 42
0.0000001
 43
0.0000001
 44
0.0000000001
 12
0.0
 22
0.5773748871
 32
0.0
 13
-0.3366785793
 23
0.3397672413
 33
0.0
 40
0.0
 40
0.0
 40
0.0
 40
0.0
 40
1.0
 40
1.0
 40
1.0
 40
1.0
 10
-27.5475862324
 20
-4.9190610103
 30
0.0
 10
-27.5475862324
 20
-4.7266027146
 30
0.0
 10
-27.6055172086
 20
-4.5755682402
 30
0.0
 10
-27.7177434017
 20
-4.4623124931
 30
0.0
 11
-27.5475862324
 21
-4.9190610103
 31
0.0
 11
-27.7177434017
 21
-4.4623124931
 31
0.0
  0
SPLINE
  5
38B
100
AcDbEntity
  8
0
100
AcDbSpline
 62
7
  6
CONTINUOUS
 70
0
 71
3
 72
8
 73
4
 74
2
 42
0.0000001
 43
0.0000001
 44
0.0000000001
 12
0.3429488298
 22
0.3398021011
 32
0.0
 13
0.0
 23
0.5833145861
 33
0.0
 40
0.0
 40
0.0
 40
0.0
 40
0.0
 40
1.0
 40
1.0
 40
1.0
 40
1.0
 10
-27.7198334852
 20
-5.3798702819
 30
0.0
 10
-27.6055172086
 20
-5.2666029148
 30
0.0
 10
-27.5475862324
 20
-5.1134992056
 30
0.0
 10
-27.5475862324
 20
-4.9190610103
 30
0.0
 11
-27.7198334852
 21
-5.3798702819
 31
0.0
 11
-27.5475862324
 21
-4.9190610103
 31
0.0
  0
SPLINE
  5
38C
100
AcDbEntity
  8
0
100
AcDbSpline
 62
7
  6
CONTINUOUS
 70
0
 71
3
 72
8
 73
4
 74
2
 42
0.0000001
 43
0.0000001
 44
0.0000000001
 12
0.5400000215
 22
0.0124143362
 32
0.0
 13
0.3336029891
 23
0.3305420132
 33
0.0
 40
0.0
 40
0.0
 40
0.0
 40
0.0
 40
1.0
 40
1.0
 40
1.0
 40
1.0
 10
-28.1579310298
 20
-5.5500512533
 30
0.0
 10
-27.9779310226
 20
-5.5459131413
 30
0.0
 10
-27.8310344815
 20
-5.4900509529
 30
0.0
 10
-27.7198334852
 20
-5.3798702819
 30
0.0
 11
-28.1579310298
 21
-5.5500512533
 31
0.0
 11
-27.7198334852
 21
-5.3798702819
 31
0.0
  0
SPLINE
  5
38D
100
AcDbEntity
  8
0
100
AcDbSpline
 62
7
  6
CONTINUOUS
 70
0
 71
3
 72
8
 73
4
 74
2
 42
0.0000001
 43
0.0000001
 44
0.0000000001
 12
0.5383932125
 22
0.5292160179
 32
0.0
 13
-0.0
 23
0.8751943588
 33
0.0
 40
0.0
 40
0.0
 40
0.0
 40
0.0
 40
1.0
 40
1.0
 40
1.0
 40
1.0
 10
-0.2656712576
 20
-40.8995598924
 30
0.0
 10
-0.0862068534
 20
-40.7231545531
 30
0.0
 10
0.0048274994
 20
-40.4893614583
 30
0.0
 10
0.0048274994
 20
-40.1976300054
 30
0.0
 11
-0.2656712576
 21
-40.8995598924
 31
0.0
 11
0.0048274994
 21
-40.1976300054
 31
0.0
  0
SPLINE
  5
38E
100
AcDbEntity
  8
0
100
AcDbSpline
 62
7
  6
CONTINUOUS
 70
0
 71
3
 72
8
 73
4
 74
2
 42
0.0000001
 43
0.0000001
 44
0.0000000001
 12
-0.0
 22
0.8441161037
 32
0.0
 13
-0.4952235455
 23
0.5292703164
 33
0.0
 40
0.0
 40
0.0
 40
0.0
 40
0.0
 40
1.0
 40
1.0
 40
1.0
 40
1.0
 10
0.0048274994
 20
-40.1976300054
 30
0.0
 10
0.0048274994
 20
-39.9162579708
 30
0.0
 10
-0.0779309869
 20
-39.6845338874
 30
0.0
 10
-0.2430055021
 20
-39.5081104486
 30
0.0
 11
0.0048274994
 21
-40.1976300054
 31
0.0
 11
-0.2430055021
 21
-39.5081104486
 31
0.0
  0
SPLINE
  5
38F
100
AcDbEntity
  8
0
100
AcDbSpline
 62
7
  6
CONTINUOUS
 70
0
 71
3
 72
8
 73
4
 74
2
 42
0.0000001
 43
0.0000001
 44
0.0000000001
 12
-0.4978798991
 22
0.5321092951
 32
0.0
 13
-0.8379438348
 23
0.0041690567
 33
0.0
 40
0.0
 40
0.0
 40
0.0
 40
0.0
 40
1.0
 40
1.0
 40
1.0
 40
1.0
 10
-0.2430055021
 20
-39.5081104486
 30
0.0
 10
-0.4089654684
 20
-39.3307406836
 30
0.0
 10
-0.6303448081
 20
-39.2397063308
 30
0.0
 10
-0.9096594197
 20
-39.2383166452
 30
0.0
 11
-0.2430055021
 21
-39.5081104486
 31
0.0
 11
-0.9096594197
 21
-39.2383166452
 31
0.0
  0
SPLINE
  5
390
100
AcDbEntity
  8
0
100
AcDbSpline
 62
7
  6
CONTINUOUS
 70
0
 71
3
 72
8
 73
4
 74
2
 42
0.0000001
 43
0.0000001
 44
0.0000000001
 12
-0.4096425049
 22
0.0020381114
 32
0.0
 13
-0.3724137247
 23
-0.1427584291
 33
0.0
 40
0.0
 40
0.0
 40
0.0
 40
0.0
 40
1.0
 40
1.0
 40
1.0
 40
1.0
 10
-0.9096594197
 20
-39.2383166452
 30
0.0
 10
-1.0462069213
 20
-39.2376372748
 30
0.0
 10
-1.1765517294
 20
-39.2603959971
 30
0.0
 10
-1.3006896377
 20
-39.3079821401
 30
0.0
 11
-0.9096594197
 21
-39.2383166452
 31
0.0
 11
-1.3006896377
 21
-39.3079821401
 31
0.0
  0
SPLINE
  5
391
100
AcDbEntity
  8
0
100
AcDbSpline
 62
7
  6
CONTINUOUS
 70
0
 71
3
 72
8
 73
4
 74
2
 42
0.0000001
 43
0.0000001
 44
0.0000000001
 12
-0.6394309306
 22
0.0
 32
0.0
 13
-0.564827621
 23
-0.3289654255
 33
0.0
 40
0.0
 40
0.0
 40
0.0
 40
0.0
 40
1.0
 40
1.0
 40
1.0
 40
1.0
 10
-0.9985805186
 20
-39.51694768
 30
0.0
 10
-1.2117241621
 20
-39.51694768
 30
0.0
 10
-1.4144827574
 20
-39.5707408123
 30
0.0
 10
-1.6027586311
 20
-39.6803959542
 30
0.0
 11
-0.9985805186
 21
-39.51694768
 31
0.0
 11
-1.6027586311
 21
-39.6803959542
 31
0.0
  0
SPLINE
  5
392
100
AcDbEntity
  8
0
100
AcDbSpline
 62
7
  6
CONTINUOUS
 70
0
 71
3
 72
8
 73
4
 74
2
 42
0.0000001
 43
0.0000001
 44
0.0000000001
 12
-0.3926384655
 22
0.3895224198
 32
0.0
 13
-0.6391899085
 23
0.0
 33
0.0
 40
0.0
 40
0.0
 40
0.0
 40
0.0
 40
1.0
 40
1.0
 40
1.0
 40
1.0
 10
-0.4829135866
 20
-39.7109263626
 30
0.0
 10
-0.6137930751
 20
-39.5810855561
 30
0.0
 10
-0.7855172157
 20
-39.51694768
 30
0.0
 10
-0.9985805186
 20
-39.51694768
 30
0.0
 11
-0.4829135866
 21
-39.7109263626
 31
0.0
 11
-0.9985805186
 21
-39.51694768
 31
0.0
  0
SPLINE
  5
393
100
AcDbEntity
  8
0
100
AcDbSpline
 62
7
  6
CONTINUOUS
 70
0
 71
3
 72
8
 73
4
 74
2
 42
0.0000001
 43
0.0000001
 44
0.0000000001
 12
0.0
 22
0.6518421671
 32
0.0
 13
-0.3894303831
 23
0.3863397972
 33
0.0
 40
0.0
 40
0.0
 40
0.0
 40
0.0
 40
1.0
 40
1.0
 40
1.0
 40
1.0
 10
-0.2889655828
 20
-40.2287111581
 30
0.0
 10
-0.2889655828
 20
-40.0114304357
 30
0.0
 10
-0.3531034589
 20
-39.839706295
 30
0.0
 10
-0.4829135866
 20
-39.7109263626
 30
0.0
 11
-0.2889655828
 21
-40.2287111581
 31
0.0
 11
-0.4829135866
 21
-39.7109263626
 31
0.0
  0
SPLINE
  5
394
100
AcDbEntity
  8
0
100
AcDbSpline
 62
7
  6
CONTINUOUS
 70
0
 71
3
 72
8
 73
4
 74
2
 42
0.0000001
 43
0.0000001
 44
0.0000000001
 12
0.3631694989
 22
0.3753767825
 32
0.0
 13
0.0
 23
0.5647094049
 33
0.0
 40
0.0
 40
0.0
 40
0.0
 40
0.0
 40
1.0
 40
1.0
 40
1.0
 40
1.0
 10
-0.4720909025
 20
-40.6993146395
 30
0.0
 10
-0.3510344028
 20
-40.5741890453
 30
0.0
 10
-0.2889655828
 20
-40.4169476264
 30
0.0
 10
-0.2889655828
 20
-40.2287111581
 30
0.0
 11
-0.4720909025
 21
-40.6993146395
 31
0.0
 11
-0.2889655828
 21
-40.2287111581
 31
0.0
  0
SPLINE
  5
395
100
AcDbEntity
  8
0
100
AcDbSpline
 62
7
  6
CONTINUOUS
 70
0
 71
3
 72
8
 73
4
 74
2
 42
0.0000001
 43
0.0000001
 44
0.0000000001
 12
0.5711634833
 22
-0.0026080253
 32
0.0
 13
0.3754513188
 23
0.3880714335
 33
0.0
 40
0.0
 40
0.0
 40
0.0
 40
0.0
 40
1.0
 40
1.0
 40
1.0
 40
1.0
 10
-0.9428015775
 20
-40.8940093296
 30
0.0
 10
-0.7524137497
 20
-40.8948786714
 30
0.0
 10
-0.5972413421
 20
-40.828671784
 30
0.0
 10
-0.4720909025
 20
-40.6993146395
 30
0.0
 11
-0.9428015775
 21
-40.8940093296
 31
0.0
 11
-0.4720909025
 21
-40.6993146395
 31
0.0
  0
SPLINE
  5
396
100
AcDbEntity
  8
0
100
AcDbSpline
 62
7
  6
CONTINUOUS
 70
0
 71
3
 72
8
 73
4
 74
2
 42
0.0000001
 43
0.0000001
 44
0.0000000001
 12
0.3537931591
 22
-0.7572414503
 32
0.0
 13
0.7881470543
 23
-0.0035988075
 33
0.0
 40
0.0
 40
0.0
 40
0.0
 40
0.0
 40
1.0
 40
1.0
 40
1.0
 40
1.0
 10
-1.5117241442
 20
-40.5121200465
 30
0.0
 10
-1.3937930912
 20
-40.7645338633
 30
0.0
 10
-1.2055172622
 20
-40.8928097271
 30
0.0
 10
-0.9428015775
 20
-40.8940093296
 30
0.0
 11
-1.5117241442
 21
-40.5121200465
 31
0.0
 11
-0.9428015775
 21
-40.8940093296
 31
0.0
  0
SPLINE
  5
397
100
AcDbEntity
  8
0
100
AcDbSpline
 62
7
  6
CONTINUOUS
 70
0
 71
3
 72
8
 73
4
 74
2
 42
0.0000001
 43
0.0000001
 44
0.0000000001
 12
-1.1483430413
 22
0.0
 32
0.0
 13
-0.5213793218
 23
1.0551723763
 33
0.0
 40
0.0
 40
0.0
 40
0.0
 40
0.0
 40
1.0
 40
1.0
 40
1.0
 40
1.0
 10
-0.9675638229
 20
-41.1700510931
 30
0.0
 10
-1.3503448367
 20
-41.1700510931
 30
0.0
 10
-1.6296551749
 20
-40.9962579914
 30
0.0
 10
-1.8034482822
 20
-40.644533866
 30
0.0
 11
-0.9675638229
 21
-41.1700510931
 31
0.0
 11
-1.8034482822
 21
-40.644533866
 31
0.0
  0
SPLINE
  5
398
100
AcDbEntity
  8
0
100
AcDbSpline
 62
7
  6
CONTINUOUS
 70
0
 71
3
 72
8
 73
4
 74
2
 42
0.0000001
 43
0.0000001
 44
0.0000000001
 12
-0.5540206302
 22
-0.544577058
 32
0.0
 13
-0.8564845475
 23
0.0
 33
0.0
 40
0.0
 40
0.0
 40
0.0
 40
0.0
 40
1.0
 40
1.0
 40
1.0
 40
1.0
 10
-0.2656712576
 20
-40.8995598924
 30
0.0
 10
-0.4503448009
 20
-41.0810855784
 30
0.0
 10
-0.6820689738
 20
-41.1700510931
 30
0.0
 10
-0.9675638229
 20
-41.1700510931
 30
0.0
 11
-0.2656712576
 21
-40.8995598924
 31
0.0
 11
-0.9675638229
 21
-41.1700510931
 31
0.0
  0
SPLINE
  5
399
100
AcDbEntity
  8
0
100
AcDbSpline
 62
7
  6
CONTINUOUS
 70
0
 71
3
 72
8
 73
4
 74
2
 42
0.0000001
 43
0.0000001
 44
0.0000000001
 12
-0.4441581203
 22
0.2714298291
 32
0.0
 13
-0.6144822836
 23
0.0
 33
0.0
 40
0.0
 40
0.0
 40
0.0
 40
0.0
 40
1.0
 40
1.0
 40
1.0
 40
1.0
 10
1.8308111573
 20
-39.8246656068
 30
0.0
 10
1.6827584505
 20
-39.7341889971
 30
0.0
 10
1.5068963766
 20
-39.6907407873
 30
0.0
 10
1.3020689487
 20
-39.6907407873
 30
0.0
 11
1.8308111573
 21
-39.8246656068
 31
0.0
 11
1.3020689487
 21
-39.6907407873
 31
0.0
  0
SPLINE
  5
39A
100
AcDbEntity
  8
0
100
AcDbSpline
 62
7
  6
CONTINUOUS
 70
0
 71
3
 72
8
 73
4
 74
2
 42
0.0000001
 43
0.0000001
 44
0.0000000001
 12
0.0
 22
0.6828715524
 32
0.0
 13
-0.4496354626
 23
0.2747770922
 33
0.0
 40
0.0
 40
0.0
 40
0.0
 40
0.0
 40
1.0
 40
1.0
 40
1.0
 40
1.0
 10
2.0551724434
 20
-40.3052611291
 30
0.0
 10
2.0551724434
 20
-40.0776372783
 30
0.0
 10
1.9806896448
 20
-39.9162579708
 30
0.0
 10
1.8308111573
 20
-39.8246656068
 30
0.0
 11
2.0551724434
 21
-40.3052611291
 31
0.0
 11
1.8308111573
 21
-39.8246656068
 31
0.0
  0
SPLINE
  5
39B
100
AcDbEntity
  8
0
100
AcDbSpline
 62
7
  6
CONTINUOUS
 70
0
 71
3
 72
8
 73
4
 74
2
 42
0.0000001
 43
0.0000001
 44
0.0000000001
 12
0.3429767105
 22
0.3215405007
 32
0.0
 13
0.0
 23
0.5336802879
 33
0.0
 40
0.0
 40
0.0
 40
0.0
 40
0.0
 40
1.0
 40
1.0
 40
1.0
 40
1.0
 10
1.8808469304
 20
-40.7310243666
 30
0.0
 10
1.9951725006
 20
-40.6238441997
 30
0.0
 10
2.0551724434
 20
-40.4831545584
 30
0.0
 10
2.0551724434
 20
-40.3052611291
 30
0.0
 11
1.8808469304
 21
-40.7310243666
 31
0.0
 11
2.0551724434
 21
-40.3052611291
 31
0.0
  0
SPLINE
  5
39C
100
AcDbEntity
  8
0
100
AcDbSpline
 62
7
  6
CONTINUOUS
 70
0
 71
3
 72
8
 73
4
 74
2
 42
0.0000001
 43
0.0000001
 44
0.0000000001
 12
0.5275862217
 22
0.0
 32
0.0
 13
0.3521960762
 23
0.3301836516
 33
0.0
 40
0.0
 40
0.0
 40
0.0
 40
0.0
 40
1.0
 40
1.0
 40
1.0
 40
1.0
 10
1.4427586794
 20
-40.8990166046
 30
0.0
 10
1.6186207533
 20
-40.8990166046
 30
0.0
 10
1.7634482384
 20
-40.8410855838
 30
0.0
 10
1.8808469304
 20
-40.7310243666
 30
0.0
 11
1.4427586794
 21
-40.8990166046
 31
0.0
 11
1.8808469304
 21
-40.7310243666
 31
0.0
  0
SPLINE
  5
39D
100
AcDbEntity
  8
0
100
AcDbSpline
 62
7
  6
CONTINUOUS
 70
0
 71
3
 72
8
 73
4
 74
2
 42
0.0000001
 43
0.0000001
 44
0.0000000001
 12
0.2606892586
 22
-0.8441379145
 32
0.0
 13
1.011723876
 23
0.0
 33
0.0
 40
0.0
 40
0.0
 40
0.0
 40
0.0
 40
1.0
 40
1.0
 40
1.0
 40
1.0
 10
0.8055173159
 20
-40.4748786919
 30
0.0
 10
0.8924137354
 20
-40.7562579968
 30
0.0
 10
1.1055173874
 20
-40.8990166046
 30
0.0
 10
1.4427586794
 20
-40.8990166046
 30
0.0
 11
0.8055173159
 21
-40.4748786919
 31
0.0
 11
1.4427586794
 21
-40.8990166046
 31
0.0
  0
SPLINE
  5
39E
100
AcDbEntity
  8
0
100
AcDbSpline
 62
7
  6
CONTINUOUS
 70
0
 71
3
 72
8
 73
4
 74
2
 42
0.0000001
 43
0.0000001
 44
0.0000000001
 12
-1.3220320416
 22
-0.0115967811
 32
0.0
 13
-0.5213790536
 23
1.2165516727
 33
0.0
 40
0.0
 40
0.0
 40
0.0
 40
0.0
 40
1.0
 40
1.0
 40
1.0
 40
1.0
 10
1.4137808705
 20
-41.1723923993
 30
0.0
 10
0.9731035233
 20
-41.176257993
 30
0.0
 10
0.6648275852
 20
-40.9776373029
 30
0.0
 10
0.4910345674
 20
-40.5721200787
 30
0.0
 11
1.4137808705
 21
-41.1723923993
 31
0.0
 11
0.4910345674
 21
-40.5721200787
 31
0.0
  0
SPLINE
  5
39F
100
AcDbEntity
  8
0
100
AcDbSpline
 62
7
  6
CONTINUOUS
 70
0
 71
3
 72
8
 73
4
 74
2
 42
0.0000001
 43
0.0000001
 44
0.0000000001
 12
-0.5347683119
 22
-0.4446040863
 32
0.0
 13
-0.8007261085
 23
-0.0070239186
 33
0.0
 40
0.0
 40
0.0
 40
0.0
 40
0.0
 40
1.0
 40
1.0
 40
1.0
 40
1.0
 10
2.0803251958
 20
-40.9473669743
 30
0.0
 10
1.9020690918
 20
-41.0955683364
 30
0.0
 10
1.6806895733
 20
-41.1700510931
 30
0.0
 10
1.4137808705
 20
-41.1723923993
 30
0.0
 11
2.0803251958
 21
-40.9473669743
 31
0.0
 11
1.4137808705
 21
-41.1723923993
 31
0.0
  0
SPLINE
  5
3A0
100
AcDbEntity
  8
0
100
AcDbSpline
 62
7
  6
CONTINUOUS
 70
0
 71
3
 72
8
 73
4
 74
2
 42
0.0000001
 43
0.0000001
 44
0.0000000001
 12
-0.0036478234
 22
-0.8317392062
 32
0.0
 13
-0.5328173948
 23
-0.4429821022
 33
0.0
 40
0.0
 40
0.0
 40
0.0
 40
0.0
 40
1.0
 40
1.0
 40
1.0
 40
1.0
 10
2.3501814668
 20
-40.3093563983
 30
0.0
 10
2.3489655256
 20
-40.5866028004
 30
0.0
 10
2.257930994
 20
-40.7997062736
 30
0.0
 10
2.0803251958
 20
-40.9473669743
 30
0.0
 11
2.3501814668
 21
-40.3093563983
 31
0.0
 11
2.0803251958
 21
-40.9473669743
 31
0.0
  0
SPLINE
  5
3A1
100
AcDbEntity
  8
0
100
AcDbSpline
 62
7
  6
CONTINUOUS
 70
0
 71
3
 72
8
 73
4
 74
2
 42
0.0000001
 43
0.0000001
 44
0.0000000001
 12
0.3148348485
 22
-0.4187300764
 32
0.0
 13
-0.0025588083
 23
-0.5834331621
 33
0.0
 40
0.0
 40
0.0
 40
0.0
 40
0.0
 40
1.0
 40
1.0
 40
1.0
 40
1.0
 10
2.1943653771
 20
-39.8097847447
 30
0.0
 10
2.2993103266
 20
-39.9493614369
 30
0.0
 10
2.3510344028
 20
-40.1148786776
 30
0.0
 10
2.3501814668
 20
-40.3093563983
 30
0.0
 11
2.1943653771
 21
-39.8097847447
 31
0.0
 11
2.3501814668
 21
-40.3093563983
 31
0.0
  0
SPLINE
  5
3A2
100
AcDbEntity
  8
0
100
AcDbSpline
 62
7
  6
CONTINUOUS
 70
0
 71
3
 72
8
 73
4
 74
2
 42
0.0000001
 43
0.0000001
 44
0.0000000001
 12
0.5648281574
 22
-0.1489655972
 32
0.0
 13
0.3058551396
 23
-0.4067870714
 33
0.0
 40
0.0
 40
0.0
 40
0.0
 40
0.0
 40
1.0
 40
1.0
 40
1.0
 40
1.0
 10
1.7634482384
 20
-39.5376373463
 30
0.0
 10
1.9517242908
 20
-39.5872925453
 30
0.0
 10
2.0924136639
 20
-39.6741890543
 30
0.0
 10
2.1943653771
 20
-39.8097847447
 30
0.0
 11
1.7634482384
 21
-39.5376373463
 31
0.0
 11
2.1943653771
 21
-39.8097847447
 31
0.0
  0
SPLINE
  5
3A3
100
AcDbEntity
  8
0
100
AcDbSpline
 62
7
  6
CONTINUOUS
 70
0
 71
3
 72
8
 73
4
 74
2
 42
0.0000001
 43
0.0000001
 44
0.0000000001
 12
-0.2885361409
 22
-0.3700796587
 32
0.0
 13
-0.4344824553
 23
-0.1427589655
 33
0.0
 40
0.0
 40
0.0
 40
0.0
 40
0.0
 40
1.0
 40
1.0
 40
1.0
 40
1.0
 10
2.1244546803
 20
-39.2797947187
 30
0.0
 10
2.0282759666
 20
-39.4031546049
 30
0.0
 10
1.9082757235
 20
-39.4900510245
 30
0.0
 10
1.7634482384
 20
-39.5376373463
 30
0.0
 11
2.1244546803
 21
-39.2797947187
 31
0.0
 11
1.7634482384
 21
-39.5376373463
 31
0.0
  0
SPLINE
  5
3A4
100
AcDbEntity
  8
0
100
AcDbSpline
 62
7
  6
CONTINUOUS
 70
0
 71
3
 72
8
 73
4
 74
2
 42
0.0000001
 43
0.0000001
 44
0.0000000001
 12
0.0
 22
-0.4965902558
 32
0.0
 13
-0.2824975753
 23
-0.3623345273
 33
0.0
 40
0.0
 40
0.0
 40
0.0
 40
0.0
 40
1.0
 40
1.0
 40
1.0
 40
1.0
 10
2.2682757378
 20
-38.8507278498
 30
0.0
 10
2.2682757378
 20
-39.0162579351
 30
0.0
 10
2.2186205387
 20
-39.1590165429
 30
0.0
 10
2.1244546803
 20
-39.2797947187
 30
0.0
 11
2.2682757378
 21
-38.8507278498
 31
0.0
 11
2.1244546803
 21
-39.2797947187
 31
0.0
  0
SPLINE
  5
3A5
100
AcDbEntity
  8
0
100
AcDbSpline
 62
7
  6
CONTINUOUS
 70
0
 71
3
 72
8
 73
4
 74
2
 42
0.0000001
 43
0.0000001
 44
0.0000000001
 12
0.4884765399
 22
-0.4044713081
 32
0.0
 13
0.0
 23
-0.7509958157
 33
0.0
 40
0.0
 40
0.0
 40
0.0
 40
0.0
 40
1.0
 40
1.0
 40
1.0
 40
1.0
 10
2.0226915594
 20
-38.273158335
 30
0.0
 10
2.1855170727
 20
-38.4079821043
 30
0.0
 10
2.2682757378
 20
-38.6003959112
 30
0.0
 10
2.2682757378
 20
-38.8507278498
 30
0.0
 11
2.0226915594
 21
-38.273158335
 31
0.0
 11
2.2682757378
 21
-38.8507278498
 31
0.0
  0
SPLINE
  5
3A6
100
AcDbEntity
  8
0
100
AcDbSpline
 62
7
  6
CONTINUOUS
 70
0
 71
3
 72
8
 73
4
 74
2
 42
0.0000001
 43
0.0000001
 44
0.0000000001
 12
0.7137937546
 22
0.0
 32
0.0
 13
0.4860054003
 23
-0.4024251401
 33
0.0
 40
0.0
 40
0.0
 40
0.0
 40
0.0
 40
1.0
 40
1.0
 40
1.0
 40
1.0
 10
1.4220688343
 20
-38.0728096895
 30
0.0
 10
1.6600000858
 20
-38.0728096895
 30
0.0
 10
1.8606897593
 20
-38.1390166216
 30
0.0
 10
2.0226915594
 20
-38.273158335
 30
0.0
 11
1.4220688343
 21
-38.0728096895
 31
0.0
 11
2.0226915594
 21
-38.273158335
 31
0.0
  0
SPLINE
  5
3A7
100
AcDbEntity
  8
0
100
AcDbSpline
 62
7
  6
CONTINUOUS
 70
0
 71
3
 72
8
 73
4
 74
2
 42
0.0000001
 43
0.0000001
 44
0.0000000001
 12
0.5400000215
 22
0.9434482455
 32
0.0
 13
1.0862066746
 23
0.0
 33
0.0
 40
0.0
 40
0.0
 40
0.0
 40
0.0
 40
1.0
 40
1.0
 40
1.0
 40
1.0
 10
0.6089655757
 20
-38.5466027789
 30
0.0
 10
0.7889655828
 20
-38.2321200304
 30
0.0
 10
1.0599999428
 20
-38.0728096895
 30
0.0
 10
1.4220688343
 20
-38.0728096895
 30
0.0
 11
0.6089655757
 21
-38.5466027789
 31
0.0
 11
1.4220688343
 21
-38.0728096895
 31
0.0
  0
SPLINE
  5
3A8
100
AcDbEntity
  8
0
100
AcDbSpline
 62
7
  6
CONTINUOUS
 70
0
 71
3
 72
8
 73
4
 74
2
 42
0.0000001
 43
0.0000001
 44
0.0000000001
 12
-0.7511328584
 22
0.0025549863
 32
0.0
 13
-0.3724139929
 23
-0.6517242193
 33
0.0
 40
0.0
 40
0.0
 40
0.0
 40
0.0
 40
1.0
 40
1.0
 40
1.0
 40
1.0
 10
1.4324466827
 20
-38.3550406341
 30
0.0
 10
1.1820690632
 20
-38.354188972
 30
0.0
 10
0.9958620667
 20
-38.4638441138
 30
0.0
 10
0.8717240691
 20
-38.6810855203
 30
0.0
 11
1.4324466827
 21
-38.3550406341
 31
0.0
 11
0.8717240691
 21
-38.6810855203
 31
0.0
  0
SPLINE
  5
3A9
100
AcDbEntity
  8
0
100
AcDbSpline
 62
7
  6
CONTINUOUS
 70
0
 71
3
 72
8
 73
4
 74
2
 42
0.0000001
 43
0.0000001
 44
0.0000000001
 12
-0.0038884727
 22
0.999380156
 32
0.0
 13
-1.0736940973
 23
0.0036521818
 33
0.0
 40
0.0
 40
0.0
 40
0.0
 40
0.0
 40
1.0
 40
1.0
 40
1.0
 40
1.0
 10
1.9737099359
 20
-38.8590398313
 30
0.0
 10
1.9724137783
 20
-38.5259131127
 30
0.0
 10
1.7903447151
 20
-38.3562580281
 30
0.0
 10
1.4324466827
 20
-38.3550406341
 30
0.0
 11
1.9737099359
 21
-38.8590398313
 31
0.0
 11
1.4324466827
 21
-38.3550406341
 31
0.0
  0
SPLINE
  5
3AA
100
AcDbEntity
  8
0
100
AcDbSpline
 62
7
  6
CONTINUOUS
 70
0
 71
3
 72
8
 73
4
 74
2
 42
0.0000001
 43
0.0000001
 44
0.0000000001
 12
0.3709559885
 22
0.2627603583
 32
0.0
 13
-0.002318159
 23
0.5957923089
 33
0.0
 40
0.0
 40
0.0
 40
0.0
 40
0.0
 40
1.0
 40
1.0
 40
1.0
 40
1.0
 10
1.7887618393
 20
-39.2859137844
 30
0.0
 10
1.9124138355
 20
-39.1983269983
 30
0.0
 10
1.9744826555
 20
-39.0576372676
 30
0.0
 10
1.9737099359
 20
-38.8590398313
 30
0.0
 11
1.7887618393
 21
-39.2859137844
 31
0.0
 11
1.9737099359
 21
-38.8590398313
 31
0.0
  0
SPLINE
  5
3AB
100
AcDbEntity
  8
0
100
AcDbSpline
 62
7
  6
CONTINUOUS
 70
0
 71
3
 72
8
 73
4
 74
2
 42
0.0000001
 43
0.0000001
 44
0.0000000001
 12
0.5400005579
 22
-0.0062066317
 32
0.0
 13
0.3738719972
 23
0.2648258634
 33
0.0
 40
0.0
 40
0.0
 40
0.0
 40
0.0
 40
1.0
 40
1.0
 40
1.0
 40
1.0
 10
1.3289654255
 20
-39.4155684047
 30
0.0
 10
1.5089656115
 20
-39.4176372819
 30
0.0
 10
1.6641378403
 20
-39.3741890722
 30
0.0
 10
1.7887618393
 20
-39.2859137844
 30
0.0
 11
1.3289654255
 21
-39.4155684047
 31
0.0
 11
1.7887618393
 21
-39.2859137844
 31
0.0
  0
SPLINE
  5
3AC
100
AcDbEntity
  8
0
100
AcDbSpline
 62
7
  6
CONTINUOUS
 70
0
 71
3
 72
17
 73
13
 74
11
 42
0.0000001
 43
0.0000001
 44
0.0000000001
 12
0.4707703667
 22
0.4336523745
 32
0.0
 13
-0.0
 23
0.6400618096
 33
0.0
 40
0.0
 40
0.0
 40
0.0
 40
0.0
 40
0.0778694419
 40
0.1572376304
 40
0.2394670139
 40
0.3261622383
 40
0.4184253671
 40
0.517872266
 40
0.6251551075
 40
0.7405004217
 40
0.8652934327
 40
1.0
 40
1.0
 40
1.0
 40
1.0
 10
26.55
 20
-29.7944153405
 30
0.0
 10
26.5622195419
 20
-29.783159251
 30
0.0
 10
26.5856241239
 20
-29.7590137007
 30
0.0
 10
26.6171460047
 20
-29.7186991742
 30
0.0
 10
26.645548669
 20
-29.6738869948
 30
0.0
 10
26.6709773955
 20
-29.6242207013
 30
0.0
 10
26.6934686142
 20
-29.5691722412
 30
0.0
 10
26.71283091
 20
-29.5083237
 30
0.0
 10
26.7287157495
 20
-29.4414067416
 30
0.0
 10
26.7407103559
 20
-29.3682003842
 30
0.0
 10
26.7483160888
 20
-29.2885326647
 30
0.0
 10
26.75
 20
-29.2331484808
 30
0.0
 10
26.75
 20
-29.2044083044
 30
0.0
 11
26.55
 21
-29.7944153405
 31
0.0
 11
26.5847371661
 21
-29.7586734871
 31
0.0
 11
26.6160972697
 21
-29.7187080094
 31
0.0
 11
26.6443559897
 21
-29.6743057529
 31
0.0
 11
26.6697393028
 21
-29.6249614416
 31
0.0
 11
26.6921765985
 21
-29.5703358515
 31
0.0
 11
26.7115849289
 21
-29.5097147788
 31
0.0
 11
26.7275531902
 21
-29.4429295953
 31
0.0
 11
26.7395955428
 21
-29.3700902199
 31
0.0
 11
26.7472866861
 21
-29.2905861298
 31
0.0
 11
26.75
 21
-29.2044083044
 31
0.0
  0
SPLINE
  5
3AD
100
AcDbEntity
  8
0
100
AcDbSpline
 62
7
  6
CONTINUOUS
 70
0
 71
3
 72
14
 73
10
 74
8
 42
0.0000001
 43
0.0000001
 44
0.0000000001
 12
0.0
 22
-0.8147180591
 32
0.0
 13
0.3299908577
 23
-0.7448970061
 33
0.0
 40
0.0
 40
0.0
 40
0.0
 40
0.0
 40
0.106378714
 40
0.2229890352
 40
0.3506774718
 40
0.4910440135
 40
0.645020378
 40
0.8142108618
 40
1.0
 40
1.0
 40
1.0
 40
1.0
 10
26.25
 20
-28.9412182375
 30
0.0
 10
26.25
 20
-28.9701077906
 30
0.0
 10
26.2522320442
 20
-29.0306829035
 30
0.0
 10
26.2623363409
 20
-29.1254508101
 30
0.0
 10
26.2803899205
 20
-29.2284216371
 30
0.0
 10
26.3074169111
 20
-29.3398777576
 30
0.0
 10
26.3443907435
 20
-29.4602810367
 30
0.0
 10
26.3920924503
 20
-29.5900688248
 30
0.0
 10
26.429563761
 20
-29.6789272327
 30
0.0
 10
26.45
 20
-29.7250584903
 30
0.0
 11
26.25
 21
-28.9412182375
 31
0.0
 11
26.2530839095
 21
-29.0278320124
 31
0.0
 11
26.2630256973
 21
-29.1223149339
 31
0.0
 11
26.2808354244
 21
-29.2248091785
 31
0.0
 11
26.3075979338
 21
-29.3359927418
 31
0.0
 11
26.3442013014
 21
-29.4559811779
 31
0.0
 11
26.3914910713
 21
-29.5854579874
 31
0.0
 11
26.45
 21
-29.7250584903
 31
0.0
  0
SPLINE
  5
3AE
100
AcDbEntity
  8
0
100
AcDbSpline
 62
7
  6
CONTINUOUS
 70
0
 71
3
 72
14
 73
10
 74
8
 42
0.0000001
 43
0.0000001
 44
0.0000000001
 12
-0.3299909042
 22
-0.7448971113
 32
0.0
 13
-0.0
 23
-0.8147181741
 33
0.0
 40
0.0
 40
0.0
 40
0.0
 40
0.0
 40
0.1869212002
 40
0.3567127798
 40
0.5108522072
 40
0.6510251115
 40
0.7782622516
 40
0.8942630257
 40
1.0
 40
1.0
 40
1.0
 40
1.0
 10
26.45
 20
-34.1198712869
 30
0.0
 10
26.4294392347
 20
-34.1662836409
 30
0.0
 10
26.391794468
 20
-34.2555804446
 30
0.0
 10
26.3439691952
 20
-34.3858724112
 30
0.0
 10
26.3070305817
 20
-34.5064491774
 30
0.0
 10
26.2801236631
 20
-34.6177997792
 30
0.0
 10
26.2622079422
 20
-34.7204483291
 30
0.0
 10
26.2522061286
 20
-34.814761236
 30
0.0
 10
26.25
 20
-34.8749962615
 30
0.0
 10
26.25
 20
-34.9037115397
 30
0.0
 11
26.45
 21
-34.1198712869
 31
0.0
 11
26.3911536803
 21
-34.2603304472
 31
0.0
 11
26.3437522674
 21
-34.3902878531
 31
0.0
 11
26.30719144
 21
-34.5104281492
 31
0.0
 11
26.2805545476
 21
-34.6214796625
 31
0.0
 11
26.2628853687
 21
-34.7236251247
 31
0.0
 11
26.2530474588
 21
-34.8176196248
 31
0.0
 11
26.25
 21
-34.9037115397
 31
0.0
  0
SPLINE
  5
3AF
100
AcDbEntity
  8
0
100
AcDbSpline
 62
7
  6
CONTINUOUS
 70
0
 71
3
 72
17
 73
13
 74
11
 42
0.0000001
 43
0.0000001
 44
0.0000000001
 12
0.0
 22
0.6400618096
 32
0.0
 13
-0.4707703667
 23
0.4336523745
 33
0.0
 40
0.0
 40
0.0
 40
0.0
 40
0.0
 40
0.1347065673
 40
0.2594995783
 40
0.3748448925
 40
0.482127734
 40
0.5815746329
 40
0.6738377617
 40
0.7605329861
 40
0.8427623696
 40
0.9221305581
 40
1.0
 40
1.0
 40
1.0
 40
1.0
 10
26.75
 20
-34.6405214728
 30
0.0
 10
26.75
 20
-34.6117812964
 30
0.0
 10
26.7483160888
 20
-34.5563971125
 30
0.0
 10
26.7407103559
 20
-34.476729393
 30
0.0
 10
26.7287157495
 20
-34.4035230356
 30
0.0
 10
26.71283091
 20
-34.3366060772
 30
0.0
 10
26.6934686142
 20
-34.275757536
 30
0.0
 10
26.6709773955
 20
-34.2207090759
 30
0.0
 10
26.645548669
 20
-34.1710427824
 30
0.0
 10
26.6171460047
 20
-34.1262306029
 30
0.0
 10
26.5856241239
 20
-34.0859160765
 30
0.0
 10
26.5622195419
 20
-34.0617705262
 30
0.0
 10
26.55
 20
-34.0505144367
 30
0.0
 11
26.75
 21
-34.6405214728
 31
0.0
 11
26.7472866861
 21
-34.5543436474
 31
0.0
 11
26.7395955428
 21
-34.4748395573
 31
0.0
 11
26.7275531902
 21
-34.4020001819
 31
0.0
 11
26.7115849289
 21
-34.3352149984
 31
0.0
 11
26.6921765985
 21
-34.2745939257
 31
0.0
 11
26.6697393028
 21
-34.2199683356
 31
0.0
 11
26.6443559897
 21
-34.1706240243
 31
0.0
 11
26.6160972697
 21
-34.1262217678
 31
0.0
 11
26.5847371661
 21
-34.0862562901
 31
0.0
 11
26.55
 21
-34.0505144367
 31
0.0
  0
ELLIPSE
  5
3B0
100
AcDbEntity
  8
RACCORDO
100
AcDbEllipse
 62
7
  6
CONTINUOUS
 10
-32.4999428824
 20
35.0774779938
 30
0.0
 11
-1.0607409467
 21
1.0607409467
 31
0.0
 40
0.9999238505
 41
5.49782522
 42
7.0685453944
  0
ELLIPSE
  5
3B1
100
AcDbEntity
  8
RACCORDO
100
AcDbEllipse
 62
7
  6
CONTINUOUS
 10
32.4999428824
 20
35.0774779938
 30
0.0
 11
-1.0607409467
 21
-1.0607409467
 31
0.0
 40
0.9999238505
 41
8.6394178736
 42
10.210138048
  0
ELLIPSE
  5
3B2
100
AcDbEntity
  8
RACCORDO
100
AcDbEllipse
 62
7
  6
CONTINUOUS
 10
32.4999428824
 20
-44.922407771
 30
0.0
 11
1.0607409467
 21
-1.0607409467
 31
0.0
 40
0.9999238505
 41
-0.7853600872
 42
0.7853600872
  0
ELLIPSE
  5
3B3
100
AcDbEntity
  8
RACCORDO
100
AcDbEllipse
 62
7
  6
CONTINUOUS
 10
32.4999428824
 20
35.0774779938
 30
0.0
 11
1.0607409467
 21
1.0607409467
 31
0.0
 40
0.9999238505
 41
-0.7853600872
 42
0.7853600872
  0
ELLIPSE
  5
3B4
100
AcDbEntity
  8
RACCORDO
100
AcDbEllipse
 62
7
  6
CONTINUOUS
 10
-32.4999428824
 20
35.0774779938
 30
0.0
 11
1.0607409467
 21
-1.0607409467
 31
0.0
 40
0.9999238505
 41
2.4218749329
 42
3.9269527407
  0
ELLIPSE
  5
3B5
100
AcDbEntity
  8
RACCORDO
100
AcDbEllipse
 62
7
  6
CONTINUOUS
 10
-32.4999428824
 20
35.0774779938
 30
0.0
 11
-1.0607409467
 21
1.0607409467
 31
0.0
 40
0.9999238505
 41
-0.7853600872
 42
-0.7197177207
  0
ELLIPSE
  5
3B6
100
AcDbEntity
  8
RACCORDO
100
AcDbEllipse
 62
7
  6
CONTINUOUS
 10
-32.4999428824
 20
-44.922407771
 30
0.0
 11
1.0607409467
 21
1.0607409467
 31
0.0
 40
0.9999238505
 41
-3.9269527408
 42
-2.3562325664
  0
ELLIPSE
  5
3B7
100
AcDbEntity
  8
DRAFT
100
AcDbEllipse
 62
7
  6
CONTINUOUS
 10
0.0
 20
-46.2130200616
 30
0.0
 11
11.5
 21
0.0
 31
0.0
 40
0.0087268678
 41
0.0
 42
6.2831853072
  0
ENDSEC
  0
SECTION
  2
OBJECTS
  0
DICTIONARY
  5
C
100
AcDbDictionary
280
0
281
1
  3
ACAD_GROUP
350
D
  3
ACAD_MLINESTYLE
350
17
  3
ACAD_LAYOUT
350
1A
  3
ACAD_PLOTSETTINGS
350
19
  3
ACAD_PLOTSTYLENAME
350
E
  0
DICTIONARY
  5
D
102
{ACAD_REACTORS
330
C
102
}
100
AcDbDictionary
280
0
281
1
  0
ACDBDICTIONARYWDFLT
  5
E
102
{ACAD_REACTORS
330
C
102
}
100
AcDbDictionary
281
1
  3
Normal
350
F
100
AcDbDictionaryWithDefault
340
F
  0
DICTIONARY
  5
17
102
{ACAD_REACTORS
330
C
102
}
100
AcDbDictionary
280
0
281
1
  3
Standard
350
18
  0
DICTIONARY
  5
19
102
{ACAD_REACTORS
330
C
102
}
100
AcDbDictionary
281
1
  0
DICTIONARY
  5
1A
102
{ACAD_REACTORS
330
C
102
}
100
AcDbDictionary
281
1
  3
Model
350
3B8
  3
Layout1
350
3B9
  0
ACDBPLACEHOLDER
  5
F
102
{ACAD_REACTORS
330
E
102
}
  0
MLINESTYLE
  5
18
102
{ACAD_REACTORS
330
17
102
}
100
AcDbMlineStyle
  2
STANDARD
 70
0
  3

 62
256
 51
90.0
 52
90.0
 71
2
 49
0.5
 62
256
  6
BYLAYER
 49
-0.5
 62
256
  6
BYLAYER
  0
LAYOUT
  5
3B8
102
{ACAD_REACTORS
330
1A
102
}
100
AcDbPlotSettings
  1

  2
none_device
  4
ISO_A4_(297.00_x_210.00_MM)
  6

 40
0.0
 41
0.0
 42
0.0
 43
0.0
 44
297.0
 45
210.0
 46
0.0
 47
0.0
 48
0.0
 49
0.0
140
0.0
141
0.0
142
1.0
143
1.0
 70
1024
 72
1
 73
0
 74
0
  7

 75
0
147
1.0
148
0.0
149
0.0
100
AcDbLayout
  1
Model
 70
0
 71
0
 10
0.0
 20
0.0
 11
297.0
 21
210.0
 12
0.0
 22
0.0
 32
0.0
 14
0.0
 24
0.0
 34
0.0
 15
0.0
 25
0.0
 35
0.0
146
0.0
 13
0.0
 23
0.0
 33
0.0
 16
1.0
 26
0.0
 36
0.0
 17
0.0
 27
1.0
 37
0.0
 76
0
330
218
345
0
346
0
  0
LAYOUT
  5
3B9
102
{ACAD_REACTORS
330
1A
102
}
100
AcDbPlotSettings
  1

  2
none_device
  4
ISO_A4_(297.00_x_210.00_MM)
  6

 40
0.0
 41
0.0
 42
0.0
 43
0.0
 44
297.0
 45
210.0
 46
0.0
 47
0.0
 48
0.0
 49
0.0
140
0.0
141
0.0
142
1.0
143
1.0
 70
0
 72
1
 73
0
 74
0
  7

 75
0
147
1.0
148
0.0
149
0.0
100
AcDbLayout
  1
Layout1
 70
0
 71
1
 10
0.0
 20
0.0
 11
297.0
 21
210.0
 12
0.0
 22
0.0
 32
0.0
 14
0.0
 24
0.0
 34
0.0
 15
0.0
 25
0.0
 35
0.0
146
0.0
 13
0.0
 23
0.0
 33
0.0
 16
1.0
 26
0.0
 36
0.0
 17
0.0
 27
1.0
 37
0.0
 76
0
330
219
345
0
346
0
  0
ENDSEC
  0
EOF
