  0
SECTION
  2
HEADER
  9
$ACADVER
  1
AC1015
  9
$DWGCODEPAGE
  3
ANSI_1252
  9
$EXTMAX
 10
297.0
 20
210.0
 30
0.0
  9
$EXTMIN
 10
0.0
 20
0.0
 30
0.0
  9
$LIMMIN
 10
0.0
 20
0.0
  9
$LIMMAX
 10
297.0
 20
210.0
  9
$VIEWCTR
 10
148.5
 20
105.0
  9
$VIEWSIZE
 40
210.0
  9
$CLAYER
  8
0
  9
$LTSCALE
 40
16.335
  9
$CELTYPE
  6
BYLAYER
  9
$DIMSCALE
 40
1.0
  9
$DIMASZ
 40
3.0
  9
$DIMEXO
 40
1.85625
  9
$DIMDLI
 40
11.286
  9
$DIMEXE
 40
5.346
  9
$DIMCEN
 40
2.673
  9
$DIMLFAC
 40
1.0
  9
$DIMBLK
  1
_FILLED
  9
$DIMTXT
 40
3.0
  9
$DIMTOL
 70
1
  9
$DIMLIM
 70
0
  9
$DIMTFAC
 40
1.0
  9
$DIMTP
 40
0.01
  9
$DIMTM
 40
0.01
  9
$PDMODE
 70
3
  9
$PDSIZE
 40
3.0
  9
$HANDSEED
  5
3C9
  9
$TILEMODE
 70
1
  9
$MEASUREMENT
 70
1
  9
$INSUNITS
 70
4
  0
ENDSEC
  0
SECTION
  2
CLASSES
  0
CLASS
  1
ACDBDICTIONARYWDFLT
  2
AcDbDictionaryWithDefault
  3
AutoCAD 2000
 90
0
280
0
281
0
  0
CLASS
  1
ACDBPLACEHOLDER
  2
AcDbPlaceHolder
  3
AutoCAD 2000
 90
0
280
0
281
0
  0
CLASS
  1
LAYOUT
  2
AcDbLayout
  3
AutoCAD 2000
 90
0
280
0
281
0
  0
ENDSEC
  0
SECTION
  2
TABLES
  0
TABLE
  2
VPORT
  5
8
100
AcDbSymbolTable
 70
2
  0
VPORT
  5
1F4
100
AcDbSymbolTableRecord
100
AcDbViewportTableRecord
  2
*ACTIVE
 70
0
 10
0.0
 20
0.0
 11
1.0
 21
1.0
 12
148.5
 22
105.0
 13
0.0
 23
0.0
 14
1.0
 24
1.0
 15
0.0
 25
0.0
 16
0.0
 26
0.0
 36
1.0
 17
0.0
 27
0.0
 37
0.0
 40
210.0
 41
1.4142857143
 42
50.0
 43
0.0
 44
0.0
 50
0.0
 51
0.0
 71
0
 72
100
 73
1
 74
1
 75
0
 76
0
 77
0
 78
0
  0
ENDTAB
  0
TABLE
  2
LTYPE
  5
5
100
AcDbSymbolTable
 70
6
  0
LTYPE
  5
14
100
AcDbSymbolTableRecord
100
AcDbLinetypeTableRecord
  2
BYBLOCK
 70
0
  3

 72
65
 73
0
 40
0.0
  0
LTYPE
  5
15
100
AcDbSymbolTableRecord
100
AcDbLinetypeTableRecord
  2
BYLAYER
 70
0
  3

 72
65
 73
0
 40
0.0
  0
LTYPE
  5
16
100
AcDbSymbolTableRecord
100
AcDbLinetypeTableRecord
  2
CONTINUOUS
 70
64
  3
Solid line
 72
65
 73
0
 40
0.0
  0
LTYPE
  5
1F5
100
AcDbSymbolTableRecord
100
AcDbLinetypeTableRecord
  2
CENTER
 70
64
  3
____ _ ____ _ ____ _ ____ _ ____ _ ____ _ ____
 72
65
 73
4
 40
0.6
 49
0.375
 74
0
 49
-0.075
 74
0
 49
0.075
 74
0
 49
-0.075
 74
0
  0
LTYPE
  5
1F6
100
AcDbSymbolTableRecord
100
AcDbLinetypeTableRecord
  2
HIDDEN
 70
64
  3
- - - - - - - - - - - - - - - - - - - -
 72
65
 73
2
 40
0.2
 49
0.1
 74
0
 49
-0.1
 74
0
  0
LTYPE
  5
1F7
100
AcDbSymbolTableRecord
100
AcDbLinetypeTableRecord
  2
PHANTOM
 70
64
  3
_____ _ _ _____ _ _ _____ _ _ _____
 72
65
 73
6
 40
0.8
 49
0.45
 74
0
 49
-0.05
 74
0
 49
0.1
 74
0
 49
-0.05
 74
0
 49
0.1
 74
0
 49
-0.05
 74
0
  0
LTYPE
  5
1F8
100
AcDbSymbolTableRecord
100
AcDbLinetypeTableRecord
  2
DOT
 70
64
  3
. . . . . . . . . . . . . . . . . . . .
 72
65
 73
2
 40
0.2
 49
0.1
 74
0
 49
-0.1
 74
0
  0
LTYPE
  5
1F9
100
AcDbSymbolTableRecord
100
AcDbLinetypeTableRecord
  2
DASHED
 70
64
  3
- - - - - - - - - - - - - - - - - - - -
 72
65
 73
2
 40
0.2
 49
0.1
 74
0
 49
-0.1
 74
0
  0
ENDTAB
  0
TABLE
  2
LAYER
  5
2
100
AcDbSymbolTable
 70
36
  0
LAYER
  5
10
100
AcDbSymbolTableRecord
100
AcDbLayerTableRecord
  2
0
 70
0
 62
7
  6
CONTINUOUS
370
-3
390
F
  0
LAYER
  5
1FA
100
AcDbSymbolTableRecord
100
AcDbLayerTableRecord
  2
DEFAULT_1
 70
0
 62
7
  6
CENTER
370
-3
390
F
  0
LAYER
  5
1FB
100
AcDbSymbolTableRecord
100
AcDbLayerTableRecord
  2
DEFAULT_2
 70
0
 62
7
  6
HIDDEN
370
-3
390
F
  0
LAYER
  5
1FC
100
AcDbSymbolTableRecord
100
AcDbLayerTableRecord
  2
DEFAULT_3
 70
0
 62
7
  6
PHANTOM
370
-3
390
F
  0
LAYER
  5
1FD
100
AcDbSymbolTableRecord
100
AcDbLayerTableRecord
  2
ASSI
 70
0
 62
7
  6
CONTINUOUS
370
-3
390
F
  0
LAYER
  5
1FE
100
AcDbSymbolTableRecord
100
AcDbLayerTableRecord
  2
COLOR5
 70
0
 62
7
  6
CONTINUOUS
370
-3
390
F
  0
LAYER
  5
1FF
100
AcDbSymbolTableRecord
100
AcDbLayerTableRecord
  2
COORDINATE
 70
0
 62
7
  6
CONTINUOUS
370
-3
390
F
  0
LAYER
  5
200
100
AcDbSymbolTableRecord
100
AcDbLayerTableRecord
  2
COORD_ORIGINE
 70
0
 62
7
  6
CONTINUOUS
370
-3
390
F
  0
LAYER
  5
201
100
AcDbSymbolTableRecord
100
AcDbLayerTableRecord
  2
COPY_PUBLISH
 70
0
 62
7
  6
CONTINUOUS
370
-3
390
F
  0
LAYER
  5
202
100
AcDbSymbolTableRecord
100
AcDbLayerTableRecord
  2
COSMETIC
 70
0
 62
7
  6
CONTINUOUS
370
-3
390
F
  0
LAYER
  5
203
100
AcDbSymbolTableRecord
100
AcDbLayerTableRecord
  2
CURVE
 70
0
 62
7
  6
CONTINUOUS
370
-3
390
F
  0
LAYER
  5
204
100
AcDbSymbolTableRecord
100
AcDbLayerTableRecord
  2
DRAFT
 70
0
 62
7
  6
CONTINUOUS
370
-3
390
F
  0
LAYER
  5
205
100
AcDbSymbolTableRecord
100
AcDbLayerTableRecord
  2
IMPORT_IGES
 70
0
 62
7
  6
CONTINUOUS
370
-3
390
F
  0
LAYER
  5
206
100
AcDbSymbolTableRecord
100
AcDbLayerTableRecord
  2
INTF_1
 70
0
 62
7
  6
CONTINUOUS
370
-3
390
F
  0
LAYER
  5
207
100
AcDbSymbolTableRecord
100
AcDbLayerTableRecord
  2
INTF_2
 70
0
 62
7
  6
CONTINUOUS
370
-3
390
F
  0
LAYER
  5
208
100
AcDbSymbolTableRecord
100
AcDbLayerTableRecord
  2
NOTE
 70
0
 62
7
  6
CONTINUOUS
370
-3
390
F
  0
LAYER
  5
209
100
AcDbSymbolTableRecord
100
AcDbLayerTableRecord
  2
PIANI
 70
0
 62
7
  6
CONTINUOUS
370
-3
390
F
  0
LAYER
  5
20A
100
AcDbSymbolTableRecord
100
AcDbLayerTableRecord
  2
PIANI_ORIGINE
 70
0
 62
7
  6
CONTINUOUS
370
-3
390
F
  0
LAYER
  5
20B
100
AcDbSymbolTableRecord
100
AcDbLayerTableRecord
  2
PUNTI
 70
0
 62
7
  6
CONTINUOUS
370
-3
390
F
  0
LAYER
  5
20C
100
AcDbSymbolTableRecord
100
AcDbLayerTableRecord
  2
PUNZONI
 70
0
 62
7
  6
CONTINUOUS
370
-3
390
F
  0
LAYER
  5
20D
100
AcDbSymbolTableRecord
100
AcDbLayerTableRecord
  2
RACCORDO
 70
0
 62
7
  6
CONTINUOUS
370
-3
390
F
  0
LAYER
  5
20E
100
AcDbSymbolTableRecord
100
AcDbLayerTableRecord
  2
RGB__0__0__0
 70
0
 62
7
  6
CONTINUOUS
370
-3
390
F
  0
LAYER
  5
20F
100
AcDbSymbolTableRecord
100
AcDbLayerTableRecord
  2
RGB__255__255__255__
 70
0
 62
7
  6
CONTINUOUS
370
-3
390
F
  0
LAYER
  5
210
100
AcDbSymbolTableRecord
100
AcDbLayerTableRecord
  2
RGB____0____0____0__
 70
0
 62
7
  6
CONTINUOUS
370
-3
390
F
  0
LAYER
  5
211
100
AcDbSymbolTableRecord
100
AcDbLayerTableRecord
  2
SMUSSO
 70
0
 62
7
  6
CONTINUOUS
370
-3
390
F
  0
LAYER
  5
212
100
AcDbSymbolTableRecord
100
AcDbLayerTableRecord
  2
SNAPLINE
 70
0
 62
7
  6
CONTINUOUS
370
-3
390
F
  0
LAYER
  5
213
100
AcDbSymbolTableRecord
100
AcDbLayerTableRecord
  2
SUPERFICI
 70
0
 62
7
  6
CONTINUOUS
370
-3
390
F
  0
LAYER
  5
214
100
AcDbSymbolTableRecord
100
AcDbLayerTableRecord
  2
TRASH
 70
0
 62
7
  6
CONTINUOUS
370
-3
390
F
  0
LAYER
  5
215
100
AcDbSymbolTableRecord
100
AcDbLayerTableRecord
  2
XSEC_DATUMS
 70
0
 62
7
  6
CONTINUOUS
370
-3
390
F
  0
ENDTAB
  0
TABLE
  2
STYLE
  5
3
100
AcDbSymbolTable
 70
1
  0
STYLE
  5
11
100
AcDbSymbolTableRecord
100
AcDbTextStyleTableRecord
  2
STANDARD
 70
0
 40
0.0
 41
0.8
 50
0.0
 71
0
 42
0.2
  3
txt
  4

  0
STYLE
  5
216
100
AcDbSymbolTableRecord
100
AcDbTextStyleTableRecord
  2
TEXTSTYLE_1
 70
0
 40
0.0
 41
0.8
 50
0.0
 71
0
 42
0.2
  3
gdt
  4

  0
ENDTAB
  0
TABLE
  2
VIEW
  5
6
100
AcDbSymbolTable
 70
0
  0
ENDTAB
  0
TABLE
  2
UCS
  5
7
100
AcDbSymbolTable
 70
0
  0
ENDTAB
  0
TABLE
  2
APPID
  5
9
100
AcDbSymbolTable
 70
1
  0
APPID
  5
217
100
AcDbSymbolTableRecord
100
AcDbRegAppTableRecord
  2
ACAD
 70
0
  0
ENDTAB
  0
TABLE
  2
BLOCK_RECORD
  5
1
100
AcDbSymbolTable
 70
0
  0
BLOCK_RECORD
  5
218
100
AcDbSymbolTableRecord
100
AcDbBlockTableRecord
  2
*Model_Space
  0
BLOCK_RECORD
  5
219
100
AcDbSymbolTableRecord
100
AcDbBlockTableRecord
  2
*Paper_Space
  0
ENDTAB
  0
TABLE
  2
DIMSTYLE
  5
A
100
AcDbSymbolTable
 70
1
100
AcDbDimStyleTable
 71
0
  0
DIMSTYLE
105
21A
100
AcDbSymbolTableRecord
100
AcDbDimStyleTableRecord
  2
STANDARD
 70
0
  3

  4

 40
1.0
 41
3.0
 42
0.0625
 43
0.38
 44
0.18
 45
0.0
 46
0.0
 47
0.01
 48
0.01
140
3.0
141
0.09
142
0.0
143
25.4
144
1.0
145
0.0
146
1.0
147
0.09
 71
1.0
 72
0.0
 73
0
 74
0
 75
0
 76
0
 77
1
 78
8
170
0
171
2
172
0
173
0
174
0
175
0
176
0
177
0
178
0
270
2
271
2
272
2
273
2
274
2
275
0
280
0
281
0
282
0
283
1
284
8
285
0
286
0
287
3
288
0
340
11
  0
ENDTAB
  0
ENDSEC
  0
SECTION
  2
BLOCKS
  0
BLOCK
  5
20
100
AcDbEntity
  8
0
100
AcDbBlockBegin
  2
*Model_Space
 70
0
 10
0.0
 20
0.0
 30
0.0
  3
*Model_Space
  1

  0
ENDBLK
  5
21
100
AcDbEntity
  8
0
100
AcDbBlockEnd
  0
BLOCK
  5
1C
100
AcDbEntity
  8
0
100
AcDbBlockBegin
  2
*Paper_Space
 70
0
 10
0.0
 20
0.0
 30
0.0
  3
*Paper_Space
  1

  0
ENDBLK
  5
1D
100
AcDbEntity
  8
0
100
AcDbBlockEnd
  0
ENDSEC
  0
SECTION
  2
ENTITIES
  0
LINE
  5
21B
100
AcDbEntity
  8
0
100
AcDbLine
 62
7
  6
CONTINUOUS
 10
22.25
 20
-44.46675829
 11
26.05
 21
-43.46675829
  0
LINE
  5
21C
100
AcDbEntity
  8
RACCORDO
100
AcDbLine
 62
7
  6
CONTINUOUS
 10
-32.5000571154
 20
-46.56675829
 11
32.5000571154
 21
-46.56675829
  0
LINE
  5
21D
100
AcDbEntity
  8
DRAFT
100
AcDbLine
 62
7
  6
CONTINUOUS
 10
20.0
 20
-46.2700447851
 11
15.0
 21
-46.2700447851
  0
LINE
  5
21E
100
AcDbEntity
  8
RACCORDO
100
AcDbLine
 62
253
  6
CONTINUOUS
 10
-32.1596257422
 20
-46.2263342908
 11
15.0
 21
-46.2263342908
  0
LINE
  5
21F
100
AcDbEntity
  8
RACCORDO
100
AcDbLine
 62
253
  6
CONTINUOUS
 10
20.0
 20
-46.2263342908
 11
32.1596268489
 21
-46.2263342908
  0
LINE
  5
220
100
AcDbEntity
  8
0
100
AcDbLine
 62
7
  6
CONTINUOUS
 10
-26.05
 20
-43.46675829
 11
-22.25
 21
-44.46675829
  0
LINE
  5
221
100
AcDbEntity
  8
RACCORDO
100
AcDbLine
 62
7
  6
CONTINUOUS
 10
15.0
 20
-45.31675829
 11
20.0
 21
-45.31675829
  0
LINE
  5
222
100
AcDbEntity
  8
RACCORDO
100
AcDbLine
 62
253
  6
CONTINUOUS
 10
-32.1596331162
 20
-45.2263723678
 11
15.0
 21
-45.2263723678
  0
LINE
  5
223
100
AcDbEntity
  8
RACCORDO
100
AcDbLine
 62
253
  6
CONTINUOUS
 10
20.0
 20
-45.2263723678
 11
32.1596331162
 21
-45.2263723678
  0
LINE
  5
224
100
AcDbEntity
  8
0
100
AcDbLine
 62
7
  6
CONTINUOUS
 10
-26.75
 20
-45.06675829
 11
-26.25
 21
-45.06675829
  0
LINE
  5
225
100
AcDbEntity
  8
0
100
AcDbLine
 62
7
  6
CONTINUOUS
 10
26.25
 20
-45.06675829
 11
26.75
 21
-45.06675829
  0
LINE
  5
226
100
AcDbEntity
  8
RACCORDO
100
AcDbLine
 62
253
  6
CONTINUOUS
 10
32.6596140778
 20
-44.7263914062
 11
33.6595760008
 21
-44.7263914062
  0
LINE
  5
227
100
AcDbEntity
  8
RACCORDO
100
AcDbLine
 62
253
  6
CONTINUOUS
 10
-32.6596140778
 20
-44.7263914062
 11
-33.6595760008
 21
-44.7263914062
  0
LINE
  5
228
100
AcDbEntity
  8
RACCORDO
100
AcDbLine
 62
253
  6
CONTINUOUS
 10
15.0
 20
-44.31675829
 11
20.0
 21
-44.31675829
  0
LINE
  5
229
100
AcDbEntity
  8
0
100
AcDbLine
 62
7
  6
CONTINUOUS
 10
22.25
 20
-43.61675829
 11
-22.25
 21
-43.61675829
  0
LINE
  5
22A
100
AcDbEntity
  8
0
100
AcDbLine
 62
7
  6
CONTINUOUS
 10
22.25
 20
-43.41675829
 11
-22.25
 21
-43.41675829
  0
LINE
  5
22B
100
AcDbEntity
  8
0
100
AcDbLine
 62
7
  6
CONTINUOUS
 10
22.25
 20
-43.31675829
 11
-22.25
 21
-43.31675829
  0
LINE
  5
22C
100
AcDbEntity
  8
0
100
AcDbLine
 62
7
  6
CONTINUOUS
 10
22.25
 20
-43.11675829
 11
-22.25
 21
-43.11675829
  0
LINE
  5
22D
100
AcDbEntity
  8
0
100
AcDbLine
 62
7
  6
CONTINUOUS
 10
-25.0
 20
-41.31675829
 11
-28.0
 21
-41.31675829
  0
LINE
  5
22E
100
AcDbEntity
  8
SMUSSO
100
AcDbLine
 62
7
  6
CONTINUOUS
 10
-28.0
 20
-40.56675829
 11
-25.0
 21
-40.56675829
  0
LINE
  5
22F
100
AcDbEntity
  8
SMUSSO
100
AcDbLine
 62
7
  6
CONTINUOUS
 10
-28.0
 20
-40.26675829
 11
-25.0
 21
-40.26675829
  0
LINE
  5
230
100
AcDbEntity
  8
0
100
AcDbLine
 62
7
  6
CONTINUOUS
 10
1.1717239618
 20
-39.8350341887
 11
1.3020689487
 21
-39.8350341887
  0
LINE
  5
231
100
AcDbEntity
  8
0
100
AcDbLine
 62
7
  6
CONTINUOUS
 10
1.3289654255
 20
-39.5598618061
 11
1.1717239618
 21
-39.5598618061
  0
LINE
  5
232
100
AcDbEntity
  8
0
100
AcDbLine
 62
7
  6
CONTINUOUS
 10
-30.2360679775
 20
-39.31675829
 11
-32.5
 21
-39.31675829
  0
LINE
  5
233
100
AcDbEntity
  8
0
100
AcDbLine
 62
7
  6
CONTINUOUS
 10
-32.5
 20
-39.11675829
 11
-30.2494443758
 21
-39.11675829
  0
LINE
  5
234
100
AcDbEntity
  8
0
100
AcDbLine
 62
7
  6
CONTINUOUS
 10
-32.5
 20
-39.01675829
 11
-30.2494443758
 21
-39.01675829
  0
LINE
  5
235
100
AcDbEntity
  8
0
100
AcDbLine
 62
7
  6
CONTINUOUS
 10
-30.2360679775
 20
-38.81675829
 11
-32.5
 21
-38.81675829
  0
LINE
  5
236
100
AcDbEntity
  8
0
100
AcDbLine
 62
7
  6
CONTINUOUS
 10
-31.1
 20
-38.61675829
 11
-30.9
 21
-38.61675829
  0
LINE
  5
237
100
AcDbEntity
  8
0
100
AcDbLine
 62
7
  6
CONTINUOUS
 10
-1.286206916
 20
-38.5439996392
 11
-0.0944827199
 21
-38.5439996392
  0
LINE
  5
238
100
AcDbEntity
  8
0
100
AcDbLine
 62
7
  6
CONTINUOUS
 10
-0.0944827199
 20
-38.26675829
 11
-1.5737930983
 21
-38.26675829
  0
LINE
  5
239
100
AcDbEntity
  8
0
100
AcDbLine
 62
7
  6
CONTINUOUS
 10
-32.1
 20
-34.8168529287
 11
-31.1
 21
-38.61675829
  0
LINE
  5
23A
100
AcDbEntity
  8
0
100
AcDbLine
 62
7
  6
CONTINUOUS
 10
-31.1
 20
28.48324171
 11
-32.1
 21
24.6833363487
  0
LINE
  5
23B
100
AcDbEntity
  8
0
100
AcDbLine
 62
7
  6
CONTINUOUS
 10
-22.25
 20
-42.26675829
 11
-26.05
 21
-43.26675829
  0
LINE
  5
23C
100
AcDbEntity
  8
SMUSSO
100
AcDbLine
 62
7
  6
CONTINUOUS
 10
-25.0
 20
-37.86675829
 11
-28.0
 21
-37.86675829
  0
LINE
  5
23D
100
AcDbEntity
  8
SMUSSO
100
AcDbLine
 62
7
  6
CONTINUOUS
 10
-25.0
 20
-37.56675829
 11
-28.0
 21
-37.56675829
  0
LINE
  5
23E
100
AcDbEntity
  8
ASSI
100
AcDbLine
 62
7
  6
CONTINUOUS
 10
-25.0
 20
-36.81675829
 11
-28.0
 21
-36.81675829
  0
LINE
  5
23F
100
AcDbEntity
  8
0
100
AcDbLine
 62
7
  6
CONTINUOUS
 10
-29.9
 20
-34.8168529287
 11
-30.95
 21
-34.8168529287
  0
LINE
  5
240
100
AcDbEntity
  8
0
100
AcDbLine
 62
7
  6
CONTINUOUS
 10
-31.05
 20
-34.8168529287
 11
-32.1
 21
-34.8168529287
  0
LINE
  5
241
100
AcDbEntity
  8
0
100
AcDbLine
 62
7
  6
CONTINUOUS
 10
26.05
 20
-43.26675829
 11
22.25
 21
-42.26675829
  0
LINE
  5
242
100
AcDbEntity
  8
0
100
AcDbLine
 62
7
  6
CONTINUOUS
 10
0.6089655757
 20
-38.6908961803
 11
0.8717240691
 21
-38.8253789217
  0
LINE
  5
243
100
AcDbEntity
  8
RACCORDO
100
AcDbLine
 62
7
  6
CONTINUOUS
 10
-34.0
 20
34.9332988254
 11
-34.0
 21
-45.0668154054
  0
LINE
  5
244
100
AcDbEntity
  8
RACCORDO
100
AcDbLine
 62
253
  6
CONTINUOUS
 10
-33.6595760008
 20
34.5928674522
 11
-33.6595760008
 21
-44.7263851389
  0
LINE
  5
245
100
AcDbEntity
  8
RACCORDO
100
AcDbLine
 62
253
  6
CONTINUOUS
 10
-32.6596140778
 20
34.5928748262
 11
-32.6596140778
 21
-44.7263914062
  0
LINE
  5
246
100
AcDbEntity
  8
0
100
AcDbLine
 62
7
  6
CONTINUOUS
 10
-32.5
 20
29.18324171
 11
-32.5
 21
28.68324171
  0
LINE
  5
247
100
AcDbEntity
  8
0
100
AcDbLine
 62
7
  6
CONTINUOUS
 10
-32.5
 20
-38.81675829
 11
-32.5
 21
-39.31675829
  0
LINE
  5
248
100
AcDbEntity
  8
RACCORDO
100
AcDbLine
 62
253
  6
CONTINUOUS
 10
-32.1596331162
 20
-45.2263723678
 11
-32.1596331162
 21
-46.2263342908
  0
LINE
  5
249
100
AcDbEntity
  8
RACCORDO
100
AcDbLine
 62
253
  6
CONTINUOUS
 10
-32.1596331162
 20
35.0928557878
 11
-32.1596331162
 21
36.0928177108
  0
LINE
  5
24A
100
AcDbEntity
  8
0
100
AcDbLine
 62
7
  6
CONTINUOUS
 10
-31.25
 20
-34.8168529287
 11
-31.25
 21
24.6833363487
  0
LINE
  5
24B
100
AcDbEntity
  8
0
100
AcDbLine
 62
7
  6
CONTINUOUS
 10
-31.05
 20
-34.8168529287
 11
-31.05
 21
24.6833363487
  0
LINE
  5
24C
100
AcDbEntity
  8
0
100
AcDbLine
 62
7
  6
CONTINUOUS
 10
-30.95
 20
-34.8168529287
 11
-30.95
 21
24.6833363487
  0
LINE
  5
24D
100
AcDbEntity
  8
0
100
AcDbLine
 62
7
  6
CONTINUOUS
 10
-30.75
 20
-34.8168529287
 11
-30.75
 21
24.6833363487
  0
LINE
  5
24E
100
AcDbEntity
  8
SMUSSO
100
AcDbLine
 62
253
  6
CONTINUOUS
 10
-28.0
 20
-37.86675829
 11
-28.0
 21
-37.56675829
  0
LINE
  5
24F
100
AcDbEntity
  8
SMUSSO
100
AcDbLine
 62
253
  6
CONTINUOUS
 10
-28.0
 20
-40.26675829
 11
-28.0
 21
-40.56675829
  0
LINE
  5
250
100
AcDbEntity
  8
0
100
AcDbLine
 62
7
  6
CONTINUOUS
 10
-26.75
 20
-45.06675829
 11
-26.75
 21
-41.31675829
  0
LINE
  5
251
100
AcDbEntity
  8
0
100
AcDbLine
 62
7
  6
CONTINUOUS
 10
-26.55
 20
-45.06675829
 11
-26.55
 21
-41.31675829
  0
LINE
  5
252
100
AcDbEntity
  8
0
100
AcDbLine
 62
7
  6
CONTINUOUS
 10
-26.45
 20
-45.06675829
 11
-26.45
 21
-41.31675829
  0
LINE
  5
253
100
AcDbEntity
  8
0
100
AcDbLine
 62
7
  6
CONTINUOUS
 10
-26.25
 20
-45.06675829
 11
-26.25
 21
-41.31675829
  0
LINE
  5
254
100
AcDbEntity
  8
0
100
AcDbLine
 62
7
  6
CONTINUOUS
 10
-26.05
 20
-43.26675829
 11
-26.05
 21
-43.46675829
  0
LINE
  5
255
100
AcDbEntity
  8
0
100
AcDbLine
 62
7
  6
CONTINUOUS
 10
-26.0
 20
-3.1453790218
 11
-26.0
 21
-2.7957238407
  0
LINE
  5
256
100
AcDbEntity
  8
SMUSSO
100
AcDbLine
 62
253
  6
CONTINUOUS
 10
-25.0
 20
-37.86675829
 11
-25.0
 21
-37.56675829
  0
LINE
  5
257
100
AcDbEntity
  8
SMUSSO
100
AcDbLine
 62
253
  6
CONTINUOUS
 10
-25.0
 20
-40.26675829
 11
-25.0
 21
-40.56675829
  0
LINE
  5
258
100
AcDbEntity
  8
0
100
AcDbLine
 62
7
  6
CONTINUOUS
 10
-29.9
 20
24.6833363487
 11
-30.9
 21
28.48324171
  0
LINE
  5
259
100
AcDbEntity
  8
0
100
AcDbLine
 62
7
  6
CONTINUOUS
 10
-22.25
 20
-42.26675829
 11
-22.25
 21
-43.31675829
  0
LINE
  5
25A
100
AcDbEntity
  8
0
100
AcDbLine
 62
7
  6
CONTINUOUS
 10
-22.25
 20
-43.41675829
 11
-22.25
 21
-44.46675829
  0
LINE
  5
25B
100
AcDbEntity
  8
RACCORDO
100
AcDbLine
 62
7
  6
CONTINUOUS
 10
-20.0
 20
34.18324171
 11
-20.0
 21
36.1365282051
  0
LINE
  5
25C
100
AcDbEntity
  8
0
100
AcDbLine
 62
7
  6
CONTINUOUS
 10
-30.9
 20
-38.61675829
 11
-29.9
 21
-34.8168529287
  0
LINE
  5
25D
100
AcDbEntity
  8
RACCORDO
100
AcDbLine
 62
7
  6
CONTINUOUS
 10
-15.0
 20
34.18324171
 11
-15.0
 21
36.1365282051
  0
LINE
  5
25E
100
AcDbEntity
  8
0
100
AcDbLine
 62
7
  6
CONTINUOUS
 10
-26.0
 20
-2.7957238407
 11
-27.3179311156
 21
-2.0136548579
  0
LINE
  5
25F
100
AcDbEntity
  8
0
100
AcDbLine
 62
7
  6
CONTINUOUS
 10
-27.2910344601
 20
-2.3508961946
 11
-26.0
 21
-3.1453790218
  0
LINE
  5
260
100
AcDbEntity
  8
0
100
AcDbLine
 62
7
  6
CONTINUOUS
 10
-14.0
 20
37.8598075293
 11
-14.0
 21
36.4371998771
  0
LINE
  5
261
100
AcDbEntity
  8
0
100
AcDbLine
 62
7
  6
CONTINUOUS
 10
-11.85
 20
40.2639237189
 11
-11.85
 21
39.8371998771
  0
LINE
  5
262
100
AcDbEntity
  8
0
100
AcDbLine
 62
7
  6
CONTINUOUS
 10
-11.5
 20
36.4371998771
 11
-11.5
 21
36.1940818929
  0
LINE
  5
263
100
AcDbEntity
  8
0
100
AcDbLine
 62
7
  6
CONTINUOUS
 10
-11.35
 20
39.8371998771
 11
-11.35
 21
39.3371998771
  0
LINE
  5
264
100
AcDbEntity
  8
0
100
AcDbLine
 62
7
  6
CONTINUOUS
 10
-10.1
 20
42.1041160977
 11
-10.1
 21
41.6371998771
  0
LINE
  5
265
100
AcDbEntity
  8
0
100
AcDbLine
 62
7
  6
CONTINUOUS
 10
-9.45
 20
41.6371998771
 11
-9.45
 21
41.1371998771
  0
LINE
  5
266
100
AcDbEntity
  8
0
100
AcDbLine
 62
7
  6
CONTINUOUS
 10
-8.35
 20
43.8773211784
 11
-8.35
 21
43.4371998771
  0
LINE
  5
267
100
AcDbEntity
  8
0
100
AcDbLine
 62
7
  6
CONTINUOUS
 10
-7.85
 20
43.4371998771
 11
-7.85
 21
42.9371998771
  0
LINE
  5
268
100
AcDbEntity
  8
RACCORDO
100
AcDbLine
 62
253
  6
CONTINUOUS
 10
32.5000571154
 20
-46.56675829
 11
32.1596268489
 21
-46.2263342908
  0
LINE
  5
269
100
AcDbEntity
  8
RACCORDO
100
AcDbLine
 62
253
  6
CONTINUOUS
 10
34.0
 20
-45.0668154054
 11
33.6595760008
 21
-44.7263840322
  0
LINE
  5
26A
100
AcDbEntity
  8
0
100
AcDbLine
 62
7
  6
CONTINUOUS
 10
-4.1
 20
45.5763592865
 11
-4.1
 21
45.2371998771
  0
LINE
  5
26B
100
AcDbEntity
  8
0
100
AcDbLine
 62
7
  6
CONTINUOUS
 10
-3.6
 20
45.2371998771
 11
-3.6
 21
44.7371998771
  0
LINE
  5
26C
100
AcDbEntity
  8
0
100
AcDbLine
 62
7
  6
CONTINUOUS
 10
-11.4755174175
 20
-5.81675829
 11
-10.8198921711
 21
-5.81675829
  0
LINE
  5
26D
100
AcDbEntity
  8
0
100
AcDbLine
 62
7
  6
CONTINUOUS
 10
10.8198921711
 20
-5.81675829
 11
11.4755174175
 21
-5.81675829
  0
LINE
  5
26E
100
AcDbEntity
  8
0
100
AcDbLine
 62
7
  6
CONTINUOUS
 10
11.4755174175
 20
-4.31675829
 11
10.8198921711
 21
-4.31675829
  0
LINE
  5
26F
100
AcDbEntity
  8
0
100
AcDbLine
 62
7
  6
CONTINUOUS
 10
-10.8198921711
 20
-4.31675829
 11
-11.4755174175
 21
-4.31675829
  0
LINE
  5
270
100
AcDbEntity
  8
0
100
AcDbLine
 62
7
  6
CONTINUOUS
 10
-0.75
 20
6.4087591275
 11
-0.75
 21
5.7531338811
  0
LINE
  5
271
100
AcDbEntity
  8
0
100
AcDbLine
 62
7
  6
CONTINUOUS
 10
-0.75
 20
-15.8866504611
 11
-0.75
 21
-16.5422757075
  0
LINE
  5
272
100
AcDbEntity
  8
0
100
AcDbLine
 62
7
  6
CONTINUOUS
 10
-0.0944827199
 20
-38.5439996392
 11
-0.0944827199
 21
-38.26675829
  0
LINE
  5
273
100
AcDbEntity
  8
0
100
AcDbLine
 62
7
  6
CONTINUOUS
 10
-1.3006896377
 20
-39.4522755415
 11
-1.286206916
 21
-38.5439996392
  0
LINE
  5
274
100
AcDbEntity
  8
0
100
AcDbLine
 62
7
  6
CONTINUOUS
 10
-1.5737930983
 20
-38.26675829
 11
-1.6027586311
 21
-39.8246893556
  0
LINE
  5
275
100
AcDbEntity
  8
RACCORDO
100
AcDbLine
 62
253
  6
CONTINUOUS
 10
32.5000571154
 20
36.43324171
 11
32.1596257422
 21
36.0928177108
  0
LINE
  5
276
100
AcDbEntity
  8
RACCORDO
100
AcDbLine
 62
253
  6
CONTINUOUS
 10
34.0
 20
34.9332988254
 11
33.6595760008
 21
34.5928685589
  0
LINE
  5
277
100
AcDbEntity
  8
0
100
AcDbLine
 62
7
  6
CONTINUOUS
 10
0.75
 20
-16.5422757075
 11
0.75
 21
-15.8866504611
  0
LINE
  5
278
100
AcDbEntity
  8
0
100
AcDbLine
 62
7
  6
CONTINUOUS
 10
0.75
 20
5.7531338811
 11
0.75
 21
6.4087591275
  0
LINE
  5
279
100
AcDbEntity
  8
0
100
AcDbLine
 62
7
  6
CONTINUOUS
 10
1.1717239618
 20
-39.5598618061
 11
1.1717239618
 21
-39.8350341887
  0
LINE
  5
27A
100
AcDbEntity
  8
0
100
AcDbLine
 62
7
  6
CONTINUOUS
 10
3.6
 20
45.2371998771
 11
3.6
 21
44.7371998771
  0
LINE
  5
27B
100
AcDbEntity
  8
0
100
AcDbLine
 62
7
  6
CONTINUOUS
 10
4.1
 20
45.5763592865
 11
4.1
 21
45.2371998771
  0
LINE
  5
27C
100
AcDbEntity
  8
RACCORDO
100
AcDbLine
 62
253
  6
CONTINUOUS
 10
-34.0
 20
34.9332988254
 11
-33.6595760008
 21
34.5928674522
  0
LINE
  5
27D
100
AcDbEntity
  8
RACCORDO
100
AcDbLine
 62
253
  6
CONTINUOUS
 10
-32.5000571154
 20
36.43324171
 11
-32.1596268489
 21
36.0928177108
  0
LINE
  5
27E
100
AcDbEntity
  8
0
100
AcDbLine
 62
7
  6
CONTINUOUS
 10
7.85
 20
43.4371998771
 11
7.85
 21
42.9371998771
  0
LINE
  5
27F
100
AcDbEntity
  8
RACCORDO
100
AcDbLine
 62
253
  6
CONTINUOUS
 10
-34.0
 20
-45.0668154054
 11
-33.6595760008
 21
-44.7263851389
  0
LINE
  5
280
100
AcDbEntity
  8
0
100
AcDbLine
 62
7
  6
CONTINUOUS
 10
8.35
 20
43.8773211784
 11
8.35
 21
43.4371998771
  0
LINE
  5
281
100
AcDbEntity
  8
0
100
AcDbLine
 62
7
  6
CONTINUOUS
 10
9.45
 20
41.6371998771
 11
9.45
 21
41.1371998771
  0
LINE
  5
282
100
AcDbEntity
  8
0
100
AcDbLine
 62
7
  6
CONTINUOUS
 10
10.1
 20
42.1041160977
 11
10.1
 21
41.6371998771
  0
LINE
  5
283
100
AcDbEntity
  8
0
100
AcDbLine
 62
7
  6
CONTINUOUS
 10
11.35
 20
39.8371998771
 11
11.35
 21
39.3371998771
  0
LINE
  5
284
100
AcDbEntity
  8
0
100
AcDbLine
 62
7
  6
CONTINUOUS
 10
11.5
 20
36.4371998771
 11
11.5
 21
36.1940816726
  0
LINE
  5
285
100
AcDbEntity
  8
0
100
AcDbLine
 62
7
  6
CONTINUOUS
 10
11.85
 20
40.2639237189
 11
11.85
 21
39.8371998771
  0
LINE
  5
286
100
AcDbEntity
  8
RACCORDO
100
AcDbLine
 62
253
  6
CONTINUOUS
 10
-32.5000571154
 20
-46.56675829
 11
-32.1596257422
 21
-46.2263342908
  0
LINE
  5
287
100
AcDbEntity
  8
0
100
AcDbLine
 62
7
  6
CONTINUOUS
 10
14.0
 20
37.8598075293
 11
14.0
 21
36.4371998771
  0
LINE
  5
288
100
AcDbEntity
  8
RACCORDO
100
AcDbLine
 62
7
  6
CONTINUOUS
 10
15.0
 20
-46.2700447851
 11
15.0
 21
-44.31675829
  0
LINE
  5
289
100
AcDbEntity
  8
RACCORDO
100
AcDbLine
 62
7
  6
CONTINUOUS
 10
20.0
 20
-44.31675829
 11
20.0
 21
-46.2700447851
  0
LINE
  5
28A
100
AcDbEntity
  8
0
100
AcDbLine
 62
7
  6
CONTINUOUS
 10
22.25
 20
-42.26675829
 11
22.25
 21
-43.31675829
  0
LINE
  5
28B
100
AcDbEntity
  8
0
100
AcDbLine
 62
7
  6
CONTINUOUS
 10
22.25
 20
-43.41675829
 11
22.25
 21
-44.46675829
  0
LINE
  5
28C
100
AcDbEntity
  8
0
100
AcDbLine
 62
7
  6
CONTINUOUS
 10
24.25
 20
30.43324171
 11
24.25
 21
27.43324171
  0
LINE
  5
28D
100
AcDbEntity
  8
SMUSSO
100
AcDbLine
 62
7
  6
CONTINUOUS
 10
25.0
 20
30.43324171
 11
25.0
 21
27.43324171
  0
LINE
  5
28E
100
AcDbEntity
  8
SMUSSO
100
AcDbLine
 62
7
  6
CONTINUOUS
 10
25.3
 20
30.43324171
 11
25.3
 21
27.43324171
  0
LINE
  5
28F
100
AcDbEntity
  8
0
100
AcDbLine
 62
7
  6
CONTINUOUS
 10
26.05
 20
-43.46675829
 11
26.05
 21
-43.26675829
  0
LINE
  5
290
100
AcDbEntity
  8
0
100
AcDbLine
 62
7
  6
CONTINUOUS
 10
26.25
 20
-45.06675829
 11
26.25
 21
-35.0480049411
  0
LINE
  5
291
100
AcDbEntity
  8
0
100
AcDbLine
 62
7
  6
CONTINUOUS
 10
26.25
 20
-29.0855116389
 11
26.25
 21
25.1971737325
  0
LINE
  5
292
100
AcDbEntity
  8
0
100
AcDbLine
 62
7
  6
CONTINUOUS
 10
26.45
 20
-34.2641646883
 11
26.45
 21
-45.06675829
  0
LINE
  5
293
100
AcDbEntity
  8
0
100
AcDbLine
 62
7
  6
CONTINUOUS
 10
26.45
 20
-29.8693518917
 11
26.45
 21
25.1837973342
  0
LINE
  5
294
100
AcDbEntity
  8
0
100
AcDbLine
 62
7
  6
CONTINUOUS
 10
26.55
 20
-34.1948078381
 11
26.55
 21
-45.06675829
  0
LINE
  5
295
100
AcDbEntity
  8
0
100
AcDbLine
 62
7
  6
CONTINUOUS
 10
26.55
 20
-29.9387087419
 11
26.55
 21
25.1837973342
  0
LINE
  5
296
100
AcDbEntity
  8
0
100
AcDbLine
 62
7
  6
CONTINUOUS
 10
26.75
 20
-45.06675829
 11
26.75
 21
-34.7848148742
  0
LINE
  5
297
100
AcDbEntity
  8
0
100
AcDbLine
 62
7
  6
CONTINUOUS
 10
26.75
 20
-29.3487017058
 11
26.75
 21
25.1971737325
  0
LINE
  5
298
100
AcDbEntity
  8
0
100
AcDbLine
 62
7
  6
CONTINUOUS
 10
-29.9
 20
24.6833363487
 11
-30.95
 21
24.6833363487
  0
LINE
  5
299
100
AcDbEntity
  8
0
100
AcDbLine
 62
7
  6
CONTINUOUS
 10
-31.05
 20
24.6833363487
 11
-32.1
 21
24.6833363487
  0
LINE
  5
29A
100
AcDbEntity
  8
SMUSSO
100
AcDbLine
 62
253
  6
CONTINUOUS
 10
25.3
 20
27.43324171
 11
25.0
 21
27.43324171
  0
LINE
  5
29B
100
AcDbEntity
  8
SMUSSO
100
AcDbLine
 62
253
  6
CONTINUOUS
 10
27.7
 20
27.43324171
 11
28.0
 21
27.43324171
  0
LINE
  5
29C
100
AcDbEntity
  8
SMUSSO
100
AcDbLine
 62
7
  6
CONTINUOUS
 10
27.7
 20
27.43324171
 11
27.7
 21
30.43324171
  0
LINE
  5
29D
100
AcDbEntity
  8
SMUSSO
100
AcDbLine
 62
7
  6
CONTINUOUS
 10
28.0
 20
27.43324171
 11
28.0
 21
30.43324171
  0
LINE
  5
29E
100
AcDbEntity
  8
ASSI
100
AcDbLine
 62
7
  6
CONTINUOUS
 10
28.75
 20
27.43324171
 11
28.75
 21
30.43324171
  0
LINE
  5
29F
100
AcDbEntity
  8
0
100
AcDbLine
 62
7
  6
CONTINUOUS
 10
-30.9
 20
28.48324171
 11
-31.1
 21
28.48324171
  0
LINE
  5
2A0
100
AcDbEntity
  8
0
100
AcDbLine
 62
7
  6
CONTINUOUS
 10
24.25
 20
28.68324171
 11
-32.5
 21
28.68324171
  0
LINE
  5
2A1
100
AcDbEntity
  8
0
100
AcDbLine
 62
7
  6
CONTINUOUS
 10
-32.5
 20
28.88324171
 11
24.25
 21
28.88324171
  0
LINE
  5
2A2
100
AcDbEntity
  8
0
100
AcDbLine
 62
7
  6
CONTINUOUS
 10
-32.5
 20
28.98324171
 11
24.25
 21
28.98324171
  0
LINE
  5
2A3
100
AcDbEntity
  8
0
100
AcDbLine
 62
7
  6
CONTINUOUS
 10
24.25
 20
29.18324171
 11
-32.5
 21
29.18324171
  0
LINE
  5
2A4
100
AcDbEntity
  8
SMUSSO
100
AcDbLine
 62
253
  6
CONTINUOUS
 10
25.3
 20
30.43324171
 11
25.0
 21
30.43324171
  0
LINE
  5
2A5
100
AcDbEntity
  8
SMUSSO
100
AcDbLine
 62
253
  6
CONTINUOUS
 10
27.7
 20
30.43324171
 11
28.0
 21
30.43324171
  0
LINE
  5
2A6
100
AcDbEntity
  8
RACCORDO
100
AcDbLine
 62
253
  6
CONTINUOUS
 10
32.1596331162
 20
-45.2263723678
 11
32.1596331162
 21
-46.2263342908
  0
LINE
  5
2A7
100
AcDbEntity
  8
RACCORDO
100
AcDbLine
 62
253
  6
CONTINUOUS
 10
32.1596331162
 20
35.0928557878
 11
32.1596331162
 21
36.0928177108
  0
LINE
  5
2A8
100
AcDbEntity
  8
RACCORDO
100
AcDbLine
 62
253
  6
CONTINUOUS
 10
32.6596140778
 20
-44.7263914062
 11
32.6596140778
 21
34.5928748262
  0
LINE
  5
2A9
100
AcDbEntity
  8
RACCORDO
100
AcDbLine
 62
253
  6
CONTINUOUS
 10
33.6595760008
 20
-44.7263840322
 11
33.6595760008
 21
34.5928685589
  0
LINE
  5
2AA
100
AcDbEntity
  8
RACCORDO
100
AcDbLine
 62
7
  6
CONTINUOUS
 10
34.0
 20
34.9332988254
 11
34.0
 21
-45.0668154054
  0
LINE
  5
2AB
100
AcDbEntity
  8
RACCORDO
100
AcDbLine
 62
7
  6
CONTINUOUS
 10
11.908813994
 20
36.2126197745
 11
11.9087362241
 21
36.2126105228
  0
LINE
  5
2AC
100
AcDbEntity
  8
RACCORDO
100
AcDbLine
 62
7
  6
CONTINUOUS
 10
11.9084924077
 20
36.2125821024
 11
11.9076390687
 21
36.2124865119
  0
LINE
  5
2AD
100
AcDbEntity
  8
RACCORDO
100
AcDbLine
 62
7
  6
CONTINUOUS
 10
11.9076390687
 20
36.2124865119
 11
11.906326794
 21
36.2123465362
  0
LINE
  5
2AE
100
AcDbEntity
  8
RACCORDO
100
AcDbLine
 62
7
  6
CONTINUOUS
 10
11.906326794
 20
36.2123465362
 11
11.904579031
 21
36.2121687714
  0
LINE
  5
2AF
100
AcDbEntity
  8
RACCORDO
100
AcDbLine
 62
7
  6
CONTINUOUS
 10
11.904579031
 20
36.2121687714
 11
11.9011736541
 21
36.2118419267
  0
LINE
  5
2B0
100
AcDbEntity
  8
RACCORDO
100
AcDbLine
 62
7
  6
CONTINUOUS
 10
11.9011736541
 20
36.2118419267
 11
11.8968798189
 21
36.2114559366
  0
LWPOLYLINE
  5
2B1
100
AcDbEntity
  8
RACCORDO
100
AcDbPolyline
 62
7
  6
CONTINUOUS
 90
3
 70
0
 10
11.8968798189
 20
36.2114559366
 10
11.8917384374
 20
36.2110217171
 10
11.8898405566
 20
36.2108676543
  0
LINE
  5
2B2
100
AcDbEntity
  8
RACCORDO
100
AcDbLine
 62
253
  6
CONTINUOUS
 10
-15.0
 20
34.18324171
 11
-20.0
 21
34.18324171
  0
LINE
  5
2B3
100
AcDbEntity
  8
RACCORDO
100
AcDbLine
 62
253
  6
CONTINUOUS
 10
32.6596140778
 20
34.5928748262
 11
33.6595760008
 21
34.5928748262
  0
LINE
  5
2B4
100
AcDbEntity
  8
RACCORDO
100
AcDbLine
 62
253
  6
CONTINUOUS
 10
-32.6596140778
 20
34.5928748262
 11
-33.6595760008
 21
34.5928748262
  0
LINE
  5
2B5
100
AcDbEntity
  8
RACCORDO
100
AcDbLine
 62
253
  6
CONTINUOUS
 10
32.1596331162
 20
35.0928557878
 11
-15.0
 21
35.0928557878
  0
LINE
  5
2B6
100
AcDbEntity
  8
RACCORDO
100
AcDbLine
 62
253
  6
CONTINUOUS
 10
-20.0
 20
35.0928557878
 11
-32.1596331162
 21
35.0928557878
  0
LINE
  5
2B7
100
AcDbEntity
  8
RACCORDO
100
AcDbLine
 62
7
  6
CONTINUOUS
 10
-11.8900092327
 20
36.210881225
 11
-11.8953289686
 21
36.2113221179
  0
LINE
  5
2B8
100
AcDbEntity
  8
RACCORDO
100
AcDbLine
 62
7
  6
CONTINUOUS
 10
-11.8953289686
 20
36.2113221179
 11
-11.899804261
 21
36.2117160902
  0
LINE
  5
2B9
100
AcDbEntity
  8
RACCORDO
100
AcDbLine
 62
7
  6
CONTINUOUS
 10
-11.899804261
 20
36.2117160902
 11
-11.9034237809
 21
36.2120553737
  0
LINE
  5
2BA
100
AcDbEntity
  8
RACCORDO
100
AcDbLine
 62
7
  6
CONTINUOUS
 10
-11.9034237809
 20
36.2120553737
 11
-11.9053512073
 21
36.2122462877
  0
LINE
  5
2BB
100
AcDbEntity
  8
RACCORDO
100
AcDbLine
 62
7
  6
CONTINUOUS
 10
-11.9053512073
 20
36.2122462877
 11
-11.9068742269
 21
36.2124041123
  0
LWPOLYLINE
  5
2BC
100
AcDbEntity
  8
RACCORDO
100
AcDbPolyline
 62
7
  6
CONTINUOUS
 90
3
 70
0
 10
-11.9068742269
 20
36.2124041123
 10
-11.9079831932
 20
36.2125244978
 10
-11.9082249214
 20
36.2125516042
  0
LINE
  5
2BD
100
AcDbEntity
  8
0
100
AcDbLine
 62
7
  6
CONTINUOUS
 10
-1.5117241442
 20
-40.6564134479
 11
-1.8034482822
 21
-40.7888272674
  0
LINE
  5
2BE
100
AcDbEntity
  8
RACCORDO
100
AcDbLine
 62
7
  6
CONTINUOUS
 10
11.8898405566
 20
36.2108676543
 11
11.8836124367
 21
36.2103815161
  0
LINE
  5
2BF
100
AcDbEntity
  8
RACCORDO
100
AcDbLine
 62
7
  6
CONTINUOUS
 10
11.8836124367
 20
36.2103815161
 11
11.8740779948
 21
36.2096844569
  0
LINE
  5
2C0
100
AcDbEntity
  8
RACCORDO
100
AcDbLine
 62
7
  6
CONTINUOUS
 10
11.8740779948
 20
36.2096844569
 11
11.8631626976
 21
36.2089409448
  0
LINE
  5
2C1
100
AcDbEntity
  8
RACCORDO
100
AcDbLine
 62
7
  6
CONTINUOUS
 10
11.8631626976
 20
36.2089409448
 11
11.8475982168
 21
36.2079578345
  0
LINE
  5
2C2
100
AcDbEntity
  8
RACCORDO
100
AcDbLine
 62
7
  6
CONTINUOUS
 10
11.8475982168
 20
36.2079578345
 11
11.8299078269
 21
36.2069253101
  0
LINE
  5
2C3
100
AcDbEntity
  8
RACCORDO
100
AcDbLine
 62
7
  6
CONTINUOUS
 10
11.8299078269
 20
36.2069253101
 11
11.8058601656
 21
36.2056322635
  0
LINE
  5
2C4
100
AcDbEntity
  8
RACCORDO
100
AcDbLine
 62
7
  6
CONTINUOUS
 10
11.8058601656
 20
36.2056322635
 11
11.7738703324
 21
36.2040618063
  0
LINE
  5
2C5
100
AcDbEntity
  8
RACCORDO
100
AcDbLine
 62
7
  6
CONTINUOUS
 10
11.7738703324
 20
36.2040618063
 11
11.7319481774
 21
36.2021963649
  0
LINE
  5
2C6
100
AcDbEntity
  8
RACCORDO
100
AcDbLine
 62
7
  6
CONTINUOUS
 10
11.7319481774
 20
36.2021963649
 11
11.6707004348
 21
36.1997559857
  0
LINE
  5
2C7
100
AcDbEntity
  8
RACCORDO
100
AcDbLine
 62
7
  6
CONTINUOUS
 10
11.6707004348
 20
36.1997559857
 11
11.5822296474
 21
36.1966507593
  0
LINE
  5
2C8
100
AcDbEntity
  8
RACCORDO
100
AcDbLine
 62
7
  6
CONTINUOUS
 10
11.5822296474
 20
36.1966507593
 11
11.4539122048
 21
36.1927437394
  0
LINE
  5
2C9
100
AcDbEntity
  8
RACCORDO
100
AcDbLine
 62
7
  6
CONTINUOUS
 10
11.4539122048
 20
36.1927437394
 11
11.2773052064
 21
36.1881297431
  0
LINE
  5
2CA
100
AcDbEntity
  8
RACCORDO
100
AcDbLine
 62
7
  6
CONTINUOUS
 10
11.2773052064
 20
36.1881297431
 11
11.0705727546
 21
36.1834767436
  0
LINE
  5
2CB
100
AcDbEntity
  8
RACCORDO
100
AcDbLine
 62
7
  6
CONTINUOUS
 10
11.0705727546
 20
36.1834767436
 11
10.8228236885
 21
36.1786273367
  0
LINE
  5
2CC
100
AcDbEntity
  8
RACCORDO
100
AcDbLine
 62
7
  6
CONTINUOUS
 10
10.8228236885
 20
36.1786273367
 11
10.6405196781
 21
36.1754322242
  0
LINE
  5
2CD
100
AcDbEntity
  8
RACCORDO
100
AcDbLine
 62
7
  6
CONTINUOUS
 10
10.6405196781
 20
36.1754322242
 11
10.4621085881
 21
36.1725467101
  0
LINE
  5
2CE
100
AcDbEntity
  8
RACCORDO
100
AcDbLine
 62
7
  6
CONTINUOUS
 10
10.4621085881
 20
36.1725467101
 11
10.3423485169
 21
36.1707238168
  0
LINE
  5
2CF
100
AcDbEntity
  8
RACCORDO
100
AcDbLine
 62
7
  6
CONTINUOUS
 10
10.3423485169
 20
36.1707238168
 11
10.2159610188
 21
36.1688875336
  0
LINE
  5
2D0
100
AcDbEntity
  8
RACCORDO
100
AcDbLine
 62
7
  6
CONTINUOUS
 10
10.2159610188
 20
36.1688875336
 11
10.1368488095
 21
36.167779925
  0
LINE
  5
2D1
100
AcDbEntity
  8
RACCORDO
100
AcDbLine
 62
7
  6
CONTINUOUS
 10
10.1368488095
 20
36.167779925
 11
10.0274304626
 21
36.1662970058
  0
LINE
  5
2D2
100
AcDbEntity
  8
RACCORDO
100
AcDbLine
 62
7
  6
CONTINUOUS
 10
10.0274304626
 20
36.1662970058
 11
9.9423453412
 21
36.1651806657
  0
LINE
  5
2D3
100
AcDbEntity
  8
RACCORDO
100
AcDbLine
 62
7
  6
CONTINUOUS
 10
9.9423453412
 20
36.1651806657
 11
9.8546097386
 21
36.1640611342
  0
LINE
  5
2D4
100
AcDbEntity
  8
RACCORDO
100
AcDbLine
 62
7
  6
CONTINUOUS
 10
9.8546097386
 20
36.1640611342
 11
9.7641692234
 21
36.1629388048
  0
LINE
  5
2D5
100
AcDbEntity
  8
RACCORDO
100
AcDbLine
 62
7
  6
CONTINUOUS
 10
9.7641692234
 20
36.1629388048
 11
9.6709689441
 21
36.1618140975
  0
LINE
  5
2D6
100
AcDbEntity
  8
RACCORDO
100
AcDbLine
 62
7
  6
CONTINUOUS
 10
9.6709689441
 20
36.1618140975
 11
9.5749534887
 21
36.1606874254
  0
LINE
  5
2D7
100
AcDbEntity
  8
RACCORDO
100
AcDbLine
 62
7
  6
CONTINUOUS
 10
9.5749534887
 20
36.1606874254
 11
9.5093518157
 21
36.1599354222
  0
LINE
  5
2D8
100
AcDbEntity
  8
RACCORDO
100
AcDbLine
 62
7
  6
CONTINUOUS
 10
9.5093518157
 20
36.1599354222
 11
9.4085207503
 21
36.1588064211
  0
LINE
  5
2D9
100
AcDbEntity
  8
RACCORDO
100
AcDbLine
 62
7
  6
CONTINUOUS
 10
9.4085207503
 20
36.1588064211
 11
8.8977041897
 21
36.1535344468
  0
LINE
  5
2DA
100
AcDbEntity
  8
RACCORDO
100
AcDbLine
 62
7
  6
CONTINUOUS
 10
8.8977041897
 20
36.1535344468
 11
8.3549350901
 21
36.1486255317
  0
LINE
  5
2DB
100
AcDbEntity
  8
RACCORDO
100
AcDbLine
 62
7
  6
CONTINUOUS
 10
8.3549350901
 20
36.1486255317
 11
7.7287020781
 21
36.1436811924
  0
LINE
  5
2DC
100
AcDbEntity
  8
RACCORDO
100
AcDbLine
 62
7
  6
CONTINUOUS
 10
7.7287020781
 20
36.1436811924
 11
7.0602450128
 21
36.1391089881
  0
LINE
  5
2DD
100
AcDbEntity
  8
RACCORDO
100
AcDbLine
 62
7
  6
CONTINUOUS
 10
7.0602450128
 20
36.1391089881
 11
6.3603129438
 21
36.1349826181
  0
LINE
  5
2DE
100
AcDbEntity
  8
RACCORDO
100
AcDbLine
 62
7
  6
CONTINUOUS
 10
6.3603129438
 20
36.1349826181
 11
5.5734323579
 21
36.1310411299
  0
LINE
  5
2DF
100
AcDbEntity
  8
RACCORDO
100
AcDbLine
 62
7
  6
CONTINUOUS
 10
5.5734323579
 20
36.1310411299
 11
4.7817938889
 21
36.127732558
  0
LINE
  5
2E0
100
AcDbEntity
  8
RACCORDO
100
AcDbLine
 62
7
  6
CONTINUOUS
 10
4.7817938889
 20
36.127732558
 11
3.9062420522
 21
36.124761379
  0
LINE
  5
2E1
100
AcDbEntity
  8
RACCORDO
100
AcDbLine
 62
7
  6
CONTINUOUS
 10
3.9062420522
 20
36.124761379
 11
3.0301767964
 21
36.1224504492
  0
LINE
  5
2E2
100
AcDbEntity
  8
RACCORDO
100
AcDbLine
 62
7
  6
CONTINUOUS
 10
3.0301767964
 20
36.1224504492
 11
2.0629064659
 21
36.1206150207
  0
LINE
  5
2E3
100
AcDbEntity
  8
RACCORDO
100
AcDbLine
 62
7
  6
CONTINUOUS
 10
2.0629064659
 20
36.1206150207
 11
1.1251316993
 21
36.1195169276
  0
LINE
  5
2E4
100
AcDbEntity
  8
RACCORDO
100
AcDbLine
 62
7
  6
CONTINUOUS
 10
1.1251316993
 20
36.1195169276
 11
0.1146715967
 21
36.1190601972
  0
LINE
  5
2E5
100
AcDbEntity
  8
RACCORDO
100
AcDbLine
 62
7
  6
CONTINUOUS
 10
-15.0
 20
35.18324171
 11
-20.0
 21
35.18324171
  0
LINE
  5
2E6
100
AcDbEntity
  8
RACCORDO
100
AcDbLine
 62
253
  6
CONTINUOUS
 10
32.1596257422
 20
36.0928177108
 11
-15.0
 21
36.0928177108
  0
LINE
  5
2E7
100
AcDbEntity
  8
RACCORDO
100
AcDbLine
 62
253
  6
CONTINUOUS
 10
-20.0
 20
36.0928177108
 11
-32.1596268489
 21
36.0928177108
  0
LINE
  5
2E8
100
AcDbEntity
  8
DRAFT
100
AcDbLine
 62
7
  6
CONTINUOUS
 10
-15.0
 20
36.1365282051
 11
-20.0
 21
36.1365282051
  0
LINE
  5
2E9
100
AcDbEntity
  8
RACCORDO
100
AcDbLine
 62
7
  6
CONTINUOUS
 10
-32.5000571154
 20
36.43324171
 11
-13.9999999322
 21
36.43324171
  0
LINE
  5
2EA
100
AcDbEntity
  8
RACCORDO
100
AcDbLine
 62
7
  6
CONTINUOUS
 10
13.9999999322
 20
36.43324171
 11
32.5000571154
 21
36.43324171
  0
LINE
  5
2EB
100
AcDbEntity
  8
0
100
AcDbLine
 62
7
  6
CONTINUOUS
 10
13.9999999322
 20
36.4371998771
 11
-13.9999999322
 21
36.4371998771
  0
LINE
  5
2EC
100
AcDbEntity
  8
RACCORDO
100
AcDbLine
 62
253
  6
CONTINUOUS
 10
-14.0
 20
37.8598075293
 11
14.0
 21
37.8598075293
  0
LINE
  5
2ED
100
AcDbEntity
  8
RACCORDO
100
AcDbLine
 62
253
  6
CONTINUOUS
 10
-13.2588190417
 20
38.8257333563
 11
13.2588190417
 21
38.8257333563
  0
LINE
  5
2EE
100
AcDbEntity
  8
RACCORDO
100
AcDbLine
 62
7
  6
CONTINUOUS
 10
0.1146715967
 20
36.1190601972
 11
-1.0345301545
 21
36.119445459
  0
LINE
  5
2EF
100
AcDbEntity
  8
RACCORDO
100
AcDbLine
 62
7
  6
CONTINUOUS
 10
-1.0345301545
 20
36.119445459
 11
-2.2295684024
 21
36.1208795119
  0
LINE
  5
2F0
100
AcDbEntity
  8
RACCORDO
100
AcDbLine
 62
7
  6
CONTINUOUS
 10
-2.2295684024
 20
36.1208795119
 11
-3.3287835486
 21
36.1231668498
  0
LINE
  5
2F1
100
AcDbEntity
  8
RACCORDO
100
AcDbLine
 62
7
  6
CONTINUOUS
 10
-3.3287835486
 20
36.1231668498
 11
-4.3363727575
 21
36.1261349373
  0
LINE
  5
2F2
100
AcDbEntity
  8
RACCORDO
100
AcDbLine
 62
7
  6
CONTINUOUS
 10
-4.3363727575
 20
36.1261349373
 11
-5.2586502967
 21
36.1296507968
  0
LINE
  5
2F3
100
AcDbEntity
  8
RACCORDO
100
AcDbLine
 62
7
  6
CONTINUOUS
 10
-5.2586502967
 20
36.1296507968
 11
-6.243042574
 21
36.1343507275
  0
LINE
  5
2F4
100
AcDbEntity
  8
RACCORDO
100
AcDbLine
 62
7
  6
CONTINUOUS
 10
-6.243042574
 20
36.1343507275
 11
-7.0502781152
 21
36.1390457241
  0
LINE
  5
2F5
100
AcDbEntity
  8
RACCORDO
100
AcDbLine
 62
7
  6
CONTINUOUS
 10
-7.0502781152
 20
36.1390457241
 11
-7.7632417708
 21
36.1439361517
  0
LINE
  5
2F6
100
AcDbEntity
  8
RACCORDO
100
AcDbLine
 62
7
  6
CONTINUOUS
 10
-7.7632417708
 20
36.1439361517
 11
-8.4390326572
 21
36.1493451269
  0
LINE
  5
2F7
100
AcDbEntity
  8
RACCORDO
100
AcDbLine
 62
7
  6
CONTINUOUS
 10
-8.4390326572
 20
36.1493451269
 11
-9.646359657
 21
36.1615223001
  0
LINE
  5
2F8
100
AcDbEntity
  8
RACCORDO
100
AcDbLine
 62
7
  6
CONTINUOUS
 10
-9.646359657
 20
36.1615223001
 11
-10.0475678236
 21
36.1665658253
  0
LINE
  5
2F9
100
AcDbEntity
  8
RACCORDO
100
AcDbLine
 62
7
  6
CONTINUOUS
 10
-10.0475678236
 20
36.1665658253
 11
-10.4267595798
 21
36.1719997443
  0
LINE
  5
2FA
100
AcDbEntity
  8
RACCORDO
100
AcDbLine
 62
7
  6
CONTINUOUS
 10
-10.4267595798
 20
36.1719997443
 11
-10.7526237886
 21
36.1773642829
  0
LINE
  5
2FB
100
AcDbEntity
  8
RACCORDO
100
AcDbLine
 62
7
  6
CONTINUOUS
 10
-10.7526237886
 20
36.1773642829
 11
-11.0097148266
 21
36.1822221002
  0
LINE
  5
2FC
100
AcDbEntity
  8
RACCORDO
100
AcDbLine
 62
7
  6
CONTINUOUS
 10
-11.0097148266
 20
36.1822221002
 11
-11.2269496008
 21
36.1869333109
  0
LINE
  5
2FD
100
AcDbEntity
  8
RACCORDO
100
AcDbLine
 62
7
  6
CONTINUOUS
 10
-11.2269496008
 20
36.1869333109
 11
-11.4064041798
 21
36.1914292741
  0
LINE
  5
2FE
100
AcDbEntity
  8
RACCORDO
100
AcDbLine
 62
7
  6
CONTINUOUS
 10
-11.4064041798
 20
36.1914292741
 11
-11.5504420468
 21
36.1956266588
  0
LINE
  5
2FF
100
AcDbEntity
  8
RACCORDO
100
AcDbLine
 62
7
  6
CONTINUOUS
 10
-11.5504420468
 20
36.1956266588
 11
-11.6450579312
 21
36.1988119833
  0
LINE
  5
300
100
AcDbEntity
  8
RACCORDO
100
AcDbLine
 62
7
  6
CONTINUOUS
 10
-11.6450579312
 20
36.1988119833
 11
-11.7138512972
 21
36.2014444777
  0
LINE
  5
301
100
AcDbEntity
  8
RACCORDO
100
AcDbLine
 62
7
  6
CONTINUOUS
 10
-11.7138512972
 20
36.2014444777
 11
-11.7644756939
 21
36.203626866
  0
LINE
  5
302
100
AcDbEntity
  8
RACCORDO
100
AcDbLine
 62
7
  6
CONTINUOUS
 10
-11.7644756939
 20
36.203626866
 11
-11.80146782
 21
36.205407489
  0
LINE
  5
303
100
AcDbEntity
  8
RACCORDO
100
AcDbLine
 62
7
  6
CONTINUOUS
 10
-11.80146782
 20
36.205407489
 11
-11.8281276579
 21
36.2068255875
  0
LINE
  5
304
100
AcDbEntity
  8
RACCORDO
100
AcDbLine
 62
7
  6
CONTINUOUS
 10
-11.8281276579
 20
36.2068255875
 11
-11.8470395982
 21
36.2079239678
  0
LINE
  5
305
100
AcDbEntity
  8
RACCORDO
100
AcDbLine
 62
7
  6
CONTINUOUS
 10
-11.8470395982
 20
36.2079239678
 11
-11.8632070483
 21
36.2089438662
  0
LINE
  5
306
100
AcDbEntity
  8
RACCORDO
100
AcDbLine
 62
7
  6
CONTINUOUS
 10
-11.8632070483
 20
36.2089438662
 11
-11.87430316
 21
36.2097003583
  0
LINE
  5
307
100
AcDbEntity
  8
RACCORDO
100
AcDbLine
 62
7
  6
CONTINUOUS
 10
-11.87430316
 20
36.2097003583
 11
-11.8838460973
 21
36.210399268
  0
LINE
  5
308
100
AcDbEntity
  8
RACCORDO
100
AcDbLine
 62
7
  6
CONTINUOUS
 10
-11.8838460973
 20
36.210399268
 11
-11.8900092327
 21
36.210881225
  0
LINE
  5
309
100
AcDbEntity
  8
0
100
AcDbLine
 62
7
  6
CONTINUOUS
 10
0.8055173159
 20
-40.6191720933
 11
0.4910345674
 21
-40.7164134801
  0
LINE
  5
30A
100
AcDbEntity
  8
0
100
AcDbLine
 62
7
  6
CONTINUOUS
 10
-11.35
 20
39.3371998771
 11
-13.2588190423
 21
38.8257333562
  0
LINE
  5
30B
100
AcDbEntity
  8
0
100
AcDbLine
 62
7
  6
CONTINUOUS
 10
-9.45
 20
41.1371998771
 11
-11.627645708
 21
40.5537014682
  0
LINE
  5
30C
100
AcDbEntity
  8
0
100
AcDbLine
 62
7
  6
CONTINUOUS
 10
11.35
 20
39.3371998771
 11
-11.35
 21
39.3371998771
  0
LINE
  5
30D
100
AcDbEntity
  8
0
100
AcDbLine
 62
7
  6
CONTINUOUS
 10
11.8499999334
 20
39.8371998771
 11
-11.8499999334
 21
39.8371998771
  0
LINE
  5
30E
100
AcDbEntity
  8
RACCORDO
100
AcDbLine
 62
253
  6
CONTINUOUS
 10
-11.85
 20
40.2639237189
 11
11.85
 21
40.2639237189
  0
LINE
  5
30F
100
AcDbEntity
  8
RACCORDO
100
AcDbLine
 62
253
  6
CONTINUOUS
 10
-11.6276457073
 20
40.5537014684
 11
11.6276457073
 21
40.5537014684
  0
LINE
  5
310
100
AcDbEntity
  8
0
100
AcDbLine
 62
7
  6
CONTINUOUS
 10
9.45
 20
41.1371998771
 11
-9.45
 21
41.1371998771
  0
LINE
  5
311
100
AcDbEntity
  8
0
100
AcDbLine
 62
7
  6
CONTINUOUS
 10
10.0999999333
 20
41.6371998771
 11
-10.0999999333
 21
41.6371998771
  0
LINE
  5
312
100
AcDbEntity
  8
RACCORDO
100
AcDbLine
 62
253
  6
CONTINUOUS
 10
-10.1
 20
42.1041160976
 11
10.1
 21
42.1041160976
  0
LINE
  5
313
100
AcDbEntity
  8
RACCORDO
100
AcDbLine
 62
253
  6
CONTINUOUS
 10
-9.877645721
 20
42.3938938436
 11
9.877645721
 21
42.3938938436
  0
LINE
  5
314
100
AcDbEntity
  8
0
100
AcDbLine
 62
7
  6
CONTINUOUS
 10
11.35
 20
39.3371998771
 11
13.2588190423
 21
38.8257333562
  0
LINE
  5
315
100
AcDbEntity
  8
0
100
AcDbLine
 62
7
  6
CONTINUOUS
 10
9.45
 20
41.1371998771
 11
11.627645708
 21
40.5537014682
  0
LINE
  5
316
100
AcDbEntity
  8
0
100
AcDbLine
 62
7
  6
CONTINUOUS
 10
-7.85
 20
42.9371998771
 11
-9.8776457159
 21
42.393893845
  0
LINE
  5
317
100
AcDbEntity
  8
0
100
AcDbLine
 62
7
  6
CONTINUOUS
 10
-6.0
 20
44.7371998771
 11
-8.127645714
 21
44.1670989262
  0
LINE
  5
318
100
AcDbEntity
  8
0
100
AcDbLine
 62
7
  6
CONTINUOUS
 10
-1.0
 20
46.6371998771
 11
-3.8776456564
 21
45.8661370473
  0
LINE
  5
319
100
AcDbEntity
  8
0
100
AcDbLine
 62
7
  6
CONTINUOUS
 10
7.85
 20
42.9371998771
 11
-7.85
 21
42.9371998771
  0
LINE
  5
31A
100
AcDbEntity
  8
0
100
AcDbLine
 62
7
  6
CONTINUOUS
 10
8.3499320146
 20
43.4371998771
 11
-8.3499320146
 21
43.4371998771
  0
LINE
  5
31B
100
AcDbEntity
  8
RACCORDO
100
AcDbLine
 62
253
  6
CONTINUOUS
 10
-8.35
 20
43.8773211783
 11
8.35
 21
43.8773211783
  0
LINE
  5
31C
100
AcDbEntity
  8
RACCORDO
100
AcDbLine
 62
253
  6
CONTINUOUS
 10
-8.12764572
 20
44.1670989246
 11
8.12764572
 21
44.1670989246
  0
LINE
  5
31D
100
AcDbEntity
  8
0
100
AcDbLine
 62
7
  6
CONTINUOUS
 10
5.9999297231
 20
44.7371998771
 11
-5.9999297231
 21
44.7371998771
  0
LINE
  5
31E
100
AcDbEntity
  8
0
100
AcDbLine
 62
7
  6
CONTINUOUS
 10
4.0999283597
 20
45.2371998771
 11
-4.0999283597
 21
45.2371998771
  0
LINE
  5
31F
100
AcDbEntity
  8
RACCORDO
100
AcDbLine
 62
253
  6
CONTINUOUS
 10
-4.1
 20
45.5763592866
 11
4.1
 21
45.5763592866
  0
LINE
  5
320
100
AcDbEntity
  8
RACCORDO
100
AcDbLine
 62
253
  6
CONTINUOUS
 10
-3.8776456562
 20
45.8661370474
 11
3.8776456562
 21
45.8661370474
  0
LINE
  5
321
100
AcDbEntity
  8
0
100
AcDbLine
 62
7
  6
CONTINUOUS
 10
0.9999204644
 20
46.6371998771
 11
-0.9999204644
 21
46.6371998771
  0
LINE
  5
322
100
AcDbEntity
  8
0
100
AcDbLine
 62
7
  6
CONTINUOUS
 10
7.85
 20
42.9371998771
 11
9.8776457159
 21
42.393893845
  0
LINE
  5
323
100
AcDbEntity
  8
0
100
AcDbLine
 62
7
  6
CONTINUOUS
 10
6.0
 20
44.7371998771
 11
8.127645714
 21
44.1670989262
  0
LINE
  5
324
100
AcDbEntity
  8
0
100
AcDbLine
 62
7
  6
CONTINUOUS
 10
1.0
 20
46.6371998771
 11
3.8776456564
 21
45.8661370473
  0
CIRCLE
  5
325
100
AcDbEntity
  8
ASSI
100
AcDbCircle
 62
7
  6
CONTINUOUS
 10
-20.0
 20
-5.06675829
 40
2.25
  0
ARC
  5
326
100
AcDbEntity
  8
ASSI
100
AcDbCircle
 62
7
  6
CONTINUOUS
 10
-25.0
 20
-39.06675829
 40
2.25
100
AcDbArc
 50
270.0
 51
90.0
  0
ARC
  5
327
100
AcDbEntity
  8
0
100
AcDbCircle
 62
7
  6
CONTINUOUS
 10
-28.0
 20
-39.06675829
 40
2.25
100
AcDbArc
 50
90.0
 51
270.0
  0
ARC
  5
328
100
AcDbEntity
  8
RACCORDO
100
AcDbCircle
 62
253
  6
CONTINUOUS
 10
-32.1595490805
 20
-44.7263073705
 40
1.5000269226
100
AcDbArc
 50
180.0029704915
 51
269.9970717791
  0
ARC
  5
329
100
AcDbEntity
  8
SMUSSO
100
AcDbCircle
 62
7
  6
CONTINUOUS
 10
-25.0
 20
-39.06675829
 40
1.4999997289
100
AcDbArc
 50
270.0
 51
90.0
  0
ARC
  5
32A
100
AcDbEntity
  8
SMUSSO
100
AcDbCircle
 62
7
  6
CONTINUOUS
 10
-28.0
 20
-39.06675829
 40
1.4999997289
100
AcDbArc
 50
90.0
 51
270.0
  0
CIRCLE
  5
32B
100
AcDbEntity
  8
SMUSSO
100
AcDbCircle
 62
7
  6
CONTINUOUS
 10
-20.0
 20
-5.06675829
 40
1.4999997289
  0
ARC
  5
32C
100
AcDbEntity
  8
SMUSSO
100
AcDbCircle
 62
7
  6
CONTINUOUS
 10
-25.0
 20
-39.06675829
 40
1.1999998741
100
AcDbArc
 50
270.0
 51
90.0
  0
ARC
  5
32D
100
AcDbEntity
  8
SMUSSO
100
AcDbCircle
 62
7
  6
CONTINUOUS
 10
-28.0
 20
-39.06675829
 40
1.1999998741
100
AcDbArc
 50
90.0
 51
270.0
  0
CIRCLE
  5
32E
100
AcDbEntity
  8
SMUSSO
100
AcDbCircle
 62
7
  6
CONTINUOUS
 10
-20.0
 20
-5.06675829
 40
1.1999998741
  0
ARC
  5
32F
100
AcDbEntity
  8
RACCORDO
100
AcDbCircle
 62
253
  6
CONTINUOUS
 10
-32.1596406806
 20
-44.7263989706
 40
0.4999730782
100
AcDbArc
 50
179.9991331474
 51
270.0008668527
  0
CIRCLE
  5
330
100
AcDbEntity
  8
RACCORDO
100
AcDbCircle
 62
253
  6
CONTINUOUS
 10
-25.0
 20
21.93324171
 40
3.2326972483
  0
CIRCLE
  5
331
100
AcDbEntity
  8
RACCORDO
100
AcDbCircle
 62
253
  6
CONTINUOUS
 10
-25.0
 20
21.93324171
 40
2.232849568
  0
CIRCLE
  5
332
100
AcDbEntity
  8
DRAFT
100
AcDbCircle
 62
7
  6
CONTINUOUS
 10
-25.0
 20
21.93324171
 40
1.9008987014
  0
ARC
  5
333
100
AcDbEntity
  8
RACCORDO
100
AcDbCircle
 62
253
  6
CONTINUOUS
 10
-32.1595490805
 20
34.5927907905
 40
1.5000269226
100
AcDbArc
 50
90.0029704915
 51
179.9970717791
  0
ARC
  5
334
100
AcDbEntity
  8
RACCORDO
100
AcDbCircle
 62
7
  6
CONTINUOUS
 10
-13.0
 20
37.8598075291
 40
1.0
100
AcDbArc
 50
104.9999998343
 51
180.0
  0
ARC
  5
335
100
AcDbEntity
  8
RACCORDO
100
AcDbCircle
 62
253
  6
CONTINUOUS
 10
-32.1596406806
 20
34.5928823906
 40
0.4999730782
100
AcDbArc
 50
89.9991331474
 51
180.0008668527
  0
ARC
  5
336
100
AcDbEntity
  8
RACCORDO
100
AcDbCircle
 62
7
  6
CONTINUOUS
 10
-3.8
 20
45.5763592841
 40
0.3
100
AcDbArc
 50
104.9999887049
 51
180.0
  0
ARC
  5
337
100
AcDbEntity
  8
RACCORDO
100
AcDbCircle
 62
7
  6
CONTINUOUS
 10
-8.05
 20
43.8773211785
 40
0.3
100
AcDbArc
 50
105.000000099
 51
180.0
  0
ARC
  5
338
100
AcDbEntity
  8
RACCORDO
100
AcDbCircle
 62
7
  6
CONTINUOUS
 10
-9.8
 20
42.1041160977
 40
0.3
100
AcDbArc
 50
105.000000465
 51
180.0
  0
ARC
  5
339
100
AcDbEntity
  8
RACCORDO
100
AcDbCircle
 62
7
  6
CONTINUOUS
 10
-11.55
 20
40.2639237188
 40
0.3
100
AcDbArc
 50
104.9999988982
 51
180.0
  0
CIRCLE
  5
33A
100
AcDbEntity
  8
0
100
AcDbCircle
 62
7
  6
CONTINUOUS
 10
-0.0
 20
-5.06675829
 40
11.5
  0
ARC
  5
33B
100
AcDbEntity
  8
0
100
AcDbCircle
 62
7
  6
CONTINUOUS
 10
-0.0
 20
-5.06675829
 40
11.25
100
AcDbArc
 50
93.8225537293
 51
176.1774462707
  0
ARC
  5
33C
100
AcDbEntity
  8
0
100
AcDbCircle
 62
7
  6
CONTINUOUS
 10
-0.0
 20
-5.06675829
 40
11.25
100
AcDbArc
 50
183.8225537293
 51
266.1774462707
  0
ARC
  5
33D
100
AcDbEntity
  8
0
100
AcDbCircle
 62
7
  6
CONTINUOUS
 10
-0.0
 20
-5.06675829
 40
11.25
100
AcDbArc
 50
273.8225537293
 51
356.1774462707
  0
ARC
  5
33E
100
AcDbEntity
  8
0
100
AcDbCircle
 62
7
  6
CONTINUOUS
 10
-0.0
 20
-5.06675829
 40
11.25
100
AcDbArc
 50
3.8225537293
 51
86.1774462707
  0
ARC
  5
33F
100
AcDbEntity
  8
0
100
AcDbCircle
 62
7
  6
CONTINUOUS
 10
-0.0
 20
-5.06675829
 40
10.8458548116
100
AcDbArc
 50
93.9652158992
 51
176.0347841008
  0
ARC
  5
340
100
AcDbEntity
  8
0
100
AcDbCircle
 62
7
  6
CONTINUOUS
 10
-0.0
 20
-5.06675829
 40
10.8458548116
100
AcDbArc
 50
3.9652158992
 51
86.0347841008
  0
ARC
  5
341
100
AcDbEntity
  8
0
100
AcDbCircle
 62
7
  6
CONTINUOUS
 10
-0.0
 20
-5.06675829
 40
10.8458548116
100
AcDbArc
 50
183.9652158992
 51
266.0347841008
  0
ARC
  5
342
100
AcDbEntity
  8
0
100
AcDbCircle
 62
7
  6
CONTINUOUS
 10
-0.0
 20
-5.06675829
 40
10.8458548116
100
AcDbArc
 50
273.9652158992
 51
356.0347841008
  0
CIRCLE
  5
343
100
AcDbEntity
  8
0
100
AcDbCircle
 62
7
  6
CONTINUOUS
 10
0.0
 20
-5.06675829
 40
3.8405728739
  0
ARC
  5
344
100
AcDbEntity
  8
0
100
AcDbCircle
 62
253
  6
CONTINUOUS
 10
25.0
 20
-32.06675829
 40
3.2326972631
100
AcDbArc
 50
302.7751509834
 51
57.2248490166
  0
ARC
  5
345
100
AcDbEntity
  8
0
100
AcDbCircle
 62
253
  6
CONTINUOUS
 10
25.0
 20
-32.06675829
 40
3.2326972631
100
AcDbArc
 50
67.2522960293
 51
90.0
  0
ARC
  5
346
100
AcDbEntity
  8
0
100
AcDbCircle
 62
253
  6
CONTINUOUS
 10
25.0
 20
-32.06675829
 40
3.2326972631
100
AcDbArc
 50
270.0
 51
292.7477039707
  0
ARC
  5
347
100
AcDbEntity
  8
RACCORDO
100
AcDbCircle
 62
253
  6
CONTINUOUS
 10
25.0
 20
-32.06675829
 40
3.2326972483
100
AcDbArc
 50
90.0
 51
270.0
  0
ARC
  5
348
100
AcDbEntity
  8
0
100
AcDbCircle
 62
7
  6
CONTINUOUS
 10
25.0
 20
-32.06675829
 40
2.6326972631
100
AcDbArc
 50
53.9316593308
 51
56.5804240191
  0
ARC
  5
349
100
AcDbEntity
  8
0
100
AcDbCircle
 62
7
  6
CONTINUOUS
 10
25.0
 20
-32.06675829
 40
2.6326972631
100
AcDbArc
 50
303.4195759809
 51
306.0683406692
  0
CIRCLE
  5
34A
100
AcDbEntity
  8
ASSI
100
AcDbCircle
 62
7
  6
CONTINUOUS
 10
0.0
 20
-32.06675829
 40
2.25
  0
CIRCLE
  5
34B
100
AcDbEntity
  8
ASSI
100
AcDbCircle
 62
7
  6
CONTINUOUS
 10
20.0
 20
-5.06675829
 40
2.25
  0
CIRCLE
  5
34C
100
AcDbEntity
  8
RACCORDO
100
AcDbCircle
 62
253
  6
CONTINUOUS
 10
25.0
 20
-32.06675829
 40
2.232849568
  0
CIRCLE
  5
34D
100
AcDbEntity
  8
DRAFT
100
AcDbCircle
 62
7
  6
CONTINUOUS
 10
25.0
 20
-32.06675829
 40
1.9008987014
  0
ARC
  5
34E
100
AcDbEntity
  8
RACCORDO
100
AcDbCircle
 62
253
  6
CONTINUOUS
 10
32.1595490805
 20
-44.7263073705
 40
1.5000269226
100
AcDbArc
 50
270.0029704915
 51
359.9970717791
  0
CIRCLE
  5
34F
100
AcDbEntity
  8
SMUSSO
100
AcDbCircle
 62
7
  6
CONTINUOUS
 10
20.0
 20
-5.06675829
 40
1.4999997289
  0
CIRCLE
  5
350
100
AcDbEntity
  8
SMUSSO
100
AcDbCircle
 62
7
  6
CONTINUOUS
 10
0.0
 20
-32.06675829
 40
1.4999997289
  0
CIRCLE
  5
351
100
AcDbEntity
  8
SMUSSO
100
AcDbCircle
 62
7
  6
CONTINUOUS
 10
20.0
 20
-5.06675829
 40
1.1999998741
  0
CIRCLE
  5
352
100
AcDbEntity
  8
SMUSSO
100
AcDbCircle
 62
7
  6
CONTINUOUS
 10
0.0
 20
-32.06675829
 40
1.1999998741
  0
ARC
  5
353
100
AcDbEntity
  8
RACCORDO
100
AcDbCircle
 62
253
  6
CONTINUOUS
 10
32.1596406755
 20
-44.7263989655
 40
0.4999730782
100
AcDbArc
 50
269.9991337245
 51
0.0008662756
  0
CIRCLE
  5
354
100
AcDbEntity
  8
ASSI
100
AcDbCircle
 62
7
  6
CONTINUOUS
 10
-0.0
 20
21.93324171
 40
2.25
  0
ARC
  5
355
100
AcDbEntity
  8
ASSI
100
AcDbCircle
 62
7
  6
CONTINUOUS
 10
26.5
 20
30.43324171
 40
2.25
100
AcDbArc
 50
0.0
 51
180.0
  0
ARC
  5
356
100
AcDbEntity
  8
0
100
AcDbCircle
 62
7
  6
CONTINUOUS
 10
26.5
 20
27.43324171
 40
2.25
100
AcDbArc
 50
180.0
 51
360.0
  0
ARC
  5
357
100
AcDbEntity
  8
RACCORDO
100
AcDbCircle
 62
253
  6
CONTINUOUS
 10
32.1595490805
 20
34.5927907905
 40
1.5000269226
100
AcDbArc
 50
0.0029704915
 51
89.9970717791
  0
ARC
  5
358
100
AcDbEntity
  8
SMUSSO
100
AcDbCircle
 62
7
  6
CONTINUOUS
 10
26.5
 20
27.43324171
 40
1.4999997289
100
AcDbArc
 50
180.0
 51
360.0
  0
ARC
  5
359
100
AcDbEntity
  8
SMUSSO
100
AcDbCircle
 62
7
  6
CONTINUOUS
 10
26.5
 20
30.43324171
 40
1.4999997289
100
AcDbArc
 50
0.0
 51
180.0
  0
CIRCLE
  5
35A
100
AcDbEntity
  8
SMUSSO
100
AcDbCircle
 62
7
  6
CONTINUOUS
 10
-0.0
 20
21.93324171
 40
1.4999997289
  0
ARC
  5
35B
100
AcDbEntity
  8
SMUSSO
100
AcDbCircle
 62
7
  6
CONTINUOUS
 10
26.5
 20
30.43324171
 40
1.1999998741
100
AcDbArc
 50
0.0
 51
180.0
  0
ARC
  5
35C
100
AcDbEntity
  8
SMUSSO
100
AcDbCircle
 62
7
  6
CONTINUOUS
 10
26.5
 20
27.43324171
 40
1.1999998741
100
AcDbArc
 50
180.0
 51
360.0
  0
CIRCLE
  5
35D
100
AcDbEntity
  8
SMUSSO
100
AcDbCircle
 62
7
  6
CONTINUOUS
 10
-0.0
 20
21.93324171
 40
1.1999998741
  0
ARC
  5
35E
100
AcDbEntity
  8
RACCORDO
100
AcDbCircle
 62
7
  6
CONTINUOUS
 10
13.0
 20
37.8598075291
 40
1.0
100
AcDbArc
 50
0.0
 51
75.0000001657
  0
ARC
  5
35F
100
AcDbEntity
  8
RACCORDO
100
AcDbCircle
 62
253
  6
CONTINUOUS
 10
32.1596406755
 20
34.5928823855
 40
0.4999730782
100
AcDbArc
 50
359.9991337245
 51
90.0008662756
  0
ARC
  5
360
100
AcDbEntity
  8
RACCORDO
100
AcDbCircle
 62
7
  6
CONTINUOUS
 10
3.8
 20
45.5763592841
 40
0.3
100
AcDbArc
 50
0.0
 51
75.0000112951
  0
ARC
  5
361
100
AcDbEntity
  8
RACCORDO
100
AcDbCircle
 62
7
  6
CONTINUOUS
 10
8.05
 20
43.8773211785
 40
0.3
100
AcDbArc
 50
0.0
 51
74.999999901
  0
ARC
  5
362
100
AcDbEntity
  8
RACCORDO
100
AcDbCircle
 62
7
  6
CONTINUOUS
 10
9.8
 20
42.1041160977
 40
0.3
100
AcDbArc
 50
0.0
 51
74.999999535
  0
ARC
  5
363
100
AcDbEntity
  8
RACCORDO
100
AcDbCircle
 62
7
  6
CONTINUOUS
 10
11.55
 20
40.2639237188
 40
0.3
100
AcDbArc
 50
0.0
 51
75.0000011018
  0
SPLINE
  5
364
100
AcDbEntity
  8
0
100
AcDbSpline
 62
7
  6
CONTINUOUS
 70
0
 71
3
 72
8
 73
4
 74
2
 42
0.0000001
 43
0.0000001
 44
0.0000000001
 12
0.0
 22
-0.8440452122
 32
0.0
 13
0.5119653664
 23
-0.5245290804
 33
0.0
 40
0.0
 40
0.0
 40
0.0
 40
0.0
 40
1.0
 40
1.0
 40
1.0
 40
1.0
 10
-29.0475862045
 20
-2.7067891541
 30
0.0
 10
-29.0475862045
 20
-2.9881375582
 30
0.0
 10
-28.9627586203
 20
-3.2136548311
 30
0.0
 10
-28.7921034981
 20
-3.3884978579
 30
0.0
 11
-29.0475862045
 21
-2.7067891541
 31
0.0
 11
-28.7921034981
 21
-3.3884978579
 31
0.0
  0
SPLINE
  5
365
100
AcDbEntity
  8
0
100
AcDbSpline
 62
7
  6
CONTINUOUS
 70
0
 71
3
 72
8
 73
4
 74
2
 42
0.0000001
 43
0.0000001
 44
0.0000000001
 12
0.4997587694
 22
-0.5120229316
 32
0.0
 13
0.8379540719
 23
0.0
 33
0.0
 40
0.0
 40
0.0
 40
0.0
 40
0.0
 40
1.0
 40
1.0
 40
1.0
 40
1.0
 10
-28.7921034981
 20
-3.3884978579
 30
0.0
 10
-28.6255172417
 20
-3.5591721684
 30
0.0
 10
-28.4041379243
 20
-3.646068588
 30
0.0
 10
-28.1248199004
 20
-3.646068588
 30
0.0
 11
-28.7921034981
 21
-3.3884978579
 31
0.0
 11
-28.1248199004
 21
-3.646068588
 31
0.0
  0
SPLINE
  5
366
100
AcDbEntity
  8
0
100
AcDbSpline
 62
7
  6
CONTINUOUS
 70
0
 71
3
 72
8
 73
4
 74
2
 42
0.0000001
 43
0.0000001
 44
0.0000000001
 12
0.8317010575
 22
0.0
 32
0.0
 13
0.5090034544
 23
0.496512832
 33
0.0
 40
0.0
 40
0.0
 40
0.0
 40
0.0
 40
1.0
 40
1.0
 40
1.0
 40
1.0
 10
-28.1248199004
 20
-3.646068588
 30
0.0
 10
-27.8475862145
 20
-3.646068588
 30
0.0
 10
-27.6262068748
 20
-3.5633101017
 30
0.0
 10
-27.4565390567
 20
-3.3978058244
 30
0.0
 11
-28.1248199004
 21
-3.646068588
 31
0.0
 11
-27.4565390567
 21
-3.3978058244
 31
0.0
  0
SPLINE
  5
367
100
AcDbEntity
  8
0
100
AcDbSpline
 62
7
  6
CONTINUOUS
 70
0
 71
3
 72
8
 73
4
 74
2
 42
0.0000001
 43
0.0000001
 44
0.0000000001
 12
0.5027204216
 22
0.4903839809
 32
0.0
 13
0.0049189449
 23
0.782078012
 33
0.0
 40
0.0
 40
0.0
 40
0.0
 40
0.0
 40
1.0
 40
1.0
 40
1.0
 40
1.0
 10
-27.4565390567
 20
-3.3978058244
 30
0.0
 10
-27.2889655828
 20
-3.2343444974
 30
0.0
 10
-27.2020689845
 20
-3.0233099908
 30
0.0
 10
-27.2004293362
 20
-2.7626173202
 30
0.0
 11
-27.4565390567
 21
-3.3978058244
 31
0.0
 11
-27.2004293362
 21
-2.7626173202
 31
0.0
  0
SPLINE
  5
368
100
AcDbEntity
  8
0
100
AcDbSpline
 62
7
  6
CONTINUOUS
 70
0
 71
3
 72
8
 73
4
 74
2
 42
0.0000001
 43
0.0000001
 44
0.0000000001
 12
0.0012882232
 22
0.2048185327
 32
0.0
 13
-0.0451849467
 23
0.2168869893
 33
0.0
 40
0.0
 40
0.0
 40
0.0
 40
0.0
 40
1.0
 40
1.0
 40
1.0
 40
1.0
 10
-27.2004293362
 20
-2.7626173202
 30
0.0
 10
-27.1999999285
 20
-2.6943444759
 30
0.0
 10
-27.208275795
 20
-2.6260686666
 30
0.0
 10
-27.2233374439
 20
-2.5537730036
 30
0.0
 11
-27.2004293362
 21
-2.7626173202
 31
0.0
 11
-27.2233374439
 21
-2.5537730036
 31
0.0
  0
SPLINE
  5
369
100
AcDbEntity
  8
0
100
AcDbSpline
 62
7
  6
CONTINUOUS
 70
0
 71
3
 72
8
 73
4
 74
2
 42
0.0000001
 43
0.0000001
 44
0.0000000001
 12
-0.0479188197
 22
0.230009534
 32
0.0
 13
-0.0744827986
 23
0.1800000966
 33
0.0
 40
0.0
 40
0.0
 40
0.0
 40
0.0
 40
1.0
 40
1.0
 40
1.0
 40
1.0
 10
-27.2233374439
 20
-2.5537730036
 30
0.0
 10
-27.2393103838
 20
-2.4771031589
 30
0.0
 10
-27.2662068605
 20
-2.4108962268
 30
0.0
 10
-27.2910344601
 20
-2.3508961946
 30
0.0
 11
-27.2233374439
 21
-2.5537730036
 31
0.0
 11
-27.2910344601
 21
-2.3508961946
 31
0.0
  0
SPLINE
  5
36A
100
AcDbEntity
  8
0
100
AcDbSpline
 62
7
  6
CONTINUOUS
 70
0
 71
3
 72
8
 73
4
 74
2
 42
0.0000001
 43
0.0000001
 44
0.0000000001
 12
0.3793768588
 22
-0.1407365756
 32
0.0
 13
0.352498945
 23
-0.2091751899
 33
0.0
 40
0.0
 40
0.0
 40
0.0
 40
0.0
 40
1.0
 40
1.0
 40
1.0
 40
1.0
 10
-27.6823210519
 20
-1.8363978133
 30
0.0
 10
-27.5558620989
 20
-1.8833100051
 30
0.0
 10
-27.435430764
 20
-1.9439297947
 30
0.0
 10
-27.3179311156
 20
-2.0136548579
 30
0.0
 11
-27.6823210519
 21
-1.8363978133
 31
0.0
 11
-27.3179311156
 21
-2.0136548579
 31
0.0
  0
SPLINE
  5
36B
100
AcDbEntity
  8
0
100
AcDbSpline
 62
7
  6
CONTINUOUS
 70
0
 71
3
 72
8
 73
4
 74
2
 42
0.0000001
 43
0.0000001
 44
0.0000000001
 12
0.4903395186
 22
0.0022806501
 32
0.0
 13
0.3902781901
 23
-0.1447806178
 33
0.0
 40
0.0
 40
0.0
 40
0.0
 40
0.0
 40
1.0
 40
1.0
 40
1.0
 40
1.0
 10
-28.1227568292
 20
-1.7640702245
 30
0.0
 10
-27.959310323
 20
-1.7633100078
 30
0.0
 10
-27.8124137819
 20
-1.7881376073
 30
0.0
 10
-27.6823210519
 20
-1.8363978133
 30
0.0
 11
-28.1227568292
 21
-1.7640702245
 31
0.0
 11
-27.6823210519
 21
-1.8363978133
 31
0.0
  0
SPLINE
  5
36C
100
AcDbEntity
  8
0
100
AcDbSpline
 62
7
  6
CONTINUOUS
 70
0
 71
3
 72
8
 73
4
 74
2
 42
0.0000001
 43
0.0000001
 44
0.0000000001
 12
0.5016448378
 22
0.5231878502
 32
0.0
 13
0.8441432853
 23
0.0039262498
 33
0.0
 40
0.0
 40
0.0
 40
0.0
 40
0.0
 40
1.0
 40
1.0
 40
1.0
 40
1.0
 10
-28.7927321876
 20
-2.0287404448
 30
0.0
 10
-28.6255172417
 20
-1.8543444947
 30
0.0
 10
-28.4041379243
 20
-1.7653789744
 30
0.0
 10
-28.1227568292
 20
-1.7640702245
 30
0.0
 11
-28.7927321876
 21
-2.0287404448
 31
0.0
 11
-28.1227568292
 21
-1.7640702245
 31
0.0
  0
SPLINE
  5
36D
100
AcDbEntity
  8
0
100
AcDbSpline
 62
7
  6
CONTINUOUS
 70
0
 71
3
 72
8
 73
4
 74
2
 42
0.0000001
 43
0.0000001
 44
0.0000000001
 12
0.0
 22
0.8318166829
 32
0.0
 13
0.510079298
 23
0.5319845261
 33
0.0
 40
0.0
 40
0.0
 40
0.0
 40
0.0
 40
1.0
 40
1.0
 40
1.0
 40
1.0
 10
-29.0475862045
 20
-2.7067891541
 30
0.0
 10
-29.0475862045
 20
-2.4295169265
 30
0.0
 10
-28.9627586203
 20
-2.2060686202
 30
0.0
 10
-28.7927321876
 20
-2.0287404448
 30
0.0
 11
-29.0475862045
 21
-2.7067891541
 31
0.0
 11
-28.7927321876
 21
-2.0287404448
 31
0.0
  0
SPLINE
  5
36E
100
AcDbEntity
  8
0
100
AcDbSpline
 62
7
  6
CONTINUOUS
 70
0
 71
3
 72
8
 73
4
 74
2
 42
0.0000001
 43
0.0000001
 44
0.0000000001
 12
1.2478098739
 22
-0.0076552794
 32
0.0
 13
0.3289656937
 23
-1.0551724434
 33
0.0
 40
0.0
 40
0.0
 40
0.0
 40
0.0
 40
1.0
 40
1.0
 40
1.0
 40
1.0
 10
-28.2014538404
 20
-4.1462754504
 30
0.0
 10
-27.7855172157
 20
-4.1488272101
 30
0.0
 10
-27.5227586329
 20
-4.3308962733
 30
0.0
 10
-27.4131034017
 20
-4.6826204211
 30
0.0
 11
-28.2014538404
 21
-4.1462754504
 31
0.0
 11
-27.4131034017
 21
-4.6826204211
 31
0.0
  0
SPLINE
  5
36F
100
AcDbEntity
  8
0
100
AcDbSpline
 62
7
  6
CONTINUOUS
 70
0
 71
3
 72
8
 73
4
 74
2
 42
0.0000001
 43
0.0000001
 44
0.0000000001
 12
0.4639170974
 22
0.5485507818
 32
0.0
 13
0.7756384145
 23
-0.0047585204
 33
0.0
 40
0.0
 40
0.0
 40
0.0
 40
0.0
 40
1.0
 40
1.0
 40
1.0
 40
1.0
 10
-28.8215355843
 20
-4.4206429463
 30
0.0
 10
-28.6668965518
 20
-4.2377926857
 30
0.0
 10
-28.4599999785
 20
-4.1446892769
 30
0.0
 10
-28.2014538404
 20
-4.1462754504
 30
0.0
 11
-28.8215355843
 21
-4.4206429463
 31
0.0
 11
-28.2014538404
 21
-4.1462754504
 31
0.0
  0
SPLINE
  5
370
100
AcDbEntity
  8
0
100
AcDbSpline
 62
7
  6
CONTINUOUS
 70
0
 71
3
 72
8
 73
4
 74
2
 42
0.0000001
 43
0.0000001
 44
0.0000000001
 12
0.0
 22
0.7511372038
 32
0.0
 13
0.4547035905
 23
0.5376564292
 33
0.0
 40
0.0
 40
0.0
 40
0.0
 40
0.0
 40
1.0
 40
1.0
 40
1.0
 40
1.0
 10
-29.0475862045
 20
-5.0633441184
 30
0.0
 10
-29.0475862045
 20
-4.8129650504
 30
0.0
 10
-28.9731034478
 20
-4.599861756
 30
0.0
 10
-28.8215355843
 20
-4.4206429463
 30
0.0
 11
-29.0475862045
 21
-5.0633441184
 31
0.0
 11
-28.8215355843
 21
-4.4206429463
 31
0.0
  0
SPLINE
  5
371
100
AcDbEntity
  8
0
100
AcDbSpline
 62
7
  6
CONTINUOUS
 70
0
 71
3
 72
8
 73
4
 74
2
 42
0.0000001
 43
0.0000001
 44
0.0000000001
 12
-0.456249386
 22
0.5302355206
 32
0.0
 13
0.0
 23
0.7695529989
 33
0.0
 40
0.0
 40
0.0
 40
0.0
 40
0.0
 40
1.0
 40
1.0
 40
1.0
 40
1.0
 10
-28.8189513553
 20
-5.7117794874
 30
0.0
 10
-28.971034484
 20
-5.5350343139
 30
0.0
 10
-29.0475862045
 20
-5.3198617846
 30
0.0
 10
-29.0475862045
 20
-5.0633441184
 30
0.0
 11
-28.8189513553
 21
-5.7117794874
 31
0.0
 11
-29.0475862045
 21
-5.0633441184
 31
0.0
  0
SPLINE
  5
372
100
AcDbEntity
  8
0
100
AcDbSpline
 62
7
  6
CONTINUOUS
 70
0
 71
3
 72
8
 73
4
 74
2
 42
0.0000001
 43
0.0000001
 44
0.0000000001
 12
-0.7822573757
 22
-0.007198795
 32
0.0
 13
-0.4623713103
 23
0.5373501861
 33
0.0
 40
0.0
 40
0.0
 40
0.0
 40
0.0
 40
1.0
 40
1.0
 40
1.0
 40
1.0
 10
-28.19924752
 20
-5.9795311494
 30
0.0
 10
-28.4599999785
 20
-5.9819307477
 30
0.0
 10
-28.6648275852
 20
-5.8908962161
 30
0.0
 10
-28.8189513553
 20
-5.7117794874
 30
0.0
 11
-28.19924752
 21
-5.9795311494
 31
0.0
 11
-28.8189513553
 21
-5.7117794874
 31
0.0
  0
SPLINE
  5
373
100
AcDbEntity
  8
0
100
AcDbSpline
 62
7
  6
CONTINUOUS
 70
0
 71
3
 72
8
 73
4
 74
2
 42
0.0000001
 43
0.0000001
 44
0.0000000001
 12
-0.3599999249
 22
-1.0551724434
 32
0.0
 13
-1.2411909128
 23
-0.0114221728
 33
0.0
 40
0.0
 40
0.0
 40
0.0
 40
0.0
 40
1.0
 40
1.0
 40
1.0
 40
1.0
 10
-27.4027586579
 20
-5.4439997823
 30
0.0
 10
-27.5227586329
 20
-5.7957239301
 30
0.0
 10
-27.7855172157
 20
-5.9757237584
 30
0.0
 10
-28.19924752
 20
-5.9795311494
 30
0.0
 11
-27.4027586579
 21
-5.4439997823
 31
0.0
 11
-28.19924752
 21
-5.9795311494
 31
0.0
  0
SPLINE
  5
374
100
AcDbEntity
  8
0
100
AcDbSpline
 62
7
  6
CONTINUOUS
 70
0
 71
3
 72
8
 73
4
 74
2
 42
0.0000001
 43
0.0000001
 44
0.0000000001
 12
-0.1328299568
 22
0.1644564755
 32
0.0
 13
-0.0744827986
 23
0.1924130917
 33
0.0
 40
0.0
 40
0.0
 40
0.0
 40
0.0
 40
1.0
 40
1.0
 40
1.0
 40
1.0
 10
-27.2984818841
 20
-5.6229562474
 30
0.0
 10
-27.3427585363
 20
-5.5681374223
 30
0.0
 10
-27.3779310584
 20
-5.5081374795
 30
0.0
 10
-27.4027586579
 20
-5.4439997823
 30
0.0
 11
-27.2984818841
 21
-5.6229562474
 31
0.0
 11
-27.4027586579
 21
-5.4439997823
 31
0.0
  0
SPLINE
  5
375
100
AcDbEntity
  8
0
100
AcDbSpline
 62
7
  6
CONTINUOUS
 70
0
 71
3
 72
8
 73
4
 74
2
 42
0.0000001
 43
0.0000001
 44
0.0000000001
 12
-0.1767015138
 22
0.1109520472
 32
0.0
 13
-0.1278593017
 23
0.1583023184
 33
0.0
 40
0.0
 40
0.0
 40
0.0
 40
0.0
 40
1.0
 40
1.0
 40
1.0
 40
1.0
 10
-27.1452373571
 20
-5.7582251472
 30
0.0
 10
-27.2041378617
 20
-5.7212411315
 30
0.0
 10
-27.2558621168
 20
-5.6757236869
 30
0.0
 10
-27.2984818841
 20
-5.6229562474
 30
0.0
 11
-27.1452373571
 21
-5.7582251472
 31
0.0
 11
-27.2984818841
 21
-5.6229562474
 31
0.0
  0
SPLINE
  5
376
100
AcDbEntity
  8
0
100
AcDbSpline
 62
7
  6
CONTINUOUS
 70
0
 71
3
 72
8
 73
4
 74
2
 42
0.0000001
 43
0.0000001
 44
0.0000000001
 12
-0.4717646842
 22
0.0
 32
0.0
 13
-0.3570913395
 23
0.2242200099
 33
0.0
 40
0.0
 40
0.0
 40
0.0
 40
0.0
 40
1.0
 40
1.0
 40
1.0
 40
1.0
 10
-26.7324002185
 20
-5.8722756059
 30
0.0
 10
-26.8896551132
 20
-5.8722756059
 30
0.0
 10
-27.0262069106
 20
-5.8329651505
 30
0.0
 10
-27.1452373571
 20
-5.7582251472
 30
0.0
 11
-26.7324002185
 21
-5.8722756059
 31
0.0
 11
-27.1452373571
 21
-5.7582251472
 31
0.0
  0
SPLINE
  5
377
100
AcDbEntity
  8
0
100
AcDbSpline
 62
7
  6
CONTINUOUS
 70
0
 71
3
 72
8
 73
4
 74
2
 42
0.0000001
 43
0.0000001
 44
0.0000000001
 12
-0.4171821091
 22
-0.476779166
 32
0.0
 13
-0.7261661883
 23
0.0
 33
0.0
 40
0.0
 40
0.0
 40
0.0
 40
0.0
 40
1.0
 40
1.0
 40
1.0
 40
1.0
 10
-26.1609393685
 20
-5.6326594293
 30
0.0
 10
-26.3000000715
 20
-5.791585818
 30
0.0
 10
-26.4903448224
 20
-5.8722756059
 30
0.0
 10
-26.7324002185
 20
-5.8722756059
 30
0.0
 11
-26.1609393685
 21
-5.6326594293
 31
0.0
 11
-26.7324002185
 21
-5.8722756059
 31
0.0
  0
SPLINE
  5
378
100
AcDbEntity
  8
0
100
AcDbSpline
 62
7
  6
CONTINUOUS
 70
0
 71
3
 72
8
 73
4
 74
2
 42
0.0000001
 43
0.0000001
 44
0.0000000001
 12
0.0
 22
-0.6704601299
 32
0.0
 13
-0.4083353069
 23
-0.4666685431
 33
0.0
 40
0.0
 40
0.0
 40
0.0
 40
0.0
 40
1.0
 40
1.0
 40
1.0
 40
1.0
 10
-25.954482913
 20
-5.0632716087
 30
0.0
 10
-25.954482913
 20
-5.2867583186
 30
0.0
 10
-26.0248275995
 20
-5.4771032483
 30
0.0
 10
-26.1609393685
 20
-5.6326594293
 30
0.0
 11
-25.954482913
 21
-5.0632716087
 31
0.0
 11
-26.1609393685
 21
-5.6326594293
 31
0.0
  0
SPLINE
  5
379
100
AcDbEntity
  8
0
100
AcDbSpline
 62
7
  6
CONTINUOUS
 70
0
 71
3
 72
8
 73
4
 74
2
 42
0.0000001
 43
0.0000001
 44
0.0000000001
 12
0.4065029761
 22
-0.4615184344
 32
0.0
 13
0.0
 23
-0.6764368762
 33
0.0
 40
0.0
 40
0.0
 40
0.0
 40
0.0
 40
1.0
 40
1.0
 40
1.0
 40
1.0
 10
-26.1603285916
 20
-4.495677477
 30
0.0
 10
-26.0248275995
 20
-4.6495169551
 30
0.0
 10
-25.954482913
 20
-4.8377926499
 30
0.0
 10
-25.954482913
 20
-5.0632716087
 30
0.0
 11
-26.1603285916
 21
-4.495677477
 31
0.0
 11
-25.954482913
 21
-5.0632716087
 31
0.0
  0
SPLINE
  5
37A
100
AcDbEntity
  8
0
100
AcDbSpline
 62
7
  6
CONTINUOUS
 70
0
 71
3
 72
8
 73
4
 74
2
 42
0.0000001
 43
0.0000001
 44
0.0000000001
 12
0.7324301166
 22
-0.0037948133
 32
0.0
 13
0.4190144399
 23
-0.4757231795
 33
0.0
 40
0.0
 40
0.0
 40
0.0
 40
0.0
 40
1.0
 40
1.0
 40
1.0
 40
1.0
 10
-26.7344881946
 20
-4.253079481
 30
0.0
 10
-26.4903448224
 20
-4.2543444187
 30
0.0
 10
-26.3000000715
 20
-4.3371030838
 30
0.0
 10
-26.1603285916
 20
-4.495677477
 30
0.0
 11
-26.7344881946
 21
-4.253079481
 31
0.0
 11
-26.1603285916
 21
-4.495677477
 31
0.0
  0
SPLINE
  5
37B
100
AcDbEntity
  8
0
100
AcDbSpline
 62
7
  6
CONTINUOUS
 70
0
 71
3
 72
8
 73
4
 74
2
 42
0.0000001
 43
0.0000001
 44
0.0000000001
 12
0.3557378017
 22
0.2392030046
 32
0.0
 13
0.4655007558
 23
-0.0024118184
 33
0.0
 40
0.0
 40
0.0
 40
0.0
 40
0.0
 40
1.0
 40
1.0
 40
1.0
 40
1.0
 10
-27.146855055
 20
-4.3713201529
 30
0.0
 10
-27.0282757878
 20
-4.291585818
 30
0.0
 10
-26.8896551132
 20
-4.2522755415
 30
0.0
 10
-26.7344881946
 20
-4.253079481
 30
0.0
 11
-27.146855055
 21
-4.3713201529
 31
0.0
 11
-26.7344881946
 21
-4.253079481
 31
0.0
  0
SPLINE
  5
37C
100
AcDbEntity
  8
0
100
AcDbSpline
 62
7
  6
CONTINUOUS
 70
0
 71
3
 72
8
 73
4
 74
2
 42
0.0000001
 43
0.0000001
 44
0.0000000001
 12
0.1799998283
 22
0.3786206245
 32
0.0
 13
0.3642625846
 23
0.2449351862
 33
0.0
 40
0.0
 40
0.0
 40
0.0
 40
0.0
 40
1.0
 40
1.0
 40
1.0
 40
1.0
 10
-27.4131034017
 20
-4.6826204211
 30
0.0
 10
-27.3531034589
 20
-4.5564135463
 30
0.0
 10
-27.2682759166
 20
-4.4529652149
 30
0.0
 10
-27.146855055
 20
-4.3713201529
 30
0.0
 11
-27.4131034017
 21
-4.6826204211
 31
0.0
 11
-27.146855055
 21
-4.3713201529
 31
0.0
  0
SPLINE
  5
37D
100
AcDbEntity
  8
0
100
AcDbSpline
 62
7
  6
CONTINUOUS
 70
0
 71
3
 72
8
 73
4
 74
2
 42
0.0000001
 43
0.0000001
 44
0.0000000001
 12
0.2899413358
 22
-0.2749960286
 32
0.0
 13
0.4655172229
 23
-0.0124132633
 33
0.0
 40
0.0
 40
0.0
 40
0.0
 40
0.0
 40
1.0
 40
1.0
 40
1.0
 40
1.0
 10
-27.1373366995
 20
-5.4392308589
 30
0.0
 10
-27.0406895876
 20
-5.5308962018
 30
0.0
 10
-26.9144827127
 20
-5.5784825236
 30
0.0
 10
-26.7593103051
 20
-5.5826202781
 30
0.0
 11
-27.1373366995
 21
-5.4392308589
 31
0.0
 11
-26.7593103051
 21
-5.5826202781
 31
0.0
  0
SPLINE
  5
37E
100
AcDbEntity
  8
0
100
AcDbSpline
 62
7
  6
CONTINUOUS
 70
0
 71
3
 72
8
 73
4
 74
2
 42
0.0000001
 43
0.0000001
 44
0.0000000001
 12
0.0
 22
-0.4531034231
 32
0.0
 13
0.3121276845
 23
-0.2960387605
 33
0.0
 40
0.0
 40
0.0
 40
0.0
 40
0.0
 40
1.0
 40
1.0
 40
1.0
 40
1.0
 10
-27.2931035161
 20
-5.0633099229
 30
0.0
 10
-27.2931035161
 20
-5.2143443973
 30
0.0
 10
-27.241379261
 20
-5.3405512721
 30
0.0
 10
-27.1373366995
 20
-5.4392308589
 30
0.0
 11
-27.2931035161
 21
-5.0633099229
 31
0.0
 11
-27.1373366995
 21
-5.4392308589
 31
0.0
  0
SPLINE
  5
37F
100
AcDbEntity
  8
0
100
AcDbSpline
 62
7
  6
CONTINUOUS
 70
0
 71
3
 72
8
 73
4
 74
2
 42
0.0000001
 43
0.0000001
 44
0.0000000001
 12
-0.3042006243
 22
-0.3042006243
 32
0.0
 13
0.0
 23
-0.4344824553
 33
0.0
 40
0.0
 40
0.0
 40
0.0
 40
0.0
 40
1.0
 40
1.0
 40
1.0
 40
1.0
 10
-27.1399790529
 20
-4.6950131093
 30
0.0
 10
-27.241379261
 20
-4.7964133174
 30
0.0
 10
-27.2931035161
 20
-4.9184824378
 30
0.0
 10
-27.2931035161
 20
-5.0633099229
 30
0.0
 11
-27.1399790529
 21
-4.6950131093
 31
0.0
 11
-27.2931035161
 21
-5.0633099229
 31
0.0
  0
SPLINE
  5
380
100
AcDbEntity
  8
0
100
AcDbSpline
 62
7
  6
CONTINUOUS
 70
0
 71
3
 72
8
 73
4
 74
2
 42
0.0000001
 43
0.0000001
 44
0.0000000001
 12
-0.4655172229
 22
0.0
 32
0.0
 13
-0.297868396
 23
-0.297868396
 33
0.0
 40
0.0
 40
0.0
 40
0.0
 40
0.0
 40
1.0
 40
1.0
 40
1.0
 40
1.0
 10
-26.7593103051
 20
-4.5439997465
 30
0.0
 10
-26.9144827127
 20
-4.5439997465
 30
0.0
 10
-27.0406895876
 20
-4.595723644
 30
0.0
 10
-27.1399790529
 20
-4.6950131093
 30
0.0
 11
-26.7593103051
 21
-4.5439997465
 31
0.0
 11
-27.1399790529
 21
-4.6950131093
 31
0.0
  0
SPLINE
  5
381
100
AcDbEntity
  8
0
100
AcDbSpline
 62
7
  6
CONTINUOUS
 70
0
 71
3
 72
8
 73
4
 74
2
 42
0.0000001
 43
0.0000001
 44
0.0000000001
 12
-0.2916578902
 22
0.3042023214
 32
0.0
 13
-0.4717238545
 23
0.0
 33
0.0
 40
0.0
 40
0.0
 40
0.0
 40
0.0
 40
1.0
 40
1.0
 40
1.0
 40
1.0
 10
-26.3765737927
 20
-4.6971244178
 30
0.0
 10
-26.4737930894
 20
-4.595723644
 30
0.0
 10
-26.6020690203
 20
-4.5439997465
 30
0.0
 10
-26.7593103051
 20
-4.5439997465
 30
0.0
 11
-26.3765737927
 21
-4.6971244178
 31
0.0
 11
-26.7593103051
 21
-4.5439997465
 31
0.0
  0
SPLINE
  5
382
100
AcDbEntity
  8
0
100
AcDbSpline
 62
7
  6
CONTINUOUS
 70
0
 71
3
 72
8
 73
4
 74
2
 42
0.0000001
 43
0.0000001
 44
0.0000000001
 12
0.0
 22
0.4346597593
 32
0.0
 13
-0.2855835306
 23
0.2978666989
 33
0.0
 40
0.0
 40
0.0
 40
0.0
 40
0.0
 40
1.0
 40
1.0
 40
1.0
 40
1.0
 10
-26.2317240834
 20
-5.0633690242
 30
0.0
 10
-26.2317240834
 20
-4.9184824378
 30
0.0
 10
-26.2813792825
 20
-4.7964133174
 30
0.0
 10
-26.3765737927
 20
-4.6971244178
 30
0.0
 11
-26.2317240834
 21
-5.0633690242
 31
0.0
 11
-26.3765737927
 21
-4.6971244178
 31
0.0
  0
SPLINE
  5
383
100
AcDbEntity
  8
0
100
AcDbSpline
 62
7
  6
CONTINUOUS
 70
0
 71
3
 72
8
 73
4
 74
2
 42
0.0000001
 43
0.0000001
 44
0.0000000001
 12
0.2933632096
 22
0.2902089013
 32
0.0
 13
0.0
 23
0.4529261191
 33
0.0
 40
0.0
 40
0.0
 40
0.0
 40
0.0
 40
1.0
 40
1.0
 40
1.0
 40
1.0
 10
-26.379167019
 20
-5.4372875725
 30
0.0
 10
-26.2813792825
 20
-5.3405512721
 30
0.0
 10
-26.2317240834
 20
-5.2143443973
 30
0.0
 10
-26.2317240834
 20
-5.0633690242
 30
0.0
 11
-26.379167019
 21
-5.4372875725
 31
0.0
 11
-26.2317240834
 21
-5.0633690242
 31
0.0
  0
SPLINE
  5
384
100
AcDbEntity
  8
0
100
AcDbSpline
 62
7
  6
CONTINUOUS
 70
0
 71
3
 72
8
 73
4
 74
2
 42
0.0000001
 43
0.0000001
 44
0.0000000001
 12
0.4717238545
 22
0.0124132633
 32
0.0
 13
0.2838782112
 23
0.2808258878
 33
0.0
 40
0.0
 40
0.0
 40
0.0
 40
0.0
 40
1.0
 40
1.0
 40
1.0
 40
1.0
 10
-26.7593103051
 20
-5.5826202781
 30
0.0
 10
-26.6020690203
 20
-5.5784825236
 30
0.0
 10
-26.4737930894
 20
-5.5308962018
 30
0.0
 10
-26.379167019
 20
-5.4372875725
 30
0.0
 11
-26.7593103051
 21
-5.5826202781
 31
0.0
 11
-26.379167019
 21
-5.4372875725
 31
0.0
  0
SPLINE
  5
385
100
AcDbEntity
  8
0
100
AcDbSpline
 62
7
  6
CONTINUOUS
 70
0
 71
3
 72
8
 73
4
 74
2
 42
0.0000001
 43
0.0000001
 44
0.0000000001
 12
-0.3553061136
 22
0.3647390944
 32
0.0
 13
-0.5834483206
 23
0.0124137998
 33
0.0
 40
0.0
 40
0.0
 40
0.0
 40
0.0
 40
1.0
 40
1.0
 40
1.0
 40
1.0
 10
-27.6546680448
 20
-2.2407517646
 30
0.0
 10
-27.773103416
 20
-2.1191720665
 30
0.0
 10
-27.9303447902
 20
-2.059172079
 30
0.0
 10
-28.1248275638
 20
-2.0550341458
 30
0.0
 11
-27.6546680448
 21
-2.2407517646
 31
0.0
 11
-28.1248275638
 21
-2.0550341458
 31
0.0
  0
SPLINE
  5
386
100
AcDbEntity
  8
0
100
AcDbSpline
 62
7
  6
CONTINUOUS
 70
0
 71
3
 72
8
 73
4
 74
2
 42
0.0000001
 43
0.0000001
 44
0.0000000001
 12
0.0
 22
0.5773748871
 32
0.0
 13
-0.3460730366
 23
0.3552608895
 33
0.0
 40
0.0
 40
0.0
 40
0.0
 40
0.0
 40
1.0
 40
1.0
 40
1.0
 40
1.0
 10
-27.4793103337
 20
-2.7047337979
 30
0.0
 10
-27.4793103337
 20
-2.5122755022
 30
0.0
 10
-27.5393103659
 20
-2.3591720612
 30
0.0
 10
-27.6546680448
 20
-2.2407517646
 30
0.0
 11
-27.4793103337
 21
-2.7047337979
 31
0.0
 11
-27.6546680448
 21
-2.2407517646
 31
0.0
  0
SPLINE
  5
387
100
AcDbEntity
  8
0
100
AcDbSpline
 62
7
  6
CONTINUOUS
 70
0
 71
3
 72
8
 73
4
 74
2
 42
0.0000001
 43
0.0000001
 44
0.0000000001
 12
0.3507034422
 22
0.3507034422
 32
0.0
 13
0.0
 23
0.595728654
 33
0.0
 40
0.0
 40
0.0
 40
0.0
 40
0.0
 40
1.0
 40
1.0
 40
1.0
 40
1.0
 10
-27.6562115133
 20
-3.1774525375
 30
0.0
 10
-27.5393103659
 20
-3.0605513901
 30
0.0
 10
-27.4793103337
 20
-2.9033100159
 30
0.0
 10
-27.4793103337
 20
-2.7047337979
 30
0.0
 11
-27.6562115133
 21
-3.1774525375
 31
0.0
 11
-27.4793103337
 21
-2.7047337979
 31
0.0
  0
SPLINE
  5
388
100
AcDbEntity
  8
0
100
AcDbSpline
 62
7
  6
CONTINUOUS
 70
0
 71
3
 72
8
 73
4
 74
2
 42
0.0000001
 43
0.0000001
 44
0.0000000001
 12
0.5835803674
 22
0.0
 32
0.0
 13
0.350675708
 23
0.350675708
 33
0.0
 40
0.0
 40
0.0
 40
0.0
 40
0.0
 40
1.0
 40
1.0
 40
1.0
 40
1.0
 10
-28.1248715794
 20
-3.3522755057
 30
0.0
 10
-27.9303447902
 20
-3.3522755057
 30
0.0
 10
-27.773103416
 20
-3.2943444402
 30
0.0
 10
-27.6562115133
 20
-3.1774525375
 30
0.0
 11
-28.1248715794
 21
-3.3522755057
 31
0.0
 11
-27.6562115133
 21
-3.1774525375
 31
0.0
  0
SPLINE
  5
389
100
AcDbEntity
  8
0
100
AcDbSpline
 62
7
  6
CONTINUOUS
 70
0
 71
3
 72
8
 73
4
 74
2
 42
0.0000001
 43
0.0000001
 44
0.0000000001
 12
0.3552671746
 22
-0.3460791269
 32
0.0
 13
0.5771093739
 23
0.0
 33
0.0
 40
0.0
 40
0.0
 40
0.0
 40
0.0
 40
1.0
 40
1.0
 40
1.0
 40
1.0
 10
-28.5929051365
 20
-3.1789847312
 30
0.0
 10
-28.4744827449
 20
-3.2943444402
 30
0.0
 10
-28.3172413707
 20
-3.3522755057
 30
0.0
 10
-28.1248715794
 20
-3.3522755057
 30
0.0
 11
-28.5929051365
 21
-3.1789847312
 31
0.0
 11
-28.1248715794
 21
-3.3522755057
 31
0.0
  0
SPLINE
  5
38A
100
AcDbEntity
  8
0
100
AcDbSpline
 62
7
  6
CONTINUOUS
 70
0
 71
3
 72
8
 73
4
 74
2
 42
0.0000001
 43
0.0000001
 44
0.0000000001
 12
0.0
 22
-0.5958621204
 32
0.0
 13
0.3647328764
 23
-0.3553000233
 33
0.0
 40
0.0
 40
0.0
 40
0.0
 40
0.0
 40
1.0
 40
1.0
 40
1.0
 40
1.0
 10
-28.776551716
 20
-2.7046893091
 30
0.0
 10
-28.776551716
 20
-2.9033100159
 30
0.0
 10
-28.7144827619
 20
-3.0605513901
 30
0.0
 10
-28.5929051365
 20
-3.1789847312
 30
0.0
 11
-28.776551716
 21
-2.7046893091
 31
0.0
 11
-28.5929051365
 21
-3.1789847312
 31
0.0
  0
SPLINE
  5
38B
100
AcDbEntity
  8
0
100
AcDbSpline
 62
7
  6
CONTINUOUS
 70
0
 71
3
 72
8
 73
4
 74
2
 42
0.0000001
 43
0.0000001
 44
0.0000000001
 12
-0.3600534796
 22
-0.3600534461
 32
0.0
 13
0.0
 23
-0.5772414207
 33
0.0
 40
0.0
 40
0.0
 40
0.0
 40
0.0
 40
1.0
 40
1.0
 40
1.0
 40
1.0
 10
-28.5944649354
 20
-2.2391542458
 30
0.0
 10
-28.7144827619
 20
-2.3591720612
 30
0.0
 10
-28.776551716
 20
-2.5122755022
 30
0.0
 10
-28.776551716
 20
-2.7046893091
 30
0.0
 11
-28.5944649354
 21
-2.2391542458
 31
0.0
 11
-28.776551716
 21
-2.7046893091
 31
0.0
  0
SPLINE
  5
38C
100
AcDbEntity
  8
0
100
AcDbSpline
 62
7
  6
CONTINUOUS
 70
0
 71
3
 72
8
 73
4
 74
2
 42
0.0000001
 43
0.0000001
 44
0.0000000001
 12
-0.5772414207
 22
-0.0124137998
 32
0.0
 13
-0.3599465714
 23
-0.3599465379
 33
0.0
 40
0.0
 40
0.0
 40
0.0
 40
0.0
 40
1.0
 40
1.0
 40
1.0
 40
1.0
 10
-28.1248275638
 20
-2.0550341458
 30
0.0
 10
-28.3172413707
 20
-2.059172079
 30
0.0
 10
-28.4744827449
 20
-2.1191720665
 30
0.0
 10
-28.5944649354
 20
-2.2391542458
 30
0.0
 11
-28.1248275638
 21
-2.0550341458
 31
0.0
 11
-28.5944649354
 21
-2.2391542458
 31
0.0
  0
SPLINE
  5
38D
100
AcDbEntity
  8
0
100
AcDbSpline
 62
7
  6
CONTINUOUS
 70
0
 71
3
 72
8
 73
4
 74
2
 42
0.0000001
 43
0.0000001
 44
0.0000000001
 12
0.3397903543
 22
-0.3306064629
 32
0.0
 13
0.5400000215
 23
-0.0124143362
 33
0.0
 40
0.0
 40
0.0
 40
0.0
 40
0.0
 40
1.0
 40
1.0
 40
1.0
 40
1.0
 10
-28.5960220629
 20
-5.5241422
 30
0.0
 10
-28.4827586114
 20
-5.6343443543
 30
0.0
 10
-28.3379310369
 20
-5.6902065427
 30
0.0
 10
-28.1579310298
 20
-5.6943446547
 30
0.0
 11
-28.5960220629
 21
-5.5241422
 31
0.0
 11
-28.1579310298
 21
-5.6943446547
 31
0.0
  0
SPLINE
  5
38E
100
AcDbEntity
  8
0
100
AcDbSpline
 62
7
  6
CONTINUOUS
 70
0
 71
3
 72
8
 73
4
 74
2
 42
0.0000001
 43
0.0000001
 44
0.0000000001
 12
0.0
 22
-0.5835800993
 32
0.0
 13
0.3491751973
 23
-0.3397376514
 33
0.0
 40
0.0
 40
0.0
 40
0.0
 40
0.0
 40
1.0
 40
1.0
 40
1.0
 40
1.0
 10
-28.7724137828
 20
-5.0632659073
 30
0.0
 10
-28.7724137828
 20
-5.257792607
 30
0.0
 10
-28.7124137953
 20
-5.4108963162
 30
0.0
 10
-28.5960220629
 20
-5.5241422
 30
0.0
 11
-28.7724137828
 21
-5.0632659073
 31
0.0
 11
-28.5960220629
 21
-5.5241422
 31
0.0
  0
SPLINE
  5
38F
100
AcDbEntity
  8
0
100
AcDbSpline
 62
7
  6
CONTINUOUS
 70
0
 71
3
 72
8
 73
4
 74
2
 42
0.0000001
 43
0.0000001
 44
0.0000000001
 12
-0.3429770464
 22
-0.3398870615
 32
0.0
 13
0.0
 23
-0.5771093739
 33
0.0
 40
0.0
 40
0.0
 40
0.0
 40
0.0
 40
1.0
 40
1.0
 40
1.0
 40
1.0
 10
-28.5980881132
 20
-4.6065659544
 30
0.0
 10
-28.7124137953
 20
-4.7198616416
 30
0.0
 10
-28.7724137828
 20
-4.870896116
 30
0.0
 10
-28.7724137828
 20
-5.0632659073
 30
0.0
 11
-28.5980881132
 21
-4.6065659544
 31
0.0
 11
-28.7724137828
 21
-5.0632659073
 31
0.0
  0
SPLINE
  5
390
100
AcDbEntity
  8
0
100
AcDbSpline
 62
7
  6
CONTINUOUS
 70
0
 71
3
 72
8
 73
4
 74
2
 42
0.0000001
 43
0.0000001
 44
0.0000000001
 12
-0.5400000215
 22
0.0
 32
0.0
 13
-0.3459885052
 23
-0.3428713891
 33
0.0
 40
0.0
 40
0.0
 40
0.0
 40
0.0
 40
1.0
 40
1.0
 40
1.0
 40
1.0
 10
-28.1579310298
 20
-4.4343444259
 30
0.0
 10
-28.3379310369
 20
-4.4343444259
 30
0.0
 10
-28.4827586114
 20
-4.4922754914
 30
0.0
 10
-28.5980881132
 20
-4.6065659544
 30
0.0
 11
-28.1579310298
 21
-4.4343444259
 31
0.0
 11
-28.5980881132
 21
-4.6065659544
 31
0.0
  0
SPLINE
  5
391
100
AcDbEntity
  8
0
100
AcDbSpline
 62
7
  6
CONTINUOUS
 70
0
 71
3
 72
8
 73
4
 74
2
 42
0.0000001
 43
0.0000001
 44
0.0000000001
 12
-0.3398732396
 22
0.3429912092
 32
0.0
 13
-0.5400000215
 23
0.0
 33
0.0
 40
0.0
 40
0.0
 40
0.0
 40
0.0
 40
1.0
 40
1.0
 40
1.0
 40
1.0
 10
-27.7177434017
 20
-4.6066058945
 30
0.0
 10
-27.8310344815
 20
-4.4922754914
 30
0.0
 10
-27.9779310226
 20
-4.4343444259
 30
0.0
 10
-28.1579310298
 20
-4.4343444259
 30
0.0
 11
-27.7177434017
 21
-4.6066058945
 31
0.0
 11
-28.1579310298
 21
-4.4343444259
 31
0.0
  0
SPLINE
  5
392
100
AcDbEntity
  8
0
100
AcDbSpline
 62
7
  6
CONTINUOUS
 70
0
 71
3
 72
8
 73
4
 74
2
 42
0.0000001
 43
0.0000001
 44
0.0000000001
 12
0.0
 22
0.5773748871
 32
0.0
 13
-0.3366785793
 23
0.3397672413
 33
0.0
 40
0.0
 40
0.0
 40
0.0
 40
0.0
 40
1.0
 40
1.0
 40
1.0
 40
1.0
 10
-27.5475862324
 20
-5.0633544117
 30
0.0
 10
-27.5475862324
 20
-4.870896116
 30
0.0
 10
-27.6055172086
 20
-4.7198616416
 30
0.0
 10
-27.7177434017
 20
-4.6066058945
 30
0.0
 11
-27.5475862324
 21
-5.0633544117
 31
0.0
 11
-27.7177434017
 21
-4.6066058945
 31
0.0
  0
SPLINE
  5
393
100
AcDbEntity
  8
0
100
AcDbSpline
 62
7
  6
CONTINUOUS
 70
0
 71
3
 72
8
 73
4
 74
2
 42
0.0000001
 43
0.0000001
 44
0.0000000001
 12
0.3429488298
 22
0.3398021011
 32
0.0
 13
0.0
 23
0.5833145861
 33
0.0
 40
0.0
 40
0.0
 40
0.0
 40
0.0
 40
1.0
 40
1.0
 40
1.0
 40
1.0
 10
-27.7198334852
 20
-5.5241636833
 30
0.0
 10
-27.6055172086
 20
-5.4108963162
 30
0.0
 10
-27.5475862324
 20
-5.257792607
 30
0.0
 10
-27.5475862324
 20
-5.0633544117
 30
0.0
 11
-27.7198334852
 21
-5.5241636833
 31
0.0
 11
-27.5475862324
 21
-5.0633544117
 31
0.0
  0
SPLINE
  5
394
100
AcDbEntity
  8
0
100
AcDbSpline
 62
7
  6
CONTINUOUS
 70
0
 71
3
 72
8
 73
4
 74
2
 42
0.0000001
 43
0.0000001
 44
0.0000000001
 12
0.5400000215
 22
0.0124143362
 32
0.0
 13
0.3336029891
 23
0.3305420132
 33
0.0
 40
0.0
 40
0.0
 40
0.0
 40
0.0
 40
1.0
 40
1.0
 40
1.0
 40
1.0
 10
-28.1579310298
 20
-5.6943446547
 30
0.0
 10
-27.9779310226
 20
-5.6902065427
 30
0.0
 10
-27.8310344815
 20
-5.6343443543
 30
0.0
 10
-27.7198334852
 20
-5.5241636833
 30
0.0
 11
-28.1579310298
 21
-5.6943446547
 31
0.0
 11
-27.7198334852
 21
-5.5241636833
 31
0.0
  0
SPLINE
  5
395
100
AcDbEntity
  8
0
100
AcDbSpline
 62
7
  6
CONTINUOUS
 70
0
 71
3
 72
8
 73
4
 74
2
 42
0.0000001
 43
0.0000001
 44
0.0000000001
 12
0.5383932125
 22
0.5292160179
 32
0.0
 13
-0.0
 23
0.8751943588
 33
0.0
 40
0.0
 40
0.0
 40
0.0
 40
0.0
 40
1.0
 40
1.0
 40
1.0
 40
1.0
 10
-0.2656712576
 20
-41.0438532938
 30
0.0
 10
-0.0862068534
 20
-40.8674479545
 30
0.0
 10
0.0048274994
 20
-40.6336548597
 30
0.0
 10
0.0048274994
 20
-40.3419234068
 30
0.0
 11
-0.2656712576
 21
-41.0438532938
 31
0.0
 11
0.0048274994
 21
-40.3419234068
 31
0.0
  0
SPLINE
  5
396
100
AcDbEntity
  8
0
100
AcDbSpline
 62
7
  6
CONTINUOUS
 70
0
 71
3
 72
8
 73
4
 74
2
 42
0.0000001
 43
0.0000001
 44
0.0000000001
 12
-0.0
 22
0.8441161037
 32
0.0
 13
-0.4952235455
 23
0.5292703164
 33
0.0
 40
0.0
 40
0.0
 40
0.0
 40
0.0
 40
1.0
 40
1.0
 40
1.0
 40
1.0
 10
0.0048274994
 20
-40.3419234068
 30
0.0
 10
0.0048274994
 20
-40.0605513722
 30
0.0
 10
-0.0779309869
 20
-39.8288272888
 30
0.0
 10
-0.2430055021
 20
-39.65240385
 30
0.0
 11
0.0048274994
 21
-40.3419234068
 31
0.0
 11
-0.2430055021
 21
-39.65240385
 31
0.0
  0
SPLINE
  5
397
100
AcDbEntity
  8
0
100
AcDbSpline
 62
7
  6
CONTINUOUS
 70
0
 71
3
 72
8
 73
4
 74
2
 42
0.0000001
 43
0.0000001
 44
0.0000000001
 12
-0.4978798991
 22
0.5321092951
 32
0.0
 13
-0.8379438348
 23
0.0041690567
 33
0.0
 40
0.0
 40
0.0
 40
0.0
 40
0.0
 40
1.0
 40
1.0
 40
1.0
 40
1.0
 10
-0.2430055021
 20
-39.65240385
 30
0.0
 10
-0.4089654684
 20
-39.475034085
 30
0.0
 10
-0.6303448081
 20
-39.3839997322
 30
0.0
 10
-0.9096594197
 20
-39.3826100466
 30
0.0
 11
-0.2430055021
 21
-39.65240385
 31
0.0
 11
-0.9096594197
 21
-39.3826100466
 31
0.0
  0
SPLINE
  5
398
100
AcDbEntity
  8
0
100
AcDbSpline
 62
7
  6
CONTINUOUS
 70
0
 71
3
 72
8
 73
4
 74
2
 42
0.0000001
 43
0.0000001
 44
0.0000000001
 12
-0.4096425049
 22
0.0020381114
 32
0.0
 13
-0.3724137247
 23
-0.1427584291
 33
0.0
 40
0.0
 40
0.0
 40
0.0
 40
0.0
 40
1.0
 40
1.0
 40
1.0
 40
1.0
 10
-0.9096594197
 20
-39.3826100466
 30
0.0
 10
-1.0462069213
 20
-39.3819306762
 30
0.0
 10
-1.1765517294
 20
-39.4046893985
 30
0.0
 10
-1.3006896377
 20
-39.4522755415
 30
0.0
 11
-0.9096594197
 21
-39.3826100466
 31
0.0
 11
-1.3006896377
 21
-39.4522755415
 31
0.0
  0
SPLINE
  5
399
100
AcDbEntity
  8
0
100
AcDbSpline
 62
7
  6
CONTINUOUS
 70
0
 71
3
 72
8
 73
4
 74
2
 42
0.0000001
 43
0.0000001
 44
0.0000000001
 12
-0.6394309306
 22
0.0
 32
0.0
 13
-0.564827621
 23
-0.3289654255
 33
0.0
 40
0.0
 40
0.0
 40
0.0
 40
0.0
 40
1.0
 40
1.0
 40
1.0
 40
1.0
 10
-0.9985805186
 20
-39.6612410814
 30
0.0
 10
-1.2117241621
 20
-39.6612410814
 30
0.0
 10
-1.4144827574
 20
-39.7150342137
 30
0.0
 10
-1.6027586311
 20
-39.8246893556
 30
0.0
 11
-0.9985805186
 21
-39.6612410814
 31
0.0
 11
-1.6027586311
 21
-39.8246893556
 31
0.0
  0
SPLINE
  5
39A
100
AcDbEntity
  8
0
100
AcDbSpline
 62
7
  6
CONTINUOUS
 70
0
 71
3
 72
8
 73
4
 74
2
 42
0.0000001
 43
0.0000001
 44
0.0000000001
 12
-0.3926384655
 22
0.3895224198
 32
0.0
 13
-0.6391899085
 23
0.0
 33
0.0
 40
0.0
 40
0.0
 40
0.0
 40
0.0
 40
1.0
 40
1.0
 40
1.0
 40
1.0
 10
-0.4829135866
 20
-39.855219764
 30
0.0
 10
-0.6137930751
 20
-39.7253789575
 30
0.0
 10
-0.7855172157
 20
-39.6612410814
 30
0.0
 10
-0.9985805186
 20
-39.6612410814
 30
0.0
 11
-0.4829135866
 21
-39.855219764
 31
0.0
 11
-0.9985805186
 21
-39.6612410814
 31
0.0
  0
SPLINE
  5
39B
100
AcDbEntity
  8
0
100
AcDbSpline
 62
7
  6
CONTINUOUS
 70
0
 71
3
 72
8
 73
4
 74
2
 42
0.0000001
 43
0.0000001
 44
0.0000000001
 12
0.0
 22
0.6518421671
 32
0.0
 13
-0.3894303831
 23
0.3863397972
 33
0.0
 40
0.0
 40
0.0
 40
0.0
 40
0.0
 40
1.0
 40
1.0
 40
1.0
 40
1.0
 10
-0.2889655828
 20
-40.3730045595
 30
0.0
 10
-0.2889655828
 20
-40.1557238371
 30
0.0
 10
-0.3531034589
 20
-39.9839996964
 30
0.0
 10
-0.4829135866
 20
-39.855219764
 30
0.0
 11
-0.2889655828
 21
-40.3730045595
 31
0.0
 11
-0.4829135866
 21
-39.855219764
 31
0.0
  0
SPLINE
  5
39C
100
AcDbEntity
  8
0
100
AcDbSpline
 62
7
  6
CONTINUOUS
 70
0
 71
3
 72
8
 73
4
 74
2
 42
0.0000001
 43
0.0000001
 44
0.0000000001
 12
0.3631694989
 22
0.3753767825
 32
0.0
 13
0.0
 23
0.5647094049
 33
0.0
 40
0.0
 40
0.0
 40
0.0
 40
0.0
 40
1.0
 40
1.0
 40
1.0
 40
1.0
 10
-0.4720909025
 20
-40.8436080409
 30
0.0
 10
-0.3510344028
 20
-40.7184824467
 30
0.0
 10
-0.2889655828
 20
-40.5612410278
 30
0.0
 10
-0.2889655828
 20
-40.3730045595
 30
0.0
 11
-0.4720909025
 21
-40.8436080409
 31
0.0
 11
-0.2889655828
 21
-40.3730045595
 31
0.0
  0
SPLINE
  5
39D
100
AcDbEntity
  8
0
100
AcDbSpline
 62
7
  6
CONTINUOUS
 70
0
 71
3
 72
8
 73
4
 74
2
 42
0.0000001
 43
0.0000001
 44
0.0000000001
 12
0.5711634833
 22
-0.0026080253
 32
0.0
 13
0.3754513188
 23
0.3880714335
 33
0.0
 40
0.0
 40
0.0
 40
0.0
 40
0.0
 40
1.0
 40
1.0
 40
1.0
 40
1.0
 10
-0.9428015775
 20
-41.038302731
 30
0.0
 10
-0.7524137497
 20
-41.0391720728
 30
0.0
 10
-0.5972413421
 20
-40.9729651854
 30
0.0
 10
-0.4720909025
 20
-40.8436080409
 30
0.0
 11
-0.9428015775
 21
-41.038302731
 31
0.0
 11
-0.4720909025
 21
-40.8436080409
 31
0.0
  0
SPLINE
  5
39E
100
AcDbEntity
  8
0
100
AcDbSpline
 62
7
  6
CONTINUOUS
 70
0
 71
3
 72
8
 73
4
 74
2
 42
0.0000001
 43
0.0000001
 44
0.0000000001
 12
0.3537931591
 22
-0.7572414503
 32
0.0
 13
0.7881470543
 23
-0.0035988075
 33
0.0
 40
0.0
 40
0.0
 40
0.0
 40
0.0
 40
1.0
 40
1.0
 40
1.0
 40
1.0
 10
-1.5117241442
 20
-40.6564134479
 30
0.0
 10
-1.3937930912
 20
-40.9088272647
 30
0.0
 10
-1.2055172622
 20
-41.0371031285
 30
0.0
 10
-0.9428015775
 20
-41.038302731
 30
0.0
 11
-1.5117241442
 21
-40.6564134479
 31
0.0
 11
-0.9428015775
 21
-41.038302731
 31
0.0
  0
SPLINE
  5
39F
100
AcDbEntity
  8
0
100
AcDbSpline
 62
7
  6
CONTINUOUS
 70
0
 71
3
 72
8
 73
4
 74
2
 42
0.0000001
 43
0.0000001
 44
0.0000000001
 12
-1.1483430413
 22
0.0
 32
0.0
 13
-0.5213793218
 23
1.0551723763
 33
0.0
 40
0.0
 40
0.0
 40
0.0
 40
0.0
 40
1.0
 40
1.0
 40
1.0
 40
1.0
 10
-0.9675638229
 20
-41.3143444945
 30
0.0
 10
-1.3503448367
 20
-41.3143444945
 30
0.0
 10
-1.6296551749
 20
-41.1405513928
 30
0.0
 10
-1.8034482822
 20
-40.7888272674
 30
0.0
 11
-0.9675638229
 21
-41.3143444945
 31
0.0
 11
-1.8034482822
 21
-40.7888272674
 31
0.0
  0
SPLINE
  5
3A0
100
AcDbEntity
  8
0
100
AcDbSpline
 62
7
  6
CONTINUOUS
 70
0
 71
3
 72
8
 73
4
 74
2
 42
0.0000001
 43
0.0000001
 44
0.0000000001
 12
-0.5540206302
 22
-0.544577058
 32
0.0
 13
-0.8564845475
 23
0.0
 33
0.0
 40
0.0
 40
0.0
 40
0.0
 40
0.0
 40
1.0
 40
1.0
 40
1.0
 40
1.0
 10
-0.2656712576
 20
-41.0438532938
 30
0.0
 10
-0.4503448009
 20
-41.2253789798
 30
0.0
 10
-0.6820689738
 20
-41.3143444945
 30
0.0
 10
-0.9675638229
 20
-41.3143444945
 30
0.0
 11
-0.2656712576
 21
-41.0438532938
 31
0.0
 11
-0.9675638229
 21
-41.3143444945
 31
0.0
  0
SPLINE
  5
3A1
100
AcDbEntity
  8
0
100
AcDbSpline
 62
7
  6
CONTINUOUS
 70
0
 71
3
 72
8
 73
4
 74
2
 42
0.0000001
 43
0.0000001
 44
0.0000000001
 12
-0.4441581203
 22
0.2714298291
 32
0.0
 13
-0.6144822836
 23
0.0
 33
0.0
 40
0.0
 40
0.0
 40
0.0
 40
0.0
 40
1.0
 40
1.0
 40
1.0
 40
1.0
 10
1.8308111573
 20
-39.9689590082
 30
0.0
 10
1.6827584505
 20
-39.8784823985
 30
0.0
 10
1.5068963766
 20
-39.8350341887
 30
0.0
 10
1.3020689487
 20
-39.8350341887
 30
0.0
 11
1.8308111573
 21
-39.9689590082
 31
0.0
 11
1.3020689487
 21
-39.8350341887
 31
0.0
  0
SPLINE
  5
3A2
100
AcDbEntity
  8
0
100
AcDbSpline
 62
7
  6
CONTINUOUS
 70
0
 71
3
 72
8
 73
4
 74
2
 42
0.0000001
 43
0.0000001
 44
0.0000000001
 12
0.0
 22
0.6828715524
 32
0.0
 13
-0.4496354626
 23
0.2747770922
 33
0.0
 40
0.0
 40
0.0
 40
0.0
 40
0.0
 40
1.0
 40
1.0
 40
1.0
 40
1.0
 10
2.0551724434
 20
-40.4495545306
 30
0.0
 10
2.0551724434
 20
-40.2219306797
 30
0.0
 10
1.9806896448
 20
-40.0605513722
 30
0.0
 10
1.8308111573
 20
-39.9689590082
 30
0.0
 11
2.0551724434
 21
-40.4495545306
 31
0.0
 11
1.8308111573
 21
-39.9689590082
 31
0.0
  0
SPLINE
  5
3A3
100
AcDbEntity
  8
0
100
AcDbSpline
 62
7
  6
CONTINUOUS
 70
0
 71
3
 72
8
 73
4
 74
2
 42
0.0000001
 43
0.0000001
 44
0.0000000001
 12
0.3429767105
 22
0.3215405007
 32
0.0
 13
0.0
 23
0.5336802879
 33
0.0
 40
0.0
 40
0.0
 40
0.0
 40
0.0
 40
1.0
 40
1.0
 40
1.0
 40
1.0
 10
1.8808469304
 20
-40.875317768
 30
0.0
 10
1.9951725006
 20
-40.7681376011
 30
0.0
 10
2.0551724434
 20
-40.6274479598
 30
0.0
 10
2.0551724434
 20
-40.4495545306
 30
0.0
 11
1.8808469304
 21
-40.875317768
 31
0.0
 11
2.0551724434
 21
-40.4495545306
 31
0.0
  0
SPLINE
  5
3A4
100
AcDbEntity
  8
0
100
AcDbSpline
 62
7
  6
CONTINUOUS
 70
0
 71
3
 72
8
 73
4
 74
2
 42
0.0000001
 43
0.0000001
 44
0.0000000001
 12
0.5275862217
 22
0.0
 32
0.0
 13
0.3521960762
 23
0.3301836516
 33
0.0
 40
0.0
 40
0.0
 40
0.0
 40
0.0
 40
1.0
 40
1.0
 40
1.0
 40
1.0
 10
1.4427586794
 20
-41.043310006
 30
0.0
 10
1.6186207533
 20
-41.043310006
 30
0.0
 10
1.7634482384
 20
-40.9853789852
 30
0.0
 10
1.8808469304
 20
-40.875317768
 30
0.0
 11
1.4427586794
 21
-41.043310006
 31
0.0
 11
1.8808469304
 21
-40.875317768
 31
0.0
  0
SPLINE
  5
3A5
100
AcDbEntity
  8
0
100
AcDbSpline
 62
7
  6
CONTINUOUS
 70
0
 71
3
 72
8
 73
4
 74
2
 42
0.0000001
 43
0.0000001
 44
0.0000000001
 12
0.2606892586
 22
-0.8441379145
 32
0.0
 13
1.011723876
 23
0.0
 33
0.0
 40
0.0
 40
0.0
 40
0.0
 40
0.0
 40
1.0
 40
1.0
 40
1.0
 40
1.0
 10
0.8055173159
 20
-40.6191720933
 30
0.0
 10
0.8924137354
 20
-40.9005513982
 30
0.0
 10
1.1055173874
 20
-41.043310006
 30
0.0
 10
1.4427586794
 20
-41.043310006
 30
0.0
 11
0.8055173159
 21
-40.6191720933
 31
0.0
 11
1.4427586794
 21
-41.043310006
 31
0.0
  0
SPLINE
  5
3A6
100
AcDbEntity
  8
0
100
AcDbSpline
 62
7
  6
CONTINUOUS
 70
0
 71
3
 72
8
 73
4
 74
2
 42
0.0000001
 43
0.0000001
 44
0.0000000001
 12
-1.3220320416
 22
-0.0115967811
 32
0.0
 13
-0.5213790536
 23
1.2165516727
 33
0.0
 40
0.0
 40
0.0
 40
0.0
 40
0.0
 40
1.0
 40
1.0
 40
1.0
 40
1.0
 10
1.4137808705
 20
-41.3166858007
 30
0.0
 10
0.9731035233
 20
-41.3205513944
 30
0.0
 10
0.6648275852
 20
-41.1219307043
 30
0.0
 10
0.4910345674
 20
-40.7164134801
 30
0.0
 11
1.4137808705
 21
-41.3166858007
 31
0.0
 11
0.4910345674
 21
-40.7164134801
 31
0.0
  0
SPLINE
  5
3A7
100
AcDbEntity
  8
0
100
AcDbSpline
 62
7
  6
CONTINUOUS
 70
0
 71
3
 72
8
 73
4
 74
2
 42
0.0000001
 43
0.0000001
 44
0.0000000001
 12
-0.5347683119
 22
-0.4446040863
 32
0.0
 13
-0.8007261085
 23
-0.0070239186
 33
0.0
 40
0.0
 40
0.0
 40
0.0
 40
0.0
 40
1.0
 40
1.0
 40
1.0
 40
1.0
 10
2.0803251958
 20
-41.0916603757
 30
0.0
 10
1.9020690918
 20
-41.2398617378
 30
0.0
 10
1.6806895733
 20
-41.3143444945
 30
0.0
 10
1.4137808705
 20
-41.3166858007
 30
0.0
 11
2.0803251958
 21
-41.0916603757
 31
0.0
 11
1.4137808705
 21
-41.3166858007
 31
0.0
  0
SPLINE
  5
3A8
100
AcDbEntity
  8
0
100
AcDbSpline
 62
7
  6
CONTINUOUS
 70
0
 71
3
 72
8
 73
4
 74
2
 42
0.0000001
 43
0.0000001
 44
0.0000000001
 12
-0.0036478234
 22
-0.8317392062
 32
0.0
 13
-0.5328173948
 23
-0.4429821022
 33
0.0
 40
0.0
 40
0.0
 40
0.0
 40
0.0
 40
1.0
 40
1.0
 40
1.0
 40
1.0
 10
2.3501814668
 20
-40.4536497997
 30
0.0
 10
2.3489655256
 20
-40.7308962018
 30
0.0
 10
2.257930994
 20
-40.943999675
 30
0.0
 10
2.0803251958
 20
-41.0916603757
 30
0.0
 11
2.3501814668
 21
-40.4536497997
 31
0.0
 11
2.0803251958
 21
-41.0916603757
 31
0.0
  0
SPLINE
  5
3A9
100
AcDbEntity
  8
0
100
AcDbSpline
 62
7
  6
CONTINUOUS
 70
0
 71
3
 72
8
 73
4
 74
2
 42
0.0000001
 43
0.0000001
 44
0.0000000001
 12
0.3148348485
 22
-0.4187300764
 32
0.0
 13
-0.0025588083
 23
-0.5834331621
 33
0.0
 40
0.0
 40
0.0
 40
0.0
 40
0.0
 40
1.0
 40
1.0
 40
1.0
 40
1.0
 10
2.1943653771
 20
-39.9540781461
 30
0.0
 10
2.2993103266
 20
-40.0936548383
 30
0.0
 10
2.3510344028
 20
-40.259172079
 30
0.0
 10
2.3501814668
 20
-40.4536497997
 30
0.0
 11
2.1943653771
 21
-39.9540781461
 31
0.0
 11
2.3501814668
 21
-40.4536497997
 31
0.0
  0
SPLINE
  5
3AA
100
AcDbEntity
  8
0
100
AcDbSpline
 62
7
  6
CONTINUOUS
 70
0
 71
3
 72
8
 73
4
 74
2
 42
0.0000001
 43
0.0000001
 44
0.0000000001
 12
0.5648281574
 22
-0.1489655972
 32
0.0
 13
0.3058551396
 23
-0.4067870714
 33
0.0
 40
0.0
 40
0.0
 40
0.0
 40
0.0
 40
1.0
 40
1.0
 40
1.0
 40
1.0
 10
1.7634482384
 20
-39.6819307477
 30
0.0
 10
1.9517242908
 20
-39.7315859467
 30
0.0
 10
2.0924136639
 20
-39.8184824557
 30
0.0
 10
2.1943653771
 20
-39.9540781461
 30
0.0
 11
1.7634482384
 21
-39.6819307477
 31
0.0
 11
2.1943653771
 21
-39.9540781461
 31
0.0
  0
SPLINE
  5
3AB
100
AcDbEntity
  8
0
100
AcDbSpline
 62
7
  6
CONTINUOUS
 70
0
 71
3
 72
8
 73
4
 74
2
 42
0.0000001
 43
0.0000001
 44
0.0000000001
 12
-0.2885361409
 22
-0.3700796587
 32
0.0
 13
-0.4344824553
 23
-0.1427589655
 33
0.0
 40
0.0
 40
0.0
 40
0.0
 40
0.0
 40
1.0
 40
1.0
 40
1.0
 40
1.0
 10
2.1244546803
 20
-39.4240881201
 30
0.0
 10
2.0282759666
 20
-39.5474480063
 30
0.0
 10
1.9082757235
 20
-39.6343444259
 30
0.0
 10
1.7634482384
 20
-39.6819307477
 30
0.0
 11
2.1244546803
 21
-39.4240881201
 31
0.0
 11
1.7634482384
 21
-39.6819307477
 31
0.0
  0
SPLINE
  5
3AC
100
AcDbEntity
  8
0
100
AcDbSpline
 62
7
  6
CONTINUOUS
 70
0
 71
3
 72
8
 73
4
 74
2
 42
0.0000001
 43
0.0000001
 44
0.0000000001
 12
0.0
 22
-0.4965902558
 32
0.0
 13
-0.2824975753
 23
-0.3623345273
 33
0.0
 40
0.0
 40
0.0
 40
0.0
 40
0.0
 40
1.0
 40
1.0
 40
1.0
 40
1.0
 10
2.2682757378
 20
-38.9950212512
 30
0.0
 10
2.2682757378
 20
-39.1605513365
 30
0.0
 10
2.2186205387
 20
-39.3033099443
 30
0.0
 10
2.1244546803
 20
-39.4240881201
 30
0.0
 11
2.2682757378
 21
-38.9950212512
 31
0.0
 11
2.1244546803
 21
-39.4240881201
 31
0.0
  0
SPLINE
  5
3AD
100
AcDbEntity
  8
0
100
AcDbSpline
 62
7
  6
CONTINUOUS
 70
0
 71
3
 72
8
 73
4
 74
2
 42
0.0000001
 43
0.0000001
 44
0.0000000001
 12
0.4884765399
 22
-0.4044713081
 32
0.0
 13
0.0
 23
-0.7509958157
 33
0.0
 40
0.0
 40
0.0
 40
0.0
 40
0.0
 40
1.0
 40
1.0
 40
1.0
 40
1.0
 10
2.0226915594
 20
-38.4174517364
 30
0.0
 10
2.1855170727
 20
-38.5522755057
 30
0.0
 10
2.2682757378
 20
-38.7446893126
 30
0.0
 10
2.2682757378
 20
-38.9950212512
 30
0.0
 11
2.0226915594
 21
-38.4174517364
 31
0.0
 11
2.2682757378
 21
-38.9950212512
 31
0.0
  0
SPLINE
  5
3AE
100
AcDbEntity
  8
0
100
AcDbSpline
 62
7
  6
CONTINUOUS
 70
0
 71
3
 72
8
 73
4
 74
2
 42
0.0000001
 43
0.0000001
 44
0.0000000001
 12
0.7137937546
 22
0.0
 32
0.0
 13
0.4860054003
 23
-0.4024251401
 33
0.0
 40
0.0
 40
0.0
 40
0.0
 40
0.0
 40
1.0
 40
1.0
 40
1.0
 40
1.0
 10
1.4220688343
 20
-38.217103091
 30
0.0
 10
1.6600000858
 20
-38.217103091
 30
0.0
 10
1.8606897593
 20
-38.283310023
 30
0.0
 10
2.0226915594
 20
-38.4174517364
 30
0.0
 11
1.4220688343
 21
-38.217103091
 31
0.0
 11
2.0226915594
 21
-38.4174517364
 31
0.0
  0
SPLINE
  5
3AF
100
AcDbEntity
  8
0
100
AcDbSpline
 62
7
  6
CONTINUOUS
 70
0
 71
3
 72
8
 73
4
 74
2
 42
0.0000001
 43
0.0000001
 44
0.0000000001
 12
0.5400000215
 22
0.9434482455
 32
0.0
 13
1.0862066746
 23
0.0
 33
0.0
 40
0.0
 40
0.0
 40
0.0
 40
0.0
 40
1.0
 40
1.0
 40
1.0
 40
1.0
 10
0.6089655757
 20
-38.6908961803
 30
0.0
 10
0.7889655828
 20
-38.3764134318
 30
0.0
 10
1.0599999428
 20
-38.217103091
 30
0.0
 10
1.4220688343
 20
-38.217103091
 30
0.0
 11
0.6089655757
 21
-38.6908961803
 31
0.0
 11
1.4220688343
 21
-38.217103091
 31
0.0
  0
SPLINE
  5
3B0
100
AcDbEntity
  8
0
100
AcDbSpline
 62
7
  6
CONTINUOUS
 70
0
 71
3
 72
8
 73
4
 74
2
 42
0.0000001
 43
0.0000001
 44
0.0000000001
 12
-0.7511328584
 22
0.0025549863
 32
0.0
 13
-0.3724139929
 23
-0.6517242193
 33
0.0
 40
0.0
 40
0.0
 40
0.0
 40
0.0
 40
1.0
 40
1.0
 40
1.0
 40
1.0
 10
1.4324466827
 20
-38.4993340355
 30
0.0
 10
1.1820690632
 20
-38.4984823734
 30
0.0
 10
0.9958620667
 20
-38.6081375153
 30
0.0
 10
0.8717240691
 20
-38.8253789217
 30
0.0
 11
1.4324466827
 21
-38.4993340355
 31
0.0
 11
0.8717240691
 21
-38.8253789217
 31
0.0
  0
SPLINE
  5
3B1
100
AcDbEntity
  8
0
100
AcDbSpline
 62
7
  6
CONTINUOUS
 70
0
 71
3
 72
8
 73
4
 74
2
 42
0.0000001
 43
0.0000001
 44
0.0000000001
 12
-0.0038884727
 22
0.999380156
 32
0.0
 13
-1.0736940973
 23
0.0036521818
 33
0.0
 40
0.0
 40
0.0
 40
0.0
 40
0.0
 40
1.0
 40
1.0
 40
1.0
 40
1.0
 10
1.9737099359
 20
-39.0033332327
 30
0.0
 10
1.9724137783
 20
-38.6702065141
 30
0.0
 10
1.7903447151
 20
-38.5005514295
 30
0.0
 10
1.4324466827
 20
-38.4993340355
 30
0.0
 11
1.9737099359
 21
-39.0033332327
 31
0.0
 11
1.4324466827
 21
-38.4993340355
 31
0.0
  0
SPLINE
  5
3B2
100
AcDbEntity
  8
0
100
AcDbSpline
 62
7
  6
CONTINUOUS
 70
0
 71
3
 72
8
 73
4
 74
2
 42
0.0000001
 43
0.0000001
 44
0.0000000001
 12
0.3709559885
 22
0.2627603583
 32
0.0
 13
-0.002318159
 23
0.5957923089
 33
0.0
 40
0.0
 40
0.0
 40
0.0
 40
0.0
 40
1.0
 40
1.0
 40
1.0
 40
1.0
 10
1.7887618393
 20
-39.4302071858
 30
0.0
 10
1.9124138355
 20
-39.3426203997
 30
0.0
 10
1.9744826555
 20
-39.201930669
 30
0.0
 10
1.9737099359
 20
-39.0033332327
 30
0.0
 11
1.7887618393
 21
-39.4302071858
 31
0.0
 11
1.9737099359
 21
-39.0033332327
 31
0.0
  0
SPLINE
  5
3B3
100
AcDbEntity
  8
0
100
AcDbSpline
 62
7
  6
CONTINUOUS
 70
0
 71
3
 72
8
 73
4
 74
2
 42
0.0000001
 43
0.0000001
 44
0.0000000001
 12
0.5400005579
 22
-0.0062066317
 32
0.0
 13
0.3738719972
 23
0.2648258634
 33
0.0
 40
0.0
 40
0.0
 40
0.0
 40
0.0
 40
1.0
 40
1.0
 40
1.0
 40
1.0
 10
1.3289654255
 20
-39.5598618061
 30
0.0
 10
1.5089656115
 20
-39.5619306833
 30
0.0
 10
1.6641378403
 20
-39.5184824736
 30
0.0
 10
1.7887618393
 20
-39.4302071858
 30
0.0
 11
1.3289654255
 21
-39.5598618061
 31
0.0
 11
1.7887618393
 21
-39.4302071858
 31
0.0
  0
SPLINE
  5
3B4
100
AcDbEntity
  8
0
100
AcDbSpline
 62
7
  6
CONTINUOUS
 70
0
 71
3
 72
17
 73
13
 74
11
 42
0.0000001
 43
0.0000001
 44
0.0000000001
 12
0.4707703667
 22
0.4336523745
 32
0.0
 13
0.0
 23
0.6400618096
 33
0.0
 40
0.0
 40
0.0
 40
0.0
 40
0.0
 40
0.0778694419
 40
0.1572376304
 40
0.2394670139
 40
0.3261622383
 40
0.4184253671
 40
0.517872266
 40
0.6251551075
 40
0.7405004217
 40
0.8652934327
 40
1.0
 40
1.0
 40
1.0
 40
1.0
 10
26.55
 20
-29.9387087419
 30
0.0
 10
26.5622195419
 20
-29.9274526524
 30
0.0
 10
26.5856241239
 20
-29.9033071021
 30
0.0
 10
26.6171460047
 20
-29.8629925757
 30
0.0
 10
26.645548669
 20
-29.8181803962
 30
0.0
 10
26.6709773955
 20
-29.7685141027
 30
0.0
 10
26.6934686142
 20
-29.7134656426
 30
0.0
 10
26.71283091
 20
-29.6526171014
 30
0.0
 10
26.7287157495
 20
-29.585700143
 30
0.0
 10
26.7407103559
 20
-29.5124937856
 30
0.0
 10
26.7483160888
 20
-29.4328260661
 30
0.0
 10
26.75
 20
-29.3774418822
 30
0.0
 10
26.75
 20
-29.3487017058
 30
0.0
 11
26.55
 21
-29.9387087419
 31
0.0
 11
26.5847371661
 21
-29.9029668885
 31
0.0
 11
26.6160972697
 21
-29.8630014108
 31
0.0
 11
26.6443559897
 21
-29.8185991543
 31
0.0
 11
26.6697393028
 21
-29.769254843
 31
0.0
 11
26.6921765985
 21
-29.7146292529
 31
0.0
 11
26.7115849289
 21
-29.6540081802
 31
0.0
 11
26.7275531902
 21
-29.5872229967
 31
0.0
 11
26.7395955428
 21
-29.5143836213
 31
0.0
 11
26.7472866861
 21
-29.4348795312
 31
0.0
 11
26.75
 21
-29.3487017058
 31
0.0
  0
SPLINE
  5
3B5
100
AcDbEntity
  8
0
100
AcDbSpline
 62
7
  6
CONTINUOUS
 70
0
 71
3
 72
14
 73
10
 74
8
 42
0.0000001
 43
0.0000001
 44
0.0000000001
 12
0.0
 22
-0.8147180591
 32
0.0
 13
0.3299908577
 23
-0.7448970061
 33
0.0
 40
0.0
 40
0.0
 40
0.0
 40
0.0
 40
0.106378714
 40
0.2229890352
 40
0.3506774718
 40
0.4910440135
 40
0.645020378
 40
0.8142108618
 40
1.0
 40
1.0
 40
1.0
 40
1.0
 10
26.25
 20
-29.0855116389
 30
0.0
 10
26.25
 20
-29.114401192
 30
0.0
 10
26.2522320442
 20
-29.1749763049
 30
0.0
 10
26.2623363409
 20
-29.2697442115
 30
0.0
 10
26.2803899205
 20
-29.3727150385
 30
0.0
 10
26.3074169111
 20
-29.484171159
 30
0.0
 10
26.3443907435
 20
-29.6045744381
 30
0.0
 10
26.3920924503
 20
-29.7343622262
 30
0.0
 10
26.429563761
 20
-29.8232206341
 30
0.0
 10
26.45
 20
-29.8693518917
 30
0.0
 11
26.25
 21
-29.0855116389
 31
0.0
 11
26.2530839095
 21
-29.1721254138
 31
0.0
 11
26.2630256973
 21
-29.2666083353
 31
0.0
 11
26.2808354244
 21
-29.3691025799
 31
0.0
 11
26.3075979338
 21
-29.4802861432
 31
0.0
 11
26.3442013014
 21
-29.6002745793
 31
0.0
 11
26.3914910713
 21
-29.7297513888
 31
0.0
 11
26.45
 21
-29.8693518917
 31
0.0
  0
SPLINE
  5
3B6
100
AcDbEntity
  8
0
100
AcDbSpline
 62
7
  6
CONTINUOUS
 70
0
 71
3
 72
14
 73
10
 74
8
 42
0.0000001
 43
0.0000001
 44
0.0000000001
 12
-0.3299909042
 22
-0.7448971113
 32
0.0
 13
-0.0
 23
-0.8147181741
 33
0.0
 40
0.0
 40
0.0
 40
0.0
 40
0.0
 40
0.1869212002
 40
0.3567127798
 40
0.5108522072
 40
0.6510251115
 40
0.7782622516
 40
0.8942630257
 40
1.0
 40
1.0
 40
1.0
 40
1.0
 10
26.45
 20
-34.2641646883
 30
0.0
 10
26.4294392347
 20
-34.3105770423
 30
0.0
 10
26.391794468
 20
-34.399873846
 30
0.0
 10
26.3439691952
 20
-34.5301658126
 30
0.0
 10
26.3070305817
 20
-34.6507425788
 30
0.0
 10
26.2801236631
 20
-34.7620931806
 30
0.0
 10
26.2622079422
 20
-34.8647417305
 30
0.0
 10
26.2522061286
 20
-34.9590546374
 30
0.0
 10
26.25
 20
-35.0192896629
 30
0.0
 10
26.25
 20
-35.0480049411
 30
0.0
 11
26.45
 21
-34.2641646883
 31
0.0
 11
26.3911536803
 21
-34.4046238486
 31
0.0
 11
26.3437522674
 21
-34.5345812545
 31
0.0
 11
26.30719144
 21
-34.6547215506
 31
0.0
 11
26.2805545476
 21
-34.7657730639
 31
0.0
 11
26.2628853687
 21
-34.8679185261
 31
0.0
 11
26.2530474588
 21
-34.9619130262
 31
0.0
 11
26.25
 21
-35.0480049411
 31
0.0
  0
SPLINE
  5
3B7
100
AcDbEntity
  8
RACCORDO
100
AcDbSpline
 62
253
  6
CONTINUOUS
 70
0
 71
3
 72
34
 73
30
 74
28
 42
0.0000001
 43
0.0000001
 44
0.0000000001
 12
11.9033706517
 22
-0.0000002649
 32
0.0
 13
11.6688405144
 23
0.7503272221
 33
0.0
 40
0.0
 40
0.0
 40
0.0
 40
0.0
 40
0.0543832252
 40
0.1087487114
 40
0.1628761474
 40
0.2165465489
 40
0.2695502171
 40
0.321736456
 40
0.3729855478
 40
0.4231541881
 40
0.47208153
 40
0.519618851
 40
0.5656310924
 40
0.6099858776
 40
0.6525518023
 40
0.693203033
 40
0.7318205853
 40
0.7682915176
 40
0.8025088176
 40
0.8343719936
 40
0.8637876344
 40
0.890669484
 40
0.9149387979
 40
0.9365244418
 40
0.9553633
 40
0.9714003541
 40
0.9845890591
 40
0.9948915948
 40
1.0
 40
1.0
 40
1.0
 40
1.0
 10
-0.0
 20
36.1190363919
 30
0.0
 10
0.2157812291
 20
36.1190363871
 30
0.0
 10
0.6472733094
 20
36.1191378874
 30
0.0
 10
1.2935315549
 20
36.119595194
 30
0.0
 10
1.9369611773
 20
36.1203577623
 30
0.0
 10
2.5749869539
 20
36.121423407
 30
0.0
 10
3.2053098809
 20
36.1227883022
 30
0.0
 10
3.8260248191
 20
36.1244479386
 30
0.0
 10
4.4354900628
 20
36.1263976911
 30
0.0
 10
5.0320236228
 20
36.128632204
 30
0.0
 10
5.6138284171
 20
36.1311447766
 30
0.0
 10
6.1791400707
 20
36.1339276811
 30
0.0
 10
6.7263071598
 20
36.1369726175
 30
0.0
 10
7.253746957
 20
36.1402706196
 30
0.0
 10
7.7599133193
 20
36.1438118461
 30
0.0
 10
8.2433132056
 20
36.1475856118
 30
0.0
 10
8.702526818
 20
36.1515805202
 30
0.0
 10
9.1362089076
 20
36.1557844406
 30
0.0
 10
9.5430878169
 20
36.1601845746
 30
0.0
 10
9.921968348
 20
36.1647670595
 30
0.0
 10
10.2717407019
 20
36.1695181774
 30
0.0
 10
10.5913707911
 20
36.1744201399
 30
0.0
 10
10.8799464116
 20
36.1794642708
 30
0.0
 10
11.1365396022
 20
36.1846078169
 30
0.0
 10
11.3606486344
 20
36.1899066463
 30
0.0
 10
11.5508675188
 20
36.1951086423
 30
0.0
 10
11.7087804662
 20
36.2008311448
 30
0.0
 10
11.8193720892
 20
36.2049493631
 30
0.0
 10
11.8843647454
 20
36.2096672995
 30
0.0
 10
11.9042344671
 20
36.210944958
 30
0.0
 11
-0.0
 21
36.1190363919
 31
0.0
 11
0.6473436693
 21
36.1191888788
 31
0.0
 11
1.2944760397
 21
36.1196474806
 31
0.0
 11
1.9387745182
 21
36.1204122195
 31
0.0
 11
2.5776323067
 21
36.1214808785
 31
0.0
 11
3.2085531317
 21
36.1228491962
 31
0.0
 11
3.829743048
 21
36.1245127654
 31
0.0
 11
4.4397768513
 21
36.1264675823
 31
0.0
 11
5.0369485681
 21
36.1287083714
 31
0.0
 11
5.6193434029
 21
36.1312280852
 31
0.0
 11
6.1851908722
 21
36.134019013
 31
0.0
 11
6.7328831201
 21
36.1370731601
 31
0.0
 11
7.2608442013
 21
36.1403817508
 31
0.0
 11
7.7675097209
 21
36.1439350121
 31
0.0
 11
8.2513815654
 21
36.147722441
 31
0.0
 11
8.711043109
 21
36.1517329419
 31
0.0
 11
9.1451496047
 21
36.1559547835
 31
0.0
 11
9.5524268176
 21
36.1603755809
 31
0.0
 11
9.9316780336
 21
36.1649823489
 31
0.0
 11
10.281790691
 21
36.1697615761
 31
0.0
 11
10.6017372116
 21
36.1746992388
 31
0.0
 11
10.8905791534
 21
36.1797808587
 31
0.0
 11
11.1474682335
 21
36.1849915165
 31
0.0
 11
11.3716509253
 21
36.1903159322
 31
0.0
 11
11.5624688929
 21
36.1957384744
 31
0.0
 11
11.719362396
 21
36.2012432412
 31
0.0
 11
11.841870702
 21
36.2068140723
 31
0.0
 11
11.9042344671
 21
36.210944958
 31
0.0
  0
LINE
  5
3B8
100
AcDbEntity
  8
RACCORDO
100
AcDbLine
 62
253
  6
CONTINUOUS
 10
11.9042344671
 20
36.210944958
 11
11.9089197315
 21
36.2112426668
  0
SPLINE
  5
3B9
100
AcDbEntity
  8
RACCORDO
100
AcDbSpline
 62
253
  6
CONTINUOUS
 70
0
 71
3
 72
16
 73
12
 74
10
 42
0.0000001
 43
0.0000001
 44
0.0000000001
 12
0.5754737499
 22
0.0360971621
 32
0.0
 13
-0.5953519528
 23
0.017498175
 33
0.0
 40
0.0
 40
0.0
 40
0.0
 40
0.0
 40
0.0374930158
 40
0.1266144495
 40
0.1576771958
 40
0.1887404848
 40
0.2778624844
 40
0.4255664344
 40
0.6315355466
 40
0.8952050188
 40
1.0
 40
1.0
 40
1.0
 40
1.0
 10
11.9089197315
 20
36.2112426668
 30
0.0
 10
11.9161118137
 20
36.2116937973
 30
0.0
 10
11.9395559944
 20
36.2130667893
 30
0.0
 10
11.9636108205
 20
36.2137496841
 30
0.0
 10
12.00940524
 20
36.2237588974
 30
0.0
 10
11.9636102706
 20
36.2337678681
 30
0.0
 10
11.9227420124
 20
36.2349282588
 30
0.0
 10
11.828186413
 20
36.2422399976
 30
0.0
 10
11.7087791339
 20
36.2466865315
 30
0.0
 10
11.593992124
 20
36.2508461988
 30
0.0
 10
11.5207975236
 20
36.2530896788
 30
0.0
 10
11.5000008914
 20
36.2537009191
 30
0.0
 11
11.9089197315
 21
36.2112426668
 31
0.0
 11
11.9296343856
 21
36.2124346278
 31
0.0
 11
11.9823957599
 21
36.2180884103
 31
0.0
 11
12.0
 21
36.2237588327
 31
0.0
 11
11.9823954204
 21
36.2294292551
 31
0.0
 11
11.9296337073
 21
36.2350830373
 31
0.0
 11
11.8418696864
 21
36.2407035925
 31
0.0
 11
11.7193610458
 21
36.2462744231
 31
0.0
 11
11.5624672117
 21
36.2517791892
 31
0.0
 11
11.5000008914
 21
36.2537009191
 31
0.0
  0
SPLINE
  5
3BA
100
AcDbEntity
  8
RACCORDO
100
AcDbSpline
 62
253
  6
CONTINUOUS
 70
0
 71
3
 72
16
 73
12
 74
10
 42
0.0000001
 43
0.0000001
 44
0.0000000001
 12
-0.5959631435
 22
-0.0175161324
 32
0.0
 13
0.5771519452
 23
-0.0363278964
 33
0.0
 40
0.0
 40
0.0
 40
0.0
 40
0.0
 40
0.104690326
 40
0.3680888197
 40
0.573846126
 40
0.7213980239
 40
0.8104280533
 40
0.8414589412
 40
0.8724903712
 40
0.9615209659
 40
1.0
 40
1.0
 40
1.0
 40
1.0
 10
-11.5000008915
 20
36.253700921
 30
0.0
 10
-11.5207980834
 20
36.2530896644
 30
0.0
 10
-11.5939931296
 20
36.250846168
 30
0.0
 10
-11.7087804662
 20
36.2466864659
 30
0.0
 10
-11.8281874727
 20
36.2422399798
 30
0.0
 10
-11.9227425849
 20
36.2349281389
 30
0.0
 10
-11.9636108205
 20
36.2337679267
 30
0.0
 10
-12.00940524
 20
36.2237587133
 30
0.0
 10
-11.9636102706
 20
36.2137497426
 30
0.0
 10
-11.9393989621
 20
36.2130623001
 30
0.0
 10
-11.9157311139
 20
36.2116714309
 30
0.0
 10
-11.9083283641
 20
36.2112054768
 30
0.0
 11
-11.5000008915
 21
36.253700921
 31
0.0
 11
-11.5624688929
 21
36.2517791364
 31
0.0
 11
-11.719362396
 21
36.2462743695
 31
0.0
 11
-11.841870702
 21
36.2407035384
 31
0.0
 11
-11.9296343856
 21
36.2350829829
 31
0.0
 11
-11.9823957599
 21
36.2294292005
 31
0.0
 11
-12.0
 21
36.223758778
 31
0.0
 11
-11.9823954204
 21
36.2180883556
 31
0.0
 11
-11.9296337073
 21
36.2124345734
 31
0.0
 11
-11.9083283641
 21
36.2112054768
 31
0.0
  0
LINE
  5
3BB
100
AcDbEntity
  8
RACCORDO
100
AcDbLine
 62
253
  6
CONTINUOUS
 10
-11.9083283641
 20
36.2112054768
 11
-11.9042336779
 21
36.2109448764
  0
SPLINE
  5
3BC
100
AcDbEntity
  8
RACCORDO
100
AcDbSpline
 62
253
  6
CONTINUOUS
 70
0
 71
3
 72
34
 73
30
 74
28
 42
0.0000001
 43
0.0000001
 44
0.0000000001
 12
11.6688376643
 22
-0.7503275042
 32
0.0
 13
11.9033698234
 23
0.000000249
 33
0.0
 40
0.0
 40
0.0
 40
0.0
 40
0.0
 40
0.0051084214
 40
0.015410986
 40
0.0285997196
 40
0.0446368023
 40
0.0634756887
 40
0.0850613605
 40
0.1093307019
 40
0.1362125784
 40
0.1656282456
 40
0.1974914474
 40
0.2317087723
 40
0.2681797284
 40
0.306797304
 40
0.3474485578
 40
0.3900145037
 40
0.4343693067
 40
0.4803815659
 40
0.527918911
 40
0.5768462753
 40
0.6270149168
 40
0.678264
 40
0.7304502713
 40
0.7834540138
 40
0.8371244392
 40
0.891251774
 40
0.945617029
 40
1.0
 40
1.0
 40
1.0
 40
1.0
 10
-11.9042336779
 20
36.2109448764
 30
0.0
 10
-11.884363898
 20
36.2096672134
 30
0.0
 10
-11.8193709854
 20
36.2049493409
 30
0.0
 10
-11.7087791339
 20
36.2008310793
 30
0.0
 10
-11.5508658331
 20
36.1951085955
 30
0.0
 10
-11.3606466305
 20
36.1899065933
 30
0.0
 10
-11.136537275
 20
36.184607767
 30
0.0
 10
-10.8799437712
 20
36.1794642212
 30
0.0
 10
-10.5913678437
 20
36.1744200918
 30
0.0
 10
-10.2717374562
 20
36.1695181306
 30
0.0
 10
-9.9219648127
 20
36.1647670142
 30
0.0
 10
-9.5430840024
 20
36.160184531
 30
0.0
 10
-9.1362048257
 20
36.1557843988
 30
0.0
 10
-8.7025224803
 20
36.1515804804
 30
0.0
 10
-8.2433086213
 20
36.147585574
 30
0.0
 10
-7.7599085007
 20
36.1438118105
 30
0.0
 10
-7.2537419275
 20
36.1402705863
 30
0.0
 10
-6.7263019413
 20
36.1369725867
 30
0.0
 10
-6.1791346536
 20
36.1339276527
 30
0.0
 10
-5.6138227841
 20
36.1311447505
 30
0.0
 10
-5.0320178412
 20
36.1286321807
 30
0.0
 10
-4.4354842632
 20
36.126397671
 30
0.0
 10
-3.8260189626
 20
36.1244479214
 30
0.0
 10
-3.2053036782
 20
36.1227882871
 30
0.0
 10
-2.574980277
 20
36.1214233942
 30
0.0
 10
-1.9369545564
 20
36.120357753
 30
0.0
 10
-1.2935262028
 20
36.1195951892
 30
0.0
 10
-0.6472703296
 20
36.1191378864
 30
0.0
 10
-0.2157802054
 20
36.1190363874
 30
0.0
 10
0.0
 20
36.1190363919
 30
0.0
 11
-11.9042336779
 21
36.2109448764
 31
0.0
 11
-11.8418696864
 21
36.2068140182
 31
0.0
 11
-11.7193610458
 21
36.2012431877
 31
0.0
 11
-11.5624672117
 21
36.1957384215
 31
0.0
 11
-11.3716489176
 21
36.1903158802
 31
0.0
 11
-11.1474659048
 21
36.1849914655
 31
0.0
 11
-10.8905765103
 21
36.1797808089
 31
0.0
 11
-10.6017342615
 21
36.1746991902
 31
0.0
 11
-10.2817874424
 21
36.169761529
 31
0.0
 11
-9.9316744951
 21
36.1649823034
 31
0.0
 11
-9.5524229991
 21
36.1603755371
 31
0.0
 11
-9.1451455182
 21
36.1559547416
 31
0.0
 11
-8.7110387683
 21
36.1517329019
 31
0.0
 11
-8.2513769794
 21
36.1477224031
 31
0.0
 11
-7.7675048949
 21
36.1439349763
 31
0.0
 11
-7.2608391575
 21
36.1403817174
 31
0.0
 11
-6.7328779013
 21
36.1370731293
 31
0.0
 11
-6.1851854792
 21
36.1340189847
 31
0.0
 11
-5.6193377631
 21
36.1312280591
 31
0.0
 11
-5.036942702
 21
36.1287083477
 31
0.0
 11
-4.4397710125
 21
36.126467562
 31
0.0
 11
-3.8297373539
 21
36.1245127487
 31
0.0
 11
-3.208547095
 21
36.1228491816
 31
0.0
 11
-2.5776254291
 21
36.1214808653
 31
0.0
 11
-1.9387674015
 21
36.1204122093
 31
0.0
 11
-1.2944701712
 21
36.119647475
 31
0.0
 11
-0.6473405983
 21
36.1191888774
 31
0.0
 11
0.0
 21
36.1190363919
 31
0.0
  0
SPLINE
  5
3BD
100
AcDbEntity
  8
0
100
AcDbSpline
 62
7
  6
CONTINUOUS
 70
0
 71
3
 72
17
 73
13
 74
11
 42
0.0000001
 43
0.0000001
 44
0.0000000001
 12
0.0
 22
0.6400618096
 32
0.0
 13
-0.4707703667
 23
0.4336523745
 33
0.0
 40
0.0
 40
0.0
 40
0.0
 40
0.0
 40
0.1347065673
 40
0.2594995783
 40
0.3748448925
 40
0.482127734
 40
0.5815746329
 40
0.6738377617
 40
0.7605329861
 40
0.8427623696
 40
0.9221305581
 40
1.0
 40
1.0
 40
1.0
 40
1.0
 10
26.75
 20
-34.7848148742
 30
0.0
 10
26.75
 20
-34.7560746978
 30
0.0
 10
26.7483160888
 20
-34.7006905139
 30
0.0
 10
26.7407103559
 20
-34.6210227944
 30
0.0
 10
26.7287157495
 20
-34.547816437
 30
0.0
 10
26.71283091
 20
-34.4808994786
 30
0.0
 10
26.6934686142
 20
-34.4200509374
 30
0.0
 10
26.6709773955
 20
-34.3650024773
 30
0.0
 10
26.645548669
 20
-34.3153361838
 30
0.0
 10
26.6171460047
 20
-34.2705240044
 30
0.0
 10
26.5856241239
 20
-34.2302094779
 30
0.0
 10
26.5622195419
 20
-34.2060639276
 30
0.0
 10
26.55
 20
-34.1948078381
 30
0.0
 11
26.75
 21
-34.7848148742
 31
0.0
 11
26.7472866861
 21
-34.6986370488
 31
0.0
 11
26.7395955428
 21
-34.6191329587
 31
0.0
 11
26.7275531902
 21
-34.5462935833
 31
0.0
 11
26.7115849289
 21
-34.4795083998
 31
0.0
 11
26.6921765985
 21
-34.4188873271
 31
0.0
 11
26.6697393028
 21
-34.364261737
 31
0.0
 11
26.6443559897
 21
-34.3149174257
 31
0.0
 11
26.6160972697
 21
-34.2705151692
 31
0.0
 11
26.5847371661
 21
-34.2305496915
 31
0.0
 11
26.55
 21
-34.1948078381
 31
0.0
  0
ELLIPSE
  5
3BE
100
AcDbEntity
  8
RACCORDO
100
AcDbEllipse
 62
7
  6
CONTINUOUS
 10
32.4999428824
 20
34.9331845924
 30
0.0
 11
-1.0607409467
 21
-1.0607409467
 31
0.0
 40
0.9999238505
 41
8.6394178736
 42
10.210138048
  0
ELLIPSE
  5
3BF
100
AcDbEntity
  8
RACCORDO
100
AcDbEllipse
 62
7
  6
CONTINUOUS
 10
-32.4999428824
 20
34.9331845924
 30
0.0
 11
-1.0607409467
 21
1.0607409467
 31
0.0
 40
0.9999238505
 41
5.49782522
 42
7.0685453944
  0
ELLIPSE
  5
3C0
100
AcDbEntity
  8
RACCORDO
100
AcDbEllipse
 62
7
  6
CONTINUOUS
 10
32.4999428824
 20
-45.0667011724
 30
0.0
 11
1.0607409467
 21
-1.0607409467
 31
0.0
 40
0.9999238505
 41
-0.7853600872
 42
0.7853600872
  0
ELLIPSE
  5
3C1
100
AcDbEntity
  8
RACCORDO
100
AcDbEllipse
 62
7
  6
CONTINUOUS
 10
32.4999428824
 20
34.9331845924
 30
0.0
 11
1.0607409467
 21
1.0607409467
 31
0.0
 40
0.9999238505
 41
0.7197177209
 42
0.7853600872
  0
ELLIPSE
  5
3C2
100
AcDbEntity
  8
RACCORDO
100
AcDbEllipse
 62
7
  6
CONTINUOUS
 10
32.4999428824
 20
34.9331845924
 30
0.0
 11
1.0607409467
 21
1.0607409467
 31
0.0
 40
0.9999238505
 41
-0.7853600872
 42
0.7197177208
  0
ELLIPSE
  5
3C3
100
AcDbEntity
  8
RACCORDO
100
AcDbEllipse
 62
7
  6
CONTINUOUS
 10
-32.4999428824
 20
34.9331845924
 30
0.0
 11
1.0607409467
 21
-1.0607409467
 31
0.0
 40
0.9999238505
 41
2.4218749329
 42
3.9269527408
  0
ELLIPSE
  5
3C4
100
AcDbEntity
  8
RACCORDO
100
AcDbEllipse
 62
7
  6
CONTINUOUS
 10
-32.4999428824
 20
34.9331845924
 30
0.0
 11
-1.0607409467
 21
1.0607409467
 31
0.0
 40
0.9999238505
 41
-0.7853600872
 42
-0.7197177207
  0
ELLIPSE
  5
3C5
100
AcDbEntity
  8
RACCORDO
100
AcDbEllipse
 62
7
  6
CONTINUOUS
 10
-32.4999428824
 20
-45.0667011724
 30
0.0
 11
1.0607409467
 21
1.0607409467
 31
0.0
 40
0.9999238505
 41
-3.9269527408
 42
-2.3562325664
  0
ELLIPSE
  5
3C6
100
AcDbEntity
  8
DRAFT
100
AcDbEllipse
 62
7
  6
CONTINUOUS
 10
0.0
 20
-46.357313463
 30
0.0
 11
11.5
 21
0.0
 31
0.0
 40
0.0087268678
 41
0.0
 42
6.2831853072
  0
ENDSEC
  0
SECTION
  2
OBJECTS
  0
DICTIONARY
  5
C
100
AcDbDictionary
280
0
281
1
  3
ACAD_GROUP
350
D
  3
ACAD_MLINESTYLE
350
17
  3
ACAD_LAYOUT
350
1A
  3
ACAD_PLOTSETTINGS
350
19
  3
ACAD_PLOTSTYLENAME
350
E
  0
DICTIONARY
  5
D
102
{ACAD_REACTORS
330
C
102
}
100
AcDbDictionary
280
0
281
1
  0
ACDBDICTIONARYWDFLT
  5
E
102
{ACAD_REACTORS
330
C
102
}
100
AcDbDictionary
281
1
  3
Normal
350
F
100
AcDbDictionaryWithDefault
340
F
  0
DICTIONARY
  5
17
102
{ACAD_REACTORS
330
C
102
}
100
AcDbDictionary
280
0
281
1
  3
Standard
350
18
  0
DICTIONARY
  5
19
102
{ACAD_REACTORS
330
C
102
}
100
AcDbDictionary
281
1
  0
DICTIONARY
  5
1A
102
{ACAD_REACTORS
330
C
102
}
100
AcDbDictionary
281
1
  3
Model
350
3C7
  3
Layout1
350
3C8
  0
ACDBPLACEHOLDER
  5
F
102
{ACAD_REACTORS
330
E
102
}
  0
MLINESTYLE
  5
18
102
{ACAD_REACTORS
330
17
102
}
100
AcDbMlineStyle
  2
STANDARD
 70
0
  3

 62
256
 51
90.0
 52
90.0
 71
2
 49
0.5
 62
256
  6
BYLAYER
 49
-0.5
 62
256
  6
BYLAYER
  0
LAYOUT
  5
3C7
102
{ACAD_REACTORS
330
1A
102
}
100
AcDbPlotSettings
  1

  2
none_device
  4
ISO_A4_(297.00_x_210.00_MM)
  6

 40
0.0
 41
0.0
 42
0.0
 43
0.0
 44
297.0
 45
210.0
 46
0.0
 47
0.0
 48
0.0
 49
0.0
140
0.0
141
0.0
142
1.0
143
1.0
 70
1024
 72
1
 73
0
 74
0
  7

 75
0
147
1.0
148
0.0
149
0.0
100
AcDbLayout
  1
Model
 70
0
 71
0
 10
0.0
 20
0.0
 11
297.0
 21
210.0
 12
0.0
 22
0.0
 32
0.0
 14
0.0
 24
0.0
 34
0.0
 15
0.0
 25
0.0
 35
0.0
146
0.0
 13
0.0
 23
0.0
 33
0.0
 16
1.0
 26
0.0
 36
0.0
 17
0.0
 27
1.0
 37
0.0
 76
0
330
218
345
0
346
0
  0
LAYOUT
  5
3C8
102
{ACAD_REACTORS
330
1A
102
}
100
AcDbPlotSettings
  1

  2
none_device
  4
ISO_A4_(297.00_x_210.00_MM)
  6

 40
0.0
 41
0.0
 42
0.0
 43
0.0
 44
297.0
 45
210.0
 46
0.0
 47
0.0
 48
0.0
 49
0.0
140
0.0
141
0.0
142
1.0
143
1.0
 70
0
 72
1
 73
0
 74
0
  7

 75
0
147
1.0
148
0.0
149
0.0
100
AcDbLayout
  1
Layout1
 70
0
 71
1
 10
0.0
 20
0.0
 11
297.0
 21
210.0
 12
0.0
 22
0.0
 32
0.0
 14
0.0
 24
0.0
 34
0.0
 15
0.0
 25
0.0
 35
0.0
146
0.0
 13
0.0
 23
0.0
 33
0.0
 16
1.0
 26
0.0
 36
0.0
 17
0.0
 27
1.0
 37
0.0
 76
0
330
219
345
0
346
0
  0
ENDSEC
  0
EOF
