  0
SECTION
  2
HEADER
  9
$ACADVER
  1
AC1015
  9
$DWGCODEPAGE
  3
ANSI_1252
  9
$EXTMAX
 10
297.0
 20
210.0
 30
0.0
  9
$EXTMIN
 10
0.0
 20
0.0
 30
0.0
  9
$LIMMIN
 10
0.0
 20
0.0
  9
$LIMMAX
 10
297.0
 20
210.0
  9
$VIEWCTR
 10
148.5
 20
105.0
  9
$VIEWSIZE
 40
210.0
  9
$CLAYER
  8
0
  9
$LTSCALE
 40
16.335
  9
$CELTYPE
  6
BYLAYER
  9
$DIMSCALE
 40
1.0
  9
$DIMASZ
 40
3.0
  9
$DIMEXO
 40
1.85625
  9
$DIMDLI
 40
11.286
  9
$DIMEXE
 40
5.346
  9
$DIMCEN
 40
2.673
  9
$DIMLFAC
 40
1.0
  9
$DIMBLK
  1
_FILLED
  9
$DIMTXT
 40
3.0
  9
$DIMTOL
 70
1
  9
$DIMLIM
 70
0
  9
$DIMTFAC
 40
1.0
  9
$DIMTP
 40
0.01
  9
$DIMTM
 40
0.01
  9
$PDMODE
 70
3
  9
$PDSIZE
 40
3.0
  9
$HANDSEED
  5
3A6
  9
$TILEMODE
 70
1
  9
$MEASUREMENT
 70
1
  9
$INSUNITS
 70
4
  0
ENDSEC
  0
SECTION
  2
CLASSES
  0
CLASS
  1
ACDBDICTIONARYWDFLT
  2
AcDbDictionaryWithDefault
  3
AutoCAD 2000
 90
0
280
0
281
0
  0
CLASS
  1
ACDBPLACEHOLDER
  2
AcDbPlaceHolder
  3
AutoCAD 2000
 90
0
280
0
281
0
  0
CLASS
  1
LAYOUT
  2
AcDbLayout
  3
AutoCAD 2000
 90
0
280
0
281
0
  0
ENDSEC
  0
SECTION
  2
TABLES
  0
TABLE
  2
VPORT
  5
8
100
AcDbSymbolTable
 70
2
  0
VPORT
  5
1F4
100
AcDbSymbolTableRecord
100
AcDbViewportTableRecord
  2
*ACTIVE
 70
0
 10
0.0
 20
0.0
 11
1.0
 21
1.0
 12
148.5
 22
105.0
 13
0.0
 23
0.0
 14
1.0
 24
1.0
 15
0.0
 25
0.0
 16
0.0
 26
0.0
 36
1.0
 17
0.0
 27
0.0
 37
0.0
 40
210.0
 41
1.4142857143
 42
50.0
 43
0.0
 44
0.0
 50
0.0
 51
0.0
 71
0
 72
100
 73
1
 74
1
 75
0
 76
0
 77
0
 78
0
  0
ENDTAB
  0
TABLE
  2
LTYPE
  5
5
100
AcDbSymbolTable
 70
6
  0
LTYPE
  5
14
100
AcDbSymbolTableRecord
100
AcDbLinetypeTableRecord
  2
BYBLOCK
 70
0
  3

 72
65
 73
0
 40
0.0
  0
LTYPE
  5
15
100
AcDbSymbolTableRecord
100
AcDbLinetypeTableRecord
  2
BYLAYER
 70
0
  3

 72
65
 73
0
 40
0.0
  0
LTYPE
  5
16
100
AcDbSymbolTableRecord
100
AcDbLinetypeTableRecord
  2
CONTINUOUS
 70
64
  3
Solid line
 72
65
 73
0
 40
0.0
  0
LTYPE
  5
1F5
100
AcDbSymbolTableRecord
100
AcDbLinetypeTableRecord
  2
CENTER
 70
64
  3
____ _ ____ _ ____ _ ____ _ ____ _ ____ _ ____
 72
65
 73
4
 40
0.6
 49
0.375
 74
0
 49
-0.075
 74
0
 49
0.075
 74
0
 49
-0.075
 74
0
  0
LTYPE
  5
1F6
100
AcDbSymbolTableRecord
100
AcDbLinetypeTableRecord
  2
HIDDEN
 70
64
  3
- - - - - - - - - - - - - - - - - - - -
 72
65
 73
2
 40
0.2
 49
0.1
 74
0
 49
-0.1
 74
0
  0
LTYPE
  5
1F7
100
AcDbSymbolTableRecord
100
AcDbLinetypeTableRecord
  2
PHANTOM
 70
64
  3
_____ _ _ _____ _ _ _____ _ _ _____
 72
65
 73
6
 40
0.8
 49
0.45
 74
0
 49
-0.05
 74
0
 49
0.1
 74
0
 49
-0.05
 74
0
 49
0.1
 74
0
 49
-0.05
 74
0
  0
LTYPE
  5
1F8
100
AcDbSymbolTableRecord
100
AcDbLinetypeTableRecord
  2
DOT
 70
64
  3
. . . . . . . . . . . . . . . . . . . .
 72
65
 73
2
 40
0.2
 49
0.1
 74
0
 49
-0.1
 74
0
  0
LTYPE
  5
1F9
100
AcDbSymbolTableRecord
100
AcDbLinetypeTableRecord
  2
DASHED
 70
64
  3
- - - - - - - - - - - - - - - - - - - -
 72
65
 73
2
 40
0.2
 49
0.1
 74
0
 49
-0.1
 74
0
  0
ENDTAB
  0
TABLE
  2
LAYER
  5
2
100
AcDbSymbolTable
 70
36
  0
LAYER
  5
10
100
AcDbSymbolTableRecord
100
AcDbLayerTableRecord
  2
0
 70
0
 62
7
  6
CONTINUOUS
370
-3
390
F
  0
LAYER
  5
1FA
100
AcDbSymbolTableRecord
100
AcDbLayerTableRecord
  2
DEFAULT_1
 70
0
 62
7
  6
CENTER
370
-3
390
F
  0
LAYER
  5
1FB
100
AcDbSymbolTableRecord
100
AcDbLayerTableRecord
  2
DEFAULT_2
 70
0
 62
7
  6
HIDDEN
370
-3
390
F
  0
LAYER
  5
1FC
100
AcDbSymbolTableRecord
100
AcDbLayerTableRecord
  2
DEFAULT_3
 70
0
 62
7
  6
PHANTOM
370
-3
390
F
  0
LAYER
  5
1FD
100
AcDbSymbolTableRecord
100
AcDbLayerTableRecord
  2
ASSI
 70
0
 62
7
  6
CONTINUOUS
370
-3
390
F
  0
LAYER
  5
1FE
100
AcDbSymbolTableRecord
100
AcDbLayerTableRecord
  2
COLOR5
 70
0
 62
7
  6
CONTINUOUS
370
-3
390
F
  0
LAYER
  5
1FF
100
AcDbSymbolTableRecord
100
AcDbLayerTableRecord
  2
COORDINATE
 70
0
 62
7
  6
CONTINUOUS
370
-3
390
F
  0
LAYER
  5
200
100
AcDbSymbolTableRecord
100
AcDbLayerTableRecord
  2
COORD_ORIGINE
 70
0
 62
7
  6
CONTINUOUS
370
-3
390
F
  0
LAYER
  5
201
100
AcDbSymbolTableRecord
100
AcDbLayerTableRecord
  2
COPY_PUBLISH
 70
0
 62
7
  6
CONTINUOUS
370
-3
390
F
  0
LAYER
  5
202
100
AcDbSymbolTableRecord
100
AcDbLayerTableRecord
  2
COSMETIC
 70
0
 62
7
  6
CONTINUOUS
370
-3
390
F
  0
LAYER
  5
203
100
AcDbSymbolTableRecord
100
AcDbLayerTableRecord
  2
CURVE
 70
0
 62
7
  6
CONTINUOUS
370
-3
390
F
  0
LAYER
  5
204
100
AcDbSymbolTableRecord
100
AcDbLayerTableRecord
  2
DRAFT
 70
0
 62
7
  6
CONTINUOUS
370
-3
390
F
  0
LAYER
  5
205
100
AcDbSymbolTableRecord
100
AcDbLayerTableRecord
  2
IMPORT_IGES
 70
0
 62
7
  6
CONTINUOUS
370
-3
390
F
  0
LAYER
  5
206
100
AcDbSymbolTableRecord
100
AcDbLayerTableRecord
  2
INTF_1
 70
0
 62
7
  6
CONTINUOUS
370
-3
390
F
  0
LAYER
  5
207
100
AcDbSymbolTableRecord
100
AcDbLayerTableRecord
  2
INTF_2
 70
0
 62
7
  6
CONTINUOUS
370
-3
390
F
  0
LAYER
  5
208
100
AcDbSymbolTableRecord
100
AcDbLayerTableRecord
  2
NOTE
 70
0
 62
7
  6
CONTINUOUS
370
-3
390
F
  0
LAYER
  5
209
100
AcDbSymbolTableRecord
100
AcDbLayerTableRecord
  2
PIANI
 70
0
 62
7
  6
CONTINUOUS
370
-3
390
F
  0
LAYER
  5
20A
100
AcDbSymbolTableRecord
100
AcDbLayerTableRecord
  2
PIANI_ORIGINE
 70
0
 62
7
  6
CONTINUOUS
370
-3
390
F
  0
LAYER
  5
20B
100
AcDbSymbolTableRecord
100
AcDbLayerTableRecord
  2
PUNTI
 70
0
 62
7
  6
CONTINUOUS
370
-3
390
F
  0
LAYER
  5
20C
100
AcDbSymbolTableRecord
100
AcDbLayerTableRecord
  2
RACCORDO
 70
0
 62
7
  6
CONTINUOUS
370
-3
390
F
  0
LAYER
  5
20D
100
AcDbSymbolTableRecord
100
AcDbLayerTableRecord
  2
RGB__255__255__255__
 70
0
 62
7
  6
CONTINUOUS
370
-3
390
F
  0
LAYER
  5
20E
100
AcDbSymbolTableRecord
100
AcDbLayerTableRecord
  2
RGB____0____0____0__
 70
0
 62
7
  6
CONTINUOUS
370
-3
390
F
  0
LAYER
  5
20F
100
AcDbSymbolTableRecord
100
AcDbLayerTableRecord
  2
SMUSSO
 70
0
 62
7
  6
CONTINUOUS
370
-3
390
F
  0
LAYER
  5
210
100
AcDbSymbolTableRecord
100
AcDbLayerTableRecord
  2
SNAPLINE
 70
0
 62
7
  6
CONTINUOUS
370
-3
390
F
  0
LAYER
  5
211
100
AcDbSymbolTableRecord
100
AcDbLayerTableRecord
  2
SUPERFICI
 70
0
 62
7
  6
CONTINUOUS
370
-3
390
F
  0
LAYER
  5
212
100
AcDbSymbolTableRecord
100
AcDbLayerTableRecord
  2
TRASH
 70
0
 62
7
  6
CONTINUOUS
370
-3
390
F
  0
LAYER
  5
213
100
AcDbSymbolTableRecord
100
AcDbLayerTableRecord
  2
XSEC_DATUMS
 70
0
 62
7
  6
CONTINUOUS
370
-3
390
F
  0
ENDTAB
  0
TABLE
  2
STYLE
  5
3
100
AcDbSymbolTable
 70
1
  0
STYLE
  5
11
100
AcDbSymbolTableRecord
100
AcDbTextStyleTableRecord
  2
STANDARD
 70
0
 40
0.0
 41
0.8
 50
0.0
 71
0
 42
0.2
  3
txt
  4

  0
STYLE
  5
214
100
AcDbSymbolTableRecord
100
AcDbTextStyleTableRecord
  2
TEXTSTYLE_1
 70
0
 40
0.0
 41
0.8
 50
0.0
 71
0
 42
0.2
  3
gdt
  4

  0
ENDTAB
  0
TABLE
  2
VIEW
  5
6
100
AcDbSymbolTable
 70
0
  0
ENDTAB
  0
TABLE
  2
UCS
  5
7
100
AcDbSymbolTable
 70
0
  0
ENDTAB
  0
TABLE
  2
APPID
  5
9
100
AcDbSymbolTable
 70
1
  0
APPID
  5
215
100
AcDbSymbolTableRecord
100
AcDbRegAppTableRecord
  2
ACAD
 70
0
  0
ENDTAB
  0
TABLE
  2
BLOCK_RECORD
  5
1
100
AcDbSymbolTable
 70
0
  0
BLOCK_RECORD
  5
216
100
AcDbSymbolTableRecord
100
AcDbBlockTableRecord
  2
*Model_Space
  0
BLOCK_RECORD
  5
217
100
AcDbSymbolTableRecord
100
AcDbBlockTableRecord
  2
*Paper_Space
  0
ENDTAB
  0
TABLE
  2
DIMSTYLE
  5
A
100
AcDbSymbolTable
 70
1
100
AcDbDimStyleTable
 71
0
  0
DIMSTYLE
105
218
100
AcDbSymbolTableRecord
100
AcDbDimStyleTableRecord
  2
STANDARD
 70
0
  3

  4

 40
1.0
 41
3.0
 42
0.0625
 43
0.38
 44
0.18
 45
0.0
 46
0.0
 47
0.01
 48
0.01
140
3.0
141
0.09
142
0.0
143
25.4
144
1.0
145
0.0
146
1.0
147
0.09
 71
1.0
 72
0.0
 73
0
 74
0
 75
0
 76
0
 77
1
 78
8
170
0
171
2
172
0
173
0
174
0
175
0
176
0
177
0
178
0
270
2
271
2
272
2
273
2
274
2
275
0
280
0
281
0
282
0
283
1
284
8
285
0
286
0
287
3
288
0
340
11
  0
ENDTAB
  0
ENDSEC
  0
SECTION
  2
BLOCKS
  0
BLOCK
  5
20
100
AcDbEntity
  8
0
100
AcDbBlockBegin
  2
*Model_Space
 70
0
 10
0.0
 20
0.0
 30
0.0
  3
*Model_Space
  1

  0
ENDBLK
  5
21
100
AcDbEntity
  8
0
100
AcDbBlockEnd
  0
BLOCK
  5
1C
100
AcDbEntity
  8
0
100
AcDbBlockBegin
  2
*Paper_Space
 70
0
 10
0.0
 20
0.0
 30
0.0
  3
*Paper_Space
  1

  0
ENDBLK
  5
1D
100
AcDbEntity
  8
0
100
AcDbBlockEnd
  0
ENDSEC
  0
SECTION
  2
ENTITIES
  0
LINE
  5
219
100
AcDbEntity
  8
RACCORDO
100
AcDbLine
 62
7
  6
CONTINUOUS
 10
-50.0
 20
34.9752975055
 11
-50.0
 21
-45.0248167253
  0
LINE
  5
21A
100
AcDbEntity
  8
RACCORDO
100
AcDbLine
 62
7
  6
CONTINUOUS
 10
-49.9993018655
 20
-45.0240706139
 11
-49.9993018655
 21
34.9745513941
  0
LINE
  5
21B
100
AcDbEntity
  8
RACCORDO
100
AcDbLine
 62
253
  6
CONTINUOUS
 10
-49.8631534462
 20
34.8383956
 11
-49.8631534462
 21
-44.8879159268
  0
LINE
  5
21C
100
AcDbEntity
  8
0
100
AcDbLine
 62
7
  6
CONTINUOUS
 10
26.75
 20
-44.8247596099
 11
30.75
 21
-43.9247596099
  0
LINE
  5
21D
100
AcDbEntity
  8
0
100
AcDbLine
 62
7
  6
CONTINUOUS
 10
-30.75
 20
-43.9247596099
 11
-26.75
 21
-44.8247596099
  0
LINE
  5
21E
100
AcDbEntity
  8
RACCORDO
100
AcDbLine
 62
253
  6
CONTINUOUS
 10
-48.8631595385
 20
34.8384029748
 11
-48.8631595385
 21
-44.8879221946
  0
LINE
  5
21F
100
AcDbEntity
  8
RACCORDO
100
AcDbLine
 62
253
  6
CONTINUOUS
 10
-48.3631625847
 20
-45.3879191484
 11
-48.3631625847
 21
-46.3879130561
  0
LINE
  5
220
100
AcDbEntity
  8
RACCORDO
100
AcDbLine
 62
253
  6
CONTINUOUS
 10
-48.3631625847
 20
35.3383999286
 11
-48.3631625847
 21
36.3383938362
  0
LINE
  5
221
100
AcDbEntity
  8
RACCORDO
100
AcDbLine
 62
7
  6
CONTINUOUS
 10
-48.5000571154
 20
-46.5247596099
 11
48.5000571154
 21
-46.5247596099
  0
LINE
  5
222
100
AcDbEntity
  8
RACCORDO
100
AcDbLine
 62
7
  6
CONTINUOUS
 10
48.499311004
 20
-46.5240614754
 11
-48.499311004
 21
-46.5240614754
  0
LINE
  5
223
100
AcDbEntity
  8
DRAFT
100
AcDbLine
 62
7
  6
CONTINUOUS
 10
-18.5
 20
-46.4053786042
 11
-23.5
 21
-46.4053786042
  0
LINE
  5
224
100
AcDbEntity
  8
RACCORDO
100
AcDbLine
 62
253
  6
CONTINUOUS
 10
-48.3631552099
 20
-46.3879130561
 11
-23.5
 21
-46.3879130561
  0
LINE
  5
225
100
AcDbEntity
  8
RACCORDO
100
AcDbLine
 62
253
  6
CONTINUOUS
 10
-18.5
 20
-46.3879130561
 11
48.3631563169
 21
-46.3879130561
  0
LINE
  5
226
100
AcDbEntity
  8
RACCORDO
100
AcDbLine
 62
253
  6
CONTINUOUS
 10
-48.3631625847
 20
-45.3879191484
 11
-23.5
 21
-45.3879191484
  0
LINE
  5
227
100
AcDbEntity
  8
RACCORDO
100
AcDbLine
 62
253
  6
CONTINUOUS
 10
-18.5
 20
-45.3879191484
 11
48.3631625847
 21
-45.3879191484
  0
LINE
  5
228
100
AcDbEntity
  8
RACCORDO
100
AcDbLine
 62
7
  6
CONTINUOUS
 10
-23.5
 20
-45.2747596099
 11
-18.5
 21
-45.2747596099
  0
LINE
  5
229
100
AcDbEntity
  8
RACCORDO
100
AcDbLine
 62
253
  6
CONTINUOUS
 10
-8.1270346306
 20
44.1219979896
 11
-8.1276457135
 21
44.1216500943
  0
LINE
  5
22A
100
AcDbEntity
  8
RACCORDO
100
AcDbLine
 62
253
  6
CONTINUOUS
 10
-11.6267698086
 20
40.5087728324
 11
-11.6276457135
 21
40.5082746488
  0
LINE
  5
22B
100
AcDbEntity
  8
RACCORDO
100
AcDbLine
 62
253
  6
CONTINUOUS
 10
-9.8768929074
 20
42.3488814961
 11
-9.8776457135
 21
42.3484558165
  0
LINE
  5
22C
100
AcDbEntity
  8
RACCORDO
100
AcDbLine
 62
253
  6
CONTINUOUS
 10
-3.8773353199
 20
45.8208491093
 11
-3.8776457135
 21
45.8206778489
  0
LINE
  5
22D
100
AcDbEntity
  8
0
100
AcDbLine
 62
7
  6
CONTINUOUS
 10
-5.9994322769
 20
44.6920221787
 11
-6.0
 21
44.6917475718
  0
LINE
  5
22E
100
AcDbEntity
  8
0
100
AcDbLine
 62
7
  6
CONTINUOUS
 10
-0.9998724855
 20
46.5917822683
 11
-1.0
 21
46.5917359963
  0
LINE
  5
22F
100
AcDbEntity
  8
RACCORDO
100
AcDbLine
 62
253
  6
CONTINUOUS
 10
48.8631595385
 20
-44.8879221946
 11
49.8631534462
 21
-44.8879221946
  0
LINE
  5
230
100
AcDbEntity
  8
RACCORDO
100
AcDbLine
 62
253
  6
CONTINUOUS
 10
-48.8631595385
 20
-44.8879221946
 11
-49.8631534462
 21
-44.8879221946
  0
LINE
  5
231
100
AcDbEntity
  8
0
100
AcDbLine
 62
7
  6
CONTINUOUS
 10
-31.25
 20
-44.4747596099
 11
-30.75
 21
-44.4747596099
  0
LINE
  5
232
100
AcDbEntity
  8
0
100
AcDbLine
 62
7
  6
CONTINUOUS
 10
30.75
 20
-44.4747596099
 11
31.25
 21
-44.4747596099
  0
LINE
  5
233
100
AcDbEntity
  8
RACCORDO
100
AcDbLine
 62
253
  6
CONTINUOUS
 10
-23.5
 20
-44.2747596099
 11
-18.5
 21
-44.2747596099
  0
LINE
  5
234
100
AcDbEntity
  8
0
100
AcDbLine
 62
7
  6
CONTINUOUS
 10
26.75
 20
-44.0747596099
 11
-26.75
 21
-44.0747596099
  0
LINE
  5
235
100
AcDbEntity
  8
0
100
AcDbLine
 62
7
  6
CONTINUOUS
 10
-26.75
 20
-43.8747596099
 11
26.75
 21
-43.8747596099
  0
LINE
  5
236
100
AcDbEntity
  8
0
100
AcDbLine
 62
7
  6
CONTINUOUS
 10
-26.75
 20
-43.7747596099
 11
26.75
 21
-43.7747596099
  0
LINE
  5
237
100
AcDbEntity
  8
0
100
AcDbLine
 62
7
  6
CONTINUOUS
 10
26.75
 20
-43.5747596099
 11
-26.75
 21
-43.5747596099
  0
LINE
  5
238
100
AcDbEntity
  8
0
100
AcDbLine
 62
7
  6
CONTINUOUS
 10
0.0531033874
 20
-42.8247596099
 11
1.8986207247
 21
-42.8247596099
  0
LINE
  5
239
100
AcDbEntity
  8
0
100
AcDbLine
 62
7
  6
CONTINUOUS
 10
1.8986207247
 20
-42.549587205
 11
0.3696551919
 21
-42.549587205
  0
LINE
  5
23A
100
AcDbEntity
  8
0
100
AcDbLine
 62
7
  6
CONTINUOUS
 10
29.5
 20
-42.2747596099
 11
32.5
 21
-42.2747596099
  0
LINE
  5
23B
100
AcDbEntity
  8
0
100
AcDbLine
 62
7
  6
CONTINUOUS
 10
-29.5
 20
-42.2747596099
 11
-32.5
 21
-42.2747596099
  0
LINE
  5
23C
100
AcDbEntity
  8
SMUSSO
100
AcDbLine
 62
7
  6
CONTINUOUS
 10
-32.5
 20
-41.5247596099
 11
-29.5
 21
-41.5247596099
  0
LINE
  5
23D
100
AcDbEntity
  8
SMUSSO
100
AcDbLine
 62
7
  6
CONTINUOUS
 10
29.5
 20
-41.5247596099
 11
32.5
 21
-41.5247596099
  0
LINE
  5
23E
100
AcDbEntity
  8
SMUSSO
100
AcDbLine
 62
7
  6
CONTINUOUS
 10
-32.5
 20
-41.2247596099
 11
-29.5
 21
-41.2247596099
  0
LINE
  5
23F
100
AcDbEntity
  8
SMUSSO
100
AcDbLine
 62
7
  6
CONTINUOUS
 10
29.5
 20
-41.2247596099
 11
32.5
 21
-41.2247596099
  0
LINE
  5
240
100
AcDbEntity
  8
RACCORDO
100
AcDbLine
 62
253
  6
CONTINUOUS
 10
-13.2577462112
 20
38.7809058169
 11
-13.2588190451
 21
38.7803170648
  0
LINE
  5
241
100
AcDbEntity
  8
0
100
AcDbLine
 62
7
  6
CONTINUOUS
 10
-26.75
 20
-42.8247596099
 11
-30.75
 21
-43.7247596099
  0
LINE
  5
242
100
AcDbEntity
  8
0
100
AcDbLine
 62
7
  6
CONTINUOUS
 10
48.0
 20
-40.2747596099
 11
34.7360679775
 21
-40.2747596099
  0
LINE
  5
243
100
AcDbEntity
  8
0
100
AcDbLine
 62
7
  6
CONTINUOUS
 10
48.0
 20
-40.0747596099
 11
34.7494443758
 21
-40.0747596099
  0
LINE
  5
244
100
AcDbEntity
  8
0
100
AcDbLine
 62
7
  6
CONTINUOUS
 10
48.0
 20
-39.9747596099
 11
34.7494443758
 21
-39.9747596099
  0
LINE
  5
245
100
AcDbEntity
  8
0
100
AcDbLine
 62
7
  6
CONTINUOUS
 10
-0.9213792682
 20
-39.8247596099
 11
-1.2710344493
 21
-39.8247596099
  0
LINE
  5
246
100
AcDbEntity
  8
0
100
AcDbLine
 62
7
  6
CONTINUOUS
 10
34.7360679775
 20
-39.7747596099
 11
48.0
 21
-39.7747596099
  0
LINE
  5
247
100
AcDbEntity
  8
SMUSSO
100
AcDbLine
 62
7
  6
CONTINUOUS
 10
32.5
 20
-38.8247596099
 11
29.5
 21
-38.8247596099
  0
LINE
  5
248
100
AcDbEntity
  8
SMUSSO
100
AcDbLine
 62
7
  6
CONTINUOUS
 10
-29.5
 20
-38.8247596099
 11
-32.5
 21
-38.8247596099
  0
LINE
  5
249
100
AcDbEntity
  8
SMUSSO
100
AcDbLine
 62
7
  6
CONTINUOUS
 10
32.5
 20
-38.5247596099
 11
29.5
 21
-38.5247596099
  0
LINE
  5
24A
100
AcDbEntity
  8
SMUSSO
100
AcDbLine
 62
7
  6
CONTINUOUS
 10
-29.5
 20
-38.5247596099
 11
-32.5
 21
-38.5247596099
  0
LINE
  5
24B
100
AcDbEntity
  8
ASSI
100
AcDbLine
 62
7
  6
CONTINUOUS
 10
32.5
 20
-37.7747596099
 11
29.5
 21
-37.7747596099
  0
LINE
  5
24C
100
AcDbEntity
  8
ASSI
100
AcDbLine
 62
7
  6
CONTINUOUS
 10
-29.5
 20
-37.7747596099
 11
-32.5
 21
-37.7747596099
  0
LINE
  5
24D
100
AcDbEntity
  8
0
100
AcDbLine
 62
7
  6
CONTINUOUS
 10
45.0
 20
-36.7747596099
 11
45.95
 21
-36.7747596099
  0
LINE
  5
24E
100
AcDbEntity
  8
0
100
AcDbLine
 62
7
  6
CONTINUOUS
 10
46.05
 20
-36.7747596099
 11
47.0
 21
-36.7747596099
  0
LINE
  5
24F
100
AcDbEntity
  8
0
100
AcDbLine
 62
7
  6
CONTINUOUS
 10
0.1255173087
 20
-40.4909665062
 11
0.4379310012
 21
-40.5240699723
  0
LINE
  5
250
100
AcDbEntity
  8
0
100
AcDbLine
 62
7
  6
CONTINUOUS
 10
30.75
 20
-43.7247596099
 11
26.75
 21
-42.8247596099
  0
LINE
  5
251
100
AcDbEntity
  8
ASSI
100
AcDbLine
 62
7
  6
CONTINUOUS
 10
-33.25
 20
30.9752403901
 11
-33.25
 21
28.9752403901
  0
LINE
  5
252
100
AcDbEntity
  8
SMUSSO
100
AcDbLine
 62
7
  6
CONTINUOUS
 10
-32.5
 20
30.9752403901
 11
-32.5
 21
28.9752403901
  0
LINE
  5
253
100
AcDbEntity
  8
SMUSSO
100
AcDbLine
 62
253
  6
CONTINUOUS
 10
-32.5
 20
-38.8247596099
 11
-32.5
 21
-38.5247596099
  0
LINE
  5
254
100
AcDbEntity
  8
SMUSSO
100
AcDbLine
 62
253
  6
CONTINUOUS
 10
-32.5
 20
-41.2247596099
 11
-32.5
 21
-41.5247596099
  0
LINE
  5
255
100
AcDbEntity
  8
SMUSSO
100
AcDbLine
 62
7
  6
CONTINUOUS
 10
-32.2
 20
30.9752403901
 11
-32.2
 21
28.9752403901
  0
LINE
  5
256
100
AcDbEntity
  8
0
100
AcDbLine
 62
7
  6
CONTINUOUS
 10
-31.25
 20
-44.4747596099
 11
-31.25
 21
-42.2747596099
  0
LINE
  5
257
100
AcDbEntity
  8
0
100
AcDbLine
 62
7
  6
CONTINUOUS
 10
-31.05
 20
-42.2747596099
 11
-31.05
 21
-44.4747596099
  0
LINE
  5
258
100
AcDbEntity
  8
0
100
AcDbLine
 62
7
  6
CONTINUOUS
 10
-30.95
 20
-42.2747596099
 11
-30.95
 21
-44.4747596099
  0
LINE
  5
259
100
AcDbEntity
  8
0
100
AcDbLine
 62
7
  6
CONTINUOUS
 10
-30.75
 20
-42.2747596099
 11
-30.75
 21
-44.4747596099
  0
LINE
  5
25A
100
AcDbEntity
  8
SMUSSO
100
AcDbLine
 62
7
  6
CONTINUOUS
 10
-29.8
 20
28.9752403901
 11
-29.8
 21
30.9752403901
  0
LINE
  5
25B
100
AcDbEntity
  8
SMUSSO
100
AcDbLine
 62
253
  6
CONTINUOUS
 10
-29.5
 20
-38.8247596099
 11
-29.5
 21
-38.5247596099
  0
LINE
  5
25C
100
AcDbEntity
  8
SMUSSO
100
AcDbLine
 62
253
  6
CONTINUOUS
 10
-29.5
 20
-41.2247596099
 11
-29.5
 21
-41.5247596099
  0
LINE
  5
25D
100
AcDbEntity
  8
SMUSSO
100
AcDbLine
 62
7
  6
CONTINUOUS
 10
-29.5
 20
28.9752403901
 11
-29.5
 21
30.9752403901
  0
LINE
  5
25E
100
AcDbEntity
  8
ASSI
100
AcDbLine
 62
7
  6
CONTINUOUS
 10
-28.75
 20
28.9752403901
 11
-28.75
 21
30.9752403901
  0
LINE
  5
25F
100
AcDbEntity
  8
0
100
AcDbLine
 62
7
  6
CONTINUOUS
 10
-26.75
 20
-42.8247596099
 11
-26.75
 21
-43.7747596099
  0
LINE
  5
260
100
AcDbEntity
  8
0
100
AcDbLine
 62
7
  6
CONTINUOUS
 10
-26.75
 20
-43.8747596099
 11
-26.75
 21
-44.8247596099
  0
LINE
  5
261
100
AcDbEntity
  8
RACCORDO
100
AcDbLine
 62
7
  6
CONTINUOUS
 10
-23.5
 20
-46.4053786042
 11
-23.5
 21
-44.2747596099
  0
LINE
  5
262
100
AcDbEntity
  8
RACCORDO
100
AcDbLine
 62
7
  6
CONTINUOUS
 10
-18.5
 20
-44.2747596099
 11
-18.5
 21
-46.4053786042
  0
LINE
  5
263
100
AcDbEntity
  8
0
100
AcDbLine
 62
7
  6
CONTINUOUS
 10
-14.0
 20
37.8143971233
 11
-14.0
 21
36.3917981382
  0
LINE
  5
264
100
AcDbEntity
  8
RACCORDO
100
AcDbLine
 62
7
  6
CONTINUOUS
 10
-14.0
 20
36.3917981382
 11
-14.0
 21
37.8143971233
  0
LINE
  5
265
100
AcDbEntity
  8
0
100
AcDbLine
 62
7
  6
CONTINUOUS
 10
-11.85
 20
40.2184986663
 11
-11.85
 21
39.7917774243
  0
LINE
  5
266
100
AcDbEntity
  8
RACCORDO
100
AcDbLine
 62
7
  6
CONTINUOUS
 10
-11.85
 20
39.7917774243
 11
-11.85
 21
40.2184986663
  0
LINE
  5
267
100
AcDbEntity
  8
0
100
AcDbLine
 62
7
  6
CONTINUOUS
 10
-11.35
 20
39.7799097605
 11
-11.35
 21
39.2917804704
  0
LINE
  5
268
100
AcDbEntity
  8
0
100
AcDbLine
 62
7
  6
CONTINUOUS
 10
-10.1
 20
42.0586798341
 11
-10.1
 21
41.591766458
  0
LINE
  5
269
100
AcDbEntity
  8
RACCORDO
100
AcDbLine
 62
7
  6
CONTINUOUS
 10
-10.1
 20
41.591766458
 11
-10.1
 21
42.0586798341
  0
LINE
  5
26A
100
AcDbEntity
  8
0
100
AcDbLine
 62
7
  6
CONTINUOUS
 10
-9.45
 20
41.5793416034
 11
-9.45
 21
41.0917695042
  0
LINE
  5
26B
100
AcDbEntity
  8
RACCORDO
100
AcDbLine
 62
253
  6
CONTINUOUS
 10
-49.9993018655
 20
34.9745513941
 11
-49.8631534462
 21
34.8383956
  0
LINE
  5
26C
100
AcDbEntity
  8
RACCORDO
100
AcDbLine
 62
253
  6
CONTINUOUS
 10
-48.499311004
 20
36.4745422555
 11
-48.3631563169
 21
36.3383938362
  0
LINE
  5
26D
100
AcDbEntity
  8
0
100
AcDbLine
 62
7
  6
CONTINUOUS
 10
-8.35
 20
43.8318741119
 11
-8.35
 21
43.3917554918
  0
LINE
  5
26E
100
AcDbEntity
  8
RACCORDO
100
AcDbLine
 62
7
  6
CONTINUOUS
 10
-8.35
 20
43.3917554918
 11
-8.35
 21
43.8318741119
  0
LINE
  5
26F
100
AcDbEntity
  8
0
100
AcDbLine
 62
7
  6
CONTINUOUS
 10
-7.85
 20
43.381842351
 11
-7.85
 21
42.891758538
  0
LINE
  5
270
100
AcDbEntity
  8
0
100
AcDbLine
 62
7
  6
CONTINUOUS
 10
-4.1
 20
45.5309018664
 11
-4.1
 21
45.1917445256
  0
LINE
  5
271
100
AcDbEntity
  8
RACCORDO
100
AcDbLine
 62
7
  6
CONTINUOUS
 10
-4.1
 20
45.1917445256
 11
-4.1
 21
45.5309018664
  0
LINE
  5
272
100
AcDbEntity
  8
0
100
AcDbLine
 62
7
  6
CONTINUOUS
 10
42.0
 20
-7.3033802926
 11
42.2772413492
 21
-7.3033802926
  0
LINE
  5
273
100
AcDbEntity
  8
0
100
AcDbLine
 62
7
  6
CONTINUOUS
 10
42.2772413492
 20
-5.5840699866
 11
42.0
 21
-5.5840699866
  0
LINE
  5
274
100
AcDbEntity
  8
0
100
AcDbLine
 62
7
  6
CONTINUOUS
 10
-3.6
 20
45.1848976184
 11
-3.6
 21
44.6917475718
  0
LINE
  5
275
100
AcDbEntity
  8
0
100
AcDbLine
 62
7
  6
CONTINUOUS
 10
0.0531033874
 20
-42.4730354621
 11
0.0531033874
 21
-42.8247596099
  0
LINE
  5
276
100
AcDbEntity
  8
RACCORDO
100
AcDbLine
 62
253
  6
CONTINUOUS
 10
-49.9993018655
 20
-45.0240706139
 11
-49.8631534462
 21
-44.8879159268
  0
LINE
  5
277
100
AcDbEntity
  8
RACCORDO
100
AcDbLine
 62
253
  6
CONTINUOUS
 10
-48.499311004
 20
-46.5240614754
 11
-48.3631552099
 21
-46.3879130561
  0
LINE
  5
278
100
AcDbEntity
  8
0
100
AcDbLine
 62
7
  6
CONTINUOUS
 10
1.8986207247
 20
-42.8247596099
 11
1.8986207247
 21
-42.549587205
  0
LINE
  5
279
100
AcDbEntity
  8
0
100
AcDbLine
 62
7
  6
CONTINUOUS
 10
3.6
 20
45.1848976184
 11
3.6
 21
44.6917475718
  0
LINE
  5
27A
100
AcDbEntity
  8
0
100
AcDbLine
 62
7
  6
CONTINUOUS
 10
4.1
 20
45.5309018664
 11
4.1
 21
45.1917445256
  0
LINE
  5
27B
100
AcDbEntity
  8
RACCORDO
100
AcDbLine
 62
7
  6
CONTINUOUS
 10
4.1
 20
45.1917445256
 11
4.1
 21
45.5309018664
  0
LINE
  5
27C
100
AcDbEntity
  8
RACCORDO
100
AcDbLine
 62
253
  6
CONTINUOUS
 10
48.499311004
 20
-46.5240614754
 11
48.3631563169
 21
-46.3879130561
  0
LINE
  5
27D
100
AcDbEntity
  8
RACCORDO
100
AcDbLine
 62
253
  6
CONTINUOUS
 10
49.9993018655
 20
-45.0240706139
 11
49.8631534462
 21
-44.8879148199
  0
LINE
  5
27E
100
AcDbEntity
  8
0
100
AcDbLine
 62
7
  6
CONTINUOUS
 10
7.85
 20
43.381842351
 11
7.85
 21
42.891758538
  0
LINE
  5
27F
100
AcDbEntity
  8
0
100
AcDbLine
 62
7
  6
CONTINUOUS
 10
8.35
 20
43.8318741119
 11
8.35
 21
43.3917554918
  0
LINE
  5
280
100
AcDbEntity
  8
RACCORDO
100
AcDbLine
 62
7
  6
CONTINUOUS
 10
8.35
 20
43.3917554918
 11
8.35
 21
43.8318741119
  0
LINE
  5
281
100
AcDbEntity
  8
0
100
AcDbLine
 62
7
  6
CONTINUOUS
 10
9.45
 20
41.5793416034
 11
9.45
 21
41.0917695042
  0
LINE
  5
282
100
AcDbEntity
  8
RACCORDO
100
AcDbLine
 62
253
  6
CONTINUOUS
 10
48.499311004
 20
36.4745422555
 11
48.3631552099
 21
36.3383938362
  0
LINE
  5
283
100
AcDbEntity
  8
0
100
AcDbLine
 62
7
  6
CONTINUOUS
 10
10.1
 20
42.0586798341
 11
10.1
 21
41.591766458
  0
LINE
  5
284
100
AcDbEntity
  8
RACCORDO
100
AcDbLine
 62
7
  6
CONTINUOUS
 10
10.1
 20
41.591766458
 11
10.1
 21
42.0586798341
  0
LINE
  5
285
100
AcDbEntity
  8
0
100
AcDbLine
 62
7
  6
CONTINUOUS
 10
11.35
 20
39.7799097605
 11
11.35
 21
39.2917804704
  0
LINE
  5
286
100
AcDbEntity
  8
0
100
AcDbLine
 62
7
  6
CONTINUOUS
 10
11.85
 20
40.2184986663
 11
11.85
 21
39.7917774243
  0
LINE
  5
287
100
AcDbEntity
  8
RACCORDO
100
AcDbLine
 62
7
  6
CONTINUOUS
 10
11.85
 20
39.7917774243
 11
11.85
 21
40.2184986663
  0
LINE
  5
288
100
AcDbEntity
  8
0
100
AcDbLine
 62
7
  6
CONTINUOUS
 10
14.0
 20
37.8143971233
 11
14.0
 21
36.3917981382
  0
LINE
  5
289
100
AcDbEntity
  8
RACCORDO
100
AcDbLine
 62
7
  6
CONTINUOUS
 10
14.0
 20
36.3917981382
 11
14.0
 21
37.8143971233
  0
LINE
  5
28A
100
AcDbEntity
  8
RACCORDO
100
AcDbLine
 62
253
  6
CONTINUOUS
 10
49.9993018655
 20
34.9745513941
 11
49.8631534462
 21
34.838396707
  0
LINE
  5
28B
100
AcDbEntity
  8
0
100
AcDbLine
 62
7
  6
CONTINUOUS
 10
45.0
 20
-6.7509665384
 11
42.2772413492
 21
-5.5840699866
  0
LINE
  5
28C
100
AcDbEntity
  8
0
100
AcDbLine
 62
7
  6
CONTINUOUS
 10
42.2772413492
 20
-5.8923457458
 11
45.0
 21
-7.0840699419
  0
LINE
  5
28D
100
AcDbEntity
  8
RACCORDO
100
AcDbLine
 62
7
  6
CONTINUOUS
 10
18.5
 20
34.2252403901
 11
18.5
 21
36.3558593844
  0
LINE
  5
28E
100
AcDbEntity
  8
0
100
AcDbLine
 62
7
  6
CONTINUOUS
 10
-1.2710344493
 20
-39.8247596099
 11
-2.0531034321
 21
-41.1426907255
  0
LINE
  5
28F
100
AcDbEntity
  8
0
100
AcDbLine
 62
7
  6
CONTINUOUS
 10
-1.7158620954
 20
-41.11579407
 11
-0.9213792682
 21
-39.8247596099
  0
LINE
  5
290
100
AcDbEntity
  8
RACCORDO
100
AcDbLine
 62
7
  6
CONTINUOUS
 10
23.5
 20
36.3558593844
 11
23.5
 21
34.2252403901
  0
LINE
  5
291
100
AcDbEntity
  8
0
100
AcDbLine
 62
7
  6
CONTINUOUS
 10
26.75
 20
-42.8247596099
 11
26.75
 21
-43.7747596099
  0
LINE
  5
292
100
AcDbEntity
  8
0
100
AcDbLine
 62
7
  6
CONTINUOUS
 10
26.75
 20
-43.8747596099
 11
26.75
 21
-44.8247596099
  0
LINE
  5
293
100
AcDbEntity
  8
0
100
AcDbLine
 62
7
  6
CONTINUOUS
 10
45.0
 20
26.7252403901
 11
45.95
 21
26.7252403901
  0
LINE
  5
294
100
AcDbEntity
  8
0
100
AcDbLine
 62
7
  6
CONTINUOUS
 10
46.05
 20
26.7252403901
 11
47.0
 21
26.7252403901
  0
LINE
  5
295
100
AcDbEntity
  8
ASSI
100
AcDbLine
 62
7
  6
CONTINUOUS
 10
28.75
 20
30.9752403901
 11
28.75
 21
28.9752403901
  0
LINE
  5
296
100
AcDbEntity
  8
SMUSSO
100
AcDbLine
 62
7
  6
CONTINUOUS
 10
29.5
 20
30.9752403901
 11
29.5
 21
28.9752403901
  0
LINE
  5
297
100
AcDbEntity
  8
SMUSSO
100
AcDbLine
 62
253
  6
CONTINUOUS
 10
29.5
 20
-38.8247596099
 11
29.5
 21
-38.5247596099
  0
LINE
  5
298
100
AcDbEntity
  8
SMUSSO
100
AcDbLine
 62
253
  6
CONTINUOUS
 10
29.5
 20
-41.2247596099
 11
29.5
 21
-41.5247596099
  0
LINE
  5
299
100
AcDbEntity
  8
SMUSSO
100
AcDbLine
 62
7
  6
CONTINUOUS
 10
29.8
 20
30.9752403901
 11
29.8
 21
28.9752403901
  0
LINE
  5
29A
100
AcDbEntity
  8
0
100
AcDbLine
 62
7
  6
CONTINUOUS
 10
30.75
 20
-44.4747596099
 11
30.75
 21
-42.2747596099
  0
LINE
  5
29B
100
AcDbEntity
  8
0
100
AcDbLine
 62
7
  6
CONTINUOUS
 10
30.95
 20
-42.2747596099
 11
30.95
 21
-44.4747596099
  0
LINE
  5
29C
100
AcDbEntity
  8
0
100
AcDbLine
 62
7
  6
CONTINUOUS
 10
31.05
 20
-42.2747596099
 11
31.05
 21
-44.4747596099
  0
LINE
  5
29D
100
AcDbEntity
  8
0
100
AcDbLine
 62
7
  6
CONTINUOUS
 10
31.25
 20
-44.4747596099
 11
31.25
 21
-42.2747596099
  0
LINE
  5
29E
100
AcDbEntity
  8
SMUSSO
100
AcDbLine
 62
7
  6
CONTINUOUS
 10
32.2
 20
28.9752403901
 11
32.2
 21
30.9752403901
  0
LINE
  5
29F
100
AcDbEntity
  8
SMUSSO
100
AcDbLine
 62
253
  6
CONTINUOUS
 10
32.5
 20
-38.8247596099
 11
32.5
 21
-38.5247596099
  0
LINE
  5
2A0
100
AcDbEntity
  8
SMUSSO
100
AcDbLine
 62
253
  6
CONTINUOUS
 10
32.5
 20
-41.2247596099
 11
32.5
 21
-41.5247596099
  0
LINE
  5
2A1
100
AcDbEntity
  8
SMUSSO
100
AcDbLine
 62
7
  6
CONTINUOUS
 10
32.5
 20
28.9752403901
 11
32.5
 21
30.9752403901
  0
LINE
  5
2A2
100
AcDbEntity
  8
0
100
AcDbLine
 62
7
  6
CONTINUOUS
 10
1.2096552849
 20
-41.2564838006
 11
0.0531033874
 21
-42.4730354621
  0
LINE
  5
2A3
100
AcDbEntity
  8
0
100
AcDbLine
 62
7
  6
CONTINUOUS
 10
0.3696551919
 20
-42.549587205
 11
1.2862069607
 21
-41.6102768256
  0
LINE
  5
2A4
100
AcDbEntity
  8
SMUSSO
100
AcDbLine
 62
253
  6
CONTINUOUS
 10
-29.8
 20
28.9752403901
 11
-29.5
 21
28.9752403901
  0
LINE
  5
2A5
100
AcDbEntity
  8
SMUSSO
100
AcDbLine
 62
253
  6
CONTINUOUS
 10
29.8
 20
28.9752403901
 11
29.5
 21
28.9752403901
  0
LINE
  5
2A6
100
AcDbEntity
  8
SMUSSO
100
AcDbLine
 62
253
  6
CONTINUOUS
 10
32.2
 20
28.9752403901
 11
32.5
 21
28.9752403901
  0
LINE
  5
2A7
100
AcDbEntity
  8
SMUSSO
100
AcDbLine
 62
253
  6
CONTINUOUS
 10
-32.2
 20
28.9752403901
 11
-32.5
 21
28.9752403901
  0
LINE
  5
2A8
100
AcDbEntity
  8
0
100
AcDbLine
 62
7
  6
CONTINUOUS
 10
48.0
 20
29.7252403901
 11
33.25
 21
29.7252403901
  0
LINE
  5
2A9
100
AcDbEntity
  8
0
100
AcDbLine
 62
7
  6
CONTINUOUS
 10
48.0
 20
29.9252403901
 11
33.25
 21
29.9252403901
  0
LINE
  5
2AA
100
AcDbEntity
  8
0
100
AcDbLine
 62
7
  6
CONTINUOUS
 10
48.0
 20
30.0252403901
 11
33.25
 21
30.0252403901
  0
LINE
  5
2AB
100
AcDbEntity
  8
0
100
AcDbLine
 62
7
  6
CONTINUOUS
 10
48.0
 20
30.2252403901
 11
33.25
 21
30.2252403901
  0
LINE
  5
2AC
100
AcDbEntity
  8
SMUSSO
100
AcDbLine
 62
253
  6
CONTINUOUS
 10
-29.8
 20
30.9752403901
 11
-29.5
 21
30.9752403901
  0
LINE
  5
2AD
100
AcDbEntity
  8
SMUSSO
100
AcDbLine
 62
253
  6
CONTINUOUS
 10
29.8
 20
30.9752403901
 11
29.5
 21
30.9752403901
  0
LINE
  5
2AE
100
AcDbEntity
  8
SMUSSO
100
AcDbLine
 62
253
  6
CONTINUOUS
 10
32.2
 20
30.9752403901
 11
32.5
 21
30.9752403901
  0
LINE
  5
2AF
100
AcDbEntity
  8
SMUSSO
100
AcDbLine
 62
253
  6
CONTINUOUS
 10
-32.2
 20
30.9752403901
 11
-32.5
 21
30.9752403901
  0
LINE
  5
2B0
100
AcDbEntity
  8
0
100
AcDbLine
 62
7
  6
CONTINUOUS
 10
33.25
 20
28.9752403901
 11
33.25
 21
30.9752403901
  0
LINE
  5
2B1
100
AcDbEntity
  8
0
100
AcDbLine
 62
7
  6
CONTINUOUS
 10
45.9
 20
29.7252403901
 11
45.0
 21
26.7252403901
  0
LINE
  5
2B2
100
AcDbEntity
  8
RACCORDO
100
AcDbLine
 62
253
  6
CONTINUOUS
 10
23.5
 20
34.2252403901
 11
18.5
 21
34.2252403901
  0
LINE
  5
2B3
100
AcDbEntity
  8
RACCORDO
100
AcDbLine
 62
253
  6
CONTINUOUS
 10
48.8631595385
 20
34.8384029748
 11
49.8631534462
 21
34.8384029748
  0
LINE
  5
2B4
100
AcDbEntity
  8
RACCORDO
100
AcDbLine
 62
253
  6
CONTINUOUS
 10
-48.8631595385
 20
34.8384029748
 11
-49.8631534462
 21
34.8384029748
  0
LINE
  5
2B5
100
AcDbEntity
  8
RACCORDO
100
AcDbLine
 62
7
  6
CONTINUOUS
 10
23.5
 20
35.2252403901
 11
18.5
 21
35.2252403901
  0
LINE
  5
2B6
100
AcDbEntity
  8
RACCORDO
100
AcDbLine
 62
253
  6
CONTINUOUS
 10
48.3631625847
 20
35.3383999286
 11
23.5
 21
35.3383999286
  0
LINE
  5
2B7
100
AcDbEntity
  8
RACCORDO
100
AcDbLine
 62
253
  6
CONTINUOUS
 10
18.5
 20
35.3383999286
 11
-48.3631625847
 21
35.3383999286
  0
LINE
  5
2B8
100
AcDbEntity
  8
RACCORDO
100
AcDbLine
 62
253
  6
CONTINUOUS
 10
48.3631552099
 20
36.3383938362
 11
23.5
 21
36.3383938362
  0
LINE
  5
2B9
100
AcDbEntity
  8
RACCORDO
100
AcDbLine
 62
253
  6
CONTINUOUS
 10
18.5
 20
36.3383938362
 11
-48.3631563169
 21
36.3383938362
  0
LINE
  5
2BA
100
AcDbEntity
  8
DRAFT
100
AcDbLine
 62
7
  6
CONTINUOUS
 10
23.5
 20
36.3558593844
 11
18.5
 21
36.3558593844
  0
LINE
  5
2BB
100
AcDbEntity
  8
RACCORDO
100
AcDbLine
 62
7
  6
CONTINUOUS
 10
-48.499311004
 20
36.4745422555
 11
-14.0
 21
36.4745422555
  0
LINE
  5
2BC
100
AcDbEntity
  8
RACCORDO
100
AcDbLine
 62
7
  6
CONTINUOUS
 10
14.0
 20
36.4745422555
 11
48.499311004
 21
36.4745422555
  0
LINE
  5
2BD
100
AcDbEntity
  8
RACCORDO
100
AcDbLine
 62
7
  6
CONTINUOUS
 10
-48.5000571154
 20
36.4752403901
 11
-14.0
 21
36.4752403901
  0
LINE
  5
2BE
100
AcDbEntity
  8
RACCORDO
100
AcDbLine
 62
7
  6
CONTINUOUS
 10
14.0
 20
36.4752403901
 11
48.5000571154
 21
36.4752403901
  0
LINE
  5
2BF
100
AcDbEntity
  8
0
100
AcDbLine
 62
7
  6
CONTINUOUS
 10
45.0
 20
-36.7747596099
 11
45.9
 21
-39.7747596099
  0
LINE
  5
2C0
100
AcDbEntity
  8
RACCORDO
100
AcDbLine
 62
253
  6
CONTINUOUS
 10
-13.2576942022
 20
38.7809199167
 11
-13.2577462112
 21
38.7809058169
  0
LINE
  5
2C1
100
AcDbEntity
  8
0
100
AcDbLine
 62
7
  6
CONTINUOUS
 10
-11.3490368418
 20
39.2922966003
 11
-13.2576940107
 21
38.780919968
  0
LINE
  5
2C2
100
AcDbEntity
  8
0
100
AcDbLine
 62
7
  6
CONTINUOUS
 10
11.3490368418
 20
39.2922966003
 11
13.2576940166
 21
38.7809199665
  0
LINE
  5
2C3
100
AcDbEntity
  8
RACCORDO
100
AcDbLine
 62
253
  6
CONTINUOUS
 10
13.2588190451
 20
38.7803170648
 11
13.2577009682
 21
38.7809181012
  0
LINE
  5
2C4
100
AcDbEntity
  8
RACCORDO
100
AcDbLine
 62
253
  6
CONTINUOUS
 10
11.6276457135
 20
40.5082746488
 11
11.6267699434
 21
40.5087727943
  0
LINE
  5
2C5
100
AcDbEntity
  8
0
100
AcDbLine
 62
7
  6
CONTINUOUS
 10
42.0
 20
-5.5840699866
 11
42.0
 21
-7.3033802926
  0
LINE
  5
2C6
100
AcDbEntity
  8
0
100
AcDbLine
 62
7
  6
CONTINUOUS
 10
42.2772413492
 20
-7.3033802926
 11
42.2772413492
 21
-5.8923457458
  0
LINE
  5
2C7
100
AcDbEntity
  8
0
100
AcDbLine
 62
7
  6
CONTINUOUS
 10
45.0
 20
-7.0840699419
 11
45.0
 21
-6.7509665384
  0
LINE
  5
2C8
100
AcDbEntity
  8
0
100
AcDbLine
 62
7
  6
CONTINUOUS
 10
45.75
 20
26.7252403901
 11
45.75
 21
-36.7747596099
  0
LINE
  5
2C9
100
AcDbEntity
  8
0
100
AcDbLine
 62
7
  6
CONTINUOUS
 10
45.95
 20
26.7252403901
 11
45.95
 21
-36.7747596099
  0
LINE
  5
2CA
100
AcDbEntity
  8
0
100
AcDbLine
 62
7
  6
CONTINUOUS
 10
46.05
 20
26.7252403901
 11
46.05
 21
-36.7747596099
  0
LINE
  5
2CB
100
AcDbEntity
  8
RACCORDO
100
AcDbLine
 62
253
  6
CONTINUOUS
 10
-8.1269622962
 20
44.1220180012
 11
-8.1270346306
 21
44.1219979896
  0
LINE
  5
2CC
100
AcDbEntity
  8
RACCORDO
100
AcDbLine
 62
253
  6
CONTINUOUS
 10
-11.6266509104
 20
40.5088055656
 11
-11.6267698086
 21
40.5087728324
  0
LINE
  5
2CD
100
AcDbEntity
  8
RACCORDO
100
AcDbLine
 62
253
  6
CONTINUOUS
 10
-9.876806094
 20
42.3489053688
 11
-9.8768929074
 21
42.3488814961
  0
LINE
  5
2CE
100
AcDbEntity
  8
0
100
AcDbLine
 62
7
  6
CONTINUOUS
 10
-9.4491980753
 20
41.0921992335
 11
-11.6266590327
 21
40.508803394
  0
LINE
  5
2CF
100
AcDbEntity
  8
0
100
AcDbLine
 62
7
  6
CONTINUOUS
 10
-7.8493338509
 20
42.8921155089
 11
-9.8768075253
 21
42.3489049855
  0
LINE
  5
2D0
100
AcDbEntity
  8
0
100
AcDbLine
 62
7
  6
CONTINUOUS
 10
-5.9994908415
 20
44.6920204158
 11
-8.1269560409
 21
44.1220196809
  0
LINE
  5
2D1
100
AcDbEntity
  8
0
100
AcDbLine
 62
7
  6
CONTINUOUS
 10
-0.9999151402
 20
46.5917814703
 11
-3.8773167245
 21
45.820854163
  0
LINE
  5
2D2
100
AcDbEntity
  8
0
100
AcDbLine
 62
7
  6
CONTINUOUS
 10
9.4491980753
 20
41.0921992335
 11
11.6266590365
 21
40.508803393
  0
LINE
  5
2D3
100
AcDbEntity
  8
0
100
AcDbLine
 62
7
  6
CONTINUOUS
 10
7.8493338509
 20
42.8921155089
 11
9.8768075274
 21
42.348904985
  0
LINE
  5
2D4
100
AcDbEntity
  8
0
100
AcDbLine
 62
7
  6
CONTINUOUS
 10
5.9994908415
 20
44.6920204158
 11
8.1269560446
 21
44.1220196799
  0
LINE
  5
2D5
100
AcDbEntity
  8
0
100
AcDbLine
 62
7
  6
CONTINUOUS
 10
0.9999151402
 20
46.5917814703
 11
3.8773168281
 21
45.8208541352
  0
LINE
  5
2D6
100
AcDbEntity
  8
RACCORDO
100
AcDbLine
 62
253
  6
CONTINUOUS
 10
9.8768930728
 20
42.3488814495
 11
9.8768000584
 21
42.3489069816
  0
LINE
  5
2D7
100
AcDbEntity
  8
RACCORDO
100
AcDbLine
 62
253
  6
CONTINUOUS
 10
8.1270347072
 20
44.1219979682
 11
8.1269577302
 21
44.122019228
  0
LINE
  5
2D8
100
AcDbEntity
  8
RACCORDO
100
AcDbLine
 62
253
  6
CONTINUOUS
 10
11.6267699434
 20
40.5087727943
 11
11.6266639126
 21
40.508802085
  0
LINE
  5
2D9
100
AcDbEntity
  8
0
100
AcDbLine
 62
7
  6
CONTINUOUS
 10
1.0
 20
46.5917359963
 11
0.9998724855
 21
46.5917822683
  0
LINE
  5
2DA
100
AcDbEntity
  8
0
100
AcDbLine
 62
7
  6
CONTINUOUS
 10
6.0
 20
44.6917475718
 11
5.9994322769
 21
44.6920221787
  0
LINE
  5
2DB
100
AcDbEntity
  8
RACCORDO
100
AcDbLine
 62
253
  6
CONTINUOUS
 10
3.8776457135
 20
45.8206778489
 11
3.8773170971
 21
45.8208540631
  0
LINE
  5
2DC
100
AcDbEntity
  8
RACCORDO
100
AcDbLine
 62
253
  6
CONTINUOUS
 10
9.8776457135
 20
42.3484558165
 11
9.8768930728
 21
42.3488814495
  0
LINE
  5
2DD
100
AcDbEntity
  8
RACCORDO
100
AcDbLine
 62
253
  6
CONTINUOUS
 10
8.1276457135
 20
44.1216500943
 11
8.1270347072
 21
44.1219979682
  0
LINE
  5
2DE
100
AcDbEntity
  8
0
100
AcDbLine
 62
7
  6
CONTINUOUS
 10
46.25
 20
26.7252403901
 11
46.25
 21
-36.7747596099
  0
LINE
  5
2DF
100
AcDbEntity
  8
0
100
AcDbLine
 62
7
  6
CONTINUOUS
 10
48.0
 20
30.2252403901
 11
48.0
 21
29.7252403901
  0
LINE
  5
2E0
100
AcDbEntity
  8
0
100
AcDbLine
 62
7
  6
CONTINUOUS
 10
48.0
 20
-39.7747596099
 11
48.0
 21
-40.2747596099
  0
LINE
  5
2E1
100
AcDbEntity
  8
RACCORDO
100
AcDbLine
 62
253
  6
CONTINUOUS
 10
48.3631625847
 20
-45.3879191484
 11
48.3631625847
 21
-46.3879130561
  0
LINE
  5
2E2
100
AcDbEntity
  8
RACCORDO
100
AcDbLine
 62
253
  6
CONTINUOUS
 10
48.3631625847
 20
35.3383999286
 11
48.3631625847
 21
36.3383938362
  0
LINE
  5
2E3
100
AcDbEntity
  8
RACCORDO
100
AcDbLine
 62
253
  6
CONTINUOUS
 10
48.8631595385
 20
-44.8879221946
 11
48.8631595385
 21
34.8384029748
  0
LINE
  5
2E4
100
AcDbEntity
  8
RACCORDO
100
AcDbLine
 62
253
  6
CONTINUOUS
 10
49.8631534462
 20
-44.8879148199
 11
49.8631534462
 21
34.838396707
  0
LINE
  5
2E5
100
AcDbEntity
  8
RACCORDO
100
AcDbLine
 62
7
  6
CONTINUOUS
 10
49.9993018655
 20
34.9745513941
 11
49.9993018655
 21
-45.0240706139
  0
LINE
  5
2E6
100
AcDbEntity
  8
RACCORDO
100
AcDbLine
 62
7
  6
CONTINUOUS
 10
50.0
 20
34.9752975055
 11
50.0
 21
-45.0248167253
  0
LINE
  5
2E7
100
AcDbEntity
  8
0
100
AcDbLine
 62
7
  6
CONTINUOUS
 10
47.0
 20
26.7252403901
 11
46.1
 21
29.7252403901
  0
LINE
  5
2E8
100
AcDbEntity
  8
0
100
AcDbLine
 62
7
  6
CONTINUOUS
 10
46.1
 20
-39.7747596099
 11
47.0
 21
-36.7747596099
  0
ARC
  5
2E9
100
AcDbEntity
  8
0
100
AcDbCircle
 62
7
  6
CONTINUOUS
 10
-5.4088492284
 20
460.1725537592
 40
418.6093037049
100
AcDbArc
 50
269.6992863949
 51
269.8301101242
  0
ARC
  5
2EA
100
AcDbEntity
  8
0
100
AcDbCircle
 62
7
  6
CONTINUOUS
 10
-12.1719671157
 20
-89.3818937694
 40
125.7480936245
100
AcDbArc
 50
89.6938852581
 51
89.899028844
  0
ARC
  5
2EB
100
AcDbEntity
  8
0
100
AcDbCircle
 62
7
  6
CONTINUOUS
 10
-9.6827366599
 20
48.9022553327
 40
7.3314158772
100
AcDbArc
 50
271.5018671246
 51
271.81947657
  0
CIRCLE
  5
2EC
100
AcDbEntity
  8
RACCORDO
100
AcDbCircle
 62
253
  6
CONTINUOUS
 10
-41.0
 20
21.9752403901
 40
3.2326972496
  0
CIRCLE
  5
2ED
100
AcDbEntity
  8
RACCORDO
100
AcDbCircle
 62
253
  6
CONTINUOUS
 10
-41.0
 20
-32.0247596099
 40
3.2326972496
  0
ARC
  5
2EE
100
AcDbEntity
  8
ASSI
100
AcDbCircle
 62
7
  6
CONTINUOUS
 10
-31.0
 20
30.9752403901
 40
2.25
100
AcDbArc
 50
0.0
 51
180.0
  0
ARC
  5
2EF
100
AcDbEntity
  8
ASSI
100
AcDbCircle
 62
7
  6
CONTINUOUS
 10
-31.0
 20
28.9752403901
 40
2.25
100
AcDbArc
 50
180.0
 51
360.0
  0
ARC
  5
2F0
100
AcDbEntity
  8
ASSI
100
AcDbCircle
 62
7
  6
CONTINUOUS
 10
-29.5
 20
-40.0247596099
 40
2.25
100
AcDbArc
 50
270.0
 51
90.0
  0
ARC
  5
2F1
100
AcDbEntity
  8
ASSI
100
AcDbCircle
 62
7
  6
CONTINUOUS
 10
-32.5
 20
-40.0247596099
 40
2.25
100
AcDbArc
 50
90.0
 51
270.0
  0
CIRCLE
  5
2F2
100
AcDbEntity
  8
RACCORDO
100
AcDbCircle
 62
253
  6
CONTINUOUS
 10
-41.0
 20
21.9752403901
 40
2.232849568
  0
CIRCLE
  5
2F3
100
AcDbEntity
  8
RACCORDO
100
AcDbCircle
 62
253
  6
CONTINUOUS
 10
-41.0
 20
-32.0247596099
 40
2.232849568
  0
CIRCLE
  5
2F4
100
AcDbEntity
  8
DRAFT
100
AcDbCircle
 62
7
  6
CONTINUOUS
 10
-41.0
 20
21.9752403901
 40
1.9008987014
  0
CIRCLE
  5
2F5
100
AcDbEntity
  8
DRAFT
100
AcDbCircle
 62
7
  6
CONTINUOUS
 10
-41.0
 20
-32.0247596099
 40
1.9008987014
  0
ARC
  5
2F6
100
AcDbEntity
  8
0
100
AcDbCircle
 62
7
  6
CONTINUOUS
 10
-11.3297114873
 20
41.5766698892
 40
1.8054639718
100
AcDbArc
 50
268.327342723
 51
269.3487336804
  0
ARC
  5
2F7
100
AcDbEntity
  8
RACCORDO
100
AcDbCircle
 62
253
  6
CONTINUOUS
 10
-48.3631491383
 20
-44.8879087483
 40
1.5000043079
100
AcDbArc
 50
180.0002742032
 51
269.99976808
  0
ARC
  5
2F8
100
AcDbEntity
  8
RACCORDO
100
AcDbCircle
 62
253
  6
CONTINUOUS
 10
-48.3631491383
 20
34.8383895284
 40
1.5000043079
100
AcDbArc
 50
90.0002742032
 51
179.99976808
  0
ARC
  5
2F9
100
AcDbEntity
  8
SMUSSO
100
AcDbCircle
 62
7
  6
CONTINUOUS
 10
-31.0
 20
28.9752403901
 40
1.4999998167
100
AcDbArc
 50
180.0
 51
360.0
  0
ARC
  5
2FA
100
AcDbEntity
  8
SMUSSO
100
AcDbCircle
 62
7
  6
CONTINUOUS
 10
-31.0
 20
30.9752403901
 40
1.4999998167
100
AcDbArc
 50
0.0
 51
180.0
  0
ARC
  5
2FB
100
AcDbEntity
  8
SMUSSO
100
AcDbCircle
 62
7
  6
CONTINUOUS
 10
-32.5
 20
-40.0247596099
 40
1.4999998167
100
AcDbArc
 50
90.0
 51
270.0
  0
ARC
  5
2FC
100
AcDbEntity
  8
SMUSSO
100
AcDbCircle
 62
7
  6
CONTINUOUS
 10
-29.5
 20
-40.0247596099
 40
1.4999998167
100
AcDbArc
 50
270.0
 51
90.0
  0
ARC
  5
2FD
100
AcDbEntity
  8
SMUSSO
100
AcDbCircle
 62
7
  6
CONTINUOUS
 10
-31.0
 20
30.9752403901
 40
1.1999999108
100
AcDbArc
 50
0.0
 51
180.0
  0
ARC
  5
2FE
100
AcDbEntity
  8
SMUSSO
100
AcDbCircle
 62
7
  6
CONTINUOUS
 10
-31.0
 20
28.9752403901
 40
1.1999999108
100
AcDbArc
 50
180.0
 51
360.0
  0
ARC
  5
2FF
100
AcDbEntity
  8
SMUSSO
100
AcDbCircle
 62
7
  6
CONTINUOUS
 10
-29.5
 20
-40.0247596099
 40
1.1999999108
100
AcDbArc
 50
270.0
 51
90.0
  0
ARC
  5
300
100
AcDbEntity
  8
SMUSSO
100
AcDbCircle
 62
7
  6
CONTINUOUS
 10
-32.5
 20
-40.0247596099
 40
1.1999999108
100
AcDbArc
 50
90.0
 51
270.0
  0
ARC
  5
301
100
AcDbEntity
  8
RACCORDO
100
AcDbCircle
 62
7
  6
CONTINUOUS
 10
-12.99943806
 20
37.8142296715
 40
1.000576375
100
AcDbArc
 50
104.9606088197
 51
179.9904111072
  0
ARC
  5
302
100
AcDbEntity
  8
RACCORDO
100
AcDbCircle
 62
253
  6
CONTINUOUS
 10
-48.3631638447
 20
-44.8879234546
 40
0.4999956938
100
AcDbArc
 50
179.9998556137
 51
270.0001443863
  0
ARC
  5
303
100
AcDbEntity
  8
RACCORDO
100
AcDbCircle
 62
253
  6
CONTINUOUS
 10
-48.3631638447
 20
34.8384042348
 40
0.4999956938
100
AcDbArc
 50
89.9998556137
 51
180.0001443863
  0
ARC
  5
304
100
AcDbEntity
  8
RACCORDO
100
AcDbCircle
 62
7
  6
CONTINUOUS
 10
-8.0496597123
 20
43.8317784412
 40
0.3003467998
100
AcDbArc
 50
104.9139468992
 51
179.9817489615
  0
ARC
  5
305
100
AcDbEntity
  8
RACCORDO
100
AcDbCircle
 62
7
  6
CONTINUOUS
 10
-3.7998568332
 20
45.5308634871
 40
0.3001459007
100
AcDbArc
 50
104.9437166023
 51
179.9926735894
  0
ARC
  5
306
100
AcDbEntity
  8
0
100
AcDbCircle
 62
7
  6
CONTINUOUS
 10
12.1719626504
 20
-89.3807590385
 40
125.746958886
100
AcDbArc
 50
90.1009747691
 51
90.3061154697
  0
CIRCLE
  5
307
100
AcDbEntity
  8
0
100
AcDbCircle
 62
7
  6
CONTINUOUS
 10
0.0
 20
-5.0247596099
 40
11.5
  0
CIRCLE
  5
308
100
AcDbEntity
  8
0
100
AcDbCircle
 62
7
  6
CONTINUOUS
 10
0.0
 20
-5.0247596099
 40
11.25
  0
CIRCLE
  5
309
100
AcDbEntity
  8
0
100
AcDbCircle
 62
7
  6
CONTINUOUS
 10
0.0
 20
-5.0247596099
 40
10.557179677
  0
ARC
  5
30A
100
AcDbEntity
  8
0
100
AcDbCircle
 62
7
  6
CONTINUOUS
 10
9.6827366599
 20
48.9022553316
 40
7.3314158761
100
AcDbArc
 50
268.18052343
 51
268.4981328754
  0
ARC
  5
30B
100
AcDbEntity
  8
0
100
AcDbCircle
 62
7
  6
CONTINUOUS
 10
11.3297114873
 20
41.5766698892
 40
1.8054639718
100
AcDbArc
 50
270.6512663196
 51
271.672657277
  0
ARC
  5
30C
100
AcDbEntity
  8
RACCORDO
100
AcDbCircle
 62
7
  6
CONTINUOUS
 10
12.9994429749
 20
37.8142196398
 40
1.0005765389
100
AcDbArc
 50
0.0101633917
 51
75.0424970888
  0
ARC
  5
30D
100
AcDbEntity
  8
RACCORDO
100
AcDbCircle
 62
7
  6
CONTINUOUS
 10
3.7998427018
 20
45.5308539366
 40
0.3001620331
100
AcDbArc
 50
0.0091491296
 51
75.0440347186
  0
ARC
  5
30E
100
AcDbEntity
  8
0
100
AcDbCircle
 62
7
  6
CONTINUOUS
 10
5.4088492285
 20
460.1725537527
 40
418.6093036984
100
AcDbArc
 50
270.1698898758
 51
270.3007136051
  0
ARC
  5
30F
100
AcDbEntity
  8
0
100
AcDbCircle
 62
7
  6
CONTINUOUS
 10
43.4998313443
 20
-8.5047838013
 40
5.1676109833
100
AcDbArc
 50
89.9751904083
 51
94.4497669162
  0
ARC
  5
310
100
AcDbEntity
  8
0
100
AcDbCircle
 62
7
  6
CONTINUOUS
 10
43.5065747333
 20
-8.3410362611
 40
5.0038649873
100
AcDbArc
 50
85.5244420619
 51
90.0515924085
  0
ARC
  5
311
100
AcDbEntity
  8
0
100
AcDbCircle
 62
7
  6
CONTINUOUS
 10
43.4976639605
 20
-1.5738700194
 40
3.4391663291
100
AcDbArc
 50
261.1837311368
 51
270.0389179248
  0
ARC
  5
312
100
AcDbEntity
  8
0
100
AcDbCircle
 62
7
  6
CONTINUOUS
 10
43.5001820594
 20
-1.6531407427
 40
3.3598948173
100
AcDbArc
 50
269.9968953689
 51
278.850671849
  0
CIRCLE
  5
313
100
AcDbEntity
  8
RACCORDO
100
AcDbCircle
 62
253
  6
CONTINUOUS
 10
41.0
 20
21.9752403901
 40
3.2326972496
  0
CIRCLE
  5
314
100
AcDbEntity
  8
RACCORDO
100
AcDbCircle
 62
253
  6
CONTINUOUS
 10
41.0
 20
-32.0247596099
 40
3.2326972496
  0
ARC
  5
315
100
AcDbEntity
  8
ASSI
100
AcDbCircle
 62
7
  6
CONTINUOUS
 10
29.5
 20
-40.0247596099
 40
2.25
100
AcDbArc
 50
90.0
 51
270.0
  0
ARC
  5
316
100
AcDbEntity
  8
ASSI
100
AcDbCircle
 62
7
  6
CONTINUOUS
 10
31.0
 20
30.9752403901
 40
2.25
100
AcDbArc
 50
0.0
 51
180.0
  0
ARC
  5
317
100
AcDbEntity
  8
ASSI
100
AcDbCircle
 62
7
  6
CONTINUOUS
 10
31.0
 20
28.9752403901
 40
2.25
100
AcDbArc
 50
180.0
 51
360.0
  0
ARC
  5
318
100
AcDbEntity
  8
0
100
AcDbCircle
 62
7
  6
CONTINUOUS
 10
32.5
 20
-40.0247596099
 40
2.25
100
AcDbArc
 50
270.0
 51
90.0
  0
CIRCLE
  5
319
100
AcDbEntity
  8
RACCORDO
100
AcDbCircle
 62
253
  6
CONTINUOUS
 10
41.0
 20
21.9752403901
 40
2.232849568
  0
CIRCLE
  5
31A
100
AcDbEntity
  8
RACCORDO
100
AcDbCircle
 62
253
  6
CONTINUOUS
 10
41.0
 20
-32.0247596099
 40
2.232849568
  0
CIRCLE
  5
31B
100
AcDbEntity
  8
DRAFT
100
AcDbCircle
 62
7
  6
CONTINUOUS
 10
41.0
 20
21.9752403901
 40
1.9008987014
  0
CIRCLE
  5
31C
100
AcDbEntity
  8
DRAFT
100
AcDbCircle
 62
7
  6
CONTINUOUS
 10
41.0
 20
-32.0247596099
 40
1.9008987014
  0
ARC
  5
31D
100
AcDbEntity
  8
0
100
AcDbCircle
 62
7
  6
CONTINUOUS
 10
43.766708903
 20
-4.9938912985
 40
1.6466282081
100
AcDbArc
 50
70.4350025415
 51
85.4600862974
  0
ARC
  5
31E
100
AcDbEntity
  8
RACCORDO
100
AcDbCircle
 62
253
  6
CONTINUOUS
 10
48.3631491383
 20
34.8383895284
 40
1.5000043079
100
AcDbArc
 50
0.0002742032
 51
89.99976808
  0
ARC
  5
31F
100
AcDbEntity
  8
RACCORDO
100
AcDbCircle
 62
253
  6
CONTINUOUS
 10
48.3631491383
 20
-44.8879087483
 40
1.5000043079
100
AcDbArc
 50
270.0002742032
 51
359.99976808
  0
ARC
  5
320
100
AcDbEntity
  8
SMUSSO
100
AcDbCircle
 62
7
  6
CONTINUOUS
 10
31.0
 20
28.9752403901
 40
1.4999998167
100
AcDbArc
 50
180.0
 51
360.0
  0
ARC
  5
321
100
AcDbEntity
  8
SMUSSO
100
AcDbCircle
 62
7
  6
CONTINUOUS
 10
31.0
 20
30.9752403901
 40
1.4999998167
100
AcDbArc
 50
0.0
 51
180.0
  0
ARC
  5
322
100
AcDbEntity
  8
SMUSSO
100
AcDbCircle
 62
7
  6
CONTINUOUS
 10
32.5
 20
-40.0247596099
 40
1.4999998167
100
AcDbArc
 50
270.0
 51
90.0
  0
ARC
  5
323
100
AcDbEntity
  8
SMUSSO
100
AcDbCircle
 62
7
  6
CONTINUOUS
 10
29.5
 20
-40.0247596099
 40
1.4999998167
100
AcDbArc
 50
90.0
 51
270.0
  0
ARC
  5
324
100
AcDbEntity
  8
SMUSSO
100
AcDbCircle
 62
7
  6
CONTINUOUS
 10
29.5
 20
-40.0247596099
 40
1.1999999108
100
AcDbArc
 50
90.0
 51
270.0
  0
ARC
  5
325
100
AcDbEntity
  8
SMUSSO
100
AcDbCircle
 62
7
  6
CONTINUOUS
 10
32.5
 20
-40.0247596099
 40
1.1999999108
100
AcDbArc
 50
270.0
 51
90.0
  0
ARC
  5
326
100
AcDbEntity
  8
SMUSSO
100
AcDbCircle
 62
7
  6
CONTINUOUS
 10
31.0
 20
30.9752403901
 40
1.1999999108
100
AcDbArc
 50
0.0
 51
180.0
  0
ARC
  5
327
100
AcDbEntity
  8
SMUSSO
100
AcDbCircle
 62
7
  6
CONTINUOUS
 10
31.0
 20
28.9752403901
 40
1.1999999108
100
AcDbArc
 50
180.0
 51
360.0
  0
ARC
  5
328
100
AcDbEntity
  8
RACCORDO
100
AcDbCircle
 62
253
  6
CONTINUOUS
 10
48.3631638447
 20
34.8384042348
 40
0.4999956938
100
AcDbArc
 50
359.9998556137
 51
90.0001443863
  0
ARC
  5
329
100
AcDbEntity
  8
RACCORDO
100
AcDbCircle
 62
253
  6
CONTINUOUS
 10
48.3631638447
 20
-44.8879234546
 40
0.4999956938
100
AcDbArc
 50
269.9998556137
 51
0.0001443863
  0
ARC
  5
32A
100
AcDbEntity
  8
0
100
AcDbCircle
 62
7
  6
CONTINUOUS
 10
-0.0
 20
1622.2925868094
 40
1577.6218174878
100
AcDbArc
 50
269.8692541272
 51
270.1307458728
  0
SPLINE
  5
32B
100
AcDbEntity
  8
RACCORDO
100
AcDbSpline
 62
7
  6
CONTINUOUS
 70
0
 71
3
 72
15
 73
11
 74
9
 42
0.0000001
 43
0.0000001
 44
0.0000000001
 12
0.3795408596
 22
-0.1016985707
 32
0.0
 13
0.0
 23
-0.3927687851
 33
0.0
 40
0.0
 40
0.0
 40
0.0
 40
0.0
 40
0.002394879
 40
0.1077685031
 40
0.2027093244
 40
0.3065635109
 40
0.4553849028
 40
0.598637141
 40
0.7739732618
 40
1.0
 40
1.0
 40
1.0
 40
1.0
 10
8.1269575742
 20
44.1220192944
 30
0.0
 10
8.127260559
 20
44.1219381092
 30
0.0
 10
8.1408893
 20
44.118263698
 30
0.0
 10
8.1660586869
 20
44.1095642967
 30
0.0
 10
8.2017685166
 20
44.0917174034
 30
0.0
 10
8.2396130296
 20
44.0662013372
 30
0.0
 10
8.2774876971
 20
44.0303022325
 30
0.0
 10
8.3132799395
 20
43.980231991
 30
0.0
 10
8.3420950736
 20
43.9143819316
 30
0.0
 10
8.35
 20
43.8614661943
 30
0.0
 10
8.35
 20
43.8318741119
 30
0.0
 11
8.1269575742
 21
44.1220192944
 31
0.0
 11
8.1278661645
 21
44.121774331
 31
0.0
 11
8.1669791686
 21
44.1082430484
 31
0.0
 11
8.2003351801
 21
44.0915725652
 31
0.0
 11
8.2341537139
 21
44.0687649664
 31
0.0
 11
8.2765732533
 21
44.0285497277
 31
0.0
 11
8.309298661
 21
43.982780756
 31
0.0
 11
8.3368690213
 21
43.9196738812
 31
0.0
 11
8.35
 21
43.8318741119
 31
0.0
  0
SPLINE
  5
32C
100
AcDbEntity
  8
RACCORDO
100
AcDbSpline
 62
7
  6
CONTINUOUS
 70
0
 71
3
 72
14
 73
10
 74
8
 42
0.0000001
 43
0.0000001
 44
0.0000000001
 12
0.3795736856
 22
-0.10169585
 32
0.0
 13
0.0
 23
-0.3928348336
 33
0.0
 40
0.0
 40
0.0
 40
0.0
 40
0.0
 40
0.0522548891
 40
0.1564450196
 40
0.2708232944
 40
0.4093623182
 40
0.5743965336
 40
0.7577060492
 40
1.0
 40
1.0
 40
1.0
 40
1.0
 10
9.8767999054
 20
42.3489068122
 30
0.0
 10
9.8834114324
 20
42.3471354438
 30
0.0
 10
9.9030307287
 20
42.3411700015
 30
0.0
 10
9.9358442835
 20
42.327427359
 30
0.0
 10
9.9761162091
 20
42.3033266074
 30
0.0
 10
10.0180395708
 20
42.2676842926
 30
0.0
 10
10.0578038837
 20
42.2171883191
 30
0.0
 10
10.090982762
 20
42.146593351
 30
0.0
 10
10.1
 20
42.090407002
 30
0.0
 10
10.1
 20
42.0586798341
 30
0.0
 11
9.8767999054
 21
42.3489068122
 31
0.0
 11
9.8964436001
 21
42.3429302158
 31
0.0
 11
9.9341931783
 21
42.3271126831
 31
0.0
 11
9.9727467327
 21
42.3040369935
 31
0.0
 11
10.0142037145
 21
42.2687782837
 31
0.0
 11
10.0543177932
 21
42.2178475101
 31
0.0
 11
10.0849069688
 21
42.1526570605
 31
0.0
 11
10.1
 21
42.0586798341
 31
0.0
  0
SPLINE
  5
32D
100
AcDbEntity
  8
RACCORDO
100
AcDbSpline
 62
7
  6
CONTINUOUS
 70
0
 71
3
 72
12
 73
8
 74
6
 42
0.0000001
 43
0.0000001
 44
0.0000000001
 12
0.0
 22
0.3920708352
 32
0.0
 13
0.3790356931
 23
0.1015212896
 33
0.0
 40
0.0
 40
0.0
 40
0.0
 40
0.0
 40
0.2734082841
 40
0.5072715654
 40
0.7562838997
 40
0.957594239
 40
1.0
 40
1.0
 40
1.0
 40
1.0
 10
-10.1
 20
42.0586798341
 30
0.0
 10
-10.1
 20
42.0944116388
 30
0.0
 10
-10.0878636753
 20
42.1613636757
 30
0.0
 10
-10.0386630258
 20
42.2487052233
 30
0.0
 10
-9.9715157005
 20
42.3102649426
 30
0.0
 10
-9.9127402213
 20
42.3383876159
 30
0.0
 10
-9.8821633851
 20
42.3474689286
 30
0.0
 10
-9.8768056195
 20
42.3489039578
 30
0.0
 11
-10.1
 21
42.0586798341
 31
0.0
 11
-10.0808564512
 21
42.1641520171
 31
0.0
 11
-10.0359011188
 21
42.2440660486
 31
0.0
 11
-9.963922738
 21
42.3100268106
 31
0.0
 11
-9.8927583503
 21
42.344162501
 31
0.0
 11
-9.8768056195
 21
42.3489039578
 31
0.0
  0
SPLINE
  5
32E
100
AcDbEntity
  8
RACCORDO
100
AcDbSpline
 62
7
  6
CONTINUOUS
 70
0
 71
3
 72
14
 73
10
 74
8
 42
0.0000001
 43
0.0000001
 44
0.0000000001
 12
0.3796245504
 22
-0.1017117921
 32
0.0
 13
0.0
 23
-0.3929072201
 33
0.0
 40
0.0
 40
0.0
 40
0.0
 40
0.0
 40
0.0244453522
 40
0.1263297269
 40
0.2456861875
 40
0.3794207982
 40
0.5596756007
 40
0.7497678827
 40
1.0
 40
1.0
 40
1.0
 40
1.0
 10
11.6266637359
 20
40.5088020037
 30
0.0
 10
11.6297570879
 20
40.5079732101
 30
0.0
 10
11.645677328
 20
40.5034408902
 30
0.0
 10
11.6758976322
 20
40.4921119714
 30
0.0
 10
11.7167996203
 20
40.469612748
 30
0.0
 10
11.7615657545
 20
40.4342801009
 30
0.0
 10
11.8043482531
 20
40.3831384863
 30
0.0
 10
11.8403470559
 20
40.3094437972
 30
0.0
 10
11.85
 20
40.2512713348
 30
0.0
 10
11.85
 20
40.2184986663
 30
0.0
 11
11.6266637359
 21
40.5088020037
 31
0.0
 11
11.6359040851
 21
40.5061707511
 31
0.0
 11
11.6733835252
 21
40.4921072859
 31
0.0
 11
11.7144718718
 21
40.4695023306
 31
0.0
 11
11.7557102026
 21
40.4369384241
 31
0.0
 11
11.8011564772
 21
40.3826190721
 31
0.0
 11
11.8338970511
 21
40.3154890022
 31
0.0
 11
11.85
 21
40.2184986663
 31
0.0
  0
SPLINE
  5
32F
100
AcDbEntity
  8
RACCORDO
100
AcDbSpline
 62
7
  6
CONTINUOUS
 70
0
 71
3
 72
12
 73
8
 74
6
 42
0.0000001
 43
0.0000001
 44
0.0000000001
 12
0.0
 22
0.3922877916
 32
0.0
 13
0.3791939815
 23
0.1015824292
 33
0.0
 40
0.0
 40
0.0
 40
0.0
 40
0.0
 40
0.2726958643
 40
0.5072663796
 40
0.7555266624
 40
0.9463409624
 40
1.0
 40
1.0
 40
1.0
 40
1.0
 10
-11.85
 20
40.2184986663
 30
0.0
 10
-11.85
 20
40.2541570857
 30
0.0
 10
-11.8378845063
 20
40.3211413019
 30
0.0
 10
-11.7887233253
 20
40.4084661531
 30
0.0
 10
-11.7225747723
 20
40.4691158397
 30
0.0
 10
-11.664059387
 20
40.4976553418
 30
0.0
 10
-11.6334327439
 20
40.5069870559
 30
0.0
 10
-11.6266503492
 20
40.5088039944
 30
0.0
 11
-11.85
 21
40.2184986663
 31
0.0
 11
-11.830936403
 21
40.3237615998
 31
0.0
 11
-11.7858390444
 21
40.4039722731
 31
0.0
 11
-11.7140476118
 21
40.4697803322
 31
0.0
 11
-11.6468003415
 21
40.5026580447
 31
0.0
 11
-11.6266503492
 21
40.5088039944
 31
0.0
  0
SPLINE
  5
330
100
AcDbEntity
  8
0
100
AcDbSpline
 62
7
  6
CONTINUOUS
 70
0
 71
3
 72
20
 73
16
 74
14
 42
0.0000001
 43
0.0000001
 44
0.0000000001
 12
-0.0104148207
 22
1.9898498617
 32
0.0
 13
-0.0104148207
 23
-1.9898498617
 33
0.0
 40
0.0
 40
0.0
 40
0.0
 40
0.0
 40
0.0145119768
 40
0.057257896
 40
0.1257333531
 40
0.2159593452
 40
0.3226924825
 40
0.4397299498
 40
0.5602700502
 40
0.6773075175
 40
0.7840406548
 40
0.8742666469
 40
0.942742104
 40
0.9854880232
 40
1.0
 40
1.0
 40
1.0
 40
1.0
 10
0.9999998774
 20
46.5917829351
 30
0.0
 10
0.9999494976
 20
46.6014084868
 30
0.0
 10
0.9385085698
 20
46.5800343956
 30
0.0
 10
0.8766304387
 20
46.6013786155
 30
0.0
 10
0.730442716
 20
46.5907872608
 30
0.0
 10
0.5583392833
 20
46.5958768526
 30
0.0
 10
0.3473230568
 20
46.5946684499
 30
0.0
 10
0.118349046
 20
46.5953162661
 30
0.0
 10
-0.118349046
 20
46.5953162661
 30
0.0
 10
-0.3473230568
 20
46.5946684499
 30
0.0
 10
-0.5583392833
 20
46.5958768526
 30
0.0
 10
-0.730442716
 20
46.5907872608
 30
0.0
 10
-0.8766304387
 20
46.6013786155
 30
0.0
 10
-0.9385085698
 20
46.5800343956
 30
0.0
 10
-0.9999494976
 20
46.6014084868
 30
0.0
 10
-0.9999998774
 20
46.5917829351
 30
0.0
 11
0.9999998774
 21
46.5917829351
 31
0.0
 11
0.9709418174
 21
46.5925713639
 31
0.0
 11
0.8854560257
 21
46.5933581829
 31
0.0
 11
0.7485107482
 21
46.5940507264
 31
0.0
 11
0.5680647467
 21
46.5946087461
 31
0.0
 11
0.354604887
 21
46.5949998121
 31
0.0
 11
0.1205366803
 21
46.595201197
 31
0.0
 11
-0.1205366803
 21
46.595201197
 31
0.0
 11
-0.354604887
 21
46.5949998121
 31
0.0
 11
-0.5680647467
 21
46.5946087461
 31
0.0
 11
-0.7485107482
 21
46.5940507264
 31
0.0
 11
-0.8854560257
 21
46.5933581829
 31
0.0
 11
-0.9709418174
 21
46.5925713639
 31
0.0
 11
-0.9999998774
 21
46.5917829351
 31
0.0
  0
SPLINE
  5
331
100
AcDbEntity
  8
0
100
AcDbSpline
 62
7
  6
CONTINUOUS
 70
0
 71
3
 72
14
 73
10
 74
8
 42
0.0000001
 43
0.0000001
 44
0.0000000001
 12
-0.0326133612
 22
2.3688919197
 32
0.0
 13
-2.3989065169
 23
0.0071747819
 33
0.0
 40
0.0
 40
0.0
 40
0.0
 40
0.0
 40
0.0278360261
 40
0.1109945261
 40
0.247515887
 40
0.434352907
 40
0.6673328339
 40
0.9412517187
 40
1.0
 40
1.0
 40
1.0
 40
1.0
 10
5.9999980671
 20
44.6920299681
 30
0.0
 10
5.9996954584
 20
44.7140101472
 30
0.0
 10
5.8570330506
 20
44.6671921747
 30
0.0
 10
5.7106956263
 20
44.7167271354
 30
0.0
 10
5.3566050212
 20
44.6931343072
 30
0.0
 10
4.9239570863
 20
44.7069866874
 30
0.0
 10
4.3643654007
 20
44.7051371504
 30
0.0
 10
3.9129703825
 20
44.7075737317
 30
0.0
 10
3.6470217592
 20
44.7084485773
 30
0.0
 10
3.6000445476
 20
44.7085890794
 30
0.0
 11
5.9999980671
 21
44.6920299681
 31
0.0
 11
5.9329849574
 21
44.6948690994
 31
0.0
 11
5.7334368347
 21
44.6979208972
 31
0.0
 11
5.4058132074
 21
44.7008347931
 31
0.0
 11
4.9574326459
 21
44.7035456955
 31
0.0
 11
4.398311231
 21
44.7059930474
 31
0.0
 11
3.7409388112
 21
44.7081221788
 31
0.0
 11
3.6000445476
 21
44.7085890794
 31
0.0
  0
SPLINE
  5
332
100
AcDbEntity
  8
0
100
AcDbSpline
 62
7
  6
CONTINUOUS
 70
0
 71
3
 72
14
 73
10
 74
8
 42
0.0000001
 43
0.0000001
 44
0.0000000001
 12
-2.3989065169
 22
-0.0071747819
 32
0.0
 13
-0.0326133612
 23
-2.3688919197
 33
0.0
 40
0.0
 40
0.0
 40
0.0
 40
0.0
 40
0.0587482813
 40
0.3326671661
 40
0.565647093
 40
0.752484113
 40
0.8890054739
 40
0.9721639739
 40
1.0
 40
1.0
 40
1.0
 40
1.0
 10
-3.6000445476
 20
44.7085890794
 30
0.0
 10
-3.6470217592
 20
44.7084485773
 30
0.0
 10
-3.9129703825
 20
44.7075737317
 30
0.0
 10
-4.3643654007
 20
44.7051371504
 30
0.0
 10
-4.9239570863
 20
44.7069866874
 30
0.0
 10
-5.3566050212
 20
44.6931343072
 30
0.0
 10
-5.7106956263
 20
44.7167271354
 30
0.0
 10
-5.8570330506
 20
44.6671921747
 30
0.0
 10
-5.9996954584
 20
44.7140101472
 30
0.0
 10
-5.9999980671
 20
44.6920299681
 30
0.0
 11
-3.6000445476
 21
44.7085890794
 31
0.0
 11
-3.7409388112
 21
44.7081221788
 31
0.0
 11
-4.398311231
 21
44.7059930474
 31
0.0
 11
-4.9574326459
 21
44.7035456955
 31
0.0
 11
-5.4058132074
 21
44.7008347931
 31
0.0
 11
-5.7334368347
 21
44.6979208972
 31
0.0
 11
-5.9329849574
 21
44.6948690994
 31
0.0
 11
-5.9999980671
 21
44.6920299681
 31
0.0
  0
SPLINE
  5
333
100
AcDbEntity
  8
0
100
AcDbSpline
 62
7
  6
CONTINUOUS
 70
0
 71
3
 72
12
 73
8
 74
6
 42
0.0000001
 43
0.0000001
 44
0.0000000001
 12
0.0
 22
-2.0503172856
 32
0.0
 13
-2.059116993
 23
-0.0039367388
 33
0.0
 40
0.0
 40
0.0
 40
0.0
 40
0.0
 40
0.0430172183
 40
0.1713074409
 40
0.3833019701
 40
0.6763413993
 40
1.0
 40
1.0
 40
1.0
 40
1.0
 10
14.0
 20
36.3917981382
 30
0.0
 10
14.0
 20
36.3623984895
 30
0.0
 10
13.8119887123
 20
36.421026446
 30
0.0
 10
13.6182114134
 20
36.3564690853
 30
0.0
 10
13.1469656457
 20
36.3854168607
 30
0.0
 10
12.5964387142
 20
36.3669093904
 30
0.0
 10
12.1725039034
 20
36.3664292917
 30
0.0
 10
11.9503535952
 20
36.3660045719
 30
0.0
 11
14.0
 21
36.3917981382
 31
0.0
 11
13.9119709385
 21
36.3863265328
 31
0.0
 11
13.6489907705
 21
36.380923736
 31
0.0
 11
13.2143666243
 21
36.3756576912
 31
0.0
 11
12.6135641506
 21
36.3705946218
 31
0.0
 11
11.9503535952
 21
36.3660045719
 31
0.0
  0
SPLINE
  5
334
100
AcDbEntity
  8
0
100
AcDbSpline
 62
7
  6
CONTINUOUS
 70
0
 71
3
 72
16
 73
12
 74
10
 42
0.0000001
 43
0.0000001
 44
0.0000000001
 12
-11.5001861537
 22
-0.0581883319
 32
0.0
 13
-11.5007021136
 23
-0.0000000011
 33
0.0
 40
0.0
 40
0.0
 40
0.0
 40
0.0
 40
0.0482613695
 40
0.1392257062
 40
0.2410145646
 40
0.352347942
 40
0.4718257954
 40
0.5979456531
 40
0.7291215111
 40
0.8637037808
 40
1.0
 40
1.0
 40
1.0
 40
1.0
 10
11.5001346975
 20
36.3644051479
 30
0.0
 10
11.3151297863
 20
36.3634690651
 30
0.0
 10
10.7824150404
 20
36.3600956215
 30
0.0
 10
9.857819473
 20
36.3571144662
 30
0.0
 10
8.6923236989
 20
36.3533113352
 30
0.0
 10
7.4172103354
 20
36.3502463396
 30
0.0
 10
6.0489148748
 20
36.3476090046
 30
0.0
 10
4.6045230974
 20
36.3455413558
 30
0.0
 10
3.1022348412
 20
36.3440392189
 30
0.0
 10
1.5609320648
 20
36.3431314096
 30
0.0
 10
0.5225011283
 20
36.3429290185
 30
0.0
 10
0.0000003896
 20
36.3429290184
 30
0.0
 11
11.5001346975
 21
36.3644051479
 31
0.0
 11
10.9456407546
 21
36.3613287404
 31
0.0
 11
9.8994949366
 21
36.3572424522
 31
0.0
 11
8.728857226
 21
36.3535907218
 31
0.0
 11
7.4484490712
 21
36.3504194719
 31
0.0
 11
6.0743723476
 21
36.3477685827
 31
0.0
 11
4.6239068674
 21
36.3456713907
 31
0.0
 11
3.1152930754
 21
36.3441542693
 31
0.0
 11
1.5675026654
 21
36.3432362972
 31
0.0
 11
0.0000003896
 21
36.3429290184
 31
0.0
  0
SPLINE
  5
335
100
AcDbEntity
  8
0
100
AcDbSpline
 62
7
  6
CONTINUOUS
 70
0
 71
3
 72
16
 73
12
 74
10
 42
0.0000001
 43
0.0000001
 44
0.0000000001
 12
-11.5007028928
 22
-0.0000000011
 32
0.0
 13
-11.5001869329
 23
0.0581883358
 33
0.0
 40
0.0
 40
0.0
 40
0.0
 40
0.0
 40
0.1362962777
 40
0.2708785383
 40
0.4020543875
 40
0.5281742365
 40
0.6476520819
 40
0.7589854517
 40
0.8607743033
 40
0.9517386337
 40
1.0
 40
1.0
 40
1.0
 40
1.0
 10
0.0000003896
 20
36.3429290184
 30
0.0
 10
-0.5225006088
 20
36.3429290184
 30
0.0
 10
-1.560931805
 20
36.3431314095
 30
0.0
 10
-3.1022348412
 20
36.3440392189
 30
0.0
 10
-4.6045230974
 20
36.3455413558
 30
0.0
 10
-6.0489148748
 20
36.3476090046
 30
0.0
 10
-7.4172103354
 20
36.3502463396
 30
0.0
 10
-8.6923236989
 20
36.3533113352
 30
0.0
 10
-9.857819473
 20
36.3571144662
 30
0.0
 10
-10.7824150404
 20
36.3600956215
 30
0.0
 10
-11.3151297863
 20
36.3634690651
 30
0.0
 10
-11.5001346975
 20
36.3644051479
 30
0.0
 11
0.0000003896
 21
36.3429290184
 31
0.0
 11
-1.5675026654
 21
36.3432362972
 31
0.0
 11
-3.1152930754
 21
36.3441542693
 31
0.0
 11
-4.6239068674
 21
36.3456713907
 31
0.0
 11
-6.0743723476
 21
36.3477685827
 31
0.0
 11
-7.4484490712
 21
36.3504194719
 31
0.0
 11
-8.728857226
 21
36.3535907218
 31
0.0
 11
-9.8994949366
 21
36.3572424522
 31
0.0
 11
-10.9456407546
 21
36.3613287404
 31
0.0
 11
-11.5001346975
 21
36.3644051479
 31
0.0
  0
SPLINE
  5
336
100
AcDbEntity
  8
0
100
AcDbSpline
 62
7
  6
CONTINUOUS
 70
0
 71
3
 72
12
 73
8
 74
6
 42
0.0000001
 43
0.0000001
 44
0.0000000001
 12
-2.0591066965
 22
0.003936669
 32
0.0
 13
-0.0
 23
2.0503069349
 33
0.0
 40
0.0
 40
0.0
 40
0.0
 40
0.0
 40
0.3236551863
 40
0.6166960948
 40
0.8286916942
 40
0.9569825645
 40
1.0
 40
1.0
 40
1.0
 40
1.0
 10
-11.9503639903
 20
36.3660045918
 30
0.0
 10
-12.1725108441
 20
36.3664292996
 30
0.0
 10
-12.596442068
 20
36.3669095032
 30
0.0
 10
-13.1469656457
 20
36.3854168607
 30
0.0
 10
-13.6182114134
 20
36.3564690853
 30
0.0
 10
-13.8119887123
 20
36.421026446
 30
0.0
 10
-14.0
 20
36.3623984895
 30
0.0
 10
-14.0
 20
36.3917981382
 30
0.0
 11
-11.9503639903
 21
36.3660045918
 31
0.0
 11
-12.6135641506
 21
36.3705946218
 31
0.0
 11
-13.2143666243
 21
36.3756576912
 31
0.0
 11
-13.6489907705
 21
36.380923736
 31
0.0
 11
-13.9119709385
 21
36.3863265328
 31
0.0
 11
-14.0
 21
36.3917981382
 31
0.0
  0
SPLINE
  5
337
100
AcDbEntity
  8
0
100
AcDbSpline
 62
7
  6
CONTINUOUS
 70
0
 71
3
 72
10
 73
6
 74
4
 42
0.0000001
 43
0.0000001
 44
0.0000000001
 12
0.0
 22
-0.477002847
 32
0.0
 13
-0.467862277
 23
-0.0138160625
 33
0.0
 40
0.0
 40
0.0
 40
0.0
 40
0.0
 40
0.1814320074
 40
0.7222807926
 40
1.0
 40
1.0
 40
1.0
 40
1.0
 10
11.85
 20
39.7917774243
 30
0.0
 10
11.85
 20
39.7629295629
 30
0.0
 10
11.6655175242
 20
39.8213317802
 30
0.0
 10
11.547933284
 20
39.7819795488
 30
0.0
 10
11.4257230378
 20
39.7732542144
 30
0.0
 10
11.3824115909
 20
39.7719752191
 30
0.0
 11
11.85
 21
39.7917774243
 31
0.0
 11
11.7636001581
 21
39.7867915186
 31
0.0
 11
11.5056605365
 21
39.7818783187
 31
0.0
 11
11.3824115909
 21
39.7719752191
 31
0.0
  0
SPLINE
  5
338
100
AcDbEntity
  8
0
100
AcDbSpline
 62
7
  6
CONTINUOUS
 70
0
 71
3
 72
11
 73
7
 74
5
 42
0.0000001
 43
0.0000001
 44
0.0000000001
 12
-2.2320404101
 22
-0.0260827564
 32
0.0
 13
-2.2296518986
 23
-0.01182489
 33
0.0
 40
0.0
 40
0.0
 40
0.0
 40
0.0
 40
0.1168169494
 40
0.3798941354
 40
0.7115064781
 40
1.0
 40
1.0
 40
1.0
 40
1.0
 10
11.3502332878
 20
39.7713225517
 30
0.0
 10
11.263319904
 20
39.7703069157
 30
0.0
 10
10.9608966006
 20
39.7850342522
 30
0.0
 10
10.4462252157
 20
39.767956832
 30
0.0
 10
9.7834923976
 20
39.7691665153
 30
0.0
 10
9.3224448709
 20
39.7667089278
 30
0.0
 10
9.1080314946
 20
39.7655717931
 30
0.0
 11
11.3502332878
 21
39.7713225517
 31
0.0
 11
11.0799424758
 21
39.77710947
 31
0.0
 11
10.492653904
 21
39.7725545131
 31
0.0
 11
9.7523588108
 21
39.7682798695
 31
0.0
 11
9.1080314946
 21
39.7655717931
 31
0.0
  0
SPLINE
  5
339
100
AcDbEntity
  8
0
100
AcDbSpline
 62
7
  6
CONTINUOUS
 70
0
 71
3
 72
23
 73
19
 74
17
 42
0.0000001
 43
0.0000001
 44
0.0000000001
 12
-18.1938539497
 22
-0.096490543
 32
0.0
 13
-18.1938539497
 23
0.096490543
 33
0.0
 40
0.0
 40
0.0
 40
0.0
 40
0.0
 40
0.0130906621
 40
0.068636207
 40
0.1304718924
 40
0.1976960438
 40
0.2693284042
 40
0.3443244309
 40
0.4215905292
 40
0.5
 40
0.5784094708
 40
0.6556755691
 40
0.7306715958
 40
0.8023039562
 40
0.8695281076
 40
0.931363793
 40
0.9869093379
 40
1.0
 40
1.0
 40
1.0
 40
1.0
 10
9.1080314946
 20
39.7655717931
 30
0.0
 10
9.0286416299
 20
39.7651507514
 30
0.0
 10
8.6124474835
 20
39.7629476375
 30
0.0
 10
7.8196370264
 20
39.7607193969
 30
0.0
 10
6.6989003432
 20
39.7574896687
 30
0.0
 10
5.4801865455
 20
39.7550040595
 30
0.0
 10
4.1816476573
 20
39.7529637398
 30
0.0
 10
2.822105059
 20
39.751501803
 30
0.0
 10
1.4214172162
 20
39.7506110167
 30
0.0
 10
0.0
 20
39.7503135727
 30
0.0
 10
-1.4214172162
 20
39.7506110167
 30
0.0
 10
-2.822105059
 20
39.751501803
 30
0.0
 10
-4.1816476573
 20
39.7529637398
 30
0.0
 10
-5.4801865455
 20
39.7550040595
 30
0.0
 10
-6.6989003432
 20
39.7574896687
 30
0.0
 10
-7.8196370264
 20
39.7607193969
 30
0.0
 10
-8.6124474835
 20
39.7629476375
 30
0.0
 10
-9.0286416299
 20
39.7651507514
 30
0.0
 10
-9.1080314946
 20
39.7655717931
 30
0.0
 11
9.1080314946
 21
39.7655717931
 31
0.0
 11
8.8698523658
 21
39.7643478732
 31
0.0
 11
7.8580035002
 21
39.7608158616
 31
0.0
 11
6.7315672488
 21
39.7577353392
 31
0.0
 11
5.5069695887
 21
39.7551512271
 31
0.0
 11
4.2020679115
 21
39.7531012074
 31
0.0
 11
2.8358906218
 21
39.751615174
 31
0.0
 11
1.428359661
 21
39.7507147967
 31
0.0
 11
0.0
 21
39.750413205
 31
0.0
 11
-1.428359661
 21
39.7507147967
 31
0.0
 11
-2.8358906218
 21
39.751615174
 31
0.0
 11
-4.2020679115
 21
39.7531012074
 31
0.0
 11
-5.5069695887
 21
39.7551512271
 31
0.0
 11
-6.7315672488
 21
39.7577353392
 31
0.0
 11
-7.8580035002
 21
39.7608158616
 31
0.0
 11
-8.8698523658
 21
39.7643478732
 31
0.0
 11
-9.1080314946
 21
39.7655717931
 31
0.0
  0
SPLINE
  5
33A
100
AcDbEntity
  8
0
100
AcDbSpline
 62
7
  6
CONTINUOUS
 70
0
 71
3
 72
11
 73
7
 74
5
 42
0.0000001
 43
0.0000001
 44
0.0000000001
 12
-2.2296518986
 22
0.01182489
 32
0.0
 13
-2.2320404101
 23
0.0260827564
 33
0.0
 40
0.0
 40
0.0
 40
0.0
 40
0.0
 40
0.2884935219
 40
0.6201058646
 40
0.8831830506
 40
1.0
 40
1.0
 40
1.0
 40
1.0
 10
-9.1080314946
 20
39.7655717931
 30
0.0
 10
-9.3224448709
 20
39.7667089278
 30
0.0
 10
-9.7834923976
 20
39.7691665153
 30
0.0
 10
-10.4462252157
 20
39.767956832
 30
0.0
 10
-10.9608966006
 20
39.7850342522
 30
0.0
 10
-11.263319904
 20
39.7703069157
 30
0.0
 10
-11.3502332878
 20
39.7713225517
 30
0.0
 11
-9.1080314946
 21
39.7655717931
 31
0.0
 11
-9.7523588108
 21
39.7682798695
 31
0.0
 11
-10.492653904
 21
39.7725545131
 31
0.0
 11
-11.0799424758
 21
39.77710947
 31
0.0
 11
-11.3502332878
 21
39.7713225517
 31
0.0
  0
SPLINE
  5
33B
100
AcDbEntity
  8
0
100
AcDbSpline
 62
7
  6
CONTINUOUS
 70
0
 71
3
 72
10
 73
6
 74
4
 42
0.0000001
 43
0.0000001
 44
0.0000000001
 12
-0.467862277
 22
0.0138160625
 32
0.0
 13
-0.0
 23
0.477002847
 33
0.0
 40
0.0
 40
0.0
 40
0.0
 40
0.0
 40
0.2777192074
 40
0.8185679926
 40
1.0
 40
1.0
 40
1.0
 40
1.0
 10
-11.3824115909
 20
39.7719752191
 30
0.0
 10
-11.4257230378
 20
39.7732542144
 30
0.0
 10
-11.547933284
 20
39.7819795488
 30
0.0
 10
-11.6655175242
 20
39.8213317802
 30
0.0
 10
-11.85
 20
39.7629295629
 30
0.0
 10
-11.85
 20
39.7917774243
 30
0.0
 11
-11.3824115909
 21
39.7719752191
 31
0.0
 11
-11.5056605365
 21
39.7818783187
 31
0.0
 11
-11.7636001581
 21
39.7867915186
 31
0.0
 11
-11.85
 21
39.7917774243
 31
0.0
  0
SPLINE
  5
33C
100
AcDbEntity
  8
0
100
AcDbSpline
 62
7
  6
CONTINUOUS
 70
0
 71
3
 72
10
 73
6
 74
4
 42
0.0000001
 43
0.0000001
 44
0.0000000001
 12
0.0
 22
-0.6165919541
 32
0.0
 13
-0.6416333298
 23
0.0166151545
 33
0.0
 40
0.0
 40
0.0
 40
0.0
 40
0.0
 40
0.1403348703
 40
0.5584102868
 40
1.0
 40
1.0
 40
1.0
 40
1.0
 10
10.1
 20
41.591766458
 30
0.0
 10
10.1
 20
41.5629233408
 30
0.0
 10
9.9155764597
 20
41.6221841376
 30
0.0
 10
9.7636206703
 20
41.571097022
 30
0.0
 10
9.5850299612
 20
41.5709123128
 30
0.0
 10
9.4905837351
 20
41.5733580065
 30
0.0
 11
10.1
 21
41.591766458
 31
0.0
 11
10.0135930999
 21
41.5871646815
 31
0.0
 11
9.7558508455
 21
41.5826416427
 31
0.0
 11
9.4905837351
 21
41.5733580065
 31
0.0
  0
SPLINE
  5
33D
100
AcDbEntity
  8
0
100
AcDbSpline
 62
7
  6
CONTINUOUS
 70
0
 71
3
 72
11
 73
7
 74
5
 42
0.0000001
 43
0.0000001
 44
0.0000000001
 12
-1.9245563717
 22
0.0605215076
 32
0.0
 13
-1.8374767795
 23
-0.0081024349
 33
0.0
 40
0.0
 40
0.0
 40
0.0
 40
0.0
 40
0.06174234
 40
0.3796071325
 40
0.7788807442
 40
1.0
 40
1.0
 40
1.0
 40
1.0
 10
9.449960395
 20
41.574535771
 30
0.0
 10
9.4103515237
 20
41.5757813509
 30
0.0
 10
9.1654512399
 20
41.5847800014
 30
0.0
 10
8.7014977489
 20
41.5695944627
 30
0.0
 10
8.1217398204
 20
41.5709937539
 30
0.0
 10
7.7413198407
 20
41.5696127797
 30
0.0
 10
7.605886008
 20
41.5690155782
 30
0.0
 11
9.449960395
 21
41.574535771
 31
0.0
 11
9.3311832784
 21
41.578274732
 31
0.0
 11
8.7468565782
 21
41.5741386684
 31
0.0
 11
8.0128687369
 21
41.5703042212
 31
0.0
 11
7.605886008
 21
41.5690155782
 31
0.0
  0
SPLINE
  5
33E
100
AcDbEntity
  8
0
100
AcDbSpline
 62
7
  6
CONTINUOUS
 70
0
 71
3
 72
19
 73
15
 74
13
 42
0.0000001
 43
0.0000001
 44
0.0000000001
 12
-13.3020614092
 22
-0.038592002
 32
0.0
 13
-13.3020614092
 23
0.038592002
 33
0.0
 40
0.0
 40
0.0
 40
0.0
 40
0.0
 40
0.0377023977
 40
0.1202967169
 40
0.2093877681
 40
0.3034512076
 40
0.4008776085
 40
0.5
 40
0.5991223915
 40
0.6965487924
 40
0.7906122319
 40
0.8797032831
 40
0.9622976023
 40
1.0
 40
1.0
 40
1.0
 40
1.0
 10
6.6500816372
 20
41.5650902682
 30
0.0
 10
6.4829084341
 20
41.5646052645
 30
0.0
 10
5.9493385988
 20
41.5633208979
 30
0.0
 10
5.0212488395
 20
41.5610168125
 30
0.0
 10
3.8430440176
 20
41.5590685244
 30
0.0
 10
2.5991676707
 20
41.5575914291
 30
0.0
 10
1.310794686
 20
41.5567096625
 30
0.0
 10
0.0
 20
41.5564106292
 30
0.0
 10
-1.310794686
 20
41.5567096625
 30
0.0
 10
-2.5991676707
 20
41.5575914291
 30
0.0
 10
-3.8430440176
 20
41.5590685244
 30
0.0
 10
-5.0212488395
 20
41.5610168125
 30
0.0
 10
-5.9493385988
 20
41.5633208979
 30
0.0
 10
-6.4829084341
 20
41.5646052645
 30
0.0
 10
-6.6500816372
 20
41.5650902682
 30
0.0
 11
6.6500816372
 21
41.5650902682
 31
0.0
 11
6.148490433
 21
41.5637963265
 31
0.0
 11
5.05
 21
41.5612342308
 31
0.0
 11
3.8651026669
 21
41.5591945499
 31
0.0
 11
2.6140723555
 21
41.5577121835
 31
0.0
 11
1.3183145414
 21
41.5568124951
 31
0.0
 11
0.0
 21
41.5565108788
 31
0.0
 11
-1.3183145414
 21
41.5568124951
 31
0.0
 11
-2.6140723555
 21
41.5577121835
 31
0.0
 11
-3.8651026669
 21
41.5591945499
 31
0.0
 11
-5.05
 21
41.5612342308
 31
0.0
 11
-6.148490433
 21
41.5637963265
 31
0.0
 11
-6.6500816372
 21
41.5650902682
 31
0.0
  0
SPLINE
  5
33F
100
AcDbEntity
  8
0
100
AcDbSpline
 62
7
  6
CONTINUOUS
 70
0
 71
3
 72
11
 73
7
 74
5
 42
0.0000001
 43
0.0000001
 44
0.0000000001
 12
-1.8374767795
 22
0.0081024349
 32
0.0
 13
-1.9245563717
 23
-0.0605215076
 33
0.0
 40
0.0
 40
0.0
 40
0.0
 40
0.0
 40
0.2211192558
 40
0.6203928675
 40
0.93825766
 40
1.0
 40
1.0
 40
1.0
 40
1.0
 10
-7.605886008
 20
41.5690155782
 30
0.0
 10
-7.7413198407
 20
41.5696127797
 30
0.0
 10
-8.1217398204
 20
41.5709937539
 30
0.0
 10
-8.7014977489
 20
41.5695944627
 30
0.0
 10
-9.1654512399
 20
41.5847800014
 30
0.0
 10
-9.4103515237
 20
41.5757813509
 30
0.0
 10
-9.449960395
 20
41.574535771
 30
0.0
 11
-7.605886008
 21
41.5690155782
 31
0.0
 11
-8.0128687369
 21
41.5703042212
 31
0.0
 11
-8.7468565782
 21
41.5741386684
 31
0.0
 11
-9.3311832784
 21
41.578274732
 31
0.0
 11
-9.449960395
 21
41.574535771
 31
0.0
  0
SPLINE
  5
340
100
AcDbEntity
  8
0
100
AcDbSpline
 62
7
  6
CONTINUOUS
 70
0
 71
3
 72
10
 73
6
 74
4
 42
0.0000001
 43
0.0000001
 44
0.0000000001
 12
-0.6416333298
 22
-0.0166151545
 32
0.0
 13
-0.0
 23
0.6165919541
 33
0.0
 40
0.0
 40
0.0
 40
0.0
 40
0.0
 40
0.4415897132
 40
0.8596651297
 40
1.0
 40
1.0
 40
1.0
 40
1.0
 10
-9.4905837351
 20
41.5733580065
 30
0.0
 10
-9.5850299612
 20
41.5709123128
 30
0.0
 10
-9.7636206703
 20
41.571097022
 30
0.0
 10
-9.9155764597
 20
41.6221841376
 30
0.0
 10
-10.1
 20
41.5629233408
 30
0.0
 10
-10.1
 20
41.591766458
 30
0.0
 11
-9.4905837351
 21
41.5733580065
 31
0.0
 11
-9.7558508455
 21
41.5826416427
 31
0.0
 11
-10.0135930999
 21
41.5871646815
 31
0.0
 11
-10.1
 21
41.591766458
 31
0.0
  0
SPLINE
  5
341
100
AcDbEntity
  8
0
100
AcDbSpline
 62
7
  6
CONTINUOUS
 70
0
 71
3
 72
10
 73
6
 74
4
 42
0.0000001
 43
0.0000001
 44
0.0000000001
 12
0.0
 22
-0.5079915502
 32
0.0
 13
-0.5208579286
 23
0.0067526887
 33
0.0
 40
0.0
 40
0.0
 40
0.0
 40
0.0
 40
0.153296945
 40
0.6098025913
 40
1.0
 40
1.0
 40
1.0
 40
1.0
 10
8.35
 20
43.3917554918
 30
0.0
 10
8.35
 20
43.3657976409
 30
0.0
 10
8.1840496377
 20
43.4195182337
 30
0.0
 10
8.0588732004
 20
43.3773385477
 30
0.0
 10
7.9177501378
 20
43.3737899187
 30
0.0
 10
7.8500043331
 20
43.3746682126
 30
0.0
 11
8.35
 21
43.3917554918
 31
0.0
 11
8.2722276494
 21
43.3877866508
 31
0.0
 11
8.0403593494
 21
43.3838917417
 31
0.0
 11
7.8500043331
 21
43.3746682126
 31
0.0
  0
SPLINE
  5
342
100
AcDbEntity
  8
0
100
AcDbSpline
 62
7
  6
CONTINUOUS
 70
0
 71
3
 72
26
 73
22
 74
20
 42
0.0000001
 43
0.0000001
 44
0.0000000001
 12
-16.0816406932
 22
0.2084912354
 32
0.0
 13
-16.0816406932
 23
-0.2084912354
 33
0.0
 40
0.0
 40
0.0
 40
0.0
 40
0.0
 40
0.0116961152
 40
0.0451258068
 40
0.0870286727
 40
0.1366242316
 40
0.1929886654
 40
0.2550720472
 40
0.321717908
 40
0.3916847828
 40
0.4636693399
 40
0.5363306601
 40
0.6083152172
 40
0.678282092
 40
0.7449279528
 40
0.8070113346
 40
0.8633757684
 40
0.9129713273
 40
0.9548741932
 40
0.9883038848
 40
1.0
 40
1.0
 40
1.0
 40
1.0
 10
7.8500043331
 20
43.3746682126
 30
0.0
 10
7.7873067592
 20
43.3754810584
 30
0.0
 10
7.5364516379
 20
43.3869238179
 30
0.0
 10
7.0941527674
 20
43.3725496209
 30
0.0
 10
6.4355491902
 20
43.3743340664
 30
0.0
 10
5.6643992139
 20
43.3697966843
 30
0.0
 10
4.7852348105
 20
43.3678936943
 30
0.0
 10
3.8177342709
 20
43.3656931535
 30
0.0
 10
2.7788693172
 20
43.3641866893
 30
0.0
 10
1.6883127718
 20
43.3631158673
 30
0.0
 10
0.5662847074
 20
43.3625864611
 30
0.0
 10
-0.5662847074
 20
43.3625864611
 30
0.0
 10
-1.6883127718
 20
43.3631158673
 30
0.0
 10
-2.7788693172
 20
43.3641866893
 30
0.0
 10
-3.8177342709
 20
43.3656931535
 30
0.0
 10
-4.7852348105
 20
43.3678936943
 30
0.0
 10
-5.6643992139
 20
43.3697966843
 30
0.0
 10
-6.4355491902
 20
43.3743340664
 30
0.0
 10
-7.0941527674
 20
43.3725496209
 30
0.0
 10
-7.5364516379
 20
43.3869238179
 30
0.0
 10
-7.7873067592
 20
43.3754810584
 30
0.0
 10
-7.8500043331
 20
43.3746682126
 30
0.0
 11
7.8500043331
 21
43.3746682126
 31
0.0
 11
7.6587143676
 21
43.3801433194
 31
0.0
 11
7.134402028
 21
43.37661121
 31
0.0
 11
6.4771892774
 21
43.3733612098
 31
0.0
 11
5.6993187459
 21
43.3704538603
 31
0.0
 11
4.8152806897
 21
43.3679433199
 31
0.0
 11
3.8415430651
 21
43.3658763553
 31
0.0
 11
2.7962447616
 21
43.3642914699
 31
0.0
 11
1.698857709
 21
43.3632181873
 31
0.0
 11
0.5698241516
 21
43.3626765008
 31
0.0
 11
-0.5698241516
 21
43.3626765008
 31
0.0
 11
-1.698857709
 21
43.3632181873
 31
0.0
 11
-2.7962447616
 21
43.3642914699
 31
0.0
 11
-3.8415430651
 21
43.3658763553
 31
0.0
 11
-4.8152806897
 21
43.3679433199
 31
0.0
 11
-5.6993187459
 21
43.3704538603
 31
0.0
 11
-6.4771892774
 21
43.3733612098
 31
0.0
 11
-7.134402028
 21
43.37661121
 31
0.0
 11
-7.6587143676
 21
43.3801433194
 31
0.0
 11
-7.8500043331
 21
43.3746682126
 31
0.0
  0
SPLINE
  5
343
100
AcDbEntity
  8
0
100
AcDbSpline
 62
7
  6
CONTINUOUS
 70
0
 71
3
 72
10
 73
6
 74
4
 42
0.0000001
 43
0.0000001
 44
0.0000000001
 12
-0.5208579286
 22
-0.0067526887
 32
0.0
 13
-0.0
 23
0.5079915502
 33
0.0
 40
0.0
 40
0.0
 40
0.0
 40
0.0
 40
0.3901974087
 40
0.846703055
 40
1.0
 40
1.0
 40
1.0
 40
1.0
 10
-7.8500043331
 20
43.3746682126
 30
0.0
 10
-7.9177501378
 20
43.3737899187
 30
0.0
 10
-8.0588732004
 20
43.3773385477
 30
0.0
 10
-8.1840496377
 20
43.4195182337
 30
0.0
 10
-8.35
 20
43.3657976409
 30
0.0
 10
-8.35
 20
43.3917554918
 30
0.0
 11
-7.8500043331
 21
43.3746682126
 31
0.0
 11
-8.0403593494
 21
43.3838917417
 31
0.0
 11
-8.2722276494
 21
43.3877866508
 31
0.0
 11
-8.35
 21
43.3917554918
 31
0.0
  0
SPLINE
  5
344
100
AcDbEntity
  8
0
100
AcDbSpline
 62
7
  6
CONTINUOUS
 70
0
 71
3
 72
10
 73
6
 74
4
 42
0.0000001
 43
0.0000001
 44
0.0000000001
 12
0.0
 22
-0.4942316188
 32
0.0
 13
-0.5137250149
 23
0.0147212515
 33
0.0
 40
0.0
 40
0.0
 40
0.0
 40
0.0
 40
0.113242958
 40
0.449616509
 40
1.0
 40
1.0
 40
1.0
 40
1.0
 10
4.1
 20
45.1917445256
 30
0.0
 10
4.1
 20
45.1730884421
 30
0.0
 10
3.9808826489
 20
45.2127915273
 30
0.0
 10
3.8591562727
 20
45.1713985756
 30
0.0
 10
3.700090969
 20
45.1822321453
 30
0.0
 10
3.6058423799
 20
45.1849329232
 30
0.0
 11
4.1
 21
45.1917445256
 31
0.0
 11
4.044081344
 21
45.189388902
 31
0.0
 11
3.877850691
 21
45.1870975337
 31
0.0
 11
3.6058423799
 21
45.1849329232
 31
0.0
  0
LINE
  5
345
100
AcDbEntity
  8
0
100
AcDbLine
 62
7
  6
CONTINUOUS
 10
3.6058423799
 20
45.1849329232
 11
3.6000466669
 21
45.1850941165
  0
SPLINE
  5
346
100
AcDbEntity
  8
0
100
AcDbSpline
 62
7
  6
CONTINUOUS
 70
0
 71
3
 72
20
 73
16
 74
14
 42
0.0000001
 43
0.0000001
 44
0.0000000001
 12
-7.4700914979
 22
0.2014895682
 32
0.0
 13
-7.4700914979
 23
-0.2014895682
 33
0.0
 40
0.0
 40
0.0
 40
0.0
 40
0.0
 40
0.050661483
 40
0.114354555
 40
0.1885668318
 40
0.271274061
 40
0.3602202517
 40
0.4529792211
 40
0.5470207789
 40
0.6397797483
 40
0.728725939
 40
0.8114331682
 40
0.885645445
 40
0.949338517
 40
1.0
 40
1.0
 40
1.0
 40
1.0
 10
3.6000466669
 20
45.1850941165
 30
0.0
 10
3.473898029
 20
45.1884967033
 30
0.0
 10
3.2069922874
 20
45.1801536712
 30
0.0
 10
2.7506402226
 20
45.1819366896
 30
0.0
 10
2.2224081337
 20
45.1793570638
 30
0.0
 10
1.6318826361
 20
45.1786319169
 30
0.0
 10
0.9973668754
 20
45.1777721918
 30
0.0
 10
0.3354873599
 20
45.1774215305
 30
0.0
 10
-0.3354873599
 20
45.1774215305
 30
0.0
 10
-0.9973668754
 20
45.1777721918
 30
0.0
 10
-1.6318826361
 20
45.1786319169
 30
0.0
 10
-2.2224081337
 20
45.1793570638
 30
0.0
 10
-2.7506402226
 20
45.1819366896
 30
0.0
 10
-3.2069922874
 20
45.1801536712
 30
0.0
 10
-3.473898029
 20
45.1884967033
 30
0.0
 10
-3.6000466669
 20
45.1850941165
 30
0.0
 11
3.6000466669
 21
45.1850941165
 31
0.0
 11
3.2354760885
 21
45.1829541155
 31
0.0
 11
2.7768544437
 21
45.1812150872
 31
0.0
 11
2.2424874483
 21
45.1797632746
 31
0.0
 11
1.6469512411
 21
45.1786382792
 31
0.0
 11
1.0064904973
 21
45.1778707881
 31
0.0
 11
0.3385753164
 21
45.1774817364
 31
0.0
 11
-0.3385753164
 21
45.1774817364
 31
0.0
 11
-1.0064904973
 21
45.1778707881
 31
0.0
 11
-1.6469512411
 21
45.1786382792
 31
0.0
 11
-2.2424874483
 21
45.1797632746
 31
0.0
 11
-2.7768544437
 21
45.1812150872
 31
0.0
 11
-3.2354760885
 21
45.1829541155
 31
0.0
 11
-3.6000466669
 21
45.1850941165
 31
0.0
  0
LINE
  5
347
100
AcDbEntity
  8
0
100
AcDbLine
 62
7
  6
CONTINUOUS
 10
-3.6000466669
 20
45.1850941165
 11
-3.6058423799
 21
45.1849329232
  0
SPLINE
  5
348
100
AcDbEntity
  8
0
100
AcDbSpline
 62
7
  6
CONTINUOUS
 70
0
 71
3
 72
10
 73
6
 74
4
 42
0.0000001
 43
0.0000001
 44
0.0000000001
 12
-0.5137250149
 22
-0.0147212515
 32
0.0
 13
-0.0
 23
0.4942316188
 33
0.0
 40
0.0
 40
0.0
 40
0.0
 40
0.0
 40
0.550383491
 40
0.886757042
 40
1.0
 40
1.0
 40
1.0
 40
1.0
 10
-3.6058423799
 20
45.1849329232
 30
0.0
 10
-3.700090969
 20
45.1822321453
 30
0.0
 10
-3.8591562727
 20
45.1713985756
 30
0.0
 10
-3.9808826489
 20
45.2127915273
 30
0.0
 10
-4.1
 20
45.1730884421
 30
0.0
 10
-4.1
 20
45.1917445256
 30
0.0
 11
-3.6058423799
 21
45.1849329232
 31
0.0
 11
-3.877850691
 21
45.1870975337
 31
0.0
 11
-4.044081344
 21
45.189388902
 31
0.0
 11
-4.1
 21
45.1917445256
 31
0.0
  0
SPLINE
  5
349
100
AcDbEntity
  8
0
100
AcDbSpline
 62
7
  6
CONTINUOUS
 70
0
 71
3
 72
14
 73
10
 74
8
 42
0.0000001
 43
0.0000001
 44
0.0000000001
 12
0.0
 22
-2.4001766987
 32
0.0
 13
-2.3991906337
 23
-0.0071756316
 33
0.0
 40
0.0
 40
0.0
 40
0.0
 40
0.0
 40
0.0279511516
 40
0.1110998039
 40
0.2476049976
 40
0.434419892
 40
0.667372229
 40
0.9412586758
 40
1.0
 40
1.0
 40
1.0
 40
1.0
 10
6.0
 20
44.6917475718
 30
0.0
 10
6.0
 20
44.6693850042
 30
0.0
 10
5.8571030729
 20
44.7163266713
 30
0.0
 10
5.7106956263
 20
44.6667680082
 30
0.0
 10
5.3566050212
 20
44.6903608364
 30
0.0
 10
4.9239570863
 20
44.6765084562
 30
0.0
 10
4.3643654007
 20
44.6783579932
 30
0.0
 10
3.9129703825
 20
44.6759214119
 30
0.0
 10
3.6470217592
 20
44.6750465662
 30
0.0
 10
3.6000445476
 20
44.6749060642
 30
0.0
 11
6.0
 21
44.6917475718
 31
0.0
 11
5.9329849574
 21
44.6886260442
 31
0.0
 11
5.7334368347
 21
44.6855742464
 31
0.0
 11
5.4058132074
 21
44.6826603505
 31
0.0
 11
4.9574326459
 21
44.679949448
 31
0.0
 11
4.398311231
 21
44.6775020962
 31
0.0
 11
3.7409388112
 21
44.6753729648
 31
0.0
 11
3.6000445476
 21
44.6749060642
 31
0.0
  0
SPLINE
  5
34A
100
AcDbEntity
  8
0
100
AcDbSpline
 62
7
  6
CONTINUOUS
 70
0
 71
3
 72
14
 73
10
 74
8
 42
0.0000001
 43
0.0000001
 44
0.0000000001
 12
-2.3991906337
 22
0.0071756316
 32
0.0
 13
-0.0
 23
2.4001766987
 33
0.0
 40
0.0
 40
0.0
 40
0.0
 40
0.0
 40
0.0587413242
 40
0.332627771
 40
0.565580108
 40
0.7523950024
 40
0.8889001961
 40
0.9720488484
 40
1.0
 40
1.0
 40
1.0
 40
1.0
 10
-3.6000445476
 20
44.6749060642
 30
0.0
 10
-3.6470217592
 20
44.6750465662
 30
0.0
 10
-3.9129703825
 20
44.6759214119
 30
0.0
 10
-4.3643654007
 20
44.6783579932
 30
0.0
 10
-4.9239570863
 20
44.6765084562
 30
0.0
 10
-5.3566050212
 20
44.6903608364
 30
0.0
 10
-5.7106956263
 20
44.6667680082
 30
0.0
 10
-5.8571030729
 20
44.7163266713
 30
0.0
 10
-6.0
 20
44.6693850042
 30
0.0
 10
-6.0
 20
44.6917475718
 30
0.0
 11
-3.6000445476
 21
44.6749060642
 31
0.0
 11
-3.7409388112
 21
44.6753729648
 31
0.0
 11
-4.398311231
 21
44.6775020962
 31
0.0
 11
-4.9574326459
 21
44.679949448
 31
0.0
 11
-5.4058132074
 21
44.6826603505
 31
0.0
 11
-5.7334368347
 21
44.6855742464
 31
0.0
 11
-5.9329849574
 21
44.6886260442
 31
0.0
 11
-6.0
 21
44.6917475718
 31
0.0
  0
SPLINE
  5
34B
100
AcDbEntity
  8
RACCORDO
100
AcDbSpline
 62
253
  6
CONTINUOUS
 70
0
 71
3
 72
30
 73
26
 74
24
 42
0.0000001
 43
0.0000001
 44
0.0000000001
 12
-0.0000000102
 22
-28.0006218048
 32
0.0
 13
0.0000000109
 23
28.0006218048
 33
0.0
 40
0.0
 40
0.0
 40
0.0
 40
0.0
 40
0.0046389292
 40
0.0184548853
 40
0.0412655476
 40
0.0726633038
 40
0.1119758557
 40
0.1586021774
 40
0.2114927716
 40
0.2698885747
 40
0.3324297025
 40
0.3982581838
 40
0.4658097059
 40
0.5341793793
 40
0.6017312206
 40
0.6675608571
 40
0.7301028495
 40
0.7885006413
 40
0.8413923822
 40
0.8880209415
 40
0.9273345353
 40
0.9587342285
 40
0.9815451615
 40
0.9953610687
 40
1.0
 40
1.0
 40
1.0
 40
1.0
 10
-14.0
 20
37.8143971233
 30
0.0
 10
-14.0
 20
37.7710994894
 30
0.0
 10
-13.723178136
 20
37.8606686676
 30
0.0
 10
-13.438406242
 20
37.7647838608
 30
0.0
 10
-12.7470502497
 20
37.8098384889
 30
0.0
 10
-11.8985794487
 20
37.7822160331
 30
0.0
 10
-10.794241959
 20
37.7852095681
 30
0.0
 10
-9.5016580984
 20
37.7775934261
 30
0.0
 10
-8.0267454928
 20
37.7743984616
 30
0.0
 10
-6.4046439354
 20
37.7707061128
 30
0.0
 10
-4.6613673189
 20
37.7681765198
 30
0.0
 10
-2.8327581535
 20
37.7663799169
 30
0.0
 10
-0.9497111628
 20
37.7654908576
 30
0.0
 10
0.94940852
 20
37.7654907854
 30
0.0
 10
2.8324692721
 20
37.7663797074
 30
0.0
 10
4.6611002685
 20
37.7681761889
 30
0.0
 10
6.4044143016
 20
37.7707056959
 30
0.0
 10
8.0265531804
 20
37.7743979965
 30
0.0
 10
9.5015159752
 20
37.7775929348
 30
0.0
 10
10.7941409747
 20
37.7852092614
 30
0.0
 10
11.8985276234
 20
37.7822154324
 30
0.0
 10
12.7470271841
 20
37.8098394208
 30
0.0
 10
13.4384049835
 20
37.7647834512
 30
0.0
 10
13.7231787974
 20
37.8606684649
 30
0.0
 10
14.0
 20
37.7710994693
 30
0.0
 10
14.0
 20
37.8143971233
 30
0.0
 11
-14.0
 21
37.8143971233
 31
0.0
 11
-13.8702767839
 21
37.8077598716
 31
0.0
 11
-13.4834762769
 21
37.8012452829
 31
0.0
 11
-12.8447944922
 21
37.794958469
 31
0.0
 11
-11.9656578014
 21
37.7890272645
 31
0.0
 11
-10.8648953947
 21
37.7835776103
 31
0.0
 11
-9.5593385307
 21
37.7786935371
 31
0.0
 11
-8.0783749851
 21
37.7744844828
 31
0.0
 11
-6.4432598754
 21
37.7710112049
 31
0.0
 11
-4.6920714252
 21
37.7683543252
 31
0.0
 11
-2.8488339005
 21
37.7665504719
 31
0.0
 11
-0.9573494957
 21
37.7656423963
 31
0.0
 11
0.9570438744
 21
37.765642323
 31
0.0
 11
2.848537215
 21
37.7665502566
 31
0.0
 11
4.6918070878
 21
37.7683539966
 31
0.0
 11
6.4430197486
 21
37.7710107701
 31
0.0
 11
8.0781905425
 21
37.7744840274
 31
0.0
 11
9.5591861943
 21
37.7786930397
 31
0.0
 11
10.864805713
 21
37.7835772245
 31
0.0
 11
11.9655972967
 21
37.789026916
 31
0.0
 11
12.8447882206
 21
37.7949584183
 31
0.0
 11
13.4834775874
 21
37.801245297
 31
0.0
 11
13.8702767236
 21
37.8077598718
 31
0.0
 11
14.0
 21
37.8143971233
 31
0.0
  0
SPLINE
  5
34C
100
AcDbEntity
  8
RACCORDO
100
AcDbSpline
 62
253
  6
CONTINUOUS
 70
0
 71
3
 72
24
 73
20
 74
18
 42
0.0000001
 43
0.0000001
 44
0.0000000001
 12
-0.0000002067
 22
-8.2001680998
 32
0.0
 13
0.0000002755
 23
8.2001680998
 33
0.0
 40
0.0
 40
0.0
 40
0.0
 40
0.0
 40
0.0085171554
 40
0.0337635851
 40
0.0749021575
 40
0.1305886779
 40
0.1989523132
 40
0.2775723723
 40
0.3642671392
 40
0.4553133983
 40
0.5482267414
 40
0.6391457501
 40
0.725580577
 40
0.803987375
 40
0.8721426588
 40
0.9273498469
 40
0.967948071
 40
0.9923916986
 40
1.0
 40
1.0
 40
1.0
 40
1.0
 10
-4.1
 20
45.5309018664
 30
0.0
 10
-4.1000000006
 20
45.5076211645
 30
0.0
 10
-3.9515380984
 20
45.5578229293
 30
0.0
 10
-3.800296255
 20
45.5061610844
 30
0.0
 10
-3.436999676
 20
45.5314371813
 30
0.0
 10
-2.9979980981
 20
45.5178456809
 30
0.0
 10
-2.4394475074
 20
45.5203749295
 30
0.0
 10
-1.8022367487
 20
45.5176197595
 30
0.0
 10
-1.1010277539
 20
45.5171300209
 30
0.0
 10
-0.3613718115
 20
45.516544613
 30
0.0
 10
0.390055673
 20
45.5165529046
 30
0.0
 10
1.1286497916
 20
45.5171593767
 30
0.0
 10
1.8282295893
 20
45.5176572373
 30
0.0
 10
2.4635384329
 20
45.5204587863
 30
0.0
 10
3.0197352232
 20
45.5178682774
 30
0.0
 10
3.4551615569
 20
45.5316211166
 30
0.0
 10
3.8137117853
 20
45.5062755146
 30
0.0
 10
3.9596774498
 20
45.5568739698
 30
0.0
 10
4.0999999993
 20
45.5101054163
 30
0.0
 10
4.1
 20
45.5309018664
 30
0.0
 11
-4.1
 21
45.5309018664
 31
0.0
 11
-4.030207411
 21
45.5282723698
 31
0.0
 11
-3.8231980227
 21
45.5257325748
 31
0.0
 11
-3.4858631038
 21
45.5233676127
 31
0.0
 11
-3.0292291511
 21
45.5212574899
 31
0.0
 11
-2.4686386832
 21
45.519475227
 31
0.0
 11
-1.8239424822
 21
45.5180843797
 31
0.0
 11
-1.1130314646
 21
45.5171276527
 31
0.0
 11
-0.3664369891
 21
45.5166474749
 31
0.0
 11
0.3954680426
 21
45.5166569267
 31
0.0
 11
1.1410190311
 21
45.5171555783
 31
0.0
 11
1.8497984714
 21
45.5181295936
 31
0.0
 11
2.4927458502
 21
45.5195391607
 31
0.0
 11
3.0516277203
 21
45.5213438919
 31
0.0
 11
3.504330938
 21
45.5234727207
 31
0.0
 11
3.8372346345
 21
45.5258608286
 31
0.0
 11
4.0376602077
 21
45.5284156382
 31
0.0
 11
4.1
 21
45.5309018664
 31
0.0
  0
SPLINE
  5
34D
100
AcDbEntity
  8
RACCORDO
100
AcDbSpline
 62
253
  6
CONTINUOUS
 70
0
 71
3
 72
24
 73
20
 74
18
 42
0.0000001
 43
0.0000001
 44
0.0000000001
 12
-0.0000000009
 22
-7.7554504265
 32
0.0
 13
-0.0000000004
 23
7.7554504265
 33
0.0
 40
0.0
 40
0.0
 40
0.0
 40
0.0
 40
0.0085168516
 40
0.0337639592
 40
0.0749022139
 40
0.130588774
 40
0.1989523492
 40
0.2775723988
 40
0.3642671442
 40
0.4553134002
 40
0.5482267418
 40
0.6391457505
 40
0.7255805717
 40
0.8039873667
 40
0.8721426167
 40
0.9273498216
 40
0.9679478817
 40
0.9923918115
 40
1.0
 40
1.0
 40
1.0
 40
1.0
 10
-3.8776457135
 20
45.8206778489
 30
0.0
 10
-3.8776457135
 20
45.7986605088
 30
0.0
 10
-3.7372342681
 20
45.8461379973
 30
0.0
 10
-3.5941954447
 20
45.7972811999
 30
0.0
 10
-3.2506003657
 20
45.821183197
 30
0.0
 10
-2.8354079355
 20
45.8083304362
 30
0.0
 10
-2.3071491501
 20
45.8107217139
 30
0.0
 10
-1.7044963218
 20
45.8081162582
 30
0.0
 10
-1.0413159073
 20
45.8076528673
 30
0.0
 10
-0.341773609
 20
45.8070992759
 30
0.0
 10
0.3689018841
 20
45.8071070618
 30
0.0
 10
1.0674399935
 20
45.8076806364
 30
0.0
 10
1.729079632
 20
45.8081515713
 30
0.0
 10
2.3299338195
 20
45.8108010446
 30
0.0
 10
2.8559664761
 20
45.8083514391
 30
0.0
 10
3.2677779782
 20
45.8213576323
 30
0.0
 10
3.6068834295
 20
45.7973882006
 30
0.0
 10
3.7449326609
 20
45.84524106
 30
0.0
 10
3.8776457135
 20
45.8010095394
 30
0.0
 10
3.8776457135
 20
45.8206778489
 30
0.0
 11
-3.8776457135
 21
45.8206778489
 31
0.0
 11
-3.8116405484
 21
45.818190368
 31
0.0
 11
-3.6158525751
 21
45.8157896218
 31
0.0
 11
-3.296814725
 21
45.813552312
 31
0.0
 11
-2.8649449792
 21
45.8115567432
 31
0.0
 11
-2.3347573406
 21
45.8098710114
 31
0.0
 11
-1.7250248622
 21
45.8085555927
 31
0.0
 11
-1.0526686712
 21
45.8076506769
 31
0.0
 11
-0.3465640923
 21
45.8071965383
 31
0.0
 11
0.3740207224
 21
45.8072054504
 31
0.0
 11
1.0791384294
 21
45.8076770587
 31
0.0
 11
1.7494787676
 21
45.8085982723
 31
0.0
 11
2.357557318
 21
45.8099313977
 31
0.0
 11
2.8861292247
 21
45.81163833
 31
0.0
 11
3.3142812313
 21
45.8136516569
 31
0.0
 11
3.6291293706
 21
45.8159105652
 31
0.0
 11
3.8186876652
 21
45.8183262253
 31
0.0
 11
3.8776457135
 21
45.8206778489
 31
0.0
  0
SPLINE
  5
34E
100
AcDbEntity
  8
0
100
AcDbSpline
 62
7
  6
CONTINUOUS
 70
0
 71
3
 72
20
 73
16
 74
14
 42
0.0000001
 43
0.0000001
 44
0.0000000001
 12
0.0
 22
-2.0000373697
 32
0.0
 13
-0.0
 23
2.0000373697
 33
0.0
 40
0.0
 40
0.0
 40
0.0
 40
0.0
 40
0.0145348223
 40
0.0572787299
 40
0.1257509649
 40
0.2159727112
 40
0.322700826
 40
0.439732786
 40
0.560267214
 40
0.677299174
 40
0.7840272888
 40
0.8742490351
 40
0.9427212701
 40
0.9854651777
 40
1.0
 40
1.0
 40
1.0
 40
1.0
 10
1.0
 20
46.5917359963
 30
0.0
 10
1.0
 20
46.5820459338
 30
0.0
 10
0.9385201495
 20
46.6034415914
 30
0.0
 10
0.8766304387
 20
46.5820933771
 30
0.0
 10
0.730442716
 20
46.5926847319
 30
0.0
 10
0.5583392833
 20
46.5875951401
 30
0.0
 10
0.3473230568
 20
46.5888035428
 30
0.0
 10
0.118349046
 20
46.5881557265
 30
0.0
 10
-0.118349046
 20
46.5881557265
 30
0.0
 10
-0.3473230568
 20
46.5888035428
 30
0.0
 10
-0.5583392833
 20
46.5875951401
 30
0.0
 10
-0.730442716
 20
46.5926847319
 30
0.0
 10
-0.8766304387
 20
46.5820933771
 30
0.0
 10
-0.9385201495
 20
46.6034415914
 30
0.0
 10
-1.0
 20
46.5820459338
 30
0.0
 10
-1.0
 20
46.5917359963
 30
0.0
 11
1.0
 21
46.5917359963
 31
0.0
 11
0.9709418174
 21
46.5909006288
 31
0.0
 11
0.8854560257
 21
46.5901138097
 31
0.0
 11
0.7485107482
 21
46.5894212663
 31
0.0
 11
0.5680647467
 21
46.5888632465
 31
0.0
 11
0.354604887
 21
46.5884721806
 31
0.0
 11
0.1205366803
 21
46.5882707957
 31
0.0
 11
-0.1205366803
 21
46.5882707957
 31
0.0
 11
-0.354604887
 21
46.5884721806
 31
0.0
 11
-0.5680647467
 21
46.5888632465
 31
0.0
 11
-0.7485107482
 21
46.5894212663
 31
0.0
 11
-0.8854560257
 21
46.5901138097
 31
0.0
 11
-0.9709418174
 21
46.5909006288
 31
0.0
 11
-1.0
 21
46.5917359963
 31
0.0
  0
SPLINE
  5
34F
100
AcDbEntity
  8
RACCORDO
100
AcDbSpline
 62
253
  6
CONTINUOUS
 70
0
 71
3
 72
30
 73
26
 74
24
 42
0.0000001
 43
0.0000001
 44
0.0000000001
 12
-0.0000000017
 22
-20.2004917976
 32
0.0
 13
0.0000000018
 23
20.2004917976
 33
0.0
 40
0.0
 40
0.0
 40
0.0
 40
0.0
 40
0.0022466135
 40
0.010065278
 40
0.0256216775
 40
0.0507057052
 40
0.08639535
 40
0.1329323825
 40
0.1878705048
 40
0.2496628163
 40
0.3172669831
 40
0.3887632491
 40
0.4629891779
 40
0.537806385
 40
0.6120153455
 40
0.683475862
 40
0.7510303651
 40
0.8127543675
 40
0.8676144906
 40
0.9140405895
 40
0.9495787262
 40
0.9745327097
 40
0.9899946671
 40
0.9977664172
 40
1.0
 40
1.0
 40
1.0
 40
1.0
 10
-10.1
 20
42.0586798341
 30
0.0
 10
-10.1
 20
42.0435522679
 30
0.0
 10
-9.9921743754
 20
42.0753550428
 30
0.0
 10
-9.8645561917
 20
42.0335109445
 30
0.0
 10
-9.5072975013
 20
42.0562145072
 30
0.0
 10
-9.0097266832
 20
42.0380099085
 30
0.0
 10
-8.2798328832
 20
42.040111135
 30
0.0
 10
-7.3591214324
 20
42.0336956684
 30
0.0
 10
-6.2587650012
 20
42.0310564216
 30
0.0
 10
-5.0178735761
 20
42.0278681064
 30
0.0
 10
-3.6650659156
 20
42.0257070657
 30
0.0
 10
-2.2286632654
 20
42.0241541277
 30
0.0
 10
-0.7436531422
 20
42.0233901978
 30
0.0
 10
0.7596098238
 20
42.0233943423
 30
0.0
 10
2.2442649831
 20
42.0241664366
 30
0.0
 10
3.6799781888
 20
42.0257273208
 30
0.0
 10
5.0317508805
 20
42.0278957002
 30
0.0
 10
6.2713224339
 20
42.0310909422
 30
0.0
 10
7.3699469046
 20
42.0337359577
 30
0.0
 10
8.2883695159
 20
42.0401498933
 30
0.0
 10
9.0155960256
 20
42.0380707583
 30
0.0
 10
9.5107146708
 20
42.0561934123
 30
0.0
 10
9.865964855
 20
42.0336479613
 30
0.0
 10
9.9928173772
 20
42.0752294777
 30
0.0
 10
10.1
 20
42.0436400104
 30
0.0
 10
10.1
 20
42.0586798341
 30
0.0
 11
-10.1
 21
42.0586798341
 31
0.0
 11
-10.0547399246
 21
42.0553459314
 31
0.0
 11
-9.8968424438
 21
42.051644204
 31
0.0
 11
-9.582622316
 21
42.0475406971
 31
0.0
 11
-9.0759311155
 21
42.0432113036
 31
0.0
 11
-8.3549958036
 21
42.0388708829
 31
0.0
 11
-7.4149339299
 21
42.0347418177
 31
0.0
 11
-6.3051626916
 21
42.031137973
 31
0.0
 11
-5.0569311592
 21
42.0281615907
 31
0.0
 11
-3.6912956765
 21
42.0258631932
 31
0.0
 11
-2.2470367796
 21
42.0243078484
 31
0.0
 11
-0.7476367186
 21
42.0235209783
 31
0.0
 11
0.7637076589
 21
42.0235251874
 31
0.0
 11
2.262764946
 21
42.0243204224
 31
0.0
 11
3.706301677
 21
42.0258838076
 31
0.0
 11
5.0709339143
 21
42.0281899139
 31
0.0
 11
6.3177855493
 21
42.0311732404
 31
0.0
 11
7.4259811356
 21
42.0347835792
 31
0.0
 11
8.3638020587
 21
42.0389162142
 31
0.0
 11
9.0816768022
 21
42.0432524465
 31
0.0
 11
9.585741021
 21
42.0475734399
 31
0.0
 11
9.8980533656
 21
42.0516649894
 31
0.0
 11
10.0550031529
 21
42.0553556189
 31
0.0
 11
10.1
 21
42.0586798341
 31
0.0
  0
SPLINE
  5
350
100
AcDbEntity
  8
RACCORDO
100
AcDbSpline
 62
253
  6
CONTINUOUS
 70
0
 71
3
 72
30
 73
26
 74
24
 42
0.0000001
 43
0.0000001
 44
0.0000000001
 12
0.0
 22
-19.7557723978
 32
0.0
 13
-0.0
 23
19.7557723978
 33
0.0
 40
0.0
 40
0.0
 40
0.0
 40
0.0
 40
0.0022466034
 40
0.0100653134
 40
0.0256216967
 40
0.0507057289
 40
0.0863953748
 40
0.1329323902
 40
0.1878705108
 40
0.2496628203
 40
0.3172669838
 40
0.3887632497
 40
0.4629891779
 40
0.537806385
 40
0.6120153452
 40
0.6834758617
 40
0.7510303625
 40
0.8127543634
 40
0.8676144853
 40
0.914040569
 40
0.9495787068
 40
0.9745326933
 40
0.9899946364
 40
0.9977664266
 40
1.0
 40
1.0
 40
1.0
 40
1.0
 10
-9.8776457135
 20
42.3484558165
 30
0.0
 10
-9.8776457135
 20
42.333661355
 30
0.0
 10
-9.7721935937
 20
42.3647638409
 30
0.0
 10
-9.64738497
 20
42.3238415341
 30
0.0
 10
-9.297991214
 20
42.3460446271
 30
0.0
 10
-8.8113746163
 20
42.3282411935
 30
0.0
 10
-8.097549709
 20
42.3302960479
 30
0.0
 10
-7.1971080899
 20
42.3240217079
 30
0.0
 10
-6.120976446
 20
42.3214405976
 30
0.0
 10
-4.9074036337
 20
42.3183224633
 30
0.0
 10
-3.5843784427
 20
42.3162089503
 30
0.0
 10
-2.1795986198
 20
42.3146902266
 30
0.0
 10
-0.7272814091
 20
42.313943084
 30
0.0
 10
0.7428868023
 20
42.3139471435
 30
0.0
 10
2.194856867
 20
42.3147022512
 30
0.0
 10
3.5989624331
 20
42.3162287567
 30
0.0
 10
4.9209754508
 20
42.3183494331
 30
0.0
 10
6.1332574614
 20
42.3214743424
 30
0.0
 10
7.2076952936
 20
42.3240610959
 30
0.0
 10
8.1058984783
 20
42.3303339291
 30
0.0
 10
8.8171148201
 20
42.328300664
 30
0.0
 10
9.3013332313
 20
42.3460240078
 30
0.0
 10
9.6487626664
 20
42.3239754754
 30
0.0
 10
9.7728224824
 20
42.3646410416
 30
0.0
 10
9.8776457135
 20
42.3337471607
 30
0.0
 10
9.8776457135
 20
42.3484558165
 30
0.0
 11
-9.8776457135
 21
42.3484558165
 31
0.0
 11
-9.8333822572
 21
42.3451952566
 31
0.0
 11
-9.6789600265
 21
42.341575259
 31
0.0
 11
-9.3716578616
 21
42.337562012
 31
0.0
 11
-8.8761215196
 21
42.3333279622
 31
0.0
 11
-8.1710577756
 21
42.3290831154
 31
0.0
 11
-7.2516919614
 21
42.325044855
 31
0.0
 11
-6.1663526766
 21
42.3215203456
 31
0.0
 11
-4.9456013446
 21
42.3186094815
 31
0.0
 11
-3.6100307689
 21
42.3163616534
 31
0.0
 11
-2.1975676328
 21
42.3148405535
 31
0.0
 11
-0.7311772902
 21
42.3140709917
 31
0.0
 11
0.7468944242
 21
42.3140751089
 31
0.0
 11
2.2129495465
 21
42.3148528425
 31
0.0
 11
3.6247064181
 21
42.3163818071
 31
0.0
 11
4.9592958533
 21
42.3186371667
 31
0.0
 11
6.1786976768
 21
42.3215548209
 31
0.0
 11
7.2624960076
 21
42.3250856804
 31
0.0
 11
8.1796702447
 21
42.3291274222
 31
0.0
 11
8.8817407988
 21
42.3333681752
 31
0.0
 11
9.3747079647
 21
42.3375940187
 31
0.0
 11
9.6801443821
 21
42.3415955629
 31
0.0
 11
9.8336396745
 21
42.3452047349
 31
0.0
 11
9.8776457135
 21
42.3484558165
 31
0.0
  0
SPLINE
  5
351
100
AcDbEntity
  8
RACCORDO
100
AcDbSpline
 62
253
  6
CONTINUOUS
 70
0
 71
3
 72
30
 73
26
 74
24
 42
0.0000001
 43
0.0000001
 44
0.0000000001
 12
-0.0000000025
 22
-23.7005604598
 32
0.0
 13
0.0000000027
 23
23.7005604598
 33
0.0
 40
0.0
 40
0.0
 40
0.0
 40
0.0
 40
0.0028306604
 40
0.0128018671
 40
0.0324151163
 40
0.0616995351
 40
0.1002036692
 40
0.1470117562
 40
0.2008593172
 40
0.2609280028
 40
0.3256929774
 40
0.3941686626
 40
0.4646161939
 40
0.5359640922
 40
0.6064001061
 40
0.6748531036
 40
0.7395843425
 40
0.7996092251
 40
0.8534032892
 40
0.9001496156
 40
0.9385746982
 40
0.9677565739
 40
0.987271323
 40
0.9971852992
 40
1.0
 40
1.0
 40
1.0
 40
1.0
 10
-11.85
 20
40.2184986663
 30
0.0
 10
-11.85
 20
40.1961359203
 30
0.0
 10
-11.6890820669
 20
40.2449148733
 30
0.0
 10
-11.5000629232
 20
40.1820246993
 30
0.0
 10
-10.9903021172
 20
40.2161700177
 30
0.0
 10
-10.3214785
 20
40.1923052003
 30
0.0
 10
-9.4074261251
 20
40.1951851572
 30
0.0
 10
-8.31118592
 20
40.1881294993
 30
0.0
 10
-7.0403950317
 20
40.1852768581
 30
0.0
 10
-5.6291128622
 20
40.1818755291
 30
0.0
 10
-4.1018352759
 20
40.1795638308
 30
0.0
 10
-2.4926903651
 20
40.1779128297
 30
0.0
 10
-0.8315006765
 20
40.177098583
 30
0.0
 10
0.8451629911
 20
40.1771019572
 30
0.0
 10
2.5060824655
 20
40.1779228714
 30
0.0
 10
4.1146905729
 20
40.1795803791
 30
0.0
 10
5.6411764937
 20
40.1818981223
 30
0.0
 10
7.0514230456
 20
40.1853053437
 30
0.0
 10
8.3209581599
 20
40.1881626584
 30
0.0
 10
9.4156624751
 20
40.1952218736
 30
0.0
 10
10.3277847305
 20
40.192353024
 30
0.0
 10
10.9944531909
 20
40.2161573555
 30
0.0
 10
11.5019743635
 20
40.1821937001
 30
0.0
 10
11.6900038386
 20
40.2447303614
 30
0.0
 10
11.85
 20
40.1962620038
 30
0.0
 10
11.85
 20
40.2184986663
 30
0.0
 11
-11.85
 21
40.2184986663
 31
0.0
 11
-11.7830555878
 21
40.2141080667
 31
0.0
 11
-11.5467833463
 21
40.2092012899
 31
0.0
 11
-11.0819691583
 21
40.2038493808
 31
0.0
 11
-10.3879319113
 21
40.1985948039
 31
0.0
 11
-9.4753757018
 21
40.1936586297
 31
0.0
 11
-8.3660067508
 21
40.1892037141
 31
0.0
 11
-7.0897951797
 21
40.1853545141
 31
0.0
 11
-5.66613723
 21
40.1821694888
 31
0.0
 11
-4.131172972
 21
40.1797295008
 31
0.0
 11
-2.5082617017
 21
40.1780716898
 31
0.0
 11
-0.8386159351
 21
40.1772381592
 31
0.0
 11
0.8523692416
 21
40.1772415932
 31
0.0
 11
2.5217420359
 21
40.1780819094
 31
0.0
 11
4.1441155894
 21
40.1797463348
 31
0.0
 11
5.6782802804
 21
40.1821925972
 31
0.0
 11
7.1009000612
 21
40.1853834926
 31
0.0
 11
8.3758437035
 21
40.1892379831
 31
0.0
 11
9.4837488634
 21
40.1936975946
 31
0.0
 11
10.3944314651
 21
40.1986361912
 31
0.0
 11
11.0860383416
 21
40.2038869433
 31
0.0
 11
11.5485179972
 21
40.2092275771
 31
0.0
 11
11.7834338398
 21
40.2141204536
 31
0.0
 11
11.85
 21
40.2184986663
 31
0.0
  0
SPLINE
  5
352
100
AcDbEntity
  8
0
100
AcDbSpline
 62
7
  6
CONTINUOUS
 70
0
 71
3
 72
32
 73
28
 74
26
 42
0.0000001
 43
0.0000001
 44
0.0000000001
 12
0.0
 22
-22.7005153176
 32
0.0
 13
-0.0
 23
22.7005153176
 33
0.0
 40
0.0
 40
0.0
 40
0.0
 40
0.0
 40
0.0039486233
 40
0.015716096
 40
0.0351201128
 40
0.0618551443
 40
0.0954997323
 40
0.1355233635
 40
0.1812948892
 40
0.2320924968
 40
0.2871151007
 40
0.3454949798
 40
0.4063114635
 40
0.4686054529
 40
0.5313945471
 40
0.5936885365
 40
0.6545050202
 40
0.7128848993
 40
0.7679075032
 40
0.8187051108
 40
0.8644766365
 40
0.9045002677
 40
0.9381448557
 40
0.9648798872
 40
0.984283904
 40
0.9960513767
 40
1.0
 40
1.0
 40
1.0
 40
1.0
 10
11.35
 20
39.2917804704
 30
0.0
 10
11.35
 20
39.2619018755
 30
0.0
 10
11.1589366287
 20
39.3228414408
 30
0.0
 10
10.9624355346
 20
39.2569282365
 30
0.0
 10
10.4853560792
 20
39.2872990076
 30
0.0
 10
9.8985109445
 20
39.2679577795
 30
0.0
 10
9.1324079115
 20
39.2695810731
 30
0.0
 10
8.230855055
 20
39.2638565792
 30
0.0
 10
7.1965558892
 20
39.2611683494
 30
0.0
 10
6.0497180783
 20
39.2580893586
 30
0.0
 10
4.807175422
 20
39.2557909992
 30
0.0
 10
3.4889101667
 20
39.2539673425
 30
0.0
 10
2.1155966513
 20
39.2527519115
 30
0.0
 10
0.708926481
 20
39.2521351925
 30
0.0
 10
-0.708926481
 20
39.2521351925
 30
0.0
 10
-2.1155966513
 20
39.2527519115
 30
0.0
 10
-3.4889101667
 20
39.2539673425
 30
0.0
 10
-4.807175422
 20
39.2557909992
 30
0.0
 10
-6.0497180783
 20
39.2580893586
 30
0.0
 10
-7.1965558892
 20
39.2611683494
 30
0.0
 10
-8.230855055
 20
39.2638565792
 30
0.0
 10
-9.1324079115
 20
39.2695810731
 30
0.0
 10
-9.8985109445
 20
39.2679577795
 30
0.0
 10
-10.4853560792
 20
39.2872990076
 30
0.0
 10
-10.9624355346
 20
39.2569282365
 30
0.0
 10
-11.1589366287
 20
39.3228414408
 30
0.0
 10
-11.35
 20
39.2619018755
 30
0.0
 10
-11.35
 20
39.2917804704
 30
0.0
 11
11.35
 21
39.2917804704
 31
0.0
 11
11.2605018599
 21
39.2868149064
 31
0.0
 11
10.9934188788
 21
39.2819276523
 31
0.0
 11
10.5529631148
 21
39.277195783
 31
0.0
 11
9.9460808185
 21
39.2726939229
 31
0.0
 11
9.1823428862
 21
39.2684930691
 31
0.0
 11
8.2737939212
 21
39.2646594715
 31
0.0
 11
7.2347622836
 21
39.2612535883
 31
0.0
 11
6.081634123
 21
39.2583291322
 31
0.0
 11
4.8325949593
 21
39.2559322238
 31
0.0
 11
3.5073428862
 21
39.2541006635
 31
0.0
 11
2.1267779205
 21
39.2528633364
 31
0.0
 11
0.7126723967
 21
39.2522397557
 31
0.0
 11
-0.7126723967
 21
39.2522397557
 31
0.0
 11
-2.1267779205
 21
39.2528633364
 31
0.0
 11
-3.5073428862
 21
39.2541006635
 31
0.0
 11
-4.8325949593
 21
39.2559322238
 31
0.0
 11
-6.081634123
 21
39.2583291322
 31
0.0
 11
-7.2347622836
 21
39.2612535883
 31
0.0
 11
-8.2737939212
 21
39.2646594715
 31
0.0
 11
-9.1823428862
 21
39.2684930691
 31
0.0
 11
-9.9460808185
 21
39.2726939229
 31
0.0
 11
-10.5529631148
 21
39.277195783
 31
0.0
 11
-10.9934188788
 21
39.2819276523
 31
0.0
 11
-11.2605018599
 21
39.2868149064
 31
0.0
 11
-11.35
 21
39.2917804704
 31
0.0
  0
SPLINE
  5
353
100
AcDbEntity
  8
RACCORDO
100
AcDbSpline
 62
253
  6
CONTINUOUS
 70
0
 71
3
 72
30
 73
26
 74
24
 42
0.0000001
 43
0.0000001
 44
0.0000000001
 12
-0.0
 22
-26.5182269945
 32
0.0
 13
-0.0000000001
 23
26.5182269945
 33
0.0
 40
0.0
 40
0.0
 40
0.0
 40
0.0
 40
0.0046388862
 40
0.0184549129
 40
0.0412655455
 40
0.0726633088
 40
0.1119758582
 40
0.1586021787
 40
0.211492773
 40
0.2698885751
 40
0.332429703
 40
0.3982581838
 40
0.4658097059
 40
0.5341793793
 40
0.6017312205
 40
0.6675608568
 40
0.7301028492
 40
0.7885006402
 40
0.8413923811
 40
0.8880209393
 40
0.927334531
 40
0.9587342307
 40
0.9815451361
 40
0.9953611094
 40
1.0
 40
1.0
 40
1.0
 40
1.0
 10
-13.2588190451
 20
38.7803170648
 30
0.0
 10
-13.2588190451
 20
38.7393120527
 30
0.0
 10
-12.9966523904
 20
38.8241383795
 30
0.0
 10
-12.7269570948
 20
38.7333312356
 30
0.0
 10
-12.0722020601
 20
38.7759993517
 30
0.0
 10
-11.2686508076
 20
38.7498399011
 30
0.0
 10
-10.2227785606
 20
38.7526746948
 30
0.0
 10
-8.9986260573
 20
38.7454618371
 30
0.0
 10
-7.6017975504
 20
38.7424360041
 30
0.0
 10
-6.0655724843
 20
38.7389391195
 30
0.0
 10
-4.4145875518
 20
38.7365434597
 30
0.0
 10
-2.6827876941
 20
38.7348419571
 30
0.0
 10
-0.8994320323
 20
38.7339999727
 30
0.0
 10
0.8991454121
 20
38.733999902
 30
0.0
 10
2.6825141076
 20
38.7348417599
 30
0.0
 10
4.4143346413
 20
38.736543143
 30
0.0
 10
6.0653550118
 20
38.7389387244
 30
0.0
 10
7.6016154249
 20
38.7424355604
 30
0.0
 10
8.9984914668
 20
38.7454613684
 30
0.0
 10
10.2226829346
 20
38.7526744054
 30
0.0
 10
11.2686017365
 20
38.7498393158
 30
0.0
 10
12.0721802423
 20
38.7760002589
 30
0.0
 10
12.7269559024
 20
38.7333307935
 30
0.0
 10
12.996653035
 20
38.8241382143
 30
0.0
 10
13.2588190451
 20
38.7393120136
 30
0.0
 10
13.2588190451
 20
38.7803170648
 30
0.0
 11
-13.2588190451
 21
38.7803170648
 31
0.0
 11
-13.1359647267
 21
38.7740309193
 31
0.0
 11
-12.769640138
 21
38.767861678
 31
0.0
 11
-12.16477191
 21
38.7619075052
 31
0.0
 11
-11.3321778432
 21
38.756290358
 31
0.0
 11
-10.28969151
 21
38.7511292009
 31
0.0
 11
-9.0532528123
 21
38.7465036896
 31
0.0
 11
-7.6506936901
 21
38.742517472
 31
0.0
 11
-6.1021440489
 21
38.7392280641
 31
0.0
 11
-4.4436661326
 21
38.7367118472
 31
0.0
 11
-2.6980123702
 21
38.7350034863
 31
0.0
 11
-0.9066659801
 21
38.7341434872
 31
0.0
 11
0.9063765392
 21
38.7341434168
 31
0.0
 11
2.6977313917
 21
38.7350032823
 31
0.0
 11
4.4434157924
 21
38.7367115341
 31
0.0
 11
6.1019166373
 21
38.7392276512
 31
0.0
 11
7.6505190194
 21
38.7425170379
 31
0.0
 11
9.0531085482
 21
38.746503216
 31
0.0
 11
10.2896065872
 21
38.7511288322
 31
0.0
 11
11.3321205593
 21
38.7562900232
 31
0.0
 11
12.1647659736
 21
38.7619074565
 31
0.0
 11
12.7696414376
 21
38.7678616772
 31
0.0
 11
13.1359646085
 21
38.7740309344
 31
0.0
 11
13.2588190451
 21
38.7803170648
 31
0.0
  0
SPLINE
  5
354
100
AcDbEntity
  8
0
100
AcDbSpline
 62
7
  6
CONTINUOUS
 70
0
 71
3
 72
30
 73
26
 74
24
 42
0.0000001
 43
0.0000001
 44
0.0000000001
 12
0.0
 22
-18.9004194253
 32
0.0
 13
-0.0
 23
18.9004194253
 33
0.0
 40
0.0
 40
0.0
 40
0.0
 40
0.0
 40
0.0046629835
 40
0.0185489634
 40
0.0414025514
 40
0.0727985156
 40
0.1121521804
 40
0.1587305458
 40
0.2116659951
 40
0.2699724747
 40
0.3325638704
 40
0.3982742432
 40
0.4658795505
 40
0.5341204495
 40
0.6017257568
 40
0.6674361296
 40
0.7300275253
 40
0.7883340049
 40
0.8412694542
 40
0.8878478196
 40
0.9272014844
 40
0.9585974486
 40
0.9814510366
 40
0.9953370165
 40
1.0
 40
1.0
 40
1.0
 40
1.0
 10
9.45
 20
41.0917695042
 30
0.0
 10
9.45
 20
41.0623920562
 30
0.0
 10
9.2621879134
 20
41.1231896133
 30
0.0
 10
9.0693623336
 20
41.058214746
 30
0.0
 10
8.6019671737
 20
41.0886636486
 30
0.0
 10
8.0287118146
 20
41.0700335185
 30
0.0
 10
7.2833460895
 20
41.0720530407
 30
0.0
 10
6.4106074936
 20
41.0669179196
 30
0.0
 10
5.415625025
 20
41.0647642364
 30
0.0
 10
4.3206693246
 20
41.0622738039
 30
0.0
 10
3.1449479099
 20
41.0605688834
 30
0.0
 10
1.9107252328
 20
41.059356995
 30
0.0
 10
0.6408850881
 20
41.0587578466
 30
0.0
 10
-0.6408850881
 20
41.0587578466
 30
0.0
 10
-1.9107252328
 20
41.059356995
 30
0.0
 10
-3.1449479099
 20
41.0605688834
 30
0.0
 10
-4.3206693246
 20
41.0622738039
 30
0.0
 10
-5.415625025
 20
41.0647642364
 30
0.0
 10
-6.4106074936
 20
41.0669179196
 30
0.0
 10
-7.2833460895
 20
41.0720530407
 30
0.0
 10
-8.0287118146
 20
41.0700335185
 30
0.0
 10
-8.6019671737
 20
41.0886636486
 30
0.0
 10
-9.0693623336
 20
41.058214746
 30
0.0
 10
-9.2621879134
 20
41.1231896133
 30
0.0
 10
-9.45
 20
41.0623920562
 30
0.0
 10
-9.45
 20
41.0917695042
 30
0.0
 11
9.45
 21
41.0917695042
 31
0.0
 11
9.36198219
 21
41.0872778218
 31
0.0
 11
9.0995683654
 21
41.082869811
 31
0.0
 11
8.6676467992
 21
41.0786275846
 31
0.0
 11
8.074263373
 21
41.0746301673
 31
0.0
 11
7.3304716972
 21
41.0709520234
 31
0.0
 11
6.4501272034
 21
41.0676616698
 31
0.0
 11
5.449629044
 21
41.0648203995
 31
0.0
 11
4.3476146066
 21
41.0624811401
 31
0.0
 11
3.164612335
 21
41.0606874674
 31
0.0
 11
1.9226593233
 21
41.0594727943
 31
0.0
 11
0.6448908063
 21
41.0588597479
 31
0.0
 11
-0.6448908063
 21
41.0588597479
 31
0.0
 11
-1.9226593233
 21
41.0594727943
 31
0.0
 11
-3.164612335
 21
41.0606874674
 31
0.0
 11
-4.3476146066
 21
41.0624811401
 31
0.0
 11
-5.449629044
 21
41.0648203995
 31
0.0
 11
-6.4501272034
 21
41.0676616698
 31
0.0
 11
-7.3304716972
 21
41.0709520234
 31
0.0
 11
-8.074263373
 21
41.0746301673
 31
0.0
 11
-8.6676467992
 21
41.0786275846
 31
0.0
 11
-9.0995683654
 21
41.082869811
 31
0.0
 11
-9.36198219
 21
41.0872778218
 31
0.0
 11
-9.45
 21
41.0917695042
 31
0.0
  0
SPLINE
  5
355
100
AcDbEntity
  8
RACCORDO
100
AcDbSpline
 62
253
  6
CONTINUOUS
 70
0
 71
3
 72
28
 73
24
 74
22
 42
0.0000001
 43
0.0000001
 44
0.0000000001
 12
-0.0000000054
 22
-16.7003863016
 32
0.0
 13
0.000000006
 23
16.7003863016
 33
0.0
 40
0.0
 40
0.0
 40
0.0
 40
0.0
 40
0.0033482986
 40
0.0151431938
 40
0.038365685
 40
0.0732145372
 40
0.1191295398
 40
0.1747606076
 40
0.2382600445
 40
0.3084477941
 40
0.3831560045
 40
0.4609938682
 40
0.5395558451
 40
0.6173804164
 40
0.692062082
 40
0.7622111143
 40
0.8256599115
 40
0.8812298154
 40
0.927063398
 40
0.9618103575
 40
0.9849340594
 40
0.996668656
 40
1.0
 40
1.0
 40
1.0
 40
1.0
 10
-8.35
 20
43.8318741119
 30
0.0
 10
-8.35
 20
43.8132348185
 30
0.0
 10
-8.2158242427
 20
43.8546565983
 30
0.0
 10
-8.0582162046
 20
43.8019233675
 30
0.0
 10
-7.6318974112
 20
43.8312182823
 30
0.0
 10
-7.0712400286
 20
43.811386366
 30
0.0
 10
-6.3046109317
 20
43.8143380673
 30
0.0
 10
-5.3884752143
 20
43.8088716332
 30
0.0
 10
-4.3337155433
 20
43.8070060044
 30
0.0
 10
-3.1738926624
 20
43.8047320567
 30
0.0
 10
-1.9338993668
 20
43.8034131333
 30
0.0
 10
-0.6473926846
 20
43.8026925536
 30
0.0
 10
0.6564992465
 20
43.8026950242
 30
0.0
 10
1.9427841243
 20
43.8034205243
 30
0.0
 10
3.1823402369
 20
43.8047440747
 30
0.0
 10
4.3415175844
 20
43.8070226181
 30
0.0
 10
5.3954400504
 20
43.808891806
 30
0.0
 10
6.3104992902
 20
43.8143613421
 30
0.0
 10
7.0757625396
 20
43.8114175208
 30
0.0
 10
7.6348884904
 20
43.8312084699
 30
0.0
 10
8.0596156388
 20
43.8020421183
 30
0.0
 10
8.2165101859
 20
43.854517522
 30
0.0
 10
8.35
 20
43.8133292011
 30
0.0
 10
8.35
 20
43.8318741119
 30
0.0
 11
-8.35
 21
43.8318741119
 31
0.0
 11
-8.29418343
 21
43.8285096183
 31
0.0
 11
-8.097239873
 21
43.8247569721
 31
0.0
 11
-7.7094367452
 21
43.8206783822
 31
0.0
 11
-7.1274611179
 21
43.8166900725
 31
0.0
 11
-6.3606717594
 21
43.8129909033
 31
0.0
 11
-5.4316171365
 21
43.8097366603
 31
0.0
 11
-4.3711554399
 21
43.8070400264
 31
0.0
 11
-3.1989947688
 21
43.8049510437
 31
0.0
 11
-1.9513396003
 21
43.8035342426
 31
0.0
 11
-0.6514174061
 21
43.8028160048
 31
0.0
 11
0.6605979568
 21
43.8028185304
 31
0.0
 11
1.9602981601
 21
43.8035417758
 31
0.0
 11
3.2075100158
 21
43.8049633903
 31
0.0
 11
4.3790240833
 21
43.8070569211
 31
0.0
 11
5.4386400644
 21
43.8097576779
 31
0.0
 11
6.3666732087
 21
43.8130155604
 31
0.0
 11
7.1321027951
 21
43.8167166494
 31
0.0
 11
7.7123767493
 21
43.8207030801
 31
0.0
 11
8.0985300361
 21
43.8247748758
 31
0.0
 11
8.2944665789
 21
43.8285181349
 31
0.0
 11
8.35
 21
43.8318741119
 31
0.0
  0
SPLINE
  5
356
100
AcDbEntity
  8
RACCORDO
100
AcDbSpline
 62
253
  6
CONTINUOUS
 70
0
 71
3
 72
30
 73
26
 74
24
 42
0.0000001
 43
0.0000001
 44
0.0000000001
 12
0.0
 22
-23.2558413733
 32
0.0
 13
-0.0
 23
23.2558413733
 33
0.0
 40
0.0
 40
0.0
 40
0.0
 40
0.0
 40
0.002830646
 40
0.0128019123
 40
0.0324151201
 40
0.0616995498
 40
0.1002036763
 40
0.1470117602
 40
0.2008593209
 40
0.2609280036
 40
0.3256929783
 40
0.3941686626
 40
0.4646161939
 40
0.5359640922
 40
0.6064001061
 40
0.674853103
 40
0.739584342
 40
0.7996092224
 40
0.8534032863
 40
0.90014961
 40
0.9385746856
 40
0.9677565709
 40
0.9872712828
 40
0.9971853122
 40
1.0
 40
1.0
 40
1.0
 40
1.0
 10
-11.6276457135
 20
40.5082746488
 30
0.0
 10
-11.6276457135
 20
40.486331631
 30
0.0
 10
-11.4697467992
 20
40.5341950512
 30
0.0
 10
-11.2842745803
 20
40.4724859196
 30
0.0
 10
-10.784078781
 20
40.5059892819
 30
0.0
 10
-10.1278053036
 20
40.4825730044
 30
0.0
 10
-9.2309042794
 20
40.485398554
 30
0.0
 10
-8.1552340925
 20
40.4784753866
 30
0.0
 10
-6.9082884678
 20
40.4756762549
 30
0.0
 10
-5.5234877259
 20
40.4723387109
 30
0.0
 10
-4.0248681181
 20
40.4700704139
 30
0.0
 10
-2.4459173293
 20
40.4684503612
 30
0.0
 10
-0.8158983351
 20
40.4676514052
 30
0.0
 10
0.8293042899
 20
40.4676547109
 30
0.0
 10
2.4590581425
 20
40.4684602159
 30
0.0
 10
4.0374822033
 20
40.4700866433
 30
0.0
 10
5.535325007
 20
40.4723608776
 30
0.0
 10
6.9191095689
 20
40.4757041962
 30
0.0
 10
8.164822991
 20
40.478507913
 30
0.0
 10
9.2389861173
 20
40.4854345801
 30
0.0
 10
10.1339932385
 20
40.482619893
 30
0.0
 10
10.7881520256
 20
40.5059768958
 30
0.0
 10
11.2861501931
 20
40.4726516612
 30
0.0
 10
11.470651327
 20
40.534014011
 30
0.0
 10
11.6276457135
 20
40.486455338
 30
0.0
 10
11.6276457135
 20
40.5082746488
 30
0.0
 11
-11.6276457135
 21
40.5082746488
 31
0.0
 11
-11.5619577939
 21
40.5039663447
 31
0.0
 11
-11.3301175859
 21
40.4991520056
 31
0.0
 11
-10.874026172
 21
40.4939002675
 31
0.0
 11
-10.1930116367
 21
40.4887443641
 31
0.0
 11
-9.2975788791
 21
40.4839007652
 31
0.0
 11
-8.2090262834
 21
40.4795294223
 31
0.0
 11
-6.956761649
 21
40.4757524518
 31
0.0
 11
-5.559817387
 21
40.4726271655
 31
0.0
 11
-4.0536553127
 21
40.470232966
 31
0.0
 11
-2.4611964909
 21
40.4686062479
 31
0.0
 11
-0.8228800822
 21
40.4677883595
 31
0.0
 11
0.8363753213
 21
40.4677917267
 31
0.0
 11
2.4744238801
 21
40.4686162744
 31
0.0
 11
4.0663550817
 21
40.4702494784
 31
0.0
 11
5.5717325932
 21
40.4726498355
 31
0.0
 11
6.9676581783
 21
40.4757808777
 31
0.0
 11
8.218678678
 21
40.4795630398
 31
0.0
 11
9.3057949588
 21
40.4839389883
 31
0.0
 11
10.199389283
 21
40.48878496
 31
0.0
 11
10.8780190212
 21
40.4939371195
 31
0.0
 11
11.3318198056
 21
40.4991777686
 31
0.0
 11
11.5623289159
 21
40.5039785075
 31
0.0
 11
11.6276457135
 21
40.5082746488
 31
0.0
  0
SPLINE
  5
357
100
AcDbEntity
  8
0
100
AcDbSpline
 62
7
  6
CONTINUOUS
 70
0
 71
3
 72
29
 73
25
 74
23
 42
0.0000001
 43
0.0000001
 44
0.0000000001
 12
0.0
 22
-15.7003441435
 32
0.0
 13
-0.0
 23
15.7003441435
 33
0.0
 40
0.0
 40
0.0
 40
0.0
 40
0.0
 40
0.0050952251
 40
0.0202610789
 40
0.0451921133
 40
0.0793812938
 40
0.1221328007
 40
0.1725764225
 40
0.2296853239
 40
0.2922969674
 40
0.359136787
 40
0.4288441384
 40
0.5
 40
0.5711558616
 40
0.640863213
 40
0.7077030326
 40
0.7703146761
 40
0.8274235775
 40
0.8778671993
 40
0.9206187062
 40
0.9548078867
 40
0.9797389211
 40
0.9949047749
 40
1.0
 40
1.0
 40
1.0
 40
1.0
 10
7.85
 20
42.891758538
 30
0.0
 10
7.85
 20
42.8650929422
 30
0.0
 10
7.6795601418
 20
42.9206741875
 30
0.0
 10
7.5047425787
 20
42.8616332851
 30
0.0
 10
7.0814320582
 20
42.8895244175
 30
0.0
 10
6.5631611488
 20
42.8728042346
 30
0.0
 10
5.8909333389
 20
42.8748253473
 30
0.0
 10
5.1062483272
 20
42.8703966901
 30
0.0
 10
4.2150849719
 20
42.8686676467
 30
0.0
 10
3.2389241353
 20
42.8666574537
 30
0.0
 10
2.1965809609
 20
42.8653673879
 30
0.0
 10
1.1095941159
 20
42.8645356761
 30
0.0
 10
0.0
 20
42.8642666295
 30
0.0
 10
-1.1095941159
 20
42.8645356761
 30
0.0
 10
-2.1965809609
 20
42.8653673879
 30
0.0
 10
-3.2389241353
 20
42.8666574537
 30
0.0
 10
-4.2150849719
 20
42.8686676467
 30
0.0
 10
-5.1062483272
 20
42.8703966901
 30
0.0
 10
-5.8909333389
 20
42.8748253473
 30
0.0
 10
-6.5631611488
 20
42.8728042346
 30
0.0
 10
-7.0814320582
 20
42.8895244175
 30
0.0
 10
-7.5047425787
 20
42.8616332851
 30
0.0
 10
-7.6795601418
 20
42.9206741875
 30
0.0
 10
-7.85
 20
42.8650929422
 30
0.0
 10
-7.85
 20
42.891758538
 30
0.0
 11
7.85
 21
42.891758538
 31
0.0
 11
7.7700983188
 21
42.8878588818
 31
0.0
 11
7.5320198429
 21
42.8840386113
 31
0.0
 11
7.1406111635
 21
42.8803754963
 31
0.0
 11
6.6038402327
 21
42.8769441072
 31
0.0
 11
5.9326341587
 21
42.8738142972
 31
0.0
 11
5.1406567615
 21
42.8710497802
 31
0.0
 11
4.244030417
 21
42.8687068337
 31
0.0
 11
3.2610078521
 21
42.8668331535
 31
0.0
 11
2.2116005712
 21
42.8654668823
 31
0.0
 11
1.1171714804
 21
42.8646358333
 31
0.0
 11
0.0
 21
42.8643569244
 31
0.0
 11
-1.1171714804
 21
42.8646358333
 31
0.0
 11
-2.2116005712
 21
42.8654668823
 31
0.0
 11
-3.2610078521
 21
42.8668331535
 31
0.0
 11
-4.244030417
 21
42.8687068337
 31
0.0
 11
-5.1406567615
 21
42.8710497802
 31
0.0
 11
-5.9326341587
 21
42.8738142972
 31
0.0
 11
-6.6038402327
 21
42.8769441072
 31
0.0
 11
-7.1406111635
 21
42.8803754963
 31
0.0
 11
-7.5320198429
 21
42.8840386113
 31
0.0
 11
-7.7700983188
 21
42.8878588818
 31
0.0
 11
-7.85
 21
42.891758538
 31
0.0
  0
SPLINE
  5
358
100
AcDbEntity
  8
RACCORDO
100
AcDbSpline
 62
253
  6
CONTINUOUS
 70
0
 71
3
 72
28
 73
24
 74
22
 42
0.0000001
 43
0.0000001
 44
0.0000000001
 12
-0.0
 22
-16.2556674426
 32
0.0
 13
-0.0
 23
16.2556674426
 33
0.0
 40
0.0
 40
0.0
 40
0.0
 40
0.0
 40
0.0033482767
 40
0.0151432845
 40
0.0383657022
 40
0.0732145707
 40
0.1191295569
 40
0.174760616
 40
0.2382600515
 40
0.3084477954
 40
0.3831560055
 40
0.4609938681
 40
0.539555845
 40
0.617380416
 40
0.6920620817
 40
0.7622111103
 40
0.8256599067
 40
0.881229804
 40
0.9270633729
 40
0.9618103458
 40
0.9849339842
 40
0.9966686759
 40
1.0
 40
1.0
 40
1.0
 40
1.0
 10
-8.1276457135
 20
44.1216500943
 30
0.0
 10
-8.1276457135
 20
44.1035072702
 30
0.0
 10
-7.9970422898
 20
44.1438258124
 30
0.0
 10
-7.8436313949
 20
44.0924979824
 30
0.0
 10
-7.42866491
 20
44.1210112687
 30
0.0
 10
-6.8829377965
 20
44.1017083568
 30
0.0
 10
-6.1367235164
 20
44.1045809982
 30
0.0
 10
-5.2449839527
 20
44.0992602287
 30
0.0
 10
-4.2183118327
 20
44.0974442676
 30
0.0
 10
-3.0893742118
 20
44.0952308095
 30
0.0
 10
-1.8824010528
 20
44.0939470407
 30
0.0
 10
-0.6301530936
 20
44.0932456107
 30
0.0
 10
0.6390171584
 20
44.0932480241
 30
0.0
 10
1.8910492254
 20
44.0939542144
 30
0.0
 10
3.0975968596
 20
44.0952425034
 30
0.0
 10
4.2259061528
 20
44.097460411
 30
0.0
 10
5.2517633872
 20
44.0992798401
 30
0.0
 10
6.1424551679
 20
44.1046036388
 30
0.0
 10
6.8873399833
 20
44.1017386013
 30
0.0
 10
7.4315764964
 20
44.1210017684
 30
0.0
 10
7.8449936728
 20
44.0926134101
 30
0.0
 10
7.9977100871
 20
44.1436904342
 30
0.0
 10
8.1276457135
 20
44.1035991285
 30
0.0
 10
8.1276457135
 20
44.1216500943
 30
0.0
 11
-8.1276457135
 21
44.1216500943
 31
0.0
 11
-8.0733158598
 21
44.1183750998
 31
0.0
 11
-7.8816149221
 21
44.1147228601
 31
0.0
 11
-7.5041399034
 21
44.1107525736
 31
0.0
 11
-6.937661587
 21
44.1068705546
 31
0.0
 11
-6.1912915259
 21
44.103269823
 31
0.0
 11
-5.2869770777
 21
44.1001021993
 31
0.0
 11
-4.2547547094
 21
44.0974773767
 31
0.0
 11
-3.1138078966
 21
44.0954439818
 31
0.0
 11
-1.8993768619
 21
44.094064913
 31
0.0
 11
-0.6340706455
 21
44.0933657825
 31
0.0
 11
0.6430067247
 21
44.0933682416
 31
0.0
 11
1.9080968738
 21
44.0940722327
 31
0.0
 11
3.1220964057
 21
44.0954559886
 31
0.0
 11
4.262413866
 21
44.0974937978
 31
0.0
 11
5.293813049
 21
44.1001226345
 31
0.0
 11
6.197133253
 21
44.1032937932
 31
0.0
 11
6.9421797975
 21
44.1068963833
 31
0.0
 11
7.5070017053
 21
44.11077659
 31
0.0
 11
7.8828709833
 21
44.1147402216
 31
0.0
 11
8.0735914352
 21
44.1183833981
 31
0.0
 11
8.1276457135
 21
44.1216500943
 31
0.0
  0
SPLINE
  5
359
100
AcDbEntity
  8
0
100
AcDbSpline
 62
7
  6
CONTINUOUS
 70
0
 71
3
 72
25
 73
21
 74
19
 42
0.0000001
 43
0.0000001
 44
0.0000000001
 12
0.0
 22
-7.2001489691
 32
0.0
 13
-0.0
 23
7.2001489691
 33
0.0
 40
0.0
 40
0.0
 40
0.0
 40
0.0
 40
0.0076020098
 40
0.0301610233
 40
0.0669949016
 40
0.1169849689
 40
0.1786124859
 40
0.2500050269
 40
0.3289934256
 40
0.4131777035
 40
0.5
 40
0.5868222965
 40
0.6710065744
 40
0.7499949731
 40
0.8213875141
 40
0.8830150311
 40
0.9330050984
 40
0.9698389767
 40
0.9923979902
 40
1.0
 40
1.0
 40
1.0
 40
1.0
 10
3.6
 20
44.6917475718
 30
0.0
 10
3.6
 20
44.6735023707
 30
0.0
 10
3.4835712916
 20
44.7125907194
 30
0.0
 10
3.3647805219
 20
44.6721029109
 30
0.0
 10
3.0789389672
 20
44.6917813336
 30
0.0
 10
2.7325420865
 20
44.6809620556
 30
0.0
 10
2.2896732503
 20
44.6828269457
 30
0.0
 10
1.7820635397
 20
44.6804856988
 30
0.0
 10
1.2187146672
 20
44.6799384619
 30
0.0
 10
0.6188253953
 20
44.6792799493
 30
0.0
 10
0.0
 20
44.6791311039
 30
0.0
 10
-0.6188253953
 20
44.6792799493
 30
0.0
 10
-1.2187146672
 20
44.6799384619
 30
0.0
 10
-1.7820635397
 20
44.6804856988
 30
0.0
 10
-2.2896732503
 20
44.6828269457
 30
0.0
 10
-2.7325420865
 20
44.6809620556
 30
0.0
 10
-3.0789389672
 20
44.6917813336
 30
0.0
 10
-3.3647805219
 20
44.6721029109
 30
0.0
 10
-3.4835712916
 20
44.7125907194
 30
0.0
 10
-3.6
 20
44.6735023707
 30
0.0
 10
-3.6
 20
44.6917475718
 30
0.0
 11
3.6
 21
44.6917475718
 31
0.0
 11
3.5453079108
 21
44.6895654489
 31
0.0
 11
3.3828934348
 21
44.6874496286
 31
0.0
 11
3.1176914536
 21
44.6854643992
 31
0.0
 11
2.7577599952
 21
44.6836700809
 31
0.0
 11
2.3140353949
 21
44.682121193
 31
0.0
 11
1.8
 21
44.6808647977
 31
0.0
 11
1.231272516
 21
44.67993907
 31
0.0
 11
0.6251334396
 21
44.6793721377
 31
0.0
 11
0.0
 21
44.6791812267
 31
0.0
 11
-0.6251334396
 21
44.6793721377
 31
0.0
 11
-1.231272516
 21
44.67993907
 31
0.0
 11
-1.8
 21
44.6808647977
 31
0.0
 11
-2.3140353949
 21
44.682121193
 31
0.0
 11
-2.7577599952
 21
44.6836700809
 31
0.0
 11
-3.1176914536
 21
44.6854643992
 31
0.0
 11
-3.3828934348
 21
44.6874496286
 31
0.0
 11
-3.5453079108
 21
44.6895654489
 31
0.0
 11
-3.6
 21
44.6917475718
 31
0.0
  0
SPLINE
  5
35A
100
AcDbEntity
  8
0
100
AcDbSpline
 62
7
  6
CONTINUOUS
 70
0
 71
3
 72
8
 73
4
 74
2
 42
0.0000001
 43
0.0000001
 44
0.0000000001
 12
0.8440452122
 22
0.0
 32
0.0
 13
0.5245290804
 23
0.5119653664
 33
0.0
 40
0.0
 40
0.0
 40
0.0
 40
0.0
 40
1.0
 40
1.0
 40
1.0
 40
1.0
 10
-1.3599691359
 20
-42.8723458144
 30
0.0
 10
-1.0786207318
 20
-42.8723458144
 30
0.0
 10
-0.8531034589
 20
-42.7875182302
 30
0.0
 10
-0.6782604321
 20
-42.6168631081
 30
0.0
 11
-1.3599691359
 21
-42.8723458144
 31
0.0
 11
-0.6782604321
 21
-42.6168631081
 31
0.0
  0
SPLINE
  5
35B
100
AcDbEntity
  8
0
100
AcDbSpline
 62
7
  6
CONTINUOUS
 70
0
 71
3
 72
8
 73
4
 74
2
 42
0.0000001
 43
0.0000001
 44
0.0000000001
 12
0.5120229316
 22
0.4997587694
 32
0.0
 13
-0.0
 23
0.8379540719
 33
0.0
 40
0.0
 40
0.0
 40
0.0
 40
0.0
 40
1.0
 40
1.0
 40
1.0
 40
1.0
 10
-0.6782604321
 20
-42.6168631081
 30
0.0
 10
-0.5075861216
 20
-42.4502768516
 30
0.0
 10
-0.420689702
 20
-42.2288975342
 30
0.0
 10
-0.420689702
 20
-41.9495795103
 30
0.0
 11
-0.6782604321
 21
-42.6168631081
 31
0.0
 11
-0.420689702
 21
-41.9495795103
 31
0.0
  0
SPLINE
  5
35C
100
AcDbEntity
  8
0
100
AcDbSpline
 62
7
  6
CONTINUOUS
 70
0
 71
3
 72
8
 73
4
 74
2
 42
0.0000001
 43
0.0000001
 44
0.0000000001
 12
-0.0
 22
0.8317010575
 32
0.0
 13
-0.496512832
 23
0.5090034544
 33
0.0
 40
0.0
 40
0.0
 40
0.0
 40
0.0
 40
1.0
 40
1.0
 40
1.0
 40
1.0
 10
-0.420689702
 20
-41.9495795103
 30
0.0
 10
-0.420689702
 20
-41.6723458245
 30
0.0
 10
-0.5034481883
 20
-41.4509664848
 30
0.0
 10
-0.6689524656
 20
-41.2812986666
 30
0.0
 11
-0.420689702
 21
-41.9495795103
 31
0.0
 11
-0.6689524656
 21
-41.2812986666
 31
0.0
  0
SPLINE
  5
35D
100
AcDbEntity
  8
0
100
AcDbSpline
 62
7
  6
CONTINUOUS
 70
0
 71
3
 72
8
 73
4
 74
2
 42
0.0000001
 43
0.0000001
 44
0.0000000001
 12
-0.4903839809
 22
0.5027204216
 32
0.0
 13
-0.782078012
 23
0.0049189449
 33
0.0
 40
0.0
 40
0.0
 40
0.0
 40
0.0
 40
1.0
 40
1.0
 40
1.0
 40
1.0
 10
-0.6689524656
 20
-41.2812986666
 30
0.0
 10
-0.8324137926
 20
-41.1137251928
 30
0.0
 10
-1.0434482992
 20
-41.0268285944
 30
0.0
 10
-1.3041409698
 20
-41.0251889461
 30
0.0
 11
-0.6689524656
 21
-41.2812986666
 31
0.0
 11
-1.3041409698
 21
-41.0251889461
 31
0.0
  0
SPLINE
  5
35E
100
AcDbEntity
  8
0
100
AcDbSpline
 62
7
  6
CONTINUOUS
 70
0
 71
3
 72
8
 73
4
 74
2
 42
0.0000001
 43
0.0000001
 44
0.0000000001
 12
-0.2048185327
 22
0.0012882232
 32
0.0
 13
-0.2168869893
 23
-0.0451849467
 33
0.0
 40
0.0
 40
0.0
 40
0.0
 40
0.0
 40
1.0
 40
1.0
 40
1.0
 40
1.0
 10
-1.3041409698
 20
-41.0251889461
 30
0.0
 10
-1.3724138141
 20
-41.0247595384
 30
0.0
 10
-1.4406896234
 20
-41.0330354049
 30
0.0
 10
-1.5129852864
 20
-41.0480970538
 30
0.0
 11
-1.3041409698
 21
-41.0251889461
 31
0.0
 11
-1.5129852864
 21
-41.0480970538
 31
0.0
  0
SPLINE
  5
35F
100
AcDbEntity
  8
0
100
AcDbSpline
 62
7
  6
CONTINUOUS
 70
0
 71
3
 72
8
 73
4
 74
2
 42
0.0000001
 43
0.0000001
 44
0.0000000001
 12
-0.230009534
 22
-0.0479188197
 32
0.0
 13
-0.1800000966
 23
-0.0744827986
 33
0.0
 40
0.0
 40
0.0
 40
0.0
 40
0.0
 40
1.0
 40
1.0
 40
1.0
 40
1.0
 10
-1.5129852864
 20
-41.0480970538
 30
0.0
 10
-1.5896551311
 20
-41.0640699937
 30
0.0
 10
-1.6558620632
 20
-41.0909664705
 30
0.0
 10
-1.7158620954
 20
-41.11579407
 30
0.0
 11
-1.5129852864
 21
-41.0480970538
 31
0.0
 11
-1.7158620954
 21
-41.11579407
 31
0.0
  0
SPLINE
  5
360
100
AcDbEntity
  8
0
100
AcDbSpline
 62
7
  6
CONTINUOUS
 70
0
 71
3
 72
8
 73
4
 74
2
 42
0.0000001
 43
0.0000001
 44
0.0000000001
 12
0.1407365756
 22
0.3793768588
 32
0.0
 13
0.2091751899
 23
0.352498945
 33
0.0
 40
0.0
 40
0.0
 40
0.0
 40
0.0
 40
1.0
 40
1.0
 40
1.0
 40
1.0
 10
-2.2303604767
 20
-41.5070806618
 30
0.0
 10
-2.1834482849
 20
-41.3806217088
 30
0.0
 10
-2.1228284954
 20
-41.2601903739
 30
0.0
 10
-2.0531034321
 20
-41.1426907255
 30
0.0
 11
-2.2303604767
 21
-41.5070806618
 31
0.0
 11
-2.0531034321
 21
-41.1426907255
 31
0.0
  0
SPLINE
  5
361
100
AcDbEntity
  8
0
100
AcDbSpline
 62
7
  6
CONTINUOUS
 70
0
 71
3
 72
8
 73
4
 74
2
 42
0.0000001
 43
0.0000001
 44
0.0000000001
 12
-0.0022806501
 22
0.4903395186
 32
0.0
 13
0.1447806178
 23
0.3902781901
 33
0.0
 40
0.0
 40
0.0
 40
0.0
 40
0.0
 40
1.0
 40
1.0
 40
1.0
 40
1.0
 10
-2.3026880655
 20
-41.9475164391
 30
0.0
 10
-2.3034482822
 20
-41.7840699329
 30
0.0
 10
-2.2786206827
 20
-41.6371733918
 30
0.0
 10
-2.2303604767
 20
-41.5070806618
 30
0.0
 11
-2.3026880655
 21
-41.9475164391
 31
0.0
 11
-2.2303604767
 21
-41.5070806618
 31
0.0
  0
SPLINE
  5
362
100
AcDbEntity
  8
0
100
AcDbSpline
 62
7
  6
CONTINUOUS
 70
0
 71
3
 72
8
 73
4
 74
2
 42
0.0000001
 43
0.0000001
 44
0.0000000001
 12
-0.5231878502
 22
0.5016448378
 32
0.0
 13
-0.0039262498
 23
0.8441432853
 33
0.0
 40
0.0
 40
0.0
 40
0.0
 40
0.0
 40
1.0
 40
1.0
 40
1.0
 40
1.0
 10
-2.0380178452
 20
-42.6174917975
 30
0.0
 10
-2.2124137953
 20
-42.4502768516
 30
0.0
 10
-2.3013793156
 20
-42.2288975342
 30
0.0
 10
-2.3026880655
 20
-41.9475164391
 30
0.0
 11
-2.0380178452
 21
-42.6174917975
 31
0.0
 11
-2.3026880655
 21
-41.9475164391
 31
0.0
  0
SPLINE
  5
363
100
AcDbEntity
  8
0
100
AcDbSpline
 62
7
  6
CONTINUOUS
 70
0
 71
3
 72
8
 73
4
 74
2
 42
0.0000001
 43
0.0000001
 44
0.0000000001
 12
-0.8318166829
 22
0.0
 32
0.0
 13
-0.5319845261
 23
0.510079298
 33
0.0
 40
0.0
 40
0.0
 40
0.0
 40
0.0
 40
1.0
 40
1.0
 40
1.0
 40
1.0
 10
-1.3599691359
 20
-42.8723458144
 30
0.0
 10
-1.6372413635
 20
-42.8723458144
 30
0.0
 10
-1.8606896698
 20
-42.7875182302
 30
0.0
 10
-2.0380178452
 20
-42.6174917975
 30
0.0
 11
-1.3599691359
 21
-42.8723458144
 31
0.0
 11
-2.0380178452
 21
-42.6174917975
 31
0.0
  0
SPLINE
  5
364
100
AcDbEntity
  8
0
100
AcDbSpline
 62
7
  6
CONTINUOUS
 70
0
 71
3
 72
8
 73
4
 74
2
 42
0.0000001
 43
0.0000001
 44
0.0000000001
 12
-0.3647390944
 22
-0.3553061136
 32
0.0
 13
-0.0124137998
 23
-0.5834483206
 33
0.0
 40
0.0
 40
0.0
 40
0.0
 40
0.0
 40
1.0
 40
1.0
 40
1.0
 40
1.0
 10
-1.8260065254
 20
-41.4794276547
 30
0.0
 10
-1.9475862235
 20
-41.5978630259
 30
0.0
 10
-2.007586211
 20
-41.7551044001
 30
0.0
 10
-2.0117241442
 20
-41.9495871737
 30
0.0
 11
-1.8260065254
 21
-41.4794276547
 31
0.0
 11
-2.0117241442
 21
-41.9495871737
 31
0.0
  0
SPLINE
  5
365
100
AcDbEntity
  8
0
100
AcDbSpline
 62
7
  6
CONTINUOUS
 70
0
 71
3
 72
8
 73
4
 74
2
 42
0.0000001
 43
0.0000001
 44
0.0000000001
 12
-0.5773748871
 22
0.0
 32
0.0
 13
-0.3552608895
 23
-0.3460730366
 33
0.0
 40
0.0
 40
0.0
 40
0.0
 40
0.0
 40
1.0
 40
1.0
 40
1.0
 40
1.0
 10
-1.3620244921
 20
-41.3040699436
 30
0.0
 10
-1.5544827878
 20
-41.3040699436
 30
0.0
 10
-1.7075862288
 20
-41.3640699758
 30
0.0
 10
-1.8260065254
 20
-41.4794276547
 30
0.0
 11
-1.3620244921
 21
-41.3040699436
 31
0.0
 11
-1.8260065254
 21
-41.4794276547
 31
0.0
  0
SPLINE
  5
366
100
AcDbEntity
  8
0
100
AcDbSpline
 62
7
  6
CONTINUOUS
 70
0
 71
3
 72
8
 73
4
 74
2
 42
0.0000001
 43
0.0000001
 44
0.0000000001
 12
-0.3507034422
 22
0.3507034422
 32
0.0
 13
-0.595728654
 23
0.0
 33
0.0
 40
0.0
 40
0.0
 40
0.0
 40
0.0
 40
1.0
 40
1.0
 40
1.0
 40
1.0
 10
-0.8893057525
 20
-41.4809711232
 30
0.0
 10
-1.0062068999
 20
-41.3640699758
 30
0.0
 10
-1.1634482741
 20
-41.3040699436
 30
0.0
 10
-1.3620244921
 20
-41.3040699436
 30
0.0
 11
-0.8893057525
 21
-41.4809711232
 31
0.0
 11
-1.3620244921
 21
-41.3040699436
 31
0.0
  0
SPLINE
  5
367
100
AcDbEntity
  8
0
100
AcDbSpline
 62
7
  6
CONTINUOUS
 70
0
 71
3
 72
8
 73
4
 74
2
 42
0.0000001
 43
0.0000001
 44
0.0000000001
 12
0.0
 22
0.5835803674
 32
0.0
 13
-0.350675708
 23
0.350675708
 33
0.0
 40
0.0
 40
0.0
 40
0.0
 40
0.0
 40
1.0
 40
1.0
 40
1.0
 40
1.0
 10
-0.7144827843
 20
-41.9496311893
 30
0.0
 10
-0.7144827843
 20
-41.7551044001
 30
0.0
 10
-0.7724138498
 20
-41.5978630259
 30
0.0
 10
-0.8893057525
 20
-41.4809711232
 30
0.0
 11
-0.7144827843
 21
-41.9496311893
 31
0.0
 11
-0.8893057525
 21
-41.4809711232
 31
0.0
  0
SPLINE
  5
368
100
AcDbEntity
  8
0
100
AcDbSpline
 62
7
  6
CONTINUOUS
 70
0
 71
3
 72
8
 73
4
 74
2
 42
0.0000001
 43
0.0000001
 44
0.0000000001
 12
0.3460791269
 22
0.3552671746
 32
0.0
 13
0.0
 23
0.5771093739
 33
0.0
 40
0.0
 40
0.0
 40
0.0
 40
0.0
 40
1.0
 40
1.0
 40
1.0
 40
1.0
 10
-0.8877735588
 20
-42.4176647464
 30
0.0
 10
-0.7724138498
 20
-42.2992423548
 30
0.0
 10
-0.7144827843
 20
-42.1420009806
 30
0.0
 10
-0.7144827843
 20
-41.9496311893
 30
0.0
 11
-0.8877735588
 21
-42.4176647464
 31
0.0
 11
-0.7144827843
 21
-41.9496311893
 31
0.0
  0
SPLINE
  5
369
100
AcDbEntity
  8
0
100
AcDbSpline
 62
7
  6
CONTINUOUS
 70
0
 71
3
 72
8
 73
4
 74
2
 42
0.0000001
 43
0.0000001
 44
0.0000000001
 12
0.5958621204
 22
0.0
 32
0.0
 13
0.3553000233
 23
0.3647328764
 33
0.0
 40
0.0
 40
0.0
 40
0.0
 40
0.0
 40
1.0
 40
1.0
 40
1.0
 40
1.0
 10
-1.3620689809
 20
-42.6013113259
 30
0.0
 10
-1.1634482741
 20
-42.6013113259
 30
0.0
 10
-1.0062068999
 20
-42.5392423718
 30
0.0
 10
-0.8877735588
 20
-42.4176647464
 30
0.0
 11
-1.3620689809
 21
-42.6013113259
 31
0.0
 11
-0.8877735588
 21
-42.4176647464
 31
0.0
  0
SPLINE
  5
36A
100
AcDbEntity
  8
0
100
AcDbSpline
 62
7
  6
CONTINUOUS
 70
0
 71
3
 72
8
 73
4
 74
2
 42
0.0000001
 43
0.0000001
 44
0.0000000001
 12
0.3600534461
 22
-0.3600534796
 32
0.0
 13
0.5772414207
 23
0.0
 33
0.0
 40
0.0
 40
0.0
 40
0.0
 40
0.0
 40
1.0
 40
1.0
 40
1.0
 40
1.0
 10
-1.8276040442
 20
-42.4192245453
 30
0.0
 10
-1.7075862288
 20
-42.5392423718
 30
0.0
 10
-1.5544827878
 20
-42.6013113259
 30
0.0
 10
-1.3620689809
 20
-42.6013113259
 30
0.0
 11
-1.8276040442
 21
-42.4192245453
 31
0.0
 11
-1.3620689809
 21
-42.6013113259
 31
0.0
  0
SPLINE
  5
36B
100
AcDbEntity
  8
0
100
AcDbSpline
 62
7
  6
CONTINUOUS
 70
0
 71
3
 72
8
 73
4
 74
2
 42
0.0000001
 43
0.0000001
 44
0.0000000001
 12
0.0124137998
 22
-0.5772414207
 32
0.0
 13
0.3599465379
 23
-0.3599465714
 33
0.0
 40
0.0
 40
0.0
 40
0.0
 40
0.0
 40
1.0
 40
1.0
 40
1.0
 40
1.0
 10
-2.0117241442
 20
-41.9495871737
 30
0.0
 10
-2.007586211
 20
-42.1420009806
 30
0.0
 10
-1.9475862235
 20
-42.2992423548
 30
0.0
 10
-1.8276040442
 20
-42.4192245453
 30
0.0
 11
-2.0117241442
 21
-41.9495871737
 31
0.0
 11
-1.8276040442
 21
-42.4192245453
 31
0.0
  0
SPLINE
  5
36C
100
AcDbEntity
  8
0
100
AcDbSpline
 62
7
  6
CONTINUOUS
 70
0
 71
3
 72
8
 73
4
 74
2
 42
0.0000001
 43
0.0000001
 44
0.0000000001
 12
-0.3496770221
 22
-0.5013068055
 32
0.0
 13
-0.4414255721
 23
-0.4523864725
 33
0.0
 40
0.0
 40
0.0
 40
0.0
 40
0.0
 40
1.0
 40
1.0
 40
1.0
 40
1.0
 10
1.690352061
 20
-41.1411056084
 30
0.0
 10
1.5737930536
 20
-41.3082078769
 30
0.0
 10
1.433348818
 20
-41.4594813348
 30
0.0
 10
1.2862069607
 20
-41.6102768256
 30
0.0
 11
1.690352061
 21
-41.1411056084
 31
0.0
 11
1.2862069607
 21
-41.6102768256
 31
0.0
  0
SPLINE
  5
36D
100
AcDbEntity
  8
0
100
AcDbSpline
 62
7
  6
CONTINUOUS
 70
0
 71
3
 72
8
 73
4
 74
2
 42
0.0000001
 43
0.0000001
 44
0.0000000001
 12
0.0028650653
 22
-0.6704540082
 32
0.0
 13
-0.3517023963
 23
-0.5042104388
 33
0.0
 40
0.0
 40
0.0
 40
0.0
 40
0.0
 40
1.0
 40
1.0
 40
1.0
 40
1.0
 10
1.8666311141
 20
-40.5550681086
 30
0.0
 10
1.8675861359
 20
-40.778552778
 30
0.0
 10
1.8075861931
 20
-40.9730354621
 30
0.0
 10
1.690352061
 20
-41.1411056084
 30
0.0
 11
1.8666311141
 21
-40.5550681086
 31
0.0
 11
1.690352061
 21
-41.1411056084
 31
0.0
  0
SPLINE
  5
36E
100
AcDbEntity
  8
0
100
AcDbSpline
 62
7
  6
CONTINUOUS
 70
0
 71
3
 72
8
 73
4
 74
2
 42
0.0000001
 43
0.0000001
 44
0.0000000001
 12
0.5051729918
 22
-0.3897940483
 32
0.0
 13
0.0033415663
 23
-0.7819600276
 33
0.0
 40
0.0
 40
0.0
 40
0.0
 40
0.0
 40
1.0
 40
1.0
 40
1.0
 40
1.0
 10
1.6102298419
 20
-39.9700007325
 30
0.0
 10
1.7786208391
 20
-40.0999320819
 30
0.0
 10
1.8655172586
 20
-40.2944147661
 30
0.0
 10
1.8666311141
 20
-40.5550681086
 30
0.0
 11
1.6102298419
 21
-39.9700007325
 31
0.0
 11
1.8666311141
 21
-40.5550681086
 31
0.0
  0
SPLINE
  5
36F
100
AcDbEntity
  8
0
100
AcDbSpline
 62
7
  6
CONTINUOUS
 70
0
 71
3
 72
8
 73
4
 74
2
 42
0.0000001
 43
0.0000001
 44
0.0000000001
 12
0.7323849694
 22
0.0064815655
 32
0.0
 13
0.5003442526
 23
-0.3860681686
 33
0.0
 40
0.0
 40
0.0
 40
0.0
 40
0.0
 40
1.0
 40
1.0
 40
1.0
 40
1.0
 10
0.9944923157
 20
-39.7772649327
 30
0.0
 10
1.2386206388
 20
-39.7751044109
 30
0.0
 10
1.4434484243
 20
-39.8413113429
 30
0.0
 10
1.6102298419
 20
-39.9700007325
 30
0.0
 11
0.9944923157
 21
-39.7772649327
 31
0.0
 11
1.6102298419
 21
-39.9700007325
 31
0.0
  0
SPLINE
  5
370
100
AcDbEntity
  8
0
100
AcDbSpline
 62
7
  6
CONTINUOUS
 70
0
 71
3
 72
8
 73
4
 74
2
 42
0.0000001
 43
0.0000001
 44
0.0000000001
 12
0.4655177855
 22
0.3724139602
 32
0.0
 13
0.6703738674
 23
0.0059327707
 33
0.0
 40
0.0
 40
0.0
 40
0.0
 40
0.0
 40
1.0
 40
1.0
 40
1.0
 40
1.0
 10
0.4255171927
 20
-39.9654493297
 30
0.0
 10
0.5806897879
 20
-39.8413113429
 30
0.0
 10
0.7710343599
 20
-39.7792425229
 30
0.0
 10
0.9944923157
 20
-39.7772649327
 30
0.0
 11
0.4255171927
 21
-39.9654493297
 31
0.0
 11
0.9944923157
 21
-39.7772649327
 31
0.0
  0
SPLINE
  5
371
100
AcDbEntity
  8
0
100
AcDbSpline
 62
7
  6
CONTINUOUS
 70
0
 71
3
 72
8
 73
4
 74
2
 42
0.0000001
 43
0.0000001
 44
0.0000000001
 12
0.1303446293
 22
0.6765518188
 32
0.0
 13
0.4655171967
 23
0.3724134891
 33
0.0
 40
0.0
 40
0.0
 40
0.0
 40
0.0
 40
1.0
 40
1.0
 40
1.0
 40
1.0
 10
0.1255173087
 20
-40.4909665062
 30
0.0
 10
0.1689655185
 20
-40.2654492333
 30
0.0
 10
0.2703447938
 20
-40.0895871594
 30
0.0
 10
0.4255171927
 20
-39.9654493297
 30
0.0
 11
0.1255173087
 21
-40.4909665062
 31
0.0
 11
0.4255171927
 21
-39.9654493297
 31
0.0
  0
SPLINE
  5
372
100
AcDbEntity
  8
0
100
AcDbSpline
 62
7
  6
CONTINUOUS
 70
0
 71
3
 72
8
 73
4
 74
2
 42
0.0000001
 43
0.0000001
 44
0.0000000001
 12
-0.3106220332
 22
-0.2541450534
 32
0.0
 13
-0.1055175662
 23
-0.4406896234
 33
0.0
 40
0.0
 40
0.0
 40
0.0
 40
0.0
 40
1.0
 40
1.0
 40
1.0
 40
1.0
 10
0.6469888875
 20
-40.1765962822
 30
0.0
 10
0.5434482098
 20
-40.2613113
 30
0.0
 10
0.4731035233
 20
-40.3771734311
 30
0.0
 10
0.4379310012
 20
-40.5240699723
 30
0.0
 11
0.6469888875
 21
-40.1765962822
 31
0.0
 11
0.4379310012
 21
-40.5240699723
 31
0.0
  0
SPLINE
  5
373
100
AcDbEntity
  8
0
100
AcDbSpline
 62
7
  6
CONTINUOUS
 70
0
 71
3
 72
8
 73
4
 74
2
 42
0.0000001
 43
0.0000001
 44
0.0000000001
 12
-0.4344835281
 22
0.0
 32
0.0
 13
-0.3038613232
 23
-0.2486135688
 33
0.0
 40
0.0
 40
0.0
 40
0.0
 40
0.0
 40
1.0
 40
1.0
 40
1.0
 40
1.0
 10
1.017241478
 20
-40.0523457601
 30
0.0
 10
0.8724136353
 20
-40.0523457601
 30
0.0
 10
0.7482759953
 20
-40.0937250926
 30
0.0
 10
0.6469888875
 20
-40.1765962822
 30
0.0
 11
1.017241478
 21
-40.0523457601
 31
0.0
 11
0.6469888875
 21
-40.1765962822
 31
0.0
  0
SPLINE
  5
374
100
AcDbEntity
  8
0
100
AcDbSpline
 62
7
  6
CONTINUOUS
 70
0
 71
3
 72
8
 73
4
 74
2
 42
0.0000001
 43
0.0000001
 44
0.0000000001
 12
-0.3155742075
 22
0.275354065
 32
0.0
 13
-0.4841376543
 23
0.0
 33
0.0
 40
0.0
 40
0.0
 40
0.0
 40
0.0
 40
1.0
 40
1.0
 40
1.0
 40
1.0
 10
1.4162259627
 20
-40.1896477142
 30
0.0
 10
1.3110345602
 20
-40.0978630259
 30
0.0
 10
1.1786206961
 20
-40.0523457601
 30
0.0
 10
1.017241478
 20
-40.0523457601
 30
0.0
 11
1.4162259627
 21
-40.1896477142
 31
0.0
 11
1.017241478
 21
-40.0523457601
 31
0.0
  0
SPLINE
  5
375
100
AcDbEntity
  8
0
100
AcDbSpline
 62
7
  6
CONTINUOUS
 70
0
 71
3
 72
8
 73
4
 74
2
 42
0.0000001
 43
0.0000001
 44
0.0000000001
 12
0.0
 22
0.5029118689
 32
0.0
 13
-0.3175290439
 23
0.2770597562
 33
0.0
 40
0.0
 40
0.0
 40
0.0
 40
0.0
 40
1.0
 40
1.0
 40
1.0
 40
1.0
 10
1.5758619308
 20
-40.579983064
 30
0.0
 10
1.5758619308
 20
-40.4123457744
 30
0.0
 10
1.5220689774
 20
-40.2820009663
 30
0.0
 10
1.4162259627
 20
-40.1896477142
 30
0.0
 11
1.5758619308
 21
-40.579983064
 31
0.0
 11
1.4162259627
 21
-40.1896477142
 31
0.0
  0
SPLINE
  5
376
100
AcDbEntity
  8
0
100
AcDbSpline
 62
7
  6
CONTINUOUS
 70
0
 71
3
 72
8
 73
4
 74
2
 42
0.0000001
 43
0.0000001
 44
0.0000000001
 12
0.2234483957
 22
0.3351725936
 32
0.0
 13
0.0
 23
0.4032949773
 33
0.0
 40
0.0
 40
0.0
 40
0.0
 40
0.0
 40
1.0
 40
1.0
 40
1.0
 40
1.0
 10
1.4641379118
 20
-40.9482078626
 30
0.0
 10
1.5386207104
 20
-40.8364836647
 30
0.0
 10
1.5758619308
 20
-40.7144147231
 30
0.0
 10
1.5758619308
 20
-40.579983064
 30
0.0
 11
1.4641379118
 21
-40.9482078626
 31
0.0
 11
1.5758619308
 21
-40.579983064
 31
0.0
  0
SPLINE
  5
377
100
AcDbEntity
  8
0
100
AcDbSpline
 62
7
  6
CONTINUOUS
 70
0
 71
3
 72
8
 73
4
 74
2
 42
0.0000001
 43
0.0000001
 44
0.0000000001
 12
0.2855168581
 22
0.2793107629
 32
0.0
 13
0.2234483957
 23
0.3351725936
 33
0.0
 40
0.0
 40
0.0
 40
0.0
 40
0.0
 40
1.0
 40
1.0
 40
1.0
 40
1.0
 10
1.2096552849
 20
-41.2564838006
 30
0.0
 10
1.3048275709
 20
-41.163380213
 30
0.0
 10
1.3896551132
 20
-41.0599320605
 30
0.0
 10
1.4641379118
 20
-40.9482078626
 30
0.0
 11
1.2096552849
 21
-41.2564838006
 31
0.0
 11
1.4641379118
 21
-40.9482078626
 31
0.0
  0
SPLINE
  5
378
100
AcDbEntity
  8
0
100
AcDbSpline
 62
7
  6
CONTINUOUS
 70
0
 71
3
 72
8
 73
4
 74
2
 42
0.0000001
 43
0.0000001
 44
0.0000000001
 12
-0.2807776096
 22
0.3918545189
 32
0.0
 13
-0.0124143362
 23
0.6082756519
 33
0.0
 40
0.0
 40
0.0
 40
0.0
 40
0.0
 40
1.0
 40
1.0
 40
1.0
 40
1.0
 10
42.0956614138
 20
-4.529170908
 30
0.0
 10
42.0020688772
 20
-4.3985527351
 30
0.0
 10
41.954482913
 20
-4.2309665277
 30
0.0
 10
41.9503448009
 20
-4.028207977
 30
0.0
 11
42.0956614138
 21
-4.529170908
 31
0.0
 11
41.9503448009
 21
-4.028207977
 31
0.0
  0
SPLINE
  5
379
100
AcDbEntity
  8
0
100
AcDbSpline
 62
7
  6
CONTINUOUS
 70
0
 71
3
 72
8
 73
4
 74
2
 42
0.0000001
 43
0.0000001
 44
0.0000000001
 12
-0.4603226355
 22
0.2025420763
 32
0.0
 13
-0.2840500114
 23
0.3964214978
 33
0.0
 40
0.0
 40
0.0
 40
0.0
 40
0.0
 40
1.0
 40
1.0
 40
1.0
 40
1.0
 10
42.469992683
 20
-4.828135652
 30
0.0
 10
42.3165518045
 20
-4.7606216266
 30
0.0
 10
42.1903447509
 20
-4.6613114073
 30
0.0
 10
42.0956614138
 20
-4.529170908
 30
0.0
 11
42.469992683
 21
-4.828135652
 31
0.0
 11
42.0956614138
 21
-4.529170908
 31
0.0
  0
SPLINE
  5
37A
100
AcDbEntity
  8
0
100
AcDbSpline
 62
7
  6
CONTINUOUS
 70
0
 71
3
 72
8
 73
4
 74
2
 42
0.0000001
 43
0.0000001
 44
0.0000000001
 12
-0.5344243023
 22
0.0829280829
 32
0.0
 13
-0.4707118103
 23
0.2071133159
 33
0.0
 40
0.0
 40
0.0
 40
0.0
 40
0.0
 40
1.0
 40
1.0
 40
1.0
 40
1.0
 10
42.9705552052
 20
-4.9724022613
 30
0.0
 10
42.7924137712
 20
-4.944759567
 30
0.0
 10
42.6268966198
 20
-4.897173424
 30
0.0
 10
42.469992683
 20
-4.828135652
 30
0.0
 11
42.9705552052
 21
-4.9724022613
 31
0.0
 11
42.469992683
 21
-4.828135652
 31
0.0
  0
SPLINE
  5
37B
100
AcDbEntity
  8
0
100
AcDbSpline
 62
7
  6
CONTINUOUS
 70
0
 71
3
 72
8
 73
4
 74
2
 42
0.0000001
 43
0.0000001
 44
0.0000000001
 12
-0.465517124
 22
-0.2048276526
 32
0.0
 13
-0.5465271162
 23
-0.0848061097
 33
0.0
 40
0.0
 40
0.0
 40
0.0
 40
0.0
 40
1.0
 40
1.0
 40
1.0
 40
1.0
 10
44.5220689444
 20
-4.8288975398
 30
0.0
 10
44.3668965697
 20
-4.897173424
 30
0.0
 10
44.1993103623
 20
-4.944759567
 30
0.0
 10
44.017134657
 20
-4.9730282702
 30
0.0
 11
44.5220689444
 21
-4.8288975398
 31
0.0
 11
44.017134657
 21
-4.9730282702
 31
0.0
  0
SPLINE
  5
37C
100
AcDbEntity
  8
0
100
AcDbSpline
 62
7
  6
CONTINUOUS
 70
0
 71
3
 72
8
 73
4
 74
2
 42
0.0000001
 43
0.0000001
 44
0.0000000001
 12
-0.2880495103
 22
-0.3891733637
 32
0.0
 13
-0.4655173218
 23
-0.2048277396
 33
0.0
 40
0.0
 40
0.0
 40
0.0
 40
0.0
 40
1.0
 40
1.0
 40
1.0
 40
1.0
 10
44.8994647856
 20
-4.5315869527
 30
0.0
 10
44.8034482822
 20
-4.6613114073
 30
0.0
 10
44.677241385
 20
-4.7606216266
 30
0.0
 10
44.5220689444
 20
-4.8288975398
 30
0.0
 11
44.8994647856
 21
-4.5315869527
 31
0.0
 11
44.5220689444
 21
-4.8288975398
 31
0.0
  0
SPLINE
  5
37D
100
AcDbEntity
  8
0
100
AcDbSpline
 62
7
  6
CONTINUOUS
 70
0
 71
3
 72
8
 73
4
 74
2
 42
0.0000001
 43
0.0000001
 44
0.0000000001
 12
0.0
 22
-0.602196984
 32
0.0
 13
-0.2953987464
 23
-0.399102653
 33
0.0
 40
0.0
 40
0.0
 40
0.0
 40
0.0
 40
1.0
 40
1.0
 40
1.0
 40
1.0
 10
45.0475862045
 20
-4.0302341997
 30
0.0
 10
45.0475862045
 20
-4.2309665277
 30
0.0
 10
44.9979310344
 20
-4.3985527351
 30
0.0
 10
44.8994647856
 20
-4.5315869527
 30
0.0
 11
45.0475862045
 21
-4.0302341997
 31
0.0
 11
44.8994647856
 21
-4.5315869527
 31
0.0
  0
SPLINE
  5
37E
100
AcDbEntity
  8
0
100
AcDbSpline
 62
7
  6
CONTINUOUS
 70
0
 71
3
 72
8
 73
4
 74
2
 42
0.0000001
 43
0.0000001
 44
0.0000000001
 12
0.2924652674
 22
-0.3951396037
 32
0.0
 13
0.0
 23
-0.626768656
 33
0.0
 40
0.0
 40
0.0
 40
0.0
 40
0.0
 40
1.0
 40
1.0
 40
1.0
 40
1.0
 10
44.9004426119
 20
-3.5199430285
 30
0.0
 10
44.9979310344
 20
-3.6516562297
 30
0.0
 10
45.0475862045
 20
-3.8213113143
 30
0.0
 10
45.0475862045
 20
-4.0302341997
 30
0.0
 11
44.9004426119
 21
-3.5199430285
 31
0.0
 11
45.0475862045
 21
-4.0302341997
 31
0.0
  0
SPLINE
  5
37F
100
AcDbEntity
  8
0
100
AcDbSpline
 62
7
  6
CONTINUOUS
 70
0
 71
3
 72
8
 73
4
 74
2
 42
0.0000001
 43
0.0000001
 44
0.0000000001
 12
0.4655174206
 22
-0.2048280513
 32
0.0
 13
0.2909829893
 23
-0.3931369495
 33
0.0
 40
0.0
 40
0.0
 40
0.0
 40
0.0
 40
1.0
 40
1.0
 40
1.0
 40
1.0
 10
44.5220689114
 20
-3.2213113211
 30
0.0
 10
44.677241385
 20
-3.2895873382
 30
0.0
 10
44.8034482822
 20
-3.3888973787
 30
0.0
 10
44.9004426119
 20
-3.5199430285
 30
0.0
 11
44.5220689114
 21
-3.2213113211
 31
0.0
 11
44.9004426119
 21
-3.5199430285
 31
0.0
  0
SPLINE
  5
380
100
AcDbEntity
  8
0
100
AcDbSpline
 62
7
  6
CONTINUOUS
 70
0
 71
3
 72
8
 73
4
 74
2
 42
0.0000001
 43
0.0000001
 44
0.0000000001
 12
0.5469565024
 22
-0.0754423137
 32
0.0
 13
0.4655170251
 23
-0.2048278773
 33
0.0
 40
0.0
 40
0.0
 40
0.0
 40
0.0
 40
1.0
 40
1.0
 40
1.0
 40
1.0
 10
44.0169915282
 20
-3.0803019599
 30
0.0
 10
44.1993103623
 20
-3.1054493978
 30
0.0
 10
44.3668965697
 20
-3.153035362
 30
0.0
 10
44.5220689114
 20
-3.2213113211
 30
0.0
 11
44.0169915282
 21
-3.0803019599
 31
0.0
 11
44.5220689114
 21
-3.2213113211
 31
0.0
  0
SPLINE
  5
381
100
AcDbEntity
  8
0
100
AcDbSpline
 62
7
  6
CONTINUOUS
 70
0
 71
3
 72
8
 73
4
 74
2
 42
0.0000001
 43
0.0000001
 44
0.0000000001
 12
0.5027586222
 22
0.0
 32
0.0
 13
0.5330435405
 23
-0.0735232835
 33
0.0
 40
0.0
 40
0.0
 40
0.0
 40
0.0
 40
1.0
 40
1.0
 40
1.0
 40
1.0
 10
43.5
 20
-3.0454490974
 30
0.0
 10
43.6675862074
 20
-3.0454490974
 30
0.0
 10
43.839310348
 20
-3.0557941987
 30
0.0
 10
44.0169915282
 20
-3.0803019599
 30
0.0
 11
43.5
 21
-3.0454490974
 31
0.0
 11
44.0169915282
 21
-3.0803019599
 31
0.0
  0
SPLINE
  5
382
100
AcDbEntity
  8
0
100
AcDbSpline
 62
7
  6
CONTINUOUS
 70
0
 71
3
 72
8
 73
4
 74
2
 42
0.0000001
 43
0.0000001
 44
0.0000000001
 12
0.5452945886
 22
0.0752130841
 32
0.0
 13
0.5151724219
 23
0.0
 33
0.0
 40
0.0
 40
0.0
 40
0.0
 40
0.0
 40
1.0
 40
1.0
 40
1.0
 40
1.0
 10
42.9706489226
 20
-3.0808652268
 30
0.0
 10
43.1524137855
 20
-3.0557941987
 30
0.0
 10
43.3282758594
 20
-3.0454490974
 30
0.0
 10
43.5
 20
-3.0454490974
 30
0.0
 11
42.9706489226
 21
-3.0808652268
 31
0.0
 11
43.5
 21
-3.0454490974
 31
0.0
  0
SPLINE
  5
383
100
AcDbEntity
  8
0
100
AcDbSpline
 62
7
  6
CONTINUOUS
 70
0
 71
3
 72
8
 73
4
 74
2
 42
0.0000001
 43
0.0000001
 44
0.0000000001
 12
0.4707229609
 22
0.2071184934
 32
0.0
 13
0.5347054543
 23
0.0737525131
 33
0.0
 40
0.0
 40
0.0
 40
0.0
 40
0.0
 40
1.0
 40
1.0
 40
1.0
 40
1.0
 10
42.4699889661
 20
-3.2220748598
 30
0.0
 10
42.6268966198
 20
-3.153035362
 30
0.0
 10
42.7924137712
 20
-3.1054493978
 30
0.0
 10
42.9706489226
 20
-3.0808652268
 30
0.0
 11
42.4699889661
 21
-3.2220748598
 31
0.0
 11
42.9706489226
 21
-3.0808652268
 31
0.0
  0
SPLINE
  5
384
100
AcDbEntity
  8
0
100
AcDbSpline
 62
7
  6
CONTINUOUS
 70
0
 71
3
 72
8
 73
4
 74
2
 42
0.0000001
 43
0.0000001
 44
0.0000000001
 12
0.2870611461
 22
0.4006241238
 32
0.0
 13
0.4603114848
 23
0.2025374352
 33
0.0
 40
0.0
 40
0.0
 40
0.0
 40
0.0
 40
1.0
 40
1.0
 40
1.0
 40
1.0
 10
42.0946577022
 20
-3.5224387533
 30
0.0
 10
42.1903447509
 20
-3.3888973787
 30
0.0
 10
42.3165518045
 20
-3.2895873382
 30
0.0
 10
42.4699889661
 20
-3.2220748598
 30
0.0
 11
42.0946577022
 21
-3.5224387533
 31
0.0
 11
42.4699889661
 21
-3.2220748598
 31
0.0
  0
SPLINE
  5
385
100
AcDbEntity
  8
0
100
AcDbSpline
 62
7
  6
CONTINUOUS
 70
0
 71
3
 72
8
 73
4
 74
2
 42
0.0000001
 43
0.0000001
 44
0.0000000001
 12
0.0124143362
 22
0.6206899881
 32
0.0
 13
0.2777664749
 23
0.3876524293
 33
0.0
 40
0.0
 40
0.0
 40
0.0
 40
0.0
 40
1.0
 40
1.0
 40
1.0
 40
1.0
 10
41.9503448009
 20
-4.028207977
 30
0.0
 10
41.954482913
 20
-3.8213113143
 30
0.0
 10
42.0020688772
 20
-3.6516562297
 30
0.0
 10
42.0946577022
 20
-3.5224387533
 30
0.0
 11
41.9503448009
 21
-4.028207977
 31
0.0
 11
42.0946577022
 21
-3.5224387533
 31
0.0
  0
SPLINE
  5
386
100
AcDbEntity
  8
0
100
AcDbSpline
 62
7
  6
CONTINUOUS
 70
0
 71
3
 72
8
 73
4
 74
2
 42
0.0000001
 43
0.0000001
 44
0.0000000001
 12
-0.2516862175
 22
-0.2762412357
 32
0.0
 13
-0.0124137998
 23
-0.4779310226
 33
0.0
 40
0.0
 40
0.0
 40
0.0
 40
0.0
 40
1.0
 40
1.0
 40
1.0
 40
1.0
 10
42.3569988218
 20
-3.6506103494
 30
0.0
 10
42.273103416
 20
-3.7426907613
 30
0.0
 10
42.2317240834
 20
-3.8688976362
 30
0.0
 10
42.2275861502
 20
-4.028207977
 30
0.0
 11
42.3569988218
 21
-3.6506103494
 31
0.0
 11
42.2275861502
 21
-4.028207977
 31
0.0
  0
SPLINE
  5
387
100
AcDbEntity
  8
0
100
AcDbSpline
 62
7
  6
CONTINUOUS
 70
0
 71
3
 72
8
 73
4
 74
2
 42
0.0000001
 43
0.0000001
 44
0.0000000001
 12
-0.3940729531
 22
-0.1396320621
 32
0.0
 13
-0.2572795727
 23
-0.28238029
 33
0.0
 40
0.0
 40
0.0
 40
0.0
 40
0.0
 40
1.0
 40
1.0
 40
1.0
 40
1.0
 10
42.6858403495
 20
-3.441663756
 30
0.0
 10
42.5544826984
 20
-3.4882077768
 30
0.0
 10
42.4427586794
 20
-3.5564835861
 30
0.0
 10
42.3569988218
 20
-3.6506103494
 30
0.0
 11
42.6858403495
 21
-3.441663756
 31
0.0
 11
42.3569988218
 21
-3.6506103494
 31
0.0
  0
SPLINE
  5
388
100
AcDbEntity
  8
0
100
AcDbSpline
 62
7
  6
CONTINUOUS
 70
0
 71
3
 72
8
 73
4
 74
2
 42
0.0000001
 43
0.0000001
 44
0.0000000001
 12
-0.4353266816
 22
-0.033961287
 32
0.0
 13
-0.3942030636
 23
-0.1396781643
 33
0.0
 40
0.0
 40
0.0
 40
0.0
 40
0.0
 40
1.0
 40
1.0
 40
1.0
 40
1.0
 10
43.0989020619
 20
-3.3527493501
 30
0.0
 10
42.9537931681
 20
-3.3640697791
 30
0.0
 10
42.8172413707
 20
-3.395104368
 30
0.0
 10
42.6858403495
 20
-3.441663756
 30
0.0
 11
43.0989020619
 21
-3.3527493501
 31
0.0
 11
42.6858403495
 21
-3.441663756
 31
0.0
  0
SPLINE
  5
389
100
AcDbEntity
  8
0
100
AcDbSpline
 62
7
  6
CONTINUOUS
 70
0
 71
3
 72
8
 73
4
 74
2
 42
0.0000001
 43
0.0000001
 44
0.0000000001
 12
-0.2594456697
 22
0.2747075831
 32
0.0
 13
-0.3883831816
 23
0.137616026
 33
0.0
 40
0.0
 40
0.0
 40
0.0
 40
0.0
 40
1.0
 40
1.0
 40
1.0
 40
1.0
 10
44.6416542886
 20
-3.6480527804
 30
0.0
 10
44.5551723987
 20
-3.5564835861
 30
0.0
 10
44.4475862235
 20
-3.4882077768
 30
0.0
 10
44.318125163
 20
-3.4423357681
 30
0.0
 11
44.6416542886
 21
-3.6480527804
 31
0.0
 11
44.318125163
 21
-3.4423357681
 31
0.0
  0
SPLINE
  5
38A
100
AcDbEntity
  8
0
100
AcDbSpline
 62
7
  6
CONTINUOUS
 70
0
 71
3
 72
8
 73
4
 74
2
 42
0.0000001
 43
0.0000001
 44
0.0000000001
 12
0.0
 22
0.4779310226
 32
0.0
 13
-0.268140552
 23
0.2839139427
 33
0.0
 40
0.0
 40
0.0
 40
0.0
 40
0.0
 40
1.0
 40
1.0
 40
1.0
 40
1.0
 10
44.776551716
 20
-4.028207977
 30
0.0
 10
44.776551716
 20
-3.8688976362
 30
0.0
 10
44.7310344726
 20
-3.7426907613
 30
0.0
 10
44.6416542886
 20
-3.6480527804
 30
0.0
 11
44.776551716
 21
-4.028207977
 31
0.0
 11
44.6416542886
 21
-3.6480527804
 31
0.0
  0
SPLINE
  5
38B
100
AcDbEntity
  8
0
100
AcDbSpline
 62
7
  6
CONTINUOUS
 70
0
 71
3
 72
8
 73
4
 74
2
 42
0.0000001
 43
0.0000001
 44
0.0000000001
 12
0.2682224584
 22
0.2840006672
 32
0.0
 13
0.0
 23
0.471724391
 33
0.0
 40
0.0
 40
0.0
 40
0.0
 40
0.0
 40
1.0
 40
1.0
 40
1.0
 40
1.0
 10
44.6416269864
 20
-4.4042539698
 30
0.0
 10
44.7310344726
 20
-4.3095870807
 30
0.0
 10
44.776551716
 20
-4.1854494407
 30
0.0
 10
44.776551716
 20
-4.028207977
 30
0.0
 11
44.6416269864
 21
-4.4042539698
 31
0.0
 11
44.776551716
 21
-4.028207977
 31
0.0
  0
SPLINE
  5
38C
100
AcDbEntity
  8
0
100
AcDbSpline
 62
7
  6
CONTINUOUS
 70
0
 71
3
 72
8
 73
4
 74
2
 42
0.0000001
 43
0.0000001
 44
0.0000000001
 12
0.3904154138
 22
0.1321880963
 32
0.0
 13
0.2593637633
 23
0.2746208585
 33
0.0
 40
0.0
 40
0.0
 40
0.0
 40
0.0
 40
1.0
 40
1.0
 40
1.0
 40
1.0
 10
44.3174477522
 20
-4.6081325852
 30
0.0
 10
44.4475862235
 20
-4.5640698864
 30
0.0
 10
44.5551723987
 20
-4.495794256
 30
0.0
 10
44.6416269864
 20
-4.4042539698
 30
0.0
 11
44.3174477522
 21
-4.6081325852
 31
0.0
 11
44.6416269864
 21
-4.4042539698
 31
0.0
  0
SPLINE
  5
38D
100
AcDbEntity
  8
0
100
AcDbSpline
 62
7
  6
CONTINUOUS
 70
0
 71
3
 72
8
 73
4
 74
2
 42
0.0000001
 43
0.0000001
 44
0.0000000001
 12
0.4409183357
 22
0.0475809931
 32
0.0
 13
0.3978604688
 23
0.1347088668
 33
0.0
 40
0.0
 40
0.0
 40
0.0
 40
0.0
 40
1.0
 40
1.0
 40
1.0
 40
1.0
 10
43.8971651761
 20
-4.6978614046
 30
0.0
 10
44.0441379547
 20
-4.6820010736
 30
0.0
 10
44.1848275959
 20
-4.6530355408
 30
0.0
 10
44.3174477522
 20
-4.6081325852
 30
0.0
 11
43.8971651761
 21
-4.6978614046
 31
0.0
 11
44.3174477522
 21
-4.6081325852
 31
0.0
  0
SPLINE
  5
38E
100
AcDbEntity
  8
0
100
AcDbSpline
 62
7
  6
CONTINUOUS
 70
0
 71
3
 72
8
 73
4
 74
2
 42
0.0000001
 43
0.0000001
 44
0.0000000001
 12
0.3662068248
 22
0.0
 32
0.0
 13
0.4218404796
 23
0.0455222369
 33
0.0
 40
0.0
 40
0.0
 40
0.0
 40
0.0
 40
1.0
 40
1.0
 40
1.0
 40
1.0
 10
43.5020689666
 20
-4.7213113501
 30
0.0
 10
43.6241379082
 20
-4.7213113501
 30
0.0
 10
43.7565516829
 20
-4.7130354836
 30
0.0
 10
43.8971651761
 20
-4.6978614046
 30
0.0
 11
43.5020689666
 21
-4.7213113501
 31
0.0
 11
43.8971651761
 21
-4.6978614046
 31
0.0
  0
SPLINE
  5
38F
100
AcDbEntity
  8
0
100
AcDbSpline
 62
7
  6
CONTINUOUS
 70
0
 71
3
 72
8
 73
4
 74
2
 42
0.0000001
 43
0.0000001
 44
0.0000000001
 12
0.4403415618
 22
-0.0468447551
 32
0.0
 13
0.366207093
 23
0.0
 33
0.0
 40
0.0
 40
0.0
 40
0.0
 40
0.0
 40
1.0
 40
1.0
 40
1.0
 40
1.0
 10
43.0987366737
 20
-4.6974205652
 30
0.0
 10
43.2455171943
 20
-4.7130354836
 30
0.0
 10
43.3799999356
 20
-4.7213113501
 30
0.0
 10
43.5020689666
 20
-4.7213113501
 30
0.0
 11
43.0987366737
 21
-4.6974205652
 31
0.0
 11
43.5020689666
 21
-4.7213113501
 31
0.0
  0
SPLINE
  5
390
100
AcDbEntity
  8
0
100
AcDbSpline
 62
7
  6
CONTINUOUS
 70
0
 71
3
 72
8
 73
4
 74
2
 42
0.0000001
 43
0.0000001
 44
0.0000000001
 12
0.3923139897
 22
-0.1328308996
 32
0.0
 13
0.4348305168
 23
-0.0462584749
 33
0.0
 40
0.0
 40
0.0
 40
0.0
 40
0.0
 40
1.0
 40
1.0
 40
1.0
 40
1.0
 10
42.6864700408
 20
-4.6087585743
 30
0.0
 10
42.8172413707
 20
-4.6530355408
 30
0.0
 10
42.9537931681
 20
-4.6820010736
 30
0.0
 10
43.0987366737
 20
-4.6974205652
 30
0.0
 11
42.6864700408
 21
-4.6087585743
 31
0.0
 11
43.0987366737
 21
-4.6974205652
 31
0.0
  0
SPLINE
  5
391
100
AcDbEntity
  8
0
100
AcDbSpline
 62
7
  6
CONTINUOUS
 70
0
 71
3
 72
8
 73
4
 74
2
 42
0.0000001
 43
0.0000001
 44
0.0000000001
 12
0.2573170909
 22
-0.2824214685
 32
0.0
 13
0.3959620271
 23
-0.1340660635
 33
0.0
 40
0.0
 40
0.0
 40
0.0
 40
0.0
 40
1.0
 40
1.0
 40
1.0
 40
1.0
 10
42.3569863158
 20
-4.4016537664
 30
0.0
 10
42.4427586794
 20
-4.495794256
 30
0.0
 10
42.5544826984
 20
-4.5640698864
 30
0.0
 10
42.6864700408
 20
-4.6087585743
 30
0.0
 11
42.3569863158
 21
-4.4016537664
 31
0.0
 11
42.6864700408
 21
-4.6087585743
 31
0.0
  0
SPLINE
  5
392
100
AcDbEntity
  8
0
100
AcDbSpline
 62
7
  6
CONTINUOUS
 70
0
 71
3
 72
8
 73
4
 74
2
 42
0.0000001
 43
0.0000001
 44
0.0000000001
 12
0.0124137998
 22
-0.471724391
 32
0.0
 13
0.2516486994
 23
-0.2762000572
 33
0.0
 40
0.0
 40
0.0
 40
0.0
 40
0.0
 40
1.0
 40
1.0
 40
1.0
 40
1.0
 10
42.2275861502
 20
-4.028207977
 30
0.0
 10
42.2317240834
 20
-4.1854494407
 30
0.0
 10
42.273103416
 20
-4.3095870807
 30
0.0
 10
42.3569863158
 20
-4.4016537664
 30
0.0
 11
42.2275861502
 21
-4.028207977
 31
0.0
 11
42.3569863158
 21
-4.4016537664
 31
0.0
  0
ELLIPSE
  5
393
100
AcDbEntity
  8
RACCORDO
100
AcDbEllipse
 62
7
  6
CONTINUOUS
 10
48.4999428824
 20
34.9751832725
 30
0.0
 11
-1.0607409467
 21
-1.0607409467
 31
0.0
 40
0.9999238505
 41
8.6394178736
 42
10.210138048
  0
ELLIPSE
  5
394
100
AcDbEntity
  8
RACCORDO
100
AcDbEllipse
 62
7
  6
CONTINUOUS
 10
-48.4999428824
 20
34.9751832725
 30
0.0
 11
-1.0607409467
 21
1.0607409467
 31
0.0
 40
0.9999238505
 41
5.49782522
 42
7.0685453944
  0
ELLIPSE
  5
395
100
AcDbEntity
  8
RACCORDO
100
AcDbEllipse
 62
7
  6
CONTINUOUS
 10
-48.4999428824
 20
-45.0247024923
 30
0.0
 11
1.0607409467
 21
1.0607409467
 31
-0.0
 40
0.9999238505
 41
8.6394178736
 42
10.210138048
  0
ELLIPSE
  5
396
100
AcDbEntity
  8
RACCORDO
100
AcDbEllipse
 62
7
  6
CONTINUOUS
 10
48.4999428824
 20
-45.0247024923
 30
0.0
 11
1.0607409467
 21
-1.0607409467
 31
-0.0
 40
0.9999238505
 41
5.49782522
 42
7.0685453944
  0
ELLIPSE
  5
397
100
AcDbEntity
  8
RACCORDO
100
AcDbEllipse
 62
7
  6
CONTINUOUS
 10
48.4992927269
 20
-45.0240523368
 30
0.0
 11
1.0606730955
 21
-1.0606730957
 31
0.0
 40
0.9999878154
 41
0.760057245
 42
0.7853920712
  0
ELLIPSE
  5
398
100
AcDbEntity
  8
RACCORDO
100
AcDbEllipse
 62
7
  6
CONTINUOUS
 10
48.4992927269
 20
-45.0240523368
 30
0.0
 11
-1.0606730955
 21
1.0606730958
 31
0.0
 40
0.9999878154
 41
-2.3853302765
 42
-2.3815354085
  0
ELLIPSE
  5
399
100
AcDbEntity
  8
RACCORDO
100
AcDbEllipse
 62
7
  6
CONTINUOUS
 10
48.4992927269
 20
-45.0240523368
 30
0.0
 11
1.0606730957
 21
-1.0606730955
 31
0.0
 40
0.9999878154
 41
-0.7853920712
 42
0.7562623768
  0
ELLIPSE
  5
39A
100
AcDbEntity
  8
RACCORDO
100
AcDbEllipse
 62
7
  6
CONTINUOUS
 10
48.4992927269
 20
34.974533117
 30
0.0
 11
1.0606730954
 21
1.0606730958
 31
0.0
 40
0.9999878154
 41
-0.7853920713
 42
0.7853920711
  0
ELLIPSE
  5
39B
100
AcDbEntity
  8
RACCORDO
100
AcDbEllipse
 62
7
  6
CONTINUOUS
 10
-48.4992927269
 20
34.974533117
 30
0.0
 11
1.0606730956
 21
-1.0606730956
 31
0.0
 40
0.9999878154
 41
-2.3815354087
 42
-2.3562005825
  0
ELLIPSE
  5
39C
100
AcDbEntity
  8
RACCORDO
100
AcDbEllipse
 62
7
  6
CONTINUOUS
 10
-48.4992927269
 20
34.974533117
 30
0.0
 11
-1.0606730957
 21
1.0606730955
 31
0.0
 40
0.9999878154
 41
0.7562623768
 42
0.7600572448
  0
ELLIPSE
  5
39D
100
AcDbEntity
  8
RACCORDO
100
AcDbEllipse
 62
7
  6
CONTINUOUS
 10
-48.4992927269
 20
34.974533117
 30
0.0
 11
1.0606730956
 21
-1.0606730957
 31
0.0
 40
0.9999878154
 41
2.3562005826
 42
3.8978550305
  0
ELLIPSE
  5
39E
100
AcDbEntity
  8
RACCORDO
100
AcDbEllipse
 62
7
  6
CONTINUOUS
 10
-48.4992927269
 20
-45.0240523368
 30
0.0
 11
1.0606730957
 21
1.0606730956
 31
0.0
 40
0.9999878154
 41
-2.3815354122
 42
-2.3562005825
  0
ELLIPSE
  5
39F
100
AcDbEntity
  8
RACCORDO
100
AcDbEllipse
 62
7
  6
CONTINUOUS
 10
-48.4992927269
 20
-45.0240523368
 30
0.0
 11
1.0606730958
 21
1.0606730955
 31
0.0
 40
0.9999878154
 41
-2.3853302765
 42
-2.3815354121
  0
ELLIPSE
  5
3A0
100
AcDbEntity
  8
RACCORDO
100
AcDbEllipse
 62
7
  6
CONTINUOUS
 10
-48.4992927269
 20
-45.0240523368
 30
0.0
 11
1.0606730958
 21
1.0606730955
 31
0.0
 40
0.9999878154
 41
-3.9016498984
 42
-2.3853302766
  0
ELLIPSE
  5
3A1
100
AcDbEntity
  8
DRAFT
100
AcDbEllipse
 62
7
  6
CONTINUOUS
 10
-49.9155257211
 20
-5.0247596099
 30
0.0
 11
-0.0
 21
11.5
 31
0.0
 40
0.0034906727
 41
0.0
 42
6.2831853072
  0
ELLIPSE
  5
3A2
100
AcDbEntity
  8
DRAFT
100
AcDbEllipse
 62
7
  6
CONTINUOUS
 10
49.9155257211
 20
-5.0247596099
 30
0.0
 11
-0.0
 21
11.5
 31
0.0
 40
0.0034906727
 41
0.0
 42
6.2831853072
  0
ELLIPSE
  5
3A3
100
AcDbEntity
  8
DRAFT
100
AcDbEllipse
 62
7
  6
CONTINUOUS
 10
0.0
 20
-46.440285331
 30
0.0
 11
11.5
 21
0.0
 31
0.0
 40
0.0034906727
 41
0.0
 42
6.2831853072
  0
ENDSEC
  0
SECTION
  2
OBJECTS
  0
DICTIONARY
  5
C
100
AcDbDictionary
280
0
281
1
  3
ACAD_GROUP
350
D
  3
ACAD_MLINESTYLE
350
17
  3
ACAD_LAYOUT
350
1A
  3
ACAD_PLOTSETTINGS
350
19
  3
ACAD_PLOTSTYLENAME
350
E
  0
DICTIONARY
  5
D
102
{ACAD_REACTORS
330
C
102
}
100
AcDbDictionary
280
0
281
1
  0
ACDBDICTIONARYWDFLT
  5
E
102
{ACAD_REACTORS
330
C
102
}
100
AcDbDictionary
281
1
  3
Normal
350
F
100
AcDbDictionaryWithDefault
340
F
  0
DICTIONARY
  5
17
102
{ACAD_REACTORS
330
C
102
}
100
AcDbDictionary
280
0
281
1
  3
Standard
350
18
  0
DICTIONARY
  5
19
102
{ACAD_REACTORS
330
C
102
}
100
AcDbDictionary
281
1
  0
DICTIONARY
  5
1A
102
{ACAD_REACTORS
330
C
102
}
100
AcDbDictionary
281
1
  3
Model
350
3A4
  3
Layout1
350
3A5
  0
ACDBPLACEHOLDER
  5
F
102
{ACAD_REACTORS
330
E
102
}
  0
MLINESTYLE
  5
18
102
{ACAD_REACTORS
330
17
102
}
100
AcDbMlineStyle
  2
STANDARD
 70
0
  3

 62
256
 51
90.0
 52
90.0
 71
2
 49
0.5
 62
256
  6
BYLAYER
 49
-0.5
 62
256
  6
BYLAYER
  0
LAYOUT
  5
3A4
102
{ACAD_REACTORS
330
1A
102
}
100
AcDbPlotSettings
  1

  2
none_device
  4
ISO_A4_(297.00_x_210.00_MM)
  6

 40
0.0
 41
0.0
 42
0.0
 43
0.0
 44
297.0
 45
210.0
 46
0.0
 47
0.0
 48
0.0
 49
0.0
140
0.0
141
0.0
142
1.0
143
1.0
 70
1024
 72
1
 73
0
 74
0
  7

 75
0
147
1.0
148
0.0
149
0.0
100
AcDbLayout
  1
Model
 70
0
 71
0
 10
0.0
 20
0.0
 11
297.0
 21
210.0
 12
0.0
 22
0.0
 32
0.0
 14
0.0
 24
0.0
 34
0.0
 15
0.0
 25
0.0
 35
0.0
146
0.0
 13
0.0
 23
0.0
 33
0.0
 16
1.0
 26
0.0
 36
0.0
 17
0.0
 27
1.0
 37
0.0
 76
0
330
216
345
0
346
0
  0
LAYOUT
  5
3A5
102
{ACAD_REACTORS
330
1A
102
}
100
AcDbPlotSettings
  1

  2
none_device
  4
ISO_A4_(297.00_x_210.00_MM)
  6

 40
0.0
 41
0.0
 42
0.0
 43
0.0
 44
297.0
 45
210.0
 46
0.0
 47
0.0
 48
0.0
 49
0.0
140
0.0
141
0.0
142
1.0
143
1.0
 70
0
 72
1
 73
0
 74
0
  7

 75
0
147
1.0
148
0.0
149
0.0
100
AcDbLayout
  1
Layout1
 70
0
 71
1
 10
0.0
 20
0.0
 11
297.0
 21
210.0
 12
0.0
 22
0.0
 32
0.0
 14
0.0
 24
0.0
 34
0.0
 15
0.0
 25
0.0
 35
0.0
146
0.0
 13
0.0
 23
0.0
 33
0.0
 16
1.0
 26
0.0
 36
0.0
 17
0.0
 27
1.0
 37
0.0
 76
0
330
217
345
0
346
0
  0
ENDSEC
  0
EOF
