  0
SECTION
  2
HEADER
  9
$ACADVER
  1
AC1015
  9
$DWGCODEPAGE
  3
ANSI_1252
  9
$EXTMAX
 10
297.0
 20
210.0
 30
0.0
  9
$EXTMIN
 10
0.0
 20
0.0
 30
0.0
  9
$LIMMIN
 10
0.0
 20
0.0
  9
$LIMMAX
 10
297.0
 20
210.0
  9
$VIEWCTR
 10
148.5
 20
105.0
  9
$VIEWSIZE
 40
210.0
  9
$CLAYER
  8
0
  9
$LTSCALE
 40
16.335
  9
$CELTYPE
  6
BYLAYER
  9
$DIMSCALE
 40
1.0
  9
$DIMASZ
 40
3.0
  9
$DIMEXO
 40
1.85625
  9
$DIMDLI
 40
11.286
  9
$DIMEXE
 40
5.346
  9
$DIMCEN
 40
2.673
  9
$DIMLFAC
 40
1.0
  9
$DIMBLK
  1
_FILLED
  9
$DIMTXT
 40
3.0
  9
$DIMTOL
 70
1
  9
$DIMLIM
 70
0
  9
$DIMTFAC
 40
1.0
  9
$DIMTP
 40
0.01
  9
$DIMTM
 40
0.01
  9
$PDMODE
 70
3
  9
$PDSIZE
 40
3.0
  9
$HANDSEED
  5
3BD
  9
$TILEMODE
 70
1
  9
$MEASUREMENT
 70
1
  9
$INSUNITS
 70
4
  0
ENDSEC
  0
SECTION
  2
CLASSES
  0
CLASS
  1
ACDBDICTIONARYWDFLT
  2
AcDbDictionaryWithDefault
  3
AutoCAD 2000
 90
0
280
0
281
0
  0
CLASS
  1
ACDBPLACEHOLDER
  2
AcDbPlaceHolder
  3
AutoCAD 2000
 90
0
280
0
281
0
  0
CLASS
  1
LAYOUT
  2
AcDbLayout
  3
AutoCAD 2000
 90
0
280
0
281
0
  0
ENDSEC
  0
SECTION
  2
TABLES
  0
TABLE
  2
VPORT
  5
8
100
AcDbSymbolTable
 70
2
  0
VPORT
  5
1F4
100
AcDbSymbolTableRecord
100
AcDbViewportTableRecord
  2
*ACTIVE
 70
0
 10
0.0
 20
0.0
 11
1.0
 21
1.0
 12
148.5
 22
105.0
 13
0.0
 23
0.0
 14
1.0
 24
1.0
 15
0.0
 25
0.0
 16
0.0
 26
0.0
 36
1.0
 17
0.0
 27
0.0
 37
0.0
 40
210.0
 41
1.4142857143
 42
50.0
 43
0.0
 44
0.0
 50
0.0
 51
0.0
 71
0
 72
100
 73
1
 74
1
 75
0
 76
0
 77
0
 78
0
  0
ENDTAB
  0
TABLE
  2
LTYPE
  5
5
100
AcDbSymbolTable
 70
6
  0
LTYPE
  5
14
100
AcDbSymbolTableRecord
100
AcDbLinetypeTableRecord
  2
BYBLOCK
 70
0
  3

 72
65
 73
0
 40
0.0
  0
LTYPE
  5
15
100
AcDbSymbolTableRecord
100
AcDbLinetypeTableRecord
  2
BYLAYER
 70
0
  3

 72
65
 73
0
 40
0.0
  0
LTYPE
  5
16
100
AcDbSymbolTableRecord
100
AcDbLinetypeTableRecord
  2
CONTINUOUS
 70
64
  3
Solid line
 72
65
 73
0
 40
0.0
  0
LTYPE
  5
1F5
100
AcDbSymbolTableRecord
100
AcDbLinetypeTableRecord
  2
CENTER
 70
64
  3
____ _ ____ _ ____ _ ____ _ ____ _ ____ _ ____
 72
65
 73
4
 40
0.6
 49
0.375
 74
0
 49
-0.075
 74
0
 49
0.075
 74
0
 49
-0.075
 74
0
  0
LTYPE
  5
1F6
100
AcDbSymbolTableRecord
100
AcDbLinetypeTableRecord
  2
HIDDEN
 70
64
  3
- - - - - - - - - - - - - - - - - - - -
 72
65
 73
2
 40
0.2
 49
0.1
 74
0
 49
-0.1
 74
0
  0
LTYPE
  5
1F7
100
AcDbSymbolTableRecord
100
AcDbLinetypeTableRecord
  2
PHANTOM
 70
64
  3
_____ _ _ _____ _ _ _____ _ _ _____
 72
65
 73
6
 40
0.8
 49
0.45
 74
0
 49
-0.05
 74
0
 49
0.1
 74
0
 49
-0.05
 74
0
 49
0.1
 74
0
 49
-0.05
 74
0
  0
LTYPE
  5
1F8
100
AcDbSymbolTableRecord
100
AcDbLinetypeTableRecord
  2
DOT
 70
64
  3
. . . . . . . . . . . . . . . . . . . .
 72
65
 73
2
 40
0.2
 49
0.1
 74
0
 49
-0.1
 74
0
  0
LTYPE
  5
1F9
100
AcDbSymbolTableRecord
100
AcDbLinetypeTableRecord
  2
DASHED
 70
64
  3
- - - - - - - - - - - - - - - - - - - -
 72
65
 73
2
 40
0.2
 49
0.1
 74
0
 49
-0.1
 74
0
  0
ENDTAB
  0
TABLE
  2
LAYER
  5
2
100
AcDbSymbolTable
 70
36
  0
LAYER
  5
10
100
AcDbSymbolTableRecord
100
AcDbLayerTableRecord
  2
0
 70
0
 62
7
  6
CONTINUOUS
370
-3
390
F
  0
LAYER
  5
1FA
100
AcDbSymbolTableRecord
100
AcDbLayerTableRecord
  2
DEFAULT_1
 70
0
 62
7
  6
CENTER
370
-3
390
F
  0
LAYER
  5
1FB
100
AcDbSymbolTableRecord
100
AcDbLayerTableRecord
  2
DEFAULT_2
 70
0
 62
7
  6
HIDDEN
370
-3
390
F
  0
LAYER
  5
1FC
100
AcDbSymbolTableRecord
100
AcDbLayerTableRecord
  2
DEFAULT_3
 70
0
 62
7
  6
PHANTOM
370
-3
390
F
  0
LAYER
  5
1FD
100
AcDbSymbolTableRecord
100
AcDbLayerTableRecord
  2
ASSI
 70
0
 62
7
  6
CONTINUOUS
370
-3
390
F
  0
LAYER
  5
1FE
100
AcDbSymbolTableRecord
100
AcDbLayerTableRecord
  2
COLOR5
 70
0
 62
7
  6
CONTINUOUS
370
-3
390
F
  0
LAYER
  5
1FF
100
AcDbSymbolTableRecord
100
AcDbLayerTableRecord
  2
COORDINATE
 70
0
 62
7
  6
CONTINUOUS
370
-3
390
F
  0
LAYER
  5
200
100
AcDbSymbolTableRecord
100
AcDbLayerTableRecord
  2
COORD_ORIGINE
 70
0
 62
7
  6
CONTINUOUS
370
-3
390
F
  0
LAYER
  5
201
100
AcDbSymbolTableRecord
100
AcDbLayerTableRecord
  2
COPY_PUBLISH
 70
0
 62
7
  6
CONTINUOUS
370
-3
390
F
  0
LAYER
  5
202
100
AcDbSymbolTableRecord
100
AcDbLayerTableRecord
  2
COSMETIC
 70
0
 62
7
  6
CONTINUOUS
370
-3
390
F
  0
LAYER
  5
203
100
AcDbSymbolTableRecord
100
AcDbLayerTableRecord
  2
CURVE
 70
0
 62
7
  6
CONTINUOUS
370
-3
390
F
  0
LAYER
  5
204
100
AcDbSymbolTableRecord
100
AcDbLayerTableRecord
  2
DRAFT
 70
0
 62
7
  6
CONTINUOUS
370
-3
390
F
  0
LAYER
  5
205
100
AcDbSymbolTableRecord
100
AcDbLayerTableRecord
  2
IMPORT_IGES
 70
0
 62
7
  6
CONTINUOUS
370
-3
390
F
  0
LAYER
  5
206
100
AcDbSymbolTableRecord
100
AcDbLayerTableRecord
  2
INTF_1
 70
0
 62
7
  6
CONTINUOUS
370
-3
390
F
  0
LAYER
  5
207
100
AcDbSymbolTableRecord
100
AcDbLayerTableRecord
  2
INTF_2
 70
0
 62
7
  6
CONTINUOUS
370
-3
390
F
  0
LAYER
  5
208
100
AcDbSymbolTableRecord
100
AcDbLayerTableRecord
  2
NOTE
 70
0
 62
7
  6
CONTINUOUS
370
-3
390
F
  0
LAYER
  5
209
100
AcDbSymbolTableRecord
100
AcDbLayerTableRecord
  2
PIANI
 70
0
 62
7
  6
CONTINUOUS
370
-3
390
F
  0
LAYER
  5
20A
100
AcDbSymbolTableRecord
100
AcDbLayerTableRecord
  2
PIANI_ORIGINE
 70
0
 62
7
  6
CONTINUOUS
370
-3
390
F
  0
LAYER
  5
20B
100
AcDbSymbolTableRecord
100
AcDbLayerTableRecord
  2
PUNTI
 70
0
 62
7
  6
CONTINUOUS
370
-3
390
F
  0
LAYER
  5
20C
100
AcDbSymbolTableRecord
100
AcDbLayerTableRecord
  2
RACCORDO
 70
0
 62
7
  6
CONTINUOUS
370
-3
390
F
  0
LAYER
  5
20D
100
AcDbSymbolTableRecord
100
AcDbLayerTableRecord
  2
RGB__255__255__255__
 70
0
 62
7
  6
CONTINUOUS
370
-3
390
F
  0
LAYER
  5
20E
100
AcDbSymbolTableRecord
100
AcDbLayerTableRecord
  2
RGB____0____0____0__
 70
0
 62
7
  6
CONTINUOUS
370
-3
390
F
  0
LAYER
  5
20F
100
AcDbSymbolTableRecord
100
AcDbLayerTableRecord
  2
SMUSSO
 70
0
 62
7
  6
CONTINUOUS
370
-3
390
F
  0
LAYER
  5
210
100
AcDbSymbolTableRecord
100
AcDbLayerTableRecord
  2
SNAPLINE
 70
0
 62
7
  6
CONTINUOUS
370
-3
390
F
  0
LAYER
  5
211
100
AcDbSymbolTableRecord
100
AcDbLayerTableRecord
  2
SUPERFICI
 70
0
 62
7
  6
CONTINUOUS
370
-3
390
F
  0
LAYER
  5
212
100
AcDbSymbolTableRecord
100
AcDbLayerTableRecord
  2
TRASH
 70
0
 62
7
  6
CONTINUOUS
370
-3
390
F
  0
LAYER
  5
213
100
AcDbSymbolTableRecord
100
AcDbLayerTableRecord
  2
XSEC_DATUMS
 70
0
 62
7
  6
CONTINUOUS
370
-3
390
F
  0
ENDTAB
  0
TABLE
  2
STYLE
  5
3
100
AcDbSymbolTable
 70
1
  0
STYLE
  5
11
100
AcDbSymbolTableRecord
100
AcDbTextStyleTableRecord
  2
STANDARD
 70
0
 40
0.0
 41
0.8
 50
0.0
 71
0
 42
0.2
  3
txt
  4

  0
STYLE
  5
214
100
AcDbSymbolTableRecord
100
AcDbTextStyleTableRecord
  2
TEXTSTYLE_1
 70
0
 40
0.0
 41
0.8
 50
0.0
 71
0
 42
0.2
  3
gdt
  4

  0
ENDTAB
  0
TABLE
  2
VIEW
  5
6
100
AcDbSymbolTable
 70
0
  0
ENDTAB
  0
TABLE
  2
UCS
  5
7
100
AcDbSymbolTable
 70
0
  0
ENDTAB
  0
TABLE
  2
APPID
  5
9
100
AcDbSymbolTable
 70
1
  0
APPID
  5
215
100
AcDbSymbolTableRecord
100
AcDbRegAppTableRecord
  2
ACAD
 70
0
  0
ENDTAB
  0
TABLE
  2
BLOCK_RECORD
  5
1
100
AcDbSymbolTable
 70
0
  0
BLOCK_RECORD
  5
216
100
AcDbSymbolTableRecord
100
AcDbBlockTableRecord
  2
*Model_Space
  0
BLOCK_RECORD
  5
217
100
AcDbSymbolTableRecord
100
AcDbBlockTableRecord
  2
*Paper_Space
  0
ENDTAB
  0
TABLE
  2
DIMSTYLE
  5
A
100
AcDbSymbolTable
 70
1
100
AcDbDimStyleTable
 71
0
  0
DIMSTYLE
105
218
100
AcDbSymbolTableRecord
100
AcDbDimStyleTableRecord
  2
STANDARD
 70
0
  3

  4

 40
1.0
 41
3.0
 42
0.0625
 43
0.38
 44
0.18
 45
0.0
 46
0.0
 47
0.01
 48
0.01
140
3.0
141
0.09
142
0.0
143
25.4
144
1.0
145
0.0
146
1.0
147
0.09
 71
1.0
 72
0.0
 73
0
 74
0
 75
0
 76
0
 77
1
 78
8
170
0
171
2
172
0
173
0
174
0
175
0
176
0
177
0
178
0
270
2
271
2
272
2
273
2
274
2
275
0
280
0
281
0
282
0
283
1
284
8
285
0
286
0
287
3
288
0
340
11
  0
ENDTAB
  0
ENDSEC
  0
SECTION
  2
BLOCKS
  0
BLOCK
  5
20
100
AcDbEntity
  8
0
100
AcDbBlockBegin
  2
*Model_Space
 70
0
 10
0.0
 20
0.0
 30
0.0
  3
*Model_Space
  1

  0
ENDBLK
  5
21
100
AcDbEntity
  8
0
100
AcDbBlockEnd
  0
BLOCK
  5
1C
100
AcDbEntity
  8
0
100
AcDbBlockBegin
  2
*Paper_Space
 70
0
 10
0.0
 20
0.0
 30
0.0
  3
*Paper_Space
  1

  0
ENDBLK
  5
1D
100
AcDbEntity
  8
0
100
AcDbBlockEnd
  0
ENDSEC
  0
SECTION
  2
ENTITIES
  0
LINE
  5
219
100
AcDbEntity
  8
RACCORDO
100
AcDbLine
 62
7
  6
CONTINUOUS
 10
-50.0
 20
34.9787124878
 11
-50.0
 21
-45.021401743
  0
LINE
  5
21A
100
AcDbEntity
  8
RACCORDO
100
AcDbLine
 62
7
  6
CONTINUOUS
 10
-49.9993018655
 20
-45.0206556316
 11
-49.9993018655
 21
34.9779663763
  0
LINE
  5
21B
100
AcDbEntity
  8
RACCORDO
100
AcDbLine
 62
253
  6
CONTINUOUS
 10
-49.8631534462
 20
34.8418105823
 11
-49.8631534462
 21
-44.8845009446
  0
LINE
  5
21C
100
AcDbEntity
  8
0
100
AcDbLine
 62
7
  6
CONTINUOUS
 10
26.75
 20
-44.8213446276
 11
30.75
 21
-43.9213446276
  0
LINE
  5
21D
100
AcDbEntity
  8
0
100
AcDbLine
 62
7
  6
CONTINUOUS
 10
-30.75
 20
-43.9213446276
 11
-26.75
 21
-44.8213446276
  0
LINE
  5
21E
100
AcDbEntity
  8
RACCORDO
100
AcDbLine
 62
253
  6
CONTINUOUS
 10
-48.8631595385
 20
34.841817957
 11
-48.8631595385
 21
-44.8845072123
  0
LINE
  5
21F
100
AcDbEntity
  8
RACCORDO
100
AcDbLine
 62
253
  6
CONTINUOUS
 10
-48.3631625847
 20
-45.3845041661
 11
-48.3631625847
 21
-46.3844980738
  0
LINE
  5
220
100
AcDbEntity
  8
RACCORDO
100
AcDbLine
 62
253
  6
CONTINUOUS
 10
-48.3631625847
 20
35.3418149109
 11
-48.3631625847
 21
36.3418088185
  0
LINE
  5
221
100
AcDbEntity
  8
RACCORDO
100
AcDbLine
 62
7
  6
CONTINUOUS
 10
-48.5000571154
 20
-46.5213446276
 11
48.5000571154
 21
-46.5213446276
  0
LINE
  5
222
100
AcDbEntity
  8
RACCORDO
100
AcDbLine
 62
7
  6
CONTINUOUS
 10
48.499311004
 20
-46.5206464931
 11
-48.499311004
 21
-46.5206464931
  0
LINE
  5
223
100
AcDbEntity
  8
DRAFT
100
AcDbLine
 62
7
  6
CONTINUOUS
 10
-18.5
 20
-46.4019636219
 11
-23.5
 21
-46.4019636219
  0
LINE
  5
224
100
AcDbEntity
  8
RACCORDO
100
AcDbLine
 62
253
  6
CONTINUOUS
 10
-48.3631552099
 20
-46.3844980738
 11
-23.5
 21
-46.3844980738
  0
LINE
  5
225
100
AcDbEntity
  8
RACCORDO
100
AcDbLine
 62
253
  6
CONTINUOUS
 10
-18.5
 20
-46.3844980738
 11
48.3631563169
 21
-46.3844980738
  0
LINE
  5
226
100
AcDbEntity
  8
RACCORDO
100
AcDbLine
 62
253
  6
CONTINUOUS
 10
-48.3631625847
 20
-45.3845041661
 11
-23.5
 21
-45.3845041661
  0
LINE
  5
227
100
AcDbEntity
  8
RACCORDO
100
AcDbLine
 62
253
  6
CONTINUOUS
 10
-18.5
 20
-45.3845041661
 11
48.3631625847
 21
-45.3845041661
  0
LINE
  5
228
100
AcDbEntity
  8
RACCORDO
100
AcDbLine
 62
7
  6
CONTINUOUS
 10
-23.5
 20
-45.2713446276
 11
-18.5
 21
-45.2713446276
  0
LINE
  5
229
100
AcDbEntity
  8
RACCORDO
100
AcDbLine
 62
253
  6
CONTINUOUS
 10
48.8631595385
 20
-44.8845072123
 11
49.8631534462
 21
-44.8845072123
  0
LINE
  5
22A
100
AcDbEntity
  8
RACCORDO
100
AcDbLine
 62
253
  6
CONTINUOUS
 10
-48.8631595385
 20
-44.8845072123
 11
-49.8631534462
 21
-44.8845072123
  0
LINE
  5
22B
100
AcDbEntity
  8
0
100
AcDbLine
 62
7
  6
CONTINUOUS
 10
-31.25
 20
-44.4713446276
 11
-30.75
 21
-44.4713446276
  0
LINE
  5
22C
100
AcDbEntity
  8
0
100
AcDbLine
 62
7
  6
CONTINUOUS
 10
30.75
 20
-44.4713446276
 11
31.25
 21
-44.4713446276
  0
LINE
  5
22D
100
AcDbEntity
  8
RACCORDO
100
AcDbLine
 62
253
  6
CONTINUOUS
 10
-23.5
 20
-44.2713446276
 11
-18.5
 21
-44.2713446276
  0
LINE
  5
22E
100
AcDbEntity
  8
0
100
AcDbLine
 62
7
  6
CONTINUOUS
 10
26.75
 20
-44.0713446276
 11
-26.75
 21
-44.0713446276
  0
LINE
  5
22F
100
AcDbEntity
  8
0
100
AcDbLine
 62
7
  6
CONTINUOUS
 10
-26.75
 20
-43.8713446276
 11
26.75
 21
-43.8713446276
  0
LINE
  5
230
100
AcDbEntity
  8
0
100
AcDbLine
 62
7
  6
CONTINUOUS
 10
-26.75
 20
-43.7713446276
 11
26.75
 21
-43.7713446276
  0
LINE
  5
231
100
AcDbEntity
  8
0
100
AcDbLine
 62
7
  6
CONTINUOUS
 10
26.75
 20
-43.5713446276
 11
-26.75
 21
-43.5713446276
  0
LINE
  5
232
100
AcDbEntity
  8
0
100
AcDbLine
 62
7
  6
CONTINUOUS
 10
0.0531033874
 20
-42.8213446276
 11
1.8986207247
 21
-42.8213446276
  0
LINE
  5
233
100
AcDbEntity
  8
0
100
AcDbLine
 62
7
  6
CONTINUOUS
 10
1.8986207247
 20
-42.5461722227
 11
0.3696551919
 21
-42.5461722227
  0
LINE
  5
234
100
AcDbEntity
  8
0
100
AcDbLine
 62
7
  6
CONTINUOUS
 10
29.5
 20
-42.2713446276
 11
32.5
 21
-42.2713446276
  0
LINE
  5
235
100
AcDbEntity
  8
0
100
AcDbLine
 62
7
  6
CONTINUOUS
 10
-29.5
 20
-42.2713446276
 11
-32.5
 21
-42.2713446276
  0
LINE
  5
236
100
AcDbEntity
  8
SMUSSO
100
AcDbLine
 62
7
  6
CONTINUOUS
 10
-32.5
 20
-41.5213446276
 11
-29.5
 21
-41.5213446276
  0
LINE
  5
237
100
AcDbEntity
  8
SMUSSO
100
AcDbLine
 62
7
  6
CONTINUOUS
 10
29.5
 20
-41.5213446276
 11
32.5
 21
-41.5213446276
  0
LINE
  5
238
100
AcDbEntity
  8
SMUSSO
100
AcDbLine
 62
7
  6
CONTINUOUS
 10
-32.5
 20
-41.2213446276
 11
-29.5
 21
-41.2213446276
  0
LINE
  5
239
100
AcDbEntity
  8
SMUSSO
100
AcDbLine
 62
7
  6
CONTINUOUS
 10
29.5
 20
-41.2213446276
 11
32.5
 21
-41.2213446276
  0
LINE
  5
23A
100
AcDbEntity
  8
0
100
AcDbLine
 62
7
  6
CONTINUOUS
 10
-26.75
 20
-42.8213446276
 11
-30.75
 21
-43.7213446276
  0
LINE
  5
23B
100
AcDbEntity
  8
0
100
AcDbLine
 62
7
  6
CONTINUOUS
 10
48.0
 20
-40.2713446276
 11
34.7360679775
 21
-40.2713446276
  0
LINE
  5
23C
100
AcDbEntity
  8
0
100
AcDbLine
 62
7
  6
CONTINUOUS
 10
48.0
 20
-40.0713446276
 11
34.7494443758
 21
-40.0713446276
  0
LINE
  5
23D
100
AcDbEntity
  8
0
100
AcDbLine
 62
7
  6
CONTINUOUS
 10
48.0
 20
-39.9713446276
 11
34.7494443758
 21
-39.9713446276
  0
LINE
  5
23E
100
AcDbEntity
  8
0
100
AcDbLine
 62
7
  6
CONTINUOUS
 10
-0.9213792682
 20
-39.8213446276
 11
-1.2710344493
 21
-39.8213446276
  0
LINE
  5
23F
100
AcDbEntity
  8
0
100
AcDbLine
 62
7
  6
CONTINUOUS
 10
34.7360679775
 20
-39.7713446276
 11
48.0
 21
-39.7713446276
  0
LINE
  5
240
100
AcDbEntity
  8
SMUSSO
100
AcDbLine
 62
7
  6
CONTINUOUS
 10
32.5
 20
-38.8213446276
 11
29.5
 21
-38.8213446276
  0
LINE
  5
241
100
AcDbEntity
  8
SMUSSO
100
AcDbLine
 62
7
  6
CONTINUOUS
 10
-29.5
 20
-38.8213446276
 11
-32.5
 21
-38.8213446276
  0
LINE
  5
242
100
AcDbEntity
  8
SMUSSO
100
AcDbLine
 62
7
  6
CONTINUOUS
 10
32.5
 20
-38.5213446276
 11
29.5
 21
-38.5213446276
  0
LINE
  5
243
100
AcDbEntity
  8
SMUSSO
100
AcDbLine
 62
7
  6
CONTINUOUS
 10
-29.5
 20
-38.5213446276
 11
-32.5
 21
-38.5213446276
  0
LINE
  5
244
100
AcDbEntity
  8
ASSI
100
AcDbLine
 62
7
  6
CONTINUOUS
 10
32.5
 20
-37.7713446276
 11
29.5
 21
-37.7713446276
  0
LINE
  5
245
100
AcDbEntity
  8
ASSI
100
AcDbLine
 62
7
  6
CONTINUOUS
 10
-29.5
 20
-37.7713446276
 11
-32.5
 21
-37.7713446276
  0
LINE
  5
246
100
AcDbEntity
  8
0
100
AcDbLine
 62
7
  6
CONTINUOUS
 10
45.0
 20
-36.7713446276
 11
45.95
 21
-36.7713446276
  0
LINE
  5
247
100
AcDbEntity
  8
0
100
AcDbLine
 62
7
  6
CONTINUOUS
 10
46.05
 20
-36.7713446276
 11
47.0
 21
-36.7713446276
  0
LINE
  5
248
100
AcDbEntity
  8
0
100
AcDbLine
 62
7
  6
CONTINUOUS
 10
0.1255173087
 20
-40.4875515239
 11
0.4379310012
 21
-40.52065499
  0
LINE
  5
249
100
AcDbEntity
  8
0
100
AcDbLine
 62
7
  6
CONTINUOUS
 10
30.75
 20
-43.7213446276
 11
26.75
 21
-42.8213446276
  0
LINE
  5
24A
100
AcDbEntity
  8
ASSI
100
AcDbLine
 62
7
  6
CONTINUOUS
 10
-33.25
 20
30.9786553724
 11
-33.25
 21
28.9786553724
  0
LINE
  5
24B
100
AcDbEntity
  8
SMUSSO
100
AcDbLine
 62
7
  6
CONTINUOUS
 10
-32.5
 20
30.9786553724
 11
-32.5
 21
28.9786553724
  0
LINE
  5
24C
100
AcDbEntity
  8
SMUSSO
100
AcDbLine
 62
253
  6
CONTINUOUS
 10
-32.5
 20
-38.8213446276
 11
-32.5
 21
-38.5213446276
  0
LINE
  5
24D
100
AcDbEntity
  8
SMUSSO
100
AcDbLine
 62
253
  6
CONTINUOUS
 10
-32.5
 20
-41.2213446276
 11
-32.5
 21
-41.5213446276
  0
LINE
  5
24E
100
AcDbEntity
  8
SMUSSO
100
AcDbLine
 62
7
  6
CONTINUOUS
 10
-32.2
 20
30.9786553724
 11
-32.2
 21
28.9786553724
  0
LINE
  5
24F
100
AcDbEntity
  8
0
100
AcDbLine
 62
7
  6
CONTINUOUS
 10
-31.25
 20
-44.4713446276
 11
-31.25
 21
-42.2713446276
  0
LINE
  5
250
100
AcDbEntity
  8
0
100
AcDbLine
 62
7
  6
CONTINUOUS
 10
-31.05
 20
-42.2713446276
 11
-31.05
 21
-44.4713446276
  0
LINE
  5
251
100
AcDbEntity
  8
0
100
AcDbLine
 62
7
  6
CONTINUOUS
 10
-30.95
 20
-42.2713446276
 11
-30.95
 21
-44.4713446276
  0
LINE
  5
252
100
AcDbEntity
  8
0
100
AcDbLine
 62
7
  6
CONTINUOUS
 10
-30.75
 20
-42.2713446276
 11
-30.75
 21
-44.4713446276
  0
LINE
  5
253
100
AcDbEntity
  8
SMUSSO
100
AcDbLine
 62
7
  6
CONTINUOUS
 10
-29.8
 20
28.9786553724
 11
-29.8
 21
30.9786553724
  0
LINE
  5
254
100
AcDbEntity
  8
SMUSSO
100
AcDbLine
 62
253
  6
CONTINUOUS
 10
-29.5
 20
-38.8213446276
 11
-29.5
 21
-38.5213446276
  0
LINE
  5
255
100
AcDbEntity
  8
SMUSSO
100
AcDbLine
 62
253
  6
CONTINUOUS
 10
-29.5
 20
-41.2213446276
 11
-29.5
 21
-41.5213446276
  0
LINE
  5
256
100
AcDbEntity
  8
SMUSSO
100
AcDbLine
 62
7
  6
CONTINUOUS
 10
-29.5
 20
28.9786553724
 11
-29.5
 21
30.9786553724
  0
LINE
  5
257
100
AcDbEntity
  8
ASSI
100
AcDbLine
 62
7
  6
CONTINUOUS
 10
-28.75
 20
28.9786553724
 11
-28.75
 21
30.9786553724
  0
LINE
  5
258
100
AcDbEntity
  8
0
100
AcDbLine
 62
7
  6
CONTINUOUS
 10
-26.75
 20
-42.8213446276
 11
-26.75
 21
-43.7713446276
  0
LINE
  5
259
100
AcDbEntity
  8
0
100
AcDbLine
 62
7
  6
CONTINUOUS
 10
-26.75
 20
-43.8713446276
 11
-26.75
 21
-44.8213446276
  0
LINE
  5
25A
100
AcDbEntity
  8
RACCORDO
100
AcDbLine
 62
7
  6
CONTINUOUS
 10
-23.5
 20
-46.4019636219
 11
-23.5
 21
-44.2713446276
  0
LINE
  5
25B
100
AcDbEntity
  8
RACCORDO
100
AcDbLine
 62
7
  6
CONTINUOUS
 10
-18.5
 20
-44.2713446276
 11
-18.5
 21
-46.4019636219
  0
LINE
  5
25C
100
AcDbEntity
  8
0
100
AcDbLine
 62
7
  6
CONTINUOUS
 10
-14.0
 20
37.8143938668
 11
-14.0
 21
36.3917862147
  0
LINE
  5
25D
100
AcDbEntity
  8
RACCORDO
100
AcDbLine
 62
7
  6
CONTINUOUS
 10
-14.0
 20
36.3917862147
 11
-14.0
 21
37.8143938668
  0
LINE
  5
25E
100
AcDbEntity
  8
0
100
AcDbLine
 62
7
  6
CONTINUOUS
 10
-11.85
 20
40.2185100565
 11
-11.85
 21
39.7917862147
  0
LINE
  5
25F
100
AcDbEntity
  8
RACCORDO
100
AcDbLine
 62
7
  6
CONTINUOUS
 10
-11.85
 20
39.7917862147
 11
-11.85
 21
40.2185100565
  0
LINE
  5
260
100
AcDbEntity
  8
0
100
AcDbLine
 62
7
  6
CONTINUOUS
 10
-11.5
 20
36.3917862147
 11
-11.5
 21
36.3822472337
  0
LINE
  5
261
100
AcDbEntity
  8
0
100
AcDbLine
 62
7
  6
CONTINUOUS
 10
-11.35
 20
39.7917862147
 11
-11.35
 21
39.2917862147
  0
LINE
  5
262
100
AcDbEntity
  8
RACCORDO
100
AcDbLine
 62
7
  6
CONTINUOUS
 10
-10.1
 20
41.5917862147
 11
-10.1
 21
42.0587024353
  0
LINE
  5
263
100
AcDbEntity
  8
0
100
AcDbLine
 62
7
  6
CONTINUOUS
 10
-9.45
 20
41.5917862147
 11
-9.45
 21
41.0917862147
  0
LINE
  5
264
100
AcDbEntity
  8
RACCORDO
100
AcDbLine
 62
253
  6
CONTINUOUS
 10
-49.9993018655
 20
34.9779663763
 11
-49.8631534462
 21
34.8418105823
  0
LINE
  5
265
100
AcDbEntity
  8
0
100
AcDbLine
 62
7
  6
CONTINUOUS
 10
-8.35
 20
43.8319075161
 11
-8.35
 21
43.3917862147
  0
LINE
  5
266
100
AcDbEntity
  8
RACCORDO
100
AcDbLine
 62
7
  6
CONTINUOUS
 10
-8.35
 20
43.3917862147
 11
-8.35
 21
43.8319075161
  0
LINE
  5
267
100
AcDbEntity
  8
0
100
AcDbLine
 62
7
  6
CONTINUOUS
 10
-7.85
 20
43.3917862147
 11
-7.85
 21
42.8917862147
  0
LINE
  5
268
100
AcDbEntity
  8
0
100
AcDbLine
 62
7
  6
CONTINUOUS
 10
-4.1
 20
45.5309456218
 11
-4.1
 21
45.1917862147
  0
LINE
  5
269
100
AcDbEntity
  8
RACCORDO
100
AcDbLine
 62
7
  6
CONTINUOUS
 10
-4.1
 20
45.1917862147
 11
-4.1
 21
45.5309456218
  0
LINE
  5
26A
100
AcDbEntity
  8
0
100
AcDbLine
 62
7
  6
CONTINUOUS
 10
42.0
 20
-7.2999653103
 11
42.2772413492
 21
-7.2999653103
  0
LINE
  5
26B
100
AcDbEntity
  8
0
100
AcDbLine
 62
7
  6
CONTINUOUS
 10
42.2772413492
 20
-5.5806550043
 11
42.0
 21
-5.5806550043
  0
LINE
  5
26C
100
AcDbEntity
  8
RACCORDO
100
AcDbLine
 62
253
  6
CONTINUOUS
 10
-48.499311004
 20
36.4779572378
 11
-48.3631563169
 21
36.3418088185
  0
LINE
  5
26D
100
AcDbEntity
  8
0
100
AcDbLine
 62
7
  6
CONTINUOUS
 10
-3.6
 20
45.1917862147
 11
-3.6
 21
44.6917862147
  0
LINE
  5
26E
100
AcDbEntity
  8
0
100
AcDbLine
 62
7
  6
CONTINUOUS
 10
0.0531033874
 20
-42.4696204798
 11
0.0531033874
 21
-42.8213446276
  0
LINE
  5
26F
100
AcDbEntity
  8
RACCORDO
100
AcDbLine
 62
253
  6
CONTINUOUS
 10
-49.9993018655
 20
-45.0206556316
 11
-49.8631534462
 21
-44.8845009446
  0
LINE
  5
270
100
AcDbEntity
  8
RACCORDO
100
AcDbLine
 62
253
  6
CONTINUOUS
 10
-48.499311004
 20
-46.5206464931
 11
-48.3631552099
 21
-46.3844980738
  0
LINE
  5
271
100
AcDbEntity
  8
0
100
AcDbLine
 62
7
  6
CONTINUOUS
 10
1.8986207247
 20
-42.8213446276
 11
1.8986207247
 21
-42.5461722227
  0
LINE
  5
272
100
AcDbEntity
  8
0
100
AcDbLine
 62
7
  6
CONTINUOUS
 10
3.6
 20
45.1917862147
 11
3.6
 21
44.6917862147
  0
LINE
  5
273
100
AcDbEntity
  8
0
100
AcDbLine
 62
7
  6
CONTINUOUS
 10
4.1
 20
45.5309456218
 11
4.1
 21
45.1917862147
  0
LINE
  5
274
100
AcDbEntity
  8
RACCORDO
100
AcDbLine
 62
7
  6
CONTINUOUS
 10
4.1
 20
45.1917862147
 11
4.1
 21
45.5309456218
  0
LINE
  5
275
100
AcDbEntity
  8
RACCORDO
100
AcDbLine
 62
253
  6
CONTINUOUS
 10
48.499311004
 20
-46.5206464931
 11
48.3631563169
 21
-46.3844980738
  0
LINE
  5
276
100
AcDbEntity
  8
RACCORDO
100
AcDbLine
 62
253
  6
CONTINUOUS
 10
49.9993018655
 20
-45.0206556316
 11
49.8631534462
 21
-44.8844998376
  0
LINE
  5
277
100
AcDbEntity
  8
0
100
AcDbLine
 62
7
  6
CONTINUOUS
 10
7.85
 20
43.3917862147
 11
7.85
 21
42.8917862147
  0
LINE
  5
278
100
AcDbEntity
  8
0
100
AcDbLine
 62
7
  6
CONTINUOUS
 10
8.35
 20
43.8319075161
 11
8.35
 21
43.3917862147
  0
LINE
  5
279
100
AcDbEntity
  8
RACCORDO
100
AcDbLine
 62
7
  6
CONTINUOUS
 10
8.35
 20
43.3917862147
 11
8.35
 21
43.8319075161
  0
LINE
  5
27A
100
AcDbEntity
  8
0
100
AcDbLine
 62
7
  6
CONTINUOUS
 10
9.45
 20
41.5917862147
 11
9.45
 21
41.0917862147
  0
LINE
  5
27B
100
AcDbEntity
  8
RACCORDO
100
AcDbLine
 62
253
  6
CONTINUOUS
 10
48.499311004
 20
36.4779572378
 11
48.3631552099
 21
36.3418088185
  0
LINE
  5
27C
100
AcDbEntity
  8
0
100
AcDbLine
 62
7
  6
CONTINUOUS
 10
10.1
 20
42.0587024353
 11
10.1
 21
41.5917862147
  0
LINE
  5
27D
100
AcDbEntity
  8
RACCORDO
100
AcDbLine
 62
7
  6
CONTINUOUS
 10
10.1
 20
41.5917862147
 11
10.1
 21
42.0587024353
  0
LINE
  5
27E
100
AcDbEntity
  8
0
100
AcDbLine
 62
7
  6
CONTINUOUS
 10
11.35
 20
39.7917862147
 11
11.35
 21
39.2917862147
  0
LINE
  5
27F
100
AcDbEntity
  8
0
100
AcDbLine
 62
7
  6
CONTINUOUS
 10
11.5
 20
36.3917862147
 11
11.5
 21
36.382247156
  0
LINE
  5
280
100
AcDbEntity
  8
0
100
AcDbLine
 62
7
  6
CONTINUOUS
 10
11.85
 20
40.2185100565
 11
11.85
 21
39.7917862147
  0
LINE
  5
281
100
AcDbEntity
  8
RACCORDO
100
AcDbLine
 62
7
  6
CONTINUOUS
 10
11.85
 20
39.7917862147
 11
11.85
 21
40.2185100565
  0
LINE
  5
282
100
AcDbEntity
  8
0
100
AcDbLine
 62
7
  6
CONTINUOUS
 10
14.0
 20
37.8143938668
 11
14.0
 21
36.3917862147
  0
LINE
  5
283
100
AcDbEntity
  8
RACCORDO
100
AcDbLine
 62
7
  6
CONTINUOUS
 10
14.0
 20
36.3917862147
 11
14.0
 21
37.8143938668
  0
LINE
  5
284
100
AcDbEntity
  8
RACCORDO
100
AcDbLine
 62
253
  6
CONTINUOUS
 10
49.9993018655
 20
34.9779663763
 11
49.8631534462
 21
34.8418116893
  0
LINE
  5
285
100
AcDbEntity
  8
0
100
AcDbLine
 62
7
  6
CONTINUOUS
 10
45.0
 20
-6.7475515561
 11
42.2772413492
 21
-5.5806550043
  0
LINE
  5
286
100
AcDbEntity
  8
0
100
AcDbLine
 62
7
  6
CONTINUOUS
 10
42.2772413492
 20
-5.8889307635
 11
45.0
 21
-7.0806549596
  0
LINE
  5
287
100
AcDbEntity
  8
RACCORDO
100
AcDbLine
 62
7
  6
CONTINUOUS
 10
18.5
 20
34.2286553724
 11
18.5
 21
36.3592743667
  0
LINE
  5
288
100
AcDbEntity
  8
0
100
AcDbLine
 62
7
  6
CONTINUOUS
 10
-1.2710344493
 20
-39.8213446276
 11
-2.0531034321
 21
-41.1392757433
  0
LINE
  5
289
100
AcDbEntity
  8
0
100
AcDbLine
 62
7
  6
CONTINUOUS
 10
-1.7158620954
 20
-41.1123790877
 11
-0.9213792682
 21
-39.8213446276
  0
LINE
  5
28A
100
AcDbEntity
  8
RACCORDO
100
AcDbLine
 62
7
  6
CONTINUOUS
 10
23.5
 20
36.3592743667
 11
23.5
 21
34.2286553724
  0
LINE
  5
28B
100
AcDbEntity
  8
0
100
AcDbLine
 62
7
  6
CONTINUOUS
 10
26.75
 20
-42.8213446276
 11
26.75
 21
-43.7713446276
  0
LINE
  5
28C
100
AcDbEntity
  8
0
100
AcDbLine
 62
7
  6
CONTINUOUS
 10
26.75
 20
-43.8713446276
 11
26.75
 21
-44.8213446276
  0
LINE
  5
28D
100
AcDbEntity
  8
0
100
AcDbLine
 62
7
  6
CONTINUOUS
 10
45.0
 20
26.7286553724
 11
45.95
 21
26.7286553724
  0
LINE
  5
28E
100
AcDbEntity
  8
0
100
AcDbLine
 62
7
  6
CONTINUOUS
 10
46.05
 20
26.7286553724
 11
47.0
 21
26.7286553724
  0
LINE
  5
28F
100
AcDbEntity
  8
ASSI
100
AcDbLine
 62
7
  6
CONTINUOUS
 10
28.75
 20
30.9786553724
 11
28.75
 21
28.9786553724
  0
LINE
  5
290
100
AcDbEntity
  8
SMUSSO
100
AcDbLine
 62
7
  6
CONTINUOUS
 10
29.5
 20
30.9786553724
 11
29.5
 21
28.9786553724
  0
LINE
  5
291
100
AcDbEntity
  8
SMUSSO
100
AcDbLine
 62
253
  6
CONTINUOUS
 10
29.5
 20
-38.8213446276
 11
29.5
 21
-38.5213446276
  0
LINE
  5
292
100
AcDbEntity
  8
SMUSSO
100
AcDbLine
 62
253
  6
CONTINUOUS
 10
29.5
 20
-41.2213446276
 11
29.5
 21
-41.5213446276
  0
LINE
  5
293
100
AcDbEntity
  8
SMUSSO
100
AcDbLine
 62
7
  6
CONTINUOUS
 10
29.8
 20
30.9786553724
 11
29.8
 21
28.9786553724
  0
LINE
  5
294
100
AcDbEntity
  8
0
100
AcDbLine
 62
7
  6
CONTINUOUS
 10
30.75
 20
-44.4713446276
 11
30.75
 21
-42.2713446276
  0
LINE
  5
295
100
AcDbEntity
  8
0
100
AcDbLine
 62
7
  6
CONTINUOUS
 10
30.95
 20
-42.2713446276
 11
30.95
 21
-44.4713446276
  0
LINE
  5
296
100
AcDbEntity
  8
0
100
AcDbLine
 62
7
  6
CONTINUOUS
 10
31.05
 20
-42.2713446276
 11
31.05
 21
-44.4713446276
  0
LINE
  5
297
100
AcDbEntity
  8
0
100
AcDbLine
 62
7
  6
CONTINUOUS
 10
31.25
 20
-44.4713446276
 11
31.25
 21
-42.2713446276
  0
LINE
  5
298
100
AcDbEntity
  8
SMUSSO
100
AcDbLine
 62
7
  6
CONTINUOUS
 10
32.2
 20
28.9786553724
 11
32.2
 21
30.9786553724
  0
LINE
  5
299
100
AcDbEntity
  8
SMUSSO
100
AcDbLine
 62
253
  6
CONTINUOUS
 10
32.5
 20
-38.8213446276
 11
32.5
 21
-38.5213446276
  0
LINE
  5
29A
100
AcDbEntity
  8
SMUSSO
100
AcDbLine
 62
253
  6
CONTINUOUS
 10
32.5
 20
-41.2213446276
 11
32.5
 21
-41.5213446276
  0
LINE
  5
29B
100
AcDbEntity
  8
SMUSSO
100
AcDbLine
 62
7
  6
CONTINUOUS
 10
32.5
 20
28.9786553724
 11
32.5
 21
30.9786553724
  0
LINE
  5
29C
100
AcDbEntity
  8
0
100
AcDbLine
 62
7
  6
CONTINUOUS
 10
1.2096552849
 20
-41.2530688183
 11
0.0531033874
 21
-42.4696204798
  0
LINE
  5
29D
100
AcDbEntity
  8
0
100
AcDbLine
 62
7
  6
CONTINUOUS
 10
0.3696551919
 20
-42.5461722227
 11
1.2862069607
 21
-41.6068618434
  0
LINE
  5
29E
100
AcDbEntity
  8
SMUSSO
100
AcDbLine
 62
253
  6
CONTINUOUS
 10
-29.8
 20
28.9786553724
 11
-29.5
 21
28.9786553724
  0
LINE
  5
29F
100
AcDbEntity
  8
SMUSSO
100
AcDbLine
 62
253
  6
CONTINUOUS
 10
29.8
 20
28.9786553724
 11
29.5
 21
28.9786553724
  0
LINE
  5
2A0
100
AcDbEntity
  8
SMUSSO
100
AcDbLine
 62
253
  6
CONTINUOUS
 10
32.2
 20
28.9786553724
 11
32.5
 21
28.9786553724
  0
LINE
  5
2A1
100
AcDbEntity
  8
SMUSSO
100
AcDbLine
 62
253
  6
CONTINUOUS
 10
-32.2
 20
28.9786553724
 11
-32.5
 21
28.9786553724
  0
LINE
  5
2A2
100
AcDbEntity
  8
0
100
AcDbLine
 62
7
  6
CONTINUOUS
 10
48.0
 20
29.7286553724
 11
33.25
 21
29.7286553724
  0
LINE
  5
2A3
100
AcDbEntity
  8
0
100
AcDbLine
 62
7
  6
CONTINUOUS
 10
48.0
 20
29.9286553724
 11
33.25
 21
29.9286553724
  0
LINE
  5
2A4
100
AcDbEntity
  8
0
100
AcDbLine
 62
7
  6
CONTINUOUS
 10
48.0
 20
30.0286553724
 11
33.25
 21
30.0286553724
  0
LINE
  5
2A5
100
AcDbEntity
  8
0
100
AcDbLine
 62
7
  6
CONTINUOUS
 10
48.0
 20
30.2286553724
 11
33.25
 21
30.2286553724
  0
LINE
  5
2A6
100
AcDbEntity
  8
SMUSSO
100
AcDbLine
 62
253
  6
CONTINUOUS
 10
-29.8
 20
30.9786553724
 11
-29.5
 21
30.9786553724
  0
LINE
  5
2A7
100
AcDbEntity
  8
SMUSSO
100
AcDbLine
 62
253
  6
CONTINUOUS
 10
29.8
 20
30.9786553724
 11
29.5
 21
30.9786553724
  0
LINE
  5
2A8
100
AcDbEntity
  8
SMUSSO
100
AcDbLine
 62
253
  6
CONTINUOUS
 10
32.2
 20
30.9786553724
 11
32.5
 21
30.9786553724
  0
LINE
  5
2A9
100
AcDbEntity
  8
SMUSSO
100
AcDbLine
 62
253
  6
CONTINUOUS
 10
-32.2
 20
30.9786553724
 11
-32.5
 21
30.9786553724
  0
LINE
  5
2AA
100
AcDbEntity
  8
0
100
AcDbLine
 62
7
  6
CONTINUOUS
 10
33.25
 20
28.9786553724
 11
33.25
 21
30.9786553724
  0
LINE
  5
2AB
100
AcDbEntity
  8
0
100
AcDbLine
 62
7
  6
CONTINUOUS
 10
45.9
 20
29.7286553724
 11
45.0
 21
26.7286553724
  0
LINE
  5
2AC
100
AcDbEntity
  8
RACCORDO
100
AcDbLine
 62
7
  6
CONTINUOUS
 10
11.9502306523
 20
36.390873923
 11
11.9502788926
 21
36.3908772516
  0
LINE
  5
2AD
100
AcDbEntity
  8
RACCORDO
100
AcDbLine
 62
7
  6
CONTINUOUS
 10
11.9503016624
 20
36.3908788514
 11
11.9498466697
 21
36.390850595
  0
LINE
  5
2AE
100
AcDbEntity
  8
RACCORDO
100
AcDbLine
 62
7
  6
CONTINUOUS
 10
11.9498466697
 20
36.390850595
 11
11.9483913303
 21
36.3907673358
  0
LINE
  5
2AF
100
AcDbEntity
  8
RACCORDO
100
AcDbLine
 62
7
  6
CONTINUOUS
 10
11.9483913303
 20
36.3907673358
 11
11.9460358871
 21
36.3906440626
  0
LINE
  5
2B0
100
AcDbEntity
  8
RACCORDO
100
AcDbLine
 62
7
  6
CONTINUOUS
 10
11.9460358871
 20
36.3906440626
 11
11.9419099331
 21
36.3904478264
  0
LINE
  5
2B1
100
AcDbEntity
  8
RACCORDO
100
AcDbLine
 62
7
  6
CONTINUOUS
 10
11.9419099331
 20
36.3904478264
 11
11.9353315042
 21
36.3901670479
  0
LINE
  5
2B2
100
AcDbEntity
  8
RACCORDO
100
AcDbLine
 62
7
  6
CONTINUOUS
 10
11.9353315042
 20
36.3901670479
 11
11.925537308
 21
36.3897952746
  0
LINE
  5
2B3
100
AcDbEntity
  8
RACCORDO
100
AcDbLine
 62
7
  6
CONTINUOUS
 10
11.925537308
 20
36.3897952746
 11
11.9097224914
 21
36.3892687538
  0
LINE
  5
2B4
100
AcDbEntity
  8
RACCORDO
100
AcDbLine
 62
7
  6
CONTINUOUS
 10
11.9097224914
 20
36.3892687538
 11
11.8830424294
 21
36.3885072943
  0
LINE
  5
2B5
100
AcDbEntity
  8
RACCORDO
100
AcDbLine
 62
7
  6
CONTINUOUS
 10
11.8830424294
 20
36.3885072943
 11
11.8373127842
 21
36.3874179004
  0
LWPOLYLINE
  5
2B6
100
AcDbEntity
  8
RACCORDO
100
AcDbPolyline
 62
7
  6
CONTINUOUS
 90
3
 70
0
 10
11.8373127842
 20
36.3874179004
 10
11.7544667543
 20
36.3858213505
 10
11.7501145682
 20
36.38574639
  0
LINE
  5
2B7
100
AcDbEntity
  8
RACCORDO
100
AcDbLine
 62
7
  6
CONTINUOUS
 10
11.7501145682
 20
36.38574639
 11
11.7132701094
 21
36.3851383106
  0
LINE
  5
2B8
100
AcDbEntity
  8
RACCORDO
100
AcDbLine
 62
7
  6
CONTINUOUS
 10
11.7132701094
 20
36.3851383106
 11
11.688310638
 21
36.3847501247
  0
LINE
  5
2B9
100
AcDbEntity
  8
RACCORDO
100
AcDbLine
 62
7
  6
CONTINUOUS
 10
11.688310638
 20
36.3847501247
 11
11.667198757
 21
36.384434694
  0
LINE
  5
2BA
100
AcDbEntity
  8
RACCORDO
100
AcDbLine
 62
7
  6
CONTINUOUS
 10
11.667198757
 20
36.384434694
 11
11.6450144688
 21
36.3841146643
  0
LINE
  5
2BB
100
AcDbEntity
  8
RACCORDO
100
AcDbLine
 62
7
  6
CONTINUOUS
 10
11.6450144688
 20
36.3841146643
 11
11.6276396856
 21
36.3838714768
  0
LINE
  5
2BC
100
AcDbEntity
  8
RACCORDO
100
AcDbLine
 62
7
  6
CONTINUOUS
 10
11.6276396856
 20
36.3838714768
 11
11.6096063883
 21
36.383625458
  0
LINE
  5
2BD
100
AcDbEntity
  8
RACCORDO
100
AcDbLine
 62
7
  6
CONTINUOUS
 10
11.6096063883
 20
36.383625458
 11
11.5908889294
 21
36.3833765009
  0
LINE
  5
2BE
100
AcDbEntity
  8
RACCORDO
100
AcDbLine
 62
7
  6
CONTINUOUS
 10
11.5908889294
 20
36.3833765009
 11
11.5714605788
 21
36.3831244992
  0
LINE
  5
2BF
100
AcDbEntity
  8
RACCORDO
100
AcDbLine
 62
7
  6
CONTINUOUS
 10
11.5714605788
 20
36.3831244992
 11
11.5580998182
 21
36.3829547584
  0
LINE
  5
2C0
100
AcDbEntity
  8
RACCORDO
100
AcDbLine
 62
7
  6
CONTINUOUS
 10
11.5580998182
 20
36.3829547584
 11
11.5374235658
 21
36.3826974546
  0
LINE
  5
2C1
100
AcDbEntity
  8
RACCORDO
100
AcDbLine
 62
7
  6
CONTINUOUS
 10
11.5374235658
 20
36.3826974546
 11
11.5231994552
 21
36.382524039
  0
LINE
  5
2C2
100
AcDbEntity
  8
RACCORDO
100
AcDbLine
 62
7
  6
CONTINUOUS
 10
11.5231994552
 20
36.382524039
 11
11.5086062106
 21
36.3823490109
  0
LINE
  5
2C3
100
AcDbEntity
  8
RACCORDO
100
AcDbLine
 62
7
  6
CONTINUOUS
 10
11.5086062106
 20
36.3823490109
 11
11.4936314668
 21
36.382172313
  0
LINE
  5
2C4
100
AcDbEntity
  8
RACCORDO
100
AcDbLine
 62
7
  6
CONTINUOUS
 10
11.4936314668
 20
36.382172313
 11
11.4704191135
 21
36.3819039322
  0
LINE
  5
2C5
100
AcDbEntity
  8
RACCORDO
100
AcDbLine
 62
7
  6
CONTINUOUS
 10
11.4704191135
 20
36.3819039322
 11
11.4544220745
 21
36.3817226799
  0
LINE
  5
2C6
100
AcDbEntity
  8
RACCORDO
100
AcDbLine
 62
7
  6
CONTINUOUS
 10
11.4544220745
 20
36.3817226799
 11
11.4379871412
 21
36.3815394542
  0
LINE
  5
2C7
100
AcDbEntity
  8
RACCORDO
100
AcDbLine
 62
7
  6
CONTINUOUS
 10
11.4379871412
 20
36.3815394542
 11
11.4210996575
 21
36.3813541996
  0
LINE
  5
2C8
100
AcDbEntity
  8
RACCORDO
100
AcDbLine
 62
7
  6
CONTINUOUS
 10
11.4210996575
 20
36.3813541996
 11
11.4037398035
 21
36.3811668103
  0
LINE
  5
2C9
100
AcDbEntity
  8
RACCORDO
100
AcDbLine
 62
7
  6
CONTINUOUS
 10
11.4037398035
 20
36.3811668103
 11
11.0840726507
 21
36.3781450064
  0
LINE
  5
2CA
100
AcDbEntity
  8
RACCORDO
100
AcDbLine
 62
7
  6
CONTINUOUS
 10
11.0840726507
 20
36.3781450064
 11
10.6512196338
 21
36.3748952273
  0
LINE
  5
2CB
100
AcDbEntity
  8
RACCORDO
100
AcDbLine
 62
7
  6
CONTINUOUS
 10
10.6512196338
 20
36.3748952273
 11
10.0895547929
 21
36.3715092197
  0
LINE
  5
2CC
100
AcDbEntity
  8
RACCORDO
100
AcDbLine
 62
7
  6
CONTINUOUS
 10
10.0895547929
 20
36.3715092197
 11
9.4027778098
 21
36.3681574066
  0
LINE
  5
2CD
100
AcDbEntity
  8
RACCORDO
100
AcDbLine
 62
7
  6
CONTINUOUS
 10
9.4027778098
 20
36.3681574066
 11
8.5496259051
 21
36.3647881654
  0
LINE
  5
2CE
100
AcDbEntity
  8
RACCORDO
100
AcDbLine
 62
7
  6
CONTINUOUS
 10
8.5496259051
 20
36.3647881654
 11
7.552049241
 21
36.3616274776
  0
LINE
  5
2CF
100
AcDbEntity
  8
RACCORDO
100
AcDbLine
 62
7
  6
CONTINUOUS
 10
7.552049241
 20
36.3616274776
 11
6.4366055208
 21
36.3588268207
  0
LINE
  5
2D0
100
AcDbEntity
  8
RACCORDO
100
AcDbLine
 62
7
  6
CONTINUOUS
 10
6.4366055208
 20
36.3588268207
 11
5.1957308863
 21
36.3564206275
  0
LINE
  5
2D1
100
AcDbEntity
  8
RACCORDO
100
AcDbLine
 62
7
  6
CONTINUOUS
 10
5.1957308863
 20
36.3564206275
 11
3.8010876532
 21
36.3544472666
  0
LINE
  5
2D2
100
AcDbEntity
  8
RACCORDO
100
AcDbLine
 62
7
  6
CONTINUOUS
 10
3.8010876532
 20
36.3544472666
 11
2.3123915768
 21
36.3530751546
  0
LINE
  5
2D3
100
AcDbEntity
  8
RACCORDO
100
AcDbLine
 62
7
  6
CONTINUOUS
 10
2.3123915768
 20
36.3530751546
 11
0.7751106541
 21
36.3523774626
  0
LINE
  5
2D4
100
AcDbEntity
  8
RACCORDO
100
AcDbLine
 62
253
  6
CONTINUOUS
 10
23.5
 20
34.2286553724
 11
18.5
 21
34.2286553724
  0
LINE
  5
2D5
100
AcDbEntity
  8
RACCORDO
100
AcDbLine
 62
253
  6
CONTINUOUS
 10
48.8631595385
 20
34.841817957
 11
49.8631534462
 21
34.841817957
  0
LINE
  5
2D6
100
AcDbEntity
  8
RACCORDO
100
AcDbLine
 62
253
  6
CONTINUOUS
 10
-48.8631595385
 20
34.841817957
 11
-49.8631534462
 21
34.841817957
  0
LINE
  5
2D7
100
AcDbEntity
  8
RACCORDO
100
AcDbLine
 62
7
  6
CONTINUOUS
 10
23.5
 20
35.2286553724
 11
18.5
 21
35.2286553724
  0
LINE
  5
2D8
100
AcDbEntity
  8
RACCORDO
100
AcDbLine
 62
253
  6
CONTINUOUS
 10
48.3631625847
 20
35.3418149109
 11
23.5
 21
35.3418149109
  0
LINE
  5
2D9
100
AcDbEntity
  8
RACCORDO
100
AcDbLine
 62
253
  6
CONTINUOUS
 10
18.5
 20
35.3418149109
 11
-48.3631625847
 21
35.3418149109
  0
LINE
  5
2DA
100
AcDbEntity
  8
RACCORDO
100
AcDbLine
 62
253
  6
CONTINUOUS
 10
48.3631552099
 20
36.3418088185
 11
23.5
 21
36.3418088185
  0
LINE
  5
2DB
100
AcDbEntity
  8
RACCORDO
100
AcDbLine
 62
253
  6
CONTINUOUS
 10
18.5
 20
36.3418088185
 11
-48.3631563169
 21
36.3418088185
  0
LINE
  5
2DC
100
AcDbEntity
  8
DRAFT
100
AcDbLine
 62
7
  6
CONTINUOUS
 10
23.5
 20
36.3592743667
 11
18.5
 21
36.3592743667
  0
LINE
  5
2DD
100
AcDbEntity
  8
0
100
AcDbLine
 62
7
  6
CONTINUOUS
 10
-14.0
 20
36.3917862147
 11
14.0
 21
36.3917862147
  0
LINE
  5
2DE
100
AcDbEntity
  8
RACCORDO
100
AcDbLine
 62
7
  6
CONTINUOUS
 10
-48.499311004
 20
36.4779572378
 11
-14.0
 21
36.4779572378
  0
LINE
  5
2DF
100
AcDbEntity
  8
RACCORDO
100
AcDbLine
 62
7
  6
CONTINUOUS
 10
14.0
 20
36.4779572378
 11
48.499311004
 21
36.4779572378
  0
LINE
  5
2E0
100
AcDbEntity
  8
RACCORDO
100
AcDbLine
 62
7
  6
CONTINUOUS
 10
-48.5000571154
 20
36.4786553724
 11
-14.0
 21
36.4786553724
  0
LINE
  5
2E1
100
AcDbEntity
  8
RACCORDO
100
AcDbLine
 62
7
  6
CONTINUOUS
 10
14.0
 20
36.4786553724
 11
48.5000571154
 21
36.4786553724
  0
LINE
  5
2E2
100
AcDbEntity
  8
RACCORDO
100
AcDbLine
 62
7
  6
CONTINUOUS
 10
0.7751106541
 20
36.3523774626
 11
-1.3614020873
 21
36.3525604449
  0
LINE
  5
2E3
100
AcDbEntity
  8
RACCORDO
100
AcDbLine
 62
7
  6
CONTINUOUS
 10
-1.3614020873
 20
36.3525604449
 11
-3.0472247671
 21
36.3536632251
  0
LINE
  5
2E4
100
AcDbEntity
  8
RACCORDO
100
AcDbLine
 62
7
  6
CONTINUOUS
 10
-3.0472247671
 20
36.3536632251
 11
-4.60621254
 21
36.3554993178
  0
LINE
  5
2E5
100
AcDbEntity
  8
RACCORDO
100
AcDbLine
 62
7
  6
CONTINUOUS
 10
-4.60621254
 20
36.3554993178
 11
-6.2738120127
 21
36.3584719166
  0
LINE
  5
2E6
100
AcDbEntity
  8
RACCORDO
100
AcDbLine
 62
7
  6
CONTINUOUS
 10
-6.2738120127
 20
36.3584719166
 11
-7.5808478466
 21
36.3617091677
  0
LINE
  5
2E7
100
AcDbEntity
  8
RACCORDO
100
AcDbLine
 62
7
  6
CONTINUOUS
 10
-7.5808478466
 20
36.3617091677
 11
-8.549474994
 21
36.3647876305
  0
LINE
  5
2E8
100
AcDbEntity
  8
RACCORDO
100
AcDbLine
 62
7
  6
CONTINUOUS
 10
-8.549474994
 20
36.3647876305
 11
-9.4099869746
 21
36.3681891932
  0
LINE
  5
2E9
100
AcDbEntity
  8
RACCORDO
100
AcDbLine
 62
7
  6
CONTINUOUS
 10
-9.4099869746
 20
36.3681891932
 11
-10.1111990262
 21
36.371627102
  0
LINE
  5
2EA
100
AcDbEntity
  8
RACCORDO
100
AcDbLine
 62
7
  6
CONTINUOUS
 10
-10.1111990262
 20
36.371627102
 11
-10.696652058
 21
36.3752044275
  0
LINE
  5
2EB
100
AcDbEntity
  8
RACCORDO
100
AcDbLine
 62
7
  6
CONTINUOUS
 10
-10.696652058
 20
36.3752044275
 11
-11.1153771138
 21
36.3784117018
  0
LINE
  5
2EC
100
AcDbEntity
  8
RACCORDO
100
AcDbLine
 62
7
  6
CONTINUOUS
 10
-11.1153771138
 20
36.3784117018
 11
-11.4274513399
 21
36.3814235271
  0
LINE
  5
2ED
100
AcDbEntity
  8
RACCORDO
100
AcDbLine
 62
7
  6
CONTINUOUS
 10
-11.4274513399
 20
36.3814235271
 11
-11.6503883082
 21
36.3841911739
  0
LINE
  5
2EE
100
AcDbEntity
  8
RACCORDO
100
AcDbLine
 62
7
  6
CONTINUOUS
 10
-11.6503883082
 20
36.3841911739
 11
-11.7895479344
 21
36.3864540802
  0
LINE
  5
2EF
100
AcDbEntity
  8
RACCORDO
100
AcDbLine
 62
7
  6
CONTINUOUS
 10
-11.7895479344
 20
36.3864540802
 11
-11.8553834372
 21
36.3878238901
  0
LINE
  5
2F0
100
AcDbEntity
  8
RACCORDO
100
AcDbLine
 62
7
  6
CONTINUOUS
 10
-11.8553834372
 20
36.3878238901
 11
-11.891260565
 21
36.3887288714
  0
LINE
  5
2F1
100
AcDbEntity
  8
RACCORDO
100
AcDbLine
 62
7
  6
CONTINUOUS
 10
-11.891260565
 20
36.3887288714
 11
-11.9142273047
 21
36.3894114876
  0
LINE
  5
2F2
100
AcDbEntity
  8
RACCORDO
100
AcDbLine
 62
7
  6
CONTINUOUS
 10
-11.9142273047
 20
36.3894114876
 11
-11.9285322951
 21
36.3899043359
  0
LINE
  5
2F3
100
AcDbEntity
  8
RACCORDO
100
AcDbLine
 62
7
  6
CONTINUOUS
 10
-11.9285322951
 20
36.3899043359
 11
-11.9369896853
 21
36.3902349361
  0
LINE
  5
2F4
100
AcDbEntity
  8
RACCORDO
100
AcDbLine
 62
7
  6
CONTINUOUS
 10
-11.9369896853
 20
36.3902349361
 11
-11.942552759
 21
36.3904771487
  0
LINE
  5
2F5
100
AcDbEntity
  8
RACCORDO
100
AcDbLine
 62
7
  6
CONTINUOUS
 10
-11.942552759
 20
36.3904771487
 11
-11.9467168916
 21
36.3906786325
  0
LINE
  5
2F6
100
AcDbEntity
  8
RACCORDO
100
AcDbLine
 62
7
  6
CONTINUOUS
 10
-11.9467168916
 20
36.3906786325
 11
-11.9489730617
 21
36.3907997219
  0
LINE
  5
2F7
100
AcDbEntity
  8
RACCORDO
100
AcDbLine
 62
7
  6
CONTINUOUS
 10
-11.9489730617
 20
36.3907997219
 11
-11.9497087247
 21
36.3908423325
  0
LINE
  5
2F8
100
AcDbEntity
  8
RACCORDO
100
AcDbLine
 62
7
  6
CONTINUOUS
 10
-11.949975099
 20
36.3908583902
 11
-11.9501663469
 21
36.3908702288
  0
LINE
  5
2F9
100
AcDbEntity
  8
0
100
AcDbLine
 62
7
  6
CONTINUOUS
 10
45.0
 20
-36.7713446276
 11
45.9
 21
-39.7713446276
  0
LINE
  5
2FA
100
AcDbEntity
  8
0
100
AcDbLine
 62
7
  6
CONTINUOUS
 10
-11.35
 20
39.2917862147
 11
-13.2588190451
 21
38.7803196931
  0
LINE
  5
2FB
100
AcDbEntity
  8
RACCORDO
100
AcDbLine
 62
7
  6
CONTINUOUS
 10
-13.2588190451
 20
38.7803196931
 11
-11.35
 21
39.2917862147
  0
LINE
  5
2FC
100
AcDbEntity
  8
RACCORDO
100
AcDbLine
 62
253
  6
CONTINUOUS
 10
-14.0
 20
37.8143938668
 11
14.0
 21
37.8143938668
  0
LINE
  5
2FD
100
AcDbEntity
  8
RACCORDO
100
AcDbLine
 62
253
  6
CONTINUOUS
 10
-13.2588190451
 20
38.7803196931
 11
13.2588190451
 21
38.7803196931
  0
LINE
  5
2FE
100
AcDbEntity
  8
0
100
AcDbLine
 62
7
  6
CONTINUOUS
 10
-11.35
 20
39.2917862147
 11
11.35
 21
39.2917862147
  0
LINE
  5
2FF
100
AcDbEntity
  8
0
100
AcDbLine
 62
7
  6
CONTINUOUS
 10
-11.85
 20
39.7917862147
 11
11.85
 21
39.7917862147
  0
LINE
  5
300
100
AcDbEntity
  8
RACCORDO
100
AcDbLine
 62
253
  6
CONTINUOUS
 10
-11.85
 20
40.2185100565
 11
11.85
 21
40.2185100565
  0
LINE
  5
301
100
AcDbEntity
  8
RACCORDO
100
AcDbLine
 62
253
  6
CONTINUOUS
 10
-11.6276457135
 20
40.5082878044
 11
11.6276457135
 21
40.5082878044
  0
LINE
  5
302
100
AcDbEntity
  8
0
100
AcDbLine
 62
7
  6
CONTINUOUS
 10
-9.45
 20
41.0917862147
 11
9.45
 21
41.0917862147
  0
LINE
  5
303
100
AcDbEntity
  8
0
100
AcDbLine
 62
7
  6
CONTINUOUS
 10
-10.1
 20
41.5917862147
 11
10.1
 21
41.5917862147
  0
LINE
  5
304
100
AcDbEntity
  8
0
100
AcDbLine
 62
7
  6
CONTINUOUS
 10
11.35
 20
39.2917862147
 11
13.2588190451
 21
38.7803196931
  0
LINE
  5
305
100
AcDbEntity
  8
RACCORDO
100
AcDbLine
 62
7
  6
CONTINUOUS
 10
13.2588190451
 20
38.7803196931
 11
11.35
 21
39.2917862147
  0
LINE
  5
306
100
AcDbEntity
  8
0
100
AcDbLine
 62
7
  6
CONTINUOUS
 10
42.0
 20
-5.5806550043
 11
42.0
 21
-7.2999653103
  0
LINE
  5
307
100
AcDbEntity
  8
0
100
AcDbLine
 62
7
  6
CONTINUOUS
 10
42.2772413492
 20
-7.2999653103
 11
42.2772413492
 21
-5.8889307635
  0
LINE
  5
308
100
AcDbEntity
  8
0
100
AcDbLine
 62
7
  6
CONTINUOUS
 10
45.0
 20
-7.0806549596
 11
45.0
 21
-6.7475515561
  0
LINE
  5
309
100
AcDbEntity
  8
0
100
AcDbLine
 62
7
  6
CONTINUOUS
 10
45.75
 20
26.7286553724
 11
45.75
 21
-36.7713446276
  0
LINE
  5
30A
100
AcDbEntity
  8
0
100
AcDbLine
 62
7
  6
CONTINUOUS
 10
45.95
 20
26.7286553724
 11
45.95
 21
-36.7713446276
  0
LINE
  5
30B
100
AcDbEntity
  8
0
100
AcDbLine
 62
7
  6
CONTINUOUS
 10
46.05
 20
26.7286553724
 11
46.05
 21
-36.7713446276
  0
LINE
  5
30C
100
AcDbEntity
  8
0
100
AcDbLine
 62
7
  6
CONTINUOUS
 10
-9.45
 20
41.0917862147
 11
-11.6276457135
 21
40.5082878044
  0
LINE
  5
30D
100
AcDbEntity
  8
RACCORDO
100
AcDbLine
 62
7
  6
CONTINUOUS
 10
-11.6276457135
 20
40.5082878044
 11
-9.45
 21
41.0917862147
  0
LINE
  5
30E
100
AcDbEntity
  8
0
100
AcDbLine
 62
7
  6
CONTINUOUS
 10
-7.85
 20
42.8917862147
 11
-9.8776457135
 21
42.3484801832
  0
LINE
  5
30F
100
AcDbEntity
  8
RACCORDO
100
AcDbLine
 62
7
  6
CONTINUOUS
 10
-9.8776457135
 20
42.3484801832
 11
-7.85
 21
42.8917862147
  0
LINE
  5
310
100
AcDbEntity
  8
0
100
AcDbLine
 62
7
  6
CONTINUOUS
 10
-6.0
 20
44.6917862147
 11
-8.1276457135
 21
44.121685264
  0
LINE
  5
311
100
AcDbEntity
  8
RACCORDO
100
AcDbLine
 62
7
  6
CONTINUOUS
 10
-8.1276457135
 20
44.121685264
 11
-6.0
 21
44.6917862147
  0
LINE
  5
312
100
AcDbEntity
  8
0
100
AcDbLine
 62
7
  6
CONTINUOUS
 10
-1.0
 20
46.5917862147
 11
-3.8776457135
 21
45.8207233697
  0
LINE
  5
313
100
AcDbEntity
  8
RACCORDO
100
AcDbLine
 62
7
  6
CONTINUOUS
 10
-3.8776457135
 20
45.8207233697
 11
-1.0
 21
46.5917862147
  0
LINE
  5
314
100
AcDbEntity
  8
RACCORDO
100
AcDbLine
 62
253
  6
CONTINUOUS
 10
-10.1
 20
42.0587024353
 11
10.1
 21
42.0587024353
  0
LINE
  5
315
100
AcDbEntity
  8
RACCORDO
100
AcDbLine
 62
253
  6
CONTINUOUS
 10
-9.8776457135
 20
42.3484801832
 11
9.8776457135
 21
42.3484801832
  0
LINE
  5
316
100
AcDbEntity
  8
0
100
AcDbLine
 62
7
  6
CONTINUOUS
 10
-7.85
 20
42.8917862147
 11
7.85
 21
42.8917862147
  0
LINE
  5
317
100
AcDbEntity
  8
0
100
AcDbLine
 62
7
  6
CONTINUOUS
 10
-8.35
 20
43.3917862147
 11
8.35
 21
43.3917862147
  0
LINE
  5
318
100
AcDbEntity
  8
RACCORDO
100
AcDbLine
 62
253
  6
CONTINUOUS
 10
-8.35
 20
43.8319075161
 11
8.35
 21
43.8319075161
  0
LINE
  5
319
100
AcDbEntity
  8
RACCORDO
100
AcDbLine
 62
253
  6
CONTINUOUS
 10
-8.1276457135
 20
44.121685264
 11
8.1276457135
 21
44.121685264
  0
LINE
  5
31A
100
AcDbEntity
  8
0
100
AcDbLine
 62
7
  6
CONTINUOUS
 10
-6.0
 20
44.6917862147
 11
6.0
 21
44.6917862147
  0
LINE
  5
31B
100
AcDbEntity
  8
0
100
AcDbLine
 62
7
  6
CONTINUOUS
 10
-4.1
 20
45.1917862147
 11
4.1
 21
45.1917862147
  0
LINE
  5
31C
100
AcDbEntity
  8
RACCORDO
100
AcDbLine
 62
253
  6
CONTINUOUS
 10
-4.1
 20
45.5309456218
 11
4.1
 21
45.5309456218
  0
LINE
  5
31D
100
AcDbEntity
  8
RACCORDO
100
AcDbLine
 62
253
  6
CONTINUOUS
 10
-3.8776457135
 20
45.8207233697
 11
3.8776457135
 21
45.8207233697
  0
LINE
  5
31E
100
AcDbEntity
  8
0
100
AcDbLine
 62
7
  6
CONTINUOUS
 10
9.45
 20
41.0917862147
 11
11.6276457135
 21
40.5082878044
  0
LINE
  5
31F
100
AcDbEntity
  8
RACCORDO
100
AcDbLine
 62
7
  6
CONTINUOUS
 10
11.6276457135
 20
40.5082878044
 11
9.45
 21
41.0917862147
  0
LINE
  5
320
100
AcDbEntity
  8
0
100
AcDbLine
 62
7
  6
CONTINUOUS
 10
7.85
 20
42.8917862147
 11
9.8776457135
 21
42.3484801832
  0
LINE
  5
321
100
AcDbEntity
  8
RACCORDO
100
AcDbLine
 62
7
  6
CONTINUOUS
 10
9.8776457135
 20
42.3484801832
 11
7.85
 21
42.8917862147
  0
LINE
  5
322
100
AcDbEntity
  8
0
100
AcDbLine
 62
7
  6
CONTINUOUS
 10
6.0
 20
44.6917862147
 11
8.1276457135
 21
44.121685264
  0
LINE
  5
323
100
AcDbEntity
  8
RACCORDO
100
AcDbLine
 62
7
  6
CONTINUOUS
 10
8.1276457135
 20
44.121685264
 11
6.0
 21
44.6917862147
  0
LINE
  5
324
100
AcDbEntity
  8
0
100
AcDbLine
 62
7
  6
CONTINUOUS
 10
1.0
 20
46.5917862147
 11
3.8776457135
 21
45.8207233697
  0
LINE
  5
325
100
AcDbEntity
  8
RACCORDO
100
AcDbLine
 62
7
  6
CONTINUOUS
 10
3.8776457135
 20
45.8207233697
 11
1.0
 21
46.5917862147
  0
LINE
  5
326
100
AcDbEntity
  8
0
100
AcDbLine
 62
7
  6
CONTINUOUS
 10
46.25
 20
26.7286553724
 11
46.25
 21
-36.7713446276
  0
LINE
  5
327
100
AcDbEntity
  8
0
100
AcDbLine
 62
7
  6
CONTINUOUS
 10
48.0
 20
30.2286553724
 11
48.0
 21
29.7286553724
  0
LINE
  5
328
100
AcDbEntity
  8
0
100
AcDbLine
 62
7
  6
CONTINUOUS
 10
48.0
 20
-39.7713446276
 11
48.0
 21
-40.2713446276
  0
LINE
  5
329
100
AcDbEntity
  8
RACCORDO
100
AcDbLine
 62
253
  6
CONTINUOUS
 10
48.3631625847
 20
-45.3845041661
 11
48.3631625847
 21
-46.3844980738
  0
LINE
  5
32A
100
AcDbEntity
  8
RACCORDO
100
AcDbLine
 62
253
  6
CONTINUOUS
 10
48.3631625847
 20
35.3418149109
 11
48.3631625847
 21
36.3418088185
  0
LINE
  5
32B
100
AcDbEntity
  8
RACCORDO
100
AcDbLine
 62
253
  6
CONTINUOUS
 10
48.8631595385
 20
-44.8845072123
 11
48.8631595385
 21
34.841817957
  0
LINE
  5
32C
100
AcDbEntity
  8
RACCORDO
100
AcDbLine
 62
253
  6
CONTINUOUS
 10
49.8631534462
 20
-44.8844998376
 11
49.8631534462
 21
34.8418116893
  0
LINE
  5
32D
100
AcDbEntity
  8
RACCORDO
100
AcDbLine
 62
7
  6
CONTINUOUS
 10
49.9993018655
 20
34.9779663763
 11
49.9993018655
 21
-45.0206556316
  0
LINE
  5
32E
100
AcDbEntity
  8
RACCORDO
100
AcDbLine
 62
7
  6
CONTINUOUS
 10
50.0
 20
34.9787124878
 11
50.0
 21
-45.021401743
  0
LINE
  5
32F
100
AcDbEntity
  8
0
100
AcDbLine
 62
7
  6
CONTINUOUS
 10
-1.0
 20
46.5917862147
 11
1.0
 21
46.5917862147
  0
LINE
  5
330
100
AcDbEntity
  8
0
100
AcDbLine
 62
7
  6
CONTINUOUS
 10
47.0
 20
26.7286553724
 11
46.1
 21
29.7286553724
  0
LINE
  5
331
100
AcDbEntity
  8
0
100
AcDbLine
 62
7
  6
CONTINUOUS
 10
46.1
 20
-39.7713446276
 11
47.0
 21
-36.7713446276
  0
CIRCLE
  5
332
100
AcDbEntity
  8
RACCORDO
100
AcDbCircle
 62
253
  6
CONTINUOUS
 10
-41.0
 20
-32.0213446276
 40
3.2326972496
  0
ARC
  5
333
100
AcDbEntity
  8
ASSI
100
AcDbCircle
 62
7
  6
CONTINUOUS
 10
-29.5
 20
-40.0213446276
 40
2.25
100
AcDbArc
 50
270.0
 51
90.0
  0
ARC
  5
334
100
AcDbEntity
  8
ASSI
100
AcDbCircle
 62
7
  6
CONTINUOUS
 10
-32.5
 20
-40.0213446276
 40
2.25
100
AcDbArc
 50
90.0
 51
270.0
  0
CIRCLE
  5
335
100
AcDbEntity
  8
RACCORDO
100
AcDbCircle
 62
253
  6
CONTINUOUS
 10
-41.0
 20
-32.0213446276
 40
2.232849568
  0
CIRCLE
  5
336
100
AcDbEntity
  8
DRAFT
100
AcDbCircle
 62
7
  6
CONTINUOUS
 10
-41.0
 20
-32.0213446276
 40
1.9008987014
  0
ARC
  5
337
100
AcDbEntity
  8
RACCORDO
100
AcDbCircle
 62
253
  6
CONTINUOUS
 10
-48.3631491383
 20
-44.884493766
 40
1.5000043079
100
AcDbArc
 50
180.0002742032
 51
269.99976808
  0
ARC
  5
338
100
AcDbEntity
  8
SMUSSO
100
AcDbCircle
 62
7
  6
CONTINUOUS
 10
-32.5
 20
-40.0213446276
 40
1.4999998167
100
AcDbArc
 50
90.0
 51
270.0
  0
ARC
  5
339
100
AcDbEntity
  8
SMUSSO
100
AcDbCircle
 62
7
  6
CONTINUOUS
 10
-29.5
 20
-40.0213446276
 40
1.4999998167
100
AcDbArc
 50
270.0
 51
90.0
  0
ARC
  5
33A
100
AcDbEntity
  8
SMUSSO
100
AcDbCircle
 62
7
  6
CONTINUOUS
 10
-29.5
 20
-40.0213446276
 40
1.1999999108
100
AcDbArc
 50
270.0
 51
90.0
  0
ARC
  5
33B
100
AcDbEntity
  8
SMUSSO
100
AcDbCircle
 62
7
  6
CONTINUOUS
 10
-32.5
 20
-40.0213446276
 40
1.1999999108
100
AcDbArc
 50
90.0
 51
270.0
  0
ARC
  5
33C
100
AcDbEntity
  8
RACCORDO
100
AcDbCircle
 62
253
  6
CONTINUOUS
 10
-48.3631638447
 20
-44.8845084723
 40
0.4999956938
100
AcDbArc
 50
179.9998556137
 51
270.0001443863
  0
CIRCLE
  5
33D
100
AcDbEntity
  8
RACCORDO
100
AcDbCircle
 62
253
  6
CONTINUOUS
 10
-41.0
 20
21.9786553724
 40
3.2326972496
  0
ARC
  5
33E
100
AcDbEntity
  8
ASSI
100
AcDbCircle
 62
7
  6
CONTINUOUS
 10
-31.0
 20
30.9786553724
 40
2.25
100
AcDbArc
 50
0.0
 51
180.0
  0
ARC
  5
33F
100
AcDbEntity
  8
ASSI
100
AcDbCircle
 62
7
  6
CONTINUOUS
 10
-31.0
 20
28.9786553724
 40
2.25
100
AcDbArc
 50
180.0
 51
360.0
  0
CIRCLE
  5
340
100
AcDbEntity
  8
RACCORDO
100
AcDbCircle
 62
253
  6
CONTINUOUS
 10
-41.0
 20
21.9786553724
 40
2.232849568
  0
CIRCLE
  5
341
100
AcDbEntity
  8
DRAFT
100
AcDbCircle
 62
7
  6
CONTINUOUS
 10
-41.0
 20
21.9786553724
 40
1.9008987014
  0
ARC
  5
342
100
AcDbEntity
  8
RACCORDO
100
AcDbCircle
 62
253
  6
CONTINUOUS
 10
-48.3631491383
 20
34.8418045107
 40
1.5000043079
100
AcDbArc
 50
90.0002742032
 51
179.99976808
  0
ARC
  5
343
100
AcDbEntity
  8
SMUSSO
100
AcDbCircle
 62
7
  6
CONTINUOUS
 10
-31.0
 20
28.9786553724
 40
1.4999998167
100
AcDbArc
 50
180.0
 51
360.0
  0
ARC
  5
344
100
AcDbEntity
  8
SMUSSO
100
AcDbCircle
 62
7
  6
CONTINUOUS
 10
-31.0
 20
30.9786553724
 40
1.4999998167
100
AcDbArc
 50
0.0
 51
180.0
  0
ARC
  5
345
100
AcDbEntity
  8
SMUSSO
100
AcDbCircle
 62
7
  6
CONTINUOUS
 10
-31.0
 20
30.9786553724
 40
1.1999999108
100
AcDbArc
 50
0.0
 51
180.0
  0
ARC
  5
346
100
AcDbEntity
  8
SMUSSO
100
AcDbCircle
 62
7
  6
CONTINUOUS
 10
-31.0
 20
28.9786553724
 40
1.1999999108
100
AcDbArc
 50
180.0
 51
360.0
  0
ARC
  5
347
100
AcDbEntity
  8
RACCORDO
100
AcDbCircle
 62
7
  6
CONTINUOUS
 10
-13.0
 20
37.8143938668
 40
1.0
100
AcDbArc
 50
105.0
 51
180.0
  0
ARC
  5
348
100
AcDbEntity
  8
RACCORDO
100
AcDbCircle
 62
253
  6
CONTINUOUS
 10
-48.3631638447
 20
34.841819217
 40
0.4999956938
100
AcDbArc
 50
89.9998556137
 51
180.0001443863
  0
ARC
  5
349
100
AcDbEntity
  8
RACCORDO
100
AcDbCircle
 62
7
  6
CONTINUOUS
 10
-3.8
 20
45.5309456218
 40
0.3
100
AcDbArc
 50
104.9999999924
 51
180.0
  0
ARC
  5
34A
100
AcDbEntity
  8
RACCORDO
100
AcDbCircle
 62
7
  6
CONTINUOUS
 10
-11.55
 20
40.2185100565
 40
0.3
100
AcDbArc
 50
104.9999999999
 51
180.0
  0
ARC
  5
34B
100
AcDbEntity
  8
RACCORDO
100
AcDbCircle
 62
7
  6
CONTINUOUS
 10
-9.8
 20
42.0587024353
 40
0.3
100
AcDbArc
 50
104.9999999999
 51
180.0
  0
ARC
  5
34C
100
AcDbEntity
  8
RACCORDO
100
AcDbCircle
 62
7
  6
CONTINUOUS
 10
-8.05
 20
43.8319075161
 40
0.3
100
AcDbArc
 50
104.9999999998
 51
180.0
  0
CIRCLE
  5
34D
100
AcDbEntity
  8
0
100
AcDbCircle
 62
7
  6
CONTINUOUS
 10
-0.0
 20
-5.0213446276
 40
11.5
  0
CIRCLE
  5
34E
100
AcDbEntity
  8
0
100
AcDbCircle
 62
7
  6
CONTINUOUS
 10
-0.0
 20
-5.0213446276
 40
11.25
  0
CIRCLE
  5
34F
100
AcDbEntity
  8
0
100
AcDbCircle
 62
7
  6
CONTINUOUS
 10
-0.0
 20
-5.0213446276
 40
10.557179677
  0
ARC
  5
350
100
AcDbEntity
  8
0
100
AcDbCircle
 62
7
  6
CONTINUOUS
 10
43.4998313443
 20
-8.501368819
 40
5.1676109833
100
AcDbArc
 50
89.9751904083
 51
94.4497669162
  0
ARC
  5
351
100
AcDbEntity
  8
0
100
AcDbCircle
 62
7
  6
CONTINUOUS
 10
43.5065747333
 20
-8.3376212788
 40
5.0038649873
100
AcDbArc
 50
85.5244420619
 51
90.0515924085
  0
ARC
  5
352
100
AcDbEntity
  8
0
100
AcDbCircle
 62
7
  6
CONTINUOUS
 10
43.4976639605
 20
-1.5704550371
 40
3.4391663291
100
AcDbArc
 50
261.1837311368
 51
270.0389179248
  0
ARC
  5
353
100
AcDbEntity
  8
0
100
AcDbCircle
 62
7
  6
CONTINUOUS
 10
43.5001820594
 20
-1.6497257604
 40
3.3598948173
100
AcDbArc
 50
269.9968953689
 51
278.850671849
  0
CIRCLE
  5
354
100
AcDbEntity
  8
RACCORDO
100
AcDbCircle
 62
253
  6
CONTINUOUS
 10
41.0
 20
-32.0213446276
 40
3.2326972496
  0
ARC
  5
355
100
AcDbEntity
  8
ASSI
100
AcDbCircle
 62
7
  6
CONTINUOUS
 10
29.5
 20
-40.0213446276
 40
2.25
100
AcDbArc
 50
90.0
 51
270.0
  0
ARC
  5
356
100
AcDbEntity
  8
0
100
AcDbCircle
 62
7
  6
CONTINUOUS
 10
32.5
 20
-40.0213446276
 40
2.25
100
AcDbArc
 50
270.0
 51
90.0
  0
CIRCLE
  5
357
100
AcDbEntity
  8
RACCORDO
100
AcDbCircle
 62
253
  6
CONTINUOUS
 10
41.0
 20
-32.0213446276
 40
2.232849568
  0
CIRCLE
  5
358
100
AcDbEntity
  8
DRAFT
100
AcDbCircle
 62
7
  6
CONTINUOUS
 10
41.0
 20
-32.0213446276
 40
1.9008987014
  0
ARC
  5
359
100
AcDbEntity
  8
0
100
AcDbCircle
 62
7
  6
CONTINUOUS
 10
43.766708903
 20
-4.9904763162
 40
1.6466282081
100
AcDbArc
 50
70.4350025415
 51
85.4600862974
  0
ARC
  5
35A
100
AcDbEntity
  8
RACCORDO
100
AcDbCircle
 62
253
  6
CONTINUOUS
 10
48.3631491383
 20
-44.884493766
 40
1.5000043079
100
AcDbArc
 50
270.0002742032
 51
359.99976808
  0
ARC
  5
35B
100
AcDbEntity
  8
SMUSSO
100
AcDbCircle
 62
7
  6
CONTINUOUS
 10
32.5
 20
-40.0213446276
 40
1.4999998167
100
AcDbArc
 50
270.0
 51
90.0
  0
ARC
  5
35C
100
AcDbEntity
  8
SMUSSO
100
AcDbCircle
 62
7
  6
CONTINUOUS
 10
29.5
 20
-40.0213446276
 40
1.4999998167
100
AcDbArc
 50
90.0
 51
270.0
  0
ARC
  5
35D
100
AcDbEntity
  8
SMUSSO
100
AcDbCircle
 62
7
  6
CONTINUOUS
 10
29.5
 20
-40.0213446276
 40
1.1999999108
100
AcDbArc
 50
90.0
 51
270.0
  0
ARC
  5
35E
100
AcDbEntity
  8
SMUSSO
100
AcDbCircle
 62
7
  6
CONTINUOUS
 10
32.5
 20
-40.0213446276
 40
1.1999999108
100
AcDbArc
 50
270.0
 51
90.0
  0
ARC
  5
35F
100
AcDbEntity
  8
RACCORDO
100
AcDbCircle
 62
253
  6
CONTINUOUS
 10
48.3631638447
 20
-44.8845084723
 40
0.4999956938
100
AcDbArc
 50
269.9998556137
 51
0.0001443863
  0
CIRCLE
  5
360
100
AcDbEntity
  8
RACCORDO
100
AcDbCircle
 62
253
  6
CONTINUOUS
 10
41.0
 20
21.9786553724
 40
3.2326972496
  0
ARC
  5
361
100
AcDbEntity
  8
ASSI
100
AcDbCircle
 62
7
  6
CONTINUOUS
 10
31.0
 20
30.9786553724
 40
2.25
100
AcDbArc
 50
0.0
 51
180.0
  0
ARC
  5
362
100
AcDbEntity
  8
ASSI
100
AcDbCircle
 62
7
  6
CONTINUOUS
 10
31.0
 20
28.9786553724
 40
2.25
100
AcDbArc
 50
180.0
 51
360.0
  0
CIRCLE
  5
363
100
AcDbEntity
  8
RACCORDO
100
AcDbCircle
 62
253
  6
CONTINUOUS
 10
41.0
 20
21.9786553724
 40
2.232849568
  0
CIRCLE
  5
364
100
AcDbEntity
  8
DRAFT
100
AcDbCircle
 62
7
  6
CONTINUOUS
 10
41.0
 20
21.9786553724
 40
1.9008987014
  0
ARC
  5
365
100
AcDbEntity
  8
RACCORDO
100
AcDbCircle
 62
253
  6
CONTINUOUS
 10
48.3631491383
 20
34.8418045107
 40
1.5000043079
100
AcDbArc
 50
0.0002742032
 51
89.99976808
  0
ARC
  5
366
100
AcDbEntity
  8
SMUSSO
100
AcDbCircle
 62
7
  6
CONTINUOUS
 10
31.0
 20
28.9786553724
 40
1.4999998167
100
AcDbArc
 50
180.0
 51
360.0
  0
ARC
  5
367
100
AcDbEntity
  8
SMUSSO
100
AcDbCircle
 62
7
  6
CONTINUOUS
 10
31.0
 20
30.9786553724
 40
1.4999998167
100
AcDbArc
 50
0.0
 51
180.0
  0
ARC
  5
368
100
AcDbEntity
  8
SMUSSO
100
AcDbCircle
 62
7
  6
CONTINUOUS
 10
31.0
 20
30.9786553724
 40
1.1999999108
100
AcDbArc
 50
0.0
 51
180.0
  0
ARC
  5
369
100
AcDbEntity
  8
SMUSSO
100
AcDbCircle
 62
7
  6
CONTINUOUS
 10
31.0
 20
28.9786553724
 40
1.1999999108
100
AcDbArc
 50
180.0
 51
360.0
  0
ARC
  5
36A
100
AcDbEntity
  8
RACCORDO
100
AcDbCircle
 62
7
  6
CONTINUOUS
 10
13.0
 20
37.8143938668
 40
1.0
100
AcDbArc
 50
0.0
 51
75.0
  0
ARC
  5
36B
100
AcDbEntity
  8
RACCORDO
100
AcDbCircle
 62
253
  6
CONTINUOUS
 10
48.3631638447
 20
34.841819217
 40
0.4999956938
100
AcDbArc
 50
359.9998556137
 51
90.0001443863
  0
ARC
  5
36C
100
AcDbEntity
  8
RACCORDO
100
AcDbCircle
 62
7
  6
CONTINUOUS
 10
3.8
 20
45.5309456218
 40
0.3
100
AcDbArc
 50
0.0
 51
75.0000000076
  0
ARC
  5
36D
100
AcDbEntity
  8
RACCORDO
100
AcDbCircle
 62
7
  6
CONTINUOUS
 10
11.55
 20
40.2185100565
 40
0.3
100
AcDbArc
 50
0.0
 51
75.0000000001
  0
ARC
  5
36E
100
AcDbEntity
  8
RACCORDO
100
AcDbCircle
 62
7
  6
CONTINUOUS
 10
9.8
 20
42.0587024353
 40
0.3
100
AcDbArc
 50
0.0
 51
75.0000000001
  0
ARC
  5
36F
100
AcDbEntity
  8
RACCORDO
100
AcDbCircle
 62
7
  6
CONTINUOUS
 10
8.05
 20
43.8319075161
 40
0.3
100
AcDbArc
 50
0.0
 51
75.0000000002
  0
SPLINE
  5
370
100
AcDbEntity
  8
0
100
AcDbSpline
 62
7
  6
CONTINUOUS
 70
0
 71
3
 72
8
 73
4
 74
2
 42
0.0000001
 43
0.0000001
 44
0.0000000001
 12
0.8440452122
 22
0.0
 32
0.0
 13
0.5245290804
 23
0.5119653664
 33
0.0
 40
0.0
 40
0.0
 40
0.0
 40
0.0
 40
1.0
 40
1.0
 40
1.0
 40
1.0
 10
-1.3599691359
 20
-42.8689308321
 30
0.0
 10
-1.0786207318
 20
-42.8689308321
 30
0.0
 10
-0.8531034589
 20
-42.7841032479
 30
0.0
 10
-0.6782604321
 20
-42.6134481258
 30
0.0
 11
-1.3599691359
 21
-42.8689308321
 31
0.0
 11
-0.6782604321
 21
-42.6134481258
 31
0.0
  0
SPLINE
  5
371
100
AcDbEntity
  8
0
100
AcDbSpline
 62
7
  6
CONTINUOUS
 70
0
 71
3
 72
8
 73
4
 74
2
 42
0.0000001
 43
0.0000001
 44
0.0000000001
 12
0.5120229316
 22
0.4997587694
 32
0.0
 13
0.0
 23
0.8379540719
 33
0.0
 40
0.0
 40
0.0
 40
0.0
 40
0.0
 40
1.0
 40
1.0
 40
1.0
 40
1.0
 10
-0.6782604321
 20
-42.6134481258
 30
0.0
 10
-0.5075861216
 20
-42.4468618693
 30
0.0
 10
-0.420689702
 20
-42.2254825519
 30
0.0
 10
-0.420689702
 20
-41.946164528
 30
0.0
 11
-0.6782604321
 21
-42.6134481258
 31
0.0
 11
-0.420689702
 21
-41.946164528
 31
0.0
  0
SPLINE
  5
372
100
AcDbEntity
  8
0
100
AcDbSpline
 62
7
  6
CONTINUOUS
 70
0
 71
3
 72
8
 73
4
 74
2
 42
0.0000001
 43
0.0000001
 44
0.0000000001
 12
0.0
 22
0.8317010575
 32
0.0
 13
-0.496512832
 23
0.5090034544
 33
0.0
 40
0.0
 40
0.0
 40
0.0
 40
0.0
 40
1.0
 40
1.0
 40
1.0
 40
1.0
 10
-0.420689702
 20
-41.946164528
 30
0.0
 10
-0.420689702
 20
-41.6689308422
 30
0.0
 10
-0.5034481883
 20
-41.4475515025
 30
0.0
 10
-0.6689524656
 20
-41.2778836844
 30
0.0
 11
-0.420689702
 21
-41.946164528
 31
0.0
 11
-0.6689524656
 21
-41.2778836844
 31
0.0
  0
SPLINE
  5
373
100
AcDbEntity
  8
0
100
AcDbSpline
 62
7
  6
CONTINUOUS
 70
0
 71
3
 72
8
 73
4
 74
2
 42
0.0000001
 43
0.0000001
 44
0.0000000001
 12
-0.4903839809
 22
0.5027204216
 32
0.0
 13
-0.782078012
 23
0.0049189449
 33
0.0
 40
0.0
 40
0.0
 40
0.0
 40
0.0
 40
1.0
 40
1.0
 40
1.0
 40
1.0
 10
-0.6689524656
 20
-41.2778836844
 30
0.0
 10
-0.8324137926
 20
-41.1103102105
 30
0.0
 10
-1.0434482992
 20
-41.0234136121
 30
0.0
 10
-1.3041409698
 20
-41.0217739639
 30
0.0
 11
-0.6689524656
 21
-41.2778836844
 31
0.0
 11
-1.3041409698
 21
-41.0217739639
 31
0.0
  0
SPLINE
  5
374
100
AcDbEntity
  8
0
100
AcDbSpline
 62
7
  6
CONTINUOUS
 70
0
 71
3
 72
8
 73
4
 74
2
 42
0.0000001
 43
0.0000001
 44
0.0000000001
 12
-0.2048185327
 22
0.0012882232
 32
0.0
 13
-0.2168869893
 23
-0.0451849467
 33
0.0
 40
0.0
 40
0.0
 40
0.0
 40
0.0
 40
1.0
 40
1.0
 40
1.0
 40
1.0
 10
-1.3041409698
 20
-41.0217739639
 30
0.0
 10
-1.3724138141
 20
-41.0213445561
 30
0.0
 10
-1.4406896234
 20
-41.0296204226
 30
0.0
 10
-1.5129852864
 20
-41.0446820715
 30
0.0
 11
-1.3041409698
 21
-41.0217739639
 31
0.0
 11
-1.5129852864
 21
-41.0446820715
 31
0.0
  0
SPLINE
  5
375
100
AcDbEntity
  8
0
100
AcDbSpline
 62
7
  6
CONTINUOUS
 70
0
 71
3
 72
8
 73
4
 74
2
 42
0.0000001
 43
0.0000001
 44
0.0000000001
 12
-0.230009534
 22
-0.0479188197
 32
0.0
 13
-0.1800000966
 23
-0.0744827986
 33
0.0
 40
0.0
 40
0.0
 40
0.0
 40
0.0
 40
1.0
 40
1.0
 40
1.0
 40
1.0
 10
-1.5129852864
 20
-41.0446820715
 30
0.0
 10
-1.5896551311
 20
-41.0606550114
 30
0.0
 10
-1.6558620632
 20
-41.0875514882
 30
0.0
 10
-1.7158620954
 20
-41.1123790877
 30
0.0
 11
-1.5129852864
 21
-41.0446820715
 31
0.0
 11
-1.7158620954
 21
-41.1123790877
 31
0.0
  0
SPLINE
  5
376
100
AcDbEntity
  8
0
100
AcDbSpline
 62
7
  6
CONTINUOUS
 70
0
 71
3
 72
8
 73
4
 74
2
 42
0.0000001
 43
0.0000001
 44
0.0000000001
 12
0.1407365756
 22
0.3793768588
 32
0.0
 13
0.2091751899
 23
0.352498945
 33
0.0
 40
0.0
 40
0.0
 40
0.0
 40
0.0
 40
1.0
 40
1.0
 40
1.0
 40
1.0
 10
-2.2303604767
 20
-41.5036656795
 30
0.0
 10
-2.1834482849
 20
-41.3772067266
 30
0.0
 10
-2.1228284954
 20
-41.2567753916
 30
0.0
 10
-2.0531034321
 20
-41.1392757433
 30
0.0
 11
-2.2303604767
 21
-41.5036656795
 31
0.0
 11
-2.0531034321
 21
-41.1392757433
 31
0.0
  0
SPLINE
  5
377
100
AcDbEntity
  8
0
100
AcDbSpline
 62
7
  6
CONTINUOUS
 70
0
 71
3
 72
8
 73
4
 74
2
 42
0.0000001
 43
0.0000001
 44
0.0000000001
 12
-0.0022806501
 22
0.4903395186
 32
0.0
 13
0.1447806178
 23
0.3902781901
 33
0.0
 40
0.0
 40
0.0
 40
0.0
 40
0.0
 40
1.0
 40
1.0
 40
1.0
 40
1.0
 10
-2.3026880655
 20
-41.9441014568
 30
0.0
 10
-2.3034482822
 20
-41.7806549506
 30
0.0
 10
-2.2786206827
 20
-41.6337584095
 30
0.0
 10
-2.2303604767
 20
-41.5036656795
 30
0.0
 11
-2.3026880655
 21
-41.9441014568
 31
0.0
 11
-2.2303604767
 21
-41.5036656795
 31
0.0
  0
SPLINE
  5
378
100
AcDbEntity
  8
0
100
AcDbSpline
 62
7
  6
CONTINUOUS
 70
0
 71
3
 72
8
 73
4
 74
2
 42
0.0000001
 43
0.0000001
 44
0.0000000001
 12
-0.5231878502
 22
0.5016448378
 32
0.0
 13
-0.0039262498
 23
0.8441432853
 33
0.0
 40
0.0
 40
0.0
 40
0.0
 40
0.0
 40
1.0
 40
1.0
 40
1.0
 40
1.0
 10
-2.0380178452
 20
-42.6140768152
 30
0.0
 10
-2.2124137953
 20
-42.4468618693
 30
0.0
 10
-2.3013793156
 20
-42.2254825519
 30
0.0
 10
-2.3026880655
 20
-41.9441014568
 30
0.0
 11
-2.0380178452
 21
-42.6140768152
 31
0.0
 11
-2.3026880655
 21
-41.9441014568
 31
0.0
  0
SPLINE
  5
379
100
AcDbEntity
  8
0
100
AcDbSpline
 62
7
  6
CONTINUOUS
 70
0
 71
3
 72
8
 73
4
 74
2
 42
0.0000001
 43
0.0000001
 44
0.0000000001
 12
-0.8318166829
 22
0.0
 32
0.0
 13
-0.5319845261
 23
0.510079298
 33
0.0
 40
0.0
 40
0.0
 40
0.0
 40
0.0
 40
1.0
 40
1.0
 40
1.0
 40
1.0
 10
-1.3599691359
 20
-42.8689308321
 30
0.0
 10
-1.6372413635
 20
-42.8689308321
 30
0.0
 10
-1.8606896698
 20
-42.7841032479
 30
0.0
 10
-2.0380178452
 20
-42.6140768152
 30
0.0
 11
-1.3599691359
 21
-42.8689308321
 31
0.0
 11
-2.0380178452
 21
-42.6140768152
 31
0.0
  0
SPLINE
  5
37A
100
AcDbEntity
  8
0
100
AcDbSpline
 62
7
  6
CONTINUOUS
 70
0
 71
3
 72
8
 73
4
 74
2
 42
0.0000001
 43
0.0000001
 44
0.0000000001
 12
-0.3647390944
 22
-0.3553061136
 32
0.0
 13
-0.0124137998
 23
-0.5834483206
 33
0.0
 40
0.0
 40
0.0
 40
0.0
 40
0.0
 40
1.0
 40
1.0
 40
1.0
 40
1.0
 10
-1.8260065254
 20
-41.4760126724
 30
0.0
 10
-1.9475862235
 20
-41.5944480436
 30
0.0
 10
-2.007586211
 20
-41.7516894179
 30
0.0
 10
-2.0117241442
 20
-41.9461721914
 30
0.0
 11
-1.8260065254
 21
-41.4760126724
 31
0.0
 11
-2.0117241442
 21
-41.9461721914
 31
0.0
  0
SPLINE
  5
37B
100
AcDbEntity
  8
0
100
AcDbSpline
 62
7
  6
CONTINUOUS
 70
0
 71
3
 72
8
 73
4
 74
2
 42
0.0000001
 43
0.0000001
 44
0.0000000001
 12
-0.5773748871
 22
0.0
 32
0.0
 13
-0.3552608895
 23
-0.3460730366
 33
0.0
 40
0.0
 40
0.0
 40
0.0
 40
0.0
 40
1.0
 40
1.0
 40
1.0
 40
1.0
 10
-1.3620244921
 20
-41.3006549614
 30
0.0
 10
-1.5544827878
 20
-41.3006549614
 30
0.0
 10
-1.7075862288
 20
-41.3606549936
 30
0.0
 10
-1.8260065254
 20
-41.4760126724
 30
0.0
 11
-1.3620244921
 21
-41.3006549614
 31
0.0
 11
-1.8260065254
 21
-41.4760126724
 31
0.0
  0
SPLINE
  5
37C
100
AcDbEntity
  8
0
100
AcDbSpline
 62
7
  6
CONTINUOUS
 70
0
 71
3
 72
8
 73
4
 74
2
 42
0.0000001
 43
0.0000001
 44
0.0000000001
 12
-0.3507034422
 22
0.3507034422
 32
0.0
 13
-0.595728654
 23
0.0
 33
0.0
 40
0.0
 40
0.0
 40
0.0
 40
0.0
 40
1.0
 40
1.0
 40
1.0
 40
1.0
 10
-0.8893057525
 20
-41.4775561409
 30
0.0
 10
-1.0062068999
 20
-41.3606549936
 30
0.0
 10
-1.1634482741
 20
-41.3006549614
 30
0.0
 10
-1.3620244921
 20
-41.3006549614
 30
0.0
 11
-0.8893057525
 21
-41.4775561409
 31
0.0
 11
-1.3620244921
 21
-41.3006549614
 31
0.0
  0
SPLINE
  5
37D
100
AcDbEntity
  8
0
100
AcDbSpline
 62
7
  6
CONTINUOUS
 70
0
 71
3
 72
8
 73
4
 74
2
 42
0.0000001
 43
0.0000001
 44
0.0000000001
 12
0.0
 22
0.5835803674
 32
0.0
 13
-0.350675708
 23
0.350675708
 33
0.0
 40
0.0
 40
0.0
 40
0.0
 40
0.0
 40
1.0
 40
1.0
 40
1.0
 40
1.0
 10
-0.7144827843
 20
-41.946216207
 30
0.0
 10
-0.7144827843
 20
-41.7516894179
 30
0.0
 10
-0.7724138498
 20
-41.5944480436
 30
0.0
 10
-0.8893057525
 20
-41.4775561409
 30
0.0
 11
-0.7144827843
 21
-41.946216207
 31
0.0
 11
-0.8893057525
 21
-41.4775561409
 31
0.0
  0
SPLINE
  5
37E
100
AcDbEntity
  8
0
100
AcDbSpline
 62
7
  6
CONTINUOUS
 70
0
 71
3
 72
8
 73
4
 74
2
 42
0.0000001
 43
0.0000001
 44
0.0000000001
 12
0.3460791269
 22
0.3552671746
 32
0.0
 13
0.0
 23
0.5771093739
 33
0.0
 40
0.0
 40
0.0
 40
0.0
 40
0.0
 40
1.0
 40
1.0
 40
1.0
 40
1.0
 10
-0.8877735588
 20
-42.4142497641
 30
0.0
 10
-0.7724138498
 20
-42.2958273726
 30
0.0
 10
-0.7144827843
 20
-42.1385859983
 30
0.0
 10
-0.7144827843
 20
-41.946216207
 30
0.0
 11
-0.8877735588
 21
-42.4142497641
 31
0.0
 11
-0.7144827843
 21
-41.946216207
 31
0.0
  0
SPLINE
  5
37F
100
AcDbEntity
  8
0
100
AcDbSpline
 62
7
  6
CONTINUOUS
 70
0
 71
3
 72
8
 73
4
 74
2
 42
0.0000001
 43
0.0000001
 44
0.0000000001
 12
0.5958621204
 22
0.0
 32
0.0
 13
0.3553000233
 23
0.3647328764
 33
0.0
 40
0.0
 40
0.0
 40
0.0
 40
0.0
 40
1.0
 40
1.0
 40
1.0
 40
1.0
 10
-1.3620689809
 20
-42.5978963437
 30
0.0
 10
-1.1634482741
 20
-42.5978963437
 30
0.0
 10
-1.0062068999
 20
-42.5358273896
 30
0.0
 10
-0.8877735588
 20
-42.4142497641
 30
0.0
 11
-1.3620689809
 21
-42.5978963437
 31
0.0
 11
-0.8877735588
 21
-42.4142497641
 31
0.0
  0
SPLINE
  5
380
100
AcDbEntity
  8
0
100
AcDbSpline
 62
7
  6
CONTINUOUS
 70
0
 71
3
 72
8
 73
4
 74
2
 42
0.0000001
 43
0.0000001
 44
0.0000000001
 12
0.3600534461
 22
-0.3600534796
 32
0.0
 13
0.5772414207
 23
0.0
 33
0.0
 40
0.0
 40
0.0
 40
0.0
 40
0.0
 40
1.0
 40
1.0
 40
1.0
 40
1.0
 10
-1.8276040442
 20
-42.415809563
 30
0.0
 10
-1.7075862288
 20
-42.5358273896
 30
0.0
 10
-1.5544827878
 20
-42.5978963437
 30
0.0
 10
-1.3620689809
 20
-42.5978963437
 30
0.0
 11
-1.8276040442
 21
-42.415809563
 31
0.0
 11
-1.3620689809
 21
-42.5978963437
 31
0.0
  0
SPLINE
  5
381
100
AcDbEntity
  8
0
100
AcDbSpline
 62
7
  6
CONTINUOUS
 70
0
 71
3
 72
8
 73
4
 74
2
 42
0.0000001
 43
0.0000001
 44
0.0000000001
 12
0.0124137998
 22
-0.5772414207
 32
0.0
 13
0.3599465379
 23
-0.3599465714
 33
0.0
 40
0.0
 40
0.0
 40
0.0
 40
0.0
 40
1.0
 40
1.0
 40
1.0
 40
1.0
 10
-2.0117241442
 20
-41.9461721914
 30
0.0
 10
-2.007586211
 20
-42.1385859983
 30
0.0
 10
-1.9475862235
 20
-42.2958273726
 30
0.0
 10
-1.8276040442
 20
-42.415809563
 30
0.0
 11
-2.0117241442
 21
-41.9461721914
 31
0.0
 11
-1.8276040442
 21
-42.415809563
 31
0.0
  0
SPLINE
  5
382
100
AcDbEntity
  8
0
100
AcDbSpline
 62
7
  6
CONTINUOUS
 70
0
 71
3
 72
8
 73
4
 74
2
 42
0.0000001
 43
0.0000001
 44
0.0000000001
 12
-0.3496770221
 22
-0.5013068055
 32
0.0
 13
-0.4414255721
 23
-0.4523864725
 33
0.0
 40
0.0
 40
0.0
 40
0.0
 40
0.0
 40
1.0
 40
1.0
 40
1.0
 40
1.0
 10
1.690352061
 20
-41.1376906261
 30
0.0
 10
1.5737930536
 20
-41.3047928946
 30
0.0
 10
1.433348818
 20
-41.4560663525
 30
0.0
 10
1.2862069607
 20
-41.6068618434
 30
0.0
 11
1.690352061
 21
-41.1376906261
 31
0.0
 11
1.2862069607
 21
-41.6068618434
 31
0.0
  0
SPLINE
  5
383
100
AcDbEntity
  8
0
100
AcDbSpline
 62
7
  6
CONTINUOUS
 70
0
 71
3
 72
8
 73
4
 74
2
 42
0.0000001
 43
0.0000001
 44
0.0000000001
 12
0.0028650653
 22
-0.6704540082
 32
0.0
 13
-0.3517023963
 23
-0.5042104388
 33
0.0
 40
0.0
 40
0.0
 40
0.0
 40
0.0
 40
1.0
 40
1.0
 40
1.0
 40
1.0
 10
1.8666311141
 20
-40.5516531263
 30
0.0
 10
1.8675861359
 20
-40.7751377957
 30
0.0
 10
1.8075861931
 20
-40.9696204798
 30
0.0
 10
1.690352061
 20
-41.1376906261
 30
0.0
 11
1.8666311141
 21
-40.5516531263
 31
0.0
 11
1.690352061
 21
-41.1376906261
 31
0.0
  0
SPLINE
  5
384
100
AcDbEntity
  8
0
100
AcDbSpline
 62
7
  6
CONTINUOUS
 70
0
 71
3
 72
8
 73
4
 74
2
 42
0.0000001
 43
0.0000001
 44
0.0000000001
 12
0.5051729918
 22
-0.3897940483
 32
0.0
 13
0.0033415663
 23
-0.7819600276
 33
0.0
 40
0.0
 40
0.0
 40
0.0
 40
0.0
 40
1.0
 40
1.0
 40
1.0
 40
1.0
 10
1.6102298419
 20
-39.9665857502
 30
0.0
 10
1.7786208391
 20
-40.0965170996
 30
0.0
 10
1.8655172586
 20
-40.2909997838
 30
0.0
 10
1.8666311141
 20
-40.5516531263
 30
0.0
 11
1.6102298419
 21
-39.9665857502
 31
0.0
 11
1.8666311141
 21
-40.5516531263
 31
0.0
  0
SPLINE
  5
385
100
AcDbEntity
  8
0
100
AcDbSpline
 62
7
  6
CONTINUOUS
 70
0
 71
3
 72
8
 73
4
 74
2
 42
0.0000001
 43
0.0000001
 44
0.0000000001
 12
0.7323849694
 22
0.0064815655
 32
0.0
 13
0.5003442526
 23
-0.3860681686
 33
0.0
 40
0.0
 40
0.0
 40
0.0
 40
0.0
 40
1.0
 40
1.0
 40
1.0
 40
1.0
 10
0.9944923157
 20
-39.7738499504
 30
0.0
 10
1.2386206388
 20
-39.7716894286
 30
0.0
 10
1.4434484243
 20
-39.8378963607
 30
0.0
 10
1.6102298419
 20
-39.9665857502
 30
0.0
 11
0.9944923157
 21
-39.7738499504
 31
0.0
 11
1.6102298419
 21
-39.9665857502
 31
0.0
  0
SPLINE
  5
386
100
AcDbEntity
  8
0
100
AcDbSpline
 62
7
  6
CONTINUOUS
 70
0
 71
3
 72
8
 73
4
 74
2
 42
0.0000001
 43
0.0000001
 44
0.0000000001
 12
0.4655177855
 22
0.3724139602
 32
0.0
 13
0.6703738674
 23
0.0059327707
 33
0.0
 40
0.0
 40
0.0
 40
0.0
 40
0.0
 40
1.0
 40
1.0
 40
1.0
 40
1.0
 10
0.4255171927
 20
-39.9620343474
 30
0.0
 10
0.5806897879
 20
-39.8378963607
 30
0.0
 10
0.7710343599
 20
-39.7758275407
 30
0.0
 10
0.9944923157
 20
-39.7738499504
 30
0.0
 11
0.4255171927
 21
-39.9620343474
 31
0.0
 11
0.9944923157
 21
-39.7738499504
 31
0.0
  0
SPLINE
  5
387
100
AcDbEntity
  8
0
100
AcDbSpline
 62
7
  6
CONTINUOUS
 70
0
 71
3
 72
8
 73
4
 74
2
 42
0.0000001
 43
0.0000001
 44
0.0000000001
 12
0.1303446293
 22
0.6765518188
 32
0.0
 13
0.4655171967
 23
0.3724134891
 33
0.0
 40
0.0
 40
0.0
 40
0.0
 40
0.0
 40
1.0
 40
1.0
 40
1.0
 40
1.0
 10
0.1255173087
 20
-40.4875515239
 30
0.0
 10
0.1689655185
 20
-40.262034251
 30
0.0
 10
0.2703447938
 20
-40.0861721771
 30
0.0
 10
0.4255171927
 20
-39.9620343474
 30
0.0
 11
0.1255173087
 21
-40.4875515239
 31
0.0
 11
0.4255171927
 21
-39.9620343474
 31
0.0
  0
SPLINE
  5
388
100
AcDbEntity
  8
0
100
AcDbSpline
 62
7
  6
CONTINUOUS
 70
0
 71
3
 72
8
 73
4
 74
2
 42
0.0000001
 43
0.0000001
 44
0.0000000001
 12
-0.3106220332
 22
-0.2541450534
 32
0.0
 13
-0.1055175662
 23
-0.4406896234
 33
0.0
 40
0.0
 40
0.0
 40
0.0
 40
0.0
 40
1.0
 40
1.0
 40
1.0
 40
1.0
 10
0.6469888875
 20
-40.1731812999
 30
0.0
 10
0.5434482098
 20
-40.2578963177
 30
0.0
 10
0.4731035233
 20
-40.3737584489
 30
0.0
 10
0.4379310012
 20
-40.52065499
 30
0.0
 11
0.6469888875
 21
-40.1731812999
 31
0.0
 11
0.4379310012
 21
-40.52065499
 31
0.0
  0
SPLINE
  5
389
100
AcDbEntity
  8
0
100
AcDbSpline
 62
7
  6
CONTINUOUS
 70
0
 71
3
 72
8
 73
4
 74
2
 42
0.0000001
 43
0.0000001
 44
0.0000000001
 12
-0.4344835281
 22
0.0
 32
0.0
 13
-0.3038613232
 23
-0.2486135688
 33
0.0
 40
0.0
 40
0.0
 40
0.0
 40
0.0
 40
1.0
 40
1.0
 40
1.0
 40
1.0
 10
1.017241478
 20
-40.0489307778
 30
0.0
 10
0.8724136353
 20
-40.0489307778
 30
0.0
 10
0.7482759953
 20
-40.0903101103
 30
0.0
 10
0.6469888875
 20
-40.1731812999
 30
0.0
 11
1.017241478
 21
-40.0489307778
 31
0.0
 11
0.6469888875
 21
-40.1731812999
 31
0.0
  0
SPLINE
  5
38A
100
AcDbEntity
  8
0
100
AcDbSpline
 62
7
  6
CONTINUOUS
 70
0
 71
3
 72
8
 73
4
 74
2
 42
0.0000001
 43
0.0000001
 44
0.0000000001
 12
-0.3155742075
 22
0.275354065
 32
0.0
 13
-0.4841376543
 23
0.0
 33
0.0
 40
0.0
 40
0.0
 40
0.0
 40
0.0
 40
1.0
 40
1.0
 40
1.0
 40
1.0
 10
1.4162259627
 20
-40.1862327319
 30
0.0
 10
1.3110345602
 20
-40.0944480436
 30
0.0
 10
1.1786206961
 20
-40.0489307778
 30
0.0
 10
1.017241478
 20
-40.0489307778
 30
0.0
 11
1.4162259627
 21
-40.1862327319
 31
0.0
 11
1.017241478
 21
-40.0489307778
 31
0.0
  0
SPLINE
  5
38B
100
AcDbEntity
  8
0
100
AcDbSpline
 62
7
  6
CONTINUOUS
 70
0
 71
3
 72
8
 73
4
 74
2
 42
0.0000001
 43
0.0000001
 44
0.0000000001
 12
0.0
 22
0.5029118689
 32
0.0
 13
-0.3175290439
 23
0.2770597562
 33
0.0
 40
0.0
 40
0.0
 40
0.0
 40
0.0
 40
1.0
 40
1.0
 40
1.0
 40
1.0
 10
1.5758619308
 20
-40.5765680818
 30
0.0
 10
1.5758619308
 20
-40.4089307921
 30
0.0
 10
1.5220689774
 20
-40.278585984
 30
0.0
 10
1.4162259627
 20
-40.1862327319
 30
0.0
 11
1.5758619308
 21
-40.5765680818
 31
0.0
 11
1.4162259627
 21
-40.1862327319
 31
0.0
  0
SPLINE
  5
38C
100
AcDbEntity
  8
0
100
AcDbSpline
 62
7
  6
CONTINUOUS
 70
0
 71
3
 72
8
 73
4
 74
2
 42
0.0000001
 43
0.0000001
 44
0.0000000001
 12
0.2234483957
 22
0.3351725936
 32
0.0
 13
0.0
 23
0.4032949773
 33
0.0
 40
0.0
 40
0.0
 40
0.0
 40
0.0
 40
1.0
 40
1.0
 40
1.0
 40
1.0
 10
1.4641379118
 20
-40.9447928803
 30
0.0
 10
1.5386207104
 20
-40.8330686824
 30
0.0
 10
1.5758619308
 20
-40.7109997409
 30
0.0
 10
1.5758619308
 20
-40.5765680818
 30
0.0
 11
1.4641379118
 21
-40.9447928803
 31
0.0
 11
1.5758619308
 21
-40.5765680818
 31
0.0
  0
SPLINE
  5
38D
100
AcDbEntity
  8
0
100
AcDbSpline
 62
7
  6
CONTINUOUS
 70
0
 71
3
 72
8
 73
4
 74
2
 42
0.0000001
 43
0.0000001
 44
0.0000000001
 12
0.2855168581
 22
0.2793107629
 32
0.0
 13
0.2234483957
 23
0.3351725936
 33
0.0
 40
0.0
 40
0.0
 40
0.0
 40
0.0
 40
1.0
 40
1.0
 40
1.0
 40
1.0
 10
1.2096552849
 20
-41.2530688183
 30
0.0
 10
1.3048275709
 20
-41.1599652307
 30
0.0
 10
1.3896551132
 20
-41.0565170782
 30
0.0
 10
1.4641379118
 20
-40.9447928803
 30
0.0
 11
1.2096552849
 21
-41.2530688183
 31
0.0
 11
1.4641379118
 21
-40.9447928803
 31
0.0
  0
SPLINE
  5
38E
100
AcDbEntity
  8
0
100
AcDbSpline
 62
7
  6
CONTINUOUS
 70
0
 71
3
 72
8
 73
4
 74
2
 42
0.0000001
 43
0.0000001
 44
0.0000000001
 12
-0.2807776096
 22
0.3918545189
 32
0.0
 13
-0.0124143362
 23
0.6082756519
 33
0.0
 40
0.0
 40
0.0
 40
0.0
 40
0.0
 40
1.0
 40
1.0
 40
1.0
 40
1.0
 10
42.0956614138
 20
-4.5257559258
 30
0.0
 10
42.0020688772
 20
-4.3951377528
 30
0.0
 10
41.954482913
 20
-4.2275515454
 30
0.0
 10
41.9503448009
 20
-4.0247929948
 30
0.0
 11
42.0956614138
 21
-4.5257559258
 31
0.0
 11
41.9503448009
 21
-4.0247929948
 31
0.0
  0
SPLINE
  5
38F
100
AcDbEntity
  8
0
100
AcDbSpline
 62
7
  6
CONTINUOUS
 70
0
 71
3
 72
8
 73
4
 74
2
 42
0.0000001
 43
0.0000001
 44
0.0000000001
 12
-0.4603226355
 22
0.2025420763
 32
0.0
 13
-0.2840500114
 23
0.3964214978
 33
0.0
 40
0.0
 40
0.0
 40
0.0
 40
0.0
 40
1.0
 40
1.0
 40
1.0
 40
1.0
 10
42.469992683
 20
-4.8247206697
 30
0.0
 10
42.3165518045
 20
-4.7572066443
 30
0.0
 10
42.1903447509
 20
-4.657896425
 30
0.0
 10
42.0956614138
 20
-4.5257559258
 30
0.0
 11
42.469992683
 21
-4.8247206697
 31
0.0
 11
42.0956614138
 21
-4.5257559258
 31
0.0
  0
SPLINE
  5
390
100
AcDbEntity
  8
0
100
AcDbSpline
 62
7
  6
CONTINUOUS
 70
0
 71
3
 72
8
 73
4
 74
2
 42
0.0000001
 43
0.0000001
 44
0.0000000001
 12
-0.5344243023
 22
0.0829280829
 32
0.0
 13
-0.4707118103
 23
0.2071133159
 33
0.0
 40
0.0
 40
0.0
 40
0.0
 40
0.0
 40
1.0
 40
1.0
 40
1.0
 40
1.0
 10
42.9705552052
 20
-4.968987279
 30
0.0
 10
42.7924137712
 20
-4.9413445847
 30
0.0
 10
42.6268966198
 20
-4.8937584417
 30
0.0
 10
42.469992683
 20
-4.8247206697
 30
0.0
 11
42.9705552052
 21
-4.968987279
 31
0.0
 11
42.469992683
 21
-4.8247206697
 31
0.0
  0
SPLINE
  5
391
100
AcDbEntity
  8
0
100
AcDbSpline
 62
7
  6
CONTINUOUS
 70
0
 71
3
 72
8
 73
4
 74
2
 42
0.0000001
 43
0.0000001
 44
0.0000000001
 12
-0.465517124
 22
-0.2048276526
 32
0.0
 13
-0.5465271162
 23
-0.0848061097
 33
0.0
 40
0.0
 40
0.0
 40
0.0
 40
0.0
 40
1.0
 40
1.0
 40
1.0
 40
1.0
 10
44.5220689444
 20
-4.8254825575
 30
0.0
 10
44.3668965697
 20
-4.8937584417
 30
0.0
 10
44.1993103623
 20
-4.9413445847
 30
0.0
 10
44.017134657
 20
-4.9696132879
 30
0.0
 11
44.5220689444
 21
-4.8254825575
 31
0.0
 11
44.017134657
 21
-4.9696132879
 31
0.0
  0
SPLINE
  5
392
100
AcDbEntity
  8
0
100
AcDbSpline
 62
7
  6
CONTINUOUS
 70
0
 71
3
 72
8
 73
4
 74
2
 42
0.0000001
 43
0.0000001
 44
0.0000000001
 12
-0.2880495103
 22
-0.3891733637
 32
0.0
 13
-0.4655173218
 23
-0.2048277396
 33
0.0
 40
0.0
 40
0.0
 40
0.0
 40
0.0
 40
1.0
 40
1.0
 40
1.0
 40
1.0
 10
44.8994647856
 20
-4.5281719705
 30
0.0
 10
44.8034482822
 20
-4.657896425
 30
0.0
 10
44.677241385
 20
-4.7572066443
 30
0.0
 10
44.5220689444
 20
-4.8254825575
 30
0.0
 11
44.8994647856
 21
-4.5281719705
 31
0.0
 11
44.5220689444
 21
-4.8254825575
 31
0.0
  0
SPLINE
  5
393
100
AcDbEntity
  8
0
100
AcDbSpline
 62
7
  6
CONTINUOUS
 70
0
 71
3
 72
8
 73
4
 74
2
 42
0.0000001
 43
0.0000001
 44
0.0000000001
 12
0.0
 22
-0.602196984
 32
0.0
 13
-0.2953987464
 23
-0.399102653
 33
0.0
 40
0.0
 40
0.0
 40
0.0
 40
0.0
 40
1.0
 40
1.0
 40
1.0
 40
1.0
 10
45.0475862045
 20
-4.0268192174
 30
0.0
 10
45.0475862045
 20
-4.2275515454
 30
0.0
 10
44.9979310344
 20
-4.3951377528
 30
0.0
 10
44.8994647856
 20
-4.5281719705
 30
0.0
 11
45.0475862045
 21
-4.0268192174
 31
0.0
 11
44.8994647856
 21
-4.5281719705
 31
0.0
  0
SPLINE
  5
394
100
AcDbEntity
  8
0
100
AcDbSpline
 62
7
  6
CONTINUOUS
 70
0
 71
3
 72
8
 73
4
 74
2
 42
0.0000001
 43
0.0000001
 44
0.0000000001
 12
0.2924652674
 22
-0.3951396037
 32
0.0
 13
0.0
 23
-0.626768656
 33
0.0
 40
0.0
 40
0.0
 40
0.0
 40
0.0
 40
1.0
 40
1.0
 40
1.0
 40
1.0
 10
44.9004426119
 20
-3.5165280462
 30
0.0
 10
44.9979310344
 20
-3.6482412474
 30
0.0
 10
45.0475862045
 20
-3.817896332
 30
0.0
 10
45.0475862045
 20
-4.0268192174
 30
0.0
 11
44.9004426119
 21
-3.5165280462
 31
0.0
 11
45.0475862045
 21
-4.0268192174
 31
0.0
  0
SPLINE
  5
395
100
AcDbEntity
  8
0
100
AcDbSpline
 62
7
  6
CONTINUOUS
 70
0
 71
3
 72
8
 73
4
 74
2
 42
0.0000001
 43
0.0000001
 44
0.0000000001
 12
0.4655174206
 22
-0.2048280513
 32
0.0
 13
0.2909829893
 23
-0.3931369495
 33
0.0
 40
0.0
 40
0.0
 40
0.0
 40
0.0
 40
1.0
 40
1.0
 40
1.0
 40
1.0
 10
44.5220689114
 20
-3.2178963388
 30
0.0
 10
44.677241385
 20
-3.2861723559
 30
0.0
 10
44.8034482822
 20
-3.3854823964
 30
0.0
 10
44.9004426119
 20
-3.5165280462
 30
0.0
 11
44.5220689114
 21
-3.2178963388
 31
0.0
 11
44.9004426119
 21
-3.5165280462
 31
0.0
  0
SPLINE
  5
396
100
AcDbEntity
  8
0
100
AcDbSpline
 62
7
  6
CONTINUOUS
 70
0
 71
3
 72
8
 73
4
 74
2
 42
0.0000001
 43
0.0000001
 44
0.0000000001
 12
0.5469565024
 22
-0.0754423137
 32
0.0
 13
0.4655170251
 23
-0.2048278773
 33
0.0
 40
0.0
 40
0.0
 40
0.0
 40
0.0
 40
1.0
 40
1.0
 40
1.0
 40
1.0
 10
44.0169915282
 20
-3.0768869776
 30
0.0
 10
44.1993103623
 20
-3.1020344155
 30
0.0
 10
44.3668965697
 20
-3.1496203797
 30
0.0
 10
44.5220689114
 20
-3.2178963388
 30
0.0
 11
44.0169915282
 21
-3.0768869776
 31
0.0
 11
44.5220689114
 21
-3.2178963388
 31
0.0
  0
SPLINE
  5
397
100
AcDbEntity
  8
0
100
AcDbSpline
 62
7
  6
CONTINUOUS
 70
0
 71
3
 72
8
 73
4
 74
2
 42
0.0000001
 43
0.0000001
 44
0.0000000001
 12
0.5027586222
 22
0.0
 32
0.0
 13
0.5330435405
 23
-0.0735232835
 33
0.0
 40
0.0
 40
0.0
 40
0.0
 40
0.0
 40
1.0
 40
1.0
 40
1.0
 40
1.0
 10
43.5
 20
-3.0420341151
 30
0.0
 10
43.6675862074
 20
-3.0420341151
 30
0.0
 10
43.839310348
 20
-3.0523792165
 30
0.0
 10
44.0169915282
 20
-3.0768869776
 30
0.0
 11
43.5
 21
-3.0420341151
 31
0.0
 11
44.0169915282
 21
-3.0768869776
 31
0.0
  0
SPLINE
  5
398
100
AcDbEntity
  8
0
100
AcDbSpline
 62
7
  6
CONTINUOUS
 70
0
 71
3
 72
8
 73
4
 74
2
 42
0.0000001
 43
0.0000001
 44
0.0000000001
 12
0.5452945886
 22
0.0752130841
 32
0.0
 13
0.5151724219
 23
0.0
 33
0.0
 40
0.0
 40
0.0
 40
0.0
 40
0.0
 40
1.0
 40
1.0
 40
1.0
 40
1.0
 10
42.9706489226
 20
-3.0774502445
 30
0.0
 10
43.1524137855
 20
-3.0523792165
 30
0.0
 10
43.3282758594
 20
-3.0420341151
 30
0.0
 10
43.5
 20
-3.0420341151
 30
0.0
 11
42.9706489226
 21
-3.0774502445
 31
0.0
 11
43.5
 21
-3.0420341151
 31
0.0
  0
SPLINE
  5
399
100
AcDbEntity
  8
0
100
AcDbSpline
 62
7
  6
CONTINUOUS
 70
0
 71
3
 72
8
 73
4
 74
2
 42
0.0000001
 43
0.0000001
 44
0.0000000001
 12
0.4707229609
 22
0.2071184934
 32
0.0
 13
0.5347054543
 23
0.0737525131
 33
0.0
 40
0.0
 40
0.0
 40
0.0
 40
0.0
 40
1.0
 40
1.0
 40
1.0
 40
1.0
 10
42.4699889661
 20
-3.2186598775
 30
0.0
 10
42.6268966198
 20
-3.1496203797
 30
0.0
 10
42.7924137712
 20
-3.1020344155
 30
0.0
 10
42.9706489226
 20
-3.0774502445
 30
0.0
 11
42.4699889661
 21
-3.2186598775
 31
0.0
 11
42.9706489226
 21
-3.0774502445
 31
0.0
  0
SPLINE
  5
39A
100
AcDbEntity
  8
0
100
AcDbSpline
 62
7
  6
CONTINUOUS
 70
0
 71
3
 72
8
 73
4
 74
2
 42
0.0000001
 43
0.0000001
 44
0.0000000001
 12
0.2870611461
 22
0.4006241238
 32
0.0
 13
0.4603114848
 23
0.2025374352
 33
0.0
 40
0.0
 40
0.0
 40
0.0
 40
0.0
 40
1.0
 40
1.0
 40
1.0
 40
1.0
 10
42.0946577022
 20
-3.519023771
 30
0.0
 10
42.1903447509
 20
-3.3854823964
 30
0.0
 10
42.3165518045
 20
-3.2861723559
 30
0.0
 10
42.4699889661
 20
-3.2186598775
 30
0.0
 11
42.0946577022
 21
-3.519023771
 31
0.0
 11
42.4699889661
 21
-3.2186598775
 31
0.0
  0
SPLINE
  5
39B
100
AcDbEntity
  8
0
100
AcDbSpline
 62
7
  6
CONTINUOUS
 70
0
 71
3
 72
8
 73
4
 74
2
 42
0.0000001
 43
0.0000001
 44
0.0000000001
 12
0.0124143362
 22
0.6206899881
 32
0.0
 13
0.2777664749
 23
0.3876524293
 33
0.0
 40
0.0
 40
0.0
 40
0.0
 40
0.0
 40
1.0
 40
1.0
 40
1.0
 40
1.0
 10
41.9503448009
 20
-4.0247929948
 30
0.0
 10
41.954482913
 20
-3.817896332
 30
0.0
 10
42.0020688772
 20
-3.6482412474
 30
0.0
 10
42.0946577022
 20
-3.519023771
 30
0.0
 11
41.9503448009
 21
-4.0247929948
 31
0.0
 11
42.0946577022
 21
-3.519023771
 31
0.0
  0
SPLINE
  5
39C
100
AcDbEntity
  8
0
100
AcDbSpline
 62
7
  6
CONTINUOUS
 70
0
 71
3
 72
8
 73
4
 74
2
 42
0.0000001
 43
0.0000001
 44
0.0000000001
 12
-0.2516862175
 22
-0.2762412357
 32
0.0
 13
-0.0124137998
 23
-0.4779310226
 33
0.0
 40
0.0
 40
0.0
 40
0.0
 40
0.0
 40
1.0
 40
1.0
 40
1.0
 40
1.0
 10
42.3569988218
 20
-3.6471953671
 30
0.0
 10
42.273103416
 20
-3.739275779
 30
0.0
 10
42.2317240834
 20
-3.8654826539
 30
0.0
 10
42.2275861502
 20
-4.0247929948
 30
0.0
 11
42.3569988218
 21
-3.6471953671
 31
0.0
 11
42.2275861502
 21
-4.0247929948
 31
0.0
  0
SPLINE
  5
39D
100
AcDbEntity
  8
0
100
AcDbSpline
 62
7
  6
CONTINUOUS
 70
0
 71
3
 72
8
 73
4
 74
2
 42
0.0000001
 43
0.0000001
 44
0.0000000001
 12
-0.3940729531
 22
-0.1396320621
 32
0.0
 13
-0.2572795727
 23
-0.28238029
 33
0.0
 40
0.0
 40
0.0
 40
0.0
 40
0.0
 40
1.0
 40
1.0
 40
1.0
 40
1.0
 10
42.6858403495
 20
-3.4382487738
 30
0.0
 10
42.5544826984
 20
-3.4847927945
 30
0.0
 10
42.4427586794
 20
-3.5530686038
 30
0.0
 10
42.3569988218
 20
-3.6471953671
 30
0.0
 11
42.6858403495
 21
-3.4382487738
 31
0.0
 11
42.3569988218
 21
-3.6471953671
 31
0.0
  0
SPLINE
  5
39E
100
AcDbEntity
  8
0
100
AcDbSpline
 62
7
  6
CONTINUOUS
 70
0
 71
3
 72
8
 73
4
 74
2
 42
0.0000001
 43
0.0000001
 44
0.0000000001
 12
-0.4353266816
 22
-0.033961287
 32
0.0
 13
-0.3942030636
 23
-0.1396781643
 33
0.0
 40
0.0
 40
0.0
 40
0.0
 40
0.0
 40
1.0
 40
1.0
 40
1.0
 40
1.0
 10
43.0989020619
 20
-3.3493343679
 30
0.0
 10
42.9537931681
 20
-3.3606547969
 30
0.0
 10
42.8172413707
 20
-3.3916893857
 30
0.0
 10
42.6858403495
 20
-3.4382487738
 30
0.0
 11
43.0989020619
 21
-3.3493343679
 31
0.0
 11
42.6858403495
 21
-3.4382487738
 31
0.0
  0
SPLINE
  5
39F
100
AcDbEntity
  8
0
100
AcDbSpline
 62
7
  6
CONTINUOUS
 70
0
 71
3
 72
8
 73
4
 74
2
 42
0.0000001
 43
0.0000001
 44
0.0000000001
 12
-0.2594456697
 22
0.2747075831
 32
0.0
 13
-0.3883831816
 23
0.137616026
 33
0.0
 40
0.0
 40
0.0
 40
0.0
 40
0.0
 40
1.0
 40
1.0
 40
1.0
 40
1.0
 10
44.6416542886
 20
-3.6446377981
 30
0.0
 10
44.5551723987
 20
-3.5530686038
 30
0.0
 10
44.4475862235
 20
-3.4847927945
 30
0.0
 10
44.318125163
 20
-3.4389207858
 30
0.0
 11
44.6416542886
 21
-3.6446377981
 31
0.0
 11
44.318125163
 21
-3.4389207858
 31
0.0
  0
SPLINE
  5
3A0
100
AcDbEntity
  8
0
100
AcDbSpline
 62
7
  6
CONTINUOUS
 70
0
 71
3
 72
8
 73
4
 74
2
 42
0.0000001
 43
0.0000001
 44
0.0000000001
 12
0.0
 22
0.4779310226
 32
0.0
 13
-0.268140552
 23
0.2839139427
 33
0.0
 40
0.0
 40
0.0
 40
0.0
 40
0.0
 40
1.0
 40
1.0
 40
1.0
 40
1.0
 10
44.776551716
 20
-4.0247929948
 30
0.0
 10
44.776551716
 20
-3.8654826539
 30
0.0
 10
44.7310344726
 20
-3.739275779
 30
0.0
 10
44.6416542886
 20
-3.6446377981
 30
0.0
 11
44.776551716
 21
-4.0247929948
 31
0.0
 11
44.6416542886
 21
-3.6446377981
 31
0.0
  0
SPLINE
  5
3A1
100
AcDbEntity
  8
0
100
AcDbSpline
 62
7
  6
CONTINUOUS
 70
0
 71
3
 72
8
 73
4
 74
2
 42
0.0000001
 43
0.0000001
 44
0.0000000001
 12
0.2682224584
 22
0.2840006672
 32
0.0
 13
0.0
 23
0.471724391
 33
0.0
 40
0.0
 40
0.0
 40
0.0
 40
0.0
 40
1.0
 40
1.0
 40
1.0
 40
1.0
 10
44.6416269864
 20
-4.4008389875
 30
0.0
 10
44.7310344726
 20
-4.3061720984
 30
0.0
 10
44.776551716
 20
-4.1820344584
 30
0.0
 10
44.776551716
 20
-4.0247929948
 30
0.0
 11
44.6416269864
 21
-4.4008389875
 31
0.0
 11
44.776551716
 21
-4.0247929948
 31
0.0
  0
SPLINE
  5
3A2
100
AcDbEntity
  8
0
100
AcDbSpline
 62
7
  6
CONTINUOUS
 70
0
 71
3
 72
8
 73
4
 74
2
 42
0.0000001
 43
0.0000001
 44
0.0000000001
 12
0.3904154138
 22
0.1321880963
 32
0.0
 13
0.2593637633
 23
0.2746208585
 33
0.0
 40
0.0
 40
0.0
 40
0.0
 40
0.0
 40
1.0
 40
1.0
 40
1.0
 40
1.0
 10
44.3174477522
 20
-4.6047176029
 30
0.0
 10
44.4475862235
 20
-4.5606549041
 30
0.0
 10
44.5551723987
 20
-4.4923792737
 30
0.0
 10
44.6416269864
 20
-4.4008389875
 30
0.0
 11
44.3174477522
 21
-4.6047176029
 31
0.0
 11
44.6416269864
 21
-4.4008389875
 31
0.0
  0
SPLINE
  5
3A3
100
AcDbEntity
  8
0
100
AcDbSpline
 62
7
  6
CONTINUOUS
 70
0
 71
3
 72
8
 73
4
 74
2
 42
0.0000001
 43
0.0000001
 44
0.0000000001
 12
0.4409183357
 22
0.0475809931
 32
0.0
 13
0.3978604688
 23
0.1347088668
 33
0.0
 40
0.0
 40
0.0
 40
0.0
 40
0.0
 40
1.0
 40
1.0
 40
1.0
 40
1.0
 10
43.8971651761
 20
-4.6944464223
 30
0.0
 10
44.0441379547
 20
-4.6785860913
 30
0.0
 10
44.1848275959
 20
-4.6496205585
 30
0.0
 10
44.3174477522
 20
-4.6047176029
 30
0.0
 11
43.8971651761
 21
-4.6944464223
 31
0.0
 11
44.3174477522
 21
-4.6047176029
 31
0.0
  0
SPLINE
  5
3A4
100
AcDbEntity
  8
0
100
AcDbSpline
 62
7
  6
CONTINUOUS
 70
0
 71
3
 72
8
 73
4
 74
2
 42
0.0000001
 43
0.0000001
 44
0.0000000001
 12
0.3662068248
 22
0.0
 32
0.0
 13
0.4218404796
 23
0.0455222369
 33
0.0
 40
0.0
 40
0.0
 40
0.0
 40
0.0
 40
1.0
 40
1.0
 40
1.0
 40
1.0
 10
43.5020689666
 20
-4.7178963678
 30
0.0
 10
43.6241379082
 20
-4.7178963678
 30
0.0
 10
43.7565516829
 20
-4.7096205013
 30
0.0
 10
43.8971651761
 20
-4.6944464223
 30
0.0
 11
43.5020689666
 21
-4.7178963678
 31
0.0
 11
43.8971651761
 21
-4.6944464223
 31
0.0
  0
SPLINE
  5
3A5
100
AcDbEntity
  8
0
100
AcDbSpline
 62
7
  6
CONTINUOUS
 70
0
 71
3
 72
8
 73
4
 74
2
 42
0.0000001
 43
0.0000001
 44
0.0000000001
 12
0.4403415618
 22
-0.0468447551
 32
0.0
 13
0.366207093
 23
0.0
 33
0.0
 40
0.0
 40
0.0
 40
0.0
 40
0.0
 40
1.0
 40
1.0
 40
1.0
 40
1.0
 10
43.0987366737
 20
-4.6940055829
 30
0.0
 10
43.2455171943
 20
-4.7096205013
 30
0.0
 10
43.3799999356
 20
-4.7178963678
 30
0.0
 10
43.5020689666
 20
-4.7178963678
 30
0.0
 11
43.0987366737
 21
-4.6940055829
 31
0.0
 11
43.5020689666
 21
-4.7178963678
 31
0.0
  0
SPLINE
  5
3A6
100
AcDbEntity
  8
0
100
AcDbSpline
 62
7
  6
CONTINUOUS
 70
0
 71
3
 72
8
 73
4
 74
2
 42
0.0000001
 43
0.0000001
 44
0.0000000001
 12
0.3923139897
 22
-0.1328308996
 32
0.0
 13
0.4348305168
 23
-0.0462584749
 33
0.0
 40
0.0
 40
0.0
 40
0.0
 40
0.0
 40
1.0
 40
1.0
 40
1.0
 40
1.0
 10
42.6864700408
 20
-4.605343592
 30
0.0
 10
42.8172413707
 20
-4.6496205585
 30
0.0
 10
42.9537931681
 20
-4.6785860913
 30
0.0
 10
43.0987366737
 20
-4.6940055829
 30
0.0
 11
42.6864700408
 21
-4.605343592
 31
0.0
 11
43.0987366737
 21
-4.6940055829
 31
0.0
  0
SPLINE
  5
3A7
100
AcDbEntity
  8
0
100
AcDbSpline
 62
7
  6
CONTINUOUS
 70
0
 71
3
 72
8
 73
4
 74
2
 42
0.0000001
 43
0.0000001
 44
0.0000000001
 12
0.2573170909
 22
-0.2824214685
 32
0.0
 13
0.3959620271
 23
-0.1340660635
 33
0.0
 40
0.0
 40
0.0
 40
0.0
 40
0.0
 40
1.0
 40
1.0
 40
1.0
 40
1.0
 10
42.3569863158
 20
-4.3982387842
 30
0.0
 10
42.4427586794
 20
-4.4923792737
 30
0.0
 10
42.5544826984
 20
-4.5606549041
 30
0.0
 10
42.6864700408
 20
-4.605343592
 30
0.0
 11
42.3569863158
 21
-4.3982387842
 31
0.0
 11
42.6864700408
 21
-4.605343592
 31
0.0
  0
SPLINE
  5
3A8
100
AcDbEntity
  8
0
100
AcDbSpline
 62
7
  6
CONTINUOUS
 70
0
 71
3
 72
8
 73
4
 74
2
 42
0.0000001
 43
0.0000001
 44
0.0000000001
 12
0.0124137998
 22
-0.471724391
 32
0.0
 13
0.2516486994
 23
-0.2762000572
 33
0.0
 40
0.0
 40
0.0
 40
0.0
 40
0.0
 40
1.0
 40
1.0
 40
1.0
 40
1.0
 10
42.2275861502
 20
-4.0247929948
 30
0.0
 10
42.2317240834
 20
-4.1820344584
 30
0.0
 10
42.273103416
 20
-4.3061720984
 30
0.0
 10
42.3569863158
 20
-4.3982387842
 30
0.0
 11
42.2275861502
 21
-4.0247929948
 31
0.0
 11
42.3569863158
 21
-4.3982387842
 31
0.0
  0
SPLINE
  5
3A9
100
AcDbEntity
  8
RACCORDO
100
AcDbSpline
 62
253
  6
CONTINUOUS
 70
0
 71
3
 72
32
 73
28
 74
26
 42
0.0000001
 43
0.0000001
 44
0.0000000001
 12
11.4756714116
 22
-0.0000003172
 32
0.0
 13
11.4621649085
 23
0.1293983902
 33
0.0
 40
0.0
 40
0.0
 40
0.0
 40
0.0
 40
0.0545461207
 40
0.1090751623
 40
0.1633805518
 40
0.2172570294
 40
0.2705081267
 40
0.3229929532
 40
0.3745988511
 40
0.4251904213
 40
0.4746160909
 40
0.5227357295
 40
0.5694216091
 40
0.614548094
 40
0.6579902151
 40
0.6996279971
 40
0.7393475585
 40
0.7770403311
 40
0.8126029345
 40
0.8459377596
 40
0.87695345
 40
0.9055649788
 40
0.9316939521
 40
0.955268706
 40
0.9762246616
 40
0.9945043673
 40
1.0
 40
1.0
 40
1.0
 40
1.0
 10
-0.0
 20
36.3522869289
 30
0.0
 10
0.2086511194
 20
36.3522869232
 30
0.0
 10
0.6258880276
 20
36.3523248916
 30
0.0
 10
1.2508551835
 20
36.3524959131
 30
0.0
 10
1.873260763
 20
36.3527810869
 30
0.0
 10
2.4907778564
 20
36.353179643
 30
0.0
 10
3.1013308037
 20
36.3536902461
 30
0.0
 10
3.7031981686
 20
36.3543113234
 30
0.0
 10
4.2948921177
 20
36.3550412606
 30
0.0
 10
4.8748839539
 20
36.3558781824
 30
0.0
 10
5.4415398899
 20
36.3568197428
 30
0.0
 10
5.9932554811
 20
36.3578632399
 30
0.0
 10
6.5285254964
 20
36.3590057712
 30
0.0
 10
7.0459026984
 20
36.3602441976
 30
0.0
 10
7.5439695017
 20
36.361575072
 30
0.0
 10
8.0213532823
 20
36.3629946531
 30
0.0
 10
8.476744141
 20
36.3644989481
 30
0.0
 10
8.9088956773
 20
36.3660837194
 30
0.0
 10
9.3166236418
 20
36.3677444593
 30
0.0
 10
9.6988099102
 20
36.3694764326
 30
0.0
 10
10.0544055493
 20
36.3712745137
 30
0.0
 10
10.3824384493
 20
36.3731336999
 30
0.0
 10
10.6820008138
 20
36.3750473105
 30
0.0
 10
10.9522985976
 20
36.3770126075
 30
0.0
 10
11.1925048557
 20
36.3790124486
 30
0.0
 10
11.3637264498
 20
36.3806936502
 30
0.0
 10
11.4545288389
 20
36.3816807157
 30
0.0
 10
11.4755261215
 20
36.3819177577
 30
0.0
 11
-0.0
 21
36.3522869289
 31
0.0
 11
0.6259533557
 21
36.3523439555
 31
0.0
 11
1.2517106953
 21
36.352515432
 31
0.0
 11
1.8749014363
 21
36.3528013631
 31
0.0
 11
2.4931700609
 21
36.3532009709
 31
0.0
 11
3.1042619415
 21
36.3537127655
 31
0.0
 11
3.7065602423
 21
36.3543352133
 31
0.0
 11
4.2987721171
 21
36.3550669154
 31
0.0
 11
4.8793437469
 21
36.3559060185
 31
0.0
 11
5.446535705
 21
36.3568500543
 31
0.0
 11
5.9987398745
 21
36.3578963273
 31
0.0
 11
6.5344904637
 21
36.3590420379
 31
0.0
 11
7.0523456866
 21
36.3602841069
 31
0.0
 11
7.550871406
 21
36.3616191041
 31
0.0
 11
8.0286907884
 21
36.3630433425
 31
0.0
 11
8.4844969238
 21
36.3645529232
 31
0.0
 11
8.9170438715
 21
36.3661437196
 31
0.0
 11
9.3251452151
 21
36.3678113697
 31
0.0
 11
9.707680758
 21
36.3695512966
 31
0.0
 11
10.0636020402
 21
36.3713587313
 31
0.0
 11
10.391933218
 21
36.3732287183
 31
0.0
 11
10.6917745356
 21
36.3751561335
 31
0.0
 11
10.9623034227
 21
36.3771356895
 31
0.0
 11
11.2027785466
 21
36.3791619621
 31
0.0
 11
11.4125402547
 21
36.3812293931
 31
0.0
 11
11.4755261215
 21
36.3819177577
 31
0.0
  0
LINE
  5
3AA
100
AcDbEntity
  8
RACCORDO
100
AcDbLine
 62
253
  6
CONTINUOUS
 10
11.4755261215
 20
36.3819177577
 11
11.5350354628
 21
36.3826161559
  0
SPLINE
  5
3AB
100
AcDbEntity
  8
RACCORDO
100
AcDbSpline
 62
253
  6
CONTINUOUS
 70
0
 71
3
 72
11
 73
7
 74
5
 42
0.0000001
 43
0.0000001
 44
0.0000000001
 12
0.3993385735
 22
0.0048853996
 32
0.0
 13
0.3484478121
 23
0.0069188256
 33
0.0
 40
0.0
 40
0.0
 40
0.0
 40
0.0
 40
0.1399860694
 40
0.5075198144
 40
0.7944503082
 40
1.0
 40
1.0
 40
1.0
 40
1.0
 10
11.5350354628
 20
36.3826161559
 30
0.0
 10
11.5536694085
 20
36.3828441186
 30
0.0
 10
11.6213029306
 20
36.3837063315
 30
0.0
 10
11.727882814
 20
36.3853144571
 30
0.0
 10
11.8391470059
 20
36.3870026001
 30
0.0
 10
11.9103729167
 20
36.3893219403
 30
0.0
 10
11.9342473635
 20
36.3897959945
 30
0.0
 11
11.5350354628
 21
36.3826161559
 31
0.0
 11
11.5910137534
 21
36.3833323176
 31
0.0
 11
11.7377094636
 21
36.3854649673
 31
0.0
 11
11.8522253649
 21
36.3876214977
 31
0.0
 11
11.9342473635
 21
36.3897959945
 31
0.0
  0
LINE
  5
3AC
100
AcDbEntity
  8
RACCORDO
100
AcDbLine
 62
253
  6
CONTINUOUS
 10
-11.5350338533
 20
36.3826161371
 11
-11.4755244139
 21
36.3819177388
  0
SPLINE
  5
3AD
100
AcDbEntity
  8
RACCORDO
100
AcDbSpline
 62
253
  6
CONTINUOUS
 70
0
 71
3
 72
32
 73
28
 74
26
 42
0.0000001
 43
0.0000001
 44
0.0000000001
 12
11.4621630274
 22
-0.1293982313
 32
0.0
 13
11.4756697051
 23
0.0000003012
 33
0.0
 40
0.0
 40
0.0
 40
0.0
 40
0.0
 40
0.0054956421
 40
0.0237753757
 40
0.0447313592
 40
0.0683061408
 40
0.0944351416
 40
0.1230466976
 40
0.1540624148
 40
0.1873972663
 40
0.2229598955
 40
0.2606526931
 40
0.3003722791
 40
0.3420100857
 40
0.3854522298
 40
0.4305787346
 40
0.4772646343
 40
0.525384299
 40
0.5748099938
 40
0.625401569
 40
0.6770074619
 40
0.7294923225
 40
0.7827434956
 40
0.8366200012
 40
0.890925298
 40
0.9454541207
 40
1.0
 40
1.0
 40
1.0
 40
1.0
 10
-11.4755244139
 20
36.3819177388
 30
0.0
 10
-11.4545270988
 20
36.3816806966
 30
0.0
 10
-11.3637245825
 20
36.3806936305
 30
0.0
 10
-11.1925027624
 20
36.3790124301
 30
0.0
 10
-10.9522962213
 20
36.3770125889
 30
0.0
 10
-10.6819981597
 20
36.3750472925
 30
0.0
 10
-10.3824355248
 20
36.3731336823
 30
0.0
 10
-10.0544023619
 20
36.3712744967
 30
0.0
 10
-9.6988064683
 20
36.3694764161
 30
0.0
 10
-9.3166199545
 20
36.3677444434
 30
0.0
 10
-8.9088917554
 20
36.3660837043
 30
0.0
 10
-8.476739995
 20
36.3644989336
 30
0.0
 10
-8.0213489203
 20
36.3629946395
 30
0.0
 10
-7.5439649343
 20
36.3615750591
 30
0.0
 10
-7.0458979467
 20
36.3602441856
 30
0.0
 10
-6.5285205806
 20
36.35900576
 30
0.0
 10
-5.9932503921
 20
36.3578632296
 30
0.0
 10
-5.4415346101
 20
36.3568197334
 30
0.0
 10
-4.8748785428
 20
36.355878174
 30
0.0
 10
-4.2948866967
 20
36.3550412534
 30
0.0
 10
-3.7031927048
 20
36.3543113173
 30
0.0
 10
-3.101325028
 20
36.3536902406
 30
0.0
 10
-2.4907716438
 20
36.3531796384
 30
0.0
 10
-1.8732546002
 20
36.3527810835
 30
0.0
 10
-1.250850198
 20
36.3524959114
 30
0.0
 10
-0.6258852504
 20
36.3523248911
 30
0.0
 10
-0.2086501648
 20
36.3522869235
 30
0.0
 10
-0.0
 20
36.3522869289
 30
0.0
 11
-11.4755244139
 21
36.3819177388
 31
0.0
 11
-11.4125384497
 21
36.3812293737
 31
0.0
 11
-11.2027764521
 21
36.379161943
 31
0.0
 11
-10.9623010442
 21
36.3771356709
 31
0.0
 11
-10.6917718793
 21
36.3751561153
 31
0.0
 11
-10.3919302909
 21
36.3732287006
 31
0.0
 11
-10.0635988502
 21
36.3713587142
 31
0.0
 11
-9.7076773131
 21
36.3695512801
 31
0.0
 11
-9.3251415241
 21
36.3678113538
 31
0.0
 11
-8.9170399454
 21
36.3661437044
 31
0.0
 11
-8.4844927751
 21
36.3645529087
 31
0.0
 11
-8.028686425
 21
36.3630433288
 31
0.0
 11
-7.5508668322
 21
36.3616190912
 31
0.0
 11
-7.0523409217
 21
36.3602840948
 31
0.0
 11
-6.5344855474
 21
36.3590420268
 31
0.0
 11
-5.9987348084
 21
36.3578963171
 31
0.0
 11
-5.4465304205
 21
36.3568500449
 31
0.0
 11
-4.8793382581
 21
36.35590601
 31
0.0
 11
-4.2987666573
 21
36.3550669081
 31
0.0
 11
-3.706554928
 21
36.3543352073
 31
0.0
 11
-3.1042563242
 21
36.3537127602
 31
0.0
 11
-2.4931636654
 21
36.3532009661
 31
0.0
 11
-1.8748948112
 21
36.3528013594
 31
0.0
 11
-1.2517052276
 21
36.35251543
 31
0.0
 11
-0.6259504919
 21
36.352343955
 31
0.0
 11
-0.0
 21
36.3522869289
 31
0.0
  0
ELLIPSE
  5
3AE
100
AcDbEntity
  8
RACCORDO
100
AcDbEllipse
 62
7
  6
CONTINUOUS
 10
48.4999428824
 20
-45.0212875101
 30
0.0
 11
1.0607409467
 21
-1.0607409467
 31
0.0
 40
0.9999238505
 41
5.49782522
 42
7.0685453944
  0
ELLIPSE
  5
3AF
100
AcDbEntity
  8
RACCORDO
100
AcDbEllipse
 62
7
  6
CONTINUOUS
 10
-48.4999428824
 20
-45.0212875101
 30
0.0
 11
1.0607409467
 21
1.0607409467
 31
0.0
 40
0.9999238505
 41
8.6394178736
 42
10.210138048
  0
ELLIPSE
  5
3B0
100
AcDbEntity
  8
RACCORDO
100
AcDbEllipse
 62
7
  6
CONTINUOUS
 10
-48.4999428824
 20
34.9785982548
 30
0.0
 11
-1.0607409467
 21
1.0607409467
 31
-0.0
 40
0.9999238505
 41
5.49782522
 42
7.0685453944
  0
ELLIPSE
  5
3B1
100
AcDbEntity
  8
RACCORDO
100
AcDbEllipse
 62
7
  6
CONTINUOUS
 10
48.4999428824
 20
34.9785982548
 30
0.0
 11
-1.0607409467
 21
-1.0607409467
 31
-0.0
 40
0.9999238505
 41
8.6394178736
 42
10.210138048
  0
ELLIPSE
  5
3B2
100
AcDbEntity
  8
RACCORDO
100
AcDbEllipse
 62
7
  6
CONTINUOUS
 10
48.4992927269
 20
-45.0206373545
 30
0.0
 11
1.0606730955
 21
-1.0606730957
 31
0.0
 40
0.9999878154
 41
-0.7490317773
 42
0.785392071
  0
ELLIPSE
  5
3B3
100
AcDbEntity
  8
RACCORDO
100
AcDbEllipse
 62
7
  6
CONTINUOUS
 10
48.4992927269
 20
-45.0206373545
 30
0.0
 11
-1.0606730957
 21
1.0606730955
 31
0.0
 40
0.9999878154
 41
-3.8978550306
 42
-3.890624431
  0
ELLIPSE
  5
3B4
100
AcDbEntity
  8
RACCORDO
100
AcDbEllipse
 62
7
  6
CONTINUOUS
 10
48.4992927269
 20
-45.0206373545
 30
0.0
 11
1.0606730957
 21
-1.0606730955
 31
0.0
 40
0.9999878154
 41
-0.7853920712
 42
-0.7562623768
  0
ELLIPSE
  5
3B5
100
AcDbEntity
  8
RACCORDO
100
AcDbEllipse
 62
7
  6
CONTINUOUS
 10
48.4992927269
 20
34.9779480993
 30
0.0
 11
1.0606730956
 21
1.0606730956
 31
0.0
 40
0.9999878154
 41
-0.7853920711
 42
0.7853920711
  0
ELLIPSE
  5
3B6
100
AcDbEntity
  8
RACCORDO
100
AcDbEllipse
 62
7
  6
CONTINUOUS
 10
-48.4992927269
 20
34.9779480993
 30
0.0
 11
1.0606730955
 21
-1.0606730957
 31
0.0
 40
0.9999878154
 41
2.3562005826
 42
3.9269847246
  0
ELLIPSE
  5
3B7
100
AcDbEntity
  8
RACCORDO
100
AcDbEllipse
 62
7
  6
CONTINUOUS
 10
-48.4992927269
 20
-45.0206373545
 30
0.0
 11
1.0606730956
 21
1.0606730957
 31
0.0
 40
0.9999878154
 41
-3.9269847247
 42
-2.3562005826
  0
ELLIPSE
  5
3B8
100
AcDbEntity
  8
DRAFT
100
AcDbEllipse
 62
7
  6
CONTINUOUS
 10
-49.9155257211
 20
-5.0213446276
 30
0.0
 11
0.0
 21
11.5
 31
0.0
 40
0.0034906727
 41
0.0
 42
6.2831853072
  0
ELLIPSE
  5
3B9
100
AcDbEntity
  8
DRAFT
100
AcDbEllipse
 62
7
  6
CONTINUOUS
 10
49.9155257211
 20
-5.0213446276
 30
0.0
 11
0.0
 21
11.5
 31
0.0
 40
0.0034906727
 41
0.0
 42
6.2831853072
  0
ELLIPSE
  5
3BA
100
AcDbEntity
  8
DRAFT
100
AcDbEllipse
 62
7
  6
CONTINUOUS
 10
-0.0
 20
-46.4368703487
 30
0.0
 11
11.5
 21
-0.0
 31
0.0
 40
0.0034906727
 41
0.0
 42
6.2831853072
  0
ENDSEC
  0
SECTION
  2
OBJECTS
  0
DICTIONARY
  5
C
100
AcDbDictionary
280
0
281
1
  3
ACAD_GROUP
350
D
  3
ACAD_MLINESTYLE
350
17
  3
ACAD_LAYOUT
350
1A
  3
ACAD_PLOTSETTINGS
350
19
  3
ACAD_PLOTSTYLENAME
350
E
  0
DICTIONARY
  5
D
102
{ACAD_REACTORS
330
C
102
}
100
AcDbDictionary
280
0
281
1
  0
ACDBDICTIONARYWDFLT
  5
E
102
{ACAD_REACTORS
330
C
102
}
100
AcDbDictionary
281
1
  3
Normal
350
F
100
AcDbDictionaryWithDefault
340
F
  0
DICTIONARY
  5
17
102
{ACAD_REACTORS
330
C
102
}
100
AcDbDictionary
280
0
281
1
  3
Standard
350
18
  0
DICTIONARY
  5
19
102
{ACAD_REACTORS
330
C
102
}
100
AcDbDictionary
281
1
  0
DICTIONARY
  5
1A
102
{ACAD_REACTORS
330
C
102
}
100
AcDbDictionary
281
1
  3
Model
350
3BB
  3
Layout1
350
3BC
  0
ACDBPLACEHOLDER
  5
F
102
{ACAD_REACTORS
330
E
102
}
  0
MLINESTYLE
  5
18
102
{ACAD_REACTORS
330
17
102
}
100
AcDbMlineStyle
  2
STANDARD
 70
0
  3

 62
256
 51
90.0
 52
90.0
 71
2
 49
0.5
 62
256
  6
BYLAYER
 49
-0.5
 62
256
  6
BYLAYER
  0
LAYOUT
  5
3BB
102
{ACAD_REACTORS
330
1A
102
}
100
AcDbPlotSettings
  1

  2
none_device
  4
ISO_A4_(297.00_x_210.00_MM)
  6

 40
0.0
 41
0.0
 42
0.0
 43
0.0
 44
297.0
 45
210.0
 46
0.0
 47
0.0
 48
0.0
 49
0.0
140
0.0
141
0.0
142
1.0
143
1.0
 70
1024
 72
1
 73
0
 74
0
  7

 75
0
147
1.0
148
0.0
149
0.0
100
AcDbLayout
  1
Model
 70
0
 71
0
 10
0.0
 20
0.0
 11
297.0
 21
210.0
 12
0.0
 22
0.0
 32
0.0
 14
0.0
 24
0.0
 34
0.0
 15
0.0
 25
0.0
 35
0.0
146
0.0
 13
0.0
 23
0.0
 33
0.0
 16
1.0
 26
0.0
 36
0.0
 17
0.0
 27
1.0
 37
0.0
 76
0
330
216
345
0
346
0
  0
LAYOUT
  5
3BC
102
{ACAD_REACTORS
330
1A
102
}
100
AcDbPlotSettings
  1

  2
none_device
  4
ISO_A4_(297.00_x_210.00_MM)
  6

 40
0.0
 41
0.0
 42
0.0
 43
0.0
 44
297.0
 45
210.0
 46
0.0
 47
0.0
 48
0.0
 49
0.0
140
0.0
141
0.0
142
1.0
143
1.0
 70
0
 72
1
 73
0
 74
0
  7

 75
0
147
1.0
148
0.0
149
0.0
100
AcDbLayout
  1
Layout1
 70
0
 71
1
 10
0.0
 20
0.0
 11
297.0
 21
210.0
 12
0.0
 22
0.0
 32
0.0
 14
0.0
 24
0.0
 34
0.0
 15
0.0
 25
0.0
 35
0.0
146
0.0
 13
0.0
 23
0.0
 33
0.0
 16
1.0
 26
0.0
 36
0.0
 17
0.0
 27
1.0
 37
0.0
 76
0
330
217
345
0
346
0
  0
ENDSEC
  0
EOF
