  0
SECTION
  2
HEADER
  9
$ACADVER
  1
AC1015
  9
$DWGCODEPAGE
  3
ANSI_1252
  9
$EXTMAX
 10
297.0
 20
210.0
 30
0.0
  9
$EXTMIN
 10
0.0
 20
0.0
 30
0.0
  9
$LIMMIN
 10
0.0
 20
0.0
  9
$LIMMAX
 10
297.0
 20
210.0
  9
$VIEWCTR
 10
148.5
 20
105.0
  9
$VIEWSIZE
 40
210.0
  9
$CLAYER
  8
0
  9
$LTSCALE
 40
16.335
  9
$CELTYPE
  6
BYLAYER
  9
$DIMSCALE
 40
1.0
  9
$DIMASZ
 40
3.0
  9
$DIMEXO
 40
1.85625
  9
$DIMDLI
 40
11.286
  9
$DIMEXE
 40
5.346
  9
$DIMCEN
 40
2.673
  9
$DIMLFAC
 40
1.0
  9
$DIMBLK
  1
_FILLED
  9
$DIMTXT
 40
3.0
  9
$DIMTOL
 70
1
  9
$DIMLIM
 70
0
  9
$DIMTFAC
 40
1.0
  9
$DIMTP
 40
0.01
  9
$DIMTM
 40
0.01
  9
$PDMODE
 70
3
  9
$PDSIZE
 40
3.0
  9
$HANDSEED
  5
370
  9
$TILEMODE
 70
1
  9
$MEASUREMENT
 70
1
  9
$INSUNITS
 70
4
  0
ENDSEC
  0
SECTION
  2
CLASSES
  0
CLASS
  1
ACDBDICTIONARYWDFLT
  2
AcDbDictionaryWithDefault
  3
AutoCAD 2000
 90
0
280
0
281
0
  0
CLASS
  1
ACDBPLACEHOLDER
  2
AcDbPlaceHolder
  3
AutoCAD 2000
 90
0
280
0
281
0
  0
CLASS
  1
LAYOUT
  2
AcDbLayout
  3
AutoCAD 2000
 90
0
280
0
281
0
  0
ENDSEC
  0
SECTION
  2
TABLES
  0
TABLE
  2
VPORT
  5
8
100
AcDbSymbolTable
 70
2
  0
VPORT
  5
1F4
100
AcDbSymbolTableRecord
100
AcDbViewportTableRecord
  2
*ACTIVE
 70
0
 10
0.0
 20
0.0
 11
1.0
 21
1.0
 12
148.5
 22
105.0
 13
0.0
 23
0.0
 14
1.0
 24
1.0
 15
0.0
 25
0.0
 16
0.0
 26
0.0
 36
1.0
 17
0.0
 27
0.0
 37
0.0
 40
210.0
 41
1.4142857143
 42
50.0
 43
0.0
 44
0.0
 50
0.0
 51
0.0
 71
0
 72
100
 73
1
 74
1
 75
0
 76
0
 77
0
 78
0
  0
ENDTAB
  0
TABLE
  2
LTYPE
  5
5
100
AcDbSymbolTable
 70
6
  0
LTYPE
  5
14
100
AcDbSymbolTableRecord
100
AcDbLinetypeTableRecord
  2
BYBLOCK
 70
0
  3

 72
65
 73
0
 40
0.0
  0
LTYPE
  5
15
100
AcDbSymbolTableRecord
100
AcDbLinetypeTableRecord
  2
BYLAYER
 70
0
  3

 72
65
 73
0
 40
0.0
  0
LTYPE
  5
16
100
AcDbSymbolTableRecord
100
AcDbLinetypeTableRecord
  2
CONTINUOUS
 70
64
  3
Solid line
 72
65
 73
0
 40
0.0
  0
LTYPE
  5
1F5
100
AcDbSymbolTableRecord
100
AcDbLinetypeTableRecord
  2
CENTER
 70
64
  3
____ _ ____ _ ____ _ ____ _ ____ _ ____ _ ____
 72
65
 73
4
 40
0.6
 49
0.375
 74
0
 49
-0.075
 74
0
 49
0.075
 74
0
 49
-0.075
 74
0
  0
LTYPE
  5
1F6
100
AcDbSymbolTableRecord
100
AcDbLinetypeTableRecord
  2
HIDDEN
 70
64
  3
- - - - - - - - - - - - - - - - - - - -
 72
65
 73
2
 40
0.2
 49
0.1
 74
0
 49
-0.1
 74
0
  0
LTYPE
  5
1F7
100
AcDbSymbolTableRecord
100
AcDbLinetypeTableRecord
  2
PHANTOM
 70
64
  3
_____ _ _ _____ _ _ _____ _ _ _____
 72
65
 73
6
 40
0.8
 49
0.45
 74
0
 49
-0.05
 74
0
 49
0.1
 74
0
 49
-0.05
 74
0
 49
0.1
 74
0
 49
-0.05
 74
0
  0
LTYPE
  5
1F8
100
AcDbSymbolTableRecord
100
AcDbLinetypeTableRecord
  2
DOT
 70
64
  3
. . . . . . . . . . . . . . . . . . . .
 72
65
 73
2
 40
0.2
 49
0.1
 74
0
 49
-0.1
 74
0
  0
LTYPE
  5
1F9
100
AcDbSymbolTableRecord
100
AcDbLinetypeTableRecord
  2
DASHED
 70
64
  3
- - - - - - - - - - - - - - - - - - - -
 72
65
 73
2
 40
0.2
 49
0.1
 74
0
 49
-0.1
 74
0
  0
ENDTAB
  0
TABLE
  2
LAYER
  5
2
100
AcDbSymbolTable
 70
36
  0
LAYER
  5
10
100
AcDbSymbolTableRecord
100
AcDbLayerTableRecord
  2
0
 70
0
 62
7
  6
CONTINUOUS
370
-3
390
F
  0
LAYER
  5
1FA
100
AcDbSymbolTableRecord
100
AcDbLayerTableRecord
  2
DEFAULT_1
 70
0
 62
7
  6
CENTER
370
-3
390
F
  0
LAYER
  5
1FB
100
AcDbSymbolTableRecord
100
AcDbLayerTableRecord
  2
DEFAULT_2
 70
0
 62
7
  6
HIDDEN
370
-3
390
F
  0
LAYER
  5
1FC
100
AcDbSymbolTableRecord
100
AcDbLayerTableRecord
  2
DEFAULT_3
 70
0
 62
7
  6
PHANTOM
370
-3
390
F
  0
LAYER
  5
1FD
100
AcDbSymbolTableRecord
100
AcDbLayerTableRecord
  2
ASSI
 70
0
 62
7
  6
CONTINUOUS
370
-3
390
F
  0
LAYER
  5
1FE
100
AcDbSymbolTableRecord
100
AcDbLayerTableRecord
  2
COLOR5
 70
0
 62
7
  6
CONTINUOUS
370
-3
390
F
  0
LAYER
  5
1FF
100
AcDbSymbolTableRecord
100
AcDbLayerTableRecord
  2
COORDINATE
 70
0
 62
7
  6
CONTINUOUS
370
-3
390
F
  0
LAYER
  5
200
100
AcDbSymbolTableRecord
100
AcDbLayerTableRecord
  2
COORD_ORIGINE
 70
0
 62
7
  6
CONTINUOUS
370
-3
390
F
  0
LAYER
  5
201
100
AcDbSymbolTableRecord
100
AcDbLayerTableRecord
  2
COPY_PUBLISH
 70
0
 62
7
  6
CONTINUOUS
370
-3
390
F
  0
LAYER
  5
202
100
AcDbSymbolTableRecord
100
AcDbLayerTableRecord
  2
COSMETIC
 70
0
 62
7
  6
CONTINUOUS
370
-3
390
F
  0
LAYER
  5
203
100
AcDbSymbolTableRecord
100
AcDbLayerTableRecord
  2
CURVE
 70
0
 62
7
  6
CONTINUOUS
370
-3
390
F
  0
LAYER
  5
204
100
AcDbSymbolTableRecord
100
AcDbLayerTableRecord
  2
DRAFT
 70
0
 62
7
  6
CONTINUOUS
370
-3
390
F
  0
LAYER
  5
205
100
AcDbSymbolTableRecord
100
AcDbLayerTableRecord
  2
IMPORT_IGES
 70
0
 62
7
  6
CONTINUOUS
370
-3
390
F
  0
LAYER
  5
206
100
AcDbSymbolTableRecord
100
AcDbLayerTableRecord
  2
INTF_1
 70
0
 62
7
  6
CONTINUOUS
370
-3
390
F
  0
LAYER
  5
207
100
AcDbSymbolTableRecord
100
AcDbLayerTableRecord
  2
INTF_2
 70
0
 62
7
  6
CONTINUOUS
370
-3
390
F
  0
LAYER
  5
208
100
AcDbSymbolTableRecord
100
AcDbLayerTableRecord
  2
NOTE
 70
0
 62
7
  6
CONTINUOUS
370
-3
390
F
  0
LAYER
  5
209
100
AcDbSymbolTableRecord
100
AcDbLayerTableRecord
  2
PIANI
 70
0
 62
7
  6
CONTINUOUS
370
-3
390
F
  0
LAYER
  5
20A
100
AcDbSymbolTableRecord
100
AcDbLayerTableRecord
  2
PIANI_ORIGINE
 70
0
 62
7
  6
CONTINUOUS
370
-3
390
F
  0
LAYER
  5
20B
100
AcDbSymbolTableRecord
100
AcDbLayerTableRecord
  2
PUNTI
 70
0
 62
7
  6
CONTINUOUS
370
-3
390
F
  0
LAYER
  5
20C
100
AcDbSymbolTableRecord
100
AcDbLayerTableRecord
  2
RACCORDO
 70
0
 62
7
  6
CONTINUOUS
370
-3
390
F
  0
LAYER
  5
20D
100
AcDbSymbolTableRecord
100
AcDbLayerTableRecord
  2
RGB__255__255__255__
 70
0
 62
7
  6
CONTINUOUS
370
-3
390
F
  0
LAYER
  5
20E
100
AcDbSymbolTableRecord
100
AcDbLayerTableRecord
  2
RGB____0____0____0__
 70
0
 62
7
  6
CONTINUOUS
370
-3
390
F
  0
LAYER
  5
20F
100
AcDbSymbolTableRecord
100
AcDbLayerTableRecord
  2
SMUSSO
 70
0
 62
7
  6
CONTINUOUS
370
-3
390
F
  0
LAYER
  5
210
100
AcDbSymbolTableRecord
100
AcDbLayerTableRecord
  2
SNAPLINE
 70
0
 62
7
  6
CONTINUOUS
370
-3
390
F
  0
LAYER
  5
211
100
AcDbSymbolTableRecord
100
AcDbLayerTableRecord
  2
SUPERFICI
 70
0
 62
7
  6
CONTINUOUS
370
-3
390
F
  0
LAYER
  5
212
100
AcDbSymbolTableRecord
100
AcDbLayerTableRecord
  2
TRASH
 70
0
 62
7
  6
CONTINUOUS
370
-3
390
F
  0
LAYER
  5
213
100
AcDbSymbolTableRecord
100
AcDbLayerTableRecord
  2
XSEC_DATUMS
 70
0
 62
7
  6
CONTINUOUS
370
-3
390
F
  0
ENDTAB
  0
TABLE
  2
STYLE
  5
3
100
AcDbSymbolTable
 70
1
  0
STYLE
  5
11
100
AcDbSymbolTableRecord
100
AcDbTextStyleTableRecord
  2
STANDARD
 70
0
 40
0.0
 41
0.8
 50
0.0
 71
0
 42
0.2
  3
txt
  4

  0
STYLE
  5
214
100
AcDbSymbolTableRecord
100
AcDbTextStyleTableRecord
  2
TEXTSTYLE_1
 70
0
 40
0.0
 41
0.8
 50
0.0
 71
0
 42
0.2
  3
gdt
  4

  0
ENDTAB
  0
TABLE
  2
VIEW
  5
6
100
AcDbSymbolTable
 70
0
  0
ENDTAB
  0
TABLE
  2
UCS
  5
7
100
AcDbSymbolTable
 70
0
  0
ENDTAB
  0
TABLE
  2
APPID
  5
9
100
AcDbSymbolTable
 70
1
  0
APPID
  5
215
100
AcDbSymbolTableRecord
100
AcDbRegAppTableRecord
  2
ACAD
 70
0
  0
ENDTAB
  0
TABLE
  2
BLOCK_RECORD
  5
1
100
AcDbSymbolTable
 70
0
  0
BLOCK_RECORD
  5
216
100
AcDbSymbolTableRecord
100
AcDbBlockTableRecord
  2
*Model_Space
  0
BLOCK_RECORD
  5
217
100
AcDbSymbolTableRecord
100
AcDbBlockTableRecord
  2
*Paper_Space
  0
ENDTAB
  0
TABLE
  2
DIMSTYLE
  5
A
100
AcDbSymbolTable
 70
1
100
AcDbDimStyleTable
 71
0
  0
DIMSTYLE
105
218
100
AcDbSymbolTableRecord
100
AcDbDimStyleTableRecord
  2
STANDARD
 70
0
  3

  4

 40
1.0
 41
3.0
 42
0.0625
 43
0.38
 44
0.18
 45
0.0
 46
0.0
 47
0.01
 48
0.01
140
3.0
141
0.09
142
0.0
143
25.4
144
1.0
145
0.0
146
1.0
147
0.09
 71
1.0
 72
0.0
 73
0
 74
0
 75
0
 76
0
 77
1
 78
8
170
0
171
2
172
0
173
0
174
0
175
0
176
0
177
0
178
0
270
2
271
2
272
2
273
2
274
2
275
0
280
0
281
0
282
0
283
1
284
8
285
0
286
0
287
3
288
0
340
11
  0
ENDTAB
  0
ENDSEC
  0
SECTION
  2
BLOCKS
  0
BLOCK
  5
20
100
AcDbEntity
  8
0
100
AcDbBlockBegin
  2
*Model_Space
 70
0
 10
0.0
 20
0.0
 30
0.0
  3
*Model_Space
  1

  0
ENDBLK
  5
21
100
AcDbEntity
  8
0
100
AcDbBlockEnd
  0
BLOCK
  5
1C
100
AcDbEntity
  8
0
100
AcDbBlockBegin
  2
*Paper_Space
 70
0
 10
0.0
 20
0.0
 30
0.0
  3
*Paper_Space
  1

  0
ENDBLK
  5
1D
100
AcDbEntity
  8
0
100
AcDbBlockEnd
  0
ENDSEC
  0
SECTION
  2
ENTITIES
  0
LINE
  5
219
100
AcDbEntity
  8
RACCORDO
100
AcDbLine
 62
7
  6
CONTINUOUS
 10
-68.0
 20
40.0000571154
 11
-68.0
 21
-40.0000571154
  0
LINE
  5
21A
100
AcDbEntity
  8
RACCORDO
100
AcDbLine
 62
253
  6
CONTINUOUS
 10
-67.6595760008
 20
39.6596267385
 11
-67.6595760008
 21
-39.6596276269
  0
LINE
  5
21B
100
AcDbEntity
  8
RACCORDO
100
AcDbLine
 62
253
  6
CONTINUOUS
 10
-66.6596140778
 20
39.6596331162
 11
-66.6596140778
 21
-39.6596331162
  0
LINE
  5
21C
100
AcDbEntity
  8
RACCORDO
100
AcDbLine
 62
253
  6
CONTINUOUS
 10
-66.1596331162
 20
-40.1596140778
 11
-66.1596331162
 21
-41.1595760008
  0
LINE
  5
21D
100
AcDbEntity
  8
RACCORDO
100
AcDbLine
 62
253
  6
CONTINUOUS
 10
-66.1596331162
 20
40.1596140778
 11
-66.1596331162
 21
41.1595760008
  0
LINE
  5
21E
100
AcDbEntity
  8
ASSI
100
AcDbLine
 62
7
  6
CONTINUOUS
 10
-56.25
 20
36.0
 11
-56.25
 21
34.5
  0
LINE
  5
21F
100
AcDbEntity
  8
SMUSSO
100
AcDbLine
 62
7
  6
CONTINUOUS
 10
-55.5
 20
36.0
 11
-55.5
 21
34.5
  0
LINE
  5
220
100
AcDbEntity
  8
SMUSSO
100
AcDbLine
 62
7
  6
CONTINUOUS
 10
-55.2
 20
36.0
 11
-55.2
 21
34.5
  0
LINE
  5
221
100
AcDbEntity
  8
SMUSSO
100
AcDbLine
 62
253
  6
CONTINUOUS
 10
-55.0
 20
-34.05
 11
-55.0
 21
-33.75
  0
LINE
  5
222
100
AcDbEntity
  8
SMUSSO
100
AcDbLine
 62
253
  6
CONTINUOUS
 10
-55.0
 20
-36.45
 11
-55.0
 21
-36.75
  0
LINE
  5
223
100
AcDbEntity
  8
0
100
AcDbLine
 62
7
  6
CONTINUOUS
 10
-54.34
 20
-39.7
 11
-54.34
 21
-37.5
  0
LINE
  5
224
100
AcDbEntity
  8
0
100
AcDbLine
 62
7
  6
CONTINUOUS
 10
-54.14
 20
-37.5
 11
-54.14
 21
-39.7
  0
LINE
  5
225
100
AcDbEntity
  8
0
100
AcDbLine
 62
7
  6
CONTINUOUS
 10
-54.04
 20
-37.5
 11
-54.04
 21
-39.7
  0
LINE
  5
226
100
AcDbEntity
  8
0
100
AcDbLine
 62
7
  6
CONTINUOUS
 10
-53.84
 20
-37.5
 11
-53.84
 21
-39.7
  0
LINE
  5
227
100
AcDbEntity
  8
SMUSSO
100
AcDbLine
 62
253
  6
CONTINUOUS
 10
-53.0
 20
-34.05
 11
-53.0
 21
-33.75
  0
LINE
  5
228
100
AcDbEntity
  8
SMUSSO
100
AcDbLine
 62
253
  6
CONTINUOUS
 10
-53.0
 20
-36.45
 11
-53.0
 21
-36.75
  0
LINE
  5
229
100
AcDbEntity
  8
SMUSSO
100
AcDbLine
 62
7
  6
CONTINUOUS
 10
-52.8
 20
34.5
 11
-52.8
 21
36.0
  0
LINE
  5
22A
100
AcDbEntity
  8
SMUSSO
100
AcDbLine
 62
7
  6
CONTINUOUS
 10
-52.5
 20
34.5
 11
-52.5
 21
36.0
  0
LINE
  5
22B
100
AcDbEntity
  8
ASSI
100
AcDbLine
 62
7
  6
CONTINUOUS
 10
-51.75
 20
34.5
 11
-51.75
 21
36.0
  0
LINE
  5
22C
100
AcDbEntity
  8
0
100
AcDbLine
 62
7
  6
CONTINUOUS
 10
-49.84
 20
-37.8
 11
-49.84
 21
-38.75
  0
LINE
  5
22D
100
AcDbEntity
  8
0
100
AcDbLine
 62
7
  6
CONTINUOUS
 10
-49.84
 20
-38.85
 11
-49.84
 21
-39.8
  0
LINE
  5
22E
100
AcDbEntity
  8
0
100
AcDbLine
 62
7
  6
CONTINUOUS
 10
49.84
 20
-39.8
 11
53.84
 21
-38.9
  0
LINE
  5
22F
100
AcDbEntity
  8
0
100
AcDbLine
 62
7
  6
CONTINUOUS
 10
-53.84
 20
-38.9
 11
-49.84
 21
-39.8
  0
LINE
  5
230
100
AcDbEntity
  8
RACCORDO
100
AcDbLine
 62
7
  6
CONTINUOUS
 10
-47.0
 20
-41.2032864951
 11
-47.0
 21
-39.25
  0
LINE
  5
231
100
AcDbEntity
  8
RACCORDO
100
AcDbLine
 62
7
  6
CONTINUOUS
 10
-42.0
 20
-39.25
 11
-42.0
 21
-41.2032864951
  0
LINE
  5
232
100
AcDbEntity
  8
RACCORDO
100
AcDbLine
 62
7
  6
CONTINUOUS
 10
-66.5000571154
 20
-41.5
 11
66.5000571154
 21
-41.5
  0
LINE
  5
233
100
AcDbEntity
  8
DRAFT
100
AcDbLine
 62
7
  6
CONTINUOUS
 10
-42.0
 20
-41.2032864951
 11
-47.0
 21
-41.2032864951
  0
LINE
  5
234
100
AcDbEntity
  8
RACCORDO
100
AcDbLine
 62
253
  6
CONTINUOUS
 10
-66.1596267385
 20
-41.1595760008
 11
-47.0
 21
-41.1595760008
  0
LINE
  5
235
100
AcDbEntity
  8
RACCORDO
100
AcDbLine
 62
253
  6
CONTINUOUS
 10
-42.0
 20
-41.1595760008
 11
66.1596276269
 21
-41.1595760008
  0
LINE
  5
236
100
AcDbEntity
  8
RACCORDO
100
AcDbLine
 62
7
  6
CONTINUOUS
 10
-47.0
 20
-40.25
 11
-42.0
 21
-40.25
  0
LINE
  5
237
100
AcDbEntity
  8
RACCORDO
100
AcDbLine
 62
253
  6
CONTINUOUS
 10
-66.1596331162
 20
-40.1596140778
 11
-47.0
 21
-40.1596140778
  0
LINE
  5
238
100
AcDbEntity
  8
RACCORDO
100
AcDbLine
 62
253
  6
CONTINUOUS
 10
-42.0
 20
-40.1596140778
 11
66.1596331162
 21
-40.1596140778
  0
LINE
  5
239
100
AcDbEntity
  8
0
100
AcDbLine
 62
7
  6
CONTINUOUS
 10
-54.34
 20
-39.7
 11
-53.84
 21
-39.7
  0
LINE
  5
23A
100
AcDbEntity
  8
0
100
AcDbLine
 62
7
  6
CONTINUOUS
 10
53.84
 20
-39.7
 11
54.34
 21
-39.7
  0
LINE
  5
23B
100
AcDbEntity
  8
RACCORDO
100
AcDbLine
 62
253
  6
CONTINUOUS
 10
66.6596140778
 20
-39.6596331162
 11
67.6595760008
 21
-39.6596331162
  0
LINE
  5
23C
100
AcDbEntity
  8
RACCORDO
100
AcDbLine
 62
253
  6
CONTINUOUS
 10
-66.6596140778
 20
-39.6596331162
 11
-67.6595760008
 21
-39.6596331162
  0
LINE
  5
23D
100
AcDbEntity
  8
RACCORDO
100
AcDbLine
 62
253
  6
CONTINUOUS
 10
-47.0
 20
-39.25
 11
-42.0
 21
-39.25
  0
LINE
  5
23E
100
AcDbEntity
  8
0
100
AcDbLine
 62
7
  6
CONTINUOUS
 10
49.84
 20
-39.05
 11
-49.84
 21
-39.05
  0
LINE
  5
23F
100
AcDbEntity
  8
0
100
AcDbLine
 62
7
  6
CONTINUOUS
 10
-49.84
 20
-38.85
 11
49.84
 21
-38.85
  0
LINE
  5
240
100
AcDbEntity
  8
0
100
AcDbLine
 62
7
  6
CONTINUOUS
 10
-49.84
 20
-38.75
 11
49.84
 21
-38.75
  0
LINE
  5
241
100
AcDbEntity
  8
0
100
AcDbLine
 62
7
  6
CONTINUOUS
 10
49.84
 20
-38.55
 11
-49.84
 21
-38.55
  0
LINE
  5
242
100
AcDbEntity
  8
0
100
AcDbLine
 62
7
  6
CONTINUOUS
 10
-2.3662069142
 20
-37.8
 11
-2.0744827986
 21
-37.8
  0
LINE
  5
243
100
AcDbEntity
  8
0
100
AcDbLine
 62
7
  6
CONTINUOUS
 10
53.0
 20
-37.5
 11
55.0
 21
-37.5
  0
LINE
  5
244
100
AcDbEntity
  8
0
100
AcDbLine
 62
7
  6
CONTINUOUS
 10
-53.0
 20
-37.5
 11
-55.0
 21
-37.5
  0
LINE
  5
245
100
AcDbEntity
  8
SMUSSO
100
AcDbLine
 62
7
  6
CONTINUOUS
 10
-55.0
 20
-36.75
 11
-53.0
 21
-36.75
  0
LINE
  5
246
100
AcDbEntity
  8
SMUSSO
100
AcDbLine
 62
7
  6
CONTINUOUS
 10
53.0
 20
-36.75
 11
55.0
 21
-36.75
  0
LINE
  5
247
100
AcDbEntity
  8
SMUSSO
100
AcDbLine
 62
7
  6
CONTINUOUS
 10
-55.0
 20
-36.45
 11
-53.0
 21
-36.45
  0
LINE
  5
248
100
AcDbEntity
  8
SMUSSO
100
AcDbLine
 62
7
  6
CONTINUOUS
 10
53.0
 20
-36.45
 11
55.0
 21
-36.45
  0
LINE
  5
249
100
AcDbEntity
  8
0
100
AcDbLine
 62
7
  6
CONTINUOUS
 10
66.0
 20
-35.5
 11
57.2360679775
 21
-35.5
  0
LINE
  5
24A
100
AcDbEntity
  8
0
100
AcDbLine
 62
7
  6
CONTINUOUS
 10
66.0
 20
-35.3
 11
57.2494443758
 21
-35.3
  0
LINE
  5
24B
100
AcDbEntity
  8
0
100
AcDbLine
 62
7
  6
CONTINUOUS
 10
66.0
 20
-35.2
 11
57.2494443758
 21
-35.2
  0
LINE
  5
24C
100
AcDbEntity
  8
0
100
AcDbLine
 62
7
  6
CONTINUOUS
 10
57.2360679775
 20
-35.0
 11
66.0
 21
-35.0
  0
LINE
  5
24D
100
AcDbEntity
  8
0
100
AcDbLine
 62
7
  6
CONTINUOUS
 10
-2.0744827986
 20
-34.8
 11
-2.3331034482
 21
-34.8
  0
LINE
  5
24E
100
AcDbEntity
  8
SMUSSO
100
AcDbLine
 62
7
  6
CONTINUOUS
 10
55.0
 20
-34.05
 11
53.0
 21
-34.05
  0
LINE
  5
24F
100
AcDbEntity
  8
SMUSSO
100
AcDbLine
 62
7
  6
CONTINUOUS
 10
-53.0
 20
-34.05
 11
-55.0
 21
-34.05
  0
LINE
  5
250
100
AcDbEntity
  8
SMUSSO
100
AcDbLine
 62
7
  6
CONTINUOUS
 10
55.0
 20
-33.75
 11
53.0
 21
-33.75
  0
LINE
  5
251
100
AcDbEntity
  8
SMUSSO
100
AcDbLine
 62
7
  6
CONTINUOUS
 10
-53.0
 20
-33.75
 11
-55.0
 21
-33.75
  0
LINE
  5
252
100
AcDbEntity
  8
ASSI
100
AcDbLine
 62
7
  6
CONTINUOUS
 10
55.0
 20
-33.0
 11
53.0
 21
-33.0
  0
LINE
  5
253
100
AcDbEntity
  8
ASSI
100
AcDbLine
 62
7
  6
CONTINUOUS
 10
-53.0
 20
-33.0
 11
-55.0
 21
-33.0
  0
LINE
  5
254
100
AcDbEntity
  8
0
100
AcDbLine
 62
7
  6
CONTINUOUS
 10
63.0
 20
-32.0
 11
63.95
 21
-32.0
  0
LINE
  5
255
100
AcDbEntity
  8
0
100
AcDbLine
 62
7
  6
CONTINUOUS
 10
64.05
 20
-32.0
 11
65.0
 21
-32.0
  0
LINE
  5
256
100
AcDbEntity
  8
0
100
AcDbLine
 62
7
  6
CONTINUOUS
 10
-49.84
 20
-37.8
 11
-53.84
 21
-38.7
  0
LINE
  5
257
100
AcDbEntity
  8
0
100
AcDbLine
 62
7
  6
CONTINUOUS
 10
53.84
 20
-38.7
 11
49.84
 21
-37.8
  0
LINE
  5
258
100
AcDbEntity
  8
0
100
AcDbLine
 62
7
  6
CONTINUOUS
 10
-3.0737930983
 20
-35.428965497
 11
-2.8896551579
 21
-35.6586207032
  0
LINE
  5
259
100
AcDbEntity
  8
RACCORDO
100
AcDbLine
 62
253
  6
CONTINUOUS
 10
-68.0
 20
-40.0000571154
 11
-67.6595760008
 21
-39.6596276269
  0
LINE
  5
25A
100
AcDbEntity
  8
RACCORDO
100
AcDbLine
 62
253
  6
CONTINUOUS
 10
-66.5000571154
 20
-41.5
 11
-66.1596267385
 21
-41.1595760008
  0
LINE
  5
25B
100
AcDbEntity
  8
RACCORDO
100
AcDbLine
 62
253
  6
CONTINUOUS
 10
-68.0
 20
40.0000571154
 11
-67.6595760008
 21
39.6596267385
  0
LINE
  5
25C
100
AcDbEntity
  8
RACCORDO
100
AcDbLine
 62
253
  6
CONTINUOUS
 10
-66.5000571154
 20
41.5
 11
-66.1596276269
 21
41.1595760008
  0
LINE
  5
25D
100
AcDbEntity
  8
0
100
AcDbLine
 62
7
  6
CONTINUOUS
 10
-2.3662069142
 20
-35.1806896806
 11
-2.3662069142
 21
-37.8
  0
LINE
  5
25E
100
AcDbEntity
  8
0
100
AcDbLine
 62
7
  6
CONTINUOUS
 10
-2.0744827986
 20
-37.8
 11
-2.0744827986
 21
-34.8
  0
LINE
  5
25F
100
AcDbEntity
  8
0
100
AcDbLine
 62
7
  6
CONTINUOUS
 10
-0.75
 20
11.4755174175
 11
-0.75
 21
10.5305053408
  0
LINE
  5
260
100
AcDbEntity
  8
0
100
AcDbLine
 62
7
  6
CONTINUOUS
 10
-0.75
 20
-10.5305053408
 11
-0.75
 21
-11.4755174175
  0
LINE
  5
261
100
AcDbEntity
  8
0
100
AcDbLine
 62
7
  6
CONTINUOUS
 10
60.0
 20
-3.7786206827
 11
60.2772413492
 21
-3.7786206827
  0
LINE
  5
262
100
AcDbEntity
  8
0
100
AcDbLine
 62
7
  6
CONTINUOUS
 10
60.2772413492
 20
-2.0593103766
 11
60.0
 21
-2.0593103766
  0
LINE
  5
263
100
AcDbEntity
  8
0
100
AcDbLine
 62
7
  6
CONTINUOUS
 10
-11.4755174175
 20
-0.75
 11
-10.5305053408
 21
-0.75
  0
LINE
  5
264
100
AcDbEntity
  8
0
100
AcDbLine
 62
7
  6
CONTINUOUS
 10
10.5305053408
 20
-0.75
 11
11.4755174175
 21
-0.75
  0
LINE
  5
265
100
AcDbEntity
  8
0
100
AcDbLine
 62
7
  6
CONTINUOUS
 10
0.75
 20
-11.4755174175
 11
0.75
 21
-10.5305053408
  0
LINE
  5
266
100
AcDbEntity
  8
0
100
AcDbLine
 62
7
  6
CONTINUOUS
 10
0.75
 20
10.5305053408
 11
0.75
 21
11.4755174175
  0
LINE
  5
267
100
AcDbEntity
  8
0
100
AcDbLine
 62
7
  6
CONTINUOUS
 10
11.4755174175
 20
0.75
 11
10.5305053408
 21
0.75
  0
LINE
  5
268
100
AcDbEntity
  8
0
100
AcDbLine
 62
7
  6
CONTINUOUS
 10
-10.5305053408
 20
0.75
 11
-11.4755174175
 21
0.75
  0
LINE
  5
269
100
AcDbEntity
  8
0
100
AcDbLine
 62
7
  6
CONTINUOUS
 10
60.2772413492
 20
3.7958619595
 11
60.0
 21
3.7958619595
  0
LINE
  5
26A
100
AcDbEntity
  8
0
100
AcDbLine
 62
7
  6
CONTINUOUS
 10
61.1855172515
 20
2.5896553993
 11
60.2772413492
 21
2.6041378975
  0
LINE
  5
26B
100
AcDbEntity
  8
0
100
AcDbLine
 62
7
  6
CONTINUOUS
 10
60.0
 20
2.3165514469
 11
61.5579310656
 21
2.2875864506
  0
LINE
  5
26C
100
AcDbEntity
  8
RACCORDO
100
AcDbLine
 62
253
  6
CONTINUOUS
 10
66.5000571154
 20
41.5
 11
66.1596267385
 21
41.1595760008
  0
LINE
  5
26D
100
AcDbEntity
  8
RACCORDO
100
AcDbLine
 62
253
  6
CONTINUOUS
 10
68.0
 20
40.0000571154
 11
67.6595760008
 21
39.6596276269
  0
LINE
  5
26E
100
AcDbEntity
  8
0
100
AcDbLine
 62
7
  6
CONTINUOUS
 10
63.0
 20
-3.2262069285
 11
60.2772413492
 21
-2.0593103766
  0
LINE
  5
26F
100
AcDbEntity
  8
RACCORDO
100
AcDbLine
 62
253
  6
CONTINUOUS
 10
66.5000571154
 20
-41.5
 11
66.1596276269
 21
-41.1595760008
  0
LINE
  5
270
100
AcDbEntity
  8
RACCORDO
100
AcDbLine
 62
253
  6
CONTINUOUS
 10
68.0
 20
-40.0000571154
 11
67.6595760008
 21
-39.6596267385
  0
LINE
  5
271
100
AcDbEntity
  8
0
100
AcDbLine
 62
7
  6
CONTINUOUS
 10
-2.8896551579
 20
-35.6586207032
 11
-2.3662069142
 21
-35.1806896806
  0
LINE
  5
272
100
AcDbEntity
  8
0
100
AcDbLine
 62
7
  6
CONTINUOUS
 10
-2.3331034482
 20
-34.8
 11
-3.0737930983
 21
-35.428965497
  0
LINE
  5
273
100
AcDbEntity
  8
0
100
AcDbLine
 62
7
  6
CONTINUOUS
 10
60.2772413492
 20
-2.3675861359
 11
63.0
 21
-3.5593103319
  0
LINE
  5
274
100
AcDbEntity
  8
0
100
AcDbLine
 62
7
  6
CONTINUOUS
 10
63.0
 20
32.0
 11
63.95
 21
32.0
  0
LINE
  5
275
100
AcDbEntity
  8
0
100
AcDbLine
 62
7
  6
CONTINUOUS
 10
64.05
 20
32.0
 11
65.0
 21
32.0
  0
LINE
  5
276
100
AcDbEntity
  8
SMUSSO
100
AcDbLine
 62
253
  6
CONTINUOUS
 10
-52.8
 20
34.5
 11
-52.5
 21
34.5
  0
LINE
  5
277
100
AcDbEntity
  8
SMUSSO
100
AcDbLine
 62
253
  6
CONTINUOUS
 10
52.8
 20
34.5
 11
52.5
 21
34.5
  0
LINE
  5
278
100
AcDbEntity
  8
SMUSSO
100
AcDbLine
 62
253
  6
CONTINUOUS
 10
55.2
 20
34.5
 11
55.5
 21
34.5
  0
LINE
  5
279
100
AcDbEntity
  8
SMUSSO
100
AcDbLine
 62
253
  6
CONTINUOUS
 10
-55.2
 20
34.5
 11
-55.5
 21
34.5
  0
LINE
  5
27A
100
AcDbEntity
  8
0
100
AcDbLine
 62
7
  6
CONTINUOUS
 10
66.0
 20
35.0
 11
56.25
 21
35.0
  0
LINE
  5
27B
100
AcDbEntity
  8
0
100
AcDbLine
 62
7
  6
CONTINUOUS
 10
66.0
 20
35.2
 11
56.25
 21
35.2
  0
LINE
  5
27C
100
AcDbEntity
  8
0
100
AcDbLine
 62
7
  6
CONTINUOUS
 10
66.0
 20
35.3
 11
56.25
 21
35.3
  0
LINE
  5
27D
100
AcDbEntity
  8
0
100
AcDbLine
 62
7
  6
CONTINUOUS
 10
66.0
 20
35.5
 11
56.25
 21
35.5
  0
LINE
  5
27E
100
AcDbEntity
  8
SMUSSO
100
AcDbLine
 62
253
  6
CONTINUOUS
 10
-52.8
 20
36.0
 11
-52.5
 21
36.0
  0
LINE
  5
27F
100
AcDbEntity
  8
SMUSSO
100
AcDbLine
 62
253
  6
CONTINUOUS
 10
52.8
 20
36.0
 11
52.5
 21
36.0
  0
LINE
  5
280
100
AcDbEntity
  8
SMUSSO
100
AcDbLine
 62
253
  6
CONTINUOUS
 10
55.2
 20
36.0
 11
55.5
 21
36.0
  0
LINE
  5
281
100
AcDbEntity
  8
SMUSSO
100
AcDbLine
 62
253
  6
CONTINUOUS
 10
-55.2
 20
36.0
 11
-55.5
 21
36.0
  0
LINE
  5
282
100
AcDbEntity
  8
RACCORDO
100
AcDbLine
 62
7
  6
CONTINUOUS
 10
42.0
 20
39.25
 11
42.0
 21
41.2032864951
  0
LINE
  5
283
100
AcDbEntity
  8
RACCORDO
100
AcDbLine
 62
253
  6
CONTINUOUS
 10
47.0
 20
39.25
 11
42.0
 21
39.25
  0
LINE
  5
284
100
AcDbEntity
  8
RACCORDO
100
AcDbLine
 62
253
  6
CONTINUOUS
 10
66.6596140778
 20
39.6596331162
 11
67.6595760008
 21
39.6596331162
  0
LINE
  5
285
100
AcDbEntity
  8
RACCORDO
100
AcDbLine
 62
253
  6
CONTINUOUS
 10
-66.6596140778
 20
39.6596331162
 11
-67.6595760008
 21
39.6596331162
  0
LINE
  5
286
100
AcDbEntity
  8
RACCORDO
100
AcDbLine
 62
253
  6
CONTINUOUS
 10
66.1596331162
 20
40.1596140778
 11
47.0
 21
40.1596140778
  0
LINE
  5
287
100
AcDbEntity
  8
RACCORDO
100
AcDbLine
 62
253
  6
CONTINUOUS
 10
42.0
 20
40.1596140778
 11
-66.1596331162
 21
40.1596140778
  0
LINE
  5
288
100
AcDbEntity
  8
RACCORDO
100
AcDbLine
 62
7
  6
CONTINUOUS
 10
47.0
 20
40.25
 11
42.0
 21
40.25
  0
LINE
  5
289
100
AcDbEntity
  8
RACCORDO
100
AcDbLine
 62
253
  6
CONTINUOUS
 10
66.1596267385
 20
41.1595760008
 11
47.0
 21
41.1595760008
  0
LINE
  5
28A
100
AcDbEntity
  8
RACCORDO
100
AcDbLine
 62
253
  6
CONTINUOUS
 10
42.0
 20
41.1595760008
 11
-66.1596276269
 21
41.1595760008
  0
LINE
  5
28B
100
AcDbEntity
  8
DRAFT
100
AcDbLine
 62
7
  6
CONTINUOUS
 10
47.0
 20
41.2032864951
 11
42.0
 21
41.2032864951
  0
LINE
  5
28C
100
AcDbEntity
  8
RACCORDO
100
AcDbLine
 62
7
  6
CONTINUOUS
 10
-66.5000571154
 20
41.5
 11
66.5000571154
 21
41.5
  0
LINE
  5
28D
100
AcDbEntity
  8
RACCORDO
100
AcDbLine
 62
7
  6
CONTINUOUS
 10
47.0
 20
41.2032864951
 11
47.0
 21
39.25
  0
LINE
  5
28E
100
AcDbEntity
  8
0
100
AcDbLine
 62
7
  6
CONTINUOUS
 10
49.84
 20
-37.8
 11
49.84
 21
-38.75
  0
LINE
  5
28F
100
AcDbEntity
  8
0
100
AcDbLine
 62
7
  6
CONTINUOUS
 10
49.84
 20
-38.85
 11
49.84
 21
-39.8
  0
LINE
  5
290
100
AcDbEntity
  8
ASSI
100
AcDbLine
 62
7
  6
CONTINUOUS
 10
51.75
 20
36.0
 11
51.75
 21
34.5
  0
LINE
  5
291
100
AcDbEntity
  8
SMUSSO
100
AcDbLine
 62
7
  6
CONTINUOUS
 10
52.5
 20
36.0
 11
52.5
 21
34.5
  0
LINE
  5
292
100
AcDbEntity
  8
SMUSSO
100
AcDbLine
 62
7
  6
CONTINUOUS
 10
52.8
 20
36.0
 11
52.8
 21
34.5
  0
LINE
  5
293
100
AcDbEntity
  8
SMUSSO
100
AcDbLine
 62
253
  6
CONTINUOUS
 10
53.0
 20
-34.05
 11
53.0
 21
-33.75
  0
LINE
  5
294
100
AcDbEntity
  8
SMUSSO
100
AcDbLine
 62
253
  6
CONTINUOUS
 10
53.0
 20
-36.45
 11
53.0
 21
-36.75
  0
LINE
  5
295
100
AcDbEntity
  8
0
100
AcDbLine
 62
7
  6
CONTINUOUS
 10
53.84
 20
-39.7
 11
53.84
 21
-37.5
  0
LINE
  5
296
100
AcDbEntity
  8
0
100
AcDbLine
 62
7
  6
CONTINUOUS
 10
63.9
 20
35.0
 11
63.0
 21
32.0
  0
LINE
  5
297
100
AcDbEntity
  8
0
100
AcDbLine
 62
7
  6
CONTINUOUS
 10
63.0
 20
-32.0
 11
63.9
 21
-35.0
  0
LINE
  5
298
100
AcDbEntity
  8
0
100
AcDbLine
 62
7
  6
CONTINUOUS
 10
54.04
 20
-37.5
 11
54.04
 21
-39.7
  0
LINE
  5
299
100
AcDbEntity
  8
0
100
AcDbLine
 62
7
  6
CONTINUOUS
 10
54.14
 20
-37.5
 11
54.14
 21
-39.7
  0
LINE
  5
29A
100
AcDbEntity
  8
0
100
AcDbLine
 62
7
  6
CONTINUOUS
 10
54.34
 20
-39.7
 11
54.34
 21
-37.5
  0
LINE
  5
29B
100
AcDbEntity
  8
SMUSSO
100
AcDbLine
 62
253
  6
CONTINUOUS
 10
55.0
 20
-34.05
 11
55.0
 21
-33.75
  0
LINE
  5
29C
100
AcDbEntity
  8
SMUSSO
100
AcDbLine
 62
253
  6
CONTINUOUS
 10
55.0
 20
-36.45
 11
55.0
 21
-36.75
  0
LINE
  5
29D
100
AcDbEntity
  8
SMUSSO
100
AcDbLine
 62
7
  6
CONTINUOUS
 10
55.2
 20
34.5
 11
55.2
 21
36.0
  0
LINE
  5
29E
100
AcDbEntity
  8
SMUSSO
100
AcDbLine
 62
7
  6
CONTINUOUS
 10
55.5
 20
34.5
 11
55.5
 21
36.0
  0
LINE
  5
29F
100
AcDbEntity
  8
0
100
AcDbLine
 62
7
  6
CONTINUOUS
 10
56.25
 20
34.5
 11
56.25
 21
36.0
  0
LINE
  5
2A0
100
AcDbEntity
  8
0
100
AcDbLine
 62
7
  6
CONTINUOUS
 10
62.3896551579
 20
2.3786206245
 11
62.5220689774
 21
2.0868964195
  0
LINE
  5
2A1
100
AcDbEntity
  8
0
100
AcDbLine
 62
7
  6
CONTINUOUS
 10
60.0
 20
3.7958619595
 11
60.0
 21
2.3165514469
  0
LINE
  5
2A2
100
AcDbEntity
  8
0
100
AcDbLine
 62
7
  6
CONTINUOUS
 10
60.0
 20
-2.0593103766
 11
60.0
 21
-3.7786206827
  0
LINE
  5
2A3
100
AcDbEntity
  8
0
100
AcDbLine
 62
7
  6
CONTINUOUS
 10
60.2772413492
 20
-3.7786206827
 11
60.2772413492
 21
-2.3675861359
  0
LINE
  5
2A4
100
AcDbEntity
  8
0
100
AcDbLine
 62
7
  6
CONTINUOUS
 10
60.2772413492
 20
2.6041378975
 11
60.2772413492
 21
3.7958619595
  0
LINE
  5
2A5
100
AcDbEntity
  8
0
100
AcDbLine
 62
7
  6
CONTINUOUS
 10
63.0
 20
-3.5593103319
 11
63.0
 21
-3.2262069285
  0
LINE
  5
2A6
100
AcDbEntity
  8
0
100
AcDbLine
 62
7
  6
CONTINUOUS
 10
63.75
 20
32.0
 11
63.75
 21
-32.0
  0
LINE
  5
2A7
100
AcDbEntity
  8
0
100
AcDbLine
 62
7
  6
CONTINUOUS
 10
63.95
 20
32.0
 11
63.95
 21
-32.0
  0
LINE
  5
2A8
100
AcDbEntity
  8
0
100
AcDbLine
 62
7
  6
CONTINUOUS
 10
64.05
 20
32.0
 11
64.05
 21
-32.0
  0
LINE
  5
2A9
100
AcDbEntity
  8
0
100
AcDbLine
 62
7
  6
CONTINUOUS
 10
64.25
 20
32.0
 11
64.25
 21
-32.0
  0
LINE
  5
2AA
100
AcDbEntity
  8
0
100
AcDbLine
 62
7
  6
CONTINUOUS
 10
66.0
 20
35.5
 11
66.0
 21
35.0
  0
LINE
  5
2AB
100
AcDbEntity
  8
0
100
AcDbLine
 62
7
  6
CONTINUOUS
 10
66.0
 20
-35.0
 11
66.0
 21
-35.5
  0
LINE
  5
2AC
100
AcDbEntity
  8
RACCORDO
100
AcDbLine
 62
253
  6
CONTINUOUS
 10
66.1596331162
 20
-40.1596140778
 11
66.1596331162
 21
-41.1595760008
  0
LINE
  5
2AD
100
AcDbEntity
  8
RACCORDO
100
AcDbLine
 62
253
  6
CONTINUOUS
 10
66.1596331162
 20
40.1596140778
 11
66.1596331162
 21
41.1595760008
  0
LINE
  5
2AE
100
AcDbEntity
  8
RACCORDO
100
AcDbLine
 62
253
  6
CONTINUOUS
 10
66.6596140778
 20
-39.6596331162
 11
66.6596140778
 21
39.6596331162
  0
LINE
  5
2AF
100
AcDbEntity
  8
RACCORDO
100
AcDbLine
 62
253
  6
CONTINUOUS
 10
67.6595760008
 20
-39.6596267385
 11
67.6595760008
 21
39.6596276269
  0
LINE
  5
2B0
100
AcDbEntity
  8
RACCORDO
100
AcDbLine
 62
7
  6
CONTINUOUS
 10
68.0
 20
40.0000571154
 11
68.0
 21
-40.0000571154
  0
LINE
  5
2B1
100
AcDbEntity
  8
0
100
AcDbLine
 62
7
  6
CONTINUOUS
 10
64.1
 20
-35.0
 11
65.0
 21
-32.0
  0
LINE
  5
2B2
100
AcDbEntity
  8
0
100
AcDbLine
 62
7
  6
CONTINUOUS
 10
65.0
 20
32.0
 11
64.1
 21
35.0
  0
ARC
  5
2B3
100
AcDbEntity
  8
0
100
AcDbCircle
 62
7
  6
CONTINUOUS
 10
-4.4800241914
 20
-36.2998313443
 40
5.1676109833
100
AcDbArc
 50
359.9751904083
 51
4.4497669162
  0
ARC
  5
2B4
100
AcDbEntity
  8
0
100
AcDbCircle
 62
7
  6
CONTINUOUS
 10
-4.3162766512
 20
-36.3065747333
 40
5.0038649873
100
AcDbArc
 50
355.5244420619
 51
0.0515924085
  0
CIRCLE
  5
2B5
100
AcDbEntity
  8
RACCORDO
100
AcDbCircle
 62
253
  6
CONTINUOUS
 10
-59.0
 20
-27.0
 40
3.2326972506
  0
ARC
  5
2B6
100
AcDbEntity
  8
ASSI
100
AcDbCircle
 62
7
  6
CONTINUOUS
 10
-53.0
 20
-35.25
 40
2.25
100
AcDbArc
 50
270.0
 51
90.0
  0
ARC
  5
2B7
100
AcDbEntity
  8
ASSI
100
AcDbCircle
 62
7
  6
CONTINUOUS
 10
-55.0
 20
-35.25
 40
2.25
100
AcDbArc
 50
90.0
 51
270.0
  0
CIRCLE
  5
2B8
100
AcDbEntity
  8
RACCORDO
100
AcDbCircle
 62
253
  6
CONTINUOUS
 10
-59.0
 20
-27.0
 40
2.232849568
  0
CIRCLE
  5
2B9
100
AcDbEntity
  8
DRAFT
100
AcDbCircle
 62
7
  6
CONTINUOUS
 10
-59.0
 20
-27.0
 40
1.9008987014
  0
ARC
  5
2BA
100
AcDbEntity
  8
0
100
AcDbCircle
 62
7
  6
CONTINUOUS
 10
-0.9691316886
 20
-36.566708903
 40
1.6466282081
100
AcDbArc
 50
340.4350025415
 51
355.4600862974
  0
ARC
  5
2BB
100
AcDbEntity
  8
RACCORDO
100
AcDbCircle
 62
253
  6
CONTINUOUS
 10
-66.1595491035
 20
-39.6595491035
 40
1.5000268997
100
AcDbArc
 50
180.0029993293
 51
269.9970346011
  0
ARC
  5
2BC
100
AcDbEntity
  8
SMUSSO
100
AcDbCircle
 62
7
  6
CONTINUOUS
 10
-55.0
 20
-35.25
 40
1.4999999764
100
AcDbArc
 50
90.0
 51
270.0
  0
ARC
  5
2BD
100
AcDbEntity
  8
SMUSSO
100
AcDbCircle
 62
7
  6
CONTINUOUS
 10
-53.0
 20
-35.25
 40
1.4999999764
100
AcDbArc
 50
270.0
 51
90.0
  0
ARC
  5
2BE
100
AcDbEntity
  8
SMUSSO
100
AcDbCircle
 62
7
  6
CONTINUOUS
 10
-53.0
 20
-35.25
 40
1.1999999771
100
AcDbArc
 50
270.0
 51
90.0
  0
ARC
  5
2BF
100
AcDbEntity
  8
SMUSSO
100
AcDbCircle
 62
7
  6
CONTINUOUS
 10
-55.0
 20
-35.25
 40
1.1999999771
100
AcDbArc
 50
90.0
 51
270.0
  0
ARC
  5
2C0
100
AcDbEntity
  8
RACCORDO
100
AcDbCircle
 62
253
  6
CONTINUOUS
 10
-66.1596406611
 20
-39.6596406611
 40
0.4999731021
100
AcDbArc
 50
179.9991353812
 51
270.0008646189
  0
CIRCLE
  5
2C1
100
AcDbEntity
  8
RACCORDO
100
AcDbCircle
 62
253
  6
CONTINUOUS
 10
-59.0
 20
27.0
 40
3.2326972506
  0
ARC
  5
2C2
100
AcDbEntity
  8
ASSI
100
AcDbCircle
 62
7
  6
CONTINUOUS
 10
-54.0
 20
36.0
 40
2.25
100
AcDbArc
 50
0.0
 51
180.0
  0
ARC
  5
2C3
100
AcDbEntity
  8
ASSI
100
AcDbCircle
 62
7
  6
CONTINUOUS
 10
-54.0
 20
34.5
 40
2.25
100
AcDbArc
 50
180.0
 51
360.0
  0
CIRCLE
  5
2C4
100
AcDbEntity
  8
RACCORDO
100
AcDbCircle
 62
253
  6
CONTINUOUS
 10
-59.0
 20
27.0
 40
2.232849568
  0
CIRCLE
  5
2C5
100
AcDbEntity
  8
DRAFT
100
AcDbCircle
 62
7
  6
CONTINUOUS
 10
-59.0
 20
27.0
 40
1.9008987014
  0
ARC
  5
2C6
100
AcDbEntity
  8
RACCORDO
100
AcDbCircle
 62
253
  6
CONTINUOUS
 10
-66.1595491035
 20
39.6595491035
 40
1.5000268997
100
AcDbArc
 50
90.0029993293
 51
179.9970346011
  0
ARC
  5
2C7
100
AcDbEntity
  8
SMUSSO
100
AcDbCircle
 62
7
  6
CONTINUOUS
 10
-54.0
 20
34.5
 40
1.4999999764
100
AcDbArc
 50
180.0
 51
360.0
  0
ARC
  5
2C8
100
AcDbEntity
  8
SMUSSO
100
AcDbCircle
 62
7
  6
CONTINUOUS
 10
-54.0
 20
36.0
 40
1.4999999764
100
AcDbArc
 50
0.0
 51
180.0
  0
ARC
  5
2C9
100
AcDbEntity
  8
SMUSSO
100
AcDbCircle
 62
7
  6
CONTINUOUS
 10
-54.0
 20
36.0
 40
1.1999999771
100
AcDbArc
 50
0.0
 51
180.0
  0
ARC
  5
2CA
100
AcDbEntity
  8
SMUSSO
100
AcDbCircle
 62
7
  6
CONTINUOUS
 10
-54.0
 20
34.5
 40
1.1999999771
100
AcDbArc
 50
180.0
 51
360.0
  0
ARC
  5
2CB
100
AcDbEntity
  8
RACCORDO
100
AcDbCircle
 62
253
  6
CONTINUOUS
 10
-66.1596406611
 20
39.6596406611
 40
0.4999731021
100
AcDbArc
 50
89.9991353812
 51
180.0008646189
  0
ARC
  5
2CC
100
AcDbEntity
  8
0
100
AcDbCircle
 62
7
  6
CONTINUOUS
 10
61.4998313443
 20
-4.9800241914
 40
5.1676109833
100
AcDbArc
 50
89.9751904083
 51
94.4497669162
  0
ARC
  5
2CD
100
AcDbEntity
  8
0
100
AcDbCircle
 62
7
  6
CONTINUOUS
 10
61.5065747333
 20
-4.8162766512
 40
5.0038649873
100
AcDbArc
 50
85.5244420619
 51
90.0515924085
  0
ARC
  5
2CE
100
AcDbEntity
  8
0
100
AcDbCircle
 62
7
  6
CONTINUOUS
 10
2.4508895905
 20
-36.2976639605
 40
3.4391663291
100
AcDbArc
 50
171.1837311368
 51
180.0389179248
  0
ARC
  5
2CF
100
AcDbEntity
  8
0
100
AcDbCircle
 62
7
  6
CONTINUOUS
 10
2.3716188672
 20
-36.3001820594
 40
3.3598948173
100
AcDbArc
 50
179.9968953689
 51
188.850671849
  0
CIRCLE
  5
2D0
100
AcDbEntity
  8
RACCORDO
100
AcDbCircle
 62
253
  6
CONTINUOUS
 10
59.0
 20
-27.0
 40
3.2326972506
  0
ARC
  5
2D1
100
AcDbEntity
  8
ASSI
100
AcDbCircle
 62
7
  6
CONTINUOUS
 10
53.0
 20
-35.25
 40
2.25
100
AcDbArc
 50
90.0
 51
270.0
  0
ARC
  5
2D2
100
AcDbEntity
  8
0
100
AcDbCircle
 62
7
  6
CONTINUOUS
 10
55.0
 20
-35.25
 40
2.25
100
AcDbArc
 50
270.0
 51
90.0
  0
CIRCLE
  5
2D3
100
AcDbEntity
  8
RACCORDO
100
AcDbCircle
 62
253
  6
CONTINUOUS
 10
59.0
 20
-27.0
 40
2.232849568
  0
CIRCLE
  5
2D4
100
AcDbEntity
  8
DRAFT
100
AcDbCircle
 62
7
  6
CONTINUOUS
 10
59.0
 20
-27.0
 40
1.9008987014
  0
ARC
  5
2D5
100
AcDbEntity
  8
0
100
AcDbCircle
 62
7
  6
CONTINUOUS
 10
61.766708903
 20
-1.4691316886
 40
1.6466282081
100
AcDbArc
 50
70.4350025415
 51
85.4600862974
  0
ARC
  5
2D6
100
AcDbEntity
  8
RACCORDO
100
AcDbCircle
 62
253
  6
CONTINUOUS
 10
66.1595491035
 20
-39.6595491035
 40
1.5000268997
100
AcDbArc
 50
270.0029993293
 51
359.9970346011
  0
ARC
  5
2D7
100
AcDbEntity
  8
SMUSSO
100
AcDbCircle
 62
7
  6
CONTINUOUS
 10
55.0
 20
-35.25
 40
1.4999999764
100
AcDbArc
 50
270.0
 51
90.0
  0
ARC
  5
2D8
100
AcDbEntity
  8
SMUSSO
100
AcDbCircle
 62
7
  6
CONTINUOUS
 10
53.0
 20
-35.25
 40
1.4999999764
100
AcDbArc
 50
90.0
 51
270.0
  0
ARC
  5
2D9
100
AcDbEntity
  8
SMUSSO
100
AcDbCircle
 62
7
  6
CONTINUOUS
 10
53.0
 20
-35.25
 40
1.1999999771
100
AcDbArc
 50
90.0
 51
270.0
  0
ARC
  5
2DA
100
AcDbEntity
  8
SMUSSO
100
AcDbCircle
 62
7
  6
CONTINUOUS
 10
55.0
 20
-35.25
 40
1.1999999771
100
AcDbArc
 50
270.0
 51
90.0
  0
ARC
  5
2DB
100
AcDbEntity
  8
RACCORDO
100
AcDbCircle
 62
253
  6
CONTINUOUS
 10
66.1596406567
 20
-39.6596406567
 40
0.4999731021
100
AcDbArc
 50
269.9991358762
 51
0.0008641238
  0
ARC
  5
2DC
100
AcDbEntity
  8
0
100
AcDbCircle
 62
7
  6
CONTINUOUS
 10
-0.0
 20
0.0
 40
11.5
100
AcDbArc
 50
93.7393352315
 51
176.2606647685
  0
ARC
  5
2DD
100
AcDbEntity
  8
0
100
AcDbCircle
 62
7
  6
CONTINUOUS
 10
-0.0
 20
0.0
 40
11.5
100
AcDbArc
 50
3.7393352315
 51
86.2606647685
  0
ARC
  5
2DE
100
AcDbEntity
  8
0
100
AcDbCircle
 62
7
  6
CONTINUOUS
 10
-0.0
 20
0.0
 40
11.5
100
AcDbArc
 50
183.7393352315
 51
266.2606647685
  0
ARC
  5
2DF
100
AcDbEntity
  8
0
100
AcDbCircle
 62
7
  6
CONTINUOUS
 10
-0.0
 20
0.0
 40
11.5
100
AcDbArc
 50
273.7393352315
 51
356.2606647685
  0
ARC
  5
2E0
100
AcDbEntity
  8
0
100
AcDbCircle
 62
7
  6
CONTINUOUS
 10
-0.0
 20
0.0
 40
11.25
100
AcDbArc
 50
93.8225537293
 51
176.1774462707
  0
ARC
  5
2E1
100
AcDbEntity
  8
0
100
AcDbCircle
 62
7
  6
CONTINUOUS
 10
-0.0
 20
0.0
 40
11.25
100
AcDbArc
 50
3.8225537293
 51
86.1774462707
  0
ARC
  5
2E2
100
AcDbEntity
  8
0
100
AcDbCircle
 62
7
  6
CONTINUOUS
 10
-0.0
 20
0.0
 40
11.25
100
AcDbArc
 50
273.8225537293
 51
356.1774462707
  0
ARC
  5
2E3
100
AcDbEntity
  8
0
100
AcDbCircle
 62
7
  6
CONTINUOUS
 10
-0.0
 20
0.0
 40
11.25
100
AcDbArc
 50
183.8225537293
 51
266.1774462707
  0
ARC
  5
2E4
100
AcDbEntity
  8
0
100
AcDbCircle
 62
7
  6
CONTINUOUS
 10
-0.0
 20
0.0
 40
10.557179677
100
AcDbArc
 50
4.0738212491
 51
85.9261787509
  0
ARC
  5
2E5
100
AcDbEntity
  8
0
100
AcDbCircle
 62
7
  6
CONTINUOUS
 10
-0.0
 20
0.0
 40
10.557179677
100
AcDbArc
 50
274.0738212491
 51
355.9261787509
  0
ARC
  5
2E6
100
AcDbEntity
  8
0
100
AcDbCircle
 62
7
  6
CONTINUOUS
 10
-0.0
 20
0.0
 40
10.557179677
100
AcDbArc
 50
94.0738212491
 51
175.9261787509
  0
ARC
  5
2E7
100
AcDbEntity
  8
0
100
AcDbCircle
 62
7
  6
CONTINUOUS
 10
-0.0
 20
0.0
 40
10.557179677
100
AcDbArc
 50
184.0738212491
 51
265.9261787509
  0
CIRCLE
  5
2E8
100
AcDbEntity
  8
0
100
AcDbCircle
 62
7
  6
CONTINUOUS
 10
-0.0
 20
0.0
 40
3.5707142143
  0
ARC
  5
2E9
100
AcDbEntity
  8
0
100
AcDbCircle
 62
7
  6
CONTINUOUS
 10
61.4976639605
 20
1.9508895905
 40
3.4391663291
100
AcDbArc
 50
261.1837311368
 51
270.0389179248
  0
ARC
  5
2EA
100
AcDbEntity
  8
0
100
AcDbCircle
 62
7
  6
CONTINUOUS
 10
61.5001820594
 20
1.8716188672
 40
3.3598948173
100
AcDbArc
 50
269.9968953689
 51
278.850671849
  0
CIRCLE
  5
2EB
100
AcDbEntity
  8
RACCORDO
100
AcDbCircle
 62
253
  6
CONTINUOUS
 10
59.0
 20
27.0
 40
3.2326972506
  0
ARC
  5
2EC
100
AcDbEntity
  8
ASSI
100
AcDbCircle
 62
7
  6
CONTINUOUS
 10
54.0
 20
36.0
 40
2.25
100
AcDbArc
 50
0.0
 51
180.0
  0
ARC
  5
2ED
100
AcDbEntity
  8
ASSI
100
AcDbCircle
 62
7
  6
CONTINUOUS
 10
54.0
 20
34.5
 40
2.25
100
AcDbArc
 50
180.0
 51
360.0
  0
CIRCLE
  5
2EE
100
AcDbEntity
  8
RACCORDO
100
AcDbCircle
 62
253
  6
CONTINUOUS
 10
59.0
 20
27.0
 40
2.232849568
  0
CIRCLE
  5
2EF
100
AcDbEntity
  8
DRAFT
100
AcDbCircle
 62
7
  6
CONTINUOUS
 10
59.0
 20
27.0
 40
1.9008987014
  0
ARC
  5
2F0
100
AcDbEntity
  8
RACCORDO
100
AcDbCircle
 62
253
  6
CONTINUOUS
 10
66.1595491035
 20
39.6595491035
 40
1.5000268997
100
AcDbArc
 50
0.0029993293
 51
89.9970346011
  0
ARC
  5
2F1
100
AcDbEntity
  8
SMUSSO
100
AcDbCircle
 62
7
  6
CONTINUOUS
 10
54.0
 20
34.5
 40
1.4999999764
100
AcDbArc
 50
180.0
 51
360.0
  0
ARC
  5
2F2
100
AcDbEntity
  8
SMUSSO
100
AcDbCircle
 62
7
  6
CONTINUOUS
 10
54.0
 20
36.0
 40
1.4999999764
100
AcDbArc
 50
0.0
 51
180.0
  0
ARC
  5
2F3
100
AcDbEntity
  8
SMUSSO
100
AcDbCircle
 62
7
  6
CONTINUOUS
 10
54.0
 20
36.0
 40
1.1999999771
100
AcDbArc
 50
0.0
 51
180.0
  0
ARC
  5
2F4
100
AcDbEntity
  8
SMUSSO
100
AcDbCircle
 62
7
  6
CONTINUOUS
 10
54.0
 20
34.5
 40
1.1999999771
100
AcDbArc
 50
180.0
 51
360.0
  0
ARC
  5
2F5
100
AcDbEntity
  8
RACCORDO
100
AcDbCircle
 62
253
  6
CONTINUOUS
 10
66.1596406567
 20
39.6596406567
 40
0.4999731021
100
AcDbArc
 50
359.9991358762
 51
90.0008641238
  0
SPLINE
  5
2F6
100
AcDbEntity
  8
0
100
AcDbSpline
 62
7
  6
CONTINUOUS
 70
0
 71
3
 72
8
 73
4
 74
2
 42
0.0000001
 43
0.0000001
 44
0.0000000001
 12
0.3918545189
 22
0.2807776096
 32
0.0
 13
0.6082756519
 23
0.0124143362
 33
0.0
 40
0.0
 40
0.0
 40
0.0
 40
0.0
 40
1.0
 40
1.0
 40
1.0
 40
1.0
 10
-0.5044112981
 20
-34.8956614138
 30
0.0
 10
-0.3737931252
 20
-34.8020688772
 30
0.0
 10
-0.2062069178
 20
-34.754482913
 30
0.0
 10
-0.0034483671
 20
-34.7503448009
 30
0.0
 11
-0.5044112981
 21
-34.8956614138
 31
0.0
 11
-0.0034483671
 21
-34.7503448009
 31
0.0
  0
SPLINE
  5
2F7
100
AcDbEntity
  8
0
100
AcDbSpline
 62
7
  6
CONTINUOUS
 70
0
 71
3
 72
8
 73
4
 74
2
 42
0.0000001
 43
0.0000001
 44
0.0000000001
 12
0.2025420763
 22
0.4603226355
 32
0.0
 13
0.3964214978
 23
0.2840500114
 33
0.0
 40
0.0
 40
0.0
 40
0.0
 40
0.0
 40
1.0
 40
1.0
 40
1.0
 40
1.0
 10
-0.8033760421
 20
-35.269992683
 30
0.0
 10
-0.7358620167
 20
-35.1165518045
 30
0.0
 10
-0.6365517974
 20
-34.9903447509
 30
0.0
 10
-0.5044112981
 20
-34.8956614138
 30
0.0
 11
-0.8033760421
 21
-35.269992683
 31
0.0
 11
-0.5044112981
 21
-34.8956614138
 31
0.0
  0
SPLINE
  5
2F8
100
AcDbEntity
  8
0
100
AcDbSpline
 62
7
  6
CONTINUOUS
 70
0
 71
3
 72
8
 73
4
 74
2
 42
0.0000001
 43
0.0000001
 44
0.0000000001
 12
0.0829280829
 22
0.5344243023
 32
0.0
 13
0.2071133159
 23
0.4707118103
 33
0.0
 40
0.0
 40
0.0
 40
0.0
 40
0.0
 40
1.0
 40
1.0
 40
1.0
 40
1.0
 10
-0.9476426514
 20
-35.7705552052
 30
0.0
 10
-0.9199999571
 20
-35.5924137712
 30
0.0
 10
-0.8724138141
 20
-35.4268966198
 30
0.0
 10
-0.8033760421
 20
-35.269992683
 30
0.0
 11
-0.9476426514
 21
-35.7705552052
 31
0.0
 11
-0.8033760421
 21
-35.269992683
 31
0.0
  0
SPLINE
  5
2F9
100
AcDbEntity
  8
0
100
AcDbSpline
 62
7
  6
CONTINUOUS
 70
0
 71
3
 72
8
 73
4
 74
2
 42
0.0000001
 43
0.0000001
 44
0.0000000001
 12
-0.2048276526
 22
0.465517124
 32
0.0
 13
-0.0848061097
 23
0.5465271162
 33
0.0
 40
0.0
 40
0.0
 40
0.0
 40
0.0
 40
1.0
 40
1.0
 40
1.0
 40
1.0
 10
-0.8041379299
 20
-37.3220689444
 30
0.0
 10
-0.8724138141
 20
-37.1668965697
 30
0.0
 10
-0.9199999571
 20
-36.9993103623
 30
0.0
 10
-0.9482686603
 20
-36.817134657
 30
0.0
 11
-0.8041379299
 21
-37.3220689444
 31
0.0
 11
-0.9482686603
 21
-36.817134657
 31
0.0
  0
SPLINE
  5
2FA
100
AcDbEntity
  8
0
100
AcDbSpline
 62
7
  6
CONTINUOUS
 70
0
 71
3
 72
8
 73
4
 74
2
 42
0.0000001
 43
0.0000001
 44
0.0000000001
 12
-0.3891733637
 22
0.2880495103
 32
0.0
 13
-0.2048277396
 23
0.4655173218
 33
0.0
 40
0.0
 40
0.0
 40
0.0
 40
0.0
 40
1.0
 40
1.0
 40
1.0
 40
1.0
 10
-0.5068273428
 20
-37.6994647856
 30
0.0
 10
-0.6365517974
 20
-37.6034482822
 30
0.0
 10
-0.7358620167
 20
-37.477241385
 30
0.0
 10
-0.8041379299
 20
-37.3220689444
 30
0.0
 11
-0.5068273428
 21
-37.6994647856
 31
0.0
 11
-0.8041379299
 21
-37.3220689444
 31
0.0
  0
SPLINE
  5
2FB
100
AcDbEntity
  8
0
100
AcDbSpline
 62
7
  6
CONTINUOUS
 70
0
 71
3
 72
8
 73
4
 74
2
 42
0.0000001
 43
0.0000001
 44
0.0000000001
 12
-0.602196984
 22
0.0
 32
0.0
 13
-0.399102653
 23
0.2953987464
 33
0.0
 40
0.0
 40
0.0
 40
0.0
 40
0.0
 40
1.0
 40
1.0
 40
1.0
 40
1.0
 10
-0.0054745897
 20
-37.8475862045
 30
0.0
 10
-0.2062069178
 20
-37.8475862045
 30
0.0
 10
-0.3737931252
 20
-37.7979310344
 30
0.0
 10
-0.5068273428
 20
-37.6994647856
 30
0.0
 11
-0.0054745897
 21
-37.8475862045
 31
0.0
 11
-0.5068273428
 21
-37.6994647856
 31
0.0
  0
SPLINE
  5
2FC
100
AcDbEntity
  8
0
100
AcDbSpline
 62
7
  6
CONTINUOUS
 70
0
 71
3
 72
8
 73
4
 74
2
 42
0.0000001
 43
0.0000001
 44
0.0000000001
 12
-0.3951396037
 22
-0.2924652674
 32
0.0
 13
-0.626768656
 23
0.0
 33
0.0
 40
0.0
 40
0.0
 40
0.0
 40
0.0
 40
1.0
 40
1.0
 40
1.0
 40
1.0
 10
0.5048165814
 20
-37.7004426119
 30
0.0
 10
0.3731033802
 20
-37.7979310344
 30
0.0
 10
0.2034482956
 20
-37.8475862045
 30
0.0
 10
-0.0054745897
 20
-37.8475862045
 30
0.0
 11
0.5048165814
 21
-37.7004426119
 31
0.0
 11
-0.0054745897
 21
-37.8475862045
 31
0.0
  0
SPLINE
  5
2FD
100
AcDbEntity
  8
0
100
AcDbSpline
 62
7
  6
CONTINUOUS
 70
0
 71
3
 72
8
 73
4
 74
2
 42
0.0000001
 43
0.0000001
 44
0.0000000001
 12
-0.2048280513
 22
-0.4655174206
 32
0.0
 13
-0.3931369495
 23
-0.2909829893
 33
0.0
 40
0.0
 40
0.0
 40
0.0
 40
0.0
 40
1.0
 40
1.0
 40
1.0
 40
1.0
 10
0.8034482888
 20
-37.3220689114
 30
0.0
 10
0.7351722717
 20
-37.477241385
 30
0.0
 10
0.6358622313
 20
-37.6034482822
 30
0.0
 10
0.5048165814
 20
-37.7004426119
 30
0.0
 11
0.8034482888
 21
-37.3220689114
 31
0.0
 11
0.5048165814
 21
-37.7004426119
 31
0.0
  0
SPLINE
  5
2FE
100
AcDbEntity
  8
0
100
AcDbSpline
 62
7
  6
CONTINUOUS
 70
0
 71
3
 72
8
 73
4
 74
2
 42
0.0000001
 43
0.0000001
 44
0.0000000001
 12
-0.0754423137
 22
-0.5469565024
 32
0.0
 13
-0.2048278773
 23
-0.4655170251
 33
0.0
 40
0.0
 40
0.0
 40
0.0
 40
0.0
 40
1.0
 40
1.0
 40
1.0
 40
1.0
 10
0.94445765
 20
-36.8169915282
 30
0.0
 10
0.9193102121
 20
-36.9993103623
 30
0.0
 10
0.8717242479
 20
-37.1668965697
 30
0.0
 10
0.8034482888
 20
-37.3220689114
 30
0.0
 11
0.94445765
 21
-36.8169915282
 31
0.0
 11
0.8034482888
 21
-37.3220689114
 31
0.0
  0
SPLINE
  5
2FF
100
AcDbEntity
  8
0
100
AcDbSpline
 62
7
  6
CONTINUOUS
 70
0
 71
3
 72
8
 73
4
 74
2
 42
0.0000001
 43
0.0000001
 44
0.0000000001
 12
0.0
 22
-0.5027586222
 32
0.0
 13
-0.0735232835
 23
-0.5330435405
 33
0.0
 40
0.0
 40
0.0
 40
0.0
 40
0.0
 40
1.0
 40
1.0
 40
1.0
 40
1.0
 10
0.9793105125
 20
-36.3
 30
0.0
 10
0.9793105125
 20
-36.4675862074
 30
0.0
 10
0.9689654112
 20
-36.639310348
 30
0.0
 10
0.94445765
 20
-36.8169915282
 30
0.0
 11
0.9793105125
 21
-36.3
 31
0.0
 11
0.94445765
 21
-36.8169915282
 31
0.0
  0
SPLINE
  5
300
100
AcDbEntity
  8
0
100
AcDbSpline
 62
7
  6
CONTINUOUS
 70
0
 71
3
 72
8
 73
4
 74
2
 42
0.0000001
 43
0.0000001
 44
0.0000000001
 12
0.0752130841
 22
-0.5452945886
 32
0.0
 13
0.0
 23
-0.5151724219
 33
0.0
 40
0.0
 40
0.0
 40
0.0
 40
0.0
 40
1.0
 40
1.0
 40
1.0
 40
1.0
 10
0.9438943832
 20
-35.7706489226
 30
0.0
 10
0.9689654112
 20
-35.9524137855
 30
0.0
 10
0.9793105125
 20
-36.1282758594
 30
0.0
 10
0.9793105125
 20
-36.3
 30
0.0
 11
0.9438943832
 21
-35.7706489226
 31
0.0
 11
0.9793105125
 21
-36.3
 31
0.0
  0
SPLINE
  5
301
100
AcDbEntity
  8
0
100
AcDbSpline
 62
7
  6
CONTINUOUS
 70
0
 71
3
 72
8
 73
4
 74
2
 42
0.0000001
 43
0.0000001
 44
0.0000000001
 12
0.2071184934
 22
-0.4707229609
 32
0.0
 13
0.0737525131
 23
-0.5347054543
 33
0.0
 40
0.0
 40
0.0
 40
0.0
 40
0.0
 40
1.0
 40
1.0
 40
1.0
 40
1.0
 10
0.8026847501
 20
-35.2699889661
 30
0.0
 10
0.8717242479
 20
-35.4268966198
 30
0.0
 10
0.9193102121
 20
-35.5924137712
 30
0.0
 10
0.9438943832
 20
-35.7706489226
 30
0.0
 11
0.8026847501
 21
-35.2699889661
 31
0.0
 11
0.9438943832
 21
-35.7706489226
 31
0.0
  0
SPLINE
  5
302
100
AcDbEntity
  8
0
100
AcDbSpline
 62
7
  6
CONTINUOUS
 70
0
 71
3
 72
8
 73
4
 74
2
 42
0.0000001
 43
0.0000001
 44
0.0000000001
 12
0.4006241238
 22
-0.2870611461
 32
0.0
 13
0.2025374352
 23
-0.4603114848
 33
0.0
 40
0.0
 40
0.0
 40
0.0
 40
0.0
 40
1.0
 40
1.0
 40
1.0
 40
1.0
 10
0.5023208566
 20
-34.8946577022
 30
0.0
 10
0.6358622313
 20
-34.9903447509
 30
0.0
 10
0.7351722717
 20
-35.1165518045
 30
0.0
 10
0.8026847501
 20
-35.2699889661
 30
0.0
 11
0.5023208566
 21
-34.8946577022
 31
0.0
 11
0.8026847501
 21
-35.2699889661
 31
0.0
  0
SPLINE
  5
303
100
AcDbEntity
  8
0
100
AcDbSpline
 62
7
  6
CONTINUOUS
 70
0
 71
3
 72
8
 73
4
 74
2
 42
0.0000001
 43
0.0000001
 44
0.0000000001
 12
0.6206899881
 22
-0.0124143362
 32
0.0
 13
0.3876524293
 23
-0.2777664749
 33
0.0
 40
0.0
 40
0.0
 40
0.0
 40
0.0
 40
1.0
 40
1.0
 40
1.0
 40
1.0
 10
-0.0034483671
 20
-34.7503448009
 30
0.0
 10
0.2034482956
 20
-34.754482913
 30
0.0
 10
0.3731033802
 20
-34.8020688772
 30
0.0
 10
0.5023208566
 20
-34.8946577022
 30
0.0
 11
-0.0034483671
 21
-34.7503448009
 31
0.0
 11
0.5023208566
 21
-34.8946577022
 31
0.0
  0
SPLINE
  5
304
100
AcDbEntity
  8
0
100
AcDbSpline
 62
7
  6
CONTINUOUS
 70
0
 71
3
 72
8
 73
4
 74
2
 42
0.0000001
 43
0.0000001
 44
0.0000000001
 12
-0.2762412357
 22
0.2516862175
 32
0.0
 13
-0.4779310226
 23
0.0124137998
 33
0.0
 40
0.0
 40
0.0
 40
0.0
 40
0.0
 40
1.0
 40
1.0
 40
1.0
 40
1.0
 10
0.3741492605
 20
-35.1569988218
 30
0.0
 10
0.2820688486
 20
-35.073103416
 30
0.0
 10
0.1558619738
 20
-35.0317240834
 30
0.0
 10
-0.0034483671
 20
-35.0275861502
 30
0.0
 11
0.3741492605
 21
-35.1569988218
 31
0.0
 11
-0.0034483671
 21
-35.0275861502
 31
0.0
  0
SPLINE
  5
305
100
AcDbEntity
  8
0
100
AcDbSpline
 62
7
  6
CONTINUOUS
 70
0
 71
3
 72
8
 73
4
 74
2
 42
0.0000001
 43
0.0000001
 44
0.0000000001
 12
-0.1396320621
 22
0.3940729531
 32
0.0
 13
-0.28238029
 23
0.2572795727
 33
0.0
 40
0.0
 40
0.0
 40
0.0
 40
0.0
 40
1.0
 40
1.0
 40
1.0
 40
1.0
 10
0.5830958539
 20
-35.4858403495
 30
0.0
 10
0.5365518332
 20
-35.3544826984
 30
0.0
 10
0.4682760239
 20
-35.2427586794
 30
0.0
 10
0.3741492605
 20
-35.1569988218
 30
0.0
 11
0.5830958539
 21
-35.4858403495
 31
0.0
 11
0.3741492605
 21
-35.1569988218
 31
0.0
  0
SPLINE
  5
306
100
AcDbEntity
  8
0
100
AcDbSpline
 62
7
  6
CONTINUOUS
 70
0
 71
3
 72
8
 73
4
 74
2
 42
0.0000001
 43
0.0000001
 44
0.0000000001
 12
-0.033961287
 22
0.4353266816
 32
0.0
 13
-0.1396781643
 23
0.3942030636
 33
0.0
 40
0.0
 40
0.0
 40
0.0
 40
0.0
 40
1.0
 40
1.0
 40
1.0
 40
1.0
 10
0.6720102598
 20
-35.8989020619
 30
0.0
 10
0.6606898308
 20
-35.7537931681
 30
0.0
 10
0.629655242
 20
-35.6172413707
 30
0.0
 10
0.5830958539
 20
-35.4858403495
 30
0.0
 11
0.6720102598
 21
-35.8989020619
 31
0.0
 11
0.5830958539
 21
-35.4858403495
 31
0.0
  0
SPLINE
  5
307
100
AcDbEntity
  8
0
100
AcDbSpline
 62
7
  6
CONTINUOUS
 70
0
 71
3
 72
8
 73
4
 74
2
 42
0.0000001
 43
0.0000001
 44
0.0000000001
 12
0.2747075831
 22
0.2594456697
 32
0.0
 13
0.137616026
 23
0.3883831816
 33
0.0
 40
0.0
 40
0.0
 40
0.0
 40
0.0
 40
1.0
 40
1.0
 40
1.0
 40
1.0
 10
0.3767068295
 20
-37.4416542886
 30
0.0
 10
0.4682760239
 20
-37.3551723987
 30
0.0
 10
0.5365518332
 20
-37.2475862235
 30
0.0
 10
0.5824238418
 20
-37.118125163
 30
0.0
 11
0.3767068295
 21
-37.4416542886
 31
0.0
 11
0.5824238418
 21
-37.118125163
 31
0.0
  0
SPLINE
  5
308
100
AcDbEntity
  8
0
100
AcDbSpline
 62
7
  6
CONTINUOUS
 70
0
 71
3
 72
8
 73
4
 74
2
 42
0.0000001
 43
0.0000001
 44
0.0000000001
 12
0.4779310226
 22
0.0
 32
0.0
 13
0.2839139427
 23
0.268140552
 33
0.0
 40
0.0
 40
0.0
 40
0.0
 40
0.0
 40
1.0
 40
1.0
 40
1.0
 40
1.0
 10
-0.0034483671
 20
-37.576551716
 30
0.0
 10
0.1558619738
 20
-37.576551716
 30
0.0
 10
0.2820688486
 20
-37.5310344726
 30
0.0
 10
0.3767068295
 20
-37.4416542886
 30
0.0
 11
-0.0034483671
 21
-37.576551716
 31
0.0
 11
0.3767068295
 21
-37.4416542886
 31
0.0
  0
SPLINE
  5
309
100
AcDbEntity
  8
0
100
AcDbSpline
 62
7
  6
CONTINUOUS
 70
0
 71
3
 72
8
 73
4
 74
2
 42
0.0000001
 43
0.0000001
 44
0.0000000001
 12
0.2840006672
 22
-0.2682224584
 32
0.0
 13
0.471724391
 23
0.0
 33
0.0
 40
0.0
 40
0.0
 40
0.0
 40
0.0
 40
1.0
 40
1.0
 40
1.0
 40
1.0
 10
-0.3794943599
 20
-37.4416269864
 30
0.0
 10
-0.2848274708
 20
-37.5310344726
 30
0.0
 10
-0.1606898308
 20
-37.576551716
 30
0.0
 10
-0.0034483671
 20
-37.576551716
 30
0.0
 11
-0.3794943599
 21
-37.4416269864
 31
0.0
 11
-0.0034483671
 21
-37.576551716
 31
0.0
  0
SPLINE
  5
30A
100
AcDbEntity
  8
0
100
AcDbSpline
 62
7
  6
CONTINUOUS
 70
0
 71
3
 72
8
 73
4
 74
2
 42
0.0000001
 43
0.0000001
 44
0.0000000001
 12
0.1321880963
 22
-0.3904154138
 32
0.0
 13
0.2746208585
 23
-0.2593637633
 33
0.0
 40
0.0
 40
0.0
 40
0.0
 40
0.0
 40
1.0
 40
1.0
 40
1.0
 40
1.0
 10
-0.5833729753
 20
-37.1174477522
 30
0.0
 10
-0.5393102765
 20
-37.2475862235
 30
0.0
 10
-0.471034646
 20
-37.3551723987
 30
0.0
 10
-0.3794943599
 20
-37.4416269864
 30
0.0
 11
-0.5833729753
 21
-37.1174477522
 31
0.0
 11
-0.3794943599
 21
-37.4416269864
 31
0.0
  0
SPLINE
  5
30B
100
AcDbEntity
  8
0
100
AcDbSpline
 62
7
  6
CONTINUOUS
 70
0
 71
3
 72
8
 73
4
 74
2
 42
0.0000001
 43
0.0000001
 44
0.0000000001
 12
0.0475809931
 22
-0.4409183357
 32
0.0
 13
0.1347088668
 23
-0.3978604688
 33
0.0
 40
0.0
 40
0.0
 40
0.0
 40
0.0
 40
1.0
 40
1.0
 40
1.0
 40
1.0
 10
-0.6731017947
 20
-36.6971651761
 30
0.0
 10
-0.6572414637
 20
-36.8441379547
 30
0.0
 10
-0.6282759309
 20
-36.9848275959
 30
0.0
 10
-0.5833729753
 20
-37.1174477522
 30
0.0
 11
-0.6731017947
 21
-36.6971651761
 31
0.0
 11
-0.5833729753
 21
-37.1174477522
 31
0.0
  0
SPLINE
  5
30C
100
AcDbEntity
  8
0
100
AcDbSpline
 62
7
  6
CONTINUOUS
 70
0
 71
3
 72
8
 73
4
 74
2
 42
0.0000001
 43
0.0000001
 44
0.0000000001
 12
0.0
 22
-0.3662068248
 32
0.0
 13
0.0455222369
 23
-0.4218404796
 33
0.0
 40
0.0
 40
0.0
 40
0.0
 40
0.0
 40
1.0
 40
1.0
 40
1.0
 40
1.0
 10
-0.6965517402
 20
-36.3020689666
 30
0.0
 10
-0.6965517402
 20
-36.4241379082
 30
0.0
 10
-0.6882758737
 20
-36.5565516829
 30
0.0
 10
-0.6731017947
 20
-36.6971651761
 30
0.0
 11
-0.6965517402
 21
-36.3020689666
 31
0.0
 11
-0.6731017947
 21
-36.6971651761
 31
0.0
  0
SPLINE
  5
30D
100
AcDbEntity
  8
0
100
AcDbSpline
 62
7
  6
CONTINUOUS
 70
0
 71
3
 72
8
 73
4
 74
2
 42
0.0000001
 43
0.0000001
 44
0.0000000001
 12
-0.0468447551
 22
-0.4403415618
 32
0.0
 13
0.0
 23
-0.366207093
 33
0.0
 40
0.0
 40
0.0
 40
0.0
 40
0.0
 40
1.0
 40
1.0
 40
1.0
 40
1.0
 10
-0.6726609553
 20
-35.8987366737
 30
0.0
 10
-0.6882758737
 20
-36.0455171943
 30
0.0
 10
-0.6965517402
 20
-36.1799999356
 30
0.0
 10
-0.6965517402
 20
-36.3020689666
 30
0.0
 11
-0.6726609553
 21
-35.8987366737
 31
0.0
 11
-0.6965517402
 21
-36.3020689666
 31
0.0
  0
SPLINE
  5
30E
100
AcDbEntity
  8
0
100
AcDbSpline
 62
7
  6
CONTINUOUS
 70
0
 71
3
 72
8
 73
4
 74
2
 42
0.0000001
 43
0.0000001
 44
0.0000000001
 12
-0.1328308996
 22
-0.3923139897
 32
0.0
 13
-0.0462584749
 23
-0.4348305168
 33
0.0
 40
0.0
 40
0.0
 40
0.0
 40
0.0
 40
1.0
 40
1.0
 40
1.0
 40
1.0
 10
-0.5839989644
 20
-35.4864700408
 30
0.0
 10
-0.6282759309
 20
-35.6172413707
 30
0.0
 10
-0.6572414637
 20
-35.7537931681
 30
0.0
 10
-0.6726609553
 20
-35.8987366737
 30
0.0
 11
-0.5839989644
 21
-35.4864700408
 31
0.0
 11
-0.6726609553
 21
-35.8987366737
 31
0.0
  0
SPLINE
  5
30F
100
AcDbEntity
  8
0
100
AcDbSpline
 62
7
  6
CONTINUOUS
 70
0
 71
3
 72
8
 73
4
 74
2
 42
0.0000001
 43
0.0000001
 44
0.0000000001
 12
-0.2824214685
 22
-0.2573170909
 32
0.0
 13
-0.1340660635
 23
-0.3959620271
 33
0.0
 40
0.0
 40
0.0
 40
0.0
 40
0.0
 40
1.0
 40
1.0
 40
1.0
 40
1.0
 10
-0.3768941565
 20
-35.1569863158
 30
0.0
 10
-0.471034646
 20
-35.2427586794
 30
0.0
 10
-0.5393102765
 20
-35.3544826984
 30
0.0
 10
-0.5839989644
 20
-35.4864700408
 30
0.0
 11
-0.3768941565
 21
-35.1569863158
 31
0.0
 11
-0.5839989644
 21
-35.4864700408
 31
0.0
  0
SPLINE
  5
310
100
AcDbEntity
  8
0
100
AcDbSpline
 62
7
  6
CONTINUOUS
 70
0
 71
3
 72
8
 73
4
 74
2
 42
0.0000001
 43
0.0000001
 44
0.0000000001
 12
-0.471724391
 22
-0.0124137998
 32
0.0
 13
-0.2762000572
 23
-0.2516486994
 33
0.0
 40
0.0
 40
0.0
 40
0.0
 40
0.0
 40
1.0
 40
1.0
 40
1.0
 40
1.0
 10
-0.0034483671
 20
-35.0275861502
 30
0.0
 10
-0.1606898308
 20
-35.0317240834
 30
0.0
 10
-0.2848274708
 20
-35.073103416
 30
0.0
 10
-0.3768941565
 20
-35.1569863158
 30
0.0
 11
-0.0034483671
 21
-35.0275861502
 31
0.0
 11
-0.3768941565
 21
-35.1569863158
 31
0.0
  0
SPLINE
  5
311
100
AcDbEntity
  8
0
100
AcDbSpline
 62
7
  6
CONTINUOUS
 70
0
 71
3
 72
8
 73
4
 74
2
 42
0.0000001
 43
0.0000001
 44
0.0000000001
 12
0.0076549486
 22
1.2478098759
 32
0.0
 13
1.0551724434
 23
0.3289656937
 33
0.0
 40
0.0
 40
0.0
 40
0.0
 40
0.0
 40
1.0
 40
1.0
 40
1.0
 40
1.0
 10
1.4360689178
 20
-37.001453841
 30
0.0
 10
1.4386205673
 20
-36.5855172157
 30
0.0
 10
1.6206896305
 20
-36.3227586329
 30
0.0
 10
1.9724137783
 20
-36.2131034017
 30
0.0
 11
1.4360689178
 21
-37.001453841
 31
0.0
 11
1.9724137783
 21
-36.2131034017
 31
0.0
  0
SPLINE
  5
312
100
AcDbEntity
  8
0
100
AcDbSpline
 62
7
  6
CONTINUOUS
 70
0
 71
3
 72
8
 73
4
 74
2
 42
0.0000001
 43
0.0000001
 44
0.0000000001
 12
-0.5485506688
 22
0.463917231
 32
0.0
 13
0.0047583148
 23
0.7756384125
 33
0.0
 40
0.0
 40
0.0
 40
0.0
 40
0.0
 40
1.0
 40
1.0
 40
1.0
 40
1.0
 10
1.7104364446
 20
-37.6215356288
 30
0.0
 10
1.5275862217
 20
-37.4668965518
 30
0.0
 10
1.4344828129
 20
-37.2599999785
 30
0.0
 10
1.4360689178
 20
-37.001453841
 30
0.0
 11
1.7104364446
 21
-37.6215356288
 31
0.0
 11
1.4360689178
 21
-37.001453841
 31
0.0
  0
SPLINE
  5
313
100
AcDbEntity
  8
0
100
AcDbSpline
 62
7
  6
CONTINUOUS
 70
0
 71
3
 72
8
 73
4
 74
2
 42
0.0000001
 43
0.0000001
 44
0.0000000001
 12
-0.7511361311
 22
0.0
 32
0.0
 13
-0.5376560057
 23
0.4547034569
 33
0.0
 40
0.0
 40
0.0
 40
0.0
 40
0.0
 40
1.0
 40
1.0
 40
1.0
 40
1.0
 10
2.3531374756
 20
-37.8475862045
 30
0.0
 10
2.1027587652
 20
-37.8475862045
 30
0.0
 10
1.8896551132
 20
-37.7731034478
 30
0.0
 10
1.7104364446
 20
-37.6215356288
 30
0.0
 11
2.3531374756
 21
-37.8475862045
 31
0.0
 11
1.7104364446
 21
-37.6215356288
 31
0.0
  0
SPLINE
  5
314
100
AcDbEntity
  8
0
100
AcDbSpline
 62
7
  6
CONTINUOUS
 70
0
 71
3
 72
8
 73
4
 74
2
 42
0.0000001
 43
0.0000001
 44
0.0000000001
 12
-0.5302355206
 22
-0.456249386
 32
0.0
 13
-0.7695529987
 23
0.0
 33
0.0
 40
0.0
 40
0.0
 40
0.0
 40
0.0
 40
1.0
 40
1.0
 40
1.0
 40
1.0
 10
3.0015728446
 20
-37.6189513553
 30
0.0
 10
2.8248276711
 20
-37.771034484
 30
0.0
 10
2.6096551418
 20
-37.8475862045
 30
0.0
 10
2.3531374756
 20
-37.8475862045
 30
0.0
 11
3.0015728446
 21
-37.6189513553
 31
0.0
 11
2.3531374756
 21
-37.8475862045
 31
0.0
  0
SPLINE
  5
315
100
AcDbEntity
  8
0
100
AcDbSpline
 62
7
  6
CONTINUOUS
 70
0
 71
3
 72
8
 73
4
 74
2
 42
0.0000001
 43
0.0000001
 44
0.0000000001
 12
0.0071987945
 22
-0.7822573246
 32
0.0
 13
-0.5373501861
 23
-0.4623713103
 33
0.0
 40
0.0
 40
0.0
 40
0.0
 40
0.0
 40
1.0
 40
1.0
 40
1.0
 40
1.0
 10
3.2693248643
 20
-36.999247537
 30
0.0
 10
3.2717244625
 20
-37.2599999785
 30
0.0
 10
3.1806895733
 20
-37.4648275852
 30
0.0
 10
3.0015728446
 20
-37.6189513553
 30
0.0
 11
3.2693248643
 21
-36.999247537
 31
0.0
 11
3.0015728446
 21
-37.6189513553
 31
0.0
  0
SPLINE
  5
316
100
AcDbEntity
  8
0
100
AcDbSpline
 62
7
  6
CONTINUOUS
 70
0
 71
3
 72
8
 73
4
 74
2
 42
0.0000001
 43
0.0000001
 44
0.0000000001
 12
1.0551724434
 22
-0.3599999249
 32
0.0
 13
0.0114221733
 23
-1.2411909639
 33
0.0
 40
0.0
 40
0.0
 40
0.0
 40
0.0
 40
1.0
 40
1.0
 40
1.0
 40
1.0
 10
2.7337927818
 20
-36.2027586579
 30
0.0
 10
3.0855169296
 20
-36.3227586329
 30
0.0
 10
3.2655174732
 20
-36.5855172157
 30
0.0
 10
3.2693248643
 20
-36.999247537
 30
0.0
 11
2.7337927818
 21
-36.2027586579
 31
0.0
 11
3.2693248643
 21
-36.999247537
 31
0.0
  0
SPLINE
  5
317
100
AcDbEntity
  8
0
100
AcDbSpline
 62
7
  6
CONTINUOUS
 70
0
 71
3
 72
8
 73
4
 74
2
 42
0.0000001
 43
0.0000001
 44
0.0000000001
 12
-0.1644556225
 22
-0.1328297094
 32
0.0
 13
-0.1924152374
 23
-0.0744827986
 33
0.0
 40
0.0
 40
0.0
 40
0.0
 40
0.0
 40
1.0
 40
1.0
 40
1.0
 40
1.0
 10
2.9127496779
 20
-36.0984819665
 30
0.0
 10
2.8579311371
 20
-36.1427585363
 30
0.0
 10
2.7979311943
 20
-36.1779310584
 30
0.0
 10
2.7337927818
 20
-36.2027586579
 30
0.0
 11
2.9127496779
 21
-36.0984819665
 31
0.0
 11
2.7337927818
 21
-36.2027586579
 31
0.0
  0
SPLINE
  5
318
100
AcDbEntity
  8
0
100
AcDbSpline
 62
7
  6
CONTINUOUS
 70
0
 71
3
 72
8
 73
4
 74
2
 42
0.0000001
 43
0.0000001
 44
0.0000000001
 12
-0.1109525905
 22
-0.1767018134
 32
0.0
 13
-0.1583020985
 23
-0.1278595491
 33
0.0
 40
0.0
 40
0.0
 40
0.0
 40
0.0
 40
1.0
 40
1.0
 40
1.0
 40
1.0
 10
3.0480186855
 20
-35.9452372573
 30
0.0
 10
3.0110344887
 20
-36.0041378617
 30
0.0
 10
2.9655170441
 20
-36.0558621168
 30
0.0
 10
2.9127496779
 20
-36.0984819665
 30
0.0
 11
3.0480186855
 21
-35.9452372573
 31
0.0
 11
2.9127496779
 21
-36.0984819665
 31
0.0
  0
SPLINE
  5
319
100
AcDbEntity
  8
0
100
AcDbSpline
 62
7
  6
CONTINUOUS
 70
0
 71
3
 72
8
 73
4
 74
2
 42
0.0000001
 43
0.0000001
 44
0.0000000001
 12
0.0
 22
-0.47176467
 32
0.0
 13
-0.2242205395
 23
-0.35709104
 33
0.0
 40
0.0
 40
0.0
 40
0.0
 40
0.0
 40
1.0
 40
1.0
 40
1.0
 40
1.0
 10
3.1620693207
 20
-35.5324002232
 30
0.0
 10
3.1620693207
 20
-35.6896551132
 30
0.0
 10
3.1227588654
 20
-35.8262069106
 30
0.0
 10
3.0480186855
 20
-35.9452372573
 30
0.0
 11
3.1620693207
 21
-35.5324002232
 31
0.0
 11
3.0480186855
 21
-35.9452372573
 31
0.0
  0
SPLINE
  5
31A
100
AcDbEntity
  8
0
100
AcDbSpline
 62
7
  6
CONTINUOUS
 70
0
 71
3
 72
8
 73
4
 74
2
 42
0.0000001
 43
0.0000001
 44
0.0000000001
 12
0.4767794011
 22
-0.4171818404
 32
0.0
 13
0.0
 23
-0.7261662024
 33
0.0
 40
0.0
 40
0.0
 40
0.0
 40
0.0
 40
1.0
 40
1.0
 40
1.0
 40
1.0
 10
2.9224527082
 20
-34.9609394581
 30
0.0
 10
3.0813791752
 20
-35.1000000715
 30
0.0
 10
3.1620693207
 20
-35.2903448224
 30
0.0
 10
3.1620693207
 20
-35.5324002232
 30
0.0
 11
2.9224527082
 21
-34.9609394581
 31
0.0
 11
3.1620693207
 21
-35.5324002232
 31
0.0
  0
SPLINE
  5
31B
100
AcDbEntity
  8
0
100
AcDbSpline
 62
7
  6
CONTINUOUS
 70
0
 71
3
 72
8
 73
4
 74
2
 42
0.0000001
 43
0.0000001
 44
0.0000000001
 12
0.6704601299
 22
0.0
 32
0.0
 13
0.4666693809
 23
-0.4083355756
 33
0.0
 40
0.0
 40
0.0
 40
0.0
 40
0.0
 40
1.0
 40
1.0
 40
1.0
 40
1.0
 10
2.3530649658
 20
-34.754482913
 30
0.0
 10
2.5765516758
 20
-34.754482913
 30
0.0
 10
2.7668962479
 20
-34.8248275995
 30
0.0
 10
2.9224527082
 20
-34.9609394581
 30
0.0
 11
2.3530649658
 21
-34.754482913
 31
0.0
 11
2.9224527082
 21
-34.9609394581
 31
0.0
  0
SPLINE
  5
31C
100
AcDbEntity
  8
0
100
AcDbSpline
 62
7
  6
CONTINUOUS
 70
0
 71
3
 72
8
 73
4
 74
2
 42
0.0000001
 43
0.0000001
 44
0.0000000001
 12
0.461518319
 22
0.4065031072
 32
0.0
 13
0.6764358033
 23
0.0
 33
0.0
 40
0.0
 40
0.0
 40
0.0
 40
0.0
 40
1.0
 40
1.0
 40
1.0
 40
1.0
 10
1.7854708726
 20
-34.9603286352
 30
0.0
 10
1.9393103123
 20
-34.8248275995
 30
0.0
 10
2.1275863647
 20
-34.754482913
 30
0.0
 10
2.3530649658
 20
-34.754482913
 30
0.0
 11
1.7854708726
 21
-34.9603286352
 31
0.0
 11
2.3530649658
 21
-34.754482913
 31
0.0
  0
SPLINE
  5
31D
100
AcDbEntity
  8
0
100
AcDbSpline
 62
7
  6
CONTINUOUS
 70
0
 71
3
 72
8
 73
4
 74
2
 42
0.0000001
 43
0.0000001
 44
0.0000000001
 12
0.0037948133
 22
0.7324301166
 32
0.0
 13
0.4757227584
 23
0.4190143088
 33
0.0
 40
0.0
 40
0.0
 40
0.0
 40
0.0
 40
1.0
 40
1.0
 40
1.0
 40
1.0
 10
1.542873017
 20
-35.5344881946
 30
0.0
 10
1.5441379547
 20
-35.2903448224
 30
0.0
 10
1.6268966198
 20
-35.1000000715
 30
0.0
 10
1.7854708726
 20
-34.9603286352
 30
0.0
 11
1.542873017
 21
-35.5344881946
 31
0.0
 11
1.7854708726
 21
-34.9603286352
 31
0.0
  0
SPLINE
  5
31E
100
AcDbEntity
  8
0
100
AcDbSpline
 62
7
  6
CONTINUOUS
 70
0
 71
3
 72
8
 73
4
 74
2
 42
0.0000001
 43
0.0000001
 44
0.0000000001
 12
-0.2392031871
 22
0.3557376789
 32
0.0
 13
0.0024118184
 23
0.4655007558
 33
0.0
 40
0.0
 40
0.0
 40
0.0
 40
0.0
 40
1.0
 40
1.0
 40
1.0
 40
1.0
 10
1.6611135709
 20
-35.9468550141
 30
0.0
 10
1.5813791752
 20
-35.8282757878
 30
0.0
 10
1.5420690775
 20
-35.6896551132
 30
0.0
 10
1.542873017
 20
-35.5344881946
 30
0.0
 11
1.6611135709
 21
-35.9468550141
 31
0.0
 11
1.542873017
 21
-35.5344881946
 31
0.0
  0
SPLINE
  5
31F
100
AcDbEntity
  8
0
100
AcDbSpline
 62
7
  6
CONTINUOUS
 70
0
 71
3
 72
8
 73
4
 74
2
 42
0.0000001
 43
0.0000001
 44
0.0000000001
 12
-0.3786206245
 22
0.1799998283
 32
0.0
 13
-0.2449355401
 23
0.3642627073
 33
0.0
 40
0.0
 40
0.0
 40
0.0
 40
0.0
 40
1.0
 40
1.0
 40
1.0
 40
1.0
 10
1.9724137783
 20
-36.2131034017
 30
0.0
 10
1.8462069035
 20
-36.1531034589
 30
0.0
 10
1.7427587509
 20
-36.0682759166
 30
0.0
 10
1.6611135709
 20
-35.9468550141
 30
0.0
 11
1.9724137783
 21
-36.2131034017
 31
0.0
 11
1.6611135709
 21
-35.9468550141
 31
0.0
  0
SPLINE
  5
320
100
AcDbEntity
  8
0
100
AcDbSpline
 62
7
  6
CONTINUOUS
 70
0
 71
3
 72
8
 73
4
 74
2
 42
0.0000001
 43
0.0000001
 44
0.0000000001
 12
0.2749968052
 22
0.2899416098
 32
0.0
 13
0.0124132633
 23
0.4655172229
 33
0.0
 40
0.0
 40
0.0
 40
0.0
 40
0.0
 40
1.0
 40
1.0
 40
1.0
 40
1.0
 10
2.7290243149
 20
-35.9373367909
 30
0.0
 10
2.8206899166
 20
-35.8406895876
 30
0.0
 10
2.8682758808
 20
-35.7144827127
 30
0.0
 10
2.8724136353
 20
-35.5593103051
 30
0.0
 11
2.7290243149
 21
-35.9373367909
 31
0.0
 11
2.8724136353
 21
-35.5593103051
 31
0.0
  0
SPLINE
  5
321
100
AcDbEntity
  8
0
100
AcDbSpline
 62
7
  6
CONTINUOUS
 70
0
 71
3
 72
8
 73
4
 74
2
 42
0.0000001
 43
0.0000001
 44
0.0000000001
 12
0.4531034231
 22
0.0
 32
0.0
 13
0.2960390568
 23
0.3121274105
 33
0.0
 40
0.0
 40
0.0
 40
0.0
 40
0.0
 40
1.0
 40
1.0
 40
1.0
 40
1.0
 10
2.3531032801
 20
-36.0931035161
 30
0.0
 10
2.5041377544
 20
-36.0931035161
 30
0.0
 10
2.6303446293
 20
-36.041379261
 30
0.0
 10
2.7290243149
 20
-35.9373367909
 30
0.0
 11
2.3531032801
 21
-36.0931035161
 31
0.0
 11
2.7290243149
 21
-35.9373367909
 31
0.0
  0
SPLINE
  5
322
100
AcDbEntity
  8
0
100
AcDbSpline
 62
7
  6
CONTINUOUS
 70
0
 71
3
 72
8
 73
4
 74
2
 42
0.0000001
 43
0.0000001
 44
0.0000000001
 12
0.3042011497
 22
-0.3042011497
 32
0.0
 13
0.4344824553
 23
0.0
 33
0.0
 40
0.0
 40
0.0
 40
0.0
 40
0.0
 40
1.0
 40
1.0
 40
1.0
 40
1.0
 10
1.984806649
 20
-35.9399788778
 30
0.0
 10
2.0862070322
 20
-36.041379261
 30
0.0
 10
2.208275795
 20
-36.0931035161
 30
0.0
 10
2.3531032801
 20
-36.0931035161
 30
0.0
 11
1.984806649
 21
-35.9399788778
 31
0.0
 11
2.3531032801
 21
-36.0931035161
 31
0.0
  0
SPLINE
  5
323
100
AcDbEntity
  8
0
100
AcDbSpline
 62
7
  6
CONTINUOUS
 70
0
 71
3
 72
8
 73
4
 74
2
 42
0.0000001
 43
0.0000001
 44
0.0000000001
 12
0.0
 22
-0.4655172229
 32
0.0
 13
0.2978678706
 23
-0.2978678706
 33
0.0
 40
0.0
 40
0.0
 40
0.0
 40
0.0
 40
1.0
 40
1.0
 40
1.0
 40
1.0
 10
1.8337929249
 20
-35.5593103051
 30
0.0
 10
1.8337929249
 20
-35.7144827127
 30
0.0
 10
1.8855173588
 20
-35.8406895876
 30
0.0
 10
1.984806649
 20
-35.9399788778
 30
0.0
 11
1.8337929249
 21
-35.5593103051
 31
0.0
 11
1.984806649
 21
-35.9399788778
 31
0.0
  0
SPLINE
  5
324
100
AcDbEntity
  8
0
100
AcDbSpline
 62
7
  6
CONTINUOUS
 70
0
 71
3
 72
8
 73
4
 74
2
 42
0.0000001
 43
0.0000001
 44
0.0000000001
 12
-0.3042017625
 22
-0.2916573543
 32
0.0
 13
0.0
 23
-0.4717238545
 33
0.0
 40
0.0
 40
0.0
 40
0.0
 40
0.0
 40
1.0
 40
1.0
 40
1.0
 40
1.0
 10
1.9869179463
 20
-35.1765739713
 30
0.0
 10
1.8855173588
 20
-35.2737930894
 30
0.0
 10
1.8337929249
 20
-35.4020690203
 30
0.0
 10
1.8337929249
 20
-35.5593103051
 30
0.0
 11
1.9869179463
 21
-35.1765739713
 31
0.0
 11
1.8337929249
 21
-35.5593103051
 31
0.0
  0
SPLINE
  5
325
100
AcDbEntity
  8
0
100
AcDbSpline
 62
7
  6
CONTINUOUS
 70
0
 71
3
 72
8
 73
4
 74
2
 42
0.0000001
 43
0.0000001
 44
0.0000000001
 12
-0.4346597593
 22
0.0
 32
0.0
 13
-0.2978672578
 23
-0.2855840664
 33
0.0
 40
0.0
 40
0.0
 40
0.0
 40
0.0
 40
1.0
 40
1.0
 40
1.0
 40
1.0
 10
2.3531623814
 20
-35.0317240834
 30
0.0
 10
2.208275795
 20
-35.0317240834
 30
0.0
 10
2.0862070322
 20
-35.0813792825
 30
0.0
 10
1.9869179463
 20
-35.1765739713
 30
0.0
 11
2.3531623814
 21
-35.0317240834
 31
0.0
 11
1.9869179463
 21
-35.1765739713
 31
0.0
  0
SPLINE
  5
326
100
AcDbEntity
  8
0
100
AcDbSpline
 62
7
  6
CONTINUOUS
 70
0
 71
3
 72
8
 73
4
 74
2
 42
0.0000001
 43
0.0000001
 44
0.0000000001
 12
-0.2902091769
 22
0.293362937
 32
0.0
 13
-0.4529261191
 23
0.0
 33
0.0
 40
0.0
 40
0.0
 40
0.0
 40
0.0
 40
1.0
 40
1.0
 40
1.0
 40
1.0
 10
2.7270810216
 20
-35.1791669281
 30
0.0
 10
2.6303446293
 20
-35.0813792825
 30
0.0
 10
2.5041377544
 20
-35.0317240834
 30
0.0
 10
2.3531623814
 20
-35.0317240834
 30
0.0
 11
2.7270810216
 21
-35.1791669281
 31
0.0
 11
2.3531623814
 21
-35.0317240834
 31
0.0
  0
SPLINE
  5
327
100
AcDbEntity
  8
0
100
AcDbSpline
 62
7
  6
CONTINUOUS
 70
0
 71
3
 72
8
 73
4
 74
2
 42
0.0000001
 43
0.0000001
 44
0.0000000001
 12
-0.0124132633
 22
0.4717238545
 32
0.0
 13
-0.2808266851
 23
0.2838784838
 33
0.0
 40
0.0
 40
0.0
 40
0.0
 40
0.0
 40
1.0
 40
1.0
 40
1.0
 40
1.0
 10
2.8724136353
 20
-35.5593103051
 30
0.0
 10
2.8682758808
 20
-35.4020690203
 30
0.0
 10
2.8206899166
 20
-35.2737930894
 30
0.0
 10
2.7270810216
 20
-35.1791669281
 30
0.0
 11
2.8724136353
 21
-35.5593103051
 31
0.0
 11
2.7270810216
 21
-35.1791669281
 31
0.0
  0
SPLINE
  5
328
100
AcDbEntity
  8
0
100
AcDbSpline
 62
7
  6
CONTINUOUS
 70
0
 71
3
 72
8
 73
4
 74
2
 42
0.0000001
 43
0.0000001
 44
0.0000000001
 12
0.3306070065
 22
0.3397898253
 32
0.0
 13
0.0124132633
 23
0.5400000215
 33
0.0
 40
0.0
 40
0.0
 40
0.0
 40
0.0
 40
1.0
 40
1.0
 40
1.0
 40
1.0
 10
2.8139357336
 20
-37.3960218865
 30
0.0
 10
2.9241380692
 20
-37.2827586114
 30
0.0
 10
2.9800002575
 20
-37.1379310369
 30
0.0
 10
2.9841380119
 20
-36.9579310298
 30
0.0
 11
2.8139357336
 21
-37.3960218865
 31
0.0
 11
2.9841380119
 21
-36.9579310298
 31
0.0
  0
SPLINE
  5
329
100
AcDbEntity
  8
0
100
AcDbSpline
 62
7
  6
CONTINUOUS
 70
0
 71
3
 72
8
 73
4
 74
2
 42
0.0000001
 43
0.0000001
 44
0.0000000001
 12
0.5835800993
 22
0.0
 32
0.0
 13
0.3397392535
 23
0.3491757262
 33
0.0
 40
0.0
 40
0.0
 40
0.0
 40
0.0
 40
1.0
 40
1.0
 40
1.0
 40
1.0
 10
2.3530592644
 20
-37.5724137828
 30
0.0
 10
2.5475859642
 20
-37.5724137828
 30
0.0
 10
2.7006893158
 20
-37.5124137953
 30
0.0
 10
2.8139357336
 20
-37.3960218865
 30
0.0
 11
2.3530592644
 21
-37.5724137828
 31
0.0
 11
2.8139357336
 21
-37.3960218865
 31
0.0
  0
SPLINE
  5
32A
100
AcDbEntity
  8
0
100
AcDbSpline
 62
7
  6
CONTINUOUS
 70
0
 71
3
 72
8
 73
4
 74
2
 42
0.0000001
 43
0.0000001
 44
0.0000000001
 12
0.3398870615
 22
-0.3429770464
 32
0.0
 13
0.577108301
 23
0.0
 33
0.0
 40
0.0
 40
0.0
 40
0.0
 40
0.0
 40
1.0
 40
1.0
 40
1.0
 40
1.0
 10
1.8963593116
 20
-37.3980881132
 30
0.0
 10
2.0096549988
 20
-37.5124137953
 30
0.0
 10
2.1606898308
 20
-37.5724137828
 30
0.0
 10
2.3530592644
 20
-37.5724137828
 30
0.0
 11
1.8963593116
 21
-37.3980881132
 31
0.0
 11
2.3530592644
 21
-37.5724137828
 31
0.0
  0
SPLINE
  5
32B
100
AcDbEntity
  8
0
100
AcDbSpline
 62
7
  6
CONTINUOUS
 70
0
 71
3
 72
8
 73
4
 74
2
 42
0.0000001
 43
0.0000001
 44
0.0000000001
 12
0.0
 22
-0.5400000215
 32
0.0
 13
0.3428713891
 23
-0.3459885052
 33
0.0
 40
0.0
 40
0.0
 40
0.0
 40
0.0
 40
1.0
 40
1.0
 40
1.0
 40
1.0
 10
1.7241377831
 20
-36.9579310298
 30
0.0
 10
1.7241377831
 20
-37.1379310369
 30
0.0
 10
1.7820688486
 20
-37.2827586114
 30
0.0
 10
1.8963593116
 20
-37.3980881132
 30
0.0
 11
1.7241377831
 21
-36.9579310298
 31
0.0
 11
1.8963593116
 21
-37.3980881132
 31
0.0
  0
SPLINE
  5
32C
100
AcDbEntity
  8
0
100
AcDbSpline
 62
7
  6
CONTINUOUS
 70
0
 71
3
 72
8
 73
4
 74
2
 42
0.0000001
 43
0.0000001
 44
0.0000000001
 12
-0.3429912092
 22
-0.3398732396
 32
0.0
 13
0.0
 23
-0.5400000215
 33
0.0
 40
0.0
 40
0.0
 40
0.0
 40
0.0
 40
1.0
 40
1.0
 40
1.0
 40
1.0
 10
1.8963992517
 20
-36.5177434017
 30
0.0
 10
1.7820688486
 20
-36.6310344815
 30
0.0
 10
1.7241377831
 20
-36.7779310226
 30
0.0
 10
1.7241377831
 20
-36.9579310298
 30
0.0
 11
1.8963992517
 21
-36.5177434017
 31
0.0
 11
1.7241377831
 21
-36.9579310298
 31
0.0
  0
SPLINE
  5
32D
100
AcDbEntity
  8
0
100
AcDbSpline
 62
7
  6
CONTINUOUS
 70
0
 71
3
 72
8
 73
4
 74
2
 42
0.0000001
 43
0.0000001
 44
0.0000000001
 12
-0.5773738145
 22
0.0
 32
0.0
 13
-0.3397672413
 23
-0.3366785793
 33
0.0
 40
0.0
 40
0.0
 40
0.0
 40
0.0
 40
1.0
 40
1.0
 40
1.0
 40
1.0
 10
2.3531477689
 20
-36.3475862324
 30
0.0
 10
2.1606898308
 20
-36.3475862324
 30
0.0
 10
2.0096549988
 20
-36.4055172086
 30
0.0
 10
1.8963992517
 20
-36.5177434017
 30
0.0
 11
2.3531477689
 21
-36.3475862324
 31
0.0
 11
1.8963992517
 21
-36.5177434017
 31
0.0
  0
SPLINE
  5
32E
100
AcDbEntity
  8
0
100
AcDbSpline
 62
7
  6
CONTINUOUS
 70
0
 71
3
 72
8
 73
4
 74
2
 42
0.0000001
 43
0.0000001
 44
0.0000000001
 12
-0.3398037179
 22
0.3429493638
 32
0.0
 13
-0.5833145858
 23
0.0
 33
0.0
 40
0.0
 40
0.0
 40
0.0
 40
0.0
 40
1.0
 40
1.0
 40
1.0
 40
1.0
 10
2.8139572218
 20
-36.5198336632
 30
0.0
 10
2.7006893158
 20
-36.4055172086
 30
0.0
 10
2.5475859642
 20
-36.3475862324
 30
0.0
 10
2.3531477689
 20
-36.3475862324
 30
0.0
 11
2.8139572218
 21
-36.5198336632
 31
0.0
 11
2.3531477689
 21
-36.3475862324
 31
0.0
  0
SPLINE
  5
32F
100
AcDbEntity
  8
0
100
AcDbSpline
 62
7
  6
CONTINUOUS
 70
0
 71
3
 72
8
 73
4
 74
2
 42
0.0000001
 43
0.0000001
 44
0.0000000001
 12
-0.0124132633
 22
0.5400000215
 32
0.0
 13
-0.3305425422
 23
0.3336024551
 33
0.0
 40
0.0
 40
0.0
 40
0.0
 40
0.0
 40
1.0
 40
1.0
 40
1.0
 40
1.0
 10
2.9841380119
 20
-36.9579310298
 30
0.0
 10
2.9800002575
 20
-36.7779310226
 30
0.0
 10
2.9241380692
 20
-36.6310344815
 30
0.0
 10
2.8139572218
 20
-36.5198336632
 30
0.0
 11
2.9841380119
 21
-36.9579310298
 31
0.0
 11
2.8139572218
 21
-36.5198336632
 31
0.0
  0
SPLINE
  5
330
100
AcDbEntity
  8
0
100
AcDbSpline
 62
7
  6
CONTINUOUS
 70
0
 71
3
 72
8
 73
4
 74
2
 42
0.0000001
 43
0.0000001
 44
0.0000000001
 12
-0.2807776096
 22
0.3918545189
 32
0.0
 13
-0.0124143362
 23
0.6082756519
 33
0.0
 40
0.0
 40
0.0
 40
0.0
 40
0.0
 40
1.0
 40
1.0
 40
1.0
 40
1.0
 10
60.0956614138
 20
-1.0044112981
 30
0.0
 10
60.0020688772
 20
-0.8737931252
 30
0.0
 10
59.954482913
 20
-0.7062069178
 30
0.0
 10
59.9503448009
 20
-0.5034483671
 30
0.0
 11
60.0956614138
 21
-1.0044112981
 31
0.0
 11
59.9503448009
 21
-0.5034483671
 31
0.0
  0
SPLINE
  5
331
100
AcDbEntity
  8
0
100
AcDbSpline
 62
7
  6
CONTINUOUS
 70
0
 71
3
 72
8
 73
4
 74
2
 42
0.0000001
 43
0.0000001
 44
0.0000000001
 12
-0.4603226355
 22
0.2025420763
 32
0.0
 13
-0.2840500114
 23
0.3964214978
 33
0.0
 40
0.0
 40
0.0
 40
0.0
 40
0.0
 40
1.0
 40
1.0
 40
1.0
 40
1.0
 10
60.469992683
 20
-1.3033760421
 30
0.0
 10
60.3165518045
 20
-1.2358620167
 30
0.0
 10
60.1903447509
 20
-1.1365517974
 30
0.0
 10
60.0956614138
 20
-1.0044112981
 30
0.0
 11
60.469992683
 21
-1.3033760421
 31
0.0
 11
60.0956614138
 21
-1.0044112981
 31
0.0
  0
SPLINE
  5
332
100
AcDbEntity
  8
0
100
AcDbSpline
 62
7
  6
CONTINUOUS
 70
0
 71
3
 72
8
 73
4
 74
2
 42
0.0000001
 43
0.0000001
 44
0.0000000001
 12
-0.5344243023
 22
0.0829280829
 32
0.0
 13
-0.4707118103
 23
0.2071133159
 33
0.0
 40
0.0
 40
0.0
 40
0.0
 40
0.0
 40
1.0
 40
1.0
 40
1.0
 40
1.0
 10
60.9705552052
 20
-1.4476426514
 30
0.0
 10
60.7924137712
 20
-1.4199999571
 30
0.0
 10
60.6268966198
 20
-1.3724138141
 30
0.0
 10
60.469992683
 20
-1.3033760421
 30
0.0
 11
60.9705552052
 21
-1.4476426514
 31
0.0
 11
60.469992683
 21
-1.3033760421
 31
0.0
  0
SPLINE
  5
333
100
AcDbEntity
  8
0
100
AcDbSpline
 62
7
  6
CONTINUOUS
 70
0
 71
3
 72
8
 73
4
 74
2
 42
0.0000001
 43
0.0000001
 44
0.0000000001
 12
-0.465517124
 22
-0.2048276526
 32
0.0
 13
-0.5465271162
 23
-0.0848061097
 33
0.0
 40
0.0
 40
0.0
 40
0.0
 40
0.0
 40
1.0
 40
1.0
 40
1.0
 40
1.0
 10
62.5220689444
 20
-1.3041379299
 30
0.0
 10
62.3668965697
 20
-1.3724138141
 30
0.0
 10
62.1993103623
 20
-1.4199999571
 30
0.0
 10
62.017134657
 20
-1.4482686603
 30
0.0
 11
62.5220689444
 21
-1.3041379299
 31
0.0
 11
62.017134657
 21
-1.4482686603
 31
0.0
  0
SPLINE
  5
334
100
AcDbEntity
  8
0
100
AcDbSpline
 62
7
  6
CONTINUOUS
 70
0
 71
3
 72
8
 73
4
 74
2
 42
0.0000001
 43
0.0000001
 44
0.0000000001
 12
-0.2880495103
 22
-0.3891733637
 32
0.0
 13
-0.4655173218
 23
-0.2048277396
 33
0.0
 40
0.0
 40
0.0
 40
0.0
 40
0.0
 40
1.0
 40
1.0
 40
1.0
 40
1.0
 10
62.8994647856
 20
-1.0068273428
 30
0.0
 10
62.8034482822
 20
-1.1365517974
 30
0.0
 10
62.677241385
 20
-1.2358620167
 30
0.0
 10
62.5220689444
 20
-1.3041379299
 30
0.0
 11
62.8994647856
 21
-1.0068273428
 31
0.0
 11
62.5220689444
 21
-1.3041379299
 31
0.0
  0
SPLINE
  5
335
100
AcDbEntity
  8
0
100
AcDbSpline
 62
7
  6
CONTINUOUS
 70
0
 71
3
 72
8
 73
4
 74
2
 42
0.0000001
 43
0.0000001
 44
0.0000000001
 12
0.0
 22
-0.602196984
 32
0.0
 13
-0.2953987464
 23
-0.399102653
 33
0.0
 40
0.0
 40
0.0
 40
0.0
 40
0.0
 40
1.0
 40
1.0
 40
1.0
 40
1.0
 10
63.0475862045
 20
-0.5054745897
 30
0.0
 10
63.0475862045
 20
-0.7062069178
 30
0.0
 10
62.9979310344
 20
-0.8737931252
 30
0.0
 10
62.8994647856
 20
-1.0068273428
 30
0.0
 11
63.0475862045
 21
-0.5054745897
 31
0.0
 11
62.8994647856
 21
-1.0068273428
 31
0.0
  0
SPLINE
  5
336
100
AcDbEntity
  8
0
100
AcDbSpline
 62
7
  6
CONTINUOUS
 70
0
 71
3
 72
8
 73
4
 74
2
 42
0.0000001
 43
0.0000001
 44
0.0000000001
 12
0.2924652674
 22
-0.3951396037
 32
0.0
 13
0.0
 23
-0.626768656
 33
0.0
 40
0.0
 40
0.0
 40
0.0
 40
0.0
 40
1.0
 40
1.0
 40
1.0
 40
1.0
 10
62.9004426119
 20
0.0048165814
 30
0.0
 10
62.9979310344
 20
-0.1268966198
 30
0.0
 10
63.0475862045
 20
-0.2965517044
 30
0.0
 10
63.0475862045
 20
-0.5054745897
 30
0.0
 11
62.9004426119
 21
0.0048165814
 31
0.0
 11
63.0475862045
 21
-0.5054745897
 31
0.0
  0
SPLINE
  5
337
100
AcDbEntity
  8
0
100
AcDbSpline
 62
7
  6
CONTINUOUS
 70
0
 71
3
 72
8
 73
4
 74
2
 42
0.0000001
 43
0.0000001
 44
0.0000000001
 12
0.4655174206
 22
-0.2048280513
 32
0.0
 13
0.2909829893
 23
-0.3931369495
 33
0.0
 40
0.0
 40
0.0
 40
0.0
 40
0.0
 40
1.0
 40
1.0
 40
1.0
 40
1.0
 10
62.5220689114
 20
0.3034482888
 30
0.0
 10
62.677241385
 20
0.2351722717
 30
0.0
 10
62.8034482822
 20
0.1358622313
 30
0.0
 10
62.9004426119
 20
0.0048165814
 30
0.0
 11
62.5220689114
 21
0.3034482888
 31
0.0
 11
62.9004426119
 21
0.0048165814
 31
0.0
  0
SPLINE
  5
338
100
AcDbEntity
  8
0
100
AcDbSpline
 62
7
  6
CONTINUOUS
 70
0
 71
3
 72
8
 73
4
 74
2
 42
0.0000001
 43
0.0000001
 44
0.0000000001
 12
0.5469565024
 22
-0.0754423137
 32
0.0
 13
0.4655170251
 23
-0.2048278773
 33
0.0
 40
0.0
 40
0.0
 40
0.0
 40
0.0
 40
1.0
 40
1.0
 40
1.0
 40
1.0
 10
62.0169915282
 20
0.44445765
 30
0.0
 10
62.1993103623
 20
0.4193102121
 30
0.0
 10
62.3668965697
 20
0.3717242479
 30
0.0
 10
62.5220689114
 20
0.3034482888
 30
0.0
 11
62.0169915282
 21
0.44445765
 31
0.0
 11
62.5220689114
 21
0.3034482888
 31
0.0
  0
SPLINE
  5
339
100
AcDbEntity
  8
0
100
AcDbSpline
 62
7
  6
CONTINUOUS
 70
0
 71
3
 72
8
 73
4
 74
2
 42
0.0000001
 43
0.0000001
 44
0.0000000001
 12
0.5027586222
 22
0.0
 32
0.0
 13
0.5330435405
 23
-0.0735232835
 33
0.0
 40
0.0
 40
0.0
 40
0.0
 40
0.0
 40
1.0
 40
1.0
 40
1.0
 40
1.0
 10
61.5
 20
0.4793105125
 30
0.0
 10
61.6675862074
 20
0.4793105125
 30
0.0
 10
61.839310348
 20
0.4689654112
 30
0.0
 10
62.0169915282
 20
0.44445765
 30
0.0
 11
61.5
 21
0.4793105125
 31
0.0
 11
62.0169915282
 21
0.44445765
 31
0.0
  0
SPLINE
  5
33A
100
AcDbEntity
  8
0
100
AcDbSpline
 62
7
  6
CONTINUOUS
 70
0
 71
3
 72
8
 73
4
 74
2
 42
0.0000001
 43
0.0000001
 44
0.0000000001
 12
0.5452945886
 22
0.0752130841
 32
0.0
 13
0.5151724219
 23
0.0
 33
0.0
 40
0.0
 40
0.0
 40
0.0
 40
0.0
 40
1.0
 40
1.0
 40
1.0
 40
1.0
 10
60.9706489226
 20
0.4438943832
 30
0.0
 10
61.1524137855
 20
0.4689654112
 30
0.0
 10
61.3282758594
 20
0.4793105125
 30
0.0
 10
61.5
 20
0.4793105125
 30
0.0
 11
60.9706489226
 21
0.4438943832
 31
0.0
 11
61.5
 21
0.4793105125
 31
0.0
  0
SPLINE
  5
33B
100
AcDbEntity
  8
0
100
AcDbSpline
 62
7
  6
CONTINUOUS
 70
0
 71
3
 72
8
 73
4
 74
2
 42
0.0000001
 43
0.0000001
 44
0.0000000001
 12
0.4707229609
 22
0.2071184934
 32
0.0
 13
0.5347054543
 23
0.0737525131
 33
0.0
 40
0.0
 40
0.0
 40
0.0
 40
0.0
 40
1.0
 40
1.0
 40
1.0
 40
1.0
 10
60.4699889661
 20
0.3026847501
 30
0.0
 10
60.6268966198
 20
0.3717242479
 30
0.0
 10
60.7924137712
 20
0.4193102121
 30
0.0
 10
60.9706489226
 20
0.4438943832
 30
0.0
 11
60.4699889661
 21
0.3026847501
 31
0.0
 11
60.9706489226
 21
0.4438943832
 31
0.0
  0
SPLINE
  5
33C
100
AcDbEntity
  8
0
100
AcDbSpline
 62
7
  6
CONTINUOUS
 70
0
 71
3
 72
8
 73
4
 74
2
 42
0.0000001
 43
0.0000001
 44
0.0000000001
 12
0.2870611461
 22
0.4006241238
 32
0.0
 13
0.4603114848
 23
0.2025374352
 33
0.0
 40
0.0
 40
0.0
 40
0.0
 40
0.0
 40
1.0
 40
1.0
 40
1.0
 40
1.0
 10
60.0946577022
 20
0.0023208566
 30
0.0
 10
60.1903447509
 20
0.1358622313
 30
0.0
 10
60.3165518045
 20
0.2351722717
 30
0.0
 10
60.4699889661
 20
0.3026847501
 30
0.0
 11
60.0946577022
 21
0.0023208566
 31
0.0
 11
60.4699889661
 21
0.3026847501
 31
0.0
  0
SPLINE
  5
33D
100
AcDbEntity
  8
0
100
AcDbSpline
 62
7
  6
CONTINUOUS
 70
0
 71
3
 72
8
 73
4
 74
2
 42
0.0000001
 43
0.0000001
 44
0.0000000001
 12
0.0124143362
 22
0.6206899881
 32
0.0
 13
0.2777664749
 23
0.3876524293
 33
0.0
 40
0.0
 40
0.0
 40
0.0
 40
0.0
 40
1.0
 40
1.0
 40
1.0
 40
1.0
 10
59.9503448009
 20
-0.5034483671
 30
0.0
 10
59.954482913
 20
-0.2965517044
 30
0.0
 10
60.0020688772
 20
-0.1268966198
 30
0.0
 10
60.0946577022
 20
0.0023208566
 30
0.0
 11
59.9503448009
 21
-0.5034483671
 31
0.0
 11
60.0946577022
 21
0.0023208566
 31
0.0
  0
SPLINE
  5
33E
100
AcDbEntity
  8
0
100
AcDbSpline
 62
7
  6
CONTINUOUS
 70
0
 71
3
 72
8
 73
4
 74
2
 42
0.0000001
 43
0.0000001
 44
0.0000000001
 12
-0.2516862175
 22
-0.2762412357
 32
0.0
 13
-0.0124137998
 23
-0.4779310226
 33
0.0
 40
0.0
 40
0.0
 40
0.0
 40
0.0
 40
1.0
 40
1.0
 40
1.0
 40
1.0
 10
60.3569988218
 20
-0.1258507395
 30
0.0
 10
60.273103416
 20
-0.2179311514
 30
0.0
 10
60.2317240834
 20
-0.3441380262
 30
0.0
 10
60.2275861502
 20
-0.5034483671
 30
0.0
 11
60.3569988218
 21
-0.1258507395
 31
0.0
 11
60.2275861502
 21
-0.5034483671
 31
0.0
  0
SPLINE
  5
33F
100
AcDbEntity
  8
0
100
AcDbSpline
 62
7
  6
CONTINUOUS
 70
0
 71
3
 72
8
 73
4
 74
2
 42
0.0000001
 43
0.0000001
 44
0.0000000001
 12
-0.3940729531
 22
-0.1396320621
 32
0.0
 13
-0.2572795727
 23
-0.28238029
 33
0.0
 40
0.0
 40
0.0
 40
0.0
 40
0.0
 40
1.0
 40
1.0
 40
1.0
 40
1.0
 10
60.6858403495
 20
0.0830958539
 30
0.0
 10
60.5544826984
 20
0.0365518332
 30
0.0
 10
60.4427586794
 20
-0.0317239761
 30
0.0
 10
60.3569988218
 20
-0.1258507395
 30
0.0
 11
60.6858403495
 21
0.0830958539
 31
0.0
 11
60.3569988218
 21
-0.1258507395
 31
0.0
  0
SPLINE
  5
340
100
AcDbEntity
  8
0
100
AcDbSpline
 62
7
  6
CONTINUOUS
 70
0
 71
3
 72
8
 73
4
 74
2
 42
0.0000001
 43
0.0000001
 44
0.0000000001
 12
-0.4353266816
 22
-0.033961287
 32
0.0
 13
-0.3942030636
 23
-0.1396781643
 33
0.0
 40
0.0
 40
0.0
 40
0.0
 40
0.0
 40
1.0
 40
1.0
 40
1.0
 40
1.0
 10
61.0989020619
 20
0.1720102598
 30
0.0
 10
60.9537931681
 20
0.1606898308
 30
0.0
 10
60.8172413707
 20
0.129655242
 30
0.0
 10
60.6858403495
 20
0.0830958539
 30
0.0
 11
61.0989020619
 21
0.1720102598
 31
0.0
 11
60.6858403495
 21
0.0830958539
 31
0.0
  0
SPLINE
  5
341
100
AcDbEntity
  8
0
100
AcDbSpline
 62
7
  6
CONTINUOUS
 70
0
 71
3
 72
8
 73
4
 74
2
 42
0.0000001
 43
0.0000001
 44
0.0000000001
 12
-0.2594456697
 22
0.2747075831
 32
0.0
 13
-0.3883831816
 23
0.137616026
 33
0.0
 40
0.0
 40
0.0
 40
0.0
 40
0.0
 40
1.0
 40
1.0
 40
1.0
 40
1.0
 10
62.6416542886
 20
-0.1232931705
 30
0.0
 10
62.5551723987
 20
-0.0317239761
 30
0.0
 10
62.4475862235
 20
0.0365518332
 30
0.0
 10
62.318125163
 20
0.0824238418
 30
0.0
 11
62.6416542886
 21
-0.1232931705
 31
0.0
 11
62.318125163
 21
0.0824238418
 31
0.0
  0
SPLINE
  5
342
100
AcDbEntity
  8
0
100
AcDbSpline
 62
7
  6
CONTINUOUS
 70
0
 71
3
 72
8
 73
4
 74
2
 42
0.0000001
 43
0.0000001
 44
0.0000000001
 12
0.0
 22
0.4779310226
 32
0.0
 13
-0.268140552
 23
0.2839139427
 33
0.0
 40
0.0
 40
0.0
 40
0.0
 40
0.0
 40
1.0
 40
1.0
 40
1.0
 40
1.0
 10
62.776551716
 20
-0.5034483671
 30
0.0
 10
62.776551716
 20
-0.3441380262
 30
0.0
 10
62.7310344726
 20
-0.2179311514
 30
0.0
 10
62.6416542886
 20
-0.1232931705
 30
0.0
 11
62.776551716
 21
-0.5034483671
 31
0.0
 11
62.6416542886
 21
-0.1232931705
 31
0.0
  0
SPLINE
  5
343
100
AcDbEntity
  8
0
100
AcDbSpline
 62
7
  6
CONTINUOUS
 70
0
 71
3
 72
8
 73
4
 74
2
 42
0.0000001
 43
0.0000001
 44
0.0000000001
 12
0.2682224584
 22
0.2840006672
 32
0.0
 13
0.0
 23
0.471724391
 33
0.0
 40
0.0
 40
0.0
 40
0.0
 40
0.0
 40
1.0
 40
1.0
 40
1.0
 40
1.0
 10
62.6416269864
 20
-0.8794943599
 30
0.0
 10
62.7310344726
 20
-0.7848274708
 30
0.0
 10
62.776551716
 20
-0.6606898308
 30
0.0
 10
62.776551716
 20
-0.5034483671
 30
0.0
 11
62.6416269864
 21
-0.8794943599
 31
0.0
 11
62.776551716
 21
-0.5034483671
 31
0.0
  0
SPLINE
  5
344
100
AcDbEntity
  8
0
100
AcDbSpline
 62
7
  6
CONTINUOUS
 70
0
 71
3
 72
8
 73
4
 74
2
 42
0.0000001
 43
0.0000001
 44
0.0000000001
 12
0.3904154138
 22
0.1321880963
 32
0.0
 13
0.2593637633
 23
0.2746208585
 33
0.0
 40
0.0
 40
0.0
 40
0.0
 40
0.0
 40
1.0
 40
1.0
 40
1.0
 40
1.0
 10
62.3174477522
 20
-1.0833729753
 30
0.0
 10
62.4475862235
 20
-1.0393102765
 30
0.0
 10
62.5551723987
 20
-0.971034646
 30
0.0
 10
62.6416269864
 20
-0.8794943599
 30
0.0
 11
62.3174477522
 21
-1.0833729753
 31
0.0
 11
62.6416269864
 21
-0.8794943599
 31
0.0
  0
SPLINE
  5
345
100
AcDbEntity
  8
0
100
AcDbSpline
 62
7
  6
CONTINUOUS
 70
0
 71
3
 72
8
 73
4
 74
2
 42
0.0000001
 43
0.0000001
 44
0.0000000001
 12
0.4409183357
 22
0.0475809931
 32
0.0
 13
0.3978604688
 23
0.1347088668
 33
0.0
 40
0.0
 40
0.0
 40
0.0
 40
0.0
 40
1.0
 40
1.0
 40
1.0
 40
1.0
 10
61.8971651761
 20
-1.1731017947
 30
0.0
 10
62.0441379547
 20
-1.1572414637
 30
0.0
 10
62.1848275959
 20
-1.1282759309
 30
0.0
 10
62.3174477522
 20
-1.0833729753
 30
0.0
 11
61.8971651761
 21
-1.1731017947
 31
0.0
 11
62.3174477522
 21
-1.0833729753
 31
0.0
  0
SPLINE
  5
346
100
AcDbEntity
  8
0
100
AcDbSpline
 62
7
  6
CONTINUOUS
 70
0
 71
3
 72
8
 73
4
 74
2
 42
0.0000001
 43
0.0000001
 44
0.0000000001
 12
0.3662068248
 22
0.0
 32
0.0
 13
0.4218404796
 23
0.0455222369
 33
0.0
 40
0.0
 40
0.0
 40
0.0
 40
0.0
 40
1.0
 40
1.0
 40
1.0
 40
1.0
 10
61.5020689666
 20
-1.1965517402
 30
0.0
 10
61.6241379082
 20
-1.1965517402
 30
0.0
 10
61.7565516829
 20
-1.1882758737
 30
0.0
 10
61.8971651761
 20
-1.1731017947
 30
0.0
 11
61.5020689666
 21
-1.1965517402
 31
0.0
 11
61.8971651761
 21
-1.1731017947
 31
0.0
  0
SPLINE
  5
347
100
AcDbEntity
  8
0
100
AcDbSpline
 62
7
  6
CONTINUOUS
 70
0
 71
3
 72
8
 73
4
 74
2
 42
0.0000001
 43
0.0000001
 44
0.0000000001
 12
0.4403415618
 22
-0.0468447551
 32
0.0
 13
0.366207093
 23
0.0
 33
0.0
 40
0.0
 40
0.0
 40
0.0
 40
0.0
 40
1.0
 40
1.0
 40
1.0
 40
1.0
 10
61.0987366737
 20
-1.1726609553
 30
0.0
 10
61.2455171943
 20
-1.1882758737
 30
0.0
 10
61.3799999356
 20
-1.1965517402
 30
0.0
 10
61.5020689666
 20
-1.1965517402
 30
0.0
 11
61.0987366737
 21
-1.1726609553
 31
0.0
 11
61.5020689666
 21
-1.1965517402
 31
0.0
  0
SPLINE
  5
348
100
AcDbEntity
  8
0
100
AcDbSpline
 62
7
  6
CONTINUOUS
 70
0
 71
3
 72
8
 73
4
 74
2
 42
0.0000001
 43
0.0000001
 44
0.0000000001
 12
0.3923139897
 22
-0.1328308996
 32
0.0
 13
0.4348305168
 23
-0.0462584749
 33
0.0
 40
0.0
 40
0.0
 40
0.0
 40
0.0
 40
1.0
 40
1.0
 40
1.0
 40
1.0
 10
60.6864700408
 20
-1.0839989644
 30
0.0
 10
60.8172413707
 20
-1.1282759309
 30
0.0
 10
60.9537931681
 20
-1.1572414637
 30
0.0
 10
61.0987366737
 20
-1.1726609553
 30
0.0
 11
60.6864700408
 21
-1.0839989644
 31
0.0
 11
61.0987366737
 21
-1.1726609553
 31
0.0
  0
SPLINE
  5
349
100
AcDbEntity
  8
0
100
AcDbSpline
 62
7
  6
CONTINUOUS
 70
0
 71
3
 72
8
 73
4
 74
2
 42
0.0000001
 43
0.0000001
 44
0.0000000001
 12
0.2573170909
 22
-0.2824214685
 32
0.0
 13
0.3959620271
 23
-0.1340660635
 33
0.0
 40
0.0
 40
0.0
 40
0.0
 40
0.0
 40
1.0
 40
1.0
 40
1.0
 40
1.0
 10
60.3569863158
 20
-0.8768941565
 30
0.0
 10
60.4427586794
 20
-0.971034646
 30
0.0
 10
60.5544826984
 20
-1.0393102765
 30
0.0
 10
60.6864700408
 20
-1.0839989644
 30
0.0
 11
60.3569863158
 21
-0.8768941565
 31
0.0
 11
60.6864700408
 21
-1.0839989644
 31
0.0
  0
SPLINE
  5
34A
100
AcDbEntity
  8
0
100
AcDbSpline
 62
7
  6
CONTINUOUS
 70
0
 71
3
 72
8
 73
4
 74
2
 42
0.0000001
 43
0.0000001
 44
0.0000000001
 12
0.0124137998
 22
-0.471724391
 32
0.0
 13
0.2516486994
 23
-0.2762000572
 33
0.0
 40
0.0
 40
0.0
 40
0.0
 40
0.0
 40
1.0
 40
1.0
 40
1.0
 40
1.0
 10
60.2275861502
 20
-0.5034483671
 30
0.0
 10
60.2317240834
 20
-0.6606898308
 30
0.0
 10
60.273103416
 20
-0.7848274708
 30
0.0
 10
60.3569863158
 20
-0.8768941565
 30
0.0
 11
60.2275861502
 21
-0.5034483671
 31
0.0
 11
60.3569863158
 21
-0.8768941565
 31
0.0
  0
SPLINE
  5
34B
100
AcDbEntity
  8
0
100
AcDbSpline
 62
7
  6
CONTINUOUS
 70
0
 71
3
 72
8
 73
4
 74
2
 42
0.0000001
 43
0.0000001
 44
0.0000000001
 12
0.1322066164
 22
0.1168340785
 32
0.0
 13
0.1862069294
 23
0.0
 33
0.0
 40
0.0
 40
0.0
 40
0.0
 40
0.0
 40
1.0
 40
1.0
 40
1.0
 40
1.0
 10
62.6393794127
 20
1.4458830641
 30
0.0
 10
62.6834482849
 20
1.4848277569
 30
0.0
 10
62.7372413725
 20
1.5034483671
 30
0.0
 10
62.7993103489
 20
1.5034483671
 30
0.0
 11
62.6393794127
 21
1.4458830641
 31
0.0
 11
62.7993103489
 21
1.5034483671
 31
0.0
  0
SPLINE
  5
34C
100
AcDbEntity
  8
0
100
AcDbSpline
 62
7
  6
CONTINUOUS
 70
0
 71
3
 72
8
 73
4
 74
2
 42
0.0000001
 43
0.0000001
 44
0.0000000001
 12
0.0
 22
0.2048274279
 32
0.0
 13
0.1346899444
 23
0.1190286535
 33
0.0
 40
0.0
 40
0.0
 40
0.0
 40
0.0
 40
1.0
 40
1.0
 40
1.0
 40
1.0
 10
62.5717241317
 20
1.2841380835
 30
0.0
 10
62.5717241317
 20
1.3524138927
 30
0.0
 10
62.5944827646
 20
1.4062068462
 30
0.0
 10
62.6393794127
 20
1.4458830641
 30
0.0
 11
62.5717241317
 21
1.2841380835
 31
0.0
 11
62.6393794127
 21
1.4458830641
 31
0.0
  0
SPLINE
  5
34D
100
AcDbEntity
  8
0
100
AcDbSpline
 62
7
  6
CONTINUOUS
 70
0
 71
3
 72
8
 73
4
 74
2
 42
0.0000001
 43
0.0000001
 44
0.0000000001
 12
-0.1256978847
 22
0.1169283236
 32
0.0
 13
0.0
 23
0.1986207962
 33
0.0
 40
0.0
 40
0.0
 40
0.0
 40
0.0
 40
1.0
 40
1.0
 40
1.0
 40
1.0
 10
62.6363820595
 20
1.1272309673
 30
0.0
 10
62.5944827646
 20
1.1662070751
 30
0.0
 10
62.5717241317
 20
1.2179311514
 30
0.0
 10
62.5717241317
 20
1.2841380835
 30
0.0
 11
62.6363820595
 21
1.1272309673
 31
0.0
 11
62.5717241317
 21
1.2841380835
 31
0.0
  0
SPLINE
  5
34E
100
AcDbEntity
  8
0
100
AcDbSpline
 62
7
  6
CONTINUOUS
 70
0
 71
3
 72
8
 73
4
 74
2
 42
0.0000001
 43
0.0000001
 44
0.0000000001
 12
-0.1862069294
 22
0.0
 32
0.0
 13
-0.1411986761
 23
0.1313476717
 33
0.0
 40
0.0
 40
0.0
 40
0.0
 40
0.0
 40
1.0
 40
1.0
 40
1.0
 40
1.0
 10
62.7993103489
 20
1.0627585649
 30
0.0
 10
62.7372413725
 20
1.0627585649
 30
0.0
 10
62.6834482849
 20
1.08344841
 30
0.0
 10
62.6363820595
 20
1.1272309673
 30
0.0
 11
62.7993103489
 21
1.0627585649
 31
0.0
 11
62.6363820595
 21
1.1272309673
 31
0.0
  0
SPLINE
  5
34F
100
AcDbEntity
  8
0
100
AcDbSpline
 62
7
  6
CONTINUOUS
 70
0
 71
3
 72
8
 73
4
 74
2
 42
0.0000001
 43
0.0000001
 44
0.0000000001
 12
-0.136551722
 22
-0.1365512609
 32
0.0
 13
-0.179999996
 23
0.0
 33
0.0
 40
0.0
 40
0.0
 40
0.0
 40
0.0
 40
1.0
 40
1.0
 40
1.0
 40
1.0
 10
62.9544827593
 20
1.128965497
 30
0.0
 10
62.9089655187
 20
1.08344841
 30
0.0
 10
62.8593103476
 20
1.0627585649
 30
0.0
 10
62.7993103489
 20
1.0627585649
 30
0.0
 11
62.9544827593
 21
1.128965497
 31
0.0
 11
62.7993103489
 21
1.0627585649
 31
0.0
  0
SPLINE
  5
350
100
AcDbEntity
  8
0
100
AcDbSpline
 62
7
  6
CONTINUOUS
 70
0
 71
3
 72
8
 73
4
 74
2
 42
0.0000001
 43
0.0000001
 44
0.0000000001
 12
-0.0124137914
 22
-0.1986207962
 32
0.0
 13
-0.136551722
 23
-0.1117247343
 33
0.0
 40
0.0
 40
0.0
 40
0.0
 40
0.0
 40
1.0
 40
1.0
 40
1.0
 40
1.0
 10
63.0248275856
 20
1.2841380835
 30
0.0
 10
63.0206896551
 20
1.2179311514
 30
0.0
 10
63.0
 20
1.1662070751
 30
0.0
 10
62.9544827593
 20
1.128965497
 30
0.0
 11
63.0248275856
 21
1.2841380835
 31
0.0
 11
62.9544827593
 21
1.128965497
 31
0.0
  0
SPLINE
  5
351
100
AcDbEntity
  8
0
100
AcDbSpline
 62
7
  6
CONTINUOUS
 70
0
 71
3
 72
8
 73
4
 74
2
 42
0.0000001
 43
0.0000001
 44
0.0000000001
 12
0.1396672375
 22
-0.1206220461
 32
0.0
 13
0.0124137914
 23
-0.2048274279
 33
0.0
 40
0.0
 40
0.0
 40
0.0
 40
0.0
 40
1.0
 40
1.0
 40
1.0
 40
1.0
 10
62.9534442542
 20
1.4464141949
 30
0.0
 10
63.0
 20
1.4062068462
 30
0.0
 10
63.0206896551
 20
1.3524138927
 30
0.0
 10
63.0248275856
 20
1.2841380835
 30
0.0
 11
62.9534442542
 21
1.4464141949
 31
0.0
 11
63.0248275856
 21
1.2841380835
 31
0.0
  0
SPLINE
  5
352
100
AcDbEntity
  8
0
100
AcDbSpline
 62
7
  6
CONTINUOUS
 70
0
 71
3
 72
8
 73
4
 74
2
 42
0.0000001
 43
0.0000001
 44
0.0000000001
 12
0.179999996
 22
0.0
 32
0.0
 13
0.1334362064
 23
-0.1152406859
 33
0.0
 40
0.0
 40
0.0
 40
0.0
 40
0.0
 40
1.0
 40
1.0
 40
1.0
 40
1.0
 10
62.7993103489
 20
1.5034483671
 30
0.0
 10
62.8593103476
 20
1.5034483671
 30
0.0
 10
62.9089655187
 20
1.4848277569
 30
0.0
 10
62.9534442542
 20
1.4464141949
 30
0.0
 11
62.7993103489
 21
1.5034483671
 31
0.0
 11
62.9534442542
 21
1.4464141949
 31
0.0
  0
SPLINE
  5
353
100
AcDbEntity
  8
0
100
AcDbSpline
 62
7
  6
CONTINUOUS
 70
0
 71
3
 72
8
 73
4
 74
2
 42
0.0000001
 43
0.0000001
 44
0.0000000001
 12
0.0
 22
-0.6394325396
 32
0.0
 13
0.3289654255
 23
-0.5648260117
 33
0.0
 40
0.0
 40
0.0
 40
0.0
 40
0.0
 40
1.0
 40
1.0
 40
1.0
 40
1.0
 10
61.3944827914
 20
2.8917645183
 30
0.0
 10
61.3944827914
 20
2.6786203384
 30
0.0
 10
61.4482759237
 20
2.4758617878
 30
0.0
 10
61.5579310656
 20
2.2875864506
 30
0.0
 11
61.3944827914
 21
2.8917645183
 31
0.0
 11
61.5579310656
 21
2.2875864506
 31
0.0
  0
SPLINE
  5
354
100
AcDbEntity
  8
0
100
AcDbSpline
 62
7
  6
CONTINUOUS
 70
0
 71
3
 72
8
 73
4
 74
2
 42
0.0000001
 43
0.0000001
 44
0.0000000001
 12
-0.3895229604
 22
-0.3926384719
 32
0.0
 13
0.0
 23
-0.6391893724
 33
0.0
 40
0.0
 40
0.0
 40
0.0
 40
0.0
 40
1.0
 40
1.0
 40
1.0
 40
1.0
 10
61.5884616543
 20
3.4074314525
 30
0.0
 10
61.4586206675
 20
3.2765519619
 30
0.0
 10
61.3944827914
 20
3.1048276424
 30
0.0
 10
61.3944827914
 20
2.8917645183
 30
0.0
 11
61.5884616543
 21
3.4074314525
 31
0.0
 11
61.3944827914
 21
2.8917645183
 31
0.0
  0
SPLINE
  5
355
100
AcDbEntity
  8
0
100
AcDbSpline
 62
7
  6
CONTINUOUS
 70
0
 71
3
 72
8
 73
4
 74
2
 42
0.0000001
 43
0.0000001
 44
0.0000000001
 12
-0.6518421569
 22
0.0
 32
0.0
 13
-0.3863392565
 23
-0.3894293038
 33
0.0
 40
0.0
 40
0.0
 40
0.0
 40
0.0
 40
1.0
 40
1.0
 40
1.0
 40
1.0
 10
62.1062462661
 20
3.6013796329
 30
0.0
 10
61.8889655471
 20
3.6013796329
 30
0.0
 10
61.7172414064
 20
3.5372412205
 30
0.0
 10
61.5884616543
 20
3.4074314525
 30
0.0
 11
62.1062462661
 21
3.6013796329
 31
0.0
 11
61.5884616543
 21
3.4074314525
 31
0.0
  0
SPLINE
  5
356
100
AcDbEntity
  8
0
100
AcDbSpline
 62
7
  6
CONTINUOUS
 70
0
 71
3
 72
8
 73
4
 74
2
 42
0.0000001
 43
0.0000001
 44
0.0000000001
 12
-0.3753769143
 22
0.3631693626
 32
0.0
 13
-0.5647094152
 23
0.0
 33
0.0
 40
0.0
 40
0.0
 40
0.0
 40
0.0
 40
1.0
 40
1.0
 40
1.0
 40
1.0
 10
62.5768497948
 20
3.4182540011
 30
0.0
 10
62.4517241567
 20
3.5393104553
 30
0.0
 10
62.2944827378
 20
3.6013796329
 30
0.0
 10
62.1062462661
 20
3.6013796329
 30
0.0
 11
62.5768497948
 21
3.4182540011
 31
0.0
 11
62.1062462661
 21
3.6013796329
 31
0.0
  0
SPLINE
  5
357
100
AcDbEntity
  8
0
100
AcDbSpline
 62
7
  6
CONTINUOUS
 70
0
 71
3
 72
8
 73
4
 74
2
 42
0.0000001
 43
0.0000001
 44
0.0000000001
 12
0.0026080201
 22
0.5711626788
 32
0.0
 13
-0.3880713017
 23
0.3754509186
 33
0.0
 40
0.0
 40
0.0
 40
0.0
 40
0.0
 40
1.0
 40
1.0
 40
1.0
 40
1.0
 10
62.7715444428
 20
2.9475435489
 30
0.0
 10
62.7724137828
 20
3.1379311085
 30
0.0
 10
62.7062068954
 20
3.2931036949
 30
0.0
 10
62.5768497948
 20
3.4182540011
 30
0.0
 11
62.7715444428
 21
2.9475435489
 31
0.0
 11
62.5768497948
 21
3.4182540011
 31
0.0
  0
SPLINE
  5
358
100
AcDbEntity
  8
0
100
AcDbSpline
 62
7
  6
CONTINUOUS
 70
0
 71
3
 72
8
 73
4
 74
2
 42
0.0000001
 43
0.0000001
 44
0.0000000001
 12
0.7572414503
 22
0.3537940979
 32
0.0
 13
0.0035988128
 23
0.7881486634
 33
0.0
 40
0.0
 40
0.0
 40
0.0
 40
0.0
 40
1.0
 40
1.0
 40
1.0
 40
1.0
 10
62.3896551579
 20
2.3786206245
 30
0.0
 10
62.6420689747
 20
2.4965519905
 30
0.0
 10
62.7703448385
 20
2.6848273277
 30
0.0
 10
62.7715444428
 20
2.9475435489
 30
0.0
 11
62.3896551579
 21
2.3786206245
 31
0.0
 11
62.7715444428
 21
2.9475435489
 31
0.0
  0
SPLINE
  5
359
100
AcDbEntity
  8
0
100
AcDbSpline
 62
7
  6
CONTINUOUS
 70
0
 71
3
 72
8
 73
4
 74
2
 42
0.0000001
 43
0.0000001
 44
0.0000000001
 12
0.0
 22
-1.1483422367
 32
0.0
 13
-1.0551723763
 23
-0.5213806629
 33
0.0
 40
0.0
 40
0.0
 40
0.0
 40
0.0
 40
1.0
 40
1.0
 40
1.0
 40
1.0
 10
63.0475862045
 20
2.9227809458
 30
0.0
 10
63.0475862045
 20
2.5400002003
 30
0.0
 10
62.8737931028
 20
2.2606899738
 30
0.0
 10
62.5220689774
 20
2.0868964195
 30
0.0
 11
63.0475862045
 21
2.9227809458
 31
0.0
 11
62.5220689774
 21
2.0868964195
 31
0.0
  0
SPLINE
  5
35A
100
AcDbEntity
  8
0
100
AcDbSpline
 62
7
  6
CONTINUOUS
 70
0
 71
3
 72
8
 73
4
 74
2
 42
0.0000001
 43
0.0000001
 44
0.0000000001
 12
0.5445763872
 22
-0.5540202198
 32
0.0
 13
0.0
 23
-0.8564845474
 33
0.0
 40
0.0
 40
0.0
 40
0.0
 40
0.0
 40
1.0
 40
1.0
 40
1.0
 40
1.0
 10
62.7770952274
 20
3.6246734638
 30
0.0
 10
62.9586206898
 20
3.4400000572
 30
0.0
 10
63.0475862045
 20
3.208275795
 30
0.0
 10
63.0475862045
 20
2.9227809458
 30
0.0
 11
62.7770952274
 21
3.6246734638
 31
0.0
 11
63.0475862045
 21
2.9227809458
 31
0.0
  0
SPLINE
  5
35B
100
AcDbEntity
  8
0
100
AcDbSpline
 62
7
  6
CONTINUOUS
 70
0
 71
3
 72
8
 73
4
 74
2
 42
0.0000001
 43
0.0000001
 44
0.0000000001
 12
0.8751943626
 22
0.0
 32
0.0
 13
0.5292166887
 23
-0.5383941594
 33
0.0
 40
0.0
 40
0.0
 40
0.0
 40
0.0
 40
1.0
 40
1.0
 40
1.0
 40
1.0
 10
62.0751651155
 20
3.8951723576
 30
0.0
 10
62.3668965697
 20
3.8951723576
 30
0.0
 10
62.6006896645
 20
3.8041381836
 30
0.0
 10
62.7770952274
 20
3.6246734638
 30
0.0
 11
62.0751651155
 21
3.8951723576
 31
0.0
 11
62.7770952274
 21
3.6246734638
 31
0.0
  0
SPLINE
  5
35C
100
AcDbEntity
  8
0
100
AcDbSpline
 62
7
  6
CONTINUOUS
 70
0
 71
3
 72
8
 73
4
 74
2
 42
0.0000001
 43
0.0000001
 44
0.0000000001
 12
0.529269918
 22
0.4952234402
 32
0.0
 13
0.8441160999
 23
0.0
 33
0.0
 40
0.0
 40
0.0
 40
0.0
 40
0.0
 40
1.0
 40
1.0
 40
1.0
 40
1.0
 10
61.3856456928
 20
3.6473392124
 30
0.0
 10
61.5620689988
 20
3.8124136925
 30
0.0
 10
61.7937930822
 20
3.8951723576
 30
0.0
 10
62.0751651155
 20
3.8951723576
 30
0.0
 11
61.3856456928
 21
3.6473392124
 31
0.0
 11
62.0751651155
 21
3.8951723576
 31
0.0
  0
SPLINE
  5
35D
100
AcDbEntity
  8
0
100
AcDbSpline
 62
7
  6
CONTINUOUS
 70
0
 71
3
 72
8
 73
4
 74
2
 42
0.0000001
 43
0.0000001
 44
0.0000000001
 12
0.0041690496
 22
0.8379432984
 32
0.0
 13
0.5321096935
 23
0.4978805408
 33
0.0
 40
0.0
 40
0.0
 40
0.0
 40
0.0
 40
1.0
 40
1.0
 40
1.0
 40
1.0
 10
61.115851759
 20
2.9806857961
 30
0.0
 10
61.1172414422
 20
3.2600002289
 30
0.0
 10
61.208275795
 20
3.4813790321
 30
0.0
 10
61.3856456928
 20
3.6473392124
 30
0.0
 11
61.115851759
 21
2.9806857961
 31
0.0
 11
61.3856456928
 21
3.6473392124
 31
0.0
  0
SPLINE
  5
35E
100
AcDbEntity
  8
0
100
AcDbSpline
 62
7
  6
CONTINUOUS
 70
0
 71
3
 72
8
 73
4
 74
2
 42
0.0000001
 43
0.0000001
 44
0.0000000001
 12
-0.1427584291
 22
0.37241292
 32
0.0
 13
0.0020381185
 23
0.4096443824
 33
0.0
 40
0.0
 40
0.0
 40
0.0
 40
0.0
 40
1.0
 40
1.0
 40
1.0
 40
1.0
 10
61.1855172515
 20
2.5896553993
 30
0.0
 10
61.1379311085
 20
2.7137930393
 30
0.0
 10
61.1151723862
 20
2.8441376686
 30
0.0
 10
61.115851759
 20
2.9806857961
 30
0.0
 11
61.1855172515
 21
2.5896553993
 31
0.0
 11
61.115851759
 21
2.9806857961
 31
0.0
  0
ELLIPSE
  5
35F
100
AcDbEntity
  8
RACCORDO
100
AcDbEllipse
 62
7
  6
CONTINUOUS
 10
-66.4999428824
 20
39.9999428824
 30
0.0
 11
-1.0607409467
 21
1.0607409467
 31
-0.0
 40
0.9999238505
 41
5.49782522
 42
7.0685453944
  0
ELLIPSE
  5
360
100
AcDbEntity
  8
RACCORDO
100
AcDbEllipse
 62
7
  6
CONTINUOUS
 10
66.4999428824
 20
39.9999428824
 30
0.0
 11
-1.0607409467
 21
-1.0607409467
 31
-0.0
 40
0.9999238505
 41
8.6394178736
 42
10.210138048
  0
ELLIPSE
  5
361
100
AcDbEntity
  8
RACCORDO
100
AcDbEllipse
 62
7
  6
CONTINUOUS
 10
66.4999428824
 20
39.9999428824
 30
0.0
 11
1.0607409468
 21
1.0607409466
 31
0.0
 40
0.9999238505
 41
0.7271778109
 42
0.7853600872
  0
ELLIPSE
  5
362
100
AcDbEntity
  8
RACCORDO
100
AcDbEllipse
 62
7
  6
CONTINUOUS
 10
66.4999428824
 20
39.9999428824
 30
0.0
 11
1.0607409466
 21
1.0607409468
 31
0.0
 40
0.9999238505
 41
-0.7271778078
 42
0.7271778107
  0
ELLIPSE
  5
363
100
AcDbEntity
  8
RACCORDO
100
AcDbEllipse
 62
7
  6
CONTINUOUS
 10
-66.4999428824
 20
39.9999428824
 30
0.0
 11
1.0607409467
 21
-1.0607409467
 31
0.0
 40
0.9999238505
 41
2.3562325664
 42
3.9269527408
  0
ELLIPSE
  5
364
100
AcDbEntity
  8
RACCORDO
100
AcDbEllipse
 62
7
  6
CONTINUOUS
 10
-66.4999428824
 20
-39.9999428824
 30
0.0
 11
1.0607409467
 21
1.0607409467
 31
0.0
 40
0.9999238505
 41
2.3562325664
 42
3.9269527408
  0
ELLIPSE
  5
365
100
AcDbEntity
  8
RACCORDO
100
AcDbEllipse
 62
7
  6
CONTINUOUS
 10
66.4999428824
 20
-39.9999428824
 30
0.0
 11
1.0607409467
 21
-1.0607409467
 31
0.0
 40
0.9999238505
 41
-0.7853600872
 42
0.7853600872
  0
ELLIPSE
  5
366
100
AcDbEntity
  8
DRAFT
100
AcDbEllipse
 62
7
  6
CONTINUOUS
 10
-34.0
 20
41.290555173
 30
0.0
 11
11.5
 21
0.0
 31
0.0
 40
0.0087268678
 41
0.0
 42
6.2831853072
  0
ELLIPSE
  5
367
100
AcDbEntity
  8
DRAFT
100
AcDbEllipse
 62
7
  6
CONTINUOUS
 10
-34.0
 20
-41.290555173
 30
0.0
 11
11.5
 21
-0.0
 31
0.0
 40
0.0087268678
 41
0.0
 42
6.2831853072
  0
ELLIPSE
  5
368
100
AcDbEntity
  8
DRAFT
100
AcDbEllipse
 62
7
  6
CONTINUOUS
 10
34.0
 20
41.290555173
 30
0.0
 11
11.5
 21
0.0
 31
0.0
 40
0.0087268678
 41
0.0
 42
6.2831853072
  0
ELLIPSE
  5
369
100
AcDbEntity
  8
DRAFT
100
AcDbEllipse
 62
7
  6
CONTINUOUS
 10
34.0
 20
-41.290555173
 30
0.0
 11
11.5
 21
-0.0
 31
0.0
 40
0.0087268678
 41
0.0
 42
6.2831853072
  0
ELLIPSE
  5
36A
100
AcDbEntity
  8
DRAFT
100
AcDbEllipse
 62
7
  6
CONTINUOUS
 10
-67.790555173
 20
0.0
 30
0.0
 11
-0.0
 21
11.5
 31
0.0
 40
0.0087268678
 41
0.0
 42
6.2831853072
  0
ELLIPSE
  5
36B
100
AcDbEntity
  8
DRAFT
100
AcDbEllipse
 62
7
  6
CONTINUOUS
 10
67.790555173
 20
-0.0
 30
0.0
 11
-0.0
 21
11.5
 31
0.0
 40
0.0087268678
 41
0.0
 42
6.2831853072
  0
ELLIPSE
  5
36C
100
AcDbEntity
  8
DRAFT
100
AcDbEllipse
 62
7
  6
CONTINUOUS
 10
-0.0
 20
41.290555173
 30
0.0
 11
11.5
 21
0.0
 31
0.0
 40
0.0087268678
 41
0.0
 42
6.2831853072
  0
ELLIPSE
  5
36D
100
AcDbEntity
  8
DRAFT
100
AcDbEllipse
 62
7
  6
CONTINUOUS
 10
-0.0
 20
-41.290555173
 30
0.0
 11
11.5
 21
-0.0
 31
0.0
 40
0.0087268678
 41
0.0
 42
6.2831853072
  0
ENDSEC
  0
SECTION
  2
OBJECTS
  0
DICTIONARY
  5
C
100
AcDbDictionary
280
0
281
1
  3
ACAD_GROUP
350
D
  3
ACAD_MLINESTYLE
350
17
  3
ACAD_LAYOUT
350
1A
  3
ACAD_PLOTSETTINGS
350
19
  3
ACAD_PLOTSTYLENAME
350
E
  0
DICTIONARY
  5
D
102
{ACAD_REACTORS
330
C
102
}
100
AcDbDictionary
280
0
281
1
  0
ACDBDICTIONARYWDFLT
  5
E
102
{ACAD_REACTORS
330
C
102
}
100
AcDbDictionary
281
1
  3
Normal
350
F
100
AcDbDictionaryWithDefault
340
F
  0
DICTIONARY
  5
17
102
{ACAD_REACTORS
330
C
102
}
100
AcDbDictionary
280
0
281
1
  3
Standard
350
18
  0
DICTIONARY
  5
19
102
{ACAD_REACTORS
330
C
102
}
100
AcDbDictionary
281
1
  0
DICTIONARY
  5
1A
102
{ACAD_REACTORS
330
C
102
}
100
AcDbDictionary
281
1
  3
Model
350
36E
  3
Layout1
350
36F
  0
ACDBPLACEHOLDER
  5
F
102
{ACAD_REACTORS
330
E
102
}
  0
MLINESTYLE
  5
18
102
{ACAD_REACTORS
330
17
102
}
100
AcDbMlineStyle
  2
STANDARD
 70
0
  3

 62
256
 51
90.0
 52
90.0
 71
2
 49
0.5
 62
256
  6
BYLAYER
 49
-0.5
 62
256
  6
BYLAYER
  0
LAYOUT
  5
36E
102
{ACAD_REACTORS
330
1A
102
}
100
AcDbPlotSettings
  1

  2
none_device
  4
ISO_A4_(297.00_x_210.00_MM)
  6

 40
0.0
 41
0.0
 42
0.0
 43
0.0
 44
297.0
 45
210.0
 46
0.0
 47
0.0
 48
0.0
 49
0.0
140
0.0
141
0.0
142
1.0
143
1.0
 70
1024
 72
1
 73
0
 74
0
  7

 75
0
147
1.0
148
0.0
149
0.0
100
AcDbLayout
  1
Model
 70
0
 71
0
 10
0.0
 20
0.0
 11
297.0
 21
210.0
 12
0.0
 22
0.0
 32
0.0
 14
0.0
 24
0.0
 34
0.0
 15
0.0
 25
0.0
 35
0.0
146
0.0
 13
0.0
 23
0.0
 33
0.0
 16
1.0
 26
0.0
 36
0.0
 17
0.0
 27
1.0
 37
0.0
 76
0
330
216
345
0
346
0
  0
LAYOUT
  5
36F
102
{ACAD_REACTORS
330
1A
102
}
100
AcDbPlotSettings
  1

  2
none_device
  4
ISO_A4_(297.00_x_210.00_MM)
  6

 40
0.0
 41
0.0
 42
0.0
 43
0.0
 44
297.0
 45
210.0
 46
0.0
 47
0.0
 48
0.0
 49
0.0
140
0.0
141
0.0
142
1.0
143
1.0
 70
0
 72
1
 73
0
 74
0
  7

 75
0
147
1.0
148
0.0
149
0.0
100
AcDbLayout
  1
Layout1
 70
0
 71
1
 10
0.0
 20
0.0
 11
297.0
 21
210.0
 12
0.0
 22
0.0
 32
0.0
 14
0.0
 24
0.0
 34
0.0
 15
0.0
 25
0.0
 35
0.0
146
0.0
 13
0.0
 23
0.0
 33
0.0
 16
1.0
 26
0.0
 36
0.0
 17
0.0
 27
1.0
 37
0.0
 76
0
330
217
345
0
346
0
  0
ENDSEC
  0
EOF
