  0
SECTION
  2
HEADER
  9
$ACADVER
  1
AC1015
  9
$DWGCODEPAGE
  3
ANSI_1252
  9
$EXTMAX
 10
297.0
 20
210.0
 30
0.0
  9
$EXTMIN
 10
0.0
 20
0.0
 30
0.0
  9
$LIMMIN
 10
0.0
 20
0.0
  9
$LIMMAX
 10
297.0
 20
210.0
  9
$VIEWCTR
 10
148.5
 20
105.0
  9
$VIEWSIZE
 40
210.0
  9
$CLAYER
  8
0
  9
$LTSCALE
 40
16.335
  9
$CELTYPE
  6
BYLAYER
  9
$DIMSCALE
 40
1.0
  9
$DIMASZ
 40
3.0
  9
$DIMEXO
 40
1.85625
  9
$DIMDLI
 40
11.286
  9
$DIMEXE
 40
5.346
  9
$DIMCEN
 40
2.673
  9
$DIMLFAC
 40
1.0
  9
$DIMBLK
  1
_FILLED
  9
$DIMTXT
 40
3.0
  9
$DIMTOL
 70
1
  9
$DIMLIM
 70
0
  9
$DIMTFAC
 40
1.0
  9
$DIMTP
 40
0.01
  9
$DIMTM
 40
0.01
  9
$PDMODE
 70
3
  9
$PDSIZE
 40
3.0
  9
$HANDSEED
  5
376
  9
$TILEMODE
 70
1
  9
$MEASUREMENT
 70
1
  9
$INSUNITS
 70
4
  0
ENDSEC
  0
SECTION
  2
CLASSES
  0
CLASS
  1
ACDBDICTIONARYWDFLT
  2
AcDbDictionaryWithDefault
  3
AutoCAD 2000
 90
0
280
0
281
0
  0
CLASS
  1
ACDBPLACEHOLDER
  2
AcDbPlaceHolder
  3
AutoCAD 2000
 90
0
280
0
281
0
  0
CLASS
  1
LAYOUT
  2
AcDbLayout
  3
AutoCAD 2000
 90
0
280
0
281
0
  0
ENDSEC
  0
SECTION
  2
TABLES
  0
TABLE
  2
VPORT
  5
8
100
AcDbSymbolTable
 70
2
  0
VPORT
  5
1F4
100
AcDbSymbolTableRecord
100
AcDbViewportTableRecord
  2
*ACTIVE
 70
0
 10
0.0
 20
0.0
 11
1.0
 21
1.0
 12
148.5
 22
105.0
 13
0.0
 23
0.0
 14
1.0
 24
1.0
 15
0.0
 25
0.0
 16
0.0
 26
0.0
 36
1.0
 17
0.0
 27
0.0
 37
0.0
 40
210.0
 41
1.4142857143
 42
50.0
 43
0.0
 44
0.0
 50
0.0
 51
0.0
 71
0
 72
100
 73
1
 74
1
 75
0
 76
0
 77
0
 78
0
  0
ENDTAB
  0
TABLE
  2
LTYPE
  5
5
100
AcDbSymbolTable
 70
6
  0
LTYPE
  5
14
100
AcDbSymbolTableRecord
100
AcDbLinetypeTableRecord
  2
BYBLOCK
 70
0
  3

 72
65
 73
0
 40
0.0
  0
LTYPE
  5
15
100
AcDbSymbolTableRecord
100
AcDbLinetypeTableRecord
  2
BYLAYER
 70
0
  3

 72
65
 73
0
 40
0.0
  0
LTYPE
  5
16
100
AcDbSymbolTableRecord
100
AcDbLinetypeTableRecord
  2
CONTINUOUS
 70
64
  3
Solid line
 72
65
 73
0
 40
0.0
  0
LTYPE
  5
1F5
100
AcDbSymbolTableRecord
100
AcDbLinetypeTableRecord
  2
CENTER
 70
64
  3
____ _ ____ _ ____ _ ____ _ ____ _ ____ _ ____
 72
65
 73
4
 40
0.6
 49
0.375
 74
0
 49
-0.075
 74
0
 49
0.075
 74
0
 49
-0.075
 74
0
  0
LTYPE
  5
1F6
100
AcDbSymbolTableRecord
100
AcDbLinetypeTableRecord
  2
HIDDEN
 70
64
  3
- - - - - - - - - - - - - - - - - - - -
 72
65
 73
2
 40
0.2
 49
0.1
 74
0
 49
-0.1
 74
0
  0
LTYPE
  5
1F7
100
AcDbSymbolTableRecord
100
AcDbLinetypeTableRecord
  2
PHANTOM
 70
64
  3
_____ _ _ _____ _ _ _____ _ _ _____
 72
65
 73
6
 40
0.8
 49
0.45
 74
0
 49
-0.05
 74
0
 49
0.1
 74
0
 49
-0.05
 74
0
 49
0.1
 74
0
 49
-0.05
 74
0
  0
LTYPE
  5
1F8
100
AcDbSymbolTableRecord
100
AcDbLinetypeTableRecord
  2
DOT
 70
64
  3
. . . . . . . . . . . . . . . . . . . .
 72
65
 73
2
 40
0.2
 49
0.1
 74
0
 49
-0.1
 74
0
  0
LTYPE
  5
1F9
100
AcDbSymbolTableRecord
100
AcDbLinetypeTableRecord
  2
DASHED
 70
64
  3
- - - - - - - - - - - - - - - - - - - -
 72
65
 73
2
 40
0.2
 49
0.1
 74
0
 49
-0.1
 74
0
  0
ENDTAB
  0
TABLE
  2
LAYER
  5
2
100
AcDbSymbolTable
 70
36
  0
LAYER
  5
10
100
AcDbSymbolTableRecord
100
AcDbLayerTableRecord
  2
0
 70
0
 62
7
  6
CONTINUOUS
370
-3
390
F
  0
LAYER
  5
1FA
100
AcDbSymbolTableRecord
100
AcDbLayerTableRecord
  2
DEFAULT_1
 70
0
 62
7
  6
CENTER
370
-3
390
F
  0
LAYER
  5
1FB
100
AcDbSymbolTableRecord
100
AcDbLayerTableRecord
  2
DEFAULT_2
 70
0
 62
7
  6
HIDDEN
370
-3
390
F
  0
LAYER
  5
1FC
100
AcDbSymbolTableRecord
100
AcDbLayerTableRecord
  2
DEFAULT_3
 70
0
 62
7
  6
PHANTOM
370
-3
390
F
  0
LAYER
  5
1FD
100
AcDbSymbolTableRecord
100
AcDbLayerTableRecord
  2
ASSI
 70
0
 62
7
  6
CONTINUOUS
370
-3
390
F
  0
LAYER
  5
1FE
100
AcDbSymbolTableRecord
100
AcDbLayerTableRecord
  2
COLOR5
 70
0
 62
7
  6
CONTINUOUS
370
-3
390
F
  0
LAYER
  5
1FF
100
AcDbSymbolTableRecord
100
AcDbLayerTableRecord
  2
COORDINATE
 70
0
 62
7
  6
CONTINUOUS
370
-3
390
F
  0
LAYER
  5
200
100
AcDbSymbolTableRecord
100
AcDbLayerTableRecord
  2
COORD_ORIGINE
 70
0
 62
7
  6
CONTINUOUS
370
-3
390
F
  0
LAYER
  5
201
100
AcDbSymbolTableRecord
100
AcDbLayerTableRecord
  2
COPY_PUBLISH
 70
0
 62
7
  6
CONTINUOUS
370
-3
390
F
  0
LAYER
  5
202
100
AcDbSymbolTableRecord
100
AcDbLayerTableRecord
  2
COSMETIC
 70
0
 62
7
  6
CONTINUOUS
370
-3
390
F
  0
LAYER
  5
203
100
AcDbSymbolTableRecord
100
AcDbLayerTableRecord
  2
CURVE
 70
0
 62
7
  6
CONTINUOUS
370
-3
390
F
  0
LAYER
  5
204
100
AcDbSymbolTableRecord
100
AcDbLayerTableRecord
  2
DRAFT
 70
0
 62
7
  6
CONTINUOUS
370
-3
390
F
  0
LAYER
  5
205
100
AcDbSymbolTableRecord
100
AcDbLayerTableRecord
  2
IMPORT_IGES
 70
0
 62
7
  6
CONTINUOUS
370
-3
390
F
  0
LAYER
  5
206
100
AcDbSymbolTableRecord
100
AcDbLayerTableRecord
  2
INTF_1
 70
0
 62
7
  6
CONTINUOUS
370
-3
390
F
  0
LAYER
  5
207
100
AcDbSymbolTableRecord
100
AcDbLayerTableRecord
  2
INTF_2
 70
0
 62
7
  6
CONTINUOUS
370
-3
390
F
  0
LAYER
  5
208
100
AcDbSymbolTableRecord
100
AcDbLayerTableRecord
  2
NOTE
 70
0
 62
7
  6
CONTINUOUS
370
-3
390
F
  0
LAYER
  5
209
100
AcDbSymbolTableRecord
100
AcDbLayerTableRecord
  2
PIANI
 70
0
 62
7
  6
CONTINUOUS
370
-3
390
F
  0
LAYER
  5
20A
100
AcDbSymbolTableRecord
100
AcDbLayerTableRecord
  2
PIANI_ORIGINE
 70
0
 62
7
  6
CONTINUOUS
370
-3
390
F
  0
LAYER
  5
20B
100
AcDbSymbolTableRecord
100
AcDbLayerTableRecord
  2
PUNTI
 70
0
 62
7
  6
CONTINUOUS
370
-3
390
F
  0
LAYER
  5
20C
100
AcDbSymbolTableRecord
100
AcDbLayerTableRecord
  2
RACCORDO
 70
0
 62
7
  6
CONTINUOUS
370
-3
390
F
  0
LAYER
  5
20D
100
AcDbSymbolTableRecord
100
AcDbLayerTableRecord
  2
RGB__255__255__255__
 70
0
 62
7
  6
CONTINUOUS
370
-3
390
F
  0
LAYER
  5
20E
100
AcDbSymbolTableRecord
100
AcDbLayerTableRecord
  2
RGB____0____0____0__
 70
0
 62
7
  6
CONTINUOUS
370
-3
390
F
  0
LAYER
  5
20F
100
AcDbSymbolTableRecord
100
AcDbLayerTableRecord
  2
SMUSSO
 70
0
 62
7
  6
CONTINUOUS
370
-3
390
F
  0
LAYER
  5
210
100
AcDbSymbolTableRecord
100
AcDbLayerTableRecord
  2
SNAPLINE
 70
0
 62
7
  6
CONTINUOUS
370
-3
390
F
  0
LAYER
  5
211
100
AcDbSymbolTableRecord
100
AcDbLayerTableRecord
  2
SUPERFICI
 70
0
 62
7
  6
CONTINUOUS
370
-3
390
F
  0
LAYER
  5
212
100
AcDbSymbolTableRecord
100
AcDbLayerTableRecord
  2
TRASH
 70
0
 62
7
  6
CONTINUOUS
370
-3
390
F
  0
LAYER
  5
213
100
AcDbSymbolTableRecord
100
AcDbLayerTableRecord
  2
XSEC_DATUMS
 70
0
 62
7
  6
CONTINUOUS
370
-3
390
F
  0
ENDTAB
  0
TABLE
  2
STYLE
  5
3
100
AcDbSymbolTable
 70
1
  0
STYLE
  5
11
100
AcDbSymbolTableRecord
100
AcDbTextStyleTableRecord
  2
STANDARD
 70
0
 40
0.0
 41
0.8
 50
0.0
 71
0
 42
0.2
  3
txt
  4

  0
STYLE
  5
214
100
AcDbSymbolTableRecord
100
AcDbTextStyleTableRecord
  2
TEXTSTYLE_1
 70
0
 40
0.0
 41
0.8
 50
0.0
 71
0
 42
0.2
  3
gdt
  4

  0
ENDTAB
  0
TABLE
  2
VIEW
  5
6
100
AcDbSymbolTable
 70
0
  0
ENDTAB
  0
TABLE
  2
UCS
  5
7
100
AcDbSymbolTable
 70
0
  0
ENDTAB
  0
TABLE
  2
APPID
  5
9
100
AcDbSymbolTable
 70
1
  0
APPID
  5
215
100
AcDbSymbolTableRecord
100
AcDbRegAppTableRecord
  2
ACAD
 70
0
  0
ENDTAB
  0
TABLE
  2
BLOCK_RECORD
  5
1
100
AcDbSymbolTable
 70
0
  0
BLOCK_RECORD
  5
216
100
AcDbSymbolTableRecord
100
AcDbBlockTableRecord
  2
*Model_Space
  0
BLOCK_RECORD
  5
217
100
AcDbSymbolTableRecord
100
AcDbBlockTableRecord
  2
*Paper_Space
  0
ENDTAB
  0
TABLE
  2
DIMSTYLE
  5
A
100
AcDbSymbolTable
 70
1
100
AcDbDimStyleTable
 71
0
  0
DIMSTYLE
105
218
100
AcDbSymbolTableRecord
100
AcDbDimStyleTableRecord
  2
STANDARD
 70
0
  3

  4

 40
1.0
 41
3.0
 42
0.0625
 43
0.38
 44
0.18
 45
0.0
 46
0.0
 47
0.01
 48
0.01
140
3.0
141
0.09
142
0.0
143
25.4
144
1.0
145
0.0
146
1.0
147
0.09
 71
1.0
 72
0.0
 73
0
 74
0
 75
0
 76
0
 77
1
 78
8
170
0
171
2
172
0
173
0
174
0
175
0
176
0
177
0
178
0
270
2
271
2
272
2
273
2
274
2
275
0
280
0
281
0
282
0
283
1
284
8
285
0
286
0
287
3
288
0
340
11
  0
ENDTAB
  0
ENDSEC
  0
SECTION
  2
BLOCKS
  0
BLOCK
  5
20
100
AcDbEntity
  8
0
100
AcDbBlockBegin
  2
*Model_Space
 70
0
 10
0.0
 20
0.0
 30
0.0
  3
*Model_Space
  1

  0
ENDBLK
  5
21
100
AcDbEntity
  8
0
100
AcDbBlockEnd
  0
BLOCK
  5
1C
100
AcDbEntity
  8
0
100
AcDbBlockBegin
  2
*Paper_Space
 70
0
 10
0.0
 20
0.0
 30
0.0
  3
*Paper_Space
  1

  0
ENDBLK
  5
1D
100
AcDbEntity
  8
0
100
AcDbBlockEnd
  0
ENDSEC
  0
SECTION
  2
ENTITIES
  0
LINE
  5
219
100
AcDbEntity
  8
RACCORDO
100
AcDbLine
 62
7
  6
CONTINUOUS
 10
-50.0
 20
-45.0319553157
 11
-50.0
 21
34.9680446843
  0
LINE
  5
21A
100
AcDbEntity
  8
RACCORDO
100
AcDbLine
 62
7
  6
CONTINUOUS
 10
-49.9993018655
 20
-45.0312663196
 11
-49.9993018655
 21
34.9673556883
  0
LINE
  5
21B
100
AcDbEntity
  8
RACCORDO
100
AcDbLine
 62
253
  6
CONTINUOUS
 10
-49.8631534462
 20
34.8311998943
 11
-49.8631534462
 21
-44.8951116326
  0
LINE
  5
21C
100
AcDbEntity
  8
0
100
AcDbLine
 62
7
  6
CONTINUOUS
 10
26.75
 20
-44.8319553157
 11
30.75
 21
-43.9319553157
  0
LINE
  5
21D
100
AcDbEntity
  8
0
100
AcDbLine
 62
7
  6
CONTINUOUS
 10
-30.75
 20
-43.9319553157
 11
-26.75
 21
-44.8319553157
  0
LINE
  5
21E
100
AcDbEntity
  8
RACCORDO
100
AcDbLine
 62
253
  6
CONTINUOUS
 10
-48.8631595385
 20
34.831207269
 11
-48.8631595385
 21
-44.8951179003
  0
LINE
  5
21F
100
AcDbEntity
  8
RACCORDO
100
AcDbLine
 62
253
  6
CONTINUOUS
 10
-48.3631625847
 20
-45.3951148542
 11
-48.3631625847
 21
-46.3951087618
  0
LINE
  5
220
100
AcDbEntity
  8
RACCORDO
100
AcDbLine
 62
253
  6
CONTINUOUS
 10
-48.3631625847
 20
35.3312042228
 11
-48.3631625847
 21
36.3311981305
  0
LINE
  5
221
100
AcDbEntity
  8
RACCORDO
100
AcDbLine
 62
7
  6
CONTINUOUS
 10
48.5
 20
-46.5319553157
 11
-48.5
 21
-46.5319553157
  0
LINE
  5
222
100
AcDbEntity
  8
RACCORDO
100
AcDbLine
 62
7
  6
CONTINUOUS
 10
48.499311004
 20
-46.5312571811
 11
-48.499311004
 21
-46.5312571811
  0
LINE
  5
223
100
AcDbEntity
  8
DRAFT
100
AcDbLine
 62
7
  6
CONTINUOUS
 10
-18.5
 20
-46.4125743099
 11
-23.5
 21
-46.4125743099
  0
LINE
  5
224
100
AcDbEntity
  8
RACCORDO
100
AcDbLine
 62
253
  6
CONTINUOUS
 10
-48.3631552099
 20
-46.3951087618
 11
-23.5
 21
-46.3951087618
  0
LINE
  5
225
100
AcDbEntity
  8
RACCORDO
100
AcDbLine
 62
253
  6
CONTINUOUS
 10
-18.5
 20
-46.3951087618
 11
48.3631563169
 21
-46.3951087618
  0
LINE
  5
226
100
AcDbEntity
  8
RACCORDO
100
AcDbLine
 62
253
  6
CONTINUOUS
 10
-48.3631625847
 20
-45.3951148542
 11
-23.5
 21
-45.3951148542
  0
LINE
  5
227
100
AcDbEntity
  8
RACCORDO
100
AcDbLine
 62
253
  6
CONTINUOUS
 10
-18.5
 20
-45.3951148542
 11
48.3631625847
 21
-45.3951148542
  0
LINE
  5
228
100
AcDbEntity
  8
RACCORDO
100
AcDbLine
 62
7
  6
CONTINUOUS
 10
-23.5
 20
-45.2819553157
 11
-18.5
 21
-45.2819553157
  0
LINE
  5
229
100
AcDbEntity
  8
RACCORDO
100
AcDbLine
 62
253
  6
CONTINUOUS
 10
48.8631595385
 20
-44.8951179003
 11
49.8631534462
 21
-44.8951179003
  0
LINE
  5
22A
100
AcDbEntity
  8
RACCORDO
100
AcDbLine
 62
253
  6
CONTINUOUS
 10
-48.8631595385
 20
-44.8951179003
 11
-49.8631534462
 21
-44.8951179003
  0
LINE
  5
22B
100
AcDbEntity
  8
0
100
AcDbLine
 62
7
  6
CONTINUOUS
 10
-31.25
 20
-44.4819553157
 11
-30.75
 21
-44.4819553157
  0
LINE
  5
22C
100
AcDbEntity
  8
0
100
AcDbLine
 62
7
  6
CONTINUOUS
 10
30.75
 20
-44.4819553157
 11
31.25
 21
-44.4819553157
  0
LINE
  5
22D
100
AcDbEntity
  8
RACCORDO
100
AcDbLine
 62
253
  6
CONTINUOUS
 10
-23.5
 20
-44.2819553157
 11
-18.5
 21
-44.2819553157
  0
LINE
  5
22E
100
AcDbEntity
  8
0
100
AcDbLine
 62
7
  6
CONTINUOUS
 10
26.75
 20
-44.0819553157
 11
-26.75
 21
-44.0819553157
  0
LINE
  5
22F
100
AcDbEntity
  8
0
100
AcDbLine
 62
7
  6
CONTINUOUS
 10
-26.75
 20
-43.8819553157
 11
26.75
 21
-43.8819553157
  0
LINE
  5
230
100
AcDbEntity
  8
0
100
AcDbLine
 62
7
  6
CONTINUOUS
 10
-26.75
 20
-43.7819553157
 11
26.75
 21
-43.7819553157
  0
LINE
  5
231
100
AcDbEntity
  8
0
100
AcDbLine
 62
7
  6
CONTINUOUS
 10
26.75
 20
-43.5819553157
 11
-26.75
 21
-43.5819553157
  0
LINE
  5
232
100
AcDbEntity
  8
0
100
AcDbLine
 62
7
  6
CONTINUOUS
 10
0.0531033874
 20
-42.8319553157
 11
1.8986207247
 21
-42.8319553157
  0
LINE
  5
233
100
AcDbEntity
  8
0
100
AcDbLine
 62
7
  6
CONTINUOUS
 10
1.8986207247
 20
-42.5567829107
 11
0.3696551919
 21
-42.5567829107
  0
LINE
  5
234
100
AcDbEntity
  8
0
100
AcDbLine
 62
7
  6
CONTINUOUS
 10
29.5
 20
-42.2819553157
 11
32.5
 21
-42.2819553157
  0
LINE
  5
235
100
AcDbEntity
  8
0
100
AcDbLine
 62
7
  6
CONTINUOUS
 10
-29.5
 20
-42.2819553157
 11
-32.5
 21
-42.2819553157
  0
LINE
  5
236
100
AcDbEntity
  8
SMUSSO
100
AcDbLine
 62
7
  6
CONTINUOUS
 10
-32.5
 20
-41.5319553157
 11
-29.5
 21
-41.5319553157
  0
LINE
  5
237
100
AcDbEntity
  8
SMUSSO
100
AcDbLine
 62
7
  6
CONTINUOUS
 10
29.5
 20
-41.5319553157
 11
32.5
 21
-41.5319553157
  0
LINE
  5
238
100
AcDbEntity
  8
SMUSSO
100
AcDbLine
 62
7
  6
CONTINUOUS
 10
-32.5
 20
-41.2319553157
 11
-29.5
 21
-41.2319553157
  0
LINE
  5
239
100
AcDbEntity
  8
SMUSSO
100
AcDbLine
 62
7
  6
CONTINUOUS
 10
29.5
 20
-41.2319553157
 11
32.5
 21
-41.2319553157
  0
LINE
  5
23A
100
AcDbEntity
  8
0
100
AcDbLine
 62
7
  6
CONTINUOUS
 10
-26.75
 20
-42.8319553157
 11
-30.75
 21
-43.7319553157
  0
LINE
  5
23B
100
AcDbEntity
  8
0
100
AcDbLine
 62
7
  6
CONTINUOUS
 10
48.0
 20
-40.2819553157
 11
34.7360679775
 21
-40.2819553157
  0
LINE
  5
23C
100
AcDbEntity
  8
0
100
AcDbLine
 62
7
  6
CONTINUOUS
 10
48.0
 20
-40.0819553157
 11
34.7494443758
 21
-40.0819553157
  0
LINE
  5
23D
100
AcDbEntity
  8
0
100
AcDbLine
 62
7
  6
CONTINUOUS
 10
48.0
 20
-39.9819553157
 11
34.7494443758
 21
-39.9819553157
  0
LINE
  5
23E
100
AcDbEntity
  8
0
100
AcDbLine
 62
7
  6
CONTINUOUS
 10
-0.9213792682
 20
-39.8319553157
 11
-1.2710344493
 21
-39.8319553157
  0
LINE
  5
23F
100
AcDbEntity
  8
0
100
AcDbLine
 62
7
  6
CONTINUOUS
 10
34.7360679775
 20
-39.7819553157
 11
48.0
 21
-39.7819553157
  0
LINE
  5
240
100
AcDbEntity
  8
SMUSSO
100
AcDbLine
 62
7
  6
CONTINUOUS
 10
32.5
 20
-38.8319553157
 11
29.5
 21
-38.8319553157
  0
LINE
  5
241
100
AcDbEntity
  8
SMUSSO
100
AcDbLine
 62
7
  6
CONTINUOUS
 10
-29.5
 20
-38.8319553157
 11
-32.5
 21
-38.8319553157
  0
LINE
  5
242
100
AcDbEntity
  8
SMUSSO
100
AcDbLine
 62
7
  6
CONTINUOUS
 10
32.5
 20
-38.5319553157
 11
29.5
 21
-38.5319553157
  0
LINE
  5
243
100
AcDbEntity
  8
SMUSSO
100
AcDbLine
 62
7
  6
CONTINUOUS
 10
-29.5
 20
-38.5319553157
 11
-32.5
 21
-38.5319553157
  0
LINE
  5
244
100
AcDbEntity
  8
ASSI
100
AcDbLine
 62
7
  6
CONTINUOUS
 10
32.5
 20
-37.7819553157
 11
29.5
 21
-37.7819553157
  0
LINE
  5
245
100
AcDbEntity
  8
ASSI
100
AcDbLine
 62
7
  6
CONTINUOUS
 10
-29.5
 20
-37.7819553157
 11
-32.5
 21
-37.7819553157
  0
LINE
  5
246
100
AcDbEntity
  8
0
100
AcDbLine
 62
7
  6
CONTINUOUS
 10
45.0
 20
-36.7819553157
 11
45.95
 21
-36.7819553157
  0
LINE
  5
247
100
AcDbEntity
  8
0
100
AcDbLine
 62
7
  6
CONTINUOUS
 10
46.05
 20
-36.7819553157
 11
47.0
 21
-36.7819553157
  0
LINE
  5
248
100
AcDbEntity
  8
0
100
AcDbLine
 62
7
  6
CONTINUOUS
 10
0.1255173087
 20
-40.498162212
 11
0.4379310012
 21
-40.531265678
  0
LINE
  5
249
100
AcDbEntity
  8
0
100
AcDbLine
 62
7
  6
CONTINUOUS
 10
30.75
 20
-43.7319553157
 11
26.75
 21
-42.8319553157
  0
LINE
  5
24A
100
AcDbEntity
  8
ASSI
100
AcDbLine
 62
7
  6
CONTINUOUS
 10
-33.25
 20
30.9680446843
 11
-33.25
 21
28.9680446843
  0
LINE
  5
24B
100
AcDbEntity
  8
SMUSSO
100
AcDbLine
 62
7
  6
CONTINUOUS
 10
-32.5
 20
30.9680446843
 11
-32.5
 21
28.9680446843
  0
LINE
  5
24C
100
AcDbEntity
  8
SMUSSO
100
AcDbLine
 62
253
  6
CONTINUOUS
 10
-32.5
 20
-38.8319553157
 11
-32.5
 21
-38.5319553157
  0
LINE
  5
24D
100
AcDbEntity
  8
SMUSSO
100
AcDbLine
 62
253
  6
CONTINUOUS
 10
-32.5
 20
-41.2319553157
 11
-32.5
 21
-41.5319553157
  0
LINE
  5
24E
100
AcDbEntity
  8
SMUSSO
100
AcDbLine
 62
7
  6
CONTINUOUS
 10
-32.2
 20
30.9680446843
 11
-32.2
 21
28.9680446843
  0
LINE
  5
24F
100
AcDbEntity
  8
0
100
AcDbLine
 62
7
  6
CONTINUOUS
 10
-31.25
 20
-44.4819553157
 11
-31.25
 21
-42.2819553157
  0
LINE
  5
250
100
AcDbEntity
  8
0
100
AcDbLine
 62
7
  6
CONTINUOUS
 10
-31.05
 20
-42.2819553157
 11
-31.05
 21
-44.4819553157
  0
LINE
  5
251
100
AcDbEntity
  8
0
100
AcDbLine
 62
7
  6
CONTINUOUS
 10
-30.95
 20
-42.2819553157
 11
-30.95
 21
-44.4819553157
  0
LINE
  5
252
100
AcDbEntity
  8
0
100
AcDbLine
 62
7
  6
CONTINUOUS
 10
-30.75
 20
-42.2819553157
 11
-30.75
 21
-44.4819553157
  0
LINE
  5
253
100
AcDbEntity
  8
SMUSSO
100
AcDbLine
 62
7
  6
CONTINUOUS
 10
-29.8
 20
28.9680446843
 11
-29.8
 21
30.9680446843
  0
LINE
  5
254
100
AcDbEntity
  8
SMUSSO
100
AcDbLine
 62
253
  6
CONTINUOUS
 10
-29.5
 20
-38.8319553157
 11
-29.5
 21
-38.5319553157
  0
LINE
  5
255
100
AcDbEntity
  8
SMUSSO
100
AcDbLine
 62
253
  6
CONTINUOUS
 10
-29.5
 20
-41.2319553157
 11
-29.5
 21
-41.5319553157
  0
LINE
  5
256
100
AcDbEntity
  8
SMUSSO
100
AcDbLine
 62
7
  6
CONTINUOUS
 10
-29.5
 20
28.9680446843
 11
-29.5
 21
30.9680446843
  0
LINE
  5
257
100
AcDbEntity
  8
ASSI
100
AcDbLine
 62
7
  6
CONTINUOUS
 10
-28.75
 20
28.9680446843
 11
-28.75
 21
30.9680446843
  0
LINE
  5
258
100
AcDbEntity
  8
0
100
AcDbLine
 62
7
  6
CONTINUOUS
 10
-26.75
 20
-42.8319553157
 11
-26.75
 21
-43.7819553157
  0
LINE
  5
259
100
AcDbEntity
  8
0
100
AcDbLine
 62
7
  6
CONTINUOUS
 10
-26.75
 20
-43.8819553157
 11
-26.75
 21
-44.8319553157
  0
LINE
  5
25A
100
AcDbEntity
  8
RACCORDO
100
AcDbLine
 62
7
  6
CONTINUOUS
 10
-23.5
 20
-46.4125743099
 11
-23.5
 21
-44.2819553157
  0
LINE
  5
25B
100
AcDbEntity
  8
RACCORDO
100
AcDbLine
 62
7
  6
CONTINUOUS
 10
-18.5
 20
-44.2819553157
 11
-18.5
 21
-46.4125743099
  0
LINE
  5
25C
100
AcDbEntity
  8
0
100
AcDbLine
 62
7
  6
CONTINUOUS
 10
-14.0
 20
37.7545629677
 11
-14.0
 21
36.3319553157
  0
LINE
  5
25D
100
AcDbEntity
  8
RACCORDO
100
AcDbLine
 62
7
  6
CONTINUOUS
 10
-14.0
 20
36.3319553157
 11
-14.0
 21
37.7545629677
  0
LINE
  5
25E
100
AcDbEntity
  8
0
100
AcDbLine
 62
7
  6
CONTINUOUS
 10
-11.85
 20
40.1586791574
 11
-11.85
 21
39.7319553157
  0
LINE
  5
25F
100
AcDbEntity
  8
RACCORDO
100
AcDbLine
 62
7
  6
CONTINUOUS
 10
-11.85
 20
39.7319553157
 11
-11.85
 21
40.1586791574
  0
LINE
  5
260
100
AcDbEntity
  8
0
100
AcDbLine
 62
7
  6
CONTINUOUS
 10
-11.35
 20
39.7319553157
 11
-11.35
 21
39.2319553157
  0
LINE
  5
261
100
AcDbEntity
  8
0
100
AcDbLine
 62
7
  6
CONTINUOUS
 10
-10.1
 20
41.9988715363
 11
-10.1
 21
41.5319553157
  0
LINE
  5
262
100
AcDbEntity
  8
RACCORDO
100
AcDbLine
 62
7
  6
CONTINUOUS
 10
-10.1
 20
41.5319553157
 11
-10.1
 21
41.9988715363
  0
LINE
  5
263
100
AcDbEntity
  8
0
100
AcDbLine
 62
7
  6
CONTINUOUS
 10
-9.45
 20
41.5319553157
 11
-9.45
 21
41.0319553157
  0
LINE
  5
264
100
AcDbEntity
  8
RACCORDO
100
AcDbLine
 62
253
  6
CONTINUOUS
 10
-49.9993018655
 20
34.9673556883
 11
-49.8631534462
 21
34.8311998943
  0
LINE
  5
265
100
AcDbEntity
  8
RACCORDO
100
AcDbLine
 62
253
  6
CONTINUOUS
 10
-48.499311004
 20
36.4673465498
 11
-48.3631563169
 21
36.3311981305
  0
LINE
  5
266
100
AcDbEntity
  8
0
100
AcDbLine
 62
7
  6
CONTINUOUS
 10
-8.35
 20
43.772076617
 11
-8.35
 21
43.3319553157
  0
LINE
  5
267
100
AcDbEntity
  8
RACCORDO
100
AcDbLine
 62
7
  6
CONTINUOUS
 10
-8.35
 20
43.3319553157
 11
-8.35
 21
43.772076617
  0
LINE
  5
268
100
AcDbEntity
  8
0
100
AcDbLine
 62
7
  6
CONTINUOUS
 10
-7.85
 20
43.3319553157
 11
-7.85
 21
42.8319553157
  0
LINE
  5
269
100
AcDbEntity
  8
0
100
AcDbLine
 62
7
  6
CONTINUOUS
 10
-4.1
 20
45.4711147227
 11
-4.1
 21
45.1319553157
  0
LINE
  5
26A
100
AcDbEntity
  8
RACCORDO
100
AcDbLine
 62
7
  6
CONTINUOUS
 10
-4.1
 20
45.1319553157
 11
-4.1
 21
45.4711147227
  0
LINE
  5
26B
100
AcDbEntity
  8
0
100
AcDbLine
 62
7
  6
CONTINUOUS
 10
42.0
 20
-7.3105759983
 11
42.2772413492
 21
-7.3105759983
  0
LINE
  5
26C
100
AcDbEntity
  8
0
100
AcDbLine
 62
7
  6
CONTINUOUS
 10
42.2772413492
 20
-5.5912656923
 11
42.0
 21
-5.5912656923
  0
LINE
  5
26D
100
AcDbEntity
  8
0
100
AcDbLine
 62
7
  6
CONTINUOUS
 10
-3.6
 20
45.1319553157
 11
-3.6
 21
44.6319553157
  0
LINE
  5
26E
100
AcDbEntity
  8
0
100
AcDbLine
 62
7
  6
CONTINUOUS
 10
0.0531033874
 20
-42.4802311679
 11
0.0531033874
 21
-42.8319553157
  0
LINE
  5
26F
100
AcDbEntity
  8
RACCORDO
100
AcDbLine
 62
253
  6
CONTINUOUS
 10
-49.9993018655
 20
-45.0312663196
 11
-49.8631534462
 21
-44.8951116326
  0
LINE
  5
270
100
AcDbEntity
  8
RACCORDO
100
AcDbLine
 62
253
  6
CONTINUOUS
 10
-48.499311004
 20
-46.5312571811
 11
-48.3631552099
 21
-46.3951087618
  0
LINE
  5
271
100
AcDbEntity
  8
0
100
AcDbLine
 62
7
  6
CONTINUOUS
 10
1.8986207247
 20
-42.8319553157
 11
1.8986207247
 21
-42.5567829107
  0
LINE
  5
272
100
AcDbEntity
  8
0
100
AcDbLine
 62
7
  6
CONTINUOUS
 10
3.6
 20
45.1319553157
 11
3.6
 21
44.6319553157
  0
LINE
  5
273
100
AcDbEntity
  8
0
100
AcDbLine
 62
7
  6
CONTINUOUS
 10
4.1
 20
45.4711147227
 11
4.1
 21
45.1319553157
  0
LINE
  5
274
100
AcDbEntity
  8
RACCORDO
100
AcDbLine
 62
7
  6
CONTINUOUS
 10
4.1
 20
45.1319553157
 11
4.1
 21
45.4711147227
  0
LINE
  5
275
100
AcDbEntity
  8
RACCORDO
100
AcDbLine
 62
253
  6
CONTINUOUS
 10
48.499311004
 20
-46.5312571811
 11
48.3631563169
 21
-46.3951087618
  0
LINE
  5
276
100
AcDbEntity
  8
RACCORDO
100
AcDbLine
 62
253
  6
CONTINUOUS
 10
49.9993018655
 20
-45.0312663196
 11
49.8631534462
 21
-44.8951105256
  0
LINE
  5
277
100
AcDbEntity
  8
0
100
AcDbLine
 62
7
  6
CONTINUOUS
 10
7.85
 20
43.3319553157
 11
7.85
 21
42.8319553157
  0
LINE
  5
278
100
AcDbEntity
  8
0
100
AcDbLine
 62
7
  6
CONTINUOUS
 10
8.35
 20
43.772076617
 11
8.35
 21
43.3319553157
  0
LINE
  5
279
100
AcDbEntity
  8
RACCORDO
100
AcDbLine
 62
7
  6
CONTINUOUS
 10
8.35
 20
43.3319553157
 11
8.35
 21
43.772076617
  0
LINE
  5
27A
100
AcDbEntity
  8
0
100
AcDbLine
 62
7
  6
CONTINUOUS
 10
9.45
 20
41.5319553157
 11
9.45
 21
41.0319553157
  0
LINE
  5
27B
100
AcDbEntity
  8
RACCORDO
100
AcDbLine
 62
253
  6
CONTINUOUS
 10
48.499311004
 20
36.4673465498
 11
48.3631552099
 21
36.3311981305
  0
LINE
  5
27C
100
AcDbEntity
  8
RACCORDO
100
AcDbLine
 62
7
  6
CONTINUOUS
 10
10.1
 20
41.5319553157
 11
10.1
 21
41.9988715363
  0
LINE
  5
27D
100
AcDbEntity
  8
0
100
AcDbLine
 62
7
  6
CONTINUOUS
 10
11.35
 20
39.7319553157
 11
11.35
 21
39.2319553157
  0
LINE
  5
27E
100
AcDbEntity
  8
0
100
AcDbLine
 62
7
  6
CONTINUOUS
 10
11.85
 20
40.1586791574
 11
11.85
 21
39.7319553157
  0
LINE
  5
27F
100
AcDbEntity
  8
RACCORDO
100
AcDbLine
 62
7
  6
CONTINUOUS
 10
11.85
 20
39.7319553157
 11
11.85
 21
40.1586791574
  0
LINE
  5
280
100
AcDbEntity
  8
0
100
AcDbLine
 62
7
  6
CONTINUOUS
 10
14.0
 20
37.7545629677
 11
14.0
 21
36.3319553157
  0
LINE
  5
281
100
AcDbEntity
  8
RACCORDO
100
AcDbLine
 62
7
  6
CONTINUOUS
 10
14.0
 20
36.3319553157
 11
14.0
 21
37.7545629677
  0
LINE
  5
282
100
AcDbEntity
  8
RACCORDO
100
AcDbLine
 62
253
  6
CONTINUOUS
 10
49.9993018655
 20
34.9673556883
 11
49.8631534462
 21
34.8312010013
  0
LINE
  5
283
100
AcDbEntity
  8
0
100
AcDbLine
 62
7
  6
CONTINUOUS
 10
45.0
 20
-6.7581622441
 11
42.2772413492
 21
-5.5912656923
  0
LINE
  5
284
100
AcDbEntity
  8
0
100
AcDbLine
 62
7
  6
CONTINUOUS
 10
42.2772413492
 20
-5.8995414515
 11
45.0
 21
-7.0912656476
  0
LINE
  5
285
100
AcDbEntity
  8
RACCORDO
100
AcDbLine
 62
7
  6
CONTINUOUS
 10
18.5
 20
34.2180446843
 11
18.5
 21
36.3486636786
  0
LINE
  5
286
100
AcDbEntity
  8
0
100
AcDbLine
 62
7
  6
CONTINUOUS
 10
-1.2710344493
 20
-39.8319553157
 11
-2.0531034321
 21
-41.1498864313
  0
LINE
  5
287
100
AcDbEntity
  8
0
100
AcDbLine
 62
7
  6
CONTINUOUS
 10
-1.7158620954
 20
-41.1229897757
 11
-0.9213792682
 21
-39.8319553157
  0
LINE
  5
288
100
AcDbEntity
  8
RACCORDO
100
AcDbLine
 62
7
  6
CONTINUOUS
 10
23.5
 20
36.3486636786
 11
23.5
 21
34.2180446843
  0
LINE
  5
289
100
AcDbEntity
  8
0
100
AcDbLine
 62
7
  6
CONTINUOUS
 10
26.75
 20
-42.8319553157
 11
26.75
 21
-43.7819553157
  0
LINE
  5
28A
100
AcDbEntity
  8
0
100
AcDbLine
 62
7
  6
CONTINUOUS
 10
26.75
 20
-43.8819553157
 11
26.75
 21
-44.8319553157
  0
LINE
  5
28B
100
AcDbEntity
  8
0
100
AcDbLine
 62
7
  6
CONTINUOUS
 10
45.0
 20
26.7180446843
 11
45.95
 21
26.7180446843
  0
LINE
  5
28C
100
AcDbEntity
  8
0
100
AcDbLine
 62
7
  6
CONTINUOUS
 10
46.05
 20
26.7180446843
 11
47.0
 21
26.7180446843
  0
LINE
  5
28D
100
AcDbEntity
  8
ASSI
100
AcDbLine
 62
7
  6
CONTINUOUS
 10
28.75
 20
30.9680446843
 11
28.75
 21
28.9680446843
  0
LINE
  5
28E
100
AcDbEntity
  8
SMUSSO
100
AcDbLine
 62
7
  6
CONTINUOUS
 10
29.5
 20
30.9680446843
 11
29.5
 21
28.9680446843
  0
LINE
  5
28F
100
AcDbEntity
  8
SMUSSO
100
AcDbLine
 62
253
  6
CONTINUOUS
 10
29.5
 20
-38.8319553157
 11
29.5
 21
-38.5319553157
  0
LINE
  5
290
100
AcDbEntity
  8
SMUSSO
100
AcDbLine
 62
253
  6
CONTINUOUS
 10
29.5
 20
-41.2319553157
 11
29.5
 21
-41.5319553157
  0
LINE
  5
291
100
AcDbEntity
  8
SMUSSO
100
AcDbLine
 62
7
  6
CONTINUOUS
 10
29.8
 20
30.9680446843
 11
29.8
 21
28.9680446843
  0
LINE
  5
292
100
AcDbEntity
  8
0
100
AcDbLine
 62
7
  6
CONTINUOUS
 10
30.75
 20
-44.4819553157
 11
30.75
 21
-42.2819553157
  0
LINE
  5
293
100
AcDbEntity
  8
0
100
AcDbLine
 62
7
  6
CONTINUOUS
 10
30.95
 20
-42.2819553157
 11
30.95
 21
-44.4819553157
  0
LINE
  5
294
100
AcDbEntity
  8
0
100
AcDbLine
 62
7
  6
CONTINUOUS
 10
31.05
 20
-42.2819553157
 11
31.05
 21
-44.4819553157
  0
LINE
  5
295
100
AcDbEntity
  8
0
100
AcDbLine
 62
7
  6
CONTINUOUS
 10
31.25
 20
-44.4819553157
 11
31.25
 21
-42.2819553157
  0
LINE
  5
296
100
AcDbEntity
  8
SMUSSO
100
AcDbLine
 62
7
  6
CONTINUOUS
 10
32.2
 20
28.9680446843
 11
32.2
 21
30.9680446843
  0
LINE
  5
297
100
AcDbEntity
  8
0
100
AcDbLine
 62
7
  6
CONTINUOUS
 10
1.2096552849
 20
-41.2636795064
 11
0.0531033874
 21
-42.4802311679
  0
LINE
  5
298
100
AcDbEntity
  8
0
100
AcDbLine
 62
7
  6
CONTINUOUS
 10
0.3696551919
 20
-42.5567829107
 11
1.2862069607
 21
-41.6174725314
  0
LINE
  5
299
100
AcDbEntity
  8
SMUSSO
100
AcDbLine
 62
253
  6
CONTINUOUS
 10
-29.8
 20
28.9680446843
 11
-29.5
 21
28.9680446843
  0
LINE
  5
29A
100
AcDbEntity
  8
SMUSSO
100
AcDbLine
 62
253
  6
CONTINUOUS
 10
29.8
 20
28.9680446843
 11
29.5
 21
28.9680446843
  0
LINE
  5
29B
100
AcDbEntity
  8
SMUSSO
100
AcDbLine
 62
253
  6
CONTINUOUS
 10
32.2
 20
28.9680446843
 11
32.5
 21
28.9680446843
  0
LINE
  5
29C
100
AcDbEntity
  8
SMUSSO
100
AcDbLine
 62
253
  6
CONTINUOUS
 10
-32.2
 20
28.9680446843
 11
-32.5
 21
28.9680446843
  0
LINE
  5
29D
100
AcDbEntity
  8
0
100
AcDbLine
 62
7
  6
CONTINUOUS
 10
48.0
 20
29.7180446843
 11
33.25
 21
29.7180446843
  0
LINE
  5
29E
100
AcDbEntity
  8
0
100
AcDbLine
 62
7
  6
CONTINUOUS
 10
48.0
 20
29.9180446843
 11
33.25
 21
29.9180446843
  0
LINE
  5
29F
100
AcDbEntity
  8
0
100
AcDbLine
 62
7
  6
CONTINUOUS
 10
48.0
 20
30.0180446843
 11
33.25
 21
30.0180446843
  0
LINE
  5
2A0
100
AcDbEntity
  8
0
100
AcDbLine
 62
7
  6
CONTINUOUS
 10
48.0
 20
30.2180446843
 11
33.25
 21
30.2180446843
  0
LINE
  5
2A1
100
AcDbEntity
  8
SMUSSO
100
AcDbLine
 62
253
  6
CONTINUOUS
 10
-29.8
 20
30.9680446843
 11
-29.5
 21
30.9680446843
  0
LINE
  5
2A2
100
AcDbEntity
  8
SMUSSO
100
AcDbLine
 62
253
  6
CONTINUOUS
 10
29.8
 20
30.9680446843
 11
29.5
 21
30.9680446843
  0
LINE
  5
2A3
100
AcDbEntity
  8
SMUSSO
100
AcDbLine
 62
253
  6
CONTINUOUS
 10
32.2
 20
30.9680446843
 11
32.5
 21
30.9680446843
  0
LINE
  5
2A4
100
AcDbEntity
  8
SMUSSO
100
AcDbLine
 62
253
  6
CONTINUOUS
 10
-32.2
 20
30.9680446843
 11
-32.5
 21
30.9680446843
  0
LINE
  5
2A5
100
AcDbEntity
  8
SMUSSO
100
AcDbLine
 62
253
  6
CONTINUOUS
 10
32.5
 20
-38.8319553157
 11
32.5
 21
-38.5319553157
  0
LINE
  5
2A6
100
AcDbEntity
  8
SMUSSO
100
AcDbLine
 62
253
  6
CONTINUOUS
 10
32.5
 20
-41.2319553157
 11
32.5
 21
-41.5319553157
  0
LINE
  5
2A7
100
AcDbEntity
  8
SMUSSO
100
AcDbLine
 62
7
  6
CONTINUOUS
 10
32.5
 20
28.9680446843
 11
32.5
 21
30.9680446843
  0
LINE
  5
2A8
100
AcDbEntity
  8
0
100
AcDbLine
 62
7
  6
CONTINUOUS
 10
33.25
 20
28.9680446843
 11
33.25
 21
30.9680446843
  0
LINE
  5
2A9
100
AcDbEntity
  8
0
100
AcDbLine
 62
7
  6
CONTINUOUS
 10
45.9
 20
29.7180446843
 11
45.0
 21
26.7180446843
  0
LINE
  5
2AA
100
AcDbEntity
  8
RACCORDO
100
AcDbLine
 62
253
  6
CONTINUOUS
 10
23.5
 20
34.2180446843
 11
18.5
 21
34.2180446843
  0
LINE
  5
2AB
100
AcDbEntity
  8
RACCORDO
100
AcDbLine
 62
253
  6
CONTINUOUS
 10
48.8631595385
 20
34.831207269
 11
49.8631534462
 21
34.831207269
  0
LINE
  5
2AC
100
AcDbEntity
  8
RACCORDO
100
AcDbLine
 62
253
  6
CONTINUOUS
 10
-48.8631595385
 20
34.831207269
 11
-49.8631534462
 21
34.831207269
  0
LINE
  5
2AD
100
AcDbEntity
  8
RACCORDO
100
AcDbLine
 62
7
  6
CONTINUOUS
 10
23.5
 20
35.2180446843
 11
18.5
 21
35.2180446843
  0
LINE
  5
2AE
100
AcDbEntity
  8
RACCORDO
100
AcDbLine
 62
253
  6
CONTINUOUS
 10
48.3631625847
 20
35.3312042228
 11
23.5
 21
35.3312042228
  0
LINE
  5
2AF
100
AcDbEntity
  8
RACCORDO
100
AcDbLine
 62
253
  6
CONTINUOUS
 10
18.5
 20
35.3312042228
 11
-48.3631625847
 21
35.3312042228
  0
LINE
  5
2B0
100
AcDbEntity
  8
RACCORDO
100
AcDbLine
 62
253
  6
CONTINUOUS
 10
48.3631552099
 20
36.3311981305
 11
23.5
 21
36.3311981305
  0
LINE
  5
2B1
100
AcDbEntity
  8
RACCORDO
100
AcDbLine
 62
253
  6
CONTINUOUS
 10
18.5
 20
36.3311981305
 11
-48.3631563169
 21
36.3311981305
  0
LINE
  5
2B2
100
AcDbEntity
  8
DRAFT
100
AcDbLine
 62
7
  6
CONTINUOUS
 10
23.5
 20
36.3486636786
 11
18.5
 21
36.3486636786
  0
LINE
  5
2B3
100
AcDbEntity
  8
RACCORDO
100
AcDbLine
 62
7
  6
CONTINUOUS
 10
-48.499311004
 20
36.4673465498
 11
-14.0
 21
36.4673465498
  0
LINE
  5
2B4
100
AcDbEntity
  8
RACCORDO
100
AcDbLine
 62
7
  6
CONTINUOUS
 10
14.0
 20
36.4673465498
 11
48.499311004
 21
36.4673465498
  0
LINE
  5
2B5
100
AcDbEntity
  8
RACCORDO
100
AcDbLine
 62
7
  6
CONTINUOUS
 10
-48.5
 20
36.4680446843
 11
-14.0
 21
36.4680446843
  0
LINE
  5
2B6
100
AcDbEntity
  8
RACCORDO
100
AcDbLine
 62
7
  6
CONTINUOUS
 10
14.0
 20
36.4680446843
 11
48.5
 21
36.4680446843
  0
LINE
  5
2B7
100
AcDbEntity
  8
0
100
AcDbLine
 62
7
  6
CONTINUOUS
 10
45.0
 20
-36.7819553157
 11
45.9
 21
-39.7819553157
  0
LINE
  5
2B8
100
AcDbEntity
  8
0
100
AcDbLine
 62
7
  6
CONTINUOUS
 10
-11.35
 20
39.2319553157
 11
-13.2588190451
 21
38.720488794
  0
LINE
  5
2B9
100
AcDbEntity
  8
RACCORDO
100
AcDbLine
 62
253
  6
CONTINUOUS
 10
-14.0
 20
37.7545629677
 11
14.0
 21
37.7545629677
  0
LINE
  5
2BA
100
AcDbEntity
  8
RACCORDO
100
AcDbLine
 62
253
  6
CONTINUOUS
 10
-13.2588190451
 20
38.720488794
 11
13.2588190451
 21
38.720488794
  0
LINE
  5
2BB
100
AcDbEntity
  8
0
100
AcDbLine
 62
7
  6
CONTINUOUS
 10
11.35
 20
39.2319553157
 11
-11.35
 21
39.2319553157
  0
LINE
  5
2BC
100
AcDbEntity
  8
0
100
AcDbLine
 62
7
  6
CONTINUOUS
 10
11.85
 20
39.7319553157
 11
-11.85
 21
39.7319553157
  0
LINE
  5
2BD
100
AcDbEntity
  8
RACCORDO
100
AcDbLine
 62
253
  6
CONTINUOUS
 10
-11.85
 20
40.1586791574
 11
11.85
 21
40.1586791574
  0
LINE
  5
2BE
100
AcDbEntity
  8
RACCORDO
100
AcDbLine
 62
253
  6
CONTINUOUS
 10
-11.6276457135
 20
40.4484569053
 11
11.6276457135
 21
40.4484569053
  0
LINE
  5
2BF
100
AcDbEntity
  8
0
100
AcDbLine
 62
7
  6
CONTINUOUS
 10
9.45
 20
41.0319553157
 11
-9.45
 21
41.0319553157
  0
LINE
  5
2C0
100
AcDbEntity
  8
0
100
AcDbLine
 62
7
  6
CONTINUOUS
 10
10.1
 20
41.5319553157
 11
-10.1
 21
41.5319553157
  0
LINE
  5
2C1
100
AcDbEntity
  8
0
100
AcDbLine
 62
7
  6
CONTINUOUS
 10
11.35
 20
39.2319553157
 11
13.2588190451
 21
38.720488794
  0
LINE
  5
2C2
100
AcDbEntity
  8
RACCORDO
100
AcDbLine
 62
7
  6
CONTINUOUS
 10
13.2588190451
 20
38.720488794
 11
11.35
 21
39.2319553157
  0
LINE
  5
2C3
100
AcDbEntity
  8
0
100
AcDbLine
 62
7
  6
CONTINUOUS
 10
42.0
 20
-5.5912656923
 11
42.0
 21
-7.3105759983
  0
LINE
  5
2C4
100
AcDbEntity
  8
0
100
AcDbLine
 62
7
  6
CONTINUOUS
 10
42.2772413492
 20
-7.3105759983
 11
42.2772413492
 21
-5.8995414515
  0
LINE
  5
2C5
100
AcDbEntity
  8
0
100
AcDbLine
 62
7
  6
CONTINUOUS
 10
45.0
 20
-7.0912656476
 11
45.0
 21
-6.7581622441
  0
LINE
  5
2C6
100
AcDbEntity
  8
0
100
AcDbLine
 62
7
  6
CONTINUOUS
 10
45.75
 20
26.7180446843
 11
45.75
 21
-36.7819553157
  0
LINE
  5
2C7
100
AcDbEntity
  8
0
100
AcDbLine
 62
7
  6
CONTINUOUS
 10
45.95
 20
26.7180446843
 11
45.95
 21
-36.7819553157
  0
LINE
  5
2C8
100
AcDbEntity
  8
0
100
AcDbLine
 62
7
  6
CONTINUOUS
 10
46.05
 20
26.7180446843
 11
46.05
 21
-36.7819553157
  0
LINE
  5
2C9
100
AcDbEntity
  8
0
100
AcDbLine
 62
7
  6
CONTINUOUS
 10
-9.45
 20
41.0319553157
 11
-11.6276457135
 21
40.4484569053
  0
LINE
  5
2CA
100
AcDbEntity
  8
0
100
AcDbLine
 62
7
  6
CONTINUOUS
 10
-7.85
 20
42.8319553157
 11
-9.8776457135
 21
42.2886492842
  0
LINE
  5
2CB
100
AcDbEntity
  8
0
100
AcDbLine
 62
7
  6
CONTINUOUS
 10
-6.0
 20
44.6319553157
 11
-8.1276457135
 21
44.0618543649
  0
LINE
  5
2CC
100
AcDbEntity
  8
0
100
AcDbLine
 62
7
  6
CONTINUOUS
 10
-1.0
 20
46.5319553157
 11
-3.8776457135
 21
45.7608924706
  0
LINE
  5
2CD
100
AcDbEntity
  8
RACCORDO
100
AcDbLine
 62
253
  6
CONTINUOUS
 10
-10.1
 20
41.9988715363
 11
10.1
 21
41.9988715363
  0
LINE
  5
2CE
100
AcDbEntity
  8
RACCORDO
100
AcDbLine
 62
253
  6
CONTINUOUS
 10
-9.8776457135
 20
42.2886492842
 11
9.8776457135
 21
42.2886492842
  0
LINE
  5
2CF
100
AcDbEntity
  8
0
100
AcDbLine
 62
7
  6
CONTINUOUS
 10
7.85
 20
42.8319553157
 11
-7.85
 21
42.8319553157
  0
LINE
  5
2D0
100
AcDbEntity
  8
0
100
AcDbLine
 62
7
  6
CONTINUOUS
 10
8.35
 20
43.3319553157
 11
-8.35
 21
43.3319553157
  0
LINE
  5
2D1
100
AcDbEntity
  8
RACCORDO
100
AcDbLine
 62
253
  6
CONTINUOUS
 10
-8.35
 20
43.772076617
 11
8.35
 21
43.772076617
  0
LINE
  5
2D2
100
AcDbEntity
  8
RACCORDO
100
AcDbLine
 62
253
  6
CONTINUOUS
 10
-8.1276457135
 20
44.0618543649
 11
8.1276457135
 21
44.0618543649
  0
LINE
  5
2D3
100
AcDbEntity
  8
0
100
AcDbLine
 62
7
  6
CONTINUOUS
 10
6.0
 20
44.6319553157
 11
-6.0
 21
44.6319553157
  0
LINE
  5
2D4
100
AcDbEntity
  8
0
100
AcDbLine
 62
7
  6
CONTINUOUS
 10
4.1
 20
45.1319553157
 11
-4.1
 21
45.1319553157
  0
LINE
  5
2D5
100
AcDbEntity
  8
RACCORDO
100
AcDbLine
 62
253
  6
CONTINUOUS
 10
-4.1
 20
45.4711147227
 11
4.1
 21
45.4711147227
  0
LINE
  5
2D6
100
AcDbEntity
  8
RACCORDO
100
AcDbLine
 62
253
  6
CONTINUOUS
 10
-3.8776457135
 20
45.7608924706
 11
3.8776457135
 21
45.7608924706
  0
LINE
  5
2D7
100
AcDbEntity
  8
0
100
AcDbLine
 62
7
  6
CONTINUOUS
 10
9.45
 20
41.0319553157
 11
11.6276457135
 21
40.4484569053
  0
LINE
  5
2D8
100
AcDbEntity
  8
RACCORDO
100
AcDbLine
 62
7
  6
CONTINUOUS
 10
11.6276457135
 20
40.4484569053
 11
9.45
 21
41.0319553157
  0
LINE
  5
2D9
100
AcDbEntity
  8
0
100
AcDbLine
 62
7
  6
CONTINUOUS
 10
7.85
 20
42.8319553157
 11
9.8776457135
 21
42.2886492842
  0
LINE
  5
2DA
100
AcDbEntity
  8
RACCORDO
100
AcDbLine
 62
7
  6
CONTINUOUS
 10
9.8776457135
 20
42.2886492842
 11
7.85
 21
42.8319553157
  0
LINE
  5
2DB
100
AcDbEntity
  8
0
100
AcDbLine
 62
7
  6
CONTINUOUS
 10
6.0
 20
44.6319553157
 11
8.1276457135
 21
44.0618543649
  0
LINE
  5
2DC
100
AcDbEntity
  8
RACCORDO
100
AcDbLine
 62
7
  6
CONTINUOUS
 10
8.1276457135
 20
44.0618543649
 11
6.0
 21
44.6319553157
  0
LINE
  5
2DD
100
AcDbEntity
  8
0
100
AcDbLine
 62
7
  6
CONTINUOUS
 10
1.0
 20
46.5319553157
 11
3.8776457135
 21
45.7608924706
  0
LINE
  5
2DE
100
AcDbEntity
  8
RACCORDO
100
AcDbLine
 62
7
  6
CONTINUOUS
 10
3.8776457135
 20
45.7608924706
 11
1.0
 21
46.5319553157
  0
LINE
  5
2DF
100
AcDbEntity
  8
0
100
AcDbLine
 62
7
  6
CONTINUOUS
 10
46.25
 20
26.7180446843
 11
46.25
 21
-36.7819553157
  0
LINE
  5
2E0
100
AcDbEntity
  8
0
100
AcDbLine
 62
7
  6
CONTINUOUS
 10
48.0
 20
30.2180446843
 11
48.0
 21
29.7180446843
  0
LINE
  5
2E1
100
AcDbEntity
  8
0
100
AcDbLine
 62
7
  6
CONTINUOUS
 10
48.0
 20
-39.7819553157
 11
48.0
 21
-40.2819553157
  0
LINE
  5
2E2
100
AcDbEntity
  8
RACCORDO
100
AcDbLine
 62
253
  6
CONTINUOUS
 10
48.3631625847
 20
-45.3951148542
 11
48.3631625847
 21
-46.3951087618
  0
LINE
  5
2E3
100
AcDbEntity
  8
RACCORDO
100
AcDbLine
 62
253
  6
CONTINUOUS
 10
48.3631625847
 20
35.3312042228
 11
48.3631625847
 21
36.3311981305
  0
LINE
  5
2E4
100
AcDbEntity
  8
RACCORDO
100
AcDbLine
 62
253
  6
CONTINUOUS
 10
48.8631595385
 20
-44.8951179003
 11
48.8631595385
 21
34.831207269
  0
LINE
  5
2E5
100
AcDbEntity
  8
RACCORDO
100
AcDbLine
 62
253
  6
CONTINUOUS
 10
49.8631534462
 20
-44.8951105256
 11
49.8631534462
 21
34.8312010013
  0
LINE
  5
2E6
100
AcDbEntity
  8
RACCORDO
100
AcDbLine
 62
7
  6
CONTINUOUS
 10
49.9993018655
 20
34.9673556883
 11
49.9993018655
 21
-45.0312663196
  0
LINE
  5
2E7
100
AcDbEntity
  8
RACCORDO
100
AcDbLine
 62
7
  6
CONTINUOUS
 10
50.0
 20
34.9680446843
 11
50.0
 21
-45.0319553157
  0
LINE
  5
2E8
100
AcDbEntity
  8
0
100
AcDbLine
 62
7
  6
CONTINUOUS
 10
1.0
 20
46.5319553157
 11
-1.0
 21
46.5319553157
  0
LINE
  5
2E9
100
AcDbEntity
  8
0
100
AcDbLine
 62
7
  6
CONTINUOUS
 10
47.0
 20
26.7180446843
 11
46.1
 21
29.7180446843
  0
LINE
  5
2EA
100
AcDbEntity
  8
0
100
AcDbLine
 62
7
  6
CONTINUOUS
 10
46.1
 20
-39.7819553157
 11
47.0
 21
-36.7819553157
  0
CIRCLE
  5
2EB
100
AcDbEntity
  8
RACCORDO
100
AcDbCircle
 62
253
  6
CONTINUOUS
 10
-41.0
 20
-32.0319553157
 40
3.2326972496
  0
ARC
  5
2EC
100
AcDbEntity
  8
ASSI
100
AcDbCircle
 62
7
  6
CONTINUOUS
 10
-29.5
 20
-40.0319553157
 40
2.25
100
AcDbArc
 50
270.0
 51
90.0
  0
ARC
  5
2ED
100
AcDbEntity
  8
ASSI
100
AcDbCircle
 62
7
  6
CONTINUOUS
 10
-32.5
 20
-40.0319553157
 40
2.25
100
AcDbArc
 50
90.0
 51
270.0
  0
CIRCLE
  5
2EE
100
AcDbEntity
  8
RACCORDO
100
AcDbCircle
 62
253
  6
CONTINUOUS
 10
-41.0
 20
-32.0319553157
 40
2.232849568
  0
CIRCLE
  5
2EF
100
AcDbEntity
  8
DRAFT
100
AcDbCircle
 62
7
  6
CONTINUOUS
 10
-41.0
 20
-32.0319553157
 40
1.9008987014
  0
ARC
  5
2F0
100
AcDbEntity
  8
RACCORDO
100
AcDbCircle
 62
253
  6
CONTINUOUS
 10
-48.3631491383
 20
-44.895104454
 40
1.5000043079
100
AcDbArc
 50
180.0002742032
 51
269.99976808
  0
ARC
  5
2F1
100
AcDbEntity
  8
RACCORDO
100
AcDbCircle
 62
7
  6
CONTINUOUS
 10
-48.5
 20
-45.0319553157
 40
1.5
100
AcDbArc
 50
239.5568037468
 51
270.0
  0
ARC
  5
2F2
100
AcDbEntity
  8
SMUSSO
100
AcDbCircle
 62
7
  6
CONTINUOUS
 10
-32.5
 20
-40.0319553157
 40
1.4999998167
100
AcDbArc
 50
90.0
 51
270.0
  0
ARC
  5
2F3
100
AcDbEntity
  8
SMUSSO
100
AcDbCircle
 62
7
  6
CONTINUOUS
 10
-29.5
 20
-40.0319553157
 40
1.4999998167
100
AcDbArc
 50
270.0
 51
90.0
  0
ARC
  5
2F4
100
AcDbEntity
  8
SMUSSO
100
AcDbCircle
 62
7
  6
CONTINUOUS
 10
-29.5
 20
-40.0319553157
 40
1.1999999108
100
AcDbArc
 50
270.0
 51
90.0
  0
ARC
  5
2F5
100
AcDbEntity
  8
SMUSSO
100
AcDbCircle
 62
7
  6
CONTINUOUS
 10
-32.5
 20
-40.0319553157
 40
1.1999999108
100
AcDbArc
 50
90.0
 51
270.0
  0
ARC
  5
2F6
100
AcDbEntity
  8
RACCORDO
100
AcDbCircle
 62
253
  6
CONTINUOUS
 10
-48.3631638447
 20
-44.8951191603
 40
0.4999956938
100
AcDbArc
 50
179.9998556137
 51
270.0001443863
  0
CIRCLE
  5
2F7
100
AcDbEntity
  8
RACCORDO
100
AcDbCircle
 62
253
  6
CONTINUOUS
 10
-41.0
 20
21.9680446843
 40
3.2326972496
  0
ARC
  5
2F8
100
AcDbEntity
  8
ASSI
100
AcDbCircle
 62
7
  6
CONTINUOUS
 10
-31.0
 20
30.9680446843
 40
2.25
100
AcDbArc
 50
0.0
 51
180.0
  0
ARC
  5
2F9
100
AcDbEntity
  8
ASSI
100
AcDbCircle
 62
7
  6
CONTINUOUS
 10
-31.0
 20
28.9680446843
 40
2.25
100
AcDbArc
 50
180.0
 51
360.0
  0
CIRCLE
  5
2FA
100
AcDbEntity
  8
RACCORDO
100
AcDbCircle
 62
253
  6
CONTINUOUS
 10
-41.0
 20
21.9680446843
 40
2.232849568
  0
CIRCLE
  5
2FB
100
AcDbEntity
  8
DRAFT
100
AcDbCircle
 62
7
  6
CONTINUOUS
 10
-41.0
 20
21.9680446843
 40
1.9008987014
  0
ARC
  5
2FC
100
AcDbEntity
  8
RACCORDO
100
AcDbCircle
 62
253
  6
CONTINUOUS
 10
-48.3631491383
 20
34.8311938227
 40
1.5000043079
100
AcDbArc
 50
90.0002742032
 51
179.99976808
  0
ARC
  5
2FD
100
AcDbEntity
  8
RACCORDO
100
AcDbCircle
 62
7
  6
CONTINUOUS
 10
-48.5
 20
34.9680446843
 40
1.5
100
AcDbArc
 50
149.5568037468
 51
180.0
  0
ARC
  5
2FE
100
AcDbEntity
  8
SMUSSO
100
AcDbCircle
 62
7
  6
CONTINUOUS
 10
-31.0
 20
28.9680446843
 40
1.4999998167
100
AcDbArc
 50
180.0
 51
360.0
  0
ARC
  5
2FF
100
AcDbEntity
  8
SMUSSO
100
AcDbCircle
 62
7
  6
CONTINUOUS
 10
-31.0
 20
30.9680446843
 40
1.4999998167
100
AcDbArc
 50
0.0
 51
180.0
  0
ARC
  5
300
100
AcDbEntity
  8
SMUSSO
100
AcDbCircle
 62
7
  6
CONTINUOUS
 10
-31.0
 20
30.9680446843
 40
1.1999999108
100
AcDbArc
 50
0.0
 51
180.0
  0
ARC
  5
301
100
AcDbEntity
  8
SMUSSO
100
AcDbCircle
 62
7
  6
CONTINUOUS
 10
-31.0
 20
28.9680446843
 40
1.1999999108
100
AcDbArc
 50
180.0
 51
360.0
  0
ARC
  5
302
100
AcDbEntity
  8
RACCORDO
100
AcDbCircle
 62
7
  6
CONTINUOUS
 10
-13.0
 20
37.7545629677
 40
1.0
100
AcDbArc
 50
105.0
 51
180.0
  0
ARC
  5
303
100
AcDbEntity
  8
RACCORDO
100
AcDbCircle
 62
253
  6
CONTINUOUS
 10
-48.3631638447
 20
34.831208529
 40
0.4999956938
100
AcDbArc
 50
89.9998556137
 51
180.0001443863
  0
ARC
  5
304
100
AcDbEntity
  8
RACCORDO
100
AcDbCircle
 62
7
  6
CONTINUOUS
 10
-11.55
 20
40.1586791574
 40
0.3
100
AcDbArc
 50
104.9999999999
 51
180.0
  0
ARC
  5
305
100
AcDbEntity
  8
RACCORDO
100
AcDbCircle
 62
7
  6
CONTINUOUS
 10
-9.8
 20
41.9988715363
 40
0.3
100
AcDbArc
 50
104.9999999999
 51
180.0
  0
ARC
  5
306
100
AcDbEntity
  8
RACCORDO
100
AcDbCircle
 62
7
  6
CONTINUOUS
 10
-8.05
 20
43.772076617
 40
0.3
100
AcDbArc
 50
104.9999999998
 51
180.0
  0
ARC
  5
307
100
AcDbEntity
  8
RACCORDO
100
AcDbCircle
 62
7
  6
CONTINUOUS
 10
-3.8
 20
45.4711147227
 40
0.3
100
AcDbArc
 50
104.9999999924
 51
180.0
  0
CIRCLE
  5
308
100
AcDbEntity
  8
0
100
AcDbCircle
 62
7
  6
CONTINUOUS
 10
-0.0
 20
-5.0319553157
 40
11.5
  0
CIRCLE
  5
309
100
AcDbEntity
  8
0
100
AcDbCircle
 62
7
  6
CONTINUOUS
 10
-0.0
 20
-5.0319553157
 40
11.25
  0
CIRCLE
  5
30A
100
AcDbEntity
  8
0
100
AcDbCircle
 62
7
  6
CONTINUOUS
 10
-0.0
 20
-5.0319553157
 40
10.557179677
  0
ARC
  5
30B
100
AcDbEntity
  8
0
100
AcDbCircle
 62
7
  6
CONTINUOUS
 10
43.4998313443
 20
-8.511979507
 40
5.1676109833
100
AcDbArc
 50
89.9751904083
 51
94.4497669162
  0
ARC
  5
30C
100
AcDbEntity
  8
0
100
AcDbCircle
 62
7
  6
CONTINUOUS
 10
43.5065747333
 20
-8.3482319668
 40
5.0038649873
100
AcDbArc
 50
85.5244420619
 51
90.0515924085
  0
ARC
  5
30D
100
AcDbEntity
  8
0
100
AcDbCircle
 62
7
  6
CONTINUOUS
 10
43.4976639605
 20
-1.5810657252
 40
3.4391663291
100
AcDbArc
 50
261.1837311368
 51
270.0389179248
  0
ARC
  5
30E
100
AcDbEntity
  8
0
100
AcDbCircle
 62
7
  6
CONTINUOUS
 10
43.5001820594
 20
-1.6603364484
 40
3.3598948173
100
AcDbArc
 50
269.9968953689
 51
278.850671849
  0
CIRCLE
  5
30F
100
AcDbEntity
  8
RACCORDO
100
AcDbCircle
 62
253
  6
CONTINUOUS
 10
41.0
 20
-32.0319553157
 40
3.2326972496
  0
ARC
  5
310
100
AcDbEntity
  8
ASSI
100
AcDbCircle
 62
7
  6
CONTINUOUS
 10
29.5
 20
-40.0319553157
 40
2.25
100
AcDbArc
 50
90.0
 51
270.0
  0
ARC
  5
311
100
AcDbEntity
  8
0
100
AcDbCircle
 62
7
  6
CONTINUOUS
 10
32.5
 20
-40.0319553157
 40
2.25
100
AcDbArc
 50
270.0
 51
90.0
  0
CIRCLE
  5
312
100
AcDbEntity
  8
RACCORDO
100
AcDbCircle
 62
253
  6
CONTINUOUS
 10
41.0
 20
-32.0319553157
 40
2.232849568
  0
CIRCLE
  5
313
100
AcDbEntity
  8
DRAFT
100
AcDbCircle
 62
7
  6
CONTINUOUS
 10
41.0
 20
-32.0319553157
 40
1.9008987014
  0
ARC
  5
314
100
AcDbEntity
  8
0
100
AcDbCircle
 62
7
  6
CONTINUOUS
 10
43.766708903
 20
-5.0010870042
 40
1.6466282081
100
AcDbArc
 50
70.4350025415
 51
85.4600862974
  0
ARC
  5
315
100
AcDbEntity
  8
RACCORDO
100
AcDbCircle
 62
253
  6
CONTINUOUS
 10
48.3631491383
 20
-44.895104454
 40
1.5000043079
100
AcDbArc
 50
270.0002742032
 51
359.99976808
  0
ARC
  5
316
100
AcDbEntity
  8
RACCORDO
100
AcDbCircle
 62
7
  6
CONTINUOUS
 10
48.5
 20
-45.0319553157
 40
1.5
100
AcDbArc
 50
329.5568037468
 51
360.0
  0
ARC
  5
317
100
AcDbEntity
  8
SMUSSO
100
AcDbCircle
 62
7
  6
CONTINUOUS
 10
32.5
 20
-40.0319553157
 40
1.4999998167
100
AcDbArc
 50
270.0
 51
90.0
  0
ARC
  5
318
100
AcDbEntity
  8
SMUSSO
100
AcDbCircle
 62
7
  6
CONTINUOUS
 10
29.5
 20
-40.0319553157
 40
1.4999998167
100
AcDbArc
 50
90.0
 51
270.0
  0
ARC
  5
319
100
AcDbEntity
  8
SMUSSO
100
AcDbCircle
 62
7
  6
CONTINUOUS
 10
29.5
 20
-40.0319553157
 40
1.1999999108
100
AcDbArc
 50
90.0
 51
270.0
  0
ARC
  5
31A
100
AcDbEntity
  8
SMUSSO
100
AcDbCircle
 62
7
  6
CONTINUOUS
 10
32.5
 20
-40.0319553157
 40
1.1999999108
100
AcDbArc
 50
270.0
 51
90.0
  0
ARC
  5
31B
100
AcDbEntity
  8
RACCORDO
100
AcDbCircle
 62
253
  6
CONTINUOUS
 10
48.3631638447
 20
-44.8951191603
 40
0.4999956938
100
AcDbArc
 50
269.9998556137
 51
0.0001443863
  0
CIRCLE
  5
31C
100
AcDbEntity
  8
RACCORDO
100
AcDbCircle
 62
253
  6
CONTINUOUS
 10
41.0
 20
21.9680446843
 40
3.2326972496
  0
ARC
  5
31D
100
AcDbEntity
  8
ASSI
100
AcDbCircle
 62
7
  6
CONTINUOUS
 10
31.0
 20
30.9680446843
 40
2.25
100
AcDbArc
 50
0.0
 51
180.0
  0
ARC
  5
31E
100
AcDbEntity
  8
ASSI
100
AcDbCircle
 62
7
  6
CONTINUOUS
 10
31.0
 20
28.9680446843
 40
2.25
100
AcDbArc
 50
180.0
 51
360.0
  0
CIRCLE
  5
31F
100
AcDbEntity
  8
RACCORDO
100
AcDbCircle
 62
253
  6
CONTINUOUS
 10
41.0
 20
21.9680446843
 40
2.232849568
  0
CIRCLE
  5
320
100
AcDbEntity
  8
DRAFT
100
AcDbCircle
 62
7
  6
CONTINUOUS
 10
41.0
 20
21.9680446843
 40
1.9008987014
  0
ARC
  5
321
100
AcDbEntity
  8
RACCORDO
100
AcDbCircle
 62
253
  6
CONTINUOUS
 10
48.3631491383
 20
34.8311938227
 40
1.5000043079
100
AcDbArc
 50
0.0002742032
 51
89.99976808
  0
ARC
  5
322
100
AcDbEntity
  8
RACCORDO
100
AcDbCircle
 62
7
  6
CONTINUOUS
 10
48.5
 20
34.9680446843
 40
1.5
100
AcDbArc
 50
59.5568037468
 51
90.0
  0
ARC
  5
323
100
AcDbEntity
  8
SMUSSO
100
AcDbCircle
 62
7
  6
CONTINUOUS
 10
31.0
 20
28.9680446843
 40
1.4999998167
100
AcDbArc
 50
180.0
 51
360.0
  0
ARC
  5
324
100
AcDbEntity
  8
SMUSSO
100
AcDbCircle
 62
7
  6
CONTINUOUS
 10
31.0
 20
30.9680446843
 40
1.4999998167
100
AcDbArc
 50
0.0
 51
180.0
  0
ARC
  5
325
100
AcDbEntity
  8
SMUSSO
100
AcDbCircle
 62
7
  6
CONTINUOUS
 10
31.0
 20
30.9680446843
 40
1.1999999108
100
AcDbArc
 50
0.0
 51
180.0
  0
ARC
  5
326
100
AcDbEntity
  8
SMUSSO
100
AcDbCircle
 62
7
  6
CONTINUOUS
 10
31.0
 20
28.9680446843
 40
1.1999999108
100
AcDbArc
 50
180.0
 51
360.0
  0
ARC
  5
327
100
AcDbEntity
  8
RACCORDO
100
AcDbCircle
 62
7
  6
CONTINUOUS
 10
13.0
 20
37.7545629677
 40
1.0
100
AcDbArc
 50
0.0
 51
75.0
  0
ARC
  5
328
100
AcDbEntity
  8
RACCORDO
100
AcDbCircle
 62
253
  6
CONTINUOUS
 10
48.3631638447
 20
34.831208529
 40
0.4999956938
100
AcDbArc
 50
359.9998556137
 51
90.0001443863
  0
ARC
  5
329
100
AcDbEntity
  8
RACCORDO
100
AcDbCircle
 62
7
  6
CONTINUOUS
 10
11.55
 20
40.1586791574
 40
0.3
100
AcDbArc
 50
0.0
 51
75.0000000001
  0
ARC
  5
32A
100
AcDbEntity
  8
RACCORDO
100
AcDbCircle
 62
7
  6
CONTINUOUS
 10
9.8
 20
41.9988715363
 40
0.3
100
AcDbArc
 50
0.0
 51
75.0
  0
ARC
  5
32B
100
AcDbEntity
  8
RACCORDO
100
AcDbCircle
 62
7
  6
CONTINUOUS
 10
8.05
 20
43.772076617
 40
0.3
100
AcDbArc
 50
0.0
 51
75.0000000002
  0
ARC
  5
32C
100
AcDbEntity
  8
RACCORDO
100
AcDbCircle
 62
7
  6
CONTINUOUS
 10
3.8
 20
45.4711147227
 40
0.3
100
AcDbArc
 50
0.0
 51
75.0000000076
  0
SPLINE
  5
32D
100
AcDbEntity
  8
0
100
AcDbSpline
 62
7
  6
CONTINUOUS
 70
0
 71
3
 72
8
 73
4
 74
2
 42
0.0000001
 43
0.0000001
 44
0.0000000001
 12
0.8440452122
 22
0.0
 32
0.0
 13
0.5245290804
 23
0.5119653664
 33
0.0
 40
0.0
 40
0.0
 40
0.0
 40
0.0
 40
1.0
 40
1.0
 40
1.0
 40
1.0
 10
-1.3599691359
 20
-42.8795415201
 30
0.0
 10
-1.0786207318
 20
-42.8795415201
 30
0.0
 10
-0.8531034589
 20
-42.7947139359
 30
0.0
 10
-0.6782604321
 20
-42.6240588138
 30
0.0
 11
-1.3599691359
 21
-42.8795415201
 31
0.0
 11
-0.6782604321
 21
-42.6240588138
 31
0.0
  0
SPLINE
  5
32E
100
AcDbEntity
  8
0
100
AcDbSpline
 62
7
  6
CONTINUOUS
 70
0
 71
3
 72
8
 73
4
 74
2
 42
0.0000001
 43
0.0000001
 44
0.0000000001
 12
0.5120229316
 22
0.4997587694
 32
0.0
 13
0.0
 23
0.8379540719
 33
0.0
 40
0.0
 40
0.0
 40
0.0
 40
0.0
 40
1.0
 40
1.0
 40
1.0
 40
1.0
 10
-0.6782604321
 20
-42.6240588138
 30
0.0
 10
-0.5075861216
 20
-42.4574725573
 30
0.0
 10
-0.420689702
 20
-42.23609324
 30
0.0
 10
-0.420689702
 20
-41.956775216
 30
0.0
 11
-0.6782604321
 21
-42.6240588138
 31
0.0
 11
-0.420689702
 21
-41.956775216
 31
0.0
  0
SPLINE
  5
32F
100
AcDbEntity
  8
0
100
AcDbSpline
 62
7
  6
CONTINUOUS
 70
0
 71
3
 72
8
 73
4
 74
2
 42
0.0000001
 43
0.0000001
 44
0.0000000001
 12
0.0
 22
0.8317010575
 32
0.0
 13
-0.496512832
 23
0.5090034544
 33
0.0
 40
0.0
 40
0.0
 40
0.0
 40
0.0
 40
1.0
 40
1.0
 40
1.0
 40
1.0
 10
-0.420689702
 20
-41.956775216
 30
0.0
 10
-0.420689702
 20
-41.6795415302
 30
0.0
 10
-0.5034481883
 20
-41.4581621905
 30
0.0
 10
-0.6689524656
 20
-41.2884943724
 30
0.0
 11
-0.420689702
 21
-41.956775216
 31
0.0
 11
-0.6689524656
 21
-41.2884943724
 31
0.0
  0
SPLINE
  5
330
100
AcDbEntity
  8
0
100
AcDbSpline
 62
7
  6
CONTINUOUS
 70
0
 71
3
 72
8
 73
4
 74
2
 42
0.0000001
 43
0.0000001
 44
0.0000000001
 12
-0.4903839809
 22
0.5027204216
 32
0.0
 13
-0.782078012
 23
0.0049189449
 33
0.0
 40
0.0
 40
0.0
 40
0.0
 40
0.0
 40
1.0
 40
1.0
 40
1.0
 40
1.0
 10
-0.6689524656
 20
-41.2884943724
 30
0.0
 10
-0.8324137926
 20
-41.1209208985
 30
0.0
 10
-1.0434482992
 20
-41.0340243002
 30
0.0
 10
-1.3041409698
 20
-41.0323846519
 30
0.0
 11
-0.6689524656
 21
-41.2884943724
 31
0.0
 11
-1.3041409698
 21
-41.0323846519
 31
0.0
  0
SPLINE
  5
331
100
AcDbEntity
  8
0
100
AcDbSpline
 62
7
  6
CONTINUOUS
 70
0
 71
3
 72
8
 73
4
 74
2
 42
0.0000001
 43
0.0000001
 44
0.0000000001
 12
-0.2048185327
 22
0.0012882232
 32
0.0
 13
-0.2168869893
 23
-0.0451849467
 33
0.0
 40
0.0
 40
0.0
 40
0.0
 40
0.0
 40
1.0
 40
1.0
 40
1.0
 40
1.0
 10
-1.3041409698
 20
-41.0323846519
 30
0.0
 10
-1.3724138141
 20
-41.0319552441
 30
0.0
 10
-1.4406896234
 20
-41.0402311106
 30
0.0
 10
-1.5129852864
 20
-41.0552927595
 30
0.0
 11
-1.3041409698
 21
-41.0323846519
 31
0.0
 11
-1.5129852864
 21
-41.0552927595
 31
0.0
  0
SPLINE
  5
332
100
AcDbEntity
  8
0
100
AcDbSpline
 62
7
  6
CONTINUOUS
 70
0
 71
3
 72
8
 73
4
 74
2
 42
0.0000001
 43
0.0000001
 44
0.0000000001
 12
-0.230009534
 22
-0.0479188197
 32
0.0
 13
-0.1800000966
 23
-0.0744827986
 33
0.0
 40
0.0
 40
0.0
 40
0.0
 40
0.0
 40
1.0
 40
1.0
 40
1.0
 40
1.0
 10
-1.5129852864
 20
-41.0552927595
 30
0.0
 10
-1.5896551311
 20
-41.0712656994
 30
0.0
 10
-1.6558620632
 20
-41.0981621762
 30
0.0
 10
-1.7158620954
 20
-41.1229897757
 30
0.0
 11
-1.5129852864
 21
-41.0552927595
 31
0.0
 11
-1.7158620954
 21
-41.1229897757
 31
0.0
  0
SPLINE
  5
333
100
AcDbEntity
  8
0
100
AcDbSpline
 62
7
  6
CONTINUOUS
 70
0
 71
3
 72
8
 73
4
 74
2
 42
0.0000001
 43
0.0000001
 44
0.0000000001
 12
0.1407365756
 22
0.3793768588
 32
0.0
 13
0.2091751899
 23
0.352498945
 33
0.0
 40
0.0
 40
0.0
 40
0.0
 40
0.0
 40
1.0
 40
1.0
 40
1.0
 40
1.0
 10
-2.2303604767
 20
-41.5142763675
 30
0.0
 10
-2.1834482849
 20
-41.3878174146
 30
0.0
 10
-2.1228284954
 20
-41.2673860796
 30
0.0
 10
-2.0531034321
 20
-41.1498864313
 30
0.0
 11
-2.2303604767
 21
-41.5142763675
 31
0.0
 11
-2.0531034321
 21
-41.1498864313
 31
0.0
  0
SPLINE
  5
334
100
AcDbEntity
  8
0
100
AcDbSpline
 62
7
  6
CONTINUOUS
 70
0
 71
3
 72
8
 73
4
 74
2
 42
0.0000001
 43
0.0000001
 44
0.0000000001
 12
-0.0022806501
 22
0.4903395186
 32
0.0
 13
0.1447806178
 23
0.3902781901
 33
0.0
 40
0.0
 40
0.0
 40
0.0
 40
0.0
 40
1.0
 40
1.0
 40
1.0
 40
1.0
 10
-2.3026880655
 20
-41.9547121449
 30
0.0
 10
-2.3034482822
 20
-41.7912656387
 30
0.0
 10
-2.2786206827
 20
-41.6443690975
 30
0.0
 10
-2.2303604767
 20
-41.5142763675
 30
0.0
 11
-2.3026880655
 21
-41.9547121449
 31
0.0
 11
-2.2303604767
 21
-41.5142763675
 31
0.0
  0
SPLINE
  5
335
100
AcDbEntity
  8
0
100
AcDbSpline
 62
7
  6
CONTINUOUS
 70
0
 71
3
 72
8
 73
4
 74
2
 42
0.0000001
 43
0.0000001
 44
0.0000000001
 12
-0.5231878502
 22
0.5016448378
 32
0.0
 13
-0.0039262498
 23
0.8441432853
 33
0.0
 40
0.0
 40
0.0
 40
0.0
 40
0.0
 40
1.0
 40
1.0
 40
1.0
 40
1.0
 10
-2.0380178452
 20
-42.6246875033
 30
0.0
 10
-2.2124137953
 20
-42.4574725573
 30
0.0
 10
-2.3013793156
 20
-42.23609324
 30
0.0
 10
-2.3026880655
 20
-41.9547121449
 30
0.0
 11
-2.0380178452
 21
-42.6246875033
 31
0.0
 11
-2.3026880655
 21
-41.9547121449
 31
0.0
  0
SPLINE
  5
336
100
AcDbEntity
  8
0
100
AcDbSpline
 62
7
  6
CONTINUOUS
 70
0
 71
3
 72
8
 73
4
 74
2
 42
0.0000001
 43
0.0000001
 44
0.0000000001
 12
-0.8318166829
 22
0.0
 32
0.0
 13
-0.5319845261
 23
0.510079298
 33
0.0
 40
0.0
 40
0.0
 40
0.0
 40
0.0
 40
1.0
 40
1.0
 40
1.0
 40
1.0
 10
-1.3599691359
 20
-42.8795415201
 30
0.0
 10
-1.6372413635
 20
-42.8795415201
 30
0.0
 10
-1.8606896698
 20
-42.7947139359
 30
0.0
 10
-2.0380178452
 20
-42.6246875033
 30
0.0
 11
-1.3599691359
 21
-42.8795415201
 31
0.0
 11
-2.0380178452
 21
-42.6246875033
 31
0.0
  0
SPLINE
  5
337
100
AcDbEntity
  8
0
100
AcDbSpline
 62
7
  6
CONTINUOUS
 70
0
 71
3
 72
8
 73
4
 74
2
 42
0.0000001
 43
0.0000001
 44
0.0000000001
 12
-0.3647390944
 22
-0.3553061136
 32
0.0
 13
-0.0124137998
 23
-0.5834483206
 33
0.0
 40
0.0
 40
0.0
 40
0.0
 40
0.0
 40
1.0
 40
1.0
 40
1.0
 40
1.0
 10
-1.8260065254
 20
-41.4866233604
 30
0.0
 10
-1.9475862235
 20
-41.6050587316
 30
0.0
 10
-2.007586211
 20
-41.7623001059
 30
0.0
 10
-2.0117241442
 20
-41.9567828794
 30
0.0
 11
-1.8260065254
 21
-41.4866233604
 31
0.0
 11
-2.0117241442
 21
-41.9567828794
 31
0.0
  0
SPLINE
  5
338
100
AcDbEntity
  8
0
100
AcDbSpline
 62
7
  6
CONTINUOUS
 70
0
 71
3
 72
8
 73
4
 74
2
 42
0.0000001
 43
0.0000001
 44
0.0000000001
 12
-0.5773748871
 22
0.0
 32
0.0
 13
-0.3552608895
 23
-0.3460730366
 33
0.0
 40
0.0
 40
0.0
 40
0.0
 40
0.0
 40
1.0
 40
1.0
 40
1.0
 40
1.0
 10
-1.3620244921
 20
-41.3112656494
 30
0.0
 10
-1.5544827878
 20
-41.3112656494
 30
0.0
 10
-1.7075862288
 20
-41.3712656816
 30
0.0
 10
-1.8260065254
 20
-41.4866233604
 30
0.0
 11
-1.3620244921
 21
-41.3112656494
 31
0.0
 11
-1.8260065254
 21
-41.4866233604
 31
0.0
  0
SPLINE
  5
339
100
AcDbEntity
  8
0
100
AcDbSpline
 62
7
  6
CONTINUOUS
 70
0
 71
3
 72
8
 73
4
 74
2
 42
0.0000001
 43
0.0000001
 44
0.0000000001
 12
-0.3507034422
 22
0.3507034422
 32
0.0
 13
-0.595728654
 23
0.0
 33
0.0
 40
0.0
 40
0.0
 40
0.0
 40
0.0
 40
1.0
 40
1.0
 40
1.0
 40
1.0
 10
-0.8893057525
 20
-41.488166829
 30
0.0
 10
-1.0062068999
 20
-41.3712656816
 30
0.0
 10
-1.1634482741
 20
-41.3112656494
 30
0.0
 10
-1.3620244921
 20
-41.3112656494
 30
0.0
 11
-0.8893057525
 21
-41.488166829
 31
0.0
 11
-1.3620244921
 21
-41.3112656494
 31
0.0
  0
SPLINE
  5
33A
100
AcDbEntity
  8
0
100
AcDbSpline
 62
7
  6
CONTINUOUS
 70
0
 71
3
 72
8
 73
4
 74
2
 42
0.0000001
 43
0.0000001
 44
0.0000000001
 12
0.0
 22
0.5835803674
 32
0.0
 13
-0.350675708
 23
0.350675708
 33
0.0
 40
0.0
 40
0.0
 40
0.0
 40
0.0
 40
1.0
 40
1.0
 40
1.0
 40
1.0
 10
-0.7144827843
 20
-41.956826895
 30
0.0
 10
-0.7144827843
 20
-41.7623001059
 30
0.0
 10
-0.7724138498
 20
-41.6050587316
 30
0.0
 10
-0.8893057525
 20
-41.488166829
 30
0.0
 11
-0.7144827843
 21
-41.956826895
 31
0.0
 11
-0.8893057525
 21
-41.488166829
 31
0.0
  0
SPLINE
  5
33B
100
AcDbEntity
  8
0
100
AcDbSpline
 62
7
  6
CONTINUOUS
 70
0
 71
3
 72
8
 73
4
 74
2
 42
0.0000001
 43
0.0000001
 44
0.0000000001
 12
0.3460791269
 22
0.3552671746
 32
0.0
 13
0.0
 23
0.5771093739
 33
0.0
 40
0.0
 40
0.0
 40
0.0
 40
0.0
 40
1.0
 40
1.0
 40
1.0
 40
1.0
 10
-0.8877735588
 20
-42.4248604521
 30
0.0
 10
-0.7724138498
 20
-42.3064380606
 30
0.0
 10
-0.7144827843
 20
-42.1491966863
 30
0.0
 10
-0.7144827843
 20
-41.956826895
 30
0.0
 11
-0.8877735588
 21
-42.4248604521
 31
0.0
 11
-0.7144827843
 21
-41.956826895
 31
0.0
  0
SPLINE
  5
33C
100
AcDbEntity
  8
0
100
AcDbSpline
 62
7
  6
CONTINUOUS
 70
0
 71
3
 72
8
 73
4
 74
2
 42
0.0000001
 43
0.0000001
 44
0.0000000001
 12
0.5958621204
 22
0.0
 32
0.0
 13
0.3553000233
 23
0.3647328764
 33
0.0
 40
0.0
 40
0.0
 40
0.0
 40
0.0
 40
1.0
 40
1.0
 40
1.0
 40
1.0
 10
-1.3620689809
 20
-42.6085070317
 30
0.0
 10
-1.1634482741
 20
-42.6085070317
 30
0.0
 10
-1.0062068999
 20
-42.5464380776
 30
0.0
 10
-0.8877735588
 20
-42.4248604521
 30
0.0
 11
-1.3620689809
 21
-42.6085070317
 31
0.0
 11
-0.8877735588
 21
-42.4248604521
 31
0.0
  0
SPLINE
  5
33D
100
AcDbEntity
  8
0
100
AcDbSpline
 62
7
  6
CONTINUOUS
 70
0
 71
3
 72
8
 73
4
 74
2
 42
0.0000001
 43
0.0000001
 44
0.0000000001
 12
0.3600534461
 22
-0.3600534796
 32
0.0
 13
0.5772414207
 23
0.0
 33
0.0
 40
0.0
 40
0.0
 40
0.0
 40
0.0
 40
1.0
 40
1.0
 40
1.0
 40
1.0
 10
-1.8276040442
 20
-42.426420251
 30
0.0
 10
-1.7075862288
 20
-42.5464380776
 30
0.0
 10
-1.5544827878
 20
-42.6085070317
 30
0.0
 10
-1.3620689809
 20
-42.6085070317
 30
0.0
 11
-1.8276040442
 21
-42.426420251
 31
0.0
 11
-1.3620689809
 21
-42.6085070317
 31
0.0
  0
SPLINE
  5
33E
100
AcDbEntity
  8
0
100
AcDbSpline
 62
7
  6
CONTINUOUS
 70
0
 71
3
 72
8
 73
4
 74
2
 42
0.0000001
 43
0.0000001
 44
0.0000000001
 12
0.0124137998
 22
-0.5772414207
 32
0.0
 13
0.3599465379
 23
-0.3599465714
 33
0.0
 40
0.0
 40
0.0
 40
0.0
 40
0.0
 40
1.0
 40
1.0
 40
1.0
 40
1.0
 10
-2.0117241442
 20
-41.9567828794
 30
0.0
 10
-2.007586211
 20
-42.1491966863
 30
0.0
 10
-1.9475862235
 20
-42.3064380606
 30
0.0
 10
-1.8276040442
 20
-42.426420251
 30
0.0
 11
-2.0117241442
 21
-41.9567828794
 31
0.0
 11
-1.8276040442
 21
-42.426420251
 31
0.0
  0
SPLINE
  5
33F
100
AcDbEntity
  8
0
100
AcDbSpline
 62
7
  6
CONTINUOUS
 70
0
 71
3
 72
8
 73
4
 74
2
 42
0.0000001
 43
0.0000001
 44
0.0000000001
 12
-0.3496770221
 22
-0.5013068055
 32
0.0
 13
-0.4414255721
 23
-0.4523864725
 33
0.0
 40
0.0
 40
0.0
 40
0.0
 40
0.0
 40
1.0
 40
1.0
 40
1.0
 40
1.0
 10
1.690352061
 20
-41.1483013141
 30
0.0
 10
1.5737930536
 20
-41.3154035826
 30
0.0
 10
1.433348818
 20
-41.4666770405
 30
0.0
 10
1.2862069607
 20
-41.6174725314
 30
0.0
 11
1.690352061
 21
-41.1483013141
 31
0.0
 11
1.2862069607
 21
-41.6174725314
 31
0.0
  0
SPLINE
  5
340
100
AcDbEntity
  8
0
100
AcDbSpline
 62
7
  6
CONTINUOUS
 70
0
 71
3
 72
8
 73
4
 74
2
 42
0.0000001
 43
0.0000001
 44
0.0000000001
 12
0.0028650653
 22
-0.6704540082
 32
0.0
 13
-0.3517023963
 23
-0.5042104388
 33
0.0
 40
0.0
 40
0.0
 40
0.0
 40
0.0
 40
1.0
 40
1.0
 40
1.0
 40
1.0
 10
1.8666311141
 20
-40.5622638143
 30
0.0
 10
1.8675861359
 20
-40.7857484837
 30
0.0
 10
1.8075861931
 20
-40.9802311679
 30
0.0
 10
1.690352061
 20
-41.1483013141
 30
0.0
 11
1.8666311141
 21
-40.5622638143
 31
0.0
 11
1.690352061
 21
-41.1483013141
 31
0.0
  0
SPLINE
  5
341
100
AcDbEntity
  8
0
100
AcDbSpline
 62
7
  6
CONTINUOUS
 70
0
 71
3
 72
8
 73
4
 74
2
 42
0.0000001
 43
0.0000001
 44
0.0000000001
 12
0.5051729918
 22
-0.3897940483
 32
0.0
 13
0.0033415663
 23
-0.7819600276
 33
0.0
 40
0.0
 40
0.0
 40
0.0
 40
0.0
 40
1.0
 40
1.0
 40
1.0
 40
1.0
 10
1.6102298419
 20
-39.9771964382
 30
0.0
 10
1.7786208391
 20
-40.1071277877
 30
0.0
 10
1.8655172586
 20
-40.3016104718
 30
0.0
 10
1.8666311141
 20
-40.5622638143
 30
0.0
 11
1.6102298419
 21
-39.9771964382
 31
0.0
 11
1.8666311141
 21
-40.5622638143
 31
0.0
  0
SPLINE
  5
342
100
AcDbEntity
  8
0
100
AcDbSpline
 62
7
  6
CONTINUOUS
 70
0
 71
3
 72
8
 73
4
 74
2
 42
0.0000001
 43
0.0000001
 44
0.0000000001
 12
0.7323849694
 22
0.0064815655
 32
0.0
 13
0.5003442526
 23
-0.3860681686
 33
0.0
 40
0.0
 40
0.0
 40
0.0
 40
0.0
 40
1.0
 40
1.0
 40
1.0
 40
1.0
 10
0.9944923157
 20
-39.7844606384
 30
0.0
 10
1.2386206388
 20
-39.7823001166
 30
0.0
 10
1.4434484243
 20
-39.8485070487
 30
0.0
 10
1.6102298419
 20
-39.9771964382
 30
0.0
 11
0.9944923157
 21
-39.7844606384
 31
0.0
 11
1.6102298419
 21
-39.9771964382
 31
0.0
  0
SPLINE
  5
343
100
AcDbEntity
  8
0
100
AcDbSpline
 62
7
  6
CONTINUOUS
 70
0
 71
3
 72
8
 73
4
 74
2
 42
0.0000001
 43
0.0000001
 44
0.0000000001
 12
0.4655177855
 22
0.3724139602
 32
0.0
 13
0.6703738674
 23
0.0059327707
 33
0.0
 40
0.0
 40
0.0
 40
0.0
 40
0.0
 40
1.0
 40
1.0
 40
1.0
 40
1.0
 10
0.4255171927
 20
-39.9726450354
 30
0.0
 10
0.5806897879
 20
-39.8485070487
 30
0.0
 10
0.7710343599
 20
-39.7864382287
 30
0.0
 10
0.9944923157
 20
-39.7844606384
 30
0.0
 11
0.4255171927
 21
-39.9726450354
 31
0.0
 11
0.9944923157
 21
-39.7844606384
 31
0.0
  0
SPLINE
  5
344
100
AcDbEntity
  8
0
100
AcDbSpline
 62
7
  6
CONTINUOUS
 70
0
 71
3
 72
8
 73
4
 74
2
 42
0.0000001
 43
0.0000001
 44
0.0000000001
 12
0.1303446293
 22
0.6765518188
 32
0.0
 13
0.4655171967
 23
0.3724134891
 33
0.0
 40
0.0
 40
0.0
 40
0.0
 40
0.0
 40
1.0
 40
1.0
 40
1.0
 40
1.0
 10
0.1255173087
 20
-40.498162212
 30
0.0
 10
0.1689655185
 20
-40.272644939
 30
0.0
 10
0.2703447938
 20
-40.0967828651
 30
0.0
 10
0.4255171927
 20
-39.9726450354
 30
0.0
 11
0.1255173087
 21
-40.498162212
 31
0.0
 11
0.4255171927
 21
-39.9726450354
 31
0.0
  0
SPLINE
  5
345
100
AcDbEntity
  8
0
100
AcDbSpline
 62
7
  6
CONTINUOUS
 70
0
 71
3
 72
8
 73
4
 74
2
 42
0.0000001
 43
0.0000001
 44
0.0000000001
 12
-0.3106220332
 22
-0.2541450534
 32
0.0
 13
-0.1055175662
 23
-0.4406896234
 33
0.0
 40
0.0
 40
0.0
 40
0.0
 40
0.0
 40
1.0
 40
1.0
 40
1.0
 40
1.0
 10
0.6469888875
 20
-40.183791988
 30
0.0
 10
0.5434482098
 20
-40.2685070058
 30
0.0
 10
0.4731035233
 20
-40.3843691369
 30
0.0
 10
0.4379310012
 20
-40.531265678
 30
0.0
 11
0.6469888875
 21
-40.183791988
 31
0.0
 11
0.4379310012
 21
-40.531265678
 31
0.0
  0
SPLINE
  5
346
100
AcDbEntity
  8
0
100
AcDbSpline
 62
7
  6
CONTINUOUS
 70
0
 71
3
 72
8
 73
4
 74
2
 42
0.0000001
 43
0.0000001
 44
0.0000000001
 12
-0.4344835281
 22
0.0
 32
0.0
 13
-0.3038613232
 23
-0.2486135688
 33
0.0
 40
0.0
 40
0.0
 40
0.0
 40
0.0
 40
1.0
 40
1.0
 40
1.0
 40
1.0
 10
1.017241478
 20
-40.0595414658
 30
0.0
 10
0.8724136353
 20
-40.0595414658
 30
0.0
 10
0.7482759953
 20
-40.1009207984
 30
0.0
 10
0.6469888875
 20
-40.183791988
 30
0.0
 11
1.017241478
 21
-40.0595414658
 31
0.0
 11
0.6469888875
 21
-40.183791988
 31
0.0
  0
SPLINE
  5
347
100
AcDbEntity
  8
0
100
AcDbSpline
 62
7
  6
CONTINUOUS
 70
0
 71
3
 72
8
 73
4
 74
2
 42
0.0000001
 43
0.0000001
 44
0.0000000001
 12
-0.3155742075
 22
0.275354065
 32
0.0
 13
-0.4841376543
 23
0.0
 33
0.0
 40
0.0
 40
0.0
 40
0.0
 40
0.0
 40
1.0
 40
1.0
 40
1.0
 40
1.0
 10
1.4162259627
 20
-40.19684342
 30
0.0
 10
1.3110345602
 20
-40.1050587316
 30
0.0
 10
1.1786206961
 20
-40.0595414658
 30
0.0
 10
1.017241478
 20
-40.0595414658
 30
0.0
 11
1.4162259627
 21
-40.19684342
 31
0.0
 11
1.017241478
 21
-40.0595414658
 31
0.0
  0
SPLINE
  5
348
100
AcDbEntity
  8
0
100
AcDbSpline
 62
7
  6
CONTINUOUS
 70
0
 71
3
 72
8
 73
4
 74
2
 42
0.0000001
 43
0.0000001
 44
0.0000000001
 12
0.0
 22
0.5029118689
 32
0.0
 13
-0.3175290439
 23
0.2770597562
 33
0.0
 40
0.0
 40
0.0
 40
0.0
 40
0.0
 40
1.0
 40
1.0
 40
1.0
 40
1.0
 10
1.5758619308
 20
-40.5871787698
 30
0.0
 10
1.5758619308
 20
-40.4195414801
 30
0.0
 10
1.5220689774
 20
-40.289196672
 30
0.0
 10
1.4162259627
 20
-40.19684342
 30
0.0
 11
1.5758619308
 21
-40.5871787698
 31
0.0
 11
1.4162259627
 21
-40.19684342
 31
0.0
  0
SPLINE
  5
349
100
AcDbEntity
  8
0
100
AcDbSpline
 62
7
  6
CONTINUOUS
 70
0
 71
3
 72
8
 73
4
 74
2
 42
0.0000001
 43
0.0000001
 44
0.0000000001
 12
0.2234483957
 22
0.3351725936
 32
0.0
 13
0.0
 23
0.4032949773
 33
0.0
 40
0.0
 40
0.0
 40
0.0
 40
0.0
 40
1.0
 40
1.0
 40
1.0
 40
1.0
 10
1.4641379118
 20
-40.9554035683
 30
0.0
 10
1.5386207104
 20
-40.8436793705
 30
0.0
 10
1.5758619308
 20
-40.7216104289
 30
0.0
 10
1.5758619308
 20
-40.5871787698
 30
0.0
 11
1.4641379118
 21
-40.9554035683
 31
0.0
 11
1.5758619308
 21
-40.5871787698
 31
0.0
  0
SPLINE
  5
34A
100
AcDbEntity
  8
0
100
AcDbSpline
 62
7
  6
CONTINUOUS
 70
0
 71
3
 72
8
 73
4
 74
2
 42
0.0000001
 43
0.0000001
 44
0.0000000001
 12
0.2855168581
 22
0.2793107629
 32
0.0
 13
0.2234483957
 23
0.3351725936
 33
0.0
 40
0.0
 40
0.0
 40
0.0
 40
0.0
 40
1.0
 40
1.0
 40
1.0
 40
1.0
 10
1.2096552849
 20
-41.2636795064
 30
0.0
 10
1.3048275709
 20
-41.1705759187
 30
0.0
 10
1.3896551132
 20
-41.0671277662
 30
0.0
 10
1.4641379118
 20
-40.9554035683
 30
0.0
 11
1.2096552849
 21
-41.2636795064
 31
0.0
 11
1.4641379118
 21
-40.9554035683
 31
0.0
  0
SPLINE
  5
34B
100
AcDbEntity
  8
0
100
AcDbSpline
 62
7
  6
CONTINUOUS
 70
0
 71
3
 72
8
 73
4
 74
2
 42
0.0000001
 43
0.0000001
 44
0.0000000001
 12
-0.2807776096
 22
0.3918545189
 32
0.0
 13
-0.0124143362
 23
0.6082756519
 33
0.0
 40
0.0
 40
0.0
 40
0.0
 40
0.0
 40
1.0
 40
1.0
 40
1.0
 40
1.0
 10
42.0956614138
 20
-4.5363666138
 30
0.0
 10
42.0020688772
 20
-4.4057484408
 30
0.0
 10
41.954482913
 20
-4.2381622334
 30
0.0
 10
41.9503448009
 20
-4.0354036828
 30
0.0
 11
42.0956614138
 21
-4.5363666138
 31
0.0
 11
41.9503448009
 21
-4.0354036828
 31
0.0
  0
SPLINE
  5
34C
100
AcDbEntity
  8
0
100
AcDbSpline
 62
7
  6
CONTINUOUS
 70
0
 71
3
 72
8
 73
4
 74
2
 42
0.0000001
 43
0.0000001
 44
0.0000000001
 12
-0.4603226355
 22
0.2025420763
 32
0.0
 13
-0.2840500114
 23
0.3964214978
 33
0.0
 40
0.0
 40
0.0
 40
0.0
 40
0.0
 40
1.0
 40
1.0
 40
1.0
 40
1.0
 10
42.469992683
 20
-4.8353313578
 30
0.0
 10
42.3165518045
 20
-4.7678173323
 30
0.0
 10
42.1903447509
 20
-4.668507113
 30
0.0
 10
42.0956614138
 20
-4.5363666138
 30
0.0
 11
42.469992683
 21
-4.8353313578
 31
0.0
 11
42.0956614138
 21
-4.5363666138
 31
0.0
  0
SPLINE
  5
34D
100
AcDbEntity
  8
0
100
AcDbSpline
 62
7
  6
CONTINUOUS
 70
0
 71
3
 72
8
 73
4
 74
2
 42
0.0000001
 43
0.0000001
 44
0.0000000001
 12
-0.5344243023
 22
0.0829280829
 32
0.0
 13
-0.4707118103
 23
0.2071133159
 33
0.0
 40
0.0
 40
0.0
 40
0.0
 40
0.0
 40
1.0
 40
1.0
 40
1.0
 40
1.0
 10
42.9705552052
 20
-4.979597967
 30
0.0
 10
42.7924137712
 20
-4.9519552727
 30
0.0
 10
42.6268966198
 20
-4.9043691297
 30
0.0
 10
42.469992683
 20
-4.8353313578
 30
0.0
 11
42.9705552052
 21
-4.979597967
 31
0.0
 11
42.469992683
 21
-4.8353313578
 31
0.0
  0
SPLINE
  5
34E
100
AcDbEntity
  8
0
100
AcDbSpline
 62
7
  6
CONTINUOUS
 70
0
 71
3
 72
8
 73
4
 74
2
 42
0.0000001
 43
0.0000001
 44
0.0000000001
 12
-0.465517124
 22
-0.2048276526
 32
0.0
 13
-0.5465271162
 23
-0.0848061097
 33
0.0
 40
0.0
 40
0.0
 40
0.0
 40
0.0
 40
1.0
 40
1.0
 40
1.0
 40
1.0
 10
44.5220689444
 20
-4.8360932455
 30
0.0
 10
44.3668965697
 20
-4.9043691297
 30
0.0
 10
44.1993103623
 20
-4.9519552727
 30
0.0
 10
44.017134657
 20
-4.980223976
 30
0.0
 11
44.5220689444
 21
-4.8360932455
 31
0.0
 11
44.017134657
 21
-4.980223976
 31
0.0
  0
SPLINE
  5
34F
100
AcDbEntity
  8
0
100
AcDbSpline
 62
7
  6
CONTINUOUS
 70
0
 71
3
 72
8
 73
4
 74
2
 42
0.0000001
 43
0.0000001
 44
0.0000000001
 12
-0.2880495103
 22
-0.3891733637
 32
0.0
 13
-0.4655173218
 23
-0.2048277396
 33
0.0
 40
0.0
 40
0.0
 40
0.0
 40
0.0
 40
1.0
 40
1.0
 40
1.0
 40
1.0
 10
44.8994647856
 20
-4.5387826585
 30
0.0
 10
44.8034482822
 20
-4.668507113
 30
0.0
 10
44.677241385
 20
-4.7678173323
 30
0.0
 10
44.5220689444
 20
-4.8360932455
 30
0.0
 11
44.8994647856
 21
-4.5387826585
 31
0.0
 11
44.5220689444
 21
-4.8360932455
 31
0.0
  0
SPLINE
  5
350
100
AcDbEntity
  8
0
100
AcDbSpline
 62
7
  6
CONTINUOUS
 70
0
 71
3
 72
8
 73
4
 74
2
 42
0.0000001
 43
0.0000001
 44
0.0000000001
 12
0.0
 22
-0.602196984
 32
0.0
 13
-0.2953987464
 23
-0.399102653
 33
0.0
 40
0.0
 40
0.0
 40
0.0
 40
0.0
 40
1.0
 40
1.0
 40
1.0
 40
1.0
 10
45.0475862045
 20
-4.0374299054
 30
0.0
 10
45.0475862045
 20
-4.2381622334
 30
0.0
 10
44.9979310344
 20
-4.4057484408
 30
0.0
 10
44.8994647856
 20
-4.5387826585
 30
0.0
 11
45.0475862045
 21
-4.0374299054
 31
0.0
 11
44.8994647856
 21
-4.5387826585
 31
0.0
  0
SPLINE
  5
351
100
AcDbEntity
  8
0
100
AcDbSpline
 62
7
  6
CONTINUOUS
 70
0
 71
3
 72
8
 73
4
 74
2
 42
0.0000001
 43
0.0000001
 44
0.0000000001
 12
0.2924652674
 22
-0.3951396037
 32
0.0
 13
0.0
 23
-0.626768656
 33
0.0
 40
0.0
 40
0.0
 40
0.0
 40
0.0
 40
1.0
 40
1.0
 40
1.0
 40
1.0
 10
44.9004426119
 20
-3.5271387342
 30
0.0
 10
44.9979310344
 20
-3.6588519355
 30
0.0
 10
45.0475862045
 20
-3.8285070201
 30
0.0
 10
45.0475862045
 20
-4.0374299054
 30
0.0
 11
44.9004426119
 21
-3.5271387342
 31
0.0
 11
45.0475862045
 21
-4.0374299054
 31
0.0
  0
SPLINE
  5
352
100
AcDbEntity
  8
0
100
AcDbSpline
 62
7
  6
CONTINUOUS
 70
0
 71
3
 72
8
 73
4
 74
2
 42
0.0000001
 43
0.0000001
 44
0.0000000001
 12
0.4655174206
 22
-0.2048280513
 32
0.0
 13
0.2909829893
 23
-0.3931369495
 33
0.0
 40
0.0
 40
0.0
 40
0.0
 40
0.0
 40
1.0
 40
1.0
 40
1.0
 40
1.0
 10
44.5220689114
 20
-3.2285070268
 30
0.0
 10
44.677241385
 20
-3.2967830439
 30
0.0
 10
44.8034482822
 20
-3.3960930844
 30
0.0
 10
44.9004426119
 20
-3.5271387342
 30
0.0
 11
44.5220689114
 21
-3.2285070268
 31
0.0
 11
44.9004426119
 21
-3.5271387342
 31
0.0
  0
SPLINE
  5
353
100
AcDbEntity
  8
0
100
AcDbSpline
 62
7
  6
CONTINUOUS
 70
0
 71
3
 72
8
 73
4
 74
2
 42
0.0000001
 43
0.0000001
 44
0.0000000001
 12
0.5469565024
 22
-0.0754423137
 32
0.0
 13
0.4655170251
 23
-0.2048278773
 33
0.0
 40
0.0
 40
0.0
 40
0.0
 40
0.0
 40
1.0
 40
1.0
 40
1.0
 40
1.0
 10
44.0169915282
 20
-3.0874976656
 30
0.0
 10
44.1993103623
 20
-3.1126451035
 30
0.0
 10
44.3668965697
 20
-3.1602310677
 30
0.0
 10
44.5220689114
 20
-3.2285070268
 30
0.0
 11
44.0169915282
 21
-3.0874976656
 31
0.0
 11
44.5220689114
 21
-3.2285070268
 31
0.0
  0
SPLINE
  5
354
100
AcDbEntity
  8
0
100
AcDbSpline
 62
7
  6
CONTINUOUS
 70
0
 71
3
 72
8
 73
4
 74
2
 42
0.0000001
 43
0.0000001
 44
0.0000000001
 12
0.5027586222
 22
0.0
 32
0.0
 13
0.5330435405
 23
-0.0735232835
 33
0.0
 40
0.0
 40
0.0
 40
0.0
 40
0.0
 40
1.0
 40
1.0
 40
1.0
 40
1.0
 10
43.5
 20
-3.0526448031
 30
0.0
 10
43.6675862074
 20
-3.0526448031
 30
0.0
 10
43.839310348
 20
-3.0629899045
 30
0.0
 10
44.0169915282
 20
-3.0874976656
 30
0.0
 11
43.5
 21
-3.0526448031
 31
0.0
 11
44.0169915282
 21
-3.0874976656
 31
0.0
  0
SPLINE
  5
355
100
AcDbEntity
  8
0
100
AcDbSpline
 62
7
  6
CONTINUOUS
 70
0
 71
3
 72
8
 73
4
 74
2
 42
0.0000001
 43
0.0000001
 44
0.0000000001
 12
0.5452945886
 22
0.0752130841
 32
0.0
 13
0.5151724219
 23
0.0
 33
0.0
 40
0.0
 40
0.0
 40
0.0
 40
0.0
 40
1.0
 40
1.0
 40
1.0
 40
1.0
 10
42.9706489226
 20
-3.0880609325
 30
0.0
 10
43.1524137855
 20
-3.0629899045
 30
0.0
 10
43.3282758594
 20
-3.0526448031
 30
0.0
 10
43.5
 20
-3.0526448031
 30
0.0
 11
42.9706489226
 21
-3.0880609325
 31
0.0
 11
43.5
 21
-3.0526448031
 31
0.0
  0
SPLINE
  5
356
100
AcDbEntity
  8
0
100
AcDbSpline
 62
7
  6
CONTINUOUS
 70
0
 71
3
 72
8
 73
4
 74
2
 42
0.0000001
 43
0.0000001
 44
0.0000000001
 12
0.4707229609
 22
0.2071184934
 32
0.0
 13
0.5347054543
 23
0.0737525131
 33
0.0
 40
0.0
 40
0.0
 40
0.0
 40
0.0
 40
1.0
 40
1.0
 40
1.0
 40
1.0
 10
42.4699889661
 20
-3.2292705655
 30
0.0
 10
42.6268966198
 20
-3.1602310677
 30
0.0
 10
42.7924137712
 20
-3.1126451035
 30
0.0
 10
42.9706489226
 20
-3.0880609325
 30
0.0
 11
42.4699889661
 21
-3.2292705655
 31
0.0
 11
42.9706489226
 21
-3.0880609325
 31
0.0
  0
SPLINE
  5
357
100
AcDbEntity
  8
0
100
AcDbSpline
 62
7
  6
CONTINUOUS
 70
0
 71
3
 72
8
 73
4
 74
2
 42
0.0000001
 43
0.0000001
 44
0.0000000001
 12
0.2870611461
 22
0.4006241238
 32
0.0
 13
0.4603114848
 23
0.2025374352
 33
0.0
 40
0.0
 40
0.0
 40
0.0
 40
0.0
 40
1.0
 40
1.0
 40
1.0
 40
1.0
 10
42.0946577022
 20
-3.529634459
 30
0.0
 10
42.1903447509
 20
-3.3960930844
 30
0.0
 10
42.3165518045
 20
-3.2967830439
 30
0.0
 10
42.4699889661
 20
-3.2292705655
 30
0.0
 11
42.0946577022
 21
-3.529634459
 31
0.0
 11
42.4699889661
 21
-3.2292705655
 31
0.0
  0
SPLINE
  5
358
100
AcDbEntity
  8
0
100
AcDbSpline
 62
7
  6
CONTINUOUS
 70
0
 71
3
 72
8
 73
4
 74
2
 42
0.0000001
 43
0.0000001
 44
0.0000000001
 12
0.0124143362
 22
0.6206899881
 32
0.0
 13
0.2777664749
 23
0.3876524293
 33
0.0
 40
0.0
 40
0.0
 40
0.0
 40
0.0
 40
1.0
 40
1.0
 40
1.0
 40
1.0
 10
41.9503448009
 20
-4.0354036828
 30
0.0
 10
41.954482913
 20
-3.8285070201
 30
0.0
 10
42.0020688772
 20
-3.6588519355
 30
0.0
 10
42.0946577022
 20
-3.529634459
 30
0.0
 11
41.9503448009
 21
-4.0354036828
 31
0.0
 11
42.0946577022
 21
-3.529634459
 31
0.0
  0
SPLINE
  5
359
100
AcDbEntity
  8
0
100
AcDbSpline
 62
7
  6
CONTINUOUS
 70
0
 71
3
 72
8
 73
4
 74
2
 42
0.0000001
 43
0.0000001
 44
0.0000000001
 12
-0.2516862175
 22
-0.2762412357
 32
0.0
 13
-0.0124137998
 23
-0.4779310226
 33
0.0
 40
0.0
 40
0.0
 40
0.0
 40
0.0
 40
1.0
 40
1.0
 40
1.0
 40
1.0
 10
42.3569988218
 20
-3.6578060551
 30
0.0
 10
42.273103416
 20
-3.749886467
 30
0.0
 10
42.2317240834
 20
-3.8760933419
 30
0.0
 10
42.2275861502
 20
-4.0354036828
 30
0.0
 11
42.3569988218
 21
-3.6578060551
 31
0.0
 11
42.2275861502
 21
-4.0354036828
 31
0.0
  0
SPLINE
  5
35A
100
AcDbEntity
  8
0
100
AcDbSpline
 62
7
  6
CONTINUOUS
 70
0
 71
3
 72
8
 73
4
 74
2
 42
0.0000001
 43
0.0000001
 44
0.0000000001
 12
-0.3940729531
 22
-0.1396320621
 32
0.0
 13
-0.2572795727
 23
-0.28238029
 33
0.0
 40
0.0
 40
0.0
 40
0.0
 40
0.0
 40
1.0
 40
1.0
 40
1.0
 40
1.0
 10
42.6858403495
 20
-3.4488594618
 30
0.0
 10
42.5544826984
 20
-3.4954034825
 30
0.0
 10
42.4427586794
 20
-3.5636792918
 30
0.0
 10
42.3569988218
 20
-3.6578060551
 30
0.0
 11
42.6858403495
 21
-3.4488594618
 31
0.0
 11
42.3569988218
 21
-3.6578060551
 31
0.0
  0
SPLINE
  5
35B
100
AcDbEntity
  8
0
100
AcDbSpline
 62
7
  6
CONTINUOUS
 70
0
 71
3
 72
8
 73
4
 74
2
 42
0.0000001
 43
0.0000001
 44
0.0000000001
 12
-0.4353266816
 22
-0.033961287
 32
0.0
 13
-0.3942030636
 23
-0.1396781643
 33
0.0
 40
0.0
 40
0.0
 40
0.0
 40
0.0
 40
1.0
 40
1.0
 40
1.0
 40
1.0
 10
43.0989020619
 20
-3.3599450559
 30
0.0
 10
42.9537931681
 20
-3.3712654849
 30
0.0
 10
42.8172413707
 20
-3.4023000737
 30
0.0
 10
42.6858403495
 20
-3.4488594618
 30
0.0
 11
43.0989020619
 21
-3.3599450559
 31
0.0
 11
42.6858403495
 21
-3.4488594618
 31
0.0
  0
SPLINE
  5
35C
100
AcDbEntity
  8
0
100
AcDbSpline
 62
7
  6
CONTINUOUS
 70
0
 71
3
 72
8
 73
4
 74
2
 42
0.0000001
 43
0.0000001
 44
0.0000000001
 12
-0.2594456697
 22
0.2747075831
 32
0.0
 13
-0.3883831816
 23
0.137616026
 33
0.0
 40
0.0
 40
0.0
 40
0.0
 40
0.0
 40
1.0
 40
1.0
 40
1.0
 40
1.0
 10
44.6416542886
 20
-3.6552484862
 30
0.0
 10
44.5551723987
 20
-3.5636792918
 30
0.0
 10
44.4475862235
 20
-3.4954034825
 30
0.0
 10
44.318125163
 20
-3.4495314738
 30
0.0
 11
44.6416542886
 21
-3.6552484862
 31
0.0
 11
44.318125163
 21
-3.4495314738
 31
0.0
  0
SPLINE
  5
35D
100
AcDbEntity
  8
0
100
AcDbSpline
 62
7
  6
CONTINUOUS
 70
0
 71
3
 72
8
 73
4
 74
2
 42
0.0000001
 43
0.0000001
 44
0.0000000001
 12
0.0
 22
0.4779310226
 32
0.0
 13
-0.268140552
 23
0.2839139427
 33
0.0
 40
0.0
 40
0.0
 40
0.0
 40
0.0
 40
1.0
 40
1.0
 40
1.0
 40
1.0
 10
44.776551716
 20
-4.0354036828
 30
0.0
 10
44.776551716
 20
-3.8760933419
 30
0.0
 10
44.7310344726
 20
-3.749886467
 30
0.0
 10
44.6416542886
 20
-3.6552484862
 30
0.0
 11
44.776551716
 21
-4.0354036828
 31
0.0
 11
44.6416542886
 21
-3.6552484862
 31
0.0
  0
SPLINE
  5
35E
100
AcDbEntity
  8
0
100
AcDbSpline
 62
7
  6
CONTINUOUS
 70
0
 71
3
 72
8
 73
4
 74
2
 42
0.0000001
 43
0.0000001
 44
0.0000000001
 12
0.2682224584
 22
0.2840006672
 32
0.0
 13
0.0
 23
0.471724391
 33
0.0
 40
0.0
 40
0.0
 40
0.0
 40
0.0
 40
1.0
 40
1.0
 40
1.0
 40
1.0
 10
44.6416269864
 20
-4.4114496755
 30
0.0
 10
44.7310344726
 20
-4.3167827864
 30
0.0
 10
44.776551716
 20
-4.1926451464
 30
0.0
 10
44.776551716
 20
-4.0354036828
 30
0.0
 11
44.6416269864
 21
-4.4114496755
 31
0.0
 11
44.776551716
 21
-4.0354036828
 31
0.0
  0
SPLINE
  5
35F
100
AcDbEntity
  8
0
100
AcDbSpline
 62
7
  6
CONTINUOUS
 70
0
 71
3
 72
8
 73
4
 74
2
 42
0.0000001
 43
0.0000001
 44
0.0000000001
 12
0.3904154138
 22
0.1321880963
 32
0.0
 13
0.2593637633
 23
0.2746208585
 33
0.0
 40
0.0
 40
0.0
 40
0.0
 40
0.0
 40
1.0
 40
1.0
 40
1.0
 40
1.0
 10
44.3174477522
 20
-4.6153282909
 30
0.0
 10
44.4475862235
 20
-4.5712655922
 30
0.0
 10
44.5551723987
 20
-4.5029899617
 30
0.0
 10
44.6416269864
 20
-4.4114496755
 30
0.0
 11
44.3174477522
 21
-4.6153282909
 31
0.0
 11
44.6416269864
 21
-4.4114496755
 31
0.0
  0
SPLINE
  5
360
100
AcDbEntity
  8
0
100
AcDbSpline
 62
7
  6
CONTINUOUS
 70
0
 71
3
 72
8
 73
4
 74
2
 42
0.0000001
 43
0.0000001
 44
0.0000000001
 12
0.4409183357
 22
0.0475809931
 32
0.0
 13
0.3978604688
 23
0.1347088668
 33
0.0
 40
0.0
 40
0.0
 40
0.0
 40
0.0
 40
1.0
 40
1.0
 40
1.0
 40
1.0
 10
43.8971651761
 20
-4.7050571103
 30
0.0
 10
44.0441379547
 20
-4.6891967793
 30
0.0
 10
44.1848275959
 20
-4.6602312465
 30
0.0
 10
44.3174477522
 20
-4.6153282909
 30
0.0
 11
43.8971651761
 21
-4.7050571103
 31
0.0
 11
44.3174477522
 21
-4.6153282909
 31
0.0
  0
SPLINE
  5
361
100
AcDbEntity
  8
0
100
AcDbSpline
 62
7
  6
CONTINUOUS
 70
0
 71
3
 72
8
 73
4
 74
2
 42
0.0000001
 43
0.0000001
 44
0.0000000001
 12
0.3662068248
 22
0.0
 32
0.0
 13
0.4218404796
 23
0.0455222369
 33
0.0
 40
0.0
 40
0.0
 40
0.0
 40
0.0
 40
1.0
 40
1.0
 40
1.0
 40
1.0
 10
43.5020689666
 20
-4.7285070558
 30
0.0
 10
43.6241379082
 20
-4.7285070558
 30
0.0
 10
43.7565516829
 20
-4.7202311893
 30
0.0
 10
43.8971651761
 20
-4.7050571103
 30
0.0
 11
43.5020689666
 21
-4.7285070558
 31
0.0
 11
43.8971651761
 21
-4.7050571103
 31
0.0
  0
SPLINE
  5
362
100
AcDbEntity
  8
0
100
AcDbSpline
 62
7
  6
CONTINUOUS
 70
0
 71
3
 72
8
 73
4
 74
2
 42
0.0000001
 43
0.0000001
 44
0.0000000001
 12
0.4403415618
 22
-0.0468447551
 32
0.0
 13
0.366207093
 23
0.0
 33
0.0
 40
0.0
 40
0.0
 40
0.0
 40
0.0
 40
1.0
 40
1.0
 40
1.0
 40
1.0
 10
43.0987366737
 20
-4.7046162709
 30
0.0
 10
43.2455171943
 20
-4.7202311893
 30
0.0
 10
43.3799999356
 20
-4.7285070558
 30
0.0
 10
43.5020689666
 20
-4.7285070558
 30
0.0
 11
43.0987366737
 21
-4.7046162709
 31
0.0
 11
43.5020689666
 21
-4.7285070558
 31
0.0
  0
SPLINE
  5
363
100
AcDbEntity
  8
0
100
AcDbSpline
 62
7
  6
CONTINUOUS
 70
0
 71
3
 72
8
 73
4
 74
2
 42
0.0000001
 43
0.0000001
 44
0.0000000001
 12
0.3923139897
 22
-0.1328308996
 32
0.0
 13
0.4348305168
 23
-0.0462584749
 33
0.0
 40
0.0
 40
0.0
 40
0.0
 40
0.0
 40
1.0
 40
1.0
 40
1.0
 40
1.0
 10
42.6864700408
 20
-4.61595428
 30
0.0
 10
42.8172413707
 20
-4.6602312465
 30
0.0
 10
42.9537931681
 20
-4.6891967793
 30
0.0
 10
43.0987366737
 20
-4.7046162709
 30
0.0
 11
42.6864700408
 21
-4.61595428
 31
0.0
 11
43.0987366737
 21
-4.7046162709
 31
0.0
  0
SPLINE
  5
364
100
AcDbEntity
  8
0
100
AcDbSpline
 62
7
  6
CONTINUOUS
 70
0
 71
3
 72
8
 73
4
 74
2
 42
0.0000001
 43
0.0000001
 44
0.0000000001
 12
0.2573170909
 22
-0.2824214685
 32
0.0
 13
0.3959620271
 23
-0.1340660635
 33
0.0
 40
0.0
 40
0.0
 40
0.0
 40
0.0
 40
1.0
 40
1.0
 40
1.0
 40
1.0
 10
42.3569863158
 20
-4.4088494722
 30
0.0
 10
42.4427586794
 20
-4.5029899617
 30
0.0
 10
42.5544826984
 20
-4.5712655922
 30
0.0
 10
42.6864700408
 20
-4.61595428
 30
0.0
 11
42.3569863158
 21
-4.4088494722
 31
0.0
 11
42.6864700408
 21
-4.61595428
 31
0.0
  0
SPLINE
  5
365
100
AcDbEntity
  8
0
100
AcDbSpline
 62
7
  6
CONTINUOUS
 70
0
 71
3
 72
8
 73
4
 74
2
 42
0.0000001
 43
0.0000001
 44
0.0000000001
 12
0.0124137998
 22
-0.471724391
 32
0.0
 13
0.2516486994
 23
-0.2762000572
 33
0.0
 40
0.0
 40
0.0
 40
0.0
 40
0.0
 40
1.0
 40
1.0
 40
1.0
 40
1.0
 10
42.2275861502
 20
-4.0354036828
 30
0.0
 10
42.2317240834
 20
-4.1926451464
 30
0.0
 10
42.273103416
 20
-4.3167827864
 30
0.0
 10
42.3569863158
 20
-4.4088494722
 30
0.0
 11
42.2275861502
 21
-4.0354036828
 31
0.0
 11
42.3569863158
 21
-4.4088494722
 31
0.0
  0
ELLIPSE
  5
366
100
AcDbEntity
  8
RACCORDO
100
AcDbEllipse
 62
7
  6
CONTINUOUS
 10
48.4992927269
 20
-45.0312480425
 30
0.0
 11
1.0606730955
 21
-1.0606730958
 31
0.0
 40
0.9999878154
 41
0.270064146
 42
0.785392071
  0
ELLIPSE
  5
367
100
AcDbEntity
  8
RACCORDO
100
AcDbEllipse
 62
7
  6
CONTINUOUS
 10
48.4992927269
 20
-45.0312480425
 30
0.0
 11
-1.0606730957
 21
1.0606730956
 31
0.0
 40
0.9999878154
 41
-2.8879127928
 42
-2.8715285078
  0
ELLIPSE
  5
368
100
AcDbEntity
  8
RACCORDO
100
AcDbEllipse
 62
7
  6
CONTINUOUS
 10
48.4992927269
 20
-45.0312480425
 30
0.0
 11
1.0606730957
 21
-1.0606730956
 31
0.0
 40
0.9999878154
 41
-0.7853920711
 42
0.253679861
  0
ELLIPSE
  5
369
100
AcDbEntity
  8
RACCORDO
100
AcDbEllipse
 62
7
  6
CONTINUOUS
 10
48.4992927269
 20
34.9673374112
 30
0.0
 11
1.0606730956
 21
1.0606730957
 31
0.0
 40
0.9999878154
 41
-0.7853920711
 42
0.7853920711
  0
ELLIPSE
  5
36A
100
AcDbEntity
  8
RACCORDO
100
AcDbEllipse
 62
7
  6
CONTINUOUS
 10
-48.4992927269
 20
34.9673374112
 30
0.0
 11
1.0606730956
 21
-1.0606730956
 31
0.0
 40
0.9999878154
 41
-2.8879127928
 42
-2.3562005826
  0
ELLIPSE
  5
36B
100
AcDbEntity
  8
RACCORDO
100
AcDbEllipse
 62
7
  6
CONTINUOUS
 10
-48.4992927269
 20
34.9673374112
 30
0.0
 11
-1.0606730957
 21
1.0606730955
 31
0.0
 40
0.9999878154
 41
-0.253679861
 42
0.2536798607
  0
ELLIPSE
  5
36C
100
AcDbEntity
  8
RACCORDO
100
AcDbEllipse
 62
7
  6
CONTINUOUS
 10
-48.4992927269
 20
34.9673374112
 30
0.0
 11
1.0606730955
 21
-1.0606730958
 31
0.0
 40
0.9999878154
 41
2.3562005827
 42
2.8879127927
  0
ELLIPSE
  5
36D
100
AcDbEntity
  8
RACCORDO
100
AcDbEllipse
 62
7
  6
CONTINUOUS
 10
-48.4992927269
 20
-45.0312480425
 30
0.0
 11
1.0606730957
 21
1.0606730955
 31
0.0
 40
0.9999878154
 41
-2.8879127927
 42
-2.8715285077
  0
ELLIPSE
  5
36E
100
AcDbEntity
  8
RACCORDO
100
AcDbEllipse
 62
7
  6
CONTINUOUS
 10
-48.4992927269
 20
-45.0312480425
 30
0.0
 11
1.0606730956
 21
1.0606730957
 31
0.0
 40
0.9999878154
 41
-3.3952725145
 42
-2.8879127928
  0
ELLIPSE
  5
36F
100
AcDbEntity
  8
RACCORDO
100
AcDbEllipse
 62
7
  6
CONTINUOUS
 10
-48.4992927269
 20
-45.0312480425
 30
0.0
 11
1.0606730956
 21
1.0606730956
 31
0.0
 40
0.9999878154
 41
-2.8715285078
 42
-2.3562005826
  0
ELLIPSE
  5
370
100
AcDbEntity
  8
RACCORDO
100
AcDbEllipse
 62
7
  6
CONTINUOUS
 10
-48.4992927269
 20
-45.0312480425
 30
0.0
 11
1.0606730957
 21
1.0606730955
 31
0.0
 40
0.9999878154
 41
-3.9269847246
 42
-3.4116567995
  0
ELLIPSE
  5
371
100
AcDbEntity
  8
DRAFT
100
AcDbEllipse
 62
7
  6
CONTINUOUS
 10
-49.9155257211
 20
-5.0319553157
 30
0.0
 11
0.0
 21
11.5
 31
0.0
 40
0.0034906727
 41
0.0
 42
6.2831853072
  0
ELLIPSE
  5
372
100
AcDbEntity
  8
DRAFT
100
AcDbEllipse
 62
7
  6
CONTINUOUS
 10
49.9155257211
 20
-5.0319553157
 30
0.0
 11
0.0
 21
11.5
 31
0.0
 40
0.0034906727
 41
0.0
 42
6.2831853072
  0
ELLIPSE
  5
373
100
AcDbEntity
  8
DRAFT
100
AcDbEllipse
 62
7
  6
CONTINUOUS
 10
-0.0
 20
-46.4474810368
 30
0.0
 11
11.5
 21
-0.0
 31
0.0
 40
0.0034906727
 41
0.0
 42
6.2831853072
  0
ENDSEC
  0
SECTION
  2
OBJECTS
  0
DICTIONARY
  5
C
100
AcDbDictionary
280
0
281
1
  3
ACAD_GROUP
350
D
  3
ACAD_MLINESTYLE
350
17
  3
ACAD_LAYOUT
350
1A
  3
ACAD_PLOTSETTINGS
350
19
  3
ACAD_PLOTSTYLENAME
350
E
  0
DICTIONARY
  5
D
102
{ACAD_REACTORS
330
C
102
}
100
AcDbDictionary
280
0
281
1
  0
ACDBDICTIONARYWDFLT
  5
E
102
{ACAD_REACTORS
330
C
102
}
100
AcDbDictionary
281
1
  3
Normal
350
F
100
AcDbDictionaryWithDefault
340
F
  0
DICTIONARY
  5
17
102
{ACAD_REACTORS
330
C
102
}
100
AcDbDictionary
280
0
281
1
  3
Standard
350
18
  0
DICTIONARY
  5
19
102
{ACAD_REACTORS
330
C
102
}
100
AcDbDictionary
281
1
  0
DICTIONARY
  5
1A
102
{ACAD_REACTORS
330
C
102
}
100
AcDbDictionary
281
1
  3
Model
350
374
  3
Layout1
350
375
  0
ACDBPLACEHOLDER
  5
F
102
{ACAD_REACTORS
330
E
102
}
  0
MLINESTYLE
  5
18
102
{ACAD_REACTORS
330
17
102
}
100
AcDbMlineStyle
  2
STANDARD
 70
0
  3

 62
256
 51
90.0
 52
90.0
 71
2
 49
0.5
 62
256
  6
BYLAYER
 49
-0.5
 62
256
  6
BYLAYER
  0
LAYOUT
  5
374
102
{ACAD_REACTORS
330
1A
102
}
100
AcDbPlotSettings
  1

  2
none_device
  4
ISO_A4_(297.00_x_210.00_MM)
  6

 40
0.0
 41
0.0
 42
0.0
 43
0.0
 44
297.0
 45
210.0
 46
0.0
 47
0.0
 48
0.0
 49
0.0
140
0.0
141
0.0
142
1.0
143
1.0
 70
1024
 72
1
 73
0
 74
0
  7

 75
0
147
1.0
148
0.0
149
0.0
100
AcDbLayout
  1
Model
 70
0
 71
0
 10
0.0
 20
0.0
 11
297.0
 21
210.0
 12
0.0
 22
0.0
 32
0.0
 14
0.0
 24
0.0
 34
0.0
 15
0.0
 25
0.0
 35
0.0
146
0.0
 13
0.0
 23
0.0
 33
0.0
 16
1.0
 26
0.0
 36
0.0
 17
0.0
 27
1.0
 37
0.0
 76
0
330
216
345
0
346
0
  0
LAYOUT
  5
375
102
{ACAD_REACTORS
330
1A
102
}
100
AcDbPlotSettings
  1

  2
none_device
  4
ISO_A4_(297.00_x_210.00_MM)
  6

 40
0.0
 41
0.0
 42
0.0
 43
0.0
 44
297.0
 45
210.0
 46
0.0
 47
0.0
 48
0.0
 49
0.0
140
0.0
141
0.0
142
1.0
143
1.0
 70
0
 72
1
 73
0
 74
0
  7

 75
0
147
1.0
148
0.0
149
0.0
100
AcDbLayout
  1
Layout1
 70
0
 71
1
 10
0.0
 20
0.0
 11
297.0
 21
210.0
 12
0.0
 22
0.0
 32
0.0
 14
0.0
 24
0.0
 34
0.0
 15
0.0
 25
0.0
 35
0.0
146
0.0
 13
0.0
 23
0.0
 33
0.0
 16
1.0
 26
0.0
 36
0.0
 17
0.0
 27
1.0
 37
0.0
 76
0
330
217
345
0
346
0
  0
ENDSEC
  0
EOF
