  0
SECTION
  2
HEADER
  9
$ACADVER
  1
AC1024
  9
$DWGCODEPAGE
  3
ANSI_1252
  9
$EXTMAX
 10
297.0
 20
210.0
 30
0.0
  9
$EXTMIN
 10
0.0
 20
0.0
 30
0.0
  9
$LIMMIN
 10
0.0
 20
0.0
  9
$LIMMAX
 10
297.0
 20
210.0
  9
$VIEWCTR
 10
148.5
 20
105.0
  9
$VIEWSIZE
 40
210.0
  9
$CLAYER
  8
0
  9
$LTSCALE
 40
16.335
  9
$CELTYPE
  6
BYLAYER
  9
$DIMSCALE
 40
1.0
  9
$DIMASZ
 40
3.0
  9
$DIMEXO
 40
0.5
  9
$DIMDLI
 40
11.286
  9
$DIMEXE
 40
1.5
  9
$DIMCEN
 40
2.673
  9
$DIMLFAC
 40
1.0
  9
$DIMBLK
  1
_FILLED
  9
$DIMALT
 70
0
  9
$DIMALTF
 40
0.0393700787
  9
$DIMTXT
 40
3.0
  9
$DIMTOL
 70
1
  9
$DIMLIM
 70
0
  9
$DIMTFAC
 40
1.0
  9
$DIMTP
 40
0.01
  9
$DIMTM
 40
0.01
  9
$DIMGAP
 40
0.625
  9
$DIMDSEP
 70
44
  9
$AUNITS
 70
0
  9
$PDMODE
 70
3
  9
$PDSIZE
 40
3.0
  9
$HANDSEED
  5
38A
  9
$TILEMODE
 70
1
  9
$MEASUREMENT
 70
1
  9
$INSUNITS
 70
4
  0
ENDSEC
  0
SECTION
  2
CLASSES
  0
CLASS
  1
ACDBDICTIONARYWDFLT
  2
AcDbDictionaryWithDefault
  3
AutoCAD 2000
 90
0
 91
1
280
0
281
0
  0
CLASS
  1
ACDBPLACEHOLDER
  2
AcDbPlaceHolder
  3
AutoCAD 2000
 90
0
 91
1
280
0
281
0
  0
CLASS
  1
LAYOUT
  2
AcDbLayout
  3
AutoCAD 2000
 90
0
 91
0
280
0
281
0
  0
ENDSEC
  0
SECTION
  2
TABLES
  0
TABLE
  2
VPORT
  5
8
100
AcDbSymbolTable
 70
2
  0
VPORT
  5
1F4
100
AcDbSymbolTableRecord
100
AcDbViewportTableRecord
  2
*ACTIVE
 70
0
 10
0.0
 20
0.0
 11
1.0
 21
1.0
 12
148.5
 22
105.0
 13
0.0
 23
0.0
 14
1.0
 24
1.0
 15
0.0
 25
0.0
 16
0.0
 26
0.0
 36
1.0
 17
0.0
 27
0.0
 37
0.0
 40
210.0
 41
1.4142857143
 42
50.0
 43
0.0
 44
0.0
 50
0.0
 51
0.0
 71
0
 72
100
 73
1
 74
1
 75
0
 76
0
 77
0
 78
0
  0
ENDTAB
  0
TABLE
  2
LTYPE
  5
5
100
AcDbSymbolTable
 70
6
  0
LTYPE
  5
14
100
AcDbSymbolTableRecord
100
AcDbLinetypeTableRecord
  2
BYBLOCK
 70
0
  3

 72
65
 73
0
 40
0.0
  0
LTYPE
  5
15
100
AcDbSymbolTableRecord
100
AcDbLinetypeTableRecord
  2
BYLAYER
 70
0
  3

 72
65
 73
0
 40
0.0
  0
LTYPE
  5
16
100
AcDbSymbolTableRecord
100
AcDbLinetypeTableRecord
  2
CONTINUOUS
 70
64
  3
Solid line
 72
65
 73
0
 40
0.0
  0
LTYPE
  5
1F5
100
AcDbSymbolTableRecord
100
AcDbLinetypeTableRecord
  2
CENTER
 70
64
  3
____ _ ____ _ ____ _ ____ _ ____ _ ____ _ ____
 72
65
 73
4
 40
0.6
 49
0.375
 74
0
 49
-0.075
 74
0
 49
0.075
 74
0
 49
-0.075
 74
0
  0
LTYPE
  5
1F6
100
AcDbSymbolTableRecord
100
AcDbLinetypeTableRecord
  2
HIDDEN
 70
64
  3
- - - - - - - - - - - - - - - - - - - -
 72
65
 73
2
 40
0.2
 49
0.1
 74
0
 49
-0.1
 74
0
  0
LTYPE
  5
1F7
100
AcDbSymbolTableRecord
100
AcDbLinetypeTableRecord
  2
PHANTOM
 70
64
  3
_____ _ _ _____ _ _ _____ _ _ _____
 72
65
 73
6
 40
0.8
 49
0.45
 74
0
 49
-0.05
 74
0
 49
0.1
 74
0
 49
-0.05
 74
0
 49
0.1
 74
0
 49
-0.05
 74
0
  0
LTYPE
  5
1F8
100
AcDbSymbolTableRecord
100
AcDbLinetypeTableRecord
  2
DOT
 70
64
  3
. . . . . . . . . . . . . . . . . . . .
 72
65
 73
2
 40
0.2
 49
0.1
 74
0
 49
-0.1
 74
0
  0
LTYPE
  5
1F9
100
AcDbSymbolTableRecord
100
AcDbLinetypeTableRecord
  2
DASHED
 70
64
  3
- - - - - - - - - - - - - - - - - - - -
 72
65
 73
2
 40
0.2
 49
0.1
 74
0
 49
-0.1
 74
0
  0
ENDTAB
  0
TABLE
  2
LAYER
  5
2
100
AcDbSymbolTable
 70
36
  0
LAYER
  5
10
100
AcDbSymbolTableRecord
100
AcDbLayerTableRecord
  2
0
 70
0
 62
7
  6
CONTINUOUS
370
-3
390
F
  0
LAYER
  5
1FA
100
AcDbSymbolTableRecord
100
AcDbLayerTableRecord
  2
DEFAULT_1
 70
0
 62
7
  6
CENTER
370
-3
390
F
  0
LAYER
  5
1FB
100
AcDbSymbolTableRecord
100
AcDbLayerTableRecord
  2
DEFAULT_2
 70
0
 62
7
  6
HIDDEN
370
-3
390
F
  0
LAYER
  5
1FC
100
AcDbSymbolTableRecord
100
AcDbLayerTableRecord
  2
DEFAULT_3
 70
0
 62
7
  6
PHANTOM
370
-3
390
F
  0
LAYER
  5
1FD
100
AcDbSymbolTableRecord
100
AcDbLayerTableRecord
  2
ASSI
 70
0
 62
7
  6
CONTINUOUS
370
-3
390
F
  0
LAYER
  5
1FE
100
AcDbSymbolTableRecord
100
AcDbLayerTableRecord
  2
COORDINATE
 70
0
 62
7
  6
CONTINUOUS
370
-3
390
F
  0
LAYER
  5
1FF
100
AcDbSymbolTableRecord
100
AcDbLayerTableRecord
  2
COPY_PUBLISH
 70
0
 62
7
  6
CONTINUOUS
370
-3
390
F
  0
LAYER
  5
200
100
AcDbSymbolTableRecord
100
AcDbLayerTableRecord
  2
COSMETICI
 70
0
 62
7
  6
CONTINUOUS
370
-3
390
F
  0
LAYER
  5
201
100
AcDbSymbolTableRecord
100
AcDbLayerTableRecord
  2
CURVE
 70
0
 62
7
  6
CONTINUOUS
370
-3
390
F
  0
LAYER
  5
202
100
AcDbSymbolTableRecord
100
AcDbLayerTableRecord
  2
DRAFT
 70
0
 62
7
  6
CONTINUOUS
370
-3
390
F
  0
LAYER
  5
203
100
AcDbSymbolTableRecord
100
AcDbLayerTableRecord
  2
IMPORT_IGES
 70
0
 62
7
  6
CONTINUOUS
370
-3
390
F
  0
LAYER
  5
204
100
AcDbSymbolTableRecord
100
AcDbLayerTableRecord
  2
INTF_11
 70
0
 62
7
  6
CONTINUOUS
370
-3
390
F
  0
LAYER
  5
205
100
AcDbSymbolTableRecord
100
AcDbLayerTableRecord
  2
NOTE
 70
0
 62
7
  6
CONTINUOUS
370
-3
390
F
  0
LAYER
  5
206
100
AcDbSymbolTableRecord
100
AcDbLayerTableRecord
  2
PIANI
 70
0
 62
7
  6
CONTINUOUS
370
-3
390
F
  0
LAYER
  5
207
100
AcDbSymbolTableRecord
100
AcDbLayerTableRecord
  2
PUNTI
 70
0
 62
7
  6
CONTINUOUS
370
-3
390
F
  0
LAYER
  5
208
100
AcDbSymbolTableRecord
100
AcDbLayerTableRecord
  2
RACCORDO
 70
0
 62
7
  6
CONTINUOUS
370
-3
390
F
  0
LAYER
  5
209
100
AcDbSymbolTableRecord
100
AcDbLayerTableRecord
  2
SIMBOLI
 70
0
 62
7
  6
CONTINUOUS
370
-3
390
F
  0
LAYER
  5
20A
100
AcDbSymbolTableRecord
100
AcDbLayerTableRecord
  2
SMUSSO
 70
0
 62
7
  6
CONTINUOUS
370
-3
390
F
  0
LAYER
  5
20B
100
AcDbSymbolTableRecord
100
AcDbLayerTableRecord
  2
SNAPLINE
 70
0
 62
7
  6
CONTINUOUS
370
-3
390
F
  0
LAYER
  5
20C
100
AcDbSymbolTableRecord
100
AcDbLayerTableRecord
  2
SUPERFICI
 70
0
 62
7
  6
CONTINUOUS
370
-3
390
F
  0
LAYER
  5
20D
100
AcDbSymbolTableRecord
100
AcDbLayerTableRecord
  2
TRASH
 70
0
 62
7
  6
CONTINUOUS
370
-3
390
F
  0
ENDTAB
  0
TABLE
  2
STYLE
  5
3
100
AcDbSymbolTable
 70
1
  0
STYLE
  5
11
100
AcDbSymbolTableRecord
100
AcDbTextStyleTableRecord
  2
STANDARD
 70
0
 40
0.0
 41
0.8
 50
0.0
 71
0
 42
0.2
  3
txt
  4

  0
STYLE
  5
20E
100
AcDbSymbolTableRecord
100
AcDbTextStyleTableRecord
  2
TEXTSTYLE_1
 70
0
 40
0.0
 41
0.8
 50
0.0
 71
0
 42
0.2
  3
gdt
  4

  0
ENDTAB
  0
TABLE
  2
VIEW
  5
6
100
AcDbSymbolTable
 70
0
  0
ENDTAB
  0
TABLE
  2
UCS
  5
7
100
AcDbSymbolTable
 70
0
  0
ENDTAB
  0
TABLE
  2
APPID
  5
9
100
AcDbSymbolTable
 70
1
  0
APPID
  5
20F
100
AcDbSymbolTableRecord
100
AcDbRegAppTableRecord
  2
ACAD
 70
0
  0
ENDTAB
  0
TABLE
  2
BLOCK_RECORD
  5
1
100
AcDbSymbolTable
 70
0
  0
BLOCK_RECORD
  5
210
100
AcDbSymbolTableRecord
100
AcDbBlockTableRecord
  2
*Model_Space
  0
BLOCK_RECORD
  5
211
100
AcDbSymbolTableRecord
100
AcDbBlockTableRecord
  2
*Paper_Space
  0
BLOCK_RECORD
  5
212
100
AcDbSymbolTableRecord
100
AcDbBlockTableRecord
  2
_FILLED
  0
ENDTAB
  0
TABLE
  2
DIMSTYLE
  5
A
100
AcDbSymbolTable
 70
1
100
AcDbDimStyleTable
 71
0
  0
DIMSTYLE
105
213
100
AcDbSymbolTableRecord
100
AcDbDimStyleTableRecord
  2
STANDARD
 70
0
  3

  4

 40
1.0
 41
3.0
 42
0.5
 43
0.38
 44
1.5
 45
0.0
 46
0.0
 47
0.01
 48
0.01
140
3.0
141
0.09
142
0.0
143
25.4
144
1.0
145
0.0
146
1.0
147
0.625
 71
1
 72
0
 73
0
 74
0
 75
0
 76
0
 77
1
 78
8
 79
2
170
0
171
1
172
0
173
0
174
0
175
0
176
0
177
0
178
0
270
2
179
2
271
2
272
2
273
2
274
2
275
0
280
0
281
0
282
0
283
1
284
8
285
0
286
0
287
3
288
0
340
11
278
44
341
212
342
212
343
212
344
212
  0
ENDTAB
  0
ENDSEC
  0
SECTION
  2
BLOCKS
  0
BLOCK
  5
20
100
AcDbEntity
  8
0
100
AcDbBlockBegin
  2
*Model_Space
 70
0
 10
0.0
 20
0.0
 30
0.0
  3
*Model_Space
  1

  0
ENDBLK
  5
21
100
AcDbEntity
  8
0
100
AcDbBlockEnd
  0
BLOCK
  5
1C
100
AcDbEntity
  8
0
100
AcDbBlockBegin
  2
*Paper_Space
 70
0
 10
0.0
 20
0.0
 30
0.0
  3
*Paper_Space
  1

  0
ENDBLK
  5
1D
100
AcDbEntity
  8
0
100
AcDbBlockEnd
  0
BLOCK
  5
214
100
AcDbEntity
  8
0
100
AcDbBlockBegin
  2
_FILLED
 70
64
 10
0.0
 20
0.0
  3
_FILLED
  1

  0
SOLID
  5
215
100
AcDbEntity
  8
0
  6
BYBLOCK
 62
0
100
AcDbTrace
 10
0.0
 20
0.0
 11
-1.0
 21
0.1333333333
 12
-1.0
 22
-0.1333333333
 13
-1.0
 23
-0.1333333333
  0
ENDBLK
  5
216
100
AcDbEntity
  8
0
  6
BYBLOCK
 62
0
100
AcDbBlockEnd
  0
ENDSEC
  0
SECTION
  2
ENTITIES
  0
LINE
  5
217
100
AcDbEntity
  8
RACCORDO
100
AcDbLine
 62
7
  6
CONTINUOUS
 10
-62.9237478756
 20
-44.9186798061
 11
-62.9237478756
 21
46.0813201939
  0
LWPOLYLINE
  5
218
100
AcDbEntity
  8
0
100
AcDbPolyline
 62
7
  6
CONTINUOUS
 90
11
 70
0
 10
-49.9734051827
 20
-29.1237698737
 10
-49.9663716294
 20
-29.2733381046
 10
-49.9592450645
 20
-29.4076756877
 10
-49.9520258765
 20
-29.5268462013
 10
-49.9447442849
 20
-29.6303507962
 10
-49.9374000282
 20
-29.7181238031
 10
-49.9299933678
 20
-29.7902308913
 10
-49.9225553082
 20
-29.8463702198
 10
-49.9150961842
 20
-29.886441175
 10
-49.9076056609
 20
-29.9105443704
 10
-49.9000837385
 20
-29.9186798061
  0
LWPOLYLINE
  5
219
100
AcDbEntity
  8
0
100
AcDbPolyline
 62
7
  6
CONTINUOUS
 90
11
 70
0
 10
-49.8267622942
 20
-7.7135897384
 10
-49.8337958476
 20
-7.5640215075
 10
-49.8409224124
 20
-7.4296839244
 10
-49.8481416004
 20
-7.3105134109
 10
-49.855423192
 20
-7.207008816
 10
-49.8627674488
 20
-7.1192358091
 10
-49.8701741091
 20
-7.0471287208
 10
-49.8776121687
 20
-6.9909893923
 10
-49.8850712927
 20
-6.9509184372
 10
-49.892561816
 20
-6.9268152418
 10
-49.9000837385
 20
-6.9186798061
  0
LINE
  5
21A
100
AcDbEntity
  8
0
100
AcDbLine
 62
7
  6
CONTINUOUS
 10
-49.9871653651
 20
-28.7798217869
 11
-49.9734051827
 21
-29.1237698737
  0
LINE
  5
21B
100
AcDbEntity
  8
0
100
AcDbLine
 62
7
  6
CONTINUOUS
 10
-49.8130021118
 20
-8.0575378252
 11
-49.8267622942
 21
-7.7135897384
  0
LINE
  5
21C
100
AcDbEntity
  8
0
100
AcDbLine
 62
7
  6
CONTINUOUS
 10
-49.9734051827
 20
8.8762301263
 11
-49.9871653651
 21
9.2201782131
  0
LINE
  5
21D
100
AcDbEntity
  8
0
100
AcDbLine
 62
7
  6
CONTINUOUS
 10
-49.8267622942
 20
30.2864102616
 11
-49.8130021118
 21
29.9424621748
  0
LINE
  5
21E
100
AcDbEntity
  8
0
100
AcDbLine
 62
7
  6
CONTINUOUS
 10
-50.0004378154
 20
-28.3778423819
 11
-49.9871653651
 21
-28.7798217869
  0
LINE
  5
21F
100
AcDbEntity
  8
0
100
AcDbLine
 62
7
  6
CONTINUOUS
 10
-49.7997296615
 20
-8.4595172303
 11
-49.8130021118
 21
-8.0575378252
  0
LINE
  5
220
100
AcDbEntity
  8
0
100
AcDbLine
 62
7
  6
CONTINUOUS
 10
-49.9871653651
 20
9.2201782131
 11
-50.0004378154
 21
9.6221576181
  0
LINE
  5
221
100
AcDbEntity
  8
0
100
AcDbLine
 62
7
  6
CONTINUOUS
 10
-49.8130021118
 20
29.9424621748
 11
-49.7997296615
 21
29.5404827697
  0
LINE
  5
222
100
AcDbEntity
  8
0
100
AcDbLine
 62
7
  6
CONTINUOUS
 10
-50.0131403543
 20
-27.9205109395
 11
-50.0004378154
 21
-28.3778423819
  0
LINE
  5
223
100
AcDbEntity
  8
0
100
AcDbLine
 62
7
  6
CONTINUOUS
 10
-49.7870271226
 20
-8.9168486726
 11
-49.7997296615
 21
-8.4595172303
  0
LINE
  5
224
100
AcDbEntity
  8
0
100
AcDbLine
 62
7
  6
CONTINUOUS
 10
-50.0004378154
 20
9.6221576181
 11
-50.0131403543
 21
10.0794890605
  0
LINE
  5
225
100
AcDbEntity
  8
0
100
AcDbLine
 62
7
  6
CONTINUOUS
 10
-49.7997296615
 20
29.5404827697
 11
-49.7870271226
 21
29.0831513274
  0
LINE
  5
226
100
AcDbEntity
  8
0
100
AcDbLine
 62
7
  6
CONTINUOUS
 10
-50.0309965268
 20
-27.1354600122
 11
-50.0131403543
 21
-27.9205109395
  0
LINE
  5
227
100
AcDbEntity
  8
0
100
AcDbLine
 62
7
  6
CONTINUOUS
 10
-49.7691709501
 20
-9.7018995999
 11
-49.7870271226
 21
-8.9168486726
  0
LINE
  5
228
100
AcDbEntity
  8
0
100
AcDbLine
 62
7
  6
CONTINUOUS
 10
-50.0131403543
 20
10.0794890605
 11
-50.0309965268
 21
10.8645399878
  0
LINE
  5
229
100
AcDbEntity
  8
0
100
AcDbLine
 62
7
  6
CONTINUOUS
 10
-49.7870271226
 20
29.0831513274
 11
-49.7691709501
 21
28.2981004001
  0
LINE
  5
22A
100
AcDbEntity
  8
0
100
AcDbLine
 62
7
  6
CONTINUOUS
 10
-50.0309965268
 20
10.8645399878
 11
-50.0472063951
 21
11.7592094839
  0
LINE
  5
22B
100
AcDbEntity
  8
0
100
AcDbLine
 62
7
  6
CONTINUOUS
 10
-49.7691709501
 20
28.2981004001
 11
-49.7529610818
 21
27.403430904
  0
LINE
  5
22C
100
AcDbEntity
  8
0
100
AcDbLine
 62
7
  6
CONTINUOUS
 10
-50.0522125294
 20
-25.9198108873
 11
-50.0309965268
 21
-27.1354600122
  0
LINE
  5
22D
100
AcDbEntity
  8
0
100
AcDbLine
 62
7
  6
CONTINUOUS
 10
-49.7479549475
 20
-10.9175487248
 11
-49.7691709501
 21
-9.7018995999
  0
LINE
  5
22E
100
AcDbEntity
  8
0
100
AcDbLine
 62
7
  6
CONTINUOUS
 10
-50.0472063951
 20
11.7592094839
 11
-50.0615661106
 21
12.7522465606
  0
LINE
  5
22F
100
AcDbEntity
  8
0
100
AcDbLine
 62
7
  6
CONTINUOUS
 10
-49.7529610818
 20
27.403430904
 11
-49.7386013664
 21
26.4103938273
  0
LINE
  5
230
100
AcDbEntity
  8
0
100
AcDbLine
 62
7
  6
CONTINUOUS
 10
-50.0738950915
 20
-24.1688367995
 11
-50.0522125294
 21
-25.9198108873
  0
LINE
  5
231
100
AcDbEntity
  8
0
100
AcDbLine
 62
7
  6
CONTINUOUS
 10
-50.0615661106
 20
12.7522465606
 11
-50.0738950915
 21
13.8311632005
  0
LINE
  5
232
100
AcDbEntity
  8
0
100
AcDbLine
 62
7
  6
CONTINUOUS
 10
-49.7262723854
 20
-12.6685228127
 11
-49.7479549475
 21
-10.9175487248
  0
LINE
  5
233
100
AcDbEntity
  8
0
100
AcDbLine
 62
7
  6
CONTINUOUS
 10
-49.7386013664
 20
26.4103938273
 11
-49.7262723854
 21
25.3314771873
  0
LINE
  5
234
100
AcDbEntity
  8
0
100
AcDbLine
 62
7
  6
CONTINUOUS
 10
-50.0738950915
 20
13.8311632005
 11
-50.0840382939
 21
14.982391401
  0
LINE
  5
235
100
AcDbEntity
  8
0
100
AcDbLine
 62
7
  6
CONTINUOUS
 10
-49.7262723854
 20
25.3314771873
 11
-49.7161291831
 21
24.1802489869
  0
LINE
  5
236
100
AcDbEntity
  8
0
100
AcDbLine
 62
7
  6
CONTINUOUS
 10
-50.0918681609
 20
-21.8085462006
 11
-50.0738950915
 21
-24.1688367995
  0
LINE
  5
237
100
AcDbEntity
  8
0
100
AcDbLine
 62
7
  6
CONTINUOUS
 10
-50.0840382939
 20
14.982391401
 11
-50.0918681609
 21
16.1914537994
  0
LINE
  5
238
100
AcDbEntity
  8
0
100
AcDbLine
 62
7
  6
CONTINUOUS
 10
-49.708299316
 20
-15.0288134116
 11
-49.7262723854
 21
-12.6685228127
  0
LINE
  5
239
100
AcDbEntity
  8
0
100
AcDbLine
 62
7
  6
CONTINUOUS
 10
-49.7161291831
 20
24.1802489869
 11
-49.708299316
 21
22.9711865884
  0
LINE
  5
23A
100
AcDbEntity
  8
0
100
AcDbLine
 62
7
  6
CONTINUOUS
 10
-50.0918681609
 20
16.1914537994
 11
-50.0972862276
 21
17.4431457346
  0
LINE
  5
23B
100
AcDbEntity
  8
0
100
AcDbLine
 62
7
  6
CONTINUOUS
 10
-49.708299316
 20
22.9711865884
 11
-49.7028812493
 21
21.7194946533
  0
LINE
  5
23C
100
AcDbEntity
  8
0
100
AcDbLine
 62
7
  6
CONTINUOUS
 10
-50.1002243586
 20
-19.2782735458
 11
-50.0918681609
 21
-21.8085462006
  0
LINE
  5
23D
100
AcDbEntity
  8
0
100
AcDbLine
 62
7
  6
CONTINUOUS
 10
-50.0972862276
 20
17.4431457346
 11
-50.1002243586
 21
18.7217264542
  0
LINE
  5
23E
100
AcDbEntity
  8
0
100
AcDbLine
 62
7
  6
CONTINUOUS
 10
-49.6999431183
 20
-17.5590860663
 11
-49.708299316
 21
-15.0288134116
  0
LINE
  5
23F
100
AcDbEntity
  8
0
100
AcDbLine
 62
7
  6
CONTINUOUS
 10
-49.7028812493
 20
21.7194946533
 11
-49.6999431183
 21
20.4409139337
  0
LINE
  5
240
100
AcDbEntity
  8
RACCORDO
100
AcDbLine
 62
7
  6
CONTINUOUS
 10
-50.4237478756
 20
-35.4190605682
 11
-50.4237478756
 21
36.581700956
  0
LINE
  5
241
100
AcDbEntity
  8
RACCORDO
100
AcDbLine
 62
7
  6
CONTINUOUS
 10
-49.6208148889
 20
-34.6161275815
 11
-49.6208148889
 21
35.7787679693
  0
LINE
  5
242
100
AcDbEntity
  8
0
100
AcDbLine
 62
7
  6
CONTINUOUS
 10
-50.1002243586
 20
18.7217264542
 11
-50.1006456051
 21
20.0111170638
  0
LINE
  5
243
100
AcDbEntity
  8
0
100
AcDbLine
 62
7
  6
CONTINUOUS
 10
-49.6999431183
 20
20.4409139337
 11
-49.6995218718
 21
19.1515233241
  0
LINE
  5
244
100
AcDbEntity
  8
0
100
AcDbLine
 62
7
  6
CONTINUOUS
 10
-50.1006456051
 20
20.0111170638
 11
-50.0985446698
 21
21.2951027284
  0
LINE
  5
245
100
AcDbEntity
  8
0
100
AcDbLine
 62
7
  6
CONTINUOUS
 10
-50.0985446698
 20
-16.7048972716
 11
-50.1002243586
 21
-19.2782735458
  0
LINE
  5
246
100
AcDbEntity
  8
0
100
AcDbLine
 62
7
  6
CONTINUOUS
 10
-49.6995218718
 20
19.1515233241
 11
-49.7016228071
 21
17.8675376595
  0
LINE
  5
247
100
AcDbEntity
  8
0
100
AcDbLine
 62
7
  6
CONTINUOUS
 10
-49.7016228071
 20
-20.1324623405
 11
-49.6999431183
 21
-17.5590860663
  0
LINE
  5
248
100
AcDbEntity
  8
0
100
AcDbLine
 62
7
  6
CONTINUOUS
 10
-50.0985446698
 20
21.2951027284
 11
-50.0939479732
 21
22.5575365833
  0
LINE
  5
249
100
AcDbEntity
  8
0
100
AcDbLine
 62
7
  6
CONTINUOUS
 10
-49.7016228071
 20
17.8675376595
 11
-49.7062195038
 21
16.6051038046
  0
LINE
  5
24A
100
AcDbEntity
  8
0
100
AcDbLine
 62
7
  6
CONTINUOUS
 10
-50.0939479732
 20
22.5575365833
 11
-50.0869133213
 21
23.7825427902
  0
LINE
  5
24B
100
AcDbEntity
  8
0
100
AcDbLine
 62
7
  6
CONTINUOUS
 10
-50.0869133213
 20
-14.2174572098
 11
-50.0985446698
 21
-16.7048972716
  0
LINE
  5
24C
100
AcDbEntity
  8
0
100
AcDbLine
 62
7
  6
CONTINUOUS
 10
-49.7062195038
 20
16.6051038046
 11
-49.7132541557
 21
15.3800975976
  0
LINE
  5
24D
100
AcDbEntity
  8
0
100
AcDbLine
 62
7
  6
CONTINUOUS
 10
-49.7132541557
 20
-22.6199024024
 11
-49.7016228071
 21
-20.1324623405
  0
LINE
  5
24E
100
AcDbEntity
  8
0
100
AcDbLine
 62
7
  6
CONTINUOUS
 10
-50.0869133213
 20
23.7825427902
 11
-50.077529179
 21
24.9547161854
  0
LINE
  5
24F
100
AcDbEntity
  8
0
100
AcDbLine
 62
7
  6
CONTINUOUS
 10
-49.7132541557
 20
15.3800975976
 11
-49.722638298
 21
14.2079242025
  0
LINE
  5
250
100
AcDbEntity
  8
0
100
AcDbLine
 62
7
  6
CONTINUOUS
 10
-50.077529179
 20
24.9547161854
 11
-50.0659135573
 21
26.0593160083
  0
LINE
  5
251
100
AcDbEntity
  8
0
100
AcDbLine
 62
7
  6
CONTINUOUS
 10
-50.0659135573
 20
-11.9406839917
 11
-50.0869133213
 21
-14.2174572098
  0
LINE
  5
252
100
AcDbEntity
  8
0
100
AcDbLine
 62
7
  6
CONTINUOUS
 10
-49.722638298
 20
14.2079242025
 11
-49.7342539196
 21
13.1033243796
  0
LINE
  5
253
100
AcDbEntity
  8
0
100
AcDbLine
 62
7
  6
CONTINUOUS
 10
-49.7342539196
 20
-24.8966756204
 11
-49.7132541557
 21
-22.6199024024
  0
LINE
  5
254
100
AcDbEntity
  8
0
100
AcDbLine
 62
7
  6
CONTINUOUS
 10
-50.0659135573
 20
26.0593160083
 11
-50.0522125294
 21
27.0824512752
  0
LINE
  5
255
100
AcDbEntity
  8
0
100
AcDbLine
 62
7
  6
CONTINUOUS
 10
-49.7342539196
 20
13.1033243796
 11
-49.7479549475
 21
12.0801891127
  0
LINE
  5
256
100
AcDbEntity
  8
0
100
AcDbLine
 62
7
  6
CONTINUOUS
 10
-50.0472063951
 20
-10.596569096
 11
-50.0659135573
 21
-11.9406839917
  0
LINE
  5
257
100
AcDbEntity
  8
0
100
AcDbLine
 62
7
  6
CONTINUOUS
 10
-49.7529610818
 20
-26.2407905161
 11
-49.7342539196
 21
-24.8966756204
  0
LINE
  5
258
100
AcDbEntity
  8
0
100
AcDbLine
 62
7
  6
CONTINUOUS
 10
-50.0522125294
 20
27.0824512752
 11
-50.0365983938
 21
28.0112554665
  0
LINE
  5
259
100
AcDbEntity
  8
0
100
AcDbLine
 62
7
  6
CONTINUOUS
 10
-49.7479549475
 20
12.0801891127
 11
-49.7635690832
 21
11.1513849214
  0
LINE
  5
25A
100
AcDbEntity
  8
0
100
AcDbLine
 62
7
  6
CONTINUOUS
 10
-50.0252198089
 20
-9.4276177577
 11
-50.0472063951
 21
-10.596569096
  0
LINE
  5
25B
100
AcDbEntity
  8
0
100
AcDbLine
 62
7
  6
CONTINUOUS
 10
-49.774947668
 20
-27.4097418544
 11
-49.7529610818
 21
-26.2407905161
  0
LINE
  5
25C
100
AcDbEntity
  8
0
100
AcDbLine
 62
7
  6
CONTINUOUS
 10
-50.0365983938
 20
28.0112554665
 11
-50.0192675071
 21
28.8340483305
  0
LINE
  5
25D
100
AcDbEntity
  8
0
100
AcDbLine
 62
7
  6
CONTINUOUS
 10
-49.7635690832
 20
11.1513849214
 11
-49.7808999698
 21
10.3285920573
  0
LINE
  5
25E
100
AcDbEntity
  8
0
100
AcDbLine
 62
7
  6
CONTINUOUS
 10
-50.0192675071
 20
28.8340483305
 11
-50.0068639989
 21
29.3186484851
  0
LINE
  5
25F
100
AcDbEntity
  8
0
100
AcDbLine
 62
7
  6
CONTINUOUS
 10
-49.7808999698
 20
10.3285920573
 11
-49.793303478
 21
9.8439919028
  0
LINE
  5
260
100
AcDbEntity
  8
0
100
AcDbLine
 62
7
  6
CONTINUOUS
 10
-50.0068639989
 20
-8.6813515149
 11
-50.0252198089
 21
-9.4276177577
  0
LINE
  5
261
100
AcDbEntity
  8
0
100
AcDbLine
 62
7
  6
CONTINUOUS
 10
-49.793303478
 20
-28.1560080972
 11
-49.774947668
 21
-27.4097418544
  0
LINE
  5
262
100
AcDbEntity
  8
0
100
AcDbLine
 62
7
  6
CONTINUOUS
 10
-50.0068639989
 20
29.3186484851
 11
-49.9938624293
 21
29.7487112152
  0
LINE
  5
263
100
AcDbEntity
  8
0
100
AcDbLine
 62
7
  6
CONTINUOUS
 10
-49.793303478
 20
9.8439919028
 11
-49.8063050477
 21
9.4139291727
  0
LINE
  5
264
100
AcDbEntity
  8
0
100
AcDbLine
 62
7
  6
CONTINUOUS
 10
-49.9938624293
 20
-8.2512887848
 11
-50.0068639989
 21
-8.6813515149
  0
LINE
  5
265
100
AcDbEntity
  8
0
100
AcDbLine
 62
7
  6
CONTINUOUS
 10
-49.8063050477
 20
-28.5860708273
 11
-49.793303478
 21
-28.1560080972
  0
LWPOLYLINE
  5
266
100
AcDbEntity
  8
0
100
AcDbPolyline
 62
7
  6
CONTINUOUS
 90
13
 70
0
 10
-49.9938624293
 20
29.7487112152
 10
-49.9803461129
 20
30.1216749611
 10
-49.9734051827
 20
30.2864102616
 10
-49.9663716294
 20
30.4359784925
 10
-49.9592450645
 20
30.5703160756
 10
-49.9520258765
 20
30.6894865891
 10
-49.9447442849
 20
30.792991184
 10
-49.9374000282
 20
30.8807641909
 10
-49.9299933678
 20
30.9528712792
 10
-49.9225553082
 20
31.0090106077
 10
-49.9150961842
 20
31.0490815628
 10
-49.9076056609
 20
31.0731847582
 10
-49.9000837385
 20
31.0813201939
  0
LWPOLYLINE
  5
267
100
AcDbEntity
  8
0
100
AcDbPolyline
 62
7
  6
CONTINUOUS
 90
13
 70
0
 10
-49.8063050477
 20
9.4139291727
 10
-49.819821364
 20
9.0409654268
 10
-49.8267622942
 20
8.8762301263
 10
-49.8337958476
 20
8.7266618954
 10
-49.8409224124
 20
8.5923243123
 10
-49.8481416004
 20
8.4731537987
 10
-49.855423192
 20
8.3696492038
 10
-49.8627674488
 20
8.2818761969
 10
-49.8701741091
 20
8.2097691087
 10
-49.8776121687
 20
8.1536297802
 10
-49.8850712927
 20
8.113558825
 10
-49.892561816
 20
8.0894556296
 10
-49.9000837385
 20
8.0813201939
  0
LINE
  5
268
100
AcDbEntity
  8
RACCORDO
100
AcDbLine
 62
7
  6
CONTINUOUS
 10
57.5762521244
 20
-50.4186798061
 11
-57.4237478756
 21
-50.4186798061
  0
LWPOLYLINE
  5
269
100
AcDbEntity
  8
0
100
AcDbPolyline
 62
7
  6
CONTINUOUS
 90
11
 70
0
 10
35.781342192
 20
-37.4683371132
 10
35.9309104229
 20
-37.4613035598
 10
36.065248006
 20
-37.454176995
 10
36.1844185196
 20
-37.446957807
 10
36.2879231145
 20
-37.4396762154
 10
36.3756961214
 20
-37.4323319586
 10
36.4478032096
 20
-37.4249252982
 10
36.5039425382
 20
-37.4174872387
 10
36.5440134933
 20
-37.4100281146
 10
36.5681166887
 20
-37.4025375914
 10
36.5762521244
 20
-37.3950156689
  0
LWPOLYLINE
  5
26A
100
AcDbEntity
  8
0
100
AcDbPolyline
 62
7
  6
CONTINUOUS
 90
11
 70
0
 10
14.3711620568
 20
-37.3216942246
 10
14.2215938258
 20
-37.328727778
 10
14.0872562427
 20
-37.3358543428
 10
13.9680857292
 20
-37.3430735308
 10
13.8645811343
 20
-37.3503551224
 10
13.7768081274
 20
-37.3576993792
 10
13.7047010391
 20
-37.3651060396
 10
13.6485617106
 20
-37.3725440992
 10
13.6084907555
 20
-37.3800032232
 10
13.5843875601
 20
-37.3874937464
 10
13.5762521244
 20
-37.3950156689
  0
LINE
  5
26B
100
AcDbEntity
  8
0
100
AcDbLine
 62
7
  6
CONTINUOUS
 10
35.4373941053
 20
-37.4820972956
 11
35.781342192
 21
-37.4683371132
  0
LINE
  5
26C
100
AcDbEntity
  8
0
100
AcDbLine
 62
7
  6
CONTINUOUS
 10
14.7151101435
 20
-37.3079340423
 11
14.3711620568
 21
-37.3216942246
  0
LINE
  5
26D
100
AcDbEntity
  8
0
100
AcDbLine
 62
7
  6
CONTINUOUS
 10
-14.218657808
 20
-37.4683371132
 11
-14.5626058947
 21
-37.4820972956
  0
LINE
  5
26E
100
AcDbEntity
  8
0
100
AcDbLine
 62
7
  6
CONTINUOUS
 10
35.0354147002
 20
-37.4953697458
 11
35.4373941053
 21
-37.4820972956
  0
LINE
  5
26F
100
AcDbEntity
  8
0
100
AcDbLine
 62
7
  6
CONTINUOUS
 10
15.1170895486
 20
-37.294661592
 11
14.7151101435
 21
-37.3079340423
  0
LINE
  5
270
100
AcDbEntity
  8
0
100
AcDbLine
 62
7
  6
CONTINUOUS
 10
-14.5626058947
 20
-37.4820972956
 11
-14.9645852998
 21
-37.4953697458
  0
LINE
  5
271
100
AcDbEntity
  8
0
100
AcDbLine
 62
7
  6
CONTINUOUS
 10
34.5780832579
 20
-37.5080722848
 11
35.0354147002
 21
-37.4953697458
  0
LINE
  5
272
100
AcDbEntity
  8
0
100
AcDbLine
 62
7
  6
CONTINUOUS
 10
15.5744209909
 20
-37.2819590531
 11
15.1170895486
 21
-37.294661592
  0
LINE
  5
273
100
AcDbEntity
  8
0
100
AcDbLine
 62
7
  6
CONTINUOUS
 10
-14.9645852998
 20
-37.4953697458
 11
-15.4219167421
 21
-37.5080722848
  0
LINE
  5
274
100
AcDbEntity
  8
0
100
AcDbLine
 62
7
  6
CONTINUOUS
 10
33.7930323305
 20
-37.5259284573
 11
34.5780832579
 21
-37.5080722848
  0
LINE
  5
275
100
AcDbEntity
  8
0
100
AcDbLine
 62
7
  6
CONTINUOUS
 10
16.3594719183
 20
-37.2641028805
 11
15.5744209909
 21
-37.2819590531
  0
LINE
  5
276
100
AcDbEntity
  8
0
100
AcDbLine
 62
7
  6
CONTINUOUS
 10
-15.4219167421
 20
-37.5080722848
 11
-16.2069676695
 21
-37.5259284573
  0
LINE
  5
277
100
AcDbEntity
  8
0
100
AcDbLine
 62
7
  6
CONTINUOUS
 10
-33.914809924
 20
-37.2698795984
 11
-33.0554758593
 21
-37.2530974471
  0
LINE
  5
278
100
AcDbEntity
  8
0
100
AcDbLine
 62
7
  6
CONTINUOUS
 10
-16.2069676695
 20
-37.5259284573
 11
-17.1016371655
 21
-37.5421383255
  0
LINE
  5
279
100
AcDbEntity
  8
0
100
AcDbLine
 62
7
  6
CONTINUOUS
 10
32.5773832056
 20
-37.5471444599
 11
33.7930323305
 21
-37.5259284573
  0
LINE
  5
27A
100
AcDbEntity
  8
0
100
AcDbLine
 62
7
  6
CONTINUOUS
 10
17.5751210431
 20
-37.2428868779
 11
16.3594719183
 21
-37.2641028805
  0
LINE
  5
27B
100
AcDbEntity
  8
0
100
AcDbLine
 62
7
  6
CONTINUOUS
 10
-33.0554758593
 20
-37.2530974471
 11
-32.093880597
 21
-37.2380999997
  0
LINE
  5
27C
100
AcDbEntity
  8
0
100
AcDbLine
 62
7
  6
CONTINUOUS
 10
-17.1016371655
 20
-37.5421383255
 11
-18.0946742422
 21
-37.556498041
  0
LINE
  5
27D
100
AcDbEntity
  8
0
100
AcDbLine
 62
7
  6
CONTINUOUS
 10
-32.093880597
 20
-37.2380999997
 11
-31.0421167555
 21
-37.225075858
  0
LINE
  5
27E
100
AcDbEntity
  8
0
100
AcDbLine
 62
7
  6
CONTINUOUS
 10
30.8264091178
 20
-37.568827022
 11
32.5773832056
 21
-37.5471444599
  0
LINE
  5
27F
100
AcDbEntity
  8
0
100
AcDbLine
 62
7
  6
CONTINUOUS
 10
19.326095131
 20
-37.2212043159
 11
17.5751210431
 21
-37.2428868779
  0
LINE
  5
280
100
AcDbEntity
  8
0
100
AcDbLine
 62
7
  6
CONTINUOUS
 10
-18.0946742422
 20
-37.556498041
 11
-19.1735908822
 21
-37.568827022
  0
LINE
  5
281
100
AcDbEntity
  8
0
100
AcDbLine
 62
7
  6
CONTINUOUS
 10
-31.0421167555
 20
-37.225075858
 11
-29.9134108755
 21
-37.2141888079
  0
LINE
  5
282
100
AcDbEntity
  8
0
100
AcDbLine
 62
7
  6
CONTINUOUS
 10
-19.1735908822
 20
-37.568827022
 11
-20.3248190827
 21
-37.5789702243
  0
LINE
  5
283
100
AcDbEntity
  8
0
100
AcDbLine
 62
7
  6
CONTINUOUS
 10
-29.9134108755
 20
-37.2141888079
 11
-28.7219570881
 21
-37.2055757605
  0
LINE
  5
284
100
AcDbEntity
  8
0
100
AcDbLine
 62
7
  6
CONTINUOUS
 10
28.4661185189
 20
-37.5868000914
 11
30.8264091178
 21
-37.568827022
  0
LINE
  5
285
100
AcDbEntity
  8
0
100
AcDbLine
 62
7
  6
CONTINUOUS
 10
-20.3248190827
 20
-37.5789702243
 11
-21.5338814811
 21
-37.5868000914
  0
LINE
  5
286
100
AcDbEntity
  8
0
100
AcDbLine
 62
7
  6
CONTINUOUS
 10
21.6863857299
 20
-37.2032312464
 11
19.326095131
 21
-37.2212043159
  0
LINE
  5
287
100
AcDbEntity
  8
0
100
AcDbLine
 62
7
  6
CONTINUOUS
 10
-28.7219570881
 20
-37.2055757605
 11
-27.4827386161
 21
-37.1993450299
  0
LINE
  5
288
100
AcDbEntity
  8
0
100
AcDbLine
 62
7
  6
CONTINUOUS
 10
-21.5338814811
 20
-37.5868000914
 11
-22.7855734163
 21
-37.5922181581
  0
LINE
  5
289
100
AcDbEntity
  8
0
100
AcDbLine
 62
7
  6
CONTINUOUS
 10
-27.4827386161
 20
-37.1993450299
 11
-26.2113393508
 21
-37.1955749712
  0
LINE
  5
28A
100
AcDbEntity
  8
0
100
AcDbLine
 62
7
  6
CONTINUOUS
 10
25.9358458641
 20
-37.595156289
 11
28.4661185189
 21
-37.5868000914
  0
LINE
  5
28B
100
AcDbEntity
  8
0
100
AcDbLine
 62
7
  6
CONTINUOUS
 10
-22.7855734163
 20
-37.5922181581
 11
-24.0641541359
 21
-37.595156289
  0
LINE
  5
28C
100
AcDbEntity
  8
0
100
AcDbLine
 62
7
  6
CONTINUOUS
 10
24.2166583846
 20
-37.1948750488
 11
21.6863857299
 21
-37.2032312464
  0
LINE
  5
28D
100
AcDbEntity
  8
0
100
AcDbLine
 62
7
  6
CONTINUOUS
 10
-26.2113393508
 20
-37.1955749712
 11
-24.9237478756
 21
-37.1943129949
  0
LINE
  5
28E
100
AcDbEntity
  8
RACCORDO
100
AcDbLine
 62
7
  6
CONTINUOUS
 10
48.0766328865
 20
-37.9186798061
 11
-47.9241286377
 21
-37.9186798061
  0
LINE
  5
28F
100
AcDbEntity
  8
RACCORDO
100
AcDbLine
 62
7
  6
CONTINUOUS
 10
47.2736998998
 20
-37.1157468194
 11
-47.121195651
 21
-37.1157468194
  0
LINE
  5
290
100
AcDbEntity
  8
0
100
AcDbLine
 62
7
  6
CONTINUOUS
 10
-24.0641541359
 20
-37.595156289
 11
-25.3535447455
 21
-37.5955775356
  0
LINE
  5
291
100
AcDbEntity
  8
0
100
AcDbLine
 62
7
  6
CONTINUOUS
 10
-24.9237478756
 20
-37.1943129949
 11
-23.6361564004
 21
-37.1955749712
  0
LINE
  5
292
100
AcDbEntity
  8
0
100
AcDbLine
 62
7
  6
CONTINUOUS
 10
-25.3535447455
 20
-37.5955775356
 11
-26.6375304101
 21
-37.5934766003
  0
LINE
  5
293
100
AcDbEntity
  8
0
100
AcDbLine
 62
7
  6
CONTINUOUS
 10
23.3624695899
 20
-37.5934766003
 11
25.9358458641
 21
-37.595156289
  0
LINE
  5
294
100
AcDbEntity
  8
0
100
AcDbLine
 62
7
  6
CONTINUOUS
 10
26.7900346589
 20
-37.1965547375
 11
24.2166583846
 21
-37.1948750488
  0
LINE
  5
295
100
AcDbEntity
  8
0
100
AcDbLine
 62
7
  6
CONTINUOUS
 10
-23.6361564004
 20
-37.1955749712
 11
-22.3647571351
 21
-37.1993450299
  0
LINE
  5
296
100
AcDbEntity
  8
0
100
AcDbLine
 62
7
  6
CONTINUOUS
 10
-26.6375304101
 20
-37.5934766003
 11
-27.899964265
 21
-37.5888799036
  0
LINE
  5
297
100
AcDbEntity
  8
0
100
AcDbLine
 62
7
  6
CONTINUOUS
 10
-22.3647571351
 20
-37.1993450299
 11
-21.1255386631
 21
-37.2055757605
  0
LINE
  5
298
100
AcDbEntity
  8
0
100
AcDbLine
 62
7
  6
CONTINUOUS
 10
-27.899964265
 20
-37.5888799036
 11
-29.1249704719
 21
-37.5818452517
  0
LINE
  5
299
100
AcDbEntity
  8
0
100
AcDbLine
 62
7
  6
CONTINUOUS
 10
20.8750295281
 20
-37.5818452517
 11
23.3624695899
 21
-37.5934766003
  0
LINE
  5
29A
100
AcDbEntity
  8
0
100
AcDbLine
 62
7
  6
CONTINUOUS
 10
29.2774747207
 20
-37.2081860861
 11
26.7900346589
 21
-37.1965547375
  0
LINE
  5
29B
100
AcDbEntity
  8
0
100
AcDbLine
 62
7
  6
CONTINUOUS
 10
-21.1255386631
 20
-37.2055757605
 11
-19.9340848758
 21
-37.2141888079
  0
LINE
  5
29C
100
AcDbEntity
  8
0
100
AcDbLine
 62
7
  6
CONTINUOUS
 10
-29.1249704719
 20
-37.5818452517
 11
-30.2971438671
 21
-37.5724611094
  0
LINE
  5
29D
100
AcDbEntity
  8
0
100
AcDbLine
 62
7
  6
CONTINUOUS
 10
-19.9340848758
 20
-37.2141888079
 11
-18.8053789957
 21
-37.225075858
  0
LINE
  5
29E
100
AcDbEntity
  8
0
100
AcDbLine
 62
7
  6
CONTINUOUS
 10
-30.2971438671
 20
-37.5724611094
 11
-31.40174369
 21
-37.5608454877
  0
LINE
  5
29F
100
AcDbEntity
  8
0
100
AcDbLine
 62
7
  6
CONTINUOUS
 10
18.59825631
 20
-37.5608454877
 11
20.8750295281
 21
-37.5818452517
  0
LINE
  5
2A0
100
AcDbEntity
  8
0
100
AcDbLine
 62
7
  6
CONTINUOUS
 10
31.5542479387
 20
-37.2291858501
 11
29.2774747207
 21
-37.2081860861
  0
LINE
  5
2A1
100
AcDbEntity
  8
0
100
AcDbLine
 62
7
  6
CONTINUOUS
 10
-18.8053789957
 20
-37.225075858
 11
-17.7536151542
 21
-37.2380999997
  0
LINE
  5
2A2
100
AcDbEntity
  8
0
100
AcDbLine
 62
7
  6
CONTINUOUS
 10
-31.40174369
 20
-37.5608454877
 11
-32.4248789569
 21
-37.5471444599
  0
LINE
  5
2A3
100
AcDbEntity
  8
0
100
AcDbLine
 62
7
  6
CONTINUOUS
 10
17.2541414143
 20
-37.5421383255
 11
18.59825631
 21
-37.5608454877
  0
LINE
  5
2A4
100
AcDbEntity
  8
0
100
AcDbLine
 62
7
  6
CONTINUOUS
 10
32.8983628345
 20
-37.2478930123
 11
31.5542479387
 21
-37.2291858501
  0
LINE
  5
2A5
100
AcDbEntity
  8
0
100
AcDbLine
 62
7
  6
CONTINUOUS
 10
-17.7536151542
 20
-37.2380999997
 11
-16.792019892
 21
-37.2530974471
  0
LINE
  5
2A6
100
AcDbEntity
  8
0
100
AcDbLine
 62
7
  6
CONTINUOUS
 10
-32.4248789569
 20
-37.5471444599
 11
-33.3536831481
 21
-37.5315303242
  0
LINE
  5
2A7
100
AcDbEntity
  8
0
100
AcDbLine
 62
7
  6
CONTINUOUS
 10
-16.792019892
 20
-37.2530974471
 11
-15.9326858272
 21
-37.2698795984
  0
LINE
  5
2A8
100
AcDbEntity
  8
0
100
AcDbLine
 62
7
  6
CONTINUOUS
 10
16.085190076
 20
-37.5201517394
 11
17.2541414143
 21
-37.5421383255
  0
LINE
  5
2A9
100
AcDbEntity
  8
0
100
AcDbLine
 62
7
  6
CONTINUOUS
 10
34.0673141728
 20
-37.2698795984
 11
32.8983628345
 21
-37.2478930123
  0
LINE
  5
2AA
100
AcDbEntity
  8
0
100
AcDbLine
 62
7
  6
CONTINUOUS
 10
-33.3536831481
 20
-37.5315303242
 11
-34.1764760122
 21
-37.5141994375
  0
LINE
  5
2AB
100
AcDbEntity
  8
0
100
AcDbLine
 62
7
  6
CONTINUOUS
 10
-34.1764760122
 20
-37.5141994375
 11
-34.6610761667
 21
-37.5017959293
  0
LINE
  5
2AC
100
AcDbEntity
  8
0
100
AcDbLine
 62
7
  6
CONTINUOUS
 10
-15.9326858272
 20
-37.2698795984
 11
-15.1864195845
 21
-37.2882354085
  0
LINE
  5
2AD
100
AcDbEntity
  8
0
100
AcDbLine
 62
7
  6
CONTINUOUS
 10
15.3389238333
 20
-37.5017959293
 11
16.085190076
 21
-37.5201517394
  0
LINE
  5
2AE
100
AcDbEntity
  8
0
100
AcDbLine
 62
7
  6
CONTINUOUS
 10
-34.6610761667
 20
-37.5017959293
 11
-35.0911388968
 21
-37.4887943597
  0
LINE
  5
2AF
100
AcDbEntity
  8
0
100
AcDbLine
 62
7
  6
CONTINUOUS
 10
-15.1864195845
 20
-37.2882354085
 11
-14.7563568544
 21
-37.3012369781
  0
LINE
  5
2B0
100
AcDbEntity
  8
0
100
AcDbLine
 62
7
  6
CONTINUOUS
 10
14.9088611032
 20
-37.4887943597
 11
15.3389238333
 21
-37.5017959293
  0
LWPOLYLINE
  5
2B1
100
AcDbEntity
  8
0
100
AcDbPolyline
 62
7
  6
CONTINUOUS
 90
13
 70
0
 10
-35.0911388968
 20
-37.4887943597
 10
-35.4641026428
 20
-37.4752780434
 10
-35.6288379432
 20
-37.4683371132
 10
-35.7784061742
 20
-37.4613035598
 10
-35.9127437573
 20
-37.454176995
 10
-36.0319142708
 20
-37.446957807
 10
-36.1354188657
 20
-37.4396762154
 10
-36.2231918726
 20
-37.4323319586
 10
-36.2952989609
 20
-37.4249252982
 10
-36.3514382894
 20
-37.4174872387
 10
-36.3915092445
 20
-37.4100281146
 10
-36.4156124399
 20
-37.4025375914
 10
-36.4237478756
 20
-37.3950156689
  0
LWPOLYLINE
  5
2B2
100
AcDbEntity
  8
0
100
AcDbPolyline
 62
7
  6
CONTINUOUS
 90
13
 70
0
 10
-14.7563568544
 20
-37.3012369781
 10
-14.3833931085
 20
-37.3147532944
 10
-14.218657808
 20
-37.3216942246
 10
-14.0690895771
 20
-37.328727778
 10
-13.934751994
 20
-37.3358543428
 10
-13.8155814804
 20
-37.3430735308
 10
-13.7120768855
 20
-37.3503551224
 10
-13.6243038786
 20
-37.3576993792
 10
-13.5521967904
 20
-37.3651060396
 10
-13.4960574618
 20
-37.3725440992
 10
-13.4559865067
 20
-37.3800032232
 10
-13.4318833113
 20
-37.3874937464
 10
-13.4237478756
 20
-37.3950156689
  0
LINE
  5
2B3
100
AcDbEntity
  8
0
100
AcDbLine
 62
7
  6
CONTINUOUS
 10
-35.6288379432
 20
-37.3216942246
 11
-35.2848898565
 21
-37.3079340423
  0
LINE
  5
2B4
100
AcDbEntity
  8
0
100
AcDbLine
 62
7
  6
CONTINUOUS
 10
-35.2848898565
 20
-37.3079340423
 11
-34.8829104514
 21
-37.294661592
  0
LINE
  5
2B5
100
AcDbEntity
  8
0
100
AcDbLine
 62
7
  6
CONTINUOUS
 10
-34.8829104514
 20
-37.294661592
 11
-34.4255790091
 21
-37.2819590531
  0
LINE
  5
2B6
100
AcDbEntity
  8
0
100
AcDbLine
 62
7
  6
CONTINUOUS
 10
-34.4255790091
 20
-37.2819590531
 11
-33.914809924
 21
-37.2698795984
  0
LINE
  5
2B7
100
AcDbEntity
  8
0
100
AcDbLine
 62
7
  6
CONTINUOUS
 10
34.8135804155
 20
-37.2882354085
 11
34.0673141728
 21
-37.2698795984
  0
LINE
  5
2B8
100
AcDbEntity
  8
0
100
AcDbLine
 62
7
  6
CONTINUOUS
 10
35.2436431456
 20
-37.3012369781
 11
34.8135804155
 21
-37.2882354085
  0
LWPOLYLINE
  5
2B9
100
AcDbEntity
  8
0
100
AcDbPolyline
 62
7
  6
CONTINUOUS
 90
13
 70
0
 10
-49.9000837385
 20
-6.9186798061
 10
-49.9076056609
 20
-6.9268152418
 10
-49.9150961842
 20
-6.9509184372
 10
-49.9225553082
 20
-6.9909893923
 10
-49.9299933678
 20
-7.0471287208
 10
-49.9374000282
 20
-7.1192358091
 10
-49.9447442849
 20
-7.207008816
 10
-49.9520258765
 20
-7.3105134109
 10
-49.9592450645
 20
-7.4296839244
 10
-49.9663716294
 20
-7.5640215075
 10
-49.9734051827
 20
-7.7135897384
 10
-49.9803461129
 20
-7.8783250389
 10
-49.9938624293
 20
-8.2512887848
  0
LWPOLYLINE
  5
2BA
100
AcDbEntity
  8
0
100
AcDbPolyline
 62
7
  6
CONTINUOUS
 90
11
 70
0
 10
-49.9000837385
 20
8.0813201939
 10
-49.9076056609
 20
8.0894556296
 10
-49.9150961842
 20
8.113558825
 10
-49.9225553082
 20
8.1536297802
 10
-49.9299933678
 20
8.2097691087
 10
-49.9374000282
 20
8.2818761969
 10
-49.9447442849
 20
8.3696492038
 10
-49.9520258765
 20
8.4731537987
 10
-49.9592450645
 20
8.5923243123
 10
-49.9663716294
 20
8.7266618954
 10
-49.9734051827
 20
8.8762301263
  0
LWPOLYLINE
  5
2BB
100
AcDbEntity
  8
0
100
AcDbPolyline
 62
7
  6
CONTINUOUS
 90
13
 70
0
 10
-49.9000837385
 20
-29.9186798061
 10
-49.892561816
 20
-29.9105443704
 10
-49.8850712927
 20
-29.886441175
 10
-49.8776121687
 20
-29.8463702198
 10
-49.8701741091
 20
-29.7902308913
 10
-49.8627674488
 20
-29.7181238031
 10
-49.855423192
 20
-29.6303507962
 10
-49.8481416004
 20
-29.5268462013
 10
-49.8409224124
 20
-29.4076756877
 10
-49.8337958476
 20
-29.2733381046
 10
-49.8267622942
 20
-29.1237698737
 10
-49.819821364
 20
-28.9590345732
 10
-49.8063050477
 20
-28.5860708273
  0
LWPOLYLINE
  5
2BC
100
AcDbEntity
  8
0
100
AcDbPolyline
 62
7
  6
CONTINUOUS
 90
11
 70
0
 10
13.5762521244
 20
38.5576560568
 10
13.5843875601
 20
38.5651779793
 10
13.6084907555
 20
38.5726685025
 10
13.6485617106
 20
38.5801276265
 10
13.7047010391
 20
38.5875656861
 10
13.7768081274
 20
38.5949723465
 10
13.8645811343
 20
38.6023166033
 10
13.9680857292
 20
38.6095981949
 10
14.0872562427
 20
38.6168173829
 10
14.2215938258
 20
38.6239439477
 10
14.3711620568
 20
38.6309775011
  0
LWPOLYLINE
  5
2BD
100
AcDbEntity
  8
0
100
AcDbPolyline
 62
7
  6
CONTINUOUS
 90
13
 70
0
 10
13.5762521244
 20
-37.3950156689
 10
13.5843875601
 20
-37.4025375914
 10
13.6084907555
 20
-37.4100281146
 10
13.6485617106
 20
-37.4174872387
 10
13.7047010391
 20
-37.4249252982
 10
13.7768081274
 20
-37.4323319586
 10
13.8645811343
 20
-37.4396762154
 10
13.9680857292
 20
-37.446957807
 10
14.0872562427
 20
-37.454176995
 10
14.2215938258
 20
-37.4613035598
 10
14.3711620568
 20
-37.4683371132
 10
14.5358973572
 20
-37.4752780434
 10
14.9088611032
 20
-37.4887943597
  0
LWPOLYLINE
  5
2BE
100
AcDbEntity
  8
0
100
AcDbPolyline
 62
7
  6
CONTINUOUS
 90
11
 70
0
 10
-49.9000837385
 20
31.0813201939
 10
-49.892561816
 20
31.0731847582
 10
-49.8850712927
 20
31.0490815628
 10
-49.8776121687
 20
31.0090106077
 10
-49.8701741091
 20
30.9528712792
 10
-49.8627674488
 20
30.8807641909
 10
-49.855423192
 20
30.792991184
 10
-49.8481416004
 20
30.6894865891
 10
-49.8409224124
 20
30.5703160756
 10
-49.8337958476
 20
30.4359784925
 10
-49.8267622942
 20
30.2864102616
  0
LINE
  5
2BF
100
AcDbEntity
  8
RACCORDO
100
AcDbLine
 62
250
  6
CONTINUOUS
 10
-50.4237478756
 20
-35.4190605682
 11
-49.6208148889
 21
-34.6161275815
  0
LINE
  5
2C0
100
AcDbEntity
  8
RACCORDO
100
AcDbLine
 62
250
  6
CONTINUOUS
 10
-50.4237478756
 20
36.581700956
 11
-49.6208148889
 21
35.7787679693
  0
LINE
  5
2C1
100
AcDbEntity
  8
RACCORDO
100
AcDbLine
 62
250
  6
CONTINUOUS
 10
-47.9241286377
 20
-37.9186798061
 11
-47.121195651
 21
-37.1157468194
  0
LINE
  5
2C2
100
AcDbEntity
  8
RACCORDO
100
AcDbLine
 62
250
  6
CONTINUOUS
 10
-47.9241286377
 20
39.0813201939
 11
-47.121195651
 21
38.2783872072
  0
LWPOLYLINE
  5
2C3
100
AcDbEntity
  8
0
100
AcDbPolyline
 62
7
  6
CONTINUOUS
 90
11
 70
0
 10
36.5762521244
 20
38.5576560568
 10
36.5681166887
 20
38.5501341343
 10
36.5440134933
 20
38.5426436111
 10
36.5039425382
 20
38.535184487
 10
36.4478032096
 20
38.5277464274
 10
36.3756961214
 20
38.5203397671
 10
36.2879231145
 20
38.5129955103
 10
36.1844185196
 20
38.5057139187
 10
36.065248006
 20
38.4984947307
 10
35.9309104229
 20
38.4913681659
 10
35.781342192
 20
38.4843346125
  0
LWPOLYLINE
  5
2C4
100
AcDbEntity
  8
0
100
AcDbPolyline
 62
7
  6
CONTINUOUS
 90
13
 70
0
 10
36.5762521244
 20
-37.3950156689
 10
36.5681166887
 20
-37.3874937464
 10
36.5440134933
 20
-37.3800032232
 10
36.5039425382
 20
-37.3725440992
 10
36.4478032096
 20
-37.3651060396
 10
36.3756961214
 20
-37.3576993792
 10
36.2879231145
 20
-37.3503551224
 10
36.1844185196
 20
-37.3430735308
 10
36.065248006
 20
-37.3358543428
 10
35.9309104229
 20
-37.328727778
 10
35.781342192
 20
-37.3216942246
 10
35.6166068915
 20
-37.3147532944
 10
35.2436431456
 20
-37.3012369781
  0
LWPOLYLINE
  5
2C5
100
AcDbEntity
  8
0
100
AcDbPolyline
 62
7
  6
CONTINUOUS
 90
11
 70
0
 10
-36.4237478756
 20
-37.3950156689
 10
-36.4156124399
 20
-37.3874937464
 10
-36.3915092445
 20
-37.3800032232
 10
-36.3514382894
 20
-37.3725440992
 10
-36.2952989609
 20
-37.3651060396
 10
-36.2231918726
 20
-37.3576993792
 10
-36.1354188657
 20
-37.3503551224
 10
-36.0319142708
 20
-37.3430735308
 10
-35.9127437573
 20
-37.3358543428
 10
-35.7784061742
 20
-37.328727778
 10
-35.6288379432
 20
-37.3216942246
  0
LWPOLYLINE
  5
2C6
100
AcDbEntity
  8
0
100
AcDbPolyline
 62
7
  6
CONTINUOUS
 90
13
 70
0
 10
-36.4237478756
 20
38.5576560568
 10
-36.4156124399
 20
38.5501341343
 10
-36.3915092445
 20
38.5426436111
 10
-36.3514382894
 20
38.535184487
 10
-36.2952989609
 20
38.5277464274
 10
-36.2231918726
 20
38.5203397671
 10
-36.1354188657
 20
38.5129955103
 10
-36.0319142708
 20
38.5057139187
 10
-35.9127437573
 20
38.4984947307
 10
-35.7784061742
 20
38.4913681659
 10
-35.6288379432
 20
38.4843346125
 10
-35.4641026428
 20
38.4773936823
 10
-35.0911388968
 20
38.463877366
  0
LINE
  5
2C7
100
AcDbEntity
  8
RACCORDO
100
AcDbLine
 62
250
  6
CONTINUOUS
 10
48.0766328865
 20
39.0813201939
 11
47.2736998998
 21
38.2783872072
  0
LINE
  5
2C8
100
AcDbEntity
  8
RACCORDO
100
AcDbLine
 62
250
  6
CONTINUOUS
 10
50.5762521244
 20
36.581700956
 11
49.7733191377
 21
35.7787679693
  0
LINE
  5
2C9
100
AcDbEntity
  8
RACCORDO
100
AcDbLine
 62
250
  6
CONTINUOUS
 10
48.0766328865
 20
-37.9186798061
 11
47.2736998998
 21
-37.1157468194
  0
LINE
  5
2CA
100
AcDbEntity
  8
RACCORDO
100
AcDbLine
 62
250
  6
CONTINUOUS
 10
50.5762521244
 20
-35.4190605682
 11
49.7733191377
 21
-34.6161275815
  0
LWPOLYLINE
  5
2CB
100
AcDbEntity
  8
0
100
AcDbPolyline
 62
7
  6
CONTINUOUS
 90
13
 70
0
 10
50.0525879872
 20
31.0813201939
 10
50.0450660648
 20
31.0731847582
 10
50.0375755415
 20
31.0490815628
 10
50.0301164175
 20
31.0090106077
 10
50.0226783579
 20
30.9528712792
 10
50.0152716975
 20
30.8807641909
 10
50.0079274408
 20
30.792991184
 10
50.0006458492
 20
30.6894865891
 10
49.9934266611
 20
30.5703160756
 10
49.9863000963
 20
30.4359784925
 10
49.9792665429
 20
30.2864102616
 10
49.9723256128
 20
30.1216749611
 10
49.9588092964
 20
29.7487112152
  0
LWPOLYLINE
  5
2CC
100
AcDbEntity
  8
0
100
AcDbPolyline
 62
7
  6
CONTINUOUS
 90
11
 70
0
 10
50.0525879872
 20
-29.9186798061
 10
50.0450660648
 20
-29.9105443704
 10
50.0375755415
 20
-29.886441175
 10
50.0301164175
 20
-29.8463702198
 10
50.0226783579
 20
-29.7902308913
 10
50.0152716975
 20
-29.7181238031
 10
50.0079274408
 20
-29.6303507962
 10
50.0006458492
 20
-29.5268462013
 10
49.9934266611
 20
-29.4076756877
 10
49.9863000963
 20
-29.2733381046
 10
49.9792665429
 20
-29.1237698737
  0
LWPOLYLINE
  5
2CD
100
AcDbEntity
  8
0
100
AcDbPolyline
 62
7
  6
CONTINUOUS
 90
11
 70
0
 10
-13.4237478756
 20
-37.3950156689
 10
-13.4318833113
 20
-37.4025375914
 10
-13.4559865067
 20
-37.4100281146
 10
-13.4960574618
 20
-37.4174872387
 10
-13.5521967904
 20
-37.4249252982
 10
-13.6243038786
 20
-37.4323319586
 10
-13.7120768855
 20
-37.4396762154
 10
-13.8155814804
 20
-37.446957807
 10
-13.934751994
 20
-37.454176995
 10
-14.0690895771
 20
-37.4613035598
 10
-14.218657808
 20
-37.4683371132
  0
LWPOLYLINE
  5
2CE
100
AcDbEntity
  8
0
100
AcDbPolyline
 62
7
  6
CONTINUOUS
 90
13
 70
0
 10
-13.4237478756
 20
38.5576560568
 10
-13.4318833113
 20
38.5651779793
 10
-13.4559865067
 20
38.5726685025
 10
-13.4960574618
 20
38.5801276265
 10
-13.5521967904
 20
38.5875656861
 10
-13.6243038786
 20
38.5949723465
 10
-13.7120768855
 20
38.6023166033
 10
-13.8155814804
 20
38.6095981949
 10
-13.934751994
 20
38.6168173829
 10
-14.0690895771
 20
38.6239439477
 10
-14.218657808
 20
38.6309775011
 10
-14.3833931085
 20
38.6379184312
 10
-14.7563568544
 20
38.6514347476
  0
LWPOLYLINE
  5
2CF
100
AcDbEntity
  8
0
100
AcDbPolyline
 62
7
  6
CONTINUOUS
 90
13
 70
0
 10
50.0525879872
 20
8.0813201939
 10
50.0601099097
 20
8.0894556296
 10
50.067600433
 20
8.113558825
 10
50.075059557
 20
8.1536297802
 10
50.0824976166
 20
8.2097691087
 10
50.0899042769
 20
8.2818761969
 10
50.0972485337
 20
8.3696492038
 10
50.1045301253
 20
8.4731537987
 10
50.1117493133
 20
8.5923243123
 10
50.1188758781
 20
8.7266618954
 10
50.1259094315
 20
8.8762301263
 10
50.1328503617
 20
9.0409654268
 10
50.146366678
 20
9.4139291727
  0
LWPOLYLINE
  5
2D0
100
AcDbEntity
  8
0
100
AcDbPolyline
 62
7
  6
CONTINUOUS
 90
11
 70
0
 10
50.0525879872
 20
-6.9186798061
 10
50.0601099097
 20
-6.9268152418
 10
50.067600433
 20
-6.9509184372
 10
50.075059557
 20
-6.9909893923
 10
50.0824976166
 20
-7.0471287208
 10
50.0899042769
 20
-7.1192358091
 10
50.0972485337
 20
-7.207008816
 10
50.1045301253
 20
-7.3105134109
 10
50.1117493133
 20
-7.4296839244
 10
50.1188758781
 20
-7.5640215075
 10
50.1259094315
 20
-7.7135897384
  0
LWPOLYLINE
  5
2D1
100
AcDbEntity
  8
0
100
AcDbPolyline
 62
7
  6
CONTINUOUS
 90
11
 70
0
 10
-14.218657808
 20
38.4843346125
 10
-14.0690895771
 20
38.4913681659
 10
-13.934751994
 20
38.4984947307
 10
-13.8155814804
 20
38.5057139187
 10
-13.7120768855
 20
38.5129955103
 10
-13.6243038786
 20
38.5203397671
 10
-13.5521967904
 20
38.5277464274
 10
-13.4960574618
 20
38.535184487
 10
-13.4559865067
 20
38.5426436111
 10
-13.4318833113
 20
38.5501341343
 10
-13.4237478756
 20
38.5576560568
  0
LINE
  5
2D2
100
AcDbEntity
  8
0
100
AcDbLine
 62
7
  6
CONTINUOUS
 10
35.781342192
 20
38.4843346125
 11
35.4373941053
 21
38.4705744301
  0
LINE
  5
2D3
100
AcDbEntity
  8
0
100
AcDbLine
 62
7
  6
CONTINUOUS
 10
14.3711620568
 20
38.6309775011
 11
14.7151101435
 21
38.6447376834
  0
LINE
  5
2D4
100
AcDbEntity
  8
0
100
AcDbLine
 62
7
  6
CONTINUOUS
 10
-14.5626058947
 20
38.4705744301
 11
-14.218657808
 21
38.4843346125
  0
LINE
  5
2D5
100
AcDbEntity
  8
0
100
AcDbLine
 62
7
  6
CONTINUOUS
 10
35.4373941053
 20
38.4705744301
 11
35.0354147002
 21
38.4573019799
  0
LINE
  5
2D6
100
AcDbEntity
  8
0
100
AcDbLine
 62
7
  6
CONTINUOUS
 10
14.7151101435
 20
38.6447376834
 11
15.1170895486
 21
38.6580101337
  0
LINE
  5
2D7
100
AcDbEntity
  8
0
100
AcDbLine
 62
7
  6
CONTINUOUS
 10
-14.9645852998
 20
38.4573019799
 11
-14.5626058947
 21
38.4705744301
  0
LINE
  5
2D8
100
AcDbEntity
  8
0
100
AcDbLine
 62
7
  6
CONTINUOUS
 10
35.0354147002
 20
38.4573019799
 11
34.5780832579
 21
38.4445994409
  0
LINE
  5
2D9
100
AcDbEntity
  8
0
100
AcDbLine
 62
7
  6
CONTINUOUS
 10
15.1170895486
 20
38.6580101337
 11
15.5744209909
 21
38.6707126726
  0
LINE
  5
2DA
100
AcDbEntity
  8
0
100
AcDbLine
 62
7
  6
CONTINUOUS
 10
-15.4219167421
 20
38.4445994409
 11
-14.9645852998
 21
38.4573019799
  0
LINE
  5
2DB
100
AcDbEntity
  8
0
100
AcDbLine
 62
7
  6
CONTINUOUS
 10
34.5780832579
 20
38.4445994409
 11
33.7930323305
 21
38.4267432684
  0
LINE
  5
2DC
100
AcDbEntity
  8
0
100
AcDbLine
 62
7
  6
CONTINUOUS
 10
15.5744209909
 20
38.6707126726
 11
16.3594719183
 21
38.6885688451
  0
LINE
  5
2DD
100
AcDbEntity
  8
0
100
AcDbLine
 62
7
  6
CONTINUOUS
 10
-16.2069676695
 20
38.4267432684
 11
-15.4219167421
 21
38.4445994409
  0
LINE
  5
2DE
100
AcDbEntity
  8
0
100
AcDbLine
 62
7
  6
CONTINUOUS
 10
33.7930323305
 20
38.4267432684
 11
32.8983628345
 21
38.4105334002
  0
LINE
  5
2DF
100
AcDbEntity
  8
0
100
AcDbLine
 62
7
  6
CONTINUOUS
 10
16.3594719183
 20
38.6885688451
 11
17.2541414143
 21
38.7047787134
  0
LINE
  5
2E0
100
AcDbEntity
  8
0
100
AcDbLine
 62
7
  6
CONTINUOUS
 10
-17.4226167944
 20
38.4055272658
 11
-16.2069676695
 21
38.4267432684
  0
LINE
  5
2E1
100
AcDbEntity
  8
0
100
AcDbLine
 62
7
  6
CONTINUOUS
 10
32.8983628345
 20
38.4105334002
 11
31.9053257578
 21
38.3961736847
  0
LINE
  5
2E2
100
AcDbEntity
  8
0
100
AcDbLine
 62
7
  6
CONTINUOUS
 10
17.2541414143
 20
38.7047787134
 11
18.247178491
 21
38.7191384289
  0
LINE
  5
2E3
100
AcDbEntity
  8
0
100
AcDbLine
 62
7
  6
CONTINUOUS
 10
31.9053257578
 20
38.3961736847
 11
30.8264091178
 21
38.3838447037
  0
LINE
  5
2E4
100
AcDbEntity
  8
0
100
AcDbLine
 62
7
  6
CONTINUOUS
 10
18.247178491
 20
38.7191384289
 11
19.326095131
 21
38.7314674098
  0
LINE
  5
2E5
100
AcDbEntity
  8
0
100
AcDbLine
 62
7
  6
CONTINUOUS
 10
-19.1735908822
 20
38.3838447037
 11
-17.4226167944
 21
38.4055272658
  0
LINE
  5
2E6
100
AcDbEntity
  8
0
100
AcDbLine
 62
7
  6
CONTINUOUS
 10
-29.9134108755
 20
38.7384829178
 11
-31.752821509
 21
38.7191384289
  0
LINE
  5
2E7
100
AcDbEntity
  8
0
100
AcDbLine
 62
7
  6
CONTINUOUS
 10
30.8264091178
 20
38.3838447037
 11
29.6751809173
 21
38.3737015014
  0
LINE
  5
2E8
100
AcDbEntity
  8
0
100
AcDbLine
 62
7
  6
CONTINUOUS
 10
19.326095131
 20
38.7314674098
 11
20.4773233315
 21
38.7416106122
  0
LINE
  5
2E9
100
AcDbEntity
  8
0
100
AcDbLine
 62
7
  6
CONTINUOUS
 10
29.6751809173
 20
38.3737015014
 11
28.4661185189
 21
38.3658716343
  0
LINE
  5
2EA
100
AcDbEntity
  8
0
100
AcDbLine
 62
7
  6
CONTINUOUS
 10
-21.5338814811
 20
38.3658716343
 11
-19.1735908822
 21
38.3838447037
  0
LINE
  5
2EB
100
AcDbEntity
  8
0
100
AcDbLine
 62
7
  6
CONTINUOUS
 10
20.4773233315
 20
38.7416106122
 11
21.6863857299
 21
38.7494404792
  0
LINE
  5
2EC
100
AcDbEntity
  8
0
100
AcDbLine
 62
7
  6
CONTINUOUS
 10
-27.4827386161
 20
38.7533266957
 11
-29.9134108755
 21
38.7384829178
  0
LINE
  5
2ED
100
AcDbEntity
  8
0
100
AcDbLine
 62
7
  6
CONTINUOUS
 10
28.4661185189
 20
38.3658716343
 11
27.2144265837
 21
38.3604535676
  0
LINE
  5
2EE
100
AcDbEntity
  8
0
100
AcDbLine
 62
7
  6
CONTINUOUS
 10
21.6863857299
 20
38.7494404792
 11
22.938077665
 21
38.7548585459
  0
LINE
  5
2EF
100
AcDbEntity
  8
0
100
AcDbLine
 62
7
  6
CONTINUOUS
 10
27.2144265837
 20
38.3604535676
 11
25.9358458641
 21
38.3575154367
  0
LINE
  5
2F0
100
AcDbEntity
  8
0
100
AcDbLine
 62
7
  6
CONTINUOUS
 10
-24.0641541359
 20
38.3575154367
 11
-21.5338814811
 21
38.3658716343
  0
LINE
  5
2F1
100
AcDbEntity
  8
0
100
AcDbLine
 62
7
  6
CONTINUOUS
 10
22.938077665
 20
38.7548585459
 11
24.2166583846
 21
38.7577966769
  0
LINE
  5
2F2
100
AcDbEntity
  8
0
100
AcDbLine
 62
7
  6
CONTINUOUS
 10
-24.9237478756
 20
38.7583587308
 11
-27.4827386161
 21
38.7533266957
  0
LINE
  5
2F3
100
AcDbEntity
  8
RACCORDO
100
AcDbLine
 62
7
  6
CONTINUOUS
 10
-47.121195651
 20
38.2783872072
 11
47.2736998998
 21
38.2783872072
  0
LINE
  5
2F4
100
AcDbEntity
  8
RACCORDO
100
AcDbLine
 62
7
  6
CONTINUOUS
 10
-47.9241286377
 20
39.0813201939
 11
48.0766328865
 21
39.0813201939
  0
LINE
  5
2F5
100
AcDbEntity
  8
0
100
AcDbLine
 62
7
  6
CONTINUOUS
 10
25.9358458641
 20
38.3575154367
 11
24.6464552545
 21
38.3570941901
  0
LINE
  5
2F6
100
AcDbEntity
  8
0
100
AcDbLine
 62
7
  6
CONTINUOUS
 10
24.2166583846
 20
38.7577966769
 11
25.5060489943
 21
38.7582179234
  0
LINE
  5
2F7
100
AcDbEntity
  8
0
100
AcDbLine
 62
7
  6
CONTINUOUS
 10
-26.6375304101
 20
38.3591951254
 11
-24.0641541359
 21
38.3575154367
  0
LINE
  5
2F8
100
AcDbEntity
  8
0
100
AcDbLine
 62
7
  6
CONTINUOUS
 10
24.6464552545
 20
38.3570941901
 11
23.3624695899
 21
38.3591951254
  0
LINE
  5
2F9
100
AcDbEntity
  8
0
100
AcDbLine
 62
7
  6
CONTINUOUS
 10
25.5060489943
 20
38.7582179234
 11
26.7900346589
 21
38.7561169881
  0
LINE
  5
2FA
100
AcDbEntity
  8
0
100
AcDbLine
 62
7
  6
CONTINUOUS
 10
-22.3647571351
 20
38.7533266957
 11
-24.9237478756
 21
38.7583587308
  0
LINE
  5
2FB
100
AcDbEntity
  8
0
100
AcDbLine
 62
7
  6
CONTINUOUS
 10
23.3624695899
 20
38.3591951254
 11
22.100035735
 21
38.3637918221
  0
LINE
  5
2FC
100
AcDbEntity
  8
0
100
AcDbLine
 62
7
  6
CONTINUOUS
 10
26.7900346589
 20
38.7561169881
 11
28.0524685137
 21
38.7515202915
  0
LINE
  5
2FD
100
AcDbEntity
  8
0
100
AcDbLine
 62
7
  6
CONTINUOUS
 10
-29.1249704719
 20
38.370826474
 11
-26.6375304101
 21
38.3591951254
  0
LINE
  5
2FE
100
AcDbEntity
  8
0
100
AcDbLine
 62
7
  6
CONTINUOUS
 10
22.100035735
 20
38.3637918221
 11
20.8750295281
 21
38.370826474
  0
LINE
  5
2FF
100
AcDbEntity
  8
0
100
AcDbLine
 62
7
  6
CONTINUOUS
 10
28.0524685137
 20
38.7515202915
 11
29.2774747207
 21
38.7444856396
  0
LINE
  5
300
100
AcDbEntity
  8
0
100
AcDbLine
 62
7
  6
CONTINUOUS
 10
-19.9340848758
 20
38.7384829178
 11
-22.3647571351
 21
38.7533266957
  0
LINE
  5
301
100
AcDbEntity
  8
0
100
AcDbLine
 62
7
  6
CONTINUOUS
 10
20.8750295281
 20
38.370826474
 11
19.7028561329
 21
38.3802106163
  0
LINE
  5
302
100
AcDbEntity
  8
0
100
AcDbLine
 62
7
  6
CONTINUOUS
 10
29.2774747207
 20
38.7444856396
 11
30.4496481159
 21
38.7351014973
  0
LINE
  5
303
100
AcDbEntity
  8
0
100
AcDbLine
 62
7
  6
CONTINUOUS
 10
-31.40174369
 20
38.3918262379
 11
-29.1249704719
 21
38.370826474
  0
LINE
  5
304
100
AcDbEntity
  8
0
100
AcDbLine
 62
7
  6
CONTINUOUS
 10
19.7028561329
 20
38.3802106163
 11
18.59825631
 21
38.3918262379
  0
LWPOLYLINE
  5
305
100
AcDbEntity
  8
0
100
AcDbPolyline
 62
7
  6
CONTINUOUS
 90
3
 70
0
 10
30.4496481159
 20
38.7351014973
 10
31.5542479387
 20
38.7234858756
 10
31.9053257578
 20
38.7191384289
  0
LINE
  5
306
100
AcDbEntity
  8
0
100
AcDbLine
 62
7
  6
CONTINUOUS
 10
-18.0946742422
 20
38.7191384289
 11
-19.9340848758
 21
38.7384829178
  0
LINE
  5
307
100
AcDbEntity
  8
0
100
AcDbLine
 62
7
  6
CONTINUOUS
 10
18.59825631
 20
38.3918262379
 11
17.5751210431
 21
38.4055272658
  0
LINE
  5
308
100
AcDbEntity
  8
0
100
AcDbLine
 62
7
  6
CONTINUOUS
 10
-32.7458585857
 20
38.4105334002
 11
-31.40174369
 21
38.3918262379
  0
LINE
  5
309
100
AcDbEntity
  8
0
100
AcDbLine
 62
7
  6
CONTINUOUS
 10
-16.792019892
 20
38.6995742786
 11
-18.0946742422
 21
38.7191384289
  0
LINE
  5
30A
100
AcDbEntity
  8
0
100
AcDbLine
 62
7
  6
CONTINUOUS
 10
17.5751210431
 20
38.4055272658
 11
16.6463168519
 21
38.4211414015
  0
LINE
  5
30B
100
AcDbEntity
  8
0
100
AcDbLine
 62
7
  6
CONTINUOUS
 10
-33.914809924
 20
38.4325199863
 11
-32.7458585857
 21
38.4105334002
  0
LINE
  5
30C
100
AcDbEntity
  8
0
100
AcDbLine
 62
7
  6
CONTINUOUS
 10
-15.9326858272
 20
38.6827921272
 11
-16.792019892
 21
38.6995742786
  0
LINE
  5
30D
100
AcDbEntity
  8
0
100
AcDbLine
 62
7
  6
CONTINUOUS
 10
16.6463168519
 20
38.4211414015
 11
15.8235239878
 21
38.4384722881
  0
LINE
  5
30E
100
AcDbEntity
  8
0
100
AcDbLine
 62
7
  6
CONTINUOUS
 10
-34.6610761667
 20
38.4508757964
 11
-33.914809924
 21
38.4325199863
  0
LINE
  5
30F
100
AcDbEntity
  8
0
100
AcDbLine
 62
7
  6
CONTINUOUS
 10
-15.1864195845
 20
38.6644363172
 11
-15.9326858272
 21
38.6827921272
  0
LINE
  5
310
100
AcDbEntity
  8
0
100
AcDbLine
 62
7
  6
CONTINUOUS
 10
15.8235239878
 20
38.4384722881
 11
15.3389238333
 21
38.4508757964
  0
LINE
  5
311
100
AcDbEntity
  8
0
100
AcDbLine
 62
7
  6
CONTINUOUS
 10
-35.0911388968
 20
38.463877366
 11
-34.6610761667
 21
38.4508757964
  0
LINE
  5
312
100
AcDbEntity
  8
0
100
AcDbLine
 62
7
  6
CONTINUOUS
 10
-14.7563568544
 20
38.6514347476
 11
-15.1864195845
 21
38.6644363172
  0
LINE
  5
313
100
AcDbEntity
  8
0
100
AcDbLine
 62
7
  6
CONTINUOUS
 10
15.3389238333
 20
38.4508757964
 11
14.9088611032
 21
38.463877366
  0
LWPOLYLINE
  5
314
100
AcDbEntity
  8
0
100
AcDbPolyline
 62
7
  6
CONTINUOUS
 90
13
 70
0
 10
14.9088611032
 20
38.463877366
 10
14.5358973572
 20
38.4773936823
 10
14.3711620568
 20
38.4843346125
 10
14.2215938258
 20
38.4913681659
 10
14.0872562427
 20
38.4984947307
 10
13.9680857292
 20
38.5057139187
 10
13.8645811343
 20
38.5129955103
 10
13.7768081274
 20
38.5203397671
 10
13.7047010391
 20
38.5277464274
 10
13.6485617106
 20
38.535184487
 10
13.6084907555
 20
38.5426436111
 10
13.5843875601
 20
38.5501341343
 10
13.5762521244
 20
38.5576560568
  0
LWPOLYLINE
  5
315
100
AcDbEntity
  8
0
100
AcDbPolyline
 62
7
  6
CONTINUOUS
 90
11
 70
0
 10
-35.6288379432
 20
38.6309775011
 10
-35.7784061742
 20
38.6239439477
 10
-35.9127437573
 20
38.6168173829
 10
-36.0319142708
 20
38.6095981949
 10
-36.1354188657
 20
38.6023166033
 10
-36.2231918726
 20
38.5949723465
 10
-36.2952989609
 20
38.5875656861
 10
-36.3514382894
 20
38.5801276265
 10
-36.3915092445
 20
38.5726685025
 10
-36.4156124399
 20
38.5651779793
 10
-36.4237478756
 20
38.5576560568
  0
LINE
  5
316
100
AcDbEntity
  8
0
100
AcDbLine
 62
7
  6
CONTINUOUS
 10
-35.2848898565
 20
38.6447376834
 11
-35.6288379432
 21
38.6309775011
  0
LINE
  5
317
100
AcDbEntity
  8
0
100
AcDbLine
 62
7
  6
CONTINUOUS
 10
-34.8829104514
 20
38.6580101337
 11
-35.2848898565
 21
38.6447376834
  0
LINE
  5
318
100
AcDbEntity
  8
0
100
AcDbLine
 62
7
  6
CONTINUOUS
 10
-34.4255790091
 20
38.6707126726
 11
-34.8829104514
 21
38.6580101337
  0
LINE
  5
319
100
AcDbEntity
  8
0
100
AcDbLine
 62
7
  6
CONTINUOUS
 10
-33.6405280817
 20
38.6885688451
 11
-34.4255790091
 21
38.6707126726
  0
LINE
  5
31A
100
AcDbEntity
  8
0
100
AcDbLine
 62
7
  6
CONTINUOUS
 10
-32.4248789569
 20
38.7097848478
 11
-33.6405280817
 21
38.6885688451
  0
LINE
  5
31B
100
AcDbEntity
  8
0
100
AcDbLine
 62
7
  6
CONTINUOUS
 10
-31.752821509
 20
38.7191384289
 11
-32.4248789569
 21
38.7097848478
  0
LINE
  5
31C
100
AcDbEntity
  8
0
100
AcDbLine
 62
7
  6
CONTINUOUS
 10
31.9053257578
 20
38.7191384289
 11
32.8983628345
 21
38.7047787134
  0
LINE
  5
31D
100
AcDbEntity
  8
0
100
AcDbLine
 62
7
  6
CONTINUOUS
 10
32.8983628345
 20
38.7047787134
 11
33.7930323305
 21
38.6885688451
  0
LINE
  5
31E
100
AcDbEntity
  8
0
100
AcDbLine
 62
7
  6
CONTINUOUS
 10
33.7930323305
 20
38.6885688451
 11
34.5780832579
 21
38.6707126726
  0
LINE
  5
31F
100
AcDbEntity
  8
0
100
AcDbLine
 62
7
  6
CONTINUOUS
 10
34.5780832579
 20
38.6707126726
 11
35.0354147002
 21
38.6580101337
  0
LINE
  5
320
100
AcDbEntity
  8
0
100
AcDbLine
 62
7
  6
CONTINUOUS
 10
35.0354147002
 20
38.6580101337
 11
35.4373941053
 21
38.6447376834
  0
LWPOLYLINE
  5
321
100
AcDbEntity
  8
0
100
AcDbPolyline
 62
7
  6
CONTINUOUS
 90
12
 70
0
 10
35.4373941053
 20
38.6447376834
 10
35.781342192
 20
38.6309775011
 10
35.9309104229
 20
38.6239439477
 10
36.065248006
 20
38.6168173829
 10
36.1844185196
 20
38.6095981949
 10
36.2879231145
 20
38.6023166033
 10
36.3756961214
 20
38.5949723465
 10
36.4478032096
 20
38.5875656861
 10
36.5039425382
 20
38.5801276265
 10
36.5440134933
 20
38.5726685025
 10
36.5681166887
 20
38.5651779793
 10
36.5762521244
 20
38.5576560568
  0
LINE
  5
322
100
AcDbEntity
  8
0
100
AcDbLine
 62
7
  6
CONTINUOUS
 10
49.9792665429
 20
-29.1237698737
 11
49.9655063606
 21
-28.7798217869
  0
LINE
  5
323
100
AcDbEntity
  8
0
100
AcDbLine
 62
7
  6
CONTINUOUS
 10
49.9655063606
 20
-28.7798217869
 11
49.9522339103
 21
-28.3778423819
  0
LINE
  5
324
100
AcDbEntity
  8
0
100
AcDbLine
 62
7
  6
CONTINUOUS
 10
49.9522339103
 20
-28.3778423819
 11
49.9395313714
 21
-27.9205109395
  0
LINE
  5
325
100
AcDbEntity
  8
0
100
AcDbLine
 62
7
  6
CONTINUOUS
 10
49.9395313714
 20
-27.9205109395
 11
49.9216751989
 21
-27.1354600122
  0
LINE
  5
326
100
AcDbEntity
  8
0
100
AcDbLine
 62
7
  6
CONTINUOUS
 10
49.9216751989
 20
-27.1354600122
 11
49.9106697654
 21
-26.5504077897
  0
LINE
  5
327
100
AcDbEntity
  8
0
100
AcDbLine
 62
7
  6
CONTINUOUS
 10
49.9274519168
 20
28.5723822423
 11
49.9106697654
 21
27.7130481776
  0
LINE
  5
328
100
AcDbEntity
  8
0
100
AcDbLine
 62
7
  6
CONTINUOUS
 10
49.9458077268
 20
29.3186484851
 11
49.9274519168
 21
28.5723822423
  0
LINE
  5
329
100
AcDbEntity
  8
0
100
AcDbLine
 62
7
  6
CONTINUOUS
 10
49.9588092964
 20
29.7487112152
 11
49.9458077268
 21
29.3186484851
  0
LWPOLYLINE
  5
32A
100
AcDbEntity
  8
0
100
AcDbPolyline
 62
7
  6
CONTINUOUS
 90
11
 70
0
 10
49.9792665429
 20
8.8762301263
 10
49.9863000963
 20
8.7266618954
 10
49.9934266611
 20
8.5923243123
 10
50.0006458492
 20
8.4731537987
 10
50.0079274408
 20
8.3696492038
 10
50.0152716975
 20
8.2818761969
 10
50.0226783579
 20
8.2097691087
 10
50.0301164175
 20
8.1536297802
 10
50.0375755415
 20
8.113558825
 10
50.0450660648
 20
8.0894556296
 10
50.0525879872
 20
8.0813201939
  0
LWPOLYLINE
  5
32B
100
AcDbEntity
  8
0
100
AcDbPolyline
 62
7
  6
CONTINUOUS
 90
11
 70
0
 10
50.1259094315
 20
30.2864102616
 10
50.1188758781
 20
30.4359784925
 10
50.1117493133
 20
30.5703160756
 10
50.1045301253
 20
30.6894865891
 10
50.0972485337
 20
30.792991184
 10
50.0899042769
 20
30.8807641909
 10
50.0824976166
 20
30.9528712792
 10
50.075059557
 20
31.0090106077
 10
50.067600433
 20
31.0490815628
 10
50.0601099097
 20
31.0731847582
 10
50.0525879872
 20
31.0813201939
  0
LINE
  5
32C
100
AcDbEntity
  8
0
100
AcDbLine
 62
7
  6
CONTINUOUS
 10
50.1259094315
 20
-7.7135897384
 11
50.1396696139
 21
-8.0575378252
  0
LINE
  5
32D
100
AcDbEntity
  8
0
100
AcDbLine
 62
7
  6
CONTINUOUS
 10
49.9655063606
 20
9.2201782131
 11
49.9792665429
 21
8.8762301263
  0
LINE
  5
32E
100
AcDbEntity
  8
0
100
AcDbLine
 62
7
  6
CONTINUOUS
 10
50.1396696139
 20
29.9424621748
 11
50.1259094315
 21
30.2864102616
  0
LINE
  5
32F
100
AcDbEntity
  8
0
100
AcDbLine
 62
7
  6
CONTINUOUS
 10
50.1396696139
 20
-8.0575378252
 11
50.1529420642
 21
-8.4595172303
  0
LINE
  5
330
100
AcDbEntity
  8
0
100
AcDbLine
 62
7
  6
CONTINUOUS
 10
49.9522339103
 20
9.6221576181
 11
49.9655063606
 21
9.2201782131
  0
LINE
  5
331
100
AcDbEntity
  8
0
100
AcDbLine
 62
7
  6
CONTINUOUS
 10
50.1529420642
 20
29.5404827697
 11
50.1396696139
 21
29.9424621748
  0
LINE
  5
332
100
AcDbEntity
  8
0
100
AcDbLine
 62
7
  6
CONTINUOUS
 10
50.1529420642
 20
-8.4595172303
 11
50.1656446031
 21
-8.9168486726
  0
LINE
  5
333
100
AcDbEntity
  8
0
100
AcDbLine
 62
7
  6
CONTINUOUS
 10
49.9395313714
 20
10.0794890605
 11
49.9522339103
 21
9.6221576181
  0
LINE
  5
334
100
AcDbEntity
  8
0
100
AcDbLine
 62
7
  6
CONTINUOUS
 10
50.1656446031
 20
29.0831513274
 11
50.1529420642
 21
29.5404827697
  0
LINE
  5
335
100
AcDbEntity
  8
0
100
AcDbLine
 62
7
  6
CONTINUOUS
 10
50.1656446031
 20
-8.9168486726
 11
50.1835007756
 21
-9.7018995999
  0
LINE
  5
336
100
AcDbEntity
  8
0
100
AcDbLine
 62
7
  6
CONTINUOUS
 10
49.9216751989
 20
10.8645399878
 11
49.9395313714
 21
10.0794890605
  0
LINE
  5
337
100
AcDbEntity
  8
0
100
AcDbLine
 62
7
  6
CONTINUOUS
 10
50.1835007756
 20
28.2981004001
 11
50.1656446031
 21
29.0831513274
  0
LINE
  5
338
100
AcDbEntity
  8
0
100
AcDbLine
 62
7
  6
CONTINUOUS
 10
50.1835007756
 20
-9.7018995999
 11
50.1997106438
 21
-10.596569096
  0
LINE
  5
339
100
AcDbEntity
  8
0
100
AcDbLine
 62
7
  6
CONTINUOUS
 10
49.9004591962
 20
12.0801891127
 11
49.9216751989
 21
10.8645399878
  0
LINE
  5
33A
100
AcDbEntity
  8
0
100
AcDbLine
 62
7
  6
CONTINUOUS
 10
50.2047167782
 20
27.0824512752
 11
50.1835007756
 21
28.2981004001
  0
LINE
  5
33B
100
AcDbEntity
  8
0
100
AcDbLine
 62
7
  6
CONTINUOUS
 10
49.9106697654
 20
-26.5504077897
 11
49.8956723181
 21
-25.5888125274
  0
LINE
  5
33C
100
AcDbEntity
  8
0
100
AcDbLine
 62
7
  6
CONTINUOUS
 10
50.1997106438
 20
-10.596569096
 11
50.2140703593
 21
-11.5896061727
  0
LINE
  5
33D
100
AcDbEntity
  8
0
100
AcDbLine
 62
7
  6
CONTINUOUS
 10
49.8956723181
 20
-25.5888125274
 11
49.8826481763
 21
-24.537048686
  0
LINE
  5
33E
100
AcDbEntity
  8
0
100
AcDbLine
 62
7
  6
CONTINUOUS
 10
49.8787766342
 20
13.8311632005
 11
49.9004591962
 21
12.0801891127
  0
LINE
  5
33F
100
AcDbEntity
  8
0
100
AcDbLine
 62
7
  6
CONTINUOUS
 10
50.2140703593
 20
-11.5896061727
 11
50.2263993403
 21
-12.6685228127
  0
LINE
  5
340
100
AcDbEntity
  8
0
100
AcDbLine
 62
7
  6
CONTINUOUS
 10
50.2263993403
 20
25.3314771873
 11
50.2047167782
 21
27.0824512752
  0
LINE
  5
341
100
AcDbEntity
  8
0
100
AcDbLine
 62
7
  6
CONTINUOUS
 10
49.8826481763
 20
-24.537048686
 11
49.8717611262
 21
-23.4083428059
  0
LINE
  5
342
100
AcDbEntity
  8
0
100
AcDbLine
 62
7
  6
CONTINUOUS
 10
50.2263993403
 20
-12.6685228127
 11
50.2365425426
 21
-13.8197510131
  0
LINE
  5
343
100
AcDbEntity
  8
0
100
AcDbLine
 62
7
  6
CONTINUOUS
 10
49.8717611262
 20
-23.4083428059
 11
49.8631480789
 21
-22.2168890185
  0
LINE
  5
344
100
AcDbEntity
  8
0
100
AcDbLine
 62
7
  6
CONTINUOUS
 10
49.8608035648
 20
16.1914537994
 11
49.8787766342
 21
13.8311632005
  0
LINE
  5
345
100
AcDbEntity
  8
0
100
AcDbLine
 62
7
  6
CONTINUOUS
 10
50.2365425426
 20
-13.8197510131
 11
50.2443724097
 21
-15.0288134116
  0
LINE
  5
346
100
AcDbEntity
  8
0
100
AcDbLine
 62
7
  6
CONTINUOUS
 10
50.2443724097
 20
22.9711865884
 11
50.2263993403
 21
25.3314771873
  0
LINE
  5
347
100
AcDbEntity
  8
0
100
AcDbLine
 62
7
  6
CONTINUOUS
 10
49.8631480789
 20
-22.2168890185
 11
49.8569173483
 21
-20.9776705466
  0
LINE
  5
348
100
AcDbEntity
  8
0
100
AcDbLine
 62
7
  6
CONTINUOUS
 10
50.2443724097
 20
-15.0288134116
 11
50.2497904764
 21
-16.2805053467
  0
LINE
  5
349
100
AcDbEntity
  8
0
100
AcDbLine
 62
7
  6
CONTINUOUS
 10
49.8569173483
 20
-20.9776705466
 11
49.8531472895
 21
-19.7062712813
  0
LINE
  5
34A
100
AcDbEntity
  8
0
100
AcDbLine
 62
7
  6
CONTINUOUS
 10
49.8524473671
 20
18.7217264542
 11
49.8608035648
 21
16.1914537994
  0
LINE
  5
34B
100
AcDbEntity
  8
0
100
AcDbLine
 62
7
  6
CONTINUOUS
 10
50.2497904764
 20
-16.2805053467
 11
50.2527286073
 21
-17.5590860663
  0
LINE
  5
34C
100
AcDbEntity
  8
0
100
AcDbLine
 62
7
  6
CONTINUOUS
 10
50.2527286073
 20
20.4409139337
 11
50.2443724097
 21
22.9711865884
  0
LINE
  5
34D
100
AcDbEntity
  8
0
100
AcDbLine
 62
7
  6
CONTINUOUS
 10
49.8531472895
 20
-19.7062712813
 11
49.8518853132
 21
-18.4186798061
  0
LINE
  5
34E
100
AcDbEntity
  8
RACCORDO
100
AcDbLine
 62
7
  6
CONTINUOUS
 10
49.7733191377
 20
35.7787679693
 11
49.7733191377
 21
-34.6161275815
  0
LINE
  5
34F
100
AcDbEntity
  8
RACCORDO
100
AcDbLine
 62
7
  6
CONTINUOUS
 10
50.5762521244
 20
36.581700956
 11
50.5762521244
 21
-35.4190605682
  0
LINE
  5
350
100
AcDbEntity
  8
0
100
AcDbLine
 62
7
  6
CONTINUOUS
 10
50.2527286073
 20
-17.5590860663
 11
50.2531498539
 21
-18.8484766759
  0
LINE
  5
351
100
AcDbEntity
  8
0
100
AcDbLine
 62
7
  6
CONTINUOUS
 10
49.8518853132
 20
-18.4186798061
 11
49.8531472895
 21
-17.1310883309
  0
LINE
  5
352
100
AcDbEntity
  8
0
100
AcDbLine
 62
7
  6
CONTINUOUS
 10
49.8541270559
 20
21.2951027284
 11
49.8524473671
 21
18.7217264542
  0
LINE
  5
353
100
AcDbEntity
  8
0
100
AcDbLine
 62
7
  6
CONTINUOUS
 10
50.2510489186
 20
17.8675376595
 11
50.2527286073
 21
20.4409139337
  0
LINE
  5
354
100
AcDbEntity
  8
0
100
AcDbLine
 62
7
  6
CONTINUOUS
 10
50.2531498539
 20
-18.8484766759
 11
50.2510489186
 21
-20.1324623405
  0
LINE
  5
355
100
AcDbEntity
  8
0
100
AcDbLine
 62
7
  6
CONTINUOUS
 10
49.8531472895
 20
-17.1310883309
 11
49.8569173483
 21
-15.8596890656
  0
LINE
  5
356
100
AcDbEntity
  8
0
100
AcDbLine
 62
7
  6
CONTINUOUS
 10
50.2510489186
 20
-20.1324623405
 11
50.2464522219
 21
-21.3948961954
  0
LINE
  5
357
100
AcDbEntity
  8
0
100
AcDbLine
 62
7
  6
CONTINUOUS
 10
49.8569173483
 20
-15.8596890656
 11
49.8631480789
 21
-14.6204705936
  0
LINE
  5
358
100
AcDbEntity
  8
0
100
AcDbLine
 62
7
  6
CONTINUOUS
 10
49.8657584044
 20
23.7825427902
 11
49.8541270559
 21
21.2951027284
  0
LINE
  5
359
100
AcDbEntity
  8
0
100
AcDbLine
 62
7
  6
CONTINUOUS
 10
50.23941757
 20
15.3800975976
 11
50.2510489186
 21
17.8675376595
  0
LINE
  5
35A
100
AcDbEntity
  8
0
100
AcDbLine
 62
7
  6
CONTINUOUS
 10
50.2464522219
 20
-21.3948961954
 11
50.23941757
 21
-22.6199024024
  0
LINE
  5
35B
100
AcDbEntity
  8
0
100
AcDbLine
 62
7
  6
CONTINUOUS
 10
49.8631480789
 20
-14.6204705936
 11
49.8717611262
 21
-13.4290168062
  0
LINE
  5
35C
100
AcDbEntity
  8
0
100
AcDbLine
 62
7
  6
CONTINUOUS
 10
50.23941757
 20
-22.6199024024
 11
50.2300334277
 21
-23.7920757975
  0
LINE
  5
35D
100
AcDbEntity
  8
0
100
AcDbLine
 62
7
  6
CONTINUOUS
 10
49.8717611262
 20
-13.4290168062
 11
49.8826481763
 21
-12.3003109261
  0
LINE
  5
35E
100
AcDbEntity
  8
0
100
AcDbLine
 62
7
  6
CONTINUOUS
 10
49.8867581684
 20
26.0593160083
 11
49.8657584044
 21
23.7825427902
  0
LINE
  5
35F
100
AcDbEntity
  8
0
100
AcDbLine
 62
7
  6
CONTINUOUS
 10
50.2184178061
 20
13.1033243796
 11
50.23941757
 21
15.3800975976
  0
LINE
  5
360
100
AcDbEntity
  8
0
100
AcDbLine
 62
7
  6
CONTINUOUS
 10
50.2300334277
 20
-23.7920757975
 11
50.2184178061
 21
-24.8966756204
  0
LINE
  5
361
100
AcDbEntity
  8
0
100
AcDbLine
 62
7
  6
CONTINUOUS
 10
49.8826481763
 20
-12.3003109261
 11
49.8956723181
 21
-11.2485470847
  0
LINE
  5
362
100
AcDbEntity
  8
0
100
AcDbLine
 62
7
  6
CONTINUOUS
 10
50.2184178061
 20
-24.8966756204
 11
50.2047167782
 21
-25.9198108873
  0
LINE
  5
363
100
AcDbEntity
  8
0
100
AcDbLine
 62
7
  6
CONTINUOUS
 10
50.1997106438
 20
11.7592094839
 11
50.2184178061
 21
13.1033243796
  0
LWPOLYLINE
  5
364
100
AcDbEntity
  8
0
100
AcDbPolyline
 62
7
  6
CONTINUOUS
 90
3
 70
0
 10
49.9106697654
 20
27.7130481776
 10
49.9054653306
 20
27.403430904
 10
49.8867581684
 20
26.0593160083
  0
LINE
  5
365
100
AcDbEntity
  8
0
100
AcDbLine
 62
7
  6
CONTINUOUS
 10
49.8956723181
 20
-11.2485470847
 11
49.9106697654
 21
-10.2869518224
  0
LINE
  5
366
100
AcDbEntity
  8
0
100
AcDbLine
 62
7
  6
CONTINUOUS
 10
50.2047167782
 20
-25.9198108873
 11
50.1891026425
 21
-26.8486150786
  0
LINE
  5
367
100
AcDbEntity
  8
0
100
AcDbLine
 62
7
  6
CONTINUOUS
 10
50.1777240577
 20
10.5902581456
 11
50.1997106438
 21
11.7592094839
  0
LINE
  5
368
100
AcDbEntity
  8
0
100
AcDbLine
 62
7
  6
CONTINUOUS
 10
49.9106697654
 20
-10.2869518224
 11
49.9274519168
 21
-9.4276177577
  0
LINE
  5
369
100
AcDbEntity
  8
0
100
AcDbLine
 62
7
  6
CONTINUOUS
 10
50.1891026425
 20
-26.8486150786
 11
50.1717717559
 21
-27.6714079427
  0
LINE
  5
36A
100
AcDbEntity
  8
0
100
AcDbLine
 62
7
  6
CONTINUOUS
 10
50.1593682477
 20
9.8439919028
 11
50.1777240577
 21
10.5902581456
  0
LINE
  5
36B
100
AcDbEntity
  8
0
100
AcDbLine
 62
7
  6
CONTINUOUS
 10
49.9274519168
 20
-9.4276177577
 11
49.9458077268
 21
-8.6813515149
  0
LINE
  5
36C
100
AcDbEntity
  8
0
100
AcDbLine
 62
7
  6
CONTINUOUS
 10
50.1717717559
 20
-27.6714079427
 11
50.1593682477
 21
-28.1560080972
  0
LINE
  5
36D
100
AcDbEntity
  8
0
100
AcDbLine
 62
7
  6
CONTINUOUS
 10
50.146366678
 20
9.4139291727
 11
50.1593682477
 21
9.8439919028
  0
LINE
  5
36E
100
AcDbEntity
  8
0
100
AcDbLine
 62
7
  6
CONTINUOUS
 10
49.9458077268
 20
-8.6813515149
 11
49.9588092964
 21
-8.2512887848
  0
LINE
  5
36F
100
AcDbEntity
  8
0
100
AcDbLine
 62
7
  6
CONTINUOUS
 10
50.1593682477
 20
-28.1560080972
 11
50.146366678
 21
-28.5860708273
  0
LWPOLYLINE
  5
370
100
AcDbEntity
  8
0
100
AcDbPolyline
 62
7
  6
CONTINUOUS
 90
13
 70
0
 10
49.9588092964
 20
-8.2512887848
 10
49.9723256128
 20
-7.8783250389
 10
49.9792665429
 20
-7.7135897384
 10
49.9863000963
 20
-7.5640215075
 10
49.9934266611
 20
-7.4296839244
 10
50.0006458492
 20
-7.3105134109
 10
50.0079274408
 20
-7.207008816
 10
50.0152716975
 20
-7.1192358091
 10
50.0226783579
 20
-7.0471287208
 10
50.0301164175
 20
-6.9909893923
 10
50.0375755415
 20
-6.9509184372
 10
50.0450660648
 20
-6.9268152418
 10
50.0525879872
 20
-6.9186798061
  0
LWPOLYLINE
  5
371
100
AcDbEntity
  8
0
100
AcDbPolyline
 62
7
  6
CONTINUOUS
 90
13
 70
0
 10
50.146366678
 20
-28.5860708273
 10
50.1328503617
 20
-28.9590345732
 10
50.1259094315
 20
-29.1237698737
 10
50.1188758781
 20
-29.2733381046
 10
50.1117493133
 20
-29.4076756877
 10
50.1045301253
 20
-29.5268462013
 10
50.0972485337
 20
-29.6303507962
 10
50.0899042769
 20
-29.7181238031
 10
50.0824976166
 20
-29.7902308913
 10
50.075059557
 20
-29.8463702198
 10
50.067600433
 20
-29.886441175
 10
50.0601099097
 20
-29.9105443704
 10
50.0525879872
 20
-29.9186798061
  0
LINE
  5
372
100
AcDbEntity
  8
RACCORDO
100
AcDbLine
 62
7
  6
CONTINUOUS
 10
-57.4237478756
 20
51.5813201939
 11
57.5762521244
 21
51.5813201939
  0
LINE
  5
373
100
AcDbEntity
  8
RACCORDO
100
AcDbLine
 62
7
  6
CONTINUOUS
 10
63.0762521244
 20
46.0813201939
 11
63.0762521244
 21
-44.9186798061
  0
CIRCLE
  5
374
100
AcDbEntity
  8
0
100
AcDbCircle
 62
7
  6
CONTINUOUS
 10
-24.9237478756
 20
0.5813201939
 40
11.5
  0
CIRCLE
  5
375
100
AcDbEntity
  8
0
100
AcDbCircle
 62
7
  6
CONTINUOUS
 10
25.0762521244
 20
0.5813201939
 40
11.5
  0
CIRCLE
  5
376
100
AcDbEntity
  8
0
100
AcDbCircle
 62
7
  6
CONTINUOUS
 10
25.0762521244
 20
0.5813201939
 40
11.25
  0
CIRCLE
  5
377
100
AcDbEntity
  8
0
100
AcDbCircle
 62
7
  6
CONTINUOUS
 10
-24.9237478756
 20
0.5813201939
 40
11.25
  0
CIRCLE
  5
378
100
AcDbEntity
  8
0
100
AcDbCircle
 62
7
  6
CONTINUOUS
 10
25.0762521244
 20
0.5813201939
 40
10.8458548116
  0
CIRCLE
  5
379
100
AcDbEntity
  8
0
100
AcDbCircle
 62
7
  6
CONTINUOUS
 10
-24.9237478756
 20
0.5813201939
 40
10.8458548116
  0
ARC
  5
37A
100
AcDbEntity
  8
RACCORDO
100
AcDbCircle
 62
7
  6
CONTINUOUS
 10
-57.4237478756
 20
46.0813201939
 40
5.5
100
AcDbArc
 50
90.0
 51
180.0
  0
ARC
  5
37B
100
AcDbEntity
  8
RACCORDO
100
AcDbCircle
 62
7
  6
CONTINUOUS
 10
57.5762521244
 20
46.0813201939
 40
5.5
100
AcDbArc
 50
0.0
 51
90.0
  0
ARC
  5
37C
100
AcDbEntity
  8
RACCORDO
100
AcDbCircle
 62
7
  6
CONTINUOUS
 10
57.5762521244
 20
-44.9186798061
 40
5.5
100
AcDbArc
 50
270.0
 51
360.0
  0
ARC
  5
37D
100
AcDbEntity
  8
RACCORDO
100
AcDbCircle
 62
7
  6
CONTINUOUS
 10
-57.4237478756
 20
-44.9186798061
 40
5.5
100
AcDbArc
 50
180.0
 51
270.0
  0
CIRCLE
  5
37E
100
AcDbEntity
  8
0
100
AcDbCircle
 62
7
  6
CONTINUOUS
 10
41.8262521244
 20
0.5813201939
 40
2.4
  0
CIRCLE
  5
37F
100
AcDbEntity
  8
0
100
AcDbCircle
 62
7
  6
CONTINUOUS
 10
-41.6737478756
 20
0.5813201939
 40
2.4
  0
ELLIPSE
  5
380
100
AcDbEntity
  8
RACCORDO
100
AcDbEllipse
 62
7
  6
CONTINUOUS
 10
47.2729383176
 20
-34.6153659993
 30
0.0
 11
1.7683054729
 21
-1.7683054729
 31
0.0
 40
0.9996954599
 41
-0.7852458701
 42
0.7852458701
  0
ELLIPSE
  5
381
100
AcDbEntity
  8
RACCORDO
100
AcDbEllipse
 62
7
  6
CONTINUOUS
 10
-47.1204340688
 20
-34.6153659993
 30
0.0
 11
-1.7683054729
 21
-1.7683054729
 31
0.0
 40
0.9996954599
 41
-0.7852458701
 42
0.7852458701
  0
ELLIPSE
  5
382
100
AcDbEntity
  8
RACCORDO
100
AcDbEllipse
 62
7
  6
CONTINUOUS
 10
-47.1204340688
 20
35.7780063871
 30
0.0
 11
-1.7683054729
 21
1.7683054729
 31
0.0
 40
0.9996954599
 41
-0.7852458701
 42
0.7852458701
  0
ELLIPSE
  5
383
100
AcDbEntity
  8
RACCORDO
100
AcDbEllipse
 62
7
  6
CONTINUOUS
 10
47.2729383176
 20
35.7780063871
 30
0.0
 11
1.7683054729
 21
1.7683054729
 31
0.0
 40
0.9996954599
 41
-0.7852458701
 42
0.7852458701
  0
ELLIPSE
  5
384
100
AcDbEntity
  8
RACCORDO
100
AcDbEllipse
 62
7
  6
CONTINUOUS
 10
-47.9233670555
 20
-35.418298986
 30
0.0
 11
1.7683054729
 21
1.7683054729
 31
0.0
 40
0.9996954599
 41
-3.9268385237
 42
-2.3563467834
  0
ELLIPSE
  5
385
100
AcDbEntity
  8
RACCORDO
100
AcDbEllipse
 62
7
  6
CONTINUOUS
 10
-47.9233670555
 20
36.5809393738
 30
0.0
 11
1.7683054729
 21
-1.7683054729
 31
0.0
 40
0.9996954599
 41
2.3563467834
 42
3.9268385237
  0
ELLIPSE
  5
386
100
AcDbEntity
  8
RACCORDO
100
AcDbEllipse
 62
7
  6
CONTINUOUS
 10
48.0758713043
 20
36.5809393738
 30
0.0
 11
1.7683054729
 21
1.7683054729
 31
0.0
 40
0.9996954599
 41
-0.7852458701
 42
0.7852458701
  0
ELLIPSE
  5
387
100
AcDbEntity
  8
RACCORDO
100
AcDbEllipse
 62
7
  6
CONTINUOUS
 10
48.0758713043
 20
-35.418298986
 30
0.0
 11
1.7683054729
 21
-1.7683054729
 31
0.0
 40
0.9996954599
 41
-0.7852458701
 42
0.7852458701
  0
ENDSEC
  0
SECTION
  2
OBJECTS
  0
DICTIONARY
  5
C
100
AcDbDictionary
280
0
281
1
  3
ACAD_GROUP
350
D
  3
ACAD_MLINESTYLE
350
17
  3
ACAD_LAYOUT
350
1A
  3
ACAD_PLOTSETTINGS
350
19
  3
ACAD_PLOTSTYLENAME
350
E
  0
DICTIONARY
  5
D
102
{ACAD_REACTORS
330
C
102
}
100
AcDbDictionary
280
0
281
1
  0
ACDBDICTIONARYWDFLT
  5
E
102
{ACAD_REACTORS
330
C
102
}
100
AcDbDictionary
281
1
  3
Normal
350
F
100
AcDbDictionaryWithDefault
340
F
  0
DICTIONARY
  5
17
102
{ACAD_REACTORS
330
C
102
}
100
AcDbDictionary
280
0
281
1
  3
Standard
350
18
  0
DICTIONARY
  5
19
102
{ACAD_REACTORS
330
C
102
}
100
AcDbDictionary
281
1
  0
DICTIONARY
  5
1A
102
{ACAD_REACTORS
330
C
102
}
100
AcDbDictionary
281
1
  3
Model
350
388
  3
Layout1
350
389
  0
ACDBPLACEHOLDER
  5
F
102
{ACAD_REACTORS
330
E
102
}
  0
MLINESTYLE
  5
18
102
{ACAD_REACTORS
330
17
102
}
100
AcDbMlineStyle
  2
STANDARD
 70
0
  3

 62
256
 51
90.0
 52
90.0
 71
2
 49
0.5
 62
256
  6
BYLAYER
 49
-0.5
 62
256
  6
BYLAYER
  0
LAYOUT
  5
388
102
{ACAD_REACTORS
330
1A
102
}
100
AcDbPlotSettings
  1

  2
none_device
  4
ISO_A4_(297.00_x_210.00_MM)
  6

 40
0.0
 41
0.0
 42
0.0
 43
0.0
 44
297.0
 45
210.0
 46
0.0
 47
0.0
 48
0.0
 49
0.0
140
0.0
141
0.0
142
1.0
143
1.0
 70
1024
 72
1
 73
0
 74
0
  7

 75
0
147
1.0
148
0.0
149
0.0
100
AcDbLayout
  1
Model
 70
0
 71
0
 10
0.0
 20
0.0
 11
297.0
 21
210.0
 12
0.0
 22
0.0
 32
0.0
 14
0.0
 24
0.0
 34
0.0
 15
0.0
 25
0.0
 35
0.0
146
0.0
 13
0.0
 23
0.0
 33
0.0
 16
1.0
 26
0.0
 36
0.0
 17
0.0
 27
1.0
 37
0.0
 76
0
330
210
345
0
346
0
  0
LAYOUT
  5
389
102
{ACAD_REACTORS
330
1A
102
}
100
AcDbPlotSettings
  1

  2
none_device
  4
ISO_A4_(297.00_x_210.00_MM)
  6

 40
0.0
 41
0.0
 42
0.0
 43
0.0
 44
297.0
 45
210.0
 46
0.0
 47
0.0
 48
0.0
 49
0.0
140
0.0
141
0.0
142
1.0
143
1.0
 70
0
 72
1
 73
0
 74
0
  7

 75
0
147
1.0
148
0.0
149
0.0
100
AcDbLayout
  1
Layout1
 70
0
 71
1
 10
0.0
 20
0.0
 11
297.0
 21
210.0
 12
0.0
 22
0.0
 32
0.0
 14
0.0
 24
0.0
 34
0.0
 15
0.0
 25
0.0
 35
0.0
146
0.0
 13
0.0
 23
0.0
 33
0.0
 16
1.0
 26
0.0
 36
0.0
 17
0.0
 27
1.0
 37
0.0
 76
0
330
211
345
0
346
0
  0
ENDSEC
  0
EOF
